  0
SECTION
  2
HEADER
  9
$ACADVER
  1
AC1024
  9
$DWGCODEPAGE
  3
ANSI_1252
  9
$EXTMAX
 10
297.0
 20
210.0
 30
0.0
  9
$EXTMIN
 10
0.0
 20
0.0
 30
0.0
  9
$LIMMIN
 10
0.0
 20
0.0
  9
$LIMMAX
 10
297.0
 20
210.0
  9
$VIEWCTR
 10
148.5
 20
105.0
  9
$VIEWSIZE
 40
210.0
  9
$CLAYER
  8
0
  9
$LTSCALE
 40
16.335
  9
$CELTYPE
  6
BYLAYER
  9
$DIMSCALE
 40
1.0
  9
$DIMASZ
 40
3.0
  9
$DIMEXO
 40
0.5
  9
$DIMDLI
 40
11.286
  9
$DIMEXE
 40
1.5
  9
$DIMCEN
 40
2.673
  9
$DIMLFAC
 40
1.0
  9
$DIMBLK
  1
_FILLED
  9
$DIMALT
 70
0
  9
$DIMALTF
 40
0.0393700787
  9
$DIMTXT
 40
3.0
  9
$DIMTOL
 70
1
  9
$DIMLIM
 70
0
  9
$DIMTFAC
 40
1.0
  9
$DIMTP
 40
0.01
  9
$DIMTM
 40
0.01
  9
$DIMGAP
 40
0.625
  9
$DIMDSEP
 70
44
  9
$AUNITS
 70
0
  9
$PDMODE
 70
3
  9
$PDSIZE
 40
3.0
  9
$HANDSEED
  5
658
  9
$TILEMODE
 70
1
  9
$MEASUREMENT
 70
1
  9
$INSUNITS
 70
4
  0
ENDSEC
  0
SECTION
  2
CLASSES
  0
CLASS
  1
ACDBDICTIONARYWDFLT
  2
AcDbDictionaryWithDefault
  3
AutoCAD 2000
 90
0
 91
1
280
0
281
0
  0
CLASS
  1
ACDBPLACEHOLDER
  2
AcDbPlaceHolder
  3
AutoCAD 2000
 90
0
 91
1
280
0
281
0
  0
CLASS
  1
LAYOUT
  2
AcDbLayout
  3
AutoCAD 2000
 90
0
 91
0
280
0
281
0
  0
ENDSEC
  0
SECTION
  2
TABLES
  0
TABLE
  2
VPORT
  5
8
100
AcDbSymbolTable
 70
2
  0
VPORT
  5
1F4
100
AcDbSymbolTableRecord
100
AcDbViewportTableRecord
  2
*ACTIVE
 70
0
 10
0.0
 20
0.0
 11
1.0
 21
1.0
 12
148.5
 22
105.0
 13
0.0
 23
0.0
 14
1.0
 24
1.0
 15
0.0
 25
0.0
 16
0.0
 26
0.0
 36
1.0
 17
0.0
 27
0.0
 37
0.0
 40
210.0
 41
1.4142857143
 42
50.0
 43
0.0
 44
0.0
 50
0.0
 51
0.0
 71
0
 72
100
 73
1
 74
1
 75
0
 76
0
 77
0
 78
0
  0
ENDTAB
  0
TABLE
  2
LTYPE
  5
5
100
AcDbSymbolTable
 70
6
  0
LTYPE
  5
14
100
AcDbSymbolTableRecord
100
AcDbLinetypeTableRecord
  2
BYBLOCK
 70
0
  3

 72
65
 73
0
 40
0.0
  0
LTYPE
  5
15
100
AcDbSymbolTableRecord
100
AcDbLinetypeTableRecord
  2
BYLAYER
 70
0
  3

 72
65
 73
0
 40
0.0
  0
LTYPE
  5
16
100
AcDbSymbolTableRecord
100
AcDbLinetypeTableRecord
  2
CONTINUOUS
 70
64
  3
Solid line
 72
65
 73
0
 40
0.0
  0
LTYPE
  5
1F5
100
AcDbSymbolTableRecord
100
AcDbLinetypeTableRecord
  2
CENTER
 70
64
  3
____ _ ____ _ ____ _ ____ _ ____ _ ____ _ ____
 72
65
 73
4
 40
0.6
 49
0.375
 74
0
 49
-0.075
 74
0
 49
0.075
 74
0
 49
-0.075
 74
0
  0
LTYPE
  5
1F6
100
AcDbSymbolTableRecord
100
AcDbLinetypeTableRecord
  2
HIDDEN
 70
64
  3
- - - - - - - - - - - - - - - - - - - -
 72
65
 73
2
 40
0.2
 49
0.1
 74
0
 49
-0.1
 74
0
  0
LTYPE
  5
1F7
100
AcDbSymbolTableRecord
100
AcDbLinetypeTableRecord
  2
PHANTOM
 70
64
  3
_____ _ _ _____ _ _ _____ _ _ _____
 72
65
 73
6
 40
0.8
 49
0.45
 74
0
 49
-0.05
 74
0
 49
0.1
 74
0
 49
-0.05
 74
0
 49
0.1
 74
0
 49
-0.05
 74
0
  0
LTYPE
  5
1F8
100
AcDbSymbolTableRecord
100
AcDbLinetypeTableRecord
  2
DOT
 70
64
  3
. . . . . . . . . . . . . . . . . . . .
 72
65
 73
2
 40
0.2
 49
0.1
 74
0
 49
-0.1
 74
0
  0
LTYPE
  5
1F9
100
AcDbSymbolTableRecord
100
AcDbLinetypeTableRecord
  2
DASHED
 70
64
  3
- - - - - - - - - - - - - - - - - - - -
 72
65
 73
2
 40
0.2
 49
0.1
 74
0
 49
-0.1
 74
0
  0
ENDTAB
  0
TABLE
  2
LAYER
  5
2
100
AcDbSymbolTable
 70
36
  0
LAYER
  5
10
100
AcDbSymbolTableRecord
100
AcDbLayerTableRecord
  2
0
 70
0
 62
7
  6
CONTINUOUS
370
-3
390
F
  0
LAYER
  5
1FA
100
AcDbSymbolTableRecord
100
AcDbLayerTableRecord
  2
DEFAULT_1
 70
0
 62
7
  6
CENTER
370
-3
390
F
  0
LAYER
  5
1FB
100
AcDbSymbolTableRecord
100
AcDbLayerTableRecord
  2
DEFAULT_2
 70
0
 62
7
  6
HIDDEN
370
-3
390
F
  0
LAYER
  5
1FC
100
AcDbSymbolTableRecord
100
AcDbLayerTableRecord
  2
DEFAULT_3
 70
0
 62
7
  6
PHANTOM
370
-3
390
F
  0
LAYER
  5
1FD
100
AcDbSymbolTableRecord
100
AcDbLayerTableRecord
  2
ASSI
 70
0
 62
7
  6
CONTINUOUS
370
-3
390
F
  0
LAYER
  5
1FE
100
AcDbSymbolTableRecord
100
AcDbLayerTableRecord
  2
COORDINATE
 70
0
 62
7
  6
CONTINUOUS
370
-3
390
F
  0
LAYER
  5
1FF
100
AcDbSymbolTableRecord
100
AcDbLayerTableRecord
  2
COORD_ORIGINE
 70
0
 62
7
  6
CONTINUOUS
370
-3
390
F
  0
LAYER
  5
200
100
AcDbSymbolTableRecord
100
AcDbLayerTableRecord
  2
COPY_PUBLISH
 70
0
 62
7
  6
CONTINUOUS
370
-3
390
F
  0
LAYER
  5
201
100
AcDbSymbolTableRecord
100
AcDbLayerTableRecord
  2
COSMETICI
 70
0
 62
7
  6
CONTINUOUS
370
-3
390
F
  0
LAYER
  5
202
100
AcDbSymbolTableRecord
100
AcDbLayerTableRecord
  2
CURVE
 70
0
 62
7
  6
CONTINUOUS
370
-3
390
F
  0
LAYER
  5
203
100
AcDbSymbolTableRecord
100
AcDbLayerTableRecord
  2
DRAFT
 70
0
 62
7
  6
CONTINUOUS
370
-3
390
F
  0
LAYER
  5
204
100
AcDbSymbolTableRecord
100
AcDbLayerTableRecord
  2
IMPORT_IGES
 70
0
 62
7
  6
CONTINUOUS
370
-3
390
F
  0
LAYER
  5
205
100
AcDbSymbolTableRecord
100
AcDbLayerTableRecord
  2
INTF_11
 70
0
 62
7
  6
CONTINUOUS
370
-3
390
F
  0
LAYER
  5
206
100
AcDbSymbolTableRecord
100
AcDbLayerTableRecord
  2
INTF_2
 70
0
 62
7
  6
CONTINUOUS
370
-3
390
F
  0
LAYER
  5
207
100
AcDbSymbolTableRecord
100
AcDbLayerTableRecord
  2
INTF_8
 70
0
 62
7
  6
CONTINUOUS
370
-3
390
F
  0
LAYER
  5
208
100
AcDbSymbolTableRecord
100
AcDbLayerTableRecord
  2
NOTE
 70
0
 62
7
  6
CONTINUOUS
370
-3
390
F
  0
LAYER
  5
209
100
AcDbSymbolTableRecord
100
AcDbLayerTableRecord
  2
PIANI
 70
0
 62
7
  6
CONTINUOUS
370
-3
390
F
  0
LAYER
  5
20A
100
AcDbSymbolTableRecord
100
AcDbLayerTableRecord
  2
PIANI_ORIGINE
 70
0
 62
7
  6
CONTINUOUS
370
-3
390
F
  0
LAYER
  5
20B
100
AcDbSymbolTableRecord
100
AcDbLayerTableRecord
  2
PUNTI
 70
0
 62
7
  6
CONTINUOUS
370
-3
390
F
  0
LAYER
  5
20C
100
AcDbSymbolTableRecord
100
AcDbLayerTableRecord
  2
RACCORDO
 70
0
 62
7
  6
CONTINUOUS
370
-3
390
F
  0
LAYER
  5
20D
100
AcDbSymbolTableRecord
100
AcDbLayerTableRecord
  2
SIMBOLI
 70
0
 62
7
  6
CONTINUOUS
370
-3
390
F
  0
LAYER
  5
20E
100
AcDbSymbolTableRecord
100
AcDbLayerTableRecord
  2
SMUSSO
 70
0
 62
7
  6
CONTINUOUS
370
-3
390
F
  0
LAYER
  5
20F
100
AcDbSymbolTableRecord
100
AcDbLayerTableRecord
  2
SNAPLINE
 70
0
 62
7
  6
CONTINUOUS
370
-3
390
F
  0
LAYER
  5
210
100
AcDbSymbolTableRecord
100
AcDbLayerTableRecord
  2
SUPERFICI
 70
0
 62
7
  6
CONTINUOUS
370
-3
390
F
  0
LAYER
  5
211
100
AcDbSymbolTableRecord
100
AcDbLayerTableRecord
  2
TESTO
 70
0
 62
7
  6
CONTINUOUS
370
-3
390
F
  0
LAYER
  5
212
100
AcDbSymbolTableRecord
100
AcDbLayerTableRecord
  2
TRASH
 70
0
 62
7
  6
CONTINUOUS
370
-3
390
F
  0
ENDTAB
  0
TABLE
  2
STYLE
  5
3
100
AcDbSymbolTable
 70
1
  0
STYLE
  5
11
100
AcDbSymbolTableRecord
100
AcDbTextStyleTableRecord
  2
STANDARD
 70
0
 40
0.0
 41
0.8
 50
0.0
 71
0
 42
0.2
  3
txt
  4

  0
STYLE
  5
213
100
AcDbSymbolTableRecord
100
AcDbTextStyleTableRecord
  2
TEXTSTYLE_1
 70
0
 40
0.0
 41
0.8
 50
0.0
 71
0
 42
0.2
  3
gdt
  4

  0
ENDTAB
  0
TABLE
  2
VIEW
  5
6
100
AcDbSymbolTable
 70
0
  0
ENDTAB
  0
TABLE
  2
UCS
  5
7
100
AcDbSymbolTable
 70
0
  0
ENDTAB
  0
TABLE
  2
APPID
  5
9
100
AcDbSymbolTable
 70
1
  0
APPID
  5
214
100
AcDbSymbolTableRecord
100
AcDbRegAppTableRecord
  2
ACAD
 70
0
  0
ENDTAB
  0
TABLE
  2
BLOCK_RECORD
  5
1
100
AcDbSymbolTable
 70
0
  0
BLOCK_RECORD
  5
215
100
AcDbSymbolTableRecord
100
AcDbBlockTableRecord
  2
*Model_Space
  0
BLOCK_RECORD
  5
216
100
AcDbSymbolTableRecord
100
AcDbBlockTableRecord
  2
*Paper_Space
  0
BLOCK_RECORD
  5
217
100
AcDbSymbolTableRecord
100
AcDbBlockTableRecord
  2
_FILLED
  0
ENDTAB
  0
TABLE
  2
DIMSTYLE
  5
A
100
AcDbSymbolTable
 70
1
100
AcDbDimStyleTable
 71
0
  0
DIMSTYLE
105
218
100
AcDbSymbolTableRecord
100
AcDbDimStyleTableRecord
  2
STANDARD
 70
0
  3

  4

 40
1.0
 41
3.0
 42
0.5
 43
0.38
 44
1.5
 45
0.0
 46
0.0
 47
0.01
 48
0.01
140
3.0
141
0.09
142
0.0
143
25.4
144
1.0
145
0.0
146
1.0
147
0.625
 71
1
 72
0
 73
0
 74
0
 75
0
 76
0
 77
1
 78
8
 79
2
170
0
171
1
172
0
173
0
174
0
175
0
176
0
177
0
178
0
270
2
179
2
271
2
272
2
273
2
274
2
275
0
280
0
281
0
282
0
283
1
284
8
285
0
286
0
287
3
288
0
340
11
278
44
341
217
342
217
343
217
344
217
  0
ENDTAB
  0
ENDSEC
  0
SECTION
  2
BLOCKS
  0
BLOCK
  5
20
100
AcDbEntity
  8
0
100
AcDbBlockBegin
  2
*Model_Space
 70
0
 10
0.0
 20
0.0
 30
0.0
  3
*Model_Space
  1

  0
ENDBLK
  5
21
100
AcDbEntity
  8
0
100
AcDbBlockEnd
  0
BLOCK
  5
1C
100
AcDbEntity
  8
0
100
AcDbBlockBegin
  2
*Paper_Space
 70
0
 10
0.0
 20
0.0
 30
0.0
  3
*Paper_Space
  1

  0
ENDBLK
  5
1D
100
AcDbEntity
  8
0
100
AcDbBlockEnd
  0
BLOCK
  5
219
100
AcDbEntity
  8
0
100
AcDbBlockBegin
  2
_FILLED
 70
64
 10
0.0
 20
0.0
  3
_FILLED
  1

  0
SOLID
  5
21A
100
AcDbEntity
  8
0
  6
BYBLOCK
 62
0
100
AcDbTrace
 10
0.0
 20
0.0
 11
-1.0
 21
0.3166666667
 12
-1.0
 22
-0.3166666667
 13
-1.0
 23
-0.3166666667
  0
ENDBLK
  5
21B
100
AcDbEntity
  8
0
  6
BYBLOCK
 62
0
100
AcDbBlockEnd
  0
ENDSEC
  0
SECTION
  2
ENTITIES
  0
LWPOLYLINE
  5
21C
100
AcDbEntity
  8
RACCORDO
100
AcDbPolyline
 62
7
  6
CONTINUOUS
 90
19
 70
0
 10
-38.7724651268
 20
50.3814386303
 10
-38.8553047728
 20
50.3275213558
 10
-38.9856964449
 20
50.2311684727
 10
-39.1108269197
 20
50.1238747394
 10
-39.2302629871
 20
50.0057799324
 10
-39.3437088632
 20
49.8769490101
 10
-39.4504990956
 20
49.7380051799
 10
-39.5504066239
 20
49.5891860269
 10
-39.6433005392
 20
49.4306393758
 10
-39.728847978
 20
49.2629706665
 10
-39.8069597234
 20
49.0864469186
 10
-39.8776112321
 20
48.9012541631
 10
-39.9406654958
 20
48.7079577201
 10
-39.9961130254
 20
48.506835636
 10
-40.0439743883
 20
48.2981332595
 10
-40.0842055841
 20
48.0824530381
 10
-40.1168332347
 20
47.8602487395
 10
-40.1419383892
 20
47.6318245454
 10
-40.1551663003
 20
47.4669421311
  0
LINE
  5
21D
100
AcDbEntity
  8
RACCORDO
100
AcDbLine
 62
7
  6
CONTINUOUS
 10
-38.7724451985
 20
50.3814510897
 11
-28.7844154863
 21
56.5581986313
  0
LINE
  5
21E
100
AcDbEntity
  8
RACCORDO
100
AcDbLine
 62
250
  6
CONTINUOUS
 10
-35.9716684043
 20
49.9599818634
 11
-25.7327696939
 21
56.2918704126
  0
LWPOLYLINE
  5
21F
100
AcDbEntity
  8
RACCORDO
100
AcDbPolyline
 62
250
  6
CONTINUOUS
 90
19
 70
0
 10
-38.7718767879
 20
50.3818027473
 10
-38.6667092464
 20
50.4420753494
 10
-38.5405358603
 20
50.5026551408
 10
-38.4092140579
 20
50.5534116143
 10
-38.2728367298
 20
50.5940817248
 10
-38.1316400939
 20
50.6243618542
 10
-37.9855792236
 20
50.6439809247
 10
-37.8347748231
 20
50.652642419
 10
-37.6795013354
 20
50.6500357726
 10
-37.5199356298
 20
50.6357948732
 10
-37.3560443319
 20
50.6095769508
 10
-37.1883703094
 20
50.5711278798
 10
-37.0180195583
 20
50.5203460661
 10
-36.8452990062
 20
50.4571024409
 10
-36.6706345587
 20
50.3813702794
 10
-36.4954081294
 20
50.293551755
 10
-36.3203811062
 20
50.1939789509
 10
-36.145657258
 20
50.0827175094
 10
-35.9716684043
 20
49.9599818634
  0
LWPOLYLINE
  5
220
100
AcDbEntity
  8
RACCORDO
100
AcDbPolyline
 62
250
  6
CONTINUOUS
 90
16
 70
0
 10
-35.9716684043
 20
49.9599818634
 10
-36.0084822272
 20
49.9413565418
 10
-36.0449259441
 20
49.9194078585
 10
-36.0806857716
 20
49.8943247961
 10
-36.1154538145
 20
49.8663233245
 10
-36.1489307183
 20
49.8356445408
 10
-36.1808282459
 20
49.8025525927
 10
-36.2108717583
 20
49.7673324063
 10
-36.2388025802
 20
49.730287231
 10
-36.2643802277
 20
49.6917360277
 10
-36.2873844769
 20
49.6520107259
 10
-36.3076172614
 20
49.6114533632
 10
-36.324904378
 20
49.5704131388
 10
-36.3390969849
 20
49.5292434107
 10
-36.350072884
 20
49.4882986536
 10
-36.3577375734
 20
49.4479314038
  0
LINE
  5
221
100
AcDbEntity
  8
0
100
AcDbLine
 62
250
  6
CONTINUOUS
 10
-21.4755043422
 20
53.8337787546
 11
-20.9167497381
 21
54.1563966602
  0
LINE
  5
222
100
AcDbEntity
  8
RACCORDO
100
AcDbLine
 62
250
  6
CONTINUOUS
 10
-34.9206097001
 20
39.2701841561
 11
-34.8959211606
 21
39.2834608537
  0
LINE
  5
223
100
AcDbEntity
  8
RACCORDO
100
AcDbLine
 62
7
  6
CONTINUOUS
 10
-25.4554182335
 20
42.8317420707
 11
-21.922266191
 21
45.0149790204
  0
LWPOLYLINE
  5
224
100
AcDbEntity
  8
RACCORDO
100
AcDbPolyline
 62
250
  6
CONTINUOUS
 90
19
 70
0
 10
-26.2025466219
 20
43.2711547646
 10
-26.2297455797
 20
43.2545567701
 10
-26.2566453849
 20
43.2358292697
 10
-26.2831004164
 20
43.2151009486
 10
-26.3090370607
 20
43.1924499033
 10
-26.3342496995
 20
43.1680727056
 10
-26.358418832
 20
43.1423276888
 10
-26.381489725
 20
43.1153476165
 10
-26.4033228909
 20
43.0873775188
 10
-26.4235494639
 20
43.0590325252
 10
-26.4419023694
 20
43.0309375444
 10
-26.4586700501
 20
43.0029073539
 10
-26.4742962265
 20
42.9743115637
 10
-26.4886677955
 20
42.9453865987
 10
-26.5017861096
 20
42.9161461817
 10
-26.514036051
 20
42.8855435417
 10
-26.5253315532
 20
42.8533117638
 10
-26.5352822981
 20
42.8200011423
 10
-26.5436522223
 20
42.7858091065
  0
LWPOLYLINE
  5
225
100
AcDbEntity
  8
RACCORDO
100
AcDbPolyline
 62
250
  6
CONTINUOUS
 90
19
 70
0
 10
-25.9981279821
 20
42.903366534
 10
-26.0093746421
 20
42.8967962932
 10
-26.0203759923
 20
42.889475454
 10
-26.0311320347
 20
42.8814040041
 10
-26.0417176294
 20
42.8724909458
 10
-26.0520579238
 20
42.8628272308
 10
-26.0619283514
 20
42.8526857671
 10
-26.0713170031
 20
42.8420231571
 10
-26.0802357993
 20
42.830882729
 10
-26.0884959155
 20
42.8196674954
 10
-26.0959831941
 20
42.8085498894
 10
-26.1028118003
 20
42.7973574312
 10
-26.1091353914
 20
42.7859757764
 10
-26.1149924616
 20
42.7744695902
 10
-26.1203445267
 20
42.7627741466
 10
-26.1252297805
 20
42.7505809869
 10
-26.1296609631
 20
42.7377872381
 10
-26.1336253565
 20
42.7244956384
 10
-26.1371229724
 20
42.7107061157
  0
LINE
  5
226
100
AcDbEntity
  8
RACCORDO
100
AcDbLine
 62
250
  6
CONTINUOUS
 10
-26.2025466217
 20
43.2711547647
 11
-21.1949959406
 21
45.9717916105
  0
LINE
  5
227
100
AcDbEntity
  8
RACCORDO
100
AcDbLine
 62
250
  6
CONTINUOUS
 10
-21.2020908939
 20
45.489945903
 11
-25.9981279821
 21
42.903366534
  0
LINE
  5
228
100
AcDbEntity
  8
RACCORDO
100
AcDbLine
 62
250
  6
CONTINUOUS
 10
-18.6789849333
 20
43.6122801358
 11
-18.5102840684
 21
43.7030020015
  0
LINE
  5
229
100
AcDbEntity
  8
RACCORDO
100
AcDbLine
 62
250
  6
CONTINUOUS
 10
-34.9206097001
 20
39.2701841561
 11
-34.9422098144
 21
39.2622017802
  0
LWPOLYLINE
  5
22A
100
AcDbEntity
  8
RACCORDO
100
AcDbPolyline
 62
250
  6
CONTINUOUS
 90
18
 70
0
 10
-34.9422098144
 20
39.2622017802
 10
-34.96554809
 20
39.2554531043
 10
-34.9904073625
 20
39.2500009252
 10
-35.016556315
 20
39.2458959757
 10
-35.0437516298
 20
39.2431764527
 10
-35.0717402528
 20
39.2418676613
 10
-35.1002617481
 20
39.2419817799
 10
-35.1290507215
 20
39.2435177467
 10
-35.1578392897
 20
39.2464612693
 10
-35.1863595736
 20
39.2507849581
 10
-35.2143461899
 20
39.2564485808
 10
-35.2415387218
 20
39.2633994371
 10
-35.267684141
 20
39.2715728488
 10
-35.2925391627
 20
39.2808927618
 10
-35.3158725097
 20
39.2912724537
 10
-35.3374670637
 20
39.302615341
 10
-35.3571218861
 20
39.3148158773
 10
-35.3746540875
 20
39.3277605359
  0
LINE
  5
22B
100
AcDbEntity
  8
RACCORDO
100
AcDbLine
 62
250
  6
CONTINUOUS
 10
-40.6852953222
 20
34.5087324581
 11
-40.6576689569
 21
35.5838980652
  0
LINE
  5
22C
100
AcDbEntity
  8
RACCORDO
100
AcDbLine
 62
250
  6
CONTINUOUS
 10
-40.6576689569
 20
35.5838980652
 11
-40.6257374623
 21
36.6686254929
  0
LINE
  5
22D
100
AcDbEntity
  8
RACCORDO
100
AcDbLine
 62
250
  6
CONTINUOUS
 10
-40.6257374623
 20
36.6686254929
 11
-40.5885157528
 21
37.7763989547
  0
LINE
  5
22E
100
AcDbEntity
  8
RACCORDO
100
AcDbLine
 62
250
  6
CONTINUOUS
 10
-40.5885157528
 20
37.7763989547
 11
-40.5451759221
 21
38.9175312845
  0
LINE
  5
22F
100
AcDbEntity
  8
RACCORDO
100
AcDbLine
 62
250
  6
CONTINUOUS
 10
-40.5451759221
 20
38.9175312845
 11
-40.4944053263
 21
40.1111550471
  0
LINE
  5
230
100
AcDbEntity
  8
RACCORDO
100
AcDbLine
 62
250
  6
CONTINUOUS
 10
-40.4944053263
 20
40.1111550471
 11
-40.4346365556
 21
41.375084853
  0
LWPOLYLINE
  5
231
100
AcDbEntity
  8
RACCORDO
100
AcDbPolyline
 62
250
  6
CONTINUOUS
 90
8
 70
0
 10
-40.4346365556
 20
41.375084853
 10
-40.3644034961
 20
42.7185854172
 10
-40.324830458
 20
43.4240058352
 10
-40.2820876788
 20
44.1516977957
 10
-40.2358969142
 20
44.903827931
 10
-40.1860330716
 20
45.6811656122
 10
-40.1323382064
 20
46.4830779618
 10
-40.0745872881
 20
47.3096451685
  0
LWPOLYLINE
  5
232
100
AcDbEntity
  8
RACCORDO
100
AcDbPolyline
 62
7
  6
CONTINUOUS
 90
10
 70
0
 10
-40.1551644857
 20
47.4669687366
 10
-40.3363567891
 20
44.6174233928
 10
-40.4969325939
 20
41.6174396683
 10
-40.6278567203
 20
38.532784226
 10
-40.7257906835
 20
35.36605817
 10
-40.7947899865
 20
32.1161049085
 10
-40.847216163
 20
28.7762400948
 10
-40.8883154686
 20
25.342714134
 10
-40.9130060046
 20
21.8184681747
 10
-40.9206133829
 20
18.270445545
  0
LWPOLYLINE
  5
233
100
AcDbEntity
  8
RACCORDO
100
AcDbPolyline
 62
250
  6
CONTINUOUS
 90
37
 70
0
 10
-40.0745872881
 20
47.3096451685
 10
-40.0560263634
 20
47.5157537727
 10
-40.0322322095
 20
47.7130386422
 10
-40.0031648122
 20
47.9015140358
 10
-39.9688042059
 20
48.0804063666
 10
-39.9290904718
 20
48.2505176881
 10
-39.8839169191
 20
48.4142281239
 10
-39.8331168183
 20
48.5726160599
 10
-39.7767560214
 20
48.7246390576
 10
-39.7150752608
 20
48.8694965205
 10
-39.6480053271
 20
49.007164076
 10
-39.5755281913
 20
49.1376971837
 10
-39.4979757201
 20
49.2604098773
 10
-39.415315044
 20
49.375259642
 10
-39.327511416
 20
49.4823130875
 10
-39.2349108315
 20
49.581041895
 10
-39.137530171
 20
49.6714229641
 10
-39.0353087148
 20
49.7534950171
 10
-38.9284918026
 20
49.8268168591
 10
-38.8171107321
 20
49.8914276334
 10
-38.7011126122
 20
49.9472958913
 10
-38.5806305507
 20
49.9938695427
 10
-38.4556180088
 20
50.0312237283
 10
-38.3261226466
 20
50.0592829078
 10
-38.192435709
 20
50.0772629687
 10
-38.0544941989
 20
50.0851816587
 10
-37.9123927515
 20
50.083009956
 10
-37.7666828622
 20
50.0698851111
 10
-37.6170901554
 20
50.0456371357
 10
-37.4639559314
 20
50.0104121698
 10
-37.3087896237
 20
49.9638093891
 10
-37.1515389836
 20
49.9055057246
 10
-36.9923695298
 20
49.8357838821
 10
-36.8331530266
 20
49.755138986
 10
-36.6745663982
 20
49.6637171904
 10
-36.5160734073
 20
49.5613222079
 10
-36.3577375734
 20
49.4479314038
  0
LWPOLYLINE
  5
234
100
AcDbEntity
  8
RACCORDO
100
AcDbPolyline
 62
250
  6
CONTINUOUS
 90
3
 70
0
 10
-34.9132078243
 20
39.297589902
 10
-34.917025307
 20
39.2847381617
 10
-34.9206128006
 20
39.2701824888
  0
LWPOLYLINE
  5
235
100
AcDbEntity
  8
RACCORDO
100
AcDbPolyline
 62
250
  6
CONTINUOUS
 90
11
 70
0
 10
-18.6789849333
 20
43.6122801358
 10
-18.7011120842
 20
43.5926720696
 10
-18.7252376283
 20
43.5746111785
 10
-18.7511027286
 20
43.5582912255
 10
-18.7784298854
 20
43.5438872956
 10
-18.8069259166
 20
43.5315539158
 10
-18.8362851037
 20
43.5214233982
 10
-18.866192465
 20
43.5136044231
 10
-18.8963271403
 20
43.5081808706
 10
-18.9263658369
 20
43.5052109216
 10
-18.9393264422
 20
43.5049989315
  0
LINE
  5
236
100
AcDbEntity
  8
RACCORDO
100
AcDbLine
 62
250
  6
CONTINUOUS
 10
-27.3671411869
 20
34.4009464117
 11
-27.6762186661
 21
34.246235419
  0
LINE
  5
237
100
AcDbEntity
  8
RACCORDO
100
AcDbLine
 62
7
  6
CONTINUOUS
 10
-27.7205059649
 20
34.1516475104
 11
-27.3791032594
 21
34.3225404698
  0
LINE
  5
238
100
AcDbEntity
  8
RACCORDO
100
AcDbLine
 62
250
  6
CONTINUOUS
 10
-27.7492126109
 20
34.1395255334
 11
-27.7572200638
 21
34.1363471027
  0
LWPOLYLINE
  5
239
100
AcDbEntity
  8
RACCORDO
100
AcDbPolyline
 62
7
  6
CONTINUOUS
 90
27
 70
0
 10
7.7518239134
 20
-45.0669316832
 10
8.239637651
 20
-44.9866114843
 10
8.3344009083
 20
-44.9716827558
 10
8.428265933
 20
-44.9574692965
 10
8.5212766816
 20
-44.9441011418
 10
8.6134649969
 20
-44.9317145276
 10
8.7047595825
 20
-44.9204514163
 10
8.7951394764
 20
-44.9104368864
 10
8.8846212399
 20
-44.9017992272
 10
8.9731665668
 20
-44.894677337
 10
9.0607128857
 20
-44.8892031101
 10
9.1471981158
 20
-44.8854988944
 10
9.2324880982
 20
-44.8836860722
 10
9.3163900585
 20
-44.8838795425
 10
9.3987247236
 20
-44.8861813404
 10
9.4792655878
 20
-44.8906678321
 10
9.5575891902
 20
-44.8973579704
 10
9.6335304678
 20
-44.9062673623
 10
9.7070994438
 20
-44.9174312708
 10
9.7778890625
 20
-44.9307755198
 10
9.8456277745
 20
-44.9462058236
 10
9.9104022967
 20
-44.9637094542
 10
9.9718480462
 20
-44.9831117809
 10
10.0297536411
 20
-45.0042274873
 10
10.0843677298
 20
-45.0270427154
 10
10.1356421986
 20
-45.0514035499
 10
10.1862324992
 20
-45.0786811178
  0
LWPOLYLINE
  5
23A
100
AcDbEntity
  8
RACCORDO
100
AcDbPolyline
 62
250
  6
CONTINUOUS
 90
33
 70
0
 10
8.1495033035
 20
-44.8311589277
 10
7.6792707822
 20
-44.8985538356
 10
7.5931335176
 20
-44.9103233988
 10
7.5096608994
 20
-44.9212793849
 10
7.4288226868
 20
-44.9313297296
 10
7.3501475656
 20
-44.9405092469
 10
7.2736784439
 20
-44.9487512551
 10
7.199430854
 20
-44.9559980697
 10
7.1269050308
 20
-44.9622836913
 10
7.0560828722
 20
-44.9675590818
 10
6.9870304519
 20
-44.9717749602
 10
6.9193944209
 20
-44.9749363622
 10
6.8531544712
 20
-44.9769963609
 10
6.7883791975
 20
-44.977907569
 10
6.7248660526
 20
-44.9776480558
 10
6.6625448686
 20
-44.9761712856
 10
6.6015365157
 20
-44.9734272978
 10
6.5419270951
 20
-44.9693859934
 10
6.4835409961
 20
-44.9640101213
 10
6.4265853882
 20
-44.9572711111
 10
6.3716774755
 20
-44.9492209111
 10
6.3187251356
 20
-44.9399060399
 10
6.2677576939
 20
-44.9293665311
 10
6.219487092
 20
-44.9177865377
 10
6.1739538107
 20
-44.9053445557
 10
6.1309385583
 20
-44.8921403492
 10
6.0906938202
 20
-44.8783554876
 10
6.0532361092
 20
-44.8642075698
 10
6.0183322914
 20
-44.8498247766
 10
5.9858450418
 20
-44.8352821607
 10
5.9556669637
 20
-44.8207047086
 10
5.9277184612
 20
-44.8062699235
 10
5.9019119966
 20
-44.7921198956
  0
LWPOLYLINE
  5
23B
100
AcDbEntity
  8
RACCORDO
100
AcDbPolyline
 62
250
  6
CONTINUOUS
 90
8
 70
0
 10
21.3327822255
 20
-50.8903872151
 10
21.3108174606
 20
-50.883283542
 10
21.2911435308
 20
-50.8742436181
 10
21.2739783081
 20
-50.8633678693
 10
21.2595119136
 20
-50.850777156
 10
21.247904282
 20
-50.8366111474
 10
21.2392836111
 20
-50.821026656
 10
21.2378541047
 20
-50.8175685541
  0
LWPOLYLINE
  5
23C
100
AcDbEntity
  8
RACCORDO
100
AcDbPolyline
 62
7
  6
CONTINUOUS
 90
34
 70
0
 10
-40.1549517112
 20
-10.01611455
 10
-40.140396861
 20
-10.1841410417
 10
-40.1139279052
 20
-10.4155428841
 10
-40.0796994562
 20
-10.6514697456
 10
-40.037792034
 20
-10.8912520128
 10
-39.988290219
 20
-11.134396615
 10
-39.9312464632
 20
-11.3805417361
 10
-39.8667472165
 20
-11.6291372385
 10
-39.794920476
 20
-11.8795925343
 10
-39.7158520315
 20
-12.1314600541
 10
-39.6296748373
 20
-12.3841565188
 10
-39.5365598561
 20
-12.6371013661
 10
-39.4366328672
 20
-12.8898334124
 10
-39.3300825476
 20
-13.1417762098
 10
-39.2171256749
 20
-13.3923697441
 10
-39.097925888
 20
-13.6411673712
 10
-38.9727277521
 20
-13.8876174
 10
-38.8417954783
 20
-14.1311777564
 10
-38.7053370975
 20
-14.3714208091
 10
-38.5636540649
 20
-14.6078244474
 10
-38.4170568252
 20
-14.8398692664
 10
-38.2658013795
 20
-15.0671577643
 10
-38.110235588
 20
-15.2892000611
 10
-37.9507168981
 20
-15.5055004772
 10
-37.7875448346
 20
-15.7156939947
 10
-37.6211057977
 20
-15.9193163959
 10
-37.4517947116
 20
-16.1159125282
 10
-37.2799276478
 20
-16.3051622959
 10
-37.1059260174
 20
-16.4866198661
 10
-36.9301921329
 20
-16.6598878851
 10
-36.752976865
 20
-16.8247264976
 10
-36.574625513
 20
-16.9807863444
 10
-36.3956474904
 20
-17.1276089572
 10
-36.2663671082
 20
-17.2275870378
  0
LINE
  5
23D
100
AcDbEntity
  8
RACCORDO
100
AcDbLine
 62
7
  6
CONTINUOUS
 10
-40.1549517112
 20
-10.01611455
 11
-40.1549492227
 21
-10.0161480437
  0
LINE
  5
23E
100
AcDbEntity
  8
RACCORDO
100
AcDbLine
 62
250
  6
CONTINUOUS
 10
-40.0745872881
 20
-10.1686772105
 11
-40.1646401798
 21
-8.9608983401
  0
LINE
  5
23F
100
AcDbEntity
  8
RACCORDO
100
AcDbLine
 62
250
  6
CONTINUOUS
 10
-40.1646401798
 20
-8.9608983401
 11
-40.245795115
 21
-7.789287013
  0
LINE
  5
240
100
AcDbEntity
  8
RACCORDO
100
AcDbLine
 62
250
  6
CONTINUOUS
 10
-40.245795115
 20
-7.789287013
 11
-40.3191656243
 21
-6.6454734447
  0
LINE
  5
241
100
AcDbEntity
  8
RACCORDO
100
AcDbLine
 62
250
  6
CONTINUOUS
 10
-40.3191656243
 20
-6.6454734447
 11
-40.3870353487
 21
-5.4959906056
  0
LWPOLYLINE
  5
242
100
AcDbEntity
  8
RACCORDO
100
AcDbPolyline
 62
250
  6
CONTINUOUS
 90
7
 70
0
 10
-40.9206133828
 20
18.2700540176
 10
-40.9195968981
 20
18.2518599432
 10
-40.9152245211
 20
18.227999892
 10
-40.9074325752
 20
18.2044295853
 10
-40.8962749314
 20
18.1813119729
 10
-40.8818287304
 20
18.158806823
 10
-40.8641938485
 20
18.1370696849
  0
LINE
  5
243
100
AcDbEntity
  8
RACCORDO
100
AcDbLine
 62
250
  6
CONTINUOUS
 10
-40.3870353487
 20
-5.4959906056
 11
-40.4492926173
 21
-4.3403838975
  0
LINE
  5
244
100
AcDbEntity
  8
RACCORDO
100
AcDbLine
 62
250
  6
CONTINUOUS
 10
-40.4492926173
 20
-4.3403838975
 11
-40.5060490921
 21
-3.1732496575
  0
LINE
  5
245
100
AcDbEntity
  8
RACCORDO
100
AcDbLine
 62
250
  6
CONTINUOUS
 10
-40.5060490921
 20
-3.1732496575
 11
-40.5576546206
 21
-1.9825014209
  0
LWPOLYLINE
  5
246
100
AcDbEntity
  8
RACCORDO
100
AcDbPolyline
 62
250
  6
CONTINUOUS
 90
3
 70
0
 10
-40.5576546206
 20
-1.9825014209
 10
-40.6040613041
 20
-0.7607614691
 10
-40.6252514993
 20
-0.1371869322
  0
LINE
  5
247
100
AcDbEntity
  8
RACCORDO
100
AcDbLine
 62
250
  6
CONTINUOUS
 10
-40.6252514993
 20
-0.1371869322
 11
-40.6630499303
 21
1.1208749053
  0
LINE
  5
248
100
AcDbEntity
  8
RACCORDO
100
AcDbLine
 62
250
  6
CONTINUOUS
 10
-40.6630499303
 20
1.1208749053
 11
-40.6951597667
 21
2.3839270627
  0
LINE
  5
249
100
AcDbEntity
  8
RACCORDO
100
AcDbLine
 62
250
  6
CONTINUOUS
 10
-40.6951597667
 20
2.3839270627
 11
-40.7219042091
 21
3.6221670867
  0
LINE
  5
24A
100
AcDbEntity
  8
RACCORDO
100
AcDbLine
 62
250
  6
CONTINUOUS
 10
-40.7219042091
 20
3.6221670867
 11
-40.7443066708
 21
4.8161395905
  0
LINE
  5
24B
100
AcDbEntity
  8
RACCORDO
100
AcDbLine
 62
250
  6
CONTINUOUS
 10
-40.7443066708
 20
4.8161395905
 11
-40.7721864821
 21
6.5044141085
  0
LINE
  5
24C
100
AcDbEntity
  8
RACCORDO
100
AcDbLine
 62
250
  6
CONTINUOUS
 10
-40.7721864821
 20
6.5044141085
 11
-40.8020677288
 21
8.5535856326
  0
LINE
  5
24D
100
AcDbEntity
  8
RACCORDO
100
AcDbLine
 62
250
  6
CONTINUOUS
 10
-40.8020677288
 20
8.5535856326
 11
-40.8198083201
 21
9.9671671012
  0
LINE
  5
24E
100
AcDbEntity
  8
RACCORDO
100
AcDbLine
 62
250
  6
CONTINUOUS
 10
-40.8198083201
 20
9.9671671012
 11
-40.8342635114
 21
11.327251393
  0
LINE
  5
24F
100
AcDbEntity
  8
RACCORDO
100
AcDbLine
 62
250
  6
CONTINUOUS
 10
-40.8342635114
 20
11.327251393
 11
-40.846001529
 21
12.7040763364
  0
LINE
  5
250
100
AcDbEntity
  8
RACCORDO
100
AcDbLine
 62
250
  6
CONTINUOUS
 10
-40.846001529
 20
12.7040763364
 11
-40.8549915257
 21
14.1647531681
  0
LWPOLYLINE
  5
251
100
AcDbEntity
  8
RACCORDO
100
AcDbPolyline
 62
250
  6
CONTINUOUS
 90
8
 70
0
 10
-40.1551663003
 20
47.4669421311
 10
-40.1550891648
 20
47.4469753777
 10
-40.151308254
 20
47.4232698576
 10
-40.1435590767
 20
47.3996413595
 10
-40.1319037626
 20
47.3762793142
 10
-40.116435757
 20
47.3533710154
 10
-40.0972790711
 20
47.3311001185
 10
-40.0745872881
 20
47.3096451685
  0
LINE
  5
252
100
AcDbEntity
  8
RACCORDO
100
AcDbLine
 62
250
  6
CONTINUOUS
 10
-40.8549915257
 20
14.1647531681
 11
-40.8605987852
 21
15.7551601382
  0
LWPOLYLINE
  5
253
100
AcDbEntity
  8
RACCORDO
100
AcDbPolyline
 62
7
  6
CONTINUOUS
 90
10
 70
0
 10
-40.9206138762
 20
18.2700554852
 10
-40.9130005056
 20
14.7255367702
 10
-40.888266093
 20
11.2305924539
 10
-40.8471444273
 20
7.845933954
 10
-40.794689346
 20
4.5684455478
 10
-40.7256381046
 20
1.4005935324
 10
-40.6276117911
 20
-1.6495949637
 10
-40.4965849104
 20
-4.5784567692
 10
-40.3358890797
 20
-7.3873663903
 10
-40.1549492227
 20
-10.0161480437
  0
LINE
  5
254
100
AcDbEntity
  8
RACCORDO
100
AcDbLine
 62
250
  6
CONTINUOUS
 10
-40.8605987852
 20
15.7551601382
 11
-40.8641939512
 21
18.1367850047
  0
LINE
  5
255
100
AcDbEntity
  8
RACCORDO
100
AcDbLine
 62
250
  6
CONTINUOUS
 10
-40.8641937832
 20
18.1367850337
 11
-40.8601132731
 21
20.7198415397
  0
LINE
  5
256
100
AcDbEntity
  8
RACCORDO
100
AcDbLine
 62
250
  6
CONTINUOUS
 10
-40.8601132731
 20
20.7198415397
 11
-40.854233125
 21
22.2734004665
  0
LINE
  5
257
100
AcDbEntity
  8
RACCORDO
100
AcDbLine
 62
250
  6
CONTINUOUS
 10
-40.854233125
 20
22.2734004665
 11
-40.8439946254
 21
23.8577920379
  0
LINE
  5
258
100
AcDbEntity
  8
RACCORDO
100
AcDbLine
 62
250
  6
CONTINUOUS
 10
-40.8439946254
 20
23.8577920379
 11
-40.8296663245
 21
25.4493438774
  0
LINE
  5
259
100
AcDbEntity
  8
RACCORDO
100
AcDbLine
 62
250
  6
CONTINUOUS
 10
-40.8296663245
 20
25.4493438774
 11
-40.8116724509
 21
27.0427765727
  0
LINE
  5
25A
100
AcDbEntity
  8
RACCORDO
100
AcDbLine
 62
250
  6
CONTINUOUS
 10
-40.8116724509
 20
27.0427765727
 11
-40.7904799377
 21
28.638590277
  0
LINE
  5
25B
100
AcDbEntity
  8
RACCORDO
100
AcDbLine
 62
250
  6
CONTINUOUS
 10
-40.7904799377
 20
28.638590277
 11
-40.7581327158
 21
30.7699558845
  0
LINE
  5
25C
100
AcDbEntity
  8
RACCORDO
100
AcDbLine
 62
250
  6
CONTINUOUS
 10
-40.7581327158
 20
30.7699558845
 11
-40.7304525868
 21
32.3704151757
  0
LINE
  5
25D
100
AcDbEntity
  8
RACCORDO
100
AcDbLine
 62
250
  6
CONTINUOUS
 10
-40.7304525868
 20
32.3704151757
 11
-40.7093321839
 21
33.4384191551
  0
LINE
  5
25E
100
AcDbEntity
  8
RACCORDO
100
AcDbLine
 62
250
  6
CONTINUOUS
 10
-40.7093321839
 20
33.4384191551
 11
-40.6852953222
 21
34.5087324581
  0
LINE
  5
25F
100
AcDbEntity
  8
RACCORDO
100
AcDbLine
 62
250
  6
CONTINUOUS
 10
-35.1419007729
 20
32.0239674179
 11
-35.1064252269
 21
32.642051595
  0
LINE
  5
260
100
AcDbEntity
  8
RACCORDO
100
AcDbLine
 62
250
  6
CONTINUOUS
 10
-35.1064252269
 20
32.642051595
 11
-35.066843586
 21
33.2755286951
  0
LINE
  5
261
100
AcDbEntity
  8
RACCORDO
100
AcDbLine
 62
250
  6
CONTINUOUS
 10
-35.066843586
 20
33.2755286951
 11
-35.0226285956
 21
33.9280395907
  0
LINE
  5
262
100
AcDbEntity
  8
RACCORDO
100
AcDbLine
 62
250
  6
CONTINUOUS
 10
-35.0226285956
 20
33.9280395907
 11
-34.9730464626
 21
34.6050088424
  0
LINE
  5
263
100
AcDbEntity
  8
RACCORDO
100
AcDbLine
 62
250
  6
CONTINUOUS
 10
-34.9730464626
 20
34.6050088424
 11
-34.9171452319
 21
35.3134866928
  0
LWPOLYLINE
  5
264
100
AcDbEntity
  8
RACCORDO
100
AcDbPolyline
 62
250
  6
CONTINUOUS
 90
16
 70
0
 10
-35.1370131021
 20
37.0219715126
 10
-35.1788740431
 20
36.5339167286
 10
-35.2212440708
 20
36.0176187834
 10
-35.2635266699
 20
35.4795571498
 10
-35.3044584108
 20
34.9269526052
 10
-35.3439544869
 20
34.3588952917
 10
-35.3820997047
 20
33.7762950672
 10
-35.4178850542
 20
33.1891022826
 10
-35.4510389697
 20
32.5986581036
 10
-35.4818330168
 20
32.0036213646
 10
-35.5100728826
 20
31.4099189193
 10
-35.5355621299
 20
30.8190902759
 10
-35.5584971959
 20
30.2295959262
 10
-35.579273079
 20
29.6427442
 10
-35.5978253574
 20
29.059332901
 10
-35.6290406301
 20
27.8993530922
  0
LINE
  5
265
100
AcDbEntity
  8
RACCORDO
100
AcDbLine
 62
250
  6
CONTINUOUS
 10
-34.9171452319
 20
35.3134866928
 11
-34.8542588097
 21
36.0550724487
  0
LWPOLYLINE
  5
266
100
AcDbEntity
  8
RACCORDO
100
AcDbPolyline
 62
250
  6
CONTINUOUS
 90
18
 70
0
 10
-35.5934279787
 20
37.0761492631
 10
-35.6359414104
 20
36.5871905305
 10
-35.678912828
 20
36.0699278895
 10
-35.7214706009
 20
35.5309485623
 10
-35.7628458844
 20
34.9773048733
 10
-35.802890627
 20
34.4081017149
 10
-35.8413013295
 20
33.8243951029
 10
-35.8773260463
 20
33.2360749358
 10
-35.9108569859
 20
32.6444170571
 10
-35.9419148519
 20
32.0481766567
 10
-35.9702170142
 20
31.4533640975
 10
-35.9958476403
 20
30.8614248333
 10
-36.0190153435
 20
30.2708090791
 10
-36.0397891617
 20
29.6829755427
 10
-36.0583380955
 20
29.0986460415
 10
-36.0749013122
 20
28.5169533093
 10
-36.089676935
 20
27.9369639341
 10
-36.1146569577
 20
26.7820271753
  0
LINE
  5
267
100
AcDbEntity
  8
RACCORDO
100
AcDbLine
 62
250
  6
CONTINUOUS
 10
-34.8542588097
 20
36.0550724487
 11
-34.7836673208
 21
36.8317290351
  0
LINE
  5
268
100
AcDbEntity
  8
RACCORDO
100
AcDbLine
 62
250
  6
CONTINUOUS
 10
-35.0525028191
 20
37.9450076563
 11
-35.1370131021
 21
37.0219715126
  0
LINE
  5
269
100
AcDbEntity
  8
RACCORDO
100
AcDbLine
 62
250
  6
CONTINUOUS
 10
-35.5081313398
 20
38.0006221124
 11
-35.5934279787
 21
37.0761492631
  0
LWPOLYLINE
  5
26A
100
AcDbEntity
  8
RACCORDO
100
AcDbPolyline
 62
7
  6
CONTINUOUS
 90
13
 70
0
 10
-34.7200970433
 20
38.539681678
 10
-34.8993941756
 20
36.6957534056
 10
-35.0619518782
 20
34.7262346834
 10
-35.1956929009
 20
32.7212746999
 10
-35.2990706253
 20
30.6825799336
 10
-35.3734868423
 20
28.61047377
 10
-35.4239911907
 20
26.5030602064
 10
-35.4579054146
 20
24.3566494933
 10
-35.4811389319
 20
22.1676527692
 10
-35.4969619585
 20
19.9341049339
 10
-35.5073289706
 20
17.6546959863
 10
-35.5127701954
 20
15.3291108433
 10
-35.5129714629
 20
10.8791367399
  0
LINE
  5
26B
100
AcDbEntity
  8
RACCORDO
100
AcDbLine
 62
250
  6
CONTINUOUS
 10
-34.7836673208
 20
36.8317290351
 11
-34.707613379
 21
37.6154779166
  0
LWPOLYLINE
  5
26C
100
AcDbEntity
  8
RACCORDO
100
AcDbPolyline
 62
250
  6
CONTINUOUS
 90
3
 70
0
 10
-34.9206097001
 20
39.2701841561
 10
-34.965187617
 20
38.8380047037
 10
-35.0525028191
 20
37.9450076563
  0
LWPOLYLINE
  5
26D
100
AcDbEntity
  8
RACCORDO
100
AcDbPolyline
 62
250
  6
CONTINUOUS
 90
3
 70
0
 10
-35.3746541478
 20
39.3277599654
 10
-35.4195638031
 20
38.8950445689
 10
-35.5081313398
 20
38.0006221124
  0
LINE
  5
26E
100
AcDbEntity
  8
RACCORDO
100
AcDbLine
 62
250
  6
CONTINUOUS
 10
-34.707613379
 20
37.6154779166
 11
-34.6268599194
 21
38.3991588441
  0
LINE
  5
26F
100
AcDbEntity
  8
RACCORDO
100
AcDbLine
 62
7
  6
CONTINUOUS
 10
-27.2114258751
 20
35.4126000536
 11
-27.0817806199
 21
35.7901000623
  0
LWPOLYLINE
  5
270
100
AcDbEntity
  8
RACCORDO
100
AcDbPolyline
 62
250
  6
CONTINUOUS
 90
7
 70
0
 10
-27.6871387934
 20
34.2416646884
 10
-27.6853090378
 20
34.2423061447
 10
-27.683483176
 20
34.2429957338
 10
-27.6816612079
 20
34.2437334556
 10
-27.6798431336
 20
34.2445193104
 10
-27.678028953
 20
34.2453532982
 10
-27.6762186661
 20
34.246235419
  0
LWPOLYLINE
  5
271
100
AcDbEntity
  8
RACCORDO
100
AcDbPolyline
 62
7
  6
CONTINUOUS
 90
6
 70
0
 10
-27.7572200638
 20
34.1363471027
 10
-27.7560494905
 20
34.1367433418
 10
-27.7453884563
 20
34.140623589
 10
-27.7347680952
 20
34.1449845982
 10
-27.7242174834
 20
34.1498223352
 10
-27.7205203912
 20
34.151640237
  0
LWPOLYLINE
  5
272
100
AcDbEntity
  8
RACCORDO
100
AcDbPolyline
 62
250
  6
CONTINUOUS
 90
49
 70
0
 10
-27.687101984
 20
34.2416786708
 10
-27.6946655144
 20
34.2393847369
 10
-27.7022005164
 20
34.2373981505
 10
-27.7096781689
 20
34.2356997903
 10
-27.7170246266
 20
34.2342788758
 10
-27.7242627254
 20
34.2331044113
 10
-27.7315199233
 20
34.2321392704
 10
-27.738787071
 20
34.2313753596
 10
-27.7460490383
 20
34.2308048979
 10
-27.753439032
 20
34.230413777
 10
-27.7609963065
 20
34.2302035789
 10
-27.7686706288
 20
34.230179084
 10
-27.7764668743
 20
34.230342423
 10
-27.7843917606
 20
34.2306967637
 10
-27.7924259063
 20
34.2312439198
 10
-27.8005343784
 20
34.2319827976
 10
-27.8087100502
 20
34.2329131486
 10
-27.8169449886
 20
34.2340342266
 10
-27.8252018677
 20
34.2353401618
 10
-27.8334720566
 20
34.2368278749
 10
-27.8417487068
 20
34.2384942112
 10
-27.8499967151
 20
34.2403294047
 10
-27.8581849507
 20
34.2423223251
 10
-27.8663303513
 20
34.2444727867
 10
-27.8744699666
 20
34.2467884467
 10
-27.8825698811
 20
34.2492581158
 10
-27.8906512137
 20
34.2518865644
 10
-27.8988322103
 20
34.2547153056
 10
-27.9071093403
 20
34.2577502521
 10
-27.915469758
 20
34.2609937836
 10
-27.9240136331
 20
34.2644954448
 10
-27.9327481447
 20
34.2682734629
 10
-27.9416407704
 20
34.2723292532
 10
-27.950726803
 20
34.2766959949
 10
-27.9599972109
 20
34.2813892234
 10
-27.96942478
 20
34.2864156537
 10
-27.9790123817
 20
34.2917988448
 10
-27.9887367864
 20
34.2975497456
 10
-27.9985725636
 20
34.3036776145
 10
-28.0085136479
 20
34.3102049668
 10
-28.0185255609
 20
34.3171377844
 10
-28.0285796262
 20
34.3244867047
 10
-28.0386707604
 20
34.3322826459
 10
-28.0487528324
 20
34.3405317076
 10
-28.0587894106
 20
34.3492373406
 10
-28.0687779672
 20
34.3584282627
 10
-28.0786716269
 20
34.3681151409
 10
-28.0883642589
 20
34.3782899628
 10
-28.0977481314
 20
34.3889529302
  0
LWPOLYLINE
  5
273
100
AcDbEntity
  8
RACCORDO
100
AcDbPolyline
 62
7
  6
CONTINUOUS
 90
19
 70
0
 10
25.496847994
 20
-52.8899099461
 10
25.6629711815
 20
-52.960891662
 10
25.8874146642
 20
-53.0484383934
 10
26.1102282704
 20
-53.1256261376
 10
26.3310883519
 20
-53.1922574127
 10
26.5496180785
 20
-53.2481555182
 10
26.7653732585
 20
-53.2931578067
 10
26.9780939057
 20
-53.3271507876
 10
27.1874689243
 20
-53.3500423418
 10
27.3929957053
 20
-53.3617464585
 10
27.5944062573
 20
-53.3622109911
 10
27.7913676466
 20
-53.3514218959
 10
27.9832764468
 20
-53.3294283776
 10
28.169842265
 20
-53.2962882104
 10
28.3507134003
 20
-53.2521129405
 10
28.5251883963
 20
-53.1971696183
 10
28.6929801989
 20
-53.1316711029
 10
28.8537328617
 20
-53.0559098082
 10
28.895322739
 20
-53.0340399226
  0
LINE
  5
274
100
AcDbEntity
  8
RACCORDO
100
AcDbLine
 62
250
  6
CONTINUOUS
 10
25.3998425781
 20
-52.7247316602
 11
24.6401210666
 21
-52.3898056237
  0
LINE
  5
275
100
AcDbEntity
  8
RACCORDO
100
AcDbLine
 62
250
  6
CONTINUOUS
 10
24.6401210666
 20
-52.3898056237
 11
23.9152775673
 21
-52.0673485161
  0
LINE
  5
276
100
AcDbEntity
  8
RACCORDO
100
AcDbLine
 62
7
  6
CONTINUOUS
 10
24.5500597183
 20
-52.4683426282
 11
25.4968657315
 21
-52.8899178046
  0
LINE
  5
277
100
AcDbEntity
  8
RACCORDO
100
AcDbLine
 62
250
  6
CONTINUOUS
 10
23.9152775673
 20
-52.0673485161
 11
23.2241571396
 21
-51.7569195194
  0
LINE
  5
278
100
AcDbEntity
  8
RACCORDO
100
AcDbLine
 62
7
  6
CONTINUOUS
 10
23.5847238686
 20
-52.0335422647
 11
24.5500597183
 21
-52.4683426282
  0
LINE
  5
279
100
AcDbEntity
  8
RACCORDO
100
AcDbLine
 62
250
  6
CONTINUOUS
 10
23.2241571396
 20
-51.7569195194
 11
22.5619858868
 21
-51.4563990841
  0
LINE
  5
27A
100
AcDbEntity
  8
RACCORDO
100
AcDbLine
 62
7
  6
CONTINUOUS
 10
22.6651184584
 20
-51.6138616172
 11
23.5847238686
 21
-52.0335422647
  0
LINE
  5
27B
100
AcDbEntity
  8
RACCORDO
100
AcDbLine
 62
250
  6
CONTINUOUS
 10
22.5619858868
 20
-51.4563990841
 11
21.931454939
 21
-51.1673710216
  0
LINE
  5
27C
100
AcDbEntity
  8
RACCORDO
100
AcDbLine
 62
250
  6
CONTINUOUS
 10
21.931454939
 20
-51.1673710216
 11
21.3327763285
 21
-50.8903860576
  0
LWPOLYLINE
  5
27D
100
AcDbEntity
  8
RACCORDO
100
AcDbPolyline
 62
7
  6
CONTINUOUS
 90
3
 70
0
 10
21.4806895263
 20
-51.0647219318
 10
21.7910690593
 20
-51.2095546087
 10
22.6651184584
 20
-51.6138616172
  0
LWPOLYLINE
  5
27E
100
AcDbEntity
  8
RACCORDO
100
AcDbPolyline
 62
7
  6
CONTINUOUS
 90
20
 70
0
 10
6.0058620767
 20
-45.0018297597
 10
6.0620394606
 20
-45.0316613913
 10
6.1330331652
 20
-45.0640991477
 10
6.2091536493
 20
-45.0929159408
 10
6.28991045
 20
-45.1174279962
 10
6.3745804228
 20
-45.1371996126
 10
6.462659047
 20
-45.1522143807
 10
6.5538393262
 20
-45.1626769231
 10
6.6475763939
 20
-45.1689148461
 10
6.7435283368
 20
-45.1713211897
 10
6.8413551646
 20
-45.1703104274
 10
6.9404709201
 20
-45.166283842
 10
7.0409099288
 20
-45.159610984
 10
7.1424818019
 20
-45.1506271501
 10
7.2442086638
 20
-45.1397381117
 10
7.3461590726
 20
-45.1272396837
 10
7.4484053471
 20
-45.1133949597
 10
7.5500435087
 20
-45.098575171
 10
7.651128222
 20
-45.083025907
 10
7.7518239134
 20
-45.0669316832
  0
LWPOLYLINE
  5
27F
100
AcDbEntity
  8
RACCORDO
100
AcDbPolyline
 62
250
  6
CONTINUOUS
 90
16
 70
0
 10
-33.2342635668
 20
-19.2531666268
 10
-33.2263223361
 20
-19.2651110094
 10
-33.2188297603
 20
-19.2770291722
 10
-33.2117859416
 20
-19.2889211742
 10
-33.2051864814
 20
-19.3008022801
 10
-33.1990359827
 20
-19.3126573431
 10
-33.1933480733
 20
-19.3244408186
 10
-33.1881084365
 20
-19.3361588533
 10
-33.183331643
 20
-19.3478054469
 10
-33.1790747098
 20
-19.3593168667
 10
-33.17531786
 20
-19.3707361137
 10
-33.1720811871
 20
-19.3820203695
 10
-33.1694816348
 20
-19.3929772423
 10
-33.1675583824
 20
-19.4035427158
 10
-33.1662727471
 20
-19.4137810927
 10
-33.1656249559
 20
-19.4236925043
  0
LWPOLYLINE
  5
280
100
AcDbEntity
  8
RACCORDO
100
AcDbPolyline
 62
250
  6
CONTINUOUS
 90
16
 70
0
 10
-32.8672231698
 20
-18.9993258588
 10
-32.8492723027
 20
-19.0296816031
 10
-32.8325441446
 20
-19.0603899997
 10
-32.8170852618
 20
-19.0912844104
 10
-32.8029718781
 20
-19.1220906875
 10
-32.7901836172
 20
-19.1527642161
 10
-32.7786520532
 20
-19.1834942009
 10
-32.7684346668
 20
-19.2141356104
 10
-32.7595814
 20
-19.244536439
 10
-32.7520937385
 20
-19.2748654724
 10
-32.7460448817
 20
-19.3050284979
 10
-32.7415381624
 20
-19.3347647931
 10
-32.7386707595
 20
-19.3639634546
 10
-32.7375308535
 20
-19.3924448822
 10
-32.7381831446
 20
-19.419968418
 10
-32.74068832
 20
-19.4463131768
  0
LWPOLYLINE
  5
281
100
AcDbEntity
  8
RACCORDO
100
AcDbPolyline
 62
250
  6
CONTINUOUS
 90
22
 70
0
 10
-34.7510361585
 20
-15.7487375787
 10
-34.7231776191
 20
-15.9037218614
 10
-34.6911613338
 20
-16.059168867
 10
-34.6549726902
 20
-16.2150701619
 10
-34.6146749682
 20
-16.3708691665
 10
-34.5701763913
 20
-16.5271060138
 10
-34.5212216834
 20
-16.6854126768
 10
-34.4675643527
 20
-16.8467089968
 10
-34.4093999248
 20
-17.0100457176
 10
-34.3471345637
 20
-17.174250251
 10
-34.2810933448
 20
-17.3385482396
 10
-34.2109185245
 20
-17.5036951864
 10
-34.135990824
 20
-17.6708125925
 10
-34.0562566448
 20
-17.8401714474
 10
-33.971715766
 20
-18.0114697
 10
-33.8818178556
 20
-18.1849628725
 10
-33.7861039984
 20
-18.3614102783
 10
-33.6849689807
 20
-18.5400155924
 10
-33.5791542458
 20
-18.7187073564
 10
-33.4689032081
 20
-18.8967929297
 10
-33.353944756
 20
-19.0749489676
 10
-33.2342635668
 20
-19.2531666268
  0
LWPOLYLINE
  5
282
100
AcDbEntity
  8
RACCORDO
100
AcDbPolyline
 62
250
  6
CONTINUOUS
 90
7
 70
0
 10
-40.1549492227
 20
-10.0161480437
 10
-40.1513082943
 20
-10.0418533702
 10
-40.1435591392
 20
-10.0690789787
 10
-40.1319038361
 20
-10.0955827389
 10
-40.116435826
 20
-10.1211521694
 10
-40.0972791166
 20
-10.1455822789
 10
-40.0745872881
 20
-10.1686772105
  0
LWPOLYLINE
  5
283
100
AcDbEntity
  8
RACCORDO
100
AcDbPolyline
 62
250
  6
CONTINUOUS
 90
17
 70
0
 10
-35.3907778908
 20
-6.2213369575
 10
-35.3579709262
 20
-6.6959133037
 10
-35.3217963191
 20
-7.1860942418
 10
-35.2822548954
 20
-7.6917144118
 10
-35.2386513184
 20
-8.2119322038
 10
-35.1910537125
 20
-8.7460976345
 10
-35.1393939533
 20
-9.2948606874
 10
-35.0827723304
 20
-9.8593297028
 10
-35.0212668509
 20
-10.4391063767
 10
-34.9547995078
 20
-11.0345890131
 10
-34.8822365697
 20
-11.6480808653
 10
-34.8036300973
 20
-12.2796284172
 10
-34.7189280299
 20
-12.9291851848
 10
-34.6268404549
 20
-13.5989149694
 10
-34.5269374014
 20
-14.2895390381
 10
-34.4196488403
 20
-15.0003361239
 10
-34.3049747716
 20
-15.7313062267
  0
LWPOLYLINE
  5
284
100
AcDbEntity
  8
RACCORDO
100
AcDbPolyline
 62
250
  6
CONTINUOUS
 90
19
 70
0
 10
-35.9066706602
 20
-5.303590114
 10
-35.8797445598
 20
-5.7481358593
 10
-35.8498858332
 20
-6.2084084294
 10
-35.8168759288
 20
-6.6843492732
 10
-35.7804420119
 20
-7.1759681154
 10
-35.7403337629
 20
-7.682953295
 10
-35.6963632835
 20
-8.2047623822
 10
-35.6483327429
 20
-8.7405909781
 10
-35.5959242384
 20
-9.290945828
 10
-35.5387534201
 20
-9.8572417865
 10
-35.4765940847
 20
-10.4389031742
 10
-35.4091363061
 20
-11.0361962456
 10
-35.3358075028
 20
-11.6517625983
 10
-35.2562908555
 20
-12.2854357529
 10
-35.1702872284
 20
-12.9370266929
 10
-35.0771575724
 20
-13.6090895398
 10
-34.9764257688
 20
-14.3023238191
 10
-34.8678388697
 20
-15.0156092274
 10
-34.7510361585
 20
-15.7487375787
  0
LWPOLYLINE
  5
285
100
AcDbEntity
  8
RACCORDO
100
AcDbPolyline
 62
250
  6
CONTINUOUS
 90
3
 70
0
 10
-35.4711000238
 20
-4.8915392646
 10
-35.4469891856
 20
-5.3188474897
 10
-35.3907778908
 20
-6.2213369575
  0
LINE
  5
286
100
AcDbEntity
  8
RACCORDO
100
AcDbLine
 62
250
  6
CONTINUOUS
 10
-35.9526257909
 20
-4.4627044691
 11
-35.9066706602
 21
-5.303590114
  0
LINE
  5
287
100
AcDbEntity
  8
RACCORDO
100
AcDbLine
 62
250
  6
CONTINUOUS
 10
-35.5119864322
 20
-4.0838445259
 11
-35.4711000238
 21
-4.8915392646
  0
LINE
  5
288
100
AcDbEntity
  8
RACCORDO
100
AcDbLine
 62
250
  6
CONTINUOUS
 10
-35.9896337053
 20
-3.6842569989
 11
-35.9526257909
 21
-4.4627044691
  0
LWPOLYLINE
  5
289
100
AcDbEntity
  8
RACCORDO
100
AcDbPolyline
 62
250
  6
CONTINUOUS
 90
8
 70
0
 10
-35.5136159334
 20
13.0229958705
 10
-35.5130061298
 20
13.0088342773
 10
-35.5087092877
 20
12.9827269763
 10
-35.5003319919
 20
12.956953739
 10
-35.4879433026
 20
12.9317558168
 10
-35.4716453305
 20
12.9073507005
 10
-35.4515723949
 20
12.8839304048
 10
-35.4278899332
 20
12.8616887032
  0
LINE
  5
28A
100
AcDbEntity
  8
RACCORDO
100
AcDbLine
 62
250
  6
CONTINUOUS
 10
-35.5449435177
 20
-3.3383872921
 11
-35.5119864322
 21
-4.0838445259
  0
LINE
  5
28B
100
AcDbEntity
  8
RACCORDO
100
AcDbLine
 62
250
  6
CONTINUOUS
 10
-36.0194342126
 20
-2.9663945475
 11
-35.9896337053
 21
-3.6842569989
  0
LINE
  5
28C
100
AcDbEntity
  8
RACCORDO
100
AcDbLine
 62
250
  6
CONTINUOUS
 10
-35.5716800379
 20
-2.6504165739
 11
-35.5449435177
 21
-3.3383872921
  0
LINE
  5
28D
100
AcDbEntity
  8
RACCORDO
100
AcDbLine
 62
250
  6
CONTINUOUS
 10
-36.0434681918
 20
-2.3056350131
 11
-36.0194342126
 21
-2.9663945475
  0
LINE
  5
28E
100
AcDbEntity
  8
RACCORDO
100
AcDbLine
 62
250
  6
CONTINUOUS
 10
-35.6028059698
 20
-1.7079473564
 11
-35.5716800379
 21
-2.6504165739
  0
LINE
  5
28F
100
AcDbEntity
  8
RACCORDO
100
AcDbLine
 62
250
  6
CONTINUOUS
 10
-36.0720245225
 20
-1.3879429904
 11
-36.0434681918
 21
-2.3056350131
  0
LINE
  5
290
100
AcDbEntity
  8
RACCORDO
100
AcDbLine
 62
250
  6
CONTINUOUS
 10
-35.6270569322
 20
-0.8267247271
 11
-35.6028059698
 21
-1.7079473564
  0
LINE
  5
291
100
AcDbEntity
  8
RACCORDO
100
AcDbLine
 62
250
  6
CONTINUOUS
 10
-36.0947149614
 20
-0.5142185414
 11
-36.0720245225
 21
-1.3879429904
  0
LINE
  5
292
100
AcDbEntity
  8
RACCORDO
100
AcDbLine
 62
250
  6
CONTINUOUS
 10
-35.653196771
 20
0.3374997705
 11
-35.6270569322
 21
-0.8267247271
  0
LINE
  5
293
100
AcDbEntity
  8
RACCORDO
100
AcDbLine
 62
250
  6
CONTINUOUS
 10
-36.1195572915
 20
0.6586955262
 11
-36.0947149614
 21
-0.5142185414
  0
LINE
  5
294
100
AcDbEntity
  8
RACCORDO
100
AcDbLine
 62
250
  6
CONTINUOUS
 10
-35.3241808323
 20
-1.2667817513
 11
-35.3479180161
 21
-0.0992521371
  0
LINE
  5
295
100
AcDbEntity
  8
RACCORDO
100
AcDbLine
 62
250
  6
CONTINUOUS
 10
-35.6793058294
 20
1.8247562694
 11
-35.653196771
 21
0.3374997705
  0
LINE
  5
296
100
AcDbEntity
  8
RACCORDO
100
AcDbLine
 62
250
  6
CONTINUOUS
 10
-35.3479180161
 20
-0.0992521371
 11
-35.3665959797
 21
1.0705115571
  0
LINE
  5
297
100
AcDbEntity
  8
RACCORDO
100
AcDbLine
 62
250
  6
CONTINUOUS
 10
-36.1484451648
 20
2.4463936368
 11
-36.1195572915
 21
0.6586955262
  0
LINE
  5
298
100
AcDbEntity
  8
RACCORDO
100
AcDbLine
 62
250
  6
CONTINUOUS
 10
-35.3665959797
 20
1.0705115571
 11
-35.3815765309
 21
2.2448682223
  0
LINE
  5
299
100
AcDbEntity
  8
RACCORDO
100
AcDbLine
 62
250
  6
CONTINUOUS
 10
-35.7060288993
 20
3.8859771935
 11
-35.6793058294
 21
1.8247562694
  0
LINE
  5
29A
100
AcDbEntity
  8
RACCORDO
100
AcDbLine
 62
250
  6
CONTINUOUS
 10
-35.3815765309
 20
2.2448682223
 11
-35.3935168584
 21
3.4223649404
  0
LINE
  5
29B
100
AcDbEntity
  8
RACCORDO
100
AcDbLine
 62
250
  6
CONTINUOUS
 10
-36.1751799352
 20
4.8210293951
 11
-36.1484451648
 21
2.4463936368
  0
LINE
  5
29C
100
AcDbEntity
  8
RACCORDO
100
AcDbLine
 62
250
  6
CONTINUOUS
 10
-35.3935168584
 20
3.4223649404
 11
-35.4069935752
 21
5.1799960574
  0
LINE
  5
29D
100
AcDbEntity
  8
RACCORDO
100
AcDbLine
 62
250
  6
CONTINUOUS
 10
-35.7312544338
 20
6.8862807249
 11
-35.7060288993
 21
3.8859771935
  0
LINE
  5
29E
100
AcDbEntity
  8
RACCORDO
100
AcDbLine
 62
250
  6
CONTINUOUS
 10
-36.1958010496
 20
7.7358624342
 11
-36.1751799352
 21
4.8210293951
  0
LINE
  5
29F
100
AcDbEntity
  8
RACCORDO
100
AcDbLine
 62
250
  6
CONTINUOUS
 10
-35.4069935752
 20
5.1799960574
 11
-35.4166645649
 21
6.9290013373
  0
LINE
  5
2A0
100
AcDbEntity
  8
RACCORDO
100
AcDbLine
 62
250
  6
CONTINUOUS
 10
-35.4166645649
 20
6.9290013373
 11
-35.4233836844
 21
8.7497982018
  0
LINE
  5
2A1
100
AcDbEntity
  8
RACCORDO
100
AcDbLine
 62
250
  6
CONTINUOUS
 10
-35.7454362774
 20
10.062542652
 11
-35.7312544338
 21
6.8862807249
  0
LINE
  5
2A2
100
AcDbEntity
  8
RACCORDO
100
AcDbLine
 62
250
  6
CONTINUOUS
 10
-36.2062378417
 20
10.6172893122
 11
-36.1958010496
 21
7.7358624342
  0
LWPOLYLINE
  5
2A3
100
AcDbEntity
  8
RACCORDO
100
AcDbPolyline
 62
7
  6
CONTINUOUS
 90
15
 70
0
 10
-35.5129714629
 20
10.8791367399
 10
-35.508353481
 20
8.7133916287
 10
-35.4994764693
 20
6.5866958127
 10
-35.4859344319
 20
4.4993283777
 10
-35.4664386266
 20
2.4519088618
 10
-35.4384599456
 20
0.4457935341
 10
-35.397912686
 20
-1.5167515852
 10
-35.3383486508
 20
-3.4316112378
 10
-35.2539832899
 20
-5.2946396078
 10
-35.1414986797
 20
-7.1029413902
 10
-35.0006726191
 20
-8.8554011626
 10
-34.8330342317
 20
-10.5521044196
 10
-34.641089156
 20
-12.1940357332
 10
-34.4278535003
 20
-13.7828879782
 10
-34.2057963844
 20
-15.2610685159
  0
LINE
  5
2A4
100
AcDbEntity
  8
RACCORDO
100
AcDbLine
 62
250
  6
CONTINUOUS
 10
-35.4233836844
 20
8.7497982018
 11
-35.4272781626
 21
10.7095462206
  0
LINE
  5
2A5
100
AcDbEntity
  8
RACCORDO
100
AcDbLine
 62
250
  6
CONTINUOUS
 10
-35.4272781626
 20
10.7095462206
 11
-35.427572946
 21
14.7309338772
  0
LINE
  5
2A6
100
AcDbEntity
  8
RACCORDO
100
AcDbLine
 62
250
  6
CONTINUOUS
 10
-35.7481023139
 20
15.6068561072
 11
-35.7454362774
 21
10.062542652
  0
LINE
  5
2A7
100
AcDbEntity
  8
RACCORDO
100
AcDbLine
 62
250
  6
CONTINUOUS
 10
-36.2051621568
 20
16.9296502999
 11
-36.2062378417
 21
10.6172893122
  0
LINE
  5
2A8
100
AcDbEntity
  8
RACCORDO
100
AcDbLine
 62
250
  6
CONTINUOUS
 10
-35.427572946
 20
14.7309338772
 11
-35.4238774747
 21
16.7994429111
  0
LINE
  5
2A9
100
AcDbEntity
  8
RACCORDO
100
AcDbLine
 62
250
  6
CONTINUOUS
 10
-35.4238774747
 20
16.7994429111
 11
-35.4177613058
 21
18.5615196397
  0
LINE
  5
2AA
100
AcDbEntity
  8
RACCORDO
100
AcDbLine
 62
250
  6
CONTINUOUS
 10
-35.7390836777
 20
18.7164604107
 11
-35.7481023139
 21
15.6068561072
  0
LINE
  5
2AB
100
AcDbEntity
  8
RACCORDO
100
AcDbLine
 62
250
  6
CONTINUOUS
 10
-36.1927745757
 20
19.9041643551
 11
-36.2051621568
 21
16.9296502999
  0
LINE
  5
2AC
100
AcDbEntity
  8
RACCORDO
100
AcDbLine
 62
250
  6
CONTINUOUS
 10
-35.4177613058
 20
18.5615196397
 11
-35.4083617176
 21
20.3542146681
  0
LINE
  5
2AD
100
AcDbEntity
  8
RACCORDO
100
AcDbLine
 62
250
  6
CONTINUOUS
 10
-35.7210210691
 20
21.5728236377
 11
-35.7390836777
 21
18.7164604107
  0
LINE
  5
2AE
100
AcDbEntity
  8
RACCORDO
100
AcDbLine
 62
250
  6
CONTINUOUS
 10
-35.4083617176
 20
20.3542146681
 11
-35.3963764293
 21
22.0140393514
  0
LINE
  5
2AF
100
AcDbEntity
  8
RACCORDO
100
AcDbLine
 62
250
  6
CONTINUOUS
 10
-36.1762539388
 20
22.1756462218
 11
-36.1927745757
 21
19.9041643551
  0
LINE
  5
2B0
100
AcDbEntity
  8
RACCORDO
100
AcDbLine
 62
250
  6
CONTINUOUS
 10
-35.3963764293
 20
22.0140393514
 11
-35.3819022717
 21
23.5089169824
  0
LINE
  5
2B1
100
AcDbEntity
  8
RACCORDO
100
AcDbLine
 62
250
  6
CONTINUOUS
 10
-36.1586259988
 20
23.8997102012
 11
-36.1762539388
 21
22.1756462218
  0
LINE
  5
2B2
100
AcDbEntity
  8
RACCORDO
100
AcDbLine
 62
250
  6
CONTINUOUS
 10
-35.6983086749
 20
23.8658272143
 11
-35.7210210691
 21
21.5728236377
  0
LINE
  5
2B3
100
AcDbEntity
  8
RACCORDO
100
AcDbLine
 62
250
  6
CONTINUOUS
 10
-35.3819022717
 20
23.5089169824
 11
-35.3676334689
 21
24.6564542261
  0
LINE
  5
2B4
100
AcDbEntity
  8
RACCORDO
100
AcDbLine
 62
250
  6
CONTINUOUS
 10
-36.1348268644
 20
25.6291655362
 11
-36.1586259988
 21
23.8997102012
  0
LINE
  5
2B5
100
AcDbEntity
  8
RACCORDO
100
AcDbLine
 62
250
  6
CONTINUOUS
 10
-35.6743914608
 20
25.5939712954
 11
-35.6983086749
 21
23.8658272143
  0
LWPOLYLINE
  5
2B6
100
AcDbEntity
  8
RACCORDO
100
AcDbPolyline
 62
7
  6
CONTINUOUS
 90
10
 70
0
 10
-34.7200989089
 20
38.539682361
 10
-34.7202619744
 20
38.5291618757
 10
-34.7179473401
 20
38.5151020331
 10
-34.7128547429
 20
38.5002665148
 10
-34.7048871584
 20
38.4845817698
 10
-34.6941408745
 20
38.468122243
 10
-34.6809334047
 20
38.451307994
 10
-34.6653705333
 20
38.4342791116
 10
-34.6473461051
 20
38.4168959674
 10
-34.6268599051
 20
38.3991588282
  0
LINE
  5
2B7
100
AcDbEntity
  8
RACCORDO
100
AcDbLine
 62
250
  6
CONTINUOUS
 10
-35.3676334689
 20
24.6564542261
 11
-35.3507589763
 21
25.7589032368
  0
LINE
  5
2B8
100
AcDbEntity
  8
RACCORDO
100
AcDbLine
 62
250
  6
CONTINUOUS
 10
-36.1146569577
 20
26.7820271753
 11
-36.1348268644
 21
25.6291655362
  0
LINE
  5
2B9
100
AcDbEntity
  8
RACCORDO
100
AcDbLine
 62
250
  6
CONTINUOUS
 10
-35.6540028065
 20
26.7457904971
 11
-35.6743914608
 21
25.5939712954
  0
LINE
  5
2BA
100
AcDbEntity
  8
RACCORDO
100
AcDbLine
 62
250
  6
CONTINUOUS
 10
-35.3507589763
 20
25.7589032368
 11
-35.3312608329
 21
26.7932094615
  0
LINE
  5
2BB
100
AcDbEntity
  8
RACCORDO
100
AcDbLine
 62
250
  6
CONTINUOUS
 10
-35.6290406301
 20
27.8993530922
 11
-35.6540028065
 21
26.7457904971
  0
LINE
  5
2BC
100
AcDbEntity
  8
RACCORDO
100
AcDbLine
 62
250
  6
CONTINUOUS
 10
-35.3312608329
 20
26.7932094615
 11
-35.3086916169
 21
27.7675515465
  0
LINE
  5
2BD
100
AcDbEntity
  8
RACCORDO
100
AcDbLine
 62
250
  6
CONTINUOUS
 10
-35.3086916169
 20
27.7675515465
 11
-35.2824328614
 21
28.7010589387
  0
LINE
  5
2BE
100
AcDbEntity
  8
RACCORDO
100
AcDbLine
 62
250
  6
CONTINUOUS
 10
-35.2824328614
 20
28.7010589387
 11
-35.2625138431
 21
29.3096031012
  0
LINE
  5
2BF
100
AcDbEntity
  8
RACCORDO
100
AcDbLine
 62
250
  6
CONTINUOUS
 10
-35.2625138431
 20
29.3096031012
 11
-35.2403715129
 21
29.9125687683
  0
LINE
  5
2C0
100
AcDbEntity
  8
RACCORDO
100
AcDbLine
 62
250
  6
CONTINUOUS
 10
-35.2403715129
 20
29.9125687683
 11
-35.215784491
 21
30.5132382285
  0
LINE
  5
2C1
100
AcDbEntity
  8
RACCORDO
100
AcDbLine
 62
250
  6
CONTINUOUS
 10
-35.215784491
 20
30.5132382285
 11
-35.188529165
 21
31.1140763335
  0
LWPOLYLINE
  5
2C2
100
AcDbEntity
  8
RACCORDO
100
AcDbPolyline
 62
250
  6
CONTINUOUS
 90
3
 70
0
 10
-35.188529165
 20
31.1140763335
 10
-35.1582837164
 20
31.7186575831
 10
-35.1419007729
 20
32.0239674179
  0
LINE
  5
2C3
100
AcDbEntity
  8
RACCORDO
100
AcDbLine
 62
250
  6
CONTINUOUS
 10
-27.572375131
 20
35.0125841574
 11
-27.6871387934
 21
34.2416646884
  0
LINE
  5
2C4
100
AcDbEntity
  8
RACCORDO
100
AcDbLine
 62
7
  6
CONTINUOUS
 10
-27.3597008128
 20
34.4497146773
 11
-27.4202164672
 21
34.0501247342
  0
LINE
  5
2C5
100
AcDbEntity
  8
RACCORDO
100
AcDbLine
 62
250
  6
CONTINUOUS
 10
-27.9828153406
 20
35.1524644092
 11
-28.0978218229
 21
34.3891344815
  0
LINE
  5
2C6
100
AcDbEntity
  8
RACCORDO
100
AcDbLine
 62
250
  6
CONTINUOUS
 10
-27.4499099037
 20
35.7933192974
 11
-27.572375131
 21
35.0125841574
  0
LINE
  5
2C7
100
AcDbEntity
  8
RACCORDO
100
AcDbLine
 62
250
  6
CONTINUOUS
 10
-27.8598567243
 20
35.9268183347
 11
-27.9828153406
 21
35.1524644092
  0
LINE
  5
2C8
100
AcDbEntity
  8
RACCORDO
100
AcDbLine
 62
7
  6
CONTINUOUS
 10
-27.2268879445
 20
35.2898252398
 11
-27.3597008128
 21
34.4497146773
  0
LINE
  5
2C9
100
AcDbEntity
  8
RACCORDO
100
AcDbLine
 62
250
  6
CONTINUOUS
 10
-27.3184296097
 20
36.5912787188
 11
-27.4499099037
 21
35.7933192974
  0
LINE
  5
2CA
100
AcDbEntity
  8
RACCORDO
100
AcDbLine
 62
250
  6
CONTINUOUS
 10
-27.7278454245
 20
36.7193295858
 11
-27.8598567243
 21
35.9268183347
  0
LINE
  5
2CB
100
AcDbEntity
  8
RACCORDO
100
AcDbLine
 62
250
  6
CONTINUOUS
 10
-27.173666945
 20
37.4319426212
 11
-27.3184296097
 21
36.5912787188
  0
LWPOLYLINE
  5
2CC
100
AcDbEntity
  8
RACCORDO
100
AcDbPolyline
 62
7
  6
CONTINUOUS
 90
14
 70
0
 10
-27.5061478744
 20
33.4606066325
 10
-27.5103185984
 20
33.4368931533
 10
-27.5161242859
 20
33.4142997595
 10
-27.5234921162
 20
33.3930170818
 10
-27.5323257687
 20
33.3731769382
 10
-27.5425430952
 20
33.3550117814
 10
-27.5540424426
 20
33.3388045434
 10
-27.5666316027
 20
33.3247033293
 10
-27.5801954719
 20
33.3127212097
 10
-27.5947195709
 20
33.3028856552
 10
-27.6100405323
 20
33.2952637432
 10
-27.6260209453
 20
33.2898860523
 10
-27.6426970768
 20
33.2867618673
 10
-27.6539080301
 20
33.2859624605
  0
LINE
  5
2CD
100
AcDbEntity
  8
RACCORDO
100
AcDbLine
 62
250
  6
CONTINUOUS
 10
-27.5822816071
 20
37.5548939915
 11
-27.7278454245
 21
36.7193295858
  0
LWPOLYLINE
  5
2CE
100
AcDbEntity
  8
RACCORDO
100
AcDbPolyline
 62
250
  6
CONTINUOUS
 90
9
 70
0
 10
-27.6870998414
 20
34.2416793997
 10
-27.6902736191
 20
34.223774536
 10
-27.6948989349
 20
34.2070046761
 10
-27.7009244002
 20
34.1915561421
 10
-27.7082830693
 20
34.1776005762
 10
-27.7168931853
 20
34.1652930329
 10
-27.7266590885
 20
34.154770256
 10
-27.7374722768
 20
34.1461491604
 10
-27.7492126109
 20
34.1395255334
  0
LWPOLYLINE
  5
2CF
100
AcDbEntity
  8
DRAFT
100
AcDbPolyline
 62
7
  6
CONTINUOUS
 90
10
 70
0
 10
-26.1153609312
 20
40.9401580945
 10
-26.240699129
 20
40.329758504
 10
-26.3615085073
 20
39.7289593226
 10
-26.4777890662
 20
39.1377605503
 10
-26.5894884572
 20
38.5562390925
 10
-26.6966590289
 20
37.9843180438
 10
-26.7994578264
 20
37.4217666881
 10
-26.8979371983
 20
36.8685081199
 10
-26.9920447962
 20
36.3246192446
 10
-27.0817806199
 20
35.7901000623
  0
LWPOLYLINE
  5
2D0
100
AcDbEntity
  8
RACCORDO
100
AcDbPolyline
 62
250
  6
CONTINUOUS
 90
10
 70
0
 10
-26.1371229724
 20
42.7107061157
 10
-26.2679829162
 20
42.0945726789
 10
-26.3926195834
 20
41.4979829565
 10
-26.511020608
 20
40.9210326532
 10
-26.62298844
 20
40.3638779687
 10
-26.7286968831
 20
39.8265358128
 10
-26.8286919859
 20
39.3088795371
 10
-26.9228155356
 20
38.8119206984
 10
-27.0112094676
 20
38.3347599873
 10
-27.173666945
 20
37.4319426212
  0
LWPOLYLINE
  5
2D1
100
AcDbEntity
  8
RACCORDO
100
AcDbPolyline
 62
250
  6
CONTINUOUS
 90
10
 70
0
 10
-26.5436676576
 20
42.7858113854
 10
-26.675059127
 20
42.1764200798
 10
-26.7996884997
 20
41.586424848
 10
-26.9178585965
 20
41.015717781
 10
-27.0298826345
 20
40.4641060706
 10
-27.1359361483
 20
39.9316083606
 10
-27.2361115202
 20
39.4184353152
 10
-27.3304244984
 20
38.9254528896
 10
-27.4192587511
 20
38.4516527984
 10
-27.5822816071
 20
37.5548939915
  0
LINE
  5
2D2
100
AcDbEntity
  8
RACCORDO
100
AcDbLine
 62
7
  6
CONTINUOUS
 10
-25.9713115764
 20
41.5678931582
 11
-26.1153609312
 21
40.9401580945
  0
LWPOLYLINE
  5
2D3
100
AcDbEntity
  8
RACCORDO
100
AcDbPolyline
 62
7
  6
CONTINUOUS
 90
3
 70
0
 10
-25.788330049
 20
42.3468956969
 10
-25.8251878085
 20
42.1915846166
 10
-25.9713115764
 20
41.5678931582
  0
LWPOLYLINE
  5
2D4
100
AcDbEntity
  8
RACCORDO
100
AcDbPolyline
 62
7
  6
CONTINUOUS
 90
16
 70
0
 10
-25.788330049
 20
42.3468956969
 10
-25.7781263511
 20
42.3850277401
 10
-25.7657981212
 20
42.4230469856
 10
-25.7513453593
 20
42.4609534333
 10
-25.7346100991
 20
42.499069129
 10
-25.7157503069
 20
42.537072027
 10
-25.6952398817
 20
42.5739959897
 10
-25.6730934875
 20
42.6097250846
 10
-25.6492964603
 20
42.6443752442
 10
-25.6242787072
 20
42.677328129
 10
-25.5979606202
 20
42.7086154824
 10
-25.5704218074
 20
42.7382055609
 10
-25.5423309995
 20
42.765384795
 10
-25.5139111069
 20
42.7899153281
 10
-25.4849392193
 20
42.8120350167
 10
-25.4554153366
 20
42.8317438608
  0
LWPOLYLINE
  5
2D5
100
AcDbEntity
  8
RACCORDO
100
AcDbPolyline
 62
250
  6
CONTINUOUS
 90
7
 70
0
 10
-25.5986654627
 20
23.171292766
 10
-25.5713447825
 20
23.2265974149
 10
-25.5354785044
 20
23.2874796269
 10
-25.495201214
 20
23.3449211817
 10
-25.4508981364
 20
23.3979678205
 10
-25.4025500584
 20
23.4463810169
 10
-25.3502676531
 20
23.4898070345
  0
LWPOLYLINE
  5
2D6
100
AcDbEntity
  8
RACCORDO
100
AcDbPolyline
 62
250
  6
CONTINUOUS
 90
3
 70
0
 10
-25.3423171044
 20
23.3960654775
 10
-25.3197448811
 20
23.4323238799
 10
-25.2718253874
 20
23.4942058788
  0
LWPOLYLINE
  5
2D7
100
AcDbEntity
  8
RACCORDO
100
AcDbPolyline
 62
250
  6
CONTINUOUS
 90
3
 70
0
 10
-25.4430952672
 20
23.3222677345
 10
-25.4053593427
 20
23.3818731195
 10
-25.356426072
 20
23.4444824406
  0
LINE
  5
2D8
100
AcDbEntity
  8
RACCORDO
100
AcDbLine
 62
250
  6
CONTINUOUS
 10
-25.387327977
 20
23.3647154805
 11
-25.3599570318
 21
23.4077125132
  0
LINE
  5
2D9
100
AcDbEntity
  8
RACCORDO
100
AcDbLine
 62
250
  6
CONTINUOUS
 10
-25.4046334221
 20
23.3515867023
 11
-25.3739444245
 21
23.3994304279
  0
LINE
  5
2DA
100
AcDbEntity
  8
RACCORDO
100
AcDbLine
 62
250
  6
CONTINUOUS
 10
-25.3599570318
 20
23.4077125132
 11
-25.3105260588
 21
23.4705110414
  0
LWPOLYLINE
  5
2DB
100
AcDbEntity
  8
RACCORDO
100
AcDbPolyline
 62
250
  6
CONTINUOUS
 90
3
 70
0
 10
-25.3739444245
 20
23.3994304279
 10
-25.3240530419
 20
23.4625359936
 10
-25.2691569471
 20
23.5188322587
  0
LINE
  5
2DC
100
AcDbEntity
  8
RACCORDO
100
AcDbLine
 62
250
  6
CONTINUOUS
 10
-25.2718253874
 20
23.4942058788
 11
-25.2187136294
 21
23.5494004719
  0
LINE
  5
2DD
100
AcDbEntity
  8
RACCORDO
100
AcDbLine
 62
250
  6
CONTINUOUS
 10
-25.356426072
 20
23.4444824406
 11
-25.302583687
 21
23.5002260834
  0
LINE
  5
2DE
100
AcDbEntity
  8
RACCORDO
100
AcDbLine
 62
250
  6
CONTINUOUS
 10
-25.3105260588
 20
23.4705110414
 11
-25.2559648178
 21
23.5265796542
  0
LWPOLYLINE
  5
2DF
100
AcDbEntity
  8
RACCORDO
100
AcDbPolyline
 62
250
  6
CONTINUOUS
 90
3
 70
0
 10
-25.302583687
 20
23.5002260834
 10
-25.2440628301
 20
23.5488652618
 10
-25.2126318694
 20
23.5694999747
  0
LINE
  5
2E0
100
AcDbEntity
  8
RACCORDO
100
AcDbLine
 62
250
  6
CONTINUOUS
 10
-25.2187136294
 20
23.5494004719
 11
-25.1792630246
 21
23.582190203
  0
LINE
  5
2E1
100
AcDbEntity
  8
RACCORDO
100
AcDbLine
 62
250
  6
CONTINUOUS
 10
-25.2559648178
 20
23.5265796542
 11
-25.1965067863
 21
23.5756784244
  0
LINE
  5
2E2
100
AcDbEntity
  8
RACCORDO
100
AcDbLine
 62
250
  6
CONTINUOUS
 10
-25.2691569471
 20
23.5188322587
 11
-25.2094912046
 21
23.5680781632
  0
LINE
  5
2E3
100
AcDbEntity
  8
RACCORDO
100
AcDbLine
 62
250
  6
CONTINUOUS
 10
-25.3502676531
 20
23.4898070345
 11
-25.2949088757
 21
23.5274917092
  0
LWPOLYLINE
  5
2E4
100
AcDbEntity
  8
RACCORDO
100
AcDbPolyline
 62
7
  6
CONTINUOUS
 90
16
 70
0
 10
-25.2935816857
 20
23.4279677508
 10
-25.369203616
 20
23.3784655294
 10
-25.4418923089
 20
23.3233202429
 10
-25.5112052137
 20
23.2626760717
 10
-25.5766140237
 20
23.1968329278
 10
-25.6378309246
 20
23.1259309994
 10
-25.6947550451
 20
23.0498533076
 10
-25.7469756674
 20
22.9688405808
 10
-25.7941243777
 20
22.8831536744
 10
-25.8360875408
 20
22.7925619044
 10
-25.8725323018
 20
22.6971350916
 10
-25.9030239167
 20
22.5972820133
 10
-25.927273292
 20
22.4931010168
 10
-25.9449778412
 20
22.3847047013
 10
-25.9558164805
 20
22.2723547231
 10
-25.9594932735
 20
22.1562873354
  0
LINE
  5
2E5
100
AcDbEntity
  8
RACCORDO
100
AcDbLine
 62
250
  6
CONTINUOUS
 10
-25.2094912046
 20
23.5680781632
 11
-25.1997255911
 21
23.5744082543
  0
LINE
  5
2E6
100
AcDbEntity
  8
DRAFT
100
AcDbLine
 62
7
  6
CONTINUOUS
 10
-24.9839552577
 20
23.6156788925
 11
-25.2935816857
 21
23.4279677508
  0
LINE
  5
2E7
100
AcDbEntity
  8
RACCORDO
100
AcDbLine
 62
250
  6
CONTINUOUS
 10
-24.2761065212
 20
23.3680890381
 11
-24.3232030028
 21
23.3399469033
  0
LINE
  5
2E8
100
AcDbEntity
  8
RACCORDO
100
AcDbLine
 62
250
  6
CONTINUOUS
 10
-25.2949088757
 20
23.5274917092
 11
-25.264436016
 21
23.5451021912
  0
LINE
  5
2E9
100
AcDbEntity
  8
RACCORDO
100
AcDbLine
 62
250
  6
CONTINUOUS
 10
-25.2534927977
 20
23.4503435354
 11
-25.2935816857
 21
23.4279677508
  0
LINE
  5
2EA
100
AcDbEntity
  8
RACCORDO
100
AcDbLine
 62
7
  6
CONTINUOUS
 10
-25.264436016
 20
23.5451021912
 11
-25.264340677
 21
23.5451540793
  0
LWPOLYLINE
  5
2EB
100
AcDbEntity
  8
RACCORDO
100
AcDbPolyline
 62
7
  6
CONTINUOUS
 90
3
 70
0
 10
-25.2644718668
 20
23.5450810174
 10
-25.2215452558
 20
23.5661101987
 10
-25.1695601712
 20
23.5858802147
  0
LINE
  5
2EC
100
AcDbEntity
  8
RACCORDO
100
AcDbLine
 62
250
  6
CONTINUOUS
 10
8.0657963037
 20
-33.6696300479
 11
7.9912947279
 21
-33.687989118
  0
LWPOLYLINE
  5
2ED
100
AcDbEntity
  8
RACCORDO
100
AcDbPolyline
 62
250
  6
CONTINUOUS
 90
4
 70
0
 10
7.995362567
 20
-33.7094351078
 10
7.9227270003
 20
-33.7266780153
 10
7.8466747364
 20
-33.7362048846
 10
7.8167407369
 20
-33.7368743691
  0
LWPOLYLINE
  5
2EE
100
AcDbEntity
  8
RACCORDO
100
AcDbPolyline
 62
250
  6
CONTINUOUS
 90
12
 70
0
 10
7.796758599
 20
-34.0673930847
 10
7.7301328658
 20
-34.0806343573
 10
7.6611831777
 20
-34.0881326993
 10
7.5898333278
 20
-34.0899847768
 10
7.515566246
 20
-34.0862180217
 10
7.4387777874
 20
-34.0769764181
 10
7.3607868629
 20
-34.0625158364
 10
7.2815322536
 20
-34.0426123196
 10
7.2010795998
 20
-34.0175584855
 10
7.1209798037
 20
-33.9883468314
 10
7.0417920607
 20
-33.9552858127
 10
7.0128354359
 20
-33.9415733455
  0
LINE
  5
2EF
100
AcDbEntity
  8
RACCORDO
100
AcDbLine
 62
250
  6
CONTINUOUS
 10
7.8464784895
 20
-33.7910049124
 11
7.7868275754
 21
-33.8027201126
  0
LWPOLYLINE
  5
2F0
100
AcDbEntity
  8
RACCORDO
100
AcDbPolyline
 62
250
  6
CONTINUOUS
 90
3
 70
0
 10
7.9912947279
 20
-33.687989118
 10
7.9135556059
 20
-33.6985378832
 10
7.8847922864
 20
-33.6994985231
  0
LWPOLYLINE
  5
2F1
100
AcDbEntity
  8
RACCORDO
100
AcDbPolyline
 62
250
  6
CONTINUOUS
 90
3
 70
0
 10
7.7868275754
 20
-33.8027201126
 10
7.7244629694
 20
-33.8095089392
 10
7.6781181285
 20
-33.8108067372
  0
LINE
  5
2F2
100
AcDbEntity
  8
RACCORDO
100
AcDbLine
 62
250
  6
CONTINUOUS
 10
7.7729814209
 20
-33.7810359478
 11
7.732955103
 21
-33.7827682475
  0
LWPOLYLINE
  5
2F3
100
AcDbEntity
  8
RACCORDO
100
AcDbPolyline
 62
250
  6
CONTINUOUS
 90
10
 70
0
 10
22.1905088683
 20
-48.6260720321
 10
22.1686539947
 20
-48.6160007338
 10
22.1485627868
 20
-48.6044398384
 10
22.1304140395
 20
-48.5914922366
 10
22.1143692606
 20
-48.5772731605
 10
22.1005712313
 20
-48.5619091553
 10
22.0891427367
 20
-48.5455369535
 10
22.0801854765
 20
-48.5283022611
 10
22.0737791566
 20
-48.5103584582
 10
22.070430022
 20
-48.4949723368
  0
LINE
  5
2F4
100
AcDbEntity
  8
RACCORDO
100
AcDbLine
 62
250
  6
CONTINUOUS
 10
17.851204089
 20
-49.2143370327
 11
17.6720195605
 21
-49.1286253115
  0
LWPOLYLINE
  5
2F5
100
AcDbEntity
  8
RACCORDO
100
AcDbPolyline
 62
250
  6
CONTINUOUS
 90
9
 70
0
 10
25.496847994
 20
-52.8899099461
 10
25.4897666781
 20
-52.8864950348
 10
25.4703484009
 20
-52.873923917
 10
25.4529019563
 20
-52.8575543323
 10
25.4375775591
 20
-52.8375272243
 10
25.4245071532
 20
-52.814015028
 10
25.4138032753
 20
-52.7872201851
 10
25.4055580865
 20
-52.7573734015
 10
25.3998425781
 20
-52.7247316602
  0
LWPOLYLINE
  5
2F6
100
AcDbEntity
  8
RACCORDO
100
AcDbPolyline
 62
7
  6
CONTINUOUS
 90
19
 70
0
 10
17.765984813
 20
-49.2667652244
 10
17.9096975596
 20
-49.3368143569
 10
18.1088478508
 20
-49.4265375574
 10
18.3066265445
 20
-49.506958047
 10
18.502824356
 20
-49.5778507116
 10
18.6969928954
 20
-49.638929436
 10
18.8884633502
 20
-49.6898888143
 10
19.0770235028
 20
-49.730582218
 10
19.2624076637
 20
-49.7608696867
 10
19.4439493578
 20
-49.7805736544
 10
19.6214808764
 20
-49.7896197308
 10
19.7947210448
 20
-49.7879483937
 10
19.9628782477
 20
-49.7755554513
 10
20.1257861635
 20
-49.7524801819
 10
20.2831122593
 20
-49.7188090249
 10
20.4338392066
 20
-49.6748732398
 10
20.5778006893
 20
-49.620918288
 10
20.7146463456
 20
-49.5573009303
 10
20.7620338329
 20
-49.5321478907
  0
LINE
  5
2F7
100
AcDbEntity
  8
RACCORDO
100
AcDbLine
 62
250
  6
CONTINUOUS
 10
17.6720195605
 20
-49.1286253115
 11
17.1856066696
 21
-48.8838301872
  0
LINE
  5
2F8
100
AcDbEntity
  8
RACCORDO
100
AcDbLine
 62
250
  6
CONTINUOUS
 10
17.1856066696
 20
-48.8838301872
 11
16.7129850933
 21
-48.642826767
  0
LINE
  5
2F9
100
AcDbEntity
  8
RACCORDO
100
AcDbLine
 62
250
  6
CONTINUOUS
 10
16.7129850933
 20
-48.642826767
 11
16.2454000849
 21
-48.4011233914
  0
LINE
  5
2FA
100
AcDbEntity
  8
RACCORDO
100
AcDbLine
 62
250
  6
CONTINUOUS
 10
16.2454000849
 20
-48.4011233914
 11
15.7992620681
 21
-48.1672896773
  0
LINE
  5
2FB
100
AcDbEntity
  8
RACCORDO
100
AcDbLine
 62
250
  6
CONTINUOUS
 10
15.7992620681
 20
-48.1672896773
 11
15.3842079035
 21
-47.946781117
  0
LINE
  5
2FC
100
AcDbEntity
  8
RACCORDO
100
AcDbLine
 62
250
  6
CONTINUOUS
 10
15.3842079035
 20
-47.946781117
 11
15.0060149072
 21
-47.7432607568
  0
LWPOLYLINE
  5
2FD
100
AcDbEntity
  8
RACCORDO
100
AcDbPolyline
 62
250
  6
CONTINUOUS
 90
25
 70
0
 10
10.0993891954
 20
-44.9644785208
 10
10.053043441
 20
-44.939245975
 10
10.004847395
 20
-44.9155456051
 10
9.954812609
 20
-44.893385537
 10
9.9033003376
 20
-44.8729058407
 10
9.8500037385
 20
-44.8539229334
 10
9.7938573106
 20
-44.8360933485
 10
9.7348533009
 20
-44.8195577505
 10
9.6729042423
 20
-44.8043989927
 10
9.6066635645
 20
-44.7904817576
 10
9.5357961372
 20
-44.7780169818
 10
9.4603985476
 20
-44.7672864284
 10
9.3796508692
 20
-44.7584862961
 10
9.2927738442
 20
-44.7518247546
 10
9.2002891796
 20
-44.7476370566
 10
9.1033814792
 20
-44.7462096897
 10
9.0015491124
 20
-44.7475365522
 10
8.8953359118
 20
-44.7516187285
 10
8.7877282169
 20
-44.7583003503
 10
8.6792221181
 20
-44.767182377
 10
8.5697389922
 20
-44.7779365565
 10
8.4615849183
 20
-44.7901414701
 10
8.3556023452
 20
-44.8032871837
 10
8.2514110548
 20
-44.8170349587
 10
8.1495033035
 20
-44.8311589277
  0
LINE
  5
2FE
100
AcDbEntity
  8
RACCORDO
100
AcDbLine
 62
250
  6
CONTINUOUS
 10
15.0060149072
 20
-47.7432607568
 11
14.6640228542
 21
-47.5570218308
  0
LINE
  5
2FF
100
AcDbEntity
  8
RACCORDO
100
AcDbLine
 62
250
  6
CONTINUOUS
 10
14.6640228542
 20
-47.5570218308
 11
14.3495036946
 21
-47.3838547758
  0
LINE
  5
300
100
AcDbEntity
  8
RACCORDO
100
AcDbLine
 62
250
  6
CONTINUOUS
 10
14.3495036946
 20
-47.3838547758
 11
13.9510040699
 21
-47.1618031218
  0
LINE
  5
301
100
AcDbEntity
  8
RACCORDO
100
AcDbLine
 62
7
  6
CONTINUOUS
 10
6.0058620742
 20
-45.0018297558
 11
6.0052137264
 21
-45.0014646338
  0
LWPOLYLINE
  5
302
100
AcDbEntity
  8
RACCORDO
100
AcDbPolyline
 62
7
  6
CONTINUOUS
 90
6
 70
0
 10
13.6494308341
 20
-47.064864795
 10
14.496188112
 20
-47.5424624446
 10
15.33874894
 20
-48.003978783
 10
16.1757707327
 20
-48.4498556051
 10
17.0056765433
 20
-48.8807379703
 10
17.7659974422
 20
-49.2667715767
  0
LWPOLYLINE
  5
303
100
AcDbEntity
  8
RACCORDO
100
AcDbPolyline
 62
250
  6
CONTINUOUS
 90
8
 70
0
 10
17.765984813
 20
-49.2667652244
 10
17.7538051063
 20
-49.2598724235
 10
17.7348805606
 20
-49.2456495816
 10
17.7179164212
 20
-49.2281638354
 10
17.7030427456
 20
-49.2075492417
 10
17.6903735647
 20
-49.1839638446
 10
17.6800060083
 20
-49.1575884645
 10
17.6720195605
 20
-49.1286253115
  0
LINE
  5
304
100
AcDbEntity
  8
RACCORDO
100
AcDbLine
 62
250
  6
CONTINUOUS
 10
13.9510040699
 20
-47.1618031218
 11
13.5593397381
 21
-46.9407278306
  0
LINE
  5
305
100
AcDbEntity
  8
RACCORDO
100
AcDbLine
 62
250
  6
CONTINUOUS
 10
5.9019119621
 20
-44.7921198582
 11
4.8429138298
 21
-44.1893688002
  0
LINE
  5
306
100
AcDbEntity
  8
RACCORDO
100
AcDbLine
 62
250
  6
CONTINUOUS
 10
13.5593397381
 20
-46.9407278306
 11
12.0113834024
 21
-46.0588378119
  0
LINE
  5
307
100
AcDbEntity
  8
RACCORDO
100
AcDbLine
 62
250
  6
CONTINUOUS
 10
12.0113834024
 20
-46.0588378119
 11
10.0993909952
 21
-44.9644601732
  0
LINE
  5
308
100
AcDbEntity
  8
RACCORDO
100
AcDbLine
 62
7
  6
CONTINUOUS
 10
10.1861632365
 20
-45.0786413078
 11
13.6494308341
 21
-47.064864795
  0
LWPOLYLINE
  5
309
100
AcDbEntity
  8
RACCORDO
100
AcDbPolyline
 62
7
  6
CONTINUOUS
 90
3
 70
0
 10
3.1852546108
 20
-43.3875582055
 10
4.6458859662
 20
-44.2269009938
 10
6.0052137264
 20
-45.0014646338
  0
LINE
  5
30A
100
AcDbEntity
  8
RACCORDO
100
AcDbLine
 62
250
  6
CONTINUOUS
 10
4.8429138298
 20
-44.1893688002
 11
3.5313688627
 21
-43.4370356379
  0
LINE
  5
30B
100
AcDbEntity
  8
RACCORDO
100
AcDbLine
 62
250
  6
CONTINUOUS
 10
-10.9295033194
 20
-35.0850481166
 11
-19.2381152353
 21
-30.2911638595
  0
LINE
  5
30C
100
AcDbEntity
  8
RACCORDO
100
AcDbLine
 62
250
  6
CONTINUOUS
 10
3.5313688627
 20
-43.4370356379
 11
1.663850135
 21
-42.3593581874
  0
LINE
  5
30D
100
AcDbEntity
  8
RACCORDO
100
AcDbLine
 62
7
  6
CONTINUOUS
 10
-13.573466994
 20
-33.708343706
 11
3.1852546108
 21
-43.3875582055
  0
LINE
  5
30E
100
AcDbEntity
  8
RACCORDO
100
AcDbLine
 62
250
  6
CONTINUOUS
 10
1.663850135
 20
-42.3593581874
 11
-10.9295033194
 21
-35.0850481166
  0
LINE
  5
30F
100
AcDbEntity
  8
RACCORDO
100
AcDbLine
 62
250
  6
CONTINUOUS
 10
-19.2381152353
 20
-30.2911638595
 11
-20.5444524457
 21
-29.5357822296
  0
LINE
  5
310
100
AcDbEntity
  8
RACCORDO
100
AcDbLine
 62
250
  6
CONTINUOUS
 10
-20.5444524457
 20
-29.5357822296
 11
-21.6147233103
 21
-28.9138901325
  0
LINE
  5
311
100
AcDbEntity
  8
RACCORDO
100
AcDbLine
 62
250
  6
CONTINUOUS
 10
-23.2431987239
 20
-25.7112284484
 11
-25.1672816417
 21
-24.589479163
  0
LWPOLYLINE
  5
312
100
AcDbEntity
  8
RACCORDO
100
AcDbPolyline
 62
7
  6
CONTINUOUS
 90
4
 70
0
 10
-22.7033159069
 20
-28.4255193959
 10
-21.3574289316
 20
-29.2129308479
 10
-19.9038332206
 20
-30.0562141915
 10
-13.573466994
 20
-33.708343706
  0
LINE
  5
313
100
AcDbEntity
  8
RACCORDO
100
AcDbLine
 62
250
  6
CONTINUOUS
 10
-21.6147233103
 20
-28.9138901325
 11
-22.6383895063
 21
-28.3149923225
  0
LINE
  5
314
100
AcDbEntity
  8
RACCORDO
100
AcDbLine
 62
250
  6
CONTINUOUS
 10
-22.6383895063
 20
-28.3149923225
 11
-22.8062381046
 21
-28.2163938072
  0
LINE
  5
315
100
AcDbEntity
  8
RACCORDO
100
AcDbLine
 62
250
  6
CONTINUOUS
 10
-25.1672816417
 20
-24.589479163
 11
-26.5433810637
 21
-23.7829573519
  0
LINE
  5
316
100
AcDbEntity
  8
RACCORDO
100
AcDbLine
 62
250
  6
CONTINUOUS
 10
-26.5433810637
 20
-23.7829573519
 11
-26.8371512286
 21
-23.6083606341
  0
LINE
  5
317
100
AcDbEntity
  8
RACCORDO
100
AcDbLine
 62
250
  6
CONTINUOUS
 10
-26.8371512286
 20
-23.6083606341
 11
-27.1404546522
 21
-23.426236324
  0
LWPOLYLINE
  5
318
100
AcDbEntity
  8
RACCORDO
100
AcDbPolyline
 62
250
  6
CONTINUOUS
 90
19
 70
0
 10
-22.806238069
 20
-28.2163938554
 10
-22.8303103619
 20
-28.2017663062
 10
-22.8549665311
 20
-28.185881048
 10
-22.8799858998
 20
-28.1686619239
 10
-22.9051605706
 20
-28.1499860633
 10
-22.9302194844
 20
-28.1298117666
 10
-22.9548446323
 20
-28.108183782
 10
-22.9788616902
 20
-28.0849432918
 10
-23.0019332655
 20
-28.0600745341
 10
-23.0235739244
 20
-28.0338632219
 10
-23.0435916345
 20
-28.0062662915
 10
-23.0618176382
 20
-27.9772060399
 10
-23.0779430904
 20
-27.9469646871
 10
-23.091899463
 20
-27.9154358544
 10
-23.1035429608
 20
-27.882658389
 10
-23.1126565157
 20
-27.8492019749
 10
-23.1193036131
 20
-27.8150038354
 10
-23.1235056764
 20
-27.7801620164
 10
-23.1246057418
 20
-27.7644400289
  0
LINE
  5
319
100
AcDbEntity
  8
RACCORDO
100
AcDbLine
 62
250
  6
CONTINUOUS
 10
-27.1404546522
 20
-23.426236324
 11
-27.466956685
 21
-23.2280221917
  0
LINE
  5
31A
100
AcDbEntity
  8
RACCORDO
100
AcDbLine
 62
250
  6
CONTINUOUS
 10
-27.466956685
 20
-23.2280221917
 11
-27.8269192598
 21
-23.0068590124
  0
LINE
  5
31B
100
AcDbEntity
  8
RACCORDO
100
AcDbLine
 62
250
  6
CONTINUOUS
 10
-27.8269192598
 20
-23.0068590124
 11
-28.2255858331
 21
-22.7586554518
  0
LINE
  5
31C
100
AcDbEntity
  8
RACCORDO
100
AcDbLine
 62
250
  6
CONTINUOUS
 10
-28.2255858331
 20
-22.7586554518
 11
-28.5094462219
 21
-22.5798328106
  0
LINE
  5
31D
100
AcDbEntity
  8
RACCORDO
100
AcDbLine
 62
250
  6
CONTINUOUS
 10
-28.5094462219
 20
-22.5798328106
 11
-28.8034571064
 21
-22.3927813965
  0
LINE
  5
31E
100
AcDbEntity
  8
RACCORDO
100
AcDbLine
 62
250
  6
CONTINUOUS
 10
-28.8034571064
 20
-22.3927813965
 11
-29.1072103987
 21
-22.1975868646
  0
LWPOLYLINE
  5
31F
100
AcDbEntity
  8
RACCORDO
100
AcDbPolyline
 62
250
  6
CONTINUOUS
 90
7
 70
0
 10
10.1861633733
 20
-45.0786413824
 10
10.171277319
 20
-45.0689877577
 10
10.1528300722
 20
-45.0534687686
 10
10.1363067254
 20
-45.0351324215
 10
10.1218221453
 20
-45.0140906347
 10
10.1094869838
 20
-44.9904863702
 10
10.0993922485
 20
-44.9644758553
  0
LINE
  5
320
100
AcDbEntity
  8
RACCORDO
100
AcDbLine
 62
250
  6
CONTINUOUS
 10
-29.1072103987
 20
-22.1975868646
 11
-29.4228207312
 21
-21.9927029158
  0
LWPOLYLINE
  5
321
100
AcDbEntity
  8
RACCORDO
100
AcDbPolyline
 62
250
  6
CONTINUOUS
 90
10
 70
0
 10
6.0052137264
 20
-45.0014646338
 10
5.987781702
 20
-44.9900739631
 10
5.9694904168
 20
-44.9742284151
 10
5.9531691249
 20
-44.9555345982
 10
5.9389318026
 20
-44.9341230595
 10
5.9268778766
 20
-44.9101433273
 10
5.9170915328
 20
-44.8837628693
 10
5.9096411137
 20
-44.8551659143
 10
5.9045786417
 20
-44.8245521662
 10
5.9019394657
 20
-44.7921354149
  0
LWPOLYLINE
  5
322
100
AcDbEntity
  8
RACCORDO
100
AcDbPolyline
 62
7
  6
CONTINUOUS
 90
7
 70
0
 10
-30.0155063481
 20
-21.6781821443
 10
-29.3809679597
 20
-22.0951606104
 10
-28.6645476583
 20
-22.5559910519
 10
-27.9131753985
 20
-23.0274630958
 10
-27.1253044794
 20
-23.5085304333
 10
-26.2995202452
 20
-23.9982090244
 10
-23.2389811242
 20
-25.7780560463
  0
LINE
  5
323
100
AcDbEntity
  8
RACCORDO
100
AcDbLine
 62
250
  6
CONTINUOUS
 10
-29.4228207312
 20
-21.9927029158
 11
-29.7552906593
 21
-21.774639568
  0
LWPOLYLINE
  5
324
100
AcDbEntity
  8
RACCORDO
100
AcDbPolyline
 62
250
  6
CONTINUOUS
 90
10
 70
0
 10
-8.3587282922
 20
-36.7189273328
 10
-8.3751020134
 20
-36.7081418808
 10
-8.3935783795
 20
-36.6921905029
 10
-8.4100655022
 20
-36.6734018622
 10
-8.4244482468
 20
-36.6519071677
 10
-8.4366261711
 20
-36.6278565286
 10
-8.4465142232
 20
-36.6014179076
 10
-8.45404335
 20
-36.57277594
 10
-8.4591609796
 20
-36.5421306438
 10
-8.4618313782
 20
-36.509696029
  0
LWPOLYLINE
  5
325
100
AcDbEntity
  8
RACCORDO
100
AcDbPolyline
 62
250
  6
CONTINUOUS
 90
10
 70
0
 10
-22.7034227089
 20
-28.4254564298
 10
-22.7186204195
 20
-28.4153577547
 10
-22.7372806765
 20
-28.3992994614
 10
-22.7539325096
 20
-28.3804150355
 10
-22.7684596182
 20
-28.3588363429
 10
-22.7807605394
 20
-28.3347140669
 10
-22.7907493518
 20
-28.3082166637
 10
-22.7983562846
 20
-28.2795291746
 10
-22.8035282037
 20
-28.2488519327
 10
-22.8062289783
 20
-28.2163991709
  0
LINE
  5
326
100
AcDbEntity
  8
RACCORDO
100
AcDbLine
 62
250
  6
CONTINUOUS
 10
-29.7552906593
 20
-21.774639568
 11
-30.1057779874
 21
-21.5423238037
  0
LWPOLYLINE
  5
327
100
AcDbEntity
  8
RACCORDO
100
AcDbPolyline
 62
7
  6
CONTINUOUS
 90
14
 70
0
 10
-33.1071829235
 20
-19.5472231297
 10
-33.0969240569
 20
-19.554225146
 10
-33.074471527
 20
-19.5675299905
 10
-33.0509711766
 20
-19.5788317127
 10
-33.0265597744
 20
-19.5880636967
 10
-33.0013951639
 20
-19.5951562436
 10
-32.975687118
 20
-19.6000405696
 10
-32.9496584347
 20
-19.6026720259
 10
-32.9235214621
 20
-19.6030328593
 10
-32.8974585115
 20
-19.6011244038
 10
-32.8716509221
 20
-19.59695995
 10
-32.8462861148
 20
-19.5905668338
 10
-32.8215646437
 20
-19.5819929486
 10
-32.7961792372
 20
-19.5705484999
  0
LWPOLYLINE
  5
328
100
AcDbEntity
  8
RACCORDO
100
AcDbPolyline
 62
250
  6
CONTINUOUS
 90
37
 70
0
 10
-30.1057779874
 20
-21.5423238037
 10
-30.2569472726
 20
-21.4379970864
 10
-30.4071361563
 20
-21.328289899
 10
-30.5563343397
 20
-21.2131962976
 10
-30.7042210759
 20
-21.0929052063
 10
-30.8510911877
 20
-20.9672127389
 10
-30.9978474395
 20
-20.835517797
 10
-31.1451178875
 20
-20.6972861126
 10
-31.2922176103
 20
-20.5530191339
 10
-31.4380801775
 20
-20.4036694932
 10
-31.582617217
 20
-20.2492450885
 10
-31.7258752639
 20
-20.0897138756
 10
-31.8670068289
 20
-19.9259781424
 10
-32.0059705027
 20
-19.7580273168
 10
-32.1427766536
 20
-19.5858540557
 10
-32.2766714241
 20
-19.4103747052
 10
-32.4076369603
 20
-19.2315670046
 10
-32.535673766
 20
-19.049443201
 10
-32.660072337
 20
-18.8649811079
 10
-32.7808135476
 20
-18.6781775346
 10
-32.8979149231
 20
-18.4890347482
 10
-33.0107392794
 20
-18.2985487591
 10
-33.1193227473
 20
-18.1066195062
 10
-33.2236430666
 20
-17.9133550559
 10
-33.3229948292
 20
-17.7200747863
 10
-33.4171073355
 20
-17.5274654307
 10
-33.5062897627
 20
-17.3348624629
 10
-33.5907123435
 20
-17.1415617332
 10
-33.6707142252
 20
-16.9469611358
 10
-33.7459779342
 20
-16.7516752853
 10
-33.8156932525
 20
-16.5568277
 10
-33.8799519625
 20
-16.3620583051
 10
-33.9387030523
 20
-16.1677507057
 10
-33.9909467116
 20
-15.9761581367
 10
-34.0363793741
 20
-15.7880488197
 10
-34.0753757014
 20
-15.6026955653
 10
-34.1079662411
 20
-15.420116004
  0
LINE
  5
329
100
AcDbEntity
  8
RACCORDO
100
AcDbLine
 62
7
  6
CONTINUOUS
 10
-33.7174703034
 20
-19.1094949305
 11
-33.1071814036
 21
-19.5472205515
  0
LINE
  5
32A
100
AcDbEntity
  8
RACCORDO
100
AcDbLine
 62
250
  6
CONTINUOUS
 10
-33.1656249559
 20
-19.4236925043
 11
-33.6323581751
 21
-19.0877297337
  0
LINE
  5
32B
100
AcDbEntity
  8
RACCORDO
100
AcDbLine
 62
250
  6
CONTINUOUS
 10
-33.6323581751
 20
-19.0877297337
 11
-34.1267756023
 21
-18.7286191902
  0
LINE
  5
32C
100
AcDbEntity
  8
RACCORDO
100
AcDbLine
 62
7
  6
CONTINUOUS
 10
-34.4322645146
 20
-18.5902953254
 11
-33.7174703034
 21
-19.1094949305
  0
LINE
  5
32D
100
AcDbEntity
  8
RACCORDO
100
AcDbLine
 62
250
  6
CONTINUOUS
 10
-34.1267756023
 20
-18.7286191902
 11
-34.6479190654
 21
-18.3463680586
  0
LINE
  5
32E
100
AcDbEntity
  8
RACCORDO
100
AcDbLine
 62
7
  6
CONTINUOUS
 10
-35.1681494835
 20
-18.0485104661
 11
-34.4322645146
 21
-18.5902953254
  0
LINE
  5
32F
100
AcDbEntity
  8
RACCORDO
100
AcDbLine
 62
250
  6
CONTINUOUS
 10
-34.6479190654
 20
-18.3463680586
 11
-35.1936875624
 21
-17.941882647
  0
LWPOLYLINE
  5
330
100
AcDbEntity
  8
RACCORDO
100
AcDbPolyline
 62
250
  6
CONTINUOUS
 90
7
 70
0
 10
-30.0155063481
 20
-21.6781821443
 10
-30.0330194403
 20
-21.6650627574
 10
-30.0526222578
 20
-21.6460534498
 10
-30.0698215742
 20
-21.6240960489
 10
-30.0844855315
 20
-21.5993588967
 10
-30.0965017094
 20
-21.5720316452
 10
-30.1057779874
 20
-21.5423238037
  0
LINE
  5
331
100
AcDbEntity
  8
RACCORDO
100
AcDbLine
 62
250
  6
CONTINUOUS
 10
-35.1936875624
 20
-17.941882647
 11
-35.7637061229
 21
-17.5153042837
  0
LWPOLYLINE
  5
332
100
AcDbEntity
  8
RACCORDO
100
AcDbPolyline
 62
7
  6
CONTINUOUS
 90
3
 70
0
 10
-36.2664081509
 20
-17.2275561185
 10
-35.9249526838
 20
-17.4842515073
 10
-35.1681494835
 20
-18.0485104661
  0
LINE
  5
333
100
AcDbEntity
  8
RACCORDO
100
AcDbLine
 62
250
  6
CONTINUOUS
 10
-35.7637061229
 20
-17.5153042837
 11
-36.3577375734
 21
-17.066678885
  0
LWPOLYLINE
  5
334
100
AcDbEntity
  8
RACCORDO
100
AcDbPolyline
 62
250
  6
CONTINUOUS
 90
37
 70
0
 10
-36.3577375734
 20
-17.066678885
 10
-36.5108190728
 20
-16.9460747005
 10
-36.6615374475
 20
-16.8205721484
 10
-36.809854772
 20
-16.6901493402
 10
-36.9551576631
 20
-16.555167923
 10
-37.0979819997
 20
-16.4152215185
 10
-37.2400048765
 20
-16.2691310786
 10
-37.3819945803
 20
-16.1162003231
 10
-37.5230827418
 20
-15.9570677701
 10
-37.6624893699
 20
-15.7925553561
 10
-37.800166174
 20
-15.6226110948
 10
-37.936076407
 20
-15.4472378933
 10
-38.0694730072
 20
-15.2673490402
 10
-38.2002740894
 20
-15.0829741966
 10
-38.3284987167
 20
-14.8940474438
 10
-38.4535687811
 20
-14.7013488197
 10
-38.575390851
 20
-14.5050095356
 10
-38.694020391
 20
-14.3048764678
 10
-38.8091165425
 20
-14.1013111765
 10
-38.9206913362
 20
-13.8943450621
 10
-39.0287140277
 20
-13.6839359238
 10
-39.1327901884
 20
-13.470341034
 10
-39.2330670953
 20
-13.2532892573
 10
-39.3293975696
 20
-13.0330517859
 10
-39.4209636942
 20
-12.8107098848
 10
-39.5078585842
 20
-12.5859765412
 10
-39.590025005
 20
-12.3591594762
 10
-39.6664515345
 20
-12.1322505369
 10
-39.7371066194
 20
-11.9052591948
 10
-39.80210532
 20
-11.6782241741
 10
-39.8606906275
 20
-11.4532011087
 10
-39.9128321806
 20
-11.2302599267
 10
-39.9586774129
 20
-11.0093982678
 10
-39.9977616047
 20
-10.7925781056
 10
-40.0299783164
 20
-10.580481404
 10
-40.0555664425
 20
-10.3725026449
 10
-40.0745872881
 20
-10.1686772105
  0
LWPOLYLINE
  5
335
100
AcDbEntity
  8
RACCORDO
100
AcDbPolyline
 62
250
  6
CONTINUOUS
 90
7
 70
0
 10
-36.2664081509
 20
-17.2275561185
 10
-36.2873845813
 20
-17.2094866162
 10
-36.3076173503
 20
-17.1866254513
 10
-36.3249044462
 20
-17.1606785799
 10
-36.3390970292
 20
-17.1318694095
 10
-36.3500729047
 20
-17.1004459914
 10
-36.3577375734
 20
-17.066678885
  0
LWPOLYLINE
  5
336
100
AcDbEntity
  8
RACCORDO
100
AcDbPolyline
 62
250
  6
CONTINUOUS
 90
7
 70
0
 10
-34.2057963844
 20
-15.2610685159
 10
-34.2006679124
 20
-15.2849769937
 10
-34.1902637427
 20
-15.3148176582
 10
-34.1756448304
 20
-15.3434981554
 10
-34.1569399807
 20
-15.3707657854
 10
-34.1343139995
 20
-15.3963802969
 10
-34.1079662411
 20
-15.420116004
  0
LWPOLYLINE
  5
337
100
AcDbEntity
  8
RACCORDO
100
AcDbPolyline
 62
250
  6
CONTINUOUS
 90
22
 70
0
 10
-34.3049747716
 20
-15.7313062267
 10
-34.2780922691
 20
-15.8750501405
 10
-34.2468484263
 20
-16.0199411719
 10
-34.2114870794
 20
-16.1656097881
 10
-34.1724783562
 20
-16.3109301211
 10
-34.1299003239
 20
-16.4563289479
 10
-34.0831804069
 20
-16.6038788935
 10
-34.0319903371
 20
-16.7542858963
 10
-33.976656744
 20
-16.9063997257
 10
-33.9174067093
 20
-17.0595788683
 10
-33.8546164357
 20
-17.2128575579
 10
-33.7881266786
 20
-17.3667087735
 10
-33.7172585951
 20
-17.5226532765
 10
-33.6418161638
 20
-17.680679974
 10
-33.5619033761
 20
-17.8402985438
 10
-33.4770739906
 20
-18.0022921408
 10
-33.3868507377
 20
-18.1670221983
 10
-33.2915062209
 20
-18.3334820994
 10
-33.1917416965
 20
-18.5003834909
 10
-33.0878576567
 20
-18.6670744904
 10
-32.9796621764
 20
-18.8335117195
 10
-32.867223176
 20
-18.9993258603
  0
LWPOLYLINE
  5
338
100
AcDbEntity
  8
RACCORDO
100
AcDbPolyline
 62
250
  6
CONTINUOUS
 90
9
 70
0
 10
-33.1656223118
 20
-19.4236922967
 10
-33.1613928468
 20
-19.4475435687
 10
-33.1558331148
 20
-19.4693089808
 10
-33.1490288474
 20
-19.4888966611
 10
-33.1411320784
 20
-19.5061358988
 10
-33.1321998037
 20
-19.5210708432
 10
-33.122110376
 20
-19.5338711356
 10
-33.1108431708
 20
-19.544459128
 10
-33.107177958
 20
-19.5472230087
  0
LWPOLYLINE
  5
339
100
AcDbEntity
  8
RACCORDO
100
AcDbPolyline
 62
7
  6
CONTINUOUS
 90
34
 70
0
 10
-34.2058053003
 20
-15.2610119535
 10
-34.1797530764
 20
-15.4131917929
 10
-34.1370092377
 20
-15.6248764974
 10
-34.0862581781
 20
-15.8399779679
 10
-34.0277163775
 20
-16.057873635
 10
-33.9615737512
 20
-16.2781543852
 10
-33.8879572485
 20
-16.5005728321
 10
-33.8070552069
 20
-16.7246520221
 10
-33.7190959002
 20
-16.9498716626
 10
-33.6242301996
 20
-17.1758937684
 10
-33.5226812813
 20
-17.4022199196
 10
-33.4146990399
 20
-17.6283487482
 10
-33.3004603299
 20
-17.8539233576
 10
-33.1802304245
 20
-18.078450475
 10
-33.0542848532
 20
-18.3014454059
 10
-32.9228254681
 20
-18.522556106
 10
-32.7861512965
 20
-18.7413087935
 10
-32.6445638538
 20
-18.9572345218
 10
-32.4982923858
 20
-19.1699949003
 10
-32.3476647274
 20
-19.3791374631
 10
-32.193009559
 20
-19.58421136
 10
-32.0345815721
 20
-19.7848974653
 10
-31.8727304367
 20
-19.9807665471
 10
-31.7078123098
 20
-20.1713885844
 10
-31.5400997723
 20
-20.3564654289
 10
-31.3699621922
 20
-20.5355863125
 10
-31.1977737832
 20
-20.7083549947
 10
-31.0238030833
 20
-20.8745063558
 10
-30.8484391116
 20
-21.0336454139
 10
-30.6720504357
 20
-21.1854204785
 10
-30.4948367836
 20
-21.3296260919
 10
-30.3171031627
 20
-21.4659499106
 10
-30.1393251227
 20
-21.5939784893
 10
-30.0154899951
 20
-21.6781929879
  0
LINE
  5
33A
100
AcDbEntity
  8
RACCORDO
100
AcDbLine
 62
7
  6
CONTINUOUS
 10
-34.2058053003
 20
-15.2610119535
 11
-34.2057963844
 21
-15.2610685159
  0
LWPOLYLINE
  5
33B
100
AcDbEntity
  8
RACCORDO
100
AcDbPolyline
 62
250
  6
CONTINUOUS
 90
26
 70
0
 10
-34.1079662411
 20
-15.420116004
 10
-34.1965902446
 20
-14.856700378
 10
-34.2812452738
 20
-14.2976279389
 10
-34.3619721325
 20
-13.7429222365
 10
-34.4384688384
 20
-13.1951355725
 10
-34.5111569203
 20
-12.651784641
 10
-34.5810346417
 20
-12.1052658165
 10
-34.648379878
 20
-11.5524466446
 10
-34.7127178736
 20
-10.9963459513
 10
-34.7738200819
 20
-10.4385305507
 10
-34.8315930446
 20
-9.8795684033
 10
-34.8860671658
 20
-9.3188551574
 10
-34.9372516736
 20
-8.7562291594
 10
-34.9851478249
 20
-8.1917400575
 10
-35.0297632583
 20
-7.6253433377
 10
-35.0711319372
 20
-7.0567448552
 10
-35.1093024806
 20
-6.4858962935
 10
-35.1443158975
 20
-5.9128976975
 10
-35.1762179537
 20
-5.3376908643
 10
-35.2051207839
 20
-4.7600947523
 10
-35.2311670588
 20
-4.180437463
 10
-35.2544747027
 20
-3.5994397173
 10
-35.275229831
 20
-3.0171956771
 10
-35.2936402786
 20
-2.4338385475
 10
-35.3098802038
 20
-1.8501612665
 10
-35.3241808323
 20
-1.2667817513
  0
LWPOLYLINE
  5
33C
100
AcDbEntity
  8
RACCORDO
100
AcDbPolyline
 62
250
  6
CONTINUOUS
 90
9
 70
0
 10
-27.6762087862
 20
34.2462403644
 10
-27.6770878459
 20
34.2293202759
 10
-27.6794394863
 20
34.2135208707
 10
-27.6832376583
 20
34.199017158
 10
-27.6884402899
 20
34.1859697945
 10
-27.6949897517
 20
34.1745233054
 10
-27.7028134953
 20
34.1648044834
 10
-27.7118248572
 20
34.156920983
 10
-27.7205059649
 20
34.1516475104
  0
LWPOLYLINE
  5
33D
100
AcDbEntity
  8
RACCORDO
100
AcDbPolyline
 62
7
  6
CONTINUOUS
 90
6
 70
0
 10
-27.2114258751
 20
35.4126000536
 10
-27.2140542137
 20
35.3877525889
 10
-27.2169146231
 20
35.3630475073
 10
-27.2200070921
 20
35.3384886918
 10
-27.2233315657
 20
35.3140799954
 10
-27.2268879445
 20
35.2898252398
  0
LWPOLYLINE
  5
33E
100
AcDbEntity
  8
RACCORDO
100
AcDbPolyline
 62
7
  6
CONTINUOUS
 90
3
 70
0
 10
-27.4202164672
 20
34.0501247342
 10
-27.4495046441
 20
33.8522936031
 10
-27.5061487635
 20
33.4606071747
  0
LWPOLYLINE
  5
33F
100
AcDbEntity
  8
RACCORDO
100
AcDbPolyline
 62
250
  6
CONTINUOUS
 90
10
 70
0
 10
-32.74068832
 20
-19.4463131768
 10
-32.744400087
 20
-19.4697617767
 10
-32.749055085
 20
-19.4909966013
 10
-32.7545746751
 20
-19.5099346927
 10
-32.7608156091
 20
-19.5264176779
 10
-32.7677322727
 20
-19.5404990962
 10
-32.7754481636
 20
-19.552346046
 10
-32.7839764118
 20
-19.5618832783
 10
-32.793228252
 20
-19.5689222705
 10
-32.7961313267
 20
-19.5705279154
  0
LWPOLYLINE
  5
340
100
AcDbEntity
  8
RACCORDO
100
AcDbPolyline
 62
250
  6
CONTINUOUS
 90
16
 70
0
 10
-6.0530479771
 20
31.6087686411
 10
-6.0818686898
 20
31.5901829745
 10
-6.1104561284
 20
31.5690230476
 10
-6.1386196472
 20
31.5454299688
 10
-6.1661714266
 20
31.5195610717
 10
-6.1929277301
 20
31.4915888692
 10
-6.2187101296
 20
31.4616999026
 10
-6.2433466891
 20
31.4300934943
 10
-6.2666731114
 20
31.396980418
 10
-6.2885338382
 20
31.3625814969
 10
-6.3087830878
 20
31.3271261297
 10
-6.3272858224
 20
31.2908507594
 10
-6.3439186485
 20
31.2539972955
 10
-6.3585706464
 20
31.2168115051
 10
-6.3711441096
 20
31.1795413733
 10
-6.3815551919
 20
31.1424354473
  0
LINE
  5
341
100
AcDbEntity
  8
0
100
AcDbLine
 62
7
  6
CONTINUOUS
 10
-12.5777926387
 20
26.0159273581
 11
-12.6283453863
 21
25.9867388352
  0
LINE
  5
342
100
AcDbEntity
  8
0
100
AcDbLine
 62
7
  6
CONTINUOUS
 10
-12.0473703405
 20
25.7112428107
 11
-12.0979222781
 21
25.6820547555
  0
LWPOLYLINE
  5
343
100
AcDbEntity
  8
RACCORDO
100
AcDbPolyline
 62
250
  6
CONTINUOUS
 90
19
 70
0
 10
-35.7488663979
 20
13.5093248805
 10
-35.7709256961
 20
13.4981860064
 10
-35.7947644718
 20
13.4883431291
 10
-35.8201550384
 20
13.4798902674
 10
-35.8468548895
 20
13.4729081821
 10
-35.87460903
 20
13.4674635359
 10
-35.9031524132
 20
13.4636082599
 10
-35.9322124428
 20
13.4613791566
 10
-35.9615115998
 20
13.4607975216
 10
-35.9907701092
 20
13.4618688776
 10
-36.0197085608
 20
13.4645829668
 10
-36.0480506095
 20
13.4689138689
 10
-36.0755256372
 20
13.4748202346
 10
-36.101871274
 20
13.4822456254
 10
-36.1268359402
 20
13.4911191219
 10
-36.1501812726
 20
13.5013560369
 10
-36.171684347
 20
13.512858612
 10
-36.1911398131
 20
13.5255169458
 10
-36.208361885
 20
13.5392101221
  0
LINE
  5
344
100
AcDbEntity
  8
RACCORDO
100
AcDbLine
 62
250
  6
CONTINUOUS
 10
-25.1945852044
 20
23.4768622987
 11
-25.2534927977
 21
23.4503435354
  0
LWPOLYLINE
  5
345
100
AcDbEntity
  8
RACCORDO
100
AcDbPolyline
 62
250
  6
CONTINUOUS
 90
5
 70
0
 10
-23.3367814183
 20
-24.3840523351
 10
-23.4348719479
 20
-24.05714448
 10
-23.6950222799
 20
-23.1331240677
 10
-23.9353974466
 20
-22.2189484927
 10
-24.1554406477
 20
-21.3163696689
  0
LWPOLYLINE
  5
346
100
AcDbEntity
  8
RACCORDO
100
AcDbPolyline
 62
250
  6
CONTINUOUS
 90
6
 70
0
 10
-24.1554406477
 20
-21.3163696689
 10
-24.3536961175
 20
-20.4307672141
 10
-24.5290783556
 20
-19.5691318808
 10
-24.6835776232
 20
-18.7249950953
 10
-24.8201201165
 20
-17.8834137735
 10
-24.9395169816
 20
-17.0393120894
  0
LINE
  5
347
100
AcDbEntity
  8
SUPERFICI
100
AcDbLine
 62
7
  6
CONTINUOUS
 10
-23.4353619317
 20
-23.3197667067
 11
-23.4225045768
 21
-23.4395707918
  0
LINE
  5
348
100
AcDbEntity
  8
SUPERFICI
100
AcDbLine
 62
7
  6
CONTINUOUS
 10
-23.4225045768
 20
-23.4395707918
 11
-23.4098867377
 21
-23.5626072975
  0
LINE
  5
349
100
AcDbEntity
  8
SUPERFICI
100
AcDbLine
 62
7
  6
CONTINUOUS
 10
-23.4098867377
 20
-23.5626072975
 11
-23.3943587632
 21
-23.7214914677
  0
LWPOLYLINE
  5
34A
100
AcDbEntity
  8
RACCORDO
100
AcDbPolyline
 62
250
  6
CONTINUOUS
 90
27
 70
0
 10
-28.0977481314
 20
34.3889529302
 10
-28.096300962
 20
34.3738108744
 10
-28.0942355461
 20
34.3592169833
 10
-28.0917381366
 20
34.3453589347
 10
-28.0888697842
 20
34.3321861568
 10
-28.0856626232
 20
34.3196474488
 10
-28.0821470931
 20
34.3077012763
 10
-28.0783681557
 20
34.2963515905
 10
-28.0743643537
 20
34.28559825
 10
-28.0701522194
 20
34.2754015744
 10
-28.0657609631
 20
34.2657489367
 10
-28.0612243584
 20
34.2566353829
 10
-28.0565599272
 20
34.2480327486
 10
-28.0517951208
 20
34.2399314374
 10
-28.0469556862
 20
34.232319334
 10
-28.042052074
 20
34.2251650294
 10
-28.0371105329
 20
34.2184620976
 10
-28.0321474835
 20
34.2121910262
 10
-28.0271533152
 20
34.2063042803
 10
-28.022156431
 20
34.2008031432
 10
-28.0171604457
 20
34.1956628636
 10
-28.0121109262
 20
34.1908073759
 10
-28.007022383
 20
34.1862353624
 10
-28.001900113
 20
34.1819394182
 10
-27.9966676377
 20
34.177850916
 10
-27.9913146835
 20
34.1739632362
 10
-27.9875424709
 20
34.1713948231
  0
LINE
  5
34B
100
AcDbEntity
  8
SUPERFICI
100
AcDbLine
 62
7
  6
CONTINUOUS
 10
-23.3943587632
 20
-23.7214914677
 11
-23.3790304758
 21
-23.8864962078
  0
LINE
  5
34C
100
AcDbEntity
  8
SUPERFICI
100
AcDbLine
 62
7
  6
CONTINUOUS
 10
-23.3790304758
 20
-23.8864962078
 11
-23.3608102219
 21
-24.0933157109
  0
LINE
  5
34D
100
AcDbEntity
  8
SUPERFICI
100
AcDbLine
 62
7
  6
CONTINUOUS
 10
-23.3608102219
 20
-24.0933157109
 11
-23.3427178043
 21
-24.310307538
  0
LINE
  5
34E
100
AcDbEntity
  8
SUPERFICI
100
AcDbLine
 62
7
  6
CONTINUOUS
 10
-23.3427178043
 20
-24.310307538
 11
-23.3218619092
 21
-24.5749503064
  0
LINE
  5
34F
100
AcDbEntity
  8
SUPERFICI
100
AcDbLine
 62
7
  6
CONTINUOUS
 10
-23.3218619092
 20
-24.5749503064
 11
-23.2986308399
 21
-24.8880602539
  0
LWPOLYLINE
  5
350
100
AcDbEntity
  8
RACCORDO
100
AcDbPolyline
 62
250
  6
CONTINUOUS
 90
16
 70
0
 10
-25.9981279821
 20
42.903366534
 10
-25.999920037
 20
42.92936584
 10
-26.0038474401
 20
42.9564281693
 10
-26.0098680497
 20
42.9842630294
 10
-26.0179172544
 20
43.0125716321
 10
-26.0279086649
 20
43.0410500982
 10
-26.0397350409
 20
43.0693927198
 10
-26.0532694446
 20
43.0972952479
 10
-26.0683665995
 20
43.124458149
 10
-26.0848644464
 20
43.1505898196
 10
-26.1025858934
 20
43.1754097342
 10
-26.1213407092
 20
43.1986514418
 10
-26.1409275574
 20
43.2200654215
 10
-26.1611361734
 20
43.2394217814
 10
-26.1817496235
 20
43.2565127236
 10
-26.2025466227
 20
43.2711547641
  0
LINE
  5
351
100
AcDbEntity
  8
SUPERFICI
100
AcDbLine
 62
7
  6
CONTINUOUS
 10
-23.2986308399
 20
-24.8880602539
 11
-23.2705567432
 21
-25.291892754
  0
LINE
  5
352
100
AcDbEntity
  8
SUPERFICI
100
AcDbLine
 62
7
  6
CONTINUOUS
 10
-23.2705567432
 20
-25.291892754
 11
-23.2379552551
 21
-25.7943634282
  0
LWPOLYLINE
  5
353
100
AcDbEntity
  8
RACCORDO
100
AcDbPolyline
 62
7
  6
CONTINUOUS
 90
14
 70
0
 10
-23.1246020481
 20
-27.7645724836
 10
-23.1241444311
 20
-27.7723148506
 10
-23.117862506
 20
-27.8345123693
 10
-23.1064494547
 20
-27.89788364
 10
-23.0894908878
 20
-27.9615619326
 10
-23.0666248079
 20
-28.0249266193
 10
-23.0375985222
 20
-28.0872561369
 10
-23.0024704283
 20
-28.1475966453
 10
-22.9613172176
 20
-28.2053717471
 10
-22.9144831452
 20
-28.2598272651
 10
-22.8627730379
 20
-28.310233516
 10
-22.8067503338
 20
-28.3564206823
 10
-22.7469071631
 20
-28.3985290126
 10
-22.7034227089
 20
-28.4254564298
  0
LINE
  5
354
100
AcDbEntity
  8
SUPERFICI
100
AcDbLine
 62
7
  6
CONTINUOUS
 10
-23.2379552551
 20
-25.7943634282
 11
-23.1931154226
 21
-26.5383268175
  0
LINE
  5
355
100
AcDbEntity
  8
SUPERFICI
100
AcDbLine
 62
7
  6
CONTINUOUS
 10
-23.1931154226
 20
-26.5383268175
 11
-23.1334992973
 21
-27.6008457797
  0
LINE
  5
356
100
AcDbEntity
  8
RACCORDO
100
AcDbLine
 62
7
  6
CONTINUOUS
 10
-23.1246057418
 20
-27.7644400289
 11
-23.1246238719
 21
-27.7641074772
  0
LINE
  5
357
100
AcDbEntity
  8
SUPERFICI
100
AcDbLine
 62
7
  6
CONTINUOUS
 10
-23.1334992973
 20
-27.6008457797
 11
-23.1246248749
 21
-27.7640889727
  0
LINE
  5
358
100
AcDbEntity
  8
RACCORDO
100
AcDbLine
 62
250
  6
CONTINUOUS
 10
-25.9594932735
 20
-11.5222305485
 11
-25.9678083228
 21
-11.2723213211
  0
LWPOLYLINE
  5
359
100
AcDbEntity
  8
RACCORDO
100
AcDbPolyline
 62
250
  6
CONTINUOUS
 90
22
 70
0
 10
-25.6666000547
 20
-14.1766794368
 10
-25.6647524978
 20
-14.233939639
 10
-25.6593693138
 20
-14.2924093387
 10
-25.6504505028
 20
-14.352088536
 10
-25.637904991
 20
-14.4133599801
 10
-25.6218238521
 20
-14.4758409217
 10
-25.6024803075
 20
-14.5383831131
 10
-25.5798226966
 20
-14.6009472758
 10
-25.5539026801
 20
-14.6635726882
 10
-25.5251484608
 20
-14.7252289378
 10
-25.4935102291
 20
-14.7859060472
 10
-25.4590377946
 20
-14.8456139939
 10
-25.4223087889
 20
-14.9033522973
 10
-25.3832898079
 20
-14.959082693
 10
-25.3420142557
 20
-15.0128434454
 10
-25.2991599758
 20
-15.0637488675
 10
-25.2546665322
 20
-15.111774354
 10
-25.208594361
 20
-15.1569445101
 10
-25.161802614
 20
-15.1984474657
 10
-25.1145776749
 20
-15.2360125971
 10
-25.0666331599
 20
-15.269910528
 10
-25.017969069
 20
-15.3001412581
  0
LWPOLYLINE
  5
35A
100
AcDbEntity
  8
RACCORDO
100
AcDbPolyline
 62
7
  6
CONTINUOUS
 90
22
 70
0
 10
-25.9594932735
 20
-13.7684048435
 10
-25.9561153162
 20
-13.8815086542
 10
-25.9461499505
 20
-13.9947218298
 10
-25.9298173397
 20
-14.1079043555
 10
-25.9071583279
 20
-14.2215287845
 10
-25.8783516675
 20
-14.3349637791
 10
-25.8440389055
 20
-14.4463945097
 10
-25.8046921884
 20
-14.5552589004
 10
-25.7603901133
 20
-14.6619965165
 10
-25.7114615655
 20
-14.7662138595
 10
-25.6581634881
 20
-14.8676820391
 10
-25.600572731
 20
-14.966441849
 10
-25.5387551246
 20
-15.062431598
 10
-25.472649188
 20
-15.1556763379
 10
-25.4023939788
 20
-15.2458336579
 10
-25.3283292039
 20
-15.3323320421
 10
-25.2503182623
 20
-15.4151584046
 10
-25.1684714069
 20
-15.4939551237
 10
-25.083527562
 20
-15.5678343994
 10
-24.9957420059
 20
-15.6364719379
 10
-24.9048596934
 20
-15.6999037605
 10
-24.810886448
 20
-15.7578781193
  0
LWPOLYLINE
  5
35B
100
AcDbEntity
  8
RACCORDO
100
AcDbPolyline
 62
250
  6
CONTINUOUS
 90
12
 70
0
 10
-25.017969069
 20
-15.3001412581
 10
-25.0164885443
 20
-15.352093636
 10
-25.01205317
 20
-15.4021187876
 10
-25.0046815193
 20
-15.4500072296
 10
-24.9944044617
 20
-15.4955584267
 10
-24.9812650327
 20
-15.5385816306
 10
-24.9653182545
 20
-15.5788966791
 10
-24.9466309051
 20
-15.6163347508
 10
-24.9252812389
 20
-15.6507390717
 10
-24.9013586588
 20
-15.6819655717
 10
-24.8749633419
 20
-15.709883488
 10
-24.8462058201
 20
-15.7343759129
  0
LINE
  5
35C
100
AcDbEntity
  8
RACCORDO
100
AcDbLine
 62
250
  6
CONTINUOUS
 10
-25.9678083228
 20
-11.2723213211
 11
-25.98765401
 21
-10.5918423245
  0
LINE
  5
35D
100
AcDbEntity
  8
RACCORDO
100
AcDbLine
 62
250
  6
CONTINUOUS
 10
-25.98765401
 20
-10.5918423245
 11
-26.010038664
 21
-9.6818648796
  0
LINE
  5
35E
100
AcDbEntity
  8
RACCORDO
100
AcDbLine
 62
250
  6
CONTINUOUS
 10
-26.010038664
 20
-9.6818648796
 11
-26.0306443343
 21
-8.7086008321
  0
LINE
  5
35F
100
AcDbEntity
  8
RACCORDO
100
AcDbLine
 62
250
  6
CONTINUOUS
 10
-26.0306443343
 20
-8.7086008321
 11
-26.053352882
 21
-7.4486852546
  0
LINE
  5
360
100
AcDbEntity
  8
RACCORDO
100
AcDbLine
 62
250
  6
CONTINUOUS
 10
-26.053352882
 20
-7.4486852546
 11
-26.0792011283
 21
-5.7527048148
  0
LWPOLYLINE
  5
361
100
AcDbEntity
  8
RACCORDO
100
AcDbPolyline
 62
250
  6
CONTINUOUS
 90
9
 70
0
 10
-24.4214582682
 20
23.5275659797
 10
-24.4212394429
 20
23.5102986622
 10
-24.4193977886
 20
23.4940666081
 10
-24.4159541899
 20
23.4790538836
 10
-24.4109476973
 20
23.4654307286
 10
-24.4044350837
 20
23.4533516244
 10
-24.3964902001
 20
23.4429535427
 10
-24.3872031395
 20
23.4343543942
 10
-24.3803027857
 20
23.4296612945
  0
LINE
  5
362
100
AcDbEntity
  8
RACCORDO
100
AcDbLine
 62
250
  6
CONTINUOUS
 10
-26.0792011283
 20
-5.7527048148
 11
-26.1036818989
 21
-3.9160568485
  0
LINE
  5
363
100
AcDbEntity
  8
RACCORDO
100
AcDbLine
 62
250
  6
CONTINUOUS
 10
-26.1036818989
 20
-3.9160568485
 11
-26.1259768613
 21
-1.9826727694
  0
LINE
  5
364
100
AcDbEntity
  8
RACCORDO
100
AcDbLine
 62
250
  6
CONTINUOUS
 10
-26.1259768613
 20
-1.9826727694
 11
-26.1438052163
 21
-0.1471701672
  0
LINE
  5
365
100
AcDbEntity
  8
RACCORDO
100
AcDbLine
 62
250
  6
CONTINUOUS
 10
-26.1438052163
 20
-0.1471701672
 11
-26.1573682847
 21
1.6138946021
  0
LINE
  5
366
100
AcDbEntity
  8
RACCORDO
100
AcDbLine
 62
250
  6
CONTINUOUS
 10
-26.1573682847
 20
1.6138946021
 11
-26.1666090407
 21
3.3056574515
  0
LWPOLYLINE
  5
367
100
AcDbEntity
  8
RACCORDO
100
AcDbPolyline
 62
250
  6
CONTINUOUS
 90
10
 70
0
 10
-23.0573379244
 20
-16.7703550596
 10
-23.054122266
 20
-17.9131145776
 10
-23.0443515155
 20
-19.2137145459
 10
-23.0284782729
 20
-20.5108873161
 10
-23.0064599801
 20
-21.804724681
 10
-22.9783365489
 20
-23.0950589506
 10
-22.9442353049
 20
-24.3814659663
 10
-22.9042034057
 20
-25.6637824967
 10
-22.858202896
 20
-26.9421032243
 10
-22.8062381046
 20
-28.2163938072
  0
LINE
  5
368
100
AcDbEntity
  8
RACCORDO
100
AcDbLine
 62
250
  6
CONTINUOUS
 10
-26.1666090407
 20
3.3056574515
 11
-26.1724174992
 21
5.0207515435
  0
LINE
  5
369
100
AcDbEntity
  8
RACCORDO
100
AcDbLine
 62
7
  6
CONTINUOUS
 10
-25.9594932735
 20
22.1562873354
 11
-25.9594932735
 21
-13.7684048435
  0
LINE
  5
36A
100
AcDbEntity
  8
RACCORDO
100
AcDbLine
 62
250
  6
CONTINUOUS
 10
-25.6666000547
 20
21.7480127421
 11
-25.6666000547
 21
-14.1766794368
  0
LINE
  5
36B
100
AcDbEntity
  8
RACCORDO
100
AcDbLine
 62
250
  6
CONTINUOUS
 10
-26.1724174992
 20
5.0207515435
 11
-26.1743523442
 21
6.4195127793
  0
LINE
  5
36C
100
AcDbEntity
  8
RACCORDO
100
AcDbLine
 62
250
  6
CONTINUOUS
 10
-26.1743523442
 20
6.4195127793
 11
-26.1693079005
 21
8.3776250473
  0
LINE
  5
36D
100
AcDbEntity
  8
RACCORDO
100
AcDbLine
 62
250
  6
CONTINUOUS
 10
-26.1693079005
 20
8.3776250473
 11
-26.1616602706
 21
10.0622644499
  0
LINE
  5
36E
100
AcDbEntity
  8
RACCORDO
100
AcDbLine
 62
250
  6
CONTINUOUS
 10
-26.1616602706
 20
10.0622644499
 11
-26.1502948488
 21
11.7542925898
  0
LINE
  5
36F
100
AcDbEntity
  8
RACCORDO
100
AcDbLine
 62
250
  6
CONTINUOUS
 10
-26.1502948488
 20
11.7542925898
 11
-26.1314988796
 21
13.8611119387
  0
LINE
  5
370
100
AcDbEntity
  8
RACCORDO
100
AcDbLine
 62
250
  6
CONTINUOUS
 10
-26.1314988796
 20
13.8611119387
 11
-26.1083587847
 21
15.9719452094
  0
LINE
  5
371
100
AcDbEntity
  8
RACCORDO
100
AcDbLine
 62
250
  6
CONTINUOUS
 10
-26.1083587847
 20
15.9719452094
 11
-26.0793123097
 21
18.2145725388
  0
LINE
  5
372
100
AcDbEntity
  8
RACCORDO
100
AcDbLine
 62
250
  6
CONTINUOUS
 10
-26.0793123097
 20
18.2145725388
 11
-26.0508456197
 21
20.1000901476
  0
LINE
  5
373
100
AcDbEntity
  8
RACCORDO
100
AcDbLine
 62
250
  6
CONTINUOUS
 10
-26.0508456197
 20
20.1000901476
 11
-26.0283772833
 21
21.3501647808
  0
LWPOLYLINE
  5
374
100
AcDbEntity
  8
RACCORDO
100
AcDbPolyline
 62
250
  6
CONTINUOUS
 90
3
 70
0
 10
-26.0283772833
 20
21.3501647808
 10
-26.0064328345
 20
22.3909585175
 10
-26.0012385708
 20
22.6152032532
  0
LWPOLYLINE
  5
375
100
AcDbEntity
  8
RACCORDO
100
AcDbPolyline
 62
250
  6
CONTINUOUS
 90
25
 70
0
 10
-25.017969069
 20
22.1224517597
 10
-25.0164885443
 20
22.1761138104
 10
-25.01205317
 20
22.2312608211
 10
-25.0046815193
 20
22.2876618605
 10
-24.9944044617
 20
22.3450807462
 10
-24.9812650327
 20
22.4032770333
 10
-24.9653182545
 20
22.4620070216
 10
-24.9466309051
 20
22.5210247759
 10
-24.9252812389
 20
22.5800831562
 10
-24.9013586588
 20
22.638934852
 10
-24.8749633419
 20
22.6973334187
 10
-24.8462058201
 20
22.7550343089
 10
-24.8152065171
 20
22.811795897
 10
-24.7820952443
 20
22.8673804905
 10
-24.747010657
 20
22.9215553259
 10
-24.7100996739
 20
22.974093543
 10
-24.6715168618
 20
23.024775135
 10
-24.6314237883
 20
23.0733878699
 10
-24.5899883455
 20
23.1197281793
 10
-24.5473840467
 20
23.1636020103
 10
-24.5037892997
 20
23.204825639
 10
-24.4593866599
 20
23.2432264389
 10
-24.414362066
 20
23.2786436047
 10
-24.368904061
 20
23.3109288249
 10
-24.3232030028
 20
23.3399469033
  0
LWPOLYLINE
  5
376
100
AcDbEntity
  8
RACCORDO
100
AcDbPolyline
 62
250
  6
CONTINUOUS
 90
31
 70
0
 10
-26.0012385708
 20
22.6152032532
 10
-25.9981673903
 20
22.6946445114
 10
-25.9916586433
 20
22.773177079
 10
-25.9817101367
 20
22.8508017373
 10
-25.9686257727
 20
22.9275638968
 10
-25.9520947872
 20
23.0034205923
 10
-25.9311910442
 20
23.0782407348
 10
-25.9057022411
 20
23.1527359304
 10
-25.8758281074
 20
23.2261990534
 10
-25.841261906
 20
23.2963704349
 10
-25.8017811384
 20
23.3631078052
 10
-25.7575988767
 20
23.426556793
 10
-25.7090678234
 20
23.4848874092
 10
-25.6558933725
 20
23.537880351
 10
-25.598365994
 20
23.585756395
 10
-25.5377240725
 20
23.6273427964
 10
-25.4737900922
 20
23.6622485088
 10
-25.4067456907
 20
23.6908631097
 10
-25.3383765746
 20
23.7131817283
 10
-25.2689737762
 20
23.7289037012
 10
-25.1982578624
 20
23.7383255585
 10
-25.1271636468
 20
23.7423365071
 10
-25.0565574606
 20
23.7412212614
 10
-24.9855842172
 20
23.7346911
 10
-24.9125940341
 20
23.7227759918
 10
-24.8373164253
 20
23.7058819633
 10
-24.7600245234
 20
23.6836020448
 10
-24.6798792254
 20
23.6547483679
 10
-24.5965983737
 20
23.6189258517
 10
-24.510459033
 20
23.5765313917
 10
-24.4214579293
 20
23.5275661548
  0
LINE
  5
377
100
AcDbEntity
  8
DRAFT
100
AcDbLine
 62
7
  6
CONTINUOUS
 10
4.5306351388
 20
30.3994640218
 11
4.1512705049
 21
30.1727776474
  0
LINE
  5
378
100
AcDbEntity
  8
0
100
AcDbLine
 62
7
  6
CONTINUOUS
 10
-11.1422455037
 20
25.1910012863
 11
-11.1927960689
 21
25.1618140235
  0
LINE
  5
379
100
AcDbEntity
  8
0
100
AcDbLine
 62
7
  6
CONTINUOUS
 10
-10.6546029562
 20
24.9105406081
 11
-10.705152716
 21
24.8813538103
  0
LINE
  5
37A
100
AcDbEntity
  8
0
100
AcDbLine
 62
7
  6
CONTINUOUS
 10
-10.4735131544
 20
24.8065520956
 11
-10.5240626246
 21
24.7773654651
  0
LINE
  5
37B
100
AcDbEntity
  8
0
100
AcDbLine
 62
7
  6
CONTINUOUS
 10
-9.9856901491
 20
24.5258118334
 11
-10.0362386841
 21
24.4966257428
  0
LINE
  5
37C
100
AcDbEntity
  8
0
100
AcDbLine
 62
7
  6
CONTINUOUS
 10
-9.5121974595
 20
24.2530002277
 11
-9.5627449508
 21
24.2238147397
  0
LINE
  5
37D
100
AcDbEntity
  8
0
100
AcDbLine
 62
7
  6
CONTINUOUS
 10
-11.8301894563
 20
22.4037964029
 11
-11.880285889
 21
22.3748713505
  0
LINE
  5
37E
100
AcDbEntity
  8
0
100
AcDbLine
 62
7
  6
CONTINUOUS
 10
-9.0249971771
 20
23.9723650296
 11
-9.0755435115
 21
23.9431802096
  0
LINE
  5
37F
100
AcDbEntity
  8
0
100
AcDbLine
 62
7
  6
CONTINUOUS
 10
-8.0552688952
 20
23.413406445
 11
-8.1058126469
 21
23.3842231163
  0
LINE
  5
380
100
AcDbEntity
  8
0
100
AcDbLine
 62
7
  6
CONTINUOUS
 10
-10.4102563656
 20
21.5864831853
 11
-10.4603576511
 21
21.5575553309
  0
LINE
  5
381
100
AcDbEntity
  8
0
100
AcDbLine
 62
7
  6
CONTINUOUS
 10
-7.5736590098
 20
23.1350387978
 11
-7.6242037439
 21
23.1058549018
  0
LINE
  5
382
100
AcDbEntity
  8
0
100
AcDbLine
 62
7
  6
CONTINUOUS
 10
-9.6812301283
 20
21.1666163665
 11
-9.7313331927
 21
21.1376874851
  0
LINE
  5
383
100
AcDbEntity
  8
0
100
AcDbLine
 62
7
  6
CONTINUOUS
 10
-6.548230612
 20
22.5417491618
 11
-6.5987779407
 21
22.5125637677
  0
LWPOLYLINE
  5
384
100
AcDbEntity
  8
RACCORDO
100
AcDbPolyline
 62
250
  6
CONTINUOUS
 90
22
 70
0
 10
6.0947293032
 20
-33.2642233646
 10
6.1433958228
 20
-33.2901894968
 10
6.1913418474
 20
-33.3116571654
 10
6.2385673769
 20
-33.3286263701
 10
6.2853583513
 20
-33.3411570498
 10
6.3314288307
 20
-33.3491892657
 10
6.3759209952
 20
-33.352543202
 10
6.4187749947
 20
-33.3511246516
 10
6.4600506792
 20
-33.3450278217
 10
6.4990697787
 20
-33.3343555179
 10
6.5357987452
 20
-33.3190308565
 10
6.5702711266
 20
-33.2991307213
 10
6.6019092973
 20
-33.2749885682
 10
6.6306634146
 20
-33.2465370483
 10
6.6565833212
 20
-33.2138435105
 10
6.6792409194
 20
-33.1774434579
 10
6.6985846787
 20
-33.137237354
 10
6.7146661298
 20
-33.0933247353
 10
6.7272117669
 20
-33.046539714
 10
6.7361304215
 20
-32.9971603275
 10
6.7415132621
 20
-32.9449085385
 10
6.7433602888
 20
-32.8897843469
  0
LWPOLYLINE
  5
385
100
AcDbEntity
  8
RACCORDO
100
AcDbPolyline
 62
250
  6
CONTINUOUS
 90
25
 70
0
 10
6.7433602888
 20
-32.8897843469
 10
6.790574676
 20
-32.9153356695
 10
6.8405523997
 20
-32.9390703217
 10
6.8930841753
 20
-32.9608889132
 10
6.9479500232
 20
-32.9807000775
 10
7.0049201895
 20
-32.9984208543
 10
7.0637561084
 20
-33.0139770368
 10
7.1242114012
 20
-33.0273034825
 10
7.186032908
 20
-33.0383443863
 10
7.2489617477
 20
-33.0470535138
 10
7.3127344023
 20
-33.053394395
 10
7.3770838202
 20
-33.057340477
 10
7.4417405345
 20
-33.0588752355
 10
7.5064337918
 20
-33.0579922436
 10
7.5708926852
 20
-33.0546951988
 10
7.6348472896
 20
-33.0489979077
 10
7.6980297914
 20
-33.0409242281
 10
7.7601756105
 20
-33.0305079688
 10
7.8210245075
 20
-33.0177927487
 10
7.8803216745
 20
-33.0028318134
 10
7.9378188012
 20
-32.9856878126
 10
7.993275115
 20
-32.9664325378
 10
8.0464583896
 20
-32.9451466216
 10
8.0971459171
 20
-32.9219191999
 10
8.1451254405
 20
-32.8968475389
  0
LWPOLYLINE
  5
386
100
AcDbEntity
  8
RACCORDO
100
AcDbPolyline
 62
7
  6
CONTINUOUS
 90
19
 70
0
 10
6.3018119242
 20
-33.7219602257
 10
6.3874487479
 20
-33.7684254729
 10
6.4731493197
 20
-33.8091269892
 10
6.5587000575
 20
-33.8441851257
 10
6.6438349766
 20
-33.8737111633
 10
6.7284418155
 20
-33.8978780705
 10
6.8125041905
 20
-33.9168642579
 10
6.8956825905
 20
-33.9307700686
 10
6.9778774247
 20
-33.9397583752
 10
7.0593636649
 20
-33.943989025
 10
7.1399664909
 20
-33.9435407634
 10
7.2193986786
 20
-33.938509711
 10
7.2977153149
 20
-33.9289736219
 10
7.3745720176
 20
-33.9150475505
 10
7.4498385364
 20
-33.8968367899
 10
7.5238400802
 20
-33.8742911964
 10
7.5964982522
 20
-33.8474004795
 10
7.6673720015
 20
-33.8163012995
 10
7.7362137283
 20
-33.7811020919
  0
LINE
  5
387
100
AcDbEntity
  8
RACCORDO
100
AcDbLine
 62
7
  6
CONTINUOUS
 10
-24.810886448
 20
-15.7578781193
 11
6.3018119242
 21
-33.7219602257
  0
LINE
  5
388
100
AcDbEntity
  8
RACCORDO
100
AcDbLine
 62
250
  6
CONTINUOUS
 10
-25.017969069
 20
-15.3001412581
 11
6.0947293032
 21
-33.2642233646
  0
LWPOLYLINE
  5
389
100
AcDbEntity
  8
RACCORDO
100
AcDbPolyline
 62
250
  6
CONTINUOUS
 90
9
 70
0
 10
8.3580108514
 20
-33.0286003572
 10
8.3434053601
 20
-33.0197697048
 10
8.3304858907
 20
-33.0099801895
 10
8.3193964514
 20
-32.9993409498
 10
8.3102606488
 20
-32.9879705967
 10
8.303180307
 20
-32.9759958868
 10
8.2982343353
 20
-32.9635503089
 10
8.2954778533
 20
-32.950772604
 10
8.2950053551
 20
-32.9457567932
  0
LWPOLYLINE
  5
38A
100
AcDbEntity
  8
RACCORDO
100
AcDbPolyline
 62
250
  6
CONTINUOUS
 90
14
 70
0
 10
-25.6666000547
 20
-14.1766794368
 10
-25.7108533924
 20
-14.1494184414
 10
-25.7519603673
 20
-14.1205619301
 10
-25.7897488418
 20
-14.0902307412
 10
-25.8240605743
 20
-14.0585518883
 10
-25.8547518826
 20
-14.0256580283
 10
-25.8816942451
 20
-13.9916869061
 10
-25.9047748392
 20
-13.9567807777
 10
-25.9238970136
 20
-13.9210858145
 10
-25.938980693
 20
-13.8847514911
 10
-25.9499627138
 20
-13.8479299596
 10
-25.9567970881
 20
-13.8107754122
 10
-25.9594551965
 20
-13.7734434357
 10
-25.9594932735
 20
-13.7684048435
  0
LWPOLYLINE
  5
38B
100
AcDbEntity
  8
RACCORDO
100
AcDbPolyline
 62
250
  6
CONTINUOUS
 90
3
 70
0
 10
-24.8462058201
 20
-15.7343759129
 10
-24.8152065171
 20
-15.7553402829
 10
-24.810886448
 20
-15.7578781193
  0
LINE
  5
38C
100
AcDbEntity
  8
SUPERFICI
100
AcDbLine
 62
7
  6
CONTINUOUS
 10
-23.5024415808
 20
-22.7912814355
 11
-23.5025769737
 21
-22.7904720407
  0
LINE
  5
38D
100
AcDbEntity
  8
SUPERFICI
100
AcDbLine
 62
7
  6
CONTINUOUS
 10
-23.5027359851
 20
-22.7895138943
 11
-23.5020886196
 21
-22.7935383926
  0
LINE
  5
38E
100
AcDbEntity
  8
SUPERFICI
100
AcDbLine
 62
7
  6
CONTINUOUS
 10
-23.5020886196
 20
-22.7935383926
 11
-23.4999954547
 21
-22.8069483499
  0
LINE
  5
38F
100
AcDbEntity
  8
SUPERFICI
100
AcDbLine
 62
7
  6
CONTINUOUS
 10
-23.4999954547
 20
-22.8069483499
 11
-23.4965309612
 21
-22.8299285824
  0
LINE
  5
390
100
AcDbEntity
  8
SUPERFICI
100
AcDbLine
 62
7
  6
CONTINUOUS
 10
-23.4965309612
 20
-22.8299285824
 11
-23.4919177439
 21
-22.8616405289
  0
LINE
  5
391
100
AcDbEntity
  8
SUPERFICI
100
AcDbLine
 62
7
  6
CONTINUOUS
 10
-23.4919177439
 20
-22.8616405289
 11
-23.4865472112
 21
-22.8998792525
  0
LINE
  5
392
100
AcDbEntity
  8
SUPERFICI
100
AcDbLine
 62
7
  6
CONTINUOUS
 10
-23.4865472112
 20
-22.8998792525
 11
-23.4775895459
 21
-22.9664090049
  0
LINE
  5
393
100
AcDbEntity
  8
SUPERFICI
100
AcDbLine
 62
7
  6
CONTINUOUS
 10
-23.4775895459
 20
-22.9664090049
 11
-23.4681344605
 21
-23.0400192271
  0
LINE
  5
394
100
AcDbEntity
  8
SUPERFICI
100
AcDbLine
 62
7
  6
CONTINUOUS
 10
-23.4681344605
 20
-23.0400192271
 11
-23.4584000246
 21
-23.1192086234
  0
LWPOLYLINE
  5
395
100
AcDbEntity
  8
RACCORDO
100
AcDbPolyline
 62
250
  6
CONTINUOUS
 90
3
 70
0
 10
-24.9395169816
 20
-17.0393120894
 10
-25.0412750182
 20
-16.1979493701
 10
-25.1073504665
 20
-15.5471146058
  0
LINE
  5
396
100
AcDbEntity
  8
SUPERFICI
100
AcDbLine
 62
7
  6
CONTINUOUS
 10
-23.4584000246
 20
-23.1192086234
 11
-23.4485129108
 21
-23.203046608
  0
LINE
  5
397
100
AcDbEntity
  8
SUPERFICI
100
AcDbLine
 62
7
  6
CONTINUOUS
 10
-23.4485129108
 20
-23.203046608
 11
-23.4353619317
 21
-23.3197667067
  0
LWPOLYLINE
  5
398
100
AcDbEntity
  8
RACCORDO
100
AcDbPolyline
 62
7
  6
CONTINUOUS
 90
3
 70
0
 10
-21.2021823514
 20
45.5094103171
 10
-21.2026173605
 20
45.5543935755
 10
-21.2027291674
 20
45.5798469297
  0
LINE
  5
399
100
AcDbEntity
  8
RACCORDO
100
AcDbLine
 62
7
  6
CONTINUOUS
 10
-21.2020908939
 20
45.489945903
 11
-21.2021823514
 21
45.5094103171
  0
LINE
  5
39A
100
AcDbEntity
  8
RACCORDO
100
AcDbLine
 62
7
  6
CONTINUOUS
 10
-21.2027291674
 20
45.5798469297
 11
-21.2020135236
 21
45.6955172256
  0
LINE
  5
39B
100
AcDbEntity
  8
RACCORDO
100
AcDbLine
 62
7
  6
CONTINUOUS
 10
-21.2020135236
 20
45.6955172256
 11
-21.2005700495
 21
45.7873778218
  0
LINE
  5
39C
100
AcDbEntity
  8
RACCORDO
100
AcDbLine
 62
7
  6
CONTINUOUS
 10
-21.2005700495
 20
45.7873778218
 11
-21.1984918786
 21
45.8739332249
  0
LWPOLYLINE
  5
39D
100
AcDbEntity
  8
RACCORDO
100
AcDbPolyline
 62
7
  6
CONTINUOUS
 90
3
 70
0
 10
-21.1984918786
 20
45.8739332249
 10
-21.1976508234
 20
45.9005780431
 10
-21.1956953108
 20
45.9495884956
  0
LINE
  5
39E
100
AcDbEntity
  8
RACCORDO
100
AcDbLine
 62
7
  6
CONTINUOUS
 10
-21.1956953108
 20
45.9495884956
 11
-21.1949959406
 21
45.9717916105
  0
LINE
  5
39F
100
AcDbEntity
  8
0
100
AcDbLine
 62
7
  6
CONTINUOUS
 10
-11.9565540322
 20
23.3957161607
 11
-11.7923997583
 21
23.7838245974
  0
LINE
  5
3A0
100
AcDbEntity
  8
0
100
AcDbLine
 62
7
  6
CONTINUOUS
 10
-11.7923997583
 20
23.7838245974
 11
-11.6250617634
 21
24.1744334143
  0
LINE
  5
3A1
100
AcDbEntity
  8
0
100
AcDbLine
 62
7
  6
CONTINUOUS
 10
-11.6250617634
 20
24.1744334143
 11
-11.4545407417
 21
24.5675356783
  0
LWPOLYLINE
  5
3A2
100
AcDbEntity
  8
0
100
AcDbPolyline
 62
7
  6
CONTINUOUS
 90
3
 70
0
 10
-11.4545407417
 20
24.5675356783
 10
-11.2808394711
 20
24.9631036575
 10
-11.1927960689
 20
25.1618140235
  0
LINE
  5
3A3
100
AcDbEntity
  8
0
100
AcDbLine
 62
7
  6
CONTINUOUS
 10
-11.6308517527
 20
22.9229569335
 11
-11.880285889
 21
22.3748713505
  0
LINE
  5
3A4
100
AcDbEntity
  8
0
100
AcDbLine
 62
7
  6
CONTINUOUS
 10
-11.8301894563
 20
22.4037964029
 11
-11.5806719481
 21
22.9519199555
  0
LINE
  5
3A5
100
AcDbEntity
  8
0
100
AcDbLine
 62
7
  6
CONTINUOUS
 10
-11.37472549
 20
23.4761625417
 11
-11.6308517527
 21
22.9229569335
  0
LINE
  5
3A6
100
AcDbEntity
  8
0
100
AcDbLine
 62
7
  6
CONTINUOUS
 10
-11.5806719481
 20
22.9519199555
 11
-11.3244522207
 21
23.5051754902
  0
LINE
  5
3A7
100
AcDbEntity
  8
0
100
AcDbLine
 62
7
  6
CONTINUOUS
 10
-11.1119089018
 20
24.0344690042
 11
-11.37472549
 21
23.4761625417
  0
LINE
  5
3A8
100
AcDbEntity
  8
0
100
AcDbLine
 62
7
  6
CONTINUOUS
 10
-11.3244522207
 20
23.5051754902
 11
-11.0615321892
 21
24.0635435542
  0
LWPOLYLINE
  5
3A9
100
AcDbEntity
  8
0
100
AcDbPolyline
 62
7
  6
CONTINUOUS
 90
3
 70
0
 10
-11.0615321892
 20
24.0635435542
 10
-10.791919514
 20
24.6269463353
 10
-10.6546029562
 20
24.9105406081
  0
LWPOLYLINE
  5
3AA
100
AcDbEntity
  8
0
100
AcDbPolyline
 62
7
  6
CONTINUOUS
 90
3
 70
0
 10
-10.705152716
 20
24.8813538103
 10
-10.8424091919
 20
24.5977996372
 10
-11.1119089018
 20
24.0344690042
  0
LINE
  5
3AB
100
AcDbEntity
  8
0
100
AcDbLine
 62
7
  6
CONTINUOUS
 10
-8.8429891303
 20
22.0252578983
 11
-8.601434172
 21
22.4755529583
  0
LINE
  5
3AC
100
AcDbEntity
  8
0
100
AcDbLine
 62
7
  6
CONTINUOUS
 10
-8.601434172
 20
22.4755529583
 11
-8.3557057026
 21
22.9285509259
  0
LINE
  5
3AD
100
AcDbEntity
  8
0
100
AcDbLine
 62
7
  6
CONTINUOUS
 10
-8.3557057026
 20
22.9285509259
 11
-8.1058126469
 21
23.3842231163
  0
LWPOLYLINE
  5
3AE
100
AcDbEntity
  8
0
100
AcDbPolyline
 62
7
  6
CONTINUOUS
 90
17
 70
0
 10
-4.4234983039
 20
19.9551620368
 10
-4.4097101864
 20
19.9639356746
 10
-4.3954088584
 20
19.9748875125
 10
-4.3818751538
 20
19.9872268788
 10
-4.3691865714
 20
20.0008513837
 10
-4.357377494
 20
20.0156833847
 10
-4.3464748632
 20
20.0316523254
 10
-4.336537509
 20
20.0486664997
 10
-4.327537983
 20
20.0666250292
 10
-4.3194067188
 20
20.0854385537
 10
-4.3121016348
 20
20.1050256314
 10
-4.3055696827
 20
20.1252847692
 10
-4.2997510131
 20
20.1461335818
 10
-4.2946049189
 20
20.1675294158
 10
-4.2900875117
 20
20.1894021977
 10
-4.286144512
 20
20.2116489645
 10
-4.282725366
 20
20.2341813819
  0
LINE
  5
3AF
100
AcDbEntity
  8
DRAFT
100
AcDbLine
 62
7
  6
CONTINUOUS
 10
7.4075884456
 20
28.7383472392
 11
7.0282238117
 21
28.5116608648
  0
LINE
  5
3B0
100
AcDbEntity
  8
RACCORDO
100
AcDbLine
 62
7
  6
CONTINUOUS
 10
7.5842364327
 20
28.1906261459
 11
7.9636010666
 21
28.4173125203
  0
LWPOLYLINE
  5
3B1
100
AcDbEntity
  8
0
100
AcDbPolyline
 62
7
  6
CONTINUOUS
 90
46
 70
0
 10
-4.0435825509
 20
19.5392845539
 10
-4.0372537828
 20
19.5429927681
 10
-4.0249216638
 20
19.5505917234
 10
-4.0124679312
 20
19.5589894532
 10
-3.9998898131
 20
19.5681975986
 10
-3.9871892057
 20
19.5782050243
 10
-3.9744520344
 20
19.5892126125
 10
-3.9616804983
 20
19.601239775
 10
-3.9488711822
 20
19.6142678026
 10
-3.9361013924
 20
19.6284405094
 10
-3.9233628224
 20
19.6437474042
 10
-3.9106622268
 20
19.6601998748
 10
-3.898099291
 20
19.6779746773
 10
-3.8856538405
 20
19.697061897
 10
-3.8733440528
 20
19.7174726023
 10
-3.8613268766
 20
19.7394151767
 10
-3.8495852511
 20
19.7628811894
 10
-3.8381337197
 20
19.7878805254
 10
-3.8271763318
 20
19.8146492186
 10
-3.8166976952
 20
19.8432019045
 10
-3.8067100619
 20
19.8735257617
 10
-3.7974586688
 20
19.905815799
 10
-3.7889301788
 20
19.9400698553
 10
-3.7811342706
 20
19.9762922052
 10
-3.7743504874
 20
20.014687637
 10
-3.768492758
 20
20.0551860906
 10
-3.7636429881
 20
20.0978600326
 10
-3.7603323734
 20
20.1431282216
 10
-3.7584121515
 20
20.1911544173
 10
-3.7580258882
 20
20.2417778621
 10
-3.7601439995
 20
20.2949301191
 10
-3.7650064473
 20
20.3514329943
 10
-3.7723692658
 20
20.4104669947
 10
-3.7824823996
 20
20.469498603
 10
-3.7958127989
 20
20.5286306218
 10
-3.8118991007
 20
20.5877570208
 10
-3.8296063609
 20
20.6440266546
 10
-3.8488588528
 20
20.6965236846
 10
-3.8697433077
 20
20.746157592
 10
-3.8913705419
 20
20.7928140135
 10
-3.9135710186
 20
20.8364097369
 10
-3.9365209846
 20
20.877024098
 10
-3.9598486007
 20
20.9147873235
 10
-3.9834311899
 20
20.949742089
 10
-4.0073955694
 20
20.981843327
 10
-4.0317434096
 20
21.0110900727
  0
LINE
  5
3B2
100
AcDbEntity
  8
0
100
AcDbLine
 62
7
  6
CONTINUOUS
 10
-8.9356823344
 20
20.7370754852
 11
-8.9857866831
 21
20.7081458622
  0
LINE
  5
3B3
100
AcDbEntity
  8
0
100
AcDbLine
 62
7
  6
CONTINUOUS
 10
-6.0777434724
 20
22.2693447986
 11
-6.1282918268
 21
22.2401588123
  0
LINE
  5
3B4
100
AcDbEntity
  8
0
100
AcDbLine
 62
7
  6
CONTINUOUS
 10
-5.2259549873
 20
21.7378583846
 11
-5.2764989518
 21
21.708674933
  0
LINE
  5
3B5
100
AcDbEntity
  8
0
100
AcDbLine
 62
7
  6
CONTINUOUS
 10
-6.8519224753
 20
20.6449310217
 11
-6.9021682985
 21
20.6159197132
  0
LINE
  5
3B6
100
AcDbEntity
  8
0
100
AcDbLine
 62
7
  6
CONTINUOUS
 10
-7.7802299133
 20
20.0697933208
 11
-7.8303340909
 21
20.0408637966
  0
LINE
  5
3B7
100
AcDbEntity
  8
0
100
AcDbLine
 62
7
  6
CONTINUOUS
 10
-7.2226209307
 20
19.7471356186
 11
-7.2727241315
 21
19.7182066584
  0
LINE
  5
3B8
100
AcDbEntity
  8
0
100
AcDbLine
 62
250
  6
CONTINUOUS
 10
-4.0317439634
 20
21.0110907696
 11
-4.0822842162
 21
20.9819094611
  0
LINE
  5
3B9
100
AcDbEntity
  8
0
100
AcDbLine
 62
7
  6
CONTINUOUS
 10
-4.9558264486
 20
20.1852926858
 11
-5.0061595419
 21
20.1562309885
  0
LINE
  5
3BA
100
AcDbEntity
  8
0
100
AcDbLine
 62
250
  6
CONTINUOUS
 10
-4.6781045223
 20
20.0242377452
 11
-4.7284372733
 21
19.9951762456
  0
LINE
  5
3BB
100
AcDbEntity
  8
0
100
AcDbLine
 62
7
  6
CONTINUOUS
 10
-5.7874431463
 20
18.9162583973
 11
-5.8375424474
 21
18.8873316887
  0
LINE
  5
3BC
100
AcDbEntity
  8
0
100
AcDbLine
 62
7
  6
CONTINUOUS
 10
-4.2401898515
 20
19.4561103198
 11
-4.2622580616
 21
19.4433684119
  0
LINE
  5
3BD
100
AcDbEntity
  8
0
100
AcDbLine
 62
7
  6
CONTINUOUS
 10
-5.1603806183
 20
18.5530268961
 11
-5.2104776317
 21
18.5241015084
  0
LINE
  5
3BE
100
AcDbEntity
  8
0
100
AcDbLine
 62
250
  6
CONTINUOUS
 10
-4.011882924
 20
18.7352931897
 11
-4.0620867447
 21
18.7063061329
  0
LWPOLYLINE
  5
3BF
100
AcDbEntity
  8
0
100
AcDbPolyline
 62
7
  6
CONTINUOUS
 90
17
 70
0
 10
-4.0938842201
 20
19.5102103309
 10
-4.0969927992
 20
19.5084310868
 10
-4.1091132333
 20
19.5017763293
 10
-4.1210106633
 20
19.4956407835
 10
-4.1326709536
 20
19.4899598945
 10
-4.1440521568
 20
19.4846908234
 10
-4.1551451788
 20
19.4797831801
 10
-4.1659899027
 20
19.4751720639
 10
-4.1765339299
 20
19.4708368928
 10
-4.1867934762
 20
19.4667468023
 10
-4.1969467208
 20
19.462970074
 10
-4.20703535
 20
19.4597474585
 10
-4.2170901809
 20
19.4573085878
 10
-4.2273188824
 20
19.4558864518
 10
-4.237834677
 20
19.455781631
 10
-4.2486354579
 20
19.4572889913
 10
-4.2597783511
 20
19.4607195212
  0
LWPOLYLINE
  5
3C0
100
AcDbEntity
  8
0
100
AcDbPolyline
 62
7
  6
CONTINUOUS
 90
5
 70
0
 10
-4.3989516606
 20
19.972174464
 10
-4.4015618829
 20
19.9710777129
 10
-4.4201217086
 20
19.965506821
 10
-4.4391312859
 20
19.9617433677
 10
-4.4586014247
 20
19.9598900371
  0
LINE
  5
3C1
100
AcDbEntity
  8
RACCORDO
100
AcDbLine
 62
250
  6
CONTINUOUS
 10
-17.7700605034
 20
42.8298794328
 11
-17.7700605034
 21
43.2756061923
  0
LINE
  5
3C2
100
AcDbEntity
  8
RACCORDO
100
AcDbLine
 62
250
  6
CONTINUOUS
 10
-17.3495309579
 20
42.5870709437
 11
-17.3495309579
 21
43.0327977032
  0
LINE
  5
3C3
100
AcDbEntity
  8
0
100
AcDbLine
 62
7
  6
CONTINUOUS
 10
-10.9480725644
 20
21.8383580041
 11
-10.864150784
 21
22.4850295925
  0
LINE
  5
3C4
100
AcDbEntity
  8
0
100
AcDbLine
 62
7
  6
CONTINUOUS
 10
-10.864150784
 20
22.4850295925
 11
-10.7743476971
 21
23.1354206256
  0
LINE
  5
3C5
100
AcDbEntity
  8
0
100
AcDbLine
 62
7
  6
CONTINUOUS
 10
-10.7743476971
 20
23.1354206256
 11
-10.6786592919
 21
23.7895048397
  0
LINE
  5
3C6
100
AcDbEntity
  8
0
100
AcDbLine
 62
7
  6
CONTINUOUS
 10
-10.1907037892
 20
23.5094089673
 11
-10.2864028565
 21
22.8553834892
  0
LINE
  5
3C7
100
AcDbEntity
  8
0
100
AcDbLine
 62
7
  6
CONTINUOUS
 10
-10.1888438213
 20
23.2117454867
 11
-10.0901574953
 21
23.8672681353
  0
LWPOLYLINE
  5
3C8
100
AcDbEntity
  8
0
100
AcDbPolyline
 62
7
  6
CONTINUOUS
 90
3
 70
0
 10
-10.6786592919
 20
23.7895048397
 10
-10.57706952
 20
24.4471771809
 10
-10.5240626246
 20
24.7773654651
  0
LWPOLYLINE
  5
3C9
100
AcDbEntity
  8
0
100
AcDbPolyline
 62
7
  6
CONTINUOUS
 90
3
 70
0
 10
-10.0362386841
 20
24.4966257428
 10
-10.0891823423
 20
24.1667261093
 10
-10.1907037892
 20
23.5094089673
  0
LINE
  5
3CA
100
AcDbEntity
  8
0
100
AcDbLine
 62
7
  6
CONTINUOUS
 10
-10.0901574953
 20
23.8672681353
 11
-9.9856901491
 21
24.5258118334
  0
LINE
  5
3CB
100
AcDbEntity
  8
0
100
AcDbLine
 62
7
  6
CONTINUOUS
 10
-9.6536210201
 20
21.5465760761
 11
-9.7313331927
 21
21.1376874851
  0
LINE
  5
3CC
100
AcDbEntity
  8
0
100
AcDbLine
 62
7
  6
CONTINUOUS
 10
-9.6812301283
 20
21.1666163665
 11
-9.6034617368
 21
21.5755351952
  0
LINE
  5
3CD
100
AcDbEntity
  8
0
100
AcDbLine
 62
7
  6
CONTINUOUS
 10
-9.5734636292
 20
21.9568489993
 11
-9.6536210201
 21
21.5465760761
  0
LINE
  5
3CE
100
AcDbEntity
  8
0
100
AcDbLine
 62
7
  6
CONTINUOUS
 10
-9.6034617368
 20
21.5755351952
 11
-9.5232452293
 21
21.9858414831
  0
LINE
  5
3CF
100
AcDbEntity
  8
0
100
AcDbLine
 62
7
  6
CONTINUOUS
 10
-9.4908616114
 20
22.3684987447
 11
-9.5734636292
 21
21.9568489993
  0
LINE
  5
3D0
100
AcDbEntity
  8
0
100
AcDbLine
 62
7
  6
CONTINUOUS
 10
-9.5232452293
 20
21.9858414831
 11
-9.4405812168
 21
22.3975275841
  0
LWPOLYLINE
  5
3D1
100
AcDbEntity
  8
0
100
AcDbPolyline
 62
7
  6
CONTINUOUS
 90
3
 70
0
 10
-9.4405812168
 20
22.3975275841
 10
-9.3554721438
 20
22.8105629137
 10
-9.3456942731
 20
22.8571282467
  0
LWPOLYLINE
  5
3D2
100
AcDbEntity
  8
0
100
AcDbPolyline
 62
7
  6
CONTINUOUS
 90
3
 70
0
 10
-9.3623791953
 20
22.9885004563
 10
-9.4058173314
 20
22.781495272
 10
-9.4908616114
 20
22.3684987447
  0
LINE
  5
3D3
100
AcDbEntity
  8
0
100
AcDbLine
 62
7
  6
CONTINUOUS
 10
-10.1978301777
 20
21.4063752964
 11
-10.0668940674
 21
22.0263475984
  0
LINE
  5
3D4
100
AcDbEntity
  8
0
100
AcDbLine
 62
7
  6
CONTINUOUS
 10
-10.0668940674
 20
22.0263475984
 11
-9.9301301729
 21
22.6498579833
  0
LINE
  5
3D5
100
AcDbEntity
  8
0
100
AcDbLine
 62
7
  6
CONTINUOUS
 10
-9.9301301729
 20
22.6498579833
 11
-9.7875403067
 21
23.2768807894
  0
LWPOLYLINE
  5
3D6
100
AcDbEntity
  8
0
100
AcDbPolyline
 62
7
  6
CONTINUOUS
 90
3
 70
0
 10
-9.7875403067
 20
23.2768807894
 10
-9.6391317186
 20
23.9073133692
 10
-9.5627449508
 20
24.2238147397
  0
LINE
  5
3D7
100
AcDbEntity
  8
RACCORDO
100
AcDbLine
 62
250
  6
CONTINUOUS
 10
-6.5247206617
 20
30.5669684511
 11
-6.6364537109
 21
30.1071405572
  0
LWPOLYLINE
  5
3D8
100
AcDbEntity
  8
RACCORDO
100
AcDbPolyline
 62
250
  6
CONTINUOUS
 90
3
 70
0
 10
-6.3815750575
 20
31.1424469264
 10
-6.4105141505
 20
31.0272892229
 10
-6.5247206617
 20
30.5669684511
  0
LINE
  5
3D9
100
AcDbEntity
  8
0
100
AcDbLine
 62
7
  6
CONTINUOUS
 10
-7.1100655034
 20
20.1098188542
 11
-7.2727241315
 21
19.7182066584
  0
LINE
  5
3DA
100
AcDbEntity
  8
0
100
AcDbLine
 62
7
  6
CONTINUOUS
 10
-7.2226209307
 20
19.7471356186
 11
-7.059901683
 21
20.1387829378
  0
LINE
  5
3DB
100
AcDbEntity
  8
0
100
AcDbLine
 62
7
  6
CONTINUOUS
 10
-7.059901683
 20
20.1387829378
 11
-7.0325411637
 21
20.2041345605
  0
LINE
  5
3DC
100
AcDbEntity
  8
0
100
AcDbLine
 62
7
  6
CONTINUOUS
 10
-7.0631443161
 20
20.2218506458
 11
-7.1100655034
 21
20.1098188542
  0
LINE
  5
3DD
100
AcDbEntity
  8
0
100
AcDbLine
 62
7
  6
CONTINUOUS
 10
-6.7255985528
 20
21.038159783
 11
-6.9021682985
 21
20.6159197132
  0
LINE
  5
3DE
100
AcDbEntity
  8
0
100
AcDbLine
 62
7
  6
CONTINUOUS
 10
-6.8519224753
 20
20.6449310217
 11
-6.6752823719
 21
21.0672085491
  0
LINE
  5
3DF
100
AcDbEntity
  8
0
100
AcDbLine
 62
7
  6
CONTINUOUS
 10
-6.6752823719
 20
21.0672085491
 11
-6.4958047156
 21
21.4904929657
  0
LWPOLYLINE
  5
3E0
100
AcDbEntity
  8
0
100
AcDbPolyline
 62
7
  6
CONTINUOUS
 90
3
 70
0
 10
-6.5009060009
 20
21.5673611563
 10
-6.5461975037
 20
21.4613980354
 10
-6.7255985528
 20
21.038159783
  0
LINE
  5
3E1
100
AcDbEntity
  8
0
100
AcDbLine
 62
7
  6
CONTINUOUS
 10
-7.7539366163
 20
19.9966624967
 11
-7.5060376373
 21
20.5526943138
  0
LINE
  5
3E2
100
AcDbEntity
  8
0
100
AcDbLine
 62
7
  6
CONTINUOUS
 10
-7.5060376373
 20
20.5526943138
 11
-7.2530910241
 21
21.1105069156
  0
LINE
  5
3E3
100
AcDbEntity
  8
0
100
AcDbLine
 62
7
  6
CONTINUOUS
 10
-7.2530910241
 20
21.1105069156
 11
-6.9951085487
 21
21.6700774561
  0
LWPOLYLINE
  5
3E4
100
AcDbEntity
  8
0
100
AcDbPolyline
 62
7
  6
CONTINUOUS
 90
3
 70
0
 10
-6.9951085487
 20
21.6700774561
 10
-6.7321372989
 20
22.2313145509
 10
-6.5987779407
 20
22.5125637677
  0
LINE
  5
3E5
100
AcDbEntity
  8
0
100
AcDbLine
 62
7
  6
CONTINUOUS
 10
-8.7403381934
 20
21.1720787419
 11
-8.9857866831
 21
20.7081458622
  0
LINE
  5
3E6
100
AcDbEntity
  8
0
100
AcDbLine
 62
7
  6
CONTINUOUS
 10
-8.9356823344
 20
20.7370754852
 11
-8.6901702086
 21
21.2010294473
  0
LINE
  5
3E7
100
AcDbEntity
  8
0
100
AcDbLine
 62
7
  6
CONTINUOUS
 10
-8.4901144934
 20
21.6393628528
 11
-8.7403381934
 21
21.1720787419
  0
LINE
  5
3E8
100
AcDbEntity
  8
0
100
AcDbLine
 62
7
  6
CONTINUOUS
 10
-8.6901702086
 20
21.2010294473
 11
-8.4398850549
 21
21.6683254382
  0
LINE
  5
3E9
100
AcDbEntity
  8
0
100
AcDbLine
 62
7
  6
CONTINUOUS
 10
-8.2047577606
 20
22.1656901877
 11
-8.4901144934
 21
21.6393628528
  0
LINE
  5
3EA
100
AcDbEntity
  8
0
100
AcDbLine
 62
7
  6
CONTINUOUS
 10
-8.4398850549
 20
21.6683254382
 11
-8.1544078951
 21
22.1947549742
  0
LINE
  5
3EB
100
AcDbEntity
  8
0
100
AcDbLine
 62
7
  6
CONTINUOUS
 10
-8.1437216921
 20
22.2774615524
 11
-8.2047577606
 21
22.1656901877
  0
LINE
  5
3EC
100
AcDbEntity
  8
0
100
AcDbLine
 62
7
  6
CONTINUOUS
 10
-3.9484254689
 20
17.8505840891
 11
-3.9985172508
 21
17.821661722
  0
LWPOLYLINE
  5
3ED
100
AcDbEntity
  8
RACCORDO
100
AcDbPolyline
 62
250
  6
CONTINUOUS
 90
10
 70
0
 10
-40.8641939512
 20
18.1367850047
 10
-40.3949921602
 20
17.6226988068
 10
-39.9142055884
 20
17.1091772643
 10
-39.4215644419
 20
16.5963760877
 10
-38.9168696645
 20
16.0844248803
 10
-38.3999785651
 20
15.5733912768
 10
-37.8707839054
 20
15.0632930129
 10
-37.3291919043
 20
14.5541694952
 10
-36.7750984538
 20
14.0460955281
 10
-36.2083621172
 20
13.539152741
  0
LINE
  5
3EE
100
AcDbEntity
  8
0
100
AcDbLine
 62
7
  6
CONTINUOUS
 10
-12.3517879949
 20
22.9952384986
 11
-12.43020774
 21
23.7419001965
  0
LINE
  5
3EF
100
AcDbEntity
  8
0
100
AcDbLine
 62
7
  6
CONTINUOUS
 10
-12.43020774
 20
23.7419001965
 11
-12.502440034
 21
24.4894413882
  0
LINE
  5
3F0
100
AcDbEntity
  8
0
100
AcDbLine
 62
7
  6
CONTINUOUS
 10
-12.502440034
 20
24.4894413882
 11
-12.5684858361
 21
25.2377317913
  0
LINE
  5
3F1
100
AcDbEntity
  8
0
100
AcDbLine
 62
7
  6
CONTINUOUS
 10
-12.5684858361
 20
25.2377317913
 11
-12.6283453863
 21
25.9867388352
  0
LINE
  5
3F2
100
AcDbEntity
  8
0
100
AcDbLine
 62
7
  6
CONTINUOUS
 10
-11.9929897442
 20
23.9024671334
 11
-11.9565540322
 21
23.3957161607
  0
LINE
  5
3F3
100
AcDbEntity
  8
0
100
AcDbLine
 62
7
  6
CONTINUOUS
 10
-11.9119523819
 20
23.5015106722
 11
-11.9426970442
 21
23.9314832025
  0
LINE
  5
3F4
100
AcDbEntity
  8
0
100
AcDbLine
 62
7
  6
CONTINUOUS
 10
-12.0265560817
 20
24.4099909766
 11
-11.9929897442
 21
23.9024671334
  0
LINE
  5
3F5
100
AcDbEntity
  8
0
100
AcDbLine
 62
7
  6
CONTINUOUS
 10
-11.9426970442
 20
23.9314832025
 11
-11.97619219
 21
24.4390388917
  0
LINE
  5
3F6
100
AcDbEntity
  8
0
100
AcDbLine
 62
7
  6
CONTINUOUS
 10
-12.0572533773
 20
24.9182767538
 11
-12.0265560817
 21
24.4099909766
  0
LINE
  5
3F7
100
AcDbEntity
  8
0
100
AcDbLine
 62
7
  6
CONTINUOUS
 10
-11.97619219
 20
24.4390388917
 11
-12.0068161047
 21
24.9473706218
  0
LWPOLYLINE
  5
3F8
100
AcDbEntity
  8
0
100
AcDbPolyline
 62
7
  6
CONTINUOUS
 90
3
 70
0
 10
-12.0068161047
 20
24.9473706218
 10
-12.0345698488
 20
25.4564339884
 10
-12.0473703405
 20
25.7112428107
  0
LWPOLYLINE
  5
3F9
100
AcDbEntity
  8
0
100
AcDbPolyline
 62
7
  6
CONTINUOUS
 90
3
 70
0
 10
-12.0979222781
 20
25.6820547555
 10
-12.0850829611
 20
25.4272807186
 10
-12.0572533773
 20
24.9182767538
  0
LWPOLYLINE
  5
3FA
100
AcDbEntity
  8
RACCORDO
100
AcDbPolyline
 62
250
  6
CONTINUOUS
 90
10
 70
0
 10
-8.4618546764
 20
-36.5096825804
 10
-8.5139064644
 20
-35.2348330051
 10
-8.5599298287
 20
-33.9562016847
 10
-8.5999234607
 20
-32.6738249852
 10
-8.6338862232
 20
-31.3877393785
 10
-8.6618171505
 20
-30.0979814425
 10
-8.6837154477
 20
-28.8045878596
 10
-8.6995804919
 20
-27.5075954157
 10
-8.7094118323
 20
-26.2070409986
 10
-8.7127730865
 20
-25.0527270175
  0
LWPOLYLINE
  5
3FB
100
AcDbEntity
  8
RACCORDO
100
AcDbPolyline
 62
250
  6
CONTINUOUS
 90
9
 70
0
 10
-8.9374987036
 20
14.5027003696
 10
-8.9375342057
 20
14.4850990509
 10
-8.9359345488
 20
14.4685402647
 10
-8.932718232
 20
14.4532158451
 10
-8.9279224722
 20
14.439303317
 10
-8.9216028286
 20
14.4269638713
 10
-8.9138325589
 20
14.4163404971
 10
-8.9047016974
 20
14.4075562829
 10
-8.8963575234
 20
14.4018465919
  0
LINE
  5
3FC
100
AcDbEntity
  8
0
100
AcDbLine
 62
7
  6
CONTINUOUS
 10
-7.7945165008
 20
20.7165588149
 11
-7.8303340909
 21
20.0408637966
  0
LINE
  5
3FD
100
AcDbEntity
  8
0
100
AcDbLine
 62
7
  6
CONTINUOUS
 10
-7.7802299133
 20
20.0697933208
 11
-7.7443246847
 21
20.7455431703
  0
LINE
  5
3FE
100
AcDbEntity
  8
0
100
AcDbLine
 62
7
  6
CONTINUOUS
 10
-7.7529927181
 20
21.3953887847
 11
-7.7945165008
 21
20.7165588149
  0
LINE
  5
3FF
100
AcDbEntity
  8
0
100
AcDbLine
 62
7
  6
CONTINUOUS
 10
-7.7443246847
 20
20.7455431703
 11
-7.7027073508
 21
21.4244295107
  0
LINE
  5
400
100
AcDbEntity
  8
0
100
AcDbLine
 62
7
  6
CONTINUOUS
 10
-7.705761459
 20
22.0773258162
 11
-7.7529927181
 21
21.3953887847
  0
LINE
  5
401
100
AcDbEntity
  8
0
100
AcDbLine
 62
7
  6
CONTINUOUS
 10
-7.7027073508
 20
21.4244295107
 11
-7.6553766603
 21
22.1064240657
  0
LINE
  5
402
100
AcDbEntity
  8
0
100
AcDbLine
 62
7
  6
CONTINUOUS
 10
-8.3063232017
 20
20.3162138764
 11
-8.2743737343
 21
20.7498999296
  0
LWPOLYLINE
  5
403
100
AcDbEntity
  8
0
100
AcDbPolyline
 62
7
  6
CONTINUOUS
 90
3
 70
0
 10
-7.6553766603
 20
22.1064240657
 10
-7.6023276084
 20
22.7914137303
 10
-7.5736590098
 20
23.1350387978
  0
LINE
  5
404
100
AcDbEntity
  8
0
100
AcDbLine
 62
7
  6
CONTINUOUS
 10
-8.2743737343
 20
20.7498999296
 11
-8.2400330959
 21
21.1848243858
  0
LWPOLYLINE
  5
405
100
AcDbEntity
  8
0
100
AcDbPolyline
 62
7
  6
CONTINUOUS
 90
3
 70
0
 10
-7.6242037439
 20
23.1058549018
 10
-7.6528175879
 20
22.7622583495
 10
-7.705761459
 20
22.0773258162
  0
LINE
  5
406
100
AcDbEntity
  8
0
100
AcDbLine
 62
7
  6
CONTINUOUS
 10
-8.2400330959
 20
21.1848243858
 11
-8.2033014211
 21
21.6209793321
  0
LWPOLYLINE
  5
407
100
AcDbEntity
  8
0
100
AcDbPolyline
 62
7
  6
CONTINUOUS
 90
3
 70
0
 10
-8.2033014211
 20
21.6209793321
 10
-8.1641792486
 20
22.0583331171
 10
-8.1437216921
 20
22.2774615524
  0
LINE
  5
408
100
AcDbEntity
  8
0
100
AcDbLine
 62
7
  6
CONTINUOUS
 10
-10.3762868669
 20
22.2047566923
 11
-10.4603576511
 21
21.5575553309
  0
LINE
  5
409
100
AcDbEntity
  8
0
100
AcDbLine
 62
7
  6
CONTINUOUS
 10
-10.4102563656
 20
21.5864831853
 11
-10.3260305337
 21
22.2342233292
  0
LWPOLYLINE
  5
40A
100
AcDbEntity
  8
0
100
AcDbPolyline
 62
250
  6
CONTINUOUS
 90
7
 70
0
 10
-8.1848696831
 20
22.1388699933
 10
-8.3639444813
 20
20.8543303375
 10
-8.5218486057
 20
19.5743710235
 10
-8.6583562003
 20
18.2991225252
 10
-8.7733060766
 20
17.028677959
 10
-8.8664995032
 20
15.7631521292
 10
-8.9375831866
 20
14.5027491287
  0
LINE
  5
40B
100
AcDbEntity
  8
0
100
AcDbLine
 62
7
  6
CONTINUOUS
 10
-10.2864028565
 20
22.8553834892
 11
-10.3762868669
 21
22.2047566923
  0
LWPOLYLINE
  5
40C
100
AcDbEntity
  8
0
100
AcDbPolyline
 62
7
  6
CONTINUOUS
 90
3
 70
0
 10
-10.3260305337
 20
22.2342233292
 10
-10.2360191424
 20
22.8851158832
 10
-10.1888438213
 20
23.2117454867
  0
LINE
  5
40D
100
AcDbEntity
  8
0
100
AcDbLine
 62
250
  6
CONTINUOUS
 10
-8.1734881179
 20
22.522202251
 11
-8.2351799373
 21
22.1098648755
  0
LINE
  5
40E
100
AcDbEntity
  8
0
100
AcDbLine
 62
250
  6
CONTINUOUS
 10
-8.1096323036
 20
22.9350337504
 11
-8.1734881179
 21
22.522202251
  0
LINE
  5
40F
100
AcDbEntity
  8
0
100
AcDbLine
 62
250
  6
CONTINUOUS
 10
-8.0436176726
 20
23.3483565805
 11
-8.1096323036
 21
22.9350337504
  0
LWPOLYLINE
  5
410
100
AcDbEntity
  8
0
100
AcDbPolyline
 62
250
  6
CONTINUOUS
 90
7
 70
0
 10
-6.6364537109
 20
30.1071405572
 10
-6.9007668661
 20
28.9763620718
 10
-7.1497563017
 20
27.8492794388
 10
-7.3834766672
 20
26.7258610877
 10
-7.6019604705
 20
25.6060882392
 10
-7.8051816355
 20
24.4899759573
 10
-7.993093647
 20
23.3775511129
  0
LINE
  5
411
100
AcDbEntity
  8
RACCORDO
100
AcDbLine
 62
7
  6
CONTINUOUS
 10
18.3495077503
 20
22.880289448
 11
13.9777619427
 21
19.9854148688
  0
LINE
  5
412
100
AcDbEntity
  8
RACCORDO
100
AcDbLine
 62
250
  6
CONTINUOUS
 10
18.6508985598
 20
22.9652715124
 11
14.1396918314
 21
19.978049056
  0
LWPOLYLINE
  5
413
100
AcDbEntity
  8
RACCORDO
100
AcDbPolyline
 62
7
  6
CONTINUOUS
 90
16
 70
0
 10
13.3835575973
 20
20.4066076554
 10
13.3530728457
 20
20.3874572558
 10
13.3232721227
 20
20.3658188136
 10
13.2941554285
 20
20.3416923287
 10
13.2654959795
 20
20.3148418659
 10
13.2375205592
 20
20.2855033604
 10
13.2109095179
 20
20.2543846178
 10
13.1857462149
 20
20.2215155203
 10
13.1619472909
 20
20.1868661858
 10
13.1399430179
 20
20.1510547737
 10
13.119722702
 20
20.1139624931
 10
13.101297037
 20
20.075708135
 10
13.0851283767
 20
20.0372662317
 10
13.071370839
 20
19.9989616272
 10
13.0598703059
 20
19.9604694774
 10
13.0506267775
 20
19.9217897823
  0
LINE
  5
414
100
AcDbEntity
  8
RACCORDO
100
AcDbLine
 62
7
  6
CONTINUOUS
 10
13.383503175
 20
20.4065762081
 11
17.0393174524
 21
22.5190489281
  0
LINE
  5
415
100
AcDbEntity
  8
DRAFT
100
AcDbLine
 62
7
  6
CONTINUOUS
 10
13.5847112075
 20
18.9515710673
 11
12.7620093285
 21
18.4928517544
  0
LWPOLYLINE
  5
416
100
AcDbEntity
  8
RACCORDO
100
AcDbPolyline
 62
250
  6
CONTINUOUS
 90
9
 70
0
 10
13.9778826083
 20
19.9854946535
 10
13.992722023
 20
19.9936859529
 10
14.0105295379
 20
20.0000099614
 10
14.0297633238
 20
20.0034921836
 10
14.0502169103
 20
20.0040952386
 10
14.0716707327
 20
20.0018126526
 10
14.0938944889
 20
19.9966689288
 10
14.116649612
 20
19.9887192838
 10
14.1396918306
 20
19.9780490554
  0
LWPOLYLINE
  5
417
100
AcDbEntity
  8
RACCORDO
100
AcDbPolyline
 62
250
  6
CONTINUOUS
 90
10
 70
0
 10
28.7703747427
 20
-22.0693048459
 10
27.8797289412
 20
-21.7981278495
 10
26.9902177675
 20
-21.5203523586
 10
26.1020593385
 20
-21.2357927936
 10
25.2154145678
 20
-20.9442975255
 10
24.3303987898
 20
-20.6457831439
 10
23.4470986697
 20
-20.3402200687
 10
22.5655899897
 20
-20.0275585416
 10
21.6859568893
 20
-19.7077122554
 10
20.8083137109
 20
-19.3805839243
  0
LINE
  5
418
100
AcDbEntity
  8
RACCORDO
100
AcDbLine
 62
250
  6
CONTINUOUS
 10
19.6341915468
 20
-18.930699282
 11
19.1942837362
 21
-18.7578985124
  0
LINE
  5
419
100
AcDbEntity
  8
RACCORDO
100
AcDbLine
 62
250
  6
CONTINUOUS
 10
19.1942837362
 20
-18.7578985124
 11
18.9743993556
 21
-18.6706663188
  0
LWPOLYLINE
  5
41A
100
AcDbEntity
  8
RACCORDO
100
AcDbPolyline
 62
250
  6
CONTINUOUS
 90
10
 70
0
 10
18.9743993556
 20
-18.6706663188
 10
17.7382158177
 20
-18.1706472212
 10
16.5070703352
 20
-17.6551698374
 10
15.2813243933
 20
-17.1239266061
 10
14.0613518832
 20
-16.5765415612
 10
12.8475402666
 20
-16.012742889
 10
11.6402917968
 20
-15.4323618889
 10
10.4400160226
 20
-14.8351079549
 10
9.2472356808
 20
-14.2204784793
 10
8.0626391987
 20
-13.5878877293
  0
LWPOLYLINE
  5
41B
100
AcDbEntity
  8
RACCORDO
100
AcDbPolyline
 62
250
  6
CONTINUOUS
 90
12
 70
0
 10
20.8083134889
 20
-19.3805268295
 10
20.7845889129
 20
-19.370577943
 10
20.7626585787
 20
-19.3593406306
 10
20.7427319128
 20
-19.346922168
 10
20.7249992128
 20
-19.3334410967
 10
20.7096298141
 20
-19.319026146
 10
20.6967704801
 20
-19.3038150014
 10
20.6865440209
 20
-19.2879529169
 10
20.679048105
 20
-19.2715913408
 10
20.6743543228
 20
-19.2548865208
 10
20.6725075147
 20
-19.2379979921
 10
20.6724774696
 20
-19.2355977706
  0
LWPOLYLINE
  5
41C
100
AcDbEntity
  8
RACCORDO
100
AcDbPolyline
 62
250
  6
CONTINUOUS
 90
10
 70
0
 10
-34.9778480633
 20
12.4806851604
 10
-34.1118383779
 20
11.7669190393
 10
-33.21891785
 20
11.0559821308
 10
-32.2986393043
 20
10.3481325205
 10
-31.3505402155
 20
9.643695
 10
-30.3741412739
 20
8.9428883539
 10
-29.3689448749
 20
8.2458262305
 10
-28.3344443835
 20
7.5527431849
 10
-27.2699931431
 20
6.8640702796
 10
-26.1747395541
 20
6.1802990118
  0
LINE
  5
41D
100
AcDbEntity
  8
RACCORDO
100
AcDbLine
 62
250
  6
CONTINUOUS
 10
-35.2038781195
 20
12.6710512105
 11
-34.9778480633
 21
12.4806851604
  0
LINE
  5
41E
100
AcDbEntity
  8
RACCORDO
100
AcDbLine
 62
250
  6
CONTINUOUS
 10
-35.4278898494
 20
12.8615584611
 11
-35.2038781195
 21
12.6710512105
  0
LINE
  5
41F
100
AcDbEntity
  8
RACCORDO
100
AcDbLine
 62
250
  6
CONTINUOUS
 10
21.3539920683
 20
-50.7717412202
 11
21.3364796723
 21
-50.7482349647
  0
LWPOLYLINE
  5
420
100
AcDbEntity
  8
RACCORDO
100
AcDbPolyline
 62
250
  6
CONTINUOUS
 90
9
 70
0
 10
-18.7856488342
 20
43.8511775697
 10
-18.7840994988
 20
43.844162056
 10
-18.7770931896
 20
43.8209782736
 10
-18.7672797549
 20
43.7942111309
 10
-18.7545083863
 20
43.7640864793
 10
-18.7392818798
 20
43.7306123644
 10
-18.7217472049
 20
43.6939615628
 10
-18.7016583397
 20
43.6544336871
 10
-18.6789849333
 20
43.6122801358
  0
LINE
  5
421
100
AcDbEntity
  8
0
100
AcDbLine
 62
7
  6
CONTINUOUS
 10
-12.3102578881
 20
22.6222293172
 11
-12.3517879949
 21
22.9952384986
  0
LINE
  5
422
100
AcDbEntity
  8
0
100
AcDbLine
 62
7
  6
CONTINUOUS
 10
-6.0132807895
 20
20.7369462497
 11
-5.9472245936
 21
19.9931223717
  0
LINE
  5
423
100
AcDbEntity
  8
0
100
AcDbLine
 62
7
  6
CONTINUOUS
 10
-5.8969886099
 20
20.0221186382
 11
-5.9629465282
 21
20.7659991669
  0
LINE
  5
424
100
AcDbEntity
  8
0
100
AcDbLine
 62
7
  6
CONTINUOUS
 10
-6.0736403643
 20
21.4859675873
 11
-6.0132807895
 21
20.7369462497
  0
LINE
  5
425
100
AcDbEntity
  8
0
100
AcDbLine
 62
7
  6
CONTINUOUS
 10
-5.9629465282
 20
20.7659991669
 11
-6.0232019891
 21
21.515083874
  0
LINE
  5
426
100
AcDbEntity
  8
0
100
AcDbLine
 62
7
  6
CONTINUOUS
 10
-6.3500985847
 20
19.184138401
 11
-6.384429206
 21
19.6198724265
  0
LINE
  5
427
100
AcDbEntity
  8
0
100
AcDbLine
 62
7
  6
CONTINUOUS
 10
-6.384429206
 20
19.6198724265
 11
-6.4008240742
 21
19.8383657789
  0
LINE
  5
428
100
AcDbEntity
  8
0
100
AcDbLine
 62
7
  6
CONTINUOUS
 10
-6.1282918268
 20
22.2401588123
 11
-6.0736403643
 21
21.4859675873
  0
LINE
  5
429
100
AcDbEntity
  8
0
100
AcDbLine
 62
7
  6
CONTINUOUS
 10
-6.0232019891
 20
21.515083874
 11
-6.0777434724
 21
22.2693447986
  0
LINE
  5
42A
100
AcDbEntity
  8
0
100
AcDbLine
 62
7
  6
CONTINUOUS
 10
-6.4365566371
 20
20.3462969381
 11
-6.4597806969
 21
20.7518288226
  0
LINE
  5
42B
100
AcDbEntity
  8
0
100
AcDbLine
 62
7
  6
CONTINUOUS
 10
-6.4597806969
 20
20.7518288226
 11
-6.4812319531
 21
21.1588549692
  0
LINE
  5
42C
100
AcDbEntity
  8
0
100
AcDbLine
 62
7
  6
CONTINUOUS
 10
-6.4812319531
 20
21.1588549692
 11
-6.5009060009
 21
21.5673611563
  0
LWPOLYLINE
  5
42D
100
AcDbEntity
  8
0
100
AcDbPolyline
 62
7
  6
CONTINUOUS
 90
19
 70
0
 10
-4.2827253553
 20
20.2341813759
 10
-4.2796266123
 20
20.2628478985
 10
-4.2782927049
 20
20.2928727361
 10
-4.2787422415
 20
20.3240756363
 10
-4.2809455839
 20
20.356237208
 10
-4.2849571618
 20
20.389169566
 10
-4.2909405119
 20
20.4227203539
 10
-4.298957936
 20
20.4567810611
 10
-4.3090177619
 20
20.4909432061
 10
-4.3211804638
 20
20.5245833236
 10
-4.3354552047
 20
20.557412432
 10
-4.3516838356
 20
20.5892276723
 10
-4.3695786252
 20
20.6195738348
 10
-4.3888809726
 20
20.648225569
 10
-4.4094234904
 20
20.6751600211
 10
-4.4310199583
 20
20.7002566882
 10
-4.4534735533
 20
20.7233898588
 10
-4.4765755934
 20
20.7444309474
 10
-4.5001250498
 20
20.7632542443
  0
LINE
  5
42E
100
AcDbEntity
  8
0
100
AcDbLine
 62
7
  6
CONTINUOUS
 10
-5.1619552362
 20
18.9037225881
 11
-5.2104776317
 21
18.5241015084
  0
LINE
  5
42F
100
AcDbEntity
  8
0
100
AcDbLine
 62
7
  6
CONTINUOUS
 10
-5.1603806183
 20
18.5530268961
 11
-5.1118066411
 21
18.9326759436
  0
LINE
  5
430
100
AcDbEntity
  8
0
100
AcDbLine
 62
7
  6
CONTINUOUS
 10
-5.6947493407
 20
18.8046297875
 11
-5.6119280812
 21
19.4434794923
  0
LINE
  5
431
100
AcDbEntity
  8
0
100
AcDbLine
 62
7
  6
CONTINUOUS
 10
-5.1114308266
 20
19.2843315301
 11
-5.1619552362
 21
18.9037225881
  0
LINE
  5
432
100
AcDbEntity
  8
0
100
AcDbLine
 62
7
  6
CONTINUOUS
 10
-5.1118066411
 20
18.9326759436
 11
-5.0612281612
 21
19.3133162425
  0
LINE
  5
433
100
AcDbEntity
  8
0
100
AcDbLine
 62
7
  6
CONTINUOUS
 10
-5.0589048637
 20
19.6659113872
 11
-5.1114308266
 21
19.2843315301
  0
LINE
  5
434
100
AcDbEntity
  8
0
100
AcDbLine
 62
7
  6
CONTINUOUS
 10
-5.0612281612
 20
19.3133162425
 11
-5.0161477587
 21
19.6411217204
  0
LINE
  5
435
100
AcDbEntity
  8
0
100
AcDbLine
 62
7
  6
CONTINUOUS
 10
-5.6119280812
 20
19.4434794923
 11
-5.5233290821
 21
20.0860771295
  0
LINE
  5
436
100
AcDbEntity
  8
0
100
AcDbLine
 62
7
  6
CONTINUOUS
 10
-4.2597783511
 20
19.4607195212
 11
-4.2622580616
 21
19.4433684119
  0
LINE
  5
437
100
AcDbEntity
  8
0
100
AcDbLine
 62
7
  6
CONTINUOUS
 10
-5.5233290821
 20
20.0860771295
 11
-5.4289476103
 21
20.7323974523
  0
LINE
  5
438
100
AcDbEntity
  8
0
100
AcDbLine
 62
7
  6
CONTINUOUS
 10
-4.9528121795
 20
20.5154822118
 11
-5.0061595419
 21
20.1562309885
  0
LINE
  5
439
100
AcDbEntity
  8
0
100
AcDbLine
 62
7
  6
CONTINUOUS
 10
-4.9558264486
 20
20.1852926858
 11
-4.9023954537
 21
20.5447523149
  0
LINE
  5
43A
100
AcDbEntity
  8
0
100
AcDbLine
 62
7
  6
CONTINUOUS
 10
-4.9023954537
 20
20.5447523149
 11
-4.8471561461
 21
20.9053937297
  0
LWPOLYLINE
  5
43B
100
AcDbEntity
  8
0
100
AcDbPolyline
 62
7
  6
CONTINUOUS
 90
3
 70
0
 10
-4.8835282147
 20
20.9665999352
 10
-4.8976163587
 20
20.8761946166
 10
-4.9528121795
 20
20.5154822118
  0
LINE
  5
43C
100
AcDbEntity
  8
0
100
AcDbLine
 62
7
  6
CONTINUOUS
 10
-4.8471561461
 20
20.9053937297
 11
-4.8400676204
 21
20.9508369471
  0
LWPOLYLINE
  5
43D
100
AcDbEntity
  8
0
100
AcDbPolyline
 62
7
  6
CONTINUOUS
 90
3
 70
0
 10
-5.4289476103
 20
20.7323974523
 10
-5.3287647337
 20
21.3823394737
 10
-5.2764989518
 20
21.708674933
  0
LWPOLYLINE
  5
43E
100
AcDbEntity
  8
RACCORDO
100
AcDbPolyline
 62
7
  6
CONTINUOUS
 90
14
 70
0
 10
13.9778826083
 20
19.9854946535
 10
13.962132284
 20
19.9746277954
 10
13.9324259558
 20
19.9516081022
 10
13.9043910646
 20
19.9265796479
 10
13.8778749326
 20
19.8995454898
 10
13.8529144219
 20
19.8706440915
 10
13.8297567592
 20
19.840277082
 10
13.8083437745
 20
19.8084721698
 10
13.7886768628
 20
19.775272492
 10
13.7710602041
 20
19.7412156741
 10
13.7554832039
 20
19.706346349
 10
13.7419651465
 20
19.6706448503
 10
13.7307117669
 20
19.6345945402
 10
13.722005146
 20
19.5993930433
  0
LWPOLYLINE
  5
43F
100
AcDbEntity
  8
RACCORDO
100
AcDbPolyline
 62
250
  6
CONTINUOUS
 90
19
 70
0
 10
-34.3049747716
 20
-15.7313062267
 10
-34.325956589
 20
-15.745755726
 10
-34.3486062789
 20
-15.7589677717
 10
-34.3727222755
 20
-15.7708247852
 10
-34.3980899621
 20
-15.781221246
 10
-34.4244835858
 20
-15.7900646329
 10
-34.4516682677
 20
-15.7972762465
 10
-34.4794020837
 20
-15.8027919066
 10
-34.5074382217
 20
-15.8065625255
 10
-34.5355271841
 20
-15.8085545455
 10
-34.5634189979
 20
-15.8087502362
 10
-34.5908654431
 20
-15.807147853
 10
-34.6176222666
 20
-15.8037616525
 10
-34.6434513482
 20
-15.7986217663
 10
-34.6681228224
 20
-15.7917739326
 10
-34.6914171273
 20
-15.7832790889
 10
-34.7131269545
 20
-15.7732128304
 10
-34.7330590946
 20
-15.7616647375
 10
-34.7510361585
 20
-15.7487375787
  0
LINE
  5
440
100
AcDbEntity
  8
RACCORDO
100
AcDbLine
 62
250
  6
CONTINUOUS
 10
11.731103582
 20
12.769684941
 11
12.4982275534
 21
13.2283500704
  0
LINE
  5
441
100
AcDbEntity
  8
DRAFT
100
AcDbLine
 62
7
  6
CONTINUOUS
 10
12.5994783956
 20
13.8299947601
 11
11.761252445
 21
13.3626195882
  0
LWPOLYLINE
  5
442
100
AcDbEntity
  8
RACCORDO
100
AcDbPolyline
 62
250
  6
CONTINUOUS
 90
13
 70
0
 10
-26.1747395488
 20
6.1804165042
 10
-26.1594840126
 20
6.1720144163
 10
-26.1427764298
 20
6.1645855445
 10
-26.1248028612
 20
6.1582128428
 10
-26.1057634659
 20
6.1529677475
 10
-26.0858702726
 20
6.1489086682
 10
-26.0653448188
 20
6.1460803352
 10
-26.0444156826
 20
6.1445144786
 10
-26.0233159366
 20
6.1442287815
 10
-26.0022805534
 20
6.1452259672
 10
-25.9815437859
 20
6.1474951262
 10
-25.9613365684
 20
6.1510112337
 10
-25.9594932735
 20
6.1514588238
  0
LWPOLYLINE
  5
443
100
AcDbEntity
  8
RACCORDO
100
AcDbPolyline
 62
250
  6
CONTINUOUS
 90
9
 70
0
 10
8.0626393566
 20
-13.5880586837
 10
8.0480543679
 20
-13.5792636385
 10
8.0351582441
 20
-13.5696279198
 10
8.0240946005
 20
-13.5592589892
 10
8.0149866457
 20
-13.5482726333
 10
8.0079358086
 20
-13.5367912014
 10
8.0030206089
 20
-13.5249422412
 10
8.0002957835
 20
-13.5128578523
 10
7.9997082326
 20
-13.5041148215
  0
LINE
  5
444
100
AcDbEntity
  8
RACCORDO
100
AcDbLine
 62
250
  6
CONTINUOUS
 10
21.3364796723
 20
-50.7482349647
 11
21.3209286978
 21
-50.7231917357
  0
LWPOLYLINE
  5
445
100
AcDbEntity
  8
RACCORDO
100
AcDbPolyline
 62
250
  6
CONTINUOUS
 90
12
 70
0
 10
21.3209286978
 20
-50.7231917357
 10
21.3074903533
 20
-50.6968550199
 10
21.2962953064
 20
-50.6694808816
 10
21.2874524158
 20
-50.6413354755
 10
21.2810476723
 20
-50.6126924582
 10
21.2771433588
 20
-50.5838303232
 10
21.2757774467
 20
-50.555029699
 10
21.2769632265
 20
-50.5265706219
 10
21.2806891775
 20
-50.4987298023
 10
21.2869190798
 20
-50.4717779427
 10
21.2955923646
 20
-50.44597711
 10
21.3066247064
 20
-50.4215781716
  0
LWPOLYLINE
  5
446
100
AcDbEntity
  8
RACCORDO
100
AcDbPolyline
 62
250
  6
CONTINUOUS
 90
10
 70
0
 10
7.7967573836
 20
-34.0673940419
 10
7.787140472
 20
-34.0481352807
 10
7.7792594646
 20
-34.0279351023
 10
7.7732077212
 20
-34.0070328273
 10
7.7690569297
 20
-33.9856760918
 10
7.7668562548
 20
-33.9641179144
 10
7.7666317562
 20
-33.942613699
 10
7.7683860825
 20
-33.921418208
 10
7.7720984404
 20
-33.900782541
 10
7.7777248393
 20
-33.8809511618
  0
LWPOLYLINE
  5
447
100
AcDbEntity
  8
RACCORDO
100
AcDbPolyline
 62
250
  6
CONTINUOUS
 90
13
 70
0
 10
10.0993909952
 20
-44.9644601732
 10
9.7970912788
 20
-44.0182829553
 10
9.5163128624
 20
-43.0827456407
 10
9.2560805866
 20
-42.1586779217
 10
9.0157160302
 20
-41.2445084727
 10
8.7957220019
 20
-40.3419580351
 10
8.5974334217
 20
-39.4563364572
 10
8.4220105539
 20
-38.5946776612
 10
8.267561748
 20
-37.7505700081
 10
8.1310313359
 20
-36.9089956582
 10
8.0115335393
 20
-36.0648356939
 10
7.9096971169
 20
-35.2234277119
 10
7.824742128
 20
-34.3854353071
  0
LINE
  5
448
100
AcDbEntity
  8
0
100
AcDbLine
 62
7
  6
CONTINUOUS
 10
-9.0541593281
 20
20.7475453722
 11
-9.1271810828
 21
21.2450225295
  0
LINE
  5
449
100
AcDbEntity
  8
0
100
AcDbLine
 62
7
  6
CONTINUOUS
 10
-9.1271810828
 20
21.2450225295
 11
-9.1976152988
 21
21.7428055282
  0
LINE
  5
44A
100
AcDbEntity
  8
0
100
AcDbLine
 62
7
  6
CONTINUOUS
 10
-9.1976152988
 20
21.7428055282
 11
-9.2654618763
 21
22.2408857125
  0
LWPOLYLINE
  5
44B
100
AcDbEntity
  8
0
100
AcDbPolyline
 62
7
  6
CONTINUOUS
 90
3
 70
0
 10
-9.2654618763
 20
22.2408857125
 10
-9.3307204153
 20
22.7392284586
 10
-9.3623791953
 20
22.9885004563
  0
LINE
  5
44C
100
AcDbEntity
  8
0
100
AcDbLine
 62
7
  6
CONTINUOUS
 10
-8.8979424049
 20
22.4509571877
 11
-8.8429891303
 21
22.0252578983
  0
LINE
  5
44D
100
AcDbEntity
  8
0
100
AcDbLine
 62
7
  6
CONTINUOUS
 10
-8.7995101133
 20
22.1066157645
 11
-8.8476017719
 21
22.4800153148
  0
LINE
  5
44E
100
AcDbEntity
  8
0
100
AcDbLine
 62
7
  6
CONTINUOUS
 10
-8.9510247654
 20
22.8769534603
 11
-8.8979424049
 21
22.4509571877
  0
LINE
  5
44F
100
AcDbEntity
  8
0
100
AcDbLine
 62
7
  6
CONTINUOUS
 10
-8.8476017719
 20
22.4800153148
 11
-8.9006271418
 21
22.9060412647
  0
LINE
  5
450
100
AcDbEntity
  8
0
100
AcDbLine
 62
7
  6
CONTINUOUS
 10
-9.0022360479
 20
23.3032412765
 11
-8.9510247654
 21
22.8769534603
  0
LINE
  5
451
100
AcDbEntity
  8
0
100
AcDbLine
 62
7
  6
CONTINUOUS
 10
-8.9006271418
 20
22.9060412647
 11
-8.9517800547
 21
23.3323641361
  0
LWPOLYLINE
  5
452
100
AcDbEntity
  8
0
100
AcDbPolyline
 62
7
  6
CONTINUOUS
 90
3
 70
0
 10
-8.9517800547
 20
23.3323641361
 10
-9.0010597437
 20
23.758961782
 10
-9.0249971771
 20
23.9723650296
  0
LWPOLYLINE
  5
453
100
AcDbEntity
  8
0
100
AcDbPolyline
 62
7
  6
CONTINUOUS
 90
3
 70
0
 10
-9.0755435115
 20
23.9431802096
 10
-9.0515755964
 20
23.7297988788
 10
-9.0022360479
 20
23.3032412765
  0
LWPOLYLINE
  5
454
100
AcDbEntity
  8
0
100
AcDbPolyline
 62
7
  6
CONTINUOUS
 90
6
 70
0
 10
-4.5358167531
 20
18.8645342434
 10
-4.5404734067
 20
18.911301958
 10
-4.5454567019
 20
18.9581950087
 10
-4.5508273612
 20
19.0052569462
 10
-4.5566323349
 20
19.0524628733
 10
-4.5629258835
 20
19.0998221877
  0
LWPOLYLINE
  5
455
100
AcDbEntity
  8
0
100
AcDbPolyline
 62
7
  6
CONTINUOUS
 90
3
 70
0
 10
-5.7874431463
 20
18.9162583973
 10
-5.8618894696
 20
19.6521742124
 10
-5.8969886099
 20
20.0221186382
  0
LWPOLYLINE
  5
456
100
AcDbEntity
  8
0
100
AcDbPolyline
 62
7
  6
CONTINUOUS
 90
3
 70
0
 10
-5.9472245936
 20
19.9931223717
 10
-5.9120784574
 20
19.6232031358
 10
-5.8375424474
 20
18.8873316887
  0
LINE
  5
457
100
AcDbEntity
  8
0
100
AcDbLine
 62
7
  6
CONTINUOUS
 10
-4.4660281821
 20
18.092693697
 11
-4.4987225324
 21
18.4401153852
  0
LINE
  5
458
100
AcDbEntity
  8
0
100
AcDbLine
 62
7
  6
CONTINUOUS
 10
-4.5272160748
 20
18.7710357156
 11
-4.5358167531
 21
18.8645342434
  0
LINE
  5
459
100
AcDbEntity
  8
0
100
AcDbLine
 62
7
  6
CONTINUOUS
 10
-4.4987225324
 20
18.4401153852
 11
-4.5072501404
 21
18.5358030657
  0
LWPOLYLINE
  5
45A
100
AcDbEntity
  8
0
100
AcDbPolyline
 62
7
  6
CONTINUOUS
 90
21
 70
0
 10
-4.0210175837
 20
18.8594165787
 10
-4.0232179162
 20
18.8843851191
 10
-4.0256713738
 20
18.9095477613
 10
-4.0283667368
 20
18.9348966192
 10
-4.0314304741
 20
18.9605965743
 10
-4.0348620471
 20
18.9866838259
 10
-4.0386617701
 20
19.0131223045
 10
-4.0429573326
 20
19.0399685224
 10
-4.0477357388
 20
19.0672616969
 10
-4.0530097795
 20
19.0949627293
 10
-4.0589459612
 20
19.1230105795
 10
-4.0655132496
 20
19.1514071262
 10
-4.0727427381
 20
19.1801504566
 10
-4.0808944196
 20
19.2091736735
 10
-4.0899124054
 20
19.2385005389
 10
-4.0998529664
 20
19.2681070699
 10
-4.1111447993
 20
19.297854484
 10
-4.1237905092
 20
19.3279404356
 10
-4.1377883692
 20
19.3581667629
 10
-4.1535615467
 20
19.3878004004
 10
-4.1712520927
 20
19.4165964177
  0
LINE
  5
45B
100
AcDbEntity
  8
0
100
AcDbLine
 62
7
  6
CONTINUOUS
 10
-4.5072501404
 20
18.5358030657
 11
-4.5272160748
 21
18.7710357156
  0
LINE
  5
45C
100
AcDbEntity
  8
0
100
AcDbLine
 62
7
  6
CONTINUOUS
 10
-4.0059657724
 20
17.9157265529
 11
-3.9985172508
 21
17.821661722
  0
LINE
  5
45D
100
AcDbEntity
  8
0
100
AcDbLine
 62
7
  6
CONTINUOUS
 10
-4.0171826447
 20
18.8098495239
 11
-4.0210175837
 21
18.8594165787
  0
LINE
  5
45E
100
AcDbEntity
  8
0
100
AcDbLine
 62
7
  6
CONTINUOUS
 10
-3.9484254689
 20
17.8505840891
 11
-3.969924297
 21
18.1366587622
  0
LINE
  5
45F
100
AcDbEntity
  8
0
100
AcDbLine
 62
7
  6
CONTINUOUS
 10
-4.0268614799
 20
18.2040307282
 11
-4.0059657724
 21
17.9157265529
  0
LINE
  5
460
100
AcDbEntity
  8
0
100
AcDbLine
 62
7
  6
CONTINUOUS
 10
-4.0691740817
 20
18.8046033326
 11
-4.0547230128
 21
18.6035990524
  0
LINE
  5
461
100
AcDbEntity
  8
0
100
AcDbLine
 62
7
  6
CONTINUOUS
 10
-4.0547230128
 20
18.6035990524
 11
-4.0268614799
 21
18.2040307282
  0
LWPOLYLINE
  5
462
100
AcDbEntity
  8
0
100
AcDbPolyline
 62
7
  6
CONTINUOUS
 90
3
 70
0
 10
-3.969924297
 20
18.1366587622
 10
-4.0135678451
 20
18.7601475996
 10
-4.0171826447
 20
18.8098495239
  0
LINE
  5
463
100
AcDbEntity
  8
RACCORDO
100
AcDbLine
 62
250
  6
CONTINUOUS
 10
-33.2239399352
 20
-19.2457326499
 11
-33.2342635668
 21
-19.2531666268
  0
LINE
  5
464
100
AcDbEntity
  8
RACCORDO
100
AcDbLine
 62
250
  6
CONTINUOUS
 10
-33.1970378594
 20
-19.2266239662
 11
-33.2239399352
 21
-19.2457326499
  0
LINE
  5
465
100
AcDbEntity
  8
RACCORDO
100
AcDbLine
 62
250
  6
CONTINUOUS
 10
-33.1431469403
 20
-19.188845411
 11
-33.1970378594
 21
-19.2266239662
  0
LINE
  5
466
100
AcDbEntity
  8
RACCORDO
100
AcDbLine
 62
250
  6
CONTINUOUS
 10
-33.0536254601
 20
-19.1267784528
 11
-33.1431469403
 21
-19.188845411
  0
LINE
  5
467
100
AcDbEntity
  8
RACCORDO
100
AcDbLine
 62
250
  6
CONTINUOUS
 10
-32.933043819
 20
-19.0440488134
 11
-33.0536254601
 21
-19.1267784528
  0
LINE
  5
468
100
AcDbEntity
  8
RACCORDO
100
AcDbLine
 62
250
  6
CONTINUOUS
 10
-32.8672231648
 20
-18.9993258566
 11
-32.933043819
 21
-19.0440488134
  0
LWPOLYLINE
  5
469
100
AcDbEntity
  8
RACCORDO
100
AcDbPolyline
 62
250
  6
CONTINUOUS
 90
16
 70
0
 10
-32.7406899452
 20
-19.4463143101
 10
-32.7656099282
 20
-19.4619397995
 10
-32.7924313658
 20
-19.4754077378
 10
-32.8208570342
 20
-19.4865688212
 10
-32.8505719965
 20
-19.4952993302
 10
-32.8812468649
 20
-19.5015024192
 10
-32.9125414298
 20
-19.5051092552
 10
-32.9441087577
 20
-19.5060798651
 10
-32.9755990533
 20
-19.5044035137
 10
-33.0066632954
 20
-19.5000987853
 10
-33.0369570395
 20
-19.493213431
 10
-33.0661446903
 20
-19.4838237545
 10
-33.0939031581
 20
-19.472033644
 10
-33.119924837
 20
-19.4579735982
 10
-33.1439210805
 20
-19.4417994061
 10
-33.1656258146
 20
-19.4236902519
  0
LINE
  5
46A
100
AcDbEntity
  8
RACCORDO
100
AcDbLine
 62
250
  6
CONTINUOUS
 10
6.8358071892
 20
5.4035380631
 11
6.7894953694
 21
5.3758647969
  0
LINE
  5
46B
100
AcDbEntity
  8
RACCORDO
100
AcDbLine
 62
250
  6
CONTINUOUS
 10
14.7515396506
 20
9.512060412
 11
14.9440147245
 21
9.6250726649
  0
LINE
  5
46C
100
AcDbEntity
  8
0
100
AcDbLine
 62
250
  6
CONTINUOUS
 10
34.4566420496
 20
21.5392584224
 11
35.0153966537
 21
21.8618763279
  0
LINE
  5
46D
100
AcDbEntity
  8
RACCORDO
100
AcDbLine
 62
250
  6
CONTINUOUS
 10
25.6931927091
 20
14.3554638987
 11
36.2958827036
 21
20.4773039199
  0
LINE
  5
46E
100
AcDbEntity
  8
RACCORDO
100
AcDbLine
 62
250
  6
CONTINUOUS
 10
-34.3049747716
 20
-15.7313062267
 11
-34.1343453018
 21
-15.6361672278
  0
LWPOLYLINE
  5
46F
100
AcDbEntity
  8
RACCORDO
100
AcDbPolyline
 62
7
  6
CONTINUOUS
 90
11
 70
0
 10
21.2378541047
 20
-50.8175685541
 10
21.2476174864
 20
-50.8404900699
 10
21.2658045471
 20
-50.8752995499
 10
21.2867026666
 20
-50.9076004826
 10
21.3100288543
 20
-50.9374800759
 10
21.336100574
 20
-50.9655152891
 10
21.3646989052
 20
-50.9915099579
 10
21.3955621157
 20
-51.0153264832
 10
21.429273991
 20
-51.0373914721
 10
21.4657963891
 20
-51.05749764
 10
21.4806781521
 20
-51.0647165228
  0
LWPOLYLINE
  5
470
100
AcDbEntity
  8
RACCORDO
100
AcDbPolyline
 62
250
  6
CONTINUOUS
 90
3
 70
0
 10
-18.6789849333
 20
43.6122801358
 10
-18.6172737612
 20
43.435690711
 10
-18.5763975957
 20
43.2954483641
  0
LWPOLYLINE
  5
471
100
AcDbEntity
  8
0
100
AcDbPolyline
 62
7
  6
CONTINUOUS
 90
22
 70
0
 10
-4.5629258579
 20
19.099822184
 10
-4.5666188026
 20
19.1238144782
 10
-4.5711366241
 20
19.1478913211
 10
-4.5764441516
 20
19.1719463458
 10
-4.5824806328
 20
19.1958338594
 10
-4.5892361036
 20
19.2195001216
 10
-4.5967665859
 20
19.2429818055
 10
-4.6050571641
 20
19.2662008515
 10
-4.6140864326
 20
19.2890479497
 10
-4.6239234596
 20
19.3115075523
 10
-4.6345710041
 20
19.3335095326
 10
-4.6460078374
 20
19.354920659
 10
-4.6582765432
 20
19.3756216356
 10
-4.6713927122
 20
19.3955254489
 10
-4.6853211022
 20
19.4144987199
 10
-4.6999917802
 20
19.432386093
 10
-4.7153094207
 20
19.449128197
 10
-4.7311869458
 20
19.4647150516
 10
-4.7475215127
 20
19.4791115483
 10
-4.7642165642
 20
19.4922837422
 10
-4.781182109
 20
19.5041978772
 10
-4.798324464
 20
19.5148198532
  0
LINE
  5
472
100
AcDbEntity
  8
RACCORDO
100
AcDbLine
 62
250
  6
CONTINUOUS
 10
7.824742128
 20
-34.3854353071
 11
7.8104634273
 21
-34.2270445474
  0
LINE
  5
473
100
AcDbEntity
  8
RACCORDO
100
AcDbLine
 62
250
  6
CONTINUOUS
 10
7.8104634273
 20
-34.2270445474
 11
7.7967561257
 21
-34.067397684
  0
LWPOLYLINE
  5
474
100
AcDbEntity
  8
RACCORDO
100
AcDbPolyline
 62
250
  6
CONTINUOUS
 90
14
 70
0
 10
6.0947293032
 20
-33.2642233646
 10
6.0962098279
 20
-33.3161757424
 10
6.1006452023
 20
-33.366200894
 10
6.1080168529
 20
-33.4140893361
 10
6.1182939105
 20
-33.4596405331
 10
6.1314333395
 20
-33.502663737
 10
6.1473801177
 20
-33.5429787855
 10
6.1660674671
 20
-33.5804168572
 10
6.1874171333
 20
-33.6148211781
 10
6.2113397134
 20
-33.6460476781
 10
6.2377350303
 20
-33.6739655944
 10
6.2664925521
 20
-33.6984580193
 10
6.2974918551
 20
-33.7194223893
 10
6.3018119242
 20
-33.7219602257
  0
LINE
  5
475
100
AcDbEntity
  8
DRAFT
100
AcDbLine
 62
7
  6
CONTINUOUS
 10
17.0393174524
 20
22.5190489281
 11
16.4027379939
 21
21.5911810397
  0
LINE
  5
476
100
AcDbEntity
  8
RACCORDO
100
AcDbLine
 62
250
  6
CONTINUOUS
 10
17.6672410664
 20
8.180823363
 11
17.8758376125
 21
8.2972625956
  0
LINE
  5
477
100
AcDbEntity
  8
RACCORDO
100
AcDbLine
 62
250
  6
CONTINUOUS
 10
8.1714623265
 20
3.0425294713
 11
8.1451254405
 21
3.02784464
  0
LINE
  5
478
100
AcDbEntity
  8
RACCORDO
100
AcDbLine
 62
250
  6
CONTINUOUS
 10
18.2444068345
 20
7.9287090793
 11
18.4586595679
 21
8.0447499177
  0
LINE
  5
479
100
AcDbEntity
  8
RACCORDO
100
AcDbLine
 62
250
  6
CONTINUOUS
 10
19.6805218954
 20
7.5263270097
 11
19.4639743494
 21
7.4094264433
  0
LINE
  5
47A
100
AcDbEntity
  8
RACCORDO
100
AcDbLine
 62
250
  6
CONTINUOUS
 10
8.0971459171
 20
3.002772979
 11
8.1451254405
 21
3.02784464
  0
LINE
  5
47B
100
AcDbEntity
  8
RACCORDO
100
AcDbLine
 62
250
  6
CONTINUOUS
 10
-32.6800633806
 20
-18.9030965204
 11
-32.867223176
 21
-18.9993258603
  0
LINE
  5
47C
100
AcDbEntity
  8
RACCORDO
100
AcDbLine
 62
7
  6
CONTINUOUS
 10
-32.7961410576
 20
-19.5705328566
 11
-32.3667578772
 21
-19.3526271242
  0
LWPOLYLINE
  5
47D
100
AcDbEntity
  8
RACCORDO
100
AcDbPolyline
 62
250
  6
CONTINUOUS
 90
16
 70
0
 10
30.1398751912
 20
7.126297762
 10
30.1064234151
 20
7.1123029288
 10
30.0704552723
 20
7.1000851821
 10
30.0322591208
 20
7.0897424721
 10
29.9921411804
 20
7.0813577167
 10
29.950423078
 20
7.0749981368
 10
29.9074392692
 20
7.0707147174
 10
29.8635343566
 20
7.0685417989
 10
29.8190603276
 20
7.0684968018
 10
29.7743737321
 20
7.0705800867
 10
29.7298328241
 20
7.0747749521
 10
29.6857946898
 20
7.0810477675
 10
29.6426123846
 20
7.0893482435
 10
29.6006321026
 20
7.099609835
 10
29.5601904014
 20
7.1117502744
 10
29.5216115035
 20
7.1256722315
  0
LWPOLYLINE
  5
47E
100
AcDbEntity
  8
RACCORDO
100
AcDbPolyline
 62
250
  6
CONTINUOUS
 90
14
 70
0
 10
-25.6666000547
 20
21.7480127421
 10
-25.7108533924
 20
21.7752737375
 10
-25.7519603674
 20
21.8041302488
 10
-25.7897488418
 20
21.8344614377
 10
-25.8240605743
 20
21.8661402906
 10
-25.8547518826
 20
21.8990341506
 10
-25.8816942452
 20
21.9330052728
 10
-25.9047748392
 20
21.9679114012
 10
-25.9238970136
 20
22.0036063644
 10
-25.938980693
 20
22.0399406878
 10
-25.9499627138
 20
22.0767622193
 10
-25.9567970881
 20
22.1139167667
 10
-25.9594551965
 20
22.1512487432
 10
-25.9594932735
 20
22.1562873354
  0
LINE
  5
47F
100
AcDbEntity
  8
RACCORDO
100
AcDbLine
 62
7
  6
CONTINUOUS
 10
21.2378541047
 20
-50.8175685541
 11
21.23782192
 21
-50.8174859824
  0
LWPOLYLINE
  5
480
100
AcDbEntity
  8
RACCORDO
100
AcDbPolyline
 62
250
  6
CONTINUOUS
 90
11
 70
0
 10
21.3327776226
 20
-50.8903853242
 10
21.3397503692
 20
-50.9125245586
 10
21.3484601511
 20
-50.9338392351
 10
21.3589037119
 20
-50.9542353343
 10
21.3710724858
 20
-50.9736197058
 10
21.3849535471
 20
-50.9919056415
 10
21.4005306552
 20
-51.0090117713
 10
21.4177988222
 20
-51.0248622843
 10
21.4367123662
 20
-51.0393725434
 10
21.4571896359
 20
-51.052448569
 10
21.4807007973
 20
-51.0647272034
  0
LINE
  5
481
100
AcDbEntity
  8
RACCORDO
100
AcDbLine
 62
7
  6
CONTINUOUS
 10
8.2950053551
 20
-32.9457567932
 11
8.2950023768
 21
-32.9457074353
  0
LINE
  5
482
100
AcDbEntity
  8
RACCORDO
100
AcDbLine
 62
250
  6
CONTINUOUS
 10
8.339412758
 20
-32.7043668133
 11
8.3580108514
 21
-33.0286003572
  0
LWPOLYLINE
  5
483
100
AcDbEntity
  8
RACCORDO
100
AcDbPolyline
 62
250
  6
CONTINUOUS
 90
3
 70
0
 10
8.3084819587
 20
-32.0857359214
 10
8.3229694953
 20
-32.3900222002
 10
8.339412758
 20
-32.7043668133
  0
LWPOLYLINE
  5
484
100
AcDbEntity
  8
RACCORDO
100
AcDbPolyline
 62
7
  6
CONTINUOUS
 90
13
 70
0
 10
8.2950053551
 20
-32.9457567932
 10
8.2974267902
 20
-33.000518678
 10
8.2976703188
 20
-33.0835478546
 10
8.293577295
 20
-33.1636200782
 10
8.2851024598
 20
-33.240328161
 10
8.2722575989
 20
-33.3131850831
 10
8.2551499512
 20
-33.3815740776
 10
8.2339307766
 20
-33.4450757838
 10
8.2087549171
 20
-33.5034585356
 10
8.1798240943
 20
-33.5564471748
 10
8.1474704826
 20
-33.6037403347
 10
8.1117824086
 20
-33.6454942097
 10
8.0724070469
 20
-33.6821506918
  0
LINE
  5
485
100
AcDbEntity
  8
RACCORDO
100
AcDbLine
 62
250
  6
CONTINUOUS
 10
8.2847303278
 20
-31.5108405409
 11
8.3084819587
 21
-32.0857359214
  0
LWPOLYLINE
  5
486
100
AcDbEntity
  8
RACCORDO
100
AcDbPolyline
 62
250
  6
CONTINUOUS
 90
19
 70
0
 10
8.3580108514
 20
-33.0286003572
 10
8.361136427
 20
-33.1188964049
 10
8.3602521941
 20
-33.2053815709
 10
8.3553516514
 20
-33.2880613866
 10
8.3464020619
 20
-33.3668050611
 10
8.3334247253
 20
-33.4417531166
 10
8.3164965909
 20
-33.5133160156
 10
8.2957414766
 20
-33.5816768714
 10
8.2710312579
 20
-33.6466562349
 10
8.2420674875
 20
-33.7081185835
 10
8.2087195325
 20
-33.7663642532
 10
8.1711184612
 20
-33.8210925375
 10
8.129355216
 20
-33.8712690407
 10
8.083255716
 20
-33.9168282895
 10
8.0329888888
 20
-33.9578401419
 10
7.979151896
 20
-33.9934802551
 10
7.921937659
 20
-34.023479066
 10
7.8611405887
 20
-34.0481169159
 10
7.7967561257
 20
-34.067397684
  0
LINE
  5
487
100
AcDbEntity
  8
RACCORDO
100
AcDbLine
 62
250
  6
CONTINUOUS
 10
8.2658004627
 20
-30.9654607916
 11
8.2847303278
 21
-31.5108405409
  0
LWPOLYLINE
  5
488
100
AcDbEntity
  8
RACCORDO
100
AcDbPolyline
 62
250
  6
CONTINUOUS
 90
22
 70
0
 10
6.7433602888
 20
3.034907832
 10
6.7415127319
 20
3.0921680342
 10
6.736129548
 20
3.1506377339
 10
6.727210737
 20
3.2103169312
 10
6.7146652252
 20
3.2715883753
 10
6.6985840863
 20
3.3340693169
 10
6.6792405417
 20
3.3966115083
 10
6.6565829308
 20
3.4591756709
 10
6.6306629143
 20
3.5218010833
 10
6.6019086949
 20
3.5834573329
 10
6.5702704633
 20
3.6441344424
 10
6.5357980288
 20
3.703842389
 10
6.4990690231
 20
3.7615806925
 10
6.4600500421
 20
3.8173110881
 10
6.4187744898
 20
3.8710718405
 10
6.37592021
 20
3.9219772627
 10
6.3314267664
 20
3.9700027491
 10
6.2853545952
 20
4.0151729053
 10
6.2385628481
 20
4.0566758609
 10
6.191337909
 20
4.0942409923
 10
6.1433933941
 20
4.1281389231
 10
6.0947293032
 20
4.1583696533
  0
LINE
  5
489
100
AcDbEntity
  8
RACCORDO
100
AcDbLine
 62
250
  6
CONTINUOUS
 10
8.2432208279
 20
-30.1830977668
 11
8.2658004627
 21
-30.9654607916
  0
LWPOLYLINE
  5
48A
100
AcDbEntity
  8
RACCORDO
100
AcDbPolyline
 62
250
  6
CONTINUOUS
 90
28
 70
0
 10
8.1451254405
 20
3.02784464
 10
8.1428319296
 20
3.1201827603
 10
8.1359591572
 20
3.2148569287
 10
8.1245303782
 20
3.3115467982
 10
8.1085842641
 20
3.4099251996
 10
8.0881747708
 20
3.509659253
 10
8.0633709564
 20
3.6104114943
 10
8.0342567462
 20
3.7118410159
 10
8.0009306542
 20
3.8136046066
 10
7.9635054498
 20
3.915357917
 10
7.9221077726
 20
4.0167566371
 10
7.8768776971
 20
4.1174576748
 10
7.8279682618
 20
4.2171203024
 10
7.7755449559
 20
4.3154073005
 10
7.7197851664
 20
4.411986089
 10
7.6608775732
 20
4.5065298646
 10
7.5990215064
 20
4.5987187144
 10
7.5344262633
 20
4.6882407085
 10
7.4673104058
 20
4.7747929438
 10
7.3979010263
 20
4.858082561
 10
7.3264329892
 20
4.9378277265
 10
7.2531481287
 20
5.0137585979
 10
7.1782944214
 20
5.0856182463
 10
7.1021251454
 20
5.153163526
 10
7.024898032
 20
5.216165887
 10
6.9468743927
 20
5.2744121504
 10
6.8683182355
 20
5.3277052291
 10
6.7894953694
 20
5.3758647969
  0
LINE
  5
48B
100
AcDbEntity
  8
RACCORDO
100
AcDbLine
 62
250
  6
CONTINUOUS
 10
8.2130898786
 20
-28.8953177736
 11
8.2432208279
 21
-30.1830977668
  0
LINE
  5
48C
100
AcDbEntity
  8
RACCORDO
100
AcDbLine
 62
250
  6
CONTINUOUS
 10
8.1803424246
 20
-27.0978955579
 11
8.2130898786
 21
-28.8953177736
  0
LWPOLYLINE
  5
48D
100
AcDbEntity
  8
RACCORDO
100
AcDbPolyline
 62
250
  6
CONTINUOUS
 90
9
 70
0
 10
6.6995514704
 20
5.5586850427
 10
6.6997590619
 20
5.5414241693
 10
6.7015435809
 20
5.5252250909
 10
6.7048847868
 20
5.5102714985
 10
6.7097447859
 20
5.4967329596
 10
6.7160684627
 20
5.4847629929
 10
6.7237841051
 20
5.4744973284
 10
6.732804216
 20
5.4660523718
 10
6.7409403135
 20
5.4606448309
  0
LINE
  5
48E
100
AcDbEntity
  8
RACCORDO
100
AcDbLine
 62
250
  6
CONTINUOUS
 10
8.1241225934
 20
-22.8943855959
 11
8.1803424246
 21
-27.0978955579
  0
LINE
  5
48F
100
AcDbEntity
  8
RACCORDO
100
AcDbLine
 62
250
  6
CONTINUOUS
 10
8.0819303113
 20
-18.3843449034
 11
8.1241225934
 21
-22.8943855959
  0
LWPOLYLINE
  5
490
100
AcDbEntity
  8
RACCORDO
100
AcDbPolyline
 62
250
  6
CONTINUOUS
 90
10
 70
0
 10
5.6512703002
 20
-33.3463456452
 10
5.6547097923
 20
-34.4892344047
 10
5.6646003975
 20
-35.7899035721
 10
5.6804578847
 20
-37.0870672428
 10
5.7022447902
 20
-38.3807710062
 10
5.7300011488
 20
-39.6708933324
 10
5.7638395198
 20
-40.9571485689
 10
5.8037926134
 20
-42.2394195988
 10
5.8498182661
 20
-43.5177548453
 10
5.9019119621
 20
-44.7921198582
  0
LINE
  5
491
100
AcDbEntity
  8
RACCORDO
100
AcDbLine
 62
250
  6
CONTINUOUS
 10
8.0649220695
 20
-14.7191737805
 11
8.0819303113
 21
-18.3843449034
  0
LWPOLYLINE
  5
492
100
AcDbEntity
  8
RACCORDO
100
AcDbPolyline
 62
7
  6
CONTINUOUS
 90
13
 70
0
 10
7.9997082326
 20
-13.5041148215
 10
8.0038345643
 20
-15.2923606766
 10
8.0114663724
 20
-17.1060406142
 10
8.0230269251
 20
-18.8789818383
 10
8.0379754669
 20
-20.6114586693
 10
8.0554737193
 20
-22.3039575239
 10
8.0750613373
 20
-23.9567563353
 10
8.0966212916
 20
-25.5699142565
 10
8.1204215889
 20
-27.1433271486
 10
8.1484670452
 20
-28.6758601698
 10
8.183007457
 20
-30.1661418724
 10
8.2293781906
 20
-31.6112108087
 10
8.2950023768
 20
-32.9457074352
  0
LINE
  5
493
100
AcDbEntity
  8
RACCORDO
100
AcDbLine
 62
250
  6
CONTINUOUS
 10
6.7433602888
 20
-32.8897843469
 11
6.7433602888
 21
3.034907832
  0
LINE
  5
494
100
AcDbEntity
  8
RACCORDO
100
AcDbLine
 62
250
  6
CONTINUOUS
 10
8.1451254405
 20
-32.8968475389
 11
8.1451254405
 21
-28.4932594855
  0
LINE
  5
495
100
AcDbEntity
  8
RACCORDO
100
AcDbLine
 62
250
  6
CONTINUOUS
 10
8.1451254405
 20
1.6433822
 11
8.1451254405
 21
3.02784464
  0
LINE
  5
496
100
AcDbEntity
  8
RACCORDO
100
AcDbLine
 62
250
  6
CONTINUOUS
 10
8.0634159582
 20
-13.1345957318
 11
8.0649220695
 21
-14.7191737805
  0
LINE
  5
497
100
AcDbEntity
  8
RACCORDO
100
AcDbLine
 62
250
  6
CONTINUOUS
 10
8.0794838647
 20
-9.1354762261
 11
8.0634159582
 21
-13.1345957318
  0
LINE
  5
498
100
AcDbEntity
  8
RACCORDO
100
AcDbLine
 62
250
  6
CONTINUOUS
 10
8.1200840913
 20
-4.574141083
 11
8.0794838647
 21
-9.1354762261
  0
LINE
  5
499
100
AcDbEntity
  8
RACCORDO
100
AcDbLine
 62
250
  6
CONTINUOUS
 10
8.1782939425
 20
-0.0717865155
 11
8.1200840913
 21
-4.574141083
  0
LINE
  5
49A
100
AcDbEntity
  8
RACCORDO
100
AcDbLine
 62
250
  6
CONTINUOUS
 10
8.2113749394
 20
1.811202342
 11
8.1782939425
 21
-0.0717865155
  0
LWPOLYLINE
  5
49B
100
AcDbEntity
  8
RACCORDO
100
AcDbPolyline
 62
7
  6
CONTINUOUS
 90
10
 70
0
 10
8.1722453453
 20
2.9318348164
 10
8.1395338146
 20
1.3777269539
 10
8.1115013812
 20
-0.2965342307
 10
8.0871153338
 20
-2.025659043
 10
8.0648541249
 20
-3.8105877668
 10
8.0448223958
 20
-5.6512739903
 10
8.0274042167
 20
-7.5475090856
 10
8.0136331695
 20
-9.4987128967
 10
8.0045072084
 20
-11.5042733306
 10
7.9997076328
 20
-13.503907194
  0
LINE
  5
49C
100
AcDbEntity
  8
RACCORDO
100
AcDbLine
 62
250
  6
CONTINUOUS
 10
8.2341183309
 20
2.848137248
 11
8.2113749394
 21
1.811202342
  0
LWPOLYLINE
  5
49D
100
AcDbEntity
  8
RACCORDO
100
AcDbPolyline
 62
250
  6
CONTINUOUS
 90
25
 70
0
 10
6.0947293032
 20
4.1583696533
 10
6.0962098279
 20
4.212031704
 10
6.1006452023
 20
4.2671787147
 10
6.1080168529
 20
4.3235797541
 10
6.1182939106
 20
4.3809986398
 10
6.1314333395
 20
4.4391949269
 10
6.1473801177
 20
4.4979249152
 10
6.1660674671
 20
4.5569426695
 10
6.1874171333
 20
4.6160010498
 10
6.2113397134
 20
4.6748527456
 10
6.2377350303
 20
4.7332513123
 10
6.2664925521
 20
4.7909522025
 10
6.2974918551
 20
4.8477137906
 10
6.3306031279
 20
4.9032983841
 10
6.3656877152
 20
4.9574732195
 10
6.4025986983
 20
5.0100114366
 10
6.4411815105
 20
5.0606930286
 10
6.4812745839
 20
5.1093057635
 10
6.5227100267
 20
5.1556460729
 10
6.5653143255
 20
5.1995199039
 10
6.6089090726
 20
5.2407435325
 10
6.6533117123
 20
5.2791443325
 10
6.6983363062
 20
5.3145614982
 10
6.7437943112
 20
5.3468467184
 10
6.7894953694
 20
5.3758647969
  0
LINE
  5
49E
100
AcDbEntity
  8
RACCORDO
100
AcDbLine
 62
7
  6
CONTINUOUS
 10
11.4556306207
 20
10.9645640612
 11
11.5122740655
 21
11.3562506769
  0
LINE
  5
49F
100
AcDbEntity
  8
RACCORDO
100
AcDbLine
 62
7
  6
CONTINUOUS
 10
11.5122740655
 20
11.3562506769
 11
11.5714957027
 21
11.7532123673
  0
LINE
  5
4A0
100
AcDbEntity
  8
RACCORDO
100
AcDbLine
 62
7
  6
CONTINUOUS
 10
11.5714957027
 20
11.7532123673
 11
11.6652479204
 21
12.3588425105
  0
LINE
  5
4A1
100
AcDbEntity
  8
RACCORDO
100
AcDbLine
 62
7
  6
CONTINUOUS
 10
11.6652479204
 20
12.3588425105
 11
11.731103582
 21
12.769684941
  0
LWPOLYLINE
  5
4A2
100
AcDbEntity
  8
RACCORDO
100
AcDbPolyline
 62
7
  6
CONTINUOUS
 90
7
 70
0
 10
11.731103582
 20
12.769684941
 10
11.7351425862
 20
12.7936369087
 10
11.7394520422
 20
12.8174567201
 10
11.744032101
 20
12.8411404151
 10
11.7488828678
 20
12.8646840539
 10
11.7540044023
 20
12.8880837172
 10
11.7593967183
 20
12.9113355073
  0
LWPOLYLINE
  5
4A3
100
AcDbEntity
  8
DRAFT
100
AcDbPolyline
 62
7
  6
CONTINUOUS
 90
10
 70
0
 10
11.761252445
 20
13.3626195882
 10
11.8542489229
 20
13.8957163838
 10
11.9517947988
 20
14.4381792973
 10
12.0538900726
 20
14.9900083287
 10
12.1605343644
 20
15.5513819683
 10
12.2717280541
 20
16.1221217258
 10
12.3874722814
 20
16.7016921302
 10
12.5077674262
 20
17.2899146913
 10
12.6326131085
 20
17.8869678994
 10
12.7620093285
 20
18.4928517544
  0
LINE
  5
4A4
100
AcDbEntity
  8
RACCORDO
100
AcDbLine
 62
7
  6
CONTINUOUS
 10
12.7620093285
 20
18.4928517544
 11
12.8888015559
 21
19.1305516803
  0
LWPOLYLINE
  5
4A5
100
AcDbEntity
  8
RACCORDO
100
AcDbPolyline
 62
7
  6
CONTINUOUS
 90
3
 70
0
 10
12.8888015559
 20
19.1305516803
 10
13.0179631879
 20
19.7640488142
 10
13.0506267775
 20
19.9217897823
  0
LWPOLYLINE
  5
4A6
100
AcDbEntity
  8
RACCORDO
100
AcDbPolyline
 62
7
  6
CONTINUOUS
 90
10
 70
0
 10
13.7220294828
 20
19.5995067071
 10
13.5127039886
 20
18.6118053419
 10
13.3015827712
 20
17.5816551286
 10
13.1025184472
 20
16.5753214238
 10
12.9153802941
 20
15.592847105
 10
12.7401157912
 20
14.6343039033
 10
12.5767112337
 20
13.6997887337
 10
12.4251540095
 20
12.7894092135
 10
12.2853990582
 20
11.9032642855
 10
12.1700980751
 20
11.1297781858
  0
LWPOLYLINE
  5
4A7
100
AcDbEntity
  8
RACCORDO
100
AcDbPolyline
 62
250
  6
CONTINUOUS
 90
16
 70
0
 10
13.8129964359
 20
19.4843830949
 10
13.8223842754
 20
19.5229867403
 10
13.8340423276
 20
19.5617419348
 10
13.8478463732
 20
19.6003660726
 10
13.863610392
 20
19.6384776942
 10
13.8812240246
 20
19.675925575
 10
13.9007095058
 20
19.7127731626
 10
13.9219759427
 20
19.7488085595
 10
13.944859902
 20
19.7837173499
 10
13.969322499
 20
19.8173802071
 10
13.9952659103
 20
19.849584284
 10
14.0224778542
 20
19.8799895372
 10
14.0507374118
 20
19.9082825597
 10
14.0798305272
 20
19.9342022764
 10
14.109556598
 20
19.9575309924
 10
14.1396918312
 20
19.9780490559
  0
LWPOLYLINE
  5
4A8
100
AcDbEntity
  8
RACCORDO
100
AcDbPolyline
 62
250
  6
CONTINUOUS
 90
16
 70
0
 10
25.693192709
 20
14.3554638987
 10
25.6651117267
 20
14.3317963417
 10
25.6373256567
 20
14.3048488344
 10
25.6100737395
 20
14.2748533991
 10
25.5835906156
 20
14.2420682999
 10
25.5581043076
 20
14.2067758217
 10
25.5338342562
 20
14.1692798404
 10
25.5109894278
 20
14.1299032015
 10
25.4897665168
 20
14.0889849421
 10
25.4703482541
 20
14.0468773754
 10
25.4529018305
 20
14.0039430519
 10
25.4375774588
 20
13.960551639
 10
25.4245070809
 20
13.9170767416
 10
25.4138032312
 20
13.8738926812
 10
25.4055580674
 20
13.8313712735
 10
25.3998425781
 20
13.7898786286
  0
LINE
  5
4A9
100
AcDbEntity
  8
RACCORDO
100
AcDbLine
 62
250
  6
CONTINUOUS
 10
30.1398751912
 20
7.126297762
 11
40.5378772159
 21
13.1299539066
  0
LINE
  5
4AA
100
AcDbEntity
  8
RACCORDO
100
AcDbLine
 62
250
  6
CONTINUOUS
 10
12.4535800302
 20
10.6097729302
 11
11.6476555689
 21
10.5693673472
  0
LINE
  5
4AB
100
AcDbEntity
  8
RACCORDO
100
AcDbLine
 62
7
  6
CONTINUOUS
 10
21.0718640534
 20
6.4698962518
 11
21.4654561272
 21
6.4817290775
  0
LWPOLYLINE
  5
4AC
100
AcDbEntity
  8
RACCORDO
100
AcDbPolyline
 62
7
  6
CONTINUOUS
 90
20
 70
0
 10
21.089618714
 20
6.9449051816
 10
21.0520626766
 20
6.9490584166
 10
20.9835798866
 20
6.9578441025
 10
20.9124600389
 20
6.9681807499
 10
20.838941459
 20
6.9800795143
 10
20.763627808
 20
6.9934795746
 10
20.6868362597
 20
7.0083551034
 10
20.6088712627
 20
7.0246705065
 10
20.5303491966
 20
7.0423120875
 10
20.4516188913
 20
7.0612136278
 10
20.3730324666
 20
7.0812926497
 10
20.2952264169
 20
7.1023799372
 10
20.2185654758
 20
7.1243678591
 10
20.1433776488
 20
7.1471404847
 10
20.0702284055
 20
7.1704957151
 10
19.999403375
 20
7.1943095398
 10
19.9311734168
 20
7.2184450612
 10
19.8660429062
 20
7.2426689099
 10
19.8043193244
 20
7.2668045132
 10
19.759316328
 20
7.2851961779
  0
LWPOLYLINE
  5
4AD
100
AcDbEntity
  8
RACCORDO
100
AcDbPolyline
 62
250
  6
CONTINUOUS
 90
22
 70
0
 10
-25.017969069
 20
22.1224517597
 10
-25.0666355886
 20
22.148417892
 10
-25.1145816132
 20
22.1698855605
 10
-25.1618071427
 20
22.1868547653
 10
-25.2085981172
 20
22.1993854449
 10
-25.2546685966
 20
22.2074176608
 10
-25.299160761
 20
22.2107715972
 10
-25.3420147605
 20
22.2093530468
 10
-25.383290445
 20
22.2032562169
 10
-25.4223095445
 20
22.192583913
 10
-25.459038511
 20
22.1772592517
 10
-25.4935108924
 20
22.1573591165
 10
-25.5251490632
 20
22.1332169634
 10
-25.5539031804
 20
22.1047654434
 10
-25.579823087
 20
22.0720719056
 10
-25.6024806852
 20
22.035671853
 10
-25.6218244446
 20
21.9954657491
 10
-25.6379058956
 20
21.9515531304
 10
-25.6504515327
 20
21.9047681091
 10
-25.6593701873
 20
21.8553887227
 10
-25.664753028
 20
21.8031369337
 10
-25.6666000547
 20
21.7480127421
  0
LWPOLYLINE
  5
4AE
100
AcDbEntity
  8
RACCORDO
100
AcDbPolyline
 62
250
  6
CONTINUOUS
 90
24
 70
0
 10
6.7433602888
 20
3.034907832
 10
6.790574676
 20
3.0093565094
 10
6.8405523996
 20
2.9856218572
 10
6.8930841753
 20
2.9638032657
 10
6.9479500232
 20
2.9439921014
 10
7.0049201895
 20
2.9262713246
 10
7.0637561084
 20
2.9107151421
 10
7.1242114012
 20
2.8973886964
 10
7.186032908
 20
2.8863477926
 10
7.2489617477
 20
2.8776386651
 10
7.3127344023
 20
2.8712977839
 10
7.3770838201
 20
2.8673517019
 10
7.4417405345
 20
2.8658169434
 10
7.5064337917
 20
2.8666999353
 10
7.5708926852
 20
2.8699969801
 10
7.6348472896
 20
2.8756942712
 10
7.6980297914
 20
2.8837679508
 10
7.7601756104
 20
2.89418421
 10
7.8210245075
 20
2.9068994302
 10
7.8803216745
 20
2.9218603655
 10
7.9378188011
 20
2.9390043663
 10
7.993275115
 20
2.9582596411
 10
8.0464583896
 20
2.9795455573
 10
8.0971459171
 20
3.002772979
  0
LINE
  5
4AF
100
AcDbEntity
  8
RACCORDO
100
AcDbLine
 62
250
  6
CONTINUOUS
 10
-24.3232030028
 20
23.3399469033
 11
-24.4024828693
 21
23.3830277057
  0
LWPOLYLINE
  5
4B0
100
AcDbEntity
  8
RACCORDO
100
AcDbPolyline
 62
250
  6
CONTINUOUS
 90
7
 70
0
 10
-26.0012385708
 20
22.6152032532
 10
-25.9859515052
 20
22.6068684179
 10
-25.96923771
 20
22.599455281
 10
-25.951281613
 20
22.5930456382
 10
-25.9322813501
 20
22.5877102125
 10
-25.9124465761
 20
22.5835078729
 10
-25.9064367846
 20
22.5826195333
  0
LINE
  5
4B1
100
AcDbEntity
  8
RACCORDO
100
AcDbLine
 62
250
  6
CONTINUOUS
 10
4.5630373413
 20
6.7660063482
 11
6.6995514409
 21
5.5586850266
  0
LWPOLYLINE
  5
4B2
100
AcDbEntity
  8
RACCORDO
100
AcDbPolyline
 62
7
  6
CONTINUOUS
 90
4
 70
0
 10
2.0170500174
 20
8.1411850455
 10
3.6603435335
 20
7.204612042
 10
5.2518498295
 20
6.3007446917
 10
6.740940272
 20
5.460644757
  0
LWPOLYLINE
  5
4B3
100
AcDbEntity
  8
RACCORDO
100
AcDbPolyline
 62
7
  6
CONTINUOUS
 90
31
 70
0
 10
6.740965317
 20
5.4606308081
 10
6.7628145709
 20
5.4481700784
 10
6.840675406
 20
5.4005613466
 10
6.9187768698
 20
5.3477572755
 10
6.9968234304
 20
5.2898584767
 10
7.0744946864
 20
5.2270213252
 10
7.1514437154
 20
5.1594563183
 10
7.2273925245
 20
5.0873460217
 10
7.3020605103
 20
5.0109090505
 10
7.3751179795
 20
4.9304346188
 10
7.4462946538
 20
4.8461855305
 10
7.5153458602
 20
4.7584294747
 10
7.5820018083
 20
4.66748073
 10
7.6460262856
 20
4.5736426711
 10
7.7072033886
 20
4.4772279061
 10
7.7653107031
 20
4.3785745595
 10
7.8201492653
 20
4.2780137324
 10
7.8715393723
 20
4.1758888719
 10
7.9193011643
 20
4.0725639798
 10
7.9632812755
 20
3.9683814933
 10
8.0033415162
 20
3.8637050307
 10
8.0393411772
 20
3.7589387238
 10
8.0711823753
 20
3.6544237744
 10
8.0987790268
 20
3.5505344064
 10
8.1220392403
 20
3.4477314333
 10
8.140926863
 20
3.3463648801
 10
8.155428506
 20
3.2467542064
 10
8.1655325375
 20
3.1493136452
 10
8.1712756314
 20
3.0544195891
 10
8.1727206563
 20
2.962389767
 10
8.1722460581
 20
2.9318645362
  0
LINE
  5
4B4
100
AcDbEntity
  8
RACCORDO
100
AcDbLine
 62
7
  6
CONTINUOUS
 10
-1.4271673916
 20
10.111245821
 11
2.0170500174
 21
8.1411850455
  0
LINE
  5
4B5
100
AcDbEntity
  8
RACCORDO
100
AcDbLine
 62
7
  6
CONTINUOUS
 10
-5.0845949416
 20
12.2087165249
 11
-1.4271673916
 21
10.111245821
  0
LINE
  5
4B6
100
AcDbEntity
  8
RACCORDO
100
AcDbLine
 62
7
  6
CONTINUOUS
 10
-8.8962670318
 20
14.4017943429
 11
-5.0845949416
 21
12.2087165249
  0
LINE
  5
4B7
100
AcDbEntity
  8
RACCORDO
100
AcDbLine
 62
250
  6
CONTINUOUS
 10
6.0947293032
 20
4.1583696533
 11
-25.017969069
 21
22.1224517597
  0
LINE
  5
4B8
100
AcDbEntity
  8
RACCORDO
100
AcDbLine
 62
250
  6
CONTINUOUS
 10
6.7894953694
 20
5.3758647969
 11
0.3691531687
 21
9.0828899178
  0
LINE
  5
4B9
100
AcDbEntity
  8
RACCORDO
100
AcDbLine
 62
250
  6
CONTINUOUS
 10
-18.1078002794
 20
19.7512512681
 11
-24.3232030028
 21
23.3399469033
  0
LINE
  5
4BA
100
AcDbEntity
  8
RACCORDO
100
AcDbLine
 62
250
  6
CONTINUOUS
 10
-9.6442160741
 20
14.9116452664
 11
4.5630373413
 21
6.7660063482
  0
LWPOLYLINE
  5
4BB
100
AcDbEntity
  8
RACCORDO
100
AcDbPolyline
 62
250
  6
CONTINUOUS
 90
3
 70
0
 10
6.6995514409
 20
5.5586850266
 10
6.7678652146
 20
5.5190919867
 10
6.8374198164
 20
5.4746241441
  0
LINE
  5
4BC
100
AcDbEntity
  8
RACCORDO
100
AcDbLine
 62
7
  6
CONTINUOUS
 10
-12.6992040962
 20
16.6053100115
 11
-8.8963576256
 21
14.4018465246
  0
LINE
  5
4BD
100
AcDbEntity
  8
RACCORDO
100
AcDbLine
 62
7
  6
CONTINUOUS
 10
-16.3316430727
 20
18.7169200659
 11
-12.6992040962
 21
16.6053100115
  0
LINE
  5
4BE
100
AcDbEntity
  8
RACCORDO
100
AcDbLine
 62
250
  6
CONTINUOUS
 10
-21.2804940262
 20
21.6786158336
 11
-9.6442160741
 21
14.9116452664
  0
LINE
  5
4BF
100
AcDbEntity
  8
RACCORDO
100
AcDbLine
 62
250
  6
CONTINUOUS
 10
-23.3817679233
 20
22.9123618243
 11
-21.2804940262
 21
21.6786158336
  0
LWPOLYLINE
  5
4C0
100
AcDbEntity
  8
RACCORDO
100
AcDbPolyline
 62
7
  6
CONTINUOUS
 90
5
 70
0
 10
-24.3802757871
 20
23.4296452455
 10
-22.9303129188
 20
22.57282616
 10
-21.3651660824
 20
21.6540660725
 10
-19.7433165053
 20
20.7053758265
 10
-16.3316430727
 20
18.7169200659
  0
LINE
  5
4C1
100
AcDbEntity
  8
RACCORDO
100
AcDbLine
 62
250
  6
CONTINUOUS
 10
-24.4214579293
 20
23.5275661548
 11
-23.3817679233
 21
22.9123618243
  0
LWPOLYLINE
  5
4C2
100
AcDbEntity
  8
RACCORDO
100
AcDbPolyline
 62
250
  6
CONTINUOUS
 90
9
 70
0
 10
8.2341183309
 20
2.848137248
 10
8.2197074069
 20
2.856949671
 10
8.2069789933
 20
2.8665360904
 10
8.1960735375
 20
2.8767907281
 10
8.1871113723
 20
2.8876004325
 10
8.1801913877
 20
2.8988459275
 10
8.1753899402
 20
2.9104031284
 10
8.1727600095
 20
2.9221445111
 10
8.1722453453
 20
2.9318348164
  0
LWPOLYLINE
  5
4C3
100
AcDbEntity
  8
RACCORDO
100
AcDbPolyline
 62
250
  6
CONTINUOUS
 90
29
 70
0
 10
6.8374198164
 20
5.4746241441
 10
6.9082165378
 20
5.4252822448
 10
6.9803065414
 20
5.3713987228
 10
7.0536422939
 20
5.3126432408
 10
7.1280778755
 20
5.248022869
 10
7.2041455582
 20
5.17702873
 10
7.2813231397
 20
5.1001755183
 10
7.3578830445
 20
5.0180056946
 10
7.4338393644
 20
4.9302311862
 10
7.5091876432
 20
4.837145632
 10
7.5821688076
 20
4.7401619368
 10
7.6527107992
 20
4.6389826668
 10
7.7208922663
 20
4.5339090626
 10
7.7851744123
 20
4.4272487003
 10
7.8453240026
 20
4.3188867223
 10
7.9015745053
 20
4.2089381211
 10
7.9530800048
 20
4.1000511036
 10
7.9994002654
 20
3.9929441408
 10
8.0409689242
 20
3.8868949497
 10
8.0782468698
 20
3.7823882925
 10
8.1111563151
 20
3.6803473589
 10
8.1397686707
 20
3.5798452755
 10
8.1647709987
 20
3.4785930833
 10
8.186626069
 20
3.3759262888
 10
8.2048721997
 20
3.2725100141
 10
8.2188131168
 20
3.1680516544
 10
8.2282176792
 20
3.0624542237
 10
8.2333190203
 20
2.9558158589
 10
8.2341183309
 20
2.848137248
  0
LWPOLYLINE
  5
4C4
100
AcDbEntity
  8
RACCORDO
100
AcDbPolyline
 62
250
  6
CONTINUOUS
 90
5
 70
0
 10
-31.922313198
 20
36.9425508339
 10
-31.8276867029
 20
36.8683786423
 10
-31.5667194819
 20
36.6656812612
 10
-31.3082908141
 20
36.466792264
 10
-30.7866110434
 20
36.0707068968
  0
LWPOLYLINE
  5
4C5
100
AcDbEntity
  8
RACCORDO
100
AcDbPolyline
 62
7
  6
CONTINUOUS
 90
4
 70
0
 10
-34.9860272312
 20
39.357107975
 10
-34.264944026
 20
38.7677392244
 10
-33.4952616481
 20
38.1528510989
 10
-32.7188511019
 20
37.5476457375
  0
LINE
  5
4C6
100
AcDbEntity
  8
RACCORDO
100
AcDbLine
 62
250
  6
CONTINUOUS
 10
-34.585131983
 20
39.1506413732
 11
-35.0392810003
 21
39.5221085963
  0
LWPOLYLINE
  5
4C7
100
AcDbEntity
  8
RACCORDO
100
AcDbPolyline
 62
250
  6
CONTINUOUS
 90
10
 70
0
 10
-34.9860443066
 20
39.3571220833
 10
-34.9953601829
 20
39.3655769695
 10
-35.0078604304
 20
39.3798692345
 10
-35.0184999009
 20
39.3959840092
 10
-35.0271856031
 20
39.413780451
 10
-35.033841622
 20
39.4331030191
 10
-35.0384097819
 20
39.4537828343
 10
-35.0408501549
 20
39.4756391546
 10
-35.0411414102
 20
39.4984809548
 10
-35.0392810004
 20
39.5221085963
  0
LINE
  5
4C8
100
AcDbEntity
  8
0
100
AcDbLine
 62
7
  6
CONTINUOUS
 10
-4.2622580616
 20
19.4433684119
 11
-4.241098287
 21
19.4165911201
  0
LINE
  5
4C9
100
AcDbEntity
  8
0
100
AcDbLine
 62
7
  6
CONTINUOUS
 10
-4.190720176
 20
19.4447984629
 11
-4.2031740298
 21
19.4609808818
  0
LINE
  5
4CA
100
AcDbEntity
  8
0
100
AcDbLine
 62
7
  6
CONTINUOUS
 10
-4.1712520927
 20
19.4165964177
 11
-4.190720176
 21
19.4447984629
  0
LWPOLYLINE
  5
4CB
100
AcDbEntity
  8
0
100
AcDbPolyline
 62
7
  6
CONTINUOUS
 90
23
 70
0
 10
-4.241098287
 20
19.4165911201
 10
-4.2218005561
 20
19.3885562442
 10
-4.2042637785
 20
19.3595107488
 10
-4.1883849269
 20
19.3295620545
 10
-4.1740860114
 20
19.2990311195
 10
-4.1612838829
 20
19.2684845908
 10
-4.1499353779
 20
19.2383256598
 10
-4.1398681718
 20
19.2085206528
 10
-4.1308101624
 20
19.1789580867
 10
-4.1226810892
 20
19.1497548182
 10
-4.1154320964
 20
19.1210115368
 10
-4.1088823626
 20
19.0925511516
 10
-4.102975805
 20
19.0644048383
 10
-4.0976917069
 20
19.0366871644
 10
-4.092929918
 20
19.0093299285
 10
-4.0886616122
 20
18.9824073089
 10
-4.0848604829
 20
18.9559588102
 10
-4.0814480752
 20
18.9298624263
 10
-4.0784002982
 20
18.9041745188
 10
-4.0757077561
 20
18.8789433034
 10
-4.0733141992
 20
18.854000864
 10
-4.0711513286
 20
18.8292240558
 10
-4.0691740817
 20
18.8046033326
  0
LINE
  5
4CC
100
AcDbEntity
  8
RACCORDO
100
AcDbLine
 62
250
  6
CONTINUOUS
 10
12.3040267055
 20
10.8840019531
 11
12.3062098924
 21
10.852209147
  0
LWPOLYLINE
  5
4CD
100
AcDbEntity
  8
RACCORDO
100
AcDbPolyline
 62
250
  6
CONTINUOUS
 90
5
 70
0
 10
12.6405987883
 20
10.6237386443
 10
12.6389277563
 20
10.6619666064
 10
12.635222456
 20
10.698786852
 10
12.6295158853
 20
10.7340048494
 10
12.6260983387
 20
10.7488725035
  0
LWPOLYLINE
  5
4CE
100
AcDbEntity
  8
RACCORDO
100
AcDbPolyline
 62
7
  6
CONTINUOUS
 90
3
 70
0
 10
11.761252445
 20
13.3626195882
 10
11.7609318651
 20
13.3122954988
 10
11.7593967183
 20
12.9113355073
  0
LINE
  5
4CF
100
AcDbEntity
  8
RACCORDO
100
AcDbLine
 62
250
  6
CONTINUOUS
 10
12.3043806365
 20
10.9091077078
 11
12.3040267055
 21
10.8840019531
  0
LWPOLYLINE
  5
4D0
100
AcDbEntity
  8
RACCORDO
100
AcDbPolyline
 62
250
  6
CONTINUOUS
 90
3
 70
0
 10
12.6379305151
 20
10.5451364191
 10
12.6402245543
 20
10.5841678019
 10
12.6405987883
 20
10.6237386443
  0
LWPOLYLINE
  5
4D1
100
AcDbEntity
  8
RACCORDO
100
AcDbPolyline
 62
250
  6
CONTINUOUS
 90
10
 70
0
 10
13.722005146
 20
19.5993930433
 10
13.7209544202
 20
19.5893258044
 10
13.7224701243
 20
19.5767088949
 10
13.7270084383
 20
19.5636753399
 10
13.7345225275
 20
19.550359669
 10
13.744934841
 20
19.5368993246
 10
13.7581379063
 20
19.5234332487
 10
13.7739954449
 20
19.5101004394
 10
13.7923437822
 20
19.4970385157
 10
13.8129935319
 20
19.484382303
  0
LWPOLYLINE
  5
4D2
100
AcDbEntity
  8
RACCORDO
100
AcDbPolyline
 62
7
  6
CONTINUOUS
 90
13
 70
0
 10
12.1701073725
 20
11.1297960933
 10
12.1688462698
 20
11.1190718905
 10
12.1680685276
 20
11.097234992
 10
12.169671306
 20
11.0754538976
 10
12.1736331805
 20
11.0539850535
 10
12.1799032699
 20
11.0330870631
 10
12.1884134975
 20
11.0129860861
 10
12.1990709965
 20
10.9939141666
 10
12.2117481615
 20
10.9761093484
 10
12.2262928433
 20
10.959788972
 10
12.2425306242
 20
10.945149852
 10
12.2602709086
 20
10.9323647063
 10
12.2782637663
 20
10.922106027
  0
LINE
  5
4D3
100
AcDbEntity
  8
RACCORDO
100
AcDbLine
 62
250
  6
CONTINUOUS
 10
12.2838836788
 20
11.0732435225
 11
12.3904648274
 21
11.7910338661
  0
LINE
  5
4D4
100
AcDbEntity
  8
RACCORDO
100
AcDbLine
 62
250
  6
CONTINUOUS
 10
12.3904648274
 20
11.7910338661
 11
12.5083170569
 21
12.5463089389
  0
LINE
  5
4D5
100
AcDbEntity
  8
RACCORDO
100
AcDbLine
 62
250
  6
CONTINUOUS
 10
12.5083170569
 20
12.5463089389
 11
12.6387486299
 21
13.3439996192
  0
LWPOLYLINE
  5
4D6
100
AcDbEntity
  8
RACCORDO
100
AcDbPolyline
 62
250
  6
CONTINUOUS
 90
12
 70
0
 10
12.6387486299
 20
13.3439996192
 10
12.7855306073
 20
14.2023435145
 10
12.865415653
 20
14.6546286449
 10
12.9498716018
 20
15.1228566545
 10
13.038995157
 20
15.6070095142
 10
13.1331015909
 20
16.1080096763
 10
13.2323043281
 20
16.6258375758
 10
13.3367519961
 20
17.1606641616
 10
13.4468347176
 20
17.7137103922
 10
13.562799778
 20
18.2854509841
 10
13.684776484
 20
18.8756287728
 10
13.8129970768
 20
19.4843779209
  0
LINE
  5
4D7
100
AcDbEntity
  8
0
100
AcDbLine
 62
250
  6
CONTINUOUS
 10
40.5378772159
 20
10.8432180596
 11
41.16722565
 21
11.2065959579
  0
LINE
  5
4D8
100
AcDbEntity
  8
RACCORDO
100
AcDbLine
 62
250
  6
CONTINUOUS
 10
12.1947834553
 20
11.0015868524
 11
11.4556306044
 21
10.9645640507
  0
LWPOLYLINE
  5
4D9
100
AcDbEntity
  8
RACCORDO
100
AcDbPolyline
 62
250
  6
CONTINUOUS
 90
12
 70
0
 10
12.284171129
 20
11.0734135563
 10
12.2615105485
 20
11.0764680769
 10
12.2414198219
 20
11.0802537448
 10
12.2238750028
 20
11.0846909225
 10
12.2088564662
 20
11.0897031158
 10
12.196346424
 20
11.0952079247
 10
12.1863121405
 20
11.1011279558
 10
12.178751326
 20
11.1073673917
 10
12.1735516985
 20
11.1138779354
 10
12.1706011471
 20
11.1206818467
 10
12.1698985386
 20
11.1277586456
 10
12.170104929
 20
11.1297793362
  0
LWPOLYLINE
  5
4DA
100
AcDbEntity
  8
RACCORDO
100
AcDbPolyline
 62
250
  6
CONTINUOUS
 90
18
 70
0
 10
19.8342301046
 20
7.2364882607
 10
19.9083192858
 20
7.209361278
 10
19.9847431319
 20
7.1827618325
 10
20.0632679075
 20
7.1567757586
 10
20.1431925271
 20
7.1316623969
 10
20.2245150069
 20
7.1074291733
 10
20.307237185
 20
7.0840645928
 10
20.3906636903
 20
7.0617983526
 10
20.4748416395
 20
7.0406252088
 10
20.5597237903
 20
7.0205456553
 10
20.6444732232
 20
7.0017969805
 10
20.7290751267
 20
6.9843893073
 10
20.8135442147
 20
6.968307427
 10
20.8970878542
 20
6.9537499128
 10
20.9798070899
 20
6.9407147961
 10
21.0616008119
 20
6.9291993382
 10
21.1413731569
 20
6.9194005752
 10
21.1556187801
 20
6.9179256156
  0
LINE
  5
4DB
100
AcDbEntity
  8
RACCORDO
100
AcDbLine
 62
250
  6
CONTINUOUS
 10
19.7622419931
 20
7.2642312835
 11
19.8342301046
 21
7.2364882607
  0
LWPOLYLINE
  5
4DC
100
AcDbEntity
  8
RACCORDO
100
AcDbPolyline
 62
250
  6
CONTINUOUS
 90
5
 70
0
 10
19.7592963659
 20
7.2852045454
 10
19.7538759048
 20
7.2873001369
 10
19.734497316
 20
7.2923604644
 10
19.7139422311
 20
7.2941284977
 10
19.6923550242
 20
7.292591788
  0
LWPOLYLINE
  5
4DD
100
AcDbEntity
  8
RACCORDO
100
AcDbPolyline
 62
7
  6
CONTINUOUS
 90
19
 70
0
 10
20.4515117644
 20
6.5975975899
 10
20.4830998336
 20
6.5852676964
 10
20.5158733604
 20
6.5733207358
 10
20.5498323443
 20
6.5617563176
 10
20.5852751475
 20
6.5504805074
 10
20.6219034071
 20
6.5395865654
 10
20.6588220391
 20
6.5293545697
 10
20.6959095196
 20
6.519835837
 10
20.7332873822
 20
6.5109777257
 10
20.770425135
 20
6.5029039648
 10
20.8073043503
 20
6.4956183234
 10
20.8439434692
 20
6.4891157652
 10
20.879867306
 20
6.4835066744
 10
20.9151987207
 20
6.4787872335
 10
20.9498148669
 20
6.4749602097
 10
20.9828719998
 20
6.4721458176
 10
21.0140888749
 20
6.4703838787
 10
21.0437467465
 20
6.4696338981
 10
21.0718456171
 20
6.4698956975
  0
LINE
  5
4DE
100
AcDbEntity
  8
RACCORDO
100
AcDbLine
 62
250
  6
CONTINUOUS
 10
19.6923550302
 20
7.2925918092
 11
19.7622419931
 21
7.2642312835
  0
LWPOLYLINE
  5
4DF
100
AcDbEntity
  8
RACCORDO
100
AcDbPolyline
 62
7
  6
CONTINUOUS
 90
10
 70
0
 10
20.4515105195
 20
6.5975979498
 10
19.3925642034
 20
7.0300455856
 10
18.3590347172
 20
7.462518772
 10
17.3509203774
 20
7.8950165363
 10
16.374894978
 20
8.3244453701
 10
15.4238173429
 20
8.7536287817
 10
14.4773832226
 20
9.1916838873
 10
13.529167668
 20
9.6418479498
 10
12.5859619734
 20
10.101095339
 10
11.6476603746
 20
10.5693649564
  0
LWPOLYLINE
  5
4E0
100
AcDbEntity
  8
RACCORDO
100
AcDbPolyline
 62
7
  6
CONTINUOUS
 90
10
 70
0
 10
19.7592963659
 20
7.2852045454
 10
18.9729191642
 20
7.6159799803
 10
18.1336967901
 20
7.976233673
 10
17.301998424
 20
8.3410205161
 10
16.4780358072
 20
8.7103892317
 10
15.6619937542
 20
9.0843891314
 10
14.8539945847
 20
9.4629923718
 10
14.0540930611
 20
9.8460837326
 10
13.2622943103
 20
10.2335054032
 10
12.5471370138
 20
10.5904530618
  0
LINE
  5
4E1
100
AcDbEntity
  8
RACCORDO
100
AcDbLine
 62
250
  6
CONTINUOUS
 10
18.8470108751
 20
7.6483975745
 11
19.6923550302
 21
7.2925918092
  0
LINE
  5
4E2
100
AcDbEntity
  8
RACCORDO
100
AcDbLine
 62
250
  6
CONTINUOUS
 10
18.058388839
 20
7.9870194877
 11
18.8470108751
 21
7.6483975745
  0
LWPOLYLINE
  5
4E3
100
AcDbEntity
  8
RACCORDO
100
AcDbPolyline
 62
250
  6
CONTINUOUS
 90
3
 70
0
 10
16.9706399704
 20
8.4656544279
 10
17.3228595302
 20
8.3091998794
 10
18.058388839
 20
7.9870194877
  0
LWPOLYLINE
  5
4E4
100
AcDbEntity
  8
RACCORDO
100
AcDbPolyline
 62
250
  6
CONTINUOUS
 90
12
 70
0
 10
-24.4024828693
 20
23.3830277057
 10
-24.4805820288
 20
23.4202316092
 10
-24.558605668
 20
23.4520850886
 10
-24.6358327799
 20
23.4782626617
 10
-24.7120020536
 20
23.4986757521
 10
-24.7868557592
 20
23.5132552884
 10
-24.8601406196
 20
23.5219519372
 10
-24.9316086572
 20
23.5247362697
 10
-25.0010180371
 20
23.5215988643
 10
-25.0681338947
 20
23.5125503392
 10
-25.1327291377
 20
23.4976213129
 10
-25.1945852044
 20
23.4768622987
  0
LINE
  5
4E5
100
AcDbEntity
  8
0
100
AcDbLine
 62
7
  6
CONTINUOUS
 10
-11.880285889
 20
22.3748713505
 11
-12.3102578881
 21
22.6222293172
  0
LINE
  5
4E6
100
AcDbEntity
  8
0
100
AcDbLine
 62
7
  6
CONTINUOUS
 10
-10.4603576511
 20
21.5575553309
 11
-10.9480725644
 21
21.8383580041
  0
LINE
  5
4E7
100
AcDbEntity
  8
0
100
AcDbLine
 62
7
  6
CONTINUOUS
 10
-9.7313331927
 20
21.1376874851
 11
-10.1978301777
 21
21.4063752964
  0
LINE
  5
4E8
100
AcDbEntity
  8
0
100
AcDbLine
 62
7
  6
CONTINUOUS
 10
-8.9857866831
 20
20.7081458622
 11
-9.0541593281
 21
20.7475453722
  0
LINE
  5
4E9
100
AcDbEntity
  8
0
100
AcDbLine
 62
7
  6
CONTINUOUS
 10
-7.8303340909
 20
20.0408637966
 11
-8.3063232017
 21
20.3162138764
  0
LINE
  5
4EA
100
AcDbEntity
  8
0
100
AcDbLine
 62
7
  6
CONTINUOUS
 10
-7.2727241315
 20
19.7182066584
 11
-7.7539366163
 21
19.9966624967
  0
LINE
  5
4EB
100
AcDbEntity
  8
0
100
AcDbLine
 62
7
  6
CONTINUOUS
 10
-6.4008240742
 20
19.8383657789
 11
-7.0631443161
 21
20.2218506458
  0
LINE
  5
4EC
100
AcDbEntity
  8
0
100
AcDbLine
 62
7
  6
CONTINUOUS
 10
-5.8375424474
 20
18.8873316887
 11
-6.3500985847
 21
19.184138401
  0
LINE
  5
4ED
100
AcDbEntity
  8
0
100
AcDbLine
 62
7
  6
CONTINUOUS
 10
-6.9021682985
 20
20.6159197132
 11
-6.4365566371
 21
20.3462969381
  0
LINE
  5
4EE
100
AcDbEntity
  8
0
100
AcDbLine
 62
7
  6
CONTINUOUS
 10
-6.4400938726
 20
20.4064565125
 11
-6.8519224753
 21
20.6449310217
  0
LINE
  5
4EF
100
AcDbEntity
  8
0
100
AcDbLine
 62
7
  6
CONTINUOUS
 10
-5.2104776317
 20
18.5241015084
 11
-5.6947493407
 21
18.8046297875
  0
LINE
  5
4F0
100
AcDbEntity
  8
0
100
AcDbLine
 62
7
  6
CONTINUOUS
 10
-3.9985172508
 20
17.821661722
 11
-4.4660281821
 21
18.092693697
  0
LINE
  5
4F1
100
AcDbEntity
  8
0
100
AcDbLine
 62
7
  6
CONTINUOUS
 10
-4.798324464
 20
19.5148198532
 11
-5.0589048637
 21
19.6659113872
  0
LWPOLYLINE
  5
4F2
100
AcDbEntity
  8
RACCORDO
100
AcDbPolyline
 62
7
  6
CONTINUOUS
 90
10
 70
0
 10
-27.9875401538
 20
34.1713932881
 10
-27.9822089479
 20
34.1679372916
 10
-27.9605881151
 20
34.1554214887
 10
-27.9384470555
 20
34.1449435054
 10
-27.9160540788
 20
34.1365849196
 10
-27.8935600843
 20
34.1303304269
 10
-27.8706512771
 20
34.1260807608
 10
-27.8475563945
 20
34.1239149121
 10
-27.8245090932
 20
34.1238648394
 10
-27.8012490983
 20
34.1259882168
  0
LWPOLYLINE
  5
4F3
100
AcDbEntity
  8
RACCORDO
100
AcDbPolyline
 62
250
  6
CONTINUOUS
 90
13
 70
0
 10
-28.0978218229
 20
34.3891344815
 10
-28.4150124893
 20
34.6000003666
 10
-28.740682964
 20
34.8185803131
 10
-29.0746292066
 20
35.0449470296
 10
-29.4164236479
 20
35.2789971966
 10
-29.7660766448
 20
35.5209828056
 10
-30.1240240991
 20
35.7715155711
 10
-30.4901400745
 20
36.0307510443
 10
-30.8640913612
 20
36.2986972888
 10
-31.2459825132
 20
36.575752071
 10
-31.6353613184
 20
36.8618358323
 10
-32.0322271922
 20
37.1571894834
 10
-32.4373389282
 20
37.4626997619
  0
LWPOLYLINE
  5
4F4
100
AcDbEntity
  8
RACCORDO
100
AcDbPolyline
 62
7
  6
CONTINUOUS
 90
10
 70
0
 10
-27.7480060094
 20
33.3159289817
 10
-28.5590489898
 20
33.8577090232
 10
-29.3544533516
 20
34.4023133095
 10
-30.1340882608
 20
34.9497884626
 10
-30.8927131068
 20
35.4962130352
 10
-31.6360216897
 20
36.0453469826
 10
-32.3798219851
 20
36.60892395
 10
-33.1289217841
 20
37.1910196181
 10
-33.8779351229
 20
37.7877643355
 10
-34.6268599194
 20
38.3991588441
  0
LINE
  5
4F5
100
AcDbEntity
  8
RACCORDO
100
AcDbLine
 62
250
  6
CONTINUOUS
 10
-27.8073080265
 20
33.9398151828
 11
-27.4699964767
 21
33.7117095825
  0
LINE
  5
4F6
100
AcDbEntity
  8
RACCORDO
100
AcDbLine
 62
7
  6
CONTINUOUS
 10
-27.4639758458
 20
33.7530140632
 11
-28.0814219398
 21
34.1738945402
  0
LINE
  5
4F7
100
AcDbEntity
  8
RACCORDO
100
AcDbLine
 62
250
  6
CONTINUOUS
 10
-28.360734298
 20
34.3196804907
 11
-27.8073080265
 21
33.9398151828
  0
LWPOLYLINE
  5
4F8
100
AcDbEntity
  8
RACCORDO
100
AcDbPolyline
 62
7
  6
CONTINUOUS
 90
5
 70
0
 10
-28.0814219398
 20
34.1738945402
 10
-28.7392061298
 20
34.6320002572
 10
-29.3899579697
 20
35.0952712455
 10
-30.033546058
 20
35.5637574872
 10
-30.2029721128
 20
35.6898660505
  0
LWPOLYLINE
  5
4F9
100
AcDbEntity
  8
0
100
AcDbPolyline
 62
7
  6
CONTINUOUS
 90
10
 70
0
 10
-4.5001250498
 20
20.7632542441
 10
-4.5398731458
 20
20.7919188583
 10
-4.580462395
 20
20.8192273843
 10
-4.6218336802
 20
20.8451003734
 10
-4.6639028514
 20
20.869447277
 10
-4.7066246285
 20
20.8921935551
 10
-4.7499922242
 20
20.913273265
 10
-4.7939523856
 20
20.932599225
 10
-4.8384519808
 20
20.9502509609
 10
-4.8835282147
 20
20.9665999352
  0
LWPOLYLINE
  5
4FA
100
AcDbEntity
  8
RACCORDO
100
AcDbPolyline
 62
250
  6
CONTINUOUS
 90
9
 70
0
 10
-30.7866110434
 20
36.0707068968
 10
-30.5233627348
 20
35.8735298045
 10
-30.2580193032
 20
35.676612284
 10
-29.9898558941
 20
35.479441267
 10
-29.7195940075
 20
35.2825593686
 10
-29.448581676
 20
35.0869615615
 10
-29.1773834407
 20
34.8930492773
 10
-28.9054598222
 20
34.7004066726
 10
-28.360734298
 20
34.3196804907
  0
LWPOLYLINE
  5
4FB
100
AcDbEntity
  8
RACCORDO
100
AcDbPolyline
 62
250
  6
CONTINUOUS
 90
22
 70
0
 10
-35.0392810003
 20
39.5221085963
 10
-35.0612662729
 20
39.5387439403
 10
-35.0829957647
 20
39.5527520825
 10
-35.1044687473
 20
39.5641332825
 10
-35.1257371318
 20
39.5728790209
 10
-35.1467472447
 20
39.5789984452
 10
-35.167340165
 20
39.5825182486
 10
-35.1875844381
 20
39.5834323004
 10
-35.2074099204
 20
39.581747301
 10
-35.2264506106
 20
39.5775088509
 10
-35.2446377993
 20
39.5707185158
 10
-35.2620399674
 20
39.5613748113
 10
-35.2784979185
 20
39.5495183993
 10
-35.2940158163
 20
39.5352356944
 10
-35.3085896597
 20
39.5184402239
 10
-35.3220484559
 20
39.4989131583
 10
-35.3344987032
 20
39.4764400964
 10
-35.3458338677
 20
39.451235452
 10
-35.3555647246
 20
39.4237231492
 10
-35.3635294568
 20
39.3940440477
 10
-35.3698922964
 20
39.3620564272
 10
-35.3746541478
 20
39.3277599654
  0
LWPOLYLINE
  5
4FC
100
AcDbEntity
  8
RACCORDO
100
AcDbPolyline
 62
7
  6
CONTINUOUS
 90
7
 70
0
 10
-32.7188511019
 20
37.5476457375
 10
-31.9355353242
 20
36.9523427379
 10
-31.1452909733
 20
36.3671118306
 10
-30.3483030366
 20
35.7920518736
 10
-29.5449216783
 20
35.2271742606
 10
-28.7356729519
 20
34.6724026755
 10
-27.9875303361
 20
34.1713868614
  0
LWPOLYLINE
  5
4FD
100
AcDbEntity
  8
RACCORDO
100
AcDbPolyline
 62
250
  6
CONTINUOUS
 90
6
 70
0
 10
-32.4373389282
 20
37.4626997619
 10
-32.8504768048
 20
37.7784577227
 10
-33.2714113075
 20
38.1045323943
 10
-33.7008660005
 20
38.4417847949
 10
-34.1389394003
 20
38.790552771
 10
-34.585131983
 20
39.1506413732
  0
LWPOLYLINE
  5
4FE
100
AcDbEntity
  8
0
100
AcDbPolyline
 62
7
  6
CONTINUOUS
 90
25
 70
0
 10
-4.0317434096
 20
21.0110900727
 10
-4.0766625627
 20
21.0590026817
 10
-4.1225574799
 20
21.1047984801
 10
-4.1694297234
 20
21.1484765655
 10
-4.2174792639
 20
21.1898930245
 10
-4.2665086499
 20
21.2291903151
 10
-4.3159227067
 20
21.2667974409
 10
-4.3655957312
 20
21.302741556
 10
-4.4156542923
 20
21.3369950061
 10
-4.4658811068
 20
21.3699048807
 10
-4.5162569397
 20
21.4015381031
 10
-4.5668012459
 20
21.4318276229
 10
-4.6173545943
 20
21.4609196741
 10
-4.6678625121
 20
21.4887856494
 10
-4.7183793603
 20
21.5154542206
 10
-4.7689089065
 20
21.5411575707
 10
-4.8194394289
 20
21.565897911
 10
-4.8699823748
 20
21.5896731889
 10
-4.9205762875
 20
21.6127091792
 10
-4.9712088735
 20
21.6350070512
 10
-5.0218920972
 20
21.6565658258
 10
-5.0727009523
 20
21.677608019
 10
-5.1236603554
 20
21.6982078499
 10
-5.1747450905
 20
21.7182912722
 10
-5.2259549873
 20
21.7378583846
  0
LWPOLYLINE
  5
4FF
100
AcDbEntity
  8
0
100
AcDbPolyline
 62
7
  6
CONTINUOUS
 90
46
 70
0
 10
-4.0822842162
 20
20.9819094611
 10
-4.0587745657
 20
20.9537860868
 10
-4.0354135205
 20
20.9226346512
 10
-4.0122892485
 20
20.8885740429
 10
-3.9895493291
 20
20.8518916503
 10
-3.9672380085
 20
20.8126866506
 10
-3.9453584778
 20
20.7706649689
 10
-3.9240552361
 20
20.7256887467
 10
-3.9036375722
 20
20.6778557668
 10
-3.8844200323
 20
20.6271902634
 10
-3.8665788014
 20
20.5733217913
 10
-3.8505429486
 20
20.5168546591
 10
-3.8368823576
 20
20.4593825826
 10
-3.8257489998
 20
20.400868376
 10
-3.8173616567
 20
20.3418947025
 10
-3.811861475
 20
20.2849456538
 10
-3.8090096305
 20
20.2307024047
 10
-3.8084977459
 20
20.1786871079
 10
-3.8099290725
 20
20.1294744909
 10
-3.8129337446
 20
20.0834084926
 10
-3.8172453906
 20
20.0400692346
 10
-3.8226968718
 20
19.9988894979
 10
-3.8291966122
 20
19.9597652807
 10
-3.8366311328
 20
19.922825416
 10
-3.8449196279
 20
19.8878939503
 10
-3.8539736279
 20
19.8549308935
 10
-3.8636994605
 20
19.8239297536
 10
-3.8740326695
 20
19.7947658607
 10
-3.8848825079
 20
19.767402723
 10
-3.8961682169
 20
19.7417763389
 10
-3.9078588749
 20
19.7177305789
 10
-3.9198675028
 20
19.6952414223
 10
-3.9321053752
 20
19.6742764236
 10
-3.9445606993
 20
19.6546887525
 10
-3.9571625315
 20
19.6364541555
 10
-3.969844815
 20
19.619543065
 10
-3.9826316059
 20
19.6038180652
 10
-3.9954870474
 20
19.5892373006
 10
-4.0083500063
 20
19.5757891764
 10
-4.0212252477
 20
19.5633962908
 10
-4.034080187
 20
19.5520229572
 10
-4.0468711631
 20
19.5416457722
 10
-4.0595923636
 20
19.5321884144
 10
-4.0722092962
 20
19.5235565919
 10
-4.0846811894
 20
19.5156672383
 10
-4.0938842201
 20
19.5102103309
  0
LINE
  5
500
100
AcDbEntity
  8
RACCORDO
100
AcDbLine
 62
7
  6
CONTINUOUS
 10
22.070430022
 20
-48.4949723368
 11
22.0704211713
 21
-48.494915748
  0
LWPOLYLINE
  5
501
100
AcDbEntity
  8
RACCORDO
100
AcDbPolyline
 62
250
  6
CONTINUOUS
 90
11
 70
0
 10
12.3062098924
 20
10.852209147
 10
12.3110002822
 20
10.8208075824
 10
12.3183438064
 20
10.7901516665
 10
12.328157581
 20
10.7605873896
 10
12.3403308438
 20
10.7324484182
 10
12.3547262019
 20
10.7060523357
 10
12.3711811838
 20
10.6816970537
 10
12.3895100752
 20
10.659657448
 10
12.4095060114
 20
10.6401822616
 10
12.4309433118
 20
10.6234912965
 10
12.453580029
 20
10.6097729302
  0
LWPOLYLINE
  5
502
100
AcDbEntity
  8
RACCORDO
100
AcDbPolyline
 62
250
  6
CONTINUOUS
 90
36
 70
0
 10
20.9682766192
 20
-47.2204483641
 10
20.9913202952
 20
-47.3916085993
 10
21.0065524787
 20
-47.5566137804
 10
21.0139902641
 20
-47.7154493631
 10
21.013547572
 20
-47.8677402843
 10
21.0053475331
 20
-48.0138300829
 10
20.989726842
 20
-48.1547771953
 10
20.9667493102
 20
-48.2912165705
 10
20.9364050716
 20
-48.4224673612
 10
20.89891841
 20
-48.5476159205
 10
20.8542614786
 20
-48.6665555138
 10
20.8025022815
 20
-48.7793587087
 10
20.7439951744
 20
-48.8853924721
 10
20.678718966
 20
-48.9845991545
 10
20.6067223935
 20
-49.0770129686
 10
20.5284507688
 20
-49.162150531
 10
20.4438804668
 20
-49.2399683907
 10
20.3530490352
 20
-49.3104981529
 10
20.2564794572
 20
-49.3733810062
 10
20.1541568674
 20
-49.4285793701
 10
20.0460969102
 20
-49.4761301622
 10
19.9328545684
 20
-49.5157980296
 10
19.8143161528
 20
-49.5475543633
 10
19.6905845431
 20
-49.5714369693
 10
19.5625243156
 20
-49.5873231018
 10
19.4306531301
 20
-49.595269581
 10
19.2944239742
 20
-49.5952445606
 10
19.1531011447
 20
-49.5869950763
 10
19.0063148768
 20
-49.5706177427
 10
18.8544250618
 20
-49.5460243457
 10
18.697788943
 20
-49.5126859873
 10
18.5360059829
 20
-49.4704337822
 10
18.369457101
 20
-49.419453307
 10
18.1996524287
 20
-49.3597637746
 10
18.0270765635
 20
-49.2913875673
 10
17.851204089
 20
-49.2143370327
  0
LWPOLYLINE
  5
503
100
AcDbEntity
  8
RACCORDO
100
AcDbPolyline
 62
250
  6
CONTINUOUS
 90
17
 70
0
 10
21.1272592282
 20
-38.6705158731
 10
21.1555905037
 20
-39.1292676682
 10
21.1869112681
 20
-39.6036282066
 10
21.2214429026
 20
-40.0935805292
 10
21.2593869015
 20
-40.5987818009
 10
21.3009807659
 20
-41.1187467809
 10
21.3463778372
 20
-41.6526696208
 10
21.3958431176
 20
-42.2010002309
 10
21.4497945138
 20
-42.7651260198
 10
21.5084029295
 20
-43.3444350807
 10
21.5719308785
 20
-43.939170557
 10
21.6409832206
 20
-44.5519602847
 10
21.7158048298
 20
-45.1825958334
 10
21.7966477886
 20
-45.8308628094
 10
21.8842018874
 20
-46.4993170413
 10
21.9789088843
 20
-47.1886302431
 10
22.0809143399
 20
-47.8976309942
  0
LINE
  5
504
100
AcDbEntity
  8
RACCORDO
100
AcDbLine
 62
250
  6
CONTINUOUS
 10
21.0785963282
 20
-37.8002096945
 11
21.1272592282
 21
-38.6705158731
  0
LINE
  5
505
100
AcDbEntity
  8
RACCORDO
100
AcDbLine
 62
250
  6
CONTINUOUS
 10
21.0392590245
 20
-36.9929431022
 11
21.0785963282
 21
-37.8002096945
  0
LWPOLYLINE
  5
506
100
AcDbEntity
  8
RACCORDO
100
AcDbPolyline
 62
250
  6
CONTINUOUS
 90
25
 70
0
 10
19.7502423898
 20
-33.2006449934
 10
19.7655800226
 20
-33.7814830622
 10
19.7828367314
 20
-34.3616463918
 10
19.8022483097
 20
-34.9404054332
 10
19.8239974999
 20
-35.5174640218
 10
19.8482374631
 20
-36.0928325264
 10
19.8751411913
 20
-36.6662568789
 10
19.9048353864
 20
-37.2373938791
 10
19.9374451548
 20
-37.8063724818
 10
19.9730906851
 20
-38.3736897419
 10
20.011854713
 20
-38.9397550237
 10
20.0537489544
 20
-39.5040786009
 10
20.0987489581
 20
-40.0658413173
 10
20.1466594304
 20
-40.6228826629
 10
20.19764719
 20
-41.1773873749
 10
20.2522802027
 20
-41.7350122661
 10
20.3104751103
 20
-42.2944601463
 10
20.3724127171
 20
-42.8569452958
 10
20.4392764867
 20
-43.4317051864
 10
20.5112683107
 20
-44.0189214147
 10
20.5885388869
 20
-44.6181123913
 10
20.6724583474
 20
-45.237296651
 10
20.7637289126
 20
-45.878938152
 10
20.862242562
 20
-46.5400673746
 10
20.9682766192
 20
-47.2204483641
  0
LINE
  5
507
100
AcDbEntity
  8
RACCORDO
100
AcDbLine
 62
250
  6
CONTINUOUS
 10
19.7245864831
 20
-32.0378173427
 11
19.7502423898
 21
-33.2006449934
  0
LINE
  5
508
100
AcDbEntity
  8
RACCORDO
100
AcDbLine
 62
250
  6
CONTINUOUS
 10
19.7041875725
 20
-30.8752479445
 11
19.7245864831
 21
-32.0378173427
  0
LINE
  5
509
100
AcDbEntity
  8
RACCORDO
100
AcDbLine
 62
250
  6
CONTINUOUS
 10
19.6806663859
 20
-29.1308580449
 11
19.7041875725
 21
-30.8752479445
  0
LWPOLYLINE
  5
50A
100
AcDbEntity
  8
0
100
AcDbPolyline
 62
7
  6
CONTINUOUS
 90
25
 70
0
 10
-5.2764989518
 20
21.708674933
 10
-5.225183456
 20
21.688978362
 10
-5.1739935958
 20
21.6688681235
 10
-5.1229367598
 20
21.648294134
 10
-5.0720527507
 20
21.6272306967
 10
-5.0213163402
 20
21.6056066767
 10
-4.9706367547
 20
21.5833005603
 10
-4.9200063564
 20
21.5602546946
 10
-4.8694459703
 20
21.5364222158
 10
-4.8189068386
 20
21.5116894887
 10
-4.7683859054
 20
21.4859962923
 10
-4.7178992146
 20
21.4592889637
 10
-4.6674264658
 20
21.4314556888
 10
-4.6169212091
 20
21.4024037547
 10
-4.5664432951
 20
21.3720987532
 10
-4.5161319831
 20
21.3405178519
 10
-4.4660228494
 20
21.3076358533
 10
-4.4160942391
 20
21.2733634698
 10
-4.3664201661
 20
21.2375659763
 10
-4.3170379694
 20
21.2000619271
 10
-4.268132611
 20
21.1607064072
 10
-4.2200637821
 20
21.1193655139
 10
-4.1730283718
 20
21.0758955784
 10
-4.1270631946
 20
21.0301287623
 10
-4.0822842162
 20
20.9819094611
  0
LWPOLYLINE
  5
50B
100
AcDbEntity
  8
RACCORDO
100
AcDbPolyline
 62
7
  6
CONTINUOUS
 90
24
 70
0
 10
21.2875233014
 20
6.8640054708
 10
21.2965041955
 20
6.8600986009
 10
21.3089291336
 20
6.8538139214
 10
21.3219926032
 20
6.8461347502
 10
21.3355155463
 20
6.8370311011
 10
21.3492360602
 20
6.8265612101
 10
21.3629433787
 20
6.814790089
 10
21.3764527445
 20
6.8017980985
 10
21.3895597935
 20
6.787717208
 10
21.4020862235
 20
6.7726945823
 10
21.4138908738
 20
6.7568799334
 10
21.4248481444
 20
6.7404341216
 10
21.4348445111
 20
6.7235351957
 10
21.4437883443
 20
6.7063803302
 10
21.4516112243
 20
6.6891702484
 10
21.4582621779
 20
6.6721187842
 10
21.4637301026
 20
6.6554193931
 10
21.4680307975
 20
6.6392490618
 10
21.4711898258
 20
6.6238151154
 10
21.4732695239
 20
6.6092862334
 10
21.4743576407
 20
6.5957929672
 10
21.4745548663
 20
6.583457828
 10
21.4739898355
 20
6.5724933217
 10
21.2971466368
 20
4.6916779993
  0
LWPOLYLINE
  5
50C
100
AcDbEntity
  8
RACCORDO
100
AcDbPolyline
 62
250
  6
CONTINUOUS
 90
6
 70
0
 10
12.5468700424
 20
10.590587258
 10
12.5330558448
 20
10.5967713949
 10
12.5150860253
 20
10.6027996156
 10
12.4958169247
 20
10.6070684318
 10
12.4753019576
 20
10.6094359285
 10
12.4535804345
 20
10.6097754867
  0
LWPOLYLINE
  5
50D
100
AcDbEntity
  8
RACCORDO
100
AcDbPolyline
 62
250
  6
CONTINUOUS
 90
22
 70
0
 10
21.230331001
 20
7.0327398506
 10
21.2618296759
 20
7.0185513545
 10
21.2924612922
 20
7.0023024209
 10
21.322226544
 20
6.9839934505
 10
21.3512415031
 20
6.963513635
 10
21.379391793
 20
6.9409747622
 10
21.4063321427
 20
6.916710958
 10
21.4320803542
 20
6.890676572
 10
21.4566198253
 20
6.8629179478
 10
21.4795527992
 20
6.833906694
 10
21.5008208851
 20
6.8037134074
 10
21.5204827288
 20
6.7722676385
 10
21.5383153191
 20
6.7398289591
 10
21.5543664602
 20
6.7062801198
 10
21.5685883197
 20
6.6717383536
 10
21.5806135303
 20
6.6368144353
 10
21.5903842461
 20
6.6013966643
 10
21.5979572203
 20
6.5655961099
 10
21.6031356209
 20
6.5303569141
 10
21.6058527321
 20
6.4959931523
 10
21.6061728418
 20
6.4621893464
 10
21.6040949796
 20
6.428944936
  0
LINE
  5
50E
100
AcDbEntity
  8
RACCORDO
100
AcDbLine
 62
250
  6
CONTINUOUS
 10
16.2926261266
 20
8.7710504281
 11
16.9706399704
 21
8.4656544279
  0
LWPOLYLINE
  5
50F
100
AcDbEntity
  8
RACCORDO
100
AcDbPolyline
 62
250
  6
CONTINUOUS
 90
12
 70
0
 10
21.6040949796
 20
6.428944936
 10
21.5810754822
 20
6.4394143199
 10
21.5598354861
 20
6.4508259392
 10
21.5405726307
 20
6.4630736081
 10
21.523466158
 20
6.4760433611
 10
21.5086752449
 20
6.489614514
 10
21.4963375216
 20
6.5036607865
 10
21.4865677914
 20
6.518051477
 10
21.4794569624
 20
6.5326526794
 10
21.4750712012
 20
6.5473285286
 10
21.4734513176
 20
6.561942465
 10
21.4738128353
 20
6.5706092583
  0
LINE
  5
510
100
AcDbEntity
  8
RACCORDO
100
AcDbLine
 62
250
  6
CONTINUOUS
 10
15.6386867247
 20
9.0709064274
 11
16.2926261266
 21
8.7710504281
  0
LINE
  5
511
100
AcDbEntity
  8
RACCORDO
100
AcDbLine
 62
250
  6
CONTINUOUS
 10
14.9936738531
 20
9.3719745707
 11
15.6386867247
 21
9.0709064274
  0
LINE
  5
512
100
AcDbEntity
  8
RACCORDO
100
AcDbLine
 62
250
  6
CONTINUOUS
 10
14.3522873802
 20
9.6766204871
 11
14.9936738531
 21
9.3719745707
  0
LINE
  5
513
100
AcDbEntity
  8
RACCORDO
100
AcDbLine
 62
250
  6
CONTINUOUS
 10
13.7121882724
 20
9.9859757359
 11
14.3522873802
 21
9.6766204871
  0
LWPOLYLINE
  5
514
100
AcDbEntity
  8
RACCORDO
100
AcDbPolyline
 62
250
  6
CONTINUOUS
 90
16
 70
0
 10
13.4236930275
 20
10.5068435116
 10
13.8308746181
 20
10.3084198302
 10
14.2520808675
 20
10.1053023844
 10
14.6882094412
 20
9.8973245047
 10
15.1395251458
 20
9.6845561824
 10
15.6061335878
 20
9.4671414088
 10
16.0887095971
 20
9.2450337368
 10
16.5871549058
 20
9.0184719295
 10
17.1019350067
 20
8.7874293648
 10
17.6345906697
 20
8.5514732435
 10
18.185333937
 20
8.3107026201
 10
18.7543190202
 20
8.06523002
 10
19.3430175925
 20
7.8146530468
 10
19.9520367182
 20
7.5589048725
 10
20.5810968216
 20
7.2982415108
 10
21.230331001
 20
7.0327398506
  0
LINE
  5
515
100
AcDbEntity
  8
RACCORDO
100
AcDbLine
 62
250
  6
CONTINUOUS
 10
13.0788641853
 20
10.2972705449
 11
13.7121882724
 21
9.9859757359
  0
LWPOLYLINE
  5
516
100
AcDbEntity
  8
RACCORDO
100
AcDbPolyline
 62
7
  6
CONTINUOUS
 90
10
 70
0
 10
12.2782958623
 20
10.9220995298
 10
13.1459019813
 20
10.4899783166
 10
14.1050887985
 20
10.0232080065
 10
15.0831629645
 20
9.5590360455
 10
16.0802946215
 20
9.0977865295
 10
17.0965172616
 20
8.639679464
 10
18.1317284785
 20
8.1848295648
 10
19.1856825647
 20
7.7332435235
 10
20.258017327
 20
7.2848479396
 10
21.2875469967
 20
6.8639958813
  0
LINE
  5
517
100
AcDbEntity
  8
RACCORDO
100
AcDbLine
 62
250
  6
CONTINUOUS
 10
12.4535800302
 20
10.6097729302
 11
13.0788641853
 21
10.2972705449
  0
LWPOLYLINE
  5
518
100
AcDbEntity
  8
RACCORDO
100
AcDbPolyline
 62
250
  6
CONTINUOUS
 90
3
 70
0
 10
12.2838836788
 20
11.0732435225
 10
12.6502453965
 20
10.8893971999
 10
13.4236930275
 20
10.5068435116
  0
LWPOLYLINE
  5
519
100
AcDbEntity
  8
0
100
AcDbPolyline
 62
7
  6
CONTINUOUS
 90
18
 70
0
 10
-4.7284372733
 20
19.9951762456
 10
-4.710197191
 20
19.9854637883
 10
-4.6918209903
 20
19.9763456227
 10
-4.6733718325
 20
19.9678850055
 10
-4.6549577135
 20
19.9601562234
 10
-4.6365897663
 20
19.9532002175
 10
-4.6181835704
 20
19.9470405895
 10
-4.5997942435
 20
19.9417434497
 10
-4.5814812399
 20
19.9373819372
 10
-4.5631720551
 20
19.934021083
 10
-4.5448890583
 20
19.931744204
 10
-4.5267416463
 20
19.9306536665
 10
-4.508793739
 20
19.9308591135
 10
-4.4910876936
 20
19.9324581103
 10
-4.4737226794
 20
19.9355445352
 10
-4.4568391796
 20
19.9401988624
 10
-4.4404981455
 20
19.9464968659
 10
-4.4234983039
 20
19.9551620368
  0
LWPOLYLINE
  5
51A
100
AcDbEntity
  8
RACCORDO
100
AcDbPolyline
 62
7
  6
CONTINUOUS
 90
5
 70
0
 10
12.5468700636
 20
10.5905872113
 10
12.5448606924
 20
10.5916854897
 10
12.5410814629
 20
10.5941477171
 10
12.5379805528
 20
10.5966802103
 10
12.5374175032
 20
10.5972131628
  0
LWPOLYLINE
  5
51B
100
AcDbEntity
  8
RACCORDO
100
AcDbPolyline
 62
7
  6
CONTINUOUS
 90
19
 70
0
 10
11.6476603856
 20
10.5693649512
 10
11.6282754001
 20
10.5802342983
 10
11.6091495227
 20
10.5931728573
 10
11.5904364262
 20
10.6081257337
 10
11.5722136801
 20
10.6250763086
 10
11.5547150363
 20
10.6438847138
 10
11.5382874516
 20
10.6642331297
 10
11.5230768197
 20
10.6858540555
 10
11.5091073246
 20
10.708649099
 10
11.4964997984
 20
10.7325015271
 10
11.4853322916
 20
10.7572030758
 10
11.4756534057
 20
10.7825813127
 10
11.4675612309
 20
10.8085815848
 10
11.4610882537
 20
10.8351188943
 10
11.4563255119
 20
10.8618699706
 10
11.4534234987
 20
10.8884193441
 10
11.4523912495
 20
10.9144885086
 10
11.4531447216
 20
10.9399367456
 10
11.4556299604
 20
10.9645644218
  0
LINE
  5
51C
100
AcDbEntity
  8
0
100
AcDbLine
 62
7
  6
CONTINUOUS
 10
-12.6283453863
 20
25.9867388352
 11
-12.0979222781
 21
25.6820547555
  0
LINE
  5
51D
100
AcDbEntity
  8
0
100
AcDbLine
 62
7
  6
CONTINUOUS
 10
-12.0473703405
 20
25.7112428107
 11
-12.5777926387
 21
26.0159273581
  0
LINE
  5
51E
100
AcDbEntity
  8
0
100
AcDbLine
 62
7
  6
CONTINUOUS
 10
-11.1927960689
 20
25.1618140235
 11
-10.705152716
 21
24.8813538103
  0
LINE
  5
51F
100
AcDbEntity
  8
0
100
AcDbLine
 62
7
  6
CONTINUOUS
 10
-10.6546029562
 20
24.9105406081
 11
-11.1422455037
 21
25.1910012863
  0
LINE
  5
520
100
AcDbEntity
  8
0
100
AcDbLine
 62
7
  6
CONTINUOUS
 10
-10.5240626246
 20
24.7773654651
 11
-10.0362386841
 21
24.4966257428
  0
LINE
  5
521
100
AcDbEntity
  8
0
100
AcDbLine
 62
7
  6
CONTINUOUS
 10
-9.9856901491
 20
24.5258118334
 11
-10.4735131544
 21
24.8065520956
  0
LINE
  5
522
100
AcDbEntity
  8
0
100
AcDbLine
 62
7
  6
CONTINUOUS
 10
-9.5627449508
 20
24.2238147397
 11
-9.0755435115
 21
23.9431802096
  0
LINE
  5
523
100
AcDbEntity
  8
0
100
AcDbLine
 62
7
  6
CONTINUOUS
 10
-9.0249971771
 20
23.9723650296
 11
-9.5121974595
 21
24.2530002277
  0
LINE
  5
524
100
AcDbEntity
  8
0
100
AcDbLine
 62
7
  6
CONTINUOUS
 10
-8.1058126469
 20
23.3842231163
 11
-7.6242037439
 21
23.1058549018
  0
LINE
  5
525
100
AcDbEntity
  8
0
100
AcDbLine
 62
7
  6
CONTINUOUS
 10
-7.5736590098
 20
23.1350387978
 11
-8.0552688952
 21
23.413406445
  0
LINE
  5
526
100
AcDbEntity
  8
0
100
AcDbLine
 62
7
  6
CONTINUOUS
 10
-6.5987779407
 20
22.5125637677
 11
-6.1282918268
 21
22.2401588123
  0
LINE
  5
527
100
AcDbEntity
  8
0
100
AcDbLine
 62
7
  6
CONTINUOUS
 10
-6.0777434724
 20
22.2693447986
 11
-6.548230612
 21
22.5417491618
  0
LINE
  5
528
100
AcDbEntity
  8
0
100
AcDbLine
 62
7
  6
CONTINUOUS
 10
-5.0061595419
 20
20.1562309885
 11
-4.7284372733
 21
19.9951762456
  0
LINE
  5
529
100
AcDbEntity
  8
0
100
AcDbLine
 62
7
  6
CONTINUOUS
 10
-4.6781045223
 20
20.0242377452
 11
-4.9558264486
 21
20.1852926858
  0
LWPOLYLINE
  5
52A
100
AcDbEntity
  8
RACCORDO
100
AcDbPolyline
 62
250
  6
CONTINUOUS
 90
12
 70
0
 10
12.2783532658
 20
10.9220609916
 10
12.2697418306
 20
10.9278205454
 10
12.2634213052
 20
10.9348687876
 10
12.2587047457
 20
10.9434963002
 10
12.2554168478
 20
10.9538624306
 10
12.2538513277
 20
10.9659021093
 10
12.2540678948
 20
10.9796709884
 10
12.2560392229
 20
10.9952178823
 10
12.2599730493
 20
11.0123768607
 10
12.2659545223
 20
11.0310919038
 10
12.2740102642
 20
11.0514531661
 10
12.284171129
 20
11.0734135563
  0
LINE
  5
52B
100
AcDbEntity
  8
RACCORDO
100
AcDbLine
 62
250
  6
CONTINUOUS
 10
-33.3330732477
 20
47.2277074868
 11
-32.7427683044
 21
46.8088180934
  0
LINE
  5
52C
100
AcDbEntity
  8
RACCORDO
100
AcDbLine
 62
250
  6
CONTINUOUS
 10
-33.9617607056
 20
47.6790859769
 11
-33.3330732477
 21
47.2277074868
  0
LINE
  5
52D
100
AcDbEntity
  8
RACCORDO
100
AcDbLine
 62
250
  6
CONTINUOUS
 10
-34.6302650036
 20
48.1650465132
 11
-33.9617607056
 21
47.6790859769
  0
LINE
  5
52E
100
AcDbEntity
  8
RACCORDO
100
AcDbLine
 62
250
  6
CONTINUOUS
 10
-33.8006312855
 20
48.3391401829
 11
-33.1609456098
 21
47.8739588034
  0
LINE
  5
52F
100
AcDbEntity
  8
RACCORDO
100
AcDbLine
 62
250
  6
CONTINUOUS
 10
-35.3391285195
 20
48.6871265173
 11
-34.6302650036
 21
48.1650465132
  0
LINE
  5
530
100
AcDbEntity
  8
RACCORDO
100
AcDbLine
 62
250
  6
CONTINUOUS
 10
-34.4802797387
 20
48.8398056725
 11
-33.8006312855
 21
48.3391401829
  0
LINE
  5
531
100
AcDbEntity
  8
RACCORDO
100
AcDbLine
 62
250
  6
CONTINUOUS
 10
-35.2013772475
 20
49.3780466572
 11
-34.4802797387
 21
48.8398056725
  0
LWPOLYLINE
  5
532
100
AcDbEntity
  8
RACCORDO
100
AcDbPolyline
 62
250
  6
CONTINUOUS
 90
3
 70
0
 10
-36.3577375734
 20
49.4479314038
 10
-36.0948683847
 20
49.2504918179
 10
-35.3391285195
 20
48.6871265173
  0
LINE
  5
533
100
AcDbEntity
  8
RACCORDO
100
AcDbLine
 62
250
  6
CONTINUOUS
 10
-35.9716684043
 20
49.9599818634
 11
-35.2013772475
 21
49.3780466572
  0
LWPOLYLINE
  5
534
100
AcDbEntity
  8
RACCORDO
100
AcDbPolyline
 62
7
  6
CONTINUOUS
 90
8
 70
0
 10
16.0642814152
 20
8.9000168379
 10
16.0248771841
 20
8.9546483809
 10
15.983402824
 20
9.0108543906
 10
15.9427864683
 20
9.0645917728
 10
15.9030331438
 20
9.1160121563
 10
15.8640685439
 20
9.1655045311
 10
15.8259480185
 20
9.2131032371
 10
15.8228880405
 20
9.2168567245
  0
LWPOLYLINE
  5
535
100
AcDbEntity
  8
RACCORDO
100
AcDbPolyline
 62
250
  6
CONTINUOUS
 90
3
 70
0
 10
16.7077715748
 20
8.607402514
 10
16.6716623143
 20
8.6874970423
 10
16.5839198107
 20
8.8707553176
  0
LWPOLYLINE
  5
536
100
AcDbEntity
  8
RACCORDO
100
AcDbPolyline
 62
7
  6
CONTINUOUS
 90
8
 70
0
 10
15.5041923811
 20
9.3642777974
 10
15.506461403
 20
9.3588281214
 10
15.5285537959
 20
9.3102124079
 10
15.5524030105
 20
9.2619012715
 10
15.5779360043
 20
9.2139912832
 10
15.6048034473
 20
9.1671153565
 10
15.6328888961
 20
9.1214844625
 10
15.6552870682
 20
9.0875316755
  0
LINE
  5
537
100
AcDbEntity
  8
RACCORDO
100
AcDbLine
 62
250
  6
CONTINUOUS
 10
22.0809143399
 20
-47.8976309942
 11
22.1905088683
 21
-48.6260720321
  0
LWPOLYLINE
  5
538
100
AcDbEntity
  8
RACCORDO
100
AcDbPolyline
 62
7
  6
CONTINUOUS
 90
19
 70
0
 10
22.070430022
 20
-48.4949723368
 10
22.0832638632
 20
-48.58458117
 10
22.0988530362
 20
-48.7286367898
 10
22.1076655374
 20
-48.8690711395
 10
22.1096535049
 20
-49.0054810384
 10
22.1048053204
 20
-49.1374119005
 10
22.0931572735
 20
-49.2643153544
 10
22.0747815691
 20
-49.3857925626
 10
22.0497791343
 20
-49.5015088766
 10
22.018302265
 20
-49.6110240384
 10
21.9805470027
 20
-49.713989705
 10
21.9366761454
 20
-49.8102553207
 10
21.8868075292
 20
-49.8997527628
 10
21.8311866417
 20
-49.982241974
 10
21.7698712108
 20
-50.0577856329
 10
21.7025227805
 20
-50.1267748905
 10
21.6289234852
 20
-50.189233068
 10
21.549128303
 20
-50.244900295
 10
21.5313768009
 20
-50.2558396198
  0
LWPOLYLINE
  5
539
100
AcDbEntity
  8
RACCORDO
100
AcDbPolyline
 62
250
  6
CONTINUOUS
 90
22
 70
0
 10
22.1905088683
 20
-48.6260720321
 10
22.2101203822
 20
-48.7758344936
 10
22.2235973663
 20
-48.9203098497
 10
22.2309524587
 20
-49.0594873474
 10
22.2321006534
 20
-49.1928499158
 10
22.2271518915
 20
-49.3208934104
 10
22.2164171874
 20
-49.4451214014
 10
22.1999561996
 20
-49.5663025115
 10
22.1777510156
 20
-49.6836325993
 10
22.1499967964
 20
-49.7962556616
 10
22.1169089644
 20
-49.9037179292
 10
22.0782989141
 20
-50.0064503546
 10
22.0337561849
 20
-50.1049236592
 10
21.9833654639
 20
-50.1994496591
 10
21.927085274
 20
-50.2896797738
 10
21.864323284
 20
-50.3750878553
 10
21.794805969
 20
-50.4559508631
 10
21.7188552435
 20
-50.5319506664
 10
21.6367618193
 20
-50.6016770878
 10
21.5486247612
 20
-50.66465823
 10
21.4543645457
 20
-50.7213493642
 10
21.3539920683
 20
-50.7717412202
  0
LWPOLYLINE
  5
53A
100
AcDbEntity
  8
RACCORDO
100
AcDbPolyline
 62
250
  6
CONTINUOUS
 90
20
 70
0
 10
21.6094401201
 20
-47.1321203051
 10
21.6330786458
 20
-47.3207932803
 10
21.6477552087
 20
-47.5030241336
 10
21.6537383752
 20
-47.6785794839
 10
21.6513361367
 20
-47.846618428
 10
21.6408653337
 20
-48.0076574871
 10
21.622368869
 20
-48.1633433778
 10
21.5957917115
 20
-48.3139692218
 10
21.56125513
 20
-48.4585363535
 10
21.5188600562
 20
-48.5965906928
 10
21.4687474806
 20
-48.7278157144
 10
21.4110415366
 20
-48.8520016463
 10
21.3458663987
 20
-48.9689047931
 10
21.2733944236
 20
-49.0782914182
 10
21.1937945264
 20
-49.1799637501
 10
21.1072056346
 20
-49.2737581557
 10
21.0138294668
 20
-49.3594936818
 10
20.9138687432
 20
-49.4370130724
 10
20.8074764084
 20
-49.5062081157
 10
20.7623825957
 20
-49.5319574985
  0
LINE
  5
53B
100
AcDbEntity
  8
RACCORDO
100
AcDbLine
 62
250
  6
CONTINUOUS
 10
21.0075415602
 20
-36.2478963113
 11
21.0392590245
 21
-36.9929431022
  0
LINE
  5
53C
100
AcDbEntity
  8
RACCORDO
100
AcDbLine
 62
250
  6
CONTINUOUS
 10
20.9818622968
 20
-35.5601266487
 11
21.0075415602
 21
-36.2478963113
  0
LINE
  5
53D
100
AcDbEntity
  8
RACCORDO
100
AcDbLine
 62
250
  6
CONTINUOUS
 10
20.9517784245
 20
-34.617695528
 11
20.9818622968
 21
-35.5601266487
  0
LINE
  5
53E
100
AcDbEntity
  8
RACCORDO
100
AcDbLine
 62
250
  6
CONTINUOUS
 10
20.9282575293
 20
-33.7358893104
 11
20.9517784245
 21
-34.617695528
  0
LWPOLYLINE
  5
53F
100
AcDbEntity
  8
RACCORDO
100
AcDbPolyline
 62
250
  6
CONTINUOUS
 90
26
 70
0
 10
20.3607056131
 20
-32.5770781782
 10
20.374229761
 20
-33.1569679287
 10
20.3895130377
 20
-33.736300797
 10
20.4065554376
 20
-34.3149713743
 10
20.4259607421
 20
-34.891976193
 10
20.4477688354
 20
-35.4671297802
 10
20.4719398333
 20
-36.0406176089
 10
20.4989578649
 20
-36.6119926313
 10
20.5288799873
 20
-37.1809662956
 10
20.5616491435
 20
-37.7478271536
 10
20.5975782911
 20
-38.312993814
 10
20.6367631622
 20
-38.8768779796
 10
20.6791080247
 20
-39.4390679475
 10
20.7246386399
 20
-39.9987472178
 10
20.773152313
 20
-40.5537703739
 10
20.8248517387
 20
-41.1062828323
 10
20.8803707628
 20
-41.6619043435
 10
20.9394407375
 20
-42.2194945501
 10
21.0023303104
 20
-42.7801938094
 10
21.0704792699
 20
-43.3530429431
 10
21.1437475303
 20
-43.9385091305
 10
21.2222751771
 20
-44.5361251922
 10
21.3079222551
 20
-45.1535304122
 10
21.401308779
 20
-45.7932712183
 10
21.501814734
 20
-46.4528011826
 10
21.6094401201
 20
-47.1321203051
  0
LINE
  5
540
100
AcDbEntity
  8
RACCORDO
100
AcDbLine
 62
250
  6
CONTINUOUS
 10
20.9028002158
 20
-32.5701807862
 11
20.9282575293
 21
-33.7358893104
  0
LINE
  5
541
100
AcDbEntity
  8
RACCORDO
100
AcDbLine
 62
250
  6
CONTINUOUS
 10
20.3383308878
 20
-31.4159990445
 11
20.3607056131
 21
-32.5770781782
  0
LINE
  5
542
100
AcDbEntity
  8
RACCORDO
100
AcDbLine
 62
250
  6
CONTINUOUS
 10
20.8729129632
 20
-30.7832506299
 11
20.9028002158
 21
-32.5701807862
  0
LINE
  5
543
100
AcDbEntity
  8
RACCORDO
100
AcDbLine
 62
250
  6
CONTINUOUS
 10
20.3204181645
 20
-30.2559544624
 11
20.3383308878
 21
-31.4159990445
  0
LINE
  5
544
100
AcDbEntity
  8
RACCORDO
100
AcDbLine
 62
250
  6
CONTINUOUS
 10
20.299932691
 20
-28.5113241348
 11
20.3204181645
 21
-30.2559544624
  0
LINE
  5
545
100
AcDbEntity
  8
RACCORDO
100
AcDbLine
 62
250
  6
CONTINUOUS
 10
20.8449130371
 20
-28.4180618904
 11
20.8729129632
 21
-30.7832506299
  0
LINE
  5
546
100
AcDbEntity
  8
RACCORDO
100
AcDbLine
 62
250
  6
CONTINUOUS
 10
20.2811312202
 20
-26.1749303539
 11
20.299932691
 21
-28.5113241348
  0
LINE
  5
547
100
AcDbEntity
  8
RACCORDO
100
AcDbLine
 62
250
  6
CONTINUOUS
 10
20.8211146557
 20
-25.1906581504
 11
20.8449130371
 21
-28.4180618904
  0
LINE
  5
548
100
AcDbEntity
  8
RACCORDO
100
AcDbLine
 62
250
  6
CONTINUOUS
 10
19.6448389166
 20
-24.4673003892
 11
19.6806663859
 21
-29.1308580449
  0
LINE
  5
549
100
AcDbEntity
  8
RACCORDO
100
AcDbLine
 62
250
  6
CONTINUOUS
 10
20.2671436807
 20
-23.2769626304
 11
20.2811312202
 21
-26.1749303539
  0
LINE
  5
54A
100
AcDbEntity
  8
RACCORDO
100
AcDbLine
 62
250
  6
CONTINUOUS
 10
20.8104931956
 20
-22.305562999
 11
20.8211146557
 21
-25.1906581504
  0
LINE
  5
54B
100
AcDbEntity
  8
RACCORDO
100
AcDbLine
 62
250
  6
CONTINUOUS
 10
19.6355845602
 20
-21.5229306451
 11
19.6448389166
 21
-24.4673003892
  0
LINE
  5
54C
100
AcDbEntity
  8
RACCORDO
100
AcDbLine
 62
250
  6
CONTINUOUS
 10
20.2614622439
 20
-20.2297895504
 11
20.2671436807
 21
-23.2769626304
  0
LWPOLYLINE
  5
54D
100
AcDbEntity
  8
RACCORDO
100
AcDbPolyline
 62
7
  6
CONTINUOUS
 90
16
 70
0
 10
20.6724774696
 20
-19.23549585
 10
20.673373344
 20
-21.4529631809
 10
20.6789368902
 20
-23.6956582852
 10
20.6897241365
 20
-25.897420386
 10
20.7060575212
 20
-28.0580046217
 10
20.7292486947
 20
-30.1767192102
 10
20.7618609159
 20
-32.2521151351
 10
20.8086157561
 20
-34.2814249426
 10
20.8764213541
 20
-36.2600628789
 10
20.9706197616
 20
-38.1840550427
 10
21.0934441107
 20
-40.0511890516
 10
21.2442340093
 20
-41.8611302068
 10
21.42100628
 20
-43.6144398527
 10
21.6210071998
 20
-45.3124328925
 10
21.841251782
 20
-46.9568602044
 10
22.0704211713
 20
-48.494915748
  0
LINE
  5
54E
100
AcDbEntity
  8
RACCORDO
100
AcDbLine
 62
250
  6
CONTINUOUS
 10
20.8115795838
 20
-15.9898477219
 11
20.8104931956
 21
-22.305562999
  0
LINE
  5
54F
100
AcDbEntity
  8
RACCORDO
100
AcDbLine
 62
250
  6
CONTINUOUS
 10
19.642231712
 20
-13.9833331878
 11
19.6355845602
 21
-21.5229306451
  0
LINE
  5
550
100
AcDbEntity
  8
RACCORDO
100
AcDbLine
 62
250
  6
CONTINUOUS
 10
20.824157865
 20
-13.0157733219
 11
20.8115795838
 21
-15.9898477219
  0
LINE
  5
551
100
AcDbEntity
  8
RACCORDO
100
AcDbLine
 62
250
  6
CONTINUOUS
 10
20.2905411597
 20
-10.295360439
 11
20.2614622439
 21
-20.2297895504
  0
LINE
  5
552
100
AcDbEntity
  8
RACCORDO
100
AcDbLine
 62
250
  6
CONTINUOUS
 10
19.6648639188
 20
-10.2939670649
 11
19.642231712
 21
-13.9833331878
  0
LINE
  5
553
100
AcDbEntity
  8
RACCORDO
100
AcDbLine
 62
250
  6
CONTINUOUS
 10
20.8408498424
 20
-10.7455527907
 11
20.824157865
 21
-13.0157733219
  0
LINE
  5
554
100
AcDbEntity
  8
RACCORDO
100
AcDbLine
 62
250
  6
CONTINUOUS
 10
20.8584804053
 20
-9.0224379462
 11
20.8408498424
 21
-10.7455527907
  0
LINE
  5
555
100
AcDbEntity
  8
RACCORDO
100
AcDbLine
 62
250
  6
CONTINUOUS
 10
19.6882056432
 20
-8.0526095058
 11
19.6648639188
 21
-10.2939670649
  0
LINE
  5
556
100
AcDbEntity
  8
RACCORDO
100
AcDbLine
 62
250
  6
CONTINUOUS
 10
20.3172399632
 20
-7.7168315741
 11
20.2905411597
 21
-10.295360439
  0
LINE
  5
557
100
AcDbEntity
  8
RACCORDO
100
AcDbLine
 62
250
  6
CONTINUOUS
 10
20.8819661467
 20
-7.2936375889
 11
20.8584804053
 21
-9.0224379462
  0
LINE
  5
558
100
AcDbEntity
  8
RACCORDO
100
AcDbLine
 62
250
  6
CONTINUOUS
 10
20.3394898502
 20
-6.2270502113
 11
20.3172399632
 21
-7.7168315741
  0
LINE
  5
559
100
AcDbEntity
  8
RACCORDO
100
AcDbLine
 62
250
  6
CONTINUOUS
 10
19.7159882424
 20
-6.1967128028
 11
19.6882056432
 21
-8.0526095058
  0
LINE
  5
55A
100
AcDbEntity
  8
RACCORDO
100
AcDbLine
 62
250
  6
CONTINUOUS
 10
20.9016964869
 20
-6.1410912731
 11
20.8819661467
 21
-7.2936375889
  0
LINE
  5
55B
100
AcDbEntity
  8
RACCORDO
100
AcDbLine
 62
250
  6
CONTINUOUS
 10
20.3614628809
 20
-5.0796732067
 11
20.3394898502
 21
-6.2270502113
  0
LINE
  5
55C
100
AcDbEntity
  8
RACCORDO
100
AcDbLine
 62
250
  6
CONTINUOUS
 10
19.7385779031
 20
-5.0443875016
 11
19.7159882424
 21
-6.1967128028
  0
LINE
  5
55D
100
AcDbEntity
  8
RACCORDO
100
AcDbLine
 62
250
  6
CONTINUOUS
 10
20.9259176435
 20
-4.986330136
 11
20.9016964869
 21
-6.1410912731
  0
LINE
  5
55E
100
AcDbEntity
  8
RACCORDO
100
AcDbLine
 62
250
  6
CONTINUOUS
 10
20.3876871271
 20
-3.9847232933
 11
20.3614628809
 21
-5.0796732067
  0
LINE
  5
55F
100
AcDbEntity
  8
RACCORDO
100
AcDbLine
 62
250
  6
CONTINUOUS
 10
19.765337511
 20
-3.9479164893
 11
19.7385779031
 21
-5.0443875016
  0
LINE
  5
560
100
AcDbEntity
  8
RACCORDO
100
AcDbLine
 62
250
  6
CONTINUOUS
 10
20.4173212329
 20
-2.9814997888
 11
20.3876871271
 21
-3.9847232933
  0
LINE
  5
561
100
AcDbEntity
  8
RACCORDO
100
AcDbLine
 62
250
  6
CONTINUOUS
 10
19.7953964352
 20
-2.9438365236
 11
19.765337511
 21
-3.9479164893
  0
LINE
  5
562
100
AcDbEntity
  8
RACCORDO
100
AcDbLine
 62
250
  6
CONTINUOUS
 10
20.4502004071
 20
-2.0577059122
 11
20.4173212329
 21
-2.9814997888
  0
LINE
  5
563
100
AcDbEntity
  8
RACCORDO
100
AcDbLine
 62
250
  6
CONTINUOUS
 10
19.8286417267
 20
-2.0174106913
 11
19.7953964352
 21
-2.9438365236
  0
LINE
  5
564
100
AcDbEntity
  8
RACCORDO
100
AcDbLine
 62
250
  6
CONTINUOUS
 10
19.8658724641
 20
-1.1329998847
 11
19.8286417267
 21
-2.0174106913
  0
LINE
  5
565
100
AcDbEntity
  8
RACCORDO
100
AcDbLine
 62
250
  6
CONTINUOUS
 10
20.48708677
 20
-1.1780344118
 11
20.4502004071
 21
-2.0577059122
  0
LINE
  5
566
100
AcDbEntity
  8
RACCORDO
100
AcDbLine
 62
250
  6
CONTINUOUS
 10
19.8934347603
 20
-0.5523497907
 11
19.8658724641
 21
-1.1329998847
  0
LINE
  5
567
100
AcDbEntity
  8
RACCORDO
100
AcDbLine
 62
250
  6
CONTINUOUS
 10
20.5144485235
 20
-0.6013262481
 11
20.48708677
 21
-1.1780344118
  0
LINE
  5
568
100
AcDbEntity
  8
RACCORDO
100
AcDbLine
 62
250
  6
CONTINUOUS
 10
19.9234634367
 20
0.0258786528
 11
19.8934347603
 21
-0.5523497907
  0
LINE
  5
569
100
AcDbEntity
  8
RACCORDO
100
AcDbLine
 62
250
  6
CONTINUOUS
 10
20.5442837737
 20
-0.0274504946
 11
20.5144485235
 21
-0.6013262481
  0
LINE
  5
56A
100
AcDbEntity
  8
RACCORDO
100
AcDbLine
 62
250
  6
CONTINUOUS
 10
19.9561484894
 20
0.6043136366
 11
19.9234634367
 21
0.0258786528
  0
LINE
  5
56B
100
AcDbEntity
  8
RACCORDO
100
AcDbLine
 62
250
  6
CONTINUOUS
 10
20.5768154118
 20
0.5464833762
 11
20.5442837737
 21
-0.0274504946
  0
LWPOLYLINE
  5
56C
100
AcDbEntity
  8
RACCORDO
100
AcDbPolyline
 62
250
  6
CONTINUOUS
 90
12
 70
0
 10
21.2303310006
 20
7.0327398507
 10
21.2289325235
 20
7.0088453546
 10
21.2290294983
 20
6.9861156309
 10
21.2306210726
 20
6.9647493376
 10
21.2336933312
 20
6.944933215
 10
21.2382194175
 20
6.9268404533
 10
21.2441597687
 20
6.9106291795
 10
21.2514624611
 20
6.896441076
 10
21.2600636647
 20
6.8844001413
 10
21.2698882017
 20
6.8746116063
 10
21.2808502016
 20
6.8671610173
 10
21.2875233014
 20
6.8640054708
  0
LINE
  5
56D
100
AcDbEntity
  8
RACCORDO
100
AcDbLine
 62
250
  6
CONTINUOUS
 10
19.9915931202
 20
1.1841976037
 11
19.9561484894
 21
0.6043136366
  0
LINE
  5
56E
100
AcDbEntity
  8
RACCORDO
100
AcDbLine
 62
250
  6
CONTINUOUS
 10
20.6121484725
 20
1.1215816031
 11
20.5768154118
 21
0.5464833762
  0
LINE
  5
56F
100
AcDbEntity
  8
RACCORDO
100
AcDbLine
 62
250
  6
CONTINUOUS
 10
20.0299429388
 20
1.7671353734
 11
19.9915931202
 21
1.1841976037
  0
LINE
  5
570
100
AcDbEntity
  8
RACCORDO
100
AcDbLine
 62
250
  6
CONTINUOUS
 10
20.6504200666
 20
1.6993644652
 11
20.6121484725
 21
1.1215816031
  0
LINE
  5
571
100
AcDbEntity
  8
RACCORDO
100
AcDbLine
 62
250
  6
CONTINUOUS
 10
20.0714764402
 20
2.3561982689
 11
20.0299429388
 21
1.7671353734
  0
LINE
  5
572
100
AcDbEntity
  8
RACCORDO
100
AcDbLine
 62
250
  6
CONTINUOUS
 10
20.6918825277
 20
2.2827054381
 11
20.6504200666
 21
1.6993644652
  0
LINE
  5
573
100
AcDbEntity
  8
RACCORDO
100
AcDbLine
 62
250
  6
CONTINUOUS
 10
20.1166226953
 20
2.9557618805
 11
20.0714764402
 21
2.3561982689
  0
LINE
  5
574
100
AcDbEntity
  8
RACCORDO
100
AcDbLine
 62
250
  6
CONTINUOUS
 10
20.736995468
 20
2.8759522677
 11
20.6918825277
 21
2.2827054381
  0
LWPOLYLINE
  5
575
100
AcDbEntity
  8
RACCORDO
100
AcDbPolyline
 62
250
  6
CONTINUOUS
 90
15
 70
0
 10
21.3574226786
 20
3.6762933042
 10
21.3167913758
 20
3.156922907
 10
21.2764858284
 20
2.6158842098
 10
21.2373081279
 20
2.0603933853
 10
21.1993887828
 20
1.4896277667
 10
21.1629580864
 20
0.9046184513
 10
21.1287637021
 20
0.3152443489
 10
21.0969281996
 20
-0.2771846191
 10
21.0673952769
 20
-0.8739400921
 10
21.0404221927
 20
-1.4691438029
 10
21.0159666331
 20
-2.0614177155
 10
20.993834432
 20
-2.6522764771
 10
20.9739239088
 20
-3.2402566161
 10
20.9561094644
 20
-3.8246623167
 10
20.9259176435
 20
-4.986330136
  0
LWPOLYLINE
  5
576
100
AcDbEntity
  8
RACCORDO
100
AcDbPolyline
 62
7
  6
CONTINUOUS
 90
12
 70
0
 10
21.2971466368
 20
4.6916779993
 10
21.1375341285
 20
2.7043866752
 10
21.0048187836
 20
0.6803676778
 10
20.9007332561
 20
-1.3787503289
 10
20.824492964
 20
-3.4725260216
 10
20.7716953575
 20
-5.6026355287
 10
20.7353286188
 20
-7.7726251128
 10
20.7096502184
 20
-9.9858487776
 10
20.6916925959
 20
-12.2440878018
 10
20.6797634517
 20
-14.5484064071
 10
20.6735436494
 20
-16.8989756094
 10
20.6724774007
 20
-19.2355977615
  0
LINE
  5
577
100
AcDbEntity
  8
RACCORDO
100
AcDbLine
 62
250
  6
CONTINUOUS
 10
20.1657415981
 20
3.5686524756
 11
20.1166226953
 21
2.9557618805
  0
LINE
  5
578
100
AcDbEntity
  8
RACCORDO
100
AcDbLine
 62
250
  6
CONTINUOUS
 10
20.7860864961
 20
3.4818688662
 11
20.736995468
 21
2.8759522677
  0
LINE
  5
579
100
AcDbEntity
  8
RACCORDO
100
AcDbLine
 62
250
  6
CONTINUOUS
 10
21.4375610592
 20
4.6363685243
 11
21.3574226786
 21
3.6762933042
  0
LINE
  5
57A
100
AcDbEntity
  8
RACCORDO
100
AcDbLine
 62
250
  6
CONTINUOUS
 10
20.2193806001
 20
4.1991768629
 11
20.1657415981
 21
3.5686524756
  0
LINE
  5
57B
100
AcDbEntity
  8
RACCORDO
100
AcDbLine
 62
250
  6
CONTINUOUS
 10
20.8396898413
 20
4.104671638
 11
20.7860864961
 21
3.4818688662
  0
LINE
  5
57C
100
AcDbEntity
  8
RACCORDO
100
AcDbLine
 62
250
  6
CONTINUOUS
 10
20.2781526381
 20
4.8513419397
 11
20.2193806001
 21
4.1991768629
  0
LINE
  5
57D
100
AcDbEntity
  8
RACCORDO
100
AcDbLine
 62
250
  6
CONTINUOUS
 10
21.5197215891
 20
5.5499099472
 11
21.4375610592
 21
4.6363685243
  0
LINE
  5
57E
100
AcDbEntity
  8
RACCORDO
100
AcDbLine
 62
250
  6
CONTINUOUS
 10
20.8984811178
 20
4.7484573698
 11
20.8396898413
 21
4.104671638
  0
LINE
  5
57F
100
AcDbEntity
  8
RACCORDO
100
AcDbLine
 62
250
  6
CONTINUOUS
 10
20.342593009
 20
5.5279162277
 11
20.2781526381
 21
4.8513419397
  0
LINE
  5
580
100
AcDbEntity
  8
RACCORDO
100
AcDbLine
 62
250
  6
CONTINUOUS
 10
21.6040949796
 20
6.428944936
 11
21.5197215891
 21
5.5499099472
  0
LINE
  5
581
100
AcDbEntity
  8
RACCORDO
100
AcDbLine
 62
250
  6
CONTINUOUS
 10
20.9629282562
 20
5.4158859593
 11
20.8984811178
 21
4.7484573698
  0
LINE
  5
582
100
AcDbEntity
  8
RACCORDO
100
AcDbLine
 62
7
  6
CONTINUOUS
 10
21.4738128353
 20
6.5706092583
 11
21.4738169325
 21
6.5706501985
  0
LWPOLYLINE
  5
583
100
AcDbEntity
  8
RACCORDO
100
AcDbPolyline
 62
250
  6
CONTINUOUS
 90
3
 70
0
 10
20.4515105195
 20
6.5975979498
 10
20.4135314991
 20
6.2338688898
 10
20.342593009
 20
5.5279162277
  0
LWPOLYLINE
  5
584
100
AcDbEntity
  8
RACCORDO
100
AcDbPolyline
 62
250
  6
CONTINUOUS
 90
3
 70
0
 10
21.0718640534
 20
6.4698962518
 10
21.0339498391
 20
6.1116831896
 10
20.9629282562
 20
5.4158859593
  0
LWPOLYLINE
  5
585
100
AcDbEntity
  8
RACCORDO
100
AcDbPolyline
 62
250
  6
CONTINUOUS
 90
6
 70
0
 10
7.7777248393
 20
-33.8809511618
 10
7.7851986131
 20
-33.8621590084
 10
7.7944312125
 20
-33.8446287024
 10
7.8053132561
 20
-33.8285679109
 10
7.8177158211
 20
-33.8141668958
 10
7.8314919686
 20
-33.8015962582
  0
LWPOLYLINE
  5
586
100
AcDbEntity
  8
RACCORDO
100
AcDbPolyline
 62
7
  6
CONTINUOUS
 90
11
 70
0
 10
18.6508985598
 20
22.9652715124
 10
18.614698807
 20
22.9635658734
 10
18.5790019886
 20
22.9598690483
 10
18.5439489574
 20
22.9542764089
 10
18.5095898203
 20
22.946984511
 10
18.4761508675
 20
22.9380318452
 10
18.4440417876
 20
22.9272808028
 10
18.4133205193
 20
22.9148138858
 10
18.3842152282
 20
22.9008239223
 10
18.3573758467
 20
22.8853607389
 10
18.3495232713
 20
22.8802520451
  0
LWPOLYLINE
  5
587
100
AcDbEntity
  8
0
100
AcDbPolyline
 62
7
  6
CONTINUOUS
 90
12
 70
0
 10
-4.4586014247
 20
19.9598900371
 10
-4.478522703
 20
19.9598433435
 10
-4.4985256518
 20
19.9612054671
 10
-4.5185222354
 20
19.9639600466
 10
-4.5386013017
 20
19.9681229743
 10
-4.558658477
 20
19.973344944
 10
-4.5786678429
 20
19.9795826287
 10
-4.5986557005
 20
19.9868791345
 10
-4.6185958546
 20
19.9950148919
 10
-4.6384796138
 20
20.0039166877
 10
-4.6583158217
 20
20.0136576473
 10
-4.6781045223
 20
20.0242377451
  0
LWPOLYLINE
  5
588
100
AcDbEntity
  8
RACCORDO
100
AcDbPolyline
 62
7
  6
CONTINUOUS
 90
5
 70
0
 10
-34.9838362346
 20
39.3573533847
 10
-34.988112767
 20
39.3592145313
 10
-34.9902208883
 20
39.3603143211
 10
-34.988351261
 20
39.3589545088
 10
-34.9860443066
 20
39.3571220833
  0
LINE
  5
589
100
AcDbEntity
  8
RACCORDO
100
AcDbLine
 62
250
  6
CONTINUOUS
 10
24.5817802469
 20
14.8456187418
 11
25.6931927091
 21
14.3554638987
  0
LINE
  5
58A
100
AcDbEntity
  8
RACCORDO
100
AcDbLine
 62
250
  6
CONTINUOUS
 10
24.2874908906
 20
14.2863104836
 11
25.3998425781
 21
13.7898786286
  0
LINE
  5
58B
100
AcDbEntity
  8
RACCORDO
100
AcDbLine
 62
250
  6
CONTINUOUS
 10
23.5424482396
 20
15.3104003944
 11
24.5817802469
 21
14.8456187418
  0
LINE
  5
58C
100
AcDbEntity
  8
RACCORDO
100
AcDbLine
 62
250
  6
CONTINUOUS
 10
23.2468749806
 20
14.7569321591
 11
24.2874908906
 21
14.2863104836
  0
LINE
  5
58D
100
AcDbEntity
  8
RACCORDO
100
AcDbLine
 62
250
  6
CONTINUOUS
 10
22.5724093332
 20
15.7507864452
 11
23.5424482396
 21
15.3104003944
  0
LINE
  5
58E
100
AcDbEntity
  8
RACCORDO
100
AcDbLine
 62
250
  6
CONTINUOUS
 10
22.2753672113
 20
15.2027867094
 11
23.2468749806
 21
14.7569321591
  0
LINE
  5
58F
100
AcDbEntity
  8
RACCORDO
100
AcDbLine
 62
250
  6
CONTINUOUS
 10
21.6609364585
 20
16.1706940829
 11
22.5724093332
 21
15.7507864452
  0
LINE
  5
590
100
AcDbEntity
  8
RACCORDO
100
AcDbLine
 62
250
  6
CONTINUOUS
 10
21.3624573848
 20
15.6277878199
 11
22.2753672113
 21
15.2027867094
  0
LINE
  5
591
100
AcDbEntity
  8
RACCORDO
100
AcDbLine
 62
250
  6
CONTINUOUS
 10
20.8075447934
 20
16.5694064744
 11
21.6609364585
 21
16.1706940829
  0
LINE
  5
592
100
AcDbEntity
  8
RACCORDO
100
AcDbLine
 62
250
  6
CONTINUOUS
 10
20.5075575293
 20
16.0312975531
 11
21.3624573848
 21
15.6277878199
  0
LWPOLYLINE
  5
593
100
AcDbEntity
  8
RACCORDO
100
AcDbPolyline
 62
250
  6
CONTINUOUS
 90
37
 70
0
 10
25.3998425781
 20
13.7898786286
 10
25.5989600857
 20
13.6955455517
 10
25.7930372894
 20
13.5946076238
 10
25.9821055227
 20
13.4870829461
 10
26.1654567415
 20
13.3732375853
 10
26.3438632123
 20
13.252842575
 10
26.5195836078
 20
13.1251774365
 10
26.6936985547
 20
12.9897589792
 10
26.8652091695
 20
12.8471176158
 10
27.0332560592
 20
12.6980539654
 10
27.1978508221
 20
12.5425574642
 10
27.3590511662
 20
12.3806787135
 10
27.5160540201
 20
12.213302661
 10
27.6688335317
 20
12.0404651107
 10
27.8174667829
 20
11.8621598535
 10
27.961290364
 20
11.6792003036
 10
28.1002669036
 20
11.4916759449
 10
28.2344639599
 20
11.2995147321
 10
28.3633619994
 20
11.1032799764
 10
28.4869732495
 20
10.903041936
 10
28.6052959911
 20
10.6987364234
 10
28.7177783843
 20
10.4907185035
 10
28.8245123373
 20
10.2788957082
 10
28.9253986469
 20
10.0633562914
 10
29.0195856924
 20
9.8447188258
 10
29.1071492252
 20
9.6227121792
 10
29.1879835514
 20
9.3975901864
 10
29.2609444756
 20
9.1707470825
 10
29.3259561643
 20
8.9419656545
 10
29.3830323462
 20
8.7114272383
 10
29.4311374588
 20
8.4811090394
 10
29.4700773033
 20
8.2509300327
 10
29.4999546153
 20
8.0209184064
 10
29.5201567956
 20
7.7932022234
 10
29.5304401426
 20
7.5684680187
 10
29.5309415032
 20
7.3459675289
 10
29.5216115035
 20
7.1256722315
  0
LINE
  5
594
100
AcDbEntity
  8
RACCORDO
100
AcDbLine
 62
250
  6
CONTINUOUS
 10
20.0110277571
 20
16.9469856782
 11
20.8075447934
 21
16.5694064744
  0
LWPOLYLINE
  5
595
100
AcDbEntity
  8
RACCORDO
100
AcDbPolyline
 62
250
  6
CONTINUOUS
 90
37
 70
0
 10
25.6931927091
 20
14.3554638987
 10
25.9070970675
 20
14.2536091254
 10
26.1163072098
 20
14.1433500268
 10
26.3204807608
 20
14.0253705389
 10
26.5181839678
 20
13.9010330568
 10
26.7102838052
 20
13.7703850147
 10
26.8998732455
 20
13.6317323322
 10
27.0877408658
 20
13.4845128592
 10
27.2724764377
 20
13.3297502755
 10
27.4538134897
 20
13.1677671105
 10
27.6314558477
 20
12.9988748751
 10
27.8051172273
 20
12.8233832395
 10
27.9745530293
 20
12.6416289063
 10
28.1394526519
 20
12.4540000817
 10
28.2995782206
 20
12.260792584
 10
28.4547938082
 20
12.0622066226
 10
28.604778741
 20
11.8586970728
 10
28.7493271997
 20
11.6505275847
 10
28.8884455293
 20
11.4375900788
 10
29.0218309559
 20
11.2203298926
 10
29.149232927
 20
10.9990352766
 10
29.2706615617
 20
10.7733327688
 10
29.3858560925
 20
10.5435413215
 10
29.4944358009
 20
10.3101171749
 10
29.5961428056
 20
10.0728875042
 10
29.6907247252
 20
9.8320675118
 10
29.777717312
 20
9.5883275229
 10
29.8565238388
 20
9.3422036084
 10
29.9268596457
 20
9.0940389158
 10
29.9883562013
 20
8.844511204
 10
30.0403794481
 20
8.5946771576
 10
30.0826831172
 20
8.3450249683
 10
30.1150557038
 20
8.0961537949
 10
30.1370758089
 20
7.8492617289
 10
30.1485702111
 20
7.6050844674
 10
30.1495277842
 20
7.3639247131
 10
30.1398751912
 20
7.126297762
  0
LINE
  5
596
100
AcDbEntity
  8
RACCORDO
100
AcDbLine
 62
250
  6
CONTINUOUS
 10
19.7093407656
 20
16.4133674876
 11
20.5075575293
 21
16.0312975531
  0
LINE
  5
597
100
AcDbEntity
  8
RACCORDO
100
AcDbLine
 62
250
  6
CONTINUOUS
 10
19.2697387353
 20
17.3036411062
 11
20.0110277571
 21
16.9469856782
  0
LINE
  5
598
100
AcDbEntity
  8
RACCORDO
100
AcDbLine
 62
250
  6
CONTINUOUS
 10
18.9661240094
 20
16.7742822698
 11
19.7093407656
 21
16.4133674876
  0
LINE
  5
599
100
AcDbEntity
  8
RACCORDO
100
AcDbLine
 62
250
  6
CONTINUOUS
 10
18.5816604808
 20
17.6398011755
 11
19.2697387353
 21
17.3036411062
  0
LINE
  5
59A
100
AcDbEntity
  8
RACCORDO
100
AcDbLine
 62
250
  6
CONTINUOUS
 10
18.2759759195
 20
17.1145027426
 11
18.9661240094
 21
16.7742822698
  0
LINE
  5
59B
100
AcDbEntity
  8
RACCORDO
100
AcDbLine
 62
250
  6
CONTINUOUS
 10
17.6375424707
 20
17.4341640671
 11
18.2759759195
 21
17.1145027426
  0
LINE
  5
59C
100
AcDbEntity
  8
RACCORDO
100
AcDbLine
 62
250
  6
CONTINUOUS
 10
17.0491276834
 20
17.7334880146
 11
17.6375424707
 21
17.4341640671
  0
LINE
  5
59D
100
AcDbEntity
  8
RACCORDO
100
AcDbLine
 62
250
  6
CONTINUOUS
 10
16.5089573463
 20
18.0126716747
 11
17.0491276834
 21
17.7334880146
  0
LINE
  5
59E
100
AcDbEntity
  8
RACCORDO
100
AcDbLine
 62
250
  6
CONTINUOUS
 10
16.0151468733
 20
18.2719557571
 11
16.5089573463
 21
18.0126716747
  0
LINE
  5
59F
100
AcDbEntity
  8
RACCORDO
100
AcDbLine
 62
250
  6
CONTINUOUS
 10
15.5648004045
 20
18.5120808609
 11
16.0151468733
 21
18.2719557571
  0
LINE
  5
5A0
100
AcDbEntity
  8
RACCORDO
100
AcDbLine
 62
250
  6
CONTINUOUS
 10
15.1530873708
 20
18.7348816483
 11
15.5648004045
 21
18.5120808609
  0
LINE
  5
5A1
100
AcDbEntity
  8
RACCORDO
100
AcDbLine
 62
250
  6
CONTINUOUS
 10
14.7766554899
 20
18.9415252017
 11
15.1530873708
 21
18.7348816483
  0
LINE
  5
5A2
100
AcDbEntity
  8
RACCORDO
100
AcDbLine
 62
250
  6
CONTINUOUS
 10
14.4303324566
 20
19.1342438736
 11
14.7766554899
 21
18.9415252017
  0
LINE
  5
5A3
100
AcDbEntity
  8
RACCORDO
100
AcDbLine
 62
250
  6
CONTINUOUS
 10
14.1096439674
 20
19.3150279357
 11
14.4303324566
 21
19.1342438736
  0
LINE
  5
5A4
100
AcDbEntity
  8
RACCORDO
100
AcDbLine
 62
250
  6
CONTINUOUS
 10
13.8129970768
 20
19.4843779209
 11
14.1096439674
 21
19.3150279357
  0
LINE
  5
5A5
100
AcDbEntity
  8
RACCORDO
100
AcDbLine
 62
250
  6
CONTINUOUS
 10
-25.7883302019
 20
42.3468946802
 11
4.555237057
 21
24.8278183215
  0
LINE
  5
5A6
100
AcDbEntity
  8
RACCORDO
100
AcDbLine
 62
250
  6
CONTINUOUS
 10
4.555237057
 20
24.8278183215
 11
13.0506187729
 21
19.9217581523
  0
LINE
  5
5A7
100
AcDbEntity
  8
RACCORDO
100
AcDbLine
 62
250
  6
CONTINUOUS
 10
-26.902584377
 20
42.9957409829
 11
-26.5436676576
 21
42.7858113854
  0
LINE
  5
5A8
100
AcDbEntity
  8
RACCORDO
100
AcDbLine
 62
250
  6
CONTINUOUS
 10
-26.5595438002
 20
43.4823417295
 11
-26.2025466217
 21
43.2711547647
  0
LINE
  5
5A9
100
AcDbEntity
  8
RACCORDO
100
AcDbLine
 62
250
  6
CONTINUOUS
 10
-27.2320895996
 20
43.1912482297
 11
-26.902584377
 21
42.9957409829
  0
LINE
  5
5AA
100
AcDbEntity
  8
RACCORDO
100
AcDbLine
 62
250
  6
CONTINUOUS
 10
-26.886830499
 20
43.6785058771
 11
-26.5595438002
 21
43.4823417295
  0
LINE
  5
5AB
100
AcDbEntity
  8
RACCORDO
100
AcDbLine
 62
250
  6
CONTINUOUS
 10
-27.542191954
 20
43.3776448047
 11
-27.2320895996
 21
43.1912482297
  0
LINE
  5
5AC
100
AcDbEntity
  8
RACCORDO
100
AcDbLine
 62
250
  6
CONTINUOUS
 10
-27.1949301801
 20
43.8654013226
 11
-26.886830499
 21
43.6785058771
  0
LINE
  5
5AD
100
AcDbEntity
  8
RACCORDO
100
AcDbLine
 62
250
  6
CONTINUOUS
 10
-27.8477670893
 20
43.5635749016
 11
-27.542191954
 21
43.3776448047
  0
LINE
  5
5AE
100
AcDbEntity
  8
RACCORDO
100
AcDbLine
 62
250
  6
CONTINUOUS
 10
-27.4985591955
 20
44.0517184116
 11
-27.1949301801
 21
43.8654013226
  0
LINE
  5
5AF
100
AcDbEntity
  8
RACCORDO
100
AcDbLine
 62
250
  6
CONTINUOUS
 10
-28.1609930254
 20
43.7564513963
 11
-27.8477670893
 21
43.5635749016
  0
LINE
  5
5B0
100
AcDbEntity
  8
RACCORDO
100
AcDbLine
 62
250
  6
CONTINUOUS
 10
-27.8097733869
 20
44.2448859657
 11
-27.4985591955
 21
44.0517184116
  0
LINE
  5
5B1
100
AcDbEntity
  8
RACCORDO
100
AcDbLine
 62
250
  6
CONTINUOUS
 10
-28.4889125617
 20
43.9608205922
 11
-28.1609930254
 21
43.7564513963
  0
LINE
  5
5B2
100
AcDbEntity
  8
RACCORDO
100
AcDbLine
 62
250
  6
CONTINUOUS
 10
-28.1355874993
 20
44.4494876209
 11
-27.8097733869
 21
44.2448859657
  0
LINE
  5
5B3
100
AcDbEntity
  8
RACCORDO
100
AcDbLine
 62
250
  6
CONTINUOUS
 10
-28.834660518
 20
44.1789549442
 11
-28.4889125617
 21
43.9608205922
  0
LINE
  5
5B4
100
AcDbEntity
  8
RACCORDO
100
AcDbLine
 62
250
  6
CONTINUOUS
 10
-28.4791573706
 20
44.6678434031
 11
-28.1355874993
 21
44.4494876209
  0
LINE
  5
5B5
100
AcDbEntity
  8
RACCORDO
100
AcDbLine
 62
250
  6
CONTINUOUS
 10
-29.1993821574
 20
44.4119397909
 11
-28.834660518
 21
44.1789549442
  0
LINE
  5
5B6
100
AcDbEntity
  8
RACCORDO
100
AcDbLine
 62
250
  6
CONTINUOUS
 10
-28.8416568097
 20
44.9010850596
 11
-28.4791573706
 21
44.6678434031
  0
LINE
  5
5B7
100
AcDbEntity
  8
RACCORDO
100
AcDbLine
 62
250
  6
CONTINUOUS
 10
-29.5836304515
 20
44.6605008127
 11
-29.1993821574
 21
44.4119397909
  0
LINE
  5
5B8
100
AcDbEntity
  8
RACCORDO
100
AcDbLine
 62
250
  6
CONTINUOUS
 10
-29.2236632463
 20
45.1499822689
 11
-28.8416568097
 21
44.9010850596
  0
LINE
  5
5B9
100
AcDbEntity
  8
RACCORDO
100
AcDbLine
 62
250
  6
CONTINUOUS
 10
-29.988075155
 20
44.9254415508
 11
-29.5836304515
 21
44.6605008127
  0
LINE
  5
5BA
100
AcDbEntity
  8
RACCORDO
100
AcDbLine
 62
250
  6
CONTINUOUS
 10
-29.6258617256
 20
45.4153793871
 11
-29.2236632463
 21
45.1499822689
  0
LINE
  5
5BB
100
AcDbEntity
  8
RACCORDO
100
AcDbLine
 62
250
  6
CONTINUOUS
 10
-30.4137741715
 20
45.2078229142
 11
-29.988075155
 21
44.9254415508
  0
LINE
  5
5BC
100
AcDbEntity
  8
RACCORDO
100
AcDbLine
 62
250
  6
CONTINUOUS
 10
-30.0493226179
 20
45.6983774134
 11
-29.6258617256
 21
45.4153793871
  0
LINE
  5
5BD
100
AcDbEntity
  8
RACCORDO
100
AcDbLine
 62
250
  6
CONTINUOUS
 10
-30.8623142074
 20
45.5090640183
 11
-30.4137741715
 21
45.2078229142
  0
LINE
  5
5BE
100
AcDbEntity
  8
RACCORDO
100
AcDbLine
 62
250
  6
CONTINUOUS
 10
-30.4956438284
 20
46.0004361706
 11
-30.0493226179
 21
45.6983774134
  0
LINE
  5
5BF
100
AcDbEntity
  8
RACCORDO
100
AcDbLine
 62
250
  6
CONTINUOUS
 10
-31.3358837732
 20
45.8310163122
 11
-30.8623142074
 21
45.5090640183
  0
LINE
  5
5C0
100
AcDbEntity
  8
RACCORDO
100
AcDbLine
 62
250
  6
CONTINUOUS
 10
-30.9670215214
 20
46.3234428578
 11
-30.4956438284
 21
46.0004361706
  0
LINE
  5
5C1
100
AcDbEntity
  8
RACCORDO
100
AcDbLine
 62
250
  6
CONTINUOUS
 10
-31.8372116481
 20
46.1759405368
 11
-31.3358837732
 21
45.8310163122
  0
LINE
  5
5C2
100
AcDbEntity
  8
RACCORDO
100
AcDbLine
 62
250
  6
CONTINUOUS
 10
-31.4661926036
 20
46.6696916912
 11
-30.9670215214
 21
46.3234428578
  0
LINE
  5
5C3
100
AcDbEntity
  8
RACCORDO
100
AcDbLine
 62
250
  6
CONTINUOUS
 10
-32.3693669679
 20
46.5463840424
 11
-31.8372116481
 21
46.1759405368
  0
LINE
  5
5C4
100
AcDbEntity
  8
RACCORDO
100
AcDbLine
 62
250
  6
CONTINUOUS
 10
-32.7427683044
 20
46.8088180934
 11
-32.3693669679
 21
46.5463840424
  0
LINE
  5
5C5
100
AcDbEntity
  8
RACCORDO
100
AcDbLine
 62
250
  6
CONTINUOUS
 10
-31.9962272842
 20
47.0417547518
 11
-31.4661926036
 21
46.6696916912
  0
LINE
  5
5C6
100
AcDbEntity
  8
RACCORDO
100
AcDbLine
 62
250
  6
CONTINUOUS
 10
-32.5602136159
 20
47.442310475
 11
-31.9962272842
 21
47.0417547518
  0
LINE
  5
5C7
100
AcDbEntity
  8
RACCORDO
100
AcDbLine
 62
250
  6
CONTINUOUS
 10
-33.1609456098
 20
47.8739588034
 11
-32.5602136159
 21
47.442310475
  0
LWPOLYLINE
  5
5C8
100
AcDbEntity
  8
RACCORDO
100
AcDbPolyline
 62
250
  6
CONTINUOUS
 90
20
 70
0
 10
30.1398751912
 20
-50.2856182852
 10
30.1492522444
 20
-50.4938519833
 10
30.1490249293
 20
-50.6943832542
 10
30.139598618
 20
-50.887066039
 10
30.1214528935
 20
-51.0708046592
 10
30.0950140037
 20
-51.2465966671
 10
30.0602483828
 20
-51.4171929431
 10
30.0169974195
 20
-51.5831880751
 10
29.9654765696
 20
-51.7432904705
 10
29.9058705373
 20
-51.8971355486
 10
29.8382847908
 20
-52.044432755
 10
29.7628316126
 20
-52.1849147772
 10
29.6797266863
 20
-52.318272323
 10
29.5891397992
 20
-52.4442219479
 10
29.4911932919
 20
-52.5625696812
 10
29.3860347332
 20
-52.6731408554
 10
29.2739073319
 20
-52.7756413527
 10
29.1549043594
 20
-52.869936791
 10
29.0289078509
 20
-52.9560223622
 10
28.8954527557
 20
-53.0339737786
  0
LWPOLYLINE
  5
5C9
100
AcDbEntity
  8
RACCORDO
100
AcDbPolyline
 62
250
  6
CONTINUOUS
 90
37
 70
0
 10
29.5216115035
 20
-50.3526501475
 10
29.5301439864
 20
-50.5429168964
 10
29.5304127459
 20
-50.726074322
 10
29.5224496613
 20
-50.9020953006
 10
29.5061777581
 20
-51.0702083782
 10
29.4817374777
 20
-51.2311310094
 10
29.4494924953
 20
-51.387064607
 10
29.4095137537
 20
-51.538980719
 10
29.3618112823
 20
-51.685838904
 10
29.306658862
 20
-51.8268213359
 10
29.2440510162
 20
-51.9618660387
 10
29.1740631877
 20
-52.0909754592
 10
29.0970790372
 20
-52.2134381885
 10
29.0131199049
 20
-52.3291805502
 10
28.9222187419
 20
-52.4382300283
 10
28.8247631665
 20
-52.5400384051
 10
28.7208392336
 20
-52.6345492098
 10
28.6103962112
 20
-52.7217888597
 10
28.4936048843
 20
-52.8013433837
 10
28.3705722861
 20
-52.8732417956
 10
28.2412106946
 20
-52.9374386512
 10
28.1053898439
 20
-52.9934158808
 10
27.9630526246
 20
-53.0412780442
 10
27.8142606507
 20
-53.0809167491
 10
27.6590497199
 20
-53.1115047249
 10
27.4970992552
 20
-53.1330570484
 10
27.328710398
 20
-53.1455751794
 10
27.1548271152
 20
-53.1482321891
 10
26.9751672327
 20
-53.140880452
 10
26.7899523293
 20
-53.1237191499
 10
26.6008492724
 20
-53.0964694119
 10
26.407830045
 20
-53.0590042948
 10
26.2108261034
 20
-53.0115328983
 10
26.0114180582
 20
-52.9543020851
 10
25.8100918517
 20
-52.8874289651
 10
25.6062502374
 20
-52.8108911289
 10
25.3998425781
 20
-52.7247316602
  0
LWPOLYLINE
  5
5CA
100
AcDbEntity
  8
RACCORDO
100
AcDbPolyline
 62
250
  6
CONTINUOUS
 90
12
 70
0
 10
29.0616966499
 20
-41.9516654738
 10
29.0868955064
 20
-42.6098585601
 10
29.1147416281
 20
-43.286936583
 10
29.1454261998
 20
-43.9835273093
 10
29.179072416
 20
-44.6987354897
 10
29.2160943715
 20
-45.4362677202
 10
29.2566934113
 20
-46.1963835478
 10
29.3010157139
 20
-46.978527743
 10
29.3494365751
 20
-47.7851473421
 10
29.4022291862
 20
-48.6169320227
 10
29.4595395075
 20
-49.4728354817
 10
29.5216115035
 20
-50.3526501475
  0
LWPOLYLINE
  5
5CB
100
AcDbEntity
  8
RACCORDO
100
AcDbPolyline
 62
250
  6
CONTINUOUS
 90
14
 70
0
 10
29.6029744736
 20
-40.6132380199
 10
29.6253726318
 20
-41.2448493599
 10
29.6499928514
 20
-41.8895255864
 10
29.6768618484
 20
-42.5471437503
 10
29.7067123555
 20
-43.223530519
 10
29.7395314938
 20
-43.9194770712
 10
29.7753321424
 20
-44.6341922281
 10
29.8148856709
 20
-45.371129121
 10
29.8581782721
 20
-46.1307237898
 10
29.9052237532
 20
-46.9125401945
 10
29.9568349065
 20
-47.7187233454
 10
30.0132826626
 20
-48.5499882458
 10
30.0742960908
 20
-49.4056198924
 10
30.1398751912
 20
-50.2856182852
  0
LINE
  5
5CC
100
AcDbEntity
  8
RACCORDO
100
AcDbLine
 62
250
  6
CONTINUOUS
 10
29.0177732739
 20
-40.6739888925
 11
29.0616966499
 21
-41.9516654738
  0
LINE
  5
5CD
100
AcDbEntity
  8
RACCORDO
100
AcDbLine
 62
250
  6
CONTINUOUS
 10
29.5642719042
 20
-39.3826456379
 11
29.6029744736
 21
-40.6132380199
  0
LINE
  5
5CE
100
AcDbEntity
  8
RACCORDO
100
AcDbLine
 62
250
  6
CONTINUOUS
 10
28.9814175011
 20
-39.4420779728
 11
29.0177732739
 21
-40.6739888925
  0
LINE
  5
5CF
100
AcDbEntity
  8
RACCORDO
100
AcDbLine
 62
250
  6
CONTINUOUS
 10
29.5318743688
 20
-38.1777418465
 11
29.5642719042
 21
-39.3826456379
  0
LINE
  5
5D0
100
AcDbEntity
  8
RACCORDO
100
AcDbLine
 62
250
  6
CONTINUOUS
 10
28.9506844051
 20
-38.235963675
 11
28.9814175011
 21
-39.4420779728
  0
LINE
  5
5D1
100
AcDbEntity
  8
RACCORDO
100
AcDbLine
 62
250
  6
CONTINUOUS
 10
29.5042154119
 20
-36.9863062805
 11
29.5318743688
 21
-38.1777418465
  0
LINE
  5
5D2
100
AcDbEntity
  8
RACCORDO
100
AcDbLine
 62
250
  6
CONTINUOUS
 10
28.9121163014
 20
-36.4505768295
 11
28.9506844051
 21
-38.235963675
  0
LINE
  5
5D3
100
AcDbEntity
  8
RACCORDO
100
AcDbLine
 62
250
  6
CONTINUOUS
 10
28.8700878793
 20
-34.0832933693
 11
28.9121163014
 21
-36.4505768295
  0
LINE
  5
5D4
100
AcDbEntity
  8
RACCORDO
100
AcDbLine
 62
250
  6
CONTINUOUS
 10
28.8346260936
 20
-31.6992572944
 11
28.8700878793
 21
-34.0832933693
  0
LINE
  5
5D5
100
AcDbEntity
  8
RACCORDO
100
AcDbLine
 62
250
  6
CONTINUOUS
 10
28.8054099853
 20
-29.2301371143
 11
28.8346260936
 21
-31.6992572944
  0
LINE
  5
5D6
100
AcDbEntity
  8
RACCORDO
100
AcDbLine
 62
250
  6
CONTINUOUS
 10
28.7884563015
 20
-27.2639737068
 11
28.8054099853
 21
-29.2301371143
  0
LWPOLYLINE
  5
5D7
100
AcDbEntity
  8
RACCORDO
100
AcDbPolyline
 62
250
  6
CONTINUOUS
 90
3
 70
0
 10
28.7746197077
 20
-24.4219908026
 10
28.7770177306
 20
-25.1611703167
 10
28.7884563015
 20
-27.2639737068
  0
LWPOLYLINE
  5
5D8
100
AcDbEntity
  8
RACCORDO
100
AcDbPolyline
 62
250
  6
CONTINUOUS
 90
16
 70
0
 10
20.2614800785
 20
-18.8991715464
 10
20.2274300558
 20
-18.9164865497
 10
20.1907980527
 20
-18.9319478776
 10
20.1518859823
 20
-18.9454280688
 10
20.1110145499
 20
-18.9568159785
 10
20.068520609
 20
-18.9660177445
 10
20.0247543858
 20
-18.972957561
 10
19.9800765923
 20
-18.9775782372
 10
19.9348554534
 20
-18.979841668
 10
19.889463672
 20
-18.9797291987
 10
19.8442753576
 20
-18.9772417788
 10
19.7996629425
 20
-18.9723999038
 10
19.7559941127
 20
-18.965243446
 10
19.7136287773
 20
-18.9558313928
 10
19.6729161023
 20
-18.9442413606
 10
19.6341916328
 20
-18.9305689045
  0
LINE
  5
5D9
100
AcDbEntity
  8
RACCORDO
100
AcDbLine
 62
250
  6
CONTINUOUS
 10
17.9455189419
 20
17.9556592592
 11
18.5816604808
 21
17.6398011755
  0
LINE
  5
5DA
100
AcDbEntity
  8
RACCORDO
100
AcDbLine
 62
250
  6
CONTINUOUS
 10
17.3595001773
 20
18.2514046059
 11
17.9455189419
 21
17.9556592592
  0
LINE
  5
5DB
100
AcDbEntity
  8
RACCORDO
100
AcDbLine
 62
250
  6
CONTINUOUS
 10
16.8216246543
 20
18.5271664415
 11
17.3595001773
 21
18.2514046059
  0
LINE
  5
5DC
100
AcDbEntity
  8
RACCORDO
100
AcDbLine
 62
250
  6
CONTINUOUS
 10
16.3301389816
 20
18.7832617364
 11
16.8216246543
 21
18.5271664415
  0
LINE
  5
5DD
100
AcDbEntity
  8
RACCORDO
100
AcDbLine
 62
250
  6
CONTINUOUS
 10
15.8820336026
 20
19.0203194425
 11
16.3301389816
 21
18.7832617364
  0
LINE
  5
5DE
100
AcDbEntity
  8
RACCORDO
100
AcDbLine
 62
250
  6
CONTINUOUS
 10
15.472430746
 20
19.2400949599
 11
15.8820336026
 21
19.0203194425
  0
LINE
  5
5DF
100
AcDbEntity
  8
RACCORDO
100
AcDbLine
 62
250
  6
CONTINUOUS
 10
15.0981061479
 20
19.4438059204
 11
15.472430746
 21
19.2400949599
  0
LINE
  5
5E0
100
AcDbEntity
  8
RACCORDO
100
AcDbLine
 62
250
  6
CONTINUOUS
 10
14.7537947962
 20
19.6335777813
 11
15.0981061479
 21
19.4438059204
  0
LINE
  5
5E1
100
AcDbEntity
  8
RACCORDO
100
AcDbLine
 62
250
  6
CONTINUOUS
 10
14.434807799
 20
19.8114510061
 11
14.7537947962
 21
19.6335777813
  0
LINE
  5
5E2
100
AcDbEntity
  8
RACCORDO
100
AcDbLine
 62
250
  6
CONTINUOUS
 10
14.1396918314
 20
19.978049056
 11
14.434807799
 21
19.8114510061
  0
LINE
  5
5E3
100
AcDbEntity
  8
DRAFT
100
AcDbLine
 62
7
  6
CONTINUOUS
 10
-21.922266191
 20
45.0149790204
 11
17.0393174524
 21
22.5190489281
  0
LINE
  5
5E4
100
AcDbEntity
  8
ASSI
100
AcDbLine
 62
7
  6
CONTINUOUS
 10
-21.1179026402
 20
44.7628815243
 11
17.6190937865
 21
22.3966252761
  0
LINE
  5
5E5
100
AcDbEntity
  8
RACCORDO
100
AcDbLine
 62
7
  6
CONTINUOUS
 10
16.8159130921
 20
23.3060985023
 11
-18.6023494058
 21
43.7561452405
  0
LINE
  5
5E6
100
AcDbEntity
  8
RACCORDO
100
AcDbLine
 62
250
  6
CONTINUOUS
 10
16.7896639305
 20
23.3278360797
 11
-18.620690447
 21
43.7733309013
  0
LINE
  5
5E7
100
AcDbEntity
  8
RACCORDO
100
AcDbLine
 62
7
  6
CONTINUOUS
 10
18.0848645371
 20
22.7050484929
 11
-21.1342335777
 21
45.3496642137
  0
LINE
  5
5E8
100
AcDbEntity
  8
RACCORDO
100
AcDbLine
 62
7
  6
CONTINUOUS
 10
-18.594441347
 20
43.7515933594
 11
-18.5944677518
 21
43.7516086106
  0
LINE
  5
5E9
100
AcDbEntity
  8
RACCORDO
100
AcDbLine
 62
250
  6
CONTINUOUS
 10
-25.4554182335
 20
42.8317420707
 11
13.383503175
 21
20.4065762081
  0
LWPOLYLINE
  5
5EA
100
AcDbEntity
  8
RACCORDO
100
AcDbPolyline
 62
7
  6
CONTINUOUS
 90
20
 70
0
 10
16.8159292087
 20
23.3060891988
 10
16.8460182159
 20
23.2885172369
 10
16.8916136558
 20
23.2611622329
 10
16.9401243624
 20
23.2311569856
 10
16.9912873513
 20
23.1985815443
 10
17.044627491
 20
23.1636447486
 10
17.099843192
 20
23.1264377515
 10
17.1566526247
 20
23.0870550621
 10
17.2145634195
 20
23.0457344536
 10
17.2732640883
 20
23.0025808961
 10
17.3323800989
 20
22.9577490727
 10
17.3913372633
 20
22.9115632205
 10
17.4498378521
 20
22.8641420506
 10
17.5075599452
 20
22.8156192593
 10
17.5639367176
 20
22.7663711663
 10
17.6187155025
 20
22.7165234911
 10
17.6716452339
 20
22.6661953512
 10
17.7222146362
 20
22.6158053657
 10
17.7702432278
 20
22.5654829344
 10
17.8091270865
 20
22.5224611763
  0
LINE
  5
5EB
100
AcDbEntity
  8
RACCORDO
100
AcDbLine
 62
250
  6
CONTINUOUS
 10
16.8390624318
 20
23.2988770268
 11
16.7896639305
 21
23.3278360797
  0
LINE
  5
5EC
100
AcDbEntity
  8
RACCORDO
100
AcDbLine
 62
250
  6
CONTINUOUS
 10
16.8902241729
 20
23.2679042938
 11
16.8390624318
 21
23.2988770268
  0
LWPOLYLINE
  5
5ED
100
AcDbEntity
  8
RACCORDO
100
AcDbPolyline
 62
7
  6
CONTINUOUS
 90
23
 70
0
 10
-21.0776958939
 20
45.3160340467
 10
-21.0222174262
 20
45.2807063705
 10
-20.9678164802
 20
45.2436927259
 10
-20.9145097661
 20
45.205004557
 10
-20.8623160936
 20
45.1646553087
 10
-20.8112563825
 20
45.1226603963
 10
-20.7613476593
 20
45.0790338702
 10
-20.7126061896
 20
45.0337900735
 10
-20.6650512332
 20
44.9869456511
 10
-20.6186987152
 20
44.9385163793
 10
-20.5735637307
 20
44.8885182163
 10
-20.5296638182
 20
44.8369687619
 10
-20.4870137136
 20
44.7838853401
 10
-20.4456274189
 20
44.7292855162
 10
-20.4055209416
 20
44.6731878363
 10
-20.3667077875
 20
44.6156110328
 10
-20.3292008863
 20
44.5565742678
 10
-20.2930149686
 20
44.496097265
 10
-20.2581623117
 20
44.4342001297
 10
-20.2246547118
 20
44.370903567
 10
-20.1925057439
 20
44.3062287308
 10
-20.1617271865
 20
44.240197182
 10
-20.1445758114
 20
44.2008948119
  0
LWPOLYLINE
  5
5EE
100
AcDbEntity
  8
RACCORDO
100
AcDbPolyline
 62
7
  6
CONTINUOUS
 90
10
 70
0
 10
-21.1342335777
 20
45.3496642137
 10
-21.1476064274
 20
45.3586585618
 10
-21.1597158313
 20
45.3695557153
 10
-21.1704657275
 20
45.3822906236
 10
-21.1797984905
 20
45.396830729
 10
-21.1875980839
 20
45.4130421578
 10
-21.1937358299
 20
45.4306427318
 10
-21.1981826224
 20
45.4494108554
 10
-21.2009634888
 20
45.4692346124
 10
-21.2020908939
 20
45.489945903
  0
LWPOLYLINE
  5
5EF
100
AcDbEntity
  8
RACCORDO
100
AcDbPolyline
 62
250
  6
CONTINUOUS
 90
3
 70
0
 10
-18.5944677518
 20
43.7516086106
 10
-18.6070720628
 20
43.7602330913
 10
-18.620690447
 20
43.7733309013
  0
LWPOLYLINE
  5
5F0
100
AcDbEntity
  8
RACCORDO
100
AcDbPolyline
 62
250
  6
CONTINUOUS
 90
18
 70
0
 10
17.8194398151
 20
22.5292900399
 10
17.8114515511
 20
22.5381303689
 10
17.7576418536
 20
22.5943111752
 10
17.7013649589
 20
22.6500602483
 10
17.6438444131
 20
22.7044150607
 10
17.5852210034
 20
22.7573743493
 10
17.5255160363
 20
22.8091220089
 10
17.4658010031
 20
22.8590097485
 10
17.406513375
 20
22.9068405189
 10
17.3473612447
 20
22.9529873706
 10
17.2883179153
 20
22.9976546049
 10
17.229240741
 20
23.0410664291
 10
17.1703687774
 20
23.0831205221
 10
17.1122382143
 20
23.123520542
 10
17.0547585503
 20
23.1623818608
 10
16.9980901634
 20
23.1996807343
 10
16.9431404485
 20
23.2349061492
 10
16.8902241729
 20
23.2679042938
  0
LINE
  5
5F1
100
AcDbEntity
  8
RACCORDO
100
AcDbLine
 62
250
  6
CONTINUOUS
 10
29.4694207878
 20
-35.2107360756
 11
29.5042154119
 21
-36.9863062805
  0
LINE
  5
5F2
100
AcDbEntity
  8
RACCORDO
100
AcDbLine
 62
250
  6
CONTINUOUS
 10
29.4216226565
 20
-32.2455173503
 11
29.4694207878
 21
-35.2107360756
  0
LINE
  5
5F3
100
AcDbEntity
  8
RACCORDO
100
AcDbLine
 62
250
  6
CONTINUOUS
 10
29.3899799827
 20
-29.8065382466
 11
29.4216226565
 21
-32.2455173503
  0
LINE
  5
5F4
100
AcDbEntity
  8
RACCORDO
100
AcDbLine
 62
250
  6
CONTINUOUS
 10
29.3710369818
 20
-27.8799405371
 11
29.3899799827
 21
-29.8065382466
  0
LINE
  5
5F5
100
AcDbEntity
  8
RACCORDO
100
AcDbLine
 62
250
  6
CONTINUOUS
 10
29.3613068712
 20
-26.5279651409
 11
29.3710369818
 21
-27.8799405371
  0
LINE
  5
5F6
100
AcDbEntity
  8
RACCORDO
100
AcDbLine
 62
250
  6
CONTINUOUS
 10
29.3522892795
 20
-24.3723036931
 11
29.3613068712
 21
-26.5279651409
  0
LINE
  5
5F7
100
AcDbEntity
  8
RACCORDO
100
AcDbLine
 62
250
  6
CONTINUOUS
 10
28.7703747427
 20
-22.0693048459
 11
28.7746197077
 21
-24.4219908026
  0
LINE
  5
5F8
100
AcDbEntity
  8
RACCORDO
100
AcDbLine
 62
250
  6
CONTINUOUS
 10
29.3484344442
 20
-22.0208292216
 11
29.3522892795
 21
-24.3723036931
  0
LINE
  5
5F9
100
AcDbEntity
  8
RACCORDO
100
AcDbLine
 62
250
  6
CONTINUOUS
 10
29.3535754345
 20
-19.2421270885
 11
29.3484344442
 21
-22.0208292216
  0
LINE
  5
5FA
100
AcDbEntity
  8
RACCORDO
100
AcDbLine
 62
250
  6
CONTINUOUS
 10
28.7783460188
 20
-18.6414939647
 11
28.7703748423
 21
-22.0693046885
  0
LINE
  5
5FB
100
AcDbEntity
  8
RACCORDO
100
AcDbLine
 62
250
  6
CONTINUOUS
 10
29.3622069174
 20
-17.3508266826
 11
29.3535754345
 21
-19.2421270885
  0
LINE
  5
5FC
100
AcDbEntity
  8
RACCORDO
100
AcDbLine
 62
250
  6
CONTINUOUS
 10
28.7932703891
 20
-16.2174700756
 11
28.7783460188
 21
-18.6414939647
  0
LINE
  5
5FD
100
AcDbEntity
  8
RACCORDO
100
AcDbLine
 62
250
  6
CONTINUOUS
 10
29.3808512704
 20
-15.0541965613
 11
29.3622069174
 21
-17.3508266826
  0
LINE
  5
5FE
100
AcDbEntity
  8
RACCORDO
100
AcDbLine
 62
250
  6
CONTINUOUS
 10
28.8204726281
 20
-13.4924094678
 11
28.7932703891
 21
-16.2174700756
  0
LINE
  5
5FF
100
AcDbEntity
  8
RACCORDO
100
AcDbLine
 62
250
  6
CONTINUOUS
 10
29.412098728
 20
-12.3989202156
 11
29.3808512704
 21
-15.0541965613
  0
LINE
  5
600
100
AcDbEntity
  8
RACCORDO
100
AcDbLine
 62
250
  6
CONTINUOUS
 10
28.8641362259
 20
-10.3216650347
 11
28.8204726281
 21
-13.4924094678
  0
LINE
  5
601
100
AcDbEntity
  8
RACCORDO
100
AcDbLine
 62
250
  6
CONTINUOUS
 10
29.4608387981
 20
-9.1985564098
 11
29.412098728
 21
-12.3989202156
  0
LINE
  5
602
100
AcDbEntity
  8
RACCORDO
100
AcDbLine
 62
250
  6
CONTINUOUS
 10
28.9108952561
 20
-7.590763985
 11
28.8641362259
 21
-10.3216650347
  0
LINE
  5
603
100
AcDbEntity
  8
RACCORDO
100
AcDbLine
 62
250
  6
CONTINUOUS
 10
29.5018040016
 20
-6.9983453493
 11
29.4608387981
 21
-9.1985564098
  0
LINE
  5
604
100
AcDbEntity
  8
RACCORDO
100
AcDbLine
 62
250
  6
CONTINUOUS
 10
28.9454350999
 20
-5.9264668966
 11
28.9108952561
 21
-7.590763985
  0
LINE
  5
605
100
AcDbEntity
  8
RACCORDO
100
AcDbLine
 62
250
  6
CONTINUOUS
 10
29.5398730784
 20
-5.3338972652
 11
29.5018040016
 21
-6.9983453493
  0
LINE
  5
606
100
AcDbEntity
  8
RACCORDO
100
AcDbLine
 62
250
  6
CONTINUOUS
 10
28.9720901891
 20
-4.8127092334
 11
28.9454350999
 21
-5.9264668966
  0
LINE
  5
607
100
AcDbEntity
  8
RACCORDO
100
AcDbLine
 62
250
  6
CONTINUOUS
 10
29.0023046284
 20
-3.6965775488
 11
28.9720901891
 21
-4.8127092334
  0
LINE
  5
608
100
AcDbEntity
  8
RACCORDO
100
AcDbLine
 62
250
  6
CONTINUOUS
 10
29.5699359932
 20
-4.2211711625
 11
29.5398730784
 21
-5.3338972652
  0
LINE
  5
609
100
AcDbEntity
  8
RACCORDO
100
AcDbLine
 62
250
  6
CONTINUOUS
 10
29.0367446962
 20
-2.5774234555
 11
29.0023046284
 21
-3.6965775488
  0
LINE
  5
60A
100
AcDbEntity
  8
RACCORDO
100
AcDbLine
 62
250
  6
CONTINUOUS
 10
29.6042862711
 20
-3.1062038832
 11
29.5699359932
 21
-4.2211711625
  0
LINE
  5
60B
100
AcDbEntity
  8
RACCORDO
100
AcDbLine
 62
250
  6
CONTINUOUS
 10
29.0756945494
 20
-1.4551431146
 11
29.0367446962
 21
-2.5774234555
  0
LINE
  5
60C
100
AcDbEntity
  8
RACCORDO
100
AcDbLine
 62
250
  6
CONTINUOUS
 10
29.6435053731
 20
-1.98832784
 11
29.6042862711
 21
-3.1062038832
  0
LINE
  5
60D
100
AcDbEntity
  8
RACCORDO
100
AcDbLine
 62
250
  6
CONTINUOUS
 10
29.1193389351
 20
-0.3297390632
 11
29.0756945494
 21
-1.4551431146
  0
LINE
  5
60E
100
AcDbEntity
  8
RACCORDO
100
AcDbLine
 62
250
  6
CONTINUOUS
 10
29.6876707989
 20
-0.8675253076
 11
29.6435053731
 21
-1.98832784
  0
LINE
  5
60F
100
AcDbEntity
  8
RACCORDO
100
AcDbLine
 62
250
  6
CONTINUOUS
 10
29.1677195055
 20
0.7983858576
 11
29.1193389351
 21
-0.3297390632
  0
LINE
  5
610
100
AcDbEntity
  8
RACCORDO
100
AcDbLine
 62
250
  6
CONTINUOUS
 10
29.7368337739
 20
0.2561243606
 11
29.6876707989
 21
-0.8675253076
  0
LINE
  5
611
100
AcDbEntity
  8
RACCORDO
100
AcDbLine
 62
250
  6
CONTINUOUS
 10
29.2208360553
 20
1.9290582161
 11
29.1677195055
 21
0.7983858576
  0
LINE
  5
612
100
AcDbEntity
  8
RACCORDO
100
AcDbLine
 62
250
  6
CONTINUOUS
 10
29.7910051379
 20
1.3822552223
 11
29.7368337739
 21
0.2561243606
  0
LINE
  5
613
100
AcDbEntity
  8
RACCORDO
100
AcDbLine
 62
250
  6
CONTINUOUS
 10
29.2786175227
 20
3.0619717822
 11
29.2208360553
 21
1.9290582161
  0
LINE
  5
614
100
AcDbEntity
  8
RACCORDO
100
AcDbLine
 62
250
  6
CONTINUOUS
 10
29.8500989712
 20
2.510665464
 11
29.7910051379
 21
1.3822552223
  0
LINE
  5
615
100
AcDbEntity
  8
RACCORDO
100
AcDbLine
 62
250
  6
CONTINUOUS
 10
29.340828007
 20
4.1948345099
 11
29.2786175227
 21
3.0619717822
  0
LINE
  5
616
100
AcDbEntity
  8
RACCORDO
100
AcDbLine
 62
250
  6
CONTINUOUS
 10
29.9140665203
 20
3.6414121316
 11
29.8500989712
 21
2.510665464
  0
LINE
  5
617
100
AcDbEntity
  8
RACCORDO
100
AcDbLine
 62
250
  6
CONTINUOUS
 10
29.4078841959
 20
5.3361928798
 11
29.340828007
 21
4.1948345099
  0
LINE
  5
618
100
AcDbEntity
  8
RACCORDO
100
AcDbLine
 62
250
  6
CONTINUOUS
 10
29.9824292357
 20
4.769343385
 11
29.9140665203
 21
3.6414121316
  0
LWPOLYLINE
  5
619
100
AcDbEntity
  8
RACCORDO
100
AcDbPolyline
 62
250
  6
CONTINUOUS
 90
3
 70
0
 10
29.5216115035
 20
7.1256722315
 10
29.48194995
 20
6.519943202
 10
29.4078841959
 20
5.3361928798
  0
LINE
  5
61A
100
AcDbEntity
  8
RACCORDO
100
AcDbLine
 62
250
  6
CONTINUOUS
 10
30.0575069007
 20
5.928157386
 11
29.9824292357
 21
4.769343385
  0
LINE
  5
61B
100
AcDbEntity
  8
RACCORDO
100
AcDbLine
 62
250
  6
CONTINUOUS
 10
30.1398751912
 20
7.126297762
 11
30.0575069007
 21
5.928157386
  0
LWPOLYLINE
  5
61C
100
AcDbEntity
  8
RACCORDO
100
AcDbPolyline
 62
7
  6
CONTINUOUS
 90
3
 70
0
 10
8.0724070469
 20
-33.6821506918
 10
8.029085223
 20
-33.713787799
 10
8.0226650996
 20
-33.7178288299
  0
LINE
  5
61D
100
AcDbEntity
  8
RACCORDO
100
AcDbLine
 62
250
  6
CONTINUOUS
 10
7.8314919686
 20
-33.8015962582
 11
7.8464784896
 21
-33.7910049124
  0
LINE
  5
61E
100
AcDbEntity
  8
RACCORDO
100
AcDbLine
 62
7
  6
CONTINUOUS
 10
8.0247146904
 20
-33.7165529067
 11
8.0226558097
 21
-33.717833846
  0
LWPOLYLINE
  5
61F
100
AcDbEntity
  8
RACCORDO
100
AcDbPolyline
 62
250
  6
CONTINUOUS
 90
5
 70
0
 10
8.0226558097
 20
-33.717833846
 10
8.0112740234
 20
-33.7247028034
 10
7.9594035504
 20
-33.7518046196
 10
7.9044184483
 20
-33.773935368
 10
7.8464784895
 20
-33.7910049124
  0
LINE
  5
620
100
AcDbEntity
  8
RACCORDO
100
AcDbLine
 62
250
  6
CONTINUOUS
 10
8.0851273976
 20
-33.6787912916
 11
8.0658264476
 21
-33.6904022723
  0
LWPOLYLINE
  5
621
100
AcDbEntity
  8
RACCORDO
100
AcDbPolyline
 62
250
  6
CONTINUOUS
 90
15
 70
0
 10
7.7362137283
 20
-33.7811020919
 10
7.775544954
 20
-33.7576279208
 10
7.8279682601
 20
-33.7198780425
 10
7.8768776956
 20
-33.6766948049
 10
7.9221077713
 20
-33.6282243248
 10
7.9635054486
 20
-33.5746306047
 10
8.000930653
 20
-33.5160949828
 10
8.034256745
 20
-33.4528155283
 10
8.0633709553
 20
-33.3850063668
 10
8.0881747705
 20
-33.3128969472
 10
8.1085842644
 20
-33.2367312627
 10
8.1245303787
 20
-33.1567670326
 10
8.1359591575
 20
-33.0732748304
 10
8.1428319297
 20
-32.9865371682
 10
8.1451254405
 20
-32.8968475389
  0
LINE
  5
622
100
AcDbEntity
  8
RACCORDO
100
AcDbLine
 62
250
  6
CONTINUOUS
 10
8.2886640018
 20
-32.8168137965
 11
8.1451254405
 21
-32.8968475389
  0
LINE
  5
623
100
AcDbEntity
  8
DRAFT
100
AcDbLine
 62
7
  6
CONTINUOUS
 10
8.1946318539
 20
-33.5293258227
 11
7.7362137283
 21
-33.7811020919
  0
LWPOLYLINE
  5
624
100
AcDbEntity
  8
RACCORDO
100
AcDbPolyline
 62
250
  6
CONTINUOUS
 90
16
 70
0
 10
29.3484344442
 20
-22.0208292216
 10
29.3173538784
 20
-22.0368015489
 10
29.2840868694
 20
-22.0512267721
 10
29.2488634052
 20
-22.0640051996
 10
29.211927
 20
-22.07504854
 10
29.1735330143
 20
-22.0842804454
 10
29.13394689
 20
-22.0916370395
 10
29.0934423078
 20
-22.0970674492
 10
29.052299301
 20
-22.1005341546
 10
29.0108023236
 20
-22.1020131829
 10
28.9692382713
 20
-22.1014942742
 10
28.9278945055
 20
-22.098981019
 10
28.8870568735
 20
-22.0944908338
 10
28.8470077181
 20
-22.0880547526
 10
28.8080239264
 20
-22.0797172106
 10
28.7703750234
 20
-22.0695358051
  0
LWPOLYLINE
  5
625
100
AcDbEntity
  8
RACCORDO
100
AcDbPolyline
 62
7
  6
CONTINUOUS
 90
14
 70
0
 10
-25.1695601712
 20
23.5858802147
 10
-25.1153488407
 20
23.6006957351
 10
-25.0590684625
 20
23.6105902864
 10
-25.0008221817
 20
23.6156224952
 10
-24.9406546645
 20
23.6158236752
 10
-24.8787194952
 20
23.6112171383
 10
-24.8153285239
 20
23.6018575395
 10
-24.7508020674
 20
23.58783429
 10
-24.6853818038
 20
23.56926068
 10
-24.6193512331
 20
23.546280749
 10
-24.553074615
 20
23.5190983891
 10
-24.4868506155
 20
23.4879485693
 10
-24.4209118996
 20
23.4530569827
 10
-24.3803023025
 20
23.4296621076
  0
LWPOLYLINE
  5
626
100
AcDbEntity
  8
RACCORDO
100
AcDbPolyline
 62
7
  6
CONTINUOUS
 90
7
 70
0
 10
-27.6539080301
 20
33.2859624605
 10
-27.6600263828
 20
33.2859436678
 10
-27.6777452559
 20
33.2874895576
 10
-27.6955610824
 20
33.2913591012
 10
-27.7132800828
 20
33.2974481624
 10
-27.7308057135
 20
33.3056738858
 10
-27.7480062893
 20
33.3159291734
  0
LWPOLYLINE
  5
627
100
AcDbEntity
  8
RACCORDO
100
AcDbPolyline
 62
250
  6
CONTINUOUS
 90
20
 70
0
 10
-18.8174862997
 20
43.8776183823
 10
-18.8621722651
 20
43.8978819858
 10
-18.904332406
 20
43.9151538499
 10
-18.9441201659
 20
43.9293722905
 10
-18.9815038047
 20
43.9404402505
 10
-19.0155500174
 20
43.947699601
 10
-19.0462999075
 20
43.9509067824
 10
-19.0739039518
 20
43.9500664691
 10
-19.0975856813
 20
43.9449056366
 10
-19.117231267
 20
43.9351877603
 10
-19.1331545379
 20
43.920918341
 10
-19.1451787725
 20
43.902244042
 10
-19.1533263531
 20
43.8790713229
 10
-19.1577502703
 20
43.8513130853
 10
-19.1584192546
 20
43.8191903823
 10
-19.1553416123
 20
43.7825266064
 10
-19.1486566028
 20
43.7413685235
 10
-19.1384583716
 20
43.696355309
 10
-19.1247760064
 20
43.6477163896
 10
-19.1104278956
 20
43.6037907663
  0
LINE
  5
628
100
AcDbEntity
  8
RACCORDO
100
AcDbLine
 62
250
  6
CONTINUOUS
 10
-18.7709492576
 20
43.854944408
 11
-18.8174862997
 21
43.8776183823
  0
LWPOLYLINE
  5
629
100
AcDbEntity
  8
RACCORDO
100
AcDbPolyline
 62
250
  6
CONTINUOUS
 90
3
 70
0
 10
-18.6726880684
 20
43.8028650666
 10
-18.7227701158
 20
43.8300752574
 10
-18.7709492576
 20
43.854944408
  0
LINE
  5
62A
100
AcDbEntity
  8
RACCORDO
100
AcDbLine
 62
250
  6
CONTINUOUS
 10
-18.620690447
 20
43.7733309013
 11
-18.6726880684
 21
43.8028650666
  0
LINE
  5
62B
100
AcDbEntity
  8
RACCORDO
100
AcDbLine
 62
250
  6
CONTINUOUS
 10
18.6508985598
 20
22.9652715124
 11
-21.1949959406
 21
45.9717916105
  0
LWPOLYLINE
  5
62C
100
AcDbEntity
  8
RACCORDO
100
AcDbPolyline
 62
250
  6
CONTINUOUS
 90
3
 70
0
 10
16.8159130921
 20
23.3060985023
 10
16.8032818074
 20
23.3147386847
 10
16.7896639305
 20
23.3278360797
  0
LINE
  5
62D
100
AcDbEntity
  8
RACCORDO
100
AcDbLine
 62
250
  6
CONTINUOUS
 10
8.0658264476
 20
-33.6904022723
 11
7.9985639397
 21
-33.7243631144
  0
LINE
  5
62E
100
AcDbEntity
  8
RACCORDO
100
AcDbLine
 62
250
  6
CONTINUOUS
 10
8.0781433266
 20
-33.6768105038
 11
8.0642706992
 21
-33.6845499279
  0
LWPOLYLINE
  5
62F
100
AcDbEntity
  8
RACCORDO
100
AcDbPolyline
 62
250
  6
CONTINUOUS
 90
4
 70
0
 10
7.9985639397
 20
-33.7243631144
 10
7.9271287098
 20
-33.7508593074
 10
7.8518269488
 20
-33.7697772812
 10
7.7729814209
 20
-33.7810359478
  0
LINE
  5
630
100
AcDbEntity
  8
RACCORDO
100
AcDbLine
 62
250
  6
CONTINUOUS
 10
8.0989554554
 20
-33.6574354582
 11
8.0657963037
 21
-33.6696300479
  0
LWPOLYLINE
  5
631
100
AcDbEntity
  8
RACCORDO
100
AcDbPolyline
 62
250
  6
CONTINUOUS
 90
5
 70
0
 10
8.0736804239
 20
-33.6790571261
 10
8.0047723001
 20
-33.7039423384
 10
7.9321367397
 20
-33.7211852769
 10
7.85608448
 20
-33.7307121757
 10
7.8267665793
 20
-33.7313678913
  0
LINE
  5
632
100
AcDbEntity
  8
RACCORDO
100
AcDbLine
 62
250
  6
CONTINUOUS
 10
8.0642706992
 20
-33.6845499279
 11
7.995362567
 21
-33.7094351078
  0
LINE
  5
633
100
AcDbEntity
  8
RACCORDO
100
AcDbLine
 62
250
  6
CONTINUOUS
 10
-27.5711930385
 20
33.320673825
 11
-27.7480021155
 21
33.3159263668
  0
LINE
  5
634
100
AcDbEntity
  8
RACCORDO
100
AcDbLine
 62
7
  6
CONTINUOUS
 10
-25.7327696939
 20
56.2918704126
 11
36.2958827036
 21
20.4773039199
  0
LINE
  5
635
100
AcDbEntity
  8
0
100
AcDbLine
 62
7
  6
CONTINUOUS
 10
-20.9167497381
 20
54.1563966602
 11
35.0153966537
 21
21.8618763279
  0
LWPOLYLINE
  5
636
100
AcDbEntity
  8
0
100
AcDbPolyline
 62
7
  6
CONTINUOUS
 90
37
 70
0
 10
35.0153966537
 20
21.8618763279
 10
35.2845814942
 20
21.6995846605
 10
35.5522397655
 20
21.5247855816
 10
35.8183714678
 20
21.3374790912
 10
36.0834767507
 20
21.1372615364
 10
36.3470554645
 20
20.9245365701
 10
36.6076071602
 20
20.7005151512
 10
36.8651145734
 20
20.4651328512
 10
37.1195949684
 20
20.2184540986
 10
37.3695996894
 20
19.9618831376
 10
37.6151032096
 20
19.6953635487
 10
37.8561310557
 20
19.4189517516
 10
38.0913111519
 20
19.1342212488
 10
38.3206101458
 20
18.8411245952
 10
38.5440613898
 20
18.539709236
 10
38.7603928645
 20
18.2316910092
 10
38.9695639629
 20
17.9170322559
 10
39.171615292
 20
17.595770635
 10
39.3653966537
 20
17.2697349615
 10
39.550860881
 20
16.938898007
 10
39.7280551409
 20
16.6032869999
 10
39.8959707369
 20
16.2648124405
 10
40.0545547487
 20
15.9234579967
 10
40.2038600965
 20
15.5792400007
 10
40.3430368443
 20
15.2341179489
 10
40.4720272242
 20
14.8880866851
 10
40.5908890041
 20
14.5411513655
 10
40.6989455509
 20
14.1952869553
 10
40.7961352379
 20
13.8504995624
 10
40.8825196918
 20
13.5067830788
 10
40.9576071602
 20
13.1660941461
 10
41.0213332116
 20
12.8284500319
 10
41.0737622776
 20
12.4938334686
 10
41.1145959002
 20
12.1641492956
 10
41.1437345935
 20
11.8400324594
 10
41.1612778434
 20
11.5208480135
 10
41.16722565
 20
11.2065959579
  0
LINE
  5
637
100
AcDbEntity
  8
RACCORDO
100
AcDbLine
 62
7
  6
CONTINUOUS
 10
40.5378772159
 20
13.1299539066
 11
40.5378772159
 21
-44.6939092888
  0
LINE
  5
638
100
AcDbEntity
  8
0
100
AcDbLine
 62
7
  6
CONTINUOUS
 10
41.16722565
 20
11.2065959579
 11
41.16722565
 21
-39.4145612033
  0
LWPOLYLINE
  5
639
100
AcDbEntity
  8
0
100
AcDbPolyline
 62
7
  6
CONTINUOUS
 90
12
 70
0
 10
41.16722565
 20
-39.4145612033
 10
41.1612778434
 20
-39.7219448809
 10
41.1437345935
 20
-40.0208708215
 10
41.1145959002
 20
-40.311339025
 10
41.0737622776
 20
-40.5938695542
 10
41.0213332116
 20
-40.8679423463
 10
40.9576071602
 20
-41.1319972137
 10
40.8825196918
 20
-41.3859770199
 10
40.7961352379
 20
-41.6299389015
 10
40.6989455509
 20
-41.8624940801
 10
40.5908890041
 20
-42.0835774986
 10
40.5378772159
 20
-42.1770923158
  0
LWPOLYLINE
  5
63A
100
AcDbEntity
  8
RACCORDO
100
AcDbPolyline
 62
7
  6
CONTINUOUS
 90
3
 70
0
 10
-27.8012490983
 20
34.1259882168
 10
-27.7779097528
 20
34.1304032048
 10
-27.7573912218
 20
34.1362898102
  0
LWPOLYLINE
  5
63B
100
AcDbEntity
  8
RACCORDO
100
AcDbPolyline
 62
7
  6
CONTINUOUS
 90
11
 70
0
 10
-34.5907249826
 20
38.6087663453
 10
-34.6156140204
 20
38.6066511473
 10
-34.6379288791
 20
38.6031613004
 10
-34.6576694587
 20
38.5982969237
 10
-34.6749196714
 20
38.5919845746
 10
-34.6895952274
 20
38.5842981454
 10
-34.7014436782
 20
38.5754588125
 10
-34.7103728814
 20
38.5654815318
 10
-34.7164743915
 20
38.5543520506
 10
-34.7197713309
 20
38.5422477011
 10
-34.7200989089
 20
38.539682361
  0
LINE
  5
63C
100
AcDbEntity
  8
RACCORDO
100
AcDbLine
 62
7
  6
CONTINUOUS
 10
-34.5906935184
 20
38.6087679704
 11
-34.0978164262
 21
38.6342234008
  0
LWPOLYLINE
  5
63D
100
AcDbEntity
  8
RACCORDO
100
AcDbPolyline
 62
7
  6
CONTINUOUS
 90
16
 70
0
 10
-18.8706225745
 20
43.8826209055
 10
-18.8734361035
 20
43.8828941132
 10
-18.8727105506
 20
43.8827617088
 10
-18.8685165998
 20
43.8818528303
 10
-18.8612859736
 20
43.8799612682
 10
-18.8509461285
 20
43.876830387
 10
-18.8374606703
 20
43.872233782
 10
-18.8213165418
 20
43.8661721081
 10
-18.8025515312
 20
43.8585385124
 10
-18.7810907531
 20
43.8491925744
 10
-18.7572118109
 20
43.8381672118
 10
-18.730922874
 20
43.8254018503
 10
-18.7021685298
 20
43.8108115848
 10
-18.6711144933
 20
43.7944175854
 10
-18.6378366065
 20
43.7762064744
 10
-18.6023494058
 20
43.7561452405
  0
LWPOLYLINE
  5
63E
100
AcDbEntity
  8
RACCORDO
100
AcDbPolyline
 62
250
  6
CONTINUOUS
 90
5
 70
0
 10
21.3066247064
 20
-50.4215781716
 10
21.3199088414
 20
-50.3988183661
 10
21.3353156045
 20
-50.3779190023
 10
21.3526951936
 20
-50.3590832931
 10
21.371878628
 20
-50.342494381
  0
LWPOLYLINE
  5
63F
100
AcDbEntity
  8
RACCORDO
100
AcDbPolyline
 62
250
  6
CONTINUOUS
 90
16
 70
0
 10
-26.1371229724
 20
42.7107061157
 10
-26.1600066837
 20
42.7068654696
 10
-26.1847260138
 20
42.7043551953
 10
-26.2110257912
 20
42.7032011973
 10
-26.2386345305
 20
42.7034153803
 10
-26.267267242
 20
42.7049955258
 10
-26.2966283742
 20
42.7079253167
 10
-26.3264148506
 20
42.7121745047
 10
-26.3563192094
 20
42.7176992228
 10
-26.3860327849
 20
42.7244424411
 10
-26.4152488695
 20
42.7323345508
 10
-26.4436658947
 20
42.741294085
 10
-26.470990554
 20
42.7512285647
 10
-26.4969408065
 20
42.7620354458
 10
-26.5212487903
 20
42.7736031755
 10
-26.5436636003
 20
42.7858123498
  0
LWPOLYLINE
  5
640
100
AcDbEntity
  8
RACCORDO
100
AcDbPolyline
 62
250
  6
CONTINUOUS
 90
16
 70
0
 10
21.6094401201
 20
-47.1321203051
 10
21.5746604098
 20
-47.1561404698
 10
21.5371268673
 20
-47.1781192458
 10
21.4971701973
 20
-47.1978629814
 10
21.455142453
 20
-47.2151977184
 10
21.4114139378
 20
-47.229970723
 10
21.3663699423
 20
-47.2420518324
 10
21.3204073444
 20
-47.2513346031
 10
21.2739311148
 20
-47.257737248
 10
21.2273507523
 20
-47.2612033559
 10
21.1810766701
 20
-47.26170239
 10
21.1355165817
 20
-47.2592299558
 10
21.0910719111
 20
-47.2538078404
 10
21.0481342527
 20
-47.2454838202
 10
21.007081921
 20
-47.2343312393
 10
20.9682766192
 20
-47.2204483641
  0
LINE
  5
641
100
AcDbEntity
  8
RACCORDO
100
AcDbLine
 62
250
  6
CONTINUOUS
 10
21.847581025
 20
-46.99933851
 11
21.6094401201
 21
-47.1321203051
  0
LWPOLYLINE
  5
642
100
AcDbEntity
  8
RACCORDO
100
AcDbPolyline
 62
7
  6
CONTINUOUS
 90
17
 70
0
 10
21.3727763851
 20
-50.3391676546
 10
21.3462527885
 20
-50.3574409144
 10
21.3212888803
 20
-50.3782576186
 10
21.2981929415
 20
-50.4014685823
 10
21.2772028699
 20
-50.4269360514
 10
21.2584985459
 20
-50.4545565803
 10
21.2423113642
 20
-50.4841237576
 10
21.2288506243
 20
-50.51538669
 10
21.2182524404
 20
-50.5481879146
 10
21.2106500788
 20
-50.5823305093
 10
21.2061680571
 20
-50.6174835971
 10
21.2048683689
 20
-50.6533746862
 10
21.2067764363
 20
-50.6898580788
 10
21.2118953004
 20
-50.7267195085
 10
21.2202040792
 20
-50.7637652729
 10
21.2316872147
 20
-50.8009259737
 10
21.2378212218
 20
-50.8174862531
  0
LINE
  5
643
100
AcDbEntity
  8
RACCORDO
100
AcDbLine
 62
250
  6
CONTINUOUS
 10
21.371878628
 20
-50.342494381
 11
21.3926793858
 21
-50.3283135659
  0
LINE
  5
644
100
AcDbEntity
  8
RACCORDO
100
AcDbLine
 62
7
  6
CONTINUOUS
 10
21.6575313154
 20
-50.1649557577
 11
21.3727763851
 21
-50.3391676546
  0
LINE
  5
645
100
AcDbEntity
  8
RACCORDO
100
AcDbLine
 62
7
  6
CONTINUOUS
 10
21.5336785309
 20
-50.2544566698
 11
21.5313186712
 21
-50.2558837829
  0
LINE
  5
646
100
AcDbEntity
  8
0
100
AcDbLine
 62
250
  6
CONTINUOUS
 10
40.5378772159
 20
-39.7779391015
 11
41.16722565
 21
-39.4145612033
  0
LWPOLYLINE
  5
647
100
AcDbEntity
  8
RACCORDO
100
AcDbPolyline
 62
250
  6
CONTINUOUS
 90
3
 70
0
 10
21.5313186712
 20
-50.2558837829
 10
21.4859712748
 20
-50.281972231
 10
21.3926793593
 20
-50.3283134841
  0
LINE
  5
648
100
AcDbEntity
  8
DRAFT
100
AcDbLine
 62
7
  6
CONTINUOUS
 10
22.1030564319
 20
-48.7956213072
 11
20.7623890616
 21
-49.5319539473
  0
LINE
  5
649
100
AcDbEntity
  8
RACCORDO
100
AcDbLine
 62
7
  6
CONTINUOUS
 10
20.7623825957
 20
-49.5319574985
 11
20.7619844615
 21
-49.5321760902
  0
LWPOLYLINE
  5
64A
100
AcDbEntity
  8
RACCORDO
100
AcDbPolyline
 62
250
  6
CONTINUOUS
 90
16
 70
0
 10
21.3539920683
 20
-50.7717412202
 10
21.3473475287
 20
-50.7753051276
 10
21.3414247297
 20
-50.7795625257
 10
21.3362236087
 20
-50.7845134678
 10
21.3317333297
 20
-50.7901865683
 10
21.3279646104
 20
-50.7965533135
 10
21.3249496571
 20
-50.8035281167
 10
21.3226897669
 20
-50.8111081672
 10
21.3211833874
 20
-50.819296493
 10
21.3204583452
 20
-50.8280163557
 10
21.32051584
 20
-50.8372780944
 10
21.3213543356
 20
-50.8470716563
 10
21.3229974604
 20
-50.8572897957
 10
21.3254529326
 20
-50.8678968983
 10
21.3287126182
 20
-50.8789289321
 10
21.3327763285
 20
-50.8903860576
  0
LINE
  5
64B
100
AcDbEntity
  8
RACCORDO
100
AcDbLine
 62
250
  6
CONTINUOUS
 10
21.3926794274
 20
-50.3283136388
 11
21.3757938849
 21
-50.3373017123
  0
LWPOLYLINE
  5
64C
100
AcDbEntity
  8
0
100
AcDbPolyline
 62
7
  6
CONTINUOUS
 90
11
 70
0
 10
-23.4766327428
 20
54.9892052131
 10
-23.2709527738
 20
54.9749781251
 10
-23.0209480528
 20
54.942849901
 10
-22.7664676578
 20
54.8956610722
 10
-22.5089602446
 20
54.8336802661
 10
-22.2484085489
 20
54.7568231178
 10
-21.9848298351
 20
54.6651739922
 10
-21.7197245522
 20
54.5592546115
 10
-21.4535928499
 20
54.4392388829
 10
-21.1859345786
 20
54.3049528991
 10
-20.9167497381
 20
54.1563966602
  0
LWPOLYLINE
  5
64D
100
AcDbEntity
  8
RACCORDO
100
AcDbPolyline
 62
250
  6
CONTINUOUS
 90
16
 70
0
 10
30.1398751912
 20
-50.2856182851
 10
30.1064233528
 20
-50.3057098583
 10
30.0704551467
 20
-50.3239754578
 10
30.0322589334
 20
-50.3402686482
 10
29.9921409344
 20
-50.3544588076
 10
29.9504227798
 20
-50.3664321735
 10
29.9074389306
 20
-50.3760927554
 10
29.8635339915
 20
-50.3833631059
 10
29.8190599507
 20
-50.3881849401
 10
29.7743733613
 20
-50.3905196033
 10
29.7298324776
 20
-50.3903483808
 10
29.6857943844
 20
-50.3876726479
 10
29.6426121371
 20
-50.3825138586
 10
29.6006319278
 20
-50.3749133738
 10
29.5601903103
 20
-50.3649321294
 10
29.5216115035
 20
-50.3526501475
  0
LINE
  5
64E
100
AcDbEntity
  8
RACCORDO
100
AcDbLine
 62
250
  6
CONTINUOUS
 10
30.1398751912
 20
-50.2856182852
 11
40.5378772159
 21
-44.6939092888
  0
LINE
  5
64F
100
AcDbEntity
  8
RACCORDO
100
AcDbLine
 62
7
  6
CONTINUOUS
 10
28.8952951676
 20
-53.0340585161
 11
39.2428560512
 21
-47.4694751413
  0
ELLIPSE
  5
650
100
AcDbEntity
  8
DRAFT
100
AcDbEllipse
 62
7
  6
CONTINUOUS
 10
-23.703905392
 20
40.2514675866
 30
0.0
 11
2.5780217366
 21
4.5159960093
 31
0.0
 40
0.6006155494
 41
-0.0029465731
 42
0.2637828795
  0
ELLIPSE
  5
651
100
AcDbEntity
  8
DRAFT
100
AcDbEllipse
 62
7
  6
CONTINUOUS
 10
15.1751353097
 20
17.8031967542
 30
0.0
 11
2.6204953926
 21
4.4914794487
 31
0.0
 40
0.5540306858
 41
0.0730928699
 42
0.2692365279
  0
ELLIPSE
  5
652
100
AcDbEntity
  8
RACCORDO
100
AcDbEllipse
 62
7
  6
CONTINUOUS
 10
52.1752622151
 20
35.2830852083
 30
0.0
 11
41.9733507302
 21
23.8103593035
 31
0.0
 40
0.034575876
 41
2.7862545149
 42
2.8480257269
  0
ELLIPSE
  5
653
100
AcDbEntity
  8
RACCORDO
100
AcDbEllipse
 62
7
  6
CONTINUOUS
 10
36.2945902557
 20
-42.2423962366
 30
0.0
 11
-3.0010587713
 21
5.1976516967
 31
0.0
 40
0.5771558487
 41
-3.1590397888
 42
-2.3563950755
  0
ELLIPSE
  5
654
100
AcDbEntity
  8
RACCORDO
100
AcDbEllipse
 62
7
  6
CONTINUOUS
 10
36.2945902557
 20
15.5784822744
 30
0.0
 11
-3.0001450934
 21
5.1960686503
 31
0.0
 40
0.5775075436
 41
-2.3560905478
 42
-0.7855988075
  0
ELLIPSE
  5
655
100
AcDbEntity
  8
RACCORDO
100
AcDbEllipse
 62
7
  6
CONTINUOUS
 10
-25.731477246
 20
51.3915562807
 30
0.0
 11
-3.0010587713
 21
5.1976516967
 31
0.0
 40
0.5771558487
 41
-0.7852941622
 42
0.0174471352
  0
ENDSEC
  0
SECTION
  2
OBJECTS
  0
DICTIONARY
  5
C
100
AcDbDictionary
280
0
281
1
  3
ACAD_GROUP
350
D
  3
ACAD_MLINESTYLE
350
17
  3
ACAD_LAYOUT
350
1A
  3
ACAD_PLOTSETTINGS
350
19
  3
ACAD_PLOTSTYLENAME
350
E
  0
DICTIONARY
  5
D
102
{ACAD_REACTORS
330
C
102
}
100
AcDbDictionary
280
0
281
1
  0
ACDBDICTIONARYWDFLT
  5
E
102
{ACAD_REACTORS
330
C
102
}
100
AcDbDictionary
281
1
  3
Normal
350
F
100
AcDbDictionaryWithDefault
340
F
  0
DICTIONARY
  5
17
102
{ACAD_REACTORS
330
C
102
}
100
AcDbDictionary
280
0
281
1
  3
Standard
350
18
  0
DICTIONARY
  5
19
102
{ACAD_REACTORS
330
C
102
}
100
AcDbDictionary
281
1
  0
DICTIONARY
  5
1A
102
{ACAD_REACTORS
330
C
102
}
100
AcDbDictionary
281
1
  3
Model
350
656
  3
Layout1
350
657
  0
ACDBPLACEHOLDER
  5
F
102
{ACAD_REACTORS
330
E
102
}
  0
MLINESTYLE
  5
18
102
{ACAD_REACTORS
330
17
102
}
100
AcDbMlineStyle
  2
STANDARD
 70
0
  3

 62
256
 51
90.0
 52
90.0
 71
2
 49
0.5
 62
256
  6
BYLAYER
 49
-0.5
 62
256
  6
BYLAYER
  0
LAYOUT
  5
656
102
{ACAD_REACTORS
330
1A
102
}
100
AcDbPlotSettings
  1

  2
none_device
  4
ISO_A4_(297.00_x_210.00_MM)
  6

 40
0.0
 41
0.0
 42
0.0
 43
0.0
 44
297.0
 45
210.0
 46
0.0
 47
0.0
 48
0.0
 49
0.0
140
0.0
141
0.0
142
1.0
143
1.0
 70
1024
 72
1
 73
0
 74
0
  7

 75
0
147
1.0
148
0.0
149
0.0
100
AcDbLayout
  1
Model
 70
0
 71
0
 10
0.0
 20
0.0
 11
297.0
 21
210.0
 12
0.0
 22
0.0
 32
0.0
 14
0.0
 24
0.0
 34
0.0
 15
0.0
 25
0.0
 35
0.0
146
0.0
 13
0.0
 23
0.0
 33
0.0
 16
1.0
 26
0.0
 36
0.0
 17
0.0
 27
1.0
 37
0.0
 76
0
330
215
345
0
346
0
  0
LAYOUT
  5
657
102
{ACAD_REACTORS
330
1A
102
}
100
AcDbPlotSettings
  1

  2
none_device
  4
ISO_A4_(297.00_x_210.00_MM)
  6

 40
0.0
 41
0.0
 42
0.0
 43
0.0
 44
297.0
 45
210.0
 46
0.0
 47
0.0
 48
0.0
 49
0.0
140
0.0
141
0.0
142
1.0
143
1.0
 70
0
 72
1
 73
0
 74
0
  7

 75
0
147
1.0
148
0.0
149
0.0
100
AcDbLayout
  1
Layout1
 70
0
 71
1
 10
0.0
 20
0.0
 11
297.0
 21
210.0
 12
0.0
 22
0.0
 32
0.0
 14
0.0
 24
0.0
 34
0.0
 15
0.0
 25
0.0
 35
0.0
146
0.0
 13
0.0
 23
0.0
 33
0.0
 16
1.0
 26
0.0
 36
0.0
 17
0.0
 27
1.0
 37
0.0
 76
0
330
216
345
0
346
0
  0
ENDSEC
  0
EOF
