  0
SECTION
  2
HEADER
  9
$ACADVER
  1
AC1024
  9
$DWGCODEPAGE
  3
ANSI_1252
  9
$EXTMAX
 10
297.0
 20
210.0
 30
0.0
  9
$EXTMIN
 10
0.0
 20
0.0
 30
0.0
  9
$LIMMIN
 10
0.0
 20
0.0
  9
$LIMMAX
 10
297.0
 20
210.0
  9
$VIEWCTR
 10
148.5
 20
105.0
  9
$VIEWSIZE
 40
210.0
  9
$CLAYER
  8
0
  9
$LTSCALE
 40
16.335
  9
$CELTYPE
  6
BYLAYER
  9
$DIMSCALE
 40
1.0
  9
$DIMASZ
 40
3.0
  9
$DIMEXO
 40
0.5
  9
$DIMDLI
 40
11.286
  9
$DIMEXE
 40
1.5
  9
$DIMCEN
 40
2.673
  9
$DIMLFAC
 40
1.0
  9
$DIMBLK
  1
_FILLED
  9
$DIMALT
 70
0
  9
$DIMALTF
 40
0.0393700787
  9
$DIMTXT
 40
3.0
  9
$DIMTOL
 70
1
  9
$DIMLIM
 70
0
  9
$DIMTFAC
 40
1.0
  9
$DIMTP
 40
0.01
  9
$DIMTM
 40
0.01
  9
$DIMGAP
 40
0.625
  9
$DIMDSEP
 70
44
  9
$AUNITS
 70
0
  9
$PDMODE
 70
3
  9
$PDSIZE
 40
3.0
  9
$HANDSEED
  5
64F
  9
$TILEMODE
 70
1
  9
$MEASUREMENT
 70
1
  9
$INSUNITS
 70
4
  0
ENDSEC
  0
SECTION
  2
CLASSES
  0
CLASS
  1
ACDBDICTIONARYWDFLT
  2
AcDbDictionaryWithDefault
  3
AutoCAD 2000
 90
0
 91
1
280
0
281
0
  0
CLASS
  1
ACDBPLACEHOLDER
  2
AcDbPlaceHolder
  3
AutoCAD 2000
 90
0
 91
1
280
0
281
0
  0
CLASS
  1
LAYOUT
  2
AcDbLayout
  3
AutoCAD 2000
 90
0
 91
0
280
0
281
0
  0
ENDSEC
  0
SECTION
  2
TABLES
  0
TABLE
  2
VPORT
  5
8
100
AcDbSymbolTable
 70
2
  0
VPORT
  5
1F4
100
AcDbSymbolTableRecord
100
AcDbViewportTableRecord
  2
*ACTIVE
 70
0
 10
0.0
 20
0.0
 11
1.0
 21
1.0
 12
148.5
 22
105.0
 13
0.0
 23
0.0
 14
1.0
 24
1.0
 15
0.0
 25
0.0
 16
0.0
 26
0.0
 36
1.0
 17
0.0
 27
0.0
 37
0.0
 40
210.0
 41
1.4142857143
 42
50.0
 43
0.0
 44
0.0
 50
0.0
 51
0.0
 71
0
 72
100
 73
1
 74
1
 75
0
 76
0
 77
0
 78
0
  0
ENDTAB
  0
TABLE
  2
LTYPE
  5
5
100
AcDbSymbolTable
 70
6
  0
LTYPE
  5
14
100
AcDbSymbolTableRecord
100
AcDbLinetypeTableRecord
  2
BYBLOCK
 70
0
  3

 72
65
 73
0
 40
0.0
  0
LTYPE
  5
15
100
AcDbSymbolTableRecord
100
AcDbLinetypeTableRecord
  2
BYLAYER
 70
0
  3

 72
65
 73
0
 40
0.0
  0
LTYPE
  5
16
100
AcDbSymbolTableRecord
100
AcDbLinetypeTableRecord
  2
CONTINUOUS
 70
64
  3
Solid line
 72
65
 73
0
 40
0.0
  0
LTYPE
  5
1F5
100
AcDbSymbolTableRecord
100
AcDbLinetypeTableRecord
  2
CENTER
 70
64
  3
____ _ ____ _ ____ _ ____ _ ____ _ ____ _ ____
 72
65
 73
4
 40
0.6
 49
0.375
 74
0
 49
-0.075
 74
0
 49
0.075
 74
0
 49
-0.075
 74
0
  0
LTYPE
  5
1F6
100
AcDbSymbolTableRecord
100
AcDbLinetypeTableRecord
  2
HIDDEN
 70
64
  3
- - - - - - - - - - - - - - - - - - - -
 72
65
 73
2
 40
0.2
 49
0.1
 74
0
 49
-0.1
 74
0
  0
LTYPE
  5
1F7
100
AcDbSymbolTableRecord
100
AcDbLinetypeTableRecord
  2
PHANTOM
 70
64
  3
_____ _ _ _____ _ _ _____ _ _ _____
 72
65
 73
6
 40
0.8
 49
0.45
 74
0
 49
-0.05
 74
0
 49
0.1
 74
0
 49
-0.05
 74
0
 49
0.1
 74
0
 49
-0.05
 74
0
  0
LTYPE
  5
1F8
100
AcDbSymbolTableRecord
100
AcDbLinetypeTableRecord
  2
DOT
 70
64
  3
. . . . . . . . . . . . . . . . . . . .
 72
65
 73
2
 40
0.2
 49
0.1
 74
0
 49
-0.1
 74
0
  0
LTYPE
  5
1F9
100
AcDbSymbolTableRecord
100
AcDbLinetypeTableRecord
  2
DASHED
 70
64
  3
- - - - - - - - - - - - - - - - - - - -
 72
65
 73
2
 40
0.2
 49
0.1
 74
0
 49
-0.1
 74
0
  0
ENDTAB
  0
TABLE
  2
LAYER
  5
2
100
AcDbSymbolTable
 70
36
  0
LAYER
  5
10
100
AcDbSymbolTableRecord
100
AcDbLayerTableRecord
  2
0
 70
0
 62
7
  6
CONTINUOUS
370
-3
390
F
  0
LAYER
  5
1FA
100
AcDbSymbolTableRecord
100
AcDbLayerTableRecord
  2
DEFAULT_1
 70
0
 62
7
  6
CENTER
370
-3
390
F
  0
LAYER
  5
1FB
100
AcDbSymbolTableRecord
100
AcDbLayerTableRecord
  2
DEFAULT_2
 70
0
 62
7
  6
HIDDEN
370
-3
390
F
  0
LAYER
  5
1FC
100
AcDbSymbolTableRecord
100
AcDbLayerTableRecord
  2
DEFAULT_3
 70
0
 62
7
  6
PHANTOM
370
-3
390
F
  0
LAYER
  5
1FD
100
AcDbSymbolTableRecord
100
AcDbLayerTableRecord
  2
ASSI
 70
0
 62
7
  6
CONTINUOUS
370
-3
390
F
  0
LAYER
  5
1FE
100
AcDbSymbolTableRecord
100
AcDbLayerTableRecord
  2
COLOR5
 70
0
 62
7
  6
CONTINUOUS
370
-3
390
F
  0
LAYER
  5
1FF
100
AcDbSymbolTableRecord
100
AcDbLayerTableRecord
  2
COORDINATE
 70
0
 62
7
  6
CONTINUOUS
370
-3
390
F
  0
LAYER
  5
200
100
AcDbSymbolTableRecord
100
AcDbLayerTableRecord
  2
COORD_ORIGINE
 70
0
 62
7
  6
CONTINUOUS
370
-3
390
F
  0
LAYER
  5
201
100
AcDbSymbolTableRecord
100
AcDbLayerTableRecord
  2
COPY_PUBLISH
 70
0
 62
7
  6
CONTINUOUS
370
-3
390
F
  0
LAYER
  5
202
100
AcDbSymbolTableRecord
100
AcDbLayerTableRecord
  2
COSMETICI
 70
0
 62
7
  6
CONTINUOUS
370
-3
390
F
  0
LAYER
  5
203
100
AcDbSymbolTableRecord
100
AcDbLayerTableRecord
  2
CURVE
 70
0
 62
7
  6
CONTINUOUS
370
-3
390
F
  0
LAYER
  5
204
100
AcDbSymbolTableRecord
100
AcDbLayerTableRecord
  2
DRAFT
 70
0
 62
7
  6
CONTINUOUS
370
-3
390
F
  0
LAYER
  5
205
100
AcDbSymbolTableRecord
100
AcDbLayerTableRecord
  2
IMPORT_IGES
 70
0
 62
7
  6
CONTINUOUS
370
-3
390
F
  0
LAYER
  5
206
100
AcDbSymbolTableRecord
100
AcDbLayerTableRecord
  2
INTF_1
 70
0
 62
7
  6
CONTINUOUS
370
-3
390
F
  0
LAYER
  5
207
100
AcDbSymbolTableRecord
100
AcDbLayerTableRecord
  2
INTF_11
 70
0
 62
7
  6
CONTINUOUS
370
-3
390
F
  0
LAYER
  5
208
100
AcDbSymbolTableRecord
100
AcDbLayerTableRecord
  2
INTF_2
 70
0
 62
7
  6
CONTINUOUS
370
-3
390
F
  0
LAYER
  5
209
100
AcDbSymbolTableRecord
100
AcDbLayerTableRecord
  2
INTF_8
 70
0
 62
7
  6
CONTINUOUS
370
-3
390
F
  0
LAYER
  5
20A
100
AcDbSymbolTableRecord
100
AcDbLayerTableRecord
  2
NOTE
 70
0
 62
7
  6
CONTINUOUS
370
-3
390
F
  0
LAYER
  5
20B
100
AcDbSymbolTableRecord
100
AcDbLayerTableRecord
  2
PIANI
 70
0
 62
7
  6
CONTINUOUS
370
-3
390
F
  0
LAYER
  5
20C
100
AcDbSymbolTableRecord
100
AcDbLayerTableRecord
  2
PIANI_ORIGINE
 70
0
 62
7
  6
CONTINUOUS
370
-3
390
F
  0
LAYER
  5
20D
100
AcDbSymbolTableRecord
100
AcDbLayerTableRecord
  2
PUNTI
 70
0
 62
7
  6
CONTINUOUS
370
-3
390
F
  0
LAYER
  5
20E
100
AcDbSymbolTableRecord
100
AcDbLayerTableRecord
  2
RACCORDO
 70
0
 62
7
  6
CONTINUOUS
370
-3
390
F
  0
LAYER
  5
20F
100
AcDbSymbolTableRecord
100
AcDbLayerTableRecord
  2
SIMBOLI
 70
0
 62
7
  6
CONTINUOUS
370
-3
390
F
  0
LAYER
  5
210
100
AcDbSymbolTableRecord
100
AcDbLayerTableRecord
  2
SMUSSO
 70
0
 62
7
  6
CONTINUOUS
370
-3
390
F
  0
LAYER
  5
211
100
AcDbSymbolTableRecord
100
AcDbLayerTableRecord
  2
SNAPLINE
 70
0
 62
7
  6
CONTINUOUS
370
-3
390
F
  0
LAYER
  5
212
100
AcDbSymbolTableRecord
100
AcDbLayerTableRecord
  2
SUPERFICI
 70
0
 62
7
  6
CONTINUOUS
370
-3
390
F
  0
LAYER
  5
213
100
AcDbSymbolTableRecord
100
AcDbLayerTableRecord
  2
TESTO
 70
0
 62
7
  6
CONTINUOUS
370
-3
390
F
  0
LAYER
  5
214
100
AcDbSymbolTableRecord
100
AcDbLayerTableRecord
  2
TRASH
 70
0
 62
7
  6
CONTINUOUS
370
-3
390
F
  0
ENDTAB
  0
TABLE
  2
STYLE
  5
3
100
AcDbSymbolTable
 70
1
  0
STYLE
  5
11
100
AcDbSymbolTableRecord
100
AcDbTextStyleTableRecord
  2
STANDARD
 70
0
 40
0.0
 41
0.8
 50
0.0
 71
0
 42
0.2
  3
txt
  4

  0
STYLE
  5
215
100
AcDbSymbolTableRecord
100
AcDbTextStyleTableRecord
  2
TEXTSTYLE_1
 70
0
 40
0.0
 41
0.8
 50
0.0
 71
0
 42
0.2
  3
gdt
  4

  0
ENDTAB
  0
TABLE
  2
VIEW
  5
6
100
AcDbSymbolTable
 70
0
  0
ENDTAB
  0
TABLE
  2
UCS
  5
7
100
AcDbSymbolTable
 70
0
  0
ENDTAB
  0
TABLE
  2
APPID
  5
9
100
AcDbSymbolTable
 70
1
  0
APPID
  5
216
100
AcDbSymbolTableRecord
100
AcDbRegAppTableRecord
  2
ACAD
 70
0
  0
ENDTAB
  0
TABLE
  2
BLOCK_RECORD
  5
1
100
AcDbSymbolTable
 70
0
  0
BLOCK_RECORD
  5
217
100
AcDbSymbolTableRecord
100
AcDbBlockTableRecord
  2
*Model_Space
  0
BLOCK_RECORD
  5
218
100
AcDbSymbolTableRecord
100
AcDbBlockTableRecord
  2
*Paper_Space
  0
BLOCK_RECORD
  5
219
100
AcDbSymbolTableRecord
100
AcDbBlockTableRecord
  2
_FILLED
  0
ENDTAB
  0
TABLE
  2
DIMSTYLE
  5
A
100
AcDbSymbolTable
 70
1
100
AcDbDimStyleTable
 71
0
  0
DIMSTYLE
105
21A
100
AcDbSymbolTableRecord
100
AcDbDimStyleTableRecord
  2
STANDARD
 70
0
  3

  4

 40
1.0
 41
3.0
 42
0.5
 43
0.38
 44
1.5
 45
0.0
 46
0.0
 47
0.01
 48
0.01
140
3.0
141
0.09
142
0.0
143
25.4
144
1.0
145
0.0
146
1.0
147
0.625
 71
1
 72
0
 73
0
 74
0
 75
0
 76
0
 77
1
 78
8
 79
2
170
0
171
1
172
0
173
0
174
0
175
0
176
0
177
0
178
0
270
2
179
2
271
2
272
2
273
2
274
2
275
0
280
0
281
0
282
0
283
1
284
8
285
0
286
0
287
3
288
0
340
11
278
44
341
219
342
219
343
219
344
219
  0
ENDTAB
  0
ENDSEC
  0
SECTION
  2
BLOCKS
  0
BLOCK
  5
20
100
AcDbEntity
  8
0
100
AcDbBlockBegin
  2
*Model_Space
 70
0
 10
0.0
 20
0.0
 30
0.0
  3
*Model_Space
  1

  0
ENDBLK
  5
21
100
AcDbEntity
  8
0
100
AcDbBlockEnd
  0
BLOCK
  5
1C
100
AcDbEntity
  8
0
100
AcDbBlockBegin
  2
*Paper_Space
 70
0
 10
0.0
 20
0.0
 30
0.0
  3
*Paper_Space
  1

  0
ENDBLK
  5
1D
100
AcDbEntity
  8
0
100
AcDbBlockEnd
  0
BLOCK
  5
21B
100
AcDbEntity
  8
0
100
AcDbBlockBegin
  2
_FILLED
 70
64
 10
0.0
 20
0.0
  3
_FILLED
  1

  0
SOLID
  5
21C
100
AcDbEntity
  8
0
  6
BYBLOCK
 62
0
100
AcDbTrace
 10
0.0
 20
0.0
 11
-1.0
 21
0.3166666667
 12
-1.0
 22
-0.3166666667
 13
-1.0
 23
-0.3166666667
  0
ENDBLK
  5
21D
100
AcDbEntity
  8
0
  6
BYBLOCK
 62
0
100
AcDbBlockEnd
  0
ENDSEC
  0
SECTION
  2
ENTITIES
  0
LWPOLYLINE
  5
21E
100
AcDbEntity
  8
RACCORDO
100
AcDbPolyline
 62
7
  6
CONTINUOUS
 90
22
 70
0
 10
-58.5693654743
 20
61.6182031004
 10
-58.6392100474
 20
61.5733543095
 10
-58.757463755
 20
61.4892981961
 10
-58.8716600796
 20
61.3974695769
 10
-58.9816021876
 20
61.2979344036
 10
-59.0870275651
 20
61.1908387489
 10
-59.1876293067
 20
61.0764151093
 10
-59.2832294254
 20
60.9548191136
 10
-59.3736956202
 20
60.8261803251
 10
-59.4588474757
 20
60.6907075207
 10
-59.5385662685
 20
60.5485612243
 10
-59.6127697849
 20
60.3998740361
 10
-59.6813596551
 20
60.2448060032
 10
-59.7442526629
 20
60.0835170533
 10
-59.8013942284
 20
59.9161434493
 10
-59.8527286968
 20
59.7428019169
 10
-59.8981931899
 20
59.5636440002
 10
-59.9377421449
 20
59.3788073501
 10
-59.9713316927
 20
59.1883864911
 10
-59.9989116901
 20
58.9925455311
 10
-60.020436799
 20
58.7915307243
 10
-60.0313590828
 20
58.655350469
  0
LINE
  5
21F
100
AcDbEntity
  8
RACCORDO
100
AcDbLine
 62
7
  6
CONTINUOUS
 10
-58.5700295229
 20
61.6177960503
 11
-48.678470996
 21
67.7348842198
  0
LINE
  5
220
100
AcDbEntity
  8
RACCORDO
100
AcDbLine
 62
250
  6
CONTINUOUS
 10
-55.6095120665
 20
61.2951127017
 11
-45.6268252037
 21
67.4685560011
  0
LWPOLYLINE
  5
221
100
AcDbEntity
  8
RACCORDO
100
AcDbPolyline
 62
250
  6
CONTINUOUS
 90
21
 70
0
 10
-58.5693677246
 20
61.618205148
 10
-58.5272892808
 20
61.6435161449
 10
-58.4071783899
 20
61.7085269225
 10
-58.2827684024
 20
61.7654087016
 10
-58.1541469162
 20
61.8140196466
 10
-58.0209503008
 20
61.8543113562
 10
-57.8832136531
 20
61.8860467621
 10
-57.7411366044
 20
61.9089444486
 10
-57.5945343145
 20
61.9227175016
 10
-57.4432497897
 20
61.9270616812
 10
-57.2877058001
 20
61.9216360095
 10
-57.1286068996
 20
61.9061011988
 10
-56.9660674129
 20
61.88022857
 10
-56.8004177831
 20
61.8438360869
 10
-56.6327712116
 20
61.7968667326
 10
-56.4635194981
 20
61.7393109353
 10
-56.2928779764
 20
61.6711417626
 10
-56.1217577703
 20
61.5925041864
 10
-55.9506941347
 20
61.5035553607
 10
-55.7798309481
 20
61.4043784603
 10
-55.6095120665
 20
61.2951127017
  0
LWPOLYLINE
  5
222
100
AcDbEntity
  8
RACCORDO
100
AcDbPolyline
 62
250
  6
CONTINUOUS
 90
19
 70
0
 10
-55.6095120664
 20
61.2951127017
 10
-55.6388524251
 20
61.2790410533
 10
-55.6679825066
 20
61.2606687208
 10
-55.6967298209
 20
61.2401044948
 10
-55.7249241444
 20
61.2174701446
 10
-55.7523985281
 20
61.1928996974
 10
-55.7789902864
 20
61.1665386445
 10
-55.8045419598
 20
61.1385430801
 10
-55.8289022477
 20
61.1090787768
 10
-55.8519269045
 20
61.0783202039
 10
-55.8734795931
 20
61.0464494945
 10
-55.8934326924
 20
61.0136553672
 10
-55.9116680537
 20
60.9801320076
 10
-55.928077699
 20
60.9460779201
 10
-55.9425644612
 20
60.9116947515
 10
-55.9550425597
 20
60.8771860964
 10
-55.9654381073
 20
60.8427562927
 10
-55.9736895485
 20
60.8086092123
 10
-55.9797480237
 20
60.7749470523
  0
LINE
  5
223
100
AcDbEntity
  8
0
100
AcDbLine
 62
250
  6
CONTINUOUS
 10
-41.2988491739
 20
64.9696368838
 11
-40.7400945698
 21
65.2922547893
  0
LWPOLYLINE
  5
224
100
AcDbEntity
  8
RACCORDO
100
AcDbPolyline
 62
250
  6
CONTINUOUS
 90
5
 70
0
 10
-54.4631720301
 20
50.6694877437
 10
-54.4636570299
 20
50.66833097
 10
-54.4679621014
 20
50.6561043194
 10
-54.4717887887
 20
50.6431232408
 10
-54.4751345396
 20
50.6294583514
  0
LWPOLYLINE
  5
225
100
AcDbEntity
  8
RACCORDO
100
AcDbPolyline
 62
7
  6
CONTINUOUS
 90
13
 70
0
 10
-45.8873189516
 20
54.0624266047
 10
-45.8610219545
 20
54.0824036919
 10
-45.8339461016
 20
54.1023052853
 10
-45.8062515385
 20
54.1219778401
 10
-45.7780718975
 20
54.1412116824
 10
-45.7495901621
 20
54.1599688494
 10
-45.7210169305
 20
54.1783776027
 10
-45.6924726445
 20
54.1963891593
 10
-45.6640856236
 20
54.2138938001
 10
-45.6360488747
 20
54.2309421584
 10
-45.608496079
 20
54.247520704
 10
-45.5815065626
 20
54.2635542805
 10
-45.5551794343
 20
54.2790151221
  0
LINE
  5
226
100
AcDbEntity
  8
RACCORDO
100
AcDbLine
 62
7
  6
CONTINUOUS
 10
-44.9506338057
 20
54.1476639834
 11
-41.7279333531
 21
56.1406302848
  0
LINE
  5
227
100
AcDbEntity
  8
RACCORDO
100
AcDbLine
 62
250
  6
CONTINUOUS
 10
-45.4732977645
 20
54.4919781509
 11
-40.8660394452
 21
57.0197128622
  0
LINE
  5
228
100
AcDbEntity
  8
RACCORDO
100
AcDbLine
 62
250
  6
CONTINUOUS
 10
-40.9299687932
 20
56.6643729612
 11
-45.4183915144
 21
54.2018263019
  0
LINE
  5
229
100
AcDbEntity
  8
RACCORDO
100
AcDbLine
 62
250
  6
CONTINUOUS
 10
-54.4751319237
 20
50.6294597582
 11
-54.4375812916
 21
50.649653273
  0
LINE
  5
22A
100
AcDbEntity
  8
RACCORDO
100
AcDbLine
 62
250
  6
CONTINUOUS
 10
-38.5730404431
 20
54.7889657243
 11
-38.4043395782
 21
54.87968759
  0
LINE
  5
22B
100
AcDbEntity
  8
RACCORDO
100
AcDbLine
 62
250
  6
CONTINUOUS
 10
-54.4751319237
 20
50.6294597582
 11
-54.4963460557
 21
50.6215580205
  0
LINE
  5
22C
100
AcDbEntity
  8
RACCORDO
100
AcDbLine
 62
250
  6
CONTINUOUS
 10
-60.5288444302
 20
12.4123434378
 11
-60.5477584884
 21
13.1249437372
  0
LINE
  5
22D
100
AcDbEntity
  8
RACCORDO
100
AcDbLine
 62
250
  6
CONTINUOUS
 10
-60.5477584884
 20
13.1249437372
 11
-60.56520571
 21
13.8395607162
  0
LINE
  5
22E
100
AcDbEntity
  8
RACCORDO
100
AcDbLine
 62
250
  6
CONTINUOUS
 10
-60.56520571
 20
13.8395607162
 11
-60.588848045
 21
14.9109687132
  0
LINE
  5
22F
100
AcDbEntity
  8
RACCORDO
100
AcDbLine
 62
250
  6
CONTINUOUS
 10
-60.588848045
 20
14.9109687132
 11
-60.6097568547
 21
15.9748177968
  0
LWPOLYLINE
  5
230
100
AcDbEntity
  8
RACCORDO
100
AcDbPolyline
 62
250
  6
CONTINUOUS
 90
8
 70
0
 10
-60.8045138379
 20
29.4529863903
 10
-60.8044079717
 20
29.4471467046
 10
-60.8015901506
 20
29.421920677
 10
-60.7949591015
 20
29.3969322896
 10
-60.7845656928
 20
29.3723732666
 10
-60.7704896556
 20
29.3484320034
 10
-60.7528389714
 20
29.3252921208
 10
-60.7317490438
 20
29.3031311029
  0
LINE
  5
231
100
AcDbEntity
  8
RACCORDO
100
AcDbLine
 62
250
  6
CONTINUOUS
 10
-60.6097568547
 20
15.9748177968
 11
-60.6283416069
 21
17.0249867729
  0
LINE
  5
232
100
AcDbEntity
  8
RACCORDO
100
AcDbLine
 62
250
  6
CONTINUOUS
 10
-60.6283416069
 20
17.0249867729
 11
-60.6502505598
 21
18.3991810208
  0
LINE
  5
233
100
AcDbEntity
  8
RACCORDO
100
AcDbLine
 62
250
  6
CONTINUOUS
 10
-60.6502505598
 20
18.3991810208
 11
-60.6693709377
 21
19.7505528732
  0
LINE
  5
234
100
AcDbEntity
  8
RACCORDO
100
AcDbLine
 62
250
  6
CONTINUOUS
 10
-60.6693709377
 20
19.7505528732
 11
-60.6859921124
 21
21.0990975107
  0
LINE
  5
235
100
AcDbEntity
  8
RACCORDO
100
AcDbLine
 62
250
  6
CONTINUOUS
 10
-60.6859921124
 20
21.0990975107
 11
-60.6969706734
 21
22.1271499082
  0
LINE
  5
236
100
AcDbEntity
  8
RACCORDO
100
AcDbLine
 62
250
  6
CONTINUOUS
 10
-60.6969706734
 20
22.1271499082
 11
-60.7067467387
 21
23.1905704043
  0
LINE
  5
237
100
AcDbEntity
  8
RACCORDO
100
AcDbLine
 62
250
  6
CONTINUOUS
 10
-60.7067467387
 20
23.1905704043
 11
-60.7152881968
 21
24.3148087255
  0
LINE
  5
238
100
AcDbEntity
  8
RACCORDO
100
AcDbLine
 62
250
  6
CONTINUOUS
 10
-60.7152881968
 20
24.3148087255
 11
-60.7223716404
 21
25.5260939039
  0
LINE
  5
239
100
AcDbEntity
  8
RACCORDO
100
AcDbLine
 62
250
  6
CONTINUOUS
 10
-60.7223716404
 20
25.5260939039
 11
-60.7275639248
 21
26.8425127803
  0
LWPOLYLINE
  5
23A
100
AcDbEntity
  8
RACCORDO
100
AcDbPolyline
 62
7
  6
CONTINUOUS
 90
10
 70
0
 10
-60.8045139778
 20
29.4529864259
 10
-60.7962222308
 20
25.9086476592
 10
-60.7712539139
 20
22.4138408175
 10
-60.730699665
 20
19.0286682631
 10
-60.6769710972
 20
15.7516378756
 10
-60.6059050682
 20
12.5849154284
 10
-60.5075325742
 20
9.5347957066
 10
-60.376157868
 20
6.6059837081
 10
-60.2147267134
 20
3.7973224029
 10
-60.0311292087
 20
1.1700054317
  0
LINE
  5
23B
100
AcDbEntity
  8
RACCORDO
100
AcDbLine
 62
250
  6
CONTINUOUS
 10
-60.7275639248
 20
26.8425127803
 11
-60.7307122031
 21
28.2759095869
  0
LINE
  5
23C
100
AcDbEntity
  8
RACCORDO
100
AcDbLine
 62
250
  6
CONTINUOUS
 10
-60.7307122031
 20
28.2759095869
 11
-60.7314658932
 21
29.6795576715
  0
LINE
  5
23D
100
AcDbEntity
  8
RACCORDO
100
AcDbLine
 62
250
  6
CONTINUOUS
 10
-60.7314658932
 20
29.6795576715
 11
-60.7292628829
 21
31.1201886309
  0
LINE
  5
23E
100
AcDbEntity
  8
RACCORDO
100
AcDbLine
 62
250
  6
CONTINUOUS
 10
-60.7292628829
 20
31.1201886309
 11
-60.7249315056
 21
32.5168556951
  0
LINE
  5
23F
100
AcDbEntity
  8
RACCORDO
100
AcDbLine
 62
250
  6
CONTINUOUS
 10
-60.7249315056
 20
32.5168556951
 11
-60.7198517713
 21
33.5699710273
  0
LINE
  5
240
100
AcDbEntity
  8
RACCORDO
100
AcDbLine
 62
250
  6
CONTINUOUS
 10
-60.7198517713
 20
33.5699710273
 11
-60.7130035551
 21
34.6389914008
  0
LINE
  5
241
100
AcDbEntity
  8
RACCORDO
100
AcDbLine
 62
250
  6
CONTINUOUS
 10
-60.7130035551
 20
34.6389914008
 11
-60.7043112569
 21
35.7295648995
  0
LINE
  5
242
100
AcDbEntity
  8
RACCORDO
100
AcDbLine
 62
250
  6
CONTINUOUS
 10
-60.7043112569
 20
35.7295648995
 11
-60.6937478636
 21
36.8396903466
  0
LINE
  5
243
100
AcDbEntity
  8
RACCORDO
100
AcDbLine
 62
250
  6
CONTINUOUS
 10
-60.6937478636
 20
36.8396903466
 11
-60.6813636552
 21
37.9620877114
  0
LINE
  5
244
100
AcDbEntity
  8
RACCORDO
100
AcDbLine
 62
250
  6
CONTINUOUS
 10
-60.6813636552
 20
37.9620877114
 11
-60.6672700649
 21
39.0878283674
  0
LINE
  5
245
100
AcDbEntity
  8
RACCORDO
100
AcDbLine
 62
250
  6
CONTINUOUS
 10
-60.6672700649
 20
39.0878283674
 11
-60.6516222757
 21
40.208394564
  0
LINE
  5
246
100
AcDbEntity
  8
RACCORDO
100
AcDbLine
 62
250
  6
CONTINUOUS
 10
-60.6516222757
 20
40.208394564
 11
-60.6346029797
 21
41.3164611949
  0
LINE
  5
247
100
AcDbEntity
  8
RACCORDO
100
AcDbLine
 62
250
  6
CONTINUOUS
 10
-60.6346029797
 20
41.3164611949
 11
-60.6162894815
 21
42.4073415938
  0
LWPOLYLINE
  5
248
100
AcDbEntity
  8
RACCORDO
100
AcDbPolyline
 62
250
  6
CONTINUOUS
 90
10
 70
0
 10
-60.0313590828
 20
58.655350469
 10
-60.0316167588
 20
58.6411642572
 10
-60.0294047871
 20
58.6204776705
 10
-60.0241440594
 20
58.5997917056
 10
-60.0158668596
 20
58.5792332988
 10
-60.0046239815
 20
58.5589286037
 10
-59.9904844177
 20
58.5390022169
 10
-59.9735349357
 20
58.5195764137
 10
-59.9538795454
 20
58.5007703966
 10
-59.9316388609
 20
58.4826995654
  0
LINE
  5
249
100
AcDbEntity
  8
RACCORDO
100
AcDbLine
 62
250
  6
CONTINUOUS
 10
-60.6162894815
 20
42.4073415938
 11
-60.59639017
 21
43.4809464798
  0
LINE
  5
24A
100
AcDbEntity
  8
RACCORDO
100
AcDbLine
 62
250
  6
CONTINUOUS
 10
-60.59639017
 20
43.4809464798
 11
-60.5744744798
 21
44.542207693
  0
LINE
  5
24B
100
AcDbEntity
  8
RACCORDO
100
AcDbLine
 62
250
  6
CONTINUOUS
 10
-60.5744744798
 20
44.542207693
 11
-60.5500199483
 21
45.5992418202
  0
LINE
  5
24C
100
AcDbEntity
  8
RACCORDO
100
AcDbLine
 62
250
  6
CONTINUOUS
 10
-60.5500199483
 20
45.5992418202
 11
-60.5319991477
 21
46.3059663639
  0
LINE
  5
24D
100
AcDbEntity
  8
RACCORDO
100
AcDbLine
 62
250
  6
CONTINUOUS
 10
-60.5319991477
 20
46.3059663639
 11
-60.5122820437
 21
47.0197295685
  0
LINE
  5
24E
100
AcDbEntity
  8
RACCORDO
100
AcDbLine
 62
250
  6
CONTINUOUS
 10
-60.5122820437
 20
47.0197295685
 11
-60.4905209137
 21
47.745230407
  0
LINE
  5
24F
100
AcDbEntity
  8
RACCORDO
100
AcDbLine
 62
250
  6
CONTINUOUS
 10
-60.4905209137
 20
47.745230407
 11
-60.4661976789
 21
48.4909582609
  0
LINE
  5
250
100
AcDbEntity
  8
RACCORDO
100
AcDbLine
 62
250
  6
CONTINUOUS
 10
-60.4661976789
 20
48.4909582609
 11
-60.4384716286
 21
49.2714656655
  0
LINE
  5
251
100
AcDbEntity
  8
RACCORDO
100
AcDbLine
 62
250
  6
CONTINUOUS
 10
-60.4384716286
 20
49.2714656655
 11
-60.4066313218
 21
50.0959572491
  0
LINE
  5
252
100
AcDbEntity
  8
RACCORDO
100
AcDbLine
 62
250
  6
CONTINUOUS
 10
-60.4066313218
 20
50.0959572491
 11
-60.3695834456
 21
50.979624137
  0
LWPOLYLINE
  5
253
100
AcDbEntity
  8
RACCORDO
100
AcDbPolyline
 62
250
  6
CONTINUOUS
 90
13
 70
0
 10
-60.3695834456
 20
50.979624137
 10
-60.3263321394
 20
51.9302859137
 10
-60.3020881579
 20
52.4319319352
 10
-60.2759194348
 20
52.9518461478
 10
-60.2477032104
 20
53.4902561884
 10
-60.2173316196
 20
54.0470202883
 10
-60.1846588971
 20
54.6225077803
 10
-60.1495640957
 20
55.2164901561
 10
-60.11189605
 20
55.8292972392
 10
-60.0714447474
 20
56.4621429054
 10
-60.0280240091
 20
57.1154750348
 10
-59.9814806091
 20
57.7889721171
 10
-59.9316388609
 20
58.4826995654
  0
LWPOLYLINE
  5
254
100
AcDbEntity
  8
RACCORDO
100
AcDbPolyline
 62
7
  6
CONTINUOUS
 90
10
 70
0
 10
-60.0313584805
 20
58.6553591152
 10
-60.2152031202
 20
55.8042015851
 10
-60.3765088996
 20
52.8036532446
 10
-60.5077800424
 20
49.718671128
 10
-60.6060636113
 20
46.5516220904
 10
-60.6770782156
 20
43.3004036074
 10
-60.7307754749
 20
39.9595009506
 10
-60.7713031551
 20
36.5261645336
 10
-60.7962481079
 20
33.0017882167
 10
-60.8045138373
 20
29.4531869561
  0
LWPOLYLINE
  5
255
100
AcDbEntity
  8
RACCORDO
100
AcDbPolyline
 62
250
  6
CONTINUOUS
 90
40
 70
0
 10
-59.9316388609
 20
58.4826995654
 10
-59.913811714
 20
58.675840543
 10
-59.8911439878
 20
58.8610480856
 10
-59.8636068586
 20
59.0383329252
 10
-59.8312042725
 20
59.2068120781
 10
-59.7938791961
 20
59.3673882939
 10
-59.7515052322
 20
59.5227531764
 10
-59.7039346368
 20
59.6740266226
 10
-59.6512465866
 20
59.8201142652
 10
-59.593652201
 20
59.9603873778
 10
-59.5311010457
 20
60.0948341461
 10
-59.4635891605
 20
60.2234866371
 10
-59.3914079236
 20
60.3457780197
 10
-59.3145235191
 20
60.461680396
 10
-59.2329306988
 20
60.5712362086
 10
-59.1469757638
 20
60.6739796423
 10
-59.0566628801
 20
60.769872866
 10
-58.9619658883
 20
60.8589618997
 10
-58.8631973597
 20
60.9409023277
 10
-58.7604153836
 20
61.0156757399
 10
-58.6535566895
 20
61.0833024756
 10
-58.5427608026
 20
61.1434928949
 10
-58.4281128567
 20
61.1962947822
 10
-58.3095335946
 20
61.241658165
 10
-58.1869215479
 20
61.2791446862
 10
-58.0602339829
 20
61.3088622594
 10
-57.9295285271
 20
61.3306974256
 10
-57.7948626112
 20
61.3438766569
 10
-57.6559647659
 20
61.3483887745
 10
-57.5131405398
 20
61.3442322687
 10
-57.3673333731
 20
61.3306404896
 10
-57.2184277847
 20
61.3074210245
 10
-57.0666127427
 20
61.274738925
 10
-56.9133166165
 20
61.2323532173
 10
-56.7586376982
 20
61.1800817541
 10
-56.6025870889
 20
61.1180659528
 10
-56.4464836139
 20
61.0465422774
 10
-56.2908115753
 20
60.9655729089
 10
-56.135212633
 20
60.8750487672
 10
-55.9797480237
 20
60.7749470523
  0
LINE
  5
256
100
AcDbEntity
  8
RACCORDO
100
AcDbLine
 62
7
  6
CONTINUOUS
 10
-45.529264505
 20
54.3517723871
 11
-45.5551794343
 21
54.2790151221
  0
LWPOLYLINE
  5
257
100
AcDbEntity
  8
RACCORDO
100
AcDbPolyline
 62
7
  6
CONTINUOUS
 90
8
 70
0
 10
-45.4732977645
 20
54.4919781509
 10
-45.4807949451
 20
54.4756301678
 10
-45.4880752166
 20
54.4587945741
 10
-45.4951872322
 20
54.441550966
 10
-45.5021964126
 20
54.4239858258
 10
-45.5091177404
 20
54.4061707672
 10
-45.5159186572
 20
54.3881532617
 10
-45.529264505
 20
54.3517723871
  0
LINE
  5
258
100
AcDbEntity
  8
RACCORDO
100
AcDbLine
 62
250
  6
CONTINUOUS
 10
-46.8744113476
 20
45.5643040006
 11
-47.0310743543
 21
45.4844644099
  0
LINE
  5
259
100
AcDbEntity
  8
RACCORDO
100
AcDbLine
 62
7
  6
CONTINUOUS
 10
-47.0753762752
 20
45.3901682101
 11
-46.8855161329
 21
45.4869265686
  0
LINE
  5
25A
100
AcDbEntity
  8
RACCORDO
100
AcDbLine
 62
250
  6
CONTINUOUS
 10
-47.09706984
 20
45.3803207461
 11
-47.1012312869
 21
45.3785513418
  0
LWPOLYLINE
  5
25B
100
AcDbEntity
  8
RACCORDO
100
AcDbPolyline
 62
250
  6
CONTINUOUS
 90
18
 70
0
 10
-54.4963460557
 20
50.6215580205
 10
-54.5192419609
 20
50.6148467707
 10
-54.5436139287
 20
50.609386307
 10
-54.569242987
 20
50.6052256902
 10
-54.5958988686
 20
50.6024023023
 10
-54.6233420803
 20
50.6009415107
 10
-54.6513260555
 20
50.6008564404
 10
-54.6795993687
 20
50.6021478563
 10
-54.7079079942
 20
50.6048041556
 10
-54.7359975894
 20
50.6088014729
 10
-54.7636157797
 20
50.6141038939
 10
-54.7905144249
 20
50.6206637786
 10
-54.8164518506
 20
50.6284221888
 10
-54.8411950183
 20
50.6373094183
 10
-54.8645216188
 20
50.6472456184
 10
-54.8862220709
 20
50.658141516
 10
-54.9061014042
 20
50.6698992155
 10
-54.9239810099
 20
50.6824130782
  0
LWPOLYLINE
  5
25C
100
AcDbEntity
  8
RACCORDO
100
AcDbPolyline
 62
7
  6
CONTINUOUS
 90
37
 70
0
 10
-60.0311314941
 20
1.1700355177
 10
-60.0178645235
 20
1.0193236779
 10
-59.9931531454
 20
0.8060297498
 10
-59.9612488036
 20
0.58923288
 10
-59.922226427
 20
0.3694393567
 10
-59.8761668918
 20
0.1470301858
 10
-59.8231331198
 20
-0.0777026833
 10
-59.7632076943
 20
-0.3043484461
 10
-59.6965052145
 20
-0.5324676079
 10
-59.6231183262
 20
-0.7617050506
 10
-59.5431644644
 20
-0.9916273927
 10
-59.456792722
 20
-1.2217992795
 10
-59.3641312969
 20
-1.4518489786
 10
-59.2653387238
 20
-1.6813471906
 10
-59.1605995463
 20
-1.9098723638
 10
-59.0500743618
 20
-2.1370558583
 10
-58.9339636532
 20
-2.3624816613
 10
-58.8124873986
 20
-2.5857436214
 10
-58.6858386272
 20
-2.806486304
 10
-58.5542583885
 20
-3.0243150314
 10
-58.4179975168
 20
-3.2388407283
 10
-58.277281717
 20
-3.4497263461
 10
-58.1323883314
 20
-3.6565997786
 10
-57.9835975288
 20
-3.8590913341
 10
-57.8311672891
 20
-4.0568916658
 10
-57.675403855
 20
-4.2496546688
 10
-57.5166185378
 20
-4.4370340013
 10
-57.3550966357
 20
-4.6187521091
 10
-57.1911691034
 20
-4.7944863359
 10
-57.0251718614
 20
-4.9639264414
 10
-56.8573981216
 20
-5.1268353813
 10
-56.6882020811
 20
-5.2829118943
 10
-56.5179219191
 20
-5.4318927877
 10
-56.3468000204
 20
-5.5736045158
 10
-56.1751414203
 20
-5.7078134572
 10
-56.003366688
 20
-5.8342227305
 10
-55.8848079796
 20
-5.9168721302
  0
LINE
  5
25D
100
AcDbEntity
  8
RACCORDO
100
AcDbLine
 62
250
  6
CONTINUOUS
 10
-59.9316388609
 20
1.0013577704
 11
-59.9927111133
 21
1.7898343769
  0
LINE
  5
25E
100
AcDbEntity
  8
RACCORDO
100
AcDbLine
 62
7
  6
CONTINUOUS
 10
-60.0311314941
 20
1.1700355177
 11
-60.0311292087
 21
1.1700054317
  0
LINE
  5
25F
100
AcDbEntity
  8
RACCORDO
100
AcDbLine
 62
250
  6
CONTINUOUS
 10
-59.9927111133
 20
1.7898343769
 11
-60.0481503072
 21
2.5432255473
  0
LINE
  5
260
100
AcDbEntity
  8
RACCORDO
100
AcDbLine
 62
250
  6
CONTINUOUS
 10
-60.0481503072
 20
2.5432255473
 11
-60.0985876619
 21
3.2643275607
  0
LINE
  5
261
100
AcDbEntity
  8
RACCORDO
100
AcDbLine
 62
250
  6
CONTINUOUS
 10
-60.0985876619
 20
3.2643275607
 11
-60.1450862499
 21
3.963826315
  0
LINE
  5
262
100
AcDbEntity
  8
RACCORDO
100
AcDbLine
 62
250
  6
CONTINUOUS
 10
-60.1450862499
 20
3.963826315
 11
-60.1882302873
 21
4.6471419532
  0
LINE
  5
263
100
AcDbEntity
  8
RACCORDO
100
AcDbLine
 62
250
  6
CONTINUOUS
 10
-60.1882302873
 20
4.6471419532
 11
-60.2284225024
 21
5.3179108849
  0
LINE
  5
264
100
AcDbEntity
  8
RACCORDO
100
AcDbLine
 62
250
  6
CONTINUOUS
 10
-60.2284225024
 20
5.3179108849
 11
-60.2660896091
 21
5.9813322691
  0
LINE
  5
265
100
AcDbEntity
  8
RACCORDO
100
AcDbLine
 62
250
  6
CONTINUOUS
 10
-60.2660896091
 20
5.9813322691
 11
-60.3015114091
 21
6.6409894257
  0
LINE
  5
266
100
AcDbEntity
  8
RACCORDO
100
AcDbLine
 62
250
  6
CONTINUOUS
 10
-60.3015114091
 20
6.6409894257
 11
-60.334850008
 21
7.2991019013
  0
LINE
  5
267
100
AcDbEntity
  8
RACCORDO
100
AcDbLine
 62
250
  6
CONTINUOUS
 10
-60.334850008
 20
7.2991019013
 11
-60.3662710181
 21
7.9585020207
  0
LINE
  5
268
100
AcDbEntity
  8
RACCORDO
100
AcDbLine
 62
250
  6
CONTINUOUS
 10
-60.3662710181
 20
7.9585020207
 11
-60.3959092058
 21
8.6220052391
  0
LINE
  5
269
100
AcDbEntity
  8
RACCORDO
100
AcDbLine
 62
250
  6
CONTINUOUS
 10
-60.3959092058
 20
8.6220052391
 11
-60.423819237
 21
9.2913603516
  0
LINE
  5
26A
100
AcDbEntity
  8
RACCORDO
100
AcDbLine
 62
250
  6
CONTINUOUS
 10
-60.423819237
 20
9.2913603516
 11
-60.4500772599
 21
9.9692908162
  0
LINE
  5
26B
100
AcDbEntity
  8
RACCORDO
100
AcDbLine
 62
250
  6
CONTINUOUS
 10
-60.4500772599
 20
9.9692908162
 11
-60.4746589411
 21
10.6565755366
  0
LINE
  5
26C
100
AcDbEntity
  8
RACCORDO
100
AcDbLine
 62
250
  6
CONTINUOUS
 10
-60.4746589411
 20
10.6565755366
 11
-60.4975532824
 21
11.3531357645
  0
LWPOLYLINE
  5
26D
100
AcDbEntity
  8
RACCORDO
100
AcDbPolyline
 62
250
  6
CONTINUOUS
 90
3
 70
0
 10
-60.4975532824
 20
11.3531357645
 10
-60.5188174983
 20
12.057829432
 10
-60.5288444302
 20
12.4123434378
  0
LWPOLYLINE
  5
26E
100
AcDbEntity
  8
RACCORDO
100
AcDbPolyline
 62
250
  6
CONTINUOUS
 90
31
 70
0
 10
-54.9302197886
 20
14.1016991581
 10
-54.9230983837
 20
13.5180061187
 10
-54.9148710437
 20
12.9346723023
 10
-54.9054381277
 20
12.3518478348
 10
-54.8947031544
 20
11.7694177625
 10
-54.8825575579
 20
11.1872991974
 10
-54.8688956864
 20
10.6057095541
 10
-54.8536235092
 20
10.0249855396
 10
-54.8366340016
 20
9.445204033
 10
-54.8178210117
 20
8.8664220279
 10
-54.7970959053
 20
8.2889438362
 10
-54.7743492881
 20
7.7129221782
 10
-54.7494504784
 20
7.1383550989
 10
-54.7222752248
 20
6.5653172121
 10
-54.6926821465
 20
5.9940719954
 10
-54.6605130444
 20
5.4245441045
 10
-54.6256140485
 20
4.856302678
 10
-54.5878482494
 20
4.2889535783
 10
-54.5471560911
 20
3.7230143212
 10
-54.5035366509
 20
3.1593983423
 10
-54.4571179311
 20
2.600419468
 10
-54.4076664277
 20
2.0438301257
 10
-54.3545726991
 20
1.4837432628
 10
-54.2978205014
 20
0.9214164403
 10
-54.2371756994
 20
0.3557493325
 10
-54.1714322787
 20
-0.2225125522
 10
-54.1002172851
 20
-0.8134751174
 10
-54.0232569704
 20
-1.4166263369
 10
-53.9391276181
 20
-2.0400636425
 10
-53.8469205193
 20
-2.6862135445
 10
-53.7464361441
 20
-3.3519535697
  0
LWPOLYLINE
  5
26F
100
AcDbEntity
  8
RACCORDO
100
AcDbPolyline
 62
250
  6
CONTINUOUS
 90
31
 70
0
 10
-55.7347509658
 20
16.1797366445
 10
-55.7278823803
 20
15.4952962904
 10
-55.7197668887
 20
14.809569667
 10
-55.7102918437
 20
14.1245872786
 10
-55.6993283135
 20
13.4408549503
 10
-55.6867348659
 20
12.758036643
 10
-55.6723939863
 20
12.0768913461
 10
-55.656182631
 20
11.3980913494
 10
-55.6379530442
 20
10.7211344225
 10
-55.6175420746
 20
10.045023156
 10
-55.5947908583
 20
9.3696213273
 10
-55.569560108
 20
8.6952523949
 10
-55.5416758341
 20
8.0216337186
 10
-55.5108820925
 20
7.3487529883
 10
-55.4769298353
 20
6.6769396437
 10
-55.4395896367
 20
6.0064649786
 10
-55.398569686
 20
5.3367100606
 10
-55.3537465101
 20
4.6685546161
 10
-55.3051888648
 20
4.0044892429
 10
-55.2530602252
 20
3.347534291
 10
-55.1970725947
 20
2.6947476087
 10
-55.1365750314
 20
2.039702724
 10
-55.0716324744
 20
1.3844995699
 10
-55.0019329064
 20
0.7271933761
 10
-54.9259089786
 20
0.0555110231
 10
-54.8431095907
 20
-0.6306421134
 10
-54.7531816777
 20
-1.3306664015
 10
-54.6541799684
 20
-2.0554638968
 10
-54.5448636558
 20
-2.8082966073
 10
-54.4249905557
 20
-3.5849712216
 10
-54.2938190275
 20
-4.3850219971
  0
LINE
  5
270
100
AcDbEntity
  8
RACCORDO
100
AcDbLine
 62
250
  6
CONTINUOUS
 10
-54.9415430869
 20
15.2706136386
 11
-54.9302197886
 21
14.1016991581
  0
LWPOLYLINE
  5
271
100
AcDbEntity
  8
RACCORDO
100
AcDbPolyline
 62
250
  6
CONTINUOUS
 90
32
 70
0
 10
-55.2850536773
 20
16.8363634878
 10
-55.2791051645
 20
16.1557848737
 10
-55.2720598006
 20
15.4717208201
 10
-55.263913271
 20
14.7863334495
 10
-55.2542908699
 20
14.1018378342
 10
-55.2431939248
 20
13.4186587727
 10
-55.2306211082
 20
12.7363714667
 10
-55.2161937319
 20
12.0559165929
 10
-55.1999322696
 20
11.37787587
 10
-55.1818162477
 20
10.7016675793
 10
-55.1614055569
 20
10.0264872423
 10
-55.1387427794
 20
9.352065085
 10
-55.1137853331
 20
8.6786708812
 10
-55.0859653626
 20
8.0063094738
 10
-55.0553171916
 20
7.3348030378
 10
-55.0218064963
 20
6.6643293982
 10
-54.9847624503
 20
5.9954268726
 10
-54.9440306352
 20
5.3273983992
 10
-54.8997654693
 20
4.6609410399
 10
-54.8517593811
 20
3.9986842979
 10
-54.8002288526
 20
3.3435999468
 10
-54.7449574018
 20
2.6927162131
 10
-54.6850880106
 20
2.0397472792
 10
-54.6210274402
 20
1.3865607807
 10
-54.5523689294
 20
0.7312890819
 10
-54.4770351769
 20
0.0620434583
 10
-54.3953368184
 20
-0.6217551072
 10
-54.3069632182
 20
-1.3195275977
 10
-54.2089051674
 20
-2.0414256867
 10
-54.1001595964
 20
-2.7908332655
 10
-53.9817295747
 20
-3.5643664428
 10
-53.8536151025
 20
-4.3620252187
  0
LINE
  5
272
100
AcDbEntity
  8
RACCORDO
100
AcDbLine
 62
250
  6
CONTINUOUS
 10
-55.7452915699
 20
17.5400955591
 11
-55.7347509658
 21
16.1797366445
  0
LINE
  5
273
100
AcDbEntity
  8
RACCORDO
100
AcDbLine
 62
250
  6
CONTINUOUS
 10
-54.9496139245
 20
16.4422894872
 11
-54.9415430869
 21
15.2706136386
  0
LINE
  5
274
100
AcDbEntity
  8
RACCORDO
100
AcDbLine
 62
250
  6
CONTINUOUS
 10
-55.2940089681
 20
18.1978220598
 11
-55.2850536773
 21
16.8363634878
  0
LINE
  5
275
100
AcDbEntity
  8
RACCORDO
100
AcDbLine
 62
250
  6
CONTINUOUS
 10
-55.7524871962
 20
18.9054492223
 11
-55.7452915699
 21
17.5400955591
  0
LINE
  5
276
100
AcDbEntity
  8
RACCORDO
100
AcDbLine
 62
250
  6
CONTINUOUS
 10
-54.9551460523
 20
17.6178223605
 11
-54.9496139245
 21
16.4422894872
  0
LINE
  5
277
100
AcDbEntity
  8
RACCORDO
100
AcDbLine
 62
250
  6
CONTINUOUS
 10
-55.3000595679
 20
19.5662433507
 11
-55.2940089681
 21
18.1978220598
  0
LINE
  5
278
100
AcDbEntity
  8
RACCORDO
100
AcDbLine
 62
250
  6
CONTINUOUS
 10
-55.7571570119
 20
20.291512492
 11
-55.7524871962
 21
18.9054492223
  0
LINE
  5
279
100
AcDbEntity
  8
RACCORDO
100
AcDbLine
 62
250
  6
CONTINUOUS
 10
-54.9599178605
 20
19.3901663546
 11
-54.9551460523
 21
17.6178223605
  0
LINE
  5
27A
100
AcDbEntity
  8
RACCORDO
100
AcDbLine
 62
250
  6
CONTINUOUS
 10
-55.305372307
 20
21.7119049181
 11
-55.3000595679
 21
19.5662433507
  0
LINE
  5
27B
100
AcDbEntity
  8
RACCORDO
100
AcDbLine
 62
250
  6
CONTINUOUS
 10
-55.7610391776
 20
22.4904752811
 11
-55.7571570119
 21
20.291512492
  0
LWPOLYLINE
  5
27C
100
AcDbEntity
  8
RACCORDO
100
AcDbPolyline
 62
7
  6
CONTINUOUS
 90
15
 70
0
 10
-55.0549504744
 20
22.2720258042
 10
-55.0527519168
 20
20.1050440842
 10
-55.0472334162
 20
17.9763016937
 10
-55.0356816304
 20
15.8873792751
 10
-55.0150918107
 20
13.8400839511
 10
-54.9821866679
 20
11.8364772998
 10
-54.9339138689
 20
9.8786111509
 10
-54.8675017657
 20
7.968405398
 10
-54.7801101167
 20
6.1078135962
 10
-54.6685755321
 20
4.2992789375
 10
-54.5312104676
 20
2.54468851
 10
-54.3679790064
 20
0.8448467528
 10
-54.1796791031
 20
-0.8000786601
 10
-53.9676601581
 20
-2.3904761156
 10
-53.7423413045
 20
-3.8724908726
  0
LINE
  5
27D
100
AcDbEntity
  8
RACCORDO
100
AcDbLine
 62
250
  6
CONTINUOUS
 10
-55.7622778775
 20
24.8985231175
 11
-55.7610391776
 21
22.4904752811
  0
LINE
  5
27E
100
AcDbEntity
  8
RACCORDO
100
AcDbLine
 62
250
  6
CONTINUOUS
 10
-55.3077686243
 20
24.8729719692
 11
-55.305372307
 21
21.7119049181
  0
LINE
  5
27F
100
AcDbEntity
  8
RACCORDO
100
AcDbLine
 62
250
  6
CONTINUOUS
 10
-54.9628315888
 20
23.6126969113
 11
-54.9599178605
 21
19.3901663546
  0
LINE
  5
280
100
AcDbEntity
  8
RACCORDO
100
AcDbLine
 62
250
  6
CONTINUOUS
 10
-55.7606284066
 20
27.6610442501
 11
-55.7622779315
 21
24.8985230823
  0
LINE
  5
281
100
AcDbEntity
  8
RACCORDO
100
AcDbLine
 62
250
  6
CONTINUOUS
 10
-55.3059524925
 20
27.6349812492
 11
-55.3077686243
 21
24.8729719692
  0
LINE
  5
282
100
AcDbEntity
  8
RACCORDO
100
AcDbLine
 62
250
  6
CONTINUOUS
 10
-54.959913829
 20
29.104053251
 11
-54.9628315888
 21
23.6126969113
  0
LINE
  5
283
100
AcDbEntity
  8
RACCORDO
100
AcDbLine
 62
250
  6
CONTINUOUS
 10
-55.7576139456
 20
29.3315516215
 11
-55.7606284066
 21
27.6610442501
  0
LINE
  5
284
100
AcDbEntity
  8
RACCORDO
100
AcDbLine
 62
250
  6
CONTINUOUS
 10
-55.3027937155
 20
29.3049603481
 11
-55.3059524925
 21
27.6349812492
  0
LINE
  5
285
100
AcDbEntity
  8
RACCORDO
100
AcDbLine
 62
250
  6
CONTINUOUS
 10
-54.9556804443
 20
30.7354217179
 11
-54.959913829
 21
29.104053251
  0
LINE
  5
286
100
AcDbEntity
  8
RACCORDO
100
AcDbLine
 62
250
  6
CONTINUOUS
 10
-55.7524889627
 20
30.9044475567
 11
-55.7576139456
 21
29.3315516215
  0
LWPOLYLINE
  5
287
100
AcDbEntity
  8
RACCORDO
100
AcDbPolyline
 62
250
  6
CONTINUOUS
 90
3
 70
0
 10
-55.2936855947
 20
31.6308056092
 10
-55.2973453627
 20
30.8771841906
 10
-55.3027937155
 20
29.3049603481
  0
LINE
  5
288
100
AcDbEntity
  8
RACCORDO
100
AcDbLine
 62
250
  6
CONTINUOUS
 10
-54.9478366618
 20
32.3635711849
 11
-54.9556804443
 21
30.7354217179
  0
LINE
  5
289
100
AcDbEntity
  8
RACCORDO
100
AcDbLine
 62
250
  6
CONTINUOUS
 10
-54.9398093503
 20
33.4551879284
 11
-54.9478366618
 21
32.3635711849
  0
LINE
  5
28A
100
AcDbEntity
  8
RACCORDO
100
AcDbLine
 62
250
  6
CONTINUOUS
 10
-54.9288739509
 20
34.5497339885
 11
-54.9398093503
 21
33.4551879284
  0
LWPOLYLINE
  5
28B
100
AcDbEntity
  8
RACCORDO
100
AcDbPolyline
 62
7
  6
CONTINUOUS
 90
12
 70
0
 10
-54.25716617
 20
49.9269295641
 10
-54.2574596351
 20
49.9213336515
 10
-54.2564606493
 20
49.9095707274
 10
-54.2532816675
 20
49.8972226533
 10
-54.2479607931
 20
49.8842797715
 10
-54.2406527096
 20
49.870925771
 10
-54.2313591642
 20
49.8571755786
 10
-54.220078259
 20
49.8430144735
 10
-54.2069592559
 20
49.8285816114
 10
-54.19205188
 20
49.8139234176
 10
-54.1753062931
 20
49.7989936223
 10
-54.156722434
 20
49.7837923102
  0
LWPOLYLINE
  5
28C
100
AcDbEntity
  8
RACCORDO
100
AcDbPolyline
 62
7
  6
CONTINUOUS
 90
13
 70
0
 10
-54.2572067466
 20
49.9269440696
 10
-54.4317342945
 20
48.0931519151
 10
-54.5900857109
 20
46.1257099357
 10
-54.7213440342
 20
44.1222573321
 10
-54.8256960479
 20
42.083528683
 10
-54.9056666329
 20
40.008927158
 10
-54.9645273221
 20
37.8970168118
 10
-55.005152522
 20
35.7464797441
 10
-55.0308345667
 20
33.5556980233
 10
-55.0452933275
 20
31.322701504
 10
-55.0521894235
 20
29.0453660688
 10
-55.0548546485
 20
26.7216770311
 10
-55.0549504744
 20
22.2720258042
  0
LWPOLYLINE
  5
28D
100
AcDbEntity
  8
RACCORDO
100
AcDbPolyline
 62
250
  6
CONTINUOUS
 90
25
 70
0
 10
-54.4751319237
 20
50.6294597582
 10
-54.558316732
 20
49.7881035085
 10
-54.6353156917
 20
48.962690489
 10
-54.7061288028
 20
48.1532206997
 10
-54.7702375843
 20
47.3633060431
 10
-54.8281605171
 20
46.5893346166
 10
-54.8814530444
 20
45.8204707125
 10
-54.9303821812
 20
45.0536228783
 10
-54.9746809125
 20
44.2918825665
 10
-55.0151036359
 20
43.533688426
 10
-55.0515959718
 20
42.7794910137
 10
-55.0842122999
 20
42.0288397728
 10
-55.1138701574
 20
41.2788216823
 10
-55.1406918884
 20
40.5285859967
 10
-55.1645551489
 20
39.7789834616
 10
-55.1860104438
 20
39.029653293
 10
-55.2050929145
 20
38.2794881736
 10
-55.2217674197
 20
37.5295954208
 10
-55.2364790401
 20
36.782936203
 10
-55.2492034656
 20
36.0405571578
 10
-55.2599650063
 20
35.3014116476
 10
-55.2692816738
 20
34.5653209279
 10
-55.2771596402
 20
33.8363197675
 10
-55.2835927334
 20
33.1103733977
 10
-55.2936855947
 20
31.6308056092
  0
LWPOLYLINE
  5
28E
100
AcDbEntity
  8
RACCORDO
100
AcDbPolyline
 62
250
  6
CONTINUOUS
 90
26
 70
0
 10
-54.9239810099
 20
50.6824130782
 10
-55.0087894692
 20
49.8394636808
 10
-55.0866385395
 20
49.012715314
 10
-55.1578694007
 20
48.202040947
 10
-55.2225443155
 20
47.4108289536
 10
-55.2813068743
 20
46.635428151
 10
-55.3352091774
 20
45.865212145
 10
-55.3846355646
 20
45.0970374794
 10
-55.4295557964
 20
44.3339157688
 10
-55.4702192836
 20
43.5745205491
 10
-55.506902572
 20
42.8191969194
 10
-55.5399567376
 20
42.0673660995
 10
-55.5697708694
 20
41.3163054247
 10
-55.5966408103
 20
40.5651017479
 10
-55.6207344445
 20
39.8144955577
 10
-55.6422108148
 20
39.0642588317
 10
-55.6612630818
 20
38.3132159733
 10
-55.6780282829
 20
37.5624196371
 10
-55.6926097886
 20
36.8149735619
 10
-55.705183923
 20
36.0718502603
 10
-55.7159569674
 20
35.3319347649
 10
-55.7251003346
 20
34.5951909917
 10
-55.7327497494
 20
33.8656106421
 10
-55.7391315623
 20
33.1390672037
 10
-55.7444861185
 20
32.40337222
 10
-55.7524889627
 20
30.9044475567
  0
LWPOLYLINE
  5
28F
100
AcDbEntity
  8
RACCORDO
100
AcDbPolyline
 62
250
  6
CONTINUOUS
 90
27
 70
0
 10
-54.1567136132
 20
49.7837834349
 10
-54.2182568326
 20
49.1796632311
 10
-54.2763309831
 20
48.5814212669
 10
-54.3310329571
 20
47.9890214667
 10
-54.382406278
 20
47.4030816795
 10
-54.4306032622
 20
46.8229111397
 10
-54.4758550129
 20
46.2465216385
 10
-54.5182575402
 20
45.6737291138
 10
-54.5578938765
 20
45.1046509654
 10
-54.5949395788
 20
44.5377646107
 10
-54.6294814265
 20
43.9728368374
 10
-54.6615748485
 20
43.4100479097
 10
-54.6913399993
 20
42.8484985796
 10
-54.7189118181
 20
42.2878437896
 10
-54.7443929888
 20
41.7283401235
 10
-54.7678773481
 20
41.1699825803
 10
-54.7894852692
 20
40.6126656659
 10
-54.8093334956
 20
40.0564065893
 10
-54.8274918369
 20
39.501391323
 10
-54.8440401683
 20
38.9477224424
 10
-54.8590727321
 20
38.3952325433
 10
-54.8726744322
 20
37.8437050332
 10
-54.8849284874
 20
37.2931553983
 10
-54.8959196832
 20
36.7435055996
 10
-54.9057309928
 20
36.1944003509
 10
-54.9144442752
 20
35.6457003948
 10
-54.9288739509
 20
34.5497339885
  0
LWPOLYLINE
  5
290
100
AcDbEntity
  8
RACCORDO
100
AcDbPolyline
 62
250
  6
CONTINUOUS
 90
13
 70
0
 10
-46.3240118226
 20
52.0697457885
 10
-46.4534632178
 20
51.4426964142
 10
-46.5754138993
 20
50.8339184394
 10
-46.6902415304
 20
50.2426085069
 10
-46.7981737057
 20
49.6689971677
 10
-46.8995714062
 20
49.1126347276
 10
-46.9949604653
 20
48.5717167884
 10
-47.0845997479
 20
48.0460796811
 10
-47.1687310866
 20
47.535700651
 10
-47.2477945234
 20
47.0390091018
 10
-47.3220733033
 20
46.5554306544
 10
-47.3917235493
 20
46.0853760989
 10
-47.4569614832
 20
45.6287649297
  0
LWPOLYLINE
  5
291
100
AcDbEntity
  8
RACCORDO
100
AcDbPolyline
 62
7
  6
CONTINUOUS
 90
9
 70
0
 10
-45.6327704295
 20
52.1980864885
 10
-45.7556650254
 20
51.6103119832
 10
-45.8740012709
 20
51.0292407919
 10
-45.9877791658
 20
50.4548729147
 10
-46.0968945594
 20
49.8875070467
 10
-46.2014516025
 20
49.3268444927
 10
-46.3017627473
 20
48.7719891671
 10
-46.3979321448
 20
48.2226423749
 10
-46.489855644
 20
47.6791028111
  0
LINE
  5
292
100
AcDbEntity
  8
RACCORDO
100
AcDbLine
 62
250
  6
CONTINUOUS
 10
-46.1867168616
 20
52.7154151301
 11
-46.3240118226
 21
52.0697457885
  0
LWPOLYLINE
  5
293
100
AcDbEntity
  8
RACCORDO
100
AcDbPolyline
 62
7
  6
CONTINUOUS
 90
9
 70
0
 10
-45.6327704295
 20
52.1980864885
 10
-45.6305959438
 20
52.207935573
 10
-45.6282764265
 20
52.2176757664
 10
-45.6258123079
 20
52.2273034563
 10
-45.6232031186
 20
52.2368160126
 10
-45.6204503869
 20
52.2462090083
 10
-45.6175577082
 20
52.255476267
 10
-45.6145268475
 20
52.2646135532
 10
-45.611357669
 20
52.2736185271
  0
LINE
  5
294
100
AcDbEntity
  8
RACCORDO
100
AcDbLine
 62
7
  6
CONTINUOUS
 10
-45.3817615719
 20
53.1982928768
 11
-45.5082762697
 21
52.6206306022
  0
LWPOLYLINE
  5
295
100
AcDbEntity
  8
RACCORDO
100
AcDbPolyline
 62
7
  6
CONTINUOUS
 90
10
 70
0
 10
-45.5082762697
 20
52.6206306022
 10
-45.5171612462
 20
52.5811177472
 10
-45.5266065651
 20
52.5420477855
 10
-45.5366107807
 20
52.5034353429
 10
-45.5471788671
 20
52.4652820016
 10
-45.5583024621
 20
52.427614999
 10
-45.5699580745
 20
52.3904860274
 10
-45.5821342795
 20
52.3539201093
 10
-45.594833517
 20
52.3179167889
 10
-45.611357669
 20
52.2736185271
  0
LWPOLYLINE
  5
296
100
AcDbEntity
  8
RACCORDO
100
AcDbPolyline
 62
250
  6
CONTINUOUS
 90
3
 70
0
 10
-45.887318629
 20
54.0624266636
 10
-46.0412694369
 20
53.3795985361
 10
-46.1867168616
 20
52.7154151301
  0
LWPOLYLINE
  5
297
100
AcDbEntity
  8
RACCORDO
100
AcDbPolyline
 62
250
  6
CONTINUOUS
 90
15
 70
0
 10
-45.4183915144
 20
54.2018263019
 10
-45.5784328144
 20
53.4919147899
 10
-45.730125259
 20
52.8013366335
 10
-45.8734555749
 20
52.1302590002
 10
-46.0080402542
 20
51.4792999543
 10
-46.1342362162
 20
50.8481442374
 10
-46.2531419665
 20
50.2355338864
 10
-46.364710107
 20
49.6419654678
 10
-46.4689640815
 20
49.0671686136
 10
-46.5671111758
 20
48.5087084846
 10
-46.6592022084
 20
47.9665656929
 10
-46.7451655165
 20
47.4409423641
 10
-46.8260277809
 20
46.929711349
 10
-46.9021257141
 20
46.4322117574
 10
-46.9731045047
 20
45.94925731
  0
LINE
  5
298
100
AcDbEntity
  8
RACCORDO
100
AcDbLine
 62
7
  6
CONTINUOUS
 10
-45.2776310135
 20
53.663484093
 11
-45.3817615719
 21
53.1982928768
  0
LWPOLYLINE
  5
299
100
AcDbEntity
  8
RACCORDO
100
AcDbPolyline
 62
7
  6
CONTINUOUS
 90
19
 70
0
 10
-45.2776310135
 20
53.663484093
 10
-45.2697177153
 20
53.6951458969
 10
-45.2602820031
 20
53.726844878
 10
-45.249323877
 20
53.7585810366
 10
-45.2367479101
 20
53.7905752007
 10
-45.2226495292
 20
53.8226065423
 10
-45.2073150144
 20
53.8540125762
 10
-45.1907624054
 20
53.8846904614
 10
-45.1729736625
 20
53.9147430389
 10
-45.1541809466
 20
53.9438163469
 10
-45.1343898018
 20
53.9718959142
 10
-45.113594684
 20
53.9989962118
 10
-45.0920111221
 20
54.0248066915
 10
-45.0695535399
 20
54.0493830338
 10
-45.0463075136
 20
54.072669558
 10
-45.0227453012
 20
54.0941886741
 10
-44.9990243221
 20
54.1137811854
 10
-44.9749871569
 20
54.1316062885
 10
-44.9506338057
 20
54.1476639834
  0
LWPOLYLINE
  5
29A
100
AcDbEntity
  8
RACCORDO
100
AcDbPolyline
 62
7
  6
CONTINUOUS
 90
13
 70
0
 10
-46.5978997223
 20
47.0573612016
 10
-46.59559683
 20
47.0644066621
 10
-46.5934447716
 20
47.0713609218
 10
-46.5914357852
 20
47.0782160638
 10
-46.5895781315
 20
47.0849035292
 10
-46.587846803
 20
47.0914761317
 10
-46.5861917546
 20
47.0981137691
 10
-46.5846141282
 20
47.1048150701
 10
-46.5831129556
 20
47.111578404
 10
-46.5816497184
 20
47.1185931235
 10
-46.5802199619
 20
47.1259263992
 10
-46.5788451494
 20
47.1335179655
 10
-46.489855644
 20
47.6791028111
  0
LINE
  5
29B
100
AcDbEntity
  8
RACCORDO
100
AcDbLine
 62
7
  6
CONTINUOUS
 10
-46.6989776367
 20
46.7542232242
 11
-46.5978997223
 21
47.0573612016
  0
LWPOLYLINE
  5
29C
100
AcDbEntity
  8
RACCORDO
100
AcDbPolyline
 62
7
  6
CONTINUOUS
 90
5
 70
0
 10
-47.1012312869
 20
45.3785513418
 10
-47.0945569574
 20
45.3812579758
 10
-47.0875631656
 20
45.3843094984
 10
-47.0805860898
 20
45.3875780336
 10
-47.0753804211
 20
45.3901659611
  0
LWPOLYLINE
  5
29D
100
AcDbEntity
  8
RACCORDO
100
AcDbPolyline
 62
250
  6
CONTINUOUS
 90
7
 70
0
 10
-47.0389551419
 20
45.480916711
 10
-47.037629259
 20
45.4814485206
 10
-47.0363083434
 20
45.4820041197
 10
-47.0349923951
 20
45.4825835081
 10
-47.0336814142
 20
45.4831866859
 10
-47.0323754006
 20
45.4838136532
 10
-47.0310743543
 20
45.4844644099
  0
LINE
  5
29E
100
AcDbEntity
  8
RACCORDO
100
AcDbLine
 62
7
  6
CONTINUOUS
 10
-47.1012312869
 20
45.3785513418
 11
-47.1013745862
 21
45.3784955247
  0
LWPOLYLINE
  5
29F
100
AcDbEntity
  8
RACCORDO
100
AcDbPolyline
 62
250
  6
CONTINUOUS
 90
40
 70
0
 10
-47.0388984267
 20
45.4809406397
 10
-47.045947988
 20
45.4785879518
 10
-47.0529599348
 20
45.4765158787
 10
-47.0599089731
 20
45.4747075335
 10
-47.0667019668
 20
45.4731608005
 10
-47.0733860558
 20
45.4718396193
 10
-47.0801605968
 20
45.4706929074
 10
-47.0870179865
 20
45.4697196899
 10
-47.0939515443
 20
45.4689184195
 10
-47.1011830947
 20
45.4682698708
 10
-47.1087768473
 20
45.4677860249
 10
-47.1166718099
 20
45.4674884502
 10
-47.1249116755
 20
45.4673927229
 10
-47.1335044911
 20
45.4675183204
 10
-47.1424394477
 20
45.4678844866
 10
-47.1517317871
 20
45.4685119833
 10
-47.1613696775
 20
45.4694210198
 10
-47.1713526121
 20
45.4706323296
 10
-47.1817109579
 20
45.4721726271
 10
-47.1924363061
 20
45.4740659059
 10
-47.2035128499
 20
45.476334424
 10
-47.2149564645
 20
45.4790083069
 10
-47.2267441278
 20
45.4821109742
 10
-47.2388580146
 20
45.4856662247
 10
-47.2513160315
 20
45.4897106555
 10
-47.2640843517
 20
45.4942674146
 10
-47.2771345136
 20
45.4993608736
 10
-47.2904833695
 20
45.5050365777
 10
-47.3040881282
 20
45.5113198772
 10
-47.317900171
 20
45.5182311294
 10
-47.3319143808
 20
45.5258147317
 10
-47.3460627427
 20
45.5340862077
 10
-47.3602869066
 20
45.5430678164
 10
-47.3745771651
 20
45.5528195712
 10
-47.3888367641
 20
45.5633537654
 10
-47.4029853224
 20
45.5746774864
 10
-47.417006537
 20
45.586848732
 10
-47.4307948233
 20
45.5998886936
 10
-47.444147882
 20
45.6137831973
 10
-47.4568662081
 20
45.6285353947
  0
LWPOLYLINE
  5
2A0
100
AcDbEntity
  8
RACCORDO
100
AcDbPolyline
 62
250
  6
CONTINUOUS
 90
22
 70
0
 10
-54.2938190275
 20
-4.3850219971
 10
-54.2657183763
 20
-4.5370377533
 10
-54.2326544047
 20
-4.6913470609
 10
-54.1946031204
 20
-4.8479348532
 10
-54.1515065817
 20
-5.0068560786
 10
-54.1033728349
 20
-5.1680244548
 10
-54.0502775241
 20
-5.3312134795
 10
-53.9920984769
 20
-5.4966866681
 10
-53.9289075091
 20
-5.6641488817
 10
-53.8610795254
 20
-5.8325408346
 10
-53.7886937539
 20
-6.0016041689
 10
-53.7116375426
 20
-6.1715762524
 10
-53.6300078175
 20
-6.3421475681
 10
-53.5437256633
 20
-6.5134572868
 10
-53.4528415261
 20
-6.6853483592
 10
-53.357655248
 20
-6.8570725103
 10
-53.2579999226
 20
-7.0288411621
 10
-53.1540297783
 20
-7.2004349309
 10
-53.0465449071
 20
-7.3704709801
 10
-52.935822863
 20
-7.538495182
 10
-52.8216061062
 20
-7.704974233
 10
-52.703905116
 20
-7.8699147139
  0
LWPOLYLINE
  5
2A1
100
AcDbEntity
  8
RACCORDO
100
AcDbPolyline
 62
250
  6
CONTINUOUS
 90
9
 70
0
 10
-60.0311292087
 20
1.1700054317
 10
-60.0294048215
 20
1.1550076761
 10
-60.0241441172
 20
1.1309378065
 10
-60.015866935
 20
1.1073403958
 10
-60.0046240665
 20
1.0843602463
 10
-59.9904845019
 20
1.0621383728
 10
-59.9735350067
 20
1.0408111368
 10
-59.9538795888
 20
1.0205094097
 10
-59.9316388609
 20
1.0013577704
  0
LWPOLYLINE
  5
2A2
100
AcDbEntity
  8
RACCORDO
100
AcDbPolyline
 62
250
  6
CONTINUOUS
 90
11
 70
0
 10
-47.0310747988
 20
45.4844641833
 10
-47.0317287842
 20
45.470319493
 10
-47.0334150001
 20
45.4569274768
 10
-47.0361204985
 20
45.4443909406
 10
-47.0398245048
 20
45.4328061267
 10
-47.0444985818
 20
45.4222619614
 10
-47.0501068513
 20
45.4128393766
 10
-47.0566062624
 20
45.4046107051
 10
-47.0639469186
 20
45.3976391207
 10
-47.0720724677
 20
45.3919781427
 10
-47.0753762752
 20
45.3901682101
  0
LWPOLYLINE
  5
2A3
100
AcDbEntity
  8
RACCORDO
100
AcDbPolyline
 62
7
  6
CONTINUOUS
 90
6
 70
0
 10
-46.6989776367
 20
46.7542232242
 10
-46.7015053996
 20
46.7292517567
 10
-46.7042598937
 20
46.7044307728
 10
-46.7072410697
 20
46.6797642218
 10
-46.7104488327
 20
46.6552560203
 10
-46.7138830423
 20
46.6309100518
  0
LINE
  5
2A4
100
AcDbEntity
  8
RACCORDO
100
AcDbLine
 62
7
  6
CONTINUOUS
 10
-46.9287686302
 20
45.182187452
 11
-46.9841923711
 21
44.7792300167
  0
LINE
  5
2A5
100
AcDbEntity
  8
RACCORDO
100
AcDbLine
 62
7
  6
CONTINUOUS
 10
-46.8711782041
 20
45.5868323374
 11
-46.9287686302
 21
45.182187452
  0
LWPOLYLINE
  5
2A6
100
AcDbEntity
  8
RACCORDO
100
AcDbPolyline
 62
250
  6
CONTINUOUS
 90
9
 70
0
 10
-46.9731045047
 20
45.94925731
 10
-47.0414550972
 20
45.4632601202
 10
-47.0454880063
 20
45.4467090397
 10
-47.0509507022
 20
45.4314721205
 10
-47.0577824142
 20
45.4177188714
 10
-47.0659071418
 20
45.4056022955
 10
-47.0752345019
 20
45.395257188
 10
-47.085660731
 20
45.3867986376
 10
-47.09706984
 20
45.3803207461
  0
LINE
  5
2A7
100
AcDbEntity
  8
RACCORDO
100
AcDbLine
 62
7
  6
CONTINUOUS
 10
-46.8114034103
 20
45.9932431907
 11
-46.8711782041
 21
45.5868323374
  0
LWPOLYLINE
  5
2A8
100
AcDbEntity
  8
RACCORDO
100
AcDbPolyline
 62
7
  6
CONTINUOUS
 90
3
 70
0
 10
-46.7138830423
 20
46.6309100518
 10
-46.7493903471
 20
46.401727817
 10
-46.8114034103
 20
45.9932431907
  0
LINE
  5
2A9
100
AcDbEntity
  8
RACCORDO
100
AcDbLine
 62
7
  6
CONTINUOUS
 10
-40.8975435114
 20
56.8364847225
 11
-40.8873685286
 21
56.900699491
  0
LWPOLYLINE
  5
2AA
100
AcDbEntity
  8
RACCORDO
100
AcDbPolyline
 62
7
  6
CONTINUOUS
 90
16
 70
0
 10
-46.9841922271
 20
44.7792299261
 10
-46.987567042
 20
44.7585899033
 10
-46.9921209157
 20
44.7388459366
 10
-46.9977957513
 20
44.7201123535
 10
-47.004490249
 20
44.7025232384
 10
-47.0121680928
 20
44.6861481191
 10
-47.0208733288
 20
44.6710103542
 10
-47.0305640999
 20
44.6571783091
 10
-47.0411420389
 20
44.6447902703
 10
-47.0525624982
 20
44.633966415
 10
-47.0647441629
 20
44.624766118
 10
-47.0775776127
 20
44.6172514146
 10
-47.0909561438
 20
44.6114903223
 10
-47.1047602252
 20
44.6074939045
 10
-47.1188965602
 20
44.6052484204
 10
-47.1271181428
 20
44.6047451275
  0
LWPOLYLINE
  5
2AB
100
AcDbEntity
  8
RACCORDO
100
AcDbPolyline
 62
7
  6
CONTINUOUS
 90
6
 70
0
 10
-40.8873685286
 20
56.900699491
 10
-40.88055772
 20
56.9424604182
 10
-40.8770284244
 20
56.9627543457
 10
-40.8733443418
 20
56.9825030378
 10
-40.8696529822
 20
57.0015397901
 10
-40.8660394452
 20
57.0197128622
  0
LWPOLYLINE
  5
2AC
100
AcDbEntity
  8
RACCORDO
100
AcDbPolyline
 62
250
  6
CONTINUOUS
 90
9
 70
0
 10
-52.2129462731
 20
-8.0604684394
 10
-52.2168578185
 20
-8.0829335293
 10
-52.2216864337
 20
-8.1034557642
 10
-52.2274013574
 20
-8.1219098726
 10
-52.2339347375
 20
-8.1381462741
 10
-52.2412630341
 20
-8.152092427
 10
-52.2494282948
 20
-8.1637236878
 10
-52.2583892555
 20
-8.1729280757
 10
-52.2688813356
 20
-8.1799874329
  0
LWPOLYLINE
  5
2AD
100
AcDbEntity
  8
RACCORDO
100
AcDbPolyline
 62
7
  6
CONTINUOUS
 90
9
 70
0
 10
-40.9299687932
 20
56.6643729612
 10
-40.9260526616
 20
56.6803510648
 10
-40.9222629708
 20
56.6972864651
 10
-40.9185715049
 20
56.7151254666
 10
-40.9149561021
 20
56.7338313597
 10
-40.911393785
 20
56.7533091888
 10
-40.9078691622
 20
56.7734072987
 10
-40.9044048694
 20
56.7940608502
 10
-40.8975435114
 20
56.8364847225
  0
LWPOLYLINE
  5
2AE
100
AcDbEntity
  8
RACCORDO
100
AcDbPolyline
 62
250
  6
CONTINUOUS
 90
4
 70
0
 10
-41.1701857313
 20
32.2257772271
 10
-41.1415985513
 20
32.2580555697
 10
-41.0956478041
 20
32.3023307418
 10
-41.0465658968
 20
32.3424163428
  0
LINE
  5
2AF
100
AcDbEntity
  8
RACCORDO
100
AcDbLine
 62
7
  6
CONTINUOUS
 10
-40.9956854946
 20
32.3335151501
 11
-40.9846423043
 21
32.3454917832
  0
LINE
  5
2B0
100
AcDbEntity
  8
RACCORDO
100
AcDbLine
 62
7
  6
CONTINUOUS
 10
-40.9846423043
 20
32.3454917832
 11
-40.935600003
 21
32.3902242164
  0
LWPOLYLINE
  5
2B1
100
AcDbEntity
  8
RACCORDO
100
AcDbPolyline
 62
7
  6
CONTINUOUS
 90
3
 70
0
 10
-40.935600003
 20
32.3902242164
 10
-40.8833545034
 20
32.4300139319
 10
-40.8704578715
 20
32.4385017462
  0
LWPOLYLINE
  5
2B2
100
AcDbEntity
  8
RACCORDO
100
AcDbPolyline
 62
250
  6
CONTINUOUS
 90
3
 70
0
 10
-41.0465658968
 20
32.3424163428
 10
-40.9944074678
 20
32.3781502075
 10
-40.9375990317
 20
32.4102028622
  0
LWPOLYLINE
  5
2B3
100
AcDbEntity
  8
RACCORDO
100
AcDbPolyline
 62
7
  6
CONTINUOUS
 90
19
 70
0
 10
-41.1217732036
 20
32.2570744277
 10
-41.1851412896
 20
32.2161089216
 10
-41.246416179
 20
32.1712659163
 10
-41.3053507787
 20
32.1226402118
 10
-41.3616046181
 20
32.0704483083
 10
-41.4150640319
 20
32.0147386554
 10
-41.4657925272
 20
31.9553234582
 10
-41.5135946686
 20
31.8922424653
 10
-41.5581675714
 20
31.8257051577
 10
-41.5993743708
 20
31.7557121715
 10
-41.6369720591
 20
31.6824453348
 10
-41.6707753972
 20
31.6060249278
 10
-41.7007090905
 20
31.526284731
 10
-41.726599271
 20
31.4431908268
 10
-41.7481754339
 20
31.3570390645
 10
-41.7652299098
 20
31.2680674463
 10
-41.7776012169
 20
31.1764070483
 10
-41.7851381588
 20
31.0821408742
 10
-41.7876847914
 20
30.9853940123
  0
LINE
  5
2B4
100
AcDbEntity
  8
DRAFT
100
AcDbLine
 62
7
  6
CONTINUOUS
 10
-40.7799713857
 20
32.464291912
 11
-41.1217732036
 21
32.2570744277
  0
LINE
  5
2B5
100
AcDbEntity
  8
RACCORDO
100
AcDbLine
 62
250
  6
CONTINUOUS
 10
-39.9878052498
 20
32.2668050715
 11
-40.1513945207
 21
32.1690535802
  0
LWPOLYLINE
  5
2B6
100
AcDbEntity
  8
RACCORDO
100
AcDbPolyline
 62
7
  6
CONTINUOUS
 90
29
 70
0
 10
16.8414178938
 20
-50.5973738051
 10
17.2965436719
 20
-50.5276952135
 10
17.3844034807
 20
-50.5147114403
 10
17.4713703768
 20
-50.5022963716
 10
17.5574768184
 20
-50.4905569305
 10
17.6427861375
 20
-50.4795913325
 10
17.7273258053
 20
-50.4694970381
 10
17.8111053841
 20
-50.460374913
 10
17.8941369419
 20
-50.4523323961
 10
17.9764011938
 20
-50.4454757293
 10
18.0578740669
 20
-50.4399056692
 10
18.1385091183
 20
-50.4357263341
 10
18.2182177271
 20
-50.4330450878
 10
18.2968950949
 20
-50.4319628407
 10
18.3743965673
 20
-50.4325700888
 10
18.4505170679
 20
-50.4349404446
 10
18.5250958864
 20
-50.4391374529
 10
18.5979550414
 20
-50.4452120073
 10
18.6687546789
 20
-50.4531636935
 10
18.7373478711
 20
-50.4629870915
 10
18.8037461892
 20
-50.4747002937
 10
18.8676491755
 20
-50.4882357921
 10
18.9288133871
 20
-50.5035018514
 10
18.9872511085
 20
-50.520463527
 10
19.0426837329
 20
-50.5389640352
 10
19.0949647255
 20
-50.5588458735
 10
19.1442738674
 20
-50.5800774329
 10
19.1905865799
 20
-50.6025238131
 10
19.2362813507
 20
-50.6274137987
  0
LWPOLYLINE
  5
2B7
100
AcDbEntity
  8
RACCORDO
100
AcDbPolyline
 62
250
  6
CONTINUOUS
 90
27
 70
0
 10
17.2347872896
 20
-50.3700627387
 10
17.3373478132
 20
-50.3574053845
 10
17.4405535265
 20
-50.3452628588
 10
17.5445582013
 20
-50.3339101968
 10
17.6488419822
 20
-50.323724738
 10
17.7512330863
 20
-50.3150533889
 10
17.8514723963
 20
-50.3081165416
 10
17.9495493354
 20
-50.3031344976
 10
18.0437744966
 20
-50.3002238142
 10
18.133745501
 20
-50.2994046383
 10
18.2198198647
 20
-50.3006723899
 10
18.3015526139
 20
-50.3039020943
 10
18.3787120106
 20
-50.3089600197
 10
18.4516406699
 20
-50.3157175059
 10
18.5207774981
 20
-50.3240159551
 10
18.5857870663
 20
-50.3336681523
 10
18.6471564024
 20
-50.3445351757
 10
18.7064589547
 20
-50.3567156807
 10
18.7641107114
 20
-50.3703236155
 10
18.8196707826
 20
-50.3852477153
 10
18.8733261487
 20
-50.4014320793
 10
18.9252339732
 20
-50.4188866729
 10
18.9752133171
 20
-50.437591921
 10
19.0229594757
 20
-50.4574179862
 10
19.0684028356
 20
-50.478247435
 10
19.111679813
 20
-50.5000259438
 10
19.1528260932
 20
-50.5226631174
  0
LWPOLYLINE
  5
2B8
100
AcDbEntity
  8
RACCORDO
100
AcDbPolyline
 62
250
  6
CONTINUOUS
 90
16
 70
0
 10
-52.3436406401
 20
-7.6078189603
 10
-52.3257168094
 20
-7.6372410131
 10
-52.3089205611
 20
-7.6670904839
 10
-52.2933050638
 20
-7.6972151738
 10
-52.2790010101
 20
-7.7272596091
 10
-52.2659433348
 20
-7.7572804701
 10
-52.2539600402
 20
-7.7877555019
 10
-52.2431229414
 20
-7.818652005
 10
-52.2335856265
 20
-7.8496951164
 10
-52.2254153152
 20
-7.8809793011
 10
-52.2187249872
 20
-7.9124389631
 10
-52.2136989521
 20
-7.9437074157
 10
-52.2105166182
 20
-7.9744035155
 10
-52.2092852489
 20
-8.0042416925
 10
-52.2100710841
 20
-8.033017168
 10
-52.2129462731
 20
-8.0604684394
  0
LWPOLYLINE
  5
2B9
100
AcDbEntity
  8
RACCORDO
100
AcDbPolyline
 62
250
  6
CONTINUOUS
 90
7
 70
0
 10
-49.5422421772
 20
-10.1185034397
 10
-49.5324817074
 20
-10.1472387153
 10
-49.5200819301
 20
-10.1736228907
 10
-49.5051349544
 20
-10.1974599768
 10
-49.4877518106
 20
-10.2185729048
 10
-49.4680616259
 20
-10.2368048418
 10
-49.4540043447
 20
-10.2471055509
  0
LWPOLYLINE
  5
2BA
100
AcDbEntity
  8
RACCORDO
100
AcDbPolyline
 62
250
  6
CONTINUOUS
 90
22
 70
0
 10
-53.8536151025
 20
-4.3620252187
 10
-53.8262136211
 20
-4.5030125697
 10
-53.7940169576
 20
-4.6466749836
 10
-53.7570809952
 20
-4.7927384148
 10
-53.7155115391
 20
-4.9407458025
 10
-53.6693506012
 20
-5.0906023254
 10
-53.6185149515
 20
-5.2425979626
 10
-53.5629333887
 20
-5.3967385425
 10
-53.5027327423
 20
-5.5525064914
 10
-53.4381076102
 20
-5.7094160272
 10
-53.3692407765
 20
-5.8669560981
 10
-53.2961315812
 20
-6.0250975665
 10
-53.2186913949
 20
-6.1840750529
 10
-53.1369013743
 20
-6.3437446287
 10
-53.0509026031
 20
-6.5037064381
 10
-52.9608100224
 20
-6.6638077166
 10
-52.8665823148
 20
-6.8239606198
 10
-52.768420353
 20
-6.983683994
 10
-52.6668497562
 20
-7.1422434736
 10
-52.5621629785
 20
-7.2992210807
 10
-52.454374003
 20
-7.4545005323
 10
-52.3436405793
 20
-7.6078189217
  0
LWPOLYLINE
  5
2BB
100
AcDbEntity
  8
RACCORDO
100
AcDbPolyline
 62
250
  6
CONTINUOUS
 90
40
 70
0
 10
-53.6371112199
 20
-4.0369299888
 10
-53.6073371859
 20
-4.2006571946
 10
-53.5725573915
 20
-4.3654961234
 10
-53.5327568259
 20
-4.5314373486
 10
-53.4879451493
 20
-4.698148724
 10
-53.4380829294
 20
-4.8659436992
 10
-53.383074875
 20
-5.0357770708
 10
-53.3227467315
 20
-5.2082796857
 10
-53.2572243802
 20
-5.382790319
 10
-53.186863098
 20
-5.5583258882
 10
-53.1116377282
 20
-5.7348399972
 10
-53.0315415509
 20
-5.9123590237
 10
-52.9469714047
 20
-6.0900177793
 10
-52.857897193
 20
-6.2678170164
 10
-52.7643322287
 20
-6.4457454425
 10
-52.6667528975
 20
-6.6229288649
 10
-52.5651407975
 20
-6.7993664798
 10
-52.4595156266
 20
-6.9750599049
 10
-52.3504261719
 20
-7.1491481583
 10
-52.2378688424
 20
-7.32162788
 10
-52.121867899
 20
-7.4925154104
 10
-52.0030289706
 20
-7.6609887791
 10
-51.8813881139
 20
-7.8270154429
 10
-51.7569485467
 20
-7.990652609
 10
-51.6302797604
 20
-8.1512211714
 10
-51.5013213377
 20
-8.3088132264
 10
-51.3701867911
 20
-8.4633700211
 10
-51.2377189546
 20
-8.6139939936
 10
-51.1044774858
 20
-8.7601835991
 10
-50.9699723231
 20
-8.9024840878
 10
-50.8334742036
 20
-9.041569649
 10
-50.6946267837
 20
-9.1779372499
 10
-50.5538437689
 20
-9.3111259458
 10
-50.4115523705
 20
-9.4403739383
 10
-50.2674261124
 20
-9.5659722169
 10
-50.1218587302
 20
-9.6876720303
 10
-49.9763696642
 20
-9.8039094492
 10
-49.8314938938
 20
-9.9141810609
 10
-49.6867732648
 20
-10.0190385235
 10
-49.5422421772
 20
-10.1185034397
  0
LWPOLYLINE
  5
2BC
100
AcDbEntity
  8
RACCORDO
100
AcDbPolyline
 62
250
  6
CONTINUOUS
 90
10
 70
0
 10
-52.6309720679
 20
-8.0415275868
 10
-52.6274175455
 20
-8.0612064865
 10
-52.6229563736
 20
-8.0795401224
 10
-52.617607288
 20
-8.0964480637
 10
-52.6114053866
 20
-8.1118344214
 10
-52.6043713712
 20
-8.1256479724
 10
-52.5964975331
 20
-8.1378674867
 10
-52.5878134599
 20
-8.1484164974
 10
-52.5783476096
 20
-8.1572133146
 10
-52.5728978348
 20
-8.1612277319
  0
LWPOLYLINE
  5
2BD
100
AcDbEntity
  8
RACCORDO
100
AcDbPolyline
 62
7
  6
CONTINUOUS
 90
37
 70
0
 10
-53.7423500726
 20
-3.8724364709
 10
-53.7196325986
 20
-4.0034569625
 10
-53.6802167491
 20
-4.1982594969
 10
-53.6336951284
 20
-4.3958292026
 10
-53.5802433644
 20
-4.5956912831
 10
-53.5200177286
 20
-4.7975303073
 10
-53.4531312023
 20
-5.0011415186
 10
-53.3797429392
 20
-5.2061602285
 10
-53.3000387791
 20
-5.4121898738
 10
-53.2141538708
 20
-5.6189525044
 10
-53.1222770596
 20
-5.8260682693
 10
-53.0246115903
 20
-6.0331564231
 10
-52.9213186293
 20
-6.239924441
 10
-52.8126198726
 20
-6.4459983237
 10
-52.6987390737
 20
-6.6510125406
 10
-52.5798629204
 20
-6.8546817816
 10
-52.4562402032
 20
-7.0566496524
 10
-52.3281195305
 20
-7.2565637959
 10
-52.1957171652
 20
-7.4541499366
 10
-52.0593071221
 20
-7.649069133
 10
-51.9191634961
 20
-7.8409863487
 10
-51.7755284223
 20
-8.0296442252
 10
-51.6286964154
 20
-8.2147231745
 10
-51.4789679567
 20
-8.3959069657
 10
-51.3266066402
 20
-8.5729546093
 10
-51.1719241638
 20
-8.745566216
 10
-51.0152448043
 20
-8.9134463554
 10
-50.8568449345
 20
-9.0763699434
 10
-50.697051657
 20
-9.2340552978
 10
-50.5361995866
 20
-9.3862375152
 10
-50.3745574561
 20
-9.532719394
 10
-50.2124611768
 20
-9.6732379491
 10
-50.0502281387
 20
-9.8075659989
 10
-49.8880700862
 20
-9.93555793
 10
-49.7262659026
 20
-10.0570082511
 10
-49.5651987455
 20
-10.1716512659
 10
-49.4539667588
 20
-10.2471305344
  0
LINE
  5
2BE
100
AcDbEntity
  8
RACCORDO
100
AcDbLine
 62
7
  6
CONTINUOUS
 10
-53.7423413045
 20
-3.8724908726
 11
-53.7423500726
 21
-3.8724364709
  0
LINE
  5
2BF
100
AcDbEntity
  8
RACCORDO
100
AcDbLine
 62
250
  6
CONTINUOUS
 10
-53.7464361441
 20
-3.3519535697
 11
-53.6371112199
 21
-4.0369299888
  0
LWPOLYLINE
  5
2C0
100
AcDbEntity
  8
RACCORDO
100
AcDbPolyline
 62
250
  6
CONTINUOUS
 90
18
 70
0
 10
-47.4568662081
 20
45.6285353947
 10
-47.4547593446
 20
45.60775378
 10
-47.4515216679
 20
45.5879430493
 10
-47.4474668722
 20
45.5693820621
 10
-47.442724152
 20
45.5519968767
 10
-47.43737219
 20
45.5357098256
 10
-47.43146878
 20
45.5204442694
 10
-47.4251075624
 20
45.5062030103
 10
-47.4183726159
 20
45.4929839623
 10
-47.4112925825
 20
45.4807119744
 10
-47.4039295876
 20
45.4693604016
 10
-47.3963533987
 20
45.4589154789
 10
-47.3885909946
 20
45.4493197548
 10
-47.3806983627
 20
45.4405496052
 10
-47.3727261283
 20
45.4325778993
 10
-47.3646824684
 20
45.4253424237
 10
-47.3566054734
 20
45.4188120995
 10
-47.3495412954
 20
45.4136545404
  0
LWPOLYLINE
  5
2C1
100
AcDbEntity
  8
RACCORDO
100
AcDbPolyline
 62
7
  6
CONTINUOUS
 90
25
 70
0
 10
-41.7876847914
 20
-4.9392981666
 10
-41.7851283213
 20
-5.0375996656
 10
-41.7775353384
 20
-5.1363523156
 10
-41.7650030002
 20
-5.2354697362
 10
-41.7474929646
 20
-5.3354317404
 10
-41.7251015474
 20
-5.4356408595
 10
-41.69832816
 20
-5.5343840476
 10
-41.6675502791
 20
-5.6311265068
 10
-41.6328142492
 20
-5.7263311268
 10
-41.5943547971
 20
-5.8197337038
 10
-41.5523521847
 20
-5.9112032465
 10
-41.5068921087
 20
-6.0007601756
 10
-41.4580868606
 20
-6.0883042968
 10
-41.4060009942
 20
-6.1737777146
 10
-41.3507018262
 20
-6.257072746
 10
-41.2922929305
 20
-6.3380018725
 10
-41.2307507969
 20
-6.4165245848
 10
-41.1661275399
 20
-6.4924593844
 10
-41.0986195442
 20
-6.565456729
 10
-41.0280386327
 20
-6.6355662535
 10
-40.9545211237
 20
-6.7024593097
 10
-40.8787791391
 20
-6.765366883
 10
-40.8010720552
 20
-6.8240299957
 10
-40.72116722
 20
-6.8785461778
 10
-40.6390779659
 20
-6.9287714424
  0
LINE
  5
2C2
100
AcDbEntity
  8
RACCORDO
100
AcDbLine
 62
250
  6
CONTINUOUS
 10
-41.8880450082
 20
14.5073983004
 11
-41.8882586291
 21
15.4579535211
  0
LINE
  5
2C3
100
AcDbEntity
  8
RACCORDO
100
AcDbLine
 62
250
  6
CONTINUOUS
 10
-41.8882586291
 20
15.4579535211
 11
-41.8856175113
 21
16.9769028674
  0
LINE
  5
2C4
100
AcDbEntity
  8
RACCORDO
100
AcDbLine
 62
250
  6
CONTINUOUS
 10
-41.8856175113
 20
16.9769028674
 11
-41.8817400457
 21
18.1944834611
  0
LINE
  5
2C5
100
AcDbEntity
  8
RACCORDO
100
AcDbLine
 62
250
  6
CONTINUOUS
 10
-41.8817400457
 20
18.1944834611
 11
-41.8755202666
 21
19.5221359973
  0
LINE
  5
2C6
100
AcDbEntity
  8
RACCORDO
100
AcDbLine
 62
250
  6
CONTINUOUS
 10
-41.8755202666
 20
19.5221359973
 11
-41.8662780948
 21
20.9633366383
  0
LINE
  5
2C7
100
AcDbEntity
  8
RACCORDO
100
AcDbLine
 62
250
  6
CONTINUOUS
 10
-41.8662780948
 20
20.9633366383
 11
-41.8580462413
 21
21.9954272373
  0
LINE
  5
2C8
100
AcDbEntity
  8
RACCORDO
100
AcDbLine
 62
250
  6
CONTINUOUS
 10
-41.8580462413
 20
21.9954272373
 11
-41.8478787124
 21
23.0842788325
  0
LINE
  5
2C9
100
AcDbEntity
  8
RACCORDO
100
AcDbLine
 62
250
  6
CONTINUOUS
 10
-41.8478787124
 20
23.0842788325
 11
-41.8355250416
 21
24.2297143705
  0
LINE
  5
2CA
100
AcDbEntity
  8
RACCORDO
100
AcDbLine
 62
250
  6
CONTINUOUS
 10
-41.8355250416
 20
24.2297143705
 11
-41.8217023012
 21
25.3561586628
  0
LINE
  5
2CB
100
AcDbEntity
  8
RACCORDO
100
AcDbLine
 62
250
  6
CONTINUOUS
 10
-41.8217023012
 20
25.3561586628
 11
-41.8069330762
 21
26.433036769
  0
LINE
  5
2CC
100
AcDbEntity
  8
RACCORDO
100
AcDbLine
 62
250
  6
CONTINUOUS
 10
-41.8069330762
 20
26.433036769
 11
-41.7876847914
 21
27.6925453171
  0
LWPOLYLINE
  5
2CD
100
AcDbEntity
  8
RACCORDO
100
AcDbPolyline
 62
250
  6
CONTINUOUS
 90
34
 70
0
 10
-41.713439992
 20
31.4854252127
 10
-41.7133524368
 20
31.4878699482
 10
-41.7080728097
 20
31.5594090306
 10
-41.7000898813
 20
31.6305438154
 10
-41.6896546345
 20
31.7012425219
 10
-41.6765129927
 20
31.7715380826
 10
-41.6599059102
 20
31.8415281094
 10
-41.6396718724
 20
31.9118633947
 10
-41.6159662458
 20
31.9818954351
 10
-41.588506092
 20
32.0497726067
 10
-41.5572028122
 20
32.1153162845
 10
-41.5221407713
 20
32.1787066697
 10
-41.4832991867
 20
32.2386293691
 10
-41.4405484146
 20
32.2950084121
 10
-41.3940156223
 20
32.3479206913
 10
-41.3440681323
 20
32.3962800325
 10
-41.2906202084
 20
32.4399381302
 10
-41.2337578264
 20
32.4790432008
 10
-41.1741088878
 20
32.5129527313
 10
-41.1116726013
 20
32.5415232061
 10
-41.0464523784
 20
32.5648971653
 10
-40.9790847787
 20
32.5828603026
 10
-40.9096752983
 20
32.5953550807
 10
-40.8381221693
 20
32.602437649
 10
-40.7647522635
 20
32.6040637813
 10
-40.6894463496
 20
32.6002062524
 10
-40.6123266169
 20
32.5908911861
 10
-40.5340829673
 20
32.5761540457
 10
-40.4546551243
 20
32.5558927666
 10
-40.3741061474
 20
32.5302083772
 10
-40.2933121553
 20
32.4994405282
 10
-40.2125663409
 20
32.4637020074
 10
-40.1315779656
 20
32.4228791133
 10
-40.0503475121
 20
32.3769716662
  0
LINE
  5
2CE
100
AcDbEntity
  8
RACCORDO
100
AcDbLine
 62
7
  6
CONTINUOUS
 10
-40.9375990317
 20
32.4102028622
 11
-40.9371678038
 21
32.4104213545
  0
LWPOLYLINE
  5
2CF
100
AcDbEntity
  8
RACCORDO
100
AcDbPolyline
 62
250
  6
CONTINUOUS
 90
19
 70
0
 10
-55.3077686243
 20
24.8729719692
 10
-55.3294395639
 20
24.8619981292
 10
-55.3528340482
 20
24.8522757639
 10
-55.3777361378
 20
24.8438946075
 10
-55.4039159775
 20
24.8369320116
 10
-55.4311319189
 20
24.8314522417
 10
-55.4591327499
 20
24.8275058846
 10
-55.4876600139
 20
24.8251293653
 10
-55.516450395
 20
24.8243446148
 10
-55.5452381497
 20
24.8251588786
 10
-55.5737575581
 20
24.8275646424
 10
-55.6017453773
 20
24.8315396978
 10
-55.6289432721
 20
24.837047351
 10
-55.6551001978
 20
24.844036769
 10
-55.6799747182
 20
24.8524434375
 10
-55.7033372348
 20
24.8621897534
 10
-55.724972105
 20
24.873185756
 10
-55.744679632
 20
24.8853299574
 10
-55.7622779095
 20
24.8985102686
  0
LWPOLYLINE
  5
2D0
100
AcDbEntity
  8
RACCORDO
100
AcDbPolyline
 62
7
  6
CONTINUOUS
 90
16
 70
0
 10
-40.9376029854
 20
32.4102008499
 10
-40.8989788056
 20
32.4280918717
 10
-40.8437937346
 20
32.4482339071
 10
-40.7863148726
 20
32.463239256
 10
-40.7267063123
 20
32.4731308679
 10
-40.6650818963
 20
32.4779642621
 10
-40.6015000442
 20
32.4777727612
 10
-40.5361212785
 20
32.472576575
 10
-40.4692581747
 20
32.4624363958
 10
-40.4012285587
 20
32.4474436325
 10
-40.3322790302
 20
32.4277091211
 10
-40.2626992573
 20
32.4033836328
 10
-40.1928509403
 20
32.3746705766
 10
-40.1230236798
 20
32.3417910836
 10
-40.0534520045
 20
32.3049692133
 10
-40.0091818947
 20
32.2794479324
  0
LWPOLYLINE
  5
2D1
100
AcDbEntity
  8
RACCORDO
100
AcDbPolyline
 62
250
  6
CONTINUOUS
 90
9
 70
0
 10
41.7712803788
 20
-62.5482039313
 10
41.7538432117
 20
-62.5423924354
 10
41.7379369829
 20
-62.5352820862
 10
41.7236787854
 20
-62.5269253653
 10
41.7111736435
 20
-62.517384008
 10
41.7005134501
 20
-62.5067283341
 10
41.6917764334
 20
-62.4950366459
 10
41.6850269139
 20
-62.4823949824
 10
41.684245956
 20
-62.4805602705
  0
LWPOLYLINE
  5
2D2
100
AcDbEntity
  8
RACCORDO
100
AcDbPolyline
 62
250
  6
CONTINUOUS
 90
16
 70
0
 10
-52.703905116
 20
-7.8699147139
 10
-52.6958039877
 20
-7.8813941475
 10
-52.6881248551
 20
-7.8928909221
 10
-52.6808677008
 20
-7.904405027
 10
-52.6740382155
 20
-7.9159149557
 10
-52.6676307102
 20
-7.9274422158
 10
-52.6616280771
 20
-7.9390513034
 10
-52.6559821446
 20
-7.9508005885
 10
-52.6507410414
 20
-7.9626316744
 10
-52.6460321619
 20
-7.9744339397
 10
-52.6418331518
 20
-7.9862779443
 10
-52.6381665345
 20
-7.9980932347
 10
-52.6352272977
 20
-8.0095578433
 10
-52.6330807285
 20
-8.0205646305
 10
-52.6316622072
 20
-8.031221155
 10
-52.6309720581
 20
-8.0415276206
  0
LWPOLYLINE
  5
2D3
100
AcDbEntity
  8
RACCORDO
100
AcDbPolyline
 62
250
  6
CONTINUOUS
 90
12
 70
0
 10
-40.846160587
 20
-6.4710345813
 10
-40.8446800622
 20
-6.5229869592
 10
-40.8402446879
 20
-6.5730121107
 10
-40.8328730373
 20
-6.6209005528
 10
-40.8225959796
 20
-6.6664517498
 10
-40.8094565506
 20
-6.7094749537
 10
-40.7935097724
 20
-6.7497900022
 10
-40.7748224231
 20
-6.787228074
 10
-40.7534727568
 20
-6.8216323948
 10
-40.7295501767
 20
-6.8528588948
 10
-40.7031548598
 20
-6.8807768111
 10
-40.674397338
 20
-6.905269236
  0
LWPOLYLINE
  5
2D4
100
AcDbEntity
  8
RACCORDO
100
AcDbPolyline
 62
250
  6
CONTINUOUS
 90
25
 70
0
 10
-41.4947915726
 20
-5.3475727599
 10
-41.4933864325
 20
-5.3974920363
 10
-41.4892575064
 20
-5.4484321245
 10
-41.4824047941
 20
-5.5003930247
 10
-41.4727743007
 20
-5.5536329402
 10
-41.4604200212
 20
-5.6078936675
 10
-41.4455039409
 20
-5.6624005969
 10
-41.4279956705
 20
-5.7171255518
 10
-41.4079255993
 20
-5.7720967087
 10
-41.3855468799
 20
-5.8266239877
 10
-41.3608284578
 20
-5.8807069463
 10
-41.3338013876
 20
-5.934346027
 10
-41.3048119857
 20
-5.9868524778
 10
-41.2738344934
 20
-6.0382116292
 10
-41.2408946694
 20
-6.0884381508
 10
-41.2064161065
 20
-6.1368872992
 10
-41.1703831377
 20
-6.1835320979
 10
-41.13281143
 20
-6.2283995235
 10
-41.0941715766
 20
-6.2709257623
 10
-41.0544234788
 20
-6.311099027
 10
-41.0136072353
 20
-6.3489311049
 10
-40.9723137355
 20
-6.3838935444
 10
-40.9307399423
 20
-6.4158101951
 10
-40.8886888928
 20
-6.4448572074
 10
-40.846160587
 20
-6.4710345813
  0
LINE
  5
2D5
100
AcDbEntity
  8
RACCORDO
100
AcDbLine
 62
250
  6
CONTINUOUS
 10
-41.7876847914
 20
2.5803289663
 11
-41.8073140122
 21
3.8479077963
  0
LWPOLYLINE
  5
2D6
100
AcDbEntity
  8
RACCORDO
100
AcDbPolyline
 62
250
  6
CONTINUOUS
 90
9
 70
0
 10
-40.0503475121
 20
32.3769716662
 10
-40.0500952741
 20
32.3597541433
 10
-40.0482250678
 20
32.3435712395
 10
-40.0447580261
 20
32.3286058109
 10
-40.0397333249
 20
32.3150269554
 10
-40.0332077414
 20
32.302988106
 10
-40.0252550135
 20
32.292625295
 10
-40.0159650041
 20
32.2840556135
 10
-40.0091818947
 20
32.2794479324
  0
LINE
  5
2D7
100
AcDbEntity
  8
RACCORDO
100
AcDbLine
 62
250
  6
CONTINUOUS
 10
-41.8073140122
 20
3.8479077963
 11
-41.8243715486
 21
5.0867988813
  0
LINE
  5
2D8
100
AcDbEntity
  8
RACCORDO
100
AcDbLine
 62
250
  6
CONTINUOUS
 10
-41.8243715486
 20
5.0867988813
 11
-41.8380527218
 21
6.2120052856
  0
LINE
  5
2D9
100
AcDbEntity
  8
RACCORDO
100
AcDbLine
 62
250
  6
CONTINUOUS
 10
-41.8380527218
 20
6.2120052856
 11
-41.8518457164
 21
7.5245403709
  0
LINE
  5
2DA
100
AcDbEntity
  8
RACCORDO
100
AcDbLine
 62
250
  6
CONTINUOUS
 10
-41.8518457164
 20
7.5245403709
 11
-41.862040949
 21
8.675130563
  0
LINE
  5
2DB
100
AcDbEntity
  8
RACCORDO
100
AcDbLine
 62
250
  6
CONTINUOUS
 10
-41.862040949
 20
8.675130563
 11
-41.8713901634
 21
9.9631503719
  0
LINE
  5
2DC
100
AcDbEntity
  8
RACCORDO
100
AcDbLine
 62
250
  6
CONTINUOUS
 10
-41.8713901634
 20
9.9631503719
 11
-41.8791333389
 21
11.3637852051
  0
LINE
  5
2DD
100
AcDbEntity
  8
RACCORDO
100
AcDbLine
 62
250
  6
CONTINUOUS
 10
-41.8791333389
 20
11.3637852051
 11
-41.8847717707
 21
12.8738891868
  0
LINE
  5
2DE
100
AcDbEntity
  8
RACCORDO
100
AcDbLine
 62
250
  6
CONTINUOUS
 10
-41.8847717707
 20
12.8738891868
 11
-41.8880450082
 21
14.5073983004
  0
LINE
  5
2DF
100
AcDbEntity
  8
RACCORDO
100
AcDbLine
 62
7
  6
CONTINUOUS
 10
-41.7876847914
 20
30.9853940123
 11
-41.7876847914
 21
-4.9392981666
  0
LINE
  5
2E0
100
AcDbEntity
  8
RACCORDO
100
AcDbLine
 62
250
  6
CONTINUOUS
 10
-41.4947915726
 20
30.577119419
 11
-41.4947915726
 21
-5.3475727599
  0
LINE
  5
2E1
100
AcDbEntity
  8
RACCORDO
100
AcDbLine
 62
250
  6
CONTINUOUS
 10
-37.6641160132
 20
54.0065650213
 11
-37.6641160132
 21
54.4522917808
  0
LINE
  5
2E2
100
AcDbEntity
  8
RACCORDO
100
AcDbLine
 62
250
  6
CONTINUOUS
 10
-37.2435864677
 20
53.7637565322
 11
-37.2435864677
 21
54.2094832917
  0
LWPOLYLINE
  5
2E3
100
AcDbEntity
  8
RACCORDO
100
AcDbPolyline
 62
250
  6
CONTINUOUS
 90
25
 70
0
 10
-40.846160587
 20
30.9515584366
 10
-40.8446800622
 20
31.0052204873
 10
-40.8402446879
 20
31.060367498
 10
-40.8328730373
 20
31.1167685374
 10
-40.8225959796
 20
31.1741874231
 10
-40.8094565506
 20
31.2323837102
 10
-40.7935097724
 20
31.2911136984
 10
-40.7748224231
 20
31.3501314528
 10
-40.7534727568
 20
31.409189833
 10
-40.7295501767
 20
31.4680415289
 10
-40.7031548598
 20
31.5264400956
 10
-40.674397338
 20
31.5841409858
 10
-40.6433980351
 20
31.6409025739
 10
-40.6102867623
 20
31.6964871674
 10
-40.575202175
 20
31.7506620028
 10
-40.5382911918
 20
31.8032002198
 10
-40.4997083797
 20
31.8538818119
 10
-40.4596153062
 20
31.9024945468
 10
-40.4181798635
 20
31.9488348561
 10
-40.3755755646
 20
31.9927086872
 10
-40.3319808176
 20
32.0339323158
 10
-40.2875781779
 20
32.0723331158
 10
-40.242553584
 20
32.1077502815
 10
-40.1970955789
 20
32.1400355017
 10
-40.1513945207
 20
32.1690535802
  0
LWPOLYLINE
  5
2E4
100
AcDbEntity
  8
RACCORDO
100
AcDbPolyline
 62
250
  6
CONTINUOUS
 90
19
 70
0
 10
41.3861531495
 20
-58.9021719145
 10
41.4183456953
 20
-58.9146856755
 10
41.452256182
 20
-58.925262958
 10
41.4876697805
 20
-58.933836753
 10
41.5243621394
 20
-58.9403527439
 10
41.562100806
 20
-58.9447696508
 10
41.600646699
 20
-58.9470594916
 10
41.6397556233
 20
-58.9472077599
 10
41.6791798169
 20
-58.9452135163
 10
41.7186695203
 20
-58.9410893946
 10
41.7579745593
 20
-58.9348615218
 10
41.7968459293
 20
-58.9265693527
 10
41.8350373732
 20
-58.9162654195
 10
41.8723069412
 20
-58.9040149996
 10
41.9084185238
 20
-58.8898957013
 10
41.9431433478
 20
-58.8739969731
 10
41.9762614249
 20
-58.8564195362
 10
42.0075629461
 20
-58.8372747468
 10
42.0368496106
 20
-58.8166838906
  0
LWPOLYLINE
  5
2E5
100
AcDbEntity
  8
RACCORDO
100
AcDbPolyline
 62
250
  6
CONTINUOUS
 90
39
 70
0
 10
38.3452724825
 20
-60.8483128586
 10
38.4994201733
 20
-60.9173519516
 10
38.6500143915
 20
-60.9796817208
 10
38.7966991919
 20
-61.0350879578
 10
38.9398824131
 20
-61.0837426242
 10
39.0807374271
 20
-61.1262024274
 10
39.219963727
 20
-61.1627202817
 10
39.3569257051
 20
-61.192991263
 10
39.4907946112
 20
-61.2167348919
 10
39.6215215554
 20
-61.2338693197
 10
39.7492180237
 20
-61.244425435
 10
39.8732903296
 20
-61.2482963406
 10
39.9937473673
 20
-61.2454288403
 10
40.1106382877
 20
-61.2358288752
 10
40.2234223326
 20
-61.2194843263
 10
40.3321119729
 20
-61.1963439422
 10
40.4367436952
 20
-61.1664191173
 10
40.5368029639
 20
-61.1297996792
 10
40.6322892175
 20
-61.0864348058
 10
40.7232387329
 20
-61.0363462428
 10
40.8091802753
 20
-60.9797424039
 10
40.8900883159
 20
-60.9165933625
 10
40.966007779
 20
-60.846913255
 10
41.0365603339
 20
-60.7709869904
 10
41.1017416883
 20
-60.6887344996
 10
41.1615599594
 20
-60.6002327377
 10
41.2156410823
 20
-60.506013831
 10
41.2638660395
 20
-60.4065154091
 10
41.3063356435
 20
-60.3013146633
 10
41.3430031071
 20
-60.1896550706
 10
41.3740897217
 20
-60.0712887969
 10
41.3993704144
 20
-59.9464667548
 10
41.4181285324
 20
-59.8151808016
 10
41.4303160403
 20
-59.6770696815
 10
41.4359636883
 20
-59.5325087222
 10
41.4344546469
 20
-59.3826095991
 10
41.4255633562
 20
-59.2277591119
 10
41.4094696961
 20
-59.0676076493
 10
41.3861531495
 20
-58.9021719145
  0
LINE
  5
2E6
100
AcDbEntity
  8
RACCORDO
100
AcDbLine
 62
250
  6
CONTINUOUS
 10
45.8861761675
 20
-64.551149063
 11
45.7038286048
 21
-64.4664843866
  0
LWPOLYLINE
  5
2E7
100
AcDbEntity
  8
RACCORDO
100
AcDbPolyline
 62
7
  6
CONTINUOUS
 90
22
 70
0
 10
45.8022747928
 20
-64.6299664787
 10
45.9304838155
 20
-64.6910940367
 10
46.1144417187
 20
-64.7729892025
 10
46.2966751128
 20
-64.8472074098
 10
46.4769656737
 20
-64.913658372
 10
46.6551617507
 20
-64.9722936653
 10
46.8311847663
 20
-65.0231019291
 10
47.0049130314
 20
-65.0660475211
 10
47.1762091224
 20
-65.1010951761
 10
47.3449790179
 20
-65.128233807
 10
47.5111050996
 20
-65.1474389138
 10
47.6744253348
 20
-65.1586791339
 10
47.8347771587
 20
-65.1619492101
 10
47.9920310165
 20
-65.1572493398
 10
48.1460017113
 20
-65.1445782087
 10
48.2964251937
 20
-65.1239700198
 10
48.4431435326
 20
-65.0954704628
 10
48.5859382147
 20
-65.0591381993
 10
48.7244378626
 20
-65.0151073542
 10
48.8583867873
 20
-64.9635367406
 10
48.9876428249
 20
-64.9045569754
 10
49.05902394
 20
-64.8677479336
  0
LINE
  5
2E8
100
AcDbEntity
  8
RACCORDO
100
AcDbLine
 62
250
  6
CONTINUOUS
 10
38.1875470303
 20
-60.7725842156
 11
38.3452724825
 21
-60.8483128586
  0
LINE
  5
2E9
100
AcDbEntity
  8
RACCORDO
100
AcDbLine
 62
250
  6
CONTINUOUS
 10
45.7038286048
 20
-64.4664843866
 11
44.4227882569
 21
-63.8443743805
  0
LINE
  5
2EA
100
AcDbEntity
  8
RACCORDO
100
AcDbLine
 62
250
  6
CONTINUOUS
 10
44.4227882569
 20
-63.8443743805
 11
43.1530387398
 21
-63.2251934755
  0
LWPOLYLINE
  5
2EB
100
AcDbEntity
  8
RACCORDO
100
AcDbPolyline
 62
7
  6
CONTINUOUS
 90
21
 70
0
 10
38.2798443515
 20
-60.9036886897
 10
38.3909601286
 20
-60.9582070114
 10
38.56276191
 20
-61.0376225829
 10
38.7336837159
 20
-61.1105686072
 10
38.9036227797
 20
-61.1768494256
 10
39.0722448024
 20
-61.2361862559
 10
39.2390109487
 20
-61.2882654656
 10
39.4037941591
 20
-61.3329287635
 10
39.566435896
 20
-61.3700160134
 10
39.7264249731
 20
-61.3993058305
 10
39.8836683599
 20
-61.4206846768
 10
40.0380247363
 20
-61.4340430649
 10
40.1889667383
 20
-61.4392645924
 10
40.3364330167
 20
-61.4362914718
 10
40.4802479612
 20
-61.4250785287
 10
40.6197360167
 20
-61.4056704141
 10
40.7548225078
 20
-61.3781040735
 10
40.8852801494
 20
-61.3424660936
 10
41.0102329935
 20
-61.2991175294
 10
41.1295958362
 20
-61.2482820727
 10
41.234746267
 20
-61.1949157832
  0
LINE
  5
2EC
100
AcDbEntity
  8
RACCORDO
100
AcDbLine
 62
250
  6
CONTINUOUS
 10
43.1530387398
 20
-63.2251934755
 11
41.9529096486
 21
-62.6373630751
  0
LINE
  5
2ED
100
AcDbEntity
  8
RACCORDO
100
AcDbLine
 62
250
  6
CONTINUOUS
 10
41.9529096486
 20
-62.6373630751
 11
41.7712766049
 21
-62.5482028465
  0
LINE
  5
2EE
100
AcDbEntity
  8
RACCORDO
100
AcDbLine
 62
7
  6
CONTINUOUS
 10
43.5245871112
 20
-63.5115376994
 11
45.8022887848
 21
-64.6299733303
  0
LINE
  5
2EF
100
AcDbEntity
  8
RACCORDO
100
AcDbLine
 62
7
  6
CONTINUOUS
 10
41.9141372403
 20
-62.7163484101
 11
43.5245871112
 21
-63.5115376994
  0
LINE
  5
2F0
100
AcDbEntity
  8
RACCORDO
100
AcDbLine
 62
250
  6
CONTINUOUS
 10
37.075362476
 20
-60.216322901
 11
38.1875470303
 21
-60.7725842156
  0
LINE
  5
2F1
100
AcDbEntity
  8
RACCORDO
100
AcDbLine
 62
250
  6
CONTINUOUS
 10
36.0175944738
 20
-59.6843056752
 11
37.075362476
 21
-60.216322901
  0
LINE
  5
2F2
100
AcDbEntity
  8
RACCORDO
100
AcDbLine
 62
250
  6
CONTINUOUS
 10
35.0147970885
 20
-59.1769699082
 11
36.0175944738
 21
-59.6843056752
  0
LINE
  5
2F3
100
AcDbEntity
  8
RACCORDO
100
AcDbLine
 62
250
  6
CONTINUOUS
 10
34.0689847149
 20
-58.6956040396
 11
35.0147970885
 21
-59.1769699082
  0
LINE
  5
2F4
100
AcDbEntity
  8
RACCORDO
100
AcDbLine
 62
250
  6
CONTINUOUS
 10
33.1822169225
 20
-58.2415684754
 11
34.0689847149
 21
-58.6956040396
  0
LINE
  5
2F5
100
AcDbEntity
  8
RACCORDO
100
AcDbLine
 62
250
  6
CONTINUOUS
 10
32.3552044542
 20
-57.8155912678
 11
33.1822169225
 21
-58.2415684754
  0
LINE
  5
2F6
100
AcDbEntity
  8
RACCORDO
100
AcDbLine
 62
250
  6
CONTINUOUS
 10
31.2276438076
 20
-57.230574566
 11
32.3552044542
 21
-57.8155912678
  0
LINE
  5
2F7
100
AcDbEntity
  8
RACCORDO
100
AcDbLine
 62
250
  6
CONTINUOUS
 10
30.2220427995
 20
-56.7042294667
 11
31.2276438076
 21
-57.230574566
  0
LINE
  5
2F8
100
AcDbEntity
  8
RACCORDO
100
AcDbLine
 62
250
  6
CONTINUOUS
 10
29.3240064618
 20
-56.2299781797
 11
30.2220427995
 21
-56.7042294667
  0
LINE
  5
2F9
100
AcDbEntity
  8
RACCORDO
100
AcDbLine
 62
250
  6
CONTINUOUS
 10
28.7758004688
 20
-55.9383094064
 11
29.3240064618
 21
-56.2299781797
  0
LWPOLYLINE
  5
2FA
100
AcDbEntity
  8
RACCORDO
100
AcDbPolyline
 62
7
  6
CONTINUOUS
 90
21
 70
0
 10
15.1187018188
 20
-50.5154902036
 10
15.160565968
 20
-50.5382660419
 10
15.2265377459
 20
-50.5699383673
 10
15.2971512923
 20
-50.5985555294
 10
15.3719927954
 20
-50.6235017632
 10
15.4505149546
 20
-50.6443496441
 10
15.5322874593
 20
-50.6609986634
 10
15.6170759837
 20
-50.6735384862
 10
15.7044325182
 20
-50.6822056613
 10
15.7939730711
 20
-50.6872804758
 10
15.8854516789
 20
-50.6891181479
 10
15.9784446269
 20
-50.6880527814
 10
16.0730428987
 20
-50.6843906982
 10
16.1689301184
 20
-50.6784440062
 10
16.2651547437
 20
-50.6705392728
 10
16.3617513144
 20
-50.6609757898
 10
16.4587496455
 20
-50.6499818221
 10
16.5552255293
 20
-50.6379033976
 10
16.6512462651
 20
-50.6249679567
 10
16.7469176575
 20
-50.6113529392
 10
16.8414178938
 20
-50.5973738051
  0
LWPOLYLINE
  5
2FB
100
AcDbEntity
  8
RACCORDO
100
AcDbPolyline
 62
250
  6
CONTINUOUS
 90
28
 70
0
 10
15.0149621344
 20
-50.3058982996
 10
15.0471766166
 20
-50.3235423239
 10
15.082625647
 20
-50.3415705368
 10
15.1214753785
 20
-50.3597187383
 10
15.1640306613
 20
-50.3777154237
 10
15.210351127
 20
-50.3952549385
 10
15.2602178871
 20
-50.4120533969
 10
15.3140505428
 20
-50.4279382804
 10
15.3717691031
 20
-50.4425577165
 10
15.432286465
 20
-50.4555540825
 10
15.495599597
 20
-50.4668560233
 10
15.5618338129
 20
-50.4763662902
 10
15.6299190806
 20
-50.4839692808
 10
15.6995039852
 20
-50.4897302265
 10
15.7708656351
 20
-50.4937272104
 10
15.8437832656
 20
-50.4960108777
 10
15.9180235545
 20
-50.4966866186
 10
15.9937060465
 20
-50.4958529297
 10
16.0711400457
 20
-50.4935489701
 10
16.1503186747
 20
-50.4898639684
 10
16.2311499071
 20
-50.4848920269
 10
16.3138335832
 20
-50.4786527187
 10
16.3984128578
 20
-50.4712474938
 10
16.4847271156
 20
-50.4627931582
 10
16.5726668587
 20
-50.4533393297
 10
16.6619663289
 20
-50.443059628
 10
16.752720953
 20
-50.4320860387
 10
17.2347872896
 20
-50.3700627387
  0
LINE
  5
2FC
100
AcDbEntity
  8
RACCORDO
100
AcDbLine
 62
250
  6
CONTINUOUS
 10
10.2877816875
 20
-47.6064157062
 11
15.0149621146
 21
-50.3058982924
  0
LINE
  5
2FD
100
AcDbEntity
  8
RACCORDO
100
AcDbLine
 62
250
  6
CONTINUOUS
 10
7.3239907326
 20
-45.911363474
 11
10.2877816875
 21
-47.6064157062
  0
LINE
  5
2FE
100
AcDbEntity
  8
RACCORDO
100
AcDbLine
 62
250
  6
CONTINUOUS
 10
4.5093198001
 20
-44.2988481776
 11
7.3239907326
 21
-45.911363474
  0
LINE
  5
2FF
100
AcDbEntity
  8
RACCORDO
100
AcDbLine
 62
250
  6
CONTINUOUS
 10
1.8457576961
 20
-42.7695304235
 11
4.5093198001
 21
-44.2988481776
  0
LINE
  5
300
100
AcDbEntity
  8
RACCORDO
100
AcDbLine
 62
250
  6
CONTINUOUS
 10
-0.662725725
 20
-41.3258249067
 11
1.8457576961
 21
-42.7695304235
  0
LWPOLYLINE
  5
301
100
AcDbEntity
  8
RACCORDO
100
AcDbPolyline
 62
7
  6
CONTINUOUS
 90
8
 70
0
 10
-3.2568964354
 20
-39.9789024954
 10
-0.6877662019
 20
-41.4612231492
 10
1.902938812
 20
-42.9523635197
 10
4.5152284785
 20
-44.452305657
 10
7.148701184
 20
-45.9612569635
 10
9.8028139871
 20
-47.4795152128
 10
12.4769910104
 20
-49.0074147548
 10
15.1181741855
 20
-50.5151903928
  0
LINE
  5
302
100
AcDbEntity
  8
RACCORDO
100
AcDbLine
 62
250
  6
CONTINUOUS
 10
-2.9870473505
 20
-39.9850652265
 11
-0.662725725
 21
-41.3258249067
  0
LINE
  5
303
100
AcDbEntity
  8
RACCORDO
100
AcDbLine
 62
250
  6
CONTINUOUS
 10
-13.7089566265
 20
-33.7943672627
 11
-8.3800599157
 21
-36.8669095789
  0
LINE
  5
304
100
AcDbEntity
  8
RACCORDO
100
AcDbLine
 62
250
  6
CONTINUOUS
 10
-16.1201126741
 20
-32.4009019933
 11
-13.7089566265
 21
-33.7943672627
  0
LINE
  5
305
100
AcDbEntity
  8
RACCORDO
100
AcDbLine
 62
7
  6
CONTINUOUS
 10
-8.2771548386
 20
-37.0760267925
 11
-3.2568964354
 21
-39.9789024954
  0
LINE
  5
306
100
AcDbEntity
  8
RACCORDO
100
AcDbLine
 62
250
  6
CONTINUOUS
 10
-8.3800602311
 20
-36.8669097786
 11
-2.9870473505
 21
-39.9850652265
  0
LINE
  5
307
100
AcDbEntity
  8
RACCORDO
100
AcDbLine
 62
250
  6
CONTINUOUS
 10
-18.4607698514
 20
-31.0451519753
 11
-16.1201126741
 21
-32.4009019933
  0
LINE
  5
308
100
AcDbEntity
  8
RACCORDO
100
AcDbLine
 62
250
  6
CONTINUOUS
 10
-20.8338349007
 20
-29.6676254869
 11
-18.4607698514
 21
-31.0451519753
  0
LINE
  5
309
100
AcDbEntity
  8
RACCORDO
100
AcDbLine
 62
250
  6
CONTINUOUS
 10
-23.2956774237
 20
-28.2356439725
 11
-20.8338349007
 21
-29.6676254869
  0
LINE
  5
30A
100
AcDbEntity
  8
RACCORDO
100
AcDbLine
 62
250
  6
CONTINUOUS
 10
-27.3092491528
 20
-25.8963953205
 11
-23.2956774237
 21
-28.2356439725
  0
LWPOLYLINE
  5
30B
100
AcDbEntity
  8
RACCORDO
100
AcDbPolyline
 62
7
  6
CONTINUOUS
 90
9
 70
0
 10
-31.5508491215
 20
-23.5690810195
 10
-28.8981385699
 20
-25.1182039241
 10
-26.2174457403
 20
-26.6823134313
 10
-23.5649570555
 20
-28.2280575793
 10
-20.9401296453
 20
-29.7551486225
 10
-18.3423982151
 20
-31.2632561578
 10
-15.7714395166
 20
-32.752191207
 10
-13.2274205218
 20
-34.2220221454
 10
-8.276965989
 20
-37.0761359276
  0
LINE
  5
30C
100
AcDbEntity
  8
RACCORDO
100
AcDbLine
 62
250
  6
CONTINUOUS
 10
-31.6538457837
 20
-23.3599135095
 11
-27.3092491528
 21
-25.8963953205
  0
LWPOLYLINE
  5
30D
100
AcDbEntity
  8
RACCORDO
100
AcDbPolyline
 62
7
  6
CONTINUOUS
 90
10
 70
0
 10
-49.4540043447
 20
-10.2471055509
 10
-47.6045975542
 20
-11.4708607273
 10
-45.6873462757
 20
-12.7254949583
 10
-43.7525062529
 20
-13.974592513
 10
-41.7968262573
 20
-15.2165701616
 10
-39.8150019464
 20
-16.4485725479
 10
-37.8015582602
 20
-17.6672752864
 10
-35.7566184823
 20
-18.871398632
 10
-33.6933156013
 20
-20.0673681608
 10
-32.096961881
 20
-20.9884180339
  0
LINE
  5
30E
100
AcDbEntity
  8
RACCORDO
100
AcDbLine
 62
250
  6
CONTINUOUS
 10
-48.6165197187
 20
-10.7352502142
 11
-47.7388960865
 21
-11.3169054266
  0
LINE
  5
30F
100
AcDbEntity
  8
RACCORDO
100
AcDbLine
 62
250
  6
CONTINUOUS
 10
-49.5422421772
 20
-10.1185034397
 11
-48.6165197187
 21
-10.7352502142
  0
LINE
  5
310
100
AcDbEntity
  8
RACCORDO
100
AcDbLine
 62
7
  6
CONTINUOUS
 10
-53.9528129056
 20
-7.2291612675
 11
-52.5728922876
 21
-8.1612314696
  0
LINE
  5
311
100
AcDbEntity
  8
RACCORDO
100
AcDbLine
 62
250
  6
CONTINUOUS
 10
-52.6309720581
 20
-8.0415276206
 11
-53.4164046497
 21
-7.5081277676
  0
LWPOLYLINE
  5
312
100
AcDbEntity
  8
RACCORDO
100
AcDbPolyline
 62
7
  6
CONTINUOUS
 90
3
 70
0
 10
-55.884844168
 20
-5.9168474835
 10
-55.5235146591
 20
-6.1628697852
 10
-53.9528129056
 20
-7.2291612675
  0
LINE
  5
313
100
AcDbEntity
  8
RACCORDO
100
AcDbLine
 62
250
  6
CONTINUOUS
 10
-53.4164046497
 20
-7.5081277676
 11
-54.2241069605
 21
-6.9577824387
  0
LINE
  5
314
100
AcDbEntity
  8
RACCORDO
100
AcDbLine
 62
250
  6
CONTINUOUS
 10
-54.2241069605
 20
-6.9577824387
 11
-55.0756805126
 21
-6.3756539126
  0
LINE
  5
315
100
AcDbEntity
  8
RACCORDO
100
AcDbLine
 62
250
  6
CONTINUOUS
 10
-55.0756805126
 20
-6.3756539126
 11
-55.9797480237
 21
-5.7556616358
  0
LWPOLYLINE
  5
316
100
AcDbEntity
  8
RACCORDO
100
AcDbPolyline
 62
250
  6
CONTINUOUS
 90
40
 70
0
 10
-55.9797480237
 20
-5.7556616358
 10
-56.1287102882
 20
-5.6495872106
 10
-56.2753824291
 20
-5.5395805262
 10
-56.419721223
 20
-5.4256144388
 10
-56.5610232953
 20
-5.3080817309
 10
-56.6999092926
 20
-5.1865376676
 10
-56.8383203092
 20
-5.0596977527
 10
-56.9770790169
 20
-4.9269082337
 10
-57.1152753985
 20
-4.788768011
 10
-57.2522520961
 20
-4.645871933
 10
-57.3879720512
 20
-4.4981693547
 10
-57.5223969809
 20
-4.3456636075
 10
-57.6548770839
 20
-4.1890364029
 10
-57.785367359
 20
-4.0282610354
 10
-57.9138533401
 20
-3.8633268656
 10
-58.0397425843
 20
-3.6949469614
 10
-58.1629648561
 20
-3.5231643561
 10
-58.2835492425
 20
-3.3479101757
 10
-58.4010634288
 20
-3.1697366256
 10
-58.5154167548
 20
-2.9887935431
 10
-58.6266746258
 20
-2.8049152311
 10
-58.7346453525
 20
-2.6181846934
 10
-58.839349113
 20
-2.4286356808
 10
-58.9407471907
 20
-2.2362228004
 10
-59.0385624193
 20
-2.0409121392
 10
-59.1329554334
 20
-1.8424134319
 10
-59.2237542346
 20
-1.6410098073
 10
-59.3101924722
 20
-1.4375335757
 10
-59.3923596633
 20
-1.2316824993
 10
-59.4701778031
 20
-1.0237660456
 10
-59.5426515972
 20
-0.8155481103
 10
-59.6097253393
 20
-0.6070487642
 10
-59.6715030642
 20
-0.3982782866
 10
-59.7272556968
 20
-0.1910025955
 10
-59.7769373668
 20
0.0147221567
 10
-59.820672662
 20
0.2189026884
 10
-59.8580097237
 20
0.419853867
 10
-59.8888345961
 20
0.616990957
 10
-59.9133613764
 20
0.810835806
 10
-59.9316388609
 20
1.0013577704
  0
LWPOLYLINE
  5
317
100
AcDbEntity
  8
RACCORDO
100
AcDbPolyline
 62
250
  6
CONTINUOUS
 90
9
 70
0
 10
-55.884844168
 20
-5.9168474835
 10
-55.8934327336
 20
-5.9106486671
 10
-55.9116680877
 20
-5.8948583288
 10
-55.9280777244
 20
-5.876751334
 10
-55.9425644778
 20
-5.8564349023
 10
-55.9550425678
 20
-5.8340293367
 10
-55.9654381088
 20
-5.8096673103
 10
-55.9736895467
 20
-5.7834930806
 10
-55.9797480237
 20
-5.7556616358
  0
LWPOLYLINE
  5
318
100
AcDbEntity
  8
RACCORDO
100
AcDbPolyline
 62
250
  6
CONTINUOUS
 90
8
 70
0
 10
-53.6371112199
 20
-4.0369299888
 10
-53.6604778391
 20
-4.0173645993
 10
-53.6812359278
 20
-3.9963769534
 10
-53.6992539782
 20
-3.9741000105
 10
-53.7144178411
 20
-3.9506748975
 10
-53.7266314486
 20
-3.9262500159
 10
-53.7358174231
 20
-3.9009801015
 10
-53.7423413045
 20
-3.8724908726
  0
LWPOLYLINE
  5
319
100
AcDbEntity
  8
0
100
AcDbPolyline
 62
250
  6
CONTINUOUS
 90
7
 70
0
 10
-33.5942249188
 20
-13.9918550895
 10
-33.5770067658
 20
-14.0253108644
 10
-33.562840732
 20
-14.0586565041
 10
-33.5517233614
 20
-14.0918898382
 10
-33.5436509511
 20
-14.1250085413
 10
-33.5386195591
 20
-14.1580101378
 10
-33.5366249913
 20
-14.190891994
  0
LWPOLYLINE
  5
31A
100
AcDbEntity
  8
RACCORDO
100
AcDbPolyline
 62
250
  6
CONTINUOUS
 90
8
 70
0
 10
-33.1756704749
 20
-16.2386397054
 10
-33.0661525972
 20
-16.7380055307
 10
-32.9460237789
 20
-17.2490234913
 10
-32.8146681674
 20
-17.771306838
 10
-32.671308183
 20
-18.3041664068
 10
-32.5154909917
 20
-18.8475186744
 10
-32.3470187077
 20
-19.401841927
 10
-32.1780579578
 20
-19.9273616537
  0
LINE
  5
31B
100
AcDbEntity
  8
SUPERFICI
100
AcDbLine
 62
7
  6
CONTINUOUS
 10
-32.2614267959
 20
-19.0611146173
 11
-32.2485738845
 21
-19.1801836191
  0
LINE
  5
31C
100
AcDbEntity
  8
RACCORDO
100
AcDbLine
 62
250
  6
CONTINUOUS
 10
-33.8940450529
 20
-11.6658154314
 11
-33.8678800075
 21
-11.9118577117
  0
LINE
  5
31D
100
AcDbEntity
  8
SUPERFICI
100
AcDbLine
 62
7
  6
CONTINUOUS
 10
-32.2485738845
 20
-19.1801836191
 11
-32.2327268306
 21
-19.3341899623
  0
LINE
  5
31E
100
AcDbEntity
  8
RACCORDO
100
AcDbLine
 62
250
  6
CONTINUOUS
 10
-33.920415777
 20
-11.4054026782
 11
-33.8940450529
 21
-11.6658154314
  0
LINE
  5
31F
100
AcDbEntity
  8
SUPERFICI
100
AcDbLine
 62
7
  6
CONTINUOUS
 10
-32.2327268306
 20
-19.3341899623
 11
-32.2170954476
 21
-19.4939319536
  0
LINE
  5
320
100
AcDbEntity
  8
RACCORDO
100
AcDbLine
 62
250
  6
CONTINUOUS
 10
-33.9469079899
 20
-11.1295004969
 11
-33.920415777
 21
-11.4054026782
  0
LINE
  5
321
100
AcDbEntity
  8
SUPERFICI
100
AcDbLine
 62
7
  6
CONTINUOUS
 10
-32.2170954476
 20
-19.4939319536
 11
-32.1985605137
 21
-19.6935256176
  0
LWPOLYLINE
  5
322
100
AcDbEntity
  8
RACCORDO
100
AcDbPolyline
 62
250
  6
CONTINUOUS
 90
3
 70
0
 10
-33.9788503917
 20
-10.7743033715
 10
-33.9734500662
 20
-10.8366990702
 10
-33.9469079899
 20
-11.1295004969
  0
LINE
  5
323
100
AcDbEntity
  8
SUPERFICI
100
AcDbLine
 62
7
  6
CONTINUOUS
 10
-32.1985605137
 20
-19.6935256176
 11
-32.1802350063
 21
-19.9018502059
  0
LWPOLYLINE
  5
324
100
AcDbEntity
  8
RACCORDO
100
AcDbPolyline
 62
250
  6
CONTINUOUS
 90
10
 70
0
 10
-31.653861525
 20
-23.3599043033
 10
-31.651173496
 20
-23.3923488873
 10
-31.6460235861
 20
-23.4230126701
 10
-31.6384477628
 20
-23.4516815089
 10
-31.628498937
 20
-23.4781551916
 10
-31.6162465867
 20
-23.5022488387
 10
-31.6017762721
 20
-23.5237941945
 10
-31.5851890469
 20
-23.5426407965
 10
-31.5666007506
 20
-23.5586570276
 10
-31.5508669248
 20
-23.5690706179
  0
LINE
  5
325
100
AcDbEntity
  8
SUPERFICI
100
AcDbLine
 62
7
  6
CONTINUOUS
 10
-32.1802350063
 20
-19.9018502059
 11
-32.1591663516
 21
-20.1550172179
  0
LINE
  5
326
100
AcDbEntity
  8
SUPERFICI
100
AcDbLine
 62
7
  6
CONTINUOUS
 10
-32.1591663516
 20
-20.1550172179
 11
-32.1356554365
 21
-20.4549237156
  0
LINE
  5
327
100
AcDbEntity
  8
SUPERFICI
100
AcDbLine
 62
7
  6
CONTINUOUS
 10
-32.1356554365
 20
-20.4549237156
 11
-32.1099721358
 21
-20.8035205356
  0
LWPOLYLINE
  5
328
100
AcDbEntity
  8
RACCORDO
100
AcDbPolyline
 62
250
  6
CONTINUOUS
 90
14
 70
0
 10
-31.9787301536
 20
-22.8996865646
 10
-31.9778021813
 20
-22.913112513
 10
-31.9729328981
 20
-22.9532832225
 10
-31.9648482507
 20
-22.9928183627
 10
-31.9533270551
 20
-23.0319354564
 10
-31.9381769187
 20
-23.0705478468
 10
-31.9191990791
 20
-23.108596392
 10
-31.8960280489
 20
-23.1462936728
 10
-31.8683057622
 20
-23.1836415477
 10
-31.8358179974
 20
-23.2204309537
 10
-31.7983604216
 20
-23.2565400503
 10
-31.7557136784
 20
-23.2918746606
 10
-31.7076186199
 20
-23.3263592206
 10
-31.6538457607
 20
-23.3599135835
  0
LINE
  5
329
100
AcDbEntity
  8
SUPERFICI
100
AcDbLine
 62
7
  6
CONTINUOUS
 10
-32.1099721358
 20
-20.8035205356
 11
-32.0794828705
 21
-21.24536256
  0
LWPOLYLINE
  5
32A
100
AcDbEntity
  8
RACCORDO
100
AcDbPolyline
 62
7
  6
CONTINUOUS
 90
16
 70
0
 10
-31.9787759569
 20
-22.8989323954
 10
-31.9779469658
 20
-22.9120094463
 10
-31.9724466508
 20
-22.9658265577
 10
-31.96325515
 20
-23.0203950807
 10
-31.9500100882
 20
-23.0754749354
 10
-31.93242912
 20
-23.130646611
 10
-31.9104211568
 20
-23.1852067576
 10
-31.8839151765
 20
-23.2386936363
 10
-31.8529132815
 20
-23.2906077911
 10
-31.8176034119
 20
-23.3403310854
 10
-31.7782404291
 20
-23.3875447205
 10
-31.7351789393
 20
-23.4319552555
 10
-31.6887792842
 20
-23.4732985759
 10
-31.6393467571
 20
-23.5115706924
 10
-31.5872584401
 20
-23.5468922186
 10
-31.5508669286
 20
-23.5690706141
  0
LINE
  5
32B
100
AcDbEntity
  8
SUPERFICI
100
AcDbLine
 62
7
  6
CONTINUOUS
 10
-32.0794828705
 20
-21.24536256
 11
-32.0470940188
 21
-21.7466748976
  0
LINE
  5
32C
100
AcDbEntity
  8
SUPERFICI
100
AcDbLine
 62
7
  6
CONTINUOUS
 10
-32.0470940188
 20
-21.7466748976
 11
-32.0127314366
 21
-22.311595125
  0
LINE
  5
32D
100
AcDbEntity
  8
SUPERFICI
100
AcDbLine
 62
7
  6
CONTINUOUS
 10
-32.0127314366
 20
-22.311595125
 11
-31.9787298969
 21
-22.8996911005
  0
LINE
  5
32E
100
AcDbEntity
  8
RACCORDO
100
AcDbLine
 62
7
  6
CONTINUOUS
 10
-31.9787609895
 20
-22.899136773
 11
-31.9787301536
 21
-22.8996865646
  0
LWPOLYLINE
  5
32F
100
AcDbEntity
  8
RACCORDO
100
AcDbPolyline
 62
250
  6
CONTINUOUS
 90
10
 70
0
 10
-31.6538457837
 20
-23.3599135095
 10
-31.6892087211
 20
-22.5099038804
 10
-31.721906836
 20
-21.6581566846
 10
-31.7519393359
 20
-20.8046824718
 10
-31.779310296
 20
-19.9494847163
 10
-31.8040141305
 20
-19.0925810987
 10
-31.8260357294
 20
-18.2340035889
 10
-31.8453697672
 20
-17.373770031
 10
-31.8620205654
 20
-16.5118840594
 10
-31.8759876594
 20
-15.6483564389
  0
LINE
  5
330
100
AcDbEntity
  8
RACCORDO
100
AcDbLine
 62
250
  6
CONTINUOUS
 10
-31.8871690687
 20
-14.7854351698
 11
-31.8759876594
 21
-15.6483564389
  0
LINE
  5
331
100
AcDbEntity
  8
RACCORDO
100
AcDbLine
 62
250
  6
CONTINUOUS
 10
-31.895688442
 20
-13.9209296659
 11
-31.8871690687
 21
-14.7854351698
  0
LINE
  5
332
100
AcDbEntity
  8
RACCORDO
100
AcDbLine
 62
250
  6
CONTINUOUS
 10
-31.9019979455
 20
-12.9532504328
 11
-31.895688442
 21
-13.9209296659
  0
LINE
  5
333
100
AcDbEntity
  8
RACCORDO
100
AcDbLine
 62
250
  6
CONTINUOUS
 10
-31.9050378039
 20
-11.9716967687
 11
-31.9019979455
 21
-12.9532504328
  0
LWPOLYLINE
  5
334
100
AcDbEntity
  8
RACCORDO
100
AcDbPolyline
 62
250
  6
CONTINUOUS
 90
10
 70
0
 10
42.574397072
 20
-60.315515929
 10
42.553471877
 20
-60.3051574148
 10
42.5343001788
 20
-60.2933821481
 10
42.5170464408
 20
-60.2802911512
 10
42.5018586722
 20
-60.2659967331
 10
42.4888671567
 20
-60.2506215253
 10
42.4781833362
 20
-60.2342974289
 10
42.4698988567
 20
-60.2171644865
 10
42.4640847804
 20
-60.1993696778
 10
42.4617323556
 20
-60.1880029722
  0
LWPOLYLINE
  5
335
100
AcDbEntity
  8
RACCORDO
100
AcDbPolyline
 62
250
  6
CONTINUOUS
 90
10
 70
0
 10
45.8022747928
 20
-64.6299664787
 10
45.7931405458
 20
-64.625061162
 10
45.7763286392
 20
-64.6134946933
 10
45.760972367
 20
-64.5993667259
 10
45.7471626593
 20
-64.582760917
 10
45.7349812886
 20
-64.5637755956
 10
45.7245003854
 20
-64.5425231809
 10
45.7157820108
 20
-64.5191295163
 10
45.7088777898
 20
-64.4937331243
 10
45.7038286048
 20
-64.4664843866
  0
LINE
  5
336
100
AcDbEntity
  8
RACCORDO
100
AcDbLine
 62
250
  6
CONTINUOUS
 10
28.0119128597
 20
-55.528905255
 11
28.7758004688
 21
-55.9383094064
  0
LINE
  5
337
100
AcDbEntity
  8
RACCORDO
100
AcDbLine
 62
250
  6
CONTINUOUS
 10
27.0690622488
 20
-55.0183725636
 11
28.0119128597
 21
-55.528905255
  0
LINE
  5
338
100
AcDbEntity
  8
RACCORDO
100
AcDbLine
 62
250
  6
CONTINUOUS
 10
26.3920747973
 20
-54.6479274285
 11
27.0690622488
 21
-55.0183725636
  0
LINE
  5
339
100
AcDbEntity
  8
RACCORDO
100
AcDbLine
 62
250
  6
CONTINUOUS
 10
25.7225501606
 20
-54.2781209545
 11
26.3920747973
 21
-54.6479274285
  0
LINE
  5
33A
100
AcDbEntity
  8
RACCORDO
100
AcDbLine
 62
250
  6
CONTINUOUS
 10
25.0549505918
 20
-53.9057704188
 11
25.7225501606
 21
-54.2781209545
  0
LINE
  5
33B
100
AcDbEntity
  8
RACCORDO
100
AcDbLine
 62
250
  6
CONTINUOUS
 10
24.1697842218
 20
-53.4069560809
 11
25.0549505918
 21
-53.9057704188
  0
LINE
  5
33C
100
AcDbEntity
  8
RACCORDO
100
AcDbLine
 62
250
  6
CONTINUOUS
 10
23.0659950865
 20
-52.778417675
 11
24.1697842218
 21
-53.4069560809
  0
LINE
  5
33D
100
AcDbEntity
  8
RACCORDO
100
AcDbLine
 62
250
  6
CONTINUOUS
 10
21.4245560631
 20
-51.8349251821
 11
23.0659950865
 21
-52.778417675
  0
LWPOLYLINE
  5
33E
100
AcDbEntity
  8
RACCORDO
100
AcDbPolyline
 62
7
  6
CONTINUOUS
 90
10
 70
0
 10
19.2362670231
 20
-50.6274055242
 10
21.2293846509
 20
-51.7790476975
 10
23.2866455162
 20
-52.9624425892
 10
25.3627553395
 20
-54.1384170243
 10
27.4693832181
 20
-55.29955157
 10
29.604730938
 20
-56.4454827275
 10
31.7631159715
 20
-57.5792192811
 10
33.9395621781
 20
-58.7037114151
 10
36.1312155783
 20
-59.8207519513
 10
38.279884103
 20
-60.9037086359
  0
LINE
  5
33F
100
AcDbEntity
  8
RACCORDO
100
AcDbLine
 62
250
  6
CONTINUOUS
 10
20.3563770517
 20
-51.2181422321
 11
21.4245560631
 21
-51.8349251821
  0
LINE
  5
340
100
AcDbEntity
  8
RACCORDO
100
AcDbLine
 62
250
  6
CONTINUOUS
 10
19.1528262437
 20
-50.5226627797
 11
20.3563770517
 21
-51.2181422321
  0
LINE
  5
341
100
AcDbEntity
  8
RACCORDO
100
AcDbLine
 62
250
  6
CONTINUOUS
 10
-35.4995168445
 20
-18.964265745
 11
-32.1010688006
 21
-20.9294552375
  0
LINE
  5
342
100
AcDbEntity
  8
RACCORDO
100
AcDbLine
 62
250
  6
CONTINUOUS
 10
-36.5738566034
 20
-18.3362841947
 11
-35.4995168445
 21
-18.964265745
  0
LINE
  5
343
100
AcDbEntity
  8
RACCORDO
100
AcDbLine
 62
250
  6
CONTINUOUS
 10
-37.406327979
 20
-17.8450119346
 11
-36.5738566034
 21
-18.3362841947
  0
LINE
  5
344
100
AcDbEntity
  8
RACCORDO
100
AcDbLine
 62
250
  6
CONTINUOUS
 10
-38.235014789
 20
-17.3506134576
 11
-37.406327979
 21
-17.8450119346
  0
LINE
  5
345
100
AcDbEntity
  8
RACCORDO
100
AcDbLine
 62
250
  6
CONTINUOUS
 10
-38.8531684432
 20
-16.9777944269
 11
-38.235014789
 21
-17.3506134576
  0
LINE
  5
346
100
AcDbEntity
  8
RACCORDO
100
AcDbLine
 62
250
  6
CONTINUOUS
 10
-39.6723358811
 20
-16.4785421835
 11
-38.8531684432
 21
-16.9777944269
  0
LINE
  5
347
100
AcDbEntity
  8
RACCORDO
100
AcDbLine
 62
250
  6
CONTINUOUS
 10
-40.5024136574
 20
-15.9668970266
 11
-39.6723358811
 21
-16.4785421835
  0
LINE
  5
348
100
AcDbEntity
  8
RACCORDO
100
AcDbLine
 62
250
  6
CONTINUOUS
 10
-41.3820834988
 20
-15.4187673804
 11
-40.5024136574
 21
-15.9668970266
  0
LINE
  5
349
100
AcDbEntity
  8
RACCORDO
100
AcDbLine
 62
250
  6
CONTINUOUS
 10
-42.0982921276
 20
-14.9683007635
 11
-41.3820834988
 21
-15.4187673804
  0
LINE
  5
34A
100
AcDbEntity
  8
RACCORDO
100
AcDbLine
 62
250
  6
CONTINUOUS
 10
-42.8812405538
 20
-14.4718811014
 11
-42.0982921276
 21
-14.9683007635
  0
LINE
  5
34B
100
AcDbEntity
  8
RACCORDO
100
AcDbLine
 62
250
  6
CONTINUOUS
 10
-43.7454490158
 20
-13.9195329303
 11
-42.8812405538
 21
-14.4718811014
  0
LINE
  5
34C
100
AcDbEntity
  8
RACCORDO
100
AcDbLine
 62
250
  6
CONTINUOUS
 10
-44.701085054
 20
-13.3039114268
 11
-43.7454490158
 21
-13.9195329303
  0
LINE
  5
34D
100
AcDbEntity
  8
RACCORDO
100
AcDbLine
 62
250
  6
CONTINUOUS
 10
-45.3918649815
 20
-12.8559534773
 11
-44.701085054
 21
-13.3039114268
  0
LINE
  5
34E
100
AcDbEntity
  8
RACCORDO
100
AcDbLine
 62
250
  6
CONTINUOUS
 10
-46.1276135113
 20
-12.3762333982
 11
-45.3918649815
 21
-12.8559534773
  0
LWPOLYLINE
  5
34F
100
AcDbEntity
  8
RACCORDO
100
AcDbPolyline
 62
7
  6
CONTINUOUS
 90
14
 70
0
 10
-52.5729008275
 20
-8.1612293416
 10
-52.5655931899
 20
-8.1660003383
 10
-52.5431879417
 20
-8.1788562045
 10
-52.5197823573
 20
-8.1897329893
 10
-52.4955116206
 20
-8.1985677892
 10
-52.4705322348
 20
-8.2052951072
 10
-52.4450472193
 20
-8.209852007
 10
-52.4192680398
 20
-8.2121984486
 10
-52.3933978512
 20
-8.212318366
 10
-52.367616756
 20
-8.2102134343
 10
-52.3421043857
 20
-8.2058979245
 10
-52.3170447984
 20
-8.199400442
 10
-52.2926301746
 20
-8.1907684234
 10
-52.2689215502
 20
-8.1800034847
  0
LINE
  5
350
100
AcDbEntity
  8
RACCORDO
100
AcDbLine
 62
250
  6
CONTINUOUS
 10
-46.9093371124
 20
-11.863738324
 11
-46.1276135113
 21
-12.3762333982
  0
LINE
  5
351
100
AcDbEntity
  8
RACCORDO
100
AcDbLine
 62
250
  6
CONTINUOUS
 10
-47.7388960865
 20
-11.3169054266
 11
-46.9093371124
 21
-11.863738324
  0
LINE
  5
352
100
AcDbEntity
  8
SUPERFICI
100
AcDbLine
 62
7
  6
CONTINUOUS
 10
-32.3376527326
 20
-18.4690886546
 11
-32.3367668805
 21
-18.4744384414
  0
LINE
  5
353
100
AcDbEntity
  8
SUPERFICI
100
AcDbLine
 62
7
  6
CONTINUOUS
 10
-32.3367668805
 20
-18.4744384414
 11
-32.3346673568
 21
-18.4875154206
  0
LINE
  5
354
100
AcDbEntity
  8
SUPERFICI
100
AcDbLine
 62
7
  6
CONTINUOUS
 10
-32.3346673568
 20
-18.4875154206
 11
-32.3312911168
 21
-18.5092583633
  0
LINE
  5
355
100
AcDbEntity
  8
RACCORDO
100
AcDbLine
 62
250
  6
CONTINUOUS
 10
-33.6275883435
 20
-13.7738987197
 11
-33.5942249188
 21
-13.9918550895
  0
LWPOLYLINE
  5
356
100
AcDbEntity
  8
0
100
AcDbPolyline
 62
250
  6
CONTINUOUS
 90
7
 70
0
 10
-33.5366249913
 20
-14.190891994
 10
-33.4839136105
 20
-14.5430814178
 10
-33.4281409642
 20
-14.8908599759
 10
-33.3693686808
 20
-15.2342663703
 10
-33.3076584118
 20
-15.5733393173
 10
-33.2430718043
 20
-15.9081175308
 10
-33.1756704749
 20
-16.2386397054
  0
LINE
  5
357
100
AcDbEntity
  8
SUPERFICI
100
AcDbLine
 62
7
  6
CONTINUOUS
 10
-32.3312911168
 20
-18.5092583633
 11
-32.3269174137
 21
-18.5384039694
  0
LINE
  5
358
100
AcDbEntity
  8
RACCORDO
100
AcDbLine
 62
250
  6
CONTINUOUS
 10
-33.6610881569
 20
-13.5470913223
 11
-33.6275883435
 21
-13.7738987197
  0
LINE
  5
359
100
AcDbEntity
  8
SUPERFICI
100
AcDbLine
 62
7
  6
CONTINUOUS
 10
-32.3269174137
 20
-18.5384039694
 11
-32.3217365716
 21
-18.5741127945
  0
LINE
  5
35A
100
AcDbEntity
  8
RACCORDO
100
AcDbLine
 62
250
  6
CONTINUOUS
 10
-33.6953671028
 20
-13.305915179
 11
-33.6610881569
 21
-13.5470913223
  0
LINE
  5
35B
100
AcDbEntity
  8
SUPERFICI
100
AcDbLine
 62
7
  6
CONTINUOUS
 10
-32.3217365716
 20
-18.5741127945
 11
-32.3130596986
 21
-18.6364139652
  0
LINE
  5
35C
100
AcDbEntity
  8
RACCORDO
100
AcDbLine
 62
250
  6
CONTINUOUS
 10
-33.7305600931
 20
-13.0477553143
 11
-33.6953671028
 21
-13.305915179
  0
LINE
  5
35D
100
AcDbEntity
  8
SUPERFICI
100
AcDbLine
 62
7
  6
CONTINUOUS
 10
-32.3130596986
 20
-18.6364139652
 11
-32.3037942951
 21
-18.7060527989
  0
LINE
  5
35E
100
AcDbEntity
  8
RACCORDO
100
AcDbLine
 62
250
  6
CONTINUOUS
 10
-33.7667398626
 20
-12.7699495498
 11
-33.7305600931
 21
-13.0477553143
  0
LINE
  5
35F
100
AcDbEntity
  8
SUPERFICI
100
AcDbLine
 62
7
  6
CONTINUOUS
 10
-32.3037942951
 20
-18.7060527989
 11
-32.2941706894
 21
-18.781548183
  0
LINE
  5
360
100
AcDbEntity
  8
RACCORDO
100
AcDbLine
 62
250
  6
CONTINUOUS
 10
-33.8039148619
 20
-12.4697500721
 11
-33.7667398626
 21
-12.7699495498
  0
LINE
  5
361
100
AcDbEntity
  8
SUPERFICI
100
AcDbLine
 62
7
  6
CONTINUOUS
 10
-32.2941706894
 20
-18.781548183
 11
-32.2843331597
 21
-18.8619100201
  0
LINE
  5
362
100
AcDbEntity
  8
RACCORDO
100
AcDbLine
 62
250
  6
CONTINUOUS
 10
-33.8292193087
 20
-12.2558049024
 11
-33.8039148619
 21
-12.4697500721
  0
LINE
  5
363
100
AcDbEntity
  8
SUPERFICI
100
AcDbLine
 62
7
  6
CONTINUOUS
 10
-32.2843331597
 20
-18.8619100201
 11
-32.2711739592
 21
-18.9743042213
  0
LINE
  5
364
100
AcDbEntity
  8
SUPERFICI
100
AcDbLine
 62
7
  6
CONTINUOUS
 10
-32.2711739592
 20
-18.9743042213
 11
-32.2614267959
 21
-19.0611146173
  0
LWPOLYLINE
  5
365
100
AcDbEntity
  8
RACCORDO
100
AcDbPolyline
 62
250
  6
CONTINUOUS
 90
3
 70
0
 10
-33.8678800075
 20
-11.9118577117
 10
-33.8549170782
 20
-12.0296531608
 10
-33.8292193087
 20
-12.2558049024
  0
LINE
  5
366
100
AcDbEntity
  8
RACCORDO
100
AcDbLine
 62
250
  6
CONTINUOUS
 10
-52.3436406222
 20
-7.6078189479
 11
-52.6665807239
 21
-7.8429397276
  0
LINE
  5
367
100
AcDbEntity
  8
RACCORDO
100
AcDbLine
 62
250
  6
CONTINUOUS
 10
-52.6665807239
 20
-7.8429397276
 11
-52.703905116
 21
-7.8699147139
  0
LWPOLYLINE
  5
368
100
AcDbEntity
  8
RACCORDO
100
AcDbPolyline
 62
250
  6
CONTINUOUS
 90
19
 70
0
 10
-53.8536151025
 20
-4.3620252187
 10
-53.8741815235
 20
-4.3763327216
 10
-53.8963592756
 20
-4.3894485841
 10
-53.9199581056
 20
-4.40126029
 10
-53.9447755678
 20
-4.4116665098
 10
-53.9705987652
 20
-4.4205779728
 10
-53.9972061764
 20
-4.4279182313
 10
-54.0243695479
 20
-4.4336243144
 10
-54.0518558556
 20
-4.4376472697
 10
-54.0794293097
 20
-4.439952584
 10
-54.1068533677
 20
-4.4405204781
 10
-54.1338927678
 20
-4.4393460771
 10
-54.1603155504
 20
-4.4364394527
 10
-54.1858950424
 20
-4.431825536
 10
-54.210411803
 20
-4.4255439051
 10
-54.2336555099
 20
-4.4176484441
 10
-54.2554267596
 20
-4.4082068822
 10
-54.2755387786
 20
-4.3973002124
 10
-54.2938190275
 20
-4.3850219971
  0
LWPOLYLINE
  5
369
100
AcDbEntity
  8
RACCORDO
100
AcDbPolyline
 62
250
  6
CONTINUOUS
 90
16
 70
0
 10
-5.9712949915
 20
31.2519181724
 10
-6.0001259387
 20
31.2333231524
 10
-6.0287234043
 20
31.2121518145
 10
-6.0568965138
 20
31.1885454599
 10
-6.0844572231
 20
31.1626616406
 10
-6.1112215821
 20
31.1346731133
 10
-6.1370109624
 20
31.1047666856
 10
-6.1616532382
 20
31.0731419634
 10
-6.184983935
 20
31.0400100182
 10
-6.206847336
 20
31.0055919835
 10
-6.2270975216
 20
30.9701175785
 10
-6.2455993344
 20
30.9338235706
 10
-6.2622292816
 20
30.8969521946
 10
-6.2768763704
 20
30.8597495427
 10
-6.2894428489
 20
30.8224639218
 10
-6.2998448496
 20
30.7853441917
  0
LINE
  5
36A
100
AcDbEntity
  8
DRAFT
100
AcDbLine
 62
7
  6
CONTINUOUS
 10
1.4303656823
 20
31.8796280188
 11
1.0510010483
 21
31.6529416444
  0
LINE
  5
36B
100
AcDbEntity
  8
DRAFT
100
AcDbLine
 62
7
  6
CONTINUOUS
 10
4.307318989
 20
30.2185112361
 11
3.9279543551
 21
29.9918248617
  0
LINE
  5
36C
100
AcDbEntity
  8
0
100
AcDbLine
 62
7
  6
CONTINUOUS
 10
-12.4986194003
 20
25.6573903794
 11
-12.5491583718
 21
25.6282098107
  0
LINE
  5
36D
100
AcDbEntity
  8
0
100
AcDbLine
 62
7
  6
CONTINUOUS
 10
-11.9681245733
 20
25.3527477093
 11
-12.0186642261
 21
25.3235667472
  0
LINE
  5
36E
100
AcDbEntity
  8
0
100
AcDbLine
 62
7
  6
CONTINUOUS
 10
-11.0625963297
 20
24.8327391068
 11
-11.113136949
 21
24.8035575867
  0
LINE
  5
36F
100
AcDbEntity
  8
0
100
AcDbLine
 62
7
  6
CONTINUOUS
 10
-10.5746342029
 20
24.5524629497
 11
-10.6251752246
 21
24.5232811973
  0
LINE
  5
370
100
AcDbEntity
  8
0
100
AcDbLine
 62
7
  6
CONTINUOUS
 10
-10.3934144359
 20
24.4485494776
 11
-10.4439556141
 21
24.4193676347
  0
LINE
  5
371
100
AcDbEntity
  8
0
100
AcDbLine
 62
7
  6
CONTINUOUS
 10
-9.9052242055
 20
24.1680212465
 11
-9.9557656577
 21
24.1388392455
  0
LINE
  5
372
100
AcDbEntity
  8
0
100
AcDbLine
 62
7
  6
CONTINUOUS
 10
-9.4313724878
 20
23.8954169391
 11
-9.481914079
 21
23.8662348578
  0
LINE
  5
373
100
AcDbEntity
  8
0
100
AcDbLine
 62
7
  6
CONTINUOUS
 10
-11.7495910929
 20
22.0460822735
 11
-11.7996897133
 21
22.017155958
  0
LINE
  5
374
100
AcDbEntity
  8
0
100
AcDbLine
 62
7
  6
CONTINUOUS
 10
-8.9438276784
 20
23.6149806666
 11
-8.9943693396
 21
23.5857985448
  0
LINE
  5
375
100
AcDbEntity
  8
0
100
AcDbLine
 62
7
  6
CONTINUOUS
 10
-7.9735995468
 20
23.056310689
 11
-8.0241410188
 21
23.0271286765
  0
LWPOLYLINE
  5
376
100
AcDbEntity
  8
RACCORDO
100
AcDbPolyline
 62
250
  6
CONTINUOUS
 90
25
 70
0
 10
22.0863429386
 20
-42.8074733874
 10
22.1288730549
 20
-42.8304072798
 10
22.1709252241
 20
-42.8499201556
 10
22.2124994462
 20
-42.8660120148
 10
22.2537923387
 20
-42.8787340358
 10
22.2946072842
 20
-42.8880350402
 10
22.3343544296
 20
-42.8937614926
 10
22.3729941763
 20
-42.8958554402
 10
22.4105661229
 20
-42.8943748358
 10
22.446599212
 20
-42.889340003
 10
22.4810775314
 20
-42.8807058968
 10
22.5140169934
 20
-42.8685175621
 10
22.5449942768
 20
-42.8529304577
 10
22.5739837965
 20
-42.8339000684
 10
22.6010111377
 20
-42.8114709093
 10
22.6257297351
 20
-42.7859319851
 10
22.6481083916
 20
-42.7572471929
 10
22.6681783043
 20
-42.7254526355
 10
22.6856865
 20
-42.6909456261
 10
22.700602719
 20
-42.6536623927
 10
22.7129572209
 20
-42.6136667073
 10
22.7225878118
 20
-42.5715471993
 10
22.729440427
 20
-42.5275000787
 10
22.7335691312
 20
-42.4813291355
 10
22.7349739243
 20
-42.4330343698
  0
LWPOLYLINE
  5
377
100
AcDbEntity
  8
RACCORDO
100
AcDbPolyline
 62
250
  6
CONTINUOUS
 90
25
 70
0
 10
22.7349739243
 20
-42.4330343698
 10
22.7821883114
 20
-42.4585856924
 10
22.8321660351
 20
-42.4823203445
 10
22.8846978108
 20
-42.5041389361
 10
22.9395636587
 20
-42.5239501004
 10
22.9965338249
 20
-42.5416708772
 10
23.0553697438
 20
-42.5572270596
 10
23.1158250367
 20
-42.5705535054
 10
23.1776465434
 20
-42.5815944092
 10
23.2405753832
 20
-42.5903035367
 10
23.3043480377
 20
-42.5966444178
 10
23.3686974556
 20
-42.6005904999
 10
23.43335417
 20
-42.6021252584
 10
23.4980474272
 20
-42.6012422665
 10
23.5625063206
 20
-42.5979452217
 10
23.626460925
 20
-42.5922479306
 10
23.6896434269
 20
-42.584174251
 10
23.7517892459
 20
-42.5737579917
 10
23.812638143
 20
-42.5610427716
 10
23.87193531
 20
-42.5460818363
 10
23.9294324366
 20
-42.5289378355
 10
23.9848887505
 20
-42.5096825607
 10
24.0380720251
 20
-42.4883966445
 10
24.0887595525
 20
-42.4651692228
 10
24.1367390759
 20
-42.4400975618
  0
LWPOLYLINE
  5
378
100
AcDbEntity
  8
RACCORDO
100
AcDbPolyline
 62
7
  6
CONTINUOUS
 90
19
 70
0
 10
22.2934255597
 20
-43.2652102486
 10
22.3790623835
 20
-43.3116754958
 10
22.4647629553
 20
-43.3523770121
 10
22.5503136931
 20
-43.3874351487
 10
22.6354486121
 20
-43.4169611862
 10
22.7200554511
 20
-43.4411280934
 10
22.8041178261
 20
-43.4601142808
 10
22.8872962261
 20
-43.4740200915
 10
22.9694910602
 20
-43.4830083981
 10
23.0509773004
 20
-43.4872390479
 10
23.1315801264
 20
-43.4867907863
 10
23.2110123141
 20
-43.4817597339
 10
23.2893289504
 20
-43.4722236447
 10
23.3661856531
 20
-43.4582975734
 10
23.4414521719
 20
-43.4400868127
 10
23.5154537157
 20
-43.4175412193
 10
23.5881118877
 20
-43.3906505024
 10
23.6589856369
 20
-43.3595513224
 10
23.7278273637
 20
-43.3243521148
  0
LINE
  5
379
100
AcDbEntity
  8
0
100
AcDbLine
 62
250
  6
CONTINUOUS
 10
17.3463009557
 20
-43.5699913235
 11
17.3174207647
 21
-43.5533806626
  0
LINE
  5
37A
100
AcDbEntity
  8
RACCORDO
100
AcDbLine
 62
7
  6
CONTINUOUS
 10
-40.6390779659
 20
-6.9287714424
 11
22.2934255597
 21
-43.2652102486
  0
LINE
  5
37B
100
AcDbEntity
  8
RACCORDO
100
AcDbLine
 62
250
  6
CONTINUOUS
 10
-40.846160587
 20
-6.4710345813
 11
22.0863429386
 21
-42.8074733874
  0
LWPOLYLINE
  5
37C
100
AcDbEntity
  8
RACCORDO
100
AcDbPolyline
 62
250
  6
CONTINUOUS
 90
14
 70
0
 10
-41.4947915726
 20
-5.3475727599
 10
-41.5390449103
 20
-5.3203117645
 10
-41.5801518853
 20
-5.2914552532
 10
-41.6179403597
 20
-5.2611240644
 10
-41.6522520922
 20
-5.2294452114
 10
-41.6829434006
 20
-5.1965513514
 10
-41.7098857631
 20
-5.1625802292
 10
-41.7329663572
 20
-5.1276741008
 10
-41.7520885315
 20
-5.0919791376
 10
-41.767172211
 20
-5.0556448143
 10
-41.7781542318
 20
-5.0188232828
 10
-41.784988606
 20
-4.9816687354
 10
-41.7876467145
 20
-4.9443367588
 10
-41.7876847914
 20
-4.9392981666
  0
LWPOLYLINE
  5
37D
100
AcDbEntity
  8
RACCORDO
100
AcDbPolyline
 62
250
  6
CONTINUOUS
 90
3
 70
0
 10
-40.674397338
 20
-6.905269236
 10
-40.6433980351
 20
-6.926233606
 10
-40.6390779659
 20
-6.9287714424
  0
LINE
  5
37E
100
AcDbEntity
  8
0
100
AcDbLine
 62
7
  6
CONTINUOUS
 10
-11.8759739697
 20
23.0379914647
 11
-11.7111624412
 21
23.4278014179
  0
LINE
  5
37F
100
AcDbEntity
  8
0
100
AcDbLine
 62
7
  6
CONTINUOUS
 10
-11.7111624412
 20
23.4278014179
 11
-11.5436592354
 21
23.8190717294
  0
LINE
  5
380
100
AcDbEntity
  8
0
100
AcDbLine
 62
7
  6
CONTINUOUS
 10
-11.5436592354
 20
23.8190717294
 11
-11.3734653687
 21
24.2117956043
  0
LWPOLYLINE
  5
381
100
AcDbEntity
  8
0
100
AcDbPolyline
 62
7
  6
CONTINUOUS
 90
3
 70
0
 10
-11.3734653687
 20
24.2117956043
 10
-11.200584907
 20
24.6059458639
 10
-11.113136949
 20
24.8035575867
  0
LINE
  5
382
100
AcDbEntity
  8
0
100
AcDbLine
 62
7
  6
CONTINUOUS
 10
-11.5491476963
 20
22.5674707798
 11
-11.7996897133
 21
22.017155958
  0
LINE
  5
383
100
AcDbEntity
  8
0
100
AcDbLine
 62
7
  6
CONTINUOUS
 10
-11.7495910929
 20
22.0460822735
 11
-11.4989356827
 21
22.5965036207
  0
LINE
  5
384
100
AcDbEntity
  8
0
100
AcDbLine
 62
7
  6
CONTINUOUS
 10
-11.2926241465
 20
23.1215857585
 11
-11.5491476963
 21
22.5674707798
  0
LINE
  5
385
100
AcDbEntity
  8
0
100
AcDbLine
 62
7
  6
CONTINUOUS
 10
-11.4989356827
 20
22.5965036207
 11
-11.2423068692
 21
23.1506972429
  0
LINE
  5
386
100
AcDbEntity
  8
0
100
AcDbLine
 62
7
  6
CONTINUOUS
 10
-11.0301215721
 20
23.6794821677
 11
-11.2926241465
 21
23.1215857585
  0
LINE
  5
387
100
AcDbEntity
  8
0
100
AcDbLine
 62
7
  6
CONTINUOUS
 10
-11.2423068692
 20
23.1506972429
 11
-10.9797074918
 21
23.7086440388
  0
LWPOLYLINE
  5
388
100
AcDbEntity
  8
0
100
AcDbPolyline
 62
7
  6
CONTINUOUS
 90
3
 70
0
 10
-10.9797074918
 20
23.7086440388
 10
-10.7111489075
 20
24.2702676037
 10
-10.5746342029
 20
24.5524629497
  0
LWPOLYLINE
  5
389
100
AcDbEntity
  8
0
100
AcDbPolyline
 62
7
  6
CONTINUOUS
 90
3
 70
0
 10
-10.6251752246
 20
24.5232811973
 10
-10.7616500063
 20
24.2410851018
 10
-11.0301215721
 20
23.6794821677
  0
LINE
  5
38A
100
AcDbEntity
  8
0
100
AcDbLine
 62
7
  6
CONTINUOUS
 10
-8.7611515306
 20
21.6682592885
 11
-8.5189172414
 21
22.1198684475
  0
LINE
  5
38B
100
AcDbEntity
  8
0
100
AcDbLine
 62
7
  6
CONTINUOUS
 10
-8.238645266
 20
21.5959440939
 11
-8.4917538872
 21
21.1269544275
  0
LINE
  5
38C
100
AcDbEntity
  8
0
100
AcDbLine
 62
7
  6
CONTINUOUS
 10
-8.3576095373
 20
21.3120115999
 11
-8.1029606069
 21
21.7819309002
  0
LINE
  5
38D
100
AcDbEntity
  8
0
100
AcDbLine
 62
7
  6
CONTINUOUS
 10
-8.5189172414
 20
22.1198684475
 11
-8.2732410901
 21
22.5728357753
  0
LINE
  5
38E
100
AcDbEntity
  8
0
100
AcDbLine
 62
7
  6
CONTINUOUS
 10
-8.1029606069
 20
21.7819309002
 11
-8.0725185182
 21
21.8377947681
  0
LINE
  5
38F
100
AcDbEntity
  8
0
100
AcDbLine
 62
7
  6
CONTINUOUS
 10
-8.0618637448
 20
21.920474691
 11
-8.238645266
 21
21.5959440939
  0
LINE
  5
390
100
AcDbEntity
  8
0
100
AcDbLine
 62
7
  6
CONTINUOUS
 10
-8.2732410901
 20
22.5728357753
 11
-8.0241410188
 21
23.0271286765
  0
LWPOLYLINE
  5
391
100
AcDbEntity
  8
RACCORDO
100
AcDbPolyline
 62
250
  6
CONTINUOUS
 90
19
 70
0
 10
-52.2129480097
 20
-8.0604696531
 10
-52.2331727187
 20
-8.0734288529
 10
-52.2546895925
 20
-8.0849484121
 10
-52.2773401522
 20
-8.0949434282
 10
-52.3009576388
 20
-8.1033402536
 10
-52.3253680075
 20
-8.1100769442
 10
-52.3503911862
 20
-8.1151037717
 10
-52.3758427335
 20
-8.1183836942
 10
-52.4015352191
 20
-8.1198925711
 10
-52.427279356
 20
-8.1196192852
 10
-52.4528854769
 20
-8.1175658498
 10
-52.4781649322
 20
-8.1137473957
 10
-52.5029314786
 20
-8.108192058
 10
-52.5270024657
 20
-8.1009408261
 10
-52.5502007543
 20
-8.092047086
 10
-52.5723559462
 20
-8.0815761021
 10
-52.5933048919
 20
-8.0696048117
 10
-52.6128929699
 20
-8.056221387
 10
-52.630975747
 20
-8.0415243422
  0
LWPOLYLINE
  5
392
100
AcDbEntity
  8
0
100
AcDbPolyline
 62
7
  6
CONTINUOUS
 90
17
 70
0
 10
-4.3432585987
 20
19.5972408227
 10
-4.3296065886
 20
19.605920868
 10
-4.3153709989
 20
19.6168032776
 10
-4.3018927031
 20
19.6290656677
 10
-4.2892420038
 20
19.6426158092
 10
-4.2774538139
 20
19.657381741
 10
-4.2665589846
 20
19.6732945824
 10
-4.256617002
 20
19.6902690198
 10
-4.2476030027
 20
19.7082116368
 10
-4.2394525192
 20
19.7270321318
 10
-4.2321286165
 20
19.7466420321
 10
-4.2255787138
 20
19.7669416294
 10
-4.2197443493
 20
19.7878476089
 10
-4.2145885246
 20
19.8093036453
 10
-4.2100675551
 20
19.8312340232
 10
-4.2061253489
 20
19.8535392906
 10
-4.2027107294
 20
19.876130216
  0
LINE
  5
393
100
AcDbEntity
  8
RACCORDO
100
AcDbLine
 62
7
  6
CONTINUOUS
 10
4.4839669761
 20
29.6707901428
 11
4.8613439477
 21
29.8962888051
  0
LWPOLYLINE
  5
394
100
AcDbEntity
  8
0
100
AcDbPolyline
 62
7
  6
CONTINUOUS
 90
46
 70
0
 10
-3.9632588959
 20
19.1814120849
 10
-3.956513324
 20
19.1853699872
 10
-3.9441094051
 20
19.1930328871
 10
-3.9315721159
 20
19.2015187841
 10
-3.9188974457
 20
19.2108396394
 10
-3.9060884936
 20
19.2209839648
 10
-3.8932329589
 20
19.2321632563
 10
-3.8803315523
 20
19.2443969292
 10
-3.8673822875
 20
19.2576662303
 10
-3.8544686069
 20
19.2721255117
 10
-3.8415827456
 20
19.2877604076
 10
-3.8287308298
 20
19.3045861343
 10
-3.8160168999
 20
19.3228015412
 10
-3.8034168669
 20
19.3423975432
 10
-3.7909526701
 20
19.363384341
 10
-3.778797091
 20
19.3859898693
 10
-3.7669320453
 20
19.4102050463
 10
-3.7553728816
 20
19.4360403735
 10
-3.7443421862
 20
19.4637533394
 10
-3.7338237354
 20
19.4933531562
 10
-3.7238303077
 20
19.5248323996
 10
-3.7146276486
 20
19.5584237825
 10
-3.7061952475
 20
19.5941107509
 10
-3.698549506
 20
19.631911991
 10
-3.6920111797
 20
19.6721132622
 10
-3.6864626506
 20
19.7147117748
 10
-3.6820165422
 20
19.7597129105
 10
-3.6793388131
 20
19.8074147685
 10
-3.6783664687
 20
19.858266956
 10
-3.6791567205
 20
19.9118228671
 10
-3.6825583496
 20
19.9670349776
 10
-3.6889316949
 20
20.0244584873
 10
-3.6979155353
 20
20.0835386542
 10
-3.709283144
 20
20.1415594954
 10
-3.7233005098
 20
20.1981641565
 10
-3.7397097741
 20
20.2537052725
 10
-3.7575040122
 20
20.3065282036
 10
-3.7766238849
 20
20.3561115569
 10
-3.7971380404
 20
20.4029718942
 10
-3.8182320966
 20
20.4470112152
 10
-3.8397502293
 20
20.4881623239
 10
-3.8618542112
 20
20.5264893293
 10
-3.8842049555
 20
20.5620917599
 10
-3.9066906019
 20
20.5950021856
 10
-3.9294267764
 20
20.6251860823
 10
-3.9524150042
 20
20.6526426584
  0
LINE
  5
395
100
AcDbEntity
  8
0
100
AcDbLine
 62
7
  6
CONTINUOUS
 10
-10.3290213752
 20
21.2291366364
 11
-10.3791241998
 21
21.2002078934
  0
LINE
  5
396
100
AcDbEntity
  8
0
100
AcDbLine
 62
7
  6
CONTINUOUS
 10
-7.4921353528
 20
22.7778589214
 11
-7.5426769464
 21
22.7486768386
  0
LINE
  5
397
100
AcDbEntity
  8
0
100
AcDbLine
 62
7
  6
CONTINUOUS
 10
-9.599630395
 20
20.8094804156
 11
-9.6497345903
 21
20.7805508812
  0
LINE
  5
398
100
AcDbEntity
  8
0
100
AcDbLine
 62
7
  6
CONTINUOUS
 10
-6.4673527694
 20
22.1841964002
 11
-6.5178943777
 21
22.155014309
  0
LINE
  5
399
100
AcDbEntity
  8
0
100
AcDbLine
 62
7
  6
CONTINUOUS
 10
-8.853797847
 20
20.3801039477
 11
-8.9039027717
 21
20.3511739921
  0
LINE
  5
39A
100
AcDbEntity
  8
0
100
AcDbLine
 62
7
  6
CONTINUOUS
 10
-5.9972213277
 20
21.9115866615
 11
-6.0477627821
 21
21.8824046591
  0
LINE
  5
39B
100
AcDbEntity
  8
0
100
AcDbLine
 62
7
  6
CONTINUOUS
 10
-5.146043226
 20
21.3797478199
 11
-5.1965782381
 21
21.3505695372
  0
LINE
  5
39C
100
AcDbEntity
  8
0
100
AcDbLine
 62
7
  6
CONTINUOUS
 10
-6.7704011772
 20
20.2877497833
 11
-6.8206457425
 21
20.258739201
  0
LINE
  5
39D
100
AcDbEntity
  8
0
100
AcDbLine
 62
7
  6
CONTINUOUS
 10
-7.698382434
 20
19.7128004153
 11
-7.7484872907
 21
19.683870499
  0
LINE
  5
39E
100
AcDbEntity
  8
0
100
AcDbLine
 62
7
  6
CONTINUOUS
 10
-7.1409910619
 20
19.3900170675
 11
-7.191095351
 21
19.3610874789
  0
LINE
  5
39F
100
AcDbEntity
  8
0
100
AcDbLine
 62
250
  6
CONTINUOUS
 10
-3.9524155756
 20
20.6526433722
 11
-4.0029439755
 21
20.6234689074
  0
LINE
  5
3A0
100
AcDbEntity
  8
0
100
AcDbLine
 62
7
  6
CONTINUOUS
 10
-4.8753650443
 20
19.8274994779
 11
-4.9256930987
 21
19.7984406901
  0
LINE
  5
3A1
100
AcDbEntity
  8
0
100
AcDbLine
 62
250
  6
CONTINUOUS
 10
-4.5977366063
 20
19.6663905584
 11
-4.648064022
 21
19.6373321393
  0
LINE
  5
3A2
100
AcDbEntity
  8
0
100
AcDbLine
 62
7
  6
CONTINUOUS
 10
-5.7065350095
 20
18.5587231272
 11
-5.7566361533
 21
18.5297953547
  0
LINE
  5
3A3
100
AcDbEntity
  8
0
100
AcDbLine
 62
7
  6
CONTINUOUS
 10
-4.1599931204
 20
19.098164293
 11
-4.1818592677
 21
19.0855390536
  0
LINE
  5
3A4
100
AcDbEntity
  8
0
100
AcDbLine
 62
7
  6
CONTINUOUS
 10
-5.079735412
 20
18.1953398132
 11
-5.129834548
 21
18.1664132
  0
LINE
  5
3A5
100
AcDbEntity
  8
0
100
AcDbLine
 62
250
  6
CONTINUOUS
 10
-3.9313274635
 20
18.3775542888
 11
-3.9815300634
 21
18.3485679368
  0
LWPOLYLINE
  5
3A6
100
AcDbEntity
  8
0
100
AcDbPolyline
 62
7
  6
CONTINUOUS
 90
18
 70
0
 10
-4.0135584993
 20
19.1523387811
 10
-4.018956965
 20
19.1492686181
 10
-4.0303166311
 20
19.1430960642
 10
-4.0414681089
 20
19.1373789338
 10
-4.0523857389
 20
19.1320714422
 10
-4.0630681178
 20
19.1271210181
 10
-4.0734782715
 20
19.1224982582
 10
-4.0836134414
 20
19.118164609
 10
-4.0935284965
 20
19.1140630395
 10
-4.1031913094
 20
19.1101758408
 10
-4.1126183061
 20
19.1065465255
 10
-4.1219644576
 20
19.1033209352
 10
-4.1312655797
 20
19.1006815802
 10
-4.1405406233
 20
19.0988008134
 10
-4.14993828
 20
19.0978625171
 10
-4.1595394664
 20
19.0980901681
 10
-4.1693423664
 20
19.0996919148
 10
-4.1793864666
 20
19.1028861735
  0
LINE
  5
3A7
100
AcDbEntity
  8
RACCORDO
100
AcDbLine
 62
250
  6
CONTINUOUS
 10
-53.8536151025
 20
-4.3620252187
 11
-53.6662539902
 21
-4.2575570476
  0
LWPOLYLINE
  5
3A8
100
AcDbEntity
  8
0
100
AcDbPolyline
 62
7
  6
CONTINUOUS
 90
5
 70
0
 10
-4.3187681537
 20
19.6142063195
 10
-4.3212174169
 20
19.6131772538
 10
-4.3392912098
 20
19.6077140217
 10
-4.3578592277
 20
19.6039853734
 10
-4.3769394134
 20
19.6020709988
  0
LWPOLYLINE
  5
3A9
100
AcDbEntity
  8
RACCORDO
100
AcDbPolyline
 62
250
  6
CONTINUOUS
 90
9
 70
0
 10
24.4589555349
 20
-42.4117439079
 10
24.4447868001
 20
-42.4031030947
 10
24.4322237247
 20
-42.3935686147
 10
24.4213992759
 20
-42.383241395
 10
24.4124280173
 20
-42.3722307535
 10
24.4054048937
 20
-42.3606532387
 10
24.4004042286
 20
-42.3486313956
 10
24.3974789403
 20
-42.3362924747
 10
24.3967512291
 20
-42.3291354074
  0
LWPOLYLINE
  5
3AA
100
AcDbEntity
  8
RACCORDO
100
AcDbPolyline
 62
250
  6
CONTINUOUS
 90
9
 70
0
 10
-54.9627665438
 20
24.2433378159
 10
-54.9838573443
 20
24.2619334743
 10
-55.0024077863
 20
24.2814106781
 10
-55.0183078996
 20
24.3016539672
 10
-55.0314634258
 20
24.3225433428
 10
-55.0417963768
 20
24.3439549694
 10
-55.0492454972
 20
24.3657619098
 10
-55.0537666274
 20
24.387834889
 10
-55.0553341643
 20
24.4106513227
  0
LWPOLYLINE
  5
3AB
100
AcDbEntity
  8
RACCORDO
100
AcDbPolyline
 62
250
  6
CONTINUOUS
 90
10
 70
0
 10
-60.7317492528
 20
29.3029924958
 10
-60.2022890874
 20
28.8040051873
 10
-59.6671506915
 20
28.3074197095
 10
-59.1263346964
 20
27.8132356659
 10
-58.5798420292
 20
27.321452298
 10
-58.027673929
 20
26.8320690039
 10
-57.4698319593
 20
26.3450853308
 10
-56.9063180176
 20
25.8605002631
 10
-56.3371335912
 20
25.3783126906
 10
-55.7622778775
 20
24.8985231175
  0
LWPOLYLINE
  5
3AC
100
AcDbEntity
  8
RACCORDO
100
AcDbPolyline
 62
250
  6
CONTINUOUS
 90
23
 70
0
 10
-39.004459137
 20
54.7804623426
 10
-39.0153970322
 20
54.8132735317
 10
-39.0284409172
 20
54.8576120118
 10
-39.0387484373
 20
54.8990716094
 10
-39.0462822462
 20
54.9375104892
 10
-39.0509331223
 20
54.9725296066
 10
-39.0526003195
 20
55.0041745442
 10
-39.0513072079
 20
55.0324587397
 10
-39.0470761613
 20
55.0569975724
 10
-39.0397529379
 20
55.0777684741
 10
-39.029357613
 20
55.0949285697
 10
-39.0161257795
 20
55.1084219947
 10
-38.9998932407
 20
55.118263396
 10
-38.98067342
 20
55.1246068729
 10
-38.9589417836
 20
55.1276414436
 10
-38.9346422457
 20
55.1274084856
 10
-38.9076864579
 20
55.1240408704
 10
-38.8784967474
 20
55.1178735382
 10
-38.8471728648
 20
55.1090463218
 10
-38.8135085315
 20
55.0975543764
 10
-38.7774770289
 20
55.0835043265
 10
-38.7388703721
 20
55.0668767134
 10
-38.6978301131
 20
55.0477780742
  0
LWPOLYLINE
  5
3AD
100
AcDbEntity
  8
RACCORDO
100
AcDbPolyline
 62
250
  6
CONTINUOUS
 90
3
 70
0
 10
-38.4695564492
 20
54.4716162345
 10
-38.5151559317
 20
54.6250865449
 10
-38.5730404431
 20
54.7889657243
  0
LWPOLYLINE
  5
3AE
100
AcDbEntity
  8
0
100
AcDbPolyline
 62
7
  6
CONTINUOUS
 90
10
 70
0
 10
-10.8670900492
 20
21.4808656792
 10
-10.825601266
 20
21.8054018836
 10
-10.7827297848
 20
22.13043616
 10
-10.7384756058
 20
22.4559685083
 10
-10.692837183
 20
22.7820083535
 10
-10.6458160623
 20
23.1085462706
 10
-10.5974168814
 20
23.4355539847
 10
-10.5476411859
 20
23.763022071
 10
-10.4964874302
 20
24.0909599543
 10
-10.4439556141
 20
24.4193676347
  0
LWPOLYLINE
  5
3AF
100
AcDbEntity
  8
0
100
AcDbPolyline
 62
7
  6
CONTINUOUS
 90
10
 70
0
 10
-10.3290213752
 20
21.2291366364
 10
-10.2874398266
 20
21.553789562
 10
-10.2444802704
 20
21.8789220946
 10
-10.2001427065
 20
22.204534234
 10
-10.1544254668
 20
22.5306355198
 10
-10.1073302195
 20
22.8572164126
 10
-10.0588619693
 20
23.1842482935
 10
-10.0090223843
 20
23.511721623
 10
-9.9578097964
 20
23.8396459407
 10
-9.9052242055
 20
24.1680212465
  0
LWPOLYLINE
  5
3B0
100
AcDbEntity
  8
0
100
AcDbPolyline
 62
250
  6
CONTINUOUS
 90
3
 70
0
 10
-8.0600670868
 20
22.3711685047
 10
-7.9951844528
 20
22.784370826
 10
-7.9619243912
 20
22.9912721022
  0
LWPOLYLINE
  5
3B1
100
AcDbEntity
  8
0
100
AcDbPolyline
 62
7
  6
CONTINUOUS
 90
10
 70
0
 10
-9.9557656577
 20
24.1388392455
 10
-10.0083018649
 20
23.810458829
 10
-10.0594651715
 20
23.4825378236
 10
-10.1092555775
 20
23.1550762294
 10
-10.1576746719
 20
22.828064654
 10
-10.2047208658
 20
22.5015124897
 10
-10.2503893922
 20
22.1754479138
 10
-10.2946786622
 20
21.8498803186
 10
-10.3375902647
 20
21.5248003118
 10
-10.3791241998
 20
21.2002078934
  0
LWPOLYLINE
  5
3B2
100
AcDbEntity
  8
0
100
AcDbPolyline
 62
250
  6
CONTINUOUS
 90
7
 70
0
 10
-7.9113809716
 20
23.0204529567
 10
-7.7236336593
 20
24.1327194618
 10
-7.5204902433
 20
25.2487490946
 10
-7.3019648847
 20
26.3685345058
 10
-7.068081298
 20
27.4920633883
 10
-6.8188681597
 20
28.61932086
 10
-6.5543719431
 20
29.7502828023
  0
LINE
  5
3B3
100
AcDbEntity
  8
0
100
AcDbLine
 62
7
  6
CONTINUOUS
 10
-9.5719565667
 20
21.1895953482
 11
-9.6497345903
 21
20.7805508812
  0
LINE
  5
3B4
100
AcDbEntity
  8
0
100
AcDbLine
 62
7
  6
CONTINUOUS
 10
-9.599630395
 20
20.8094804156
 11
-9.5217875042
 21
21.2186034336
  0
LINE
  5
3B5
100
AcDbEntity
  8
0
100
AcDbLine
 62
7
  6
CONTINUOUS
 10
-9.4917873862
 20
21.5999251075
 11
-9.5719565667
 21
21.1895953482
  0
LINE
  5
3B6
100
AcDbEntity
  8
0
100
AcDbLine
 62
7
  6
CONTINUOUS
 10
-9.5217875042
 20
21.2186034336
 11
-9.4415558516
 21
21.6289870161
  0
LINE
  5
3B7
100
AcDbEntity
  8
0
100
AcDbLine
 62
7
  6
CONTINUOUS
 10
-9.4092281601
 20
22.0115326742
 11
-9.4917873862
 21
21.5999251075
  0
LINE
  5
3B8
100
AcDbEntity
  8
0
100
AcDbLine
 62
7
  6
CONTINUOUS
 10
-9.4415558516
 20
21.6289870161
 11
-9.3589367234
 21
22.0406234827
  0
LWPOLYLINE
  5
3B9
100
AcDbEntity
  8
0
100
AcDbPolyline
 62
7
  6
CONTINUOUS
 90
3
 70
0
 10
-9.3589367234
 20
22.0406234827
 10
-9.2739352637
 20
22.4534821117
 10
-9.2641857503
 20
22.4999644045
  0
LWPOLYLINE
  5
3BA
100
AcDbEntity
  8
0
100
AcDbPolyline
 62
7
  6
CONTINUOUS
 90
10
 70
0
 10
-10.1164604651
 20
21.0491065344
 10
-10.0514227351
 20
21.3598513469
 10
-9.9850168674
 20
21.6711700637
 10
-9.917242862
 20
21.9830626848
 10
-9.8480990101
 20
22.295537934
 10
-9.7775870206
 20
22.6085870876
 10
-9.70571202
 20
22.9221839738
 10
-9.6324757173
 20
23.2363198691
 10
-9.5578764036
 20
23.551003497
 10
-9.481914079
 20
23.8662348578
  0
LWPOLYLINE
  5
3BB
100
AcDbEntity
  8
0
100
AcDbPolyline
 62
7
  6
CONTINUOUS
 90
3
 70
0
 10
-9.2809160409
 20
22.6312856465
 10
-9.3242833328
 20
22.424388108
 10
-9.4092281601
 20
22.0115326742
  0
LINE
  5
3BC
100
AcDbEntity
  8
RACCORDO
100
AcDbLine
 62
250
  6
CONTINUOUS
 10
-6.5543719431
 20
29.7502828023
 11
-6.4287040321
 21
30.267417755
  0
LINE
  5
3BD
100
AcDbEntity
  8
RACCORDO
100
AcDbLine
 62
250
  6
CONTINUOUS
 10
-6.4287040321
 20
30.267417755
 11
-6.29988017
 21
30.7853645721
  0
LINE
  5
3BE
100
AcDbEntity
  8
0
100
AcDbLine
 62
7
  6
CONTINUOUS
 10
-7.0284962287
 20
19.7525883179
 11
-7.191095351
 21
19.3610874789
  0
LINE
  5
3BF
100
AcDbEntity
  8
0
100
AcDbLine
 62
7
  6
CONTINUOUS
 10
-7.1409910619
 20
19.3900170675
 11
-6.978332441
 21
19.7815519436
  0
LINE
  5
3C0
100
AcDbEntity
  8
0
100
AcDbLine
 62
7
  6
CONTINUOUS
 10
-6.978332441
 20
19.7815519436
 11
-6.9509444415
 21
19.8469826784
  0
LINE
  5
3C1
100
AcDbEntity
  8
0
100
AcDbLine
 62
7
  6
CONTINUOUS
 10
-6.9815456927
 20
19.8647140541
 11
-7.0284962287
 21
19.7525883179
  0
LINE
  5
3C2
100
AcDbEntity
  8
0
100
AcDbLine
 62
7
  6
CONTINUOUS
 10
-6.6441136757
 20
20.6811523114
 11
-6.8206457425
 21
20.258739201
  0
LINE
  5
3C3
100
AcDbEntity
  8
0
100
AcDbLine
 62
7
  6
CONTINUOUS
 10
-6.7704011772
 20
20.2877497833
 11
-6.5937867605
 21
20.7102315986
  0
LINE
  5
3C4
100
AcDbEntity
  8
0
100
AcDbLine
 62
7
  6
CONTINUOUS
 10
-6.5937867605
 20
20.7102315986
 11
-6.4145999821
 21
21.1332165011
  0
LWPOLYLINE
  5
3C5
100
AcDbEntity
  8
0
100
AcDbPolyline
 62
7
  6
CONTINUOUS
 90
3
 70
0
 10
-6.4198109499
 20
21.2099338081
 10
-6.4649938361
 20
21.1041112333
 10
-6.6441136757
 20
20.6811523114
  0
LINE
  5
3C6
100
AcDbEntity
  8
0
100
AcDbLine
 62
7
  6
CONTINUOUS
 10
-7.6721154164
 20
19.6396544178
 11
-7.4240354915
 21
20.1961412561
  0
LINE
  5
3C7
100
AcDbEntity
  8
0
100
AcDbLine
 62
7
  6
CONTINUOUS
 10
-7.4240354915
 20
20.1961412561
 11
-7.1711249776
 21
20.7540816512
  0
LINE
  5
3C8
100
AcDbEntity
  8
0
100
AcDbLine
 62
7
  6
CONTINUOUS
 10
-7.1711249776
 20
20.7540816512
 11
-6.9133993164
 21
21.3134517199
  0
LWPOLYLINE
  5
3C9
100
AcDbEntity
  8
0
100
AcDbPolyline
 62
7
  6
CONTINUOUS
 90
3
 70
0
 10
-6.9133993164
 20
21.3134517199
 10
-6.6509202758
 20
21.8741559301
 10
-6.5178943777
 20
22.155014309
  0
LINE
  5
3CA
100
AcDbEntity
  8
0
100
AcDbLine
 62
7
  6
CONTINUOUS
 10
-8.6580718494
 20
20.8157531708
 11
-8.9039027717
 21
20.3511739921
  0
LINE
  5
3CB
100
AcDbEntity
  8
0
100
AcDbLine
 62
7
  6
CONTINUOUS
 10
-8.853797847
 20
20.3801039477
 11
-8.6078935296
 21
20.8447234723
  0
LINE
  5
3CC
100
AcDbEntity
  8
0
100
AcDbLine
 62
7
  6
CONTINUOUS
 10
-8.4917538872
 20
21.1269544275
 11
-8.6580718494
 21
20.8157531708
  0
LINE
  5
3CD
100
AcDbEntity
  8
0
100
AcDbLine
 62
7
  6
CONTINUOUS
 10
-8.6078935296
 20
20.8447234723
 11
-8.3576095373
 21
21.3120115999
  0
LINE
  5
3CE
100
AcDbEntity
  8
0
100
AcDbLine
 62
7
  6
CONTINUOUS
 10
-3.8679013464
 20
17.4928270939
 11
-3.9179958012
 21
17.4639031836
  0
LINE
  5
3CF
100
AcDbEntity
  8
RACCORDO
100
AcDbLine
 62
250
  6
CONTINUOUS
 10
-52.1557470212
 20
-7.5112641209
 11
-52.3436405793
 21
-7.6078189217
  0
LINE
  5
3D0
100
AcDbEntity
  8
RACCORDO
100
AcDbLine
 62
7
  6
CONTINUOUS
 10
-52.2688956149
 20
-8.1799946785
 11
-51.8303771044
 21
-7.9576030752
  0
LWPOLYLINE
  5
3D1
100
AcDbEntity
  8
RACCORDO
100
AcDbPolyline
 62
250
  6
CONTINUOUS
 90
10
 70
0
 10
48.8093486898
 20
-33.9451874074
 10
47.9452457037
 20
-33.6394186695
 10
47.0853014152
 20
-33.3303720433
 10
46.2295152774
 20
-33.0180478125
 10
45.3778864883
 20
-32.7024462172
 10
44.5304139736
 20
-32.3835679911
 10
43.6870963754
 20
-32.061414368
 10
42.8479320489
 20
-31.7359863777
 10
42.0129197069
 20
-31.4072845121
 10
41.1820600447
 20
-31.0753084102
  0
LWPOLYLINE
  5
3D2
100
AcDbEntity
  8
RACCORDO
100
AcDbPolyline
 62
250
  6
CONTINUOUS
 90
19
 70
0
 10
40.0466589464
 20
-30.6140083614
 10
40.0788648627
 20
-30.6262099734
 10
40.1125979916
 20
-30.6369386453
 10
40.1476583573
 20
-30.6461308855
 10
40.1838381163
 20
-30.6537303037
 10
40.2209227884
 20
-30.6596938471
 10
40.2586925287
 20
-30.6639920666
 10
40.2969234317
 20
-30.6666014442
 10
40.335388858
 20
-30.6675045409
 10
40.3738607776
 20
-30.6666960014
 10
40.4121111225
 20
-30.6641806175
 10
40.4499131383
 20
-30.6599733026
 10
40.487042728
 20
-30.6540990005
 10
40.5232797813
 20
-30.6465925321
 10
40.5584094792
 20
-30.6374983969
 10
40.5922235668
 20
-30.6268705121
 10
40.6245215891
 20
-30.6147718812
 10
40.6551120783
 20
-30.6012742208
 10
40.6838136893
 20
-30.586457543
  0
LWPOLYLINE
  5
3D3
100
AcDbEntity
  8
RACCORDO
100
AcDbPolyline
 62
250
  6
CONTINUOUS
 90
3
 70
0
 10
40.0466589495
 20
-30.6140350038
 10
39.5094047803
 20
-30.392273214
 10
39.4021434659
 20
-30.347742325
  0
LINE
  5
3D4
100
AcDbEntity
  8
RACCORDO
100
AcDbLine
 62
250
  6
CONTINUOUS
 10
39.4021434659
 20
-30.347742325
 11
37.6245717411
 21
-29.5972649011
  0
LINE
  5
3D5
100
AcDbEntity
  8
RACCORDO
100
AcDbLine
 62
250
  6
CONTINUOUS
 10
37.6245717411
 20
-29.5972649011
 11
35.868435443
 21
-28.8319906319
  0
LWPOLYLINE
  5
3D6
100
AcDbEntity
  8
RACCORDO
100
AcDbPolyline
 62
250
  6
CONTINUOUS
 90
11
 70
0
 10
41.1820600095
 20
-31.0753213429
 10
41.1592339721
 20
-31.0651611596
 10
41.1382020735
 20
-31.0537829258
 10
41.1191584448
 20
-31.0412916719
 10
41.1022788645
 20
-31.0278027048
 10
41.0877191365
 20
-31.0134405324
 10
41.075613651
 20
-30.998337714
 10
41.0660741458
 20
-30.9826336538
 10
41.059188674
 20
-30.9664733094
 10
41.0550207908
 20
-30.9500058428
 10
41.0536088333
 20
-30.9332245802
  0
LWPOLYLINE
  5
3D7
100
AcDbEntity
  8
RACCORDO
100
AcDbPolyline
 62
250
  6
CONTINUOUS
 90
8
 70
0
 10
35.868435443
 20
-28.8319906319
 10
34.1336687616
 20
-28.0519536709
 10
32.420040261
 20
-27.2570841457
 10
30.7277161507
 20
-26.4474857794
 10
29.0572295911
 20
-25.6234518206
 10
27.4087350024
 20
-24.7850921111
 10
25.7820646918
 20
-23.9323036972
 10
24.177251687
 20
-23.0650694386
  0
LWPOLYLINE
  5
3D8
100
AcDbEntity
  8
RACCORDO
100
AcDbPolyline
 62
250
  6
CONTINUOUS
 90
10
 70
0
 10
-54.5016370752
 20
23.8711337069
 10
-53.2019025939
 20
22.8447590475
 10
-51.8765058797
 20
21.8307811411
 10
-50.5255229042
 20
20.8291522786
 10
-49.1488428
 20
19.8397329722
 10
-47.7466517324
 20
18.8626154233
 10
-46.319468334
 20
17.8981012692
 10
-44.8674923804
 20
16.9462741641
 10
-43.3905394182
 20
16.0070408316
 10
-41.88857132
 20
15.0804252153
  0
LWPOLYLINE
  5
3D9
100
AcDbEntity
  8
RACCORDO
100
AcDbPolyline
 62
250
  6
CONTINUOUS
 90
3
 70
0
 10
-54.9627665459
 20
24.2433111713
 10
-54.8861682024
 20
24.1811910452
 10
-54.5016370752
 20
23.8711337069
  0
LWPOLYLINE
  5
3DA
100
AcDbEntity
  8
RACCORDO
100
AcDbPolyline
 62
250
  6
CONTINUOUS
 90
10
 70
0
 10
-8.380199487
 20
-36.8668292494
 10
-8.3775337428
 20
-36.8992611776
 10
-8.3724189634
 20
-36.9299048295
 10
-8.3648909006
 20
-36.9585461845
 10
-8.3550021759
 20
-36.9849851959
 10
-8.3428218519
 20
-37.0090372231
 10
-8.3284349502
 20
-37.0305343206
 10
-8.3119419451
 20
-37.049326361
 10
-8.2934580411
 20
-37.0652820943
 10
-8.2771548386
 20
-37.0760267925
  0
LINE
  5
3DB
100
AcDbEntity
  8
0
100
AcDbLine
 62
7
  6
CONTINUOUS
 10
-11.9126696816
 20
23.546448705
 11
-11.8759739697
 21
23.0379914647
  0
LINE
  5
3DC
100
AcDbEntity
  8
0
100
AcDbLine
 62
7
  6
CONTINUOUS
 10
-11.8313902074
 20
23.1437736057
 11
-11.8623840986
 21
23.5755105238
  0
LINE
  5
3DD
100
AcDbEntity
  8
0
100
AcDbLine
 62
7
  6
CONTINUOUS
 10
-11.9465120605
 20
24.0546070151
 11
-11.9126696816
 21
23.546448705
  0
LINE
  5
3DE
100
AcDbEntity
  8
0
100
AcDbLine
 62
7
  6
CONTINUOUS
 10
-11.8623840986
 20
23.5755105238
 11
-11.8961588147
 21
24.0837199461
  0
LINE
  5
3DF
100
AcDbEntity
  8
0
100
AcDbLine
 62
7
  6
CONTINUOUS
 10
-11.9775036482
 20
24.5624553649
 11
-11.9465120605
 21
24.0546070151
  0
LINE
  5
3E0
100
AcDbEntity
  8
0
100
AcDbLine
 62
7
  6
CONTINUOUS
 10
-11.8961588147
 20
24.0837199461
 11
-11.9270787009
 21
24.5916060714
  0
LWPOLYLINE
  5
3E1
100
AcDbEntity
  8
0
100
AcDbPolyline
 62
7
  6
CONTINUOUS
 90
3
 70
0
 10
-11.9270787009
 20
24.5916060714
 10
-11.9551541567
 20
25.0991240069
 10
-11.9681245733
 20
25.3527477093
  0
LWPOLYLINE
  5
3E2
100
AcDbEntity
  8
0
100
AcDbPolyline
 62
7
  6
CONTINUOUS
 90
3
 70
0
 10
-12.0186642261
 20
25.3235667472
 10
-12.0056546129
 20
25.0699496348
 10
-11.9775036482
 20
24.5624553649
  0
LINE
  5
3E3
100
AcDbEntity
  8
0
100
AcDbLine
 62
7
  6
CONTINUOUS
 10
-6.3859321258
 20
20.5307638864
 11
-6.4068534629
 21
20.9380101071
  0
LINE
  5
3E4
100
AcDbEntity
  8
0
100
AcDbLine
 62
7
  6
CONTINUOUS
 10
-6.4068534629
 20
20.9380101071
 11
-6.4198109499
 21
21.2099338081
  0
LWPOLYLINE
  5
3E5
100
AcDbEntity
  8
RACCORDO
100
AcDbPolyline
 62
250
  6
CONTINUOUS
 90
10
 70
0
 10
-8.3800602311
 20
-36.8669097786
 10
-8.4321362218
 20
-35.5923058792
 10
-8.47818234
 20
-34.3139239051
 10
-8.518197274
 20
-33.0318001983
 10
-8.5521798872
 20
-31.7459710615
 10
-8.5801292059
 20
-30.4564731933
 10
-8.6020444264
 20
-29.1633436918
 10
-8.6179249279
 20
-27.8666194692
 10
-8.6277702651
 20
-26.5663372464
 10
-8.6311499819
 20
-25.4097479068
  0
LWPOLYLINE
  5
3E6
100
AcDbEntity
  8
RACCORDO
100
AcDbPolyline
 62
250
  6
CONTINUOUS
 90
9
 70
0
 10
-8.855998158
 20
14.1475118756
 10
-8.8560396702
 20
14.1299162418
 10
-8.8544455385
 20
14.1133614988
 10
-8.8512342265
 20
14.0980393525
 10
-8.8464429261
 20
14.084127236
 10
-8.8401271212
 20
14.071786252
 10
-8.832359945
 20
14.0611593067
 10
-8.8232313408
 20
14.0523694598
 10
-8.8148113316
 20
14.046609151
  0
LWPOLYLINE
  5
3E7
100
AcDbEntity
  8
0
100
AcDbPolyline
 62
7
  6
CONTINUOUS
 90
10
 70
0
 10
-7.698382434
 20
19.7128004153
 10
-7.6810599927
 20
20.0513506584
 10
-7.6623386683
 20
20.3904110586
 10
-7.6422184606
 20
20.7299816161
 10
-7.620698826
 20
21.0700719358
 10
-7.5977803082
 20
21.4106724127
 10
-7.5734645388
 20
21.7517542312
 10
-7.5477520617
 20
22.0933077863
 10
-7.520642333
 20
22.435342683
 10
-7.4921353528
 20
22.7778589214
  0
LWPOLYLINE
  5
3E8
100
AcDbEntity
  8
0
100
AcDbPolyline
 62
250
  6
CONTINUOUS
 90
7
 70
0
 10
-8.8559932375
 20
14.1475090364
 10
-8.7855798503
 20
15.3978110199
 10
-8.6930097274
 20
16.6570161387
 10
-8.5783513458
 20
17.925088855
 10
-8.4417347543
 20
19.2019616772
 10
-8.2832497397
 20
20.4875880084
 10
-8.1029578883
 20
21.7819358873
  0
LINE
  5
3E9
100
AcDbEntity
  8
0
100
AcDbLine
 62
7
  6
CONTINUOUS
 10
-8.2243538511
 20
19.9592913378
 11
-8.192377345
 21
20.3932197503
  0
LINE
  5
3EA
100
AcDbEntity
  8
0
100
AcDbLine
 62
7
  6
CONTINUOUS
 10
-8.192377345
 20
20.3932197503
 11
-8.1580386463
 21
20.8282399603
  0
LWPOLYLINE
  5
3EB
100
AcDbEntity
  8
0
100
AcDbPolyline
 62
7
  6
CONTINUOUS
 90
10
 70
0
 10
-7.5426769464
 20
22.7486768386
 10
-7.5711313427
 20
22.4061640602
 10
-7.5981894643
 20
22.0641388692
 10
-7.6238513111
 20
21.7226012656
 10
-7.6481173769
 20
21.3815417857
 10
-7.670987168
 20
21.0409698932
 10
-7.6924592031
 20
20.7009139791
 10
-7.7125329883
 20
20.3613835073
 10
-7.7312090175
 20
20.0223690139
 10
-7.7484872907
 20
19.683870499
  0
LINE
  5
3EC
100
AcDbEntity
  8
0
100
AcDbLine
 62
7
  6
CONTINUOUS
 10
-8.1580386463
 20
20.8282399603
 11
-8.1213383086
 21
21.2643440187
  0
LWPOLYLINE
  5
3ED
100
AcDbEntity
  8
0
100
AcDbPolyline
 62
7
  6
CONTINUOUS
 90
3
 70
0
 10
-8.1213383086
 20
21.2643440187
 10
-8.0822785476
 20
21.7015001291
 10
-8.0618637448
 20
21.920474691
  0
LWPOLYLINE
  5
3EE
100
AcDbEntity
  8
0
100
AcDbPolyline
 62
7
  6
CONTINUOUS
 90
22
 70
0
 10
-4.2027107187
 20
19.87613021
 10
-4.1999866701
 20
19.9005476179
 10
-4.1985405411
 20
19.9259962482
 10
-4.1983860617
 20
19.9523660619
 10
-4.1995096928
 20
19.9795280383
 10
-4.2019461279
 20
20.0073650797
 10
-4.205789556
 20
20.0357747488
 10
-4.211059838
 20
20.0646521113
 10
-4.2177746281
 20
20.0938013178
 10
-4.2260279057
 20
20.1229689012
 10
-4.2358654328
 20
20.1520463986
 10
-4.2472623131
 20
20.1807671808
 10
-4.2601383398
 20
20.2086706884
 10
-4.2743793384
 20
20.2356154237
 10
-4.2898582888
 20
20.2615575659
 10
-4.3063728204
 20
20.2862717063
 10
-4.3237334575
 20
20.3096112967
 10
-4.3418559311
 20
20.3315833909
 10
-4.3606914031
 20
20.3521961769
 10
-4.3801427727
 20
20.3713889448
 10
-4.4000578088
 20
20.3890481152
 10
-4.420310371
 20
20.4050876253
  0
LWPOLYLINE
  5
3EF
100
AcDbEntity
  8
0
100
AcDbPolyline
 62
7
  6
CONTINUOUS
 90
10
 70
0
 10
-5.6139101037
 20
18.4470547355
 10
-5.5729533622
 20
18.767697421
 10
-5.5306421601
 20
19.088839465
 10
-5.4869764976
 20
19.4104808675
 10
-5.4419549156
 20
19.7326307497
 10
-5.3955788732
 20
20.0552799904
 10
-5.3478527466
 20
20.3784012258
 10
-5.2987779946
 20
20.7019853348
 10
-5.2483531584
 20
21.0260414386
 10
-5.1965782381
 20
21.3505695372
  0
LINE
  5
3F0
100
AcDbEntity
  8
0
100
AcDbLine
 62
7
  6
CONTINUOUS
 10
-5.0813032845
 20
18.5457268884
 11
-5.129834548
 21
18.1664132
  0
LINE
  5
3F1
100
AcDbEntity
  8
0
100
AcDbLine
 62
7
  6
CONTINUOUS
 10
-5.079735412
 20
18.1953398132
 11
-5.0311539614
 21
18.5746808727
  0
LINE
  5
3F2
100
AcDbEntity
  8
0
100
AcDbLine
 62
7
  6
CONTINUOUS
 10
-5.0307847239
 20
18.9263323169
 11
-5.0813032845
 21
18.5457268884
  0
LINE
  5
3F3
100
AcDbEntity
  8
0
100
AcDbLine
 62
7
  6
CONTINUOUS
 10
-5.0311539614
 20
18.5746808727
 11
-4.9805829066
 21
18.9553167402
  0
LINE
  5
3F4
100
AcDbEntity
  8
0
100
AcDbLine
 62
7
  6
CONTINUOUS
 10
-4.9782765072
 20
19.3082145754
 11
-5.0307847239
 21
18.9263323169
  0
LINE
  5
3F5
100
AcDbEntity
  8
0
100
AcDbLine
 62
7
  6
CONTINUOUS
 10
-4.9805829066
 20
18.9553167402
 11
-4.9355134094
 21
19.2834045475
  0
LINE
  5
3F6
100
AcDbEntity
  8
0
100
AcDbLine
 62
7
  6
CONTINUOUS
 10
-4.1793864666
 20
19.1028861735
 11
-4.1818592677
 21
19.0855390536
  0
LINE
  5
3F7
100
AcDbEntity
  8
0
100
AcDbLine
 62
7
  6
CONTINUOUS
 10
-4.8753650443
 20
19.8274994779
 11
-4.8220194405
 21
20.1875318684
  0
LWPOLYLINE
  5
3F8
100
AcDbEntity
  8
0
100
AcDbPolyline
 62
250
  6
CONTINUOUS
 90
3
 70
0
 10
-8.1533045798
 20
21.7528619677
 10
-8.0916906288
 20
22.1648669747
 10
-8.0600670868
 20
22.3711685047
  0
LINE
  5
3F9
100
AcDbEntity
  8
0
100
AcDbLine
 62
7
  6
CONTINUOUS
 10
-4.8588300847
 20
20.248453266
 11
-4.9256930987
 21
19.7984406901
  0
LINE
  5
3FA
100
AcDbEntity
  8
0
100
AcDbLine
 62
7
  6
CONTINUOUS
 10
-4.8035408199
 20
20.6085330402
 11
-4.8588300847
 21
20.248453266
  0
LINE
  5
3FB
100
AcDbEntity
  8
0
100
AcDbLine
 62
7
  6
CONTINUOUS
 10
-4.8220194405
 20
20.1875318684
 11
-4.7600644412
 21
20.592737809
  0
LINE
  5
3FC
100
AcDbEntity
  8
RACCORDO
100
AcDbLine
 62
7
  6
CONTINUOUS
 10
41.4989459288
 20
-5.218819253
 11
41.8520408894
 21
-5.208293128
  0
LWPOLYLINE
  5
3FD
100
AcDbEntity
  8
RACCORDO
100
AcDbPolyline
 62
250
  6
CONTINUOUS
 90
7
 70
0
 10
-41.8885713338
 20
15.0804877339
 10
-41.8736486775
 20
15.072317256
 10
-41.8573492353
 20
15.0650746823
 10
-41.8398455455
 20
15.0588367907
 10
-41.8213228936
 20
15.0536698481
 10
-41.8019773513
 20
15.049628548
 10
-41.7876847914
 20
15.0475715993
  0
LWPOLYLINE
  5
3FE
100
AcDbEntity
  8
RACCORDO
100
AcDbPolyline
 62
250
  6
CONTINUOUS
 90
9
 70
0
 10
24.1772516731
 20
-23.0651319812
 10
24.1630835756
 20
-23.0565212801
 10
24.1505237639
 20
-23.047114669
 10
24.1397051899
 20
-23.0370117824
 10
24.1307423737
 20
-23.0263196869
 10
24.1237301914
 20
-23.0151515646
 10
24.1187428701
 20
-23.0036255141
 10
24.1158332033
 20
-22.9918636004
 10
24.1150163346
 20
-22.981481383
  0
LWPOLYLINE
  5
3FF
100
AcDbEntity
  8
RACCORDO
100
AcDbPolyline
 62
250
  6
CONTINUOUS
 90
10
 70
0
 10
-38.5730404431
 20
54.7889657243
 10
-38.5933270146
 20
54.8267310896
 10
-38.6115943308
 20
54.862403147
 10
-38.6278628497
 20
54.8958025574
 10
-38.6422847265
 20
54.9266867663
 10
-38.6547785456
 20
54.9549639902
 10
-38.6650255355
 20
54.980690421
 10
-38.6731235605
 20
55.0037416393
 10
-38.6790860237
 20
55.0239446986
 10
-38.6798731086
 20
55.0279386365
  0
LINE
  5
400
100
AcDbEntity
  8
0
100
AcDbLine
 62
7
  6
CONTINUOUS
 10
-8.9722960336
 20
20.3905615982
 11
-9.0451979294
 21
20.8870423762
  0
LINE
  5
401
100
AcDbEntity
  8
0
100
AcDbLine
 62
7
  6
CONTINUOUS
 10
-9.0451979294
 20
20.8870423762
 11
-9.1156314067
 21
21.3843686543
  0
LINE
  5
402
100
AcDbEntity
  8
0
100
AcDbLine
 62
7
  6
CONTINUOUS
 10
-9.1156314067
 20
21.3843686543
 11
-9.183596489
 21
21.8825320226
  0
LWPOLYLINE
  5
403
100
AcDbEntity
  8
0
100
AcDbPolyline
 62
7
  6
CONTINUOUS
 90
3
 70
0
 10
-9.183596489
 20
21.8825320226
 10
-9.2490932696
 20
22.381498841
 10
-9.2809160409
 20
22.6312856465
  0
LINE
  5
404
100
AcDbEntity
  8
0
100
AcDbLine
 62
7
  6
CONTINUOUS
 10
-8.7176832565
 20
21.7496033321
 11
-8.765975331
 21
22.1238732008
  0
LINE
  5
405
100
AcDbEntity
  8
0
100
AcDbLine
 62
7
  6
CONTINUOUS
 10
-8.8431725635
 20
22.3079474387
 11
-8.7611515306
 21
21.6682592885
  0
LINE
  5
406
100
AcDbEntity
  8
0
100
AcDbLine
 62
7
  6
CONTINUOUS
 10
-8.765975331
 20
22.1238732008
 11
-8.8191731309
 21
22.5502181104
  0
LINE
  5
407
100
AcDbEntity
  8
0
100
AcDbLine
 62
7
  6
CONTINUOUS
 10
-8.9209083266
 20
22.9471442764
 11
-8.8431725635
 21
22.3079474387
  0
LINE
  5
408
100
AcDbEntity
  8
0
100
AcDbLine
 62
7
  6
CONTINUOUS
 10
-8.8191731309
 20
22.5502181104
 11
-8.8704625908
 21
22.9763213061
  0
LWPOLYLINE
  5
409
100
AcDbEntity
  8
0
100
AcDbPolyline
 62
7
  6
CONTINUOUS
 90
3
 70
0
 10
-8.8704625908
 20
22.9763213061
 10
-8.9198486957
 20
23.4021594944
 10
-8.9438276784
 20
23.6149806666
  0
LINE
  5
40A
100
AcDbEntity
  8
0
100
AcDbLine
 62
7
  6
CONTINUOUS
 10
-8.9943693396
 20
23.5857985448
 11
-8.9209083266
 21
22.9471442764
  0
LWPOLYLINE
  5
40B
100
AcDbEntity
  8
0
100
AcDbPolyline
 62
7
  6
CONTINUOUS
 90
10
 70
0
 10
-12.2297543314
 20
22.2644604477
 10
-12.2713346911
 20
22.6384969586
 10
-12.3113903285
 20
23.0124701033
 10
-12.3499212433
 20
23.386379882
 10
-12.3869248131
 20
23.7602373337
 10
-12.4224036605
 20
24.1340314192
 10
-12.4563656532
 20
24.5077290214
 10
-12.488813414
 20
24.8813191012
 10
-12.5197443202
 20
25.2548126976
 10
-12.5491583718
 20
25.6282098107
  0
LWPOLYLINE
  5
40C
100
AcDbEntity
  8
0
100
AcDbPolyline
 62
7
  6
CONTINUOUS
 90
10
 70
0
 10
-5.7065350095
 20
18.5587231272
 10
-5.7445553845
 20
18.9277931135
 10
-5.7811476736
 20
19.2977375871
 10
-5.8163118769
 20
19.668556548
 10
-5.8500511784
 20
20.040259177
 10
-5.882362394
 20
20.4128362932
 10
-5.913235972
 20
20.786260354
 10
-5.9426687283
 20
21.1605221786
 10
-5.9706638468
 20
21.5356309477
 10
-5.9972213277
 20
21.9115866615
  0
LWPOLYLINE
  5
40D
100
AcDbEntity
  8
0
100
AcDbPolyline
 62
7
  6
CONTINUOUS
 90
6
 70
0
 10
-4.4552457473
 20
18.5067420419
 10
-4.4599050063
 20
18.5535208129
 10
-4.4648916525
 20
18.6004245007
 10
-4.4702663964
 20
18.6474963868
 10
-4.4760762718
 20
18.6947118556
 10
-4.4823755763
 20
18.7420803114
  0
LINE
  5
40E
100
AcDbEntity
  8
0
100
AcDbLine
 62
7
  6
CONTINUOUS
 10
-4.385539878
 20
17.7349160207
 11
-4.4181643055
 21
18.08226112
  0
LINE
  5
40F
100
AcDbEntity
  8
0
100
AcDbLine
 62
7
  6
CONTINUOUS
 10
-4.4466423142
 20
18.4132226113
 11
-4.4552457473
 21
18.5067420419
  0
LINE
  5
410
100
AcDbEntity
  8
0
100
AcDbLine
 62
7
  6
CONTINUOUS
 10
-4.4181643055
 20
18.08226112
 11
-4.4266830806
 21
18.1779524921
  0
LWPOLYLINE
  5
411
100
AcDbEntity
  8
0
100
AcDbPolyline
 62
7
  6
CONTINUOUS
 90
24
 70
0
 10
-3.9394886071
 20
18.4895562792
 10
-3.9413787565
 20
18.5120235078
 10
-3.9434516649
 20
18.5346412961
 10
-3.9457007796
 20
18.5574027712
 10
-3.948229476
 20
18.5804528655
 10
-3.9510418811
 20
18.6038179725
 10
-3.9541336782
 20
18.627471797
 10
-3.9575955044
 20
18.6514802761
 10
-3.9614217395
 20
18.6758789856
 10
-3.9656177813
 20
18.7006324649
 10
-3.970290854
 20
18.7257000649
 10
-3.9754330557
 20
18.7511070856
 10
-3.9810522122
 20
18.7768282664
 10
-3.987279347
 20
18.8027470092
 10
-3.9940915468
 20
18.8288558673
 10
-4.0015119325
 20
18.8551621796
 10
-4.0097408596
 20
18.8815713816
 10
-4.0187311382
 20
18.9080820467
 10
-4.0285304345
 20
18.9346953542
 10
-4.039481716
 20
18.9613204786
 10
-4.0516449903
 20
18.9881694963
 10
-4.064960992
 20
19.0150299458
 10
-4.0795944504
 20
19.0411738465
 10
-4.0956010216
 20
19.0663581509
  0
LINE
  5
412
100
AcDbEntity
  8
0
100
AcDbLine
 62
7
  6
CONTINUOUS
 10
-4.4266830806
 20
18.1779524921
 11
-4.4466423142
 21
18.4132226113
  0
LINE
  5
413
100
AcDbEntity
  8
0
100
AcDbLine
 62
7
  6
CONTINUOUS
 10
-3.9254055733
 20
17.5577035916
 11
-3.9179958012
 21
17.4639031836
  0
LINE
  5
414
100
AcDbEntity
  8
0
100
AcDbLine
 62
7
  6
CONTINUOUS
 10
-6.2689327205
 20
18.8267519394
 11
-6.3031748699
 21
19.2624567457
  0
LINE
  5
415
100
AcDbEntity
  8
0
100
AcDbLine
 62
7
  6
CONTINUOUS
 10
-6.3031748699
 20
19.2624567457
 11
-6.319551002
 21
19.481041218
  0
LINE
  5
416
100
AcDbEntity
  8
0
100
AcDbLine
 62
7
  6
CONTINUOUS
 10
-3.9896483777
 20
18.4597000061
 11
-3.9862828753
 21
18.4153110018
  0
LINE
  5
417
100
AcDbEntity
  8
0
100
AcDbLine
 62
7
  6
CONTINUOUS
 10
-3.934465427
 20
18.422464803
 11
-3.9394886071
 21
18.4895562792
  0
LINE
  5
418
100
AcDbEntity
  8
0
100
AcDbLine
 62
7
  6
CONTINUOUS
 10
-3.8679013464
 20
17.4928270939
 11
-3.8893162469
 21
17.778352233
  0
LWPOLYLINE
  5
419
100
AcDbEntity
  8
0
100
AcDbPolyline
 62
7
  6
CONTINUOUS
 90
10
 70
0
 10
-6.0477627821
 20
21.8824046591
 10
-6.0211464116
 20
21.5064348774
 10
-5.9930948479
 20
21.1313227339
 10
-5.9636080911
 20
20.7570682287
 10
-5.9326828945
 20
20.3836623338
 10
-5.9003225047
 20
20.0111140771
 10
-5.8665366617
 20
19.6394505424
 10
-5.8313286121
 20
19.2686807578
 10
-5.7946951093
 20
18.8987956952
 10
-5.7566361533
 20
18.5297953547
  0
LINE
  5
41A
100
AcDbEntity
  8
0
100
AcDbLine
 62
7
  6
CONTINUOUS
 10
-3.9462397483
 20
17.8456147206
 11
-3.9254055733
 21
17.5577035916
  0
LINE
  5
41B
100
AcDbEntity
  8
0
100
AcDbLine
 62
7
  6
CONTINUOUS
 10
-3.9862828753
 20
18.4153110018
 11
-3.9462397483
 21
17.8456147206
  0
LINE
  5
41C
100
AcDbEntity
  8
0
100
AcDbLine
 62
7
  6
CONTINUOUS
 10
-3.8893162469
 20
17.778352233
 11
-3.934465427
 21
18.422464803
  0
LWPOLYLINE
  5
41D
100
AcDbEntity
  8
0
100
AcDbPolyline
 62
7
  6
CONTINUOUS
 90
3
 70
0
 10
-6.3552688683
 20
19.9889808628
 10
-6.3785626851
 20
20.3951873085
 10
-6.3859321258
 20
20.5307638864
  0
LWPOLYLINE
  5
41E
100
AcDbEntity
  8
RACCORDO
100
AcDbPolyline
 62
250
  6
CONTINUOUS
 90
4
 70
0
 10
5.8738130761
 20
29.314037183
 10
5.8700489087
 20
29.2999156403
 10
5.8669567016
 20
29.2836317913
 10
5.8647643358
 20
29.2660707467
  0
LINE
  5
41F
100
AcDbEntity
  8
RACCORDO
100
AcDbLine
 62
250
  6
CONTINUOUS
 10
32.7663530585
 20
-1.0377126698
 11
31.9538539242
 21
-1.0781888867
  0
LINE
  5
420
100
AcDbEntity
  8
RACCORDO
100
AcDbLine
 62
250
  6
CONTINUOUS
 10
32.4275630181
 20
-0.6485272866
 11
31.752147183
 21
-0.6821456487
  0
LWPOLYLINE
  5
421
100
AcDbEntity
  8
RACCORDO
100
AcDbPolyline
 62
250
  6
CONTINUOUS
 90
14
 70
0
 10
41.7886406803
 20
-62.4287263616
 10
41.7713393471
 20
-62.4051904308
 10
41.756037229
 20
-62.3801276662
 10
41.7428819468
 20
-62.3537798483
 10
41.7320004108
 20
-62.326401155
 10
41.7234975965
 20
-62.2982557091
 10
41.7174555321
 20
-62.2696150308
 10
41.7139325066
 20
-62.2407554177
 10
41.7129625077
 20
-62.2119552798
 10
41.714554894
 20
-62.183492454
 10
41.7186943045
 20
-62.1556415226
 10
41.7253408071
 20
-62.1286711653
 10
41.7344302829
 20
-62.1028415677
 10
41.7458750459
 20
-62.0784019095
  0
LWPOLYLINE
  5
422
100
AcDbEntity
  8
RACCORDO
100
AcDbPolyline
 62
250
  6
CONTINUOUS
 90
7
 70
0
 10
19.1528490122
 20
-50.522675954
 10
19.1634529903
 20
-50.5472478296
 10
19.1761724048
 20
-50.569508898
 10
19.1909239394
 20
-50.5893133417
 10
19.2076109668
 20
-50.6065314349
 10
19.2261241814
 20
-50.6210503931
 10
19.2362670231
 20
-50.6274055242
  0
LWPOLYLINE
  5
423
100
AcDbEntity
  8
0
100
AcDbPolyline
 62
7
  6
CONTINUOUS
 90
22
 70
0
 10
-4.4823755507
 20
18.7420803077
 10
-4.4860806833
 20
18.7661300511
 10
-4.4906155334
 20
18.790268429
 10
-4.495945057
 20
18.8143883729
 10
-4.5020094727
 20
18.8383468816
 10
-4.5087982534
 20
18.8620859383
 10
-4.5163643441
 20
18.885631044
 10
-4.5246920625
 20
18.908902794
 10
-4.5337592282
 20
18.9317920798
 10
-4.5436302918
 20
18.954275168
 10
-4.5543059205
 20
18.9762800938
 10
-4.5657642314
 20
18.9976767664
 10
-4.578044606
 20
19.0183462254
 10
-4.5911596824
 20
19.0382006365
 10
-4.6050743722
 20
19.0571118067
 10
-4.6197200061
 20
19.0749342898
 10
-4.6349991155
 20
19.0916091764
 10
-4.6508268531
 20
19.1071294678
 10
-4.6671105949
 20
19.1214701381
 10
-4.6837580429
 20
19.1345994776
 10
-4.700676887
 20
19.1464802702
 10
-4.7177741856
 20
19.1570779602
  0
LWPOLYLINE
  5
424
100
AcDbEntity
  8
RACCORDO
100
AcDbPolyline
 62
250
  6
CONTINUOUS
 90
26
 70
0
 10
32.465472806
 20
-0.5172723655
 10
32.4523483946
 20
-0.5157242136
 10
32.4402985253
 20
-0.5140105088
 10
32.4292505285
 20
-0.5121323455
 10
32.4191672674
 20
-0.5101008428
 10
32.409982339
 20
-0.5079398174
 10
32.4015920518
 20
-0.5056658336
 10
32.3939601861
 20
-0.5032994997
 10
32.3870637903
 20
-0.5008604702
 10
32.3808355851
 20
-0.4983550606
 10
32.3752409979
 20
-0.4957966561
 10
32.3702561966
 20
-0.4932012006
 10
32.365839336
 20
-0.4905743691
 10
32.3619610809
 20
-0.4879271268
 10
32.3585931561
 20
-0.4852723899
 10
32.3557002083
 20
-0.4826161871
 10
32.3532548292
 20
-0.4799693149
 10
32.3512275954
 20
-0.4773403241
 10
32.3495853372
 20
-0.4747297317
 10
32.3483032169
 20
-0.4721469004
 10
32.3473542025
 20
-0.4695975243
 10
32.346709835
 20
-0.4670743914
 10
32.3463496467
 20
-0.4645882454
 10
32.3462510297
 20
-0.4621394111
 10
32.3463964585
 20
-0.4597023811
 10
32.3464917021
 20
-0.4589322395
  0
LWPOLYLINE
  5
425
100
AcDbEntity
  8
RACCORDO
100
AcDbPolyline
 62
7
  6
CONTINUOUS
 90
20
 70
0
 10
41.4100886219
 20
-4.7145437471
 10
41.3685942019
 20
-4.7083188004
 10
41.301989692
 20
-4.6973070373
 10
41.233782759
 20
-4.6850134195
 10
41.1641905764
 20
-4.6714496945
 10
41.0936819307
 20
-4.6566878803
 10
41.0224977015
 20
-4.6407688696
 10
40.9508925897
 20
-4.6237373897
 10
40.8793514604
 20
-4.6057019775
 10
40.8081335706
 20
-4.5867334425
 10
40.7375038294
 20
-4.5669073695
 10
40.6679452024
 20
-4.5463655593
 10
40.5997203744
 20
-4.5252061395
 10
40.5330587345
 20
-4.5035256381
 10
40.4683647406
 20
-4.4814790643
 10
40.4058322471
 20
-4.4591673177
 10
40.3456539167
 20
-4.4367015125
 10
40.2882072323
 20
-4.4142644673
 10
40.2337106027
 20
-4.3919966335
 10
40.2003738875
 20
-4.3778616278
  0
LWPOLYLINE
  5
426
100
AcDbEntity
  8
RACCORDO
100
AcDbPolyline
 62
250
  6
CONTINUOUS
 90
25
 70
0
 10
22.7349739243
 20
-6.5083421909
 10
22.7821883114
 20
-6.5338935135
 10
22.8321660351
 20
-6.5576281657
 10
22.8846978108
 20
-6.5794467572
 10
22.9395636586
 20
-6.5992579215
 10
22.9965338249
 20
-6.6169786983
 10
23.0553697438
 20
-6.6325348808
 10
23.1158250367
 20
-6.6458613265
 10
23.1776465434
 20
-6.6569022303
 10
23.2405753832
 20
-6.6656113578
 10
23.3043480377
 20
-6.671952239
 10
23.3686974556
 20
-6.675898321
 10
23.43335417
 20
-6.6774330795
 10
23.4980474272
 20
-6.6765500876
 10
23.5625063206
 20
-6.6732530428
 10
23.626460925
 20
-6.6675557517
 10
23.6896434269
 20
-6.6594820721
 10
23.7517892459
 20
-6.6490658129
 10
23.812638143
 20
-6.6363505927
 10
23.87193531
 20
-6.6213896574
 10
23.9294324366
 20
-6.6042456566
 10
23.9848887505
 20
-6.5849903818
 10
24.0380720251
 20
-6.5637044656
 10
24.0887595525
 20
-6.5404770439
 10
24.1367390759
 20
-6.5154053829
  0
LINE
  5
427
100
AcDbEntity
  8
RACCORDO
100
AcDbLine
 62
250
  6
CONTINUOUS
 10
22.0863429386
 20
-5.3848803696
 11
-40.846160587
 21
30.9515584366
  0
LWPOLYLINE
  5
428
100
AcDbEntity
  8
RACCORDO
100
AcDbPolyline
 62
250
  6
CONTINUOUS
 90
14
 70
0
 10
-41.4947915726
 20
30.577119419
 10
-41.5390449103
 20
30.6043804144
 10
-41.5801518853
 20
30.6332369256
 10
-41.6179403597
 20
30.6635681145
 10
-41.6522520922
 20
30.6952469675
 10
-41.6829434006
 20
30.7281408275
 10
-41.7098857631
 20
30.7621119497
 10
-41.7329663572
 20
30.7970180781
 10
-41.7520885315
 20
30.8327130413
 10
-41.767172211
 20
30.8690473646
 10
-41.7781542318
 20
30.9058688961
 10
-41.784988606
 20
30.9430234435
 10
-41.7876467145
 20
30.9803554201
 10
-41.7876847914
 20
30.9853940123
  0
LINE
  5
429
100
AcDbEntity
  8
RACCORDO
100
AcDbLine
 62
250
  6
CONTINUOUS
 10
-53.9153277127
 20
50.3693879889
 11
-54.578858578
 21
50.8825983736
  0
LWPOLYLINE
  5
42A
100
AcDbEntity
  8
RACCORDO
100
AcDbPolyline
 62
7
  6
CONTINUOUS
 90
3
 70
0
 10
-54.5237525924
 20
50.7164415819
 10
-53.6874719321
 20
50.0682702012
 10
-52.8247387567
 20
49.4069928266
  0
LWPOLYLINE
  5
42B
100
AcDbEntity
  8
RACCORDO
100
AcDbPolyline
 62
250
  6
CONTINUOUS
 90
10
 70
0
 10
-54.523764011
 20
50.7164504785
 10
-54.5357379496
 20
50.7270213352
 10
-54.5479876096
 20
50.7410851162
 10
-54.5584165805
 20
50.7569993327
 10
-54.5669338377
 20
50.7746250898
 10
-54.5734650418
 20
50.7938085537
 10
-54.5779531869
 20
50.8143822955
 10
-54.5803590991
 20
50.8361667514
 10
-54.5806617775
 20
50.8589717904
 10
-54.578858578
 20
50.8825983736
  0
LWPOLYLINE
  5
42C
100
AcDbEntity
  8
0
100
AcDbPolyline
 62
250
  6
CONTINUOUS
 90
7
 70
0
 10
17.3174207647
 20
-43.5533806626
 10
17.3082220258
 20
-43.5163597207
 10
17.3027107653
 20
-43.4830972759
 10
17.3008833622
 20
-43.4535962761
 10
17.302736412
 20
-43.4278594928
 10
17.308266717
 20
-43.4058895294
 10
17.3174712918
 20
-43.3876888163
  0
LWPOLYLINE
  5
42D
100
AcDbEntity
  8
RACCORDO
100
AcDbPolyline
 62
250
  6
CONTINUOUS
 90
10
 70
0
 10
15.0149550797
 20
-50.3058942273
 10
15.0176066938
 20
-50.3383181174
 10
15.0226915175
 20
-50.3689445457
 10
15.0301740318
 20
-50.3975596349
 10
15.0400019751
 20
-50.423963557
 10
15.0521067038
 20
-50.4479719242
 10
15.0664036717
 20
-50.4694170775
 10
15.0827930298
 20
-50.488149265
 10
15.1011603145
 20
-50.5040376799
 10
15.1181741908
 20
-50.5151903804
  0
LWPOLYLINE
  5
42E
100
AcDbEntity
  8
RACCORDO
100
AcDbPolyline
 62
250
  6
CONTINUOUS
 90
10
 70
0
 10
15.0149621146
 20
-50.3058982924
 10
14.979538932
 20
-49.4558538823
 10
14.9468127662
 20
-48.6040904928
 10
14.9167844008
 20
-47.7506186685
 10
14.8894592113
 20
-46.89544734
 10
14.8648333154
 20
-46.0385887214
 10
14.8428934375
 20
-45.1800583947
 10
14.823635438
 20
-44.319868739
 10
14.807064449
 20
-43.458028847
 10
14.7931809295
 20
-42.5945494801
  0
LINE
  5
42F
100
AcDbEntity
  8
RACCORDO
100
AcDbLine
 62
250
  6
CONTINUOUS
 10
7.2018092531
 20
28.1015420747
 11
7.2018092531
 21
28.5472688341
  0
LINE
  5
430
100
AcDbEntity
  8
RACCORDO
100
AcDbLine
 62
250
  6
CONTINUOUS
 10
7.6223387986
 20
27.8587335856
 11
7.6223387986
 21
28.304460345
  0
LINE
  5
431
100
AcDbEntity
  8
RACCORDO
100
AcDbLine
 62
7
  6
CONTINUOUS
 10
38.2586034534
 20
11.1307952647
 11
33.9891234903
 21
8.3518649793
  0
LINE
  5
432
100
AcDbEntity
  8
RACCORDO
100
AcDbLine
 62
250
  6
CONTINUOUS
 10
38.4853641817
 20
11.2032069147
 11
34.2616122553
 21
8.4540404186
  0
LWPOLYLINE
  5
433
100
AcDbEntity
  8
RACCORDO
100
AcDbPolyline
 62
7
  6
CONTINUOUS
 90
3
 70
0
 10
33.9891235047
 20
8.3518649887
 10
34.0065803636
 20
8.362777043
 10
34.0255170209
 20
8.3736726968
  0
LWPOLYLINE
  5
434
100
AcDbEntity
  8
RACCORDO
100
AcDbPolyline
 62
7
  6
CONTINUOUS
 90
19
 70
0
 10
33.6712027211
 20
8.7524009359
 10
33.6459841002
 20
8.7368428496
 10
33.6210929008
 20
8.7195108718
 10
33.5965291229
 20
8.7004050026
 10
33.5721297535
 20
8.6793692735
 10
33.5480578056
 20
8.656559653
 10
33.5248023176
 20
8.6324440462
 10
33.5024519139
 20
8.6070763906
 10
33.4809179702
 20
8.5804027487
 10
33.4604236519
 20
8.552729213
 10
33.4409632025
 20
8.5240414042
 10
33.4225423786
 20
8.4943537015
 10
33.405401615
 20
8.4640153351
 10
33.3895222389
 20
8.4329238323
 10
33.3749229231
 20
8.4011816658
 10
33.3619001215
 20
8.3694454839
 10
33.350552652
 20
8.3379341692
 10
33.3407816967
 20
8.306428839
 10
33.3325872556
 20
8.2749294934
  0
LINE
  5
435
100
AcDbEntity
  8
RACCORDO
100
AcDbLine
 62
7
  6
CONTINUOUS
 10
33.6712027211
 20
8.7524009359
 11
37.008406732
 21
10.6792543177
  0
LINE
  5
436
100
AcDbEntity
  8
RACCORDO
100
AcDbLine
 62
250
  6
CONTINUOUS
 10
33.0937470454
 20
7.2368074548
 11
33.8294028482
 21
7.6469919129
  0
LINE
  5
437
100
AcDbEntity
  8
RACCORDO
100
AcDbLine
 62
250
  6
CONTINUOUS
 10
33.7434366142
 20
7.261764114
 11
33.042242073
 21
6.8707944488
  0
LINE
  5
438
100
AcDbEntity
  8
RACCORDO
100
AcDbLine
 62
250
  6
CONTINUOUS
 10
33.7227239401
 20
7.1658914519
 11
33.0295981572
 21
6.7794207376
  0
LWPOLYLINE
  5
439
100
AcDbEntity
  8
RACCORDO
100
AcDbPolyline
 62
7
  6
CONTINUOUS
 90
11
 70
0
 10
34.0255170209
 20
8.3736726968
 10
34.0453231918
 20
8.384133082
 10
34.0659499728
 20
8.3941185061
 10
34.087400135
 20
8.4036140966
 10
34.1097355528
 20
8.4126126104
 10
34.1329324407
 20
8.4210785221
 10
34.1569596456
 20
8.4289750823
 10
34.1818724658
 20
8.4362642275
 10
34.2076645078
 20
8.4428967166
 10
34.2342617728
 20
8.4488332542
 10
34.2616122553
 20
8.4540404186
  0
LWPOLYLINE
  5
43A
100
AcDbEntity
  8
RACCORDO
100
AcDbPolyline
 62
7
  6
CONTINUOUS
 90
10
 70
0
 10
38.4853641817
 20
11.2032069147
 10
38.4559586614
 20
11.2000580921
 10
38.4275011133
 20
11.1954455118
 10
38.4000757669
 20
11.1895149868
 10
38.373762358
 20
11.1824700124
 10
38.3486128605
 20
11.1743954477
 10
38.3246629263
 20
11.1652284975
 10
38.3019101609
 20
11.1550359996
 10
38.2804586341
 20
11.1439598582
 10
38.2586059422
 20
11.1307900719
  0
LWPOLYLINE
  5
43B
100
AcDbEntity
  8
RACCORDO
100
AcDbPolyline
 62
250
  6
CONTINUOUS
 90
16
 70
0
 10
40.273149261
 20
-4.4275641049
 10
40.3472329611
 20
-4.4555803353
 10
40.4232273427
 20
-4.4829006362
 10
40.5010355071
 20
-4.509491061
 10
40.5803668554
 20
-4.5352482393
 10
40.6613766326
 20
-4.5602254266
 10
40.7439094904
 20
-4.5843711439
 10
40.8272089209
 20
-4.6074253206
 10
40.9113070223
 20
-4.6293853252
 10
40.9961715795
 20
-4.6502559851
 10
41.0809495933
 20
-4.6697889161
 10
41.165546298
 20
-4.6879611384
 10
41.2500563428
 20
-4.7047979801
 10
41.3339108372
 20
-4.7201238209
 10
41.4171727581
 20
-4.7339561614
 10
41.4752689491
 20
-4.7426231237
  0
LWPOLYLINE
  5
43C
100
AcDbEntity
  8
RACCORDO
100
AcDbPolyline
 62
250
  6
CONTINUOUS
 90
5
 70
0
 10
40.2003601846
 20
-4.3778583845
 10
40.1933077533
 20
-4.3750871368
 10
40.1734937764
 20
-4.369890765
 10
40.1524834139
 20
-4.3679688676
 10
40.130423892
 20
-4.3693349359
  0
LINE
  5
43D
100
AcDbEntity
  8
RACCORDO
100
AcDbLine
 62
250
  6
CONTINUOUS
 10
40.2008794487
 20
-4.3988163163
 11
40.273149261
 21
-4.4275641049
  0
LWPOLYLINE
  5
43E
100
AcDbEntity
  8
RACCORDO
100
AcDbPolyline
 62
7
  6
CONTINUOUS
 90
22
 70
0
 10
40.8691314712
 20
-5.0829473624
 10
40.8961569212
 20
-5.094080013
 10
40.9240325278
 20
-5.1049136534
 10
40.9527582864
 20
-5.1154484012
 10
40.9824222785
 20
-5.1257176193
 10
41.0129364139
 20
-5.1356881613
 10
41.0440364288
 20
-5.1452604204
 10
41.0757635336
 20
-5.1544445543
 10
41.1080765072
 20
-5.1632306921
 10
41.1405874362
 20
-5.1714892716
 10
41.1733582347
 20
-5.1792243864
 10
41.2063269764
 20
-5.1864322882
 10
41.2389199842
 20
-5.1929717386
 10
41.27108468
 20
-5.1988210492
 10
41.3028736295
 20
-5.2040022757
 10
41.3338708698
 20
-5.2084398401
 10
41.3640642953
 20
-5.2121266513
 10
41.3934660022
 20
-5.21507009
 10
41.4216963296
 20
-5.2172162837
 10
41.4486287221
 20
-5.2185473352
 10
41.4743897297
 20
-5.2190813109
 10
41.4989793511
 20
-5.2188182566
  0
LINE
  5
43F
100
AcDbEntity
  8
RACCORDO
100
AcDbLine
 62
250
  6
CONTINUOUS
 10
40.1304235811
 20
-4.3693360757
 11
40.2008794487
 21
-4.3988163163
  0
LWPOLYLINE
  5
440
100
AcDbEntity
  8
RACCORDO
100
AcDbPolyline
 62
250
  6
CONTINUOUS
 90
6
 70
0
 10
32.8582079917
 20
-1.0560929384
 10
32.8438170629
 20
-1.0499944196
 10
32.8259110169
 20
-1.0443235042
 10
32.8070007966
 20
-1.0403478589
 10
32.7871308968
 20
-1.0381264271
 10
32.76635307
 20
-1.0377126944
  0
LWPOLYLINE
  5
441
100
AcDbEntity
  8
RACCORDO
100
AcDbPolyline
 62
7
  6
CONTINUOUS
 90
10
 70
0
 10
40.8691303061
 20
-5.0829469846
 10
39.7768739706
 20
-4.6164661097
 10
38.710529356
 20
-4.1556601073
 10
37.6702086718
 20
-3.700470744
 10
36.656755279
 20
-3.2511993984
 10
35.6693956195
 20
-2.8075084659
 10
34.7057476291
 20
-2.3684169936
 10
33.7649656034
 20
-1.933624819
 10
32.8477105807
 20
-1.5035279409
 10
31.9538581806
 20
-1.0781909092
  0
LWPOLYLINE
  5
442
100
AcDbEntity
  8
RACCORDO
100
AcDbPolyline
 62
7
  6
CONTINUOUS
 90
10
 70
0
 10
40.2003601846
 20
-4.3778583845
 10
39.343959432
 20
-4.0075773432
 10
38.4494964639
 20
-3.6166381698
 10
37.576425706
 20
-3.2306018551
 10
36.7247474132
 20
-2.8495097122
 10
35.894410803
 20
-2.4734201788
 10
35.0853355173
 20
-2.1024081224
 10
34.2974272555
 20
-1.736573747
 10
33.5305846913
 20
-1.3760284008
 10
32.8584971197
 20
-1.056230974
  0
LWPOLYLINE
  5
443
100
AcDbEntity
  8
RACCORDO
100
AcDbPolyline
 62
7
  6
CONTINUOUS
 90
26
 70
0
 10
41.6769484615
 20
-4.8295057373
 10
41.6797690985
 20
-4.8307446928
 10
41.6899082264
 20
-4.8356818894
 10
41.7007523894
 20
-4.8417682668
 10
41.7121785377
 20
-4.8490584374
 10
41.7240001419
 20
-4.8575453912
 10
41.7360592363
 20
-4.8672158924
 10
41.7481991482
 20
-4.8780347925
 10
41.7602499821
 20
-4.8899261595
 10
41.7720681931
 20
-4.9028132179
 10
41.783514027
 20
-4.9166000097
 10
41.7944467545
 20
-4.9311539308
 10
41.8047501691
 20
-4.9463387734
 10
41.8143298322
 20
-4.9620274307
 10
41.8231051757
 20
-4.9780825179
 10
41.8310034659
 20
-4.9943410187
 10
41.8379741946
 20
-5.0106559449
 10
41.8439891719
 20
-5.0268993568
 10
41.8490261776
 20
-5.0429131011
 10
41.8530755269
 20
-5.0585235823
 10
41.8561468551
 20
-5.0735643569
 10
41.8582770922
 20
-5.0879063636
 10
41.8595132992
 20
-5.1013534162
 10
41.859930569
 20
-5.1136450623
 10
41.8596479437
 20
-5.124663935
 10
41.8591321374
 20
-5.1313230109
  0
LWPOLYLINE
  5
444
100
AcDbEntity
  8
RACCORDO
100
AcDbPolyline
 62
250
  6
CONTINUOUS
 90
25
 70
0
 10
-40.846160587
 20
30.9515584366
 10
-40.8886907032
 20
30.974492329
 10
-40.9307428724
 20
30.9940052047
 10
-40.9723170945
 20
31.0100970639
 10
-41.0136099871
 20
31.0228190849
 10
-41.0544249325
 20
31.0321200893
 10
-41.0941720779
 20
31.0378465417
 10
-41.1328118246
 20
31.0399404893
 10
-41.1703837712
 20
31.038459885
 10
-41.2064168603
 20
31.0334250522
 10
-41.2408951798
 20
31.0247909459
 10
-41.2738346417
 20
31.0126026112
 10
-41.3048119251
 20
30.9970155069
 10
-41.3338014448
 20
30.9779851175
 10
-41.360828786
 20
30.9555559584
 10
-41.3855473834
 20
30.9300170342
 10
-41.4079260399
 20
30.901332242
 10
-41.4279959526
 20
30.8695376846
 10
-41.4455041483
 20
30.8350306753
 10
-41.4604203673
 20
30.7977474418
 10
-41.4727748692
 20
30.7577517564
 10
-41.4824054602
 20
30.7156322485
 10
-41.4892580754
 20
30.6715851278
 10
-41.4933867795
 20
30.6254141847
 10
-41.4947915726
 20
30.577119419
  0
LWPOLYLINE
  5
445
100
AcDbEntity
  8
RACCORDO
100
AcDbPolyline
 62
250
  6
CONTINUOUS
 90
15
 70
0
 10
-40.1513945207
 20
32.1690535802
 10
-40.2302173881
 20
32.211916683
 10
-40.3087735466
 20
32.2493382861
 10
-40.386797187
 20
32.2811917659
 10
-40.464024302
 20
32.3073693399
 10
-40.5401935794
 20
32.3277824308
 10
-40.6150472863
 20
32.3423619667
 10
-40.688332143
 20
32.3510586145
 10
-40.7598001749
 20
32.3538429466
 10
-40.8292095517
 20
32.3507055415
 10
-40.8963254113
 20
32.3416570163
 10
-40.9609206582
 20
32.326727989
 10
-41.0227767267
 20
32.3059689739
 10
-41.0816843174
 20
32.2794502114
 10
-41.1217732036
 20
32.2570744277
  0
LINE
  5
446
100
AcDbEntity
  8
RACCORDO
100
AcDbLine
 62
250
  6
CONTINUOUS
 10
21.4458604103
 20
-3.149467655
 11
22.7267592674
 21
-3.8697430064
  0
LINE
  5
447
100
AcDbEntity
  8
RACCORDO
100
AcDbLine
 62
250
  6
CONTINUOUS
 10
17.8538021974
 20
-1.1187295597
 11
21.4458604103
 21
-3.149467655
  0
LINE
  5
448
100
AcDbEntity
  8
RACCORDO
100
AcDbLine
 62
250
  6
CONTINUOUS
 10
13.0604131699
 20
1.5982954246
 11
17.8538021974
 21
-1.1187295597
  0
LWPOLYLINE
  5
449
100
AcDbEntity
  8
RACCORDO
100
AcDbPolyline
 62
7
  6
CONTINUOUS
 90
34
 70
0
 10
19.7203350833
 20
-2.2494234068
 10
22.7870955529
 20
-3.978155569
 10
22.8620635528
 20
-4.0234553222
 10
22.9372816768
 20
-4.0732965305
 10
23.0125129269
 20
-4.1275971231
 10
23.0874867653
 20
-4.1862382449
 10
23.1619268167
 20
-4.2490547169
 10
23.2356209988
 20
-4.3159137187
 10
23.3083461687
 20
-4.3866644883
 10
23.3798300606
 20
-4.4610774927
 10
23.4498559881
 20
-4.5389530452
 10
23.518220791
 20
-4.6200985119
 10
23.5846926934
 20
-4.7042619645
 10
23.6490784186
 20
-4.791206031
 10
23.7111997725
 20
-4.8807046438
 10
23.7708696827
 20
-4.9725021585
 10
23.8279245209
 20
-5.0663434128
 10
23.882206504
 20
-5.1619704199
 10
23.9335568752
 20
-5.2591089906
 10
23.9818405714
 20
-5.3574892993
 10
24.026929878
 20
-5.4568359877
 10
24.0686964141
 20
-5.5568570453
 10
24.1070392027
 20
-5.6572817165
 10
24.1418616524
 20
-5.7578197624
 10
24.1730633457
 20
-5.8581434986
 10
24.2005823942
 20
-5.957982508
 10
24.2243638957
 20
-6.0570470374
 10
24.2443484729
 20
-6.1549786932
 10
24.2605177879
 20
-6.2515048851
 10
24.2728683713
 20
-6.3463828767
 10
24.2813993977
 20
-6.4393019714
 10
24.2861441702
 20
-6.5299685717
 10
24.287151623
 20
-6.6181276813
 10
24.2867074828
 20
-6.645154308
  0
LINE
  5
44A
100
AcDbEntity
  8
RACCORDO
100
AcDbLine
 62
250
  6
CONTINUOUS
 10
9.5880555929
 20
3.5717255767
 11
13.0604131699
 21
1.5982954246
  0
LINE
  5
44B
100
AcDbEntity
  8
RACCORDO
100
AcDbLine
 62
250
  6
CONTINUOUS
 10
6.5857854064
 20
5.2821280848
 11
9.5880555929
 21
3.5717255767
  0
LINE
  5
44C
100
AcDbEntity
  8
RACCORDO
100
AcDbLine
 62
250
  6
CONTINUOUS
 10
4.4076573629
 20
6.5255941704
 11
6.5857854064
 21
5.2821280848
  0
LINE
  5
44D
100
AcDbEntity
  8
RACCORDO
100
AcDbLine
 62
250
  6
CONTINUOUS
 10
2.0861091544
 20
7.8534780213
 11
4.4076573629
 21
6.5255941704
  0
LINE
  5
44E
100
AcDbEntity
  8
RACCORDO
100
AcDbLine
 62
250
  6
CONTINUOUS
 10
-0.3857228166
 20
9.270282618
 11
2.0861091544
 21
7.8534780213
  0
LINE
  5
44F
100
AcDbEntity
  8
RACCORDO
100
AcDbLine
 62
250
  6
CONTINUOUS
 10
-3.0296033191
 20
10.7890963286
 11
-0.3857228166
 21
9.270282618
  0
LINE
  5
450
100
AcDbEntity
  8
RACCORDO
100
AcDbLine
 62
250
  6
CONTINUOUS
 10
-5.852157855
 20
12.4142672567
 11
-3.0296033191
 21
10.7890963286
  0
LWPOLYLINE
  5
451
100
AcDbEntity
  8
RACCORDO
100
AcDbPolyline
 62
7
  6
CONTINUOUS
 90
9
 70
0
 10
-8.8148113316
 20
14.046609151
 10
-4.9336227741
 20
11.8081011171
 10
-1.098704662
 20
9.6028873044
 10
2.6330618896
 20
7.4639577573
 10
6.2612035879
 20
5.3910407697
 10
9.7849126438
 20
3.3837114465
 10
13.2032931204
 20
1.4415346398
 10
16.5154693126
 20
-0.4359523786
 10
19.7203350833
 20
-2.2494234068
  0
LINE
  5
452
100
AcDbEntity
  8
RACCORDO
100
AcDbLine
 62
250
  6
CONTINUOUS
 10
22.7811090049
 20
-4.167385226
 11
2.9452844107
 21
7.2855712934
  0
LINE
  5
453
100
AcDbEntity
  8
RACCORDO
100
AcDbLine
 62
250
  6
CONTINUOUS
 10
-20.5242546658
 20
20.8365890138
 11
-40.1513945207
 21
32.1690535802
  0
LINE
  5
454
100
AcDbEntity
  8
RACCORDO
100
AcDbLine
 62
250
  6
CONTINUOUS
 10
-10.3996230825
 20
15.0389331878
 11
-5.852157855
 21
12.4142672567
  0
LINE
  5
455
100
AcDbEntity
  8
RACCORDO
100
AcDbLine
 62
250
  6
CONTINUOUS
 10
-13.34401695
 20
16.7419072108
 11
-10.3996230825
 21
15.0389331878
  0
LINE
  5
456
100
AcDbEntity
  8
RACCORDO
100
AcDbLine
 62
250
  6
CONTINUOUS
 10
-16.0934743718
 20
18.335761883
 11
-13.34401695
 21
16.7419072108
  0
LINE
  5
457
100
AcDbEntity
  8
RACCORDO
100
AcDbLine
 62
250
  6
CONTINUOUS
 10
-18.6734326795
 20
19.8348060886
 11
-16.0934743718
 21
18.335761883
  0
LINE
  5
458
100
AcDbEntity
  8
RACCORDO
100
AcDbLine
 62
250
  6
CONTINUOUS
 10
-21.0971059265
 20
21.2461753072
 11
-18.6734326795
 21
19.8348060886
  0
LINE
  5
459
100
AcDbEntity
  8
RACCORDO
100
AcDbLine
 62
250
  6
CONTINUOUS
 10
-23.3845412234
 20
22.5809459182
 11
-21.0971059265
 21
21.2461753072
  0
LINE
  5
45A
100
AcDbEntity
  8
RACCORDO
100
AcDbLine
 62
250
  6
CONTINUOUS
 10
-26.5745973732
 20
24.4466373972
 11
-23.3845412234
 21
22.5809459182
  0
LINE
  5
45B
100
AcDbEntity
  8
RACCORDO
100
AcDbLine
 62
250
  6
CONTINUOUS
 10
-29.5102733124
 20
26.1676391306
 11
-26.5745973732
 21
24.4466373972
  0
LINE
  5
45C
100
AcDbEntity
  8
RACCORDO
100
AcDbLine
 62
250
  6
CONTINUOUS
 10
-33.9190883213
 20
28.7589026794
 11
-29.5102733124
 21
26.1676391306
  0
LINE
  5
45D
100
AcDbEntity
  8
RACCORDO
100
AcDbLine
 62
250
  6
CONTINUOUS
 10
-37.7852607464
 20
31.0364275581
 11
-33.9190883213
 21
28.7589026794
  0
LWPOLYLINE
  5
45E
100
AcDbEntity
  8
RACCORDO
100
AcDbPolyline
 62
7
  6
CONTINUOUS
 90
10
 70
0
 10
-40.0091585885
 20
32.2794340595
 10
-37.0392494937
 20
30.5229430999
 10
-33.8992935015
 20
28.6729298503
 10
-30.6483431532
 20
26.7609651391
 10
-27.2852958526
 20
24.7876288434
 10
-23.8093209424
 20
22.753416543
 10
-20.2196341446
 20
20.6588437411
 10
-16.5154903078
 20
18.5043615899
 10
-12.6964010058
 20
16.2902387806
 10
-8.8148027668
 20
14.0466042045
  0
LINE
  5
45F
100
AcDbEntity
  8
RACCORDO
100
AcDbLine
 62
250
  6
CONTINUOUS
 10
22.7267592674
 20
-3.8697430064
 11
22.8177048129
 21
-3.9236639489
  0
LWPOLYLINE
  5
460
100
AcDbEntity
  8
RACCORDO
100
AcDbPolyline
 62
250
  6
CONTINUOUS
 90
3
 70
0
 10
-40.0503475121
 20
32.3769716662
 10
-39.2947900103
 20
31.9285941058
 10
-37.7852607464
 20
31.0364275581
  0
LWPOLYLINE
  5
461
100
AcDbEntity
  8
RACCORDO
100
AcDbPolyline
 62
250
  6
CONTINUOUS
 90
9
 70
0
 10
24.3480461822
 20
-6.7285848325
 10
24.334023943
 20
-6.7199686697
 10
24.3216044064
 20
-6.7106159753
 10
24.3109179858
 20
-6.7006249587
 10
24.3020768958
 20
-6.6901005321
 10
24.2951739738
 20
-6.6791532086
 10
24.2902817048
 20
-6.6678979416
 10
24.2874514615
 20
-6.6564529186
 10
24.2867068923
 20
-6.6451794718
  0
LWPOLYLINE
  5
462
100
AcDbEntity
  8
RACCORDO
100
AcDbPolyline
 62
250
  6
CONTINUOUS
 90
30
 70
0
 10
22.8177048129
 20
-3.9236639489
 10
22.9076992497
 20
-3.9827338564
 10
22.9967428713
 20
-4.0469525765
 10
23.0850808418
 20
-4.1165269425
 10
23.1724701866
 20
-4.1912489849
 10
23.2581789876
 20
-4.2704963492
 10
23.3421918437
 20
-4.3542926205
 10
23.4245274134
 20
-4.4426125231
 10
23.5045039971
 20
-4.5347608643
 10
23.5821953331
 20
-4.6309173651
 10
23.6575317475
 20
-4.730900195
 10
23.7296148428
 20
-4.833472653
 10
23.7984072831
 20
-4.9387771239
 10
23.8639494575
 20
-5.0466696382
 10
23.9254568464
 20
-5.1554853695
 10
23.9828101243
 20
-5.2652892618
 10
24.0361292385
 20
-5.3760160485
 10
24.0849851148
 20
-5.4858073846
 10
24.1291856243
 20
-5.5945041188
 10
24.1689204075
 20
-5.7022666939
 10
24.204329843
 20
-5.8077178176
 10
24.2351659956
 20
-5.9095641803
 10
24.2616718494
 20
-6.0091016611
 10
24.2847248206
 20
-6.108836409
 10
24.3047761221
 20
-6.2091516403
 10
24.3213745687
 20
-6.3096641244
 10
24.3340470224
 20
-6.4117287611
 10
24.3426368856
 20
-6.5157966049
 10
24.347302607
 20
-6.6214156406
 10
24.3480461822
 20
-6.7285848325
  0
LWPOLYLINE
  5
463
100
AcDbEntity
  8
RACCORDO
100
AcDbPolyline
 62
7
  6
CONTINUOUS
 90
13
 70
0
 10
-47.349543253
 20
45.4136559005
 10
-47.3410657097
 20
45.4079602173
 10
-47.3203167441
 20
45.3956093009
 10
-47.2992823364
 20
45.3852376365
 10
-47.2777539222
 20
45.3767023631
 10
-47.2559384301
 20
45.3700782708
 10
-47.2340072736
 20
45.3653852906
 10
-47.2116806494
 20
45.3625782301
 10
-47.1891797068
 20
45.3617405642
 10
-47.1667237721
 20
45.3629122407
 10
-47.1440861654
 20
45.3661818526
 10
-47.1214100899
 20
45.3716692582
 10
-47.1013746013
 20
45.378495558
  0
LWPOLYLINE
  5
464
100
AcDbEntity
  8
RACCORDO
100
AcDbPolyline
 62
250
  6
CONTINUOUS
 90
8
 70
0
 10
-47.4569614832
 20
45.6287649297
 10
-47.9715954902
 20
45.9878890796
 10
-48.5017284943
 20
46.361390617
 10
-49.0471239417
 20
46.7493576175
 10
-49.6077292668
 20
47.151983463
 10
-50.183140549
 20
47.5692447341
 10
-50.7726147226
 20
48.0008966647
 10
-51.3764246376
 20
48.4473683853
  0
LWPOLYLINE
  5
465
100
AcDbEntity
  8
RACCORDO
100
AcDbPolyline
 62
7
  6
CONTINUOUS
 90
10
 70
0
 10
-47.2207221391
 20
44.6362194769
 10
-47.9573357948
 20
45.1522931193
 10
-48.7022495083
 20
45.681911647
 10
-49.4553196938
 20
46.2251285209
 10
-50.2158238143
 20
46.781540919
 10
-50.9842712267
 20
47.3516310363
 10
-51.7623689916
 20
47.9367788149
 10
-52.550709753
 20
48.5374354396
 10
-53.3487814486
 20
49.1531197227
 10
-54.1567136132
 20
49.7837834349
  0
LINE
  5
466
100
AcDbEntity
  8
RACCORDO
100
AcDbLine
 62
250
  6
CONTINUOUS
 10
-47.3933984409
 20
45.3743576002
 11
-46.9460438308
 21
45.0576719836
  0
LINE
  5
467
100
AcDbEntity
  8
RACCORDO
100
AcDbLine
 62
7
  6
CONTINUOUS
 10
-46.9398321404
 20
45.1024443462
 11
-47.4391357705
 21
45.4566368255
  0
LWPOLYLINE
  5
468
100
AcDbEntity
  8
RACCORDO
100
AcDbPolyline
 62
250
  6
CONTINUOUS
 90
22
 70
0
 10
-54.578858578
 20
50.8825983736
 10
-54.6016412386
 20
50.8988730898
 10
-54.6242402257
 20
50.9125053134
 10
-54.6466543858
 20
50.9234954738
 10
-54.668976298
 20
50.9318588668
 10
-54.6911107242
 20
50.9375811865
 10
-54.7127749529
 20
50.9406183978
 10
-54.7339946646
 20
50.940942496
 10
-54.7547417094
 20
50.9385824052
 10
-54.7746533813
 20
50.9335792028
 10
-54.7936898559
 20
50.9259128085
 10
-54.8118893892
 20
50.9156038867
 10
-54.8290073336
 20
50.9027542826
 10
-54.8450481659
 20
50.8873490352
 10
-54.8600066253
 20
50.8694033974
 10
-54.8736244037
 20
50.8490641829
 10
-54.8859157793
 20
50.8261815422
 10
-54.8968666229
 20
50.8009052694
 10
-54.9061774489
 20
50.7738311095
 10
-54.9137494978
 20
50.7451572462
 10
-54.9196837075
 20
50.7146846848
 10
-54.9239810099
 20
50.6824130782
  0
LWPOLYLINE
  5
469
100
AcDbEntity
  8
RACCORDO
100
AcDbPolyline
 62
7
  6
CONTINUOUS
 90
3
 70
0
 10
-47.4391357705
 20
45.4566368255
 10
-48.0693621818
 20
45.9093688596
 10
-48.4937055421
 20
46.2180439563
  0
LINE
  5
46A
100
AcDbEntity
  8
RACCORDO
100
AcDbLine
 62
250
  6
CONTINUOUS
 10
-51.3764246376
 20
48.4473683853
 11
-51.993948374
 21
48.9083607339
  0
LWPOLYLINE
  5
46B
100
AcDbEntity
  8
RACCORDO
100
AcDbPolyline
 62
7
  6
CONTINUOUS
 90
7
 70
0
 10
-51.9794200775
 20
48.7668688765
 10
-51.1515971832
 20
48.1479103373
 10
-50.3414501992
 20
47.5500912225
 10
-49.5492344022
 20
46.9733460237
 10
-48.7753348076
 20
46.4175581623
 10
-48.0201838919
 20
45.8825877107
 10
-47.3494902982
 20
45.4136194781
  0
LWPOLYLINE
  5
46C
100
AcDbEntity
  8
RACCORDO
100
AcDbPolyline
 62
250
  6
CONTINUOUS
 90
4
 70
0
 10
-51.993948374
 20
48.9083607339
 10
-52.6231783222
 20
49.3825076092
 10
-53.2634343581
 20
49.8693577103
 10
-53.9153277127
 20
50.3693879889
  0
LINE
  5
46D
100
AcDbEntity
  8
RACCORDO
100
AcDbLine
 62
7
  6
CONTINUOUS
 10
-52.8247387567
 20
49.4069928266
 11
-51.9794200775
 21
48.7668688765
  0
LWPOLYLINE
  5
46E
100
AcDbEntity
  8
RACCORDO
100
AcDbPolyline
 62
250
  6
CONTINUOUS
 90
11
 70
0
 10
-51.1448082664
 20
48.1429006979
 10
-50.7887656454
 20
47.8716056053
 10
-50.3651564322
 20
47.5513130817
 10
-49.9531266378
 20
47.2421683279
 10
-49.5536284833
 20
46.9445579975
 10
-49.1681400872
 20
46.6594809051
 10
-48.7952732487
 20
46.3858163682
 10
-48.4316730657
 20
46.1207849534
 10
-48.0785460114
 20
45.8651411026
 10
-47.734755839
 20
45.6180395769
 10
-47.3933984409
 20
45.3743576002
  0
LWPOLYLINE
  5
46F
100
AcDbEntity
  8
RACCORDO
100
AcDbPolyline
 62
250
  6
CONTINUOUS
 90
3
 70
0
 10
-38.5147459567
 20
54.9500164898
 10
-38.5011280799
 20
54.9369190948
 10
-38.4885247591
 20
54.9282950644
  0
LWPOLYLINE
  5
470
100
AcDbEntity
  8
0
100
AcDbPolyline
 62
7
  6
CONTINUOUS
 90
25
 70
0
 10
-3.9524150042
 20
20.6526426584
 10
-3.9973544612
 20
20.7005697277
 10
-4.0432712505
 20
20.7463839819
 10
-4.0901670095
 20
20.7900845713
 10
-4.1382434958
 20
20.8315292264
 10
-4.1873016246
 20
20.8708588296
 10
-4.2367411685
 20
20.908497571
 10
-4.2864366331
 20
20.9444720342
 10
-4.3365145389
 20
20.9787551032
 10
-4.3867521594
 20
21.0116906902
 10
-4.4371297306
 20
21.0433447997
 10
-4.4876673692
 20
21.073651244
 10
-4.5382019789
 20
21.102755747
 10
-4.5886766639
 20
21.1306284216
 10
-4.6391483306
 20
21.1572991493
 10
-4.6896245235
 20
21.1830033383
 10
-4.7400929883
 20
21.2077433506
 10
-4.7905658035
 20
21.2315169155
 10
-4.8410870196
 20
21.2545524882
 10
-4.8916441831
 20
21.2768514606
 10
-4.9422494986
 20
21.29841257
 10
-4.9929840549
 20
21.3194602625
 10
-5.0438748193
 20
21.3400693858
 10
-5.094894589
 20
21.3601652144
 10
-5.146043226
 20
21.3797478199
  0
LWPOLYLINE
  5
471
100
AcDbEntity
  8
0
100
AcDbPolyline
 62
7
  6
CONTINUOUS
 90
48
 70
0
 10
-4.0029439755
 20
20.6234689074
 10
-3.9808124443
 20
20.5971056937
 10
-3.958746417
 20
20.5679651162
 10
-3.9368255951
 20
20.5361304427
 10
-3.9151831389
 20
20.5018291866
 10
-3.8938535967
 20
20.4651541516
 10
-3.8728277124
 20
20.425875047
 10
-3.8522210575
 20
20.3838588715
 10
-3.832308421
 20
20.3391868548
 10
-3.8133777425
 20
20.2918868
 10
-3.7956034227
 20
20.241706107
 10
-3.7793233154
 20
20.189039681
 10
-3.7650039391
 20
20.1349595342
 10
-3.7528074042
 20
20.0794042068
 10
-3.7429815753
 20
20.0228877944
 10
-3.7358034844
 20
19.9673745284
 10
-3.7311726906
 20
19.9131992215
 10
-3.7289303143
 20
19.860306316
 10
-3.7288218992
 20
19.8099275554
 10
-3.7305083419
 20
19.7624691945
 10
-3.7337143579
 20
19.7174879369
 10
-3.7381592346
 20
19.6748514772
 10
-3.743665127
 20
19.6346423957
 10
-3.7501241886
 20
19.5967792535
 10
-3.7574667344
 20
19.5609162611
 10
-3.7656153812
 20
19.526970032
 10
-3.774467739
 20
19.4950019113
 10
-3.783957103
 20
19.4648830981
 10
-3.7939960367
 20
19.436568212
 10
-3.8045016115
 20
19.4100079231
 10
-3.815431008
 20
19.3850673502
 10
-3.8266997638
 20
19.3617186524
 10
-3.8382313925
 20
19.3399015831
 10
-3.8500138791
 20
19.3194547884
 10
-3.8619806889
 20
19.3003461446
 10
-3.8740558202
 20
19.2825601551
 10
-3.8862407453
 20
19.2659754779
 10
-3.8984807616
 20
19.2505650896
 10
-3.9107245319
 20
19.2362988269
 10
-3.922998984
 20
19.2230656194
 10
-3.9352789357
 20
19.2108244749
 10
-3.9475127704
 20
19.1995625863
 10
-3.9597002603
 20
19.1892215833
 10
-3.9718116408
 20
19.1797651099
 10
-3.9838095258
 20
19.1711288021
 10
-3.9956871003
 20
19.1632151446
 10
-4.007413093
 20
19.1559503275
 10
-4.0135584993
 20
19.1523387811
  0
LINE
  5
472
100
AcDbEntity
  8
0
100
AcDbLine
 62
7
  6
CONTINUOUS
 10
-4.1818592677
 20
19.0855390536
 11
-4.1634011038
 21
19.0624563779
  0
LINE
  5
473
100
AcDbEntity
  8
0
100
AcDbLine
 62
7
  6
CONTINUOUS
 10
-4.1129267294
 20
19.0908250347
 11
-4.1225965029
 21
19.1031415814
  0
LINE
  5
474
100
AcDbEntity
  8
0
100
AcDbLine
 62
7
  6
CONTINUOUS
 10
-4.0956010216
 20
19.0663581509
 11
-4.1129267294
 21
19.0908250347
  0
LWPOLYLINE
  5
475
100
AcDbEntity
  8
0
100
AcDbPolyline
 62
7
  6
CONTINUOUS
 90
25
 70
0
 10
-4.1634011038
 20
19.0624563779
 10
-4.1462695797
 20
19.0382464987
 10
-4.130413546
 20
19.0130529464
 10
-4.1157516693
 20
18.9868852165
 10
-4.102274703
 20
18.9599917132
 10
-4.0900130299
 20
18.9328956143
 10
-4.0789548677
 20
18.9058979573
 10
-4.0689655949
 20
18.8789709096
 10
-4.0598757053
 20
18.8521494008
 10
-4.0516376961
 20
18.8255776191
 10
-4.0441946192
 20
18.7992936178
 10
-4.037388752
 20
18.7731452507
 10
-4.0311692538
 20
18.7471382079
 10
-4.0255265692
 20
18.7213898477
 10
-4.0203845569
 20
18.6959004055
 10
-4.0157168011
 20
18.6707270251
 10
-4.0115006674
 20
18.6459098006
 10
-4.0076745224
 20
18.6214182003
 10
-4.0042206309
 20
18.5973156178
 10
-4.0011195475
 20
18.5736191571
 10
-3.9983177564
 20
18.5502299433
 10
-3.9957959822
 20
18.5271795967
 10
-3.9935441446
 20
18.5044971451
 10
-3.9915119004
 20
18.4820329139
 10
-3.9896483777
 20
18.4597000061
  0
LWPOLYLINE
  5
476
100
AcDbEntity
  8
RACCORDO
100
AcDbPolyline
 62
7
  6
CONTINUOUS
 90
10
 70
0
 10
41.6842167023
 20
-62.4804893469
 10
41.6953075311
 20
-62.5050300313
 10
41.7125954943
 20
-62.536610105
 10
41.7330391284
 20
-62.5673451875
 10
41.7565951867
 20
-62.596908907
 10
41.7830426961
 20
-62.624836341
 10
41.8121709808
 20
-62.6508599895
 10
41.8437130793
 20
-62.6747774528
 10
41.8774928046
 20
-62.6965027648
 10
41.914060329
 20
-62.7163102055
  0
LWPOLYLINE
  5
477
100
AcDbEntity
  8
RACCORDO
100
AcDbPolyline
 62
250
  6
CONTINUOUS
 90
10
 70
0
 10
17.3150004584
 20
-43.3699899765
 10
17.2478765194
 20
-43.0036005159
 10
17.1860727516
 20
-42.6329191402
 10
17.1296330324
 20
-42.2579101283
 10
17.0787907759
 20
-41.8785200777
 10
17.0333977076
 20
-41.494733078
 10
16.992913391
 20
-41.1065792372
 10
16.9571716144
 20
-40.7140572473
 10
16.9263835791
 20
-40.3171317899
 10
16.9162983462
 20
-40.1605243868
  0
LWPOLYLINE
  5
478
100
AcDbEntity
  8
RACCORDO
100
AcDbPolyline
 62
250
  6
CONTINUOUS
 90
10
 70
0
 10
17.3463009557
 20
-43.5699913235
 10
17.4824289843
 20
-44.3682953846
 10
17.6338634375
 20
-45.1591299089
 10
17.8008556251
 20
-45.9422903026
 10
17.9831531667
 20
-46.7157027812
 10
18.1812341461
 20
-47.481257382
 10
18.3967428503
 20
-48.2444532239
 10
18.6305601852
 20
-49.0068524027
 10
18.8824691806
 20
-49.7663523062
 10
19.1528262437
 20
-50.5226627797
  0
LWPOLYLINE
  5
479
100
AcDbEntity
  8
0
100
AcDbPolyline
 62
250
  6
CONTINUOUS
 90
7
 70
0
 10
17.3174712918
 20
-43.3876888163
 10
17.3168507644
 20
-43.3838698516
 10
17.3163138136
 20
-43.3803984786
 10
17.3158603685
 20
-43.377274755
 10
17.3154903648
 20
-43.3744987331
 10
17.315203745
 20
-43.3720704598
 10
17.3150004584
 20
-43.3699899765
  0
LINE
  5
47A
100
AcDbEntity
  8
RACCORDO
100
AcDbLine
 62
250
  6
CONTINUOUS
 10
14.78193298
 20
-41.7315897643
 11
14.7931809295
 21
-42.5945494801
  0
LINE
  5
47B
100
AcDbEntity
  8
RACCORDO
100
AcDbLine
 62
250
  6
CONTINUOUS
 10
14.7733692967
 20
-40.8670586646
 11
14.78193298
 21
-41.7315897643
  0
LINE
  5
47C
100
AcDbEntity
  8
RACCORDO
100
AcDbLine
 62
250
  6
CONTINUOUS
 10
14.7674898851
 20
-40.0009673295
 11
14.7733692967
 21
-40.8670586646
  0
LINE
  5
47D
100
AcDbEntity
  8
RACCORDO
100
AcDbLine
 62
250
  6
CONTINUOUS
 10
14.7640013141
 20
-38.917815055
 11
14.7674898851
 21
-40.0009673295
  0
LINE
  5
47E
100
AcDbEntity
  8
RACCORDO
100
AcDbLine
 62
250
  6
CONTINUOUS
 10
32.0187959123
 20
1.14535458
 11
32.6442538256
 21
1.519317258
  0
LINE
  5
47F
100
AcDbEntity
  8
RACCORDO
100
AcDbLine
 62
250
  6
CONTINUOUS
 10
22.7811090049
 20
-4.167385226
 11
22.9378645015
 21
-4.0737172031
  0
LINE
  5
480
100
AcDbEntity
  8
0
100
AcDbLine
 62
250
  6
CONTINUOUS
 10
54.4434089988
 20
9.6892569472
 11
55.0021636029
 21
10.0118748527
  0
LINE
  5
481
100
AcDbEntity
  8
RACCORDO
100
AcDbLine
 62
250
  6
CONTINUOUS
 10
32.0512676224
 20
1.7420863053
 11
32.7445553093
 21
2.1286472935
  0
LINE
  5
482
100
AcDbEntity
  8
RACCORDO
100
AcDbLine
 62
250
  6
CONTINUOUS
 10
32.0440848864
 20
1.6504649041
 11
32.7286753046
 21
2.0321764989
  0
LINE
  5
483
100
AcDbEntity
  8
RACCORDO
100
AcDbLine
 62
250
  6
CONTINUOUS
 10
24.1367390759
 20
-6.5154053829
 11
24.2810014932
 21
-6.4349680354
  0
LWPOLYLINE
  5
484
100
AcDbEntity
  8
0
100
AcDbPolyline
 62
7
  6
CONTINUOUS
 90
25
 70
0
 10
-5.1965782381
 20
21.3505695372
 10
-5.1453193669
 20
21.3308560132
 10
-5.0941905643
 20
21.310731784
 10
-5.0431992359
 20
21.2901469699
 10
-4.9923872874
 20
21.2690768926
 10
-4.9417274136
 20
21.2474499464
 10
-4.8911225605
 20
21.2251424303
 10
-4.840564906
 20
21.2020967402
 10
-4.790075425
 20
21.1782661467
 10
-4.7395995458
 20
21.1535345052
 10
-4.6891336958
 20
21.1278412082
 10
-4.6386943895
 20
21.1011325395
 10
-4.5882569809
 20
21.0732941495
 10
-4.53777246
 20
21.0442312751
 10
-4.4873032194
 20
21.0139102471
 10
-4.4369918336
 20
20.9823097758
 10
-4.3868732634
 20
20.9494035498
 10
-4.3369264975
 20
20.9151022405
 10
-4.2872305411
 20
20.8792750651
 10
-4.2378229087
 20
20.8417402732
 10
-4.1888886709
 20
20.8023525831
 10
-4.1407923631
 20
20.7609828818
 10
-4.093732491
 20
20.7174895244
 10
-4.0477443809
 20
20.6717032737
 10
-4.0029439755
 20
20.6234689074
  0
LWPOLYLINE
  5
485
100
AcDbEntity
  8
RACCORDO
100
AcDbPolyline
 62
250
  6
CONTINUOUS
 90
16
 70
0
 10
32.7663530585
 20
-1.0377126698
 10
33.1674284603
 20
-1.2290634188
 10
33.579805668
 20
-1.424399871
 10
34.0034863988
 20
-1.623677166
 10
34.4375055065
 20
-1.8264368035
 10
34.8828291376
 20
-2.0330513422
 10
35.3423566328
 20
-2.244707975
 10
35.8169673094
 20
-2.4617538991
 10
36.3057816868
 20
-2.6837207731
 10
36.8090617791
 20
-2.9105593549
 10
37.3269905463
 20
-3.1422921967
 10
37.8593845359
 20
-3.3787964115
 10
38.4059564711
 20
-3.6198136266
 10
38.9666084901
 20
-3.8652320823
 10
39.5414323185
 20
-4.1150839535
 10
40.1304235811
 20
-4.3693360757
  0
LWPOLYLINE
  5
486
100
AcDbEntity
  8
RACCORDO
100
AcDbPolyline
 62
7
  6
CONTINUOUS
 90
10
 70
0
 10
32.4581284385
 20
-0.6669077852
 10
33.2748457564
 20
-1.0565756133
 10
34.2025497876
 20
-1.4934855271
 10
35.1670176526
 20
-1.9415983126
 10
36.1685146763
 20
-2.4006733349
 10
37.2072679322
 20
-2.8704929164
 10
38.2834138824
 20
-3.3509097613
 10
39.3970123735
 20
-3.8418228054
 10
40.5480530152
 20
-4.343182887
 10
41.6769652142
 20
-4.8295129202
  0
LWPOLYLINE
  5
487
100
AcDbEntity
  8
RACCORDO
100
AcDbPolyline
 62
250
  6
CONTINUOUS
 90
22
 70
0
 10
41.6186027377
 20
-4.6606101527
 10
41.6493186302
 20
-4.6752647393
 10
41.6791082941
 20
-4.6918881658
 10
41.7079726649
 20
-4.7104799467
 10
41.7359780978
 20
-4.7311184311
 10
41.7630603663
 20
-4.7537241651
 10
41.7890244526
 20
-4.7780600009
 10
41.8139484967
 20
-4.8042126059
 10
41.8377564838
 20
-4.8320942097
 10
41.8600215878
 20
-4.8612063063
 10
41.8806833622
 20
-4.8915012019
 10
41.8998035615
 20
-4.9230259115
 10
41.9171378854
 20
-4.9554243949
 10
41.9326907083
 20
-4.9886626719
 10
41.9464583463
 20
-5.0227743644
 10
41.9581838095
 20
-5.0575051481
 10
41.9678962798
 20
-5.0930845984
 10
41.9755668912
 20
-5.129282976
 10
41.9808504427
 20
-5.165157576
 10
41.9836309843
 20
-5.200394622
 10
41.9840227879
 20
-5.2353087613
 10
41.9820251482
 20
-5.26990036
  0
LWPOLYLINE
  5
488
100
AcDbEntity
  8
RACCORDO
100
AcDbPolyline
 62
250
  6
CONTINUOUS
 90
12
 70
0
 10
41.9820251482
 20
-5.26990036
 10
41.9599153839
 20
-5.2593248594
 10
41.939582434
 20
-5.2478644881
 10
41.9212089826
 20
-5.2356222134
 10
41.9049601083
 20
-5.2227080274
 10
41.8909818014
 20
-5.2092379597
 10
41.879399652
 20
-5.1953330345
 10
41.8703177213
 20
-5.1811181825
 10
41.8638176064
 20
-5.1667211191
 10
41.8599577082
 20
-5.1522711971
 10
41.8587727057
 20
-5.1378982438
 10
41.8591321374
 20
-5.1313230109
  0
LWPOLYLINE
  5
489
100
AcDbEntity
  8
RACCORDO
100
AcDbPolyline
 62
250
  6
CONTINUOUS
 90
13
 70
0
 10
32.4653468406
 20
-0.5173395865
 10
33.0841947721
 20
-0.8132839797
 10
33.7296145898
 20
-1.1190326982
 10
34.4018285387
 20
-1.4344704033
 10
35.1016954689
 20
-1.7598011933
 10
35.8287913901
 20
-2.09459529
 10
36.5813816726
 20
-2.437803465
 10
37.3596019249
 20
-2.789311086
 10
38.1636204955
 20
-3.1490750404
 10
38.9916758896
 20
-3.5161928087
 10
39.843199658
 20
-3.890353838
 10
40.7188394746
 20
-4.2718275659
 10
41.6186027377
 20
-4.6606101527
  0
LWPOLYLINE
  5
48A
100
AcDbEntity
  8
RACCORDO
100
AcDbPolyline
 62
250
  6
CONTINUOUS
 90
28
 70
0
 10
32.4581234187
 20
-0.6669054172
 10
32.4578194914
 20
-0.6667578041
 10
32.455247715
 20
-0.6653727289
 10
32.4527803009
 20
-0.6637858559
 10
32.4504303188
 20
-0.6619906897
 10
32.4482034642
 20
-0.6599777947
 10
32.446084699
 20
-0.6577115036
 10
32.444091607
 20
-0.6551758122
 10
32.4422453328
 20
-0.652361346
 10
32.4405517051
 20
-0.6492361989
 10
32.4390324197
 20
-0.6457830719
 10
32.4377117121
 20
-0.6419889097
 10
32.4366072131
 20
-0.6378250589
 10
32.4357422817
 20
-0.6332729315
 10
32.4351432653
 20
-0.6283179018
 10
32.4348371342
 20
-0.6229361348
 10
32.4348488862
 20
-0.6171117669
 10
32.4352046357
 20
-0.6108272045
 10
32.4359375
 20
-0.6040556976
 10
32.4370720728
 20
-0.5967862255
 10
32.4386381851
 20
-0.5889972335
 10
32.4406854689
 20
-0.5806445139
 10
32.4432405691
 20
-0.5717186266
 10
32.4463394607
 20
-0.5621935832
 10
32.4500595566
 20
-0.551995907
 10
32.4544498281
 20
-0.5410957149
 10
32.4595421602
 20
-0.5295267632
 10
32.465472806
 20
-0.5172723655
  0
LWPOLYLINE
  5
48B
100
AcDbEntity
  8
RACCORDO
100
AcDbPolyline
 62
7
  6
CONTINUOUS
 90
5
 70
0
 10
32.8582091593
 20
-1.0560937068
 10
32.8561089059
 20
-1.0549950369
 10
32.8522494046
 20
-1.0525717347
 10
32.848972226
 20
-1.0499814919
 10
32.8483580978
 20
-1.0494183979
  0
LWPOLYLINE
  5
48C
100
AcDbEntity
  8
RACCORDO
100
AcDbPolyline
 62
7
  6
CONTINUOUS
 90
22
 70
0
 10
31.9538581912
 20
-1.0781909141
 10
31.9367275979
 20
-1.0691866715
 10
31.9198377205
 20
-1.0586890321
 10
31.9032773496
 20
-1.0467499056
 10
31.8871494534
 20
-1.0334533988
 10
31.8715172575
 20
-1.0188488345
 10
31.8564175215
 20
-1.0029295068
 10
31.8419093045
 20
-0.9857291024
 10
31.8281134137
 20
-0.9673554321
 10
31.8151648086
 20
-0.9479119079
 10
31.8031164941
 20
-0.9274692824
 10
31.7920666451
 20
-0.9061643444
 10
31.7821877375
 20
-0.8842263253
 10
31.7735178506
 20
-0.8618024421
 10
31.766085216
 20
-0.8390153338
 10
31.7600021711
 20
-0.8160758282
 10
31.755278108
 20
-0.7931844267
 10
31.7518867968
 20
-0.7704185286
 10
31.7498798714
 20
-0.7478059004
 10
31.7492759106
 20
-0.7254477717
 10
31.7500393543
 20
-0.7035161655
 10
31.7521471858
 20
-0.6821456503
  0
LWPOLYLINE
  5
48D
100
AcDbEntity
  8
0
100
AcDbPolyline
 62
7
  6
CONTINUOUS
 90
18
 70
0
 10
-4.648064022
 20
19.6373321393
 10
-4.6297893189
 20
19.6275956507
 10
-4.611374642
 20
19.618454547
 10
-4.5928835286
 20
19.6099728192
 10
-4.5744207591
 20
19.6022241078
 10
-4.5560015908
 20
19.5952518858
 10
-4.5375529731
 20
19.5890841531
 10
-4.5191305386
 20
19.5837869021
 10
-4.5007936949
 20
19.5794322976
 10
-4.482479841
 20
19.5760857116
 10
-4.4642138171
 20
19.5738284327
 10
-4.4461008034
 20
19.572758953
 10
-4.428203828
 20
19.5729827015
 10
-4.4105664476
 20
19.5745931772
 10
-4.3932828578
 20
19.5776800992
 10
-4.3764839229
 20
19.5823213961
 10
-4.36023037
 20
19.5885897334
 10
-4.3432585987
 20
19.5972408227
  0
LINE
  5
48E
100
AcDbEntity
  8
0
100
AcDbLine
 62
7
  6
CONTINUOUS
 10
-11.113136949
 20
24.8035575867
 11
-10.6251752246
 21
24.5232811973
  0
LINE
  5
48F
100
AcDbEntity
  8
0
100
AcDbLine
 62
7
  6
CONTINUOUS
 10
-12.5491583718
 20
25.6282098107
 11
-12.0186642261
 21
25.3235667472
  0
LINE
  5
490
100
AcDbEntity
  8
0
100
AcDbLine
 62
7
  6
CONTINUOUS
 10
-10.5746342029
 20
24.5524629497
 11
-11.0625963297
 21
24.8327391068
  0
LINE
  5
491
100
AcDbEntity
  8
0
100
AcDbLine
 62
7
  6
CONTINUOUS
 10
-11.9681245733
 20
25.3527477093
 11
-12.4986194003
 21
25.6573903794
  0
LINE
  5
492
100
AcDbEntity
  8
0
100
AcDbLine
 62
7
  6
CONTINUOUS
 10
-10.4439556141
 20
24.4193676347
 11
-9.9557656577
 21
24.1388392455
  0
LINE
  5
493
100
AcDbEntity
  8
0
100
AcDbLine
 62
7
  6
CONTINUOUS
 10
-9.9052242055
 20
24.1680212465
 11
-10.3934144359
 21
24.4485494776
  0
LINE
  5
494
100
AcDbEntity
  8
0
100
AcDbLine
 62
7
  6
CONTINUOUS
 10
-11.7996897133
 20
22.017155958
 11
-12.2297543314
 21
22.2644604477
  0
LINE
  5
495
100
AcDbEntity
  8
0
100
AcDbLine
 62
7
  6
CONTINUOUS
 10
-10.3791241998
 20
21.2002078934
 11
-10.8670900492
 21
21.4808656792
  0
LINE
  5
496
100
AcDbEntity
  8
0
100
AcDbLine
 62
7
  6
CONTINUOUS
 10
-9.481914079
 20
23.8662348578
 11
-8.9943693396
 21
23.5857985448
  0
LINE
  5
497
100
AcDbEntity
  8
0
100
AcDbLine
 62
7
  6
CONTINUOUS
 10
-8.9438276784
 20
23.6149806666
 11
-9.4313724878
 21
23.8954169391
  0
LINE
  5
498
100
AcDbEntity
  8
0
100
AcDbLine
 62
7
  6
CONTINUOUS
 10
-9.6497345903
 20
20.7805508812
 11
-10.1164604651
 21
21.0491065344
  0
LINE
  5
499
100
AcDbEntity
  8
0
100
AcDbLine
 62
7
  6
CONTINUOUS
 10
-8.9039027717
 20
20.3511739921
 11
-8.9722960336
 21
20.3905615982
  0
LINE
  5
49A
100
AcDbEntity
  8
0
100
AcDbLine
 62
7
  6
CONTINUOUS
 10
-7.7484872907
 20
19.683870499
 11
-8.2243538511
 21
19.9592913378
  0
LINE
  5
49B
100
AcDbEntity
  8
0
100
AcDbLine
 62
7
  6
CONTINUOUS
 10
-8.0241410188
 20
23.0271286765
 11
-7.5426769464
 21
22.7486768386
  0
LINE
  5
49C
100
AcDbEntity
  8
0
100
AcDbLine
 62
7
  6
CONTINUOUS
 10
-7.4921353528
 20
22.7778589214
 11
-7.9735995468
 21
23.056310689
  0
LINE
  5
49D
100
AcDbEntity
  8
0
100
AcDbLine
 62
7
  6
CONTINUOUS
 10
-7.191095351
 20
19.3610874789
 11
-7.6721154164
 21
19.6396544178
  0
LINE
  5
49E
100
AcDbEntity
  8
0
100
AcDbLine
 62
7
  6
CONTINUOUS
 10
-3.9179958012
 20
17.4639031836
 11
-4.385539878
 21
17.7349160207
  0
LINE
  5
49F
100
AcDbEntity
  8
0
100
AcDbLine
 62
7
  6
CONTINUOUS
 10
-5.7566361533
 20
18.5297953547
 11
-6.2689327205
 21
18.8267519394
  0
LINE
  5
4A0
100
AcDbEntity
  8
0
100
AcDbLine
 62
7
  6
CONTINUOUS
 10
-6.319551002
 20
19.481041218
 11
-6.9815456927
 21
19.8647140541
  0
LINE
  5
4A1
100
AcDbEntity
  8
0
100
AcDbLine
 62
7
  6
CONTINUOUS
 10
-6.8206457425
 20
20.258739201
 11
-6.3552688683
 21
19.9889808628
  0
LINE
  5
4A2
100
AcDbEntity
  8
0
100
AcDbLine
 62
7
  6
CONTINUOUS
 10
-6.3588107548
 20
20.0491738159
 11
-6.7704011772
 21
20.2877497833
  0
LINE
  5
4A3
100
AcDbEntity
  8
0
100
AcDbLine
 62
7
  6
CONTINUOUS
 10
-5.129834548
 20
18.1664132
 11
-5.6139101037
 21
18.4470547355
  0
LINE
  5
4A4
100
AcDbEntity
  8
0
100
AcDbLine
 62
7
  6
CONTINUOUS
 10
-6.5178943777
 20
22.155014309
 11
-6.0477627821
 21
21.8824046591
  0
LINE
  5
4A5
100
AcDbEntity
  8
0
100
AcDbLine
 62
7
  6
CONTINUOUS
 10
-5.9972213277
 20
21.9115866615
 11
-6.4673527694
 21
22.1841964002
  0
LINE
  5
4A6
100
AcDbEntity
  8
0
100
AcDbLine
 62
7
  6
CONTINUOUS
 10
-4.7177741856
 20
19.1570779602
 11
-4.9782765072
 21
19.3082145754
  0
LINE
  5
4A7
100
AcDbEntity
  8
0
100
AcDbLine
 62
7
  6
CONTINUOUS
 10
-4.9256930987
 20
19.7984406901
 11
-4.648064022
 21
19.6373321393
  0
LINE
  5
4A8
100
AcDbEntity
  8
0
100
AcDbLine
 62
7
  6
CONTINUOUS
 10
-4.5977366063
 20
19.6663905584
 11
-4.8753650443
 21
19.8274994779
  0
LINE
  5
4A9
100
AcDbEntity
  8
RACCORDO
100
AcDbLine
 62
250
  6
CONTINUOUS
 10
-55.9797480237
 20
60.7749470523
 11
-54.4097385776
 21
59.7147363405
  0
LWPOLYLINE
  5
4AA
100
AcDbEntity
  8
0
100
AcDbPolyline
 62
7
  6
CONTINUOUS
 90
10
 70
0
 10
-4.420310371
 20
20.4050876251
 10
-4.4599722797
 20
20.433706606
 10
-4.5004913284
 20
20.4609887148
 10
-4.5418088406
 20
20.4868526324
 10
-4.5838404853
 20
20.5112060351
 10
-4.6265415411
 20
20.5339720058
 10
-4.6699065114
 20
20.5550816102
 10
-4.7138823049
 20
20.5744448829
 10
-4.7584147285
 20
20.5921384584
 10
-4.8035408199
 20
20.6085330402
  0
LWPOLYLINE
  5
4AB
100
AcDbEntity
  8
RACCORDO
100
AcDbPolyline
 62
250
  6
CONTINUOUS
 90
7
 70
0
 10
4.8327852252
 20
29.9216952575
 10
4.8341056109
 20
29.9188479014
 10
4.8350414802
 20
29.9166489024
 10
4.8355757335
 20
29.9150848612
 10
4.8356179615
 20
29.9141870071
 10
4.8352254298
 20
29.9138943572
 10
4.8345513504
 20
29.9140938789
  0
LWPOLYLINE
  5
4AC
100
AcDbEntity
  8
RACCORDO
100
AcDbPolyline
 62
250
  6
CONTINUOUS
 90
5
 70
0
 10
5.959825213
 20
29.2643748531
 10
6.030246081
 20
29.1103929775
 10
6.0976188004
 20
28.9401741659
 10
6.1575748993
 20
28.763270495
 10
6.1777249859
 20
28.6928354958
  0
LWPOLYLINE
  5
4AD
100
AcDbEntity
  8
RACCORDO
100
AcDbPolyline
 62
250
  6
CONTINUOUS
 90
6
 70
0
 10
5.256719967
 20
29.2246122508
 10
5.2055014399
 20
29.3461012851
 10
5.132063085
 20
29.497092175
 10
5.0521750659
 20
29.6403334827
 10
4.9657142948
 20
29.77603497
 10
4.8726899518
 20
29.9040673924
  0
LINE
  5
4AE
100
AcDbEntity
  8
RACCORDO
100
AcDbLine
 62
7
  6
CONTINUOUS
 10
41.684245956
 20
-62.4805602705
 11
41.6842167023
 21
-62.4804893469
  0
LWPOLYLINE
  5
4AF
100
AcDbEntity
  8
RACCORDO
100
AcDbPolyline
 62
250
  6
CONTINUOUS
 90
8
 70
0
 10
38.1875470303
 20
-60.7725842156
 10
38.1959360115
 20
-60.8005275707
 10
38.2066138521
 20
-60.8259175013
 10
38.2195012363
 20
-60.848565402
 10
38.2345024351
 20
-60.8683030356
 10
38.2515060171
 20
-60.8849837829
 10
38.2703856765
 20
-60.8984837315
 10
38.2798443515
 20
-60.9036886897
  0
LINE
  5
4B0
100
AcDbEntity
  8
RACCORDO
100
AcDbLine
 62
7
  6
CONTINUOUS
 10
24.3967512291
 20
-42.3291354074
 11
24.3967479937
 21
-42.3290739991
  0
LINE
  5
4B1
100
AcDbEntity
  8
RACCORDO
100
AcDbLine
 62
250
  6
CONTINUOUS
 10
24.4409083552
 20
-42.0472788416
 11
24.4589555352
 21
-42.4117439077
  0
LINE
  5
4B2
100
AcDbEntity
  8
RACCORDO
100
AcDbLine
 62
250
  6
CONTINUOUS
 10
24.421152229
 20
-41.5961685426
 11
24.4409083552
 21
-42.0472788416
  0
LINE
  5
4B3
100
AcDbEntity
  8
RACCORDO
100
AcDbLine
 62
250
  6
CONTINUOUS
 10
24.4011984331
 20
-41.0699913123
 11
24.421152229
 21
-41.5961685426
  0
LINE
  5
4B4
100
AcDbEntity
  8
RACCORDO
100
AcDbLine
 62
250
  6
CONTINUOUS
 10
24.382049435
 20
-40.480700789
 11
24.4011984331
 21
-41.0699913123
  0
LWPOLYLINE
  5
4B5
100
AcDbEntity
  8
RACCORDO
100
AcDbPolyline
 62
250
  6
CONTINUOUS
 90
14
 70
0
 10
22.0863429386
 20
-42.8074733874
 10
22.0878234634
 20
-42.8594257653
 10
22.0922588377
 20
-42.9094509169
 10
22.0996304883
 20
-42.9573393589
 10
22.109907546
 20
-43.002890556
 10
22.123046975
 20
-43.0459137599
 10
22.1389937532
 20
-43.0862288084
 10
22.1576811025
 20
-43.1236668801
 10
22.1790307688
 20
-43.158071201
 10
22.2029533489
 20
-43.189297701
 10
22.2293486658
 20
-43.2172156173
 10
22.2581061876
 20
-43.2417080422
 10
22.2891054905
 20
-43.2626724122
 10
22.2934255597
 20
-43.2652102486
  0
LWPOLYLINE
  5
4B6
100
AcDbEntity
  8
RACCORDO
100
AcDbPolyline
 62
250
  6
CONTINUOUS
 90
30
 70
0
 10
24.4589555352
 20
-42.4117439077
 10
24.4614852038
 20
-42.5008509747
 10
24.4603905495
 20
-42.5863714576
 10
24.4556653383
 20
-42.6683104313
 10
24.4472701912
 20
-42.7465074002
 10
24.4352327328
 20
-42.8211324292
 10
24.4196493923
 20
-42.8926846785
 10
24.4004852223
 20
-42.9615223094
 10
24.3777699599
 20
-43.0272914021
 10
24.3516967387
 20
-43.0894232567
 10
24.3222379897
 20
-43.1478447379
 10
24.2894122501
 20
-43.2026363338
 10
24.2534782478
 20
-43.2534626827
 10
24.2144416919
 20
-43.3002800583
 10
24.1722867849
 20
-43.3431403997
 10
24.1272377999
 20
-43.3818536297
 10
24.0792973199
 20
-43.4164205766
 10
24.0284530901
 20
-43.4468482859
 10
23.9749057143
 20
-43.4729571563
 10
23.9184919065
 20
-43.4947522581
 10
23.8593663716
 20
-43.5122355069
 10
23.7982045104
 20
-43.5252243513
 10
23.7353130095
 20
-43.5336863138
 10
23.6703751668
 20
-43.5376620255
 10
23.6031306214
 20
-43.5370791506
 10
23.5335432924
 20
-43.5320596097
 10
23.4616442755
 20
-43.5224855407
 10
23.387274967
 20
-43.5079241256
 10
23.3100866766
 20
-43.4882818655
 10
23.2669567012
 20
-43.4749477628
  0
LWPOLYLINE
  5
4B7
100
AcDbEntity
  8
RACCORDO
100
AcDbPolyline
 62
250
  6
CONTINUOUS
 90
25
 70
0
 10
22.7349739243
 20
-6.5083421909
 10
22.7335687842
 20
-6.4584229146
 10
22.7294398581
 20
-6.4074828263
 10
22.7225871458
 20
-6.3555219261
 10
22.7129566524
 20
-6.3022820107
 10
22.7006023729
 20
-6.2480212833
 10
22.6856862926
 20
-6.1935143539
 10
22.6681780222
 20
-6.1387893991
 10
22.648107951
 20
-6.0838182422
 10
22.6257292316
 20
-6.0292909631
 10
22.6010108095
 20
-5.9752080046
 10
22.5739837393
 20
-5.9215689239
 10
22.5449943374
 20
-5.869062473
 10
22.5140168451
 20
-5.8177033216
 10
22.4810770211
 20
-5.7674768001
 10
22.4465984582
 20
-5.7190276517
 10
22.4105654894
 20
-5.672382853
 10
22.3729937817
 20
-5.6275154274
 10
22.3343539283
 20
-5.5849891886
 10
22.2946058305
 20
-5.5448159239
 10
22.253789587
 20
-5.506983846
 10
22.2124960871
 20
-5.4720214064
 10
22.170922294
 20
-5.4401047558
 10
22.1288712445
 20
-5.4110577435
 10
22.0863429386
 20
-5.3848803696
  0
LINE
  5
4B8
100
AcDbEntity
  8
RACCORDO
100
AcDbLine
 62
250
  6
CONTINUOUS
 10
24.358627934
 20
-39.6281291469
 11
24.382049435
 21
-40.480700789
  0
LWPOLYLINE
  5
4B9
100
AcDbEntity
  8
RACCORDO
100
AcDbPolyline
 62
250
  6
CONTINUOUS
 90
28
 70
0
 10
24.1367390759
 20
-6.5154053829
 10
24.1344455651
 20
-6.4230672632
 10
24.1275727926
 20
-6.3283930943
 10
24.1161440135
 20
-6.2317032233
 10
24.1001978986
 20
-6.133324818
 10
24.0797884039
 20
-6.0335907595
 10
24.0549845885
 20
-5.9328385161
 10
24.0258703793
 20
-5.8314089993
 10
23.9925442898
 20
-5.7296454165
 10
23.9551190872
 20
-5.6278921109
 10
23.913721409
 20
-5.5264933878
 10
23.8684913306
 20
-5.425792344
 10
23.8195818936
 20
-5.3261297134
 10
23.7671585897
 20
-5.2278427194
 10
23.7113988043
 20
-5.131263938
 10
23.6524912137
 20
-5.0367201661
 10
23.5906351451
 20
-4.9445313132
 10
23.526039898
 20
-4.8550093134
 10
23.4589240385
 20
-4.7684570757
 10
23.3895146622
 20
-4.6851674624
 10
23.318046631
 20
-4.6054223032
 10
23.2447617744
 20
-4.5294914352
 10
23.1699080663
 20
-4.4576317852
 10
23.0937387871
 20
-4.3900865022
 10
23.0165116708
 20
-4.3270841385
 10
22.93848803
 20
-4.2688378738
 10
22.8599318716
 20
-4.2155447942
 10
22.7811090049
 20
-4.167385226
  0
LINE
  5
4BA
100
AcDbEntity
  8
RACCORDO
100
AcDbLine
 62
250
  6
CONTINUOUS
 10
24.3193388406
 20
-37.9125862716
 11
24.358627934
 21
-39.6281291469
  0
LWPOLYLINE
  5
4BB
100
AcDbEntity
  8
RACCORDO
100
AcDbPolyline
 62
7
  6
CONTINUOUS
 90
14
 70
0
 10
24.3976121006
 20
-42.3474011721
 10
24.399256945
 20
-42.4266045468
 10
24.3973444256
 20
-42.5041567575
 10
24.3917533465
 20
-42.5797072968
 10
24.3823885942
 20
-42.6528014125
 10
24.369224743
 20
-42.7228823161
 10
24.3522556358
 20
-42.7895602811
 10
24.3314973238
 20
-42.8525063881
 10
24.3070558416
 20
-42.9112603508
 10
24.2790755116
 20
-42.9654475966
 10
24.2476321514
 20
-43.0149565439
 10
24.2127119223
 20
-43.0597666577
 10
24.1743068872
 20
-43.0998053505
 10
24.1324506975
 20
-43.1349557071
  0
LINE
  5
4BC
100
AcDbEntity
  8
RACCORDO
100
AcDbLine
 62
250
  6
CONTINUOUS
 10
24.2848758004
 20
-36.0824266531
 11
24.3193388406
 21
-37.9125862716
  0
LINE
  5
4BD
100
AcDbEntity
  8
RACCORDO
100
AcDbLine
 62
250
  6
CONTINUOUS
 10
24.2545537303
 20
-34.1385981921
 11
24.2848758004
 21
-36.0824266531
  0
LWPOLYLINE
  5
4BE
100
AcDbEntity
  8
RACCORDO
100
AcDbPolyline
 62
250
  6
CONTINUOUS
 90
9
 70
0
 10
22.7267592674
 20
-3.8697430064
 10
22.726998457
 20
-3.8869532268
 10
22.7288075788
 20
-3.9031009956
 10
22.7321661768
 20
-3.9180038588
 10
22.737036286
 20
-3.93149343
 10
22.7433628641
 20
-3.9434172988
 10
22.7510744153
 20
-3.9536407503
 10
22.760083793
 20
-3.9620482782
 10
22.7681646912
 20
-3.9674061609
  0
LINE
  5
4BF
100
AcDbEntity
  8
RACCORDO
100
AcDbLine
 62
250
  6
CONTINUOUS
 10
24.2297534902
 20
-32.2102624247
 11
24.2545537303
 21
-34.1385981921
  0
LINE
  5
4C0
100
AcDbEntity
  8
RACCORDO
100
AcDbLine
 62
250
  6
CONTINUOUS
 10
24.2112847217
 20
-30.4222452829
 11
24.2297534902
 21
-32.2102624247
  0
LINE
  5
4C1
100
AcDbEntity
  8
RACCORDO
100
AcDbLine
 62
250
  6
CONTINUOUS
 10
24.1992087434
 20
-28.9453566675
 11
24.2112847217
 21
-30.4222452829
  0
LINE
  5
4C2
100
AcDbEntity
  8
RACCORDO
100
AcDbLine
 62
250
  6
CONTINUOUS
 10
24.1895013513
 20
-27.390070058
 11
24.1992087434
 21
-28.9453566675
  0
LINE
  5
4C3
100
AcDbEntity
  8
RACCORDO
100
AcDbLine
 62
250
  6
CONTINUOUS
 10
24.1826434731
 20
-25.7983040682
 11
24.1895013513
 21
-27.390070058
  0
LWPOLYLINE
  5
4C4
100
AcDbEntity
  8
RACCORDO
100
AcDbPolyline
 62
7
  6
CONTINUOUS
 90
13
 70
0
 10
24.1150163346
 20
-22.981481383
 10
24.1176859948
 20
-24.7610107282
 10
24.1237847354
 20
-26.5661649611
 10
24.1335361331
 20
-28.3309623725
 10
24.1469150788
 20
-30.0553931712
 10
24.1637656773
 20
-31.7395370452
 10
24.1839124427
 20
-33.3834871533
 10
24.2071497118
 20
-34.9873676072
 10
24.2334081109
 20
-36.5512109839
 10
24.2632865344
 20
-38.0746227251
 10
24.2975046133
 20
-39.557141157
 10
24.3397399917
 20
-40.9968484808
 10
24.3976121006
 20
-42.3474011721
  0
LWPOLYLINE
  5
4C5
100
AcDbEntity
  8
RACCORDO
100
AcDbPolyline
 62
250
  6
CONTINUOUS
 90
3
 70
0
 10
24.177251628
 20
-23.0650694692
 10
24.1777714374
 20
-23.625786411
 10
24.1826434731
 20
-25.7983040682
  0
LINE
  5
4C6
100
AcDbEntity
  8
RACCORDO
100
AcDbLine
 62
250
  6
CONTINUOUS
 10
22.7349739243
 20
-42.4330343698
 11
22.7349739243
 21
-6.5083421909
  0
LINE
  5
4C7
100
AcDbEntity
  8
RACCORDO
100
AcDbLine
 62
250
  6
CONTINUOUS
 10
24.1367390759
 20
-42.4400975618
 11
24.1367390759
 21
-28.7437940972
  0
LINE
  5
4C8
100
AcDbEntity
  8
RACCORDO
100
AcDbLine
 62
250
  6
CONTINUOUS
 10
24.1367390759
 20
-17.1606550449
 11
24.1367390759
 21
-6.5154053829
  0
LINE
  5
4C9
100
AcDbEntity
  8
RACCORDO
100
AcDbLine
 62
250
  6
CONTINUOUS
 10
24.1810537495
 20
-20.8415930473
 11
24.177251687
 21
-23.0650694386
  0
LINE
  5
4CA
100
AcDbEntity
  8
RACCORDO
100
AcDbLine
 62
250
  6
CONTINUOUS
 10
24.1888180689
 20
-18.8583001135
 11
24.1810537495
 21
-20.8415930473
  0
LINE
  5
4CB
100
AcDbEntity
  8
RACCORDO
100
AcDbLine
 62
250
  6
CONTINUOUS
 10
24.1980746914
 20
-17.3192006877
 11
24.1888180689
 21
-18.8583001135
  0
LINE
  5
4CC
100
AcDbEntity
  8
RACCORDO
100
AcDbLine
 62
250
  6
CONTINUOUS
 10
24.2112272025
 20
-15.6748838768
 11
24.1980746914
 21
-17.3192006877
  0
LINE
  5
4CD
100
AcDbEntity
  8
RACCORDO
100
AcDbLine
 62
250
  6
CONTINUOUS
 10
24.2271485072
 20
-14.0918868675
 11
24.2112272025
 21
-15.6748838768
  0
LINE
  5
4CE
100
AcDbEntity
  8
RACCORDO
100
AcDbLine
 62
250
  6
CONTINUOUS
 10
24.2551714904
 20
-11.8581088199
 11
24.2271485072
 21
-14.0918868675
  0
LINE
  5
4CF
100
AcDbEntity
  8
RACCORDO
100
AcDbLine
 62
250
  6
CONTINUOUS
 10
24.2887161763
 20
-9.6927229601
 11
24.2551714904
 21
-11.8581088199
  0
LINE
  5
4D0
100
AcDbEntity
  8
RACCORDO
100
AcDbLine
 62
250
  6
CONTINUOUS
 10
24.326888599
 20
-7.6808758438
 11
24.2887161763
 21
-9.6927229601
  0
LWPOLYLINE
  5
4D1
100
AcDbEntity
  8
RACCORDO
100
AcDbPolyline
 62
7
  6
CONTINUOUS
 90
10
 70
0
 10
24.2867068923
 20
-6.6451794718
 10
24.2536234413
 20
-8.1897744057
 10
24.2233826842
 20
-9.8553297511
 10
24.1966808402
 20
-11.5755059974
 10
24.1732042296
 20
-13.3504931132
 10
24.153301764
 20
-15.1801189185
 10
24.1373240786
 20
-17.0641973084
 10
24.1255682294
 20
-19.0025519073
 10
24.1181938936
 20
-20.9950475166
 10
24.1150162569
 20
-22.9813910255
  0
LINE
  5
4D2
100
AcDbEntity
  8
RACCORDO
100
AcDbLine
 62
250
  6
CONTINUOUS
 10
24.3480461822
 20
-6.7285848325
 11
24.326888599
 21
-7.6808758438
  0
LWPOLYLINE
  5
4D3
100
AcDbEntity
  8
RACCORDO
100
AcDbPolyline
 62
250
  6
CONTINUOUS
 90
25
 70
0
 10
22.0863429386
 20
-5.3848803696
 10
22.0878234634
 20
-5.3312183189
 10
22.0922588377
 20
-5.2760713082
 10
22.0996304883
 20
-5.2196702688
 10
22.109907546
 20
-5.1622513831
 10
22.123046975
 20
-5.104055096
 10
22.1389937532
 20
-5.0453251077
 10
22.1576811025
 20
-4.9863073534
 10
22.1790307688
 20
-4.9272489731
 10
22.2029533489
 20
-4.8683972773
 10
22.2293486658
 20
-4.8099987106
 10
22.2581061876
 20
-4.7522978203
 10
22.2891054906
 20
-4.6955362323
 10
22.3222167633
 20
-4.6399516388
 10
22.3573013506
 20
-4.5857768034
 10
22.3942123338
 20
-4.5332385863
 10
22.4327951459
 20
-4.4825569943
 10
22.4728882194
 20
-4.4339442594
 10
22.5143236622
 20
-4.38760395
 10
22.556927961
 20
-4.343730119
 10
22.600522708
 20
-4.3025064903
 10
22.6449253477
 20
-4.2641056904
 10
22.6899499416
 20
-4.2286885246
 10
22.7354079467
 20
-4.1964033044
 10
22.7811090049
 20
-4.167385226
  0
LINE
  5
4D4
100
AcDbEntity
  8
RACCORDO
100
AcDbLine
 62
250
  6
CONTINUOUS
 10
46.0159854713
 20
2.61782409
 11
56.3533603308
 21
8.5864749854
  0
LWPOLYLINE
  5
4D5
100
AcDbEntity
  8
RACCORDO
100
AcDbPolyline
 62
250
  6
CONTINUOUS
 90
19
 70
0
 10
50.2157997485
 20
-4.7538801817
 10
50.1866834405
 20
-4.7661598991
 10
50.1556144643
 20
-4.7770899338
 10
50.1227834698
 20
-4.7866032148
 10
50.0883919194
 20
-4.7946413653
 10
50.0526508519
 20
-4.80115506
 10
50.0157795872
 20
-4.8061043285
 10
49.9780043804
 20
-4.8094588
 10
49.9395570335
 20
-4.8111978902
 10
49.9006734735
 20
-4.8113109272
 10
49.8615923037
 20
-4.8097972172
 10
49.8225533402
 20
-4.8066660488
 10
49.7837961404
 20
-4.8019366358
 10
49.7455585325
 20
-4.7956379995
 10
49.7080751561
 20
-4.7878087904
 10
49.6715760232
 20
-4.7784970514
 10
49.6362851057
 20
-4.7677599227
 10
49.6024189613
 20
-4.755663291
 10
49.5701854051
 20
-4.7422813855
  0
LWPOLYLINE
  5
4D6
100
AcDbEntity
  8
0
100
AcDbPolyline
 62
7
  6
CONTINUOUS
 90
12
 70
0
 10
-4.3769394134
 20
19.6020709988
 10
-4.3965150731
 20
19.60189056
 10
-4.4162858123
 20
19.6031201154
 10
-4.43619514
 20
19.605752339
 10
-4.4563003097
 20
19.609794161
 10
-4.4764713559
 20
19.6149431219
 10
-4.4966981346
 20
19.6211756412
 10
-4.5169911733
 20
19.6285151003
 10
-4.5372513843
 20
19.6367295497
 10
-4.5574457818
 20
19.6457416504
 10
-4.5776075076
 20
19.6556286604
 10
-4.5977366048
 20
19.6663905575
  0
LINE
  5
4D7
100
AcDbEntity
  8
RACCORDO
100
AcDbLine
 62
250
  6
CONTINUOUS
 10
44.3966617814
 20
3.407297953
 11
46.0159854713
 21
2.61782409
  0
LINE
  5
4D8
100
AcDbEntity
  8
RACCORDO
100
AcDbLine
 62
250
  6
CONTINUOUS
 10
42.8589096845
 20
4.1603631243
 11
44.3966617814
 21
3.407297953
  0
LINE
  5
4D9
100
AcDbEntity
  8
RACCORDO
100
AcDbLine
 62
250
  6
CONTINUOUS
 10
41.4019533441
 20
4.8773297425
 11
42.8589096845
 21
4.1603631243
  0
LINE
  5
4DA
100
AcDbEntity
  8
RACCORDO
100
AcDbLine
 62
250
  6
CONTINUOUS
 10
44.0976141758
 20
2.8578104415
 11
45.7038286048
 21
2.0641243015
  0
LINE
  5
4DB
100
AcDbEntity
  8
RACCORDO
100
AcDbLine
 62
250
  6
CONTINUOUS
 10
40.022941758
 20
5.5593823833
 11
41.4019533441
 21
4.8773297425
  0
LINE
  5
4DC
100
AcDbEntity
  8
RACCORDO
100
AcDbLine
 62
250
  6
CONTINUOUS
 10
42.5717097201
 20
3.6146785172
 11
44.0976141758
 21
2.8578104415
  0
LINE
  5
4DD
100
AcDbEntity
  8
RACCORDO
100
AcDbLine
 62
250
  6
CONTINUOUS
 10
38.7210221605
 20
6.2066075721
 11
40.022941758
 21
5.5593823833
  0
LINE
  5
4DE
100
AcDbEntity
  8
RACCORDO
100
AcDbLine
 62
250
  6
CONTINUOUS
 10
41.1252461814
 20
4.3349980965
 11
42.5717097201
 21
3.6146785172
  0
LINE
  5
4DF
100
AcDbEntity
  8
RACCORDO
100
AcDbLine
 62
250
  6
CONTINUOUS
 10
39.7553519525
 20
5.019976105
 11
41.1252461814
 21
4.3349980965
  0
LINE
  5
4E0
100
AcDbEntity
  8
RACCORDO
100
AcDbLine
 62
250
  6
CONTINUOUS
 10
37.4953838226
 20
6.8192170532
 11
38.7210221605
 21
6.2066075721
  0
LINE
  5
4E1
100
AcDbEntity
  8
RACCORDO
100
AcDbLine
 62
250
  6
CONTINUOUS
 10
38.4612990361
 20
5.6697347943
 11
39.7553519525
 21
5.019976105
  0
LINE
  5
4E2
100
AcDbEntity
  8
RACCORDO
100
AcDbLine
 62
250
  6
CONTINUOUS
 10
36.3448531315
 20
7.3975423784
 11
37.4953838226
 21
6.8192170532
  0
LINE
  5
4E3
100
AcDbEntity
  8
RACCORDO
100
AcDbLine
 62
250
  6
CONTINUOUS
 10
37.2421987583
 20
6.2844815652
 11
38.4612990361
 21
5.6697347943
  0
LINE
  5
4E4
100
AcDbEntity
  8
RACCORDO
100
AcDbLine
 62
250
  6
CONTINUOUS
 10
35.2671438107
 20
7.9424077206
 11
36.3448531315
 21
7.3975423784
  0
LINE
  5
4E5
100
AcDbEntity
  8
RACCORDO
100
AcDbLine
 62
250
  6
CONTINUOUS
 10
36.0969185916
 20
6.8646860587
 11
37.2421987583
 21
6.2844815652
  0
LINE
  5
4E6
100
AcDbEntity
  8
RACCORDO
100
AcDbLine
 62
250
  6
CONTINUOUS
 10
34.2616122553
 20
8.4540404186
 11
35.2671438107
 21
7.9424077206
  0
LINE
  5
4E7
100
AcDbEntity
  8
RACCORDO
100
AcDbLine
 62
250
  6
CONTINUOUS
 10
35.0232039479
 20
7.4113996943
 11
36.0969185916
 21
6.8646860587
  0
LINE
  5
4E8
100
AcDbEntity
  8
RACCORDO
100
AcDbLine
 62
250
  6
CONTINUOUS
 10
34.0202257721
 20
7.9248127388
 11
35.0232039479
 21
7.4113996943
  0
LWPOLYLINE
  5
4E9
100
AcDbEntity
  8
RACCORDO
100
AcDbPolyline
 62
250
  6
CONTINUOUS
 90
40
 70
0
 10
46.0159854713
 20
2.61782409
 10
46.2047453506
 20
2.5194345961
 10
46.3891540349
 20
2.4141417684
 10
46.5689446804
 20
2.3025335898
 10
46.7427844096
 20
2.1858801752
 10
46.9115698573
 20
2.0641228128
 10
47.0783644963
 20
1.9354784891
 10
47.2439824422
 20
1.7993114379
 10
47.4071226309
 20
1.6565797984
 10
47.5676229758
 20
1.5075519077
 10
47.7252578928
 20
1.3524500022
 10
47.8797915402
 20
1.1915099894
 10
48.0310516323
 20
1.0250365297
 10
48.1788109441
 20
0.8532962265
 10
48.3228574191
 20
0.6765340631
 10
48.4630474801
 20
0.4950342727
 10
48.5991393232
 20
0.3091275362
 10
48.7309617659
 20
0.1190356989
 10
48.8584729625
 20
-0.0751219979
 10
48.981408324
 20
-0.2729448159
 10
49.0996295503
 20
-0.4742610082
 10
49.2132464686
 20
-0.6793164008
 10
49.3220096426
 20
-0.8877489654
 10
49.4257185532
 20
-1.0993419954
 10
49.52447309
 20
-1.3145848092
 10
49.6180564936
 20
-1.5332714687
 10
49.7061299362
 20
-1.7549890661
 10
49.7885214986
 20
-1.9799163799
 10
49.8650083349
 20
-2.207937712
 10
49.9351794845
 20
-2.4384444169
 10
49.9985661986
 20
-2.6708504212
 10
50.0549154537
 20
-2.9048762545
 10
50.10390741
 20
-3.139957179
 10
50.1450592358
 20
-3.3750654319
 10
50.1781629715
 20
-3.6097985843
 10
50.2030207326
 20
-3.8436571642
 10
50.2193115021
 20
-4.0754935665
 10
50.2268993261
 20
-4.3046481842
 10
50.2257524223
 20
-4.5309202551
 10
50.2157997485
 20
-4.7538801817
  0
LWPOLYLINE
  5
4EA
100
AcDbEntity
  8
RACCORDO
100
AcDbPolyline
 62
250
  6
CONTINUOUS
 90
40
 70
0
 10
45.7038286048
 20
2.0641243015
 10
45.8785716816
 20
1.9726691328
 10
46.0487333206
 20
1.8758280006
 10
46.2143514063
 20
1.7736205659
 10
46.37469665
 20
1.6663916273
 10
46.5305710144
 20
1.553834102
 10
46.6843106523
 20
1.4349905509
 10
46.8369463437
 20
1.309355519
 10
46.9875237238
 20
1.1774741185
 10
47.1354005125
 20
1.0399643905
 10
47.280601391
 20
0.8968126634
 10
47.4231675178
 20
0.7480667776
 10
47.5624730468
 20
0.5944327442
 10
47.6985203728
 20
0.4359128406
 10
47.8313589614
 20
0.2725317035
 10
47.9604234294
 20
0.1050236188
 10
48.0856879613
 20
-0.0665636103
 10
48.2072142476
 20
-0.2422591689
 10
48.3245581116
 20
-0.4214494699
 10
48.4376839858
 20
-0.6040234209
 10
48.5466489701
 20
-0.7900809396
 10
48.6511405158
 20
-0.979328781
 10
48.7511858761
 20
-1.1716996849
 10
48.8467704215
 20
-1.3672543601
 10
48.9375138832
 20
-1.5658940556
 10
49.02352154
 20
-1.7677385006
 10
49.1046919468
 20
-1.9726659765
 10
49.1803273659
 20
-2.1802193915
 10
49.2505043501
 20
-2.3906759331
 10
49.315135189
 20
-2.6037642043
 10
49.373260971
 20
-2.8182119076
 10
49.4248190254
 20
-3.0341987692
 10
49.4698347
 20
-3.2515644323
 10
49.5074601139
 20
-3.4685373711
 10
49.537540848
 20
-3.6851823088
 10
49.5601660882
 20
-3.9014683764
 10
49.5748332
 20
-4.1154911221
 10
49.5813425858
 20
-4.3266323634
 10
49.5798073442
 20
-4.5355551735
 10
49.5701854051
 20
-4.7422813855
  0
LWPOLYLINE
  5
4EB
100
AcDbEntity
  8
RACCORDO
100
AcDbPolyline
 62
250
  6
CONTINUOUS
 90
14
 70
0
 10
27.2092032639
 20
12.1563970598
 10
27.6053952229
 20
11.9407780387
 10
28.0164640801
 20
11.7182409486
 10
28.4413756501
 20
11.4893624192
 10
28.8816588623
 20
11.2535090048
 10
29.3369877108
 20
11.0108568275
 10
29.8076882016
 20
10.7612297653
 10
30.2962672816
 20
10.5034660054
 10
30.8012273891
 20
10.2383371006
 10
31.3240660859
 20
9.9650714982
 10
31.8717830042
 20
9.6801927276
 10
32.446711355
 20
9.3825419652
 10
33.0465179273
 20
9.0732780347
 10
33.6712027211
 20
8.7524009359
  0
LWPOLYLINE
  5
4EC
100
AcDbEntity
  8
RACCORDO
100
AcDbPolyline
 62
250
  6
CONTINUOUS
 90
14
 70
0
 10
26.8753961185
 20
11.6910121059
 10
27.2716591346
 20
11.4746135947
 10
27.6827426708
 20
11.2513042323
 10
28.1076540751
 20
11.0216801321
 10
28.5478373295
 20
10.7850284935
 10
29.0030371454
 20
10.5415423022
 10
29.4736020765
 20
10.2910769745
 10
29.9618969983
 20
10.0324212076
 10
30.4664703006
 20
9.7663893342
 10
30.9888478356
 20
9.492205551
 10
31.5359011797
 20
9.2062943748
 10
32.1099685445
 20
8.9074887254
 10
32.7088367558
 20
8.5970205737
 10
33.3325878943
 20
8.2749325172
  0
LINE
  5
4ED
100
AcDbEntity
  8
RACCORDO
100
AcDbLine
 62
250
  6
CONTINUOUS
 10
26.1194744693
 20
12.1071287388
 11
26.8753961185
 21
11.6910121059
  0
LWPOLYLINE
  5
4EE
100
AcDbEntity
  8
RACCORDO
100
AcDbPolyline
 62
250
  6
CONTINUOUS
 90
3
 70
0
 10
26.090266744
 20
12.7720247418
 10
26.453715999
 20
12.57097412
 10
27.2092032639
 20
12.1563970598
  0
LINE
  5
4EF
100
AcDbEntity
  8
RACCORDO
100
AcDbLine
 62
250
  6
CONTINUOUS
 10
25.4010034143
 20
12.5069378277
 11
26.1194744693
 21
12.1071287388
  0
LINE
  5
4F0
100
AcDbEntity
  8
RACCORDO
100
AcDbLine
 62
250
  6
CONTINUOUS
 10
25.3849378216
 20
13.1653672691
 11
26.090266744
 21
12.7720247418
  0
LINE
  5
4F1
100
AcDbEntity
  8
RACCORDO
100
AcDbLine
 62
250
  6
CONTINUOUS
 10
24.7003243127
 20
12.9009107829
 11
25.4010034143
 21
12.5069378277
  0
LINE
  5
4F2
100
AcDbEntity
  8
RACCORDO
100
AcDbLine
 62
250
  6
CONTINUOUS
 10
24.6903843987
 20
13.5565376487
 11
25.3849378216
 21
13.1653672691
  0
LINE
  5
4F3
100
AcDbEntity
  8
RACCORDO
100
AcDbLine
 62
250
  6
CONTINUOUS
 10
24.0079413161
 20
13.2936389985
 11
24.7003243127
 21
12.9009107829
  0
LWPOLYLINE
  5
4F4
100
AcDbEntity
  8
RACCORDO
100
AcDbPolyline
 62
7
  6
CONTINUOUS
 90
4
 70
0
 10
-45.5055057911
 20
54.2519580319
 10
-45.4740202117
 20
54.2341304042
 10
-45.4590845675
 20
54.2255005619
 10
-45.4312604679
 20
54.2092297425
  0
LINE
  5
4F5
100
AcDbEntity
  8
RACCORDO
100
AcDbLine
 62
250
  6
CONTINUOUS
 10
23.997251564
 20
13.9499804886
 11
24.6903843987
 21
13.5565376487
  0
LINE
  5
4F6
100
AcDbEntity
  8
RACCORDO
100
AcDbLine
 62
250
  6
CONTINUOUS
 10
22.965013496
 20
13.8899340449
 11
24.0079413161
 21
13.2936389985
  0
LINE
  5
4F7
100
AcDbEntity
  8
RACCORDO
100
AcDbLine
 62
250
  6
CONTINUOUS
 10
22.9543441595
 20
14.5465326449
 11
23.997251564
 21
13.9499804886
  0
LINE
  5
4F8
100
AcDbEntity
  8
RACCORDO
100
AcDbLine
 62
7
  6
CONTINUOUS
 10
-45.4312604679
 20
54.2092297425
 11
-45.4183915144
 21
54.2018263019
  0
LINE
  5
4F9
100
AcDbEntity
  8
RACCORDO
100
AcDbLine
 62
250
  6
CONTINUOUS
 10
-14.4147189749
 20
36.1240158768
 11
-6.5584683481
 21
31.5909759598
  0
LINE
  5
4FA
100
AcDbEntity
  8
RACCORDO
100
AcDbLine
 62
250
  6
CONTINUOUS
 10
21.228417194
 20
14.8903486344
 11
22.965013496
 21
13.8899340449
  0
LINE
  5
4FB
100
AcDbEntity
  8
RACCORDO
100
AcDbLine
 62
250
  6
CONTINUOUS
 10
-3.8009267881
 20
29.3427110935
 11
9.2818969731
 21
21.7889300482
  0
LINE
  5
4FC
100
AcDbEntity
  8
RACCORDO
100
AcDbLine
 62
250
  6
CONTINUOUS
 10
9.2818969731
 20
21.7889300482
 11
18.4695856291
 21
16.484708332
  0
LINE
  5
4FD
100
AcDbEntity
  8
RACCORDO
100
AcDbLine
 62
250
  6
CONTINUOUS
 10
-29.9590123815
 20
44.4466133486
 11
-3.8009267881
 21
29.3427110935
  0
LINE
  5
4FE
100
AcDbEntity
  8
RACCORDO
100
AcDbLine
 62
250
  6
CONTINUOUS
 10
18.4695856291
 20
16.484708332
 11
21.228417194
 21
14.8903486344
  0
LINE
  5
4FF
100
AcDbEntity
  8
RACCORDO
100
AcDbLine
 62
250
  6
CONTINUOUS
 10
-2.9534117586
 20
29.5087074234
 11
9.6152438577
 21
22.2485428361
  0
LINE
  5
500
100
AcDbEntity
  8
RACCORDO
100
AcDbLine
 62
250
  6
CONTINUOUS
 10
-6.5584683481
 20
31.5909759598
 11
-2.9534117586
 21
29.5087074234
  0
LINE
  5
501
100
AcDbEntity
  8
RACCORDO
100
AcDbLine
 62
250
  6
CONTINUOUS
 10
9.6152438577
 20
22.2485428361
 11
19.4952294536
 21
16.5425986919
  0
LWPOLYLINE
  5
502
100
AcDbEntity
  8
RACCORDO
100
AcDbPolyline
 62
250
  6
CONTINUOUS
 90
3
 70
0
 10
19.4952294536
 20
16.5425986919
 10
20.5296253378
 20
15.9447924722
 10
22.9543441595
 20
14.5465326449
  0
LINE
  5
503
100
AcDbEntity
  8
RACCORDO
100
AcDbLine
 62
250
  6
CONTINUOUS
 10
-35.219584732
 20
47.4839451784
 11
-29.9590123815
 21
44.4466133486
  0
LINE
  5
504
100
AcDbEntity
  8
RACCORDO
100
AcDbLine
 62
250
  6
CONTINUOUS
 10
-34.9038006607
 20
47.9531373772
 11
-14.4147189749
 21
36.1240158768
  0
LINE
  5
505
100
AcDbEntity
  8
RACCORDO
100
AcDbLine
 62
250
  6
CONTINUOUS
 10
-36.2053365469
 20
48.057211448
 11
-35.219584732
 21
47.4839451784
  0
LINE
  5
506
100
AcDbEntity
  8
RACCORDO
100
AcDbLine
 62
250
  6
CONTINUOUS
 10
-35.8886859215
 20
48.5270417143
 11
-34.9038006607
 21
47.9531373772
  0
LINE
  5
507
100
AcDbEntity
  8
RACCORDO
100
AcDbLine
 62
250
  6
CONTINUOUS
 10
-36.8619962408
 20
48.4415523929
 11
-36.2053365469
 21
48.057211448
  0
LINE
  5
508
100
AcDbEntity
  8
RACCORDO
100
AcDbLine
 62
250
  6
CONTINUOUS
 10
-36.5444353081
 20
48.9118562038
 11
-35.8886859215
 21
48.5270417143
  0
LINE
  5
509
100
AcDbEntity
  8
RACCORDO
100
AcDbLine
 62
250
  6
CONTINUOUS
 10
-37.5173135444
 20
48.8278894797
 11
-36.8619962408
 21
48.4415523929
  0
LINE
  5
50A
100
AcDbEntity
  8
RACCORDO
100
AcDbLine
 62
250
  6
CONTINUOUS
 10
-37.1984396103
 20
49.2985906165
 11
-36.5444353081
 21
48.9118562038
  0
LINE
  5
50B
100
AcDbEntity
  8
RACCORDO
100
AcDbLine
 62
250
  6
CONTINUOUS
 10
-38.1680558644
 20
49.2149923878
 11
-37.5173135444
 21
48.8278894797
  0
LINE
  5
50C
100
AcDbEntity
  8
RACCORDO
100
AcDbLine
 62
250
  6
CONTINUOUS
 10
-37.8475817596
 20
49.685994363
 11
-37.1984396103
 21
49.2985906165
  0
LINE
  5
50D
100
AcDbEntity
  8
RACCORDO
100
AcDbLine
 62
250
  6
CONTINUOUS
 10
-38.8132199376
 20
49.6026415317
 11
-38.1680558644
 21
49.2149923878
  0
LINE
  5
50E
100
AcDbEntity
  8
RACCORDO
100
AcDbLine
 62
250
  6
CONTINUOUS
 10
-38.4911283445
 20
50.0738359925
 11
-37.8475817596
 21
49.685994363
  0
LINE
  5
50F
100
AcDbEntity
  8
RACCORDO
100
AcDbLine
 62
250
  6
CONTINUOUS
 10
-39.4515995206
 20
49.9899925861
 11
-38.8132199376
 21
49.6026415317
  0
LINE
  5
510
100
AcDbEntity
  8
RACCORDO
100
AcDbLine
 62
250
  6
CONTINUOUS
 10
-39.1280325073
 20
50.4615052678
 11
-38.4911283445
 21
50.0738359925
  0
LINE
  5
511
100
AcDbEntity
  8
RACCORDO
100
AcDbLine
 62
250
  6
CONTINUOUS
 10
-40.0920312177
 20
50.3821505693
 11
-39.4515995206
 21
49.9899925861
  0
LINE
  5
512
100
AcDbEntity
  8
RACCORDO
100
AcDbLine
 62
250
  6
CONTINUOUS
 10
-39.7672977494
 20
50.8541937055
 11
-39.1280325073
 21
50.4615052678
  0
LINE
  5
513
100
AcDbEntity
  8
RACCORDO
100
AcDbLine
 62
250
  6
CONTINUOUS
 10
-40.7410783935
 20
50.7830359599
 11
-40.0920312177
 21
50.3821505693
  0
LINE
  5
514
100
AcDbEntity
  8
RACCORDO
100
AcDbLine
 62
250
  6
CONTINUOUS
 10
-40.4154888056
 20
51.2558802272
 11
-39.7672977494
 21
50.8541937055
  0
LINE
  5
515
100
AcDbEntity
  8
RACCORDO
100
AcDbLine
 62
250
  6
CONTINUOUS
 10
-41.4118542404
 20
51.2007664533
 11
-40.7410783935
 21
50.7830359599
  0
LINE
  5
516
100
AcDbEntity
  8
RACCORDO
100
AcDbLine
 62
250
  6
CONTINUOUS
 10
-41.0857326359
 20
51.6746972612
 11
-40.4154888056
 21
51.2558802272
  0
LINE
  5
517
100
AcDbEntity
  8
RACCORDO
100
AcDbLine
 62
250
  6
CONTINUOUS
 10
-42.1127733788
 20
51.6407310688
 11
-41.4118542404
 21
51.2007664533
  0
LINE
  5
518
100
AcDbEntity
  8
RACCORDO
100
AcDbLine
 62
250
  6
CONTINUOUS
 10
-41.7862668281
 20
52.1160494049
 11
-41.0857326359
 21
51.6746972612
  0
LINE
  5
519
100
AcDbEntity
  8
RACCORDO
100
AcDbLine
 62
250
  6
CONTINUOUS
 10
-42.8476786442
 20
52.1055114203
 11
-42.1127733788
 21
51.6407310688
  0
LINE
  5
51A
100
AcDbEntity
  8
RACCORDO
100
AcDbLine
 62
250
  6
CONTINUOUS
 10
-42.5209576724
 20
52.5825031352
 11
-41.7862668281
 21
52.1160494049
  0
LINE
  5
51B
100
AcDbEntity
  8
RACCORDO
100
AcDbLine
 62
250
  6
CONTINUOUS
 10
-43.6197174434
 20
52.5972426805
 11
-42.8476786442
 21
52.1055114203
  0
LINE
  5
51C
100
AcDbEntity
  8
RACCORDO
100
AcDbLine
 62
250
  6
CONTINUOUS
 10
-43.2928766428
 20
53.0762372776
 11
-42.5209576724
 21
52.5825031352
  0
LINE
  5
51D
100
AcDbEntity
  8
RACCORDO
100
AcDbLine
 62
250
  6
CONTINUOUS
 10
-44.4296282885
 20
53.1164629855
 11
-43.6197174434
 21
52.5972426805
  0
LINE
  5
51E
100
AcDbEntity
  8
RACCORDO
100
AcDbLine
 62
250
  6
CONTINUOUS
 10
-44.102657143
 20
53.5978651779
 11
-43.2928766428
 21
53.0762372776
  0
LINE
  5
51F
100
AcDbEntity
  8
RACCORDO
100
AcDbLine
 62
250
  6
CONTINUOUS
 10
-45.2776315118
 20
53.6634822609
 11
-44.4296282885
 21
53.1164629855
  0
LINE
  5
520
100
AcDbEntity
  8
RACCORDO
100
AcDbLine
 62
250
  6
CONTINUOUS
 10
-44.9506338057
 20
54.1476639834
 11
-44.102657143
 21
53.5978651779
  0
LINE
  5
521
100
AcDbEntity
  8
RACCORDO
100
AcDbLine
 62
250
  6
CONTINUOUS
 10
-47.2848652051
 20
54.9742778315
 11
-45.887318629
 21
54.0624266636
  0
LINE
  5
522
100
AcDbEntity
  8
RACCORDO
100
AcDbLine
 62
250
  6
CONTINUOUS
 10
-46.6176826769
 20
55.2422839203
 11
-45.4732977645
 21
54.4919781509
  0
LWPOLYLINE
  5
523
100
AcDbEntity
  8
RACCORDO
100
AcDbPolyline
 62
7
  6
CONTINUOUS
 90
16
 70
0
 10
-40.8741129226
 20
56.4373304169
 10
-40.8855477945
 20
56.4448657922
 10
-40.8960445555
 20
56.4537892097
 10
-40.9055493164
 20
56.4640506242
 10
-40.9140190071
 20
56.4755982891
 10
-40.921404845
 20
56.4883627055
 10
-40.9276562878
 20
56.5022527641
 10
-40.9327393084
 20
56.5171653587
 10
-40.9366433878
 20
56.5330335068
 10
-40.9393553437
 20
56.5498176906
 10
-40.9408571501
 20
56.5674566338
 10
-40.9411321029
 20
56.5858331441
 10
-40.9401721431
 20
56.6048221696
 10
-40.9379821521
 20
56.6243098363
 10
-40.9345749765
 20
56.6441969106
 10
-40.9299687932
 20
56.6643729612
  0
LINE
  5
524
100
AcDbEntity
  8
RACCORDO
100
AcDbLine
 62
250
  6
CONTINUOUS
 10
-48.8337837321
 20
55.9931961022
 11
-47.2848652051
 21
54.9742778315
  0
LINE
  5
525
100
AcDbEntity
  8
RACCORDO
100
AcDbLine
 62
250
  6
CONTINUOUS
 10
-47.9199135542
 20
56.1029372398
 11
-46.6176826769
 21
55.2422839203
  0
LINE
  5
526
100
AcDbEntity
  8
RACCORDO
100
AcDbLine
 62
250
  6
CONTINUOUS
 10
-50.4724184675
 20
57.0789583295
 11
-48.8337837321
 21
55.9931961022
  0
LINE
  5
527
100
AcDbEntity
  8
RACCORDO
100
AcDbLine
 62
250
  6
CONTINUOUS
 10
-49.2407076019
 20
56.9823720548
 11
-47.9199135542
 21
56.1029372398
  0
LINE
  5
528
100
AcDbEntity
  8
RACCORDO
100
AcDbLine
 62
250
  6
CONTINUOUS
 10
-51.9886886066
 20
58.089772384
 11
-50.4724184675
 21
57.0789583295
  0
LINE
  5
529
100
AcDbEntity
  8
RACCORDO
100
AcDbLine
 62
250
  6
CONTINUOUS
 10
-53.6792388625
 20
59.2231048673
 11
-51.9886886066
 21
58.089772384
  0
LINE
  5
52A
100
AcDbEntity
  8
RACCORDO
100
AcDbLine
 62
250
  6
CONTINUOUS
 10
-50.6714912043
 20
57.9415196652
 11
-49.2407076019
 21
56.9823720548
  0
LINE
  5
52B
100
AcDbEntity
  8
RACCORDO
100
AcDbLine
 62
250
  6
CONTINUOUS
 10
-54.4097385776
 20
59.7147363405
 11
-53.6792388625
 21
59.2231048673
  0
LINE
  5
52C
100
AcDbEntity
  8
RACCORDO
100
AcDbLine
 62
250
  6
CONTINUOUS
 10
-51.9269551455
 20
58.7881639789
 11
-50.6714912043
 21
57.9415196652
  0
LWPOLYLINE
  5
52D
100
AcDbEntity
  8
RACCORDO
100
AcDbPolyline
 62
7
  6
CONTINUOUS
 90
15
 70
0
 10
-40.7849975342
 20
56.383187131
 10
-40.6986071597
 20
56.3247002679
 10
-40.6150160159
 20
56.2619186957
 10
-40.5342874944
 20
56.1948892023
 10
-40.4564996717
 20
56.1236740929
 10
-40.3817438247
 20
56.0483532147
 10
-40.3100824997
 20
55.9689920469
 10
-40.2415763669
 20
55.8856610103
 10
-40.1763068915
 20
55.7984569178
 10
-40.1143387093
 20
55.7074765217
 10
-40.0557089401
 20
55.6127860461
 10
-40.0004554466
 20
55.5144394507
 10
-39.9486234657
 20
55.4125105219
 10
-39.9002614535
 20
55.3070975947
 10
-39.8951709838
 20
55.2947481997
  0
LINE
  5
52E
100
AcDbEntity
  8
RACCORDO
100
AcDbLine
 62
250
  6
CONTINUOUS
 10
-53.2991097266
 20
59.7184446896
 11
-51.9269551455
 21
58.7881639789
  0
LINE
  5
52F
100
AcDbEntity
  8
RACCORDO
100
AcDbLine
 62
250
  6
CONTINUOUS
 10
-54.802220208
 20
60.7428633374
 11
-53.2991097266
 21
59.7184446896
  0
LINE
  5
530
100
AcDbEntity
  8
RACCORDO
100
AcDbLine
 62
250
  6
CONTINUOUS
 10
-55.6095120665
 20
61.2951127017
 11
-54.802220208
 21
60.7428633374
  0
LWPOLYLINE
  5
531
100
AcDbEntity
  8
RACCORDO
100
AcDbPolyline
 62
250
  6
CONTINUOUS
 90
10
 70
0
 10
4.6677105589
 20
30.135718248
 10
4.6660248207
 20
30.1373364001
 10
4.6643095334
 20
30.1389115091
 10
4.6625649974
 20
30.1404432993
 10
4.6607915181
 20
30.1419315024
 10
4.6589894061
 20
30.143375858
 10
4.6571589768
 20
30.1447761131
 10
4.6553005507
 20
30.1461320225
 10
4.6534144533
 20
30.1474433489
 10
4.6515010147
 20
30.1487098627
  0
LWPOLYLINE
  5
532
100
AcDbEntity
  8
RACCORDO
100
AcDbPolyline
 62
250
  6
CONTINUOUS
 90
10
 70
0
 10
5.023005452
 20
29.9305750272
 10
5.0213195655
 20
29.9321933635
 10
5.0196041762
 20
29.9337686007
 10
5.0178595873
 20
29.9353004668
 10
5.0160861257
 20
29.9367886824
 10
5.0142840864
 20
29.9382330071
 10
5.0124537295
 20
29.9396332354
 10
5.010595356
 20
29.9409891362
 10
5.0087093101
 20
29.942300457
 10
5.0067959222
 20
29.9435669685
  0
LINE
  5
533
100
AcDbEntity
  8
RACCORDO
100
AcDbLine
 62
250
  6
CONTINUOUS
 10
4.6505255411
 20
30.1310585776
 11
4.6597968355
 21
30.1219560163
  0
LWPOLYLINE
  5
534
100
AcDbEntity
  8
RACCORDO
100
AcDbPolyline
 62
250
  6
CONTINUOUS
 90
9
 70
0
 10
4.6597968355
 20
30.1219560163
 10
4.6701242023
 20
30.1116695177
 10
4.6756779349
 20
30.1060652218
 10
4.6815010542
 20
30.1001325432
 10
4.6875877462
 20
30.0938661459
 10
4.6939348021
 20
30.0872584282
 10
4.7005554519
 20
30.0802861243
 10
4.7074431117
 20
30.0729429053
 10
4.714593691
 20
30.0652201251
  0
LWPOLYLINE
  5
535
100
AcDbEntity
  8
RACCORDO
100
AcDbPolyline
 62
250
  6
CONTINUOUS
 90
31
 70
0
 10
5.6618471893
 20
29.44300527
 10
5.6431580981
 20
29.4620080135
 10
5.6247056088
 20
29.4803928548
 10
5.6065012219
 20
29.4981740585
 10
5.5885662995
 20
29.5153546171
 10
5.570901516
 20
29.5319594218
 10
5.5534859898
 20
29.5480340335
 10
5.5363281289
 20
29.5635914078
 10
5.5194377175
 20
29.578642269
 10
5.5027940453
 20
29.5932264152
 10
5.4864039921
 20
29.6073550544
 10
5.4702758821
 20
29.6210373092
 10
5.4543896278
 20
29.6343078283
 10
5.438750946
 20
29.6471762583
 10
5.4233668678
 20
29.6596504317
 10
5.4082180247
 20
29.6717605982
 10
5.3933092395
 20
29.6835150415
 10
5.3786464145
 20
29.6949205311
 10
5.3642107863
 20
29.7060036585
 10
5.3500064014
 20
29.7167715806
 10
5.3360382684
 20
29.7272301303
 10
5.3222882504
 20
29.7374027738
 10
5.3087597932
 20
29.7472957022
 10
5.2954571253
 20
29.7569139605
 10
5.2823626333
 20
29.7662783727
 10
5.2694792215
 20
29.7753943591
 10
5.2568105197
 20
29.7842662514
 10
5.2443394967
 20
29.7929125145
 10
5.2320684405
 20
29.8013380458
 10
5.2200006617
 20
29.8095464559
 10
5.1964290933
 20
29.8253644216
  0
LWPOLYLINE
  5
536
100
AcDbEntity
  8
RACCORDO
100
AcDbPolyline
 62
250
  6
CONTINUOUS
 90
9
 70
0
 10
5.0230054515
 20
29.9305750275
 10
5.1280241667
 20
29.8216273005
 10
5.2274242499
 20
29.7048143098
 10
5.3210325121
 20
29.5802717133
 10
5.4087263345
 20
29.4480812361
 10
5.4902982362
 20
29.3084644777
 10
5.565486156
 20
29.1618173801
 10
5.6341561185
 20
29.0084023283
 10
5.6350144935
 20
29.0061897323
  0
LWPOLYLINE
  5
537
100
AcDbEntity
  8
RACCORDO
100
AcDbPolyline
 62
250
  6
CONTINUOUS
 90
3
 70
0
 10
4.8733834889
 20
29.8898893402
 10
4.8851754173
 20
29.8775001669
 10
4.8960116614
 20
29.864300672
  0
LINE
  5
538
100
AcDbEntity
  8
RACCORDO
100
AcDbLine
 62
250
  6
CONTINUOUS
 10
4.773310933
 20
30.0240403422
 11
4.6677105591
 21
30.135718248
  0
LINE
  5
539
100
AcDbEntity
  8
RACCORDO
100
AcDbLine
 62
7
  6
CONTINUOUS
 10
4.6848435696
 20
30.1073662668
 11
4.6847314917
 21
30.1074861415
  0
LINE
  5
53A
100
AcDbEntity
  8
RACCORDO
100
AcDbLine
 62
250
  6
CONTINUOUS
 10
4.6847314917
 20
30.1074861415
 11
4.6766305728
 21
30.1161872984
  0
LWPOLYLINE
  5
53B
100
AcDbEntity
  8
RACCORDO
100
AcDbPolyline
 62
7
  6
CONTINUOUS
 90
3
 70
0
 10
4.6848439037
 20
30.1073659091
 10
4.704807017
 20
30.0857121472
 10
4.8035977871
 20
29.9691151808
  0
LINE
  5
53C
100
AcDbEntity
  8
RACCORDO
100
AcDbLine
 62
250
  6
CONTINUOUS
 10
4.6766305728
 20
30.1161872984
 11
4.673465434
 21
30.1196236614
  0
LWPOLYLINE
  5
53D
100
AcDbEntity
  8
RACCORDO
100
AcDbPolyline
 62
250
  6
CONTINUOUS
 90
7
 70
0
 10
4.714593691
 20
30.0652201251
 10
4.7220231598
 20
30.0570896749
 10
4.7297239642
 20
30.0485440935
 10
4.7376909859
 20
30.0395734755
 10
4.7459426157
 20
30.0301443944
 10
4.7544700643
 20
30.0202480961
 10
4.7632670264
 20
30.0098731606
  0
LWPOLYLINE
  5
53E
100
AcDbEntity
  8
RACCORDO
100
AcDbPolyline
 62
250
  6
CONTINUOUS
 90
38
 70
0
 10
4.673465434
 20
30.1196236614
 10
4.670619269
 20
30.122747821
 10
4.6693155187
 20
30.1241944534
 10
4.6680913119
 20
30.125564828
 10
4.6669447131
 20
30.1268612415
 10
4.6658765386
 20
30.1280831894
 10
4.6648861419
 20
30.1292317682
 10
4.663969335
 20
30.1303115972
 10
4.663126409
 20
30.1313225921
 10
4.6623571704
 20
30.1322652936
 10
4.6616566877
 20
30.1331452163
 10
4.6610245964
 20
30.1339629813
 10
4.6604613432
 20
30.1347183498
 10
4.6599632235
 20
30.1354155354
 10
4.6595298781
 20
30.1360552121
 10
4.6591617403
 20
30.1366370372
 10
4.6588562887
 20
30.1371636783
 10
4.6586135654
 20
30.1376352716
 10
4.6584335548
 20
30.1380519275
 10
4.658313621
 20
30.1384162326
 10
4.658253805
 20
30.1387281388
 10
4.6582540354
 20
30.1389878455
 10
4.6583114875
 20
30.1391982766
 10
4.6584255765
 20
30.1393597151
 10
4.658596824
 20
30.139471962
 10
4.6588241035
 20
30.1395372577
 10
4.6591040109
 20
30.1395576785
 10
4.6594399262
 20
30.1395312576
 10
4.6598411622
 20
30.139454498
 10
4.660300922
 20
30.1393334038
 10
4.6608264091
 20
30.1391626298
 10
4.6614485531
 20
30.1389224655
 10
4.6621636731
 20
30.1386193747
 10
4.662976755
 20
30.1382487957
 10
4.6639324421
 20
30.1377754605
 10
4.6650464146
 20
30.1371887911
 10
4.6663050604
 20
30.1365024515
 10
4.6677094215
 20
30.135718044
  0
LWPOLYLINE
  5
53F
100
AcDbEntity
  8
RACCORDO
100
AcDbPolyline
 62
250
  6
CONTINUOUS
 90
8
 70
0
 10
4.7632670264
 20
30.0098731606
 10
4.7723540997
 20
29.9989801761
 10
4.7817209872
 20
29.9875588918
 10
4.7913599492
 20
29.9755960925
 10
4.8012935509
 20
29.9630455382
 10
4.8115217493
 20
29.9498822038
 10
4.8220227525
 20
29.9361034964
 10
4.832785168
 20
29.9216952905
  0
LINE
  5
540
100
AcDbEntity
  8
RACCORDO
100
AcDbLine
 62
250
  6
CONTINUOUS
 10
4.8726899518
 20
29.9040673924
 11
4.773310933
 21
30.0240403422
  0
LINE
  5
541
100
AcDbEntity
  8
RACCORDO
100
AcDbLine
 62
250
  6
CONTINUOUS
 10
4.8960116614
 20
29.864300672
 11
4.8986486969
 21
29.8607676334
  0
LINE
  5
542
100
AcDbEntity
  8
RACCORDO
100
AcDbLine
 62
7
  6
CONTINUOUS
 10
4.8035977871
 20
29.9691151808
 11
4.8958175594
 21
29.8439825923
  0
LINE
  5
543
100
AcDbEntity
  8
RACCORDO
100
AcDbLine
 62
7
  6
CONTINUOUS
 10
4.8986486969
 20
29.8607676334
 11
4.8986946226
 21
29.8607048481
  0
LWPOLYLINE
  5
544
100
AcDbEntity
  8
RACCORDO
100
AcDbPolyline
 62
7
  6
CONTINUOUS
 90
6
 70
0
 10
4.8958175594
 20
29.8439825923
 10
4.9813042066
 20
29.7107233123
 10
5.0600386558
 20
29.5695839129
 10
5.1321022259
 20
29.4205893134
 10
5.197385485
 20
29.2640511616
 10
5.199712578
 20
29.2575276027
  0
LWPOLYLINE
  5
545
100
AcDbEntity
  8
RACCORDO
100
AcDbPolyline
 62
250
  6
CONTINUOUS
 90
10
 70
0
 10
41.7712766418
 20
-62.5482028721
 10
41.7784818422
 20
-62.5695465155
 10
41.7873375442
 20
-62.5901336712
 10
41.7978426447
 20
-62.6098759849
 10
41.8099922097
 20
-62.6286870718
 10
41.8237751137
 20
-62.6464825954
 10
41.8391740911
 20
-62.6631804867
 10
41.8561998719
 20
-62.6787214444
 10
41.8747978811
 20
-62.6930093975
 10
41.8948400055
 20
-62.7059216166
  0
LWPOLYLINE
  5
546
100
AcDbEntity
  8
RACCORDO
100
AcDbPolyline
 62
7
  6
CONTINUOUS
 90
10
 70
0
 10
32.0512676224
 20
1.7420863053
 10
32.1419754477
 20
2.277564879
 10
32.2371198621
 20
2.8189743828
 10
32.3367008655
 20
3.3663148165
 10
32.4406353878
 20
3.9194190027
 10
32.5490064991
 20
4.478454119
 10
32.6620634106
 20
5.0439216974
 10
32.7798891927
 20
5.6159889153
 10
32.9024007749
 20
6.1944885954
 10
33.0309943354
 20
6.7859381513
  0
LINE
  5
547
100
AcDbEntity
  8
RACCORDO
100
AcDbLine
 62
7
  6
CONTINUOUS
 10
33.0937470454
 20
7.2368074548
 11
33.1982208869
 21
7.6965308976
  0
LWPOLYLINE
  5
548
100
AcDbEntity
  8
RACCORDO
100
AcDbPolyline
 62
7
  6
CONTINUOUS
 90
3
 70
0
 10
33.1982208869
 20
7.6965308976
 10
33.305376764
 20
8.1589136503
 10
33.3325872556
 20
8.2749294934
  0
LINE
  5
549
100
AcDbEntity
  8
RACCORDO
100
AcDbLine
 62
7
  6
CONTINUOUS
 10
33.9885307076
 20
8.3514786029
 11
33.9858576676
 21
8.340385604
  0
LWPOLYLINE
  5
54A
100
AcDbEntity
  8
RACCORDO
100
AcDbPolyline
 62
250
  6
CONTINUOUS
 90
19
 70
0
 10
46.0159854713
 20
2.61782409
 10
45.9911888398
 20
2.5991289302
 10
45.9665755788
 20
2.5781486198
 10
45.9422914327
 20
2.555007392
 10
45.9184801968
 20
2.5298422753
 10
45.8952828668
 20
2.5028022831
 10
45.8728368039
 20
2.4740475316
 10
45.8512749194
 20
2.4437482897
 10
45.8307248888
 20
2.4120839711
 10
45.8113083969
 20
2.3792420744
 10
45.7931404154
 20
2.3454170695
 10
45.7763285226
 20
2.3108092473
 10
45.7609722676
 20
2.2756235349
 10
45.7471625794
 20
2.2400682804
 10
45.7349812289
 20
2.2043540195
 10
45.7245003454
 20
2.1686922298
 10
45.7157819885
 20
2.1332940776
 10
45.7088777814
 20
2.0983691674
 10
45.7038286048
 20
2.0641243015
  0
LINE
  5
54B
100
AcDbEntity
  8
RACCORDO
100
AcDbLine
 62
250
  6
CONTINUOUS
 10
50.2157997485
 20
-4.7538801817
 11
60.5953548432
 21
1.2391249721
  0
LINE
  5
54C
100
AcDbEntity
  8
0
100
AcDbLine
 62
250
  6
CONTINUOUS
 10
60.5953548432
 20
-0.9659559562
 11
61.1539925992
 21
-0.6434055173
  0
LWPOLYLINE
  5
54D
100
AcDbEntity
  8
RACCORDO
100
AcDbPolyline
 62
250
  6
CONTINUOUS
 90
7
 70
0
 10
5.8647605844
 20
29.2660715376
 10
5.880611786
 20
29.266483183
 10
5.8962184191
 20
29.2672723552
 10
5.9115437138
 20
29.2684265221
 10
5.9265503611
 20
29.2699313781
 10
5.9412006273
 20
29.2717708153
 10
5.9458087848
 20
29.2724677632
  0
LWPOLYLINE
  5
54E
100
AcDbEntity
  8
RACCORDO
100
AcDbPolyline
 62
250
  6
CONTINUOUS
 90
14
 70
0
 10
5.8647657265
 20
29.2660687241
 10
5.850074738
 20
29.2665451737
 10
5.8358790346
 20
29.2677575918
 10
5.8222602799
 20
29.269641076
 10
5.8094513209
 20
29.2721526911
 10
5.7973657998
 20
29.2751790528
 10
5.7855699837
 20
29.2785957374
 10
5.7740379948
 20
29.2823432739
 10
5.7628365651
 20
29.2864183824
 10
5.751635764
 20
29.2908599279
 10
5.7403565361
 20
29.295698953
 10
5.7291102156
 20
29.30090441
 10
5.7178417483
 20
29.3064591862
 10
5.7065281347
 20
29.3123857021
  0
LWPOLYLINE
  5
54F
100
AcDbEntity
  8
RACCORDO
100
AcDbPolyline
 62
7
  6
CONTINUOUS
 90
6
 70
0
 10
-54.5236431527
 20
50.7177736846
 10
-54.5271953067
 20
50.7192169126
 10
-54.5287398738
 20
50.7199696545
 10
-54.5283453083
 20
50.7197268323
 10
-54.5261804308
 20
50.7182604867
 10
-54.523764011
 20
50.7164504785
  0
LWPOLYLINE
  5
550
100
AcDbEntity
  8
RACCORDO
100
AcDbPolyline
 62
250
  6
CONTINUOUS
 90
10
 70
0
 10
5.6618471936
 20
29.4430052848
 10
5.6491065176
 20
29.4489839862
 10
5.6356823907
 20
29.4539426411
 10
5.621630923
 20
29.4578605244
 10
5.6070108476
 20
29.4607212611
 10
5.5918832722
 20
29.4625128954
 10
5.5763114233
 20
29.4632279397
 10
5.5603603865
 20
29.4628634055
 10
5.5440968339
 20
29.4614208168
 10
5.5275887431
 20
29.4589062035
  0
LWPOLYLINE
  5
551
100
AcDbEntity
  8
RACCORDO
100
AcDbPolyline
 62
7
  6
CONTINUOUS
 90
4
 70
0
 10
-45.5551794343
 20
54.2790151221
 10
-45.5383507243
 20
54.2700873963
 10
-45.5217737137
 20
54.2610383413
 10
-45.5055057911
 20
54.2519580319
  0
LWPOLYLINE
  5
552
100
AcDbEntity
  8
RACCORDO
100
AcDbPolyline
 62
250
  6
CONTINUOUS
 90
18
 70
0
 10
5.7065281347
 20
29.3123857021
 10
5.695223356
 20
29.3186692701
 10
5.6839809834
 20
29.3252416968
 10
5.6728345864
 20
29.3320955647
 10
5.6617835216
 20
29.3392398965
 10
5.6508240005
 20
29.346632398
 10
5.6400087738
 20
29.3542675478
 10
5.6293305484
 20
29.3621602595
 10
5.6186951391
 20
29.3703149288
 10
5.608169761
 20
29.3787563461
 10
5.5977793497
 20
29.387493017
 10
5.5873743958
 20
29.3965392638
 10
5.5771015451
 20
29.4059435679
 10
5.5670213102
 20
29.4157101584
 10
5.5568645859
 20
29.4258547752
 10
5.5466673783
 20
29.4364318897
 10
5.5368166843
 20
29.4474524687
 10
5.5151711084
 20
29.4742189271
  0
LINE
  5
553
100
AcDbEntity
  8
RACCORDO
100
AcDbLine
 62
250
  6
CONTINUOUS
 10
-38.5634207505
 20
54.9776386576
 11
-38.5147459567
 21
54.9500164898
  0
LWPOLYLINE
  5
554
100
AcDbEntity
  8
RACCORDO
100
AcDbPolyline
 62
250
  6
CONTINUOUS
 90
23
 70
0
 10
4.6515010147
 20
30.1487098628
 10
4.6458253493
 20
30.1519703595
 10
4.6406437688
 20
30.1549100503
 10
4.6359558247
 20
30.1575281877
 10
4.6317446924
 20
30.1598308953
 10
4.628025336
 20
30.1618089536
 10
4.624844743
 20
30.1634381927
 10
4.6222414956
 20
30.1646930093
 10
4.6201740019
 20
30.1655940269
 10
4.6185692357
 20
30.166186836
 10
4.6174259041
 20
30.1664696903
 10
4.6167419783
 20
30.1664388933
 10
4.6164437569
 20
30.166137835
 10
4.6165213396
 20
30.1655693784
 10
4.616981111
 20
30.164724972
 10
4.6177740679
 20
30.1636313512
 10
4.6188915535
 20
30.1622900611
 10
4.6203384065
 20
30.1606934662
 10
4.6220859387
 20
30.1588546752
 10
4.6241273452
 20
30.156773536
 10
4.6264651686
 20
30.1544435053
 10
4.6290846486
 20
30.1518679863
 10
4.6505255411
 20
30.1310585776
  0
LINE
  5
555
100
AcDbEntity
  8
DRAFT
100
AcDbLine
 62
7
  6
CONTINUOUS
 10
-41.7279333531
 20
56.1406302848
 11
37.008406732
 21
10.6792543177
  0
LINE
  5
556
100
AcDbEntity
  8
ASSI
100
AcDbLine
 62
7
  6
CONTINUOUS
 10
-40.9371520547
 20
55.8963750109
 11
37.4761558941
 21
10.6215137508
  0
LINE
  5
557
100
AcDbEntity
  8
RACCORDO
100
AcDbLine
 62
7
  6
CONTINUOUS
 10
-38.4985149872
 20
54.9340405366
 11
4.8345317431
 21
29.9141051995
  0
LINE
  5
558
100
AcDbEntity
  8
RACCORDO
100
AcDbLine
 62
7
  6
CONTINUOUS
 10
36.8733907194
 20
11.4152695677
 11
5.7125997397
 21
29.407119743
  0
LINE
  5
559
100
AcDbEntity
  8
RACCORDO
100
AcDbLine
 62
250
  6
CONTINUOUS
 10
-38.5147459567
 20
54.9500164898
 11
4.8327852252
 21
29.9216952575
  0
LINE
  5
55A
100
AcDbEntity
  8
RACCORDO
100
AcDbLine
 62
250
  6
CONTINUOUS
 10
5.6618471537
 20
29.4430052905
 11
36.8471415578
 21
11.4370071451
  0
LINE
  5
55B
100
AcDbEntity
  8
RACCORDO
100
AcDbLine
 62
250
  6
CONTINUOUS
 10
4.6677105591
 20
30.135718248
 11
5.0230054515
 21
29.9305750275
  0
LINE
  5
55C
100
AcDbEntity
  8
RACCORDO
100
AcDbLine
 62
7
  6
CONTINUOUS
 10
37.9462100125
 20
10.9274638048
 11
-40.8741129226
 21
56.4373304169
  0
LINE
  5
55D
100
AcDbEntity
  8
RACCORDO
100
AcDbLine
 62
250
  6
CONTINUOUS
 10
38.4853641817
 20
11.2032069147
 11
-40.8660394452
 21
57.0197128622
  0
LWPOLYLINE
  5
55E
100
AcDbEntity
  8
RACCORDO
100
AcDbPolyline
 62
7
  6
CONTINUOUS
 90
17
 70
0
 10
36.8734053952
 20
11.4152610958
 10
36.9034122616
 20
11.3977378571
 10
36.9489743856
 20
11.3704055008
 10
36.9974557076
 20
11.3404208364
 10
37.0485920698
 20
11.3078636086
 10
37.1019090149
 20
11.2729457346
 10
37.1571064918
 20
11.2357558702
 10
37.2139026025
 20
11.1963861156
 10
37.2718026249
 20
11.155077795
 10
37.3304993556
 20
11.1119329411
 10
37.389619899
 20
11.0671036045
 10
37.4485850521
 20
11.0209170819
 10
37.5070990756
 20
10.9734915927
 10
37.5648389519
 20
10.9249608569
 10
37.6212329482
 20
10.8757034517
 10
37.676030725
 20
10.8258452452
 10
37.7223825254
 20
10.7817783846
  0
LINE
  5
55F
100
AcDbEntity
  8
RACCORDO
100
AcDbLine
 62
250
  6
CONTINUOUS
 10
5.0196864739
 20
29.9360550411
 11
5.0067959222
 21
29.9435669685
  0
LINE
  5
560
100
AcDbEntity
  8
RACCORDO
100
AcDbLine
 62
250
  6
CONTINUOUS
 10
36.8983490081
 20
11.4069407332
 11
36.8471415578
 21
11.4370071451
  0
LWPOLYLINE
  5
561
100
AcDbEntity
  8
RACCORDO
100
AcDbPolyline
 62
250
  6
CONTINUOUS
 90
10
 70
0
 10
5.0230046905
 20
29.9305750761
 10
5.0246359929
 20
29.9296106817
 10
5.0263570977
 20
29.9285703974
 10
5.028167493
 20
29.9274536271
 10
5.0300581496
 20
29.9262644095
 10
5.0320369835
 20
29.9249973297
 10
5.0341292795
 20
29.9236381606
 10
5.0363439858
 20
29.9221820369
 10
5.0386719273
 20
29.9206337385
 10
5.0411115508
 20
29.9189940277
  0
LWPOLYLINE
  5
562
100
AcDbEntity
  8
RACCORDO
100
AcDbPolyline
 62
250
  6
CONTINUOUS
 90
7
 70
0
 10
5.712558425
 20
29.4071435996
 10
5.7033861289
 20
29.4125856478
 10
5.6940024138
 20
29.4184866263
 10
5.6851214867
 20
29.4244652265
 10
5.6768113782
 20
29.4305192665
 10
5.669045949
 20
29.4366928431
 10
5.6618471537
 20
29.4430052905
  0
LINE
  5
563
100
AcDbEntity
  8
RACCORDO
100
AcDbLine
 62
250
  6
CONTINUOUS
 10
5.0347871109
 20
29.9271178943
 11
5.0196864739
 21
29.9360550411
  0
LWPOLYLINE
  5
564
100
AcDbEntity
  8
RACCORDO
100
AcDbPolyline
 62
7
  6
CONTINUOUS
 90
4
 70
0
 10
4.834535791
 20
29.9141025241
 10
4.8405395085
 20
29.9105295746
 10
4.8492197961
 20
29.9049691784
 10
4.8526149776
 20
29.9026039786
  0
LINE
  5
565
100
AcDbEntity
  8
RACCORDO
100
AcDbLine
 62
250
  6
CONTINUOUS
 10
5.0518785591
 20
29.9168716861
 11
5.0347871109
 21
29.9271178943
  0
LINE
  5
566
100
AcDbEntity
  8
RACCORDO
100
AcDbLine
 62
250
  6
CONTINUOUS
 10
36.9510400854
 20
11.3750011379
 11
36.8983490081
 21
11.4069407332
  0
LINE
  5
567
100
AcDbEntity
  8
RACCORDO
100
AcDbLine
 62
250
  6
CONTINUOUS
 10
5.070170671
 20
29.9057683467
 11
5.0518785591
 21
29.9168716861
  0
LINE
  5
568
100
AcDbEntity
  8
RACCORDO
100
AcDbLine
 62
250
  6
CONTINUOUS
 10
5.0893925149
 20
29.8939588365
 11
5.070170671
 21
29.9057683467
  0
LINE
  5
569
100
AcDbEntity
  8
RACCORDO
100
AcDbLine
 62
250
  6
CONTINUOUS
 10
5.1094008762
 20
29.8815082498
 11
5.0893925149
 21
29.8939588365
  0
LINE
  5
56A
100
AcDbEntity
  8
RACCORDO
100
AcDbLine
 62
250
  6
CONTINUOUS
 10
5.1301039694
 20
29.8684538203
 11
5.1094008762
 21
29.8815082498
  0
LINE
  5
56B
100
AcDbEntity
  8
RACCORDO
100
AcDbLine
 62
250
  6
CONTINUOUS
 10
5.1515074392
 20
29.8547666971
 11
5.1301039694
 21
29.8684538203
  0
LINE
  5
56C
100
AcDbEntity
  8
RACCORDO
100
AcDbLine
 62
250
  6
CONTINUOUS
 10
5.1736092957
 20
29.840418183
 11
5.1515074392
 21
29.8547666971
  0
LINE
  5
56D
100
AcDbEntity
  8
RACCORDO
100
AcDbLine
 62
250
  6
CONTINUOUS
 10
5.1964290933
 20
29.8253644216
 11
5.1736092957
 21
29.840418183
  0
LINE
  5
56E
100
AcDbEntity
  8
RACCORDO
100
AcDbLine
 62
250
  6
CONTINUOUS
 10
4.8327851726
 20
29.9216953062
 11
4.8442199269
 21
29.9139951845
  0
LWPOLYLINE
  5
56F
100
AcDbEntity
  8
RACCORDO
100
AcDbPolyline
 62
250
  6
CONTINUOUS
 90
3
 70
0
 10
36.8733907194
 20
11.4152695677
 10
36.8607594347
 20
11.4239097502
 10
36.8471415578
 20
11.4370071451
  0
LINE
  5
570
100
AcDbEntity
  8
RACCORDO
100
AcDbLine
 62
250
  6
CONTINUOUS
 10
5.0411115508
 20
29.9189940277
 11
5.0463184467
 21
29.9154442941
  0
LINE
  5
571
100
AcDbEntity
  8
RACCORDO
100
AcDbLine
 62
250
  6
CONTINUOUS
 10
5.0463184467
 20
29.9154442941
 11
5.0519973925
 21
29.9115062092
  0
LINE
  5
572
100
AcDbEntity
  8
RACCORDO
100
AcDbLine
 62
250
  6
CONTINUOUS
 10
5.0519973925
 20
29.9115062092
 11
5.0581557237
 21
29.907171022
  0
LINE
  5
573
100
AcDbEntity
  8
RACCORDO
100
AcDbLine
 62
250
  6
CONTINUOUS
 10
5.0581557237
 20
29.907171022
 11
5.0647981099
 21
29.9024294687
  0
LINE
  5
574
100
AcDbEntity
  8
RACCORDO
100
AcDbLine
 62
250
  6
CONTINUOUS
 10
5.0647981099
 20
29.9024294687
 11
5.0718822095
 21
29.8973068817
  0
LINE
  5
575
100
AcDbEntity
  8
RACCORDO
100
AcDbLine
 62
250
  6
CONTINUOUS
 10
5.0718822095
 20
29.8973068817
 11
5.0793830687
 21
29.8918157076
  0
LINE
  5
576
100
AcDbEntity
  8
RACCORDO
100
AcDbLine
 62
250
  6
CONTINUOUS
 10
5.0793830687
 20
29.8918157076
 11
5.0872570205
 21
29.8859827044
  0
LINE
  5
577
100
AcDbEntity
  8
RACCORDO
100
AcDbLine
 62
250
  6
CONTINUOUS
 10
5.0872570205
 20
29.8859827044
 11
5.0955019918
 21
29.879804491
  0
LINE
  5
578
100
AcDbEntity
  8
RACCORDO
100
AcDbLine
 62
250
  6
CONTINUOUS
 10
5.0955019918
 20
29.879804491
 11
5.1041216177
 21
29.8732715713
  0
LINE
  5
579
100
AcDbEntity
  8
RACCORDO
100
AcDbLine
 62
250
  6
CONTINUOUS
 10
5.1041216177
 20
29.8732715713
 11
5.1131364901
 21
29.8663620108
  0
LINE
  5
57A
100
AcDbEntity
  8
RACCORDO
100
AcDbLine
 62
250
  6
CONTINUOUS
 10
5.1131364901
 20
29.8663620108
 11
5.1225835079
 21
29.8590382764
  0
LINE
  5
57B
100
AcDbEntity
  8
RACCORDO
100
AcDbLine
 62
250
  6
CONTINUOUS
 10
5.1225835079
 20
29.8590382764
 11
5.1324861451
 21
29.8512724244
  0
LINE
  5
57C
100
AcDbEntity
  8
RACCORDO
100
AcDbLine
 62
250
  6
CONTINUOUS
 10
5.1324861451
 20
29.8512724244
 11
5.1428876085
 21
29.8430188676
  0
LINE
  5
57D
100
AcDbEntity
  8
RACCORDO
100
AcDbLine
 62
250
  6
CONTINUOUS
 10
5.1428876085
 20
29.8430188676
 11
5.1538167478
 21
29.8342399049
  0
LINE
  5
57E
100
AcDbEntity
  8
RACCORDO
100
AcDbLine
 62
250
  6
CONTINUOUS
 10
5.1538167478
 20
29.8342399049
 11
5.1652800961
 21
29.824916013
  0
LINE
  5
57F
100
AcDbEntity
  8
RACCORDO
100
AcDbLine
 62
250
  6
CONTINUOUS
 10
5.1652800961
 20
29.824916013
 11
5.1772778137
 21
29.8150294032
  0
LINE
  5
580
100
AcDbEntity
  8
RACCORDO
100
AcDbLine
 62
250
  6
CONTINUOUS
 10
5.1772778137
 20
29.8150294032
 11
5.1897730948
 21
29.8045927894
  0
LINE
  5
581
100
AcDbEntity
  8
RACCORDO
100
AcDbLine
 62
250
  6
CONTINUOUS
 10
5.1897730948
 20
29.8045927894
 11
5.2027379585
 21
29.7936123569
  0
LINE
  5
582
100
AcDbEntity
  8
RACCORDO
100
AcDbLine
 62
250
  6
CONTINUOUS
 10
5.2027379585
 20
29.7936123569
 11
5.216124182
 21
29.7821105031
  0
LINE
  5
583
100
AcDbEntity
  8
RACCORDO
100
AcDbLine
 62
250
  6
CONTINUOUS
 10
5.216124182
 20
29.7821105031
 11
5.2298951572
 21
29.7701016578
  0
LINE
  5
584
100
AcDbEntity
  8
RACCORDO
100
AcDbLine
 62
250
  6
CONTINUOUS
 10
5.2298951572
 20
29.7701016578
 11
5.2440361797
 21
29.7575807298
  0
LINE
  5
585
100
AcDbEntity
  8
RACCORDO
100
AcDbLine
 62
250
  6
CONTINUOUS
 10
5.2440361797
 20
29.7575807298
 11
5.2585398499
 21
29.7445361858
  0
LINE
  5
586
100
AcDbEntity
  8
RACCORDO
100
AcDbLine
 62
250
  6
CONTINUOUS
 10
5.2585398499
 20
29.7445361858
 11
5.273455077
 21
29.7309028947
  0
LWPOLYLINE
  5
587
100
AcDbEntity
  8
RACCORDO
100
AcDbPolyline
 62
250
  6
CONTINUOUS
 90
25
 70
0
 10
5.273455077
 20
29.7309028947
 10
5.2888152874
 20
29.716626746
 10
5.2966889726
 20
29.7092141363
 10
5.3046900392
 20
29.7016153802
 10
5.3128444139
 20
29.6938000553
 10
5.3211506798
 20
29.6857658282
 10
5.3296065279
 20
29.6775104024
 10
5.338235999
 20
29.6690027583
 10
5.3470371186
 20
29.6602401412
 10
5.3560072572
 20
29.6512196569
 10
5.365168836
 20
29.6419093004
 10
5.374519383
 20
29.6323056565
 10
5.3840557066
 20
29.6224052639
 10
5.3937984109
 20
29.6121751442
 10
5.4037443958
 20
29.6016111515
 10
5.4138898383
 20
29.5907091099
 10
5.424253416
 20
29.5794349629
 10
5.4348304024
 20
29.5677847277
 10
5.4456171265
 20
29.5557524012
 10
5.4566328556
 20
29.5432996885
 10
5.4678688875
 20
29.5304253173
 10
5.4793237511
 20
29.5171186128
 10
5.4910262108
 20
29.5033255646
 10
5.5029813117
 20
29.4890228864
 10
5.5151711084
 20
29.4742189271
  0
LWPOLYLINE
  5
588
100
AcDbEntity
  8
RACCORDO
100
AcDbPolyline
 62
250
  6
CONTINUOUS
 90
5
 70
0
 10
32.9510534652
 20
-1.0159388992
 10
32.9490275908
 20
-0.9777537786
 10
32.9449459261
 20
-0.9410070883
 10
32.9388449834
 20
-0.9059054787
 10
32.9361914229
 20
-0.8949986568
  0
LINE
  5
589
100
AcDbEntity
  8
RACCORDO
100
AcDbLine
 62
7
  6
CONTINUOUS
 10
32.0440848864
 20
1.6504649041
 11
32.0465307581
 21
1.28755359
  0
LINE
  5
58A
100
AcDbEntity
  8
RACCORDO
100
AcDbLine
 62
7
  6
CONTINUOUS
 10
37.008406732
 20
10.6792543177
 11
37.008406732
 21
10.3170639527
  0
LINE
  5
58B
100
AcDbEntity
  8
RACCORDO
100
AcDbLine
 62
7
  6
CONTINUOUS
 10
35.3614051319
 20
-2.0307033567
 11
35.3610906963
 21
-2.2288592671
  0
LWPOLYLINE
  5
58C
100
AcDbEntity
  8
RACCORDO
100
AcDbPolyline
 62
250
  6
CONTINUOUS
 90
16
 70
0
 10
32.6144522753
 20
-0.7414921838
 10
32.6144350756
 20
-0.7417742899
 10
32.6146671846
 20
-0.7685010904
 10
32.6167505368
 20
-0.7951553767
 10
32.6206685771
 20
-0.8215253463
 10
32.6263901718
 20
-0.8474014559
 10
32.6338698555
 20
-0.8725780866
 10
32.6430481924
 20
-0.8968551779
 10
32.653852249
 20
-0.9200398171
 10
32.6661961732
 20
-0.9419477725
 10
32.6799818765
 20
-0.9624049573
 10
32.6950998141
 20
-0.9812488129
 10
32.7114298545
 20
-0.9983296006
 10
32.7288422348
 20
-1.0135115918
 10
32.7471985911
 20
-1.026674146
 10
32.7663530586
 20
-1.0377126698
  0
LWPOLYLINE
  5
58D
100
AcDbEntity
  8
RACCORDO
100
AcDbPolyline
 62
7
  6
CONTINUOUS
 90
10
 70
0
 10
33.041788192
 20
6.8639821291
 10
33.0451282511
 20
6.9121952392
 10
33.0487186951
 20
6.953463009
 10
33.0530178792
 20
6.9945805102
 10
33.0580353679
 20
7.035544111
 10
33.0637701329
 20
7.0763227364
 10
33.0702088126
 20
7.1168587206
 10
33.0773474149
 20
7.1571222599
 10
33.0851930522
 20
7.1971105776
 10
33.0937470454
 20
7.2368074548
  0
LWPOLYLINE
  5
58E
100
AcDbEntity
  8
RACCORDO
100
AcDbPolyline
 62
7
  6
CONTINUOUS
 90
14
 70
0
 10
33.041788192
 20
6.8639821291
 10
33.0412775184
 20
6.8573768278
 10
33.0407151298
 20
6.8509775382
 10
33.0401078774
 20
6.8448071082
 10
33.0394591423
 20
6.8388401455
 10
33.03876672
 20
6.8330039662
 10
33.0380410482
 20
6.8273514862
 10
33.0372780686
 20
6.8218281992
 10
33.0364461225
 20
6.8162038301
 10
33.0355339053
 20
6.810427289
 10
33.0345454774
 20
6.8045547168
 10
33.0334645394
 20
6.7985206299
 10
33.0322812627
 20
6.7923061931
 10
33.0309943354
 20
6.7859381513
  0
LWPOLYLINE
  5
58F
100
AcDbEntity
  8
RACCORDO
100
AcDbPolyline
 62
250
  6
CONTINUOUS
 90
4
 70
0
 10
32.9486547278
 20
-1.0991304001
 10
32.948913516
 20
-1.0964867335
 10
32.9510113799
 20
-1.0554935647
 10
32.9510534652
 20
-1.0159388992
  0
LWPOLYLINE
  5
590
100
AcDbEntity
  8
RACCORDO
100
AcDbPolyline
 62
7
  6
CONTINUOUS
 90
16
 70
0
 10
32.3464939392
 20
-0.4589161615
 10
32.3462384182
 20
-0.4608230304
 10
32.3447257592
 20
-0.4790902896
 10
32.3448891961
 20
-0.4974038312
 10
32.3467220795
 20
-0.5156017805
 10
32.3502045269
 20
-0.5335405343
 10
32.3553118091
 20
-0.55109655
 10
32.3620094876
 20
-0.5681347019
 10
32.3702408424
 20
-0.5844981287
 10
32.3799316072
 20
-0.6000373381
 10
32.3909941782
 20
-0.6146161082
 10
32.4033394098
 20
-0.6281207447
 10
32.4168731523
 20
-0.6404473547
 10
32.4314886631
 20
-0.6514944842
 10
32.4470610586
 20
-0.6611638206
 10
32.4581179607
 20
-0.6669027968
  0
LINE
  5
591
100
AcDbEntity
  8
RACCORDO
100
AcDbLine
 62
7
  6
CONTINUOUS
 10
31.7521471829
 20
-0.6821456488
 11
31.8075707685
 21
-0.2791882363
  0
LWPOLYLINE
  5
592
100
AcDbEntity
  8
RACCORDO
100
AcDbPolyline
 62
250
  6
CONTINUOUS
 90
16
 70
0
 10
32.4653468406
 20
-0.5173395865
 10
32.5425343606
 20
0.025581084
 10
32.622123478
 20
0.5624853266
 10
32.7039652614
 20
1.0932958501
 10
32.7872928707
 20
1.6141100987
 10
32.8725402427
 20
2.1286578607
 10
32.961554238
 20
2.6484113674
 10
33.0544460803
 20
3.1738895596
 10
33.1511937529
 20
3.7046197924
 10
33.2538003906
 20
4.2507717423
 10
33.3627960198
 20
4.8141596627
 10
33.4780966247
 20
5.3932007672
 10
33.601046105
 20
5.9931050536
 10
33.7323429136
 20
6.6157391832
 10
33.8719537666
 20
7.2595816985
 10
34.0202257721
 20
7.9248127388
  0
LINE
  5
593
100
AcDbEntity
  8
RACCORDO
100
AcDbLine
 62
7
  6
CONTINUOUS
 10
31.8075707685
 20
-0.2791882363
 11
31.8651613239
 21
0.1254565597
  0
LINE
  5
594
100
AcDbEntity
  8
RACCORDO
100
AcDbLine
 62
7
  6
CONTINUOUS
 10
31.8651613239
 20
0.1254565597
 11
31.9249360873
 21
0.5318674921
  0
LWPOLYLINE
  5
595
100
AcDbEntity
  8
RACCORDO
100
AcDbPolyline
 62
7
  6
CONTINUOUS
 90
3
 70
0
 10
31.9249360873
 20
0.5318674921
 10
31.9869494295
 20
0.9403520043
 10
32.0187959123
 20
1.14535458
  0
LWPOLYLINE
  5
596
100
AcDbEntity
  8
RACCORDO
100
AcDbPolyline
 62
7
  6
CONTINUOUS
 90
13
 70
0
 10
32.0512676224
 20
1.7420863053
 10
32.0500189439
 20
1.7341973008
 10
32.048913995
 20
1.7264499266
 10
32.0479450849
 20
1.7188505679
 10
32.0471118627
 20
1.7114720838
 10
32.0463982547
 20
1.7042540141
 10
32.0457803303
 20
1.6969985898
 10
32.0452567904
 20
1.6897076371
 10
32.0448287662
 20
1.682382529
 10
32.04449016
 20
1.6748179865
 10
32.0442469796
 20
1.6669432862
 10
32.0441093899
 20
1.6588258895
 10
32.0440848864
 20
1.6504649041
  0
LWPOLYLINE
  5
597
100
AcDbEntity
  8
RACCORDO
100
AcDbPolyline
 62
7
  6
CONTINUOUS
 90
7
 70
0
 10
32.0187959123
 20
1.14535458
 10
32.0227107113
 20
1.1693875911
 10
32.0269083705
 20
1.1932927362
 10
32.0313890827
 20
1.2170659471
 10
32.0361529934
 20
1.2407031752
 10
32.0412002014
 20
1.264200392
 10
32.0465307581
 20
1.28755359
  0
LWPOLYLINE
  5
598
100
AcDbEntity
  8
RACCORDO
100
AcDbPolyline
 62
7
  6
CONTINUOUS
 90
12
 70
0
 10
33.9825103149
 20
8.3244575199
 10
33.9778088186
 20
8.2957411082
 10
33.9745121841
 20
8.2653635125
 10
33.9727552918
 20
8.2334013276
 10
33.9725856602
 20
8.1998802647
 10
33.9739767116
 20
8.1647677548
 10
33.9770705188
 20
8.128142361
 10
33.9819599673
 20
8.0900915036
 10
33.9885840715
 20
8.0506083747
 10
33.9970338271
 20
8.0097796596
 10
34.007528614
 20
7.9677908586
 10
34.020226927
 20
7.9248130627
  0
LINE
  5
599
100
AcDbEntity
  8
RACCORDO
100
AcDbLine
 62
7
  6
CONTINUOUS
 10
33.9858576676
 20
8.340385604
 11
33.9825103149
 21
8.3244575199
  0
LWPOLYLINE
  5
59A
100
AcDbEntity
  8
RACCORDO
100
AcDbPolyline
 62
7
  6
CONTINUOUS
 90
10
 70
0
 10
33.9858259859
 20
8.3403861251
 10
33.7646518094
 20
7.359962793
 10
33.539925363
 20
6.3197724954
 10
33.3285983179
 20
5.294130383
 10
33.130534429
 20
4.2831813744
 10
32.9456204108
 20
3.2870804914
 10
32.7737462772
 20
2.3059819939
 10
32.6147398581
 20
1.3400203401
 10
32.4683878075
 20
0.3893122324
 10
32.3464917531
 20
-0.4589318308
  0
LWPOLYLINE
  5
59B
100
AcDbEntity
  8
RACCORDO
100
AcDbPolyline
 62
250
  6
CONTINUOUS
 90
4
 70
0
 10
-38.6978301131
 20
55.0477780742
 10
-38.6548623487
 20
55.0264935477
 10
-38.6101232663
 20
55.003134983
 10
-38.5634207505
 20
54.9776386576
  0
LINE
  5
59C
100
AcDbEntity
  8
RACCORDO
100
AcDbLine
 62
7
  6
CONTINUOUS
 10
-45.6268252037
 20
67.4685560011
 11
56.3533603308
 21
8.5864749854
  0
LINE
  5
59D
100
AcDbEntity
  8
0
100
AcDbLine
 62
7
  6
CONTINUOUS
 10
-40.7400945698
 20
65.2922547893
 11
55.0021636029
 21
10.0118748527
  0
LWPOLYLINE
  5
59E
100
AcDbEntity
  8
0
100
AcDbPolyline
 62
7
  6
CONTINUOUS
 90
19
 70
0
 10
55.0021636029
 20
10.0118748527
 10
55.2713484433
 20
9.8495831853
 10
55.5390067147
 20
9.6747841064
 10
55.805138417
 20
9.487477616
 10
56.0702436998
 20
9.2872600612
 10
56.3338224137
 20
9.074535095
 10
56.5943741093
 20
8.850513676
 10
56.8518815225
 20
8.615131376
 10
57.1063619175
 20
8.3684526234
 10
57.3563666385
 20
8.1118816624
 10
57.6018701587
 20
7.8453620735
 10
57.8428980049
 20
7.5689502764
 10
58.078078101
 20
7.2842197736
 10
58.307377095
 20
6.99112312
 10
58.530828339
 20
6.6897077608
 10
58.7471598137
 20
6.381689534
 10
58.9563309121
 20
6.0670307807
 10
59.1583822411
 20
5.7457691598
 10
59.2015203566
 20
5.6731896073
  0
LWPOLYLINE
  5
59F
100
AcDbEntity
  8
RACCORDO
100
AcDbPolyline
 62
250
  6
CONTINUOUS
 90
15
 70
0
 10
37.729861402
 20
10.7866462553
 10
37.7075074302
 20
10.8078632688
 10
37.6492089124
 20
10.8607627811
 10
37.5895830812
 20
10.9126751064
 10
37.5297967246
 20
10.962825473
 10
37.4701915243
 20
11.0110734213
 10
37.4105701084
 20
11.057733343
 10
37.3512945069
 20
11.1027201842
 10
37.2925539535
 20
11.1460250564
 10
37.2342621092
 20
11.1877869355
 10
37.176357692
 20
11.2281313415
 10
37.1185250095
 20
11.2673445877
 10
37.0611472605
 20
11.3052287429
 10
37.0052053909
 20
11.3411756954
 10
36.9510400854
 20
11.3750011379
  0
LINE
  5
5A0
100
AcDbEntity
  8
RACCORDO
100
AcDbLine
 62
250
  6
CONTINUOUS
 10
37.2658025309
 20
-3.0916103457
 11
37.2055054118
 21
-2.8696957428
  0
LINE
  5
5A1
100
AcDbEntity
  8
RACCORDO
100
AcDbLine
 62
250
  6
CONTINUOUS
 10
38.0678408623
 20
-3.4478856139
 11
38.0080953437
 21
-3.2280010948
  0
LWPOLYLINE
  5
5A2
100
AcDbEntity
  8
RACCORDO
100
AcDbPolyline
 62
250
  6
CONTINUOUS
 90
32
 70
0
 10
42.0368496106
 20
-58.8166838906
 10
41.9459162729
 20
-58.2568100121
 10
41.8593867423
 20
-57.7012194064
 10
41.7772610186
 20
-57.1499120736
 10
41.6999488082
 20
-56.6054126809
 10
41.6270404047
 20
-56.065196561
 10
41.5573066899
 20
-55.5216897119
 10
41.4902970793
 20
-54.9718592043
 10
41.4264621573
 20
-54.4187379674
 10
41.3659245591
 20
-53.8638507865
 10
41.3087700459
 20
-53.3076734295
 10
41.2549128565
 20
-52.7497301284
 10
41.204218342
 20
-52.1901183643
 10
41.156720147
 20
-51.6289196388
 10
41.112384627
 20
-51.0660524502
 10
41.0709761995
 20
-50.5013697742
 10
41.0325277299
 20
-49.9348423287
 10
40.9970063529
 20
-49.3664993959
 10
40.9640778894
 20
-48.7962817976
 10
40.9337685137
 20
-48.2240213667
 10
40.9060520515
 20
-47.6498862703
 10
40.8805158012
 20
-47.0743218313
 10
40.8571345129
 20
-46.4972666846
 10
40.8359334364
 20
-45.9187821953
 10
40.8165756201
 20
-45.3394977816
 10
40.7990539071
 20
-44.7595678476
 10
40.7833754542
 20
-44.1788379893
 10
40.7692247802
 20
-43.5974744125
 10
40.756599127
 20
-43.0155934714
 10
40.7455012527
 20
-42.4330788119
 10
40.735623951
 20
-41.849747578
 10
40.7269620418
 20
-41.2657120716
  0
LINE
  5
5A3
100
AcDbEntity
  8
RACCORDO
100
AcDbLine
 62
7
  6
CONTINUOUS
 10
42.4617323556
 20
-60.1880029722
 11
42.4617222418
 21
-60.1879405715
  0
LWPOLYLINE
  5
5A4
100
AcDbEntity
  8
RACCORDO
100
AcDbPolyline
 62
250
  6
CONTINUOUS
 90
33
 70
0
 10
41.3861531495
 20
-58.9021719145
 10
41.2966975043
 20
-58.3408816169
 10
41.2117928219
 20
-57.7836450116
 10
41.1313177942
 20
-57.2305608569
 10
41.0555015681
 20
-56.684299917
 10
40.9838425621
 20
-56.1424132193
 10
40.9152498429
 20
-55.5972169574
 10
40.8493623646
 20
-55.0455994574
 10
40.7865838052
 20
-54.4906376861
 10
40.7270658023
 20
-53.9338530623
 10
40.6708264447
 20
-53.3757726707
 10
40.6177763915
 20
-52.8159274336
 10
40.5678801361
 20
-52.2543656925
 10
40.5211018837
 20
-51.6912272445
 10
40.4773609419
 20
-51.1264671258
 10
40.4365532689
 20
-50.5598575048
 10
40.3986172932
 20
-49.9914397636
 10
40.3634823042
 20
-49.4212802121
 10
40.3310115176
 20
-48.8492039062
 10
40.3010750066
 20
-48.2751865829
 10
40.2735442424
 20
-47.6994629164
 10
40.2482487705
 20
-47.1222754866
 10
40.2250451097
 20
-46.543659412
 10
40.2038274084
 20
-45.9637825583
 10
40.1844911419
 20
-45.383078904
 10
40.16694068
 20
-44.8017648426
 10
40.151079652
 20
-44.2197802904
 10
40.136801859
 20
-43.6371449683
 10
40.1240161366
 20
-43.0540488065
 10
40.1126259593
 20
-42.4704546751
 10
40.1025220366
 20
-41.8860376754
 10
40.093619374
 20
-41.300975482
 10
40.0858295214
 20
-40.7152316232
  0
LINE
  5
5A5
100
AcDbEntity
  8
RACCORDO
100
AcDbLine
 62
250
  6
CONTINUOUS
 10
42.451288416
 20
-59.5201365299
 11
42.574397072
 21
-60.315515929
  0
LWPOLYLINE
  5
5A6
100
AcDbEntity
  8
RACCORDO
100
AcDbPolyline
 62
7
  6
CONTINUOUS
 90
19
 70
0
 10
42.2272018841
 20
-58.6534915577
 10
42.4749191339
 20
-60.2761461831
 10
42.4915083874
 20
-60.4186379446
 10
42.5016687804
 20
-60.5575189873
 10
42.5053400619
 20
-60.6923918141
 10
42.5024928844
 20
-60.8227788633
 10
42.4931483278
 20
-60.9480782085
 10
42.4773640139
 20
-61.0678823427
 10
42.4552307338
 20
-61.1818297203
 10
42.4269130108
 20
-61.2893874321
 10
42.3926117171
 20
-61.3901845067
 10
42.3525055096
 20
-61.4840623988
 10
42.306768138
 20
-61.5708797925
 10
42.2556953885
 20
-61.6503796721
 10
42.1993638291
 20
-61.7227020243
 10
42.1374299147
 20
-61.7883195724
 10
42.0696571751
 20
-61.8473295546
 10
41.9960729952
 20
-61.8995270856
 10
41.9759319008
 20
-61.9120038427
  0
LWPOLYLINE
  5
5A7
100
AcDbEntity
  8
RACCORDO
100
AcDbPolyline
 62
250
  6
CONTINUOUS
 90
22
 70
0
 10
42.574397072
 20
-60.315515929
 10
42.5950283214
 20
-60.4628987638
 10
42.6095882927
 20
-60.6063866135
 10
42.6180988222
 20
-60.7459617009
 10
42.6205722293
 20
-60.8817118303
 10
42.6170419505
 20
-61.0135119471
 10
42.6075599699
 20
-61.1410262298
 10
42.592112575
 20
-61.2643782776
 10
42.570757255
 20
-61.3834088523
 10
42.5436445781
 20
-61.4973645662
 10
42.510802702
 20
-61.6060873988
 10
42.4722330806
 20
-61.7097112635
 10
42.4280366265
 20
-61.8079284887
 10
42.3781863462
 20
-61.9007963949
 10
42.3227319604
 20
-61.9882391592
 10
42.2618799337
 20
-62.0697571446
 10
42.1955192534
 20
-62.145359945
 10
42.1237681861
 20
-62.2150320609
 10
42.0471610325
 20
-62.2782493086
 10
41.9658661499
 20
-62.3348448919
 10
41.8796960379
 20
-62.3850011915
 10
41.7886406803
 20
-62.4287263616
  0
LINE
  5
5A8
100
AcDbEntity
  8
RACCORDO
100
AcDbLine
 62
250
  6
CONTINUOUS
 10
40.7269620418
 20
-41.2657120716
 11
40.7130082753
 21
-40.0946715742
  0
LWPOLYLINE
  5
5A9
100
AcDbEntity
  8
RACCORDO
100
AcDbPolyline
 62
250
  6
CONTINUOUS
 90
30
 70
0
 10
41.2114204828
 20
-39.7967579301
 10
41.2183784204
 20
-40.4811847878
 10
41.2265191495
 20
-41.1668652867
 10
41.2359493153
 20
-41.8517723375
 10
41.2467795656
 20
-42.5353966343
 10
41.2591335758
 20
-43.2180567184
 10
41.2731254647
 20
-43.8989770961
 10
41.2888584868
 20
-44.577469524
 10
41.3064638672
 20
-45.2540313533
 10
41.3261049931
 20
-45.9296595293
 10
41.3479129828
 20
-46.6044734484
 10
41.3720148685
 20
-47.2781435512
 10
41.3986027808
 20
-47.9509649595
 10
41.4278922171
 20
-48.6229271396
 10
41.4601050236
 20
-49.2936845796
 10
41.4954998445
 20
-49.962983536
 10
41.5343437141
 20
-50.6314244632
 10
41.5767291123
 20
-51.298114223
 10
41.6226135288
 20
-51.9605906973
 10
41.671841255
 20
-52.6158461643
 10
41.724676326
 20
-53.2668001562
 10
41.7817426695
 20
-53.9198514583
 10
41.8429547435
 20
-54.5728839664
 10
41.908612054
 20
-55.2278395945
 10
41.9802199464
 20
-55.8969567917
 10
42.0581477787
 20
-56.5802840556
 10
42.1427228316
 20
-57.2772057483
 10
42.2358420585
 20
-57.9985939194
 10
42.3386508784
 20
-58.7476548651
 10
42.451288416
 20
-59.5201365299
  0
LINE
  5
5AA
100
AcDbEntity
  8
RACCORDO
100
AcDbLine
 62
250
  6
CONTINUOUS
 10
40.0858295214
 20
-40.7152316232
 11
40.0731842573
 21
-39.539534951
  0
LINE
  5
5AB
100
AcDbEntity
  8
RACCORDO
100
AcDbLine
 62
250
  6
CONTINUOUS
 10
40.7130082753
 20
-40.0946715742
 11
40.702750873
 21
-38.9177439127
  0
LINE
  5
5AC
100
AcDbEntity
  8
RACCORDO
100
AcDbLine
 62
250
  6
CONTINUOUS
 10
41.2005871681
 20
-38.4364013576
 11
41.2114204828
 21
-39.7967579301
  0
LINE
  5
5AD
100
AcDbEntity
  8
RACCORDO
100
AcDbLine
 62
250
  6
CONTINUOUS
 10
40.0731842573
 20
-39.539534951
 11
40.0638870653
 21
-38.3588629786
  0
LINE
  5
5AE
100
AcDbEntity
  8
RACCORDO
100
AcDbLine
 62
250
  6
CONTINUOUS
 10
40.702750873
 20
-38.9177439127
 11
40.6954079185
 21
-37.7382631455
  0
LINE
  5
5AF
100
AcDbEntity
  8
RACCORDO
100
AcDbLine
 62
250
  6
CONTINUOUS
 10
40.0638870653
 20
-38.3588629786
 11
40.0572919006
 21
-37.178084081
  0
LINE
  5
5B0
100
AcDbEntity
  8
RACCORDO
100
AcDbLine
 62
250
  6
CONTINUOUS
 10
41.193009342
 20
-37.0708529686
 11
41.2005871681
 21
-38.4364013576
  0
LINE
  5
5B1
100
AcDbEntity
  8
RACCORDO
100
AcDbLine
 62
250
  6
CONTINUOUS
 10
40.6954079185
 20
-37.7382631455
 11
40.6904924597
 21
-36.5510752221
  0
LINE
  5
5B2
100
AcDbEntity
  8
RACCORDO
100
AcDbLine
 62
250
  6
CONTINUOUS
 10
40.0572919006
 20
-37.178084081
 11
40.0527709175
 21
-35.9778525165
  0
LINE
  5
5B3
100
AcDbEntity
  8
RACCORDO
100
AcDbLine
 62
250
  6
CONTINUOUS
 10
41.1879471366
 20
-35.6843908612
 11
41.193009342
 21
-37.0708529686
  0
LINE
  5
5B4
100
AcDbEntity
  8
RACCORDO
100
AcDbLine
 62
250
  6
CONTINUOUS
 10
40.6904924597
 20
-36.5510752221
 11
40.6873197778
 21
-35.3396438049
  0
LINE
  5
5B5
100
AcDbEntity
  8
RACCORDO
100
AcDbLine
 62
250
  6
CONTINUOUS
 10
40.0527709175
 20
-35.9778525165
 11
40.0487878906
 21
-34.1063311064
  0
LINE
  5
5B6
100
AcDbEntity
  8
RACCORDO
100
AcDbLine
 62
250
  6
CONTINUOUS
 10
41.1835833862
 20
-33.4845319309
 11
41.1879471366
 21
-35.6843908612
  0
LINE
  5
5B7
100
AcDbEntity
  8
RACCORDO
100
AcDbLine
 62
250
  6
CONTINUOUS
 10
40.6873197778
 20
-35.3396438049
 11
40.6846849728
 21
-33.4253622736
  0
LINE
  5
5B8
100
AcDbEntity
  8
RACCORDO
100
AcDbLine
 62
250
  6
CONTINUOUS
 10
40.0487878906
 20
-34.1063311064
 11
40.046938376
 21
-32.0790971497
  0
LWPOLYLINE
  5
5B9
100
AcDbEntity
  8
RACCORDO
100
AcDbPolyline
 62
7
  6
CONTINUOUS
 90
15
 70
0
 10
41.0536088333
 20
-30.9332245802
 10
41.054735629
 20
-33.1504188878
 10
41.0585467993
 20
-35.3940761265
 10
41.0668333282
 20
-37.5974166133
 10
41.0822743346
 20
-39.7588191309
 10
41.1077732005
 20
-41.8765035898
 10
41.1463825599
 20
-43.9485218959
 10
41.2009044884
 20
-45.9729733125
 10
41.273958718
 20
-47.9480046163
 10
41.368791706
 20
-49.8713343044
 10
41.4888943684
 20
-51.7401841121
 10
41.6354217592
 20
-53.5530767652
 10
41.8081057856
 20
-55.3094544861
 10
42.0058455329
 20
-57.0094309519
 10
42.2272018841
 20
-58.6534915577
  0
LINE
  5
5BA
100
AcDbEntity
  8
RACCORDO
100
AcDbLine
 62
250
  6
CONTINUOUS
 10
40.6846849728
 20
-33.4253622736
 11
40.683776002
 21
-31.3299194973
  0
LINE
  5
5BB
100
AcDbEntity
  8
RACCORDO
100
AcDbLine
 62
250
  6
CONTINUOUS
 10
41.1820599841
 20
-31.0753084415
 11
41.1835833862
 21
-33.4845319309
  0
LINE
  5
5BC
100
AcDbEntity
  8
RACCORDO
100
AcDbLine
 62
250
  6
CONTINUOUS
 10
40.046938376
 20
-32.0790971497
 11
40.0466589453
 21
-30.6140350128
  0
LINE
  5
5BD
100
AcDbEntity
  8
RACCORDO
100
AcDbLine
 62
250
  6
CONTINUOUS
 10
40.683776002
 20
-31.3299194973
 11
40.6843382388
 21
-28.2263416396
  0
LINE
  5
5BE
100
AcDbEntity
  8
RACCORDO
100
AcDbLine
 62
250
  6
CONTINUOUS
 10
40.0466589495
 20
-30.6140350038
 11
40.0473928738
 21
-28.4015206744
  0
LINE
  5
5BF
100
AcDbEntity
  8
RACCORDO
100
AcDbLine
 62
250
  6
CONTINUOUS
 10
41.1840572025
 20
-28.3112130981
 11
41.1820600447
 21
-31.0753084102
  0
LINE
  5
5C0
100
AcDbEntity
  8
RACCORDO
100
AcDbLine
 62
250
  6
CONTINUOUS
 10
40.6843382388
 20
-28.2263416396
 11
40.6861452366
 21
-26.4966264614
  0
LINE
  5
5C1
100
AcDbEntity
  8
RACCORDO
100
AcDbLine
 62
250
  6
CONTINUOUS
 10
40.0473928738
 20
-28.4015206744
 11
40.0493112977
 21
-26.7810226857
  0
LINE
  5
5C2
100
AcDbEntity
  8
RACCORDO
100
AcDbLine
 62
250
  6
CONTINUOUS
 10
40.6861452366
 20
-26.4966264614
 11
40.6884183248
 21
-25.3334568447
  0
LINE
  5
5C3
100
AcDbEntity
  8
RACCORDO
100
AcDbLine
 62
250
  6
CONTINUOUS
 10
41.1874505598
 20
-26.6400918486
 11
41.1840572025
 21
-28.3112130981
  0
LINE
  5
5C4
100
AcDbEntity
  8
RACCORDO
100
AcDbLine
 62
250
  6
CONTINUOUS
 10
40.0493112977
 20
-26.7810226857
 11
40.0530720719
 21
-25.1479368822
  0
LINE
  5
5C5
100
AcDbEntity
  8
RACCORDO
100
AcDbLine
 62
250
  6
CONTINUOUS
 10
40.6884183248
 20
-25.3334568447
 11
40.692077958
 21
-24.1686684951
  0
LINE
  5
5C6
100
AcDbEntity
  8
RACCORDO
100
AcDbLine
 62
250
  6
CONTINUOUS
 10
41.1930194303
 20
-25.0668468528
 11
41.1874505598
 21
-26.6400918486
  0
LINE
  5
5C7
100
AcDbEntity
  8
RACCORDO
100
AcDbLine
 62
250
  6
CONTINUOUS
 10
40.0530720719
 20
-25.1479368822
 11
40.0572241841
 21
-24.0563002792
  0
LINE
  5
5C8
100
AcDbEntity
  8
RACCORDO
100
AcDbLine
 62
250
  6
CONTINUOUS
 10
40.692077958
 20
-24.1686684951
 11
40.6977280802
 21
-23.0028714572
  0
LINE
  5
5C9
100
AcDbEntity
  8
RACCORDO
100
AcDbLine
 62
250
  6
CONTINUOUS
 10
40.0572241841
 20
-24.0563002792
 11
40.0631730829
 21
-22.9638854913
  0
LINE
  5
5CA
100
AcDbEntity
  8
RACCORDO
100
AcDbLine
 62
250
  6
CONTINUOUS
 10
40.6977280802
 20
-23.0028714572
 11
40.7057995823
 21
-21.8363323382
  0
LINE
  5
5CB
100
AcDbEntity
  8
RACCORDO
100
AcDbLine
 62
250
  6
CONTINUOUS
 10
40.0631730829
 20
-22.9638854913
 11
40.0713524495
 21
-21.8707196879
  0
LWPOLYLINE
  5
5CC
100
AcDbEntity
  8
RACCORDO
100
AcDbPolyline
 62
250
  6
CONTINUOUS
 90
17
 70
0
 10
40.7057995823
 20
-21.8363323382
 10
40.7169752579
 20
-20.6690942645
 10
40.724015164
 20
-20.0846234965
 10
40.7321130962
 20
-19.4993175075
 10
40.7412714309
 20
-18.9132835686
 10
40.751774367
 20
-18.326363105
 10
40.7636214468
 20
-17.7384531407
 10
40.7768131281
 20
-17.1496566517
 10
40.791634984
 20
-16.5601239926
 10
40.8080748976
 20
-15.9701180653
 10
40.8261449858
 20
-15.3793759679
 10
40.846167172
 20
-14.7872593482
 10
40.8680825516
 20
-14.1942126321
 10
40.8919500293
 20
-13.5997913937
 10
40.9182682418
 20
-13.0020240037
 10
40.9469896177
 20
-12.4010575386
 10
40.9781617285
 20
-11.7967449219
  0
LINE
  5
5CD
100
AcDbEntity
  8
RACCORDO
100
AcDbLine
 62
250
  6
CONTINUOUS
 10
40.0713524495
 20
-21.8707196879
 11
40.0822749015
 21
-20.7764369461
  0
LWPOLYLINE
  5
5CE
100
AcDbEntity
  8
RACCORDO
100
AcDbPolyline
 62
250
  6
CONTINUOUS
 90
27
 70
0
 10
40.0822749015
 20
-20.7764369461
 10
40.0965154938
 20
-19.6799034383
 10
40.1050639367
 20
-19.1305562961
 10
40.1146636507
 20
-18.5802782272
 10
40.1253826478
 20
-18.0291405688
 10
40.1372986483
 20
-17.4772651882
 10
40.1504834377
 20
-16.9246633598
 10
40.1650098483
 20
-16.3712487566
 10
40.1809571936
 20
-15.8169968316
 10
40.1983859061
 20
-15.2621521644
 10
40.2173797609
 20
-14.7063953359
 10
40.2380600665
 20
-14.1488521778
 10
40.2604982373
 20
-13.5897319033
 10
40.2848214658
 20
-13.028722228
 10
40.3112601285
 20
-12.4641535548
 10
40.3399355982
 20
-11.8961288224
 10
40.3709927915
 20
-11.3244068954
 10
40.4047353955
 20
-10.7467823475
 10
40.4412408433
 20
-10.1639300683
 10
40.4806626928
 20
-9.5750552903
 10
40.5234738488
 20
-8.9757195419
 10
40.5697788028
 20
-8.3666764825
 10
40.6198252741
 20
-7.7469896653
 10
40.6744410245
 20
-7.109612796
 10
40.7341187144
 20
-6.4520846281
 10
40.7989210267
 20
-5.7765782006
 10
40.8691303061
 20
-5.0829469846
  0
LWPOLYLINE
  5
5CF
100
AcDbEntity
  8
RACCORDO
100
AcDbPolyline
 62
250
  6
CONTINUOUS
 90
11
 70
0
 10
40.9781617285
 20
-11.7967449219
 10
41.0124259257
 20
-11.1866732943
 10
41.0497049073
 20
-10.5716914389
 10
41.0900759754
 20
-9.9509505726
 10
41.1344123868
 20
-9.3194914864
 10
41.1825053627
 20
-8.6785098765
 10
41.234563682
 20
-8.0268100465
 10
41.2920869389
 20
-7.355845699
 10
41.355574998
 20
-6.662768068
 10
41.4245279946
 20
-5.9504259193
 10
41.4989459288
 20
-5.218819253
  0
LWPOLYLINE
  5
5D0
100
AcDbEntity
  8
RACCORDO
100
AcDbPolyline
 62
250
  6
CONTINUOUS
 90
12
 70
0
 10
41.6186027376
 20
-4.6606101527
 10
41.6171820423
 20
-4.6844578194
 10
41.6173146392
 20
-4.7071648166
 10
41.6189993636
 20
-4.7285329629
 10
41.6222215034
 20
-4.7483757636
 10
41.6269529284
 20
-4.7665200396
 10
41.6331523359
 20
-4.782807438
 10
41.6407656108
 20
-4.7970958125
 10
41.649726299
 20
-4.8092604659
 10
41.6599561885
 20
-4.8191952388
 10
41.6713659888
 20
-4.8268134313
 10
41.6769484615
 20
-4.8295057373
  0
LWPOLYLINE
  5
5D1
100
AcDbEntity
  8
RACCORDO
100
AcDbPolyline
 62
7
  6
CONTINUOUS
 90
13
 70
0
 10
41.8591340712
 20
-5.1313034263
 10
41.6862172441
 20
-7.0081501515
 10
41.5311744394
 20
-8.992715473
 10
41.4020407768
 20
-11.0142629197
 10
41.2986035088
 20
-13.0721834252
 10
41.2184204914
 20
-15.1671667055
 10
41.1579801058
 20
-17.3007893787
 10
41.1147682762
 20
-19.474238247
 10
41.0859872839
 20
-21.6888796992
 10
41.0685100375
 20
-23.9463778079
 10
41.0591085626
 20
-26.2485669115
 10
41.0548632173
 20
-28.5971775256
 10
41.0536088312
 20
-30.9332131247
  0
LWPOLYLINE
  5
5D2
100
AcDbEntity
  8
RACCORDO
100
AcDbPolyline
 62
250
  6
CONTINUOUS
 90
26
 70
0
 10
41.9820251482
 20
-5.26990036
 10
41.9023000206
 20
-6.1145649941
 10
41.8290132158
 20
-6.9429659601
 10
41.7618733898
 20
-7.7552544574
 10
41.700865064
 20
-8.5481056589
 10
41.6454006178
 20
-9.3251573831
 10
41.5944677895
 20
-10.0969335449
 10
41.5477185058
 20
-10.8665889507
 10
41.5051970346
 20
-11.6311264605
 10
41.4666328855
 20
-12.3917625322
 10
41.4317948962
 20
-13.1481460277
 10
41.4003706704
 20
-13.9009101767
 10
41.3719426863
 20
-14.6527610567
 10
41.3462386126
 20
-15.4046286558
 10
41.3231285941
 20
-16.1557917093
 10
41.3024419219
 20
-16.9064622391
 10
41.2840053131
 20
-17.6578234793
 10
41.2677058698
 20
-18.4088407154
 10
41.2534387059
 20
-19.1564118928
 10
41.2410520671
 20
-19.8995665445
 10
41.2303661501
 20
-20.6394472067
 10
41.2212142192
 20
-21.3761315927
 10
41.2134813981
 20
-22.105640487
 10
41.2069692692
 20
-22.8321156961
 10
41.2014441846
 20
-23.5677861585
 10
41.1930194303
 20
-25.0668468528
  0
LWPOLYLINE
  5
5D3
100
AcDbEntity
  8
RACCORDO
100
AcDbPolyline
 62
250
  6
CONTINUOUS
 90
11
 70
0
 10
49.848570684
 20
-56.5320320189
 10
49.8746904495
 20
-57.0221331817
 10
49.9028110944
 20
-57.5284948191
 10
49.932940673
 20
-58.0509282852
 10
49.9654516996
 20
-58.5894905908
 10
50.0003006992
 20
-59.1439472959
 10
50.0375311467
 20
-59.7145328406
 10
50.0776459814
 20
-60.3020075559
 10
50.1208128499
 20
-60.9066248858
 10
50.1668641056
 20
-61.5281313864
 10
50.2157997485
 20
-62.1665270577
  0
LWPOLYLINE
  5
5D4
100
AcDbEntity
  8
RACCORDO
100
AcDbPolyline
 62
250
  6
CONTINUOUS
 90
10
 70
0
 10
49.2484409272
 20
-57.0773230138
 10
49.2750546296
 20
-57.5840750534
 10
49.3036462646
 20
-58.1067946498
 10
49.3343299945
 20
-58.6457010511
 10
49.3671939015
 20
-59.2004450563
 10
49.4023856198
 20
-59.7711839675
 10
49.4401250294
 20
-60.3588834443
 10
49.4805860595
 20
-60.9637834446
 10
49.5238887889
 20
-61.5854046558
 10
49.5701854051
 20
-62.2236231806
  0
LWPOLYLINE
  5
5D5
100
AcDbEntity
  8
RACCORDO
100
AcDbPolyline
 62
250
  6
CONTINUOUS
 90
39
 70
0
 10
49.5701854051
 20
-62.2236231806
 10
49.5790240585
 20
-62.4014744205
 10
49.5811126387
 20
-62.5725069547
 10
49.5764763036
 20
-62.7367003017
 10
49.5650325961
 20
-62.8932330459
 10
49.5469103828
 20
-63.0428888205
 10
49.5224570062
 20
-63.1880504853
 10
49.4917517728
 20
-63.3296957486
 10
49.4547749722
 20
-63.4667983842
 10
49.4117277763
 20
-63.5987334325
 10
49.3626034616
 20
-63.7254636435
 10
49.3074560234
 20
-63.8469877828
 10
49.2465685113
 20
-63.9627424034
 10
49.1799362774
 20
-64.0726822373
 10
49.1075978627
 20
-64.1768249598
 10
49.0298905789
 20
-64.2747101045
 10
48.9468355661
 20
-64.3662901965
 10
48.8584307042
 20
-64.4515972263
 10
48.7649682195
 20
-64.5302982256
 10
48.6665184567
 20
-64.6023702716
 10
48.5630155271
 20
-64.6678326596
 10
48.4545396194
 20
-64.7264220059
 10
48.3411531538
 20
-64.7781857852
 10
48.2227889904
 20
-64.8230803653
 10
48.0993274172
 20
-64.8607102306
 10
47.9707056744
 20
-64.8911575146
 10
47.8369721494
 20
-64.9143517845
 10
47.6981648983
 20
-64.9296759644
 10
47.5540721042
 20
-64.9371401069
 10
47.4048723184
 20
-64.9367612413
 10
47.2511721887
 20
-64.9279465639
 10
47.0927743916
 20
-64.9106120075
 10
46.9298129989
 20
-64.8848931333
 10
46.7633700901
 20
-64.8505442149
 10
46.5933007243
 20
-64.8074524307
 10
46.4196579385
 20
-64.7558054223
 10
46.2438027179
 20
-64.695822862
 10
46.0661499435
 20
-64.6276095458
 10
45.8861761675
 20
-64.551149063
  0
LWPOLYLINE
  5
5D6
100
AcDbEntity
  8
RACCORDO
100
AcDbPolyline
 62
250
  6
CONTINUOUS
 90
22
 70
0
 10
50.2157997485
 20
-62.1665270577
 10
50.2254622572
 20
-62.3612932275
 10
50.2271226992
 20
-62.5486022711
 10
50.2211673804
 20
-62.7283704778
 10
50.2080503824
 20
-62.8995460854
 10
50.188169783
 20
-63.0631827427
 10
50.1614895083
 20
-63.2221291383
 10
50.1278732795
 20
-63.3770549777
 10
50.0875040868
 20
-63.5267350218
 10
50.0404997937
 20
-63.6709106544
 10
49.9869455595
 20
-63.80935903
 10
49.9269322653
 20
-63.9418606375
 10
49.8606015617
 20
-64.06817776
 10
49.788075139
 20
-64.1881047245
 10
49.7094636452
 20
-64.3014684643
 10
49.6249047796
 20
-64.4080953519
 10
49.5345680028
 20
-64.5077869558
 10
49.4385634458
 20
-64.6004255662
 10
49.3369349924
 20
-64.68595028
 10
49.2298998526
 20
-64.7641567
 10
49.117540344
 20
-64.8349579313
 10
49.0590708361
 20
-64.8677237578
  0
LINE
  5
5D7
100
AcDbEntity
  8
RACCORDO
100
AcDbLine
 62
250
  6
CONTINUOUS
 10
49.8020096038
 20
-55.5994222306
 11
49.848570684
 21
-56.5320320189
  0
LINE
  5
5D8
100
AcDbEntity
  8
RACCORDO
100
AcDbLine
 62
250
  6
CONTINUOUS
 10
49.2007625722
 20
-56.1123991432
 11
49.2484409272
 21
-57.0773230138
  0
LINE
  5
5D9
100
AcDbEntity
  8
RACCORDO
100
AcDbLine
 62
250
  6
CONTINUOUS
 10
49.7621025168
 20
-54.7298094269
 11
49.8020096038
 21
-55.5994222306
  0
LINE
  5
5DA
100
AcDbEntity
  8
RACCORDO
100
AcDbLine
 62
250
  6
CONTINUOUS
 10
49.1597638363
 20
-55.2103821701
 11
49.2007625722
 21
-56.1123991432
  0
LINE
  5
5DB
100
AcDbEntity
  8
RACCORDO
100
AcDbLine
 62
250
  6
CONTINUOUS
 10
49.7277349131
 20
-53.9153283844
 11
49.7621025168
 21
-54.7298094269
  0
LINE
  5
5DC
100
AcDbEntity
  8
RACCORDO
100
AcDbLine
 62
250
  6
CONTINUOUS
 10
49.1246186088
 20
-54.3683986336
 11
49.1597638363
 21
-55.2103821701
  0
LINE
  5
5DD
100
AcDbEntity
  8
RACCORDO
100
AcDbLine
 62
250
  6
CONTINUOUS
 10
49.6981910756
 20
-53.149293767
 11
49.7277349131
 21
-53.9153283844
  0
LINE
  5
5DE
100
AcDbEntity
  8
RACCORDO
100
AcDbLine
 62
250
  6
CONTINUOUS
 10
49.0944497684
 20
-53.579710377
 11
49.1246186088
 21
-54.3683986336
  0
LINE
  5
5DF
100
AcDbEntity
  8
RACCORDO
100
AcDbLine
 62
250
  6
CONTINUOUS
 10
49.6723873702
 20
-52.4182866644
 11
49.6981910756
 21
-53.149293767
  0
LINE
  5
5E0
100
AcDbEntity
  8
RACCORDO
100
AcDbLine
 62
250
  6
CONTINUOUS
 10
49.0682615534
 20
-52.8303324495
 11
49.0944497684
 21
-53.579710377
  0
LINE
  5
5E1
100
AcDbEntity
  8
RACCORDO
100
AcDbLine
 62
250
  6
CONTINUOUS
 10
49.6494587736
 20
-51.7091951291
 11
49.6723873702
 21
-52.4182866644
  0
LINE
  5
5E2
100
AcDbEntity
  8
RACCORDO
100
AcDbLine
 62
250
  6
CONTINUOUS
 10
49.0453859556
 20
-52.1118566851
 11
49.0682615534
 21
-52.8303324495
  0
LINE
  5
5E3
100
AcDbEntity
  8
RACCORDO
100
AcDbLine
 62
250
  6
CONTINUOUS
 10
49.619309926
 20
-50.6701351622
 11
49.6494587736
 21
-51.7091951291
  0
LINE
  5
5E4
100
AcDbEntity
  8
RACCORDO
100
AcDbLine
 62
250
  6
CONTINUOUS
 10
49.0155267988
 20
-51.0641797814
 11
49.0453859556
 21
-52.1118566851
  0
LINE
  5
5E5
100
AcDbEntity
  8
RACCORDO
100
AcDbLine
 62
250
  6
CONTINUOUS
 10
49.5928656339
 20
-49.6413173809
 11
49.619309926
 21
-50.6701351622
  0
LINE
  5
5E6
100
AcDbEntity
  8
RACCORDO
100
AcDbLine
 62
250
  6
CONTINUOUS
 10
48.9814717539
 20
-49.689414439
 11
49.0155267988
 21
-51.0641797814
  0
LINE
  5
5E7
100
AcDbEntity
  8
RACCORDO
100
AcDbLine
 62
250
  6
CONTINUOUS
 10
49.5618918989
 20
-48.2662622239
 11
49.5928656339
 21
-49.6413173809
  0
LINE
  5
5E8
100
AcDbEntity
  8
RACCORDO
100
AcDbLine
 62
250
  6
CONTINUOUS
 10
48.9518789677
 20
-48.3134382569
 11
48.9814717539
 21
-49.689414439
  0
LINE
  5
5E9
100
AcDbEntity
  8
RACCORDO
100
AcDbLine
 62
250
  6
CONTINUOUS
 10
49.5282356467
 20
-46.5151083875
 11
49.5618918989
 21
-48.2662622239
  0
LINE
  5
5EA
100
AcDbEntity
  8
RACCORDO
100
AcDbLine
 62
250
  6
CONTINUOUS
 10
48.9193448599
 20
-46.5612682468
 11
48.9518789677
 21
-48.3134382569
  0
LINE
  5
5EB
100
AcDbEntity
  8
RACCORDO
100
AcDbLine
 62
250
  6
CONTINUOUS
 10
49.4931355747
 20
-44.3461180825
 11
49.5282356467
 21
-46.5151083875
  0
LINE
  5
5EC
100
AcDbEntity
  8
RACCORDO
100
AcDbLine
 62
250
  6
CONTINUOUS
 10
48.8850696057
 20
-44.3913030026
 11
48.9193448599
 21
-46.5612682468
  0
LINE
  5
5ED
100
AcDbEntity
  8
RACCORDO
100
AcDbLine
 62
250
  6
CONTINUOUS
 10
49.4637914075
 20
-42.131724118
 11
49.4931355747
 21
-44.3461180825
  0
LINE
  5
5EE
100
AcDbEntity
  8
RACCORDO
100
AcDbLine
 62
250
  6
CONTINUOUS
 10
48.8562554879
 20
-42.1757673383
 11
48.8850696057
 21
-44.3913030026
  0
LINE
  5
5EF
100
AcDbEntity
  8
RACCORDO
100
AcDbLine
 62
250
  6
CONTINUOUS
 10
49.4415189323
 20
-39.9347690761
 11
49.4637914075
 21
-42.131724118
  0
LINE
  5
5F0
100
AcDbEntity
  8
RACCORDO
100
AcDbLine
 62
250
  6
CONTINUOUS
 10
48.8343114288
 20
-39.9775250301
 11
48.8562554879
 21
-42.1757673383
  0
LINE
  5
5F1
100
AcDbEntity
  8
RACCORDO
100
AcDbLine
 62
250
  6
CONTINUOUS
 10
49.4267989738
 20
-37.8065932213
 11
49.4415189323
 21
-39.9347690761
  0
LINE
  5
5F2
100
AcDbEntity
  8
RACCORDO
100
AcDbLine
 62
250
  6
CONTINUOUS
 10
48.8197358439
 20
-37.8479650108
 11
48.8343114288
 21
-39.9775250301
  0
LINE
  5
5F3
100
AcDbEntity
  8
RACCORDO
100
AcDbLine
 62
250
  6
CONTINUOUS
 10
48.8119198193
 20
-35.7594637193
 11
48.8197358439
 21
-37.8479650108
  0
LINE
  5
5F4
100
AcDbEntity
  8
RACCORDO
100
AcDbLine
 62
250
  6
CONTINUOUS
 10
49.4189942126
 20
-35.7193978042
 11
49.4267989738
 21
-37.8065932213
  0
LINE
  5
5F5
100
AcDbEntity
  8
RACCORDO
100
AcDbLine
 62
250
  6
CONTINUOUS
 10
48.809348909
 20
-33.9451871904
 11
48.8119198193
 21
-35.7594637193
  0
LINE
  5
5F6
100
AcDbEntity
  8
RACCORDO
100
AcDbLine
 62
250
  6
CONTINUOUS
 10
49.4164280887
 20
-33.9061757566
 11
49.4189942126
 21
-35.7193978042
  0
LINE
  5
5F7
100
AcDbEntity
  8
RACCORDO
100
AcDbLine
 62
250
  6
CONTINUOUS
 10
48.813703285
 20
-31.4797785228
 11
48.8093486898
 21
-33.9451874074
  0
LINE
  5
5F8
100
AcDbEntity
  8
RACCORDO
100
AcDbLine
 62
250
  6
CONTINUOUS
 10
49.420771601
 20
-31.4421835629
 11
49.4164280887
 21
-33.9061757566
  0
LINE
  5
5F9
100
AcDbEntity
  8
RACCORDO
100
AcDbLine
 62
250
  6
CONTINUOUS
 10
48.8213179981
 20
-29.73945754
 11
48.813703285
 21
-31.4797785228
  0
LWPOLYLINE
  5
5FA
100
AcDbEntity
  8
RACCORDO
100
AcDbPolyline
 62
250
  6
CONTINUOUS
 90
3
 70
0
 10
49.4308147713
 20
-29.296918341
 10
49.4283874539
 20
-29.703009885
 10
49.420771601
 20
-31.4421835629
  0
LINE
  5
5FB
100
AcDbEntity
  8
RACCORDO
100
AcDbLine
 62
250
  6
CONTINUOUS
 10
48.8349885166
 20
-27.8035289179
 11
48.8213179981
 21
-29.73945754
  0
LINE
  5
5FC
100
AcDbEntity
  8
RACCORDO
100
AcDbLine
 62
250
  6
CONTINUOUS
 10
48.8559477046
 20
-25.6879712827
 11
48.8349885166
 21
-27.8035289179
  0
LINE
  5
5FD
100
AcDbEntity
  8
RACCORDO
100
AcDbLine
 62
250
  6
CONTINUOUS
 10
48.8867857095
 20
-23.2920523446
 11
48.8559477046
 21
-25.6879712827
  0
LINE
  5
5FE
100
AcDbEntity
  8
RACCORDO
100
AcDbLine
 62
250
  6
CONTINUOUS
 10
48.9256250297
 20
-20.8350611151
 11
48.8867857095
 21
-23.2920523446
  0
LINE
  5
5FF
100
AcDbEntity
  8
RACCORDO
100
AcDbLine
 62
250
  6
CONTINUOUS
 10
48.9596518361
 20
-19.0229664281
 11
48.9256250297
 21
-20.8350611151
  0
LINE
  5
600
100
AcDbEntity
  8
RACCORDO
100
AcDbLine
 62
250
  6
CONTINUOUS
 10
48.9916430055
 20
-17.5556520723
 11
48.9596518361
 21
-19.0229664281
  0
LINE
  5
601
100
AcDbEntity
  8
RACCORDO
100
AcDbLine
 62
250
  6
CONTINUOUS
 10
49.0188590256
 20
-16.4561132079
 11
48.9916430055
 21
-17.5556520723
  0
LINE
  5
602
100
AcDbEntity
  8
RACCORDO
100
AcDbLine
 62
250
  6
CONTINUOUS
 10
49.0493370463
 20
-15.3657881076
 11
49.0188590256
 21
-16.4561132079
  0
LINE
  5
603
100
AcDbEntity
  8
RACCORDO
100
AcDbLine
 62
250
  6
CONTINUOUS
 10
49.0834738158
 20
-14.2905767236
 11
49.0493370463
 21
-15.3657881076
  0
LINE
  5
604
100
AcDbEntity
  8
RACCORDO
100
AcDbLine
 62
250
  6
CONTINUOUS
 10
49.1213572654
 20
-13.2319678558
 11
49.0834738158
 21
-14.2905767236
  0
LINE
  5
605
100
AcDbEntity
  8
RACCORDO
100
AcDbLine
 62
250
  6
CONTINUOUS
 10
49.1486398989
 20
-12.5335594247
 11
49.1213572654
 21
-13.2319678558
  0
LINE
  5
606
100
AcDbEntity
  8
RACCORDO
100
AcDbLine
 62
7
  6
CONTINUOUS
 10
24.1324506975
 20
-43.1349557071
 11
24.1098544322
 21
-43.1509222759
  0
LINE
  5
607
100
AcDbEntity
  8
RACCORDO
100
AcDbLine
 62
7
  6
CONTINUOUS
 10
24.1108744732
 20
-43.1502432743
 11
24.1098323687
 21
-43.1509386846
  0
LWPOLYLINE
  5
608
100
AcDbEntity
  8
RACCORDO
100
AcDbPolyline
 62
250
  6
CONTINUOUS
 90
6
 70
0
 10
24.1098323687
 20
-43.1509386846
 10
24.0599898873
 20
-43.1808528407
 10
24.0114284348
 20
-43.2043702793
 10
23.9602732381
 20
-43.2239952543
 10
23.90674197
 20
-43.2395936352
 10
23.8673029663
 20
-43.247748148
  0
LWPOLYLINE
  5
609
100
AcDbEntity
  8
RACCORDO
100
AcDbPolyline
 62
250
  6
CONTINUOUS
 90
15
 70
0
 10
23.7278273637
 20
-43.3243521148
 10
23.7671585872
 20
-43.3008779452
 10
23.8195818913
 20
-43.2631280687
 10
23.8684913286
 20
-43.2199448302
 10
23.9137214072
 20
-43.1714743471
 10
23.9551190857
 20
-43.1178806253
 10
23.9925442882
 20
-43.0593450061
 10
24.0258703777
 20
-42.996065557
 10
24.0549845871
 20
-42.9282563993
 10
24.0797884031
 20
-42.8561469793
 10
24.1001978983
 20
-42.7799812919
 10
24.1161440136
 20
-42.700017059
 10
24.1275727927
 20
-42.6165248553
 10
24.1344455651
 20
-42.5297871918
 10
24.1367390759
 20
-42.4400975618
  0
LINE
  5
60A
100
AcDbEntity
  8
RACCORDO
100
AcDbLine
 62
250
  6
CONTINUOUS
 10
24.1367390759
 20
-42.4400975618
 11
24.3953290207
 21
-42.2959138607
  0
LINE
  5
60B
100
AcDbEntity
  8
DRAFT
100
AcDbLine
 62
7
  6
CONTINUOUS
 10
24.2150647349
 20
-43.0567474965
 11
23.7278273637
 21
-43.3243521148
  0
LINE
  5
60C
100
AcDbEntity
  8
RACCORDO
100
AcDbLine
 62
7
  6
CONTINUOUS
 10
24.1599006203
 20
-43.1119035712
 11
24.1188389081
 21
-43.1318476834
  0
LWPOLYLINE
  5
60D
100
AcDbEntity
  8
RACCORDO
100
AcDbPolyline
 62
7
  6
CONTINUOUS
 90
3
 70
0
 10
24.1188389081
 20
-43.1318476834
 10
24.0595626743
 20
-43.1540766717
 10
24.0167778571
 20
-43.1656522878
  0
LINE
  5
60E
100
AcDbEntity
  8
RACCORDO
100
AcDbLine
 62
250
  6
CONTINUOUS
 10
-47.2207291202
 20
44.6362243829
 11
-47.04525056
 21
44.6408963781
  0
LWPOLYLINE
  5
60F
100
AcDbEntity
  8
RACCORDO
100
AcDbPolyline
 62
7
  6
CONTINUOUS
 90
8
 70
0
 10
-47.1271181428
 20
44.6047451275
 10
-47.1332924067
 20
44.6047373415
 10
-47.1478234096
 20
44.605926892
 10
-47.162418129
 20
44.6087753911
 10
-47.1770863007
 20
44.6132605198
 10
-47.1917694511
 20
44.6193612992
 10
-47.2063436978
 20
44.6270308097
 10
-47.2207221696
 20
44.6362194988
  0
LINE
  5
610
100
AcDbEntity
  8
RACCORDO
100
AcDbLine
 62
250
  6
CONTINUOUS
 10
49.4487531015
 20
-27.0468582629
 11
49.4308147713
 21
-29.296918341
  0
LINE
  5
611
100
AcDbEntity
  8
RACCORDO
100
AcDbLine
 62
250
  6
CONTINUOUS
 10
49.4760089603
 20
-24.6287529546
 11
49.4487531015
 21
-27.0468582629
  0
LINE
  5
612
100
AcDbEntity
  8
RACCORDO
100
AcDbLine
 62
250
  6
CONTINUOUS
 10
49.5108201983
 20
-22.219936221
 11
49.4760089603
 21
-24.6287529546
  0
LINE
  5
613
100
AcDbEntity
  8
RACCORDO
100
AcDbLine
 62
250
  6
CONTINUOUS
 10
49.5480080599
 20
-20.0854940922
 11
49.5108201983
 21
-22.219936221
  0
LINE
  5
614
100
AcDbEntity
  8
RACCORDO
100
AcDbLine
 62
250
  6
CONTINUOUS
 10
49.577915631
 20
-18.6292947321
 11
49.5480080599
 21
-20.0854940922
  0
LINE
  5
615
100
AcDbEntity
  8
RACCORDO
100
AcDbLine
 62
250
  6
CONTINUOUS
 10
49.6036131753
 20
-17.5297831935
 11
49.577915631
 21
-18.6292947321
  0
LINE
  5
616
100
AcDbEntity
  8
RACCORDO
100
AcDbLine
 62
250
  6
CONTINUOUS
 10
49.6324624923
 20
-16.4323483412
 11
49.6036131753
 21
-17.5297831935
  0
LINE
  5
617
100
AcDbEntity
  8
RACCORDO
100
AcDbLine
 62
250
  6
CONTINUOUS
 10
49.6648084812
 20
-15.3444954622
 11
49.6324624923
 21
-16.4323483412
  0
LINE
  5
618
100
AcDbEntity
  8
RACCORDO
100
AcDbLine
 62
250
  6
CONTINUOUS
 10
49.6884447625
 20
-14.6274792735
 11
49.6648084812
 21
-15.3444954622
  0
LINE
  5
619
100
AcDbEntity
  8
RACCORDO
100
AcDbLine
 62
250
  6
CONTINUOUS
 10
49.7271125954
 20
-13.5664376582
 11
49.6884447625
 21
-14.6274792735
  0
LINE
  5
61A
100
AcDbEntity
  8
RACCORDO
100
AcDbLine
 62
250
  6
CONTINUOUS
 10
49.7695611279
 20
-12.5196778565
 11
49.7271125954
 21
-13.5664376582
  0
LINE
  5
61B
100
AcDbEntity
  8
RACCORDO
100
AcDbLine
 62
250
  6
CONTINUOUS
 10
49.1926928917
 20
-11.4907947885
 11
49.1486398989
 21
-12.5335594247
  0
LINE
  5
61C
100
AcDbEntity
  8
RACCORDO
100
AcDbLine
 62
250
  6
CONTINUOUS
 10
49.8159366052
 20
-11.4798107182
 11
49.7695611279
 21
-12.5196778565
  0
LINE
  5
61D
100
AcDbEntity
  8
RACCORDO
100
AcDbLine
 62
250
  6
CONTINUOUS
 10
49.2407447383
 20
-10.4460630879
 11
49.1926928917
 21
-11.4907947885
  0
LINE
  5
61E
100
AcDbEntity
  8
RACCORDO
100
AcDbLine
 62
250
  6
CONTINUOUS
 10
49.8665730075
 20
-10.4381031144
 11
49.8159366052
 21
-11.4798107182
  0
LINE
  5
61F
100
AcDbEntity
  8
RACCORDO
100
AcDbLine
 62
250
  6
CONTINUOUS
 10
49.2932172471
 20
-9.3901119484
 11
49.2407447383
 21
-10.4460630879
  0
LINE
  5
620
100
AcDbEntity
  8
RACCORDO
100
AcDbLine
 62
250
  6
CONTINUOUS
 10
49.9219654791
 20
-9.3853540728
 11
49.8665730075
 21
-10.4381031144
  0
LINE
  5
621
100
AcDbEntity
  8
RACCORDO
100
AcDbLine
 62
250
  6
CONTINUOUS
 10
49.3508343161
 20
-8.3107112625
 11
49.2932172471
 21
-9.3901119484
  0
LINE
  5
622
100
AcDbEntity
  8
RACCORDO
100
AcDbLine
 62
250
  6
CONTINUOUS
 10
49.961892628
 20
-8.6718474328
 11
49.9219654791
 21
-9.3853540728
  0
LINE
  5
623
100
AcDbEntity
  8
RACCORDO
100
AcDbLine
 62
250
  6
CONTINUOUS
 10
49.392663195
 20
-7.5703918729
 11
49.3508343161
 21
-8.3107112625
  0
LINE
  5
624
100
AcDbEntity
  8
RACCORDO
100
AcDbLine
 62
250
  6
CONTINUOUS
 10
50.0047126202
 20
-7.942694507
 11
49.961892628
 21
-8.6718474328
  0
LINE
  5
625
100
AcDbEntity
  8
RACCORDO
100
AcDbLine
 62
250
  6
CONTINUOUS
 10
49.4378526926
 20
-6.8060131461
 11
49.392663195
 21
-7.5703918729
  0
LINE
  5
626
100
AcDbEntity
  8
RACCORDO
100
AcDbLine
 62
250
  6
CONTINUOUS
 10
50.0507805274
 20
-7.1938524415
 11
50.0047126202
 21
-7.942694507
  0
LINE
  5
627
100
AcDbEntity
  8
RACCORDO
100
AcDbLine
 62
250
  6
CONTINUOUS
 10
49.4869717821
 20
-6.0119587111
 11
49.4378526926
 21
-6.8060131461
  0
LINE
  5
628
100
AcDbEntity
  8
RACCORDO
100
AcDbLine
 62
250
  6
CONTINUOUS
 10
50.1006617858
 20
-6.4192779371
 11
50.0507805274
 21
-7.1938524415
  0
LWPOLYLINE
  5
629
100
AcDbEntity
  8
RACCORDO
100
AcDbPolyline
 62
250
  6
CONTINUOUS
 90
3
 70
0
 10
49.5701854051
 20
-4.7422813855
 10
49.5411430035
 20
-5.1755779101
 10
49.4869717821
 20
-6.0119587111
  0
LINE
  5
62A
100
AcDbEntity
  8
RACCORDO
100
AcDbLine
 62
250
  6
CONTINUOUS
 10
50.1555565507
 20
-5.6070690305
 11
50.1006617858
 21
-6.4192779371
  0
LINE
  5
62B
100
AcDbEntity
  8
RACCORDO
100
AcDbLine
 62
250
  6
CONTINUOUS
 10
50.2157997485
 20
-4.7538801817
 11
50.1555565507
 21
-5.6070690305
  0
LWPOLYLINE
  5
62C
100
AcDbEntity
  8
RACCORDO
100
AcDbPolyline
 62
250
  6
CONTINUOUS
 90
16
 70
0
 10
49.4164280887
 20
-33.9061757566
 10
49.383624032
 20
-33.9229441674
 10
49.348407154
 20
-33.9379902685
 10
49.3110476137
 20
-33.9511986658
 10
49.2718320076
 20
-33.9624680731
 10
49.2310611705
 20
-33.9717120438
 10
49.1890478683
 20
-33.9788596342
 10
49.1461143982
 20
-33.9838560076
 10
49.102590116
 20
-33.9866628553
 10
49.0588089106
 20
-33.9872586448
 10
49.0151066413
 20
-33.9856387852
 10
48.971818562
 20
-33.9818157076
 10
48.9292767497
 20
-33.97581877
 10
48.8878075563
 20
-33.9676939718
 10
48.8477291049
 20
-33.957503601
 10
48.80934885
 20
-33.9453258014
  0
LWPOLYLINE
  5
62D
100
AcDbEntity
  8
RACCORDO
100
AcDbPolyline
 62
7
  6
CONTINUOUS
 90
12
 70
0
 10
-54.1278077396
 20
49.9948901243
 10
-54.1497910376
 20
49.9931225727
 10
-54.1697864919
 20
49.9903277855
 10
-54.1877940785
 20
49.9865057952
 10
-54.2038544645
 20
49.9816249966
 10
-54.2179268932
 20
49.9757171155
 10
-54.2298891896
 20
49.9688772014
 10
-54.2397243139
 20
49.9610959026
 10
-54.2474491526
 20
49.9523827775
 10
-54.2529924192
 20
49.9428612409
 10
-54.2563169103
 20
49.9325015206
 10
-54.25716617
 20
49.9269295641
  0
LINE
  5
62E
100
AcDbEntity
  8
RACCORDO
100
AcDbLine
 62
7
  6
CONTINUOUS
 10
-54.1277806733
 20
49.9948915151
 11
-53.6254167823
 21
50.0207054758
  0
LWPOLYLINE
  5
62F
100
AcDbEntity
  8
RACCORDO
100
AcDbPolyline
 62
250
  6
CONTINUOUS
 90
13
 70
0
 10
-38.8331834757
 20
54.6815699223
 10
-38.8253945174
 20
54.6816428509
 10
-38.8004208988
 20
54.6836019911
 10
-38.7753058322
 20
54.6872749032
 10
-38.7502364838
 20
54.6926342112
 10
-38.7253996776
 20
54.6996399724
 10
-38.7009804895
 20
54.7082399792
 10
-38.6771608984
 20
54.7183701408
 10
-38.6541184146
 20
54.7299549634
 10
-38.6320247435
 20
54.7429081213
 10
-38.6110445311
 20
54.7571330885
 10
-38.5913341344
 20
54.7725238547
 10
-38.573040443
 20
54.7889657242
  0
LWPOLYLINE
  5
630
100
AcDbEntity
  8
RACCORDO
100
AcDbPolyline
 62
7
  6
CONTINUOUS
 90
16
 70
0
 10
-38.7648505965
 20
55.0593183582
 10
-38.7675105784
 20
55.0595814259
 10
-38.766689287
 20
55.0594332874
 10
-38.7624439515
 20
55.0585096046
 10
-38.755197934
 20
55.0566083829
 10
-38.7448871964
 20
55.0534805947
 10
-38.731480351
 20
55.0489066097
 10
-38.7154546067
 20
55.0428880712
 10
-38.6968292924
 20
55.0353152011
 10
-38.6755305594
 20
55.0260494676
 10
-38.651848205
 20
55.0151284408
 10
-38.6258030169
 20
55.0024968763
 10
-38.5973366909
 20
54.9880704736
 10
-38.5665927139
 20
54.971864986
 10
-38.5336461547
 20
54.9538659469
 10
-38.4985149872
 20
54.9340405366
  0
LWPOLYLINE
  5
631
100
AcDbEntity
  8
0
100
AcDbPolyline
 62
7
  6
CONTINUOUS
 90
19
 70
0
 10
59.4965924127
 20
5.1620968074
 10
59.5376278301
 20
5.0888965318
 10
59.7148220901
 20
4.7532855247
 10
59.882737686
 20
4.4148109653
 10
60.0413216978
 20
4.0734565215
 10
60.1906270457
 20
3.7292385255
 10
60.3298037934
 20
3.3841164737
 10
60.4587941734
 20
3.0380852099
 10
60.5776559533
 20
2.6911498903
 10
60.6857125001
 20
2.3452854801
 10
60.782902187
 20
2.0004980872
 10
60.8692866409
 20
1.6567816036
 10
60.9443741093
 20
1.3160926709
 10
61.0081001608
 20
0.9784485567
 10
61.0605292267
 20
0.6438319934
 10
61.1013628493
 20
0.3141478204
 10
61.1305015426
 20
-0.0099690158
 10
61.1480447926
 20
-0.3291534617
 10
61.1539925992
 20
-0.6434055173
  0
LINE
  5
632
100
AcDbEntity
  8
RACCORDO
100
AcDbLine
 62
7
  6
CONTINUOUS
 10
60.5953548432
 20
1.2391249721
 11
60.5953548432
 21
-56.5847382233
  0
LINE
  5
633
100
AcDbEntity
  8
0
100
AcDbLine
 62
7
  6
CONTINUOUS
 10
61.1539925992
 20
-0.6434055173
 11
61.1539925992
 21
-51.2645626785
  0
LWPOLYLINE
  5
634
100
AcDbEntity
  8
0
100
AcDbPolyline
 62
7
  6
CONTINUOUS
 90
11
 70
0
 10
61.1539925992
 20
-51.2645626785
 10
61.1480447926
 20
-51.5719463561
 10
61.1305015426
 20
-51.8708722966
 10
61.1013628493
 20
-52.1613405002
 10
61.0605292267
 20
-52.4438710293
 10
61.0081001608
 20
-52.7179438215
 10
60.9443741093
 20
-52.9819986889
 10
60.8692866409
 20
-53.2359784951
 10
60.782902187
 20
-53.4799403767
 10
60.6857125001
 20
-53.7124955553
 10
60.5953548432
 20
-53.8973670901
  0
LWPOLYLINE
  5
635
100
AcDbEntity
  8
RACCORDO
100
AcDbPolyline
 62
250
  6
CONTINUOUS
 90
5
 70
0
 10
41.7458750459
 20
-62.0784019095
 10
41.7595646884
 20
-62.0555879618
 10
41.7753671454
 20
-62.0346198132
 10
41.7931299698
 20
-62.0156997452
 10
41.812681803
 20
-61.9990102806
  0
LWPOLYLINE
  5
636
100
AcDbEntity
  8
0
100
AcDbPolyline
 62
7
  6
CONTINUOUS
 90
11
 70
0
 10
-43.2999775744
 20
66.1250633422
 10
-43.0942976054
 20
66.1108362543
 10
-42.8442928845
 20
66.0787080301
 10
-42.5898124894
 20
66.0315192014
 10
-42.3323050762
 20
65.9695383953
 10
-42.0717533806
 20
65.892681247
 10
-41.8081746667
 20
65.8010321214
 10
-41.5430693839
 20
65.6951127406
 10
-41.2769376816
 20
65.575097012
 10
-41.0092794102
 20
65.4408110283
 10
-40.7400945698
 20
65.2922547893
  0
LWPOLYLINE
  5
637
100
AcDbEntity
  8
RACCORDO
100
AcDbPolyline
 62
250
  6
CONTINUOUS
 90
21
 70
0
 10
41.2349933397
 20
-61.1947835216
 10
41.2814328322
 20
-61.168159055
 10
41.3767047239
 20
-61.1059561808
 10
41.4665385299
 20
-61.0365436532
 10
41.5507672466
 20
-60.9600268658
 10
41.6293228332
 20
-60.8764662737
 10
41.7020797949
 20
-60.7859460917
 10
41.7688391649
 20
-60.6886516165
 10
41.829452662
 20
-60.5848364408
 10
41.8836209149
 20
-60.4751174158
 10
41.931460513
 20
-60.3593251622
 10
41.9733078297
 20
-60.2363818227
 10
42.0090001293
 20
-60.105946612
 10
42.0381282933
 20
-59.9684258589
 10
42.0604589839
 20
-59.82367161
 10
42.0757229903
 20
-59.6714430909
 10
42.0835831622
 20
-59.5121459049
 10
42.0837797136
 20
-59.3466910358
 10
42.0761590128
 20
-59.1755802742
 10
42.0605649945
 20
-58.9988191087
 10
42.0368496106
 20
-58.8166838906
  0
LINE
  5
638
100
AcDbEntity
  8
RACCORDO
100
AcDbLine
 62
250
  6
CONTINUOUS
 10
42.2352374239
 20
-58.7060674891
 11
42.0368496106
 21
-58.8166838906
  0
LINE
  5
639
100
AcDbEntity
  8
RACCORDO
100
AcDbLine
 62
7
  6
CONTINUOUS
 10
41.2347480219
 20
-61.1949182266
 11
41.2349933397
 21
-61.1947835216
  0
LINE
  5
63A
100
AcDbEntity
  8
DRAFT
100
AcDbLine
 62
7
  6
CONTINUOUS
 10
42.4975592538
 20
-60.5013464219
 11
41.2349920965
 21
-61.1947842044
  0
LINE
  5
63B
100
AcDbEntity
  8
RACCORDO
100
AcDbLine
 62
250
  6
CONTINUOUS
 10
41.812681803
 20
-61.9990102806
 11
41.8338340275
 21
-61.984712424
  0
LWPOLYLINE
  5
63C
100
AcDbEntity
  8
RACCORDO
100
AcDbPolyline
 62
7
  6
CONTINUOUS
 90
20
 70
0
 10
41.8157841815
 20
-61.994210485
 10
41.7937506491
 20
-62.0088417921
 10
41.7717809354
 20
-62.0260432173
 10
41.7511183602
 20
-62.0450973561
 10
41.7319288948
 20
-62.0659236204
 10
41.7143491734
 20
-62.0884533079
 10
41.6985423202
 20
-62.112560496
 10
41.6846573695
 20
-62.1380980817
 10
41.6728010668
 20
-62.1649615726
 10
41.6630874803
 20
-62.1930083357
 10
41.6556218377
 20
-62.2220426694
 10
41.6504687907
 20
-62.2519093626
 10
41.647673861
 20
-62.2824989373
 10
41.6472773369
 20
-62.3136090342
 10
41.6492805912
 20
-62.3450334764
 10
41.6536707417
 20
-62.3767168677
 10
41.6604379982
 20
-62.4085868086
 10
41.6695496694
 20
-62.4405207238
 10
41.6809880723
 20
-62.4724848397
 10
41.6842459597
 20
-62.4805602691
  0
LINE
  5
63D
100
AcDbEntity
  8
RACCORDO
100
AcDbLine
 62
7
  6
CONTINUOUS
 10
42.1026376913
 20
-61.8186132937
 11
41.8155307884
 21
-61.9943606161
  0
LINE
  5
63E
100
AcDbEntity
  8
RACCORDO
100
AcDbLine
 62
250
  6
CONTINUOUS
 10
41.8338339976
 20
-61.984712357
 11
42.0959094596
 21
-61.8244715906
  0
LWPOLYLINE
  5
63F
100
AcDbEntity
  8
RACCORDO
100
AcDbPolyline
 62
250
  6
CONTINUOUS
 90
19
 70
0
 10
50.2157997485
 20
-62.1665270577
 10
50.186683393
 20
-62.1842538036
 10
50.1556143677
 20
-62.200597436
 10
50.1227833242
 20
-62.2154576646
 10
50.0883917259
 20
-62.2287433022
 10
50.0526506135
 20
-62.2403728234
 10
50.0157793098
 20
-62.2502748653
 10
49.9780040715
 20
-62.2583886659
 10
49.9395567013
 20
-62.264664437
 10
49.9006731285
 20
-62.2690636688
 10
49.8615919569
 20
-62.2715593671
 10
49.8225530026
 20
-62.2721362186
 10
49.7837958238
 20
-62.2707906848
 10
49.745558248
 20
-62.2675310236
 10
49.708074914
 20
-62.2623772388
 10
49.6715758325
 20
-62.2553609573
 10
49.636284974
 20
-62.2465252349
 10
49.602418894
 20
-62.2359242919
 10
49.5701854051
 20
-62.2236231806
  0
LINE
  5
640
100
AcDbEntity
  8
RACCORDO
100
AcDbLine
 62
7
  6
CONTINUOUS
 10
41.9783985806
 20
-61.910519736
 11
41.9758690344
 21
-61.9120487375
  0
LINE
  5
641
100
AcDbEntity
  8
0
100
AcDbLine
 62
250
  6
CONTINUOUS
 10
60.5953548432
 20
-51.5871131174
 11
61.1539925992
 21
-51.2645626785
  0
LWPOLYLINE
  5
642
100
AcDbEntity
  8
RACCORDO
100
AcDbPolyline
 62
250
  6
CONTINUOUS
 90
3
 70
0
 10
41.9758690344
 20
-61.9120487375
 10
41.9181101852
 20
-61.9445999093
 10
41.8338339976
 20
-61.984712357
  0
LINE
  5
643
100
AcDbEntity
  8
RACCORDO
100
AcDbLine
 62
250
  6
CONTINUOUS
 10
50.2157997485
 20
-62.1665270577
 11
60.5953548432
 21
-56.5847382233
  0
LINE
  5
644
100
AcDbEntity
  8
RACCORDO
100
AcDbLine
 62
250
  6
CONTINUOUS
 10
41.8338340627
 20
-61.9847124876
 11
41.815770006
 21
-61.9942145191
  0
LWPOLYLINE
  5
645
100
AcDbEntity
  8
RACCORDO
100
AcDbPolyline
 62
250
  6
CONTINUOUS
 90
16
 70
0
 10
41.7886406803
 20
-62.4287263616
 10
41.7823724225
 20
-62.4319768659
 10
41.7767823995
 20
-62.4359244013
 10
41.7718706522
 20
-62.4405689345
 10
41.7676224932
 20
-62.4459072472
 10
41.7640526708
 20
-62.4519425082
 10
41.7612053451
 20
-62.4586842926
 10
41.7590625374
 20
-62.4661535952
 10
41.7576422013
 20
-62.4743294418
 10
41.7570422633
 20
-62.4831585613
 10
41.7572796558
 20
-62.492680765
 10
41.7583371626
 20
-62.5028564726
 10
41.7602612491
 20
-62.5135135193
 10
41.7630671551
 20
-62.5245947191
 10
41.7667390368
 20
-62.5361577496
 10
41.7712766049
 20
-62.5482028465
  0
LINE
  5
646
100
AcDbEntity
  8
RACCORDO
100
AcDbLine
 62
7
  6
CONTINUOUS
 10
49.0586807434
 20
-64.8679335914
 11
59.3003336785
 21
-59.3603040758
  0
ELLIPSE
  5
647
100
AcDbEntity
  8
RACCORDO
100
AcDbEllipse
 62
7
  6
CONTINUOUS
 10
-43.5826630491
 20
51.4193203867
 30
0.0
 11
2.6693068322
 21
4.4630700403
 31
0.0
 40
0.5873179545
 41
0.0090366249
 42
0.2757660771
  0
ELLIPSE
  5
648
100
AcDbEntity
  8
RACCORDO
100
AcDbEllipse
 62
7
  6
CONTINUOUS
 10
35.2173150843
 20
5.9212006081
 30
0.0
 11
2.5331223372
 21
4.5417332085
 31
0.0
 40
0.5671693725
 41
0.1147108021
 42
0.2583021568
  0
ELLIPSE
  5
649
100
AcDbEntity
  8
RACCORDO
100
AcDbEllipse
 62
7
  6
CONTINUOUS
 10
72.4574605117
 20
23.6557060782
 30
0.0
 11
41.9733507302
 21
23.8103593035
 31
0.0
 40
0.034575876
 41
2.7964778963
 42
2.8475914906
  0
ELLIPSE
  5
64A
100
AcDbEntity
  8
RACCORDO
100
AcDbEllipse
 62
7
  6
CONTINUOUS
 10
56.352067883
 20
-54.1332251711
 30
0.0
 11
-3.0010587713
 21
5.1976516967
 31
0.0
 40
0.5771558487
 41
-3.1590397888
 42
-2.3563950755
  0
ELLIPSE
  5
64B
100
AcDbEntity
  8
RACCORDO
100
AcDbEllipse
 62
7
  6
CONTINUOUS
 10
56.352067883
 20
3.6876533399
 30
0.0
 11
-3.0001450934
 21
5.1960686503
 31
0.0
 40
0.5775075436
 41
-2.3560905478
 42
-0.7855988075
  0
ELLIPSE
  5
64C
100
AcDbEntity
  8
RACCORDO
100
AcDbEllipse
 62
7
  6
CONTINUOUS
 10
-45.6255327558
 20
62.5682418692
 30
0.0
 11
-3.0010587713
 21
5.1976516967
 31
0.0
 40
0.5771558487
 41
-0.7852941622
 42
0.0174471352
  0
ENDSEC
  0
SECTION
  2
OBJECTS
  0
DICTIONARY
  5
C
100
AcDbDictionary
280
0
281
1
  3
ACAD_GROUP
350
D
  3
ACAD_MLINESTYLE
350
17
  3
ACAD_LAYOUT
350
1A
  3
ACAD_PLOTSETTINGS
350
19
  3
ACAD_PLOTSTYLENAME
350
E
  0
DICTIONARY
  5
D
102
{ACAD_REACTORS
330
C
102
}
100
AcDbDictionary
280
0
281
1
  0
ACDBDICTIONARYWDFLT
  5
E
102
{ACAD_REACTORS
330
C
102
}
100
AcDbDictionary
281
1
  3
Normal
350
F
100
AcDbDictionaryWithDefault
340
F
  0
DICTIONARY
  5
17
102
{ACAD_REACTORS
330
C
102
}
100
AcDbDictionary
280
0
281
1
  3
Standard
350
18
  0
DICTIONARY
  5
19
102
{ACAD_REACTORS
330
C
102
}
100
AcDbDictionary
281
1
  0
DICTIONARY
  5
1A
102
{ACAD_REACTORS
330
C
102
}
100
AcDbDictionary
281
1
  3
Model
350
64D
  3
Layout1
350
64E
  0
ACDBPLACEHOLDER
  5
F
102
{ACAD_REACTORS
330
E
102
}
  0
MLINESTYLE
  5
18
102
{ACAD_REACTORS
330
17
102
}
100
AcDbMlineStyle
  2
STANDARD
 70
0
  3

 62
256
 51
90.0
 52
90.0
 71
2
 49
0.5
 62
256
  6
BYLAYER
 49
-0.5
 62
256
  6
BYLAYER
  0
LAYOUT
  5
64D
102
{ACAD_REACTORS
330
1A
102
}
100
AcDbPlotSettings
  1

  2
none_device
  4
ISO_A4_(297.00_x_210.00_MM)
  6

 40
0.0
 41
0.0
 42
0.0
 43
0.0
 44
297.0
 45
210.0
 46
0.0
 47
0.0
 48
0.0
 49
0.0
140
0.0
141
0.0
142
1.0
143
1.0
 70
1024
 72
1
 73
0
 74
0
  7

 75
0
147
1.0
148
0.0
149
0.0
100
AcDbLayout
  1
Model
 70
0
 71
0
 10
0.0
 20
0.0
 11
297.0
 21
210.0
 12
0.0
 22
0.0
 32
0.0
 14
0.0
 24
0.0
 34
0.0
 15
0.0
 25
0.0
 35
0.0
146
0.0
 13
0.0
 23
0.0
 33
0.0
 16
1.0
 26
0.0
 36
0.0
 17
0.0
 27
1.0
 37
0.0
 76
0
330
217
345
0
346
0
  0
LAYOUT
  5
64E
102
{ACAD_REACTORS
330
1A
102
}
100
AcDbPlotSettings
  1

  2
none_device
  4
ISO_A4_(297.00_x_210.00_MM)
  6

 40
0.0
 41
0.0
 42
0.0
 43
0.0
 44
297.0
 45
210.0
 46
0.0
 47
0.0
 48
0.0
 49
0.0
140
0.0
141
0.0
142
1.0
143
1.0
 70
0
 72
1
 73
0
 74
0
  7

 75
0
147
1.0
148
0.0
149
0.0
100
AcDbLayout
  1
Layout1
 70
0
 71
1
 10
0.0
 20
0.0
 11
297.0
 21
210.0
 12
0.0
 22
0.0
 32
0.0
 14
0.0
 24
0.0
 34
0.0
 15
0.0
 25
0.0
 35
0.0
146
0.0
 13
0.0
 23
0.0
 33
0.0
 16
1.0
 26
0.0
 36
0.0
 17
0.0
 27
1.0
 37
0.0
 76
0
330
218
345
0
346
0
  0
ENDSEC
  0
EOF
