  0
SECTION
  2
HEADER
  9
$ACADVER
  1
AC1024
  9
$DWGCODEPAGE
  3
ANSI_1252
  9
$EXTMAX
 10
558.8
 20
431.8
 30
0.0
  9
$EXTMIN
 10
0.0
 20
0.0
 30
0.0
  9
$LIMMIN
 10
0.0
 20
0.0
  9
$LIMMAX
 10
558.8
 20
431.8
  9
$VIEWCTR
 10
279.4
 20
215.9
  9
$VIEWSIZE
 40
431.8
  9
$CLAYER
  8
0
  9
$LTSCALE
 40
30.734
  9
$CELTYPE
  6
BYLAYER
  9
$DIMSCALE
 40
1.0
  9
$DIMASZ
 40
3.0
  9
$DIMEXO
 40
0.5
  9
$DIMDLI
 40
21.2344
  9
$DIMEXE
 40
1.5
  9
$DIMCEN
 40
5.0292
  9
$DIMLFAC
 40
1.0
  9
$DIMBLK
  1
_FILLED
  9
$DIMALT
 70
0
  9
$DIMALTF
 40
0.0393700787
  9
$DIMTXT
 40
3.0
  9
$DIMTOL
 70
1
  9
$DIMLIM
 70
0
  9
$DIMTFAC
 40
1.0
  9
$DIMTP
 40
0.01
  9
$DIMTM
 40
0.01
  9
$DIMGAP
 40
0.625
  9
$DIMDSEP
 70
44
  9
$AUNITS
 70
0
  9
$PDMODE
 70
3
  9
$PDSIZE
 40
3.0
  9
$HANDSEED
  5
58F
  9
$TILEMODE
 70
1
  9
$MEASUREMENT
 70
1
  9
$INSUNITS
 70
4
  0
ENDSEC
  0
SECTION
  2
CLASSES
  0
CLASS
  1
ACDBDICTIONARYWDFLT
  2
AcDbDictionaryWithDefault
  3
AutoCAD 2000
 90
0
 91
1
280
0
281
0
  0
CLASS
  1
ACDBPLACEHOLDER
  2
AcDbPlaceHolder
  3
AutoCAD 2000
 90
0
 91
1
280
0
281
0
  0
CLASS
  1
LAYOUT
  2
AcDbLayout
  3
AutoCAD 2000
 90
0
 91
0
280
0
281
0
  0
ENDSEC
  0
SECTION
  2
TABLES
  0
TABLE
  2
VPORT
  5
8
100
AcDbSymbolTable
 70
2
  0
VPORT
  5
1F4
100
AcDbSymbolTableRecord
100
AcDbViewportTableRecord
  2
*ACTIVE
 70
0
 10
0.0
 20
0.0
 11
1.0
 21
1.0
 12
279.4
 22
215.9
 13
0.0
 23
0.0
 14
1.0
 24
1.0
 15
0.0
 25
0.0
 16
0.0
 26
0.0
 36
1.0
 17
0.0
 27
0.0
 37
0.0
 40
431.8
 41
1.2941176471
 42
50.0
 43
0.0
 44
0.0
 50
0.0
 51
0.0
 71
0
 72
100
 73
1
 74
1
 75
0
 76
0
 77
0
 78
0
  0
ENDTAB
  0
TABLE
  2
LTYPE
  5
5
100
AcDbSymbolTable
 70
6
  0
LTYPE
  5
14
100
AcDbSymbolTableRecord
100
AcDbLinetypeTableRecord
  2
BYBLOCK
 70
0
  3

 72
65
 73
0
 40
0.0
  0
LTYPE
  5
15
100
AcDbSymbolTableRecord
100
AcDbLinetypeTableRecord
  2
BYLAYER
 70
0
  3

 72
65
 73
0
 40
0.0
  0
LTYPE
  5
16
100
AcDbSymbolTableRecord
100
AcDbLinetypeTableRecord
  2
CONTINUOUS
 70
64
  3
Solid line
 72
65
 73
0
 40
0.0
  0
LTYPE
  5
1F5
100
AcDbSymbolTableRecord
100
AcDbLinetypeTableRecord
  2
CENTER
 70
64
  3
____ _ ____ _ ____ _ ____ _ ____ _ ____ _ ____
 72
65
 73
4
 40
0.6
 49
0.375
 74
0
 49
-0.075
 74
0
 49
0.075
 74
0
 49
-0.075
 74
0
  0
LTYPE
  5
1F6
100
AcDbSymbolTableRecord
100
AcDbLinetypeTableRecord
  2
HIDDEN
 70
64
  3
- - - - - - - - - - - - - - - - - - - -
 72
65
 73
2
 40
0.2
 49
0.1
 74
0
 49
-0.1
 74
0
  0
LTYPE
  5
1F7
100
AcDbSymbolTableRecord
100
AcDbLinetypeTableRecord
  2
PHANTOM
 70
64
  3
_____ _ _ _____ _ _ _____ _ _ _____
 72
65
 73
6
 40
0.8
 49
0.45
 74
0
 49
-0.05
 74
0
 49
0.1
 74
0
 49
-0.05
 74
0
 49
0.1
 74
0
 49
-0.05
 74
0
  0
LTYPE
  5
1F8
100
AcDbSymbolTableRecord
100
AcDbLinetypeTableRecord
  2
DOT
 70
64
  3
. . . . . . . . . . . . . . . . . . . .
 72
65
 73
2
 40
0.2
 49
0.1
 74
0
 49
-0.1
 74
0
  0
LTYPE
  5
1F9
100
AcDbSymbolTableRecord
100
AcDbLinetypeTableRecord
  2
DASHED
 70
64
  3
- - - - - - - - - - - - - - - - - - - -
 72
65
 73
2
 40
0.2
 49
0.1
 74
0
 49
-0.1
 74
0
  0
ENDTAB
  0
TABLE
  2
LAYER
  5
2
100
AcDbSymbolTable
 70
36
  0
LAYER
  5
10
100
AcDbSymbolTableRecord
100
AcDbLayerTableRecord
  2
0
 70
0
 62
7
  6
CONTINUOUS
370
-3
390
F
  0
LAYER
  5
1FA
100
AcDbSymbolTableRecord
100
AcDbLayerTableRecord
  2
DEFAULT_1
 70
0
 62
7
  6
CENTER
370
-3
390
F
  0
LAYER
  5
1FB
100
AcDbSymbolTableRecord
100
AcDbLayerTableRecord
  2
DEFAULT_2
 70
0
 62
7
  6
HIDDEN
370
-3
390
F
  0
LAYER
  5
1FC
100
AcDbSymbolTableRecord
100
AcDbLayerTableRecord
  2
DEFAULT_3
 70
0
 62
7
  6
PHANTOM
370
-3
390
F
  0
LAYER
  5
1FD
100
AcDbSymbolTableRecord
100
AcDbLayerTableRecord
  2
ASSI
 70
0
 62
7
  6
CONTINUOUS
370
-3
390
F
  0
LAYER
  5
1FE
100
AcDbSymbolTableRecord
100
AcDbLayerTableRecord
  2
COLOR5
 70
0
 62
7
  6
CONTINUOUS
370
-3
390
F
  0
LAYER
  5
1FF
100
AcDbSymbolTableRecord
100
AcDbLayerTableRecord
  2
COORDINATE
 70
0
 62
7
  6
CONTINUOUS
370
-3
390
F
  0
LAYER
  5
200
100
AcDbSymbolTableRecord
100
AcDbLayerTableRecord
  2
COORD_ORIGINE
 70
0
 62
7
  6
CONTINUOUS
370
-3
390
F
  0
LAYER
  5
201
100
AcDbSymbolTableRecord
100
AcDbLayerTableRecord
  2
COSMETICHE
 70
0
 62
7
  6
CONTINUOUS
370
-3
390
F
  0
LAYER
  5
202
100
AcDbSymbolTableRecord
100
AcDbLayerTableRecord
  2
CURVE
 70
0
 62
7
  6
CONTINUOUS
370
-3
390
F
  0
LAYER
  5
203
100
AcDbSymbolTableRecord
100
AcDbLayerTableRecord
  2
DRAFT
 70
0
 62
7
  6
CONTINUOUS
370
-3
390
F
  0
LAYER
  5
204
100
AcDbSymbolTableRecord
100
AcDbLayerTableRecord
  2
IGES
 70
0
 62
7
  6
CONTINUOUS
370
-3
390
F
  0
LAYER
  5
205
100
AcDbSymbolTableRecord
100
AcDbLayerTableRecord
  2
IMPORT
 70
0
 62
7
  6
CONTINUOUS
370
-3
390
F
  0
LAYER
  5
206
100
AcDbSymbolTableRecord
100
AcDbLayerTableRecord
  2
IMPORT_IGES
 70
0
 62
7
  6
CONTINUOUS
370
-3
390
F
  0
LAYER
  5
207
100
AcDbSymbolTableRecord
100
AcDbLayerTableRecord
  2
INTF_1
 70
0
 62
7
  6
CONTINUOUS
370
-3
390
F
  0
LAYER
  5
208
100
AcDbSymbolTableRecord
100
AcDbLayerTableRecord
  2
INTF_11
 70
0
 62
7
  6
CONTINUOUS
370
-3
390
F
  0
LAYER
  5
209
100
AcDbSymbolTableRecord
100
AcDbLayerTableRecord
  2
INTF_2
 70
0
 62
7
  6
CONTINUOUS
370
-3
390
F
  0
LAYER
  5
20A
100
AcDbSymbolTableRecord
100
AcDbLayerTableRecord
  2
NOTE
 70
0
 62
7
  6
CONTINUOUS
370
-3
390
F
  0
LAYER
  5
20B
100
AcDbSymbolTableRecord
100
AcDbLayerTableRecord
  2
PIANI
 70
0
 62
7
  6
CONTINUOUS
370
-3
390
F
  0
LAYER
  5
20C
100
AcDbSymbolTableRecord
100
AcDbLayerTableRecord
  2
PIANI_ASSIEME
 70
0
 62
7
  6
CONTINUOUS
370
-3
390
F
  0
LAYER
  5
20D
100
AcDbSymbolTableRecord
100
AcDbLayerTableRecord
  2
PIANI_ORIGINE
 70
0
 62
7
  6
CONTINUOUS
370
-3
390
F
  0
LAYER
  5
20E
100
AcDbSymbolTableRecord
100
AcDbLayerTableRecord
  2
PUNTI
 70
0
 62
7
  6
CONTINUOUS
370
-3
390
F
  0
LAYER
  5
20F
100
AcDbSymbolTableRecord
100
AcDbLayerTableRecord
  2
RACCORDO
 70
0
 62
7
  6
CONTINUOUS
370
-3
390
F
  0
LAYER
  5
210
100
AcDbSymbolTableRecord
100
AcDbLayerTableRecord
  2
RGB____0____0____0__
 70
0
 62
7
  6
CONTINUOUS
370
-3
390
F
  0
LAYER
  5
211
100
AcDbSymbolTableRecord
100
AcDbLayerTableRecord
  2
SMUSSO
 70
0
 62
7
  6
CONTINUOUS
370
-3
390
F
  0
LAYER
  5
212
100
AcDbSymbolTableRecord
100
AcDbLayerTableRecord
  2
SUPERFICI
 70
0
 62
7
  6
CONTINUOUS
370
-3
390
F
  0
LAYER
  5
213
100
AcDbSymbolTableRecord
100
AcDbLayerTableRecord
  2
TRASH
 70
0
 62
7
  6
CONTINUOUS
370
-3
390
F
  0
LAYER
  5
214
100
AcDbSymbolTableRecord
100
AcDbLayerTableRecord
  2
XSEC_DATUMS
 70
0
 62
7
  6
CONTINUOUS
370
-3
390
F
  0
ENDTAB
  0
TABLE
  2
STYLE
  5
3
100
AcDbSymbolTable
 70
1
  0
STYLE
  5
11
100
AcDbSymbolTableRecord
100
AcDbTextStyleTableRecord
  2
STANDARD
 70
0
 40
0.0
 41
0.8
 50
0.0
 71
0
 42
0.2
  3
txt
  4

  0
STYLE
  5
215
100
AcDbSymbolTableRecord
100
AcDbTextStyleTableRecord
  2
TEXTSTYLE_1
 70
0
 40
0.0
 41
0.8
 50
0.0
 71
0
 42
0.2
  3
gdt
  4

  0
ENDTAB
  0
TABLE
  2
VIEW
  5
6
100
AcDbSymbolTable
 70
0
  0
ENDTAB
  0
TABLE
  2
UCS
  5
7
100
AcDbSymbolTable
 70
0
  0
ENDTAB
  0
TABLE
  2
APPID
  5
9
100
AcDbSymbolTable
 70
1
  0
APPID
  5
216
100
AcDbSymbolTableRecord
100
AcDbRegAppTableRecord
  2
ACAD
 70
0
  0
ENDTAB
  0
TABLE
  2
BLOCK_RECORD
  5
1
100
AcDbSymbolTable
 70
0
  0
BLOCK_RECORD
  5
217
100
AcDbSymbolTableRecord
100
AcDbBlockTableRecord
  2
*Model_Space
  0
BLOCK_RECORD
  5
218
100
AcDbSymbolTableRecord
100
AcDbBlockTableRecord
  2
*Paper_Space
  0
BLOCK_RECORD
  5
219
100
AcDbSymbolTableRecord
100
AcDbBlockTableRecord
  2
_FILLED
  0
ENDTAB
  0
TABLE
  2
DIMSTYLE
  5
A
100
AcDbSymbolTable
 70
1
100
AcDbDimStyleTable
 71
0
  0
DIMSTYLE
105
21A
100
AcDbSymbolTableRecord
100
AcDbDimStyleTableRecord
  2
STANDARD
 70
0
  3

  4

 40
1.0
 41
3.0
 42
0.5
 43
0.38
 44
1.5
 45
0.0
 46
0.0
 47
0.01
 48
0.01
140
3.0
141
0.09
142
0.0
143
25.4
144
1.0
145
0.0
146
1.0
147
0.625
 71
1
 72
0
 73
0
 74
0
 75
0
 76
0
 77
1
 78
8
 79
2
170
0
171
1
172
0
173
0
174
0
175
0
176
0
177
0
178
0
270
2
179
2
271
2
272
2
273
2
274
2
275
0
280
0
281
0
282
0
283
1
284
8
285
0
286
0
287
3
288
0
340
11
278
44
341
219
342
219
343
219
344
219
  0
ENDTAB
  0
ENDSEC
  0
SECTION
  2
BLOCKS
  0
BLOCK
  5
20
100
AcDbEntity
  8
0
100
AcDbBlockBegin
  2
*Model_Space
 70
0
 10
0.0
 20
0.0
 30
0.0
  3
*Model_Space
  1

  0
ENDBLK
  5
21
100
AcDbEntity
  8
0
100
AcDbBlockEnd
  0
BLOCK
  5
1C
100
AcDbEntity
  8
0
100
AcDbBlockBegin
  2
*Paper_Space
 70
0
 10
0.0
 20
0.0
 30
0.0
  3
*Paper_Space
  1

  0
ENDBLK
  5
1D
100
AcDbEntity
  8
0
100
AcDbBlockEnd
  0
BLOCK
  5
21B
100
AcDbEntity
  8
0
100
AcDbBlockBegin
  2
_FILLED
 70
64
 10
0.0
 20
0.0
  3
_FILLED
  1

  0
SOLID
  5
21C
100
AcDbEntity
  8
0
  6
BYBLOCK
 62
0
100
AcDbTrace
 10
0.0
 20
0.0
 11
-1.0
 21
0.1333333333
 12
-1.0
 22
-0.1333333333
 13
-1.0
 23
-0.1333333333
  0
ENDBLK
  5
21D
100
AcDbEntity
  8
0
  6
BYBLOCK
 62
0
100
AcDbBlockEnd
  0
ENDSEC
  0
SECTION
  2
ENTITIES
  0
LINE
  5
21E
100
AcDbEntity
  8
ASSI
100
AcDbLine
 62
7
  6
CONTINUOUS
 10
-1.8481328952
 20
42.2720456903
 11
-2.564672645
 21
41.9025420746
  0
LINE
  5
21F
100
AcDbEntity
  8
RACCORDO
100
AcDbLine
 62
7
  6
CONTINUOUS
 10
-2.3337311774
 20
43.1304455576
 11
-0.9071759603
 21
43.816266133
  0
LINE
  5
220
100
AcDbEntity
  8
RACCORDO
100
AcDbLine
 62
250
  6
CONTINUOUS
 10
-1.8917535503
 20
43.0994787971
 11
-0.4651983331
 21
43.7852993725
  0
LINE
  5
221
100
AcDbEntity
  8
RACCORDO
100
AcDbLine
 62
7
  6
CONTINUOUS
 10
-1.6193681957
 20
-40.5633984987
 11
-18.989353249
 21
-34.044239179
  0
LINE
  5
222
100
AcDbEntity
  8
RACCORDO
100
AcDbLine
 62
250
  6
CONTINUOUS
 10
-1.7435640151
 20
-40.2953248395
 11
-19.1135490691
 21
-33.7761655195
  0
LWPOLYLINE
  5
223
100
AcDbEntity
  8
RACCORDO
100
AcDbPolyline
 62
7
  6
CONTINUOUS
 90
12
 70
0
 10
-24.9408254533
 20
-31.0672258953
 10
-24.8615438057
 20
-31.1169287824
 10
-24.7500353595
 20
-31.1776071349
 10
-24.632739855
 20
-31.2319269505
 10
-24.5102360882
 20
-31.2800732573
 10
-24.3830341679
 20
-31.3222015173
 10
-24.2518117073
 20
-31.3583605595
 10
-24.1172224161
 20
-31.3886136098
 10
-23.9798438581
 20
-31.4130003973
 10
-23.8405740083
 20
-31.4315319827
 10
-23.7001925476
 20
-31.4442500386
 10
-23.5716620998
 20
-31.4508358078
  0
LINE
  5
224
100
AcDbEntity
  8
RACCORDO
100
AcDbLine
 62
7
  6
CONTINUOUS
 10
-24.9406430472
 20
-31.0673482352
 11
-37.9603635081
 21
-22.3916547978
  0
LINE
  5
225
100
AcDbEntity
  8
RACCORDO
100
AcDbLine
 62
250
  6
CONTINUOUS
 10
-25.0634699843
 20
-30.8012050619
 11
-38.0831904452
 21
-22.1255116245
  0
LINE
  5
226
100
AcDbEntity
  8
RACCORDO
100
AcDbLine
 62
7
  6
CONTINUOUS
 10
-38.1831045755
 20
-21.975568888
 11
-38.1831045755
 21
15.8266892198
  0
LINE
  5
227
100
AcDbEntity
  8
RACCORDO
100
AcDbLine
 62
250
  6
CONTINUOUS
 10
-38.0831904452
 20
-22.1255116245
 11
-38.0831904452
 21
15.6767464833
  0
LINE
  5
228
100
AcDbEntity
  8
RACCORDO
100
AcDbLine
 62
250
  6
CONTINUOUS
 10
-37.9360496899
 20
4.4075201223
 11
-37.9360496899
 21
-11.0525899943
  0
LINE
  5
229
100
AcDbEntity
  8
RACCORDO
100
AcDbLine
 62
250
  6
CONTINUOUS
 10
-36.5907025911
 20
4.3537141378
 11
-36.5907025911
 21
-11.1063959788
  0
LINE
  5
22A
100
AcDbEntity
  8
DRAFT
100
AcDbLine
 62
7
  6
CONTINUOUS
 10
0.3833567288
 20
40.5325947168
 11
1.7852286363
 21
41.2609877038
  0
LINE
  5
22B
100
AcDbEntity
  8
RACCORDO
100
AcDbLine
 62
7
  6
CONTINUOUS
 10
0.2591661267
 20
39.57173842
 11
-5.3648013012
 21
36.7026597595
  0
LINE
  5
22C
100
AcDbEntity
  8
RACCORDO
100
AcDbLine
 62
7
  6
CONTINUOUS
 10
-31.0237668219
 20
26.2521662363
 11
-2.954680984
 21
40.5054532019
  0
LINE
  5
22D
100
AcDbEntity
  8
RACCORDO
100
AcDbLine
 62
250
  6
CONTINUOUS
 10
-30.5734713033
 20
26.2253217271
 11
-2.8108246196
 21
40.3230010171
  0
LINE
  5
22E
100
AcDbEntity
  8
RACCORDO
100
AcDbLine
 62
250
  6
CONTINUOUS
 10
-31.0237668219
 20
26.2521662363
 11
-31.0234320143
 21
26.2523360388
  0
LINE
  5
22F
100
AcDbEntity
  8
ASSI
100
AcDbLine
 62
7
  6
CONTINUOUS
 10
-0.9537317565
 20
40.4832434128
 11
-1.6792584989
 21
40.1317137824
  0
LINE
  5
230
100
AcDbEntity
  8
RACCORDO
100
AcDbLine
 62
7
  6
CONTINUOUS
 10
4.5614473323
 20
-43.7413351042
 11
-0.2930629146
 21
-41.3140799808
  0
LINE
  5
231
100
AcDbEntity
  8
RACCORDO
100
AcDbLine
 62
250
  6
CONTINUOUS
 10
4.3015541467
 20
-43.2004613038
 11
-0.551444086
 21
-40.7739621875
  0
LINE
  5
232
100
AcDbEntity
  8
DRAFT
100
AcDbLine
 62
7
  6
CONTINUOUS
 10
-19.4404589732
 20
-30.5858665706
 11
-20.4206156898
 21
-30.0957882123
  0
LINE
  5
233
100
AcDbEntity
  8
RACCORDO
100
AcDbLine
 62
7
  6
CONTINUOUS
 10
-31.57100304
 20
19.472862504
 11
-31.57100304
 21
25.3605357311
  0
LINE
  5
234
100
AcDbEntity
  8
RACCORDO
100
AcDbLine
 62
250
  6
CONTINUOUS
 10
-31.2781098212
 20
19.1582931299
 11
-31.2781098212
 21
25.0069823405
  0
LINE
  5
235
100
AcDbEntity
  8
SMUSSO
100
AcDbLine
 62
7
  6
CONTINUOUS
 10
-5.0058744487
 20
35.1389994923
 11
-0.4478992769
 21
37.4770003532
  0
LINE
  5
236
100
AcDbEntity
  8
RACCORDO
100
AcDbLine
 62
7
  6
CONTINUOUS
 10
-31.5783825821
 20
19.4873950817
 11
-37.9094864665
 21
16.2725044724
  0
LINE
  5
237
100
AcDbEntity
  8
RACCORDO
100
AcDbLine
 62
250
  6
CONTINUOUS
 10
-31.5360213789
 20
19.3811550826
 11
-37.6843387072
 21
16.2590822178
  0
LINE
  5
238
100
AcDbEntity
  8
RACCORDO
100
AcDbLine
 62
7
  6
CONTINUOUS
 10
-24.8058861096
 20
22.4414958737
 11
-12.2006392462
 21
28.7596126846
  0
LINE
  5
239
100
AcDbEntity
  8
RACCORDO
100
AcDbLine
 62
7
  6
CONTINUOUS
 10
-25.7163736037
 20
23.7967728773
 11
-12.2006392462
 21
30.5339106579
  0
LINE
  5
23A
100
AcDbEntity
  8
RACCORDO
100
AcDbLine
 62
7
  6
CONTINUOUS
 10
1.7519492767
 20
37.4096010299
 11
-2.5199191472
 21
35.2802186825
  0
LINE
  5
23B
100
AcDbEntity
  8
DRAFT
100
AcDbLine
 62
7
  6
CONTINUOUS
 10
-25.0026703724
 20
22.5398880052
 11
-26.4251115886
 21
21.8368950509
  0
LINE
  5
23C
100
AcDbEntity
  8
RACCORDO
100
AcDbLine
 62
7
  6
CONTINUOUS
 10
12.8832575211
 20
42.0092292974
 11
11.2427190213
 21
41.2205356357
  0
LINE
  5
23D
100
AcDbEntity
  8
RACCORDO
100
AcDbLine
 62
250
  6
CONTINUOUS
 10
13.3252351482
 20
41.9782625369
 11
11.6846966485
 21
41.1895688752
  0
LINE
  5
23E
100
AcDbEntity
  8
DRAFT
100
AcDbLine
 62
7
  6
CONTINUOUS
 10
8.6737652149
 20
39.3708387577
 11
8.5157017951
 21
39.2948493083
  0
LINE
  5
23F
100
AcDbEntity
  8
RACCORDO
100
AcDbLine
 62
7
  6
CONTINUOUS
 10
14.2772390002
 20
41.2923958833
 11
16.2233206266
 21
42.227980293
  0
LINE
  5
240
100
AcDbEntity
  8
RACCORDO
100
AcDbLine
 62
250
  6
CONTINUOUS
 10
14.525465428
 20
41.1682826694
 11
16.6652982538
 21
42.1970135325
  0
LINE
  5
241
100
AcDbEntity
  8
RACCORDO
100
AcDbLine
 62
7
  6
CONTINUOUS
 10
10.9776167918
 20
40.258108087
 11
8.6737652149
 21
39.3708387577
  0
LWPOLYLINE
  5
242
100
AcDbEntity
  8
RACCORDO
100
AcDbPolyline
 62
7
  6
CONTINUOUS
 90
8
 70
0
 10
-23.5716564926
 20
-31.4508010663
 10
-23.5034221716
 20
-31.4512224897
 10
-23.3810699465
 20
-31.4432259099
 10
-23.2601674619
 20
-31.4246674841
 10
-23.1404352222
 20
-31.3961102415
 10
-23.0199811749
 20
-31.3574148738
 10
-22.8994303715
 20
-31.3088411796
 10
-22.8334812855
 20
-31.2780451228
  0
LINE
  5
243
100
AcDbEntity
  8
0
100
AcDbLine
 62
250
  6
CONTINUOUS
 10
-21.3321026554
 20
-23.8190577184
 11
-19.7115393808
 21
-24.6293393557
  0
LINE
  5
244
100
AcDbEntity
  8
RACCORDO
100
AcDbLine
 62
250
  6
CONTINUOUS
 10
-36.7879124401
 20
-13.4677697589
 11
-33.0546785773
 21
-15.9714105706
  0
LINE
  5
245
100
AcDbEntity
  8
RACCORDO
100
AcDbLine
 62
7
  6
CONTINUOUS
 10
-30.2983868537
 20
3.0214134535
 11
-30.2983868537
 21
-7.9359772313
  0
LINE
  5
246
100
AcDbEntity
  8
RACCORDO
100
AcDbLine
 62
250
  6
CONTINUOUS
 10
7.0178188171
 20
37.2153636726
 11
8.4320323795
 21
37.9375858322
  0
LINE
  5
247
100
AcDbEntity
  8
RACCORDO
100
AcDbLine
 62
250
  6
CONTINUOUS
 10
7.7249255983
 20
35.9957519014
 11
9.1391391607
 21
36.7179740609
  0
LINE
  5
248
100
AcDbEntity
  8
DRAFT
100
AcDbLine
 62
7
  6
CONTINUOUS
 10
10.8361954355
 20
38.1346024881
 11
10.9776167918
 21
38.205033352
  0
LINE
  5
249
100
AcDbEntity
  8
DRAFT
100
AcDbLine
 62
7
  6
CONTINUOUS
 10
13.7844460206
 20
40.1396941891
 11
16.2809176507
 21
41.339880196
  0
LINE
  5
24A
100
AcDbEntity
  8
RACCORDO
100
AcDbLine
 62
250
  6
CONTINUOUS
 10
18.1273686536
 20
38.722392333
 11
17.685874972
 21
38.5101429598
  0
LINE
  5
24B
100
AcDbEntity
  8
RACCORDO
100
AcDbLine
 62
7
  6
CONTINUOUS
 10
-21.216370145
 20
-27.373493988
 11
-20.5716775302
 21
-27.406896396
  0
LINE
  5
24C
100
AcDbEntity
  8
RACCORDO
100
AcDbLine
 62
250
  6
CONTINUOUS
 10
-20.3899036496
 20
-26.6869235876
 11
-19.7452110347
 21
-26.7203259956
  0
LINE
  5
24D
100
AcDbEntity
  8
RACCORDO
100
AcDbLine
 62
250
  6
CONTINUOUS
 10
-8.4522469128
 20
-28.2726264029
 11
-3.4716318072
 21
-30.1259100754
  0
LINE
  5
24E
100
AcDbEntity
  8
RACCORDO
100
AcDbLine
 62
250
  6
CONTINUOUS
 10
-7.923559705
 20
-27.1387982884
 11
-2.9429445993
 21
-28.9920819609
  0
LINE
  5
24F
100
AcDbEntity
  8
0
100
AcDbLine
 62
7
  6
CONTINUOUS
 10
-13.6260646786
 20
-23.2625811972
 11
-14.1888345207
 21
-22.9811962762
  0
LINE
  5
250
100
AcDbEntity
  8
0
100
AcDbLine
 62
250
  6
CONTINUOUS
 10
-14.1996002967
 20
-22.9756625438
 11
-14.188774183
 21
-22.9810756007
  0
LINE
  5
251
100
AcDbEntity
  8
0
100
AcDbLine
 62
250
  6
CONTINUOUS
 10
-12.3023942515
 20
-23.9242655664
 11
-12.2913751943
 21
-23.929775095
  0
LINE
  5
252
100
AcDbEntity
  8
0
100
AcDbLine
 62
250
  6
CONTINUOUS
 10
-15.5623872554
 20
-22.1943395436
 11
-15.5387814295
 21
-22.2061424565
  0
LINE
  5
253
100
AcDbEntity
  8
0
100
AcDbLine
 62
7
  6
CONTINUOUS
 10
-15.5622665799
 20
-22.1940981926
 11
-15.5387814295
 21
-22.2061424565
  0
LINE
  5
254
100
AcDbEntity
  8
0
100
AcDbLine
 62
250
  6
CONTINUOUS
 10
-13.6370235019
 20
-23.2569509412
 11
-13.6260646786
 21
-23.2625811972
  0
LINE
  5
255
100
AcDbEntity
  8
0
100
AcDbLine
 62
250
  6
CONTINUOUS
 10
-13.7975514493
 20
-23.1354829771
 11
-13.7841605316
 21
-23.142362735
  0
LINE
  5
256
100
AcDbEntity
  8
0
100
AcDbLine
 62
7
  6
CONTINUOUS
 10
-14.1888344152
 20
-22.9811960459
 11
-14.1996002967
 21
-22.9756625438
  0
LINE
  5
257
100
AcDbEntity
  8
0
100
AcDbLine
 62
7
  6
CONTINUOUS
 10
-12.2914354276
 20
-23.9298958227
 11
-12.3166607624
 21
-23.9169229661
  0
LINE
  5
258
100
AcDbEntity
  8
0
100
AcDbLine
 62
7
  6
CONTINUOUS
 10
-15.5387814295
 20
-22.2061424565
 11
-11.8183492477
 21
-24.1642223356
  0
LINE
  5
259
100
AcDbEntity
  8
0
100
AcDbLine
 62
250
  6
CONTINUOUS
 10
-15.1187897822
 20
-22.4750481098
 11
-13.637023606
 21
-23.2569508892
  0
LINE
  5
25A
100
AcDbEntity
  8
0
100
AcDbLine
 62
7
  6
CONTINUOUS
 10
-12.3157851658
 20
-23.9173858102
 11
-13.7975514494
 21
-23.1354829771
  0
LINE
  5
25B
100
AcDbEntity
  8
0
100
AcDbLine
 62
250
  6
CONTINUOUS
 10
-12.3023942515
 20
-23.9242655664
 11
-12.3157851658
 21
-23.9173858102
  0
LINE
  5
25C
100
AcDbEntity
  8
0
100
AcDbLine
 62
7
  6
CONTINUOUS
 10
-15.8854402466
 20
-22.0834924215
 11
-14.1996002967
 21
-22.9756625438
  0
LINE
  5
25D
100
AcDbEntity
  8
RACCORDO
100
AcDbLine
 62
250
  6
CONTINUOUS
 10
-36.0788645181
 20
-12.4241220014
 11
-32.3456306554
 21
-14.9277628132
  0
LINE
  5
25E
100
AcDbEntity
  8
RACCORDO
100
AcDbLine
 62
7
  6
CONTINUOUS
 10
-26.4251115886
 20
22.5804832242
 11
-26.4251115886
 21
21.8368950509
  0
LINE
  5
25F
100
AcDbEntity
  8
RACCORDO
100
AcDbLine
 62
250
  6
CONTINUOUS
 10
-25.0634699843
 20
-30.8012050619
 11
-25.0634699843
 21
-29.2005724743
  0
LINE
  5
260
100
AcDbEntity
  8
RACCORDO
100
AcDbLine
 62
250
  6
CONTINUOUS
 10
-25.0634699843
 20
5.3818222791
 11
-25.0634699843
 21
6.9824548667
  0
LINE
  5
261
100
AcDbEntity
  8
RACCORDO
100
AcDbLine
 62
7
  6
CONTINUOUS
 10
-23.4716151448
 20
21.7743603914
 11
-23.4716151448
 21
22.9688337094
  0
LINE
  5
262
100
AcDbEntity
  8
DRAFT
100
AcDbLine
 62
7
  6
CONTINUOUS
 10
10.9546031075
 20
33.9822232785
 11
10.9069061137
 21
33.9574405893
  0
LINE
  5
263
100
AcDbEntity
  8
DRAFT
100
AcDbLine
 62
7
  6
CONTINUOUS
 10
8.2199003451
 20
31.9100075758
 11
6.8881220329
 21
31.2180342382
  0
LINE
  5
264
100
AcDbEntity
  8
RACCORDO
100
AcDbLine
 62
250
  6
CONTINUOUS
 10
16.7055961213
 20
35.9578404502
 11
16.2809176507
 21
35.7371834715
  0
LINE
  5
265
100
AcDbEntity
  8
ASSI
100
AcDbLine
 62
7
  6
CONTINUOUS
 10
15.4759832439
 20
33.6099876208
 11
14.7594434941
 21
33.2404840051
  0
LINE
  5
266
100
AcDbEntity
  8
RACCORDO
100
AcDbLine
 62
7
  6
CONTINUOUS
 10
4.6813748268
 20
30.2952597566
 11
9.946529029
 21
32.9960061613
  0
LINE
  5
267
100
AcDbEntity
  8
RACCORDO
100
AcDbLine
 62
7
  6
CONTINUOUS
 10
9.946529029
 20
34.7280569689
 11
4.3225616011
 21
31.8589783084
  0
LINE
  5
268
100
AcDbEntity
  8
RACCORDO
100
AcDbLine
 62
7
  6
CONTINUOUS
 10
-18.4478133802
 20
20.1624927656
 11
-5.0884338614
 21
26.9778079655
  0
LINE
  5
269
100
AcDbEntity
  8
RACCORDO
100
AcDbLine
 62
250
  6
CONTINUOUS
 10
18.7557913848
 20
38.1584500119
 11
17.685874972
 21
37.6214115128
  0
LINE
  5
26A
100
AcDbEntity
  8
DRAFT
100
AcDbLine
 62
7
  6
CONTINUOUS
 10
10.9069061137
 20
33.7842355085
 11
9.946529029
 21
33.3021796564
  0
LINE
  5
26B
100
AcDbEntity
  8
RACCORDO
100
AcDbLine
 62
250
  6
CONTINUOUS
 10
19.1093313132
 20
37.5486838336
 11
18.0394149003
 21
37.0116453345
  0
LINE
  5
26C
100
AcDbEntity
  8
DRAFT
100
AcDbLine
 62
7
  6
CONTINUOUS
 10
8.291228106
 20
31.9458101424
 11
8.2199003451
 21
31.9100075758
  0
LINE
  5
26D
100
AcDbEntity
  8
RACCORDO
100
AcDbLine
 62
7
  6
CONTINUOUS
 10
12.857232692
 20
33.2727051374
 11
7.167443755
 21
30.4365372314
  0
LINE
  5
26E
100
AcDbEntity
  8
DRAFT
100
AcDbLine
 62
7
  6
CONTINUOUS
 10
20.8987096243
 20
36.5825623873
 11
23.3519854625
 21
37.8043462901
  0
LINE
  5
26F
100
AcDbEntity
  8
RACCORDO
100
AcDbLine
 62
250
  6
CONTINUOUS
 10
25.088925203
 20
37.9852000579
 11
22.9861173416
 21
36.9379567126
  0
LINE
  5
270
100
AcDbEntity
  8
0
100
AcDbLine
 62
250
  6
CONTINUOUS
 10
-19.7115393808
 20
-24.6293393557
 11
-19.0668467659
 21
-24.6627417638
  0
LINE
  5
271
100
AcDbEntity
  8
RACCORDO
100
AcDbLine
 62
250
  6
CONTINUOUS
 10
14.1726120533
 20
-36.6738377333
 11
15.6293886683
 21
-37.4022260408
  0
LINE
  5
272
100
AcDbEntity
  8
0
100
AcDbLine
 62
7
  6
CONTINUOUS
 10
-15.1150537611
 20
-21.2996706132
 11
-17.1933385925
 21
-20.2605281975
  0
LINE
  5
273
100
AcDbEntity
  8
0
100
AcDbLine
 62
7
  6
CONTINUOUS
 10
-15.115047308
 20
-21.2996738398
 11
-15.0842619518
 21
-21.3154687695
  0
LINE
  5
274
100
AcDbEntity
  8
0
100
AcDbLine
 62
7
  6
CONTINUOUS
 10
-15.0842619518
 20
-21.3154687695
 11
-11.285297979
 21
-23.3148802768
  0
LINE
  5
275
100
AcDbEntity
  8
0
100
AcDbLine
 62
250
  6
CONTINUOUS
 10
-11.8832825042
 20
-22.9879396786
 11
-13.3650487844
 21
-22.2060368472
  0
LWPOLYLINE
  5
276
100
AcDbEntity
  8
RACCORDO
100
AcDbPolyline
 62
7
  6
CONTINUOUS
 90
13
 70
0
 10
-19.9071225281
 20
-33.0865888666
 10
-19.9023261295
 20
-33.1195890075
 10
-19.8779255971
 20
-33.2263634978
 10
-19.8390924619
 20
-33.3335325936
 10
-19.7846057661
 20
-33.4406286266
 10
-19.7142214749
 20
-33.5453566585
 10
-19.6294974428
 20
-33.6443901661
 10
-19.5310082241
 20
-33.7370912694
 10
-19.4186507984
 20
-33.8234268942
 10
-19.2941584971
 20
-33.9021154055
 10
-19.1585646044
 20
-33.972803176
 10
-19.0116808056
 20
-34.035729753
 10
-18.9889968575
 20
-34.044371875
  0
LINE
  5
277
100
AcDbEntity
  8
RACCORDO
100
AcDbLine
 62
250
  6
CONTINUOUS
 10
-19.9072049959
 20
-33.0856768155
 11
-19.910186721
 21
-33.0385243833
  0
LWPOLYLINE
  5
278
100
AcDbEntity
  8
RACCORDO
100
AcDbPolyline
 62
7
  6
CONTINUOUS
 90
13
 70
0
 10
-19.91399273
 20
3.3480582793
 10
-19.9112345219
 20
3.2641864316
 10
-19.8952357398
 20
3.1291453806
 10
-19.8643912938
 20
2.9928373251
 10
-19.8177207928
 20
2.8555236845
 10
-19.7551484939
 20
2.7198161884
 10
-19.6768974261
 20
2.5873833078
 10
-19.5822840124
 20
2.4582602076
 10
-19.4717331552
 20
2.3341776053
 10
-19.3478294362
 20
2.2180712425
 10
-19.2118550619
 20
2.1106359792
 10
-19.0632300999
 20
2.0112368603
 10
-19.0346028207
 20
1.9938949396
  0
LWPOLYLINE
  5
279
100
AcDbEntity
  8
RACCORDO
100
AcDbPolyline
 62
7
  6
CONTINUOUS
 90
3
 70
0
 10
-19.9139988433
 20
-32.9725262885
 10
-19.912539124
 20
-33.0261843349
 10
-19.9072049959
 20
-33.0856768155
  0
LINE
  5
27A
100
AcDbEntity
  8
RACCORDO
100
AcDbLine
 62
250
  6
CONTINUOUS
 10
-19.9140071772
 20
4.8051436134
 11
-19.9139796867
 21
4.8005005256
  0
LINE
  5
27B
100
AcDbEntity
  8
RACCORDO
100
AcDbLine
 62
250
  6
CONTINUOUS
 10
-22.0822140874
 20
-2.9091398579
 11
-22.0822140874
 21
-2.3115891833
  0
LINE
  5
27C
100
AcDbEntity
  8
RACCORDO
100
AcDbLine
 62
250
  6
CONTINUOUS
 10
-22.0571643908
 20
-30.4840985198
 11
-22.0571643908
 21
-29.557663404
  0
LINE
  5
27D
100
AcDbEntity
  8
RACCORDO
100
AcDbLine
 62
250
  6
CONTINUOUS
 10
-21.7875838425
 20
-2.915571775
 11
-21.7875838425
 21
-2.4275134259
  0
LINE
  5
27E
100
AcDbEntity
  8
RACCORDO
100
AcDbLine
 62
7
  6
CONTINUOUS
 10
-20.8743843901
 20
-5.8852308526
 11
-20.8743843901
 21
-5.1039321581
  0
LINE
  5
27F
100
AcDbEntity
  8
RACCORDO
100
AcDbLine
 62
7
  6
CONTINUOUS
 10
-19.9140071773
 20
4.8050444573
 11
-19.9140071773
 21
3.3479867021
  0
LINE
  5
280
100
AcDbEntity
  8
RACCORDO
100
AcDbLine
 62
7
  6
CONTINUOUS
 10
-19.1483524312
 20
18.9421036455
 11
-19.1483524312
 21
18.1985154722
  0
LINE
  5
281
100
AcDbEntity
  8
RACCORDO
100
AcDbLine
 62
250
  6
CONTINUOUS
 10
-19.1135490691
 20
4.0074944091
 11
-19.1135490691
 21
2.4068618215
  0
LINE
  5
282
100
AcDbEntity
  8
RACCORDO
100
AcDbLine
 62
250
  6
CONTINUOUS
 10
-19.1135490691
 20
-32.1755329319
 11
-19.1135490691
 21
-33.7761655195
  0
LINE
  5
283
100
AcDbEntity
  8
RACCORDO
100
AcDbLine
 62
250
  6
CONTINUOUS
 10
-22.0571643908
 20
5.5160379566
 11
-22.0569422544
 21
6.4425837999
  0
LINE
  5
284
100
AcDbEntity
  8
RACCORDO
100
AcDbLine
 62
7
  6
CONTINUOUS
 10
-19.914007008
 20
-31.5159020785
 11
-19.9140071773
 21
-32.9733719401
  0
LINE
  5
285
100
AcDbEntity
  8
SMUSSO
100
AcDbLine
 62
7
  6
CONTINUOUS
 10
-0.4478992769
 20
37.4770003532
 11
0.2591661267
 21
38.7057130162
  0
LINE
  5
286
100
AcDbEntity
  8
RACCORDO
100
AcDbLine
 62
250
  6
CONTINUOUS
 10
22.9984589964
 20
35.5326877012
 11
24.6106116901
 21
36.3355742659
  0
LINE
  5
287
100
AcDbEntity
  8
RACCORDO
100
AcDbLine
 62
250
  6
CONTINUOUS
 10
25.7960050597
 20
36.7656677013
 11
24.7529887747
 21
36.2462232558
  0
LINE
  5
288
100
AcDbEntity
  8
RACCORDO
100
AcDbLine
 62
250
  6
CONTINUOUS
 10
23.7055388531
 20
34.3131553447
 11
25.3176915469
 21
35.1160419094
  0
LINE
  5
289
100
AcDbEntity
  8
ASSI
100
AcDbLine
 62
7
  6
CONTINUOUS
 10
16.3703843826
 20
31.8211853433
 11
15.6448576402
 21
31.4696557129
  0
LINE
  5
28A
100
AcDbEntity
  8
RACCORDO
100
AcDbLine
 62
250
  6
CONTINUOUS
 10
-36.5907025911
 20
4.3537141378
 11
-36.1694858662
 21
4.54824598
  0
LINE
  5
28B
100
AcDbEntity
  8
RACCORDO
100
AcDbLine
 62
7
  6
CONTINUOUS
 10
26.7622368834
 20
32.7670794989
 11
24.0050236291
 21
31.7052095506
  0
LINE
  5
28C
100
AcDbEntity
  8
RACCORDO
100
AcDbLine
 62
7
  6
CONTINUOUS
 10
-29.5913877683
 20
-9.155370278
 11
-25.2783586879
 21
-11.3118848181
  0
LINE
  5
28D
100
AcDbEntity
  8
RACCORDO
100
AcDbLine
 62
250
  6
CONTINUOUS
 10
-21.5903279563
 20
-2.614227317
 11
-21.7875838425
 21
-2.915571775
  0
LINE
  5
28E
100
AcDbEntity
  8
RACCORDO
100
AcDbLine
 62
250
  6
CONTINUOUS
 10
-20.3126124212
 20
-3.2265873066
 11
-21.2456175496
 21
-4.651923352
  0
LINE
  5
28F
100
AcDbEntity
  8
RACCORDO
100
AcDbLine
 62
7
  6
CONTINUOUS
 10
-21.9382332389
 20
1.7974524237
 11
-21.3258608032
 21
2.5366513435
  0
LINE
  5
290
100
AcDbEntity
  8
RACCORDO
100
AcDbLine
 62
250
  6
CONTINUOUS
 10
-20.318593415
 20
0.7199924783
 11
-19.7062209793
 21
1.459191398
  0
LINE
  5
291
100
AcDbEntity
  8
RACCORDO
100
AcDbLine
 62
7
  6
CONTINUOUS
 10
13.5910338965
 20
25.8405453197
 11
18.856074472
 21
28.5412334399
  0
LINE
  5
292
100
AcDbEntity
  8
RACCORDO
100
AcDbLine
 62
7
  6
CONTINUOUS
 10
22.9726431248
 20
30.4692133996
 11
21.5584295625
 21
29.74699124
  0
LINE
  5
293
100
AcDbEntity
  8
RACCORDO
100
AcDbLine
 62
250
  6
CONTINUOUS
 10
23.4226961407
 20
30.4422539516
 11
22.0084825783
 21
29.720031792
  0
LINE
  5
294
100
AcDbEntity
  8
RACCORDO
100
AcDbLine
 62
7
  6
CONTINUOUS
 10
18.856074472
 20
30.2732842474
 11
13.232107044
 21
27.4042055869
  0
LINE
  5
295
100
AcDbEntity
  8
RACCORDO
100
AcDbLine
 62
250
  6
CONTINUOUS
 10
-23.5565213394
 20
7.2671271752
 11
-15.5138143377
 21
11.2761453881
  0
LINE
  5
296
100
AcDbEntity
  8
RACCORDO
100
AcDbLine
 62
7
  6
CONTINUOUS
 10
-7.1194652585
 20
14.4983187047
 11
6.396269099
 21
21.2354564853
  0
LINE
  5
297
100
AcDbEntity
  8
RACCORDO
100
AcDbLine
 62
7
  6
CONTINUOUS
 10
21.3013757971
 20
28.5859450455
 11
16.076989198
 21
25.9817645099
  0
LINE
  5
298
100
AcDbEntity
  8
RACCORDO
100
AcDbLine
 62
250
  6
CONTINUOUS
 10
-22.0569422544
 20
6.4425837999
 11
-14.8067099498
 21
10.0565801013
  0
LINE
  5
299
100
AcDbEntity
  8
DRAFT
100
AcDbLine
 62
7
  6
CONTINUOUS
 10
26.1674538498
 20
30.468973281
 11
26.3227823397
 21
30.5463301953
  0
LINE
  5
29A
100
AcDbEntity
  8
DRAFT
100
AcDbLine
 62
7
  6
CONTINUOUS
 10
19.3214768098
 20
28.1627365981
 11
17.8949215926
 21
27.4618006443
  0
LINE
  5
29B
100
AcDbEntity
  8
DRAFT
100
AcDbLine
 62
7
  6
CONTINUOUS
 10
24.0050236291
 20
31.7052095506
 11
23.8469602094
 21
31.6292201012
  0
LINE
  5
29C
100
AcDbEntity
  8
DRAFT
100
AcDbLine
 62
7
  6
CONTINUOUS
 10
25.8930686727
 20
32.6034822512
 11
25.3176915469
 21
32.3268680222
  0
LINE
  5
29D
100
AcDbEntity
  8
RACCORDO
100
AcDbLine
 62
7
  6
CONTINUOUS
 10
-29.1578035667
 20
4.8205354103
 11
-29.1644131889
 21
4.8174054148
  0
LINE
  5
29E
100
AcDbEntity
  8
RACCORDO
100
AcDbLine
 62
7
  6
CONTINUOUS
 10
-31.9146215911
 20
2.262900945
 11
-25.7941459198
 21
5.135192332
  0
LWPOLYLINE
  5
29F
100
AcDbEntity
  8
RACCORDO
100
AcDbPolyline
 62
7
  6
CONTINUOUS
 90
11
 70
0
 10
-29.1644516652
 20
4.8173851488
 10
-28.8996029914
 20
4.9331966532
 10
-28.4656266066
 20
5.0827978964
 10
-28.0164502656
 20
5.1899053465
 10
-27.5538798657
 20
5.2544062335
 10
-27.0789877473
 20
5.2766286149
 10
-26.5925732228
 20
5.2569942105
 10
-26.0965972163
 20
5.1960637592
 10
-25.5927352144
 20
5.0946563606
 10
-25.0822596104
 20
4.9536425577
 10
-24.65666516
 20
4.8080271186
  0
LINE
  5
2A0
100
AcDbEntity
  8
RACCORDO
100
AcDbLine
 62
7
  6
CONTINUOUS
 10
26.3227823397
 20
30.5463301953
 11
28.8383505652
 21
31.5543412172
  0
LWPOLYLINE
  5
2A1
100
AcDbEntity
  8
RACCORDO
100
AcDbPolyline
 62
7
  6
CONTINUOUS
 90
13
 70
0
 10
-32.8305261806
 20
2.3329090995
 10
-32.8177852891
 20
2.3246331569
 10
-32.7370451305
 20
2.2783770025
 10
-32.6530448609
 20
2.2404962593
 10
-32.5664847829
 20
2.2111577041
 10
-32.4776420247
 20
2.1903659064
 10
-32.3876141377
 20
2.1783322911
 10
-32.2974301098
 20
2.1750852082
 10
-32.2073680258
 20
2.1805828449
 10
-32.1184264028
 20
2.194764884
 10
-32.0315937439
 20
2.2174036827
 10
-31.947162997
 20
2.248402978
 10
-31.9142129879
 20
2.263109047
  0
LINE
  5
2A2
100
AcDbEntity
  8
RACCORDO
100
AcDbLine
 62
7
  6
CONTINUOUS
 10
-32.8305419875
 20
2.3328851601
 11
-36.5653390698
 21
4.8108917841
  0
LINE
  5
2A3
100
AcDbEntity
  8
RACCORDO
100
AcDbLine
 62
250
  6
CONTINUOUS
 10
-33.0546785773
 20
2.8139625317
 11
-36.7879124401
 21
5.2909368257
  0
LINE
  5
2A4
100
AcDbEntity
  8
RACCORDO
100
AcDbLine
 62
7
  6
CONTINUOUS
 10
-36.5653390698
 20
4.8108917841
 11
-36.5661114943
 21
4.8114054728
  0
LINE
  5
2A5
100
AcDbEntity
  8
RACCORDO
100
AcDbLine
 62
250
  6
CONTINUOUS
 10
-20.8743843901
 20
-5.1044852066
 11
-21.3079225427
 21
-4.8034329548
  0
LINE
  5
2A6
100
AcDbEntity
  8
RACCORDO
100
AcDbLine
 62
250
  6
CONTINUOUS
 10
-20.8176923396
 20
-4.9490779329
 11
-21.2456175496
 21
-4.651923352
  0
LINE
  5
2A7
100
AcDbEntity
  8
RACCORDO
100
AcDbLine
 62
7
  6
CONTINUOUS
 10
-19.575483349
 20
-0.4433321054
 11
-20.318593415
 21
0.7199924783
  0
LINE
  5
2A8
100
AcDbEntity
  8
RACCORDO
100
AcDbLine
 62
7
  6
CONTINUOUS
 10
-18.9631109133
 20
0.2958668143
 11
-19.7062209793
 21
1.459191398
  0
LINE
  5
2A9
100
AcDbEntity
  8
RACCORDO
100
AcDbLine
 62
7
  6
CONTINUOUS
 10
-21.2095972541
 20
0.3737248472
 11
-21.8786965629
 21
1.5000440523
  0
LINE
  5
2AA
100
AcDbEntity
  8
RACCORDO
100
AcDbLine
 62
7
  6
CONTINUOUS
 10
-14.8067099498
 20
14.091733044
 11
-14.8067099498
 21
10.0565801013
  0
LINE
  5
2AB
100
AcDbEntity
  8
RACCORDO
100
AcDbLine
 62
7
  6
CONTINUOUS
 10
-14.8067099498
 20
-26.9316269522
 11
-14.8067099498
 21
-28.1287459627
  0
LINE
  5
2AC
100
AcDbEntity
  8
RACCORDO
100
AcDbLine
 62
7
  6
CONTINUOUS
 10
-14.4510996457
 20
9.1194892587
 11
-14.4510996457
 21
7.9826573651
  0
LINE
  5
2AD
100
AcDbEntity
  8
RACCORDO
100
AcDbLine
 62
7
  6
CONTINUOUS
 10
-14.4510996457
 20
-22.8425655645
 11
-14.4510996457
 21
-25.6430396325
  0
LINE
  5
2AE
100
AcDbEntity
  8
DRAFT
100
AcDbLine
 62
7
  6
CONTINUOUS
 10
-14.2377334633
 20
13.8072448007
 11
-14.2377334633
 21
10.2034123165
  0
LINE
  5
2AF
100
AcDbEntity
  8
DRAFT
100
AcDbLine
 62
7
  6
CONTINUOUS
 10
-14.2377334633
 20
-27.829153249
 11
-14.2377334633
 21
-26.516064804
  0
LINE
  5
2B0
100
AcDbEntity
  8
DRAFT
100
AcDbLine
 62
7
  6
CONTINUOUS
 10
-13.0286584295
 20
9.3287131412
 11
-13.0286584295
 21
8.7533984076
  0
LINE
  5
2B1
100
AcDbEntity
  8
DRAFT
100
AcDbLine
 62
7
  6
CONTINUOUS
 10
-13.0286584295
 20
-23.5412147293
 11
-13.0286584295
 21
-24.4462776064
  0
LINE
  5
2B2
100
AcDbEntity
  8
RACCORDO
100
AcDbLine
 62
250
  6
CONTINUOUS
 10
-12.2006392462
 20
30.5339106579
 11
-12.2006392462
 21
28.7596126846
  0
LINE
  5
2B3
100
AcDbEntity
  8
RACCORDO
100
AcDbLine
 62
7
  6
CONTINUOUS
 10
-12.1698457248
 20
9.1464437895
 11
-12.1698457248
 21
12.7733009315
  0
LINE
  5
2B4
100
AcDbEntity
  8
RACCORDO
100
AcDbLine
 62
7
  6
CONTINUOUS
 10
-11.8183492477
 20
-26.5552343793
 11
-11.8183492477
 21
-23.6943644676
  0
LINE
  5
2B5
100
AcDbEntity
  8
RACCORDO
100
AcDbLine
 62
7
  6
CONTINUOUS
 10
-21.9429045865
 20
-25.9104231191
 11
-21.3321026554
 21
-23.8190577184
  0
LINE
  5
2B6
100
AcDbEntity
  8
0
100
AcDbLine
 62
250
  6
CONTINUOUS
 10
-19.575483349
 20
-0.4433321054
 11
-18.9631109133
 21
0.2958668143
  0
LINE
  5
2B7
100
AcDbEntity
  8
0
100
AcDbLine
 62
7
  6
CONTINUOUS
 10
-13.2746185362
 20
8.5828416458
 11
-12.5981554664
 21
9.051923206
  0
LWPOLYLINE
  5
2B8
100
AcDbEntity
  8
RACCORDO
100
AcDbPolyline
 62
7
  6
CONTINUOUS
 90
11
 70
0
 10
-19.5820095511
 20
5.3651480794
 10
-19.6259057148
 20
5.3404598608
 10
-19.6844956147
 20
5.2993416024
 10
-19.7376916597
 20
5.2516716177
 10
-19.7856525593
 20
5.1968988149
 10
-19.8273361927
 20
5.1353925962
 10
-19.8617031698
 20
5.0677848862
 10
-19.8882703683
 20
4.9935316275
 10
-19.9059768278
 20
4.9126450996
 10
-19.913689358
 20
4.8261692895
 10
-19.9139671941
 20
4.8007534273
  0
LINE
  5
2B9
100
AcDbEntity
  8
RACCORDO
100
AcDbLine
 62
7
  6
CONTINUOUS
 10
28.8383505652
 20
31.0216948866
 11
26.9864518505
 21
30.0594742806
  0
LINE
  5
2BA
100
AcDbEntity
  8
RACCORDO
100
AcDbLine
 62
7
  6
CONTINUOUS
 10
-11.9126652308
 20
9.2776449525
 11
-19.5819480698
 21
5.3651443882
  0
LINE
  5
2BB
100
AcDbEntity
  8
RACCORDO
100
AcDbLine
 62
250
  6
CONTINUOUS
 10
-11.4627413369
 20
9.2506088877
 11
-19.4124074336
 21
5.1950702223
  0
LINE
  5
2BC
100
AcDbEntity
  8
RACCORDO
100
AcDbLine
 62
7
  6
CONTINUOUS
 10
-6.2089777644
 20
13.1430417011
 11
6.396269099
 21
19.461158512
  0
LINE
  5
2BD
100
AcDbEntity
  8
DRAFT
100
AcDbLine
 62
7
  6
CONTINUOUS
 10
-12.9574856586
 20
9.2770374356
 11
-12.1698457248
 21
9.6669988667
  0
LINE
  5
2BE
100
AcDbEntity
  8
DRAFT
100
AcDbLine
 62
7
  6
CONTINUOUS
 10
-6.4057620272
 20
13.2414338326
 11
-7.8282032434
 21
12.5384408783
  0
LINE
  5
2BF
100
AcDbEntity
  8
RACCORDO
100
AcDbLine
 62
250
  6
CONTINUOUS
 10
3.1139333496
 20
17.7522780898
 11
2.306759754
 21
17.3590782612
  0
LINE
  5
2C0
100
AcDbEntity
  8
RACCORDO
100
AcDbLine
 62
7
  6
CONTINUOUS
 10
-22.5342484219
 20
4.8721143759
 11
-14.7181512609
 21
8.5750714229
  0
LINE
  5
2C1
100
AcDbEntity
  8
RACCORDO
100
AcDbLine
 62
7
  6
CONTINUOUS
 10
-3.249484296
 20
-11.8492073842
 11
-8.2302735422
 21
-9.9691915414
  0
LINE
  5
2C2
100
AcDbEntity
  8
RACCORDO
100
AcDbLine
 62
250
  6
CONTINUOUS
 10
-3.4716318072
 20
-11.3672034908
 11
-8.4522469128
 21
-9.4872533005
  0
LINE
  5
2C3
100
AcDbEntity
  8
RACCORDO
100
AcDbLine
 62
7
  6
CONTINUOUS
 10
-8.2302735422
 20
-9.9691915414
 11
-8.2305457898
 21
-9.9690885933
  0
LWPOLYLINE
  5
2C4
100
AcDbEntity
  8
RACCORDO
100
AcDbPolyline
 62
7
  6
CONTINUOUS
 90
20
 70
0
 10
-3.2494869783
 20
-11.849214549
 10
-3.2081687751
 20
-11.8660290409
 10
-3.1382479399
 20
-11.8998057543
 10
-3.0638179702
 20
-11.9428222553
 10
-2.986516617
 20
-11.9951275287
 10
-2.90835153
 20
-12.0561483191
 10
-2.8308093033
 20
-12.1252933803
 10
-2.755091998
 20
-12.2019553593
 10
-2.682551001
 20
-12.2851225787
 10
-2.6142987127
 20
-12.3737342394
 10
-2.5512734199
 20
-12.4666766981
 10
-2.4943264788
 20
-12.5626626989
 10
-2.4441054284
 20
-12.6604131319
 10
-2.4011514053
 20
-12.7585057516
 10
-2.3658939607
 20
-12.85523799
 10
-2.33838867
 20
-12.9493189303
 10
-2.318582186
 20
-13.0392058791
 10
-2.3062414185
 20
-13.1227423076
 10
-2.300648579
 20
-13.1985093123
 10
-2.3000750744
 20
-13.2303214902
  0
LINE
  5
2C5
100
AcDbEntity
  8
RACCORDO
100
AcDbLine
 62
7
  6
CONTINUOUS
 10
25.9415860605
 20
-29.3739658421
 11
24.8392277327
 21
-28.8227866782
  0
LINE
  5
2C6
100
AcDbEntity
  8
RACCORDO
100
AcDbLine
 62
250
  6
CONTINUOUS
 10
-2.3000748946
 20
-14.3910869058
 11
-5.4272605318
 21
-12.8274940872
  0
LINE
  5
2C7
100
AcDbEntity
  8
RACCORDO
100
AcDbLine
 62
250
  6
CONTINUOUS
 10
-18.0738737267
 20
-6.5041874898
 11
-20.8743843901
 21
-5.1039321581
  0
LINE
  5
2C8
100
AcDbEntity
  8
RACCORDO
100
AcDbLine
 62
250
  6
CONTINUOUS
 10
-2.3000748946
 20
-14.2078866555
 11
-5.3767430711
 21
-12.6695525672
  0
LINE
  5
2C9
100
AcDbEntity
  8
RACCORDO
100
AcDbLine
 62
250
  6
CONTINUOUS
 10
-18.0761891208
 20
-6.3198295424
 11
-20.8176923396
 21
-4.9490779329
  0
LINE
  5
2CA
100
AcDbEntity
  8
0
100
AcDbLine
 62
7
  6
CONTINUOUS
 10
-6.5477511686
 20
-11.8502808733
 11
-5.2614550065
 21
-12.4934289544
  0
LINE
  5
2CB
100
AcDbEntity
  8
RACCORDO
100
AcDbLine
 62
7
  6
CONTINUOUS
 10
33.7464820704
 20
-31.8773156631
 11
32.8790278562
 21
-31.443588556
  0
LINE
  5
2CC
100
AcDbEntity
  8
RACCORDO
100
AcDbLine
 62
7
  6
CONTINUOUS
 10
17.6714583792
 20
-23.8398038175
 11
16.5487954339
 21
-23.2784723448
  0
LINE
  5
2CD
100
AcDbEntity
  8
DRAFT
100
AcDbLine
 62
7
  6
CONTINUOUS
 10
27.2741469454
 20
-27.6015488716
 11
27.3942186873
 21
-27.6615847426
  0
LINE
  5
2CE
100
AcDbEntity
  8
RACCORDO
100
AcDbLine
 62
250
  6
CONTINUOUS
 10
-22.6389681294
 20
-1.9798323684
 11
-22.0822140874
 21
-2.3115891833
  0
LWPOLYLINE
  5
2CF
100
AcDbEntity
  8
RACCORDO
100
AcDbPolyline
 62
7
  6
CONTINUOUS
 90
10
 70
0
 10
-8.7910128626
 20
-9.4526357019
 10
-8.7686916797
 20
-9.4962147326
 10
-8.719848382
 20
-9.5773194645
 10
-8.6634435668
 20
-9.6541362539
 10
-8.5996308041
 20
-9.7261640726
 10
-8.5304674916
 20
-9.7910734628
 10
-8.456530142
 20
-9.8487147163
 10
-8.3770992346
 20
-9.8996341033
 10
-8.2935290328
 20
-9.942760614
 10
-8.2305337327
 20
-9.9690564808
  0
LINE
  5
2D0
100
AcDbEntity
  8
RACCORDO
100
AcDbLine
 62
7
  6
CONTINUOUS
 10
-7.8282032434
 20
13.2820290516
 11
-7.8282032434
 21
12.5384408783
  0
LINE
  5
2D1
100
AcDbEntity
  8
RACCORDO
100
AcDbLine
 62
7
  6
CONTINUOUS
 10
-20.3899036496
 20
-26.6869235876
 11
-19.7115393808
 21
-24.6293393557
  0
LINE
  5
2D2
100
AcDbEntity
  8
RACCORDO
100
AcDbLine
 62
7
  6
CONTINUOUS
 10
-19.7452110347
 20
-26.7203259956
 11
-19.0668467659
 21
-24.6627417638
  0
LINE
  5
2D3
100
AcDbEntity
  8
0
100
AcDbLine
 62
7
  6
CONTINUOUS
 10
4.7281057364
 20
15.716737521
 11
-2.3833335482
 21
11.2302195931
  0
LINE
  5
2D4
100
AcDbEntity
  8
RACCORDO
100
AcDbLine
 62
7
  6
CONTINUOUS
 10
23.278283172
 20
20.996805584
 11
27.3942186873
 21
23.1080634158
  0
LINE
  5
2D5
100
AcDbEntity
  8
RACCORDO
100
AcDbLine
 62
7
  6
CONTINUOUS
 10
27.2910511287
 20
24.7906953528
 11
22.9194699463
 21
22.5605241358
  0
LINE
  5
2D6
100
AcDbEntity
  8
RACCORDO
100
AcDbLine
 62
7
  6
CONTINUOUS
 10
0.149094965
 20
10.8640385929
 11
13.5084744838
 21
17.6793537929
  0
LINE
  5
2D7
100
AcDbEntity
  8
DRAFT
100
AcDbLine
 62
7
  6
CONTINUOUS
 10
28.6429446667
 20
26.4028007478
 11
30.0694998838
 21
27.11885208
  0
LINE
  5
2D8
100
AcDbEntity
  8
0
100
AcDbLine
 62
250
  6
CONTINUOUS
 10
5.745026611
 20
15.1057394629
 11
5.0379198298
 21
14.7521860723
  0
LINE
  5
2D9
100
AcDbEntity
  8
RACCORDO
100
AcDbLine
 62
7
  6
CONTINUOUS
 10
31.4541410372
 20
23.9742509648
 11
25.7643521002
 21
21.1380830588
  0
LINE
  5
2DA
100
AcDbEntity
  8
RACCORDO
100
AcDbLine
 62
250
  6
CONTINUOUS
 10
35.148353978
 20
25.9785232169
 11
33.7464820704
 21
25.2803609867
  0
LINE
  5
2DB
100
AcDbEntity
  8
DRAFT
100
AcDbLine
 62
7
  6
CONTINUOUS
 10
13.2280168368
 20
-18.7021695897
 11
12.5683053076
 21
-18.3723138251
  0
LINE
  5
2DC
100
AcDbEntity
  8
DRAFT
100
AcDbLine
 62
7
  6
CONTINUOUS
 10
15.7982845586
 20
-19.9873034506
 11
17.3292361677
 21
-20.7527792551
  0
LINE
  5
2DD
100
AcDbEntity
  8
DRAFT
100
AcDbLine
 62
7
  6
CONTINUOUS
 10
14.396412651
 20
-18.9685302516
 11
15.9026809505
 21
-19.7216644014
  0
LINE
  5
2DE
100
AcDbEntity
  8
SMUSSO
100
AcDbLine
 62
7
  6
CONTINUOUS
 10
30.7388003167
 20
-27.0367509594
 11
33.739876288
 21
-28.5372889451
  0
LINE
  5
2DF
100
AcDbEntity
  8
DRAFT
100
AcDbLine
 62
7
  6
CONTINUOUS
 10
23.6759664441
 20
-22.7991478601
 11
21.7667781349
 21
-21.8445537055
  0
LINE
  5
2E0
100
AcDbEntity
  8
DRAFT
100
AcDbLine
 62
7
  6
CONTINUOUS
 10
18.856074472
 20
-20.389201874
 11
18.4660678507
 21
-20.1941985634
  0
LINE
  5
2E1
100
AcDbEntity
  8
DRAFT
100
AcDbLine
 62
7
  6
CONTINUOUS
 10
14.396412651
 20
-18.1593709635
 11
14.3648485198
 21
-18.1435888979
  0
LINE
  5
2E2
100
AcDbEntity
  8
0
100
AcDbLine
 62
7
  6
CONTINUOUS
 10
-20.5835635235
 20
-0.2298874228
 11
-18.880246358
 21
-1.0815460055
  0
LINE
  5
2E3
100
AcDbEntity
  8
DRAFT
100
AcDbLine
 62
7
  6
CONTINUOUS
 10
22.1381793625
 20
-21.4100846666
 11
17.3292361677
 21
-19.0056130692
  0
LINE
  5
2E4
100
AcDbEntity
  8
DRAFT
100
AcDbLine
 62
7
  6
CONTINUOUS
 10
14.396412651
 20
-17.5392013108
 11
14.1806575251
 21
-17.4313237479
  0
LINE
  5
2E5
100
AcDbEntity
  8
DRAFT
100
AcDbLine
 62
7
  6
CONTINUOUS
 10
14.396412651
 20
-17.4399152816
 11
15.9026809505
 21
-18.1930494314
  0
LINE
  5
2E6
100
AcDbEntity
  8
0
100
AcDbLine
 62
250
  6
CONTINUOUS
 10
-19.575483349
 20
-0.4433321054
 11
-21.2095972541
 21
0.3737248472
  0
LINE
  5
2E7
100
AcDbEntity
  8
DRAFT
100
AcDbLine
 62
7
  6
CONTINUOUS
 10
27.3942186873
 20
-23.605847396
 11
22.1381793625
 21
-20.9778277336
  0
LINE
  5
2E8
100
AcDbEntity
  8
DRAFT
100
AcDbLine
 62
7
  6
CONTINUOUS
 10
15.4287664217
 20
-16.5267632261
 11
15.7982845586
 21
-16.7115222946
  0
LINE
  5
2E9
100
AcDbEntity
  8
DRAFT
100
AcDbLine
 62
7
  6
CONTINUOUS
 10
17.3292361677
 20
-17.4769980992
 11
17.3539194772
 21
-17.4893397539
  0
LINE
  5
2EA
100
AcDbEntity
  8
DRAFT
100
AcDbLine
 62
7
  6
CONTINUOUS
 10
18.3898963394
 20
-18.007328185
 11
21.3137174519
 21
-19.4692387413
  0
LINE
  5
2EB
100
AcDbEntity
  8
RACCORDO
100
AcDbLine
 62
7
  6
CONTINUOUS
 10
21.6672573802
 20
-19.0397909228
 11
26.1927542421
 21
-21.3025393537
  0
LINE
  5
2EC
100
AcDbEntity
  8
RACCORDO
100
AcDbLine
 62
7
  6
CONTINUOUS
 10
27.2287311043
 20
-21.8205277848
 11
27.9358648099
 21
-22.1740946376
  0
LINE
  5
2ED
100
AcDbEntity
  8
RACCORDO
100
AcDbLine
 62
7
  6
CONTINUOUS
 10
-19.0346028207
 20
1.9938949396
 11
-19.0347569383
 21
1.9939867383
  0
LWPOLYLINE
  5
2EE
100
AcDbEntity
  8
RACCORDO
100
AcDbPolyline
 62
7
  6
CONTINUOUS
 90
19
 70
0
 10
-19.0347639377
 20
1.9939750076
 10
-18.4450477711
 20
1.6296121563
 10
-17.7464350108
 20
1.1646687597
 10
-17.0565859839
 20
0.6688694772
 10
-16.3770492587
 20
0.1432741478
 10
-15.7092827665
 20
-0.4110217039
 10
-15.054772151
 20
-0.9928216998
 10
-14.4149315333
 20
-1.6008863412
 10
-13.7911978447
 20
-2.2338919219
 10
-13.185031336
 20
-2.8903411811
 10
-12.5977443737
 20
-3.568808205
 10
-12.0305865735
 20
-4.2678098762
 10
-11.4848582744
 20
-4.9857115152
 10
-10.9617082578
 20
-5.7209244465
 10
-10.4622328956
 20
-6.4718359269
 10
-9.987535337
 20
-7.2366792606
 10
-9.5386059032
 20
-8.0137207763
 10
-9.1163245685
 20
-8.8012813683
 10
-8.7910184231
 20
-9.4526949079
  0
LINE
  5
2EF
100
AcDbEntity
  8
RACCORDO
100
AcDbLine
 62
250
  6
CONTINUOUS
 10
-38.0831904452
 20
15.6767464833
 11
-25.0634699843
 21
6.9824548667
  0
LINE
  5
2F0
100
AcDbEntity
  8
RACCORDO
100
AcDbLine
 62
250
  6
CONTINUOUS
 10
-37.6843387072
 20
16.2590822178
 11
-24.6646182463
 21
7.5647906011
  0
LINE
  5
2F1
100
AcDbEntity
  8
DRAFT
100
AcDbLine
 62
7
  6
CONTINUOUS
 10
13.2280168368
 20
-18.7021695897
 11
12.687040411
 21
-18.3111515474
  0
LINE
  5
2F2
100
AcDbEntity
  8
DRAFT
100
AcDbLine
 62
7
  6
CONTINUOUS
 10
-6.441893335
 20
-11.9032097901
 11
-6.441893335
 21
-10.6442217615
  0
LINE
  5
2F3
100
AcDbEntity
  8
RACCORDO
100
AcDbLine
 62
7
  6
CONTINUOUS
 10
-5.4272605318
 20
-13.4594075854
 11
-5.4272605318
 21
-12.8274940872
  0
LINE
  5
2F4
100
AcDbEntity
  8
RACCORDO
100
AcDbLine
 62
250
  6
CONTINUOUS
 10
-5.3648013012
 20
36.7026597595
 11
-5.3648013012
 21
35.2835517342
  0
LINE
  5
2F5
100
AcDbEntity
  8
0
100
AcDbLine
 62
250
  6
CONTINUOUS
 10
-15.0842619518
 20
-21.3154687695
 11
-15.5387814295
 21
-22.2061424565
  0
LINE
  5
2F6
100
AcDbEntity
  8
DRAFT
100
AcDbLine
 62
7
  6
CONTINUOUS
 10
-21.1454135992
 20
-6.6592325639
 11
-21.0378053366
 21
-6.5947151213
  0
LINE
  5
2F7
100
AcDbEntity
  8
DRAFT
100
AcDbLine
 62
7
  6
CONTINUOUS
 10
-20.9699669391
 20
-3.3055192391
 11
-21.0378053366
 21
-3.3421295616
  0
LINE
  5
2F8
100
AcDbEntity
  8
ASSI
100
AcDbLine
 62
7
  6
CONTINUOUS
 10
32.8000993829
 20
24.9479295512
 11
32.0835596331
 21
24.5784259356
  0
LINE
  5
2F9
100
AcDbEntity
  8
DRAFT
100
AcDbLine
 62
7
  6
CONTINUOUS
 10
-19.7433211482
 20
-5.928189579
 11
-19.6239443929
 21
-5.8667213502
  0
LINE
  5
2FA
100
AcDbEntity
  8
RACCORDO
100
AcDbLine
 62
250
  6
CONTINUOUS
 10
-36.5907025911
 20
-11.1063959788
 11
-30.2983868537
 21
-7.9359772313
  0
LINE
  5
2FB
100
AcDbEntity
  8
RACCORDO
100
AcDbLine
 62
250
  6
CONTINUOUS
 10
-36.0788645181
 20
-12.4241220014
 11
-29.5913877683
 21
-9.155370278
  0
LINE
  5
2FC
100
AcDbEntity
  8
RACCORDO
100
AcDbLine
 62
250
  6
CONTINUOUS
 10
33.7464594539
 20
22.8280917564
 11
5.0061926646
 21
8.4354897432
  0
LINE
  5
2FD
100
AcDbEntity
  8
RACCORDO
100
AcDbLine
 62
250
  6
CONTINUOUS
 10
34.4535619272
 20
21.6085203922
 11
5.7132951378
 21
7.2159183789
  0
LINE
  5
2FE
100
AcDbEntity
  8
RACCORDO
100
AcDbLine
 62
250
  6
CONTINUOUS
 10
35.8554338348
 20
24.7589908603
 11
34.4535619272
 21
24.0608286302
  0
LINE
  5
2FF
100
AcDbEntity
  8
ASSI
100
AcDbLine
 62
7
  6
CONTINUOUS
 10
33.6945005217
 20
23.1591272738
 11
32.9689737793
 21
22.8075976433
  0
LINE
  5
300
100
AcDbEntity
  8
RACCORDO
100
AcDbLine
 62
7
  6
CONTINUOUS
 10
-24.65666516
 20
4.8080271186
 11
-24.6586742263
 21
4.8087778461
  0
LINE
  5
301
100
AcDbEntity
  8
DRAFT
100
AcDbLine
 62
7
  6
CONTINUOUS
 10
15.7156706001
 20
-15.2408863746
 11
17.3539194772
 21
-16.0600108132
  0
LINE
  5
302
100
AcDbEntity
  8
DRAFT
100
AcDbLine
 62
7
  6
CONTINUOUS
 10
19.8164515566
 20
-17.2912768528
 11
22.3466538982
 21
-18.5563780237
  0
LINE
  5
303
100
AcDbEntity
  8
RACCORDO
100
AcDbLine
 62
7
  6
CONTINUOUS
 10
23.0691292878
 20
-18.3113979358
 11
26.1927542421
 21
-19.8732104129
  0
LINE
  5
304
100
AcDbEntity
  8
RACCORDO
100
AcDbLine
 62
7
  6
CONTINUOUS
 10
28.6552863214
 20
-21.1044764526
 11
29.3624200271
 21
-21.4580433054
  0
LINE
  5
305
100
AcDbEntity
  8
DRAFT
100
AcDbLine
 62
7
  6
CONTINUOUS
 10
17.3292361677
 20
-20.7527792551
 11
15.9026809505
 21
-19.7216644014
  0
LINE
  5
306
100
AcDbEntity
  8
DRAFT
100
AcDbLine
 62
7
  6
CONTINUOUS
 10
15.7982845586
 20
-19.9873034506
 11
14.396412651
 21
-18.9685302516
  0
LINE
  5
307
100
AcDbEntity
  8
RACCORDO
100
AcDbLine
 62
7
  6
CONTINUOUS
 10
-2.598833407
 20
35.2436542049
 11
-2.598833407
 21
36.3736845916
  0
LINE
  5
308
100
AcDbEntity
  8
RACCORDO
100
AcDbLine
 62
7
  6
CONTINUOUS
 10
-2.598833407
 20
41.8828309604
 11
-2.598833407
 21
42.5870262972
  0
LINE
  5
309
100
AcDbEntity
  8
RACCORDO
100
AcDbLine
 62
7
  6
CONTINUOUS
 10
-2.3000735989
 20
-28.6913667596
 11
-2.3000748946
 21
-13.2304930675
  0
LINE
  5
30A
100
AcDbEntity
  8
RACCORDO
100
AcDbLine
 62
250
  6
CONTINUOUS
 10
-1.9398687459
 20
-29.0506804663
 11
-1.9398687459
 21
-13.5905703497
  0
LINE
  5
30B
100
AcDbEntity
  8
RACCORDO
100
AcDbLine
 62
250
  6
CONTINUOUS
 10
-1.7435640151
 20
-2.4930667317
 11
-1.7435640151
 21
-40.2953248395
  0
LINE
  5
30C
100
AcDbEntity
  8
RACCORDO
100
AcDbLine
 62
250
  6
CONTINUOUS
 10
-1.0913614372
 20
-2.4704164811
 11
-1.0913614372
 21
-40.2726745888
  0
LINE
  5
30D
100
AcDbEntity
  8
RACCORDO
100
AcDbLine
 62
7
  6
CONTINUOUS
 10
-0.551444086
 20
9.6436494728
 11
-0.551444086
 21
8.9000612996
  0
LINE
  5
30E
100
AcDbEntity
  8
RACCORDO
100
AcDbLine
 62
7
  6
CONTINUOUS
 10
-0.551444086
 20
-40.7739621875
 11
-0.551444086
 21
-40.2133668216
  0
LINE
  5
30F
100
AcDbEntity
  8
SMUSSO
100
AcDbLine
 62
7
  6
CONTINUOUS
 10
0.2591661267
 20
38.7057130162
 11
0.2591661267
 21
39.57173842
  0
LINE
  5
310
100
AcDbEntity
  8
RACCORDO
100
AcDbLine
 62
7
  6
CONTINUOUS
 10
0.3833567288
 20
40.5325947168
 11
0.3833567288
 21
36.7274037984
  0
LINE
  5
311
100
AcDbEntity
  8
RACCORDO
100
AcDbLine
 62
7
  6
CONTINUOUS
 10
-2.3000748292
 20
-13.2303214912
 11
-2.3000748946
 21
-13.2304930675
  0
LWPOLYLINE
  5
312
100
AcDbEntity
  8
RACCORDO
100
AcDbPolyline
 62
7
  6
CONTINUOUS
 90
11
 70
0
 10
-2.3000736325
 20
-28.6913667595
 10
-2.3008187719
 20
-28.7259728189
 10
-2.3057654368
 20
-28.78520899
 10
-2.3146121358
 20
-28.836457265
 10
-2.3261689339
 20
-28.8785601148
 10
-2.3386207885
 20
-28.9101984646
 10
-2.3494568479
 20
-28.9305082695
 10
-2.357385996
 20
-28.9419316888
 10
-2.3633460144
 20
-28.948426241
 10
-2.3684942947
 20
-28.952208742
 10
-2.3713718501
 20
-28.9535678729
  0
LINE
  5
313
100
AcDbEntity
  8
DRAFT
100
AcDbLine
 62
7
  6
CONTINUOUS
 10
14.549794098
 20
26.332338735
 11
14.1953786867
 21
25.7141209993
  0
LINE
  5
314
100
AcDbEntity
  8
RACCORDO
100
AcDbLine
 62
7
  6
CONTINUOUS
 10
34.4535619272
 20
17.9279071499
 11
15.6498228501
 21
8.591446987
  0
LINE
  5
315
100
AcDbEntity
  8
0
100
AcDbLine
 62
7
  6
CONTINUOUS
 10
13.0454030915
 20
5.9000413521
 11
13.04226844
 21
5.899009421
  0
LINE
  5
316
100
AcDbEntity
  8
0
100
AcDbLine
 62
7
  6
CONTINUOUS
 10
13.0452333429
 20
5.9004327524
 11
13.0420905388
 21
5.8994207612
  0
LWPOLYLINE
  5
317
100
AcDbEntity
  8
RACCORDO
100
AcDbPolyline
 62
7
  6
CONTINUOUS
 90
14
 70
0
 10
-24.6586692117
 20
4.8087912452
 10
-24.5252798891
 20
4.7647687834
 10
-24.3938737182
 20
4.731060652
 10
-24.2560939856
 20
4.7041930968
 10
-24.1126928713
 20
4.6839798344
 10
-23.9689829427
 20
4.6706189539
 10
-23.8286826768
 20
4.6635292291
 10
-23.6896599362
 20
4.6618689277
 10
-23.5503285978
 20
4.6653357358
 10
-23.4116765981
 20
4.6737496212
 10
-23.2739777769
 20
4.6870162927
 10
-23.1349111608
 20
4.7055217455
 10
-22.9940816181
 20
4.7297069637
 10
-22.8436267524
 20
4.762058403
  0
LINE
  5
318
100
AcDbEntity
  8
RACCORDO
100
AcDbLine
 62
250
  6
CONTINUOUS
 10
-19.1135490691
 20
4.0074944091
 11
-1.7435640151
 21
-2.4930667317
  0
LINE
  5
319
100
AcDbEntity
  8
RACCORDO
100
AcDbLine
 62
250
  6
CONTINUOUS
 10
-18.8148977278
 20
4.6399303419
 11
-1.4449126738
 21
-1.8606307989
  0
LINE
  5
31A
100
AcDbEntity
  8
RACCORDO
100
AcDbLine
 62
250
  6
CONTINUOUS
 10
33.2588852717
 20
-18.8522672492
 11
29.0014348395
 21
-16.723542033
  0
LINE
  5
31B
100
AcDbEntity
  8
RACCORDO
100
AcDbLine
 62
250
  6
CONTINUOUS
 10
17.3539194772
 20
-10.8997843519
 11
15.7156706001
 21
-10.0806599133
  0
LINE
  5
31C
100
AcDbEntity
  8
RACCORDO
100
AcDbLine
 62
250
  6
CONTINUOUS
 10
33.2588852717
 20
-18.0675582851
 11
29.3549785625
 21
-16.1156049305
  0
LINE
  5
31D
100
AcDbEntity
  8
RACCORDO
100
AcDbLine
 62
250
  6
CONTINUOUS
 10
17.3539194772
 20
-10.1150753878
 11
15.7156706001
 21
-9.2959509493
  0
LINE
  5
31E
100
AcDbEntity
  8
0
100
AcDbLine
 62
7
  6
CONTINUOUS
 10
22.6695619909
 20
-11.3835312137
 11
27.9234962307
 21
-14.0104983335
  0
LINE
  5
31F
100
AcDbEntity
  8
DRAFT
100
AcDbLine
 62
7
  6
CONTINUOUS
 10
33.2588852717
 20
-16.2855920889
 11
31.1348611523
 21
-15.2235800292
  0
LINE
  5
320
100
AcDbEntity
  8
DRAFT
100
AcDbLine
 62
7
  6
CONTINUOUS
 10
17.3539194772
 20
-8.3331091917
 11
15.9320653568
 21
-7.6221821314
  0
LINE
  5
321
100
AcDbEntity
  8
SMUSSO
100
AcDbLine
 62
7
  6
CONTINUOUS
 10
33.739876288
 20
-28.5372889451
 11
34.4535619272
 21
-29.0539710054
  0
LINE
  5
322
100
AcDbEntity
  8
DRAFT
100
AcDbLine
 62
7
  6
CONTINUOUS
 10
-12.9574856586
 20
9.2770374356
 11
-14.2377334633
 21
10.2034123165
  0
LINE
  5
323
100
AcDbEntity
  8
DRAFT
100
AcDbLine
 62
7
  6
CONTINUOUS
 10
1.6320827081
 20
37.4695343142
 11
1.6320827081
 21
37.3498515878
  0
LINE
  5
324
100
AcDbEntity
  8
DRAFT
100
AcDbLine
 62
7
  6
CONTINUOUS
 10
2.8341642361
 20
37.8211214944
 11
2.8341642361
 21
36.8684935502
  0
LINE
  5
325
100
AcDbEntity
  8
0
100
AcDbLine
 62
7
  6
CONTINUOUS
 10
4.2601023705
 20
18.3904495394
 11
4.2601023705
 21
17.1791935794
  0
LINE
  5
326
100
AcDbEntity
  8
RACCORDO
100
AcDbLine
 62
250
  6
CONTINUOUS
 10
4.3015541467
 20
7.2171503565
 11
4.3015541467
 21
1.3684611459
  0
LINE
  5
327
100
AcDbEntity
  8
RACCORDO
100
AcDbLine
 62
250
  6
CONTINUOUS
 10
4.3015541467
 20
-37.8244242937
 11
4.3015541467
 21
-43.2004613038
  0
LINE
  5
328
100
AcDbEntity
  8
RACCORDO
100
AcDbLine
 62
250
  6
CONTINUOUS
 10
4.3225616011
 20
30.4399480033
 11
4.3225616011
 21
31.8589783084
  0
LINE
  5
329
100
AcDbEntity
  8
DRAFT
100
AcDbLine
 62
7
  6
CONTINUOUS
 10
-12.9574856586
 20
-24.3225961415
 11
-13.0286584295
 21
-24.4462776064
  0
LINE
  5
32A
100
AcDbEntity
  8
DRAFT
100
AcDbLine
 62
7
  6
CONTINUOUS
 10
-14.2377334633
 20
-26.516064804
 11
-13.0286584295
 21
-24.4462776064
  0
LINE
  5
32B
100
AcDbEntity
  8
DRAFT
100
AcDbLine
 62
7
  6
CONTINUOUS
 10
17.8949215926
 20
27.4618006443
 11
17.4194922943
 21
26.6509570297
  0
LINE
  5
32C
100
AcDbEntity
  8
RACCORDO
100
AcDbLine
 62
7
  6
CONTINUOUS
 10
-5.3767430711
 20
-12.6695525672
 11
-4.5246853338
 21
-11.3678784726
  0
LWPOLYLINE
  5
32D
100
AcDbEntity
  8
RACCORDO
100
AcDbPolyline
 62
7
  6
CONTINUOUS
 90
10
 70
0
 10
-19.6143526135
 20
-30.7464459484
 10
-19.6607993326
 20
-30.8029218952
 10
-19.7260360741
 20
-30.8947512484
 10
-19.7814119775
 20
-30.989376052
 10
-19.8268871137
 20
-31.0859628411
 10
-19.862666935
 20
-31.1840326369
 10
-19.8889807809
 20
-31.2833599313
 10
-19.9058509932
 20
-31.3830215576
 10
-19.9134666607
 20
-31.4823451182
 10
-19.9139908609
 20
-31.5157793685
  0
LINE
  5
32E
100
AcDbEntity
  8
0
100
AcDbLine
 62
7
  6
CONTINUOUS
 10
14.6477756139
 20
6.8892839916
 11
13.3261715442
 21
6.0344816375
  0
LINE
  5
32F
100
AcDbEntity
  8
0
100
AcDbLine
 62
7
  6
CONTINUOUS
 10
22.6695619909
 20
10.2066423673
 11
25.4733058061
 21
11.6634283413
  0
LINE
  5
330
100
AcDbEntity
  8
DRAFT
100
AcDbLine
 62
7
  6
CONTINUOUS
 10
13.0416346552
 20
5.8986001824
 11
13.2103452746
 21
5.9845131741
  0
LINE
  5
331
100
AcDbEntity
  8
DRAFT
100
AcDbLine
 62
7
  6
CONTINUOUS
 10
-11.9666032199
 20
-7.753921448
 11
-13.3468564811
 21
-8.4496832158
  0
LINE
  5
332
100
AcDbEntity
  8
0
100
AcDbLine
 62
7
  6
CONTINUOUS
 10
28.6552863214
 20
10.0724380836
 11
27.2287311043
 21
9.3563867514
  0
LINE
  5
333
100
AcDbEntity
  8
RACCORDO
100
AcDbLine
 62
250
  6
CONTINUOUS
 10
-1.4449126738
 20
-1.8606307989
 11
4.7464785379
 21
1.2399051242
  0
LINE
  5
334
100
AcDbEntity
  8
RACCORDO
100
AcDbLine
 62
250
  6
CONTINUOUS
 10
-1.0913614372
 20
-2.4704164811
 11
5.7132951378
 21
0.9372315634
  0
LINE
  5
335
100
AcDbEntity
  8
DRAFT
100
AcDbLine
 62
7
  6
CONTINUOUS
 10
-11.2970150083
 20
-9.6250536429
 11
-12.2520713463
 21
-10.1013257419
  0
LINE
  5
336
100
AcDbEntity
  8
DRAFT
100
AcDbLine
 62
7
  6
CONTINUOUS
 10
36.7685018229
 20
15.7640740785
 11
35.8554338348
 21
15.3093466676
  0
LINE
  5
337
100
AcDbEntity
  8
RACCORDO
100
AcDbLine
 62
7
  6
CONTINUOUS
 10
15.0939722511
 20
2.8295657245
 11
12.1019475526
 21
1.3516583023
  0
LWPOLYLINE
  5
338
100
AcDbEntity
  8
RACCORDO
100
AcDbPolyline
 62
7
  6
CONTINUOUS
 90
8
 70
0
 10
-36.5772589715
 20
4.8299560647
 10
-36.5827726369
 20
4.8305656774
 10
-36.6029728286
 20
4.8340880598
 10
-36.6102044395
 20
4.8360774744
 10
-36.6058609067
 20
4.8342180601
 10
-36.5918526421
 20
4.8270939182
 10
-36.5695042181
 20
4.8136219173
 10
-36.5661134073
 20
4.8114026119
  0
LINE
  5
339
100
AcDbEntity
  8
RACCORDO
100
AcDbLine
 62
7
  6
CONTINUOUS
 10
15.7156706001
 20
-6.779288195
 11
17.3539194772
 21
-7.5984126336
  0
LINE
  5
33A
100
AcDbEntity
  8
RACCORDO
100
AcDbLine
 62
7
  6
CONTINUOUS
 10
29.1320618373
 20
-13.4874838136
 11
33.2588852717
 21
-15.5508955309
  0
LINE
  5
33B
100
AcDbEntity
  8
0
100
AcDbLine
 62
7
  6
CONTINUOUS
 10
27.9234962307
 20
-12.7719217415
 11
22.6695619909
 21
-10.1449546216
  0
LINE
  5
33C
100
AcDbEntity
  8
RACCORDO
100
AcDbLine
 62
250
  6
CONTINUOUS
 10
15.7156706001
 20
-6.5738245912
 11
17.3539194772
 21
-7.3929490298
  0
LINE
  5
33D
100
AcDbEntity
  8
RACCORDO
100
AcDbLine
 62
250
  6
CONTINUOUS
 10
29.2824123349
 20
-13.3571954587
 11
33.2588852717
 21
-15.3454319271
  0
LINE
  5
33E
100
AcDbEntity
  8
0
100
AcDbLine
 62
7
  6
CONTINUOUS
 10
27.2287311043
 20
-10.9952102375
 11
26.1927542421
 21
-10.4772218064
  0
LINE
  5
33F
100
AcDbEntity
  8
RACCORDO
100
AcDbLine
 62
250
  6
CONTINUOUS
 10
35.8554338348
 20
-14.7052695206
 11
36.0554352
 21
-14.8052702033
  0
LINE
  5
340
100
AcDbEntity
  8
RACCORDO
100
AcDbLine
 62
7
  6
CONTINUOUS
 10
35.8554338348
 20
-14.6296669452
 11
36.1888967907
 21
-14.7963984231
  0
LINE
  5
341
100
AcDbEntity
  8
RACCORDO
100
AcDbLine
 62
7
  6
CONTINUOUS
 10
4.3015541467
 20
1.3684611459
 11
-11.4627413369
 21
9.2506088877
  0
LINE
  5
342
100
AcDbEntity
  8
RACCORDO
100
AcDbLine
 62
7
  6
CONTINUOUS
 10
-15.5138143377
 20
11.2761453881
 11
-31.2781098212
 21
19.1582931299
  0
LINE
  5
343
100
AcDbEntity
  8
0
100
AcDbLine
 62
7
  6
CONTINUOUS
 10
30.776606665
 20
-11.3398190771
 11
28.6552863214
 21
-10.2791589053
  0
LINE
  5
344
100
AcDbEntity
  8
0
100
AcDbLine
 62
7
  6
CONTINUOUS
 10
26.1927542421
 20
-9.0478928656
 11
25.4733058061
 21
-8.6881686476
  0
LINE
  5
345
100
AcDbEntity
  8
0
100
AcDbLine
 62
250
  6
CONTINUOUS
 10
4.8032457818
 20
14.8931856241
 11
4.7281057364
 21
15.716737521
  0
LINE
  5
346
100
AcDbEntity
  8
0
100
AcDbLine
 62
7
  6
CONTINUOUS
 10
5.0379198298
 20
14.2592115967
 11
5.0379198298
 21
14.7521860723
  0
LINE
  5
347
100
AcDbEntity
  8
DRAFT
100
AcDbLine
 62
7
  6
CONTINUOUS
 10
5.6860405049
 20
35.4425554158
 11
5.6860405049
 21
36.39518336
  0
LINE
  5
348
100
AcDbEntity
  8
RACCORDO
100
AcDbLine
 62
250
  6
CONTINUOUS
 10
5.7132951378
 20
7.2159183789
 11
5.7132951378
 21
0.9372315634
  0
LINE
  5
349
100
AcDbEntity
  8
RACCORDO
100
AcDbLine
 62
250
  6
CONTINUOUS
 10
5.7132951378
 20
-36.923006466
 11
5.7132951378
 21
-43.2016932815
  0
LINE
  5
34A
100
AcDbEntity
  8
0
100
AcDbLine
 62
7
  6
CONTINUOUS
 10
5.745026611
 20
13.9056582061
 11
5.745026611
 21
15.1057394629
  0
LINE
  5
34B
100
AcDbEntity
  8
RACCORDO
100
AcDbLine
 62
250
  6
CONTINUOUS
 10
6.396269099
 20
19.461158512
 11
6.396269099
 21
21.2354564853
  0
LINE
  5
34C
100
AcDbEntity
  8
DRAFT
100
AcDbLine
 62
7
  6
CONTINUOUS
 10
6.8881220329
 20
30.7857773052
 11
6.8881220329
 21
31.2180342382
  0
LINE
  5
34D
100
AcDbEntity
  8
0
100
AcDbLine
 62
250
  6
CONTINUOUS
 10
7.3409474776
 20
14.5329770849
 11
7.3409474776
 21
14.5856684366
  0
LINE
  5
34E
100
AcDbEntity
  8
RACCORDO
100
AcDbLine
 62
7
  6
CONTINUOUS
 10
7.7249255983
 20
35.9957519014
 11
7.7249255983
 21
34.4231128691
  0
LINE
  5
34F
100
AcDbEntity
  8
RACCORDO
100
AcDbLine
 62
7
  6
CONTINUOUS
 10
-19.6122784943
 20
-30.7440658978
 11
-19.6143526135
 21
-30.7464459484
  0
LINE
  5
350
100
AcDbEntity
  8
DRAFT
100
AcDbLine
 62
7
  6
CONTINUOUS
 10
-5.1047498
 20
-11.171008417
 11
-5.2316435568
 21
-11.2452104514
  0
LINE
  5
351
100
AcDbEntity
  8
RACCORDO
100
AcDbLine
 62
7
  6
CONTINUOUS
 10
15.5722958246
 20
1.6535332587
 11
12.1019475535
 21
-0.1020574408
  0
LINE
  5
352
100
AcDbEntity
  8
0
100
AcDbLine
 62
7
  6
CONTINUOUS
 10
27.9234962307
 20
7.5796752475
 11
30.776606665
 21
9.0117779118
  0
LINE
  5
353
100
AcDbEntity
  8
DRAFT
100
AcDbLine
 62
7
  6
CONTINUOUS
 10
-5.0997843002
 20
-11.1812442456
 11
-5.064495471
 21
-11.1641252918
  0
LINE
  5
354
100
AcDbEntity
  8
0
100
AcDbLine
 62
7
  6
CONTINUOUS
 10
27.9234962307
 20
6.3410986554
 11
30.776606665
 21
7.7127398062
  0
LINE
  5
355
100
AcDbEntity
  8
DRAFT
100
AcDbLine
 62
7
  6
CONTINUOUS
 10
-14.8067099498
 20
14.091733044
 11
-12.1698457248
 21
12.7733009315
  0
LINE
  5
356
100
AcDbEntity
  8
DRAFT
100
AcDbLine
 62
7
  6
CONTINUOUS
 10
-26.4251115886
 20
21.8368950509
 11
-19.1483524312
 21
18.1985154722
  0
LINE
  5
357
100
AcDbEntity
  8
DRAFT
100
AcDbLine
 62
7
  6
CONTINUOUS
 10
-7.8282032434
 20
12.5384408783
 11
-0.551444086
 21
8.9000612996
  0
LINE
  5
358
100
AcDbEntity
  8
RACCORDO
100
AcDbLine
 62
7
  6
CONTINUOUS
 10
36.2046497946
 20
-14.805973391
 11
36.1888089179
 21
-14.7965756334
  0
LINE
  5
359
100
AcDbEntity
  8
DRAFT
100
AcDbLine
 62
7
  6
CONTINUOUS
 10
8.291228106
 20
31.9458101424
 11
8.291228106
 21
32.1469240937
  0
LINE
  5
35A
100
AcDbEntity
  8
RACCORDO
100
AcDbLine
 62
7
  6
CONTINUOUS
 10
9.1391391607
 20
36.7179740609
 11
9.1391391607
 21
35.1317519031
  0
LINE
  5
35B
100
AcDbEntity
  8
DRAFT
100
AcDbLine
 62
7
  6
CONTINUOUS
 10
9.4803508965
 20
34.9611460352
 11
9.4803508965
 21
35.9129974955
  0
LINE
  5
35C
100
AcDbEntity
  8
DRAFT
100
AcDbLine
 62
7
  6
CONTINUOUS
 10
9.946529029
 20
32.9960061613
 11
9.946529029
 21
34.7280569689
  0
LINE
  5
35D
100
AcDbEntity
  8
DRAFT
100
AcDbLine
 62
7
  6
CONTINUOUS
 10
10.636405056
 20
16.214161611
 11
10.636405056
 21
20.1823237559
  0
LINE
  5
35E
100
AcDbEntity
  8
DRAFT
100
AcDbLine
 62
7
  6
CONTINUOUS
 10
10.9069061137
 20
33.7842355085
 11
10.9069061137
 21
35.1997198869
  0
LINE
  5
35F
100
AcDbEntity
  8
DRAFT
100
AcDbLine
 62
7
  6
CONTINUOUS
 10
10.9546031075
 20
35.17587139
 11
10.9546031075
 21
32.3310580708
  0
LINE
  5
360
100
AcDbEntity
  8
RACCORDO
100
AcDbLine
 62
7
  6
CONTINUOUS
 10
10.9776167918
 20
38.06389181
 11
10.9776167918
 21
40.6771163754
  0
LINE
  5
361
100
AcDbEntity
  8
DRAFT
100
AcDbLine
 62
7
  6
CONTINUOUS
 10
11.6723819182
 20
20.05346866
 11
11.6723819182
 21
16.7426673583
  0
LINE
  5
362
100
AcDbEntity
  8
RACCORDO
100
AcDbLine
 62
7
  6
CONTINUOUS
 10
12.1019475526
 20
-34.8236210902
 11
12.1019475526
 21
2.4997237109
  0
LINE
  5
363
100
AcDbEntity
  8
RACCORDO
100
AcDbLine
 62
7
  6
CONTINUOUS
 10
17.5602632377
 20
34.7725685871
 11
17.695131213
 21
35.4630729044
  0
LINE
  5
364
100
AcDbEntity
  8
RACCORDO
100
AcDbLine
 62
7
  6
CONTINUOUS
 10
-8.6979506576
 20
-27.3839615291
 11
-8.6980206209
 21
-27.3840538527
  0
LWPOLYLINE
  5
365
100
AcDbEntity
  8
RACCORDO
100
AcDbPolyline
 62
7
  6
CONTINUOUS
 90
9
 70
0
 10
-8.6980637872
 20
-27.3840211328
 10
-8.9964753645
 20
-27.7584615762
 10
-9.3786768911
 20
-28.1870449927
 10
-9.7837845076
 20
-28.5885561233
 10
-10.2110524912
 20
-28.9621909906
 10
-10.6599062203
 20
-29.3073712398
 10
-11.1300014635
 20
-29.6236872388
 10
-11.6207804077
 20
-29.910557086
 10
-11.7179251708
 20
-29.962531984
  0
LINE
  5
366
100
AcDbEntity
  8
DRAFT
100
AcDbLine
 62
7
  6
CONTINUOUS
 10
-5.2811010466
 20
-14.5251858083
 11
-5.2316435568
 21
-14.4977960112
  0
LINE
  5
367
100
AcDbEntity
  8
DRAFT
100
AcDbLine
 62
7
  6
CONTINUOUS
 10
-3.9246794043
 20
-13.8255044529
 11
-3.8170773757
 21
-13.7701548588
  0
LINE
  5
368
100
AcDbEntity
  8
DRAFT
100
AcDbLine
 62
7
  6
CONTINUOUS
 10
26.1927542421
 20
1.8921694019
 11
23.9595514722
 21
0.7445816827
  0
LINE
  5
369
100
AcDbEntity
  8
DRAFT
100
AcDbLine
 62
7
  6
CONTINUOUS
 10
28.6552863214
 20
1.762697011
 11
27.2287311043
 21
1.0500253607
  0
LWPOLYLINE
  5
36A
100
AcDbEntity
  8
RACCORDO
100
AcDbPolyline
 62
7
  6
CONTINUOUS
 90
5
 70
0
 10
-22.8440354201
 20
4.7619548574
 10
-22.79949781
 20
4.7733302201
 10
-22.6872991302
 20
4.8086026206
 10
-22.5745019689
 20
4.8536699224
 10
-22.533717879
 20
4.8723660201
  0
LINE
  5
36B
100
AcDbEntity
  8
RACCORDO
100
AcDbLine
 62
7
  6
CONTINUOUS
 10
-22.8440367865
 20
4.7619606401
 11
-22.8436267524
 21
4.762058403
  0
LINE
  5
36C
100
AcDbEntity
  8
RACCORDO
100
AcDbLine
 62
250
  6
CONTINUOUS
 10
-31.2781098212
 20
25.0069823405
 11
-26.4251115886
 21
22.5804832242
  0
LINE
  5
36D
100
AcDbEntity
  8
RACCORDO
100
AcDbLine
 62
250
  6
CONTINUOUS
 10
-19.1483524312
 20
18.9421036455
 11
-7.8282032434
 21
13.2820290516
  0
LINE
  5
36E
100
AcDbEntity
  8
RACCORDO
100
AcDbLine
 62
250
  6
CONTINUOUS
 10
-0.551444086
 20
9.6436494728
 11
4.3015541467
 21
7.2171503565
  0
LINE
  5
36F
100
AcDbEntity
  8
DRAFT
100
AcDbLine
 62
7
  6
CONTINUOUS
 10
-25.0026703724
 20
22.5398880052
 11
-19.0035781473
 21
19.5403418926
  0
LINE
  5
370
100
AcDbEntity
  8
DRAFT
100
AcDbLine
 62
7
  6
CONTINUOUS
 10
-6.4057620272
 20
13.2414338326
 11
-0.4066698021
 21
10.24188772
  0
LINE
  5
371
100
AcDbEntity
  8
RACCORDO
100
AcDbLine
 62
250
  6
CONTINUOUS
 10
12.3484953105
 20
4.2023041947
 11
15.0939722511
 21
2.8295657245
  0
LINE
  5
372
100
AcDbEntity
  8
RACCORDO
100
AcDbLine
 62
7
  6
CONTINUOUS
 10
12.3782108394
 20
4.3103819145
 11
15.2717778696
 21
2.8635983994
  0
LINE
  5
373
100
AcDbEntity
  8
RACCORDO
100
AcDbLine
 62
250
  6
CONTINUOUS
 10
-30.5734713033
 20
26.2253217271
 11
-25.7163736037
 21
23.7967728773
  0
LINE
  5
374
100
AcDbEntity
  8
RACCORDO
100
AcDbLine
 62
250
  6
CONTINUOUS
 10
-18.4478133802
 20
20.1624927656
 11
-7.1194652585
 21
14.4983187047
  0
LINE
  5
375
100
AcDbEntity
  8
RACCORDO
100
AcDbLine
 62
250
  6
CONTINUOUS
 10
0.149094965
 20
10.8640385929
 11
5.0061926646
 21
8.4354897432
  0
LINE
  5
376
100
AcDbEntity
  8
RACCORDO
100
AcDbLine
 62
7
  6
CONTINUOUS
 10
36.2046497946
 20
-14.805973391
 11
38.0591022684
 21
-16.1521720652
  0
LINE
  5
377
100
AcDbEntity
  8
DRAFT
100
AcDbLine
 62
7
  6
CONTINUOUS
 10
13.0989371353
 20
19.649535018
 11
13.0989371353
 21
17.4704274643
  0
LINE
  5
378
100
AcDbEntity
  8
DRAFT
100
AcDbLine
 62
7
  6
CONTINUOUS
 10
13.0989371353
 20
5.9277804884
 11
13.0989371353
 21
3.9500187665
  0
LINE
  5
379
100
AcDbEntity
  8
RACCORDO
100
AcDbLine
 62
250
  6
CONTINUOUS
 10
13.232107044
 20
27.4042055869
 11
13.232107044
 21
25.9850975616
  0
LINE
  5
37A
100
AcDbEntity
  8
RACCORDO
100
AcDbLine
 62
250
  6
CONTINUOUS
 10
13.232107044
 20
-24.5972142709
 11
13.232107044
 21
-23.1941921464
  0
LINE
  5
37B
100
AcDbEntity
  8
RACCORDO
100
AcDbLine
 62
7
  6
CONTINUOUS
 10
13.5280087591
 20
41.8154077758
 11
13.5280087591
 21
41.6670110038
  0
LINE
  5
37C
100
AcDbEntity
  8
RACCORDO
100
AcDbLine
 62
7
  6
CONTINUOUS
 10
13.7844460206
 20
40.1396941891
 11
13.7844460206
 21
36.6604771956
  0
LINE
  5
37D
100
AcDbEntity
  8
ASSI
100
AcDbLine
 62
7
  6
CONTINUOUS
 10
13.9072632474
 20
17.9100596756
 11
13.9072632474
 21
19.2354887779
  0
LINE
  5
37E
100
AcDbEntity
  8
ASSI
100
AcDbLine
 62
7
  6
CONTINUOUS
 10
13.9072632474
 20
25.7592548045
 11
13.9072632474
 21
26.0027542977
  0
LINE
  5
37F
100
AcDbEntity
  8
DRAFT
100
AcDbLine
 62
7
  6
CONTINUOUS
 10
14.396412651
 20
-18.9685302516
 11
14.396412651
 21
-17.4399152816
  0
LINE
  5
380
100
AcDbEntity
  8
RACCORDO
100
AcDbLine
 62
250
  6
CONTINUOUS
 10
15.5722958246
 20
1.6535332587
 11
15.5722958246
 21
-16.4182774515
  0
LINE
  5
381
100
AcDbEntity
  8
RACCORDO
100
AcDbLine
 62
7
  6
CONTINUOUS
 10
15.7156706001
 20
1.7943069455
 11
15.7156706001
 21
-16.1905237151
  0
LINE
  5
382
100
AcDbEntity
  8
DRAFT
100
AcDbLine
 62
7
  6
CONTINUOUS
 10
15.9026809505
 20
-19.7216644014
 11
15.9026809505
 21
-18.1930494314
  0
LINE
  5
383
100
AcDbEntity
  8
DRAFT
100
AcDbLine
 62
7
  6
CONTINUOUS
 10
-12.9574856586
 20
-24.3225961415
 11
-12.2436123821
 21
-23.9538073455
  0
LINE
  5
384
100
AcDbEntity
  8
RACCORDO
100
AcDbLine
 62
250
  6
CONTINUOUS
 10
-19.6740692819
 20
-26.8585018672
 11
-19.8443812434
 21
-26.9461893922
  0
LINE
  5
385
100
AcDbEntity
  8
RACCORDO
100
AcDbLine
 62
250
  6
CONTINUOUS
 10
-20.7238792777
 20
-27.3990106149
 11
-22.9729524625
 21
-28.5569714339
  0
LINE
  5
386
100
AcDbEntity
  8
DRAFT
100
AcDbLine
 62
7
  6
CONTINUOUS
 10
15.7156706001
 20
-7.7306328307
 11
15.9320653568
 21
-7.6221821314
  0
LINE
  5
387
100
AcDbEntity
  8
DRAFT
100
AcDbLine
 62
7
  6
CONTINUOUS
 10
29.4554588793
 20
-3.1764884315
 11
26.6115502603
 21
-4.5594158935
  0
LINE
  5
388
100
AcDbEntity
  8
RACCORDO
100
AcDbLine
 62
250
  6
CONTINUOUS
 10
4.2376965956
 20
14.5363877297
 11
5.8082923136
 21
13.7510898707
  0
LINE
  5
389
100
AcDbEntity
  8
RACCORDO
100
AcDbLine
 62
7
  6
CONTINUOUS
 10
4.3464036841
 20
14.6049696696
 11
5.9299922902
 21
13.8131753665
  0
LINE
  5
38A
100
AcDbEntity
  8
0
100
AcDbLine
 62
250
  6
CONTINUOUS
 10
5.0379198298
 20
14.7521860723
 11
4.7937807707
 21
14.8742556018
  0
LINE
  5
38B
100
AcDbEntity
  8
RACCORDO
100
AcDbLine
 62
7
  6
CONTINUOUS
 10
16.2809176507
 20
35.4122413806
 11
16.2809176507
 21
41.339880196
  0
LINE
  5
38C
100
AcDbEntity
  8
DRAFT
100
AcDbLine
 62
7
  6
CONTINUOUS
 10
17.3292361677
 20
-19.0056130692
 11
17.3292361677
 21
-17.4769980992
  0
LINE
  5
38D
100
AcDbEntity
  8
RACCORDO
100
AcDbLine
 62
7
  6
CONTINUOUS
 10
17.3323215814
 20
34.8865394152
 11
17.3323215814
 21
35.6444777202
  0
LINE
  5
38E
100
AcDbEntity
  8
DRAFT
100
AcDbLine
 62
7
  6
CONTINUOUS
 10
17.3539194772
 20
-17.4893397539
 11
17.3539194772
 21
9.4375675489
  0
LINE
  5
38F
100
AcDbEntity
  8
RACCORDO
100
AcDbLine
 62
7
  6
CONTINUOUS
 10
17.685874972
 20
37.6214115128
 11
17.685874972
 21
38.5101429598
  0
LINE
  5
390
100
AcDbEntity
  8
DRAFT
100
AcDbLine
 62
7
  6
CONTINUOUS
 10
18.3898963394
 20
9.9519523031
 11
18.3898963394
 21
-18.007328185
  0
LINE
  5
391
100
AcDbEntity
  8
DRAFT
100
AcDbLine
 62
7
  6
CONTINUOUS
 10
18.7557913848
 20
-20.0518433013
 11
18.7557913848
 21
-19.7188906777
  0
LINE
  5
392
100
AcDbEntity
  8
RACCORDO
100
AcDbLine
 62
7
  6
CONTINUOUS
 10
18.7557913848
 20
38.1584500119
 11
18.7557913848
 21
38.4081809674
  0
LINE
  5
393
100
AcDbEntity
  8
DRAFT
100
AcDbLine
 62
7
  6
CONTINUOUS
 10
18.856074472
 20
-22.1212526815
 11
18.856074472
 21
-20.389201874
  0
LINE
  5
394
100
AcDbEntity
  8
DRAFT
100
AcDbLine
 62
7
  6
CONTINUOUS
 10
18.856074472
 20
28.5412334399
 11
18.856074472
 21
30.2732842474
  0
LINE
  5
395
100
AcDbEntity
  8
DRAFT
100
AcDbLine
 62
7
  6
CONTINUOUS
 10
19.3214768098
 20
27.5990321692
 11
19.3214768098
 21
28.1627365981
  0
LINE
  5
396
100
AcDbEntity
  8
DRAFT
100
AcDbLine
 62
7
  6
CONTINUOUS
 10
19.8164515566
 20
10.6602675962
 11
19.8164515566
 21
-17.2912768528
  0
LINE
  5
397
100
AcDbEntity
  8
DRAFT
100
AcDbLine
 62
7
  6
CONTINUOUS
 10
15.9320653568
 20
-7.6221821314
 11
16.0646391555
 21
-6.9537724728
  0
LWPOLYLINE
  5
398
100
AcDbEntity
  8
RACCORDO
100
AcDbPolyline
 62
7
  6
CONTINUOUS
 90
6
 70
0
 10
-19.2858497289
 20
-30.4872220195
 10
-19.3353164047
 20
-30.5148021023
 10
-19.4066476778
 20
-30.5604412247
 10
-19.4768636542
 20
-30.6132420852
 10
-19.5456505187
 20
-30.674153402
 10
-19.6122773001
 20
-30.7440669241
  0
LWPOLYLINE
  5
399
100
AcDbEntity
  8
RACCORDO
100
AcDbPolyline
 62
7
  6
CONTINUOUS
 90
7
 70
0
 10
-8.3860822294
 20
-27.1184511199
 10
-8.4092112601
 20
-27.1311281836
 10
-8.488072326
 20
-27.1810698963
 10
-8.5613566176
 20
-27.2383109516
 10
-8.6284419946
 20
-27.3022181559
 10
-8.6890514054
 20
-27.3724029588
 10
-8.6979506576
 20
-27.3839615291
  0
LINE
  5
39A
100
AcDbEntity
  8
RACCORDO
100
AcDbLine
 62
7
  6
CONTINUOUS
 10
-11.5654616671
 20
-26.4220772483
 11
-19.2857552743
 21
-30.4871726733
  0
LINE
  5
39B
100
AcDbEntity
  8
RACCORDO
100
AcDbLine
 62
250
  6
CONTINUOUS
 10
-11.9148441767
 20
-26.7761067875
 11
-11.2110962632
 21
-26.4056478404
  0
LINE
  5
39C
100
AcDbEntity
  8
0
100
AcDbLine
 62
7
  6
CONTINUOUS
 10
22.6695619909
 20
-10.1449546216
 11
25.4733058061
 21
-8.6881686476
  0
LINE
  5
39D
100
AcDbEntity
  8
RACCORDO
100
AcDbLine
 62
250
  6
CONTINUOUS
 10
-14.8067099498
 20
-26.9316269522
 11
-22.0571643908
 21
-30.4840985198
  0
LINE
  5
39E
100
AcDbEntity
  8
RACCORDO
100
AcDbLine
 62
7
  6
CONTINUOUS
 10
-15.0693067534
 20
-27.473832168
 11
-22.8332880923
 21
-31.2779141303
  0
LINE
  5
39F
100
AcDbEntity
  8
0
100
AcDbLine
 62
250
  6
CONTINUOUS
 10
4.7281057364
 20
15.716737521
 11
1.8233870541
 21
17.1690968621
  0
LINE
  5
3A0
100
AcDbEntity
  8
0
100
AcDbLine
 62
7
  6
CONTINUOUS
 10
5.7082173825
 20
15.4020334842
 11
7.3409474776
 21
14.5856684366
  0
LINE
  5
3A1
100
AcDbEntity
  8
0
100
AcDbLine
 62
7
  6
CONTINUOUS
 10
2.2545248823
 20
17.385195697
 11
5.4071654696
 21
15.8088754034
  0
LINE
  5
3A2
100
AcDbEntity
  8
RACCORDO
100
AcDbLine
 62
7
  6
CONTINUOUS
 10
8.4356281369
 20
15.0914306962
 11
3.1139333496
 21
17.7522780898
  0
LINE
  5
3A3
100
AcDbEntity
  8
0
100
AcDbLine
 62
7
  6
CONTINUOUS
 10
22.6695619909
 20
8.9680657753
 11
27.9234962307
 21
6.3410986554
  0
LINE
  5
3A4
100
AcDbEntity
  8
0
100
AcDbLine
 62
7
  6
CONTINUOUS
 10
27.9234962307
 20
7.5796752475
 11
22.6695619909
 21
10.2066423673
  0
LINE
  5
3A5
100
AcDbEntity
  8
RACCORDO
100
AcDbLine
 62
7
  6
CONTINUOUS
 10
20.8987096243
 20
36.5825623873
 11
20.8987096243
 21
33.1033453938
  0
LINE
  5
3A6
100
AcDbEntity
  8
DRAFT
100
AcDbLine
 62
7
  6
CONTINUOUS
 10
20.9001254127
 20
28.3859352604
 11
20.9001254127
 21
30.2031102374
  0
LINE
  5
3A7
100
AcDbEntity
  8
RACCORDO
100
AcDbLine
 62
7
  6
CONTINUOUS
 10
21.3013757971
 20
29.207526802
 11
21.3013757971
 21
27.6348877697
  0
LINE
  5
3A8
100
AcDbEntity
  8
RACCORDO
100
AcDbLine
 62
7
  6
CONTINUOUS
 10
21.3137174519
 20
-19.4692387413
 11
21.3137174519
 21
-19.2960171727
  0
LINE
  5
3A9
100
AcDbEntity
  8
DRAFT
100
AcDbLine
 62
7
  6
CONTINUOUS
 10
22.1381793625
 20
-20.9778277336
 11
22.1381793625
 21
-21.4100846666
  0
LINE
  5
3AA
100
AcDbEntity
  8
0
100
AcDbLine
 62
7
  6
CONTINUOUS
 10
22.6695619909
 20
10.2066423673
 11
22.6695619909
 21
8.9680657753
  0
LINE
  5
3AB
100
AcDbEntity
  8
0
100
AcDbLine
 62
7
  6
CONTINUOUS
 10
22.6695619909
 20
-10.1449546216
 11
22.6695619909
 21
-11.3835312137
  0
LINE
  5
3AC
100
AcDbEntity
  8
RACCORDO
100
AcDbLine
 62
250
  6
CONTINUOUS
 10
22.9194699463
 20
-29.440895722
 11
22.9194699463
 21
-28.0378735975
  0
LINE
  5
3AD
100
AcDbEntity
  8
RACCORDO
100
AcDbLine
 62
250
  6
CONTINUOUS
 10
22.9194699463
 20
21.1414938307
 11
22.9194699463
 21
22.5605241358
  0
LINE
  5
3AE
100
AcDbEntity
  8
DRAFT
100
AcDbLine
 62
7
  6
CONTINUOUS
 10
23.3402608905
 20
27.5680731672
 11
23.3402608905
 21
26.615445223
  0
LINE
  5
3AF
100
AcDbEntity
  8
DRAFT
100
AcDbLine
 62
7
  6
CONTINUOUS
 10
23.5635004142
 20
-21.6904882594
 11
23.5635004142
 21
-22.7429148451
  0
LINE
  5
3B0
100
AcDbEntity
  8
RACCORDO
100
AcDbLine
 62
7
  6
CONTINUOUS
 10
23.7055388531
 20
31.6999307793
 11
23.7055388531
 21
34.3131553447
  0
LINE
  5
3B1
100
AcDbEntity
  8
RACCORDO
100
AcDbLine
 62
250
  6
CONTINUOUS
 10
15.5722958246
 20
-16.4182774515
 11
13.6325179054
 21
-17.8241215501
  0
LINE
  5
3B2
100
AcDbEntity
  8
RACCORDO
100
AcDbLine
 62
7
  6
CONTINUOUS
 10
15.6117791734
 20
-16.3941256729
 11
13.6731199063
 21
-17.7991590341
  0
LINE
  5
3B3
100
AcDbEntity
  8
RACCORDO
100
AcDbLine
 62
7
  6
CONTINUOUS
 10
15.6117720484
 20
-16.3939437462
 11
15.5722958246
 21
-16.4182774515
  0
LINE
  5
3B4
100
AcDbEntity
  8
RACCORDO
100
AcDbLine
 62
7
  6
CONTINUOUS
 10
-2.3000748946
 20
-23.8849120004
 11
-8.3867085291
 21
-27.1187710133
  0
LINE
  5
3B5
100
AcDbEntity
  8
RACCORDO
100
AcDbLine
 62
7
  6
CONTINUOUS
 10
-11.7179053337
 20
-29.962521503
 11
-11.7135285106
 21
-29.9602123768
  0
LINE
  5
3B6
100
AcDbEntity
  8
DRAFT
100
AcDbLine
 62
7
  6
CONTINUOUS
 10
14.396412651
 20
-17.4399152816
 11
15.7982845586
 21
-16.7115222946
  0
LINE
  5
3B7
100
AcDbEntity
  8
RACCORDO
100
AcDbLine
 62
7
  6
CONTINUOUS
 10
13.6325179054
 20
-17.8241215501
 11
12.1019475526
 21
-18.6125418766
  0
LINE
  5
3B8
100
AcDbEntity
  8
RACCORDO
100
AcDbLine
 62
7
  6
CONTINUOUS
 10
15.5722958246
 20
-16.4182774515
 11
12.1019475526
 21
-18.199502637
  0
LINE
  5
3B9
100
AcDbEntity
  8
0
100
AcDbLine
 62
7
  6
CONTINUOUS
 10
28.6552863214
 20
-10.2791589053
 11
27.2287311043
 21
-10.9952102375
  0
LINE
  5
3BA
100
AcDbEntity
  8
DRAFT
100
AcDbLine
 62
7
  6
CONTINUOUS
 10
15.9026809505
 20
-18.1930494314
 11
17.3292361677
 21
-17.4769980992
  0
LINE
  5
3BB
100
AcDbEntity
  8
DRAFT
100
AcDbLine
 62
7
  6
CONTINUOUS
 10
14.396412651
 20
-18.1280799052
 11
13.2280168368
 21
-18.7021695897
  0
LINE
  5
3BC
100
AcDbEntity
  8
0
100
AcDbLine
 62
7
  6
CONTINUOUS
 10
27.2287311043
 20
9.3563867514
 11
26.1927542421
 21
9.8743751825
  0
LINE
  5
3BD
100
AcDbEntity
  8
0
100
AcDbLine
 62
7
  6
CONTINUOUS
 10
30.776606665
 20
9.0117779118
 11
28.6552863214
 21
10.0724380836
  0
LINE
  5
3BE
100
AcDbEntity
  8
0
100
AcDbLine
 62
7
  6
CONTINUOUS
 10
26.1927542421
 20
11.3037041233
 11
25.4733058061
 21
11.6634283413
  0
LINE
  5
3BF
100
AcDbEntity
  8
RACCORDO
100
AcDbLine
 62
7
  6
CONTINUOUS
 10
25.3176915469
 20
32.2107499225
 11
25.3176915469
 21
35.1160419094
  0
LINE
  5
3C0
100
AcDbEntity
  8
RACCORDO
100
AcDbLine
 62
7
  6
CONTINUOUS
 10
25.7960050597
 20
32.5568186366
 11
25.7960050597
 21
36.7656677013
  0
LINE
  5
3C1
100
AcDbEntity
  8
DRAFT
100
AcDbLine
 62
7
  6
CONTINUOUS
 10
26.1921371593
 20
25.1895070886
 11
26.1921371593
 21
26.1421350327
  0
LINE
  5
3C2
100
AcDbEntity
  8
0
100
AcDbLine
 62
7
  6
CONTINUOUS
 10
26.1927542421
 20
-21.3025393537
 11
26.1927542421
 21
-13.1451273392
  0
LINE
  5
3C3
100
AcDbEntity
  8
0
100
AcDbLine
 62
7
  6
CONTINUOUS
 10
26.1927542421
 20
-10.4772218064
 11
26.1927542421
 21
-4.6713499465
  0
LINE
  5
3C4
100
AcDbEntity
  8
0
100
AcDbLine
 62
7
  6
CONTINUOUS
 10
26.1927542421
 20
1.5680137918
 11
26.1927542421
 21
7.2064696497
  0
LINE
  5
3C5
100
AcDbEntity
  8
0
100
AcDbLine
 62
7
  6
CONTINUOUS
 10
26.1927542421
 20
9.8743751825
 11
26.1927542421
 21
13.826238777
  0
LINE
  5
3C6
100
AcDbEntity
  8
0
100
AcDbLine
 62
7
  6
CONTINUOUS
 10
27.2287311043
 20
14.3406235312
 11
27.2287311043
 21
9.3563867514
  0
LINE
  5
3C7
100
AcDbEntity
  8
0
100
AcDbLine
 62
7
  6
CONTINUOUS
 10
27.2287311043
 20
6.6884812186
 11
27.2287311043
 21
1.0500253607
  0
LINE
  5
3C8
100
AcDbEntity
  8
0
100
AcDbLine
 62
7
  6
CONTINUOUS
 10
27.2287311043
 20
-4.2592950202
 11
27.2287311043
 21
-10.9952102375
  0
LINE
  5
3C9
100
AcDbEntity
  8
0
100
AcDbLine
 62
7
  6
CONTINUOUS
 10
27.2287311043
 20
-13.6631157703
 11
27.2287311043
 21
-21.8205277848
  0
LINE
  5
3CA
100
AcDbEntity
  8
DRAFT
100
AcDbLine
 62
7
  6
CONTINUOUS
 10
27.3942186873
 20
-27.6615847426
 11
27.3942186873
 21
-23.605847396
  0
LINE
  5
3CB
100
AcDbEntity
  8
DRAFT
100
AcDbLine
 62
7
  6
CONTINUOUS
 10
27.3942186873
 20
21.9505165878
 11
27.3942186873
 21
24.5884663246
  0
LINE
  5
3CC
100
AcDbEntity
  8
RACCORDO
100
AcDbLine
 62
250
  6
CONTINUOUS
 10
-2.9429445993
 20
-28.9920819609
 11
-2.3190318293
 21
-28.6554667079
  0
LINE
  5
3CD
100
AcDbEntity
  8
RACCORDO
100
AcDbLine
 62
250
  6
CONTINUOUS
 10
-2.3713330589
 20
-28.9535484454
 11
-2.3679417657
 21
-28.9517327107
  0
LINE
  5
3CE
100
AcDbEntity
  8
RACCORDO
100
AcDbLine
 62
7
  6
CONTINUOUS
 10
22.8429315228
 20
-18.2985191284
 11
21.4410596152
 21
-19.0269121154
  0
LINE
  5
3CF
100
AcDbEntity
  8
RACCORDO
100
AcDbLine
 62
250
  6
CONTINUOUS
 10
23.0691292878
 20
-18.3113979358
 11
21.6672573802
 21
-19.0397909228
  0
LINE
  5
3D0
100
AcDbEntity
  8
0
100
AcDbLine
 62
7
  6
CONTINUOUS
 10
27.9234962307
 20
-12.7719217415
 11
30.776606665
 21
-11.3398190771
  0
LINE
  5
3D1
100
AcDbEntity
  8
DRAFT
100
AcDbLine
 62
7
  6
CONTINUOUS
 10
18.3898963394
 20
-18.007328185
 11
19.8164515566
 21
-17.2912768528
  0
LINE
  5
3D2
100
AcDbEntity
  8
RACCORDO
100
AcDbLine
 62
7
  6
CONTINUOUS
 10
30.4230532744
 20
-15.5803172408
 11
29.3549785625
 21
-16.1156049305
  0
LINE
  5
3D3
100
AcDbEntity
  8
DRAFT
100
AcDbLine
 62
7
  6
CONTINUOUS
 10
30.4230532744
 20
-15.5803172408
 11
31.1348611523
 21
-15.2235800292
  0
LINE
  5
3D4
100
AcDbEntity
  8
RACCORDO
100
AcDbLine
 62
7
  6
CONTINUOUS
 10
13.232107044
 20
-23.1941921464
 11
18.856074472
 21
-20.389201874
  0
LINE
  5
3D5
100
AcDbEntity
  8
DRAFT
100
AcDbLine
 62
7
  6
CONTINUOUS
 10
18.7557913848
 20
-20.0518433013
 11
17.3292361677
 21
-20.7527792551
  0
LINE
  5
3D6
100
AcDbEntity
  8
0
100
AcDbLine
 62
7
  6
CONTINUOUS
 10
27.9234962307
 20
-14.0104983335
 11
30.776606665
 21
-12.6388571828
  0
LINE
  5
3D7
100
AcDbEntity
  8
0
100
AcDbLine
 62
7
  6
CONTINUOUS
 10
27.9234962307
 20
-14.0104983335
 11
27.9234962307
 21
-12.7719217415
  0
LINE
  5
3D8
100
AcDbEntity
  8
0
100
AcDbLine
 62
7
  6
CONTINUOUS
 10
27.9234962307
 20
6.3410986554
 11
27.9234962307
 21
7.5796752475
  0
LINE
  5
3D9
100
AcDbEntity
  8
RACCORDO
100
AcDbLine
 62
7
  6
CONTINUOUS
 10
28.4700520907
 20
30.8303321633
 11
28.4700520907
 21
29.3176741605
  0
LINE
  5
3DA
100
AcDbEntity
  8
RACCORDO
100
AcDbLine
 62
7
  6
CONTINUOUS
 10
28.6429446667
 20
26.4028007478
 11
28.6429446667
 21
22.5729643772
  0
LINE
  5
3DB
100
AcDbEntity
  8
RACCORDO
100
AcDbLine
 62
7
  6
CONTINUOUS
 10
28.6429446667
 20
-28.0578571172
 11
28.6429446667
 21
-23.3936269942
  0
LINE
  5
3DC
100
AcDbEntity
  8
0
100
AcDbLine
 62
7
  6
CONTINUOUS
 10
28.6552863214
 20
15.0489388243
 11
28.6552863214
 21
10.0724380836
  0
LINE
  5
3DD
100
AcDbEntity
  8
0
100
AcDbLine
 62
7
  6
CONTINUOUS
 10
28.6552863214
 20
6.6929088728
 11
28.6552863214
 21
1.762697011
  0
LINE
  5
3DE
100
AcDbEntity
  8
0
100
AcDbLine
 62
7
  6
CONTINUOUS
 10
28.6552863214
 20
-3.5655939735
 11
28.6552863214
 21
-10.2791589053
  0
LINE
  5
3DF
100
AcDbEntity
  8
0
100
AcDbLine
 62
7
  6
CONTINUOUS
 10
28.6552863214
 20
-13.6586881161
 11
28.6552863214
 21
-21.1044764526
  0
LINE
  5
3E0
100
AcDbEntity
  8
RACCORDO
100
AcDbLine
 62
250
  6
CONTINUOUS
 10
28.8383505652
 20
31.5543412172
 11
28.8383505652
 21
31.0216948866
  0
LINE
  5
3E1
100
AcDbEntity
  8
RACCORDO
100
AcDbLine
 62
7
  6
CONTINUOUS
 10
29.0014348395
 20
-16.723542033
 11
29.0014348395
 21
-13.4922762079
  0
LINE
  5
3E2
100
AcDbEntity
  8
RACCORDO
100
AcDbLine
 62
7
  6
CONTINUOUS
 10
29.1824500262
 20
31.750403707
 11
29.1824500262
 21
31.4485742142
  0
LINE
  5
3E3
100
AcDbEntity
  8
RACCORDO
100
AcDbLine
 62
7
  6
CONTINUOUS
 10
30.0694998838
 20
27.11885208
 11
30.0694998838
 21
23.2840540447
  0
LINE
  5
3E4
100
AcDbEntity
  8
RACCORDO
100
AcDbLine
 62
7
  6
CONTINUOUS
 10
30.0694998838
 20
-22.677575662
 11
30.0694998838
 21
-27.3628358181
  0
LINE
  5
3E5
100
AcDbEntity
  8
DRAFT
100
AcDbLine
 62
7
  6
CONTINUOUS
 10
30.4230532744
 20
-15.5803172408
 11
30.4230532744
 21
-14.1329795322
  0
LINE
  5
3E6
100
AcDbEntity
  8
0
100
AcDbLine
 62
7
  6
CONTINUOUS
 10
30.776606665
 20
-12.6388571828
 11
30.776606665
 21
-11.3398190771
  0
LINE
  5
3E7
100
AcDbEntity
  8
0
100
AcDbLine
 62
7
  6
CONTINUOUS
 10
30.776606665
 20
7.7127398062
 11
30.776606665
 21
9.0117779118
  0
LINE
  5
3E8
100
AcDbEntity
  8
RACCORDO
100
AcDbLine
 62
7
  6
CONTINUOUS
 10
35.8554338348
 20
-14.9063236122
 11
36.0554352
 21
-14.8052702033
  0
LINE
  5
3E9
100
AcDbEntity
  8
RACCORDO
100
AcDbLine
 62
7
  6
CONTINUOUS
 10
18.856074472
 20
-22.1212526815
 11
13.615112002
 21
-24.7498661803
  0
LINE
  5
3EA
100
AcDbEntity
  8
RACCORDO
100
AcDbLine
 62
7
  6
CONTINUOUS
 10
21.7667781349
 20
-21.8445537055
 11
16.076989198
 21
-24.6166332233
  0
LINE
  5
3EB
100
AcDbEntity
  8
RACCORDO
100
AcDbLine
 62
7
  6
CONTINUOUS
 10
24.7420360322
 20
-22.2797560685
 11
23.6759664441
 21
-22.7991478601
  0
LINE
  5
3EC
100
AcDbEntity
  8
DRAFT
100
AcDbLine
 62
7
  6
CONTINUOUS
 10
22.5789192547
 20
-21.1981976797
 11
22.1381793625
 21
-21.4100846666
  0
LINE
  5
3ED
100
AcDbEntity
  8
DRAFT
100
AcDbLine
 62
7
  6
CONTINUOUS
 10
14.3387042316
 20
25.9641281688
 11
14.0820940316
 21
26.0924332689
  0
LINE
  5
3EE
100
AcDbEntity
  8
DRAFT
100
AcDbLine
 62
7
  6
CONTINUOUS
 10
35.8554338348
 20
16.2206080725
 11
36.7685018229
 21
15.7640740785
  0
LINE
  5
3EF
100
AcDbEntity
  8
DRAFT
100
AcDbLine
 62
7
  6
CONTINUOUS
 10
6.2548932316
 20
31.1023917059
 11
6.8881220329
 21
30.7857773052
  0
LINE
  5
3F0
100
AcDbEntity
  8
DRAFT
100
AcDbLine
 62
7
  6
CONTINUOUS
 10
24.8518015768
 20
21.8039375333
 11
25.9742532433
 21
21.2427117
  0
LINE
  5
3F1
100
AcDbEntity
  8
DRAFT
100
AcDbLine
 62
7
  6
CONTINUOUS
 10
6.8881220329
 20
31.2180342382
 11
7.810265812
 21
30.7569623487
  0
LINE
  5
3F2
100
AcDbEntity
  8
RACCORDO
100
AcDbLine
 62
7
  6
CONTINUOUS
 10
33.2588852717
 20
-15.3454319271
 11
33.2588852717
 21
-18.8522672492
  0
LINE
  5
3F3
100
AcDbEntity
  8
RACCORDO
100
AcDbLine
 62
7
  6
CONTINUOUS
 10
34.4535619272
 20
-31.3648631632
 11
34.4535619272
 21
24.0608286302
  0
LINE
  5
3F4
100
AcDbEntity
  8
DRAFT
100
AcDbLine
 62
7
  6
CONTINUOUS
 10
31.1348611523
 20
-15.2235800292
 11
31.2674349511
 21
-14.5551703705
  0
LINE
  5
3F5
100
AcDbEntity
  8
DRAFT
100
AcDbLine
 62
7
  6
CONTINUOUS
 10
27.2287311043
 20
-21.8205277848
 11
28.6552863214
 21
-21.1044764526
  0
LINE
  5
3F6
100
AcDbEntity
  8
RACCORDO
100
AcDbLine
 62
250
  6
CONTINUOUS
 10
29.3624200271
 20
-21.4580433054
 11
27.9358648099
 21
-22.1740946376
  0
LINE
  5
3F7
100
AcDbEntity
  8
RACCORDO
100
AcDbLine
 62
250
  6
CONTINUOUS
 10
30.0694998838
 20
-22.677575662
 11
28.6429446667
 21
-23.3936269942
  0
LINE
  5
3F8
100
AcDbEntity
  8
RACCORDO
100
AcDbLine
 62
7
  6
CONTINUOUS
 10
27.3942186873
 20
-25.8060636073
 11
22.9194699463
 21
-28.0378735975
  0
LINE
  5
3F9
100
AcDbEntity
  8
RACCORDO
100
AcDbLine
 62
7
  6
CONTINUOUS
 10
12.1019475526
 20
-33.5124106317
 11
13.5084744838
 21
-32.8108961919
  0
LINE
  5
3FA
100
AcDbEntity
  8
DRAFT
100
AcDbLine
 62
7
  6
CONTINUOUS
 10
7.595399842
 20
31.7900008944
 11
7.7959469542
 21
31.6897273383
  0
LINE
  5
3FB
100
AcDbEntity
  8
DRAFT
100
AcDbLine
 62
7
  6
CONTINUOUS
 10
26.1923081872
 20
22.4915467218
 11
27.3342015215
 21
21.9206000547
  0
LINE
  5
3FC
100
AcDbEntity
  8
DRAFT
100
AcDbLine
 62
7
  6
CONTINUOUS
 10
8.291228106
 20
31.9458101424
 11
9.2417903154
 21
31.4705290377
  0
LINE
  5
3FD
100
AcDbEntity
  8
DRAFT
100
AcDbLine
 62
7
  6
CONTINUOUS
 10
17.3160049128
 20
27.7512589842
 11
17.8949215926
 21
27.4618006443
  0
LINE
  5
3FE
100
AcDbEntity
  8
DRAFT
100
AcDbLine
 62
7
  6
CONTINUOUS
 10
10.9546031075
 20
32.3310580708
 11
9.7876747055
 21
32.9145222719
  0
LINE
  5
3FF
100
AcDbEntity
  8
DRAFT
100
AcDbLine
 62
7
  6
CONTINUOUS
 10
18.7121423256
 20
28.4674038402
 11
19.3214768098
 21
28.1627365981
  0
LINE
  5
400
100
AcDbEntity
  8
DRAFT
100
AcDbLine
 62
7
  6
CONTINUOUS
 10
5.6860405049
 20
35.4425554158
 11
7.7249255983
 21
34.4231128691
  0
LINE
  5
401
100
AcDbEntity
  8
DRAFT
100
AcDbLine
 62
7
  6
CONTINUOUS
 10
27.3942186873
 20
24.5884663246
 11
26.1921371593
 21
25.1895070886
  0
LINE
  5
402
100
AcDbEntity
  8
DRAFT
100
AcDbLine
 62
7
  6
CONTINUOUS
 10
21.3013757971
 20
27.6348877697
 11
23.3402608905
 21
26.615445223
  0
LINE
  5
403
100
AcDbEntity
  8
DRAFT
100
AcDbLine
 62
7
  6
CONTINUOUS
 10
1.7519492767
 20
37.4096010299
 11
1.6320827081
 21
37.4695343142
  0
LINE
  5
404
100
AcDbEntity
  8
DRAFT
100
AcDbLine
 62
7
  6
CONTINUOUS
 10
10.9546031075
 20
33.7603870116
 11
10.9069061137
 21
33.7842355085
  0
LINE
  5
405
100
AcDbEntity
  8
DRAFT
100
AcDbLine
 62
7
  6
CONTINUOUS
 10
26.1921371593
 20
26.1421350327
 11
23.3402608905
 21
27.5680731672
  0
LINE
  5
406
100
AcDbEntity
  8
DRAFT
100
AcDbLine
 62
7
  6
CONTINUOUS
 10
5.6860405049
 20
36.39518336
 11
2.8341642361
 21
37.8211214944
  0
LINE
  5
407
100
AcDbEntity
  8
RACCORDO
100
AcDbLine
 62
7
  6
CONTINUOUS
 10
35.8554338348
 20
24.7589908603
 11
35.8554338348
 21
-30.6364701763
  0
LINE
  5
408
100
AcDbEntity
  8
RACCORDO
100
AcDbLine
 62
7
  6
CONTINUOUS
 10
36.7685018229
 20
15.7640740785
 11
36.7685018229
 21
15.3651204433
  0
LINE
  5
409
100
AcDbEntity
  8
DRAFT
100
AcDbLine
 62
7
  6
CONTINUOUS
 10
37.8339600087
 20
-17.1450728336
 11
35.8554338348
 21
-18.5742728177
  0
LINE
  5
40A
100
AcDbEntity
  8
ASSI
100
AcDbLine
 62
7
  6
CONTINUOUS
 10
31.5626625159
 20
-24.9226330559
 11
30.8461227661
 21
-25.2921366715
  0
LINE
  5
40B
100
AcDbEntity
  8
RACCORDO
100
AcDbLine
 62
7
  6
CONTINUOUS
 10
27.3460261009
 20
-27.5654977609
 11
23.3024749042
 21
-29.5935476314
  0
LINE
  5
40C
100
AcDbEntity
  8
RACCORDO
100
AcDbLine
 62
250
  6
CONTINUOUS
 10
-1.2226795476
 20
-40.5437898552
 11
-1.2228533325
 21
-40.5438755145
  0
LINE
  5
40D
100
AcDbEntity
  8
RACCORDO
100
AcDbLine
 62
250
  6
CONTINUOUS
 10
5.7132951378
 20
-36.923006466
 11
-1.0913614372
 21
-40.2726745888
  0
LINE
  5
40E
100
AcDbEntity
  8
RACCORDO
100
AcDbLine
 62
7
  6
CONTINUOUS
 10
5.1713529955
 20
-37.3962561054
 11
-1.2228533325
 21
-40.5438755145
  0
LINE
  5
40F
100
AcDbEntity
  8
SMUSSO
100
AcDbLine
 62
7
  6
CONTINUOUS
 10
30.7388003167
 20
-27.0367509594
 11
25.7643521002
 21
-29.4603146744
  0
LINE
  5
410
100
AcDbEntity
  8
ASSI
100
AcDbLine
 62
7
  6
CONTINUOUS
 10
32.4570636546
 20
-26.7114353333
 11
31.7315369122
 21
-27.0629649638
  0
LINE
  5
411
100
AcDbEntity
  8
RACCORDO
100
AcDbLine
 62
7
  6
CONTINUOUS
 10
33.7464594539
 20
22.8280917564
 11
33.3846468306
 21
23.0089980681
  0
LINE
  5
412
100
AcDbEntity
  8
RACCORDO
100
AcDbLine
 62
7
  6
CONTINUOUS
 10
31.5726038358
 20
23.9150195655
 11
31.4541410372
 21
23.9742509648
  0
LINE
  5
413
100
AcDbEntity
  8
DRAFT
100
AcDbLine
 62
7
  6
CONTINUOUS
 10
18.856074472
 20
30.2732842474
 11
16.0605306915
 21
31.6710561376
  0
LINE
  5
414
100
AcDbEntity
  8
DRAFT
100
AcDbLine
 62
7
  6
CONTINUOUS
 10
14.2484876967
 20
32.5770776351
 11
12.857232692
 21
33.2727051374
  0
LINE
  5
415
100
AcDbEntity
  8
DRAFT
100
AcDbLine
 62
7
  6
CONTINUOUS
 10
9.946529029
 20
34.7280569689
 11
9.1030694987
 21
35.149786734
  0
LINE
  5
416
100
AcDbEntity
  8
RACCORDO
100
AcDbLine
 62
7
  6
CONTINUOUS
 10
0.2591661267
 20
39.57173842
 11
-1.2635854476
 21
40.3331142072
  0
LINE
  5
417
100
AcDbEntity
  8
DRAFT
100
AcDbLine
 62
7
  6
CONTINUOUS
 10
9.4803508965
 20
35.9129974955
 11
10.9546031075
 21
35.17587139
  0
LINE
  5
418
100
AcDbEntity
  8
DRAFT
100
AcDbLine
 62
7
  6
CONTINUOUS
 10
20.9001254127
 20
30.2031102374
 11
21.6840537897
 21
29.8111460488
  0
LINE
  5
419
100
AcDbEntity
  8
RACCORDO
100
AcDbLine
 62
7
  6
CONTINUOUS
 10
28.6429446667
 20
26.4028007478
 11
22.0084825783
 21
29.720031792
  0
LINE
  5
41A
100
AcDbEntity
  8
RACCORDO
100
AcDbLine
 62
7
  6
CONTINUOUS
 10
7.0178188171
 20
37.2153636726
 11
0.3833567288
 21
40.5325947168
  0
LINE
  5
41B
100
AcDbEntity
  8
RACCORDO
100
AcDbLine
 62
7
  6
CONTINUOUS
 10
33.7464820704
 20
25.2803609867
 11
-1.8917535503
 21
43.0994787971
  0
LINE
  5
41C
100
AcDbEntity
  8
RACCORDO
100
AcDbLine
 62
7
  6
CONTINUOUS
 10
35.148353978
 20
25.9785232169
 11
26.1674538498
 21
30.468973281
  0
LINE
  5
41D
100
AcDbEntity
  8
DRAFT
100
AcDbLine
 62
7
  6
CONTINUOUS
 10
23.8469602094
 20
31.6292201012
 11
10.8361954355
 21
38.1346024881
  0
LINE
  5
41E
100
AcDbEntity
  8
RACCORDO
100
AcDbLine
 62
7
  6
CONTINUOUS
 10
8.5157017951
 20
39.2948493083
 11
-0.4651983331
 21
43.7852993725
  0
LINE
  5
41F
100
AcDbEntity
  8
DRAFT
100
AcDbLine
 62
7
  6
CONTINUOUS
 10
26.3227823397
 20
30.5463301953
 11
24.0050236291
 21
31.7052095506
  0
LINE
  5
420
100
AcDbEntity
  8
DRAFT
100
AcDbLine
 62
7
  6
CONTINUOUS
 10
10.9776167918
 20
38.2189129692
 11
8.6737652149
 21
39.3708387577
  0
LINE
  5
421
100
AcDbEntity
  8
RACCORDO
100
AcDbLine
 62
250
  6
CONTINUOUS
 10
5.7132951378
 20
-43.2016932815
 11
34.4535662653
 21
-29.053974146
  0
LINE
  5
422
100
AcDbEntity
  8
RACCORDO
100
AcDbLine
 62
7
  6
CONTINUOUS
 10
5.4503113472
 20
-43.7440951329
 11
34.1915849708
 21
-29.5958825075
  0
LINE
  5
423
100
AcDbEntity
  8
SMUSSO
100
AcDbLine
 62
7
  6
CONTINUOUS
 10
33.739876288
 20
-28.5372889451
 11
15.6293886683
 21
-37.4022260408
  0
LINE
  5
424
100
AcDbEntity
  8
ASSI
100
AcDbLine
 62
7
  6
CONTINUOUS
 10
33.6945005217
 20
-31.0540630031
 11
32.9689737793
 21
-31.4055926336
  0
LINE
  5
425
100
AcDbEntity
  8
RACCORDO
100
AcDbLine
 62
7
  6
CONTINUOUS
 10
16.634457579
 20
35.9934097214
 11
17.3415912847
 21
35.6398428685
  0
LINE
  5
426
100
AcDbEntity
  8
RACCORDO
100
AcDbLine
 62
7
  6
CONTINUOUS
 10
20.8987096243
 20
33.8612836988
 11
17.695131213
 21
35.4630729044
  0
LINE
  5
427
100
AcDbEntity
  8
DRAFT
100
AcDbLine
 62
7
  6
CONTINUOUS
 10
25.8930686727
 20
32.6034822512
 11
26.0864207041
 21
32.5068062356
  0
LINE
  5
428
100
AcDbEntity
  8
RACCORDO
100
AcDbLine
 62
7
  6
CONTINUOUS
 10
20.8987096243
 20
35.5819979725
 11
18.0394149003
 21
37.0116453345
  0
LINE
  5
429
100
AcDbEntity
  8
RACCORDO
100
AcDbLine
 62
250
  6
CONTINUOUS
 10
29.0093752689
 20
31.6435103062
 11
26.7622368834
 21
32.7670794989
  0
LINE
  5
42A
100
AcDbEntity
  8
RACCORDO
100
AcDbLine
 62
7
  6
CONTINUOUS
 10
29.1822387176
 20
31.7507542382
 11
27.1511870131
 21
32.7662800905
  0
LINE
  5
42B
100
AcDbEntity
  8
RACCORDO
100
AcDbLine
 62
7
  6
CONTINUOUS
 10
11.6846966485
 20
41.1895688752
 11
13.7844460206
 21
40.1396941891
  0
LINE
  5
42C
100
AcDbEntity
  8
RACCORDO
100
AcDbLine
 62
7
  6
CONTINUOUS
 10
20.8987096243
 20
36.5825623873
 11
22.9984589964
 21
35.5326877012
  0
LINE
  5
42D
100
AcDbEntity
  8
RACCORDO
100
AcDbLine
 62
7
  6
CONTINUOUS
 10
20.9702835302
 20
36.6182077252
 11
19.1093313132
 21
37.5486838336
  0
LINE
  5
42E
100
AcDbEntity
  8
RACCORDO
100
AcDbLine
 62
7
  6
CONTINUOUS
 10
18.0394149003
 20
38.7663692097
 11
21.5934882129
 21
36.9893325534
  0
LINE
  5
42F
100
AcDbEntity
  8
RACCORDO
100
AcDbLine
 62
7
  6
CONTINUOUS
 10
29.1824500245
 20
31.7505256186
 11
29.1822401995
 21
31.7509100465
  0
LINE
  5
430
100
AcDbEntity
  8
RACCORDO
100
AcDbLine
 62
250
  6
CONTINUOUS
 10
34.4535619272
 20
-31.3648631632
 11
35.8554338348
 21
-30.6364701763
  0
LINE
  5
431
100
AcDbEntity
  8
RACCORDO
100
AcDbLine
 62
7
  6
CONTINUOUS
 10
34.1988776005
 20
-31.9030732778
 11
35.6007495081
 21
-31.1746802909
  0
LINE
  5
432
100
AcDbEntity
  8
RACCORDO
100
AcDbLine
 62
7
  6
CONTINUOUS
 10
24.0714500535
 20
36.3952903566
 11
22.9861173416
 21
36.9379567126
  0
LINE
  5
433
100
AcDbEntity
  8
RACCORDO
100
AcDbLine
 62
7
  6
CONTINUOUS
 10
14.525465428
 20
41.1682826694
 11
13.4401327161
 21
41.7109490253
  0
LINE
  5
434
100
AcDbEntity
  8
RACCORDO
100
AcDbLine
 62
7
  6
CONTINUOUS
 10
24.6106116901
 20
36.3355742659
 11
24.4957060449
 21
36.3930270886
  0
LINE
  5
435
100
AcDbEntity
  8
RACCORDO
100
AcDbLine
 62
7
  6
CONTINUOUS
 10
13.4401407935
 20
41.9208097143
 11
13.3252351482
 21
41.9782625369
  0
LINE
  5
436
100
AcDbEntity
  8
DRAFT
100
AcDbLine
 62
7
  6
CONTINUOUS
 10
23.3519854625
 20
37.8043462901
 11
16.2809176507
 21
41.339880196
  0
LINE
  5
437
100
AcDbEntity
  8
RACCORDO
100
AcDbLine
 62
7
  6
CONTINUOUS
 10
25.088925203
 20
37.9852000579
 11
16.6652982538
 21
42.1970135325
  0
ARC
  5
438
100
AcDbEntity
  8
0
100
AcDbCircle
 62
250
  6
CONTINUOUS
 10
-47.7432701156
 20
-88.0555168372
 40
73.2596741536
100
AcDbArc
 50
62.5520717867
 51
63.4776340235
  0
ARC
  5
439
100
AcDbEntity
  8
0
100
AcDbCircle
 62
250
  6
CONTINUOUS
 10
-31.3845504194
 20
-56.5710177667
 40
37.7789561608
100
AcDbArc
 50
62.2545737681
 51
62.5591748604
  0
ARC
  5
43A
100
AcDbEntity
  8
0
100
AcDbCircle
 62
250
  6
CONTINUOUS
 10
-29.1302770309
 20
-52.1447413199
 40
33.8359268409
100
AcDbArc
 50
62.322582837
 51
62.5387602382
  0
ARC
  5
43B
100
AcDbEntity
  8
0
100
AcDbCircle
 62
250
  6
CONTINUOUS
 10
-23.7760341063
 20
-41.9374746512
 40
22.309600023
100
AcDbArc
 50
62.1823292571
 51
62.3235815607
  0
ARC
  5
43C
100
AcDbEntity
  8
RACCORDO
100
AcDbCircle
 62
250
  6
CONTINUOUS
 10
-19.092925326
 20
-31.3503446936
 40
0.8271599228
100
AcDbArc
 50
86.1024401264
 51
92.8908481705
  0
ARC
  5
43D
100
AcDbEntity
  8
RACCORDO
100
AcDbCircle
 62
250
  6
CONTINUOUS
 10
-19.3109975865
 20
-32.9736359869
 40
0.6029921062
100
AcDbArc
 50
179.9780045478
 51
181.7818688796
  0
ARC
  5
43E
100
AcDbEntity
  8
RACCORDO
100
AcDbCircle
 62
250
  6
CONTINUOUS
 10
-19.3458681508
 20
-32.9745979614
 40
0.5681085047
100
AcDbArc
 50
181.7942508979
 51
182.3455703319
  0
ARC
  5
43F
100
AcDbEntity
  8
RACCORDO
100
AcDbCircle
 62
250
  6
CONTINUOUS
 10
-19.4015759174
 20
-32.9755401884
 40
0.5125376096
100
AcDbArc
 50
187.058892913
 51
192.2879322126
  0
ARC
  5
440
100
AcDbEntity
  8
RACCORDO
100
AcDbCircle
 62
250
  6
CONTINUOUS
 10
-17.3229579705
 20
-11.0405486493
 40
35.2595722852
100
AcDbArc
 50
21.1013035824
 51
23.1644535736
  0
ARC
  5
441
100
AcDbEntity
  8
RACCORDO
100
AcDbCircle
 62
7
  6
CONTINUOUS
 10
-16.803019958
 20
-10.7873528401
 40
34.8714317526
100
AcDbArc
 50
21.1836875406
 51
22.9984243239
  0
ARC
  5
442
100
AcDbEntity
  8
RACCORDO
100
AcDbCircle
 62
250
  6
CONTINUOUS
 10
-34.1958370891
 20
-21.8245360047
 40
28.5143430141
100
AcDbArc
 50
25.7841939363
 51
25.9645087896
  0
ARC
  5
443
100
AcDbEntity
  8
RACCORDO
100
AcDbCircle
 62
250
  6
CONTINUOUS
 10
-30.8623350118
 20
-17.2906195401
 40
22.9352293016
100
AcDbArc
 50
58.4780453187
 51
59.1855577224
  0
ARC
  5
444
100
AcDbEntity
  8
DRAFT
100
AcDbCircle
 62
7
  6
CONTINUOUS
 10
-8.5692548606
 20
-13.3393020735
 40
3.9401610293
100
AcDbArc
 50
32.1050751602
 51
35.4894418093
  0
ARC
  5
445
100
AcDbEntity
  8
0
100
AcDbCircle
 62
7
  6
CONTINUOUS
 10
-13.064873538
 20
-22.1390502721
 40
1.2558890222
100
AcDbArc
 50
243.4583841928
 51
255.091885868
  0
ARC
  5
446
100
AcDbEntity
  8
0
100
AcDbCircle
 62
7
  6
CONTINUOUS
 10
-14.4940546721
 20
-22.5632582655
 40
1.1008870644
100
AcDbArc
 50
92.6796223971
 51
99.2742186457
  0
ARC
  5
447
100
AcDbEntity
  8
0
100
AcDbCircle
 62
7
  6
CONTINUOUS
 10
-14.4940944088
 20
-22.5627313419
 40
1.1003606256
100
AcDbArc
 50
99.2765983269
 51
103.3561669957
  0
ARC
  5
448
100
AcDbEntity
  8
RACCORDO
100
AcDbCircle
 62
7
  6
CONTINUOUS
 10
-30.57100304
 20
25.3605357311
 40
1.0
100
AcDbArc
 50
116.8996349454
 51
179.9891805566
  0
ARC
  5
449
100
AcDbEntity
  8
DRAFT
100
AcDbCircle
 62
7
  6
CONTINUOUS
 10
-20.5548807765
 20
-4.1572841367
 40
0.9474968334
100
AcDbArc
 50
112.1294529065
 51
115.9811124369
  0
ARC
  5
44A
100
AcDbEntity
  8
0
100
AcDbCircle
 62
250
  6
CONTINUOUS
 10
-14.8062789423
 20
-21.8465817782
 40
0.7019471531
100
AcDbArc
 50
249.2670859967
 51
254.1185272809
  0
ARC
  5
44B
100
AcDbEntity
  8
0
100
AcDbCircle
 62
250
  6
CONTINUOUS
 10
-14.8111414687
 20
-21.859417182
 40
0.6882215661
100
AcDbArc
 50
243.4473953065
 51
249.267397702
  0
ARC
  5
44C
100
AcDbEntity
  8
0
100
AcDbCircle
 62
250
  6
CONTINUOUS
 10
-13.3321792946
 20
-22.647253512
 40
0.681660433
100
AcDbArc
 50
243.4352778993
 51
244.4677554177
  0
ARC
  5
44D
100
AcDbEntity
  8
RACCORDO
100
AcDbCircle
 62
7
  6
CONTINUOUS
 10
-37.6831045755
 20
15.8266892198
 40
0.5
100
AcDbArc
 50
116.9163970466
 51
179.9936921243
  0
ARC
  5
44E
100
AcDbEntity
  8
RACCORDO
100
AcDbCircle
 62
7
  6
CONTINUOUS
 10
-37.6831045755
 20
-21.975568888
 40
0.5
100
AcDbArc
 50
180.0
 51
236.3454532405
  0
ARC
  5
44F
100
AcDbEntity
  8
RACCORDO
100
AcDbCircle
 62
250
  6
CONTINUOUS
 10
-19.5336722393
 20
4.7469547157
 40
0.3765461669
100
AcDbArc
 50
171.318032416
 51
179.9448090666
  0
ARC
  5
450
100
AcDbEntity
  8
RACCORDO
100
AcDbCircle
 62
250
  6
CONTINUOUS
 10
-37.828078379
 20
-22.1930413936
 40
0.2386341757
100
AcDbArc
 50
233.7160244695
 51
236.3346658901
  0
ARC
  5
451
100
AcDbEntity
  8
RACCORDO
100
AcDbCircle
 62
250
  6
CONTINUOUS
 10
-38.0572041533
 20
-21.97549292
 40
0.1258952635
100
AcDbArc
 50
180.0345733064
 51
186.1633362339
  0
ARC
  5
452
100
AcDbEntity
  8
RACCORDO
100
AcDbCircle
 62
7
  6
CONTINUOUS
 10
5.0086609278
 20
-42.8469079132
 40
1.0
100
AcDbArc
 50
243.4349488229
 51
296.2131665822
  0
ARC
  5
453
100
AcDbEntity
  8
ASSI
100
AcDbCircle
 62
7
  6
CONTINUOUS
 10
31.2998656831
 20
-26.1720328957
 40
0.99
100
AcDbArc
 50
117.2791515159
 51
295.8509508382
  0
ARC
  5
454
100
AcDbEntity
  8
ASSI
100
AcDbCircle
 62
7
  6
CONTINUOUS
 10
32.5373025502
 20
-30.5146605655
 40
0.99
100
AcDbArc
 50
200.7980477558
 51
295.8509508382
  0
ARC
  5
455
100
AcDbEntity
  8
RACCORDO
100
AcDbCircle
 62
7
  6
CONTINUOUS
 10
-1.4436785422
 20
-40.0952819047
 40
0.5
100
AcDbArc
 50
249.4282970716
 51
296.2314338935
  0
ARC
  5
456
100
AcDbEntity
  8
RACCORDO
100
AcDbCircle
 62
7
  6
CONTINUOUS
 10
4.3345341409
 20
-0.1829261828
 40
31.3346235893
100
AcDbArc
 50
202.1894938253
 51
207.0037314222
  0
ARC
  5
457
100
AcDbEntity
  8
DRAFT
100
AcDbCircle
 62
7
  6
CONTINUOUS
 10
-6.1929631864
 20
-14.6544476394
 40
4.124436523
100
AcDbArc
 50
19.2225204679
 51
20.7666446214
  0
ARC
  5
458
100
AcDbEntity
  8
ASSI
100
AcDbCircle
 62
250
  6
CONTINUOUS
 10
-1.5333048691
 20
36.4198993026
 40
1.2979657524
100
AcDbArc
 50
41.8348461002
 51
46.5688102366
  0
ARC
  5
459
100
AcDbEntity
  8
0
100
AcDbCircle
 62
7
  6
CONTINUOUS
 10
12.6585273754
 20
7.0702914157
 40
1.2325412898
100
AcDbArc
 50
288.29349058
 51
292.550081859
  0
ARC
  5
45A
100
AcDbEntity
  8
DRAFT
100
AcDbCircle
 62
7
  6
CONTINUOUS
 10
12.6521138374
 20
7.0788640911
 40
1.2285203728
100
AcDbArc
 50
299.8924862285
 51
305.9722704359
  0
ARC
  5
45B
100
AcDbEntity
  8
0
100
AcDbCircle
 62
7
  6
CONTINUOUS
 10
12.6602652171
 20
7.0639002417
 40
1.2260227624
100
AcDbArc
 50
298.8771024104
 51
302.8984548531
  0
ARC
  5
45C
100
AcDbEntity
  8
0
100
AcDbCircle
 62
7
  6
CONTINUOUS
 10
12.6627602403
 20
7.0597728914
 40
1.2212037041
100
AcDbArc
 50
292.5559239247
 51
298.8681151609
  0
ARC
  5
45D
100
AcDbEntity
  8
DRAFT
100
AcDbCircle
 62
7
  6
CONTINUOUS
 10
12.6582245724
 20
7.0686945402
 40
1.2166583474
100
AcDbArc
 50
296.9869637947
 51
299.8816767739
  0
ARC
  5
45E
100
AcDbEntity
  8
ASSI
100
AcDbCircle
 62
250
  6
CONTINUOUS
 10
-1.4744941908
 20
36.480603942
 40
1.2134510649
100
AcDbArc
 50
46.6148443254
 51
47.3274532309
  0
ARC
  5
45F
100
AcDbEntity
  8
ASSI
100
AcDbCircle
 62
7
  6
CONTINUOUS
 10
-0.8734928609
 20
36.6800181807
 40
0.99
100
AcDbArc
 50
175.8136197455
 51
238.0668544495
  0
ARC
  5
460
100
AcDbEntity
  8
ASSI
100
AcDbCircle
 62
7
  6
CONTINUOUS
 10
-2.110929728
 20
41.0226458505
 40
0.99
100
AcDbArc
 50
117.2791515159
 51
295.8509508382
  0
ARC
  5
461
100
AcDbEntity
  8
ASSI
100
AcDbCircle
 62
7
  6
CONTINUOUS
 10
15.2131864111
 20
32.360587781
 40
0.99
100
AcDbArc
 50
117.2791515159
 51
295.8509508382
  0
ARC
  5
462
100
AcDbEntity
  8
ASSI
100
AcDbCircle
 62
7
  6
CONTINUOUS
 10
32.5373025502
 20
23.6985297114
 40
0.99
100
AcDbArc
 50
117.2791515159
 51
295.8509508382
  0
ARC
  5
463
100
AcDbEntity
  8
DRAFT
100
AcDbCircle
 62
7
  6
CONTINUOUS
 10
-4.6720450475
 20
-12.0577125561
 40
0.9865937495
100
AcDbArc
 50
114.2494637446
 51
116.0119979007
  0
ARC
  5
464
100
AcDbEntity
  8
ASSI
100
AcDbCircle
 62
7
  6
CONTINUOUS
 10
-0.5038510114
 20
37.2144957652
 40
0.770016636
100
AcDbArc
 50
63.4204650533
 51
66.2811312308
  0
SPLINE
  5
465
100
AcDbEntity
  8
0
100
AcDbSpline
 62
7
  6
CONTINUOUS
 70
0
 71
3
 72
9
 73
5
 74
0
 42
0.0000001
 43
0.0000001
 44
0.0000000001
 40
0.0
 40
0.0
 40
0.0
 40
0.0
 40
0.2556641078
 40
1.0
 40
1.0
 40
1.0
 40
1.0
 10
15.0850733033
 20
8.2540327825
 30
0.0
 10
15.1041465078
 20
8.2326352441
 30
0.0
 10
15.1776176918
 20
8.147943794
 30
0.0
 10
15.2464368361
 20
8.0591841454
 30
0.0
 10
15.2944334728
 20
7.9909149866
 30
0.0
  0
SPLINE
  5
466
100
AcDbEntity
  8
0
100
AcDbSpline
 62
7
  6
CONTINUOUS
 70
0
 71
3
 72
11
 73
7
 74
0
 42
0.0000001
 43
0.0000001
 44
0.0000000001
 40
0.0
 40
0.0
 40
0.0
 40
0.0
 40
0.2269043592
 40
0.4657036761
 40
0.7223355403
 40
1.0
 40
1.0
 40
1.0
 40
1.0
 10
14.6477728594
 20
6.8892889716
 30
0.0
 10
14.731090161
 20
6.9431818216
 30
0.0
 10
14.8883416442
 20
7.0764226513
 30
0.0
 10
15.0760076894
 20
7.333594908
 30
0.0
 10
15.2158414785
 20
7.6436337097
 30
0.0
 10
15.2733015757
 20
7.8713418261
 30
0.0
 10
15.2944334728
 20
7.9909149866
 30
0.0
  0
SPLINE
  5
467
100
AcDbEntity
  8
0
100
AcDbSpline
 62
7
  6
CONTINUOUS
 70
0
 71
3
 72
9
 73
5
 74
0
 42
0.0000001
 43
0.0000001
 44
0.0000000001
 40
0.0
 40
0.0
 40
0.0
 40
0.0
 40
0.2436728821
 40
1.0
 40
1.0
 40
1.0
 40
1.0
 10
14.7869775703
 20
7.6875113014
 30
0.0
 10
14.7921455473
 20
7.7174949841
 30
0.0
 10
14.8111638337
 20
7.8409162806
 30
0.0
 10
14.8216722696
 20
7.9656088354
 30
0.0
 10
14.825368264
 20
8.0599739775
 30
0.0
  0
SPLINE
  5
468
100
AcDbEntity
  8
0
100
AcDbSpline
 62
7
  6
CONTINUOUS
 70
0
 71
3
 72
11
 73
7
 74
0
 42
0.0000001
 43
0.0000001
 44
0.0000000001
 40
0.0
 40
0.0
 40
0.0
 40
0.0
 40
0.2798477085
 40
0.5371504742
 40
0.7750878966
 40
1.0
 40
1.0
 40
1.0
 40
1.0
 10
14.0256728063
 20
7.3023294448
 30
0.0
 10
14.0067824157
 20
7.1645460626
 30
0.0
 10
13.9508366985
 20
6.9020669383
 30
0.0
 10
13.8027070818
 20
6.5438119604
 30
0.0
 10
13.5965940525
 20
6.247454209
 30
0.0
 10
13.420032363
 20
6.0951930759
 30
0.0
 10
13.3261816959
 20
6.0344892173
 30
0.0
  0
LINE
  5
469
100
AcDbEntity
  8
0
100
AcDbLine
 62
7
  6
CONTINUOUS
 10
15.2944334728
 20
7.9909149866
 11
14.7869775703
 21
7.6875113014
  0
SPLINE
  5
46A
100
AcDbEntity
  8
RACCORDO
100
AcDbSpline
 62
7
  6
CONTINUOUS
 70
0
 71
3
 72
11
 73
7
 74
0
 42
0.0000001
 43
0.0000001
 44
0.0000000001
 40
0.0
 40
0.0
 40
0.0
 40
0.0
 40
0.2355529532
 40
0.5003298903
 40
0.7648092553
 40
1.0
 40
1.0
 40
1.0
 40
1.0
 10
24.4957060449
 20
36.3930270886
 30
0.0
 10
24.4650913603
 20
36.4083344309
 30
0.0
 10
24.3947984048
 20
36.4302831116
 30
0.0
 10
24.2836234963
 20
36.4411941419
 30
0.0
 10
24.1723586166
 20
36.4314795784
 30
0.0
 10
24.1019952748
 20
36.4102259767
 30
0.0
 10
24.0711942134
 20
36.3954182767
 30
0.0
  0
SPLINE
  5
46B
100
AcDbEntity
  8
RACCORDO
100
AcDbSpline
 62
7
  6
CONTINUOUS
 70
0
 71
3
 72
11
 73
7
 74
0
 42
0.0000001
 43
0.0000001
 44
0.0000000001
 40
0.0
 40
0.0
 40
0.0
 40
0.0
 40
0.2054695202
 40
0.4330298466
 40
0.696506446
 40
1.0
 40
1.0
 40
1.0
 40
1.0
 10
13.5280088472
 20
41.8154077754
 30
0.0
 10
13.528007847
 20
41.8252579678
 30
0.0
 10
13.5235876307
 20
41.8461728885
 30
0.0
 10
13.5052435069
 20
41.8746981417
 30
0.0
 10
13.4766704484
 20
41.9003701859
 30
0.0
 10
13.4531542233
 20
41.9143029993
 30
0.0
 10
13.4401407935
 20
41.9208097143
 30
0.0
  0
SPLINE
  5
46C
100
AcDbEntity
  8
RACCORDO
100
AcDbSpline
 62
7
  6
CONTINUOUS
 70
0
 71
3
 72
11
 73
7
 74
0
 42
0.0000001
 43
0.0000001
 44
0.0000000001
 40
0.0
 40
0.0
 40
0.0
 40
0.0
 40
0.3026678926
 40
0.5660436876
 40
0.7938182756
 40
1.0
 40
1.0
 40
1.0
 40
1.0
 10
13.4403885563
 20
41.7108211053
 30
0.0
 10
13.4533074537
 20
41.7172549928
 30
0.0
 10
13.4766989509
 20
41.7310134766
 30
0.0
 10
13.5052254019
 20
41.7563737133
 30
0.0
 10
13.5236160301
 20
41.7847174231
 30
0.0
 10
13.5280098455
 20
41.8055762488
 30
0.0
 10
13.5280088472
 20
41.8154077754
 30
0.0
  0
SPLINE
  5
46D
100
AcDbEntity
  8
RACCORDO
100
AcDbSpline
 62
7
  6
CONTINUOUS
 70
0
 71
3
 72
9
 73
5
 74
0
 42
0.0000001
 43
0.0000001
 44
0.0000000001
 40
0.0
 40
0.0
 40
0.0
 40
0.0
 40
0.2351539457
 40
1.0
 40
1.0
 40
1.0
 40
1.0
 10
-5.4272605318
 20
-12.8274940872
 30
0.0
 10
-5.4272605318
 20
-12.8143956234
 30
0.0
 10
-5.4221132447
 20
-12.7587537219
 30
0.0
 10
-5.400076113
 20
-12.705198058
 30
0.0
 10
-5.3767430711
 20
-12.6695525672
 30
0.0
  0
SPLINE
  5
46E
100
AcDbEntity
  8
RACCORDO
100
AcDbSpline
 62
250
  6
CONTINUOUS
 70
0
 71
3
 72
13
 73
9
 74
0
 42
0.0000001
 43
0.0000001
 44
0.0000000001
 40
0.0
 40
0.0
 40
0.0
 40
0.0
 40
0.1114443982
 40
0.2353317676
 40
0.3658207882
 40
0.4983517656
 40
0.7581158682
 40
1.0
 40
1.0
 40
1.0
 40
1.0
 10
-21.3079225427
 20
-4.8034329548
 30
0.0
 10
-21.372191683
 20
-4.7587640856
 30
0.0
 10
-21.4945128951
 20
-4.6451162134
 30
0.0
 10
-21.6489443331
 20
-4.4388240616
 30
0.0
 10
-21.7821355914
 20
-4.2011958181
 30
0.0
 10
-21.9266765091
 20
-3.8631311243
 30
0.0
 10
-22.0455777027
 20
-3.4316296471
 30
0.0
 10
-22.0822202229
 20
-3.0790156969
 30
0.0
 10
-22.0822140874
 20
-2.9091398579
 30
0.0
  0
SPLINE
  5
46F
100
AcDbEntity
  8
RACCORDO
100
AcDbSpline
 62
7
  6
CONTINUOUS
 70
0
 71
3
 72
10
 73
6
 74
0
 42
0.0000001
 43
0.0000001
 44
0.0000000001
 40
0.0
 40
0.0
 40
0.0
 40
0.0
 40
0.2328565838
 40
0.4814033607
 40
1.0
 40
1.0
 40
1.0
 40
1.0
 10
-20.8743843901
 20
-5.1039321581
 30
0.0
 10
-20.8743843901
 20
-5.0909789611
 30
0.0
 10
-20.8706626157
 20
-5.064216434
 30
0.0
 10
-20.8549044808
 20
-5.0108063586
 30
0.0
 10
-20.8345600355
 20
-4.9724808661
 30
0.0
 10
-20.8176923396
 20
-4.9490779329
 30
0.0
  0
SPLINE
  5
470
100
AcDbEntity
  8
RACCORDO
100
AcDbSpline
 62
250
  6
CONTINUOUS
 70
0
 71
3
 72
9
 73
5
 74
0
 42
0.0000001
 43
0.0000001
 44
0.0000000001
 40
0.0
 40
0.0
 40
0.0
 40
0.0
 40
0.2315162924
 40
1.0
 40
1.0
 40
1.0
 40
1.0
 10
-21.3079225427
 20
-4.8034329548
 30
0.0
 10
-21.3072082195
 20
-4.7907002223
 30
0.0
 10
-21.2985274488
 20
-4.7360670609
 30
0.0
 10
-21.2718738349
 20
-4.6851274051
 30
0.0
 10
-21.245617546
 20
-4.6519233544
 30
0.0
  0
SPLINE
  5
471
100
AcDbEntity
  8
RACCORDO
100
AcDbSpline
 62
250
  6
CONTINUOUS
 70
0
 71
3
 72
11
 73
7
 74
0
 42
0.0000001
 43
0.0000001
 44
0.0000000001
 40
0.0
 40
0.0
 40
0.0
 40
0.0
 40
0.2288531508
 40
0.4933314183
 40
0.7614349369
 40
1.0
 40
1.0
 40
1.0
 40
1.0
 10
-22.0822140874
 20
-2.9091398579
 30
0.0
 10
-22.0622961394
 20
-2.9210085009
 30
0.0
 10
-22.0144524405
 20
-2.9382037085
 30
0.0
 10
-21.9374200561
 20
-2.9474326045
 30
0.0
 10
-21.8590661442
 20
-2.9413799602
 30
0.0
 10
-21.809202079
 20
-2.9263808933
 30
0.0
 10
-21.7875838425
 20
-2.915571775
 30
0.0
  0
SPLINE
  5
472
100
AcDbEntity
  8
RACCORDO
100
AcDbSpline
 62
7
  6
CONTINUOUS
 70
0
 71
3
 72
9
 73
5
 74
0
 42
0.0000001
 43
0.0000001
 44
0.0000000001
 40
0.0
 40
0.0
 40
0.0
 40
0.0
 40
0.2840038652
 40
1.0
 40
1.0
 40
1.0
 40
1.0
 10
-22.0010013791
 20
-2.2568965072
 30
0.0
 10
-22.0088813805
 20
-2.261780267
 30
0.0
 10
-22.0364702886
 20
-2.2792220522
 30
0.0
 10
-22.0635291322
 20
-2.2975489425
 30
0.0
 10
-22.0822140874
 20
-2.3115891833
 30
0.0
  0
SPLINE
  5
473
100
AcDbEntity
  8
RACCORDO
100
AcDbSpline
 62
250
  6
CONTINUOUS
 70
0
 71
3
 72
13
 73
9
 74
0
 42
0.0000001
 43
0.0000001
 44
0.0000000001
 40
0.0
 40
0.0
 40
0.0
 40
0.0
 40
0.1108449651
 40
0.2343421159
 40
0.3640568465
 40
0.4956017003
 40
0.7546187867
 40
1.0
 40
1.0
 40
1.0
 40
1.0
 10
-21.2456175496
 20
-4.651923352
 30
0.0
 10
-21.3013715217
 20
-4.6107553958
 30
0.0
 10
-21.40400416
 20
-4.5032290616
 30
0.0
 10
-21.5250806982
 20
-4.3095874379
 30
0.0
 10
-21.6231351574
 20
-4.0891715592
 30
0.0
 10
-21.7223123605
 20
-3.7788780768
 30
0.0
 10
-21.7921411
 20
-3.3855338911
 30
0.0
 10
-21.7985444043
 20
-3.0686045319
 30
0.0
 10
-21.7875838425
 20
-2.915571775
 30
0.0
  0
SPLINE
  5
474
100
AcDbEntity
  8
DRAFT
100
AcDbSpline
 62
7
  6
CONTINUOUS
 70
0
 71
3
 72
11
 73
7
 74
0
 42
0.0000001
 43
0.0000001
 44
0.0000000001
 40
0.0
 40
0.0
 40
0.0
 40
0.0
 40
0.2782397488
 40
0.5354478548
 40
0.7742868849
 40
1.0
 40
1.0
 40
1.0
 40
1.0
 10
14.0119880708
 20
7.2845111819
 30
0.0
 10
13.9932810458
 20
7.1566340317
 30
0.0
 10
13.9399014833
 20
6.912511083
 30
0.0
 10
13.8039349441
 20
6.577393766
 30
0.0
 10
13.617523769
 20
6.2958058695
 30
0.0
 10
13.4585937964
 20
6.1461931951
 30
0.0
 10
13.3737388931
 20
6.0846208687
 30
0.0
  0
SPLINE
  5
475
100
AcDbEntity
  8
RACCORDO
100
AcDbSpline
 62
7
  6
CONTINUOUS
 70
0
 71
3
 72
11
 73
7
 74
0
 42
0.0000001
 43
0.0000001
 44
0.0000000001
 40
0.0
 40
0.0
 40
0.0
 40
0.0
 40
0.2779013444
 40
0.5367283094
 40
0.7750414055
 40
1.0
 40
1.0
 40
1.0
 40
1.0
 10
-19.7452110347
 20
-26.7203259956
 30
0.0
 10
-19.7785338262
 20
-26.8213991998
 30
0.0
 10
-19.8665492891
 20
-27.0100419862
 30
0.0
 10
-20.0626722153
 20
-27.2384519386
 30
0.0
 10
-20.3048242014
 20
-27.3831980055
 30
0.0
 10
-20.4856234133
 20
-27.4113137436
 30
0.0
 10
-20.5716580315
 20
-27.4068611351
 30
0.0
  0
SPLINE
  5
476
100
AcDbEntity
  8
0
100
AcDbSpline
 62
7
  6
CONTINUOUS
 70
0
 71
3
 72
9
 73
5
 74
0
 42
0.0000001
 43
0.0000001
 44
0.0000000001
 40
0.0
 40
0.0
 40
0.0
 40
0.0
 40
0.4650362799
 40
1.0
 40
1.0
 40
1.0
 40
1.0
 10
-19.1924787892
 20
0.6528415452
 30
0.0
 10
-19.0011504562
 20
0.7235819355
 30
0.0
 10
-18.6156493602
 20
0.9464020569
 30
0.0
 10
-18.2942141112
 20
1.2491560659
 30
0.0
 10
-18.1376611744
 20
1.4239610328
 30
0.0
  0
SPLINE
  5
477
100
AcDbEntity
  8
0
100
AcDbSpline
 62
7
  6
CONTINUOUS
 70
0
 71
3
 72
12
 73
8
 74
0
 42
0.0000001
 43
0.0000001
 44
0.0000000001
 40
0.0
 40
0.0
 40
0.0
 40
0.0
 40
0.0851969066
 40
0.1905497292
 40
0.3227164136
 40
0.6439560789
 40
1.0
 40
1.0
 40
1.0
 40
1.0
 10
-15.2191200977
 20
-22.4130128529
 30
0.0
 10
-15.2445050101
 20
-22.4016535076
 30
0.0
 10
-15.1090217931
 20
-22.4653359401
 30
0.0
 10
-15.0541474154
 20
-22.4938234745
 30
0.0
 10
-14.8721240121
 20
-22.5838840388
 30
0.0
 10
-14.6479427682
 20
-22.6975384422
 30
0.0
 10
-14.44745562
 20
-22.7995050763
 30
0.0
 10
-14.3440036012
 20
-22.8524704026
 30
0.0
  0
SPLINE
  5
478
100
AcDbEntity
  8
0
100
AcDbSpline
 62
7
  6
CONTINUOUS
 70
0
 71
3
 72
9
 73
5
 74
0
 42
0.0000001
 43
0.0000001
 44
0.0000000001
 40
0.0
 40
0.0
 40
0.0
 40
0.0
 40
0.2890043493
 40
1.0
 40
1.0
 40
1.0
 40
1.0
 10
-14.3440036012
 20
-22.8524704026
 30
0.0
 10
-14.291233911
 20
-22.8794874091
 30
0.0
 10
-14.1087549394
 20
-22.9731881486
 30
0.0
 10
-13.9265415017
 20
-23.0674171232
 30
0.0
 10
-13.7975514498
 20
-23.1354829769
 30
0.0
  0
SPLINE
  5
479
100
AcDbEntity
  8
0
100
AcDbSpline
 62
7
  6
CONTINUOUS
 70
0
 71
3
 72
11
 73
7
 74
0
 42
0.0000001
 43
0.0000001
 44
0.0000000001
 40
0.0
 40
0.0
 40
0.0
 40
0.0
 40
0.2896684652
 40
0.5496299359
 40
0.7828298634
 40
1.0
 40
1.0
 40
1.0
 40
1.0
 10
5.745026611
 20
15.1057394629
 30
0.0
 10
5.745026611
 20
15.1848085445
 30
0.0
 10
5.73222086
 20
15.3353989906
 30
0.0
 10
5.6678958325
 20
15.5413722063
 30
0.0
 10
5.5602837482
 20
15.7062050096
 30
0.0
 10
5.4599644519
 20
15.7825261108
 30
0.0
 10
5.4069194933
 20
15.8089894527
 30
0.0
  0
SPLINE
  5
47A
100
AcDbEntity
  8
RACCORDO
100
AcDbSpline
 62
7
  6
CONTINUOUS
 70
0
 71
3
 72
17
 73
13
 74
0
 42
0.0000001
 43
0.0000001
 44
0.0000000001
 40
0.0
 40
0.0
 40
0.0
 40
0.0
 40
0.0516047974
 40
0.0886811412
 40
0.1346526873
 40
0.1893115196
 40
0.2519564353
 40
0.3964269028
 40
0.5567997916
 40
0.719707169
 40
0.8715775185
 40
1.0
 40
1.0
 40
1.0
 40
1.0
 10
-21.325961393
 20
2.5365308005
 30
0.0
 10
-21.3036758203
 20
2.5635475105
 30
0.0
 10
-21.2366778492
 20
2.5809797461
 30
0.0
 10
-21.1472475738
 20
2.5706924227
 30
0.0
 10
-21.0560276682
 20
2.5470797193
 30
0.0
 10
-20.9526181324
 20
2.5072834638
 30
0.0
 10
-20.792195988
 20
2.4304801059
 30
0.0
 10
-20.5784069254
 20
2.3010212287
 30
0.0
 10
-20.322596527
 20
2.1124943149
 30
0.0
 10
-20.0793055046
 20
1.900204538
 30
0.0
 10
-19.8704403705
 20
1.6833386956
 30
0.0
 10
-19.7531388169
 20
1.5326403746
 30
0.0
 10
-19.7062209793
 20
1.459191398
 30
0.0
  0
SPLINE
  5
47B
100
AcDbEntity
  8
0
100
AcDbSpline
 62
7
  6
CONTINUOUS
 70
0
 71
3
 72
9
 73
5
 74
0
 42
0.0000001
 43
0.0000001
 44
0.0000000001
 40
0.0
 40
0.0
 40
0.0
 40
0.0
 40
0.5081334685
 40
1.0
 40
1.0
 40
1.0
 40
1.0
 10
-18.9631109133
 20
0.2958668143
 30
0.0
 10
-18.8965488589
 20
0.1929448392
 30
0.0
 10
-18.7406881959
 20
0.0048894458
 30
0.0
 10
-18.53914199
 20
-0.134036082
 30
0.0
 10
-18.4330191691
 20
-0.1870916116
 30
0.0
  0
SPLINE
  5
47C
100
AcDbEntity
  8
0
100
AcDbSpline
 62
7
  6
CONTINUOUS
 70
0
 71
3
 72
14
 73
10
 74
0
 42
0.0000001
 43
0.0000001
 44
0.0000000001
 40
0.0
 40
0.0
 40
0.0
 40
0.0
 40
0.286515952
 40
0.4280161081
 40
0.5627048745
 40
0.6875520635
 40
0.8010821051
 40
0.9040508219
 40
1.0
 40
1.0
 40
1.0
 40
1.0
 10
-19.0668467659
 20
-24.6627417638
 30
0.0
 10
-18.922023516
 20
-24.2328886107
 30
0.0
 10
-18.6034840422
 20
-23.6194789504
 30
0.0
 10
-18.0268555117
 20
-22.9373702203
 30
0.0
 10
-17.5423118859
 20
-22.5220673447
 30
0.0
 10
-17.0283793173
 20
-22.2234456397
 30
0.0
 10
-16.5085655429
 20
-22.0575152903
 30
0.0
 10
-16.0074973467
 20
-22.0360779558
 30
0.0
 10
-15.6981389068
 20
-22.1261806407
 30
0.0
 10
-15.5622679824
 20
-22.1940990561
 30
0.0
  0
SPLINE
  5
47D
100
AcDbEntity
  8
0
100
AcDbSpline
 62
7
  6
CONTINUOUS
 70
0
 71
3
 72
11
 73
7
 74
0
 42
0.0000001
 43
0.0000001
 44
0.0000000001
 40
0.0
 40
0.0
 40
0.0
 40
0.0
 40
0.2185649614
 40
0.4537388399
 40
0.7137205168
 40
1.0
 40
1.0
 40
1.0
 40
1.0
 10
-18.4330191691
 20
-0.1870916116
 30
0.0
 10
-18.2938354073
 20
-0.2566757796
 30
0.0
 10
-17.9757506306
 20
-0.3477552266
 30
0.0
 10
-17.4610207715
 20
-0.3199376733
 30
0.0
 10
-16.9284908146
 20
-0.1412508746
 30
0.0
 10
-16.5929835562
 20
0.0613217512
 30
0.0
 10
-16.4284602862
 20
0.1816300261
 30
0.0
  0
SPLINE
  5
47E
100
AcDbEntity
  8
0
100
AcDbSpline
 62
7
  6
CONTINUOUS
 70
0
 71
3
 72
11
 73
7
 74
0
 42
0.0000001
 43
0.0000001
 44
0.0000000001
 40
0.0
 40
0.0
 40
0.0
 40
0.0
 40
0.2217838648
 40
0.4568855801
 40
0.7150784911
 40
1.0
 40
1.0
 40
1.0
 40
1.0
 10
5.4069194933
 20
15.8089894527
 30
0.0
 10
5.3596666697
 20
15.8325631845
 30
0.0
 10
5.2535644168
 20
15.8651204432
 30
0.0
 10
5.0811049006
 20
15.8630583614
 30
0.0
 10
4.9009679211
 20
15.8130788075
 30
0.0
 10
4.7854814344
 20
15.7529351299
 30
0.0
 10
4.7281057364
 20
15.716737521
 30
0.0
  0
SPLINE
  5
47F
100
AcDbEntity
  8
0
100
AcDbSpline
 62
250
  6
CONTINUOUS
 70
0
 71
3
 72
20
 73
16
 74
0
 42
0.0000001
 43
0.0000001
 44
0.0000000001
 40
0.0
 40
0.0
 40
0.0
 40
0.0
 40
0.1896331376
 40
0.2635356677
 40
0.3223423356
 40
0.3655345696
 40
0.3928821131
 40
0.4042186356
 40
0.4096097244
 40
0.4308493691
 40
0.4679793769
 40
0.5208166401
 40
0.588886347
 40
0.7681796886
 40
1.0
 40
1.0
 40
1.0
 40
1.0
 10
-15.1187897822
 20
-22.4750481098
 30
0.0
 10
-15.146130194
 20
-22.46062104
 30
0.0
 10
-15.1838883563
 20
-22.4405950849
 30
0.0
 10
-15.2305752949
 20
-22.4154481703
 30
0.0
 10
-15.2548803204
 20
-22.4020983183
 30
0.0
 10
-15.2752758896
 20
-22.3907821754
 30
0.0
 10
-15.2829820721
 20
-22.3859077191
 30
0.0
 10
-15.2941477881
 20
-22.3794281989
 30
0.0
 10
-15.2858178231
 20
-22.3808091393
 30
0.0
 10
-15.2781683681
 20
-22.3853417298
 30
0.0
 10
-15.2604868925
 20
-22.3925417483
 30
0.0
 10
-15.2376999735
 20
-22.4036356858
 30
0.0
 10
-15.1932970906
 20
-22.4247273022
 30
0.0
 10
-15.1233214881
 20
-22.4591065815
 30
0.0
 10
-15.0632068401
 20
-22.488847355
 30
0.0
 10
-15.0293731984
 20
-22.5056823173
 30
0.0
  0
LINE
  5
480
100
AcDbEntity
  8
0
100
AcDbLine
 62
250
  6
CONTINUOUS
 10
-13.7967888633
 20
-23.1357045179
 11
-13.7841605318
 21
-23.142362735
  0
SPLINE
  5
481
100
AcDbEntity
  8
0
100
AcDbSpline
 62
250
  6
CONTINUOUS
 70
0
 71
3
 72
8
 73
4
 74
0
 42
0.0000001
 43
0.0000001
 44
0.0000000001
 40
0.0
 40
0.0
 40
0.0
 40
0.0
 40
1.0
 40
1.0
 40
1.0
 40
1.0
 10
-13.4509090911
 20
-23.3190147854
 30
0.0
 10
-13.5112267761
 20
-23.3078590911
 30
0.0
 10
-13.5706377482
 20
-23.2887842192
 30
0.0
 10
-13.6259878793
 20
-23.2623449373
 30
0.0
  0
SPLINE
  5
482
100
AcDbEntity
  8
RACCORDO
100
AcDbSpline
 62
7
  6
CONTINUOUS
 70
0
 71
3
 72
9
 73
5
 74
0
 42
0.0000001
 43
0.0000001
 44
0.0000000001
 40
0.0
 40
0.0
 40
0.0
 40
0.0
 40
0.4945801194
 40
1.0
 40
1.0
 40
1.0
 40
1.0
 10
15.7156525014
 20
-16.1905201664
 30
0.0
 10
15.7156615657
 20
-16.2293463586
 30
0.0
 10
15.6986323588
 20
-16.3095554677
 30
0.0
 10
15.6438520529
 20
-16.3707866392
 30
0.0
 10
15.6117455876
 20
-16.3940986786
 30
0.0
  0
SPLINE
  5
483
100
AcDbEntity
  8
RACCORDO
100
AcDbSpline
 62
7
  6
CONTINUOUS
 70
0
 71
3
 72
9
 73
5
 74
0
 42
0.0000001
 43
0.0000001
 44
0.0000000001
 40
0.0
 40
0.0
 40
0.0
 40
0.0
 40
0.7414740496
 40
1.0
 40
1.0
 40
1.0
 40
1.0
 10
15.2966676351
 20
2.8371108736
 30
0.0
 10
15.2931075429
 20
2.8454809606
 30
0.0
 10
15.2851614186
 20
2.8558422796
 30
0.0
 10
15.2746129793
 20
2.8621782465
 30
0.0
 10
15.271777046
 20
2.8635977723
 30
0.0
  0
SPLINE
  5
484
100
AcDbEntity
  8
RACCORDO
100
AcDbSpline
 62
7
  6
CONTINUOUS
 70
0
 71
3
 72
8
 73
4
 74
0
 42
0.0000001
 43
0.0000001
 44
0.0000000001
 40
0.0
 40
0.0
 40
0.0
 40
0.0
 40
1.0
 40
1.0
 40
1.0
 40
1.0
 10
15.7120256659
 20
1.8137549648
 30
0.0
 10
15.7144012058
 20
1.8076021189
 30
0.0
 10
15.7156468036
 20
1.8008985209
 30
0.0
 10
15.7156489202
 20
1.7943030149
 30
0.0
  0
SPLINE
  5
485
100
AcDbEntity
  8
RACCORDO
100
AcDbSpline
 62
7
  6
CONTINUOUS
 70
0
 71
3
 72
9
 73
5
 74
0
 42
0.0000001
 43
0.0000001
 44
0.0000000001
 40
0.0
 40
0.0
 40
0.0
 40
0.0
 40
0.7351545962
 40
1.0
 40
1.0
 40
1.0
 40
1.0
 10
15.7156489202
 20
1.7943030149
 30
0.0
 10
15.7156508912
 20
1.7881608121
 30
0.0
 10
15.7142371952
 20
1.7797590709
 30
0.0
 10
15.7114431716
 20
1.7718869193
 30
0.0
 10
15.7106208887
 20
1.7698325972
 30
0.0
  0
SPLINE
  5
486
100
AcDbEntity
  8
RACCORDO
100
AcDbSpline
 62
7
  6
CONTINUOUS
 70
0
 71
3
 72
9
 73
5
 74
0
 42
0.0000001
 43
0.0000001
 44
0.0000000001
 40
0.0
 40
0.0
 40
0.0
 40
0.0
 40
0.4058749001
 40
1.0
 40
1.0
 40
1.0
 40
1.0
 10
15.7106208887
 20
1.7698325972
 30
0.0
 10
15.7014168314
 20
1.7468379596
 30
0.0
 10
15.6570193467
 20
1.7007206804
 30
0.0
 10
15.6046478679
 20
1.6698994934
 30
0.0
 10
15.5722958246
 20
1.6535332587
 30
0.0
  0
SPLINE
  5
487
100
AcDbEntity
  8
RACCORDO
100
AcDbSpline
 62
7
  6
CONTINUOUS
 70
0
 71
3
 72
9
 73
5
 74
0
 42
0.0000001
 43
0.0000001
 44
0.0000000001
 40
0.0
 40
0.0
 40
0.0
 40
0.0
 40
0.2349552208
 40
1.0
 40
1.0
 40
1.0
 40
1.0
 10
15.271777046
 20
2.8635977723
 30
0.0
 10
15.270190272
 20
2.8643920316
 30
0.0
 10
15.2632835749
 20
2.8674665524
 30
0.0
 10
15.2558698648
 20
2.8693200272
 30
0.0
 10
15.2501600003
 20
2.8702038645
 30
0.0
  0
SPLINE
  5
488
100
AcDbEntity
  8
RACCORDO
100
AcDbSpline
 62
7
  6
CONTINUOUS
 70
0
 71
3
 72
9
 73
5
 74
0
 42
0.0000001
 43
0.0000001
 44
0.0000000001
 40
0.0
 40
0.0
 40
0.0
 40
0.0
 40
0.4103506409
 40
1.0
 40
1.0
 40
1.0
 40
1.0
 10
15.2501600003
 20
2.8702038645
 30
0.0
 10
15.228133884
 20
2.8736133156
 30
0.0
 10
15.1727079696
 20
2.8647574298
 30
0.0
 10
15.1226873038
 20
2.8437496486
 30
0.0
 10
15.0939722511
 20
2.8295657245
 30
0.0
  0
SPLINE
  5
489
100
AcDbEntity
  8
DRAFT
100
AcDbSpline
 62
7
  6
CONTINUOUS
 70
0
 71
3
 72
11
 73
7
 74
0
 42
0.0000001
 43
0.0000001
 44
0.0000000001
 40
0.0
 40
0.0
 40
0.0
 40
0.0
 40
0.2171530838
 40
0.450569436
 40
0.710495887
 40
1.0
 40
1.0
 40
1.0
 40
1.0
 10
23.9593215579
 20
0.7444384022
 30
0.0
 10
23.8399297819
 20
0.6830320371
 30
0.0
 10
23.6144418197
 20
0.5079663127
 30
0.0
 10
23.3730934932
 20
0.1331251901
 30
0.0
 10
23.2286032618
 20
-0.3336641158
 30
0.0
 10
23.1998920768
 20
-0.6746197685
 30
0.0
 10
23.1998920768
 20
-0.8536094661
 30
0.0
  0
SPLINE
  5
48A
100
AcDbEntity
  8
0
100
AcDbSpline
 62
7
  6
CONTINUOUS
 70
0
 71
3
 72
11
 73
7
 74
0
 42
0.0000001
 43
0.0000001
 44
0.0000000001
 40
0.0
 40
0.0
 40
0.0
 40
0.0
 40
0.2211548534
 40
0.4558518906
 40
0.7140382247
 40
1.0
 40
1.0
 40
1.0
 40
1.0
 10
24.8743881644
 20
-0.5448868313
 30
0.0
 10
24.9263421133
 20
-0.5182011378
 30
0.0
 10
25.0436426722
 20
-0.4812972864
 30
0.0
 10
25.2347716576
 20
-0.4839204856
 30
0.0
 10
25.4344235311
 20
-0.5407858224
 30
0.0
 10
25.5620339531
 20
-0.6090797347
 30
0.0
 10
25.6254321219
 20
-0.6501194352
 30
0.0
  0
SPLINE
  5
48B
100
AcDbEntity
  8
0
100
AcDbSpline
 62
7
  6
CONTINUOUS
 70
0
 71
3
 72
11
 73
7
 74
0
 42
0.0000001
 43
0.0000001
 44
0.0000000001
 40
0.0
 40
0.0
 40
0.0
 40
0.0
 40
0.2409268075
 40
0.5000023924
 40
0.7590487736
 40
1.0
 40
1.0
 40
1.0
 40
1.0
 10
25.5369440142
 20
-0.5796464826
 30
0.0
 10
25.6792770721
 20
-0.6863700315
 30
0.0
 10
25.9429938548
 20
-0.9511251267
 30
0.0
 10
26.2450535161
 20
-1.427649444
 30
0.0
 10
26.4450584483
 20
-1.9552280065
 30
0.0
 10
26.4986106355
 20
-2.3250501393
 30
0.0
 10
26.4986106388
 20
-2.5029687471
 30
0.0
  0
SPLINE
  5
48C
100
AcDbEntity
  8
DRAFT
100
AcDbSpline
 62
7
  6
CONTINUOUS
 70
0
 71
3
 72
16
 73
12
 74
0
 42
0.0000001
 43
0.0000001
 44
0.0000000001
 40
0.0
 40
0.0
 40
0.0
 40
0.0
 40
0.1324995993
 40
0.2745977673
 40
0.4197958479
 40
0.5610064773
 40
0.691867553
 40
0.8080484714
 40
0.9089454682
 40
0.9552113372
 40
1.0
 40
1.0
 40
1.0
 40
1.0
 10
23.1998920768
 20
-0.8536094661
 30
0.0
 10
23.1998920768
 20
-1.1063024965
 30
0.0
 10
23.2621482738
 20
-1.6307870333
 30
0.0
 10
23.503271099
 20
-2.3981519246
 30
0.0
 10
23.8784094383
 20
-3.1286790314
 30
0.0
 10
24.3597206861
 20
-3.7676426723
 30
0.0
 10
24.9127831006
 20
-4.2679843143
 30
0.0
 10
25.4990074317
 20
-4.5934397111
 30
0.0
 10
26.0030855456
 20
-4.6959800512
 30
0.0
 10
26.3694426161
 20
-4.6545608367
 30
0.0
 10
26.5350572827
 20
-4.5966357315
 30
0.0
 10
26.6118565834
 20
-4.5592456971
 30
0.0
  0
SPLINE
  5
48D
100
AcDbEntity
  8
0
100
AcDbSpline
 62
7
  6
CONTINUOUS
 70
0
 71
3
 72
11
 73
7
 74
0
 42
0.0000001
 43
0.0000001
 44
0.0000000001
 40
0.0
 40
0.0
 40
0.0
 40
0.0
 40
0.2854377252
 40
0.5433416529
 40
0.7782267871
 40
1.0
 40
1.0
 40
1.0
 40
1.0
 10
26.4941106712
 20
-2.4056323592
 30
0.0
 10
26.4881275413
 20
-2.479280257
 30
0.0
 10
26.4651046976
 20
-2.6190424493
 30
0.0
 10
26.3903593448
 20
-2.8081126903
 30
0.0
 10
26.2787145925
 20
-2.9586506085
 30
0.0
 10
26.1805120836
 20
-3.0287704846
 30
0.0
 10
26.128876299
 20
-3.0538630749
 30
0.0
  0
SPLINE
  5
48E
100
AcDbEntity
  8
ASSI
100
AcDbSpline
 62
7
  6
CONTINUOUS
 70
0
 71
3
 72
9
 73
5
 74
0
 42
0.0000001
 43
0.0000001
 44
0.0000000001
 40
0.0
 40
0.0
 40
0.0
 40
0.0
 40
0.5364856013
 40
1.0
 40
1.0
 40
1.0
 40
1.0
 10
33.2514803991
 20
24.9216440397
 30
0.0
 10
33.1770281653
 20
24.9588701566
 30
0.0
 10
33.0252560262
 20
25.009257293
 30
0.0
 10
32.863711098
 20
24.9808212345
 30
0.0
 10
32.7998364382
 20
24.9477722764
 30
0.0
  0
SPLINE
  5
48F
100
AcDbEntity
  8
ASSI
100
AcDbSpline
 62
7
  6
CONTINUOUS
 70
0
 71
3
 72
9
 73
5
 74
0
 42
0.0000001
 43
0.0000001
 44
0.0000000001
 40
0.0
 40
0.0
 40
0.0
 40
0.0
 40
0.5364856013
 40
1.0
 40
1.0
 40
1.0
 40
1.0
 10
-1.396751879
 20
42.2457601788
 30
0.0
 10
-1.4712041128
 20
42.2829862957
 30
0.0
 10
-1.622976252
 20
42.3333734321
 30
0.0
 10
-1.7845211801
 20
42.3049373736
 30
0.0
 10
-1.84839584
 20
42.2718884155
 30
0.0
  0
SPLINE
  5
490
100
AcDbEntity
  8
ASSI
100
AcDbSpline
 62
7
  6
CONTINUOUS
 70
0
 71
3
 72
9
 73
5
 74
0
 42
0.0000001
 43
0.0000001
 44
0.0000000001
 40
0.0
 40
0.0
 40
0.0
 40
0.0
 40
0.5364856013
 40
1.0
 40
1.0
 40
1.0
 40
1.0
 10
32.0140435321
 20
-24.9489185674
 30
0.0
 10
31.9395912982
 20
-24.9116924505
 30
0.0
 10
31.7878191591
 20
-24.8613053141
 30
0.0
 10
31.6262742309
 20
-24.8897413726
 30
0.0
 10
31.5623995711
 20
-24.9227903307
 30
0.0
  0
SPLINE
  5
491
100
AcDbEntity
  8
DRAFT
100
AcDbSpline
 62
7
  6
CONTINUOUS
 70
0
 71
3
 72
11
 73
7
 74
0
 42
0.0000001
 43
0.0000001
 44
0.0000000001
 40
0.0
 40
0.0
 40
0.0
 40
0.0
 40
0.2397105371
 40
0.4974354727
 40
0.7565241989
 40
1.0
 40
1.0
 40
1.0
 40
1.0
 10
30.2462765791
 20
-1.5483745925
 30
0.0
 10
30.2462765791
 20
-1.2466989574
 30
0.0
 10
30.1588878374
 20
-0.6196423139
 30
0.0
 10
29.8300701101
 20
0.2801626207
 30
0.0
 10
29.3300968455
 20
1.1028749147
 30
0.0
 10
28.8926650124
 20
1.5689419324
 30
0.0
 10
28.6552863214
 20
1.762697011
 30
0.0
  0
SPLINE
  5
492
100
AcDbEntity
  8
DRAFT
100
AcDbSpline
 62
7
  6
CONTINUOUS
 70
0
 71
3
 72
9
 73
5
 74
0
 42
0.0000001
 43
0.0000001
 44
0.0000000001
 40
0.0
 40
0.0
 40
0.0
 40
0.0
 40
0.2733087121
 40
1.0
 40
1.0
 40
1.0
 40
1.0
 10
27.2287311043
 20
1.0500253607
 30
0.0
 10
27.1463154287
 20
1.1168081273
 30
0.0
 10
26.8341123742
 20
1.3463244648
 30
0.0
 10
26.4698571655
 20
1.5154518885
 30
0.0
 10
26.1927542421
 20
1.5680137918
 30
0.0
  0
SPLINE
  5
493
100
AcDbEntity
  8
RACCORDO
100
AcDbSpline
 62
7
  6
CONTINUOUS
 70
0
 71
3
 72
14
 73
10
 74
0
 42
0.0000001
 43
0.0000001
 44
0.0000000001
 40
0.0
 40
0.0
 40
0.0
 40
0.0
 40
0.0181787527
 40
0.0631033554
 40
0.1371318537
 40
0.2422755935
 40
0.3804833628
 40
0.5529826018
 40
1.0
 40
1.0
 40
1.0
 40
1.0
 10
29.1822495686
 20
31.7507627139
 30
0.0
 10
29.1811405523
 20
31.7513058985
 30
0.0
 10
29.1766746892
 20
31.7488269017
 30
0.0
 10
29.1686910536
 20
31.7455559257
 30
0.0
 10
29.1551850635
 20
31.7376647743
 30
0.0
 10
29.136744435
 20
31.7268607038
 30
0.0
 10
29.1127044796
 20
31.711877317
 30
0.0
 10
29.0693893126
 20
31.6841399331
 30
0.0
 10
29.0344290464
 20
31.6606688225
 30
0.0
 10
29.0093752689
 20
31.6435103062
 30
0.0
  0
SPLINE
  5
494
100
AcDbEntity
  8
ASSI
100
AcDbSpline
 62
7
  6
CONTINUOUS
 70
0
 71
3
 72
9
 73
5
 74
0
 42
0.0000001
 43
0.0000001
 44
0.0000000001
 40
0.0
 40
0.0
 40
0.0
 40
0.0
 40
0.5364856013
 40
1.0
 40
1.0
 40
1.0
 40
1.0
 10
15.9273642601
 20
33.5837021092
 30
0.0
 10
15.8529120262
 20
33.6209282262
 30
0.0
 10
15.7011398871
 20
33.6713153626
 30
0.0
 10
15.539594959
 20
33.642879304
 30
0.0
 10
15.4757202991
 20
33.609830346
 30
0.0
  0
SPLINE
  5
495
100
AcDbEntity
  8
DRAFT
100
AcDbSpline
 62
7
  6
CONTINUOUS
 70
0
 71
3
 72
11
 73
7
 74
0
 42
0.0000001
 43
0.0000001
 44
0.0000000001
 40
0.0
 40
0.0
 40
0.0
 40
0.0
 40
0.2171729744
 40
0.4502502577
 40
0.7100753573
 40
1.0
 40
1.0
 40
1.0
 40
1.0
 10
26.6118565834
 20
-4.5592456971
 30
0.0
 10
26.7341516217
 20
-4.4997058883
 30
0.0
 10
26.9660246827
 20
-4.3267661552
 30
0.0
 10
27.214804164
 20
-3.949755326
 30
0.0
 10
27.3636559727
 20
-3.4774760137
 30
0.0
 10
27.3931661448
 20
-3.1318305586
 30
0.0
 10
27.3931661448
 20
-2.9502465001
 30
0.0
  0
SPLINE
  5
496
100
AcDbEntity
  8
DRAFT
100
AcDbSpline
 62
7
  6
CONTINUOUS
 70
0
 71
3
 72
11
 73
7
 74
0
 42
0.0000001
 43
0.0000001
 44
0.0000000001
 40
0.0
 40
0.0
 40
0.0
 40
0.0
 40
0.2171690633
 40
0.4502585959
 40
0.7100399903
 40
1.0
 40
1.0
 40
1.0
 40
1.0
 10
29.4554066206
 20
-3.1765052849
 30
0.0
 10
29.5791991211
 20
-3.1163207912
 30
0.0
 10
29.8139135017
 20
-2.9413545445
 30
0.0
 10
30.0657011078
 20
-2.5598685533
 30
0.0
 10
30.2164244704
 20
-2.08194941
 30
0.0
 10
30.2462765791
 20
-1.7321585436
 30
0.0
 10
30.2462765791
 20
-1.5483745925
 30
0.0
  0
SPLINE
  5
497
100
AcDbEntity
  8
ASSI
100
AcDbSpline
 62
250
  6
CONTINUOUS
 70
0
 71
3
 72
13
 73
9
 74
0
 42
0.0000001
 43
0.0000001
 44
0.0000000001
 40
0.0
 40
0.0
 40
0.0
 40
0.0
 40
0.2998383172
 40
0.5754214969
 40
0.6973272815
 40
0.8071444428
 40
0.9065824391
 40
1.0
 40
1.0
 40
1.0
 40
1.0
 10
33.0300646409
 20
-30.1675594423
 30
0.0
 10
33.0976309274
 20
-30.2857561324
 30
0.0
 10
33.1995037402
 20
-30.5295242156
 30
0.0
 10
33.2430554867
 20
-30.8485982146
 30
0.0
 10
33.2123805712
 20
-31.0782819376
 30
0.0
 10
33.1604601925
 20
-31.2209896774
 30
0.0
 10
33.0796482845
 20
-31.3345363369
 30
0.0
 10
33.0071456905
 20
-31.3870952144
 30
0.0
 10
32.968975157
 20
-31.4055954212
 30
0.0
  0
SPLINE
  5
498
100
AcDbEntity
  8
ASSI
100
AcDbSpline
 62
250
  6
CONTINUOUS
 70
0
 71
3
 72
9
 73
5
 74
0
 42
0.0000001
 43
0.0000001
 44
0.0000000001
 40
0.0
 40
0.0
 40
0.0
 40
0.0
 40
0.5364162678
 40
1.0
 40
1.0
 40
1.0
 40
1.0
 10
32.5304051477
 20
24.5524045423
 30
0.0
 10
32.456756985
 20
24.5892286237
 30
0.0
 10
32.3066157525
 20
24.6390727503
 30
0.0
 10
32.1467962901
 20
24.6110608982
 30
0.0
 10
32.0835591003
 20
24.5784269886
 30
0.0
  0
SPLINE
  5
499
100
AcDbEntity
  8
ASSI
100
AcDbSpline
 62
250
  6
CONTINUOUS
 70
0
 71
3
 72
15
 73
11
 74
0
 42
0.0000001
 43
0.0000001
 44
0.0000000001
 40
0.0
 40
0.0
 40
0.0
 40
0.0
 40
0.1238880282
 40
0.2619386989
 40
0.407256763
 40
0.5515324126
 40
0.6865759818
 40
0.8063246795
 40
0.9090549555
 40
1.0
 40
1.0
 40
1.0
 40
1.0
 10
32.5304051477
 20
24.5524045423
 30
0.0
 10
32.6072803743
 20
24.513966929
 30
0.0
 10
32.7571113345
 20
24.4067789946
 30
0.0
 10
32.9455938142
 20
24.1939718293
 30
0.0
 10
33.0971686251
 20
23.9368567549
 30
0.0
 10
33.1983835091
 20
23.6583559747
 30
0.0
 10
33.2403241238
 20
23.3825382334
 30
0.0
 10
33.2185675515
 20
23.1325047042
 30
0.0
 10
33.1317225852
 20
22.9276754554
 30
0.0
 10
33.0257523499
 20
22.8351131981
 30
0.0
 10
32.968975157
 20
22.8075948557
 30
0.0
  0
SPLINE
  5
49A
100
AcDbEntity
  8
ASSI
100
AcDbSpline
 62
250
  6
CONTINUOUS
 70
0
 71
3
 72
9
 73
5
 74
0
 42
0.0000001
 43
0.0000001
 44
0.0000000001
 40
0.0
 40
0.0
 40
0.0
 40
0.0
 40
0.5364162678
 40
1.0
 40
1.0
 40
1.0
 40
1.0
 10
15.2062890086
 20
33.2144626119
 30
0.0
 10
15.1326408459
 20
33.2512866932
 30
0.0
 10
14.9824996134
 20
33.3011308199
 30
0.0
 10
14.822680151
 20
33.2731189678
 30
0.0
 10
14.7594429612
 20
33.2404850582
 30
0.0
  0
SPLINE
  5
49B
100
AcDbEntity
  8
ASSI
100
AcDbSpline
 62
250
  6
CONTINUOUS
 70
0
 71
3
 72
15
 73
11
 74
0
 42
0.0000001
 43
0.0000001
 44
0.0000000001
 40
0.0
 40
0.0
 40
0.0
 40
0.0
 40
0.1238880282
 40
0.2619386989
 40
0.407256763
 40
0.5515324126
 40
0.6865759818
 40
0.8063246795
 40
0.9090549555
 40
1.0
 40
1.0
 40
1.0
 40
1.0
 10
15.2062890086
 20
33.2144626119
 30
0.0
 10
15.2831642352
 20
33.1760249985
 30
0.0
 10
15.4329951955
 20
33.0688370641
 30
0.0
 10
15.6214776752
 20
32.8560298989
 30
0.0
 10
15.773052486
 20
32.5989148244
 30
0.0
 10
15.87426737
 20
32.3204140442
 30
0.0
 10
15.9162079847
 20
32.044596303
 30
0.0
 10
15.8944514124
 20
31.7945627738
 30
0.0
 10
15.8076064461
 20
31.589733525
 30
0.0
 10
15.7016362109
 20
31.4971712676
 30
0.0
 10
15.6448590179
 20
31.4696529252
 30
0.0
  0
SPLINE
  5
49C
100
AcDbEntity
  8
ASSI
100
AcDbSpline
 62
250
  6
CONTINUOUS
 70
0
 71
3
 72
9
 73
5
 74
0
 42
0.0000001
 43
0.0000001
 44
0.0000000001
 40
0.0
 40
0.0
 40
0.0
 40
0.0
 40
0.5364162678
 40
1.0
 40
1.0
 40
1.0
 40
1.0
 10
-2.1178271305
 20
41.8765206814
 30
0.0
 10
-2.1914752931
 20
41.9133447627
 30
0.0
 10
-2.3416165256
 20
41.9631888894
 30
0.0
 10
-2.501435988
 20
41.9351770373
 30
0.0
 10
-2.5646731779
 20
41.9025431277
 30
0.0
  0
SPLINE
  5
49D
100
AcDbEntity
  8
ASSI
100
AcDbSpline
 62
250
  6
CONTINUOUS
 70
0
 71
3
 72
15
 73
11
 74
0
 42
0.0000001
 43
0.0000001
 44
0.0000000001
 40
0.0
 40
0.0
 40
0.0
 40
0.0
 40
0.1238880282
 40
0.2619386989
 40
0.407256763
 40
0.5515324126
 40
0.6865759818
 40
0.8063246795
 40
0.9090549555
 40
1.0
 40
1.0
 40
1.0
 40
1.0
 10
-2.1178271305
 20
41.8765206814
 30
0.0
 10
-2.0409519038
 20
41.8380830681
 30
0.0
 10
-1.8911209436
 20
41.7308951336
 30
0.0
 10
-1.7026384639
 20
41.5180879684
 30
0.0
 10
-1.551063653
 20
41.260972894
 30
0.0
 10
-1.449848769
 20
40.9824721137
 30
0.0
 10
-1.4079081544
 20
40.7066543725
 30
0.0
 10
-1.4296647266
 20
40.4566208433
 30
0.0
 10
-1.516509693
 20
40.2517915945
 30
0.0
 10
-1.6224799282
 20
40.1592293372
 30
0.0
 10
-1.6792571211
 20
40.1317109947
 30
0.0
  0
SPLINE
  5
49E
100
AcDbEntity
  8
ASSI
100
AcDbSpline
 62
250
  6
CONTINUOUS
 70
0
 71
3
 72
9
 73
5
 74
0
 42
0.0000001
 43
0.0000001
 44
0.0000000001
 40
0.0
 40
0.0
 40
0.0
 40
0.0
 40
0.5364162678
 40
1.0
 40
1.0
 40
1.0
 40
1.0
 10
31.2929682806
 20
-25.3181580648
 30
0.0
 10
31.2193201179
 20
-25.2813339834
 30
0.0
 10
31.0691788854
 20
-25.2314898568
 30
0.0
 10
30.909359423
 20
-25.2595017089
 30
0.0
 10
30.8461222332
 20
-25.2921356185
 30
0.0
  0
SPLINE
  5
49F
100
AcDbEntity
  8
ASSI
100
AcDbSpline
 62
250
  6
CONTINUOUS
 70
0
 71
3
 72
15
 73
11
 74
0
 42
0.0000001
 43
0.0000001
 44
0.0000000001
 40
0.0
 40
0.0
 40
0.0
 40
0.0
 40
0.1238880282
 40
0.2619386989
 40
0.407256763
 40
0.5515324126
 40
0.6865759818
 40
0.8063246795
 40
0.9090549555
 40
1.0
 40
1.0
 40
1.0
 40
1.0
 10
31.2929682806
 20
-25.3181580648
 30
0.0
 10
31.3698435072
 20
-25.3565956781
 30
0.0
 10
31.5196744675
 20
-25.4637836125
 30
0.0
 10
31.7081569472
 20
-25.6765907778
 30
0.0
 10
31.859731758
 20
-25.9337058522
 30
0.0
 10
31.960946642
 20
-26.2122066324
 30
0.0
 10
32.0028872567
 20
-26.4880243737
 30
0.0
 10
31.9811306844
 20
-26.7380579029
 30
0.0
 10
31.8942857181
 20
-26.9428871517
 30
0.0
 10
31.7883154829
 20
-27.035449409
 30
0.0
 10
31.7315382899
 20
-27.0629677514
 30
0.0
  0
SPLINE
  5
4A0
100
AcDbEntity
  8
ASSI
100
AcDbSpline
 62
250
  6
CONTINUOUS
 70
0
 71
3
 72
9
 73
5
 74
0
 42
0.0000001
 43
0.0000001
 44
0.0000000001
 40
0.0
 40
0.0
 40
0.0
 40
0.0
 40
0.504971192
 40
1.0
 40
1.0
 40
1.0
 40
1.0
 10
-0.5662288891
 20
37.2856239374
 30
0.0
 10
-0.4611181427
 20
37.1683921565
 30
0.0
 10
-0.2912398499
 20
36.9008692034
 30
0.0
 10
-0.2022366837
 20
36.5959988395
 30
0.0
 10
-0.1864837461
 20
36.4424515426
 30
0.0
  0
SPLINE
  5
4A1
100
AcDbEntity
  8
DRAFT
100
AcDbSpline
 62
7
  6
CONTINUOUS
 70
0
 71
3
 72
16
 73
12
 74
0
 42
0.0000001
 43
0.0000001
 44
0.0000000001
 40
0.0
 40
0.0
 40
0.0
 40
0.0
 40
0.1327653423
 40
0.2751668792
 40
0.4206075992
 40
0.5619049413
 40
0.692639597
 40
0.8084998481
 40
0.9090330729
 40
0.9552004737
 40
1.0
 40
1.0
 40
1.0
 40
1.0
 10
27.3931661448
 20
-2.9502465001
 30
0.0
 10
27.3931661448
 20
-2.6959779279
 30
0.0
 10
27.3301367724
 20
-2.168183902
 30
0.0
 10
27.0862640573
 20
-1.3964497645
 30
0.0
 10
26.7071200723
 20
-0.6626647691
 30
0.0
 10
26.2211549999
 20
-0.0224102656
 30
0.0
 10
25.6634703884
 20
0.4766226455
 30
0.0
 10
25.0732493672
 20
0.7979027028
 30
0.0
 10
24.5667953175
 20
0.8937285228
 30
0.0
 10
24.2005132152
 20
0.8453714762
 30
0.0
 10
24.035620146
 20
0.783680795
 30
0.0
 10
23.9593215579
 20
0.7444384022
 30
0.0
  0
SPLINE
  5
4A2
100
AcDbEntity
  8
0
100
AcDbSpline
 62
7
  6
CONTINUOUS
 70
0
 71
3
 72
19
 73
15
 74
0
 42
0.0000001
 43
0.0000001
 44
0.0000000001
 40
0.0
 40
0.0
 40
0.0
 40
0.0
 40
0.0634981722
 40
0.1212667693
 40
0.1735834513
 40
0.2219454469
 40
0.2688055046
 40
0.317091955
 40
0.3692948849
 40
0.4268869412
 40
0.5585183012
 40
0.7066889088
 40
0.858548692
 40
1.0
 40
1.0
 40
1.0
 40
1.0
 10
26.4986106388
 20
-2.5029687471
 30
0.0
 10
26.4986106337
 20
-2.5951491618
 30
0.0
 10
26.4851660688
 20
-2.7716907762
 30
0.0
 10
26.4187983349
 20
-3.0166222859
 30
0.0
 10
26.3079379233
 20
-3.2210493372
 30
0.0
 10
26.1550334006
 20
-3.3757754419
 30
0.0
 10
25.9657151827
 20
-3.4714145958
 30
0.0
 10
25.7506921418
 20
-3.5025807038
 30
0.0
 10
25.5209139858
 20
-3.470192354
 30
0.0
 10
25.1923231617
 20
-3.3412857256
 30
0.0
 10
24.7992445206
 20
-3.0331981701
 30
0.0
 10
24.4218438221
 20
-2.5259601497
 30
0.0
 10
24.1653287905
 20
-1.9327639555
 30
0.0
 10
24.0944475866
 20
-1.5062323461
 30
0.0
 10
24.0944475828
 20
-1.3008872191
 30
0.0
  0
SPLINE
  5
4A3
100
AcDbEntity
  8
0
100
AcDbSpline
 62
7
  6
CONTINUOUS
 70
0
 71
3
 72
15
 73
11
 74
0
 42
0.0000001
 43
0.0000001
 44
0.0000000001
 40
0.0
 40
0.0
 40
0.0
 40
0.0
 40
0.1448461574
 40
0.2748043109
 40
0.3914168134
 40
0.4999973125
 40
0.6085729284
 40
0.7252027055
 40
0.8551264147
 40
1.0
 40
1.0
 40
1.0
 40
1.0
 10
24.0944475828
 20
-1.3008872191
 30
0.0
 10
24.0944475885
 20
-1.1975135628
 30
0.0
 10
24.1111772076
 20
-1.0006453653
 30
0.0
 10
24.1952008048
 20
-0.7314188669
 30
0.0
 10
24.3359862727
 20
-0.5157856801
 30
0.0
 10
24.5296701366
 20
-0.3682227739
 30
0.0
 10
24.7639416413
 20
-0.3017771965
 30
0.0
 10
25.0208995365
 20
-0.3185763017
 30
0.0
 10
25.2867200899
 20
-0.4128385702
 30
0.0
 10
25.4542221086
 20
-0.5176203063
 30
0.0
 10
25.5369440142
 20
-0.5796464826
 30
0.0
  0
SPLINE
  5
4A4
100
AcDbEntity
  8
0
100
AcDbSpline
 62
7
  6
CONTINUOUS
 70
0
 71
3
 72
11
 73
7
 74
0
 42
0.0000001
 43
0.0000001
 44
0.0000000001
 40
0.0
 40
0.0
 40
0.0
 40
0.0
 40
0.2894284041
 40
0.5494664154
 40
0.7828425953
 40
1.0
 40
1.0
 40
1.0
 40
1.0
 10
24.5150411867
 20
-1.3008872469
 30
0.0
 10
24.5150411851
 20
-1.2162295244
 30
0.0
 10
24.5286645791
 20
-1.054922004
 30
0.0
 10
24.5969776556
 20
-0.8340624364
 30
0.0
 10
24.711237662
 20
-0.6567585729
 30
0.0
 10
24.8178871568
 20
-0.573908082
 30
0.0
 10
24.8743881644
 20
-0.5448868313
 30
0.0
  0
SPLINE
  5
4A5
100
AcDbEntity
  8
0
100
AcDbSpline
 62
7
  6
CONTINUOUS
 70
0
 71
3
 72
15
 73
11
 74
0
 42
0.0000001
 43
0.0000001
 44
0.0000000001
 40
0.0
 40
0.0
 40
0.0
 40
0.0
 40
0.0905552617
 40
0.1915078541
 40
0.3077638402
 40
0.438691508
 40
0.5799867942
 40
0.7252527175
 40
0.8674419739
 40
1.0
 40
1.0
 40
1.0
 40
1.0
 10
26.128876299
 20
-3.0538630749
 30
0.0
 10
26.055444545
 20
-3.0895474926
 30
0.0
 10
25.879980973
 20
-3.1271835822
 30
0.0
 10
25.602772651
 20
-3.0697082423
 30
0.0
 10
25.3250818378
 20
-2.9159886066
 30
0.0
 10
25.063622878
 20
-2.6792162062
 30
0.0
 10
24.835942518
 20
-2.3770035069
 30
0.0
 10
24.6585108259
 20
-2.0314449301
 30
0.0
 10
24.5444921085
 20
-1.6684802926
 30
0.0
 10
24.515041189
 20
-1.4203993717
 30
0.0
 10
24.5150411867
 20
-1.3008872469
 30
0.0
  0
SPLINE
  5
4A6
100
AcDbEntity
  8
ASSI
100
AcDbSpline
 62
7
  6
CONTINUOUS
 70
0
 71
3
 72
9
 73
5
 74
0
 42
0.0000001
 43
0.0000001
 44
0.0000000001
 40
0.0
 40
0.0
 40
0.0
 40
0.0
 40
0.5299890476
 40
1.0
 40
1.0
 40
1.0
 40
1.0
 10
0.3840965885
 20
37.319505336
 30
0.0
 10
0.3195718934
 20
37.446622901
 30
0.0
 10
0.1669574086
 20
37.6719278286
 30
0.0
 10
-0.046238441
 20
37.8465942235
 30
0.0
 10
-0.1593150119
 20
37.903132509
 30
0.0
  0
SPLINE
  5
4A7
100
AcDbEntity
  8
ASSI
100
AcDbSpline
 62
7
  6
CONTINUOUS
 70
0
 71
3
 72
15
 73
11
 74
0
 42
0.0000001
 43
0.0000001
 44
0.0000000001
 40
0.0
 40
0.0
 40
0.0
 40
0.0
 40
0.0909507123
 40
0.1936925203
 40
0.3134519495
 40
0.4485040996
 40
0.5927742036
 40
0.7380983927
 40
0.8761036081
 40
1.0
 40
1.0
 40
1.0
 40
1.0
 10
32.4573165172
 20
-26.7112972026
 30
0.0
 10
32.5146332463
 20
-26.683432468
 30
0.0
 10
32.6216526141
 20
-26.5899320826
 30
0.0
 10
32.7092523023
 20
-26.3829637093
 30
0.0
 10
32.7311895028
 20
-26.130410124
 30
0.0
 10
32.6887557242
 20
-25.8518256197
 30
0.0
 10
32.586514753
 20
-25.5705295069
 30
0.0
 10
32.4333612567
 20
-25.3109093511
 30
0.0
 10
32.2430277746
 20
-25.0959651868
 30
0.0
 10
32.091694852
 20
-24.9877442274
 30
0.0
 10
32.0140435321
 20
-24.9489185674
 30
0.0
  0
SPLINE
  5
4A8
100
AcDbEntity
  8
ASSI
100
AcDbSpline
 62
7
  6
CONTINUOUS
 70
0
 71
3
 72
15
 73
11
 74
0
 42
0.0000001
 43
0.0000001
 44
0.0000000001
 40
0.0
 40
0.0
 40
0.0
 40
0.0
 40
0.0909507123
 40
0.1936925203
 40
0.3134519495
 40
0.4485040996
 40
0.5927742036
 40
0.7380983927
 40
0.8761036081
 40
1.0
 40
1.0
 40
1.0
 40
1.0
 10
-0.9534788939
 20
40.4833815436
 30
0.0
 10
-0.8961621648
 20
40.5112462782
 30
0.0
 10
-0.7891427969
 20
40.6047466636
 30
0.0
 10
-0.7015431088
 20
40.8117150368
 30
0.0
 10
-0.6796059083
 20
41.0642686222
 30
0.0
 10
-0.7220396869
 20
41.3428531265
 30
0.0
 10
-0.824280658
 20
41.6241492393
 30
0.0
 10
-0.9774341543
 20
41.8837693951
 30
0.0
 10
-1.1677676365
 20
42.0987135593
 30
0.0
 10
-1.319100559
 20
42.2069345188
 30
0.0
 10
-1.396751879
 20
42.2457601788
 30
0.0
  0
SPLINE
  5
4A9
100
AcDbEntity
  8
ASSI
100
AcDbSpline
 62
7
  6
CONTINUOUS
 70
0
 71
3
 72
15
 73
11
 74
0
 42
0.0000001
 43
0.0000001
 44
0.0000000001
 40
0.0
 40
0.0
 40
0.0
 40
0.0
 40
0.0909507123
 40
0.1936925203
 40
0.3134519495
 40
0.4485040996
 40
0.5927742036
 40
0.7380983927
 40
0.8761036081
 40
1.0
 40
1.0
 40
1.0
 40
1.0
 10
16.3706372452
 20
31.821323474
 30
0.0
 10
16.4279539743
 20
31.8491882086
 30
0.0
 10
16.5349733422
 20
31.942688594
 30
0.0
 10
16.6225730303
 20
32.1496569673
 30
0.0
 10
16.6445102308
 20
32.4022105526
 30
0.0
 10
16.6020764522
 20
32.6807950569
 30
0.0
 10
16.499835481
 20
32.9620911698
 30
0.0
 10
16.3466819847
 20
33.2217113255
 30
0.0
 10
16.1563485026
 20
33.4366554898
 30
0.0
 10
16.00501558
 20
33.5448764493
 30
0.0
 10
15.9273642601
 20
33.5837021092
 30
0.0
  0
SPLINE
  5
4AA
100
AcDbEntity
  8
ASSI
100
AcDbSpline
 62
7
  6
CONTINUOUS
 70
0
 71
3
 72
15
 73
11
 74
0
 42
0.0000001
 43
0.0000001
 44
0.0000000001
 40
0.0
 40
0.0
 40
0.0
 40
0.0
 40
0.0909507123
 40
0.1936925203
 40
0.3134519495
 40
0.4485040996
 40
0.5927742036
 40
0.7380983927
 40
0.8761036081
 40
1.0
 40
1.0
 40
1.0
 40
1.0
 10
33.6947533843
 20
23.1592654045
 30
0.0
 10
33.7520701133
 20
23.1871301391
 30
0.0
 10
33.8590894812
 20
23.2806305245
 30
0.0
 10
33.9466891693
 20
23.4875988978
 30
0.0
 10
33.9686263699
 20
23.7401524831
 30
0.0
 10
33.9261925912
 20
24.0187369874
 30
0.0
 10
33.8239516201
 20
24.3000331002
 30
0.0
 10
33.6707981238
 20
24.559653256
 30
0.0
 10
33.4804646416
 20
24.7745974203
 30
0.0
 10
33.3291317191
 20
24.8828183797
 30
0.0
 10
33.2514803991
 20
24.9216440397
 30
0.0
  0
SPLINE
  5
4AB
100
AcDbEntity
  8
ASSI
100
AcDbSpline
 62
7
  6
CONTINUOUS
 70
0
 71
3
 72
13
 73
9
 74
0
 42
0.0000001
 43
0.0000001
 44
0.0000000001
 40
0.0
 40
0.0
 40
0.0
 40
0.0
 40
0.0934887625
 40
0.1929708923
 40
0.3027598022
 40
0.4246163512
 40
0.7000711237
 40
1.0
 40
1.0
 40
1.0
 40
1.0
 10
33.6947533843
 20
-31.0539248724
 30
0.0
 10
33.7331457371
 20
-31.0352602916
 30
0.0
 10
33.806161277
 20
-30.9824811826
 30
0.0
 10
33.8874609126
 20
-30.8682647098
 30
0.0
 10
33.9400042908
 20
-30.7249169305
 30
0.0
 10
33.9713394792
 20
-30.4940899857
 30
0.0
 10
33.9283765981
 20
-30.1731784647
 30
0.0
 10
33.8267166866
 20
-29.9277391834
 30
0.0
 10
33.7591481172
 20
-29.8086141206
 30
0.0
  0
SPLINE
  5
4AC
100
AcDbEntity
  8
RACCORDO
100
AcDbSpline
 62
7
  6
CONTINUOUS
 70
0
 71
3
 72
11
 73
7
 74
0
 42
0.0000001
 43
0.0000001
 44
0.0000000001
 40
0.0
 40
0.0
 40
0.0
 40
0.0
 40
0.2896722685
 40
0.5497194541
 40
0.7828315265
 40
1.0
 40
1.0
 40
1.0
 40
1.0
 10
34.4535626056
 20
-29.0539713446
 30
0.0
 10
34.4535626056
 20
-29.1149964064
 30
0.0
 10
34.4436144673
 20
-29.2312400455
 30
0.0
 10
34.3937967283
 20
-29.3901606937
 30
0.0
 10
34.3103770757
 20
-29.517196211
 30
0.0
 10
34.2326115271
 20
-29.5756353687
 30
0.0
 10
34.1915774376
 20
-29.5958673572
 30
0.0
  0
SPLINE
  5
4AD
100
AcDbEntity
  8
DRAFT
100
AcDbSpline
 62
7
  6
CONTINUOUS
 70
0
 71
3
 72
16
 73
12
 74
0
 42
0.0000001
 43
0.0000001
 44
0.0000000001
 40
0.0
 40
0.0
 40
0.0
 40
0.0
 40
0.1325351507
 40
0.2746795522
 40
0.4199125901
 40
0.5611362337
 40
0.6919772788
 40
0.8081135831
 40
0.9089564825
 40
0.9552100142
 40
1.0
 40
1.0
 40
1.0
 40
1.0
 10
-11.2880191618
 20
-9.8433154288
 30
0.0
 10
-11.2880191618
 20
-9.6205520475
 30
0.0
 10
-11.342950362
 20
-9.1581751015
 30
0.0
 10
-11.5556653282
 20
-8.4817346137
 30
0.0
 10
-11.8865850506
 20
-7.8378752729
 30
0.0
 10
-12.3111141667
 20
-7.2749269453
 30
0.0
 10
-12.7988252382
 20
-6.834400435
 30
0.0
 10
-13.3156750064
 20
-6.5482536529
 30
0.0
 10
-13.7599507437
 20
-6.4588285229
 30
0.0
 10
-14.0826545608
 20
-6.4960617826
 30
0.0
 10
-14.2284191937
 20
-6.5476210063
 30
0.0
 10
-14.2960113095
 20
-6.5807684153
 30
0.0
  0
SPLINE
  5
4AE
100
AcDbEntity
  8
DRAFT
100
AcDbSpline
 62
7
  6
CONTINUOUS
 70
0
 71
3
 72
13
 73
9
 74
0
 42
0.0000001
 43
0.0000001
 44
0.0000000001
 40
0.0
 40
0.0
 40
0.0
 40
0.0
 40
0.3015505737
 40
0.5727373307
 40
0.6930815964
 40
0.8028733779
 40
0.9039748056
 40
1.0
 40
1.0
 40
1.0
 40
1.0
 10
-21.0378053366
 20
-3.3421295616
 30
0.0
 10
-21.1935671626
 20
-3.0790192208
 30
0.0
 10
-21.543777631
 20
-2.6091696541
 30
0.0
 10
-22.0965797452
 20
-2.1578234958
 30
0.0
 10
-22.5614627822
 20
-1.945537888
 30
0.0
 10
-22.8915045536
 20
-1.8696038471
 30
0.0
 10
-23.2061218941
 20
-1.8748758164
 30
0.0
 10
-23.4002283339
 20
-1.9352546077
 30
0.0
 10
-23.4878002104
 20
-1.9778127449
 30
0.0
  0
SPLINE
  5
4AF
100
AcDbEntity
  8
DRAFT
100
AcDbSpline
 62
7
  6
CONTINUOUS
 70
0
 71
3
 72
16
 73
12
 74
0
 42
0.0000001
 43
0.0000001
 44
0.0000000001
 40
0.0
 40
0.0
 40
0.0
 40
0.0
 40
0.128474807
 40
0.2681770638
 40
0.4126856763
 40
0.5547132429
 40
0.6874049278
 40
0.8057768252
 40
0.9083897899
 40
0.9551127853
 40
1.0
 40
1.0
 40
1.0
 40
1.0
 10
-6.7653832681
 20
-10.5217692669
 30
0.0
 10
-6.7792597544
 20
-10.7327420317
 30
0.0
 10
-6.7509966617
 20
-11.1775417525
 30
0.0
 10
-6.57509579
 20
-11.8370733467
 30
0.0
 10
-6.2773680752
 20
-12.4761677022
 30
0.0
 10
-5.8808375436
 20
-13.0451435324
 30
0.0
 10
-5.4150345547
 20
-13.5005853384
 30
0.0
 10
-4.9142037905
 20
-13.8081407833
 30
0.0
 10
-4.4779461347
 20
-13.9215626225
 30
0.0
 10
-4.156524814
 20
-13.9041854508
 30
0.0
 10
-4.0100579588
 20
-13.8622788665
 30
0.0
 10
-3.9419176186
 20
-13.8337537837
 30
0.0
  0
SPLINE
  5
4B0
100
AcDbEntity
  8
DRAFT
100
AcDbSpline
 62
7
  6
CONTINUOUS
 70
0
 71
3
 72
9
 73
5
 74
0
 42
0.0000001
 43
0.0000001
 44
0.0000000001
 40
0.0
 40
0.0
 40
0.0
 40
0.0
 40
0.4845362172
 40
1.0
 40
1.0
 40
1.0
 40
1.0
 10
-2.7623610465
 20
-15.852476838
 30
0.0
 10
-2.666066209
 20
-15.8030429019
 30
0.0
 10
-2.48365908
 20
-15.6663896758
 30
0.0
 10
-2.3528185445
 20
-15.4811688088
 30
0.0
 10
-2.2984762319
 20
-15.3796466147
 30
0.0
  0
SPLINE
  5
4B1
100
AcDbEntity
  8
DRAFT
100
AcDbSpline
 62
7
  6
CONTINUOUS
 70
0
 71
3
 72
9
 73
5
 74
0
 42
0.0000001
 43
0.0000001
 44
0.0000000001
 40
0.0
 40
0.0
 40
0.0
 40
0.0
 40
0.2530680968
 40
1.0
 40
1.0
 40
1.0
 40
1.0
 10
-2.3364820348
 20
-13.1920763598
 30
0.0
 10
-2.3809241249
 20
-13.0748682767
 30
0.0
 10
-2.5773262
 20
-12.6200182616
 30
0.0
 10
-2.8525037462
 20
-12.1980145691
 30
0.0
 10
-3.0979763816
 20
-11.9212046398
 30
0.0
  0
SPLINE
  5
4B2
100
AcDbEntity
  8
DRAFT
100
AcDbSpline
 62
7
  6
CONTINUOUS
 70
0
 71
3
 72
19
 73
15
 74
0
 42
0.0000001
 43
0.0000001
 44
0.0000000001
 40
0.0
 40
0.0
 40
0.0
 40
0.0
 40
0.0470616074
 40
0.0969155865
 40
0.1514821391
 40
0.2116337277
 40
0.3473772099
 40
0.4968788534
 40
0.647110487
 40
0.7847896977
 40
0.846125006
 40
0.9018126261
 40
0.9525286669
 40
1.0
 40
1.0
 40
1.0
 40
1.0
 10
-18.7166879371
 20
-7.8079324154
 30
0.0
 10
-18.6278877644
 20
-7.7622115179
 30
0.0
 10
-18.4592730774
 20
-7.6376304215
 30
0.0
 10
-18.2668985605
 20
-7.375137716
 30
0.0
 10
-18.1362164806
 20
-7.0478951945
 30
0.0
 10
-18.0443429012
 20
-6.5213396536
 30
0.0
 10
-18.1098520175
 20
-5.779173675
 30
0.0
 10
-18.4189985338
 20
-4.899938252
 30
0.0
 10
-18.9203248805
 20
-4.1093979769
 30
0.0
 10
-19.4658404866
 20
-3.5908514891
 30
0.0
 10
-19.9403215984
 20
-3.3261637654
 30
0.0
 10
-20.2820741182
 20
-3.216578314
 30
0.0
 10
-20.6115965841
 20
-3.1941199807
 30
0.0
 10
-20.8184780624
 20
-3.2416276079
 30
0.0
 10
-20.9118033033
 20
-3.2795845531
 30
0.0
  0
SPLINE
  5
4B3
100
AcDbEntity
  8
DRAFT
100
AcDbSpline
 62
7
  6
CONTINUOUS
 70
0
 71
3
 72
17
 73
13
 74
0
 42
0.0000001
 43
0.0000001
 44
0.0000000001
 40
0.0
 40
0.0
 40
0.0
 40
0.0
 40
0.1143951179
 40
0.2456666334
 40
0.3882460266
 40
0.5336847652
 40
0.6728906569
 40
0.7982185237
 40
0.8544501975
 40
0.9062984951
 40
0.9543984036
 40
1.0
 40
1.0
 40
1.0
 40
1.0
 10
-22.6243745601
 20
-1.9386362196
 30
0.0
 10
-22.7016184984
 20
-2.1411375847
 30
0.0
 10
-22.7812299257
 20
-2.6092932578
 30
0.0
 10
-22.7095893499
 20
-3.347066135
 30
0.0
 10
-22.4675744223
 20
-4.1094149374
 30
0.0
 10
-22.0773777029
 20
-4.824342412
 30
0.0
 10
-21.5764530593
 20
-5.4245763818
 30
0.0
 10
-21.0857672859
 20
-5.7965855813
 30
0.0
 10
-20.6797008813
 20
-5.9763750281
 30
0.0
 10
-20.3903684367
 20
-6.046819114
 30
0.0
 10
-20.1124918339
 20
-6.0548810548
 30
0.0
 10
-19.9368220649
 20
-6.0166444489
 30
0.0
 10
-19.8555659636
 20
-5.9872865118
 30
0.0
  0
SPLINE
  5
4B4
100
AcDbEntity
  8
DRAFT
100
AcDbSpline
 62
7
  6
CONTINUOUS
 70
0
 71
3
 72
11
 73
7
 74
0
 42
0.0000001
 43
0.0000001
 44
0.0000000001
 40
0.0
 40
0.0
 40
0.0
 40
0.0
 40
0.2171574194
 40
0.4504919622
 40
0.710442075
 40
1.0
 40
1.0
 40
1.0
 40
1.0
 10
-11.9606044763
 20
-11.2527470056
 30
0.0
 10
-11.854938544
 20
-11.198998298
 30
0.0
 10
-11.6553116061
 20
-11.0450786878
 30
0.0
 10
-11.441417174
 20
-10.7145926545
 30
0.0
 10
-11.3134718943
 20
-10.3024924656
 30
0.0
 10
-11.2880191618
 20
-10.0013907404
 30
0.0
 10
-11.2880191618
 20
-9.8433154288
 30
0.0
  0
SPLINE
  5
4B5
100
AcDbEntity
  8
DRAFT
100
AcDbSpline
 62
7
  6
CONTINUOUS
 70
0
 71
3
 72
9
 73
5
 74
0
 42
0.0000001
 43
0.0000001
 44
0.0000000001
 40
0.0
 40
0.0
 40
0.0
 40
0.0
 40
0.5393431419
 40
1.0
 40
1.0
 40
1.0
 40
1.0
 10
-19.6239443929
 20
-5.8667213502
 30
0.0
 10
-19.4389778
 20
-6.1641353815
 30
0.0
 10
-19.0249863514
 20
-6.6747300203
 30
0.0
 10
-18.4602755726
 20
-7.0365481978
 30
0.0
 10
-18.1749968089
 20
-7.1265595179
 30
0.0
  0
SPLINE
  5
4B6
100
AcDbEntity
  8
DRAFT
100
AcDbSpline
 62
7
  6
CONTINUOUS
 70
0
 71
3
 72
9
 73
5
 74
0
 42
0.0000001
 43
0.0000001
 44
0.0000000001
 40
0.0
 40
0.0
 40
0.0
 40
0.0
 40
0.5380467836
 40
1.0
 40
1.0
 40
1.0
 40
1.0
 10
-3.8170773757
 20
-13.7701548588
 30
0.0
 10
-3.6277690938
 20
-14.0927728545
 30
0.0
 10
-3.197444894
 20
-14.6497476879
 30
0.0
 10
-2.6032930217
 20
-15.0522012769
 30
0.0
 10
-2.2998551458
 20
-15.1574034202
 30
0.0
  0
LINE
  5
4B7
100
AcDbEntity
  8
DRAFT
100
AcDbLine
 62
7
  6
CONTINUOUS
 10
-5.2316435568
 20
-14.4977960112
 11
-3.9246806343
 21
-13.8255066901
  0
LINE
  5
4B8
100
AcDbEntity
  8
DRAFT
100
AcDbLine
 62
7
  6
CONTINUOUS
 10
-21.0378053366
 20
-6.5947151213
 11
-19.7433211482
 21
-5.928189579
  0
SPLINE
  5
4B9
100
AcDbEntity
  8
DRAFT
100
AcDbSpline
 62
7
  6
CONTINUOUS
 70
0
 71
3
 72
11
 73
7
 74
0
 42
0.0000001
 43
0.0000001
 44
0.0000000001
 40
0.0
 40
0.0
 40
0.0
 40
0.0
 40
0.2729569274
 40
0.5398198648
 40
0.7854987969
 40
1.0
 40
1.0
 40
1.0
 40
1.0
 10
-13.3468564772
 20
-8.4496832177
 30
0.0
 10
-13.2564337621
 20
-8.7049782651
 30
0.0
 10
-13.0275838379
 20
-9.1934687854
 30
0.0
 10
-12.5670075036
 20
-9.8283797284
 30
0.0
 10
-12.0279775178
 20
-10.3160225854
 30
0.0
 10
-11.6137285881
 20
-10.5284432133
 30
0.0
 10
-11.4092889022
 20
-10.5876271842
 30
0.0
  0
SPLINE
  5
4BA
100
AcDbEntity
  8
RACCORDO
100
AcDbSpline
 62
250
  6
CONTINUOUS
 70
0
 71
3
 72
11
 73
7
 74
0
 42
0.0000001
 43
0.0000001
 44
0.0000000001
 40
0.0
 40
0.0
 40
0.0
 40
0.0
 40
0.2171663644
 40
0.4503617063
 40
0.7104375405
 40
1.0
 40
1.0
 40
1.0
 40
1.0
 10
4.5614560771
 20
-43.7413176259
 30
0.0
 10
4.5206986221
 20
-43.7209041384
 30
0.0
 10
4.4435407478
 20
-43.662265387
 30
0.0
 10
4.3608253127
 20
-43.5354387624
 30
0.0
 10
4.3114317298
 20
-43.3770391258
 30
0.0
 10
4.3015541467
 20
-43.2612412052
 30
0.0
 10
4.3015541467
 20
-43.2004613038
 30
0.0
  0
SPLINE
  5
4BB
100
AcDbEntity
  8
RACCORDO
100
AcDbSpline
 62
250
  6
CONTINUOUS
 70
0
 71
3
 72
9
 73
5
 74
0
 42
0.0000001
 43
0.0000001
 44
0.0000000001
 40
0.0
 40
0.0
 40
0.0
 40
0.0
 40
0.2384503701
 40
1.0
 40
1.0
 40
1.0
 40
1.0
 10
-19.9139632032
 20
4.8004352517
 30
0.0
 10
-19.9139143524
 20
4.7962018535
 30
0.0
 10
-19.9134291769
 20
4.7784515308
 30
0.0
 10
-19.9118753281
 20
4.7607377603
 30
0.0
 10
-19.9102286769
 20
4.7473171073
 30
0.0
  0
SPLINE
  5
4BC
100
AcDbEntity
  8
RACCORDO
100
AcDbSpline
 62
250
  6
CONTINUOUS
 70
0
 71
3
 72
11
 73
7
 74
0
 42
0.0000001
 43
0.0000001
 44
0.0000000001
 40
0.0
 40
0.0
 40
0.0
 40
0.0
 40
0.1996871088
 40
0.4255731753
 40
0.692293201
 40
1.0
 40
1.0
 40
1.0
 40
1.0
 10
-18.9893478185
 20
-34.0442247091
 30
0.0
 10
-19.0087980275
 20
-34.0369256177
 30
0.0
 10
-19.0467443467
 20
-34.0109641371
 30
0.0
 10
-19.0859087794
 20
-33.9489084662
 30
0.0
 10
-19.1090189406
 20
-33.8681328089
 30
0.0
 10
-19.1135637023
 20
-33.8081781513
 30
0.0
 10
-19.1135490691
 20
-33.7761655194
 30
0.0
  0
SPLINE
  5
4BD
100
AcDbEntity
  8
RACCORDO
100
AcDbSpline
 62
250
  6
CONTINUOUS
 70
0
 71
3
 72
11
 73
7
 74
0
 42
0.0000001
 43
0.0000001
 44
0.0000000001
 40
0.0
 40
0.0
 40
0.0
 40
0.0
 40
0.1996871106
 40
0.4255731773
 40
0.6922932006
 40
1.0
 40
1.0
 40
1.0
 40
1.0
 10
-1.6193627652
 20
-40.5633840289
 30
0.0
 10
-1.6388129744
 20
-40.5560849374
 30
0.0
 10
-1.6767592938
 20
-40.5301234569
 30
0.0
 10
-1.7159237259
 20
-40.4680677857
 30
0.0
 10
-1.7390338874
 20
-40.3872921288
 30
0.0
 10
-1.7435786484
 20
-40.3273374714
 30
0.0
 10
-1.7435640151
 20
-40.2953248395
 30
0.0
  0
SPLINE
  5
4BE
100
AcDbEntity
  8
RACCORDO
100
AcDbSpline
 62
250
  6
CONTINUOUS
 70
0
 71
3
 72
10
 73
6
 74
0
 42
0.0000001
 43
0.0000001
 44
0.0000000001
 40
0.0
 40
0.0
 40
0.0
 40
0.0
 40
0.3478661086
 40
0.6384016494
 40
1.0
 40
1.0
 40
1.0
 40
1.0
 10
-22.8436260615
 20
4.762055513
 30
0.0
 10
-22.7880716749
 20
4.7754893262
 30
0.0
 10
-22.7347986347
 20
4.8957849131
 30
0.0
 10
-22.7156187671
 20
5.051071136
 30
0.0
 10
-22.7145210859
 20
5.1605293836
 30
0.0
 10
-22.7171160162
 20
5.2198844927
 30
0.0
  0
SPLINE
  5
4BF
100
AcDbEntity
  8
RACCORDO
100
AcDbSpline
 62
250
  6
CONTINUOUS
 70
0
 71
3
 72
10
 73
6
 74
0
 42
0.0000001
 43
0.0000001
 44
0.0000000001
 40
0.0
 40
0.0
 40
0.0
 40
0.0
 40
0.2336835992
 40
0.4756913639
 40
1.0
 40
1.0
 40
1.0
 40
1.0
 10
-24.6586754352
 20
4.8087746154
 30
0.0
 10
-24.7120703026
 20
4.8288528426
 30
0.0
 10
-24.8148755322
 20
4.8875724965
 30
0.0
 10
-24.9830749054
 20
5.0683865844
 30
0.0
 10
-25.0470237602
 20
5.2548929561
 30
0.0
 10
-25.0634698408
 20
5.3818223329
 30
0.0
  0
SPLINE
  5
4C0
100
AcDbEntity
  8
RACCORDO
100
AcDbSpline
 62
250
  6
CONTINUOUS
 70
0
 71
3
 72
9
 73
5
 74
0
 42
0.0000001
 43
0.0000001
 44
0.0000000001
 40
0.0
 40
0.0
 40
0.0
 40
0.0
 40
0.4636579602
 40
1.0
 40
1.0
 40
1.0
 40
1.0
 10
-37.9094447346
 20
16.272513779
 30
0.0
 10
-37.8774832792
 20
16.288717648
 30
0.0
 10
-37.797050945
 20
16.3024530174
 30
0.0
 10
-37.7214660714
 20
16.2775162007
 30
0.0
 10
-37.6843387072
 20
16.2590822178
 30
0.0
  0
SPLINE
  5
4C1
100
AcDbEntity
  8
RACCORDO
100
AcDbSpline
 62
250
  6
CONTINUOUS
 70
0
 71
3
 72
10
 73
6
 74
0
 42
0.0000001
 43
0.0000001
 44
0.0000000001
 40
0.0
 40
0.0
 40
0.0
 40
0.0
 40
0.2366279669
 40
0.4799542589
 40
1.0
 40
1.0
 40
1.0
 40
1.0
 10
-29.1643911827
 20
4.8174149485
 30
0.0
 10
-29.4200709593
 20
4.6961229778
 30
0.0
 10
-29.9195705548
 20
4.4073737534
 30
0.0
 10
-30.8527184777
 20
3.6537259329
 30
0.0
 10
-31.4279947077
 20
2.9264408151
 30
0.0
 10
-31.7571006352
 20
2.3987118367
 30
0.0
  0
SPLINE
  5
4C2
100
AcDbEntity
  8
RACCORDO
100
AcDbSpline
 62
250
  6
CONTINUOUS
 70
0
 71
3
 72
9
 73
5
 74
0
 42
0.0000001
 43
0.0000001
 44
0.0000000001
 40
0.0
 40
0.0
 40
0.0
 40
0.0
 40
0.4680055918
 40
1.0
 40
1.0
 40
1.0
 40
1.0
 10
-32.8321036648
 20
2.333919819
 30
0.0
 10
-32.9030684667
 20
2.3809763478
 30
0.0
 10
-33.0239548527
 20
2.5313482398
 30
0.0
 10
-33.0545129627
 20
2.7171717544
 30
0.0
 10
-33.0546785773
 20
2.8139625317
 30
0.0
  0
SPLINE
  5
4C3
100
AcDbEntity
  8
RACCORDO
100
AcDbSpline
 62
250
  6
CONTINUOUS
 70
0
 71
3
 72
9
 73
5
 74
0
 42
0.0000001
 43
0.0000001
 44
0.0000000001
 40
0.0
 40
0.0
 40
0.0
 40
0.0
 40
0.4685464652
 40
1.0
 40
1.0
 40
1.0
 40
1.0
 10
-37.9692991618
 20
-22.385402929
 30
0.0
 10
-38.0060385764
 20
-22.3584304305
 30
0.0
 10
-38.0675445954
 20
-22.2763205381
 30
0.0
 10
-38.0831727395
 20
-22.177208256
 30
0.0
 10
-38.0831904452
 20
-22.1255116245
 30
0.0
  0
SPLINE
  5
4C4
100
AcDbEntity
  8
RACCORDO
100
AcDbSpline
 62
250
  6
CONTINUOUS
 70
0
 71
3
 72
9
 73
5
 74
0
 42
0.0000001
 43
0.0000001
 44
0.0000000001
 40
0.0
 40
0.0
 40
0.0
 40
0.0
 40
0.4680290701
 40
1.0
 40
1.0
 40
1.0
 40
1.0
 10
-36.5661100875
 20
4.8114075889
 30
0.0
 10
-36.6368610995
 20
4.858541529
 30
0.0
 10
-36.7572867673
 20
5.0088139237
 30
0.0
 10
-36.7877471044
 20
5.194308846
 30
0.0
 10
-36.7879124413
 20
5.2909368254
 30
0.0
  0
SPLINE
  5
4C5
100
AcDbEntity
  8
RACCORDO
100
AcDbSpline
 62
250
  6
CONTINUOUS
 70
0
 71
3
 72
9
 73
5
 74
0
 42
0.0000001
 43
0.0000001
 44
0.0000000001
 40
0.0
 40
0.0
 40
0.0
 40
0.0
 40
0.2401208399
 40
1.0
 40
1.0
 40
1.0
 40
1.0
 10
-36.5018684711
 20
4.7692259999
 30
0.0
 10
-36.5046793525
 20
4.7648790693
 30
0.0
 10
-36.5159817892
 20
4.7465158047
 30
0.0
 10
-36.5256974381
 20
4.7271950122
 30
0.0
 10
-36.5322998323
 20
4.7122028275
 30
0.0
  0
SPLINE
  5
4C6
100
AcDbEntity
  8
RACCORDO
100
AcDbSpline
 62
250
  6
CONTINUOUS
 70
0
 71
3
 72
9
 73
5
 74
0
 42
0.0000001
 43
0.0000001
 44
0.0000000001
 40
0.0
 40
0.0
 40
0.0
 40
0.0
 40
0.2333314685
 40
1.0
 40
1.0
 40
1.0
 40
1.0
 10
-36.5322998323
 20
4.7122028275
 30
0.0
 10
-36.5364946757
 20
4.7026775152
 30
0.0
 10
-36.5531360203
 20
4.661266549
 30
0.0
 10
-36.5647406989
 20
4.6179359686
 30
0.0
 10
-36.5715155781
 20
4.5844153969
 30
0.0
  0
SPLINE
  5
4C7
100
AcDbEntity
  8
RACCORDO
100
AcDbSpline
 62
250
  6
CONTINUOUS
 70
0
 71
3
 72
9
 73
5
 74
0
 42
0.0000001
 43
0.0000001
 44
0.0000000001
 40
0.0
 40
0.0
 40
0.0
 40
0.0
 40
0.2315001009
 40
1.0
 40
1.0
 40
1.0
 40
1.0
 10
-36.5715155781
 20
4.5844153969
 30
0.0
 10
-36.5750583701
 20
4.5668864619
 30
0.0
 10
-36.5878403272
 20
4.4906594265
 30
0.0
 10
-36.5914799211
 20
4.4130756248
 30
0.0
 10
-36.5907025911
 20
4.3537141378
 30
0.0
  0
SPLINE
  5
4C8
100
AcDbEntity
  8
RACCORDO
100
AcDbSpline
 62
250
  6
CONTINUOUS
 70
0
 71
3
 72
10
 73
6
 74
0
 42
0.0000001
 43
0.0000001
 44
0.0000000001
 40
0.0
 40
0.0
 40
0.0
 40
0.0
 40
0.1064236743
 40
0.303818597
 40
1.0
 40
1.0
 40
1.0
 40
1.0
 10
-8.7909800674
 20
-9.4526763817
 30
0.0
 10
-8.786683867
 20
-9.46163185
 30
0.0
 10
-8.7552355626
 20
-9.4724162232
 30
0.0
 10
-8.6649142425
 20
-9.4632535036
 30
0.0
 10
-8.5823687169
 20
-9.4408779621
 30
0.0
 10
-8.5204161713
 20
-9.4212896886
 30
0.0
  0
SPLINE
  5
4C9
100
AcDbEntity
  8
RACCORDO
100
AcDbSpline
 62
250
  6
CONTINUOUS
 70
0
 71
3
 72
10
 73
6
 74
0
 42
0.0000001
 43
0.0000001
 44
0.0000000001
 40
0.0
 40
0.0
 40
0.0
 40
0.0
 40
0.183987087
 40
0.53064678
 40
1.0
 40
1.0
 40
1.0
 40
1.0
 10
-19.0347415398
 20
1.9940125471
 30
0.0
 10
-19.0580152432
 20
2.0079227416
 30
0.0
 10
-19.1135154878
 20
2.0682845725
 30
0.0
 10
-19.1416539176
 20
2.219288557
 30
0.0
 10
-19.1273388791
 20
2.3390948687
 30
0.0
 10
-19.1135351229
 20
2.4068711211
 30
0.0
  0
SPLINE
  5
4CA
100
AcDbEntity
  8
RACCORDO
100
AcDbSpline
 62
250
  6
CONTINUOUS
 70
0
 71
3
 72
11
 73
7
 74
0
 42
0.0000001
 43
0.0000001
 44
0.0000000001
 40
0.0
 40
0.0
 40
0.0
 40
0.0
 40
0.1995768515
 40
0.4254302666
 40
0.692172769
 40
1.0
 40
1.0
 40
1.0
 40
1.0
 10
-8.230536308
 20
-9.9690635003
 30
0.0
 10
-8.2653883502
 20
-9.9558595136
 30
0.0
 10
-8.3333309574
 20
-9.9090640107
 30
0.0
 10
-8.4032905839
 20
-9.7974963964
 30
0.0
 10
-8.4444402957
 20
-9.6523960879
 30
0.0
 10
-8.4523782008
 20
-9.5447374935
 30
0.0
 10
-8.4522469128
 20
-9.4872533005
 30
0.0
  0
SPLINE
  5
4CB
100
AcDbEntity
  8
RACCORDO
100
AcDbSpline
 62
250
  6
CONTINUOUS
 70
0
 71
3
 72
14
 73
10
 74
0
 42
0.0000001
 43
0.0000001
 44
0.0000000001
 40
0.0
 40
0.0
 40
0.0
 40
0.0
 40
0.265314576
 40
0.3918011144
 40
0.5151117194
 40
0.6363279821
 40
0.7566824139
 40
0.8774789357
 40
1.0
 40
1.0
 40
1.0
 40
1.0
 10
-19.1135490691
 20
-32.1755329319
 30
0.0
 10
-18.0766365916
 20
-32.3342941189
 30
0.0
 10
-16.5100070626
 20
-32.4075667241
 30
0.0
 10
-14.4904221555
 20
-32.1110268294
 30
0.0
 10
-13.0759008124
 20
-31.7045713668
 30
0.0
 10
-11.7545275983
 20
-31.1135685303
 30
0.0
 10
-10.5403423983
 20
-30.3433888429
 30
0.0
 10
-9.4471011699
 20
-29.4020060217
 30
0.0
 10
-8.8128666596
 20
-28.6736761201
 30
0.0
 10
-8.5204161854
 20
-28.287493538
 30
0.0
  0
SPLINE
  5
4CC
100
AcDbEntity
  8
RACCORDO
100
AcDbSpline
 62
250
  6
CONTINUOUS
 70
0
 71
3
 72
9
 73
5
 74
0
 42
0.0000001
 43
0.0000001
 44
0.0000000001
 40
0.0
 40
0.0
 40
0.0
 40
0.0
 40
0.4708793791
 40
1.0
 40
1.0
 40
1.0
 40
1.0
 10
-8.5204161854
 20
-28.287493538
 30
0.0
 10
-8.5134240093
 20
-28.2782640739
 30
0.0
 10
-8.4904166061
 20
-28.2639235538
 30
0.0
 10
-8.4644411835
 20
-28.2680887317
 30
0.0
 10
-8.4522469128
 20
-28.2726264029
 30
0.0
  0
SPLINE
  5
4CD
100
AcDbEntity
  8
RACCORDO
100
AcDbSpline
 62
250
  6
CONTINUOUS
 70
0
 71
3
 72
11
 73
7
 74
0
 42
0.0000001
 43
0.0000001
 44
0.0000000001
 40
0.0
 40
0.0
 40
0.0
 40
0.0
 40
0.1995733491
 40
0.4254010976
 40
0.6921397432
 40
1.0
 40
1.0
 40
1.0
 40
1.0
 10
-3.2496499771
 20
-11.849116259
 30
0.0
 10
-3.2845349599
 20
-11.8359476023
 30
0.0
 10
-3.3525619037
 20
-11.7891997577
 30
0.0
 10
-3.4226149551
 20
-11.6776109833
 30
0.0
 10
-3.463816723
 20
-11.5324426707
 30
0.0
 10
-3.4717633739
 20
-11.4247231105
 30
0.0
 10
-3.4716318072
 20
-11.3672034908
 30
0.0
  0
SPLINE
  5
4CE
100
AcDbEntity
  8
RACCORDO
100
AcDbSpline
 62
250
  6
CONTINUOUS
 70
0
 71
3
 72
13
 73
9
 74
0
 42
0.0000001
 43
0.0000001
 44
0.0000000001
 40
0.0
 40
0.0
 40
0.0
 40
0.0
 40
0.2626039782
 40
0.3822567002
 40
0.4977432666
 40
0.6135480579
 40
0.7341597017
 40
1.0
 40
1.0
 40
1.0
 40
1.0
 10
-3.4716318072
 20
-30.1259100754
 30
0.0
 10
-3.2866869806
 20
-30.1947497571
 30
0.0
 10
-2.9925920124
 20
-30.2503716541
 30
0.0
 10
-2.6216352859
 20
-30.1785516089
 30
0.0
 10
-2.3827360807
 20
-30.0585335029
 30
0.0
 10
-2.1873464192
 20
-29.8749961987
 30
0.0
 10
-1.990313778
 20
-29.5486277966
 30
0.0
 10
-1.9398656748
 20
-29.2504535406
 30
0.0
 10
-1.9398687459
 20
-29.0506804663
 30
0.0
  0
SPLINE
  5
4CF
100
AcDbEntity
  8
RACCORDO
100
AcDbSpline
 62
250
  6
CONTINUOUS
 70
0
 71
3
 72
11
 73
7
 74
0
 42
0.0000001
 43
0.0000001
 44
0.0000000001
 40
0.0
 40
0.0
 40
0.0
 40
0.0
 40
0.2414935777
 40
0.5016879044
 40
0.7608605274
 40
1.0
 40
1.0
 40
1.0
 40
1.0
 10
-1.9398687459
 20
-13.5905703497
 30
0.0
 10
-1.9398635343
 20
-13.3619966808
 30
0.0
 10
-2.0308692877
 20
-12.8858880841
 30
0.0
 10
-2.3630198593
 20
-12.2378851183
 30
0.0
 10
-2.8495591446
 20
-11.6991508395
 30
0.0
 10
-3.2598627092
 20
-11.4471168083
 30
0.0
 10
-3.4716318072
 20
-11.3672034908
 30
0.0
  0
SPLINE
  5
4D0
100
AcDbEntity
  8
RACCORDO
100
AcDbSpline
 62
250
  6
CONTINUOUS
 70
0
 71
3
 72
9
 73
5
 74
0
 42
0.0000001
 43
0.0000001
 44
0.0000000001
 40
0.0
 40
0.0
 40
0.0
 40
0.0
 40
0.2343997304
 40
1.0
 40
1.0
 40
1.0
 40
1.0
 10
-8.4522469128
 20
-9.4872533005
 30
0.0
 10
-8.4592733575
 20
-9.4846003637
 30
0.0
 10
-8.4878308144
 20
-9.46965575
 30
0.0
 10
-8.5097451469
 20
-9.4433783769
 30
0.0
 10
-8.5204161854
 20
-9.421289698
 30
0.0
  0
SPLINE
  5
4D1
100
AcDbEntity
  8
RACCORDO
100
AcDbSpline
 62
250
  6
CONTINUOUS
 70
0
 71
3
 72
11
 73
7
 74
0
 42
0.0000001
 43
0.0000001
 44
0.0000000001
 40
0.0
 40
0.0
 40
0.0
 40
0.0
 40
0.1974434037
 40
0.4221892759
 40
0.6893843539
 40
1.0
 40
1.0
 40
1.0
 40
1.0
 10
-2.300036967
 20
-13.2304930586
 30
0.0
 10
-2.3000039525
 20
-13.2658886379
 30
0.0
 10
-2.2808859426
 20
-13.3422101041
 30
0.0
 10
-2.2037822436
 20
-13.4417743744
 30
0.0
 10
-2.0866533317
 20
-13.527447649
 30
0.0
 10
-1.9920110706
 20
-13.5710286377
 30
0.0
 10
-1.9398687459
 20
-13.5905703496
 30
0.0
  0
SPLINE
  5
4D2
100
AcDbEntity
  8
RACCORDO
100
AcDbSpline
 62
250
  6
CONTINUOUS
 70
0
 71
3
 72
11
 73
7
 74
0
 42
0.0000001
 43
0.0000001
 44
0.0000000001
 40
0.0
 40
0.0
 40
0.0
 40
0.0
 40
0.2549045989
 40
0.5097671286
 40
0.7596058619
 40
1.0
 40
1.0
 40
1.0
 40
1.0
 10
-8.5595773738
 20
-9.3405484473
 30
0.0
 10
-9.1440498988
 20
-8.1403145033
 30
0.0
 10
-10.4823774454
 20
-5.8189006495
 30
0.0
 10
-12.92235103
 20
-2.6619850455
 30
0.0
 10
-15.7160493612
 20
0.0797212336
 30
0.0
 10
-17.7979994026
 20
1.6020706405
 30
0.0
 10
-18.8712181958
 20
2.2602848027
 30
0.0
  0
SPLINE
  5
4D3
100
AcDbEntity
  8
RACCORDO
100
AcDbSpline
 62
250
  6
CONTINUOUS
 70
0
 71
3
 72
11
 73
7
 74
0
 42
0.0000001
 43
0.0000001
 44
0.0000000001
 40
0.0
 40
0.0
 40
0.0
 40
0.0
 40
0.1974556421
 40
0.4222756664
 40
0.6894807926
 40
1.0
 40
1.0
 40
1.0
 40
1.0
 10
-2.300034964
 20
-28.6913667179
 30
0.0
 10
-2.2998824577
 20
-28.7267148683
 30
0.0
 10
-2.2805679014
 20
-28.8028728973
 30
0.0
 10
-2.2034289139
 20
-28.9021871792
 30
0.0
 10
-2.0864212946
 20
-28.9876701389
 30
0.0
 10
-1.9919222697
 20
-29.0311720348
 30
0.0
 10
-1.9398687459
 20
-29.0506804663
 30
0.0
  0
SPLINE
  5
4D4
100
AcDbEntity
  8
RACCORDO
100
AcDbSpline
 62
250
  6
CONTINUOUS
 70
0
 71
3
 72
9
 73
5
 74
0
 42
0.0000001
 43
0.0000001
 44
0.0000000001
 40
0.0
 40
0.0
 40
0.0
 40
0.0
 40
0.4631801446
 40
1.0
 40
1.0
 40
1.0
 40
1.0
 10
-8.3859942776
 20
-27.1183909122
 30
0.0
 10
-8.3210256125
 20
-27.084059723
 30
0.0
 10
-8.1563213368
 20
-27.0533255295
 30
0.0
 10
-8.0004465508
 20
-27.1021734838
 30
0.0
 10
-7.923559705
 20
-27.1387982884
 30
0.0
  0
SPLINE
  5
4D5
100
AcDbEntity
  8
RACCORDO
100
AcDbSpline
 62
250
  6
CONTINUOUS
 70
0
 71
3
 72
10
 73
6
 74
0
 42
0.0000001
 43
0.0000001
 44
0.0000000001
 40
0.0
 40
0.0
 40
0.0
 40
0.0
 40
0.2205704495
 40
0.4791978574
 40
1.0
 40
1.0
 40
1.0
 40
1.0
 10
-1.4449126738
 20
-1.8606307989
 30
0.0
 10
-1.4887772441
 20
-1.890110257
 30
0.0
 10
-1.5707890945
 20
-1.973810855
 30
0.0
 10
-1.6933676694
 20
-2.1800957046
 30
0.0
 10
-1.7436210373
 20
-2.3682790659
 30
0.0
 10
-1.7435640151
 20
-2.4930667317
 30
0.0
  0
SPLINE
  5
4D6
100
AcDbEntity
  8
RACCORDO
100
AcDbSpline
 62
250
  6
CONTINUOUS
 70
0
 71
3
 72
10
 73
6
 74
0
 42
0.0000001
 43
0.0000001
 44
0.0000000001
 40
0.0
 40
0.0
 40
0.0
 40
0.0
 40
0.2205585641
 40
0.4791689425
 40
1.0
 40
1.0
 40
1.0
 40
1.0
 10
-18.8148977278
 20
4.6399303419
 30
0.0
 10
-18.8587599201
 20
4.6104524819
 30
0.0
 10
-18.9407678806
 20
4.5267582493
 30
0.0
 10
-19.0633492857
 20
4.3204752481
 30
0.0
 10
-19.1136060944
 20
4.1322889625
 30
0.0
 10
-19.1135490691
 20
4.0074944091
 30
0.0
  0
SPLINE
  5
4D7
100
AcDbEntity
  8
RACCORDO
100
AcDbSpline
 62
250
  6
CONTINUOUS
 70
0
 71
3
 72
11
 73
7
 74
0
 42
0.0000001
 43
0.0000001
 44
0.0000000001
 40
0.0
 40
0.0
 40
0.0
 40
0.0
 40
0.213624155
 40
0.4479582642
 40
0.7115984777
 40
1.0
 40
1.0
 40
1.0
 40
1.0
 10
-8.6980224725
 20
-27.3840524495
 30
0.0
 10
-8.7407339444
 20
-27.4403706361
 30
0.0
 10
-8.8009306665
 20
-27.5827474252
 30
0.0
 10
-8.7916823252
 20
-27.8236155248
 30
0.0
 10
-8.6959937044
 20
-28.0695263162
 30
0.0
 10
-8.5857111022
 20
-28.2179064617
 30
0.0
 10
-8.5204161854
 20
-28.287493538
 30
0.0
  0
SPLINE
  5
4D8
100
AcDbEntity
  8
RACCORDO
100
AcDbSpline
 62
250
  6
CONTINUOUS
 70
0
 71
3
 72
9
 73
5
 74
0
 42
0.0000001
 43
0.0000001
 44
0.0000000001
 40
0.0
 40
0.0
 40
0.0
 40
0.0
 40
0.5096744684
 40
1.0
 40
1.0
 40
1.0
 40
1.0
 10
-19.4124074336
 20
5.1950702223
 30
0.0
 10
-19.4878000867
 20
5.1925778828
 30
0.0
 10
-19.6362368628
 20
5.1585807044
 30
0.0
 10
-19.7600496085
 20
5.0683683032
 30
0.0
 10
-19.8073691078
 20
5.0133475153
 30
0.0
  0
SPLINE
  5
4D9
100
AcDbEntity
  8
RACCORDO
100
AcDbSpline
 62
250
  6
CONTINUOUS
 70
0
 71
3
 72
9
 73
5
 74
0
 42
0.0000001
 43
0.0000001
 44
0.0000000001
 40
0.0
 40
0.0
 40
0.0
 40
0.0
 40
0.2576964211
 40
1.0
 40
1.0
 40
1.0
 40
1.0
 10
-19.8073691078
 20
5.0133475153
 30
0.0
 10
-19.8204341424
 20
4.9981561352
 30
0.0
 10
-19.8673978316
 20
4.9361299283
 30
0.0
 10
-19.897224799
 20
4.860854679
 30
0.0
 10
-19.9059037307
 20
4.80379425
 30
0.0
  0
SPLINE
  5
4DA
100
AcDbEntity
  8
RACCORDO
100
AcDbSpline
 62
250
  6
CONTINUOUS
 70
0
 71
3
 72
10
 73
6
 74
0
 42
0.0000001
 43
0.0000001
 44
0.0000000001
 40
0.0
 40
0.0
 40
0.0
 40
0.0
 40
0.2318243294
 40
0.4919973942
 40
1.0
 40
1.0
 40
1.0
 40
1.0
 10
-1.0913614372
 20
-40.2726745888
 30
0.0
 10
-1.1374307394
 20
-40.2955489865
 30
0.0
 10
-1.2425447871
 20
-40.3296398064
 30
0.0
 10
-1.4630618454
 20
-40.355927057
 30
0.0
 10
-1.6380206275
 20
-40.3348800089
 30
0.0
 10
-1.7435640151
 20
-40.2953248395
 30
0.0
  0
SPLINE
  5
4DB
100
AcDbEntity
  8
RACCORDO
100
AcDbSpline
 62
250
  6
CONTINUOUS
 70
0
 71
3
 72
10
 73
6
 74
0
 42
0.0000001
 43
0.0000001
 44
0.0000000001
 40
0.0
 40
0.0
 40
0.0
 40
0.0
 40
0.2318154147
 40
0.491973352
 40
1.0
 40
1.0
 40
1.0
 40
1.0
 10
-1.0913614372
 20
-2.4704164811
 30
0.0
 10
-1.1374289567
 20
-2.4932899936
 30
0.0
 10
-1.2425375164
 20
-2.5273799522
 30
0.0
 10
-1.463054176
 20
-2.5536693097
 30
0.0
 10
-1.638015658
 20
-2.5326237636
 30
0.0
 10
-1.7435640151
 20
-2.4930667317
 30
0.0
  0
SPLINE
  5
4DC
100
AcDbEntity
  8
RACCORDO
100
AcDbSpline
 62
250
  6
CONTINUOUS
 70
0
 71
3
 72
9
 73
5
 74
0
 42
0.0000001
 43
0.0000001
 44
0.0000000001
 40
0.0
 40
0.0
 40
0.0
 40
0.0
 40
0.4983141325
 40
1.0
 40
1.0
 40
1.0
 40
1.0
 10
-37.6843387072
 20
16.2590822178
 30
0.0
 10
-37.7983931954
 20
16.2159108974
 30
0.0
 10
-37.9929732328
 20
16.0430144803
 30
0.0
 10
-38.083148376
 20
15.7995232206
 30
0.0
 10
-38.0831904452
 20
15.6767464833
 30
0.0
  0
SPLINE
  5
4DD
100
AcDbEntity
  8
RACCORDO
100
AcDbSpline
 62
250
  6
CONTINUOUS
 70
0
 71
3
 72
9
 73
5
 74
0
 42
0.0000001
 43
0.0000001
 44
0.0000000001
 40
0.0
 40
0.0
 40
0.0
 40
0.0
 40
0.4983141285
 40
1.0
 40
1.0
 40
1.0
 40
1.0
 10
-24.6646182463
 20
7.5647906011
 30
0.0
 10
-24.7786727338
 20
7.5216192814
 30
0.0
 10
-24.9732527721
 20
7.3487228654
 30
0.0
 10
-25.0634279156
 20
7.105231605
 30
0.0
 10
-25.0634699843
 20
6.9824548666
 30
0.0
  0
SPLINE
  5
4DE
100
AcDbEntity
  8
RACCORDO
100
AcDbSpline
 62
250
  6
CONTINUOUS
 70
0
 71
3
 72
10
 73
6
 74
0
 42
0.0000001
 43
0.0000001
 44
0.0000000001
 40
0.0
 40
0.0
 40
0.0
 40
0.0
 40
0.1890876265
 40
0.4453062703
 40
1.0
 40
1.0
 40
1.0
 40
1.0
 10
-23.5565212817
 20
7.2671052016
 30
0.0
 10
-23.5617603972
 20
7.224391438
 30
0.0
 10
-23.5698860652
 20
7.1233135868
 30
0.0
 10
-23.5820504293
 20
6.896068458
 30
0.0
 10
-23.5863505228
 20
6.7114680272
 30
0.0
 10
-23.5860048616
 20
6.5852274659
 30
0.0
  0
SPLINE
  5
4DF
100
AcDbEntity
  8
RACCORDO
100
AcDbSpline
 62
7
  6
CONTINUOUS
 70
0
 71
3
 72
10
 73
6
 74
0
 42
0.0000001
 43
0.0000001
 44
0.0000000001
 40
0.0
 40
0.0
 40
0.0
 40
0.0
 40
0.287927657
 40
0.5603893311
 40
1.0
 40
1.0
 40
1.0
 40
1.0
 10
4.7464785379
 20
1.2399051242
 30
0.0
 10
4.8429983639
 20
1.2269438262
 30
0.0
 10
5.0278784626
 20
1.1814551543
 30
0.0
 10
5.3489991898
 20
1.0754592215
 30
0.0
 10
5.5734945762
 20
0.9878731483
 30
0.0
 10
5.7132951378
 20
0.9372315634
 30
0.0
  0
SPLINE
  5
4E0
100
AcDbEntity
  8
RACCORDO
100
AcDbSpline
 62
250
  6
CONTINUOUS
 70
0
 71
3
 72
11
 73
7
 74
0
 42
0.0000001
 43
0.0000001
 44
0.0000000001
 40
0.0
 40
0.0
 40
0.0
 40
0.0
 40
0.2295280107
 40
0.4881557383
 40
0.7532648239
 40
1.0
 40
1.0
 40
1.0
 40
1.0
 10
-1.4449126738
 20
-1.8606307989
 30
0.0
 10
-1.3947716222
 20
-1.8858777125
 30
0.0
 10
-1.2989695876
 20
-1.9611967114
 30
0.0
 10
-1.1882241925
 20
-2.1103933854
 30
0.0
 10
-1.1126529687
 20
-2.2847332409
 30
0.0
 10
-1.0915342767
 20
-2.4100696547
 30
0.0
 10
-1.0913614372
 20
-2.4704164811
 30
0.0
  0
SPLINE
  5
4E1
100
AcDbEntity
  8
RACCORDO
100
AcDbSpline
 62
7
  6
CONTINUOUS
 70
0
 71
3
 72
9
 73
5
 74
0
 42
0.0000001
 43
0.0000001
 44
0.0000000001
 40
0.0
 40
0.0
 40
0.0
 40
0.0
 40
0.2484406853
 40
1.0
 40
1.0
 40
1.0
 40
1.0
 10
5.7132951378
 20
-36.923006466
 30
0.0
 10
5.6777535531
 20
-36.9711754277
 30
0.0
 10
5.5255610998
 20
-37.1575978547
 30
0.0
 10
5.3338311558
 20
-37.3162936712
 30
0.0
 10
5.1713527303
 20
-37.3962554551
 30
0.0
  0
SPLINE
  5
4E2
100
AcDbEntity
  8
RACCORDO
100
AcDbSpline
 62
250
  6
CONTINUOUS
 70
0
 71
3
 72
9
 73
5
 74
0
 42
0.0000001
 43
0.0000001
 44
0.0000000001
 40
0.0
 40
0.0
 40
0.0
 40
0.0
 40
0.5519589584
 40
1.0
 40
1.0
 40
1.0
 40
1.0
 10
-1.0913614372
 20
-40.2726745888
 30
0.0
 10
-1.0915259731
 20
-40.3302856067
 30
0.0
 10
-1.1065959668
 20
-40.4373235045
 30
0.0
 10
-1.180741032
 20
-40.5230992671
 30
0.0
 10
-1.2226846095
 20
-40.5437795784
 30
0.0
  0
SPLINE
  5
4E3
100
AcDbEntity
  8
RACCORDO
100
AcDbSpline
 62
250
  6
CONTINUOUS
 70
0
 71
3
 72
11
 73
7
 74
0
 42
0.0000001
 43
0.0000001
 44
0.0000000001
 40
0.0
 40
0.0
 40
0.0
 40
0.0
 40
0.2299199833
 40
0.488455318
 40
0.7533110886
 40
1.0
 40
1.0
 40
1.0
 40
1.0
 10
5.0061926646
 20
8.4354897432
 30
0.0
 10
4.9059070827
 20
8.3849182129
 30
0.0
 10
4.7144200914
 20
8.2344336586
 30
0.0
 10
4.4934247876
 20
7.9362372698
 30
0.0
 10
4.3430295699
 20
7.587981899
 30
0.0
 10
4.3015541467
 20
7.3376569992
 30
0.0
 10
4.3015541467
 20
7.2171503565
 30
0.0
  0
SPLINE
  5
4E4
100
AcDbEntity
  8
RACCORDO
100
AcDbSpline
 62
250
  6
CONTINUOUS
 70
0
 71
3
 72
11
 73
7
 74
0
 42
0.0000001
 43
0.0000001
 44
0.0000000001
 40
0.0
 40
0.0
 40
0.0
 40
0.0
 40
0.2356486963
 40
0.5002528441
 40
0.764720998
 40
1.0
 40
1.0
 40
1.0
 40
1.0
 10
5.7132951378
 20
7.2159183789
 30
0.0
 10
5.6112458057
 20
7.1652486945
 30
0.0
 10
5.3771061144
 20
7.0930122142
 30
0.0
 10
5.0069711432
 20
7.0587760368
 30
0.0
 10
4.6370749436
 20
7.0936214571
 30
0.0
 10
4.4033020052
 20
7.1662764273
 30
0.0
 10
4.3015541467
 20
7.2171503565
 30
0.0
  0
SPLINE
  5
4E5
100
AcDbEntity
  8
RACCORDO
100
AcDbSpline
 62
250
  6
CONTINUOUS
 70
0
 71
3
 72
11
 73
7
 74
0
 42
0.0000001
 43
0.0000001
 44
0.0000000001
 40
0.0
 40
0.0
 40
0.0
 40
0.0
 40
0.2299134053
 40
0.4884430378
 40
0.7532929722
 40
1.0
 40
1.0
 40
1.0
 40
1.0
 10
-30.5734713033
 20
26.2253217271
 30
0.0
 10
-30.6737540313
 20
26.174751636
 30
0.0
 10
-30.8652371279
 20
26.0242721674
 30
0.0
 10
-31.08622857
 20
25.726084248
 30
0.0
 10
-31.2366326889
 20
25.3778293521
 30
0.0
 10
-31.2781098212
 20
25.1274978513
 30
0.0
 10
-31.2781098212
 20
25.0069823405
 30
0.0
  0
SPLINE
  5
4E6
100
AcDbEntity
  8
RACCORDO
100
AcDbSpline
 62
250
  6
CONTINUOUS
 70
0
 71
3
 72
11
 73
7
 74
0
 42
0.0000001
 43
0.0000001
 44
0.0000000001
 40
0.0
 40
0.0
 40
0.0
 40
0.0
 40
0.2356554758
 40
0.5002653191
 40
0.7647386169
 40
1.0
 40
1.0
 40
1.0
 40
1.0
 10
5.7132951378
 20
-43.2016932815
 30
0.0
 10
5.6112428801
 20
-43.2523644185
 30
0.0
 10
5.3770969225
 20
-43.3246014714
 30
0.0
 10
5.0069531734
 20
-43.3588370343
 30
0.0
 10
4.6370607635
 20
-43.3239851612
 30
0.0
 10
4.4032943755
 20
-43.2513314183
 30
0.0
 10
4.3015541467
 20
-43.2004613038
 30
0.0
  0
SPLINE
  5
4E7
100
AcDbEntity
  8
RACCORDO
100
AcDbSpline
 62
250
  6
CONTINUOUS
 70
0
 71
3
 72
11
 73
7
 74
0
 42
0.0000001
 43
0.0000001
 44
0.0000000001
 40
0.0
 40
0.0
 40
0.0
 40
0.0
 40
0.2295559127
 40
0.4881576983
 40
0.7532349478
 40
1.0
 40
1.0
 40
1.0
 40
1.0
 10
5.0061926646
 20
8.4354897432
 30
0.0
 10
5.1064866495
 20
8.3849899332
 30
0.0
 10
5.2981048519
 20
8.2343609592
 30
0.0
 10
5.5195199453
 20
7.9359355428
 30
0.0
 10
5.6707283214
 20
7.5873054876
 30
0.0
 10
5.7129494179
 20
7.3366262743
 30
0.0
 10
5.7132951378
 20
7.2159183789
 30
0.0
  0
SPLINE
  5
4E8
100
AcDbEntity
  8
RACCORDO
100
AcDbSpline
 62
250
  6
CONTINUOUS
 70
0
 71
3
 72
11
 73
7
 74
0
 42
0.0000001
 43
0.0000001
 44
0.0000000001
 40
0.0
 40
0.0
 40
0.0
 40
0.0
 40
0.2897938504
 40
0.5499634594
 40
0.7830672262
 40
1.0
 40
1.0
 40
1.0
 40
1.0
 10
5.7132951378
 20
-43.2016932815
 30
0.0
 10
5.7131205986
 20
-43.2628068538
 30
0.0
 10
5.7028540015
 20
-43.3791886696
 30
0.0
 10
5.6527209137
 20
-43.5382288689
 30
0.0
 10
5.5691692354
 20
-43.665314483
 30
0.0
 10
5.4913917956
 20
-43.7238072596
 30
0.0
 10
5.4503645644
 20
-43.7440477618
 30
0.0
  0
SPLINE
  5
4E9
100
AcDbEntity
  8
RACCORDO
100
AcDbSpline
 62
250
  6
CONTINUOUS
 70
0
 71
3
 72
11
 73
7
 74
0
 42
0.0000001
 43
0.0000001
 44
0.0000000001
 40
0.0
 40
0.0
 40
0.0
 40
0.0
 40
0.2298199183
 40
0.480807215
 40
0.742861462
 40
1.0
 40
1.0
 40
1.0
 40
1.0
 10
-31.7571335616
 20
2.398755106
 30
0.0
 10
-31.8542770431
 20
2.3490818324
 30
0.0
 10
-32.0850766655
 20
2.2960247799
 30
0.0
 10
-32.4398629089
 20
2.355242198
 30
0.0
 10
-32.7670028736
 20
2.5319501127
 30
0.0
 10
-32.9385563049
 20
2.7169769506
 30
0.0
 10
-33.00358211
 20
2.8202932643
 30
0.0
  0
SPLINE
  5
4EA
100
AcDbEntity
  8
RACCORDO
100
AcDbSpline
 62
250
  6
CONTINUOUS
 70
0
 71
3
 72
11
 73
7
 74
0
 42
0.0000001
 43
0.0000001
 44
0.0000000001
 40
0.0
 40
0.0
 40
0.0
 40
0.0
 40
0.2421020476
 40
0.5124525953
 40
0.7760080586
 40
1.0
 40
1.0
 40
1.0
 40
1.0
 10
-36.5907025911
 20
4.3537141378
 30
0.0
 10
-36.6918071837
 20
4.3048963527
 30
0.0
 10
-36.9236000098
 20
4.2386201458
 30
0.0
 10
-37.2850049771
 20
4.2163128409
 30
0.0
 10
-37.6351037075
 20
4.2651714898
 30
0.0
 10
-37.8496363845
 20
4.3498768792
 30
0.0
 10
-37.9360496899
 20
4.4075201223
 30
0.0
  0
SPLINE
  5
4EB
100
AcDbEntity
  8
RACCORDO
100
AcDbSpline
 62
250
  6
CONTINUOUS
 70
0
 71
3
 72
11
 73
7
 74
0
 42
0.0000001
 43
0.0000001
 44
0.0000000001
 40
0.0
 40
0.0
 40
0.0
 40
0.0
 40
0.2421020453
 40
0.5124525919
 40
0.7760080561
 40
1.0
 40
1.0
 40
1.0
 40
1.0
 10
-36.5907025911
 20
-11.1063959788
 30
0.0
 10
-36.6918071828
 20
-11.1552137633
 30
0.0
 10
-36.9236000073
 20
-11.2214899698
 30
0.0
 10
-37.2850049732
 20
-11.2437972753
 30
0.0
 10
-37.6351037046
 20
-11.1949386274
 30
0.0
 10
-37.8496363835
 20
-11.110233238
 30
0.0
 10
-37.9360496899
 20
-11.0525899944
 30
0.0
  0
SPLINE
  5
4EC
100
AcDbEntity
  8
RACCORDO
100
AcDbSpline
 62
250
  6
CONTINUOUS
 70
0
 71
3
 72
11
 73
7
 74
0
 42
0.0000001
 43
0.0000001
 44
0.0000000001
 40
0.0
 40
0.0
 40
0.0
 40
0.0
 40
0.2398983296
 40
0.4991776179
 40
0.7589114865
 40
1.0
 40
1.0
 40
1.0
 40
1.0
 10
-36.0788645181
 20
-12.4241220014
 30
0.0
 10
-36.1774933973
 20
-12.4629268698
 30
0.0
 10
-36.3679171643
 20
-12.5828783752
 30
0.0
 10
-36.5928908239
 20
-12.8364142226
 30
0.0
 10
-36.7458726147
 20
-13.139466983
 30
0.0
 10
-36.787729772
 20
-13.3612560049
 30
0.0
 10
-36.7879124401
 20
-13.4677697589
 30
0.0
  0
SPLINE
  5
4ED
100
AcDbEntity
  8
RACCORDO
100
AcDbSpline
 62
250
  6
CONTINUOUS
 70
0
 71
3
 72
11
 73
7
 74
0
 42
0.0000001
 43
0.0000001
 44
0.0000000001
 40
0.0
 40
0.0
 40
0.0
 40
0.0
 40
0.2398984982
 40
0.499177726
 40
0.7589114503
 40
1.0
 40
1.0
 40
1.0
 40
1.0
 10
-32.3456306554
 20
-14.9277628132
 30
0.0
 10
-32.4442597533
 20
-14.9665674725
 30
0.0
 10
-32.6346839327
 20
-15.0865186906
 30
0.0
 10
-32.8596578894
 20
-15.3400545345
 30
0.0
 10
-33.0126394913
 20
-15.6431075421
 30
0.0
 10
-33.054496184
 20
-15.8648967473
 30
0.0
 10
-33.0546785773
 20
-15.9714105706
 30
0.0
  0
SPLINE
  5
4EE
100
AcDbEntity
  8
RACCORDO
100
AcDbSpline
 62
250
  6
CONTINUOUS
 70
0
 71
3
 72
10
 73
6
 74
0
 42
0.0000001
 43
0.0000001
 44
0.0000000001
 40
0.0
 40
0.0
 40
0.0
 40
0.0
 40
0.5419512746
 40
0.804486316
 40
1.0
 40
1.0
 40
1.0
 40
1.0
 10
-31.7571004685
 20
-15.6330754478
 30
0.0
 10
-31.9786742822
 20
-15.7179656778
 30
0.0
 10
-32.3113146081
 20
-15.8343283918
 30
0.0
 10
-32.7281757985
 20
-15.9680685784
 30
0.0
 10
-32.9206312288
 20
-16.0247777785
 30
0.0
 10
-33.0035820921
 20
-16.045910569
 30
0.0
  0
SPLINE
  5
4EF
100
AcDbEntity
  8
RACCORDO
100
AcDbSpline
 62
250
  6
CONTINUOUS
 70
0
 71
3
 72
11
 73
7
 74
0
 42
0.0000001
 43
0.0000001
 44
0.0000000001
 40
0.0
 40
0.0
 40
0.0
 40
0.0
 40
0.245440753
 40
0.5113405768
 40
0.7710595462
 40
1.0
 40
1.0
 40
1.0
 40
1.0
 10
-24.2270384424
 20
-28.2363908425
 30
0.0
 10
-24.3288400738
 20
-28.2735238239
 30
0.0
 10
-24.5284692442
 20
-28.385843842
 30
0.0
 10
-24.7805073341
 20
-28.6184869675
 30
0.0
 10
-24.9718977157
 20
-28.8942530907
 30
0.0
 10
-25.0478082451
 20
-29.1007057454
 30
0.0
 10
-25.0634513838
 20
-29.2005655006
 30
0.0
  0
SPLINE
  5
4F0
100
AcDbEntity
  8
RACCORDO
100
AcDbSpline
 62
250
  6
CONTINUOUS
 70
0
 71
3
 72
11
 73
7
 74
0
 42
0.0000001
 43
0.0000001
 44
0.0000000001
 40
0.0
 40
0.0
 40
0.0
 40
0.0
 40
0.215067588
 40
0.4722863122
 40
0.7440245107
 40
1.0
 40
1.0
 40
1.0
 40
1.0
 10
-22.9729514532
 20
-28.5569623335
 30
0.0
 10
-22.9279997176
 20
-28.628569629
 30
0.0
 10
-22.8509448246
 20
-28.7991203533
 30
0.0
 10
-22.7700360722
 20
-29.080772698
 30
0.0
 10
-22.7209885451
 20
-29.3861437447
 30
0.0
 10
-22.7127991404
 20
-29.594212412
 30
0.0
 10
-22.717118428
 20
-29.6947487943
 30
0.0
  0
SPLINE
  5
4F1
100
AcDbEntity
  8
RACCORDO
100
AcDbSpline
 62
250
  6
CONTINUOUS
 70
0
 71
3
 72
11
 73
7
 74
0
 42
0.0000001
 43
0.0000001
 44
0.0000000001
 40
0.0
 40
0.0
 40
0.0
 40
0.0
 40
0.2208985349
 40
0.4787809
 40
0.74811532
 40
1.0
 40
1.0
 40
1.0
 40
1.0
 10
-2.9429445993
 20
-28.9920819609
 30
0.0
 10
-3.0209810397
 20
-29.0460890007
 30
0.0
 10
-3.1663298566
 20
-29.1969586462
 30
0.0
 10
-3.3302217117
 20
-29.4755961585
 30
0.0
 10
-3.4412898352
 20
-29.7934757776
 30
0.0
 10
-3.4718789056
 20
-30.0176958083
 30
0.0
 10
-3.4716318054
 20
-30.1259100749
 30
0.0
  0
SPLINE
  5
4F2
100
AcDbEntity
  8
RACCORDO
100
AcDbSpline
 62
250
  6
CONTINUOUS
 70
0
 71
3
 72
11
 73
7
 74
0
 42
0.0000001
 43
0.0000001
 44
0.0000000001
 40
0.0
 40
0.0
 40
0.0
 40
0.0
 40
0.2208985884
 40
0.4787810046
 40
0.7481153914
 40
1.0
 40
1.0
 40
1.0
 40
1.0
 10
-7.923559705
 20
-27.1387982884
 30
0.0
 10
-8.001596164
 20
-27.1928053418
 30
0.0
 10
-8.1469450038
 20
-27.3436750306
 30
0.0
 10
-8.3108368571
 20
-27.6223125787
 30
0.0
 10
-8.4219049583
 20
-27.9401921812
 30
0.0
 10
-8.4524940119
 20
-28.164412167
 30
0.0
 10
-8.4522469128
 20
-28.2726264029
 30
0.0
  0
SPLINE
  5
4F3
100
AcDbEntity
  8
RACCORDO
100
AcDbSpline
 62
250
  6
CONTINUOUS
 70
0
 71
3
 72
14
 73
10
 74
0
 42
0.0000001
 43
0.0000001
 44
0.0000000001
 40
0.0
 40
0.0
 40
0.0
 40
0.0
 40
0.2646284503
 40
0.3866944817
 40
0.5049427469
 40
0.6224021872
 40
0.7422168583
 40
0.8672883165
 40
1.0
 40
1.0
 40
1.0
 40
1.0
 10
-25.0634699843
 20
5.3818222791
 30
0.0
 10
-25.817377355
 20
5.6617714336
 30
0.0
 10
-26.9841314008
 20
5.939466183
 30
0.0
 10
-28.5251191471
 20
5.8970288756
 30
0.0
 10
-29.5944673026
 20
5.6656074237
 30
0.0
 10
-30.5925729964
 20
5.2345528104
 30
0.0
 10
-31.5068345972
 20
4.6092349758
 30
0.0
 10
-32.3265024068
 20
3.7984093719
 30
0.0
 10
-32.7893137659
 20
3.1619786178
 30
0.0
 10
-33.00358211
 20
2.8202932642
 30
0.0
  0
SPLINE
  5
4F4
100
AcDbEntity
  8
RACCORDO
100
AcDbSpline
 62
250
  6
CONTINUOUS
 70
0
 71
3
 72
9
 73
5
 74
0
 42
0.0000001
 43
0.0000001
 44
0.0000000001
 40
0.0
 40
0.0
 40
0.0
 40
0.0
 40
0.4667394744
 40
1.0
 40
1.0
 40
1.0
 40
1.0
 10
-33.00358211
 20
2.8202932642
 30
0.0
 10
-33.0082914429
 20
2.8127868422
 30
0.0
 10
-33.0263681881
 20
2.7997479788
 30
0.0
 10
-33.0462423631
 20
2.8083649869
 30
0.0
 10
-33.0546785773
 20
2.8139625317
 30
0.0
  0
SPLINE
  5
4F5
100
AcDbEntity
  8
RACCORDO
100
AcDbSpline
 62
250
  6
CONTINUOUS
 70
0
 71
3
 72
11
 73
7
 74
0
 42
0.0000001
 43
0.0000001
 44
0.0000000001
 40
0.0
 40
0.0
 40
0.0
 40
0.0
 40
0.1913788297
 40
0.4112701068
 40
0.6796559972
 40
1.0
 40
1.0
 40
1.0
 40
1.0
 10
-19.9140088397
 20
-31.5162931041
 30
0.0
 10
-19.9140033044
 20
-31.5868528952
 30
0.0
 10
-19.8707123781
 20
-31.7402199376
 30
0.0
 10
-19.6962124249
 20
-31.9283263579
 30
0.0
 10
-19.4354968524
 20
-32.0784103398
 30
0.0
 10
-19.2280537748
 20
-32.1465809816
 30
0.0
 10
-19.1135490691
 20
-32.1755329319
 30
0.0
  0
SPLINE
  5
4F6
100
AcDbEntity
  8
RACCORDO
100
AcDbSpline
 62
250
  6
CONTINUOUS
 70
0
 71
3
 72
11
 73
7
 74
0
 42
0.0000001
 43
0.0000001
 44
0.0000000001
 40
0.0
 40
0.0
 40
0.0
 40
0.0
 40
0.2148320248
 40
0.466842854
 40
0.7371017449
 40
1.0
 40
1.0
 40
1.0
 40
1.0
 10
-18.7122455159
 20
-30.9937873937
 30
0.0
 10
-18.790672657
 20
-31.0446350261
 30
0.0
 10
-18.9330413088
 20
-31.1978427724
 30
0.0
 10
-19.07158078
 20
-31.4904956411
 30
0.0
 10
-19.1409115142
 20
-31.8280746277
 30
0.0
 10
-19.1334508701
 20
-32.0628970174
 30
0.0
 10
-19.1135490049
 20
-32.175532889
 30
0.0
  0
SPLINE
  5
4F7
100
AcDbEntity
  8
RACCORDO
100
AcDbSpline
 62
250
  6
CONTINUOUS
 70
0
 71
3
 72
9
 73
5
 74
0
 42
0.0000001
 43
0.0000001
 44
0.0000000001
 40
0.0
 40
0.0
 40
0.0
 40
0.0
 40
0.2543024738
 40
1.0
 40
1.0
 40
1.0
 40
1.0
 10
-19.1346418252
 20
-30.5242373933
 30
0.0
 10
-19.1506546426
 20
-30.5250535668
 30
0.0
 10
-19.2135056139
 20
-30.5301322811
 30
0.0
 10
-19.2757990721
 20
-30.5428342058
 30
0.0
 10
-19.3206771336
 20
-30.5568498891
 30
0.0
  0
SPLINE
  5
4F8
100
AcDbEntity
  8
RACCORDO
100
AcDbSpline
 62
250
  6
CONTINUOUS
 70
0
 71
3
 72
9
 73
5
 74
0
 42
0.0000001
 43
0.0000001
 44
0.0000000001
 40
0.0
 40
0.0
 40
0.0
 40
0.0
 40
0.2565810511
 40
1.0
 40
1.0
 40
1.0
 40
1.0
 10
-19.3206771336
 20
-30.5568498891
 30
0.0
 10
-19.3491668569
 20
-30.5657473977
 30
0.0
 10
-19.4578750739
 20
-30.6074097969
 30
0.0
 10
-19.5552941872
 20
-30.6790177239
 30
0.0
 10
-19.6122663981
 20
-30.7440764671
 30
0.0
  0
SPLINE
  5
4F9
100
AcDbEntity
  8
RACCORDO
100
AcDbSpline
 62
250
  6
CONTINUOUS
 70
0
 71
3
 72
10
 73
6
 74
0
 42
0.0000001
 43
0.0000001
 44
0.0000000001
 40
0.0
 40
0.0
 40
0.0
 40
0.0
 40
0.2164155179
 40
0.4599362201
 40
1.0
 40
1.0
 40
1.0
 40
1.0
 10
-25.0634699843
 20
6.9824548667
 30
0.0
 10
-24.9707306501
 20
6.9205411216
 30
0.0
 10
-24.7590593891
 20
6.8104442619
 30
0.0
 10
-24.2694730099
 20
6.6462081385
 30
0.0
 10
-23.8641543814
 20
6.5933483762
 30
0.0
 10
-23.5860074417
 20
6.5852064898
 30
0.0
  0
SPLINE
  5
4FA
100
AcDbEntity
  8
RACCORDO
100
AcDbSpline
 62
250
  6
CONTINUOUS
 70
0
 71
3
 72
11
 73
7
 74
0
 42
0.0000001
 43
0.0000001
 44
0.0000000001
 40
0.0
 40
0.0
 40
0.0
 40
0.0
 40
0.270005905
 40
0.5417304255
 40
0.7916489578
 40
1.0
 40
1.0
 40
1.0
 40
1.0
 10
-22.7171161995
 20
5.2198847208
 30
0.0
 10
-22.9268931414
 20
5.1733603852
 30
0.0
 10
-23.3557274977
 20
5.1140338194
 30
0.0
 10
-23.9877203446
 20
5.1131319926
 30
0.0
 10
-24.5646576748
 20
5.1938814766
 30
0.0
 10
-24.9154161072
 20
5.3071733024
 30
0.0
 10
-25.0634699843
 20
5.3818222791
 30
0.0
  0
SPLINE
  5
4FB
100
AcDbEntity
  8
RACCORDO
100
AcDbSpline
 62
250
  6
CONTINUOUS
 70
0
 71
3
 72
9
 73
5
 74
0
 42
0.0000001
 43
0.0000001
 44
0.0000000001
 40
0.0
 40
0.0
 40
0.0
 40
0.0
 40
0.4866443791
 40
1.0
 40
1.0
 40
1.0
 40
1.0
 10
-22.0571643908
 20
5.5160379566
 30
0.0
 10
-22.1543212394
 20
5.4493366222
 30
0.0
 10
-22.3655995098
 20
5.3287932611
 30
0.0
 10
-22.5957487787
 20
5.2468097448
 30
0.0
 10
-22.7171161995
 20
5.2198847208
 30
0.0
  0
SPLINE
  5
4FC
100
AcDbEntity
  8
RACCORDO
100
AcDbSpline
 62
250
  6
CONTINUOUS
 70
0
 71
3
 72
11
 73
7
 74
0
 42
0.0000001
 43
0.0000001
 44
0.0000000001
 40
0.0
 40
0.0
 40
0.0
 40
0.0
 40
0.2850216301
 40
0.5533755646
 40
0.7937480606
 40
1.0
 40
1.0
 40
1.0
 40
1.0
 10
-23.5860074417
 20
6.5852064898
 30
0.0
 10
-23.4401336722
 20
6.5809326161
 30
0.0
 10
-23.1575408373
 20
6.556015039
 30
0.0
 10
-22.7542316925
 20
6.5065019508
 30
0.0
 10
-22.3906850895
 20
6.4634645421
 30
0.0
 10
-22.1624946493
 20
6.4457968487
 30
0.0
 10
-22.0569422993
 20
6.4424682324
 30
0.0
  0
SPLINE
  5
4FD
100
AcDbEntity
  8
RACCORDO
100
AcDbSpline
 62
250
  6
CONTINUOUS
 70
0
 71
3
 72
11
 73
7
 74
0
 42
0.0000001
 43
0.0000001
 44
0.0000000001
 40
0.0
 40
0.0
 40
0.0
 40
0.0
 40
0.3027169425
 40
0.568735177
 40
0.7978146219
 40
1.0
 40
1.0
 40
1.0
 40
1.0
 10
-19.1135490691
 20
2.4068618215
 30
0.0
 10
-19.2303795443
 20
2.4649072927
 30
0.0
 10
-19.4425936948
 20
2.5902356133
 30
0.0
 10
-19.7018194483
 20
2.8201767243
 30
0.0
 10
-19.8710813863
 20
3.0737803593
 30
0.0
 10
-19.9139834814
 20
3.2607075774
 30
0.0
 10
-19.9140084524
 20
3.3478391157
 30
0.0
  0
SPLINE
  5
4FE
100
AcDbEntity
  8
RACCORDO
100
AcDbSpline
 62
250
  6
CONTINUOUS
 70
0
 71
3
 72
9
 73
5
 74
0
 42
0.0000001
 43
0.0000001
 44
0.0000000001
 40
0.0
 40
0.0
 40
0.0
 40
0.0
 40
0.744757193
 40
1.0
 40
1.0
 40
1.0
 40
1.0
 10
-19.9102286769
 20
4.7473171073
 30
0.0
 10
-19.9060759146
 20
4.7134825285
 30
0.0
 10
-19.8958510496
 20
4.6684718165
 30
0.0
 10
-19.8803344334
 20
4.6254050881
 30
0.0
 10
-19.8760517462
 20
4.6145355869
 30
0.0
  0
SPLINE
  5
4FF
100
AcDbEntity
  8
RACCORDO
100
AcDbSpline
 62
250
  6
CONTINUOUS
 70
0
 71
3
 72
10
 73
6
 74
0
 42
0.0000001
 43
0.0000001
 44
0.0000000001
 40
0.0
 40
0.0
 40
0.0
 40
0.0
 40
0.4346792294
 40
0.7012050803
 40
1.0
 40
1.0
 40
1.0
 40
1.0
 10
-19.8760517462
 20
4.6145355869
 30
0.0
 10
-19.8231444258
 20
4.4802563006
 30
0.0
 10
-19.6584830843
 20
4.2966927782
 30
0.0
 10
-19.3790215498
 20
4.1189655468
 30
0.0
 10
-19.2064604127
 20
4.0422775164
 30
0.0
 10
-19.1135490691
 20
4.0074944091
 30
0.0
  0
SPLINE
  5
500
100
AcDbEntity
  8
RACCORDO
100
AcDbSpline
 62
250
  6
CONTINUOUS
 70
0
 71
3
 72
9
 73
5
 74
0
 42
0.0000001
 43
0.0000001
 44
0.0000000001
 40
0.0
 40
0.0
 40
0.0
 40
0.0
 40
0.2730443735
 40
1.0
 40
1.0
 40
1.0
 40
1.0
 10
-22.7171161995
 20
-29.6947515658
 30
0.0
 10
-22.6567295836
 20
-29.6838710591
 30
0.0
 10
-22.4353234135
 20
-29.6461655699
 30
0.0
 10
-22.2135779371
 20
-29.6048035462
 30
0.0
 10
-22.0571643908
 20
-29.557663404
 30
0.0
  0
SPLINE
  5
501
100
AcDbEntity
  8
RACCORDO
100
AcDbSpline
 62
250
  6
CONTINUOUS
 70
0
 71
3
 72
11
 73
7
 74
0
 42
0.0000001
 43
0.0000001
 44
0.0000000001
 40
0.0
 40
0.0
 40
0.0
 40
0.0
 40
0.2231183865
 40
0.4747228196
 40
0.7399059156
 40
1.0
 40
1.0
 40
1.0
 40
1.0
 10
-25.0634699843
 20
-29.2005724743
 30
0.0
 10
-24.9225934675
 20
-29.3174585614
 30
0.0
 10
-24.5809533666
 20
-29.5161570787
 30
0.0
 10
-23.9971593787
 20
-29.6956650609
 30
0.0
 10
-23.3600051086
 20
-29.764757099
 30
0.0
 10
-22.9271204918
 20
-29.7326098874
 30
0.0
 10
-22.7171161995
 20
-29.6947515658
 30
0.0
  0
SPLINE
  5
502
100
AcDbEntity
  8
RACCORDO
100
AcDbSpline
 62
250
  6
CONTINUOUS
 70
0
 71
3
 72
9
 73
5
 74
0
 42
0.0000001
 43
0.0000001
 44
0.0000000001
 40
0.0
 40
0.0
 40
0.0
 40
0.0
 40
0.5223722649
 40
1.0
 40
1.0
 40
1.0
 40
1.0
 10
-23.5860074417
 20
-31.2006362927
 30
0.0
 10
-23.790450422
 20
-31.1940365854
 30
0.0
 10
-24.1814344744
 20
-31.1518221135
 30
0.0
 10
-24.5610707972
 20
-31.0447702112
 30
0.0
 10
-24.7340113247
 20
-30.9735576057
 30
0.0
  0
SPLINE
  5
503
100
AcDbEntity
  8
RACCORDO
100
AcDbSpline
 62
250
  6
CONTINUOUS
 70
0
 71
3
 72
9
 73
5
 74
0
 42
0.0000001
 43
0.0000001
 44
0.0000000001
 40
0.0
 40
0.0
 40
0.0
 40
0.0
 40
0.2638543474
 40
1.0
 40
1.0
 40
1.0
 40
1.0
 10
-24.7340113247
 20
-30.9735576057
 30
0.0
 10
-24.7642762663
 20
-30.9610952559
 30
0.0
 10
-24.8779476537
 20
-30.9114652137
 30
0.0
 10
-24.9874854069
 20
-30.8518517734
 30
0.0
 10
-25.0634699843
 20
-30.8012050619
 30
0.0
  0
SPLINE
  5
504
100
AcDbEntity
  8
RACCORDO
100
AcDbSpline
 62
250
  6
CONTINUOUS
 70
0
 71
3
 72
9
 73
5
 74
0
 42
0.0000001
 43
0.0000001
 44
0.0000000001
 40
0.0
 40
0.0
 40
0.0
 40
0.0
 40
0.2438925512
 40
1.0
 40
1.0
 40
1.0
 40
1.0
 10
-22.0571643908
 20
-30.4840985198
 30
0.0
 10
-22.1152642056
 20
-30.5432980913
 30
0.0
 10
-22.3642765345
 20
-30.7748791463
 30
0.0
 10
-22.6573532848
 20
-30.961710154
 30
0.0
 10
-22.8947890312
 20
-31.0604515599
 30
0.0
  0
SPLINE
  5
505
100
AcDbEntity
  8
RACCORDO
100
AcDbSpline
 62
250
  6
CONTINUOUS
 70
0
 71
3
 72
9
 73
5
 74
0
 42
0.0000001
 43
0.0000001
 44
0.0000000001
 40
0.0
 40
0.0
 40
0.0
 40
0.0
 40
0.7494607268
 40
1.0
 40
1.0
 40
1.0
 40
1.0
 10
-22.8947890312
 20
-31.0604515599
 30
0.0
 10
-23.0582244907
 20
-31.1284187775
 30
0.0
 10
-23.2902686723
 20
-31.1935877861
 30
0.0
 10
-23.5268667403
 20
-31.2025424267
 30
0.0
 10
-23.5860074417
 20
-31.2006362927
 30
0.0
  0
SPLINE
  5
506
100
AcDbEntity
  8
RACCORDO
100
AcDbSpline
 62
250
  6
CONTINUOUS
 70
0
 71
3
 72
9
 73
5
 74
0
 42
0.0000001
 43
0.0000001
 44
0.0000000001
 40
0.0
 40
0.0
 40
0.0
 40
0.0
 40
0.5520334366
 40
1.0
 40
1.0
 40
1.0
 40
1.0
 10
-19.1135490691
 20
-33.7761655195
 30
0.0
 10
-19.2606398029
 20
-33.7209811591
 30
0.0
 10
-19.5191908325
 20
-33.5972003156
 30
0.0
 10
-19.7370939923
 20
-33.4022784532
 30
0.0
 10
-19.8086206373
 20
-33.2967485994
 30
0.0
  0
SPLINE
  5
507
100
AcDbEntity
  8
RACCORDO
100
AcDbSpline
 62
250
  6
CONTINUOUS
 70
0
 71
3
 72
9
 73
5
 74
0
 42
0.0000001
 43
0.0000001
 44
0.0000000001
 40
0.0
 40
0.0
 40
0.0
 40
0.0
 40
0.2580575364
 40
1.0
 40
1.0
 40
1.0
 40
1.0
 10
-19.8086206373
 20
-33.2967485994
 30
0.0
 10
-19.8155330826
 20
-33.2865500315
 30
0.0
 10
-19.8413391137
 20
-33.2463812144
 30
0.0
 10
-19.8630098029
 20
-33.2034988389
 30
0.0
 10
-19.8760527825
 20
-33.170565063
 30
0.0
  0
SPLINE
  5
508
100
AcDbEntity
  8
RACCORDO
100
AcDbSpline
 62
250
  6
CONTINUOUS
 70
0
 71
3
 72
8
 73
4
 74
0
 42
0.0000001
 43
0.0000001
 44
0.0000000001
 40
0.0
 40
0.0
 40
0.0
 40
0.0
 40
1.0
 40
1.0
 40
1.0
 40
1.0
 10
-19.8760527825
 20
-33.170565063
 30
0.0
 10
-19.8870848708
 20
-33.1427088262
 30
0.0
 10
-19.8960037103
 20
-33.1138975466
 30
0.0
 10
-19.9023715065
 20
-33.0846207969
 30
0.0
  0
SPLINE
  5
509
100
AcDbEntity
  8
RACCORDO
100
AcDbSpline
 62
250
  6
CONTINUOUS
 70
0
 71
3
 72
8
 73
4
 74
0
 42
0.0000001
 43
0.0000001
 44
0.0000000001
 40
0.0
 40
0.0
 40
0.0
 40
0.0
 40
1.0
 40
1.0
 40
1.0
 40
1.0
 10
-19.9102286769
 20
-33.0385256751
 30
0.0
 10
-19.9118948187
 20
-33.025025296
 30
0.0
 10
-19.9129436516
 20
-33.0114400434
 30
0.0
 10
-19.9135006716
 20
-32.9978486492
 30
0.0
  0
SPLINE
  5
50A
100
AcDbEntity
  8
RACCORDO
100
AcDbSpline
 62
250
  6
CONTINUOUS
 70
0
 71
3
 72
9
 73
5
 74
0
 42
0.0000001
 43
0.0000001
 44
0.0000000001
 40
0.0
 40
0.0
 40
0.0
 40
0.0
 40
0.52454847
 40
1.0
 40
1.0
 40
1.0
 40
1.0
 10
-22.972952462
 20
-28.5569714338
 30
0.0
 10
-22.7529446918
 20
-28.6564528216
 30
0.0
 10
-22.3824199669
 20
-28.9532219276
 30
0.0
 10
-22.1290932957
 20
-29.3509670839
 30
0.0
 10
-22.0571643908
 20
-29.557663404
 30
0.0
  0
SPLINE
  5
50B
100
AcDbEntity
  8
RACCORDO
100
AcDbSpline
 62
7
  6
CONTINUOUS
 70
0
 71
3
 72
11
 73
7
 74
0
 42
0.0000001
 43
0.0000001
 44
0.0000000001
 40
0.0
 40
0.0
 40
0.0
 40
0.0
 40
0.2378107648
 40
0.4967897799
 40
0.757491341
 40
1.0
 40
1.0
 40
1.0
 40
1.0
 10
-15.0583527447
 20
-24.4820195797
 30
0.0
 10
-14.9693947198
 20
-24.5420326799
 30
0.0
 10
-14.8033340243
 20
-24.6973215816
 30
0.0
 10
-14.6127012901
 20
-24.9839906982
 30
0.0
 10
-14.485462927
 20
-25.3061540123
 30
0.0
 10
-14.4510996449
 20
-25.5336113349
 30
0.0
 10
-14.4510996457
 20
-25.6430396325
 30
0.0
  0
SPLINE
  5
50C
100
AcDbEntity
  8
RACCORDO
100
AcDbSpline
 62
250
  6
CONTINUOUS
 70
0
 71
3
 72
9
 73
5
 74
0
 42
0.0000001
 43
0.0000001
 44
0.0000000001
 40
0.0
 40
0.0
 40
0.0
 40
0.0
 40
0.5066697915
 40
1.0
 40
1.0
 40
1.0
 40
1.0
 10
-22.0571643908
 20
-30.4840985198
 30
0.0
 10
-22.1461512188
 20
-30.6517181417
 30
0.0
 10
-22.3631743871
 20
-30.9628353486
 30
0.0
 10
-22.6673668874
 20
-31.1965598612
 30
0.0
 10
-22.8332844439
 20
-31.2778920142
 30
0.0
  0
SPLINE
  5
50D
100
AcDbEntity
  8
RACCORDO
100
AcDbSpline
 62
250
  6
CONTINUOUS
 70
0
 71
3
 72
9
 73
5
 74
0
 42
0.0000001
 43
0.0000001
 44
0.0000000001
 40
0.0
 40
0.0
 40
0.0
 40
0.0
 40
0.4688148041
 40
1.0
 40
1.0
 40
1.0
 40
1.0
 10
-32.3456306554
 20
-14.9277628132
 30
0.0
 10
-32.2167555438
 20
-14.9954000672
 30
0.0
 10
-31.9795156903
 20
-15.20953848
 30
0.0
 10
-31.8198664726
 20
-15.4805781496
 30
0.0
 10
-31.7571006353
 20
-15.633075493
 30
0.0
  0
SPLINE
  5
50E
100
AcDbEntity
  8
RACCORDO
100
AcDbSpline
 62
7
  6
CONTINUOUS
 70
0
 71
3
 72
9
 73
5
 74
0
 42
0.0000001
 43
0.0000001
 44
0.0000000001
 40
0.0
 40
0.0
 40
0.0
 40
0.0
 40
0.4704233222
 40
1.0
 40
1.0
 40
1.0
 40
1.0
 10
-25.2783586879
 20
-11.3118848181
 30
0.0
 10
-25.1466582803
 20
-11.3777350217
 30
0.0
 10
-24.9038498064
 20
-11.5903516599
 30
0.0
 10
-24.7420299602
 20
-11.8636139399
 30
0.0
 10
-24.6794426162
 20
-12.0171049977
 30
0.0
  0
SPLINE
  5
50F
100
AcDbEntity
  8
RACCORDO
100
AcDbSpline
 62
250
  6
CONTINUOUS
 70
0
 71
3
 72
9
 73
5
 74
0
 42
0.0000001
 43
0.0000001
 44
0.0000000001
 40
0.0
 40
0.0
 40
0.0
 40
0.0
 40
0.2604921037
 40
1.0
 40
1.0
 40
1.0
 40
1.0
 10
-31.7571006353
 20
2.3987118366
 30
0.0
 10
-31.7674921804
 20
2.3838414491
 30
0.0
 10
-31.8105291591
 20
2.329070578
 30
0.0
 10
-31.8676734862
 20
2.2849877352
 30
0.0
 10
-31.9142758293
 20
2.2630643665
 30
0.0
  0
SPLINE
  5
510
100
AcDbEntity
  8
RACCORDO
100
AcDbSpline
 62
250
  6
CONTINUOUS
 70
0
 71
3
 72
10
 73
6
 74
0
 42
0.0000001
 43
0.0000001
 44
0.0000000001
 40
0.0
 40
0.0
 40
0.0
 40
0.0
 40
0.2750851696
 40
0.5493181227
 40
1.0
 40
1.0
 40
1.0
 40
1.0
 10
-23.5565213394
 20
7.2671271752
 30
0.0
 10
-23.4010077983
 20
7.2371217967
 30
0.0
 10
-23.0986662905
 20
7.134468312
 30
0.0
 10
-22.5885857712
 20
6.8657723571
 30
0.0
 10
-22.25038094
 20
6.6156739436
 30
0.0
 10
-22.0571643908
 20
6.4424730724
 30
0.0
  0
SPLINE
  5
511
100
AcDbEntity
  8
RACCORDO
100
AcDbSpline
 62
7
  6
CONTINUOUS
 70
0
 71
3
 72
11
 73
7
 74
0
 42
0.0000001
 43
0.0000001
 44
0.0000000001
 40
0.0
 40
0.0
 40
0.0
 40
0.0
 40
0.2900411804
 40
0.5499238609
 40
0.7828115229
 40
1.0
 40
1.0
 40
1.0
 40
1.0
 10
-14.4510996457
 20
9.1194892587
 30
0.0
 10
-14.4510996453
 20
9.057843816
 30
0.0
 10
-14.4612090047
 20
8.9405117649
 30
0.0
 10
-14.5120665174
 20
8.7803142989
 30
0.0
 10
-14.597239006
 20
8.6528456555
 30
0.0
 10
-14.6764330158
 20
8.594831807
 30
0.0
 10
-14.7181500567
 20
8.5750693498
 30
0.0
  0
SPLINE
  5
512
100
AcDbEntity
  8
RACCORDO
100
AcDbSpline
 62
250
  6
CONTINUOUS
 70
0
 71
3
 72
9
 73
5
 74
0
 42
0.0000001
 43
0.0000001
 44
0.0000000001
 40
0.0
 40
0.0
 40
0.0
 40
0.0
 40
0.5245392505
 40
1.0
 40
1.0
 40
1.0
 40
1.0
 10
-22.0571643908
 20
5.5160379566
 30
0.0
 10
-22.0931381358
 20
5.3771153355
 30
0.0
 10
-22.2006607144
 20
5.1178479121
 30
0.0
 10
-22.4161937184
 20
4.9281634296
 30
0.0
 10
-22.5336986942
 20
4.8723710449
 30
0.0
  0
SPLINE
  5
513
100
AcDbEntity
  8
RACCORDO
100
AcDbSpline
 62
250
  6
CONTINUOUS
 70
0
 71
3
 72
11
 73
7
 74
0
 42
0.0000001
 43
0.0000001
 44
0.0000000001
 40
0.0
 40
0.0
 40
0.0
 40
0.0
 40
0.2584912409
 40
0.5324719478
 40
0.7885013113
 40
1.0
 40
1.0
 40
1.0
 40
1.0
 10
-36.5907025911
 20
-11.1063959788
 30
0.0
 10
-36.5923178647
 20
-11.2310853844
 30
0.0
 10
-36.5637776684
 20
-11.48849133
 30
0.0
 10
-36.4565565743
 20
-11.8553011431
 30
0.0
 10
-36.2983392356
 20
-12.1777094096
 30
0.0
 10
-36.1564786778
 20
-12.357893904
 30
0.0
 10
-36.0788645181
 20
-12.4241220014
 30
0.0
  0
SPLINE
  5
514
100
AcDbEntity
  8
RACCORDO
100
AcDbSpline
 62
250
  6
CONTINUOUS
 70
0
 71
3
 72
9
 73
5
 74
0
 42
0.0000001
 43
0.0000001
 44
0.0000000001
 40
0.0
 40
0.0
 40
0.0
 40
0.0
 40
0.5225171153
 40
1.0
 40
1.0
 40
1.0
 40
1.0
 10
-2.9429445993
 20
-28.9920819609
 30
0.0
 10
-2.8453254438
 20
-29.0205018537
 30
0.0
 10
-2.6483194377
 20
-29.047680232
 30
0.0
 10
-2.4533840726
 20
-28.9971102902
 30
0.0
 10
-2.3713268876
 20
-28.9535358663
 30
0.0
  0
SPLINE
  5
515
100
AcDbEntity
  8
RACCORDO
100
AcDbSpline
 62
250
  6
CONTINUOUS
 70
0
 71
3
 72
15
 73
11
 74
0
 42
0.0000001
 43
0.0000001
 44
0.0000000001
 40
0.0
 40
0.0
 40
0.0
 40
0.0
 40
0.1327278736
 40
0.2489171733
 40
0.3538747081
 40
0.4567637061
 40
0.5675657884
 40
0.693497618
 40
0.8377036505
 40
1.0
 40
1.0
 40
1.0
 40
1.0
 10
-36.7879124401
 20
5.2909368257
 30
0.0
 10
-36.8578948377
 20
5.3373746733
 30
0.0
 10
-36.9976152977
 20
5.4131349322
 30
0.0
 10
-37.2177957207
 20
5.4683174895
 30
0.0
 10
-37.4266981686
 20
5.4501837336
 30
0.0
 10
-37.6103630807
 20
5.3554475238
 30
0.0
 10
-37.7561301942
 20
5.1923391638
 30
0.0
 10
-37.860771574
 20
4.9725202649
 30
0.0
 10
-37.9235575111
 20
4.7045988032
 30
0.0
 10
-37.936053087
 20
4.5102187499
 30
0.0
 10
-37.9360496899
 20
4.4075201223
 30
0.0
  0
SPLINE
  5
516
100
AcDbEntity
  8
RACCORDO
100
AcDbSpline
 62
250
  6
CONTINUOUS
 70
0
 71
3
 72
11
 73
7
 74
0
 42
0.0000001
 43
0.0000001
 44
0.0000000001
 40
0.0
 40
0.0
 40
0.0
 40
0.0
 40
0.2524296714
 40
0.5224300815
 40
0.7801799135
 40
1.0
 40
1.0
 40
1.0
 40
1.0
 10
-37.9360496899
 20
-11.0525899943
 30
0.0
 10
-37.936063516
 20
-11.2845492713
 30
0.0
 10
-37.8679213824
 20
-11.7650617186
 30
0.0
 10
-37.6250412951
 20
-12.4442218093
 30
0.0
 10
-37.2694289672
 20
-13.0366236704
 30
0.0
 10
-36.9556943209
 20
-13.3552937014
 30
0.0
 10
-36.7879124401
 20
-13.4677697589
 30
0.0
  0
SPLINE
  5
517
100
AcDbEntity
  8
RACCORDO
100
AcDbSpline
 62
250
  6
CONTINUOUS
 70
0
 71
3
 72
12
 73
8
 74
0
 42
0.0000001
 43
0.0000001
 44
0.0000000001
 40
0.0
 40
0.0
 40
0.0
 40
0.0
 40
0.0258586143
 40
0.0767354479
 40
0.2643638463
 40
0.5725732197
 40
1.0
 40
1.0
 40
1.0
 40
1.0
 10
-19.5818796798
 20
5.3651561328
 30
0.0
 10
-19.580019546
 20
5.3661134934
 30
0.0
 10
-19.5732134328
 20
5.364036607
 30
0.0
 10
-19.5557347511
 20
5.3531067898
 30
0.0
 10
-19.5220776867
 20
5.3228707875
 30
0.0
 10
-19.4713916974
 20
5.268660253
 30
0.0
 10
-19.4335865395
 20
5.22240576
 30
0.0
 10
-19.4124074336
 20
5.1950702223
 30
0.0
  0
SPLINE
  5
518
100
AcDbEntity
  8
RACCORDO
100
AcDbSpline
 62
250
  6
CONTINUOUS
 70
0
 71
3
 72
9
 73
5
 74
0
 42
0.0000001
 43
0.0000001
 44
0.0000000001
 40
0.0
 40
0.0
 40
0.0
 40
0.0
 40
0.2163690495
 40
1.0
 40
1.0
 40
1.0
 40
1.0
 10
-33.0546785773
 20
-15.9714105706
 30
0.0
 10
-33.0492154103
 20
-15.9750751773
 30
0.0
 10
-33.0262467949
 20
-15.9953254289
 30
0.0
 10
-33.0112808768
 20
-16.0233634683
 30
0.0
 10
-33.00358211
 20
-16.0459105758
 30
0.0
  0
SPLINE
  5
519
100
AcDbEntity
  8
RACCORDO
100
AcDbSpline
 62
250
  6
CONTINUOUS
 70
0
 71
3
 72
11
 73
7
 74
0
 42
0.0000001
 43
0.0000001
 44
0.0000000001
 40
0.0
 40
0.0
 40
0.0
 40
0.0
 40
0.2653387935
 40
0.5251213548
 40
0.7720614551
 40
1.0
 40
1.0
 40
1.0
 40
1.0
 10
-33.00358211
 20
-16.0459105758
 30
0.0
 10
-32.5607951172
 20
-17.342740429
 30
0.0
 10
-31.5495222522
 20
-19.8653515236
 30
0.0
 10
-29.6831080815
 20
-23.3974083657
 30
0.0
 10
-27.5429708473
 20
-26.5401035069
 30
0.0
 10
-25.9114899969
 20
-28.3840996357
 30
0.0
 10
-25.0634699843
 20
-29.2005724743
 30
0.0
  0
SPLINE
  5
51A
100
AcDbEntity
  8
DRAFT
100
AcDbSpline
 62
7
  6
CONTINUOUS
 70
0
 71
3
 72
16
 73
12
 74
0
 42
0.0000001
 43
0.0000001
 44
0.0000000001
 40
0.0
 40
0.0
 40
0.0
 40
0.0
 40
0.1327122132
 40
0.2750584199
 40
0.4204530546
 40
0.5617344842
 40
0.6924913119
 40
0.8084144786
 40
0.9090154367
 40
0.95520283
 40
1.0
 40
1.0
 40
1.0
 40
1.0
 10
-14.9814297316
 20
-7.9966101439
 30
0.0
 10
-14.9814297316
 20
-8.220297418
 30
0.0
 10
-14.9260457016
 20
-8.6846146116
 30
0.0
 10
-14.7117178069
 20
-9.3636164092
 30
0.0
 10
-14.3784501162
 20
-10.0093859636
 30
0.0
 10
-13.9511920785
 20
-10.5730905094
 30
0.0
 10
-13.4607701701
 20
-11.0128511505
 30
0.0
 10
-12.9415785133
 20
-11.2965492072
 30
0.0
 10
-12.4959078819
 20
-11.3820534764
 30
0.0
 10
-12.173248891
 20
-11.3407342215
 30
0.0
 10
-12.0279041084
 20
-11.2869800662
 30
0.0
 10
-11.9606044763
 20
-11.2527470056
 30
0.0
  0
SPLINE
  5
51B
100
AcDbEntity
  8
RACCORDO
100
AcDbSpline
 62
250
  6
CONTINUOUS
 70
0
 71
3
 72
9
 73
5
 74
0
 42
0.0000001
 43
0.0000001
 44
0.0000000001
 40
0.0
 40
0.0
 40
0.0
 40
0.0
 40
0.4268942357
 40
1.0
 40
1.0
 40
1.0
 40
1.0
 10
-19.2857487978
 20
-30.4871668594
 30
0.0
 10
-19.2530393595
 20
-30.4699311412
 30
0.0
 10
-19.1598636469
 20
-30.4630534845
 30
0.0
 10
-19.0797023446
 20
-30.5003059875
 30
0.0
 10
-19.0367010374
 20
-30.5250971462
 30
0.0
  0
SPLINE
  5
51C
100
AcDbEntity
  8
RACCORDO
100
AcDbSpline
 62
7
  6
CONTINUOUS
 70
0
 71
3
 72
9
 73
5
 74
0
 42
0.0000001
 43
0.0000001
 44
0.0000000001
 40
0.0
 40
0.0
 40
0.0
 40
0.0
 40
0.4746507641
 40
1.0
 40
1.0
 40
1.0
 40
1.0
 10
-11.5654625222
 20
-26.4220756535
 30
0.0
 10
-11.5147673291
 20
-26.3953745791
 30
0.0
 10
-11.3932264637
 20
-26.3647138523
 30
0.0
 10
-11.2714012338
 20
-26.38602597
 30
0.0
 10
-11.2110961486
 20
-26.4056478777
 30
0.0
  0
SPLINE
  5
51D
100
AcDbEntity
  8
DRAFT
100
AcDbSpline
 62
7
  6
CONTINUOUS
 70
0
 71
3
 72
13
 73
9
 74
0
 42
0.0000001
 43
0.0000001
 44
0.0000000001
 40
0.0
 40
0.0
 40
0.0
 40
0.0
 40
0.3021613772
 40
0.5724983626
 40
0.6923952193
 40
0.8019895817
 40
0.9032926358
 40
1.0
 40
1.0
 40
1.0
 40
1.0
 10
-21.0378053366
 20
-6.5947151213
 30
0.0
 10
-20.8856134692
 20
-6.8372327261
 30
0.0
 10
-20.5480137513
 20
-7.2680539049
 30
0.0
 10
-20.0214620143
 20
-7.676515162
 30
0.0
 10
-19.5830882923
 20
-7.862533522
 30
0.0
 10
-19.2731502363
 20
-7.9246420368
 30
0.0
 10
-18.9787792392
 20
-7.9111567365
 30
0.0
 10
-18.7981593797
 20
-7.8498799405
 30
0.0
 10
-18.7166879371
 20
-7.8079324154
 30
0.0
  0
SPLINE
  5
51E
100
AcDbEntity
  8
DRAFT
100
AcDbSpline
 62
7
  6
CONTINUOUS
 70
0
 71
3
 72
20
 73
16
 74
0
 42
0.0000001
 43
0.0000001
 44
0.0000000001
 40
0.0
 40
0.0
 40
0.0
 40
0.0
 40
0.0484735578
 40
0.1010530241
 40
0.1588643128
 40
0.222112264
 40
0.3620841923
 40
0.4367174489
 40
0.5123119674
 40
0.6595733218
 40
0.792245576
 40
0.8509632376
 40
0.9043513227
 40
0.9534070221
 40
1.0
 40
1.0
 40
1.0
 40
1.0
 10
-7.7352744521
 20
-10.1543682571
 30
0.0
 10
-7.8120727747
 20
-10.2195531496
 30
0.0
 10
-7.9516557435
 20
-10.3808299156
 30
0.0
 10
-8.0972693884
 20
-10.6802982766
 30
0.0
 10
-8.1830695149
 20
-11.0332142117
 30
0.0
 10
-8.216299932
 20
-11.576758899
 30
0.0
 10
-8.1192229891
 20
-12.1543501032
 30
0.0
 10
-7.9181850035
 20
-12.7236592716
 30
0.0
 10
-7.6462434306
 20
-13.2803028963
 30
0.0
 10
-7.21237617
 20
-13.8861862453
 30
0.0
 10
-6.6652078261
 20
-14.3468738089
 30
0.0
 10
-6.2017852994
 20
-14.5634737089
 30
0.0
 10
-5.8727323495
 20
-14.6402630567
 30
0.0
 10
-5.5593649747
 20
-14.6330607354
 30
0.0
 10
-5.3671970743
 20
-14.5694853242
 30
0.0
 10
-5.2811081413
 20
-14.5251717736
 30
0.0
  0
SPLINE
  5
51F
100
AcDbEntity
  8
RACCORDO
100
AcDbSpline
 62
250
  6
CONTINUOUS
 70
0
 71
3
 72
11
 73
7
 74
0
 42
0.0000001
 43
0.0000001
 44
0.0000000001
 40
0.0
 40
0.0
 40
0.0
 40
0.0
 40
0.1989350171
 40
0.4265106341
 40
0.6932752302
 40
1.0
 40
1.0
 40
1.0
 40
1.0
 10
-19.4124074336
 20
5.1950702223
 30
0.0
 10
-19.4055326798
 20
5.1389991137
 30
0.0
 10
-19.3628279365
 20
5.0215655115
 30
0.0
 10
-19.2330052565
 20
4.869903406
 30
0.0
 10
-19.0454982761
 20
4.7381684166
 30
0.0
 10
-18.8964724201
 20
4.6704578877
 30
0.0
 10
-18.8148977278
 20
4.6399303419
 30
0.0
  0
SPLINE
  5
520
100
AcDbEntity
  8
RACCORDO
100
AcDbSpline
 62
250
  6
CONTINUOUS
 70
0
 71
3
 72
9
 73
5
 74
0
 42
0.0000001
 43
0.0000001
 44
0.0000000001
 40
0.0
 40
0.0
 40
0.0
 40
0.0
 40
0.4591468771
 40
1.0
 40
1.0
 40
1.0
 40
1.0
 10
-24.6646182463
 20
7.5647906011
 30
0.0
 10
-24.5172880371
 20
7.4664034658
 30
0.0
 10
-24.1502683495
 20
7.3234618549
 30
0.0
 10
-23.7651229031
 20
7.2731284103
 30
0.0
 10
-23.5565213394
 20
7.2671271752
 30
0.0
  0
SPLINE
  5
521
100
AcDbEntity
  8
DRAFT
100
AcDbSpline
 62
7
  6
CONTINUOUS
 70
0
 71
3
 72
13
 73
9
 74
0
 42
0.0000001
 43
0.0000001
 44
0.0000000001
 40
0.0
 40
0.0
 40
0.0
 40
0.0
 40
0.3021113507
 40
0.5733456022
 40
0.6935033231
 40
0.8030361358
 40
0.9039389679
 40
1.0
 40
1.0
 40
1.0
 40
1.0
 10
-5.2316435568
 20
-14.4977960112
 30
0.0
 10
-5.0745004034
 20
-14.7632396677
 30
0.0
 10
-4.7209958473
 20
-15.2366346987
 30
0.0
 10
-4.162184224
 20
-15.6896812995
 30
0.0
 10
-3.6927401019
 20
-15.8998045029
 30
0.0
 10
-3.3600987544
 20
-15.9724218539
 30
0.0
 10
-3.0437005735
 20
-15.9621024865
 30
0.0
 10
-2.8496180222
 20
-15.8972710956
 30
0.0
 10
-2.7623610465
 20
-15.852476838
 30
0.0
  0
SPLINE
  5
522
100
AcDbEntity
  8
RACCORDO
100
AcDbSpline
 62
7
  6
CONTINUOUS
 70
0
 71
3
 72
9
 73
5
 74
0
 42
0.0000001
 43
0.0000001
 44
0.0000000001
 40
0.0
 40
0.0
 40
0.0
 40
0.0
 40
0.2614221275
 40
1.0
 40
1.0
 40
1.0
 40
1.0
 10
-11.2110961486
 20
-26.4056478777
 30
0.0
 10
-10.9458514588
 20
-26.4919524897
 30
0.0
 10
-9.9209355811
 20
-26.7882080452
 30
0.0
 10
-8.8513282549
 20
-26.9408484062
 30
0.0
 10
-8.063311846
 20
-26.9479236511
 30
0.0
  0
SPLINE
  5
523
100
AcDbEntity
  8
RACCORDO
100
AcDbSpline
 62
7
  6
CONTINUOUS
 70
0
 71
3
 72
9
 73
5
 74
0
 42
0.0000001
 43
0.0000001
 44
0.0000000001
 40
0.0
 40
0.0
 40
0.0
 40
0.0
 40
0.5067101446
 40
1.0
 40
1.0
 40
1.0
 40
1.0
 10
-23.5838933988
 20
-14.4103658399
 30
0.0
 10
-22.9996025445
 20
-15.5572843936
 30
0.0
 10
-21.7070373814
 20
-17.7524263163
 30
0.0
 10
-20.1488426747
 20
-19.7691400885
 30
0.0
 10
-19.3156366528
 20
-20.7050812085
 30
0.0
  0
SPLINE
  5
524
100
AcDbEntity
  8
RACCORDO
100
AcDbSpline
 62
7
  6
CONTINUOUS
 70
0
 71
3
 72
9
 73
5
 74
0
 42
0.0000001
 43
0.0000001
 44
0.0000000001
 40
0.0
 40
0.0
 40
0.0
 40
0.0
 40
0.2568248351
 40
1.0
 40
1.0
 40
1.0
 40
1.0
 10
-17.518208511
 20
-22.5322246399
 30
0.0
 10
-17.3199651162
 20
-22.713827782
 30
0.0
 10
-16.5360457763
 20
-23.4076126398
 30
0.0
 10
-15.703286205
 20
-24.0469328546
 30
0.0
 10
-15.0583527447
 20
-24.4820195797
 30
0.0
  0
LINE
  5
525
100
AcDbEntity
  8
RACCORDO
100
AcDbLine
 62
250
  6
CONTINUOUS
 10
-25.278358681
 20
-11.3118848216
 11
-32.3456306554
 21
-14.9277628132
  0
SPLINE
  5
526
100
AcDbEntity
  8
RACCORDO
100
AcDbSpline
 62
250
  6
CONTINUOUS
 70
0
 71
3
 72
13
 73
9
 74
0
 42
0.0000001
 43
0.0000001
 44
0.0000000001
 40
0.0
 40
0.0
 40
0.0
 40
0.0
 40
0.0216289295
 40
0.0737656448
 40
0.1580127241
 40
0.2732255389
 40
0.5895656998
 40
1.0
 40
1.0
 40
1.0
 40
1.0
 10
-23.571661907
 20
-31.4508299281
 30
0.0
 10
-23.5734768908
 20
-31.4507691936
 30
0.0
 10
-23.5761768158
 20
-31.443078629
 30
0.0
 10
-23.5783555993
 20
-31.4316104575
 30
0.0
 10
-23.5808187545
 20
-31.4097523319
 30
0.0
 10
-23.5836797575
 20
-31.3670331555
 30
0.0
 10
-23.5857719289
 20
-31.2959918864
 30
0.0
 10
-23.58609863
 20
-31.2350916702
 30
0.0
 10
-23.5860067988
 20
-31.2006310701
 30
0.0
  0
SPLINE
  5
527
100
AcDbEntity
  8
RACCORDO
100
AcDbSpline
 62
250
  6
CONTINUOUS
 70
0
 71
3
 72
9
 73
5
 74
0
 42
0.0000001
 43
0.0000001
 44
0.0000000001
 40
0.0
 40
0.0
 40
0.0
 40
0.0
 40
0.4679565525
 40
1.0
 40
1.0
 40
1.0
 40
1.0
 10
-24.9408253129
 20
-31.0672256844
 30
0.0
 10
-24.9800266555
 20
-31.0410642427
 30
0.0
 10
-25.0467170687
 20
-30.957666751
 30
0.0
 10
-25.0634516324
 20
-30.8547886852
 30
0.0
 10
-25.0634699843
 20
-30.8012050619
 30
0.0
  0
SPLINE
  5
528
100
AcDbEntity
  8
DRAFT
100
AcDbSpline
 62
7
  6
CONTINUOUS
 70
0
 71
3
 72
19
 73
15
 74
0
 42
0.0000001
 43
0.0000001
 44
0.0000000001
 40
0.0
 40
0.0
 40
0.0
 40
0.0
 40
0.0472392302
 40
0.0972262631
 40
0.1520170294
 40
0.212547162
 40
0.3494093843
 40
0.5000481352
 40
0.6506704235
 40
0.7874936696
 40
0.8479986834
 40
0.9027638013
 40
0.9527362852
 40
1.0
 40
1.0
 40
1.0
 40
1.0
 10
-23.4878002104
 20
-1.9778127449
 30
0.0
 10
-23.5830959427
 20
-2.0241245178
 30
0.0
 10
-23.7645066737
 20
-2.1529515594
 30
0.0
 10
-23.9716049984
 20
-2.4293603354
 30
0.0
 10
-24.111522112
 20
-2.7764641301
 30
0.0
 10
-24.2083441458
 20
-3.3370539164
 30
0.0
 10
-24.133689133
 20
-4.1273500964
 30
0.0
 10
-23.7954517895
 20
-5.059107159
 30
0.0
 10
-23.2526250114
 20
-5.8883928062
 30
0.0
 10
-22.6650254738
 20
-6.421893288
 30
0.0
 10
-22.1583898024
 20
-6.6802249769
 30
0.0
 10
-21.7968283393
 20
-6.7762018315
 30
0.0
 10
-21.451441129
 20
-6.7760514314
 30
0.0
 10
-21.2396622236
 20
-6.7077590509
 30
0.0
 10
-21.1454347365
 20
-6.6591907714
 30
0.0
  0
SPLINE
  5
529
100
AcDbEntity
  8
DRAFT
100
AcDbSpline
 62
7
  6
CONTINUOUS
 70
0
 71
3
 72
11
 73
7
 74
0
 42
0.0000001
 43
0.0000001
 44
0.0000000001
 40
0.0
 40
0.0
 40
0.0
 40
0.0
 40
0.2171706445
 40
0.4502797708
 40
0.7101611877
 40
1.0
 40
1.0
 40
1.0
 40
1.0
 10
-14.2960113095
 20
-6.5807684153
 30
0.0
 10
-14.403378322
 20
-6.6334215722
 30
0.0
 10
-14.6067519462
 20
-6.786089246
 30
0.0
 10
-14.825005116
 20
-7.1178441634
 30
0.0
 10
-14.9555090423
 20
-7.5331624202
 30
0.0
 10
-14.9814297316
 20
-7.8370134466
 30
0.0
 10
-14.9814297316
 20
-7.9966101439
 30
0.0
  0
SPLINE
  5
52A
100
AcDbEntity
  8
RACCORDO
100
AcDbSpline
 62
250
  6
CONTINUOUS
 70
0
 71
3
 72
9
 73
5
 74
0
 42
0.0000001
 43
0.0000001
 44
0.0000000001
 40
0.0
 40
0.0
 40
0.0
 40
0.0
 40
0.4473351142
 40
1.0
 40
1.0
 40
1.0
 40
1.0
 10
-38.1830987109
 20
15.8266892205
 30
0.0
 10
-38.183085169
 20
15.798988785
 30
0.0
 10
-38.1601399675
 20
15.7369377548
 30
0.0
 10
-38.1116603076
 20
15.6957377161
 30
0.0
 10
-38.0831904452
 20
15.6767464833
 30
0.0
  0
SPLINE
  5
52B
100
AcDbEntity
  8
RACCORDO
100
AcDbSpline
 62
250
  6
CONTINUOUS
 70
0
 71
3
 72
9
 73
5
 74
0
 42
0.0000001
 43
0.0000001
 44
0.0000000001
 40
0.0
 40
0.0
 40
0.0
 40
0.0
 40
0.4497737562
 40
1.0
 40
1.0
 40
1.0
 40
1.0
 10
-38.1823717258
 20
-21.989009435
 30
0.0
 10
-38.1795929606
 20
-22.0147668491
 30
0.0
 10
-38.154501861
 20
-22.0700373588
 30
0.0
 10
-38.1095557002
 20
-22.1079243005
 30
0.0
 10
-38.0831904452
 20
-22.1255116245
 30
0.0
  0
LINE
  5
52C
100
AcDbEntity
  8
RACCORDO
100
AcDbLine
 62
250
  6
CONTINUOUS
 10
-25.888569818
 20
5.1541962581
 11
-31.7571006352
 21
2.3987118367
  0
LINE
  5
52D
100
AcDbEntity
  8
RACCORDO
100
AcDbLine
 62
250
  6
CONTINUOUS
 10
-2.3000743778
 20
-24.1510228491
 11
-7.923559705
 21
-27.1387982884
  0
LINE
  5
52E
100
AcDbEntity
  8
RACCORDO
100
AcDbLine
 62
250
  6
CONTINUOUS
 10
-15.0583526228
 20
-24.4820196619
 11
-19.6740692819
 21
-26.8585018672
  0
LINE
  5
52F
100
AcDbEntity
  8
RACCORDO
100
AcDbLine
 62
250
  6
CONTINUOUS
 10
-24.6794426271
 20
-12.017104971
 11
-31.7571006352
 21
-15.6330754932
  0
SPLINE
  5
530
100
AcDbEntity
  8
RACCORDO
100
AcDbSpline
 62
250
  6
CONTINUOUS
 70
0
 71
3
 72
11
 73
7
 74
0
 42
0.0000001
 43
0.0000001
 44
0.0000000001
 40
0.0
 40
0.0
 40
0.0
 40
0.0
 40
0.2655955489
 40
0.5254876951
 40
0.7723498994
 40
1.0
 40
1.0
 40
1.0
 40
1.0
 10
-31.7571006352
 20
-15.6330754932
 30
0.0
 10
-31.3371382346
 20
-16.8744332192
 30
0.0
 10
-30.3781710013
 20
-19.2892283826
 30
0.0
 10
-28.6081872605
 20
-22.6721271705
 30
0.0
 10
-26.5789844873
 20
-25.6834248761
 30
0.0
 10
-25.031549507
 20
-27.4525277139
 30
0.0
 10
-24.2270387083
 20
-28.2363924304
 30
0.0
  0
SPLINE
  5
531
100
AcDbEntity
  8
RACCORDO
100
AcDbSpline
 62
250
  6
CONTINUOUS
 70
0
 71
3
 72
10
 73
6
 74
0
 42
0.0000001
 43
0.0000001
 44
0.0000000001
 40
0.0
 40
0.0
 40
0.0
 40
0.0
 40
0.4797048653
 40
0.7435497471
 40
1.0
 40
1.0
 40
1.0
 40
1.0
 10
-24.2270387083
 20
-28.2363924304
 30
0.0
 10
-24.0746308592
 20
-28.3848328182
 30
0.0
 10
-23.7571341814
 20
-28.5315885163
 30
0.0
 10
-23.3176902297
 20
-28.5910190817
 30
0.0
 10
-23.0849966442
 20
-28.576517687
 30
0.0
 10
-22.9729524625
 20
-28.5569714339
 30
0.0
  0
SPLINE
  5
532
100
AcDbEntity
  8
RACCORDO
100
AcDbSpline
 62
250
  6
CONTINUOUS
 70
0
 71
3
 72
11
 73
7
 74
0
 42
0.0000001
 43
0.0000001
 44
0.0000000001
 40
0.0
 40
0.0
 40
0.0
 40
0.0
 40
0.2640769759
 40
0.51722303
 40
0.7615603202
 40
1.0
 40
1.0
 40
1.0
 40
1.0
 10
-18.7122452153
 20
-30.9937891769
 30
0.0
 10
-18.0868732395
 20
-31.0871168671
 30
0.0
 10
-16.8479372601
 20
-31.1896746489
 30
0.0
 10
-15.0212836305
 20
-31.0713104785
 30
0.0
 10
-13.2959343089
 20
-30.6771771771
 30
0.0
 10
-12.2229341268
 20
-30.2288016595
 30
0.0
 10
-11.7179196581
 20
-29.9625285728
 30
0.0
  0
LINE
  5
533
100
AcDbEntity
  8
RACCORDO
100
AcDbLine
 62
250
  6
CONTINUOUS
 10
-19.0367010375
 20
-30.5250971464
 11
-11.9148441893
 21
-26.7761068388
  0
SPLINE
  5
534
100
AcDbEntity
  8
RACCORDO
100
AcDbSpline
 62
250
  6
CONTINUOUS
 70
0
 71
3
 72
14
 73
10
 74
0
 42
0.0000001
 43
0.0000001
 44
0.0000000001
 40
0.0
 40
0.0
 40
0.0
 40
0.0
 40
0.1253842217
 40
0.2330538518
 40
0.3301201176
 40
0.4282337957
 40
0.5389946133
 40
0.6699259156
 40
1.0
 40
1.0
 40
1.0
 40
1.0
 10
-19.0367010375
 20
-30.5250971464
 30
0.0
 10
-19.0577055509
 20
-30.5482670759
 30
0.0
 10
-19.0931197196
 20
-30.5950503602
 30
0.0
 10
-19.1243326892
 20
-30.6727046038
 30
0.0
 10
-19.1251552622
 20
-30.7503860005
 30
0.0
 10
-19.0931808564
 20
-30.8219970587
 30
0.0
 10
-19.0323273287
 20
-30.8829596569
 30
0.0
 10
-18.9078294108
 20
-30.9546442058
 30
0.0
 10
-18.7936691524
 20
-30.9816242061
 30
0.0
 10
-18.7122452153
 20
-30.9937891769
 30
0.0
  0
LINE
  5
535
100
AcDbEntity
  8
RACCORDO
100
AcDbLine
 62
250
  6
CONTINUOUS
 10
-22.0571643908
 20
5.5160379566
 11
-14.4510996457
 21
9.1194892437
  0
SPLINE
  5
536
100
AcDbEntity
  8
DRAFT
100
AcDbSpline
 62
7
  6
CONTINUOUS
 70
0
 71
3
 72
9
 73
5
 74
0
 42
0.0000001
 43
0.0000001
 44
0.0000000001
 40
0.0
 40
0.0
 40
0.0
 40
0.0
 40
0.2337190224
 40
1.0
 40
1.0
 40
1.0
 40
1.0
 10
-13.4338210019
 20
-6.5396144846
 30
0.0
 10
-13.4549338785
 20
-6.5954928542
 30
0.0
 10
-13.5320522096
 20
-6.839564894
 30
0.0
 10
-13.5589885154
 20
-7.0977709327
 30
0.0
 10
-13.5589885154
 20
-7.2936171897
 30
0.0
  0
LINE
  5
537
100
AcDbEntity
  8
RACCORDO
100
AcDbLine
 62
250
  6
CONTINUOUS
 10
-14.4510996457
 20
-25.6430396169
 11
-22.0571643908
 21
-29.557663404
  0
SPLINE
  5
538
100
AcDbEntity
  8
RACCORDO
100
AcDbSpline
 62
250
  6
CONTINUOUS
 70
0
 71
3
 72
9
 73
5
 74
0
 42
0.0000001
 43
0.0000001
 44
0.0000000001
 40
0.0
 40
0.0
 40
0.0
 40
0.0
 40
0.4634338465
 40
1.0
 40
1.0
 40
1.0
 40
1.0
 10
-31.0234221101
 20
26.2523165286
 30
0.0
 10
-30.959576791
 20
26.2847112242
 30
0.0
 10
-30.7987662685
 20
26.3120704887
 30
0.0
 10
-30.647715104
 20
26.2621842672
 30
0.0
 10
-30.5734713033
 20
26.2253217271
 30
0.0
  0
SPLINE
  5
539
100
AcDbEntity
  8
DRAFT
100
AcDbSpline
 62
7
  6
CONTINUOUS
 70
0
 71
3
 72
9
 73
5
 74
0
 42
0.0000001
 43
0.0000001
 44
0.0000000001
 40
0.0
 40
0.0
 40
0.0
 40
0.0
 40
0.237117475
 40
1.0
 40
1.0
 40
1.0
 40
1.0
 10
-13.5589885154
 20
-7.2936171897
 30
0.0
 10
-13.5589885154
 20
-7.3867731817
 30
0.0
 10
-13.5390676834
 20
-7.7795690562
 30
0.0
 10
-13.4469202724
 20
-8.1671680187
 30
0.0
 10
-13.3468564772
 20
-8.4496832177
 30
0.0
  0
SPLINE
  5
53A
100
AcDbEntity
  8
RACCORDO
100
AcDbSpline
 62
250
  6
CONTINUOUS
 70
0
 71
3
 72
11
 73
7
 74
0
 42
0.0000001
 43
0.0000001
 44
0.0000000001
 40
0.0
 40
0.0
 40
0.0
 40
0.0
 40
0.2065535579
 40
0.4344751173
 40
0.697712369
 40
1.0
 40
1.0
 40
1.0
 40
1.0
 10
-31.5709575223
 20
25.3605357316
 30
0.0
 10
-31.5709560388
 20
25.3273990714
 30
0.0
 10
-31.5563911229
 20
25.2571514753
 30
0.0
 10
-31.4952364873
 20
25.1612838731
 30
0.0
 10
-31.3999259533
 20
25.0752831122
 30
0.0
 10
-31.3214850147
 20
25.0286699372
 30
0.0
 10
-31.2781098212
 20
25.0069823405
 30
0.0
  0
SPLINE
  5
53B
100
AcDbEntity
  8
RACCORDO
100
AcDbSpline
 62
7
  6
CONTINUOUS
 70
0
 71
3
 72
9
 73
5
 74
0
 42
0.0000001
 43
0.0000001
 44
0.0000000001
 40
0.0
 40
0.0
 40
0.0
 40
0.0
 40
0.1798462308
 40
1.0
 40
1.0
 40
1.0
 40
1.0
 10
-31.5710233763
 20
19.4728992608
 30
0.0
 10
-31.5710242268
 20
19.4688341619
 30
0.0
 10
-31.5681552459
 20
19.44626013
 30
0.0
 10
-31.5583531746
 20
19.4253647092
 30
0.0
 10
-31.5502451731
 20
19.4086937397
 30
0.0
  0
SPLINE
  5
53C
100
AcDbEntity
  8
RACCORDO
100
AcDbSpline
 62
7
  6
CONTINUOUS
 70
0
 71
3
 72
8
 73
4
 74
0
 42
0.0000001
 43
0.0000001
 44
0.0000000001
 40
0.0
 40
0.0
 40
0.0
 40
0.0
 40
1.0
 40
1.0
 40
1.0
 40
1.0
 10
-31.5502451731
 20
19.4086937397
 30
0.0
 10
-31.5457264053
 20
19.3994026412
 30
0.0
 10
-31.5409423251
 20
19.3902395782
 30
0.0
 10
-31.5360213789
 20
19.3811550826
 30
0.0
  0
SPLINE
  5
53D
100
AcDbEntity
  8
RACCORDO
100
AcDbSpline
 62
7
  6
CONTINUOUS
 70
0
 71
3
 72
12
 73
8
 74
0
 42
0.0000001
 43
0.0000001
 44
0.0000000001
 40
0.0
 40
0.0
 40
0.0
 40
0.0
 40
0.275774833
 40
0.542844699
 40
0.7829200442
 40
0.8933955105
 40
1.0
 40
1.0
 40
1.0
 40
1.0
 10
-21.9429045865
 20
-25.9104231191
 30
0.0
 10
-21.9904583396
 20
-26.0732455804
 30
0.0
 10
-22.024731124
 20
-26.4137748589
 30
0.0
 10
-21.9050186967
 20
-26.8902990329
 30
0.0
 10
-21.6638309318
 20
-27.204355947
 30
0.0
 10
-21.4146805822
 20
-27.342167517
 30
0.0
 10
-21.2815949891
 20
-27.3701197381
 30
0.0
 10
-21.2161101474
 20
-27.3734740057
 30
0.0
  0
SPLINE
  5
53E
100
AcDbEntity
  8
0
100
AcDbSpline
 62
7
  6
CONTINUOUS
 70
0
 71
3
 72
12
 73
8
 74
0
 42
0.0000001
 43
0.0000001
 44
0.0000000001
 40
0.0
 40
0.0
 40
0.0
 40
0.0
 40
0.105181286
 40
0.2134459557
 40
0.4461840076
 40
0.7085110093
 40
1.0
 40
1.0
 40
1.0
 40
1.0
 10
-18.8802282251
 20
-1.0815097391
 30
0.0
 10
-18.7772222916
 20
-1.1330069023
 30
0.0
 10
-18.5565987355
 20
-1.2158506439
 30
0.0
 10
-18.0713401497
 20
-1.292825091
 30
0.0
 10
-17.4023319474
 20
-1.2068916298
 30
0.0
 10
-16.60877137
 20
-0.8507418315
 30
0.0
 10
-16.1220195989
 20
-0.4804653869
 30
0.0
 10
-15.8869324232
 20
-0.2646205273
 30
0.0
  0
SPLINE
  5
53F
100
AcDbEntity
  8
0
100
AcDbSpline
 62
7
  6
CONTINUOUS
 70
0
 71
3
 72
9
 73
5
 74
0
 42
0.0000001
 43
0.0000001
 44
0.0000000001
 40
0.0
 40
0.0
 40
0.0
 40
0.0
 40
0.455583014
 40
1.0
 40
1.0
 40
1.0
 40
1.0
 10
4.9597928524
 20
14.9145246147
 30
0.0
 10
4.9375801725
 20
14.9255735241
 30
0.0
 10
4.8796374615
 20
14.9320840972
 30
0.0
 10
4.8283192913
 20
14.9090041871
 30
0.0
 10
4.8032457818
 20
14.8931856241
 30
0.0
  0
SPLINE
  5
540
100
AcDbEntity
  8
0
100
AcDbSpline
 62
7
  6
CONTINUOUS
 70
0
 71
3
 72
11
 73
7
 74
0
 42
0.0000001
 43
0.0000001
 44
0.0000000001
 40
0.0
 40
0.0
 40
0.0
 40
0.0
 40
0.2658977809
 40
0.5314495273
 40
0.7527535913
 40
1.0
 40
1.0
 40
1.0
 40
1.0
 10
-14.5455224483
 20
-21.463574949
 30
0.0
 10
-14.4699842941
 20
-21.460043636
 30
0.0
 10
-14.3179229437
 20
-21.4687537266
 30
0.0
 10
-14.1093261461
 20
-21.5243053278
 30
0.0
 10
-13.9219805359
 20
-21.6174771859
 30
0.0
 10
-13.8033319562
 20
-21.6779262905
 30
0.0
 10
-13.7411429043
 20
-21.7107423941
 30
0.0
  0
SPLINE
  5
541
100
AcDbEntity
  8
RACCORDO
100
AcDbSpline
 62
7
  6
CONTINUOUS
 70
0
 71
3
 72
11
 73
7
 74
0
 42
0.0000001
 43
0.0000001
 44
0.0000000001
 40
0.0
 40
0.0
 40
0.0
 40
0.0
 40
0.1679506985
 40
0.3796740985
 40
0.6561473182
 40
1.0
 40
1.0
 40
1.0
 40
1.0
 10
-21.9382749487
 20
1.7974053924
 30
0.0
 10
-21.9496350013
 20
1.7836846722
 30
0.0
 10
-21.9646531056
 20
1.7438012574
 30
0.0
 10
-21.9576228406
 20
1.6733565301
 30
0.0
 10
-21.9282996048
 20
1.589684521
 30
0.0
 10
-21.8973228873
 20
1.5313984216
 30
0.0
 10
-21.8786965629
 20
1.5000440523
 30
0.0
  0
SPLINE
  5
542
100
AcDbEntity
  8
0
100
AcDbSpline
 62
7
  6
CONTINUOUS
 70
0
 71
3
 72
9
 73
5
 74
0
 42
0.0000001
 43
0.0000001
 44
0.0000000001
 40
0.0
 40
0.0
 40
0.0
 40
0.0
 40
0.5160035095
 40
1.0
 40
1.0
 40
1.0
 40
1.0
 10
-21.2095972541
 20
0.3737248472
 30
0.0
 10
-21.1324629156
 20
0.2437466126
 30
0.0
 10
-20.9523475452
 20
0.007813593
 30
0.0
 10
-20.7103490975
 20
-0.1664572381
 30
0.0
 10
-20.5835453905
 20
-0.2298511564
 30
0.0
  0
SPLINE
  5
543
100
AcDbEntity
  8
0
100
AcDbSpline
 62
7
  6
CONTINUOUS
 70
0
 71
3
 72
15
 73
11
 74
0
 42
0.0000001
 43
0.0000001
 44
0.0000000001
 40
0.0
 40
0.0
 40
0.0
 40
0.0
 40
0.1504536954
 40
0.3011796871
 40
0.4470169399
 40
0.5833345858
 40
0.7066758178
 40
0.8155657614
 40
0.9115494087
 40
1.0
 40
1.0
 40
1.0
 40
1.0
 10
-21.3321026554
 20
-23.8190577184
 30
0.0
 10
-21.247298033
 20
-23.5280918782
 30
0.0
 10
-21.036497667
 20
-22.9568948132
 30
0.0
 10
-20.6162978983
 20
-22.1577134433
 30
0.0
 10
-20.1087055994
 20
-21.4451011443
 30
0.0
 10
-19.5388394532
 20
-20.8550318173
 30
0.0
 10
-18.9338687042
 20
-20.4166968839
 30
0.0
 10
-18.3200312682
 20
-20.1528303922
 30
0.0
 10
-17.7227806569
 20
-20.0828317578
 30
0.0
 10
-17.3527121831
 20
-20.1808661233
 30
0.0
 10
-17.1933394262
 20
-20.2605298671
 30
0.0
  0
SPLINE
  5
544
100
AcDbEntity
  8
RACCORDO
100
AcDbSpline
 62
7
  6
CONTINUOUS
 70
0
 71
3
 72
17
 73
13
 74
0
 42
0.0000001
 43
0.0000001
 44
0.0000000001
 40
0.0
 40
0.0
 40
0.0
 40
0.0
 40
0.1284137867
 40
0.2803384615
 40
0.4432523276
 40
0.6036017311
 40
0.7480497858
 40
0.8106843217
 40
0.8653445815
 40
0.9113104112
 40
0.948395621
 40
1.0
 40
1.0
 40
1.0
 40
1.0
 10
-20.318593415
 20
0.7199924783
 30
0.0
 10
-20.3655061476
 20
0.7934334632
 30
0.0
 10
-20.4828209148
 20
0.9441509297
 30
0.0
 10
-20.6917074074
 20
1.1610283907
 30
0.0
 10
-20.9350083941
 20
1.3733254751
 30
0.0
 10
-21.1907898577
 20
1.5618224836
 30
0.0
 10
-21.4045313544
 20
1.6912698696
 30
0.0
 10
-21.5649318372
 20
1.7680477451
 30
0.0
 10
-21.6683200406
 20
1.8078659248
 30
0.0
 10
-21.7595377548
 20
1.8314636244
 30
0.0
 10
-21.8489716845
 20
1.8418018572
 30
0.0
 10
-21.915941267
 20
1.8243801087
 30
0.0
 10
-21.9382749487
 20
1.7974053924
 30
0.0
  0
SPLINE
  5
545
100
AcDbEntity
  8
0
100
AcDbSpline
 62
250
  6
CONTINUOUS
 70
0
 71
3
 72
9
 73
5
 74
0
 42
0.0000001
 43
0.0000001
 44
0.0000000001
 40
0.0
 40
0.0
 40
0.0
 40
0.0
 40
0.4900545245
 40
1.0
 40
1.0
 40
1.0
 40
1.0
 10
-13.7411436168
 20
-21.710743744
 30
0.0
 10
-13.6711512838
 20
-21.7476943804
 30
0.0
 10
-13.5406923159
 20
-21.848948505
 30
0.0
 10
-13.4513297325
 20
-21.9870913494
 30
0.0
 10
-13.4169184193
 20
-22.0619177001
 30
0.0
  0
SPLINE
  5
546
100
AcDbEntity
  8
0
100
AcDbSpline
 62
250
  6
CONTINUOUS
 70
0
 71
3
 72
8
 73
4
 74
0
 42
0.0000001
 43
0.0000001
 44
0.0000000001
 40
0.0
 40
0.0
 40
0.0
 40
0.0
 40
1.0
 40
1.0
 40
1.0
 40
1.0
 10
-13.4169184193
 20
-22.0619177001
 30
0.0
 10
-13.3955861776
 20
-22.1083040089
 30
0.0
 10
-13.3783055393
 20
-22.156731547
 30
0.0
 10
-13.3650487844
 20
-22.2060368472
 30
0.0
  0
SPLINE
  5
547
100
AcDbEntity
  8
0
100
AcDbSpline
 62
7
  6
CONTINUOUS
 70
0
 71
3
 72
9
 73
5
 74
0
 42
0.0000001
 43
0.0000001
 44
0.0000000001
 40
0.0
 40
0.0
 40
0.0
 40
0.0
 40
0.5516211726
 40
1.0
 40
1.0
 40
1.0
 40
1.0
 10
5.0379198298
 20
14.7521860723
 30
0.0
 10
5.0379198298
 20
14.7866198673
 30
0.0
 10
5.0290640595
 20
14.8506639831
 30
0.0
 10
4.9848529351
 20
14.9020593658
 30
0.0
 10
4.9597928524
 20
14.9145246147
 30
0.0
  0
SPLINE
  5
548
100
AcDbEntity
  8
RACCORDO
100
AcDbSpline
 62
7
  6
CONTINUOUS
 70
0
 71
3
 72
11
 73
7
 74
0
 42
0.0000001
 43
0.0000001
 44
0.0000000001
 40
0.0
 40
0.0
 40
0.0
 40
0.0
 40
0.225000031
 40
0.4633252771
 40
0.7220798949
 40
1.0
 40
1.0
 40
1.0
 40
1.0
 10
-21.2161101474
 20
-27.3734740057
 30
0.0
 10
-21.1300745571
 20
-27.3778809247
 30
0.0
 10
-20.949302927
 20
-27.3497268234
 30
0.0
 10
-20.7072447398
 20
-27.2049437067
 30
0.0
 10
-20.5112070804
 20
-26.9765710326
 30
0.0
 10
-20.4232220202
 20
-26.7879833828
 30
0.0
 10
-20.3899036496
 20
-26.6869235876
 30
0.0
  0
SPLINE
  5
549
100
AcDbEntity
  8
0
100
AcDbSpline
 62
7
  6
CONTINUOUS
 70
0
 71
3
 72
9
 73
5
 74
0
 42
0.0000001
 43
0.0000001
 44
0.0000000001
 40
0.0
 40
0.0
 40
0.0
 40
0.0
 40
0.5091562208
 40
1.0
 40
1.0
 40
1.0
 40
1.0
 10
-19.575483349
 20
-0.4433321054
 30
0.0
 10
-19.4884016369
 20
-0.5795334632
 30
0.0
 10
-19.2845415275
 20
-0.8281834391
 30
0.0
 10
-19.0196242045
 20
-1.0118196034
 30
0.0
 10
-18.8802282251
 20
-1.0815097391
 30
0.0
  0
SPLINE
  5
54A
100
AcDbEntity
  8
0
100
AcDbSpline
 62
7
  6
CONTINUOUS
 70
0
 71
3
 72
14
 73
10
 74
0
 42
0.0000001
 43
0.0000001
 44
0.0000000001
 40
0.0
 40
0.0
 40
0.0
 40
0.0
 40
0.288501097
 40
0.4306005443
 40
0.5655018694
 40
0.6901262515
 40
0.8030134839
 40
0.9050416091
 40
1.0
 40
1.0
 40
1.0
 40
1.0
 10
-19.7115393808
 20
-24.6293393557
 30
0.0
 10
-19.5218658076
 20
-24.0551099454
 30
0.0
 10
-19.1048812301
 20
-23.2348684573
 30
0.0
 10
-18.3483239565
 20
-22.3183482745
 30
0.0
 10
-17.7131196934
 20
-21.7593410797
 30
0.0
 10
-17.0392972922
 20
-21.3553906894
 30
0.0
 10
-16.3574306813
 20
-21.1280725867
 30
0.0
 10
-15.6994385539
 20
-21.0936904873
 30
0.0
 10
-15.2930975137
 20
-21.2106735395
 30
0.0
 10
-15.1150545947
 20
-21.2996722828
 30
0.0
  0
ELLIPSE
  5
54B
100
AcDbEntity
  8
RACCORDO
100
AcDbEllipse
 62
7
  6
CONTINUOUS
 10
16.6653521037
 20
41.3309282269
 30
0.0
 11
-0.4472606553
 21
0.8944879452
 31
0.0
 40
0.6123267458
 41
-0.6846978779
 42
-0.009510409
  0
ELLIPSE
  5
54C
100
AcDbEntity
  8
RACCORDO
100
AcDbEllipse
 62
7
  6
CONTINUOUS
 10
13.3252889982
 20
41.1121772313
 30
0.0
 11
-0.4472606553
 21
0.8944879452
 31
0.0
 40
0.6123267458
 41
-0.6846978779
 42
-0.0095104105
  0
ELLIPSE
  5
54D
100
AcDbEntity
  8
RACCORDO
100
AcDbEllipse
 62
7
  6
CONTINUOUS
 10
24.6105578402
 20
35.4695428103
 30
0.0
 11
-0.44720059
 21
0.8944345539
 31
0.0
 40
0.6124181287
 41
-2.2554606976
 42
-0.6847405232
  0
ELLIPSE
  5
54E
100
AcDbEntity
  8
RACCORDO
100
AcDbEllipse
 62
7
  6
CONTINUOUS
 10
19.1093582382
 20
37.9816995615
 30
0.0
 11
-0.223600295
 21
0.4472172769
 31
0.0
 40
0.6124181287
 41
0.886131956
 42
2.4568521304
  0
ELLIPSE
  5
54F
100
AcDbEntity
  8
RACCORDO
100
AcDbEllipse
 62
7
  6
CONTINUOUS
 10
25.0888713531
 20
37.1191686022
 30
0.0
 11
-0.44720059
 21
0.8944345539
 31
0.0
 40
0.6124181287
 41
-2.2554606976
 42
-0.6847405232
  0
ELLIPSE
  5
550
100
AcDbEntity
  8
RACCORDO
100
AcDbEllipse
 62
7
  6
CONTINUOUS
 10
21.5934612879
 20
36.5563168255
 30
0.0
 11
-0.223600295
 21
0.4472172769
 31
0.0
 40
0.6124181287
 41
-0.8420648133
 42
-0.6847405232
  0
ELLIPSE
  5
551
100
AcDbEntity
  8
RACCORDO
100
AcDbEllipse
 62
7
  6
CONTINUOUS
 10
17.3415643597
 20
35.2068271407
 30
0.0
 11
-0.223600295
 21
0.4472172769
 31
0.0
 40
0.6124181287
 41
-1.7702619404
 42
-0.6847405232
  0
ELLIPSE
  5
552
100
AcDbEntity
  8
RACCORDO
100
AcDbEllipse
 62
7
  6
CONTINUOUS
 10
18.0394418253
 20
38.3333265569
 30
0.0
 11
-0.2236303276
 21
0.4472439726
 31
0.0
 40
0.6123267458
 41
5.5984874293
 42
7.1692076037
  0
ELLIPSE
  5
553
100
AcDbEntity
  8
RACCORDO
100
AcDbEllipse
 62
7
  6
CONTINUOUS
 10
16.634484504
 20
35.5603670686
 30
0.0
 11
-0.2236303276
 21
0.4472439726
 31
0.0
 40
0.6123267458
 41
5.5984874293
 42
7.1692076037
  0
ELLIPSE
  5
554
100
AcDbEntity
  8
RACCORDO
100
AcDbEllipse
 62
7
  6
CONTINUOUS
 10
22.9984051465
 20
34.6666562456
 30
0.0
 11
-0.44720059
 21
0.8944345539
 31
0.0
 40
0.6124181287
 41
-2.2554606976
 42
-0.6847405232
  0
ELLIPSE
  5
555
100
AcDbEntity
  8
RACCORDO
100
AcDbEllipse
 62
7
  6
CONTINUOUS
 10
11.6847504984
 20
40.3234835696
 30
0.0
 11
-0.4472606553
 21
0.8944879452
 31
0.0
 40
0.6123267458
 41
-0.6846978779
 42
0.8860222965
  0
ELLIPSE
  5
556
100
AcDbEntity
  8
ASSI
100
AcDbEllipse
 62
7
  6
CONTINUOUS
 10
17.695131213
 20
23.6456001381
 30
0.0
 11
1.9902791931
 21
10.801061453
 31
0.0
 40
0.207824449
 41
-0.420069768
 42
0.3000466837
  0
ELLIPSE
  5
557
100
AcDbEntity
  8
RACCORDO
100
AcDbEllipse
 62
7
  6
CONTINUOUS
 10
18.0394418253
 20
37.4446610623
 30
0.0
 11
-0.223600295
 21
0.4472172769
 31
0.0
 40
0.6124181287
 41
0.886131956
 42
2.4568521304
  0
ELLIPSE
  5
558
100
AcDbEntity
  8
RACCORDO
100
AcDbEllipse
 62
7
  6
CONTINUOUS
 10
3.1139572828
 20
16.8862260633
 30
0.0
 11
-0.4472345112
 21
0.8944541925
 31
0.0
 40
0.6123521284
 41
-0.6847097256
 42
-0.5883914076
  0
ELLIPSE
  5
559
100
AcDbEntity
  8
0
100
AcDbEllipse
 62
7
  6
CONTINUOUS
 10
6.987394087
 20
14.4114109355
 30
0.0
 11
0.4999986229
 21
-0.0023639103
 31
0.0
 40
0.4964289597
 41
0.6392242639
 42
0.7877451926
  0
ELLIPSE
  5
55A
100
AcDbEntity
  8
RACCORDO
100
AcDbEllipse
 62
7
  6
CONTINUOUS
 10
13.3794230896
 20
-17.3945081969
 30
0.0
 11
0.2941686535
 21
-0.4043082063
 31
0.0
 40
0.7919091646
 41
-0.1217815952
 42
-0.0014726027
  0
ELLIPSE
  5
55B
100
AcDbEntity
  8
RACCORDO
100
AcDbEllipse
 62
7
  6
CONTINUOUS
 10
-0.4651444832
 20
42.9192140668
 30
0.0
 11
-0.4472606553
 21
0.8944879452
 31
0.0
 40
0.6123267458
 41
-0.6846978779
 42
-0.0095104146
  0
ELLIPSE
  5
55C
100
AcDbEntity
  8
RACCORDO
100
AcDbEllipse
 62
7
  6
CONTINUOUS
 10
27.9824500262
 20
31.4421613022
 30
0.0
 11
1.1999921087
 21
0.0086120735
 31
0.0
 40
0.5053247124
 41
-0.780298103
 42
-0.0036265856
  0
ELLIPSE
  5
55D
100
AcDbEntity
  8
RACCORDO
100
AcDbEllipse
 62
7
  6
CONTINUOUS
 10
35.1483001281
 20
-30.2828373705
 30
0.0
 11
-0.4472606553
 21
0.8944879452
 31
0.0
 40
0.6123267458
 41
-3.1320822431
 42
-2.2555703571
  0
ELLIPSE
  5
55E
100
AcDbEntity
  8
RACCORDO
100
AcDbEllipse
 62
7
  6
CONTINUOUS
 10
35.1483001281
 20
25.1124917612
 30
0.0
 11
-0.44720059
 21
0.8944345539
 31
0.0
 40
0.6124181287
 41
-2.2554606976
 42
-0.6847405232
  0
ELLIPSE
  5
55F
100
AcDbEntity
  8
DRAFT
100
AcDbEllipse
 62
7
  6
CONTINUOUS
 10
37.7606730791
 20
-16.670380932
 30
0.0
 11
0.2660933547
 21
0.5377715592
 31
0.0
 40
0.6091593932
 41
-2.2848762767
 42
-0.1032147117
  0
ELLIPSE
  5
560
100
AcDbEntity
  8
RACCORDO
100
AcDbEllipse
 62
7
  6
CONTINUOUS
 10
35.7170978922
 20
14.8301622368
 30
0.0
 11
0.6615447348
 21
1.3462638663
 31
0.0
 40
0.607010042
 41
-2.3290190435
 42
-0.8902711325
  0
ELLIPSE
  5
561
100
AcDbEntity
  8
RACCORDO
100
AcDbEllipse
 62
7
  6
CONTINUOUS
 10
26.7000706437
 20
31.8738042864
 30
0.0
 11
0.4535199836
 21
0.8912633791
 31
0.0
 40
0.6176975122
 41
0.0043581881
 42
0.6018109219
  0
ELLIPSE
  5
562
100
AcDbEntity
  8
RACCORDO
100
AcDbEllipse
 62
7
  6
CONTINUOUS
 10
22.0084825783
 20
28.8539734114
 30
0.0
 11
-0.4471911174
 21
0.8944639737
 31
0.0
 40
0.6123677712
 41
-0.6846781644
 42
0.8861181623
  0
ELLIPSE
  5
563
100
AcDbEntity
  8
RACCORDO
100
AcDbEllipse
 62
7
  6
CONTINUOUS
 10
7.0178188171
 20
36.3493052919
 30
0.0
 11
-0.4471911174
 21
0.8944639737
 31
0.0
 40
0.6123677712
 41
-2.2554744912
 42
-0.6846781644
  0
ELLIPSE
  5
564
100
AcDbEntity
  8
RACCORDO
100
AcDbEllipse
 62
7
  6
CONTINUOUS
 10
23.4226961407
 20
29.576195571
 30
0.0
 11
-0.4471911174
 21
0.8944639737
 31
0.0
 40
0.6123677712
 41
-0.6846781644
 42
0.0052361312
  0
ELLIPSE
  5
565
100
AcDbEntity
  8
RACCORDO
100
AcDbEllipse
 62
7
  6
CONTINUOUS
 10
23.0691562128
 20
-18.7444405886
 30
0.0
 11
-0.2236303276
 21
0.4472439726
 31
0.0
 40
0.6123267458
 41
-0.6846978779
 42
0.0095103214
  0
ELLIPSE
  5
566
100
AcDbEntity
  8
RACCORDO
100
AcDbEllipse
 62
7
  6
CONTINUOUS
 10
33.7464282205
 20
24.414329531
 30
0.0
 11
-0.44720059
 21
0.8944345539
 31
0.0
 40
0.6124181287
 41
-2.2554606976
 42
-0.6847405232
  0
ELLIPSE
  5
567
100
AcDbEntity
  8
RACCORDO
100
AcDbEllipse
 62
7
  6
CONTINUOUS
 10
33.7464282205
 20
-31.0112303575
 30
0.0
 11
-0.4472606553
 21
0.8944879452
 31
0.0
 40
0.6123267458
 41
2.4568947757
 42
4.0276149501
  0
ELLIPSE
  5
568
100
AcDbEntity
  8
RACCORDO
100
AcDbEllipse
 62
7
  6
CONTINUOUS
 10
29.3623661771
 20
-22.3240747611
 30
0.0
 11
-0.44720059
 21
0.8944345539
 31
0.0
 40
0.6124181287
 41
-2.2554606976
 42
-0.6847405232
  0
ELLIPSE
  5
569
100
AcDbEntity
  8
RACCORDO
100
AcDbEllipse
 62
7
  6
CONTINUOUS
 10
-1.8916997003
 20
42.2333934915
 30
0.0
 11
-0.4472606553
 21
0.8944879452
 31
0.0
 40
0.6123267458
 41
-0.6846978779
 42
0.8860222965
  0
ELLIPSE
  5
56A
100
AcDbEntity
  8
RACCORDO
100
AcDbEllipse
 62
7
  6
CONTINUOUS
 10
8.4320323795
 20
37.0715274515
 30
0.0
 11
-0.4471911174
 21
0.8944639737
 31
0.0
 40
0.6123677712
 41
-2.2554744912
 42
-0.6846781644
  0
ELLIPSE
  5
56B
100
AcDbEntity
  8
RACCORDO
100
AcDbEllipse
 62
7
  6
CONTINUOUS
 10
21.6672843052
 20
-19.4728335756
 30
0.0
 11
-0.2236303276
 21
0.4472439726
 31
0.0
 40
0.6123267458
 41
-0.6846978779
 42
0.8860222965
  0
ELLIPSE
  5
56C
100
AcDbEntity
  8
RACCORDO
100
AcDbEllipse
 62
7
  6
CONTINUOUS
 10
29.3568394482
 20
-16.5476909468
 30
0.0
 11
0.225491203
 21
0.4462695109
 31
0.0
 40
0.6155720462
 41
0.6925500401
 42
2.2581103791
  0
ELLIPSE
  5
56D
100
AcDbEntity
  8
RACCORDO
100
AcDbEllipse
 62
7
  6
CONTINUOUS
 10
36.0554352
 20
-15.0650778244
 30
0.0
 11
0.1330466773
 21
0.2688857796
 31
0.0
 40
0.6091593932
 41
-0.0025364935
 42
0.6821834517
  0
ELLIPSE
  5
56E
100
AcDbEntity
  8
RACCORDO
100
AcDbEllipse
 62
7
  6
CONTINUOUS
 10
27.93581096
 20
-23.0401260933
 30
0.0
 11
-0.44720059
 21
0.8944345539
 31
0.0
 40
0.6124181287
 41
-2.2554606976
 42
-0.6847405232
  0
ELLIPSE
  5
56F
100
AcDbEntity
  8
RACCORDO
100
AcDbEllipse
 62
7
  6
CONTINUOUS
 10
29.3568394482
 20
-13.0408556247
 30
0.0
 11
0.225491203
 21
0.4462695109
 31
0.0
 40
0.6155720462
 41
-3.3307025621
 42
-3.1389977704
  0
ELLIPSE
  5
570
100
AcDbEntity
  8
RACCORDO
100
AcDbEllipse
 62
7
  6
CONTINUOUS
 10
27.9824500262
 20
31.9756802001
 30
0.0
 11
1.1994697607
 21
-0.0801859756
 31
0.0
 40
0.4448311488
 41
-0.7469427886
 42
-0.5140282484
  0
ELLIPSE
  5
571
100
AcDbEntity
  8
RACCORDO
100
AcDbEllipse
 62
7
  6
CONTINUOUS
 10
33.746450838
 20
21.9620653845
 30
0.0
 11
-0.4472115149
 21
0.8944283689
 31
0.0
 40
0.6123797465
 41
-2.2555067568
 42
-0.6847226146
  0
ELLIPSE
  5
572
100
AcDbEntity
  8
RACCORDO
100
AcDbEllipse
 62
7
  6
CONTINUOUS
 10
-8.6652253541
 20
26.9710709973
 30
0.0
 11
5.0291595331
 21
0.0237628136
 31
0.0
 40
0.5035186597
 41
0.3549727532
 42
2.3479976014
  0
ELLIPSE
  5
573
100
AcDbEntity
  8
RACCORDO
100
AcDbEllipse
 62
7
  6
CONTINUOUS
 10
9.9316829911
 20
17.6726168247
 30
0.0
 11
5.0291595331
 21
0.0237628136
 31
0.0
 40
0.5035186597
 41
0.3549939829
 42
2.3479976014
  0
ELLIPSE
  5
574
100
AcDbEntity
  8
RACCORDO
100
AcDbEllipse
 62
7
  6
CONTINUOUS
 10
9.9316829911
 20
-32.8173987707
 30
0.0
 11
5.0291687319
 21
-0.0142930674
 31
0.0
 40
0.4978593837
 41
0.3630714137
 42
1.1257736497
  0
ELLIPSE
  5
575
100
AcDbEntity
  8
RACCORDO
100
AcDbEllipse
 62
7
  6
CONTINUOUS
 10
14.1930924386
 20
-32.3336596272
 30
0.0
 11
2.256808774
 21
4.4617427319
 31
0.0
 40
0.6158912572
 41
-2.869617961
 42
-2.4597754058
  0
ELLIPSE
  5
576
100
AcDbEntity
  8
RACCORDO
100
AcDbEllipse
 62
7
  6
CONTINUOUS
 10
0.1515488683
 20
-40.4183518835
 30
0.0
 11
0.4430777519
 21
0.8964906865
 31
0.0
 40
0.6088015717
 41
-4.0304836828
 42
-3.1444065622
  0
ELLIPSE
  5
577
100
AcDbEntity
  8
RACCORDO
100
AcDbEllipse
 62
7
  6
CONTINUOUS
 10
-19.9564446775
 20
24.7467823817
 30
0.0
 11
2.2155942263
 21
4.4823511338
 31
0.0
 40
0.6088373611
 41
-4.0631334415
 42
-4.0304558995
  0
ELLIPSE
  5
578
100
AcDbEntity
  8
RACCORDO
100
AcDbEllipse
 62
7
  6
CONTINUOUS
 10
15.6498228501
 20
4.2613199681
 30
0.0
 11
2.2486058362
 21
4.4658587253
 31
0.0
 40
0.6145070198
 41
0.6864424615
 42
2.2572387883
  0
ELLIPSE
  5
579
100
AcDbEntity
  8
RACCORDO
100
AcDbEllipse
 62
7
  6
CONTINUOUS
 10
-18.4453594769
 20
19.2977139495
 30
0.0
 11
0.4430777519
 21
0.8964906865
 31
0.0
 40
0.6088015717
 41
0.6853959561
 42
2.2527016244
  0
ELLIPSE
  5
57A
100
AcDbEntity
  8
RACCORDO
100
AcDbEllipse
 62
7
  6
CONTINUOUS
 10
0.1515488683
 20
9.9992597769
 30
0.0
 11
0.4430777519
 21
0.8964906865
 31
0.0
 40
0.6088015717
 41
0.6853959561
 42
2.2527016244
  0
ELLIPSE
  5
57B
100
AcDbEntity
  8
RACCORDO
100
AcDbEllipse
 62
7
  6
CONTINUOUS
 10
5.7532781982
 20
31.1519309093
 30
0.0
 11
2.0116674345
 21
0.0057499094
 31
0.0
 40
0.5021345238
 41
2.3605770141
 42
5.4905341394
  0
ELLIPSE
  5
57C
100
AcDbEntity
  8
RACCORDO
100
AcDbEllipse
 62
7
  6
CONTINUOUS
 10
14.6628236411
 20
26.6971581878
 30
0.0
 11
2.0116674345
 21
0.0057499094
 31
0.0
 40
0.5021345238
 41
2.3605770141
 42
5.4905341394
  0
ELLIPSE
  5
57D
100
AcDbEntity
  8
RACCORDO
100
AcDbEllipse
 62
7
  6
CONTINUOUS
 10
24.3501865434
 20
21.8534767367
 30
0.0
 11
2.0116674345
 21
0.0057499094
 31
0.0
 40
0.5021345238
 41
2.3605770141
 42
5.4905341394
  0
ELLIPSE
  5
57E
100
AcDbEntity
  8
RACCORDO
100
AcDbEllipse
 62
7
  6
CONTINUOUS
 10
14.6628236411
 20
-23.9013333012
 30
0.0
 11
2.0116640748
 21
-0.0094161459
 31
0.0
 40
0.4964647527
 41
2.3643360897
 42
5.494293215
  0
ELLIPSE
  5
57F
100
AcDbEntity
  8
RACCORDO
100
AcDbEllipse
 62
7
  6
CONTINUOUS
 10
24.3501865434
 20
-28.7450147523
 30
0.0
 11
2.0116640748
 21
-0.0094161459
 31
0.0
 40
0.4964647527
 41
2.3643360897
 42
5.494293215
  0
ELLIPSE
  5
580
100
AcDbEntity
  8
RACCORDO
100
AcDbEllipse
 62
7
  6
CONTINUOUS
 10
-8.6652253541
 20
28.7454264632
 30
0.0
 11
5.0291685864
 21
0.0143747735
 31
0.0
 40
0.5021345238
 41
5.5021696677
 42
8.632126793
  0
ELLIPSE
  5
581
100
AcDbEntity
  8
RACCORDO
100
AcDbEllipse
 62
7
  6
CONTINUOUS
 10
9.9316829911
 20
19.4469722906
 30
0.0
 11
5.0291685864
 21
0.0143747735
 31
0.0
 40
0.5021345238
 41
5.5021696677
 42
8.632126793
  0
ELLIPSE
  5
582
100
AcDbEntity
  8
RACCORDO
100
AcDbEllipse
 62
7
  6
CONTINUOUS
 10
9.9316829911
 20
-31.0430433049
 30
0.0
 11
5.0291601869
 21
-0.0235403648
 31
0.0
 40
0.4964647527
 41
5.5059287433
 42
7.4100589096
  0
ELLIPSE
  5
583
100
AcDbEntity
  8
RACCORDO
100
AcDbEllipse
 62
7
  6
CONTINUOUS
 10
15.6498228501
 20
-33.062024833
 30
0.0
 11
2.2486058362
 21
4.4658587253
 31
0.0
 40
0.6145070198
 41
2.2572387883
 42
3.8222755286
  0
ELLIPSE
  5
584
100
AcDbEntity
  8
RACCORDO
100
AcDbEllipse
 62
7
  6
CONTINUOUS
 10
5.0086609278
 20
1.7250375477
 30
0.0
 11
0.99999897
 21
0.0028582774
 31
0.0
 40
0.5021345238
 41
-2.3576297304
 42
-1.8375145785
  0
ELLIPSE
  5
585
100
AcDbEntity
  8
RACCORDO
100
AcDbEllipse
 62
7
  6
CONTINUOUS
 10
-30.57100304
 20
19.5148695317
 30
0.0
 11
0.99999897
 21
0.0028582774
 31
0.0
 40
0.5021345238
 41
-2.8777448823
 42
-2.3576297304
  0
ELLIPSE
  5
586
100
AcDbEntity
  8
RACCORDO
100
AcDbEllipse
 62
7
  6
CONTINUOUS
 10
-15.5138286976
 20
-26.5780499912
 30
0.0
 11
-0.4472355659
 21
0.8944389841
 31
0.0
 40
0.6123615776
 41
-3.1465370833
 42
-2.255541824
  0
ELLIPSE
  5
587
100
AcDbEntity
  8
RACCORDO
100
AcDbEllipse
 62
7
  6
CONTINUOUS
 10
-15.5138286976
 20
10.4101218881
 30
0.0
 11
-0.4472195493
 21
0.8944247462
 31
0.0
 40
0.6123859469
 41
-2.2555125819
 42
-0.6847365628
  0
ELLIPSE
  5
588
100
AcDbEntity
  8
RACCORDO
100
AcDbEllipse
 62
7
  6
CONTINUOUS
 10
-11.462726977
 20
8.3845710278
 30
0.0
 11
-0.4472355659
 21
0.8944389841
 31
0.0
 40
0.6123615776
 41
-0.6847251895
 42
0.0049444338
  0
ELLIPSE
  5
589
100
AcDbEntity
  8
RACCORDO
100
AcDbEllipse
 62
7
  6
CONTINUOUS
 10
-29.5911723603
 20
-8.2893206582
 30
0.0
 11
-0.4471615512
 21
0.8944566536
 31
0.0
 40
0.6125552124
 41
0.8862964655
 42
2.4567882058
  0
ELLIPSE
  5
58A
100
AcDbEntity
  8
RACCORDO
100
AcDbEllipse
 62
7
  6
CONTINUOUS
 10
-25.7138909805
 20
22.9319797013
 30
0.0
 11
0.4514039326
 21
0.8923273636
 31
0.0
 40
0.6159267166
 41
0.6910967281
 42
2.2584023964
  0
ELLIPSE
  5
58B
100
AcDbEntity
  8
RACCORDO
100
AcDbEllipse
 62
7
  6
CONTINUOUS
 10
-7.1169826353
 20
13.6335255287
 30
0.0
 11
0.4514039326
 21
0.8923273636
 31
0.0
 40
0.6159267166
 41
0.6910967281
 42
2.2584023964
  0
ELLIPSE
  5
58C
100
AcDbEntity
  8
RACCORDO
100
AcDbEllipse
 62
7
  6
CONTINUOUS
 10
-3.9340847041
 20
35.9956123604
 30
0.0
 11
2.0116674345
 21
0.0057499094
 31
0.0
 40
0.5021345238
 41
2.3605770141
 42
5.4905341394
  0
ENDSEC
  0
SECTION
  2
OBJECTS
  0
DICTIONARY
  5
C
100
AcDbDictionary
280
0
281
1
  3
ACAD_GROUP
350
D
  3
ACAD_MLINESTYLE
350
17
  3
ACAD_LAYOUT
350
1A
  3
ACAD_PLOTSETTINGS
350
19
  3
ACAD_PLOTSTYLENAME
350
E
  0
DICTIONARY
  5
D
102
{ACAD_REACTORS
330
C
102
}
100
AcDbDictionary
280
0
281
1
  0
ACDBDICTIONARYWDFLT
  5
E
102
{ACAD_REACTORS
330
C
102
}
100
AcDbDictionary
281
1
  3
Normal
350
F
100
AcDbDictionaryWithDefault
340
F
  0
DICTIONARY
  5
17
102
{ACAD_REACTORS
330
C
102
}
100
AcDbDictionary
280
0
281
1
  3
Standard
350
18
  0
DICTIONARY
  5
19
102
{ACAD_REACTORS
330
C
102
}
100
AcDbDictionary
281
1
  0
DICTIONARY
  5
1A
102
{ACAD_REACTORS
330
C
102
}
100
AcDbDictionary
281
1
  3
Model
350
58D
  3
Layout1
350
58E
  0
ACDBPLACEHOLDER
  5
F
102
{ACAD_REACTORS
330
E
102
}
  0
MLINESTYLE
  5
18
102
{ACAD_REACTORS
330
17
102
}
100
AcDbMlineStyle
  2
STANDARD
 70
0
  3

 62
256
 51
90.0
 52
90.0
 71
2
 49
0.5
 62
256
  6
BYLAYER
 49
-0.5
 62
256
  6
BYLAYER
  0
LAYOUT
  5
58D
102
{ACAD_REACTORS
330
1A
102
}
100
AcDbPlotSettings
  1

  2
none_device
  4
ANSI_C_(22.00_x_17.00_Inches)
  6

 40
0.0
 41
0.0
 42
0.0
 43
0.0
 44
558.8
 45
431.8
 46
0.0
 47
0.0
 48
0.0
 49
0.0
140
0.0
141
0.0
142
1.0
143
1.0
 70
1024
 72
1
 73
0
 74
0
  7

 75
0
147
1.0
148
0.0
149
0.0
100
AcDbLayout
  1
Model
 70
0
 71
0
 10
0.0
 20
0.0
 11
558.8
 21
431.8
 12
0.0
 22
0.0
 32
0.0
 14
0.0
 24
0.0
 34
0.0
 15
0.0
 25
0.0
 35
0.0
146
0.0
 13
0.0
 23
0.0
 33
0.0
 16
1.0
 26
0.0
 36
0.0
 17
0.0
 27
1.0
 37
0.0
 76
0
330
217
345
0
346
0
  0
LAYOUT
  5
58E
102
{ACAD_REACTORS
330
1A
102
}
100
AcDbPlotSettings
  1

  2
none_device
  4
ANSI_C_(22.00_x_17.00_Inches)
  6

 40
0.0
 41
0.0
 42
0.0
 43
0.0
 44
558.8
 45
431.8
 46
0.0
 47
0.0
 48
0.0
 49
0.0
140
0.0
141
0.0
142
1.0
143
1.0
 70
0
 72
1
 73
0
 74
0
  7

 75
0
147
1.0
148
0.0
149
0.0
100
AcDbLayout
  1
Layout1
 70
0
 71
1
 10
0.0
 20
0.0
 11
558.8
 21
431.8
 12
0.0
 22
0.0
 32
0.0
 14
0.0
 24
0.0
 34
0.0
 15
0.0
 25
0.0
 35
0.0
146
0.0
 13
0.0
 23
0.0
 33
0.0
 16
1.0
 26
0.0
 36
0.0
 17
0.0
 27
1.0
 37
0.0
 76
0
330
218
345
0
346
0
  0
ENDSEC
  0
EOF
