  0
SECTION
  2
HEADER
  9
$ACADVER
  1
AC1024
  9
$DWGCODEPAGE
  3
ANSI_1252
  9
$EXTMAX
 10
297.0
 20
210.0
 30
0.0
  9
$EXTMIN
 10
0.0
 20
0.0
 30
0.0
  9
$LIMMIN
 10
0.0
 20
0.0
  9
$LIMMAX
 10
297.0
 20
210.0
  9
$VIEWCTR
 10
148.5
 20
105.0
  9
$VIEWSIZE
 40
210.0
  9
$CLAYER
  8
0
  9
$LTSCALE
 40
16.335
  9
$CELTYPE
  6
BYLAYER
  9
$DIMSCALE
 40
1.0
  9
$DIMASZ
 40
3.0
  9
$DIMEXO
 40
0.5
  9
$DIMDLI
 40
11.286
  9
$DIMEXE
 40
1.5
  9
$DIMCEN
 40
2.673
  9
$DIMLFAC
 40
1.0
  9
$DIMBLK
  1
_FILLED
  9
$DIMALT
 70
0
  9
$DIMALTF
 40
0.0393700787
  9
$DIMTXT
 40
3.0
  9
$DIMTOL
 70
1
  9
$DIMLIM
 70
0
  9
$DIMTFAC
 40
1.0
  9
$DIMTP
 40
0.01
  9
$DIMTM
 40
0.01
  9
$DIMGAP
 40
0.625
  9
$DIMDSEP
 70
44
  9
$AUNITS
 70
0
  9
$PDMODE
 70
3
  9
$PDSIZE
 40
3.0
  9
$HANDSEED
  5
2C3
  9
$TILEMODE
 70
1
  9
$MEASUREMENT
 70
1
  9
$INSUNITS
 70
4
  0
ENDSEC
  0
SECTION
  2
CLASSES
  0
CLASS
  1
ACDBDICTIONARYWDFLT
  2
AcDbDictionaryWithDefault
  3
AutoCAD 2000
 90
0
 91
1
280
0
281
0
  0
CLASS
  1
ACDBPLACEHOLDER
  2
AcDbPlaceHolder
  3
AutoCAD 2000
 90
0
 91
1
280
0
281
0
  0
CLASS
  1
LAYOUT
  2
AcDbLayout
  3
AutoCAD 2000
 90
0
 91
0
280
0
281
0
  0
ENDSEC
  0
SECTION
  2
TABLES
  0
TABLE
  2
VPORT
  5
8
100
AcDbSymbolTable
 70
2
  0
VPORT
  5
1F4
100
AcDbSymbolTableRecord
100
AcDbViewportTableRecord
  2
*ACTIVE
 70
0
 10
0.0
 20
0.0
 11
1.0
 21
1.0
 12
148.5
 22
105.0
 13
0.0
 23
0.0
 14
1.0
 24
1.0
 15
0.0
 25
0.0
 16
0.0
 26
0.0
 36
1.0
 17
0.0
 27
0.0
 37
0.0
 40
210.0
 41
1.4142857143
 42
50.0
 43
0.0
 44
0.0
 50
0.0
 51
0.0
 71
0
 72
100
 73
1
 74
1
 75
0
 76
0
 77
0
 78
0
  0
ENDTAB
  0
TABLE
  2
LTYPE
  5
5
100
AcDbSymbolTable
 70
6
  0
LTYPE
  5
14
100
AcDbSymbolTableRecord
100
AcDbLinetypeTableRecord
  2
BYBLOCK
 70
0
  3

 72
65
 73
0
 40
0.0
  0
LTYPE
  5
15
100
AcDbSymbolTableRecord
100
AcDbLinetypeTableRecord
  2
BYLAYER
 70
0
  3

 72
65
 73
0
 40
0.0
  0
LTYPE
  5
16
100
AcDbSymbolTableRecord
100
AcDbLinetypeTableRecord
  2
CONTINUOUS
 70
64
  3
Solid line
 72
65
 73
0
 40
0.0
  0
LTYPE
  5
1F5
100
AcDbSymbolTableRecord
100
AcDbLinetypeTableRecord
  2
CENTER
 70
64
  3
____ _ ____ _ ____ _ ____ _ ____ _ ____ _ ____
 72
65
 73
4
 40
0.6
 49
0.375
 74
0
 49
-0.075
 74
0
 49
0.075
 74
0
 49
-0.075
 74
0
  0
LTYPE
  5
1F6
100
AcDbSymbolTableRecord
100
AcDbLinetypeTableRecord
  2
HIDDEN
 70
64
  3
- - - - - - - - - - - - - - - - - - - -
 72
65
 73
2
 40
0.2
 49
0.1
 74
0
 49
-0.1
 74
0
  0
LTYPE
  5
1F7
100
AcDbSymbolTableRecord
100
AcDbLinetypeTableRecord
  2
PHANTOM
 70
64
  3
_____ _ _ _____ _ _ _____ _ _ _____
 72
65
 73
6
 40
0.8
 49
0.45
 74
0
 49
-0.05
 74
0
 49
0.1
 74
0
 49
-0.05
 74
0
 49
0.1
 74
0
 49
-0.05
 74
0
  0
LTYPE
  5
1F8
100
AcDbSymbolTableRecord
100
AcDbLinetypeTableRecord
  2
DOT
 70
64
  3
. . . . . . . . . . . . . . . . . . . .
 72
65
 73
2
 40
0.2
 49
0.1
 74
0
 49
-0.1
 74
0
  0
LTYPE
  5
1F9
100
AcDbSymbolTableRecord
100
AcDbLinetypeTableRecord
  2
DASHED
 70
64
  3
- - - - - - - - - - - - - - - - - - - -
 72
65
 73
2
 40
0.2
 49
0.1
 74
0
 49
-0.1
 74
0
  0
ENDTAB
  0
TABLE
  2
LAYER
  5
2
100
AcDbSymbolTable
 70
36
  0
LAYER
  5
10
100
AcDbSymbolTableRecord
100
AcDbLayerTableRecord
  2
0
 70
0
 62
7
  6
CONTINUOUS
370
-3
390
F
  0
LAYER
  5
1FA
100
AcDbSymbolTableRecord
100
AcDbLayerTableRecord
  2
DEFAULT_1
 70
0
 62
7
  6
CENTER
370
-3
390
F
  0
LAYER
  5
1FB
100
AcDbSymbolTableRecord
100
AcDbLayerTableRecord
  2
DEFAULT_2
 70
0
 62
7
  6
HIDDEN
370
-3
390
F
  0
LAYER
  5
1FC
100
AcDbSymbolTableRecord
100
AcDbLayerTableRecord
  2
DEFAULT_3
 70
0
 62
7
  6
PHANTOM
370
-3
390
F
  0
LAYER
  5
1FD
100
AcDbSymbolTableRecord
100
AcDbLayerTableRecord
  2
ASSI
 70
0
 62
7
  6
CONTINUOUS
370
-3
390
F
  0
LAYER
  5
1FE
100
AcDbSymbolTableRecord
100
AcDbLayerTableRecord
  2
COLOR5
 70
0
 62
7
  6
CONTINUOUS
370
-3
390
F
  0
LAYER
  5
1FF
100
AcDbSymbolTableRecord
100
AcDbLayerTableRecord
  2
COORDINATE
 70
0
 62
7
  6
CONTINUOUS
370
-3
390
F
  0
LAYER
  5
200
100
AcDbSymbolTableRecord
100
AcDbLayerTableRecord
  2
COORD_ORIGINE
 70
0
 62
7
  6
CONTINUOUS
370
-3
390
F
  0
LAYER
  5
201
100
AcDbSymbolTableRecord
100
AcDbLayerTableRecord
  2
COPY_PUBLISH
 70
0
 62
7
  6
CONTINUOUS
370
-3
390
F
  0
LAYER
  5
202
100
AcDbSymbolTableRecord
100
AcDbLayerTableRecord
  2
COSMETIC
 70
0
 62
7
  6
CONTINUOUS
370
-3
390
F
  0
LAYER
  5
203
100
AcDbSymbolTableRecord
100
AcDbLayerTableRecord
  2
COSMETICI
 70
0
 62
7
  6
CONTINUOUS
370
-3
390
F
  0
LAYER
  5
204
100
AcDbSymbolTableRecord
100
AcDbLayerTableRecord
  2
CURVE
 70
0
 62
7
  6
CONTINUOUS
370
-3
390
F
  0
LAYER
  5
205
100
AcDbSymbolTableRecord
100
AcDbLayerTableRecord
  2
DRAFT
 70
0
 62
7
  6
CONTINUOUS
370
-3
390
F
  0
LAYER
  5
206
100
AcDbSymbolTableRecord
100
AcDbLayerTableRecord
  2
IMPORT_IGES
 70
0
 62
7
  6
CONTINUOUS
370
-3
390
F
  0
LAYER
  5
207
100
AcDbSymbolTableRecord
100
AcDbLayerTableRecord
  2
NOTE
 70
0
 62
7
  6
CONTINUOUS
370
-3
390
F
  0
LAYER
  5
208
100
AcDbSymbolTableRecord
100
AcDbLayerTableRecord
  2
PIANI
 70
0
 62
7
  6
CONTINUOUS
370
-3
390
F
  0
LAYER
  5
209
100
AcDbSymbolTableRecord
100
AcDbLayerTableRecord
  2
PIANI_ORIGINE
 70
0
 62
7
  6
CONTINUOUS
370
-3
390
F
  0
LAYER
  5
20A
100
AcDbSymbolTableRecord
100
AcDbLayerTableRecord
  2
PUNTI
 70
0
 62
7
  6
CONTINUOUS
370
-3
390
F
  0
LAYER
  5
20B
100
AcDbSymbolTableRecord
100
AcDbLayerTableRecord
  2
RACCORDO
 70
0
 62
7
  6
CONTINUOUS
370
-3
390
F
  0
LAYER
  5
20C
100
AcDbSymbolTableRecord
100
AcDbLayerTableRecord
  2
SIMBOLI
 70
0
 62
7
  6
CONTINUOUS
370
-3
390
F
  0
LAYER
  5
20D
100
AcDbSymbolTableRecord
100
AcDbLayerTableRecord
  2
SNAPLINE
 70
0
 62
7
  6
CONTINUOUS
370
-3
390
F
  0
LAYER
  5
20E
100
AcDbSymbolTableRecord
100
AcDbLayerTableRecord
  2
SUPERFICI
 70
0
 62
7
  6
CONTINUOUS
370
-3
390
F
  0
LAYER
  5
20F
100
AcDbSymbolTableRecord
100
AcDbLayerTableRecord
  2
TRASH
 70
0
 62
7
  6
CONTINUOUS
370
-3
390
F
  0
ENDTAB
  0
TABLE
  2
STYLE
  5
3
100
AcDbSymbolTable
 70
1
  0
STYLE
  5
11
100
AcDbSymbolTableRecord
100
AcDbTextStyleTableRecord
  2
STANDARD
 70
0
 40
0.0
 41
0.8
 50
0.0
 71
0
 42
0.2
  3
txt
  4

  0
STYLE
  5
210
100
AcDbSymbolTableRecord
100
AcDbTextStyleTableRecord
  2
TEXTSTYLE_1
 70
0
 40
0.0
 41
0.8
 50
0.0
 71
0
 42
0.2
  3
gdt
  4

  0
ENDTAB
  0
TABLE
  2
VIEW
  5
6
100
AcDbSymbolTable
 70
0
  0
ENDTAB
  0
TABLE
  2
UCS
  5
7
100
AcDbSymbolTable
 70
0
  0
ENDTAB
  0
TABLE
  2
APPID
  5
9
100
AcDbSymbolTable
 70
1
  0
APPID
  5
211
100
AcDbSymbolTableRecord
100
AcDbRegAppTableRecord
  2
ACAD
 70
0
  0
ENDTAB
  0
TABLE
  2
BLOCK_RECORD
  5
1
100
AcDbSymbolTable
 70
0
  0
BLOCK_RECORD
  5
212
100
AcDbSymbolTableRecord
100
AcDbBlockTableRecord
  2
*Model_Space
  0
BLOCK_RECORD
  5
213
100
AcDbSymbolTableRecord
100
AcDbBlockTableRecord
  2
*Paper_Space
  0
BLOCK_RECORD
  5
214
100
AcDbSymbolTableRecord
100
AcDbBlockTableRecord
  2
_FILLED
  0
ENDTAB
  0
TABLE
  2
DIMSTYLE
  5
A
100
AcDbSymbolTable
 70
1
100
AcDbDimStyleTable
 71
0
  0
DIMSTYLE
105
215
100
AcDbSymbolTableRecord
100
AcDbDimStyleTableRecord
  2
STANDARD
 70
0
  3

  4

 40
1.0
 41
3.0
 42
0.5
 43
0.38
 44
1.5
 45
0.0
 46
0.0
 47
0.01
 48
0.01
140
3.0
141
0.09
142
0.0
143
25.4
144
1.0
145
0.0
146
1.0
147
0.625
 71
1.0
 72
0.0
 73
0
 74
0
 75
0
 76
0
 77
1
 78
8
 79
2
170
0
171
1
172
0
173
0
174
0
175
0
176
0
177
0
178
0
270
2
179
2
271
2
272
2
273
2
274
2
275
0
280
0
281
0
282
0
283
1
284
8
285
0
286
0
287
3
288
0
340
11
278
44
341
214
342
214
343
214
344
214
  0
ENDTAB
  0
ENDSEC
  0
SECTION
  2
BLOCKS
  0
BLOCK
  5
20
100
AcDbEntity
  8
0
100
AcDbBlockBegin
  2
*Model_Space
 70
0
 10
0.0
 20
0.0
 30
0.0
  3
*Model_Space
  1

  0
ENDBLK
  5
21
100
AcDbEntity
  8
0
100
AcDbBlockEnd
  0
BLOCK
  5
1C
100
AcDbEntity
  8
0
100
AcDbBlockBegin
  2
*Paper_Space
 70
0
 10
0.0
 20
0.0
 30
0.0
  3
*Paper_Space
  1

  0
ENDBLK
  5
1D
100
AcDbEntity
  8
0
100
AcDbBlockEnd
  0
BLOCK
  5
216
100
AcDbEntity
  8
0
100
AcDbBlockBegin
  2
_FILLED
 70
64
 10
0.0
 20
0.0
  3
_FILLED
  1

  0
SOLID
  5
217
100
AcDbEntity
  8
0
  6
BYBLOCK
 62
0
100
AcDbTrace
 10
0.0
 20
0.0
 11
-1.0
 21
0.3166666667
 12
-1.0
 22
-0.3166666667
 13
-1.0
 23
-0.3166666667
  0
ENDBLK
  5
218
100
AcDbEntity
  8
0
  6
BYBLOCK
 62
0
100
AcDbBlockEnd
  0
ENDSEC
  0
SECTION
  2
ENTITIES
  0
LINE
  5
219
100
AcDbEntity
  8
RACCORDO
100
AcDbLine
 62
7
  6
CONTINUOUS
 10
-49.549320524
 20
67.0982172456
 11
-22.2041686082
 21
83.4429357624
  0
LINE
  5
21A
100
AcDbEntity
  8
RACCORDO
100
AcDbLine
 62
250
  6
CONTINUOUS
 10
-49.0424356866
 20
67.0527381334
 11
-21.6998167462
 21
83.3959426425
  0
LINE
  5
21B
100
AcDbEntity
  8
RACCORDO
100
AcDbLine
 62
7
  6
CONTINUOUS
 10
-50.0362650942
 20
66.239861768
 11
-50.0362650942
 21
3.1110101544
  0
LINE
  5
21C
100
AcDbEntity
  8
RACCORDO
100
AcDbLine
 62
250
  6
CONTINUOUS
 10
-50.0362650942
 20
66.239861768
 11
-50.0362650892
 21
66.2398042456
  0
LWPOLYLINE
  5
21D
100
AcDbEntity
  8
RACCORDO
100
AcDbPolyline
 62
250
  6
CONTINUOUS
 90
25
 70
0
 10
-49.7433718754
 20
65.8315871747
 10
-49.7418718925
 20
65.8856059779
 10
-49.7373782266
 20
65.9411285041
 10
-49.7299098221
 20
65.9979192439
 10
-49.719498104
 20
66.055737988
 10
-49.7061872027
 20
66.1143387731
 10
-49.6900341125
 20
66.1734708435
 10
-49.6711082101
 20
66.2328813675
 10
-49.6494894989
 20
66.2923201764
 10
-49.6252683306
 20
66.3515386834
 10
-49.5985451137
 20
66.4102899206
 10
-49.5694346655
 20
66.4683201199
 10
-49.5380654929
 20
66.5253738092
 10
-49.5045755813
 20
66.5812027995
 10
-49.4691041377
 20
66.6355776281
 10
-49.4317948682
 20
66.6882783599
 10
-49.3927970076
 20
66.7390919094
 10
-49.3522835535
 20
66.7877906759
 10
-49.3104454383
 20
66.8341470046
 10
-49.267450307
 20
66.8779780692
 10
-49.2234922529
 20
66.9190888462
 10
-49.1788138399
 20
66.9572633128
 10
-49.1336257337
 20
66.9923408
 10
-49.0881022389
 20
67.0242050427
 10
-49.0424356866
 20
67.0527381334
  0
LWPOLYLINE
  5
21E
100
AcDbEntity
  8
DRAFT
100
AcDbPolyline
 62
7
  6
CONTINUOUS
 90
12
 70
0
 10
-45.3506312549
 20
57.4767385428
 10
-45.3871157719
 20
57.4561000264
 10
-45.4984573772
 20
57.3851175799
 10
-45.6042202656
 20
57.3050714786
 10
-45.704440089
 20
57.2160196456
 10
-45.7984736324
 20
57.1185336194
 10
-45.8862811068
 20
57.0125591529
 10
-45.9679023012
 20
56.8981504933
 10
-46.0428133672
 20
56.7760419201
 10
-46.1108396888
 20
56.6464781933
 10
-46.172155882
 20
56.5092145529
 10
-46.2267619468
 20
56.364250999
  0
LINE
  5
21F
100
AcDbEntity
  8
DRAFT
100
AcDbLine
 62
7
  6
CONTINUOUS
 10
-46.2267619468
 20
56.364250999
 11
-43.944416728
 21
57.6293728536
  0
LWPOLYLINE
  5
220
100
AcDbEntity
  8
RACCORDO
100
AcDbPolyline
 62
250
  6
CONTINUOUS
 90
13
 70
0
 10
-50.0362650892
 20
66.2398042456
 10
-50.0339023266
 20
66.200194146
 10
-50.0273121596
 20
66.1627730504
 10
-50.0165165734
 20
66.1256805131
 10
-50.0015631126
 20
66.0890765742
 10
-49.9825150472
 20
66.0531137142
 10
-49.9594521347
 20
66.0179423199
 10
-49.9324710256
 20
65.983710582
 10
-49.9016866171
 20
65.9505649552
 10
-49.8672305831
 20
65.9186472819
 10
-49.829249743
 20
65.8880932945
 10
-49.7879049915
 20
65.8590321805
 10
-49.7433718754
 20
65.8315871747
  0
LINE
  5
221
100
AcDbEntity
  8
RACCORDO
100
AcDbLine
 62
250
  6
CONTINUOUS
 10
-49.7433718754
 20
65.8315871747
 11
-49.7433718754
 21
2.7027355611
  0
LINE
  5
222
100
AcDbEntity
  8
DRAFT
100
AcDbLine
 62
7
  6
CONTINUOUS
 10
-46.2267619468
 20
56.364250999
 11
-46.2267619468
 21
52.198573685
  0
LINE
  5
223
100
AcDbEntity
  8
DRAFT
100
AcDbLine
 62
7
  6
CONTINUOUS
 10
-46.2267619468
 20
52.198573685
 11
-40.8352020257
 21
55.2224049882
  0
LWPOLYLINE
  5
224
100
AcDbEntity
  8
DRAFT
100
AcDbPolyline
 62
7
  6
CONTINUOUS
 90
12
 70
0
 10
29.6015341628
 20
-39.049518199
 10
29.7543859989
 20
-39.0747213123
 10
29.9039246878
 20
-39.0902635168
 10
30.0501502296
 20
-39.0961448125
 10
30.1933619159
 20
-39.0923363837
 10
30.3332604551
 20
-39.0788670461
 10
30.4689479724
 20
-39.0558232464
 10
30.6003973832
 20
-39.0231434036
 10
30.7276357722
 20
-38.9808890988
 10
30.8498465178
 20
-38.9293315218
 10
30.9669972833
 20
-38.8684108359
 10
31.0033509144
 20
-38.8469948152
  0
LINE
  5
225
100
AcDbEntity
  8
DRAFT
100
AcDbLine
 62
7
  6
CONTINUOUS
 10
-39.5992245679
 20
48.371916665
 11
-39.5992245679
 21
52.5375939789
  0
LINE
  5
226
100
AcDbEntity
  8
DRAFT
100
AcDbLine
 62
7
  6
CONTINUOUS
 10
-38.7764185874
 20
46.3055612155
 11
-38.7764185874
 21
30.9967435256
  0
LINE
  5
227
100
AcDbEntity
  8
DRAFT
100
AcDbLine
 62
7
  6
CONTINUOUS
 10
-38.7764185874
 20
24.8732164496
 11
-38.7764185874
 21
9.5643987598
  0
LWPOLYLINE
  5
228
100
AcDbEntity
  8
0
100
AcDbPolyline
 62
7
  6
CONTINUOUS
 90
31
 70
0
 10
-38.6703525702
 20
27.8737387986
 10
-38.6671314519
 20
28.0113824217
 10
-38.6577003225
 20
28.144304771
 10
-38.6420591822
 20
28.2725058466
 10
-38.6201312576
 20
28.3963105629
 10
-38.5919933221
 20
28.5153940054
 10
-38.5578756952
 20
28.6287814312
 10
-38.5177292971
 20
28.7364260886
 10
-38.4716032076
 20
28.8383747293
 10
-38.4198749862
 20
28.933792865
 10
-38.362498652
 20
29.0226268949
 10
-38.2995201859
 20
29.1049304198
 10
-38.2314550905
 20
29.1800297543
 10
-38.158261616
 20
29.247865768
 10
-38.0799815122
 20
29.3084975913
 10
-37.9972555314
 20
29.3614289297
 10
-37.9100471828
 20
29.4065965794
 10
-37.8183929572
 20
29.4440637443
 10
-37.7230430791
 20
29.4735237414
 10
-37.6239672155
 20
29.4949108497
 10
-37.5211956994
 20
29.5082907902
 10
-37.4155697545
 20
29.5135540431
 10
-37.3070659523
 20
29.5106339884
 10
-37.1957077215
 20
29.499597246
 10
-37.0824065711
 20
29.480534156
 10
-36.9671465542
 20
29.4533788397
 10
-36.8499436178
 20
29.4181971757
 10
-36.7317571122
 20
29.3752771392
 10
-36.6125789647
 20
29.3245552154
 10
-36.492417248
 20
29.2660949191
 10
-36.3724776261
 20
29.200502992
  0
LWPOLYLINE
  5
229
100
AcDbEntity
  8
DRAFT
100
AcDbPolyline
 62
7
  6
CONTINUOUS
 90
11
 70
0
 10
-40.4144258097
 20
47.2945904132
 10
-40.3275291375
 20
47.3510500841
 10
-40.2217662491
 20
47.4310961854
 10
-40.1215464256
 20
47.5201480184
 10
-40.0275128822
 20
47.6176340446
 10
-39.9397054078
 20
47.7236085111
 10
-39.8580842134
 20
47.8380171707
 10
-39.7831731474
 20
47.9601257439
 10
-39.7151468259
 20
48.0896894707
 10
-39.6538306327
 20
48.2269531111
 10
-39.5992245679
 20
48.371916665
  0
LINE
  5
22A
100
AcDbEntity
  8
DRAFT
100
AcDbLine
 62
7
  6
CONTINUOUS
 10
-35.594438072
 20
48.1424417911
 11
-38.7764185874
 21
46.3055612155
  0
LWPOLYLINE
  5
22B
100
AcDbEntity
  8
DRAFT
100
AcDbPolyline
 62
7
  6
CONTINUOUS
 90
6
 70
0
 10
23.9648616368
 20
-27.9438400042
 10
23.8279662713
 20
-27.979243497
 10
23.6955115469
 20
-28.0229892394
 10
23.5674974637
 20
-28.0750772315
 10
23.4437361362
 20
-28.135615935
 10
23.4205918971
 20
-28.1481341531
  0
LWPOLYLINE
  5
22C
100
AcDbEntity
  8
0
100
AcDbPolyline
 62
7
  6
CONTINUOUS
 90
61
 70
0
 10
-34.0741584925
 20
25.219953942
 10
-34.0773796108
 20
25.0823103189
 10
-34.0868107402
 20
24.9493879696
 10
-34.1024518805
 20
24.821186894
 10
-34.1243798051
 20
24.6973821777
 10
-34.1525177406
 20
24.5782987352
 10
-34.1866353675
 20
24.4649113094
 10
-34.2267817656
 20
24.357266652
 10
-34.2729078552
 20
24.2553180113
 10
-34.3246360765
 20
24.1598998756
 10
-34.3820124107
 20
24.0710658457
 10
-34.4449908768
 20
23.9887623208
 10
-34.5130559722
 20
23.9136629863
 10
-34.5862494467
 20
23.8458269726
 10
-34.6645295505
 20
23.7851951493
 10
-34.7472555314
 20
23.7322638109
 10
-34.8344638799
 20
23.6870961612
 10
-34.9261181055
 20
23.6496289963
 10
-35.0214679836
 20
23.6201689992
 10
-35.1205438472
 20
23.5987818909
 10
-35.2233153633
 20
23.5854019504
 10
-35.3289413082
 20
23.5801386975
 10
-35.4374451104
 20
23.5830587522
 10
-35.5488033412
 20
23.5940954946
 10
-35.6621044916
 20
23.6131585847
 10
-35.7773645085
 20
23.6403139009
 10
-35.8945674449
 20
23.6754955649
 10
-36.0127539505
 20
23.7184156014
 10
-36.131932098
 20
23.7691375252
 10
-36.2520938147
 20
23.8275978215
 10
-36.3722555314
 20
23.8933179707
 10
-36.492417248
 20
23.96635756
 10
-36.6125789647
 20
24.0466570021
 10
-36.7317571122
 20
24.1335590158
 10
-36.8499436178
 20
24.2271177934
 10
-36.9671465542
 20
24.3272791426
 10
-37.0824065711
 20
24.4332232048
 10
-37.1957077215
 20
24.5449974431
 10
-37.3070659523
 20
24.6625543945
 10
-37.4155697545
 20
24.7849318108
 10
-37.5211956994
 20
24.9121692572
 10
-37.6239672155
 20
25.0442271685
 10
-37.7230430791
 20
25.1800246007
 10
-37.8183929572
 20
25.319592247
 10
-37.9100471828
 20
25.4628994142
 10
-37.9972555314
 20
25.6087730789
 10
-38.0799815122
 20
25.7572343063
 10
-38.158261616
 20
25.9082620313
 10
-38.2314550905
 20
26.0606200347
 10
-38.2995201859
 20
26.2143192352
 10
-38.362498652
 20
26.3693487142
 10
-38.4198749862
 20
26.5244394966
 10
-38.4716032076
 20
26.6795920858
 10
-38.5177292971
 20
26.8348059784
 10
-38.5578756952
 20
26.9888106902
 10
-38.5919933221
 20
27.1415962963
 10
-38.6201312576
 20
27.2931727215
 10
-38.6420591822
 20
27.4422992553
 10
-38.6577003225
 20
27.5885623277
 10
-38.6671314519
 20
27.7323755088
 10
-38.6703525702
 20
27.8737387986
  0
LWPOLYLINE
  5
22D
100
AcDbEntity
  8
DRAFT
100
AcDbPolyline
 62
7
  6
CONTINUOUS
 90
16
 70
0
 10
-37.3440720482
 20
27.8737387986
 10
-37.3415893932
 20
27.9763013767
 10
-37.3341489679
 20
28.0756855679
 10
-37.3217733688
 20
28.1715895457
 10
-37.3045001799
 20
28.2637220527
 10
-37.2823818596
 20
28.3518032856
 10
-37.2554855803
 20
28.4355657447
 10
-37.2238930252
 20
28.514755046
 10
-37.1877001398
 20
28.5891306943
 10
-37.1470168408
 20
28.6584668131
 10
-37.101966682
 20
28.722552831
 10
-37.0526864792
 20
28.7811941208
 10
-36.9993258949
 20
28.8342125908
 10
-36.9420469832
 20
28.8814472258
 10
-36.8810236985
 20
28.9227545756
 10
-36.8509043399
 20
28.9401934352
  0
LWPOLYLINE
  5
22E
100
AcDbEntity
  8
DRAFT
100
AcDbPolyline
 62
7
  6
CONTINUOUS
 90
12
 70
0
 10
-34.1028237605
 20
25.6539225514
 10
-34.1137303608
 20
25.5957484391
 10
-34.1358486811
 20
25.5076672062
 10
-34.1627449604
 20
25.4239047471
 10
-34.1943375155
 20
25.3447154458
 10
-34.2305304009
 20
25.2703397976
 10
-34.2712136999
 20
25.2010036787
 10
-34.3162638587
 20
25.1369176609
 10
-34.3655440615
 20
25.0782763711
 10
-34.4189046458
 20
25.025257901
 10
-34.4761835575
 20
24.9780232661
 10
-34.5387906821
 20
24.9357531074
  0
LWPOLYLINE
  5
22F
100
AcDbEntity
  8
DRAFT
100
AcDbPolyline
 62
7
  6
CONTINUOUS
 90
11
 70
0
 10
25.9938355599
 20
-29.3139038033
 10
25.8409837238
 20
-29.28870069
 10
25.6914450349
 20
-29.2731584855
 10
25.545219493
 20
-29.2672771899
 10
25.4020078067
 20
-29.2710856187
 10
25.2621092676
 20
-29.2845549563
 10
25.1264217503
 20
-29.307598756
 10
24.9949723394
 20
-29.3402785988
 10
24.8677339505
 20
-29.3825329036
 10
24.7455232049
 20
-29.4340904806
 10
24.6529321712
 20
-29.4812380349
  0
LINE
  5
230
100
AcDbEntity
  8
RACCORDO
100
AcDbLine
 62
7
  6
CONTINUOUS
 10
-49.5362892543
 20
2.2449987
 11
36.2493596628
 21
-47.2865598381
  0
LINE
  5
231
100
AcDbEntity
  8
RACCORDO
100
AcDbLine
 62
250
  6
CONTINUOUS
 10
-49.7433718754
 20
2.7027355611
 11
36.0422770417
 21
-46.8288229769
  0
LWPOLYLINE
  5
232
100
AcDbEntity
  8
RACCORDO
100
AcDbPolyline
 62
250
  6
CONTINUOUS
 90
13
 70
0
 10
-49.7433718754
 20
2.7027355611
 10
-49.7875828856
 20
2.7299687314
 10
-49.8287165255
 20
2.758841318
 10
-49.8665849698
 20
2.7892395713
 10
-49.9010258831
 20
2.821055402
 10
-49.9318609701
 20
2.854148629
 10
-49.9589117872
 20
2.8883428057
 10
-49.9820539845
 20
2.9234850738
 10
-50.0011923838
 20
2.9594359634
 10
-50.0162355447
 20
2.9960275086
 10
-50.0271186513
 20
3.033096581
 10
-50.0337999719
 20
3.0704934818
 10
-50.0362650942
 20
3.1110101544
  0
LWPOLYLINE
  5
233
100
AcDbEntity
  8
RACCORDO
100
AcDbPolyline
 62
250
  6
CONTINUOUS
 90
13
 70
0
 10
-49.5362892543
 20
2.2449987
 10
-49.5697566407
 20
2.2671021042
 10
-49.5988121034
 20
2.2915255131
 10
-49.6254853353
 20
2.3194192125
 10
-49.6496633827
 20
2.3506650802
 10
-49.6712438583
 20
2.3851307986
 10
-49.6901353748
 20
2.422670415
 10
-49.7062579318
 20
2.4631249595
 10
-49.7195432547
 20
2.5063231183
 10
-49.729935084
 20
2.5520819591
 10
-49.737389413
 20
2.6002077061
 10
-49.7418746747
 20
2.6504965598
 10
-49.7433718754
 20
2.7027355611
  0
LINE
  5
234
100
AcDbEntity
  8
DRAFT
100
AcDbLine
 62
7
  6
CONTINUOUS
 10
-38.7764185874
 20
9.5643987598
 11
-37.6659564704
 21
7.6410219553
  0
LINE
  5
235
100
AcDbEntity
  8
DRAFT
100
AcDbLine
 62
7
  6
CONTINUOUS
 10
-36.5988341719
 20
5.7927119182
 11
-35.594438072
 21
4.0530468442
  0
LINE
  5
236
100
AcDbEntity
  8
DRAFT
100
AcDbLine
 62
7
  6
CONTINUOUS
 10
-37.3745466798
 20
10.3620148725
 11
-36.2676309748
 21
8.4447806337
  0
LINE
  5
237
100
AcDbEntity
  8
DRAFT
100
AcDbLine
 62
7
  6
CONTINUOUS
 10
-35.2036426726
 20
6.6018988375
 11
-34.19044945
 21
4.8469966999
  0
LWPOLYLINE
  5
238
100
AcDbEntity
  8
DRAFT
100
AcDbPolyline
 62
7
  6
CONTINUOUS
 90
10
 70
0
 10
-36.5988341719
 20
5.7927119182
 10
-36.6979497818
 20
6.008008089
 10
-36.8020696894
 20
6.221066233
 10
-36.9111938948
 20
6.4318863502
 10
-37.0255102835
 20
6.6407938679
 10
-37.1448309698
 20
6.8474633589
 10
-37.2685922974
 20
7.0509185413
 10
-37.3966063805
 20
7.2508339879
 10
-37.5290611049
 20
7.4475351258
 10
-37.6659564704
 20
7.6410219553
  0
LWPOLYLINE
  5
239
100
AcDbEntity
  8
DRAFT
100
AcDbPolyline
 62
7
  6
CONTINUOUS
 90
46
 70
0
 10
-46.2267619468
 20
52.198573685
 10
-46.172155882
 20
51.9905524162
 10
-46.1108396888
 20
51.7824823729
 10
-46.0428133672
 20
51.5743635551
 10
-45.9679023012
 20
51.3657495606
 10
-45.8862811068
 20
51.1570867916
 10
-45.7984736324
 20
50.9497144546
 10
-45.704440089
 20
50.7436408496
 10
-45.6042202656
 20
50.5388576765
 10
-45.4984573772
 20
50.3366792427
 10
-45.3871157719
 20
50.1371223013
 10
-45.2702311018
 20
49.9401700992
 10
-45.1485535375
 20
49.7470866838
 10
-45.0220522521
 20
49.5578969386
 10
-44.8907580726
 20
49.3725759803
 10
-44.7555136506
 20
49.1923132067
 10
-44.6162935789
 20
49.017141151
 10
-44.4731232648
 20
48.8470272801
 10
-44.3269215814
 20
48.6830633919
 10
-44.1776690315
 20
48.5252890419
 10
-44.0253851124
 20
48.3736646748
 10
-43.8710471886
 20
48.2291634221
 10
-43.7146420494
 20
48.0918310983
 10
-43.5561829055
 20
47.961621889
 10
-43.3966867546
 20
47.8393714824
 10
-43.2361469269
 20
47.725131068
 10
-43.0745700921
 20
47.6188494563
 10
-42.9129932573
 20
47.5212087673
 10
-42.7514164226
 20
47.4322645776
 10
-42.5898395878
 20
47.3519613106
 10
-42.42929976
 20
47.280814356
 10
-42.2698036092
 20
47.2188826054
 10
-42.1113444653
 20
47.1661071673
 10
-41.954939326
 20
47.1228267567
 10
-41.8006014023
 20
47.0891024437
 10
-41.6483174831
 20
47.0648731581
 10
-41.4990649333
 20
47.0502944046
 10
-41.3528632499
 20
47.0454282535
 10
-41.2096929357
 20
47.0502126344
 10
-41.0704728641
 20
47.064616841
 10
-40.9352284421
 20
47.0887027461
 10
-40.8039342626
 20
47.1224084769
 10
-40.6774329772
 20
47.1655177086
 10
-40.5557554129
 20
47.2180909227
 10
-40.4388707427
 20
47.2800676376
 10
-40.4144258097
 20
47.2945904132
  0
LINE
  5
23A
100
AcDbEntity
  8
DRAFT
100
AcDbLine
 62
7
  6
CONTINUOUS
 10
-30.3651871419
 20
45.1231378419
 11
-30.3651871419
 21
35.8532914084
  0
LINE
  5
23B
100
AcDbEntity
  8
DRAFT
100
AcDbLine
 62
7
  6
CONTINUOUS
 10
-30.3651871419
 20
25.7442248495
 11
-30.3651871419
 21
13.7073401178
  0
LINE
  5
23C
100
AcDbEntity
  8
DRAFT
100
AcDbLine
 62
7
  6
CONTINUOUS
 10
-27.5888859991
 20
40.6649997221
 11
-25.1380012841
 21
42.1050262396
  0
LINE
  5
23D
100
AcDbEntity
  8
DRAFT
100
AcDbLine
 62
7
  6
CONTINUOUS
 10
-24.5016051811
 20
41.7375791057
 11
-26.952489896
 21
40.2975525881
  0
LINE
  5
23E
100
AcDbEntity
  8
DRAFT
100
AcDbLine
 62
7
  6
CONTINUOUS
 10
-30.3651871419
 20
35.8532914084
 11
-38.7764185874
 21
30.9967435256
  0
LINE
  5
23F
100
AcDbEntity
  8
DRAFT
100
AcDbLine
 62
7
  6
CONTINUOUS
 10
-43.3026289964
 20
3.0444319054
 11
-39.6949303935
 21
0.9613919471
  0
LINE
  5
240
100
AcDbEntity
  8
DRAFT
100
AcDbLine
 62
7
  6
CONTINUOUS
 10
25.9938355599
 20
-36.9664782408
 11
29.6015341628
 21
-39.049518199
  0
LWPOLYLINE
  5
241
100
AcDbEntity
  8
DRAFT
100
AcDbPolyline
 62
7
  6
CONTINUOUS
 90
45
 70
0
 10
-39.5992245679
 20
52.5375939789
 10
-39.6538306327
 20
52.7456152478
 10
-39.7151468259
 20
52.9536852911
 10
-39.7831731474
 20
53.1618041089
 10
-39.8580842134
 20
53.3704181034
 10
-39.9397054078
 20
53.5790808724
 10
-40.0275128822
 20
53.7864532094
 10
-40.1215464256
 20
53.9925268144
 10
-40.2217662491
 20
54.1973099874
 10
-40.3275291375
 20
54.3994884212
 10
-40.4388707427
 20
54.5990453626
 10
-40.5557554129
 20
54.7959975648
 10
-40.6774329772
 20
54.9890809802
 10
-40.8039342626
 20
55.1782707253
 10
-40.9352284421
 20
55.3635916837
 10
-41.0704728641
 20
55.5438544573
 10
-41.2096929357
 20
55.7190265129
 10
-41.3528632499
 20
55.8891403839
 10
-41.4990649333
 20
56.0531042721
 10
-41.6483174831
 20
56.2108786221
 10
-41.8006014023
 20
56.3625029892
 10
-41.954939326
 20
56.5070042419
 10
-42.1113444653
 20
56.6443365656
 10
-42.2698036092
 20
56.774545775
 10
-42.42929976
 20
56.8967961815
 10
-42.5898395878
 20
57.011036596
 10
-42.7514164226
 20
57.1173182076
 10
-42.9129932573
 20
57.2149588967
 10
-43.0745700921
 20
57.3039030864
 10
-43.2361469269
 20
57.3842063534
 10
-43.3966867546
 20
57.455353308
 10
-43.5561829055
 20
57.5172850585
 10
-43.7146420494
 20
57.5700604966
 10
-43.8710471886
 20
57.6133409073
 10
-44.0253851124
 20
57.6470652203
 10
-44.1776690315
 20
57.6712945059
 10
-44.3269215814
 20
57.6858732594
 10
-44.4731232648
 20
57.6907394105
 10
-44.6162935789
 20
57.6859550296
 10
-44.7555136506
 20
57.671550823
 10
-44.8907580726
 20
57.6474649179
 10
-45.0220522521
 20
57.613759187
 10
-45.1485535375
 20
57.5706499554
 10
-45.2702311018
 20
57.5180767413
 10
-45.3506312549
 20
57.4767385428
  0
LINE
  5
242
100
AcDbEntity
  8
DRAFT
100
AcDbLine
 62
7
  6
CONTINUOUS
 10
-21.2048150749
 20
24.0112270523
 11
-21.2048150749
 21
39.8340538168
  0
LINE
  5
243
100
AcDbEntity
  8
DRAFT
100
AcDbLine
 62
250
  6
CONTINUOUS
 10
-36.3722555314
 20
29.6086099083
 11
-27.8869741571
 21
34.4224022903
  0
LWPOLYLINE
  5
244
100
AcDbEntity
  8
DRAFT
100
AcDbPolyline
 62
7
  6
CONTINUOUS
 90
13
 70
0
 10
-36.8509043399
 20
28.9401934352
 10
-36.8164413664
 20
28.9580091912
 10
-36.7484961213
 20
28.9871040055
 10
-36.6773943108
 20
29.0099506585
 10
-36.6033518686
 20
29.0264797656
 10
-36.5265936593
 20
29.0366411286
 10
-36.4473527949
 20
29.0404038876
 10
-36.3658699275
 20
29.0377566154
 10
-36.2823925178
 20
29.0287073515
 10
-36.1971740839
 20
29.0132835784
 10
-36.1104734314
 20
28.9915321374
 10
-36.0225538674
 20
28.963519087
 10
-36.0118084218
 20
28.9593852256
  0
LWPOLYLINE
  5
245
100
AcDbEntity
  8
0
100
AcDbPolyline
 62
7
  6
CONTINUOUS
 90
14
 70
0
 10
3.0907209889
 20
-16.6786838687
 10
3.0941509823
 20
-16.677988524
 10
3.1662583436
 20
-16.6664389928
 10
3.237389853
 20
-16.6581456494
 10
3.3075423195
 20
-16.6531191365
 10
3.376718934
 20
-16.6513488114
 10
3.4446938479
 20
-16.6528404132
 10
3.5114631319
 20
-16.6576046026
 10
3.5770307152
 20
-16.6656307189
 10
3.6411825359
 20
-16.6768925179
 10
3.7039139658
 20
-16.6914005747
 10
3.7652296331
 20
-16.7091443142
 10
3.8249293616
 20
-16.7300657678
 10
3.877927969
 20
-16.751911075
  0
LINE
  5
246
100
AcDbEntity
  8
0
100
AcDbLine
 62
7
  6
CONTINUOUS
 10
3.8779304463
 20
-16.7519064069
 11
5.7480892277
 21
-17.5796342742
  0
LWPOLYLINE
  5
247
100
AcDbEntity
  8
0
100
AcDbPolyline
 62
7
  6
CONTINUOUS
 90
21
 70
0
 10
5.7480861283
 20
-17.5796401148
 10
5.801430535
 20
-17.6048681679
 10
5.8596076916
 20
-17.6362832657
 10
5.9159062304
 20
-17.6709522248
 10
5.970332163
 20
-17.7088646331
 10
6.0227109588
 20
-17.749898915
 10
6.0730360463
 20
-17.7940650923
 10
6.1213139971
 20
-17.8413531432
 10
6.1673899958
 20
-17.8916114267
 10
6.2112569738
 20
-17.9448494777
 10
6.2529219998
 20
-18.0010577614
 10
6.2922514643
 20
-18.0600560317
 10
6.3292378699
 20
-18.121853245
 10
6.363888714
 20
-18.186440445
 10
6.3960928801
 20
-18.2536105165
 10
6.4258425139
 20
-18.3233717511
 10
6.4531454697
 20
-18.3957158574
 10
6.4779141936
 20
-18.4704108456
 10
6.5001405504
 20
-18.5474642627
 10
6.5198326754
 20
-18.6268685619
 10
6.5274078463
 20
-18.6629837884
  0
LINE
  5
248
100
AcDbEntity
  8
DRAFT
100
AcDbLine
 62
7
  6
CONTINUOUS
 10
-35.594438072
 20
4.0530468442
 11
21.8933432384
 21
-29.1396775933
  0
LINE
  5
249
100
AcDbEntity
  8
DRAFT
100
AcDbLine
 62
7
  6
CONTINUOUS
 10
-34.19044945
 20
4.8469966999
 11
23.1997886234
 21
-28.2894074951
  0
LINE
  5
24A
100
AcDbEntity
  8
DRAFT
100
AcDbLine
 62
7
  6
CONTINUOUS
 10
29.6015341628
 20
-31.3969437616
 11
25.9938355599
 21
-29.3139038033
  0
LINE
  5
24B
100
AcDbEntity
  8
DRAFT
100
AcDbLine
 62
7
  6
CONTINUOUS
 10
-39.6949303935
 20
8.6139663845
 11
-43.3026289964
 21
10.6970063428
  0
LWPOLYLINE
  5
24C
100
AcDbEntity
  8
DRAFT
100
AcDbPolyline
 62
7
  6
CONTINUOUS
 90
49
 70
0
 10
-34.485646554
 20
23.3060710895
 10
-34.4741211361
 20
23.3129803544
 10
-34.3840436292
 20
23.3730659836
 10
-34.2991117451
 20
23.4408607891
 10
-34.2193637989
 20
23.5164221741
 10
-34.1447614756
 20
23.5996927353
 10
-34.0758588975
 20
23.6900539655
 10
-34.0126985054
 20
23.7875586628
 10
-33.9552378585
 20
23.8921540291
 10
-33.903903756
 20
24.0030631636
 10
-33.8587418169
 20
24.1203330793
 10
-33.8197064222
 20
24.2439167631
 10
-33.7870875143
 20
24.372896275
 10
-33.7609328712
 20
24.507311793
 10
-33.741194715
 20
24.647123139
 10
-33.7280196543
 20
24.7912918392
 10
-33.7214565587
 20
24.9398503389
 10
-33.7214565587
 20
25.0927661928
 10
-33.7280196543
 20
25.2489035907
 10
-33.741194715
 20
25.4082865207
 10
-33.7609328712
 20
25.5708909948
 10
-33.7870875143
 20
25.7355092391
 10
-33.8197064222
 20
25.9021562481
 10
-33.8587418169
 20
26.0708170273
 10
-33.903903756
 20
26.2402388183
 10
-33.9552378585
 20
26.4104272876
 10
-34.0126985054
 20
26.5813767687
 10
-34.0758588975
 20
26.7518175035
 10
-34.1447614756
 20
26.9217457039
 10
-34.2193637989
 20
27.091165158
 10
-34.2991117451
 20
27.2588174724
 10
-34.3840436292
 20
27.4246894886
 10
-34.4741211361
 20
27.5887943651
 10
-34.5686751991
 20
27.7499131833
 10
-34.6677391511
 20
27.9080237086
 10
-34.7712796592
 20
28.0631481757
 10
-34.8785276575
 20
28.2141343696
 10
-34.9895107524
 20
28.3609514762
 10
-35.1042013377
 20
28.5036303096
 10
-35.2217475282
 20
28.6411110971
 10
-35.3421705872
 20
28.7733551334
 10
-35.4654492514
 20
28.9004011238
 10
-35.5906678465
 20
29.0213054113
 10
-35.7178408174
 20
29.1360222641
 10
-35.8469537191
 20
29.244597414
 10
-35.9770475422
 20
29.3462243995
 10
-36.1078026171
 20
29.4406344001
 10
-36.2395386135
 20
29.5280962364
 10
-36.3722555314
 20
29.6086099083
  0
LWPOLYLINE
  5
24D
100
AcDbEntity
  8
DRAFT
100
AcDbPolyline
 62
7
  6
CONTINUOUS
 90
49
 70
0
 10
-26.0530505785
 20
28.2958680252
 10
-26.0418470192
 20
28.302584342
 10
-25.9542850146
 20
28.3609920214
 10
-25.8717249364
 20
28.4268935907
 10
-25.7942040295
 20
28.5003448502
 10
-25.721685049
 20
28.5812899996
 10
-25.6547066427
 20
28.6691278043
 10
-25.5933100663
 20
28.7639095876
 10
-25.537454064
 20
28.8655840261
 10
-25.4875535165
 20
28.9733959147
 10
-25.4436527686
 20
29.0873909534
 10
-25.4057074755
 20
29.2075234421
 10
-25.3739994825
 20
29.3329010752
 10
-25.3485752334
 20
29.4635629085
 10
-25.3293882844
 20
29.5994698861
 10
-25.3165811502
 20
29.7396125345
 10
-25.3102013355
 20
29.884022393
 10
-25.3102013355
 20
30.0326679222
 10
-25.3165811502
 20
30.1844450307
 10
-25.3293882844
 20
30.3393770367
 10
-25.3485752334
 20
30.4974406221
 10
-25.3739994825
 20
30.657461741
 10
-25.4057074755
 20
30.8194549696
 10
-25.4436527686
 20
30.9834057317
 10
-25.4875535165
 20
31.1480962536
 10
-25.537454064
 20
31.3135320437
 10
-25.5933100663
 20
31.4797075935
 10
-25.6547066427
 20
31.6453886043
 10
-25.721685049
 20
31.8105713937
 10
-25.7942040295
 20
31.975259644
 10
-25.8717249364
 20
32.1382301037
 10
-25.9542850146
 20
32.2994699819
 10
-26.0418470192
 20
32.4589920693
 10
-26.1337605677
 20
32.6156114871
 10
-26.230058062
 20
32.7693066216
 10
-26.3307071002
 20
32.9200990864
 10
-26.4349600934
 20
33.0668688433
 10
-26.542843877
 20
33.2095859388
 10
-26.6543316156
 20
33.3482803264
 10
-26.7685952139
 20
33.4819218286
 10
-26.8856553413
 20
33.610472821
 10
-27.0054913285
 20
33.733970928
 10
-27.127213072
 20
33.8514988452
 10
-27.2508346134
 20
33.9630121177
 10
-27.3763419111
 20
34.0685552005
 10
-27.5028027372
 20
34.1673441531
 10
-27.6299063489
 20
34.2591176623
 10
-27.7579634888
 20
34.3441370413
 10
-27.8869741571
 20
34.4224022903
  0
LINE
  5
24E
100
AcDbEntity
  8
DRAFT
100
AcDbLine
 62
7
  6
CONTINUOUS
 10
-26.0530358919
 20
28.295842804
 11
-34.4856314454
 21
23.3060451438
  0
LWPOLYLINE
  5
24F
100
AcDbEntity
  8
DRAFT
100
AcDbPolyline
 62
7
  6
CONTINUOUS
 90
44
 70
0
 10
-34.5387906821
 20
24.9357531074
 10
-34.6017891743
 20
24.9014613006
 10
-34.6697344194
 20
24.8723664863
 10
-34.7408362299
 20
24.8495198333
 10
-34.8148786721
 20
24.8329907262
 10
-34.8916368814
 20
24.8228293632
 10
-34.9708777458
 20
24.8190666042
 10
-35.0523606132
 20
24.8217138764
 10
-35.1358380229
 20
24.8307631403
 10
-35.2210564568
 20
24.8461869135
 10
-35.3077571093
 20
24.8679383544
 10
-35.3956766733
 20
24.8959514048
 10
-35.48454814
 20
24.9301409898
 10
-35.5741016098
 20
24.9704032769
 10
-35.6640651115
 20
25.0166159908
 10
-35.7541654292
 20
25.068638785
 10
-35.8441289309
 20
25.1263136679
 10
-35.9336824007
 20
25.189465483
 10
-36.0225538674
 20
25.2579024401
 10
-36.1104734314
 20
25.3314166984
 10
-36.1971740839
 20
25.4097849977
 10
-36.2823925178
 20
25.4927693359
 10
-36.3658699275
 20
25.5801176924
 10
-36.4473527949
 20
25.671564793
 10
-36.5265936593
 20
25.7668329159
 10
-36.6033518686
 20
25.865632735
 10
-36.6773943108
 20
25.9676641985
 10
-36.7484961213
 20
26.0726174401
 10
-36.8164413664
 20
26.1801737202
 10
-36.8810236985
 20
26.2900063942
 10
-36.9420469832
 20
26.4017819036
 10
-36.9993258949
 20
26.5151607899
 10
-37.0526864792
 20
26.6297987253
 10
-37.101966682
 20
26.745347558
 10
-37.1470168408
 20
26.86145637
 10
-37.1877001398
 20
26.9777725428
 10
-37.2238930252
 20
27.0939428279
 10
-37.2554855803
 20
27.2096144199
 10
-37.2823818596
 20
27.3244360281
 10
-37.3045001799
 20
27.438058943
 10
-37.3217733688
 20
27.5501380955
 10
-37.3341489679
 20
27.660333105
 10
-37.3415893932
 20
27.7683093127
 10
-37.3440720482
 20
27.8737387986
  0
LWPOLYLINE
  5
250
100
AcDbEntity
  8
DRAFT
100
AcDbPolyline
 62
7
  6
CONTINUOUS
 90
12
 70
0
 10
-39.6949303935
 20
0.9613919471
 10
-39.5420785574
 20
0.9361888338
 10
-39.3925398685
 20
0.9206466293
 10
-39.2463143267
 20
0.9147653336
 10
-39.1031026404
 20
0.9185737624
 10
-38.9632041012
 20
0.9320431
 10
-38.8275165839
 20
0.9550868997
 10
-38.696067173
 20
0.9877667425
 10
-38.5688287841
 20
1.0300210474
 10
-38.4466180385
 20
1.0815786243
 10
-38.329467273
 20
1.1424993102
 10
-38.2931136419
 20
1.1639153309
  0
LWPOLYLINE
  5
251
100
AcDbEntity
  8
DRAFT
100
AcDbPolyline
 62
7
  6
CONTINUOUS
 90
46
 70
0
 10
-44.6435323851
 20
10.5296721112
 10
-44.6680921169
 20
10.5158989797
 10
-44.780215239
 20
10.4456750216
 10
-44.8865911068
 20
10.3665984919
 10
-44.9871827551
 20
10.2786124523
 10
-45.082027149
 20
10.181773841
 10
-45.1705155733
 20
10.0767041723
 10
-45.2526071475
 20
9.9633505057
 10
-45.328342752
 20
9.8417657816
 10
-45.3972363124
 20
9.7127303361
 10
-45.4592438221
 20
9.5761962475
 10
-45.5144092878
 20
9.4322114375
 10
-45.5623786552
 20
9.2817000067
 10
-45.6031056402
 20
9.1246199771
 10
-45.6366365269
 20
8.9610133268
 10
-45.6627561126
 20
8.7919300901
 10
-45.6814167293
 20
8.6173350428
 10
-45.6926660449
 20
8.4372634092
 10
-45.6964318609
 20
8.2528708966
 10
-45.6926660449
 20
8.0641297142
 10
-45.6814167293
 20
7.8710676528
 10
-45.6627561126
 20
7.6749237931
 10
-45.6366365269
 20
7.4756783136
 10
-45.6031056402
 20
7.2733510358
 10
-45.5623786552
 20
7.0692405047
 10
-45.5144092878
 20
6.8633352509
 10
-45.4592438221
 20
6.6556467439
 10
-45.3972363124
 20
6.4475079374
 10
-45.328342752
 20
6.2389159351
 10
-45.2526071475
 20
6.0298736333
 10
-45.1705155733
 20
5.8217226745
 10
-45.082027149
 20
5.6144687915
 10
-44.9871827551
 20
5.4081062515
 10
-44.8865911068
 20
5.2039594979
 10
-44.780215239
 20
5.0020427824
 10
-44.6680921169
 20
4.8023418535
 10
-44.5509413514
 20
4.6061384001
 10
-44.4287306058
 20
4.4134549174
 10
-44.3014922169
 20
4.2242689103
 10
-44.170042806
 20
4.0397945828
 10
-44.0343552887
 20
3.8600622393
 10
-43.8944567495
 20
3.6850415753
 10
-43.7512450632
 20
3.5158558809
 10
-43.6050195214
 20
3.3528795861
 10
-43.4554808325
 20
3.1957382609
 10
-43.3026289964
 20
3.0444319054
  0
LINE
  5
252
100
AcDbEntity
  8
DRAFT
100
AcDbLine
 62
250
  6
CONTINUOUS
 10
-30.3651871419
 20
18.5366184191
 11
-23.8211101653
 21
22.1831923865
  0
LINE
  5
253
100
AcDbEntity
  8
DRAFT
100
AcDbLine
 62
250
  6
CONTINUOUS
 10
-22.9369307408
 20
21.6726782681
 11
-14.699432688
 21
26.2628819077
  0
LINE
  5
254
100
AcDbEntity
  8
DRAFT
100
AcDbLine
 62
7
  6
CONTINUOUS
 10
-26.5512737686
 20
22.4764248492
 11
-30.3651871419
 21
20.3817151804
  0
LINE
  5
255
100
AcDbEntity
  8
DRAFT
100
AcDbLine
 62
7
  6
CONTINUOUS
 10
-24.1859449808
 20
22.373905743
 11
-16.7116462243
 21
26.4790031431
  0
LWPOLYLINE
  5
256
100
AcDbEntity
  8
DRAFT
100
AcDbPolyline
 62
7
  6
CONTINUOUS
 90
17
 70
0
 10
-16.7116388467
 20
26.4789901566
 10
-16.659241391
 20
26.5063205273
 10
-16.5515963963
 20
26.5538210414
 10
-16.4390870807
 20
26.5924596452
 10
-16.3225491275
 20
26.6219493436
 10
-16.2019525388
 20
26.6422220128
 10
-16.0773273125
 20
26.6533457767
 10
-15.9495991248
 20
26.6552380114
 10
-15.8187448707
 20
26.6478299779
 10
-15.6847876553
 20
26.6311904153
 10
-15.5487224698
 20
26.6054429169
 10
-15.4105336181
 20
26.570519664
 10
-15.2702367964
 20
26.5264884752
 10
-15.1288740845
 20
26.4736764003
 10
-14.9867928424
 20
26.4121924556
 10
-14.8436457103
 20
26.3419276248
 10
-14.699432688
 20
26.2628819077
  0
LWPOLYLINE
  5
257
100
AcDbEntity
  8
DRAFT
100
AcDbPolyline
 62
7
  6
CONTINUOUS
 90
18
 70
0
 10
-26.5512396906
 20
22.4763648276
 10
-26.4235699849
 20
22.5401962824
 10
-26.2881098699
 20
22.5953204291
 10
-26.1476979164
 20
22.6401108732
 10
-26.0022600332
 20
22.6746739467
 10
-25.8525442083
 20
22.6988371781
 10
-25.6984283656
 20
22.7125526758
 10
-25.5400345812
 20
22.7158683315
 10
-25.3784770711
 20
22.7087553484
 10
-25.2138138459
 20
22.6911497978
 10
-25.045986895
 20
22.6631156085
 10
-24.875936403
 20
22.6248157698
 10
-24.7035946274
 20
22.576177637
 10
-24.5290293108
 20
22.5172738548
 10
-24.353383865
 20
22.4484853464
 10
-24.1770394275
 20
22.369939086
 10
-23.9996148609
 20
22.2815080994
 10
-23.8211101653
 20
22.1831923865
  0
LINE
  5
258
100
AcDbEntity
  8
DRAFT
100
AcDbLine
 62
7
  6
CONTINUOUS
 10
-38.7764185874
 20
24.8732164496
 11
-36.3722555314
 21
23.4850828323
  0
LINE
  5
259
100
AcDbEntity
  8
DRAFT
100
AcDbLine
 62
7
  6
CONTINUOUS
 10
22.6711606977
 20
-10.6058457105
 11
25.0753237538
 21
-11.9939793278
  0
LINE
  5
25A
100
AcDbEntity
  8
DRAFT
100
AcDbLine
 62
7
  6
CONTINUOUS
 10
-43.3026289964
 20
3.0444319054
 11
-37.9882194995
 21
6.2020825183
  0
LINE
  5
25B
100
AcDbEntity
  8
DRAFT
100
AcDbLine
 62
7
  6
CONTINUOUS
 10
-35.2036426726
 20
6.6018988375
 11
-36.5988341719
 21
5.7927119182
  0
LINE
  5
25C
100
AcDbEntity
  8
DRAFT
100
AcDbLine
 62
7
  6
CONTINUOUS
 10
-36.2676309748
 20
8.4447806337
 11
-37.6659564704
 21
7.6410219553
  0
LINE
  5
25D
100
AcDbEntity
  8
DRAFT
100
AcDbLine
 62
7
  6
CONTINUOUS
 10
-30.3651871419
 20
13.7073401178
 11
-37.093773232
 21
9.8757009959
  0
LINE
  5
25E
100
AcDbEntity
  8
DRAFT
100
AcDbLine
 62
7
  6
CONTINUOUS
 10
-37.3745466798
 20
10.3620148725
 11
-38.7764185874
 21
9.5643987598
  0
LINE
  5
25F
100
AcDbEntity
  8
RACCORDO
100
AcDbLine
 62
250
  6
CONTINUOUS
 10
-30.3651871419
 20
15.3274278392
 11
-20.9926830405
 21
20.5500940132
  0
LINE
  5
260
100
AcDbEntity
  8
DRAFT
100
AcDbLine
 62
250
  6
CONTINUOUS
 10
-20.1935894119
 20
19.9921673033
 11
-11.8710055632
 21
24.6297835344
  0
LWPOLYLINE
  5
261
100
AcDbEntity
  8
DRAFT
100
AcDbPolyline
 62
7
  6
CONTINUOUS
 90
11
 70
0
 10
-43.3026289964
 20
10.6970063428
 10
-43.4554808325
 20
10.7222094561
 10
-43.6050195214
 20
10.7377516606
 10
-43.7512450632
 20
10.7436329562
 10
-43.8944567495
 20
10.7398245275
 10
-44.0343552887
 20
10.7263551898
 10
-44.170042806
 20
10.7033113902
 10
-44.3014922169
 20
10.6706315474
 10
-44.4287306058
 20
10.6283772425
 10
-44.5509413514
 20
10.5768196656
 10
-44.6435323851
 20
10.5296721112
  0
LWPOLYLINE
  5
262
100
AcDbEntity
  8
DRAFT
100
AcDbPolyline
 62
7
  6
CONTINUOUS
 90
17
 70
0
 10
-36.3722555314
 20
23.4850828323
 10
-36.2395386135
 20
23.4123383342
 10
-36.1078026171
 20
23.3476747439
 10
-35.9770475422
 20
23.2910920616
 10
-35.8469537191
 20
23.242489961
 10
-35.7178408174
 20
23.2019687683
 10
-35.5906678465
 20
23.1698294621
 10
-35.4654492514
 20
23.1461344547
 10
-35.3421705872
 20
23.1308213336
 10
-35.2217475282
 20
23.1240038399
 10
-35.1042013377
 20
23.125745233
 10
-34.9895107524
 20
23.1359822534
 10
-34.8785276575
 20
23.1546388639
 10
-34.7712796592
 20
23.1817777576
 10
-34.6677391511
 20
23.2173362413
 10
-34.5686751991
 20
23.261050198
 10
-34.485646554
 20
23.3060710895
  0
LWPOLYLINE
  5
263
100
AcDbEntity
  8
DRAFT
100
AcDbPolyline
 62
7
  6
CONTINUOUS
 90
17
 70
0
 10
22.6711606977
 20
-4.4823186346
 10
22.5384437799
 20
-4.4095741364
 10
22.4067077835
 20
-4.3449105461
 10
22.2759527086
 20
-4.2883278638
 10
22.1458588854
 20
-4.2397257632
 10
22.0167459838
 20
-4.1992045706
 10
21.8895730129
 20
-4.1670652643
 10
21.7643544178
 20
-4.1433702569
 10
21.6410757535
 20
-4.1280571359
 10
21.5206526946
 20
-4.1212396422
 10
21.403106504
 20
-4.1229810353
 10
21.2884159188
 20
-4.1332180557
 10
21.1774328238
 20
-4.1518746661
 10
21.0701848255
 20
-4.1790135598
 10
20.9666443175
 20
-4.2145720436
 10
20.8675803655
 20
-4.2582860003
 10
20.8076845518
 20
-4.2899378561
  0
LINE
  5
264
100
AcDbEntity
  8
DRAFT
100
AcDbLine
 62
7
  6
CONTINUOUS
 10
20.0547796112
 20
-5.5403779636
 11
17.7214132294
 21
-4.1931214587
  0
LINE
  5
265
100
AcDbEntity
  8
DRAFT
100
AcDbLine
 62
7
  6
CONTINUOUS
 10
17.7214132294
 20
-4.0298274033
 11
15.5647375468
 21
-2.7845898937
  0
LINE
  5
266
100
AcDbEntity
  8
DRAFT
100
AcDbLine
 62
7
  6
CONTINUOUS
 10
15.5647375468
 20
-2.0497666446
 11
-14.1918703309
 21
15.1313258061
  0
LINE
  5
267
100
AcDbEntity
  8
DRAFT
100
AcDbLine
 62
7
  6
CONTINUOUS
 10
-23.8211101653
 20
22.1831923865
 11
-20.9926830405
 21
20.5500940132
  0
LINE
  5
268
100
AcDbEntity
  8
DRAFT
100
AcDbLine
 62
7
  6
CONTINUOUS
 10
25.0753237538
 20
-5.8704522519
 11
22.6711606977
 21
-4.4823186346
  0
LINE
  5
269
100
AcDbEntity
  8
DRAFT
100
AcDbLine
 62
7
  6
CONTINUOUS
 10
-36.3722555314
 20
29.6086099083
 11
-38.7764185874
 21
30.9967435256
  0
LWPOLYLINE
  5
26A
100
AcDbEntity
  8
DRAFT
100
AcDbPolyline
 62
7
  6
CONTINUOUS
 90
53
 70
0
 10
-20.9926830405
 20
20.5500940132
 10
-20.8141783449
 20
20.4422769779
 10
-20.6367537783
 20
20.3258225223
 10
-20.4604093408
 20
20.2007306465
 10
-20.2847638951
 20
20.0666881969
 10
-20.1101985784
 20
19.9240083271
 10
-19.9378568028
 20
19.7736304973
 10
-19.7678063108
 20
19.6155602904
 10
-19.59997936
 20
19.4497921235
 10
-19.4353161347
 20
19.277248709
 10
-19.2737586246
 20
19.097799129
 10
-19.1153648402
 20
18.9115743014
 10
-18.9612489975
 20
18.7198896916
 10
-18.8115331726
 20
18.5228383783
 10
-18.6660952894
 20
18.3203272828
 10
-18.5256833359
 20
18.1133926344
 10
-18.3902232209
 20
17.9018425423
 10
-18.2597890357
 20
17.6858688973
 10
-18.1353510422
 20
17.4670836015
 10
-18.017053262
 20
17.2456672095
 10
-17.9047516735
 20
17.0214391667
 10
-17.7989844749
 20
16.7954697109
 10
-17.6996924637
 20
16.5675231325
 10
-17.6069348425
 20
16.3378351411
 10
-17.5214274164
 20
16.1081831041
 10
-17.4433007483
 20
15.8788110667
 10
-17.3724242755
 20
15.6494749836
 10
-17.3091221151
 20
15.4212200867
 10
-17.2533759347
 20
15.1937995337
 10
-17.2052040667
 20
14.9674601669
 10
-17.1649856263
 20
14.7439877449
 10
-17.1328108816
 20
14.5236543722
 10
-17.1085895644
 20
14.3061879442
 10
-17.0924299851
 20
14.0925579069
 10
-17.0843682472
 20
13.8825418382
 10
-17.0843682472
 20
13.6763621601
 10
-17.0924299851
 20
13.4756555842
 10
-17.1085895644
 20
13.280686224
 10
-17.1328108816
 20
13.091189966
 10
-17.1649856263
 20
12.908011182
 10
-17.2052040667
 20
12.7309820069
 10
-17.2533759347
 20
12.5602703057
 10
-17.3091221151
 20
12.3972240446
 10
-17.3724242755
 20
12.2420688957
 10
-17.4433007483
 20
12.094579187
 10
-17.5214274164
 20
11.9554258676
 10
-17.6069348425
 20
11.8245156628
 10
-17.6996924637
 20
11.7019418474
 10
-17.7989844749
 20
11.5886551946
 10
-17.9047516735
 20
11.4848230486
 10
-18.017053262
 20
11.3902780652
 10
-18.1353510422
 20
11.3054689847
 10
-18.1943028152
 20
11.268224159
  0
LWPOLYLINE
  5
26B
100
AcDbEntity
  8
0
100
AcDbPolyline
 62
7
  6
CONTINUOUS
 90
31
 70
0
 10
-36.3724776261
 20
29.200502992
 10
-36.2520938147
 20
29.1273351806
 10
-36.131932098
 20
29.0470357385
 10
-36.0127539505
 20
28.9601337248
 10
-35.8945674449
 20
28.8665749472
 10
-35.7773645085
 20
28.766413598
 10
-35.6621044916
 20
28.6604695358
 10
-35.5488033412
 20
28.5486952975
 10
-35.4374451104
 20
28.4311383461
 10
-35.3289413082
 20
28.3087609298
 10
-35.2233153633
 20
28.1815234834
 10
-35.1205438472
 20
28.0494655721
 10
-35.0214679836
 20
27.9136681399
 10
-34.9261181055
 20
27.7741004936
 10
-34.8344638799
 20
27.6307933264
 10
-34.7472555314
 20
27.4849196618
 10
-34.6645295505
 20
27.3364584343
 10
-34.5862494467
 20
27.1854307093
 10
-34.5130559722
 20
27.0330727059
 10
-34.4449908768
 20
26.8793735054
 10
-34.3820124107
 20
26.7243440264
 10
-34.3246360765
 20
26.569253244
 10
-34.2729078552
 20
26.4141006548
 10
-34.2267817656
 20
26.2588867622
 10
-34.1866353675
 20
26.1048820505
 10
-34.1525177406
 20
25.9520964443
 10
-34.1243798051
 20
25.8005200192
 10
-34.1024518805
 20
25.6513934853
 10
-34.0868107402
 20
25.5051304129
 10
-34.0773796108
 20
25.3613172318
 10
-34.0741584925
 20
25.219953942
  0
LWPOLYLINE
  5
26C
100
AcDbEntity
  8
0
100
AcDbPolyline
 62
7
  6
CONTINUOUS
 90
31
 70
0
 10
22.670938603
 20
-4.8904255509
 10
22.7913224144
 20
-4.9635933622
 10
22.9114841311
 20
-5.0438928044
 10
23.0306622786
 20
-5.130794818
 10
23.1488487841
 20
-5.2243535957
 10
23.2660517205
 20
-5.3245149448
 10
23.3813117375
 20
-5.430459007
 10
23.4946128878
 20
-5.5422332454
 10
23.6059711187
 20
-5.6597901968
 10
23.7144749208
 20
-5.782167613
 10
23.8201008657
 20
-5.9094050595
 10
23.9228723819
 20
-6.0414629708
 10
24.0219482455
 20
-6.177260403
 10
24.1172981236
 20
-6.3168280492
 10
24.2089523492
 20
-6.4601352164
 10
24.2961606977
 20
-6.6060088811
 10
24.3788866785
 20
-6.7544701086
 10
24.4571667823
 20
-6.9054978335
 10
24.5303602569
 20
-7.057855837
 10
24.5984253522
 20
-7.2115550375
 10
24.6614038183
 20
-7.3665845164
 10
24.7187801526
 20
-7.5216752989
 10
24.7705083739
 20
-7.676827888
 10
24.8166344634
 20
-7.8320417807
 10
24.8567808616
 20
-7.9860464924
 10
24.8908984885
 20
-8.1388320985
 10
24.919036424
 20
-8.2904085237
 10
24.9409643486
 20
-8.4395350576
 10
24.9566054889
 20
-8.58579813
 10
24.9660366182
 20
-8.7296113111
 10
24.9692577366
 20
-8.8709746009
  0
LWPOLYLINE
  5
26D
100
AcDbEntity
  8
DRAFT
100
AcDbPolyline
 62
7
  6
CONTINUOUS
 90
45
 70
0
 10
-38.2931136419
 20
1.1639153309
 10
-38.2173441509
 20
1.2127232682
 10
-38.1109682831
 20
1.291799798
 10
-38.0103766348
 20
1.3797858376
 10
-37.9155322409
 20
1.4766244488
 10
-37.8270438166
 20
1.5816941175
 10
-37.7449522424
 20
1.6950477842
 10
-37.6692166379
 20
1.8166325083
 10
-37.6003230775
 20
1.9456679538
 10
-37.5383155678
 20
2.0822020424
 10
-37.4831501021
 20
2.2261868524
 10
-37.4351807348
 20
2.3766982832
 10
-37.3944537497
 20
2.5337783127
 10
-37.360922863
 20
2.6973849631
 10
-37.3348032773
 20
2.8664681998
 10
-37.3161426606
 20
3.0410632471
 10
-37.304893345
 20
3.2211348807
 10
-37.301127529
 20
3.4055273933
 10
-37.304893345
 20
3.5942685757
 10
-37.3161426606
 20
3.7873306371
 10
-37.3348032773
 20
3.9834744967
 10
-37.360922863
 20
4.1827199763
 10
-37.3944537497
 20
4.3850472541
 10
-37.4351807348
 20
4.5891577852
 10
-37.4831501021
 20
4.795063039
 10
-37.5383155678
 20
5.002751546
 10
-37.6003230775
 20
5.2108903525
 10
-37.6692166379
 20
5.4194823548
 10
-37.7449522424
 20
5.6285246565
 10
-37.8270438166
 20
5.8366756154
 10
-37.9155322409
 20
6.0439294983
 10
-38.0103766348
 20
6.2502920384
 10
-38.1109682831
 20
6.4544387919
 10
-38.2173441509
 20
6.6563555074
 10
-38.329467273
 20
6.8560564364
 10
-38.4466180385
 20
7.0522598898
 10
-38.5688287841
 20
7.2449433725
 10
-38.696067173
 20
7.4341293795
 10
-38.8275165839
 20
7.6186037071
 10
-38.9632041012
 20
7.7983360506
 10
-39.1031026404
 20
7.9733567146
 10
-39.2463143267
 20
8.142542409
 10
-39.3925398685
 20
8.3055187038
 10
-39.5420785574
 20
8.4626600289
 10
-39.6949303935
 20
8.6139663845
  0
LINE
  5
26E
100
AcDbEntity
  8
DRAFT
100
AcDbLine
 62
7
  6
CONTINUOUS
 10
-17.1014006803
 20
13.3674219066
 11
-9.8085029161
 21
17.7887439966
  0
LINE
  5
26F
100
AcDbEntity
  8
DRAFT
100
AcDbLine
 62
7
  6
CONTINUOUS
 10
-18.1942873648
 20
11.2681978239
 11
-31.4223068833
 21
3.2487058749
  0
LINE
  5
270
100
AcDbEntity
  8
DRAFT
100
AcDbLine
 62
7
  6
CONTINUOUS
 10
-39.6949303935
 20
0.9613919471
 11
-37.4577851429
 21
2.3057733991
  0
LINE
  5
271
100
AcDbEntity
  8
DRAFT
100
AcDbLine
 62
7
  6
CONTINUOUS
 10
-34.19044945
 20
4.8469966999
 11
-35.594438072
 21
4.0530468442
  0
LINE
  5
272
100
AcDbEntity
  8
DRAFT
100
AcDbLine
 62
7
  6
CONTINUOUS
 10
-14.699432688
 20
26.2628819077
 11
-11.8710055632
 21
24.6297835344
  0
LINE
  5
273
100
AcDbEntity
  8
DRAFT
100
AcDbLine
 62
7
  6
CONTINUOUS
 10
-27.8869741571
 20
34.4224022903
 11
-30.3651871419
 21
35.8532914084
  0
LWPOLYLINE
  5
274
100
AcDbEntity
  8
DRAFT
100
AcDbPolyline
 62
7
  6
CONTINUOUS
 90
48
 70
0
 10
-11.8710055632
 20
24.6297835344
 10
-11.7267925409
 20
24.5422956682
 10
-11.5836454088
 20
24.4472577789
 10
-11.4415641667
 20
24.3446698666
 10
-11.3002014549
 20
24.2342398253
 10
-11.1599046331
 20
24.1162597609
 10
-11.0217157814
 20
23.9916059917
 10
-10.8856505959
 20
23.8602288245
 10
-10.7516933805
 20
23.7221779525
 10
-10.6208391264
 20
23.5784787733
 10
-10.4931109387
 20
23.4290892291
 10
-10.3684857124
 20
23.2740513777
 10
-10.2478891237
 20
23.1145167908
 10
-10.1313511705
 20
22.9504519851
 10
-10.0188418549
 20
22.7818904438
 10
-9.9111968602
 20
22.6100841882
 10
-9.8084524067
 20
22.4350090576
 10
-9.7105722741
 20
22.2566892127
 10
-9.6182834847
 20
22.0764491562
 10
-9.5316276722
 20
21.8942745899
 10
-9.4505632029
 20
21.710179812
 10
-9.3756921978
 20
21.5255322197
 10
-9.3070607741
 20
21.3403276965
 10
-9.2446228145
 20
21.1545703588
 10
-9.1888420882
 20
20.9696399526
 10
-9.1397681657
 20
20.7855426355
 10
-9.0973514766
 20
20.60227225
 10
-9.0619070784
 20
20.4211900698
 10
-9.0334868876
 20
20.2423123886
 10
-9.0120389877
 20
20.0656229127
 10
-8.9977226869
 20
19.8924340351
 10
-8.9905910879
 20
19.7227718217
 10
-8.9905910879
 20
19.5566102064
 10
-8.9977226869
 20
19.3951833848
 10
-9.0120389877
 20
19.2385266125
 10
-9.0334868876
 20
19.0866046339
 10
-9.0619070784
 20
18.9405458766
 10
-9.0973514766
 20
18.800393999
 10
-9.1397681657
 20
18.6661053428
 10
-9.1888420882
 20
18.5386773613
 10
-9.2446228145
 20
18.4181611397
 10
-9.3070607741
 20
18.3045055927
 10
-9.3756921978
 20
18.1985549173
 10
-9.4505632029
 20
18.1003664849
 10
-9.5316276722
 20
18.0098829242
 10
-9.6182834847
 20
17.9277763181
 10
-9.7105722741
 20
17.8541090423
 10
-9.8085219971
 20
17.7887764985
  0
LINE
  5
275
100
AcDbEntity
  8
DRAFT
100
AcDbLine
 62
250
  6
CONTINUOUS
 10
9.7664619411
 20
-5.3391914389
 11
9.7664619411
 21
-6.074014688
  0
LINE
  5
276
100
AcDbEntity
  8
DRAFT
100
AcDbLine
 62
250
  6
CONTINUOUS
 10
14.0091026282
 20
-6.1358615705
 11
14.0091026282
 21
-6.2991556258
  0
LINE
  5
277
100
AcDbEntity
  8
DRAFT
100
AcDbLine
 62
250
  6
CONTINUOUS
 10
-26.952489896
 20
40.2975525881
 11
-27.5888859991
 21
40.6649997221
  0
LINE
  5
278
100
AcDbEntity
  8
DRAFT
100
AcDbLine
 62
7
  6
CONTINUOUS
 10
21.8933432384
 20
14.9497173535
 11
-35.594438072
 21
48.1424417911
  0
LINE
  5
279
100
AcDbEntity
  8
DRAFT
100
AcDbLine
 62
7
  6
CONTINUOUS
 10
15.5647375468
 20
-2.0497666446
 11
15.5647375468
 21
-2.7845898937
  0
LINE
  5
27A
100
AcDbEntity
  8
DRAFT
100
AcDbLine
 62
7
  6
CONTINUOUS
 10
17.7214132294
 20
-4.0298274033
 11
17.7214132294
 21
-4.1931214587
  0
LWPOLYLINE
  5
27B
100
AcDbEntity
  8
RACCORDO
100
AcDbPolyline
 62
250
  6
CONTINUOUS
 90
10
 70
0
 10
13.840459321
 20
-22.2757026534
 10
13.8383803284
 20
-22.3524173069
 10
13.8321512368
 20
-22.4264401878
 10
13.8217956751
 20
-22.4974905017
 10
13.8073529254
 20
-22.5652987306
 10
13.7888777738
 20
-22.6296076543
 10
13.7664403028
 20
-22.6901733269
 10
13.7401256251
 20
-22.7467660024
 10
13.7100335614
 20
-22.7991710048
 10
13.7045479587
 20
-22.8069745386
  0
LWPOLYLINE
  5
27C
100
AcDbEntity
  8
RACCORDO
100
AcDbPolyline
 62
7
  6
CONTINUOUS
 90
16
 70
0
 10
14.2132337371
 20
-21.749597573
 10
14.2108000942
 20
-21.8358096738
 10
14.2035597058
 20
-21.9208842245
 10
14.1916243287
 20
-22.0045238879
 10
14.1751717712
 20
-22.086280964
 10
14.1543391241
 20
-22.1660903298
 10
14.129137591
 20
-22.2441884649
 10
14.0997065102
 20
-22.320273457
 10
14.0662000883
 20
-22.3940929823
 10
14.0285407494
 20
-22.4658603178
 10
13.9867871505
 20
-22.5354032292
 10
13.941156297
 20
-22.6023280311
 10
13.8917635109
 20
-22.6664599514
 10
13.8389110774
 20
-22.7274270064
 10
13.7827238159
 20
-22.7851217025
 10
13.7378056422
 20
-22.8261771082
  0
LWPOLYLINE
  5
27D
100
AcDbEntity
  8
DRAFT
100
AcDbPolyline
 62
7
  6
CONTINUOUS
 90
12
 70
0
 10
26.7742604262
 20
15.8327300234
 10
26.7377759091
 20
15.812091507
 10
26.6264343039
 20
15.7411090604
 10
26.5206714155
 20
15.6610629591
 10
26.420451592
 20
15.5720111261
 10
26.3264180486
 20
15.4745250999
 10
26.2386105742
 20
15.3685506335
 10
26.1569893798
 20
15.2541419738
 10
26.0820783138
 20
15.1320334007
 10
26.0140519923
 20
15.0024696738
 10
25.9527357991
 20
14.8652060335
 10
25.8981297342
 20
14.7202424796
  0
LINE
  5
27E
100
AcDbEntity
  8
DRAFT
100
AcDbLine
 62
7
  6
CONTINUOUS
 10
25.8981297342
 20
14.7202424796
 11
28.180474953
 21
15.9853643342
  0
LWPOLYLINE
  5
27F
100
AcDbEntity
  8
RACCORDO
100
AcDbPolyline
 62
250
  6
CONTINUOUS
 90
25
 70
0
 10
36.0422770417
 20
16.3000286366
 10
36.0894432375
 20
16.2745017534
 10
36.1394488026
 20
16.2507517053
 10
36.1920967298
 20
16.2288869401
 10
36.2471998148
 20
16.2090011885
 10
36.3045152726
 20
16.1911973957
 10
36.3637375084
 20
16.1755785929
 10
36.4246017808
 20
16.1622165782
 10
36.4868665365
 20
16.1511663063
 10
36.5502408689
 20
16.1424805738
 10
36.6144422493
 20
16.1361968044
 10
36.6792114084
 20
16.1323390936
 10
36.744285731
 20
16.1309232663
 10
36.8093966785
 20
16.1319564436
 10
36.874260608
 20
16.1354354033
 10
36.9385922437
 20
16.1413451417
 10
37.002114203
 20
16.1496596389
 10
37.0645616943
 20
16.1603436907
 10
37.1256734818
 20
16.1733525444
 10
37.1851920228
 20
16.1886316671
 10
37.2428627805
 20
16.2061160141
 10
37.2984390962
 20
16.2257308446
 10
37.3516846651
 20
16.2473926058
 10
37.4023743136
 20
16.2710095322
 10
37.4502930872
 20
16.2964813598
  0
LINE
  5
280
100
AcDbEntity
  8
DRAFT
100
AcDbLine
 62
7
  6
CONTINUOUS
 10
25.0753237538
 20
9.438365438
 11
21.8933432384
 21
14.9497173535
  0
LINE
  5
281
100
AcDbEntity
  8
DRAFT
100
AcDbLine
 62
7
  6
CONTINUOUS
 10
25.0753237538
 20
-27.3027970177
 11
25.0753237538
 21
-11.9939793278
  0
LINE
  5
282
100
AcDbEntity
  8
DRAFT
100
AcDbLine
 62
7
  6
CONTINUOUS
 10
25.0753237538
 20
-5.8704522519
 11
25.0753237538
 21
9.438365438
  0
LWPOLYLINE
  5
283
100
AcDbEntity
  8
0
100
AcDbPolyline
 62
7
  6
CONTINUOUS
 90
31
 70
0
 10
20.3730636589
 20
-6.2171897442
 10
20.3762847772
 20
-6.0795461212
 10
20.3857159066
 20
-5.9466237719
 10
20.4013570469
 20
-5.8184226962
 10
20.4232849714
 20
-5.69461798
 10
20.451422907
 20
-5.5755345374
 10
20.4855405338
 20
-5.4621471117
 10
20.525686932
 20
-5.3545024542
 10
20.5718130215
 20
-5.2525538136
 10
20.6235412429
 20
-5.1571356778
 10
20.6809175771
 20
-5.068301648
 10
20.7438960432
 20
-4.985998123
 10
20.8119611386
 20
-4.9108987885
 10
20.8851546131
 20
-4.8430627748
 10
20.9634347169
 20
-4.7824309516
 10
21.0461606977
 20
-4.7294996132
 10
21.1333690463
 20
-4.6843319635
 10
21.2250232719
 20
-4.6468647986
 10
21.3203731499
 20
-4.6174048015
 10
21.4194490136
 20
-4.5960176932
 10
21.5222205297
 20
-4.5826377527
 10
21.6278464746
 20
-4.5773744998
 10
21.7363502767
 20
-4.5802945545
 10
21.8477085076
 20
-4.5913312968
 10
21.961009658
 20
-4.6103943869
 10
22.0762696749
 20
-4.6375497032
 10
22.1934726113
 20
-4.6727313672
 10
22.3116591168
 20
-4.7156514037
 10
22.4308372644
 20
-4.7663733275
 10
22.5509989811
 20
-4.8248336238
 10
22.670938603
 20
-4.8904255509
  0
LWPOLYLINE
  5
284
100
AcDbEntity
  8
0
100
AcDbPolyline
 62
7
  6
CONTINUOUS
 90
61
 70
0
 10
24.9692577366
 20
-8.8709746009
 10
24.9660366182
 20
-9.0086182239
 10
24.9566054889
 20
-9.1415405733
 10
24.9409643486
 20
-9.2697416489
 10
24.919036424
 20
-9.3935463651
 10
24.8908984885
 20
-9.5126298077
 10
24.8567808616
 20
-9.6260172335
 10
24.8166344634
 20
-9.7336618909
 10
24.7705083739
 20
-9.8356105316
 10
24.7187801526
 20
-9.9310286673
 10
24.6614038183
 20
-10.0198626972
 10
24.5984253522
 20
-10.1021662221
 10
24.5303602569
 20
-10.1772655566
 10
24.4571667823
 20
-10.2451015703
 10
24.3788866785
 20
-10.3057333935
 10
24.2961606977
 20
-10.3586647319
 10
24.2089523492
 20
-10.4038323817
 10
24.1172981236
 20
-10.4412995465
 10
24.0219482455
 20
-10.4707595436
 10
23.9228723819
 20
-10.4921466519
 10
23.8201008657
 20
-10.5055265925
 10
23.7144749208
 20
-10.5107898453
 10
23.6059711187
 20
-10.5078697906
 10
23.4946128878
 20
-10.4968330483
 10
23.3813117375
 20
-10.4777699582
 10
23.2660517205
 20
-10.4506146419
 10
23.1488487841
 20
-10.415432978
 10
23.0306622786
 20
-10.3725129414
 10
22.9114841311
 20
-10.3217910176
 10
22.7913224144
 20
-10.2633307213
 10
22.6711606977
 20
-10.1976105721
 10
22.5509989811
 20
-10.1245709829
 10
22.4308372644
 20
-10.0442715407
 10
22.3116591168
 20
-9.9573695271
 10
22.1934726113
 20
-9.8638107494
 10
22.0762696749
 20
-9.7636494003
 10
21.961009658
 20
-9.6577053381
 10
21.8477085076
 20
-9.5459310997
 10
21.7363502767
 20
-9.4283741483
 10
21.6278464746
 20
-9.3059967321
 10
21.5222205297
 20
-9.1787592856
 10
21.4194490136
 20
-9.0467013743
 10
21.3203731499
 20
-8.9109039421
 10
21.2250232719
 20
-8.7713362959
 10
21.1333690463
 20
-8.6280291287
 10
21.0461606977
 20
-8.482155464
 10
20.9634347169
 20
-8.3336942366
 10
20.8851546131
 20
-8.1826665116
 10
20.8119611386
 20
-8.0303085082
 10
20.7438960432
 20
-7.8766093077
 10
20.6809175771
 20
-7.7215798287
 10
20.6235412429
 20
-7.5664890462
 10
20.5718130215
 20
-7.4113364571
 10
20.525686932
 20
-7.2561225644
 10
20.4855405338
 20
-7.1021178527
 10
20.451422907
 20
-6.9493322466
 10
20.4232849714
 20
-6.7977558214
 10
20.4013570469
 20
-6.6486292875
 10
20.3857159066
 20
-6.5023662151
 10
20.3762847772
 20
-6.358553034
 10
20.3730636589
 20
-6.2171897442
  0
LWPOLYLINE
  5
285
100
AcDbEntity
  8
DRAFT
100
AcDbPolyline
 62
7
  6
CONTINUOUS
 90
16
 70
0
 10
21.6993441809
 20
-6.2171897442
 10
21.7018268359
 20
-6.1146271661
 10
21.7092672611
 20
-6.0152429749
 10
21.7216428603
 20
-5.9193389972
 10
21.7389160491
 20
-5.8272064902
 10
21.7610343695
 20
-5.7391252572
 10
21.7879306488
 20
-5.6553627982
 10
21.8195232039
 20
-5.5761734969
 10
21.8557160892
 20
-5.5017978486
 10
21.8963993883
 20
-5.4324617298
 10
21.9414495471
 20
-5.3683757119
 10
21.9907297498
 20
-5.3097344221
 10
22.0440903342
 20
-5.2567159521
 10
22.1013692459
 20
-5.2094813171
 10
22.1623925306
 20
-5.1681739673
 10
22.1925118892
 20
-5.1507351076
  0
LWPOLYLINE
  5
286
100
AcDbEntity
  8
RACCORDO
100
AcDbPolyline
 62
250
  6
CONTINUOUS
 90
25
 70
0
 10
36.7432132305
 20
17.5211795953
 10
36.6972376147
 20
17.4924417448
 10
36.6514828236
 20
17.4603832849
 10
36.6061426162
 20
17.4251399744
 10
36.5614089956
 20
17.3868610588
 10
36.5174713963
 20
17.3457086388
 10
36.4745158818
 20
17.3018569835
 10
36.432724357
 20
17.2554917925
 10
36.3922737972
 20
17.2068094095
 10
36.3533354995
 20
17.1560159909
 10
36.3160743567
 20
17.1033266329
 10
36.2806481595
 20
17.0489644601
 10
36.2472069279
 20
16.9931596815
 10
36.2158922764
 20
16.9361486147
 10
36.1868368137
 20
16.8781726858
 10
36.1601635818
 20
16.8194774068
 10
36.1359855344
 20
16.760311336
 10
36.1144050588
 20
16.7009250253
 10
36.0955135423
 20
16.6415699592
 10
36.0793909853
 20
16.58249749
 10
36.0661056624
 20
16.5239577733
 10
36.0557138331
 20
16.4661987085
 10
36.0482595041
 20
16.4094648893
 10
36.0437742424
 20
16.3539965677
 10
36.0422770417
 20
16.3000286366
  0
LINE
  5
287
100
AcDbEntity
  8
RACCORDO
100
AcDbLine
 62
250
  6
CONTINUOUS
 10
36.7432132305
 20
17.5211795953
 11
64.5672644075
 21
33.5864111649
  0
LINE
  5
288
100
AcDbEntity
  8
RACCORDO
100
AcDbLine
 62
250
  6
CONTINUOUS
 10
37.4502930872
 20
16.2964813598
 11
65.2743442642
 21
32.3617129293
  0
LINE
  5
289
100
AcDbEntity
  8
DRAFT
100
AcDbLine
 62
7
  6
CONTINUOUS
 10
25.8981297342
 20
10.5545651656
 11
31.2896896553
 21
13.5783964687
  0
LWPOLYLINE
  5
28A
100
AcDbEntity
  8
RACCORDO
100
AcDbPolyline
 62
250
  6
CONTINUOUS
 90
14
 70
0
 10
-49.0424356866
 20
67.0527381334
 10
-49.0890689986
 20
67.0774609412
 10
-49.135476218
 20
67.0985973683
 10
-49.1814586414
 20
67.1160569142
 10
-49.2268193839
 20
67.1297648216
 10
-49.2713642229
 20
67.1396623969
 10
-49.3149024288
 20
67.1457072612
 10
-49.3572475826
 20
67.147873532
 10
-49.3982183732
 20
67.1461519339
 10
-49.4376393746
 20
67.1405498382
 10
-49.4753417963
 20
67.1310912319
 10
-49.5111642064
 20
67.117816614
 10
-49.5449532227
 20
67.1007828231
 10
-49.549320524
 20
67.0982172456
  0
LINE
  5
28B
100
AcDbEntity
  8
RACCORDO
100
AcDbLine
 62
250
  6
CONTINUOUS
 10
36.0422770417
 20
16.3000286366
 11
-49.7433718754
 21
65.8315871747
  0
LINE
  5
28C
100
AcDbEntity
  8
RACCORDO
100
AcDbLine
 62
250
  6
CONTINUOUS
 10
36.7432132305
 20
17.5211795953
 11
-49.0424356866
 21
67.0527381334
  0
LWPOLYLINE
  5
28D
100
AcDbEntity
  8
DRAFT
100
AcDbPolyline
 62
7
  6
CONTINUOUS
 90
46
 70
0
 10
25.8981297342
 20
10.5545651656
 10
25.9527357991
 20
10.3465438968
 10
26.0140519923
 20
10.1384738535
 10
26.0820783138
 20
9.9303550357
 10
26.1569893798
 20
9.7217410412
 10
26.2386105742
 20
9.5130782722
 10
26.3264180486
 20
9.3057059352
 10
26.420451592
 20
9.0996323301
 10
26.5206714155
 20
8.8948491571
 10
26.6264343039
 20
8.6926707233
 10
26.7377759091
 20
8.4931137819
 10
26.8546605793
 20
8.2961615797
 10
26.9763381436
 20
8.1030781644
 10
27.1028394289
 20
7.9138884192
 10
27.2341336085
 20
7.7285674609
 10
27.3693780305
 20
7.5483046873
 10
27.5085981021
 20
7.3731326316
 10
27.6517684162
 20
7.2030187606
 10
27.7979700996
 20
7.0390548724
 10
27.9472226495
 20
6.8812805225
 10
28.0995065687
 20
6.7296561554
 10
28.2538444924
 20
6.5851549027
 10
28.4102496317
 20
6.4478225789
 10
28.5687087755
 20
6.3176133696
 10
28.7282049264
 20
6.195362963
 10
28.8887447542
 20
6.0811225486
 10
29.0503215889
 20
5.9748409369
 10
29.2118984237
 20
5.8772002479
 10
29.3734752585
 20
5.7882560582
 10
29.5350520932
 20
5.7079527911
 10
29.695591921
 20
5.6368058366
 10
29.8550880719
 20
5.574874086
 10
30.0135472157
 20
5.5220986479
 10
30.169952355
 20
5.4788182373
 10
30.3242902787
 20
5.4450939243
 10
30.4765741979
 20
5.4208646387
 10
30.6258267478
 20
5.4062858852
 10
30.7720284312
 20
5.401419734
 10
30.9151987453
 20
5.406204115
 10
31.0544188169
 20
5.4206083216
 10
31.1896632389
 20
5.4446942267
 10
31.3209574185
 20
5.4783999575
 10
31.4474587038
 20
5.5215091892
 10
31.5691362681
 20
5.5740824032
 10
31.6860209383
 20
5.6360591181
 10
31.7104658713
 20
5.6505818938
  0
LINE
  5
28E
100
AcDbEntity
  8
DRAFT
100
AcDbLine
 62
7
  6
CONTINUOUS
 10
25.8981297342
 20
14.7202424796
 11
25.8981297342
 21
10.5545651656
  0
LWPOLYLINE
  5
28F
100
AcDbEntity
  8
DRAFT
100
AcDbPolyline
 62
7
  6
CONTINUOUS
 90
12
 70
0
 10
24.9405924686
 20
-8.4370059914
 10
24.9296858683
 20
-8.4951801037
 10
24.9075675479
 20
-8.5832613367
 10
24.8806712687
 20
-8.6670237957
 10
24.8490787136
 20
-8.746213097
 10
24.8128858282
 20
-8.8205887453
 10
24.7722025292
 20
-8.8899248641
 10
24.7271523704
 20
-8.954010882
 10
24.6778721676
 20
-9.0126521718
 10
24.6245115832
 20
-9.0656706419
 10
24.5672326716
 20
-9.1129052768
 10
24.504625547
 20
-9.1551754354
  0
LWPOLYLINE
  5
290
100
AcDbEntity
  8
DRAFT
100
AcDbPolyline
 62
7
  6
CONTINUOUS
 90
11
 70
0
 10
31.7104658713
 20
5.6505818938
 10
31.7973625435
 20
5.7070415647
 10
31.9031254319
 20
5.787087666
 10
32.0033452554
 20
5.876139499
 10
32.0973787988
 20
5.9736255252
 10
32.1851862732
 20
6.0795999916
 10
32.2668074676
 20
6.1940086513
 10
32.3417185336
 20
6.3161172245
 10
32.4097448551
 20
6.4456809513
 10
32.4710610483
 20
6.5829445917
 10
32.5256671132
 20
6.7279081456
  0
LINE
  5
291
100
AcDbEntity
  8
DRAFT
100
AcDbLine
 62
7
  6
CONTINUOUS
 10
15.5647375468
 20
-2.0497666446
 11
9.7664619411
 21
-5.3391914389
  0
LINE
  5
292
100
AcDbEntity
  8
DRAFT
100
AcDbLine
 62
7
  6
CONTINUOUS
 10
9.7664619411
 20
-6.074014688
 11
15.5647375468
 21
-2.7845898937
  0
LWPOLYLINE
  5
293
100
AcDbEntity
  8
DRAFT
100
AcDbPolyline
 62
7
  6
CONTINUOUS
 90
45
 70
0
 10
32.5256671132
 20
10.8935854595
 10
32.4710610483
 20
11.1016067283
 10
32.4097448551
 20
11.3096767716
 10
32.3417185336
 20
11.5177955895
 10
32.2668074676
 20
11.726409584
 10
32.1851862732
 20
11.935072353
 10
32.0973787988
 20
12.1424446899
 10
32.0033452554
 20
12.348518295
 10
31.9031254319
 20
12.553301468
 10
31.7973625435
 20
12.7554799018
 10
31.6860209383
 20
12.9550368432
 10
31.5691362681
 20
13.1519890454
 10
31.4474587038
 20
13.3450724607
 10
31.3209574185
 20
13.5342622059
 10
31.1896632389
 20
13.7195831642
 10
31.0544188169
 20
13.8998459378
 10
30.9151987453
 20
14.0750179935
 10
30.7720284312
 20
14.2451318645
 10
30.6258267478
 20
14.4090957527
 10
30.4765741979
 20
14.5668701026
 10
30.3242902787
 20
14.7184944698
 10
30.169952355
 20
14.8629957225
 10
30.0135472157
 20
15.0003280462
 10
29.8550880719
 20
15.1305372555
 10
29.695591921
 20
15.2527876621
 10
29.5350520932
 20
15.3670280765
 10
29.3734752585
 20
15.4733096882
 10
29.2118984237
 20
15.5709503773
 10
29.0503215889
 20
15.6598945669
 10
28.8887447542
 20
15.740197834
 10
28.7282049264
 20
15.8113447886
 10
28.5687087755
 20
15.8732765391
 10
28.4102496317
 20
15.9260519772
 10
28.2538444924
 20
15.9693323878
 10
28.0995065687
 20
16.0030567009
 10
27.9472226495
 20
16.0272859864
 10
27.7979700996
 20
16.0418647399
 10
27.6517684162
 20
16.0467308911
 10
27.5085981021
 20
16.0419465102
 10
27.3693780305
 20
16.0275423036
 10
27.2341336085
 20
16.0034563984
 10
27.1028394289
 20
15.9697506676
 10
26.9763381436
 20
15.9266414359
 10
26.8546605793
 20
15.8740682219
 10
26.7742604262
 20
15.8327300234
  0
LWPOLYLINE
  5
294
100
AcDbEntity
  8
RACCORDO
100
AcDbPolyline
 62
250
  6
CONTINUOUS
 90
25
 70
0
 10
37.4502930872
 20
16.2964813598
 10
37.4483823262
 20
16.350577991
 10
37.4434730114
 20
16.4062098204
 10
37.4355860957
 20
16.4631382502
 10
37.4247551667
 20
16.5211197734
 10
37.4110266586
 20
16.5799050346
 10
37.3944599816
 20
16.6392398202
 10
37.3751270447
 20
16.6988676788
 10
37.3531104827
 20
16.7585346822
 10
37.3285033539
 20
16.8179884658
 10
37.3014088516
 20
16.8769782564
 10
37.2719446642
 20
16.9352465121
 10
37.240242202
 20
16.9925340401
 10
37.2064423467
 20
17.0485889852
 10
37.1706871794
 20
17.1031782682
 10
37.1331232814
 20
17.1560784437
 10
37.0939027608
 20
17.2070730494
 10
37.0532014138
 20
17.2559313559
 10
37.0112128105
 20
17.3024228276
 10
36.9681072258
 20
17.3463618172
 10
36.9240811443
 20
17.3875508532
 10
36.8793789807
 20
17.4257719856
 10
36.8342131829
 20
17.4608627104
 10
36.7887599607
 20
17.4927050002
 10
36.7432132305
 20
17.5211795953
  0
LWPOLYLINE
  5
295
100
AcDbEntity
  8
RACCORDO
100
AcDbPolyline
 62
250
  6
CONTINUOUS
 90
13
 70
0
 10
36.0422770417
 20
-46.8288229769
 10
36.0437546345
 20
-46.8807247883
 10
36.0481905971
 20
-46.9307810684
 10
36.0555803386
 20
-46.9787722922
 10
36.0659114244
 20
-47.0245038387
 10
36.0791516098
 20
-47.0677512228
 10
36.0952373192
 20
-47.1082717014
 10
36.1140983567
 20
-47.1458811702
 10
36.1356615349
 20
-47.1804274807
 10
36.1598271207
 20
-47.2117474766
 10
36.1864862575
 20
-47.2397034774
 10
36.2155301768
 20
-47.2641845071
 10
36.2493596628
 20
-47.2865598381
  0
LINE
  5
296
100
AcDbEntity
  8
DRAFT
100
AcDbLine
 62
7
  6
CONTINUOUS
 10
32.5256671132
 20
6.7279081456
 11
32.5256671132
 21
10.8935854595
  0
LINE
  5
297
100
AcDbEntity
  8
RACCORDO
100
AcDbLine
 62
250
  6
CONTINUOUS
 10
36.0422770417
 20
-46.8288229769
 11
36.0422770417
 21
16.3000286366
  0
LINE
  5
298
100
AcDbEntity
  8
RACCORDO
100
AcDbLine
 62
250
  6
CONTINUOUS
 10
37.4502930872
 20
-46.8323702538
 11
37.4502930872
 21
16.2964813598
  0
LWPOLYLINE
  5
299
100
AcDbEntity
  8
DRAFT
100
AcDbPolyline
 62
7
  6
CONTINUOUS
 90
49
 70
0
 10
20.8076845518
 20
-4.2899378561
 10
20.7730263025
 20
-4.3102161566
 10
20.6829487955
 20
-4.3703017859
 10
20.5980169115
 20
-4.4380965913
 10
20.5182689653
 20
-4.5136579764
 10
20.443666642
 20
-4.5969285375
 10
20.3747640639
 20
-4.6872897678
 10
20.3116036718
 20
-4.784794465
 10
20.2541430249
 20
-4.8893898314
 10
20.2028089224
 20
-5.0002989659
 10
20.1576469832
 20
-5.1175688815
 10
20.1186115886
 20
-5.2411525654
 10
20.0859926807
 20
-5.3701320773
 10
20.0598380376
 20
-5.5045475952
 10
20.0400998814
 20
-5.6443589413
 10
20.0269248207
 20
-5.7885276415
 10
20.0203617251
 20
-5.9370861412
 10
20.0203617251
 20
-6.090001995
 10
20.0269248207
 20
-6.2461393929
 10
20.0400998814
 20
-6.405522323
 10
20.0598380376
 20
-6.5681267971
 10
20.0859926807
 20
-6.7327450413
 10
20.1186115886
 20
-6.8993920504
 10
20.1576469832
 20
-7.0680528296
 10
20.2028089224
 20
-7.2374746205
 10
20.2541430249
 20
-7.4076630898
 10
20.3116036718
 20
-7.5786125709
 10
20.3747640639
 20
-7.7490533058
 10
20.443666642
 20
-7.9189815061
 10
20.5182689653
 20
-8.0884009603
 10
20.5980169115
 20
-8.2560532746
 10
20.6829487955
 20
-8.4219252909
 10
20.7730263025
 20
-8.5860301673
 10
20.8675803655
 20
-8.7471489855
 10
20.9666443175
 20
-8.9052595109
 10
21.0701848255
 20
-9.060383978
 10
21.1774328238
 20
-9.2113701718
 10
21.2884159188
 20
-9.3581872785
 10
21.403106504
 20
-9.5008661119
 10
21.5206526946
 20
-9.6383468994
 10
21.6410757535
 20
-9.7705909357
 10
21.7643544178
 20
-9.8976369261
 10
21.8895730129
 20
-10.0185412136
 10
22.0167459838
 20
-10.1332580663
 10
22.1458588854
 20
-10.2418332162
 10
22.2759527086
 20
-10.3434602017
 10
22.4067077835
 20
-10.4378702024
 10
22.5384437799
 20
-10.5253320386
 10
22.6711606977
 20
-10.6058457105
  0
LINE
  5
29A
100
AcDbEntity
  8
DRAFT
100
AcDbLine
 62
7
  6
CONTINUOUS
 10
17.7214132294
 20
-4.0298274033
 11
14.0091026282
 21
-6.1358615705
  0
LINE
  5
29B
100
AcDbEntity
  8
DRAFT
100
AcDbLine
 62
7
  6
CONTINUOUS
 10
14.0091026282
 20
-6.2991556258
 11
17.7214132294
 21
-4.1931214587
  0
LINE
  5
29C
100
AcDbEntity
  8
DRAFT
100
AcDbLine
 62
250
  6
CONTINUOUS
 10
22.6711606977
 20
-4.4823186346
 11
25.0753237538
 21
-3.118410793
  0
LINE
  5
29D
100
AcDbEntity
  8
DRAFT
100
AcDbLine
 62
7
  6
CONTINUOUS
 10
25.0753237538
 20
-1.8862812326
 11
20.8076749782
 21
-4.2899211433
  0
LWPOLYLINE
  5
29E
100
AcDbEntity
  8
DRAFT
100
AcDbPolyline
 62
7
  6
CONTINUOUS
 90
13
 70
0
 10
22.1925118892
 20
-5.1507351076
 10
22.2269748627
 20
-5.1329193517
 10
22.2949201078
 20
-5.1038245374
 10
22.3660219183
 20
-5.0809778844
 10
22.4400643605
 20
-5.0644487772
 10
22.5168225698
 20
-5.0542874143
 10
22.5960634341
 20
-5.0505246552
 10
22.6775463016
 20
-5.0531719275
 10
22.7610237113
 20
-5.0622211913
 10
22.8462421452
 20
-5.0776449645
 10
22.9329427977
 20
-5.0993964055
 10
23.0208623617
 20
-5.1274094558
 10
23.0316078073
 20
-5.1315433172
  0
LINE
  5
29F
100
AcDbEntity
  8
DRAFT
100
AcDbLine
 62
7
  6
CONTINUOUS
 10
21.9886603253
 20
-10.1079232933
 11
21.4337238306
 21
-10.4227448004
  0
LINE
  5
2A0
100
AcDbEntity
  8
DRAFT
100
AcDbLine
 62
7
  6
CONTINUOUS
 10
23.4126726713
 20
-11.0339854308
 11
21.5044345088
 21
-12.1165496882
  0
LINE
  5
2A1
100
AcDbEntity
  8
DRAFT
100
AcDbLine
 62
7
  6
CONTINUOUS
 10
10.6500181725
 20
-21.0433273223
 11
11.974012987
 21
-20.2976223815
  0
LINE
  5
2A2
100
AcDbEntity
  8
RACCORDO
100
AcDbLine
 62
250
  6
CONTINUOUS
 10
11.974012987
 20
-20.2976223815
 11
11.981280885
 21
-20.2936054971
  0
LWPOLYLINE
  5
2A3
100
AcDbEntity
  8
DRAFT
100
AcDbPolyline
 62
7
  6
CONTINUOUS
 90
44
 70
0
 10
24.504625547
 20
-9.1551754354
 10
24.4416270548
 20
-9.1894672422
 10
24.3736818097
 20
-9.2185620565
 10
24.3025799992
 20
-9.2414087095
 10
24.228537557
 20
-9.2579378167
 10
24.1517793477
 20
-9.2680991796
 10
24.0725384833
 20
-9.2718619387
 10
23.9910556159
 20
-9.2692146664
 10
23.9075782062
 20
-9.2601654026
 10
23.8223597723
 20
-9.2447416294
 10
23.7356591198
 20
-9.2229901884
 10
23.6477395558
 20
-9.1949771381
 10
23.558868089
 20
-9.160787553
 10
23.4693146193
 20
-9.1205252659
 10
23.3793511175
 20
-9.0743125521
 10
23.2892507999
 20
-9.0222897579
 10
23.1992872981
 20
-8.9646148749
 10
23.1097338284
 20
-8.9014630599
 10
23.0208623617
 20
-8.8330261028
 10
22.9329427977
 20
-8.7595118444
 10
22.8462421452
 20
-8.6811435452
 10
22.7610237113
 20
-8.5981592069
 10
22.6775463016
 20
-8.5108108505
 10
22.5960634341
 20
-8.4193637499
 10
22.5168225698
 20
-8.3240956269
 10
22.4400643605
 20
-8.2252958078
 10
22.3660219183
 20
-8.1232643444
 10
22.2949201078
 20
-8.0183111028
 10
22.2269748627
 20
-7.9107548226
 10
22.1623925306
 20
-7.8009221487
 10
22.1013692459
 20
-7.6891466393
 10
22.0440903342
 20
-7.5757677529
 10
21.9907297498
 20
-7.4611298176
 10
21.9414495471
 20
-7.3455809849
 10
21.8963993883
 20
-7.2294721728
 10
21.8557160892
 20
-7.1131560001
 10
21.8195232039
 20
-6.996985715
 10
21.7879306488
 20
-6.881314123
 10
21.7610343695
 20
-6.7664925148
 10
21.7389160491
 20
-6.6528695999
 10
21.7216428603
 20
-6.5407904474
 10
21.7092672611
 20
-6.4305954379
 10
21.7018268359
 20
-6.3226192301
 10
21.6993441809
 20
-6.2171897442
  0
LWPOLYLINE
  5
2A4
100
AcDbEntity
  8
0
100
AcDbPolyline
 62
7
  6
CONTINUOUS
 90
17
 70
0
 10
4.6367310447
 20
-17.5713306989
 10
4.671563626
 20
-17.5599074353
 10
4.7501789958
 20
-17.5372536809
 10
4.8280256147
 20
-17.5179699781
 10
4.9051010151
 20
-17.5020671454
 10
4.9814076646
 20
-17.4895343644
 10
5.0567008668
 20
-17.4804118246
 10
5.1309773685
 20
-17.4747104734
 10
5.204240423
 20
-17.4724193633
 10
5.2762550939
 20
-17.4735458414
 10
5.3470173737
 20
-17.4781008787
 10
5.4165312699
 20
-17.4860735043
 10
5.4845738688
 20
-17.4974381517
 10
5.5511404472
 20
-17.5122057102
 10
5.6162357283
 20
-17.5303652905
 10
5.6796509677
 20
-17.5518586596
 10
5.7413807722
 20
-17.5766965194
  0
LWPOLYLINE
  5
2A5
100
AcDbEntity
  8
RACCORDO
100
AcDbPolyline
 62
7
  6
CONTINUOUS
 90
34
 70
0
 10
11.974012987
 20
-20.2976223815
 10
12.0530724346
 20
-20.2563920401
 10
12.1354338193
 20
-20.2200106972
 10
12.2207536709
 20
-20.1888040262
 10
12.3081759913
 20
-20.163186945
 10
12.397741317
 20
-20.1432288488
 10
12.4904619047
 20
-20.1289634738
 10
12.5865307806
 20
-20.1208141406
 10
12.68475841
 20
-20.1193098339
 10
12.7841012096
 20
-20.1247507218
 10
12.8840201472
 20
-20.1373211355
 10
12.9838163632
 20
-20.1571154505
 10
13.0823619821
 20
-20.1839955033
 10
13.1793114551
 20
-20.2178885945
 10
13.2740000465
 20
-20.2585639938
 10
13.3652375418
 20
-20.3053786864
 10
13.453020822
 20
-20.3581282929
 10
13.537065654
 20
-20.4164716494
 10
13.6163398431
 20
-20.4793979226
 10
13.6910135997
 20
-20.5466669988
 10
13.7614009286
 20
-20.6183102472
 10
13.8271120133
 20
-20.6937232731
 10
13.8890172714
 20
-20.7738901707
 10
13.9466780535
 20
-20.8584778909
 10
13.9982883624
 20
-20.9446366332
 10
14.0441516735
 20
-21.0322703773
 10
14.0848189472
 20
-21.1221426281
 10
14.119504568
 20
-21.2121087673
 10
14.1483489932
 20
-21.3016253961
 10
14.1718608098
 20
-21.3915700111
 10
14.1900252393
 20
-21.4814277629
 10
14.2029196451
 20
-21.5709509548
 10
14.2106521508
 20
-21.6603522692
 10
14.2132337371
 20
-21.7495975728
  0
LWPOLYLINE
  5
2A6
100
AcDbEntity
  8
RACCORDO
100
AcDbPolyline
 62
250
  6
CONTINUOUS
 90
39
 70
0
 10
11.981280885
 20
-20.2936054971
 10
12.0311718194
 20
-20.2698959651
 10
12.0837680155
 20
-20.2513943763
 10
12.1388699576
 20
-20.2381709135
 10
12.1962686253
 20
-20.2302757377
 10
12.2557462858
 20
-20.2277387981
 10
12.3170773199
 20
-20.2305697182
 10
12.380029078
 20
-20.2387577591
 10
12.4443627626
 20
-20.252271861
 10
12.5098343341
 20
-20.2710607602
 10
12.5761954363
 20
-20.295053184
 10
12.6431943388
 20
-20.3241581209
 10
12.710576892
 20
-20.3582651659
 10
12.7780874906
 20
-20.3972449394
 10
12.8454700438
 20
-20.4409495776
 10
12.9124689463
 20
-20.4892132939
 10
12.9788300485
 20
-20.5418530074
 10
13.04430162
 20
-20.5986690377
 10
13.1086353047
 20
-20.6594458622
 10
13.1715870629
 20
-20.7239529335
 10
13.2329180971
 20
-20.7919455542
 10
13.2923957576
 20
-20.8631658052
 10
13.3497944253
 20
-20.9373435235
 10
13.4048963675
 20
-21.0141973278
 10
13.4574925636
 20
-21.0934356855
 10
13.5073834982
 20
-21.174758018
 10
13.5543799175
 20
-21.2578558414
 10
13.5983035475
 20
-21.3424139362
 10
13.6389877715
 20
-21.4281115454
 10
13.676278261
 20
-21.5146235902
 10
13.7100335606
 20
-21.6016219017
 10
13.7401256243
 20
-21.6887764647
 10
13.7664403021
 20
-21.7757566703
 10
13.7888777733
 20
-21.8622325724
 10
13.8073529251
 20
-21.9478761388
 10
13.821795675
 20
-22.0323624936
 10
13.8321512367
 20
-22.115371151
 10
13.8383803284
 20
-22.196587231
 10
13.840459321
 20
-22.2757026534
  0
LINE
  5
2A7
100
AcDbEntity
  8
RACCORDO
100
AcDbLine
 62
7
  6
CONTINUOUS
 10
-21.6998167462
 20
83.3959426425
 11
64.5672644075
 21
33.5864111649
  0
LWPOLYLINE
  5
2A8
100
AcDbEntity
  8
DRAFT
100
AcDbPolyline
 62
7
  6
CONTINUOUS
 90
6
 70
0
 10
23.4205918971
 20
-28.1481341531
 10
23.3244154498
 20
-28.2044968883
 10
23.2100990612
 20
-28.2813947058
 10
23.1009748558
 20
-28.366200926
 10
22.9968549482
 20
-28.4590240105
 10
22.8977393382
 20
-28.5598639593
  0
LINE
  5
2A9
100
AcDbEntity
  8
DRAFT
100
AcDbLine
 62
7
  6
CONTINUOUS
 10
21.8933432384
 20
-29.1396775933
 11
22.8977393382
 21
-28.5598639593
  0
LINE
  5
2AA
100
AcDbEntity
  8
DRAFT
100
AcDbLine
 62
7
  6
CONTINUOUS
 10
23.9648616368
 20
-27.9438400042
 11
25.0753237538
 21
-27.3027970177
  0
LWPOLYLINE
  5
2AB
100
AcDbEntity
  8
DRAFT
100
AcDbPolyline
 62
7
  6
CONTINUOUS
 90
46
 70
0
 10
24.6529321712
 20
-29.4812380349
 10
24.6283724394
 20
-29.4950111665
 10
24.5162493173
 20
-29.5652351245
 10
24.4098734495
 20
-29.6443116543
 10
24.3092818012
 20
-29.7322976938
 10
24.2144374073
 20
-29.8291363051
 10
24.125948983
 20
-29.9342059738
 10
24.0438574088
 20
-30.0475596404
 10
23.9681218043
 20
-30.1691443645
 10
23.8992282439
 20
-30.29817981
 10
23.8372207341
 20
-30.4347138986
 10
23.7820552685
 20
-30.5786987086
 10
23.7340859011
 20
-30.7292101394
 10
23.693358916
 20
-30.886290169
 10
23.6598280293
 20
-31.0498968193
 10
23.6337084436
 20
-31.218980056
 10
23.615047827
 20
-31.3935751033
 10
23.6037985114
 20
-31.573646737
 10
23.6000326954
 20
-31.7580392495
 10
23.6037985114
 20
-31.946780432
 10
23.615047827
 20
-32.1398424933
 10
23.6337084436
 20
-32.335986353
 10
23.6598280293
 20
-32.5352318325
 10
23.693358916
 20
-32.7375591103
 10
23.7340859011
 20
-32.9416696414
 10
23.7820552685
 20
-33.1475748952
 10
23.8372207341
 20
-33.3552634022
 10
23.8992282439
 20
-33.5634022087
 10
23.9681218043
 20
-33.771994211
 10
24.0438574088
 20
-33.9810365128
 10
24.125948983
 20
-34.1891874716
 10
24.2144374073
 20
-34.3964413546
 10
24.3092818012
 20
-34.6028038946
 10
24.4098734495
 20
-34.8069506482
 10
24.5162493173
 20
-35.0088673637
 10
24.6283724394
 20
-35.2085682927
 10
24.7455232049
 20
-35.404771746
 10
24.8677339505
 20
-35.5974552287
 10
24.9949723394
 20
-35.7866412358
 10
25.1264217503
 20
-35.9711155633
 10
25.2621092676
 20
-36.1508479068
 10
25.4020078067
 20
-36.3258685708
 10
25.545219493
 20
-36.4950542652
 10
25.6914450349
 20
-36.65803056
 10
25.8409837238
 20
-36.8151718852
 10
25.9938355599
 20
-36.9664782408
  0
LINE
  5
2AC
100
AcDbEntity
  8
DRAFT
100
AcDbLine
 62
7
  6
CONTINUOUS
 10
25.0753237538
 20
-27.2392786943
 11
23.4205790511
 21
-28.1481115357
  0
LINE
  5
2AD
100
AcDbEntity
  8
RACCORDO
100
AcDbLine
 62
7
  6
CONTINUOUS
 10
65.2743442642
 20
-31.3230308379
 11
65.2743442642
 21
32.3617129293
  0
LINE
  5
2AE
100
AcDbEntity
  8
DRAFT
100
AcDbLine
 62
7
  6
CONTINUOUS
 10
25.9938355599
 20
-36.9664782408
 11
31.3082450568
 21
-33.8088276279
  0
LWPOLYLINE
  5
2AF
100
AcDbEntity
  8
DRAFT
100
AcDbPolyline
 62
7
  6
CONTINUOUS
 90
45
 70
0
 10
31.0033509144
 20
-38.8469948152
 10
31.0791204054
 20
-38.7981868779
 10
31.1854962732
 20
-38.7191103481
 10
31.2860879215
 20
-38.6311243086
 10
31.3809323154
 20
-38.5342856973
 10
31.4694207396
 20
-38.4292160286
 10
31.5515123138
 20
-38.3158623619
 10
31.6272479183
 20
-38.1942776378
 10
31.6961414788
 20
-38.0652421923
 10
31.7581489885
 20
-37.9287081038
 10
31.8133144542
 20
-37.7847232937
 10
31.8612838215
 20
-37.6342118629
 10
31.9020108066
 20
-37.4771318334
 10
31.9355416933
 20
-37.313525183
 10
31.961661279
 20
-37.1444419464
 10
31.9803218957
 20
-36.969846899
 10
31.9915712113
 20
-36.7897752654
 10
31.9953370273
 20
-36.6053827529
 10
31.9915712113
 20
-36.4166415704
 10
31.9803218957
 20
-36.2235795091
 10
31.961661279
 20
-36.0274356494
 10
31.9355416933
 20
-35.8281901699
 10
31.9020108066
 20
-35.625862892
 10
31.8612838215
 20
-35.421752361
 10
31.8133144542
 20
-35.2158471072
 10
31.7581489885
 20
-35.0081586001
 10
31.6961414788
 20
-34.8000197936
 10
31.6272479183
 20
-34.5914277913
 10
31.5515123138
 20
-34.3823854896
 10
31.4694207396
 20
-34.1742345307
 10
31.3809323154
 20
-33.9669806478
 10
31.2860879215
 20
-33.7606181077
 10
31.1854962732
 20
-33.5564713542
 10
31.0791204054
 20
-33.3545546387
 10
30.9669972833
 20
-33.1548537097
 10
30.8498465178
 20
-32.9586502563
 10
30.7276357722
 20
-32.7659667736
 10
30.6003973832
 20
-32.5767807666
 10
30.4689479724
 20
-32.392306439
 10
30.3332604551
 20
-32.2125740955
 10
30.1933619159
 20
-32.0375534315
 10
30.0501502296
 20
-31.8683677371
 10
29.9039246878
 20
-31.7053914424
 10
29.7543859989
 20
-31.5482501172
 10
29.6015341628
 20
-31.3969437616
  0
LINE
  5
2B0
100
AcDbEntity
  8
DRAFT
100
AcDbLine
 62
7
  6
CONTINUOUS
 10
29.6015341628
 20
-39.049518199
 11
31.8386794133
 21
-37.7051367471
  0
LWPOLYLINE
  5
2B1
100
AcDbEntity
  8
RACCORDO
100
AcDbPolyline
 62
250
  6
CONTINUOUS
 90
14
 70
0
 10
37.236264422
 20
-47.294016919
 10
37.2409966083
 20
-47.2913282413
 10
37.2726416159
 20
-47.2705280177
 10
37.3020395279
 20
-47.2460864217
 10
37.3290701264
 20
-47.2181038338
 10
37.353622005
 20
-47.1866923977
 10
37.3755832464
 20
-47.1519917897
 10
37.3948509889
 20
-47.1141679875
 10
37.4113495978
 20
-47.0733758722
 10
37.4250063042
 20
-47.029802839
 10
37.4357545711
 20
-46.9836963359
 10
37.4435598957
 20
-46.935285397
 10
37.4484081735
 20
-46.8847686667
 10
37.4502930872
 20
-46.8323702538
  0
LINE
  5
2B2
100
AcDbEntity
  8
RACCORDO
100
AcDbLine
 62
250
  6
CONTINUOUS
 10
37.4502930872
 20
-46.8323702538
 11
65.2743442642
 21
-31.3230308379
  0
LINE
  5
2B3
100
AcDbEntity
  8
RACCORDO
100
AcDbLine
 62
7
  6
CONTINUOUS
 10
37.2362624828
 20
-47.2940179999
 11
65.0628912417
 21
-31.7832418201
  0
LWPOLYLINE
  5
2B4
100
AcDbEntity
  8
RACCORDO
100
AcDbPolyline
 62
250
  6
CONTINUOUS
 90
25
 70
0
 10
37.4502930872
 20
-46.8323702538
 10
37.4024189906
 20
-46.8578198392
 10
37.351779471
 20
-46.881417701
 10
37.2985889727
 20
-46.903063909
 10
37.2430727428
 20
-46.9226667974
 10
37.1854658771
 20
-46.9401433535
 10
37.1260123246
 20
-46.9554195688
 10
37.0649638548
 20
-46.9684307528
 10
37.002578991
 20
-46.9791218068
 10
36.9391219158
 20
-46.987447457
 10
36.8748613524
 20
-46.9933724468
 10
36.8100694264
 20
-46.9968716853
 10
36.7450205136
 20
-46.9979303543
 10
36.6799900783
 20
-46.9965439707
 10
36.6152535063
 20
-46.9927184053
 10
36.5510849389
 20
-46.9864698584
 10
36.4877561125
 20
-46.9778247908
 10
36.4255352069
 20
-46.966819812
 10
36.3646857104
 20
-46.9535015251
 10
36.3054653039
 20
-46.9379263292
 10
36.2481247693
 20
-46.9201601812
 10
36.192906928
 20
-46.9002783155
 10
36.1400456121
 20
-46.8783649265
 10
36.0897646748
 20
-46.8545128113
 10
36.0422770417
 20
-46.8288229769
  0
ARC
  5
2B5
100
AcDbEntity
  8
RACCORDO
100
AcDbCircle
 62
7
  6
CONTINUOUS
 10
-49.0362650942
 20
66.239861768
 40
1.0
100
AcDbArc
 50
120.867565563
 51
180.0032957926
  0
ARC
  5
2B6
100
AcDbEntity
  8
RACCORDO
100
AcDbCircle
 62
7
  6
CONTINUOUS
 10
36.7493838229
 20
-46.4205483836
 40
1.0
100
AcDbArc
 50
239.9985160737
 51
299.1357577801
  0
ARC
  5
2B7
100
AcDbEntity
  8
RACCORDO
100
AcDbCircle
 62
7
  6
CONTINUOUS
 10
-49.0362650942
 20
3.1110101544
 40
1.0
100
AcDbArc
 50
179.9966562303
 51
239.9984015652
  0
ELLIPSE
  5
2B8
100
AcDbEntity
  8
RACCORDO
100
AcDbEllipse
 62
7
  6
CONTINUOUS
 10
-21.6997628962
 20
82.5794101836
 30
0.0
 11
-0.5000622341
 21
0.866077409
 31
0.0
 40
0.5772877058
 41
-0.7854084013
 42
0.0087255599
  0
ELLIPSE
  5
2B9
100
AcDbEntity
  8
RACCORDO
100
AcDbEllipse
 62
7
  6
CONTINUOUS
 10
64.5672105575
 20
-30.9146785196
 30
0.0
 11
-0.5000622341
 21
0.866077409
 31
0.0
 40
0.5772877058
 41
-3.1503182135
 42
-2.3562808805
  0
ELLIPSE
  5
2BA
100
AcDbEntity
  8
RACCORDO
100
AcDbEllipse
 62
7
  6
CONTINUOUS
 10
64.5672105575
 20
32.7699408905
 30
0.0
 11
-0.5000241657
 21
0.8660114513
 31
0.0
 40
0.5773756362
 41
-2.3562047428
 42
-0.7854845684
  0
ELLIPSE
  5
2BB
100
AcDbEntity
  8
DRAFT
100
AcDbEllipse
 62
7
  6
CONTINUOUS
 10
17.7214132294
 20
-8.4425972408
 30
0.0
 11
5.2499517289
 21
-0.0393362347
 31
0.0
 40
0.5723275643
 41
2.3604827341
 42
3.091652625
  0
ELLIPSE
  5
2BC
100
AcDbEntity
  8
DRAFT
100
AcDbEllipse
 62
7
  6
CONTINUOUS
 10
17.7214132294
 20
-8.2793031854
 30
0.0
 11
5.2499517289
 21
-0.0393362347
 31
0.0
 40
0.5723275643
 41
2.3604827341
 42
5.5020753877
  0
ELLIPSE
  5
2BD
100
AcDbEntity
  8
DRAFT
100
AcDbEllipse
 62
7
  6
CONTINUOUS
 10
-26.952489896
 20
47.0742558855
 30
0.0
 11
4.096306149
 21
7.218924907
 31
0.0
 40
0.5722717666
 41
-2.9873078558
 42
-2.3604340017
  0
ELLIPSE
  5
2BE
100
AcDbEntity
  8
DRAFT
100
AcDbEllipse
 62
7
  6
CONTINUOUS
 10
15.6354482249
 20
-9.4626938127
 30
0.0
 11
8.2999236856
 21
-0.0621887139
 31
0.0
 40
0.5723275643
 41
2.3604827341
 42
3.0676927818
  0
ELLIPSE
  5
2BF
100
AcDbEntity
  8
DRAFT
100
AcDbEllipse
 62
7
  6
CONTINUOUS
 10
-27.5888859991
 20
47.4417030195
 30
0.0
 11
4.096306149
 21
7.218924907
 31
0.0
 40
0.5722717666
 41
-2.8579634283
 42
-2.3604340017
  0
ELLIPSE
  5
2C0
100
AcDbEntity
  8
DRAFT
100
AcDbEllipse
 62
7
  6
CONTINUOUS
 10
15.6354482249
 20
-8.7278705636
 30
0.0
 11
8.2999236856
 21
-0.0621887139
 31
0.0
 40
0.5723275643
 41
2.3604827341
 42
5.5020753877
  0
ENDSEC
  0
SECTION
  2
OBJECTS
  0
DICTIONARY
  5
C
100
AcDbDictionary
280
0
281
1
  3
ACAD_GROUP
350
D
  3
ACAD_MLINESTYLE
350
17
  3
ACAD_LAYOUT
350
1A
  3
ACAD_PLOTSETTINGS
350
19
  3
ACAD_PLOTSTYLENAME
350
E
  0
DICTIONARY
  5
D
102
{ACAD_REACTORS
330
C
102
}
100
AcDbDictionary
280
0
281
1
  0
ACDBDICTIONARYWDFLT
  5
E
102
{ACAD_REACTORS
330
C
102
}
100
AcDbDictionary
281
1
  3
Normal
350
F
100
AcDbDictionaryWithDefault
340
F
  0
DICTIONARY
  5
17
102
{ACAD_REACTORS
330
C
102
}
100
AcDbDictionary
280
0
281
1
  3
Standard
350
18
  0
DICTIONARY
  5
19
102
{ACAD_REACTORS
330
C
102
}
100
AcDbDictionary
281
1
  0
DICTIONARY
  5
1A
102
{ACAD_REACTORS
330
C
102
}
100
AcDbDictionary
281
1
  3
Model
350
2C1
  3
Layout1
350
2C2
  0
ACDBPLACEHOLDER
  5
F
102
{ACAD_REACTORS
330
E
102
}
  0
MLINESTYLE
  5
18
102
{ACAD_REACTORS
330
17
102
}
100
AcDbMlineStyle
  2
STANDARD
 70
0
  3

 62
256
 51
90.0
 52
90.0
 71
2
 49
0.5
 62
256
  6
BYLAYER
 49
-0.5
 62
256
  6
BYLAYER
  0
LAYOUT
  5
2C1
102
{ACAD_REACTORS
330
1A
102
}
100
AcDbPlotSettings
  1

  2
none_device
  4
ISO_A4_(297.00_x_210.00_MM)
  6

 40
0.0
 41
0.0
 42
0.0
 43
0.0
 44
297.0
 45
210.0
 46
0.0
 47
0.0
 48
0.0
 49
0.0
140
0.0
141
0.0
142
1.0
143
1.0
 70
1024
 72
1
 73
0
 74
0
  7

 75
0
147
1.0
148
0.0
149
0.0
100
AcDbLayout
  1
Model
 70
0
 71
0
 10
0.0
 20
0.0
 11
297.0
 21
210.0
 12
0.0
 22
0.0
 32
0.0
 14
0.0
 24
0.0
 34
0.0
 15
0.0
 25
0.0
 35
0.0
146
0.0
 13
0.0
 23
0.0
 33
0.0
 16
1.0
 26
0.0
 36
0.0
 17
0.0
 27
1.0
 37
0.0
 76
0
330
212
345
0
346
0
  0
LAYOUT
  5
2C2
102
{ACAD_REACTORS
330
1A
102
}
100
AcDbPlotSettings
  1

  2
none_device
  4
ISO_A4_(297.00_x_210.00_MM)
  6

 40
0.0
 41
0.0
 42
0.0
 43
0.0
 44
297.0
 45
210.0
 46
0.0
 47
0.0
 48
0.0
 49
0.0
140
0.0
141
0.0
142
1.0
143
1.0
 70
0
 72
1
 73
0
 74
0
  7

 75
0
147
1.0
148
0.0
149
0.0
100
AcDbLayout
  1
Layout1
 70
0
 71
1
 10
0.0
 20
0.0
 11
297.0
 21
210.0
 12
0.0
 22
0.0
 32
0.0
 14
0.0
 24
0.0
 34
0.0
 15
0.0
 25
0.0
 35
0.0
146
0.0
 13
0.0
 23
0.0
 33
0.0
 16
1.0
 26
0.0
 36
0.0
 17
0.0
 27
1.0
 37
0.0
 76
0
330
213
345
0
346
0
  0
ENDSEC
  0
EOF
