  0
SECTION
  2
HEADER
  9
$ACADVER
  1
AC1024
  9
$DWGCODEPAGE
  3
ANSI_1252
  9
$EXTMAX
 10
297.0
 20
210.0
 30
0.0
  9
$EXTMIN
 10
0.0
 20
0.0
 30
0.0
  9
$LIMMIN
 10
0.0
 20
0.0
  9
$LIMMAX
 10
297.0
 20
210.0
  9
$VIEWCTR
 10
148.5
 20
105.0
  9
$VIEWSIZE
 40
210.0
  9
$CLAYER
  8
0
  9
$LTSCALE
 40
16.335
  9
$CELTYPE
  6
BYLAYER
  9
$DIMSCALE
 40
1.0
  9
$DIMASZ
 40
3.0
  9
$DIMEXO
 40
0.5
  9
$DIMDLI
 40
11.286
  9
$DIMEXE
 40
1.5
  9
$DIMCEN
 40
2.673
  9
$DIMLFAC
 40
1.0
  9
$DIMBLK
  1
_FILLED
  9
$DIMALT
 70
0
  9
$DIMALTF
 40
0.0393700787
  9
$DIMTXT
 40
3.0
  9
$DIMTOL
 70
1
  9
$DIMLIM
 70
0
  9
$DIMTFAC
 40
1.0
  9
$DIMTP
 40
0.01
  9
$DIMTM
 40
0.01
  9
$DIMGAP
 40
0.625
  9
$DIMDSEP
 70
44
  9
$AUNITS
 70
0
  9
$PDMODE
 70
3
  9
$PDSIZE
 40
3.0
  9
$HANDSEED
  5
39F
  9
$TILEMODE
 70
1
  9
$MEASUREMENT
 70
1
  9
$INSUNITS
 70
4
  0
ENDSEC
  0
SECTION
  2
CLASSES
  0
CLASS
  1
ACDBDICTIONARYWDFLT
  2
AcDbDictionaryWithDefault
  3
AutoCAD 2000
 90
0
 91
1
280
0
281
0
  0
CLASS
  1
ACDBPLACEHOLDER
  2
AcDbPlaceHolder
  3
AutoCAD 2000
 90
0
 91
1
280
0
281
0
  0
CLASS
  1
LAYOUT
  2
AcDbLayout
  3
AutoCAD 2000
 90
0
 91
0
280
0
281
0
  0
ENDSEC
  0
SECTION
  2
TABLES
  0
TABLE
  2
VPORT
  5
8
100
AcDbSymbolTable
 70
2
  0
VPORT
  5
1F4
100
AcDbSymbolTableRecord
100
AcDbViewportTableRecord
  2
*ACTIVE
 70
0
 10
0.0
 20
0.0
 11
1.0
 21
1.0
 12
148.5
 22
105.0
 13
0.0
 23
0.0
 14
1.0
 24
1.0
 15
0.0
 25
0.0
 16
0.0
 26
0.0
 36
1.0
 17
0.0
 27
0.0
 37
0.0
 40
210.0
 41
1.4142857143
 42
50.0
 43
0.0
 44
0.0
 50
0.0
 51
0.0
 71
0
 72
100
 73
1
 74
1
 75
0
 76
0
 77
0
 78
0
  0
ENDTAB
  0
TABLE
  2
LTYPE
  5
5
100
AcDbSymbolTable
 70
6
  0
LTYPE
  5
14
100
AcDbSymbolTableRecord
100
AcDbLinetypeTableRecord
  2
BYBLOCK
 70
0
  3

 72
65
 73
0
 40
0.0
  0
LTYPE
  5
15
100
AcDbSymbolTableRecord
100
AcDbLinetypeTableRecord
  2
BYLAYER
 70
0
  3

 72
65
 73
0
 40
0.0
  0
LTYPE
  5
16
100
AcDbSymbolTableRecord
100
AcDbLinetypeTableRecord
  2
CONTINUOUS
 70
64
  3
Solid line
 72
65
 73
0
 40
0.0
  0
LTYPE
  5
1F5
100
AcDbSymbolTableRecord
100
AcDbLinetypeTableRecord
  2
CENTER
 70
64
  3
____ _ ____ _ ____ _ ____ _ ____ _ ____ _ ____
 72
65
 73
4
 40
0.6
 49
0.375
 74
0
 49
-0.075
 74
0
 49
0.075
 74
0
 49
-0.075
 74
0
  0
LTYPE
  5
1F6
100
AcDbSymbolTableRecord
100
AcDbLinetypeTableRecord
  2
HIDDEN
 70
64
  3
- - - - - - - - - - - - - - - - - - - -
 72
65
 73
2
 40
0.2
 49
0.1
 74
0
 49
-0.1
 74
0
  0
LTYPE
  5
1F7
100
AcDbSymbolTableRecord
100
AcDbLinetypeTableRecord
  2
PHANTOM
 70
64
  3
_____ _ _ _____ _ _ _____ _ _ _____
 72
65
 73
6
 40
0.8
 49
0.45
 74
0
 49
-0.05
 74
0
 49
0.1
 74
0
 49
-0.05
 74
0
 49
0.1
 74
0
 49
-0.05
 74
0
  0
LTYPE
  5
1F8
100
AcDbSymbolTableRecord
100
AcDbLinetypeTableRecord
  2
DOT
 70
64
  3
. . . . . . . . . . . . . . . . . . . .
 72
65
 73
2
 40
0.2
 49
0.1
 74
0
 49
-0.1
 74
0
  0
LTYPE
  5
1F9
100
AcDbSymbolTableRecord
100
AcDbLinetypeTableRecord
  2
DASHED
 70
64
  3
- - - - - - - - - - - - - - - - - - - -
 72
65
 73
2
 40
0.2
 49
0.1
 74
0
 49
-0.1
 74
0
  0
ENDTAB
  0
TABLE
  2
LAYER
  5
2
100
AcDbSymbolTable
 70
36
  0
LAYER
  5
10
100
AcDbSymbolTableRecord
100
AcDbLayerTableRecord
  2
0
 70
0
 62
7
  6
CONTINUOUS
370
-3
390
F
  0
LAYER
  5
1FA
100
AcDbSymbolTableRecord
100
AcDbLayerTableRecord
  2
DEFAULT_1
 70
0
 62
7
  6
CENTER
370
-3
390
F
  0
LAYER
  5
1FB
100
AcDbSymbolTableRecord
100
AcDbLayerTableRecord
  2
DEFAULT_2
 70
0
 62
7
  6
HIDDEN
370
-3
390
F
  0
LAYER
  5
1FC
100
AcDbSymbolTableRecord
100
AcDbLayerTableRecord
  2
DEFAULT_3
 70
0
 62
7
  6
PHANTOM
370
-3
390
F
  0
LAYER
  5
1FD
100
AcDbSymbolTableRecord
100
AcDbLayerTableRecord
  2
ASSI
 70
0
 62
7
  6
CONTINUOUS
370
-3
390
F
  0
LAYER
  5
1FE
100
AcDbSymbolTableRecord
100
AcDbLayerTableRecord
  2
COLOR5
 70
0
 62
7
  6
CONTINUOUS
370
-3
390
F
  0
LAYER
  5
1FF
100
AcDbSymbolTableRecord
100
AcDbLayerTableRecord
  2
COORDINATE
 70
0
 62
7
  6
CONTINUOUS
370
-3
390
F
  0
LAYER
  5
200
100
AcDbSymbolTableRecord
100
AcDbLayerTableRecord
  2
COORD_ORIGINE
 70
0
 62
7
  6
CONTINUOUS
370
-3
390
F
  0
LAYER
  5
201
100
AcDbSymbolTableRecord
100
AcDbLayerTableRecord
  2
CURVE
 70
0
 62
7
  6
CONTINUOUS
370
-3
390
F
  0
LAYER
  5
202
100
AcDbSymbolTableRecord
100
AcDbLayerTableRecord
  2
DRAFT
 70
0
 62
7
  6
CONTINUOUS
370
-3
390
F
  0
LAYER
  5
203
100
AcDbSymbolTableRecord
100
AcDbLayerTableRecord
  2
IMPORT
 70
0
 62
7
  6
CONTINUOUS
370
-3
390
F
  0
LAYER
  5
204
100
AcDbSymbolTableRecord
100
AcDbLayerTableRecord
  2
NOTE
 70
0
 62
7
  6
CONTINUOUS
370
-3
390
F
  0
LAYER
  5
205
100
AcDbSymbolTableRecord
100
AcDbLayerTableRecord
  2
PIANI
 70
0
 62
7
  6
CONTINUOUS
370
-3
390
F
  0
LAYER
  5
206
100
AcDbSymbolTableRecord
100
AcDbLayerTableRecord
  2
PIANI_ORIGINE
 70
0
 62
7
  6
CONTINUOUS
370
-3
390
F
  0
LAYER
  5
207
100
AcDbSymbolTableRecord
100
AcDbLayerTableRecord
  2
PUNTI
 70
0
 62
7
  6
CONTINUOUS
370
-3
390
F
  0
LAYER
  5
208
100
AcDbSymbolTableRecord
100
AcDbLayerTableRecord
  2
RACCORDO
 70
0
 62
7
  6
CONTINUOUS
370
-3
390
F
  0
LAYER
  5
209
100
AcDbSymbolTableRecord
100
AcDbLayerTableRecord
  2
SMUSSO
 70
0
 62
7
  6
CONTINUOUS
370
-3
390
F
  0
LAYER
  5
20A
100
AcDbSymbolTableRecord
100
AcDbLayerTableRecord
  2
SNAPLINE
 70
0
 62
7
  6
CONTINUOUS
370
-3
390
F
  0
LAYER
  5
20B
100
AcDbSymbolTableRecord
100
AcDbLayerTableRecord
  2
SUPERFICI
 70
0
 62
7
  6
CONTINUOUS
370
-3
390
F
  0
LAYER
  5
20C
100
AcDbSymbolTableRecord
100
AcDbLayerTableRecord
  2
TRASH
 70
0
 62
7
  6
CONTINUOUS
370
-3
390
F
  0
ENDTAB
  0
TABLE
  2
STYLE
  5
3
100
AcDbSymbolTable
 70
1
  0
STYLE
  5
11
100
AcDbSymbolTableRecord
100
AcDbTextStyleTableRecord
  2
STANDARD
 70
0
 40
0.0
 41
0.8
 50
0.0
 71
0
 42
0.2
  3
txt
  4

  0
STYLE
  5
20D
100
AcDbSymbolTableRecord
100
AcDbTextStyleTableRecord
  2
TEXTSTYLE_1
 70
0
 40
0.0
 41
0.8
 50
0.0
 71
0
 42
0.2
  3
gdt
  4

  0
ENDTAB
  0
TABLE
  2
VIEW
  5
6
100
AcDbSymbolTable
 70
0
  0
ENDTAB
  0
TABLE
  2
UCS
  5
7
100
AcDbSymbolTable
 70
0
  0
ENDTAB
  0
TABLE
  2
APPID
  5
9
100
AcDbSymbolTable
 70
1
  0
APPID
  5
20E
100
AcDbSymbolTableRecord
100
AcDbRegAppTableRecord
  2
ACAD
 70
0
  0
ENDTAB
  0
TABLE
  2
BLOCK_RECORD
  5
1
100
AcDbSymbolTable
 70
0
  0
BLOCK_RECORD
  5
20F
100
AcDbSymbolTableRecord
100
AcDbBlockTableRecord
  2
*Model_Space
  0
BLOCK_RECORD
  5
210
100
AcDbSymbolTableRecord
100
AcDbBlockTableRecord
  2
*Paper_Space
  0
BLOCK_RECORD
  5
211
100
AcDbSymbolTableRecord
100
AcDbBlockTableRecord
  2
_FILLED
  0
ENDTAB
  0
TABLE
  2
DIMSTYLE
  5
A
100
AcDbSymbolTable
 70
1
100
AcDbDimStyleTable
 71
0
  0
DIMSTYLE
105
212
100
AcDbSymbolTableRecord
100
AcDbDimStyleTableRecord
  2
STANDARD
 70
0
  3

  4

 40
1.0
 41
3.0
 42
0.5
 43
0.38
 44
1.5
 45
0.0
 46
0.0
 47
0.01
 48
0.01
140
3.0
141
0.09
142
0.0
143
25.4
144
1.0
145
0.0
146
1.0
147
0.625
 71
1.0
 72
0.0
 73
0
 74
0
 75
0
 76
0
 77
1
 78
8
 79
2
170
0
171
1
172
0
173
0
174
0
175
0
176
0
177
0
178
0
270
2
179
2
271
2
272
2
273
2
274
2
275
0
280
0
281
0
282
0
283
1
284
8
285
0
286
0
287
3
288
0
340
11
278
44
341
211
342
211
343
211
344
211
  0
ENDTAB
  0
ENDSEC
  0
SECTION
  2
BLOCKS
  0
BLOCK
  5
20
100
AcDbEntity
  8
0
100
AcDbBlockBegin
  2
*Model_Space
 70
0
 10
0.0
 20
0.0
 30
0.0
  3
*Model_Space
  1

  0
ENDBLK
  5
21
100
AcDbEntity
  8
0
100
AcDbBlockEnd
  0
BLOCK
  5
1C
100
AcDbEntity
  8
0
100
AcDbBlockBegin
  2
*Paper_Space
 70
0
 10
0.0
 20
0.0
 30
0.0
  3
*Paper_Space
  1

  0
ENDBLK
  5
1D
100
AcDbEntity
  8
0
100
AcDbBlockEnd
  0
BLOCK
  5
213
100
AcDbEntity
  8
0
100
AcDbBlockBegin
  2
_FILLED
 70
64
 10
0.0
 20
0.0
  3
_FILLED
  1

  0
SOLID
  5
214
100
AcDbEntity
  8
0
  6
BYBLOCK
 62
0
100
AcDbTrace
 10
0.0
 20
0.0
 11
-1.0
 21
0.3166666667
 12
-1.0
 22
-0.3166666667
 13
-1.0
 23
-0.3166666667
  0
ENDBLK
  5
215
100
AcDbEntity
  8
0
  6
BYBLOCK
 62
0
100
AcDbBlockEnd
  0
ENDSEC
  0
SECTION
  2
ENTITIES
  0
LINE
  5
216
100
AcDbEntity
  8
RACCORDO
100
AcDbLine
 62
7
  6
CONTINUOUS
 10
-56.2788805653
 20
49.0741149847
 11
-25.2213879139
 21
65.211152697
  0
LINE
  5
217
100
AcDbEntity
  8
RACCORDO
100
AcDbLine
 62
250
  6
CONTINUOUS
 10
-55.9604555156
 20
49.0569929835
 11
-24.9047110428
 21
65.1931223667
  0
LINE
  5
218
100
AcDbEntity
  8
RACCORDO
100
AcDbLine
 62
250
  6
CONTINUOUS
 10
-56.2788805653
 20
49.0741149847
 11
-56.2784136456
 21
49.0743569977
  0
LWPOLYLINE
  5
219
100
AcDbEntity
  8
RACCORDO
100
AcDbPolyline
 62
250
  6
CONTINUOUS
 90
7
 70
0
 10
-56.2784136456
 20
49.0743569977
 10
-56.2616052276
 20
49.0823093005
 10
-56.2070147236
 20
49.0992126171
 10
-56.1484751406
 20
49.1048906941
 10
-56.0872092095
 20
49.0994961543
 10
-56.0241758502
 20
49.0833683412
 10
-55.9604555156
 20
49.0569929835
  0
LWPOLYLINE
  5
21A
100
AcDbEntity
  8
RACCORDO
100
AcDbPolyline
 62
250
  6
CONTINUOUS
 90
8
 70
0
 10
-56.4511108477
 20
-22.658570304
 10
-56.4469231241
 20
-22.7351666377
 10
-56.4344308133
 20
-22.8062791642
 10
-56.4138452974
 20
-22.8707045915
 10
-56.3855149029
 20
-22.9273527796
 10
-56.3499190073
 20
-22.9752651867
 10
-56.3076599274
 20
-23.0136310891
 10
-56.2691856178
 20
-23.0371819643
  0
LINE
  5
21B
100
AcDbEntity
  8
RACCORDO
100
AcDbLine
 62
250
  6
CONTINUOUS
 10
-56.6561360849
 20
-22.4111577827
 11
-56.6561361009
 21
-22.4110829306
  0
LINE
  5
21C
100
AcDbEntity
  8
RACCORDO
100
AcDbLine
 62
7
  6
CONTINUOUS
 10
-56.6561361009
 20
48.4529579911
 11
-56.6561361009
 21
-22.4110829306
  0
LINE
  5
21D
100
AcDbEntity
  8
RACCORDO
100
AcDbLine
 62
250
  6
CONTINUOUS
 10
-56.4511108477
 20
48.2054706177
 11
-56.4511108477
 21
-22.658570304
  0
LWPOLYLINE
  5
21E
100
AcDbEntity
  8
RACCORDO
100
AcDbPolyline
 62
250
  6
CONTINUOUS
 90
13
 70
0
 10
-56.4511108477
 20
48.2054706177
 10
-56.4469231241
 20
48.286254675
 10
-56.4344308133
 20
48.3698595123
 10
-56.4138452974
 20
48.4548704556
 10
-56.3855149029
 20
48.5398490381
 10
-56.3499190073
 20
48.6233573408
 10
-56.3076599274
 20
48.703982323
 10
-56.2594527272
 20
48.7803597329
 10
-56.2061131189
 20
48.8511971913
 10
-56.1485436597
 20
48.9152960606
 10
-56.0877184801
 20
48.9715717264
 10
-56.0246668004
 20
49.0190719505
 10
-55.9604555156
 20
49.0569929835
  0
LWPOLYLINE
  5
21F
100
AcDbEntity
  8
DRAFT
100
AcDbPolyline
 62
7
  6
CONTINUOUS
 90
32
 70
0
 10
-51.7738082332
 20
37.7352589015
 10
-51.9040917744
 20
37.6665543164
 10
-52.0888223704
 20
37.5410419237
 10
-52.2603269702
 20
37.3896211048
 10
-52.414551188
 20
37.2159520546
 10
-52.550700818
 20
37.0202554991
 10
-52.6695700661
 20
36.8023107123
 10
-52.7694871635
 20
36.5651157105
 10
-52.850405864
 20
36.3073605285
 10
-52.9123724139
 20
36.0303551314
 10
-52.9538537838
 20
35.7410274318
 10
-52.9743389638
 20
35.4403002587
 10
-52.9743389638
 20
35.127250783
 10
-52.9538537838
 20
34.8060384299
 10
-52.9123724139
 20
34.4752293603
 10
-52.850405864
 20
34.1362574134
 10
-52.7694871635
 20
33.7975835308
 10
-52.6695700661
 20
33.4604714316
 10
-52.550700818
 20
33.1236573967
 10
-52.414551188
 20
32.7918112112
 10
-52.2603269702
 20
32.4639179432
 10
-52.0888223704
 20
32.1409925246
 10
-51.9040917744
 20
31.8307495358
 10
-51.7063787814
 20
31.5342951557
 10
-51.4954397921
 20
31.2505232054
 10
-51.2745983947
 20
30.98382973
 10
-51.0432363676
 20
30.7339834762
 10
-50.8019719324
 20
30.5012156972
 10
-50.5559833421
 20
30.2906161966
 10
-50.306996681
 20
30.1038815756
 10
-50.0532858648
 20
29.9393152329
 10
-49.7948508935
 20
29.7969171686
  0
LWPOLYLINE
  5
220
100
AcDbEntity
  8
DRAFT
100
AcDbPolyline
 62
7
  6
CONTINUOUS
 90
30
 70
0
 10
-53.3303847994
 20
-14.334662279
 10
-53.319622902
 20
-14.6565601334
 10
-53.2888320529
 20
-14.9826865789
 10
-53.238012252
 20
-15.3130416156
 10
-53.1664829013
 20
-15.6500795554
 10
-53.0749245988
 20
-15.9913460862
 10
-52.9653791389
 20
-16.3294782723
 10
-52.8377829509
 20
-16.6637507351
 10
-52.6921996056
 20
-16.9948888531
 10
-52.5308616092
 20
-17.3177058255
 10
-52.3529652197
 20
-17.6329018704
 10
-52.1593141791
 20
-17.9397767696
 10
-51.9545522201
 20
-18.2310430689
 10
-51.739183798
 20
-18.5054758411
 10
-51.5127044574
 20
-18.7643000133
 10
-51.2782445653
 20
-19.003902912
 10
-51.0347534192
 20
-19.2247532485
 10
-50.7832817216
 20
-19.4263823115
 10
-50.5301119457
 20
-19.6037712945
 10
-50.2762061973
 20
-19.7558132878
 10
-50.0206023708
 20
-19.8836152011
 10
-49.7666966224
 20
-19.9854789561
 10
-49.5135268466
 20
-20.061259749
 10
-49.2620551489
 20
-20.1111023836
 10
-49.0185640029
 20
-20.1337431932
 10
-48.7841041107
 20
-20.1286001867
 10
-48.5576247701
 20
-20.096255355
 10
-48.342256348
 20
-20.037191005
 10
-48.137494389
 20
-19.9506866647
 10
-48.1031032912
 20
-19.9329550561
  0
LINE
  5
221
100
AcDbEntity
  8
DRAFT
100
AcDbLine
 62
7
  6
CONTINUOUS
 10
-53.3303847994
 20
-11.7365860676
 11
-53.3303847994
 21
-14.334662279
  0
LWPOLYLINE
  5
222
100
AcDbEntity
  8
0
100
AcDbPolyline
 62
250
  6
CONTINUOUS
 90
11
 70
0
 10
-45.5401142249
 20
4.0118232967
 10
-45.529274123
 20
3.9044102276
 10
-45.510724286
 20
3.7965660322
 10
-45.4844647139
 20
3.6882907103
 10
-45.4501121887
 20
3.5784566829
 10
-45.4080499285
 20
3.4681915291
 10
-45.3594275869
 20
3.3608779862
 10
-45.3040017522
 20
3.2565919373
 10
-45.2420158363
 20
3.1552574993
 10
-45.1753497284
 20
3.0600297603
 10
-45.1038814555
 20
2.9711487148
  0
LWPOLYLINE
  5
223
100
AcDbEntity
  8
DRAFT
100
AcDbPolyline
 62
7
  6
CONTINUOUS
 90
29
 70
0
 10
-46.9664237687
 20
-14.918566583
 10
-46.9771856661
 20
-14.5966687286
 10
-47.0079765152
 20
-14.270542283
 10
-47.0587963161
 20
-13.9401872464
 10
-47.1303256669
 20
-13.6031493066
 10
-47.2218839694
 20
-13.2618827757
 10
-47.3314294292
 20
-12.9237505897
 10
-47.4590256172
 20
-12.5894781269
 10
-47.6046089625
 20
-12.2583400089
 10
-47.7659469589
 20
-11.9355230364
 10
-47.9438433484
 20
-11.6203269916
 10
-48.137494389
 20
-11.3134520923
 10
-48.342256348
 20
-11.0221857931
 10
-48.5576247701
 20
-10.7477530209
 10
-48.7841041107
 20
-10.4889288487
 10
-49.0185640029
 20
-10.2493259499
 10
-49.2620551489
 20
-10.0284756135
 10
-49.5135268466
 20
-9.8268465504
 10
-49.7666966224
 20
-9.6494575675
 10
-50.0206023708
 20
-9.4974155741
 10
-50.2762061973
 20
-9.3696136609
 10
-50.5301119457
 20
-9.2677499059
 10
-50.7832817216
 20
-9.1919691129
 10
-51.0347534192
 20
-9.1421264783
 10
-51.2782445653
 20
-9.1194856687
 10
-51.5127044574
 20
-9.1246286753
 10
-51.739183798
 20
-9.1569735069
 10
-51.9545522201
 20
-9.216037857
 10
-52.127132578
 20
-9.2868155174
  0
LWPOLYLINE
  5
224
100
AcDbEntity
  8
0
100
AcDbPolyline
 62
7
  6
CONTINUOUS
 90
18
 70
0
 10
-45.5396768498
 20
8.5028820927
 10
-45.5404122777
 20
8.5877119047
 10
-45.5396851434
 20
8.6705117356
 10
-45.5374954468
 20
8.7512815854
 10
-45.5343040808
 20
8.829874242
 10
-45.5296501525
 20
8.9064369174
 10
-45.5221509836
 20
8.9814112486
 10
-45.5115922386
 20
9.0552155461
 10
-45.4981882529
 20
9.1274314994
 10
-45.4811993543
 20
9.197245813
 10
-45.4602128704
 20
9.2651329052
 10
-45.4356414735
 20
9.3306183578
 10
-45.4079835082
 20
9.3914656211
 10
-45.3768869174
 20
9.4475897001
 10
-45.3427037581
 20
9.4990755897
 10
-45.3069885461
 20
9.5439417258
 10
-45.2702594532
 20
9.581527587
 10
-45.2343658933
 20
9.6108017149
  0
LINE
  5
225
100
AcDbEntity
  8
0
100
AcDbLine
 62
7
  6
CONTINUOUS
 10
-47.6994499989
 20
0.5715144862
 11
-47.6994499989
 21
16.2237249786
  0
LINE
  5
226
100
AcDbEntity
  8
DRAFT
100
AcDbLine
 62
7
  6
CONTINUOUS
 10
-46.9664237687
 20
-17.5166427943
 11
-46.9664237687
 21
-14.918566583
  0
LINE
  5
227
100
AcDbEntity
  8
0
100
AcDbLine
 62
7
  6
CONTINUOUS
 10
-46.1886063094
 20
16.3341966378
 11
-46.1886063094
 21
1.3327615942
  0
LINE
  5
228
100
AcDbEntity
  8
0
100
AcDbLine
 62
7
  6
CONTINUOUS
 10
-45.8934219422
 20
26.8336609718
 11
-45.8934219422
 21
16.1866044541
  0
LINE
  5
229
100
AcDbEntity
  8
0
100
AcDbLine
 62
7
  6
CONTINUOUS
 10
-45.8934219422
 20
-1.1973930461
 11
-45.8934219422
 21
-12.8507302902
  0
LINE
  5
22A
100
AcDbEntity
  8
0
100
AcDbLine
 62
7
  6
CONTINUOUS
 10
-44.4214564392
 20
16.9038012309
 11
-44.4214564392
 21
11.4163213341
  0
LINE
  5
22B
100
AcDbEntity
  8
0
100
AcDbLine
 62
7
  6
CONTINUOUS
 10
-44.4214564392
 20
2.312647837
 11
-44.4214564392
 21
-0.4167068448
  0
LWPOLYLINE
  5
22C
100
AcDbEntity
  8
DRAFT
100
AcDbPolyline
 62
7
  6
CONTINUOUS
 90
18
 70
0
 10
-43.0815733737
 20
29.8778145273
 10
-43.1043516244
 20
29.6421313128
 10
-43.1364720858
 20
29.413816782
 10
-43.177934758
 20
29.1928709347
 10
-43.2288761292
 20
28.9788293507
 10
-43.2891597111
 20
28.7721564502
 10
-43.358376039
 20
28.5742454947
 10
-43.4365855163
 20
28.3851559434
 10
-43.5237277395
 20
28.2048283371
 10
-43.6192120338
 20
28.0344775587
 10
-43.7230946791
 20
27.8741713658
 10
-43.8353193955
 20
27.7238420008
 10
-43.955126669
 20
27.5845010738
 10
-44.0825668733
 20
27.4562233077
 10
-44.2175896347
 20
27.3389339797
 10
-44.3592843186
 20
27.2334205306
 10
-44.5076955544
 20
27.1397619676
 10
-44.6066974524
 20
27.0857336792
  0
LINE
  5
22D
100
AcDbEntity
  8
DRAFT
100
AcDbLine
 62
7
  6
CONTINUOUS
 10
-42.3651176102
 20
30.3970621675
 11
-43.0815733737
 21
29.8778145273
  0
LWPOLYLINE
  5
22E
100
AcDbEntity
  8
DRAFT
100
AcDbPolyline
 62
7
  6
CONTINUOUS
 90
32
 70
0
 10
-45.6279100628
 20
28.6254435967
 10
-45.564289669
 20
28.6608484831
 10
-45.379559073
 20
28.7863608758
 10
-45.2080544732
 20
28.9377816947
 10
-45.0538302554
 20
29.1114507449
 10
-44.9176806254
 20
29.3071473004
 10
-44.7988113773
 20
29.5250920872
 10
-44.6988942799
 20
29.762287089
 10
-44.6179755794
 20
30.0200422711
 10
-44.5560090295
 20
30.2970476681
 10
-44.5145276596
 20
30.5863753678
 10
-44.4940424796
 20
30.8871025409
 10
-44.4940424796
 20
31.2001520165
 10
-44.5145276596
 20
31.5213643697
 10
-44.5560090295
 20
31.8521734392
 10
-44.6179755794
 20
32.1911453861
 10
-44.6988942799
 20
32.5298192687
 10
-44.7988113773
 20
32.866931368
 10
-44.9176806254
 20
33.2037454028
 10
-45.0538302554
 20
33.5355915883
 10
-45.2080544732
 20
33.8634848563
 10
-45.379559073
 20
34.186410275
 10
-45.564289669
 20
34.4966532637
 10
-45.762002662
 20
34.7931076439
 10
-45.9729416513
 20
35.0768795941
 10
-46.1937830487
 20
35.3435730696
 10
-46.4251450758
 20
35.5934193233
 10
-46.666409511
 20
35.8261871023
 10
-46.9123981013
 20
36.0367866029
 10
-47.1613847624
 20
36.2235212239
 10
-47.4150955786
 20
36.3880875666
 10
-47.6735305499
 20
36.5304856309
  0
LINE
  5
22F
100
AcDbEntity
  8
DRAFT
100
AcDbLine
 62
250
  6
CONTINUOUS
 10
-49.7948508935
 20
29.7969171686
 11
-44.6827509491
 21
32.4622536198
  0
LINE
  5
230
100
AcDbEntity
  8
DRAFT
100
AcDbLine
 62
250
  6
CONTINUOUS
 10
-47.6735305499
 20
28.7362569968
 11
-44.5459964133
 21
30.3668844938
  0
LINE
  5
231
100
AcDbEntity
  8
DRAFT
100
AcDbLine
 62
7
  6
CONTINUOUS
 10
-43.0815733737
 20
29.8778145273
 11
-42.2156461743
 21
30.3223264496
  0
LWPOLYLINE
  5
232
100
AcDbEntity
  8
ASSI
100
AcDbPolyline
 62
7
  6
CONTINUOUS
 90
4
 70
0
 10
5.07566278
 20
-47.7209337253
 10
5.1594933734
 20
-47.711900888
 10
5.2363143338
 20
-47.6899899754
 10
5.2716212053
 20
-47.6744415664
  0
LWPOLYLINE
  5
233
100
AcDbEntity
  8
RACCORDO
100
AcDbPolyline
 62
250
  6
CONTINUOUS
 90
13
 70
0
 10
28.2791939606
 20
-65.0237227082
 10
28.3460598269
 20
-65.0531481308
 10
28.4203910106
 20
-65.0782458235
 10
28.5010992713
 20
-65.0985058279
 10
28.5871467448
 20
-65.1135122186
 10
28.6769759032
 20
-65.1228451871
 10
28.7684735481
 20
-65.1262237507
 10
28.8598721353
 20
-65.1236021879
 10
28.9498036627
 20
-65.1150392466
 10
29.0367045526
 20
-65.100686768
 10
29.1190849135
 20
-65.0807976481
 10
29.1955514761
 20
-65.0557154603
 10
29.2648051925
 20
-65.025872992
  0
LINE
  5
234
100
AcDbEntity
  8
RACCORDO
100
AcDbLine
 62
7
  6
CONTINUOUS
 10
-56.2691856178
 20
-23.0371819643
 11
28.4611191906
 21
-65.4023343685
  0
LINE
  5
235
100
AcDbEntity
  8
RACCORDO
100
AcDbLine
 62
250
  6
CONTINUOUS
 10
-56.4511108477
 20
-22.658570304
 11
28.2791939606
 21
-65.0237227082
  0
LWPOLYLINE
  5
236
100
AcDbEntity
  8
RACCORDO
100
AcDbPolyline
 62
250
  6
CONTINUOUS
 90
7
 70
0
 10
-56.4511108477
 20
-22.658570304
 10
-56.5099616929
 20
-22.6251373709
 10
-56.5601570784
 20
-22.587971779
 10
-56.6006770872
 20
-22.5476176487
 10
-56.6306898686
 20
-22.5045939119
 10
-56.6493558055
 20
-22.4596793328
 10
-56.6561360849
 20
-22.4111577827
  0
LINE
  5
237
100
AcDbEntity
  8
DRAFT
100
AcDbLine
 62
7
  6
CONTINUOUS
 10
-45.8934219422
 20
-12.8507302902
 11
-42.3651176102
 21
-18.9361550914
  0
LINE
  5
238
100
AcDbEntity
  8
DRAFT
100
AcDbLine
 62
7
  6
CONTINUOUS
 10
-44.4915500346
 20
-12.1437136763
 11
-40.9560161286
 21
-18.2416076482
  0
LWPOLYLINE
  5
239
100
AcDbEntity
  8
0
100
AcDbPolyline
 62
250
  6
CONTINUOUS
 90
6
 70
0
 10
-43.8672560576
 20
7.6664267899
 10
-43.8781031056
 20
7.7738375675
 10
-43.8966592439
 20
7.881678969
 10
-43.9229244725
 20
7.9899509944
 10
-43.957282052
 20
8.0997812658
 10
-43.9993487216
 20
8.2100421612
  0
LINE
  5
23A
100
AcDbEntity
  8
0
100
AcDbLine
 62
7
  6
CONTINUOUS
 10
-44.1642268871
 20
7.8833679914
 11
-44.1667384016
 21
7.9483575866
  0
LINE
  5
23B
100
AcDbEntity
  8
0
100
AcDbLine
 62
7
  6
CONTINUOUS
 10
-41.3712777932
 20
3.4352828558
 11
-41.3712777932
 21
3.6546446864
  0
LINE
  5
23C
100
AcDbEntity
  8
0
100
AcDbLine
 62
7
  6
CONTINUOUS
 10
-41.3712777932
 20
9.6408496975
 11
-41.3712777932
 21
9.860211528
  0
LINE
  5
23D
100
AcDbEntity
  8
0
100
AcDbLine
 62
7
  6
CONTINUOUS
 10
-40.8719834672
 20
9.8899252018
 11
-40.8719834672
 21
9.1241499771
  0
LINE
  5
23E
100
AcDbEntity
  8
0
100
AcDbLine
 62
7
  6
CONTINUOUS
 10
-40.8719834672
 20
4.6619995744
 11
-40.8719834672
 21
3.8962243497
  0
LWPOLYLINE
  5
23F
100
AcDbEntity
  8
0
100
AcDbPolyline
 62
7
  6
CONTINUOUS
 90
8
 70
0
 10
-43.867811879
 20
3.1751205629
 10
-43.8685605954
 20
3.0895863768
 10
-43.8678209032
 20
3.0075482477
 10
-43.8655928024
 20
2.9290061754
 10
-43.8623452643
 20
2.8536392812
 10
-43.8576093176
 20
2.7817684438
 10
-43.8499780481
 20
2.7143562999
 10
-43.8392333848
 20
2.6512039385
  0
LWPOLYLINE
  5
240
100
AcDbEntity
  8
0
100
AcDbPolyline
 62
7
  6
CONTINUOUS
 90
6
 70
0
 10
-39.7185792616
 20
6.3163726729
 10
-39.7276710072
 20
6.0897672562
 10
-39.754482574
 20
5.8720217417
 10
-39.7983184643
 20
5.6688218723
 10
-39.8596377711
 20
5.4805392368
 10
-39.9379814016
 20
5.3068022465
  0
LWPOLYLINE
  5
241
100
AcDbEntity
  8
0
100
AcDbPolyline
 62
7
  6
CONTINUOUS
 90
3
 70
0
 10
-39.7244966959
 20
6.5186951197
 10
-39.7421971353
 20
6.3580985651
 10
-39.7715394921
 20
6.2058335331
  0
LWPOLYLINE
  5
242
100
AcDbEntity
  8
0
100
AcDbPolyline
 62
7
  6
CONTINUOUS
 90
9
 70
0
 10
-39.7715394921
 20
6.2058335331
 10
-39.8122932651
 20
6.06300137
 10
-39.8641558018
 20
5.9305946217
 10
-39.92676913
 20
5.8095042457
 10
-39.9996842978
 20
5.7005984362
 10
-40.0823785956
 20
5.6046578655
 10
-40.1742973837
 20
5.5223404675
 10
-40.274805512
 20
5.4542454182
 10
-40.3146542832
 20
5.432439808
  0
LINE
  5
243
100
AcDbEntity
  8
0
100
AcDbLine
 62
7
  6
CONTINUOUS
 10
-45.3079894826
 20
4.4494391462
 11
-45.198750181
 21
4.6601278808
  0
LWPOLYLINE
  5
244
100
AcDbEntity
  8
0
100
AcDbPolyline
 62
7
  6
CONTINUOUS
 90
3
 70
0
 10
-40.6175978135
 20
5.1358487349
 10
-40.5773271996
 20
5.2122083284
 10
-40.4986483743
 20
5.3626780924
  0
LINE
  5
245
100
AcDbEntity
  8
0
100
AcDbLine
 62
7
  6
CONTINUOUS
 10
-45.4216769354
 20
4.2331459491
 11
-45.3079894826
 21
4.4494391462
  0
LINE
  5
246
100
AcDbEntity
  8
0
100
AcDbLine
 62
7
  6
CONTINUOUS
 10
-43.5207675586
 20
3.8212532918
 11
-43.6318534412
 21
3.6116800187
  0
LINE
  5
247
100
AcDbEntity
  8
0
100
AcDbLine
 62
7
  6
CONTINUOUS
 10
-45.5396147146
 20
4.0112944717
 11
-45.4216769354
 21
4.2331459491
  0
LINE
  5
248
100
AcDbEntity
  8
0
100
AcDbLine
 62
7
  6
CONTINUOUS
 10
-43.6318534412
 20
3.6116800187
 11
-43.747578642
 21
3.3963280173
  0
LINE
  5
249
100
AcDbEntity
  8
0
100
AcDbLine
 62
7
  6
CONTINUOUS
 10
-43.747578642
 20
3.3963280173
 11
-43.867811879
 21
3.1751205629
  0
LINE
  5
24A
100
AcDbEntity
  8
DRAFT
100
AcDbLine
 62
7
  6
CONTINUOUS
 10
-44.6066719227
 20
27.0856831478
 11
-40.2351715783
 21
29.3320891516
  0
LWPOLYLINE
  5
24B
100
AcDbEntity
  8
DRAFT
100
AcDbPolyline
 62
7
  6
CONTINUOUS
 90
9
 70
0
 10
-44.6066974524
 20
27.0857336792
 10
-44.6627787128
 20
27.0578792837
 10
-44.8234892703
 20
26.9883228987
 10
-44.989864868
 20
26.9311754244
 10
-45.1618678649
 20
26.886354249
 10
-45.3383408153
 20
26.8541619576
 10
-45.518897904
 20
26.8346994117
 10
-45.7039249463
 20
26.8278657498
 10
-45.8934219422
 20
26.8336609718
  0
LWPOLYLINE
  5
24C
100
AcDbEntity
  8
RACCORDO
100
AcDbPolyline
 62
7
  6
CONTINUOUS
 90
12
 70
0
 10
5.5554027053
 20
-41.4973170652
 10
5.5982319406
 20
-41.4902312128
 10
5.7301282745
 20
-41.4855540382
 10
5.8655542372
 20
-41.498551609
 10
6.0050116662
 20
-41.5314969028
 10
6.1404910273
 20
-41.5843762337
 10
6.2617341522
 20
-41.6520825507
 10
6.3686082609
 20
-41.7315728135
 10
6.4619362295
 20
-41.8209811804
 10
6.5388928055
 20
-41.9143691354
 10
6.6025094856
 20
-42.0117921263
 10
6.6087034833
 20
-42.0239674542
  0
LWPOLYLINE
  5
24D
100
AcDbEntity
  8
ASSI
100
AcDbPolyline
 62
7
  6
CONTINUOUS
 90
6
 70
0
 10
4.6915528535
 20
-47.0131257148
 10
4.7406300151
 20
-47.0325255765
 10
4.7866685088
 20
-47.0426752217
 10
4.8296683346
 20
-47.0435746504
 10
4.8704423868
 20
-47.0348365947
 10
4.8926954386
 20
-47.0255353804
  0
LINE
  5
24E
100
AcDbEntity
  8
ASSI
100
AcDbLine
 62
7
  6
CONTINUOUS
 10
0.9865974753
 20
-46.9924952707
 11
1.5098755852
 21
-47.2541256654
  0
LINE
  5
24F
100
AcDbEntity
  8
ASSI
100
AcDbLine
 62
7
  6
CONTINUOUS
 10
5.0432740287
 20
-49.0208248872
 11
5.6326666227
 21
-49.3155133899
  0
LINE
  5
250
100
AcDbEntity
  8
ASSI
100
AcDbLine
 62
7
  6
CONTINUOUS
 10
-0.9035321849
 20
-46.0474304406
 11
-0.3802668028
 21
-46.3090544714
  0
LINE
  5
251
100
AcDbEntity
  8
ASSI
100
AcDbLine
 62
7
  6
CONTINUOUS
 10
-2.9680831676
 20
-45.0151627435
 11
-2.4448050577
 21
-45.2767940043
  0
LINE
  5
252
100
AcDbEntity
  8
ASSI
100
AcDbLine
 62
7
  6
CONTINUOUS
 10
-4.6802722347
 20
-44.15906821
 11
-4.1569736186
 21
-44.4207097238
  0
LINE
  5
253
100
AcDbEntity
  8
ASSI
100
AcDbLine
 62
7
  6
CONTINUOUS
 10
-1.9215389685
 20
-45.5384270488
 11
-1.3982608586
 21
-45.8000661038
  0
LINE
  5
254
100
AcDbEntity
  8
ASSI
100
AcDbLine
 62
7
  6
CONTINUOUS
 10
0.1144682348
 20
-46.5564306505
 11
0.6377470519
 21
-46.818070059
  0
LINE
  5
255
100
AcDbEntity
  8
ASSI
100
AcDbLine
 62
7
  6
CONTINUOUS
 10
3.5388322268
 20
-48.2686039862
 11
4.0621174078
 21
-48.5302465767
  0
LINE
  5
256
100
AcDbEntity
  8
ASSI
100
AcDbLine
 62
7
  6
CONTINUOUS
 10
2.6666966224
 20
-47.832536184
 11
3.1899818034
 21
-48.0941874348
  0
LINE
  5
257
100
AcDbEntity
  8
ASSI
100
AcDbLine
 62
7
  6
CONTINUOUS
 10
1.1280188315
 20
-46.9217845926
 11
1.5469488176
 21
-47.1312426524
  0
LINE
  5
258
100
AcDbEntity
  8
ASSI
100
AcDbLine
 62
7
  6
CONTINUOUS
 10
5.1846953849
 20
-48.950114209
 11
5.5728139607
 21
-49.1441683644
  0
LINE
  5
259
100
AcDbEntity
  8
ASSI
100
AcDbLine
 62
7
  6
CONTINUOUS
 10
-0.7621108286
 20
-45.9767197625
 11
-0.3471570636
 21
-46.1841897774
  0
LINE
  5
25A
100
AcDbEntity
  8
ASSI
100
AcDbLine
 62
7
  6
CONTINUOUS
 10
-2.8266618114
 20
-44.9444520654
 11
-2.4448047456
 21
-45.1353749105
  0
LINE
  5
25B
100
AcDbEntity
  8
ASSI
100
AcDbLine
 62
7
  6
CONTINUOUS
 10
-4.5388508785
 20
-44.0883575318
 11
-4.1199002936
 21
-44.2978265842
  0
LINE
  5
25C
100
AcDbEntity
  8
ASSI
100
AcDbLine
 62
7
  6
CONTINUOUS
 10
-1.7801176123
 20
-45.4677163707
 11
-1.3982608586
 21
-45.6586447476
  0
LINE
  5
25D
100
AcDbEntity
  8
ASSI
100
AcDbLine
 62
7
  6
CONTINUOUS
 10
0.255889591
 20
-46.4857199724
 11
0.6377470519
 21
-46.6766487028
  0
LINE
  5
25E
100
AcDbEntity
  8
ASSI
100
AcDbLine
 62
7
  6
CONTINUOUS
 10
3.680253583
 20
-48.1978933081
 11
4.0621241067
 21
-48.3888285699
  0
LINE
  5
25F
100
AcDbEntity
  8
ASSI
100
AcDbLine
 62
7
  6
CONTINUOUS
 10
2.8081179786
 20
-47.7618255059
 11
3.1529073867
 21
-47.9342259162
  0
LINE
  5
260
100
AcDbEntity
  8
ASSI
100
AcDbLine
 62
7
  6
CONTINUOUS
 10
1.6750755283
 20
-46.7065535917
 11
2.5015037504
 21
-47.1197677027
  0
LINE
  5
261
100
AcDbEntity
  8
ASSI
100
AcDbLine
 62
7
  6
CONTINUOUS
 10
1.8164968845
 20
-46.6358429135
 11
2.6429251066
 21
-47.0490570246
  0
LINE
  5
262
100
AcDbEntity
  8
ASSI
100
AcDbLine
 62
7
  6
CONTINUOUS
 10
2.3418835869
 20
-46.4311175134
 11
1.8346886207
 21
-46.1775200303
  0
LINE
  5
263
100
AcDbEntity
  8
ASSI
100
AcDbLine
 62
7
  6
CONTINUOUS
 10
4.0621760977
 20
-47.2912559746
 11
4.5188836397
 21
-47.5196175398
  0
LINE
  5
264
100
AcDbEntity
  8
ASSI
100
AcDbLine
 62
7
  6
CONTINUOUS
 10
4.2035974539
 20
-47.2205452964
 11
4.660304996
 21
-47.4489068617
  0
LINE
  5
265
100
AcDbEntity
  8
ASSI
100
AcDbLine
 62
7
  6
CONTINUOUS
 10
4.6915528535
 20
-47.0131257148
 11
4.0549027973
 21
-46.6948006868
  0
LWPOLYLINE
  5
266
100
AcDbEntity
  8
0
100
AcDbPolyline
 62
7
  6
CONTINUOUS
 90
17
 70
0
 10
-45.4662338296
 20
3.3410980843
 10
-45.3911914632
 20
3.1967084162
 10
-45.3026445109
 20
3.0516347328
 10
-45.204634934
 20
2.9142285103
 10
-45.0980623326
 20
2.7860233696
 10
-44.9828391128
 20
2.6674765123
 10
-44.8601369505
 20
2.5605406313
 10
-44.7328979422
 20
2.4680367453
 10
-44.6017188279
 20
2.3903773989
 10
-44.4674106378
 20
2.3281993123
 10
-44.333690177
 20
2.2829466365
 10
-44.2028069972
 20
2.2544320684
 10
-44.074531956
 20
2.2417114186
 10
-43.9494044489
 20
2.2442834936
 10
-43.8285692077
 20
2.2616669074
 10
-43.7134556635
 20
2.2931238364
 10
-43.605244132
 20
2.3376956807
  0
LWPOLYLINE
  5
267
100
AcDbEntity
  8
0
100
AcDbPolyline
 62
7
  6
CONTINUOUS
 90
11
 70
0
 10
-45.4660399239
 20
3.3413116812
 10
-45.4812062269
 20
3.3763000851
 10
-45.4983560307
 20
3.4295871698
 10
-45.5118976027
 20
3.4891721782
 10
-45.5225284812
 20
3.5532709398
 10
-45.5299985701
 20
3.6219476022
 10
-45.5345579656
 20
3.6951380179
 10
-45.537654495
 20
3.770865574
 10
-45.5397707676
 20
3.8484713995
 10
-45.5404241741
 20
3.9286143654
 10
-45.5396147146
 20
4.0112944717
  0
LWPOLYLINE
  5
268
100
AcDbEntity
  8
0
100
AcDbPolyline
 62
7
  6
CONTINUOUS
 90
18
 70
0
 10
-42.0063512418
 20
8.0779579716
 10
-41.9809321294
 20
7.975790285
 10
-41.9155183364
 20
7.7677882672
 10
-41.8379320487
 20
7.5638321007
 10
-41.7481545589
 20
7.3646352919
 10
-41.6462045742
 20
7.1694843344
 10
-41.5341881715
 20
6.9825319079
 10
-41.411296394
 20
6.803240084
 10
-41.2783381984
 20
6.6321467911
 10
-41.1398465317
 20
6.4750184949
 10
-40.9964205402
 20
6.3329817505
 10
-40.8474610777
 20
6.2049100028
 10
-40.6957036526
 20
6.093190052
 10
-40.5401947929
 20
5.997684844
 10
-40.3818879707
 20
5.9185314329
 10
-40.226379111
 20
5.8585277812
 10
-40.0746216859
 20
5.818490307
 10
-39.9339586838
 20
5.7987659563
  0
LWPOLYLINE
  5
269
100
AcDbEntity
  8
0
100
AcDbPolyline
 62
7
  6
CONTINUOUS
 90
11
 70
0
 10
-43.8392333848
 20
2.6512039385
 10
-43.8255933986
 20
2.5925102705
 10
-43.8083053884
 20
2.5398346653
 10
-43.7869494214
 20
2.4931189682
 10
-43.7619454304
 20
2.4524213339
 10
-43.7338005125
 20
2.4194755967
 10
-43.7021563999
 20
2.394721903
 10
-43.6673713605
 20
2.3777201064
 10
-43.6310272947
 20
2.3688836019
 10
-43.5936515028
 20
2.368350188
 10
-43.5547166846
 20
2.3759820663
  0
LWPOLYLINE
  5
26A
100
AcDbEntity
  8
0
100
AcDbPolyline
 62
7
  6
CONTINUOUS
 90
10
 70
0
 10
-43.3553942008
 20
7.4401511912
 10
-43.3459429385
 20
7.3977347457
 10
-43.2935574646
 20
7.212307971
 10
-43.2303188929
 20
7.0274793416
 10
-43.1566845531
 20
6.8445852269
 10
-43.0731863772
 20
6.664946609
 10
-42.9803889448
 20
6.4897927209
 10
-42.8789386756
 20
6.3203744134
 10
-42.7695719901
 20
6.1579496308
 10
-42.6530724035
 20
6.0037043935
  0
LINE
  5
26B
100
AcDbEntity
  8
0
100
AcDbLine
 62
7
  6
CONTINUOUS
 10
-37.4821904966
 20
-10.7423891429
 11
-37.4821904966
 21
5.3120110978
  0
LINE
  5
26C
100
AcDbEntity
  8
0
100
AcDbLine
 62
7
  6
CONTINUOUS
 10
-37.4821904966
 20
15.0218666197
 11
-37.4821904966
 21
27.9555986107
  0
LINE
  5
26D
100
AcDbEntity
  8
DRAFT
100
AcDbLine
 62
7
  6
CONTINUOUS
 10
-35.9666659561
 20
27.1978363404
 11
-35.9666659561
 21
15.5390613936
  0
LINE
  5
26E
100
AcDbEntity
  8
0
100
AcDbLine
 62
7
  6
CONTINUOUS
 10
-40.7421344604
 20
4.9022711083
 11
-40.6175978135
 21
5.1358487349
  0
LINE
  5
26F
100
AcDbEntity
  8
0
100
AcDbLine
 62
7
  6
CONTINUOUS
 10
-40.8719834672
 20
4.6619995744
 11
-40.7421344604
 21
4.9022711083
  0
LWPOLYLINE
  5
270
100
AcDbEntity
  8
0
100
AcDbPolyline
 62
7
  6
CONTINUOUS
 90
8
 70
0
 10
-39.9379814016
 20
5.3068022465
 10
-40.0312765795
 20
5.152181878
 10
-40.1399027914
 20
5.0172036831
 10
-40.2634805507
 20
4.9013421101
 10
-40.3987986216
 20
4.8075914806
 10
-40.544786592
 20
4.7369499017
 10
-40.7025148738
 20
4.6884192663
 10
-40.8719834672
 20
4.6619995744
  0
LINE
  5
271
100
AcDbEntity
  8
0
100
AcDbLine
 62
7
  6
CONTINUOUS
 10
-45.8934219422
 20
16.1866044541
 11
-44.4214564392
 21
16.9038012309
  0
LINE
  5
272
100
AcDbEntity
  8
0
100
AcDbLine
 62
250
  6
CONTINUOUS
 10
-47.6994499989
 20
16.2237249786
 11
-46.7991966505
 21
16.6394918083
  0
LINE
  5
273
100
AcDbEntity
  8
ASSI
100
AcDbLine
 62
7
  6
CONTINUOUS
 10
4.0548964334
 20
-45.9150161069
 11
4.6915404613
 21
-46.2333381208
  0
LINE
  5
274
100
AcDbEntity
  8
ASSI
100
AcDbLine
 62
7
  6
CONTINUOUS
 10
4.1963177896
 20
-45.8443054288
 11
4.8329622766
 21
-46.1626276723
  0
LINE
  5
275
100
AcDbEntity
  8
ASSI
100
AcDbLine
 62
7
  6
CONTINUOUS
 10
0.6377470519
 20
-43.6136314388
 11
-0.1533095677
 21
-43.218103129
  0
LINE
  5
276
100
AcDbEntity
  8
ASSI
100
AcDbLine
 62
7
  6
CONTINUOUS
 10
-1.130483056
 20
-42.7295163848
 11
-1.9215389685
 21
-42.3339884286
  0
LINE
  5
277
100
AcDbEntity
  8
ASSI
100
AcDbLine
 62
7
  6
CONTINUOUS
 10
-2.4447979866
 20
-42.0723589195
 11
-2.9680768037
 21
-41.810719511
  0
LINE
  5
278
100
AcDbEntity
  8
ASSI
100
AcDbLine
 62
7
  6
CONTINUOUS
 10
-3.316927227
 20
-41.6362942993
 11
-3.8402124081
 21
-41.3746517088
  0
LINE
  5
279
100
AcDbEntity
  8
ASSI
100
AcDbLine
 62
7
  6
CONTINUOUS
 10
-4.9970270813
 20
-40.7962443722
 11
-5.5203122623
 21
-40.5346017817
  0
LINE
  5
27A
100
AcDbEntity
  8
ASSI
100
AcDbLine
 62
7
  6
CONTINUOUS
 10
4.7641876629
 20
-45.67684395
 11
3.5388322268
 21
-45.064166232
  0
LINE
  5
27B
100
AcDbEntity
  8
ASSI
100
AcDbLine
 62
7
  6
CONTINUOUS
 10
2.3499354118
 20
-44.4697178245
 11
1.8266304318
 21
-44.2080653345
  0
LINE
  5
27C
100
AcDbEntity
  8
DRAFT
100
AcDbLine
 62
7
  6
CONTINUOUS
 10
-42.3651176102
 20
-18.9361550914
 11
14.1932007231
 21
-47.2153142581
  0
LINE
  5
27D
100
AcDbEntity
  8
DRAFT
100
AcDbLine
 62
7
  6
CONTINUOUS
 10
-40.9560161286
 20
-18.2416076482
 11
15.3355596067
 21
-46.3873955159
  0
LWPOLYLINE
  5
27E
100
AcDbEntity
  8
ASSI
100
AcDbPolyline
 62
7
  6
CONTINUOUS
 90
15
 70
0
 10
4.8329622766
 20
-46.1626276723
 10
4.8907598778
 20
-46.1988859736
 10
4.9438182791
 20
-46.2428273179
 10
4.9921374805
 20
-46.2944517052
 10
5.0368737577
 20
-46.3557535038
 10
5.076870835
 20
-46.4247383454
 10
5.1086598851
 20
-46.495423125
 10
5.1315078944
 20
-46.5679597561
 10
5.1461478766
 20
-46.6421963252
 10
5.1513100453
 20
-46.7116939876
 10
5.1461478766
 20
-46.7760294813
 10
5.1315078944
 20
-46.8356260683
 10
5.1086598851
 20
-46.88531469
 10
5.076870444
 20
-46.9242103524
 10
5.0340470087
 20
-46.9546921964
  0
LWPOLYLINE
  5
27F
100
AcDbEntity
  8
0
100
AcDbPolyline
 62
250
  6
CONTINUOUS
 90
26
 70
0
 10
-43.9993487216
 20
8.2100421612
 10
-44.0479746997
 20
8.317350814
 10
-44.1034033417
 20
8.4216311643
 10
-44.1653912921
 20
8.522959272
 10
-44.2320587019
 20
8.6181804497
 10
-44.3035275034
 20
8.7070547112
 10
-44.3796757642
 20
8.7898220428
 10
-44.4582578393
 20
8.8640477162
 10
-44.5392987084
 20
8.9294727529
 10
-44.6227733916
 20
8.9863561315
 10
-44.7063613037
 20
9.03304006
 10
-44.7900856484
 20
9.0693002664
 10
-44.873923222
 20
9.0953610227
 10
-44.9554838281
 20
9.1102373531
 10
-45.0349587515
 20
9.1134567743
 10
-45.1121567076
 20
9.1054917696
 10
-45.184113646
 20
9.0867748124
 10
-45.2503824896
 20
9.0567461093
 10
-45.3114103157
 20
9.0159654539
 10
-45.3655743054
 20
8.9665447002
 10
-45.4124108456
 20
8.9088113437
 10
-45.4523835494
 20
8.842437889
 10
-45.4852604377
 20
8.7685537035
 10
-45.5109641841
 20
8.6875352433
 10
-45.529572115
 20
8.5990060523
 10
-45.5410842303
 20
8.5029661307
  0
LWPOLYLINE
  5
280
100
AcDbEntity
  8
0
100
AcDbPolyline
 62
7
  6
CONTINUOUS
 90
9
 70
0
 10
-39.4597713477
 20
7.7162623878
 10
-39.5827718407
 20
8.024709736
 10
-39.722828402
 20
8.3257536132
 10
-39.8808366932
 20
8.6203419775
 10
-40.0559010526
 20
8.9075268709
 10
-40.243045507
 20
9.1789167903
 10
-40.4406113987
 20
9.431714568
 10
-40.6502573854
 20
9.6687173719
 10
-40.8719834672
 20
9.8899252018
  0
LWPOLYLINE
  5
281
100
AcDbEntity
  8
0
100
AcDbPolyline
 62
7
  6
CONTINUOUS
 90
3
 70
0
 10
-39.2718832867
 20
7.0922438097
 10
-39.356115911
 20
7.4059591968
 10
-39.4597713477
 20
7.7162623878
  0
LINE
  5
282
100
AcDbEntity
  8
DRAFT
100
AcDbLine
 62
7
  6
CONTINUOUS
 10
-32.1819750514
 20
25.3054908881
 11
-32.1819750514
 21
20.4874328397
  0
LWPOLYLINE
  5
283
100
AcDbEntity
  8
0
100
AcDbPolyline
 62
7
  6
CONTINUOUS
 90
3
 70
0
 10
-45.1136724312
 20
9.6846792979
 10
-45.21127643
 20
9.6268764053
 10
-45.2343608898
 20
9.6107682053
  0
LWPOLYLINE
  5
284
100
AcDbEntity
  8
0
100
AcDbPolyline
 62
7
  6
CONTINUOUS
 90
19
 70
0
 10
-43.5142228401
 20
8.7978489145
 10
-43.55431948
 20
8.7742331233
 10
-43.5929763424
 20
8.7439090759
 10
-43.6301934273
 20
8.7068767722
 10
-43.6665247632
 20
8.6625064879
 10
-43.7014163216
 20
8.6114279474
 10
-43.7332060164
 20
8.5555303233
 10
-43.7615296483
 20
8.4947228804
 10
-43.7867514166
 20
8.429096354
 10
-43.8083018339
 20
8.3608121226
 10
-43.825754563
 20
8.2902305662
 10
-43.839535941
 20
8.2169913047
 10
-43.8503554912
 20
8.1421745764
 10
-43.8579587595
 20
8.0659685672
 10
-43.8626001999
 20
7.9881850912
 10
-43.8657526979
 20
7.9093398287
 10
-43.8679072154
 20
7.8296046732
 10
-43.8685727905
 20
7.7488077312
 10
-43.8677494232
 20
7.6669490028
  0
LINE
  5
285
100
AcDbEntity
  8
0
100
AcDbLine
 62
7
  6
CONTINUOUS
 10
-44.4214564392
 20
11.4163213341
 11
-37.4821904966
 21
15.0218666197
  0
LINE
  5
286
100
AcDbEntity
  8
0
100
AcDbLine
 62
7
  6
CONTINUOUS
 10
-43.0010889487
 20
10.770283746
 11
-45.1136724312
 21
9.6846792979
  0
LINE
  5
287
100
AcDbEntity
  8
0
100
AcDbLine
 62
250
  6
CONTINUOUS
 10
-35.1577405229
 20
13.8596416328
 11
-41.8367077109
 21
10.4487719914
  0
LINE
  5
288
100
AcDbEntity
  8
DRAFT
100
AcDbLine
 62
7
  6
CONTINUOUS
 10
-32.1819750514
 20
20.6977296417
 11
-27.5340024818
 21
22.9815046033
  0
LINE
  5
289
100
AcDbEntity
  8
DRAFT
100
AcDbLine
 62
7
  6
CONTINUOUS
 10
-32.1819750514
 20
20.4874328397
 11
-27.3218704475
 21
22.8754385861
  0
LINE
  5
28A
100
AcDbEntity
  8
DRAFT
100
AcDbLine
 62
7
  6
CONTINUOUS
 10
-35.9666659561
 20
16.0297539315
 11
-24.6925601614
 21
21.5692703858
  0
LINE
  5
28B
100
AcDbEntity
  8
DRAFT
100
AcDbLine
 62
7
  6
CONTINUOUS
 10
-24.1975854145
 20
21.3217830124
 11
-35.9666659561
 21
15.5390613936
  0
LWPOLYLINE
  5
28C
100
AcDbEntity
  8
0
100
AcDbPolyline
 62
250
  6
CONTINUOUS
 90
21
 70
0
 10
-45.1038814555
 20
2.9711487148
 10
-45.0277329908
 20
2.8883743682
 10
-44.9491501432
 20
2.8141418252
 10
-44.8681079093
 20
2.7487100985
 10
-44.7846312926
 20
2.6918201753
 10
-44.7010411124
 20
2.6451301217
 10
-44.6173142187
 20
2.6088642371
 10
-44.5334737617
 20
2.5827982221
 10
-44.451910011
 20
2.5679172447
 10
-44.372431574
 20
2.5646937962
 10
-44.2952298434
 20
2.5726553852
 10
-44.2232692679
 20
2.5913697054
 10
-44.1569969798
 20
2.6213966575
 10
-44.0959658467
 20
2.6621763407
 10
-44.0417989197
 20
2.7115967473
 10
-43.994959212
 20
2.7693335402
 10
-43.9549837103
 20
2.8357110565
 10
-43.9221064254
 20
2.909590299
 10
-43.8964053611
 20
2.9905916019
 10
-43.8778025136
 20
3.079094631
 10
-43.8662978831
 20
3.1750993862
  0
LWPOLYLINE
  5
28D
100
AcDbEntity
  8
0
100
AcDbPolyline
 62
7
  6
CONTINUOUS
 90
13
 70
0
 10
-45.198750181
 20
4.6601278808
 10
-45.0689852539
 20
4.5121198112
 10
-44.933777726
 20
4.3756178841
 10
-44.7941652779
 20
4.2516699716
 10
-44.6512193166
 20
4.1412277682
 10
-44.5060371002
 20
4.0451390456
 10
-44.3597332398
 20
3.9641410883
 10
-44.2134304125
 20
3.8988556565
 10
-44.0682517842
 20
3.8497843237
 10
-43.9253126017
 20
3.8173038379
 10
-43.7857102696
 20
3.8016634434
 10
-43.6505160132
 20
3.8029832776
 10
-43.5207675586
 20
3.8212532918
  0
LWPOLYLINE
  5
28E
100
AcDbEntity
  8
0
100
AcDbPolyline
 62
7
  6
CONTINUOUS
 90
11
 70
0
 10
-43.3054676083
 20
5.6592520532
 10
-43.3443962497
 20
5.7100369313
 10
-43.4908283921
 20
5.9268503943
 10
-43.626575637
 20
6.1561802927
 10
-43.7505606539
 20
6.3959490795
 10
-43.8595514516
 20
6.6399241146
 10
-43.9531670579
 20
6.8882554547
 10
-44.031788445
 20
7.1407930431
 10
-44.0933265385
 20
7.3908540684
 10
-44.1373183596
 20
7.6383493114
 10
-44.1642268871
 20
7.8833679914
  0
LWPOLYLINE
  5
28F
100
AcDbEntity
  8
0
100
AcDbPolyline
 62
250
  6
CONTINUOUS
 90
18
 70
0
 10
-43.5142228401
 20
8.7978489145
 10
-43.5904405299
 20
8.9207102048
 10
-43.6723215661
 20
9.0380190873
 10
-43.7592521249
 20
9.1489062021
 10
-43.8505705735
 20
9.2525393088
 10
-43.9456045168
 20
9.3481664933
 10
-44.043679916
 20
9.4351119423
 10
-44.144020898
 20
9.5126921371
 10
-44.2459275563
 20
9.5803701403
 10
-44.3488233198
 20
9.6377307166
 10
-44.4519850817
 20
9.6843033012
 10
-44.5545954158
 20
9.7196512926
 10
-44.6559276528
 20
9.7434544195
 10
-44.7553228425
 20
9.7554571692
 10
-44.8518792914
 20
9.7554473149
 10
-44.9445472181
 20
9.7433974361
 10
-45.0325386929
 20
9.7194606682
 10
-45.1136724312
 20
9.6846792979
  0
LWPOLYLINE
  5
290
100
AcDbEntity
  8
0
100
AcDbPolyline
 62
7
  6
CONTINUOUS
 90
24
 70
0
 10
-41.3712777932
 20
9.860211528
 10
-41.4296095699
 20
9.9563403011
 10
-41.4908285735
 20
10.0486322022
 10
-41.5549348041
 20
10.1370872313
 10
-41.6222276534
 20
10.2220514846
 10
-41.6924077297
 20
10.3031788659
 10
-41.7645768573
 20
10.3794310868
 10
-41.8387606451
 20
10.4507455203
 10
-41.9149334844
 20
10.5171847933
 10
-41.9921203725
 20
10.5778984989
 10
-42.0703342499
 20
10.6328129916
 10
-42.1495621763
 20
10.6820019168
 10
-42.2287903285
 20
10.7248358037
 10
-42.3080187298
 20
10.7612330354
 10
-42.3872473569
 20
10.7912752289
 10
-42.4654623179
 20
10.8145777641
 10
-42.5426505467
 20
10.8310540925
 10
-42.6188251093
 20
10.8407907628
 10
-42.6930113117
 20
10.8436628002
 10
-42.7651836895
 20
10.8395820916
 10
-42.8353677071
 20
10.8286367502
 10
-42.9026650646
 20
10.8109661409
 10
-42.9667763287
 20
10.7866167184
 10
-43.0010605112
 20
10.7702274937
  0
LWPOLYLINE
  5
291
100
AcDbEntity
  8
0
100
AcDbPolyline
 62
7
  6
CONTINUOUS
 90
10
 70
0
 10
-40.3987985757
 20
8.5053731527
 10
-40.2634804732
 20
8.2763043679
 10
-40.1399026782
 20
8.0368649328
 10
-40.031276452
 20
7.7932604756
 10
-39.9379813005
 20
7.5453449782
 10
-39.8596377178
 20
7.2932644586
 10
-39.7983184482
 20
7.0436626001
 10
-39.7544825703
 20
6.796626883
 10
-39.7276710054
 20
6.5520698269
 10
-39.7185792616
 20
6.3163726729
  0
LINE
  5
292
100
AcDbEntity
  8
DRAFT
100
AcDbLine
 62
7
  6
CONTINUOUS
 10
-24.1975854145
 20
4.7227790297
 11
-24.1975854145
 21
21.3217830124
  0
LINE
  5
293
100
AcDbEntity
  8
DRAFT
100
AcDbLine
 62
7
  6
CONTINUOUS
 10
-23.278346599
 20
-2.4293832619
 11
-23.278346599
 21
-6.9795224786
  0
LWPOLYLINE
  5
294
100
AcDbEntity
  8
DRAFT
100
AcDbPolyline
 62
7
  6
CONTINUOUS
 90
12
 70
0
 10
-23.278346599
 20
-6.9795224786
 10
-23.2914649619
 20
-7.3721645243
 10
-23.3307775095
 20
-7.7494463955
 10
-23.3960926985
 20
-8.1088826057
 10
-23.487131911
 20
-8.4483562412
 10
-23.6033217684
 20
-8.7653093893
 10
-23.7435991661
 20
-9.0569490751
 10
-23.9065817477
 20
-9.3209898653
 10
-24.0913711557
 20
-9.5564799183
 10
-24.2974828735
 20
-9.7627561539
 10
-24.5243800154
 20
-9.9387410871
 10
-24.7478865906
 20
-10.0711788468
  0
LINE
  5
295
100
AcDbEntity
  8
DRAFT
100
AcDbLine
 62
7
  6
CONTINUOUS
 10
-39.7257328209
 20
6.5942554492
 11
-39.7621209486
 21
6.5740513921
  0
LINE
  5
296
100
AcDbEntity
  8
0
100
AcDbLine
 62
7
  6
CONTINUOUS
 10
-42.6530724035
 20
6.0037043935
 11
-45.198750181
 21
4.6601278808
  0
LWPOLYLINE
  5
297
100
AcDbEntity
  8
0
100
AcDbPolyline
 62
7
  6
CONTINUOUS
 90
15
 70
0
 10
-40.1069057254
 20
4.0361872632
 10
-40.0559010526
 20
4.062540266
 10
-39.8808366932
 20
4.1746607999
 10
-39.722828402
 20
4.3112408731
 10
-39.5827718407
 20
4.4722281891
 10
-39.4597713477
 20
4.6576750443
 10
-39.356115911
 20
4.8643227985
 10
-39.2718832867
 20
5.0938055613
 10
-39.2069957186
 20
5.3444892231
 10
-39.1635089265
 20
5.6082128144
 10
-39.1421081505
 20
5.8838157066
 10
-39.1421081505
 20
6.1724585282
 10
-39.1635089265
 20
6.4694621964
 10
-39.2069957186
 20
6.7766725798
 10
-39.2718832867
 20
7.0922438097
  0
LINE
  5
298
100
AcDbEntity
  8
0
100
AcDbLine
 62
7
  6
CONTINUOUS
 10
-43.5207675586
 20
3.8212532918
 11
-40.4986483743
 21
5.3626780924
  0
LINE
  5
299
100
AcDbEntity
  8
0
100
AcDbLine
 62
250
  6
CONTINUOUS
 10
-47.6994499989
 20
0.5715144862
 11
-46.1886063094
 21
1.3327615942
  0
LWPOLYLINE
  5
29A
100
AcDbEntity
  8
0
100
AcDbPolyline
 62
250
  6
CONTINUOUS
 90
3
 70
0
 10
-43.605244132
 20
2.3376956807
 10
-43.5911316175
 20
2.3447774369
 10
-43.5142228401
 20
2.3917792367
  0
LINE
  5
29B
100
AcDbEntity
  8
0
100
AcDbLine
 62
7
  6
CONTINUOUS
 10
-40.8719834672
 20
9.8899252018
 11
-41.3712777932
 21
9.6408496975
  0
LINE
  5
29C
100
AcDbEntity
  8
0
100
AcDbLine
 62
7
  6
CONTINUOUS
 10
-41.3712777932
 20
9.860211528
 11
-43.5142228401
 21
8.7978489145
  0
LINE
  5
29D
100
AcDbEntity
  8
0
100
AcDbLine
 62
7
  6
CONTINUOUS
 10
-40.5709370224
 20
8.7561993071
 11
-43.5207496185
 21
7.3619518672
  0
LWPOLYLINE
  5
29E
100
AcDbEntity
  8
0
100
AcDbPolyline
 62
7
  6
CONTINUOUS
 90
3
 70
0
 10
-40.3146542832
 20
5.432439808
 10
-40.3831792351
 20
5.4008908625
 10
-40.4986483743
 20
5.3626780924
  0
LWPOLYLINE
  5
29F
100
AcDbEntity
  8
DRAFT
100
AcDbPolyline
 62
7
  6
CONTINUOUS
 90
4
 70
0
 10
-39.7621209486
 20
6.5740513921
 10
-39.8138177876
 20
6.5509571294
 10
-39.9106087554
 20
6.5227853038
 10
-40.0151009918
 20
6.5096404717
  0
LWPOLYLINE
  5
2A0
100
AcDbEntity
  8
0
100
AcDbPolyline
 62
7
  6
CONTINUOUS
 90
13
 70
0
 10
15.2478475055
 20
-26.3818759953
 10
15.1122584901
 20
-26.3822152059
 10
14.9750608499
 20
-26.3693612533
 10
14.8362545847
 20
-26.3433141372
 10
14.695302801
 20
-26.3038083618
 10
14.5527423924
 20
-26.2511094231
 10
14.4101840395
 20
-26.1860138092
 10
14.2675750059
 20
-26.1084673736
 10
14.124968028
 20
-26.0185242627
 10
13.9841319962
 20
-25.9171434042
 10
13.8456565406
 20
-25.8046444405
 10
13.708952031
 20
-25.6807077291
 10
13.5740184674
 20
-25.5453332701
  0
LINE
  5
2A1
100
AcDbEntity
  8
DRAFT
100
AcDbLine
 62
7
  6
CONTINUOUS
 10
11.9002157651
 20
-36.2751955301
 11
0.2329538755
 21
-30.4415645853
  0
LINE
  5
2A2
100
AcDbEntity
  8
DRAFT
100
AcDbLine
 62
7
  6
CONTINUOUS
 10
14.0215361086
 20
-33.6540866622
 11
6.5969149062
 21
-29.941776061
  0
LINE
  5
2A3
100
AcDbEntity
  8
0
100
AcDbLine
 62
7
  6
CONTINUOUS
 10
-43.8677494232
 20
7.6669490028
 11
-43.7872348539
 21
7.5982223673
  0
LINE
  5
2A4
100
AcDbEntity
  8
0
100
AcDbLine
 62
7
  6
CONTINUOUS
 10
-45.4604224952
 20
8.4347339192
 11
-45.5396768498
 21
8.5028820927
  0
LWPOLYLINE
  5
2A5
100
AcDbEntity
  8
0
100
AcDbPolyline
 62
7
  6
CONTINUOUS
 90
7
 70
0
 10
-43.7872348539
 20
7.5982223673
 10
-43.7086313571
 20
7.5300628586
 10
-43.6700453072
 20
7.49619647
 10
-43.6319618197
 20
7.4624538402
 10
-43.5943885235
 20
7.4288294238
 10
-43.5573177898
 20
7.3953287661
 10
-43.5207496185
 20
7.3619518672
  0
LWPOLYLINE
  5
2A6
100
AcDbEntity
  8
0
100
AcDbPolyline
 62
7
  6
CONTINUOUS
 90
7
 70
0
 10
-45.1986667819
 20
8.2008630978
 10
-45.2345452107
 20
8.2338735226
 10
-45.2709300668
 20
8.2670149755
 10
-45.3078213501
 20
8.3002874565
 10
-45.3452237707
 20
8.333683256
 10
-45.3831326185
 20
8.3672100835
 10
-45.4604224952
 20
8.4347339192
  0
LINE
  5
2A7
100
AcDbEntity
  8
0
100
AcDbLine
 62
7
  6
CONTINUOUS
 10
-40.8719834672
 20
9.1241499771
 11
-40.7025148625
 21
8.9282616859
  0
LWPOLYLINE
  5
2A8
100
AcDbEntity
  8
0
100
AcDbPolyline
 62
7
  6
CONTINUOUS
 90
3
 70
0
 10
-40.7025148625
 20
8.9282616859
 10
-40.5447865653
 20
8.7220027444
 10
-40.3987985757
 20
8.5053731527
  0
LWPOLYLINE
  5
2A9
100
AcDbEntity
  8
DRAFT
100
AcDbPolyline
 62
7
  6
CONTINUOUS
 90
27
 70
0
 10
-15.4979575119
 20
1.5293074658
 10
-15.5096909445
 20
1.8487013687
 10
-15.5426443576
 20
2.1717405807
 10
-15.5968177513
 20
2.4984251018
 10
-15.6729420139
 20
2.8312822879
 10
-15.770286257
 20
3.1677847831
 10
-15.8866578157
 20
3.5003505199
 10
-16.0224898879
 20
3.8288929079
 10
-16.1773492755
 20
4.1534985377
 10
-16.3477437198
 20
4.4668451128
 10
-16.5340266987
 20
4.7686762947
 10
-16.7358447342
 20
5.0592484221
 10
-16.948645133
 20
5.3320082143
 10
-17.1726755882
 20
5.5865490745
 10
-17.4076884066
 20
5.8232775996
 10
-17.6483878152
 20
6.0368602997
 10
-17.8949040863
 20
6.2267728597
 10
-18.1471069475
 20
6.3935395947
 10
-18.3993098088
 20
6.53339996
 10
-18.6515126701
 20
6.6457424559
 10
-18.9037155313
 20
6.7311785822
 10
-19.1502318024
 20
6.7877822934
 10
-19.390931211
 20
6.8148990018
 10
-19.6259440294
 20
6.8131832951
 10
-19.8499744846
 20
6.7826728901
 10
-20.0627748834
 20
6.7227134966
 10
-20.2188654789
 20
6.6570702946
  0
LINE
  5
2AA
100
AcDbEntity
  8
DRAFT
100
AcDbLine
 62
7
  6
CONTINUOUS
 10
-15.4979575119
 20
-1.9347941494
 11
-15.4979575119
 21
1.5293074658
  0
LINE
  5
2AB
100
AcDbEntity
  8
0
100
AcDbLine
 62
7
  6
CONTINUOUS
 10
-45.8934219422
 20
-1.1973930461
 11
-44.4214564392
 21
-0.4167068448
  0
LWPOLYLINE
  5
2AC
100
AcDbEntity
  8
0
100
AcDbPolyline
 62
7
  6
CONTINUOUS
 90
30
 70
0
 10
-33.494782138
 20
7.251422545
 10
-33.452977517
 20
7.2725514508
 10
-33.2827344184
 20
7.378154159
 10
-33.1270080107
 20
7.508802136
 10
-32.9854778219
 20
7.6639379912
 10
-32.8613368257
 20
7.8400618717
 10
-32.754981189
 20
8.0376491165
 10
-32.6660147448
 20
8.2562243867
 10
-32.5964419659
 20
8.4908618125
 10
-32.5467028336
 20
8.7419271236
 10
-32.5163573666
 20
9.0090545903
 10
-32.5060900935
 20
9.2862211539
 10
-32.5163573666
 20
9.5736549907
 10
-32.5467028336
 20
9.8711279245
 10
-32.5964419659
 20
10.1719323678
 10
-32.6660147448
 20
10.4761425725
 10
-32.754981189
 20
10.7836842868
 10
-32.8613368257
 20
11.0876271684
 10
-32.9854778219
 20
11.3878920451
 10
-33.1270080107
 20
11.6845580891
 10
-33.2827344184
 20
11.9709324738
 10
-33.452977517
 20
12.2467782806
 10
-33.6374168344
 20
12.5123324281
 10
-33.8318979812
 20
12.7616128456
 10
-34.0366514932
 20
12.9942529632
 10
-34.2514468344
 20
13.2106193508
 10
-34.4714380078
 20
13.4058296476
 10
-34.6950096808
 20
13.5782564001
 10
-34.9237771858
 20
13.7295270619
 10
-35.1577405229
 20
13.8596416328
  0
LINE
  5
2AD
100
AcDbEntity
  8
0
100
AcDbLine
 62
250
  6
CONTINUOUS
 10
-46.9924509135
 20
-0.6478785604
 11
-45.481607224
 21
0.1133685476
  0
LINE
  5
2AE
100
AcDbEntity
  8
0
100
AcDbLine
 62
7
  6
CONTINUOUS
 10
-41.3712777932
 20
3.4352828558
 11
-43.5142228401
 21
2.3917792367
  0
LINE
  5
2AF
100
AcDbEntity
  8
0
100
AcDbLine
 62
7
  6
CONTINUOUS
 10
-33.4946122182
 20
7.2510788552
 11
-40.1066997573
 21
4.0357725061
  0
LINE
  5
2B0
100
AcDbEntity
  8
DRAFT
100
AcDbLine
 62
7
  6
CONTINUOUS
 10
-37.4821904966
 20
-0.0443336987
 11
-29.8781045546
 21
3.6533586963
  0
LINE
  5
2B1
100
AcDbEntity
  8
0
100
AcDbLine
 62
7
  6
CONTINUOUS
 10
-40.8719834672
 20
3.8962243497
 11
-41.3712777932
 21
3.6546446864
  0
LINE
  5
2B2
100
AcDbEntity
  8
0
100
AcDbLine
 62
7
  6
CONTINUOUS
 10
-43.5547166846
 20
2.3759820663
 11
-43.5142228401
 21
2.3917792367
  0
LWPOLYLINE
  5
2B3
100
AcDbEntity
  8
0
100
AcDbPolyline
 62
7
  6
CONTINUOUS
 90
4
 70
0
 10
13.5745121925
 20
-21.0541443742
 10
13.755141144
 20
-21.0567703441
 10
13.9383382496
 20
-21.0826065961
 10
14.1241035093
 20
-21.1316531303
  0
LWPOLYLINE
  5
2B4
100
AcDbEntity
  8
DRAFT
100
AcDbPolyline
 62
7
  6
CONTINUOUS
 90
4
 70
0
 10
18.9423428132
 20
-23.0362620083
 10
18.8807176278
 20
-23.0255736041
 10
18.7669015766
 20
-22.9905793942
 10
18.6530855254
 20
-22.9410513409
  0
LINE
  5
2B5
100
AcDbEntity
  8
0
100
AcDbLine
 62
7
  6
CONTINUOUS
 10
-46.9924509135
 20
-0.6478785604
 11
-45.8934219422
 21
-1.1973930461
  0
LINE
  5
2B6
100
AcDbEntity
  8
0
100
AcDbLine
 62
7
  6
CONTINUOUS
 10
17.7215050551
 20
-33.0048565447
 11
18.8205340264
 21
-33.5543710304
  0
LINE
  5
2B7
100
AcDbEntity
  8
0
100
AcDbLine
 62
7
  6
CONTINUOUS
 10
-45.481607224
 20
0.1133685476
 11
-44.4214564392
 21
-0.4167068448
  0
LINE
  5
2B8
100
AcDbEntity
  8
0
100
AcDbLine
 62
7
  6
CONTINUOUS
 10
19.2193880331
 20
-32.2371290809
 11
19.5275331118
 21
-32.3912016203
  0
LINE
  5
2B9
100
AcDbEntity
  8
DRAFT
100
AcDbLine
 62
7
  6
CONTINUOUS
 10
19.2193880331
 20
-29.0088433065
 11
15.5755750866
 21
-27.1869368332
  0
LINE
  5
2BA
100
AcDbEntity
  8
DRAFT
100
AcDbLine
 62
7
  6
CONTINUOUS
 10
13.5838910727
 20
-25.9312872051
 11
11.9002157651
 21
-25.0894495513
  0
LINE
  5
2BB
100
AcDbEntity
  8
DRAFT
100
AcDbLine
 62
7
  6
CONTINUOUS
 10
11.9002157651
 20
-24.4832317687
 11
-22.5776777263
 21
-7.244285023
  0
LWPOLYLINE
  5
2BC
100
AcDbEntity
  8
0
100
AcDbPolyline
 62
7
  6
CONTINUOUS
 90
5
 70
0
 10
-44.3006676683
 20
8.0559030959
 10
-44.2773697832
 20
8.0382353111
 10
-44.138894295
 20
7.9257368355
 10
-44.0021897198
 20
7.8018006618
 10
-43.8672560576
 20
7.6664267899
  0
LWPOLYLINE
  5
2BD
100
AcDbEntity
  8
DRAFT
100
AcDbPolyline
 62
7
  6
CONTINUOUS
 90
13
 70
0
 10
-52.127132578
 20
-9.2868155174
 10
-52.1593141791
 20
-9.3025421973
 10
-52.3529652197
 20
-9.415766056
 10
-52.5308616092
 20
-9.5530657113
 10
-52.6921996056
 20
-9.7145446873
 10
-52.8377829509
 20
-9.90009946
 10
-52.9653791389
 20
-10.1067757349
 10
-53.0749245988
 20
-10.335362461
 10
-53.1664829013
 20
-10.5850706894
 10
-53.238012252
 20
-10.8505792784
 10
-53.2888320529
 20
-11.1301145142
 10
-53.319622902
 20
-11.4254501106
 10
-53.3303847994
 20
-11.7365860676
  0
LINE
  5
2BE
100
AcDbEntity
  8
DRAFT
100
AcDbLine
 62
7
  6
CONTINUOUS
 10
-20.2190523636
 20
6.6574483006
 11
-27.0627777939
 21
3.3295017637
  0
LINE
  5
2BF
100
AcDbEntity
  8
DRAFT
100
AcDbLine
 62
250
  6
CONTINUOUS
 10
-53.3303847994
 20
-11.7365860676
 11
-49.4615348144
 21
-9.8685335667
  0
LINE
  5
2C0
100
AcDbEntity
  8
DRAFT
100
AcDbLine
 62
250
  6
CONTINUOUS
 10
-53.3303847994
 20
-14.334662279
 11
-47.8935142584
 21
-11.7094998532
  0
LWPOLYLINE
  5
2C1
100
AcDbEntity
  8
DRAFT
100
AcDbPolyline
 62
7
  6
CONTINUOUS
 90
12
 70
0
 10
-29.8781045546
 20
3.6533586963
 10
-29.6364451334
 20
3.7532548674
 10
-29.3612692681
 20
3.8285980695
 10
-29.0738069692
 20
3.8696403568
 10
-28.7743215471
 20
3.8763295203
 10
-28.4634636796
 20
3.8481516049
 10
-28.1443113191
 20
3.7848992467
 10
-27.8208216479
 20
3.6873645559
 10
-27.4964472308
 20
3.557080624
 10
-27.1720181324
 20
3.3948660748
 10
-26.8476437152
 20
3.2007755895
 10
-26.523055465
 20
2.9739968687
  0
LWPOLYLINE
  5
2C2
100
AcDbEntity
  8
0
100
AcDbPolyline
 62
7
  6
CONTINUOUS
 90
5
 70
0
 10
14.1241035093
 20
-21.1316531303
 10
14.3141498424
 20
-21.2047665434
 10
14.5067643295
 20
-21.3010902386
 10
14.696808213
 20
-21.4180544251
 10
14.8134689236
 20
-21.50129797
  0
LINE
  5
2C3
100
AcDbEntity
  8
0
100
AcDbLine
 62
7
  6
CONTINUOUS
 10
18.7322389365
 20
-23.6385320207
 11
18.8815981698
 21
-23.6961628169
  0
LWPOLYLINE
  5
2C4
100
AcDbEntity
  8
0
100
AcDbPolyline
 62
7
  6
CONTINUOUS
 90
7
 70
0
 10
-44.3597203803
 20
8.0579674767
 10
-44.5060175488
 20
8.1232552411
 10
-44.6511907238
 20
8.1723284288
 10
-44.7941258885
 20
8.2048104767
 10
-44.9337258668
 20
8.2204519773
 10
-45.0689187918
 20
8.2191328066
 10
-45.1986667819
 20
8.2008630978
  0
LWPOLYLINE
  5
2C5
100
AcDbEntity
  8
0
100
AcDbPolyline
 62
7
  6
CONTINUOUS
 90
7
 70
0
 10
14.7543937773
 20
-21.4991045883
 10
14.6081105082
 20
-21.4338093505
 10
14.4629481069
 20
-21.3847298466
 10
14.3200215433
 20
-21.3522430274
 10
14.1804281113
 20
-21.3365981854
 10
14.0452391038
 20
-21.3379153966
 10
13.9154922303
 20
-21.3561846218
  0
LWPOLYLINE
  5
2C6
100
AcDbEntity
  8
0
100
AcDbPolyline
 62
7
  6
CONTINUOUS
 90
5
 70
0
 10
-44.8459800236
 20
8.3721998946
 10
-44.7034217252
 20
8.3071045487
 10
-44.5608127472
 20
8.2295584446
 10
-44.4182058087
 20
8.1396157269
 10
-44.3006676683
 20
8.0559030959
  0
LINE
  5
2C7
100
AcDbEntity
  8
0
100
AcDbLine
 62
7
  6
CONTINUOUS
 10
17.8141768749
 20
-26.0470436051
 11
19.2193880331
 21
-26.7496491842
  0
LWPOLYLINE
  5
2C8
100
AcDbEntity
  8
DRAFT
100
AcDbPolyline
 62
7
  6
CONTINUOUS
 90
15
 70
0
 10
18.6530855254
 20
-22.9410513409
 10
18.5392694742
 20
-22.876763343
 10
18.425453423
 20
-22.7979415017
 10
18.3148803457
 20
-22.7065464559
 10
18.2071451354
 20
-22.6014825919
 10
18.102652899
 20
-22.4838455234
 10
18.0058619312
 20
-22.35888273
 10
17.9177769644
 20
-22.2274994435
 10
17.8373932663
 20
-22.088790432
 10
17.7661549339
 20
-21.9452874802
 10
17.7037383362
 20
-21.7956432377
 10
17.6504671043
 20
-21.6412050548
 10
17.6087562285
 20
-21.4885467675
 10
17.5794107055
 20
-21.3398596545
 10
17.5698314435
 20
-21.2607340141
  0
LINE
  5
2C9
100
AcDbEntity
  8
SMUSSO
100
AcDbLine
 62
7
  6
CONTINUOUS
 10
-26.523055465
 20
2.9739968687
 11
-25.6542253838
 21
2.3223743077
  0
LWPOLYLINE
  5
2CA
100
AcDbEntity
  8
DRAFT
100
AcDbPolyline
 62
7
  6
CONTINUOUS
 90
17
 70
0
 10
-25.6542253838
 20
2.3223743077
 10
-25.479541732
 20
2.1845827804
 10
-25.2324470768
 20
1.9656172387
 10
-24.9930828773
 20
1.7245042596
 10
-24.7632708395
 20
1.4630788584
 10
-24.5447599717
 20
1.1833306402
 10
-24.3392132737
 20
0.8873886578
 10
-24.14819508
 20
0.5775052086
 10
-23.9731591542
 20
0.2560386925
 10
-23.8154376255
 20
-0.074564336
 10
-23.67623085
 20
-0.4117877884
 10
-23.5565982753
 20
-0.7530651904
 10
-23.4574503775
 20
-1.0957992151
 10
-23.379541732
 20
-1.4373814496
 10
-23.3234652706
 20
-1.7752122467
 10
-23.2896477691
 20
-2.1067205101
 10
-23.278346599
 20
-2.4293832619
  0
LWPOLYLINE
  5
2CB
100
AcDbEntity
  8
DRAFT
100
AcDbPolyline
 62
7
  6
CONTINUOUS
 90
18
 70
0
 10
-26.523055465
 20
2.9739968687
 10
-26.2050016835
 20
2.7189206069
 10
-25.894143816
 20
2.4362406547
 10
-25.5946583939
 20
2.1300660692
 10
-25.307196095
 20
1.801561483
 10
-25.0320202297
 20
1.4510424156
 10
-24.7701501156
 20
1.0793169221
 10
-24.5243800154
 20
0.6898311615
 10
-24.2974828735
 20
0.2869490863
 10
-24.0913711557
 20
-0.125438867
 10
-23.9065817477
 20
-0.545718328
 10
-23.7435991661
 20
-0.9727416997
 10
-23.6033217684
 20
-1.4046587833
 10
-23.487131911
 20
-1.8378017888
 10
-23.3960926985
 20
-2.2683146369
 10
-23.3307775095
 20
-2.6930660361
 10
-23.2914649619
 20
-3.1096604548
 10
-23.278346599
 20
-3.5154208634
  0
LINE
  5
2CC
100
AcDbEntity
  8
ASSI
100
AcDbLine
 62
7
  6
CONTINUOUS
 10
4.5188836397
 20
-47.5196175398
 11
5.0432740287
 21
-49.0208248872
  0
LINE
  5
2CD
100
AcDbEntity
  8
ASSI
100
AcDbLine
 62
7
  6
CONTINUOUS
 10
4.660304996
 20
-47.4489068617
 11
5.1846953849
 21
-48.950114209
  0
LINE
  5
2CE
100
AcDbEntity
  8
ASSI
100
AcDbLine
 62
7
  6
CONTINUOUS
 10
5.6326666227
 20
-49.3155133899
 11
5.07566278
 21
-47.7209337253
  0
LINE
  5
2CF
100
AcDbEntity
  8
ASSI
100
AcDbLine
 62
7
  6
CONTINUOUS
 10
-5.5203122623
 20
-40.5346017817
 11
-4.6802722347
 21
-44.15906821
  0
LINE
  5
2D0
100
AcDbEntity
  8
ASSI
100
AcDbLine
 62
7
  6
CONTINUOUS
 10
-5.3418175447
 20
-40.6238491405
 11
-4.5388508785
 21
-44.0883575318
  0
LINE
  5
2D1
100
AcDbEntity
  8
ASSI
100
AcDbLine
 62
7
  6
CONTINUOUS
 10
-4.4186165627
 20
-43.2918788444
 11
-4.9970270813
 21
-40.7962443722
  0
LINE
  5
2D2
100
AcDbEntity
  8
ASSI
100
AcDbLine
 62
7
  6
CONTINUOUS
 10
-0.6418963119
 20
-45.0606547179
 11
-1.130483056
 21
-42.7295163848
  0
LINE
  5
2D3
100
AcDbEntity
  8
ASSI
100
AcDbLine
 62
7
  6
CONTINUOUS
 10
-1.3982608586
 20
-43.6869537263
 11
-0.9035321849
 21
-46.0474304406
  0
LINE
  5
2D4
100
AcDbEntity
  8
ASSI
100
AcDbLine
 62
7
  6
CONTINUOUS
 10
-1.2568395023
 20
-43.6162430482
 11
-0.7621108286
 21
-45.9767197625
  0
LINE
  5
2D5
100
AcDbEntity
  8
ASSI
100
AcDbLine
 62
7
  6
CONTINUOUS
 10
-2.9680768037
 20
-41.810719511
 11
-2.9680831676
 21
-45.0151627435
  0
LWPOLYLINE
  5
2D6
100
AcDbEntity
  8
DRAFT
100
AcDbPolyline
 62
7
  6
CONTINUOUS
 90
11
 70
0
 10
-16.5493554026
 20
-4.1460503149
 10
-16.3477437198
 20
-4.0225455885
 10
-16.1773492755
 20
-3.8795934576
 10
-16.0224898879
 20
-3.7098472156
 10
-15.8866578157
 20
-3.5171368996
 10
-15.770286257
 20
-3.3009427215
 10
-15.6729420139
 20
-3.0617844695
 10
-15.5968177513
 20
-2.805051546
 10
-15.5426443576
 20
-2.5325404186
 10
-15.5096909445
 20
-2.2424546197
 10
-15.4979575119
 20
-1.9347941494
  0
LWPOLYLINE
  5
2D7
100
AcDbEntity
  8
DRAFT
100
AcDbPolyline
 62
7
  6
CONTINUOUS
 90
12
 70
0
 10
-48.1031032912
 20
-19.9329550561
 10
-47.9438433484
 20
-19.837462806
 10
-47.7659469589
 20
-19.7001631507
 10
-47.6046089625
 20
-19.5386841746
 10
-47.4590256172
 20
-19.353129402
 10
-47.3314294292
 20
-19.1464531271
 10
-47.2218839694
 20
-18.9178664009
 10
-47.1303256669
 20
-18.6681581726
 10
-47.0587963161
 20
-18.4026495835
 10
-47.0079765152
 20
-18.1231143478
 10
-46.9771856661
 20
-17.8277787514
 10
-46.9664237687
 20
-17.5166427943
  0
LINE
  5
2D8
100
AcDbEntity
  8
DRAFT
100
AcDbLine
 62
250
  6
CONTINUOUS
 10
-15.4979575119
 20
1.5293074658
 11
-23.278346599
 21
-2.4293832619
  0
LINE
  5
2D9
100
AcDbEntity
  8
DRAFT
100
AcDbLine
 62
250
  6
CONTINUOUS
 10
-37.4821904966
 20
-10.7423891429
 11
-23.278346599
 21
-3.5154208634
  0
LINE
  5
2DA
100
AcDbEntity
  8
DRAFT
100
AcDbLine
 62
250
  6
CONTINUOUS
 10
-15.4979575119
 20
-1.9347941494
 11
-23.278346599
 21
-5.893484877
  0
LINE
  5
2DB
100
AcDbEntity
  8
DRAFT
100
AcDbLine
 62
250
  6
CONTINUOUS
 10
-41.9712712255
 20
-16.4905516267
 11
-23.278346599
 21
-6.9795224786
  0
LINE
  5
2DC
100
AcDbEntity
  8
DRAFT
100
AcDbLine
 62
7
  6
CONTINUOUS
 10
-45.8934219422
 20
-12.8507302902
 11
-44.4915500346
 21
-12.1437136763
  0
LINE
  5
2DD
100
AcDbEntity
  8
0
100
AcDbLine
 62
7
  6
CONTINUOUS
 10
19.2193880331
 20
-20.404100902
 11
17.8141768749
 21
-19.7014953229
  0
LINE
  5
2DE
100
AcDbEntity
  8
0
100
AcDbLine
 62
7
  6
CONTINUOUS
 10
-43.06435724
 20
10.7377717345
 11
-44.4214564392
 21
11.4163213341
  0
LINE
  5
2DF
100
AcDbEntity
  8
0
100
AcDbLine
 62
7
  6
CONTINUOUS
 10
18.8205340264
 20
-16.1703735302
 11
17.7215050551
 21
-15.6208590445
  0
LINE
  5
2E0
100
AcDbEntity
  8
0
100
AcDbLine
 62
7
  6
CONTINUOUS
 10
-45.8934219422
 20
16.1866044541
 11
-46.9924509135
 21
16.7361189398
  0
LWPOLYLINE
  5
2E1
100
AcDbEntity
  8
0
100
AcDbPolyline
 62
7
  6
CONTINUOUS
 90
4
 70
0
 10
14.8134689236
 20
-21.50129797
 10
14.8825685736
 20
-21.5548025061
 10
15.0657583306
 20
-21.7121910784
 10
15.246377484
 20
-21.890220142
  0
LINE
  5
2E2
100
AcDbEntity
  8
0
100
AcDbLine
 62
7
  6
CONTINUOUS
 10
15.246377484
 20
-21.890220142
 11
15.3268650035
 21
-21.9589436447
  0
LINE
  5
2E3
100
AcDbEntity
  8
0
100
AcDbLine
 62
7
  6
CONTINUOUS
 10
13.6537262179
 20
-21.1222677524
 11
13.5745121925
 21
-21.0541443742
  0
LWPOLYLINE
  5
2E4
100
AcDbEntity
  8
0
100
AcDbPolyline
 62
7
  6
CONTINUOUS
 90
7
 70
0
 10
15.3268650035
 20
-21.9589436447
 10
15.405437453
 20
-22.0270965946
 10
15.4440064577
 20
-22.0609584016
 10
15.4820724855
 20
-22.0946960476
 10
15.5196280876
 20
-22.1283152179
 10
15.5566807128
 20
-22.1618102272
 10
15.5932303612
 20
-22.1951810754
  0
LWPOLYLINE
  5
2E5
100
AcDbEntity
  8
0
100
AcDbPolyline
 62
7
  6
CONTINUOUS
 90
7
 70
0
 10
13.9154922303
 20
-21.3561846218
 10
13.8796108748
 20
-21.3231661056
 10
13.8432229121
 20
-21.2900164946
 10
13.8063283423
 20
-21.2567357886
 10
13.7689201275
 20
-21.2233296983
 10
13.7310053056
 20
-21.1897925132
 10
13.6537262179
 20
-21.1222677524
  0
LWPOLYLINE
  5
2E6
100
AcDbEntity
  8
0
100
AcDbPolyline
 62
250
  6
CONTINUOUS
 90
21
 70
0
 10
14.0102876504
 20
-26.5859639176
 10
14.0864359233
 20
-26.6687316596
 10
14.1650180435
 20
-26.742957735
 10
14.2460589924
 20
-26.8083831631
 10
14.3295337888
 20
-26.8652669246
 10
14.4131218336
 20
-26.9119512114
 10
14.4968463274
 20
-26.94821175
 10
14.5806840697
 20
-26.9742728139
 10
14.6622448598
 20
-26.9891494162
 10
14.7417199888
 20
-26.992369073
 10
14.8189181656
 20
-26.9844042681
 10
14.8908753168
 20
-26.9656874652
 10
14.957144362
 20
-26.9356588646
 10
15.0181723815
 20
-26.894878266
 10
15.0723365431
 20
-26.8454575326
 10
15.1191732109
 20
-26.7877242495
 10
15.1591460207
 20
-26.7213508316
 10
15.1920230476
 20
-26.6474663864
 10
15.2177269832
 20
-26.5664472833
 10
15.2363351358
 20
-26.4779171529
 10
15.2478475055
 20
-26.3818759953
  0
LWPOLYLINE
  5
2E7
100
AcDbEntity
  8
0
100
AcDbPolyline
 62
7
  6
CONTINUOUS
 90
13
 70
0
 10
13.9155050419
 20
-24.8968678826
 10
14.0452459921
 20
-25.0448882544
 10
14.1804318432
 20
-25.1814018173
 10
14.3200247073
 20
-25.3053605698
 10
14.4629529076
 20
-25.4158130212
 10
14.6081191056
 20
-25.5119111391
 10
14.7544086864
 20
-25.5929169182
 10
14.900698286
 20
-25.658208479
 10
15.0458650474
 20
-25.707284896
 10
15.1887950729
 20
-25.7397695253
 10
15.3283912305
 20
-25.7554129385
 10
15.4635816197
 20
-25.7540950381
 10
15.5933283635
 20
-25.7358259565
  0
LINE
  5
2E8
100
AcDbEntity
  8
ASSI
100
AcDbLine
 62
7
  6
CONTINUOUS
 10
2.0882797398
 20
-45.3369071901
 11
2.3418835869
 21
-46.4311175134
  0
LINE
  5
2E9
100
AcDbEntity
  8
ASSI
100
AcDbLine
 62
7
  6
CONTINUOUS
 10
2.5015037504
 20
-47.1197677027
 11
2.6666966224
 21
-47.832536184
  0
LINE
  5
2EA
100
AcDbEntity
  8
ASSI
100
AcDbLine
 62
7
  6
CONTINUOUS
 10
2.2297010961
 20
-45.266196512
 11
2.4833049431
 21
-46.3604068353
  0
LINE
  5
2EB
100
AcDbEntity
  8
ASSI
100
AcDbLine
 62
7
  6
CONTINUOUS
 10
2.6429251066
 20
-47.0490570246
 11
2.8081179786
 21
-47.7618255059
  0
LINE
  5
2EC
100
AcDbEntity
  8
ASSI
100
AcDbLine
 62
7
  6
CONTINUOUS
 10
3.1899818034
 20
-48.0941874348
 11
2.3499354118
 21
-44.4697178245
  0
LINE
  5
2ED
100
AcDbEntity
  8
ASSI
100
AcDbLine
 62
7
  6
CONTINUOUS
 10
-2.8266557283
 20
-41.8814300487
 11
-2.8266618114
 21
-44.9444520654
  0
LINE
  5
2EE
100
AcDbEntity
  8
ASSI
100
AcDbLine
 62
7
  6
CONTINUOUS
 10
-2.4448050577
 20
-45.2767940043
 11
-2.4447979866
 21
-42.0723589195
  0
LINE
  5
2EF
100
AcDbEntity
  8
ASSI
100
AcDbLine
 62
7
  6
CONTINUOUS
 10
-1.9215389685
 20
-42.3339884286
 11
-1.9215389685
 21
-45.5384270488
  0
LINE
  5
2F0
100
AcDbEntity
  8
ASSI
100
AcDbLine
 62
7
  6
CONTINUOUS
 10
-1.7801176123
 20
-42.4046991067
 11
-1.7801176123
 21
-45.4677163707
  0
LINE
  5
2F1
100
AcDbEntity
  8
ASSI
100
AcDbLine
 62
7
  6
CONTINUOUS
 10
-1.3982608586
 20
-45.8000661038
 11
-1.3982608586
 21
-43.6869537263
  0
LINE
  5
2F2
100
AcDbEntity
  8
ASSI
100
AcDbLine
 62
7
  6
CONTINUOUS
 10
0.1144618708
 20
-44.443315091
 11
0.1144682348
 21
-46.5564306505
  0
LINE
  5
2F3
100
AcDbEntity
  8
ASSI
100
AcDbLine
 62
7
  6
CONTINUOUS
 10
0.2558832271
 20
-44.3726044128
 11
0.255889591
 21
-46.4857199724
  0
LINE
  5
2F4
100
AcDbEntity
  8
ASSI
100
AcDbLine
 62
7
  6
CONTINUOUS
 10
0.6377470519
 20
-46.818070059
 11
0.6377470519
 21
-43.6136314388
  0
LINE
  5
2F5
100
AcDbEntity
  8
DRAFT
100
AcDbLine
 62
7
  6
CONTINUOUS
 10
-16.5491835925
 20
-4.1463908566
 11
-23.3177685261
 21
-7.6245993969
  0
LINE
  5
2F6
100
AcDbEntity
  8
DRAFT
100
AcDbLine
 62
7
  6
CONTINUOUS
 10
-40.7996572016
 20
-18.3197871117
 11
-24.7478865906
 21
-10.0711788468
  0
LINE
  5
2F7
100
AcDbEntity
  8
DRAFT
100
AcDbLine
 62
7
  6
CONTINUOUS
 10
-42.3651176102
 20
-18.9361550914
 11
-40.9560161286
 21
-18.2416076482
  0
LINE
  5
2F8
100
AcDbEntity
  8
0
100
AcDbLine
 62
7
  6
CONTINUOUS
 10
-35.1577405229
 20
13.8596416328
 11
-37.4821904966
 21
15.0218666197
  0
LWPOLYLINE
  5
2F9
100
AcDbEntity
  8
0
100
AcDbPolyline
 62
7
  6
CONTINUOUS
 90
4
 70
0
 10
17.8141768749
 20
-20.6410545209
 10
17.9841334732
 20
-20.8369902068
 10
18.1423278436
 20
-21.0433647813
 10
18.288759986
 20
-21.2601782444
  0
LWPOLYLINE
  5
2FA
100
AcDbEntity
  8
0
100
AcDbPolyline
 62
7
  6
CONTINUOUS
 90
8
 70
0
 10
16.2265234148
 20
-23.6771978869
 10
16.1912462968
 20
-23.6310665259
 10
16.0452583072
 20
-23.4144369344
 10
15.9099402049
 20
-23.18536815
 10
15.7863624101
 20
-22.9459287155
 10
15.677736184
 20
-22.7023242586
 10
15.5844410323
 20
-22.4544087609
 10
15.5060974494
 20
-22.2023282408
  0
LWPOLYLINE
  5
2FB
100
AcDbEntity
  8
0
100
AcDbPolyline
 62
7
  6
CONTINUOUS
 90
10
 70
0
 10
16.8853185724
 20
-23.329305381
 10
16.7698491623
 20
-23.1756230899
 10
16.6614751692
 20
-23.0138943375
 10
16.5609667857
 20
-22.8452905968
 10
16.4690477779
 20
-22.6710537764
 10
16.3863533032
 20
-22.4924181979
 10
16.3134380011
 20
-22.3105964043
 10
16.2508244777
 20
-22.1268913862
 10
16.1989618814
 20
-21.9426207115
 10
16.1921547395
 20
-21.9119558871
  0
LWPOLYLINE
  5
2FC
100
AcDbEntity
  8
0
100
AcDbPolyline
 62
7
  6
CONTINUOUS
 90
17
 70
0
 10
13.6478930357
 20
-26.2159652814
 10
13.7229811951
 20
-26.3604363008
 10
13.8115300805
 20
-26.5055009425
 10
13.9095406106
 20
-26.6428981102
 10
14.0161131426
 20
-26.7710941751
 10
14.1313353185
 20
-26.8896320236
 10
14.2540355404
 20
-26.9965591854
 10
14.3812717011
 20
-27.0890548537
 10
14.5124469552
 20
-27.1667065412
 10
14.646750472
 20
-27.2288778175
 10
14.7804659265
 20
-27.2741249143
 10
14.9113439536
 20
-27.3026351904
 10
15.0396136858
 20
-27.315352774
 10
15.1647359839
 20
-27.3127788541
 10
15.2855663046
 20
-27.2953947581
 10
15.4006752984
 20
-27.2639382333
 10
15.5088827752
 20
-27.2193677729
  0
LWPOLYLINE
  5
2FD
100
AcDbEntity
  8
0
100
AcDbPolyline
 62
7
  6
CONTINUOUS
 90
11
 70
0
 10
13.6480868244
 20
-26.2157518126
 10
13.6329305621
 20
-26.1807894769
 10
13.6157798682
 20
-26.1275092348
 10
13.6022370247
 20
-26.067931662
 10
13.591604768
 20
-26.0038404135
 10
13.5841331519
 20
-25.935171418
 10
13.5795721226
 20
-25.861988747
 10
13.5764742546
 20
-25.7862682693
 10
13.5743570726
 20
-25.7086686081
 10
13.573703052
 20
-25.6285311404
 10
13.5745121926
 20
-25.5458558661
  0
LINE
  5
2FE
100
AcDbEntity
  8
ASSI
100
AcDbLine
 62
7
  6
CONTINUOUS
 10
3.5388322268
 20
-45.064166232
 11
3.5388322268
 21
-48.2686039862
  0
LINE
  5
2FF
100
AcDbEntity
  8
ASSI
100
AcDbLine
 62
7
  6
CONTINUOUS
 10
3.680253583
 20
-45.1348769101
 11
3.680253583
 21
-48.1978933081
  0
LINE
  5
300
100
AcDbEntity
  8
ASSI
100
AcDbLine
 62
7
  6
CONTINUOUS
 10
4.0549027973
 20
-46.6948006868
 11
4.0548964334
 21
-45.9150161069
  0
LINE
  5
301
100
AcDbEntity
  8
ASSI
100
AcDbLine
 62
7
  6
CONTINUOUS
 10
4.0621174078
 20
-48.5302465767
 11
4.0621760977
 21
-47.2912559746
  0
LINE
  5
302
100
AcDbEntity
  8
ASSI
100
AcDbLine
 62
7
  6
CONTINUOUS
 10
-3.8402124081
 20
-41.3746517088
 11
-4.4186165627
 21
-43.2918788444
  0
LINE
  5
303
100
AcDbEntity
  8
ASSI
100
AcDbLine
 62
7
  6
CONTINUOUS
 10
-3.7358639384
 20
-41.4268259436
 11
-4.2771952065
 21
-43.2211681662
  0
LWPOLYLINE
  5
304
100
AcDbEntity
  8
DRAFT
100
AcDbPolyline
 62
7
  6
CONTINUOUS
 90
32
 70
0
 10
17.5226563231
 20
3.0870266234
 10
17.3923727819
 20
3.0183220383
 10
17.2076421858
 20
2.8928096456
 10
17.0361375861
 20
2.7413888267
 10
16.8819133683
 20
2.5677197764
 10
16.7457637383
 20
2.372023221
 10
16.6268944902
 20
2.1540784342
 10
16.5269773928
 20
1.9168834324
 10
16.4460586923
 20
1.6591282503
 10
16.3840921424
 20
1.3821228533
 10
16.3426107725
 20
1.0927951536
 10
16.3221255925
 20
0.7920679805
 10
16.3221255925
 20
0.4790185048
 10
16.3426107725
 20
0.1578061517
 10
16.3840921424
 20
-0.1730029178
 10
16.4460586923
 20
-0.5119748648
 10
16.5269773928
 20
-0.8506487473
 10
16.6268944902
 20
-1.1877608466
 10
16.7457637383
 20
-1.5245748814
 10
16.8819133683
 20
-1.8564210669
 10
17.0361375861
 20
-2.1843143349
 10
17.2076421858
 20
-2.5072397536
 10
17.3923727819
 20
-2.8174827423
 10
17.5900857749
 20
-3.1139371225
 10
17.8010247642
 20
-3.3977090727
 10
18.0218661616
 20
-3.6644025482
 10
18.2532281887
 20
-3.9142488019
 10
18.4944926239
 20
-4.1470165809
 10
18.7404812142
 20
-4.3576160815
 10
18.9894678753
 20
-4.5443507026
 10
19.2431786915
 20
-4.7089170452
 10
19.5016136628
 20
-4.8513151095
  0
LINE
  5
305
100
AcDbEntity
  8
RACCORDO
100
AcDbLine
 62
250
  6
CONTINUOUS
 10
28.7698492928
 20
6.6918405793
 11
60.3724044625
 21
22.554564614
  0
LWPOLYLINE
  5
306
100
AcDbEntity
  8
0
100
AcDbPolyline
 62
7
  6
CONTINUOUS
 90
13
 70
0
 10
-43.8662978831
 20
3.1750993862
 10
-44.0018830513
 20
3.1747666065
 10
-44.1390784475
 20
3.1876288813
 10
-44.2778840719
 20
3.2136862106
 10
-44.4188376652
 20
3.2532042993
 10
-44.5614014866
 20
3.3059174424
 10
-44.7039623136
 20
3.371028525
 10
-44.846572173
 20
3.4485916281
 10
-44.9891790379
 20
3.5385526706
 10
-45.1300136059
 20
3.6399522946
 10
-45.2684861092
 20
3.7524707139
 10
-45.4051863156
 20
3.8764277146
 10
-45.5401142249
 20
4.0118232967
  0
LWPOLYLINE
  5
307
100
AcDbEntity
  8
0
100
AcDbPolyline
 62
7
  6
CONTINUOUS
 90
5
 70
0
 10
-40.8719834672
 20
3.8962243497
 10
-40.6502573854
 20
3.8957060978
 10
-40.4406113987
 20
3.923062915
 10
-40.243045507
 20
3.978294801
 10
-40.1069057254
 20
4.0361872632
  0
LWPOLYLINE
  5
308
100
AcDbEntity
  8
DRAFT
100
AcDbPolyline
 62
7
  6
CONTINUOUS
 90
19
 70
0
 10
-40.0151009918
 20
6.5096404717
 10
-40.1228362021
 20
6.512311818
 10
-40.2334092794
 20
6.5314898495
 10
-40.3472253306
 20
6.5664840594
 10
-40.4610413818
 20
6.6160121127
 10
-40.574857433
 20
6.6803001106
 10
-40.6886734842
 20
6.7591219519
 10
-40.7992465615
 20
6.8505169977
 10
-40.9069817718
 20
6.9555808617
 10
-41.0114740082
 20
7.0732179302
 10
-41.108264976
 20
7.1981807236
 10
-41.1963499428
 20
7.3295640101
 10
-41.2767336409
 20
7.4682730216
 10
-41.3479719733
 20
7.6117759734
 10
-41.410388571
 20
7.7614202159
 10
-41.4636598029
 20
7.9158583988
 10
-41.5053706787
 20
8.0685166861
 10
-41.5347162017
 20
8.2172037991
 10
-41.5442954549
 20
8.2963293664
  0
LWPOLYLINE
  5
309
100
AcDbEntity
  8
DRAFT
100
AcDbPolyline
 62
7
  6
CONTINUOUS
 90
10
 70
0
 10
21.6229340064
 20
-5.9119752813
 10
21.8813689777
 20
-6.0280121883
 10
22.1350797939
 20
-6.1171566619
 10
22.384066455
 20
-6.1794087019
 10
22.6300550453
 20
-6.2147977916
 10
22.8713194805
 20
-6.2232944478
 10
23.1026815076
 20
-6.2048102212
 10
23.3235229049
 20
-6.1589581431
 10
23.5344618942
 20
-6.0861251821
 10
23.6685544934
 20
-6.0227886814
  0
LWPOLYLINE
  5
30A
100
AcDbEntity
  8
DRAFT
100
AcDbPolyline
 62
7
  6
CONTINUOUS
 90
10
 70
0
 10
-47.6735305499
 20
28.7362569968
 10
-47.4150955786
 20
28.6202200898
 10
-47.1613847624
 20
28.5310756162
 10
-46.9123981013
 20
28.4688235762
 10
-46.666409511
 20
28.4334344865
 10
-46.4251450758
 20
28.4249378303
 10
-46.1937830487
 20
28.443422057
 10
-45.9729416513
 20
28.4892741351
 10
-45.762002662
 20
28.562107096
 10
-45.6279100628
 20
28.6254435967
  0
LINE
  5
30B
100
AcDbEntity
  8
DRAFT
100
AcDbLine
 62
7
  6
CONTINUOUS
 10
-49.7948508935
 20
29.7969171686
 11
-47.6735305499
 21
28.7362569968
  0
LINE
  5
30C
100
AcDbEntity
  8
DRAFT
100
AcDbLine
 62
7
  6
CONTINUOUS
 10
19.5016136628
 20
-4.8513151095
 11
21.6229340064
 21
-5.9119752813
  0
LWPOLYLINE
  5
30D
100
AcDbEntity
  8
0
100
AcDbPolyline
 62
7
  6
CONTINUOUS
 90
23
 70
0
 10
17.742849114
 20
-19.5923143618
 10
17.6829183659
 20
-19.4995537275
 10
17.6204529162
 20
-19.4105388101
 10
17.5554527648
 20
-19.3252696096
 10
17.4876530298
 20
-19.2434520766
 10
17.4173185932
 20
-19.1653802605
 10
17.3452441006
 20
-19.0919363093
 10
17.2714093325
 20
-19.0231723493
 10
17.1958345084
 20
-18.9590362543
 10
17.1193749328
 20
-18.9002537942
 10
17.0420216416
 20
-18.8468863007
 10
16.9637835989
 20
-18.7988724421
 10
16.8855430014
 20
-18.7567539933
 10
16.8072997278
 20
-18.7205971186
 10
16.7290538993
 20
-18.6903356536
 10
16.6516880767
 20
-18.6663128804
 10
16.5752126811
 20
-18.6485986199
 10
16.4996172914
 20
-18.6371230513
 10
16.4257532042
 20
-18.6320199936
 10
16.3536390222
 20
-18.633360283
 10
16.2832561429
 20
-18.6410730833
 10
16.2154000551
 20
-18.6550797061
 10
16.1503359221
 20
-18.6753539218
  0
LWPOLYLINE
  5
30E
100
AcDbEntity
  8
0
100
AcDbPolyline
 62
7
  6
CONTINUOUS
 90
10
 70
0
 10
18.288759986
 20
-21.2601782444
 10
18.4245072308
 20
-21.4895081427
 10
18.5484922478
 20
-21.7292769296
 10
18.6574830455
 20
-21.9732519646
 10
18.7510986518
 20
-22.2215833048
 10
18.8297200389
 20
-22.4741208931
 10
18.8912581324
 20
-22.7241819185
 10
18.9352499535
 20
-22.9716771614
 10
18.962158481
 20
-23.2166958414
 10
18.9712835769
 20
-23.452822815
  0
LWPOLYLINE
  5
30F
100
AcDbEntity
  8
0
100
AcDbPolyline
 62
250
  6
CONTINUOUS
 90
22
 70
0
 10
15.246377484
 20
-21.5025692884
 10
15.1997869358
 20
-21.3707087072
 10
15.1450601601
 20
-21.2432790609
 10
15.0821971569
 20
-21.1202803496
 10
15.0101678247
 20
-21.0001230342
 10
14.930002265
 20
-20.8843966539
 10
14.8447907823
 20
-20.7778698257
 10
14.7544984385
 20
-20.6811558992
 10
14.6591601717
 20
-20.593641525
 10
14.5619711
 20
-20.5182552716
 10
14.4628074963
 20
-20.455355752
 10
14.3617930876
 20
-20.4045843534
 10
14.2624941729
 20
-20.3677938057
 10
14.1649690098
 20
-20.3454976324
 10
14.0691593407
 20
-20.3371823102
 10
13.9784566915
 20
-20.3431599991
 10
13.8930196851
 20
-20.3640224207
 10
13.8126896986
 20
-20.3991778535
 10
13.7403823903
 20
-20.4471632926
 10
13.6770696462
 20
-20.5074910697
 10
13.6217795803
 20
-20.5806488531
 10
13.5745121925
 20
-20.6666366427
  0
LWPOLYLINE
  5
310
100
AcDbEntity
  8
0
100
AcDbPolyline
 62
250
  6
CONTINUOUS
 90
11
 70
0
 10
13.5740184674
 20
-25.5453332701
 10
13.5848651091
 20
-25.6527441801
 10
13.6034208787
 20
-25.7605857439
 10
13.6296857763
 20
-25.8688579613
 10
13.66404306
 20
-25.9786884523
 10
13.7061094718
 20
-26.0889495969
 10
13.7547352371
 20
-26.1962585359
 10
13.8101637149
 20
-26.3005392196
 10
13.8721515462
 20
-26.4018676976
 10
13.9388188799
 20
-26.4970892593
 10
14.0102876504
 20
-26.5859639176
  0
LINE
  5
311
100
AcDbEntity
  8
DRAFT
100
AcDbLine
 62
7
  6
CONTINUOUS
 10
11.9002157651
 20
-25.0894495513
 11
11.9002157651
 21
-24.4832317687
  0
LINE
  5
312
100
AcDbEntity
  8
0
100
AcDbLine
 62
7
  6
CONTINUOUS
 10
13.5745121925
 20
-20.6666366427
 11
13.5745121925
 21
-21.0541443742
  0
LWPOLYLINE
  5
313
100
AcDbEntity
  8
0
100
AcDbPolyline
 62
7
  6
CONTINUOUS
 90
16
 70
0
 10
13.5745121925
 20
-20.6666366427
 10
13.5750622603
 20
-20.5877041925
 10
13.5789750012
 20
-20.5104863245
 10
13.5862504153
 20
-20.4349830388
 10
13.5967507267
 20
-20.3608814166
 10
13.6106137113
 20
-20.2884943766
 10
13.6282526963
 20
-20.2187606754
 10
13.6500324539
 20
-20.151326492
 10
13.6755882119
 20
-20.0865456473
 10
13.7042389804
 20
-20.0264183612
 10
13.7363057872
 20
-19.9709798851
 10
13.7714676045
 20
-19.9201949675
 10
13.8080803587
 20
-19.8759580742
 10
13.8455960254
 20
-19.8389006938
 10
13.8845626289
 20
-19.8083913375
 10
13.9087909984
 20
-19.7931415152
  0
LINE
  5
314
100
AcDbEntity
  8
ASSI
100
AcDbLine
 62
7
  6
CONTINUOUS
 10
-0.1533095677
 20
-43.218103129
 11
-0.6418963119
 21
-45.0606547179
  0
LINE
  5
315
100
AcDbEntity
  8
ASSI
100
AcDbLine
 62
7
  6
CONTINUOUS
 10
-0.0449987689
 20
-43.2722585284
 11
-0.5004749556
 21
-44.9899440398
  0
LINE
  5
316
100
AcDbEntity
  8
ASSI
100
AcDbLine
 62
7
  6
CONTINUOUS
 10
-0.3802668028
 20
-46.3090544714
 11
0.1144618708
 21
-44.443315091
  0
LINE
  5
317
100
AcDbEntity
  8
ASSI
100
AcDbLine
 62
7
  6
CONTINUOUS
 10
-4.1569736186
 20
-44.4207097238
 11
-3.316927227
 21
-41.6362942993
  0
LINE
  5
318
100
AcDbEntity
  8
ASSI
100
AcDbLine
 62
7
  6
CONTINUOUS
 10
1.8266304318
 20
-44.2080653345
 11
0.9865974753
 21
-46.9924952707
  0
LINE
  5
319
100
AcDbEntity
  8
DRAFT
100
AcDbLine
 62
250
  6
CONTINUOUS
 10
19.5016136628
 20
-4.8513151095
 11
24.6137136072
 21
-2.1859786583
  0
LINE
  5
31A
100
AcDbEntity
  8
RACCORDO
100
AcDbLine
 62
250
  6
CONTINUOUS
 10
29.2648051925
 20
5.8381679297
 11
60.8673603622
 21
21.7008919644
  0
LWPOLYLINE
  5
31B
100
AcDbEntity
  8
0
100
AcDbPolyline
 62
7
  6
CONTINUOUS
 90
6
 70
0
 10
-45.5410842303
 20
8.5029661307
 10
-45.4054955043
 20
8.5033052699
 10
-45.2682981018
 20
8.4904513147
 10
-45.1294920226
 20
8.4644042649
 10
-44.9885403614
 20
8.424898627
 10
-44.8459800236
 20
8.3721998946
  0
LWPOLYLINE
  5
31C
100
AcDbEntity
  8
DRAFT
100
AcDbPolyline
 62
7
  6
CONTINUOUS
 90
10
 70
0
 10
19.5016136628
 20
2.9429135245
 10
19.2431786915
 20
3.0589504316
 10
18.9894678753
 20
3.1480949051
 10
18.7404812142
 20
3.2103469452
 10
18.4944926239
 20
3.2457360349
 10
18.2532281887
 20
3.254232691
 10
18.0218661616
 20
3.2357484644
 10
17.8010247642
 20
3.1898963863
 10
17.5900857749
 20
3.1170634254
 10
17.5226563231
 20
3.0870266234
  0
LINE
  5
31D
100
AcDbEntity
  8
DRAFT
100
AcDbLine
 62
7
  6
CONTINUOUS
 10
14.1932007231
 20
2.1179030008
 11
-42.3651176102
 21
30.3970621675
  0
LINE
  5
31E
100
AcDbEntity
  8
DRAFT
100
AcDbLine
 62
7
  6
CONTINUOUS
 10
21.6229340064
 20
1.8822533528
 11
19.5016136628
 21
2.9429135245
  0
LINE
  5
31F
100
AcDbEntity
  8
DRAFT
100
AcDbLine
 62
7
  6
CONTINUOUS
 10
-47.6735305499
 20
36.5304856309
 11
-49.7948508935
 21
37.5911458027
  0
LWPOLYLINE
  5
320
100
AcDbEntity
  8
DRAFT
100
AcDbPolyline
 62
7
  6
CONTINUOUS
 90
25
 70
0
 10
17.7215050551
 20
-4.9738025268
 10
17.5320030531
 20
-4.7900967198
 10
17.346968815
 20
-4.5982277795
 10
17.1664023406
 20
-4.3981957058
 10
16.9899167297
 20
-4.1895127822
 10
16.8178988826
 20
-3.9726667254
 10
16.6515095
 20
-3.7491206846
 10
16.4907865056
 20
-3.5188291122
 10
16.3356919758
 20
-3.281837556
 10
16.1872728403
 20
-3.0397458086
 10
16.0455745581
 20
-2.7925200106
 10
15.9105516703
 20
-2.5401940215
 10
15.7831147303
 20
-2.2844692121
 10
15.6633149703
 20
-2.0253230209
 10
15.5511011581
 20
-1.7627780093
 10
15.4472301505
 20
-1.4986032325
 10
15.3517581008
 20
-1.2327881578
 10
15.2646288558
 20
-0.9653433178
 10
15.1864308119
 20
-0.6980693649
 10
15.1172237339
 20
-0.4309670788
 10
15.0569478572
 20
-0.1640356799
 10
15.0060122838
 20
0.1009265186
 10
14.9645533813
 20
0.3633200786
 10
14.9324347823
 20
0.6237444381
 10
14.9096564866
 20
0.8821995971
  0
LINE
  5
321
100
AcDbEntity
  8
DRAFT
100
AcDbLine
 62
7
  6
CONTINUOUS
 10
14.9096564866
 20
0.8821995971
 11
14.1932007231
 21
2.1179030008
  0
LWPOLYLINE
  5
322
100
AcDbEntity
  8
0
100
AcDbPolyline
 62
7
  6
CONTINUOUS
 90
8
 70
0
 10
14.918343018
 20
-22.001307591
 10
15.0025756423
 20
-22.3150229782
 10
15.106231079
 20
-22.6253261691
 10
15.229231572
 20
-22.9337735173
 10
15.3692881333
 20
-23.2348173945
 10
15.5272964245
 20
-23.5294057589
 10
15.7023607839
 20
-23.8165906522
 10
15.7717900152
 20
-23.9172743383
  0
LWPOLYLINE
  5
323
100
AcDbEntity
  8
0
100
AcDbPolyline
 62
7
  6
CONTINUOUS
 90
15
 70
0
 10
17.1077753815
 20
-21.479104341
 10
17.1331947778
 20
-21.5812731686
 10
17.1986085707
 20
-21.7892751864
 10
17.2761948585
 20
-21.9932313529
 10
17.3659723483
 20
-22.1924281617
 10
17.467922333
 20
-22.3875791192
 10
17.5799387357
 20
-22.5745315457
 10
17.7028305132
 20
-22.7538233696
 10
17.8357887088
 20
-22.9249166625
 10
17.9742803755
 20
-23.0820449587
 10
18.117706367
 20
-23.2240817031
 10
18.2666658295
 20
-23.3521534508
 10
18.4184232546
 20
-23.4638734016
 10
18.5739321143
 20
-23.5593786096
 10
18.7322389365
 20
-23.6385320207
  0
LINE
  5
324
100
AcDbEntity
  8
0
100
AcDbLine
 62
7
  6
CONTINUOUS
 10
15.5060974494
 20
-22.2023282408
 11
15.4789829269
 21
-22.0919577941
  0
LWPOLYLINE
  5
325
100
AcDbEntity
  8
0
100
AcDbPolyline
 62
7
  6
CONTINUOUS
 90
11
 70
0
 10
15.2748933722
 20
-26.9058586827
 10
15.2885333666
 20
-26.9645526284
 10
15.3058213943
 20
-27.017228464
 10
15.3271773935
 20
-27.0639443047
 10
15.352181426
 20
-27.1046420354
 10
15.3803263741
 20
-27.137587837
 10
15.4119704944
 20
-27.1623415585
 10
15.4467555302
 20
-27.1793433509
 10
15.4830995941
 20
-27.1881798495
 10
15.5204753903
 20
-27.1887132659
 10
15.5594102147
 20
-27.1810813883
  0
LINE
  5
326
100
AcDbEntity
  8
0
100
AcDbLine
 62
7
  6
CONTINUOUS
 10
14.8534554499
 20
-21.6857363611
 11
14.918343018
 21
-22.001307591
  0
LINE
  5
327
100
AcDbEntity
  8
0
100
AcDbLine
 62
7
  6
CONTINUOUS
 10
14.8332160139
 20
-21.5427558243
 11
14.8534554499
 21
-21.6857363611
  0
LWPOLYLINE
  5
328
100
AcDbEntity
  8
DRAFT
100
AcDbPolyline
 62
7
  6
CONTINUOUS
 90
30
 70
0
 10
18.7945068816
 20
-50.3971081195
 10
18.805268779
 20
-50.7190059739
 10
18.8360596281
 20
-51.0451324195
 10
18.886879429
 20
-51.3754874561
 10
18.9584087798
 20
-51.7125253959
 10
19.0499670822
 20
-52.0537919267
 10
19.1595125421
 20
-52.3919241128
 10
19.2871087301
 20
-52.7261965756
 10
19.4326920754
 20
-53.0573346936
 10
19.5940300718
 20
-53.3801516661
 10
19.7719264613
 20
-53.6953477109
 10
19.9655775019
 20
-54.0022226102
 10
20.1703394609
 20
-54.2934889094
 10
20.385707883
 20
-54.5679216816
 10
20.6121872236
 20
-54.8267458538
 10
20.8466471158
 20
-55.0663487526
 10
21.0901382618
 20
-55.287199089
 10
21.3416099595
 20
-55.488828152
 10
21.5947797353
 20
-55.666217135
 10
21.8486854837
 20
-55.8182591283
 10
22.1042893102
 20
-55.9460610416
 10
22.3581950586
 20
-56.0479247966
 10
22.6113648344
 20
-56.1237055895
 10
22.8628365321
 20
-56.1735482242
 10
23.1063276781
 20
-56.1961890337
 10
23.3407875703
 20
-56.1910460272
 10
23.5672669109
 20
-56.1587011956
 10
23.782635333
 20
-56.0996368455
 10
23.987397292
 20
-56.0131325052
 10
24.0217883898
 20
-55.9954008966
  0
LINE
  5
329
100
AcDbEntity
  8
0
100
AcDbLine
 62
7
  6
CONTINUOUS
 10
15.246377484
 20
-21.890220142
 11
15.246377484
 21
-21.5025692884
  0
LINE
  5
32A
100
AcDbEntity
  8
0
100
AcDbLine
 62
7
  6
CONTINUOUS
 10
17.7215050551
 20
-44.6581937888
 11
17.7215050551
 21
-33.0048565447
  0
LINE
  5
32B
100
AcDbEntity
  8
0
100
AcDbLine
 62
7
  6
CONTINUOUS
 10
17.7215050551
 20
-15.6208590445
 11
17.7215050551
 21
-4.9738025268
  0
LINE
  5
32C
100
AcDbEntity
  8
0
100
AcDbLine
 62
7
  6
CONTINUOUS
 10
17.742849114
 20
-19.7372978895
 11
17.742849114
 21
-19.5923143618
  0
LINE
  5
32D
100
AcDbEntity
  8
0
100
AcDbLine
 62
7
  6
CONTINUOUS
 10
17.742849114
 20
-26.0813346339
 11
17.742849114
 21
-26.1217805978
  0
LINE
  5
32E
100
AcDbEntity
  8
0
100
AcDbLine
 62
7
  6
CONTINUOUS
 10
17.8141768749
 20
-19.7014953229
 11
17.8141768749
 21
-20.6410545209
  0
LINE
  5
32F
100
AcDbEntity
  8
0
100
AcDbLine
 62
7
  6
CONTINUOUS
 10
17.8141768749
 20
-25.1074844071
 11
17.8141768749
 21
-26.0470436051
  0
LINE
  5
330
100
AcDbEntity
  8
DRAFT
100
AcDbLine
 62
7
  6
CONTINUOUS
 10
18.7945068816
 20
-47.7990319081
 11
18.7945068816
 21
-50.3971081195
  0
LINE
  5
331
100
AcDbEntity
  8
0
100
AcDbLine
 62
7
  6
CONTINUOUS
 10
19.2193880331
 20
-16.5219020932
 11
19.2193880331
 21
-20.404100902
  0
LINE
  5
332
100
AcDbEntity
  8
0
100
AcDbLine
 62
7
  6
CONTINUOUS
 10
19.2193880331
 20
-26.7496491842
 11
19.2193880331
 21
-32.2371290809
  0
LINE
  5
333
100
AcDbEntity
  8
0
100
AcDbLine
 62
7
  6
CONTINUOUS
 10
19.5275331118
 20
-17.3897665768
 11
19.5275331118
 21
-33.0419770692
  0
LWPOLYLINE
  5
334
100
AcDbEntity
  8
0
100
AcDbPolyline
 62
7
  6
CONTINUOUS
 90
8
 70
0
 10
15.2463142331
 20
-26.3818546319
 10
15.2455658661
 20
-26.4674274521
 10
15.2463058114
 20
-26.5494945754
 10
15.2485340689
 20
-26.6280560018
 10
15.2517816303
 20
-26.7034293781
 10
15.2565175041
 20
-26.7752970575
 10
15.2641487148
 20
-26.8427060999
 10
15.2748933722
 20
-26.9058586827
  0
LWPOLYLINE
  5
335
100
AcDbEntity
  8
0
100
AcDbPolyline
 62
7
  6
CONTINUOUS
 90
6
 70
0
 10
18.9712835769
 20
-23.452822815
 10
18.9621584818
 20
-23.6798246756
 10
18.9352499551
 20
-23.8979348299
 10
18.8912581367
 20
-24.1014382509
 10
18.8297200505
 20
-24.2899611756
 10
18.7510986725
 20
-24.4638773672
  0
LINE
  5
336
100
AcDbEntity
  8
ASSI
100
AcDbLine
 62
7
  6
CONTINUOUS
 10
1.9309787387
 20
-44.260239488
 11
1.1280188315
 21
-46.9217845926
  0
LINE
  5
337
100
AcDbEntity
  8
ASSI
100
AcDbLine
 62
7
  6
CONTINUOUS
 10
1.8346886207
 20
-46.1775200303
 11
2.0882797398
 21
-45.3369071901
  0
LINE
  5
338
100
AcDbEntity
  8
ASSI
100
AcDbLine
 62
7
  6
CONTINUOUS
 10
1.5098755852
 20
-47.2541256654
 11
1.6750755283
 21
-46.7065535917
  0
LWPOLYLINE
  5
339
100
AcDbEntity
  8
DRAFT
100
AcDbPolyline
 62
7
  6
CONTINUOUS
 90
32
 70
0
 10
23.6685544934
 20
-6.0227886814
 10
23.7321748873
 20
-5.987383795
 10
23.9169054833
 20
-5.8618714023
 10
24.0884100831
 20
-5.7104505834
 10
24.2426343009
 20
-5.5367815332
 10
24.3787839309
 20
-5.3410849777
 10
24.4976531789
 20
-5.1231401909
 10
24.5975702764
 20
-4.8859451892
 10
24.6784889769
 20
-4.6281900071
 10
24.7404555268
 20
-4.35118461
 10
24.7819368967
 20
-4.0618569104
 10
24.8024220767
 20
-3.7611297373
 10
24.8024220767
 20
-3.4480802616
 10
24.7819368967
 20
-3.1268679085
 10
24.7404555268
 20
-2.796058839
 10
24.6784889769
 20
-2.457086892
 10
24.5975702764
 20
-2.1184130094
 10
24.4976531789
 20
-1.7813009102
 10
24.3787839309
 20
-1.4444868753
 10
24.2426343009
 20
-1.1126406899
 10
24.0884100831
 20
-0.7847474218
 10
23.9169054833
 20
-0.4618220032
 10
23.7321748873
 20
-0.1515790144
 10
23.5344618942
 20
0.1448753657
 10
23.3235229049
 20
0.4286473159
 10
23.1026815076
 20
0.6953407914
 10
22.8713194805
 20
0.9451870452
 10
22.6300550453
 20
1.1779548241
 10
22.384066455
 20
1.3885543248
 10
22.1350797939
 20
1.5752889458
 10
21.8813689777
 20
1.7398552885
 10
21.6229340064
 20
1.8822533528
  0
LINE
  5
33A
100
AcDbEntity
  8
DRAFT
100
AcDbLine
 62
250
  6
CONTINUOUS
 10
21.6229340064
 20
-5.9119752813
 11
24.750468143
 21
-4.2813477843
  0
LWPOLYLINE
  5
33B
100
AcDbEntity
  8
RACCORDO
100
AcDbPolyline
 62
250
  6
CONTINUOUS
 90
13
 70
0
 10
28.2791939606
 20
5.8403182135
 10
28.3476319599
 20
5.8102869375
 10
28.4232873699
 20
5.7849515433
 10
28.5048800287
 20
5.7647407298
 10
28.5910293101
 20
5.7499964836
 10
28.6802774858
 20
5.7409682913
 10
28.771114391
 20
5.7378089186
 10
28.8620029781
 20
5.7405718252
 10
28.9514053251
 20
5.7492102601
 10
29.0378086586
 20
5.7635780525
 10
29.1197509514
 20
5.7834320858
 10
29.1958456611
 20
5.8084364106
 10
29.2648051925
 20
5.8381679297
  0
LWPOLYLINE
  5
33C
100
AcDbEntity
  8
DRAFT
100
AcDbPolyline
 62
7
  6
CONTINUOUS
 90
10
 70
0
 10
-49.7948508935
 20
37.5911458027
 10
-50.0532858648
 20
37.7071827097
 10
-50.306996681
 20
37.7963271833
 10
-50.5559833421
 20
37.8585792233
 10
-50.8019719324
 20
37.893968313
 10
-51.0432363676
 20
37.9024649692
 10
-51.2745983947
 20
37.8839807425
 10
-51.4954397921
 20
37.8381286644
 10
-51.7063787814
 20
37.7652957035
 10
-51.7738082332
 20
37.7352589015
  0
LINE
  5
33D
100
AcDbEntity
  8
RACCORDO
100
AcDbLine
 62
250
  6
CONTINUOUS
 10
28.2791939606
 20
5.8403182135
 11
-56.4511108477
 21
48.2054706177
  0
LINE
  5
33E
100
AcDbEntity
  8
RACCORDO
100
AcDbLine
 62
250
  6
CONTINUOUS
 10
28.7698492928
 20
6.6918405793
 11
-55.9604555156
 21
49.0569929835
  0
LWPOLYLINE
  5
33F
100
AcDbEntity
  8
RACCORDO
100
AcDbPolyline
 62
250
  6
CONTINUOUS
 90
7
 70
0
 10
-56.4511108477
 20
48.2054706177
 10
-56.5099616929
 20
48.2389035508
 10
-56.5601570784
 20
48.2760691427
 10
-56.6006770872
 20
48.316423273
 10
-56.6306898686
 20
48.3594470098
 10
-56.6493558055
 20
48.4043615889
 10
-56.6561361009
 20
48.4529579911
  0
LWPOLYLINE
  5
340
100
AcDbEntity
  8
RACCORDO
100
AcDbPolyline
 62
250
  6
CONTINUOUS
 90
8
 70
0
 10
28.2791939606
 20
-65.0237227082
 10
28.2833816843
 20
-65.1003190419
 10
28.2958739951
 20
-65.1714315684
 10
28.316459511
 20
-65.2358569957
 10
28.3447899055
 20
-65.2925051838
 10
28.380385801
 20
-65.3404175909
 10
28.422644881
 20
-65.3787834933
 10
28.4611191906
 20
-65.4023343685
  0
LWPOLYLINE
  5
341
100
AcDbEntity
  8
DRAFT
100
AcDbPolyline
 62
7
  6
CONTINUOUS
 90
29
 70
0
 10
25.1584679123
 20
-50.9810124235
 10
25.1477060149
 20
-50.6591145691
 10
25.1169151658
 20
-50.3329881235
 10
25.0660953649
 20
-50.0026330869
 10
24.9945660142
 20
-49.6655951471
 10
24.9030077117
 20
-49.3243286163
 10
24.7934622518
 20
-48.9861964302
 10
24.6658660638
 20
-48.6519239674
 10
24.5202827185
 20
-48.3207858494
 10
24.3589447221
 20
-47.9979688769
 10
24.1810483326
 20
-47.6827728321
 10
23.987397292
 20
-47.3758979328
 10
23.782635333
 20
-47.0846316336
 10
23.5672669109
 20
-46.8101988614
 10
23.3407875703
 20
-46.5513746892
 10
23.1063276781
 20
-46.3117717904
 10
22.8628365321
 20
-46.090921454
 10
22.6113648344
 20
-45.8892923909
 10
22.3581950586
 20
-45.711903408
 10
22.1042893102
 20
-45.5598614146
 10
21.8486854837
 20
-45.4320595014
 10
21.5947797353
 20
-45.3301957464
 10
21.3416099595
 20
-45.2544149535
 10
21.0901382618
 20
-45.2045723188
 10
20.8466471158
 20
-45.1819315092
 10
20.6121872236
 20
-45.1870745158
 10
20.385707883
 20
-45.2194193474
 10
20.1703394609
 20
-45.2784836975
 10
19.997759103
 20
-45.3492613579
  0
LINE
  5
342
100
AcDbEntity
  8
DRAFT
100
AcDbLine
 62
7
  6
CONTINUOUS
 10
25.1584679123
 20
-53.5790886348
 11
25.1584679123
 21
-50.9810124235
  0
LINE
  5
343
100
AcDbEntity
  8
0
100
AcDbLine
 62
7
  6
CONTINUOUS
 10
13.8062241968
 20
-25.1076059156
 11
13.9155050419
 21
-24.8968678826
  0
LINE
  5
344
100
AcDbEntity
  8
0
100
AcDbLine
 62
7
  6
CONTINUOUS
 10
13.6924941614
 20
-25.3239502933
 11
13.8062241968
 21
-25.1076059156
  0
LINE
  5
345
100
AcDbEntity
  8
0
100
AcDbLine
 62
7
  6
CONTINUOUS
 10
15.5933283635
 20
-25.7358259565
 11
15.4822518873
 21
-25.9453651341
  0
LINE
  5
346
100
AcDbEntity
  8
0
100
AcDbLine
 62
7
  6
CONTINUOUS
 10
13.5745121926
 20
-25.5458558661
 11
13.6924941614
 21
-25.3239502933
  0
LINE
  5
347
100
AcDbEntity
  8
0
100
AcDbLine
 62
7
  6
CONTINUOUS
 10
15.4822518873
 20
-25.9453651341
 11
15.3665373633
 21
-26.1606814203
  0
LINE
  5
348
100
AcDbEntity
  8
0
100
AcDbLine
 62
7
  6
CONTINUOUS
 10
15.3665373633
 20
-26.1606814203
 11
15.2463142331
 21
-26.3818546319
  0
LINE
  5
349
100
AcDbEntity
  8
0
100
AcDbLine
 62
7
  6
CONTINUOUS
 10
13.959013757
 20
-19.7661787094
 11
13.9087904575
 21
-19.7931291058
  0
LINE
  5
34A
100
AcDbEntity
  8
0
100
AcDbLine
 62
7
  6
CONTINUOUS
 10
19.2193880331
 20
-17.1632501316
 11
16.3587419967
 21
-18.6332654408
  0
LINE
  5
34B
100
AcDbEntity
  8
0
100
AcDbLine
 62
250
  6
CONTINUOUS
 10
19.2193880331
 20
-18.1165509185
 11
17.3325658117
 21
-19.0801287371
  0
LINE
  5
34C
100
AcDbEntity
  8
ASSI
100
AcDbLine
 62
7
  6
CONTINUOUS
 10
16.0803341005
 20
-18.7055185376
 11
13.959013757
 21
-19.7661787094
  0
LINE
  5
34D
100
AcDbEntity
  8
0
100
AcDbLine
 62
250
  6
CONTINUOUS
 10
13.959013757
 20
-19.7661787094
 11
14.0205489985
 21
-19.7391464426
  0
LWPOLYLINE
  5
34E
100
AcDbEntity
  8
0
100
AcDbPolyline
 62
7
  6
CONTINUOUS
 90
3
 70
0
 10
16.1503359221
 20
-18.6753539218
 10
16.0877985806
 20
-18.7019219598
 10
16.0803658663
 20
-18.7055820715
  0
LWPOLYLINE
  5
34F
100
AcDbEntity
  8
0
100
AcDbPolyline
 62
250
  6
CONTINUOUS
 90
15
 70
0
 10
14.0205489985
 20
-19.7391464426
 10
14.1229594112
 20
-19.7089271449
 10
14.2312690042
 20
-19.6940502413
 10
14.344481038
 20
-19.6946526718
 10
14.4615537425
 20
-19.7107289238
 10
14.581409917
 20
-19.7421311429
 10
14.7029467611
 20
-19.7885705144
 10
14.8250456828
 20
-19.8496197393
 10
14.9465827347
 20
-19.9247168761
 10
15.0664393445
 20
-20.0131707149
 10
15.1835126613
 20
-20.114167304
 10
15.2967253725
 20
-20.2267772508
 10
15.405035656
 20
-20.3499642745
 10
15.5074467727
 20
-20.4825947247
 10
15.6030162883
 20
-20.623448065
  0
LWPOLYLINE
  5
350
100
AcDbEntity
  8
RACCORDO
100
AcDbPolyline
 62
250
  6
CONTINUOUS
 90
13
 70
0
 10
28.7698492928
 20
6.6918405793
 10
28.8341815387
 20
6.6539121793
 10
28.8974982666
 20
6.6062038445
 10
28.9587052985
 20
6.5495301584
 10
29.0167487982
 20
6.4848550609
 10
29.0706159369
 20
6.4132946009
 10
29.1193570812
 20
6.3361042786
 10
29.16221405
 20
6.2544400408
 10
29.1983316128
 20
6.1698804727
 10
29.2269144011
 20
6.0844746373
 10
29.2475864969
 20
5.9998915861
 10
29.2602321452
 20
5.9173472585
 10
29.2648051925
 20
5.8381679297
  0
LINE
  5
351
100
AcDbEntity
  8
RACCORDO
100
AcDbLine
 62
250
  6
CONTINUOUS
 10
28.2791939606
 20
-65.0237227082
 11
28.2791939606
 21
5.8403182135
  0
LINE
  5
352
100
AcDbEntity
  8
RACCORDO
100
AcDbLine
 62
250
  6
CONTINUOUS
 10
29.2648051925
 20
-65.025872992
 11
29.2648051925
 21
5.8381679297
  0
LWPOLYLINE
  5
353
100
AcDbEntity
  8
RACCORDO
100
AcDbPolyline
 62
250
  6
CONTINUOUS
 90
13
 70
0
 10
28.2791939606
 20
5.8403182135
 10
28.2832014712
 20
5.9193074176
 10
28.2952693703
 20
6.0015980056
 10
28.3153634962
 20
6.0858819192
 10
28.3433808423
 20
6.1709626933
 10
28.378962453
 20
6.2551929043
 10
28.4213327119
 20
6.336546548
 10
28.4696535683
 20
6.4134662059
 10
28.5231822733
 20
6.4848147285
 10
28.5809851968
 20
6.5493537753
 10
28.6420644972
 20
6.6059817902
 10
28.7053799662
 20
6.6537462591
 10
28.7698492928
 20
6.6918405793
  0
LINE
  5
354
100
AcDbEntity
  8
0
100
AcDbLine
 62
7
  6
CONTINUOUS
 10
18.1057780638
 20
-24.56355932
 11
18.18374428
 21
-24.4147039482
  0
LINE
  5
355
100
AcDbEntity
  8
0
100
AcDbLine
 62
7
  6
CONTINUOUS
 10
18.0253914356
 20
-24.7153356041
 11
18.1057780638
 21
-24.56355932
  0
LINE
  5
356
100
AcDbEntity
  8
0
100
AcDbLine
 62
7
  6
CONTINUOUS
 10
17.9003747582
 20
-24.9484556492
 11
18.0253914356
 21
-24.7153356041
  0
LINE
  5
357
100
AcDbEntity
  8
0
100
AcDbLine
 62
7
  6
CONTINUOUS
 10
17.8141768749
 20
-25.1074844071
 11
17.9003747582
 21
-24.9484556492
  0
LWPOLYLINE
  5
358
100
AcDbEntity
  8
0
100
AcDbPolyline
 62
7
  6
CONTINUOUS
 90
8
 70
0
 10
18.7510986725
 20
-24.4638773672
 10
18.6574830712
 20
-24.6185930972
 10
18.5484922705
 20
-24.7535773421
 10
18.4245072465
 20
-24.8693611254
 10
18.2887599952
 20
-24.9629437893
 10
18.142327849
 20
-25.0333251146
 10
17.9841334755
 20
-25.0815053206
 10
17.8141768749
 20
-25.1074844071
  0
LWPOLYLINE
  5
359
100
AcDbEntity
  8
0
100
AcDbPolyline
 62
7
  6
CONTINUOUS
 90
16
 70
0
 10
15.6030162883
 20
-20.623448065
 10
15.5619327414
 20
-20.647009631
 10
15.5223107266
 20
-20.6771434206
 10
15.4841502439
 20
-20.7138494337
 10
15.4468870738
 20
-20.7577611676
 10
15.4110854359
 20
-20.808245125
 10
15.3784379886
 20
-20.8634008142
 10
15.3492806826
 20
-20.9232529665
 10
15.3232775674
 20
-20.9877768505
 10
15.3011134492
 20
-21.0549977811
 10
15.2831551082
 20
-21.1245702217
 10
15.2690357644
 20
-21.1968397088
 10
15.2583398835
 20
-21.2708681665
 10
15.2509289541
 20
-21.3463429031
 10
15.2469414876
 20
-21.4235766104
 10
15.246377484
 20
-21.5025692884
  0
LWPOLYLINE
  5
35A
100
AcDbEntity
  8
0
100
AcDbPolyline
 62
7
  6
CONTINUOUS
 90
11
 70
0
 10
18.3738552463
 20
-24.3433378986
 10
18.40961076
 20
-24.323900081
 10
18.5110611113
 20
-24.2559319377
 10
18.6038586028
 20
-24.1735753529
 10
18.6873568187
 20
-24.0774347557
 10
18.7609911889
 20
-23.9681747819
 10
18.824229815
 20
-23.8465843883
 10
18.8766153037
 20
-23.7135426859
 10
18.917782738
 20
-23.5699537136
 10
18.947424222
 20
-23.4168240858
 10
18.9653055982
 20
-23.2552699103
  0
LINE
  5
35B
100
AcDbEntity
  8
0
100
AcDbLine
 62
7
  6
CONTINUOUS
 10
16.8853185724
 20
-23.329305381
 11
13.9155050419
 21
-24.8968678826
  0
LINE
  5
35C
100
AcDbEntity
  8
DRAFT
100
AcDbLine
 62
7
  6
CONTINUOUS
 10
11.9002157651
 20
-24.4832317687
 11
0.2329538755
 21
-30.4415645853
  0
LINE
  5
35D
100
AcDbEntity
  8
DRAFT
100
AcDbLine
 62
7
  6
CONTINUOUS
 10
11.9002157651
 20
-25.0894495513
 11
0.8327608097
 21
-30.7414680524
  0
LINE
  5
35E
100
AcDbEntity
  8
DRAFT
100
AcDbLine
 62
7
  6
CONTINUOUS
 10
6.5969149062
 20
-29.941776061
 11
13.698748084
 21
-26.3149537541
  0
LINE
  5
35F
100
AcDbEntity
  8
DRAFT
100
AcDbLine
 62
7
  6
CONTINUOUS
 10
13.817628746
 20
-26.5140504255
 11
6.8539750208
 21
-30.0703061183
  0
LINE
  5
360
100
AcDbEntity
  8
0
100
AcDbLine
 62
7
  6
CONTINUOUS
 10
15.5933283635
 20
-25.7358259565
 11
18.18374428
 21
-24.4147039482
  0
LINE
  5
361
100
AcDbEntity
  8
0
100
AcDbLine
 62
7
  6
CONTINUOUS
 10
17.742849114
 20
-19.7372978895
 11
17.8141768749
 21
-19.7014953229
  0
LINE
  5
362
100
AcDbEntity
  8
0
100
AcDbLine
 62
7
  6
CONTINUOUS
 10
18.1124267623
 20
-21.0043569272
 11
15.5932303612
 21
-22.1951810754
  0
LWPOLYLINE
  5
363
100
AcDbEntity
  8
0
100
AcDbPolyline
 62
7
  6
CONTINUOUS
 90
3
 70
0
 10
18.18374428
 20
-24.4147039482
 10
18.300243977
 20
-24.3769582532
 10
18.3738552463
 20
-24.3433378986
  0
LWPOLYLINE
  5
364
100
AcDbEntity
  8
RACCORDO
100
AcDbPolyline
 62
250
  6
CONTINUOUS
 90
8
 70
0
 10
29.2648051925
 20
-65.025872992
 10
29.2600032871
 20
-65.1034389434
 10
29.2468168355
 20
-65.1753831266
 10
29.2254656713
 20
-65.2404580925
 10
29.1963077555
 20
-65.2975383905
 10
29.1598416906
 20
-65.3456227041
 10
29.1167054101
 20
-65.3838607822
 10
29.0779286695
 20
-65.4068932804
  0
LWPOLYLINE
  5
365
100
AcDbEntity
  8
ASSI
100
AcDbPolyline
 62
7
  6
CONTINUOUS
 90
21
 70
0
 10
5.3696490283
 20
-47.6067508153
 10
5.4261627624
 20
-47.5454225678
 10
5.4735018448
 20
-47.4735655723
 10
5.5113102303
 20
-47.3907712836
 10
5.5399439641
 20
-47.2974482469
 10
5.5583061624
 20
-47.1971714242
 10
5.5659982603
 20
-47.0896709887
 10
5.5634188226
 20
-46.9752167672
 10
5.5506666611
 20
-46.8581932024
 10
5.5273470448
 20
-46.7385005965
 10
5.4938547045
 20
-46.6162386473
 10
5.4514726446
 20
-46.4960908912
 10
5.3998559183
 20
-46.378139365
 10
5.3393494722
 20
-46.262302032
 10
5.2722711506
 20
-46.1530163181
 10
5.1983654147
 20
-46.0505360669
 10
5.1178878033
 20
-45.954607435
 10
5.0339227764
 20
-45.8689063178
 10
4.9474984873
 20
-45.7946580138
 10
4.8575867828
 20
-45.7306372246
 10
4.7641876629
 20
-45.67684395
  0
LINE
  5
366
100
AcDbEntity
  8
DRAFT
100
AcDbLine
 62
7
  6
CONTINUOUS
 10
14.0215361086
 20
-33.6540866622
 11
19.2193880331
 21
-30.9996050888
  0
LWPOLYLINE
  5
367
100
AcDbEntity
  8
0
100
AcDbPolyline
 62
250
  6
CONTINUOUS
 90
3
 70
0
 10
15.5088827752
 20
-27.2193677729
 10
15.5229952897
 20
-27.2122860167
 10
15.5999040671
 20
-27.1652842169
  0
LINE
  5
368
100
AcDbEntity
  8
ASSI
100
AcDbLine
 62
7
  6
CONTINUOUS
 10
-4.4186165627
 20
-43.2918788444
 11
-4.2771952065
 21
-43.2211681662
  0
LINE
  5
369
100
AcDbEntity
  8
0
100
AcDbLine
 62
7
  6
CONTINUOUS
 10
17.742849114
 20
-26.1217805978
 11
15.5999040671
 21
-27.1652842169
  0
LINE
  5
36A
100
AcDbEntity
  8
0
100
AcDbLine
 62
7
  6
CONTINUOUS
 10
17.742849114
 20
-26.0813346339
 11
17.8141768749
 21
-26.0470436051
  0
LINE
  5
36B
100
AcDbEntity
  8
0
100
AcDbLine
 62
7
  6
CONTINUOUS
 10
15.5594102147
 20
-27.1810813883
 11
15.5999040671
 21
-27.1652842169
  0
LINE
  5
36C
100
AcDbEntity
  8
0
100
AcDbLine
 62
250
  6
CONTINUOUS
 10
18.8205340264
 20
-33.5543710304
 11
19.5168535765
 21
-33.1786906584
  0
LINE
  5
36D
100
AcDbEntity
  8
0
100
AcDbLine
 62
7
  6
CONTINUOUS
 10
17.7215050551
 20
-33.0048565447
 11
19.2193880331
 21
-32.2371290809
  0
LINE
  5
36E
100
AcDbEntity
  8
DRAFT
100
AcDbLine
 62
7
  6
CONTINUOUS
 10
17.7215050551
 20
-33.3023318591
 11
11.9002157651
 21
-36.2751955301
  0
LINE
  5
36F
100
AcDbEntity
  8
ASSI
100
AcDbLine
 62
7
  6
CONTINUOUS
 10
-4.6802722347
 20
-44.15906821
 11
-4.5388508785
 21
-44.0883575318
  0
LINE
  5
370
100
AcDbEntity
  8
ASSI
100
AcDbLine
 62
7
  6
CONTINUOUS
 10
-1.3982608586
 20
-43.6869537263
 11
-1.2568395023
 21
-43.6162430482
  0
LINE
  5
371
100
AcDbEntity
  8
ASSI
100
AcDbLine
 62
7
  6
CONTINUOUS
 10
-2.9680831676
 20
-45.0151627435
 11
-2.8266618114
 21
-44.9444520654
  0
LINE
  5
372
100
AcDbEntity
  8
ASSI
100
AcDbLine
 62
7
  6
CONTINUOUS
 10
0.1144618708
 20
-44.443315091
 11
0.2558832271
 21
-44.3726044128
  0
LINE
  5
373
100
AcDbEntity
  8
ASSI
100
AcDbLine
 62
7
  6
CONTINUOUS
 10
-1.9215389685
 20
-45.5384270488
 11
-1.7801176123
 21
-45.4677163707
  0
LINE
  5
374
100
AcDbEntity
  8
ASSI
100
AcDbLine
 62
7
  6
CONTINUOUS
 10
-0.6418963119
 20
-45.0606547179
 11
-0.5004749556
 21
-44.9899440398
  0
LINE
  5
375
100
AcDbEntity
  8
ASSI
100
AcDbLine
 62
7
  6
CONTINUOUS
 10
-0.9035321849
 20
-46.0474304406
 11
-0.7621108286
 21
-45.9767197625
  0
LINE
  5
376
100
AcDbEntity
  8
ASSI
100
AcDbLine
 62
7
  6
CONTINUOUS
 10
2.0882797398
 20
-45.3369071901
 11
2.2297010961
 21
-45.266196512
  0
LINE
  5
377
100
AcDbEntity
  8
ASSI
100
AcDbLine
 62
7
  6
CONTINUOUS
 10
0.1144682348
 20
-46.5564306505
 11
0.255889591
 21
-46.4857199724
  0
LINE
  5
378
100
AcDbEntity
  8
ASSI
100
AcDbLine
 62
7
  6
CONTINUOUS
 10
0.9865974753
 20
-46.9924952707
 11
1.1280188315
 21
-46.9217845926
  0
LINE
  5
379
100
AcDbEntity
  8
ASSI
100
AcDbLine
 62
7
  6
CONTINUOUS
 10
1.6750755283
 20
-46.7065535917
 11
1.8164968845
 21
-46.6358429135
  0
LINE
  5
37A
100
AcDbEntity
  8
ASSI
100
AcDbLine
 62
7
  6
CONTINUOUS
 10
2.3418835869
 20
-46.4311175134
 11
2.4833049431
 21
-46.3604068353
  0
LINE
  5
37B
100
AcDbEntity
  8
DRAFT
100
AcDbLine
 62
7
  6
CONTINUOUS
 10
14.1932007231
 20
-47.2153142581
 11
17.7215050551
 21
-44.6581937888
  0
LWPOLYLINE
  5
37C
100
AcDbEntity
  8
ASSI
100
AcDbPolyline
 62
7
  6
CONTINUOUS
 90
18
 70
0
 10
4.8926954386
 20
-47.0255353804
 10
4.9081777711
 20
-47.0168483225
 10
4.9404358041
 20
-46.9907716378
 10
4.9668545227
 20
-46.9560724616
 10
4.98779589
 20
-46.9132848728
 10
5.001907112
 20
-46.8651729124
 10
5.0087372574
 20
-46.8113850613
 10
5.0087372574
 20
-46.7522728385
 10
5.001907112
 20
-46.691654842
 10
4.98779589
 20
-46.6294316596
 10
4.9668545227
 20
-46.5657027035
 10
4.9404358041
 20
-46.5045848086
 10
4.9081782301
 20
-46.4462504487
 10
4.8704433047
 20
-46.3905271501
 10
4.8296683346
 20
-46.3410143266
 10
4.786665755
 20
-46.2989117829
 10
4.7406231306
 20
-46.2630197143
 10
4.6915404613
 20
-46.2333381208
  0
LWPOLYLINE
  5
37D
100
AcDbEntity
  8
ASSI
100
AcDbPolyline
 62
7
  6
CONTINUOUS
 90
3
 70
0
 10
5.2716212053
 20
-47.6744415664
 10
5.3061256611
 20
-47.6552009875
 10
5.3696490283
 20
-47.6067508153
  0
LINE
  5
37E
100
AcDbEntity
  8
ASSI
100
AcDbLine
 62
7
  6
CONTINUOUS
 10
4.0548964334
 20
-45.9150161069
 11
4.1963177896
 21
-45.8443054288
  0
LINE
  5
37F
100
AcDbEntity
  8
ASSI
100
AcDbLine
 62
7
  6
CONTINUOUS
 10
2.5015037504
 20
-47.1197677027
 11
2.6429251066
 21
-47.0490570246
  0
LINE
  5
380
100
AcDbEntity
  8
ASSI
100
AcDbLine
 62
250
  6
CONTINUOUS
 10
4.6915456807
 20
-46.2333407305
 11
4.8329670369
 21
-46.1626300524
  0
LINE
  5
381
100
AcDbEntity
  8
ASSI
100
AcDbLine
 62
7
  6
CONTINUOUS
 10
2.6666966224
 20
-47.832536184
 11
2.8081179786
 21
-47.7618255059
  0
LINE
  5
382
100
AcDbEntity
  8
ASSI
100
AcDbLine
 62
7
  6
CONTINUOUS
 10
4.0621760977
 20
-47.2912559746
 11
4.2035974539
 21
-47.2205452964
  0
LINE
  5
383
100
AcDbEntity
  8
ASSI
100
AcDbLine
 62
7
  6
CONTINUOUS
 10
5.034304054
 20
-46.9551996996
 11
4.8928826978
 21
-47.0259103777
  0
LINE
  5
384
100
AcDbEntity
  8
ASSI
100
AcDbLine
 62
7
  6
CONTINUOUS
 10
4.5188836397
 20
-47.5196175398
 11
4.660304996
 21
-47.4489068617
  0
LINE
  5
385
100
AcDbEntity
  8
ASSI
100
AcDbLine
 62
7
  6
CONTINUOUS
 10
3.5388322268
 20
-48.2686039862
 11
3.680253583
 21
-48.1978933081
  0
LINE
  5
386
100
AcDbEntity
  8
ASSI
100
AcDbLine
 62
7
  6
CONTINUOUS
 10
5.07566278
 20
-47.7209337253
 11
5.2170851181
 21
-47.650225858
  0
LINE
  5
387
100
AcDbEntity
  8
ASSI
100
AcDbLine
 62
7
  6
CONTINUOUS
 10
5.0432740287
 20
-49.0208248872
 11
5.1846953849
 21
-48.950114209
  0
LINE
  5
388
100
AcDbEntity
  8
RACCORDO
100
AcDbLine
 62
7
  6
CONTINUOUS
 10
60.3724044625
 20
22.554564614
 11
-24.9047110428
 21
65.1931223667
  0
LWPOLYLINE
  5
389
100
AcDbEntity
  8
DRAFT
100
AcDbPolyline
 62
7
  6
CONTINUOUS
 90
13
 70
0
 10
19.997759103
 20
-45.3492613579
 10
19.9655775019
 20
-45.3649880378
 10
19.7719264613
 20
-45.4782118965
 10
19.5940300718
 20
-45.6155115518
 10
19.4326920754
 20
-45.7769905278
 10
19.2871087301
 20
-45.9625453005
 10
19.1595125421
 20
-46.1692215754
 10
19.0499670822
 20
-46.3978083015
 10
18.9584087798
 20
-46.6475165299
 10
18.886879429
 20
-46.9130251189
 10
18.8360596281
 20
-47.1925603547
 10
18.805268779
 20
-47.4878959511
 10
18.7945068816
 20
-47.7990319081
  0
LINE
  5
38A
100
AcDbEntity
  8
DRAFT
100
AcDbLine
 62
250
  6
CONTINUOUS
 10
18.7945068816
 20
-47.7990319081
 11
22.6633568667
 21
-45.9309794072
  0
LINE
  5
38B
100
AcDbEntity
  8
DRAFT
100
AcDbLine
 62
250
  6
CONTINUOUS
 10
18.7945068816
 20
-50.3971081195
 11
24.2313774226
 21
-47.7719456937
  0
LINE
  5
38C
100
AcDbEntity
  8
RACCORDO
100
AcDbLine
 62
7
  6
CONTINUOUS
 10
60.8673603622
 20
-49.832852554
 11
60.8673603622
 21
21.7008919644
  0
LWPOLYLINE
  5
38D
100
AcDbEntity
  8
DRAFT
100
AcDbPolyline
 62
7
  6
CONTINUOUS
 90
12
 70
0
 10
24.0217883898
 20
-55.9954008966
 10
24.1810483326
 20
-55.8999086465
 10
24.3589447221
 20
-55.7626089912
 10
24.5202827185
 20
-55.6011300151
 10
24.6658660638
 20
-55.4155752425
 10
24.7934622518
 20
-55.2088989676
 10
24.9030077117
 20
-54.9803122415
 10
24.9945660142
 20
-54.7306040131
 10
25.0660953649
 20
-54.4650954241
 10
25.1169151658
 20
-54.1855601883
 10
25.1477060149
 20
-53.8902245919
 10
25.1584679123
 20
-53.5790886348
  0
LINE
  5
38E
100
AcDbEntity
  8
RACCORDO
100
AcDbLine
 62
250
  6
CONTINUOUS
 10
29.0779286695
 20
-65.4068932804
 11
29.0774664497
 21
-65.4071160522
  0
LINE
  5
38F
100
AcDbEntity
  8
RACCORDO
100
AcDbLine
 62
250
  6
CONTINUOUS
 10
29.2648051925
 20
-65.025872992
 11
60.8673603622
 21
-49.832852554
  0
LINE
  5
390
100
AcDbEntity
  8
RACCORDO
100
AcDbLine
 62
7
  6
CONTINUOUS
 10
29.0774664497
 20
-65.4071160522
 11
60.6817888015
 21
-50.2132460362
  0
ARC
  5
391
100
AcDbEntity
  8
RACCORDO
100
AcDbCircle
 62
7
  6
CONTINUOUS
 10
-55.9561361009
 20
48.4529579911
 40
0.7
100
AcDbArc
 50
117.4127093041
 51
179.969829615
  0
ARC
  5
392
100
AcDbEntity
  8
RACCORDO
100
AcDbCircle
 62
7
  6
CONTINUOUS
 10
28.7741687075
 20
-64.7762353348
 40
0.7
100
AcDbArc
 50
243.4349488229
 51
295.718054267
  0
ARC
  5
393
100
AcDbEntity
  8
RACCORDO
100
AcDbCircle
 62
7
  6
CONTINUOUS
 10
-55.9561361009
 20
-22.4110829306
 40
0.7
100
AcDbArc
 50
180.0061267308
 51
243.4349488229
  0
ELLIPSE
  5
394
100
AcDbEntity
  8
RACCORDO
100
AcDbEllipse
 62
7
  6
CONTINUOUS
 10
-24.9046733479
 20
64.5868626528
 30
0.0
 11
-0.3130824587
 21
0.6261415616
 31
0.0
 40
0.6123267458
 41
-0.6846978779
 42
0.0095104111
  0
ELLIPSE
  5
395
100
AcDbEntity
  8
0
100
AcDbEllipse
 62
7
  6
CONTINUOUS
 10
18.8203186185
 20
-17.0364231499
 30
0.0
 11
-0.4471615512
 21
0.8944566536
 31
0.0
 40
0.6125552124
 41
-2.255296188
 42
-0.6848044477
  0
ELLIPSE
  5
396
100
AcDbEntity
  8
RACCORDO
100
AcDbEllipse
 62
7
  6
CONTINUOUS
 10
60.3723667676
 20
-49.5853095899
 30
0.0
 11
-0.3130824587
 21
0.6261415616
 31
0.0
 40
0.6123267458
 41
-3.151103067
 42
-2.2555703571
  0
ELLIPSE
  5
397
100
AcDbEntity
  8
RACCORDO
100
AcDbEllipse
 62
7
  6
CONTINUOUS
 10
60.3723667676
 20
21.9483425951
 30
0.0
 11
-0.313040413
 21
0.6261041877
 31
0.0
 40
0.6124181287
 41
-2.2554606976
 42
-0.6847405232
  0
ELLIPSE
  5
398
100
AcDbEntity
  8
0
100
AcDbEllipse
 62
7
  6
CONTINUOUS
 10
-45.481391816
 20
0.9794181674
 30
0.0
 11
-0.4471615512
 21
0.8944566536
 31
0.0
 40
0.6125552124
 41
0.8862964655
 42
2.4567882058
  0
ELLIPSE
  5
399
100
AcDbEntity
  8
0
100
AcDbEllipse
 62
7
  6
CONTINUOUS
 10
-46.9922355056
 20
15.8698539121
 30
0.0
 11
-0.4474018214
 21
0.8946702271
 31
0.0
 40
0.6121897086
 41
5.5985514278
 42
7.1690431681
  0
ELLIPSE
  5
39A
100
AcDbEntity
  8
0
100
AcDbEllipse
 62
7
  6
CONTINUOUS
 10
-46.9922355056
 20
0.2181710594
 30
0.0
 11
-0.4471615512
 21
0.8944566536
 31
0.0
 40
0.6125552124
 41
0.8862964655
 42
2.4567882058
  0
ELLIPSE
  5
39B
100
AcDbEntity
  8
0
100
AcDbEllipse
 62
7
  6
CONTINUOUS
 10
-81.3779486352
 20
-69.4471210852
 30
0.0
 11
147.1190391023
 21
72.2932763324
 31
0.0
 40
0.0085349866
 41
0.8273445333
 42
0.8468547866
  0
ELLIPSE
  5
39C
100
AcDbEntity
  8
0
100
AcDbEllipse
 62
7
  6
CONTINUOUS
 10
18.8203186185
 20
-32.6881060027
 30
0.0
 11
-0.4474018214
 21
0.8946702271
 31
0.0
 40
0.6121897086
 41
-3.8262265329
 42
-2.2557347926
  0
ENDSEC
  0
SECTION
  2
OBJECTS
  0
DICTIONARY
  5
C
100
AcDbDictionary
280
0
281
1
  3
ACAD_GROUP
350
D
  3
ACAD_MLINESTYLE
350
17
  3
ACAD_LAYOUT
350
1A
  3
ACAD_PLOTSETTINGS
350
19
  3
ACAD_PLOTSTYLENAME
350
E
  0
DICTIONARY
  5
D
102
{ACAD_REACTORS
330
C
102
}
100
AcDbDictionary
280
0
281
1
  0
ACDBDICTIONARYWDFLT
  5
E
102
{ACAD_REACTORS
330
C
102
}
100
AcDbDictionary
281
1
  3
Normal
350
F
100
AcDbDictionaryWithDefault
340
F
  0
DICTIONARY
  5
17
102
{ACAD_REACTORS
330
C
102
}
100
AcDbDictionary
280
0
281
1
  3
Standard
350
18
  0
DICTIONARY
  5
19
102
{ACAD_REACTORS
330
C
102
}
100
AcDbDictionary
281
1
  0
DICTIONARY
  5
1A
102
{ACAD_REACTORS
330
C
102
}
100
AcDbDictionary
281
1
  3
Model
350
39D
  3
Layout1
350
39E
  0
ACDBPLACEHOLDER
  5
F
102
{ACAD_REACTORS
330
E
102
}
  0
MLINESTYLE
  5
18
102
{ACAD_REACTORS
330
17
102
}
100
AcDbMlineStyle
  2
STANDARD
 70
0
  3

 62
256
 51
90.0
 52
90.0
 71
2
 49
0.5
 62
256
  6
BYLAYER
 49
-0.5
 62
256
  6
BYLAYER
  0
LAYOUT
  5
39D
102
{ACAD_REACTORS
330
1A
102
}
100
AcDbPlotSettings
  1

  2
none_device
  4
ISO_A4_(297.00_x_210.00_MM)
  6

 40
0.0
 41
0.0
 42
0.0
 43
0.0
 44
297.0
 45
210.0
 46
0.0
 47
0.0
 48
0.0
 49
0.0
140
0.0
141
0.0
142
1.0
143
1.0
 70
1024
 72
1
 73
0
 74
0
  7

 75
0
147
1.0
148
0.0
149
0.0
100
AcDbLayout
  1
Model
 70
0
 71
0
 10
0.0
 20
0.0
 11
297.0
 21
210.0
 12
0.0
 22
0.0
 32
0.0
 14
0.0
 24
0.0
 34
0.0
 15
0.0
 25
0.0
 35
0.0
146
0.0
 13
0.0
 23
0.0
 33
0.0
 16
1.0
 26
0.0
 36
0.0
 17
0.0
 27
1.0
 37
0.0
 76
0
330
20F
345
0
346
0
  0
LAYOUT
  5
39E
102
{ACAD_REACTORS
330
1A
102
}
100
AcDbPlotSettings
  1

  2
none_device
  4
ISO_A4_(297.00_x_210.00_MM)
  6

 40
0.0
 41
0.0
 42
0.0
 43
0.0
 44
297.0
 45
210.0
 46
0.0
 47
0.0
 48
0.0
 49
0.0
140
0.0
141
0.0
142
1.0
143
1.0
 70
0
 72
1
 73
0
 74
0
  7

 75
0
147
1.0
148
0.0
149
0.0
100
AcDbLayout
  1
Layout1
 70
0
 71
1
 10
0.0
 20
0.0
 11
297.0
 21
210.0
 12
0.0
 22
0.0
 32
0.0
 14
0.0
 24
0.0
 34
0.0
 15
0.0
 25
0.0
 35
0.0
146
0.0
 13
0.0
 23
0.0
 33
0.0
 16
1.0
 26
0.0
 36
0.0
 17
0.0
 27
1.0
 37
0.0
 76
0
330
210
345
0
346
0
  0
ENDSEC
  0
EOF
