  0
SECTION
  2
HEADER
  9
$ACADVER
  1
AC1024
  9
$DWGCODEPAGE
  3
ANSI_1252
  9
$EXTMAX
 10
297.0
 20
210.0
 30
0.0
  9
$EXTMIN
 10
0.0
 20
0.0
 30
0.0
  9
$LIMMIN
 10
0.0
 20
0.0
  9
$LIMMAX
 10
297.0
 20
210.0
  9
$VIEWCTR
 10
148.5
 20
105.0
  9
$VIEWSIZE
 40
210.0
  9
$CLAYER
  8
0
  9
$LTSCALE
 40
16.335
  9
$CELTYPE
  6
BYLAYER
  9
$DIMSCALE
 40
1.0
  9
$DIMASZ
 40
3.0
  9
$DIMEXO
 40
0.5
  9
$DIMDLI
 40
11.286
  9
$DIMEXE
 40
1.5
  9
$DIMCEN
 40
2.673
  9
$DIMLFAC
 40
1.0
  9
$DIMBLK
  1
_FILLED
  9
$DIMALT
 70
0
  9
$DIMALTF
 40
0.0393700787
  9
$DIMTXT
 40
3.0
  9
$DIMTOL
 70
1
  9
$DIMLIM
 70
0
  9
$DIMTFAC
 40
1.0
  9
$DIMTP
 40
0.01
  9
$DIMTM
 40
0.01
  9
$DIMGAP
 40
0.625
  9
$DIMDSEP
 70
44
  9
$AUNITS
 70
0
  9
$PDMODE
 70
3
  9
$PDSIZE
 40
3.0
  9
$HANDSEED
  5
3DD
  9
$TILEMODE
 70
1
  9
$MEASUREMENT
 70
1
  9
$INSUNITS
 70
4
  0
ENDSEC
  0
SECTION
  2
CLASSES
  0
CLASS
  1
ACDBDICTIONARYWDFLT
  2
AcDbDictionaryWithDefault
  3
AutoCAD 2000
 90
0
 91
1
280
0
281
0
  0
CLASS
  1
ACDBPLACEHOLDER
  2
AcDbPlaceHolder
  3
AutoCAD 2000
 90
0
 91
1
280
0
281
0
  0
CLASS
  1
LAYOUT
  2
AcDbLayout
  3
AutoCAD 2000
 90
0
 91
0
280
0
281
0
  0
ENDSEC
  0
SECTION
  2
TABLES
  0
TABLE
  2
VPORT
  5
8
100
AcDbSymbolTable
 70
2
  0
VPORT
  5
1F4
100
AcDbSymbolTableRecord
100
AcDbViewportTableRecord
  2
*ACTIVE
 70
0
 10
0.0
 20
0.0
 11
1.0
 21
1.0
 12
148.5
 22
105.0
 13
0.0
 23
0.0
 14
1.0
 24
1.0
 15
0.0
 25
0.0
 16
0.0
 26
0.0
 36
1.0
 17
0.0
 27
0.0
 37
0.0
 40
210.0
 41
1.4142857143
 42
50.0
 43
0.0
 44
0.0
 50
0.0
 51
0.0
 71
0
 72
100
 73
1
 74
1
 75
0
 76
0
 77
0
 78
0
  0
ENDTAB
  0
TABLE
  2
LTYPE
  5
5
100
AcDbSymbolTable
 70
6
  0
LTYPE
  5
14
100
AcDbSymbolTableRecord
100
AcDbLinetypeTableRecord
  2
BYBLOCK
 70
0
  3

 72
65
 73
0
 40
0.0
  0
LTYPE
  5
15
100
AcDbSymbolTableRecord
100
AcDbLinetypeTableRecord
  2
BYLAYER
 70
0
  3

 72
65
 73
0
 40
0.0
  0
LTYPE
  5
16
100
AcDbSymbolTableRecord
100
AcDbLinetypeTableRecord
  2
CONTINUOUS
 70
64
  3
Solid line
 72
65
 73
0
 40
0.0
  0
LTYPE
  5
1F5
100
AcDbSymbolTableRecord
100
AcDbLinetypeTableRecord
  2
CENTER
 70
64
  3
____ _ ____ _ ____ _ ____ _ ____ _ ____ _ ____
 72
65
 73
4
 40
0.6
 49
0.375
 74
0
 49
-0.075
 74
0
 49
0.075
 74
0
 49
-0.075
 74
0
  0
LTYPE
  5
1F6
100
AcDbSymbolTableRecord
100
AcDbLinetypeTableRecord
  2
HIDDEN
 70
64
  3
- - - - - - - - - - - - - - - - - - - -
 72
65
 73
2
 40
0.2
 49
0.1
 74
0
 49
-0.1
 74
0
  0
LTYPE
  5
1F7
100
AcDbSymbolTableRecord
100
AcDbLinetypeTableRecord
  2
PHANTOM
 70
64
  3
_____ _ _ _____ _ _ _____ _ _ _____
 72
65
 73
6
 40
0.8
 49
0.45
 74
0
 49
-0.05
 74
0
 49
0.1
 74
0
 49
-0.05
 74
0
 49
0.1
 74
0
 49
-0.05
 74
0
  0
LTYPE
  5
1F8
100
AcDbSymbolTableRecord
100
AcDbLinetypeTableRecord
  2
DOT
 70
64
  3
. . . . . . . . . . . . . . . . . . . .
 72
65
 73
2
 40
0.2
 49
0.1
 74
0
 49
-0.1
 74
0
  0
LTYPE
  5
1F9
100
AcDbSymbolTableRecord
100
AcDbLinetypeTableRecord
  2
DASHED
 70
64
  3
- - - - - - - - - - - - - - - - - - - -
 72
65
 73
2
 40
0.2
 49
0.1
 74
0
 49
-0.1
 74
0
  0
ENDTAB
  0
TABLE
  2
LAYER
  5
2
100
AcDbSymbolTable
 70
36
  0
LAYER
  5
10
100
AcDbSymbolTableRecord
100
AcDbLayerTableRecord
  2
0
 70
0
 62
7
  6
CONTINUOUS
370
-3
390
F
  0
LAYER
  5
1FA
100
AcDbSymbolTableRecord
100
AcDbLayerTableRecord
  2
DEFAULT_1
 70
0
 62
7
  6
CENTER
370
-3
390
F
  0
LAYER
  5
1FB
100
AcDbSymbolTableRecord
100
AcDbLayerTableRecord
  2
DEFAULT_2
 70
0
 62
7
  6
HIDDEN
370
-3
390
F
  0
LAYER
  5
1FC
100
AcDbSymbolTableRecord
100
AcDbLayerTableRecord
  2
DEFAULT_3
 70
0
 62
7
  6
PHANTOM
370
-3
390
F
  0
LAYER
  5
1FD
100
AcDbSymbolTableRecord
100
AcDbLayerTableRecord
  2
ASSI
 70
0
 62
7
  6
CONTINUOUS
370
-3
390
F
  0
LAYER
  5
1FE
100
AcDbSymbolTableRecord
100
AcDbLayerTableRecord
  2
COLOR5
 70
0
 62
7
  6
CONTINUOUS
370
-3
390
F
  0
LAYER
  5
1FF
100
AcDbSymbolTableRecord
100
AcDbLayerTableRecord
  2
COORDINATE
 70
0
 62
7
  6
CONTINUOUS
370
-3
390
F
  0
LAYER
  5
200
100
AcDbSymbolTableRecord
100
AcDbLayerTableRecord
  2
COORD_ORIGINE
 70
0
 62
7
  6
CONTINUOUS
370
-3
390
F
  0
LAYER
  5
201
100
AcDbSymbolTableRecord
100
AcDbLayerTableRecord
  2
CURVE
 70
0
 62
7
  6
CONTINUOUS
370
-3
390
F
  0
LAYER
  5
202
100
AcDbSymbolTableRecord
100
AcDbLayerTableRecord
  2
DRAFT
 70
0
 62
7
  6
CONTINUOUS
370
-3
390
F
  0
LAYER
  5
203
100
AcDbSymbolTableRecord
100
AcDbLayerTableRecord
  2
IGES-SCRITTE
 70
0
 62
7
  6
CONTINUOUS
370
-3
390
F
  0
LAYER
  5
204
100
AcDbSymbolTableRecord
100
AcDbLayerTableRecord
  2
NOTE
 70
0
 62
7
  6
CONTINUOUS
370
-3
390
F
  0
LAYER
  5
205
100
AcDbSymbolTableRecord
100
AcDbLayerTableRecord
  2
PIANI
 70
0
 62
7
  6
CONTINUOUS
370
-3
390
F
  0
LAYER
  5
206
100
AcDbSymbolTableRecord
100
AcDbLayerTableRecord
  2
PIANI_ORIGINE
 70
0
 62
7
  6
CONTINUOUS
370
-3
390
F
  0
LAYER
  5
207
100
AcDbSymbolTableRecord
100
AcDbLayerTableRecord
  2
PUNTI
 70
0
 62
7
  6
CONTINUOUS
370
-3
390
F
  0
LAYER
  5
208
100
AcDbSymbolTableRecord
100
AcDbLayerTableRecord
  2
RACCORDO
 70
0
 62
7
  6
CONTINUOUS
370
-3
390
F
  0
LAYER
  5
209
100
AcDbSymbolTableRecord
100
AcDbLayerTableRecord
  2
SMUSSO
 70
0
 62
7
  6
CONTINUOUS
370
-3
390
F
  0
LAYER
  5
20A
100
AcDbSymbolTableRecord
100
AcDbLayerTableRecord
  2
SNAPLINE
 70
0
 62
7
  6
CONTINUOUS
370
-3
390
F
  0
LAYER
  5
20B
100
AcDbSymbolTableRecord
100
AcDbLayerTableRecord
  2
SUPERFICI
 70
0
 62
7
  6
CONTINUOUS
370
-3
390
F
  0
LAYER
  5
20C
100
AcDbSymbolTableRecord
100
AcDbLayerTableRecord
  2
TRASH
 70
0
 62
7
  6
CONTINUOUS
370
-3
390
F
  0
ENDTAB
  0
TABLE
  2
STYLE
  5
3
100
AcDbSymbolTable
 70
1
  0
STYLE
  5
11
100
AcDbSymbolTableRecord
100
AcDbTextStyleTableRecord
  2
STANDARD
 70
0
 40
0.0
 41
0.8
 50
0.0
 71
0
 42
0.2
  3
txt
  4

  0
STYLE
  5
20D
100
AcDbSymbolTableRecord
100
AcDbTextStyleTableRecord
  2
TEXTSTYLE_1
 70
0
 40
0.0
 41
0.8
 50
0.0
 71
0
 42
0.2
  3
gdt
  4

  0
ENDTAB
  0
TABLE
  2
VIEW
  5
6
100
AcDbSymbolTable
 70
0
  0
ENDTAB
  0
TABLE
  2
UCS
  5
7
100
AcDbSymbolTable
 70
0
  0
ENDTAB
  0
TABLE
  2
APPID
  5
9
100
AcDbSymbolTable
 70
1
  0
APPID
  5
20E
100
AcDbSymbolTableRecord
100
AcDbRegAppTableRecord
  2
ACAD
 70
0
  0
ENDTAB
  0
TABLE
  2
BLOCK_RECORD
  5
1
100
AcDbSymbolTable
 70
0
  0
BLOCK_RECORD
  5
20F
100
AcDbSymbolTableRecord
100
AcDbBlockTableRecord
  2
*Model_Space
  0
BLOCK_RECORD
  5
210
100
AcDbSymbolTableRecord
100
AcDbBlockTableRecord
  2
*Paper_Space
  0
BLOCK_RECORD
  5
211
100
AcDbSymbolTableRecord
100
AcDbBlockTableRecord
  2
_FILLED
  0
ENDTAB
  0
TABLE
  2
DIMSTYLE
  5
A
100
AcDbSymbolTable
 70
1
100
AcDbDimStyleTable
 71
0
  0
DIMSTYLE
105
212
100
AcDbSymbolTableRecord
100
AcDbDimStyleTableRecord
  2
STANDARD
 70
0
  3

  4

 40
1.0
 41
3.0
 42
0.5
 43
0.38
 44
1.5
 45
0.0
 46
0.0
 47
0.01
 48
0.01
140
3.0
141
0.09
142
0.0
143
25.4
144
1.0
145
0.0
146
1.0
147
0.625
 71
1.0
 72
0.0
 73
0
 74
0
 75
0
 76
0
 77
1
 78
8
 79
2
170
0
171
1
172
0
173
0
174
0
175
0
176
0
177
0
178
0
270
2
179
2
271
2
272
2
273
2
274
2
275
0
280
0
281
0
282
0
283
1
284
8
285
0
286
0
287
3
288
0
340
11
278
44
341
211
342
211
343
211
344
211
  0
ENDTAB
  0
ENDSEC
  0
SECTION
  2
BLOCKS
  0
BLOCK
  5
20
100
AcDbEntity
  8
0
100
AcDbBlockBegin
  2
*Model_Space
 70
0
 10
0.0
 20
0.0
 30
0.0
  3
*Model_Space
  1

  0
ENDBLK
  5
21
100
AcDbEntity
  8
0
100
AcDbBlockEnd
  0
BLOCK
  5
1C
100
AcDbEntity
  8
0
100
AcDbBlockBegin
  2
*Paper_Space
 70
0
 10
0.0
 20
0.0
 30
0.0
  3
*Paper_Space
  1

  0
ENDBLK
  5
1D
100
AcDbEntity
  8
0
100
AcDbBlockEnd
  0
BLOCK
  5
213
100
AcDbEntity
  8
0
100
AcDbBlockBegin
  2
_FILLED
 70
64
 10
0.0
 20
0.0
  3
_FILLED
  1

  0
SOLID
  5
214
100
AcDbEntity
  8
0
  6
BYBLOCK
 62
0
100
AcDbTrace
 10
0.0
 20
0.0
 11
-1.0
 21
0.3166666667
 12
-1.0
 22
-0.3166666667
 13
-1.0
 23
-0.3166666667
  0
ENDBLK
  5
215
100
AcDbEntity
  8
0
  6
BYBLOCK
 62
0
100
AcDbBlockEnd
  0
ENDSEC
  0
SECTION
  2
ENTITIES
  0
LWPOLYLINE
  5
216
100
AcDbEntity
  8
RACCORDO
100
AcDbPolyline
 62
7
  6
CONTINUOUS
 90
12
 70
0
 10
-51.8585520271
 20
53.3159244744
 10
-52.0218976562
 20
53.2179152389
 10
-52.1670400522
 20
53.1055603014
 10
-52.2997969084
 20
52.976068862
 10
-52.4190502279
 20
52.8305186135
 10
-52.5239468153
 20
52.6700425694
 10
-52.6137300677
 20
52.4957812335
 10
-52.6879057146
 20
52.3086975013
 10
-52.7462279683
 20
52.1092117404
 10
-52.7882193289
 20
51.897861713
 10
-52.8133615904
 20
51.6756378311
 10
-52.8211901966
 20
51.4570882146
  0
LINE
  5
217
100
AcDbEntity
  8
RACCORDO
100
AcDbLine
 62
7
  6
CONTINUOUS
 10
-51.8587333602
 20
53.3158407051
 11
-31.3147108936
 21
63.9902269256
  0
LINE
  5
218
100
AcDbEntity
  8
RACCORDO
100
AcDbLine
 62
250
  6
CONTINUOUS
 10
-50.4992294694
 20
53.2397721004
 11
-29.9575243035
 21
63.9129540813
  0
LWPOLYLINE
  5
219
100
AcDbEntity
  8
RACCORDO
100
AcDbPolyline
 62
7
  6
CONTINUOUS
 90
17
 70
0
 10
-52.8211918475
 20
-15.2166877324
 10
-52.8107086338
 20
-15.4774415615
 10
-52.7812653216
 20
-15.7313432118
 10
-52.7335566091
 20
-15.9863717436
 10
-52.6683310337
 20
-16.2409176062
 10
-52.5863919037
 20
-16.4930119232
 10
-52.4886609376
 20
-16.7407811768
 10
-52.375872845
 20
-16.9828272823
 10
-52.2487163881
 20
-17.2177396011
 10
-52.1079377212
 20
-17.444034332
 10
-51.9544079742
 20
-17.659893313
 10
-51.7891063664
 20
-17.8636074303
 10
-51.6122988459
 20
-18.0541448891
 10
-51.4253391933
 20
-18.2292891672
 10
-51.2308032218
 20
-18.3861461827
 10
-51.0301503615
 20
-18.5233143913
 10
-50.8075374421
 20
-18.6483270361
  0
LWPOLYLINE
  5
21A
100
AcDbEntity
  8
RACCORDO
100
AcDbPolyline
 62
250
  6
CONTINUOUS
 90
13
 70
0
 10
-50.9898848015
 20
52.3882497346
 10
-50.9856970909
 20
52.4690336579
 10
-50.9732048144
 20
52.5526383827
 10
-50.9526193446
 20
52.6376492426
 10
-50.9242889981
 20
52.7226277775
 10
-50.8886931438
 20
52.8061360683
 10
-50.8464340932
 20
52.8867610683
 10
-50.7982269042
 20
52.9631385231
 10
-50.7448872851
 20
53.0339760473
 10
-50.6873177969
 20
53.0980749892
 10
-50.6264925722
 20
53.1543507262
 10
-50.5634408306
 20
53.2018510156
 10
-50.4992294694
 20
53.2397721004
  0
LWPOLYLINE
  5
21B
100
AcDbEntity
  8
DRAFT
100
AcDbPolyline
 62
7
  6
CONTINUOUS
 90
10
 70
0
 10
-48.0230801418
 20
42.8764280088
 10
-47.95565069
 20
42.9064648108
 10
-47.7447117007
 20
42.9792977717
 10
-47.5238703033
 20
43.0251498498
 10
-47.2925082762
 20
43.0436340765
 10
-47.051243841
 20
43.0351374203
 10
-46.8052552507
 20
42.9997483306
 10
-46.5562685897
 20
42.9374962906
 10
-46.3025577734
 20
42.848351817
 10
-46.0441228021
 20
42.73231491
  0
LWPOLYLINE
  5
21C
100
AcDbEntity
  8
RACCORDO
100
AcDbPolyline
 62
250
  6
CONTINUOUS
 90
8
 70
0
 10
-50.9898848015
 20
-18.2695091613
 10
-50.9856970778
 20
-18.3461054949
 10
-50.9732047671
 20
-18.4172180215
 10
-50.9526192511
 20
-18.4816434488
 10
-50.9242888567
 20
-18.5382916368
 10
-50.8886929611
 20
-18.586204044
 10
-50.8464338812
 20
-18.6245699463
 10
-50.8079595715
 20
-18.6481208215
  0
LWPOLYLINE
  5
21D
100
AcDbEntity
  8
RACCORDO
100
AcDbPolyline
 62
250
  6
CONTINUOUS
 90
25
 70
0
 10
-52.616168472
 20
-15.4645847412
 10
-52.6152155362
 20
-15.5714641399
 10
-52.6075935514
 20
-15.6862184226
 10
-52.5933025177
 20
-15.8088475892
 10
-52.5728094077
 20
-15.9405384786
 10
-52.5456472486
 20
-16.0801042519
 10
-52.5104151225
 20
-16.2239843927
 10
-52.4665601542
 20
-16.3725158798
 10
-52.4146352188
 20
-16.5253617343
 10
-52.3548980226
 20
-16.6779505041
 10
-52.2868083829
 20
-16.8302641569
 10
-52.2109064824
 20
-16.9823207249
 10
-52.1290705762
 20
-17.1296028525
 10
-52.0408870018
 20
-17.2717875114
 10
-51.9467694218
 20
-17.4091977299
 10
-51.8498370785
 20
-17.5382852369
 10
-51.7499117107
 20
-17.6584567073
 10
-51.6471715797
 20
-17.7703054663
 10
-51.5452707116
 20
-17.8720632186
 10
-51.4442757553
 20
-17.9630536008
 10
-51.3441200619
 20
-18.0439529764
 10
-51.2482577118
 20
-18.1150221407
 10
-51.1578400651
 20
-18.1763480255
 10
-51.0717157617
 20
-18.227843699
 10
-50.9898848015
 20
-18.2695091613
  0
LINE
  5
21E
100
AcDbEntity
  8
RACCORDO
100
AcDbLine
 62
7
  6
CONTINUOUS
 10
-52.8211937252
 20
51.4570963584
 11
-52.8211937252
 21
-15.2170973657
  0
LINE
  5
21F
100
AcDbEntity
  8
RACCORDO
100
AcDbLine
 62
250
  6
CONTINUOUS
 10
-52.616168472
 20
51.209608985
 11
-52.616168472
 21
-15.4645847412
  0
LINE
  5
220
100
AcDbEntity
  8
DRAFT
100
AcDbLine
 62
7
  6
CONTINUOUS
 10
-49.579656708
 20
-9.1934931717
 11
-49.579656708
 21
-6.5954169603
  0
LWPOLYLINE
  5
221
100
AcDbEntity
  8
DRAFT
100
AcDbPolyline
 62
7
  6
CONTINUOUS
 90
13
 70
0
 10
-49.579656708
 20
-6.5954169603
 10
-49.5688948107
 20
-6.2842810033
 10
-49.5381039615
 20
-5.9889454069
 10
-49.4872841607
 20
-5.7094101711
 10
-49.4157548099
 20
-5.4439015821
 10
-49.3241965074
 20
-5.1941933537
 10
-49.2146510475
 20
-4.9656066276
 10
-49.0870548596
 20
-4.7589303527
 10
-48.9414715142
 20
-4.57337558
 10
-48.7801335179
 20
-4.411896604
 10
-48.6022371283
 20
-4.2745969487
 10
-48.4085860878
 20
-4.16137309
 10
-48.3764044866
 20
-4.1456464101
  0
LINE
  5
222
100
AcDbEntity
  8
DRAFT
100
AcDbLine
 62
7
  6
CONTINUOUS
 10
-39.7203765337
 20
33.4162551229
 11
-37.523931298
 21
35.0081175428
  0
LINE
  5
223
100
AcDbEntity
  8
DRAFT
100
AcDbLine
 62
7
  6
CONTINUOUS
 10
-41.7263572229
 20
31.9624309063
 11
-42.130350316
 21
31.669638984
  0
LINE
  5
224
100
AcDbEntity
  8
DRAFT
100
AcDbLine
 62
7
  6
CONTINUOUS
 10
-37.2993284039
 20
34.8958160957
 11
-38.3266083808
 21
34.1513002009
  0
LINE
  5
225
100
AcDbEntity
  8
DRAFT
100
AcDbLine
 62
250
  6
CONTINUOUS
 10
-40.9320228578
 20
37.6034227271
 11
-46.0441228021
 21
34.9380862759
  0
LINE
  5
226
100
AcDbEntity
  8
DRAFT
100
AcDbLine
 62
250
  6
CONTINUOUS
 10
-40.795268322
 20
35.5080536011
 11
-43.9228024586
 21
33.8774261041
  0
LINE
  5
227
100
AcDbEntity
  8
0
100
AcDbLine
 62
7
  6
CONTINUOUS
 10
-43.9357611961
 20
5.722175727
 11
-43.9357611961
 21
21.3424412409
  0
LINE
  5
228
100
AcDbEntity
  8
DRAFT
100
AcDbLine
 62
7
  6
CONTINUOUS
 10
-43.2156956774
 20
-9.7773974757
 11
-43.2156956774
 21
-12.375473687
  0
LINE
  5
229
100
AcDbEntity
  8
0
100
AcDbLine
 62
7
  6
CONTINUOUS
 10
-42.4378782181
 20
21.4594921801
 11
-42.4378782181
 21
6.4740296258
  0
LWPOLYLINE
  5
22A
100
AcDbEntity
  8
DRAFT
100
AcDbPolyline
 62
7
  6
CONTINUOUS
 90
12
 70
0
 10
-43.2156956774
 20
-12.375473687
 10
-43.2264575747
 20
-12.6866096441
 10
-43.2572484239
 20
-12.9819452405
 10
-43.3080682248
 20
-13.2614804763
 10
-43.3795975755
 20
-13.5269890653
 10
-43.471155878
 20
-13.7766972937
 10
-43.5807013379
 20
-14.0052840198
 10
-43.7082975258
 20
-14.2119602947
 10
-43.8538808712
 20
-14.3975150673
 10
-44.0152188676
 20
-14.5589940434
 10
-44.1931152571
 20
-14.6962936987
 10
-44.3523751999
 20
-14.7917859488
  0
LWPOLYLINE
  5
22B
100
AcDbEntity
  8
DRAFT
100
AcDbPolyline
 62
7
  6
CONTINUOUS
 90
7
 70
0
 10
-40.8259378569
 20
32.2228697902
 10
-40.6681012894
 20
32.3147650117
 10
-40.4400872826
 20
32.480016996
 10
-40.2309232589
 20
32.6730706963
 10
-40.0418910341
 20
32.8929971225
 10
-39.8717087924
 20
33.1407252647
 10
-39.7203765337
 20
33.4162551229
  0
LINE
  5
22C
100
AcDbEntity
  8
DRAFT
100
AcDbLine
 62
7
  6
CONTINUOUS
 10
-36.510071544
 20
34.5011876658
 11
-40.8259100405
 21
32.2228153463
  0
LINE
  5
22D
100
AcDbEntity
  8
DRAFT
100
AcDbLine
 62
7
  6
CONTINUOUS
 10
-38.3266083808
 20
34.1513002009
 11
-39.7203765337
 21
33.4162551229
  0
LINE
  5
22E
100
AcDbEntity
  8
DRAFT
100
AcDbLine
 62
7
  6
CONTINUOUS
 10
-41.5161222926
 20
31.9932005028
 11
-42.130350316
 21
31.669638984
  0
LWPOLYLINE
  5
22F
100
AcDbEntity
  8
DRAFT
100
AcDbPolyline
 62
7
  6
CONTINUOUS
 90
10
 70
0
 10
-41.8771819715
 20
33.766612704
 10
-42.0112745707
 20
33.7032762033
 10
-42.22221356
 20
33.6304432424
 10
-42.4430549574
 20
33.5845911643
 10
-42.6744169845
 20
33.5661069376
 10
-42.9156814196
 20
33.5746035938
 10
-43.1616700099
 20
33.6099926835
 10
-43.410656671
 20
33.6722447235
 10
-43.6643674872
 20
33.7613891971
 10
-43.9228024586
 20
33.8774261041
  0
LWPOLYLINE
  5
230
100
AcDbEntity
  8
ASSI
100
AcDbPolyline
 62
7
  6
CONTINUOUS
 90
4
 70
0
 10
8.8263908714
 20
-42.579764618
 10
8.9102214648
 20
-42.5707317807
 10
8.9870424251
 20
-42.5488208681
 10
9.0223492967
 20
-42.5332724592
  0
LWPOLYLINE
  5
231
100
AcDbEntity
  8
RACCORDO
100
AcDbPolyline
 62
7
  6
CONTINUOUS
 90
11
 70
0
 10
30.5014274434
 20
-59.3028125804
 10
30.6500312975
 20
-59.3711179525
 10
30.8279828483
 20
-59.4373586738
 10
31.0057418182
 20
-59.4867892246
 10
31.1824473492
 20
-59.5192716313
 10
31.3567981931
 20
-59.5347810124
 10
31.527921243
 20
-59.5334590645
 10
31.6947053332
 20
-59.5155228233
 10
31.8552493087
 20
-59.4816260183
 10
32.0082212224
 20
-59.4326982181
 10
32.1367321746
 20
-59.3775762203
  0
LWPOLYLINE
  5
232
100
AcDbEntity
  8
RACCORDO
100
AcDbPolyline
 62
7
  6
CONTINUOUS
 90
11
 70
0
 10
-41.540821943
 20
13.4133482763
 10
-41.5403542676
 20
13.400369147
 10
-41.5384389036
 20
13.3830841938
 10
-41.5351349046
 20
13.3649836128
 10
-41.5304979081
 20
13.3462568104
 10
-41.5245920173
 20
13.3269097083
 10
-41.5174843508
 20
13.3068901962
 10
-41.50917576
 20
13.2862995927
 10
-41.4996813567
 20
13.2651564078
 10
-41.4890614347
 20
13.2433998505
 10
-41.4773584017
 20
13.2210111097
  0
LWPOLYLINE
  5
233
100
AcDbEntity
  8
RACCORDO
100
AcDbPolyline
 62
7
  6
CONTINUOUS
 90
15
 70
0
 10
-41.5407726706
 20
9.4534233022
 10
-41.5395678679
 20
9.4017373135
 10
-41.5366475831
 20
9.3501902522
 10
-41.5318686629
 20
9.2986995427
 10
-41.5250971465
 20
9.2474450016
 10
-41.5161460708
 20
9.1968880196
 10
-41.5048712663
 20
9.147074043
 10
-41.4911031218
 20
9.0981083857
 10
-41.4745316348
 20
9.0505696935
 10
-41.454862036
 20
9.0043136336
 10
-41.4319702334
 20
8.9597353863
 10
-41.4057904883
 20
8.9182468402
 10
-41.3762361882
 20
8.8804195612
 10
-41.3431680179
 20
8.8459942964
 10
-41.3065073682
 20
8.8151471488
  0
LINE
  5
234
100
AcDbEntity
  8
0
100
AcDbLine
 62
7
  6
CONTINUOUS
 10
-42.130350316
 20
-6.4531888986
 11
-42.130350316
 21
3.9534778588
  0
LINE
  5
235
100
AcDbEntity
  8
0
100
AcDbLine
 62
7
  6
CONTINUOUS
 10
-42.130350316
 20
21.3057282291
 11
-42.130350316
 21
31.669638984
  0
LINE
  5
236
100
AcDbEntity
  8
RACCORDO
100
AcDbLine
 62
7
  6
CONTINUOUS
 10
-41.5408219432
 20
14.476369675
 11
-41.5408219432
 21
13.4133738774
  0
LINE
  5
237
100
AcDbEntity
  8
RACCORDO
100
AcDbLine
 62
7
  6
CONTINUOUS
 10
-41.5408219429
 20
9.4663603889
 11
-41.5408219432
 21
8.4033585464
  0
LINE
  5
238
100
AcDbEntity
  8
RACCORDO
100
AcDbLine
 62
250
  6
CONTINUOUS
 10
-41.3065073682
 20
13.9701589775
 11
-41.3065073682
 21
13.4988956476
  0
LINE
  5
239
100
AcDbEntity
  8
RACCORDO
100
AcDbLine
 62
250
  6
CONTINUOUS
 10
-41.3065073682
 20
8.8151471488
 11
-41.3065073682
 21
8.3438838189
  0
LINE
  5
23A
100
AcDbEntity
  8
0
100
AcDbLine
 62
7
  6
CONTINUOUS
 10
-40.6713455246
 20
4.7247708509
 11
-40.6713455246
 21
7.5710280486
  0
LINE
  5
23B
100
AcDbEntity
  8
0
100
AcDbLine
 62
7
  6
CONTINUOUS
 10
-40.6713455246
 20
16.707441276
 11
-40.6713455246
 21
22.0452789265
  0
LINE
  5
23C
100
AcDbEntity
  8
RACCORDO
100
AcDbLine
 62
250
  6
CONTINUOUS
 10
-40.599400587
 20
7.9903304283
 11
-40.599400587
 21
8.4615937582
  0
LINE
  5
23D
100
AcDbEntity
  8
RACCORDO
100
AcDbLine
 62
250
  6
CONTINUOUS
 10
-40.599400587
 20
13.145342257
 11
-40.599400587
 21
13.6166055869
  0
LINE
  5
23E
100
AcDbEntity
  8
RACCORDO
100
AcDbLine
 62
250
  6
CONTINUOUS
 10
-39.4680297371
 20
7.6897212001
 11
-39.4680297371
 21
9.2130671148
  0
LINE
  5
23F
100
AcDbEntity
  8
RACCORDO
100
AcDbLine
 62
250
  6
CONTINUOUS
 10
-39.4680297371
 20
12.3938689005
 11
-39.4680297371
 21
13.9172148151
  0
LINE
  5
240
100
AcDbEntity
  8
SMUSSO
100
AcDbLine
 62
7
  6
CONTINUOUS
 10
-37.063866681
 20
15.1265813305
 11
-37.063866681
 21
14.1042098226
  0
LINE
  5
241
100
AcDbEntity
  8
SMUSSO
100
AcDbLine
 62
7
  6
CONTINUOUS
 10
-37.063866681
 20
9.9068892487
 11
-37.063866681
 21
8.8845177408
  0
LWPOLYLINE
  5
242
100
AcDbEntity
  8
RACCORDO
100
AcDbPolyline
 62
7
  6
CONTINUOUS
 90
6
 70
0
 10
-41.5408219429
 20
14.476307301
 10
-41.5370177346
 20
14.5330807244
 10
-41.5193720974
 20
14.607130982
 10
-41.4872106571
 20
14.6756205964
 10
-41.4406924209
 20
14.7372183301
 10
-41.4200228542
 20
14.7580231541
  0
LINE
  5
243
100
AcDbEntity
  8
SMUSSO
100
AcDbLine
 62
7
  6
CONTINUOUS
 10
-36.0475065022
 20
11.6445916441
 11
-36.0742398888
 21
11.4539471602
  0
LWPOLYLINE
  5
244
100
AcDbEntity
  8
RACCORDO
100
AcDbPolyline
 62
7
  6
CONTINUOUS
 90
11
 70
0
 10
-41.4773584017
 20
9.9709895015
 10
-41.4890730128
 20
9.9193578828
 10
-41.4997100315
 20
9.8676657499
 10
-41.5092240955
 20
9.8159315344
 10
-41.5175534835
 20
9.7641985795
 10
-41.5246777967
 20
9.7124653536
 10
-41.5305895719
 20
9.6606822393
 10
-41.5352209142
 20
9.6088477429
 10
-41.5385064515
 20
9.5570101941
 10
-41.5403884601
 20
9.505194165
 10
-41.5408219429
 20
9.4663603889
  0
LWPOLYLINE
  5
245
100
AcDbEntity
  8
SMUSSO
100
AcDbPolyline
 62
7
  6
CONTINUOUS
 90
8
 70
0
 10
-36.0742398888
 20
11.4539471602
 10
-36.1184614144
 20
11.2766606905
 10
-36.1796738463
 20
11.1147256677
 10
-36.2571889037
 20
10.9699629109
 10
-36.3501349968
 20
10.844000152
 10
-36.4574670273
 20
10.7382537331
 10
-36.5779781396
 20
10.6539126811
 10
-36.6233215161
 20
10.629484459
  0
LINE
  5
246
100
AcDbEntity
  8
DRAFT
100
AcDbLine
 62
7
  6
CONTINUOUS
 10
-32.2522829314
 20
32.3722933595
 11
-33.7931800791
 21
31.571664807
  0
LINE
  5
247
100
AcDbEntity
  8
RACCORDO
100
AcDbLine
 62
7
  6
CONTINUOUS
 10
-31.4070124316
 20
31.1874669241
 11
-33.6357503323
 21
30.0294459609
  0
LWPOLYLINE
  5
248
100
AcDbEntity
  8
RACCORDO
100
AcDbPolyline
 62
7
  6
CONTINUOUS
 90
12
 70
0
 10
9.3061225463
 20
-36.3561438327
 10
9.3487475332
 20
-36.3490834818
 10
9.48060546
 20
-36.3443776568
 10
9.6160369434
 20
-36.3573423913
 10
9.755568232
 20
-36.3902744699
 10
9.891148784
 20
-36.4431738152
 10
10.0124662105
 20
-36.5109160195
 10
10.1193823315
 20
-36.5904426664
 10
10.2127350327
 20
-36.6798886203
 10
10.2896951695
 20
-36.7733013412
 10
10.353294775
 20
-36.8707219244
 10
10.3594389115
 20
-36.8828020153
  0
LWPOLYLINE
  5
249
100
AcDbEntity
  8
ASSI
100
AcDbPolyline
 62
7
  6
CONTINUOUS
 90
6
 70
0
 10
8.4422809448
 20
-41.8719566076
 10
8.4913581065
 20
-41.8913564692
 10
8.5373966002
 20
-41.9015061144
 10
8.5803964259
 20
-41.9024055431
 10
8.6211704782
 20
-41.8936674874
 10
8.64342353
 20
-41.8843662731
  0
LWPOLYLINE
  5
24A
100
AcDbEntity
  8
RACCORDO
100
AcDbPolyline
 62
250
  6
CONTINUOUS
 90
13
 70
0
 10
31.9457077676
 20
-57.745522861
 10
32.0141457669
 20
-57.7755541369
 10
32.0898011769
 20
-57.8008895312
 10
32.1713938357
 20
-57.8211003446
 10
32.2575431171
 20
-57.8358445909
 10
32.3467912928
 20
-57.8448727832
 10
32.4376281979
 20
-57.8480321558
 10
32.528516785
 20
-57.8452692492
 10
32.6179191321
 20
-57.8366308144
 10
32.7043224656
 20
-57.8222630219
 10
32.7862647583
 20
-57.8024089887
 10
32.8623594681
 20
-57.7774046639
 10
32.9313189994
 20
-57.7476731448
  0
LWPOLYLINE
  5
24B
100
AcDbEntity
  8
RACCORDO
100
AcDbPolyline
 62
250
  6
CONTINUOUS
 90
25
 70
0
 10
30.3194240971
 20
-58.9241636106
 10
30.4063017263
 20
-58.966435322
 10
30.4968865435
 20
-59.0023927438
 10
30.5911785487
 20
-59.0320358761
 10
30.6903374325
 20
-59.0565164866
 10
30.7932035042
 20
-59.0746828075
 10
30.896297692
 20
-59.0830795356
 10
30.9996694275
 20
-59.0810542559
 10
31.103269279
 20
-59.0692593833
 10
31.2034698796
 20
-59.046196859
 10
31.3000359774
 20
-59.0110874707
 10
31.3932028242
 20
-58.9647104307
 10
31.480048809
 20
-58.9079053167
 10
31.5601413034
 20
-58.8399491835
 10
31.6339129358
 20
-58.7615649763
 10
31.6997399805
 20
-58.6757611083
 10
31.7570652146
 20
-58.5820406436
 10
31.806445861
 20
-58.4809005183
 10
31.8479298627
 20
-58.3768399536
 10
31.8809921803
 20
-58.2696780576
 10
31.9061578533
 20
-58.1595957223
 10
31.9250499424
 20
-58.0516348452
 10
31.938209468
 20
-57.9474760589
 10
31.9450954097
 20
-57.8454387308
 10
31.9457077676
 20
-57.745522861
  0
LINE
  5
24C
100
AcDbEntity
  8
RACCORDO
100
AcDbLine
 62
7
  6
CONTINUOUS
 10
30.5013493255
 20
-59.30277527
 11
30.5014267504
 21
-59.3028139665
  0
LINE
  5
24D
100
AcDbEntity
  8
RACCORDO
100
AcDbLine
 62
7
  6
CONTINUOUS
 10
-50.8079595715
 20
-18.6481208215
 11
30.5013493255
 21
-59.30277527
  0
LINE
  5
24E
100
AcDbEntity
  8
RACCORDO
100
AcDbLine
 62
250
  6
CONTINUOUS
 10
-50.9898848015
 20
-18.2695091613
 11
30.3194240971
 21
-58.9241636106
  0
LINE
  5
24F
100
AcDbEntity
  8
ASSI
100
AcDbLine
 62
7
  6
CONTINUOUS
 10
4.7373255666
 20
-41.8513261634
 11
5.2606036766
 21
-42.1129565582
  0
LINE
  5
250
100
AcDbEntity
  8
ASSI
100
AcDbLine
 62
7
  6
CONTINUOUS
 10
8.79400212
 20
-43.8796557799
 11
9.383394714
 21
-44.1743442826
  0
LINE
  5
251
100
AcDbEntity
  8
ASSI
100
AcDbLine
 62
7
  6
CONTINUOUS
 10
2.8471959065
 20
-40.9062613334
 11
3.3704612885
 21
-41.1678853641
  0
LINE
  5
252
100
AcDbEntity
  8
ASSI
100
AcDbLine
 62
7
  6
CONTINUOUS
 10
0.7826449237
 20
-39.8739936362
 11
1.3059230337
 21
-40.135624897
  0
LINE
  5
253
100
AcDbEntity
  8
ASSI
100
AcDbLine
 62
7
  6
CONTINUOUS
 10
-0.9295441433
 20
-39.0178991027
 11
-0.4062455273
 21
-39.2795406165
  0
LINE
  5
254
100
AcDbEntity
  8
ASSI
100
AcDbLine
 62
7
  6
CONTINUOUS
 10
1.8291891228
 20
-40.3972579415
 11
2.3524672328
 21
-40.6588969965
  0
LINE
  5
255
100
AcDbEntity
  8
ASSI
100
AcDbLine
 62
7
  6
CONTINUOUS
 10
3.8651963262
 20
-41.4152615432
 11
4.3884751432
 21
-41.6769009517
  0
LINE
  5
256
100
AcDbEntity
  8
ASSI
100
AcDbLine
 62
7
  6
CONTINUOUS
 10
7.2895603182
 20
-43.1274348789
 11
7.8128454992
 21
-43.3890774695
  0
LINE
  5
257
100
AcDbEntity
  8
ASSI
100
AcDbLine
 62
7
  6
CONTINUOUS
 10
6.4174247137
 20
-42.6913670767
 11
6.9407098948
 21
-42.9530183275
  0
LINE
  5
258
100
AcDbEntity
  8
ASSI
100
AcDbLine
 62
7
  6
CONTINUOUS
 10
4.8787469228
 20
-41.7806154853
 11
5.297676909
 21
-41.9900735451
  0
LINE
  5
259
100
AcDbEntity
  8
ASSI
100
AcDbLine
 62
7
  6
CONTINUOUS
 10
8.9354234763
 20
-43.8089451018
 11
9.3235420521
 21
-44.0029992571
  0
LINE
  5
25A
100
AcDbEntity
  8
ASSI
100
AcDbLine
 62
7
  6
CONTINUOUS
 10
2.9886172627
 20
-40.8355506552
 11
3.4035710278
 21
-41.0430206701
  0
LINE
  5
25B
100
AcDbEntity
  8
ASSI
100
AcDbLine
 62
7
  6
CONTINUOUS
 10
0.92406628
 20
-39.8032829581
 11
1.3059233458
 21
-39.9942058032
  0
LINE
  5
25C
100
AcDbEntity
  8
ASSI
100
AcDbLine
 62
7
  6
CONTINUOUS
 10
-0.7881227871
 20
-38.9471884246
 11
-0.3691722023
 21
-39.1566574769
  0
LINE
  5
25D
100
AcDbEntity
  8
ASSI
100
AcDbLine
 62
7
  6
CONTINUOUS
 10
1.9706104791
 20
-40.3265472634
 11
2.3524672328
 21
-40.5174756403
  0
LINE
  5
25E
100
AcDbEntity
  8
ASSI
100
AcDbLine
 62
7
  6
CONTINUOUS
 10
4.0066176824
 20
-41.3445508651
 11
4.3884751432
 21
-41.5354795955
  0
LINE
  5
25F
100
AcDbEntity
  8
ASSI
100
AcDbLine
 62
7
  6
CONTINUOUS
 10
7.4309816744
 20
-43.0567242008
 11
7.812852198
 21
-43.2476594626
  0
LINE
  5
260
100
AcDbEntity
  8
ASSI
100
AcDbLine
 62
7
  6
CONTINUOUS
 10
6.55884607
 20
-42.6206563986
 11
6.9036354781
 21
-42.7930568089
  0
LWPOLYLINE
  5
261
100
AcDbEntity
  8
RACCORDO
100
AcDbPolyline
 62
250
  6
CONTINUOUS
 90
7
 70
0
 10
-52.616168472
 20
-15.4645847412
 10
-52.6762309338
 20
-15.4303657996
 10
-52.7269016795
 20
-15.3925381501
 10
-52.7673233039
 20
-15.3517418681
 10
-52.7968118255
 20
-15.3086672607
 10
-52.8148682587
 20
-15.2640431898
 10
-52.8211937252
 20
-15.2170973657
  0
LINE
  5
262
100
AcDbEntity
  8
DRAFT
100
AcDbLine
 62
7
  6
CONTINUOUS
 10
-37.5588414279
 20
-14.337875408
 11
-42.130350316
 21
-6.4531888986
  0
LINE
  5
263
100
AcDbEntity
  8
DRAFT
100
AcDbLine
 62
7
  6
CONTINUOUS
 10
-40.7408219432
 20
-5.7035064634
 11
-36.1446278655
 21
-13.6307686268
  0
LWPOLYLINE
  5
264
100
AcDbEntity
  8
RACCORDO
100
AcDbPolyline
 62
7
  6
CONTINUOUS
 90
3
 70
0
 10
-41.5345821979
 20
8.3795817569
 10
-41.5403302967
 20
8.3963111172
 10
-41.5408219429
 20
8.403444841
  0
LINE
  5
265
100
AcDbEntity
  8
DRAFT
100
AcDbLine
 62
7
  6
CONTINUOUS
 10
-33.7931800791
 20
-5.5703611987
 11
-33.7931800791
 21
10.3110295349
  0
LINE
  5
266
100
AcDbEntity
  8
DRAFT
100
AcDbLine
 62
7
  6
CONTINUOUS
 10
-33.7931800791
 20
20.1938945639
 11
-33.7931800791
 21
33.1427419333
  0
LINE
  5
267
100
AcDbEntity
  8
DRAFT
100
AcDbLine
 62
7
  6
CONTINUOUS
 10
-31.6191444659
 20
25.8808741676
 11
-31.6191444659
 21
31.0772460935
  0
LWPOLYLINE
  5
268
100
AcDbEntity
  8
SMUSSO
100
AcDbPolyline
 62
7
  6
CONTINUOUS
 90
5
 70
0
 10
-36.0385618483
 20
11.4928971193
 10
-36.0541371537
 20
11.2095228321
 10
-36.095566937
 20
10.9509755145
 10
-36.1628511982
 20
10.7172551664
 10
-36.2576800898
 20
10.5057473506
  0
LINE
  5
269
100
AcDbEntity
  8
SMUSSO
100
AcDbLine
 62
7
  6
CONTINUOUS
 10
-36.7842131603
 20
10.4453212908
 11
-36.7103132905
 21
10.5919253381
  0
LINE
  5
26A
100
AcDbEntity
  8
SMUSSO
100
AcDbLine
 62
7
  6
CONTINUOUS
 10
-36.8608264046
 20
10.2955006
 11
-36.7842131603
 21
10.4453212908
  0
LINE
  5
26B
100
AcDbEntity
  8
SMUSSO
100
AcDbLine
 62
7
  6
CONTINUOUS
 10
-36.9401217245
 20
10.1424644004
 11
-36.8608264046
 21
10.2955006
  0
LWPOLYLINE
  5
26C
100
AcDbEntity
  8
SMUSSO
100
AcDbPolyline
 62
7
  6
CONTINUOUS
 90
3
 70
0
 10
-37.063866681
 20
9.9068892487
 10
-37.0219739255
 20
9.9862172309
 10
-36.9401217245
 20
10.1424644004
  0
LWPOLYLINE
  5
26D
100
AcDbEntity
  8
SMUSSO
100
AcDbPolyline
 62
7
  6
CONTINUOUS
 90
6
 70
0
 10
-36.2576800898
 20
10.5057473506
 10
-36.3783634593
 20
10.3190665043
 10
-36.519830849
 20
10.1650559397
 10
-36.6803921062
 20
10.0463300943
 10
-36.8617373835
 20
9.9602745306
 10
-37.063866681
 20
9.9068892487
  0
LINE
  5
26E
100
AcDbEntity
  8
0
100
AcDbLine
 62
7
  6
CONTINUOUS
 10
-42.130350316
 20
21.3057282291
 11
-40.6713455246
 21
22.0452789265
  0
LINE
  5
26F
100
AcDbEntity
  8
RACCORDO
100
AcDbLine
 62
7
  6
CONTINUOUS
 10
-31.6191444659
 20
25.8808741676
 11
-33.7931800791
 21
24.7981578767
  0
LINE
  5
270
100
AcDbEntity
  8
RACCORDO
100
AcDbLine
 62
7
  6
CONTINUOUS
 10
-31.4070124316
 20
25.7748081505
 11
-33.6357503323
 21
24.6648489489
  0
LINE
  5
271
100
AcDbEntity
  8
DRAFT
100
AcDbLine
 62
7
  6
CONTINUOUS
 10
-31.4070124316
 20
23.9345041674
 11
-33.7931800791
 21
22.7461415807
  0
LINE
  5
272
100
AcDbEntity
  8
DRAFT
100
AcDbLine
 62
7
  6
CONTINUOUS
 10
-31.1948803972
 20
23.8284381502
 11
-33.7931800791
 21
22.5344292677
  0
LINE
  5
273
100
AcDbEntity
  8
0
100
AcDbLine
 62
250
  6
CONTINUOUS
 10
-43.9357611961
 20
21.3424412409
 11
-43.0527738328
 21
21.7669399875
  0
LINE
  5
274
100
AcDbEntity
  8
ASSI
100
AcDbLine
 62
7
  6
CONTINUOUS
 10
5.4258036196
 20
-41.5653844844
 11
6.2522318417
 21
-41.9785985954
  0
LINE
  5
275
100
AcDbEntity
  8
ASSI
100
AcDbLine
 62
7
  6
CONTINUOUS
 10
5.5672249759
 20
-41.4946738063
 11
6.393653198
 21
-41.9078879173
  0
LINE
  5
276
100
AcDbEntity
  8
ASSI
100
AcDbLine
 62
7
  6
CONTINUOUS
 10
6.0926116783
 20
-41.2899484061
 11
5.585416712
 21
-41.036350923
  0
LINE
  5
277
100
AcDbEntity
  8
ASSI
100
AcDbLine
 62
7
  6
CONTINUOUS
 10
7.8129041891
 20
-42.1500868673
 11
8.2696117311
 21
-42.3784484325
  0
LINE
  5
278
100
AcDbEntity
  8
ASSI
100
AcDbLine
 62
7
  6
CONTINUOUS
 10
7.9543255453
 20
-42.0793761892
 11
8.4110330873
 21
-42.3077377544
  0
LINE
  5
279
100
AcDbEntity
  8
ASSI
100
AcDbLine
 62
7
  6
CONTINUOUS
 10
8.4422809448
 20
-41.8719566076
 11
7.8056308887
 21
-41.5536315795
  0
LINE
  5
27A
100
AcDbEntity
  8
ASSI
100
AcDbLine
 62
7
  6
CONTINUOUS
 10
7.8056245247
 20
-40.7738469996
 11
8.4422685527
 21
-41.0921690136
  0
LINE
  5
27B
100
AcDbEntity
  8
ASSI
100
AcDbLine
 62
7
  6
CONTINUOUS
 10
7.947045881
 20
-40.7031363215
 11
8.583690368
 21
-41.021458565
  0
LINE
  5
27C
100
AcDbEntity
  8
ASSI
100
AcDbLine
 62
7
  6
CONTINUOUS
 10
4.3884751432
 20
-38.4724623315
 11
3.5974185236
 21
-38.0769340217
  0
LINE
  5
27D
100
AcDbEntity
  8
ASSI
100
AcDbLine
 62
7
  6
CONTINUOUS
 10
2.6202450353
 20
-37.5883472775
 11
1.8291891228
 21
-37.1928193213
  0
LINE
  5
27E
100
AcDbEntity
  8
ASSI
100
AcDbLine
 62
7
  6
CONTINUOUS
 10
1.3059301048
 20
-36.9311898123
 11
0.7826512877
 21
-36.6695504037
  0
LINE
  5
27F
100
AcDbEntity
  8
ASSI
100
AcDbLine
 62
7
  6
CONTINUOUS
 10
0.4338008643
 20
-36.495125192
 11
-0.0894843167
 21
-36.2334826015
  0
LINE
  5
280
100
AcDbEntity
  8
ASSI
100
AcDbLine
 62
7
  6
CONTINUOUS
 10
-1.2462989899
 20
-35.6550752649
 11
-1.769584171
 21
-35.3934326744
  0
LINE
  5
281
100
AcDbEntity
  8
ASSI
100
AcDbLine
 62
7
  6
CONTINUOUS
 10
8.5149157542
 20
-40.5356748428
 11
7.2895603182
 21
-39.9229971247
  0
LINE
  5
282
100
AcDbEntity
  8
ASSI
100
AcDbLine
 62
7
  6
CONTINUOUS
 10
6.1006635032
 20
-39.3285487172
 11
5.5773585232
 21
-39.0668962272
  0
LWPOLYLINE
  5
283
100
AcDbEntity
  8
ASSI
100
AcDbPolyline
 62
7
  6
CONTINUOUS
 90
15
 70
0
 10
8.583690368
 20
-41.021458565
 10
8.6414879692
 20
-41.0577168663
 10
8.6945463705
 20
-41.1016582106
 10
8.7428655718
 20
-41.1532825979
 10
8.787601849
 20
-41.2145843965
 10
8.8275989263
 20
-41.2835692381
 10
8.8593879765
 20
-41.3542540177
 10
8.8822359858
 20
-41.4267906488
 10
8.8968759679
 20
-41.5010272179
 10
8.9020381367
 20
-41.5705248803
 10
8.8968759679
 20
-41.634860374
 10
8.8822359858
 20
-41.694456961
 10
8.8593879765
 20
-41.7441455827
 10
8.8275985354
 20
-41.7830412451
 10
8.7847751
 20
-41.8135230891
  0
LINE
  5
284
100
AcDbEntity
  8
RACCORDO
100
AcDbLine
 62
7
  6
CONTINUOUS
 10
-41.534586543
 20
8.3796922079
 11
-41.495590104
 21
8.3142950202
  0
LWPOLYLINE
  5
285
100
AcDbEntity
  8
SMUSSO
100
AcDbPolyline
 62
7
  6
CONTINUOUS
 90
16
 70
0
 10
-30.3207759233
 20
-2.6358762198
 10
-30.3340074673
 20
-2.3238053218
 10
-30.3740992614
 20
-1.9622459892
 10
-30.4405153765
 20
-1.593738358
 10
-30.5326543382
 20
-1.2216196904
 10
-30.6496817216
 20
-0.8492599506
 10
-30.7905377087
 20
-0.4800312862
 10
-30.9539466858
 20
-0.117277489
 10
-31.138428796
 20
0.2357162864
 10
-31.3423133406
 20
0.5757532736
 10
-31.5637539097
 20
0.8997540451
 10
-31.8007451032
 20
1.2047843997
 10
-32.0511406922
 20
1.4880819353
 10
-32.3126730554
 20
1.7470810655
 10
-32.5829737152
 20
1.9794362541
 10
-32.6575213941
 20
2.0376147216
  0
LWPOLYLINE
  5
286
100
AcDbEntity
  8
SMUSSO
100
AcDbPolyline
 62
7
  6
CONTINUOUS
 90
17
 70
0
 10
-30.3112343271
 20
-3.7219884405
 10
-30.3264687607
 20
-3.3341781999
 10
-30.3727665307
 20
-2.8803276012
 10
-30.4495378767
 20
-2.4178211527
 10
-30.5561985223
 20
-1.950178808
 10
-30.6919367157
 20
-1.4809596075
 10
-30.8557194073
 20
-1.0137345928
 10
-31.0463001118
 20
-0.5520596283
 10
-31.2622283951
 20
-0.0994483392
 10
-31.5018609125
 20
0.3406546292
 10
-31.7633739159
 20
0.7648998276
 10
-32.0447771334
 20
1.1700584939
 10
-32.3439289166
 20
1.553047126
 10
-32.6585525398
 20
1.9109509491
 10
-32.9862535273
 20
2.2410460991
 10
-33.3245378767
 20
2.5408203525
 10
-33.5206862129
 20
2.696915331
  0
LINE
  5
287
100
AcDbEntity
  8
SMUSSO
100
AcDbLine
 62
7
  6
CONTINUOUS
 10
-30.3207759233
 20
-2.6358762198
 11
-30.3112343271
 21
-3.7219884405
  0
LINE
  5
288
100
AcDbEntity
  8
SMUSSO
100
AcDbLine
 62
7
  6
CONTINUOUS
 10
-30.3109969207
 20
-3.775918872
 11
-30.3112343271
 21
-3.7219884405
  0
LINE
  5
289
100
AcDbEntity
  8
DRAFT
100
AcDbLine
 62
7
  6
CONTINUOUS
 10
-31.4070124316
 20
23.9345041674
 11
-31.4070124316
 21
25.7748081505
  0
LINE
  5
28A
100
AcDbEntity
  8
DRAFT
100
AcDbLine
 62
7
  6
CONTINUOUS
 10
-31.4070124316
 20
31.1874669241
 11
-31.4070124316
 21
31.9496581095
  0
LINE
  5
28B
100
AcDbEntity
  8
DRAFT
100
AcDbLine
 62
7
  6
CONTINUOUS
 10
-31.1948803972
 20
21.2303619389
 11
-31.1948803972
 21
23.8284381502
  0
LINE
  5
28C
100
AcDbEntity
  8
DRAFT
100
AcDbLine
 62
7
  6
CONTINUOUS
 10
-30.8766823457
 20
21.0712629131
 11
-30.8766823457
 21
18.6672904676
  0
LINE
  5
28D
100
AcDbEntity
  8
DRAFT
100
AcDbLine
 62
7
  6
CONTINUOUS
 10
-30.8766823457
 20
11.8097456511
 11
-30.8766823457
 21
4.629143248
  0
LINE
  5
28E
100
AcDbEntity
  8
SMUSSO
100
AcDbLine
 62
7
  6
CONTINUOUS
 10
-30.3109969207
 20
-7.2400204871
 11
-30.3109969207
 21
-3.775918872
  0
LWPOLYLINE
  5
28F
100
AcDbEntity
  8
RACCORDO
100
AcDbPolyline
 62
7
  6
CONTINUOUS
 90
10
 70
0
 10
-41.3065073682
 20
10.1323059303
 10
-41.3294603297
 20
10.1199257782
 10
-41.3515391245
 20
10.1061437857
 10
-41.3726854834
 20
10.0909729492
 10
-41.3928096832
 20
10.0744517402
 10
-41.4118898474
 20
10.0565737705
 10
-41.429952864
 20
10.0372812698
 10
-41.446950088
 20
10.0165626269
 10
-41.4627768499
 20
9.9944590088
 10
-41.4773584017
 20
9.9709895015
  0
LWPOLYLINE
  5
290
100
AcDbEntity
  8
RACCORDO
100
AcDbPolyline
 62
7
  6
CONTINUOUS
 90
10
 70
0
 10
-41.147531665
 20
14.9486771496
 10
-41.1809276489
 20
14.9312823887
 10
-41.2137849385
 20
14.9127599047
 10
-41.2460657584
 20
14.893124963
 10
-41.2777197656
 20
14.8724037624
 10
-41.3087249034
 20
14.8506070414
 10
-41.3390848754
 20
14.8277252996
 10
-41.3687759273
 20
14.8037661554
 10
-41.3977494974
 20
14.7787590961
 10
-41.4200395087
 20
14.7583418284
  0
LINE
  5
291
100
AcDbEntity
  8
DRAFT
100
AcDbLine
 62
7
  6
CONTINUOUS
 10
-40.6713455246
 20
16.707441276
 11
-33.7931800791
 21
20.1938945639
  0
LINE
  5
292
100
AcDbEntity
  8
RACCORDO
100
AcDbLine
 62
7
  6
CONTINUOUS
 10
-37.5588414279
 20
14.8782632012
 11
-39.4680297371
 21
13.9172148151
  0
LINE
  5
293
100
AcDbEntity
  8
DRAFT
100
AcDbLine
 62
7
  6
CONTINUOUS
 10
-37.5588414279
 20
14.8782632012
 11
-37.063866681
 21
15.1265813305
  0
LINE
  5
294
100
AcDbEntity
  8
DRAFT
100
AcDbLine
 62
7
  6
CONTINUOUS
 10
-39.150351986
 20
15.9469445067
 11
-39.1675008023
 21
15.938362927
  0
LINE
  5
295
100
AcDbEntity
  8
ASSI
100
AcDbLine
 62
7
  6
CONTINUOUS
 10
-39.1676326777
 20
15.9386266432
 11
-41.147531665
 21
14.9486771496
  0
LINE
  5
296
100
AcDbEntity
  8
RACCORDO
100
AcDbLine
 62
7
  6
CONTINUOUS
 10
-39.4680297371
 20
12.3938689005
 11
-36.7849194026
 21
13.7354240677
  0
LINE
  5
297
100
AcDbEntity
  8
DRAFT
100
AcDbLine
 62
7
  6
CONTINUOUS
 10
-31.1948803972
 20
21.2303619389
 11
-33.5351279934
 21
20.0648685211
  0
LINE
  5
298
100
AcDbEntity
  8
DRAFT
100
AcDbLine
 62
7
  6
CONTINUOUS
 10
-30.8766823457
 20
21.0712629131
 11
-33.2169299419
 21
19.9057694953
  0
LINE
  5
299
100
AcDbEntity
  8
DRAFT
100
AcDbLine
 62
250
  6
CONTINUOUS
 10
-38.2009861832
 20
15.6764391233
 11
-31.4070124316
 21
19.0008107401
  0
LINE
  5
29A
100
AcDbEntity
  8
DRAFT
100
AcDbLine
 62
7
  6
CONTINUOUS
 10
-39.1676321696
 20
15.9386256272
 11
-39.150351986
 21
15.9469445067
  0
LINE
  5
29B
100
AcDbEntity
  8
DRAFT
100
AcDbLine
 62
7
  6
CONTINUOUS
 10
-39.1581346792
 20
15.9366640795
 11
-39.2202771456
 21
15.9119521773
  0
LINE
  5
29C
100
AcDbEntity
  8
0
100
AcDbLine
 62
7
  6
CONTINUOUS
 10
-37.5588414279
 20
-14.337875408
 11
16.8883807235
 21
-41.5614864837
  0
LINE
  5
29D
100
AcDbEntity
  8
0
100
AcDbLine
 62
7
  6
CONTINUOUS
 10
-36.1446278655
 20
-13.6307686268
 11
18.0430812619
 21
-40.7246231905
  0
LINE
  5
29E
100
AcDbEntity
  8
DRAFT
100
AcDbLine
 62
7
  6
CONTINUOUS
 10
7.1008687945
 20
-33.1920973949
 11
-0.1941650327
 21
-29.5445804813
  0
LWPOLYLINE
  5
29F
100
AcDbEntity
  8
RACCORDO
100
AcDbPolyline
 62
250
  6
CONTINUOUS
 90
16
 70
0
 10
-41.3065073682
 20
8.3438838189
 10
-41.265731668
 20
8.292473651
 10
-41.2229529322
 20
8.2441147275
 10
-41.1781711608
 20
8.1988070483
 10
-41.130977792
 20
8.1560754934
 10
-41.0817813876
 20
8.1163951829
 10
-41.0318076329
 20
8.0811914765
 10
-40.9810077404
 20
8.0506850977
 10
-40.9294304976
 20
8.0246553231
 10
-40.8784479521
 20
8.003865342
 10
-40.8280872618
 20
7.9885827757
 10
-40.7783212689
 20
7.978540003
 10
-40.7304405475
 20
7.9736973493
 10
-40.6848752891
 20
7.9740415899
 10
-40.6411953023
 20
7.9795859495
 10
-40.599400587
 20
7.9903304283
  0
LWPOLYLINE
  5
2A0
100
AcDbEntity
  8
SMUSSO
100
AcDbPolyline
 62
7
  6
CONTINUOUS
 90
7
 70
0
 10
-38.9730549903
 20
11.2990321193
 10
-39.1053901411
 20
11.4933546131
 10
-39.2259012534
 20
11.6982067774
 10
-39.3332332839
 20
11.9112852268
 10
-39.426179377
 20
12.1301940789
 10
-39.5036944344
 20
12.352471893
 10
-39.5117596166
 20
12.3818731899
  0
LWPOLYLINE
  5
2A1
100
AcDbEntity
  8
SMUSSO
100
AcDbPolyline
 62
7
  6
CONTINUOUS
 90
9
 70
0
 10
-39.6055556593
 20
10.9827817847
 10
-39.7100829557
 20
11.1369114504
 10
-39.8706442129
 20
11.416198553
 10
-40.0121116026
 20
11.7116765072
 10
-40.1327949721
 20
12.019040723
 10
-40.2276238637
 20
12.3253774305
 10
-40.2949081249
 20
12.6263820397
 10
-40.3363379082
 20
12.9263591406
 10
-40.3368339475
 20
12.9358800306
  0
LWPOLYLINE
  5
2A2
100
AcDbEntity
  8
RACCORDO
100
AcDbPolyline
 62
7
  6
CONTINUOUS
 90
15
 70
0
 10
-41.495590104
 20
8.3142950202
 10
-41.3938159295
 20
8.1640977954
 10
-41.2812212536
 20
8.024554668
 10
-41.156610492
 20
7.8950819927
 10
-41.0214519691
 20
7.7785732449
 10
-40.8809567939
 20
7.6797219942
 10
-40.7370349502
 20
7.5990864656
 10
-40.5895733655
 20
7.536100093
 10
-40.4422192236
 20
7.4917023671
 10
-40.2984723486
 20
7.4655600484
 10
-40.1578606325
 20
7.4562020842
 10
-40.0189649943
 20
7.4629683627
 10
-39.8825918469
 20
7.4858420648
 10
-39.7513936248
 20
7.5242960099
 10
-39.6270054403
 20
7.5774976812
  0
LWPOLYLINE
  5
2A3
100
AcDbEntity
  8
SMUSSO
100
AcDbPolyline
 62
7
  6
CONTINUOUS
 90
8
 70
0
 10
-36.6803921062
 20
13.5812944021
 10
-36.519830849
 20
13.3020072995
 10
-36.3783634593
 20
13.0065293453
 10
-36.2576800898
 20
12.6991651295
 10
-36.1628511982
 20
12.392828422
 10
-36.095566937
 20
12.0918238128
 10
-36.0541371537
 20
11.7918467119
 10
-36.0385618483
 20
11.4928971193
  0
LWPOLYLINE
  5
2A4
100
AcDbEntity
  8
DRAFT
100
AcDbPolyline
 62
7
  6
CONTINUOUS
 90
24
 70
0
 10
-37.5674345592
 20
14.8892534091
 10
-37.616378251
 20
14.9794842344
 10
-37.6693208121
 20
15.0682658502
 10
-37.7262622426
 20
15.1555982565
 10
-37.7878046777
 20
15.2424593114
 10
-37.8533459822
 20
15.3278711568
 10
-37.92107975
 20
15.4089002184
 10
-37.9907091188
 20
15.4848392383
 10
-38.0625309509
 20
15.5563954745
 10
-38.1356294262
 20
15.6227571267
 10
-38.2100119212
 20
15.6838525823
 10
-38.2856710594
 20
15.739753454
 10
-38.3616688914
 20
15.7898627792
 10
-38.4379784121
 20
15.8341015224
 10
-38.5146266266
 20
15.872548719
 10
-38.5907566003
 20
15.9048445133
 10
-38.6663618814
 20
15.9309350361
 10
-38.7414489216
 20
15.9508741566
 10
-38.815180142
 20
15.9644636272
 10
-38.8875409031
 20
15.9716488144
 10
-38.9585458445
 20
15.9724843516
 10
-39.0274013054
 20
15.9669358912
 10
-39.0938427325
 20
15.9549919841
 10
-39.1581346792
 20
15.9366640795
  0
LWPOLYLINE
  5
2A5
100
AcDbEntity
  8
RACCORDO
100
AcDbPolyline
 62
250
  6
CONTINUOUS
 90
20
 70
0
 10
-39.4680297371
 20
13.9172148151
 10
-39.5257815632
 20
14.0241791917
 10
-39.5903052768
 20
14.1318372893
 10
-39.6617290476
 20
14.2392161863
 10
-39.7404340982
 20
14.3456639063
 10
-39.8260443289
 20
14.449476237
 10
-39.9172437983
 20
14.5481717928
 10
-40.0135929306
 20
14.6406164385
 10
-40.1145633167
 20
14.7256559642
 10
-40.2183257149
 20
14.801310281
 10
-40.3240853106
 20
14.8667673901
 10
-40.4310630937
 20
14.9213139964
 10
-40.5373024552
 20
14.9638987693
 10
-40.6419880839
 20
14.9943216373
 10
-40.744308603
 20
15.0124744938
 10
-40.8424289036
 20
15.0183548864
 10
-40.9357733651
 20
15.0124467296
 10
-41.0237967445
 20
14.9953136522
 10
-41.1050691613
 20
14.9680014522
 10
-41.147531665
 20
14.9486771496
  0
LWPOLYLINE
  5
2A6
100
AcDbEntity
  8
DRAFT
100
AcDbPolyline
 62
7
  6
CONTINUOUS
 90
27
 70
0
 10
-22.3649386276
 20
1.3727294588
 10
-22.3766276754
 20
1.690899504
 10
-22.4094543182
 20
2.0126988947
 10
-22.4634185562
 20
2.338127631
 10
-22.5392474175
 20
2.6697008494
 10
-22.6362138739
 20
3.0049034134
 10
-22.7521368405
 20
3.3361899127
 10
-22.8874500444
 20
3.6634794779
 10
-23.0417197583
 20
3.9868529785
 10
-23.2114637162
 20
4.2990076118
 10
-23.3970318903
 20
4.5996835967
 10
-23.5980743082
 20
4.8891407145
 10
-23.8100587871
 20
5.1608555057
 10
-24.0332339009
 20
5.4144254883
 10
-24.2673510755
 20
5.6502531443
 10
-24.5071324068
 20
5.8630224615
 10
-24.7527066452
 20
6.0522098704
 10
-25.0039450402
 20
6.2183389404
 10
-25.2551834352
 20
6.3576643678
 10
-25.5064218302
 20
6.4695773354
 10
-25.7576602252
 20
6.5546866604
 10
-26.0032344637
 20
6.61107349
 10
-26.2430157949
 20
6.638085504
 10
-26.4771329696
 20
6.6363750226
 10
-26.7003080833
 20
6.6059801538
 10
-26.9122925622
 20
6.5462498415
 10
-27.0677737066
 20
6.4808623746
  0
LINE
  5
2A7
100
AcDbEntity
  8
DRAFT
100
AcDbLine
 62
7
  6
CONTINUOUS
 10
-22.3649386276
 20
-2.0913721563
 11
-22.3649386276
 21
1.3727294588
  0
LWPOLYLINE
  5
2A8
100
AcDbEntity
  8
DRAFT
100
AcDbPolyline
 62
7
  6
CONTINUOUS
 90
4
 70
0
 10
-37.717778944
 20
8.5320147678
 10
-37.6691020548
 20
8.558499758
 10
-37.6163039008
 20
8.594268334
 10
-37.5674336799
 20
8.6354619141
  0
LWPOLYLINE
  5
2A9
100
AcDbEntity
  8
RACCORDO
100
AcDbPolyline
 62
250
  6
CONTINUOUS
 90
4
 70
0
 10
-39.6270054403
 20
7.5774976812
 10
-39.5954179046
 20
7.5944168466
 10
-39.5282867706
 20
7.6386177527
 10
-39.4680297371
 20
7.6897212001
  0
LINE
  5
2AA
100
AcDbEntity
  8
0
100
AcDbLine
 62
7
  6
CONTINUOUS
 10
-42.130350316
 20
3.9534778588
 11
-40.6713455246
 21
4.7247708509
  0
LINE
  5
2AB
100
AcDbEntity
  8
DRAFT
100
AcDbLine
 62
7
  6
CONTINUOUS
 10
-36.2556130063
 20
9.0456461023
 11
-29.7161154036
 21
12.4061323241
  0
LINE
  5
2AC
100
AcDbEntity
  8
0
100
AcDbLine
 62
250
  6
CONTINUOUS
 10
-43.9357611961
 20
5.722175727
 11
-42.4378782181
 21
6.4740296258
  0
LINE
  5
2AD
100
AcDbEntity
  8
0
100
AcDbLine
 62
250
  6
CONTINUOUS
 10
-43.2286813394
 20
4.5026433704
 11
-41.7307983613
 21
5.2544972692
  0
LINE
  5
2AE
100
AcDbEntity
  8
RACCORDO
100
AcDbLine
 62
7
  6
CONTINUOUS
 10
-38.9730549903
 20
11.2990321193
 11
-41.3065073682
 21
10.1323059303
  0
LINE
  5
2AF
100
AcDbEntity
  8
ASSI
100
AcDbLine
 62
7
  6
CONTINUOUS
 10
-37.7178171311
 20
8.5320918358
 11
-39.6270054403
 21
7.5774976812
  0
LINE
  5
2B0
100
AcDbEntity
  8
DRAFT
100
AcDbLine
 62
7
  6
CONTINUOUS
 10
-37.5588414279
 20
8.6378611233
 11
-37.063866681
 21
8.8845177408
  0
LWPOLYLINE
  5
2B1
100
AcDbEntity
  8
DRAFT
100
AcDbPolyline
 62
7
  6
CONTINUOUS
 90
6
 70
0
 10
-36.2559343198
 20
9.0462810999
 10
-36.2957818602
 20
9.0264650077
 10
-36.4745027201
 20
8.9550526196
 10
-36.6613652061
 20
8.9080375151
 10
-36.8578198597
 20
8.8845258888
 10
-37.063866681
 20
8.8845177408
  0
LINE
  5
2B2
100
AcDbEntity
  8
RACCORDO
100
AcDbLine
 62
7
  6
CONTINUOUS
 10
-39.4919542831
 20
9.2011727549
 11
-36.7103132905
 21
10.5919253381
  0
LINE
  5
2B3
100
AcDbEntity
  8
RACCORDO
100
AcDbLine
 62
7
  6
CONTINUOUS
 10
-39.4680297371
 20
7.6897212001
 11
-37.5588414279
 21
8.6378611233
  0
LINE
  5
2B4
100
AcDbEntity
  8
RACCORDO
100
AcDbLine
 62
7
  6
CONTINUOUS
 10
-39.5430539077
 20
9.1761571614
 11
-39.4919542831
 21
9.2011727549
  0
LWPOLYLINE
  5
2B5
100
AcDbEntity
  8
RACCORDO
100
AcDbPolyline
 62
7
  6
CONTINUOUS
 90
10
 70
0
 10
-39.4680297371
 20
12.3938689005
 10
-39.4919542831
 20
12.3828102988
 10
-39.5169710044
 20
12.3730445333
 10
-39.5430539077
 20
12.3646007386
 10
-39.5701291539
 20
12.3575222246
 10
-39.5982064159
 20
12.3518214813
 10
-39.6273919236
 20
12.3474897198
 10
-39.6577057963
 20
12.3445528144
 10
-39.6890688031
 20
12.3430615481
 10
-39.7214427723
 20
12.343053295
  0
LWPOLYLINE
  5
2B6
100
AcDbEntity
  8
RACCORDO
100
AcDbPolyline
 62
7
  6
CONTINUOUS
 90
6
 70
0
 10
-39.7214427723
 20
9.0930316868
 10
-39.6890688031
 20
9.1076049854
 10
-39.6577057963
 20
9.121940481
 10
-39.6273919236
 20
9.1360007996
 10
-39.5982064159
 20
9.1497320547
 10
-39.5430539077
 20
9.1761571614
  0
LWPOLYLINE
  5
2B7
100
AcDbEntity
  8
0
100
AcDbPolyline
 62
7
  6
CONTINUOUS
 90
5
 70
0
 10
-36.0521855362
 20
11.7543877173
 10
-36.0868728838
 20
11.7389009393
 10
-36.1797235684
 20
11.7117220043
 10
-36.2793549963
 20
11.6993638533
 10
-36.3825512721
 20
11.702225382
  0
LINE
  5
2B8
100
AcDbEntity
  8
SMUSSO
100
AcDbLine
 62
7
  6
CONTINUOUS
 10
-36.6233215161
 20
10.629484459
 11
-36.7103132905
 21
10.5919253381
  0
LWPOLYLINE
  5
2B9
100
AcDbEntity
  8
RACCORDO
100
AcDbPolyline
 62
7
  6
CONTINUOUS
 90
10
 70
0
 10
19.3926841349
 20
-20.4640317668
 10
19.2134155258
 20
-20.4999937217
 10
19.0223734647
 20
-20.5005698717
 10
18.8227771578
 20
-20.4657505081
 10
18.6179899567
 20
-20.3961223641
 10
18.4114626837
 20
-20.2928587276
 10
18.2066754826
 20
-20.1576996705
 10
18.0070791757
 20
-19.9929227272
 10
17.8160371147
 20
-19.8013045162
 10
17.6367685055
 20
-19.5860739521
  0
LWPOLYLINE
  5
2BA
100
AcDbEntity
  8
RACCORDO
100
AcDbPolyline
 62
7
  6
CONTINUOUS
 90
6
 70
0
 10
17.6367685055
 20
-16.3360523439
 10
17.8160371147
 20
-16.300090389
 10
18.0070791757
 20
-16.2995142391
 10
18.2066754826
 20
-16.3343336027
 10
18.4114626837
 20
-16.4039617467
 10
18.6179899567
 20
-16.5072253832
  0
LWPOLYLINE
  5
2BB
100
AcDbEntity
  8
RACCORDO
100
AcDbPolyline
 62
7
  6
CONTINUOUS
 90
7
 70
0
 10
17.807619539
 20
-21.2131796347
 10
17.7444586654
 20
-21.2206097239
 10
17.6891880905
 20
-21.2209366446
 10
17.6431987164
 20
-21.2145488141
 10
17.6077890749
 20
-21.2021991791
 10
17.5842789676
 20
-21.1842621216
 10
17.5795447093
 20
-21.1774816967
  0
LWPOLYLINE
  5
2BC
100
AcDbEntity
  8
RACCORDO
100
AcDbPolyline
 62
7
  6
CONTINUOUS
 90
5
 70
0
 10
19.1583364642
 20
-21.9231048834
 10
19.2644216835
 20
-21.9352897128
 10
19.3683420975
 20
-21.9357383999
 10
19.467944085
 20
-21.9242760218
 10
19.5612230413
 20
-21.9013546441
  0
LINE
  5
2BD
100
AcDbEntity
  8
DRAFT
100
AcDbLine
 62
7
  6
CONTINUOUS
 10
12.8227754788
 20
-29.2274005134
 11
8.6682643922
 21
-27.1501449701
  0
LINE
  5
2BE
100
AcDbEntity
  8
DRAFT
100
AcDbLine
 62
7
  6
CONTINUOUS
 10
14.3253773888
 20
-29.7188938473
 11
13.0876817746
 21
-29.1000460402
  0
LINE
  5
2BF
100
AcDbEntity
  8
DRAFT
100
AcDbLine
 62
7
  6
CONTINUOUS
 10
8.6682643922
 20
-26.890337349
 11
7.1656624822
 21
-26.139036394
  0
LINE
  5
2C0
100
AcDbEntity
  8
DRAFT
100
AcDbLine
 62
7
  6
CONTINUOUS
 10
16.3142445845
 20
-30.453519824
 11
14.5902836846
 21
-29.5915393741
  0
LINE
  5
2C1
100
AcDbEntity
  8
DRAFT
100
AcDbLine
 62
7
  6
CONTINUOUS
 10
7.1656624822
 20
-25.8792287728
 11
5.0443421386
 21
-24.8185686011
  0
LINE
  5
2C2
100
AcDbEntity
  8
DRAFT
100
AcDbLine
 62
7
  6
CONTINUOUS
 10
-29.2374266487
 20
-7.2879727757
 11
5.0443421386
 21
-24.4288571694
  0
LINE
  5
2C3
100
AcDbEntity
  8
DRAFT
100
AcDbLine
 62
7
  6
CONTINUOUS
 10
16.7116040282
 20
-30.2624881141
 11
21.4598896116
 21
-32.6366309059
  0
LWPOLYLINE
  5
2C4
100
AcDbEntity
  8
RACCORDO
100
AcDbPolyline
 62
7
  6
CONTINUOUS
 90
3
 70
0
 10
-39.8738089364
 20
12.5017346633
 10
-39.9061726491
 20
12.5343800336
 10
-39.9728922608
 20
12.6007338331
  0
LWPOLYLINE
  5
2C5
100
AcDbEntity
  8
RACCORDO
100
AcDbPolyline
 62
7
  6
CONTINUOUS
 90
8
 70
0
 10
-40.599400587
 20
7.9903304283
 10
-40.5282374899
 20
7.9157383537
 10
-40.4484248236
 20
7.8478698124
 10
-40.3607394231
 20
7.7874202556
 10
-40.2660627973
 20
7.734726757
 10
-40.1657680946
 20
7.6907614095
 10
-40.0617578569
 20
7.6570248973
 10
-39.955790443
 20
7.6339585702
  0
LWPOLYLINE
  5
2C6
100
AcDbEntity
  8
RACCORDO
100
AcDbPolyline
 62
7
  6
CONTINUOUS
 90
5
 70
0
 10
-39.7214427723
 20
12.343053295
 10
-39.7506598018
 20
12.3742190933
 10
-39.7805573665
 20
12.4056439345
 10
-39.8110986031
 20
12.4373504997
 10
-39.8738089364
 20
12.5017346633
  0
LWPOLYLINE
  5
2C7
100
AcDbEntity
  8
RACCORDO
100
AcDbPolyline
 62
7
  6
CONTINUOUS
 90
8
 70
0
 10
-41.3065073682
 20
13.9701589775
 10
-41.3696682418
 20
14.0487521639
 10
-41.4249388167
 20
14.1288917508
 10
-41.4709281908
 20
14.2101893209
 10
-41.5063378323
 20
14.2925163116
 10
-41.5298479396
 20
14.3748739568
 10
-41.5403302967
 20
14.4553744093
 10
-41.5408219429
 20
14.476307301
  0
LWPOLYLINE
  5
2C8
100
AcDbEntity
  8
RACCORDO
100
AcDbPolyline
 62
250
  6
CONTINUOUS
 90
16
 70
0
 10
-40.599400587
 20
13.6166055869
 10
-40.6401762872
 20
13.6680157548
 10
-40.682955023
 20
13.7163746784
 10
-40.7277367944
 20
13.7616823576
 10
-40.7749301631
 20
13.8044139124
 10
-40.8241265675
 20
13.844094223
 10
-40.8741003222
 20
13.8792979294
 10
-40.9249002147
 20
13.9098043081
 10
-40.9764774576
 20
13.9358340827
 10
-41.027460003
 20
13.9566240638
 10
-41.0778206933
 20
13.9719066301
 10
-41.1275866862
 20
13.9819494029
 10
-41.1754674076
 20
13.9867920566
 10
-41.221032666
 20
13.986447816
 10
-41.2647126529
 20
13.9809034563
 10
-41.3065073682
 20
13.9701589775
  0
LWPOLYLINE
  5
2C9
100
AcDbEntity
  8
SMUSSO
100
AcDbPolyline
 62
7
  6
CONTINUOUS
 90
3
 70
0
 10
-37.063866681
 20
14.1042098226
 10
-36.8617373835
 20
13.8486952432
 10
-36.6803921062
 20
13.5812944021
  0
LWPOLYLINE
  5
2CA
100
AcDbEntity
  8
DRAFT
100
AcDbPolyline
 62
7
  6
CONTINUOUS
 90
24
 70
0
 10
-36.4745027201
 20
14.4666824908
 10
-36.2957818602
 20
14.2165492428
 10
-36.126653168
 20
13.9525046842
 10
-35.9714682683
 20
13.6815818559
 10
-35.8312061233
 20
13.4050766828
 10
-35.7048877708
 20
13.1216932399
 10
-35.5939279493
 20
12.8345767925
 10
-35.4980375449
 20
12.5421508056
 10
-35.4175056715
 20
12.2459918142
 10
-35.3546144096
 20
11.9539746891
 10
-35.310038135
 20
11.6671217484
 10
-35.2831024718
 20
11.3844106739
 10
-35.2740663724
 20
11.1106493813
 10
-35.2831024718
 20
10.8459241881
 10
-35.310038135
 20
10.5901487768
 10
-35.3546144096
 20
10.3478721108
 10
-35.4175056715
 20
10.1187462475
 10
-35.4980375449
 20
9.9031191295
 10
-35.5939279493
 20
9.706583547
 10
-35.7048877708
 20
9.5304269212
 10
-35.8312061233
 20
9.3733618308
 10
-35.9714682683
 20
9.2371188027
 10
-36.126653168
 20
9.121380874
 10
-36.2559343198
 20
9.0462810999
  0
LINE
  5
2CB
100
AcDbEntity
  8
DRAFT
100
AcDbLine
 62
7
  6
CONTINUOUS
 10
-27.0679593176
 20
6.4812378039
 11
-33.7931800791
 21
3.2109173664
  0
LINE
  5
2CC
100
AcDbEntity
  8
RACCORDO
100
AcDbLine
 62
7
  6
CONTINUOUS
 10
-39.5529038659
 20
7.6557088095
 11
-39.4680297371
 21
7.6897212001
  0
LWPOLYLINE
  5
2CD
100
AcDbEntity
  8
DRAFT
100
AcDbPolyline
 62
7
  6
CONTINUOUS
 90
3
 70
0
 10
19.6224186342
 20
-13.5817781864
 10
19.8092811201
 20
-13.5347630819
 10
20.0057357738
 20
-13.5112514556
  0
LWPOLYLINE
  5
2CE
100
AcDbEntity
  8
DRAFT
100
AcDbPolyline
 62
7
  6
CONTINUOUS
 90
5
 70
0
 10
20.0775404232
 20
-13.5913758089
 10
20.010199824
 20
-13.6047209194
 10
19.9450332266
 20
-13.6245762075
 10
19.8837945624
 20
-13.6498564998
 10
19.8757453643
 20
-13.6537150814
  0
LWPOLYLINE
  5
2CF
100
AcDbEntity
  8
RACCORDO
100
AcDbPolyline
 62
7
  6
CONTINUOUS
 90
12
 70
0
 10
18.5147263202
 20
-15.9404578667
 10
18.6657020836
 20
-15.9164286993
 10
18.7533874841
 20
-15.9019685166
 10
18.8480641099
 20
-15.8846846595
 10
18.9483588126
 20
-15.8642294193
 10
19.0523690503
 20
-15.8409752642
 10
19.1583364642
 20
-15.814596375
 10
19.2644216835
 20
-15.7847659084
 10
19.3683420975
 20
-15.7521557809
 10
19.467944085
 20
-15.7170999229
 10
19.5612230413
 20
-15.6795415465
 10
19.6460971701
 20
-15.6398486385
  0
LINE
  5
2D0
100
AcDbEntity
  8
DRAFT
100
AcDbLine
 62
7
  6
CONTINUOUS
 10
20.0057357738
 20
-13.5112514556
 11
20.2117825951
 21
-13.5112433075
  0
LWPOLYLINE
  5
2D1
100
AcDbEntity
  8
RACCORDO
100
AcDbPolyline
 62
7
  6
CONTINUOUS
 90
25
 70
0
 10
18.5147263202
 20
-21.0954696954
 10
18.5539893322
 20
-21.1025696662
 10
18.5944929791
 20
-21.104880831
 10
18.6358865886
 20
-21.1024406199
 10
18.6779117382
 20
-21.0949205888
 10
18.720204341
 20
-21.082757896
 10
18.7622725784
 20
-21.0671741421
 10
18.8036610754
 20
-21.0483969886
 10
18.8443188634
 20
-21.0264103703
 10
18.8844051313
 20
-21.0020689319
 10
18.9238101945
 20
-20.9755178283
 10
18.962338312
 20
-20.9467747135
 10
19.0000740212
 20
-20.9164626514
 10
19.0368646177
 20
-20.884770207
 10
19.0726679369
 20
-20.8516534866
 10
19.1077624712
 20
-20.817348569
 10
19.1421141324
 20
-20.7819301032
 10
19.1756321175
 20
-20.7454185302
 10
19.2085205679
 20
-20.7079290043
 10
19.2407378843
 20
-20.6695202986
 10
19.2722332888
 20
-20.6301992509
 10
19.3031950753
 20
-20.5899734588
 10
19.3336554828
 20
-20.5488528686
 10
19.3634977099
 20
-20.5068652366
 10
19.3926841349
 20
-20.4640317668
  0
LWPOLYLINE
  5
2D2
100
AcDbEntity
  8
RACCORDO
100
AcDbPolyline
 62
7
  6
CONTINUOUS
 90
7
 70
0
 10
18.5147263202
 20
-21.0954696954
 10
18.39687519
 20
-21.0585972475
 10
18.2790240598
 20
-21.0129035527
 10
18.1611729296
 20
-20.9583886111
 10
18.0433217994
 20
-20.8950524225
 10
17.9254706692
 20
-20.8228949871
 10
17.807619539
 20
-20.7419163048
  0
LINE
  5
2D3
100
AcDbEntity
  8
0
100
AcDbLine
 62
7
  6
CONTINUOUS
 10
-43.2286813394
 20
4.5026433704
 11
-42.130350316
 21
3.9534778588
  0
LINE
  5
2D4
100
AcDbEntity
  8
0
100
AcDbLine
 62
7
  6
CONTINUOUS
 10
21.4598896116
 20
-27.8416421051
 11
22.558220635
 21
-28.3908076167
  0
LINE
  5
2D5
100
AcDbEntity
  8
0
100
AcDbLine
 62
7
  6
CONTINUOUS
 10
-41.7307983613
 20
5.2544972692
 11
-40.6713455246
 21
4.7247708509
  0
LINE
  5
2D6
100
AcDbEntity
  8
0
100
AcDbLine
 62
7
  6
CONTINUOUS
 10
22.9707333012
 20
-27.096268562
 11
23.2653004917
 21
-27.2435521573
  0
LWPOLYLINE
  5
2D7
100
AcDbEntity
  8
SMUSSO
100
AcDbPolyline
 62
7
  6
CONTINUOUS
 90
3
 70
0
 10
-33.5206862129
 20
2.696915331
 10
-33.6708310397
 20
2.8079922463
 10
-33.7931800791
 20
2.8888944133
  0
LINE
  5
2D8
100
AcDbEntity
  8
RACCORDO
100
AcDbLine
 62
7
  6
CONTINUOUS
 10
-40.5197694154
 20
13.0850210204
 11
-40.599400587
 21
13.145342257
  0
LINE
  5
2D9
100
AcDbEntity
  8
SMUSSO
100
AcDbLine
 62
7
  6
CONTINUOUS
 10
-32.6575213941
 20
2.0376147216
 11
-33.5206862129
 21
2.696915331
  0
LWPOLYLINE
  5
2DA
100
AcDbEntity
  8
RACCORDO
100
AcDbPolyline
 62
7
  6
CONTINUOUS
 90
9
 70
0
 10
-40.191551804
 20
12.8076739065
 10
-40.2308762567
 20
12.8430442001
 10
-40.2708409342
 20
12.8785132401
 10
-40.3113446868
 20
12.9141110934
 10
-40.3525726357
 20
12.9493215547
 10
-40.3944737321
 20
12.9844618658
 10
-40.4365973296
 20
13.0194242156
 10
-40.4784812063
 20
13.053060696
 10
-40.5197694154
 20
13.0850210204
  0
LWPOLYLINE
  5
2DB
100
AcDbEntity
  8
RACCORDO
100
AcDbPolyline
 62
7
  6
CONTINUOUS
 90
3
 70
0
 10
-40.0784918052
 20
12.7026762333
 10
-40.1153334863
 20
12.7372625965
 10
-40.191551804
 20
12.8076739065
  0
LWPOLYLINE
  5
2DC
100
AcDbEntity
  8
RACCORDO
100
AcDbPolyline
 62
7
  6
CONTINUOUS
 90
3
 70
0
 10
-39.9728922608
 20
12.6007338331
 10
-40.0073829571
 20
12.6343635098
 10
-40.0784918052
 20
12.7026762333
  0
LWPOLYLINE
  5
2DD
100
AcDbEntity
  8
DRAFT
100
AcDbPolyline
 62
7
  6
CONTINUOUS
 90
4
 70
0
 10
-37.063866681
 20
15.1265813305
 10
-36.8578198597
 20
14.9205263612
 10
-36.6613652061
 20
14.7005600813
 10
-36.4745027201
 20
14.4666824908
  0
LINE
  5
2DE
100
AcDbEntity
  8
DRAFT
100
AcDbLine
 62
7
  6
CONTINUOUS
 10
-40.7408219432
 20
-5.7035064634
 11
-42.130350316
 21
-6.4531888986
  0
LINE
  5
2DF
100
AcDbEntity
  8
DRAFT
100
AcDbLine
 62
250
  6
CONTINUOUS
 10
-45.710806723
 20
-4.7273644594
 11
-49.579656708
 21
-6.5954169603
  0
LINE
  5
2E0
100
AcDbEntity
  8
DRAFT
100
AcDbLine
 62
250
  6
CONTINUOUS
 10
-44.142786167
 20
-6.5683307459
 11
-49.579656708
 21
-9.1934931717
  0
LWPOLYLINE
  5
2E1
100
AcDbEntity
  8
DRAFT
100
AcDbPolyline
 62
7
  6
CONTINUOUS
 90
29
 70
0
 10
-48.3764044866
 20
-4.1456464101
 10
-48.2038241288
 20
-4.0748687497
 10
-47.9884557066
 20
-4.0158043996
 10
-47.7619763661
 20
-3.983459568
 10
-47.5275164739
 20
-3.9783165614
 10
-47.2840253279
 20
-4.000957371
 10
-47.0325536302
 20
-4.0508000057
 10
-46.7793838543
 20
-4.1265807986
 10
-46.525478106
 20
-4.2284445536
 10
-46.2698742794
 20
-4.3562464668
 10
-46.0159685311
 20
-4.5082884602
 10
-45.7627987552
 20
-4.6856774431
 10
-45.5113270576
 20
-4.8873065062
 10
-45.2678359115
 20
-5.1081568426
 10
-45.0333760193
 20
-5.3477597414
 10
-44.8068966788
 20
-5.6065839136
 10
-44.5915282566
 20
-5.8810166858
 10
-44.3867662976
 20
-6.172282985
 10
-44.1931152571
 20
-6.4791578843
 10
-44.0152188676
 20
-6.7943539291
 10
-43.8538808712
 20
-7.1171709016
 10
-43.7082975258
 20
-7.4483090196
 10
-43.5807013379
 20
-7.7825814824
 10
-43.471155878
 20
-8.1207136685
 10
-43.3795975755
 20
-8.4619801993
 10
-43.3080682248
 20
-8.7990181391
 10
-43.2572484239
 20
-9.1293731757
 10
-43.2264575747
 20
-9.4554996213
 10
-43.2156956774
 20
-9.7773974757
  0
LWPOLYLINE
  5
2E2
100
AcDbEntity
  8
RACCORDO
100
AcDbPolyline
 62
7
  6
CONTINUOUS
 90
16
 70
0
 10
17.807619539
 20
-16.058167806
 10
17.7709102071
 20
-16.0497909951
 10
17.7377871021
 20
-16.0437895594
 10
17.7081753637
 20
-16.0403388349
 10
17.6819340473
 20
-16.0399669494
 10
17.6589866694
 20
-16.0424570298
 10
17.6392835266
 20
-16.0468582364
 10
17.6226991641
 20
-16.0532333226
 10
17.6089358443
 20
-16.0617727069
 10
17.5976881724
 20
-16.0716948472
 10
17.5887822082
 20
-16.0829964014
 10
17.5820662741
 20
-16.0958334244
 10
17.5773490292
 20
-16.1096362544
 10
17.5744910634
 20
-16.1243623834
 10
17.573342444
 20
-16.1401517539
 10
17.5733049642
 20
-16.1437151773
  0
LWPOLYLINE
  5
2E3
100
AcDbEntity
  8
0
100
AcDbPolyline
 62
7
  6
CONTINUOUS
 90
3
 70
0
 10
22.5751095767
 20
-18.4776686145
 10
22.5694770498
 20
-18.4759449516
 10
22.4038136167
 20
-18.4040555656
  0
LINE
  5
2E4
100
AcDbEntity
  8
0
100
AcDbLine
 62
7
  6
CONTINUOUS
 10
22.6158667193
 20
-17.8335576574
 11
22.5166324706
 21
-17.8031900453
  0
LWPOLYLINE
  5
2E5
100
AcDbEntity
  8
RACCORDO
100
AcDbPolyline
 62
7
  6
CONTINUOUS
 90
7
 70
0
 10
17.807619539
 20
-16.058167806
 10
17.9254706692
 20
-16.0950402539
 10
18.0433217994
 20
-16.1407339486
 10
18.1611729296
 20
-16.1952488903
 10
18.2790240598
 20
-16.2585850788
 10
18.39687519
 20
-16.3307425142
 10
18.5147263202
 20
-16.4117211966
  0
LINE
  5
2E6
100
AcDbEntity
  8
DRAFT
100
AcDbLine
 62
7
  6
CONTINUOUS
 10
22.9707333012
 20
-21.7584309115
 11
21.4497397626
 21
-20.9979341422
  0
LINE
  5
2E7
100
AcDbEntity
  8
ASSI
100
AcDbLine
 62
7
  6
CONTINUOUS
 10
-1.769584171
 20
-35.3934326744
 11
-0.9295441433
 21
-39.0178991027
  0
LINE
  5
2E8
100
AcDbEntity
  8
ASSI
100
AcDbLine
 62
7
  6
CONTINUOUS
 10
-1.5910894533
 20
-35.4826800332
 11
-0.7881227871
 21
-38.9471884246
  0
LINE
  5
2E9
100
AcDbEntity
  8
ASSI
100
AcDbLine
 62
7
  6
CONTINUOUS
 10
-0.6678884713
 20
-38.1507097371
 11
-1.2462989899
 21
-35.6550752649
  0
LWPOLYLINE
  5
2EA
100
AcDbEntity
  8
SMUSSO
100
AcDbPolyline
 62
7
  6
CONTINUOUS
 90
11
 70
0
 10
-31.76303584
 20
-10.3282837563
 10
-31.5018609125
 20
-10.1657299964
 10
-31.2622283951
 20
-9.9652595454
 10
-31.0463001118
 20
-9.7285765397
 10
-30.8557194073
 20
-9.4574822797
 10
-30.6919367157
 20
-9.1540399565
 10
-30.5561985223
 20
-8.8205589495
 10
-30.4495378767
 20
-8.4595772504
 10
-30.3727665307
 20
-8.0738421479
 10
-30.3264687607
 20
-7.6662893191
 10
-30.3109969207
 20
-7.2400204871
  0
LWPOLYLINE
  5
2EB
100
AcDbEntity
  8
DRAFT
100
AcDbPolyline
 62
7
  6
CONTINUOUS
 90
11
 70
0
 10
-23.4123108301
 20
-4.2941638442
 10
-23.2114637162
 20
-4.1711252207
 10
-23.0417197583
 20
-4.0287145453
 10
-22.8874500444
 20
-3.8596107587
 10
-22.7521368405
 20
-3.6676343973
 10
-22.6362138739
 20
-3.4522708646
 10
-22.5392474175
 20
-3.2140347571
 10
-22.4634185562
 20
-2.9582903999
 10
-22.4094543182
 20
-2.6868259017
 10
-22.3766276754
 20
-2.3978531538
 10
-22.3649386276
 20
-2.0913721563
  0
LINE
  5
2EC
100
AcDbEntity
  8
DRAFT
100
AcDbLine
 62
250
  6
CONTINUOUS
 10
-30.3195025188
 20
-3.7718119917
 11
-33.7931800791
 21
-5.5703611987
  0
LINE
  5
2ED
100
AcDbEntity
  8
DRAFT
100
AcDbLine
 62
250
  6
CONTINUOUS
 10
-30.3195025188
 20
-7.2359136068
 11
-37.6513359909
 21
-11.0320815148
  0
LWPOLYLINE
  5
2EE
100
AcDbEntity
  8
DRAFT
100
AcDbPolyline
 62
7
  6
CONTINUOUS
 90
30
 70
0
 10
-44.3523751999
 20
-14.7917859488
 10
-44.3867662976
 20
-14.8095175574
 10
-44.5915282566
 20
-14.8960218977
 10
-44.8068966788
 20
-14.9550862478
 10
-45.0333760193
 20
-14.9874310794
 10
-45.2678359115
 20
-14.9925740859
 10
-45.5113270576
 20
-14.9699332764
 10
-45.7627987552
 20
-14.9200906417
 10
-46.0159685311
 20
-14.8443098488
 10
-46.2698742794
 20
-14.7424460938
 10
-46.525478106
 20
-14.6146441805
 10
-46.7793838543
 20
-14.4626021872
 10
-47.0325536302
 20
-14.2852132042
 10
-47.2840253279
 20
-14.0835841412
 10
-47.5275164739
 20
-13.8627338048
 10
-47.7619763661
 20
-13.623130906
 10
-47.9884557066
 20
-13.3643067338
 10
-48.2038241288
 20
-13.0898739616
 10
-48.4085860878
 20
-12.7986076624
 10
-48.6022371283
 20
-12.4917327631
 10
-48.7801335179
 20
-12.1765367183
 10
-48.9414715142
 20
-11.8537197458
 10
-49.0870548596
 20
-11.5225816278
 10
-49.2146510475
 20
-11.188309165
 10
-49.3241965074
 20
-10.8501769789
 10
-49.4157548099
 20
-10.5089104481
 10
-49.4872841607
 20
-10.1718725083
 10
-49.5381039615
 20
-9.8415174717
 10
-49.5688948107
 20
-9.5153910261
 10
-49.579656708
 20
-9.1934931717
  0
LINE
  5
2EF
100
AcDbEntity
  8
DRAFT
100
AcDbLine
 62
7
  6
CONTINUOUS
 10
-23.4121402117
 20
-4.2945020232
 11
-30.3483430039
 21
-7.858845239
  0
LINE
  5
2F0
100
AcDbEntity
  8
SMUSSO
100
AcDbLine
 62
250
  6
CONTINUOUS
 10
-22.3649386276
 20
1.3727294588
 11
-30.3206030719
 21
-2.6751420184
  0
LINE
  5
2F1
100
AcDbEntity
  8
SMUSSO
100
AcDbLine
 62
250
  6
CONTINUOUS
 10
-22.3649386276
 20
-2.0913721563
 11
-30.3206030719
 21
-6.1392436336
  0
LWPOLYLINE
  5
2F2
100
AcDbEntity
  8
RACCORDO
100
AcDbPolyline
 62
7
  6
CONTINUOUS
 90
7
 70
0
 10
-40.599400587
 20
8.4615937582
 10
-40.7172517172
 20
8.4984662061
 10
-40.8351028474
 20
8.5441599009
 10
-40.9529539776
 20
8.5986748425
 10
-41.0708051078
 20
8.6620110311
 10
-41.188656238
 20
8.7341684665
 10
-41.3065073682
 20
8.8151471488
  0
LINE
  5
2F3
100
AcDbEntity
  8
0
100
AcDbLine
 62
7
  6
CONTINUOUS
 10
22.5166324706
 20
-17.8031900453
 11
22.4038136167
 21
-17.7545365128
  0
LINE
  5
2F4
100
AcDbEntity
  8
DRAFT
100
AcDbLine
 62
7
  6
CONTINUOUS
 10
-40.6713455246
 20
16.707441276
 11
-39.150351986
 21
15.9469445067
  0
LINE
  5
2F5
100
AcDbEntity
  8
DRAFT
100
AcDbLine
 62
7
  6
CONTINUOUS
 10
22.9707333012
 20
-15.1135981369
 11
21.4497397626
 21
-14.3531013676
  0
LWPOLYLINE
  5
2F6
100
AcDbEntity
  8
0
100
AcDbPolyline
 62
7
  6
CONTINUOUS
 90
13
 70
0
 10
22.4038136167
 20
-18.4040555656
 10
22.2381501837
 20
-18.3102815185
 10
22.0724867506
 20
-18.1953143213
 10
21.9121705892
 20
-18.0628648763
 10
21.7573761756
 20
-17.9123627557
 10
21.6079290336
 20
-17.7443783873
 10
21.4686530067
 20
-17.5643339579
 10
21.3398799682
 20
-17.3718359598
 10
21.2212780448
 20
-17.1672779007
 10
21.1166754604
 20
-16.95726249
 10
21.0265289992
 20
-16.7416116598
 10
20.950381877
 20
-16.520503478
 10
20.9481187171
 20
-16.5121837796
  0
LWPOLYLINE
  5
2F7
100
AcDbEntity
  8
0
100
AcDbPolyline
 62
7
  6
CONTINUOUS
 90
14
 70
0
 10
-36.7103132905
 20
11.8025269408
 10
-36.8231321443
 20
11.8666922622
 10
-36.9323861505
 20
11.9425124154
 10
-37.0380753088
 20
12.0299874003
 10
-37.1412715846
 20
12.1303221475
 10
-37.2409030125
 20
12.2423117264
 10
-37.3337536971
 20
12.362341346
 10
-37.4196023895
 20
12.4906733447
 10
-37.4986703384
 20
12.6270453841
 10
-37.5684053947
 20
12.7670556579
 10
-37.6285030355
 20
12.910822878
 10
-37.6792677836
 20
13.0582283326
 10
-37.7190610584
 20
13.2045140795
 10
-37.7304634797
 20
13.2626520292
  0
LWPOLYLINE
  5
2F8
100
AcDbEntity
  8
0
100
AcDbPolyline
 62
7
  6
CONTINUOUS
 90
14
 70
0
 10
22.4038136167
 20
-17.7545365128
 10
22.2909947629
 20
-17.6903711914
 10
22.1817407567
 20
-17.6145510382
 10
22.0760515984
 20
-17.5270760533
 10
21.9728553226
 20
-17.4267413061
 10
21.8732238947
 20
-17.3147517272
 10
21.7803732101
 20
-17.1947221076
 10
21.6945245177
 20
-17.0663901089
 10
21.6154565688
 20
-16.9300180695
 10
21.5457215125
 20
-16.7900077957
 10
21.4856238717
 20
-16.6462405756
 10
21.4348591236
 20
-16.498835121
 10
21.3950658488
 20
-16.3525493741
 10
21.3836634275
 20
-16.2944114244
  0
LINE
  5
2F9
100
AcDbEntity
  8
ASSI
100
AcDbLine
 62
7
  6
CONTINUOUS
 10
8.2696117311
 20
-42.3784484325
 11
8.79400212
 21
-43.8796557799
  0
LINE
  5
2FA
100
AcDbEntity
  8
ASSI
100
AcDbLine
 62
7
  6
CONTINUOUS
 10
8.4110330873
 20
-42.3077377544
 11
8.9354234763
 21
-43.8089451018
  0
LINE
  5
2FB
100
AcDbEntity
  8
ASSI
100
AcDbLine
 62
7
  6
CONTINUOUS
 10
9.383394714
 20
-44.1743442826
 11
8.8263908714
 21
-42.579764618
  0
LINE
  5
2FC
100
AcDbEntity
  8
ASSI
100
AcDbLine
 62
7
  6
CONTINUOUS
 10
3.1088317795
 20
-39.9194856106
 11
2.6202450353
 21
-37.5883472775
  0
LINE
  5
2FD
100
AcDbEntity
  8
ASSI
100
AcDbLine
 62
7
  6
CONTINUOUS
 10
2.3524672328
 20
-38.545784619
 11
2.8471959065
 21
-40.9062613334
  0
LINE
  5
2FE
100
AcDbEntity
  8
ASSI
100
AcDbLine
 62
7
  6
CONTINUOUS
 10
2.493888589
 20
-38.4750739409
 11
2.9886172627
 21
-40.8355506552
  0
LINE
  5
2FF
100
AcDbEntity
  8
ASSI
100
AcDbLine
 62
7
  6
CONTINUOUS
 10
0.7826512877
 20
-36.6695504037
 11
0.7826449237
 21
-39.8739936362
  0
LINE
  5
300
100
AcDbEntity
  8
ASSI
100
AcDbLine
 62
7
  6
CONTINUOUS
 10
0.9240723631
 20
-36.7402609414
 11
0.92406628
 21
-39.8032829581
  0
LINE
  5
301
100
AcDbEntity
  8
DRAFT
100
AcDbLine
 62
7
  6
CONTINUOUS
 10
-31.7685559522
 20
-10.3178272069
 11
-36.5897788392
 21
-12.862996768
  0
LINE
  5
302
100
AcDbEntity
  8
0
100
AcDbLine
 62
7
  6
CONTINUOUS
 10
-37.5588414279
 20
-14.337875408
 11
-36.1446278655
 21
-13.6307686268
  0
LWPOLYLINE
  5
303
100
AcDbEntity
  8
RACCORDO
100
AcDbPolyline
 62
7
  6
CONTINUOUS
 90
5
 70
0
 10
-39.955790443
 20
7.6339585702
 10
-39.8497052237
 20
7.6217737408
 10
-39.7457848097
 20
7.6213250537
 10
-39.6461828222
 20
7.6327874318
 10
-39.5529038659
 20
7.6557088095
  0
LWPOLYLINE
  5
304
100
AcDbEntity
  8
RACCORDO
100
AcDbPolyline
 62
7
  6
CONTINUOUS
 90
25
 70
0
 10
-40.599400587
 20
8.4615937582
 10
-40.560137575
 20
8.4544937874
 10
-40.5196339281
 20
8.4521826226
 10
-40.4782403186
 20
8.4546228337
 10
-40.436215169
 20
8.4621428648
 10
-40.3939225662
 20
8.4743055576
 10
-40.3518543288
 20
8.4898893115
 10
-40.3104658318
 20
8.508666465
 10
-40.2698080438
 20
8.5306530833
 10
-40.2297217759
 20
8.5549945217
 10
-40.1903167127
 20
8.5815456253
 10
-40.1517885951
 20
8.6102887401
 10
-40.114052886
 20
8.6406008022
 10
-40.0772622895
 20
8.6722932466
 10
-40.0414589703
 20
8.705409967
 10
-40.006364436
 20
8.7397148846
 10
-39.9720127748
 20
8.7751333504
 10
-39.9384947897
 20
8.8116449234
 10
-39.9056063393
 20
8.8491344493
 10
-39.8733890229
 20
8.887543155
 10
-39.8418936184
 20
8.9268642027
 10
-39.8109318319
 20
8.9670899948
 10
-39.7804714244
 20
9.008210585
 10
-39.7506291973
 20
9.050198217
 10
-39.7214427723
 20
9.0930316868
  0
LWPOLYLINE
  5
305
100
AcDbEntity
  8
RACCORDO
100
AcDbPolyline
 62
7
  6
CONTINUOUS
 90
7
 70
0
 10
-41.3065073682
 20
13.4988956476
 10
-41.188656238
 20
13.4620231997
 10
-41.0708051078
 20
13.416329505
 10
-40.9529539776
 20
13.3618145633
 10
-40.8351028474
 20
13.2984783748
 10
-40.7172517172
 20
13.2263209394
 10
-40.599400587
 20
13.145342257
  0
LINE
  5
306
100
AcDbEntity
  8
0
100
AcDbLine
 62
7
  6
CONTINUOUS
 10
22.558220635
 20
-11.0385572464
 11
21.4598896116
 21
-10.4893917347
  0
LINE
  5
307
100
AcDbEntity
  8
0
100
AcDbLine
 62
7
  6
CONTINUOUS
 10
-42.130350316
 20
21.3057282291
 11
-43.2286813394
 21
21.8548937408
  0
LINE
  5
308
100
AcDbEntity
  8
DRAFT
100
AcDbLine
 62
7
  6
CONTINUOUS
 10
-33.7931800791
 20
20.1938945639
 11
-31.4070124316
 21
19.0008107401
  0
LWPOLYLINE
  5
309
100
AcDbEntity
  8
DRAFT
100
AcDbPolyline
 62
7
  6
CONTINUOUS
 90
29
 70
0
 10
-31.4070124316
 20
19.0008107401
 10
-31.1730490945
 20
18.8706961691
 10
-30.9442815894
 20
18.7194255074
 10
-30.7207099164
 20
18.5469987549
 10
-30.5007187431
 20
18.3517884581
 10
-30.2859234018
 20
18.1354220705
 10
-30.0811698898
 20
17.9027819529
 10
-29.8866887431
 20
17.6535015354
 10
-29.7022494256
 20
17.3879473879
 10
-29.5320063271
 20
17.1121015811
 10
-29.3762799194
 20
16.8257271964
 10
-29.2347497306
 20
16.5290611524
 10
-29.1106087343
 20
16.2287962757
 10
-29.0042530976
 20
15.9248533941
 10
-28.9152866535
 20
15.6173116798
 10
-28.8457138746
 20
15.3131014751
 10
-28.7959747423
 20
15.0122970318
 10
-28.7656292753
 20
14.714824098
 10
-28.7553620021
 20
14.4273902612
 10
-28.7656292753
 20
14.1502236976
 10
-28.7959747423
 20
13.8830962308
 10
-28.8457138746
 20
13.6320309198
 10
-28.9152866535
 20
13.397393494
 10
-29.0042530976
 20
13.1788182238
 10
-29.1106087343
 20
12.981230979
 10
-29.2347497306
 20
12.8051070985
 10
-29.3762799194
 20
12.6499712433
 10
-29.5320063271
 20
12.5193232663
 10
-29.7162716243
 20
12.4064419643
  0
LINE
  5
30A
100
AcDbEntity
  8
RACCORDO
100
AcDbLine
 62
7
  6
CONTINUOUS
 10
18.5943574918
 20
-16.4720424332
 11
18.5147263202
 21
-16.4117211966
  0
LWPOLYLINE
  5
30B
100
AcDbEntity
  8
RACCORDO
100
AcDbPolyline
 62
7
  6
CONTINUOUS
 90
9
 70
0
 10
18.9225751032
 20
-16.7493895471
 10
18.8832506505
 20
-16.7140192535
 10
18.843285973
 20
-16.6785502135
 10
18.8027822204
 20
-16.6429523602
 10
18.7615542715
 20
-16.6077418989
 10
18.7196531751
 20
-16.5726015878
 10
18.6775295776
 20
-16.537639238
 10
18.6356457009
 20
-16.5040027576
 10
18.5943574918
 20
-16.4720424332
  0
LWPOLYLINE
  5
30C
100
AcDbEntity
  8
RACCORDO
100
AcDbPolyline
 62
7
  6
CONTINUOUS
 90
3
 70
0
 10
19.035635102
 20
-16.8543872203
 10
18.9987934209
 20
-16.8198008571
 10
18.9225751032
 20
-16.7493895471
  0
LWPOLYLINE
  5
30D
100
AcDbEntity
  8
RACCORDO
100
AcDbPolyline
 62
7
  6
CONTINUOUS
 90
3
 70
0
 10
19.1412346463
 20
-16.9563296205
 10
19.1067439501
 20
-16.9226999438
 10
19.035635102
 20
-16.8543872203
  0
LWPOLYLINE
  5
30E
100
AcDbEntity
  8
RACCORDO
100
AcDbPolyline
 62
7
  6
CONTINUOUS
 90
3
 70
0
 10
19.2403179708
 20
-17.0553287903
 10
19.2079542581
 20
-17.02268342
 10
19.1412346463
 20
-16.9563296205
  0
LWPOLYLINE
  5
30F
100
AcDbEntity
  8
RACCORDO
100
AcDbPolyline
 62
7
  6
CONTINUOUS
 90
8
 70
0
 10
18.5147263202
 20
-21.5667330253
 10
18.5858894173
 20
-21.6413250999
 10
18.6657020836
 20
-21.7091936412
 10
18.7533874841
 20
-21.769643198
 10
18.8480641099
 20
-21.8223366966
 10
18.9483588126
 20
-21.8663020441
 10
19.0523690503
 20
-21.9000385563
 10
19.1583364642
 20
-21.9231048834
  0
LWPOLYLINE
  5
310
100
AcDbEntity
  8
RACCORDO
100
AcDbPolyline
 62
7
  6
CONTINUOUS
 90
5
 70
0
 10
19.3926841349
 20
-17.2140101586
 10
19.3634671054
 20
-17.1828443603
 10
19.3335695407
 20
-17.1514195191
 10
19.3030283041
 20
-17.1197129539
 10
19.2403179708
 20
-17.0553287903
  0
LWPOLYLINE
  5
311
100
AcDbEntity
  8
RACCORDO
100
AcDbPolyline
 62
250
  6
CONTINUOUS
 90
16
 70
0
 10
17.807619539
 20
-21.2131796347
 10
17.8483952392
 20
-21.2645898026
 10
17.891173975
 20
-21.3129487261
 10
17.9359557464
 20
-21.3582564053
 10
17.9831491152
 20
-21.4009879602
 10
18.0323455196
 20
-21.4406682707
 10
18.0823192743
 20
-21.4758719771
 10
18.1331191668
 20
-21.5063783559
 10
18.1846964096
 20
-21.5324081305
 10
18.2356789551
 20
-21.5531981116
 10
18.2860396454
 20
-21.5684806779
 10
18.3358056383
 20
-21.5785234506
 10
18.3836863597
 20
-21.5833661043
 10
18.4292516181
 20
-21.5830218637
 10
18.4729316049
 20
-21.5774775041
 10
18.5147263202
 20
-21.5667330253
  0
LINE
  5
312
100
AcDbEntity
  8
ASSI
100
AcDbLine
 62
7
  6
CONTINUOUS
 10
5.8390078312
 20
-40.1957380828
 11
6.0926116783
 21
-41.2899484061
  0
LINE
  5
313
100
AcDbEntity
  8
ASSI
100
AcDbLine
 62
7
  6
CONTINUOUS
 10
6.2522318417
 20
-41.9785985954
 11
6.4174247137
 21
-42.6913670767
  0
LINE
  5
314
100
AcDbEntity
  8
ASSI
100
AcDbLine
 62
7
  6
CONTINUOUS
 10
5.9804291874
 20
-40.1250274047
 11
6.2340330345
 21
-41.219237728
  0
LINE
  5
315
100
AcDbEntity
  8
ASSI
100
AcDbLine
 62
7
  6
CONTINUOUS
 10
6.393653198
 20
-41.9078879173
 11
6.55884607
 21
-42.6206563986
  0
LINE
  5
316
100
AcDbEntity
  8
ASSI
100
AcDbLine
 62
7
  6
CONTINUOUS
 10
6.9407098948
 20
-42.9530183275
 11
6.1006635032
 21
-39.3285487172
  0
LINE
  5
317
100
AcDbEntity
  8
ASSI
100
AcDbLine
 62
7
  6
CONTINUOUS
 10
1.3059230337
 20
-40.135624897
 11
1.3059301048
 21
-36.9311898123
  0
LINE
  5
318
100
AcDbEntity
  8
ASSI
100
AcDbLine
 62
7
  6
CONTINUOUS
 10
1.8291891228
 20
-37.1928193213
 11
1.8291891228
 21
-40.3972579415
  0
LINE
  5
319
100
AcDbEntity
  8
ASSI
100
AcDbLine
 62
7
  6
CONTINUOUS
 10
1.9706104791
 20
-37.2635299994
 11
1.9706104791
 21
-40.3265472634
  0
LINE
  5
31A
100
AcDbEntity
  8
ASSI
100
AcDbLine
 62
7
  6
CONTINUOUS
 10
2.3524672328
 20
-40.6588969965
 11
2.3524672328
 21
-38.545784619
  0
LINE
  5
31B
100
AcDbEntity
  8
ASSI
100
AcDbLine
 62
7
  6
CONTINUOUS
 10
3.8651899622
 20
-39.3021459837
 11
3.8651963262
 21
-41.4152615432
  0
LINE
  5
31C
100
AcDbEntity
  8
ASSI
100
AcDbLine
 62
7
  6
CONTINUOUS
 10
4.0066113184
 20
-39.2314353056
 11
4.0066176824
 21
-41.3445508651
  0
LINE
  5
31D
100
AcDbEntity
  8
ASSI
100
AcDbLine
 62
7
  6
CONTINUOUS
 10
4.3884751432
 20
-41.6769009517
 11
4.3884751432
 21
-38.4724623315
  0
LINE
  5
31E
100
AcDbEntity
  8
DRAFT
100
AcDbLine
 62
7
  6
CONTINUOUS
 10
5.0443421386
 20
-24.8185686011
 11
5.0443421386
 21
-24.4288571694
  0
LINE
  5
31F
100
AcDbEntity
  8
RACCORDO
100
AcDbLine
 62
250
  6
CONTINUOUS
 10
6.4395264914
 20
-28.2601041717
 11
6.4395264914
 21
-28.0002965506
  0
LINE
  5
320
100
AcDbEntity
  8
RACCORDO
100
AcDbLine
 62
250
  6
CONTINUOUS
 10
30.8100794293
 20
12.5851176511
 11
51.7134704703
 21
23.0774566944
  0
LWPOLYLINE
  5
321
100
AcDbEntity
  8
DRAFT
100
AcDbPolyline
 62
7
  6
CONTINUOUS
 90
10
 70
0
 10
21.2733844145
 20
8.2281957306
 10
21.3408138663
 20
8.2582325327
 10
21.5517528556
 20
8.3310654936
 10
21.772594253
 20
8.3769175717
 10
22.0039562801
 20
8.3954017983
 10
22.2452207152
 20
8.3869051421
 10
22.4912093055
 20
8.3515160525
 10
22.7401959666
 20
8.2892640124
 10
22.9939067828
 20
8.2001195389
 10
23.2523417542
 20
8.0840826318
  0
LWPOLYLINE
  5
322
100
AcDbEntity
  8
0
100
AcDbPolyline
 62
7
  6
CONTINUOUS
 90
4
 70
0
 10
-36.3825512721
 20
11.702225382
 10
-36.4882404305
 20
11.7204395554
 10
-36.5974944366
 20
11.7538734083
 10
-36.7103132905
 20
11.8025269408
  0
LWPOLYLINE
  5
323
100
AcDbEntity
  8
0
100
AcDbPolyline
 62
7
  6
CONTINUOUS
 90
16
 70
0
 10
-36.2379429376
 20
11.0059055935
 10
-36.3789864243
 20
11.0304222662
 10
-36.5446498574
 20
11.081118502
 10
-36.7103132905
 20
11.153007888
 10
-36.8759767235
 20
11.2467819351
 10
-37.0416401566
 20
11.3617491323
 10
-37.201956318
 20
11.4941985773
 10
-37.3567507316
 20
11.6447006979
 10
-37.5061978736
 20
11.8126850663
 10
-37.6454739005
 20
11.9927294957
 10
-37.774246939
 20
12.1852274938
 10
-37.8928488624
 20
12.3897855529
 10
-37.9974514468
 20
12.5998009636
 10
-38.087597908
 20
12.8154517938
 10
-38.1637450302
 20
13.0365599756
 10
-38.1660081901
 20
13.044879674
  0
LWPOLYLINE
  5
324
100
AcDbEntity
  8
RACCORDO
100
AcDbPolyline
 62
7
  6
CONTINUOUS
 90
16
 70
0
 10
-41.3065073682
 20
13.4988956476
 10
-41.3432167001
 20
13.5072724585
 10
-41.3763398051
 20
13.5132738942
 10
-41.4059515435
 20
13.5167246187
 10
-41.4321928599
 20
13.5170965042
 10
-41.4551402378
 20
13.5146064238
 10
-41.4748433806
 20
13.5102052172
 10
-41.4914277431
 20
13.503830131
 10
-41.5051910629
 20
13.4952907467
 10
-41.5164387348
 20
13.4853686064
 10
-41.525344699
 20
13.4740670522
 10
-41.5320606331
 20
13.4612300292
 10
-41.536777878
 20
13.4474271992
 10
-41.5396358438
 20
13.4327010702
 10
-41.5407844632
 20
13.4169116997
 10
-41.540821943
 20
13.4133482763
  0
LINE
  5
325
100
AcDbEntity
  8
DRAFT
100
AcDbLine
 62
7
  6
CONTINUOUS
 10
-30.8766823457
 20
21.0712629131
 11
-31.1948803972
 21
21.2303619389
  0
LINE
  5
326
100
AcDbEntity
  8
RACCORDO
100
AcDbLine
 62
250
  6
CONTINUOUS
 10
-33.6357503323
 20
24.6648489489
 11
-33.7931800791
 21
24.7435638223
  0
LINE
  5
327
100
AcDbEntity
  8
DRAFT
100
AcDbLine
 62
7
  6
CONTINUOUS
 10
-31.1948803972
 20
23.8284381502
 11
-31.4070124316
 21
23.9345041674
  0
LWPOLYLINE
  5
328
100
AcDbEntity
  8
DRAFT
100
AcDbPolyline
 62
7
  6
CONTINUOUS
 90
32
 70
0
 10
-46.0441228021
 20
34.9380862759
 10
-46.3025577734
 20
35.0804843402
 10
-46.5562685897
 20
35.2450506829
 10
-46.8052552507
 20
35.4317853039
 10
-47.051243841
 20
35.6423848045
 10
-47.2925082762
 20
35.8751525835
 10
-47.5238703033
 20
36.1249988372
 10
-47.7447117007
 20
36.3916923127
 10
-47.95565069
 20
36.675464263
 10
-48.1533636831
 20
36.9719186431
 10
-48.3380942791
 20
37.2821616318
 10
-48.5095988788
 20
37.6050870505
 10
-48.6638230966
 20
37.9329803185
 10
-48.7999727267
 20
38.264826504
 10
-48.9188419747
 20
38.6016405389
 10
-49.0187590721
 20
38.9387526381
 10
-49.0996777726
 20
39.2774265207
 10
-49.1616443226
 20
39.6163984676
 10
-49.2031256924
 20
39.9472075371
 10
-49.2236108725
 20
40.2684198903
 10
-49.2236108725
 20
40.581469366
 10
-49.2031256924
 20
40.8821965391
 10
-49.1616443226
 20
41.1715242387
 10
-49.0996777726
 20
41.4485296357
 10
-49.0187590721
 20
41.7062848178
 10
-48.9188419747
 20
41.9434798196
 10
-48.7999727267
 20
42.1614246064
 10
-48.6638230966
 20
42.3571211619
 10
-48.5095988788
 20
42.5307902121
 10
-48.3380942791
 20
42.682211031
 10
-48.1533636831
 20
42.8077234237
 10
-48.0230801418
 20
42.8764280088
  0
LWPOLYLINE
  5
329
100
AcDbEntity
  8
RACCORDO
100
AcDbPolyline
 62
7
  6
CONTINUOUS
 90
8
 70
0
 10
17.807619539
 20
-15.5869044761
 10
17.7444586654
 20
-15.5083112897
 10
17.6891880905
 20
-15.4281717028
 10
17.6431987164
 20
-15.3468741327
 10
17.6077890749
 20
-15.264547142
 10
17.5842789676
 20
-15.1821894968
 10
17.5737966105
 20
-15.1016890443
 10
17.5733049643
 20
-15.0807561526
  0
LWPOLYLINE
  5
32A
100
AcDbEntity
  8
RACCORDO
100
AcDbPolyline
 62
250
  6
CONTINUOUS
 90
16
 70
0
 10
18.5147263202
 20
-15.9404578667
 10
18.47395062
 20
-15.8890476988
 10
18.4311718842
 20
-15.8406887752
 10
18.3863901128
 20
-15.795381096
 10
18.3391967441
 20
-15.7526495411
 10
18.2900003397
 20
-15.7129692306
 10
18.240026585
 20
-15.6777655242
 10
18.1892266925
 20
-15.6472591455
 10
18.1376494496
 20
-15.6212293709
 10
18.0866669042
 20
-15.6004393898
 10
18.0363062139
 20
-15.5851568235
 10
17.9865402209
 20
-15.5751140507
 10
17.9386594996
 20
-15.570271397
 10
17.8930942412
 20
-15.5706156376
 10
17.8494142543
 20
-15.5761599973
 10
17.807619539
 20
-15.5869044761
  0
LWPOLYLINE
  5
32B
100
AcDbEntity
  8
SMUSSO
100
AcDbPolyline
 62
7
  6
CONTINUOUS
 90
3
 70
0
 10
21.6259961574
 20
-15.6649856654
 10
21.8281254549
 20
-15.9205002448
 10
22.0094707323
 20
-16.1879010858
  0
LWPOLYLINE
  5
32C
100
AcDbEntity
  8
SMUSSO
100
AcDbPolyline
 62
7
  6
CONTINUOUS
 90
7
 70
0
 10
20.5653359857
 20
-18.0458993
 10
20.4330008348
 20
-17.8515768061
 10
20.3124897225
 20
-17.6467246419
 10
20.205157692
 20
-17.4336461924
 10
20.1122115989
 20
-17.2147373404
 10
20.0346965415
 20
-16.9924595263
 10
20.0290120914
 20
-16.9717370925
  0
LWPOLYLINE
  5
32D
100
AcDbEntity
  8
SMUSSO
100
AcDbPolyline
 62
7
  6
CONTINUOUS
 90
5
 70
0
 10
19.9328353166
 20
-18.3621496345
 10
19.8283080202
 20
-18.2080199689
 10
19.667746763
 20
-17.9287328663
 10
19.5262793733
 20
-17.6332549121
 10
19.4055960038
 20
-17.3258906963
  0
LWPOLYLINE
  5
32E
100
AcDbEntity
  8
RACCORDO
100
AcDbPolyline
 62
7
  6
CONTINUOUS
 90
15
 70
0
 10
17.6185368032
 20
-21.2427684334
 10
17.7203109777
 20
-21.3929656582
 10
17.8329056536
 20
-21.5325087856
 10
17.9575164152
 20
-21.6619814609
 10
18.0926749381
 20
-21.7784902087
 10
18.2331701133
 20
-21.8773414594
 10
18.377091957
 20
-21.957976988
 10
18.5245535417
 20
-22.0209633606
 10
18.6719076836
 20
-22.0653610865
 10
18.8156545586
 20
-22.0915034052
 10
18.9562662747
 20
-22.1008613694
 10
19.0951619129
 20
-22.0940950909
 10
19.2315350603
 20
-22.0712213888
 10
19.3627332824
 20
-22.0327674437
 10
19.4871214669
 20
-21.9795657724
  0
LWPOLYLINE
  5
32F
100
AcDbEntity
  8
DRAFT
100
AcDbPolyline
 62
7
  6
CONTINUOUS
 90
9
 70
0
 10
19.3289317006
 20
-18.6641014425
 10
19.2745690821
 20
-18.579230251
 10
19.1193841824
 20
-18.3083074226
 10
18.9791220373
 20
-18.0318022495
 10
18.8528036848
 20
-17.7484188066
 10
18.7418438633
 20
-17.4613023593
 10
18.6459534589
 20
-17.1688763724
 10
18.5654215856
 20
-16.872717381
 10
18.5025303236
 20
-16.5807002558
  0
LINE
  5
330
100
AcDbEntity
  8
RACCORDO
100
AcDbLine
 62
7
  6
CONTINUOUS
 10
17.5795403642
 20
-21.1773712457
 11
17.6185368032
 21
-21.2427684334
  0
LINE
  5
331
100
AcDbEntity
  8
DRAFT
100
AcDbLine
 62
7
  6
CONTINUOUS
 10
7.1656624822
 20
-26.139036394
 11
7.1656624822
 21
-25.8792287728
  0
LINE
  5
332
100
AcDbEntity
  8
ASSI
100
AcDbLine
 62
7
  6
CONTINUOUS
 10
7.2895603182
 20
-39.9229971247
 11
7.2895603182
 21
-43.1274348789
  0
LINE
  5
333
100
AcDbEntity
  8
ASSI
100
AcDbLine
 62
7
  6
CONTINUOUS
 10
7.4309816744
 20
-39.9937078028
 11
7.4309816744
 21
-43.0567242008
  0
LINE
  5
334
100
AcDbEntity
  8
ASSI
100
AcDbLine
 62
7
  6
CONTINUOUS
 10
7.8056308887
 20
-41.5536315795
 11
7.8056245247
 21
-40.7738469996
  0
LINE
  5
335
100
AcDbEntity
  8
DRAFT
100
AcDbLine
 62
7
  6
CONTINUOUS
 10
8.6682643922
 20
-27.1501449701
 11
8.6682643922
 21
-26.890337349
  0
LINE
  5
336
100
AcDbEntity
  8
ASSI
100
AcDbLine
 62
7
  6
CONTINUOUS
 10
7.8128454992
 20
-43.3890774695
 11
7.8129041891
 21
-42.1500868673
  0
LINE
  5
337
100
AcDbEntity
  8
ASSI
100
AcDbLine
 62
7
  6
CONTINUOUS
 10
-0.0894843167
 20
-36.2334826015
 11
-0.6678884713
 21
-38.1507097371
  0
LINE
  5
338
100
AcDbEntity
  8
ASSI
100
AcDbLine
 62
7
  6
CONTINUOUS
 10
0.0148641529
 20
-36.2856568363
 11
-0.5264671151
 21
-38.079999059
  0
LINE
  5
339
100
AcDbEntity
  8
ASSI
100
AcDbLine
 62
7
  6
CONTINUOUS
 10
-0.4062455273
 20
-39.2795406165
 11
0.4338008643
 21
-36.495125192
  0
LINE
  5
33A
100
AcDbEntity
  8
RACCORDO
100
AcDbLine
 62
250
  6
CONTINUOUS
 10
32.9313189994
 20
8.9265205814
 11
53.8347100405
 21
19.4188596247
  0
LWPOLYLINE
  5
33B
100
AcDbEntity
  8
RACCORDO
100
AcDbPolyline
 62
7
  6
CONTINUOUS
 90
7
 70
0
 10
-41.3065073682
 20
8.3438838189
 10
-41.3696682418
 20
8.3364537297
 10
-41.4249388167
 20
8.336126809
 10
-41.4709281908
 20
8.3425146395
 10
-41.5063378323
 20
8.3548642745
 10
-41.5298479396
 20
8.372801332
 10
-41.5345821979
 20
8.3795817569
  0
LINE
  5
33C
100
AcDbEntity
  8
DRAFT
100
AcDbLine
 62
7
  6
CONTINUOUS
 10
-31.4070124316
 20
25.7748081505
 11
-31.6191444659
 21
25.8808741676
  0
LINE
  5
33D
100
AcDbEntity
  8
DRAFT
100
AcDbLine
 62
7
  6
CONTINUOUS
 10
25.3736620977
 20
-0.770806174
 11
23.2523417542
 21
0.2898539978
  0
LINE
  5
33E
100
AcDbEntity
  8
DRAFT
100
AcDbLine
 62
7
  6
CONTINUOUS
 10
-43.9228024586
 20
33.8774261041
 11
-46.0441228021
 21
34.9380862759
  0
LWPOLYLINE
  5
33F
100
AcDbEntity
  8
DRAFT
100
AcDbPolyline
 62
7
  6
CONTINUOUS
 90
32
 70
0
 10
23.2523417542
 20
0.2898539978
 10
22.9939067828
 20
0.4322520621
 10
22.7401959666
 20
0.5968184047
 10
22.4912093055
 20
0.7835530258
 10
22.2452207152
 20
0.9941525264
 10
22.0039562801
 20
1.2269203054
 10
21.772594253
 20
1.4767665591
 10
21.5517528556
 20
1.7434600346
 10
21.3408138663
 20
2.0272319848
 10
21.1431008732
 20
2.323686365
 10
20.9583702772
 20
2.6339293537
 10
20.7868656774
 20
2.9568547724
 10
20.6326414597
 20
3.2847480404
 10
20.4964918296
 20
3.6165942259
 10
20.3776225816
 20
3.9534082607
 10
20.2777054841
 20
4.2905203599
 10
20.1967867836
 20
4.6291942425
 10
20.1348202337
 20
4.9681661895
 10
20.0933388638
 20
5.298975259
 10
20.0728536838
 20
5.6201876121
 10
20.0728536838
 20
5.9332370878
 10
20.0933388638
 20
6.2339642609
 10
20.1348202337
 20
6.5232919605
 10
20.1967867836
 20
6.8002973576
 10
20.2777054841
 20
7.0580525397
 10
20.3776225816
 20
7.2952475415
 10
20.4964918296
 20
7.5131923283
 10
20.6326414597
 20
7.7088888837
 10
20.7868656774
 20
7.882557934
 10
20.9583702772
 20
8.0339787529
 10
21.1431008732
 20
8.1594911456
 10
21.2733844145
 20
8.2281957306
  0
LWPOLYLINE
  5
340
100
AcDbEntity
  8
DRAFT
100
AcDbPolyline
 62
7
  6
CONTINUOUS
 90
19
 70
0
 10
21.3782435659
 20
-14.3873081785
 10
21.3160159806
 20
-14.3003088987
 10
21.2515652623
 20
-14.2175098141
 10
21.184891411
 20
-14.1389109247
 10
21.1157086465
 20
-14.064229728
 10
21.0443027491
 20
-13.9937487264
 10
20.9715310586
 20
-13.9283154279
 10
20.8973695375
 20
-13.8679859613
 10
20.8218422234
 20
-13.8127041978
 10
20.7458785689
 20
-13.7631492579
 10
20.6694898769
 20
-13.7193976797
 10
20.5926648445
 20
-13.6813729252
 10
20.5162990162
 20
-13.6495245009
 10
20.4403945363
 20
-13.6239155793
 10
20.3649492603
 20
-13.604482988
 10
20.2908522999
 20
-13.5914867164
 10
20.2181247967
 20
-13.5849888083
 10
20.146745609
 20
-13.5849272198
 10
20.0775404232
 20
-13.5913758089
  0
LWPOLYLINE
  5
341
100
AcDbEntity
  8
DRAFT
100
AcDbPolyline
 62
7
  6
CONTINUOUS
 90
5
 70
0
 10
21.4497397626
 20
-14.3531013676
 10
21.4710136436
 20
-14.3847085106
 10
21.4918726441
 20
-14.4166710125
 10
21.512316764
 20
-14.4489888734
 10
21.5323561082
 20
-14.4816791093
  0
LWPOLYLINE
  5
342
100
AcDbEntity
  8
DRAFT
100
AcDbPolyline
 62
7
  6
CONTINUOUS
 90
6
 70
0
 10
21.5323561082
 20
-14.4816791093
 10
21.5519805719
 20
-14.5147247042
 10
21.5711598402
 20
-14.54807461
 10
21.589883808
 20
-14.5817118107
 10
21.6081625805
 20
-14.6156533223
 10
21.6259961574
 20
-14.6498991448
  0
LWPOLYLINE
  5
343
100
AcDbEntity
  8
SMUSSO
100
AcDbPolyline
 62
7
  6
CONTINUOUS
 90
8
 70
0
 10
22.0094707323
 20
-16.1879010858
 10
22.1700319895
 20
-16.4671881885
 10
22.3114993792
 20
-16.7626661427
 10
22.4321827487
 20
-17.0700303585
 10
22.5270116403
 20
-17.3763670659
 10
22.5942959015
 20
-17.6773716752
 10
22.6357256848
 20
-17.9773487761
 10
22.6513009902
 20
-18.2762983687
  0
LWPOLYLINE
  5
344
100
AcDbEntity
  8
RACCORDO
100
AcDbPolyline
 62
250
  6
CONTINUOUS
 90
20
 70
0
 10
19.6460971701
 20
-15.6398486385
 10
19.588345344
 20
-15.5328842619
 10
19.5238216304
 20
-15.4252261643
 10
19.4523978596
 20
-15.3178472673
 10
19.373692809
 20
-15.2113995473
 10
19.2880825783
 20
-15.1075872166
 10
19.1968831089
 20
-15.0088916608
 10
19.1005339765
 20
-14.9164470151
 10
18.9995635905
 20
-14.8314074894
 10
18.8958011923
 20
-14.7557531726
 10
18.7900415966
 20
-14.6902960635
 10
18.6830638135
 20
-14.6357494572
 10
18.576824452
 20
-14.5931646843
 10
18.4721388233
 20
-14.5627418163
 10
18.3698183042
 20
-14.5445889598
 10
18.2716980036
 20
-14.5387085672
 10
18.1783535421
 20
-14.544616724
 10
18.0903301627
 20
-14.5617498014
 10
18.0090577459
 20
-14.5890620014
 10
17.9665952422
 20
-14.608386304
  0
LWPOLYLINE
  5
345
100
AcDbEntity
  8
RACCORDO
100
AcDbPolyline
 62
7
  6
CONTINUOUS
 90
3
 70
0
 10
17.5795447093
 20
-21.1774816967
 10
17.5737966105
 20
-21.1607523364
 10
17.5733049643
 20
-21.1536186126
  0
LWPOLYLINE
  5
346
100
AcDbEntity
  8
RACCORDO
100
AcDbPolyline
 62
7
  6
CONTINUOUS
 90
11
 70
0
 10
17.5733049642
 20
-16.1437151773
 10
17.5737726396
 20
-16.1566943066
 10
17.5756880036
 20
-16.1739792598
 10
17.5789920026
 20
-16.1920798408
 10
17.5836289991
 20
-16.2108066432
 10
17.5895348899
 20
-16.2301537453
 10
17.5966425564
 20
-16.2501732574
 10
17.6049511472
 20
-16.2707638609
 10
17.6144455505
 20
-16.2919070458
 10
17.6250654725
 20
-16.3136636031
 10
17.6367685055
 20
-16.3360523439
  0
LWPOLYLINE
  5
347
100
AcDbEntity
  8
RACCORDO
100
AcDbPolyline
 62
7
  6
CONTINUOUS
 90
16
 70
0
 10
17.5733049643
 20
-20.0907030647
 10
17.5733542366
 20
-20.1036401514
 10
17.5745590393
 20
-20.1553261401
 10
17.5774793241
 20
-20.2068732014
 10
17.5822582443
 20
-20.2583639108
 10
17.5890297607
 20
-20.309618452
 10
17.5979808364
 20
-20.360175434
 10
17.6092556409
 20
-20.4099894106
 10
17.6230237854
 20
-20.4589550679
 10
17.6395952724
 20
-20.5064937601
 10
17.6592648712
 20
-20.55274982
 10
17.6821566738
 20
-20.5973280673
 10
17.7083364189
 20
-20.6388166134
 10
17.7378907189
 20
-20.6766438924
 10
17.7709588893
 20
-20.7110691572
 10
17.807619539
 20
-20.7419163048
  0
LINE
  5
348
100
AcDbEntity
  8
ASSI
100
AcDbLine
 62
7
  6
CONTINUOUS
 10
3.5974185236
 20
-38.0769340217
 11
3.1088317795
 21
-39.9194856106
  0
LINE
  5
349
100
AcDbEntity
  8
ASSI
100
AcDbLine
 62
7
  6
CONTINUOUS
 10
3.7057293224
 20
-38.1310894211
 11
3.2502531357
 21
-39.8487749325
  0
LINE
  5
34A
100
AcDbEntity
  8
ASSI
100
AcDbLine
 62
7
  6
CONTINUOUS
 10
3.3704612885
 20
-41.1678853641
 11
3.8651899622
 21
-39.3021459837
  0
LINE
  5
34B
100
AcDbEntity
  8
ASSI
100
AcDbLine
 62
7
  6
CONTINUOUS
 10
5.5773585232
 20
-39.0668962272
 11
4.7373255666
 21
-41.8513261634
  0
LINE
  5
34C
100
AcDbEntity
  8
ASSI
100
AcDbLine
 62
7
  6
CONTINUOUS
 10
5.6817068301
 20
-39.1190703807
 11
4.8787469228
 21
-41.7806154853
  0
LINE
  5
34D
100
AcDbEntity
  8
DRAFT
100
AcDbLine
 62
250
  6
CONTINUOUS
 10
28.3644416985
 20
2.955190449
 11
23.2523417542
 21
0.2898539978
  0
LINE
  5
34E
100
AcDbEntity
  8
DRAFT
100
AcDbLine
 62
250
  6
CONTINUOUS
 10
28.5011962343
 20
0.859821323
 11
25.3736620977
 21
-0.770806174
  0
LWPOLYLINE
  5
34F
100
AcDbEntity
  8
DRAFT
100
AcDbPolyline
 62
7
  6
CONTINUOUS
 90
10
 70
0
 10
27.4192825848
 20
-0.8816195741
 10
27.2851899856
 20
-0.9449560748
 10
27.0742509963
 20
-1.0177890358
 10
26.8534095989
 20
-1.0636411139
 10
26.6220475718
 20
-1.0821253405
 10
26.3807831367
 20
-1.0736286843
 10
26.1347945464
 20
-1.0382395947
 10
25.8858078853
 20
-0.9759875546
 10
25.6320970691
 20
-0.8868430811
 10
25.3736620977
 20
-0.770806174
  0
LWPOLYLINE
  5
350
100
AcDbEntity
  8
RACCORDO
100
AcDbPolyline
 62
7
  6
CONTINUOUS
 90
10
 70
0
 10
-39.7214427723
 20
9.0930316868
 10
-39.9007113814
 20
9.0570697319
 10
-40.0917534425
 20
9.0564935819
 10
-40.2913497494
 20
9.0913129455
 10
-40.4961369505
 20
9.1609410895
 10
-40.7026642235
 20
9.264204726
 10
-40.9074514246
 20
9.3993637831
 10
-41.1070477315
 20
9.5641407264
 10
-41.2980897925
 20
9.7557589374
 10
-41.4773584017
 20
9.9709895015
  0
LINE
  5
351
100
AcDbEntity
  8
DRAFT
100
AcDbLine
 62
7
  6
CONTINUOUS
 10
16.8534705936
 20
7.819416597
 11
-37.523931298
 21
35.0081175428
  0
LINE
  5
352
100
AcDbEntity
  8
DRAFT
100
AcDbLine
 62
7
  6
CONTINUOUS
 10
-46.0441228021
 20
42.73231491
 11
-43.9228024586
 21
41.6716547382
  0
LINE
  5
353
100
AcDbEntity
  8
DRAFT
100
AcDbLine
 62
7
  6
CONTINUOUS
 10
23.2523417542
 20
8.0840826318
 11
25.3736620977
 21
7.02342246
  0
LWPOLYLINE
  5
354
100
AcDbEntity
  8
DRAFT
100
AcDbPolyline
 62
7
  6
CONTINUOUS
 90
32
 70
0
 10
-43.9228024586
 20
41.6716547382
 10
-43.6643674872
 20
41.5292566739
 10
-43.410656671
 20
41.3646903312
 10
-43.1616700099
 20
41.1779557102
 10
-42.9156814196
 20
40.9673562096
 10
-42.6744169845
 20
40.7345884306
 10
-42.4430549574
 20
40.4847421769
 10
-42.22221356
 20
40.2180487014
 10
-42.0112745707
 20
39.9342767511
 10
-41.8135615776
 20
39.637822371
 10
-41.6288309816
 20
39.3275793823
 10
-41.4573263818
 20
39.0046539636
 10
-41.303102164
 20
38.6767606956
 10
-41.166952534
 20
38.3449145101
 10
-41.048083286
 20
38.0081004752
 10
-40.9481661885
 20
37.670988376
 10
-40.867247488
 20
37.3323144934
 10
-40.8052809381
 20
36.9933425465
 10
-40.7637995682
 20
36.662533477
 10
-40.7433143882
 20
36.3413211238
 10
-40.7433143882
 20
36.0282716481
 10
-40.7637995682
 20
35.727544475
 10
-40.8052809381
 20
35.4382167754
 10
-40.867247488
 20
35.1612113784
 10
-40.9481661885
 20
34.9034561963
 10
-41.048083286
 20
34.6662611945
 10
-41.166952534
 20
34.4483164077
 10
-41.303102164
 20
34.2526198522
 10
-41.4573263818
 20
34.078950802
 10
-41.6288309816
 20
33.9275299831
 10
-41.8135615776
 20
33.8020175904
 10
-41.8771819715
 20
33.766612704
  0
LWPOLYLINE
  5
355
100
AcDbEntity
  8
DRAFT
100
AcDbPolyline
 62
7
  6
CONTINUOUS
 90
32
 70
0
 10
25.3736620977
 20
7.02342246
 10
25.6320970691
 20
6.8810243958
 10
25.8858078853
 20
6.7164580531
 10
26.1347945464
 20
6.5297234321
 10
26.3807831367
 20
6.3191239314
 10
26.6220475718
 20
6.0863561524
 10
26.8534095989
 20
5.8365098987
 10
27.0742509963
 20
5.5698164232
 10
27.2851899856
 20
5.286044473
 10
27.4829029787
 20
4.9895900928
 10
27.6676335747
 20
4.6793471041
 10
27.8391381745
 20
4.3564216855
 10
27.9933623922
 20
4.0285284174
 10
28.1295120223
 20
3.6966822319
 10
28.2483812703
 20
3.3598681971
 10
28.3482983678
 20
3.0227560979
 10
28.4292170683
 20
2.6840822153
 10
28.4911836182
 20
2.3451102683
 10
28.532664988
 20
2.0143011988
 10
28.5531501681
 20
1.6930888457
 10
28.5531501681
 20
1.38003937
 10
28.532664988
 20
1.0793121969
 10
28.4911836182
 20
0.7899844973
 10
28.4292170683
 20
0.5129791002
 10
28.3482983678
 20
0.2552239181
 10
28.2483812703
 20
0.0180289163
 10
28.1295120223
 20
-0.1999158705
 10
27.9933623922
 20
-0.3956124259
 10
27.8391381745
 20
-0.5692814762
 10
27.6676335747
 20
-0.720702295
 10
27.4829029787
 20
-0.8462146877
 10
27.4192825848
 20
-0.8816195741
  0
LWPOLYLINE
  5
356
100
AcDbEntity
  8
RACCORDO
100
AcDbPolyline
 62
250
  6
CONTINUOUS
 90
7
 70
0
 10
-52.616168472
 20
51.209608985
 10
-52.6762310239
 20
51.2438279846
 10
-52.7269018124
 20
51.2816556897
 10
-52.7673234393
 20
51.322452019
 10
-52.7968119318
 20
51.3655266598
 10
-52.8148683164
 20
51.4101507476
 10
-52.821193725
 20
51.4570882144
  0
LINE
  5
357
100
AcDbEntity
  8
DRAFT
100
AcDbLine
 62
7
  6
CONTINUOUS
 10
16.8534705936
 20
7.819416597
 11
19.0499158293
 21
4.0311089414
  0
LINE
  5
358
100
AcDbEntity
  8
DRAFT
100
AcDbLine
 62
7
  6
CONTINUOUS
 10
21.4598896116
 20
-0.1254809798
 11
21.0558965185
 21
0.5713040356
  0
LINE
  5
359
100
AcDbEntity
  8
SMUSSO
100
AcDbLine
 62
7
  6
CONTINUOUS
 10
19.4055960038
 20
-17.3258906963
 11
19.3602769093
 21
-17.1794911974
  0
LINE
  5
35A
100
AcDbEntity
  8
DRAFT
100
AcDbLine
 62
7
  6
CONTINUOUS
 10
18.5025303236
 20
-16.5807002558
 11
18.4804237691
 21
-16.4384422893
  0
LINE
  5
35B
100
AcDbEntity
  8
RACCORDO
100
AcDbLine
 62
7
  6
CONTINUOUS
 10
17.573304964
 20
-15.0806937786
 11
17.573304964
 21
-16.1436895762
  0
LINE
  5
35C
100
AcDbEntity
  8
RACCORDO
100
AcDbLine
 62
7
  6
CONTINUOUS
 10
17.573304964
 20
-20.0907091096
 11
17.573304964
 21
-21.1537049072
  0
LINE
  5
35D
100
AcDbEntity
  8
RACCORDO
100
AcDbLine
 62
250
  6
CONTINUOUS
 10
17.807619539
 20
-15.5869044761
 11
17.807619539
 21
-16.058167806
  0
LINE
  5
35E
100
AcDbEntity
  8
RACCORDO
100
AcDbLine
 62
250
  6
CONTINUOUS
 10
17.807619539
 20
-20.7419163048
 11
17.807619539
 21
-21.2131796347
  0
LINE
  5
35F
100
AcDbEntity
  8
RACCORDO
100
AcDbLine
 62
250
  6
CONTINUOUS
 10
18.5147263202
 20
-21.5667330253
 11
18.5147263202
 21
-21.0954696954
  0
LINE
  5
360
100
AcDbEntity
  8
RACCORDO
100
AcDbLine
 62
250
  6
CONTINUOUS
 10
18.5147263202
 20
-16.4117211966
 11
18.5147263202
 21
-15.9404578667
  0
LINE
  5
361
100
AcDbEntity
  8
RACCORDO
100
AcDbLine
 62
250
  6
CONTINUOUS
 10
19.6460971701
 20
-21.8673422535
 11
19.6460971701
 21
-20.3439963388
  0
LINE
  5
362
100
AcDbEntity
  8
RACCORDO
100
AcDbLine
 62
250
  6
CONTINUOUS
 10
19.6460971701
 20
-17.1631945531
 11
19.6460971701
 21
-15.6398486385
  0
LINE
  5
363
100
AcDbEntity
  8
0
100
AcDbLine
 62
7
  6
CONTINUOUS
 10
21.4598896116
 20
-0.1254809798
 11
21.4598896116
 21
-10.4893917347
  0
LINE
  5
364
100
AcDbEntity
  8
0
100
AcDbLine
 62
7
  6
CONTINUOUS
 10
21.4598896116
 20
-27.8416421051
 11
21.4598896116
 21
-38.2483088625
  0
LINE
  5
365
100
AcDbEntity
  8
SMUSSO
100
AcDbLine
 62
7
  6
CONTINUOUS
 10
21.6259961574
 20
-14.6498991448
 11
21.6259961574
 21
-15.6649856654
  0
LINE
  5
366
100
AcDbEntity
  8
SMUSSO
100
AcDbLine
 62
7
  6
CONTINUOUS
 10
21.6259961574
 20
-19.8623062393
 11
21.6259961574
 21
-20.8773927598
  0
LINE
  5
367
100
AcDbEntity
  8
DRAFT
100
AcDbLine
 62
7
  6
CONTINUOUS
 10
22.545234973
 20
-45.2559390122
 11
22.545234973
 21
-42.6578628009
  0
LINE
  5
368
100
AcDbEntity
  8
0
100
AcDbLine
 62
7
  6
CONTINUOUS
 10
22.9707333012
 20
-27.096268562
 11
22.9707333012
 21
-21.7584309115
  0
LINE
  5
369
100
AcDbEntity
  8
0
100
AcDbLine
 62
7
  6
CONTINUOUS
 10
22.9707333012
 20
-15.1135981369
 11
22.9707333012
 21
-11.4077413386
  0
LWPOLYLINE
  5
36A
100
AcDbEntity
  8
RACCORDO
100
AcDbPolyline
 62
7
  6
CONTINUOUS
 90
6
 70
0
 10
17.5733049643
 20
-15.0807561526
 10
17.5771091726
 20
-15.0239827292
 10
17.5947548098
 20
-14.9499324716
 10
17.6269162501
 20
-14.8814428572
 10
17.6734344863
 20
-14.8198451235
 10
17.694104053
 20
-14.7990402995
  0
LWPOLYLINE
  5
36B
100
AcDbEntity
  8
RACCORDO
100
AcDbPolyline
 62
7
  6
CONTINUOUS
 90
11
 70
0
 10
17.6367685055
 20
-19.5860739521
 10
17.6250538944
 20
-19.6377055708
 10
17.6144168757
 20
-19.6893977037
 10
17.6049028117
 20
-19.7411319192
 10
17.5965734237
 20
-19.7928648741
 10
17.5894491105
 20
-19.8445981
 10
17.5835373352
 20
-19.8963812143
 10
17.578905993
 20
-19.9482157107
 10
17.5756204557
 20
-20.0000532595
 10
17.5737384471
 20
-20.0518692886
 10
17.5733049643
 20
-20.0907030647
  0
LINE
  5
36C
100
AcDbEntity
  8
ASSI
100
AcDbLine
 62
7
  6
CONTINUOUS
 10
5.585416712
 20
-41.036350923
 11
5.8390078312
 21
-40.1957380828
  0
LINE
  5
36D
100
AcDbEntity
  8
ASSI
100
AcDbLine
 62
7
  6
CONTINUOUS
 10
5.2606036766
 20
-42.1129565582
 11
5.4258036196
 21
-41.5653844844
  0
LINE
  5
36E
100
AcDbEntity
  8
DRAFT
100
AcDbLine
 62
7
  6
CONTINUOUS
 10
19.4321846889
 20
-13.6587635285
 11
19.6224186342
 21
-13.5817781864
  0
LWPOLYLINE
  5
36F
100
AcDbEntity
  8
RACCORDO
100
AcDbPolyline
 62
7
  6
CONTINUOUS
 90
6
 70
0
 10
-41.4773584017
 20
13.2210111097
 10
-41.2980897925
 20
13.2569730646
 10
-41.1070477315
 20
13.2575492145
 10
-40.9074514246
 20
13.2227298509
 10
-40.7026642235
 20
13.1531017069
 10
-40.4961369505
 20
13.0498380704
  0
LWPOLYLINE
  5
370
100
AcDbEntity
  8
RACCORDO
100
AcDbPolyline
 62
7
  6
CONTINUOUS
 90
12
 70
0
 10
-40.599400587
 20
13.6166055869
 10
-40.4484248236
 20
13.6406347543
 10
-40.3607394231
 20
13.655094937
 10
-40.2660627973
 20
13.6723787941
 10
-40.1657680946
 20
13.6928340343
 10
-40.0617578569
 20
13.7160881894
 10
-39.955790443
 20
13.7424670786
 10
-39.8497052237
 20
13.7722975452
 10
-39.7457848097
 20
13.8049076727
 10
-39.6461828222
 20
13.8399635307
 10
-39.5529038659
 20
13.877521907
 10
-39.4680297371
 20
13.9172148151
  0
LWPOLYLINE
  5
371
100
AcDbEntity
  8
RACCORDO
100
AcDbPolyline
 62
250
  6
CONTINUOUS
 90
13
 70
0
 10
31.9457077676
 20
8.9286708652
 10
32.0141456496
 20
8.8986396337
 10
32.0898009474
 20
8.8733042603
 10
32.1713935107
 20
8.8530934477
 10
32.2575427249
 20
8.8383491866
 10
32.3467908664
 20
8.8293209699
 10
32.4376277687
 20
8.8261615692
 10
32.5285163859
 20
8.8289244498
 10
32.617918793
 20
8.8375628656
 10
32.704322203
 20
8.8519306494
 10
32.7862645807
 20
8.871784686
 10
32.8623593805
 20
8.8967890287
 10
32.9313189994
 20
8.9265205815
  0
LINE
  5
372
100
AcDbEntity
  8
RACCORDO
100
AcDbLine
 62
250
  6
CONTINUOUS
 10
30.3194240971
 20
11.7335952853
 11
-50.9898848015
 21
52.3882497346
  0
LWPOLYLINE
  5
373
100
AcDbEntity
  8
DRAFT
100
AcDbPolyline
 62
7
  6
CONTINUOUS
 90
10
 70
0
 10
19.0499158293
 20
4.0311089414
 10
19.201248088
 20
3.6042468245
 10
19.3714303297
 20
3.1863364406
 10
19.5604625545
 20
2.7773777896
 10
19.7696265782
 20
2.3751600656
 10
19.997640585
 20
1.9818940745
 10
20.2406591272
 20
1.6042122342
 10
20.4974003889
 20
1.2443253506
 10
20.769146186
 20
0.9000226178
 10
21.0558965185
 20
0.5713040356
  0
LWPOLYLINE
  5
374
100
AcDbEntity
  8
RACCORDO
100
AcDbPolyline
 62
250
  6
CONTINUOUS
 90
8
 70
0
 10
30.3194240971
 20
-58.9241636106
 10
30.3236118067
 20
-59.0007598238
 10
30.3361040823
 20
-59.0718722725
 10
30.3566895515
 20
-59.1362976629
 10
30.3850198975
 20
-59.1929458516
 10
30.4206157516
 20
-59.2408582882
 10
30.4628748021
 20
-59.2792242376
 10
30.5013493255
 20
-59.30277527
  0
LINE
  5
375
100
AcDbEntity
  8
0
100
AcDbLine
 62
7
  6
CONTINUOUS
 10
23.2653004917
 20
-12.258089603
 11
23.2653004917
 21
-27.8783551169
  0
LWPOLYLINE
  5
376
100
AcDbEntity
  8
DRAFT
100
AcDbPolyline
 62
7
  6
CONTINUOUS
 90
13
 70
0
 10
22.545234973
 20
-42.6578628009
 10
22.5559968704
 20
-42.3467268438
 10
22.5867877195
 20
-42.0513912474
 10
22.6376075204
 20
-41.7718560116
 10
22.7091368711
 20
-41.5063474226
 10
22.8006951736
 20
-41.2566391942
 10
22.9102406335
 20
-41.0280524681
 10
23.0378368214
 20
-40.8213761932
 10
23.1834201668
 20
-40.6358214206
 10
23.3447581632
 20
-40.4743424445
 10
23.5226545527
 20
-40.3370427892
 10
23.7163055933
 20
-40.2238189305
 10
23.7484871944
 20
-40.2080922506
  0
LWPOLYLINE
  5
377
100
AcDbEntity
  8
SMUSSO
100
AcDbPolyline
 62
7
  6
CONTINUOUS
 90
3
 70
0
 10
22.6428349496
 20
-18.1138027183
 10
22.6423563363
 20
-18.1246038439
 10
22.6156229497
 20
-18.3152483277
  0
LWPOLYLINE
  5
378
100
AcDbEntity
  8
SMUSSO
100
AcDbPolyline
 62
7
  6
CONTINUOUS
 90
5
 70
0
 10
22.6513009902
 20
-18.2762983687
 10
22.6357256848
 20
-18.5596726559
 10
22.5942959015
 20
-18.8182199735
 10
22.5270116403
 20
-19.0519403215
 10
22.4321827487
 20
-19.2634481374
  0
LWPOLYLINE
  5
379
100
AcDbEntity
  8
SMUSSO
100
AcDbPolyline
 62
7
  6
CONTINUOUS
 90
8
 70
0
 10
22.6156229497
 20
-18.3152483277
 10
22.5714014241
 20
-18.4925347975
 10
22.5101889922
 20
-18.6544698203
 10
22.4326739348
 20
-18.7992325771
 10
22.3397278417
 20
-18.925195336
 10
22.2323958112
 20
-19.0309417549
 10
22.1118846989
 20
-19.1152828069
 10
22.0665413224
 20
-19.139711029
  0
LWPOLYLINE
  5
37A
100
AcDbEntity
  8
DRAFT
100
AcDbPolyline
 62
7
  6
CONTINUOUS
 90
6
 70
0
 10
18.8453286852
 20
-14.1690195825
 10
18.8528036848
 20
-14.1571524879
 10
18.9791220373
 20
-14.0000873975
 10
19.1193841824
 20
-13.8638443695
 10
19.2745690821
 20
-13.7481064408
 10
19.4321846889
 20
-13.6587635285
  0
LWPOLYLINE
  5
37B
100
AcDbEntity
  8
RACCORDO
100
AcDbPolyline
 62
7
  6
CONTINUOUS
 90
10
 70
0
 10
17.807619539
 20
-19.4247575233
 10
17.7846665775
 20
-19.4371376754
 10
17.7625877827
 20
-19.4509196679
 10
17.7414414237
 20
-19.4660905044
 10
17.721317224
 20
-19.4826117134
 10
17.7022370598
 20
-19.5004896831
 10
17.6841740432
 20
-19.5197821838
 10
17.6671768192
 20
-19.5405008267
 10
17.6513500573
 20
-19.5626044448
 10
17.6367685055
 20
-19.5860739521
  0
LWPOLYLINE
  5
37C
100
AcDbEntity
  8
RACCORDO
100
AcDbPolyline
 62
7
  6
CONTINUOUS
 90
10
 70
0
 10
17.9665952422
 20
-14.608386304
 10
17.9331992583
 20
-14.6257810649
 10
17.9003419687
 20
-14.6443035489
 10
17.8680611488
 20
-14.6639384906
 10
17.8364071416
 20
-14.6846596912
 10
17.8054020038
 20
-14.7064564122
 10
17.7750420318
 20
-14.729338154
 10
17.7453509799
 20
-14.7532972982
 10
17.7163774098
 20
-14.7783043575
 10
17.6940873985
 20
-14.7987216252
  0
LINE
  5
37D
100
AcDbEntity
  8
DRAFT
100
AcDbLine
 62
7
  6
CONTINUOUS
 10
20.0354122747
 20
-13.5997244842
 11
20.2117825951
 21
-13.5112433075
  0
LINE
  5
37E
100
AcDbEntity
  8
ASSI
100
AcDbLine
 62
7
  6
CONTINUOUS
 10
19.8757835514
 20
-13.6537921494
 11
17.9665952422
 21
-14.608386304
  0
LINE
  5
37F
100
AcDbEntity
  8
RACCORDO
100
AcDbLine
 62
7
  6
CONTINUOUS
 10
19.6460971701
 20
-15.6398486385
 11
21.6259961574
 21
-14.6498991448
  0
LINE
  5
380
100
AcDbEntity
  8
RACCORDO
100
AcDbLine
 62
7
  6
CONTINUOUS
 10
21.9049434359
 20
-16.0337714202
 11
19.6460971701
 21
-17.1631945531
  0
LINE
  5
381
100
AcDbEntity
  8
RACCORDO
100
AcDbLine
 62
7
  6
CONTINUOUS
 10
17.807619539
 20
-19.4247575233
 11
20.5653359857
 21
-18.0458993
  0
LINE
  5
382
100
AcDbEntity
  8
DRAFT
100
AcDbLine
 62
7
  6
CONTINUOUS
 10
5.0443421386
 20
-24.4288571694
 11
-4.7714757572
 21
-29.317344681
  0
LINE
  5
383
100
AcDbEntity
  8
DRAFT
100
AcDbLine
 62
7
  6
CONTINUOUS
 10
5.0443421386
 20
-24.8185686011
 11
-4.3809917194
 21
-29.5125866999
  0
LINE
  5
384
100
AcDbEntity
  8
DRAFT
100
AcDbLine
 62
250
  6
CONTINUOUS
 10
20.9129938915
 20
-13.8806961772
 11
22.9707333012
 21
-12.8738199751
  0
LINE
  5
385
100
AcDbEntity
  8
DRAFT
100
AcDbLine
 62
7
  6
CONTINUOUS
 10
19.6224523445
 20
-13.5655249181
 11
22.9707333012
 21
-11.9373327693
  0
LINE
  5
386
100
AcDbEntity
  8
DRAFT
100
AcDbLine
 62
7
  6
CONTINUOUS
 10
21.4497397626
 20
-14.3531013676
 11
21.3782435659
 21
-14.3873081785
  0
LWPOLYLINE
  5
387
100
AcDbEntity
  8
RACCORDO
100
AcDbPolyline
 62
7
  6
CONTINUOUS
 90
10
 70
0
 10
19.6460971701
 20
-17.1631945531
 10
19.6221726241
 20
-17.1742531548
 10
19.5971559028
 20
-17.1840189203
 10
19.5710729995
 20
-17.192462715
 10
19.5439977533
 20
-17.199541229
 10
19.5159204913
 20
-17.2052419723
 10
19.4867349836
 20
-17.2095737338
 10
19.4564211109
 20
-17.2125106392
 10
19.4250581041
 20
-17.2140019055
 10
19.3926841349
 20
-17.2140101586
  0
LWPOLYLINE
  5
388
100
AcDbEntity
  8
RACCORDO
100
AcDbPolyline
 62
250
  6
CONTINUOUS
 90
12
 70
0
 10
-50.4992294694
 20
53.2397721004
 10
-50.6116999251
 20
53.2921598913
 10
-50.7301620981
 20
53.3394215085
 10
-50.854146121
 20
53.3800783737
 10
-50.983761765
 20
53.4127231348
 10
-51.1175329905
 20
53.4354317228
 10
-51.252515302
 20
53.446405893
 10
-51.3878316563
 20
53.4445076636
 10
-51.5224831745
 20
53.428628548
 10
-51.6535322337
 20
53.398240572
 10
-51.7800648359
 20
53.352984833
 10
-51.8581687716
 20
53.3161342601
  0
LWPOLYLINE
  5
389
100
AcDbEntity
  8
RACCORDO
100
AcDbPolyline
 62
250
  6
CONTINUOUS
 90
25
 70
0
 10
-50.9898848015
 20
52.3882497346
 10
-51.0767624307
 20
52.430521446
 10
-51.1673472479
 20
52.4664788679
 10
-51.2616392531
 20
52.4961220001
 10
-51.3607981369
 20
52.5206026106
 10
-51.4636642086
 20
52.5387689316
 10
-51.5667583964
 20
52.5471656596
 10
-51.6701301319
 20
52.5451403799
 10
-51.7737299834
 20
52.5333455073
 10
-51.873930584
 20
52.510282983
 10
-51.9704966818
 20
52.4751735948
 10
-52.0636635285
 20
52.4287965548
 10
-52.1505095134
 20
52.3719914408
 10
-52.2306020077
 20
52.3040353075
 10
-52.3043736401
 20
52.2256511003
 10
-52.3702006848
 20
52.1398472323
 10
-52.427525919
 20
52.0461267677
 10
-52.4769065654
 20
51.9449866423
 10
-52.518390567
 20
51.8409260776
 10
-52.5514528847
 20
51.7337641816
 10
-52.5766185577
 20
51.6236818463
 10
-52.5955106468
 20
51.5157209692
 10
-52.6086701724
 20
51.4115621829
 10
-52.6155561141
 20
51.3095248548
 10
-52.616168472
 20
51.209608985
  0
LINE
  5
38A
100
AcDbEntity
  8
RACCORDO
100
AcDbLine
 62
250
  6
CONTINUOUS
 10
30.8100794293
 20
12.5851176511
 11
-50.4992294694
 21
53.2397721004
  0
LWPOLYLINE
  5
38B
100
AcDbEntity
  8
RACCORDO
100
AcDbPolyline
 62
250
  6
CONTINUOUS
 90
25
 70
0
 10
32.9313189994
 20
8.9265205814
 10
32.9281400831
 20
9.065403047
 10
32.9183258532
 20
9.214896614
 10
32.900863253
 20
9.3749611343
 10
32.8745627005
 20
9.5463783369
 10
32.8384571022
 20
9.7278398983
 10
32.792277626
 20
9.915841771
 10
32.7354546841
 20
10.1096130096
 10
32.6674941801
 20
10.3082159482
 10
32.5891623725
 20
10.5076461957
 10
32.5005394507
 20
10.7067453856
 10
32.4017553076
 20
10.9043937345
 10
32.2945384726
 20
11.0967761959
 10
32.1794890172
 20
11.2828925071
 10
32.057280516
 20
11.461754511
 10
31.9304514137
 20
11.6301132106
 10
31.7999237173
 20
11.7874884166
 10
31.6666268808
 20
11.9334813848
 10
31.533540452
 20
12.0658544761
 10
31.4015991959
 20
12.1848957992
 10
31.271655773
 20
12.2909982381
 10
31.1467018904
 20
12.3831235137
 10
31.0281691379
 20
12.4618432067
 10
30.9158310262
 20
12.5288056827
 10
30.8100794293
 20
12.5851176511
  0
LWPOLYLINE
  5
38C
100
AcDbEntity
  8
RACCORDO
100
AcDbPolyline
 62
250
  6
CONTINUOUS
 90
25
 70
0
 10
31.9457077676
 20
8.9286708652
 10
31.9447548318
 20
9.0355502639
 10
31.9371328471
 20
9.1503045466
 10
31.9228418133
 20
9.2729337132
 10
31.9023487033
 20
9.4046246026
 10
31.8751865443
 20
9.5441903759
 10
31.8399544181
 20
9.6880705168
 10
31.7960994498
 20
9.8366020038
 10
31.7441745144
 20
9.9894478583
 10
31.6844373183
 20
10.1420366281
 10
31.6163476785
 20
10.2943502809
 10
31.540445778
 20
10.446406849
 10
31.4586098718
 20
10.5936889766
 10
31.3704262974
 20
10.7358736355
 10
31.2763087174
 20
10.8732838539
 10
31.1793763741
 20
11.002371361
 10
31.0794510063
 20
11.1225428313
 10
30.9767108753
 20
11.2343915903
 10
30.8748100073
 20
11.3361493426
 10
30.7738150509
 20
11.4271397248
 10
30.6736593575
 20
11.5080391004
 10
30.5777970074
 20
11.5791082647
 10
30.4873793607
 20
11.6404341495
 10
30.4012550573
 20
11.691929823
 10
30.3194240971
 20
11.7335952853
  0
LINE
  5
38D
100
AcDbEntity
  8
DRAFT
100
AcDbLine
 62
7
  6
CONTINUOUS
 10
28.9091960037
 20
-45.8398433162
 11
28.9091960037
 21
-48.4379195276
  0
LINE
  5
38E
100
AcDbEntity
  8
RACCORDO
100
AcDbLine
 62
250
  6
CONTINUOUS
 10
31.9457077676
 20
-57.745522861
 11
31.9457077676
 21
8.9286708652
  0
LINE
  5
38F
100
AcDbEntity
  8
RACCORDO
100
AcDbLine
 62
250
  6
CONTINUOUS
 10
32.9313189994
 20
-57.7476731448
 11
32.9313189994
 21
8.9265205814
  0
LWPOLYLINE
  5
390
100
AcDbEntity
  8
DRAFT
100
AcDbPolyline
 62
7
  6
CONTINUOUS
 90
12
 70
0
 10
28.9091960037
 20
-48.4379195276
 10
28.8984341063
 20
-48.7490554846
 10
28.8676432572
 20
-49.044391081
 10
28.8168234563
 20
-49.3239263168
 10
28.7452941055
 20
-49.5894349058
 10
28.653735803
 20
-49.8391431342
 10
28.5441903431
 20
-50.0677298603
 10
28.4165941552
 20
-50.2744061352
 10
28.2710108099
 20
-50.4599609079
 10
28.1096728135
 20
-50.6214398839
 10
27.9317764239
 20
-50.7587395392
 10
27.7725164811
 20
-50.8542317893
  0
LWPOLYLINE
  5
391
100
AcDbEntity
  8
RACCORDO
100
AcDbPolyline
 62
250
  6
CONTINUOUS
 90
13
 70
0
 10
30.3194240971
 20
11.7335952853
 10
30.3236118208
 20
11.8143793426
 10
30.3361041316
 20
11.8979841799
 10
30.3566896475
 20
11.9829951232
 10
30.385020042
 20
12.0679737057
 10
30.4206159375
 20
12.1514820084
 10
30.4628750175
 20
12.2321069906
 10
30.5110822176
 20
12.3084844005
 10
30.564421826
 20
12.3793218589
 10
30.6219912852
 20
12.4434207282
 10
30.6828164648
 20
12.499696394
 10
30.7458681445
 20
12.5471966181
 10
30.8100794293
 20
12.5851176511
  0
LINE
  5
392
100
AcDbEntity
  8
SMUSSO
100
AcDbLine
 62
7
  6
CONTINUOUS
 10
21.979549548
 20
-19.1772701499
 11
21.9056496782
 21
-19.3238741972
  0
LINE
  5
393
100
AcDbEntity
  8
SMUSSO
100
AcDbLine
 62
7
  6
CONTINUOUS
 10
21.9056496782
 20
-19.3238741972
 11
21.8290364339
 21
-19.473694888
  0
LINE
  5
394
100
AcDbEntity
  8
SMUSSO
100
AcDbLine
 62
7
  6
CONTINUOUS
 10
21.8290364339
 20
-19.473694888
 11
21.749741114
 21
-19.6267310875
  0
LWPOLYLINE
  5
395
100
AcDbEntity
  8
SMUSSO
100
AcDbPolyline
 62
7
  6
CONTINUOUS
 90
3
 70
0
 10
21.749741114
 20
-19.6267310875
 10
21.667888913
 20
-19.7829782571
 10
21.6259961574
 20
-19.8623062393
  0
LWPOLYLINE
  5
396
100
AcDbEntity
  8
SMUSSO
100
AcDbPolyline
 62
7
  6
CONTINUOUS
 90
6
 70
0
 10
22.4321827487
 20
-19.2634481374
 10
22.3114993792
 20
-19.4501289837
 10
22.1700319895
 20
-19.6041395482
 10
22.0094707323
 20
-19.7228653937
 10
21.8281254549
 20
-19.8089209573
 10
21.6259961574
 20
-19.8623062393
  0
LWPOLYLINE
  5
397
100
AcDbEntity
  8
DRAFT
100
AcDbPolyline
 62
7
  6
CONTINUOUS
 90
10
 70
0
 10
21.6259961574
 20
-20.8773927598
 10
21.6081625805
 20
-20.8938050053
 10
21.589883808
 20
-20.9094677445
 10
21.5711598402
 20
-20.9243809773
 10
21.5519805719
 20
-20.9385516149
 10
21.5323561082
 20
-20.9519727461
 10
21.512316764
 20
-20.9646236377
 10
21.4918726441
 20
-20.9764973788
 10
21.4710136436
 20
-20.9876008802
 10
21.4670199462
 20
-20.9896152626
  0
LWPOLYLINE
  5
398
100
AcDbEntity
  8
RACCORDO
100
AcDbPolyline
 62
250
  6
CONTINUOUS
 90
4
 70
0
 10
19.4871214669
 20
-21.9795657724
 10
19.5187090026
 20
-21.962646607
 10
19.5858401365
 20
-21.9184457009
 10
19.6460971701
 20
-21.8673422535
  0
LINE
  5
399
100
AcDbEntity
  8
RACCORDO
100
AcDbLine
 62
7
  6
CONTINUOUS
 10
19.6460971701
 20
-21.8673422535
 11
21.6259961574
 21
-20.8773927598
  0
LINE
  5
39A
100
AcDbEntity
  8
ASSI
100
AcDbLine
 62
7
  6
CONTINUOUS
 10
21.4670204542
 20
-20.9896162787
 11
19.4871214669
 21
-21.9795657724
  0
LINE
  5
39B
100
AcDbEntity
  8
DRAFT
100
AcDbLine
 62
7
  6
CONTINUOUS
 10
7.1656624822
 20
-25.8792287728
 11
-0.1941650327
 21
-29.5445804813
  0
LINE
  5
39C
100
AcDbEntity
  8
DRAFT
100
AcDbLine
 62
7
  6
CONTINUOUS
 10
7.1656624822
 20
-26.139036394
 11
0.0661576592
 21
-29.6747418272
  0
LINE
  5
39D
100
AcDbEntity
  8
RACCORDO
100
AcDbLine
 62
7
  6
CONTINUOUS
 10
8.6682643922
 20
-26.890337349
 11
6.4395264914
 21
-28.0002965506
  0
LINE
  5
39E
100
AcDbEntity
  8
RACCORDO
100
AcDbLine
 62
7
  6
CONTINUOUS
 10
8.6682643922
 20
-27.1501449701
 11
6.4395264914
 21
-28.2601041717
  0
LINE
  5
39F
100
AcDbEntity
  8
RACCORDO
100
AcDbLine
 62
7
  6
CONTINUOUS
 10
19.6221726241
 20
-20.3558906987
 11
21.979549548
 21
-19.1772701499
  0
LINE
  5
3A0
100
AcDbEntity
  8
RACCORDO
100
AcDbLine
 62
7
  6
CONTINUOUS
 10
19.5710729995
 20
-20.3809062922
 11
19.6221726241
 21
-20.3558906987
  0
LWPOLYLINE
  5
3A1
100
AcDbEntity
  8
RACCORDO
100
AcDbPolyline
 62
7
  6
CONTINUOUS
 90
6
 70
0
 10
19.3926841349
 20
-20.4640317668
 10
19.4250581041
 20
-20.4494584682
 10
19.4564211109
 20
-20.4351229726
 10
19.4867349836
 20
-20.421062654
 10
19.5159204913
 20
-20.4073313989
 10
19.5710729995
 20
-20.3809062922
  0
LINE
  5
3A2
100
AcDbEntity
  8
SMUSSO
100
AcDbLine
 62
7
  6
CONTINUOUS
 10
22.0665413224
 20
-19.139711029
 11
21.979549548
 21
-19.1772701499
  0
LINE
  5
3A3
100
AcDbEntity
  8
RACCORDO
100
AcDbLine
 62
7
  6
CONTINUOUS
 10
19.5612230413
 20
-21.9013546441
 11
19.6460971701
 21
-21.8673422535
  0
LWPOLYLINE
  5
3A4
100
AcDbEntity
  8
ASSI
100
AcDbPolyline
 62
7
  6
CONTINUOUS
 90
21
 70
0
 10
9.1203771196
 20
-42.465581708
 10
9.1768908538
 20
-42.4042534606
 10
9.2242299362
 20
-42.332396465
 10
9.2620383217
 20
-42.2496021763
 10
9.2906720555
 20
-42.1562791396
 10
9.3090342538
 20
-42.0560023169
 10
9.3167263516
 20
-41.9485018814
 10
9.314146914
 20
-41.8340476599
 10
9.3013947525
 20
-41.7170240951
 10
9.2780751361
 20
-41.5973314892
 10
9.2445827959
 20
-41.47506954
 10
9.2022007359
 20
-41.354921784
 10
9.1505840096
 20
-41.2369702578
 10
9.0900775636
 20
-41.1211329247
 10
9.022999242
 20
-41.0118472108
 10
8.9490935061
 20
-40.9093669596
 10
8.8686158947
 20
-40.8134383277
 10
8.7846508677
 20
-40.7277372105
 10
8.6982265787
 20
-40.6534889065
 10
8.6083148742
 20
-40.5894681173
 10
8.5149157542
 20
-40.5356748428
  0
LINE
  5
3A5
100
AcDbEntity
  8
0
100
AcDbLine
 62
250
  6
CONTINUOUS
 10
22.558220635
 20
-28.3908076167
 11
23.2525504737
 21
-28.030043568
  0
LINE
  5
3A6
100
AcDbEntity
  8
ASSI
100
AcDbLine
 62
7
  6
CONTINUOUS
 10
-0.6678884713
 20
-38.1507097371
 11
-0.5264671151
 21
-38.079999059
  0
LINE
  5
3A7
100
AcDbEntity
  8
ASSI
100
AcDbLine
 62
7
  6
CONTINUOUS
 10
-0.9295441433
 20
-39.0178991027
 11
-0.7881227871
 21
-38.9471884246
  0
LINE
  5
3A8
100
AcDbEntity
  8
ASSI
100
AcDbLine
 62
7
  6
CONTINUOUS
 10
2.3524672328
 20
-38.545784619
 11
2.493888589
 21
-38.4750739409
  0
LINE
  5
3A9
100
AcDbEntity
  8
ASSI
100
AcDbLine
 62
7
  6
CONTINUOUS
 10
0.7826449237
 20
-39.8739936362
 11
0.92406628
 21
-39.8032829581
  0
LINE
  5
3AA
100
AcDbEntity
  8
ASSI
100
AcDbLine
 62
7
  6
CONTINUOUS
 10
3.8651899622
 20
-39.3021459837
 11
4.0066113184
 21
-39.2314353056
  0
LINE
  5
3AB
100
AcDbEntity
  8
ASSI
100
AcDbLine
 62
7
  6
CONTINUOUS
 10
1.8291891228
 20
-40.3972579415
 11
1.9706104791
 21
-40.3265472634
  0
LINE
  5
3AC
100
AcDbEntity
  8
0
100
AcDbLine
 62
7
  6
CONTINUOUS
 10
21.4598896116
 20
-27.8416421051
 11
22.9707333012
 21
-27.096268562
  0
LINE
  5
3AD
100
AcDbEntity
  8
RACCORDO
100
AcDbLine
 62
7
  6
CONTINUOUS
 10
13.0876817746
 20
-29.1000460402
 11
10.8197016098
 21
-30.1903841098
  0
LINE
  5
3AE
100
AcDbEntity
  8
DRAFT
100
AcDbLine
 62
7
  6
CONTINUOUS
 10
14.5902836846
 20
-29.5915393741
 11
7.1008687945
 21
-33.1920973949
  0
LINE
  5
3AF
100
AcDbEntity
  8
DRAFT
100
AcDbLine
 62
7
  6
CONTINUOUS
 10
16.7116040282
 20
-30.2624881141
 11
6.7229551694
 21
-35.0645601442
  0
LWPOLYLINE
  5
3B0
100
AcDbEntity
  8
DRAFT
100
AcDbPolyline
 62
7
  6
CONTINUOUS
 90
5
 70
0
 10
-41.7263572229
 20
31.9624309063
 10
-41.4396068904
 20
32.0043991559
 10
-41.1678610933
 20
32.0769560917
 10
-40.9111198316
 20
32.1801017136
 10
-40.8259378569
 20
32.2228697902
  0
LWPOLYLINE
  5
3B1
100
AcDbEntity
  8
ASSI
100
AcDbPolyline
 62
7
  6
CONTINUOUS
 90
18
 70
0
 10
8.64342353
 20
-41.8843662731
 10
8.6589058624
 20
-41.8756792153
 10
8.6911638954
 20
-41.8496025306
 10
8.7175826141
 20
-41.8149033543
 10
8.7385239814
 20
-41.7721157656
 10
8.7526352034
 20
-41.7240038051
 10
8.7594653487
 20
-41.670215954
 10
8.7594653487
 20
-41.6111037312
 10
8.7526352034
 20
-41.5504857348
 10
8.7385239814
 20
-41.4882625523
 10
8.7175826141
 20
-41.4245335962
 10
8.6911638954
 20
-41.3634157014
 10
8.6589063214
 20
-41.3050813414
 10
8.6211713961
 20
-41.2493580428
 10
8.5803964259
 20
-41.1998452193
 10
8.5373938464
 20
-41.1577426756
 10
8.491351222
 20
-41.121850607
 10
8.4422685527
 20
-41.0921690136
  0
LWPOLYLINE
  5
3B2
100
AcDbEntity
  8
ASSI
100
AcDbPolyline
 62
7
  6
CONTINUOUS
 90
3
 70
0
 10
9.0223492967
 20
-42.5332724592
 10
9.0568537525
 20
-42.5140318802
 10
9.1203771196
 20
-42.465581708
  0
LINE
  5
3B3
100
AcDbEntity
  8
ASSI
100
AcDbLine
 62
7
  6
CONTINUOUS
 10
3.1088317795
 20
-39.9194856106
 11
3.2502531357
 21
-39.8487749325
  0
LINE
  5
3B4
100
AcDbEntity
  8
ASSI
100
AcDbLine
 62
7
  6
CONTINUOUS
 10
2.8471959065
 20
-40.9062613334
 11
2.9886172627
 21
-40.8355506552
  0
LINE
  5
3B5
100
AcDbEntity
  8
ASSI
100
AcDbLine
 62
7
  6
CONTINUOUS
 10
5.8390078312
 20
-40.1957380828
 11
5.9804291874
 21
-40.1250274047
  0
LINE
  5
3B6
100
AcDbEntity
  8
ASSI
100
AcDbLine
 62
7
  6
CONTINUOUS
 10
3.8651963262
 20
-41.4152615432
 11
4.0066176824
 21
-41.3445508651
  0
LINE
  5
3B7
100
AcDbEntity
  8
ASSI
100
AcDbLine
 62
7
  6
CONTINUOUS
 10
4.7373255666
 20
-41.8513261634
 11
4.8787469228
 21
-41.7806154853
  0
LINE
  5
3B8
100
AcDbEntity
  8
ASSI
100
AcDbLine
 62
7
  6
CONTINUOUS
 10
5.4258036196
 20
-41.5653844844
 11
5.5672249759
 21
-41.4946738063
  0
LINE
  5
3B9
100
AcDbEntity
  8
ASSI
100
AcDbLine
 62
7
  6
CONTINUOUS
 10
6.0926116783
 20
-41.2899484061
 11
6.2340330345
 21
-41.219237728
  0
LINE
  5
3BA
100
AcDbEntity
  8
ASSI
100
AcDbLine
 62
7
  6
CONTINUOUS
 10
7.8056245247
 20
-40.7738469996
 11
7.947045881
 21
-40.7031363215
  0
LINE
  5
3BB
100
AcDbEntity
  8
ASSI
100
AcDbLine
 62
7
  6
CONTINUOUS
 10
6.2522318417
 20
-41.9785985954
 11
6.393653198
 21
-41.9078879173
  0
LINE
  5
3BC
100
AcDbEntity
  8
ASSI
100
AcDbLine
 62
250
  6
CONTINUOUS
 10
8.442273772
 20
-41.0921716232
 11
8.5836951283
 21
-41.0214609451
  0
LINE
  5
3BD
100
AcDbEntity
  8
ASSI
100
AcDbLine
 62
7
  6
CONTINUOUS
 10
6.4174247137
 20
-42.6913670767
 11
6.55884607
 21
-42.6206563986
  0
LINE
  5
3BE
100
AcDbEntity
  8
ASSI
100
AcDbLine
 62
7
  6
CONTINUOUS
 10
7.8129041891
 20
-42.1500868673
 11
7.9543255453
 21
-42.0793761892
  0
LINE
  5
3BF
100
AcDbEntity
  8
ASSI
100
AcDbLine
 62
7
  6
CONTINUOUS
 10
8.7850321454
 20
-41.8140305923
 11
8.6436107891
 21
-41.8847412704
  0
LINE
  5
3C0
100
AcDbEntity
  8
ASSI
100
AcDbLine
 62
7
  6
CONTINUOUS
 10
8.2696117311
 20
-42.3784484325
 11
8.4110330873
 21
-42.3077377544
  0
LINE
  5
3C1
100
AcDbEntity
  8
ASSI
100
AcDbLine
 62
7
  6
CONTINUOUS
 10
7.2895603182
 20
-43.1274348789
 11
7.4309816744
 21
-43.0567242008
  0
LINE
  5
3C2
100
AcDbEntity
  8
ASSI
100
AcDbLine
 62
7
  6
CONTINUOUS
 10
8.8263908714
 20
-42.579764618
 11
8.9678132095
 21
-42.5090567507
  0
LINE
  5
3C3
100
AcDbEntity
  8
RACCORDO
100
AcDbLine
 62
7
  6
CONTINUOUS
 10
51.7134704703
 20
23.0774566944
 11
-29.9575243035
 21
63.9129540813
  0
LINE
  5
3C4
100
AcDbEntity
  8
DRAFT
100
AcDbLine
 62
7
  6
CONTINUOUS
 10
21.4598896116
 20
-38.2483088625
 11
16.8883807235
 21
-41.5614864837
  0
LINE
  5
3C5
100
AcDbEntity
  8
ASSI
100
AcDbLine
 62
7
  6
CONTINUOUS
 10
8.79400212
 20
-43.8796557799
 11
8.9354234763
 21
-43.8089451018
  0
LWPOLYLINE
  5
3C6
100
AcDbEntity
  8
DRAFT
100
AcDbPolyline
 62
7
  6
CONTINUOUS
 90
29
 70
0
 10
23.7484871944
 20
-40.2080922506
 10
23.9210675523
 20
-40.1373145902
 10
24.1364359744
 20
-40.0782502402
 10
24.3629153149
 20
-40.0459054085
 10
24.5973752071
 20
-40.040762402
 10
24.8408663532
 20
-40.0634032115
 10
25.0923380508
 20
-40.1132458462
 10
25.3455078267
 20
-40.1890266391
 10
25.599413575
 20
-40.2908903941
 10
25.8550174016
 20
-40.4186923074
 10
26.10892315
 20
-40.5707343007
 10
26.3620929258
 20
-40.7481232837
 10
26.6135646235
 20
-40.9497523467
 10
26.8570557695
 20
-41.1706026831
 10
27.0915156617
 20
-41.4102055819
 10
27.3179950023
 20
-41.6690297541
 10
27.5333634244
 20
-41.9434625263
 10
27.7381253834
 20
-42.2347288255
 10
27.9317764239
 20
-42.5416037248
 10
28.1096728135
 20
-42.8567997696
 10
28.2710108099
 20
-43.1796167421
 10
28.4165941552
 20
-43.5107548601
 10
28.5441903431
 20
-43.8450273229
 10
28.653735803
 20
-44.183159509
 10
28.7452941055
 20
-44.5244260398
 10
28.8168234563
 20
-44.8614639796
 10
28.8676432572
 20
-45.1918190162
 10
28.8984341063
 20
-45.5179454618
 10
28.9091960037
 20
-45.8398433162
  0
LINE
  5
3C7
100
AcDbEntity
  8
RACCORDO
100
AcDbLine
 62
7
  6
CONTINUOUS
 10
53.8347100405
 20
-47.6983070222
 11
53.8347100405
 21
19.4188596247
  0
LINE
  5
3C8
100
AcDbEntity
  8
DRAFT
100
AcDbLine
 62
250
  6
CONTINUOUS
 10
26.414084958
 20
-40.7898102999
 11
22.545234973
 21
-42.6578628009
  0
LINE
  5
3C9
100
AcDbEntity
  8
DRAFT
100
AcDbLine
 62
250
  6
CONTINUOUS
 10
27.982105514
 20
-42.6307765864
 11
22.545234973
 21
-45.2559390122
  0
LWPOLYLINE
  5
3CA
100
AcDbEntity
  8
DRAFT
100
AcDbPolyline
 62
7
  6
CONTINUOUS
 90
30
 70
0
 10
27.7725164811
 20
-50.8542317893
 10
27.7381253834
 20
-50.8719633979
 10
27.5333634244
 20
-50.9584677382
 10
27.3179950023
 20
-51.0175320883
 10
27.0915156617
 20
-51.0498769199
 10
26.8570557695
 20
-51.0550199265
 10
26.6135646235
 20
-51.0323791169
 10
26.3620929258
 20
-50.9825364822
 10
26.10892315
 20
-50.9067556893
 10
25.8550174016
 20
-50.8048919343
 10
25.599413575
 20
-50.6770900211
 10
25.3455078267
 20
-50.5250480277
 10
25.0923380508
 20
-50.3476590448
 10
24.8408663532
 20
-50.1460299817
 10
24.5973752071
 20
-49.9251796453
 10
24.3629153149
 20
-49.6855767465
 10
24.1364359744
 20
-49.4267525743
 10
23.9210675523
 20
-49.1523198021
 10
23.7163055933
 20
-48.8610535029
 10
23.5226545527
 20
-48.5541786036
 10
23.3447581632
 20
-48.2389825588
 10
23.1834201668
 20
-47.9161655863
 10
23.0378368214
 20
-47.5850274683
 10
22.9102406335
 20
-47.2507550055
 10
22.8006951736
 20
-46.9126228195
 10
22.7091368711
 20
-46.5713562886
 10
22.6376075204
 20
-46.2343183488
 10
22.5867877195
 20
-45.9039633122
 10
22.5559968704
 20
-45.5778368666
 10
22.545234973
 20
-45.2559390122
  0
LWPOLYLINE
  5
3CB
100
AcDbEntity
  8
RACCORDO
100
AcDbPolyline
 62
250
  6
CONTINUOUS
 90
15
 70
0
 10
32.1368716203
 20
-59.3775135978
 10
32.208486047
 20
-59.3396128708
 10
32.3217928845
 20
-59.2649735691
 10
32.4267907243
 20
-59.1765268383
 10
32.5229488753
 20
-59.0748183449
 10
32.6086517875
 20
-58.9621379979
 10
32.6838811193
 20
-58.8396382951
 10
32.748690347
 20
-58.7084891524
 10
32.8024710196
 20
-58.5720091169
 10
32.8458367377
 20
-58.4316893091
 10
32.8794546417
 20
-58.2889287459
 10
32.9037010898
 20
-58.1475463433
 10
32.9196259217
 20
-58.0098360882
 10
32.9284781457
 20
-57.8761985961
 10
32.9313189994
 20
-57.7476731448
  0
LINE
  5
3CC
100
AcDbEntity
  8
RACCORDO
100
AcDbLine
 62
250
  6
CONTINUOUS
 10
32.9313189994
 20
-57.7476731448
 11
53.8347100405
 21
-47.6983070222
  0
LINE
  5
3CD
100
AcDbEntity
  8
RACCORDO
100
AcDbLine
 62
7
  6
CONTINUOUS
 10
32.1342400643
 20
-59.3787829384
 11
53.0394033518
 21
-49.3285648032
  0
ELLIPSE
  5
3CE
100
AcDbEntity
  8
RACCORDO
100
AcDbEllipse
 62
7
  6
CONTINUOUS
 10
-33.6168045209
 20
27.3567871537
 30
0.0
 11
1.3660323085
 21
2.7799177297
 31
0.0
 40
0.607010042
 41
0.6892518406
 42
0.7619383173
  0
ELLIPSE
  5
3CF
100
AcDbEntity
  8
RACCORDO
100
AcDbEllipse
 62
7
  6
CONTINUOUS
 10
-29.9573627537
 20
61.3146981644
 30
0.0
 11
-1.3417819658
 21
2.6834638356
 31
0.0
 40
0.6123267458
 41
-0.6846978779
 42
0.0095104916
  0
ELLIPSE
  5
3D0
100
AcDbEntity
  8
0
100
AcDbEllipse
 62
7
  6
CONTINUOUS
 10
22.558166785
 20
-11.9045887021
 30
0.0
 11
-0.44720059
 21
0.8944345539
 31
0.0
 40
0.6124181287
 41
-2.2554606976
 42
-0.6847405232
  0
ELLIPSE
  5
3D1
100
AcDbEntity
  8
RACCORDO
100
AcDbEllipse
 62
7
  6
CONTINUOUS
 10
51.7133089205
 20
20.4793623274
 30
0.0
 11
-1.3416017701
 21
2.6833036616
 31
0.0
 40
0.6124181287
 41
-2.2554606976
 42
-0.6847405232
  0
ELLIPSE
  5
3D2
100
AcDbEntity
  8
RACCORDO
100
AcDbEllipse
 62
7
  6
CONTINUOUS
 10
51.7133089205
 20
-46.6374086048
 30
0.0
 11
-1.3417819658
 21
2.6834638356
 31
0.0
 40
0.6123267458
 41
-3.151103007
 42
-2.2555703571
  0
ELLIPSE
  5
3D3
100
AcDbEntity
  8
DRAFT
100
AcDbEllipse
 62
7
  6
CONTINUOUS
 10
69.8760020103
 20
68.5597862063
 30
0.0
 11
137.7493447893
 21
67.3960566374
 31
0.0
 40
0.0069656025
 41
2.4808171709
 42
2.4814444454
  0
ELLIPSE
  5
3D4
100
AcDbEntity
  8
0
100
AcDbEllipse
 62
7
  6
CONTINUOUS
 10
22.558166785
 20
-27.5247223111
 30
0.0
 11
-0.4472606553
 21
0.8944879452
 31
0.0
 40
0.6123267458
 41
-3.8262905314
 42
-2.2555703571
  0
ELLIPSE
  5
3D5
100
AcDbEntity
  8
RACCORDO
100
AcDbEllipse
 62
7
  6
CONTINUOUS
 10
8.6487266552
 20
-29.085988307
 30
0.0
 11
3.0973504997
 21
-0.0219144537
 31
0.0
 40
0.4946372042
 41
2.368420792
 42
5.4925601531
  0
ELLIPSE
  5
3D6
100
AcDbEntity
  8
0
100
AcDbEllipse
 62
7
  6
CONTINUOUS
 10
-43.2286274894
 20
5.3686748261
 30
0.0
 11
-0.44720059
 21
0.8944345539
 31
0.0
 40
0.6124181287
 41
0.886131956
 42
2.4568521304
  0
ELLIPSE
  5
3D7
100
AcDbEntity
  8
0
100
AcDbEllipse
 62
7
  6
CONTINUOUS
 10
-43.2286274894
 20
20.9888084352
 30
0.0
 11
-0.4472606553
 21
0.8944879452
 31
0.0
 40
0.6123267458
 41
5.5984874293
 42
7.1692076037
  0
ELLIPSE
  5
3D8
100
AcDbEntity
  8
0
100
AcDbEllipse
 62
7
  6
CONTINUOUS
 10
-41.7307445114
 20
6.1205287249
 30
0.0
 11
-0.44720059
 21
0.8944345539
 31
0.0
 40
0.6124181287
 41
0.886131956
 42
2.4568521304
  0
ELLIPSE
  5
3D9
100
AcDbEntity
  8
RACCORDO
100
AcDbEllipse
 62
7
  6
CONTINUOUS
 10
8.6487266552
 20
-29.3457959281
 30
0.0
 11
3.0973504997
 21
-0.0219144537
 31
0.0
 40
0.4946372042
 41
2.368420792
 42
3.0641096376
  0
ELLIPSE
  5
3DA
100
AcDbEntity
  8
RACCORDO
100
AcDbEllipse
 62
7
  6
CONTINUOUS
 10
-33.6168045209
 20
27.3567871537
 30
0.0
 11
1.3660323085
 21
2.7799177297
 31
0.0
 40
0.607010042
 41
-2.5424805822
 42
-2.4697941055
  0
ENDSEC
  0
SECTION
  2
OBJECTS
  0
DICTIONARY
  5
C
100
AcDbDictionary
280
0
281
1
  3
ACAD_GROUP
350
D
  3
ACAD_MLINESTYLE
350
17
  3
ACAD_LAYOUT
350
1A
  3
ACAD_PLOTSETTINGS
350
19
  3
ACAD_PLOTSTYLENAME
350
E
  0
DICTIONARY
  5
D
102
{ACAD_REACTORS
330
C
102
}
100
AcDbDictionary
280
0
281
1
  0
ACDBDICTIONARYWDFLT
  5
E
102
{ACAD_REACTORS
330
C
102
}
100
AcDbDictionary
281
1
  3
Normal
350
F
100
AcDbDictionaryWithDefault
340
F
  0
DICTIONARY
  5
17
102
{ACAD_REACTORS
330
C
102
}
100
AcDbDictionary
280
0
281
1
  3
Standard
350
18
  0
DICTIONARY
  5
19
102
{ACAD_REACTORS
330
C
102
}
100
AcDbDictionary
281
1
  0
DICTIONARY
  5
1A
102
{ACAD_REACTORS
330
C
102
}
100
AcDbDictionary
281
1
  3
Model
350
3DB
  3
Layout1
350
3DC
  0
ACDBPLACEHOLDER
  5
F
102
{ACAD_REACTORS
330
E
102
}
  0
MLINESTYLE
  5
18
102
{ACAD_REACTORS
330
17
102
}
100
AcDbMlineStyle
  2
STANDARD
 70
0
  3

 62
256
 51
90.0
 52
90.0
 71
2
 49
0.5
 62
256
  6
BYLAYER
 49
-0.5
 62
256
  6
BYLAYER
  0
LAYOUT
  5
3DB
102
{ACAD_REACTORS
330
1A
102
}
100
AcDbPlotSettings
  1

  2
none_device
  4
ISO_A4_(297.00_x_210.00_MM)
  6

 40
0.0
 41
0.0
 42
0.0
 43
0.0
 44
297.0
 45
210.0
 46
0.0
 47
0.0
 48
0.0
 49
0.0
140
0.0
141
0.0
142
1.0
143
1.0
 70
1024
 72
1
 73
0
 74
0
  7

 75
0
147
1.0
148
0.0
149
0.0
100
AcDbLayout
  1
Model
 70
0
 71
0
 10
0.0
 20
0.0
 11
297.0
 21
210.0
 12
0.0
 22
0.0
 32
0.0
 14
0.0
 24
0.0
 34
0.0
 15
0.0
 25
0.0
 35
0.0
146
0.0
 13
0.0
 23
0.0
 33
0.0
 16
1.0
 26
0.0
 36
0.0
 17
0.0
 27
1.0
 37
0.0
 76
0
330
20F
345
0
346
0
  0
LAYOUT
  5
3DC
102
{ACAD_REACTORS
330
1A
102
}
100
AcDbPlotSettings
  1

  2
none_device
  4
ISO_A4_(297.00_x_210.00_MM)
  6

 40
0.0
 41
0.0
 42
0.0
 43
0.0
 44
297.0
 45
210.0
 46
0.0
 47
0.0
 48
0.0
 49
0.0
140
0.0
141
0.0
142
1.0
143
1.0
 70
0
 72
1
 73
0
 74
0
  7

 75
0
147
1.0
148
0.0
149
0.0
100
AcDbLayout
  1
Layout1
 70
0
 71
1
 10
0.0
 20
0.0
 11
297.0
 21
210.0
 12
0.0
 22
0.0
 32
0.0
 14
0.0
 24
0.0
 34
0.0
 15
0.0
 25
0.0
 35
0.0
146
0.0
 13
0.0
 23
0.0
 33
0.0
 16
1.0
 26
0.0
 36
0.0
 17
0.0
 27
1.0
 37
0.0
 76
0
330
210
345
0
346
0
  0
ENDSEC
  0
EOF
