  0
SECTION
  2
HEADER
  9
$ACADVER
  1
AC1024
  9
$DWGCODEPAGE
  3
ANSI_1252
  9
$EXTMAX
 10
297.0
 20
210.0
 30
0.0
  9
$EXTMIN
 10
0.0
 20
0.0
 30
0.0
  9
$LIMMIN
 10
0.0
 20
0.0
  9
$LIMMAX
 10
297.0
 20
210.0
  9
$VIEWCTR
 10
148.5
 20
105.0
  9
$VIEWSIZE
 40
210.0
  9
$CLAYER
  8
0
  9
$LTSCALE
 40
16.335
  9
$CELTYPE
  6
BYLAYER
  9
$DIMSCALE
 40
1.0
  9
$DIMASZ
 40
3.0
  9
$DIMEXO
 40
0.5
  9
$DIMDLI
 40
11.286
  9
$DIMEXE
 40
1.5
  9
$DIMCEN
 40
2.673
  9
$DIMLFAC
 40
1.0
  9
$DIMBLK
  1
_FILLED
  9
$DIMALT
 70
0
  9
$DIMALTF
 40
0.0393700787
  9
$DIMTXT
 40
3.0
  9
$DIMTOL
 70
1
  9
$DIMLIM
 70
0
  9
$DIMTFAC
 40
1.0
  9
$DIMTP
 40
0.01
  9
$DIMTM
 40
0.01
  9
$DIMGAP
 40
0.625
  9
$DIMDSEP
 70
44
  9
$AUNITS
 70
0
  9
$PDMODE
 70
3
  9
$PDSIZE
 40
3.0
  9
$HANDSEED
  5
2F4
  9
$TILEMODE
 70
1
  9
$MEASUREMENT
 70
1
  9
$INSUNITS
 70
4
  0
ENDSEC
  0
SECTION
  2
CLASSES
  0
CLASS
  1
ACDBDICTIONARYWDFLT
  2
AcDbDictionaryWithDefault
  3
AutoCAD 2000
 90
0
 91
1
280
0
281
0
  0
CLASS
  1
ACDBPLACEHOLDER
  2
AcDbPlaceHolder
  3
AutoCAD 2000
 90
0
 91
1
280
0
281
0
  0
CLASS
  1
LAYOUT
  2
AcDbLayout
  3
AutoCAD 2000
 90
0
 91
0
280
0
281
0
  0
ENDSEC
  0
SECTION
  2
TABLES
  0
TABLE
  2
VPORT
  5
8
100
AcDbSymbolTable
 70
2
  0
VPORT
  5
1F4
100
AcDbSymbolTableRecord
100
AcDbViewportTableRecord
  2
*ACTIVE
 70
0
 10
0.0
 20
0.0
 11
1.0
 21
1.0
 12
148.5
 22
105.0
 13
0.0
 23
0.0
 14
1.0
 24
1.0
 15
0.0
 25
0.0
 16
0.0
 26
0.0
 36
1.0
 17
0.0
 27
0.0
 37
0.0
 40
210.0
 41
1.4142857143
 42
50.0
 43
0.0
 44
0.0
 50
0.0
 51
0.0
 71
0
 72
100
 73
1
 74
1
 75
0
 76
0
 77
0
 78
0
  0
ENDTAB
  0
TABLE
  2
LTYPE
  5
5
100
AcDbSymbolTable
 70
6
  0
LTYPE
  5
14
100
AcDbSymbolTableRecord
100
AcDbLinetypeTableRecord
  2
BYBLOCK
 70
0
  3

 72
65
 73
0
 40
0.0
  0
LTYPE
  5
15
100
AcDbSymbolTableRecord
100
AcDbLinetypeTableRecord
  2
BYLAYER
 70
0
  3

 72
65
 73
0
 40
0.0
  0
LTYPE
  5
16
100
AcDbSymbolTableRecord
100
AcDbLinetypeTableRecord
  2
CONTINUOUS
 70
64
  3
Solid line
 72
65
 73
0
 40
0.0
  0
LTYPE
  5
1F5
100
AcDbSymbolTableRecord
100
AcDbLinetypeTableRecord
  2
CENTER
 70
64
  3
____ _ ____ _ ____ _ ____ _ ____ _ ____ _ ____
 72
65
 73
4
 40
0.6
 49
0.375
 74
0
 49
-0.075
 74
0
 49
0.075
 74
0
 49
-0.075
 74
0
  0
LTYPE
  5
1F6
100
AcDbSymbolTableRecord
100
AcDbLinetypeTableRecord
  2
HIDDEN
 70
64
  3
- - - - - - - - - - - - - - - - - - - -
 72
65
 73
2
 40
0.2
 49
0.1
 74
0
 49
-0.1
 74
0
  0
LTYPE
  5
1F7
100
AcDbSymbolTableRecord
100
AcDbLinetypeTableRecord
  2
PHANTOM
 70
64
  3
_____ _ _ _____ _ _ _____ _ _ _____
 72
65
 73
6
 40
0.8
 49
0.45
 74
0
 49
-0.05
 74
0
 49
0.1
 74
0
 49
-0.05
 74
0
 49
0.1
 74
0
 49
-0.05
 74
0
  0
LTYPE
  5
1F8
100
AcDbSymbolTableRecord
100
AcDbLinetypeTableRecord
  2
DOT
 70
64
  3
. . . . . . . . . . . . . . . . . . . .
 72
65
 73
2
 40
0.2
 49
0.1
 74
0
 49
-0.1
 74
0
  0
LTYPE
  5
1F9
100
AcDbSymbolTableRecord
100
AcDbLinetypeTableRecord
  2
DASHED
 70
64
  3
- - - - - - - - - - - - - - - - - - - -
 72
65
 73
2
 40
0.2
 49
0.1
 74
0
 49
-0.1
 74
0
  0
ENDTAB
  0
TABLE
  2
LAYER
  5
2
100
AcDbSymbolTable
 70
36
  0
LAYER
  5
10
100
AcDbSymbolTableRecord
100
AcDbLayerTableRecord
  2
0
 70
0
 62
7
  6
CONTINUOUS
370
-3
390
F
  0
LAYER
  5
1FA
100
AcDbSymbolTableRecord
100
AcDbLayerTableRecord
  2
DEFAULT_1
 70
0
 62
7
  6
CENTER
370
-3
390
F
  0
LAYER
  5
1FB
100
AcDbSymbolTableRecord
100
AcDbLayerTableRecord
  2
DEFAULT_2
 70
0
 62
7
  6
HIDDEN
370
-3
390
F
  0
LAYER
  5
1FC
100
AcDbSymbolTableRecord
100
AcDbLayerTableRecord
  2
DEFAULT_3
 70
0
 62
7
  6
PHANTOM
370
-3
390
F
  0
LAYER
  5
1FD
100
AcDbSymbolTableRecord
100
AcDbLayerTableRecord
  2
102A_65000
 70
0
 62
7
  6
CONTINUOUS
370
-3
390
F
  0
LAYER
  5
1FE
100
AcDbSymbolTableRecord
100
AcDbLayerTableRecord
  2
102A_65000_1
 70
0
 62
7
  6
CONTINUOUS
370
-3
390
F
  0
LAYER
  5
1FF
100
AcDbSymbolTableRecord
100
AcDbLayerTableRecord
  2
133A_110000
 70
0
 62
7
  6
CONTINUOUS
370
-3
390
F
  0
LAYER
  5
200
100
AcDbSymbolTableRecord
100
AcDbLayerTableRecord
  2
133A_110000_1
 70
0
 62
7
  6
CONTINUOUS
370
-3
390
F
  0
LAYER
  5
201
100
AcDbSymbolTableRecord
100
AcDbLayerTableRecord
  2
133A_110000_2
 70
0
 62
7
  6
CONTINUOUS
370
-3
390
F
  0
LAYER
  5
202
100
AcDbSymbolTableRecord
100
AcDbLayerTableRecord
  2
133A_110000_3
 70
0
 62
7
  6
CONTINUOUS
370
-3
390
F
  0
LAYER
  5
203
100
AcDbSymbolTableRecord
100
AcDbLayerTableRecord
  2
1608-CC-RF-VIMAR_80000
 70
0
 62
7
  6
CONTINUOUS
370
-3
390
F
  0
LAYER
  5
204
100
AcDbSymbolTableRecord
100
AcDbLayerTableRecord
  2
1608-CC-RF-VIMAR_80000_1
 70
0
 62
7
  6
CONTINUOUS
370
-3
390
F
  0
LAYER
  5
205
100
AcDbSymbolTableRecord
100
AcDbLayerTableRecord
  2
1608-CC-RF-VIMAR_80000_2
 70
0
 62
7
  6
CONTINUOUS
370
-3
390
F
  0
LAYER
  5
206
100
AcDbSymbolTableRecord
100
AcDbLayerTableRecord
  2
1608-CC-RF-VIMAR_80000_3
 70
0
 62
7
  6
CONTINUOUS
370
-3
390
F
  0
LAYER
  5
207
100
AcDbSymbolTableRecord
100
AcDbLayerTableRecord
  2
1608-R-RF-VIMAR_45000
 70
0
 62
7
  6
CONTINUOUS
370
-3
390
F
  0
LAYER
  5
208
100
AcDbSymbolTableRecord
100
AcDbLayerTableRecord
  2
43900634A0
 70
0
 62
7
  6
CONTINUOUS
370
-3
390
F
  0
LAYER
  5
209
100
AcDbSymbolTableRecord
100
AcDbLayerTableRecord
  2
ASSI
 70
0
 62
7
  6
CONTINUOUS
370
-3
390
F
  0
LAYER
  5
20A
100
AcDbSymbolTableRecord
100
AcDbLayerTableRecord
  2
CC-0603-VIMAR_1000
 70
0
 62
7
  6
CONTINUOUS
370
-3
390
F
  0
LAYER
  5
20B
100
AcDbSymbolTableRecord
100
AcDbLayerTableRecord
  2
COLOR5
 70
0
 62
7
  6
CONTINUOUS
370
-3
390
F
  0
LAYER
  5
20C
100
AcDbSymbolTableRecord
100
AcDbLayerTableRecord
  2
COLOR6
 70
0
 62
7
  6
CONTINUOUS
370
-3
390
F
  0
LAYER
  5
20D
100
AcDbSymbolTableRecord
100
AcDbLayerTableRecord
  2
COORDINATE
 70
0
 62
7
  6
CONTINUOUS
370
-3
390
F
  0
LAYER
  5
20E
100
AcDbSymbolTableRecord
100
AcDbLayerTableRecord
  2
COORD_ORIGINE
 70
0
 62
7
  6
CONTINUOUS
370
-3
390
F
  0
LAYER
  5
20F
100
AcDbSymbolTableRecord
100
AcDbLayerTableRecord
  2
COPY_PUBLISH
 70
0
 62
7
  6
CONTINUOUS
370
-3
390
F
  0
LAYER
  5
210
100
AcDbSymbolTableRecord
100
AcDbLayerTableRecord
  2
COSMETIC
 70
0
 62
7
  6
CONTINUOUS
370
-3
390
F
  0
LAYER
  5
211
100
AcDbSymbolTableRecord
100
AcDbLayerTableRecord
  2
COSMETICI
 70
0
 62
7
  6
CONTINUOUS
370
-3
390
F
  0
LAYER
  5
212
100
AcDbSymbolTableRecord
100
AcDbLayerTableRecord
  2
CURVE
 70
0
 62
7
  6
CONTINUOUS
370
-3
390
F
  0
LAYER
  5
213
100
AcDbSymbolTableRecord
100
AcDbLayerTableRecord
  2
CURVE_GUARNIZIONI
 70
0
 62
7
  6
CONTINUOUS
370
-3
390
F
  0
LAYER
  5
214
100
AcDbSymbolTableRecord
100
AcDbLayerTableRecord
  2
CURVE_INIEZIONE
 70
0
 62
7
  6
CONTINUOUS
370
-3
390
F
  0
LAYER
  5
215
100
AcDbSymbolTableRecord
100
AcDbLayerTableRecord
  2
CURVE_PUNZONI
 70
0
 62
7
  6
CONTINUOUS
370
-3
390
F
  0
LAYER
  5
216
100
AcDbSymbolTableRecord
100
AcDbLayerTableRecord
  2
DRAFT
 70
0
 62
7
  6
CONTINUOUS
370
-3
390
F
  0
LAYER
  5
217
100
AcDbSymbolTableRecord
100
AcDbLayerTableRecord
  2
E4_MARK_10000
 70
0
 62
7
  6
CONTINUOUS
370
-3
390
F
  0
LAYER
  5
218
100
AcDbSymbolTableRecord
100
AcDbLayerTableRecord
  2
GUARNIZIONI
 70
0
 62
7
  6
CONTINUOUS
370
-3
390
F
  0
LAYER
  5
219
100
AcDbSymbolTableRecord
100
AcDbLayerTableRecord
  2
IMPORT_IGES
 70
0
 62
7
  6
CONTINUOUS
370
-3
390
F
  0
LAYER
  5
21A
100
AcDbSymbolTableRecord
100
AcDbLayerTableRecord
  2
INTF_1
 70
0
 62
7
  6
CONTINUOUS
370
-3
390
F
  0
LAYER
  5
21B
100
AcDbSymbolTableRecord
100
AcDbLayerTableRecord
  2
INTF_11
 70
0
 62
7
  6
CONTINUOUS
370
-3
390
F
  0
LAYER
  5
21C
100
AcDbSymbolTableRecord
100
AcDbLayerTableRecord
  2
INTF_13
 70
0
 62
7
  6
CONTINUOUS
370
-3
390
F
  0
LAYER
  5
21D
100
AcDbSymbolTableRecord
100
AcDbLayerTableRecord
  2
INTF_14
 70
0
 62
7
  6
CONTINUOUS
370
-3
390
F
  0
LAYER
  5
21E
100
AcDbSymbolTableRecord
100
AcDbLayerTableRecord
  2
INTF_7
 70
0
 62
7
  6
CONTINUOUS
370
-3
390
F
  0
LAYER
  5
21F
100
AcDbSymbolTableRecord
100
AcDbLayerTableRecord
  2
INTF_BLANK
 70
0
 62
7
  6
CONTINUOUS
370
-3
390
F
  0
LAYER
  5
220
100
AcDbSymbolTableRecord
100
AcDbLayerTableRecord
  2
INTF_RED
 70
0
 62
7
  6
CONTINUOUS
370
-3
390
F
  0
LAYER
  5
221
100
AcDbSymbolTableRecord
100
AcDbLayerTableRecord
  2
LINEA_CHIUSURA
 70
0
 62
7
  6
CONTINUOUS
370
-3
390
F
  0
LAYER
  5
222
100
AcDbSymbolTableRecord
100
AcDbLayerTableRecord
  2
LOGO_RESIST-RESTYLING_10000
 70
0
 62
7
  6
CONTINUOUS
370
-3
390
F
  0
LAYER
  5
223
100
AcDbSymbolTableRecord
100
AcDbLayerTableRecord
  2
NO-PB_MARK_10000
 70
0
 62
7
  6
CONTINUOUS
370
-3
390
F
  0
LAYER
  5
224
100
AcDbSymbolTableRecord
100
AcDbLayerTableRecord
  2
NOTE
 70
0
 62
7
  6
CONTINUOUS
370
-3
390
F
  0
LAYER
  5
225
100
AcDbSymbolTableRecord
100
AcDbLayerTableRecord
  2
PIANI
 70
0
 62
7
  6
CONTINUOUS
370
-3
390
F
  0
LAYER
  5
226
100
AcDbSymbolTableRecord
100
AcDbLayerTableRecord
  2
PIANI_ORIGINE
 70
0
 62
7
  6
CONTINUOUS
370
-3
390
F
  0
LAYER
  5
227
100
AcDbSymbolTableRecord
100
AcDbLayerTableRecord
  2
PIANI_RIFERIMENTO
 70
0
 62
7
  6
CONTINUOUS
370
-3
390
F
  0
LAYER
  5
228
100
AcDbSymbolTableRecord
100
AcDbLayerTableRecord
  2
PUNTI
 70
0
 62
7
  6
CONTINUOUS
370
-3
390
F
  0
LAYER
  5
229
100
AcDbSymbolTableRecord
100
AcDbLayerTableRecord
  2
RACCORDO
 70
0
 62
7
  6
CONTINUOUS
370
-3
390
F
  0
LAYER
  5
22A
100
AcDbSymbolTableRecord
100
AcDbLayerTableRecord
  2
RGB__255__255__255__
 70
0
 62
7
  6
CONTINUOUS
370
-3
390
F
  0
LAYER
  5
22B
100
AcDbSymbolTableRecord
100
AcDbLayerTableRecord
  2
RGB____0____0____0__
 70
0
 62
7
  6
CONTINUOUS
370
-3
390
F
  0
LAYER
  5
22C
100
AcDbSymbolTableRecord
100
AcDbLayerTableRecord
  2
SIMBOLI
 70
0
 62
7
  6
CONTINUOUS
370
-3
390
F
  0
LAYER
  5
22D
100
AcDbSymbolTableRecord
100
AcDbLayerTableRecord
  2
SMUSSO
 70
0
 62
7
  6
CONTINUOUS
370
-3
390
F
  0
LAYER
  5
22E
100
AcDbSymbolTableRecord
100
AcDbLayerTableRecord
  2
SUPERFICI
 70
0
 62
7
  6
CONTINUOUS
370
-3
390
F
  0
LAYER
  5
22F
100
AcDbSymbolTableRecord
100
AcDbLayerTableRecord
  2
TASSELLI
 70
0
 62
7
  6
CONTINUOUS
370
-3
390
F
  0
LAYER
  5
230
100
AcDbSymbolTableRecord
100
AcDbLayerTableRecord
  2
TP15_SMD_0
 70
0
 62
7
  6
CONTINUOUS
370
-3
390
F
  0
LAYER
  5
231
100
AcDbSymbolTableRecord
100
AcDbLayerTableRecord
  2
TP20_SMD_0
 70
0
 62
7
  6
CONTINUOUS
370
-3
390
F
  0
LAYER
  5
232
100
AcDbSymbolTableRecord
100
AcDbLayerTableRecord
  2
TP20_SMD_0_1
 70
0
 62
7
  6
CONTINUOUS
370
-3
390
F
  0
LAYER
  5
233
100
AcDbSymbolTableRecord
100
AcDbLayerTableRecord
  2
TP20_SMD_0_2
 70
0
 62
7
  6
CONTINUOUS
370
-3
390
F
  0
LAYER
  5
234
100
AcDbSymbolTableRecord
100
AcDbLayerTableRecord
  2
TP20_SMD_0_3
 70
0
 62
7
  6
CONTINUOUS
370
-3
390
F
  0
LAYER
  5
235
100
AcDbSymbolTableRecord
100
AcDbLayerTableRecord
  2
TP20_SMD_0_4
 70
0
 62
7
  6
CONTINUOUS
370
-3
390
F
  0
LAYER
  5
236
100
AcDbSymbolTableRecord
100
AcDbLayerTableRecord
  2
TP20_SMD_0_5
 70
0
 62
7
  6
CONTINUOUS
370
-3
390
F
  0
LAYER
  5
237
100
AcDbSymbolTableRecord
100
AcDbLayerTableRecord
  2
TRASH
 70
0
 62
7
  6
CONTINUOUS
370
-3
390
F
  0
LAYER
  5
238
100
AcDbSymbolTableRecord
100
AcDbLayerTableRecord
  2
WHITE
 70
0
 62
7
  6
CONTINUOUS
370
-3
390
F
  0
LAYER
  5
239
100
AcDbSymbolTableRecord
100
AcDbLayerTableRecord
  2
XSEC_DATUMS
 70
0
 62
7
  6
CONTINUOUS
370
-3
390
F
  0
LAYER
  5
23A
100
AcDbSymbolTableRecord
100
AcDbLayerTableRecord
  2
___SHELL
 70
0
 62
7
  6
CONTINUOUS
370
-3
390
F
  0
ENDTAB
  0
TABLE
  2
STYLE
  5
3
100
AcDbSymbolTable
 70
1
  0
STYLE
  5
11
100
AcDbSymbolTableRecord
100
AcDbTextStyleTableRecord
  2
STANDARD
 70
0
 40
0.0
 41
0.8
 50
0.0
 71
0
 42
0.2
  3
txt
  4

  0
STYLE
  5
23B
100
AcDbSymbolTableRecord
100
AcDbTextStyleTableRecord
  2
TEXTSTYLE_1
 70
0
 40
0.0
 41
0.8
 50
0.0
 71
0
 42
0.2
  3
gdt
  4

  0
ENDTAB
  0
TABLE
  2
VIEW
  5
6
100
AcDbSymbolTable
 70
0
  0
ENDTAB
  0
TABLE
  2
UCS
  5
7
100
AcDbSymbolTable
 70
0
  0
ENDTAB
  0
TABLE
  2
APPID
  5
9
100
AcDbSymbolTable
 70
1
  0
APPID
  5
23C
100
AcDbSymbolTableRecord
100
AcDbRegAppTableRecord
  2
ACAD
 70
0
  0
ENDTAB
  0
TABLE
  2
BLOCK_RECORD
  5
1
100
AcDbSymbolTable
 70
0
  0
BLOCK_RECORD
  5
23D
100
AcDbSymbolTableRecord
100
AcDbBlockTableRecord
  2
*Model_Space
  0
BLOCK_RECORD
  5
23E
100
AcDbSymbolTableRecord
100
AcDbBlockTableRecord
  2
*Paper_Space
  0
BLOCK_RECORD
  5
23F
100
AcDbSymbolTableRecord
100
AcDbBlockTableRecord
  2
_FILLED
  0
ENDTAB
  0
TABLE
  2
DIMSTYLE
  5
A
100
AcDbSymbolTable
 70
1
100
AcDbDimStyleTable
 71
0
  0
DIMSTYLE
105
240
100
AcDbSymbolTableRecord
100
AcDbDimStyleTableRecord
  2
STANDARD
 70
0
  3

  4

 40
1.0
 41
3.0
 42
0.5
 43
0.38
 44
1.5
 45
0.0
 46
0.0
 47
0.01
 48
0.01
140
3.0
141
0.09
142
0.0
143
25.4
144
1.0
145
0.0
146
1.0
147
0.625
 71
1
 72
0
 73
0
 74
0
 75
0
 76
0
 77
1
 78
8
 79
2
170
0
171
1
172
0
173
0
174
0
175
0
176
0
177
0
178
0
270
2
179
2
271
2
272
2
273
2
274
2
275
0
280
0
281
0
282
0
283
1
284
8
285
0
286
0
287
3
288
0
340
11
278
44
341
23F
342
23F
343
23F
344
23F
  0
ENDTAB
  0
ENDSEC
  0
SECTION
  2
BLOCKS
  0
BLOCK
  5
20
100
AcDbEntity
  8
0
100
AcDbBlockBegin
  2
*Model_Space
 70
0
 10
0.0
 20
0.0
 30
0.0
  3
*Model_Space
  1

  0
ENDBLK
  5
21
100
AcDbEntity
  8
0
100
AcDbBlockEnd
  0
BLOCK
  5
1C
100
AcDbEntity
  8
0
100
AcDbBlockBegin
  2
*Paper_Space
 70
0
 10
0.0
 20
0.0
 30
0.0
  3
*Paper_Space
  1

  0
ENDBLK
  5
1D
100
AcDbEntity
  8
0
100
AcDbBlockEnd
  0
BLOCK
  5
241
100
AcDbEntity
  8
0
100
AcDbBlockBegin
  2
_FILLED
 70
64
 10
0.0
 20
0.0
  3
_FILLED
  1

  0
SOLID
  5
242
100
AcDbEntity
  8
0
  6
BYBLOCK
 62
0
100
AcDbTrace
 10
0.0
 20
0.0
 11
-1.0
 21
0.3166666667
 12
-1.0
 22
-0.3166666667
 13
-1.0
 23
-0.3166666667
  0
ENDBLK
  5
243
100
AcDbEntity
  8
0
  6
BYBLOCK
 62
0
100
AcDbBlockEnd
  0
ENDSEC
  0
SECTION
  2
ENTITIES
  0
LINE
  5
244
100
AcDbEntity
  8
0
100
AcDbLine
 62
7
  6
CONTINUOUS
 10
-1.0282342423
 20
-39.9143812451
 11
-1.1935225737
 21
-37.7779856903
  0
LINE
  5
245
100
AcDbEntity
  8
0
100
AcDbLine
 62
7
  6
CONTINUOUS
 10
-1.4649829883
 20
-38.3350551533
 11
-1.389178313
 21
-39.7059766624
  0
LWPOLYLINE
  5
246
100
AcDbEntity
  8
0
100
AcDbPolyline
 62
7
  6
CONTINUOUS
 90
70
 70
0
 10
1.5403257644
 20
-40.432673202
 10
1.545096512
 20
-40.4344748594
 10
1.5500193767
 20
-40.4358422136
 10
1.5550494191
 20
-40.4367331815
 10
1.5596337615
 20
-40.4371028674
 10
1.5642315421
 20
-40.4370800058
 10
1.568805709
 20
-40.4366926516
 10
1.5753229341
 20
-40.4355584198
 10
1.581736068
 20
-40.4338835377
 10
1.5880677703
 20
-40.4318302854
 10
1.5943407008
 20
-40.4295609431
 10
1.6064386355
 20
-40.4249218704
 10
1.6183751746
 20
-40.4199960712
 10
1.6301258068
 20
-40.414700788
 10
1.6416660212
 20
-40.4089532634
 10
1.6526532449
 20
-40.4028602781
 10
1.6633426313
 20
-40.3962328727
 10
1.6736584608
 20
-40.3890424515
 10
1.6835250136
 20
-40.3812604188
 10
1.6923689063
 20
-40.3733594919
 10
1.7007520367
 20
-40.3649569952
 10
1.7086813245
 20
-40.3561038578
 10
1.7161636897
 20
-40.3468510091
 10
1.723206052
 20
-40.3372493781
 10
1.7298153315
 20
-40.3273498942
 10
1.7378617489
 20
-40.3139527306
 10
1.7452025619
 20
-40.3001763948
 10
1.7518691309
 20
-40.2860687206
 10
1.7578928164
 20
-40.2716775417
 10
1.7633049789
 20
-40.2570506919
 10
1.7684595419
 20
-40.241168098
 10
1.7729812196
 20
-40.2251002852
 10
1.7769030504
 20
-40.2088776385
 10
1.7804232107
 20
-40.1916482101
 10
1.7833549192
 20
-40.174306796
 10
1.7857390426
 20
-40.1568795845
 10
1.787989201
 20
-40.1352005807
 10
1.7895052477
 20
-40.1134522834
 10
1.7903311104
 20
-40.0916569257
 10
1.7905107171
 20
-40.0698367412
 10
1.7900879953
 20
-40.0480139632
 10
1.7891068731
 20
-40.026210825
 10
1.7874982493
 20
-40.0031522139
 10
1.7853125458
 20
-39.9801523396
 10
1.7825502946
 20
-39.9572229268
 10
1.7792120275
 20
-39.9343757002
 10
1.7752982764
 20
-39.9116223845
 10
1.7698666448
 20
-39.8845487587
 10
1.7636383605
 20
-39.8576422884
 10
1.7566391745
 20
-39.8309190293
 10
1.7488948379
 20
-39.8043950372
 10
1.7399687422
 20
-39.7767193071
 10
1.7302678015
 20
-39.7492987552
 10
1.7198136154
 20
-39.7221501768
 10
1.7086277838
 20
-39.6952903671
 10
1.6967319064
 20
-39.6687361212
 10
1.6841475829
 20
-39.6425042345
 10
1.6708964131
 20
-39.6166115022
 10
1.6572972451
 20
-39.5916079863
 10
1.6430874872
 20
-39.5669549762
 10
1.6282748893
 20
-39.5426618713
 10
1.6128672013
 20
-39.5187380708
 10
1.5968721731
 20
-39.495192974
 10
1.5802975546
 20
-39.4720359804
 10
1.5682130314
 20
-39.4558916778
 10
1.5558074653
 20
-39.4399947284
 10
1.5430463287
 20
-39.4243933207
 10
1.5298950938
 20
-39.4091356431
 10
1.5163192329
 20
-39.3942698842
 10
1.5022842181
 20
-39.3798442323
  0
LWPOLYLINE
  5
247
100
AcDbEntity
  8
0
100
AcDbPolyline
 62
7
  6
CONTINUOUS
 90
22
 70
0
 10
0.9469836818
 20
-39.3615850638
 10
0.9600350709
 20
-39.3666042777
 10
0.973046361
 20
-39.3717282646
 10
0.9860111301
 20
-39.3769697403
 10
0.9989229562
 20
-39.3823414208
 10
1.0117754176
 20
-39.3878560218
 10
1.0245620921
 20
-39.3935262594
 10
1.0393843131
 20
-39.4003482905
 10
1.0541073396
 20
-39.4073931664
 10
1.0687301896
 20
-39.4146547526
 10
1.083251881
 20
-39.4221269146
 10
1.0976714318
 20
-39.4298035179
 10
1.1119878599
 20
-39.4376784279
 10
1.1262001834
 20
-39.4457455102
 10
1.1403074202
 20
-39.4539986304
 10
1.1543085882
 20
-39.4624316538
 10
1.1682027054
 20
-39.471038446
 10
1.1819887899
 20
-39.4798128724
 10
1.1956658595
 20
-39.4887487987
 10
1.2092329322
 20
-39.4978400902
 10
1.222689026
 20
-39.5070806125
 10
1.2360331589
 20
-39.5164642311
  0
LINE
  5
248
100
AcDbEntity
  8
0
100
AcDbLine
 62
7
  6
CONTINUOUS
 10
-4.4186967068
 20
-37.9567707106
 11
-4.0935477956
 21
-38.1445076169
  0
LINE
  5
249
100
AcDbEntity
  8
0
100
AcDbLine
 62
7
  6
CONTINUOUS
 10
-3.3884534403
 20
-38.5516202607
 11
-3.0194900716
 21
-38.7646550856
  0
LINE
  5
24A
100
AcDbEntity
  8
0
100
AcDbLine
 62
7
  6
CONTINUOUS
 10
-2.8208658981
 20
-38.879338194
 11
-2.4678880924
 21
-39.0831431552
  0
LINE
  5
24B
100
AcDbEntity
  8
0
100
AcDbLine
 62
7
  6
CONTINUOUS
 10
-1.955427302
 20
-39.3790315929
 11
-1.9036798135
 21
-39.4089099442
  0
LINE
  5
24C
100
AcDbEntity
  8
0
100
AcDbLine
 62
7
  6
CONTINUOUS
 10
-1.389178313
 20
-39.7059766624
 11
-1.0282342423
 21
-39.9143812451
  0
LINE
  5
24D
100
AcDbEntity
  8
0
100
AcDbLine
 62
7
  6
CONTINUOUS
 10
-0.9702967411
 20
-39.9478336322
 11
-0.605337011
 21
-40.1585568063
  0
LINE
  5
24E
100
AcDbEntity
  8
0
100
AcDbLine
 62
7
  6
CONTINUOUS
 10
0.0945219257
 20
-40.5626465851
 11
0.4833938858
 21
-40.7871763811
  0
LINE
  5
24F
100
AcDbEntity
  8
0
100
AcDbLine
 62
7
  6
CONTINUOUS
 10
0.5917392631
 20
-40.8497334651
 11
0.9592179491
 21
-41.0619110527
  0
LINE
  5
250
100
AcDbEntity
  8
0
100
AcDbLine
 62
7
  6
CONTINUOUS
 10
1.5242343229
 20
-41.3881444256
 11
1.8791341143
 21
-41.5930591173
  0
LINE
  5
251
100
AcDbEntity
  8
0
100
AcDbLine
 62
7
  6
CONTINUOUS
 10
-0.5035256553
 20
-39.8098933461
 11
-0.0010591121
 21
-40.1000112307
  0
LINE
  5
252
100
AcDbEntity
  8
0
100
AcDbLine
 62
7
  6
CONTINUOUS
 10
-0.0747962073
 20
-39.7421547258
 11
-0.428052613
 21
-39.5381889045
  0
LINE
  5
253
100
AcDbEntity
  8
0
100
AcDbLine
 62
7
  6
CONTINUOUS
 10
0.9592179491
 20
-40.2631921304
 11
1.1570472446
 21
-40.3774162862
  0
LINE
  5
254
100
AcDbEntity
  8
0
100
AcDbLine
 62
7
  6
CONTINUOUS
 10
1.1578425382
 20
-40.0436155814
 11
0.9469836818
 21
-39.9218683204
  0
LINE
  5
255
100
AcDbEntity
  8
0
100
AcDbLine
 62
7
  6
CONTINUOUS
 10
-0.0589435803
 20
-38.4330773814
 11
-0.4158712845
 21
-38.2269917984
  0
LINE
  5
256
100
AcDbEntity
  8
0
100
AcDbLine
 62
7
  6
CONTINUOUS
 10
-1.1935225737
 20
-37.7779856903
 11
-1.5585756419
 21
-37.5672086239
  0
LINE
  5
257
100
AcDbEntity
  8
0
100
AcDbLine
 62
7
  6
CONTINUOUS
 10
-2.2926055138
 20
-37.1433889754
 11
-2.6612634123
 21
-36.9305305252
  0
LINE
  5
258
100
AcDbEntity
  8
0
100
AcDbLine
 62
7
  6
CONTINUOUS
 10
-3.5253768903
 20
-36.4316022329
 11
-3.8940878219
 21
-36.218713162
  0
LINE
  5
259
100
AcDbEntity
  8
0
100
AcDbLine
 62
7
  6
CONTINUOUS
 10
-4.5782461596
 20
-35.8236887124
 11
-4.9790540821
 21
-35.5922672412
  0
LINE
  5
25A
100
AcDbEntity
  8
0
100
AcDbLine
 62
7
  6
CONTINUOUS
 10
-3.0194900716
 20
-36.7235724712
 11
-3.3884534403
 21
-36.5105376463
  0
LINE
  5
25B
100
AcDbEntity
  8
0
100
AcDbLine
 62
7
  6
CONTINUOUS
 10
2.3493928199
 20
-6.6092512082
 11
6.592033507
 21
-9.0588987681
  0
LINE
  5
25C
100
AcDbEntity
  8
0
100
AcDbLine
 62
7
  6
CONTINUOUS
 10
6.3091907946
 20
-8.5690008201
 11
2.6322355324
 21
-6.4459729348
  0
LINE
  5
25D
100
AcDbEntity
  8
0
100
AcDbLine
 62
7
  6
CONTINUOUS
 10
3.0564996011
 20
-1.1389398086
 11
4.2585811291
 21
-1.8330066172
  0
LINE
  5
25E
100
AcDbEntity
  8
0
100
AcDbLine
 62
7
  6
CONTINUOUS
 10
4.6828451978
 20
-2.0779713732
 11
5.8849267258
 21
-2.7720381819
  0
LINE
  5
25F
100
AcDbEntity
  8
0
100
AcDbLine
 62
7
  6
CONTINUOUS
 10
5.2020840134
 20
-2.051185247
 11
4.6828451978
 21
-1.7513832625
  0
LINE
  5
260
100
AcDbEntity
  8
0
100
AcDbLine
 62
7
  6
CONTINUOUS
 10
4.2585811291
 20
-1.5064185065
 11
3.7393423136
 21
-1.206616522
  0
LINE
  5
261
100
AcDbEntity
  8
0
100
AcDbLine
 62
7
  6
CONTINUOUS
 10
2.6322355324
 20
1.0655536117
 11
6.3091907946
 21
-1.0574742736
  0
LINE
  5
262
100
AcDbEntity
  8
0
100
AcDbLine
 62
7
  6
CONTINUOUS
 10
6.592033507
 20
-0.8941960002
 11
2.3493928199
 21
1.5554515598
  0
LWPOLYLINE
  5
263
100
AcDbEntity
  8
0
100
AcDbPolyline
 62
7
  6
CONTINUOUS
 90
36
 70
0
 10
1.1570472446
 20
-40.3774162862
 10
1.1651731381
 20
-40.3822717011
 10
1.17315992
 20
-40.3873690491
 10
1.1810047451
 20
-40.3926991919
 10
1.1887047684
 20
-40.3982529912
 10
1.196257145
 20
-40.4040213087
 10
1.2036590299
 20
-40.4099950061
 10
1.210907578
 20
-40.416164945
 10
1.2179999443
 20
-40.4225219873
 10
1.2249332838
 20
-40.4290569945
 10
1.2317047515
 20
-40.4357608284
 10
1.2383115024
 20
-40.4426243506
 10
1.2447506914
 20
-40.4496384229
 10
1.2510194737
 20
-40.4567939069
 10
1.2577046926
 20
-40.4648037995
 10
1.2641860833
 20
-40.4729659604
 10
1.2704687084
 20
-40.4812731744
 10
1.2765576306
 20
-40.4897182266
 10
1.2824579128
 20
-40.4982939022
 10
1.2881746178
 20
-40.506992986
 10
1.2937128082
 20
-40.5158082633
 10
1.299077547
 20
-40.5247325189
 10
1.3042738967
 20
-40.533758538
 10
1.3093069203
 20
-40.5428791055
 10
1.3141816804
 20
-40.5520870066
 10
1.3189032399
 20
-40.5613750263
 10
1.3242942
 20
-40.5724539433
 10
1.3294743808
 20
-40.5836308886
 10
1.3344401821
 20
-40.5949019306
 10
1.3391880038
 20
-40.6062631377
 10
1.3437142457
 20
-40.6177105784
 10
1.3480153076
 20
-40.6292403213
 10
1.3520875893
 20
-40.6408484347
 10
1.3559274905
 20
-40.6525309871
 10
1.3595314112
 20
-40.6642840471
 10
1.362895751
 20
-40.6761036831
  0
LWPOLYLINE
  5
264
100
AcDbEntity
  8
0
100
AcDbPolyline
 62
7
  6
CONTINUOUS
 90
39
 70
0
 10
1.2360331589
 20
-39.5164642311
 10
1.2456418448
 20
-39.5235048101
 10
1.2550576131
 20
-39.5308092666
 10
1.2642805228
 20
-39.5383657116
 10
1.2733106327
 20
-39.546162256
 10
1.282148002
 20
-39.5541870107
 10
1.2907926894
 20
-39.5624280868
 10
1.2992447541
 20
-39.570873595
 10
1.3075042549
 20
-39.5795116465
 10
1.3155712509
 20
-39.5883303521
 10
1.3241078448
 20
-39.598094278
 10
1.3324105578
 20
-39.6080529493
 10
1.3404722113
 20
-39.6182023051
 10
1.3482856266
 20
-39.6285382849
 10
1.355843625
 20
-39.6390568278
 10
1.3631390279
 20
-39.6497538731
 10
1.3701646565
 20
-39.6606253602
 10
1.3769133321
 20
-39.6716672283
 10
1.3833778763
 20
-39.6828754166
 10
1.3895067366
 20
-39.6941596375
 10
1.3953463527
 20
-39.7055972
 10
1.4008944406
 20
-39.7171816094
 10
1.4061487162
 20
-39.7289063706
 10
1.4111068957
 20
-39.7407649889
 10
1.4157666951
 20
-39.7527509692
 10
1.4201258303
 20
-39.7648578166
 10
1.4241820175
 20
-39.7770790363
 10
1.4279329726
 20
-39.7894081333
 10
1.4304950082
 20
-39.798544964
 10
1.4328791582
 20
-39.8077321611
 10
1.4350740376
 20
-39.8169651986
 10
1.4370682612
 20
-39.8262395508
 10
1.4388504439
 20
-39.8355506918
 10
1.4404092006
 20
-39.8448940959
 10
1.4417331461
 20
-39.8542652371
 10
1.4428108955
 20
-39.8636595897
 10
1.4436310635
 20
-39.8730726278
 10
1.444182265
 20
-39.8824998256
 10
1.4444531149
 20
-39.8919366573
  0
LWPOLYLINE
  5
265
100
AcDbEntity
  8
0
100
AcDbPolyline
 62
7
  6
CONTINUOUS
 90
26
 70
0
 10
1.5022842181
 20
-39.3798442323
 10
1.47716881
 20
-39.3554515455
 10
1.4514891634
 20
-39.3316394038
 10
1.4252811497
 20
-39.308399195
 10
1.3985806403
 20
-39.2857223066
 10
1.3714235067
 20
-39.2636001262
 10
1.3450827644
 20
-39.2429707928
 10
1.3183860293
 20
-39.2228118027
 10
1.2913613894
 20
-39.2030950005
 10
1.2640369327
 20
-39.1837922307
 10
1.2364407469
 20
-39.1648753377
 10
1.1974455569
 20
-39.1390305652
 10
1.1579976624
 20
-39.113872702
 10
1.1181206467
 20
-39.0893893569
 10
1.0778380929
 20
-39.0655681389
 10
1.037173584
 20
-39.0423966571
 10
0.9961507033
 20
-39.0198625202
 10
0.9547930337
 20
-38.9979533373
 10
0.9131241585
 20
-38.9766567174
 10
0.8679731143
 20
-38.954408017
 10
0.8225188557
 20
-38.9328024905
 10
0.7767910945
 20
-38.9117886059
 10
0.7308195428
 20
-38.8913148314
 10
0.6846339124
 20
-38.8713296353
 10
0.6382639152
 20
-38.8517814857
 10
0.5917392631
 20
-38.8326188508
  0
LWPOLYLINE
  5
266
100
AcDbEntity
  8
0
100
AcDbPolyline
 62
7
  6
CONTINUOUS
 90
121
 70
0
 10
2.1603055234
 20
1.8545311642
 10
1.995699582
 20
2.1315405357
 10
1.8241364508
 20
2.4043557898
 10
1.6457045993
 20
2.6727466531
 10
1.4626201214
 20
2.9335117923
 10
1.2729162151
 20
3.1894830348
 10
1.0766006138
 20
3.4404160522
 10
0.8783278311
 20
3.6805648175
 10
0.6737149569
 20
3.9153373852
 10
0.4627310939
 20
4.1444043254
 10
0.2527487732
 20
4.3600225249
 10
0.0367255819
 20
4.5695834333
 10
-0.1854004826
 20
4.7726660382
 10
-0.4034467917
 20
4.9602799013
 10
-0.6271920113
 20
5.1410543614
 10
-0.8567044049
 20
5.3144514584
 10
-1.0790968496
 20
5.4711081666
 10
-1.3067469518
 20
5.6200126831
 10
-1.5396944766
 20
5.7604904874
 10
-1.7627322798
 20
5.8837933078
 10
-1.9904100546
 20
5.9982876937
 10
-2.2226845484
 20
6.1031512735
 10
-2.442786492
 20
6.1912721777
 10
-2.6666227765
 20
6.2693964839
 10
-2.8939884706
 20
6.3365707959
 10
-3.0540968458
 20
6.3763174946
 10
-3.215618469
 20
6.4098800954
 10
-3.3783579872
 20
6.4368341429
 10
-3.5421200472
 20
6.4567551817
 10
-3.6953486242
 20
6.4686052106
 10
-3.848959692
 20
6.47361736
 10
-4.0026183173
 20
6.4714216355
 10
-4.155989567
 20
6.4616480428
 10
-4.3002322052
 20
6.4451472385
 10
-4.4434661952
 20
6.4213633376
 10
-4.5852378675
 20
6.3901011938
 10
-4.7250935525
 20
6.351165661
 10
-4.8582248145
 20
6.3060225853
 10
-4.9886753386
 20
6.2535902975
 10
-5.1159852007
 20
6.1939538813
 10
-5.2396944766
 20
6.1271984205
 10
-5.3593677921
 20
6.0534550553
 10
-5.4746769076
 20
5.9730335264
 10
-5.5853180323
 20
5.8862894551
 10
-5.6909873749
 20
5.7935784627
 10
-5.794641484
 20
5.6919419844
 10
-5.8926086996
 20
5.5848088157
 10
-5.9848310343
 20
5.4726693842
 10
-6.0712505008
 20
5.3560141178
 10
-6.1564076436
 20
5.2280913587
 10
-6.235145941
 20
5.0961300583
 10
-6.3076182547
 20
4.9606053165
 10
-6.3739774467
 20
4.821992233
 10
-6.4386136272
 20
4.6702225512
 10
-6.4966476038
 20
4.5158213152
 10
-6.5483492578
 20
4.3591699976
 10
-6.5939884706
 20
4.2006500708
 10
-6.649505802
 20
3.9701740742
 10
-6.6937749434
 20
3.7372789372
 10
-6.727519123
 20
3.5026189678
 10
-6.7528501833
 20
3.2490455026
 10
-6.7675418153
 20
2.9946370812
 10
-6.7722846574
 20
2.7398424297
 10
-6.7671083735
 20
2.4678771055
 10
-6.7519851469
 20
2.1962859167
 10
-6.727519123
 20
1.9253717747
 10
-6.692115235
 20
1.6399198463
 10
-6.6474383424
 20
1.3557736144
 10
-6.5939884706
 20
1.0731428213
 10
-6.5291814578
 20
0.7792422805
 10
-6.4557124417
 20
0.4873880245
 10
-6.3739774467
 20
0.1977374434
 10
-6.2810960226
 20
-0.0995060913
 10
-6.1800872023
 20
-0.394085779
 10
-6.0712505008
 20
-0.6858659304
 10
-5.9520925879
 20
-0.9813492958
 10
-5.8252672717
 20
-1.2736227019
 10
-5.6909873749
 20
-1.5625486014
 10
-5.5477839823
 20
-1.8512464133
 10
-5.3973076173
 20
-2.1362198825
 10
-5.2396944766
 20
-2.417310286
 10
-5.075068918
 20
-2.6943536357
 10
-4.9035121379
 20
-2.9671578896
 10
-4.7250935525
 20
-3.2355257748
 10
-4.5420142355
 20
-3.4962819742
 10
-4.3523086534
 20
-3.7522561188
 10
-4.155989567
 20
-4.003195174
 10
-3.9577154512
 20
-4.2433462523
 10
-3.7531030123
 20
-4.4781180678
 10
-3.5421200472
 20
-4.7071834472
 10
-3.3321380598
 20
-4.9228010554
 10
-3.1161147549
 20
-5.1323621541
 10
-2.8939884706
 20
-5.33544516
 10
-2.6759420976
 20
-5.5230591821
 10
-2.4521969156
 20
-5.7038335998
 10
-2.2226845484
 20
-5.8772305802
 10
-2.0002920525
 20
-6.0338872106
 10
-1.7726419097
 20
-6.1827917196
 10
-1.5396944766
 20
-6.3232696092
 10
-1.3166569129
 20
-6.4465725795
 10
-1.0889792537
 20
-6.5610670283
 10
-0.8567044049
 20
-6.6659303953
 10
-0.6366016418
 20
-6.7540508236
 10
-0.4127649757
 20
-6.8321749105
 10
-0.1854004826
 20
-6.8993499177
 10
-0.0252941504
 20
-6.9390977964
 10
0.1362257192
 20
-6.9726614096
 10
0.2989653819
 20
-6.9996153733
 10
0.4627310939
 20
-7.0195343035
 10
0.6159665229
 20
-7.0313803765
 10
0.7695834768
 20
-7.0363891278
 10
0.9232416193
 20
-7.0341936822
 10
1.0766006138
 20
-7.0244271646
 10
1.2208198523
 20
-7.0079398692
 10
1.3640336757
 20
-6.9841676108
 10
1.5058069644
 20
-6.9529045338
 10
1.6457045993
 20
-6.9139447828
 10
1.7789185432
 20
-6.8687539738
 10
1.9094407506
 20
-6.8162803024
 10
2.0367451133
 20
-6.7566470611
 10
2.1603055234
 20
-6.6899775423
  0
LWPOLYLINE
  5
267
100
AcDbEntity
  8
0
100
AcDbPolyline
 62
7
  6
CONTINUOUS
 90
119
 70
0
 10
3.1603055234
 20
2.4318070359
 10
2.9623943605
 20
2.765364271
 10
2.7565456901
 20
3.0941471916
 10
2.5428568812
 20
3.4179082908
 10
2.3237081544
 20
3.7331770439
 10
2.0969865772
 20
4.0430247082
 10
1.8627049837
 20
4.3471926199
 10
1.6258497893
 20
4.6394166135
 10
1.3817227612
 20
4.9255962933
 10
1.1302961756
 20
5.2053872934
 10
0.8794649641
 20
5.4702735977
 10
0.6216802138
 20
5.7283931681
 10
0.3568794068
 20
5.9793114362
 10
0.0959881841
 20
6.2130049377
 10
-0.1715022644
 20
6.439110494
 10
-0.4456665378
 20
6.6570784709
 10
-0.7126065235
 20
6.8562449635
 10
-0.9857040303
 20
7.0468731612
 10
-1.2650154831
 20
7.2282786815
 10
-1.5339802012
 20
7.3901436834
 10
-1.8085056437
 20
7.5423751696
 10
-2.0885831792
 20
7.6841390952
 10
-2.3556318091
 20
7.8065116927
 10
-2.6273915289
 20
7.9180112166
 10
-2.9037205813
 20
8.0176582246
 10
-3.165092412
 20
8.0989161133
 10
-3.429942895
 20
8.1679603129
 10
-3.6979081239
 20
8.2237136025
 10
-3.9500982647
 20
8.2627359411
 10
-4.2040032542
 20
8.2882274754
 10
-4.4589480073
 20
8.2991404572
 10
-4.6987103342
 20
8.2951907486
 10
-4.9377822528
 20
8.2766658989
 10
-5.1751515413
 20
8.2427803198
 10
-5.3436128609
 20
8.2086450257
 10
-5.5101687405
 20
8.1661192785
 10
-5.6743078027
 20
8.1151036761
 10
-5.83551867
 20
8.0554988166
 10
-6.0409659216
 20
7.9645974621
 10
-6.2394558983
 20
7.8593299469
 10
-6.42990692
 20
7.7401723743
 10
-6.5682157881
 20
7.64098063
 10
-6.7010351495
 20
7.534533072
 10
-6.8281104604
 20
7.4212730819
 10
-6.9491871769
 20
7.3016440415
 10
-7.0683585854
 20
7.1711400825
 10
-7.1807831519
 20
7.0347815512
 10
-7.2864589111
 20
6.8931055309
 10
-7.3853838981
 20
6.7466491049
 10
-7.5137172446
 20
6.5325664091
 10
-7.6290341707
 20
6.3111938124
 10
-7.7317976078
 20
6.0837116432
 10
-7.8284888374
 20
5.834545567
 10
-7.9120217647
 20
5.5806658911
 10
-7.9831077929
 20
5.3230136071
 10
-8.0463835663
 20
5.0431036455
 10
-8.0969054486
 20
4.7606159051
 10
-8.1354546204
 20
4.4762384366
 10
-8.1643089691
 20
4.1703597041
 10
-8.1810755287
 20
3.8635838685
 10
-8.1864982198
 20
3.5563916164
 10
-8.1806072951
 20
3.2296136114
 10
-8.1633742488
 20
2.903239624
 10
-8.1354546204
 20
2.5776009271
 10
-8.0951037587
 20
2.2352024451
 10
-8.0441383574
 20
1.894224212
 10
-7.9831077929
 20
1.5548994588
 10
-7.9091397017
 20
1.202303216
 10
-7.825222167
 20
0.8519430738
 10
-7.7317976078
 20
0.5039947203
 10
-7.6255740686
 20
0.1467036142
 10
-7.5099887798
 20
-0.2076685038
 10
-7.3853838981
 20
-0.5589726101
 10
-7.2487524816
 20
-0.9154435576
 10
-7.1032698337
 20
-1.2683936375
 10
-6.9491871769
 20
-1.6176765867
 10
-6.7844472175
 20
-1.9678730813
 10
-6.6112971033
 20
-2.313987466
 10
-6.42990692
 20
-2.655856744
 10
-6.2397714997
 20
-2.994461392
 10
-6.0416092331
 20
-3.3284307346
 10
-5.83551867
 20
-3.6575678385
 10
-5.623070943
 20
-3.9794776789
 10
-5.4029363533
 20
-4.2961791341
 10
-5.1751515413
 20
-4.6074247493
 10
-4.9437945573
 20
-4.907828165
 10
-4.7050649548
 20
-5.2024045856
 10
-4.4589480073
 20
-5.4908387754
 10
-4.2123475082
 20
-5.7652898426
 10
-3.9586852316
 20
-6.0332247622
 10
-3.6979081239
 20
-6.2942417019
 10
-3.4399277048
 20
-6.5387298405
 10
-3.175222962
 20
-6.7759170021
 10
-2.9037205813
 20
-7.0052941912
 10
-2.6383484734
 20
-7.216306403
 10
-2.3666582764
 20
-7.4191125581
 10
-2.0885831792
 20
-7.6130753016
 10
-1.8198492934
 20
-7.7876464535
 10
-1.5453331841
 20
-7.9529658473
 10
-1.2650154831
 20
-8.1082502199
 10
-0.9968997443
 20
-8.2439946206
 10
-0.7237540908
 20
-8.3692936495
 10
-0.4456665378
 20
-8.4832136336
 10
-0.1819984598
 20
-8.5783231893
 10
0.0856103145
 20
-8.661671933
 10
0.3568794068
 20
-8.7322065393
 10
0.6124994422
 20
-8.7854071745
 10
0.8704914995
 20
-8.825500056
 10
1.1302961756
 20
-8.8514046947
 10
1.3745593876
 20
-8.8618365905
 10
1.6190019138
 20
-8.8579930621
 10
1.8627049837
 20
-8.8389773543
 10
2.0351911569
 20
-8.815725446
 10
2.206361993
 20
-8.7841315611
 10
2.3757422988
 20
-8.7439950812
 10
2.5428568812
 20
-8.6951153878
 10
2.7550550507
 20
-8.6186335209
 10
2.9613178417
 20
-8.5274923023
 10
3.1603055234
 20
-8.422028348
  0
LINE
  5
268
100
AcDbEntity
  8
0
100
AcDbLine
 62
7
  6
CONTINUOUS
 10
3.1603055234
 20
-8.422028348
 11
2.9603055234
 21
-8.0756181869
  0
LINE
  5
269
100
AcDbEntity
  8
0
100
AcDbLine
 62
7
  6
CONTINUOUS
 10
2.1603055234
 20
-6.6899775423
 11
1.9603055234
 21
-6.3435673811
  0
LINE
  5
26A
100
AcDbEntity
  8
0
100
AcDbLine
 62
7
  6
CONTINUOUS
 10
4.4707131635
 20
-0.7844137771
 11
5.2020840134
 21
-2.051185247
  0
LINE
  5
26B
100
AcDbEntity
  8
0
100
AcDbLine
 62
7
  6
CONTINUOUS
 10
5.8849267258
 20
-2.7720381819
 11
4.4707131635
 21
-0.3225484417
  0
LINE
  5
26C
100
AcDbEntity
  8
0
100
AcDbLine
 62
7
  6
CONTINUOUS
 10
-2.3882657476
 20
-37.7964079958
 11
-1.955427302
 21
-39.3790315929
  0
LINE
  5
26D
100
AcDbEntity
  8
0
100
AcDbLine
 62
7
  6
CONTINUOUS
 10
-1.9275390106
 20
-38.4873210539
 11
-2.2926055138
 21
-37.1433889754
  0
LWPOLYLINE
  5
26E
100
AcDbEntity
  8
0
100
AcDbPolyline
 62
7
  6
CONTINUOUS
 90
13
 70
0
 10
1.362895751
 20
-40.6761036831
 10
1.3734462013
 20
-40.715593782
 10
1.3835395495
 20
-40.7552001461
 10
1.3932366366
 20
-40.7949070704
 10
1.4025983038
 20
-40.8346988496
 10
1.4116853921
 20
-40.8745597785
 10
1.4205587427
 20
-40.9144741519
 10
1.4292791966
 20
-40.9544262647
 10
1.4379075949
 20
-40.9944004115
 10
1.4465047786
 20
-41.0343808873
 10
1.455131589
 20
-41.0743519868
 10
1.4722992826
 20
-41.1528351943
 10
1.5070170463
 20
-41.3096873449
  0
LINE
  5
26F
100
AcDbEntity
  8
0
100
AcDbLine
 62
7
  6
CONTINUOUS
 10
-4.9790540821
 20
-35.5922672412
 11
-4.4186967068
 21
-37.9567707106
  0
LINE
  5
270
100
AcDbEntity
  8
0
100
AcDbLine
 62
7
  6
CONTINUOUS
 10
0.4833938858
 20
-40.7871763811
 11
-0.0589435803
 21
-38.4330773814
  0
LINE
  5
271
100
AcDbEntity
  8
0
100
AcDbLine
 62
7
  6
CONTINUOUS
 10
1.5070170463
 20
-41.3096873449
 11
1.5242343229
 21
-41.3881444256
  0
LWPOLYLINE
  5
272
100
AcDbEntity
  8
0
100
AcDbPolyline
 62
7
  6
CONTINUOUS
 90
30
 70
0
 10
1.7424828761
 20
-40.9170538122
 10
1.7371032815
 20
-40.8916913145
 10
1.7315197601
 20
-40.8663748424
 10
1.7256397474
 20
-40.8411261267
 10
1.7203974259
 20
-40.8199318037
 10
1.7148673429
 20
-40.7988089507
 10
1.7090376303
 20
-40.7777655792
 10
1.7028964202
 20
-40.7568097002
 10
1.6964318447
 20
-40.7359493251
 10
1.6905571369
 20
-40.7179543241
 10
1.6844157449
 20
-40.700048166
 10
1.6779927942
 20
-40.6822419388
 10
1.6712734103
 20
-40.6645467302
 10
1.6642427184
 20
-40.6469736281
 10
1.6568858442
 20
-40.6295337204
 10
1.6503845805
 20
-40.6148694908
 10
1.6436233232
 20
-40.6003223671
 10
1.6365869627
 20
-40.5859058587
 10
1.6292603896
 20
-40.5716334747
 10
1.6216284944
 20
-40.5575187243
 10
1.6136761675
 20
-40.5435751166
 10
1.6053882995
 20
-40.5298161609
 10
1.5981993977
 20
-40.5184798925
 10
1.5907575843
 20
-40.5073025035
 10
1.58305447
 20
-40.4963046878
 10
1.5750816658
 20
-40.4855071393
 10
1.5668307823
 20
-40.4749305519
 10
1.5582934303
 20
-40.4645956194
 10
1.5494612208
 20
-40.4545230359
 10
1.5403257644
 20
-40.444733495
  0
LINE
  5
273
100
AcDbEntity
  8
0
100
AcDbLine
 62
7
  6
CONTINUOUS
 10
-4.2413133139
 20
-37.4230858306
 11
-4.5782461596
 21
-35.8236887124
  0
LINE
  5
274
100
AcDbEntity
  8
0
100
AcDbLine
 62
7
  6
CONTINUOUS
 10
1.7530005413
 20
-40.9678299608
 11
1.7424828761
 21
-40.9170538122
  0
LINE
  5
275
100
AcDbEntity
  8
0
100
AcDbLine
 62
7
  6
CONTINUOUS
 10
-0.0010591121
 20
-40.1000112307
 11
0.0945219257
 21
-40.5626465851
  0
LINE
  5
276
100
AcDbEntity
  8
0
100
AcDbLine
 62
7
  6
CONTINUOUS
 10
1.8791341143
 20
-41.5930591173
 11
1.7530005413
 21
-40.9678299608
  0
LINE
  5
277
100
AcDbEntity
  8
0
100
AcDbLine
 62
7
  6
CONTINUOUS
 10
-0.2443399073
 20
-38.886835906
 11
-0.0747962073
 21
-39.7421547258
  0
LWPOLYLINE
  5
278
100
AcDbEntity
  8
0
100
AcDbPolyline
 62
7
  6
CONTINUOUS
 90
65
 70
0
 10
1.4444531149
 20
-39.8919366573
 10
1.4444703351
 20
-39.9012377576
 10
1.4442716322
 20
-39.9105419917
 10
1.4438513327
 20
-39.919842175
 10
1.4432037633
 20
-39.9291311231
 10
1.4423232505
 20
-39.9384016514
 10
1.4412041209
 20
-39.9476465756
 10
1.4398407012
 20
-39.9568587112
 10
1.4385576239
 20
-39.9642619987
 10
1.4371021929
 20
-39.9716326651
 10
1.4354647717
 20
-39.97896411
 10
1.4336357234
 20
-39.9862497333
 10
1.4316054113
 20
-39.9934829348
 10
1.4293641987
 20
-40.0006571142
 10
1.4269024489
 20
-40.0077656713
 10
1.4242105252
 20
-40.014802006
 10
1.4219297888
 20
-40.0202680652
 10
1.4194943237
 20
-40.0256717099
 10
1.4168971352
 20
-40.0309990839
 10
1.4141312289
 20
-40.0362363312
 10
1.4111896103
 20
-40.0413695955
 10
1.4080652849
 20
-40.0463850207
 10
1.404751258
 20
-40.0512687507
 10
1.4012405353
 20
-40.0560069293
 10
1.3975261222
 20
-40.0605857003
 10
1.3943161266
 20
-40.0642189433
 10
1.3909625171
 20
-40.0677209989
 10
1.3874640122
 20
-40.0710777314
 10
1.3838193304
 20
-40.0742750052
 10
1.3800271903
 20
-40.0772986845
 10
1.3762161564
 20
-40.0800471126
 10
1.3722743787
 20
-40.0826069836
 10
1.3682105018
 20
-40.0849656674
 10
1.3640331698
 20
-40.0871105339
 10
1.3597510274
 20
-40.089028953
 10
1.3555696649
 20
-40.0906421566
 10
1.3513105927
 20
-40.0920455432
 10
1.3469839089
 20
-40.0932475939
 10
1.3425997116
 20
-40.0942567894
 10
1.3381680988
 20
-40.0950816108
 10
1.3336991686
 20
-40.0957305389
 10
1.3292030191
 20
-40.0962120546
 10
1.3246897483
 20
-40.0965346389
 10
1.3201694543
 20
-40.0967067727
 10
1.3156522352
 20
-40.0967369368
 10
1.309241841
 20
-40.0965505708
 10
1.3028594768
 20
-40.0961116527
 10
1.2965064741
 20
-40.0954381833
 10
1.2901841642
 20
-40.0945481633
 10
1.2838938787
 20
-40.0934595933
 10
1.2776369487
 20
-40.0921904742
 10
1.2714147058
 20
-40.0907588066
 10
1.2652284813
 20
-40.0891825912
 10
1.257392242
 20
-40.0869869274
 10
1.2496156548
 20
-40.0845980562
 10
1.2418976164
 20
-40.0820286202
 10
1.2342370231
 20
-40.0792912622
 10
1.2266327713
 20
-40.076398625
 10
1.2190837575
 20
-40.0733633512
 10
1.2115888782
 20
-40.0701980836
 10
1.2006279265
 20
-40.0653142153
 10
1.1897776074
 20
-40.0601944797
 10
1.1790331303
 20
-40.054858428
 10
1.1683897041
 20
-40.0493256115
 10
1.1578425382
 20
-40.0436155814
  0
LINE
  5
279
100
AcDbEntity
  8
0
100
AcDbLine
 62
7
  6
CONTINUOUS
 10
-3.3884534403
 20
-36.5105376463
 11
-3.3884534403
 21
-38.5516202607
  0
LINE
  5
27A
100
AcDbEntity
  8
0
100
AcDbLine
 62
7
  6
CONTINUOUS
 10
-3.0194900716
 20
-38.7646550856
 11
-3.0194900716
 21
-36.7235724712
  0
LINE
  5
27B
100
AcDbEntity
  8
0
100
AcDbLine
 62
7
  6
CONTINUOUS
 10
0.5917392631
 20
-38.8326188508
 11
0.5917392631
 21
-40.8497334651
  0
LINE
  5
27C
100
AcDbEntity
  8
0
100
AcDbLine
 62
7
  6
CONTINUOUS
 10
0.9469836818
 20
-39.9218683204
 11
0.9469836818
 21
-39.3615850638
  0
LINE
  5
27D
100
AcDbEntity
  8
0
100
AcDbLine
 62
7
  6
CONTINUOUS
 10
0.9592179491
 20
-41.0619110527
 11
0.9592179491
 21
-40.2631921304
  0
LINE
  5
27E
100
AcDbEntity
  8
0
100
AcDbLine
 62
7
  6
CONTINUOUS
 10
1.5403257644
 20
-40.444733495
 11
1.5403257644
 21
-40.432673202
  0
LINE
  5
27F
100
AcDbEntity
  8
0
100
AcDbLine
 62
7
  6
CONTINUOUS
 10
2.3493928199
 20
1.5554515598
 11
2.3493928199
 21
-6.6092512082
  0
LINE
  5
280
100
AcDbEntity
  8
0
100
AcDbLine
 62
7
  6
CONTINUOUS
 10
2.6322355324
 20
-6.4459729348
 11
2.6322355324
 21
1.0655536117
  0
LINE
  5
281
100
AcDbEntity
  8
0
100
AcDbLine
 62
7
  6
CONTINUOUS
 10
4.6828451978
 20
-1.7513832625
 11
4.6828451978
 21
-2.0779713732
  0
LINE
  5
282
100
AcDbEntity
  8
0
100
AcDbLine
 62
7
  6
CONTINUOUS
 10
6.3091907946
 20
-1.0574742736
 11
6.3091907946
 21
-8.5690008201
  0
LINE
  5
283
100
AcDbEntity
  8
0
100
AcDbLine
 62
7
  6
CONTINUOUS
 10
6.592033507
 20
-9.0588987681
 11
6.592033507
 21
-0.8941960002
  0
LINE
  5
284
100
AcDbEntity
  8
0
100
AcDbLine
 62
7
  6
CONTINUOUS
 10
-2.4678880924
 20
-39.0831431552
 11
-2.3882657476
 21
-37.7964079958
  0
LINE
  5
285
100
AcDbEntity
  8
0
100
AcDbLine
 62
7
  6
CONTINUOUS
 10
-2.6612634123
 20
-36.9305305252
 11
-2.8208658981
 21
-38.879338194
  0
LINE
  5
286
100
AcDbEntity
  8
0
100
AcDbLine
 62
7
  6
CONTINUOUS
 10
-0.428052613
 20
-39.5381889045
 11
-0.2443399073
 21
-38.886835906
  0
LINE
  5
287
100
AcDbEntity
  8
0
100
AcDbLine
 62
7
  6
CONTINUOUS
 10
-3.8940878219
 20
-36.218713162
 11
-4.2413133139
 21
-37.4230858306
  0
LINE
  5
288
100
AcDbEntity
  8
0
100
AcDbLine
 62
7
  6
CONTINUOUS
 10
-0.605337011
 20
-40.1585568063
 11
-0.5035256553
 21
-39.8098933461
  0
LINE
  5
289
100
AcDbEntity
  8
0
100
AcDbLine
 62
7
  6
CONTINUOUS
 10
-0.4158712845
 20
-38.2269917984
 11
-0.9702967411
 21
-39.9478336322
  0
LINE
  5
28A
100
AcDbEntity
  8
0
100
AcDbLine
 62
7
  6
CONTINUOUS
 10
-4.0935477956
 20
-38.1445076169
 11
-3.5253768903
 21
-36.4316022329
  0
LINE
  5
28B
100
AcDbEntity
  8
0
100
AcDbLine
 62
7
  6
CONTINUOUS
 10
-1.5585756419
 20
-37.5672086239
 11
-1.9275390106
 21
-38.4873210539
  0
LINE
  5
28C
100
AcDbEntity
  8
0
100
AcDbLine
 62
7
  6
CONTINUOUS
 10
-1.9036798135
 20
-39.4089099442
 11
-1.4649829883
 21
-38.3350551533
  0
LINE
  5
28D
100
AcDbEntity
  8
0
100
AcDbLine
 62
7
  6
CONTINUOUS
 10
1.9603055234
 20
1.7390759899
 11
2.1603055234
 21
1.8545311642
  0
LINE
  5
28E
100
AcDbEntity
  8
0
100
AcDbLine
 62
7
  6
CONTINUOUS
 10
2.9603055234
 20
2.3163518616
 11
3.1603055234
 21
2.4318070359
  0
LINE
  5
28F
100
AcDbEntity
  8
0
100
AcDbLine
 62
7
  6
CONTINUOUS
 10
4.4707131635
 20
-0.3225484417
 11
3.0564996011
 21
-1.1389398086
  0
LINE
  5
290
100
AcDbEntity
  8
0
100
AcDbLine
 62
7
  6
CONTINUOUS
 10
3.7393423136
 20
-1.206616522
 11
4.4707131635
 21
-0.7844137771
  0
LWPOLYLINE
  5
291
100
AcDbEntity
  8
0
100
AcDbPolyline
 62
7
  6
CONTINUOUS
 90
121
 70
0
 10
1.9603055234
 20
-6.3435673811
 10
1.8434240544
 20
-6.4066331422
 10
1.7230010086
 20
-6.463042965
 10
1.5995340557
 20
-6.5126802217
 10
1.4735208654
 20
-6.5554282843
 10
1.3411852649
 20
-6.5922821028
 10
1.2070753972
 20
-6.6218552837
 10
1.0716028616
 20
-6.6443425552
 10
0.9351792575
 20
-6.6599386455
 10
0.7901099384
 20
-6.6691772432
 10
0.6447576415
 20
-6.6712540161
 10
0.4994443067
 20
-6.6665160081
 10
0.3544918739
 20
-6.6553102634
 10
0.1995783625
 20
-6.6364680321
 10
0.0456354383
 20
-6.6109710394
 10
-0.1071536275
 20
-6.5792216756
 10
-0.2586055634
 20
-6.5416223309
 10
-0.4736800839
 20
-6.4780784051
 10
-0.6854174708
 20
-6.4041772419
 10
-0.8936227871
 20
-6.32082008
 10
-1.1133422387
 20
-6.2216250031
 10
-1.3287129974
 20
-6.1133194434
 10
-1.5396944766
 20
-5.9966814984
 10
-1.7600501566
 20
-5.8637970083
 10
-1.9753948862
 20
-5.7229413917
 10
-2.1857661661
 20
-5.5747526873
 10
-2.4028724595
 20
-5.4107285166
 10
-2.6145233073
 20
-5.2397256891
 10
-2.8207833899
 20
-5.0622529655
 10
-3.030902848
 20
-4.8701474193
 10
-3.2352492175
 20
-4.6719139476
 10
-3.4338808271
 20
-4.4679513453
 10
-3.6334593076
 20
-4.2512678783
 10
-3.8270116148
 20
-4.0291864311
 10
-4.0145682108
 20
-3.8020164922
 10
-4.2002754547
 20
-3.5646417102
 10
-4.379726681
 20
-3.3225040059
 10
-4.5529098187
 20
-3.0758427363
 10
-4.7216841562
 20
-2.8219812232
 10
-4.8839675969
 20
-2.5639231452
 10
-5.0396944766
 20
-2.3018551117
 10
-5.1887879881
 20
-2.0359587841
 10
-5.3311304956
 20
-1.7663892862
 10
-5.4665931642
 20
-1.4932967614
 10
-5.5936146882
 20
-1.2199884781
 10
-5.7135845818
 20
-0.9435136345
 10
-5.8263015265
 20
-0.6640023429
 10
-5.9292551631
 20
-0.3879940916
 10
-6.0248040471
 20
-0.1093376302
 10
-6.1126648537
 20
0.1718386864
 10
-6.1899817409
 20
0.4458324794
 10
-6.2594794588
 20
0.7219108296
 10
-6.3207833899
 20
0.9999248547
 10
-6.3713440794
 20
1.2672783076
 10
-6.4136060048
 20
1.5360652837
 10
-6.4470961692
 20
1.8060873782
 10
-6.4702397053
 20
2.0623575125
 10
-6.4845454602
 20
2.3192680965
 10
-6.4894419449
 20
2.5765325924
 10
-6.4849554727
 20
2.81755456
 10
-6.471057983
 20
3.0582111748
 10
-6.4470961692
 20
3.2980779662
 10
-6.4151759992
 20
3.5200536129
 10
-6.3732997844
 20
3.7403598237
 10
-6.3207833899
 20
3.9583776583
 10
-6.2776111615
 20
4.1083289404
 10
-6.2287041915
 20
4.2565126192
 10
-6.1738071867
 20
4.4025678424
 10
-6.1126648537
 20
4.5461337577
 10
-6.0498926451
 20
4.6772542421
 10
-5.9813377537
 20
4.8054533222
 10
-5.9068555805
 20
4.9302815793
 10
-5.8263015265
 20
5.0512895947
 10
-5.7445533825
 20
5.161639171
 10
-5.6573160389
 20
5.2677170115
 10
-5.5646443484
 20
5.3690591982
 10
-5.4665931642
 20
5.4652018128
 10
-5.3666356779
 20
5.5529014002
 10
-5.2619751546
 20
5.6349566028
 10
-5.1528989642
 20
5.711031022
 10
-5.0396944766
 20
5.7807882593
 10
-4.9226721886
 20
5.8439353169
 10
-4.8022439407
 20
5.900348143
 10
-4.6788447962
 20
5.9499462531
 10
-4.5529098187
 20
5.9926491625
 10
-4.4206139004
 20
6.029480072
 10
-4.2865055618
 20
6.0590523701
 10
-4.1510139496
 20
6.0815506547
 10
-4.0145682108
 20
6.0971595237
 10
-3.8694872989
 20
6.1064048141
 10
-3.7241345452
 20
6.1084818508
 10
-3.5788267784
 20
6.1037406284
 10
-3.4338808271
 20
6.0925311416
 10
-3.2789707704
 20
6.0736869156
 10
-3.125027983
 20
6.0481898437
 10
-2.9722372583
 20
6.0164414375
 10
-2.8207833899
 20
5.9788432091
 10
-2.6057077333
 20
5.915299941
 10
-2.3939707074
 20
5.8413985702
 10
-2.1857661661
 20
5.7580409582
 10
-1.9660470504
 20
5.6588456799
 10
-1.7506761823
 20
5.5505401797
 10
-1.5396944766
 20
5.4339023767
 10
-1.3193387099
 20
5.3010179672
 10
-1.1039940186
 20
5.1601623435
 10
-0.8936227871
 20
5.0119735655
 10
-0.6765164689
 20
4.8479492845
 10
-0.4648655855
 20
4.6769464168
 10
-0.2586055634
 20
4.4994738437
 10
-0.0484863131
 20
4.3073686768
 10
0.1558599489
 20
4.1091353851
 10
0.3544918739
 20
3.9051722235
 10
0.5540712037
 20
3.68848728
 10
0.7476239226
 20
3.4664051214
 10
0.9351792575
 20
3.2392373704
 10
1.1208832048
 20
3.0018682999
 10
1.3003328458
 20
2.7597333407
 10
1.4735208654
 20
2.5130636145
 10
1.6423077521
 20
2.2591803654
 10
1.8045972005
 20
2.0011118818
 10
1.9603055234
 20
1.7390759899
  0
LWPOLYLINE
  5
292
100
AcDbEntity
  8
0
100
AcDbPolyline
 62
7
  6
CONTINUOUS
 90
119
 70
0
 10
2.9603055234
 20
-8.0756181869
 10
2.7697854026
 20
-8.1765943133
 10
2.5722997516
 20
-8.2638571822
 10
2.3691312915
 20
-8.3370845015
 10
2.209127968
 20
-8.383884208
 10
2.0469553347
 20
-8.4223127526
 10
1.883068364
 20
-8.4525622168
 10
1.717922028
 20
-8.4748246823
 10
1.4845893014
 20
-8.493031211
 10
1.2505485849
 20
-8.4967111849
 10
1.0166795521
 20
-8.4867231996
 10
0.7679303941
 20
-8.461920886
 10
0.5209167222
 20
-8.4235340845
 10
0.2761741351
 20
-8.3725973061
 10
0.0164484085
 20
-8.3050641725
 10
-0.2397727584
 20
-8.2252621838
 10
-0.4922209182
 20
-8.1341998433
 10
-0.7584749583
 20
-8.025127518
 10
-1.0199973925
 20
-7.9051603628
 10
-1.2767039509
 20
-7.7751923196
 10
-1.5450932391
 20
-7.6265157925
 10
-1.8079278118
 20
-7.4682312666
 10
-2.0652262131
 20
-7.3010886744
 10
-2.3314683275
 20
-7.1153796646
 10
-2.5915972395
 20
-6.9212035587
 10
-2.8456769172
 20
-6.7191705899
 10
-3.1056260051
 20
-6.4995541323
 10
-3.3590667164
 20
-6.2724600414
 10
-3.6060692453
 20
-6.0383756533
 10
-3.8557494548
 20
-5.7884658175
 10
-4.0986175919
 20
-5.5319323838
 10
-4.3347244528
 20
-5.2691600855
 10
-4.5703683387
 20
-4.992999691
 10
-4.7989392348
 20
-4.7109584371
 10
-5.0204512407
 20
-4.4233381455
 10
-5.238543082
 20
-4.1253370246
 10
-5.4493102423
 20
-3.8221122271
 10
-5.6527176405
 20
-3.5139006778
 10
-5.8500383924
 20
-3.1987694081
 10
-6.0397682221
 20
-2.8790115269
 10
-6.2218127735
 20
-2.5548155873
 10
-6.3954842256
 20
-2.2274939381
 10
-6.5612662498
 20
-1.8961078251
 10
-6.7189959982
 20
-1.560813309
 10
-6.8665219462
 20
-1.2263934641
 10
-7.0058138431
 20
-0.8884625365
 10
-7.1366311568
 20
-0.5471605654
 10
-7.2559337031
 20
-0.2108055701
 10
-7.3666004689
 20
0.1284868834
 10
-7.4683038575
 20
0.4705741126
 10
-7.5577529036
 20
0.8037161531
 10
-7.6380994793
 20
1.1391673532
 10
-7.7089199922
 20
1.4767595005
 10
-7.7673535115
 20
1.8016449025
 10
-7.8161501722
 20
2.1281134236
 10
-7.854783976
 20
2.4559417574
 10
-7.8815155351
 20
2.7677234885
 10
-7.8980152603
 20
3.0802092211
 10
-7.9036555073
 20
3.3930817791
 10
-7.898463569
 20
3.6872020204
 10
-7.88241048
 20
3.9809235652
 10
-7.854783976
 20
4.2737861814
 10
-7.8178751945
 20
4.546062481
 10
-7.7695031795
 20
4.8165294665
 10
-7.7089199922
 20
5.0845283659
 10
-7.6408589013
 20
5.3312167229
 10
-7.5608805668
 20
5.5742930084
 10
-7.4683038575
 20
5.8128562728
 10
-7.3699133327
 20
6.0306583497
 10
-7.2595035098
 20
6.2426108359
 10
-7.1366311568
 20
6.4475836297
 10
-7.0419157437
 20
6.5878078674
 10
-6.9407368253
 20
6.7234551209
 10
-6.8330962829
 20
6.8540111615
 10
-6.7189959982
 20
6.9789617605
 10
-6.6030714824
 20
7.0935002035
 10
-6.4814036315
 20
7.2019406195
 10
-6.3542361578
 20
7.3038584942
 10
-6.2218127735
 20
7.3988293133
 10
-6.0394660506
 20
7.5129163508
 10
-5.8494224559
 20
7.6137043973
 10
-5.6527176405
 20
7.7007376091
 10
-5.4983668101
 20
7.7578060916
 10
-5.3412123888
 20
7.8066508172
 10
-5.1817439934
 20
7.8473669582
 10
-5.0204512407
 20
7.8800496866
 10
-4.793182773
 20
7.9124933262
 10
-4.5642841275
 20
7.9302298844
 10
-4.3347244528
 20
7.9340115203
 10
-4.0906284126
 20
7.9235629206
 10
-3.8475278907
 20
7.8991561325
 10
-3.6060692453
 20
7.8617943189
 10
-3.3495067921
 20
7.8084135098
 10
-3.0959265424
 20
7.7423073612
 10
-2.8456769172
 20
7.664507255
 10
-2.5811065479
 20
7.5691005452
 10
-2.3209110715
 20
7.462345682
 10
-2.0652262131
 20
7.345180429
 10
-1.7970668706
 20
7.2094490109
 10
-1.5342233618
 20
7.0636954602
 10
-1.2767039509
 20
6.9087183308
 10
-1.0092780919
 20
6.7350321943
 10
-0.7478017555
 20
6.5525158348
 10
-0.4922209182
 20
6.3618245121
 10
-0.2297232096
 20
6.1531317683
 10
0.0263846667
 20
5.936647725
 10
0.2761741351
 20
5.7128986278
 10
0.5297068227
 20
5.4726577329
 10
0.7765220092
 20
5.2255219739
 10
1.0166795521
 20
4.9719074273
 10
1.257407134
 20
4.7040224272
 10
1.491145778
 20
4.4300206061
 10
1.717922028
 20
4.150231676
 10
1.9422341919
 20
3.8590070798
 10
2.1593080425
 20
3.5623444224
 10
2.3691312915
 20
3.2604913609
 10
2.5737269596
 20
2.9505073298
 10
2.7708161121
 20
2.6357151718
 10
2.9603055234
 20
2.3163518616
  0
LWPOLYLINE
  5
293
100
AcDbEntity
  8
0
100
AcDbPolyline
 62
7
  6
CONTINUOUS
 90
19
 70
0
 10
-42.7731956647
 20
70.3718378965
 10
-42.791110172
 20
70.3597095288
 10
-42.8389843642
 20
70.3241788193
 10
-42.8851702595
 20
70.2851056338
 10
-42.929476779
 20
70.2424673859
 10
-42.9716331425
 20
70.1963388506
 10
-43.0113282301
 20
70.1469084734
 10
-43.0483890743
 20
70.0942542171
 10
-43.0826466614
 20
70.0384660248
 10
-43.1138817232
 20
69.9797800396
 10
-43.1419862236
 20
69.9183111518
 10
-43.1668686134
 20
69.8541482581
 10
-43.1884086258
 20
69.7874849929
 10
-43.2065436128
 20
69.7184309099
 10
-43.2212262979
 20
69.6470394937
 10
-43.2323939036
 20
69.573400858
 10
-43.2399948479
 20
69.4976011861
 10
-43.2439798855
 20
69.4197293675
 10
-43.2446103866
 20
69.3733931736
  0
LINE
  5
294
100
AcDbEntity
  8
0
100
AcDbLine
 62
7
  6
CONTINUOUS
 10
-42.7735922022
 20
70.3715781524
 11
-35.3867003155
 21
75.2539665159
  0
LINE
  5
295
100
AcDbEntity
  8
0
100
AcDbLine
 62
250
  6
CONTINUOUS
 10
-41.8683384312
 20
70.2845427893
 11
-34.4562904915
 21
75.1837440094
  0
LWPOLYLINE
  5
296
100
AcDbEntity
  8
SMUSSO
100
AcDbPolyline
 62
7
  6
CONTINUOUS
 90
15
 70
0
 10
-40.8598807646
 20
67.986180572
 10
-40.8741874903
 20
67.9774331655
 10
-40.901531918
 20
67.9577425248
 10
-40.9270433265
 20
67.935217894
 10
-40.9506354677
 20
67.9099354463
 10
-40.9722287669
 20
67.8819805832
 10
-40.9917507311
 20
67.8514475647
 10
-41.0091347346
 20
67.818440034
 10
-41.0243204967
 20
67.7830705201
 10
-41.0372549619
 20
67.7454596673
 10
-41.0478960229
 20
67.7057337811
 10
-41.0562112075
 20
67.6640252413
 10
-41.062173555
 20
67.6204744981
 10
-41.0657617108
 20
67.5752295946
 10
-41.0669635449
 20
67.5284436188
  0
LINE
  5
297
100
AcDbEntity
  8
RACCORDO
100
AcDbLine
 62
7
  6
CONTINUOUS
 10
-40.8598809239
 20
67.9861804799
 11
-40.5224819631
 21
68.1809904113
  0
LINE
  5
298
100
AcDbEntity
  8
SMUSSO
100
AcDbLine
 62
250
  6
CONTINUOUS
 10
-40.3598567638
 20
67.9366393023
 11
-40.2295687286
 21
68.0118659809
  0
LINE
  5
299
100
AcDbEntity
  8
0
100
AcDbLine
 62
250
  6
CONTINUOUS
 10
-41.9828121882
 20
69.0241667811
 11
-42.0571001006
 21
68.9842171459
  0
LINE
  5
29A
100
AcDbEntity
  8
SMUSSO
100
AcDbLine
 62
250
  6
CONTINUOUS
 10
32.4721416985
 20
-70.4592153819
 11
33.8863552608
 21
-70.4592153819
  0
LINE
  5
29B
100
AcDbEntity
  8
SMUSSO
100
AcDbLine
 62
250
  6
CONTINUOUS
 10
-41.0669635449
 20
66.7118944322
 11
-40.3598567638
 21
67.9366393023
  0
LINE
  5
29C
100
AcDbEntity
  8
SUPERFICI
100
AcDbLine
 62
250
  6
CONTINUOUS
 10
-20.3840901952
 20
67.5078878514
 11
-20.7731321753
 21
67.2832598879
  0
LWPOLYLINE
  5
29D
100
AcDbEntity
  8
0
100
AcDbPolyline
 62
250
  6
CONTINUOUS
 90
5
 70
0
 10
34.0167142205
 20
-72.4810691025
 10
34.0143236033
 20
-72.4807450463
 10
34.0007972191
 20
-72.4776709082
 10
33.9870168092
 20
-72.4733174955
 10
33.973090989
 20
-72.4677180778
  0
LWPOLYLINE
  5
29E
100
AcDbEntity
  8
0
100
AcDbPolyline
 62
250
  6
CONTINUOUS
 90
3
 70
0
 10
33.973090989
 20
-72.4677180778
 10
33.9590445185
 20
-72.4608800427
 10
33.9449451798
 20
-72.4528285686
  0
LWPOLYLINE
  5
29F
100
AcDbEntity
  8
0
100
AcDbPolyline
 62
250
  6
CONTINUOUS
 90
19
 70
0
 10
34.5033419314
 20
-72.9165926054
 10
34.5347593443
 20
-72.9332472583
 10
34.5685207204
 20
-72.9482953593
 10
34.6043804012
 20
-72.9616274135
 10
34.6420774604
 20
-72.9731464127
 10
34.6813376023
 20
-72.9827685411
 10
34.7218751576
 20
-72.9904237849
 10
34.7633951623
 20
-72.9960564423
 10
34.8055955037
 20
-72.9996255282
 10
34.8481691188
 20
-73.0011050728
 10
34.8908062285
 20
-73.0004843105
 10
34.9331965917
 20
-72.9977677581
 10
34.9750317628
 20
-72.9929751822
 10
35.0160073358
 20
-72.986141455
 10
35.0558251595
 20
-72.9773163009
 10
35.0941955069
 20
-72.9665639346
 10
35.1308391831
 20
-72.9539625935
 10
35.1654895571
 20
-72.9396039692
 10
43.1140987553
 20
-68.969754511
  0
LWPOLYLINE
  5
2A0
100
AcDbEntity
  8
SMUSSO
100
AcDbPolyline
 62
7
  6
CONTINUOUS
 90
15
 70
0
 10
33.1792484796
 20
-70.8674110654
 10
33.2203690771
 20
-70.8897653222
 10
33.2613481616
 20
-70.9092826329
 10
33.3020470851
 20
-70.92589695
 10
33.3423268734
 20
-70.9395527846
 10
33.3820524902
 20
-70.9502032034
 10
33.4210932983
 20
-70.9578099853
 10
33.4593190427
 20
-70.9623463253
 10
33.4965985205
 20
-70.963797947
 10
33.5328038171
 20
-70.9621609622
 10
33.5678116725
 20
-70.9574413446
 10
33.6015043859
 20
-70.949654628
 10
33.633768439
 20
-70.9388268789
 10
33.6644948318
 20
-70.9249946361
 10
33.6792727991
 20
-70.916952151
  0
LWPOLYLINE
  5
2A1
100
AcDbEntity
  8
0
100
AcDbPolyline
 62
250
  6
CONTINUOUS
 90
31
 70
0
 10
33.5846630913
 20
-73.4469237336
 10
33.6335045524
 20
-73.4735136261
 10
33.681651794
 20
-73.4969200113
 10
33.7291048159
 20
-73.5171428893
 10
33.7758705356
 20
-73.5341600033
 10
33.8219420358
 20
-73.5479936101
 10
33.8672985644
 20
-73.5587104797
 10
33.9120673904
 20
-73.56634965
 10
33.9561212448
 20
-73.5708720832
 10
33.9990575692
 20
-73.5722274358
 10
34.040845997
 20
-73.5703853063
 10
34.0815168949
 20
-73.5653760962
 10
34.1207588042
 20
-73.5572406669
 10
34.1585650987
 20
-73.545954726
 10
34.1949424047
 20
-73.5315425659
 10
34.2295991419
 20
-73.5141179247
 10
34.2625246909
 20
-73.4936511795
 10
34.2937296711
 20
-73.4701719533
 10
34.32295436
 20
-73.4438828527
 10
34.3501408851
 20
-73.4148646406
 10
34.3753471189
 20
-73.383036554
 10
34.3984869563
 20
-73.348358911
 10
34.4196283796
 20
-73.3107622393
 10
34.4387034065
 20
-73.2703160111
 10
34.4554219851
 20
-73.2271889608
 10
34.4697735797
 20
-73.1812845276
 10
34.481768726
 20
-73.1326992723
 10
34.4911489789
 20
-73.0818916108
 10
34.4978281898
 20
-73.0290143485
 10
34.5018925074
 20
-72.97391468
 10
34.5033419314
 20
-72.9165926054
  0
LWPOLYLINE
  5
2A2
100
AcDbEntity
  8
0
100
AcDbPolyline
 62
7
  6
CONTINUOUS
 90
19
 70
0
 10
33.6881895545
 20
-73.6757835904
 10
33.7262105478
 20
-73.6970930348
 10
33.7958090027
 20
-73.7328085309
 10
33.8654211591
 20
-73.7643345068
 10
33.9349445347
 20
-73.7916696849
 10
34.0042794676
 20
-73.8148177754
 10
34.0733160267
 20
-73.83378766
 10
34.1419840768
 20
-73.8485930769
 10
34.2101570531
 20
-73.8592357654
 10
34.2776055148
 20
-73.8657228701
 10
34.3442052433
 20
-73.8680877414
 10
34.409802311
 20
-73.8663666983
 10
34.4740830442
 20
-73.8606349916
 10
34.536883635
 20
-73.8509934313
 10
34.5980482677
 20
-73.8375521248
 10
34.6572568492
 20
-73.8204878649
 10
34.7143089938
 20
-73.8000010326
 10
34.7691276593
 20
-73.776268495
 10
34.7886955138
 20
-73.7667668676
  0
LINE
  5
2A3
100
AcDbEntity
  8
0
100
AcDbLine
 62
7
  6
CONTINUOUS
 10
-42.0759436273
 20
-29.9305226399
 11
33.688204406
 21
-73.6757921665
  0
LINE
  5
2A4
100
AcDbEntity
  8
0
100
AcDbLine
 62
250
  6
CONTINUOUS
 10
-42.1794849378
 20
-29.7016542093
 11
33.5846630913
 21
-73.4469237336
  0
LINE
  5
2A5
100
AcDbEntity
  8
0
100
AcDbLine
 62
250
  6
CONTINUOUS
 10
33.5975615616
 20
-73.0615765022
 11
-42.1923834081
 21
-29.3014121478
  0
LWPOLYLINE
  5
2A6
100
AcDbEntity
  8
0
100
AcDbPolyline
 62
250
  6
CONTINUOUS
 90
25
 70
0
 10
-42.1923834081
 20
-29.3014121478
 10
-42.229090692
 20
-29.2787999024
 10
-42.265313504
 20
-29.2538306115
 10
-42.3010518442
 20
-29.2265042751
 10
-42.3364339499
 20
-29.1966995225
 10
-42.3713315837
 20
-29.1645377244
 10
-42.4053600336
 20
-29.1303829934
 10
-42.4385238496
 20
-29.0942021842
 10
-42.4708184817
 20
-29.0560284421
 10
-42.5018455685
 20
-29.0163253158
 10
-42.5316029763
 20
-28.9750449498
 10
-42.5600928388
 20
-28.9322351996
 10
-42.5869231944
 20
-28.8885031805
 10
-42.6119991107
 20
-28.8440301405
 10
-42.6354155201
 20
-28.7986348317
 10
-42.6570652587
 20
-28.7523806248
 10
-42.6770425464
 20
-28.7051178419
 10
-42.6952531632
 20
-28.6569961611
 10
-42.7113072857
 20
-28.608527987
 10
-42.7252076881
 20
-28.5595027106
 10
-42.7369515961
 20
-28.510130941
 10
-42.7461408636
 20
-28.4615569099
 10
-42.7526427751
 20
-28.4141620279
 10
-42.756590046
 20
-28.3675648844
 10
-42.7579826764
 20
-28.3217654794
  0
LWPOLYLINE
  5
2A7
100
AcDbEntity
  8
0
100
AcDbPolyline
 62
250
  6
CONTINUOUS
 90
11
 70
0
 10
-43.0981637779
 20
-28.1104557841
 10
-43.1270084164
 20
-28.0923159073
 10
-43.1530706732
 20
-28.0728226544
 10
-43.1761609048
 20
-28.0521178586
 10
-43.1961110922
 20
-28.030352169
 10
-43.2127760626
 20
-28.0076839556
 10
-43.2260345462
 20
-27.9842781574
 10
-43.2357900609
 20
-27.9603050792
 10
-43.2419716123
 20
-27.9359391552
 10
-43.244534211
 20
-27.9113576817
 10
-43.2446103873
 20
-27.9063184922
  0
LWPOLYLINE
  5
2A8
100
AcDbEntity
  8
0
100
AcDbPolyline
 62
250
  6
CONTINUOUS
 90
11
 70
0
 10
-42.1794849378
 20
-29.7016542093
 10
-42.1781986547
 20
-29.7357028365
 10
-42.1743491648
 20
-29.7680183476
 10
-42.1679644782
 20
-29.7983656048
 10
-42.1590910518
 20
-29.8265237918
 10
-42.1477934517
 20
-29.8522880208
 10
-42.1341538825
 20
-29.8754708231
 10
-42.1182715903
 20
-29.8959035132
 10
-42.1002621395
 20
-29.9134374166
 10
-42.0802565726
 20
-29.9279449509
 10
-42.0759436273
 20
-29.9305226399
  0
LWPOLYLINE
  5
2A9
100
AcDbEntity
  8
0
100
AcDbPolyline
 62
250
  6
CONTINUOUS
 90
31
 70
0
 10
-43.0981637779
 20
-28.1104557841
 10
-43.0967689514
 20
-28.167656584
 10
-43.0929641813
 20
-28.2254472652
 10
-43.0867494675
 20
-28.2838278278
 10
-43.0781020756
 20
-28.3428193856
 10
-43.06704474
 20
-28.4024008248
 10
-43.0536456642
 20
-28.462508804
 10
-43.0378750166
 20
-28.5233075003
 10
-43.0197626287
 20
-28.5846327367
 10
-42.9994661993
 20
-28.6459286404
 10
-42.9769745836
 20
-28.707166583
 10
-42.9522989264
 20
-28.7683751929
 10
-42.92563036
 20
-28.8290844829
 10
-42.8969511593
 20
-28.8892970363
 10
-42.8662790495
 20
-28.9490102696
 10
-42.8338583381
 20
-29.0077464459
 10
-42.7996686803
 20
-29.0655050502
 10
-42.7637304208
 20
-29.1222865974
 10
-42.7263489016
 20
-29.1776148949
 10
-42.6876230068
 20
-29.2313660251
 10
-42.6474538523
 20
-29.2836639055
 10
-42.6058501281
 20
-29.3344040964
 10
-42.5627176731
 20
-29.3837194618
 10
-42.5181506483
 20
-29.4314771376
 10
-42.4724402266
 20
-29.477174092
 10
-42.4255080497
 20
-29.5208434029
 10
-42.377432476
 20
-29.5624519923
 10
-42.3287397532
 20
-29.6013975942
 10
-42.2796052971
 20
-29.6374794534
 10
-42.229853692
 20
-29.6708983251
 10
-42.1794849378
 20
-29.7016542093
  0
LWPOLYLINE
  5
2AA
100
AcDbEntity
  8
0
100
AcDbPolyline
 62
7
  6
CONTINUOUS
 90
28
 70
0
 10
-43.2446103228
 20
-27.9061717965
 10
-43.2445173023
 20
-27.9242311431
 10
-43.2412128
 20
-28.0158984122
 10
-43.2333104985
 20
-28.1081301713
 10
-43.2209718549
 20
-28.2007000008
 10
-43.2043505702
 20
-28.2934251576
 10
-43.1835981573
 20
-28.3861042486
 10
-43.1588515642
 20
-28.4785487626
 10
-43.1302480684
 20
-28.5705702795
 10
-43.097934101
 20
-28.6619113472
 10
-43.0620600679
 20
-28.7523337573
 10
-43.0227455032
 20
-28.8416761891
 10
-42.9801016605
 20
-28.9297625619
 10
-42.934262699
 20
-29.0163804251
 10
-42.8853444649
 20
-29.1013323943
 10
-42.8334431183
 20
-29.1844554349
 10
-42.7786722216
 20
-29.2655493063
 10
-42.7211493808
 20
-29.3443937516
 10
-42.6609712549
 20
-29.4208077816
 10
-42.5982200775
 20
-29.4946041511
 10
-42.5330257933
 20
-29.5655406068
 10
-42.4655269901
 20
-29.6333717762
 10
-42.3958179221
 20
-29.6978838443
 10
-42.3239929613
 20
-29.7588654946
 10
-42.2501375174
 20
-29.8160928993
 10
-42.1743284963
 20
-29.8693416889
 10
-42.0966848787
 20
-29.9183536245
 10
-42.0758225855
 20
-29.9305924603
  0
LINE
  5
2AB
100
AcDbEntity
  8
0
100
AcDbLine
 62
7
  6
CONTINUOUS
 10
-43.2446103873
 20
69.3734089523
 11
-43.2446103873
 21
-27.9063184922
  0
LINE
  5
2AC
100
AcDbEntity
  8
0
100
AcDbLine
 62
250
  6
CONTINUOUS
 10
-43.0981637779
 20
69.1692716556
 11
-43.0981637779
 21
-28.1104557841
  0
LINE
  5
2AD
100
AcDbEntity
  8
0
100
AcDbLine
 62
250
  6
CONTINUOUS
 10
-42.7579826764
 20
-28.3217654794
 11
-42.7579826764
 21
68.9877487418
  0
LINE
  5
2AE
100
AcDbEntity
  8
SMUSSO
100
AcDbLine
 62
7
  6
CONTINUOUS
 10
-41.0669635449
 20
-27.9986576758
 11
-41.0669635449
 21
67.5284436188
  0
LINE
  5
2AF
100
AcDbEntity
  8
0
100
AcDbLine
 62
250
  6
CONTINUOUS
 10
-42.0571001006
 20
-28.3252970754
 11
-42.057053986
 21
68.9995379086
  0
LWPOLYLINE
  5
2B0
100
AcDbEntity
  8
0
100
AcDbPolyline
 62
250
  6
CONTINUOUS
 90
25
 70
0
 10
-42.7579826764
 20
68.9877487418
 10
-42.7567546823
 20
69.0294242684
 10
-42.7532431018
 20
69.069221879
 10
-42.7474479351
 20
69.1071415735
 10
-42.7393281932
 20
69.1433077565
 10
-42.7289248649
 20
69.1775960235
 10
-42.7163609166
 20
69.2096331609
 10
-42.7016099178
 20
69.2394091616
 10
-42.684698299
 20
69.2669340326
 10
-42.665828318
 20
69.2918645816
 10
-42.6449574626
 20
69.3141737992
 10
-42.6221282449
 20
69.3338886947
 10
-42.5976704596
 20
69.350747104
 10
-42.5716936063
 20
69.3647026357
 10
-42.5440881854
 20
69.3758016811
 10
-42.5148554922
 20
69.3839212499
 10
-42.4839130121
 20
69.3891224913
 10
-42.4513432598
 20
69.3913442562
 10
-42.4173950745
 20
69.3902801061
 10
-42.3818874448
 20
69.3858287307
 10
-42.3450013821
 20
69.3780914405
 10
-42.3075287597
 20
69.3670657282
 10
-42.2697335355
 20
69.3527507583
 10
-42.2313517516
 20
69.3351473664
 10
-42.1923834081
 20
69.3142555525
  0
LWPOLYLINE
  5
2B1
100
AcDbEntity
  8
0
100
AcDbPolyline
 62
250
  6
CONTINUOUS
 90
18
 70
0
 10
-42.1794849378
 20
69.6996027838
 10
-42.178198675
 20
69.7351365049
 10
-42.1743492388
 20
69.7718970582
 10
-42.1679646306
 20
69.8096169693
 10
-42.1590912986
 20
69.8480217826
 10
-42.1477937999
 20
69.8868320558
 10
-42.1341543317
 20
69.9257653934
 10
-42.1182721319
 20
69.9645385063
 10
-42.1002627578
 20
70.0028692681
 10
-42.0802572481
 20
70.0404787662
 10
-42.0584011641
 20
70.0770933404
 10
-42.0348535338
 20
70.1124465672
 10
-42.0097856986
 20
70.1462811951
 10
-41.9833800578
 20
70.1783510287
 10
-41.9558287463
 20
70.208422712
 10
-41.9273322422
 20
70.2362774223
 10
-41.8980978981
 20
70.2617124735
 10
-41.8683384312
 20
70.2845427893
  0
LWPOLYLINE
  5
2B2
100
AcDbEntity
  8
0
100
AcDbPolyline
 62
250
  6
CONTINUOUS
 90
19
 70
0
 10
-42.1923834081
 20
-29.3014121478
 10
-42.1910677431
 20
-29.265466805
 10
-42.1871305402
 20
-29.2282696898
 10
-42.1806011021
 20
-29.1900976428
 10
-42.1715280245
 20
-29.1512347604
 10
-42.1599788339
 20
-29.1119702806
 10
-42.1460394858
 20
-29.0725964303
 10
-42.1298137241
 20
-29.0334062503
 10
-42.1114223095
 20
-28.9946914144
 10
-42.0910021207
 20
-28.9567400587
 10
-42.0687051354
 20
-28.9198346369
 10
-42.0446972996
 20
-28.8842498186
 10
-42.0191572921
 20
-28.8502504444
 10
-41.9922751952
 20
-28.8180895553
 10
-41.9642510795
 20
-28.7880065095
 10
-41.9352935151
 20
-28.7602252005
 10
-41.9056180192
 20
-28.7349523913
 10
-41.8754454525
 20
-28.7123761751
 10
-41.845000375
 20
-28.692664576
  0
LWPOLYLINE
  5
2B3
100
AcDbEntity
  8
0
100
AcDbPolyline
 62
250
  6
CONTINUOUS
 90
6
 70
0
 10
-42.057053986
 20
68.9995379086
 10
-42.0560973786
 20
69.0142868869
 10
-42.0542387679
 20
69.0284037073
 10
-42.0514935955
 20
69.041824414
 10
-42.0478754622
 20
69.0545016738
 10
-42.0456378552
 20
69.0604415339
  0
LWPOLYLINE
  5
2B4
100
AcDbEntity
  8
0
100
AcDbPolyline
 62
250
  6
CONTINUOUS
 90
19
 70
0
 10
-42.7579826764
 20
-28.3217654794
 10
-42.7261943283
 20
-28.3386003766
 10
-42.6920112365
 20
-28.3537906831
 10
-42.6556878092
 20
-28.3672233447
 10
-42.6174943846
 20
-28.3787983885
 10
-42.577715218
 20
-28.388429667
 10
-42.5366463668
 20
-28.3960454991
 10
-42.494593487
 20
-28.4015892039
 10
-42.4518695579
 20
-28.4050195221
 10
-42.4087925536
 20
-28.4063109237
 10
-42.3656830755
 20
-28.4054537972
 10
-42.322861967
 20
-28.4024545219
 10
-42.2806479251
 20
-28.39733542
 10
-42.2393551289
 20
-28.3901345904
 10
-42.199290901
 20
-28.3809056255
 10
-42.1607534202
 20
-28.3697172122
 10
-42.1240295028
 20
-28.3566526204
 10
-42.0893924673
 20
-28.3418090837
 10
-42.0571001006
 20
-28.3252970754
  0
LINE
  5
2B5
100
AcDbEntity
  8
SMUSSO
100
AcDbLine
 62
7
  6
CONTINUOUS
 10
32.4721416985
 20
-70.4592153819
 11
33.1792484796
 21
-70.8674110654
  0
LINE
  5
2B6
100
AcDbEntity
  8
SMUSSO
100
AcDbLine
 62
7
  6
CONTINUOUS
 10
-41.0669635449
 20
-27.9986576758
 11
32.4721416985
 21
-70.4592153819
  0
LWPOLYLINE
  5
2B7
100
AcDbEntity
  8
0
100
AcDbPolyline
 62
250
  6
CONTINUOUS
 90
25
 70
0
 10
33.9449445947
 20
-72.4528289304
 10
-41.8590683949
 20
-28.6844886741
 10
-41.873033612
 20
-28.6753208131
 10
-41.8868402074
 20
-28.6652030246
 10
-41.9004295736
 20
-28.6541869782
 10
-41.9137522711
 20
-28.6423169235
 10
-41.9267672766
 20
-28.6296260537
 10
-41.9394269337
 20
-28.6161612855
 10
-41.9516751974
 20
-28.6019836254
 10
-41.963459326
 20
-28.5871488838
 10
-41.9747369412
 20
-28.5717081798
 10
-41.9854551925
 20
-28.5557348322
 10
-41.9955511012
 20
-28.5393239378
 10
-42.0049477661
 20
-28.5226159856
 10
-42.0136522607
 20
-28.5056127465
 10
-42.0217138436
 20
-28.4881968364
 10
-42.0291000337
 20
-28.4703852256
 10
-42.0357341336
 20
-28.4522989352
 10
-42.0415749423
 20
-28.4339751609
 10
-42.0465839229
 20
-28.4154237348
 10
-42.0506854277
 20
-28.3968044686
 10
-42.0538060408
 20
-28.3783808688
 10
-42.0559202626
 20
-28.3602947475
 10
-42.05702211
 20
-28.3425723664
 10
-42.0570994947
 20
-28.3252967255
  0
LWPOLYLINE
  5
2B8
100
AcDbEntity
  8
0
100
AcDbPolyline
 62
250
  6
CONTINUOUS
 90
11
 70
0
 10
34.1631608299
 20
-72.7350696916
 10
34.134003808
 20
-72.7167154957
 10
34.1076951182
 20
-72.6969786047
 10
34.0844305635
 20
-72.6760059109
 10
34.0643832908
 20
-72.6539535042
 10
34.0477025022
 20
-72.6309855102
 10
34.0345123449
 20
-72.6072728689
 10
34.0249109867
 20
-72.5829920621
 10
34.0189698858
 20
-72.5583238003
 10
34.0167332588
 20
-72.5334516777
 10
34.0167142216
 20
-72.5309514723
  0
LWPOLYLINE
  5
2B9
100
AcDbEntity
  8
0
100
AcDbPolyline
 62
250
  6
CONTINUOUS
 90
10
 70
0
 10
-42.1923834081
 20
69.3142555525
 10
-42.1910677434
 20
69.2798295104
 10
-42.1871305413
 20
69.2471789815
 10
-42.1806011044
 20
69.2165469682
 10
-42.1715280283
 20
69.1881614498
 10
-42.1599788394
 20
69.1622336863
 10
-42.146039493
 20
69.1389566457
 10
-42.129813733
 20
69.1185035678
 10
-42.1114223198
 20
69.1010266752
 10
-42.0888565068
 20
69.0853954426
  0
LINE
  5
2BA
100
AcDbEntity
  8
SUPERFICI
100
AcDbLine
 62
250
  6
CONTINUOUS
 10
31.3054155095
 20
37.6630150791
 11
30.9163735294
 21
37.4383871157
  0
LINE
  5
2BB
100
AcDbEntity
  8
0
100
AcDbLine
 62
7
  6
CONTINUOUS
 10
18.7542701434
 20
45.5645488375
 11
18.4532276175
 21
45.0837072922
  0
LINE
  5
2BC
100
AcDbEntity
  8
0
100
AcDbLine
 62
250
  6
CONTINUOUS
 10
33.9258776465
 20
26.5593327199
 11
41.8420818998
 21
31.1300200339
  0
LINE
  5
2BD
100
AcDbEntity
  8
SMUSSO
100
AcDbLine
 62
250
  6
CONTINUOUS
 10
33.1792484796
 20
25.4760815962
 11
33.3095365148
 21
25.5513082748
  0
LINE
  5
2BE
100
AcDbEntity
  8
SMUSSO
100
AcDbLine
 62
250
  6
CONTINUOUS
 10
33.8863552608
 20
24.2513367261
 11
34.0167142205
 21
24.3266043556
  0
LINE
  5
2BF
100
AcDbEntity
  8
0
100
AcDbLine
 62
250
  6
CONTINUOUS
 10
35.197894502
 20
24.3561349004
 11
43.1140987553
 21
28.9268222144
  0
LINE
  5
2C0
100
AcDbEntity
  8
0
100
AcDbLine
 62
250
  6
CONTINUOUS
 10
-41.0669635449
 20
-27.7536065331
 11
-42.0571001006
 21
-28.3252970754
  0
LINE
  5
2C1
100
AcDbEntity
  8
0
100
AcDbLine
 62
250
  6
CONTINUOUS
 10
-40.8549914335
 20
-28.1210477163
 11
-41.845000375
 21
-28.692664576
  0
LINE
  5
2C2
100
AcDbEntity
  8
SMUSSO
100
AcDbLine
 62
250
  6
CONTINUOUS
 10
32.4721416985
 20
24.2513367261
 11
33.1792484796
 21
25.4760815962
  0
LINE
  5
2C3
100
AcDbEntity
  8
SMUSSO
100
AcDbLine
 62
250
  6
CONTINUOUS
 10
32.4721416985
 20
24.2513367261
 11
33.8863552608
 21
24.2513367261
  0
LWPOLYLINE
  5
2C4
100
AcDbEntity
  8
0
100
AcDbPolyline
 62
250
  6
CONTINUOUS
 90
11
 70
0
 10
33.5846630913
 20
-73.4469237336
 10
33.5859493558
 20
-73.4809721096
 10
33.5897987936
 20
-73.5132874296
 10
33.5961834031
 20
-73.5436345545
 10
33.6050567362
 20
-73.5717926657
 10
33.6163542359
 20
-73.59755687
 10
33.6299937048
 20
-73.6207396913
 10
33.6458759052
 20
-73.6411724375
 10
33.6638852795
 20
-73.6587064255
 10
33.6838907893
 20
-73.6732140624
 10
33.6881895545
 20
-73.6757835904
  0
LWPOLYLINE
  5
2C5
100
AcDbEntity
  8
0
100
AcDbPolyline
 62
250
  6
CONTINUOUS
 90
11
 70
0
 10
33.5975615616
 20
25.5540911981
 10
33.5988772266
 20
25.5196651521
 10
33.6028144296
 20
25.4870146203
 10
33.6093438677
 20
25.4563826048
 10
33.6184169455
 20
25.4279970851
 10
33.629966136
 20
25.402069321
 10
33.6439054842
 20
25.3787922805
 10
33.6601312459
 20
25.3583392034
 10
33.6785226605
 20
25.3408623121
 10
33.6989428494
 20
25.3264916786
 10
33.7010917906
 20
25.3252291664
  0
LWPOLYLINE
  5
2C6
100
AcDbEntity
  8
0
100
AcDbPolyline
 62
250
  6
CONTINUOUS
 90
31
 70
0
 10
35.197894502
 20
24.3561349004
 10
35.1954597767
 20
24.4345437892
 10
35.1895484374
 20
24.514290573
 10
35.1802455933
 20
24.5951235242
 10
35.1676817016
 20
24.6765950684
 10
35.1519347426
 20
24.7586568015
 10
35.1329521914
 20
24.8416864972
 10
35.1107123242
 20
24.9257075449
 10
35.08531845
 20
25.0102638076
 10
35.0568587899
 20
25.0950313427
 10
35.025428101
 20
25.179743685
 10
34.99110241
 20
25.2642167064
 10
34.9539608225
 20
25.3482485143
 10
34.9140978623
 20
25.4316237841
 10
34.871625071
 20
25.5141118655
 10
34.8266551972
 20
25.5954899663
 10
34.7793000321
 20
25.6755517424
 10
34.7296932003
 20
25.7540717543
 10
34.677992241
 20
25.8308057535
 10
34.6244734963
 20
25.9053666719
 10
34.5691526196
 20
25.9777519394
 10
34.5117713151
 20
26.0482585102
 10
34.4523222077
 20
26.116795372
 10
34.3910626714
 20
26.182964706
 10
34.3281102796
 20
26.2465522798
 10
34.2635397238
 20
26.3073821874
 10
34.1975883557
 20
26.3651365232
 10
34.130637739
 20
26.4194185992
 10
34.0629429287
 20
26.4699785446
 10
33.9946245743
 20
26.5166783992
 10
33.9258776465
 20
26.5593327199
  0
LWPOLYLINE
  5
2C7
100
AcDbEntity
  8
SMUSSO
100
AcDbPolyline
 62
7
  6
CONTINUOUS
 90
28
 70
0
 10
33.8863552608
 20
24.2513367261
 10
33.8851649425
 20
24.2995044479
 10
33.8815836525
 20
24.3488892868
 10
33.8756235211
 20
24.3993241471
 10
33.8673034535
 20
24.4506376444
 10
33.8566528598
 20
24.5026568765
 10
33.8437115601
 20
24.5552080102
 10
33.8285251901
 20
24.6081142955
 10
33.8111432768
 20
24.6611956409
 10
33.7916228623
 20
24.7142714122
 10
33.770029245
 20
24.7671615835
 10
33.7464362453
 20
24.8196876267
 10
33.7209241818
 20
24.8716720916
 10
33.6935795505
 20
24.9229391782
 10
33.6644947032
 20
24.9733153145
 10
33.6337680235
 20
25.0226300261
 10
33.6015035555
 20
25.0707164909
 10
33.5678103975
 20
25.1174119565
 10
33.5328023028
 20
25.1625582737
 10
33.4965971559
 20
25.2060023513
 10
33.4593180331
 20
25.2475975175
 10
33.4210925337
 20
25.2872038695
 10
33.3820516724
 20
25.3246883576
 10
33.3423258923
 20
25.359923188
 10
33.3020460792
 20
25.3927870964
 10
33.2613473524
 20
25.4231682032
 10
33.2203686032
 20
25.4509643897
 10
33.1792484796
 20
25.4760815962
  0
LWPOLYLINE
  5
2C8
100
AcDbEntity
  8
0
100
AcDbPolyline
 62
250
  6
CONTINUOUS
 90
31
 70
0
 10
34.5033419314
 20
24.3631348343
 10
34.5019471049
 20
24.4203356342
 10
34.4981423348
 20
24.4781263155
 10
34.491927621
 20
24.5365068781
 10
34.4832802291
 20
24.5954984359
 10
34.4722228935
 20
24.6550798751
 10
34.4588238177
 20
24.7151878543
 10
34.4430531701
 20
24.7759865506
 10
34.4249407822
 20
24.837311787
 10
34.4046443528
 20
24.8986076907
 10
34.3821527371
 20
24.9598456332
 10
34.3574770799
 20
25.0210542432
 10
34.3308085135
 20
25.0817635332
 10
34.3021293128
 20
25.1419760865
 10
34.2714572031
 20
25.2016893199
 10
34.2390364916
 20
25.2604254962
 10
34.2048468338
 20
25.3181841005
 10
34.1689085743
 20
25.3749656477
 10
34.1315270552
 20
25.4302939451
 10
34.0928011604
 20
25.4840450753
 10
34.0526320059
 20
25.5363429558
 10
34.0110282816
 20
25.5870831467
 10
33.9678958266
 20
25.6363985121
 10
33.9233288018
 20
25.6841561879
 10
33.8776183801
 20
25.7298531422
 10
33.8306862032
 20
25.7735224531
 10
33.7826106295
 20
25.8151310425
 10
33.7339179067
 20
25.8540766445
 10
33.6847834507
 20
25.8901585037
 10
33.6350318455
 20
25.9235773753
 10
33.5846630913
 20
25.9543332596
  0
LINE
  5
2C9
100
AcDbEntity
  8
SMUSSO
100
AcDbLine
 62
7
  6
CONTINUOUS
 10
32.4721416985
 20
-70.4592153819
 11
32.4721416985
 21
24.2513367261
  0
LINE
  5
2CA
100
AcDbEntity
  8
SMUSSO
100
AcDbLine
 62
7
  6
CONTINUOUS
 10
33.8863552608
 20
-70.4592153819
 11
33.8863552608
 21
24.2513367261
  0
LINE
  5
2CB
100
AcDbEntity
  8
0
100
AcDbLine
 62
7
  6
CONTINUOUS
 10
34.0167142205
 20
24.7785818263
 11
34.0167142205
 21
-72.5309323951
  0
LINE
  5
2CC
100
AcDbEntity
  8
0
100
AcDbLine
 62
250
  6
CONTINUOUS
 10
34.1631608299
 20
24.5744445296
 11
34.1631608299
 21
-72.7350696916
  0
LINE
  5
2CD
100
AcDbEntity
  8
0
100
AcDbLine
 62
250
  6
CONTINUOUS
 10
34.5033419314
 20
-72.9165926054
 11
34.5033419314
 21
24.3631348343
  0
LINE
  5
2CE
100
AcDbEntity
  8
0
100
AcDbLine
 62
250
  6
CONTINUOUS
 10
35.197894502
 20
-72.9235925394
 11
35.197894502
 21
24.3561349004
  0
LWPOLYLINE
  5
2CF
100
AcDbEntity
  8
0
100
AcDbPolyline
 62
7
  6
CONTINUOUS
 90
7
 70
0
 10
34.0167142216
 20
-72.5309514723
 10
34.0165976007
 20
-72.5384314326
 10
34.0161681266
 20
-72.5465630336
 10
34.015567204
 20
-72.5527489853
 10
34.0149594484
 20
-72.5569812197
 10
34.0145355586
 20
-72.5591908694
 10
34.0145028444
 20
-72.5593355683
  0
LWPOLYLINE
  5
2D0
100
AcDbEntity
  8
0
100
AcDbPolyline
 62
250
  6
CONTINUOUS
 90
25
 70
0
 10
34.1631608299
 20
-72.7350696916
 10
34.1619328358
 20
-72.7767452182
 10
34.1584212554
 20
-72.8165428287
 10
34.1526260886
 20
-72.8544625232
 10
34.1445063467
 20
-72.8906287063
 10
34.1341030184
 20
-72.9249169733
 10
34.1215390702
 20
-72.9569541106
 10
34.1067880714
 20
-72.9867301113
 10
34.0898764526
 20
-73.0142549823
 10
34.0710064715
 20
-73.0391855313
 10
34.0501356161
 20
-73.0614947489
 10
34.0273063985
 20
-73.0812096445
 10
34.0028486131
 20
-73.0980680537
 10
33.9768717598
 20
-73.1120235854
 10
33.9492663389
 20
-73.1231226308
 10
33.9200336457
 20
-73.1312421996
 10
33.8890911656
 20
-73.1364434411
 10
33.8565214133
 20
-73.1386652059
 10
33.822573228
 20
-73.1376010558
 10
33.7870655983
 20
-73.1331496805
 10
33.7501795356
 20
-73.1254123902
 10
33.7127069132
 20
-73.114386678
 10
33.674911689
 20
-73.1000717081
 10
33.6365299051
 20
-73.0824683161
 10
33.5975615616
 20
-73.0615765022
  0
LWPOLYLINE
  5
2D1
100
AcDbEntity
  8
0
100
AcDbPolyline
 62
250
  6
CONTINUOUS
 90
19
 70
0
 10
33.5846630913
 20
25.9543332596
 10
33.5859493744
 20
25.9898672542
 10
33.5897988643
 20
26.0266280598
 10
33.596183551
 20
26.0643481931
 10
33.6050569773
 20
26.1027531904
 10
33.6163545775
 20
26.1415636049
 10
33.6299941466
 20
26.1804970397
 10
33.6458764388
 20
26.2192702028
 10
33.6638858896
 20
26.2576009685
 10
33.6838914565
 20
26.29521043
 10
33.7057475727
 20
26.331824929
 10
33.7292952061
 20
26.3671780467
 10
33.7543630167
 20
26.4010125428
 10
33.7807686033
 20
26.4330822267
 10
33.8083198304
 20
26.4631537494
 10
33.8368162266
 20
26.4910083008
 10
33.866050443
 20
26.5164432025
 10
33.8958097624
 20
26.539273382
 10
33.9258776465
 20
26.5593327199
  0
LWPOLYLINE
  5
2D2
100
AcDbEntity
  8
0
100
AcDbPolyline
 62
250
  6
CONTINUOUS
 90
19
 70
0
 10
33.5975615616
 20
-73.0615765022
 10
33.5988772263
 20
-73.0256311636
 10
33.6028144284
 20
-72.9884340524
 10
33.6093438653
 20
-72.950262009
 10
33.6184169414
 20
-72.9113991297
 10
33.6299661303
 20
-72.8721346524
 10
33.6439054767
 20
-72.832760804
 10
33.6601312367
 20
-72.7935706251
 10
33.6785226499
 20
-72.7548557896
 10
33.6989428376
 20
-72.7169044336
 10
33.7212398221
 20
-72.6799990108
 10
33.7452476576
 20
-72.6444141909
 10
33.7707876652
 20
-72.6104148146
 10
33.7976697629
 20
-72.578253923
 10
33.82569388
 20
-72.5481708744
 10
33.8546514463
 20
-72.5203895626
 10
33.8843269445
 20
-72.4951167506
 10
33.914499514
 20
-72.4725405318
 10
33.9449445947
 20
-72.4528289304
  0
LINE
  5
2D3
100
AcDbEntity
  8
SMUSSO
100
AcDbLine
 62
7
  6
CONTINUOUS
 10
32.4721416985
 20
24.2513367261
 11
-41.0669635449
 21
66.7118944322
  0
LWPOLYLINE
  5
2D4
100
AcDbEntity
  8
0
100
AcDbPolyline
 62
250
  6
CONTINUOUS
 90
11
 70
0
 10
-43.0981637779
 20
69.1692716556
 10
-43.1270086246
 20
69.1874116761
 10
-43.1530710208
 20
69.2069050715
 10
-43.1761613284
 20
69.2276100018
 10
-43.196111535
 20
69.2493758113
 10
-43.2127764765
 20
69.2720441252
 10
-43.2260348935
 20
69.2954500015
 10
-43.2357903137
 20
69.3194231319
 10
-43.2419717536
 20
69.3437890801
 10
-43.2445342349
 20
69.3683705519
 10
-43.2446103866
 20
69.3733931737
  0
LWPOLYLINE
  5
2D5
100
AcDbEntity
  8
0
100
AcDbPolyline
 62
250
  6
CONTINUOUS
 90
19
 70
0
 10
-42.7579826764
 20
68.9877487418
 10
-42.7261943245
 20
68.9709138428
 10
-42.6920112288
 20
68.9557235351
 10
-42.6556877979
 20
68.9422908728
 10
-42.6174943698
 20
68.9307158289
 10
-42.5777152002
 20
68.9210845506
 10
-42.5366463465
 20
68.9134687191
 10
-42.4945934648
 20
68.9079250152
 10
-42.4518695347
 20
68.904494698
 10
-42.4087925301
 20
68.9032032976
 10
-42.3656830525
 20
68.9040604252
 10
-42.3228619452
 20
68.9070597016
 10
-42.2806479053
 20
68.9121788044
 10
-42.2393551116
 20
68.9193796345
 10
-42.1992908868
 20
68.9286085995
 10
-42.1607534094
 20
68.9397970126
 10
-42.1240294956
 20
68.9528616037
 10
-42.0893924637
 20
68.9677051393
 10
-42.0571001006
 20
68.9842171459
  0
LWPOLYLINE
  5
2D6
100
AcDbEntity
  8
0
100
AcDbPolyline
 62
250
  6
CONTINUOUS
 90
19
 70
0
 10
34.5033419314
 20
24.3631348343
 10
34.5347590972
 20
24.3464803026
 10
34.568520228
 20
24.331432283
 10
34.6043796772
 20
24.3181002735
 10
34.6420765299
 20
24.3065812859
 10
34.6813364987
 20
24.2969591414
 10
34.7218739193
 20
24.2893038596
 10
34.7633938342
 20
24.283671148
 10
34.805594134
 20
24.2801019979
 10
34.8481677522
 20
24.2786223855
 10
34.8908049109
 20
24.2792430822
 10
34.9331953671
 20
24.2819595769
 10
34.9750306646
 20
24.2867521075
 10
35.0160063944
 20
24.2935858059
 10
35.0558243994
 20
24.3024109516
 10
35.0941949383
 20
24.3131633306
 10
35.1308388078
 20
24.325764706
 10
35.1654893736
 20
24.3401233883
 10
35.197894502
 20
24.3561349004
  0
LWPOLYLINE
  5
2D7
100
AcDbEntity
  8
0
100
AcDbPolyline
 62
250
  6
CONTINUOUS
 90
17
 70
0
 10
-41.8382703826
 20
70.3046022441
 10
-41.9062210989
 20
70.3410247776
 10
-41.9735205893
 20
70.3730569868
 10
-42.0399866191
 20
70.4006919243
 10
-42.1052836136
 20
70.4238864684
 10
-42.1694130563
 20
70.4427315165
 10
-42.2326908281
 20
70.4573488049
 10
-42.2951180197
 20
70.46771388
 10
-42.3563406015
 20
70.4737416173
 10
-42.4161294613
 20
70.4754015956
 10
-42.4742976994
 20
70.4726953141
 10
-42.5307173115
 20
70.4656366503
 10
-42.5852578003
 20
70.4542415967
 10
-42.6377784141
 20
70.4385380284
 10
-42.6881309177
 20
70.4185691494
 10
-42.7361805066
 20
70.394387312
 10
-42.7732228704
 20
70.3718220675
  0
LWPOLYLINE
  5
2D8
100
AcDbEntity
  8
SMUSSO
100
AcDbPolyline
 62
7
  6
CONTINUOUS
 90
15
 70
0
 10
-40.3598567638
 20
67.9366393023
 10
-40.4009653723
 20
67.9590004814
 10
-40.441937256
 20
67.9785219497
 10
-40.4826337668
 20
67.9951376599
 10
-40.5229184625
 20
68.008790661
 10
-40.5626537748
 20
68.0194354817
 10
-40.6017014704
 20
68.027038287
 10
-40.6399275775
 20
68.0315744174
 10
-40.6772046101
 20
68.033027451
 10
-40.7134082073
 20
68.0313914474
 10
-40.7484166201
 20
68.0266715079
 10
-40.7821106367
 20
68.0188840389
 10
-40.8143757597
 20
68.0080556721
 10
-40.8451026429
 20
67.9942231461
 10
-40.8598807646
 20
67.986180572
  0
LWPOLYLINE
  5
2D9
100
AcDbEntity
  8
0
100
AcDbPolyline
 62
250
  6
CONTINUOUS
 90
31
 70
0
 10
-42.1794849378
 20
69.6996027838
 10
-42.2283263989
 20
69.7261926763
 10
-42.2764736404
 20
69.7495990616
 10
-42.3239266624
 20
69.7698219396
 10
-42.3706923821
 20
69.7868390536
 10
-42.4167638823
 20
69.8006726603
 10
-42.4621204109
 20
69.8113895299
 10
-42.5068892368
 20
69.8190287003
 10
-42.5509430913
 20
69.8235511335
 10
-42.5938794157
 20
69.8249064861
 10
-42.6356678435
 20
69.8230643566
 10
-42.6763387414
 20
69.8180551465
 10
-42.7155806506
 20
69.8099197171
 10
-42.7533869452
 20
69.7986337763
 10
-42.7897642512
 20
69.7842216161
 10
-42.8244209884
 20
69.7667969749
 10
-42.8573465374
 20
69.7463302298
 10
-42.8885515176
 20
69.7228510036
 10
-42.9177762064
 20
69.696561903
 10
-42.9449627316
 20
69.6675436908
 10
-42.9701689654
 20
69.6357156043
 10
-42.9933088028
 20
69.6010379613
 10
-43.0144502261
 20
69.5634412896
 10
-43.033525253
 20
69.5229950614
 10
-43.0502438316
 20
69.479868011
 10
-43.0645954262
 20
69.4339635779
 10
-43.0765905725
 20
69.3853783225
 10
-43.0859708253
 20
69.334570661
 10
-43.0926500363
 20
69.2816933987
 10
-43.0967143538
 20
69.2265937302
 10
-43.0981637779
 20
69.1692716556
  0
LINE
  5
2DA
100
AcDbEntity
  8
SMUSSO
100
AcDbLine
 62
7
  6
CONTINUOUS
 10
33.1792484796
 20
25.4760815962
 11
-40.3598567638
 21
67.9366393023
  0
LINE
  5
2DB
100
AcDbEntity
  8
0
100
AcDbLine
 62
7
  6
CONTINUOUS
 10
-42.0888420976
 20
69.0853871219
 11
33.7011028723
 21
25.3252227674
  0
LINE
  5
2DC
100
AcDbEntity
  8
0
100
AcDbLine
 62
250
  6
CONTINUOUS
 10
-42.1923834081
 20
69.3142555525
 11
33.5975615616
 21
25.5540911981
  0
LINE
  5
2DD
100
AcDbEntity
  8
0
100
AcDbLine
 62
250
  6
CONTINUOUS
 10
33.5846630913
 20
25.9543332596
 11
-42.1794849378
 21
69.6996027838
  0
LINE
  5
2DE
100
AcDbEntity
  8
0
100
AcDbLine
 62
250
  6
CONTINUOUS
 10
33.9258776465
 20
26.5593327199
 11
-41.8382703826
 21
70.3046022441
  0
LWPOLYLINE
  5
2DF
100
AcDbEntity
  8
0
100
AcDbPolyline
 62
7
  6
CONTINUOUS
 90
31
 70
0
 10
33.7010917906
 20
25.3252291664
 10
33.7035023269
 20
25.3238201286
 10
33.7140184466
 20
25.3172896289
 10
33.7258657211
 20
25.3092423688
 10
33.7389047023
 20
25.2996066815
 10
33.7530023938
 20
25.2883232137
 10
33.7679917311
 20
25.2753744344
 10
33.7837327049
 20
25.2607329299
 10
33.8000648433
 20
25.2444058568
 10
33.8167956112
 20
25.2264549823
 10
33.8337892139
 20
25.2068965364
 10
33.8508552484
 20
25.1858261463
 10
33.8677297672
 20
25.1634747508
 10
33.8842630148
 20
25.1399652223
 10
33.9003055094
 20
25.1154380959
 10
33.9156286095
 20
25.090203736
 10
33.9301177034
 20
25.0644444949
 10
33.9436720242
 20
25.0383383741
 10
33.9561360222
 20
25.0122218614
 10
33.9674556644
 20
24.9862903561
 10
33.9775873841
 20
24.9607397927
 10
33.9864524987
 20
24.935916207
 10
33.9940605811
 20
24.9120146479
 10
34.0004465857
 20
24.8891938337
 10
34.0056285924
 20
24.8677268758
 10
34.0096761408
 20
24.8477876919
 10
34.0126923003
 20
24.8294531368
 10
34.0147786592
 20
24.8128356924
 10
34.016049454
 20
24.798028798
 10
34.0166340002
 20
24.7851095499
 10
34.016714221
 20
24.7785693207
  0
LWPOLYLINE
  5
2E0
100
AcDbEntity
  8
0
100
AcDbPolyline
 62
250
  6
CONTINUOUS
 90
25
 70
0
 10
33.5975615616
 20
25.5540911981
 10
33.6342688455
 20
25.5314789526
 10
33.6704916575
 20
25.5065096617
 10
33.7062299977
 20
25.4791833254
 10
33.7416121034
 20
25.4493785727
 10
33.7765097372
 20
25.4172167746
 10
33.8105381871
 20
25.3830620436
 10
33.8437020031
 20
25.3468812344
 10
33.8759966353
 20
25.3087074923
 10
33.907023722
 20
25.269004366
 10
33.9367811299
 20
25.227724
 10
33.9652709923
 20
25.1849142499
 10
33.9921013479
 20
25.1411822307
 10
34.0171772642
 20
25.0967091908
 10
34.0405936736
 20
25.0513138819
 10
34.0622434123
 20
25.005059675
 10
34.0822206999
 20
24.9577968922
 10
34.1004313167
 20
24.9096752113
 10
34.1164854392
 20
24.8612070372
 10
34.1303858416
 20
24.8121817608
 10
34.1421297496
 20
24.7628099912
 10
34.1513190171
 20
24.7142359601
 10
34.1578209286
 20
24.6668410781
 10
34.1617681995
 20
24.6202439346
 10
34.1631608299
 20
24.5744445296
  0
LWPOLYLINE
  5
2E1
100
AcDbEntity
  8
0
100
AcDbPolyline
 62
250
  6
CONTINUOUS
 90
11
 70
0
 10
34.1631608299
 20
24.5744445296
 10
34.1340038112
 20
24.5927987234
 10
34.1076951236
 20
24.6125356122
 10
34.0844305701
 20
24.6335083039
 10
34.0643832978
 20
24.6555607086
 10
34.0477025088
 20
24.6785287008
 10
34.0345123505
 20
24.7022413408
 10
34.0249109907
 20
24.7265221466
 10
34.018969888
 20
24.7511904077
 10
34.016733259
 20
24.7760625302
 10
34.016714221
 20
24.7785693207
  0
LINE
  5
2E2
100
AcDbEntity
  8
0
100
AcDbLine
 62
7
  6
CONTINUOUS
 10
43.1140987553
 20
-68.969754511
 11
43.1140987553
 21
28.9268222144
  0
LINE
  5
2E3
100
AcDbEntity
  8
0
100
AcDbLine
 62
7
  6
CONTINUOUS
 10
18.7542701434
 20
45.5645488375
 11
17.6867125335
 21
45.5262834951
  0
LINE
  5
2E4
100
AcDbEntity
  8
0
100
AcDbLine
 62
7
  6
CONTINUOUS
 10
41.8420818998
 20
31.1300200339
 11
-34.4562904915
 21
75.1837440094
  0
LINE
  5
2E5
100
AcDbEntity
  8
SUPERFICI
100
AcDbLine
 62
7
  6
CONTINUOUS
 10
-20.3840901952
 20
67.5078878514
 11
31.3054155095
 21
37.6630150791
  0
LWPOLYLINE
  5
2E6
100
AcDbEntity
  8
SUPERFICI
100
AcDbPolyline
 62
7
  6
CONTINUOUS
 90
10
 70
0
 10
31.3054155095
 20
37.6630150791
 10
31.5467536423
 20
37.5175122049
 10
31.786723127
 20
37.3607957893
 10
32.0253239635
 20
37.1928658324
 10
32.263004562
 20
37.0133604385
 10
32.4993165123
 20
36.8226415032
 10
32.7329145843
 20
36.6217947138
 10
32.9637832995
 20
36.4107623069
 10
33.1919381364
 20
36.1896020459
 10
33.3369609716
 20
36.0407702636
  0
LWPOLYLINE
  5
2E7
100
AcDbEntity
  8
0
100
AcDbPolyline
 62
7
  6
CONTINUOUS
 90
9
 70
0
 10
-42.1097420899
 20
69.0967469462
 10
-42.1124717422
 20
69.0972235307
 10
-42.1145138439
 20
69.0976753928
 10
-42.1144336147
 20
69.0976420883
 10
-42.1123293738
 20
69.0969130565
 10
-42.1083863626
 20
69.0953364773
 10
-42.1027592059
 20
69.0927820925
 10
-42.0955368294
 20
69.089111967
 10
-42.0888565068
 20
69.0853954426
  0
LWPOLYLINE
  5
2E8
100
AcDbEntity
  8
SUPERFICI
100
AcDbPolyline
 62
7
  6
CONTINUOUS
 90
10
 70
0
 10
-22.4156356574
 20
68.2316208131
 10
-22.2706128222
 20
68.2129838604
 10
-22.0424579853
 20
68.1706766346
 10
-21.81158927
 20
68.1151076361
 10
-21.577991198
 20
68.0462012272
 10
-21.3416792477
 20
67.9640330457
 10
-21.1039986492
 20
67.8690708422
 10
-20.8653978127
 20
67.7614705338
 10
-20.625428328
 20
67.6410762036
 10
-20.3840901952
 20
67.5078878514
  0
LINE
  5
2E9
100
AcDbEntity
  8
SMUSSO
100
AcDbLine
 62
250
  6
CONTINUOUS
 10
33.8863552608
 20
-70.4592153819
 11
34.0167142205
 21
-70.3839477524
  0
LINE
  5
2EA
100
AcDbEntity
  8
0
100
AcDbLine
 62
250
  6
CONTINUOUS
 10
34.0167142205
 20
-72.4084455173
 11
33.9449445947
 21
-72.4528289304
  0
LWPOLYLINE
  5
2EB
100
AcDbEntity
  8
SMUSSO
100
AcDbPolyline
 62
7
  6
CONTINUOUS
 90
15
 70
0
 10
33.6792727991
 20
-70.916952151
 10
33.6935794219
 20
-70.908204804
 10
33.7209237662
 20
-70.8885142115
 10
33.7464354148
 20
-70.865989442
 10
33.7700279698
 20
-70.8407067554
 10
33.7916213479
 20
-70.8127518467
 10
33.811141912
 20
-70.7822196367
 10
33.8285241803
 20
-70.7492131079
 10
33.8437107954
 20
-70.7138431014
 10
33.8566520426
 20
-70.6762283328
 10
33.8673024737
 20
-70.6364970364
 10
33.8756225169
 20
-70.5947856914
 10
33.8815828448
 20
-70.5512361143
 10
33.8851644695
 20
-70.5059949818
 10
33.8863552608
 20
-70.4592153819
  0
LINE
  5
2EC
100
AcDbEntity
  8
RACCORDO
100
AcDbLine
 62
7
  6
CONTINUOUS
 10
33.6792726398
 20
-70.916952243
 11
34.0167142205
 21
-70.7221177035
  0
LWPOLYLINE
  5
2ED
100
AcDbEntity
  8
0
100
AcDbPolyline
 62
250
  6
CONTINUOUS
 90
17
 70
0
 10
34.7886680842
 20
-73.7667815987
 10
34.8135880975
 20
-73.7535714095
 10
34.8592459908
 20
-73.7252168785
 10
34.9024426874
 20
-73.6927335359
 10
34.9430454322
 20
-73.6562248223
 10
34.9808571883
 20
-73.6158993633
 10
35.0158835574
 20
-73.5717838764
 10
35.0482525571
 20
-73.5236494738
 10
35.0778816779
 20
-73.4714345101
 10
35.1045550868
 20
-73.4153128445
 10
35.1281460396
 20
-73.3553460854
 10
35.1485395418
 20
-73.2915582236
 10
35.1655789575
 20
-73.2241322412
 10
35.179111534
 20
-73.1534172686
 10
35.1890484099
 20
-73.0796632147
 10
35.1953304352
 20
-73.0029882648
 10
35.197894502
 20
-72.9235925394
  0
LINE
  5
2EE
100
AcDbEntity
  8
0
100
AcDbLine
 62
7
  6
CONTINUOUS
 10
34.7882832237
 20
-73.7669739939
 11
42.7097550586
 21
-69.8105050122
  0
ELLIPSE
  5
2EF
100
AcDbEntity
  8
0
100
AcDbEllipse
 62
7
  6
CONTINUOUS
 10
41.8405307259
 20
-68.2326212088
 30
0.0
 11
-0.9011402283
 21
1.5607204717
 31
0.0
 40
0.5766289216
 41
-3.1764551052
 42
-2.3568516818
  0
ELLIPSE
  5
2F0
100
AcDbEntity
  8
0
100
AcDbEllipse
 62
7
  6
CONTINUOUS
 10
41.8405307259
 20
29.6603733494
 30
0.0
 11
-0.9000436475
 21
1.5588205261
 31
0.0
 40
0.5780352736
 41
-2.355633942
 42
-0.7860555904
  0
ELLIPSE
  5
2F1
100
AcDbEntity
  8
0
100
AcDbEllipse
 62
7
  6
CONTINUOUS
 10
-34.4547393176
 20
73.7123060682
 30
0.0
 11
-0.9011402283
 21
1.5607204717
 31
0.0
 40
0.5766289216
 41
-0.7848373798
 42
0.0348624516
  0
ENDSEC
  0
SECTION
  2
OBJECTS
  0
DICTIONARY
  5
C
100
AcDbDictionary
280
0
281
1
  3
ACAD_GROUP
350
D
  3
ACAD_MLINESTYLE
350
17
  3
ACAD_LAYOUT
350
1A
  3
ACAD_PLOTSETTINGS
350
19
  3
ACAD_PLOTSTYLENAME
350
E
  0
DICTIONARY
  5
D
102
{ACAD_REACTORS
330
C
102
}
100
AcDbDictionary
280
0
281
1
  0
ACDBDICTIONARYWDFLT
  5
E
102
{ACAD_REACTORS
330
C
102
}
100
AcDbDictionary
281
1
  3
Normal
350
F
100
AcDbDictionaryWithDefault
340
F
  0
DICTIONARY
  5
17
102
{ACAD_REACTORS
330
C
102
}
100
AcDbDictionary
280
0
281
1
  3
Standard
350
18
  0
DICTIONARY
  5
19
102
{ACAD_REACTORS
330
C
102
}
100
AcDbDictionary
281
1
  0
DICTIONARY
  5
1A
102
{ACAD_REACTORS
330
C
102
}
100
AcDbDictionary
281
1
  3
Model
350
2F2
  3
Layout1
350
2F3
  0
ACDBPLACEHOLDER
  5
F
102
{ACAD_REACTORS
330
E
102
}
  0
MLINESTYLE
  5
18
102
{ACAD_REACTORS
330
17
102
}
100
AcDbMlineStyle
  2
STANDARD
 70
0
  3

 62
256
 51
90.0
 52
90.0
 71
2
 49
0.5
 62
256
  6
BYLAYER
 49
-0.5
 62
256
  6
BYLAYER
  0
LAYOUT
  5
2F2
102
{ACAD_REACTORS
330
1A
102
}
100
AcDbPlotSettings
  1

  2
none_device
  4
ISO_A4_(297.00_x_210.00_MM)
  6

 40
0.0
 41
0.0
 42
0.0
 43
0.0
 44
297.0
 45
210.0
 46
0.0
 47
0.0
 48
0.0
 49
0.0
140
0.0
141
0.0
142
1.0
143
1.0
 70
1024
 72
1
 73
0
 74
0
  7

 75
0
147
1.0
148
0.0
149
0.0
100
AcDbLayout
  1
Model
 70
0
 71
0
 10
0.0
 20
0.0
 11
297.0
 21
210.0
 12
0.0
 22
0.0
 32
0.0
 14
0.0
 24
0.0
 34
0.0
 15
0.0
 25
0.0
 35
0.0
146
0.0
 13
0.0
 23
0.0
 33
0.0
 16
1.0
 26
0.0
 36
0.0
 17
0.0
 27
1.0
 37
0.0
 76
0
330
23D
345
0
346
0
  0
LAYOUT
  5
2F3
102
{ACAD_REACTORS
330
1A
102
}
100
AcDbPlotSettings
  1

  2
none_device
  4
ISO_A4_(297.00_x_210.00_MM)
  6

 40
0.0
 41
0.0
 42
0.0
 43
0.0
 44
297.0
 45
210.0
 46
0.0
 47
0.0
 48
0.0
 49
0.0
140
0.0
141
0.0
142
1.0
143
1.0
 70
0
 72
1
 73
0
 74
0
  7

 75
0
147
1.0
148
0.0
149
0.0
100
AcDbLayout
  1
Layout1
 70
0
 71
1
 10
0.0
 20
0.0
 11
297.0
 21
210.0
 12
0.0
 22
0.0
 32
0.0
 14
0.0
 24
0.0
 34
0.0
 15
0.0
 25
0.0
 35
0.0
146
0.0
 13
0.0
 23
0.0
 33
0.0
 16
1.0
 26
0.0
 36
0.0
 17
0.0
 27
1.0
 37
0.0
 76
0
330
23E
345
0
346
0
  0
ENDSEC
  0
EOF
