  0
SECTION
  2
HEADER
  9
$ACADVER
  1
AC1015
  9
$DWGCODEPAGE
  3
ANSI_1252
  9
$EXTMAX
 10
297.0
 20
210.0
 30
0.0
  9
$EXTMIN
 10
0.0
 20
0.0
 30
0.0
  9
$LIMMIN
 10
0.0
 20
0.0
  9
$LIMMAX
 10
297.0
 20
210.0
  9
$VIEWCTR
 10
148.5
 20
105.0
  9
$VIEWSIZE
 40
210.0
  9
$CLAYER
  8
0
  9
$LTSCALE
 40
16.335
  9
$CELTYPE
  6
BYLAYER
  9
$DIMSCALE
 40
1.0
  9
$DIMASZ
 40
3.0
  9
$DIMEXO
 40
1.85625
  9
$DIMDLI
 40
11.286
  9
$DIMEXE
 40
5.346
  9
$DIMCEN
 40
2.673
  9
$DIMLFAC
 40
1.0
  9
$DIMBLK
  1
_FILLED
  9
$DIMTXT
 40
3.0
  9
$DIMTOL
 70
1
  9
$DIMLIM
 70
0
  9
$DIMTFAC
 40
1.0
  9
$DIMTP
 40
0.01
  9
$DIMTM
 40
0.01
  9
$PDMODE
 70
3
  9
$PDSIZE
 40
3.0
  9
$HANDSEED
  5
4DC
  9
$TILEMODE
 70
1
  9
$MEASUREMENT
 70
1
  9
$INSUNITS
 70
4
  0
ENDSEC
  0
SECTION
  2
CLASSES
  0
CLASS
  1
ACDBDICTIONARYWDFLT
  2
AcDbDictionaryWithDefault
  3
AutoCAD 2000
 90
0
280
0
281
0
  0
CLASS
  1
ACDBPLACEHOLDER
  2
AcDbPlaceHolder
  3
AutoCAD 2000
 90
0
280
0
281
0
  0
CLASS
  1
LAYOUT
  2
AcDbLayout
  3
AutoCAD 2000
 90
0
280
0
281
0
  0
ENDSEC
  0
SECTION
  2
TABLES
  0
TABLE
  2
VPORT
  5
8
100
AcDbSymbolTable
 70
2
  0
VPORT
  5
1F4
100
AcDbSymbolTableRecord
100
AcDbViewportTableRecord
  2
*ACTIVE
 70
0
 10
0.0
 20
0.0
 11
1.0
 21
1.0
 12
148.5
 22
105.0
 13
0.0
 23
0.0
 14
1.0
 24
1.0
 15
0.0
 25
0.0
 16
0.0
 26
0.0
 36
1.0
 17
0.0
 27
0.0
 37
0.0
 40
210.0
 41
1.4142857143
 42
50.0
 43
0.0
 44
0.0
 50
0.0
 51
0.0
 71
0
 72
100
 73
1
 74
1
 75
0
 76
0
 77
0
 78
0
  0
ENDTAB
  0
TABLE
  2
LTYPE
  5
5
100
AcDbSymbolTable
 70
6
  0
LTYPE
  5
14
100
AcDbSymbolTableRecord
100
AcDbLinetypeTableRecord
  2
BYBLOCK
 70
0
  3

 72
65
 73
0
 40
0.0
  0
LTYPE
  5
15
100
AcDbSymbolTableRecord
100
AcDbLinetypeTableRecord
  2
BYLAYER
 70
0
  3

 72
65
 73
0
 40
0.0
  0
LTYPE
  5
16
100
AcDbSymbolTableRecord
100
AcDbLinetypeTableRecord
  2
CONTINUOUS
 70
64
  3
Solid line
 72
65
 73
0
 40
0.0
  0
LTYPE
  5
1F5
100
AcDbSymbolTableRecord
100
AcDbLinetypeTableRecord
  2
CENTER
 70
64
  3
____ _ ____ _ ____ _ ____ _ ____ _ ____ _ ____
 72
65
 73
4
 40
0.6
 49
0.375
 74
0
 49
-0.075
 74
0
 49
0.075
 74
0
 49
-0.075
 74
0
  0
LTYPE
  5
1F6
100
AcDbSymbolTableRecord
100
AcDbLinetypeTableRecord
  2
HIDDEN
 70
64
  3
- - - - - - - - - - - - - - - - - - - -
 72
65
 73
2
 40
0.2
 49
0.1
 74
0
 49
-0.1
 74
0
  0
LTYPE
  5
1F7
100
AcDbSymbolTableRecord
100
AcDbLinetypeTableRecord
  2
PHANTOM
 70
64
  3
_____ _ _ _____ _ _ _____ _ _ _____
 72
65
 73
6
 40
0.8
 49
0.45
 74
0
 49
-0.05
 74
0
 49
0.1
 74
0
 49
-0.05
 74
0
 49
0.1
 74
0
 49
-0.05
 74
0
  0
LTYPE
  5
1F8
100
AcDbSymbolTableRecord
100
AcDbLinetypeTableRecord
  2
DOT
 70
64
  3
. . . . . . . . . . . . . . . . . . . .
 72
65
 73
2
 40
0.2
 49
0.1
 74
0
 49
-0.1
 74
0
  0
LTYPE
  5
1F9
100
AcDbSymbolTableRecord
100
AcDbLinetypeTableRecord
  2
DASHED
 70
64
  3
- - - - - - - - - - - - - - - - - - - -
 72
65
 73
2
 40
0.2
 49
0.1
 74
0
 49
-0.1
 74
0
  0
ENDTAB
  0
TABLE
  2
LAYER
  5
2
100
AcDbSymbolTable
 70
36
  0
LAYER
  5
10
100
AcDbSymbolTableRecord
100
AcDbLayerTableRecord
  2
0
 70
0
 62
7
  6
CONTINUOUS
370
-3
390
F
  0
LAYER
  5
1FA
100
AcDbSymbolTableRecord
100
AcDbLayerTableRecord
  2
DEFAULT_1
 70
0
 62
7
  6
CENTER
370
-3
390
F
  0
LAYER
  5
1FB
100
AcDbSymbolTableRecord
100
AcDbLayerTableRecord
  2
DEFAULT_2
 70
0
 62
7
  6
HIDDEN
370
-3
390
F
  0
LAYER
  5
1FC
100
AcDbSymbolTableRecord
100
AcDbLayerTableRecord
  2
DEFAULT_3
 70
0
 62
7
  6
PHANTOM
370
-3
390
F
  0
LAYER
  5
1FD
100
AcDbSymbolTableRecord
100
AcDbLayerTableRecord
  2
ASSI
 70
0
 62
7
  6
CONTINUOUS
370
-3
390
F
  0
LAYER
  5
1FE
100
AcDbSymbolTableRecord
100
AcDbLayerTableRecord
  2
COLOR5
 70
0
 62
7
  6
CONTINUOUS
370
-3
390
F
  0
LAYER
  5
1FF
100
AcDbSymbolTableRecord
100
AcDbLayerTableRecord
  2
COORDINATE
 70
0
 62
7
  6
CONTINUOUS
370
-3
390
F
  0
LAYER
  5
200
100
AcDbSymbolTableRecord
100
AcDbLayerTableRecord
  2
COORD_ORIGINE
 70
0
 62
7
  6
CONTINUOUS
370
-3
390
F
  0
LAYER
  5
201
100
AcDbSymbolTableRecord
100
AcDbLayerTableRecord
  2
COPY_PUBLISH
 70
0
 62
7
  6
CONTINUOUS
370
-3
390
F
  0
LAYER
  5
202
100
AcDbSymbolTableRecord
100
AcDbLayerTableRecord
  2
COSMETIC
 70
0
 62
7
  6
CONTINUOUS
370
-3
390
F
  0
LAYER
  5
203
100
AcDbSymbolTableRecord
100
AcDbLayerTableRecord
  2
CURVE
 70
0
 62
7
  6
CONTINUOUS
370
-3
390
F
  0
LAYER
  5
204
100
AcDbSymbolTableRecord
100
AcDbLayerTableRecord
  2
DRAFT
 70
0
 62
7
  6
CONTINUOUS
370
-3
390
F
  0
LAYER
  5
205
100
AcDbSymbolTableRecord
100
AcDbLayerTableRecord
  2
IMPORT_IGES
 70
0
 62
7
  6
CONTINUOUS
370
-3
390
F
  0
LAYER
  5
206
100
AcDbSymbolTableRecord
100
AcDbLayerTableRecord
  2
INTF_1
 70
0
 62
7
  6
CONTINUOUS
370
-3
390
F
  0
LAYER
  5
207
100
AcDbSymbolTableRecord
100
AcDbLayerTableRecord
  2
INTF_2
 70
0
 62
7
  6
CONTINUOUS
370
-3
390
F
  0
LAYER
  5
208
100
AcDbSymbolTableRecord
100
AcDbLayerTableRecord
  2
NOTE
 70
0
 62
7
  6
CONTINUOUS
370
-3
390
F
  0
LAYER
  5
209
100
AcDbSymbolTableRecord
100
AcDbLayerTableRecord
  2
PIANI
 70
0
 62
7
  6
CONTINUOUS
370
-3
390
F
  0
LAYER
  5
20A
100
AcDbSymbolTableRecord
100
AcDbLayerTableRecord
  2
PIANI_ORIGINE
 70
0
 62
7
  6
CONTINUOUS
370
-3
390
F
  0
LAYER
  5
20B
100
AcDbSymbolTableRecord
100
AcDbLayerTableRecord
  2
PUNTI
 70
0
 62
7
  6
CONTINUOUS
370
-3
390
F
  0
LAYER
  5
20C
100
AcDbSymbolTableRecord
100
AcDbLayerTableRecord
  2
PUNZONI
 70
0
 62
7
  6
CONTINUOUS
370
-3
390
F
  0
LAYER
  5
20D
100
AcDbSymbolTableRecord
100
AcDbLayerTableRecord
  2
RACCORDO
 70
0
 62
7
  6
CONTINUOUS
370
-3
390
F
  0
LAYER
  5
20E
100
AcDbSymbolTableRecord
100
AcDbLayerTableRecord
  2
RGB__0__0__0__
 70
0
 62
7
  6
CONTINUOUS
370
-3
390
F
  0
LAYER
  5
20F
100
AcDbSymbolTableRecord
100
AcDbLayerTableRecord
  2
RGB__255__255__255__
 70
0
 62
7
  6
CONTINUOUS
370
-3
390
F
  0
LAYER
  5
210
100
AcDbSymbolTableRecord
100
AcDbLayerTableRecord
  2
RGB____0____0____0__
 70
0
 62
7
  6
CONTINUOUS
370
-3
390
F
  0
LAYER
  5
211
100
AcDbSymbolTableRecord
100
AcDbLayerTableRecord
  2
SMUSSO
 70
0
 62
7
  6
CONTINUOUS
370
-3
390
F
  0
LAYER
  5
212
100
AcDbSymbolTableRecord
100
AcDbLayerTableRecord
  2
SNAPLINE
 70
0
 62
7
  6
CONTINUOUS
370
-3
390
F
  0
LAYER
  5
213
100
AcDbSymbolTableRecord
100
AcDbLayerTableRecord
  2
SUPERFICI
 70
0
 62
7
  6
CONTINUOUS
370
-3
390
F
  0
LAYER
  5
214
100
AcDbSymbolTableRecord
100
AcDbLayerTableRecord
  2
TRASH
 70
0
 62
7
  6
CONTINUOUS
370
-3
390
F
  0
LAYER
  5
215
100
AcDbSymbolTableRecord
100
AcDbLayerTableRecord
  2
XSEC_DATUMS
 70
0
 62
7
  6
CONTINUOUS
370
-3
390
F
  0
ENDTAB
  0
TABLE
  2
STYLE
  5
3
100
AcDbSymbolTable
 70
1
  0
STYLE
  5
11
100
AcDbSymbolTableRecord
100
AcDbTextStyleTableRecord
  2
STANDARD
 70
0
 40
0.0
 41
0.8
 50
0.0
 71
0
 42
0.2
  3
txt
  4

  0
STYLE
  5
216
100
AcDbSymbolTableRecord
100
AcDbTextStyleTableRecord
  2
TEXTSTYLE_1
 70
0
 40
0.0
 41
0.8
 50
0.0
 71
0
 42
0.2
  3
gdt
  4

  0
ENDTAB
  0
TABLE
  2
VIEW
  5
6
100
AcDbSymbolTable
 70
0
  0
ENDTAB
  0
TABLE
  2
UCS
  5
7
100
AcDbSymbolTable
 70
0
  0
ENDTAB
  0
TABLE
  2
APPID
  5
9
100
AcDbSymbolTable
 70
1
  0
APPID
  5
217
100
AcDbSymbolTableRecord
100
AcDbRegAppTableRecord
  2
ACAD
 70
0
  0
ENDTAB
  0
TABLE
  2
BLOCK_RECORD
  5
1
100
AcDbSymbolTable
 70
0
  0
BLOCK_RECORD
  5
218
100
AcDbSymbolTableRecord
100
AcDbBlockTableRecord
  2
*Model_Space
  0
BLOCK_RECORD
  5
219
100
AcDbSymbolTableRecord
100
AcDbBlockTableRecord
  2
*Paper_Space
  0
ENDTAB
  0
TABLE
  2
DIMSTYLE
  5
A
100
AcDbSymbolTable
 70
1
100
AcDbDimStyleTable
 71
0
  0
DIMSTYLE
105
21A
100
AcDbSymbolTableRecord
100
AcDbDimStyleTableRecord
  2
STANDARD
 70
0
  3

  4

 40
1.0
 41
3.0
 42
0.0625
 43
0.38
 44
0.18
 45
0.0
 46
0.0
 47
0.01
 48
0.01
140
3.0
141
0.09
142
0.0
143
25.4
144
1.0
145
0.0
146
1.0
147
0.09
 71
1.0
 72
0.0
 73
0
 74
0
 75
0
 76
0
 77
1
 78
8
170
0
171
2
172
0
173
0
174
0
175
0
176
0
177
0
178
0
270
2
271
2
272
2
273
2
274
2
275
0
280
0
281
0
282
0
283
1
284
8
285
0
286
0
287
3
288
0
340
11
  0
ENDTAB
  0
ENDSEC
  0
SECTION
  2
BLOCKS
  0
BLOCK
  5
20
100
AcDbEntity
  8
0
100
AcDbBlockBegin
  2
*Model_Space
 70
0
 10
0.0
 20
0.0
 30
0.0
  3
*Model_Space
  1

  0
ENDBLK
  5
21
100
AcDbEntity
  8
0
100
AcDbBlockEnd
  0
BLOCK
  5
1C
100
AcDbEntity
  8
0
100
AcDbBlockBegin
  2
*Paper_Space
 70
0
 10
0.0
 20
0.0
 30
0.0
  3
*Paper_Space
  1

  0
ENDBLK
  5
1D
100
AcDbEntity
  8
0
100
AcDbBlockEnd
  0
ENDSEC
  0
SECTION
  2
ENTITIES
  0
LWPOLYLINE
  5
21B
100
AcDbEntity
  8
RACCORDO
100
AcDbPolyline
 62
7
  6
CONTINUOUS
 90
5
 70
0
 10
-42.368854589
 20
-41.7829036616
 10
-42.2387749405
 20
-41.8391765649
 10
-42.1065406747
 20
-41.8869098888
 10
-41.9724743894
 20
-41.9261120483
 10
-41.8433200851
 20
-41.9555448033
  0
LWPOLYLINE
  5
21C
100
AcDbEntity
  8
RACCORDO
100
AcDbPolyline
 62
7
  6
CONTINUOUS
 90
28
 70
0
 10
-41.6923084361
 20
35.8227483302
 10
-41.78105088
 20
35.7654247734
 10
-41.929756081
 20
35.6592605867
 10
-42.0760029447
 20
35.5418164086
 10
-42.2201120742
 20
35.4125378974
 10
-42.3615203414
 20
35.2716163168
 10
-42.4988962674
 20
35.1202885136
 10
-42.6322310324
 20
34.9586114003
 10
-42.7615950152
 20
34.7865072404
 10
-42.8859220132
 20
34.605504806
 10
-43.0052229883
 20
34.415823092
 10
-43.119513196
 20
34.2176412616
 10
-43.2278040905
 20
34.0129927526
 10
-43.3300634963
 20
33.8024627312
 10
-43.4263788301
 20
33.586344191
 10
-43.5160575625
 20
33.3667720866
 10
-43.5989112835
 20
33.1451086571
 10
-43.6753237702
 20
32.9211643003
 10
-43.745493059
 20
32.6950169868
 10
-43.8093645888
 20
32.4674743182
 10
-43.867038832
 20
32.2387459816
 10
-43.9188051567
 20
32.0080388983
 10
-43.9645710222
 20
31.7758228794
 10
-44.0042414989
 20
31.5425360972
 10
-44.0379002961
 20
31.3072874167
 10
-44.0653803497
 20
31.0700579005
 10
-44.086396857
 20
30.8318025962
 10
-44.0974078811
 20
30.6598280151
  0
LINE
  5
21D
100
AcDbEntity
  8
RACCORDO
100
AcDbLine
 62
7
  6
CONTINUOUS
 10
-41.6921413843
 20
35.8228544088
 11
-41.6923094619
 21
35.8227499806
  0
LINE
  5
21E
100
AcDbEntity
  8
RACCORDO
100
AcDbLine
 62
7
  6
CONTINUOUS
 10
-33.2573839685
 20
41.0622846298
 11
-41.6921413807
 21
35.822854411
  0
LINE
  5
21F
100
AcDbEntity
  8
RACCORDO
100
AcDbLine
 62
253
  6
CONTINUOUS
 10
-32.4749871313
 20
41.1921263123
 11
-40.9071435539
 21
35.954311754
  0
LINE
  5
220
100
AcDbEntity
  8
RACCORDO
100
AcDbLine
 62
7
  6
CONTINUOUS
 10
-33.239453726
 20
41.0731260232
 11
-32.639453726
 21
41.4285637825
  0
LINE
  5
221
100
AcDbEntity
  8
RACCORDO
100
AcDbLine
 62
253
  6
CONTINUOUS
 10
-32.4749376679
 20
41.192116545
 11
-31.8749376679
 21
41.5475543043
  0
LINE
  5
222
100
AcDbEntity
  8
RACCORDO
100
AcDbLine
 62
7
  6
CONTINUOUS
 10
-32.6214877045
 20
41.4389907112
 11
-12.820576946
 21
52.6161703024
  0
LINE
  5
223
100
AcDbEntity
  8
RACCORDO
100
AcDbLine
 62
253
  6
CONTINUOUS
 10
-31.8749871313
 20
41.5475640716
 11
-12.0758016461
 21
52.723764918
  0
LINE
  5
224
100
AcDbEntity
  8
0
100
AcDbLine
 62
7
  6
CONTINUOUS
 10
-34.5185548658
 20
-37.9475845738
 11
-34.6590034542
 21
-37.8239372101
  0
LINE
  5
225
100
AcDbEntity
  8
0
100
AcDbLine
 62
7
  6
CONTINUOUS
 10
-35.8689560714
 20
-36.0005705976
 11
-35.77388312
 21
-36.1154712549
  0
LWPOLYLINE
  5
226
100
AcDbEntity
  8
RACCORDO
100
AcDbPolyline
 62
7
  6
CONTINUOUS
 90
23
 70
0
 10
-44.0970998077
 20
-38.5167559074
 10
-44.0860483667
 20
-38.6769678256
 10
-44.0641629683
 20
-38.9011901481
 10
-44.0353466603
 20
-39.1183770933
 10
-43.9997374281
 20
-39.3285108906
 10
-43.957493331
 20
-39.5314315423
 10
-43.9087927008
 20
-39.7268427268
 10
-43.8537342303
 20
-39.9148155064
 10
-43.7924009622
 20
-40.0953809812
 10
-43.7249403099
 20
-40.2683166141
 10
-43.6513701911
 20
-40.4337666873
 10
-43.5717473454
 20
-40.5917230899
 10
-43.4863278147
 20
-40.7417958235
 10
-43.3951416498
 20
-40.8840714483
 10
-43.2983051371
 20
-41.0184849543
 10
-43.1963836879
 20
-41.1444331834
 10
-43.0897000228
 20
-41.2617827874
 10
-42.9784051608
 20
-41.3706294947
 10
-42.8630409899
 20
-41.4707140052
 10
-42.7441663291
 20
-41.5618704026
 10
-42.6220047514
 20
-41.644232652
 10
-42.4967318462
 20
-41.7179318535
 10
-42.368854589
 20
-41.7829036616
  0
LWPOLYLINE
  5
227
100
AcDbEntity
  8
RACCORDO
100
AcDbPolyline
 62
7
  6
CONTINUOUS
 90
10
 70
0
 10
-44.4070333515
 20
-32.5741048309
 10
-44.3783403797
 20
-33.1790785433
 10
-44.3454328121
 20
-33.8567892664
 10
-44.3117456336
 20
-34.5338914769
 10
-44.2772790459
 20
-35.2103811886
 10
-44.2420332032
 20
-35.8862553501
 10
-44.2060082076
 20
-36.5615118408
 10
-44.1692042058
 20
-37.236147604
 10
-44.1316213948
 20
-37.9101586504
 10
-44.0970980754
 20
-38.5168068004
  0
LINE
  5
228
100
AcDbEntity
  8
RACCORDO
100
AcDbLine
 62
253
  6
CONTINUOUS
 10
-42.2944857834
 20
33.3922659749
 11
-41.9861765489
 21
33.5662997719
  0
LWPOLYLINE
  5
229
100
AcDbEntity
  8
RACCORDO
100
AcDbPolyline
 62
7
  6
CONTINUOUS
 90
12
 70
0
 10
14.1676915485
 20
-53.0157826233
 10
14.3180796436
 20
-53.0404069806
 10
14.4720898615
 20
-53.0551750799
 10
14.6302612532
 20
-53.0596043398
 10
14.7917192817
 20
-53.0530659357
 10
14.9549771928
 20
-53.0351580495
 10
15.1194304428
 20
-53.0055917831
 10
15.2844931423
 20
-52.9641217156
 10
15.4488575146
 20
-52.9108102894
 10
15.6118415924
 20
-52.8457419273
 10
15.7732603636
 20
-52.7688612922
 10
15.8692017223
 20
-52.7170670261
  0
LINE
  5
22A
100
AcDbEntity
  8
RACCORDO
100
AcDbLine
 62
253
  6
CONTINUOUS
 10
12.6258766515
 20
-50.0734984344
 11
12.6353790818
 21
-50.0752724073
  0
LINE
  5
22B
100
AcDbEntity
  8
RACCORDO
100
AcDbLine
 62
7
  6
CONTINUOUS
 10
-3.3016625512
 20
-49.5661955231
 11
-3.3013743647
 21
-49.5662521159
  0
LINE
  5
22C
100
AcDbEntity
  8
RACCORDO
100
AcDbLine
 62
7
  6
CONTINUOUS
 10
-24.374013945
 20
-45.4051347665
 11
-24.3737077898
 21
-45.4051949074
  0
LINE
  5
22D
100
AcDbEntity
  8
RACCORDO
100
AcDbLine
 62
7
  6
CONTINUOUS
 10
-41.8439861475
 20
-41.9554193782
 11
-41.8432512802
 21
-41.9555642239
  0
LINE
  5
22E
100
AcDbEntity
  8
ASSI
100
AcDbLine
 62
7
  6
CONTINUOUS
 10
-3.8201666947
 20
-49.679502234
 11
-24.0459694589
 21
-45.6856055596
  0
LINE
  5
22F
100
AcDbEntity
  8
RACCORDO
100
AcDbLine
 62
7
  6
CONTINUOUS
 10
-5.0626402244
 20
-49.3522160381
 11
-23.5955838654
 21
-45.6926005045
  0
LINE
  5
230
100
AcDbEntity
  8
ASSI
100
AcDbLine
 62
7
  6
CONTINUOUS
 10
-41.8440107996
 20
-41.9554145103
 11
-24.3737093387
 21
-45.4051949576
  0
LINE
  5
231
100
AcDbEntity
  8
ASSI
100
AcDbLine
 62
7
  6
CONTINUOUS
 10
-3.3013762458
 20
-49.5662521004
 11
14.1689252152
 21
-53.0160325477
  0
LINE
  5
232
100
AcDbEntity
  8
RACCORDO
100
AcDbLine
 62
7
  6
CONTINUOUS
 10
13.6362616936
 20
-52.781385098
 11
-2.927042844
 21
-49.5107051808
  0
LINE
  5
233
100
AcDbEntity
  8
RACCORDO
100
AcDbLine
 62
7
  6
CONTINUOUS
 10
-25.7311812457
 20
-45.0076763721
 11
-42.2944857834
 21
-41.7369964549
  0
LINE
  5
234
100
AcDbEntity
  8
RACCORDO
100
AcDbLine
 62
7
  6
CONTINUOUS
 10
-42.0779876763
 20
-41.1993768341
 11
-25.7311812457
 21
-44.4273058613
  0
LINE
  5
235
100
AcDbEntity
  8
RACCORDO
100
AcDbLine
 62
7
  6
CONTINUOUS
 10
-2.927042844
 20
-48.93033467
 11
13.0985164054
 21
-52.094828487
  0
LINE
  5
236
100
AcDbEntity
  8
ASSI
100
AcDbLine
 62
7
  6
CONTINUOUS
 10
12.7543351217
 20
-51.073007985
 11
-3.8201629685
 21
-47.8001177282
  0
LINE
  5
237
100
AcDbEntity
  8
ASSI
100
AcDbLine
 62
7
  6
CONTINUOUS
 10
-24.0975548273
 20
-43.7960339915
 11
-41.5763100838
 21
-40.3445842119
  0
LINE
  5
238
100
AcDbEntity
  8
RACCORDO
100
AcDbLine
 62
7
  6
CONTINUOUS
 10
-5.0626402244
 20
-47.4728307965
 11
-23.5955838654
 21
-43.8132152629
  0
LINE
  5
239
100
AcDbEntity
  8
RACCORDO
100
AcDbLine
 62
7
  6
CONTINUOUS
 10
14.1689021334
 20
-53.0160279898
 11
14.1677612071
 21
-53.0158020856
  0
LINE
  5
23A
100
AcDbEntity
  8
RACCORDO
100
AcDbLine
 62
253
  6
CONTINUOUS
 10
-43.3453988329
 20
-39.0210043818
 11
-43.3358843106
 21
-39.0229857004
  0
LINE
  5
23B
100
AcDbEntity
  8
0
100
AcDbLine
 62
7
  6
CONTINUOUS
 10
-34.5507584436
 20
-38.1809529378
 11
-34.3226383885
 21
-38.273934541
  0
LINE
  5
23C
100
AcDbEntity
  8
0
100
AcDbLine
 62
7
  6
CONTINUOUS
 10
-32.5661167212
 20
-38.5728510527
 11
-32.3379969242
 21
-38.6658326049
  0
LINE
  5
23D
100
AcDbEntity
  8
0
100
AcDbLine
 62
7
  6
CONTINUOUS
 10
-33.9000028522
 20
-36.965939226
 11
-34.1280044017
 21
-36.8728872211
  0
LINE
  5
23E
100
AcDbEntity
  8
0
100
AcDbLine
 62
7
  6
CONTINUOUS
 10
-31.9153613879
 20
-37.3578372899
 11
-32.1433629373
 21
-37.264785285
  0
LINE
  5
23F
100
AcDbEntity
  8
0
100
AcDbLine
 62
7
  6
CONTINUOUS
 10
-35.8359338619
 20
-35.7667172078
 11
-36.0638656018
 21
-35.6736240519
  0
LINE
  5
240
100
AcDbEntity
  8
0
100
AcDbLine
 62
7
  6
CONTINUOUS
 10
-34.335560874
 20
-38.0316715177
 11
-34.5185548658
 21
-37.9475845738
  0
LINE
  5
241
100
AcDbEntity
  8
0
100
AcDbLine
 62
7
  6
CONTINUOUS
 10
-32.3509194097
 20
-38.4235695816
 11
-32.5339134015
 21
-38.3394826377
  0
LINE
  5
242
100
AcDbEntity
  8
0
100
AcDbLine
 62
7
  6
CONTINUOUS
 10
-34.1155938294
 20
-37.1154534648
 11
-33.9326773899
 21
-37.1995865543
  0
LINE
  5
243
100
AcDbEntity
  8
0
100
AcDbLine
 62
7
  6
CONTINUOUS
 10
-32.1309523651
 20
-37.5073515287
 11
-31.9480356675
 21
-37.5914846692
  0
LINE
  5
244
100
AcDbEntity
  8
0
100
AcDbLine
 62
7
  6
CONTINUOUS
 10
-36.006697369
 20
-35.925303089
 11
-35.8689560714
 21
-36.0005705976
  0
LINE
  5
245
100
AcDbEntity
  8
0
100
AcDbLine
 62
7
  6
CONTINUOUS
 10
-32.5339134015
 20
-38.3394826377
 11
-32.6743619898
 21
-38.215835274
  0
LINE
  5
246
100
AcDbEntity
  8
0
100
AcDbLine
 62
7
  6
CONTINUOUS
 10
-33.9326773899
 20
-37.1995865543
 11
-33.7923598508
 21
-37.3233115511
  0
LINE
  5
247
100
AcDbEntity
  8
0
100
AcDbLine
 62
7
  6
CONTINUOUS
 10
-31.9480356675
 20
-37.5914846692
 11
-31.8077181283
 21
-37.7152096659
  0
LINE
  5
248
100
AcDbEntity
  8
RACCORDO
100
AcDbLine
 62
7
  6
CONTINUOUS
 10
-42.2944857834
 20
-41.7369964549
 11
-42.2944857834
 21
-40.921711734
  0
LINE
  5
249
100
AcDbEntity
  8
RACCORDO
100
AcDbLine
 62
7
  6
CONTINUOUS
 10
-42.2944857834
 20
33.3922659749
 11
-42.2944857834
 21
34.2075506957
  0
LWPOLYLINE
  5
24A
100
AcDbEntity
  8
RACCORDO
100
AcDbPolyline
 62
7
  6
CONTINUOUS
 90
19
 70
0
 10
-44.407206231
 20
24.345225864
 10
-44.5403177121
 20
21.1773677211
 10
-44.6608480181
 20
17.9392923494
 10
-44.765340961
 20
14.7087591534
 10
-44.8537837577
 20
11.4860602189
 10
-44.9261659072
 20
8.2714987655
 10
-44.9824775625
 20
5.065382459
 10
-45.0227115617
 20
1.8680122389
 10
-45.046862565
 20
-1.3203158356
 10
-45.0549264889
 20
-4.4993041404
 10
-45.0469019827
 20
-7.6686565403
 10
-45.0227883809
 20
-10.8280772954
 10
-44.9825877452
 20
-13.977272588
 10
-44.9263033989
 20
-17.1159516012
 10
-44.8539404772
 20
-20.243820881
 10
-44.7655067931
 20
-23.3605838361
 10
-44.6610108073
 20
-26.4659489303
 10
-44.5404632671
 20
-29.5596381884
 10
-44.4070344988
 20
-32.5741057614
  0
LWPOLYLINE
  5
24B
100
AcDbEntity
  8
RACCORDO
100
AcDbPolyline
 62
7
  6
CONTINUOUS
 90
10
 70
0
 10
-44.0974077898
 20
30.65984798
 10
-44.131574493
 20
30.0182149543
 10
-44.1691460547
 20
29.2991114543
 10
-44.2059397159
 20
28.5803145995
 10
-44.2419552528
 20
27.8618286187
 10
-44.2771924907
 20
27.1436567698
 10
-44.311651299
 20
26.425801342
 10
-44.3453314955
 20
25.7082655966
 10
-44.378232852
 20
24.991053765
 10
-44.4072053757
 20
24.3452262235
  0
LINE
  5
24C
100
AcDbEntity
  8
0
100
AcDbLine
 62
7
  6
CONTINUOUS
 10
5.2269765745
 20
-44.7401910729
 11
5.0941427356
 21
-44.7619841
  0
LINE
  5
24D
100
AcDbEntity
  8
DRAFT
100
AcDbLine
 62
253
  6
CONTINUOUS
 10
12.1683509211
 20
-48.2953495126
 11
-43.0721779982
 21
-37.3872551681
  0
LINE
  5
24E
100
AcDbEntity
  8
0
100
AcDbLine
 62
7
  6
CONTINUOUS
 10
-37.6604445462
 20
-37.6148332401
 11
-37.3898116075
 21
-37.6682738875
  0
LINE
  5
24F
100
AcDbEntity
  8
0
100
AcDbLine
 62
7
  6
CONTINUOUS
 10
-37.0289677108
 20
-37.7395280797
 11
-36.7583347721
 21
-37.7929687271
  0
LINE
  5
250
100
AcDbEntity
  8
0
100
AcDbLine
 62
7
  6
CONTINUOUS
 10
-34.3226383885
 20
-38.273934541
 11
-34.0520054498
 21
-38.3273751883
  0
LINE
  5
251
100
AcDbEntity
  8
0
100
AcDbLine
 62
7
  6
CONTINUOUS
 10
-32.3379969242
 20
-38.6658326049
 11
-32.0673639855
 21
-38.7192732523
  0
LINE
  5
252
100
AcDbEntity
  8
0
100
AcDbLine
 62
7
  6
CONTINUOUS
 10
-2.7307532387
 20
-44.5122394681
 11
-2.369909342
 21
-44.5834936603
  0
LINE
  5
253
100
AcDbEntity
  8
0
100
AcDbLine
 62
7
  6
CONTINUOUS
 10
-1.2873775873
 20
-44.7972562499
 11
-1.0167446486
 21
-44.8506968973
  0
LINE
  5
254
100
AcDbEntity
  8
0
100
AcDbLine
 62
7
  6
CONTINUOUS
 10
-0.6559008164
 20
-44.9219510768
 11
-0.3852678777
 21
-44.9753917242
  0
LINE
  5
255
100
AcDbEntity
  8
0
100
AcDbLine
 62
7
  6
CONTINUOUS
 10
0.2462091513
 20
-45.1000866021
 11
0.6070529835
 21
-45.1713407817
  0
LINE
  5
256
100
AcDbEntity
  8
0
100
AcDbLine
 62
7
  6
CONTINUOUS
 10
1.2385300125
 20
-45.2960356596
 11
1.5091629512
 21
-45.349476307
  0
LINE
  5
257
100
AcDbEntity
  8
0
100
AcDbLine
 62
7
  6
CONTINUOUS
 10
1.8700065253
 20
-45.4207304355
 11
2.140639464
 21
-45.4741710829
  0
LINE
  5
258
100
AcDbEntity
  8
0
100
AcDbLine
 62
7
  6
CONTINUOUS
 10
3.403593522
 20
-45.7235608387
 11
3.6742264606
 21
-45.7770014861
  0
LINE
  5
259
100
AcDbEntity
  8
0
100
AcDbLine
 62
7
  6
CONTINUOUS
 10
4.0350700347
 20
-45.8482556147
 11
4.3057029734
 21
-45.9016962621
  0
LINE
  5
25A
100
AcDbEntity
  8
0
100
AcDbLine
 62
7
  6
CONTINUOUS
 10
5.4333400459
 20
-46.1243655923
 11
5.7490788185
 21
-46.1867130822
  0
LINE
  5
25B
100
AcDbEntity
  8
0
100
AcDbLine
 62
7
  6
CONTINUOUS
 10
-32.080286471
 20
-38.477010229
 11
-32.3509194097
 21
-38.4235695816
  0
LINE
  5
25C
100
AcDbEntity
  8
0
100
AcDbLine
 62
7
  6
CONTINUOUS
 10
-34.0649279353
 20
-38.0851121651
 11
-34.335560874
 21
-38.0316715177
  0
LINE
  5
25D
100
AcDbEntity
  8
0
100
AcDbLine
 62
7
  6
CONTINUOUS
 10
-32.0049358133
 20
-38.4323727808
 11
-32.275568752
 21
-38.3789321334
  0
LINE
  5
25E
100
AcDbEntity
  8
0
100
AcDbLine
 62
7
  6
CONTINUOUS
 10
-33.9895772776
 20
-38.0404747169
 11
-34.2602102163
 21
-37.9870340695
  0
LINE
  5
25F
100
AcDbEntity
  8
0
100
AcDbLine
 62
7
  6
CONTINUOUS
 10
2.2902198752
 20
-44.9282650718
 11
3.1923293267
 21
-45.1064004951
  0
LINE
  5
260
100
AcDbEntity
  8
0
100
AcDbLine
 62
7
  6
CONTINUOUS
 10
-32.7747882242
 20
-38.0041384564
 11
-33.0454211629
 21
-37.950697809
  0
LINE
  5
261
100
AcDbEntity
  8
0
100
AcDbLine
 62
7
  6
CONTINUOUS
 10
-34.7594296885
 20
-37.6122403925
 11
-35.0300626272
 21
-37.5587997451
  0
LINE
  5
262
100
AcDbEntity
  8
0
100
AcDbLine
 62
7
  6
CONTINUOUS
 10
-32.6994453175
 20
-37.9595055998
 11
-32.9700782561
 21
-37.9060649524
  0
LINE
  5
263
100
AcDbEntity
  8
0
100
AcDbLine
 62
7
  6
CONTINUOUS
 10
-34.6840867818
 20
-37.5676075359
 11
-34.9547197204
 21
-37.5141668885
  0
LINE
  5
264
100
AcDbEntity
  8
0
100
AcDbLine
 62
7
  6
CONTINUOUS
 10
3.1370744612
 20
-44.9035717324
 11
2.3251756452
 21
-44.7432497902
  0
LINE
  5
265
100
AcDbEntity
  8
0
100
AcDbLine
 62
7
  6
CONTINUOUS
 10
3.1153028434
 20
-44.8397655823
 11
2.4005141625
 21
-44.6986195339
  0
LINE
  5
266
100
AcDbEntity
  8
0
100
AcDbLine
 62
7
  6
CONTINUOUS
 10
-36.8119210117
 20
-36.7750563496
 11
-36.0000221311
 21
-36.9353783045
  0
LINE
  5
267
100
AcDbEntity
  8
0
100
AcDbLine
 62
7
  6
CONTINUOUS
 10
-35.0528069748
 20
-37.1224205449
 11
-34.7370684603
 21
-37.1847679838
  0
LINE
  5
268
100
AcDbEntity
  8
0
100
AcDbLine
 62
7
  6
CONTINUOUS
 10
-33.0681655104
 20
-37.5143186088
 11
-32.7524267379
 21
-37.5766660987
  0
LINE
  5
269
100
AcDbEntity
  8
0
100
AcDbLine
 62
7
  6
CONTINUOUS
 10
4.2521167339
 20
-44.8837838845
 11
5.0189102322
 21
-45.0351990861
  0
LINE
  5
26A
100
AcDbEntity
  8
0
100
AcDbLine
 62
7
  6
CONTINUOUS
 10
-34.386226768
 20
-37.0620128174
 11
-34.1155938294
 21
-37.1154534648
  0
LINE
  5
26B
100
AcDbEntity
  8
0
100
AcDbLine
 62
7
  6
CONTINUOUS
 10
-32.4015853037
 20
-37.4539108813
 11
-32.1309523651
 21
-37.5073515287
  0
LINE
  5
26C
100
AcDbEntity
  8
0
100
AcDbLine
 62
7
  6
CONTINUOUS
 10
5.0941427356
 20
-44.7619841
 11
4.2371380857
 21
-44.5927553153
  0
LINE
  5
26D
100
AcDbEntity
  8
0
100
AcDbLine
 62
7
  6
CONTINUOUS
 10
-35.9698953326
 20
-36.6532565013
 11
-36.8268996599
 21
-36.4840277803
  0
LINE
  5
26E
100
AcDbEntity
  8
0
100
AcDbLine
 62
7
  6
CONTINUOUS
 10
5.1694693307
 20
-44.7173609064
 11
4.3124646807
 21
-44.5481321217
  0
LINE
  5
26F
100
AcDbEntity
  8
0
100
AcDbLine
 62
7
  6
CONTINUOUS
 10
-35.8945687375
 20
-36.6086333077
 11
-36.7515730648
 21
-36.4394045867
  0
LINE
  5
270
100
AcDbEntity
  8
0
100
AcDbLine
 62
7
  6
CONTINUOUS
 10
-32.1433629373
 20
-37.264785285
 11
-32.413995876
 21
-37.2113446376
  0
LINE
  5
271
100
AcDbEntity
  8
0
100
AcDbLine
 62
7
  6
CONTINUOUS
 10
-34.1280044017
 20
-36.8728872211
 11
-34.3986373403
 21
-36.8194465737
  0
LINE
  5
272
100
AcDbEntity
  8
0
100
AcDbLine
 62
7
  6
CONTINUOUS
 10
-32.068039556
 20
-37.2201639951
 11
-32.3386724947
 21
-37.1667233478
  0
LINE
  5
273
100
AcDbEntity
  8
0
100
AcDbLine
 62
7
  6
CONTINUOUS
 10
-34.0526810203
 20
-36.8282659312
 11
-34.323313959
 21
-36.7748252838
  0
LINE
  5
274
100
AcDbEntity
  8
0
100
AcDbLine
 62
7
  6
CONTINUOUS
 10
-36.8637016964
 20
-35.756074368
 11
-36.006697369
 21
-35.925303089
  0
LINE
  5
275
100
AcDbEntity
  8
0
100
AcDbLine
 62
7
  6
CONTINUOUS
 10
-34.8790600385
 20
-36.1479724701
 11
-33.5710009209
 21
-36.4062689156
  0
LINE
  5
276
100
AcDbEntity
  8
0
100
AcDbLine
 62
7
  6
CONTINUOUS
 10
-32.8944185742
 20
-36.5398705341
 11
-31.5863591985
 21
-36.7981670304
  0
LINE
  5
277
100
AcDbEntity
  8
0
100
AcDbLine
 62
7
  6
CONTINUOUS
 10
4.2003360492
 20
-43.864801903
 11
5.0573406991
 21
-44.0340306877
  0
LINE
  5
278
100
AcDbEntity
  8
0
100
AcDbLine
 62
7
  6
CONTINUOUS
 10
5.0001720792
 20
-43.7823515741
 11
3.9176403245
 21
-43.5685889846
  0
LINE
  5
279
100
AcDbEntity
  8
0
100
AcDbLine
 62
7
  6
CONTINUOUS
 10
2.8351085697
 20
-43.354826395
 11
2.4742649956
 21
-43.2835722664
  0
LINE
  5
27A
100
AcDbEntity
  8
0
100
AcDbLine
 62
7
  6
CONTINUOUS
 10
1.3917332409
 20
-43.0698096768
 11
0.9857838329
 21
-42.9896487057
  0
LINE
  5
27B
100
AcDbEntity
  8
0
100
AcDbLine
 62
7
  6
CONTINUOUS
 10
-0.3673811186
 20
-42.7224454178
 11
-0.7733305267
 21
-42.6422844467
  0
LINE
  5
27C
100
AcDbEntity
  8
0
100
AcDbLine
 62
7
  6
CONTINUOUS
 10
-1.1341743589
 20
-42.5710302672
 11
-1.4048072976
 21
-42.5175896198
  0
LINE
  5
27D
100
AcDbEntity
  8
0
100
AcDbLine
 62
7
  6
CONTINUOUS
 10
-1.7656512588
 20
-42.4463354148
 11
-2.0362841975
 21
-42.3928947674
  0
LINE
  5
27E
100
AcDbEntity
  8
0
100
AcDbLine
 62
7
  6
CONTINUOUS
 10
-3.2992378683
 20
-42.143505088
 11
-3.569870807
 21
-42.0900644406
  0
LINE
  5
27F
100
AcDbEntity
  8
0
100
AcDbLine
 62
7
  6
CONTINUOUS
 10
-31.5984219845
 20
-36.5553947594
 11
-33.1320089812
 21
-36.2525643562
  0
LINE
  5
280
100
AcDbEntity
  8
0
100
AcDbLine
 62
7
  6
CONTINUOUS
 10
-33.5830637069
 20
-36.1634966445
 11
-35.1166504455
 21
-35.8606662923
  0
LINE
  5
281
100
AcDbEntity
  8
0
100
AcDbLine
 62
7
  6
CONTINUOUS
 10
-36.0638656018
 20
-35.6736240519
 11
-37.1463974211
 21
-35.4598614496
  0
LINE
  5
282
100
AcDbEntity
  8
0
100
AcDbLine
 62
7
  6
CONTINUOUS
 10
-37.5072413178
 20
-35.3886072573
 11
-37.7778742565
 21
-35.3351666099
  0
LINE
  5
283
100
AcDbEntity
  8
0
100
AcDbLine
 62
7
  6
CONTINUOUS
 10
5.0754775553
 20
-43.7377408913
 11
3.9929458006
 21
-43.5239783017
  0
LINE
  5
284
100
AcDbEntity
  8
0
100
AcDbLine
 62
7
  6
CONTINUOUS
 10
2.9104140458
 20
-43.3102157122
 11
2.5495704717
 21
-43.2389615836
  0
LINE
  5
285
100
AcDbEntity
  8
0
100
AcDbLine
 62
7
  6
CONTINUOUS
 10
1.467038717
 20
-43.025198994
 11
1.061089309
 21
-42.9450380229
  0
LINE
  5
286
100
AcDbEntity
  8
0
100
AcDbLine
 62
7
  6
CONTINUOUS
 10
-0.2920756425
 20
-42.677834735
 11
-0.6980250506
 21
-42.5976737639
  0
LINE
  5
287
100
AcDbEntity
  8
0
100
AcDbLine
 62
7
  6
CONTINUOUS
 10
-1.0588688828
 20
-42.5264195844
 11
-1.3295018215
 21
-42.472978937
  0
LINE
  5
288
100
AcDbEntity
  8
0
100
AcDbLine
 62
7
  6
CONTINUOUS
 10
-1.6903457827
 20
-42.4017247319
 11
-1.9609787214
 21
-42.3482840845
  0
LINE
  5
289
100
AcDbEntity
  8
0
100
AcDbLine
 62
7
  6
CONTINUOUS
 10
-3.2239323922
 20
-42.0988944052
 11
-3.4945653309
 21
-42.0454537578
  0
LINE
  5
28A
100
AcDbEntity
  8
0
100
AcDbLine
 62
7
  6
CONTINUOUS
 10
-31.5231165084
 20
-36.5107840766
 11
-33.0567035051
 21
-36.2079536734
  0
LINE
  5
28B
100
AcDbEntity
  8
0
100
AcDbLine
 62
7
  6
CONTINUOUS
 10
-33.5077582308
 20
-36.1188859617
 11
-35.0413449694
 21
-35.8160556095
  0
LINE
  5
28C
100
AcDbEntity
  8
0
100
AcDbLine
 62
7
  6
CONTINUOUS
 10
-35.9885601257
 20
-35.6290133691
 11
-37.071091945
 21
-35.4152507668
  0
LINE
  5
28D
100
AcDbEntity
  8
0
100
AcDbLine
 62
7
  6
CONTINUOUS
 10
-37.4319358417
 20
-35.3439965745
 11
-37.7025687804
 21
-35.2905559271
  0
LINE
  5
28E
100
AcDbEntity
  8
0
100
AcDbLine
 62
7
  6
CONTINUOUS
 10
-32.413995876
 20
-37.2113446376
 11
-32.6370490523
 21
-37.2153289308
  0
LINE
  5
28F
100
AcDbEntity
  8
0
100
AcDbLine
 62
7
  6
CONTINUOUS
 10
-32.0673639855
 20
-38.7192732523
 11
-31.8444290568
 21
-38.7153594118
  0
LINE
  5
290
100
AcDbEntity
  8
0
100
AcDbLine
 62
7
  6
CONTINUOUS
 10
-34.0520054498
 20
-38.3273751883
 11
-33.8290705211
 21
-38.3234613479
  0
LINE
  5
291
100
AcDbEntity
  8
RACCORDO
100
AcDbLine
 62
253
  6
CONTINUOUS
 10
-39.3765320337
 20
-33.6124458674
 11
8.0073168841
 21
-42.9691175813
  0
LINE
  5
292
100
AcDbEntity
  8
RACCORDO
100
AcDbLine
 62
253
  6
CONTINUOUS
 10
7.6624276311
 20
-42.6887304054
 11
-39.003360156
 21
-33.4739365208
  0
LINE
  5
293
100
AcDbEntity
  8
0
100
AcDbLine
 62
7
  6
CONTINUOUS
 10
5.2281040773
 20
-43.875444781
 11
5.0001720792
 21
-43.7823515741
  0
LINE
  5
294
100
AcDbEntity
  8
0
100
AcDbLine
 62
7
  6
CONTINUOUS
 10
-33.6419419058
 20
-37.6409877515
 11
-33.6368753228
 21
-37.7379536148
  0
LINE
  5
295
100
AcDbEntity
  8
0
100
AcDbLine
 62
7
  6
CONTINUOUS
 10
-31.6573001834
 20
-38.0328858664
 11
-31.6522336004
 21
-38.1298517297
  0
LINE
  5
296
100
AcDbEntity
  8
RACCORDO
100
AcDbLine
 62
7
  6
CONTINUOUS
 10
-35.7555801644
 20
18.3750670167
 11
-38.7005113623
 21
16.630500773
  0
LINE
  5
297
100
AcDbEntity
  8
0
100
AcDbLine
 62
7
  6
CONTINUOUS
 10
-32.5795126965
 20
-37.4667897913
 11
-32.4015853037
 21
-37.4539108813
  0
LINE
  5
298
100
AcDbEntity
  8
0
100
AcDbLine
 62
7
  6
CONTINUOUS
 10
-34.5641541608
 20
-37.0748917273
 11
-34.386226768
 21
-37.0620128174
  0
LINE
  5
299
100
AcDbEntity
  8
0
100
AcDbLine
 62
7
  6
CONTINUOUS
 10
-31.9024363725
 20
-38.4641775156
 11
-32.080286471
 21
-38.477010229
  0
LINE
  5
29A
100
AcDbEntity
  8
0
100
AcDbLine
 62
7
  6
CONTINUOUS
 10
-33.8870780949
 20
-38.0722794007
 11
-34.0649279353
 21
-38.0851121651
  0
LINE
  5
29B
100
AcDbEntity
  8
0
100
AcDbLine
 62
7
  6
CONTINUOUS
 10
-36.0000221311
 20
-36.9353783045
 11
-35.7770014441
 21
-36.9314134617
  0
LINE
  5
29C
100
AcDbEntity
  8
0
100
AcDbLine
 62
7
  6
CONTINUOUS
 10
-34.3986373403
 20
-36.8194465737
 11
-34.6216907747
 21
-36.8234308159
  0
LINE
  5
29D
100
AcDbEntity
  8
RACCORDO
100
AcDbLine
 62
7
  6
CONTINUOUS
 10
6.6898985365
 20
-37.1150298182
 11
-38.7654289304
 21
-28.1391744061
  0
LINE
  5
29E
100
AcDbEntity
  8
RACCORDO
100
AcDbLine
 62
253
  6
CONTINUOUS
 10
6.1531071183
 20
-36.7276828607
 11
-38.533803717
 21
-27.9035631629
  0
LINE
  5
29F
100
AcDbEntity
  8
0
100
AcDbLine
 62
7
  6
CONTINUOUS
 10
5.0573406991
 20
-44.0340306877
 11
5.1950814805
 21
-44.1092980943
  0
LINE
  5
2A0
100
AcDbEntity
  8
RACCORDO
100
AcDbLine
 62
253
  6
CONTINUOUS
 10
-38.0664369324
 20
-28.2772011558
 11
-38.8525587671
 21
-31.7071503228
  0
LINE
  5
2A1
100
AcDbEntity
  8
RACCORDO
100
AcDbLine
 62
253
  6
CONTINUOUS
 10
-37.4464239265
 20
-28.3996322856
 11
-38.2346133751
 21
-31.8386027144
  0
LINE
  5
2A2
100
AcDbEntity
  8
0
100
AcDbLine
 62
7
  6
CONTINUOUS
 10
-35.8370609775
 20
-36.6314635762
 11
-35.9698953326
 21
-36.6532565013
  0
LINE
  5
2A3
100
AcDbEntity
  8
RACCORDO
100
AcDbLine
 62
253
  6
CONTINUOUS
 10
-37.8065775576
 20
17.1600638205
 11
-38.8525589158
 21
20.8711211978
  0
LINE
  5
2A4
100
AcDbEntity
  8
RACCORDO
100
AcDbLine
 62
253
  6
CONTINUOUS
 10
-37.2018427406
 20
17.3968751667
 11
-38.2346135439
 21
21.061062562
  0
LINE
  5
2A5
100
AcDbEntity
  8
RACCORDO
100
AcDbLine
 62
253
  6
CONTINUOUS
 10
-25.7311812457
 20
-45.0076763721
 11
-25.7311812457
 21
-44.4273058613
  0
LINE
  5
2A6
100
AcDbEntity
  8
RACCORDO
100
AcDbLine
 62
253
  6
CONTINUOUS
 10
-24.374013945
 20
-45.4051347665
 11
-24.374013945
 21
-44.2992036712
  0
LINE
  5
2A7
100
AcDbEntity
  8
RACCORDO
100
AcDbLine
 62
7
  6
CONTINUOUS
 10
-24.0955838654
 20
-45.6654378898
 11
-24.0955838654
 21
-43.7860526897
  0
LINE
  5
2A8
100
AcDbEntity
  8
RACCORDO
100
AcDbLine
 62
253
  6
CONTINUOUS
 10
-23.5955838654
 20
-45.6926005045
 11
-23.5955838654
 21
-43.8132152629
  0
LINE
  5
2A9
100
AcDbEntity
  8
RACCORDO
100
AcDbLine
 62
7
  6
CONTINUOUS
 10
28.7612690119
 20
43.8016873007
 11
27.3953869206
 21
42.9925438507
  0
LINE
  5
2AA
100
AcDbEntity
  8
RACCORDO
100
AcDbLine
 62
7
  6
CONTINUOUS
 10
26.2612690119
 20
43.216492922
 11
28.7656322796
 21
44.6589939402
  0
LINE
  5
2AB
100
AcDbEntity
  8
0
100
AcDbLine
 62
7
  6
CONTINUOUS
 10
5.1950814805
 20
-44.1092980943
 11
5.2901550772
 21
-44.224198879
  0
LINE
  5
2AC
100
AcDbEntity
  8
RACCORDO
100
AcDbLine
 62
7
  6
CONTINUOUS
 10
30.5913960308
 20
42.3614425637
 11
33.0957592986
 21
43.8039435819
  0
LINE
  5
2AD
100
AcDbEntity
  8
RACCORDO
100
AcDbLine
 62
253
  6
CONTINUOUS
 10
15.1257839422
 20
24.8897460872
 11
23.8167630415
 21
30.0764521196
  0
LINE
  5
2AE
100
AcDbEntity
  8
RACCORDO
100
AcDbLine
 62
253
  6
CONTINUOUS
 10
23.8167135781
 20
30.076461887
 11
24.4167135781
 21
30.4318996462
  0
LINE
  5
2AF
100
AcDbEntity
  8
RACCORDO
100
AcDbLine
 62
253
  6
CONTINUOUS
 10
24.4167630415
 20
30.4318898789
 11
43.6263050502
 21
41.7245249231
  0
LINE
  5
2B0
100
AcDbEntity
  8
RACCORDO
100
AcDbLine
 62
253
  6
CONTINUOUS
 10
16.4247155429
 20
23.2237214449
 11
25.1157516838
 21
28.4104615192
  0
LINE
  5
2B1
100
AcDbEntity
  8
RACCORDO
100
AcDbLine
 62
253
  6
CONTINUOUS
 10
25.1157516838
 20
28.4104078483
 11
25.7157516838
 21
28.7658456075
  0
LINE
  5
2B2
100
AcDbEntity
  8
RACCORDO
100
AcDbLine
 62
253
  6
CONTINUOUS
 10
25.7157516838
 20
28.7658992785
 11
44.9252991202
 21
40.0585263215
  0
LINE
  5
2B3
100
AcDbEntity
  8
RACCORDO
100
AcDbLine
 62
253
  6
CONTINUOUS
 10
-5.0626402244
 20
-47.4728307965
 11
-5.0626402244
 21
-49.3522160381
  0
LINE
  5
2B4
100
AcDbEntity
  8
0
100
AcDbLine
 62
7
  6
CONTINUOUS
 10
-5.7639530657
 20
44.2808708827
 11
-5.7701602838
 21
42.9404307343
  0
LINE
  5
2B5
100
AcDbEntity
  8
RACCORDO
100
AcDbLine
 62
253
  6
CONTINUOUS
 10
-3.6966148206
 20
-47.8245142154
 11
-3.6966148206
 21
-49.6988084793
  0
LINE
  5
2B6
100
AcDbEntity
  8
RACCORDO
100
AcDbLine
 62
7
  6
CONTINUOUS
 10
-3.427042844
 20
-48.6300147496
 11
-3.427042844
 21
-49.5123208679
  0
LINE
  5
2B7
100
AcDbEntity
  8
RACCORDO
100
AcDbLine
 62
253
  6
CONTINUOUS
 10
-2.927042844
 20
-48.93033467
 11
-2.927042844
 21
-49.5107051808
  0
LINE
  5
2B8
100
AcDbEntity
  8
0
100
AcDbLine
 62
7
  6
CONTINUOUS
 10
-3.6034863147
 20
46.5361732583
 11
-3.6053482251
 21
46.1340962894
  0
LINE
  5
2B9
100
AcDbEntity
  8
0
100
AcDbLine
 62
7
  6
CONTINUOUS
 10
-1.8454758255
 20
48.2619754259
 11
-1.847513106
 21
47.8220275192
  0
LINE
  5
2BA
100
AcDbEntity
  8
0
100
AcDbLine
 62
7
  6
CONTINUOUS
 10
-0.0877576199
 20
49.9246593687
 11
-0.089677987
 21
49.509958749
  0
LINE
  5
2BB
100
AcDbEntity
  8
RACCORDO
100
AcDbLine
 62
7
  6
CONTINUOUS
 10
7.6043063375
 20
8.080782773
 11
6.8524248768
 21
7.6353710035
  0
LINE
  5
2BC
100
AcDbEntity
  8
RACCORDO
100
AcDbLine
 62
7
  6
CONTINUOUS
 10
7.5919420391
 20
7.6036118984
 11
7.5872398893
 21
7.6008263624
  0
LINE
  5
2BD
100
AcDbEntity
  8
0
100
AcDbLine
 62
7
  6
CONTINUOUS
 10
4.1696101713
 20
51.5058834119
 11
4.1681303279
 21
51.1863132748
  0
LINE
  5
2BE
100
AcDbEntity
  8
0
100
AcDbLine
 62
7
  6
CONTINUOUS
 10
-35.7518019047
 20
-36.5522433622
 11
-35.8370609775
 21
-36.6314635762
  0
LINE
  5
2BF
100
AcDbEntity
  8
RACCORDO
100
AcDbLine
 62
7
  6
CONTINUOUS
 10
7.664568429
 20
-39.8211594821
 11
7.7197093193
 21
-41.6453512447
  0
LWPOLYLINE
  5
2C0
100
AcDbEntity
  8
RACCORDO
100
AcDbPolyline
 62
7
  6
CONTINUOUS
 90
3
 70
0
 10
7.5091968086
 20
-33.6959654632
 10
7.5813420285
 20
-36.7647937222
 10
7.664568429
 20
-39.8211594821
  0
LWPOLYLINE
  5
2C1
100
AcDbEntity
  8
RACCORDO
100
AcDbPolyline
 62
7
  6
CONTINUOUS
 90
15
 70
0
 10
7.6647248416
 20
10.412492146
 10
7.5814838449
 20
7.2000026091
 10
7.5093226169
 20
3.9958351011
 10
7.4482485093
 20
0.8002912123
 10
7.3982675671
 20
-2.3863274799
 10
7.3593856418
 20
-5.5637190941
 10
7.3316066181
 20
-8.731585322
 10
7.314933162
 20
-11.8896274397
 10
7.3093677045
 20
-15.0375446827
 10
7.3149106551
 20
-18.1750418387
 10
7.3315613258
 20
-21.3018263655
 10
7.3593187953
 20
-24.4176037089
 10
7.3981800207
 20
-27.5220801131
 10
7.4481407811
 20
-30.6149642268
 10
7.5091968086
 20
-33.6959654632
  0
LINE
  5
2C2
100
AcDbEntity
  8
RACCORDO
100
AcDbLine
 62
7
  6
CONTINUOUS
 10
7.7185655679
 20
12.2959310143
 11
7.6647248416
 21
10.412492146
  0
LINE
  5
2C3
100
AcDbEntity
  8
RACCORDO
100
AcDbLine
 62
253
  6
CONTINUOUS
 10
6.1531071183
 20
7.1245499481
 11
-38.533803717
 21
15.9486696459
  0
LINE
  5
2C4
100
AcDbEntity
  8
RACCORDO
100
AcDbLine
 62
253
  6
CONTINUOUS
 10
6.8345840143
 20
7.6255771724
 11
-38.7163897821
 21
16.6203194273
  0
LINE
  5
2C5
100
AcDbEntity
  8
DRAFT
100
AcDbLine
 62
7
  6
CONTINUOUS
 10
7.5918462918
 20
7.5999167571
 11
7.5872398893
 21
7.6008263624
  0
LINE
  5
2C6
100
AcDbEntity
  8
RACCORDO
100
AcDbLine
 62
7
  6
CONTINUOUS
 10
-37.2018427406
 20
17.3968751667
 11
7.6163822858
 21
8.5468254567
  0
LINE
  5
2C7
100
AcDbEntity
  8
RACCORDO
100
AcDbLine
 62
253
  6
CONTINUOUS
 10
7.6770356762
 20
10.8431457804
 11
7.4940928712
 21
12.0312237137
  0
LINE
  5
2C8
100
AcDbEntity
  8
0
100
AcDbLine
 62
7
  6
CONTINUOUS
 10
12.3695222537
 20
51.4679118226
 11
12.3680424103
 21
51.1483416855
  0
LINE
  5
2C9
100
AcDbEntity
  8
RACCORDO
100
AcDbLine
 62
253
  6
CONTINUOUS
 10
7.656137296
 20
-39.5115386649
 11
7.4940928032
 21
-40.8684415771
  0
LINE
  5
2CA
100
AcDbEntity
  8
RACCORDO
100
AcDbLine
 62
253
  6
CONTINUOUS
 10
-42.2944857834
 20
-40.921711734
 11
-41.3893101443
 21
-40.3815102338
  0
LINE
  5
2CB
100
AcDbEntity
  8
RACCORDO
100
AcDbLine
 62
253
  6
CONTINUOUS
 10
-42.0779876763
 20
-41.1993768341
 11
-40.8770461688
 21
-40.4826646558
  0
LINE
  5
2CC
100
AcDbEntity
  8
0
100
AcDbLine
 62
7
  6
CONTINUOUS
 10
-37.7778742565
 20
-35.3351666099
 11
-37.7025687804
 21
-35.2905559271
  0
LINE
  5
2CD
100
AcDbEntity
  8
0
100
AcDbLine
 62
7
  6
CONTINUOUS
 10
-37.5072413178
 20
-35.3886072573
 11
-37.4319358417
 21
-35.3439965745
  0
LINE
  5
2CE
100
AcDbEntity
  8
0
100
AcDbLine
 62
7
  6
CONTINUOUS
 10
-37.1463974211
 20
-35.4598614496
 11
-37.071091945
 21
-35.4152507668
  0
LINE
  5
2CF
100
AcDbEntity
  8
0
100
AcDbLine
 62
7
  6
CONTINUOUS
 10
-36.0638656018
 20
-35.6736240519
 11
-35.9885601257
 21
-35.6290133691
  0
LINE
  5
2D0
100
AcDbEntity
  8
0
100
AcDbLine
 62
7
  6
CONTINUOUS
 10
-35.8359338619
 20
-35.7667172078
 11
-35.7606273469
 21
-35.7221059096
  0
LINE
  5
2D1
100
AcDbEntity
  8
0
100
AcDbLine
 62
7
  6
CONTINUOUS
 10
-36.8268996599
 20
-36.4840277803
 11
-36.7515730648
 21
-36.4394045867
  0
LINE
  5
2D2
100
AcDbEntity
  8
0
100
AcDbLine
 62
7
  6
CONTINUOUS
 10
-35.6482741454
 20
-35.9480076859
 11
-35.5729645031
 21
-35.903394535
  0
LINE
  5
2D3
100
AcDbEntity
  8
0
100
AcDbLine
 62
7
  6
CONTINUOUS
 10
-35.1166504455
 20
-35.8606662923
 11
-35.0413449694
 21
-35.8160556095
  0
LINE
  5
2D4
100
AcDbEntity
  8
0
100
AcDbLine
 62
7
  6
CONTINUOUS
 10
-35.5032503104
 20
-36.1689118768
 11
-35.427936473
 21
-36.1242962408
  0
LINE
  5
2D5
100
AcDbEntity
  8
0
100
AcDbLine
 62
7
  6
CONTINUOUS
 10
-35.4508211577
 20
-36.323431141
 11
-35.3755041552
 21
-36.27881363
  0
LINE
  5
2D6
100
AcDbEntity
  8
0
100
AcDbLine
 62
7
  6
CONTINUOUS
 10
-35.9698953326
 20
-36.6532565013
 11
-35.8945687375
 21
-36.6086333077
  0
LINE
  5
2D7
100
AcDbEntity
  8
0
100
AcDbLine
 62
7
  6
CONTINUOUS
 10
-37.3898116075
 20
-37.6682738875
 11
-37.3144553593
 21
-37.6236331274
  0
LINE
  5
2D8
100
AcDbEntity
  8
0
100
AcDbLine
 62
7
  6
CONTINUOUS
 10
-35.4409990985
 20
-36.5175473062
 11
-35.3656778506
 21
-36.4729272802
  0
LINE
  5
2D9
100
AcDbEntity
  8
0
100
AcDbLine
 62
7
  6
CONTINUOUS
 10
-35.4786951666
 20
-36.6542020822
 11
-35.4033707158
 21
-36.6095801588
  0
LINE
  5
2DA
100
AcDbEntity
  8
0
100
AcDbLine
 62
7
  6
CONTINUOUS
 10
-35.6040748631
 20
-36.8215299296
 11
-35.5287461165
 21
-36.7769054615
  0
LINE
  5
2DB
100
AcDbEntity
  8
0
100
AcDbLine
 62
7
  6
CONTINUOUS
 10
-36.7583347721
 20
-37.7929687271
 11
-36.6829785239
 21
-37.7483279671
  0
LINE
  5
2DC
100
AcDbEntity
  8
0
100
AcDbLine
 62
7
  6
CONTINUOUS
 10
-33.5830637069
 20
-36.1634966445
 11
-33.5077582308
 21
-36.1188859617
  0
LINE
  5
2DD
100
AcDbEntity
  8
0
100
AcDbLine
 62
7
  6
CONTINUOUS
 10
-34.8397717946
 20
-36.9244367065
 11
-34.7644441247
 21
-36.8798128762
  0
LINE
  5
2DE
100
AcDbEntity
  8
0
100
AcDbLine
 62
7
  6
CONTINUOUS
 10
-34.6216907747
 20
-36.8234308159
 11
-34.5463663239
 21
-36.7788088926
  0
LINE
  5
2DF
100
AcDbEntity
  8
0
100
AcDbLine
 62
7
  6
CONTINUOUS
 10
-34.3986373403
 20
-36.8194465737
 11
-34.323313959
 21
-36.7748252838
  0
LINE
  5
2E0
100
AcDbEntity
  8
0
100
AcDbLine
 62
7
  6
CONTINUOUS
 10
-33.5710009209
 20
-36.4062689156
 11
-33.4956902324
 21
-36.361655145
  0
LINE
  5
2E1
100
AcDbEntity
  8
0
100
AcDbLine
 62
7
  6
CONTINUOUS
 10
-33.1320089812
 20
-36.2525643562
 11
-33.0567035051
 21
-36.2079536734
  0
LINE
  5
2E2
100
AcDbEntity
  8
0
100
AcDbLine
 62
7
  6
CONTINUOUS
 10
-34.1280044017
 20
-36.8728872211
 11
-34.0526810203
 21
-36.8282659312
  0
LINE
  5
2E3
100
AcDbEntity
  8
0
100
AcDbLine
 62
7
  6
CONTINUOUS
 10
-35.0300626272
 20
-37.5587997451
 11
-34.9547197204
 21
-37.5141668885
  0
LINE
  5
2E4
100
AcDbEntity
  8
0
100
AcDbLine
 62
7
  6
CONTINUOUS
 10
-33.9000028522
 20
-36.965939226
 11
-33.8246784014
 21
-36.9213173026
  0
LINE
  5
2E5
100
AcDbEntity
  8
0
100
AcDbLine
 62
7
  6
CONTINUOUS
 10
-35.7555801644
 20
18.3750670167
 11
7.648962213
 21
9.8041707473
  0
LINE
  5
2E6
100
AcDbEntity
  8
RACCORDO
100
AcDbLine
 62
253
  6
CONTINUOUS
 10
-39.0033412541
 20
22.5257667272
 11
7.6624669294
 21
13.3108999605
  0
LINE
  5
2E7
100
AcDbEntity
  8
0
100
AcDbLine
 62
7
  6
CONTINUOUS
 10
16.6120633284
 20
49.8473269857
 11
16.6101429612
 21
49.432626366
  0
LINE
  5
2E8
100
AcDbEntity
  8
0
100
AcDbLine
 62
7
  6
CONTINUOUS
 10
18.3543075969
 20
48.1684356572
 11
18.3522703164
 21
47.7284877505
  0
LINE
  5
2E9
100
AcDbEntity
  8
RACCORDO
100
AcDbLine
 62
253
  6
CONTINUOUS
 10
18.3543042724
 20
48.1677610994
 11
18.3543075969
 21
48.1684356573
  0
LINE
  5
2EA
100
AcDbEntity
  8
RACCORDO
100
AcDbLine
 62
253
  6
CONTINUOUS
 10
16.6120595344
 20
49.8465731996
 11
16.6120633284
 21
49.8473269864
  0
LINE
  5
2EB
100
AcDbEntity
  8
0
100
AcDbLine
 62
7
  6
CONTINUOUS
 10
-34.7594296885
 20
-37.6122403925
 11
-34.6840867818
 21
-37.5676075359
  0
LINE
  5
2EC
100
AcDbEntity
  8
0
100
AcDbLine
 62
7
  6
CONTINUOUS
 10
-33.6670291463
 20
-37.1560128283
 11
-33.5917014764
 21
-37.1113889979
  0
LINE
  5
2ED
100
AcDbEntity
  8
0
100
AcDbLine
 62
7
  6
CONTINUOUS
 10
-34.6590034542
 20
-37.8239372101
 11
-34.5836561291
 21
-37.7793017361
  0
LINE
  5
2EE
100
AcDbEntity
  8
0
100
AcDbLine
 62
7
  6
CONTINUOUS
 10
-34.5185548658
 20
-37.9475845738
 11
-34.4432053208
 21
-37.9029477847
  0
LINE
  5
2EF
100
AcDbEntity
  8
0
100
AcDbLine
 62
7
  6
CONTINUOUS
 10
-33.5217269121
 20
-37.3767521985
 11
-33.4463949248
 21
-37.3321258105
  0
LINE
  5
2F0
100
AcDbEntity
  8
0
100
AcDbLine
 62
7
  6
CONTINUOUS
 10
-34.335560874
 20
-38.0316715177
 11
-34.2602102163
 21
-37.9870340695
  0
LINE
  5
2F1
100
AcDbEntity
  8
0
100
AcDbLine
 62
7
  6
CONTINUOUS
 10
-31.5984219845
 20
-36.5553947594
 11
-31.5231165084
 21
-36.5107840766
  0
LINE
  5
2F2
100
AcDbEntity
  8
0
100
AcDbLine
 62
7
  6
CONTINUOUS
 10
-33.4189416916
 20
-37.6370350367
 11
-33.3436042672
 21
-37.5924054278
  0
LINE
  5
2F3
100
AcDbEntity
  8
0
100
AcDbLine
 62
7
  6
CONTINUOUS
 10
-32.8551303303
 20
-37.3163347704
 11
-32.7798026604
 21
-37.2717109401
  0
LINE
  5
2F4
100
AcDbEntity
  8
0
100
AcDbLine
 62
7
  6
CONTINUOUS
 10
-32.6370490523
 20
-37.2153289308
 11
-32.5617246015
 21
-37.1707070074
  0
LINE
  5
2F5
100
AcDbEntity
  8
0
100
AcDbLine
 62
7
  6
CONTINUOUS
 10
-34.0649279353
 20
-38.0851121651
 11
-33.9895772776
 21
-38.0404747169
  0
LINE
  5
2F6
100
AcDbEntity
  8
0
100
AcDbLine
 62
7
  6
CONTINUOUS
 10
-33.8870780949
 20
-38.0722794007
 11
-33.8117285499
 21
-38.0276426117
  0
LINE
  5
2F7
100
AcDbEntity
  8
0
100
AcDbLine
 62
7
  6
CONTINUOUS
 10
-32.413995876
 20
-37.2113446376
 11
-32.3386724947
 21
-37.1667233478
  0
LINE
  5
2F8
100
AcDbEntity
  8
0
100
AcDbLine
 62
7
  6
CONTINUOUS
 10
-33.4088085253
 20
-37.8309667632
 11
-33.3334667186
 21
-37.7863345583
  0
LINE
  5
2F9
100
AcDbEntity
  8
0
100
AcDbLine
 62
7
  6
CONTINUOUS
 10
-31.5863591985
 20
-36.7981670304
 11
-31.51104851
 21
-36.7535532599
  0
LINE
  5
2FA
100
AcDbEntity
  8
0
100
AcDbLine
 62
7
  6
CONTINUOUS
 10
-33.4862608059
 20
-38.0555133318
 11
-33.4109134809
 21
-38.0108778578
  0
LINE
  5
2FB
100
AcDbEntity
  8
0
100
AcDbLine
 62
7
  6
CONTINUOUS
 10
-32.1433629373
 20
-37.264785285
 11
-32.068039556
 21
-37.2201639951
  0
LINE
  5
2FC
100
AcDbEntity
  8
0
100
AcDbLine
 62
7
  6
CONTINUOUS
 10
-33.6112966487
 20
-38.2226373972
 11
-33.5359448766
 21
-38.1779992887
  0
LINE
  5
2FD
100
AcDbEntity
  8
0
100
AcDbLine
 62
7
  6
CONTINUOUS
 10
-33.0454211629
 20
-37.950697809
 11
-32.9700782561
 21
-37.9060649524
  0
LINE
  5
2FE
100
AcDbEntity
  8
0
100
AcDbLine
 62
7
  6
CONTINUOUS
 10
-31.9153613879
 20
-37.3578372899
 11
-31.8400369371
 21
-37.3132153665
  0
LINE
  5
2FF
100
AcDbEntity
  8
0
100
AcDbLine
 62
7
  6
CONTINUOUS
 10
-32.7747882242
 20
-38.0041384564
 11
-32.6994453175
 21
-37.9595055998
  0
LINE
  5
300
100
AcDbEntity
  8
0
100
AcDbLine
 62
7
  6
CONTINUOUS
 10
-31.6823874239
 20
-37.5479109431
 11
-31.607059754
 21
-37.5032871128
  0
LINE
  5
301
100
AcDbEntity
  8
0
100
AcDbLine
 62
7
  6
CONTINUOUS
 10
-32.6743619898
 20
-38.215835274
 11
-32.5990146648
 21
-38.1711998
  0
LINE
  5
302
100
AcDbEntity
  8
0
100
AcDbLine
 62
7
  6
CONTINUOUS
 10
-32.5339134015
 20
-38.3394826377
 11
-32.4585638565
 21
-38.2948458487
  0
LINE
  5
303
100
AcDbEntity
  8
0
100
AcDbLine
 62
7
  6
CONTINUOUS
 10
-31.5370851897
 20
-37.7686503133
 11
-31.4617532024
 21
-37.7240239254
  0
LINE
  5
304
100
AcDbEntity
  8
0
100
AcDbLine
 62
7
  6
CONTINUOUS
 10
-32.3509194097
 20
-38.4235695816
 11
-32.275568752
 21
-38.3789321334
  0
LINE
  5
305
100
AcDbEntity
  8
0
100
AcDbLine
 62
7
  6
CONTINUOUS
 10
-31.4343002273
 20
-38.0289331006
 11
-31.3589628029
 21
-37.9843034917
  0
LINE
  5
306
100
AcDbEntity
  8
0
100
AcDbLine
 62
7
  6
CONTINUOUS
 10
-32.080286471
 20
-38.477010229
 11
-32.0049358133
 21
-38.4323727808
  0
LINE
  5
307
100
AcDbEntity
  8
0
100
AcDbLine
 62
7
  6
CONTINUOUS
 10
-31.9024363725
 20
-38.4641775156
 11
-31.8270868275
 21
-38.4195407265
  0
LINE
  5
308
100
AcDbEntity
  8
0
100
AcDbLine
 62
7
  6
CONTINUOUS
 10
-31.424167061
 20
-38.2228648271
 11
-31.3488252543
 21
-38.1782326222
  0
LINE
  5
309
100
AcDbEntity
  8
0
100
AcDbLine
 62
7
  6
CONTINUOUS
 10
-31.5016190835
 20
-38.4474114467
 11
-31.4262717585
 21
-38.4027759727
  0
LINE
  5
30A
100
AcDbEntity
  8
0
100
AcDbLine
 62
7
  6
CONTINUOUS
 10
-31.6266549263
 20
-38.6145355121
 11
-31.5513031542
 21
-38.5698974036
  0
LINE
  5
30B
100
AcDbEntity
  8
0
100
AcDbLine
 62
7
  6
CONTINUOUS
 10
-33.7568937446
 20
-38.0020726844
 11
-33.8870780949
 21
-38.0722794007
  0
LINE
  5
30C
100
AcDbEntity
  8
0
100
AcDbLine
 62
7
  6
CONTINUOUS
 10
-31.7722520222
 20
-38.3939707993
 11
-31.9024363725
 21
-38.4641775156
  0
LINE
  5
30D
100
AcDbEntity
  8
RACCORDO
100
AcDbLine
 62
253
  6
CONTINUOUS
 10
8.0073168841
 20
13.4326304856
 11
-39.3765320337
 21
22.7893021995
  0
LINE
  5
30E
100
AcDbEntity
  8
0
100
AcDbLine
 62
7
  6
CONTINUOUS
 10
20.0962595819
 20
46.4264261039
 11
20.0943976715
 21
46.024349135
  0
LINE
  5
30F
100
AcDbEntity
  8
0
100
AcDbLine
 62
7
  6
CONTINUOUS
 10
22.2357467277
 20
44.1512117974
 11
22.2295395096
 21
42.810771649
  0
LINE
  5
310
100
AcDbEntity
  8
RACCORDO
100
AcDbLine
 62
253
  6
CONTINUOUS
 10
20.0962575761
 20
46.4260072012
 11
20.0962595819
 21
46.426426104
  0
LINE
  5
311
100
AcDbEntity
  8
RACCORDO
100
AcDbLine
 62
253
  6
CONTINUOUS
 10
-43.345398628
 20
30.285966024
 11
-43.3358843106
 21
30.2841951081
  0
LINE
  5
312
100
AcDbEntity
  8
DRAFT
100
AcDbLine
 62
253
  6
CONTINUOUS
 10
12.1673856927
 20
17.4647879703
 11
-43.0731144815
 21
28.3728766386
  0
LINE
  5
313
100
AcDbEntity
  8
RACCORDO
100
AcDbLine
 62
253
  6
CONTINUOUS
 10
12.6258766515
 20
19.2336823741
 11
12.6353793226
 21
19.2316979805
  0
LINE
  5
314
100
AcDbEntity
  8
RACCORDO
100
AcDbLine
 62
7
  6
CONTINUOUS
 10
25.1157516838
 20
-46.7650018146
 11
25.1157516838
 21
28.4104078483
  0
LINE
  5
315
100
AcDbEntity
  8
RACCORDO
100
AcDbLine
 62
7
  6
CONTINUOUS
 10
25.7157516838
 20
-46.4095640553
 11
25.7157516838
 21
28.7658456075
  0
LINE
  5
316
100
AcDbEntity
  8
RACCORDO
100
AcDbLine
 62
7
  6
CONTINUOUS
 10
-24.374013945
 20
-44.2992036712
 11
-24.0955838654
 21
-44.1362839442
  0
LINE
  5
317
100
AcDbEntity
  8
RACCORDO
100
AcDbLine
 62
7
  6
CONTINUOUS
 10
13.3918140817
 20
22.6310614926
 11
-42.0779876763
 21
33.5844292949
  0
LINE
  5
318
100
AcDbEntity
  8
DRAFT
100
AcDbLine
 62
7
  6
CONTINUOUS
 10
-42.2944857834
 20
34.2075506957
 11
13.6362616936
 21
23.1631620526
  0
LINE
  5
319
100
AcDbEntity
  8
RACCORDO
100
AcDbLine
 62
253
  6
CONTINUOUS
 10
-40.9071435539
 20
35.954311754
 11
15.1257839422
 21
24.8897460872
  0
LINE
  5
31A
100
AcDbEntity
  8
RACCORDO
100
AcDbLine
 62
7
  6
CONTINUOUS
 10
29.2612690119
 20
43.78257183
 11
29.2612690119
 21
44.0129504492
  0
LINE
  5
31B
100
AcDbEntity
  8
0
100
AcDbLine
 62
7
  6
CONTINUOUS
 10
5.3122362925
 20
-44.6609709863
 11
5.2269765745
 21
-44.7401910729
  0
LINE
  5
31C
100
AcDbEntity
  8
0
100
AcDbLine
 62
7
  6
CONTINUOUS
 10
-3.569870807
 20
-42.0900644406
 11
-3.4945653309
 21
-42.0454537578
  0
LINE
  5
31D
100
AcDbEntity
  8
0
100
AcDbLine
 62
7
  6
CONTINUOUS
 10
-3.2992378683
 20
-42.143505088
 11
-3.2239323922
 21
-42.0988944052
  0
LINE
  5
31E
100
AcDbEntity
  8
RACCORDO
100
AcDbLine
 62
7
  6
CONTINUOUS
 10
6.8524248768
 20
-37.0939977459
 11
7.5789630432
 21
-36.6635992494
  0
LINE
  5
31F
100
AcDbEntity
  8
0
100
AcDbLine
 62
7
  6
CONTINUOUS
 10
-2.0362841975
 20
-42.3928947674
 11
-1.9609787214
 21
-42.3482840845
  0
LINE
  5
320
100
AcDbEntity
  8
0
100
AcDbLine
 62
7
  6
CONTINUOUS
 10
-1.7656512588
 20
-42.4463354148
 11
-1.6903457827
 21
-42.4017247319
  0
LINE
  5
321
100
AcDbEntity
  8
0
100
AcDbLine
 62
7
  6
CONTINUOUS
 10
-1.4048072976
 20
-42.5175896198
 11
-1.3295018215
 21
-42.472978937
  0
LINE
  5
322
100
AcDbEntity
  8
0
100
AcDbLine
 62
7
  6
CONTINUOUS
 10
-1.1341743589
 20
-42.5710302672
 11
-1.0588688828
 21
-42.5264195844
  0
LINE
  5
323
100
AcDbEntity
  8
0
100
AcDbLine
 62
7
  6
CONTINUOUS
 10
-0.7733305267
 20
-42.6422844467
 11
-0.6980250506
 21
-42.5976737639
  0
LINE
  5
324
100
AcDbEntity
  8
0
100
AcDbLine
 62
7
  6
CONTINUOUS
 10
-0.3673811186
 20
-42.7224454178
 11
-0.2920756425
 21
-42.677834735
  0
LINE
  5
325
100
AcDbEntity
  8
0
100
AcDbLine
 62
7
  6
CONTINUOUS
 10
-2.369909342
 20
-44.5834936603
 11
-2.2945530938
 21
-44.5388529003
  0
LINE
  5
326
100
AcDbEntity
  8
0
100
AcDbLine
 62
7
  6
CONTINUOUS
 10
0.9857838329
 20
-42.9896487057
 11
1.061089309
 21
-42.9450380229
  0
LINE
  5
327
100
AcDbEntity
  8
RACCORDO
100
AcDbLine
 62
7
  6
CONTINUOUS
 10
-32.4749871313
 20
41.1921263123
 11
23.8167630415
 21
30.0764521196
  0
LINE
  5
328
100
AcDbEntity
  8
RACCORDO
100
AcDbLine
 62
7
  6
CONTINUOUS
 10
24.4167135781
 20
30.4318996462
 11
-31.8749376679
 21
41.5475543043
  0
LINE
  5
329
100
AcDbEntity
  8
RACCORDO
100
AcDbLine
 62
7
  6
CONTINUOUS
 10
-3.3016625512
 20
-48.4602644279
 11
-2.6307920135
 21
-48.0349773656
  0
LINE
  5
32A
100
AcDbEntity
  8
0
100
AcDbLine
 62
7
  6
CONTINUOUS
 10
1.3917332409
 20
-43.0698096768
 11
1.467038717
 21
-43.025198994
  0
LINE
  5
32B
100
AcDbEntity
  8
0
100
AcDbLine
 62
7
  6
CONTINUOUS
 10
-1.0167446486
 20
-44.8506968973
 11
-0.9413884004
 21
-44.8060561373
  0
LINE
  5
32C
100
AcDbEntity
  8
0
100
AcDbLine
 62
7
  6
CONTINUOUS
 10
-0.3852678777
 20
-44.9753917242
 11
-0.3099116295
 21
-44.9307509642
  0
LINE
  5
32D
100
AcDbEntity
  8
0
100
AcDbLine
 62
7
  6
CONTINUOUS
 10
2.4742649956
 20
-43.2835722664
 11
2.5495704717
 21
-43.2389615836
  0
LINE
  5
32E
100
AcDbEntity
  8
0
100
AcDbLine
 62
7
  6
CONTINUOUS
 10
2.8351085697
 20
-43.354826395
 11
2.9104140458
 21
-43.3102157122
  0
LINE
  5
32F
100
AcDbEntity
  8
0
100
AcDbLine
 62
7
  6
CONTINUOUS
 10
0.6070529835
 20
-45.1713407817
 11
0.6824092317
 21
-45.1267000216
  0
LINE
  5
330
100
AcDbEntity
  8
0
100
AcDbLine
 62
7
  6
CONTINUOUS
 10
3.9176403245
 20
-43.5685889846
 11
3.9929458006
 21
-43.5239783017
  0
LINE
  5
331
100
AcDbEntity
  8
0
100
AcDbLine
 62
7
  6
CONTINUOUS
 10
2.3251756452
 20
-44.7432497902
 11
2.4005141625
 21
-44.6986195339
  0
LINE
  5
332
100
AcDbEntity
  8
0
100
AcDbLine
 62
7
  6
CONTINUOUS
 10
1.5091629512
 20
-45.349476307
 11
1.5845191994
 21
-45.3048355469
  0
LINE
  5
333
100
AcDbEntity
  8
0
100
AcDbLine
 62
7
  6
CONTINUOUS
 10
2.140639464
 20
-45.4741710829
 11
2.2159957122
 21
-45.4295303229
  0
LINE
  5
334
100
AcDbEntity
  8
0
100
AcDbLine
 62
7
  6
CONTINUOUS
 10
5.0001720792
 20
-43.7823515741
 11
5.0754775553
 21
-43.7377408913
  0
LINE
  5
335
100
AcDbEntity
  8
0
100
AcDbLine
 62
7
  6
CONTINUOUS
 10
5.2281040773
 20
-43.875444781
 11
5.3034105922
 21
-43.8308334828
  0
LINE
  5
336
100
AcDbEntity
  8
0
100
AcDbLine
 62
7
  6
CONTINUOUS
 10
4.2371380857
 20
-44.5927553153
 11
4.3124646807
 21
-44.5481321217
  0
LINE
  5
337
100
AcDbEntity
  8
0
100
AcDbLine
 62
7
  6
CONTINUOUS
 10
5.4157640518
 20
-44.05673531
 11
5.4910736942
 21
-44.0121221591
  0
LINE
  5
338
100
AcDbEntity
  8
0
100
AcDbLine
 62
7
  6
CONTINUOUS
 10
5.5607880159
 20
-44.2776395264
 11
5.6361018533
 21
-44.2330238904
  0
LINE
  5
339
100
AcDbEntity
  8
0
100
AcDbLine
 62
7
  6
CONTINUOUS
 10
5.6132163943
 20
-44.4321586378
 11
5.6885333968
 21
-44.3875411267
  0
LINE
  5
33A
100
AcDbEntity
  8
0
100
AcDbLine
 62
7
  6
CONTINUOUS
 10
5.0941427356
 20
-44.7619841
 11
5.1694693307
 21
-44.7173609064
  0
LINE
  5
33B
100
AcDbEntity
  8
0
100
AcDbLine
 62
7
  6
CONTINUOUS
 10
3.6742264606
 20
-45.7770014861
 11
3.7495827089
 21
-45.7323607261
  0
LINE
  5
33C
100
AcDbEntity
  8
0
100
AcDbLine
 62
7
  6
CONTINUOUS
 10
5.6230384535
 20
-44.6262748029
 11
5.6983597014
 21
-44.5816547769
  0
LINE
  5
33D
100
AcDbEntity
  8
0
100
AcDbLine
 62
7
  6
CONTINUOUS
 10
5.5853431597
 20
-44.7629297318
 11
5.6606676105
 21
-44.7183078085
  0
LINE
  5
33E
100
AcDbEntity
  8
0
100
AcDbLine
 62
7
  6
CONTINUOUS
 10
5.4599633342
 20
-44.9302575538
 11
5.5352920807
 21
-44.8856330856
  0
LINE
  5
33F
100
AcDbEntity
  8
0
100
AcDbLine
 62
7
  6
CONTINUOUS
 10
4.3057029734
 20
-45.9016962621
 11
4.3810592217
 21
-45.8570555021
  0
LWPOLYLINE
  5
340
100
AcDbEntity
  8
RACCORDO
100
AcDbPolyline
 62
7
  6
CONTINUOUS
 90
49
 70
0
 10
45.0549433149
 20
40.2269549191
 10
45.0546896711
 20
40.254631011
 10
45.053205295
 20
40.2994883653
 10
45.0503928106
 20
40.3443884204
 10
45.0462495858
 20
40.3893173944
 10
45.0407761594
 20
40.4342310466
 10
45.0339792218
 20
40.4790525942
 10
45.0258607591
 20
40.5237602572
 10
45.0164232058
 20
40.5683244388
 10
45.0056823131
 20
40.6126597746
 10
44.9936428905
 20
40.6567458332
 10
44.9803094051
 20
40.7005562728
 10
44.9657080445
 20
40.7440016271
 10
44.9498465069
 20
40.7870611609
 10
44.9327306665
 20
40.8297127007
 10
44.9143953735
 20
40.8718696901
 10
44.8948496252
 20
40.9135129622
 10
44.8741013838
 20
40.9546221281
 10
44.8521932298
 20
40.9951137104
 10
44.829135786
 20
41.0349690128
 10
44.8049388831
 20
41.074169824
 10
44.7796509791
 20
41.1126375328
 10
44.7532841413
 20
41.1503550604
 10
44.7258503165
 20
41.1873045153
 10
44.6974049904
 20
41.223410464
 10
44.6679631805
 20
41.2586564361
 10
44.6375381861
 20
41.2930255812
 10
44.6061919132
 20
41.3264480978
 10
44.573942183
 20
41.3589083837
 10
44.5408044495
 20
41.3903901934
 10
44.5068469778
 20
41.4208305728
 10
44.4720929016
 20
41.4502128127
 10
44.4365585459
 20
41.4785239513
 10
44.4003108293
 20
41.5057139911
 10
44.363375601
 20
41.5317674406
 10
44.3257728296
 20
41.5566724632
 10
44.287567715
 20
41.5803898244
 10
44.2487873381
 20
41.6029066502
 10
44.2094571365
 20
41.6242116249
 10
44.1696461738
 20
41.6442720081
 10
44.129389063
 20
41.6630757168
 10
44.0887116411
 20
41.6806163453
 10
44.0476755268
 20
41.6968730823
 10
44.0063165584
 20
41.711837895
 10
43.9646645444
 20
41.7255065063
 10
43.922777084
 20
41.7378664765
 10
43.8806990195
 20
41.748912161
 10
43.8384621411
 20
41.7586438214
 10
43.8156799567
 20
41.7633365009
  0
LINE
  5
341
100
AcDbEntity
  8
RACCORDO
100
AcDbLine
 62
253
  6
CONTINUOUS
 10
44.9252991202
 20
40.0585263215
 11
44.9252991202
 21
-34.4771900246
  0
LINE
  5
342
100
AcDbEntity
  8
RACCORDO
100
AcDbLine
 62
7
  6
CONTINUOUS
 10
45.0549434243
 20
40.2269520275
 11
45.0549434243
 21
-34.3087771377
  0
LINE
  5
343
100
AcDbEntity
  8
0
100
AcDbLine
 62
7
  6
CONTINUOUS
 10
5.7490788185
 20
-46.1867130822
 11
5.8244350667
 21
-46.1420723221
  0
LINE
  5
344
100
AcDbEntity
  8
0
100
AcDbLine
 62
7
  6
CONTINUOUS
 10
5.2845339132
 20
-44.9916399109
 11
5.4599633342
 21
-44.9302575538
  0
LWPOLYLINE
  5
345
100
AcDbEntity
  8
RACCORDO
100
AcDbPolyline
 62
7
  6
CONTINUOUS
 90
24
 70
0
 10
-11.8864566485
 20
52.7625823485
 10
-11.9117699767
 20
52.7673425227
 10
-11.955038497
 20
52.7743843303
 10
-11.9983605609
 20
52.7800620852
 10
-12.0416851346
 20
52.784375449
 10
-12.0849785707
 20
52.7873288247
 10
-12.1282203654
 20
52.7889270756
 10
-12.1713687983
 20
52.7891737544
 10
-12.214381954
 20
52.7880748226
 10
-12.2572365838
 20
52.785636146
 10
-12.2998874952
 20
52.7818645206
 10
-12.3422939652
 20
52.7767690428
 10
-12.3844373352
 20
52.7703567883
 10
-12.4262733299
 20
52.762638047
 10
-12.4677604047
 20
52.7536249433
 10
-12.5088821511
 20
52.7433252634
 10
-12.5495957277
 20
52.7317526192
 10
-12.5898588213
 20
52.7189223682
 10
-12.6296544749
 20
52.7048435274
 10
-12.6689403658
 20
52.689533695
 10
-12.7076757342
 20
52.6730115055
 10
-12.7458449692
 20
52.655286394
 10
-12.7834157613
 20
52.6363751903
 10
-12.8206211581
 20
52.6161453246
  0
LINE
  5
346
100
AcDbEntity
  8
DRAFT
100
AcDbLine
 62
7
  6
CONTINUOUS
 10
26.2612690119
 20
43.216492922
 11
30.5913960308
 21
42.3614425637
  0
LINE
  5
347
100
AcDbEntity
  8
RACCORDO
100
AcDbLine
 62
253
  6
CONTINUOUS
 10
28.7612690119
 20
43.8016873007
 11
31.9862415031
 21
43.1648667473
  0
LINE
  5
348
100
AcDbEntity
  8
RACCORDO
100
AcDbLine
 62
7
  6
CONTINUOUS
 10
28.9549936381
 20
43.8430506259
 11
32.0891778987
 21
43.2241576088
  0
LINE
  5
349
100
AcDbEntity
  8
RACCORDO
100
AcDbLine
 62
253
  6
CONTINUOUS
 10
-12.0758016461
 20
52.723764918
 11
-0.0199453292
 21
50.343150165
  0
LINE
  5
34A
100
AcDbEntity
  8
RACCORDO
100
AcDbLine
 62
253
  6
CONTINUOUS
 10
21.4036745422
 20
46.1127260302
 11
28.7656322796
 21
44.6589939402
  0
LINE
  5
34B
100
AcDbEntity
  8
RACCORDO
100
AcDbLine
 62
253
  6
CONTINUOUS
 10
33.0957592986
 20
43.8039435819
 11
43.6263050502
 21
41.7245249231
  0
LINE
  5
34C
100
AcDbEntity
  8
RACCORDO
100
AcDbLine
 62
7
  6
CONTINUOUS
 10
-11.8864466737
 20
52.7625805013
 11
0.0160918422
 21
50.4122407126
  0
LINE
  5
34D
100
AcDbEntity
  8
RACCORDO
100
AcDbLine
 62
7
  6
CONTINUOUS
 10
21.3140104226
 20
46.2066382363
 11
28.9549936381
 21
44.6978082625
  0
LINE
  5
34E
100
AcDbEntity
  8
RACCORDO
100
AcDbLine
 62
7
  6
CONTINUOUS
 10
33.285120657
 20
43.8427579042
 11
43.8156718366
 21
41.7633381736
  0
LWPOLYLINE
  5
34F
100
AcDbEntity
  8
RACCORDO
100
AcDbPolyline
 62
7
  6
CONTINUOUS
 90
36
 70
0
 10
44.4103326355
 20
-35.4993242663
 10
44.4420505088
 20
-35.4789969613
 10
44.4748973392
 20
-35.4565726684
 10
44.5070663408
 20
-35.4331728283
 10
44.5385337923
 20
-35.4088149682
 10
44.5692899625
 20
-35.3835053275
 10
44.5993039462
 20
-35.3572664592
 10
44.6285460157
 20
-35.3301223263
 10
44.6570070368
 20
-35.3020791518
 10
44.6846587289
 20
-35.2731607755
 10
44.7114722298
 20
-35.2433933292
 10
44.7374367882
 20
-35.2127846947
 10
44.762525873
 20
-35.1813610407
 10
44.786713285
 20
-35.1491496741
 10
44.8099881299
 20
-35.1161583694
 10
44.8323270463
 20
-35.0824130912
 10
44.8537050639
 20
-35.0479439638
 10
44.8741086318
 20
-35.0127632988
 10
44.8935174914
 20
-34.9768960876
 10
44.9119084007
 20
-34.9403753954
 10
44.9292640167
 20
-34.903224068
 10
44.9455653348
 20
-34.8654709463
 10
44.9607943056
 20
-34.82714691
 10
44.9749359281
 20
-34.7882758961
 10
44.9879746026
 20
-34.7488846293
 10
44.9998944282
 20
-34.7090061888
 10
45.0106808154
 20
-34.6686715924
 10
45.0203207518
 20
-34.6279080197
 10
45.0288017654
 20
-34.5867477351
 10
45.0361113445
 20
-34.5452267743
 10
45.0422388666
 20
-34.5033736581
 10
45.0471750492
 20
-34.4612167768
 10
45.0509103481
 20
-34.4187890816
 10
45.0534360139
 20
-34.3761194078
 10
45.0547447883
 20
-34.3332375857
 10
45.0549433622
 20
-34.3087807738
  0
LINE
  5
350
100
AcDbEntity
  8
RACCORDO
100
AcDbLine
 62
253
  6
CONTINUOUS
 10
25.7157516838
 20
-46.4096177262
 11
44.9252991202
 21
-34.4771900246
  0
LINE
  5
351
100
AcDbEntity
  8
RACCORDO
100
AcDbLine
 62
7
  6
CONTINUOUS
 10
25.1991240102
 20
-47.4327782442
 11
44.4103951587
 21
-35.4992857113
  0
LINE
  5
352
100
AcDbEntity
  8
RACCORDO
100
AcDbLine
 62
253
  6
CONTINUOUS
 10
25.1157516838
 20
-46.7650018146
 11
25.7157516838
 21
-46.4095640553
  0
LINE
  5
353
100
AcDbEntity
  8
RACCORDO
100
AcDbLine
 62
7
  6
CONTINUOUS
 10
24.5812296362
 20
-47.7990351165
 11
25.1812296362
 21
-47.4435973572
  0
LINE
  5
354
100
AcDbEntity
  8
RACCORDO
100
AcDbLine
 62
253
  6
CONTINUOUS
 10
25.1157516838
 20
-46.7650554855
 11
16.4247155429
 21
-51.6709546618
  0
LINE
  5
355
100
AcDbEntity
  8
RACCORDO
100
AcDbLine
 62
7
  6
CONTINUOUS
 10
15.8692025905
 20
-52.717068565
 11
24.5632541714
 21
-47.8094673757
  0
ARC
  5
356
100
AcDbEntity
  8
RACCORDO
100
AcDbCircle
 62
253
  6
CONTINUOUS
 10
-42.3868928596
 20
-24.9293511362
 40
9.1901232
100
AcDbArc
 50
289.1210300269
 51
291.6030136619
  0
ARC
  5
357
100
AcDbEntity
  8
RACCORDO
100
AcDbCircle
 62
253
  6
CONTINUOUS
 10
-33.8159486268
 20
-36.1752550941
 40
6.1227482268
100
AcDbArc
 50
151.4539800596
 51
155.2555634914
  0
ARC
  5
358
100
AcDbEntity
  8
RACCORDO
100
AcDbCircle
 62
253
  6
CONTINUOUS
 10
14.5527355993
 20
-51.6214806798
 40
1.461987429
100
AcDbArc
 50
231.3285900514
 51
231.6623515656
  0
ARC
  5
359
100
AcDbEntity
  8
RACCORDO
100
AcDbCircle
 62
7
  6
CONTINUOUS
 10
23.6575341397
 20
-46.7663065569
 40
1.4582181278
100
AcDbArc
 50
350.1177414407
 51
0.0512654693
  0
ARC
  5
35A
100
AcDbEntity
  8
RACCORDO
100
AcDbCircle
 62
7
  6
CONTINUOUS
 10
-3.6105616868
 20
-48.3336090018
 40
1.3726772518
100
AcDbArc
 50
283.8742794685
 51
284.3297441366
  0
ARC
  5
35B
100
AcDbEntity
  8
RACCORDO
100
AcDbCircle
 62
7
  6
CONTINUOUS
 10
24.6334058227
 20
-46.5411785745
 40
1.0553783071
100
AcDbArc
 50
305.7084567187
 51
317.5878368927
  0
ARC
  5
35C
100
AcDbEntity
  8
RACCORDO
100
AcDbCircle
 62
7
  6
CONTINUOUS
 10
24.663850078
 20
-46.5820708839
 40
1.0044050947
100
AcDbArc
 50
300.8247184704
 51
305.6597745526
  0
ARC
  5
35D
100
AcDbEntity
  8
RACCORDO
100
AcDbCircle
 62
253
  6
CONTINUOUS
 10
43.8846744725
 20
-34.6529744193
 40
0.9963050411
100
AcDbArc
 50
301.8479783758
 51
303.452900186
  0
ARC
  5
35E
100
AcDbEntity
  8
RACCORDO
100
AcDbCircle
 62
253
  6
CONTINUOUS
 10
-4.6271217176
 20
48.6773932724
 40
37.4409199568
100
AcDbArc
 50
289.1619132638
 51
289.721591554
  0
ARC
  5
35F
100
AcDbEntity
  8
RACCORDO
100
AcDbCircle
 62
253
  6
CONTINUOUS
 10
7.448292762
 20
66.6016184308
 40
21.3613347954
100
AcDbArc
 50
259.6334620572
 51
259.8387366747
  0
ARC
  5
360
100
AcDbEntity
  8
RACCORDO
100
AcDbCircle
 62
253
  6
CONTINUOUS
 10
21.268388389
 20
19.2505553728
 40
8.5423098639
100
AcDbArc
 50
156.2444229308
 51
156.7317535763
  0
ARC
  5
361
100
AcDbEntity
  8
RACCORDO
100
AcDbCircle
 62
253
  6
CONTINUOUS
 10
20.7609032914
 20
19.478636716
 40
7.9859446694
100
AcDbArc
 50
153.0974968795
 51
156.2754413053
  0
ARC
  5
362
100
AcDbEntity
  8
RACCORDO
100
AcDbCircle
 62
253
  6
CONTINUOUS
 10
20.3021863009
 20
19.7068245777
 40
7.4736231639
100
AcDbArc
 50
152.5945936449
 51
153.0663368049
  0
ARC
  5
363
100
AcDbEntity
  8
RACCORDO
100
AcDbCircle
 62
7
  6
CONTINUOUS
 10
4.3841856815
 20
45.7326718258
 40
6.6382735411
100
AcDbArc
 50
114.9449452892
 51
115.5325897049
  0
ARC
  5
364
100
AcDbEntity
  8
RACCORDO
100
AcDbCircle
 62
253
  6
CONTINUOUS
 10
4.2172289215
 20
46.2391390879
 40
6.0962453314
100
AcDbArc
 50
115.5310088881
 51
116.1663752505
  0
ARC
  5
365
100
AcDbEntity
  8
RACCORDO
100
AcDbCircle
 62
253
  6
CONTINUOUS
 10
4.0284721259
 20
46.621962653
 40
5.6694167606
100
AcDbArc
 50
116.1603594852
 51
117.3556646798
  0
ARC
  5
366
100
AcDbEntity
  8
RACCORDO
100
AcDbCircle
 62
7
  6
CONTINUOUS
 10
6.5233659892
 20
49.3452796902
 40
3.4917191523
100
AcDbArc
 50
112.6194278823
 51
115.5017481859
  0
ARC
  5
367
100
AcDbEntity
  8
RACCORDO
100
AcDbCircle
 62
253
  6
CONTINUOUS
 10
6.3164672384
 20
49.9386517238
 40
2.8540568564
100
AcDbArc
 50
115.5199236441
 51
116.8740007603
  0
ARC
  5
368
100
AcDbEntity
  8
RACCORDO
100
AcDbCircle
 62
253
  6
CONTINUOUS
 10
6.1618324741
 20
50.2432722833
 40
2.5124349428
100
AcDbArc
 50
116.8685958878
 51
118.6648168137
  0
ARC
  5
369
100
AcDbEntity
  8
RACCORDO
100
AcDbCircle
 62
7
  6
CONTINUOUS
 10
23.2870794795
 20
28.3580876492
 40
1.8341802586
100
AcDbArc
 50
25.5530263223
 51
33.6520729483
  0
ARC
  5
36A
100
AcDbEntity
  8
RACCORDO
100
AcDbCircle
 62
253
  6
CONTINUOUS
 10
1.7869069272
 20
50.5806173938
 40
1.7563296738
100
AcDbArc
 50
217.7891585071
 51
217.9512550823
  0
ARC
  5
36B
100
AcDbEntity
  8
RACCORDO
100
AcDbCircle
 62
253
  6
CONTINUOUS
 10
14.8069384432
 20
50.4692345865
 40
1.6749962758
100
AcDbArc
 50
321.1157924288
 51
321.5775463996
  0
ARC
  5
36C
100
AcDbEntity
  8
RACCORDO
100
AcDbCircle
 62
253
  6
CONTINUOUS
 10
-2.1351398442
 20
46.557901148
 40
1.4714280203
100
AcDbArc
 50
194.2475819519
 51
196.0030340596
  0
ARC
  5
36D
100
AcDbEntity
  8
RACCORDO
100
AcDbCircle
 62
253
  6
CONTINUOUS
 10
18.6475096092
 20
46.4476978079
 40
1.4490144281
100
AcDbArc
 50
342.6345447589
 51
343.5853911623
  0
ARC
  5
36E
100
AcDbEntity
  8
RACCORDO
100
AcDbCircle
 62
7
  6
CONTINUOUS
 10
1.3164580589
 20
49.8649475532
 40
1.4120221887
100
AcDbArc
 50
155.0089195146
 51
156.8184112521
  0
ARC
  5
36F
100
AcDbEntity
  8
RACCORDO
100
AcDbCircle
 62
7
  6
CONTINUOUS
 10
1.283464836
 20
49.8791448887
 40
1.376104046
100
AcDbArc
 50
156.8210510452
 51
158.0751437958
  0
ARC
  5
370
100
AcDbEntity
  8
RACCORDO
100
AcDbCircle
 62
253
  6
CONTINUOUS
 10
-0.488342105
 20
48.3071647117
 40
1.3626482892
100
AcDbArc
 50
199.6971804418
 51
202.4023327028
  0
ARC
  5
371
100
AcDbEntity
  8
RACCORDO
100
AcDbCircle
 62
7
  6
CONTINUOUS
 10
-32.1045313286
 20
40.383024824
 40
1.1869465698
100
AcDbArc
 50
78.8468496399
 51
90.3023592361
  0
ARC
  5
372
100
AcDbEntity
  8
RACCORDO
100
AcDbCircle
 62
253
  6
CONTINUOUS
 10
1.0494125323
 20
49.9724448345
 40
1.1448880552
100
AcDbArc
 50
202.2320489034
 51
204.2496677828
  0
ARC
  5
373
100
AcDbEntity
  8
RACCORDO
100
AcDbCircle
 62
7
  6
CONTINUOUS
 10
-32.7445305879
 20
40.2499212299
 40
0.9599898713
100
AcDbArc
 50
113.2976335153
 51
120.8457474415
  0
ARC
  5
374
100
AcDbEntity
  8
0
100
AcDbCircle
 62
7
  6
CONTINUOUS
 10
11.039415759
 20
50.9406572095
 40
0.9063418978
100
AcDbArc
 50
315.6200010545
 51
316.3941529827
  0
ARC
  5
375
100
AcDbEntity
  8
RACCORDO
100
AcDbCircle
 62
253
  6
CONTINUOUS
 10
635.4971551199
 20
-6.1920227231
 40
679.8219299508
100
AcDbArc
 50
176.9241371203
 51
177.4580801456
  0
ARC
  5
376
100
AcDbEntity
  8
RACCORDO
100
AcDbCircle
 62
253
  6
CONTINUOUS
 10
670.8524058046
 20
-17.2306815469
 40
659.2261820284
100
AcDbArc
 50
176.8293019913
 51
177.3798051425
  0
ARC
  5
377
100
AcDbEntity
  8
RACCORDO
100
AcDbCircle
 62
253
  6
CONTINUOUS
 10
670.1068794712
 20
-17.0455010609
 40
656.4382268781
100
AcDbArc
 50
176.8291221987
 51
177.379603103
  0
ARC
  5
378
100
AcDbEntity
  8
RACCORDO
100
AcDbCircle
 62
253
  6
CONTINUOUS
 10
521.8998788194
 20
-6.5550061354
 40
566.1768848816
100
AcDbArc
 50
182.6841017955
 51
183.2872864623
  0
ARC
  5
379
100
AcDbEntity
  8
0
100
AcDbCircle
 62
7
  6
CONTINUOUS
 10
526.9722479051
 20
-8.5443776413
 40
560.7891957945
100
AcDbArc
 50
182.8320959559
 51
182.9611742168
  0
ARC
  5
37A
100
AcDbEntity
  8
0
100
AcDbCircle
 62
7
  6
CONTINUOUS
 10
524.9876064358
 20
-8.1524795776
 40
560.7891957895
100
AcDbArc
 50
182.8320959559
 51
182.9611742168
  0
ARC
  5
37B
100
AcDbEntity
  8
0
100
AcDbCircle
 62
7
  6
CONTINUOUS
 10
521.9490841984
 20
-7.7129393526
 40
560.1404492293
100
AcDbArc
 50
182.8320483638
 51
183.0655407746
  0
ARC
  5
37C
100
AcDbEntity
  8
0
100
AcDbCircle
 62
7
  6
CONTINUOUS
 10
558.3221511569
 20
-14.8953623625
 40
560.1404492288
100
AcDbArc
 50
182.8320483638
 51
183.0655407746
  0
ARC
  5
37D
100
AcDbEntity
  8
0
100
AcDbCircle
 62
7
  6
CONTINUOUS
 10
560.8480587549
 20
-15.3941417723
 40
560.1404492271
100
AcDbArc
 50
182.8320483638
 51
183.0655407746
  0
ARC
  5
37E
100
AcDbEntity
  8
0
100
AcDbCircle
 62
7
  6
CONTINUOUS
 10
521.7577506693
 20
-7.6692170417
 40
559.8740921236
100
AcDbArc
 50
182.8333057703
 51
183.0669064574
  0
ARC
  5
37F
100
AcDbEntity
  8
0
100
AcDbCircle
 62
7
  6
CONTINUOUS
 10
558.1308176279
 20
-14.8516400515
 40
559.8740921233
100
AcDbArc
 50
182.8333057703
 51
183.0669064574
  0
ARC
  5
380
100
AcDbEntity
  8
0
100
AcDbCircle
 62
7
  6
CONTINUOUS
 10
560.6567252275
 20
-15.3504194612
 40
559.8740921231
100
AcDbArc
 50
182.8333057703
 51
183.0669064574
  0
ARC
  5
381
100
AcDbEntity
  8
0
100
AcDbCircle
 62
7
  6
CONTINUOUS
 10
521.7855238351
 20
-7.8112064134
 40
559.6153502992
100
AcDbArc
 50
182.8319388252
 51
183.0656503269
  0
ARC
  5
382
100
AcDbEntity
  8
0
100
AcDbCircle
 62
7
  6
CONTINUOUS
 10
562.8495615785
 20
-15.9199339485
 40
559.615350297
100
AcDbArc
 50
182.8319388252
 51
183.0656503269
  0
ARC
  5
383
100
AcDbEntity
  8
0
100
AcDbCircle
 62
7
  6
CONTINUOUS
 10
558.1585907273
 20
-14.9936294106
 40
559.615350297
100
AcDbArc
 50
182.8319388252
 51
183.0656503269
  0
ARC
  5
384
100
AcDbEntity
  8
0
100
AcDbCircle
 62
7
  6
CONTINUOUS
 10
557.5271139562
 20
-14.8689345837
 40
559.6153502968
100
AcDbArc
 50
182.8319388252
 51
183.0656503269
  0
ARC
  5
385
100
AcDbEntity
  8
0
100
AcDbCircle
 62
7
  6
CONTINUOUS
 10
521.1540469952
 20
-7.686511574
 40
559.6153502947
100
AcDbArc
 50
182.8319388252
 51
183.0656503269
  0
ARC
  5
386
100
AcDbEntity
  8
0
100
AcDbCircle
 62
7
  6
CONTINUOUS
 10
558.396488671
 20
-15.0490540554
 40
559.5825563311
100
AcDbArc
 50
182.8816721995
 51
183.0656267275
  0
ARC
  5
387
100
AcDbEntity
  8
0
100
AcDbCircle
 62
7
  6
CONTINUOUS
 10
559.607142011
 20
-15.3911594223
 40
559.1688550292
100
AcDbArc
 50
182.8816041534
 51
183.0656947803
  0
ARC
  5
388
100
AcDbEntity
  8
0
100
AcDbCircle
 62
7
  6
CONTINUOUS
 10
557.8036322976
 20
-15.0263245981
 40
558.9141281369
100
AcDbArc
 50
182.9119183915
 51
183.0670471329
  0
ARC
  5
389
100
AcDbEntity
  8
RACCORDO
100
AcDbCircle
 62
253
  6
CONTINUOUS
 10
561.7183700159
 20
-17.5848733475
 40
550.0434136888
100
AcDbArc
 50
182.7652394102
 51
183.3863635752
  0
ARC
  5
38A
100
AcDbEntity
  8
RACCORDO
100
AcDbCircle
 62
253
  6
CONTINUOUS
 10
561.4263400532
 20
-17.3910721139
 40
547.7091410865
100
AcDbArc
 50
182.7654460399
 51
183.3865554054
  0
SPLINE
  5
38B
100
AcDbEntity
  8
RACCORDO
100
AcDbSpline
 62
7
  6
CONTINUOUS
 70
0
 71
3
 72
21
 73
17
 74
15
 42
0.0000001
 43
0.0000001
 44
0.0000000001
 12
7.2510926433
 22
3.0259963705
 32
0.0
 13
-0.0363659471
 23
-7.8531758752
 33
0.0
 40
0.0
 40
0.0
 40
0.0
 40
0.0
 40
0.0475781947
 40
0.1252101897
 40
0.2093376773
 40
0.2982275966
 40
0.3897421219
 40
0.4815367511
 40
0.5712501241
 40
0.6566759493
 40
0.7359494508
 40
0.8077444674
 40
0.8710357919
 40
0.9219515065
 40
0.9633421973
 40
1.0
 40
1.0
 40
1.0
 40
1.0
 10
5.1804216713
 20
52.5684153059
 30
0.0
 10
5.2954196372
 20
52.6164057874
 30
0.0
 10
5.6046007701
 20
52.7276812581
 30
0.0
 10
6.1357976821
 20
52.8649440896
 30
0.0
 10
6.7833140902
 20
52.9751347022
 30
0.0
 10
7.4729814503
 20
53.0427738791
 30
0.0
 10
8.1855843534
 20
53.0669565134
 30
0.0
 10
8.9004716526
 20
53.0473052528
 30
0.0
 10
9.5968830934
 20
52.9842525286
 30
0.0
 10
10.2550821575
 20
52.8788808093
 30
0.0
 10
10.8574093771
 20
52.7323666423
 30
0.0
 10
11.3876556888
 20
52.5449902284
 30
0.0
 10
11.8216894926
 20
52.3193087454
 30
0.0
 10
12.1396465568
 20
52.0577533541
 30
0.0
 10
12.3284537781
 20
51.7702128796
 30
0.0
 10
12.3699666188
 20
51.5638718531
 30
0.0
 10
12.3695222536
 20
51.4679117959
 30
0.0
 11
5.1804216713
 21
52.5684153059
 31
0.0
 11
5.531622284
 21
52.6967595792
 31
0.0
 11
6.1210232738
 21
52.8526344248
 31
0.0
 11
6.7719832978
 21
52.9655173517
 31
0.0
 11
7.4666128643
 21
53.0347949368
 31
0.0
 11
8.1848725825
 21
53.059584262
 31
0.0
 11
8.9054807118
 21
53.0395311012
 31
0.0
 11
9.6070672871
 21
52.9750614016
 31
0.0
 11
10.2692163975
 21
52.86723398
 31
0.0
 11
10.8734082879
 21
52.7171426202
 31
0.0
 11
11.4033433777
 21
52.5246137638
 31
0.0
 11
11.840394968
 21
52.2878905463
 31
0.0
 11
12.1428373932
 21
52.0263335172
 31
0.0
 11
12.3149220268
 21
51.7505698678
 31
0.0
 11
12.3695222536
 21
51.4679117959
 31
0.0
  0
SPLINE
  5
38C
100
AcDbEntity
  8
RACCORDO
100
AcDbSpline
 62
7
  6
CONTINUOUS
 70
0
 71
3
 72
11
 73
7
 74
5
 42
0.0000001
 43
0.0000001
 44
0.0000000001
 12
0.0063573052
 22
1.3728512509
 32
0.0
 13
1.2387788106
 23
0.5917668722
 33
0.0
 40
0.0
 40
0.0
 40
0.0
 40
0.0
 40
0.1929061749
 40
0.411066976
 40
0.6737949487
 40
1.0
 40
1.0
 40
1.0
 40
1.0
 10
4.1696101712
 20
51.5058833852
 30
0.0
 10
4.170018959
 20
51.5941605464
 30
0.0
 10
4.2065897196
 20
51.7836017518
 30
0.0
 10
4.3702577177
 20
52.0512822036
 30
0.0
 10
4.6491108317
 20
52.299389109
 30
0.0
 10
4.8853473532
 20
52.4324623659
 30
0.0
 10
5.0200459884
 20
52.4968081469
 30
0.0
 11
4.1696101712
 21
51.5058833852
 31
0.0
 11
4.218278643
 21
51.7662074112
 31
0.0
 11
4.3695863827
 21
52.0246828187
 31
0.0
 11
4.6336986977
 21
52.270329257
 31
0.0
 11
5.0200459884
 21
52.4968081469
 31
0.0
  0
SPLINE
  5
38D
100
AcDbEntity
  8
RACCORDO
100
AcDbSpline
 62
7
  6
CONTINUOUS
 70
0
 71
3
 72
12
 73
8
 74
6
 42
0.0000001
 43
0.0000001
 44
0.0000000001
 12
3.888084054
 22
1.8086044117
 32
0.0
 13
4.2650723598
 23
0.4481471947
 33
0.0
 40
0.0
 40
0.0
 40
0.0
 40
0.0
 40
0.2013782902
 40
0.4444607933
 40
0.7099522241
 40
0.9932203155
 40
1.0
 40
1.0
 40
1.0
 40
1.0
 10
1.5845123474
 20
51.7516837737
 30
0.0
 10
1.8455042537
 20
51.8730883284
 30
0.0
 10
2.438971023
 20
52.104180505
 30
0.0
 10
3.4160148994
 20
52.3820590733
 30
0.0
 10
4.5262953522
 20
52.6067371211
 30
0.0
 10
5.3136493867
 20
52.7132201348
 30
0.0
 10
5.7259787886
 20
52.7568277725
 30
0.0
 10
5.7356174036
 20
52.757840538
 30
0.0
 11
1.5845123474
 21
51.7516837737
 31
0.0
 11
2.3870226391
 21
52.0707692994
 31
0.0
 11
3.3881891442
 21
52.3607791269
 31
0.0
 11
4.5033132114
 21
52.5898676972
 31
0.0
 11
5.7067035906
 21
52.7547826208
 31
0.0
 11
5.7356174036
 21
52.757840538
 31
0.0
  0
SPLINE
  5
38E
100
AcDbEntity
  8
RACCORDO
100
AcDbSpline
 62
7
  6
CONTINUOUS
 70
0
 71
3
 72
15
 73
11
 74
9
 42
0.0000001
 43
0.0000001
 44
0.0000000001
 12
6.8497173685
 22
-0.7826258561
 32
0.0
 13
-0.0319205093
 23
-6.8931897446
 33
0.0
 40
0.0
 40
0.0
 40
0.0
 40
0.0
 40
0.1778689262
 40
0.3431087189
 40
0.4944284731
 40
0.6297516889
 40
0.7478855589
 40
0.8479565618
 40
0.9298003389
 40
1.0
 40
1.0
 40
1.0
 40
1.0
 10
10.8113142953
 20
52.7347602999
 30
0.0
 10
11.2174315863
 20
52.6883586931
 30
0.0
 10
11.9983318664
 20
52.5764835076
 30
0.0
 10
13.1109200117
 20
52.342109059
 30
0.0
 10
14.1086462949
 20
52.05015916
 30
0.0
 10
14.9735549259
 20
51.7029708736
 30
0.0
 10
15.6841145721
 20
51.3028940025
 30
0.0
 10
16.2149090808
 20
50.8531556921
 30
0.0
 10
16.540267973
 20
50.3612065621
 30
0.0
 10
16.6128102646
 20
50.0086268369
 30
0.0
 10
16.6120633283
 20
49.8473269756
 30
0.0
 11
10.8113142953
 21
52.7347602999
 31
0.0
 11
12.0247050245
 21
52.5587218119
 31
0.0
 11
13.138593433
 21
52.3206712825
 31
0.0
 11
14.138279747
 21
52.0229168834
 31
0.0
 11
15.0011197889
 21
51.6684347085
 31
0.0
 11
15.7050133583
 21
51.2589670158
 31
0.0
 11
16.2208122524
 21
50.8009306107
 31
0.0
 11
16.5194596879
 21
50.3222884416
 31
0.0
 11
16.6120633283
 21
49.8473269756
 31
0.0
  0
SPLINE
  5
38F
100
AcDbEntity
  8
RACCORDO
100
AcDbSpline
 62
7
  6
CONTINUOUS
 70
0
 71
3
 72
8
 73
4
 74
2
 42
0.0000001
 43
0.0000001
 44
0.0000000001
 12
0.0022124365
 22
0.4777725949
 32
0.0
 13
0.1794803914
 23
0.4459595167
 33
0.0
 40
0.0
 40
0.0
 40
0.0
 40
0.0
 40
1.0
 40
1.0
 40
1.0
 40
1.0
 10
-0.0877576199
 20
49.9246593587
 30
0.0
 10
-0.0870201411
 20
50.0839168903
 30
0.0
 10
-0.0529383959
 20
50.2443155692
 30
0.0
 10
0.0068884012
 20
50.3929687415
 30
0.0
 11
-0.0877576199
 21
49.9246593587
 31
0.0
 11
0.0068884012
 21
50.3929687415
 31
0.0
  0
SPLINE
  5
390
100
AcDbEntity
  8
RACCORDO
100
AcDbSpline
 62
7
  6
CONTINUOUS
 70
0
 71
3
 72
10
 73
6
 74
4
 42
0.0000001
 43
0.0000001
 44
0.0000000001
 12
0.8406120391
 22
1.8038250929
 32
0.0
 13
1.7878204447
 23
0.8540450508
 33
0.0
 40
0.0
 40
0.0
 40
0.0
 40
0.0
 40
0.246057562
 40
0.5924640281
 40
1.0
 40
1.0
 40
1.0
 40
1.0
 10
0.0366384709
 20
50.4614946876
 30
0.0
 10
0.1055847872
 20
50.6094429557
 30
0.0
 10
0.3318015338
 20
50.9361068652
 30
0.0
 10
0.8426673694
 20
51.3640100123
 30
0.0
 10
1.2800606608
 20
51.6066353032
 30
0.0
 10
1.5229277083
 20
51.7226533298
 30
0.0
 11
0.0366384709
 21
50.4614946876
 31
0.0
 11
0.306672873
 21
50.868161343
 31
0.0
 11
0.8224643035
 21
51.3209665293
 31
0.0
 11
1.5229277083
 21
51.7226533298
 31
0.0
  0
SPLINE
  5
391
100
AcDbEntity
  8
RACCORDO
100
AcDbSpline
 62
7
  6
CONTINUOUS
 70
0
 71
3
 72
12
 73
8
 74
6
 42
0.0000001
 43
0.0000001
 44
0.0000000001
 12
2.6045388722
 22
-1.315849
 32
0.0
 13
-0.0135032446
 23
-2.9160069663
 33
0.0
 40
0.0
 40
0.0
 40
0.0
 40
0.0
 40
0.0320265567
 40
0.3384182572
 40
0.5982829465
 40
0.8133001296
 40
1.0
 40
1.0
 40
1.0
 40
1.0
 10
16.5365494654
 20
50.2736542322
 30
0.0
 10
16.5643542693
 20
50.2596068613
 30
0.0
 10
16.8572587606
 20
50.1093267498
 30
0.0
 10
17.3574084107
 20
49.8081835126
 30
0.0
 10
17.9276560681
 20
49.2966027027
 30
0.0
 10
18.2769778923
 20
48.7437972361
 30
0.0
 10
18.3551479482
 20
48.349908356
 30
0.0
 10
18.3543075969
 20
48.1684356484
 30
0.0
 11
16.5365494654
 21
50.2736542322
 31
0.0
 11
16.6197033822
 21
50.2309833696
 31
0.0
 11
17.3787175161
 21
49.75965515
 31
0.0
 11
17.9316813859
 21
49.2415292304
 31
0.0
 11
18.2535574018
 21
48.7034560651
 31
0.0
 11
18.3543075969
 21
48.1684356484
 31
0.0
  0
SPLINE
  5
392
100
AcDbEntity
  8
RACCORDO
100
AcDbSpline
 62
7
  6
CONTINUOUS
 70
0
 71
3
 72
12
 73
8
 74
6
 42
0.0000001
 43
0.0000001
 44
0.0000000001
 12
0.0135152879
 22
2.9186076929
 32
0.0
 13
2.6183595181
 23
1.2915393555
 33
0.0
 40
0.0
 40
0.0
 40
0.0
 40
0.0
 40
0.1544432612
 40
0.3272458014
 40
0.5302212521
 40
0.7656455566
 40
1.0
 40
1.0
 40
1.0
 40
1.0
 10
-1.8454758255
 20
48.2619754171
 30
0.0
 10
-1.8447800438
 20
48.4122285138
 30
0.0
 10
-1.7901583768
 20
48.7322986529
 30
0.0
 10
-1.5479014038
 20
49.1954856026
 30
0.0
 10
-1.1428177802
 20
49.6378493473
 30
0.0
 10
-0.613871836
 20
50.0280621747
 30
0.0
 10
-0.2128121712
 20
50.2494020835
 30
0.0
 10
-0.0082707753
 20
50.3502947458
 30
0.0
 11
-1.8454758255
 21
48.2619754171
 31
0.0
 11
-1.7720860048
 21
48.7067250422
 31
0.0
 11
-1.545328359
 21
49.1572226644
 31
0.0
 11
-1.1527201363
 21
49.6008563383
 31
0.0
 11
-0.6050692695
 21
50.0158387887
 31
0.0
 11
-0.0082707753
 21
50.3502947458
 31
0.0
  0
SPLINE
  5
393
100
AcDbEntity
  8
RACCORDO
100
AcDbSpline
 62
7
  6
CONTINUOUS
 70
0
 71
3
 72
12
 73
8
 74
6
 42
0.0000001
 43
0.0000001
 44
0.0000000001
 12
2.69990387
 22
-1.4903713886
 32
0.0
 13
-0.0142689484
 23
-3.0813596351
 33
0.0
 40
0.0
 40
0.0
 40
0.0
 40
0.0
 40
0.0105989302
 40
0.3210099985
 40
0.5851549521
 40
0.8060120654
 40
1.0
 40
1.0
 40
1.0
 40
1.0
 10
18.2463021063
 20
48.7206973308
 30
0.0
 10
18.2558408039
 20
48.7154318833
 30
0.0
 10
18.544414273
 20
48.55534475
 30
0.0
 10
19.0522231374
 20
48.229404558
 30
0.0
 10
19.6499056075
 20
47.6621625545
 30
0.0
 10
20.0153678877
 20
47.0553078107
 30
0.0
 10
20.0971822498
 20
46.6256749643
 30
0.0
 10
20.0962595819
 20
46.4264261006
 30
0.0
 11
18.2463021063
 21
48.7206973308
 31
0.0
 11
18.2748858259
 21
48.7048401389
 31
0.0
 11
19.0728517301
 21
48.1774507302
 31
0.0
 11
19.6517662526
 21
47.6053082125
 31
0.0
 11
19.9897317558
 21
47.0146101462
 31
0.0
 11
20.0962595819
 21
46.4264261006
 31
0.0
  0
SPLINE
  5
394
100
AcDbEntity
  8
RACCORDO
100
AcDbSpline
 62
7
  6
CONTINUOUS
 70
0
 71
3
 72
12
 73
8
 74
6
 42
0.0000001
 43
0.0000001
 44
0.0000000001
 12
0.0142792085
 22
3.0835752793
 32
0.0
 13
2.7151353706
 23
1.4660398726
 33
0.0
 40
0.0
 40
0.0
 40
0.0
 40
0.0
 40
0.1695466567
 40
0.3592148961
 40
0.5815106306
 40
0.8393771958
 40
1.0
 40
1.0
 40
1.0
 40
1.0
 10
-3.6034863147
 20
46.5361732549
 30
0.0
 10
-3.6026793173
 20
46.7104432147
 30
0.0
 10
-3.538158625
 20
47.0816716779
 30
0.0
 10
-3.2540371541
 20
47.6166230617
 30
0.0
 10
-2.7826443143
 20
48.1264409669
 30
0.0
 10
-2.2495577232
 20
48.5178996702
 30
0.0
 10
-1.8775047956
 20
48.7349120738
 30
0.0
 10
-1.7321339099
 20
48.8134052189
 30
0.0
 11
-3.6034863147
 21
46.5361732549
 31
0.0
 11
-3.5170470496
 21
47.051793546
 31
0.0
 11
-3.2511904456
 21
47.5727393071
 31
0.0
 11
-2.7944859773
 21
48.0839087862
 31
0.0
 11
-2.1595834813
 21
48.5626335891
 31
0.0
 11
-1.7321339099
 21
48.8134052189
 31
0.0
  0
SPLINE
  5
395
100
AcDbEntity
  8
RACCORDO
100
AcDbSpline
 62
7
  6
CONTINUOUS
 70
0
 71
3
 72
12
 73
8
 74
6
 42
0.0000001
 43
0.0000001
 44
0.0000000001
 12
3.5968621937
 22
-2.0164694929
 32
0.0
 13
-0.0190814613
 23
-4.1206151206
 33
0.0
 40
0.0
 40
0.0
 40
0.0
 40
0.0
 40
0.0919410996
 40
0.377655708
 40
0.6166061921
 40
0.8175583762
 40
1.0
 40
1.0
 40
1.0
 40
1.0
 10
19.8609616498
 20
47.2889079494
 30
0.0
 10
19.9711948049
 20
47.2271091419
 30
0.0
 10
20.4186778495
 20
46.9636961455
 30
0.0
 10
21.107833545
 20
46.4632257845
 30
0.0
 10
21.7766438501
 20
45.7104028326
 30
0.0
 10
22.1565547859
 20
44.9319221724
 30
0.0
 10
22.2369071453
 20
44.4018023642
 30
0.0
 10
22.2357467277
 20
44.151211793
 30
0.0
 11
19.8609616498
 21
47.2889079494
 31
0.0
 11
20.1875712437
 21
47.0962969836
 31
0.0
 11
21.129612414
 21
46.3901310068
 31
0.0
 11
21.7712671302
 21
45.6432826802
 31
0.0
 11
22.1256321274
 21
44.894883497
 31
0.0
 11
22.2357467277
 21
44.151211793
 31
0.0
  0
SPLINE
  5
396
100
AcDbEntity
  8
RACCORDO
100
AcDbSpline
 62
7
  6
CONTINUOUS
 70
0
 71
3
 72
12
 73
8
 74
6
 42
0.0000001
 43
0.0000001
 44
0.0000000001
 12
0.0190576861
 22
4.1154808928
 32
0.0
 13
3.6106556265
 23
1.982067941
 33
0.0
 40
0.0
 40
0.0
 40
0.0
 40
0.0
 40
0.1697690716
 40
0.356776992
 40
0.5766554691
 40
0.8397724198
 40
1.0
 40
1.0
 40
1.0
 40
1.0
 10
-5.7639530657
 20
44.2808708783
 30
0.0
 10
-5.7628745972
 20
44.5137646684
 30
0.0
 10
-5.6893526529
 20
45.0054228643
 30
0.0
 10
-5.3534946092
 20
45.7321880631
 30
0.0
 10
-4.7591159558
 20
46.4451885707
 30
0.0
 10
-4.0577541032
 20
46.9890171183
 30
0.0
 10
-3.5585097605
 20
47.2876049945
 30
0.0
 10
-3.3656675558
 20
47.3934656445
 30
0.0
 11
-5.7639530657
 21
44.2808708783
 31
0.0
 11
-5.6625022758
 21
44.9721550907
 31
0.0
 11
-5.3464498663
 21
45.6739029802
 31
0.0
 11
-4.7771283439
 21
46.3772839849
 31
0.0
 11
-3.9310269687
 21
47.0530855511
 31
0.0
 11
-3.3656675558
 21
47.3934656445
 31
0.0
  0
SPLINE
  5
397
100
AcDbEntity
  8
0
100
AcDbSpline
 62
7
  6
CONTINUOUS
 70
0
 71
3
 72
23
 73
19
 74
17
 42
0.0000001
 43
0.0000001
 44
0.0000000001
 12
-0.0779984179
 22
-8.0870215119
 32
0.0
 13
7.2279754256
 23
3.4528168963
 33
0.0
 40
0.0
 40
0.0
 40
0.0
 40
0.0
 40
0.00947003
 40
0.039832599
 40
0.0768230585
 40
0.122616617
 40
0.1776546158
 40
0.2414015933
 40
0.3127348521
 40
0.3901454653
 40
0.4718622061
 40
0.5559445905
 40
0.6403635732
 40
0.7230777279
 40
0.8021088896
 40
0.8756207808
 40
0.9420066829
 40
1.0
 40
1.0
 40
1.0
 40
1.0
 10
4.168626275
 20
51.1862327854
 30
0.0
 10
4.1683800592
 20
51.1607046733
 30
0.0
 10
4.1758857366
 20
51.0534625865
 30
0.0
 10
4.2634627439
 20
50.8602361517
 30
0.0
 10
4.4785240949
 20
50.6430581225
 30
0.0
 10
4.7898011826
 20
50.4431920039
 30
0.0
 10
5.1918509007
 20
50.2630164603
 30
0.0
 10
5.6754879247
 20
50.1063394617
 30
0.0
 10
6.2285902876
 20
49.9774494642
 30
0.0
 10
6.8366073521
 20
49.8799268805
 30
0.0
 10
7.483276964
 20
49.816536356
 30
0.0
 10
8.1511657206
 20
49.7890679992
 30
0.0
 10
8.8222140555
 20
49.7982966049
 30
0.0
 10
9.4782753087
 20
49.8439574606
 30
0.0
 10
10.1016232274
 20
49.9247489994
 30
0.0
 10
10.6755809671
 20
50.0383895277
 30
0.0
 10
11.184767743
 20
50.1816358996
 30
0.0
 10
11.4949004785
 20
50.3030105036
 30
0.0
 10
11.6346252354
 20
50.3697572719
 30
0.0
 11
4.168626275
 21
51.1862327854
 31
0.0
 11
4.1740913269
 21
51.1101107246
 31
0.0
 11
4.2663197065
 21
50.8850612991
 31
0.0
 11
4.4677058489
 21
50.6677113592
 31
0.0
 11
4.772756465
 21
50.4639896446
 31
0.0
 11
5.1731505692
 21
50.2794531528
 31
0.0
 11
5.6579664542
 21
50.119135558
 31
0.0
 11
6.2139796063
 21
49.9874099065
 31
0.0
 11
6.8260234363
 21
49.8878693306
 31
0.0
 11
7.477402984
 21
49.8232290377
 31
0.0
 11
8.1503503132
 21
49.7952522465
 31
0.0
 11
8.8265091751
 21
49.8047020909
 31
0.0
 11
9.4874357186
 21
49.8513208039
 31
0.0
 11
10.1151015904
 21
49.9338367484
 31
0.0
 11
10.6923857017
 21
50.0499991046
 31
0.0
 11
11.203541247
 21
50.1966392662
 31
0.0
 11
11.6346252354
 21
50.3697572719
 31
0.0
  0
SPLINE
  5
398
100
AcDbEntity
  8
0
100
AcDbSpline
 62
7
  6
CONTINUOUS
 70
0
 71
3
 72
13
 73
9
 74
7
 42
0.0000001
 43
0.0000001
 44
0.0000000001
 12
-0.0147684303
 22
-3.8473922034
 32
0.0
 13
-3.4546861949
 23
-1.6503098258
 33
0.0
 40
0.0
 40
0.0
 40
0.0
 40
0.0
 40
0.0548568041
 40
0.1976060137
 40
0.35742715
 40
0.5421327983
 40
0.7558325282
 40
1.0
 40
1.0
 40
1.0
 40
1.0
 10
22.2292451634
 20
42.8107197964
 30
0.0
 10
22.2289751138
 20
42.7403679163
 30
0.0
 10
22.2113253066
 20
42.4870933276
 30
0.0
 10
22.0688378883
 20
42.045666104
 30
0.0
 10
21.7163247368
 20
41.5258655213
 30
0.0
 10
21.198801641
 20
41.0307126633
 30
0.0
 10
20.5232971016
 20
40.5615377157
 30
0.0
 10
20.0063621788
 20
40.2865080506
 30
0.0
 10
19.7251881807
 20
40.1521907247
 30
0.0
 11
22.2292451634
 21
42.8107197964
 31
0.0
 11
22.2144650341
 21
42.6004575459
 31
0.0
 11
22.0537698701
 21
42.0780823978
 31
0.0
 11
21.719228876
 21
41.5657365112
 31
0.0
 11
21.2150490988
 21
41.069862933
 31
0.0
 11
20.5475708918
 21
40.5966975611
 31
0.0
 11
19.7251881807
 21
40.1521907247
 31
0.0
  0
SPLINE
  5
399
100
AcDbEntity
  8
0
100
AcDbSpline
 62
7
  6
CONTINUOUS
 70
0
 71
3
 72
13
 73
9
 74
7
 42
0.0000001
 43
0.0000001
 44
0.0000000001
 12
-0.0142477127
 22
-3.2520905413
 32
0.0
 13
-2.9233054331
 23
-1.3964682775
 33
0.0
 40
0.0
 40
0.0
 40
0.0
 40
0.0
 40
0.0021080546
 40
0.1522753131
 40
0.3184586589
 40
0.5118069019
 40
0.7382633437
 40
1.0
 40
1.0
 40
1.0
 40
1.0
 10
20.0943965437
 20
46.0243331406
 30
0.0
 10
20.094386532
 20
46.0220479458
 30
0.0
 10
20.0932202681
 20
45.8569795496
 30
0.0
 10
20.0236380666
 20
45.5124597228
 30
0.0
 10
19.7415448244
 20
45.0310750694
 30
0.0
 10
19.2961331913
 20
44.5754389619
 30
0.0
 10
18.695515801
 20
44.1454834314
 30
0.0
 10
18.2296885503
 20
43.8958859271
 30
0.0
 10
17.9746431538
 20
43.7740502812
 30
0.0
 11
20.0943965437
 21
46.0243331406
 31
0.0
 11
20.0943480883
 21
46.0174776929
 31
0.0
 11
20.0032612315
 21
45.5395796958
 31
0.0
 11
19.7407055182
 21
45.0695509089
 31
0.0
 11
19.3105096016
 21
44.6142454106
 31
0.0
 11
18.7189467072
 21
44.1803025801
 31
0.0
 11
17.9746431538
 21
43.7740502812
 31
0.0
  0
SPLINE
  5
39A
100
AcDbEntity
  8
0
100
AcDbSpline
 62
7
  6
CONTINUOUS
 70
0
 71
3
 72
12
 73
8
 74
6
 42
0.0000001
 43
0.0000001
 44
0.0000000001
 12
-0.0177289358
 22
-2.7783253349
 32
0.0
 13
-2.4906668088
 23
-1.1897960264
 33
0.0
 40
0.0
 40
0.0
 40
0.0
 40
0.0
 40
0.1010827286
 40
0.2745811388
 40
0.4772658576
 40
0.7179780278
 40
1.0
 40
1.0
 40
1.0
 40
1.0
 10
18.3518434448
 20
47.7285664199
 30
0.0
 10
18.3512460817
 20
47.6349528513
 30
0.0
 10
18.3189933321
 20
47.3805413981
 30
0.0
 10
18.1258324742
 20
46.9767084733
 30
0.0
 10
17.7425610915
 20
46.5510386241
 30
0.0
 10
17.2041013048
 20
46.1515822168
 30
0.0
 10
16.7797006366
 20
45.9223610529
 30
0.0
 10
16.5455597148
 20
45.8105115122
 30
0.0
 11
18.3518434448
 21
47.7285664199
 31
0.0
 11
18.3168097914
 21
47.4506297501
 31
0.0
 11
18.1203154508
 21
47.0138965483
 31
0.0
 11
17.7549779748
 21
46.5901904459
 31
0.0
 11
17.2270483889
 21
46.1867611716
 31
0.0
 11
16.5455597148
 21
45.8105115122
 31
0.0
  0
SPLINE
  5
39B
100
AcDbEntity
  8
0
100
AcDbSpline
 62
7
  6
CONTINUOUS
 70
0
 71
3
 72
12
 73
8
 74
6
 42
0.0000001
 43
0.0000001
 44
0.0000000001
 12
-0.0081375958
 22
-2.2986091578
 32
0.0
 13
-2.058721212
 23
-0.9834548358
 33
0.0
 40
0.0
 40
0.0
 40
0.0
 40
0.0
 40
0.0727980736
 40
0.2505171341
 40
0.4581559023
 40
0.7066234848
 40
1.0
 40
1.0
 40
1.0
 40
1.0
 10
16.6096541417
 20
49.4325905755
 30
0.0
 10
16.6094566746
 20
49.3768124693
 30
0.0
 10
16.5922742232
 20
49.1850271065
 30
0.0
 10
16.4550783019
 20
48.8559271444
 30
0.0
 10
16.1379027066
 20
48.4860666698
 30
0.0
 10
15.6811709898
 20
48.1402640804
 30
0.0
 10
15.3178030941
 20
47.9431469274
 30
0.0
 10
15.1164762758
 20
47.8469727432
 30
0.0
 11
16.6096541417
 21
49.4325905755
 31
0.0
 11
16.5945867171
 21
49.2663496053
 31
0.0
 11
16.4475668922
 21
48.8884653134
 31
0.0
 11
16.1480325184
 21
48.5214379903
 31
0.0
 11
15.7015633544
 21
48.1721046606
 31
0.0
 11
15.1164762758
 21
47.8469727432
 31
0.0
  0
SPLINE
  5
39C
100
AcDbEntity
  8
0
100
AcDbSpline
 62
7
  6
CONTINUOUS
 70
0
 71
3
 72
26
 73
22
 74
20
 42
0.0000001
 43
0.0000001
 44
0.0000000001
 12
-0.0581989358
 22
-16.4393280947
 32
0.0
 13
14.7236833824
 23
7.0335301056
 33
0.0
 40
0.0
 40
0.0
 40
0.0
 40
0.0
 40
0.0132188743
 40
0.0384774729
 40
0.0681826553
 40
0.103714796
 40
0.1455503
 40
0.1936050423
 40
0.2474401378
 40
0.3063757531
 40
0.3695593492
 40
0.4360125179
 40
0.504667756
 40
0.5744004991
 40
0.6440589934
 40
0.7124933443
 40
0.7785846179
 40
0.8412748983
 40
0.8995997488
 40
0.9527258964
 40
1.0
 40
1.0
 40
1.0
 40
1.0
 10
-0.0891891674
 20
49.5099945395
 30
0.0
 10
-0.0894456089
 20
49.4375580691
 30
0.0
 10
-0.0666501191
 20
49.2264795646
 30
0.0
 10
0.0922717633
 20
48.8825752793
 30
0.0
 10
0.4243360663
 20
48.5128278428
 30
0.0
 10
0.8954451867
 20
48.1657608764
 30
0.0
 10
1.4987645764
 20
47.8437178798
 30
0.0
 10
2.2249448223
 20
47.5511912351
 30
0.0
 10
3.0616874337
 20
47.2933209233
 30
0.0
 10
3.9941219328
 20
47.0748973615
 30
0.0
 10
5.005311628
 20
46.9000700529
 30
0.0
 10
6.0766922617
 20
46.7721757526
 30
0.0
 10
7.1884915701
 20
46.6936584138
 30
0.0
 10
8.3201384432
 20
46.666016816
 30
0.0
 10
9.4506732729
 20
46.6897765955
 30
0.0
 10
10.5591566123
 20
46.764479756
 30
0.0
 10
11.6250877844
 20
46.8886951691
 30
0.0
 10
12.6287872722
 20
47.06003828
 30
0.0
 10
13.5519012106
 20
47.2752477529
 30
0.0
 10
14.3775096564
 20
47.530185588
 30
0.0
 10
14.8844599647
 20
47.736138133
 30
0.0
 10
15.1164762758
 20
47.8469727432
 30
0.0
 11
-0.0891891674
 21
49.5099945395
 31
0.0
 11
-0.0658883175
 21
49.2945335183
 31
0.0
 11
0.0974449847
 21
48.9161242134
 31
0.0
 11
0.4128355735
 21
48.5480566444
 31
0.0
 11
0.8744083189
 21
48.1971872135
 31
0.0
 11
1.4735649941
 21
47.8700519546
 31
0.0
 11
2.1991444439
 21
47.5727447784
 31
0.0
 11
3.0376304958
 21
47.3108039551
 31
0.0
 11
3.9734037413
 21
47.0891089467
 31
0.0
 11
4.9890324954
 21
46.9117895117
 31
0.0
 11
6.0655975159
 21
46.7821487757
 31
0.0
 11
7.1830444336
 21
46.7026017003
 31
0.0
 11
8.3205573266
 21
46.674630097
 31
0.0
 11
9.4569464819
 21
46.6987550238
 31
0.0
 11
10.5710431198
 21
46.7745270791
 31
0.0
 11
11.6420937279
 21
46.9005347727
 31
0.0
 11
12.6501466597
 21
47.0744308198
 31
0.0
 11
13.5764237966
 21
47.292975866
 31
0.0
 11
14.4036703479
 21
47.5520988307
 31
0.0
 11
15.1164762758
 21
47.8469727432
 31
0.0
  0
SPLINE
  5
39D
100
AcDbEntity
  8
0
100
AcDbSpline
 62
7
  6
CONTINUOUS
 70
0
 71
3
 72
11
 73
7
 74
5
 42
0.0000001
 43
0.0000001
 44
0.0000000001
 12
-0.0108937538
 22
-1.1294847249
 32
0.0
 13
-1.009504899
 23
-0.4822423109
 33
0.0
 40
0.0
 40
0.0
 40
0.0
 40
0.0
 40
0.1354916829
 40
0.3656999126
 40
0.6502961309
 40
1.0
 40
1.0
 40
1.0
 40
1.0
 10
12.3675464632
 20
51.1484221749
 30
0.0
 10
12.3670544588
 20
51.0974102462
 30
0.0
 10
12.3438410747
 20
50.9593837456
 30
0.0
 10
12.2090709636
 20
50.7502313851
 30
0.0
 10
11.9602502652
 20
50.5412179751
 30
0.0
 10
11.7523011584
 20
50.4259712726
 30
0.0
 10
11.6346252354
 20
50.3697572719
 30
0.0
 11
12.3675464632
 21
51.1484221749
 31
0.0
 11
12.3426362784
 21
50.9979340862
 31
0.0
 11
12.2120480456
 21
50.7759445469
 31
0.0
 11
11.9738788194
 21
50.5646309138
 31
0.0
 11
11.6346252354
 21
50.3697572719
 31
0.0
  0
SPLINE
  5
39E
100
AcDbEntity
  8
0
100
AcDbSpline
 62
7
  6
CONTINUOUS
 70
0
 71
3
 72
27
 73
23
 74
21
 42
0.0000001
 43
0.0000001
 44
0.0000000001
 12
-0.122768393
 22
-19.2391997632
 32
0.0
 13
17.8016362573
 23
6.9920395998
 33
0.0
 40
0.0
 40
0.0
 40
0.0
 40
0.0
 40
0.0085768869
 40
0.0328830263
 40
0.0609065215
 40
0.0941836999
 40
0.1333628259
 40
0.1785189295
 40
0.2293640711
 40
0.2853662906
 40
0.345819438
 40
0.4098889951
 40
0.4766462795
 40
0.5450969979
 40
0.6142070696
 40
0.6829272073
 40
0.7502170985
 40
0.8150698174
 40
0.876537222
 40
0.9337576035
 40
0.9859880287
 40
1.0
 40
1.0
 40
1.0
 40
1.0
 10
-1.8470862344
 20
47.8219488498
 30
0.0
 10
-1.8474372246
 20
47.7669447029
 30
0.0
 10
-1.8338580516
 20
47.5561219136
 30
0.0
 10
-1.6994832965
 20
47.1828128888
 30
0.0
 10
-1.3614265769
 20
46.7470253665
 30
0.0
 10
-0.8659878292
 20
46.3361216205
 30
0.0
 10
-0.2203357114
 20
45.9515519971
 30
0.0
 10
0.5664653433
 20
45.5977184629
 30
0.0
 10
1.4824339793
 20
45.2800776963
 30
0.0
 10
2.512775978
 20
45.0039633046
 30
0.0
 10
3.6404014918
 20
44.7741560791
 30
0.0
 10
4.8463517412
 20
44.5946706865
 30
0.0
 10
6.1102156281
 20
44.4686506951
 30
0.0
 10
7.410527872
 20
44.3983029611
 30
0.0
 10
8.7251671354
 20
44.3848577915
 30
0.0
 10
10.0317560341
 20
44.4285479028
 30
0.0
 10
11.3080596317
 20
44.5286037596
 30
0.0
 10
12.5323936164
 20
44.6832688899
 30
0.0
 10
13.6839943829
 20
44.8898227547
 30
0.0
 10
14.7435153076
 20
45.144662907
 30
0.0
 10
15.4945259872
 20
45.3808474766
 30
0.0
 10
15.8896985018
 20
45.5299594305
 30
0.0
 10
15.9728438409
 20
45.56261685
 30
0.0
 11
-1.8470862344
 21
47.8219488498
 31
0.0
 11
-1.8363417138
 21
47.6575978448
 31
0.0
 11
-1.6880100447
 21
47.2173233616
 31
0.0
 11
-1.3695955698
 21
46.7865952885
 31
0.0
 11
-0.8865464491
 21
46.3727835022
 31
0.0
 11
-0.2471277869
 21
45.9829684372
 31
0.0
 11
0.5377197862
 21
45.6238199373
 31
0.0
 11
1.4545673106
 21
45.3014831329
 31
0.0
 11
2.4877272709
 21
45.0214732961
 31
0.0
 11
3.6195220138
 21
44.7885814728
 31
0.0
 11
4.8305862175
 21
44.6067925066
 31
0.0
 11
6.1001982376
 21
44.4792168574
 31
0.0
 11
7.4066346606
 21
44.4080373796
 31
0.0
 11
8.7275419968
 21
44.394471974
 31
0.0
 11
10.0403191558
 21
44.4387527483
 31
0.0
 11
11.3225041562
 21
44.5401220464
 31
0.0
 11
12.5521584572
 21
44.6968454113
 31
0.0
 11
13.7082423328
 21
44.9062412628
 31
0.0
 11
14.7709748674
 21
45.1647267799
 31
0.0
 11
15.7221724126
 21
45.4678792037
 31
0.0
 11
15.9728438409
 21
45.56261685
 31
0.0
  0
SPLINE
  5
39F
100
AcDbEntity
  8
0
100
AcDbSpline
 62
7
  6
CONTINUOUS
 70
0
 71
3
 72
8
 73
4
 74
2
 42
0.0000001
 43
0.0000001
 44
0.0000000001
 12
0.5811581067
 22
0.228264438
 32
0.0
 13
0.5630590141
 23
0.2689743065
 33
0.0
 40
0.0
 40
0.0
 40
0.0
 40
0.0
 40
1.0
 40
1.0
 40
1.0
 40
1.0
 10
15.9728438409
 20
45.56261685
 30
0.0
 10
16.1665632098
 20
45.638704996
 30
0.0
 10
16.3578733768
 20
45.7208534101
 30
0.0
 10
16.5455597148
 20
45.8105115122
 30
0.0
 11
15.9728438409
 21
45.56261685
 31
0.0
 11
16.5455597148
 21
45.8105115122
 31
0.0
  0
SPLINE
  5
3A0
100
AcDbEntity
  8
0
100
AcDbSpline
 62
7
  6
CONTINUOUS
 70
0
 71
3
 72
28
 73
24
 74
22
 42
0.0000001
 43
0.0000001
 44
0.0000000001
 12
-0.1018518149
 22
-23.2480350644
 32
0.0
 13
20.8976676236
 23
9.9828535123
 33
0.0
 40
0.0
 40
0.0
 40
0.0
 40
0.0
 40
0.0206778085
 40
0.043834951
 40
0.0707582517
 40
0.1022975171
 40
0.1387687842
 40
0.1801409301
 40
0.2261524198
 40
0.2763799123
 40
0.3302807983
 40
0.387222356
 40
0.4465040574
 40
0.5073763539
 40
0.5690576565
 40
0.6307504267
 40
0.6916569015
 40
0.7509948135
 40
0.8080134654
 40
0.8620106746
 40
0.9123514878
 40
0.9584903514
 40
1.0
 40
1.0
 40
1.0
 40
1.0
 10
-3.6053470972
 20
46.1341122838
 30
0.0
 10
-3.6060491213
 20
45.9738728113
 30
0.0
 10
-3.5436028014
 20
45.6337998669
 30
0.0
 10
-3.2719920809
 20
45.1511201464
 30
0.0
 10
-2.8353869332
 20
44.690707054
 30
0.0
 10
-2.2430776822
 20
44.2544596161
 30
0.0
 10
-1.5022785196
 20
43.845478261
 30
0.0
 10
-0.6222504579
 20
43.4684798248
 30
0.0
 10
0.3852140339
 20
43.1286078987
 30
0.0
 10
1.5060834322
 20
42.8307663963
 30
0.0
 10
2.7244267489
 20
42.5793458355
 30
0.0
 10
4.022746774
 20
42.3780785062
 30
0.0
 10
5.3822940928
 20
42.2299584963
 30
0.0
 10
6.7833764442
 20
42.1371893853
 30
0.0
 10
8.2056681512
 20
42.1011502028
 30
0.0
 10
9.6285216519
 20
42.1223750643
 30
0.0
 10
11.0312813726
 20
42.2005456042
 30
0.0
 10
12.3935951385
 20
42.3344948358
 30
0.0
 10
13.695733217
 20
42.5222264394
 30
0.0
 10
14.9188731057
 20
42.7609377165
 30
0.0
 10
16.045494775
 20
43.0470951194
 30
0.0
 10
17.0594091449
 20
43.3764208254
 30
0.0
 10
17.6854915405
 20
43.635922034
 30
0.0
 10
17.9746431538
 20
43.7740502812
 30
0.0
 11
-3.6053470972
 21
46.1341122838
 31
0.0
 11
-3.5235883904
 21
45.6621693529
 31
0.0
 11
-3.2702725503
 21
45.1894525514
 31
0.0
 11
-2.8490450369
 21
44.7297106025
 31
0.0
 11
-2.2660482958
 21
44.2896475789
 31
0.0
 11
-1.5297837324
 21
43.8756805906
 31
0.0
 11
-0.6509877418
 21
43.4938462083
 31
0.0
 11
0.3575248514
 21
43.1497124372
 31
0.0
 11
1.4810476627
 21
42.8482975226
 31
0.0
 11
2.7031971996
 21
42.5939967727
 31
0.0
 11
4.0061517698
 21
42.390518465
 31
0.0
 11
5.3709113616
 21
42.2408297715
 31
0.0
 11
6.7775747071
 21
42.1471134904
 31
0.0
 11
8.205629487
 21
42.1107362161
 31
0.0
 11
9.6342514471
 21
42.1322284111
 31
0.0
 11
11.0426080622
 21
42.2112766709
 31
0.0
 11
12.4101623215
 21
42.3467282939
 31
0.0
 11
13.7169722043
 21
42.5366080903
 31
0.0
 11
14.94398148
 21
42.7781471851
 31
0.0
 11
16.0732975904
 21
43.0678233946
 31
0.0
 11
17.0884525635
 21
43.4014125871
 31
0.0
 11
17.9746431538
 21
43.7740502812
 31
0.0
  0
SPLINE
  5
3A1
100
AcDbEntity
  8
0
100
AcDbSpline
 62
7
  6
CONTINUOUS
 70
0
 71
3
 72
30
 73
26
 74
24
 42
0.0000001
 43
0.0000001
 44
0.0000000001
 12
-0.1055497678
 22
-27.4972590254
 32
0.0
 13
24.6905945983
 23
11.7947415685
 33
0.0
 40
0.0
 40
0.0
 40
0.0
 40
0.0
 40
0.0115494006
 40
0.0318846026
 40
0.0548737539
 40
0.081496558
 40
0.1122422681
 40
0.1472596308
 40
0.1864698126
 40
0.2296364743
 40
0.2764086835
 40
0.3263487906
 40
0.3789522313
 40
0.4336629966
 40
0.4898867639
 40
0.5470027691
 40
0.6043750192
 40
0.6613631939
 40
0.7173334665
 40
0.7716694471
 40
0.8237834932
 40
0.8731287747
 40
0.9192127647
 40
0.9616133756
 40
1.0
 40
1.0
 40
1.0
 40
1.0
 10
-5.7698659377
 20
42.9404825869
 30
0.0
 10
-5.7702722832
 20
42.8346236336
 30
0.0
 10
-5.7424556949
 20
42.5421203872
 30
0.0
 10
-5.5607100682
 20
42.0674441156
 30
0.0
 10
-5.1792990239
 20
41.5490375337
 30
0.0
 10
-4.6342379372
 20
41.053816442
 30
0.0
 10
-3.9322167391
 20
40.5836581554
 30
0.0
 10
-3.0807336019
 20
40.142446323
 30
0.0
 10
-2.089336819
 20
39.7349803328
 30
0.0
 10
-0.9697084494
 20
39.3661586174
 30
0.0
 10
0.264582673
 20
39.0405943939
 30
0.0
 10
1.5983470046
 20
38.7624220523
 30
0.0
 10
3.0150342878
 20
38.5351943701
 30
0.0
 10
4.496984004
 20
38.3618185284
 30
0.0
 10
6.0256739872
 20
38.2445131279
 30
0.0
 10
7.5819702391
 20
38.1847784684
 30
0.0
 10
9.1463792225
 20
38.1833774478
 30
0.0
 10
10.6993018856
 20
38.2403259754
 30
0.0
 10
12.2212889732
 20
38.3548928875
 30
0.0
 10
13.6932931587
 20
38.5256083981
 30
0.0
 10
15.0969275046
 20
38.7502850641
 30
0.0
 10
16.4146924694
 20
39.0260399247
 30
0.0
 10
17.6303027281
 20
39.3493646202
 30
0.0
 10
18.7286784917
 20
39.7161052166
 30
0.0
 10
19.4092586538
 20
40.0012706199
 30
0.0
 10
19.7251881807
 20
40.1521907247
 30
0.0
 11
-5.7698659377
 21
42.9404825869
 31
0.0
 11
-5.7399143072
 21
42.6249095983
 31
0.0
 11
-5.5490669315
 21
42.1022269515
 31
0.0
 11
-5.1849436976
 21
41.5892699344
 31
0.0
 11
-4.6521236664
 21
41.0924892792
 31
0.0
 11
-3.9573073591
 21
40.618132291
 31
0.0
 11
-3.1092324938
 21
40.1721642839
 31
0.0
 11
-2.118564104
 21
39.7601935646
 31
0.0
 11
-0.9977604195
 21
39.3874009037
 31
0.0
 11
0.239083803
 21
39.0584743854
 31
0.0
 11
1.5764145299
 21
38.7775504514
 31
0.0
 11
2.9974140512
 21
38.5481618832
 31
0.0
 11
4.4842124736
 21
38.3731933752
 31
0.0
 11
6.0181124441
 21
38.2548452578
 31
0.0
 11
7.5798242808
 21
38.1946058273
 31
0.0
 11
9.149708551
 21
38.1932326295
 31
0.0
 11
10.7080230493
 21
38.2507429331
 31
0.0
 11
12.2351710667
 21
38.3664135128
 31
0.0
 11
13.7119478308
 21
38.5387897438
 31
0.0
 11
15.1197820169
 21
38.765703895
 31
0.0
 11
16.4409692933
 21
39.0443023893
 31
0.0
 11
17.6588949634
 21
39.3710816891
 31
0.0
 11
18.7582429053
 21
39.741932355
 31
0.0
 11
19.7251881807
 21
40.1521907247
 31
0.0
  0
SPLINE
  5
3A2
100
AcDbEntity
  8
RACCORDO
100
AcDbSpline
 62
253
  6
CONTINUOUS
 70
0
 71
3
 72
30
 73
26
 74
24
 42
0.0000001
 43
0.0000001
 44
0.0000000001
 12
-24.4346694969
 22
-15.0227124636
 32
0.0
 13
25.8567475132
 23
12.3518149191
 33
0.0
 40
0.0
 40
0.0
 40
0.0
 40
0.0
 40
0.0063824345
 40
0.0377376993
 40
0.0640145146
 40
0.0865227259
 40
0.1076721313
 40
0.1305353169
 40
0.1573665856
 40
0.1895371363
 40
0.2273280753
 40
0.2708524842
 40
0.3194885019
 40
0.372877868
 40
0.4299649486
 40
0.4901653101
 40
0.5522020904
 40
0.6153647243
 40
0.6783148725
 40
0.7402835043
 40
0.8000166751
 40
0.8567576838
 40
0.9094769067
 40
0.9573727801
 40
1.0
 40
1.0
 40
1.0
 40
1.0
 10
-3.4190541777
 20
47.2885117404
 30
0.0
 10
-3.4710384036
 20
47.2565512476
 30
0.0
 10
-3.7759539792
 20
47.063507819
 30
0.0
 10
-4.2661066159
 20
46.6928609504
 30
0.0
 10
-4.7705346571
 20
46.1062053551
 30
0.0
 10
-5.0346348168
 20
45.4757194519
 30
0.0
 10
-5.0202878152
 20
44.8212017471
 30
0.0
 10
-4.7309853962
 20
44.1932826901
 30
0.0
 10
-4.2038696799
 20
43.6055159984
 30
0.0
 10
-3.4561298223
 20
43.0542695671
 30
0.0
 10
-2.4975785941
 20
42.5423298045
 30
0.0
 10
-1.3445535894
 20
42.0777413914
 30
0.0
 10
-0.0147204847
 20
41.6678293149
 30
0.0
 10
1.4660315936
 20
41.3209696572
 30
0.0
 10
3.0732962409
 20
41.043123689
 30
0.0
 10
4.7748229683
 20
40.8401008649
 30
0.0
 10
6.5419898909
 20
40.7154311313
 30
0.0
 10
8.339258391
 20
40.6717052814
 30
0.0
 10
10.1360046557
 20
40.7096902419
 30
0.0
 10
11.8964187978
 20
40.828595602
 30
0.0
 10
13.5901074409
 20
41.0263034607
 30
0.0
 10
15.1839260874
 20
41.2987825809
 30
0.0
 10
16.6486714657
 20
41.6407703184
 30
0.0
 10
17.9569909946
 20
42.0452156267
 30
0.0
 10
18.7596206706
 20
42.3714399704
 30
0.0
 10
19.1270210914
 20
42.546947814
 30
0.0
 11
-3.4190541777
 21
47.2885117404
 31
0.0
 11
-3.5737202748
 21
47.1905256002
 31
0.0
 11
-4.2817472701
 21
46.637350701
 31
0.0
 11
-4.7586185122
 21
46.0546275141
 31
0.0
 11
-4.9934406673
 21
45.4539083558
 31
0.0
 11
-4.9813473295
 21
44.8479818547
 31
0.0
 11
-4.7224160989
 21
44.2461641346
 31
0.0
 11
-4.2225532621
 21
43.6619648047
 31
0.0
 11
-3.4888784297
 21
43.1037944849
 31
0.0
 11
-2.5385186579
 21
42.5846319531
 31
0.0
 11
-1.3844835338
 21
42.1116130059
 31
0.0
 11
-0.0542154313
 21
41.6959696496
 31
0.0
 11
1.4344752223
 21
41.3432743125
 31
0.0
 11
3.0459663288
 21
41.0619667243
 31
0.0
 11
4.7586760505
 21
40.8558096738
 31
0.0
 11
6.5318944349
 21
40.7297147245
 31
0.0
 11
8.3413097797
 21
40.6853966615
 31
0.0
 11
10.1447677316
 21
40.723909221
 31
0.0
 11
11.9163995694
 21
40.8446765063
 31
0.0
 11
13.61632047
 21
41.0450120908
 31
0.0
 11
15.2185285173
 21
41.3218153397
 31
0.0
 11
16.6887391682
 21
41.6692128378
 31
0.0
 11
17.9983456388
 21
42.0798649803
 31
0.0
 11
19.1270210914
 21
42.546947814
 31
0.0
  0
SPLINE
  5
3A3
100
AcDbEntity
  8
RACCORDO
100
AcDbSpline
 62
253
  6
CONTINUOUS
 70
0
 71
3
 72
14
 73
10
 74
8
 42
0.0000001
 43
0.0000001
 44
0.0000000001
 12
-3.0010743716
 22
-1.6745186262
 32
0.0
 13
1.6746600394
 23
-3.0193509014
 33
0.0
 40
0.0
 40
0.0
 40
0.0
 40
0.0
 40
0.0706823787
 40
0.2833572657
 40
0.4857547345
 40
0.6621275434
 40
0.8238242998
 40
0.9931008813
 40
1.0
 40
1.0
 40
1.0
 40
1.0
 10
-1.7404293099
 20
48.7891452672
 30
0.0
 10
-1.8111370016
 20
48.7496922806
 30
0.0
 10
-2.0918582626
 20
48.5865803275
 30
0.0
 10
-2.5511742289
 20
48.2698265451
 30
0.0
 10
-3.0365577046
 20
47.7900995075
 30
0.0
 10
-3.3478608837
 20
47.2412487987
 30
0.0
 10
-3.4140718667
 20
46.6451585446
 30
0.0
 10
-3.2826553381
 20
46.2699969094
 30
0.0
 10
-3.1854132741
 20
46.0920000369
 30
0.0
 10
-3.181562048
 20
46.0850564168
 30
0.0
 11
-1.7404293099
 21
48.7891452672
 31
0.0
 11
-1.9503910494
 21
48.6669691438
 31
0.0
 11
-2.5472820673
 21
48.2457958661
 31
0.0
 11
-3.0314523615
 21
47.7468841785
 31
0.0
 11
-3.3153229973
 21
47.2116773655
 31
0.0
 11
-3.3720471649
 21
46.6591637489
 31
0.0
 11
-3.1929853189
 21
46.1059679349
 31
0.0
 11
-3.181562048
 21
46.0850564168
 31
0.0
  0
SPLINE
  5
3A4
100
AcDbEntity
  8
RACCORDO
100
AcDbSpline
 62
253
  6
CONTINUOUS
 70
0
 71
3
 72
24
 73
20
 74
18
 42
0.0000001
 43
0.0000001
 44
0.0000000001
 12
10.7104524626
 22
-19.3105547022
 32
0.0
 13
19.8228123967
 23
9.4693932319
 33
0.0
 40
0.0
 40
0.0
 40
0.0
 40
0.0
 40
0.0297526292
 40
0.0670300343
 40
0.1112765449
 40
0.1626908041
 40
0.2205225046
 40
0.2842781844
 40
0.35262693
 40
0.4247616406
 40
0.4990483068
 40
0.5745373471
 40
0.6494842446
 40
0.7229268342
 40
0.7930164223
 40
0.8579073818
 40
0.9157496543
 40
0.9625768669
 40
1.0
 40
1.0
 40
1.0
 40
1.0
 10
-3.181562048
 20
46.0850564168
 30
0.0
 10
-3.0753406744
 20
45.8935431588
 30
0.0
 10
-2.7620234601
 20
45.5080399761
 30
0.0
 10
-2.1165047176
 20
45.0031604855
 30
0.0
 10
-1.262304929
 20
44.5303282479
 30
0.0
 10
-0.221154336
 20
44.101891455
 30
0.0
 10
0.9897655644
 20
43.7251353324
 30
0.0
 10
2.3451162484
 20
43.4083584922
 30
0.0
 10
3.8203717274
 20
43.1575628939
 30
0.0
 10
5.3835726419
 20
42.9784269671
 30
0.0
 10
7.0058905279
 20
42.8743732731
 30
0.0
 10
8.6518999734
 20
42.847755919
 30
0.0
 10
10.2911444938
 20
42.8990800561
 30
0.0
 10
11.8865719122
 20
43.0270805098
 30
0.0
 10
13.4002959915
 20
43.2279661589
 30
0.0
 10
14.7880514109
 20
43.493037692
 30
0.0
 10
15.9913387162
 20
43.8033528185
 30
0.0
 10
16.9788292729
 20
44.1340246951
 30
0.0
 10
17.547915523
 20
44.3742975426
 30
0.0
 10
17.795192772
 20
44.4924223304
 30
0.0
 11
-3.181562048
 21
46.0850564168
 31
0.0
 11
-2.782316168
 21
45.5673494623
 31
0.0
 11
-2.1462877136
 21
45.0514913174
 31
0.0
 11
-1.3010445138
 21
44.57148933
 31
0.0
 11
-0.2594481243
 21
44.1346489409
 31
0.0
 11
0.9520515057
 21
43.7520636294
 31
0.0
 11
2.3150287699
 21
43.4295530027
 31
0.0
 11
3.794864171
 21
43.1753093376
 31
0.0
 11
5.3690541177
 21
42.993199469
 31
0.0
 11
6.9976139503
 21
42.8878496031
 31
0.0
 11
8.6557724295
 21
42.8608625923
 31
0.0
 11
10.3014171541
 21
42.9129241991
 31
0.0
 11
11.9095657548
 21
43.0432485334
 31
0.0
 11
13.4356613593
 21
43.2479296106
 31
0.0
 11
14.835331743
 21
43.5183525744
 31
0.0
 11
16.0648121077
 21
43.839399451
 31
0.0
 11
17.0391108952
 21
44.1695667502
 31
0.0
 11
17.795192772
 21
44.4924223304
 31
0.0
  0
SPLINE
  5
3A5
100
AcDbEntity
  8
RACCORDO
100
AcDbSpline
 62
253
  6
CONTINUOUS
 70
0
 71
3
 72
9
 73
5
 74
3
 42
0.0000001
 43
0.0000001
 44
0.0000000001
 12
0.001274629
 22
-0.2806836176
 32
0.0
 13
0.1404617715
 23
-0.2412356308
 33
0.0
 40
0.0
 40
0.0
 40
0.0
 40
0.0
 40
0.6655297394
 40
1.0
 40
1.0
 40
1.0
 40
1.0
 10
4.170288553
 20
51.5058864856
 30
0.0
 10
4.1705713208
 20
51.4436187206
 30
0.0
 10
4.1892415069
 20
51.3493932902
 30
0.0
 10
4.2301734175
 20
51.2656770979
 30
0.0
 10
4.2458335126
 20
51.2387817164
 30
0.0
 11
4.170288553
 21
51.5058864856
 31
0.0
 11
4.2052828309
 21
51.3228539234
 31
0.0
 11
4.2458335126
 21
51.2387817164
 31
0.0
  0
SPLINE
  5
3A6
100
AcDbEntity
  8
RACCORDO
100
AcDbSpline
 62
253
  6
CONTINUOUS
 70
0
 71
3
 72
20
 73
16
 74
14
 42
0.0000001
 43
0.0000001
 44
0.0000000001
 12
3.9061254665
 22
-6.708562981
 32
0.0
 13
6.9753257244
 23
3.3321256775
 33
0.0
 40
0.0
 40
0.0
 40
0.0
 40
0.0
 40
0.0268146424
 40
0.07623492
 40
0.13799884
 40
0.2110737857
 40
0.2944151901
 40
0.3851971732
 40
0.4814175116
 40
0.5795444518
 40
0.6771702383
 40
0.7708325281
 40
0.8581375532
 40
0.9362780585
 40
1.0
 40
1.0
 40
1.0
 40
1.0
 10
4.2458335126
 20
51.2387817164
 30
0.0
 10
4.2807472985
 20
51.178819144
 30
0.0
 10
4.4078415109
 20
51.023961579
 30
0.0
 10
4.6966959484
 20
50.8125910505
 30
0.0
 10
5.1265104897
 20
50.6062383251
 30
0.0
 10
5.6608663385
 20
50.4283453663
 30
0.0
 10
6.2823588085
 20
50.2851904463
 30
0.0
 10
6.971807788
 20
50.1815454876
 30
0.0
 10
7.7045692922
 20
50.1213649607
 30
0.0
 10
8.4572488164
 20
50.106676486
 30
0.0
 10
9.2028407681
 20
50.138022795
 30
0.0
 10
9.9171824344
 20
50.2143130145
 30
0.0
 10
10.5749878311
 20
50.3326419818
 30
0.0
 10
11.1459431866
 20
50.4863429245
 30
0.0
 10
11.487944646
 20
50.6185508765
 30
0.0
 10
11.6361050787
 20
50.6893273824
 30
0.0
 11
4.2458335126
 21
51.2387817164
 31
0.0
 11
4.37417293
 21
51.0745933015
 31
0.0
 11
4.6761196615
 21
50.8405430672
 31
0.0
 11
5.1034212016
 21
50.62752193
 31
0.0
 11
5.6379412019
 21
50.4447811448
 31
0.0
 11
6.2650930637
 21
50.2973069321
 31
0.0
 11
6.9588049281
 21
50.1912246785
 31
0.0
 11
7.7000496165
 21
50.1294255194
 31
0.0
 11
8.4584569263
 21
50.1144534902
 31
0.0
 11
9.212448694
 21
50.146699585
 31
0.0
 11
9.9322531998
 21
50.2249171768
 31
0.0
 11
10.5960749788
 21
50.3466869729
 31
0.0
 11
11.178395372
 21
50.5072579653
 31
0.0
 11
11.6361050787
 21
50.6893273824
 31
0.0
  0
LINE
  5
3A7
100
AcDbEntity
  8
RACCORDO
100
AcDbLine
 62
253
  6
CONTINUOUS
 10
-0.0138137573
 20
50.331447716
 11
-0.0219541395
 21
50.3273014165
  0
SPLINE
  5
3A8
100
AcDbEntity
  8
RACCORDO
100
AcDbSpline
 62
253
  6
CONTINUOUS
 70
0
 71
3
 72
20
 73
16
 74
14
 42
0.0000001
 43
0.0000001
 44
0.0000000001
 12
-7.8881720946
 22
-4.0245487075
 32
0.0
 13
8.7097769125
 23
-1.5933133075
 33
0.0
 40
0.0
 40
0.0
 40
0.0
 40
0.0
 40
0.0424711631
 40
0.1057886621
 40
0.1679060369
 40
0.2259325935
 40
0.2804513041
 40
0.3372947354
 40
0.40274722
 40
0.4820727334
 40
0.577995878
 40
0.6900983566
 40
0.8179864861
 40
0.9589362473
 40
1.0
 40
1.0
 40
1.0
 40
1.0
 10
-0.0219541395
 20
50.3273014165
 30
0.0
 10
-0.1336274208
 20
50.2703256616
 30
0.0
 10
-0.4078766483
 20
50.1206386409
 30
0.0
 10
-0.8221977834
 20
49.8467856752
 30
0.0
 10
-1.2272395395
 20
49.4833304529
 30
0.0
 10
-1.5282872849
 20
49.0566425522
 30
0.0
 10
-1.6606685082
 20
48.5590650435
 30
0.0
 10
-1.5500556976
 20
48.0308272089
 30
0.0
 10
-1.2044284194
 20
47.5334113775
 30
0.0
 10
-0.6582516962
 20
47.0716368001
 30
0.0
 10
0.0780855331
 20
46.6448578272
 30
0.0
 10
0.9928130893
 20
46.2580912902
 30
0.0
 10
2.0663069231
 20
45.9199403787
 30
0.0
 10
2.9576073216
 20
45.711968585
 30
0.0
 10
3.48521537
 20
45.6107796032
 30
0.0
 10
3.6044340783
 20
45.588970462
 30
0.0
 11
-0.0219541395
 21
50.3273014165
 31
0.0
 11
-0.3517052925
 21
50.1464519665
 31
0.0
 11
-0.8168555046
 21
49.8336382102
 31
0.0
 11
-1.2207211032
 21
49.4603939986
 31
0.0
 11
-1.5061488797
 21
49.0332770057
 31
0.0
 11
-1.6212954951
 21
48.5645584633
 31
0.0
 11
-1.526678158
 21
48.0702976199
 31
0.0
 11
-1.2117913653
 21
47.583871129
 31
0.0
 11
-0.6853788537
 21
47.1190346333
 31
0.0
 11
0.0437296607
 21
46.6836534564
 31
0.0
 11
0.9547969322
 21
46.2900758125
 31
0.0
 11
2.0330316261
 21
45.9447112666
 31
0.0
 11
3.2473597827
 21
45.6575045079
 31
0.0
 11
3.6044340783
 21
45.588970462
 31
0.0
  0
SPLINE
  5
3A9
100
AcDbEntity
  8
RACCORDO
100
AcDbSpline
 62
253
  6
CONTINUOUS
 70
0
 71
3
 72
18
 73
14
 74
12
 42
0.0000001
 43
0.0000001
 44
0.0000000001
 12
12.684543305
 22
-2.2734973574
 32
0.0
 13
11.6263497867
 23
5.5539282609
 33
0.0
 40
0.0
 40
0.0
 40
0.0
 40
0.0
 40
0.0706016086
 40
0.1806324901
 40
0.2944865585
 40
0.4092228355
 40
0.5232085373
 40
0.6334622656
 40
0.7331703718
 40
0.8201330381
 40
0.8930724553
 40
0.9520000915
 40
1.0
 40
1.0
 40
1.0
 40
1.0
 10
3.6797409778
 20
45.5753338876
 30
0.0
 10
3.9782573649
 20
45.5218296974
 30
0.0
 10
4.744902935
 20
45.4011220144
 30
0.0
 10
6.0028639519
 20
45.2639947732
 30
0.0
 10
7.4555386091
 20
45.181989949
 30
0.0
 10
8.9274586934
 20
45.1727397815
 30
0.0
 10
10.3825698186
 20
45.2364481271
 30
0.0
 10
11.7682055504
 20
45.3694731241
 30
0.0
 10
13.0297346192
 20
45.5607497808
 30
0.0
 10
14.1212765453
 20
45.7915280661
 30
0.0
 10
15.0277060014
 20
46.0424276561
 30
0.0
 10
15.7576777267
 20
46.2968916622
 30
0.0
 10
16.180263461
 20
46.4778918109
 30
0.0
 10
16.3662847031
 20
46.5667544937
 30
0.0
 11
3.6797409778
 21
45.5753338876
 31
0.0
 11
4.5783144302
 21
45.4330614585
 31
0.0
 11
5.9875198254
 21
45.2778597063
 31
0.0
 11
7.4521312697
 21
45.1944053655
 31
0.0
 11
8.9304561656
 21
45.1850910025
 31
0.0
 11
10.3977020175
 21
45.2500527111
 31
0.0
 11
11.8116515989
 21
45.3873254039
 31
0.0
 11
13.0815363183
 21
45.581995119
 31
0.0
 11
14.1772879329
 21
45.8161774848
 31
0.0
 11
15.0823654652
 21
46.0693126884
 31
0.0
 11
15.7985739779
 21
46.3213795918
 31
0.0
 11
16.3662847031
 21
46.5667544937
 31
0.0
  0
SPLINE
  5
3AA
100
AcDbEntity
  8
RACCORDO
100
AcDbSpline
 62
253
  6
CONTINUOUS
 70
0
 71
3
 72
11
 73
7
 74
5
 42
0.0000001
 43
0.0000001
 44
0.0000000001
 12
1.705150666
 22
0.8145535483
 32
0.0
 13
0.7366378861
 23
1.7551498759
 33
0.0
 40
0.0
 40
0.0
 40
0.0
 40
0.0
 40
0.3036232429
 40
0.600176372
 40
0.8785218003
 40
1.0
 40
1.0
 40
1.0
 40
1.0
 10
15.1183966429
 20
48.2616733529
 30
0.0
 10
15.2909711011
 20
48.3441124828
 30
0.0
 10
15.6252290272
 20
48.5224583622
 30
0.0
 10
16.077487464
 20
48.8451134409
 30
0.0
 10
16.3800921589
 20
49.1689664872
 30
0.0
 10
16.501808604
 20
49.393806492
 30
0.0
 10
16.5316370854
 20
49.4648773078
 30
0.0
 11
15.1183966429
 21
48.2616733529
 31
0.0
 11
15.6226942022
 21
48.5353288952
 31
0.0
 11
16.0745841568
 21
48.8667588583
 31
0.0
 11
16.4230441012
 21
49.2607714309
 31
0.0
 11
16.5316370854
 21
49.4648773078
 31
0.0
  0
SPLINE
  5
3AB
100
AcDbEntity
  8
RACCORDO
100
AcDbSpline
 62
253
  6
CONTINUOUS
 70
0
 71
3
 72
9
 73
5
 74
3
 42
0.0000001
 43
0.0000001
 44
0.0000000001
 12
0.1521208208
 22
0.3624505944
 32
0.0
 13
0.0007158572
 23
0.3938452304
 33
0.0
 40
0.0
 40
0.0
 40
0.0
 40
0.0
 40
0.5881926065
 40
1.0
 40
1.0
 40
1.0
 40
1.0
 10
16.5316370854
 20
49.4648773078
 30
0.0
 10
16.5614625328
 20
49.5359408944
 30
0.0
 10
16.6000117102
 20
49.6614454005
 30
0.0
 10
16.6111003625
 20
49.7925119718
 30
0.0
 10
16.6111986276
 20
49.8465747644
 30
0.0
 11
16.5316370854
 21
49.4648773078
 31
0.0
 11
16.5973106823
 21
49.6855068502
 31
0.0
 11
16.6111986276
 21
49.8465747644
 31
0.0
  0
SPLINE
  5
3AC
100
AcDbEntity
  8
RACCORDO
100
AcDbSpline
 62
253
  6
CONTINUOUS
 70
0
 71
3
 72
8
 73
4
 74
2
 42
0.0000001
 43
0.0000001
 44
0.0000000001
 12
0.5959661266
 22
0.2846940935
 32
0.0
 13
0.5732227092
 23
0.3291752871
 33
0.0
 40
0.0
 40
0.0
 40
0.0
 40
0.0
 40
1.0
 40
1.0
 40
1.0
 40
1.0
 10
19.1270210914
 20
42.546947814
 30
0.0
 10
19.3256764669
 20
42.6418458452
 30
0.0
 10
19.5215200358
 20
42.7432148216
 30
0.0
 10
19.7125942722
 20
42.8529399173
 30
0.0
 11
19.1270210914
 21
42.546947814
 31
0.0
 11
19.7125942722
 21
42.8529399173
 31
0.0
  0
SPLINE
  5
3AD
100
AcDbEntity
  8
RACCORDO
100
AcDbSpline
 62
253
  6
CONTINUOUS
 70
0
 71
3
 72
16
 73
12
 74
10
 42
0.0000001
 43
0.0000001
 44
0.0000000001
 12
4.9540678549
 22
2.8448920155
 32
0.0
 13
-4.8401310902
 23
3.0360951314
 33
0.0
 40
0.0
 40
0.0
 40
0.0
 40
0.0
 40
0.0700489277
 40
0.2274561001
 40
0.3593687055
 40
0.4723625555
 40
0.5785350186
 40
0.6933108603
 40
0.8280069436
 40
0.9895068383
 40
1.0
 40
1.0
 40
1.0
 40
1.0
 10
19.7125942722
 20
42.8529399173
 30
0.0
 10
19.8282699858
 20
42.919367129
 30
0.0
 10
20.1982050826
 20
43.1450075949
 30
0.0
 10
20.7463289891
 20
43.5594932167
 30
0.0
 10
21.2507576854
 20
44.146148339
 30
0.0
 10
21.514857622
 20
44.7766343142
 30
0.0
 10
21.5005106744
 20
45.4311519994
 30
0.0
 10
21.2112082314
 20
46.0590710455
 30
0.0
 10
20.6840925399
 20
46.6468377397
 30
0.0
 10
20.212146527
 20
46.9947642678
 30
0.0
 10
19.9353751048
 20
47.1700172708
 30
0.0
 10
19.9184456787
 20
47.1806366832
 30
0.0
 11
19.7125942722
 21
42.8529399173
 31
0.0
 11
20.0539431201
 21
43.0618275195
 31
0.0
 11
20.7619701198
 21
43.6150033872
 31
0.0
 11
21.23884136
 21
44.1977261598
 31
0.0
 11
21.4736635156
 21
44.7984454267
 31
0.0
 11
21.4615701777
 21
45.4043718936
 31
0.0
 11
21.202638947
 21
46.0061895955
 31
0.0
 11
20.7027761102
 21
46.5903889321
 31
0.0
 11
19.9691012777
 21
47.1485592292
 31
0.0
 11
19.9184456787
 21
47.1806366832
 31
0.0
  0
SPLINE
  5
3AE
100
AcDbEntity
  8
RACCORDO
100
AcDbSpline
 62
253
  6
CONTINUOUS
 70
0
 71
3
 72
13
 73
9
 74
7
 42
0.0000001
 43
0.0000001
 44
0.0000000001
 12
-2.4729922382
 22
-1.2799393142
 32
0.0
 13
1.7162270677
 23
-2.2134151728
 33
0.0
 40
0.0
 40
0.0
 40
0.0
 40
0.0
 40
0.1338882928
 40
0.329867994
 40
0.5138158214
 40
0.6743678758
 40
0.8278226396
 40
1.0
 40
1.0
 40
1.0
 40
1.0
 10
1.4233033614
 20
51.6573754577
 30
0.0
 10
1.3129351251
 20
51.6002524945
 30
0.0
 10
1.0457913528
 20
51.4501432114
 30
0.0
 10
0.6562004378
 20
51.1721949185
 30
0.0
 10
0.3102763197
 20
50.8019832603
 30
0.0
 10
0.1159945087
 20
50.3678619188
 30
0.0
 10
0.1454015755
 20
49.899624917
 30
0.0
 10
0.300432086
 20
49.6314464888
 30
0.0
 10
0.3989305681
 20
49.5044131615
 30
0.0
 11
1.4233033614
 21
51.6573754577
 31
0.0
 11
1.0988813008
 21
51.4737308744
 31
0.0
 11
0.6590265901
 21
51.1511269062
 31
0.0
 11
0.3198447412
 21
50.7676064289
 31
0.0
 11
0.1502190927
 21
50.3541814959
 31
0.0
 11
0.1743239977
 21
49.9277461111
 31
0.0
 11
0.3989305681
 21
49.5044131615
 31
0.0
  0
SPLINE
  5
3AF
100
AcDbEntity
  8
RACCORDO
100
AcDbSpline
 62
253
  6
CONTINUOUS
 70
0
 71
3
 72
22
 73
18
 74
16
 42
0.0000001
 43
0.0000001
 44
0.0000000001
 12
9.3590738488
 22
-12.0001188118
 32
0.0
 13
13.6487822076
 23
6.5200478758
 33
0.0
 40
0.0
 40
0.0
 40
0.0
 40
0.0
 40
0.0382071167
 40
0.0854308975
 40
0.1412859068
 40
0.2055667018
 40
0.2768333814
 40
0.3541566041
 40
0.4354575284
 40
0.519488583
 40
0.6038947448
 40
0.6873454683
 40
0.767243012
 40
0.8409637748
 40
0.9061136165
 40
0.9584753671
 40
1.0
 40
1.0
 40
1.0
 40
1.0
 10
0.4019808284
 20
49.5004907234
 30
0.0
 10
0.5211752373
 20
49.3476607435
 30
0.0
 10
0.8411673923
 20
49.0538033325
 30
0.0
 10
1.4523561641
 20
48.6817168317
 30
0.0
 10
2.2278316383
 20
48.3444193446
 30
0.0
 10
3.1483971638
 20
48.0505035608
 30
0.0
 10
4.1945779959
 20
47.8066066447
 30
0.0
 10
5.33925142
 20
47.6194240449
 30
0.0
 10
6.5568627598
 20
47.4933448761
 30
0.0
 10
7.815149078
 20
47.4318668246
 30
0.0
 10
9.0857497875
 20
47.4364287125
 30
0.0
 10
10.3335608833
 20
47.5068264267
 30
0.0
 10
11.5220781872
 20
47.6402102528
 30
0.0
 10
12.6095815283
 20
47.8290022451
 30
0.0
 10
13.5472157076
 20
48.0574494949
 30
0.0
 10
14.3106535818
 20
48.3051475293
 30
0.0
 10
14.7481641271
 20
48.487720905
 30
0.0
 10
14.9370843506
 20
48.5779684365
 30
0.0
 11
0.4019808284
 21
49.5004907234
 31
0.0
 11
0.8173096784
 21
49.0985927498
 31
0.0
 11
1.4216750903
 21
48.7178216501
 31
0.0
 11
2.1933602919
 21
48.373860956
 31
0.0
 11
3.1180003536
 21
48.0731148366
 31
0.0
 11
4.1670195193
 21
47.8248778564
 31
0.0
 11
5.3209028755
 21
47.6337684786
 31
0.0
 11
6.5439851624
 21
47.5056941749
 31
0.0
 11
7.8135059124
 21
47.4430383352
 31
0.0
 11
9.0902371566
 21
47.4477373062
 31
0.0
 11
10.3504714737
 21
47.5197090656
 31
0.0
 11
11.5512849141
 21
47.6561662026
 31
0.0
 11
12.6495299025
 21
47.8493771429
 31
0.0
 11
13.6062072301
 21
48.0858337117
 31
0.0
 11
14.3585759527
 21
48.3333314733
 31
0.0
 11
14.9370843506
 21
48.5779684365
 31
0.0
  0
SPLINE
  5
3B0
100
AcDbEntity
  8
RACCORDO
100
AcDbSpline
 62
253
  6
CONTINUOUS
 70
0
 71
3
 72
10
 73
6
 74
4
 42
0.0000001
 43
0.0000001
 44
0.0000000001
 12
1.3107673315
 22
0.6261559182
 32
0.0
 13
0.91433962
 23
1.1338148131
 33
0.0
 40
0.0
 40
0.0
 40
0.0
 40
0.0
 40
0.3844595188
 40
0.7599657559
 40
1.0
 40
1.0
 40
1.0
 40
1.0
 10
14.9370843506
 20
48.5779684365
 30
0.0
 10
15.1050633432
 20
48.6582123042
 30
0.0
 10
15.4304207076
 20
48.8318078434
 30
0.0
 10
15.8261468651
 20
49.1141350417
 30
0.0
 10
16.03762508
 20
49.3270400148
 30
0.0
 10
16.1107826865
 20
49.417758142
 30
0.0
 11
14.9370843506
 21
48.5779684365
 31
0.0
 11
15.4279531626
 21
48.8443365869
 31
0.0
 11
15.8678078777
 21
49.1669415094
 31
0.0
 11
16.1107826865
 21
49.417758142
 31
0.0
  0
SPLINE
  5
3B1
100
AcDbEntity
  8
RACCORDO
100
AcDbSpline
 62
253
  6
CONTINUOUS
 70
0
 71
3
 72
18
 73
14
 74
12
 42
0.0000001
 43
0.0000001
 44
0.0000000001
 12
4.5205999113
 22
5.699099027
 32
0.0
 13
-7.2073227989
 23
0.8297316425
 33
0.0
 40
0.0
 40
0.0
 40
0.0
 40
0.0
 40
0.0206563807
 40
0.0822598162
 40
0.1411399987
 40
0.2072040032
 40
0.2875549677
 40
0.3860268693
 40
0.5024967755
 40
0.6365362851
 40
0.785142893
 40
0.9463787175
 40
1.0
 40
1.0
 40
1.0
 40
1.0
 10
16.1192142353
 20
49.4283000211
 30
0.0
 10
16.1503406461
 20
49.4675409407
 30
0.0
 10
16.2673230196
 20
49.6295179505
 30
0.0
 10
16.4108398859
 20
49.9502059944
 30
0.0
 10
16.3814329032
 20
50.4184429251
 30
0.0
 10
16.1267030367
 20
50.8590854015
 30
0.0
 10
15.6870794033
 20
51.2634046365
 30
0.0
 10
15.0744782654
 20
51.6363508191
 30
0.0
 10
14.2990028412
 20
51.973648358
 30
0.0
 10
13.3784372891
 20
52.2675640678
 30
0.0
 10
12.3322564688
 20
52.511461003
 30
0.0
 10
11.4643569986
 20
52.6533841843
 30
0.0
 10
10.9487212255
 20
52.7175596256
 30
0.0
 10
10.8198992617
 20
52.7323900506
 30
0.0
 11
16.1192142353
 21
49.4283000211
 31
0.0
 11
16.2069897238
 21
49.550461369
 31
0.0
 11
16.376615373
 21
49.9638864723
 31
0.0
 11
16.3525104673
 21
50.3903217188
 31
0.0
 11
16.1279038965
 21
50.8136545901
 31
0.0
 11
15.7095247861
 21
51.2194750058
 31
0.0
 11
15.1051593737
 21
51.6002460246
 31
0.0
 11
14.333474172
 21
51.9442067265
 31
0.0
 11
13.40883411
 21
52.2449528082
 31
0.0
 11
12.3598149442
 21
52.4931897899
 31
0.0
 11
11.205931588
 21
52.6842991779
 31
0.0
 11
10.8198992617
 21
52.7323900506
 31
0.0
  0
SPLINE
  5
3B2
100
AcDbEntity
  8
RACCORDO
100
AcDbSpline
 62
253
  6
CONTINUOUS
 70
0
 71
3
 72
12
 73
8
 74
6
 42
0.0000001
 43
0.0000001
 44
0.0000000001
 12
-4.2539214678
 22
-0.4505622447
 32
0.0
 13
-3.8593580794
 23
-1.8436223148
 33
0.0
 40
0.0
 40
0.0
 40
0.0
 40
0.0
 40
0.1768451008
 40
0.4375616856
 40
0.667966811
 40
0.8531464043
 40
1.0
 40
1.0
 40
1.0
 40
1.0
 10
5.7261868708
 20
52.7554647009
 30
0.0
 10
5.4754251473
 20
52.7289047924
 30
0.0
 10
4.8561599172
 20
52.6520612107
 30
0.0
 10
3.9172530906
 20
52.4890651218
 30
0.0
 10
2.9796184696
 20
52.2606192893
 30
0.0
 10
2.2161810953
 20
52.0129196561
 30
0.0
 10
1.7786703173
 20
51.8303467311
 30
0.0
 10
1.5897501136
 20
51.7400992091
 30
0.0
 11
5.7261868708
 21
52.7554647009
 31
0.0
 11
4.9755495501
 21
52.6619016838
 31
0.0
 11
3.8773045613
 21
52.4686906066
 31
0.0
 11
2.9206272365
 21
52.2322345712
 31
0.0
 11
2.1682585106
 21
51.984736005
 31
0.0
 11
1.5897501136
 21
51.7400992091
 31
0.0
  0
SPLINE
  5
3B3
100
AcDbEntity
  8
0
100
AcDbSpline
 62
7
  6
CONTINUOUS
 70
0
 71
3
 72
28
 73
24
 74
22
 42
0.0000001
 43
0.0000001
 44
0.0000000001
 12
-12.0573417532
 22
-5.7598139007
 32
0.0
 13
12.0573417532
 23
5.7598139007
 33
0.0
 40
0.0
 40
0.0
 40
0.0
 40
0.0
 40
0.0391261618
 40
0.0716745474
 40
0.0984390994
 40
0.1215079115
 40
0.1443825344
 40
0.1706574047
 40
0.2025742033
 40
0.2410321797
 40
0.2860928932
 40
0.3373182671
 40
0.3939485387
 40
0.4550019297
 40
0.5193398992
 40
0.5857173469
 40
0.6528262326
 40
0.7193364552
 40
0.7839359509
 40
0.8453714232
 40
0.9024915606
 40
0.9542963085
 40
1.0
 40
1.0
 40
1.0
 40
1.0
 10
3.3392624919
 20
51.8633825827
 30
0.0
 10
3.1820099905
 20
51.7882627792
 30
0.0
 10
2.9009086599
 20
51.6342840768
 30
0.0
 10
2.5552860462
 20
51.360002408
 30
0.0
 10
2.3294982818
 20
51.063342614
 30
0.0
 10
2.2411453463
 20
50.7406515649
 30
0.0
 10
2.3111110673
 20
50.4154028213
 30
0.0
 10
2.521543785
 20
50.1141795815
 30
0.0
 10
2.8528987785
 20
49.8347118905
 30
0.0
 10
3.2994381866
 20
49.5761072342
 30
0.0
 10
3.8532657734
 20
49.3419488905
 30
0.0
 10
4.5036207632
 20
49.1369057974
 30
0.0
 10
5.2368014919
 20
48.9655399066
 30
0.0
 10
6.0369285277
 20
48.8317615125
 30
0.0
 10
6.8864218806
 20
48.7386487494
 30
0.0
 10
7.7665032482
 20
48.688344769
 30
0.0
 10
8.6576625558
 20
48.6820059017
 30
0.0
 10
9.5401258487
 20
48.7197743554
 30
0.0
 10
10.3943313448
 20
48.8007769604
 30
0.0
 10
11.2013710164
 20
48.9231379439
 30
0.0
 10
11.9435551626
 20
49.0840482513
 30
0.0
 10
12.6045847797
 20
49.27977537
 30
0.0
 10
13.0088586358
 20
49.4412825013
 30
0.0
 10
13.1925469785
 20
49.5290307539
 30
0.0
 11
3.3392624919
 21
51.8633825827
 31
0.0
 11
2.8838870161
 21
51.6065262366
 31
0.0
 11
2.5487369226
 21
51.3293348556
 31
0.0
 11
2.3412989107
 21
51.0380004371
 31
0.0
 11
2.2662068028
 21
50.7390309106
 31
0.0
 11
2.3251380325
 21
50.4391047613
 31
0.0
 11
2.5167761736
 21
50.1449218438
 31
0.0
 11
2.8368403465
 21
49.8630537182
 31
0.0
 11
3.2781808467
 21
49.5997968528
 31
0.0
 11
3.8309388565
 21
49.361031971
 31
0.0
 11
4.4827666756
 21
49.1520926855
 31
0.0
 11
5.2191035474
 21
48.9776463549
 31
0.0
 11
6.023500923
 21
48.8415898218
 31
0.0
 11
6.8779898944
 21
48.7469623644
 31
0.0
 11
7.7634825899
 21
48.6958778038
 31
0.0
 11
8.6601985658
 21
48.6894772845
 31
0.0
 11
9.5481066692
 21
48.7279037837
 31
0.0
 11
10.4073725001
 21
48.8102989167
 31
0.0
 11
11.2188014798
 21
48.9348221126
 31
0.0
 11
11.9642676257
 21
49.0986917288
 31
0.0
 11
12.6271184561
 21
49.298247189
 31
0.0
 11
13.1925469785
 21
49.5290307539
 31
0.0
  0
SPLINE
  5
3B4
100
AcDbEntity
  8
RACCORDO
100
AcDbSpline
 62
253
  6
CONTINUOUS
 70
0
 71
3
 72
24
 73
20
 74
18
 42
0.0000001
 43
0.0000001
 44
0.0000000001
 12
-7.454690575
 22
-4.0786816901
 32
0.0
 13
7.6567071362
 23
3.6576228077
 33
0.0
 40
0.0
 40
0.0
 40
0.0
 40
0.0
 40
0.0309566676
 40
0.069104976
 40
0.0995681955
 40
0.1280352382
 40
0.1615015409
 40
0.2040821484
 40
0.2572980436
 40
0.3202595646
 40
0.3920666829
 40
0.4702846262
 40
0.5531882687
 40
0.63773464
 40
0.7218492081
 40
0.8025488289
 40
0.8777709399
 40
0.9450970951
 40
1.0
 40
1.0
 40
1.0
 40
1.0
 10
4.9566556602
 20
52.4477854244
 30
0.0
 10
4.8797315342
 20
52.40569796
 30
0.0
 10
4.7131905898
 20
52.3021335592
 30
0.0
 10
4.5013847031
 20
52.111686032
 30
0.0
 10
4.3744227119
 20
51.8548826424
 30
0.0
 10
4.4111805391
 20
51.5816150136
 30
0.0
 10
4.5947280625
 20
51.3395315092
 30
0.0
 10
4.8917274289
 20
51.1222015043
 30
0.0
 10
5.2982314898
 20
50.9270394749
 30
0.0
 10
5.8036077882
 20
50.7587943347
 30
0.0
 10
6.391394916
 20
50.6234029504
 30
0.0
 10
7.0434531835
 20
50.5253789642
 30
0.0
 10
7.7364750084
 20
50.4684623063
 30
0.0
 10
8.4483346364
 20
50.4545702623
 30
0.0
 10
9.1534909812
 20
50.4842171525
 30
0.0
 10
9.8290918709
 20
50.55636892
 30
0.0
 10
10.4512222783
 20
50.6682830358
 30
0.0
 10
10.9912141355
 20
50.8136449459
 30
0.0
 10
11.314667632
 20
50.938684427
 30
0.0
 10
11.4547927865
 20
51.005622466
 30
0.0
 11
4.9566556602
 21
52.4477854244
 31
0.0
 11
4.7344429416
 21
52.3071690518
 31
0.0
 11
4.5024169931
 21
52.0814480091
 31
0.0
 11
4.3986719425
 21
51.8446851574
 31
0.0
 11
4.4269654734
 21
51.6047913729
 31
0.0
 11
4.5866956371
 21
51.3699944957
 31
0.0
 11
4.8722669288
 21
51.1486374739
 31
0.0
 11
5.2763944333
 21
50.9471689451
 31
0.0
 11
5.7819259209
 21
50.7743386969
 31
0.0
 11
6.3750655363
 21
50.6348623618
 31
0.0
 11
7.0311554972
 21
50.5345332404
 31
0.0
 11
7.7322004598
 21
50.4760856714
 31
0.0
 11
8.4494772361
 21
50.4619256242
 31
0.0
 11
9.1625778598
 21
50.4924231037
 31
0.0
 11
9.8433453939
 21
50.5663986214
 31
0.0
 11
10.4711654943
 21
50.6815651668
 31
0.0
 11
11.021906574
 21
50.8334267433
 31
0.0
 11
11.4547927865
 21
51.005622466
 31
0.0
  0
SPLINE
  5
3B5
100
AcDbEntity
  8
0
100
AcDbSpline
 62
7
  6
CONTINUOUS
 70
0
 71
3
 72
10
 73
6
 74
4
 42
0.0000001
 43
0.0000001
 44
0.0000000001
 12
1.3218646072
 22
0.6314571068
 32
0.0
 13
1.4244680676
 23
0.3430618069
 33
0.0
 40
0.0
 40
0.0
 40
0.0
 40
0.0
 40
0.4168846229
 40
0.8894198172
 40
1.0
 40
1.0
 40
1.0
 40
1.0
 10
3.3392624919
 20
51.8633825827
 30
0.0
 10
3.5229508346
 20
51.9511308353
 30
0.0
 10
3.9272246907
 20
52.1126379666
 30
0.0
 10
4.3958940527
 20
52.2514083052
 30
0.0
 10
4.6722440414
 20
52.32027404
 30
0.0
 10
4.7247500212
 20
52.3329193191
 30
0.0
 11
3.3392624919
 21
51.8633825827
 31
0.0
 11
3.9046910144
 21
52.0941661476
 31
0.0
 11
4.5675418447
 21
52.2937216078
 31
0.0
 11
4.7247500212
 21
52.3329193191
 31
0.0
  0
SPLINE
  5
3B6
100
AcDbEntity
  8
0
100
AcDbSpline
 62
7
  6
CONTINUOUS
 70
0
 71
3
 72
18
 73
14
 74
12
 42
0.0000001
 43
0.0000001
 44
0.0000000001
 12
4.6021735501
 22
-1.1528833355
 32
0.0
 13
-4.2801752678
 23
-2.0446474446
 33
0.0
 40
0.0
 40
0.0
 40
0.0
 40
0.0
 40
0.0497675046
 40
0.1940704363
 40
0.3210073928
 40
0.4293443034
 40
0.5192545813
 40
0.5932714314
 40
0.6577097144
 40
0.7226950326
 40
0.798091326
 40
0.8897807976
 40
1.0
 40
1.0
 40
1.0
 40
1.0
 10
11.8206980978
 20
52.3004032856
 30
0.0
 10
11.8970443288
 20
52.2812779101
 30
0.0
 10
12.193901143
 20
52.2032619335
 30
0.0
 10
12.678543697
 20
52.0504644461
 30
0.0
 10
13.2323712839
 20
51.8163061024
 30
0.0
 10
13.6789106919
 20
51.5577014461
 30
0.0
 10
14.0102656854
 20
51.2782337551
 30
0.0
 10
14.2206984031
 20
50.9770105153
 30
0.0
 10
14.2906641241
 20
50.6517617717
 30
0.0
 10
14.2023111886
 20
50.3290707226
 30
0.0
 10
13.9765234242
 20
50.0324109286
 30
0.0
 10
13.6309008105
 20
49.7581292598
 30
0.0
 10
13.3497994799
 20
49.6041505574
 30
0.0
 10
13.1925469785
 20
49.5290307539
 30
0.0
 11
11.8206980978
 21
52.3004032856
 31
0.0
 11
12.0490427949
 21
52.2403206511
 31
0.0
 11
12.7008706139
 21
52.0313813656
 31
0.0
 11
13.2536286237
 21
51.7926164838
 31
0.0
 11
13.6949691239
 21
51.5293596184
 31
0.0
 11
14.0150332968
 21
51.2474914928
 31
0.0
 11
14.2066714379
 21
50.9533085753
 31
0.0
 11
14.2656026676
 21
50.653382426
 31
0.0
 11
14.1905105597
 21
50.3544128995
 31
0.0
 11
13.9830725478
 21
50.063078481
 31
0.0
 11
13.6479224544
 21
49.7858871
 31
0.0
 11
13.1925469785
 21
49.5290307539
 31
0.0
  0
SPLINE
  5
3B7
100
AcDbEntity
  8
RACCORDO
100
AcDbSpline
 62
253
  6
CONTINUOUS
 70
0
 71
3
 72
9
 73
5
 74
3
 42
0.0000001
 43
0.0000001
 44
0.0000000001
 12
-0.0004158861
 22
-0.3960336181
 32
0.0
 13
0.1489989869
 23
-0.3646668172
 33
0.0
 40
0.0
 40
0.0
 40
0.0
 40
0.0
 40
0.7068026561
 40
1.0
 40
1.0
 40
1.0
 40
1.0
 10
-0.0868940007
 20
49.9246584625
 30
0.0
 10
-0.0869919838
 20
49.8313525915
 30
0.0
 10
-0.0683049656
 20
49.6989846947
 30
0.0
 10
-0.0249255403
 20
49.5749063487
 30
0.0
 10
-0.0103635046
 20
49.539266568
 30
0.0
 11
-0.0868940007
 21
49.9246584625
 31
0.0
 11
-0.0482403299
 21
49.6483778403
 31
0.0
 11
-0.0103635046
 21
49.539266568
 31
0.0
  0
SPLINE
  5
3B8
100
AcDbEntity
  8
RACCORDO
100
AcDbSpline
 62
253
  6
CONTINUOUS
 70
0
 71
3
 72
23
 73
19
 74
17
 42
0.0000001
 43
0.0000001
 44
0.0000000001
 12
6.5493457828
 22
-14.5444225594
 32
0.0
 13
14.3309672959
 23
6.8459289228
 33
0.0
 40
0.0
 40
0.0
 40
0.0
 40
0.0
 40
0.0212272264
 40
0.0589305482
 40
0.1051368196
 40
0.1597883386
 40
0.2226840984
 40
0.2924152174
 40
0.3680723809
 40
0.4476215402
 40
0.5298420043
 40
0.6124294946
 40
0.6940821348
 40
0.7722581589
 40
0.8443904804
 40
0.9081365963
 40
0.9593700743
 40
1.0
 40
1.0
 40
1.0
 40
1.0
 10
0.0055443329
 20
49.5022237787
 30
0.0
 10
0.0518858148
 20
49.3993111953
 30
0.0
 10
0.2221544936
 20
49.1314646904
 30
0.0
 10
0.6353956406
 20
48.7514091989
 30
0.0
 10
1.2647562796
 20
48.3682601262
 30
0.0
 10
2.0614470196
 20
48.0217348
 30
0.0
 10
3.0071972256
 20
47.7197782446
 30
0.0
 10
4.0819992332
 20
47.4692088164
 30
0.0
 10
5.2579883727
 20
47.2769052999
 30
0.0
 10
6.5089108488
 20
47.1473769245
 30
0.0
 10
7.801621079
 20
47.0842168573
 30
0.0
 10
9.1069826235
 20
47.088903577
 30
0.0
 10
10.3889310928
 20
47.1612272337
 30
0.0
 10
11.6099637148
 20
47.2982596643
 30
0.0
 10
12.7272187065
 20
47.4922175844
 30
0.0
 10
13.6905049312
 20
47.7269126489
 30
0.0
 10
14.4748280029
 20
47.9813894354
 30
0.0
 10
14.9243079309
 20
48.1689568251
 30
0.0
 10
15.1183966429
 20
48.2616733529
 30
0.0
 11
0.0055443329
 21
49.5022237787
 31
0.0
 11
0.1825111407
 21
49.2134634746
 31
0.0
 11
0.6123361754
 21
48.7965407065
 31
0.0
 11
1.2332358344
 21
48.4053526147
 31
0.0
 11
2.0260326184
 21
48.0519819124
 31
0.0
 11
2.9759688301
 21
47.7430080838
 31
0.0
 11
4.0536868221
 21
47.4879798911
 31
0.0
 11
5.2391378498
 21
47.291642175
 31
0.0
 11
6.4956809493
 21
47.1600640477
 31
0.0
 11
7.7999329557
 21
47.0956940197
 31
0.0
 11
9.1115927428
 21
47.1005215464
 31
0.0
 11
10.4063043161
 21
47.1744622224
 31
0.0
 11
11.6399694716
 21
47.314652397
 31
0.0
 11
12.7682599134
 21
47.5131493146
 31
0.0
 11
13.7511105393
 21
47.7560742824
 31
0.0
 11
14.5240612886
 21
48.0103438271
 31
0.0
 11
15.1183966429
 21
48.2616733529
 31
0.0
  0
SPLINE
  5
3B9
100
AcDbEntity
  8
RACCORDO
100
AcDbSpline
 62
253
  6
CONTINUOUS
 70
0
 71
3
 72
10
 73
6
 74
4
 42
0.0000001
 43
0.0000001
 44
0.0000000001
 12
0.7539803822
 22
0.3601777883
 32
0.0
 13
0.438112163
 23
0.7259440779
 33
0.0
 40
0.0
 40
0.0
 40
0.0
 40
0.0
 40
0.5172393928
 40
0.926857302
 40
1.0
 40
1.0
 40
1.0
 40
1.0
 10
11.6361050787
 20
50.6893273824
 30
0.0
 10
11.766101197
 20
50.7514267625
 30
0.0
 10
11.9924867809
 20
50.8787971398
 30
0.0
 10
12.2019678996
 20
51.06714623
 30
0.0
 10
12.2775678446
 20
51.1808969624
 30
0.0
 10
12.2882494131
 20
51.1985961319
 30
0.0
 11
11.6361050787
 21
50.6893273824
 31
0.0
 11
12.0087371852
 21
50.908286802
 31
0.0
 11
12.2540736363
 21
51.1469522939
 31
0.0
 11
12.2882494131
 21
51.1985961319
 31
0.0
  0
SPLINE
  5
3BA
100
AcDbEntity
  8
RACCORDO
100
AcDbSpline
 62
253
  6
CONTINUOUS
 70
0
 71
3
 72
9
 73
5
 74
3
 42
0.0000001
 43
0.0000001
 44
0.0000000001
 12
0.1481601268
 22
0.2454987004
 32
0.0
 13
-0.0012808143
 23
0.2853289652
 33
0.0
 40
0.0
 40
0.0
 40
0.0
 40
0.0
 40
0.7509351764
 40
1.0
 40
1.0
 40
1.0
 40
1.0
 10
12.2882494131
 20
51.1985961319
 30
0.0
 10
12.3253356301
 20
51.2600473352
 30
0.0
 10
12.3623211395
 20
51.3493429108
 30
0.0
 10
12.3689503359
 20
51.4441952914
 30
0.0
 10
12.3688440006
 20
51.4678837608
 30
0.0
 11
12.2882494131
 21
51.1985961319
 31
0.0
 11
12.3637650348
 21
51.3972912154
 31
0.0
 11
12.3688440006
 21
51.4678837608
 31
0.0
  0
SPLINE
  5
3BB
100
AcDbEntity
  8
RACCORDO
100
AcDbSpline
 62
253
  6
CONTINUOUS
 70
0
 71
3
 72
24
 73
20
 74
18
 42
0.0000001
 43
0.0000001
 44
0.0000000001
 12
7.7885211767
 22
3.7205906125
 32
0.0
 13
-7.7885211767
 23
-3.7205906125
 33
0.0
 40
0.0
 40
0.0
 40
0.0
 40
0.0
 40
0.0473568102
 40
0.0848597177
 40
0.1148072336
 40
0.1427925248
 40
0.1756924126
 40
0.2175523797
 40
0.2698676331
 40
0.3317635842
 40
0.4023554271
 40
0.4792495988
 40
0.5607501688
 40
0.6438656652
 40
0.7265566655
 40
0.8058905158
 40
0.8798395425
 40
0.9460262994
 40
1.0
 40
1.0
 40
1.0
 40
1.0
 10
11.4547927865
 20
51.005622466
 30
0.0
 10
11.5777392929
 20
51.0643542338
 30
0.0
 10
11.7918507004
 20
51.184812464
 30
0.0
 10
12.0402752473
 20
51.4081917272
 30
0.0
 10
12.1672387399
 20
51.6649943922
 30
0.0
 10
12.1304806501
 20
51.9382619263
 30
0.0
 10
11.9469330382
 20
52.1803451907
 30
0.0
 10
11.6499337966
 20
52.3976752586
 30
0.0
 10
11.2434296372
 20
52.5928370188
 30
0.0
 10
10.7380534101
 20
52.7610822498
 30
0.0
 10
10.1502662521
 20
52.8964735172
 30
0.0
 10
9.4982079977
 20
52.9944975116
 30
0.0
 10
8.8051861713
 20
53.0514142729
 30
0.0
 10
8.0933265586
 20
53.065306173
 30
0.0
 10
7.3881701586
 20
53.0356597838
 30
0.0
 10
6.7125694581
 20
52.9635072086
 30
0.0
 10
6.0904385493
 20
52.8515950097
 30
0.0
 10
5.5504474005
 20
52.7062305119
 30
0.0
 10
5.2269934975
 20
52.5811920411
 30
0.0
 10
5.0868683941
 20
52.5142540265
 30
0.0
 11
11.4547927865
 21
51.005622466
 31
0.0
 11
11.8072182333
 21
51.2127062182
 31
0.0
 11
12.0392441948
 21
51.4384300506
 31
0.0
 11
12.1429892392
 21
51.6751915885
 31
0.0
 11
12.1146957095
 21
51.9150856226
 31
0.0
 11
11.9549655445
 21
52.1498822242
 31
0.0
 11
11.6693942528
 21
52.3712392435
 31
0.0
 11
11.2652667475
 21
52.5727076088
 31
0.0
 11
10.75973526
 21
52.7455378524
 31
0.0
 11
10.1665956443
 21
52.8850141286
 31
0.0
 11
9.5105056834
 21
52.9853432497
 31
0.0
 11
8.809460721
 21
53.0437908664
 31
0.0
 11
8.0921839447
 21
53.0579509203
 31
0.0
 11
7.3790833218
 21
53.0274536085
 31
0.0
 11
6.6983157872
 21
52.9534779852
 31
0.0
 11
6.0704956899
 21
52.8383121169
 31
0.0
 11
5.5197546044
 21
52.6864492952
 31
0.0
 11
5.0868683941
 21
52.5142540265
 31
0.0
  0
SPLINE
  5
3BC
100
AcDbEntity
  8
0
100
AcDbSpline
 62
7
  6
CONTINUOUS
 70
0
 71
3
 72
20
 73
16
 74
14
 42
0.0000001
 43
0.0000001
 44
0.0000000001
 12
-2.0065387755
 22
-0.9585271918
 32
0.0
 13
2.0065387755
 23
0.9585271918
 33
0.0
 40
0.0
 40
0.0
 40
0.0
 40
0.0
 40
0.0598880426
 40
0.1037539444
 40
0.1400613075
 40
0.1837353853
 40
0.2433746343
 40
0.3201119026
 40
0.4115916821
 40
0.513711907
 40
0.6213996979
 40
0.7291276317
 40
0.831365108
 40
0.923029364
 40
1.0
 40
1.0
 40
1.0
 40
1.0
 10
7.4530879034
 20
52.6809950724
 30
0.0
 10
7.4130320102
 20
52.6618602999
 30
0.0
 10
7.3464462674
 20
52.6233062902
 30
0.0
 10
7.2735476835
 20
52.5418447735
 30
0.0
 10
7.27246946
 20
52.4417248761
 30
0.0
 10
7.3438667216
 20
52.3592752395
 30
0.0
 10
7.4586225299
 20
52.2907872356
 30
0.0
 10
7.6181205239
 20
52.2322621348
 30
0.0
 10
7.8137220386
 20
52.1875452723
 30
0.0
 10
8.0355455326
 20
52.1589573317
 30
0.0
 10
8.2709257836
 20
52.1484088704
 30
0.0
 10
8.5064910103
 20
52.1565153046
 30
0.0
 10
8.728850133
 20
52.1827746578
 30
0.0
 10
8.9253204182
 20
52.2255302362
 30
0.0
 10
9.0438204626
 20
52.2673436184
 30
0.0
 10
9.0953019845
 20
52.2919364342
 30
0.0
 11
7.4530879034
 21
52.6809950724
 31
0.0
 11
7.3403565576
 21
52.6100925298
 31
0.0
 11
7.2818965044
 21
52.5320052484
 31
0.0
 11
7.2811052297
 21
52.451271377
 31
0.0
 11
7.3380287194
 21
52.3725828748
 31
0.0
 11
7.4493587873
 21
52.3005128316
 31
0.0
 11
7.6086253345
 21
52.2392496963
 31
0.0
 11
7.8065723681
 21
52.1923538597
 31
0.0
 11
8.0316959261
 21
52.1625507372
 31
0.0
 11
8.2709126455
 21
52.1515723781
 31
0.0
 11
8.5103201202
 21
52.1600568047
 31
0.0
 11
8.7360048579
 21
52.1875109329
 31
0.0
 11
8.9348508821
 21
52.2323392286
 31
0.0
 11
9.0953019845
 21
52.2919364342
 31
0.0
  0
SPLINE
  5
3BD
100
AcDbEntity
  8
0
100
AcDbSpline
 62
7
  6
CONTINUOUS
 70
0
 71
3
 72
20
 73
16
 74
14
 42
0.0000001
 43
0.0000001
 44
0.0000000001
 12
2.0065387755
 22
0.9585271918
 32
0.0
 13
-2.0065387755
 23
-0.9585271918
 33
0.0
 40
0.0
 40
0.0
 40
0.0
 40
0.0
 40
0.076970636
 40
0.168634892
 40
0.2708723683
 40
0.3786003021
 40
0.486288093
 40
0.5884083179
 40
0.6798880974
 40
0.7566253657
 40
0.8162646147
 40
0.8599386925
 40
0.8962460556
 40
0.9401119574
 40
1.0
 40
1.0
 40
1.0
 40
1.0
 10
7.4530879034
 20
52.6809950724
 30
0.0
 10
7.5045694253
 20
52.7055878882
 30
0.0
 10
7.6230694697
 20
52.7474012705
 30
0.0
 10
7.8195397549
 20
52.7901568488
 30
0.0
 10
8.0418988776
 20
52.816416202
 30
0.0
 10
8.2774641043
 20
52.8245226362
 30
0.0
 10
8.5128443553
 20
52.8139741749
 30
0.0
 10
8.7346678493
 20
52.7853862343
 30
0.0
 10
8.9302693639
 20
52.7406693718
 30
0.0
 10
9.089767358
 20
52.682144271
 30
0.0
 10
9.2045231663
 20
52.6136562671
 30
0.0
 10
9.2759204279
 20
52.5312066305
 30
0.0
 10
9.2748422044
 20
52.4310867331
 30
0.0
 10
9.2019436204
 20
52.3496252164
 30
0.0
 10
9.1353578777
 20
52.3110712067
 30
0.0
 10
9.0953019845
 20
52.2919364342
 30
0.0
 11
7.4530879034
 21
52.6809950724
 31
0.0
 11
7.6135390058
 21
52.740592278
 31
0.0
 11
7.8123850299
 21
52.7854205737
 31
0.0
 11
8.0380697676
 21
52.8128747019
 31
0.0
 11
8.2774772423
 21
52.8213591285
 31
0.0
 11
8.5166939618
 21
52.8103807694
 31
0.0
 11
8.7418175198
 21
52.7805776469
 31
0.0
 11
8.9397645534
 21
52.7336818103
 31
0.0
 11
9.0990311005
 21
52.672418675
 31
0.0
 11
9.2103611684
 21
52.6003486318
 31
0.0
 11
9.2672846582
 21
52.5216601296
 31
0.0
 11
9.2664933834
 21
52.4409262582
 31
0.0
 11
9.2080333303
 21
52.3628389768
 31
0.0
 11
9.0953019845
 21
52.2919364342
 31
0.0
  0
SPLINE
  5
3BE
100
AcDbEntity
  8
RACCORDO
100
AcDbSpline
 62
253
  6
CONTINUOUS
 70
0
 71
3
 72
8
 73
4
 74
2
 42
0.0000001
 43
0.0000001
 44
0.0000000001
 12
-0.0009273372
 22
-0.4214318831
 32
0.0
 13
0.1425667734
 23
-0.3983205398
 33
0.0
 40
0.0
 40
0.0
 40
0.0
 40
0.0
 40
1.0
 40
1.0
 40
1.0
 40
1.0
 10
-1.8454214488
 20
48.2619753064
 30
0.0
 10
-1.8457305612
 20
48.121498012
 30
0.0
 10
-1.818780193
 20
47.9806590802
 30
0.0
 10
-1.7712579352
 20
47.8478855669
 30
0.0
 11
-1.8454214488
 21
48.2619753064
 31
0.0
 11
-1.7712579352
 21
47.8478855669
 31
0.0
  0
SPLINE
  5
3BF
100
AcDbEntity
  8
RACCORDO
100
AcDbSpline
 62
253
  6
CONTINUOUS
 70
0
 71
3
 72
24
 73
20
 74
18
 42
0.0000001
 43
0.0000001
 44
0.0000000001
 12
7.3824363088
 22
-17.9121816644
 32
0.0
 13
17.3717593031
 23
8.2985207486
 33
0.0
 40
0.0
 40
0.0
 40
0.0
 40
0.0
 40
0.0307756408
 40
0.0680743552
 40
0.1131772483
 40
0.1658876309
 40
0.2260203999
 40
0.2922947227
 40
0.3639819665
 40
0.4392797347
 40
0.5171938356
 40
0.5957116621
 40
0.6737158454
 40
0.7491661215
 40
0.8173996752
 40
0.8769111017
 40
0.9268259646
 40
0.9671520713
 40
1.0
 40
1.0
 40
1.0
 40
1.0
 10
-1.7481520339
 20
47.7878485238
 30
0.0
 10
-1.6724189646
 20
47.6040955675
 30
0.0
 10
-1.4186482076
 20
47.2388764947
 30
0.0
 10
-0.8601764599
 20
46.7667069658
 30
0.0
 10
-0.1072635675
 20
46.330320948
 30
0.0
 10
0.8280552952
 20
45.934847876
 30
0.0
 10
1.9257144349
 20
45.5890849786
 30
0.0
 10
3.1646800379
 20
45.2999906154
 30
0.0
 10
4.5154307965
 20
45.0748489547
 30
0.0
 10
5.9508867402
 20
44.918373461
 30
0.0
 10
7.4362623519
 20
44.8345225558
 30
0.0
 10
8.941316637
 20
44.8250641362
 30
0.0
 10
10.4291836115
 20
44.8902066978
 30
0.0
 10
11.8460112836
 20
45.0262258736
 30
0.0
 10
13.1359385276
 20
45.2218083755
 30
0.0
 10
14.2520519804
 20
45.4577820002
 30
0.0
 10
15.1788860994
 20
45.7143288206
 30
0.0
 10
15.9252896728
 20
45.9745221403
 30
0.0
 10
16.3573882251
 20
46.1595963375
 30
0.0
 10
16.5475969953
 20
46.2504594101
 30
0.0
 11
-1.7481520339
 21
47.7878485238
 31
0.0
 11
-1.4261768455
 21
47.2904721502
 31
0.0
 11
-0.8879142976
 21
46.8151717884
 31
0.0
 11
-0.142392811
 21
46.3699898514
 31
0.0
 11
0.7891833602
 21
45.9675524285
 31
0.0
 11
1.8916900868
 21
45.6144134578
 31
0.0
 11
3.1333538108
 21
45.3207414267
 31
0.0
 11
4.4942693813
 21
45.0912459588
 31
0.0
 11
5.9351972053
 21
44.9325504865
 31
0.0
 11
7.4327783052
 21
44.8472174643
 31
0.0
 11
8.9443815815
 21
44.8376934119
 31
0.0
 11
10.4446564199
 21
44.9041174576
 31
0.0
 11
11.8904353682
 21
45.0444800836
 31
0.0
 11
13.1889063162
 21
45.2435320247
 31
0.0
 11
14.3093242366
 21
45.4829860916
 31
0.0
 11
15.2347760706
 21
45.7418194562
 31
0.0
 11
15.9671064654
 21
45.9995609993
 31
0.0
 11
16.5475969953
 21
46.2504594101
 31
0.0
  0
SPLINE
  5
3C0
100
AcDbEntity
  8
RACCORDO
100
AcDbSpline
 62
253
  6
CONTINUOUS
 70
0
 71
3
 72
11
 73
7
 74
5
 42
0.0000001
 43
0.0000001
 44
0.0000000001
 12
2.5471796448
 22
1.2167923101
 32
0.0
 13
0.8470739892
 23
2.7087313141
 33
0.0
 40
0.0
 40
0.0
 40
0.0
 40
0.0
 40
0.266558098
 40
0.53029324
 40
0.7812828334
 40
1.0
 40
1.0
 40
1.0
 40
1.0
 10
17.9765050642
 20
44.1761272468
 30
0.0
 10
18.2028288513
 20
44.284242528
 30
0.0
 10
18.6445914586
 20
44.5181474608
 30
0.0
 10
19.2517175748
 20
44.9368323423
 30
0.0
 10
19.7463821326
 20
45.4257342806
 30
0.0
 10
19.9687220746
 20
45.8177351133
 30
0.0
 10
20.0304786156
 20
46.015217126
 30
0.0
 11
17.9765050642
 21
44.1761272468
 31
0.0
 11
18.6394445073
 21
44.5320958279
 31
0.0
 11
19.2477511445
 21
44.961323343
 31
0.0
 11
19.7411792464
 21
45.4697755349
 31
0.0
 11
20.0304786156
 21
46.015217126
 31
0.0
  0
SPLINE
  5
3C1
100
AcDbEntity
  8
RACCORDO
100
AcDbSpline
 62
253
  6
CONTINUOUS
 70
0
 71
3
 72
8
 73
4
 74
2
 42
0.0000001
 43
0.0000001
 44
0.0000000001
 12
0.1109889388
 22
0.3767526122
 32
0.0
 13
0.0033562595
 23
0.3929898769
 33
0.0
 40
0.0
 40
0.0
 40
0.0
 40
0.0
 40
1.0
 40
1.0
 40
1.0
 40
1.0
 10
20.0374650407
 20
46.0382265498
 30
0.0
 10
20.0744613536
 20
46.1638107539
 30
0.0
 10
20.0946193782
 20
46.2950150118
 30
0.0
 10
20.0957381314
 20
46.4260116374
 30
0.0
 11
20.0374650407
 21
46.0382265498
 31
0.0
 11
20.0957381314
 21
46.4260116374
 31
0.0
  0
SPLINE
  5
3C2
100
AcDbEntity
  8
0
100
AcDbSpline
 62
7
  6
CONTINUOUS
 70
0
 71
3
 72
10
 73
6
 74
4
 42
0.0000001
 43
0.0000001
 44
0.0000000001
 12
-1.2556842985
 22
-1.3198467296
 32
0.0
 13
-1.640402729
 23
-0.7836233421
 33
0.0
 40
0.0
 40
0.0
 40
0.0
 40
0.0
 40
0.1383756016
 40
0.5366609797
 40
1.0
 40
1.0
 40
1.0
 40
1.0
 10
19.0612811752
 20
44.4144099005
 30
0.0
 10
19.0033624852
 20
44.3535317054
 30
0.0
 10
18.7681487748
 20
44.1273593907
 30
0.0
 10
18.2763075176
 20
43.7692141213
 30
0.0
 10
17.8152621975
 20
43.5212218861
 30
0.0
 10
17.5619079997
 20
43.4001941289
 30
0.0
 11
19.0612811752
 21
44.4144099005
 31
0.0
 11
18.8801542612
 21
44.2391551455
 31
0.0
 11
18.3003414517
 21
43.8054602695
 31
0.0
 11
17.5619079997
 21
43.4001941289
 31
0.0
  0
SPLINE
  5
3C3
100
AcDbEntity
  8
0
100
AcDbSpline
 62
7
  6
CONTINUOUS
 70
0
 71
3
 72
21
 73
17
 74
15
 42
0.0000001
 43
0.0000001
 44
0.0000000001
 12
3.3466049023
 22
-5.9825344855
 32
0.0
 13
6.1360602445
 23
2.9312070451
 33
0.0
 40
0.0
 40
0.0
 40
0.0
 40
0.0
 40
0.0167454532
 40
0.0599178576
 40
0.113564019
 40
0.1777200215
 40
0.2514002194
 40
0.3329962175
 40
0.420489913
 40
0.5115953975
 40
0.6038737291
 40
0.6948377238
 40
0.7820543046
 40
0.8632496112
 40
0.9364247149
 40
1.0
 40
1.0
 40
1.0
 40
1.0
 10
4.7269975368
 20
50.4892836204
 30
0.0
 10
4.7456776755
 20
50.4558902033
 30
0.0
 10
4.8247608753
 20
50.3426081067
 30
0.0
 10
5.0217413343
 20
50.1733845695
 30
0.0
 10
5.341861836
 20
49.9947496254
 30
0.0
 10
5.7471424566
 20
49.8368155206
 30
0.0
 10
6.2270696101
 20
49.7036471153
 30
0.0
 10
6.7679052548
 20
49.599427945
 30
0.0
 10
7.3536953078
 20
49.5274108368
 30
0.0
 10
7.9669183505
 20
49.4898826306
 30
0.0
 10
8.5891385567
 20
49.4880252599
 30
0.0
 10
9.2016288305
 20
49.5218946756
 30
0.0
 10
9.7859612583
 20
49.5904092653
 30
0.0
 10
10.3247266837
 20
49.6914038618
 30
0.0
 10
10.8018470596
 20
49.8216535908
 30
0.0
 10
11.0918561547
 20
49.9337836784
 30
0.0
 10
11.2218900812
 20
49.9959011196
 30
0.0
 11
4.7269975368
 21
50.4892836204
 31
0.0
 11
4.7918216204
 21
50.3944458549
 31
0.0
 11
5.008466102
 21
50.1963148982
 31
0.0
 11
5.3240862082
 21
50.0133729001
 31
0.0
 11
5.7290919816
 21
49.8511784604
 31
0.0
 11
6.2111775269
 21
49.7146597753
 31
0.0
 11
6.7556949187
 21
49.6079648957
 31
0.0
 11
7.3460992716
 21
49.5343356918
 31
0.0
 11
7.964451448
 21
49.4960093496
 31
0.0
 11
8.59196313
 21
49.4941503955
 31
0.0
 11
9.2095676927
 21
49.5288153131
 31
0.0
 11
9.7984995339
 21
49.5989508262
 31
0.0
 11
10.3408642577
 21
49.7024259029
 31
0.0
 11
10.8201823864
 21
49.8360965052
 31
0.0
 11
11.2218900812
 21
49.9959011196
 31
0.0
  0
SPLINE
  5
3C4
100
AcDbEntity
  8
0
100
AcDbSpline
 62
7
  6
CONTINUOUS
 70
0
 71
3
 72
9
 73
5
 74
3
 42
0.0000001
 43
0.0000001
 44
0.0000000001
 12
-0.311038565
 22
-0.2341758069
 32
0.0
 13
-0.3310302116
 23
-0.2046946042
 33
0.0
 40
0.0
 40
0.0
 40
0.0
 40
0.0
 40
0.6926260114
 40
1.0
 40
1.0
 40
1.0
 40
1.0
 10
16.8927306343
 20
45.9884362014
 30
0.0
 10
16.8209195007
 20
45.934370783
 30
0.0
 10
16.7142921687
 20
45.8601678351
 30
0.0
 10
16.6047656055
 20
45.7905871158
 30
0.0
 10
16.5708489133
 20
45.7696145168
 30
0.0
 11
16.8927306343
 21
45.9884362014
 31
0.0
 11
16.6718229229
 21
45.8337984247
 31
0.0
 11
16.5708489133
 21
45.7696145168
 31
0.0
  0
SPLINE
  5
3C5
100
AcDbEntity
  8
0
100
AcDbSpline
 62
7
  6
CONTINUOUS
 70
0
 71
3
 72
8
 73
4
 74
2
 42
0.0000001
 43
0.0000001
 44
0.0000000001
 12
-0.54319845
 22
-0.335890163
 32
0.0
 13
-0.575707232
 23
-0.275016383
 33
0.0
 40
0.0
 40
0.0
 40
0.0
 40
0.0
 40
1.0
 40
1.0
 40
1.0
 40
1.0
 10
16.5708489133
 20
45.7696145168
 30
0.0
 10
16.3897827633
 20
45.6576511292
 30
0.0
 10
16.2015609152
 20
45.5575068854
 30
0.0
 10
16.0096585046
 20
45.4658347578
 30
0.0
 11
16.5708489133
 21
45.7696145168
 31
0.0
 11
16.0096585046
 21
45.4658347578
 31
0.0
  0
SPLINE
  5
3C6
100
AcDbEntity
  8
RACCORDO
100
AcDbSpline
 62
253
  6
CONTINUOUS
 70
0
 71
3
 72
9
 73
5
 74
3
 42
0.0000001
 43
0.0000001
 44
0.0000000001
 12
-0.002835491
 22
-0.3445058597
 32
0.0
 13
0.0846423971
 23
-0.3334498506
 33
0.0
 40
0.0
 40
0.0
 40
0.0
 40
0.0
 40
0.4420870214
 40
1.0
 40
1.0
 40
1.0
 40
1.0
 10
-3.6029683759
 20
46.5361689954
 30
0.0
 10
-3.6033862205
 20
46.4854018056
 30
0.0
 10
-3.5978622665
 20
46.3706391687
 30
0.0
 10
-3.577049678
 20
46.2577764833
 30
0.0
 10
-3.5613086474
 20
46.1957644835
 30
0.0
 11
-3.6029683759
 21
46.5361689954
 31
0.0
 11
-3.5955140587
 21
46.3843029893
 31
0.0
 11
-3.5613086474
 21
46.1957644835
 31
0.0
  0
SPLINE
  5
3C7
100
AcDbEntity
  8
RACCORDO
100
AcDbSpline
 62
253
  6
CONTINUOUS
 70
0
 71
3
 72
25
 73
21
 74
19
 42
0.0000001
 43
0.0000001
 44
0.0000000001
 12
6.3125517788
 22
-22.0166180235
 32
0.0
 13
20.5456224991
 23
9.8146809214
 33
0.0
 40
0.0
 40
0.0
 40
0.0
 40
0.0
 40
0.0156699065
 40
0.0459854382
 40
0.0826391725
 40
0.1261454125
 40
0.1766994821
 40
0.2335636237
 40
0.2962526333
 40
0.3634578639
 40
0.4343857175
 40
0.5074295239
 40
0.581655588
 40
0.6553485799
 40
0.7275624327
 40
0.7964793841
 40
0.8602846759
 40
0.917159234
 40
0.963202971
 40
1.0
 40
1.0
 40
1.0
 40
1.0
 10
-3.5495457592
 20
46.1522457197
 30
0.0
 10
-3.5165733939
 20
46.0372462713
 30
0.0
 10
-3.3790129075
 20
45.7104324978
 30
0.0
 10
-2.9802022773
 20
45.2161543154
 30
0.0
 10
-2.3159618177
 20
44.6966322292
 30
0.0
 10
-1.4454272819
 20
44.214757975
 30
0.0
 10
-0.3843668201
 20
43.7781283148
 30
0.0
 10
0.849709373
 20
43.3941674821
 30
0.0
 10
2.2309782982
 20
43.0713329676
 30
0.0
 10
3.7344449366
 20
42.8157414396
 30
0.0
 10
5.3275387786
 20
42.6331798671
 30
0.0
 10
6.9808800892
 20
42.5271364103
 30
0.0
 10
8.6583660117
 20
42.5000099675
 30
0.0
 10
10.3289576615
 20
42.5523155906
 30
0.0
 10
11.9548943008
 20
42.6827638295
 30
0.0
 10
13.4975652684
 20
42.8874906
 30
0.0
 10
14.9118585441
 20
43.1576319284
 30
0.0
 10
16.1381565872
 20
43.4738795172
 30
0.0
 10
17.1445301932
 20
43.8108766681
 30
0.0
 10
17.7244991088
 20
44.0557435474
 30
0.0
 10
17.9765050642
 20
44.1761272468
 30
0.0
 11
-3.5495457592
 21
46.1522457197
 31
0.0
 11
-3.4130279511
 21
45.820528481
 31
0.0
 11
-2.9945056218
 21
45.2716100522
 31
0.0
 11
-2.3463143631
 21
44.7458872365
 31
0.0
 11
-1.4849076747
 21
44.2567062108
 31
0.0
 11
-0.4233928961
 21
43.8115121917
 31
0.0
 11
0.8112741141
 21
43.4216107366
 31
0.0
 11
2.2003154597
 21
43.0929327765
 31
0.0
 11
3.708449604
 21
42.8338272374
 31
0.0
 11
5.3127426149
 21
42.6482348781
 31
0.0
 11
6.9724452382
 21
42.5408704247
 31
0.0
 11
8.6623125196
 21
42.5133672963
 31
0.0
 11
10.3394267544
 21
42.5664244777
 31
0.0
 11
11.9783278527
 21
42.6992409531
 31
0.0
 11
13.533606927
 21
42.9078360353
 31
0.0
 11
14.9600429555
 21
43.1834304159
 31
0.0
 11
16.2130351634
 21
43.5106161967
 31
0.0
 11
17.2059644705
 21
43.8470978812
 31
0.0
 11
17.9765050642
 21
44.1761272468
 31
0.0
  0
SPLINE
  5
3C8
100
AcDbEntity
  8
RACCORDO
100
AcDbSpline
 62
253
  6
CONTINUOUS
 70
0
 71
3
 72
11
 73
7
 74
5
 42
0.0000001
 43
0.0000001
 44
0.0000000001
 12
2.1425457045
 22
1.0234979471
 32
0.0
 13
1.2370530238
 23
2.0426605716
 33
0.0
 40
0.0
 40
0.0
 40
0.0
 40
0.0
 40
0.31095312
 40
0.6186127223
 40
0.9114044938
 40
1.0
 40
1.0
 40
1.0
 40
1.0
 10
17.795192772
 20
44.4924223304
 30
0.0
 10
18.0172698625
 20
44.598508957
 30
0.0
 10
18.4507435959
 20
44.828023967
 30
0.0
 10
19.046475823
 20
45.2388547851
 30
0.0
 10
19.4373759446
 20
45.6251985156
 30
0.0
 10
19.6088379004
 20
45.8765487948
 30
0.0
 10
19.6453703467
 20
45.9368723106
 30
0.0
 11
17.795192772
 21
44.4924223304
 31
0.0
 11
18.4456930715
 21
44.8417113491
 31
0.0
 11
19.0425840928
 21
45.2628853468
 31
0.0
 11
19.5267543846
 21
45.7617965357
 31
0.0
 11
19.6453703467
 21
45.9368723106
 31
0.0
  0
SPLINE
  5
3C9
100
AcDbEntity
  8
RACCORDO
100
AcDbSpline
 62
253
  6
CONTINUOUS
 70
0
 71
3
 72
13
 73
9
 74
7
 42
0.0000001
 43
0.0000001
 44
0.0000000001
 12
1.8127342808
 22
2.9932434349
 32
0.0
 13
-3.0237134555
 23
1.7264904837
 33
0.0
 40
0.0
 40
0.0
 40
0.0
 40
0.0
 40
0.1136568099
 40
0.2732849368
 40
0.4403959356
 40
0.6350583057
 40
0.8704195763
 40
1.0
 40
1.0
 40
1.0
 40
1.0
 10
19.6453703467
 20
45.9368723106
 30
0.0
 10
19.7140468786
 20
46.050273144
 30
0.0
 10
19.8511553583
 20
46.3393877477
 30
0.0
 10
19.909373906
 20
46.8635222342
 30
0.0
 10
19.7039450723
 20
47.449970524
 30
0.0
 10
19.2635832465
 20
47.9957463946
 30
0.0
 10
18.7494250373
 20
48.3978848129
 30
0.0
 10
18.3885274566
 20
48.6199595743
 30
0.0
 10
18.2579227664
 20
48.6945326971
 30
0.0
 11
19.6453703467
 21
45.9368723106
 31
0.0
 11
19.8106250212
 21
46.2970034988
 31
0.0
 11
19.8673491885
 21
46.8495170214
 31
0.0
 11
19.6882873423
 21
47.4027127967
 31
0.0
 11
19.2776181916
 21
47.9413312749
 31
0.0
 11
18.6415897371
 21
48.4571893705
 31
0.0
 11
18.2579227664
 21
48.6945326971
 31
0.0
  0
SPLINE
  5
3CA
100
AcDbEntity
  8
0
100
AcDbSpline
 62
7
  6
CONTINUOUS
 70
0
 71
3
 72
10
 73
6
 74
4
 42
0.0000001
 43
0.0000001
 44
0.0000000001
 12
-0.5225995848
 22
-0.6008429259
 32
0.0
 13
-0.6734395336
 23
-0.4209286713
 33
0.0
 40
0.0
 40
0.0
 40
0.0
 40
0.0
 40
0.1720121144
 40
0.865901863
 40
1.0
 40
1.0
 40
1.0
 40
1.0
 10
15.7984615443
 20
48.2379861986
 30
0.0
 10
15.7684970578
 20
48.2035354446
 30
0.0
 10
15.6109431525
 20
48.0358563741
 30
0.0
 10
15.4006751181
 20
47.8730524477
 30
0.0
 10
15.2163218374
 20
47.7544030027
 30
0.0
 10
15.1862195085
 20
47.7355877525
 30
0.0
 11
15.7984615443
 21
48.2379861986
 31
0.0
 11
15.7049331168
 21
48.1379701847
 31
0.0
 11
15.2757673545
 21
47.7932587538
 31
0.0
 11
15.1862195085
 21
47.7355877525
 31
0.0
  0
SPLINE
  5
3CB
100
AcDbEntity
  8
0
100
AcDbSpline
 62
7
  6
CONTINUOUS
 70
0
 71
3
 72
8
 73
4
 74
2
 42
0.0000001
 43
0.0000001
 44
0.0000000001
 12
-0.4661689216
 22
-0.2913756247
 32
0.0
 13
-0.4955047123
 23
-0.2367034947
 33
0.0
 40
0.0
 40
0.0
 40
0.0
 40
0.0
 40
1.0
 40
1.0
 40
1.0
 40
1.0
 10
15.1862195085
 20
47.7355877525
 30
0.0
 10
15.0308298679
 20
47.6384625443
 30
0.0
 10
14.8689093591
 20
47.5520177558
 30
0.0
 10
14.7037411216
 20
47.4731165909
 30
0.0
 11
15.1862195085
 21
47.7355877525
 31
0.0
 11
14.7037411216
 21
47.4731165909
 31
0.0
  0
SPLINE
  5
3CC
100
AcDbEntity
  8
0
100
AcDbSpline
 62
7
  6
CONTINUOUS
 70
0
 71
3
 72
9
 73
5
 74
3
 42
0.0000001
 43
0.0000001
 44
0.0000000001
 12
-0.0882763033
 22
-0.1548078276
 32
0.0
 13
-0.1221357257
 23
-0.1282361127
 33
0.0
 40
0.0
 40
0.0
 40
0.0
 40
0.0
 40
0.5646751839
 40
1.0
 40
1.0
 40
1.0
 40
1.0
 10
11.8029708102
 20
50.4570839718
 30
0.0
 10
11.7863549976
 20
50.427945259
 30
0.0
 10
11.7523473324
 20
50.3787219396
 30
0.0
 10
11.7134221746
 20
50.3341672674
 30
0.0
 10
11.6956992705
 20
50.3155591467
 30
0.0
 11
11.8029708102
 21
50.4570839718
 31
0.0
 11
11.7463804463
 21
50.373843521
 31
0.0
 11
11.6956992705
 21
50.3155591467
 31
0.0
  0
SPLINE
  5
3CD
100
AcDbEntity
  8
0
100
AcDbSpline
 62
7
  6
CONTINUOUS
 70
0
 71
3
 72
9
 73
5
 74
3
 42
0.0000001
 43
0.0000001
 44
0.0000000001
 12
-0.3936789848
 22
-0.4023151198
 32
0.0
 13
-0.5065062672
 23
-0.2419589573
 33
0.0
 40
0.0
 40
0.0
 40
0.0
 40
0.0
 40
0.357511921
 40
1.0
 40
1.0
 40
1.0
 40
1.0
 10
11.6871936101
 20
50.3067491001
 30
0.0
 10
11.6402786334
 20
50.2588049497
 30
0.0
 10
11.4946838488
 20
50.1394282545
 30
0.0
 10
11.3303648274
 20
50.0477197015
 30
0.0
 10
11.2218900812
 20
49.9959011196
 30
0.0
 11
11.6871936101
 21
50.3067491001
 31
0.0
 11
11.5337816571
 21
50.1769841638
 31
0.0
 11
11.2218900812
 21
49.9959011196
 31
0.0
  0
SPLINE
  5
3CE
100
AcDbEntity
  8
0
100
AcDbSpline
 62
7
  6
CONTINUOUS
 70
0
 71
3
 72
23
 73
19
 74
17
 42
0.0000001
 43
0.0000001
 44
0.0000000001
 12
9.4734062428
 22
-11.06598172
 32
0.0
 13
13.1118799171
 23
6.2635686834
 33
0.0
 40
0.0
 40
0.0
 40
0.0
 40
0.0
 40
0.027542033
 40
0.0691048083
 40
0.1179620289
 40
0.1738266103
 40
0.2360317924
 40
0.3036504127
 40
0.3755690805
 40
0.4505419139
 40
0.5272349729
 40
0.604266505
 40
0.6802454845
 40
0.7538098641
 40
0.8236657723
 40
0.8886294869
 40
0.9476757462
 40
1.0
 40
1.0
 40
1.0
 40
1.0
 10
0.7153046405
 20
48.3027925943
 30
0.0
 10
0.8022769298
 20
48.2011993829
 30
0.0
 10
1.0484043951
 20
47.9712478397
 30
0.0
 10
1.5286002733
 20
47.6572483919
 30
0.0
 10
2.1696513392
 20
47.3518301295
 30
0.0
 10
2.9318410682
 20
47.078838345
 30
0.0
 10
3.800779809
 20
46.8436897274
 30
0.0
 10
4.7594422661
 20
46.6512204816
 30
0.0
 10
5.7887068361
 20
46.5054496952
 30
0.0
 10
6.8678754869
 20
46.4094268078
 30
0.0
 10
7.9751596442
 20
46.3651606788
 30
0.0
 10
9.0881648975
 20
46.3735750836
 30
0.0
 10
10.1843722005
 20
46.4344896674
 30
0.0
 10
11.2416306534
 20
46.5466255396
 30
0.0
 10
12.2386108915
 20
46.7076237434
 30
0.0
 10
13.1553939012
 20
46.9141263108
 30
0.0
 10
13.9736243602
 20
47.1617818117
 30
0.0
 10
14.4750513442
 20
47.3638710718
 30
0.0
 10
14.7037411216
 20
47.4731165909
 30
0.0
 11
0.7153046405
 21
48.3027925943
 31
0.0
 11
1.0040558738
 21
48.0252104088
 31
0.0
 11
1.5048565574
 21
47.6876320765
 31
0.0
 11
2.1431328022
 21
47.3767732669
 31
0.0
 11
2.9058911445
 21
47.0989621688
 31
0.0
 11
3.7776040241
 21
46.859854215
 31
0.0
 11
4.7405258807
 21
46.664316954
 31
0.0
 11
5.775054402
 21
46.5163309605
 31
0.0
 11
6.8601295707
 21
46.4189088026
 31
0.0
 11
7.9736623854
 21
46.3740337145
 31
0.0
 11
9.0929845292
 21
46.3826192235
 31
0.0
 11
10.1953098311
 21
46.4444905535
 31
0.0
 11
11.2581981268
 21
46.5583881825
 31
0.0
 11
12.2600120757
 21
46.7219934834
 31
0.0
 11
13.1803576349
 21
46.931975924
 31
0.0
 11
14.0004992227
 21
47.1840608674
 31
0.0
 11
14.7037411216
 21
47.4731165909
 31
0.0
  0
SPLINE
  5
3CF
100
AcDbEntity
  8
RACCORDO
100
AcDbSpline
 62
253
  6
CONTINUOUS
 70
0
 71
3
 72
12
 73
8
 74
6
 42
0.0000001
 43
0.0000001
 44
0.0000000001
 12
2.1142201513
 22
1.0099667792
 32
0.0
 13
0.8163762711
 23
2.2168337293
 33
0.0
 40
0.0
 40
0.0
 40
0.0
 40
0.0
 40
0.2453595633
 40
0.4899834655
 40
0.7299703303
 40
0.9541526926
 40
1.0
 40
1.0
 40
1.0
 40
1.0
 10
16.5475969953
 20
46.2504594101
 30
0.0
 10
16.7205117063
 20
46.3330610794
 30
0.0
 10
17.0599182663
 20
46.510983577
 30
0.0
 10
17.5366453046
 20
46.8260838659
 30
0.0
 10
17.9508047547
 20
47.1977213113
 30
0.0
 10
18.1834601578
 20
47.5274735633
 30
0.0
 10
18.2648284623
 20
47.7240119623
 30
0.0
 10
18.2773046803
 20
47.7578905814
 30
0.0
 11
16.5475969953
 21
46.2504594101
 31
0.0
 11
17.0555608969
 21
46.5196720994
 31
0.0
 11
17.5311828966
 21
46.8395276769
 31
0.0
 11
17.9441395782
 21
47.2211739103
 31
0.0
 11
18.2359927126
 21
47.6579057172
 31
0.0
 11
18.2773046803
 21
47.7578905814
 31
0.0
  0
SPLINE
  5
3D0
100
AcDbEntity
  8
RACCORDO
100
AcDbSpline
 62
253
  6
CONTINUOUS
 70
0
 71
3
 72
9
 73
5
 74
3
 42
0.0000001
 43
0.0000001
 44
0.0000000001
 12
0.1451375957
 22
0.3941147348
 32
0.0
 13
0.0011806283
 23
0.4184009783
 33
0.0
 40
0.0
 40
0.0
 40
0.0
 40
0.0
 40
0.9268767412
 40
1.0
 40
1.0
 40
1.0
 40
1.0
 10
18.2773046803
 20
47.7578905814
 30
0.0
 10
18.3221462342
 20
47.8796558418
 30
0.0
 10
18.351863668
 20
48.0181230122
 30
0.0
 10
18.3542227492
 20
48.1575629672
 30
0.0
 10
18.3542515263
 20
48.1677612482
 30
0.0
 11
18.2773046803
 21
47.7578905814
 31
0.0
 11
18.3537314563
 21
48.1371755609
 31
0.0
 11
18.3542515263
 21
48.1677612482
 31
0.0
  0
SPLINE
  5
3D1
100
AcDbEntity
  8
0
100
AcDbSpline
 62
7
  6
CONTINUOUS
 70
0
 71
3
 72
23
 73
19
 74
17
 42
0.0000001
 43
0.0000001
 44
0.0000000001
 12
13.4373073011
 22
-10.2922787219
 32
0.0
 13
15.255644969
 23
7.2876491149
 33
0.0
 40
0.0
 40
0.0
 40
0.0
 40
0.0
 40
0.021011801
 40
0.0667075957
 40
0.119196497
 40
0.1779991226
 40
0.2423729085
 40
0.3113866495
 40
0.3839716567
 40
0.4589619249
 40
0.535129123
 40
0.611215221
 40
0.6859642201
 40
0.7581539389
 40
0.8266288445
 40
0.8903355086
 40
0.9483637693
 40
1.0
 40
1.0
 40
1.0
 40
1.0
 10
-0.400289179
 20
46.0655829646
 30
0.0
 10
-0.30617517
 20
45.9934965271
 30
0.0
 10
0.0039100781
 20
45.7792658237
 30
0.0
 10
0.5979967609
 20
45.46215111
 30
0.0
 10
1.4198414704
 20
45.131088021
 30
0.0
 10
2.3668136473
 20
44.8392467699
 30
0.0
 10
3.422083829
 20
44.5920488467
 30
0.0
 10
4.5664841427
 20
44.3941903956
 30
0.0
 10
5.7790047401
 20
44.2494477444
 30
0.0
 10
7.0372686281
 20
44.1605868041
 30
0.0
 10
8.3179947299
 20
44.1293037982
 30
0.0
 10
9.5974622917
 20
44.1561936085
 30
0.0
 10
10.8519733765
 20
44.2407379039
 30
0.0
 10
12.0583266191
 20
44.3813170242
 30
0.0
 10
13.1942499915
 20
44.5752322814
 30
0.0
 10
14.2389717541
 20
44.8187927028
 30
0.0
 10
15.1733429892
 20
45.1073151629
 30
0.0
 10
15.7470771704
 20
45.3403991809
 30
0.0
 10
16.0096585046
 20
45.4658347578
 30
0.0
 11
-0.400289179
 21
46.0655829646
 31
0.0
 11
-0.1086100214
 21
45.8621852661
 31
0.0
 11
0.5694774733
 21
45.4919543443
 31
0.0
 11
1.3906422397
 21
45.1554809532
 31
0.0
 11
2.339587532
 21
44.8590329556
 31
0.0
 11
3.3986362949
 21
44.6081326168
 31
0.0
 11
4.5480604537
 21
44.4074537353
 31
0.0
 11
5.7664484111
 21
44.2607345789
 31
0.0
 11
7.0311039047
 21
44.1707082481
 31
0.0
 11
8.3184687956
 21
44.1390517629
 31
0.0
 11
9.6045619115
 21
44.1663548238
 31
0.0
 11
10.8654257712
 21
44.2521088264
 31
0.0
 11
12.0775728665
 21
44.394716336
 31
0.0
 11
13.2184231906
 21
44.5915208444
 31
0.0
 11
14.2667248604
 21
44.838856256
 31
0.0
 11
15.2029499994
 21
45.1321151801
 31
0.0
 11
16.0096585046
 21
45.4658347578
 31
0.0
  0
SPLINE
  5
3D2
100
AcDbEntity
  8
0
100
AcDbSpline
 62
7
  6
CONTINUOUS
 70
0
 71
3
 72
25
 73
21
 74
19
 42
0.0000001
 43
0.0000001
 44
0.0000000001
 12
14.2760739591
 22
-15.3042714799
 32
0.0
 13
18.8552682783
 23
9.0071956616
 33
0.0
 40
0.0
 40
0.0
 40
0.0
 40
0.0
 40
0.0237272847
 40
0.0603802102
 40
0.1027190413
 40
0.1505902279
 40
0.2035930575
 40
0.2611517157
 40
0.3225609885
 40
0.3870188416
 40
0.453652444
 40
0.5215409087
 40
0.5897364225
 40
0.6572846637
 40
0.7232450667
 40
0.7867114189
 40
0.8468334339
 40
0.902840413
 40
0.9540691121
 40
1.0
 40
1.0
 40
1.0
 40
1.0
 10
-2.5864110513
 20
44.5139116087
 30
0.0
 10
-2.4735002276
 20
44.3928686731
 30
0.0
 10
-2.15961579
 20
44.1101061329
 30
0.0
 10
-1.5612917003
 20
43.7135027346
 30
0.0
 10
-0.7692367235
 20
43.3180381888
 30
0.0
 10
0.1622221832
 20
42.9578047499
 30
0.0
 10
1.2193918108
 20
42.6382633982
 30
0.0
 10
2.3862212257
 20
42.3644630423
 30
0.0
 10
3.6446948285
 20
42.1407931886
 30
0.0
 10
4.9752188004
 20
41.9708554911
 30
0.0
 10
6.3569855155
 20
41.8573887397
 30
0.0
 10
7.7683362432
 20
41.8022206315
 30
0.0
 10
9.1871243591
 20
41.806238131
 30
0.0
 10
10.5910815399
 20
41.8693737079
 30
0.0
 10
11.9581817951
 20
41.9906056205
 30
0.0
 10
13.2670144104
 20
42.1679763075
 30
0.0
 10
14.4971194731
 20
42.3986163623
 30
0.0
 10
15.6294454715
 20
42.6788262602
 30
0.0
 10
16.6464043703
 20
43.0040665119
 30
0.0
 10
17.2732282616
 20
43.2622912974
 30
0.0
 10
17.5619079997
 20
43.4001941289
 30
0.0
 11
-2.5864110513
 21
44.5139116087
 31
0.0
 11
-2.2209687904
 21
44.1783014952
 31
0.0
 11
-1.5872932296
 21
43.7481062053
 31
0.0
 11
-0.798598432
 21
43.3472441586
 31
0.0
 11
0.1326774141
 21
42.9820371891
 31
0.0
 11
1.1918475324
 21
42.6582448289
 31
0.0
 11
2.3622081775
 21
42.3809734768
 31
0.0
 11
3.6253020627
 21
42.1545958677
 31
0.0
 11
4.9612094429
 21
41.9826821118
 31
0.0
 11
6.3488622609
 21
41.8679433917
 31
0.0
 11
7.7663764026
 21
41.8121892056
 31
0.0
 11
9.1913968233
 21
41.8162988302
 31
0.0
 11
10.6014500996
 21
41.8802074543
 31
0.0
 11
11.9742988492
 21
42.0029072008
 31
0.0
 11
13.288292427
 21
42.1824630213
 31
0.0
 11
14.5227083695
 21
42.4160432134
 31
0.0
 11
15.6580791999
 21
42.6999640777
 31
0.0
 11
16.6764994418
 21
43.0297480128
 31
0.0
 11
17.5619079997
 21
43.4001941289
 31
0.0
  0
SPLINE
  5
3D3
100
AcDbEntity
  8
RACCORDO
100
AcDbSpline
 62
253
  6
CONTINUOUS
 70
0
 71
3
 72
12
 73
8
 74
6
 42
0.0000001
 43
0.0000001
 44
0.0000000001
 12
3.4518012158
 22
1.648931666
 32
0.0
 13
0.0137561196
 23
3.854051799
 33
0.0
 40
0.0
 40
0.0
 40
0.0
 40
0.0
 40
0.2926719326
 40
0.5406781283
 40
0.7485155229
 40
0.9265451894
 40
1.0
 40
1.0
 40
1.0
 40
1.0
 10
19.7313953988
 20
41.4926308686
 30
0.0
 10
20.0681438431
 20
41.6534962078
 30
0.0
 10
20.6761108987
 20
41.9832107227
 30
0.0
 10
21.4412253109
 20
42.5617772565
 30
0.0
 10
21.9738505609
 20
43.1812286747
 30
0.0
 10
22.2054126414
 20
43.734035181
 30
0.0
 10
22.2345884251
 20
44.0568485152
 30
0.0
 10
22.2349252428
 20
44.1512147301
 30
0.0
 11
19.7313953988
 21
41.4926308686
 31
0.0
 11
20.7101321786
 21
42.0362933231
 31
0.0
 11
21.457740425
 21
42.620391529
 31
0.0
 11
21.9612684142
 21
43.2356893605
 31
0.0
 11
22.2092175832
 21
43.8699893633
 31
0.0
 11
22.2349252428
 21
44.1512147301
 31
0.0
  0
SPLINE
  5
3D4
100
AcDbEntity
  8
RACCORDO
100
AcDbSpline
 62
253
  6
CONTINUOUS
 70
0
 71
3
 72
26
 73
22
 74
20
 42
0.0000001
 43
0.0000001
 44
0.0000000001
 12
-0.0983093761
 22
-27.5631405677
 32
0.0
 13
24.6863521047
 23
11.7927149216
 33
0.0
 40
0.0
 40
0.0
 40
0.0
 40
0.0
 40
0.0131193703
 40
0.038405183
 40
0.068079544
 40
0.1036589484
 40
0.145454287
 40
0.1935906258
 40
0.2473802084
 40
0.3064268135
 40
0.36956295
 40
0.4361422564
 40
0.5047525721
 40
0.5746080391
 40
0.6442285051
 40
0.7127634515
 40
0.778826064
 40
0.8415794554
 40
0.8998849223
 40
0.9528558971
 40
1.0
 40
1.0
 40
1.0
 40
1.0
 10
-5.7631315975
 20
44.2808637684
 30
0.0
 10
-5.7635615165
 20
44.1603267524
 30
0.0
 10
-5.7257267275
 20
43.8071017287
 30
0.0
 10
-5.4602970332
 20
43.230997482
 30
0.0
 10
-4.9037150487
 20
42.6103740059
 30
0.0
 10
-4.1141757475
 20
42.0283124274
 30
0.0
 10
-3.1020405863
 20
41.4877546773
 30
0.0
 10
-1.8845603319
 20
40.9971953637
 30
0.0
 10
-0.4803882602
 20
40.5643687768
 30
0.0
 10
1.0831393113
 20
40.1981193339
 30
0.0
 10
2.7802516244
 20
39.9047415108
 30
0.0
 10
4.576895358
 20
39.6903694868
 30
0.0
 10
6.4428486425
 20
39.5587306209
 30
0.0
 10
8.3405862107
 20
39.5125604101
 30
0.0
 10
10.2377723595
 20
39.5526687786
 30
0.0
 10
12.0965953756
 20
39.6782211034
 30
0.0
 10
13.8849629191
 20
39.8869807637
 30
0.0
 10
15.5678775256
 20
40.1746924736
 30
0.0
 10
17.1145038634
 20
40.5357959073
 30
0.0
 10
18.4959588153
 20
40.9628529114
 30
0.0
 10
19.3434567578
 20
41.3073118802
 30
0.0
 10
19.7313953988
 20
41.4926308686
 30
0.0
 11
-5.7631315975
 21
44.2808637684
 31
0.0
 11
-5.7246544823
 21
43.9222949438
 31
0.0
 11
-5.4512487038
 21
43.2868350314
 31
0.0
 11
-4.9234430571
 21
42.6699783809
 31
0.0
 11
-4.1487550384
 21
42.0806058093
 31
0.0
 11
-3.145269238
 21
41.5324215771
 31
0.0
 11
-1.9267223985
 21
41.0329604198
 31
0.0
 11
-0.5220910126
 21
40.59408219
 31
0.0
 11
1.0498189077
 21
40.2216708405
 31
0.0
 11
2.7513939449
 21
39.9246378848
 31
0.0
 11
4.5598458099
 21
39.7069564427
 31
0.0
 11
6.4321888405
 21
39.5738126692
 31
0.0
 11
8.3427522741
 21
39.5270171609
 31
0.0
 11
10.247025294
 21
39.567682617
 31
0.0
 11
12.1176930985
 21
39.6952008937
 31
0.0
 11
13.9126412752
 21
39.9067354001
 31
0.0
 11
15.6044142257
 21
40.19901233
 31
0.0
 11
17.1568115944
 21
40.5658292988
 31
0.0
 11
18.5396250262
 21
40.999438179
 31
0.0
 11
19.7313953988
 21
41.4926308686
 31
0.0
  0
SPLINE
  5
3D5
100
AcDbEntity
  8
RACCORDO
100
AcDbSpline
 62
253
  6
CONTINUOUS
 70
0
 71
3
 72
16
 73
12
 74
10
 42
0.0000001
 43
0.0000001
 44
0.0000000001
 12
4.7090422453
 22
2.2495179733
 32
0.0
 13
-4.6350872491
 23
2.409957554
 33
0.0
 40
0.0
 40
0.0
 40
0.0
 40
0.0
 40
0.1077339974
 40
0.2151448584
 40
0.3205197767
 40
0.4189551257
 40
0.5114398169
 40
0.6078680844
 40
0.7189006499
 40
0.8534672031
 40
1.0
 40
1.0
 40
1.0
 40
1.0
 10
16.3662847031
 20
46.5667544937
 30
0.0
 10
16.5353926848
 20
46.6475376816
 30
0.0
 10
16.8673273081
 20
46.8215426206
 30
0.0
 10
17.3335580991
 20
47.1297071468
 30
0.0
 10
17.7386001624
 20
47.4931620988
 30
0.0
 10
18.0396477887
 20
47.9198501023
 30
0.0
 10
18.172029045
 20
48.4174275553
 30
0.0
 10
18.0614161824
 20
48.9456653263
 30
0.0
 10
17.7157889485
 20
49.4430810928
 30
0.0
 10
17.1912678193
 20
49.8865465728
 30
0.0
 10
16.7692963349
 20
50.136564024
 30
0.0
 10
16.542898902
 20
50.2542766309
 30
0.0
 11
16.3662847031
 21
46.5667544937
 31
0.0
 11
16.8630658193
 21
46.8300403058
 31
0.0
 11
17.3282160336
 21
47.1428545277
 31
0.0
 11
17.7320816316
 21
47.5160985808
 31
0.0
 11
18.0175094082
 21
47.9432156347
 31
0.0
 11
18.1326560236
 21
48.4119342132
 31
0.0
 11
18.0380386854
 21
48.906194862
 31
0.0
 11
17.7231518925
 21
49.3926213442
 31
0.0
 11
17.1967393807
 21
49.8574578246
 31
0.0
 11
16.542898902
 21
50.2542766309
 31
0.0
  0
LINE
  5
3D6
100
AcDbEntity
  8
RACCORDO
100
AcDbLine
 62
7
  6
CONTINUOUS
 10
-38.7688134224
 20
-28.1354853885
 11
-38.7677079556
 21
-28.1358440427
  0
SPLINE
  5
3D7
100
AcDbEntity
  8
RACCORDO
100
AcDbSpline
 62
7
  6
CONTINUOUS
 70
0
 71
3
 72
12
 73
8
 74
6
 42
0.0000001
 43
0.0000001
 44
0.0000000001
 12
-1.5798169578
 22
-44.6183365656
 32
0.0
 13
1.6484593964
 23
-44.6158546354
 33
0.0
 40
0.0
 40
0.0
 40
0.0
 40
0.0
 40
0.202493119
 40
0.4048389898
 40
0.6055218582
 40
0.8044355325
 40
1.0
 40
1.0
 40
1.0
 40
1.0
 10
-38.7694101939
 20
16.4999428562
 30
0.0
 10
-38.876044215
 20
13.4883074774
 30
0.0
 10
-39.0477484484
 20
7.4656706661
 30
0.0
 10
-39.1776950042
 20
-1.5451157833
 30
0.0
 10
-39.1782531643
 20
-10.5036017887
 30
0.0
 10
-39.0494329595
 20
-19.3602110615
 30
0.0
 10
-38.8770529838
 20
-25.2286009144
 30
0.0
 10
-38.7695929558
 20
-28.1370261994
 30
0.0
 11
-38.7694101939
 21
16.4999428562
 31
0.0
 11
-39.0265892868
 21
7.4630341159
 31
0.0
 11
-39.1563445273
 21
-1.5700258902
 31
0.0
 11
-39.1563466927
 21
-10.5297709005
 31
0.0
 11
-39.026587966
 21
-19.4095799443
 31
0.0
 11
-38.7695929558
 21
-28.1370261994
 31
0.0
  0
SPLINE
  5
3D8
100
AcDbEntity
  8
RACCORDO
100
AcDbSpline
 62
7
  6
CONTINUOUS
 70
0
 71
3
 72
10
 73
6
 74
4
 42
0.0000001
 43
0.0000001
 44
0.0000000001
 12
-0.0175129932
 22
-0.0103746318
 32
0.0
 13
-0.0181335145
 23
-0.0092473547
 33
0.0
 40
0.0
 40
0.0
 40
0.0
 40
0.0
 40
0.3252056779
 40
0.6585460964
 40
1.0
 40
1.0
 40
1.0
 40
1.0
 10
6.8524248768
 20
-37.0939977459
 30
0.0
 10
6.8505264351
 20
-37.0951223756
 30
0.0
 10
6.8466558094
 20
-37.0973557302
 30
0.0
 10
6.8407067456
 20
-37.1006195127
 30
0.0
 10
6.8366479341
 20
-37.1027390619
 30
0.0
 10
6.8345840143
 20
-37.103791577
 30
0.0
 11
6.8524248768
 21
-37.0939977459
 31
0.0
 11
6.846692134
 21
-37.0973076573
 31
0.0
 11
6.8407441744
 21
-37.1005728189
 31
0.0
 11
6.8345840143
 21
-37.103791577
 31
0.0
  0
SPLINE
  5
3D9
100
AcDbEntity
  8
RACCORDO
100
AcDbSpline
 62
7
  6
CONTINUOUS
 70
0
 71
3
 72
10
 73
6
 74
4
 42
0.0000001
 43
0.0000001
 44
0.0000000001
 12
-0.016231671
 22
-0.0096155813
 32
0.0
 13
-0.0154804715
 23
-0.0107833923
 33
0.0
 40
0.0
 40
0.0
 40
0.0
 40
0.0
 40
0.3420941435
 40
0.6754169782
 40
1.0
 40
1.0
 40
1.0
 40
1.0
 10
-38.7005113623
 20
16.630500773
 30
0.0
 10
-38.7023622822
 20
16.629404295
 30
0.0
 10
-38.7059926129
 20
16.627198475
 30
0.0
 10
-38.7112880456
 20
16.6238054123
 30
0.0
 10
-38.7147148827
 20
16.6214861293
 30
0.0
 10
-38.7163897821
 20
16.6203194273
 30
0.0
 11
-38.7005113623
 21
16.630500773
 31
0.0
 11
-38.7060259809
 21
16.6271477896
 31
0.0
 11
-38.7113196804
 21
16.6237534343
 31
0.0
 11
-38.7163897821
 21
16.6203194273
 31
0.0
  0
SPLINE
  5
3DA
100
AcDbEntity
  8
RACCORDO
100
AcDbSpline
 62
7
  6
CONTINUOUS
 70
0
 71
3
 72
8
 73
4
 74
2
 42
0.0000001
 43
0.0000001
 44
0.0000000001
 12
-0.0401790153
 22
-0.0279879127
 32
0.0
 13
-0.0246302083
 23
-0.0437631002
 33
0.0
 40
0.0
 40
0.0
 40
0.0
 40
0.0
 40
1.0
 40
1.0
 40
1.0
 40
1.0
 10
-38.7163897821
 20
16.6203194273
 30
0.0
 10
-38.7297827872
 20
16.6109901231
 30
0.0
 10
-38.7405992999
 20
16.5979935647
 30
0.0
 10
-38.7488093694
 20
16.5834058646
 30
0.0
 11
-38.7163897821
 21
16.6203194273
 31
0.0
 11
-38.7488093694
 21
16.5834058646
 31
0.0
  0
SPLINE
  5
3DB
100
AcDbEntity
  8
RACCORDO
100
AcDbSpline
 62
7
  6
CONTINUOUS
 70
0
 71
3
 72
9
 73
5
 74
3
 42
0.0000001
 43
0.0000001
 44
0.0000000001
 12
-0.0431793178
 22
-0.0767212682
 32
0.0
 13
-0.0023565171
 23
-0.0862763704
 33
0.0
 40
0.0
 40
0.0
 40
0.0
 40
0.0
 40
0.2949048437
 40
1.0
 40
1.0
 40
1.0
 40
1.0
 10
-38.7488093694
 20
16.5834058646
 30
0.0
 10
-38.753053966
 20
16.5758640401
 30
0.0
 10
-38.7650847147
 20
16.5488481483
 30
0.0
 10
-38.7690572985
 20
16.5202408825
 30
0.0
 10
-38.7696111548
 20
16.4999631989
 30
0.0
 11
-38.7488093694
 21
16.5834058646
 31
0.0
 11
-38.7594490087
 21
16.5597914054
 31
0.0
 11
-38.7696111548
 21
16.4999631989
 31
0.0
  0
SPLINE
  5
3DC
100
AcDbEntity
  8
RACCORDO
100
AcDbSpline
 62
7
  6
CONTINUOUS
 70
0
 71
3
 72
8
 73
4
 74
2
 42
0.0000001
 43
0.0000001
 44
0.0000000001
 12
-0.0268640193
 22
-0.013699557
 32
0.0
 13
-0.0292332044
 23
-0.008132168
 33
0.0
 40
0.0
 40
0.0
 40
0.0
 40
0.0
 40
1.0
 40
1.0
 40
1.0
 40
1.0
 10
6.8345840143
 20
-37.103791577
 30
0.0
 10
6.8256293412
 20
-37.108358096
 30
0.0
 10
6.8161847377
 20
-37.1119284175
 30
0.0
 10
6.8064403362
 20
-37.1146391402
 30
0.0
 11
6.8345840143
 21
-37.103791577
 31
0.0
 11
6.8064403362
 21
-37.1146391402
 31
0.0
  0
SPLINE
  5
3DD
100
AcDbEntity
  8
RACCORDO
100
AcDbSpline
 62
7
  6
CONTINUOUS
 70
0
 71
3
 72
8
 73
4
 74
2
 42
0.0000001
 43
0.0000001
 44
0.0000000001
 12
-0.0291647664
 22
-0.0081131297
 32
0.0
 13
-0.0303887403
 23
-0.0033865823
 33
0.0
 40
0.0
 40
0.0
 40
0.0
 40
0.0
 40
1.0
 40
1.0
 40
1.0
 40
1.0
 10
6.8064403362
 20
-37.1146391402
 30
0.0
 10
6.7967187474
 20
-37.1173435167
 30
0.0
 10
6.7866987628
 20
-37.1191923146
 30
0.0
 10
6.7765691827
 20
-37.1203211753
 30
0.0
 11
6.8064403362
 21
-37.1146391402
 31
0.0
 11
6.7765691827
 21
-37.1203211753
 31
0.0
  0
SPLINE
  5
3DE
100
AcDbEntity
  8
RACCORDO
100
AcDbSpline
 62
7
  6
CONTINUOUS
 70
0
 71
3
 72
9
 73
5
 74
3
 42
0.0000001
 43
0.0000001
 44
0.0000000001
 12
-0.0856185353
 22
-0.0095415016
 32
0.0
 13
-0.0832366691
 23
0.0168219333
 33
0.0
 40
0.0
 40
0.0
 40
0.0
 40
0.0
 40
0.3636809584
 40
1.0
 40
1.0
 40
1.0
 40
1.0
 10
6.7765691827
 20
-37.1203211753
 30
0.0
 10
6.7661899057
 20
-37.1214778628
 30
0.0
 10
6.7373340034
 20
-37.1225799816
 30
0.0
 10
6.7091437712
 20
-37.1190705138
 30
0.0
 10
6.6914887454
 20
-37.1155024749
 30
0.0
 11
6.7765691827
 21
-37.1203211753
 31
0.0
 11
6.7452892654
 21
-37.1216695559
 31
0.0
 11
6.6914887454
 21
-37.1155024749
 31
0.0
  0
SPLINE
  5
3DF
100
AcDbEntity
  8
RACCORDO
100
AcDbSpline
 62
7
  6
CONTINUOUS
 70
0
 71
3
 72
13
 73
9
 74
7
 42
0.0000001
 43
0.0000001
 44
0.0000000001
 12
-0.0166947933
 22
-0.6112266878
 32
0.0
 13
0.3609827873
 23
-0.4894307726
 33
0.0
 40
0.0
 40
0.0
 40
0.0
 40
0.0
 40
0.0410428271
 40
0.2054119144
 40
0.3893228005
 40
0.5871583569
 40
0.7929503034
 40
1.0
 40
1.0
 40
1.0
 40
1.0
 10
-38.7696111548
 20
16.4999631989
 30
0.0
 10
-38.7698395553
 20
16.4916010418
 30
0.0
 10
-38.7690700381
 20
16.449659028
 30
0.0
 10
-38.7553252128
 20
16.3715809946
 30
0.0
 10
-38.7191877865
 20
16.266574959
 30
0.0
 10
-38.6684064657
 20
16.1586567564
 30
0.0
 10
-38.606096714
 20
16.0515337333
 30
0.0
 10
-38.5587175092
 20
15.9824484769
 30
0.0
 10
-38.533803717
 20
15.9486696459
 30
0.0
 11
-38.7696111548
 21
16.4999631989
 31
0.0
 11
-38.7692732464
 21
16.4748702121
 31
0.0
 11
-38.7536206482
 21
16.37614162
 31
0.0
 11
-38.7183142441
 21
16.2700142947
 31
0.0
 11
-38.6675811307
 21
16.1609193024
 31
0.0
 11
-38.6049191957
 21
16.0525828157
 31
0.0
 11
-38.533803717
 21
15.9486696459
 31
0.0
  0
SPLINE
  5
3E0
100
AcDbEntity
  8
RACCORDO
100
AcDbSpline
 62
253
  6
CONTINUOUS
 70
0
 71
3
 72
12
 73
8
 74
6
 42
0.0000001
 43
0.0000001
 44
0.0000000001
 12
-1.5241038501
 22
-43.834566265
 32
0.0
 13
1.5895019682
 23
-43.832243562
 33
0.0
 40
0.0
 40
0.0
 40
0.0
 40
0.0
 40
0.192195097
 40
0.3829514594
 40
0.57750932
 40
0.7856229827
 40
1.0
 40
1.0
 40
1.0
 40
1.0
 10
6.1531071183
 20
7.1245499481
 30
0.0
 10
6.0554653559
 20
4.3162870436
 30
0.0
 10
5.8968743232
 20
-1.2805375931
 30
0.0
 10
5.7680570627
 20
-9.7231748751
 30
0.0
 10
5.7523383311
 20
-18.3995634866
 30
0.0
 10
5.8658628722
 20
-27.4206386877
 30
0.0
 10
6.039522888
 20
-33.5954743148
 30
0.0
 10
6.1531071183
 20
-36.7276828607
 30
0.0
 11
6.1531071183
 21
7.1245499481
 31
0.0
 11
5.9147090078
 21
-1.3019580139
 31
0.0
 11
5.7874683938
 21
-9.6677656164
 31
0.0
 11
5.7724822403
 21
-18.201265363
 31
0.0
 11
5.8879872903
 21
-27.3286192239
 31
0.0
 11
6.1531071183
 21
-36.7276828607
 31
0.0
  0
SPLINE
  5
3E1
100
AcDbEntity
  8
RACCORDO
100
AcDbSpline
 62
253
  6
CONTINUOUS
 70
0
 71
3
 72
12
 73
8
 74
6
 42
0.0000001
 43
0.0000001
 44
0.0000000001
 12
-1.5895020775
 22
43.832246575
 32
0.0
 13
1.5241039548
 23
43.8345692781
 33
0.0
 40
0.0
 40
0.0
 40
0.0
 40
0.0
 40
0.1857272487
 40
0.3730244929
 40
0.5671930721
 40
0.7784410552
 40
1.0
 40
1.0
 40
1.0
 40
1.0
 10
-38.533803717
 20
-27.9035631629
 30
0.0
 10
-38.6322083329
 20
-25.1899489761
 30
0.0
 10
-38.791455196
 20
-19.7383162142
 30
0.0
 10
-38.9194270538
 20
-11.4464983875
 30
0.0
 10
-38.9342131624
 20
-2.7805451845
 30
0.0
 10
-38.8193943317
 20
6.3856505513
 30
0.0
 10
-38.6463633383
 20
12.7113560073
 30
0.0
 10
-38.533803717
 20
15.9486696459
 30
0.0
 11
-38.533803717
 21
-27.9035631629
 31
0.0
 11
-38.7721716482
 21
-19.7608578669
 31
0.0
 11
-38.8994221504
 21
-11.546788296
 31
0.0
 11
-38.9144370439
 21
-3.0303623331
 31
0.0
 11
-38.7989436296
 21
6.2344777499
 31
0.0
 11
-38.533803717
 21
15.9486696459
 31
0.0
  0
SPLINE
  5
3E2
100
AcDbEntity
  8
RACCORDO
100
AcDbSpline
 62
253
  6
CONTINUOUS
 70
0
 71
3
 72
12
 73
8
 74
6
 42
0.0000001
 43
0.0000001
 44
0.0000000001
 12
-1.5873708694
 22
-44.7105885524
 32
0.0
 13
1.6569803858
 23
-44.7080629303
 33
0.0
 40
0.0
 40
0.0
 40
0.0
 40
0.0
 40
0.192283467
 40
0.3830527531
 40
0.5773644457
 40
0.7855805482
 40
1.0
 40
1.0
 40
1.0
 40
1.0
 10
6.8524248768
 20
7.6353710035
 30
0.0
 10
6.7506831521
 20
4.7696686781
 30
0.0
 10
6.5854534579
 20
-0.9405741021
 30
0.0
 10
6.4512913439
 20
-9.5499635937
 30
0.0
 10
6.4348251078
 20
-18.398035278
 30
0.0
 10
6.5529649421
 20
-27.598105732
 30
0.0
 10
6.7339952681
 20
-33.8985716314
 30
0.0
 10
6.8524248768
 20
-37.0939977459
 30
0.0
 11
6.8524248768
 21
7.6353710035
 31
0.0
 11
6.6040062017
 21
-0.963564915
 31
0.0
 11
6.471452186
 21
-9.4973164435
 31
0.0
 11
6.4557761264
 21
-18.1905661184
 31
0.0
 11
6.5760726867
 21
-27.5051191829
 31
0.0
 11
6.8524248768
 21
-37.0939977459
 31
0.0
  0
SPLINE
  5
3E3
100
AcDbEntity
  8
RACCORDO
100
AcDbSpline
 62
7
  6
CONTINUOUS
 70
0
 71
3
 72
13
 73
9
 74
7
 42
0.0000001
 43
0.0000001
 44
0.0000000001
 12
-0.6618299303
 22
0.1337542586
 32
0.0
 13
-0.4290259962
 23
0.5197702381
 33
0.0
 40
0.0
 40
0.0
 40
0.0
 40
0.0
 40
0.0732963464
 40
0.2436878882
 40
0.4265174132
 40
0.616947691
 40
0.8099766992
 40
1.0
 40
1.0
 40
1.0
 40
1.0
 10
6.6914887454
 20
-37.1155024749
 30
0.0
 10
6.6753188401
 20
-37.1122345754
 30
0.0
 10
6.6223479903
 20
-37.0976469417
 30
0.0
 10
6.5344267239
 20
-37.0583636128
 30
0.0
 10
6.4309230696
 20
-36.9929884165
 30
0.0
 10
6.3310971509
 20
-36.913798141
 30
0.0
 10
6.2376853447
 20
-36.8248557778
 30
0.0
 10
6.1802820969
 20
-36.7606056795
 30
0.0
 10
6.1531071183
 20
-36.7276828607
 30
0.0
 11
6.6914887454
 21
-37.1155024749
 31
0.0
 11
6.6437014057
 21
-37.1027484731
 31
0.0
 11
6.5382853652
 21
-37.057195409
 31
0.0
 11
6.4336333104
 21
-36.9921481881
 31
0.0
 11
6.3328220932
 21
-36.9127192775
 31
0.0
 11
6.2384629879
 21
-36.8231600762
 31
0.0
 11
6.1531071183
 21
-36.7276828607
 31
0.0
  0
SPLINE
  5
3E4
100
AcDbEntity
  8
RACCORDO
100
AcDbSpline
 62
7
  6
CONTINUOUS
 70
0
 71
3
 72
13
 73
9
 74
7
 42
0.0000001
 43
0.0000001
 44
0.0000000001
 12
-0.2467567519
 22
-0.2215153077
 32
0.0
 13
0.222469704
 23
-0.0954464628
 33
0.0
 40
0.0
 40
0.0
 40
0.0
 40
0.0
 40
0.2896935457
 40
0.548322506
 40
0.7620860068
 40
0.9172130095
 40
0.9977698551
 40
1.0
 40
1.0
 40
1.0
 40
1.0
 10
-38.533803717
 20
-27.9035631629
 30
0.0
 10
-38.5576316631
 20
-27.9249536812
 30
0.0
 10
-38.6030436258
 20
-27.965956303
 30
0.0
 10
-38.6626879537
 20
-28.02226382
 30
0.0
 10
-38.7179242969
 20
-28.0735786732
 30
0.0
 10
-38.7401737173
 20
-28.1024445172
 30
0.0
 10
-38.7746825125
 20
-28.1325819822
 30
0.0
 10
-38.7689788023
 20
-28.1354144354
 30
0.0
 10
-38.7688134224
 20
-28.1354853885
 30
0.0
 11
-38.533803717
 21
-27.9035631629
 31
0.0
 11
-38.6049191957
 21
-27.9681426976
 31
0.0
 11
-38.6675811307
 21
-28.026695673
 31
0.0
 11
-38.7183142441
 21
-28.0761998184
 31
0.0
 11
-38.7536206482
 21
-28.1136100832
 31
0.0
 11
-38.7692732464
 21
-28.1352562775
 31
0.0
 11
-38.7688134224
 21
-28.1354853885
 31
0.0
  0
SPLINE
  5
3E5
100
AcDbEntity
  8
RACCORDO
100
AcDbSpline
 62
7
  6
CONTINUOUS
 70
0
 71
3
 72
14
 73
10
 74
8
 42
0.0000001
 43
0.0000001
 44
0.0000000001
 12
0.6375588853
 22
0.5579220585
 32
0.0
 13
0.7547337529
 23
0.384883512
 33
0.0
 40
0.0
 40
0.0
 40
0.0
 40
0.0
 40
0.1325827318
 40
0.2765835673
 40
0.427884141
 40
0.5822926715
 40
0.7348769908
 40
0.8783877389
 40
1.0
 40
1.0
 40
1.0
 40
1.0
 10
6.1531071183
 20
7.1245499481
 30
0.0
 10
6.1812835512
 20
7.1492068916
 30
0.0
 10
6.2406767757
 20
7.1999455909
 30
0.0
 10
6.3341632701
 20
7.2765177651
 30
0.0
 10
6.4340432084
 20
7.3549737091
 30
0.0
 10
6.5375454966
 20
7.4326897113
 30
0.0
 10
6.6411904777
 20
7.5065163918
 30
0.0
 10
6.7395395298
 20
7.571646687
 30
0.0
 10
6.8039890549
 20
7.6099749877
 30
0.0
 10
6.8345840143
 20
7.6255771724
 30
0.0
 11
6.1531071183
 21
7.1245499481
 31
0.0
 11
6.2384629879
 21
7.1975654371
 31
0.0
 11
6.3328220932
 21
7.2748956979
 31
0.0
 11
6.4336333104
 21
7.354065925
 31
0.0
 11
6.5382853652
 21
7.4325562941
 31
0.0
 11
6.6437014057
 21
7.5073780165
 31
0.0
 11
6.7452892654
 21
7.5741790674
 31
0.0
 11
6.8345840143
 21
7.6255771724
 31
0.0
  0
SPLINE
  5
3E6
100
AcDbEntity
  8
RACCORDO
100
AcDbSpline
 62
7
  6
CONTINUOUS
 70
0
 71
3
 72
10
 73
6
 74
4
 42
0.0000001
 43
0.0000001
 44
0.0000000001
 12
0.0181335145
 22
0.0092473547
 32
0.0
 13
0.0175129932
 23
0.0103746318
 33
0.0
 40
0.0
 40
0.0
 40
0.0
 40
0.0
 40
0.3414539036
 40
0.6747943221
 40
1.0
 40
1.0
 40
1.0
 40
1.0
 10
6.8345840143
 20
7.6255771724
 30
0.0
 10
6.8366479341
 20
7.6266296875
 30
0.0
 10
6.8407067456
 20
7.6287492367
 30
0.0
 10
6.8466558094
 20
7.6320130192
 30
0.0
 10
6.8505264351
 20
7.6342463738
 30
0.0
 10
6.8524248768
 20
7.6353710035
 30
0.0
 11
6.8345840143
 21
7.6255771724
 31
0.0
 11
6.8407441744
 21
7.6287959305
 31
0.0
 11
6.846692134
 21
7.6320610921
 31
0.0
 11
6.8524248768
 21
7.6353710035
 31
0.0
  0
SPLINE
  5
3E7
100
AcDbEntity
  8
RACCORDO
100
AcDbSpline
 62
7
  6
CONTINUOUS
 70
0
 71
3
 72
9
 73
5
 74
3
 42
0.0000001
 43
0.0000001
 44
0.0000000001
 12
0.4720969992
 22
0.2815466295
 32
0.0
 13
0.5518062326
 23
0.0030432926
 33
0.0
 40
0.0
 40
0.0
 40
0.0
 40
0.0
 40
0.2297258848
 40
1.0
 40
1.0
 40
1.0
 40
1.0
 10
-32.6367447858
 20
41.4295590475
 30
0.0
 10
-32.6005938188
 20
41.4511185637
 30
0.0
 10
-32.4373700339
 20
41.5348154804
 30
0.0
 10
-32.2524756974
 20
41.5691734767
 30
0.0
 10
-32.1107950115
 20
41.5699548665
 30
0.0
 11
-32.6367447858
 21
41.4295590475
 31
0.0
 11
-32.5244567207
 21
41.4869694489
 31
0.0
 11
-32.1107950115
 21
41.5699548665
 31
0.0
  0
SPLINE
  5
3E8
100
AcDbEntity
  8
RACCORDO
100
AcDbSpline
 62
7
  6
CONTINUOUS
 70
0
 71
3
 72
9
 73
5
 74
3
 42
0.0000001
 43
0.0000001
 44
0.0000000001
 12
0.0
 22
-0.9051956522
 32
0.0
 13
-0.6222014486
 23
-0.6799759618
 33
0.0
 40
0.0
 40
0.0
 40
0.0
 40
0.0
 40
0.7651660681
 40
1.0
 40
1.0
 40
1.0
 40
1.0
 10
25.7157516838
 20
-46.4095640553
 30
0.0
 10
25.7157516838
 20
-46.6404390547
 30
0.0
 10
25.6459989368
 20
-46.9522498301
 30
0.0
 10
25.461309151
 20
-47.199760973
 30
0.0
 10
25.4126044802
 20
-47.2529881159
 30
0.0
 11
25.7157516838
 21
-46.4095640553
 31
0.0
 11
25.5417135781
 21
-47.079967013
 31
0.0
 11
25.4126044802
 21
-47.2529881159
 31
0.0
  0
SPLINE
  5
3E9
100
AcDbEntity
  8
RACCORDO
100
AcDbSpline
 62
7
  6
CONTINUOUS
 70
0
 71
3
 72
10
 73
6
 74
4
 42
0.0000001
 43
0.0000001
 44
0.0000000001
 12
1.7097820385
 22
-0.3376228314
 32
0.0
 13
0.5386522451
 23
-1.6791169935
 33
0.0
 40
0.0
 40
0.0
 40
0.0
 40
0.0
 40
0.4147305155
 40
0.8584302622
 40
1.0
 40
1.0
 40
1.0
 40
1.0
 10
24.4167135781
 20
30.4318996462
 30
0.0
 10
24.6530798402
 20
30.3852254826
 30
0.0
 10
25.1175878077
 20
30.1453276135
 30
0.0
 10
25.4806303948
 20
29.6731020556
 30
0.0
 10
25.608542223
 20
29.3524467478
 30
0.0
 10
25.6339611753
 20
29.2732093637
 30
0.0
 11
24.4167135781
 21
30.4318996462
 31
0.0
 11
25.066232631
 21
30.1147996833
 31
0.0
 11
25.5417135781
 21
29.5049815811
 31
0.0
 11
25.6339611753
 21
29.2732093637
 31
0.0
  0
SPLINE
  5
3EA
100
AcDbEntity
  8
RACCORDO
100
AcDbSpline
 62
7
  6
CONTINUOUS
 70
0
 71
3
 72
8
 73
4
 74
2
 42
0.0000001
 43
0.0000001
 44
0.0000000001
 12
0.1584377195
 22
-0.4938909464
 32
0.0
 13
0.0
 23
-0.5126218155
 33
0.0
 40
0.0
 40
0.0
 40
0.0
 40
0.0
 40
1.0
 40
1.0
 40
1.0
 40
1.0
 10
25.6339611753
 20
29.2732093637
 30
0.0
 10
25.6867737485
 20
29.1085790482
 30
0.0
 10
25.7157516838
 20
28.936719546
 30
0.0
 10
25.7157516838
 20
28.7658456075
 30
0.0
 11
25.6339611753
 21
29.2732093637
 31
0.0
 11
25.7157516838
 21
28.7658456075
 31
0.0
  0
SPLINE
  5
3EB
100
AcDbEntity
  8
RACCORDO
100
AcDbSpline
 62
7
  6
CONTINUOUS
 70
0
 71
3
 72
8
 73
4
 74
2
 42
0.0000001
 43
0.0000001
 44
0.0000000001
 12
0.4451090334
 22
0.2654516939
 32
0.0
 13
0.26718077
 23
0.4448154571
 33
0.0
 40
0.0
 40
0.0
 40
0.0
 40
0.0
 40
1.0
 40
1.0
 40
1.0
 40
1.0
 10
24.5785206961
 20
-47.8000303815
 30
0.0
 10
24.7268903738
 20
-47.7115464835
 30
0.0
 10
24.852591772
 20
-47.5837790748
 30
0.0
 10
24.9416520286
 20
-47.4355072558
 30
0.0
 11
24.5785206961
 21
-47.8000303815
 31
0.0
 11
24.9416520286
 21
-47.4355072558
 31
0.0
  0
SPLINE
  5
3EC
100
AcDbEntity
  8
RACCORDO
100
AcDbSpline
 62
7
  6
CONTINUOUS
 70
0
 71
3
 72
8
 73
4
 74
2
 42
0.0000001
 43
0.0000001
 44
0.0000000001
 12
0.2310805649
 22
0.3847140912
 32
0.0
 13
0.0774663668
 23
0.4413647995
 33
0.0
 40
0.0
 40
0.0
 40
0.0
 40
0.0
 40
1.0
 40
1.0
 40
1.0
 40
1.0
 10
24.9416520286
 20
-47.4355072558
 30
0.0
 10
25.0186788836
 20
-47.3072692254
 30
0.0
 10
25.0682938574
 20
-47.1636934668
 30
0.0
 10
25.0941159796
 20
-47.016571867
 30
0.0
 11
24.9416520286
 21
-47.4355072558
 31
0.0
 11
25.0941159796
 21
-47.016571867
 31
0.0
  0
SPLINE
  5
3ED
100
AcDbEntity
  8
RACCORDO
100
AcDbSpline
 62
7
  6
CONTINUOUS
 70
0
 71
3
 72
8
 73
4
 74
2
 42
0.0000001
 43
0.0000001
 44
0.0000000001
 12
-0.6397246066
 22
0.1263234893
 32
0.0
 13
-0.6070505408
 23
-0.2609564641
 33
0.0
 40
0.0
 40
0.0
 40
0.0
 40
0.0
 40
1.0
 40
1.0
 40
1.0
 40
1.0
 10
-32.4749376679
 20
41.192116545
 30
0.0
 10
-32.6881792034
 20
41.2342243748
 30
0.0
 10
-32.9218636666
 20
41.218621624
 30
0.0
 10
-33.1242138469
 20
41.131636136
 30
0.0
 11
-32.4749376679
 21
41.192116545
 31
0.0
 11
-33.1242138469
 21
41.131636136
 31
0.0
  0
SPLINE
  5
3EE
100
AcDbEntity
  8
RACCORDO
100
AcDbSpline
 62
7
  6
CONTINUOUS
 70
0
 71
3
 72
8
 73
4
 74
2
 42
0.0000001
 43
0.0000001
 44
0.0000000001
 12
0.0
 22
0.7590317625
 32
0.0
 13
-0.3311025104
 23
0.6919938166
 33
0.0
 40
0.0
 40
0.0
 40
0.0
 40
0.0
 40
1.0
 40
1.0
 40
1.0
 40
1.0
 10
25.1157516838
 20
28.4104078483
 30
0.0
 10
25.1157516838
 20
28.6634184358
 30
0.0
 10
25.0522195899
 20
28.9185898026
 30
0.0
 10
24.9418520864
 20
29.1492544081
 30
0.0
 11
25.1157516838
 21
28.4104078483
 31
0.0
 11
24.9418520864
 21
29.1492544081
 31
0.0
  0
SPLINE
  5
3EF
100
AcDbEntity
  8
RACCORDO
100
AcDbSpline
 62
7
  6
CONTINUOUS
 70
0
 71
3
 72
8
 73
4
 74
2
 42
0.0000001
 43
0.0000001
 44
0.0000000001
 12
-0.2882813262
 22
0.4327412761
 32
0.0
 13
-0.4044909025
 23
0.3312257809
 33
0.0
 40
0.0
 40
0.0
 40
0.0
 40
0.0
 40
1.0
 40
1.0
 40
1.0
 40
1.0
 10
24.8138840502
 20
29.3744955515
 30
0.0
 10
24.7177902748
 20
29.5187426435
 30
0.0
 10
24.6011720774
 20
29.6488639618
 30
0.0
 10
24.4663417766
 20
29.7592725554
 30
0.0
 11
24.8138840502
 21
29.3744955515
 31
0.0
 11
24.4663417766
 21
29.7592725554
 31
0.0
  0
SPLINE
  5
3F0
100
AcDbEntity
  8
RACCORDO
100
AcDbSpline
 62
7
  6
CONTINUOUS
 70
0
 71
3
 72
8
 73
4
 74
2
 42
0.0000001
 43
0.0000001
 44
0.0000000001
 12
-0.3731063216
 22
0.3055258647
 32
0.0
 13
-0.4457148544
 23
0.1786240012
 33
0.0
 40
0.0
 40
0.0
 40
0.0
 40
0.0
 40
1.0
 40
1.0
 40
1.0
 40
1.0
 10
24.4663417766
 20
29.7592725554
 30
0.0
 10
24.3419730027
 20
29.8611145103
 30
0.0
 10
24.202107195
 20
29.9461853769
 30
0.0
 10
24.0535355769
 20
30.0057267107
 30
0.0
 11
24.4663417766
 21
29.7592725554
 31
0.0
 11
24.0535355769
 21
30.0057267107
 31
0.0
  0
SPLINE
  5
3F1
100
AcDbEntity
  8
RACCORDO
100
AcDbSpline
 62
7
  6
CONTINUOUS
 70
0
 71
3
 72
8
 73
4
 74
2
 42
0.0000001
 43
0.0000001
 44
0.0000000001
 12
-0.23076364
 22
0.0924804823
 32
0.0
 13
-0.2419378628
 23
0.0477743621
 33
0.0
 40
0.0
 40
0.0
 40
0.0
 40
0.0
 40
1.0
 40
1.0
 40
1.0
 40
1.0
 10
24.0535355769
 20
30.0057267107
 30
0.0
 10
23.9766143636
 20
30.0365535381
 30
0.0
 10
23.8973595324
 20
30.0605370996
 30
0.0
 10
23.8167135781
 20
30.076461887
 30
0.0
 11
24.0535355769
 21
30.0057267107
 31
0.0
 11
23.8167135781
 21
30.076461887
 31
0.0
  0
SPLINE
  5
3F2
100
AcDbEntity
  8
RACCORDO
100
AcDbSpline
 62
7
  6
CONTINUOUS
 70
0
 71
3
 72
9
 73
5
 74
3
 42
0.0000001
 43
0.0000001
 44
0.0000000001
 12
0.0089361602
 22
-0.05283545
 32
0.0
 13
0.0587163372
 23
-0.0015628621
 33
0.0
 40
0.0
 40
0.0
 40
0.0
 40
0.0
 40
0.1579868832
 40
1.0
 40
1.0
 40
1.0
 40
1.0
 10
-24.0918092408
 20
-45.6646544869
 30
0.0
 10
-24.0913386421
 20
-45.6674369229
 30
0.0
 10
-24.0842488132
 20
-45.6861409778
 30
0.0
 10
-24.0631323824
 20
-45.6854298156
 30
0.0
 10
-24.046652407
 20
-45.6858684657
 30
0.0
 11
-24.0918092408
 21
-45.6646544869
 31
0.0
 11
-24.0887483402
 21
-45.6728623126
 31
0.0
 11
-24.046652407
 21
-45.6858684657
 31
0.0
  0
SPLINE
  5
3F3
100
AcDbEntity
  8
0
100
AcDbSpline
 62
7
  6
CONTINUOUS
 70
0
 71
3
 72
15
 73
11
 74
9
 42
0.0000001
 43
0.0000001
 44
0.0000000001
 12
-1.468635778
 22
-42.0611680716
 32
0.0
 13
1.406980241
 23
-42.0634073017
 33
0.0
 40
0.0
 40
0.0
 40
0.0
 40
0.0
 40
0.1323926697
 40
0.2641789638
 40
0.3953319424
 40
0.5258249874
 40
0.6556318189
 40
0.7847265123
 40
0.9130835151
 40
1.0
 40
1.0
 40
1.0
 40
1.0
 10
7.5872398893
 20
7.6008263624
 30
0.0
 10
7.5224276854
 20
5.7446295847
 30
0.0
 10
7.40892278
 20
2.0401649924
 30
0.0
 10
7.2869692627
 20
-3.5046458552
 30
0.0
 10
7.2137320287
 20
-9.0236672494
 30
0.0
 10
7.189231704
 20
-14.5153502042
 30
0.0
 10
7.213475022
 20
-19.978159555
 30
0.0
 10
7.2864552206
 20
-25.4105685648
 30
0.0
 10
7.3952951513
 20
-30.2405246566
 30
0.0
 10
7.4867049976
 20
-33.259230675
 30
0.0
 10
7.5274682565
 20
-34.4778985101
 30
0.0
 11
7.5872398893
 21
7.6008263624
 31
0.0
 11
7.4167015193
 21
2.0314529185
 31
0.0
 11
7.2948543049
 21
-3.5136719514
 31
0.0
 11
7.2217323373
 21
-9.0329968047
 31
0.0
 11
7.1973560747
 21
-14.5249774177
 31
0.0
 11
7.2217323373
 21
-19.9880772168
 31
0.0
 11
7.2948543049
 21
-25.420767709
 31
0.0
 11
7.4167015193
 21
-30.8215289094
 31
0.0
 11
7.5274682565
 21
-34.4778985101
 31
0.0
  0
SPLINE
  5
3F4
100
AcDbEntity
  8
RACCORDO
100
AcDbSpline
 62
7
  6
CONTINUOUS
 70
0
 71
3
 72
8
 73
4
 74
2
 42
0.0000001
 43
0.0000001
 44
0.0000000001
 12
-0.1691702168
 22
-0.0662079582
 32
0.0
 13
-0.1764328452
 23
-0.0450692592
 33
0.0
 40
0.0
 40
0.0
 40
0.0
 40
0.0
 40
1.0
 40
1.0
 40
1.0
 40
1.0
 10
-3.0979587613
 20
-49.607609709
 30
0.0
 10
-3.1543488336
 20
-49.6296790284
 30
0.0
 10
-3.2120103354
 20
-49.6485555754
 30
0.0
 10
-3.2708212838
 20
-49.6635786618
 30
0.0
 11
-3.0979587613
 21
-49.607609709
 31
0.0
 11
-3.2708212838
 21
-49.6635786618
 31
0.0
  0
SPLINE
  5
3F5
100
AcDbEntity
  8
RACCORDO
100
AcDbSpline
 62
7
  6
CONTINUOUS
 70
0
 71
3
 72
8
 73
4
 74
2
 42
0.0000001
 43
0.0000001
 44
0.0000000001
 12
-0.4068741163
 22
-0.1004962669
 32
0.0
 13
-0.4143263031
 23
0.0415884935
 33
0.0
 40
0.0
 40
0.0
 40
0.0
 40
0.0
 40
1.0
 40
1.0
 40
1.0
 40
1.0
 10
-3.2814043119
 20
-49.6662373297
 30
0.0
 10
-3.4170290174
 20
-49.6997360854
 30
0.0
 10
-3.5585060529
 20
-49.7126713104
 30
0.0
 10
-3.6966148206
 20
-49.6988084793
 30
0.0
 11
-3.2814043119
 21
-49.6662373297
 31
0.0
 11
-3.6966148206
 21
-49.6988084793
 31
0.0
  0
SPLINE
  5
3F6
100
AcDbEntity
  8
RACCORDO
100
AcDbSpline
 62
7
  6
CONTINUOUS
 70
0
 71
3
 72
9
 73
5
 74
3
 42
0.0000001
 43
0.0000001
 44
0.0000000001
 12
-0.1237866069
 22
0.0124252273
 32
0.0
 13
-0.1221006568
 23
0.0241739014
 33
0.0
 40
0.0
 40
0.0
 40
0.0
 40
0.0
 40
0.9575971245
 40
1.0
 40
1.0
 40
1.0
 40
1.0
 10
-3.6966148206
 20
-49.6988084793
 30
0.0
 10
-3.7361273869
 20
-49.6948423586
 30
0.0
 10
-3.7770970714
 20
-49.6879760311
 30
0.0
 10
-3.8178080872
 20
-49.6799657234
 30
0.0
 10
-3.8195338935
 20
-49.6796240425
 30
0.0
 11
-3.6966148206
 21
-49.6988084793
 31
0.0
 11
-3.8143550938
 21
-49.6806429867
 31
0.0
 11
-3.8195338935
 21
-49.6796240425
 31
0.0
  0
LINE
  5
3F7
100
AcDbEntity
  8
0
100
AcDbLine
 62
7
  6
CONTINUOUS
 10
-35.7214540964
 20
-36.2699904936
 11
-35.7140936883
 21
-36.4155812876
  0
LINE
  5
3F8
100
AcDbEntity
  8
0
100
AcDbLine
 62
7
  6
CONTINUOUS
 10
5.3425834556
 20
-44.3787179904
 11
5.3499438637
 21
-44.5243087844
  0
SPLINE
  5
3F9
100
AcDbEntity
  8
RACCORDO
100
AcDbSpline
 62
7
  6
CONTINUOUS
 70
0
 71
3
 72
13
 73
9
 74
7
 42
0.0000001
 43
0.0000001
 44
0.0000000001
 12
-0.0840360962
 22
0.5084317757
 32
0.0
 13
0.4962324765
 23
-0.0979887553
 33
0.0
 40
0.0
 40
0.0
 40
0.0
 40
0.0
 40
0.0096168945
 40
0.0831362705
 40
0.2271362483
 40
0.4391330967
 40
0.7039328936
 40
1.0
 40
1.0
 40
1.0
 40
1.0
 10
-24.0918203525
 20
-43.7852059898
 30
0.0
 10
-24.0920897412
 20
-43.7835761449
 30
0.0
 10
-24.0924823564
 20
-43.7700137117
 30
0.0
 10
-24.0355224985
 20
-43.7724640387
 30
0.0
 10
-23.9762487465
 20
-43.7635700503
 30
0.0
 10
-23.8653801759
 20
-43.7721943215
 30
0.0
 10
-23.7383453173
 20
-43.7867982362
 30
0.0
 10
-23.6445565698
 20
-43.8035448472
 30
0.0
 10
-23.5955838654
 20
-43.8132152629
 30
0.0
 11
-24.0918203525
 21
-43.7852059898
 31
0.0
 11
-24.0918963475
 21
-43.7806319212
 31
0.0
 11
-24.0559994684
 21
-43.7709210886
 31
0.0
 11
-23.9832681454
 21
-43.7669933878
 31
0.0
 11
-23.8761508371
 21
-43.7719324045
 31
0.0
 11
-23.7431281382
 21
-43.7875779447
 31
0.0
 11
-23.5955838654
 21
-43.8132152629
 31
0.0
  0
LINE
  5
3FA
100
AcDbEntity
  8
0
100
AcDbLine
 62
7
  6
CONTINUOUS
 10
-31.424167061
 20
-38.2228648271
 11
-31.4343002273
 21
-38.0289331006
  0
SPLINE
  5
3FB
100
AcDbEntity
  8
RACCORDO
100
AcDbSpline
 62
253
  6
CONTINUOUS
 70
0
 71
3
 72
12
 73
8
 74
6
 42
0.0000001
 43
0.0000001
 44
0.0000000001
 12
0.0282550915
 22
-0.9004037822
 32
0.0
 13
0.276924537
 23
-0.857179271
 33
0.0
 40
0.0
 40
0.0
 40
0.0
 40
0.0
 40
0.1208675397
 40
0.3797799406
 40
0.6130732007
 40
0.8202232368
 40
1.0
 40
1.0
 40
1.0
 40
1.0
 10
7.719706625
 20
-41.6453526781
 30
0.0
 10
7.7208449994
 20
-41.6816292081
 30
0.0
 10
7.7252905013
 20
-41.795586498
 30
0.0
 10
7.7372619949
 20
-41.9793287475
 30
0.0
 10
7.7602293382
 20
-42.18816199
 30
0.0
 10
7.7911044303
 20
-42.3719076752
 30
0.0
 10
7.81926148
 20
-42.4848856875
 30
0.0
 10
7.8358563456
 20
-42.5362526591
 30
0.0
 11
7.719706625
 21
-41.6453526781
 31
0.0
 11
7.7239754926
 21
-41.754150931
 31
0.0
 11
7.7395755107
 21
-41.9868573273
 31
0.0
 11
7.7631812011
 21
-42.1956782761
 31
0.0
 11
7.795016758
 21
-42.3795436098
 31
0.0
 11
7.8358563456
 21
-42.5362526591
 31
0.0
  0
SPLINE
  5
3FC
100
AcDbEntity
  8
RACCORDO
100
AcDbSpline
 62
253
  6
CONTINUOUS
 70
0
 71
3
 72
22
 73
18
 74
16
 42
0.0000001
 43
0.0000001
 44
0.0000000001
 12
-0.2019469915
 22
1.3115310913
 32
0.0
 13
0.9163535715
 23
0.9597877488
 33
0.0
 40
0.0
 40
0.0
 40
0.0
 40
0.0
 40
0.1019314604
 40
0.1945044489
 40
0.279463224
 40
0.3567445399
 40
0.4257115135
 40
0.4877860414
 40
0.5456421359
 40
0.6018646584
 40
0.6578633478
 40
0.7133876063
 40
0.7681844962
 40
0.8230044063
 40
0.8789500242
 40
0.9373299072
 40
1.0
 40
1.0
 40
1.0
 40
1.0
 10
7.4940928712
 20
12.0312237137
 30
0.0
 10
7.4872312873
 20
12.0757858068
 30
0.0
 10
7.4755534803
 20
12.1610454465
 30
0.0
 10
7.4630341999
 20
12.2840481494
 30
0.0
 10
7.4555283487
 20
12.3965326519
 30
0.0
 10
7.4523191259
 20
12.4987733718
 30
0.0
 10
7.4526916814
 20
12.5909390766
 30
0.0
 10
7.4559921434
 20
12.6744463516
 30
0.0
 10
7.4618961837
 20
12.7521579041
 30
0.0
 10
7.4705075702
 20
12.8269144019
 30
0.0
 10
7.4821938776
 20
12.9002139005
 30
0.0
 10
7.4973784777
 20
12.9722334325
 30
0.0
 10
7.5165445123
 20
13.04276941
 30
0.0
 10
7.5405163391
 20
13.1120377944
 30
0.0
 10
7.5708260852
 20
13.180562569
 30
0.0
 10
7.6099714945
 20
13.2485591199
 30
0.0
 10
7.6433242749
 20
13.2908499647
 30
0.0
 10
7.6624669294
 20
13.3108999605
 30
0.0
 11
7.4940928712
 21
12.0312237137
 31
0.0
 11
7.4758057608
 21
12.1652436186
 31
0.0
 11
7.4634336516
 21
12.2874622227
 31
0.0
 11
7.4559951691
 21
12.3999558119
 31
0.0
 11
7.4528435876
 21
12.5024587304
 31
0.0
 11
7.4532732886
 21
12.5939760483
 31
0.0
 11
7.4565813353
 21
12.676281732
 31
0.0
 11
7.4624531483
 21
12.7528311868
 31
0.0
 11
7.4710550604
 21
12.8269402372
 31
0.0
 11
7.4828351513
 21
12.9003101361
 31
0.0
 11
7.4981368345
 21
12.9723837248
 31
0.0
 11
7.5173288792
 21
13.0425200742
 31
0.0
 11
7.541286753
 21
13.1112070876
 31
0.0
 11
7.5715389727
 21
13.1790027677
 31
0.0
 11
7.6105532581
 21
13.2459310242
 31
0.0
 11
7.6624669294
 21
13.3108999605
 31
0.0
  0
SPLINE
  5
3FD
100
AcDbEntity
  8
RACCORDO
100
AcDbSpline
 62
253
  6
CONTINUOUS
 70
0
 71
3
 72
14
 73
10
 74
8
 42
0.0000001
 43
0.0000001
 44
0.0000000001
 12
-0.4529876285
 22
1.6075388012
 32
0.0
 13
-1.1870486336
 23
1.1748592812
 33
0.0
 40
0.0
 40
0.0
 40
0.0
 40
0.0
 40
0.1694213993
 40
0.3293456492
 40
0.4795741427
 40
0.6212042556
 40
0.75500229
 40
0.8812975101
 40
1.0
 40
1.0
 40
1.0
 40
1.0
 10
-38.2346135439
 20
21.061062562
 30
0.0
 10
-38.2601954765
 20
21.1518463863
 30
0.0
 10
-38.3151963173
 20
21.3268901792
 30
0.0
 10
-38.4100879039
 20
21.5765979347
 30
0.0
 10
-38.5132177074
 20
21.8061640978
 30
0.0
 10
-38.6235868147
 20
22.0160438692
 30
0.0
 10
-38.7410330749
 20
22.2066066182
 30
0.0
 10
-38.8655066539
 20
22.3771159479
 30
0.0
 10
-38.9563727112
 20
22.4792804865
 30
0.0
 10
-39.0033412541
 20
22.5257667272
 30
0.0
 11
-38.2346135439
 21
21.061062562
 31
0.0
 11
-38.3194724228
 21
21.3309962817
 31
0.0
 11
-38.4145137515
 21
21.5806112738
 31
0.0
 11
-38.5175790546
 21
21.8093686083
 31
0.0
 11
-38.628025663
 21
22.0185430421
 31
0.0
 11
-38.7457214319
 21
22.2084981032
 31
0.0
 11
-38.8707543986
 21
22.3783765748
 31
0.0
 11
-39.0033412541
 21
22.5257667272
 31
0.0
  0
SPLINE
  5
3FE
100
AcDbEntity
  8
0
100
AcDbSpline
 62
7
  6
CONTINUOUS
 70
0
 71
3
 72
10
 73
6
 74
4
 42
0.0000001
 43
0.0000001
 44
0.0000000001
 12
-0.0398265856
 22
0.7764368652
 32
0.0
 13
-0.0387504025
 23
0.7764913192
 33
0.0
 40
0.0
 40
0.0
 40
0.0
 40
0.0
 40
0.3332272593
 40
0.6665606425
 40
1.0
 40
1.0
 40
1.0
 40
1.0
 10
-32.8551303303
 20
-37.3163347704
 30
0.0
 10
-32.8595540982
 20
-37.2300914609
 30
0.0
 10
-32.8683631479
 20
-37.0575753265
 30
0.0
 10
-32.8814592115
 20
-36.7987538867
 30
0.0
 10
-32.8901116044
 20
-36.6261747896
 30
0.0
 10
-32.8944185742
 20
-36.5398705341
 30
0.0
 11
-32.8551303303
 21
-37.3163347704
 31
0.0
 11
-32.8683418195
 21
-37.0576017806
 31
0.0
 11
-32.8814379037
 21
-36.7987803114
 31
0.0
 11
-32.8944185742
 21
-36.5398705341
 31
0.0
  0
SPLINE
  5
3FF
100
AcDbEntity
  8
RACCORDO
100
AcDbSpline
 62
253
  6
CONTINUOUS
 70
0
 71
3
 72
14
 73
10
 74
8
 42
0.0000001
 43
0.0000001
 44
0.0000000001
 12
-0.219512368
 22
-1.8375988793
 32
0.0
 13
0.8667337558
 23
-1.6351537901
 33
0.0
 40
0.0
 40
0.0
 40
0.0
 40
0.0
 40
0.1835120247
 40
0.3521748671
 40
0.506329166
 40
0.6474398199
 40
0.7765004092
 40
0.8939954097
 40
1.0
 40
1.0
 40
1.0
 40
1.0
 10
7.4940928032
 20
-40.8684415771
 30
0.0
 10
7.4806650835
 20
-40.9808487408
 30
0.0
 10
7.4606944396
 20
-41.1973173712
 30
0.0
 10
7.4496984135
 20
-41.5096393712
 30
0.0
 10
7.4568774687
 20
-41.7959326677
 30
0.0
 10
7.4809191687
 20
-42.0568043399
 30
0.0
 10
7.5214499432
 20
-42.2928080924
 30
0.0
 10
7.5787468456
 20
-42.5029797657
 30
0.0
 10
7.6318017123
 20
-42.6309524696
 30
0.0
 10
7.6624276311
 20
-42.6887304054
 30
0.0
 11
7.4940928032
 21
-40.8684415771
 31
0.0
 11
7.4631982544
 21
-41.2066524488
 31
0.0
 11
7.4526607168
 21
-41.5186126916
 31
0.0
 11
7.4603938971
 21
-41.8037955938
 31
0.0
 11
7.4851316601
 21
-42.0637696221
 31
0.0
 11
7.5265751589
 21
-42.2989943434
 31
0.0
 11
7.5852385191
 21
-42.508375278
 31
0.0
 11
7.6624276311
 21
-42.6887304054
 31
0.0
  0
SPLINE
  5
400
100
AcDbEntity
  8
RACCORDO
100
AcDbSpline
 62
253
  6
CONTINUOUS
 70
0
 71
3
 72
14
 73
10
 74
8
 42
0.0000001
 43
0.0000001
 44
0.0000000001
 12
-0.4090136504
 22
-1.7842373934
 32
0.0
 13
-1.3703904278
 23
-1.2136001474
 33
0.0
 40
0.0
 40
0.0
 40
0.0
 40
0.0
 40
0.1864579415
 40
0.3567005859
 40
0.5116150256
 40
0.6523846857
 40
0.7802627691
 40
0.8960064671
 40
1.0
 40
1.0
 40
1.0
 40
1.0
 10
-38.2346133751
 20
-31.8386027144
 30
0.0
 10
-38.2600346562
 20
-31.9494977915
 30
0.0
 10
-38.314431421
 20
-32.1603836596
 30
0.0
 10
-38.4098024726
 20
-32.4578155903
 30
0.0
 10
-38.5131779942
 20
-32.7228624493
 30
0.0
 10
-38.623425929
 20
-32.9568692177
 30
0.0
 10
-38.7403357546
 20
-33.1605570778
 30
0.0
 10
-38.8636457435
 20
-33.3336249773
 30
0.0
 10
-38.955856242
 20
-33.4318676652
 30
0.0
 10
-39.003360156
 20
-33.4739365208
 30
0.0
 11
-38.2346133751
 21
-31.8386027144
 31
0.0
 11
-38.3202095499
 21
-32.1690099357
 31
0.0
 11
-38.4158204344
 21
-32.4656126601
 31
0.0
 11
-38.5194343074
 21
-32.7295788892
 31
0.0
 11
-38.6300163054
 21
-32.9623261899
 31
0.0
 11
-38.7474220304
 21
-33.16483741
 31
0.0
 11
-38.8717711462
 21
-33.3363791631
 31
0.0
 11
-39.003360156
 21
-33.4739365208
 31
0.0
  0
LINE
  5
401
100
AcDbEntity
  8
0
100
AcDbLine
 62
7
  6
CONTINUOUS
 10
-31.5863591985
 20
-36.7981670304
 11
-31.5984219845
 21
-36.5553947594
  0
SPLINE
  5
402
100
AcDbEntity
  8
RACCORDO
100
AcDbSpline
 62
253
  6
CONTINUOUS
 70
0
 71
3
 72
13
 73
9
 74
7
 42
0.0000001
 43
0.0000001
 44
0.0000000001
 12
-2.9976102801
 22
52.5192246854
 32
0.0
 13
2.8647324431
 23
52.5266402598
 33
0.0
 40
0.0
 40
0.0
 40
0.0
 40
0.0
 40
0.1568149537
 40
0.3148230565
 40
0.474132096
 40
0.6389658417
 40
0.815916566
 40
1.0
 40
1.0
 40
1.0
 40
1.0
 10
-38.8525587671
 20
-31.7071503228
 30
0.0
 10
-39.0092488062
 20
-28.9618837263
 30
0.0
 10
-39.2720769777
 20
-23.4473773922
 30
0.0
 10
-39.5151235172
 20
-15.1366337551
 30
0.0
 10
-39.6092747188
 20
-6.6822313028
 30
0.0
 10
-39.5482675467
 20
2.1046687177
 30
0.0
 10
-39.312292684
 20
11.3232261083
 30
0.0
 10
-39.0283421777
 20
17.6480264256
 30
0.0
 10
-38.8525589158
 20
20.8711211978
 30
0.0
 11
-38.8525587671
 21
-31.7071503228
 31
0.0
 11
-39.2459113532
 21
-23.467330068
 31
0.0
 11
-39.4894882614
 21
-15.1589306724
 31
0.0
 11
-39.5833741039
 21
-6.7790521078
 31
0.0
 11
-39.5237490045
 21
1.8917728906
 31
0.0
 11
-39.2862004983
 21
11.1971813607
 31
0.0
 11
-38.8525589158
 21
20.8711211978
 31
0.0
  0
LINE
  5
403
100
AcDbEntity
  8
0
100
AcDbLine
 62
7
  6
CONTINUOUS
 10
5.6983597014
 20
-44.5816547769
 11
5.6885333968
 21
-44.3875411267
  0
SPLINE
  5
404
100
AcDbEntity
  8
0
100
AcDbSpline
 62
7
  6
CONTINUOUS
 70
0
 71
3
 72
9
 73
5
 74
3
 42
0.0000001
 43
0.0000001
 44
0.0000000001
 12
-0.051318136
 22
0.9577357833
 32
0.0
 13
-0.0496725853
 23
0.95782255
 33
0.0
 40
0.0
 40
0.0
 40
0.0
 40
0.0
 40
0.5312153457
 40
1.0
 40
1.0
 40
1.0
 40
1.0
 10
4.3810592217
 20
-45.8570555021
 30
0.0
 10
4.3719722279
 20
-45.6874675203
 30
0.0
 10
4.3550121255
 20
-45.3682144226
 30
0.0
 10
4.3383262514
 20
-45.0489468823
 30
0.0
 10
4.3305643361
 20
-44.8992760446
 30
0.0
 11
4.3810592217
 21
-45.8570555021
 31
0.0
 11
4.354030679
 21
-45.3482791554
 31
0.0
 11
4.3305643361
 21
-44.8992760446
 31
0.0
  0
LINE
  5
405
100
AcDbEntity
  8
0
100
AcDbLine
 62
7
  6
CONTINUOUS
 10
4.3124646807
 20
-44.5481321217
 11
4.278649499
 21
-43.8802669142
  0
SPLINE
  5
406
100
AcDbEntity
  8
RACCORDO
100
AcDbSpline
 62
253
  6
CONTINUOUS
 70
0
 71
3
 72
17
 73
13
 74
11
 42
0.0000001
 43
0.0000001
 44
0.0000000001
 12
0.0234185303
 22
0.7919978109
 32
0.0
 13
0.3079873218
 23
0.7300259985
 33
0.0
 40
0.0
 40
0.0
 40
0.0
 40
0.0
 40
0.0901976335
 40
0.1956931717
 40
0.2983171702
 40
0.4005094757
 40
0.5016245898
 40
0.600927171
 40
0.6993579553
 40
0.7981699699
 40
0.8982669751
 40
1.0
 40
1.0
 40
1.0
 40
1.0
 10
7.7185655331
 20
12.2959312013
 30
0.0
 10
7.7192696318
 20
12.3197433108
 30
0.0
 10
7.7211254422
 20
12.3713964621
 30
0.0
 10
7.7251330283
 20
12.450087286
 30
0.0
 10
7.7307592635
 20
12.531855612
 30
0.0
 10
7.7379069277
 20
12.6123449532
 30
0.0
 10
7.7467885727
 20
12.6917806731
 30
0.0
 10
7.7576362491
 20
12.7699721556
 30
0.0
 10
7.7708514252
 20
12.8471854042
 30
0.0
 10
7.7871618027
 20
12.9240339606
 30
0.0
 10
7.8077175014
 20
13.0007677253
 30
0.0
 10
7.8254125338
 20
13.0511650155
 30
0.0
 10
7.8358566944
 20
13.0759209332
 30
0.0
 11
7.7185655331
 21
12.2959312013
 31
0.0
 11
7.7211446122
 21
12.367351631
 31
0.0
 11
7.7254227755
 21
12.4508298444
 31
0.0
 11
7.7310361571
 21
12.5319484009
 31
0.0
 11
7.7382396036
 21
12.6125978428
 31
0.0
 11
7.7471962272
 21
12.6922126244
 31
0.0
 11
7.7580800964
 21
12.7701370823
 31
0.0
 11
7.7713399122
 21
12.846991723
 31
0.0
 11
7.7877548875
 21
12.9235437577
 31
0.0
 11
7.8085637622
 21
13.0000755681
 31
0.0
 11
7.8358566944
 21
13.0759209332
 31
0.0
  0
SPLINE
  5
407
100
AcDbEntity
  8
RACCORDO
100
AcDbSpline
 62
7
  6
CONTINUOUS
 70
0
 71
3
 72
10
 73
6
 74
4
 42
0.0000001
 43
0.0000001
 44
0.0000000001
 12
-0.3503950045
 22
0.0691908974
 32
0.0
 13
-0.3529401873
 23
0.0094045373
 33
0.0
 40
0.0
 40
0.0
 40
0.0
 40
0.0
 40
0.4192649476
 40
0.7942511168
 40
1.0
 40
1.0
 40
1.0
 40
1.0
 10
-23.5955838654
 20
-45.6926005045
 30
0.0
 10
-23.6445533131
 20
-45.6829307318
 30
0.0
 10
-23.7383359716
 20
-45.6661852709
 30
0.0
 10
-23.8543976774
 20
-45.6528414919
 30
0.0
 10
-23.9268166068
 20
-45.6468575611
 30
0.0
 10
-23.9510222899
 20
-45.6462125701
 30
0.0
 11
-23.5955838654
 21
-45.6926005045
 31
0.0
 11
-23.7431182826
 21
-45.6669646394
 31
0.0
 11
-23.8761317831
 21
-45.6513192398
 31
0.0
 11
-23.9510222899
 21
-45.6462125701
 31
0.0
  0
SPLINE
  5
408
100
AcDbEntity
  8
RACCORDO
100
AcDbSpline
 62
7
  6
CONTINUOUS
 70
0
 71
3
 72
11
 73
7
 74
5
 42
0.0000001
 43
0.0000001
 44
0.0000000001
 12
-0.1469602882
 22
0.0039159426
 32
0.0
 13
0.0253032707
 23
-0.1496067286
 33
0.0
 40
0.0
 40
0.0
 40
0.0
 40
0.0
 40
0.2269225898
 40
0.7167642368
 40
0.9668707806
 40
1.0
 40
1.0
 40
1.0
 40
1.0
 10
-23.9510222899
 20
-45.6462125701
 30
0.0
 10
-23.962138493
 20
-45.6459163648
 30
0.0
 10
-23.9962834239
 20
-45.6459633834
 30
0.0
 10
-24.0355093135
 20
-45.6518474498
 30
0.0
 10
-24.0925198857
 20
-45.6493978344
 30
0.0
 10
-24.0920886667
 20
-45.6630023688
 30
0.0
 10
-24.0918092408
 20
-45.6646544869
 30
0.0
 11
-23.9510222899
 21
-45.6462125701
 31
0.0
 11
-23.983250834
 21
-45.6463786318
 31
0.0
 11
-24.0559931024
 21
-45.6503054748
 31
0.0
 11
-24.0918978803
 21
-45.6600182133
 31
0.0
 11
-24.0918092408
 21
-45.6646544869
 31
0.0
  0
LINE
  5
409
100
AcDbEntity
  8
0
100
AcDbLine
 62
7
  6
CONTINUOUS
 10
-33.4088085253
 20
-37.8309667632
 11
-33.4189416916
 21
-37.6370350367
  0
SPLINE
  5
40A
100
AcDbEntity
  8
0
100
AcDbSpline
 62
7
  6
CONTINUOUS
 70
0
 71
3
 72
9
 73
5
 74
3
 42
0.0000001
 43
0.0000001
 44
0.0000000001
 12
-0.051318136
 22
0.9577357833
 32
0.0
 13
-0.0496725853
 23
0.95782255
 33
0.0
 40
0.0
 40
0.0
 40
0.0
 40
0.0
 40
0.5312153457
 40
1.0
 40
1.0
 40
1.0
 40
1.0
 10
-36.6829785239
 20
-37.7483279671
 30
0.0
 10
-36.6920655177
 20
-37.5787399854
 30
0.0
 10
-36.70902562
 20
-37.2594868876
 30
0.0
 10
-36.7257114942
 20
-36.9402193473
 30
0.0
 10
-36.7334734094
 20
-36.7905485097
 30
0.0
 11
-36.6829785239
 21
-37.7483279671
 31
0.0
 11
-36.7100070666
 21
-37.2395516205
 31
0.0
 11
-36.7334734094
 21
-36.7905485097
 31
0.0
  0
SPLINE
  5
40B
100
AcDbEntity
  8
0
100
AcDbSpline
 62
7
  6
CONTINUOUS
 70
0
 71
3
 72
10
 73
6
 74
4
 42
0.0000001
 43
0.0000001
 44
0.0000000001
 12
-0.0398265856
 22
0.7764368652
 32
0.0
 13
-0.0387504025
 23
0.7764913192
 33
0.0
 40
0.0
 40
0.0
 40
0.0
 40
0.0
 40
0.3332272593
 40
0.6665606425
 40
1.0
 40
1.0
 40
1.0
 40
1.0
 10
-34.8397717946
 20
-36.9244367065
 30
0.0
 10
-34.8441955626
 20
-36.838193397
 30
0.0
 10
-34.8530046122
 20
-36.6656772626
 30
0.0
 10
-34.8661006758
 20
-36.4068558228
 30
0.0
 10
-34.8747530687
 20
-36.2342767257
 30
0.0
 10
-34.8790600385
 20
-36.1479724701
 30
0.0
 11
-34.8397717946
 21
-36.9244367065
 31
0.0
 11
-34.8529832838
 21
-36.6657037167
 31
0.0
 11
-34.866079368
 21
-36.4068822475
 31
0.0
 11
-34.8790600385
 21
-36.1479724701
 31
0.0
  0
LINE
  5
40C
100
AcDbEntity
  8
0
100
AcDbLine
 62
7
  6
CONTINUOUS
 10
-33.5710009209
 20
-36.4062689156
 11
-33.5830637069
 21
-36.1634966445
  0
LINE
  5
40D
100
AcDbEntity
  8
0
100
AcDbLine
 62
7
  6
CONTINUOUS
 10
-35.3656778506
 20
-36.4729272802
 11
-35.3755041552
 21
-36.27881363
  0
SPLINE
  5
40E
100
AcDbEntity
  8
0
100
AcDbSpline
 62
7
  6
CONTINUOUS
 70
0
 71
3
 72
10
 73
6
 74
4
 42
0.0000001
 43
0.0000001
 44
0.0000000001
 12
-0.0372751548
 22
0.7279293851
 32
0.0
 13
-0.0363293303
 23
0.727977202
 33
0.0
 40
0.0
 40
0.0
 40
0.0
 40
0.0
 40
0.3332339072
 40
0.6665672843
 40
1.0
 40
1.0
 40
1.0
 40
1.0
 10
-36.8268996599
 20
-36.4840277803
 30
0.0
 10
-36.8310401084
 20
-36.4031708626
 30
0.0
 10
-36.8392871806
 20
-36.2414310938
 30
0.0
 10
-36.8515545116
 20
-35.9987799336
 30
0.0
 10
-36.8596639006
 20
-35.8369848398
 30
0.0
 10
-36.8637016964
 20
-35.756074368
 30
0.0
 11
-36.8268996599
 21
-36.4840277803
 31
0.0
 11
-36.8392684375
 21
-36.241454341
 31
0.0
 11
-36.8515357854
 21
-35.9988031565
 31
0.0
 11
-36.8637016964
 21
-35.756074368
 31
0.0
  0
LINE
  5
40F
100
AcDbEntity
  8
0
100
AcDbLine
 62
7
  6
CONTINUOUS
 10
-36.7515730648
 20
-36.4394045867
 11
-36.7853882465
 21
-35.7715393792
  0
SPLINE
  5
410
100
AcDbEntity
  8
0
100
AcDbSpline
 62
7
  6
CONTINUOUS
 70
0
 71
3
 72
10
 73
6
 74
4
 42
0.0000001
 43
0.0000001
 44
0.0000000001
 12
-0.054515592
 22
1.0178631539
 32
0.0
 13
-0.0526580284
 23
1.0179609432
 33
0.0
 40
0.0
 40
0.0
 40
0.0
 40
0.0
 40
0.3331929933
 40
0.6665264124
 40
1.0
 40
1.0
 40
1.0
 40
1.0
 10
-36.7583347721
 20
-37.7929687271
 30
0.0
 10
-36.7643895099
 20
-37.6799204368
 30
0.0
 10
-36.7764326552
 20
-37.4537725158
 30
0.0
 10
-36.7942946948
 20
-37.114468327
 30
0.0
 10
-36.8060676578
 20
-36.8882107122
 30
0.0
 10
-36.8119210117
 20
-36.7750563496
 30
0.0
 11
-36.7583347721
 21
-37.7929687271
 31
0.0
 11
-36.7763957264
 21
-37.4538183414
 31
0.0
 11
-36.794257813
 21
-37.1145140865
 31
0.0
 11
-36.8119210117
 21
-36.7750563496
 31
0.0
  0
LINE
  5
411
100
AcDbEntity
  8
0
100
AcDbLine
 62
7
  6
CONTINUOUS
 10
-35.4409990985
 20
-36.5175473062
 11
-35.4475543511
 21
-36.3881420536
  0
LINE
  5
412
100
AcDbEntity
  8
0
100
AcDbLine
 62
7
  6
CONTINUOUS
 10
-35.4475543511
 20
-36.3881420536
 11
-35.4508211577
 21
-36.323431141
  0
SPLINE
  5
413
100
AcDbEntity
  8
RACCORDO
100
AcDbSpline
 62
253
  6
CONTINUOUS
 70
0
 71
3
 72
13
 73
9
 74
7
 42
0.0000001
 43
0.0000001
 44
0.0000000001
 12
-3.4501666042
 22
56.3287124969
 32
0.0
 13
3.2865855005
 23
56.3384935626
 33
0.0
 40
0.0
 40
0.0
 40
0.0
 40
0.0
 40
0.1563818913
 40
0.3140600568
 40
0.4730729311
 40
0.6376003573
 40
0.8152384215
 40
1.0
 40
1.0
 40
1.0
 40
1.0
 10
-39.3765320337
 20
-33.6124458674
 30
0.0
 10
-39.5563798933
 20
-30.6761823366
 30
0.0
 10
-39.8581054745
 20
-24.7755119172
 30
0.0
 10
-40.1372582918
 20
-15.8801770275
 30
0.0
 10
-40.2457906039
 20
-6.8278596537
 30
0.0
 10
-40.1765758147
 20
2.6003614697
 30
0.0
 10
-39.9058791333
 20
12.5095778113
 30
0.0
 10
-39.5789436087
 20
19.3195725322
 30
0.0
 10
-39.3765320337
 20
22.7893021995
 30
0.0
 11
-39.3765320337
 21
-33.6124458674
 31
0.0
 11
-39.8279989079
 21
-24.7987022452
 31
0.0
 11
-40.1078512284
 21
-15.9046508436
 31
0.0
 11
-40.2161278891
 21
-6.9315276693
 31
0.0
 11
-40.1486703005
 21
2.3532134499
 31
0.0
 11
-39.8757182566
 21
12.3743723965
 31
0.0
 11
-39.3765320337
 21
22.7893021995
 31
0.0
  0
LINE
  5
414
100
AcDbEntity
  8
0
100
AcDbLine
 62
7
  6
CONTINUOUS
 10
-33.3334667186
 20
-37.7863345583
 11
-33.3436042672
 21
-37.5924054278
  0
SPLINE
  5
415
100
AcDbEntity
  8
0
100
AcDbSpline
 62
7
  6
CONTINUOUS
 70
0
 71
3
 72
10
 73
6
 74
4
 42
0.0000001
 43
0.0000001
 44
0.0000000001
 12
-0.0372751548
 22
0.7279293851
 32
0.0
 13
-0.0363293303
 23
0.727977202
 33
0.0
 40
0.0
 40
0.0
 40
0.0
 40
0.0
 40
0.3332339072
 40
0.6665672843
 40
1.0
 40
1.0
 40
1.0
 40
1.0
 10
4.2371380857
 20
-44.5927553153
 30
0.0
 10
4.2329976372
 20
-44.5118983976
 30
0.0
 10
4.2247505649
 20
-44.3501586288
 30
0.0
 10
4.212483234
 20
-44.1075074686
 30
0.0
 10
4.2043738449
 20
-43.9457123748
 30
0.0
 10
4.2003360492
 20
-43.864801903
 30
0.0
 11
4.2371380857
 21
-44.5927553153
 31
0.0
 11
4.2247693081
 21
-44.350181876
 31
0.0
 11
4.2125019602
 21
-44.1075306915
 31
0.0
 11
4.2003360492
 21
-43.864801903
 31
0.0
  0
SPLINE
  5
416
100
AcDbEntity
  8
0
100
AcDbSpline
 62
7
  6
CONTINUOUS
 70
0
 71
3
 72
9
 73
5
 74
3
 42
0.0000001
 43
0.0000001
 44
0.0000000001
 12
-0.0367609553
 22
0.7163519386
 32
0.0
 13
-0.0358443545
 23
0.7163983939
 33
0.0
 40
0.0
 40
0.0
 40
0.0
 40
0.0
 40
0.5418017118
 40
1.0
 40
1.0
 40
1.0
 40
1.0
 10
-34.7644441247
 20
-36.8798128762
 30
0.0
 10
-34.7710831742
 20
-36.7504393073
 30
0.0
 10
-34.7832539501
 20
-36.5116510677
 30
0.0
 10
-34.7952719759
 20
-36.2728550957
 30
0.0
 10
-34.8007465832
 20
-36.1634375898
 30
0.0
 11
-34.7644441247
 21
-36.8798128762
 31
0.0
 11
-34.784226629
 21
-36.4916852835
 31
0.0
 11
-34.8007465832
 21
-36.1634375898
 31
0.0
  0
LINE
  5
417
100
AcDbEntity
  8
0
100
AcDbLine
 62
7
  6
CONTINUOUS
 10
-33.4956902324
 20
-36.361655145
 11
-33.5077582308
 21
-36.1188859617
  0
SPLINE
  5
418
100
AcDbEntity
  8
RACCORDO
100
AcDbSpline
 62
253
  6
CONTINUOUS
 70
0
 71
3
 72
14
 73
10
 74
8
 42
0.0000001
 43
0.0000001
 44
0.0000000001
 12
-1.7424731721
 22
-56.3841304607
 32
0.0
 13
1.8497186455
 23
-56.3807140917
 33
0.0
 40
0.0
 40
0.0
 40
0.0
 40
0.0
 40
0.1401847517
 40
0.2790827078
 40
0.4168944164
 40
0.5550338867
 40
0.6973315366
 40
0.8469749365
 40
1.0
 40
1.0
 40
1.0
 40
1.0
 10
8.0073168841
 20
13.4326304856
 30
0.0
 10
7.9258941611
 20
10.7978987093
 30
0.0
 10
7.7853470493
 20
5.5519272503
 30
0.0
 10
7.6407628568
 20
-2.2859771815
 30
0.0
 10
7.5627540722
 20
-10.0863739164
 30
0.0
 10
7.5518445784
 20
-17.9510833723
 30
0.0
 10
7.6131612794
 20
-26.0380648087
 30
0.0
 10
7.7568620576
 20
-34.4039637418
 30
0.0
 10
7.9129657797
 20
-40.0932301298
 30
0.0
 10
8.0073168841
 20
-42.9691175813
 30
0.0
 11
8.0073168841
 21
13.4326304856
 31
0.0
 11
7.7957395613
 21
5.5274925505
 31
0.0
 11
7.651455913
 21
-2.3065582096
 31
0.0
 11
7.5739622761
 21
-10.0802749323
 31
0.0
 11
7.5634292041
 21
-17.8728601553
 31
0.0
 11
7.6246247174
 21
-25.8997865019
 31
0.0
 11
7.7700351787
 21
-34.3400750926
 31
0.0
 11
8.0073168841
 21
-42.9691175813
 31
0.0
  0
LINE
  5
419
100
AcDbEntity
  8
0
100
AcDbLine
 62
7
  6
CONTINUOUS
 10
5.6230384535
 20
-44.6262748029
 11
5.6132163943
 21
-44.4321586378
  0
SPLINE
  5
41A
100
AcDbEntity
  8
0
100
AcDbSpline
 62
7
  6
CONTINUOUS
 70
0
 71
3
 72
10
 73
6
 74
4
 42
0.0000001
 43
0.0000001
 44
0.0000000001
 12
-0.054515592
 22
1.0178631539
 32
0.0
 13
-0.0526580284
 23
1.0179609432
 33
0.0
 40
0.0
 40
0.0
 40
0.0
 40
0.0
 40
0.3331929933
 40
0.6665264124
 40
1.0
 40
1.0
 40
1.0
 40
1.0
 10
4.3057029734
 20
-45.9016962621
 30
0.0
 10
4.2996482357
 20
-45.7886479717
 30
0.0
 10
4.2876050904
 20
-45.5625000508
 30
0.0
 10
4.2697430507
 20
-45.223195862
 30
0.0
 10
4.2579700878
 20
-44.9969382471
 30
0.0
 10
4.2521167339
 20
-44.8837838845
 30
0.0
 11
4.3057029734
 21
-45.9016962621
 31
0.0
 11
4.2876420192
 21
-45.5625458764
 31
0.0
 11
4.2697799325
 21
-45.2232416214
 31
0.0
 11
4.2521167339
 21
-44.8837838845
 31
0.0
  0
SPLINE
  5
41B
100
AcDbEntity
  8
RACCORDO
100
AcDbSpline
 62
253
  6
CONTINUOUS
 70
0
 71
3
 72
10
 73
6
 74
4
 42
0.0000001
 43
0.0000001
 44
0.0000000001
 12
-0.1574557393
 22
0.1967425008
 32
0.0
 13
-0.242534644
 23
0.0603759179
 33
0.0
 40
0.0
 40
0.0
 40
0.0
 40
0.0
 40
0.0992171209
 40
0.5205867793
 40
1.0
 40
1.0
 40
1.0
 40
1.0
 10
7.7077285707
 20
11.9081556608
 30
0.0
 10
7.7025211357
 20
11.9146624023
 30
0.0
 10
7.6735265108
 20
11.9474671225
 30
0.0
 10
7.6042528588
 20
11.9959709282
 30
0.0
 10
7.5328509762
 20
12.0215753759
 30
0.0
 10
7.4940928712
 20
12.0312237137
 30
0.0
 11
7.7077285707
 21
11.9081556608
 31
0.0
 11
7.6912123874
 21
11.9268923174
 31
0.0
 11
7.6063040735
 21
11.9891978149
 31
0.0
 11
7.4940928712
 21
12.0312237137
 31
0.0
  0
SPLINE
  5
41C
100
AcDbEntity
  8
RACCORDO
100
AcDbSpline
 62
7
  6
CONTINUOUS
 70
0
 71
3
 72
14
 73
10
 74
8
 42
0.0000001
 43
0.0000001
 44
0.0000000001
 12
-1.2620359176
 22
0.2498621437
 32
0.0
 13
-1.261531329
 23
0.249108816
 33
0.0
 40
0.0
 40
0.0
 40
0.0
 40
0.0
 40
0.1159809673
 40
0.2559017111
 40
0.405576774
 40
0.5626516409
 40
0.721036303
 40
0.8695842412
 40
1.0
 40
1.0
 40
1.0
 40
1.0
 10
-3.8195338935
 20
-49.6796240425
 30
0.0
 10
-3.868324609
 20
-49.6699642914
 30
0.0
 10
-3.9751696353
 20
-49.6450870438
 30
0.0
 10
-4.1429524022
 20
-49.5994700831
 30
0.0
 10
-4.3267746957
 20
-49.5459505617
 30
0.0
 10
-4.5180356861
 20
-49.4896647091
 30
0.0
 10
-4.7094395702
 20
-49.4355828894
 30
0.0
 10
-4.891013086
 20
-49.3888759299
 30
0.0
 10
-5.0077990359
 20
-49.3630452765
 30
0.0
 10
-5.0626402244
 20
-49.3522160381
 30
0.0
 11
-3.8195338935
 21
-49.6796240425
 31
0.0
 11
-3.9649726546
 21
-49.6466121669
 31
0.0
 11
-4.1387717605
 21
-49.6000706791
 31
0.0
 11
-4.3237042799
 21
-49.5467502105
 31
0.0
 11
-4.517599311
 21
-49.4901717207
 31
0.0
 11
-4.713715239
 21
-49.4352339058
 31
0.0
 11
-4.8988157284
 21
-49.3880627921
 31
0.0
 11
-5.0626402244
 21
-49.3522160381
 31
0.0
  0
LINE
  5
41D
100
AcDbEntity
  8
0
100
AcDbLine
 62
7
  6
CONTINUOUS
 10
-31.3488252543
 20
-38.1782326222
 11
-31.3589628029
 21
-37.9843034917
  0
SPLINE
  5
41E
100
AcDbEntity
  8
RACCORDO
100
AcDbSpline
 62
253
  6
CONTINUOUS
 70
0
 71
3
 72
12
 73
8
 74
6
 42
0.0000001
 43
0.0000001
 44
0.0000000001
 12
-0.658174858
 22
0.0952724995
 32
0.0
 13
-0.4826553522
 23
-0.4575093485
 33
0.0
 40
0.0
 40
0.0
 40
0.0
 40
0.0
 40
0.1923842047
 40
0.3991718782
 40
0.6099053746
 40
0.813488012
 40
1.0
 40
1.0
 40
1.0
 40
1.0
 10
-38.2346135439
 20
21.061062562
 30
0.0
 10
-38.2768210261
 20
21.0671722033
 30
0.0
 10
-38.365918956
 20
21.0700939204
 30
0.0
 10
-38.500335807
 20
21.0511934977
 30
0.0
 10
-38.6325468206
 20
21.0106421214
 30
0.0
 10
-38.7525167114
 20
20.9515254053
 30
0.0
 10
-38.8225519176
 20
20.8995648743
 30
0.0
 10
-38.8525589206
 20
20.871121215
 30
0.0
 11
-38.2346135439
 21
21.061062562
 31
0.0
 11
-38.3624427833
 21
21.0664364813
 31
0.0
 11
-38.4986954944
 21
21.0478028718
 31
0.0
 11
-38.632655171
 21
21.006627108
 31
0.0
 11
-38.7537854554
 21
20.9461476136
 31
0.0
 11
-38.8525589206
 21
20.871121215
 31
0.0
  0
SPLINE
  5
41F
100
AcDbEntity
  8
RACCORDO
100
AcDbSpline
 62
253
  6
CONTINUOUS
 70
0
 71
3
 72
10
 73
6
 74
4
 42
0.0000001
 43
0.0000001
 44
0.0000000001
 12
-0.2021205837
 22
-0.1492400069
 32
0.0
 13
-0.1829971563
 23
-0.1721550197
 33
0.0
 40
0.0
 40
0.0
 40
0.0
 40
0.0
 40
0.2903684348
 40
0.6280180541
 40
1.0
 40
1.0
 40
1.0
 40
1.0
 10
-39.0033864568
 20
22.5258153802
 30
0.0
 10
-39.0229496026
 20
22.5113705178
 30
0.0
 10
-39.0642548728
 20
22.4787657602
 30
0.0
 10
-39.1278468271
 20
22.4242477033
 30
0.0
 10
-39.1716951528
 20
22.3841137061
 30
0.0
 10
-39.1943856989
 20
22.3627675197
 30
0.0
 11
-39.0033864568
 21
22.5258153802
 31
0.0
 11
-39.0608526272
 21
22.4808712395
 31
0.0
 11
-39.1253741141
 21
22.4257920084
 31
0.0
 11
-39.1943856989
 21
22.3627675197
 31
0.0
  0
SPLINE
  5
420
100
AcDbEntity
  8
RACCORDO
100
AcDbSpline
 62
253
  6
CONTINUOUS
 70
0
 71
3
 72
10
 73
6
 74
4
 42
0.0000001
 43
0.0000001
 44
0.0000000001
 12
-0.1128807251
 22
0.2719076568
 32
0.0
 13
-0.2240058976
 23
0.191042377
 33
0.0
 40
0.0
 40
0.0
 40
0.0
 40
0.0
 40
0.3263189759
 40
0.6614039162
 40
1.0
 40
1.0
 40
1.0
 40
1.0
 10
7.8358568295
 20
13.0759209547
 30
0.0
 10
7.8235784553
 20
13.1054971641
 30
0.0
 10
7.7934742712
 20
13.1633937641
 30
0.0
 10
7.7348912192
 20
13.242556831
 30
0.0
 10
7.6877651941
 20
13.2893575948
 30
0.0
 10
7.6624826876
 20
13.3109196617
 30
0.0
 11
7.8358568295
 21
13.0759209547
 31
0.0
 11
7.7917694352
 21
13.1612784228
 31
0.0
 11
7.7332018879
 21
13.2406633772
 31
0.0
 11
7.6624826876
 21
13.3109196617
 31
0.0
  0
SPLINE
  5
421
100
AcDbEntity
  8
RACCORDO
100
AcDbSpline
 62
253
  6
CONTINUOUS
 70
0
 71
3
 72
12
 73
8
 74
6
 42
0.0000001
 43
0.0000001
 44
0.0000000001
 12
0.6266035613
 22
-0.0831462512
 32
0.0
 13
0.6103639453
 23
-0.1643203471
 33
0.0
 40
0.0
 40
0.0
 40
0.0
 40
0.0
 40
0.1581582443
 40
0.3531740751
 40
0.5698453367
 40
0.7912277066
 40
1.0
 40
1.0
 40
1.0
 40
1.0
 10
-38.8525587519
 20
-31.7071502565
 30
0.0
 10
-38.8195245788
 20
-31.7115336782
 30
0.0
 10
-38.7460402039
 20
-31.7234093156
 30
0.0
 10
-38.6280889527
 20
-31.745877204
 30
0.0
 10
-38.4976284804
 20
-31.773718238
 30
0.0
 10
-38.3649167818
 20
-31.8047546374
 30
0.0
 10
-38.2770890687
 20
-31.8271675358
 30
0.0
 10
-38.2346133751
 20
-31.8386027144
 30
0.0
 11
-38.8525587519
 21
-31.7071502565
 31
0.0
 11
-38.7537856138
 21
-31.7225809393
 31
0.0
 11
-38.6326556302
 21
-31.7454436782
 31
0.0
 11
-38.4986960305
 21
-31.7739402463
 31
0.0
 11
-38.3624430842
 21
-31.8058293082
 31
0.0
 11
-38.2346133751
 21
-31.8386027144
 31
0.0
  0
SPLINE
  5
422
100
AcDbEntity
  8
RACCORDO
100
AcDbSpline
 62
253
  6
CONTINUOUS
 70
0
 71
3
 72
10
 73
6
 74
4
 42
0.0000001
 43
0.0000001
 44
0.0000000001
 12
0.2138215823
 22
-0.2036392427
 32
0.0
 13
0.1659813532
 23
-0.2442105661
 33
0.0
 40
0.0
 40
0.0
 40
0.0
 40
0.0
 40
0.3343341484
 40
0.6715979056
 40
1.0
 40
1.0
 40
1.0
 40
1.0
 10
-39.1943858939
 20
-33.2494059226
 30
0.0
 10
-39.1705566083
 20
-33.2721004402
 30
0.0
 10
-39.1243451463
 20
-33.3194575789
 30
0.0
 10
-39.060510484
 20
-33.3944629418
 30
0.0
 10
-39.021556756
 20
-33.447230818
 30
0.0
 10
-39.0033872147
 20
-33.4739639051
 30
0.0
 11
-39.1943858939
 21
-33.2494059226
 31
0.0
 11
-39.1253745172
 21
-33.3199985122
 31
0.0
 11
-39.0608532215
 21
-33.3958564812
 31
0.0
 11
-39.0033872147
 21
-33.4739639051
 31
0.0
  0
SPLINE
  5
423
100
AcDbEntity
  8
RACCORDO
100
AcDbSpline
 62
253
  6
CONTINUOUS
 70
0
 71
3
 72
10
 73
6
 74
4
 42
0.0000001
 43
0.0000001
 44
0.0000000001
 12
0.2038882966
 22
-0.0259758241
 32
0.0
 13
0.1796464962
 23
-0.0204454294
 33
0.0
 40
0.0
 40
0.0
 40
0.0
 40
0.0
 40
0.5505593673
 40
0.9676240476
 40
1.0
 40
1.0
 40
1.0
 40
1.0
 10
7.4940928032
 20
-40.8684415771
 30
0.0
 10
7.5315103404
 20
-40.8732086549
 30
0.0
 10
7.5953860553
 20
-40.8809939147
 30
0.0
 10
7.6681190113
 20
-40.8922314756
 30
0.0
 10
7.6951332923
 20
-40.8953032926
 30
0.0
 10
7.6970720344
 20
-40.8955239393
 30
0.0
 11
7.4940928032
 21
-40.8684415771
 31
0.0
 11
7.6063035271
 21
-40.8830678389
 31
0.0
 11
7.6912118372
 21
-40.8948504607
 31
0.0
 11
7.6970720344
 21
-40.8955239393
 31
0.0
  0
SPLINE
  5
424
100
AcDbEntity
  8
RACCORDO
100
AcDbSpline
 62
253
  6
CONTINUOUS
 70
0
 71
3
 72
10
 73
6
 74
4
 42
0.0000001
 43
0.0000001
 44
0.0000000001
 12
0.190248387
 22
0.1321511472
 32
0.0
 13
0.1433602047
 23
0.1819511642
 33
0.0
 40
0.0
 40
0.0
 40
0.0
 40
0.0
 40
0.3809867728
 40
0.717816963
 40
1.0
 40
1.0
 40
1.0
 40
1.0
 10
7.6624822337
 20
-42.688859487
 30
0.0
 10
7.68664294
 20
-42.672076874
 30
0.0
 10
7.7312207687
 20
-42.6390402847
 30
0.0
 10
7.7895572678
 20
-42.5883491757
 30
0.0
 10
7.8223718954
 20
-42.5533671198
 30
0.0
 10
7.8358565013
 20
-42.5362526091
 30
0.0
 11
7.6624822337
 21
-42.688859487
 31
0.0
 11
7.7332015617
 21
-42.6360642304
 31
0.0
 11
7.7917691529
 21
-42.5845120681
 31
0.0
 11
7.8358565013
 21
-42.5362526091
 31
0.0
  0
SPLINE
  5
425
100
AcDbEntity
  8
RACCORDO
100
AcDbSpline
 62
7
  6
CONTINUOUS
 70
0
 71
3
 72
14
 73
10
 74
8
 42
0.0000001
 43
0.0000001
 44
0.0000000001
 12
1.2615139089
 22
-0.2491053762
 32
0.0
 13
1.262016534
 23
-0.2498708402
 33
0.0
 40
0.0
 40
0.0
 40
0.0
 40
0.0
 40
0.1304272952
 40
0.2789918158
 40
0.437384794
 40
0.5944494123
 40
0.7440954898
 40
0.8839949647
 40
1.0
 40
1.0
 40
1.0
 40
1.0
 10
-5.0626402244
 20
-47.4728307965
 30
0.0
 10
-5.007794942
 20
-47.4836608433
 30
0.0
 10
-4.8909988719
 20
-47.5094939395
 30
0.0
 10
-4.7094129061
 20
-47.5562048106
 30
0.0
 10
-4.5180057947
 20
-47.6102881921
 30
0.0
 10
-4.3267601807
 20
-47.6665696009
 30
0.0
 10
-4.1429652744
 20
-47.7200809596
 30
0.0
 10
-3.9751958345
 20
-47.7656949653
 30
0.0
 10
-3.8683514033
 20
-47.7905732725
 30
0.0
 10
-3.8195513125
 20
-47.8002353643
 30
0.0
 11
-5.0626402244
 21
-47.4728307965
 31
0.0
 11
-4.8988035478
 21
-47.5086804489
 31
0.0
 11
-4.7136851064
 21
-47.5558567831
 31
0.0
 11
-4.517561754
 21
-47.6107973113
 31
0.0
 11
-4.3236820904
 21
-47.6673714631
 31
0.0
 11
-4.1387879429
 21
-47.7206808888
 31
0.0
 11
-3.9650179054
 21
-47.7672155934
 31
0.0
 11
-3.8195513125
 21
-47.8002353643
 31
0.0
  0
SPLINE
  5
426
100
AcDbEntity
  8
RACCORDO
100
AcDbSpline
 62
253
  6
CONTINUOUS
 70
0
 71
3
 72
10
 73
6
 74
4
 42
0.0000001
 43
0.0000001
 44
0.0000000001
 12
-0.3861987585
 22
0.2444694593
 32
0.0
 13
-0.3602267424
 23
0.281338749
 33
0.0
 40
0.0
 40
0.0
 40
0.0
 40
0.0
 40
0.3182059912
 40
0.6519054676
 40
1.0
 40
1.0
 40
1.0
 40
1.0
 10
-39.0032898766
 20
22.525756584
 30
0.0
 10
-39.0442534629
 20
22.5516871329
 30
0.0
 10
-39.1272545733
 20
22.6062768798
 30
0.0
 10
-39.2518219443
 20
22.6940432492
 30
0.0
 10
-39.3347343805
 20
22.7566580394
 30
0.0
 10
-39.3765320337
 20
22.7893021995
 30
0.0
 11
-39.0032898766
 21
22.525756584
 31
0.0
 11
-39.1248542671
 21
22.6056050519
 31
0.0
 11
-39.2495456439
 21
22.6934449004
 31
0.0
 11
-39.3765320337
 21
22.7893021995
 31
0.0
  0
SPLINE
  5
427
100
AcDbEntity
  8
RACCORDO
100
AcDbSpline
 62
253
  6
CONTINUOUS
 70
0
 71
3
 72
14
 73
10
 74
8
 42
0.0000001
 43
0.0000001
 44
0.0000000001
 12
-0.1538087669
 22
-1.5796802175
 32
0.0
 13
-0.757208506
 23
-1.3948770572
 33
0.0
 40
0.0
 40
0.0
 40
0.0
 40
0.0
 40
0.194533199
 40
0.3706727338
 40
0.5291366865
 40
0.6708530473
 40
0.796670078
 40
0.9065943002
 40
1.0
 40
1.0
 40
1.0
 40
1.0
 10
-38.8525587519
 20
-31.7071502565
 30
0.0
 10
-38.862532389
 20
-31.8095836719
 30
0.0
 10
-38.8844213352
 20
-32.0045009613
 30
0.0
 10
-38.9245426903
 20
-32.2815995488
 30
0.0
 10
-38.9692991374
 20
-32.5296495048
 30
0.0
 10
-39.0180890241
 20
-32.7497458305
 30
0.0
 10
-39.0707029923
 20
-32.9424988189
 30
0.0
 10
-39.1269622663
 20
-33.1074071717
 30
0.0
 10
-39.1708100449
 20
-33.2059761672
 30
0.0
 10
-39.1943859084
 20
-33.2494059898
 30
0.0
 11
-38.8525587519
 21
-31.7071502565
 31
0.0
 11
-38.8872198479
 21
-32.0139520014
 31
0.0
 11
-38.9275647972
 21
-32.2905854259
 31
0.0
 11
-38.9725933517
 21
-32.5380278821
 31
0.0
 11
-39.0217761686
 21
-32.7575099844
 31
0.0
 11
-39.0750357978
 21
-32.9499670789
 31
0.0
 11
-39.1324435065
 21
-33.1147179195
 31
0.0
 11
-39.1943859084
 21
-33.2494059898
 31
0.0
  0
SPLINE
  5
428
100
AcDbEntity
  8
0
100
AcDbSpline
 62
7
  6
CONTINUOUS
 70
0
 71
3
 72
9
 73
5
 74
3
 42
0.0000001
 43
0.0000001
 44
0.0000000001
 12
-0.0367609553
 22
0.7163519386
 32
0.0
 13
-0.0358443545
 23
0.7163983939
 33
0.0
 40
0.0
 40
0.0
 40
0.0
 40
0.0
 40
0.5418017118
 40
1.0
 40
1.0
 40
1.0
 40
1.0
 10
-32.7798026604
 20
-37.2717109401
 30
0.0
 10
-32.7864417099
 20
-37.1423373712
 30
0.0
 10
-32.7986124858
 20
-36.9035491316
 30
0.0
 10
-32.8106305116
 20
-36.6647531596
 30
0.0
 10
-32.8161051189
 20
-36.5553356537
 30
0.0
 11
-32.7798026604
 21
-37.2717109401
 31
0.0
 11
-32.7995851647
 21
-36.8835833474
 31
0.0
 11
-32.8161051189
 21
-36.5553356537
 31
0.0
  0
SPLINE
  5
429
100
AcDbEntity
  8
RACCORDO
100
AcDbSpline
 62
253
  6
CONTINUOUS
 70
0
 71
3
 72
14
 73
10
 74
8
 42
0.0000001
 43
0.0000001
 44
0.0000000001
 12
-0.1615867161
 22
1.5280313614
 32
0.0
 13
-0.6881964331
 23
1.3738179566
 33
0.0
 40
0.0
 40
0.0
 40
0.0
 40
0.0
 40
0.1848808075
 40
0.3552170952
 40
0.5109034354
 40
0.6530532307
 40
0.7821811652
 40
0.8980233482
 40
1.0
 40
1.0
 40
1.0
 40
1.0
 10
-38.8525589206
 20
20.871121215
 30
0.0
 10
-38.8625170148
 20
20.9652891056
 30
0.0
 10
-38.8844335788
 20
21.1459377241
 30
0.0
 10
-38.9243095343
 20
21.4046032642
 30
0.0
 10
-38.9689087444
 20
21.6402625312
 30
0.0
 10
-39.0176992094
 20
21.8534922683
 30
0.0
 10
-39.0705187963
 20
22.0446978635
 30
0.0
 10
-39.1273837421
 20
22.2131449474
 30
0.0
 10
-39.170992393
 20
22.3160683491
 30
0.0
 10
-39.1943857157
 20
22.3627674675
 30
0.0
 11
-38.8525589206
 21
20.871121215
 31
0.0
 11
-38.8869043265
 21
21.1531162336
 31
0.0
 11
-38.9269847886
 21
21.4117595946
 31
0.0
 11
-38.9717453746
 21
21.6467547575
 31
0.0
 11
-39.0208385837
 21
21.8595865109
 31
0.0
 11
-39.0742005228
 21
22.0506878138
 31
0.0
 11
-39.1318930003
 21
22.2190762799
 31
0.0
 11
-39.1943857157
 21
22.3627674675
 31
0.0
  0
SPLINE
  5
42A
100
AcDbEntity
  8
RACCORDO
100
AcDbSpline
 62
253
  6
CONTINUOUS
 70
0
 71
3
 72
10
 73
6
 74
4
 42
0.0000001
 43
0.0000001
 44
0.0000000001
 12
-0.2074811133
 22
0.4150488095
 32
0.0
 13
-0.1585570895
 23
0.4360889543
 33
0.0
 40
0.0
 40
0.0
 40
0.0
 40
0.0
 40
0.31157959
 40
0.6451313077
 40
1.0
 40
1.0
 40
1.0
 40
1.0
 10
-39.1943857157
 20
22.3627674675
 30
0.0
 10
-39.2159346757
 20
22.4058743802
 30
0.0
 10
-39.2586741791
 20
22.4960774817
 30
0.0
 10
-39.3194888245
 20
22.6383270988
 30
0.0
 10
-39.3577763778
 20
22.7377174302
 30
0.0
 10
-39.3765320268
 20
22.7893022025
 30
0.0
 11
-39.1943857157
 21
22.3627674675
 31
0.0
 11
-39.2564007117
 21
22.4933707318
 31
0.0
 11
-39.3173523641
 21
22.6356381682
 31
0.0
 11
-39.3765320268
 21
22.7893022025
 31
0.0
  0
SPLINE
  5
42B
100
AcDbEntity
  8
RACCORDO
100
AcDbSpline
 62
253
  6
CONTINUOUS
 70
0
 71
3
 72
10
 73
6
 74
4
 42
0.0000001
 43
0.0000001
 44
0.0000000001
 12
0.3245016415
 22
-0.3043117244
 32
0.0
 13
0.3621110863
 23
-0.2584231068
 33
0.0
 40
0.0
 40
0.0
 40
0.0
 40
0.0
 40
0.3083659275
 40
0.6415477865
 40
1.0
 40
1.0
 40
1.0
 40
1.0
 10
7.6623180088
 20
-42.6887087583
 30
0.0
 10
7.695673092
 20
-42.7199885474
 30
0.0
 10
7.766739275
 20
-42.7832996102
 30
0.0
 10
7.8818157817
 20
-42.8768885127
 30
0.0
 10
7.9640503773
 20
-42.9382401364
 30
0.0
 10
8.0073168841
 20
-42.9691175813
 30
0.0
 11
7.6623180088
 21
-42.6887087583
 31
0.0
 11
7.7646281984
 21
-42.7800953335
 31
0.0
 11
7.8795212827
 21
-42.8737396531
 31
0.0
 11
8.0073168841
 21
-42.9691175813
 31
0.0
  0
SPLINE
  5
42C
100
AcDbEntity
  8
RACCORDO
100
AcDbSpline
 62
253
  6
CONTINUOUS
 70
0
 71
3
 72
10
 73
6
 74
4
 42
0.0000001
 43
0.0000001
 44
0.0000000001
 12
0.1538756993
 22
0.3647614743
 32
0.0
 13
0.1854917906
 23
0.3497448492
 33
0.0
 40
0.0
 40
0.0
 40
0.0
 40
0.0
 40
0.3006812982
 40
0.6338886488
 40
1.0
 40
1.0
 40
1.0
 40
1.0
 10
7.8358566944
 20
13.0759209332
 30
0.0
 10
7.8512792095
 20
13.1124799178
 30
0.0
 10
7.8852522322
 20
13.1889401165
 30
0.0
 10
7.9423970281
 20
13.3079060925
 30
0.0
 10
7.984680132
 20
13.389948689
 30
0.0
 10
8.0073170153
 20
13.4326305422
 30
0.0
 11
7.8358566944
 21
13.0759209332
 31
0.0
 11
7.8840153591
 21
13.1847807646
 31
0.0
 11
7.9410435942
 21
13.3037299785
 31
0.0
 11
8.0073170153
 21
13.4326305422
 31
0.0
  0
SPLINE
  5
42D
100
AcDbEntity
  8
RACCORDO
100
AcDbSpline
 62
253
  6
CONTINUOUS
 70
0
 71
3
 72
10
 73
6
 74
4
 42
0.0000001
 43
0.0000001
 44
0.0000000001
 12
0.1429913571
 22
-0.4433681174
 32
0.0
 13
0.1975980237
 23
-0.4218730102
 33
0.0
 40
0.0
 40
0.0
 40
0.0
 40
0.0
 40
0.3153967541
 40
0.6490405671
 40
1.0
 40
1.0
 40
1.0
 40
1.0
 10
7.8358563456
 20
-42.5362526591
 30
0.0
 10
7.8508893489
 20
-42.5828649475
 30
0.0
 10
7.8840239645
 20
-42.6780878709
 30
0.0
 10
7.9410640496
 20
-42.8225593739
 30
0.0
 10
7.9842005887
 20
-42.9197641428
 30
0.0
 10
8.0073168854
 20
-42.9691175803
 30
0.0
 11
7.8358563456
 21
-42.5362526591
 31
0.0
 11
7.8840102325
 21
-42.6750671854
 31
0.0
 11
7.9410470142
 21
-42.8196537757
 31
0.0
 11
8.0073168854
 21
-42.9691175803
 31
0.0
  0
LINE
  5
42E
100
AcDbEntity
  8
0
100
AcDbLine
 62
7
  6
CONTINUOUS
 10
-31.51104851
 20
-36.7535532599
 11
-31.5231165084
 21
-36.5107840766
  0
SPLINE
  5
42F
100
AcDbEntity
  8
RACCORDO
100
AcDbSpline
 62
7
  6
CONTINUOUS
 70
0
 71
3
 72
10
 73
6
 74
4
 42
0.0000001
 43
0.0000001
 44
0.0000000001
 12
-0.0061691265
 22
-0.1471433113
 32
0.0
 13
0.1371557356
 23
-0.0271236121
 33
0.0
 40
0.0
 40
0.0
 40
0.0
 40
0.0
 40
0.0731729496
 40
0.4066149317
 40
1.0
 40
1.0
 40
1.0
 40
1.0
 10
-3.4240383776
 20
-49.5121309809
 30
0.0
 10
-3.4241888486
 20
-49.5157199509
 30
0.0
 10
-3.4215464804
 20
-49.535703874
 30
0.0
 10
-3.3653052199
 20
-49.5485949594
 30
0.0
 10
-3.328791273
 20
-49.5608306076
 30
0.0
 10
-3.3016625512
 20
-49.5661955231
 30
0.0
 11
-3.4240383776
 21
-49.5121309809
 31
0.0
 11
-3.4225828164
 21
-49.5224350034
 31
0.0
 11
-3.3819454428
 21
-49.5452812669
 31
0.0
 11
-3.3016625512
 21
-49.5661955231
 31
0.0
  0
SPLINE
  5
430
100
AcDbEntity
  8
RACCORDO
100
AcDbSpline
 62
7
  6
CONTINUOUS
 70
0
 71
3
 72
13
 73
9
 74
7
 42
0.0000001
 43
0.0000001
 44
0.0000000001
 12
-2.6723632012
 22
56.9834911524
 32
0.0
 13
2.5292594863
 23
56.9900222447
 33
0.0
 40
0.0
 40
0.0
 40
0.0
 40
0.0
 40
0.1626804035
 40
0.327088903
 40
0.4931265443
 40
0.6606931859
 40
0.8296863534
 40
1.0
 40
1.0
 40
1.0
 40
1.0
 10
12.3154323605
 20
-44.1210569097
 30
0.0
 10
12.1705186525
 20
-41.0310244648
 30
0.0
 10
11.929490982
 20
-34.8156660576
 30
0.0
 10
11.713898032
 20
-25.4407985824
 30
0.0
 10
11.6424536458
 20
-15.970795368
 30
0.0
 10
11.7152200144
 20
-6.4136319398
 30
0.0
 10
11.9321357934
 20
3.2226493441
 30
0.0
 10
12.1718432251
 20
9.6705093446
 30
0.0
 10
12.3154323605
 20
12.90590218
 30
0.0
 11
12.3154323605
 21
-44.1210569097
 31
0.0
 11
11.9550125584
 21
-34.8477725936
 31
0.0
 11
11.7386376755
 21
-25.4714018996
 31
0.0
 11
11.6664926281
 21
-15.9998734743
 31
0.0
 11
11.7386376755
 21
-6.4411190093
 31
0.0
 11
11.9550125584
 21
3.1968569478
 31
0.0
 11
12.3154323605
 21
12.90590218
 31
0.0
  0
SPLINE
  5
431
100
AcDbEntity
  8
RACCORDO
100
AcDbSpline
 62
253
  6
CONTINUOUS
 70
0
 71
3
 72
12
 73
8
 74
6
 42
0.0000001
 43
0.0000001
 44
0.0000000001
 12
1.0818318419
 22
0.6100905733
 32
0.0
 13
0.0058192346
 23
1.2380194493
 33
0.0
 40
0.0
 40
0.0
 40
0.0
 40
0.0
 40
0.0598739857
 40
0.2820141707
 40
0.5108185761
 40
0.74975358
 40
1.0
 40
1.0
 40
1.0
 40
1.0
 10
15.8696130074
 20
-52.7168074951
 30
0.0
 10
15.8912042022
 20
-52.7046313104
 30
0.0
 10
15.9907471165
 20
-52.6434779951
 30
0.0
 10
16.1499957983
 20
-52.5013428534
 30
0.0
 10
16.3065089469
 20
-52.2597296185
 30
0.0
 10
16.4029582216
 20
-51.9767874388
 30
0.0
 10
16.4242301287
 20
-51.7742246401
 30
0.0
 10
16.4247155429
 20
-51.6709546618
 30
0.0
 11
15.8696130074
 21
-52.7168074951
 31
0.0
 11
15.9329478312
 21
-52.6778840176
 31
0.0
 11
16.138629724
 21
-52.4953209917
 31
0.0
 11
16.2938534531
 21
-52.258369451
 31
0.0
 11
16.3908362558
 21
-51.9789100326
 31
0.0
 11
16.4247155429
 21
-51.6709546618
 31
0.0
  0
SPLINE
  5
432
100
AcDbEntity
  8
RACCORDO
100
AcDbSpline
 62
7
  6
CONTINUOUS
 70
0
 71
3
 72
15
 73
11
 74
9
 42
0.0000001
 43
0.0000001
 44
0.0000000001
 12
-1.388131897
 22
0.2744900476
 32
0.0
 13
-1.388204546
 23
0.2741223962
 33
0.0
 40
0.0
 40
0.0
 40
0.0
 40
0.0
 40
0.0890605835
 40
0.2032940289
 40
0.3340177198
 40
0.4757306138
 40
0.6187204648
 40
0.7563930279
 40
0.8851546148
 40
1.0
 40
1.0
 40
1.0
 40
1.0
 10
-24.374013945
 20
-45.4051347665
 30
0.0
 10
-24.4152232239
 20
-45.3969860185
 30
0.0
 10
-24.5083605697
 20
-45.3738069844
 30
0.0
 10
-24.6593546289
 20
-45.3288048729
 30
0.0
 10
-24.8327690164
 20
-45.2722804229
 30
0.0
 10
-25.0185349274
 20
-45.2099587566
 30
0.0
 10
-25.2077963457
 20
-45.1477384043
 30
0.0
 10
-25.3924091609
 20
-45.091000302
 30
0.0
 10
-25.5659383389
 20
-45.0436406955
 30
0.0
 10
-25.6780382838
 20
-45.0181702695
 30
0.0
 10
-25.7311812457
 20
-45.0076763721
 30
0.0
 11
-24.374013945
 21
-45.4051347665
 31
0.0
 11
-24.4965903536
 21
-45.3758690031
 31
0.0
 11
-24.6517098361
 21
-45.3304164816
 31
0.0
 11
-24.827758242
 21
-45.2736462464
 31
0.0
 11
-25.0180287404
 21
-45.2103413393
 31
0.0
 11
-25.210384422
 21
-45.1475911073
 31
0.0
 11
-25.3967270182
 21
-45.0907875352
 31
0.0
 11
-25.5726152122
 21
-45.0432499523
 31
0.0
 11
-25.7311812457
 21
-45.0076763721
 31
0.0
  0
SPLINE
  5
433
100
AcDbEntity
  8
RACCORDO
100
AcDbSpline
 62
253
  6
CONTINUOUS
 70
0
 71
3
 72
15
 73
11
 74
9
 42
0.0000001
 43
0.0000001
 44
0.0000000001
 12
2.0219611964
 22
-0.4009816307
 32
0.0
 13
1.9008514952
 23
0.7974189245
 33
0.0
 40
0.0
 40
0.0
 40
0.0
 40
0.0
 40
0.1308993178
 40
0.2696901779
 40
0.4115234873
 40
0.5514070857
 40
0.684440206
 40
0.806051819
 40
0.9122596096
 40
1.0
 40
1.0
 40
1.0
 40
1.0
 10
12.3154337052
 20
12.9059027567
 30
0.0
 10
12.4036581523
 20
12.8884066827
 30
0.0
 10
12.5867093382
 20
12.8586769428
 30
0.0
 10
12.8680662837
 20
12.829265809
 30
0.0
 10
13.1567540696
 20
12.8144069551
 30
0.0
 10
13.4418717244
 20
12.8146636885
 30
0.0
 10
13.7126717068
 20
12.8299859389
 30
0.0
 10
13.959061648
 20
12.8596943513
 30
0.0
 10
14.171822623
 20
12.9025198479
 30
0.0
 10
14.299458429
 20
12.9426214468
 30
0.0
 10
14.3550522465
 20
12.965943396
 30
0.0
 11
12.3154337052
 21
12.9059027567
 31
0.0
 11
12.5816674637
 21
12.8620099688
 31
0.0
 11
12.8661801537
 21
12.831963557
 31
0.0
 11
13.1581584754
 21
12.8169054813
 31
0.0
 11
13.4465053803
 21
12.8174080515
 31
0.0
 11
13.720261826
 21
12.8334521758
 31
0.0
 11
13.9690232856
 21
12.8644280844
 31
0.0
 11
14.1833351866
 21
12.9091585033
 31
0.0
 11
14.3550522465
 21
12.965943396
 31
0.0
  0
SPLINE
  5
434
100
AcDbEntity
  8
RACCORDO
100
AcDbSpline
 62
253
  6
CONTINUOUS
 70
0
 71
3
 72
14
 73
10
 74
8
 42
0.0000001
 43
0.0000001
 44
0.0000000001
 12
2.0176240695
 22
-0.4005020522
 32
0.0
 13
1.919986004
 23
0.7381480368
 33
0.0
 40
0.0
 40
0.0
 40
0.0
 40
0.0
 40
0.1507034372
 40
0.3108496936
 40
0.4730489177
 40
0.6297880967
 40
0.7738843866
 40
0.8989581738
 40
1.0
 40
1.0
 40
1.0
 40
1.0
 10
12.6353863323
 20
19.2318051906
 30
0.0
 10
12.7367406264
 20
19.2116861786
 30
0.0
 10
12.9473899228
 20
19.1780123029
 30
0.0
 10
13.2703243646
 20
19.1460522205
 30
0.0
 10
13.598696594
 20
19.1320319137
 30
0.0
 10
13.9163224313
 20
19.1366191218
 30
0.0
 10
14.2077420511
 20
19.1594389958
 30
0.0
 10
14.458666857
 20
19.1991623649
 30
0.0
 10
14.6089879263
 20
19.2398696731
 30
0.0
 10
14.6736542237
 20
19.2647309483
 30
0.0
 11
12.6353863323
 21
19.2318051906
 31
0.0
 11
12.9413569523
 21
19.1820137471
 31
0.0
 11
13.2691416568
 21
19.1492379624
 31
0.0
 11
13.6024843356
 21
19.1351033144
 31
0.0
 11
13.9248532369
 21
19.1403107949
 31
0.0
 11
14.220260841
 21
19.1646021448
 31
0.0
 11
14.4740567432
 21
19.2067726622
 31
0.0
 11
14.6736542237
 21
19.2647309483
 31
0.0
  0
SPLINE
  5
435
100
AcDbEntity
  8
RACCORDO
100
AcDbSpline
 62
253
  6
CONTINUOUS
 70
0
 71
3
 72
14
 73
10
 74
8
 42
0.0000001
 43
0.0000001
 44
0.0000000001
 12
2.2240666365
 22
-0.4482561895
 32
0.0
 13
0.0107227072
 23
-2.2687642095
 33
0.0
 40
0.0
 40
0.0
 40
0.0
 40
0.0
 40
0.1333148773
 40
0.2728112883
 40
0.4172903915
 40
0.5647268869
 40
0.7126397088
 40
0.8584765973
 40
1.0
 40
1.0
 40
1.0
 40
1.0
 10
15.1257269006
 20
24.8897120453
 30
0.0
 10
15.2245606242
 20
24.8697923057
 30
0.0
 10
15.422449947
 20
24.8045562328
 30
0.0
 10
15.6963617229
 20
24.6437791373
 30
0.0
 10
15.9419519835
 20
24.4260013214
 30
0.0
 10
16.1473039261
 20
24.1620330474
 30
0.0
 10
16.302624272
 20
23.8646599548
 30
0.0
 10
16.4003319736
 20
23.5484553627
 30
0.0
 10
16.4242097049
 20
23.3307491885
 30
0.0
 10
16.4247155429
 20
23.2237214449
 30
0.0
 11
15.1257269006
 21
24.8897120453
 31
0.0
 11
15.4134731713
 21
24.7965123019
 31
0.0
 11
15.6871201925
 21
24.6375092781
 31
0.0
 11
15.9329474848
 21
24.4206752796
 31
0.0
 11
16.1386294315
 21
24.1568822188
 31
0.0
 11
16.2938532768
 21
23.859356504
 31
0.0
 11
16.3908362003
 21
23.5430158766
 31
0.0
 11
16.4247155429
 21
23.2237214449
 31
0.0
  0
SPLINE
  5
436
100
AcDbEntity
  8
RACCORDO
100
AcDbSpline
 62
253
  6
CONTINUOUS
 70
0
 71
3
 72
15
 73
11
 74
9
 42
0.0000001
 43
0.0000001
 44
0.0000000001
 12
2.0680143658
 22
-0.4067318213
 32
0.0
 13
1.6927778135
 23
1.2556342882
 33
0.0
 40
0.0
 40
0.0
 40
0.0
 40
0.0
 40
0.1276558081
 40
0.2628579256
 40
0.4014393661
 40
0.5390340458
 40
0.6713332859
 40
0.7943471297
 40
0.9046976018
 40
1.0
 40
1.0
 40
1.0
 40
1.0
 10
12.3154334083
 20
-44.1210561177
 30
0.0
 10
12.4034314233
 20
-44.1383633441
 30
0.0
 10
12.5865857665
 20
-44.1644304358
 30
0.0
 10
12.8685002142
 20
-44.1796999803
 30
0.0
 10
13.1577210495
 20
-44.1720196622
 30
0.0
 10
13.4433955387
 20
-44.1416612878
 30
0.0
 10
13.7148581806
 20
-44.0897943103
 30
0.0
 10
13.9621021437
 20
-44.0183803007
 30
0.0
 10
14.1760127717
 20
-43.9301844005
 30
0.0
 10
14.3012769848
 20
-43.8565027601
 30
0.0
 10
14.3550522465
 20
-43.8166144405
 30
0.0
 11
12.3154334083
 21
-44.1210561177
 31
0.0
 11
12.5816672762
 21
-44.1598922373
 31
0.0
 11
12.8661800812
 21
-44.1757853235
 31
0.0
 11
13.158158506
 21
-44.1681313318
 31
0.0
 11
13.4465054868
 21
-44.1372211559
 31
0.0
 11
13.7202619694
 21
-44.0842295727
 31
0.0
 11
13.9690234218
 21
-44.0111705951
 31
0.0
 11
14.1833352724
 21
-43.9208209285
 31
0.0
 11
14.3550522465
 21
-43.8166144405
 31
0.0
  0
SPLINE
  5
437
100
AcDbEntity
  8
RACCORDO
100
AcDbSpline
 62
253
  6
CONTINUOUS
 70
0
 71
3
 72
15
 73
11
 74
9
 42
0.0000001
 43
0.0000001
 44
0.0000000001
 12
0.2021908761
 22
-3.5029029615
 32
0.0
 13
3.4572143264
 23
-0.679348333
 33
0.0
 40
0.0
 40
0.0
 40
0.0
 40
0.0
 40
0.1817954617
 40
0.350071207
 40
0.5031513255
 40
0.6401510687
 40
0.7615113772
 40
0.86944286
 40
0.9683944754
 40
1.0
 40
1.0
 40
1.0
 40
1.0
 10
-43.3453988329
 20
-39.0210043818
 30
0.0
 10
-43.3331463717
 20
-39.2332750022
 30
0.0
 10
-43.2932999572
 20
-39.641377311
 30
0.0
 10
-43.1814144065
 20
-40.2201054141
 30
0.0
 10
-43.0216652291
 20
-40.7332273766
 30
0.0
 10
-42.8168311655
 20
-41.1707035724
 30
0.0
 10
-42.5698271143
 20
-41.5240124505
 30
0.0
 10
-42.2831368755
 20
-41.7852968294
 30
0.0
 10
-42.0292945736
 20
-41.9109349122
 30
0.0
 10
-41.8803869765
 20
-41.948152766
 30
0.0
 10
-41.843964619
 20
-41.9553098195
 30
0.0
 11
-43.3453988329
 21
-39.0210043818
 31
0.0
 11
-43.2815134757
 21
-39.6556689491
 31
0.0
 11
-43.1669188466
 21
-40.2348763777
 31
0.0
 11
-43.0039982855
 21
-40.7466887621
 31
0.0
 11
-42.7962237058
 21
-41.1801607497
 31
0.0
 11
-42.5479844886
 21
-41.5261387712
 31
0.0
 11
-42.2645405328
 21
-41.7772868079
 31
0.0
 11
-41.9518998225
 21
-41.9282836422
 31
0.0
 11
-41.843964619
 21
-41.9553098195
 31
0.0
  0
SPLINE
  5
438
100
AcDbEntity
  8
RACCORDO
100
AcDbSpline
 62
253
  6
CONTINUOUS
 70
0
 71
3
 72
14
 73
10
 74
8
 42
0.0000001
 43
0.0000001
 44
0.0000000001
 12
2.0732136955
 22
-0.4074225347
 32
0.0
 13
1.6685757019
 23
1.2961725487
 33
0.0
 40
0.0
 40
0.0
 40
0.0
 40
0.0
 40
0.1461617806
 40
0.3013789159
 40
0.4594708816
 40
0.6140313355
 40
0.7589322331
 40
0.8888622063
 40
1.0
 40
1.0
 40
1.0
 40
1.0
 10
12.6353852397
 20
-50.0753760445
 30
0.0
 10
12.7363934415
 20
-50.0952259122
 30
0.0
 10
12.9473369889
 20
-50.1231239808
 30
0.0
 10
13.271249066
 20
-50.13289565
 30
0.0
 10
13.600587361
 20
-50.1118127398
 30
0.0
 10
13.9192917582
 20
-50.0609103682
 30
0.0
 10
14.2120995571
 20
-49.9826830331
 30
0.0
 10
14.4649526518
 20
-49.8810951095
 30
0.0
 10
14.611840283
 20
-49.7934370044
 30
0.0
 10
14.6736542237
 20
-49.7454190853
 30
0.0
 11
12.6353852397
 21
-50.0753760445
 31
0.0
 11
12.9413561224
 21
-50.1172315773
 31
0.0
 11
13.2691411182
 21
-50.1277340658
 31
0.0
 11
13.6024840762
 21
-50.1063626501
 31
0.0
 11
13.9248532043
 21
-50.0541772232
 31
0.0
 11
14.2202609459
 21
-49.973765866
 31
0.0
 11
14.474056866
 21
-49.869116495
 31
0.0
 11
14.6736542237
 21
-49.7454190853
 31
0.0
  0
SPLINE
  5
439
100
AcDbEntity
  8
RACCORDO
100
AcDbSpline
 62
253
  6
CONTINUOUS
 70
0
 71
3
 72
13
 73
9
 74
7
 42
0.0000001
 43
0.0000001
 44
0.0000000001
 12
-0.8687555036
 22
0.1708127016
 32
0.0
 13
0.0482692871
 23
0.9031385742
 33
0.0
 40
0.0
 40
0.0
 40
0.0
 40
0.0
 40
0.2758993912
 40
0.5141169764
 40
0.7081293789
 40
0.855361119
 40
0.9614769302
 40
1.0
 40
1.0
 40
1.0
 40
1.0
 10
-43.6558565548
 20
23.9582970111
 30
0.0
 10
-43.7357529263
 20
23.9740060512
 30
0.0
 10
-43.8838327716
 20
24.0079760142
 30
0.0
 10
-44.0831342802
 20
24.0714023131
 30
0.0
 10
-44.2398409322
 20
24.1422529518
 30
0.0
 10
-44.3486591919
 20
24.2170621869
 30
0.0
 10
-44.4034045763
 20
24.2899219064
 30
0.0
 10
-44.4069201833
 20
24.3335802326
 30
0.0
 10
-44.4063003563
 20
24.3451774561
 30
0.0
 11
-43.6558565548
 21
23.9582970111
 31
0.0
 11
-43.8937119808
 21
24.0139444139
 31
0.0
 11
-44.0941298328
 21
24.0796550363
 31
0.0
 11
-44.2494929326
 21
24.1529314531
 31
0.0
 11
-44.3538964644
 21
24.2309886894
 31
0.0
 11
-44.4033723962
 21
24.3108600669
 31
0.0
 11
-44.4063003563
 21
24.3451774561
 31
0.0
  0
SPLINE
  5
43A
100
AcDbEntity
  8
RACCORDO
100
AcDbSpline
 62
253
  6
CONTINUOUS
 70
0
 71
3
 72
12
 73
8
 74
6
 42
0.0000001
 43
0.0000001
 44
0.0000000001
 12
-0.8596207234
 22
0.1688545541
 32
0.0
 13
0.0089533679
 23
0.8793556946
 33
0.0
 40
0.0
 40
0.0
 40
0.0
 40
0.0
 40
0.3155817383
 40
0.579530201
 40
0.7826502893
 40
0.9238060589
 40
1.0
 40
1.0
 40
1.0
 40
1.0
 10
-43.3453928836
 20
30.2860727271
 30
0.0
 10
-43.435819751
 20
30.3038351983
 30
0.0
 10
-43.6006819561
 20
30.3420756445
 30
0.0
 10
-43.8189417735
 20
30.4134769954
 30
0.0
 10
-43.9770889458
 20
30.4931363525
 30
0.0
 10
-44.0772984084
 20
30.5709903704
 30
0.0
 10
-44.0967200526
 20
30.6374848803
 30
0.0
 10
-44.0964926551
 20
30.659818739
 30
0.0
 11
-43.3453928836
 21
30.2860727271
 31
0.0
 11
-43.6144075123
 21
30.3498210066
 31
0.0
 11
-43.8330922285
 21
30.4249540932
 31
0.0
 11
-43.9906015947
 21
30.5077458406
 31
0.0
 11
-44.0791241001
 21
30.5940902796
 31
0.0
 11
-44.0964926551
 21
30.659818739
 31
0.0
  0
SPLINE
  5
43B
100
AcDbEntity
  8
RACCORDO
100
AcDbSpline
 62
253
  6
CONTINUOUS
 70
0
 71
3
 72
10
 73
6
 74
4
 42
0.0000001
 43
0.0000001
 44
0.0000000001
 12
-0.7978274584
 22
0.1543187922
 32
0.0
 13
-0.6925533099
 23
-0.429852392
 33
0.0
 40
0.0
 40
0.0
 40
0.0
 40
0.0
 40
0.3582085957
 40
0.7028372343
 40
1.0
 40
1.0
 40
1.0
 40
1.0
 10
-40.9071989005
 20
35.9542773743
 30
0.0
 10
-41.002461785
 20
35.9727034802
 30
0.0
 10
-41.1944687433
 20
35.9876471063
 30
0.0
 10
-41.464102161
 20
35.9393005766
 30
0.0
 10
-41.6235370773
 20
35.8654267458
 30
0.0
 10
-41.6921374296
 20
35.8228480372
 30
0.0
 11
-40.9071989005
 21
35.9542773743
 31
0.0
 11
-41.1975296201
 21
35.9752277941
 31
0.0
 11
-41.4729751411
 21
35.9246514255
 31
0.0
 11
-41.6921374296
 21
35.8228480372
 31
0.0
  0
SPLINE
  5
43C
100
AcDbEntity
  8
RACCORDO
100
AcDbSpline
 62
253
  6
CONTINUOUS
 70
0
 71
3
 72
13
 73
9
 74
7
 42
0.0000001
 43
0.0000001
 44
0.0000000001
 12
-0.9357712442
 22
0.1855197539
 32
0.0
 13
-0.0401557495
 23
0.9608174359
 33
0.0
 40
0.0
 40
0.0
 40
0.0
 40
0.0
 40
0.2573202784
 40
0.4834709901
 40
0.674903815
 40
0.8327136387
 40
0.9656971128
 40
1.0
 40
1.0
 40
1.0
 40
1.0
 10
-43.6558562566
 20
-33.0686615107
 30
0.0
 10
-43.7361205623
 20
-33.0527488458
 30
0.0
 10
-43.8856740328
 20
-33.0155600348
 30
0.0
 10
-44.086538547
 20
-32.9379962434
 30
0.0
 10
-44.2449055347
 20
-32.8440908374
 30
0.0
 10
-44.356181182
 20
-32.7355263783
 30
0.0
 10
-44.4007775327
 20
-32.6384339792
 30
0.0
 10
-44.4064101248
 20
-32.5850851208
 30
0.0
 10
-44.4068692775
 20
-32.5740988501
 30
0.0
 11
-43.6558562566
 21
-33.0686615107
 31
0.0
 11
-43.893711596
 21
-33.0079574536
 31
0.0
 11
-44.0941293973
 21
-32.9280935439
 31
0.0
 11
-44.2494924898
 21
-32.8321051167
 31
0.0
 11
-44.3538960589
 21
-32.7236403417
 31
0.0
 11
-44.4033720669
 21
-32.6068215723
 31
0.0
 11
-44.4068692775
 21
-32.5740988501
 31
0.0
  0
SPLINE
  5
43D
100
AcDbEntity
  8
RACCORDO
100
AcDbSpline
 62
253
  6
CONTINUOUS
 70
0
 71
3
 72
12
 73
8
 74
6
 42
0.0000001
 43
0.0000001
 44
0.0000000001
 12
-0.9412623019
 22
0.1867589915
 32
0.0
 13
-0.0593204612
 23
0.9692922914
 33
0.0
 40
0.0
 40
0.0
 40
0.0
 40
0.0
 40
0.2901190169
 40
0.53959196
 40
0.7448689832
 40
0.9116391845
 40
1.0
 40
1.0
 40
1.0
 40
1.0
 10
-43.3453916452
 20
-39.0211070978
 30
0.0
 10
-43.4364176765
 20
-39.0030463194
 30
0.0
 10
-43.6041283149
 20
-38.9599034466
 30
0.0
 10
-43.8243932683
 20
-38.8658198335
 30
0.0
 10
-43.9883292872
 20
-38.7499831566
 30
0.0
 10
-44.0777127326
 20
-38.6272341331
 30
0.0
 10
-44.0949173893
 20
-38.545329428
 30
0.0
 10
-44.0966645908
 20
-38.5167802755
 30
0.0
 11
-43.3453916452
 21
-39.0211070978
 31
0.0
 11
-43.6144060592
 21
-38.9494229588
 31
0.0
 11
-43.8330906714
 21
-38.8520167082
 31
0.0
 11
-43.990600069
 21
-38.7337190973
 31
0.0
 11
-44.0791227536
 21
-38.6003969607
 31
0.0
 11
-44.0966645908
 21
-38.5167802755
 31
0.0
  0
SPLINE
  5
43E
100
AcDbEntity
  8
RACCORDO
100
AcDbSpline
 62
7
  6
CONTINUOUS
 70
0
 71
3
 72
13
 73
9
 74
7
 42
0.0000001
 43
0.0000001
 44
0.0000000001
 12
-0.5027550444
 22
0.0992767369
 32
0.0
 13
-0.022612157
 23
-0.5393352943
 33
0.0
 40
0.0
 40
0.0
 40
0.0
 40
0.0
 40
0.2834666272
 40
0.5344981821
 40
0.7392655716
 40
0.8896602422
 40
0.9774726243
 40
1.0
 40
1.0
 40
1.0
 40
1.0
 10
-2.927042844
 20
-49.5107051808
 30
0.0
 10
-2.9745476029
 20
-49.5013246335
 30
0.0
 10
-3.0648721717
 20
-49.4857452721
 30
0.0
 10
-3.1895778694
 20
-49.4734307154
 30
0.0
 10
-3.2960622612
 20
-49.4700857353
 30
0.0
 10
-3.3651176739
 20
-49.4815287549
 30
0.0
 10
-3.419132635
 20
-49.4882896441
 30
0.0
 10
-3.4238685801
 20
-49.5080810446
 30
0.0
 10
-3.4240383776
 20
-49.5121309809
 30
0.0
 11
-2.927042844
 21
-49.5107051808
 31
0.0
 11
-3.0703081302
 21
-49.4866775121
 31
0.0
 11
-3.1983460363
 21
-49.4742001995
 31
0.0
 11
-3.303279358
 21
-49.4734868496
 31
0.0
 11
-3.3797423189
 21
-49.483154695
 31
0.0
 11
-3.4211793644
 21
-49.5007053741
 31
0.0
 11
-3.4240383776
 21
-49.5121309809
 31
0.0
  0
SPLINE
  5
43F
100
AcDbEntity
  8
RACCORDO
100
AcDbSpline
 62
7
  6
CONTINUOUS
 70
0
 71
3
 72
13
 73
9
 74
7
 42
0.0000001
 43
0.0000001
 44
0.0000000001
 12
-2.6074891938
 22
-56.9876915772
 32
0.0
 13
2.7534790575
 23
-56.9808243559
 33
0.0
 40
0.0
 40
0.0
 40
0.0
 40
0.0
 40
0.170279121
 40
0.3392484221
 40
0.5068041897
 40
0.6728463217
 40
0.8372770907
 40
1.0
 40
1.0
 40
1.0
 40
1.0
 10
-43.6558576018
 20
23.9582965621
 30
0.0
 10
-43.8038579245
 20
20.7236918848
 30
0.0
 10
-44.0509287732
 20
14.2770689879
 30
0.0
 10
-44.2744992327
 20
4.6420345705
 30
0.0
 10
-44.3494935142
 20
-4.914759046
 30
0.0
 10
-44.2758481168
 20
-14.3852689144
 30
0.0
 10
-44.0536270628
 20
-23.7615177655
 30
0.0
 10
-43.8052089762
 20
-29.9779673563
 30
0.0
 10
-43.6558576018
 20
-33.0686625277
 30
0.0
 11
-43.6558576018
 21
23.9582965621
 31
0.0
 11
-44.0273403885
 21
14.2514358871
 31
0.0
 11
-44.2503568377
 21
4.6147714096
 31
0.0
 11
-44.3247163571
 21
-4.9435457738
 31
0.0
 11
-44.2503568377
 21
-14.4155114807
 31
0.0
 11
-44.0273403885
 21
-23.7931936544
 31
0.0
 11
-43.6558576018
 21
-33.0686625277
 31
0.0
  0
SPLINE
  5
440
100
AcDbEntity
  8
RACCORDO
100
AcDbSpline
 62
253
  6
CONTINUOUS
 70
0
 71
3
 72
17
 73
13
 74
11
 42
0.0000001
 43
0.0000001
 44
0.0000000001
 12
0.2470371991
 22
4.4580363506
 32
0.0
 13
3.8338569737
 23
2.288374136
 33
0.0
 40
0.0
 40
0.0
 40
0.0
 40
0.0
 40
0.1118596988
 40
0.2256872659
 40
0.339570503
 40
0.4516310347
 40
0.5600840598
 40
0.6632723848
 40
0.7597562993
 40
0.8484141851
 40
0.9285378578
 40
1.0
 40
1.0
 40
1.0
 40
1.0
 10
14.6736542237
 20
19.2647309483
 30
0.0
 10
14.6828653926
 20
19.4309558161
 30
0.0
 10
14.7140109464
 20
19.7657436308
 30
0.0
 10
14.7960566589
 20
20.2648064326
 30
0.0
 10
14.912384274
 20
20.7573458101
 30
0.0
 10
15.0605462458
 20
21.2329031476
 30
0.0
 10
15.2374207389
 20
21.6815239576
 30
0.0
 10
15.4393121965
 20
22.0938752683
 30
0.0
 10
15.6620146667
 20
22.4614373429
 30
0.0
 10
15.9010639133
 20
22.7767312463
 30
0.0
 10
16.1515630761
 20
23.0332812191
 30
0.0
 10
16.3333903322
 20
23.1692107389
 30
0.0
 10
16.4247155429
 20
23.2237214449
 30
0.0
 11
14.6736542237
 21
19.2647309483
 31
0.0
 11
14.7194839033
 21
19.762063444
 31
0.0
 11
14.8017761071
 21
20.2635827391
 31
0.0
 11
14.9187887092
 21
20.7584103578
 31
0.0
 11
15.0680294873
 21
21.235970463
 31
0.0
 11
15.2463447934
 21
21.6861722502
 31
0.0
 11
15.4499529316
 21
22.0994632554
 31
0.0
 11
15.6745347371
 21
22.4670797789
 31
0.0
 11
15.9153452306
 21
22.7812528426
 31
0.0
 11
16.1672355153
 21
23.0352819691
 31
0.0
 11
16.4247155429
 21
23.2237214449
 31
0.0
  0
SPLINE
  5
441
100
AcDbEntity
  8
RACCORDO
100
AcDbSpline
 62
253
  6
CONTINUOUS
 70
0
 71
3
 72
15
 73
11
 74
9
 42
0.0000001
 43
0.0000001
 44
0.0000000001
 12
-2.741690924
 22
56.7368791428
 32
0.0
 13
2.5963260685
 23
56.7437169644
 33
0.0
 40
0.0
 40
0.0
 40
0.0
 40
0.0
 40
0.121898371
 40
0.2447550025
 40
0.3685314428
 40
0.4931950235
 40
0.6187100702
 40
0.7450402293
 40
0.8721508735
 40
1.0
 40
1.0
 40
1.0
 40
1.0
 10
14.3550522465
 20
-43.8166144405
 30
0.0
 10
14.243649694
 20
-41.5112367269
 30
0.0
 10
14.0488934981
 20
-36.8809114757
 30
0.0
 10
13.8410628169
 20
-29.9059367237
 30
0.0
 10
13.7164454562
 20
-22.8766059979
 30
0.0
 10
13.6750903739
 20
-15.7959625639
 30
0.0
 10
13.7170123323
 20
-8.6669717367
 30
0.0
 10
13.8421966024
 20
-1.4926169814
 30
0.0
 10
14.0505943726
 20
5.7240036983
 30
0.0
 10
14.2444062398
 20
10.5477318471
 30
0.0
 10
14.3550522465
 20
12.965943396
 30
0.0
 11
14.3550522465
 21
-43.8166144405
 31
0.0
 11
14.0637272597
 21
-36.8985423008
 31
0.0
 11
13.8555542607
 21
-29.9230123674
 31
0.0
 11
13.7306207428
 21
-22.8932389323
 31
0.0
 11
13.6889708912
 21
-15.8120856063
 31
0.0
 11
13.730620744
 21
-8.6825655539
 31
0.0
 11
13.8555542633
 21
-1.5077105748
 31
0.0
 11
14.0637272624
 21
5.7095643774
 31
0.0
 11
14.3550522465
 21
12.965943396
 31
0.0
  0
SPLINE
  5
442
100
AcDbEntity
  8
RACCORDO
100
AcDbSpline
 62
253
  6
CONTINUOUS
 70
0
 71
3
 72
17
 73
13
 74
11
 42
0.0000001
 43
0.0000001
 44
0.0000000001
 12
-2.765272348
 22
-1.5606837088
 32
0.0
 13
-0.1877304329
 23
3.1697353331
 33
0.0
 40
0.0
 40
0.0
 40
0.0
 40
0.0
 40
0.0882542946
 40
0.1685029162
 40
0.2451175692
 40
0.3234386338
 40
0.4083726987
 40
0.5033284122
 40
0.6100539707
 40
0.7289524154
 40
0.8594014948
 40
1.0
 40
1.0
 40
1.0
 40
1.0
 10
16.4247155429
 20
-51.6709546618
 30
0.0
 10
16.3433664895
 20
-51.7168670084
 30
0.0
 10
16.1787932694
 20
-51.7901098915
 30
0.0
 10
15.9194737061
 20
-51.8326722913
 30
0.0
 10
15.6689349486
 20
-51.7973154328
 30
0.0
 10
15.4372395356
 20
-51.6846320655
 30
0.0
 10
15.2311824348
 20
-51.5008604478
 30
0.0
 10
15.0535549623
 20
-51.2525720253
 30
0.0
 10
14.9062728678
 20
-50.9454097784
 30
0.0
 10
14.7914455479
 20
-50.5854293026
 30
0.0
 10
14.7110794546
 20
-50.1798735311
 30
0.0
 10
14.6824524297
 20
-49.8939724352
 30
0.0
 10
14.6736542237
 20
-49.7454190853
 30
0.0
 11
16.4247155429
 21
-51.6709546618
 31
0.0
 11
16.1672181297
 21
-51.7815240552
 31
0.0
 11
15.9153275555
 21
-51.820002771
 31
0.0
 11
15.6745172551
 21
-51.7854701484
 31
0.0
 11
15.4499359998
 21
-51.6786478373
 31
0.0
 11
15.2463290231
 21
-51.5017946865
 31
0.0
 11
15.0680165559
 21
-51.2586607924
 31
0.0
 11
14.9187787217
 21
-50.9544062614
 31
0.0
 11
14.8017690255
 21
-50.5954592956
 31
0.0
 11
14.7194795092
 21
-50.1895019594
 31
0.0
 11
14.6736542237
 21
-49.7454190853
 31
0.0
  0
SPLINE
  5
443
100
AcDbEntity
  8
RACCORDO
100
AcDbSpline
 62
253
  6
CONTINUOUS
 70
0
 71
3
 72
17
 73
13
 74
11
 42
0.0000001
 43
0.0000001
 44
0.0000000001
 12
-5.4089498786
 22
-3.3396997446
 32
0.0
 13
-0.3426268719
 23
-6.3476720142
 33
0.0
 40
0.0
 40
0.0
 40
0.0
 40
0.0
 40
0.0707709621
 40
0.1503588118
 40
0.2386948033
 40
0.3350457264
 40
0.4382623945
 40
0.5468767598
 40
0.6592032195
 40
0.7734261719
 40
0.8876349141
 40
1.0
 40
1.0
 40
1.0
 40
1.0
 10
-40.9071432965
 20
35.954311702
 30
0.0
 10
-41.0347421589
 20
35.875527114
 30
0.0
 10
-41.288421953
 20
35.6794548386
 30
0.0
 10
-41.6370604437
 20
35.3110942919
 30
0.0
 10
-41.9696853287
 20
34.8590836785
 30
0.0
 10
-42.2795931486
 20
34.332575483
 30
0.0
 10
-42.5605634736
 20
33.7422606679
 30
0.0
 10
-42.8067375236
 20
33.1003290495
 30
0.0
 10
-43.0129663525
 20
32.4201276155
 30
0.0
 10
-43.174903808
 20
31.7158918431
 30
0.0
 10
-43.2891722929
 20
31.002327319
 30
0.0
 10
-43.3325655082
 20
30.5237182576
 30
0.0
 10
-43.3453986075
 20
30.2859660205
 30
0.0
 11
-40.9071432965
 21
35.954311702
 31
0.0
 11
-41.2659996256
 21
35.6829844752
 31
0.0
 11
-41.6166643704
 21
35.3182895177
 31
0.0
 11
-41.9518991485
 21
34.8677903821
 31
0.0
 11
-42.2645399015
 21
34.3410977745
 31
0.0
 11
-42.5479839463
 21
33.7493391628
 31
0.0
 11
-42.7962232238
 21
33.1050556777
 31
0.0
 11
-43.0039979018
 21
32.4219039417
 31
0.0
 11
-43.1669185165
 21
31.7143124237
 31
0.0
 11
-43.2815132535
 21
30.9973983741
 31
0.0
 11
-43.3453986075
 21
30.2859660205
 31
0.0
  0
SPLINE
  5
444
100
AcDbEntity
  8
RACCORDO
100
AcDbSpline
 62
253
  6
CONTINUOUS
 70
0
 71
3
 72
12
 73
8
 74
6
 42
0.0000001
 43
0.0000001
 44
0.0000000001
 12
0.1926893154
 22
3.4942774727
 32
0.0
 13
1.3828462565
 23
3.2157598069
 33
0.0
 40
0.0
 40
0.0
 40
0.0
 40
0.0
 40
0.2040669529
 40
0.4114995274
 40
0.6190169925
 40
0.8231888967
 40
1.0
 40
1.0
 40
1.0
 40
1.0
 10
12.6353793032
 20
19.2316979849
 30
0.0
 10
12.648486477
 20
19.4693868371
 30
0.0
 10
12.6928110852
 20
19.9478536254
 30
0.0
 10
12.8095397184
 20
20.6610050775
 30
0.0
 10
12.9749665969
 20
21.3646255447
 30
0.0
 10
13.1784658652
 20
22.020879027
 30
0.0
 10
13.3393625677
 20
22.4355516597
 30
0.0
 10
13.4208634251
 20
22.6250790061
 30
0.0
 11
12.6353793032
 21
19.2316979849
 31
0.0
 11
12.7006311127
 21
19.9428606226
 31
0.0
 11
12.8176767339
 21
20.6592907073
 31
0.0
 11
12.9840819057
 21
21.3661941458
 31
0.0
 11
13.196300422
 21
22.0484683774
 31
0.0
 11
13.4208634251
 21
22.6250790061
 31
0.0
  0
SPLINE
  5
445
100
AcDbEntity
  8
RACCORDO
100
AcDbSpline
 62
253
  6
CONTINUOUS
 70
0
 71
3
 72
12
 73
8
 74
6
 42
0.0000001
 43
0.0000001
 44
0.0000000001
 12
1.0581228743
 22
2.0408005748
 32
0.0
 13
1.9703133752
 23
1.1829329628
 33
0.0
 40
0.0
 40
0.0
 40
0.0
 40
0.0
 40
0.0667392576
 40
0.3342619571
 40
0.579993866
 40
0.8019573933
 40
1.0
 40
1.0
 40
1.0
 40
1.0
 10
13.6673132363
 20
23.1468104226
 30
0.0
 10
13.6908526813
 20
23.1922109276
 30
0.0
 10
13.8111029398
 20
23.4183808926
 30
0.0
 10
14.0408207278
 20
23.7994657315
 30
0.0
 10
14.380692046
 20
24.2501340821
 30
0.0
 10
14.7369565355
 20
24.6170500092
 30
0.0
 10
14.9957150193
 20
24.811655761
 30
0.0
 10
15.1257836849
 20
24.8897461369
 30
0.0
 11
13.6673132363
 21
23.1468104226
 31
0.0
 11
13.7393553691
 21
23.2822649715
 31
0.0
 11
14.0586828192
 21
23.8076371876
 31
0.0
 11
14.4010876905
 21
24.2567204777
 31
0.0
 11
14.7592521562
 21
24.6199344997
 31
0.0
 11
15.1257836849
 21
24.8897461369
 31
0.0
  0
SPLINE
  5
446
100
AcDbEntity
  8
RACCORDO
100
AcDbSpline
 62
253
  6
CONTINUOUS
 70
0
 71
3
 72
10
 73
6
 74
4
 42
0.0000001
 43
0.0000001
 44
0.0000000001
 12
-0.5724079524
 22
0.1131312849
 32
0.0
 13
-0.4569017099
 23
0.3613244371
 33
0.0
 40
0.0
 40
0.0
 40
0.0
 40
0.0
 40
0.1928724102
 40
0.8016341766
 40
1.0
 40
1.0
 40
1.0
 40
1.0
 10
14.167781075
 20
-53.0157015604
 30
0.0
 10
14.1309805078
 20
-53.0084282592
 30
0.0
 10
13.9795582092
 20
-52.9706527568
 30
0.0
 10
13.8028573181
 20
-52.8844404829
 30
0.0
 10
13.6760839696
 20
-52.7921096991
 30
0.0
 10
13.6458727416
 20
-52.7682182259
 30
0.0
 11
14.167781075
 21
-53.0157015604
 31
0.0
 11
14.0586821179
 21
-52.9884368313
 31
0.0
 11
13.7393547117
 21
-52.8361196058
 31
0.0
 11
13.6458727416
 21
-52.7682182259
 31
0.0
  0
SPLINE
  5
447
100
AcDbEntity
  8
RACCORDO
100
AcDbSpline
 62
253
  6
CONTINUOUS
 70
0
 71
3
 72
13
 73
9
 74
7
 42
0.0000001
 43
0.0000001
 44
0.0000000001
 12
-2.3022428376
 22
1.8425461014
 32
0.0
 13
-0.1731045815
 23
2.9368806693
 33
0.0
 40
0.0
 40
0.0
 40
0.0
 40
0.0
 40
0.0884661853
 40
0.234552913
 40
0.398871381
 40
0.5820267149
 40
0.783044443
 40
1.0
 40
1.0
 40
1.0
 40
1.0
 10
13.6392081474
 20
-52.7629161081
 30
0.0
 10
13.5713179336
 20
-52.7085817665
 30
0.0
 10
13.4040845199
 20
-52.5484874872
 30
0.0
 10
13.1756536923
 20
-52.2279192804
 30
0.0
 10
12.9662543262
 20
-51.7894425247
 30
0.0
 10
12.8029740399
 20
-51.2754940308
 30
0.0
 10
12.6886320537
 20
-50.6961598544
 30
0.0
 10
12.6478977488
 20
-50.2876632679
 30
0.0
 10
12.6353790818
 20
-50.0752724073
 30
0.0
 11
13.6392081474
 21
-52.7629161081
 31
0.0
 11
13.4498484641
 21
-52.583774476
 31
0.0
 11
13.1962999212
 21
-52.2367480463
 31
0.0
 11
12.9840815072
 21
-51.8023985551
 31
0.0
 11
12.8176763966
 21
-51.2898980927
 31
0.0
 11
12.7006308815
 21
-50.7102066989
 31
0.0
 11
12.6353790818
 21
-50.0752724073
 31
0.0
  0
SPLINE
  5
448
100
AcDbEntity
  8
RACCORDO
100
AcDbSpline
 62
7
  6
CONTINUOUS
 70
0
 71
3
 72
11
 73
7
 74
5
 42
0.0000001
 43
0.0000001
 44
0.0000000001
 12
-0.1939219395
 22
0.0382867994
 32
0.0
 13
-0.1709964469
 23
-0.0984931188
 33
0.0
 40
0.0
 40
0.0
 40
0.0
 40
0.0
 40
0.2299994761
 40
0.4707794657
 40
0.7257277921
 40
1.0
 40
1.0
 40
1.0
 40
1.0
 10
33.285121624
 20
43.8427577019
 30
0.0
 10
33.2702543092
 20
43.8456930165
 30
0.0
 10
33.239196339
 20
43.8485315667
 30
0.0
 10
33.1914507912
 20
43.8432052714
 30
0.0
 10
33.1427686141
 20
43.8283671798
 30
0.0
 10
33.1113924896
 20
43.8129482236
 30
0.0
 10
33.0957592986
 20
43.8039435819
 30
0.0
 11
33.285121624
 21
43.8427577019
 31
0.0
 11
33.2399279381
 21
43.8469643725
 31
0.0
 11
33.1926830535
 21
43.8419139373
 31
0.0
 11
33.1444737733
 21
43.8275279423
 31
0.0
 11
33.0957592986
 21
43.8039435819
 31
0.0
  0
SPLINE
  5
449
100
AcDbEntity
  8
RACCORDO
100
AcDbSpline
 62
7
  6
CONTINUOUS
 70
0
 71
3
 72
20
 73
16
 74
14
 42
0.0000001
 43
0.0000001
 44
0.0000000001
 12
0.788179035
 22
-0.1556134015
 32
0.0
 13
-0.0
 23
-0.8020467702
 33
0.0
 40
0.0
 40
0.0
 40
0.0
 40
0.0
 40
0.0008081447
 40
0.0582322163
 40
0.1175516997
 40
0.1803992298
 40
0.2480318908
 40
0.3212996422
 40
0.4006821959
 40
0.4863499984
 40
0.5782242309
 40
0.6760271312
 40
0.7793219594
 40
0.8875445705
 40
1.0
 40
1.0
 40
1.0
 40
1.0
 10
28.9549946051
 20
44.6978080602
 30
0.0
 10
28.955206926
 20
44.6977661408
 30
0.0
 10
28.9705015654
 20
44.6947228127
 30
0.0
 10
29.0007121857
 20
44.6852676992
 30
0.0
 10
29.0429615869
 20
44.6618268414
 30
0.0
 10
29.0822671985
 20
44.6293403036
 30
0.0
 10
29.1183127263
 20
44.5882365866
 30
0.0
 10
29.1508380037
 20
44.5389553508
 30
0.0
 10
29.1796008845
 20
44.4819675043
 30
0.0
 10
29.2043712844
 20
44.417797699
 30
0.0
 10
29.2249382629
 20
44.3470346905
 30
0.0
 10
29.2411187993
 20
44.2703323208
 30
0.0
 10
29.2527646276
 20
44.1884038184
 30
0.0
 10
29.2597663403
 20
44.1020272241
 30
0.0
 10
29.2612690119
 20
44.0430152872
 30
0.0
 10
29.2612690119
 20
44.0129504492
 30
0.0
 11
28.9549946051
 21
44.6978080602
 31
0.0
 11
28.9556313796
 21
44.6976813545
 31
0.0
 11
28.9996108539
 21
44.6840053226
 31
0.0
 11
29.0413204076
 21
44.6611168087
 31
0.0
 11
29.0803627281
 21
44.6292337656
 31
0.0
 11
29.1163659125
 21
44.5886598489
 31
0.0
 11
29.1489870131
 21
44.5397815236
 31
0.0
 11
29.1779153068
 21
44.4830643801
 31
0.0
 11
29.2028752574
 21
44.4190486958
 31
0.0
 11
29.2236291411
 21
44.3483442839
 31
0.0
 11
29.239979313
 21
44.2716246792
 31
0.0
 11
29.2517700895
 21
44.1896207162
 31
0.0
 11
29.2588892312
 21
44.1031135626
 31
0.0
 11
29.2612690119
 21
44.0129504492
 31
0.0
  0
SPLINE
  5
44A
100
AcDbEntity
  8
RACCORDO
100
AcDbSpline
 62
253
  6
CONTINUOUS
 70
0
 71
3
 72
12
 73
8
 74
6
 42
0.0000001
 43
0.0000001
 44
0.0000000001
 12
-0.0001136425
 22
-0.2221976755
 32
0.0
 13
-0.1895520768
 23
-0.1145877479
 33
0.0
 40
0.0
 40
0.0
 40
0.0
 40
0.0
 40
0.1530668539
 40
0.3268825176
 40
0.5223250089
 40
0.7456269641
 40
1.0
 40
1.0
 40
1.0
 40
1.0
 10
45.0549428233
 20
40.2269520278
 30
0.0
 10
45.054937025
 20
40.2156149947
 30
0.0
 10
45.0513287866
 20
40.1913941922
 30
0.0
 10
45.0350407185
 20
40.1559498671
 30
0.0
 10
45.0078972352
 20
40.1212574251
 30
0.0
 10
44.970691411
 20
40.0880220362
 30
0.0
 10
44.9413714326
 20
40.068249262
 30
0.0
 10
44.9252991202
 20
40.0585332508
 30
0.0
 11
45.0549428233
 21
40.2269520278
 31
0.0
 11
45.0501138844
 21
40.1933786861
 31
0.0
 11
45.0345186739
 21
40.158179328
 31
0.0
 11
45.0083098424
 21
40.1237251167
 31
0.0
 11
44.9717713607
 21
40.0903893609
 31
0.0
 11
44.9252991202
 21
40.0585332508
 31
0.0
  0
SPLINE
  5
44B
100
AcDbEntity
  8
RACCORDO
100
AcDbSpline
 62
253
  6
CONTINUOUS
 70
0
 71
3
 72
12
 73
8
 74
6
 42
0.0000001
 43
0.0000001
 44
0.0000000001
 12
-0.0001206969
 22
-0.2221940587
 32
0.0
 13
-0.1895489748
 23
-0.1145858724
 33
0.0
 40
0.0
 40
0.0
 40
0.0
 40
0.0
 40
0.1530529762
 40
0.3268714866
 40
0.5223171793
 40
0.7456227939
 40
1.0
 40
1.0
 40
1.0
 40
1.0
 10
45.0549428214
 20
-34.3087807734
 30
0.0
 10
45.0549366637
 20
-34.3201165941
 30
0.0
 10
45.051328277
 20
-34.3443360809
 30
0.0
 10
45.0350407204
 20
-34.379779295
 30
0.0
 10
45.007897237
 20
-34.414471738
 30
0.0
 10
44.9706914122
 20
-34.4477071279
 30
0.0
 10
44.9413714331
 20
-34.4674799026
 30
0.0
 10
44.9252991202
 20
-34.477195914
 30
0.0
 11
45.0549428214
 21
-34.3087807734
 31
0.0
 11
45.0501138855
 21
-34.3423504751
 31
0.0
 11
45.0345186757
 21
-34.377549834
 31
0.0
 11
45.0083098443
 21
-34.4120040462
 31
0.0
 11
44.971771362
 21
-34.445339803
 31
0.0
 11
44.9252991202
 21
-34.477195914
 31
0.0
  0
SPLINE
  5
44C
100
AcDbEntity
  8
RACCORDO
100
AcDbSpline
 62
253
  6
CONTINUOUS
 70
0
 71
3
 72
15
 73
11
 74
9
 42
0.0000001
 43
0.0000001
 44
0.0000000001
 12
0.6695285947
 22
0.3779369928
 32
0.0
 13
0.7535340095
 23
-0.1507593342
 33
0.0
 40
0.0
 40
0.0
 40
0.0
 40
0.0
 40
0.002141332
 40
0.14067302
 40
0.2797832078
 40
0.4199824623
 40
0.5617375661
 40
0.7054541076
 40
0.8514612
 40
1.0
 40
1.0
 40
1.0
 40
1.0
 10
-12.8205771242
 20
52.6161701987
 30
0.0
 10
-12.8200992298
 20
52.6164399615
 30
0.0
 10
-12.7886896224
 20
52.6341356969
 30
0.0
 10
-12.7242990932
 20
52.665915256
 30
0.0
 10
-12.6236193845
 20
52.7028323541
 30
0.0
 10
-12.5188098937
 20
52.7291194577
 30
0.0
 10
-12.4106813879
 20
52.7445818754
 30
0.0
 10
-12.3000632694
 20
52.7491098177
 30
0.0
 10
-12.1878168814
 20
52.742681957
 30
0.0
 10
-12.1131113475
 20
52.7312294422
 30
0.0
 10
-12.0758016683
 20
52.7237649054
 30
0.0
 11
-12.8205771242
 21
52.6161701987
 31
0.0
 11
-12.8191427688
 21
52.6169782945
 31
0.0
 11
-12.723685183
 21
52.664105308
 31
0.0
 11
-12.6233300642
 21
52.7009401634
 31
0.0
 11
-12.5188413876
 21
52.7272024529
 31
0.0
 11
-12.4110141577
 21
52.7426923815
 31
0.0
 11
-12.3006685314
 21
52.7472920701
 31
0.0
 11
-12.1886453163
 21
52.7409664849
 31
0.0
 11
-12.0758016683
 21
52.7237649054
 31
0.0
  0
SPLINE
  5
44D
100
AcDbEntity
  8
RACCORDO
100
AcDbSpline
 62
7
  6
CONTINUOUS
 70
0
 71
3
 72
11
 73
7
 74
5
 42
0.0000001
 43
0.0000001
 44
0.0000000001
 12
0.1709964469
 22
0.0984931188
 32
0.0
 13
0.1939219395
 23
-0.0382867994
 33
0.0
 40
0.0
 40
0.0
 40
0.0
 40
0.0
 40
0.2742722079
 40
0.5292205343
 40
0.7700005239
 40
1.0
 40
1.0
 40
1.0
 40
1.0
 10
28.7656322796
 20
44.6589939402
 30
0.0
 10
28.7812654707
 20
44.6679985819
 30
0.0
 10
28.8126415952
 20
44.6834175381
 30
0.0
 10
28.8613237722
 20
44.6982556297
 30
0.0
 10
28.90906932
 20
44.703581925
 30
0.0
 10
28.9401272903
 20
44.7007433748
 30
0.0
 10
28.9549946051
 20
44.6978080602
 30
0.0
 11
28.7656322796
 21
44.6589939402
 31
0.0
 11
28.8143467543
 21
44.6825783007
 31
0.0
 11
28.8625560345
 21
44.6969642956
 31
0.0
 11
28.9098009191
 21
44.7020147308
 31
0.0
 11
28.9549946051
 21
44.6978080602
 31
0.0
  0
SPLINE
  5
44E
100
AcDbEntity
  8
RACCORDO
100
AcDbSpline
 62
7
  6
CONTINUOUS
 70
0
 71
3
 72
12
 73
8
 74
6
 42
0.0000001
 43
0.0000001
 44
0.0000000001
 12
0.1741176629
 22
0.1031466533
 32
0.0
 13
0.1988763729
 23
-0.039294526
 33
0.0
 40
0.0
 40
0.0
 40
0.0
 40
0.0
 40
0.2707504189
 40
0.522097534
 40
0.7590200742
 40
0.9880339951
 40
1.0
 40
1.0
 40
1.0
 40
1.0
 10
28.7612690119
 20
43.8016873007
 30
0.0
 10
28.7769831553
 20
43.8109963005
 30
0.0
 10
28.8085225799
 20
43.8270019844
 30
0.0
 10
28.8575188956
 20
43.8426897946
 30
0.0
 10
28.9058285287
 20
43.8488023696
 30
0.0
 10
28.9382046111
 20
43.846275649
 30
0.0
 10
28.9541971003
 20
43.8432078302
 30
0.0
 10
28.9549903521
 20
43.8430510974
 30
0.0
 11
28.7612690119
 21
43.8016873007
 31
0.0
 11
28.810276419
 21
43.8261944441
 31
0.0
 11
28.858812151
 21
43.8414163176
 31
0.0
 11
28.9064088151
 21
43.8472061747
 31
0.0
 11
28.9526080457
 21
43.8435080763
 31
0.0
 11
28.9549903521
 21
43.8430510974
 31
0.0
  0
SPLINE
  5
44F
100
AcDbEntity
  8
RACCORDO
100
AcDbSpline
 62
253
  6
CONTINUOUS
 70
0
 71
3
 72
25
 73
21
 74
19
 42
0.0000001
 43
0.0000001
 44
0.0000000001
 12
2.2342204707
 22
-0.4353999308
 32
0.0
 13
-0.0069224813
 23
-2.2762395065
 33
0.0
 40
0.0
 40
0.0
 40
0.0
 40
0.0
 40
0.0513369489
 40
0.1035843595
 40
0.1567335053
 40
0.2107504424
 40
0.2655777137
 40
0.3211361976
 40
0.3773277993
 40
0.4340388998
 40
0.4911434588
 40
0.5485060798
 40
0.6059853807
 40
0.6634373935
 40
0.720718703
 40
0.77768967
 40
0.8342181326
 40
0.8901825286
 40
0.9454742953
 40
1.0
 40
1.0
 40
1.0
 40
1.0
 10
43.6263050319
 20
41.7245249123
 30
0.0
 10
43.6645377192
 20
41.7170742109
 30
0.0
 10
43.7410307262
 20
41.6984845066
 30
0.0
 10
43.8538065385
 20
41.6603100746
 30
0.0
 10
43.9648041575
 20
41.6118931062
 30
0.0
 10
44.0731705421
 20
41.5536093923
 30
0.0
 10
44.1780908392
 20
41.4859046803
 30
0.0
 10
44.2787720655
 20
41.4092955063
 30
0.0
 10
44.3744542921
 20
41.3243646411
 30
0.0
 10
44.4644147942
 20
41.2317571451
 30
0.0
 10
44.5479739417
 20
41.1321754726
 30
0.0
 10
44.6245001058
 20
41.026374391
 30
0.0
 10
44.6934144733
 20
40.9151553681
 30
0.0
 10
44.754195409
 20
40.7993605366
 30
0.0
 10
44.806382329
 20
40.6798665709
 30
0.0
 10
44.8495792303
 20
40.5575776589
 30
0.0
 10
44.88345765
 20
40.433419857
 30
0.0
 10
44.9077588633
 20
40.3083297731
 30
0.0
 10
44.9222960013
 20
40.1832666907
 30
0.0
 10
44.9254249163
 20
40.0998974965
 30
0.0
 10
44.9252990986
 20
40.0585263088
 30
0.0
 11
43.6263050319
 21
41.7245249123
 31
0.0
 11
43.7398769473
 21
41.6970170585
 31
0.0
 11
43.8525554956
 21
41.6589716328
 31
0.0
 11
43.9634794777
 21
41.6106786642
 31
0.0
 11
44.0718037383
 21
41.5525061106
 31
0.0
 11
44.1767042976
 21
41.4848965184
 31
0.0
 11
44.2773830448
 21
41.408364262
 31
0.0
 11
44.3730735383
 21
41.3234919528
 31
0.0
 11
44.463047589
 21
41.2309254992
 31
0.0
 11
44.5466206259
 21
41.1313692142
 31
0.0
 11
44.6231566326
 21
41.0255807453
 31
0.0
 11
44.6920731494
 21
40.9143651779
 31
0.0
 11
44.7528458055
 21
40.7985687051
 31
0.0
 11
44.8050120957
 21
40.6790725165
 31
0.0
 11
44.8481748982
 21
40.556786304
 31
0.0
 11
44.8820058272
 21
40.4326404734
 31
0.0
 11
44.9062475061
 21
40.3075793376
 31
0.0
 11
44.9207152235
 21
40.1825557694
 31
0.0
 11
44.9252990986
 21
40.0585263088
 31
0.0
  0
SPLINE
  5
450
100
AcDbEntity
  8
RACCORDO
100
AcDbSpline
 62
253
  6
CONTINUOUS
 70
0
 71
3
 72
18
 73
14
 74
12
 42
0.0000001
 43
0.0000001
 44
0.0000000001
 12
0.0035651884
 22
-1.1676796728
 32
0.0
 13
-0.9747130052
 23
-0.6439959136
 33
0.0
 40
0.0
 40
0.0
 40
0.0
 40
0.0
 40
0.1042508188
 40
0.206735542
 40
0.3074108653
 40
0.4062901858
 40
0.5034450873
 40
0.5990045754
 40
0.6931534119
 40
0.7861287752
 40
0.8782132698
 40
0.9697249697
 40
1.0
 40
1.0
 40
1.0
 40
1.0
 10
44.9252991018
 20
-34.477190036
 30
0.0
 10
44.9254229931
 20
-34.5177672233
 30
0.0
 10
44.9224447712
 20
-34.5982859389
 30
0.0
 10
44.9080503504
 20
-34.7172085887
 30
0.0
 10
44.8838677049
 20
-34.8324136788
 30
0.0
 10
44.8500721172
 20
-34.9430132802
 30
0.0
 10
44.8069114576
 20
-35.048166019
 30
0.0
 10
44.7547050305
 20
-35.147065877
 30
0.0
 10
44.6938424433
 20
-35.2389519984
 30
0.0
 10
44.6247819077
 20
-35.3231139194
 30
0.0
 10
44.54804782
 20
-35.3988983274
 30
0.0
 10
44.4828304002
 20
-35.4508862075
 30
0.0
 10
44.4437254159
 20
-35.4777318297
 30
0.0
 10
44.4338889273
 20
-35.4842308283
 30
0.0
 11
44.9252991018
 21
-34.477190036
 31
0.0
 11
44.9207150525
 21
-34.5988358243
 31
0.0
 11
44.9062471674
 21
-34.7176279195
 31
0.0
 11
44.8820053189
 21
-34.8326583459
 31
0.0
 11
44.8481742242
 21
-34.9430505922
 31
0.0
 11
44.8050112659
 21
-35.0479649828
 31
0.0
 11
44.7528448246
 21
-35.1466032905
 31
0.0
 11
44.6920720214
 21
-35.2382146073
 31
0.0
 11
44.623155368
 21
-35.3221017931
 31
0.0
 11
44.5466192358
 21
-35.397626592
 31
0.0
 11
44.4630460823
 21
-35.4642142364
 31
0.0
 11
44.4338889273
 21
-35.4842308283
 31
0.0
  0
SPLINE
  5
451
100
AcDbEntity
  8
RACCORDO
100
AcDbSpline
 62
253
  6
CONTINUOUS
 70
0
 71
3
 72
11
 73
7
 74
5
 42
0.0000001
 43
0.0000001
 44
0.0000000001
 12
-0.1939607323
 22
0.0382354773
 32
0.0
 13
-0.1709626738
 23
-0.0984736655
 33
0.0
 40
0.0
 40
0.0
 40
0.0
 40
0.0
 40
0.1829625779
 40
0.4379638984
 40
0.7081578199
 40
1.0
 40
1.0
 40
1.0
 40
1.0
 10
43.8156711828
 20
41.7633348567
 30
0.0
 10
43.8038419976
 20
41.7656667438
 30
0.0
 10
43.7750647938
 20
41.7689357159
 30
0.0
 10
43.7282885577
 20
41.7652404424
 30
0.0
 10
43.676345568
 20
41.7503472626
 30
0.0
 10
43.6429418511
 20
41.734103441
 30
0.0
 10
43.6263104779
 20
41.7245238513
 30
0.0
 11
43.8156711828
 21
41.7633348567
 31
0.0
 11
43.7797717357
 21
41.7674286689
 31
0.0
 11
43.729598963
 21
41.7637089055
 31
0.0
 11
43.6782597918
 21
41.7493554602
 31
0.0
 11
43.6263104779
 21
41.7245238513
 31
0.0
  0
SPLINE
  5
452
100
AcDbEntity
  8
RACCORDO
100
AcDbSpline
 62
253
  6
CONTINUOUS
 70
0
 71
3
 72
11
 73
7
 74
5
 42
0.0000001
 43
0.0000001
 44
0.0000000001
 12
-0.193952552
 22
0.0382246296
 32
0.0
 13
-0.1709539016
 23
-0.0984686129
 33
0.0
 40
0.0
 40
0.0
 40
0.0
 40
0.0
 40
0.1829206887
 40
0.4379350841
 40
0.7081428586
 40
1.0
 40
1.0
 40
1.0
 40
1.0
 10
-11.8864572796
 20
52.7625791461
 30
0.0
 10
-11.8982832578
 20
52.7649098379
 30
0.0
 10
-11.9270571097
 20
52.7681777761
 30
0.0
 10
-11.9738299573
 20
52.7644827691
 30
0.0
 10
-12.0257729445
 20
52.7495895893
 30
0.0
 10
-12.0591766598
 20
52.7333457683
 30
0.0
 10
-12.0758080322
 20
52.723766179
 30
0.0
 11
-11.8864572796
 21
52.7625791461
 31
0.0
 11
-11.9223467815
 21
52.7666709968
 31
0.0
 11
-11.9725195521
 21
52.7629512324
 31
0.0
 11
-12.0238587209
 21
52.748597787
 31
0.0
 11
-12.0758080322
 21
52.723766179
 31
0.0
  0
ELLIPSE
  5
453
100
AcDbEntity
  8
DRAFT
100
AcDbEllipse
 62
7
  6
CONTINUOUS
 10
128.4186914621
 20
99.1713994635
 30
0.0
 11
66.499385627
 21
343.6265711523
 31
0.0
 40
0.4627391599
 41
-4.4163964375
 42
-4.2161159444
  0
ELLIPSE
  5
454
100
AcDbEntity
  8
DRAFT
100
AcDbEllipse
 62
7
  6
CONTINUOUS
 10
-40.6223084344
 20
-35.4364172448
 30
0.0
 11
0.9499912232
 21
4.9089510165
 31
0.0
 40
0.4627391599
 41
-4.2161159444
 42
-3.1433010529
  0
ELLIPSE
  5
455
100
AcDbEntity
  8
0
100
AcDbEllipse
 62
7
  6
CONTINUOUS
 10
123.936722555
 20
100.0564333443
 30
0.0
 11
-193.2542382666
 21
370.7315974856
 31
0.0
 40
0.4861778622
 41
-4.5920798853
 42
-4.5916221273
  0
ELLIPSE
  5
456
100
AcDbEntity
  8
0
100
AcDbEllipse
 62
7
  6
CONTINUOUS
 10
133.261393981
 20
98.2151331678
 30
0.0
 11
-62.5430784039
 21
362.1784842292
 31
0.0
 40
0.5277585691
 41
-4.4197261742
 42
-4.4192683962
  0
ELLIPSE
  5
457
100
AcDbEntity
  8
0
100
AcDbEllipse
 62
7
  6
CONTINUOUS
 10
152.0314328723
 20
94.5086995206
 30
0.0
 11
170.5281182154
 21
321.4676612036
 31
0.0
 40
0.3316597928
 41
-4.1197676106
 42
-4.1193097995
  0
ELLIPSE
  5
458
100
AcDbEntity
  8
0
100
AcDbEllipse
 62
7
  6
CONTINUOUS
 10
161.4763750264
 20
92.6436500341
 30
0.0
 11
257.8546532
 21
304.0040326347
 31
0.0
 40
0.1902518542
 41
-4.113303358
 42
-4.1128455267
  0
ELLIPSE
  5
459
100
AcDbEntity
  8
DRAFT
100
AcDbEllipse
 62
7
  6
CONTINUOUS
 10
-40.6232315394
 20
29.3842841075
 30
0.0
 11
0.9499912232
 21
4.9089510165
 31
0.0
 40
0.4627391599
 41
0.6934373403
 42
1.8667888697
  0
ELLIPSE
  5
45A
100
AcDbEntity
  8
0
100
AcDbEllipse
 62
7
  6
CONTINUOUS
 10
127.0879976489
 20
99.4341654786
 30
0.0
 11
-130.0386440779
 21
366.9850282437
 31
0.0
 40
0.5154458938
 41
1.7672890801
 42
1.7678995173
  0
ELLIPSE
  5
45B
100
AcDbEntity
  8
0
100
AcDbEllipse
 62
7
  6
CONTINUOUS
 10
119.9703770388
 20
100.8396494347
 30
0.0
 11
-223.0490106171
 21
372.7939985973
 31
0.0
 40
0.4684052207
 41
-4.6184030625
 42
-4.6177925895
  0
ELLIPSE
  5
45C
100
AcDbEntity
  8
0
100
AcDbEllipse
 62
7
  6
CONTINUOUS
 10
93.7069165875
 20
106.0257747311
 30
0.0
 11
510.8793392859
 21
-413.0600297528
 31
0.0
 40
0.2920152321
 41
-1.5823345773
 42
-1.5818766988
  0
ELLIPSE
  5
45D
100
AcDbEntity
  8
0
100
AcDbEllipse
 62
7
  6
CONTINUOUS
 10
190.3830924287
 20
86.9355728889
 30
0.0
 11
524.8635520386
 21
252.9473527474
 31
0.0
 40
0.0318958473
 41
-2.0233071258
 42
-2.0228492473
  0
ELLIPSE
  5
45E
100
AcDbEntity
  8
0
100
AcDbEllipse
 62
7
  6
CONTINUOUS
 10
121.9520277337
 20
100.4483419443
 30
0.0
 11
-193.2549333935
 21
370.7316420369
 31
0.0
 40
0.4861774711
 41
-4.592080601
 42
-4.591622843
  0
ELLIPSE
  5
45F
100
AcDbEntity
  8
0
100
AcDbEllipse
 62
7
  6
CONTINUOUS
 10
131.2768058737
 20
98.6070206956
 30
0.0
 11
-62.5422927882
 21
362.1784143735
 31
0.0
 40
0.527758571
 41
-4.4197249689
 42
-4.4192671909
  0
ELLIPSE
  5
460
100
AcDbEntity
  8
0
100
AcDbEllipse
 62
7
  6
CONTINUOUS
 10
150.0467373628
 20
94.9006082566
 30
0.0
 11
170.5275936787
 21
321.4677737248
 31
0.0
 40
0.3316606511
 41
-4.1197678625
 42
-4.1193100514
  0
ELLIPSE
  5
461
100
AcDbEntity
  8
0
100
AcDbEllipse
 62
7
  6
CONTINUOUS
 10
159.4917876073
 20
93.035537426
 30
0.0
 11
257.8551414825
 21
304.0039412686
 31
0.0
 40
0.1902511264
 41
-4.1133034923
 42
-4.112845661
  0
ELLIPSE
  5
462
100
AcDbEntity
  8
0
100
AcDbEllipse
 62
7
  6
CONTINUOUS
 10
125.1033561846
 20
99.8260635425
 30
0.0
 11
-130.0386440779
 21
366.9850282437
 31
0.0
 40
0.5154458938
 41
1.7672890801
 42
1.7678995173
  0
ELLIPSE
  5
463
100
AcDbEntity
  8
0
100
AcDbEllipse
 62
7
  6
CONTINUOUS
 10
117.9857355745
 20
101.2315474986
 30
0.0
 11
-223.0490106171
 21
372.7939985973
 31
0.0
 40
0.4684052207
 41
-4.6184030625
 42
-4.6177925895
  0
ELLIPSE
  5
464
100
AcDbEntity
  8
0
100
AcDbEllipse
 62
7
  6
CONTINUOUS
 10
91.7223297706
 20
106.417662004
 30
0.0
 11
510.8787716512
 21
-413.0599242809
 31
0.0
 40
0.292015502
 41
-1.582334539
 42
-1.5818766605
  0
ELLIPSE
  5
465
100
AcDbEntity
  8
0
100
AcDbEllipse
 62
7
  6
CONTINUOUS
 10
188.3983960588
 20
87.3274817948
 30
0.0
 11
524.8630187292
 21
252.9474625079
 31
0.0
 40
0.031895664
 41
-2.0233074196
 42
-2.0228495411
  0
ELLIPSE
  5
466
100
AcDbEntity
  8
0
100
AcDbEllipse
 62
7
  6
CONTINUOUS
 10
129.5477843079
 20
98.9484426684
 30
0.0
 11
-62.5419640843
 21
362.1783851455
 31
0.0
 40
0.5277585717
 41
-4.4227758152
 42
-4.4223181677
  0
ELLIPSE
  5
467
100
AcDbEntity
  8
0
100
AcDbEllipse
 62
7
  6
CONTINUOUS
 10
147.7312955785
 20
95.3578279452
 30
0.0
 11
170.5273314102
 21
321.4678299855
 31
0.0
 40
0.3316610802
 41
-4.1226669986
 42
-4.1222093125
  0
ELLIPSE
  5
468
100
AcDbEntity
  8
0
100
AcDbEllipse
 62
7
  6
CONTINUOUS
 10
170.611951596
 20
90.8396895533
 30
0.0
 11
-62.5400000437
 21
362.1782105039
 31
0.0
 40
0.5277585764
 41
-4.4227728019
 42
-4.4223151545
  0
ELLIPSE
  5
469
100
AcDbEntity
  8
0
100
AcDbEllipse
 62
7
  6
CONTINUOUS
 10
188.7952027491
 20
87.2491261943
 30
0.0
 11
170.5260200658
 21
321.4681112895
 31
0.0
 40
0.3316632259
 41
-4.1226676284
 42
-4.1222099423
  0
ELLIPSE
  5
46A
100
AcDbEntity
  8
0
100
AcDbEllipse
 62
7
  6
CONTINUOUS
 10
168.6976338316
 20
91.2177011181
 30
0.0
 11
-82.108575306
 21
363.7955083111
 31
0.0
 40
0.5266219951
 41
-4.449622686
 42
-4.4464179129
  0
ELLIPSE
  5
46B
100
AcDbEntity
  8
0
100
AcDbEllipse
 62
7
  6
CONTINUOUS
 10
168.0558371958
 20
91.3444337615
 30
0.0
 11
-62.5420736523
 21
362.1783948882
 31
0.0
 40
0.5277585715
 41
-4.4233861501
 42
-4.4192668547
  0
ELLIPSE
  5
46C
100
AcDbEntity
  8
0
100
AcDbEllipse
 62
7
  6
CONTINUOUS
 10
185.9326504865
 20
87.8143812843
 30
0.0
 11
172.4746005843
 21
321.0506634256
 31
0.0
 40
0.3284699681
 41
-4.1238872347
 42
-4.1167159854
  0
ELLIPSE
  5
46D
100
AcDbEntity
  8
0
100
AcDbEllipse
 62
7
  6
CONTINUOUS
 10
168.0407835165
 20
91.3474063426
 30
0.0
 11
-62.5423408663
 21
362.1784186485
 31
0.0
 40
0.5277585708
 41
-4.4186568632
 42
-4.4168254437
  0
ELLIPSE
  5
46E
100
AcDbEntity
  8
0
100
AcDbEllipse
 62
7
  6
CONTINUOUS
 10
184.8907129994
 20
88.0201279097
 30
0.0
 11
177.0393462855
 21
320.0772362576
 31
0.0
 40
0.3209548294
 41
2.1612893073
 42
2.1676974257
  0
ELLIPSE
  5
46F
100
AcDbEntity
  8
0
100
AcDbEllipse
 62
7
  6
CONTINUOUS
 10
163.5847018581
 20
92.227328387
 30
0.0
 11
-81.0545676365
 21
363.7142459229
 31
0.0
 40
0.526737439
 41
-4.4504935872
 42
-4.4448477339
  0
ELLIPSE
  5
470
100
AcDbEntity
  8
0
100
AcDbEllipse
 62
7
  6
CONTINUOUS
 10
181.4498200176
 20
88.6995852938
 30
0.0
 11
172.7589599432
 21
320.9898383567
 31
0.0
 40
0.3280031817
 41
2.1594284396
 42
2.1656839386
  0
ELLIPSE
  5
471
100
AcDbEntity
  8
0
100
AcDbEllipse
 62
7
  6
CONTINUOUS
 10
161.7019765974
 20
92.5991015248
 30
0.0
 11
-65.4626620581
 21
362.4352015904
 31
0.0
 40
0.5277268313
 41
-4.428468451
 42
-4.4212972017
  0
ELLIPSE
  5
472
100
AcDbEntity
  8
0
100
AcDbEllipse
 62
7
  6
CONTINUOUS
 10
127.3586305876
 20
99.3807248312
 30
0.0
 11
-130.0386440779
 21
366.9850282437
 31
0.0
 40
0.5154458938
 41
-4.5158962271
 42
-4.5152857898
  0
ELLIPSE
  5
473
100
AcDbEntity
  8
0
100
AcDbEllipse
 62
7
  6
CONTINUOUS
 10
164.4579221842
 20
92.0548975669
 30
0.0
 11
-72.3089667901
 21
362.862291964
 31
0.0
 40
0.5274584916
 41
-4.4388884776
 42
-4.4327550379
  0
ELLIPSE
  5
474
100
AcDbEntity
  8
DRAFT
100
AcDbEllipse
 62
7
  6
CONTINUOUS
 10
14.6934185429
 20
-46.3593606055
 30
0.0
 11
0.9875737764
 21
4.9015289797
 31
0.0
 40
0.476942715
 41
-4.2125157038
 42
-3.6819556982
  0
ELLIPSE
  5
475
100
AcDbEntity
  8
0
100
AcDbEllipse
 62
7
  6
CONTINUOUS
 10
164.1196319774
 20
92.1216981853
 30
0.0
 11
279.1936016495
 21
300.049671385
 31
0.0
 40
0.1596074836
 41
-4.1199760704
 42
-4.1193655973
  0
ELLIPSE
  5
476
100
AcDbEntity
  8
0
100
AcDbEllipse
 62
7
  6
CONTINUOUS
 10
185.7639296863
 20
87.8476978083
 30
0.0
 11
182.7123237347
 21
318.7236394625
 31
0.0
 40
0.3114306688
 41
-4.1174281118
 42
-4.1124807065
  0
ELLIPSE
  5
477
100
AcDbEntity
  8
0
100
AcDbEllipse
 62
7
  6
CONTINUOUS
 10
154.1548828147
 20
94.089391582
 30
0.0
 11
188.5967439477
 21
317.6429265989
 31
0.0
 40
0.3017729151
 41
-4.112626089
 42
-4.1118630481
  0
ELLIPSE
  5
478
100
AcDbEntity
  8
0
100
AcDbEllipse
 62
7
  6
CONTINUOUS
 10
131.631093388
 20
98.5370611621
 30
0.0
 11
-89.8916894427
 21
364.3771867859
 31
0.0
 40
0.5255854114
 41
-4.4612745202
 42
-4.460511579
  0
ELLIPSE
  5
479
100
AcDbEntity
  8
0
100
AcDbEllipse
 62
7
  6
CONTINUOUS
 10
121.8873587283
 20
100.4611118368
 30
0.0
 11
-223.0490336567
 21
372.7940003263
 31
0.0
 40
0.4684052062
 41
-4.6211497709
 42
-4.6205394575
  0
ELLIPSE
  5
47A
100
AcDbEntity
  8
0
100
AcDbEllipse
 62
7
  6
CONTINUOUS
 10
96.5335247181
 20
105.4676173643
 30
0.0
 11
510.8793827085
 21
-413.0600378211
 31
0.0
 40
0.2920152115
 41
-1.5861494534
 42
-1.5856917413
  0
ELLIPSE
  5
47B
100
AcDbEntity
  8
0
100
AcDbEllipse
 62
7
  6
CONTINUOUS
 10
185.9988188791
 20
87.8013153148
 30
0.0
 11
170.4545310366
 21
321.330063136
 31
0.0
 40
0.3316606686
 41
-4.1192322352
 42
-4.1175894305
  0
ELLIPSE
  5
47C
100
AcDbEntity
  8
0
100
AcDbEllipse
 62
7
  6
CONTINUOUS
 10
168.1069519091
 20
91.3343403731
 30
0.0
 11
-65.4346812772
 21
362.2799442049
 31
0.0
 40
0.5277268301
 41
-4.4284298348
 42
-4.4212554849
  0
ELLIPSE
  5
47D
100
AcDbEntity
  8
0
100
AcDbEllipse
 62
7
  6
CONTINUOUS
 10
187.5564842981
 20
87.4937302558
 30
0.0
 11
524.8635928354
 21
252.947344351
 31
0.0
 40
0.0318958613
 41
-2.0194920638
 42
-2.0190343517
  0
ELLIPSE
  5
47E
100
AcDbEntity
  8
0
100
AcDbEllipse
 62
7
  6
CONTINUOUS
 10
178.7277648738
 20
89.237097061
 30
0.0
 11
432.8684346105
 21
271.4106224556
 31
0.0
 40
0.0109531465
 41
2.0738911021
 42
2.074348847
  0
ELLIPSE
  5
47F
100
AcDbEntity
  8
0
100
AcDbEllipse
 62
7
  6
CONTINUOUS
 10
185.9837651998
 20
87.8042878959
 30
0.0
 11
170.4543527007
 21
321.3301013918
 31
0.0
 40
0.3316609605
 41
-4.1236615291
 42
-4.1200323933
  0
ELLIPSE
  5
480
100
AcDbEntity
  8
0
100
AcDbEllipse
 62
7
  6
CONTINUOUS
 10
168.7149000043
 20
91.214291646
 30
0.0
 11
-86.3059757507
 21
363.9599059957
 31
0.0
 40
0.5260979702
 41
-4.4561086841
 42
-4.4526535467
  0
ELLIPSE
  5
481
100
AcDbEntity
  8
0
100
AcDbEllipse
 62
7
  6
CONTINUOUS
 10
200.5490827689
 20
84.9281413182
 30
0.0
 11
279.0740153295
 21
299.9211306639
 31
0.0
 40
0.1596074604
 41
-4.1231405784
 42
-4.1225300274
  0
ELLIPSE
  5
482
100
AcDbEntity
  8
0
100
AcDbEllipse
 62
7
  6
CONTINUOUS
 10
189.0808706216
 20
87.1927166674
 30
0.0
 11
170.4529687935
 21
321.3303982617
 31
0.0
 40
0.3316632259
 41
-4.1224753677
 42
-4.1220174773
  0
ELLIPSE
  5
483
100
AcDbEntity
  8
0
100
AcDbEllipse
 62
7
  6
CONTINUOUS
 10
170.8825845347
 20
90.7862489059
 30
0.0
 11
-62.5132086685
 21
362.0230577649
 31
0.0
 40
0.5277585764
 41
-4.4227335627
 42
-4.4222757174
  0
ELLIPSE
  5
484
100
AcDbEntity
  8
0
100
AcDbEllipse
 62
7
  6
CONTINUOUS
 10
159.602314275
 20
93.0137122309
 30
0.0
 11
-222.9534821644
 21
372.6342999121
 31
0.0
 40
0.4684052062
 41
-4.6237042413
 42
-4.6230938108
  0
ELLIPSE
  5
485
100
AcDbEntity
  8
0
100
AcDbEllipse
 62
7
  6
CONTINUOUS
 10
143.9153064404
 20
96.11135385
 30
0.0
 11
410.5622689053
 21
-395.3444226316
 31
0.0
 40
0.3455526779
 41
-1.5756706245
 42
-1.5752128239
  0
ELLIPSE
  5
486
100
AcDbEntity
  8
0
100
AcDbEllipse
 62
7
  6
CONTINUOUS
 10
45.807813437
 20
115.4841913394
 30
0.0
 11
1492.9778085147
 21
-612.2533264202
 31
0.0
 40
0.1008816547
 41
-1.5567121509
 42
-1.5565595549
  0
ELLIPSE
  5
487
100
AcDbEntity
  8
0
100
AcDbEllipse
 62
7
  6
CONTINUOUS
 10
125.3739891233
 20
99.7726228951
 30
0.0
 11
-130.0386440779
 21
366.9850282437
 31
0.0
 40
0.5154458938
 41
-4.5158962271
 42
-4.5152857898
  0
ELLIPSE
  5
488
100
AcDbEntity
  8
0
100
AcDbEllipse
 62
7
  6
CONTINUOUS
 10
162.134990255
 20
92.5135963002
 30
0.0
 11
279.1936016495
 21
300.049671385
 31
0.0
 40
0.1596074836
 41
-4.1199760704
 42
-4.1193655973
  0
ELLIPSE
  5
489
100
AcDbEntity
  8
0
100
AcDbEllipse
 62
7
  6
CONTINUOUS
 10
152.1702736743
 20
94.4812832631
 30
0.0
 11
188.5970500569
 21
317.6428627283
 31
0.0
 40
0.3017724052
 41
-4.1126259989
 42
-4.1118629579
  0
ELLIPSE
  5
48A
100
AcDbEntity
  8
0
100
AcDbEllipse
 62
7
  6
CONTINUOUS
 10
262.2508287784
 20
72.7441800156
 30
0.0
 11
907.3184461415
 21
171.2220364894
 31
0.0
 40
0.076849057
 41
4.4106416463
 42
4.4107561853
  0
ELLIPSE
  5
48B
100
AcDbEntity
  8
0
100
AcDbEllipse
 62
7
  6
CONTINUOUS
 10
129.6464198063
 20
98.9289655681
 30
0.0
 11
-89.8921560894
 21
364.3772207299
 31
0.0
 40
0.5255853396
 41
-4.4612752045
 42
-4.4605122633
  0
ELLIPSE
  5
48C
100
AcDbEntity
  8
0
100
AcDbEllipse
 62
7
  6
CONTINUOUS
 10
129.8183912993
 20
98.8950071447
 30
0.0
 11
-62.5155645076
 21
362.0232672447
 31
0.0
 40
0.5277585708
 41
-4.4227371786
 42
-4.4222793333
  0
ELLIPSE
  5
48D
100
AcDbEntity
  8
0
100
AcDbEllipse
 62
7
  6
CONTINUOUS
 10
118.5382953124
 20
101.1224360569
 30
0.0
 11
-222.9532312872
 21
372.6342810848
 31
0.0
 40
0.4684053634
 41
-4.6237040202
 42
-4.6230935897
  0
ELLIPSE
  5
48E
100
AcDbEntity
  8
0
100
AcDbEllipse
 62
7
  6
CONTINUOUS
 10
119.9027170059
 20
100.8530099516
 30
0.0
 11
-223.0490336567
 21
372.7940003263
 31
0.0
 40
0.4684052062
 41
-4.6211497709
 42
-4.6205394575
  0
ELLIPSE
  5
48F
100
AcDbEntity
  8
0
100
AcDbEllipse
 62
7
  6
CONTINUOUS
 10
102.8513195354
 20
104.2200713457
 30
0.0
 11
410.5616887004
 21
-395.3443286715
 31
0.0
 40
0.3455530228
 41
-1.5756705024
 42
-1.5752127018
  0
ELLIPSE
  5
490
100
AcDbEntity
  8
0
100
AcDbEllipse
 62
7
  6
CONTINUOUS
 10
4.7439286002
 20
123.5928886801
 30
0.0
 11
1492.9761188419
 21
-612.2529830417
 31
0.0
 40
0.1008817763
 41
-1.5567122106
 42
-1.5565596147
  0
ELLIPSE
  5
491
100
AcDbEntity
  8
0
100
AcDbEllipse
 62
7
  6
CONTINUOUS
 10
94.5489357505
 20
105.8595050619
 30
0.0
 11
510.8788150738
 21
-413.0599323492
 31
0.0
 40
0.2920154814
 41
-1.5861494151
 42
-1.585691703
  0
ELLIPSE
  5
492
100
AcDbEntity
  8
0
100
AcDbEllipse
 62
7
  6
CONTINUOUS
 10
185.571790079
 20
87.8856387369
 30
0.0
 11
524.863059526
 21
252.9474541115
 31
0.0
 40
0.031895678
 41
-2.0194923576
 42
-2.0190346455
  0
ELLIPSE
  5
493
100
AcDbEntity
  8
DRAFT
100
AcDbEllipse
 62
7
  6
CONTINUOUS
 10
188.9230844482
 20
87.2238739807
 30
0.0
 11
69.1301643452
 21
343.1070285799
 31
0.0
 40
0.476942715
 41
-4.4127961968
 42
-4.2125157038
  0
ELLIPSE
  5
494
100
AcDbEntity
  8
0
100
AcDbEllipse
 62
7
  6
CONTINUOUS
 10
175.6456093466
 20
89.8457162023
 30
0.0
 11
432.683517374
 21
271.2942524221
 31
0.0
 40
0.0109528299
 41
2.0737783675
 42
2.0742363037
  0
ELLIPSE
  5
495
100
AcDbEntity
  8
0
100
AcDbEllipse
 62
7
  6
CONTINUOUS
 10
159.4850247563
 20
93.0368728552
 30
0.0
 11
279.0738320751
 21
299.9211643511
 31
0.0
 40
0.1596077132
 41
-4.1231405071
 42
-4.1225299562
  0
ELLIPSE
  5
496
100
AcDbEntity
  8
0
100
AcDbEllipse
 62
7
  6
CONTINUOUS
 10
148.0169897854
 20
95.3014132181
 30
0.0
 11
170.4545417322
 21
321.3300608416
 31
0.0
 40
0.3316606511
 41
-4.122474612
 42
-4.1220167216
  0
ELLIPSE
  5
497
100
AcDbEntity
  8
0
100
AcDbEllipse
 62
7
  6
CONTINUOUS
 10
176.7431763363
 20
89.6289846737
 30
0.0
 11
432.8689531672
 21
271.4105213874
 31
0.0
 40
0.0109528299
 41
2.0738907823
 42
2.0743485271
  0
ELLIPSE
  5
498
100
AcDbEntity
  8
0
100
AcDbEllipse
 62
7
  6
CONTINUOUS
 10
118.5382953124
 20
101.1224360569
 30
0.0
 11
-223.0487826721
 21
372.793981491
 31
0.0
 40
0.4684053634
 41
-4.6237429958
 42
-4.623132829
  0
ELLIPSE
  5
499
100
AcDbEntity
  8
0
100
AcDbEllipse
 62
7
  6
CONTINUOUS
 10
102.8513195354
 20
104.2200713457
 30
0.0
 11
410.7376437098
 21
-395.5137619552
 31
0.0
 40
0.3455530228
 41
-1.5757092803
 42
-1.5752516774
  0
ELLIPSE
  5
49A
100
AcDbEntity
  8
0
100
AcDbEllipse
 62
7
  6
CONTINUOUS
 10
221.1871067227
 20
80.8528452127
 30
0.0
 11
907.3217799967
 21
171.2213224215
 31
0.0
 40
0.0768490844
 41
4.4106424768
 42
4.4107570154
  0
ELLIPSE
  5
49B
100
AcDbEntity
  8
0
100
AcDbEllipse
 62
7
  6
CONTINUOUS
 10
175.6456093466
 20
89.8457162023
 30
0.0
 11
432.8689531672
 21
271.4105213874
 31
0.0
 40
0.0109528299
 41
2.073738205
 42
2.0741959433
  0
ELLIPSE
  5
49C
100
AcDbEntity
  8
0
100
AcDbEllipse
 62
7
  6
CONTINUOUS
 10
159.4850247563
 20
93.0368728552
 30
0.0
 11
279.193435146
 21
300.0497019929
 31
0.0
 40
0.1596077132
 41
-4.1231804058
 42
-4.1225701186
  0
ELLIPSE
  5
49D
100
AcDbEntity
  8
0
100
AcDbEllipse
 62
7
  6
CONTINUOUS
 10
148.0169897854
 20
95.3014132181
 30
0.0
 11
170.5275936787
 21
321.4677737248
 31
0.0
 40
0.3316606511
 41
-4.1225143128
 42
-4.1220566202
  0
ELLIPSE
  5
49E
100
AcDbEntity
  8
0
100
AcDbEllipse
 62
7
  6
CONTINUOUS
 10
129.8183912993
 20
98.8950071447
 30
0.0
 11
-62.5423568924
 21
362.1784200735
 31
0.0
 40
0.5277585708
 41
-4.4227764178
 42
-4.4223187703
  0
ELLIPSE
  5
49F
100
AcDbEntity
  8
0
100
AcDbEllipse
 62
7
  6
CONTINUOUS
 10
254.619353913
 20
74.251132419
 30
0.0
 11
1199.9793863053
 21
109.1647089518
 31
0.0
 40
0.0733829652
 41
-1.8203593743
 42
-1.8202066889
  0
ELLIPSE
  5
4A0
100
AcDbEntity
  8
0
100
AcDbEllipse
 62
7
  6
CONTINUOUS
 10
25.5015353427
 20
119.4939791088
 30
0.0
 11
1197.941524609
 21
-552.0718785816
 31
0.0
 40
0.1273987989
 41
-1.5621264208
 42
-1.5619737355
  0
ELLIPSE
  5
4A1
100
AcDbEntity
  8
0
100
AcDbEllipse
 62
7
  6
CONTINUOUS
 10
96.9034252277
 20
105.3945748041
 30
0.0
 11
460.8853551407
 21
-403.8654197958
 31
0.0
 40
0.3171396067
 41
-1.5781927334
 42
-1.5778873694
  0
ELLIPSE
  5
4A2
100
AcDbEntity
  8
0
100
AcDbEllipse
 62
7
  6
CONTINUOUS
 10
125.3739891233
 20
99.7726228951
 30
0.0
 11
-129.9829371049
 21
366.8278163224
 31
0.0
 40
0.5154458938
 41
-4.5158552068
 42
-4.5152445056
  0
ELLIPSE
  5
4A3
100
AcDbEntity
  8
0
100
AcDbEllipse
 62
7
  6
CONTINUOUS
 10
162.134990255
 20
92.5135963002
 30
0.0
 11
279.0739985073
 21
299.9211337563
 31
0.0
 40
0.1596074836
 41
-4.1199347861
 42
-4.1193240489
  0
ELLIPSE
  5
4A4
100
AcDbEntity
  8
0
100
AcDbEllipse
 62
7
  6
CONTINUOUS
 10
152.1702736743
 20
94.4812832631
 30
0.0
 11
188.5162573752
 21
317.5067883905
 31
0.0
 40
0.3017724052
 41
-4.1125850446
 42
-4.1118216737
  0
ELLIPSE
  5
4A5
100
AcDbEntity
  8
0
100
AcDbEllipse
 62
7
  6
CONTINUOUS
 10
129.6464198063
 20
98.9289655681
 30
0.0
 11
-89.8536473834
 21
364.2211259616
 31
0.0
 40
0.5255853396
 41
-4.4612348441
 42
-4.460471573
  0
ELLIPSE
  5
4A6
100
AcDbEntity
  8
0
100
AcDbEllipse
 62
7
  6
CONTINUOUS
 10
119.9027170059
 20
100.8530099516
 30
0.0
 11
-222.9534821644
 21
372.6342999121
 31
0.0
 40
0.4684052062
 41
-4.6211096743
 42
-4.6204990972
  0
ELLIPSE
  5
4A7
100
AcDbEntity
  8
0
100
AcDbEllipse
 62
7
  6
CONTINUOUS
 10
94.5489357505
 20
105.8595050619
 30
0.0
 11
510.6599608048
 21
-412.8829824995
 31
0.0
 40
0.2920154814
 41
-1.5861095165
 42
-1.5856516065
  0
ELLIPSE
  5
4A8
100
AcDbEntity
  8
0
100
AcDbEllipse
 62
7
  6
CONTINUOUS
 10
2.8042360095
 20
123.9759108958
 30
0.0
 11
1492.9778085147
 21
-612.2533264202
 31
0.0
 40
0.1008816547
 41
-1.5541177296
 42
-1.5539650973
  0
ELLIPSE
  5
4A9
100
AcDbEntity
  8
0
100
AcDbEllipse
 62
7
  6
CONTINUOUS
 10
277.31633233
 20
69.7692640019
 30
0.0
 11
1494.2498451122
 21
47.9632898729
 31
0.0
 40
0.0660229559
 41
-1.7831693159
 42
-1.7830166836
  0
ELLIPSE
  5
4AA
100
AcDbEntity
  8
0
100
AcDbEllipse
 62
7
  6
CONTINUOUS
 10
185.571790079
 20
87.8856387369
 30
0.0
 11
524.6382145769
 21
252.8390944995
 31
0.0
 40
0.031895678
 41
-2.0195324541
 42
-2.0190745441
  0
ELLIPSE
  5
4AB
100
AcDbEntity
  8
0
100
AcDbEllipse
 62
7
  6
CONTINUOUS
 10
168.7149000043
 20
91.214291646
 30
0.0
 11
-86.342964026
 21
364.1158888126
 31
0.0
 40
0.5260979702
 41
-4.4562052978
 42
-4.4526953592
  0
ELLIPSE
  5
4AC
100
AcDbEntity
  8
0
100
AcDbEllipse
 62
7
  6
CONTINUOUS
 10
200.5490827689
 20
84.9281413182
 30
0.0
 11
279.1936184789
 21
300.0496682913
 31
0.0
 40
0.1596074604
 41
-4.123180477
 42
-4.1225701899
  0
ELLIPSE
  5
4AD
100
AcDbEntity
  8
0
100
AcDbEllipse
 62
7
  6
CONTINUOUS
 10
189.0808706216
 20
87.1927166674
 30
0.0
 11
170.5260200658
 21
321.4681112895
 31
0.0
 40
0.3316632259
 41
-4.1225150685
 42
-4.1220573759
  0
ELLIPSE
  5
4AE
100
AcDbEntity
  8
0
100
AcDbEllipse
 62
7
  6
CONTINUOUS
 10
170.8825845347
 20
90.7862489059
 30
0.0
 11
-62.5400000437
 21
362.1782105039
 31
0.0
 40
0.5277585764
 41
-4.4227728019
 42
-4.4223151545
  0
ELLIPSE
  5
4AF
100
AcDbEntity
  8
0
100
AcDbEllipse
 62
7
  6
CONTINUOUS
 10
159.602314275
 20
93.0137122309
 30
0.0
 11
-223.0490336567
 21
372.7940003263
 31
0.0
 40
0.4684052062
 41
-4.6237432169
 42
-4.6231330501
  0
ELLIPSE
  5
4B0
100
AcDbEntity
  8
0
100
AcDbEllipse
 62
7
  6
CONTINUOUS
 10
143.9153064404
 20
96.11135385
 30
0.0
 11
410.7382241634
 21
-395.5138559556
 31
0.0
 40
0.3455526779
 41
-1.5757094023
 42
-1.5752517995
  0
ELLIPSE
  5
4B1
100
AcDbEntity
  8
0
100
AcDbEllipse
 62
7
  6
CONTINUOUS
 10
181.692729354
 20
88.6516190992
 30
0.0
 11
172.4006645309
 21
320.9131399316
 31
0.0
 40
0.3284700503
 41
-4.1238485458
 42
-4.1166741959
  0
ELLIPSE
  5
4B2
100
AcDbEntity
  8
0
100
AcDbEllipse
 62
7
  6
CONTINUOUS
 10
185.9837651998
 20
87.8042878959
 30
0.0
 11
170.5274045661
 21
321.4678142924
 31
0.0
 40
0.3316609605
 41
-4.124192445
 42
-4.1200731496
  0
ELLIPSE
  5
4B3
100
AcDbEntity
  8
0
100
AcDbEllipse
 62
7
  6
CONTINUOUS
 10
185.9988188791
 20
87.8013153148
 30
0.0
 11
170.5275829785
 21
321.4677760202
 31
0.0
 40
0.3316606686
 41
-4.1194626624
 42
-4.117631243
  0
ELLIPSE
  5
4B4
100
AcDbEntity
  8
0
100
AcDbEllipse
 62
7
  6
CONTINUOUS
 10
256.6041590616
 20
73.8592020331
 30
0.0
 11
1199.9810666574
 21
109.1643563189
 31
0.0
 40
0.0733829269
 41
-1.8203591335
 42
-1.8202064481
  0
ELLIPSE
  5
4B5
100
AcDbEntity
  8
0
100
AcDbEllipse
 62
7
  6
CONTINUOUS
 10
168.1069519091
 20
91.3343403731
 30
0.0
 11
-65.462724712
 21
362.4352070381
 31
0.0
 40
0.5277268301
 41
-4.4284685467
 42
-4.4212972974
  0
ELLIPSE
  5
4B6
100
AcDbEntity
  8
0
100
AcDbEllipse
 62
7
  6
CONTINUOUS
 10
27.486176807
 20
119.1020810449
 30
0.0
 11
1197.941524609
 21
-552.0718785816
 31
0.0
 40
0.1273987989
 41
-1.5621264208
 42
-1.5619737355
  0
ELLIPSE
  5
4B7
100
AcDbEntity
  8
0
100
AcDbEllipse
 62
7
  6
CONTINUOUS
 10
98.8880666921
 20
105.0026767402
 30
0.0
 11
460.8853551407
 21
-403.8654197958
 31
0.0
 40
0.3171396067
 41
-1.5781927334
 42
-1.5778873694
  0
ELLIPSE
  5
4B8
100
AcDbEntity
  8
0
100
AcDbEllipse
 62
7
  6
CONTINUOUS
 10
164.4579221842
 20
92.0548975669
 30
0.0
 11
-72.3399563473
 21
363.0178043748
 31
0.0
 40
0.5274584916
 41
-4.4389271896
 42
-4.4325190712
  0
ELLIPSE
  5
4B9
100
AcDbEntity
  8
0
100
AcDbEllipse
 62
7
  6
CONTINUOUS
 10
127.3586305876
 20
99.3807248312
 30
0.0
 11
-129.9829371049
 21
366.8278163224
 31
0.0
 40
0.5154458938
 41
-4.5158552068
 42
-4.5152445056
  0
ELLIPSE
  5
4BA
100
AcDbEntity
  8
0
100
AcDbEllipse
 62
7
  6
CONTINUOUS
 10
161.9448867468
 20
92.5511351696
 30
0.0
 11
-65.8617096436
 21
362.3170135892
 31
0.0
 40
0.5277180435
 41
-4.4290825313
 42
-4.4231188412
  0
ELLIPSE
  5
4BB
100
AcDbEntity
  8
0
100
AcDbEllipse
 62
7
  6
CONTINUOUS
 10
185.7639296863
 20
87.8476978083
 30
0.0
 11
182.7906290163
 21
318.860235308
 31
0.0
 40
0.3114306688
 41
-4.1181683723
 42
-4.112522519
  0
ELLIPSE
  5
4BC
100
AcDbEntity
  8
0
100
AcDbEllipse
 62
7
  6
CONTINUOUS
 10
164.1196319774
 20
92.1216981853
 30
0.0
 11
279.0739985073
 21
299.9211337563
 31
0.0
 40
0.1596074836
 41
-4.1199347861
 42
-4.1193240489
  0
ELLIPSE
  5
4BD
100
AcDbEntity
  8
0
100
AcDbEllipse
 62
7
  6
CONTINUOUS
 10
154.1548828147
 20
94.089391582
 30
0.0
 11
188.5159513971
 21
317.5068522337
 31
0.0
 40
0.3017729151
 41
-4.1125851348
 42
-4.1118217638
  0
ELLIPSE
  5
4BE
100
AcDbEntity
  8
0
100
AcDbEllipse
 62
7
  6
CONTINUOUS
 10
161.9448867468
 20
92.5511351696
 30
0.0
 11
-65.8899360906
 21
362.4722923093
 31
0.0
 40
0.5277180435
 41
-4.4291212433
 42
-4.4228657442
  0
ELLIPSE
  5
4BF
100
AcDbEntity
  8
0
100
AcDbEllipse
 62
7
  6
CONTINUOUS
 10
131.631093388
 20
98.5370611621
 30
0.0
 11
-89.8531809366
 21
364.2210920321
 31
0.0
 40
0.5255854114
 41
-4.4612341599
 42
-4.4604708887
  0
ELLIPSE
  5
4C0
100
AcDbEntity
  8
0
100
AcDbEllipse
 62
7
  6
CONTINUOUS
 10
181.692729354
 20
88.6516190992
 30
0.0
 11
172.47455053
 21
321.0506741345
 31
0.0
 40
0.3284700503
 41
-4.1238872577
 42
-4.1167160084
  0
ELLIPSE
  5
4C1
100
AcDbEntity
  8
0
100
AcDbEllipse
 62
7
  6
CONTINUOUS
 10
121.8873587283
 20
100.4611118368
 30
0.0
 11
-222.9534821644
 21
372.6342999121
 31
0.0
 40
0.4684052062
 41
-4.6211096743
 42
-4.6204990972
  0
ELLIPSE
  5
4C2
100
AcDbEntity
  8
0
100
AcDbEllipse
 62
7
  6
CONTINUOUS
 10
96.5335247181
 20
105.4676173643
 30
0.0
 11
510.6605281964
 21
-412.8830879263
 31
0.0
 40
0.2920152115
 41
-1.5861095547
 42
-1.5856516448
  0
ELLIPSE
  5
4C3
100
AcDbEntity
  8
0
100
AcDbEllipse
 62
7
  6
CONTINUOUS
 10
4.7888774738
 20
123.5840128319
 30
0.0
 11
1492.9778085147
 21
-612.2533264202
 31
0.0
 40
0.1008816547
 41
-1.5541177296
 42
-1.5539650973
  0
ELLIPSE
  5
4C4
100
AcDbEntity
  8
0
100
AcDbEllipse
 62
7
  6
CONTINUOUS
 10
279.3008165624
 20
69.3773969858
 30
0.0
 11
1494.2481584726
 21
47.9636378509
 31
0.0
 40
0.0660229988
 41
-1.7831694682
 42
-1.7830168359
  0
ELLIPSE
  5
4C5
100
AcDbEntity
  8
0
100
AcDbEllipse
 62
7
  6
CONTINUOUS
 10
187.5564842981
 20
87.4937302558
 30
0.0
 11
524.6387476578
 21
252.8389847861
 31
0.0
 40
0.0318958613
 41
-2.0195321603
 42
-2.0190742503
  0
ELLIPSE
  5
4C6
100
AcDbEntity
  8
DRAFT
100
AcDbEllipse
 62
7
  6
CONTINUOUS
 10
14.6924671035
 20
18.4613463419
 30
0.0
 11
0.9875737764
 21
4.9015289797
 31
0.0
 40
0.476942715
 41
1.2724374043
 42
1.8703891103
  0
ELLIPSE
  5
4C7
100
AcDbEntity
  8
RACCORDO
100
AcDbEllipse
 62
7
  6
CONTINUOUS
 10
23.8166641128
 20
-46.5084232665
 30
0.0
 11
-0.7646456168
 21
1.2906012184
 31
0.0
 40
0.813738708
 41
-3.1587621934
 42
-2.2001248547
  0
ELLIPSE
  5
4C8
100
AcDbEntity
  8
RACCORDO
100
AcDbEllipse
 62
7
  6
CONTINUOUS
 10
23.8166641128
 20
28.6668790505
 30
0.0
 11
-0.7644446732
 21
1.2905939075
 31
0.0
 40
0.8138566568
 41
-2.1999335318
 42
-0.6292133575
  0
ELLIPSE
  5
4C9
100
AcDbEntity
  8
DRAFT
100
AcDbEllipse
 62
7
  6
CONTINUOUS
 10
15.0743827169
 20
20.2187984355
 30
0.0
 11
0.9499912232
 21
4.9089510165
 31
0.0
 40
0.4627391599
 41
7.3030333345
 42
8.1445267983
  0
ELLIPSE
  5
4CA
100
AcDbEntity
  8
RACCORDO
100
AcDbEllipse
 62
7
  6
CONTINUOUS
 10
184.0213012296
 20
88.1918066716
 30
0.0
 11
66.499385627
 21
343.6265711523
 31
0.0
 40
0.4627391599
 41
-4.2294789342
 42
-4.2107229152
  0
ELLIPSE
  5
4CB
100
AcDbEntity
  8
RACCORDO
100
AcDbEllipse
 62
7
  6
CONTINUOUS
 10
184.0213012296
 20
88.1918066716
 30
0.0
 11
66.499385627
 21
343.6265711523
 31
0.0
 40
0.4627391599
 41
-4.421843816
 42
-4.403087797
  0
ELLIPSE
  5
4CC
100
AcDbEntity
  8
DRAFT
100
AcDbEllipse
 62
7
  6
CONTINUOUS
 10
15.0743827169
 20
-48.09827979
 30
0.0
 11
0.9499912232
 21
4.9089510165
 31
0.0
 40
0.4627391599
 41
-4.2107229152
 42
-3.3692294513
  0
ELLIPSE
  5
4CD
100
AcDbEntity
  8
RACCORDO
100
AcDbEllipse
 62
7
  6
CONTINUOUS
 10
-32.4748882026
 20
39.7825141732
 30
0.0
 11
-0.7646456168
 21
1.2906012184
 31
0.0
 40
0.813738708
 41
-0.6292523755
 42
0.0169605243
  0
ELLIPSE
  5
4CE
100
AcDbEntity
  8
RACCORDO
100
AcDbEllipse
 62
7
  6
CONTINUOUS
 10
-23.375801985
 20
-40.5056978489
 30
0.0
 11
1.0068610133
 21
4.8976927788
 31
0.0
 40
0.484028672
 41
-3.1378181247
 42
-3.0232530331
  0
ELLIPSE
  5
4CF
100
AcDbEntity
  8
RACCORDO
100
AcDbEllipse
 62
7
  6
CONTINUOUS
 10
133.3204746806
 20
98.2034667726
 30
0.0
 11
69.1301643452
 21
343.1070285799
 31
0.0
 40
0.476942715
 41
-4.4182435754
 42
-4.3994875564
  0
ELLIPSE
  5
4D0
100
AcDbEntity
  8
RACCORDO
100
AcDbEllipse
 62
7
  6
CONTINUOUS
 10
-42.0779711882
 20
-40.9644479893
 30
0.0
 11
-0.1274074455
 21
0.2150989846
 31
0.0
 40
0.8138566568
 41
0.9416591217
 42
2.5123792961
  0
ELLIPSE
  5
4D1
100
AcDbEntity
  8
RACCORDO
100
AcDbEllipse
 62
7
  6
CONTINUOUS
 10
-42.0779711882
 20
33.3494939383
 30
0.0
 11
-0.1274409361
 21
0.2151002031
 31
0.0
 40
0.813738708
 41
5.6539329317
 42
7.2246531061
  0
ELLIPSE
  5
4D2
100
AcDbEntity
  8
DRAFT
100
AcDbEllipse
 62
7
  6
CONTINUOUS
 10
-40.8122220393
 20
-37.0626078079
 30
0.0
 11
0.9875737764
 21
4.9015289797
 31
0.0
 40
0.476942715
 41
-4.2071226746
 42
-3.3656292107
  0
ELLIPSE
  5
4D3
100
AcDbEntity
  8
RACCORDO
100
AcDbEllipse
 62
7
  6
CONTINUOUS
 10
-25.2311812457
 20
-44.1229071553
 30
0.0
 11
0.9999986713
 21
0.0046694065
 31
0.0
 40
0.349115364
 41
-2.0960252647
 42
-0.5426822304
  0
ELLIPSE
  5
4D4
100
AcDbEntity
  8
RACCORDO
100
AcDbEllipse
 62
7
  6
CONTINUOUS
 10
-2.427042844
 20
-48.625935964
 30
0.0
 11
0.9999986713
 21
0.0046694065
 31
0.0
 40
0.349115364
 41
8.9170023154
 42
10.4703453497
  0
ELLIPSE
  5
4D5
100
AcDbEntity
  8
DRAFT
100
AcDbEllipse
 62
7
  6
CONTINUOUS
 10
-40.8122220393
 20
31.2544704176
 30
0.0
 11
0.9875737764
 21
4.9015289797
 31
0.0
 40
0.476942715
 41
1.0234482679
 42
1.8649417317
  0
ELLIPSE
  5
4D6
100
AcDbEntity
  8
RACCORDO
100
AcDbEllipse
 62
7
  6
CONTINUOUS
 10
133.3204746806
 20
98.2034667726
 30
0.0
 11
69.1301643452
 21
343.1070285799
 31
0.0
 40
0.476942715
 41
-4.2258786936
 42
-4.2071226746
  0
ELLIPSE
  5
4D7
100
AcDbEntity
  8
RACCORDO
100
AcDbEllipse
 62
7
  6
CONTINUOUS
 10
24.4166641128
 20
-46.1529855072
 30
0.0
 11
-0.7646456168
 21
1.2906012184
 31
0.0
 40
0.813738708
 41
3.1392071419
 42
4.0830604525
  0
ELLIPSE
  5
4D8
100
AcDbEntity
  8
RACCORDO
100
AcDbEllipse
 62
7
  6
CONTINUOUS
 10
-31.8748882026
 20
40.1379519325
 30
0.0
 11
-0.7646456168
 21
1.2906012184
 31
0.0
 40
0.813738708
 41
-0.6292523755
 42
-0.0170614964
  0
ELLIPSE
  5
4D9
100
AcDbEntity
  8
RACCORDO
100
AcDbEllipse
 62
7
  6
CONTINUOUS
 10
24.4166641128
 20
29.0223168098
 30
0.0
 11
-0.7644446732
 21
1.2905939075
 31
0.0
 40
0.8138566568
 41
-2.1999335318
 42
-0.6292133575
  0
ENDSEC
  0
SECTION
  2
OBJECTS
  0
DICTIONARY
  5
C
100
AcDbDictionary
280
0
281
1
  3
ACAD_GROUP
350
D
  3
ACAD_MLINESTYLE
350
17
  3
ACAD_LAYOUT
350
1A
  3
ACAD_PLOTSETTINGS
350
19
  3
ACAD_PLOTSTYLENAME
350
E
  0
DICTIONARY
  5
D
102
{ACAD_REACTORS
330
C
102
}
100
AcDbDictionary
280
0
281
1
  0
ACDBDICTIONARYWDFLT
  5
E
102
{ACAD_REACTORS
330
C
102
}
100
AcDbDictionary
281
1
  3
Normal
350
F
100
AcDbDictionaryWithDefault
340
F
  0
DICTIONARY
  5
17
102
{ACAD_REACTORS
330
C
102
}
100
AcDbDictionary
280
0
281
1
  3
Standard
350
18
  0
DICTIONARY
  5
19
102
{ACAD_REACTORS
330
C
102
}
100
AcDbDictionary
281
1
  0
DICTIONARY
  5
1A
102
{ACAD_REACTORS
330
C
102
}
100
AcDbDictionary
281
1
  3
Model
350
4DA
  3
Layout1
350
4DB
  0
ACDBPLACEHOLDER
  5
F
102
{ACAD_REACTORS
330
E
102
}
  0
MLINESTYLE
  5
18
102
{ACAD_REACTORS
330
17
102
}
100
AcDbMlineStyle
  2
STANDARD
 70
0
  3

 62
256
 51
90.0
 52
90.0
 71
2
 49
0.5
 62
256
  6
BYLAYER
 49
-0.5
 62
256
  6
BYLAYER
  0
LAYOUT
  5
4DA
102
{ACAD_REACTORS
330
1A
102
}
100
AcDbPlotSettings
  1

  2
none_device
  4
ISO_A4_(297.00_x_210.00_MM)
  6

 40
0.0
 41
0.0
 42
0.0
 43
0.0
 44
297.0
 45
210.0
 46
0.0
 47
0.0
 48
0.0
 49
0.0
140
0.0
141
0.0
142
1.0
143
1.0
 70
1024
 72
1
 73
0
 74
0
  7

 75
0
147
1.0
148
0.0
149
0.0
100
AcDbLayout
  1
Model
 70
0
 71
0
 10
0.0
 20
0.0
 11
297.0
 21
210.0
 12
0.0
 22
0.0
 32
0.0
 14
0.0
 24
0.0
 34
0.0
 15
0.0
 25
0.0
 35
0.0
146
0.0
 13
0.0
 23
0.0
 33
0.0
 16
1.0
 26
0.0
 36
0.0
 17
0.0
 27
1.0
 37
0.0
 76
0
330
218
345
0
346
0
  0
LAYOUT
  5
4DB
102
{ACAD_REACTORS
330
1A
102
}
100
AcDbPlotSettings
  1

  2
none_device
  4
ISO_A4_(297.00_x_210.00_MM)
  6

 40
0.0
 41
0.0
 42
0.0
 43
0.0
 44
297.0
 45
210.0
 46
0.0
 47
0.0
 48
0.0
 49
0.0
140
0.0
141
0.0
142
1.0
143
1.0
 70
0
 72
1
 73
0
 74
0
  7

 75
0
147
1.0
148
0.0
149
0.0
100
AcDbLayout
  1
Layout1
 70
0
 71
1
 10
0.0
 20
0.0
 11
297.0
 21
210.0
 12
0.0
 22
0.0
 32
0.0
 14
0.0
 24
0.0
 34
0.0
 15
0.0
 25
0.0
 35
0.0
146
0.0
 13
0.0
 23
0.0
 33
0.0
 16
1.0
 26
0.0
 36
0.0
 17
0.0
 27
1.0
 37
0.0
 76
0
330
219
345
0
346
0
  0
ENDSEC
  0
EOF
