  0
SECTION
  2
HEADER
  9
$ACADVER
  1
AC1015
  9
$DWGCODEPAGE
  3
ANSI_1252
  9
$EXTMAX
 10
297.0
 20
210.0
 30
0.0
  9
$EXTMIN
 10
0.0
 20
0.0
 30
0.0
  9
$LIMMIN
 10
0.0
 20
0.0
  9
$LIMMAX
 10
297.0
 20
210.0
  9
$VIEWCTR
 10
148.5
 20
105.0
  9
$VIEWSIZE
 40
210.0
  9
$CLAYER
  8
0
  9
$LTSCALE
 40
16.335
  9
$CELTYPE
  6
BYLAYER
  9
$DIMSCALE
 40
1.0
  9
$DIMASZ
 40
3.0
  9
$DIMEXO
 40
1.85625
  9
$DIMDLI
 40
11.286
  9
$DIMEXE
 40
5.346
  9
$DIMCEN
 40
2.673
  9
$DIMLFAC
 40
1.0
  9
$DIMBLK
  1
_FILLED
  9
$DIMTXT
 40
3.0
  9
$DIMTOL
 70
1
  9
$DIMLIM
 70
0
  9
$DIMTFAC
 40
1.0
  9
$DIMTP
 40
0.01
  9
$DIMTM
 40
0.01
  9
$PDMODE
 70
3
  9
$PDSIZE
 40
3.0
  9
$HANDSEED
  5
4DC
  9
$TILEMODE
 70
1
  9
$MEASUREMENT
 70
1
  9
$INSUNITS
 70
4
  0
ENDSEC
  0
SECTION
  2
CLASSES
  0
CLASS
  1
ACDBDICTIONARYWDFLT
  2
AcDbDictionaryWithDefault
  3
AutoCAD 2000
 90
0
280
0
281
0
  0
CLASS
  1
ACDBPLACEHOLDER
  2
AcDbPlaceHolder
  3
AutoCAD 2000
 90
0
280
0
281
0
  0
CLASS
  1
LAYOUT
  2
AcDbLayout
  3
AutoCAD 2000
 90
0
280
0
281
0
  0
ENDSEC
  0
SECTION
  2
TABLES
  0
TABLE
  2
VPORT
  5
8
100
AcDbSymbolTable
 70
2
  0
VPORT
  5
1F4
100
AcDbSymbolTableRecord
100
AcDbViewportTableRecord
  2
*ACTIVE
 70
0
 10
0.0
 20
0.0
 11
1.0
 21
1.0
 12
148.5
 22
105.0
 13
0.0
 23
0.0
 14
1.0
 24
1.0
 15
0.0
 25
0.0
 16
0.0
 26
0.0
 36
1.0
 17
0.0
 27
0.0
 37
0.0
 40
210.0
 41
1.4142857143
 42
50.0
 43
0.0
 44
0.0
 50
0.0
 51
0.0
 71
0
 72
100
 73
1
 74
1
 75
0
 76
0
 77
0
 78
0
  0
ENDTAB
  0
TABLE
  2
LTYPE
  5
5
100
AcDbSymbolTable
 70
6
  0
LTYPE
  5
14
100
AcDbSymbolTableRecord
100
AcDbLinetypeTableRecord
  2
BYBLOCK
 70
0
  3

 72
65
 73
0
 40
0.0
  0
LTYPE
  5
15
100
AcDbSymbolTableRecord
100
AcDbLinetypeTableRecord
  2
BYLAYER
 70
0
  3

 72
65
 73
0
 40
0.0
  0
LTYPE
  5
16
100
AcDbSymbolTableRecord
100
AcDbLinetypeTableRecord
  2
CONTINUOUS
 70
64
  3
Solid line
 72
65
 73
0
 40
0.0
  0
LTYPE
  5
1F5
100
AcDbSymbolTableRecord
100
AcDbLinetypeTableRecord
  2
CENTER
 70
64
  3
____ _ ____ _ ____ _ ____ _ ____ _ ____ _ ____
 72
65
 73
4
 40
0.6
 49
0.375
 74
0
 49
-0.075
 74
0
 49
0.075
 74
0
 49
-0.075
 74
0
  0
LTYPE
  5
1F6
100
AcDbSymbolTableRecord
100
AcDbLinetypeTableRecord
  2
HIDDEN
 70
64
  3
- - - - - - - - - - - - - - - - - - - -
 72
65
 73
2
 40
0.2
 49
0.1
 74
0
 49
-0.1
 74
0
  0
LTYPE
  5
1F7
100
AcDbSymbolTableRecord
100
AcDbLinetypeTableRecord
  2
PHANTOM
 70
64
  3
_____ _ _ _____ _ _ _____ _ _ _____
 72
65
 73
6
 40
0.8
 49
0.45
 74
0
 49
-0.05
 74
0
 49
0.1
 74
0
 49
-0.05
 74
0
 49
0.1
 74
0
 49
-0.05
 74
0
  0
LTYPE
  5
1F8
100
AcDbSymbolTableRecord
100
AcDbLinetypeTableRecord
  2
DOT
 70
64
  3
. . . . . . . . . . . . . . . . . . . .
 72
65
 73
2
 40
0.2
 49
0.1
 74
0
 49
-0.1
 74
0
  0
LTYPE
  5
1F9
100
AcDbSymbolTableRecord
100
AcDbLinetypeTableRecord
  2
DASHED
 70
64
  3
- - - - - - - - - - - - - - - - - - - -
 72
65
 73
2
 40
0.2
 49
0.1
 74
0
 49
-0.1
 74
0
  0
ENDTAB
  0
TABLE
  2
LAYER
  5
2
100
AcDbSymbolTable
 70
36
  0
LAYER
  5
10
100
AcDbSymbolTableRecord
100
AcDbLayerTableRecord
  2
0
 70
0
 62
7
  6
CONTINUOUS
370
-3
390
F
  0
LAYER
  5
1FA
100
AcDbSymbolTableRecord
100
AcDbLayerTableRecord
  2
DEFAULT_1
 70
0
 62
7
  6
CENTER
370
-3
390
F
  0
LAYER
  5
1FB
100
AcDbSymbolTableRecord
100
AcDbLayerTableRecord
  2
DEFAULT_2
 70
0
 62
7
  6
HIDDEN
370
-3
390
F
  0
LAYER
  5
1FC
100
AcDbSymbolTableRecord
100
AcDbLayerTableRecord
  2
DEFAULT_3
 70
0
 62
7
  6
PHANTOM
370
-3
390
F
  0
LAYER
  5
1FD
100
AcDbSymbolTableRecord
100
AcDbLayerTableRecord
  2
ASSI
 70
0
 62
7
  6
CONTINUOUS
370
-3
390
F
  0
LAYER
  5
1FE
100
AcDbSymbolTableRecord
100
AcDbLayerTableRecord
  2
COLOR5
 70
0
 62
7
  6
CONTINUOUS
370
-3
390
F
  0
LAYER
  5
1FF
100
AcDbSymbolTableRecord
100
AcDbLayerTableRecord
  2
COORDINATE
 70
0
 62
7
  6
CONTINUOUS
370
-3
390
F
  0
LAYER
  5
200
100
AcDbSymbolTableRecord
100
AcDbLayerTableRecord
  2
COORD_ORIGINE
 70
0
 62
7
  6
CONTINUOUS
370
-3
390
F
  0
LAYER
  5
201
100
AcDbSymbolTableRecord
100
AcDbLayerTableRecord
  2
COPY_PUBLISH
 70
0
 62
7
  6
CONTINUOUS
370
-3
390
F
  0
LAYER
  5
202
100
AcDbSymbolTableRecord
100
AcDbLayerTableRecord
  2
COSMETIC
 70
0
 62
7
  6
CONTINUOUS
370
-3
390
F
  0
LAYER
  5
203
100
AcDbSymbolTableRecord
100
AcDbLayerTableRecord
  2
CURVE
 70
0
 62
7
  6
CONTINUOUS
370
-3
390
F
  0
LAYER
  5
204
100
AcDbSymbolTableRecord
100
AcDbLayerTableRecord
  2
DRAFT
 70
0
 62
7
  6
CONTINUOUS
370
-3
390
F
  0
LAYER
  5
205
100
AcDbSymbolTableRecord
100
AcDbLayerTableRecord
  2
IMPORT_IGES
 70
0
 62
7
  6
CONTINUOUS
370
-3
390
F
  0
LAYER
  5
206
100
AcDbSymbolTableRecord
100
AcDbLayerTableRecord
  2
INTF_1
 70
0
 62
7
  6
CONTINUOUS
370
-3
390
F
  0
LAYER
  5
207
100
AcDbSymbolTableRecord
100
AcDbLayerTableRecord
  2
INTF_2
 70
0
 62
7
  6
CONTINUOUS
370
-3
390
F
  0
LAYER
  5
208
100
AcDbSymbolTableRecord
100
AcDbLayerTableRecord
  2
NOTE
 70
0
 62
7
  6
CONTINUOUS
370
-3
390
F
  0
LAYER
  5
209
100
AcDbSymbolTableRecord
100
AcDbLayerTableRecord
  2
PIANI
 70
0
 62
7
  6
CONTINUOUS
370
-3
390
F
  0
LAYER
  5
20A
100
AcDbSymbolTableRecord
100
AcDbLayerTableRecord
  2
PIANI_ORIGINE
 70
0
 62
7
  6
CONTINUOUS
370
-3
390
F
  0
LAYER
  5
20B
100
AcDbSymbolTableRecord
100
AcDbLayerTableRecord
  2
PUNTI
 70
0
 62
7
  6
CONTINUOUS
370
-3
390
F
  0
LAYER
  5
20C
100
AcDbSymbolTableRecord
100
AcDbLayerTableRecord
  2
RACCORDO
 70
0
 62
7
  6
CONTINUOUS
370
-3
390
F
  0
LAYER
  5
20D
100
AcDbSymbolTableRecord
100
AcDbLayerTableRecord
  2
RGB__255__255__255__
 70
0
 62
7
  6
CONTINUOUS
370
-3
390
F
  0
LAYER
  5
20E
100
AcDbSymbolTableRecord
100
AcDbLayerTableRecord
  2
RGB____0____0____0__
 70
0
 62
7
  6
CONTINUOUS
370
-3
390
F
  0
LAYER
  5
20F
100
AcDbSymbolTableRecord
100
AcDbLayerTableRecord
  2
SMUSSO
 70
0
 62
7
  6
CONTINUOUS
370
-3
390
F
  0
LAYER
  5
210
100
AcDbSymbolTableRecord
100
AcDbLayerTableRecord
  2
SNAPLINE
 70
0
 62
7
  6
CONTINUOUS
370
-3
390
F
  0
LAYER
  5
211
100
AcDbSymbolTableRecord
100
AcDbLayerTableRecord
  2
SUPERFICI
 70
0
 62
7
  6
CONTINUOUS
370
-3
390
F
  0
LAYER
  5
212
100
AcDbSymbolTableRecord
100
AcDbLayerTableRecord
  2
TRASH
 70
0
 62
7
  6
CONTINUOUS
370
-3
390
F
  0
LAYER
  5
213
100
AcDbSymbolTableRecord
100
AcDbLayerTableRecord
  2
XSEC_DATUMS
 70
0
 62
7
  6
CONTINUOUS
370
-3
390
F
  0
ENDTAB
  0
TABLE
  2
STYLE
  5
3
100
AcDbSymbolTable
 70
1
  0
STYLE
  5
11
100
AcDbSymbolTableRecord
100
AcDbTextStyleTableRecord
  2
STANDARD
 70
0
 40
0.0
 41
0.8
 50
0.0
 71
0
 42
0.2
  3
txt
  4

  0
STYLE
  5
214
100
AcDbSymbolTableRecord
100
AcDbTextStyleTableRecord
  2
TEXTSTYLE_1
 70
0
 40
0.0
 41
0.8
 50
0.0
 71
0
 42
0.2
  3
gdt
  4

  0
ENDTAB
  0
TABLE
  2
VIEW
  5
6
100
AcDbSymbolTable
 70
0
  0
ENDTAB
  0
TABLE
  2
UCS
  5
7
100
AcDbSymbolTable
 70
0
  0
ENDTAB
  0
TABLE
  2
APPID
  5
9
100
AcDbSymbolTable
 70
1
  0
APPID
  5
215
100
AcDbSymbolTableRecord
100
AcDbRegAppTableRecord
  2
ACAD
 70
0
  0
ENDTAB
  0
TABLE
  2
BLOCK_RECORD
  5
1
100
AcDbSymbolTable
 70
0
  0
BLOCK_RECORD
  5
216
100
AcDbSymbolTableRecord
100
AcDbBlockTableRecord
  2
*Model_Space
  0
BLOCK_RECORD
  5
217
100
AcDbSymbolTableRecord
100
AcDbBlockTableRecord
  2
*Paper_Space
  0
ENDTAB
  0
TABLE
  2
DIMSTYLE
  5
A
100
AcDbSymbolTable
 70
1
100
AcDbDimStyleTable
 71
0
  0
DIMSTYLE
105
218
100
AcDbSymbolTableRecord
100
AcDbDimStyleTableRecord
  2
STANDARD
 70
0
  3

  4

 40
1.0
 41
3.0
 42
0.0625
 43
0.38
 44
0.18
 45
0.0
 46
0.0
 47
0.01
 48
0.01
140
3.0
141
0.09
142
0.0
143
25.4
144
1.0
145
0.0
146
1.0
147
0.09
 71
1.0
 72
0.0
 73
0
 74
0
 75
0
 76
0
 77
1
 78
8
170
0
171
2
172
0
173
0
174
0
175
0
176
0
177
0
178
0
270
2
271
2
272
2
273
2
274
2
275
0
280
0
281
0
282
0
283
1
284
8
285
0
286
0
287
3
288
0
340
11
  0
ENDTAB
  0
ENDSEC
  0
SECTION
  2
BLOCKS
  0
BLOCK
  5
20
100
AcDbEntity
  8
0
100
AcDbBlockBegin
  2
*Model_Space
 70
0
 10
0.0
 20
0.0
 30
0.0
  3
*Model_Space
  1

  0
ENDBLK
  5
21
100
AcDbEntity
  8
0
100
AcDbBlockEnd
  0
BLOCK
  5
1C
100
AcDbEntity
  8
0
100
AcDbBlockBegin
  2
*Paper_Space
 70
0
 10
0.0
 20
0.0
 30
0.0
  3
*Paper_Space
  1

  0
ENDBLK
  5
1D
100
AcDbEntity
  8
0
100
AcDbBlockEnd
  0
ENDSEC
  0
SECTION
  2
ENTITIES
  0
LWPOLYLINE
  5
219
100
AcDbEntity
  8
RACCORDO
100
AcDbPolyline
 62
7
  6
CONTINUOUS
 90
23
 70
0
 10
-57.9914228702
 20
-35.7288119003
 10
-57.9803743266
 20
-35.8890034635
 10
-57.958493111
 20
-36.1132020734
 10
-57.9296805951
 20
-36.3303565725
 10
-57.8940777758
 20
-36.5404750365
 10
-57.8518373959
 20
-36.7433926787
 10
-57.8031396982
 20
-36.9388066552
 10
-57.7480876658
 20
-37.1267853719
 10
-57.6867564126
 20
-37.3073484734
 10
-57.6192995047
 20
-37.4802823981
 10
-57.5457383385
 20
-37.6457340917
 10
-57.4661212364
 20
-37.8036835588
 10
-57.3807064643
 20
-37.9537546641
 10
-57.2895250805
 20
-38.0960441499
 10
-57.1926873581
 20
-38.2304683109
 10
-57.0907622261
 20
-38.3564196323
 10
-56.9840787631
 20
-38.4737798291
 10
-56.8727864261
 20
-38.5826386758
 10
-56.7574289904
 20
-38.6827203125
 10
-56.6385777695
 20
-38.7738587991
 10
-56.5164528328
 20
-38.856206707
 10
-56.3912070194
 20
-38.9299084335
 10
-56.2633298158
 20
-38.9948927385
  0
LWPOLYLINE
  5
21A
100
AcDbEntity
  8
RACCORDO
100
AcDbPolyline
 62
7
  6
CONTINUOUS
 90
10
 70
0
 10
-58.3013561585
 20
-29.7861606772
 10
-58.2726631867
 20
-30.3911343895
 10
-58.2397556191
 20
-31.0688451124
 10
-58.2060684407
 20
-31.7459473227
 10
-58.1716018529
 20
-32.4224370342
 10
-58.1363560102
 20
-33.0983111955
 10
-58.1003310147
 20
-33.7735676861
 10
-58.0635270129
 20
-34.4482034491
 10
-58.0259442018
 20
-35.1222144954
 10
-57.9914208825
 20
-35.7288626452
  0
LWPOLYLINE
  5
21B
100
AcDbEntity
  8
RACCORDO
100
AcDbPolyline
 62
7
  6
CONTINUOUS
 90
19
 70
0
 10
-58.301529038
 20
27.1331700176
 10
-58.4346405191
 20
23.9653118747
 10
-58.5551708251
 20
20.727236503
 10
-58.659663768
 20
17.496703307
 10
-58.7481065647
 20
14.2740043726
 10
-58.8204887142
 20
11.0594429191
 10
-58.8768003694
 20
7.8533266126
 10
-58.9170343687
 20
4.6559563925
 10
-58.941185372
 20
1.467628318
 10
-58.9492492958
 20
-1.7113599867
 10
-58.9412247897
 20
-4.8807123867
 10
-58.9171111879
 20
-8.0401331418
 10
-58.8769105522
 20
-11.1893284344
 10
-58.8206262059
 20
-14.3280074476
 10
-58.7482632842
 20
-17.4558767274
 10
-58.6598296001
 20
-20.5726396825
 10
-58.5553336142
 20
-23.6780047767
 10
-58.4347860741
 20
-26.7716940348
 10
-58.3013573058
 20
-29.7861616078
  0
LWPOLYLINE
  5
21C
100
AcDbEntity
  8
RACCORDO
100
AcDbPolyline
 62
7
  6
CONTINUOUS
 90
10
 70
0
 10
-57.9917305968
 20
33.4477921336
 10
-58.0258973
 20
32.8061591079
 10
-58.0634688617
 20
32.0870556079
 10
-58.1002625228
 20
31.3682587531
 10
-58.1362780597
 20
30.6497727723
 10
-58.1715152977
 20
29.9316009234
 10
-58.205974106
 20
29.2137454956
 10
-58.2396543025
 20
28.4962097502
 10
-58.2725556589
 20
27.7789979186
 10
-58.3015281826
 20
27.1331703771
  0
LWPOLYLINE
  5
21D
100
AcDbEntity
  8
RACCORDO
100
AcDbPolyline
 62
7
  6
CONTINUOUS
 90
28
 70
0
 10
-55.5866242967
 20
38.6106973
 10
-55.6757775722
 20
38.5530999339
 10
-55.824780937
 20
38.4466769233
 10
-55.9712158391
 20
38.3290068473
 10
-56.1154038156
 20
38.1995642009
 10
-56.2568110786
 20
38.0585462009
 10
-56.3941447674
 20
37.9071599864
 10
-56.5273990099
 20
37.7454823295
 10
-56.6566433076
 20
37.5734465328
 10
-56.7808371839
 20
37.3925444479
 10
-56.8999998916
 20
37.2030166245
 10
-57.0141441593
 20
37.0050267386
 10
-57.1223085792
 20
36.800578199
 10
-57.2244604017
 20
36.5902531451
 10
-57.3206795213
 20
36.3743356354
 10
-57.4102953271
 20
36.154940739
 10
-57.493110524
 20
35.9333972371
 10
-57.5695082376
 20
35.7095335011
 10
-57.6396782752
 20
35.483431963
 10
-57.7035611038
 20
35.2558879974
 10
-57.7612614479
 20
35.027121164
 10
-57.8130502125
 20
34.7963532628
 10
-57.8588406453
 20
34.5640530131
 10
-57.8985349818
 20
34.3306692307
 10
-57.9322076132
 20
34.0953483472
 10
-57.9596972796
 20
33.8580786813
 10
-57.9807182963
 20
33.6197837173
 10
-57.9917309183
 20
33.4477719374
  0
LINE
  5
21E
100
AcDbEntity
  8
RACCORDO
100
AcDbLine
 62
7
  6
CONTINUOUS
 10
-55.5864641911
 20
38.6107985625
 11
-55.5866250982
 21
38.6106985904
  0
LINE
  5
21F
100
AcDbEntity
  8
RACCORDO
100
AcDbLine
 62
7
  6
CONTINUOUS
 10
-47.1517067755
 20
43.8502287834
 11
-55.5864641868
 21
38.6107985652
  0
LINE
  5
220
100
AcDbEntity
  8
RACCORDO
100
AcDbLine
 62
253
  6
CONTINUOUS
 10
-46.3693099382
 20
43.980070466
 11
-54.8014784938
 21
38.742248371
  0
LINE
  5
221
100
AcDbEntity
  8
RACCORDO
100
AcDbLine
 62
7
  6
CONTINUOUS
 10
-47.1337765329
 20
43.8610701769
 11
-46.6337765329
 21
44.1572683096
  0
LINE
  5
222
100
AcDbEntity
  8
RACCORDO
100
AcDbLine
 62
253
  6
CONTINUOUS
 10
-46.3692604748
 20
43.9800606987
 11
-45.8692604748
 21
44.2762588314
  0
LINE
  5
223
100
AcDbEntity
  8
RACCORDO
100
AcDbLine
 62
7
  6
CONTINUOUS
 10
-46.6259938104
 20
44.1607104941
 11
-27.0056471836
 21
55.562654082
  0
LINE
  5
224
100
AcDbEntity
  8
RACCORDO
100
AcDbLine
 62
253
  6
CONTINUOUS
 10
-45.8686637868
 20
44.2754849743
 11
-26.2490040846
 21
55.677024398
  0
LINE
  5
225
100
AcDbEntity
  8
RACCORDO
100
AcDbLine
 62
253
  6
CONTINUOUS
 10
-56.1888085903
 20
36.1802101285
 11
-55.8804993559
 21
36.3542439255
  0
LINE
  5
226
100
AcDbEntity
  8
0
100
AcDbLine
 62
7
  6
CONTINUOUS
 10
-49.6266763381
 20
-33.2001076379
 11
-49.5316033866
 21
-33.3150082952
  0
LINE
  5
227
100
AcDbEntity
  8
RACCORDO
100
AcDbLine
 62
7
  6
CONTINUOUS
 10
-56.1888085903
 20
-38.9490523012
 11
-56.1888085903
 21
-38.1337675804
  0
LINE
  5
228
100
AcDbEntity
  8
RACCORDO
100
AcDbLine
 62
7
  6
CONTINUOUS
 10
-56.1888085903
 20
36.1802101285
 11
-56.1888085903
 21
36.9954948493
  0
LWPOLYLINE
  5
229
100
AcDbEntity
  8
RACCORDO
100
AcDbPolyline
 62
7
  6
CONTINUOUS
 90
5
 70
0
 10
-56.2633298158
 20
-38.9948927385
 10
-56.1332328465
 20
-39.0511790037
 10
-56.0009775088
 20
-39.0989252935
 10
-55.8668924419
 20
-39.1381433991
 10
-55.7375835815
 20
-39.1676181255
  0
LINE
  5
22A
100
AcDbEntity
  8
0
100
AcDbLine
 62
7
  6
CONTINUOUS
 10
-48.2762751324
 20
-35.1471216141
 11
-48.4167237208
 21
-35.0234742503
  0
LINE
  5
22B
100
AcDbEntity
  8
0
100
AcDbLine
 62
7
  6
CONTINUOUS
 10
-46.2916336681
 20
-35.539019678
 11
-46.4320822564
 21
-35.4153723142
  0
LINE
  5
22C
100
AcDbEntity
  8
0
100
AcDbLine
 62
7
  6
CONTINUOUS
 10
-47.6903976565
 20
-34.3991235945
 11
-47.5500801174
 21
-34.5228485913
  0
LINE
  5
22D
100
AcDbEntity
  8
0
100
AcDbLine
 62
7
  6
CONTINUOUS
 10
-45.7057559341
 20
-34.7910217094
 11
-45.565438395
 21
-34.9147467062
  0
LINE
  5
22E
100
AcDbEntity
  8
0
100
AcDbLine
 62
7
  6
CONTINUOUS
 10
-47.3996621724
 20
-34.8405247918
 11
-47.3945955894
 21
-34.9374906551
  0
LINE
  5
22F
100
AcDbEntity
  8
0
100
AcDbLine
 62
7
  6
CONTINUOUS
 10
19.0088641482
 20
-47.377848392
 11
18.8760303094
 21
-47.3996414191
  0
LWPOLYLINE
  5
230
100
AcDbEntity
  8
RACCORDO
100
AcDbPolyline
 62
7
  6
CONTINUOUS
 90
15
 70
0
 10
27.9867945798
 20
-55.7002879089
 10
28.0761215424
 20
-55.7161233378
 10
28.1976985244
 20
-55.7318992803
 10
28.322181343
 20
-55.7413008497
 10
28.4491521456
 20
-55.74397704
 10
28.577888326
 20
-55.7396419714
 10
28.7080962523
 20
-55.7280715231
 10
28.8394477182
 20
-55.7090704198
 10
28.9711948385
 20
-55.6825675882
 10
29.1030440332
 20
-55.6484818851
 10
29.234724783
 20
-55.6067429188
 10
29.3656170826
 20
-55.5574427696
 10
29.4953982986
 20
-55.5006529083
 10
29.6239898634
 20
-55.436353974
 10
29.6878799106
 20
-55.4013395389
  0
LINE
  5
231
100
AcDbEntity
  8
RACCORDO
100
AcDbLine
 62
7
  6
CONTINUOUS
 10
-0.7415026862
 20
-50.0274427311
 11
-0.7412152065
 21
-50.0274993784
  0
LINE
  5
232
100
AcDbEntity
  8
RACCORDO
100
AcDbLine
 62
7
  6
CONTINUOUS
 10
-27.0100065028
 20
-44.8403215444
 11
-27.0097010984
 21
-44.8403817313
  0
LINE
  5
233
100
AcDbEntity
  8
RACCORDO
100
AcDbLine
 62
7
  6
CONTINUOUS
 10
-55.7383104651
 20
-39.1674749263
 11
-55.7375658481
 21
-39.167621691
  0
LINE
  5
234
100
AcDbEntity
  8
ASSI
100
AcDbLine
 62
7
  6
CONTINUOUS
 10
-1.2097814976
 20
-50.111174124
 11
-26.6321873488
 21
-45.091128029
  0
LINE
  5
235
100
AcDbEntity
  8
RACCORDO
100
AcDbLine
 62
7
  6
CONTINUOUS
 10
-2.4524803595
 20
-49.7838434327
 11
-26.1815764232
 21
-45.0981674692
  0
LINE
  5
236
100
AcDbEntity
  8
ASSI
100
AcDbLine
 62
7
  6
CONTINUOUS
 10
-55.7383152552
 20
-39.1674739804
 11
-27.0097019462
 21
-44.8403817257
  0
LINE
  5
237
100
AcDbEntity
  8
ASSI
100
AcDbLine
 62
7
  6
CONTINUOUS
 10
-0.7412163311
 20
-50.0274993182
 11
27.9873969779
 21
-55.7004070635
  0
LINE
  5
238
100
AcDbEntity
  8
RACCORDO
100
AcDbLine
 62
7
  6
CONTINUOUS
 10
27.4547518077
 20
-55.4657632376
 11
-0.3668829791
 21
-49.9719523887
  0
LINE
  5
239
100
AcDbEntity
  8
RACCORDO
100
AcDbLine
 62
7
  6
CONTINUOUS
 10
-28.3671738035
 20
-44.4428631501
 11
-56.1888085903
 21
-38.9490523012
  0
LINE
  5
23A
100
AcDbEntity
  8
RACCORDO
100
AcDbLine
 62
7
  6
CONTINUOUS
 10
-55.9723104833
 20
-38.4114326805
 11
-28.3671738035
 21
-43.8624926393
  0
LINE
  5
23B
100
AcDbEntity
  8
RACCORDO
100
AcDbLine
 62
7
  6
CONTINUOUS
 10
-0.3668829791
 20
-49.3915818779
 11
26.9170065196
 21
-54.7792066266
  0
LINE
  5
23C
100
AcDbEntity
  8
RACCORDO
100
AcDbLine
 62
7
  6
CONTINUOUS
 10
27.9873914595
 20
-55.7004059738
 11
27.986809867
 21
-55.7002909703
  0
LINE
  5
23D
100
AcDbEntity
  8
0
100
AcDbLine
 62
7
  6
CONTINUOUS
 10
-48.3084787102
 20
-35.3804899781
 11
-48.0803586551
 21
-35.4734715812
  0
LINE
  5
23E
100
AcDbEntity
  8
0
100
AcDbLine
 62
7
  6
CONTINUOUS
 10
-46.3238369878
 20
-35.772388093
 11
-46.0957171908
 21
-35.8653696451
  0
LINE
  5
23F
100
AcDbEntity
  8
0
100
AcDbLine
 62
7
  6
CONTINUOUS
 10
-47.6577231188
 20
-34.1654762662
 11
-47.8857246683
 21
-34.0724242613
  0
LINE
  5
240
100
AcDbEntity
  8
0
100
AcDbLine
 62
7
  6
CONTINUOUS
 10
-45.6730816545
 20
-34.5573743301
 11
-45.901083204
 21
-34.4643223252
  0
LINE
  5
241
100
AcDbEntity
  8
0
100
AcDbLine
 62
7
  6
CONTINUOUS
 10
-49.5936541285
 20
-32.9662542481
 11
-49.8215858684
 21
-32.8731610922
  0
LINE
  5
242
100
AcDbEntity
  8
0
100
AcDbLine
 62
7
  6
CONTINUOUS
 10
-48.0932811406
 20
-35.2312085579
 11
-48.2762751324
 21
-35.1471216141
  0
LINE
  5
243
100
AcDbEntity
  8
0
100
AcDbLine
 62
7
  6
CONTINUOUS
 10
-46.1086396763
 20
-35.6231066218
 11
-46.2916336681
 21
-35.539019678
  0
LINE
  5
244
100
AcDbEntity
  8
0
100
AcDbLine
 62
7
  6
CONTINUOUS
 10
-47.873314096
 20
-34.3149905051
 11
-47.6903976565
 21
-34.3991235945
  0
LINE
  5
245
100
AcDbEntity
  8
0
100
AcDbLine
 62
7
  6
CONTINUOUS
 10
-45.8886726317
 20
-34.706888569
 11
-45.7057559341
 21
-34.7910217094
  0
LINE
  5
246
100
AcDbEntity
  8
0
100
AcDbLine
 62
7
  6
CONTINUOUS
 10
-49.7644176356
 20
-33.1248401293
 11
-49.6266763381
 21
-33.2001076379
  0
LINE
  5
247
100
AcDbEntity
  8
0
100
AcDbLine
 62
7
  6
CONTINUOUS
 10
-45.41502045
 20
-35.2324229066
 11
-45.409953867
 21
-35.32938877
  0
LINE
  5
248
100
AcDbEntity
  8
RACCORDO
100
AcDbLine
 62
7
  6
CONTINUOUS
 10
-4.7186253802
 20
50.3781184402
 11
-5.8735363058
 21
49.6939535209
  0
LINE
  5
249
100
AcDbEntity
  8
RACCORDO
100
AcDbLine
 62
7
  6
CONTINUOUS
 10
-7.2186253802
 20
49.9595621024
 11
-4.7168800545
 21
51.4251744437
  0
LINE
  5
24A
100
AcDbEntity
  8
RACCORDO
100
AcDbLine
 62
7
  6
CONTINUOUS
 10
-2.8884983613
 20
49.1045117441
 11
-0.3867530356
 21
50.5701240854
  0
LINE
  5
24B
100
AcDbEntity
  8
RACCORDO
100
AcDbLine
 62
253
  6
CONTINUOUS
 10
26.4443667656
 20
-52.7578765739
 11
26.4538705407
 21
-52.7596731569
  0
LINE
  5
24C
100
AcDbEntity
  8
ASSI
100
AcDbLine
 62
7
  6
CONTINUOUS
 10
26.5646722244
 20
-53.7162831024
 11
-1.2097814976
 21
-48.2317888824
  0
LINE
  5
24D
100
AcDbEntity
  8
ASSI
100
AcDbLine
 62
7
  6
CONTINUOUS
 10
-26.6835446939
 20
-43.2016014876
 11
-55.3340472043
 21
-37.5441179241
  0
LINE
  5
24E
100
AcDbEntity
  8
RACCORDO
100
AcDbLine
 62
7
  6
CONTINUOUS
 10
-2.4524803595
 20
-47.9044581912
 11
-26.1815764232
 21
-43.2187822276
  0
LINE
  5
24F
100
AcDbEntity
  8
DRAFT
100
AcDbLine
 62
253
  6
CONTINUOUS
 10
25.9502384948
 20
-50.9330068317
 11
-56.8298982648
 21
-34.5867922084
  0
LINE
  5
250
100
AcDbEntity
  8
0
100
AcDbLine
 62
7
  6
CONTINUOUS
 10
-51.4181648128
 20
-34.8143702803
 11
-51.1475318741
 21
-34.8678109277
  0
LINE
  5
251
100
AcDbEntity
  8
0
100
AcDbLine
 62
7
  6
CONTINUOUS
 10
-50.7866879774
 20
-34.93906512
 11
-50.5160550387
 21
-34.9925057674
  0
LINE
  5
252
100
AcDbEntity
  8
0
100
AcDbLine
 62
7
  6
CONTINUOUS
 10
-48.0803586551
 20
-35.4734715812
 11
-47.8097257164
 21
-35.5269122286
  0
LINE
  5
253
100
AcDbEntity
  8
0
100
AcDbLine
 62
7
  6
CONTINUOUS
 10
-46.0957171908
 20
-35.8653696451
 11
-45.8250842521
 21
-35.9188102925
  0
LINE
  5
254
100
AcDbEntity
  8
0
100
AcDbLine
 62
7
  6
CONTINUOUS
 10
11.051134335
 20
-47.1498967872
 11
11.4119782317
 21
-47.2211509795
  0
LINE
  5
255
100
AcDbEntity
  8
0
100
AcDbLine
 62
7
  6
CONTINUOUS
 10
12.4945099865
 20
-47.4349135691
 11
12.7651429251
 21
-47.4883542164
  0
LINE
  5
256
100
AcDbEntity
  8
0
100
AcDbLine
 62
7
  6
CONTINUOUS
 10
13.1259867574
 20
-47.559608396
 11
13.396619696
 21
-47.6130490434
  0
LINE
  5
257
100
AcDbEntity
  8
0
100
AcDbLine
 62
7
  6
CONTINUOUS
 10
14.028096725
 20
-47.7377439213
 11
14.3889405572
 21
-47.8089981008
  0
LINE
  5
258
100
AcDbEntity
  8
0
100
AcDbLine
 62
7
  6
CONTINUOUS
 10
15.0204175862
 20
-47.9336929787
 11
15.2910505249
 21
-47.9871336261
  0
LINE
  5
259
100
AcDbEntity
  8
0
100
AcDbLine
 62
7
  6
CONTINUOUS
 10
15.651894099
 20
-48.0583877547
 11
15.9225270377
 21
-48.1118284021
  0
LINE
  5
25A
100
AcDbEntity
  8
0
100
AcDbLine
 62
7
  6
CONTINUOUS
 10
17.1854810957
 20
-48.3612181579
 11
17.4561140344
 21
-48.4146588053
  0
LINE
  5
25B
100
AcDbEntity
  8
0
100
AcDbLine
 62
7
  6
CONTINUOUS
 10
17.8169576085
 20
-48.4859129338
 11
18.0875905472
 21
-48.5393535812
  0
LINE
  5
25C
100
AcDbEntity
  8
0
100
AcDbLine
 62
7
  6
CONTINUOUS
 10
19.2152276196
 20
-48.7620229114
 11
19.5309663922
 21
-48.8243704013
  0
LINE
  5
25D
100
AcDbEntity
  8
0
100
AcDbLine
 62
7
  6
CONTINUOUS
 10
-45.8380067376
 20
-35.6765472692
 11
-46.1086396763
 21
-35.6231066218
  0
LINE
  5
25E
100
AcDbEntity
  8
0
100
AcDbLine
 62
7
  6
CONTINUOUS
 10
-47.8226482019
 20
-35.2846492053
 11
-48.0932811406
 21
-35.2312085579
  0
LINE
  5
25F
100
AcDbEntity
  8
0
100
AcDbLine
 62
7
  6
CONTINUOUS
 10
-45.7626560799
 20
-35.631909821
 11
-46.0332890186
 21
-35.5784691736
  0
LINE
  5
260
100
AcDbEntity
  8
0
100
AcDbLine
 62
7
  6
CONTINUOUS
 10
-47.7472975442
 20
-35.2400117571
 11
-48.0179304829
 21
-35.1865711097
  0
LINE
  5
261
100
AcDbEntity
  8
0
100
AcDbLine
 62
7
  6
CONTINUOUS
 10
16.072107449
 20
-47.5659223909
 11
16.9742169005
 21
-47.7440578143
  0
LINE
  5
262
100
AcDbEntity
  8
0
100
AcDbLine
 62
7
  6
CONTINUOUS
 10
-46.5325084908
 20
-35.2036754966
 11
-46.8031414295
 21
-35.1502348492
  0
LINE
  5
263
100
AcDbEntity
  8
0
100
AcDbLine
 62
7
  6
CONTINUOUS
 10
-48.5171499551
 20
-34.8117774327
 11
-48.7877828938
 21
-34.7583367853
  0
LINE
  5
264
100
AcDbEntity
  8
0
100
AcDbLine
 62
7
  6
CONTINUOUS
 10
-46.4571655841
 20
-35.1590426401
 11
-46.7277985227
 21
-35.1056019927
  0
LINE
  5
265
100
AcDbEntity
  8
0
100
AcDbLine
 62
7
  6
CONTINUOUS
 10
-48.4418070484
 20
-34.7671445762
 11
-48.712439987
 21
-34.7137039288
  0
LINE
  5
266
100
AcDbEntity
  8
0
100
AcDbLine
 62
7
  6
CONTINUOUS
 10
16.9189620349
 20
-47.5412290516
 11
16.1070632189
 21
-47.3809071094
  0
LINE
  5
267
100
AcDbEntity
  8
0
100
AcDbLine
 62
7
  6
CONTINUOUS
 10
16.8971904172
 20
-47.4774229015
 11
16.1824017362
 21
-47.3362768531
  0
LINE
  5
268
100
AcDbEntity
  8
0
100
AcDbLine
 62
7
  6
CONTINUOUS
 10
-50.5696412783
 20
-33.9745933898
 11
-49.7577423977
 21
-34.1349153447
  0
LINE
  5
269
100
AcDbEntity
  8
0
100
AcDbLine
 62
7
  6
CONTINUOUS
 10
-48.8105272414
 20
-34.3219575851
 11
-48.4947887269
 21
-34.3843050241
  0
LINE
  5
26A
100
AcDbEntity
  8
0
100
AcDbLine
 62
7
  6
CONTINUOUS
 10
-46.825885777
 20
-34.713855649
 11
-46.5101470045
 21
-34.776203139
  0
LINE
  5
26B
100
AcDbEntity
  8
0
100
AcDbLine
 62
7
  6
CONTINUOUS
 10
18.0340043076
 20
-47.5214412036
 11
18.800797806
 21
-47.6728564052
  0
LINE
  5
26C
100
AcDbEntity
  8
0
100
AcDbLine
 62
7
  6
CONTINUOUS
 10
-48.1439470347
 20
-34.2615498577
 11
-47.873314096
 21
-34.3149905051
  0
LINE
  5
26D
100
AcDbEntity
  8
0
100
AcDbLine
 62
7
  6
CONTINUOUS
 10
-46.1593055703
 20
-34.6534479216
 11
-45.8886726317
 21
-34.706888569
  0
LINE
  5
26E
100
AcDbEntity
  8
0
100
AcDbLine
 62
7
  6
CONTINUOUS
 10
18.8760303094
 20
-47.3996414191
 11
18.0190256594
 21
-47.2304126344
  0
LINE
  5
26F
100
AcDbEntity
  8
0
100
AcDbLine
 62
7
  6
CONTINUOUS
 10
-49.7276155992
 20
-33.8527935416
 11
-50.5846199265
 21
-33.6835648206
  0
LINE
  5
270
100
AcDbEntity
  8
0
100
AcDbLine
 62
7
  6
CONTINUOUS
 10
18.9513569044
 20
-47.3550182255
 11
18.0943522545
 21
-47.1857894408
  0
LINE
  5
271
100
AcDbEntity
  8
0
100
AcDbLine
 62
7
  6
CONTINUOUS
 10
-49.6522890041
 20
-33.808170348
 11
-50.5092933314
 21
-33.638941627
  0
LINE
  5
272
100
AcDbEntity
  8
0
100
AcDbLine
 62
7
  6
CONTINUOUS
 10
-45.901083204
 20
-34.4643223252
 11
-46.1717161426
 21
-34.4108816778
  0
LINE
  5
273
100
AcDbEntity
  8
0
100
AcDbLine
 62
7
  6
CONTINUOUS
 10
-47.8857246683
 20
-34.0724242613
 11
-48.1563576069
 21
-34.0189836139
  0
LINE
  5
274
100
AcDbEntity
  8
0
100
AcDbLine
 62
7
  6
CONTINUOUS
 10
-45.8257598226
 20
-34.4197010354
 11
-46.0963927613
 21
-34.366260388
  0
LINE
  5
275
100
AcDbEntity
  8
0
100
AcDbLine
 62
7
  6
CONTINUOUS
 10
-47.8104012869
 20
-34.0278029715
 11
-48.0810342256
 21
-33.9743623241
  0
LINE
  5
276
100
AcDbEntity
  8
RACCORDO
100
AcDbLine
 62
253
  6
CONTINUOUS
 10
-57.239720348
 20
-36.2330828329
 11
-57.2302071175
 21
-36.2350415467
  0
LINE
  5
277
100
AcDbEntity
  8
RACCORDO
100
AcDbLine
 62
253
  6
CONTINUOUS
 10
-48.2076999824
 20
-25.9539049397
 11
-49.0478472689
 21
-29.6195739983
  0
LINE
  5
278
100
AcDbEntity
  8
0
100
AcDbLine
 62
7
  6
CONTINUOUS
 10
-50.621421963
 20
-32.9556114083
 11
-49.7644176356
 21
-33.1248401293
  0
LINE
  5
279
100
AcDbEntity
  8
0
100
AcDbLine
 62
7
  6
CONTINUOUS
 10
-48.6367803051
 20
-33.3475095104
 11
-47.3287211875
 21
-33.6058059558
  0
LINE
  5
27A
100
AcDbEntity
  8
0
100
AcDbLine
 62
7
  6
CONTINUOUS
 10
-46.6521388408
 20
-33.7394075743
 11
-45.3440794651
 21
-33.9977040707
  0
LINE
  5
27B
100
AcDbEntity
  8
0
100
AcDbLine
 62
7
  6
CONTINUOUS
 10
17.9822236229
 20
-46.5024592221
 11
18.8392282729
 21
-46.6716880068
  0
LINE
  5
27C
100
AcDbEntity
  8
0
100
AcDbLine
 62
7
  6
CONTINUOUS
 10
18.7820596529
 20
-46.4200088933
 11
17.6995278982
 21
-46.2062463037
  0
LINE
  5
27D
100
AcDbEntity
  8
0
100
AcDbLine
 62
7
  6
CONTINUOUS
 10
16.6169961435
 20
-45.9924837141
 11
16.2561525694
 21
-45.9212295855
  0
LINE
  5
27E
100
AcDbEntity
  8
0
100
AcDbLine
 62
7
  6
CONTINUOUS
 10
15.1736208146
 20
-45.707466996
 11
14.7676714066
 21
-45.6273060249
  0
LINE
  5
27F
100
AcDbEntity
  8
0
100
AcDbLine
 62
7
  6
CONTINUOUS
 10
13.4145064551
 20
-45.3601027369
 11
13.0085570471
 21
-45.2799417658
  0
LINE
  5
280
100
AcDbEntity
  8
0
100
AcDbLine
 62
7
  6
CONTINUOUS
 10
12.6477132149
 20
-45.2086875863
 11
12.3770802762
 21
-45.1552469389
  0
LINE
  5
281
100
AcDbEntity
  8
0
100
AcDbLine
 62
7
  6
CONTINUOUS
 10
12.0162363149
 20
-45.0839927339
 11
11.7456033762
 21
-45.0305520865
  0
LINE
  5
282
100
AcDbEntity
  8
0
100
AcDbLine
 62
7
  6
CONTINUOUS
 10
10.4826497054
 20
-44.7811624071
 11
10.2120167667
 21
-44.7277217598
  0
LINE
  5
283
100
AcDbEntity
  8
0
100
AcDbLine
 62
7
  6
CONTINUOUS
 10
-45.3561422511
 20
-33.7549317997
 11
-46.8897292478
 21
-33.4521013965
  0
LINE
  5
284
100
AcDbEntity
  8
0
100
AcDbLine
 62
7
  6
CONTINUOUS
 10
-47.3407839735
 20
-33.3630336848
 11
-48.8743707121
 21
-33.0602033326
  0
LINE
  5
285
100
AcDbEntity
  8
0
100
AcDbLine
 62
7
  6
CONTINUOUS
 10
-49.8215858684
 20
-32.8731610922
 11
-50.9041176877
 21
-32.6593984899
  0
LINE
  5
286
100
AcDbEntity
  8
0
100
AcDbLine
 62
7
  6
CONTINUOUS
 10
-51.2649615844
 20
-32.5881442976
 11
-51.5355945231
 21
-32.5347036502
  0
LINE
  5
287
100
AcDbEntity
  8
0
100
AcDbLine
 62
7
  6
CONTINUOUS
 10
18.8573651291
 20
-46.3753982105
 11
17.7748333743
 21
-46.1616356209
  0
LINE
  5
288
100
AcDbEntity
  8
0
100
AcDbLine
 62
7
  6
CONTINUOUS
 10
16.6923016196
 20
-45.9478730313
 11
16.3314580455
 21
-45.8766189027
  0
LINE
  5
289
100
AcDbEntity
  8
0
100
AcDbLine
 62
7
  6
CONTINUOUS
 10
15.2489262907
 20
-45.6628563132
 11
14.8429768827
 21
-45.5826953421
  0
LINE
  5
28A
100
AcDbEntity
  8
0
100
AcDbLine
 62
7
  6
CONTINUOUS
 10
13.4898119312
 20
-45.3154920541
 11
13.0838625232
 21
-45.235331083
  0
LINE
  5
28B
100
AcDbEntity
  8
0
100
AcDbLine
 62
7
  6
CONTINUOUS
 10
12.723018691
 20
-45.1640769035
 11
12.4523857523
 21
-45.1106362561
  0
LINE
  5
28C
100
AcDbEntity
  8
0
100
AcDbLine
 62
7
  6
CONTINUOUS
 10
12.091541791
 20
-45.0393820511
 11
11.8209088523
 21
-44.9859414037
  0
LINE
  5
28D
100
AcDbEntity
  8
0
100
AcDbLine
 62
7
  6
CONTINUOUS
 10
10.5579551815
 20
-44.7365517243
 11
10.2873222428
 21
-44.6831110769
  0
LINE
  5
28E
100
AcDbEntity
  8
0
100
AcDbLine
 62
7
  6
CONTINUOUS
 10
-45.280836775
 20
-33.7103211169
 11
-46.8144237717
 21
-33.4074907137
  0
LINE
  5
28F
100
AcDbEntity
  8
0
100
AcDbLine
 62
7
  6
CONTINUOUS
 10
-47.2654784974
 20
-33.318423002
 11
-48.799065236
 21
-33.0155926498
  0
LINE
  5
290
100
AcDbEntity
  8
0
100
AcDbLine
 62
7
  6
CONTINUOUS
 10
-49.7462803923
 20
-32.8285504094
 11
-50.8288122116
 21
-32.6147878071
  0
LINE
  5
291
100
AcDbEntity
  8
0
100
AcDbLine
 62
7
  6
CONTINUOUS
 10
-51.1896561083
 20
-32.5435336148
 11
-51.460289047
 21
-32.4900929674
  0
LINE
  5
292
100
AcDbEntity
  8
RACCORDO
100
AcDbLine
 62
253
  6
CONTINUOUS
 10
-50.1897659274
 20
-31.3934171514
 11
18.844718085
 21
-45.0253406568
  0
LINE
  5
293
100
AcDbEntity
  8
RACCORDO
100
AcDbLine
 62
253
  6
CONTINUOUS
 10
18.4998354922
 20
-44.7449693086
 11
17.3491652063
 21
-44.5177529184
  0
LINE
  5
294
100
AcDbEntity
  8
0
100
AcDbLine
 62
7
  6
CONTINUOUS
 10
-45.6601566391
 20
-35.6637145559
 11
-45.8380067376
 21
-35.6765472692
  0
LINE
  5
295
100
AcDbEntity
  8
0
100
AcDbLine
 62
7
  6
CONTINUOUS
 10
-47.6447983615
 20
-35.271816441
 11
-47.8226482019
 21
-35.2846492053
  0
LINE
  5
296
100
AcDbEntity
  8
0
100
AcDbLine
 62
7
  6
CONTINUOUS
 10
-46.1717161426
 20
-34.4108816778
 11
-46.3947693189
 21
-34.4148659711
  0
LINE
  5
297
100
AcDbEntity
  8
0
100
AcDbLine
 62
7
  6
CONTINUOUS
 10
-49.7577423977
 20
-34.1349153447
 11
-49.5347217107
 21
-34.1309505019
  0
LINE
  5
298
100
AcDbEntity
  8
0
100
AcDbLine
 62
7
  6
CONTINUOUS
 10
-48.1563576069
 20
-34.0189836139
 11
-48.3794110413
 21
-34.0229678562
  0
LINE
  5
299
100
AcDbEntity
  8
0
100
AcDbLine
 62
7
  6
CONTINUOUS
 10
-45.8250842521
 20
-35.9188102925
 11
-45.6021493234
 21
-35.9148964521
  0
LINE
  5
29A
100
AcDbEntity
  8
0
100
AcDbLine
 62
7
  6
CONTINUOUS
 10
-47.8097257164
 20
-35.5269122286
 11
-47.5867907877
 21
-35.5229983881
  0
LINE
  5
29B
100
AcDbEntity
  8
RACCORDO
100
AcDbLine
 62
7
  6
CONTINUOUS
 10
17.8284103324
 20
-38.9937533182
 11
-49.2797734192
 21
-25.7422075063
  0
LINE
  5
29C
100
AcDbEntity
  8
RACCORDO
100
AcDbLine
 62
253
  6
CONTINUOUS
 10
17.2905083192
 20
-38.6061870566
 11
-49.0470376107
 21
-25.5068155672
  0
LINE
  5
29D
100
AcDbEntity
  8
0
100
AcDbLine
 62
7
  6
CONTINUOUS
 10
19.009991651
 20
-46.5131021002
 11
18.7820596529
 21
-46.4200088933
  0
LINE
  5
29E
100
AcDbEntity
  8
0
100
AcDbLine
 62
7
  6
CONTINUOUS
 10
18.8392282729
 20
-46.6716880068
 11
18.9769690543
 21
-46.7469554135
  0
LINE
  5
29F
100
AcDbEntity
  8
RACCORDO
100
AcDbLine
 62
253
  6
CONTINUOUS
 10
-28.3671738035
 20
-44.4428631501
 11
-28.3671738035
 21
-43.8624926393
  0
LINE
  5
2A0
100
AcDbEntity
  8
RACCORDO
100
AcDbLine
 62
253
  6
CONTINUOUS
 10
-27.0100065028
 20
-44.8403215444
 11
-27.0100065028
 21
-43.7343904492
  0
LINE
  5
2A1
100
AcDbEntity
  8
RACCORDO
100
AcDbLine
 62
7
  6
CONTINUOUS
 10
-26.6815764232
 20
-45.0710190563
 11
-26.6815764232
 21
-43.1916338147
  0
LINE
  5
2A2
100
AcDbEntity
  8
0
100
AcDbLine
 62
7
  6
CONTINUOUS
 10
-46.3372329631
 20
-34.6663268315
 11
-46.1593055703
 21
-34.6534479216
  0
LINE
  5
2A3
100
AcDbEntity
  8
0
100
AcDbLine
 62
7
  6
CONTINUOUS
 10
-48.3218744274
 20
-34.2744287676
 11
-48.1439470347
 21
-34.2615498577
  0
LINE
  5
2A4
100
AcDbEntity
  8
RACCORDO
100
AcDbLine
 62
253
  6
CONTINUOUS
 10
-26.1815764232
 20
-45.0981674692
 11
-26.1815764232
 21
-43.2187822276
  0
LINE
  5
2A5
100
AcDbEntity
  8
0
100
AcDbLine
 62
7
  6
CONTINUOUS
 10
-49.5947812441
 20
-33.8310006164
 11
-49.7276155992
 21
-33.8527935416
  0
LINE
  5
2A6
100
AcDbEntity
  8
0
100
AcDbLine
 62
7
  6
CONTINUOUS
 10
18.9769690543
 20
-46.7469554135
 11
19.072042651
 21
-46.8618561982
  0
LINE
  5
2A7
100
AcDbEntity
  8
0
100
AcDbLine
 62
7
  6
CONTINUOUS
 10
-5.8670283913
 20
44.2999572828
 11
-5.8670283913
 21
42.9631433656
  0
LINE
  5
2A8
100
AcDbEntity
  8
RACCORDO
100
AcDbLine
 62
253
  6
CONTINUOUS
 10
-5.8670283913
 20
44.299957283
 11
-5.8670283906
 21
44.299909419
  0
LINE
  5
2A9
100
AcDbEntity
  8
0
100
AcDbLine
 62
7
  6
CONTINUOUS
 10
-49.5095221713
 20
-33.7517804024
 11
-49.5947812441
 21
-33.8310006164
  0
LINE
  5
2AA
100
AcDbEntity
  8
RACCORDO
100
AcDbLine
 62
7
  6
CONTINUOUS
 10
-4.2186253802
 20
50.7806517562
 11
-4.2186253802
 21
50.3590029695
  0
LINE
  5
2AB
100
AcDbEntity
  8
0
100
AcDbLine
 62
7
  6
CONTINUOUS
 10
-3.7170283913
 20
46.5590875263
 11
-3.7170283913
 21
46.1580982763
  0
LINE
  5
2AC
100
AcDbEntity
  8
RACCORDO
100
AcDbLine
 62
253
  6
CONTINUOUS
 10
-2.4524803595
 20
-47.9044581912
 11
-2.4524803595
 21
-49.7838434327
  0
LINE
  5
2AD
100
AcDbEntity
  8
0
100
AcDbLine
 62
7
  6
CONTINUOUS
 10
-1.9670283913
 20
48.2883027293
 11
-1.9670283913
 21
47.8495449937
  0
LINE
  5
2AE
100
AcDbEntity
  8
RACCORDO
100
AcDbLine
 62
253
  6
CONTINUOUS
 10
-1.0864549557
 20
-48.25614161
 11
-1.0864549557
 21
-50.1304358739
  0
LINE
  5
2AF
100
AcDbEntity
  8
RACCORDO
100
AcDbLine
 62
7
  6
CONTINUOUS
 10
-0.8668829791
 20
-49.0912619502
 11
-0.8668829791
 21
-49.9735678751
  0
LINE
  5
2B0
100
AcDbEntity
  8
RACCORDO
100
AcDbLine
 62
253
  6
CONTINUOUS
 10
-0.3668829791
 20
-49.3915818779
 11
-0.3668829791
 21
-49.9719523887
  0
LINE
  5
2B1
100
AcDbEntity
  8
0
100
AcDbLine
 62
7
  6
CONTINUOUS
 10
-0.2170283913
 20
49.9545704613
 11
-0.2170283913
 21
49.5409917111
  0
LINE
  5
2B2
100
AcDbEntity
  8
RACCORDO
100
AcDbLine
 62
253
  6
CONTINUOUS
 10
28.9442615538
 20
22.2053604863
 11
37.6352531556
 21
27.3920739801
  0
LINE
  5
2B3
100
AcDbEntity
  8
RACCORDO
100
AcDbLine
 62
253
  6
CONTINUOUS
 10
30.243205657
 20
20.5393433053
 11
38.9342417979
 21
25.7260833796
  0
LINE
  5
2B4
100
AcDbEntity
  8
RACCORDO
100
AcDbLine
 62
253
  6
CONTINUOUS
 10
37.6352036922
 20
27.3920837474
 11
38.1352036922
 21
27.6882818801
  0
LINE
  5
2B5
100
AcDbEntity
  8
RACCORDO
100
AcDbLine
 62
253
  6
CONTINUOUS
 10
38.9342417979
 20
25.7260297087
 11
39.4342417979
 21
26.0222278414
  0
LINE
  5
2B6
100
AcDbEntity
  8
RACCORDO
100
AcDbLine
 62
253
  6
CONTINUOUS
 10
38.1352850491
 20
27.6881441274
 11
57.5184389121
 21
39.1358509321
  0
LINE
  5
2B7
100
AcDbEntity
  8
RACCORDO
100
AcDbLine
 62
253
  6
CONTINUOUS
 10
39.4343166638
 20
26.022101079
 11
58.8174745316
 21
37.4697990417
  0
LINE
  5
2B8
100
AcDbEntity
  8
0
100
AcDbLine
 62
7
  6
CONTINUOUS
 10
4.0329716087
 20
51.551144058
 11
4.0329716087
 21
51.2324384286
  0
LINE
  5
2B9
100
AcDbEntity
  8
RACCORDO
100
AcDbLine
 62
253
  6
CONTINUOUS
 10
-56.1888085903
 20
-38.1337675804
 11
-55.2339096655
 21
-37.5638916254
  0
LINE
  5
2BA
100
AcDbEntity
  8
RACCORDO
100
AcDbLine
 62
253
  6
CONTINUOUS
 10
-55.9723104833
 20
-38.4114326805
 11
-54.72164569
 21
-37.6650460474
  0
LINE
  5
2BB
100
AcDbEntity
  8
0
100
AcDbLine
 62
7
  6
CONTINUOUS
 10
-51.5355945231
 20
-32.5347036502
 11
-51.460289047
 21
-32.4900929674
  0
LINE
  5
2BC
100
AcDbEntity
  8
0
100
AcDbLine
 62
7
  6
CONTINUOUS
 10
-51.2649615844
 20
-32.5881442976
 11
-51.1896561083
 21
-32.5435336148
  0
LINE
  5
2BD
100
AcDbEntity
  8
0
100
AcDbLine
 62
7
  6
CONTINUOUS
 10
-50.9041176877
 20
-32.6593984899
 11
-50.8288122116
 21
-32.6147878071
  0
LINE
  5
2BE
100
AcDbEntity
  8
0
100
AcDbLine
 62
7
  6
CONTINUOUS
 10
-49.8215858684
 20
-32.8731610922
 11
-49.7462803923
 21
-32.8285504094
  0
LINE
  5
2BF
100
AcDbEntity
  8
0
100
AcDbLine
 62
7
  6
CONTINUOUS
 10
-49.5936541285
 20
-32.9662542481
 11
-49.5183476135
 21
-32.9216429499
  0
LINE
  5
2C0
100
AcDbEntity
  8
0
100
AcDbLine
 62
7
  6
CONTINUOUS
 10
-50.5846199265
 20
-33.6835648206
 11
-50.5092933314
 21
-33.638941627
  0
LINE
  5
2C1
100
AcDbEntity
  8
0
100
AcDbLine
 62
7
  6
CONTINUOUS
 10
-49.405994412
 20
-33.1475447262
 11
-49.3306847697
 21
-33.1029315753
  0
LINE
  5
2C2
100
AcDbEntity
  8
0
100
AcDbLine
 62
7
  6
CONTINUOUS
 10
-48.8743707121
 20
-33.0602033326
 11
-48.799065236
 21
-33.0155926498
  0
LINE
  5
2C3
100
AcDbEntity
  8
0
100
AcDbLine
 62
7
  6
CONTINUOUS
 10
-49.260970577
 20
-33.3684489171
 11
-49.1856567396
 21
-33.3238332811
  0
LINE
  5
2C4
100
AcDbEntity
  8
0
100
AcDbLine
 62
7
  6
CONTINUOUS
 10
-49.2085414243
 20
-33.5229681813
 11
-49.1332244218
 21
-33.4783506703
  0
LINE
  5
2C5
100
AcDbEntity
  8
0
100
AcDbLine
 62
7
  6
CONTINUOUS
 10
-49.7276155992
 20
-33.8527935416
 11
-49.6522890041
 21
-33.808170348
  0
LINE
  5
2C6
100
AcDbEntity
  8
0
100
AcDbLine
 62
7
  6
CONTINUOUS
 10
-51.1475318741
 20
-34.8678109277
 11
-51.0721756259
 21
-34.8231701677
  0
LINE
  5
2C7
100
AcDbEntity
  8
0
100
AcDbLine
 62
7
  6
CONTINUOUS
 10
-49.1987193651
 20
-33.7170843464
 11
-49.1233981172
 21
-33.6724643205
  0
LINE
  5
2C8
100
AcDbEntity
  8
0
100
AcDbLine
 62
7
  6
CONTINUOUS
 10
-49.2364154332
 20
-33.8537391224
 11
-49.1610909824
 21
-33.8091171991
  0
LINE
  5
2C9
100
AcDbEntity
  8
0
100
AcDbLine
 62
7
  6
CONTINUOUS
 10
-49.3617951297
 20
-34.0210669699
 11
-49.2864663831
 21
-33.9764425017
  0
LINE
  5
2CA
100
AcDbEntity
  8
0
100
AcDbLine
 62
7
  6
CONTINUOUS
 10
-50.5160550387
 20
-34.9925057674
 11
-50.4406987905
 21
-34.9478650074
  0
LINE
  5
2CB
100
AcDbEntity
  8
0
100
AcDbLine
 62
7
  6
CONTINUOUS
 10
-47.3407839735
 20
-33.3630336848
 11
-47.2654784974
 21
-33.318423002
  0
LINE
  5
2CC
100
AcDbEntity
  8
0
100
AcDbLine
 62
7
  6
CONTINUOUS
 10
-48.5974920612
 20
-34.1239737468
 11
-48.5221643913
 21
-34.0793499165
  0
LINE
  5
2CD
100
AcDbEntity
  8
0
100
AcDbLine
 62
7
  6
CONTINUOUS
 10
-48.3794110413
 20
-34.0229678562
 11
-48.3040865905
 21
-33.9783459328
  0
LINE
  5
2CE
100
AcDbEntity
  8
RACCORDO
100
AcDbLine
 62
7
  6
CONTINUOUS
 10
18.42934324
 20
5.5473888229
 11
18.4246410901
 21
5.5446032869
  0
LINE
  5
2CF
100
AcDbEntity
  8
0
100
AcDbLine
 62
7
  6
CONTINUOUS
 10
-48.1563576069
 20
-34.0189836139
 11
-48.0810342256
 21
-33.9743623241
  0
LINE
  5
2D0
100
AcDbEntity
  8
0
100
AcDbLine
 62
7
  6
CONTINUOUS
 10
-47.3287211875
 20
-33.6058059558
 11
-47.253410499
 21
-33.5611921852
  0
LINE
  5
2D1
100
AcDbEntity
  8
0
100
AcDbLine
 62
7
  6
CONTINUOUS
 10
-46.8897292478
 20
-33.4521013965
 11
-46.8144237717
 21
-33.4074907137
  0
LINE
  5
2D2
100
AcDbEntity
  8
0
100
AcDbLine
 62
7
  6
CONTINUOUS
 10
-47.8857246683
 20
-34.0724242613
 11
-47.8104012869
 21
-34.0278029715
  0
LINE
  5
2D3
100
AcDbEntity
  8
0
100
AcDbLine
 62
7
  6
CONTINUOUS
 10
-48.7877828938
 20
-34.7583367853
 11
-48.712439987
 21
-34.7137039288
  0
LINE
  5
2D4
100
AcDbEntity
  8
0
100
AcDbLine
 62
7
  6
CONTINUOUS
 10
-47.6577231188
 20
-34.1654762662
 11
-47.582398668
 21
-34.1208543429
  0
LINE
  5
2D5
100
AcDbEntity
  8
0
100
AcDbLine
 62
7
  6
CONTINUOUS
 10
-48.5171499551
 20
-34.8117774327
 11
-48.4418070484
 21
-34.7671445762
  0
LINE
  5
2D6
100
AcDbEntity
  8
0
100
AcDbLine
 62
7
  6
CONTINUOUS
 10
-47.4247494129
 20
-34.3555498685
 11
-47.349421743
 21
-34.3109260382
  0
LINE
  5
2D7
100
AcDbEntity
  8
0
100
AcDbLine
 62
7
  6
CONTINUOUS
 10
-48.4167237208
 20
-35.0234742503
 11
-48.3413763957
 21
-34.9788387764
  0
LINE
  5
2D8
100
AcDbEntity
  8
0
100
AcDbLine
 62
7
  6
CONTINUOUS
 10
-48.2762751324
 20
-35.1471216141
 11
-48.2009255874
 21
-35.102484825
  0
LINE
  5
2D9
100
AcDbEntity
  8
0
100
AcDbLine
 62
7
  6
CONTINUOUS
 10
-47.2794471787
 20
-34.5762892387
 11
-47.2041151914
 21
-34.5316628508
  0
LINE
  5
2DA
100
AcDbEntity
  8
0
100
AcDbLine
 62
7
  6
CONTINUOUS
 10
-48.0932811406
 20
-35.2312085579
 11
-48.0179304829
 21
-35.1865711097
  0
LINE
  5
2DB
100
AcDbEntity
  8
0
100
AcDbLine
 62
7
  6
CONTINUOUS
 10
-45.3561422511
 20
-33.7549317997
 11
-45.280836775
 21
-33.7103211169
  0
LINE
  5
2DC
100
AcDbEntity
  8
0
100
AcDbLine
 62
7
  6
CONTINUOUS
 10
-47.1766619582
 20
-34.836572077
 11
-47.1013245338
 21
-34.7919424681
  0
LINE
  5
2DD
100
AcDbEntity
  8
0
100
AcDbLine
 62
7
  6
CONTINUOUS
 10
-46.6128505969
 20
-34.5158718107
 11
-46.537522927
 21
-34.4712479804
  0
LINE
  5
2DE
100
AcDbEntity
  8
0
100
AcDbLine
 62
7
  6
CONTINUOUS
 10
-46.3947693189
 20
-34.4148659711
 11
-46.3194448681
 21
-34.3702440477
  0
LINE
  5
2DF
100
AcDbEntity
  8
0
100
AcDbLine
 62
7
  6
CONTINUOUS
 10
-47.8226482019
 20
-35.2846492053
 11
-47.7472975442
 21
-35.2400117571
  0
LINE
  5
2E0
100
AcDbEntity
  8
0
100
AcDbLine
 62
7
  6
CONTINUOUS
 10
-47.6447983615
 20
-35.271816441
 11
-47.5694488165
 21
-35.2271796519
  0
LINE
  5
2E1
100
AcDbEntity
  8
0
100
AcDbLine
 62
7
  6
CONTINUOUS
 10
-46.1717161426
 20
-34.4108816778
 11
-46.0963927613
 21
-34.366260388
  0
LINE
  5
2E2
100
AcDbEntity
  8
0
100
AcDbLine
 62
7
  6
CONTINUOUS
 10
-47.1665287919
 20
-35.0305038034
 11
-47.0911869852
 21
-34.9858715985
  0
LINE
  5
2E3
100
AcDbEntity
  8
0
100
AcDbLine
 62
7
  6
CONTINUOUS
 10
-45.3440794651
 20
-33.9977040707
 11
-45.2687687766
 21
-33.9530903001
  0
LINE
  5
2E4
100
AcDbEntity
  8
0
100
AcDbLine
 62
7
  6
CONTINUOUS
 10
-47.2439810725
 20
-35.255050372
 11
-47.1686337475
 21
-35.2104148981
  0
LINE
  5
2E5
100
AcDbEntity
  8
0
100
AcDbLine
 62
7
  6
CONTINUOUS
 10
-45.901083204
 20
-34.4643223252
 11
-45.8257598226
 21
-34.4197010354
  0
LINE
  5
2E6
100
AcDbEntity
  8
0
100
AcDbLine
 62
7
  6
CONTINUOUS
 10
-47.3690169153
 20
-35.4221744374
 11
-47.2936651432
 21
-35.377536329
  0
LINE
  5
2E7
100
AcDbEntity
  8
0
100
AcDbLine
 62
7
  6
CONTINUOUS
 10
-46.8031414295
 20
-35.1502348492
 11
-46.7277985227
 21
-35.1056019927
  0
LINE
  5
2E8
100
AcDbEntity
  8
0
100
AcDbLine
 62
7
  6
CONTINUOUS
 10
-45.6730816545
 20
-34.5573743301
 11
-45.5977572037
 21
-34.5127524068
  0
LINE
  5
2E9
100
AcDbEntity
  8
0
100
AcDbLine
 62
7
  6
CONTINUOUS
 10
-46.5325084908
 20
-35.2036754966
 11
-46.4571655841
 21
-35.1590426401
  0
LINE
  5
2EA
100
AcDbEntity
  8
0
100
AcDbLine
 62
7
  6
CONTINUOUS
 10
-45.4401076905
 20
-34.7474479834
 11
-45.3647800206
 21
-34.702824153
  0
LINE
  5
2EB
100
AcDbEntity
  8
0
100
AcDbLine
 62
7
  6
CONTINUOUS
 10
-46.4320822564
 20
-35.4153723142
 11
-46.3567349314
 21
-35.3707368403
  0
LINE
  5
2EC
100
AcDbEntity
  8
0
100
AcDbLine
 62
7
  6
CONTINUOUS
 10
-46.2916336681
 20
-35.539019678
 11
-46.2162841231
 21
-35.4943828889
  0
LINE
  5
2ED
100
AcDbEntity
  8
0
100
AcDbLine
 62
7
  6
CONTINUOUS
 10
-45.2948054563
 20
-34.9681873536
 11
-45.219473469
 21
-34.9235609657
  0
LINE
  5
2EE
100
AcDbEntity
  8
0
100
AcDbLine
 62
7
  6
CONTINUOUS
 10
-46.1086396763
 20
-35.6231066218
 11
-46.0332890186
 21
-35.5784691736
  0
LINE
  5
2EF
100
AcDbEntity
  8
0
100
AcDbLine
 62
7
  6
CONTINUOUS
 10
-45.1920204939
 20
-35.2284701409
 11
-45.1166830695
 21
-35.183840532
  0
LINE
  5
2F0
100
AcDbEntity
  8
0
100
AcDbLine
 62
7
  6
CONTINUOUS
 10
-45.8380067376
 20
-35.6765472692
 11
-45.7626560799
 21
-35.631909821
  0
LINE
  5
2F1
100
AcDbEntity
  8
0
100
AcDbLine
 62
7
  6
CONTINUOUS
 10
-45.6601566391
 20
-35.6637145559
 11
-45.5848070941
 21
-35.6190777668
  0
LINE
  5
2F2
100
AcDbEntity
  8
0
100
AcDbLine
 62
7
  6
CONTINUOUS
 10
-45.1818873276
 20
-35.4224018673
 11
-45.1065455209
 21
-35.3777696624
  0
LINE
  5
2F3
100
AcDbEntity
  8
0
100
AcDbLine
 62
7
  6
CONTINUOUS
 10
-45.2593393501
 20
-35.6469484869
 11
-45.1839920251
 21
-35.602313013
  0
LINE
  5
2F4
100
AcDbEntity
  8
0
100
AcDbLine
 62
7
  6
CONTINUOUS
 10
-45.3843751929
 20
-35.8140725523
 11
-45.3090234208
 21
-35.7694344439
  0
LINE
  5
2F5
100
AcDbEntity
  8
0
100
AcDbLine
 62
7
  6
CONTINUOUS
 10
-47.5146140112
 20
-35.2016097247
 11
-47.6447983615
 21
-35.271816441
  0
LINE
  5
2F6
100
AcDbEntity
  8
0
100
AcDbLine
 62
7
  6
CONTINUOUS
 10
-45.5299722888
 20
-35.5935078395
 11
-45.6601566391
 21
-35.6637145559
  0
LINE
  5
2F7
100
AcDbEntity
  8
DRAFT
100
AcDbLine
 62
7
  6
CONTINUOUS
 10
18.4292474927
 20
5.5436936816
 11
18.4246410901
 21
5.5446032869
  0
LINE
  5
2F8
100
AcDbEntity
  8
RACCORDO
100
AcDbLine
 62
7
  6
CONTINUOUS
 10
-47.7358013562
 20
19.5607566722
 11
18.4537834867
 21
6.4906023813
  0
LINE
  5
2F9
100
AcDbEntity
  8
0
100
AcDbLine
 62
7
  6
CONTINUOUS
 10
12.2329716087
 20
51.551144058
 11
12.2329716087
 21
51.2324384286
  0
LINE
  5
2FA
100
AcDbEntity
  8
0
100
AcDbLine
 62
7
  6
CONTINUOUS
 10
16.4829716087
 20
49.9545704613
 11
16.4829716087
 21
49.5409917111
  0
LINE
  5
2FB
100
AcDbEntity
  8
RACCORDO
100
AcDbLine
 62
253
  6
CONTINUOUS
 10
16.4829713705
 20
49.9538882766
 11
16.4829716087
 21
49.9545704616
  0
LINE
  5
2FC
100
AcDbEntity
  8
RACCORDO
100
AcDbLine
 62
253
  6
CONTINUOUS
 10
-32.056706356
 20
21.2378474481
 11
18.4998683105
 21
11.2546771145
  0
LINE
  5
2FD
100
AcDbEntity
  8
RACCORDO
100
AcDbLine
 62
253
  6
CONTINUOUS
 10
18.844718085
 20
11.3764074101
 11
-32.7317255422
 21
21.5609716068
  0
LINE
  5
2FE
100
AcDbEntity
  8
RACCORDO
100
AcDbLine
 62
7
  6
CONTINUOUS
 10
18.5019696299
 20
-41.8773825577
 11
18.5571099819
 21
-43.7015571537
  0
LWPOLYLINE
  5
2FF
100
AcDbEntity
  8
RACCORDO
100
AcDbPolyline
 62
7
  6
CONTINUOUS
 90
3
 70
0
 10
18.3465980095
 20
-35.752188539
 10
18.4187432294
 20
-38.8210167979
 10
18.5019696299
 20
-41.8773825577
  0
LINE
  5
300
100
AcDbEntity
  8
0
100
AcDbLine
 62
7
  6
CONTINUOUS
 10
18.2329716087
 20
48.2883027293
 11
18.2329716087
 21
47.8495449937
  0
LINE
  5
301
100
AcDbEntity
  8
0
100
AcDbLine
 62
7
  6
CONTINUOUS
 10
19.9829716087
 20
46.5590875263
 11
19.9829716087
 21
46.1580982763
  0
LINE
  5
302
100
AcDbEntity
  8
0
100
AcDbLine
 62
7
  6
CONTINUOUS
 10
22.1329716087
 20
44.2999572828
 11
22.1329716087
 21
42.9631433656
  0
LINE
  5
303
100
AcDbEntity
  8
RACCORDO
100
AcDbLine
 62
253
  6
CONTINUOUS
 10
19.9829715177
 20
46.5585853703
 11
19.9829716087
 21
46.5590875266
  0
LINE
  5
304
100
AcDbEntity
  8
RACCORDO
100
AcDbLine
 62
253
  6
CONTINUOUS
 10
18.2329658824
 20
48.2846242707
 11
18.2329716087
 21
48.2883027298
  0
LWPOLYLINE
  5
305
100
AcDbEntity
  8
RACCORDO
100
AcDbPolyline
 62
7
  6
CONTINUOUS
 90
15
 70
0
 10
18.5021260425
 20
8.3562690704
 10
18.4188850458
 20
5.1437795334
 10
18.3467238177
 20
1.9396120254
 10
18.2856497102
 20
-1.2559318636
 10
18.235668768
 20
-4.4425505558
 10
18.1967868426
 20
-7.61994217
 10
18.1690078189
 20
-10.787808398
 10
18.1523343629
 20
-13.9458505156
 10
18.1467689054
 20
-17.0937677586
 10
18.152311856
 20
-20.2312649147
 10
18.1689625267
 20
-23.3580494415
 10
18.1967199962
 20
-26.4738267848
 10
18.2355812215
 20
-29.578303189
 10
18.285541982
 20
-32.6711873026
 10
18.3465980095
 20
-35.752188539
  0
LINE
  5
306
100
AcDbEntity
  8
RACCORDO
100
AcDbLine
 62
7
  6
CONTINUOUS
 10
18.5559667665
 20
10.2397078627
 11
18.5021260425
 21
8.3562690704
  0
LINE
  5
307
100
AcDbEntity
  8
RACCORDO
100
AcDbLine
 62
253
  6
CONTINUOUS
 10
-57.2397201952
 20
33.0739332379
 11
-57.2302071175
 21
33.0721392617
  0
LINE
  5
308
100
AcDbEntity
  8
DRAFT
100
AcDbLine
 62
253
  6
CONTINUOUS
 10
25.9492732664
 20
14.8271306512
 11
-56.8308347481
 21
31.1733395984
  0
LINE
  5
309
100
AcDbEntity
  8
RACCORDO
100
AcDbLine
 62
253
  6
CONTINUOUS
 10
26.4443667656
 20
16.5493042345
 11
26.453870713
 21
16.5473429002
  0
LINE
  5
30A
100
AcDbEntity
  8
RACCORDO
100
AcDbLine
 62
253
  6
CONTINUOUS
 10
18.5144368771
 20
8.786922705
 11
18.3314940721
 21
9.9750006382
  0
LINE
  5
30B
100
AcDbEntity
  8
RACCORDO
100
AcDbLine
 62
253
  6
CONTINUOUS
 10
18.4935384969
 20
-41.5677617404
 11
18.3314940041
 21
-42.9246646526
  0
LINE
  5
30C
100
AcDbEntity
  8
RACCORDO
100
AcDbLine
 62
7
  6
CONTINUOUS
 10
-27.0100065028
 20
-43.7343904492
 11
-26.6815764232
 21
-43.5422138747
  0
LINE
  5
30D
100
AcDbEntity
  8
RACCORDO
100
AcDbLine
 62
7
  6
CONTINUOUS
 10
27.2103041958
 20
19.946683353
 11
-55.9723104833
 21
36.3723734485
  0
LINE
  5
30E
100
AcDbEntity
  8
DRAFT
100
AcDbLine
 62
7
  6
CONTINUOUS
 10
-56.1888085903
 20
36.9954948493
 11
27.4547518077
 21
20.478783913
  0
LINE
  5
30F
100
AcDbEntity
  8
RACCORDO
100
AcDbLine
 62
253
  6
CONTINUOUS
 10
-54.8014784938
 20
38.742248371
 11
28.9442615538
 21
22.2053604863
  0
LINE
  5
310
100
AcDbEntity
  8
0
100
AcDbLine
 62
7
  6
CONTINUOUS
 10
49.9145933384
 20
-15.0690220748
 11
50.5380696644
 21
-14.8001206299
  0
LINE
  5
311
100
AcDbEntity
  8
RACCORDO
100
AcDbLine
 62
7
  6
CONTINUOUS
 10
-46.3693099382
 20
43.980070466
 11
37.6352531556
 21
27.3920739801
  0
LINE
  5
312
100
AcDbEntity
  8
RACCORDO
100
AcDbLine
 62
7
  6
CONTINUOUS
 10
38.1346070042
 20
27.6877436735
 11
-45.8686637868
 21
44.2754849743
  0
LINE
  5
313
100
AcDbEntity
  8
RACCORDO
100
AcDbLine
 62
7
  6
CONTINUOUS
 10
38.1352036922
 20
27.6882818801
 11
-45.8692604748
 21
44.2762588314
  0
LINE
  5
314
100
AcDbEntity
  8
RACCORDO
100
AcDbLine
 62
7
  6
CONTINUOUS
 10
38.9342417979
 20
-49.4493799542
 11
38.9342417979
 21
25.7260297087
  0
LINE
  5
315
100
AcDbEntity
  8
RACCORDO
100
AcDbLine
 62
7
  6
CONTINUOUS
 10
39.4336371957
 20
-49.1524149889
 11
39.4336371957
 21
26.021699785
  0
LINE
  5
316
100
AcDbEntity
  8
RACCORDO
100
AcDbLine
 62
7
  6
CONTINUOUS
 10
39.4342417979
 20
-49.1531818214
 11
39.4342417979
 21
26.0222278414
  0
LINE
  5
317
100
AcDbEntity
  8
RACCORDO
100
AcDbLine
 62
7
  6
CONTINUOUS
 10
-0.7415026862
 20
-48.9215116359
 11
-0.0231301603
 21
-48.4661114893
  0
LINE
  5
318
100
AcDbEntity
  8
0
100
AcDbLine
 62
7
  6
CONTINUOUS
 10
10.2120167667
 20
-44.7277217598
 11
10.2873222428
 21
-44.6831110769
  0
LINE
  5
319
100
AcDbEntity
  8
0
100
AcDbLine
 62
7
  6
CONTINUOUS
 10
10.4826497054
 20
-44.7811624071
 11
10.5579551815
 21
-44.7365517243
  0
LINE
  5
31A
100
AcDbEntity
  8
0
100
AcDbLine
 62
7
  6
CONTINUOUS
 10
54.0624908264
 20
5.9366681866
 11
54.5369580136
 21
5.4509608628
  0
LINE
  5
31B
100
AcDbEntity
  8
0
100
AcDbLine
 62
7
  6
CONTINUOUS
 10
19.0941238663
 20
-47.2986283055
 11
19.0088641482
 21
-47.377848392
  0
LINE
  5
31C
100
AcDbEntity
  8
0
100
AcDbLine
 62
7
  6
CONTINUOUS
 10
11.7456033762
 20
-45.0305520865
 11
11.8209088523
 21
-44.9859414037
  0
LINE
  5
31D
100
AcDbEntity
  8
0
100
AcDbLine
 62
7
  6
CONTINUOUS
 10
12.0162363149
 20
-45.0839927339
 11
12.091541791
 21
-45.0393820511
  0
LINE
  5
31E
100
AcDbEntity
  8
0
100
AcDbLine
 62
7
  6
CONTINUOUS
 10
12.3770802762
 20
-45.1552469389
 11
12.4523857523
 21
-45.1106362561
  0
LINE
  5
31F
100
AcDbEntity
  8
0
100
AcDbLine
 62
7
  6
CONTINUOUS
 10
12.6477132149
 20
-45.2086875863
 11
12.723018691
 21
-45.1640769035
  0
LINE
  5
320
100
AcDbEntity
  8
0
100
AcDbLine
 62
7
  6
CONTINUOUS
 10
13.0085570471
 20
-45.2799417658
 11
13.0838625232
 21
-45.235331083
  0
LINE
  5
321
100
AcDbEntity
  8
0
100
AcDbLine
 62
7
  6
CONTINUOUS
 10
13.4145064551
 20
-45.3601027369
 11
13.4898119312
 21
-45.3154920541
  0
LINE
  5
322
100
AcDbEntity
  8
0
100
AcDbLine
 62
7
  6
CONTINUOUS
 10
11.4119782317
 20
-47.2211509795
 11
11.48733448
 21
-47.1765102194
  0
LINE
  5
323
100
AcDbEntity
  8
0
100
AcDbLine
 62
7
  6
CONTINUOUS
 10
14.7676714066
 20
-45.6273060249
 11
14.8429768827
 21
-45.5826953421
  0
LINE
  5
324
100
AcDbEntity
  8
0
100
AcDbLine
 62
7
  6
CONTINUOUS
 10
15.1736208146
 20
-45.707466996
 11
15.2489262907
 21
-45.6628563132
  0
LINE
  5
325
100
AcDbEntity
  8
0
100
AcDbLine
 62
7
  6
CONTINUOUS
 10
12.7651429251
 20
-47.4883542164
 11
12.8404991734
 21
-47.4437134564
  0
LINE
  5
326
100
AcDbEntity
  8
0
100
AcDbLine
 62
7
  6
CONTINUOUS
 10
13.396619696
 20
-47.6130490434
 11
13.4719759443
 21
-47.5684082834
  0
LINE
  5
327
100
AcDbEntity
  8
0
100
AcDbLine
 62
7
  6
CONTINUOUS
 10
16.2561525694
 20
-45.9212295855
 11
16.3314580455
 21
-45.8766189027
  0
LINE
  5
328
100
AcDbEntity
  8
0
100
AcDbLine
 62
7
  6
CONTINUOUS
 10
16.6169961435
 20
-45.9924837141
 11
16.6923016196
 21
-45.9478730313
  0
LINE
  5
329
100
AcDbEntity
  8
0
100
AcDbLine
 62
7
  6
CONTINUOUS
 10
14.3889405572
 20
-47.8089981008
 11
14.4642968055
 21
-47.7643573408
  0
LINE
  5
32A
100
AcDbEntity
  8
0
100
AcDbLine
 62
7
  6
CONTINUOUS
 10
17.6995278982
 20
-46.2062463037
 11
17.7748333743
 21
-46.1616356209
  0
LINE
  5
32B
100
AcDbEntity
  8
0
100
AcDbLine
 62
7
  6
CONTINUOUS
 10
16.1070632189
 20
-47.3809071094
 11
16.1824017362
 21
-47.3362768531
  0
LINE
  5
32C
100
AcDbEntity
  8
0
100
AcDbLine
 62
7
  6
CONTINUOUS
 10
15.2910505249
 20
-47.9871336261
 11
15.3664067731
 21
-47.9424928661
  0
LINE
  5
32D
100
AcDbEntity
  8
DRAFT
100
AcDbLine
 62
7
  6
CONTINUOUS
 10
-7.2186253802
 20
49.9595621024
 11
-2.8884983613
 21
49.1045117441
  0
LINE
  5
32E
100
AcDbEntity
  8
RACCORDO
100
AcDbLine
 62
253
  6
CONTINUOUS
 10
-4.7186253802
 20
50.3781184402
 11
-1.7239148064
 21
49.7867666535
  0
LINE
  5
32F
100
AcDbEntity
  8
RACCORDO
100
AcDbLine
 62
7
  6
CONTINUOUS
 10
-4.524900754
 20
50.4194817654
 11
-1.6222716287
 21
49.8463128808
  0
LINE
  5
330
100
AcDbEntity
  8
0
100
AcDbLine
 62
7
  6
CONTINUOUS
 10
15.9225270377
 20
-48.1118284021
 11
15.9978832859
 21
-48.067187642
  0
LINE
  5
331
100
AcDbEntity
  8
0
100
AcDbLine
 62
7
  6
CONTINUOUS
 10
18.7820596529
 20
-46.4200088933
 11
18.8573651291
 21
-46.3753982105
  0
LINE
  5
332
100
AcDbEntity
  8
0
100
AcDbLine
 62
7
  6
CONTINUOUS
 10
19.009991651
 20
-46.5131021002
 11
19.085298166
 21
-46.4684908019
  0
LINE
  5
333
100
AcDbEntity
  8
0
100
AcDbLine
 62
7
  6
CONTINUOUS
 10
18.0190256594
 20
-47.2304126344
 11
18.0943522545
 21
-47.1857894408
  0
LINE
  5
334
100
AcDbEntity
  8
0
100
AcDbLine
 62
7
  6
CONTINUOUS
 10
19.1976516255
 20
-46.6943926292
 11
19.2729612679
 21
-46.6497794783
  0
LINE
  5
335
100
AcDbEntity
  8
0
100
AcDbLine
 62
7
  6
CONTINUOUS
 10
19.3426755896
 20
-46.9152968456
 11
19.417989427
 21
-46.8706812096
  0
LINE
  5
336
100
AcDbEntity
  8
0
100
AcDbLine
 62
7
  6
CONTINUOUS
 10
19.395103968
 20
-47.0698159569
 11
19.4704209706
 21
-47.0251984459
  0
LINE
  5
337
100
AcDbEntity
  8
0
100
AcDbLine
 62
7
  6
CONTINUOUS
 10
18.8760303094
 20
-47.3996414191
 11
18.9513569044
 21
-47.3550182255
  0
LINE
  5
338
100
AcDbEntity
  8
0
100
AcDbLine
 62
7
  6
CONTINUOUS
 10
17.4561140344
 20
-48.4146588053
 11
17.5314702826
 21
-48.3700180452
  0
LINE
  5
339
100
AcDbEntity
  8
0
100
AcDbLine
 62
7
  6
CONTINUOUS
 10
19.4049260272
 20
-47.2639321221
 11
19.4802472751
 21
-47.2193120961
  0
LINE
  5
33A
100
AcDbEntity
  8
0
100
AcDbLine
 62
7
  6
CONTINUOUS
 10
19.3672307334
 20
-47.4005870509
 11
19.4425551842
 21
-47.3559651276
  0
LINE
  5
33B
100
AcDbEntity
  8
0
100
AcDbLine
 62
7
  6
CONTINUOUS
 10
19.2418509079
 20
-47.5679148729
 11
19.3171796544
 21
-47.5232904048
  0
LINE
  5
33C
100
AcDbEntity
  8
0
100
AcDbLine
 62
7
  6
CONTINUOUS
 10
18.0875905472
 20
-48.5393535812
 11
18.1629467954
 21
-48.4947128212
  0
LINE
  5
33D
100
AcDbEntity
  8
0
100
AcDbLine
 62
7
  6
CONTINUOUS
 10
19.5309663922
 20
-48.8243704013
 11
19.6063226404
 21
-48.7797296413
  0
LINE
  5
33E
100
AcDbEntity
  8
0
100
AcDbLine
 62
7
  6
CONTINUOUS
 10
19.0664214869
 20
-47.62929723
 11
19.2418509079
 21
-47.5679148729
  0
LWPOLYLINE
  5
33F
100
AcDbEntity
  8
RACCORDO
100
AcDbPolyline
 62
7
  6
CONTINUOUS
 90
27
 70
0
 10
-26.0570387992
 20
55.7173621688
 10
-26.0780386146
 20
55.7213447838
 10
-26.1169471128
 20
55.7278628191
 10
-26.1559041763
 20
55.7332771246
 10
-26.1948721662
 20
55.7375870967
 10
-26.2338260321
 20
55.7407954729
 10
-26.272751268
 20
55.7429060533
 10
-26.311617912
 20
55.743921186
 10
-26.3503958395
 20
55.7438442784
 10
-26.3890683938
 20
55.7426796948
 10
-26.4276034032
 20
55.740431989
 10
-26.4659704892
 20
55.7371063715
 10
-26.5041545298
 20
55.7327077842
 10
-26.5421229007
 20
55.7272434847
 10
-26.5798458776
 20
55.7207211035
 10
-26.6173116069
 20
55.7131453429
 10
-26.654488848
 20
55.7045254076
 10
-26.69134676
 20
55.6948715142
 10
-26.7278730783
 20
55.6841890321
 10
-26.7640368238
 20
55.6724889102
 10
-26.7998077266
 20
55.6597838544
 10
-26.8351735139
 20
55.6460803583
 10
-26.8701034063
 20
55.6313916739
 10
-26.9045682739
 20
55.6157322646
 10
-26.93855743
 20
55.5991090936
 10
-26.9720476
 20
55.5815344257
 10
-27.0056692052
 20
55.5626411818
  0
LINE
  5
340
100
AcDbEntity
  8
RACCORDO
100
AcDbLine
 62
253
  6
CONTINUOUS
 10
-26.2490040846
 20
55.677024398
 11
-4.7168800545
 21
51.4251744437
  0
LINE
  5
341
100
AcDbEntity
  8
RACCORDO
100
AcDbLine
 62
253
  6
CONTINUOUS
 10
-0.3867530356
 20
50.5701240854
 11
-0.0900484777
 21
50.5115351948
  0
LINE
  5
342
100
AcDbEntity
  8
RACCORDO
100
AcDbLine
 62
253
  6
CONTINUOUS
 10
21.288050046
 20
46.2900999521
 11
57.5184389121
 21
39.1358509321
  0
LINE
  5
343
100
AcDbEntity
  8
RACCORDO
100
AcDbLine
 62
7
  6
CONTINUOUS
 10
-26.0570311708
 20
55.7173607848
 11
-4.524900754
 21
51.4655095695
  0
LINE
  5
344
100
AcDbEntity
  8
RACCORDO
100
AcDbLine
 62
7
  6
CONTINUOUS
 10
-0.1947737351
 20
50.6104592112
 11
-0.0527292577
 21
50.5824103385
  0
LINE
  5
345
100
AcDbEntity
  8
RACCORDO
100
AcDbLine
 62
7
  6
CONTINUOUS
 10
21.1941043156
 20
46.3868953847
 11
57.7104236408
 21
39.1761849859
  0
LWPOLYLINE
  5
346
100
AcDbEntity
  8
RACCORDO
100
AcDbPolyline
 62
7
  6
CONTINUOUS
 90
52
 70
0
 10
58.9497089688
 20
37.6397836332
 10
58.9495009624
 20
37.6648437414
 10
58.9482136912
 20
37.7070548745
 10
58.9457500301
 20
37.7493100979
 10
58.942107518
 20
37.7915970435
 10
58.9372864877
 20
37.8338784892
 10
58.9312921203
 20
37.8760905181
 10
58.9241255419
 20
37.9182146865
 10
58.9157888013
 20
37.9602267353
 10
58.9062937404
 20
38.0020568114
 10
58.8956434088
 20
38.0436878654
 10
58.8838418594
 20
38.0850971779
 10
58.8709090113
 20
38.1262097466
 10
58.856850831
 20
38.1670079277
 10
58.8416724108
 20
38.2074730409
 10
58.8254001685
 20
38.2475321526
 10
58.8080416704
 20
38.2871692702
 10
58.7896032058
 20
38.3263668454
 10
58.7701178396
 20
38.365053855
 10
58.7495947597
 20
38.4032147739
 10
58.7280410411
 20
38.4408336999
 10
58.7054952098
 20
38.4778437706
 10
58.6819672676
 20
38.5142304863
 10
58.6574656882
 20
38.5499783418
 10
58.6320346363
 20
38.5850238241
 10
58.6056851496
 20
38.6193529453
 10
58.5784274601
 20
38.6529508216
 10
58.5503114419
 20
38.6857571318
 10
58.5213501698
 20
38.7177577909
 10
58.4915555992
 20
38.7489393137
 10
58.4609820104
 20
38.7792462748
 10
58.4296448687
 20
38.8086649772
 10
58.3975583019
 20
38.8371831698
 10
58.3647802443
 20
38.8647511846
 10
58.3313313039
 20
38.8913544388
 10
58.2972258696
 20
38.9169839219
 10
58.2625177282
 20
38.941601411
 10
58.2272280397
 20
38.9651949625
 10
58.1913756163
 20
38.9877548105
 10
58.1550155892
 20
39.0092488779
 10
58.1181715398
 20
39.0296670042
 10
58.0808652409
 20
39.0490006536
 10
58.0431540909
 20
39.0672235678
 10
58.005068044
 20
39.0843263956
 10
57.9666289367
 20
39.1003044087
 10
57.927886571
 20
39.1151414428
 10
57.8888701069
 20
39.1288317553
 10
57.8496052396
 20
39.141371811
 10
57.8101402937
 20
39.1527514403
 10
57.7705134012
 20
39.1629662426
 10
57.730751427
 20
39.1720165702
 10
57.7104305663
 20
39.1761835492
  0
LINE
  5
347
100
AcDbEntity
  8
RACCORDO
100
AcDbLine
 62
253
  6
CONTINUOUS
 10
58.8174745316
 20
37.4697990417
 11
58.8174745316
 21
-37.4484275825
  0
LINE
  5
348
100
AcDbEntity
  8
RACCORDO
100
AcDbLine
 62
7
  6
CONTINUOUS
 10
58.9497090782
 20
37.6397810771
 11
58.9497090782
 21
-37.2784583672
  0
LWPOLYLINE
  5
349
100
AcDbEntity
  8
RACCORDO
100
AcDbPolyline
 62
7
  6
CONTINUOUS
 90
36
 70
0
 10
58.2907415392
 20
-38.4778018057
 10
58.3273287764
 20
-38.4548958717
 10
58.3606354526
 20
-38.4325648113
 10
58.3932594003
 20
-38.4092375974
 10
58.4251762315
 20
-38.3849318497
 10
58.4563763822
 20
-38.3596538073
 10
58.4868281059
 20
-38.3334264998
 10
58.5165006454
 20
-38.3062741947
 10
58.5453848656
 20
-38.2782029874
 10
58.5734516943
 20
-38.2492372472
 10
58.6006713792
 20
-38.2194036495
 10
58.6270329181
 20
-38.1887098546
 10
58.6525089871
 20
-38.1571826123
 10
58.6770726155
 20
-38.1248498845
 10
58.7007126361
 20
-38.0917192876
 10
58.7234047117
 20
-38.0578175663
 10
58.7451233025
 20
-38.0231753355
 10
58.7658550151
 20
-37.9878041561
 10
58.785579123
 20
-37.9517286612
 10
58.8042711119
 20
-37.9149834772
 10
58.8219124189
 20
-37.8775933723
 10
58.8384834378
 20
-37.8395875784
 10
58.8539654499
 20
-37.8009980388
 10
58.8683423047
 20
-37.7618515598
 10
58.8815975806
 20
-37.7221771248
 10
58.8937156611
 20
-37.6820072077
 10
58.9046824173
 20
-37.6413712853
 10
58.914484681
 20
-37.6002961136
 10
58.9231092753
 20
-37.5588158454
 10
58.9305432517
 20
-37.5169683262
 10
58.9367758395
 20
-37.4747823847
 10
58.9417974769
 20
-37.4322876383
 10
58.9455983259
 20
-37.3895201557
 10
58.9481696657
 20
-37.3465101886
 10
58.9495044091
 20
-37.3032874681
 10
58.9497090162
 20
-37.2784620461
  0
LINE
  5
34A
100
AcDbEntity
  8
RACCORDO
100
AcDbLine
 62
253
  6
CONTINUOUS
 10
39.4336371957
 20
-49.1524149889
 11
58.8174745316
 21
-37.4484275825
  0
LINE
  5
34B
100
AcDbEntity
  8
RACCORDO
100
AcDbLine
 62
7
  6
CONTINUOUS
 10
58.2908102375
 20
-38.4777605554
 11
58.2907460252
 21
-38.4777993236
  0
LINE
  5
34C
100
AcDbEntity
  8
RACCORDO
100
AcDbLine
 62
7
  6
CONTINUOUS
 10
38.9062844947
 20
-50.1821577329
 11
58.2908111805
 21
-38.4777599861
  0
LINE
  5
34D
100
AcDbEntity
  8
RACCORDO
100
AcDbLine
 62
253
  6
CONTINUOUS
 10
38.9342417979
 20
-49.4493799542
 11
39.4342417979
 21
-49.1531818214
  0
LINE
  5
34E
100
AcDbEntity
  8
RACCORDO
100
AcDbLine
 62
7
  6
CONTINUOUS
 10
38.3997197503
 20
-50.483413256
 11
38.8997197503
 21
-50.1872151233
  0
LINE
  5
34F
100
AcDbEntity
  8
RACCORDO
100
AcDbLine
 62
253
  6
CONTINUOUS
 10
38.9342417979
 20
-49.4494336251
 11
30.243205657
 21
-54.3553328014
  0
LINE
  5
350
100
AcDbEntity
  8
RACCORDO
100
AcDbLine
 62
7
  6
CONTINUOUS
 10
38.3817442856
 20
-50.4938455153
 11
29.688115751
 21
-55.4012080409
  0
ARC
  5
351
100
AcDbEntity
  8
RACCORDO
100
AcDbCircle
 62
253
  6
CONTINUOUS
 10
26.9430066198
 20
-50.2681783088
 40
2.5391336589
100
AcDbArc
 50
258.89327931
 51
260.8661478324
  0
ARC
  5
352
100
AcDbEntity
  8
RACCORDO
100
AcDbCircle
 62
253
  6
CONTINUOUS
 10
28.3978519634
 20
-54.2717514208
 40
1.5052093669
100
AcDbArc
 50
228.2636778026
 51
232.6511019362
  0
ARC
  5
353
100
AcDbEntity
  8
RACCORDO
100
AcDbCircle
 62
7
  6
CONTINUOUS
 10
37.9760242539
 20
-49.1544865637
 40
1.4582181278
100
AcDbArc
 50
350.1177414407
 51
0.0512654693
  0
ARC
  5
354
100
AcDbEntity
  8
RACCORDO
100
AcDbCircle
 62
7
  6
CONTINUOUS
 10
37.4760242539
 20
-49.4506846965
 40
1.4582181278
100
AcDbArc
 50
350.1177414407
 51
0.0512654693
  0
ARC
  5
355
100
AcDbEntity
  8
RACCORDO
100
AcDbCircle
 62
7
  6
CONTINUOUS
 10
-1.0160892933
 20
-48.706794079
 40
1.433183933
100
AcDbArc
 50
284.3428696471
 51
288.6045677744
  0
ARC
  5
356
100
AcDbEntity
  8
RACCORDO
100
AcDbCircle
 62
253
  6
CONTINUOUS
 10
-55.5339462248
 20
-38.1300856947
 40
1.0573225267
100
AcDbArc
 50
257.2174633598
 51
258.8555152375
  0
ARC
  5
357
100
AcDbEntity
  8
RACCORDO
100
AcDbCircle
 62
7
  6
CONTINUOUS
 10
38.3518959369
 20
-49.2847963406
 40
1.0553783071
100
AcDbArc
 50
305.7084567187
 51
317.5878368927
  0
ARC
  5
358
100
AcDbEntity
  8
RACCORDO
100
AcDbCircle
 62
7
  6
CONTINUOUS
 10
38.3823401921
 20
-49.32568865
 40
1.0044050947
100
AcDbArc
 50
300.8247184704
 51
305.6597745526
  0
ARC
  5
359
100
AcDbEntity
  8
RACCORDO
100
AcDbCircle
 62
7
  6
CONTINUOUS
 10
37.8823401921
 20
-49.6218867827
 40
1.0044050947
100
AcDbArc
 50
300.8247184704
 51
305.6597745526
  0
ARC
  5
35A
100
AcDbEntity
  8
RACCORDO
100
AcDbCircle
 62
253
  6
CONTINUOUS
 10
57.7765415211
 20
-37.6260786023
 40
0.9949037716
100
AcDbArc
 50
301.1247207624
 51
301.9912132656
  0
ARC
  5
35B
100
AcDbEntity
  8
RACCORDO
100
AcDbCircle
 62
253
  6
CONTINUOUS
 10
6.210608803
 20
46.6202311865
 40
37.4399248834
100
AcDbArc
 50
289.1619097114
 51
289.7216020615
  0
ARC
  5
35C
100
AcDbEntity
  8
RACCORDO
100
AcDbCircle
 62
7
  6
CONTINUOUS
 10
0.8860419035
 20
39.7495969278
 40
8.8721990803
100
AcDbArc
 50
119.2544010152
 51
120.6357280256
  0
ARC
  5
35D
100
AcDbEntity
  8
RACCORDO
100
AcDbCircle
 62
253
  6
CONTINUOUS
 10
35.1221103274
 20
16.551390721
 40
8.5805231681
100
AcDbArc
 50
156.734128002
 51
156.9357258007
  0
ARC
  5
35E
100
AcDbEntity
  8
RACCORDO
100
AcDbCircle
 62
253
  6
CONTINUOUS
 10
34.5568130932
 20
16.8032149407
 40
7.961728794
100
AcDbArc
 50
152.6562581029
 51
156.792093936
  0
ARC
  5
35F
100
AcDbEntity
  8
RACCORDO
100
AcDbCircle
 62
253
  6
CONTINUOUS
 10
15.6524280387
 20
49.6301223185
 40
7.7756059103
100
AcDbArc
 50
300.6420619925
 51
300.8409702869
  0
ARC
  5
360
100
AcDbEntity
  8
RACCORDO
100
AcDbCircle
 62
7
  6
CONTINUOUS
 10
1.7827694968
 20
42.3614639466
 40
7.472420421
100
AcDbArc
 50
118.9641511226
 51
119.9377058786
  0
ARC
  5
361
100
AcDbEntity
  8
RACCORDO
100
AcDbCircle
 62
253
  6
CONTINUOUS
 10
0.4544078271
 20
49.3654566467
 40
7.4669237994
100
AcDbArc
 50
239.1660985309
 51
239.3582363942
  0
ARC
  5
362
100
AcDbEntity
  8
RACCORDO
100
AcDbCircle
 62
7
  6
CONTINUOUS
 10
1.649373275
 20
42.5935586243
 40
7.2047220167
100
AcDbArc
 50
119.9395490408
 51
120.6406275216
  0
ARC
  5
363
100
AcDbEntity
  8
RACCORDO
100
AcDbCircle
 62
253
  6
CONTINUOUS
 10
1.5838321014
 20
42.8759715897
 40
6.9083144759
100
AcDbArc
 50
119.7644962225
 51
120.6393103756
  0
ARC
  5
364
100
AcDbEntity
  8
RACCORDO
100
AcDbCircle
 62
253
  6
CONTINUOUS
 10
0.1023896156
 20
41.6170807771
 40
6.7991608015
100
AcDbArc
 50
122.1012058276
 51
122.9592841871
  0
ARC
  5
365
100
AcDbEntity
  8
RACCORDO
100
AcDbCircle
 62
7
  6
CONTINUOUS
 10
2.9205825189
 20
44.4118803058
 40
6.7461638699
100
AcDbArc
 50
116.8211655605
 51
119.7875071935
  0
ARC
  5
366
100
AcDbEntity
  8
RACCORDO
100
AcDbCircle
 62
253
  6
CONTINUOUS
 10
1.4251663232
 20
43.1437234274
 40
6.5970816499
100
AcDbArc
 50
120.6387893299
 51
121.3973225794
  0
ARC
  5
367
100
AcDbEntity
  8
RACCORDO
100
AcDbCircle
 62
253
  6
CONTINUOUS
 10
-0.0494003122
 20
41.8518281618
 40
6.5196140479
100
AcDbArc
 50
122.96237932
 51
123.403627932
  0
ARC
  5
368
100
AcDbEntity
  8
RACCORDO
100
AcDbCircle
 62
253
  6
CONTINUOUS
 10
2.7424049878
 20
44.9000899683
 40
6.2151717539
100
AcDbArc
 50
117.533404916
 51
120.5994180957
  0
ARC
  5
369
100
AcDbEntity
  8
RACCORDO
100
AcDbCircle
 62
7
  6
CONTINUOUS
 10
2.6392048468
 20
44.9108697989
 40
6.1733209346
100
AcDbArc
 50
119.8217553392
 51
120.6400056766
  0
ARC
  5
36A
100
AcDbEntity
  8
RACCORDO
100
AcDbCircle
 62
253
  6
CONTINUOUS
 10
2.4133726894
 20
45.4637344466
 40
5.562529389
100
AcDbArc
 50
120.637527469
 51
121.5375745941
  0
ARC
  5
36B
100
AcDbEntity
  8
RACCORDO
100
AcDbCircle
 62
253
  6
CONTINUOUS
 10
2.2404313141
 20
45.7456008927
 40
5.2318370676
100
AcDbArc
 50
121.5379570052
 51
122.4526168192
  0
ARC
  5
36C
100
AcDbEntity
  8
RACCORDO
100
AcDbCircle
 62
7
  6
CONTINUOUS
 10
3.635034452
 20
47.1550915113
 40
5.1537027375
100
AcDbArc
 50
119.6585820847
 51
120.6390456165
  0
ARC
  5
36D
100
AcDbEntity
  8
0
100
AcDbCircle
 62
7
  6
CONTINUOUS
 10
15.6141358999
 20
47.8700501156
 40
4.7414564099
100
AcDbArc
 50
306.025335788
 51
306.662838529
  0
ARC
  5
36E
100
AcDbEntity
  8
RACCORDO
100
AcDbCircle
 62
253
  6
CONTINUOUS
 10
3.4201193368
 20
47.6893759712
 40
4.5644611308
100
AcDbArc
 50
120.6349428814
 51
121.7308822654
  0
ARC
  5
36F
100
AcDbEntity
  8
RACCORDO
100
AcDbCircle
 62
253
  6
CONTINUOUS
 10
27.2835630612
 20
20.7298053278
 40
4.2638795841
100
AcDbArc
 50
258.7795206637
 51
259.9562486744
  0
ARC
  5
370
100
AcDbEntity
  8
RACCORDO
100
AcDbCircle
 62
253
  6
CONTINUOUS
 10
3.2425899113
 20
47.9765599597
 40
4.226835098
100
AcDbArc
 50
121.7314924776
 51
122.8590570409
  0
ARC
  5
371
100
AcDbEntity
  8
0
100
AcDbCircle
 62
7
  6
CONTINUOUS
 10
13.6047616385
 20
50.2003212843
 40
2.7967431388
100
AcDbArc
 50
310.0943050459
 51
310.4881163067
  0
ARC
  5
372
100
AcDbEntity
  8
RACCORDO
100
AcDbCircle
 62
7
  6
CONTINUOUS
 10
6.0927997175
 20
50.0855253207
 40
2.7575332847
100
AcDbArc
 50
117.0210220594
 51
120.5982911336
  0
ARC
  5
373
100
AcDbEntity
  8
RACCORDO
100
AcDbCircle
 62
7
  6
CONTINUOUS
 10
-1.4231008278
 20
46.2972424891
 40
2.3508783484
100
AcDbArc
 50
148.4590747034
 51
148.723578493
  0
ARC
  5
374
100
AcDbEntity
  8
RACCORDO
100
AcDbCircle
 62
7
  6
CONTINUOUS
 10
-1.5588850638
 20
46.3770375582
 40
2.1934014891
100
AcDbArc
 50
148.663600056
 51
154.2725148336
  0
ARC
  5
375
100
AcDbEntity
  8
RACCORDO
100
AcDbCircle
 62
7
  6
CONTINUOUS
 10
-1.6823653167
 20
46.4389698261
 40
2.055278881
100
AcDbArc
 50
154.3335983941
 51
154.4749356799
  0
ARC
  5
376
100
AcDbEntity
  8
RACCORDO
100
AcDbCircle
 62
7
  6
CONTINUOUS
 10
37.1034913651
 20
25.6715335046
 40
1.8369941295
100
AcDbArc
 50
17.8098106565
 51
25.5862974772
  0
ARC
  5
377
100
AcDbEntity
  8
RACCORDO
100
AcDbCircle
 62
253
  6
CONTINUOUS
 10
18.3848995292
 20
46.6064121761
 40
1.6034885516
100
AcDbArc
 50
341.315630645
 51
344.3045747816
  0
ARC
  5
378
100
AcDbEntity
  8
RACCORDO
100
AcDbCircle
 62
7
  6
CONTINUOUS
 10
-0.3685379104
 20
48.2584785998
 40
1.6014868165
100
AcDbArc
 50
160.4097594042
 51
160.9020368112
  0
ARC
  5
379
100
AcDbEntity
  8
RACCORDO
100
AcDbCircle
 62
253
  6
CONTINUOUS
 10
-2.1552560388
 20
46.5894908548
 40
1.5639771194
100
AcDbArc
 50
195.4230903809
 51
199.3347623665
  0
ARC
  5
37A
100
AcDbEntity
  8
RACCORDO
100
AcDbCircle
 62
253
  6
CONTINUOUS
 10
-0.6003786217
 20
48.3323970546
 40
1.3726205359
100
AcDbArc
 50
199.6539887856
 51
199.8402419603
  0
ARC
  5
37B
100
AcDbEntity
  8
RACCORDO
100
AcDbCircle
 62
253
  6
CONTINUOUS
 10
0.9839518089
 20
50.0152559718
 40
1.2094494639
100
AcDbArc
 50
200.6806781675
 51
201.3501296162
  0
ARC
  5
37C
100
AcDbEntity
  8
RACCORDO
100
AcDbCircle
 62
7
  6
CONTINUOUS
 10
-46.0988541356
 20
43.1117293511
 40
1.1869465698
100
AcDbArc
 50
78.84684964
 51
90.3023592361
  0
ARC
  5
37D
100
AcDbEntity
  8
RACCORDO
100
AcDbCircle
 62
253
  6
CONTINUOUS
 10
-26.5075842766
 20
54.7056328235
 40
0.99123751
100
AcDbArc
 50
119.0063067694
 51
120.1632987842
  0
ARC
  5
37E
100
AcDbEntity
  8
RACCORDO
100
AcDbCircle
 62
7
  6
CONTINUOUS
 10
-46.6388533949
 20
43.0378653835
 40
0.9599898713
100
AcDbArc
 50
113.2976335153
 51
120.8457474415
  0
ARC
  5
37F
100
AcDbEntity
  8
RACCORDO
100
AcDbCircle
 62
253
  6
CONTINUOUS
 10
4.7536132108
 20
51.6474279447
 40
0.7406475153
100
AcDbArc
 50
210.0860673294
 51
212.3789752027
  0
ARC
  5
380
100
AcDbEntity
  8
RACCORDO
100
AcDbCircle
 62
253
  6
CONTINUOUS
 10
11.5588850221
 20
51.6206289837
 40
0.6875228623
100
AcDbArc
 50
327.4584726134
 51
329.8841649131
  0
ARC
  5
381
100
AcDbEntity
  8
0
100
AcDbCircle
 62
7
  6
CONTINUOUS
 10
11.1147554658
 20
50.8389866753
 40
0.6339582132
100
AcDbArc
 50
325.3457434638
 51
329.4926368734
  0
ARC
  5
382
100
AcDbEntity
  8
RACCORDO
100
AcDbCircle
 62
253
  6
CONTINUOUS
 10
621.6028043932
 20
-3.4040772654
 40
679.8219020007
100
AcDbArc
 50
176.9241351575
 51
177.458080151
  0
ARC
  5
383
100
AcDbEntity
  8
RACCORDO
100
AcDbCircle
 62
253
  6
CONTINUOUS
 10
684.6709430462
 20
-19.9150619556
 40
659.2262292103
100
AcDbArc
 50
176.8293000137
 51
177.3798051328
  0
ARC
  5
384
100
AcDbEntity
  8
RACCORDO
100
AcDbCircle
 62
253
  6
CONTINUOUS
 10
683.9253695864
 20
-19.7298792006
 40
656.4382268792
100
AcDbArc
 50
176.8291221987
 51
177.379603103
  0
ARC
  5
385
100
AcDbEntity
  8
RACCORDO
100
AcDbCircle
 62
253
  6
CONTINUOUS
 10
508.0055085588
 20
-3.7670643308
 40
566.1768373701
100
AcDbArc
 50
182.684101783
 51
183.2872887918
  0
ARC
  5
386
100
AcDbEntity
  8
0
100
AcDbCircle
 62
7
  6
CONTINUOUS
 10
513.2145276385
 20
-5.7439146815
 40
560.7891957945
100
AcDbArc
 50
182.8320959559
 51
182.9611742168
  0
ARC
  5
387
100
AcDbEntity
  8
0
100
AcDbCircle
 62
7
  6
CONTINUOUS
 10
511.2298861692
 20
-5.3520166179
 40
560.7891957895
100
AcDbArc
 50
182.8320959559
 51
182.9611742168
  0
ARC
  5
388
100
AcDbEntity
  8
0
100
AcDbCircle
 62
7
  6
CONTINUOUS
 10
574.6299463308
 20
-18.0317990913
 40
560.1404492292
100
AcDbArc
 50
182.8320483638
 51
183.0655407746
  0
ARC
  5
389
100
AcDbEntity
  8
0
100
AcDbCircle
 62
7
  6
CONTINUOUS
 10
572.1040387312
 20
-17.5330196816
 40
560.1404492294
100
AcDbArc
 50
182.8320483638
 51
183.0655407746
  0
ARC
  5
38A
100
AcDbEntity
  8
0
100
AcDbCircle
 62
7
  6
CONTINUOUS
 10
508.1913639271
 20
-4.9124763932
 40
560.1404492246
100
AcDbArc
 50
182.8320483638
 51
183.0655407746
  0
ARC
  5
38B
100
AcDbEntity
  8
0
100
AcDbCircle
 62
7
  6
CONTINUOUS
 10
508.0000304057
 20
-4.8687540818
 40
559.8740921266
100
AcDbArc
 50
182.8333057703
 51
183.0669064574
  0
ARC
  5
38C
100
AcDbEntity
  8
0
100
AcDbCircle
 62
7
  6
CONTINUOUS
 10
571.9127052021
 20
-17.4892973707
 40
559.8740921237
100
AcDbArc
 50
182.8333057703
 51
183.0669064574
  0
ARC
  5
38D
100
AcDbEntity
  8
0
100
AcDbCircle
 62
7
  6
CONTINUOUS
 10
574.4386128016
 20
-17.9880767803
 40
559.8740921235
100
AcDbArc
 50
182.8333057703
 51
183.0669064574
  0
ARC
  5
38E
100
AcDbEntity
  8
0
100
AcDbCircle
 62
7
  6
CONTINUOUS
 10
576.6314491521
 20
-18.5575912676
 40
559.6153502969
100
AcDbArc
 50
182.8319388252
 51
183.0656503269
  0
ARC
  5
38F
100
AcDbEntity
  8
0
100
AcDbCircle
 62
7
  6
CONTINUOUS
 10
571.9404783011
 20
-17.6312867298
 40
559.615350297
100
AcDbArc
 50
182.8319388252
 51
183.0656503269
  0
ARC
  5
390
100
AcDbEntity
  8
0
100
AcDbCircle
 62
7
  6
CONTINUOUS
 10
571.3090015301
 20
-17.5065919028
 40
559.6153502969
100
AcDbArc
 50
182.8319388252
 51
183.0656503269
  0
ARC
  5
391
100
AcDbEntity
  8
0
100
AcDbCircle
 62
7
  6
CONTINUOUS
 10
508.0278035639
 20
-5.0107434539
 40
559.6153502946
100
AcDbArc
 50
182.8319388252
 51
183.0656503269
  0
ARC
  5
392
100
AcDbEntity
  8
0
100
AcDbCircle
 62
7
  6
CONTINUOUS
 10
507.3963267285
 20
-4.8860486142
 40
559.6153502946
100
AcDbArc
 50
182.8319388252
 51
183.0656503269
  0
ARC
  5
393
100
AcDbEntity
  8
0
100
AcDbCircle
 62
7
  6
CONTINUOUS
 10
572.1783762458
 20
-17.6867113745
 40
559.5825563321
100
AcDbArc
 50
182.8816721995
 51
183.0656267275
  0
ARC
  5
394
100
AcDbEntity
  8
0
100
AcDbCircle
 62
7
  6
CONTINUOUS
 10
573.3890295899
 20
-18.0288167412
 40
559.1688550344
100
AcDbArc
 50
182.8816041534
 51
183.0656947803
  0
ARC
  5
395
100
AcDbEntity
  8
0
100
AcDbCircle
 62
7
  6
CONTINUOUS
 10
571.585519873
 20
-17.6639819172
 40
558.9141281386
100
AcDbArc
 50
182.9119183915
 51
183.0670471329
  0
ARC
  5
396
100
AcDbEntity
  8
RACCORDO
100
AcDbCircle
 62
253
  6
CONTINUOUS
 10
575.5368741746
 20
-20.2692507708
 40
550.0434277516
100
AcDbArc
 50
182.7652394142
 51
183.3863659224
  0
ARC
  5
397
100
AcDbEntity
  8
RACCORDO
100
AcDbCircle
 62
253
  6
CONTINUOUS
 10
575.2448301672
 20
-20.0754502535
 40
547.7091410864
100
AcDbArc
 50
182.7654460399
 51
183.3865554054
  0
SPLINE
  5
398
100
AcDbEntity
  8
RACCORDO
100
AcDbSpline
 62
7
  6
CONTINUOUS
 70
0
 71
3
 72
21
 73
17
 74
15
 42
0.0000001
 43
0.0000001
 44
0.0000000001
 12
7.2081178898
 22
3.6830402495
 32
0.0
 13
0.0
 23
-8.0888518069
 33
0.0
 40
0.0
 40
0.0
 40
0.0
 40
0.0
 40
0.0454868398
 40
0.1204102449
 40
0.2024385429
 40
0.2899740861
 40
0.3808792096
 40
0.4727406146
 40
0.5630778311
 40
0.6495106672
 40
0.7300044838
 40
0.803084475
 40
0.8676710108
 40
0.9203792869
 40
0.962733852
 40
1.0
 40
1.0
 40
1.0
 40
1.0
 10
4.8400044116
 20
52.5420459776
 30
0.0
 10
4.9492959128
 20
52.5978892649
 30
0.0
 10
5.2480973813
 20
52.7280052703
 30
0.0
 10
5.7702427771
 20
52.8898638789
 30
0.0
 10
6.4165467971
 20
53.0240437765
 30
0.0
 10
7.113805651
 20
53.1128204313
 30
0.0
 10
7.8419292103
 20
53.1550887195
 30
0.0
 10
8.5787861303
 20
53.1500988589
 30
0.0
 10
9.3017601931
 20
53.0979920473
 30
0.0
 10
9.9890662936
 20
52.9997277289
 30
0.0
 10
10.621029792
 20
52.8565708473
 30
0.0
 10
11.1799129815
 20
52.6689823211
 30
0.0
 10
11.6413874334
 20
52.4389746728
 30
0.0
 10
11.9826670686
 20
52.1689983549
 30
0.0
 10
12.1872908071
 20
51.8682780416
 30
0.0
 10
12.2329716087
 20
51.6516241369
 30
0.0
 10
12.2329716087
 20
51.5511440207
 30
0.0
 11
4.8400044116
 21
52.5420459776
 31
0.0
 11
5.1767293747
 21
52.6913663697
 31
0.0
 11
5.7542145056
 21
52.8752158798
 31
0.0
 11
6.4033148529
 21
53.0127678993
 31
0.0
 11
7.1055070757
 21
53.1037510303
 31
0.0
 11
7.8395496524
 21
53.1470426439
 31
0.0
 11
8.5825853785
 21
53.1419334559
 31
0.0
 11
9.3113575885
 21
53.0885560107
 31
0.0
 11
10.0032103311
 21
52.9878590301
 31
0.0
 11
10.6375427133
 21
52.8410361311
 31
0.0
 11
11.1963268581
 21
52.648166323
 31
0.0
 11
11.6599971188
 21
52.4074508238
 31
0.0
 11
11.9875179288
 21
52.1344966897
 31
0.0
 11
12.1732459101
 21
51.8466082735
 31
0.0
 11
12.2329716087
 21
51.5511440207
 31
0.0
  0
SPLINE
  5
399
100
AcDbEntity
  8
RACCORDO
100
AcDbSpline
 62
7
  6
CONTINUOUS
 70
0
 71
3
 72
11
 73
7
 74
5
 42
0.0000001
 43
0.0000001
 44
0.0000000001
 12
0.0
 22
1.169981969
 32
0.0
 13
1.0066122459
 23
0.5963133356
 33
0.0
 40
0.0
 40
0.0
 40
0.0
 40
0.0
 40
0.2013887612
 40
0.4245021434
 40
0.6840955401
 40
1.0
 40
1.0
 40
1.0
 40
1.0
 10
4.0329716087
 20
51.5511440207
 30
0.0
 10
4.0329716087
 20
51.6296844271
 30
0.0
 10
4.059961054
 20
51.7962788027
 30
0.0
 10
4.1835659755
 20
52.0369768608
 30
0.0
 10
4.3975749264
 20
52.2674593862
 30
0.0
 10
4.5831740962
 20
52.3962992938
 30
0.0
 10
4.6891718621
 20
52.4590919745
 30
0.0
 11
4.0329716087
 21
51.5511440207
 31
0.0
 11
4.0697681395
 21
51.7838742815
 31
0.0
 11
4.1859767682
 21
52.0176192776
 31
0.0
 11
4.3888696372
 21
52.2436282932
 31
0.0
 11
4.6891718621
 21
52.4590919745
 31
0.0
  0
SPLINE
  5
39A
100
AcDbEntity
  8
RACCORDO
100
AcDbSpline
 62
7
  6
CONTINUOUS
 70
0
 71
3
 72
12
 73
8
 74
6
 42
0.0000001
 43
0.0000001
 44
0.0000000001
 12
4.2908880213
 22
2.4436971737
 32
0.0
 13
4.9133526255
 23
0.494978843
 33
0.0
 40
0.0
 40
0.0
 40
0.0
 40
0.0
 40
0.1540203133
 40
0.3479088623
 40
0.5616294711
 40
0.7921335113
 40
1.0
 40
1.0
 40
1.0
 40
1.0
 10
1.0848245127
 20
51.6336047883
 30
0.0
 10
1.3051191519
 20
51.7590644564
 30
0.0
 10
1.8235235438
 20
52.0066559287
 30
0.0
 10
2.6964553988
 20
52.3142660866
 30
0.0
 10
3.7145381565
 20
52.5766616832
 30
0.0
 10
4.7709256814
 20
52.7702298656
 30
0.0
 10
5.4871577703
 20
52.8597633476
 30
0.0
 10
5.8275982231
 20
52.8940598523
 30
0.0
 11
1.0848245127
 21
51.6336047883
 31
0.0
 11
1.7684968429
 21
51.967104755
 31
0.0
 11
2.6694280825
 21
52.2908143771
 31
0.0
 11
3.6902843686
 21
52.5580010831
 31
0.0
 11
4.8092773139
 21
52.7657261078
 31
0.0
 11
5.8275982231
 21
52.8940598523
 31
0.0
  0
SPLINE
  5
39B
100
AcDbEntity
  8
RACCORDO
100
AcDbSpline
 62
7
  6
CONTINUOUS
 70
0
 71
3
 72
16
 73
12
 74
10
 42
0.0000001
 43
0.0000001
 44
0.0000000001
 12
7.1170965981
 22
-0.7186063946
 32
0.0
 13
0.0
 23
-7.1523519031
 33
0.0
 40
0.0
 40
0.0
 40
0.0
 40
0.0
 40
0.0741065183
 40
0.2371624554
 40
0.3896824113
 40
0.5292438174
 40
0.6541894517
 40
0.7635161059
 40
0.85645446
 40
0.9332414704
 40
1.0
 40
1.0
 40
1.0
 40
1.0
 10
10.44201536
 20
52.8936977668
 30
0.0
 10
10.6178231097
 20
52.8759466275
 30
0.0
 10
11.1797511397
 20
52.8121431794
 30
0.0
 10
12.0982810079
 20
52.6688296179
 30
0.0
 10
13.1578553171
 20
52.4305676253
 30
0.0
 10
14.1088267202
 20
52.1361523968
 30
0.0
 10
14.9315131885
 20
51.7883243637
 30
0.0
 10
15.6055953348
 20
51.3894452034
 30
0.0
 10
16.1072540803
 20
50.9432260515
 30
0.0
 10
16.4138240884
 20
50.4586458673
 30
0.0
 10
16.4829716087
 20
50.1137306158
 30
0.0
 10
16.4829716087
 20
49.9545704503
 30
0.0
 11
10.44201536
 21
52.8936977668
 31
0.0
 11
10.9687123453
 21
52.8337866233
 31
0.0
 11
12.1206646251
 21
52.6518350153
 31
0.0
 11
13.1842264087
 21
52.4092496782
 31
0.0
 11
14.1362882528
 21
52.1093062018
 31
0.0
 11
14.9565169492
 21
51.7545606538
 31
0.0
 11
15.6238530908
 21
51.3470108217
 31
0.0
 11
16.1107750395
 21
50.894495538
 31
0.0
 11
16.3933620532
 21
50.4235669875
 31
0.0
 11
16.4829716087
 21
49.9545704503
 31
0.0
  0
SPLINE
  5
39C
100
AcDbEntity
  8
RACCORDO
100
AcDbSpline
 62
7
  6
CONTINUOUS
 70
0
 71
3
 72
11
 73
7
 74
5
 42
0.0000001
 43
0.0000001
 44
0.0000000001
 12
-0.0
 22
2.1318298341
 32
0.0
 13
1.8341530676
 23
1.0865454275
 33
0.0
 40
0.0
 40
0.0
 40
0.0
 40
0.0
 40
0.1979315009
 40
0.422256161
 40
0.6891914701
 40
1.0
 40
1.0
 40
1.0
 40
1.0
 10
-0.2170283913
 20
49.9545704503
 30
0.0
 10
-0.2170283913
 20
50.0952225432
 30
0.0
 10
-0.1640341577
 20
50.3972867446
 30
0.0
 10
0.0759635837
 20
50.8324784999
 30
0.0
 10
0.4779590256
 20
51.2437599955
 30
0.0
 10
0.8185404237
 20
51.4767420134
 30
0.0
 10
1.0085638966
 20
51.589311209
 30
0.0
 11
-0.2170283913
 21
49.9545704503
 31
0.0
 11
-0.146681861
 21
50.370621489
 31
0.0
 11
0.0767942632
 21
50.7934154175
 31
0.0
 11
0.4668605756
 21
51.2077562214
 31
0.0
 11
1.0085638966
 21
51.589311209
 31
0.0
  0
SPLINE
  5
39D
100
AcDbEntity
  8
RACCORDO
100
AcDbSpline
 62
7
  6
CONTINUOUS
 70
0
 71
3
 72
12
 73
8
 74
6
 42
0.0000001
 43
0.0000001
 44
0.0000000001
 12
2.6431486864
 22
-1.3401514884
 32
0.0
 13
-0.0
 23
-2.9617917871
 33
0.0
 40
0.0
 40
0.0
 40
0.0
 40
0.0
 40
0.0710293795
 40
0.3623203042
 40
0.6105496846
 40
0.8178581512
 40
1.0
 40
1.0
 40
1.0
 40
1.0
 10
16.3912107494
 20
50.4312167983
 30
0.0
 10
16.4537911531
 20
50.3994867554
 30
0.0
 10
16.7707340737
 20
50.2330713275
 30
0.0
 10
17.2829528426
 20
49.9107002471
 30
0.0
 10
17.8257851784
 20
49.4021556469
 30
0.0
 10
18.1577708425
 20
48.8554768796
 30
0.0
 10
18.2329716087
 20
48.4681247981
 30
0.0
 10
18.2329716087
 20
48.2883027208
 30
0.0
 11
16.3912107494
 21
50.4312167983
 31
0.0
 11
16.577559652
 21
50.3332819211
 31
0.0
 11
17.3014496693
 21
49.8639112308
 31
0.0
 11
17.8276324247
 21
49.3504365505
 31
0.0
 11
18.1347302766
 21
48.8187482469
 31
0.0
 11
18.2329716087
 21
48.2883027208
 31
0.0
  0
SPLINE
  5
39E
100
AcDbEntity
  8
RACCORDO
100
AcDbSpline
 62
7
  6
CONTINUOUS
 70
0
 71
3
 72
8
 73
4
 74
2
 42
0.0000001
 43
0.0000001
 44
0.0000000001
 12
0.0
 22
0.5014395871
 32
0.0
 13
0.1648747645
 23
0.476193089
 33
0.0
 40
0.0
 40
0.0
 40
0.0
 40
0.0
 40
1.0
 40
1.0
 40
1.0
 40
1.0
 10
-1.9670283913
 20
48.2883027208
 30
0.0
 10
-1.9670283913
 20
48.4554492498
 30
0.0
 10
-1.9368380183
 20
48.6237289239
 30
0.0
 10
-1.8818797635
 20
48.7824599536
 30
0.0
 11
-1.9670283913
 21
48.2883027208
 31
0.0
 11
-1.8818797635
 21
48.7824599536
 31
0.0
  0
SPLINE
  5
39F
100
AcDbEntity
  8
RACCORDO
100
AcDbSpline
 62
7
  6
CONTINUOUS
 70
0
 71
3
 72
10
 73
6
 74
4
 42
0.0000001
 43
0.0000001
 44
0.0000000001
 12
0.6780019541
 22
1.9051105698
 32
0.0
 13
1.7316938775
 23
1.0258489859
 33
0.0
 40
0.0
 40
0.0
 40
0.0
 40
0.0
 40
0.2754445463
 40
0.6101308328
 40
1.0
 40
1.0
 40
1.0
 40
1.0
 10
-1.8773219864
 20
48.7954428773
 30
0.0
 10
-1.8150713395
 20
48.9703603161
 30
0.0
 10
-1.6108018224
 20
49.3318493551
 30
0.0
 10
-1.1355143962
 20
49.8136043962
 30
0.0
 10
-0.7320252433
 20
50.088995475
 30
0.0
 10
-0.50698056
 20
50.2223111049
 30
0.0
 11
-1.8773219864
 21
48.7954428773
 31
0.0
 11
-1.6131656741
 21
49.2829815573
 31
0.0
 11
-1.149128342
 21
49.7713014308
 31
0.0
 11
-0.50698056
 21
50.2223111049
 31
0.0
  0
SPLINE
  5
3A0
100
AcDbEntity
  8
RACCORDO
100
AcDbSpline
 62
7
  6
CONTINUOUS
 70
0
 71
3
 72
11
 73
7
 74
5
 42
0.0000001
 43
0.0000001
 44
0.0000000001
 12
2.7510691699
 22
-1.519422234
 32
0.0
 13
0.0
 23
-3.1395466177
 33
0.0
 40
0.0
 40
0.0
 40
0.0
 40
0.0
 40
0.298269872
 40
0.5714407043
 40
0.799693417
 40
1.0
 40
1.0
 40
1.0
 40
1.0
 10
18.1001006283
 20
48.9001509631
 30
0.0
 10
18.373620978
 20
48.7490850047
 30
0.0
 10
18.8805055501
 20
48.4278530635
 30
0.0
 10
19.5003259792
 20
47.8549123104
 30
0.0
 10
19.8931549772
 20
47.22057576
 30
0.0
 10
19.9829716087
 20
46.7687114733
 30
0.0
 10
19.9829716087
 20
46.5590875215
 30
0.0
 11
18.1001006283
 21
48.9001509631
 31
0.0
 11
18.8853391336
 21
48.3897205295
 31
0.0
 11
19.5031038244
 21
47.7948252452
 31
0.0
 11
19.8662232113
 21
47.1770273423
 31
0.0
 11
19.9829716087
 21
46.5590875215
 31
0.0
  0
SPLINE
  5
3A1
100
AcDbEntity
  8
RACCORDO
100
AcDbSpline
 62
7
  6
CONTINUOUS
 70
0
 71
3
 72
9
 73
5
 74
3
 42
0.0000001
 43
0.0000001
 44
0.0000000001
 12
0.0
 22
0.7893853176
 32
0.0
 13
0.3412897735
 23
0.7147251968
 33
0.0
 40
0.0
 40
0.0
 40
0.0
 40
0.0
 40
0.7359978873
 40
1.0
 40
1.0
 40
1.0
 40
1.0
 10
-3.7170283913
 20
46.5590875215
 30
0.0
 10
-3.7170283913
 20
46.7527494969
 30
0.0
 10
-3.6686981517
 20
47.0176777669
 30
0.0
 10
-3.5670762838
 20
47.2617052932
 30
0.0
 10
-3.5370425434
 20
47.3246016138
 30
0.0
 11
-3.7170283913
 21
46.5590875215
 31
0.0
 11
-3.6170187867
 21
47.1314010066
 31
0.0
 11
-3.5370425434
 21
47.3246016138
 31
0.0
  0
SPLINE
  5
3A2
100
AcDbEntity
  8
RACCORDO
100
AcDbSpline
 62
7
  6
CONTINUOUS
 70
0
 71
3
 72
10
 73
6
 74
4
 42
0.0000001
 43
0.0000001
 44
0.0000000001
 12
1.0003716178
 22
1.6298532551
 32
0.0
 13
1.6387634248
 23
0.9707973328
 33
0.0
 40
0.0
 40
0.0
 40
0.0
 40
0.0
 40
0.1152371213
 40
0.5237533623
 40
1.0
 40
1.0
 40
1.0
 40
1.0
 10
-3.4266762445
 20
47.5270044818
 30
0.0
 10
-3.388249596
 20
47.5896110142
 30
0.0
 10
-3.2002687191
 20
47.8660634727
 30
0.0
 10
-2.7491216878
 20
48.3203902634
 30
0.0
 10
-2.2826768737
 20
48.6382505426
 30
0.0
 10
-2.0225250167
 20
48.7923635311
 30
0.0
 11
-3.4266762445
 21
47.5270044818
 31
0.0
 11
-3.3031912276
 21
47.7093984748
 31
0.0
 11
-2.7653332752
 21
48.2716869439
 31
0.0
 11
-2.0225250167
 21
48.7923635311
 31
0.0
  0
SPLINE
  5
3A3
100
AcDbEntity
  8
RACCORDO
100
AcDbSpline
 62
7
  6
CONTINUOUS
 70
0
 71
3
 72
12
 73
8
 74
6
 42
0.0000001
 43
0.0000001
 44
0.0000000001
 12
3.6632617224
 22
-2.049620439
 32
0.0
 13
0.0
 23
-4.19477847
 33
0.0
 40
0.0
 40
0.0
 40
0.0
 40
0.0
 40
0.1254994063
 40
0.3983255084
 40
0.6279264116
 40
0.8222989907
 40
1.0
 40
1.0
 40
1.0
 40
1.0
 10
19.7118390107
 20
47.4924367482
 30
0.0
 10
19.8650847345
 20
47.4066946988
 30
0.0
 10
20.34353115
 20
47.1203745114
 30
0.0
 10
21.0481317452
 20
46.5881801656
 30
0.0
 10
21.6887121247
 20
45.8411345084
 30
0.0
 10
22.054004099
 20
45.0715980223
 30
0.0
 10
22.1329716087
 20
44.5484294013
 30
0.0
 10
22.1329716087
 20
44.2999572786
 30
0.0
 11
19.7118390107
 21
47.4924367482
 31
0.0
 11
20.1634453303
 21
47.2211841483
 31
0.0
 11
21.0665920464
 21
46.5182755465
 31
0.0
 11
21.6822803664
 21
45.7776423614
 31
0.0
 11
22.0240284061
 21
45.0373696058
 31
0.0
 11
22.1329716087
 21
44.2999572786
 31
0.0
  0
SPLINE
  5
3A4
100
AcDbEntity
  8
RACCORDO
100
AcDbSpline
 62
7
  6
CONTINUOUS
 70
0
 71
3
 72
12
 73
8
 74
6
 42
0.0000001
 43
0.0000001
 44
0.0000000001
 12
0.0
 22
3.9793022584
 32
0.0
 13
3.4236547999
 23
2.0281603178
 33
0.0
 40
0.0
 40
0.0
 40
0.0
 40
0.0
 40
0.1566190976
 40
0.3253566763
 40
0.5181294081
 40
0.7443277372
 40
1.0
 40
1.0
 40
1.0
 40
1.0
 10
-5.8670283913
 20
44.2999572786
 30
0.0
 10
-5.8670283913
 20
44.5077021882
 30
0.0
 10
-5.8126955191
 20
44.9410150758
 30
0.0
 10
-5.5604546801
 20
45.5871713496
 30
0.0
 10
-5.1123268989
 20
46.2330204648
 30
0.0
 10
-4.4586565075
 20
46.8515984087
 30
0.0
 10
-3.9268138694
 20
47.2106057037
 30
0.0
 10
-3.6350360128
 20
47.3834538163
 30
0.0
 11
-5.8670283913
 21
44.2999572786
 31
0.0
 11
-5.7906059945
 21
44.9184887205
 31
0.0
 11
-5.5504440706
 21
45.5455276865
 31
0.0
 11
-5.119505804
 21
46.1801426122
 31
0.0
 11
-4.4729018009
 21
46.8063247061
 31
0.0
 11
-3.6350360128
 21
47.3834538163
 31
0.0
  0
SPLINE
  5
3A5
100
AcDbEntity
  8
0
100
AcDbSpline
 62
7
  6
CONTINUOUS
 70
0
 71
3
 72
23
 73
19
 74
17
 42
0.0000001
 43
0.0000001
 44
0.0000000001
 12
0.044062446
 22
-8.2823350905
 32
0.0
 13
7.0841163224
 23
4.1966040534
 33
0.0
 40
0.0
 40
0.0
 40
0.0
 40
0.0
 40
0.0237858624
 40
0.0566000161
 40
0.0970584969
 40
0.1463429151
 40
0.2043699067
 40
0.2703225881
 40
0.3429197266
 40
0.4205672429
 40
0.5014616557
 40
0.5836739968
 40
0.6652260122
 40
0.744164032
 40
0.8186339578
 40
0.8869617415
 40
0.9477482955
 40
1.0
 40
1.0
 40
1.0
 40
1.0
 10
4.0331372144
 20
51.2325371055
 30
0.0
 10
4.0334865688
 20
51.1668696111
 30
0.0
 10
4.0667719877
 20
51.0098988691
 30
0.0
 10
4.2245262805
 20
50.7882295527
 30
0.0
 10
4.4888551012
 20
50.5762784374
 30
0.0
 10
4.8473389885
 20
50.3832595781
 30
0.0
 10
5.2922031491
 20
50.2126517653
 30
0.0
 10
5.8128561469
 20
50.0686755063
 30
0.0
 10
6.3958119731
 20
49.9553085468
 30
0.0
 10
7.0256072391
 20
49.8757328124
 30
0.0
 10
7.6853185458
 20
49.8322002318
 30
0.0
 10
8.3571358876
 20
49.8259419971
 30
0.0
 10
9.0228891105
 20
49.8571346839
 30
0.0
 10
9.6645951569
 20
49.9248980359
 30
0.0
 10
10.2649540588
 20
50.0273074696
 30
0.0
 10
10.8080229317
 20
50.1615006819
 30
0.0
 10
11.2793619859
 20
50.3236642562
 30
0.0
 10
11.5602900466
 20
50.4582038964
 30
0.0
 10
11.6836757642
 20
50.5312971347
 30
0.0
 11
4.0331372144
 21
51.2325371055
 31
0.0
 11
4.0718310617
 21
51.0398299261
 31
0.0
 11
4.219911101
 21
50.8138363069
 31
0.0
 11
4.4747292304
 21
50.5992610625
 31
0.0
 11
4.8293346755
 21
50.401957246
 31
0.0
 11
5.2740547242
 21
50.2273067912
 31
0.0
 11
5.7967585729
 21
50.0800737074
 31
0.0
 11
6.3831882232
 21
49.9642741291
 31
0.0
 11
7.0173474028
 21
49.8830667671
 31
0.0
 11
7.6819379026
 21
49.8386667464
 31
0.0
 11
8.3588314262
 21
49.832285184
 31
0.0
 11
9.0295640826
 21
49.8640961521
 31
0.0
 11
9.6758400337
 21
49.9332319306
 31
0.0
 11
10.280030556
 21
50.0378066755
 31
0.0
 11
10.8256549073
 21
50.1749678604
 31
0.0
 11
11.2978298775
 21
50.3409740859
 31
0.0
 11
11.6836757642
 21
50.5312971347
 31
0.0
  0
SPLINE
  5
3A6
100
AcDbEntity
  8
0
100
AcDbSpline
 62
7
  6
CONTINUOUS
 70
0
 71
3
 72
12
 73
8
 74
6
 42
0.0000001
 43
0.0000001
 44
0.0000000001
 12
0.0039362828
 22
-2.6968665659
 32
0.0
 13
-2.3082553573
 23
-1.3674018533
 33
0.0
 40
0.0
 40
0.0
 40
0.0
 40
0.0
 40
0.0606537568
 40
0.2499070488
 40
0.4629924717
 40
0.7111634282
 40
1.0
 40
1.0
 40
1.0
 40
1.0
 10
19.9826876565
 20
46.1580095526
 30
0.0
 10
19.98276724
 20
46.1034845229
 30
0.0
 10
19.9700785622
 20
45.878928449
 30
0.0
 10
19.8444555315
 20
45.476120041
 30
0.0
 10
19.5115429476
 20
44.9913317205
 30
0.0
 10
19.0180348918
 20
44.531548092
 30
0.0
 10
18.6176088316
 20
44.263280815
 30
0.0
 10
18.3953726435
 20
44.1316289271
 30
0.0
 11
19.9826876565
 21
46.1580095526
 31
0.0
 11
19.973361237
 21
45.9949028894
 31
0.0
 11
19.829517221
 21
45.5079611885
 31
0.0
 11
19.5151112315
 21
45.0304999502
 31
0.0
 11
19.0347280161
 21
44.5694816347
 31
0.0
 11
18.3953726435
 21
44.1316289271
 31
0.0
  0
SPLINE
  5
3A7
100
AcDbEntity
  8
0
100
AcDbSpline
 62
7
  6
CONTINUOUS
 70
0
 71
3
 72
27
 73
23
 74
21
 42
0.0000001
 43
0.0000001
 44
0.0000000001
 12
-0.0449887419
 22
-16.8577679049
 32
0.0
 13
14.4310904165
 23
8.5489240691
 33
0.0
 40
0.0
 40
0.0
 40
0.0
 40
0.0
 40
0.0038540508
 40
0.0278067633
 40
0.0551501705
 40
0.0876672014
 40
0.1261360186
 40
0.1706759485
 40
0.2209934168
 40
0.2765211655
 40
0.3364991129
 40
0.4000270179
 40
0.4661037567
 40
0.5336602246
 40
0.6015892467
 40
0.6687742073
 40
0.7341174018
 40
0.7965689606
 40
0.8551575099
 40
0.9090246986
 40
0.9574678878
 40
1.0
 40
1.0
 40
1.0
 40
1.0
 10
-0.2168949467
 20
49.5408790287
 30
0.0
 10
-0.216952743
 20
49.5192221307
 30
0.0
 10
-0.2121281019
 20
49.3630367736
 30
0.0
 10
-0.125068703
 20
49.0590341687
 30
0.0
 10
0.1510403082
 20
48.6726484593
 30
0.0
 10
0.5692839299
 20
48.3105859065
 30
0.0
 10
1.1227112042
 20
47.9734459139
 30
0.0
 10
1.8029139141
 20
47.6651647858
 30
0.0
 10
2.5987322505
 20
47.3908068377
 30
0.0
 10
3.4962218549
 20
47.1553693534
 30
0.0
 10
4.4792037931
 20
46.9632869494
 30
0.0
 10
5.5296981837
 20
46.8182169652
 30
0.0
 10
6.6283566882
 20
46.7229299872
 30
0.0
 10
7.7548724947
 20
46.6792468132
 30
0.0
 10
8.8883906242
 20
46.688002017
 30
0.0
 10
10.007919558
 20
46.7490285433
 30
0.0
 10
11.09273962
 20
46.861159555
 30
0.0
 10
12.1228246533
 20
47.0222552558
 30
0.0
 10
13.0792133274
 20
47.2292313664
 30
0.0
 10
13.9445544098
 20
47.478187332
 30
0.0
 10
14.7031130755
 20
47.7643672654
 30
0.0
 10
15.1596888116
 20
47.991856347
 30
0.0
 10
15.3642837303
 20
48.1130576128
 30
0.0
 11
-0.2168949467
 21
49.5408790287
 31
0.0
 11
-0.2148647797
 21
49.4759830183
 31
0.0
 11
-0.1112310182
 21
49.0878152733
 31
0.0
 11
0.1459766396
 21
48.7080893479
 31
0.0
 11
0.5519669018
 21
48.3438788177
 31
0.0
 11
1.0991769378
 21
48.0019682355
 31
0.0
 11
1.7774132601
 21
47.6887267489
 31
0.0
 11
2.5740416092
 21
47.4099894538
 31
0.0
 11
3.4742223064
 21
47.1709486988
 31
0.0
 11
4.4611866883
 21
46.9760573608
 31
0.0
 11
5.516549476
 21
46.8289458967
 31
0.0
 11
6.6206512576
 21
46.7323547147
 31
0.0
 11
7.7529247059
 21
46.6880831258
 31
0.0
 11
8.892277709
 21
46.696955826
 31
0.0
 11
10.017486276
 21
46.7588075336
 31
0.0
 11
11.1075899005
 21
46.8724860683
 31
0.0
 11
12.1422820143
 21
47.0358738142
 31
0.0
 11
13.1022882612
 21
47.2459271666
 31
0.0
 11
13.9697255412
 21
47.498733229
 31
0.0
 11
14.728435139
 21
47.7895827029
 31
0.0
 11
15.3642837303
 21
48.1130576128
 31
0.0
  0
SPLINE
  5
3A8
100
AcDbEntity
  8
0
100
AcDbSpline
 62
7
  6
CONTINUOUS
 70
0
 71
3
 72
11
 73
7
 74
5
 42
0.0000001
 43
0.0000001
 44
0.0000000001
 12
0.00000757
 22
-2.2949050323
 32
0.0
 13
-1.96655549
 23
-1.1649801281
 33
0.0
 40
0.0
 40
0.0
 40
0.0
 40
0.0
 40
0.2008534218
 40
0.425147991
 40
0.6888918132
 40
1.0
 40
1.0
 40
1.0
 40
1.0
 10
18.2329716087
 20
47.8495449937
 30
0.0
 10
18.2329721155
 20
47.6958984843
 30
0.0
 10
18.1663897023
 20
47.3706745106
 30
0.0
 10
17.8879221569
 20
46.9166479716
 30
0.0
 10
17.4482417085
 20
46.489435463
 30
0.0
 10
17.0837653579
 20
46.2431548884
 30
0.0
 10
16.8798281869
 20
46.1223432699
 30
0.0
 11
18.2329716087
 21
47.8495449937
 31
0.0
 11
18.1465647086
 21
47.3986548653
 31
0.0
 11
17.8888224542
 21
46.955479592
 31
0.0
 11
17.4641548871
 21
46.5276020256
 31
0.0
 11
16.8798281869
 21
46.1223432699
 31
0.0
  0
SPLINE
  5
3A9
100
AcDbEntity
  8
0
100
AcDbSpline
 62
7
  6
CONTINUOUS
 70
0
 71
3
 72
11
 73
7
 74
5
 42
0.0000001
 43
0.0000001
 44
0.0000000001
 12
-0.0050671337
 22
-1.8987097581
 32
0.0
 13
-1.6253902859
 23
-0.9628751352
 33
0.0
 40
0.0
 40
0.0
 40
0.0
 40
0.0
 40
0.1737117293
 40
0.4041681427
 40
0.6764176077
 40
1.0
 40
1.0
 40
1.0
 40
1.0
 10
16.4828381641
 20
49.5411043936
 30
0.0
 10
16.4825447573
 20
49.4311616751
 30
0.0
 10
16.4383001389
 20
49.1747975155
 30
0.0
 10
16.2231487745
 20
48.7985726404
 30
0.0
 10
15.8515083637
 20
48.4286764245
 30
0.0
 10
15.5395996226
 20
48.2169140927
 30
0.0
 10
15.3642837303
 20
48.1130576128
 30
0.0
 11
16.4828381641
 21
49.5411043936
 31
0.0
 11
16.4289373614
 21
49.21662167
 31
0.0
 11
16.2225285804
 21
48.8332853362
 31
0.0
 11
15.8654266589
 21
48.4631322331
 31
0.0
 11
15.3642837303
 21
48.1130576128
 31
0.0
  0
SPLINE
  5
3AA
100
AcDbEntity
  8
0
100
AcDbSpline
 62
7
  6
CONTINUOUS
 70
0
 71
3
 72
11
 73
7
 74
5
 42
0.0000001
 43
0.0000001
 44
0.0000000001
 12
0.0049575743
 22
-0.9318659204
 32
0.0
 13
-0.7970513756
 23
-0.4721702583
 33
0.0
 40
0.0
 40
0.0
 40
0.0
 40
0.0
 40
0.0414370875
 40
0.3026027902
 40
0.6147383434
 40
1.0
 40
1.0
 40
1.0
 40
1.0
 10
12.232806003
 20
51.2323397517
 30
0.0
 10
12.2328744788
 20
51.2194684818
 30
0.0
 10
12.2295480735
 20
51.1255571933
 30
0.0
 10
12.1633551765
 20
50.9402543408
 30
0.0
 10
11.9640958116
 20
50.715666762
 30
0.0
 10
11.786033542
 20
50.5919335
 30
0.0
 10
11.6836757642
 20
50.5312971347
 30
0.0
 11
12.232806003
 21
51.2323397517
 31
0.0
 11
12.2314148675
 21
51.193799454
 31
0.0
 11
12.156922731
 21
50.9636059475
 31
0.0
 11
11.9726676976
 21
50.7407454903
 31
0.0
 11
11.6836757642
 21
50.5312971347
 31
0.0
  0
SPLINE
  5
3AB
100
AcDbEntity
  8
0
100
AcDbSpline
 62
7
  6
CONTINUOUS
 70
0
 71
3
 72
27
 73
23
 74
21
 42
0.0000001
 43
0.0000001
 44
0.0000000001
 12
0.0000650015
 22
-19.7057924402
 32
0.0
 13
17.7878692534
 23
8.3364499236
 33
0.0
 40
0.0
 40
0.0
 40
0.0
 40
0.0
 40
0.0233910679
 40
0.0495120542
 40
0.0802272374
 40
0.1164583987
 40
0.1584698754
 40
0.2061081228
 40
0.2589440549
 40
0.3163555011
 40
0.3775791999
 40
0.4417478516
 40
0.5079198427
 40
0.5751053789
 40
0.6422909151
 40
0.7084629063
 40
0.7726315579
 40
0.8338552567
 40
0.8912667029
 40
0.944102635
 40
0.9917408824
 40
1.0
 40
1.0
 40
1.0
 40
1.0
 10
-1.9670283913
 20
47.8495449937
 30
0.0
 10
-1.9670278845
 20
47.6958984843
 30
0.0
 10
-1.9004433257
 20
47.3706729486
 30
0.0
 10
-1.6219943805
 20
46.9166545934
 30
0.0
 10
-1.1822240601
 20
46.4894038759
 30
0.0
 10
-0.5894534786
 20
46.0887544902
 30
0.0
 10
0.1480229186
 20
45.7184196616
 30
0.0
 10
1.0192882363
 20
45.3836525226
 30
0.0
 10
2.0104965281
 20
45.0899340676
 30
0.0
 10
3.1053445035
 20
44.8422925405
 30
0.0
 10
4.285503924
 20
44.6450383563
 30
0.0
 10
5.5310464802
 20
44.5016216241
 30
0.0
 10
6.8208448521
 20
44.414554282
 30
0.0
 10
8.1329716289
 20
44.3853614152
 30
0.0
 10
9.445098285
 20
44.4145542525
 30
0.0
 10
10.73489701
 20
44.5016217386
 30
0.0
 10
11.9804383325
 20
44.6450379491
 30
0.0
 10
13.1606020304
 20
44.8422939467
 30
0.0
 10
14.255435535
 20
45.0899293381
 30
0.0
 10
15.2466914471
 20
45.3836679848
 30
0.0
 10
15.9114532069
 20
45.6390854396
 30
0.0
 10
16.2444295096
 20
45.7911097974
 30
0.0
 10
16.293400211
 20
45.8140603709
 30
0.0
 11
-1.9670283913
 21
47.8495449937
 31
0.0
 11
-1.8806214912
 21
47.3986548653
 31
0.0
 11
-1.6228792368
 21
46.955479592
 31
0.0
 11
-1.1982116697
 21
46.5276020256
 31
0.0
 11
-0.6138849695
 21
46.1223432699
 31
0.0
 11
0.1201028718
 21
45.7466374146
 31
0.0
 11
0.9911931187
 21
45.406912891
 31
0.0
 11
1.9844811757
 21
45.1089824799
 31
0.0
 11
3.0829716087
 21
44.8579438532
 31
0.0
 11
4.2678689418
 21
44.6580923515
 31
0.0
 11
5.5188992532
 21
44.5128474893
 31
0.0
 11
6.8146570673
 21
44.4246944465
 31
0.0
 11
8.1329716087
 21
44.3951415461
 31
0.0
 11
9.4512861501
 21
44.4246944465
 31
0.0
 11
10.7470439642
 21
44.5128474893
 31
0.0
 11
11.9980742756
 21
44.6580923515
 31
0.0
 11
13.1829716087
 21
44.8579438532
 31
0.0
 11
14.2814620417
 21
45.1089824799
 31
0.0
 11
15.2747500987
 21
45.406912891
 31
0.0
 11
16.1458403456
 21
45.7466374146
 31
0.0
 11
16.293400211
 21
45.8140603709
 31
0.0
  0
SPLINE
  5
3AC
100
AcDbEntity
  8
0
100
AcDbSpline
 62
7
  6
CONTINUOUS
 70
0
 71
3
 72
8
 73
4
 74
2
 42
0.0000001
 43
0.0000001
 44
0.0000000001
 12
0.6003825514
 22
0.2813748518
 32
0.0
 13
0.5699536308
 23
0.3376384024
 33
0.0
 40
0.0
 40
0.0
 40
0.0
 40
0.0
 40
1.0
 40
1.0
 40
1.0
 40
1.0
 10
16.293400211
 20
45.8140603709
 30
0.0
 10
16.4935277281
 20
45.9078519881
 30
0.0
 10
16.6898436433
 20
46.0097971358
 30
0.0
 10
16.8798281869
 20
46.1223432699
 30
0.0
 11
16.293400211
 21
45.8140603709
 31
0.0
 11
16.8798281869
 21
46.1223432699
 31
0.0
  0
SPLINE
  5
3AD
100
AcDbEntity
  8
0
100
AcDbSpline
 62
7
  6
CONTINUOUS
 70
0
 71
3
 72
29
 73
25
 74
23
 42
0.0000001
 43
0.0000001
 44
0.0000000001
 12
0.0340770076
 22
-23.3471901413
 32
0.0
 13
20.8286442789
 23
10.3148151702
 33
0.0
 40
0.0
 40
0.0
 40
0.0
 40
0.0
 40
0.0140980548
 40
0.03668563
 40
0.0625421559
 40
0.0927294104
 40
0.1277183275
 40
0.167583527
 40
0.2121378391
 40
0.2610129514
 40
0.3137087079
 40
0.3696258985
 40
0.4280905085
 40
0.4883735426
 40
0.5497085539
 40
0.6113080142
 40
0.6723791575
 40
0.7321397061
 40
0.7898338372
 40
0.8447488513
 40
0.896233305
 40
0.9437180011
 40
0.9867424883
 40
1.0
 40
1.0
 40
1.0
 40
1.0
 10
-3.7167444391
 20
46.158187
 30
0.0
 10
-3.7165842993
 20
46.0484703445
 30
0.0
 10
-3.6828812384
 20
45.7627144201
 30
0.0
 10
-3.4859965497
 20
45.3116888597
 30
0.0
 10
-3.0985489607
 20
44.8352995895
 30
0.0
 10
-2.5530583179
 20
44.3839336746
 30
0.0
 10
-1.856647292
 20
43.959963285
 30
0.0
 10
-1.0179249271
 20
43.5677788488
 30
0.0
 10
-0.0479346405
 20
43.2125190295
 30
0.0
 10
1.0399443594
 20
42.8992244312
 30
0.0
 10
2.230334508
 20
42.6324812537
 30
0.0
 10
3.5061907349
 20
42.4162376808
 30
0.0
 10
4.8491192526
 20
42.2537072629
 30
0.0
 10
6.2396875999
 20
42.1473079014
 30
0.0
 10
7.6577341061
 20
42.0986226645
 30
0.0
 10
9.0826792485
 20
42.1083758548
 30
0.0
 10
10.4938387003
 20
42.1764223214
 30
0.0
 10
11.8707379625
 20
42.3017499197
 30
0.0
 10
13.1934222115
 20
42.4824931693
 30
0.0
 10
14.4427769999
 20
42.7159664343
 30
0.0
 10
15.6008025201
 20
42.9986939018
 30
0.0
 10
16.6510434074
 20
43.326532153
 30
0.0
 10
17.398498399
 20
43.6231709782
 30
0.0
 10
17.7927047389
 20
43.8098369543
 30
0.0
 10
17.8847500709
 20
43.855419882
 30
0.0
 11
-3.7167444391
 21
46.158187
 31
0.0
 11
-3.6786024927
 21
45.831972206
 31
0.0
 11
-3.477547618
 21
45.3474064013
 31
0.0
 11
-3.1071852284
 21
44.8746623097
 31
0.0
 11
-2.5729160414
 21
44.4206336045
 31
0.0
 11
-1.882530905
 21
43.9919410466
 31
0.0
 11
-1.046097189
 21
43.5948359389
 31
0.0
 11
-0.0758119804
 21
43.2351089681
 31
0.0
 11
1.0141757775
 21
42.9180057634
 31
0.0
 11
2.2079716087
 21
42.6481504035
 31
0.0
 11
3.4881672819
 21
42.4294779874
 31
0.0
 11
4.8360946613
 21
42.2651772512
 31
0.0
 11
6.2320979305
 21
42.1576440696
 31
0.0
 11
7.6558202184
 21
42.1084465186
 31
0.0
 11
9.086500448
 21
42.1183020093
 31
0.0
 11
10.5032760799
 21
42.1870668263
 31
0.0
 11
11.8854873352
 21
42.3137382239
 31
0.0
 11
13.2129784613
 21
42.4964690478
 31
0.0
 11
14.4663916483
 21
42.7325946711
 31
0.0
 11
15.6274493095
 21
43.0186718505
 31
0.0
 11
16.6792206097
 21
43.3505289366
 31
0.0
 11
17.606368355
 21
43.7233267058
 31
0.0
 11
17.8847500709
 21
43.855419882
 31
0.0
  0
SPLINE
  5
3AE
100
AcDbEntity
  8
0
100
AcDbSpline
 62
7
  6
CONTINUOUS
 70
0
 71
3
 72
8
 73
4
 74
2
 42
0.0000001
 43
0.0000001
 44
0.0000000001
 12
0.520553615
 22
0.2577899095
 32
0.0
 13
0.4994171788
 23
0.2958528717
 33
0.0
 40
0.0
 40
0.0
 40
0.0
 40
0.0
 40
1.0
 40
1.0
 40
1.0
 40
1.0
 10
17.8847500709
 20
43.855419882
 30
0.0
 10
18.0582679425
 20
43.9413498519
 30
0.0
 10
18.2289002506
 20
44.0330113032
 30
0.0
 10
18.3953726435
 20
44.1316289271
 30
0.0
 11
17.8847500709
 21
43.855419882
 31
0.0
 11
18.3953726435
 21
44.1316289271
 31
0.0
  0
SPLINE
  5
3AF
100
AcDbEntity
  8
RACCORDO
100
AcDbSpline
 62
253
  6
CONTINUOUS
 70
0
 71
3
 72
15
 73
11
 74
9
 42
0.0000001
 43
0.0000001
 44
0.0000000001
 12
-4.7067282489
 22
-3.1040613495
 32
0.0
 13
4.8403450234
 23
-2.8893300391
 33
0.0
 40
0.0
 40
0.0
 40
0.0
 40
0.0
 40
0.1114480002
 40
0.2561884909
 40
0.3790369351
 40
0.4899448368
 40
0.6031453099
 40
0.7325768238
 40
0.8861902883
 40
1.0
 40
1.0
 40
1.0
 40
1.0
 10
-3.6386669112
 20
47.2944867598
 30
0.0
 10
-3.8135187281
 20
47.1791729499
 30
0.0
 10
-4.2026455141
 20
46.8943730568
 30
0.0
 10
-4.7112213334
 20
46.3889343573
 30
0.0
 10
-5.0711428197
 20
45.7619574062
 30
0.0
 10
-5.1673579759
 20
45.0991746188
 30
0.0
 10
-4.9809835746
 20
44.4445004692
 30
0.0
 10
-4.5431718525
 20
43.8306841272
 30
0.0
 10
-3.9766558278
 20
43.3396994984
 30
0.0
 10
-3.5563976367
 20
43.0635432125
 30
0.0
 10
-3.3727715461
 20
42.9539319396
 30
0.0
 11
-3.6386669112
 21
47.2944867598
 31
0.0
 11
-4.1434885956
 21
46.920630255
 31
0.0
 11
-4.7099963243
 21
46.3344528984
 31
0.0
 11
-5.0390077453
 21
45.7257933186
 31
0.0
 11
-5.122567091
 21
45.1067652443
 31
0.0
 11
-4.9590276495
 21
44.4905427315
 31
0.0
 11
-4.5507959769
 21
43.8866037595
 31
0.0
 11
-3.9071294314
 21
43.3085024767
 31
0.0
 11
-3.3727715461
 21
42.9539319396
 31
0.0
  0
SPLINE
  5
3B0
100
AcDbEntity
  8
RACCORDO
100
AcDbSpline
 62
253
  6
CONTINUOUS
 70
0
 71
3
 72
23
 73
19
 74
17
 42
0.0000001
 43
0.0000001
 44
0.0000000001
 12
20.3540953187
 22
-12.0575053785
 32
0.0
 13
20.3355074277
 23
12.0466786562
 33
0.0
 40
0.0
 40
0.0
 40
0.0
 40
0.0
 40
0.0152296836
 40
0.0653722649
 40
0.1221692136
 40
0.1846876412
 40
0.2524004052
 40
0.3239318856
 40
0.3985301726
 40
0.4746043051
 40
0.5512823882
 40
0.6269455529
 40
0.700682527
 40
0.7710218628
 40
0.8371048103
 40
0.8977804144
 40
0.9522058604
 40
1.0
 40
1.0
 40
1.0
 40
1.0
 10
-3.3512494143
 20
42.9411338041
 30
0.0
 10
-3.2479206035
 20
42.87992314
 30
0.0
 10
-2.7980444699
 20
42.6277906359
 30
0.0
 10
-1.9198321271
 20
42.229562661
 30
0.0
 10
-0.6562065065
 20
41.7938164615
 30
0.0
 10
0.7701896718
 20
41.4195570646
 30
0.0
 10
2.3312132136
 20
41.1145258479
 30
0.0
 10
4.0009417515
 20
40.8839802784
 30
0.0
 10
5.7457668544
 20
40.7327431007
 30
0.0
 10
7.5362930508
 20
40.6634441111
 30
0.0
 10
9.3364886189
 20
40.6775248263
 30
0.0
 10
11.1156890771
 20
40.7747419122
 30
0.0
 10
12.8384536397
 20
40.9530904121
 30
0.0
 10
14.4751037005
 20
41.2094048575
 30
0.0
 10
15.9936935655
 20
41.5384716563
 30
0.0
 10
17.3666750144
 20
41.9340236679
 30
0.0
 10
18.5686505092
 20
42.3879967111
 30
0.0
 10
19.2914730323
 20
42.7483188409
 30
0.0
 10
19.6154457259
 20
42.9402390547
 30
0.0
 11
-3.3512494143
 21
42.9411338041
 31
0.0
 11
-3.0372182963
 21
42.7645642326
 31
0.0
 11
-1.9613571309
 21
42.2674346636
 31
0.0
 11
-0.6942807628
 21
41.8239484653
 31
0.0
 11
0.7338844118
 21
41.4446350848
 31
0.0
 11
2.3040153717
 21
41.134580676
 31
0.0
 11
3.9785412098
 21
40.9012046412
 31
0.0
 11
5.735037053
 21
40.747627766
 31
0.0
 11
7.5317493409
 21
40.677512019
 31
0.0
 11
9.3440477737
 21
40.6918044348
 31
0.0
 11
11.1297055109
 21
40.7901936634
 31
0.0
 11
12.8631150322
 21
40.9712445254
 31
0.0
 11
14.5052439101
 21
41.2309139993
 31
0.0
 11
16.0309832735
 21
41.5651932424
 31
0.0
 11
17.4076725272
 21
41.9669798214
 31
0.0
 11
18.6086694114
 21
42.4278656314
 31
0.0
 11
19.6154457259
 21
42.9402390547
 31
0.0
  0
SPLINE
  5
3B1
100
AcDbEntity
  8
RACCORDO
100
AcDbSpline
 62
253
  6
CONTINUOUS
 70
0
 71
3
 72
13
 73
9
 74
7
 42
0.0000001
 43
0.0000001
 44
0.0000000001
 12
-2.8124671692
 22
-1.7167969335
 32
0.0
 13
1.5713408964
 23
-2.9100226069
 33
0.0
 40
0.0
 40
0.0
 40
0.0
 40
0.0
 40
0.1784518465
 40
0.3797970518
 40
0.5722242559
 40
0.7463562092
 40
0.9193987003
 40
1.0
 40
1.0
 40
1.0
 40
1.0
 10
-2.0117136218
 20
48.7748283402
 30
0.0
 10
-2.179010275
 20
48.6727064793
 30
0.0
 10
-2.5254006298
 20
48.4388667376
 30
0.0
 10
-2.9965430162
 20
48.0187591042
 30
0.0
 10
-3.3652727884
 20
47.5059441534
 30
0.0
 10
-3.534251944
 20
46.9214565493
 30
0.0
 10
-3.4594171368
 20
46.4432844814
 30
0.0
 10
-3.3442268726
 20
46.188062651
 30
0.0
 10
-3.3020094997
 20
46.1098787829
 30
0.0
 11
-2.0117136218
 21
48.7748283402
 31
0.0
 11
-2.4970846851
 21
48.4430287197
 31
0.0
 11
-2.9859645902
 21
47.9948304064
 31
0.0
 11
-3.3431975447
 21
47.471221788
 31
0.0
 11
-3.4919633145
 21
46.9172521984
 31
0.0
 11
-3.4102845173
 21
46.3531262857
 31
0.0
 11
-3.3020094997
 21
46.1098787829
 31
0.0
  0
SPLINE
  5
3B2
100
AcDbEntity
  8
RACCORDO
100
AcDbSpline
 62
253
  6
CONTINUOUS
 70
0
 71
3
 72
14
 73
10
 74
8
 42
0.0000001
 43
0.0000001
 44
0.0000000001
 12
3.0682814075
 22
-5.6822604697
 32
0.0
 13
6.3131486912
 23
-1.2366651776
 33
0.0
 40
0.0
 40
0.0
 40
0.0
 40
0.0
 40
0.058338736
 40
0.1768651443
 40
0.3189259977
 40
0.4846761387
 40
0.6739377786
 40
0.8834790404
 40
1.0
 40
1.0
 40
1.0
 40
1.0
 10
-3.3020094997
 20
46.1098787829
 30
0.0
 10
-3.2423429467
 20
45.9993801517
 30
0.0
 10
-3.0274619085
 20
45.6820581554
 30
0.0
 10
-2.5261390833
 20
45.2093324723
 30
0.0
 10
-1.7539913196
 20
44.7133040682
 30
0.0
 10
-0.7871217279
 20
44.2597056594
 30
0.0
 10
0.3560519369
 20
43.8570810513
 30
0.0
 10
1.4249802495
 20
43.5738197563
 30
0.0
 10
2.1089771543
 20
43.4284176549
 30
0.0
 10
2.3541818689
 20
43.3803851839
 30
0.0
 11
-3.3020094997
 21
46.1098787829
 31
0.0
 11
-3.093717394
 21
45.7960456183
 31
0.0
 11
-2.5502370928
 21
45.2614018623
 31
0.0
 11
-1.7881093263
 21
44.7573173269
 31
0.0
 11
-0.8266798675
 21
44.2965890149
 31
0.0
 11
0.3194213952
 21
43.8862291196
 31
0.0
 11
1.6210906339
 21
43.5366586913
 31
0.0
 11
2.3541818689
 21
43.3803851839
 31
0.0
  0
SPLINE
  5
3B3
100
AcDbEntity
  8
RACCORDO
100
AcDbSpline
 62
253
  6
CONTINUOUS
 70
0
 71
3
 72
19
 73
15
 74
13
 42
0.0000001
 43
0.0000001
 44
0.0000000001
 12
15.8750637664
 22
-3.1097221866
 32
0.0
 13
13.9157206826
 23
8.2436209634
 33
0.0
 40
0.0
 40
0.0
 40
0.0
 40
0.0
 40
0.0442462699
 40
0.1401399766
 40
0.2401833005
 40
0.3420986603
 40
0.4445836944
 40
0.5452805311
 40
0.6429175099
 40
0.7350748444
 40
0.8194101767
 40
0.893670617
 40
0.9530618791
 40
1.0
 40
1.0
 40
1.0
 40
1.0
 10
2.3541818689
 20
43.3803851839
 30
0.0
 10
2.588319321
 20
43.3345206481
 30
0.0
 10
3.3321283771
 20
43.2005989299
 30
0.0
 10
4.6159890608
 20
43.0267878192
 30
0.0
 10
6.2171381123
 20
42.8953261111
 30
0.0
 10
7.8583074892
 20
42.8422586842
 30
0.0
 10
9.503643214
 20
42.8687880226
 30
0.0
 10
11.1227093089
 20
42.9744085338
 30
0.0
 10
12.6789793247
 20
43.1565928523
 30
0.0
 10
14.1358640526
 20
43.4102553088
 30
0.0
 10
15.4516099512
 20
43.7251348085
 30
0.0
 10
16.5732177356
 20
44.0802588095
 30
0.0
 10
17.4753564357
 20
44.4493776658
 30
0.0
 10
17.9850822563
 20
44.7139649804
 30
0.0
 10
18.2028081828
 20
44.8429450062
 30
0.0
 11
2.3541818689
 21
43.3803851839
 31
0.0
 11
3.0585306305
 21
43.253195233
 31
0.0
 11
4.5952304084
 21
43.043039236
 31
0.0
 11
6.2078215029
 21
42.9093871123
 31
0.0
 11
7.8553437066
 21
42.8556342453
 31
0.0
 11
9.512737255
 21
42.8825986769
 31
0.0
 11
11.1379090699
 21
42.9895959673
 31
0.0
 11
12.7061864766
 21
43.1750063311
 31
0.0
 11
14.1741910964
 21
43.4333923107
 31
0.0
 11
15.4999056952
 21
43.7545305419
 31
0.0
 11
16.6435438303
 21
44.1215997074
 31
0.0
 11
17.5308759986
 21
44.489574132
 31
0.0
 11
18.2028081828
 21
44.8429450062
 31
0.0
  0
SPLINE
  5
3B4
100
AcDbEntity
  8
RACCORDO
100
AcDbSpline
 62
253
  6
CONTINUOUS
 70
0
 71
3
 72
9
 73
5
 74
3
 42
0.0000001
 43
0.0000001
 44
0.0000000001
 12
-0.002375102
 22
-0.2889827739
 32
0.0
 13
0.1459105396
 23
-0.251941569
 33
0.0
 40
0.0
 40
0.0
 40
0.0
 40
0.0
 40
0.1498681382
 40
1.0
 40
1.0
 40
1.0
 40
1.0
 10
4.0332570466
 20
51.5511417087
 30
0.0
 10
4.0331383958
 20
51.536705272
 30
0.0
 10
4.0367485074
 20
51.4405046385
 30
0.0
 10
4.0714029227
 20
51.3475356098
 30
0.0
 10
4.1127506556
 20
51.2761410914
 30
0.0
 11
4.0332570466
 21
51.5511417087
 31
0.0
 11
4.0349177465
 21
51.5079430356
 31
0.0
 11
4.1127506556
 21
51.2761410914
 31
0.0
  0
SPLINE
  5
3B5
100
AcDbEntity
  8
RACCORDO
100
AcDbSpline
 62
253
  6
CONTINUOUS
 70
0
 71
3
 72
20
 73
16
 74
14
 42
0.0000001
 43
0.0000001
 44
0.0000000001
 12
4.2830089897
 22
-6.756666945
 32
0.0
 13
6.8107767029
 23
4.0346786826
 33
0.0
 40
0.0
 40
0.0
 40
0.0
 40
0.0
 40
0.0426610265
 40
0.0964132268
 40
0.1620767398
 40
0.2381030946
 40
0.3232133121
 40
0.4144363571
 40
0.5097257337
 40
0.6055774924
 40
0.6996562915
 40
0.7886628838
 40
0.8703932025
 40
0.9423436864
 40
1.0
 40
1.0
 40
1.0
 40
1.0
 10
4.1281182446
 20
51.2507986602
 30
0.0
 10
4.1890240979
 20
51.1547165444
 30
0.0
 10
4.3725694622
 20
50.9733412045
 30
0.0
 10
4.7400334815
 20
50.749956961
 30
0.0
 10
5.2185812501
 20
50.5537484231
 30
0.0
 10
5.7950408964
 20
50.3895937603
 30
0.0
 10
6.449688218
 20
50.2638383787
 30
0.0
 10
7.1621387559
 20
50.1805909093
 30
0.0
 10
7.9067847618
 20
50.1430610547
 30
0.0
 10
8.6598315243
 20
50.1525027598
 30
0.0
 10
9.3942643066
 20
50.2085518765
 30
0.0
 10
10.0863396057
 20
50.3092754929
 30
0.0
 10
10.7117198702
 20
50.450885564
 30
0.0
 10
11.2422485056
 20
50.625670019
 30
0.0
 10
11.5527810052
 20
50.7724611604
 30
0.0
 10
11.6836757642
 20
50.8500027268
 30
0.0
 11
4.1281182446
 21
51.2507986602
 31
0.0
 11
4.3583162076
 21
51.0037005881
 31
0.0
 11
4.7174149254
 21
50.775431153
 31
0.0
 11
5.1960425658
 21
50.5726765907
 31
0.0
 11
5.7738318483
 21
50.4042561044
 31
0.0
 11
6.4350155432
 21
50.2747651152
 31
0.0
 11
7.1521083749
 21
50.1895813187
 31
0.0
 11
7.9054464945
 21
50.1510223196
 31
0.0
 11
8.6641612047
 21
50.1606801718
 31
0.0
 11
9.4066743484
 21
50.2182444835
 31
0.0
 11
10.1036607794
 21
50.3214693965
 31
0.0
 11
10.7340286989
 21
50.4671775045
 31
0.0
 11
11.2735629259
 21
50.6496963313
 31
0.0
 11
11.6836757642
 21
50.8500027268
 31
0.0
  0
SPLINE
  5
3B6
100
AcDbEntity
  8
RACCORDO
100
AcDbSpline
 62
253
  6
CONTINUOUS
 70
0
 71
3
 72
10
 73
6
 74
4
 42
0.0000001
 43
0.0000001
 44
0.0000000001
 12
1.2926156832
 22
0.7657407034
 32
0.0
 13
0.5464304884
 23
1.4088286118
 33
0.0
 40
0.0
 40
0.0
 40
0.0
 40
0.0
 40
0.349074192
 40
0.6875848763
 40
1.0
 40
1.0
 40
1.0
 40
1.0
 10
15.3642837303
 20
48.5266363519
 30
0.0
 10
15.5146899887
 20
48.6157364577
 30
0.0
 10
15.8020883434
 20
48.807466219
 30
0.0
 10
16.1713748839
 20
49.1498630683
 30
0.0
 10
16.3519883852
 20
49.4281572233
 30
0.0
 10
16.408892768
 20
49.5748703449
 30
0.0
 11
15.3642837303
 21
48.5266363519
 31
0.0
 11
15.7978738997
 21
48.8216743287
 31
0.0
 11
16.1648484705
 21
49.1737860515
 31
0.0
 11
16.408892768
 21
49.5748703449
 31
0.0
  0
SPLINE
  5
3B7
100
AcDbEntity
  8
RACCORDO
100
AcDbSpline
 62
253
  6
CONTINUOUS
 70
0
 71
3
 72
9
 73
5
 74
3
 42
0.0000001
 43
0.0000001
 44
0.0000000001
 12
0.1400862043
 22
0.3611757705
 32
0.0
 13
0.0018566193
 23
0.3872882444
 33
0.0
 40
0.0
 40
0.0
 40
0.0
 40
0.0
 40
0.0312686543
 40
1.0
 40
1.0
 40
1.0
 40
1.0
 10
16.408892768
 20
49.5748703449
 30
0.0
 10
16.4103528704
 20
49.5786348384
 30
0.0
 10
16.4564211968
 20
49.6993035249
 30
0.0
 10
16.482158389
 20
49.8288298791
 30
0.0
 10
16.4827579108
 20
49.9538892999
 30
0.0
 11
16.408892768
 21
49.5748703449
 31
0.0
 11
16.4132139812
 21
49.5861897936
 31
0.0
 11
16.4827579108
 21
49.9538892999
 31
0.0
  0
SPLINE
  5
3B8
100
AcDbEntity
  8
RACCORDO
100
AcDbSpline
 62
253
  6
CONTINUOUS
 70
0
 71
3
 72
19
 73
15
 74
13
 42
0.0000001
 43
0.0000001
 44
0.0000000001
 12
-6.9374327748
 22
-4.4123287069
 32
0.0
 13
8.0704966191
 23
-1.558801366
 33
0.0
 40
0.0
 40
0.0
 40
0.0
 40
0.0
 40
0.0417988374
 40
0.1037706541
 40
0.1645893978
 40
0.222768526
 40
0.281269879
 40
0.3476168057
 40
0.4268689534
 40
0.5224980659
 40
0.6361467794
 40
0.7665260442
 40
0.9127866642
 40
1.0
 40
1.0
 40
1.0
 40
1.0
 10
-0.5669826389
 20
50.1604107411
 30
0.0
 10
-0.6636415139
 20
50.0989340043
 30
0.0
 10
-0.8985021776
 20
49.938165228
 30
0.0
 10
-1.2434022979
 20
49.6452848587
 30
0.0
 10
-1.5591649586
 20
49.2579187808
 30
0.0
 10
-1.7534815791
 20
48.8013746823
 30
0.0
 10
-1.7505412577
 20
48.2840892739
 30
0.0
 10
-1.5065349956
 20
47.7652990533
 30
0.0
 10
-1.0474116449
 20
47.2804420359
 30
0.0
 10
-0.3930363979
 20
46.8302456279
 30
0.0
 10
0.4446998881
 20
46.4198656249
 30
0.0
 10
1.4515340719
 20
46.0554947414
 30
0.0
 10
2.4151247581
 20
45.7967824603
 30
0.0
 10
3.0410284179
 20
45.6642368739
 30
0.0
 10
3.2756467284
 20
45.6189207849
 30
0.0
 11
-0.5669826389
 21
50.1604107411
 31
0.0
 11
-0.8500210397
 21
49.9655430005
 31
0.0
 11
-1.2348503696
 21
49.6319407479
 31
0.0
 11
-1.5435632861
 21
49.2388532291
 31
0.0
 11
-1.7209050458
 21
48.794829842
 31
0.0
 11
-1.7183354222
 21
48.31406009
 31
0.0
 11
-1.5005658553
 21
47.8141826162
 31
0.0
 11
-1.0654836125
 21
47.3295079122
 31
0.0
 11
-0.4252321876
 21
46.8737473666
 31
0.0
 11
0.4094321218
 21
46.454615277
 31
0.0
 11
1.4147785911
 21
46.0839970859
 31
0.0
 11
2.5744802919
 21
45.7679299575
 31
0.0
 11
3.2756467284
 21
45.6189207849
 31
0.0
  0
SPLINE
  5
3B9
100
AcDbEntity
  8
RACCORDO
100
AcDbSpline
 62
253
  6
CONTINUOUS
 70
0
 71
3
 72
19
 73
15
 74
13
 42
0.0000001
 43
0.0000001
 44
0.0000000001
 12
13.4412398786
 22
-2.5961504071
 32
0.0
 13
11.7760472825
 23
6.9760864319
 33
0.0
 40
0.0
 40
0.0
 40
0.0
 40
0.0
 40
0.042998983
 40
0.144797355
 40
0.2504390908
 40
0.358517786
 40
0.4662437405
 40
0.5720990355
 40
0.6733446291
 40
0.7638583552
 40
0.8418910212
 40
0.9065925569
 40
0.9582973025
 40
1.0
 40
1.0
 40
1.0
 40
1.0
 10
3.2756467284
 20
45.6189207849
 30
0.0
 10
3.4682999433
 20
45.5817101759
 30
0.0
 10
4.1189008578
 20
45.4659317741
 30
0.0
 10
5.2522712716
 20
45.3160296206
 30
0.0
 10
6.6882592147
 20
45.2059180651
 30
0.0
 10
8.1550292113
 20
45.1697283868
 30
0.0
 10
9.6227108379
 20
45.2082252555
 30
0.0
 10
11.0553775316
 20
45.3204039774
 30
0.0
 10
12.4019357308
 20
45.5008701448
 30
0.0
 10
13.6108449118
 20
45.7366638154
 30
0.0
 10
14.6408761523
 20
46.0072128554
 30
0.0
 10
15.4817763943
 20
46.292350424
 30
0.0
 10
16.1460096794
 20
46.5754486608
 30
0.0
 10
16.5235660802
 20
46.7744539566
 30
0.0
 10
16.6872637262
 20
46.8714278308
 30
0.0
 11
3.2756467284
 21
45.6189207849
 31
0.0
 11
3.8551175699
 21
45.5155140999
 31
0.0
 11
5.2361600216
 21
45.3307977304
 31
0.0
 11
6.677786165
 21
45.2191130966
 31
0.0
 11
8.1566282028
 21
45.1822606797
 31
0.0
 11
9.6305842047
 21
45.2213067441
 31
0.0
 11
11.0749399765
 21
45.3355759917
 31
0.0
 11
12.4481609196
 21
45.521682909
 31
0.0
 11
13.6636186024
 21
45.7614709423
 31
0.0
 11
14.6958526969
 21
46.0357531418
 31
0.0
 11
15.5335377982
 21
46.3230639233
 31
0.0
 11
16.1834766221
 21
46.6030880872
 31
0.0
 11
16.6872637262
 21
46.8714278308
 31
0.0
  0
SPLINE
  5
3BA
100
AcDbEntity
  8
RACCORDO
100
AcDbSpline
 62
253
  6
CONTINUOUS
 70
0
 71
3
 72
15
 73
11
 74
9
 42
0.0000001
 43
0.0000001
 44
0.0000000001
 12
4.9642903248
 22
2.9641572082
 32
0.0
 13
-4.8980265671
 23
3.0793964487
 33
0.0
 40
0.0
 40
0.0
 40
0.0
 40
0.0
 40
0.1628413834
 40
0.3038528228
 40
0.4235360711
 40
0.5315865008
 40
0.6418704107
 40
0.7679671791
 40
0.9176228649
 40
1.0
 40
1.0
 40
1.0
 40
1.0
 10
19.6386464279
 20
42.954037371
 30
0.0
 10
19.9081103959
 20
43.1149331911
 30
0.0
 10
20.393853523
 20
43.4466126756
 30
0.0
 10
20.9771640974
 20
44.0263272508
 30
0.0
 10
21.3370861812
 20
44.6533039369
 30
0.0
 10
21.4333011671
 20
45.3160867285
 30
0.0
 10
21.2469267999
 20
45.9707608691
 30
0.0
 10
20.8091150567
 20
46.5845771956
 30
0.0
 10
20.2843596294
 20
47.0393690298
 30
0.0
 10
19.9138260733
 20
47.2906448211
 30
0.0
 10
19.7793309413
 20
47.3752021068
 30
0.0
 11
19.6386464279
 21
42.954037371
 31
0.0
 11
20.409431813
 21
43.4946304567
 31
0.0
 11
20.9759395417
 21
44.0808087792
 31
0.0
 11
21.3049509627
 21
44.6894679458
 31
0.0
 11
21.3885103084
 21
45.3084961284
 31
0.0
 11
21.2249708669
 21
45.9247186071
 31
0.0
 11
20.8167391943
 21
46.528657561
 31
0.0
 11
20.1730726488
 21
47.1067588506
 31
0.0
 11
19.7793309413
 21
47.3752021068
 31
0.0
  0
SPLINE
  5
3BB
100
AcDbEntity
  8
RACCORDO
100
AcDbSpline
 62
253
  6
CONTINUOUS
 70
0
 71
3
 72
9
 73
5
 74
3
 42
0.0000001
 43
0.0000001
 44
0.0000000001
 12
0.8651147978
 22
0.5124907754
 32
0.0
 13
0.6455931624
 23
0.7763718803
 33
0.0
 40
0.0
 40
0.0
 40
0.0
 40
0.0
 40
0.5076821334
 40
1.0
 40
1.0
 40
1.0
 40
1.0
 10
15.1717192696
 20
48.8369631857
 30
0.0
 10
15.3181203783
 20
48.9236906558
 30
0.0
 10
15.5978662282
 20
49.1103137141
 30
0.0
 10
15.8450184171
 20
49.3394730208
 30
0.0
 10
15.9509640999
 20
49.4668802701
 30
0.0
 11
15.1717192696
 21
48.8369631857
 31
0.0
 11
15.5937635905
 21
49.1241443821
 31
0.0
 11
15.9509640999
 21
49.4668802701
 31
0.0
  0
SPLINE
  5
3BC
100
AcDbEntity
  8
RACCORDO
100
AcDbSpline
 62
253
  6
CONTINUOUS
 70
0
 71
3
 72
17
 73
13
 74
11
 42
0.0000001
 43
0.0000001
 44
0.0000000001
 12
4.8766075814
 22
5.8644688608
 32
0.0
 13
-7.5576208182
 23
0.767647148
 33
0.0
 40
0.0
 40
0.0
 40
0.0
 40
0.0
 40
0.0616950472
 40
0.1184781911
 40
0.1780452289
 40
0.2486789629
 40
0.3347796627
 40
0.438510177
 40
0.5588230732
 40
0.6948418077
 40
0.8433060917
 40
1.0
 40
1.0
 40
1.0
 40
1.0
 10
15.9509640999
 20
49.4668802701
 30
0.0
 10
16.0512516114
 20
49.5874831644
 30
0.0
 10
16.216771896
 20
49.844189258
 30
0.0
 10
16.2941672944
 20
50.3046085145
 30
0.0
 10
16.1409619072
 20
50.7691214932
 30
0.0
 10
15.7856049052
 20
51.1963840813
 30
0.0
 10
15.2524300139
 20
51.5910808164
 30
0.0
 10
14.5514931022
 20
51.9504661301
 30
0.0
 10
13.6957359837
 20
52.2690454455
 30
0.0
 10
12.7057992762
 20
52.5386365461
 30
0.0
 10
11.6085429578
 20
52.7520589409
 30
0.0
 10
10.8419156255
 20
52.8515315656
 30
0.0
 10
10.4471712442
 20
52.8916267762
 30
0.0
 11
15.9509640999
 21
49.4668802701
 31
0.0
 11
16.1927169897
 21
49.8683015911
 31
0.0
 11
16.258204718
 21
50.2945903516
 31
0.0
 11
16.1275866306
 21
50.7277598061
 31
0.0
 11
15.7981509822
 21
51.1511908336
 31
0.0
 11
15.2801993921
 21
51.5504399326
 31
0.0
 11
14.5833672756
 21
51.9180927337
 31
0.0
 11
13.7291771995
 21
52.2427934795
 31
0.0
 11
12.733530273
 21
52.5184963668
 31
0.0
 11
11.6271967117
 21
52.7366808679
 31
0.0
 11
10.4471712442
 21
52.8916267762
 31
0.0
  0
SPLINE
  5
3BD
100
AcDbEntity
  8
RACCORDO
100
AcDbSpline
 62
253
  6
CONTINUOUS
 70
0
 71
3
 72
13
 73
9
 74
7
 42
0.0000001
 43
0.0000001
 44
0.0000000001
 12
-4.9049158348
 22
-0.4976246906
 32
0.0
 13
-4.2411195508
 23
-2.5124233832
 33
0.0
 40
0.0
 40
0.0
 40
0.0
 40
0.0
 40
0.0871027364
 40
0.3254381618
 40
0.5426129843
 40
0.7320314126
 40
0.8822817557
 40
1.0
 40
1.0
 40
1.0
 40
1.0
 10
5.8222188976
 20
52.891987571
 30
0.0
 10
5.6798083673
 20
52.8775394136
 30
0.0
 10
5.1482717634
 20
52.8181734358
 30
0.0
 10
4.2661801161
 20
52.684449109
 30
0.0
 10
3.2302908994
 20
52.4570024436
 30
0.0
 10
2.3528533457
 20
52.1939161924
 30
0.0
 10
1.6532942365
 20
51.9166615134
 30
0.0
 10
1.2606429969
 20
51.7153677608
 30
0.0
 10
1.0942239478
 20
51.6167817376
 30
0.0
 11
5.8222188976
 21
52.891987571
 31
0.0
 11
5.3954579357
 21
52.8442684533
 31
0.0
 11
4.2342035792
 21
52.6659876199
 31
0.0
 11
3.1892432597
 21
52.4333179005
 31
0.0
 11
2.2960219071
 21
52.1612869017
 31
0.0
 11
1.6089443209
 21
51.8847247769
 31
0.0
 11
1.0942239478
 21
51.6167817376
 31
0.0
  0
SPLINE
  5
3BE
100
AcDbEntity
  8
RACCORDO
100
AcDbSpline
 62
253
  6
CONTINUOUS
 70
0
 71
3
 72
13
 73
9
 74
7
 42
0.0000001
 43
0.0000001
 44
0.0000000001
 12
-2.0361816964
 22
-1.3155467456
 32
0.0
 13
1.4703793574
 23
-1.9353521072
 33
0.0
 40
0.0
 40
0.0
 40
0.0
 40
0.0
 40
0.1403825574
 40
0.344736107
 40
0.5381763567
 40
0.7162154278
 40
0.9029833061
 40
1.0
 40
1.0
 40
1.0
 40
1.0
 10
0.9492176992
 20
51.5271343981
 30
0.0
 10
0.8539362345
 20
51.4655744592
 30
0.0
 10
0.6261898874
 20
51.304593015
 30
0.0
 10
0.3057451765
 20
51.0074786568
 30
0.0
 10
0.0491715333
 20
50.6095559341
 30
0.0
 10
-0.0282241102
 20
50.1491366645
 30
0.0
 10
0.092459969
 20
49.7832271021
 30
0.0
 10
0.2184330666
 20
49.5904010912
 30
0.0
 10
0.2659835147
 20
49.5278139368
 30
0.0
 11
0.9492176992
 21
51.5271343981
 31
0.0
 11
0.672179627
 21
51.3296003574
 31
0.0
 11
0.3149791176
 21
50.9868654211
 31
0.0
 11
0.0732262278
 21
50.585443484
 31
0.0
 11
0.0077384994
 21
50.1591548934
 31
0.0
 11
0.1383565867
 21
49.725985301
 31
0.0
 11
0.2659835147
 21
49.5278139368
 31
0.0
  0
SPLINE
  5
3BF
100
AcDbEntity
  8
RACCORDO
100
AcDbSpline
 62
253
  6
CONTINUOUS
 70
0
 71
3
 72
23
 73
19
 74
17
 42
0.0000001
 43
0.0000001
 44
0.0000000001
 12
9.4504119607
 22
-12.4388815789
 32
0.0
 13
13.3954688069
 23
7.9354256952
 33
0.0
 40
0.0
 40
0.0
 40
0.0
 40
0.0
 40
0.0193630285
 40
0.061366133
 40
0.1119697153
 40
0.170662794
 40
0.2370177622
 40
0.3094441288
 40
0.3869446428
 40
0.4674105156
 40
0.5495984483
 40
0.6312086093
 40
0.7109689537
 40
0.7864279811
 40
0.8551873783
 40
0.9151588765
 40
0.962729396
 40
1.0
 40
1.0
 40
1.0
 40
1.0
 10
0.2659835147
 20
49.5278139368
 30
0.0
 10
0.3269797135
 20
49.4475291305
 30
0.0
 10
0.5436772222
 20
49.2104726338
 30
0.0
 10
1.0135132321
 20
48.8626642326
 30
0.0
 10
1.7144500838
 20
48.5032787941
 30
0.0
 10
2.5702072469
 20
48.1846995362
 30
0.0
 10
3.5601439312
 20
47.9151083598
 30
0.0
 10
4.6628015044
 20
47.7006354124
 30
0.0
 10
5.8493466578
 20
47.5472182457
 30
0.0
 10
7.0931798539
 20
47.4584482861
 30
0.0
 10
8.3612940672
 20
47.4367913219
 30
0.0
 10
9.6250978357
 20
47.482755584
 30
0.0
 10
10.8497367911
 20
47.5949528761
 30
0.0
 10
11.9997630311
 20
47.7692962429
 30
0.0
 10
13.0356525032
 20
47.996742213
 30
0.0
 10
13.9130895322
 20
48.259829833
 30
0.0
 10
14.6126492257
 20
48.5370829856
 30
0.0
 10
15.0053001983
 20
48.7383771495
 30
0.0
 10
15.1717192696
 20
48.8369631857
 30
0.0
 11
0.2659835147
 21
49.5278139368
 31
0.0
 11
0.4677922351
 21
49.3025541954
 31
0.0
 11
0.9857438251
 21
48.9033051004
 31
0.0
 11
1.6825759414
 21
48.5356522187
 31
0.0
 11
2.5367660174
 21
48.2109514805
 31
0.0
 11
3.5324129438
 21
47.9352485557
 31
0.0
 11
4.638746505
 21
47.7170640562
 31
0.0
 11
5.8351854362
 21
47.5604573877
 31
0.0
 11
7.0847490063
 21
47.4702695904
 31
0.0
 11
8.3641839533
 21
47.4481790201
 31
0.0
 11
9.6339558739
 21
47.4948685699
 31
0.0
 11
10.8704852805
 21
47.6094765926
 31
0.0
 11
12.0317396371
 21
47.7877575435
 31
0.0
 11
13.0766999569
 21
48.0204271263
 31
0.0
 11
13.9699213098
 21
48.2924586572
 31
0.0
 11
14.6569988963
 21
48.5690199795
 31
0.0
 11
15.1717192696
 21
48.8369631857
 31
0.0
  0
SPLINE
  5
3C0
100
AcDbEntity
  8
0
100
AcDbSpline
 62
7
  6
CONTINUOUS
 70
0
 71
3
 72
28
 73
24
 74
22
 42
0.0000001
 43
0.0000001
 44
0.0000000001
 12
-11.5358006818
 22
-6.8337652429
 32
0.0
 13
11.5358006818
 23
6.8337652429
 33
0.0
 40
0.0
 40
0.0
 40
0.0
 40
0.0
 40
0.0355932211
 40
0.0650287335
 40
0.0897474603
 40
0.1126225999
 40
0.1373413267
 40
0.1667768391
 40
0.2023700602
 40
0.2445212129
 40
0.293004968
 40
0.3472059227
 40
0.4062462732
 40
0.4690637789
 40
0.5344677091
 40
0.6011850301
 40
0.6679023511
 40
0.7333062813
 40
0.796123787
 40
0.8551641375
 40
0.9093650923
 40
0.9578488474
 40
1.0
 40
1.0
 40
1.0
 40
1.0
 10
2.936819186
 20
51.7886525481
 30
0.0
 10
2.7999537512
 20
51.7075739757
 30
0.0
 10
2.5589268711
 20
51.5421788255
 30
0.0
 10
2.2798368159
 20
51.2484927653
 30
0.0
 10
2.1280889244
 20
50.9298615182
 30
0.0
 10
2.1280927678
 20
50.5953217748
 30
0.0
 10
2.2798232932
 20
50.276697137
 30
0.0
 10
2.5589922205
 20
49.9829769276
 30
0.0
 10
2.9558630218
 20
49.7105433333
 30
0.0
 10
3.4638505215
 20
49.4618807394
 30
0.0
 10
4.0734452572
 20
49.2412851276
 30
0.0
 10
4.7721593679
 20
49.0535195388
 30
0.0
 10
5.5450160874
 20
48.9028082694
 30
0.0
 10
6.3751289336
 20
48.7926100133
 30
0.0
 10
7.2441947035
 20
48.7254593436
 30
0.0
 10
8.1329715406
 20
48.7029026929
 30
0.0
 10
9.0217487837
 20
48.725459446
 30
0.0
 10
9.8908133748
 20
48.7926096199
 30
0.0
 10
10.7209302784
 20
48.9028096452
 30
0.0
 10
11.4937732498
 20
49.053514904
 30
0.0
 10
12.1925324071
 20
49.2413001905
 30
0.0
 10
12.8019850345
 20
49.4618336611
 30
0.0
 10
13.1670415996
 20
49.6405146609
 30
0.0
 10
13.3291240314
 20
49.7365316882
 30
0.0
 11
2.936819186
 21
51.7886525481
 31
0.0
 11
2.5477291168
 21
51.5123160553
 31
0.0
 11
2.2834041356
 21
51.2192319685
 31
0.0
 11
2.1497488256
 21
50.9159473021
 31
0.0
 11
2.1497488256
 21
50.6092369342
 31
0.0
 11
2.2834041356
 21
50.3059522678
 31
0.0
 11
2.5477291168
 21
50.0128681811
 31
0.0
 11
2.936819186
 21
49.7365316882
 31
0.0
 11
3.4419827139
 21
49.4831156898
 31
0.0
 11
4.0519351821
 21
49.2582810806
 31
0.0
 11
4.7530512603
 21
49.0670502941
 31
0.0
 11
5.529669174
 21
48.9136951102
 31
0.0
 11
6.3644405622
 21
48.8016412302
 31
0.0
 11
7.2387180116
 21
48.7333917527
 31
0.0
 11
8.1329716087
 21
48.7104712582
 31
0.0
 11
9.0272252058
 21
48.7333917527
 31
0.0
 11
9.9015026552
 21
48.8016412302
 31
0.0
 11
10.7362740434
 21
48.9136951102
 31
0.0
 11
11.5128919571
 21
49.0670502941
 31
0.0
 11
12.2140080353
 21
49.2582810806
 31
0.0
 11
12.8239605035
 21
49.4831156898
 31
0.0
 11
13.3291240314
 21
49.7365316882
 31
0.0
  0
SPLINE
  5
3C1
100
AcDbEntity
  8
RACCORDO
100
AcDbSpline
 62
253
  6
CONTINUOUS
 70
0
 71
3
 72
8
 73
4
 74
2
 42
0.0000001
 43
0.0000001
 44
0.0000000001
 12
-0.115150649
 22
-0.0682148144
 32
0.0
 13
-0.1105224511
 23
-0.0758457277
 33
0.0
 40
0.0
 40
0.0
 40
0.0
 40
0.0
 40
1.0
 40
1.0
 40
1.0
 40
1.0
 10
4.7748319139
 20
52.4865625034
 30
0.0
 10
4.7364483642
 20
52.4638242319
 30
0.0
 10
4.6986549421
 20
52.4399553681
 30
0.0
 10
4.6618141251
 20
52.4146734589
 30
0.0
 11
4.7748319139
 21
52.4865625034
 31
0.0
 11
4.6618141251
 21
52.4146734589
 31
0.0
  0
SPLINE
  5
3C2
100
AcDbEntity
  8
RACCORDO
100
AcDbSpline
 62
253
  6
CONTINUOUS
 70
0
 71
3
 72
24
 73
20
 74
18
 42
0.0000001
 43
0.0000001
 44
0.0000000001
 12
-7.0416189524
 22
-4.8322916159
 32
0.0
 13
7.336491225
 23
4.3461100032
 33
0.0
 40
0.0
 40
0.0
 40
0.0
 40
0.0
 40
0.0280033448
 40
0.0625507054
 40
0.0916681955
 40
0.1220041357
 40
0.1594603104
 40
0.2066545184
 40
0.2643067915
 40
0.3310576201
 40
0.4057840394
 40
0.4858775029
 40
0.5695411894
 40
0.6536986426
 40
0.7362994339
 40
0.8144468619
 40
0.8862056659
 40
0.9493780419
 40
1.0
 40
1.0
 40
1.0
 40
1.0
 10
4.6618141251
 20
52.4146734589
 30
0.0
 10
4.5960844973
 20
52.3695666828
 30
0.0
 10
4.4560383666
 20
52.2587651304
 30
0.0
 10
4.2880250829
 20
52.0517668524
 30
0.0
 10
4.231920178
 20
51.7764675549
 30
0.0
 10
4.3407074371
 20
51.5099922544
 30
0.0
 10
4.5765065052
 20
51.2769790042
 30
0.0
 10
4.9240423493
 20
51.0657098757
 30
0.0
 10
5.376636722
 20
50.8801418664
 30
0.0
 10
5.9218334012
 20
50.7248899527
 30
0.0
 10
6.5409773125
 20
50.6059544831
 30
0.0
 10
7.2147896983
 20
50.5272217701
 30
0.0
 10
7.9190514892
 20
50.4917273812
 30
0.0
 10
8.6312584389
 20
50.5006568594
 30
0.0
 10
9.3258607733
 20
50.5536668808
 30
0.0
 10
9.9804029084
 20
50.6489268905
 30
0.0
 10
10.5718665311
 20
50.7828596199
 30
0.0
 10
11.0736243842
 20
50.9481615228
 30
0.0
 10
11.367315453
 20
51.0869933611
 30
0.0
 10
11.4911113035
 20
51.1603295607
 30
0.0
 11
4.6618141251
 21
52.4146734589
 31
0.0
 11
4.4757808608
 21
52.2642549747
 31
0.0
 11
4.301243925
 21
52.0269344755
 31
0.0
 11
4.2571669904
 21
51.7825880664
 31
0.0
 11
4.3453134403
 21
51.539389514
 31
0.0
 11
4.5630265755
 21
51.3056921204
 31
0.0
 11
4.9026503378
 21
51.0898023883
 31
0.0
 11
5.3553203998
 21
50.8980436394
 31
0.0
 11
5.9017745565
 21
50.7387570603
 31
0.0
 11
6.527100373
 21
50.616288666
 31
0.0
 11
7.205303287
 21
50.5357246209
 31
0.0
 11
7.9177858128
 21
50.499256835
 31
0.0
 11
8.6353533173
 21
50.5083909224
 31
0.0
 11
9.3375978074
 21
50.5628335408
 31
0.0
 11
9.9967847721
 21
50.6604601629
 31
0.0
 11
10.5929652186
 21
50.7982667591
 31
0.0
 11
11.1032407021
 21
50.9708859188
 31
0.0
 11
11.4911113035
 21
51.1603295607
 31
0.0
  0
SPLINE
  5
3C3
100
AcDbEntity
  8
0
100
AcDbSpline
 62
7
  6
CONTINUOUS
 70
0
 71
3
 72
10
 73
6
 74
4
 42
0.0000001
 43
0.0000001
 44
0.0000000001
 12
1.5758653497
 22
0.933536748
 32
0.0
 13
1.779868962
 23
0.4346008941
 33
0.0
 40
0.0
 40
0.0
 40
0.0
 40
0.0
 40
0.3085589106
 40
0.6634743449
 40
1.0
 40
1.0
 40
1.0
 40
1.0
 10
2.936819186
 20
51.7886525481
 30
0.0
 10
3.0989016178
 20
51.8846695755
 30
0.0
 10
3.4639581829
 20
52.0633505752
 30
0.0
 10
4.0387825984
 20
52.2713536548
 30
0.0
 10
4.4460384315
 20
52.3837659855
 30
0.0
 10
4.645695621
 20
52.4325174357
 30
0.0
 11
2.936819186
 21
51.7886525481
 31
0.0
 11
3.4419827139
 21
52.0420685465
 31
0.0
 11
4.0519351821
 21
52.2669031558
 31
0.0
 11
4.645695621
 21
52.4325174357
 31
0.0
  0
SPLINE
  5
3C4
100
AcDbEntity
  8
0
100
AcDbSpline
 62
7
  6
CONTINUOUS
 70
0
 71
3
 72
17
 73
13
 74
11
 42
0.0000001
 43
0.0000001
 44
0.0000000001
 12
4.4173093776
 22
-1.0782059805
 32
0.0
 13
-3.9110618184
 23
-2.3168984152
 33
0.0
 40
0.0
 40
0.0
 40
0.0
 40
0.0
 40
0.1357725686
 40
0.2787769396
 40
0.4031030991
 40
0.5080864319
 40
0.5949074077
 40
0.6678160752
 40
0.7352870239
 40
0.8081956914
 40
0.8950166673
 40
1.0
 40
1.0
 40
1.0
 40
1.0
 10
11.6194586069
 20
52.4327106575
 30
0.0
 10
11.8193750872
 20
52.3839137256
 30
0.0
 10
12.2268803856
 20
52.2714570522
 30
0.0
 10
12.8020926959
 20
52.063303497
 30
0.0
 10
13.3100801955
 20
51.814640903
 30
0.0
 10
13.7069509969
 20
51.5422073087
 30
0.0
 10
13.9861199242
 20
51.2484870994
 30
0.0
 10
14.1378504496
 20
50.9298624616
 30
0.0
 10
14.137854293
 20
50.5953227181
 30
0.0
 10
13.9861064015
 20
50.276691471
 30
0.0
 10
13.7070163463
 20
49.9830054108
 30
0.0
 10
13.4659894662
 20
49.8176102606
 30
0.0
 10
13.3291240314
 20
49.7365316882
 30
0.0
 11
11.6194586069
 21
52.4327106575
 31
0.0
 11
12.2140080353
 21
52.2669031558
 31
0.0
 11
12.8239605035
 21
52.0420685465
 31
0.0
 11
13.3291240314
 21
51.7886525481
 31
0.0
 11
13.7182141006
 21
51.5123160553
 31
0.0
 11
13.9825390818
 21
51.2192319685
 31
0.0
 11
14.1161943918
 21
50.9159473021
 31
0.0
 11
14.1161943918
 21
50.6092369342
 31
0.0
 11
13.9825390818
 21
50.3059522678
 31
0.0
 11
13.7182141006
 21
50.0128681811
 31
0.0
 11
13.3291240314
 21
49.7365316882
 31
0.0
  0
SPLINE
  5
3C5
100
AcDbEntity
  8
RACCORDO
100
AcDbSpline
 62
253
  6
CONTINUOUS
 70
0
 71
3
 72
9
 73
5
 74
3
 42
0.0000001
 43
0.0000001
 44
0.0000000001
 12
-0.0015316894
 22
-0.3748243064
 32
0.0
 13
0.1329003318
 23
-0.3520815021
 33
0.0
 40
0.0
 40
0.0
 40
0.0
 40
0.0
 40
0.1858741346
 40
1.0
 40
1.0
 40
1.0
 40
1.0
 10
-0.2168177201
 20
49.9545696007
 30
0.0
 10
-0.2169126206
 20
49.9313462195
 30
0.0
 10
-0.212906973
 20
49.8064850597
 30
0.0
 10
-0.1836304432
 20
49.6836737871
 30
0.0
 10
-0.1475645774
 20
49.588127568
 30
0.0
 11
-0.2168177201
 21
49.9545696007
 31
0.0
 11
-0.2145504394
 21
49.8850001214
 31
0.0
 11
-0.1475645774
 21
49.588127568
 31
0.0
  0
SPLINE
  5
3C6
100
AcDbEntity
  8
RACCORDO
100
AcDbSpline
 62
253
  6
CONTINUOUS
 70
0
 71
3
 72
24
 73
20
 74
18
 42
0.0000001
 43
0.0000001
 44
0.0000000001
 12
6.0224292653
 22
-15.4073949515
 32
0.0
 13
14.0964298276
 23
8.350672386
 33
0.0
 40
0.0
 40
0.0
 40
0.0
 40
0.0
 40
0.0089921984
 40
0.042632314
 40
0.0836387376
 40
0.1330415659
 40
0.1903419305
 40
0.2551223799
 40
0.3258301584
 40
0.4014916809
 40
0.4800481984
 40
0.5602859136
 40
0.6399595677
 40
0.7178273013
 40
0.7914957873
 40
0.8586236049
 40
0.9171720916
 40
0.9636137708
 40
1.0
 40
1.0
 40
1.0
 40
1.0
 10
-0.1424968304
 20
49.5749362372
 30
0.0
 10
-0.1244452041
 20
49.5287541196
 30
0.0
 10
-0.02542849
 20
49.3149201107
 30
0.0
 10
0.2709790429
 20
48.9585352461
 30
0.0
 10
0.818740518
 20
48.5530403658
 30
0.0
 10
1.5388535775
 20
48.1838231465
 30
0.0
 10
2.4180223498
 20
47.8565281437
 30
0.0
 10
3.4350415456
 20
47.5795616607
 30
0.0
 10
4.5678653749
 20
47.359221178
 30
0.0
 10
5.7868717612
 20
47.2016068405
 30
0.0
 10
7.064733467
 20
47.1104083718
 30
0.0
 10
8.3675404671
 20
47.088158808
 30
0.0
 10
9.6659191267
 20
47.135380577
 30
0.0
 10
10.9240615184
 20
47.2506473658
 30
0.0
 10
12.1055500798
 20
47.4297598758
 30
0.0
 10
13.1697790987
 20
47.6634293169
 30
0.0
 10
14.0712214627
 20
47.9337123557
 30
0.0
 10
14.7899185936
 20
48.2185528867
 30
0.0
 10
15.1933117546
 20
48.425353192
 30
0.0
 10
15.3642837303
 20
48.5266363519
 30
0.0
 11
-0.1424968304
 21
49.5749362372
 31
0.0
 11
-0.0803586448
 21
49.4399800219
 31
0.0
 11
0.2580897947
 21
49.00496482
 31
0.0
 11
0.7902113933
 21
48.5947931451
 31
0.0
 11
1.5061074343
 21
48.2170821618
 31
0.0
 11
2.3836662439
 21
47.8834983246
 31
0.0
 11
3.4065519053
 21
47.6002528188
 31
0.0
 11
4.5431522873
 21
47.3760992756
 31
0.0
 11
5.7723231175
 21
47.2152081858
 31
0.0
 11
7.0560719685
 21
47.1225530554
 31
0.0
 11
8.3705094117
 21
47.0998580715
 31
0.0
 11
9.6750194833
 21
47.1478249465
 31
0.0
 11
10.9453776425
 21
47.2655683201
 31
0.0
 11
12.1384014829
 21
47.4487265183
 31
0.0
 11
13.2119494835
 21
47.6877615778
 31
0.0
 11
14.1296081861
 21
47.9672347795
 31
0.0
 11
14.8354814807
 21
48.251362969
 31
0.0
 11
15.3642837303
 21
48.5266363519
 31
0.0
  0
SPLINE
  5
3C7
100
AcDbEntity
  8
RACCORDO
100
AcDbSpline
 62
253
  6
CONTINUOUS
 70
0
 71
3
 72
9
 73
5
 74
3
 42
0.0000001
 43
0.0000001
 44
0.0000000001
 12
0.524057832
 22
0.3104499025
 32
0.0
 13
0.3288260082
 23
0.5155761181
 33
0.0
 40
0.0
 40
0.0
 40
0.0
 40
0.0
 40
0.6468349564
 40
1.0
 40
1.0
 40
1.0
 40
1.0
 10
11.6836757642
 20
50.8500027268
 30
0.0
 10
11.7966687392
 20
50.9169393432
 30
0.0
 10
11.9638745561
 20
51.0347504724
 30
0.0
 10
12.0997580787
 20
51.1901085588
 30
0.0
 10
12.1384680292
 20
51.2508030462
 30
0.0
 11
11.6836757642
 21
50.8500027268
 31
0.0
 11
11.999872768
 21
51.0850575329
 31
0.0
 11
12.1384680292
 21
51.2508030462
 31
0.0
  0
SPLINE
  5
3C8
100
AcDbEntity
  8
RACCORDO
100
AcDbSpline
 62
253
  6
CONTINUOUS
 70
0
 71
3
 72
9
 73
5
 74
3
 42
0.0000001
 43
0.0000001
 44
0.0000000001
 12
0.144450074
 22
0.2491547782
 32
0.0
 13
0.0023815358
 23
0.2885299642
 33
0.0
 40
0.0
 40
0.0
 40
0.0
 40
0.0
 40
0.2349045716
 40
1.0
 40
1.0
 40
1.0
 40
1.0
 10
12.1536010865
 20
51.2756645088
 30
0.0
 10
12.1649117474
 20
51.2951737076
 30
0.0
 10
12.2088838893
 20
51.3807235057
 30
0.0
 10
12.2320786522
 20
51.4775455648
 30
0.0
 10
12.2326860196
 20
51.5511298837
 30
0.0
 11
12.1536010865
 21
51.2756645088
 31
0.0
 11
12.1844237627
 21
51.3359877901
 31
0.0
 11
12.2326860196
 21
51.5511298837
 31
0.0
  0
SPLINE
  5
3C9
100
AcDbEntity
  8
RACCORDO
100
AcDbSpline
 62
253
  6
CONTINUOUS
 70
0
 71
3
 72
24
 73
20
 74
18
 42
0.0000001
 43
0.0000001
 44
0.0000000001
 12
7.4516420735
 22
4.4143249359
 32
0.0
 13
-7.4516420735
 23
-4.4143249359
 33
0.0
 40
0.0
 40
0.0
 40
0.0
 40
0.0
 40
0.0430235797
 40
0.0770373359
 40
0.1057047221
 40
0.1355719054
 40
0.1724492435
 40
0.2189141554
 40
0.2756755156
 40
0.3413948379
 40
0.4149665024
 40
0.4938222749
 40
0.5761930997
 40
0.6590500607
 40
0.7403744135
 40
0.8173142246
 40
0.8879641162
 40
0.9501603302
 40
1.0
 40
1.0
 40
1.0
 40
1.0
 10
11.4911113035
 20
51.1603295607
 30
0.0
 10
11.5979767423
 20
51.2236362475
 30
0.0
 10
11.7811389056
 20
51.3526829696
 30
0.0
 10
11.9779171665
 20
51.5951260628
 30
0.0
 10
12.0340231348
 20
51.8704251175
 30
0.0
 10
11.9252358308
 20
52.1369002807
 30
0.0
 10
11.6894366193
 20
52.3699132398
 30
0.0
 10
11.3419009148
 20
52.5811824695
 30
0.0
 10
10.8893064457
 20
52.7667501934
 30
0.0
 10
10.3441098319
 20
52.9220022045
 30
0.0
 10
9.724965894
 20
53.0409375564
 30
0.0
 10
9.0511535206
 20
53.1196702763
 30
0.0
 10
8.346891725
 20
53.1551647705
 30
0.0
 10
7.6346847993
 20
53.1462351454
 30
0.0
 10
6.9400823884
 20
53.0932256272
 30
0.0
 10
6.2855404922
 20
52.9979648151
 30
0.0
 10
5.6940762608
 20
52.8640339602
 30
0.0
 10
5.1923192472
 20
52.6987295639
 30
0.0
 10
4.8986277074
 20
52.5598986691
 30
0.0
 10
4.7748319139
 20
52.4865625034
 30
0.0
 11
11.4911113035
 21
51.1603295607
 31
0.0
 11
11.7901623566
 21
51.3826358702
 31
0.0
 11
11.9646992924
 21
51.6199591516
 31
0.0
 11
12.008776227
 21
51.8643042504
 31
0.0
 11
11.9206297771
 21
52.1075030518
 31
0.0
 11
11.7029166419
 21
52.3412001704
 31
0.0
 11
11.3632928796
 21
52.5570899001
 31
0.0
 11
10.9106228176
 21
52.7488484859
 31
0.0
 11
10.3641686608
 21
52.9081350605
 31
0.0
 11
9.7388428444
 21
53.0306033959
 31
0.0
 11
9.0606399303
 21
53.1111674407
 31
0.0
 11
8.3481574046
 21
53.1476352742
 31
0.0
 11
7.6305899001
 21
53.1385011936
 31
0.0
 11
6.92834541
 21
53.0840587423
 31
0.0
 11
6.2691584453
 21
52.9864320149
 31
0.0
 11
5.6729779988
 21
52.848626094
 31
0.0
 11
5.1627025153
 21
52.6760056925
 31
0.0
 11
4.7748319139
 21
52.4865625034
 31
0.0
  0
SPLINE
  5
3CA
100
AcDbEntity
  8
0
100
AcDbSpline
 62
7
  6
CONTINUOUS
 70
0
 71
3
 72
20
 73
16
 74
14
 42
0.0000001
 43
0.0000001
 44
0.0000000001
 12
-1.919749063
 22
-1.1372521755
 32
0.0
 13
1.919749063
 23
1.1372521755
 33
0.0
 40
0.0
 40
0.0
 40
0.0
 40
0.0
 40
0.0543052439
 40
0.0946870038
 40
0.1325314052
 40
0.1815116793
 40
0.2471607023
 40
0.3291768901
 40
0.4245497171
 40
0.5288328628
 40
0.6367962967
 40
0.7429113979
 40
0.8417979838
 40
0.9286887503
 40
1.0
 40
1.0
 40
1.0
 40
1.0
 10
7.2669462049
 20
52.7190181693
 30
0.0
 10
7.2321953912
 20
52.6984319171
 30
0.0
 10
7.1741317856
 20
52.6573263003
 30
0.0
 10
7.1220516561
 20
52.5652485385
 30
0.0
 10
7.1497338809
 20
52.4664610167
 30
0.0
 10
7.237177759
 20
52.3895194751
 30
0.0
 10
7.3678342439
 20
52.3227573847
 30
0.0
 10
7.5410329776
 20
52.2684315335
 30
0.0
 10
7.7470738357
 20
52.2289828104
 30
0.0
 10
7.9751265545
 20
52.2070067555
 30
0.0
 10
8.2121504997
 20
52.2038192247
 30
0.0
 10
8.4446483651
 20
52.2196328209
 30
0.0
 10
8.6594789866
 20
52.2534668739
 30
0.0
 10
8.8444430397
 20
52.3031883468
 30
0.0
 10
8.9533637776
 20
52.3499650681
 30
0.0
 10
8.9989970125
 20
52.376998026
 30
0.0
 11
7.2669462049
 21
52.7190181693
 31
0.0
 11
7.1724534971
 21
52.6431640745
 31
0.0
 11
7.1337826105
 21
52.5617798603
 31
0.0
 11
7.1531809567
 21
52.4795952812
 31
0.0
 11
7.2295211741
 21
52.4013866064
 31
0.0
 11
7.3583666469
 21
52.3316990397
 31
0.0
 11
7.5322293445
 21
52.2745825691
 31
0.0
 11
7.7410049988
 21
52.2333565965
 31
0.0
 11
7.9725603278
 21
52.2104170254
 31
0.0
 11
8.2134381774
 21
52.2070970203
 31
0.0
 11
8.4496396025
 21
52.2235895278
 31
0.0
 11
8.6674374348
 21
52.2589360635
 31
0.0
 11
8.854174056
 21
52.311082415
 31
0.0
 11
8.9989970125
 21
52.376998026
 31
0.0
  0
SPLINE
  5
3CB
100
AcDbEntity
  8
0
100
AcDbSpline
 62
7
  6
CONTINUOUS
 70
0
 71
3
 72
20
 73
16
 74
14
 42
0.0000001
 43
0.0000001
 44
0.0000000001
 12
1.919749063
 22
1.1372521755
 32
0.0
 13
-1.919749063
 23
-1.1372521755
 33
0.0
 40
0.0
 40
0.0
 40
0.0
 40
0.0
 40
0.0713112497
 40
0.1582020162
 40
0.2570886021
 40
0.3632037033
 40
0.4711671372
 40
0.5754502829
 40
0.6708231099
 40
0.7528392977
 40
0.8184883207
 40
0.8674685948
 40
0.9053129962
 40
0.9456947561
 40
1.0
 40
1.0
 40
1.0
 40
1.0
 10
7.2669462049
 20
52.7190181693
 30
0.0
 10
7.3125794398
 20
52.7460511273
 30
0.0
 10
7.4215001777
 20
52.7928278485
 30
0.0
 10
7.6064642308
 20
52.8425493214
 30
0.0
 10
7.8212948523
 20
52.8763833745
 30
0.0
 10
8.0537927177
 20
52.8921969707
 30
0.0
 10
8.2908166629
 20
52.8890094398
 30
0.0
 10
8.5188693817
 20
52.867033385
 30
0.0
 10
8.7249102398
 20
52.8275846619
 30
0.0
 10
8.8981089735
 20
52.7732588106
 30
0.0
 10
9.0287654584
 20
52.7064967202
 30
0.0
 10
9.1162093364
 20
52.6295551786
 30
0.0
 10
9.1438915613
 20
52.5307676568
 30
0.0
 10
9.0918114318
 20
52.438689895
 30
0.0
 10
9.0337478262
 20
52.3975842783
 30
0.0
 10
8.9989970125
 20
52.376998026
 30
0.0
 11
7.2669462049
 21
52.7190181693
 31
0.0
 11
7.4117691614
 21
52.7849337803
 31
0.0
 11
7.5985057826
 21
52.8370801319
 31
0.0
 11
7.8163036149
 21
52.8724266675
 31
0.0
 11
8.05250504
 21
52.888919175
 31
0.0
 11
8.2933828896
 21
52.88559917
 31
0.0
 11
8.5249382186
 21
52.8626595988
 31
0.0
 11
8.7337138729
 21
52.8214336262
 31
0.0
 11
8.9075765705
 21
52.7643171557
 31
0.0
 11
9.0364220433
 21
52.694629589
 31
0.0
 11
9.1127622607
 21
52.6164209141
 31
0.0
 11
9.1321606069
 21
52.5342363351
 31
0.0
 11
9.0934897203
 21
52.4528521208
 31
0.0
 11
8.9989970125
 21
52.376998026
 31
0.0
  0
SPLINE
  5
3CC
100
AcDbEntity
  8
0
100
AcDbSpline
 62
7
  6
CONTINUOUS
 70
0
 71
3
 72
21
 73
17
 74
15
 42
0.0000001
 43
0.0000001
 44
0.0000000001
 12
3.5540643956
 22
-6.0403841281
 32
0.0
 13
5.9990612229
 23
3.5538214647
 33
0.0
 40
0.0
 40
0.0
 40
0.0
 40
0.0
 40
0.0326377602
 40
0.0798060881
 40
0.1372551714
 40
0.2045118661
 40
0.2803177286
 40
0.3629135808
 40
0.4502083362
 40
0.539903044
 40
0.6295977519
 40
0.7168925073
 40
0.7994883595
 40
0.875294222
 40
0.9425509167
 40
1.0
 40
1.0
 40
1.0
 40
1.0
 10
4.6049722715
 20
50.5171967118
 30
0.0
 10
4.6436378387
 20
50.4514818421
 30
0.0
 10
4.7679207589
 20
50.3099229524
 30
0.0
 10
5.0308850241
 20
50.1258471387
 30
0.0
 10
5.3932445828
 20
49.9545105894
 30
0.0
 10
5.8360141182
 20
49.8065837214
 30
0.0
 10
6.3471615859
 20
49.6864359248
 30
0.0
 10
6.9117593289
 20
49.5977967703
 30
0.0
 10
7.5130411087
 20
49.5434667502
 30
0.0
 10
8.1329718175
 20
49.5251637517
 30
0.0
 10
8.7529012847
 20
49.543466433
 30
0.0
 10
9.3541866255
 20
49.5977979721
 30
0.0
 10
9.9187723934
 20
49.6864318304
 30
0.0
 10
10.4299590003
 20
49.8065969823
 30
0.0
 10
10.87260665
 20
49.9544697934
 30
0.0
 10
11.135782873
 20
50.078901265
 30
0.0
 10
11.2506630623
 20
50.1469558602
 30
0.0
 11
4.6049722715
 21
50.5171967118
 31
0.0
 11
4.7500781739
 21
50.3414721158
 31
0.0
 11
5.0152801551
 21
50.1469558602
 31
0.0
 11
5.3752116135
 21
49.9711454008
 31
0.0
 11
5.8189362138
 21
49.8193826493
 31
0.0
 11
6.3329716087
 21
49.6962788404
 31
0.0
 11
6.9016990927
 21
49.6055744207
 31
0.0
 11
7.5078381691
 21
49.5500253984
 31
0.0
 11
8.1329716087
 21
49.5313196022
 31
0.0
 11
8.7581050483
 21
49.5500253984
 31
0.0
 11
9.3642441247
 21
49.6055744207
 31
0.0
 11
9.9329716087
 21
49.6962788404
 31
0.0
 11
10.4470070036
 21
49.8193826493
 31
0.0
 11
10.8907316039
 21
49.9711454008
 31
0.0
 11
11.2506630623
 21
50.1469558602
 31
0.0
  0
SPLINE
  5
3CD
100
AcDbEntity
  8
RACCORDO
100
AcDbSpline
 62
253
  6
CONTINUOUS
 70
0
 71
3
 72
9
 73
5
 74
3
 42
0.0000001
 43
0.0000001
 44
0.0000000001
 12
0.0000923826
 22
-0.4270098475
 32
0.0
 13
0.1431292818
 23
-0.4007596587
 33
0.0
 40
0.0
 40
0.0
 40
0.0
 40
0.0
 40
0.595251493
 40
1.0
 40
1.0
 40
1.0
 40
1.0
 10
-1.9663198745
 20
48.2883028831
 30
0.0
 10
-1.9663015442
 20
48.2035768
 30
0.0
 10
-1.9515979912
 20
48.0612279138
 30
0.0
 10
-1.9123420361
 20
47.9248000505
 30
0.0
 10
-1.8930315817
 20
47.8707310927
 30
0.0
 11
-1.9663198745
 21
48.2883028831
 31
0.0
 11
-1.9400974068
 21
48.0362079884
 31
0.0
 11
-1.8930315817
 21
47.8707310927
 31
0.0
  0
SPLINE
  5
3CE
100
AcDbEntity
  8
RACCORDO
100
AcDbSpline
 62
253
  6
CONTINUOUS
 70
0
 71
3
 72
25
 73
21
 74
19
 42
0.0000001
 43
0.0000001
 44
0.0000000001
 12
6.7707957973
 22
-18.7653055558
 32
0.0
 13
17.08608645
 23
10.1217338042
 33
0.0
 40
0.0
 40
0.0
 40
0.0
 40
0.0
 40
0.0192160473
 40
0.0527509346
 40
0.0932155987
 40
0.1413051093
 40
0.1964740093
 40
0.2583629742
 40
0.3255693914
 40
0.3973101065
 40
0.471759369
 40
0.5479260382
 40
0.62384412
 40
0.6984438857
 40
0.7697950471
 40
0.833583097
 40
0.888575325
 40
0.9341726695
 40
0.9706107101
 40
1.0
 40
1.0
 40
1.0
 40
1.0
 10
-1.8915240026
 20
47.8665314721
 30
0.0
 10
-1.8481546918
 20
47.746333139
 30
0.0
 10
-1.6827883274
 20
47.4320702536
 30
0.0
 10
-1.2540701905
 20
46.9793223668
 30
0.0
 10
-0.5849642748
 20
46.5189916634
 30
0.0
 10
0.2716302445
 20
46.0993737644
 30
0.0
 10
1.3011291406
 20
45.7268004967
 30
0.0
 10
2.4803351101
 20
45.4101982447
 30
0.0
 10
3.7862250021
 20
45.1560152406
 30
0.0
 10
5.1874242294
 20
44.970689415
 30
0.0
 10
6.6557374968
 20
44.8580991874
 30
0.0
 10
8.1555257511
 20
44.8210947666
 30
0.0
 10
9.6562461708
 20
44.8604582086
 30
0.0
 10
11.1211634742
 20
44.9751622621
 30
0.0
 10
12.4980339615
 20
45.1596905474
 30
0.0
 10
13.7341568052
 20
45.4007921766
 30
0.0
 10
14.7873748834
 20
45.6774318498
 30
0.0
 10
15.6472047305
 20
45.9689873419
 30
0.0
 10
16.3263899301
 20
46.2584595014
 30
0.0
 10
16.7124455377
 20
46.4619441407
 30
0.0
 10
16.8798281869
 20
46.561100997
 30
0.0
 11
-1.8915240026
 21
47.8665314721
 31
0.0
 11
-1.7174252624
 21
47.5250779359
 31
0.0
 11
-1.272548919
 21
47.0294927841
 31
0.0
 11
-0.6178848451
 21
46.5634726809
 31
0.0
 11
0.2355685837
 21
46.134905616
 31
0.0
 11
1.2635462596
 21
45.7559444826
 31
0.0
 11
2.4493538818
 21
45.4327624411
 31
0.0
 11
3.7588194026
 21
45.1746644842
 31
0.0
 11
5.1709502987
 21
44.9857899773
 31
0.0
 11
6.6450286892
 21
44.8715912314
 31
0.0
 11
8.1571607333
 21
44.8339091818
 31
0.0
 11
9.6642967702
 21
44.873834192
 31
0.0
 11
11.1411662539
 21
44.9906757324
 31
0.0
 11
12.5452997543
 21
45.1809718863
 31
0.0
 11
13.7881184591
 21
45.4261577993
 31
0.0
 11
14.8435890168
 21
45.7066143819
 31
0.0
 11
15.7001313728
 21
46.0003926528
 31
0.0
 11
16.3647002434
 21
46.286720782
 31
0.0
 11
16.8798281869
 21
46.561100997
 31
0.0
  0
SPLINE
  5
3CF
100
AcDbEntity
  8
RACCORDO
100
AcDbSpline
 62
253
  6
CONTINUOUS
 70
0
 71
3
 72
11
 73
7
 74
5
 42
0.0000001
 43
0.0000001
 44
0.0000000001
 12
1.9006135681
 22
1.1259163798
 32
0.0
 13
0.7125686446
 23
2.1084197483
 33
0.0
 40
0.0
 40
0.0
 40
0.0
 40
0.0
 40
0.3114700421
 40
0.6174452529
 40
0.9098673718
 40
1.0
 40
1.0
 40
1.0
 40
1.0
 10
18.3953726435
 20
44.5326181723
 30
0.0
 10
18.5927007062
 20
44.6495145797
 30
0.0
 10
18.972918377
 20
44.9010366211
 30
0.0
 10
19.4753159217
 20
45.3490113428
 30
0.0
 10
19.7751193441
 20
45.7659685355
 30
0.0
 10
19.8824719969
 20
46.0293814801
 30
0.0
 10
19.9038805584
 20
46.0927272845
 30
0.0
 11
18.3953726435
 21
44.5326181723
 31
0.0
 11
18.9663050669
 21
44.9166290803
 31
0.0
 11
19.4645351477
 21
45.3733984672
 31
0.0
 11
19.8285984723
 21
45.9070198394
 31
0.0
 11
19.9038805584
 21
46.0927272845
 31
0.0
  0
SPLINE
  5
3D0
100
AcDbEntity
  8
RACCORDO
100
AcDbSpline
 62
253
  6
CONTINUOUS
 70
0
 71
3
 72
9
 73
5
 74
3
 42
0.0000001
 43
0.0000001
 44
0.0000000001
 12
0.1058906629
 22
0.3771196007
 32
0.0
 13
-0.0010851608
 23
0.3910444564
 33
0.0
 40
0.0
 40
0.0
 40
0.0
 40
0.0
 40
0.7772743121
 40
1.0
 40
1.0
 40
1.0
 40
1.0
 10
19.9285993635
 20
46.1726307142
 30
0.0
 10
19.9560347275
 20
46.2703391736
 30
0.0
 10
19.9790646706
 20
46.3992634239
 30
0.0
 10
19.9828503668
 20
46.5295529287
 30
0.0
 10
19.9827698024
 20
46.5585848106
 30
0.0
 11
19.9285993635
 21
46.1726307142
 31
0.0
 11
19.980209379
 21
46.4715830154
 31
0.0
 11
19.9827698024
 21
46.5585848106
 31
0.0
  0
SPLINE
  5
3D1
100
AcDbEntity
  8
0
100
AcDbSpline
 62
7
  6
CONTINUOUS
 70
0
 71
3
 72
9
 73
5
 74
3
 42
0.0000001
 43
0.0000001
 44
0.0000000001
 12
-0.4392741934
 22
-0.4614327619
 32
0.0
 13
-0.5108812822
 23
-0.38030482
 33
0.0
 40
0.0
 40
0.0
 40
0.0
 40
0.0
 40
0.7000077332
 40
1.0
 40
1.0
 40
1.0
 40
1.0
 10
18.9245029401
 20
44.4854109504
 30
0.0
 10
18.822004496
 20
44.3777421165
 30
0.0
 10
18.664093354
 20
44.234921036
 30
0.0
 10
18.4963700295
 20
44.1046582958
 30
0.0
 10
18.4452832182
 20
44.0666287941
 30
0.0
 11
18.9245029401
 21
44.4854109504
 31
0.0
 11
18.5961183792
 21
44.1839441176
 31
0.0
 11
18.4452832182
 21
44.0666287941
 31
0.0
  0
SPLINE
  5
3D2
100
AcDbEntity
  8
0
100
AcDbSpline
 62
7
  6
CONTINUOUS
 70
0
 71
3
 72
8
 73
4
 74
2
 42
0.0000001
 43
0.0000001
 44
0.0000000001
 12
-0.425902481
 22
-0.3097411956
 32
0.0
 13
-0.4526132597
 23
-0.2681264047
 33
0.0
 40
0.0
 40
0.0
 40
0.0
 40
0.0
 40
1.0
 40
1.0
 40
1.0
 40
1.0
 10
18.4027899956
 20
44.03536405
 30
0.0
 10
18.2608225019
 20
43.9321169848
 30
0.0
 10
18.1132310282
 20
43.8366631208
 30
0.0
 10
17.9623599416
 20
43.7472876525
 30
0.0
 11
18.4027899956
 21
44.03536405
 31
0.0
 11
17.9623599416
 21
43.7472876525
 31
0.0
  0
SPLINE
  5
3D3
100
AcDbEntity
  8
RACCORDO
100
AcDbSpline
 62
253
  6
CONTINUOUS
 70
0
 71
3
 72
8
 73
4
 74
2
 42
0.0000001
 43
0.0000001
 44
0.0000000001
 12
0.0012242337
 22
-0.3896582021
 32
0.0
 13
0.1038348327
 23
-0.3765040432
 33
0.0
 40
0.0
 40
0.0
 40
0.0
 40
0.0
 40
1.0
 40
1.0
 40
1.0
 40
1.0
 10
-3.7168251002
 20
46.5590881653
 30
0.0
 10
-3.7164170223
 20
46.4292020979
 30
0.0
 10
-3.6975233037
 20
46.2990608871
 30
0.0
 10
-3.6629116928
 20
46.1735595393
 30
0.0
 11
-3.7168251002
 21
46.5590881653
 31
0.0
 11
-3.6629116928
 21
46.1735595393
 31
0.0
  0
SPLINE
  5
3D4
100
AcDbEntity
  8
RACCORDO
100
AcDbSpline
 62
253
  6
CONTINUOUS
 70
0
 71
3
 72
25
 73
21
 74
19
 42
0.0000001
 43
0.0000001
 44
0.0000000001
 12
7.7573088794
 22
-22.1133594889
 32
0.0
 13
20.0544165002
 23
11.8801614405
 33
0.0
 40
0.0
 40
0.0
 40
0.0
 40
0.0
 40
0.0280146065
 40
0.0613471074
 40
0.1012980673
 40
0.1479110267
 40
0.2011359915
 40
0.2600640762
 40
0.3241221159
 40
0.3919350193
 40
0.4626823965
 40
0.5347536168
 40
0.6072276925
 40
0.6784372133
 40
0.7474829035
 40
0.8126535702
 40
0.8722927639
 40
0.9248073483
 40
0.9668068841
 40
1.0
 40
1.0
 40
1.0
 40
1.0
 10
-3.631025238
 20
46.0716784363
 30
0.0
 10
-3.5585859193
 20
45.8651794145
 30
0.0
 10
-3.3070077495
 20
45.4501314118
 30
0.0
 10
-2.7299723035
 20
44.9060119315
 30
0.0
 10
-1.9430587393
 20
44.4004981556
 30
0.0
 10
-0.9576998138
 20
43.938225538
 30
0.0
 10
0.2073346883
 20
43.5279016655
 30
0.0
 10
1.531906007
 20
43.1768960599
 30
0.0
 10
2.9878950856
 20
42.8930396852
 30
0.0
 10
4.5487341603
 20
42.6817308069
 30
0.0
 10
6.1805018197
 20
42.5477551218
 30
0.0
 10
7.8530551174
 20
42.4936729376
 30
0.0
 10
9.5298544394
 20
42.5207095062
 30
0.0
 10
11.1798817971
 20
42.6283498061
 30
0.0
 10
12.7659122288
 20
42.814018071
 30
0.0
 10
14.2506569386
 20
43.0725308752
 30
0.0
 10
15.5915636054
 20
43.3934326885
 30
0.0
 10
16.7346203074
 20
43.7553459635
 30
0.0
 10
17.6540097188
 20
44.1315253636
 30
0.0
 10
18.1734831201
 20
44.4011716473
 30
0.0
 10
18.3953726435
 20
44.5326181723
 30
0.0
 11
-3.631025238
 21
46.0716784363
 31
0.0
 11
-3.3084043528
 21
45.5039447875
 31
0.0
 11
-2.7545311372
 21
44.9590770831
 31
0.0
 11
-1.9778291847
 21
44.4453530257
 31
0.0
 11
-0.9980144179
 21
43.9758142435
 31
0.0
 11
0.170003667
 21
43.5576071036
 31
0.0
 11
1.4965645906
 21
43.2013518719
 31
0.0
 11
2.9614926113
 21
42.9124677753
 31
0.0
 11
4.5275785439
 21
42.6982929884
 31
0.0
 11
6.1710070471
 21
42.5620850261
 31
0.0
 11
7.8500346559
 21
42.507304256
 31
0.0
 11
9.5391223858
 21
42.5347842776
 31
0.0
 11
11.1953722086
 21
42.6438276727
 31
0.0
 11
12.7936396652
 21
42.832783583
 31
0.0
 11
14.2897168989
 21
43.0961105634
 31
0.0
 11
15.6407828731
 21
43.423390032
 31
0.0
 11
16.8062913538
 21
43.7974781982
 31
0.0
 11
17.7105909115
 21
44.172489965
 31
0.0
 11
18.3953726435
 21
44.5326181723
 31
0.0
  0
SPLINE
  5
3D5
100
AcDbEntity
  8
RACCORDO
100
AcDbSpline
 62
253
  6
CONTINUOUS
 70
0
 71
3
 72
10
 73
6
 74
4
 42
0.0000001
 43
0.0000001
 44
0.0000000001
 12
1.6198850499
 22
0.959613854
 32
0.0
 13
0.8930613605
 23
1.6652103754
 33
0.0
 40
0.0
 40
0.0
 40
0.0
 40
0.0
 40
0.3585910703
 40
0.7108555719
 40
1.0
 40
1.0
 40
1.0
 40
1.0
 10
18.2028081828
 20
44.8429450062
 30
0.0
 10
18.3964336208
 20
44.9576479925
 30
0.0
 10
18.7695174236
 20
45.2044495656
 30
0.0
 10
19.2401239606
 20
45.6240808456
 30
0.0
 10
19.4825608407
 20
45.9508612401
 30
0.0
 10
19.5686354128
 20
46.1113566739
 30
0.0
 11
18.2028081828
 21
44.8429450062
 31
0.0
 11
18.7630279025
 21
45.2197501725
 31
0.0
 11
19.2519078075
 21
45.6679492039
 31
0.0
 11
19.5686354128
 21
46.1113566739
 31
0.0
  0
SPLINE
  5
3D6
100
AcDbEntity
  8
RACCORDO
100
AcDbSpline
 62
253
  6
CONTINUOUS
 70
0
 71
3
 72
13
 73
9
 74
7
 42
0.0000001
 43
0.0000001
 44
0.0000000001
 12
1.6522299902
 22
3.080763141
 32
0.0
 13
-3.0276559076
 23
1.7300167513
 33
0.0
 40
0.0
 40
0.0
 40
0.0
 40
0.0
 40
0.0256838725
 40
0.1903546934
 40
0.3539951781
 40
0.5379429614
 40
0.7568087949
 40
1.0
 40
1.0
 40
1.0
 40
1.0
 10
19.5686354128
 20
46.1113566739
 30
0.0
 10
19.5827806342
 20
46.1377319832
 30
0.0
 10
19.6829705559
 20
46.33585015
 30
0.0
 10
19.8001951172
 20
46.7413226623
 30
0.0
 10
19.705432105
 20
47.3468302987
 30
0.0
 10
19.358290181
 20
47.919537166
 30
0.0
 10
18.8083689976
 20
48.4380890384
 30
0.0
 10
18.3575595084
 20
48.732389823
 30
0.0
 10
18.1121264122
 20
48.8726314425
 30
0.0
 11
19.5686354128
 21
46.1113566739
 31
0.0
 11
19.6091407621
 21
46.191557325
 31
0.0
 11
19.7579065319
 21
46.7455270643
 31
0.0
 11
19.6762277348
 21
47.3096528832
 31
0.0
 11
19.3596606116
 21
47.866733512
 31
0.0
 11
18.8161803106
 21
48.4013772736
 31
0.0
 11
18.1121264122
 21
48.8726314425
 31
0.0
  0
SPLINE
  5
3D7
100
AcDbEntity
  8
0
100
AcDbSpline
 62
7
  6
CONTINUOUS
 70
0
 71
3
 72
8
 73
4
 74
2
 42
0.0000001
 43
0.0000001
 44
0.0000000001
 12
-0.3948882322
 22
-0.2957290857
 32
0.0
 13
-0.423916129
 23
-0.2511263317
 33
0.0
 40
0.0
 40
0.0
 40
0.0
 40
0.0
 40
1.0
 40
1.0
 40
1.0
 40
1.0
 10
16.7277504484
 20
46.0360458907
 30
0.0
 10
16.5961210376
 20
45.9374695288
 30
0.0
 10
16.4582170508
 20
45.8473622834
 30
0.0
 10
16.3169116745
 20
45.7636535061
 30
0.0
 11
16.7277504484
 21
46.0360458907
 31
0.0
 11
16.3169116745
 21
45.7636535061
 31
0.0
  0
SPLINE
  5
3D8
100
AcDbEntity
  8
0
100
AcDbSpline
 62
7
  6
CONTINUOUS
 70
0
 71
3
 72
8
 73
4
 74
2
 42
0.0000001
 43
0.0000001
 44
0.0000000001
 12
-0.2134523754
 22
-0.2436607138
 32
0.0
 13
-0.2464269653
 23
-0.2103833041
 33
0.0
 40
0.0
 40
0.0
 40
0.0
 40
0.0
 40
1.0
 40
1.0
 40
1.0
 40
1.0
 10
15.6521338906
 20
48.2996581118
 30
0.0
 10
15.5809830989
 20
48.2184378739
 30
0.0
 10
15.5028022046
 20
48.1434122049
 30
0.0
 10
15.4206598829
 20
48.0732844369
 30
0.0
 11
15.6521338906
 21
48.2996581118
 31
0.0
 11
15.4206598829
 21
48.0732844369
 31
0.0
  0
SPLINE
  5
3D9
100
AcDbEntity
  8
0
100
AcDbSpline
 62
7
  6
CONTINUOUS
 70
0
 71
3
 72
8
 73
4
 74
2
 42
0.0000001
 43
0.0000001
 44
0.0000000001
 12
-0.4441247471
 22
-0.3739179797
 32
0.0
 13
-0.4984454632
 23
-0.2952772309
 33
0.0
 40
0.0
 40
0.0
 40
0.0
 40
0.0
 40
1.0
 40
1.0
 40
1.0
 40
1.0
 10
15.4059973355
 20
48.0608535589
 30
0.0
 10
15.2579557532
 20
47.9362142323
 30
0.0
 10
15.0974195161
 20
47.8271420818
 30
0.0
 10
14.9312710284
 20
47.7287163382
 30
0.0
 11
15.4059973355
 21
48.0608535589
 31
0.0
 11
14.9312710284
 21
47.7287163382
 31
0.0
  0
SPLINE
  5
3DA
100
AcDbEntity
  8
0
100
AcDbSpline
 62
7
  6
CONTINUOUS
 70
0
 71
3
 72
24
 73
20
 74
18
 42
0.0000001
 43
0.0000001
 44
0.0000000001
 12
9.8808824163
 22
-11.2396426557
 32
0.0
 13
12.8315310304
 23
7.6013510624
 33
0.0
 40
0.0
 40
0.0
 40
0.0
 40
0.0
 40
0.0098043412
 40
0.0476388288
 40
0.0924581376
 40
0.1442126509
 40
0.2024060026
 40
0.266243509
 40
0.3347198806
 40
0.4066788937
 40
0.4808601764
 40
0.5559400839
 40
0.6305699877
 40
0.7034137298
 40
0.7731854806
 40
0.8386894897
 40
0.8988643682
 40
0.9528373195
 40
1.0
 40
1.0
 40
1.0
 40
1.0
 10
0.6139169576
 20
48.2995799091
 30
0.0
 10
0.6462088052
 20
48.2628474784
 30
0.0
 10
0.810105486
 20
48.0904123882
 30
0.0
 10
1.1760656951
 20
47.8081256287
 30
0.0
 10
1.7639046956
 20
47.4863970006
 30
0.0
 10
2.4778158962
 20
47.1961258405
 30
0.0
 10
3.304740098
 20
46.9427978445
 30
0.0
 10
4.2286695203
 20
46.7315396821
 30
0.0
 10
5.2312972562
 20
46.566738134
 30
0.0
 10
6.2925230758
 20
46.4518357628
 30
0.0
 10
7.3909560594
 20
46.3892373766
 30
0.0
 10
8.5043973836
 20
46.3802529104
 30
0.0
 10
9.6103259503
 20
46.4250706182
 30
0.0
 10
10.6863795203
 20
46.5227517619
 30
0.0
 10
11.7108514341
 20
46.6712549234
 30
0.0
 10
12.6631319566
 20
46.8674645861
 30
0.0
 10
13.5243433219
 20
47.1073289864
 30
0.0
 10
14.2773807629
 20
47.385824207
 30
0.0
 10
14.7295478958
 20
47.6092163078
 30
0.0
 10
14.9312710284
 20
47.7287163382
 30
0.0
 11
0.6139169576
 21
48.2995799091
 31
0.0
 11
0.7147151818
 21
48.193014322
 31
0.0
 11
1.1556133368
 21
47.8408722008
 31
0.0
 11
1.7385503851
 21
47.5137748941
 31
0.0
 11
2.4516594096
 21
47.2183811598
 31
0.0
 11
3.2804235669
 21
46.9607043626
 31
0.0
 11
4.2079716087
 21
46.7459900589
 31
0.0
 11
5.2154213318
 21
46.5786092127
 31
0.0
 11
6.2822639649
 21
46.4619692155
 31
0.0
 11
7.3867816688
 21
46.3984445211
 31
0.0
 11
8.5064896479
 21
46.3893283092
 31
0.0
 11
9.6185938769
 21
46.4348061596
 31
0.0
 11
10.7004551207
 21
46.5339522744
 31
0.0
 11
11.7300498043
 21
46.6847483245
 31
0.0
 11
12.6864183488
 21
46.8841245374
 31
0.0
 11
13.5500918488
 21
47.1280221881
 31
0.0
 11
14.3034884024
 21
47.411476224
 31
0.0
 11
14.9312710284
 21
47.7287163382
 31
0.0
  0
SPLINE
  5
3DB
100
AcDbEntity
  8
0
100
AcDbSpline
 62
7
  6
CONTINUOUS
 70
0
 71
3
 72
9
 73
5
 74
3
 42
0.0000001
 43
0.0000001
 44
0.0000000001
 12
-0.2911766852
 22
-0.4217920022
 32
0.0
 13
-0.4394043875
 23
-0.2603015182
 33
0.0
 40
0.0
 40
0.0
 40
0.0
 40
0.0
 40
0.3560244397
 40
1.0
 40
1.0
 40
1.0
 40
1.0
 10
11.6362483996
 20
50.4785034773
 30
0.0
 10
11.6016930609
 20
50.4284473903
 30
0.0
 10
11.4854782251
 20
50.3011357784
 30
0.0
 10
11.3449849579
 20
50.2028317989
 30
0.0
 10
11.2506630623
 20
50.1469558602
 30
0.0
 11
11.6362483996
 21
50.4785034773
 31
0.0
 11
11.5158650435
 21
50.3414721158
 31
0.0
 11
11.2506630623
 21
50.1469558602
 31
0.0
  0
SPLINE
  5
3DC
100
AcDbEntity
  8
RACCORDO
100
AcDbSpline
 62
253
  6
CONTINUOUS
 70
0
 71
3
 72
11
 73
7
 74
5
 42
0.0000001
 43
0.0000001
 44
0.0000000001
 12
1.6092338499
 22
0.9533041229
 32
0.0
 13
0.6210456694
 23
1.7728242725
 33
0.0
 40
0.0
 40
0.0
 40
0.0
 40
0.0
 40
0.2811944089
 40
0.5596167623
 40
0.832858166
 40
1.0
 40
1.0
 40
1.0
 40
1.0
 10
16.8798281869
 20
46.561100997
 30
0.0
 10
17.0306640406
 20
46.6504555934
 30
0.0
 10
17.3232047674
 20
46.8419045462
 30
0.0
 10
17.7204164039
 20
47.1792051991
 30
0.0
 10
18.0058627324
 20
47.529381164
 30
0.0
 10
18.1270727131
 20
47.7795517067
 30
0.0
 10
18.1616736171
 20
47.8783227401
 30
0.0
 11
16.8798281869
 21
46.561100997
 31
0.0
 11
17.3181789426
 21
46.8517380611
 31
0.0
 11
17.7116719968
 21
47.1928501269
 31
0.0
 11
18.0273340145
 21
47.5947863494
 31
0.0
 11
18.1616736171
 21
47.8783227401
 31
0.0
  0
SPLINE
  5
3DD
100
AcDbEntity
  8
RACCORDO
100
AcDbSpline
 62
253
  6
CONTINUOUS
 70
0
 71
3
 72
9
 73
5
 74
3
 42
0.0000001
 43
0.0000001
 44
0.0000000001
 12
0.1368133291
 22
0.3905445326
 32
0.0
 13
0.0011486267
 23
0.4153052646
 33
0.0
 40
0.0
 40
0.0
 40
0.0
 40
0.0
 40
0.4277928636
 40
1.0
 40
1.0
 40
1.0
 40
1.0
 10
18.1616736171
 20
47.8783227401
 30
0.0
 10
18.1811828724
 20
47.9340134614
 30
0.0
 10
18.2183133963
 20
48.0670352676
 30
0.0
 10
18.2320393219
 20
48.2054126819
 30
0.0
 10
18.232258406
 20
48.2846262274
 30
0.0
 11
18.1616736171
 21
47.8783227401
 31
0.0
 11
18.2086680196
 21
48.0488051325
 31
0.0
 11
18.232258406
 21
48.2846262274
 31
0.0
  0
SPLINE
  5
3DE
100
AcDbEntity
  8
0
100
AcDbSpline
 62
7
  6
CONTINUOUS
 70
0
 71
3
 72
24
 73
20
 74
18
 42
0.0000001
 43
0.0000001
 44
0.0000000001
 12
13.9057604339
 22
-10.3985535451
 32
0.0
 13
14.9163563792
 23
8.8363938132
 33
0.0
 40
0.0
 40
0.0
 40
0.0
 40
0.0
 40
0.0010700877
 40
0.0431903011
 40
0.0919578872
 40
0.1470514059
 40
0.2078497564
 40
0.2735207109
 40
0.3430785791
 40
0.4154272121
 40
0.4893960278
 40
0.5637727599
 40
0.6373348053
 40
0.7088802672
 40
0.7772596243
 40
0.8414093014
 40
0.9003894741
 40
0.9534308104
 40
1.0
 40
1.0
 40
1.0
 40
1.0
 10
-0.4616337949
 20
46.0359744556
 30
0.0
 10
-0.4566736672
 20
46.0322653341
 30
0.0
 10
-0.2561345197
 20
45.8830354769
 30
0.0
 10
0.1992038455
 20
45.605649847
 30
0.0
 10
0.969014098
 20
45.2567568337
 30
0.0
 10
1.8696707782
 20
44.9462559223
 30
0.0
 10
2.885392546
 20
44.6798027216
 30
0.0
 10
3.9978691108
 20
44.4624160488
 30
0.0
 10
5.186751984
 20
44.2982350487
 30
0.0
 10
6.4301439441
 20
44.1903952951
 30
0.0
 10
7.7050630306
 20
44.1409574515
 30
0.0
 10
8.9879069017
 20
44.1508660355
 30
0.0
 10
10.254918689
 20
44.2199319844
 30
0.0
 10
11.4826491783
 20
44.3468347461
 30
0.0
 10
12.6484340365
 20
44.529152635
 30
0.0
 10
13.7308140329
 20
44.7633950596
 30
0.0
 10
14.710152144
 20
45.0451476195
 30
0.0
 10
15.5686406939
 20
45.3690279034
 30
0.0
 10
16.0853641317
 20
45.6264856065
 30
0.0
 10
16.3169116745
 20
45.7636535061
 30
0.0
 11
-0.4616337949
 21
46.0359744556
 31
0.0
 11
-0.4467283291
 21
46.0248822949
 31
0.0
 11
0.1725692566
 21
45.6379296002
 31
0.0
 11
0.9401540764
 21
45.2834227679
 31
0.0
 11
1.8417274776
 21
44.9679655897
 31
0.0
 11
2.8604948534
 21
44.6974344358
 31
0.0
 11
3.9774784952
 21
44.4768687898
 31
0.0
 11
5.1718711112
 21
44.3103773723
 31
0.0
 11
6.4214234269
 21
44.2010616035
 31
0.0
 11
7.7028586469
 21
44.1509578293
 31
0.0
 11
8.9923060575
 21
44.1609993882
 31
0.0
 11
10.2657456933
 21
44.2309992249
 31
0.0
 11
11.4994557832
 21
44.359653375
 31
0.0
 11
12.6704546426
 21
44.544565255
 31
0.0
 11
13.7569287783
 21
44.7822903066
 31
0.0
 11
14.7386392329
 21
45.0684001616
 31
0.0
 11
15.5972985981
 21
45.3975651351
 31
0.0
 11
16.3169116745
 21
45.7636535061
 31
0.0
  0
SPLINE
  5
3DF
100
AcDbEntity
  8
0
100
AcDbSpline
 62
7
  6
CONTINUOUS
 70
0
 71
3
 72
26
 73
22
 74
20
 42
0.0000001
 43
0.0000001
 44
0.0000000001
 12
14.8338918438
 22
-15.5539624698
 32
0.0
 13
18.4523613575
 23
10.9311099569
 33
0.0
 40
0.0
 40
0.0
 40
0.0
 40
0.0
 40
0.0099958558
 40
0.0440820624
 40
0.0836200857
 40
0.128580156
 40
0.1786554992
 40
0.2333465042
 40
0.2920126937
 40
0.3539083595
 40
0.4182099659
 40
0.4840393927
 40
0.5504850972
 40
0.6166222962
 40
0.6815328181
 40
0.7443251156
 40
0.8041550088
 40
0.8602480665
 40
0.9119252973
 40
0.9586353987
 40
1.0
 40
1.0
 40
1.0
 40
1.0
 10
-2.6586046102
 20
44.48545688
 30
0.0
 10
-2.6091787956
 20
44.4336318247
 30
0.0
 10
-2.3829319223
 20
44.2128790881
 30
0.0
 10
-1.9023207402
 20
43.8532369113
 30
0.0
 10
-1.1590103412
 20
43.4415431985
 30
0.0
 10
-0.2723786626
 20
43.064650364
 30
0.0
 10
0.7447670422
 20
42.728089419
 30
0.0
 10
1.8771236424
 20
42.4371040978
 30
0.0
 10
3.1072939678
 20
42.1963351034
 30
0.0
 10
4.4161754891
 20
42.0096512305
 30
0.0
 10
5.7833294945
 20
41.8800597975
 30
0.0
 10
7.187344259
 20
41.8096493288
 30
0.0
 10
8.6061983848
 20
41.7995545432
 30
0.0
 10
10.0176259366
 20
41.8499380424
 30
0.0
 10
11.3994838799
 20
41.959988141
 30
0.0
 10
12.7301148551
 20
42.1279303824
 30
0.0
 10
13.9887223264
 20
42.3510615983
 30
0.0
 10
15.1556946345
 20
42.6257819578
 30
0.0
 10
16.2131016277
 20
42.9477286385
 30
0.0
 10
17.1446462503
 20
43.3117232146
 30
0.0
 10
17.7079350845
 20
43.5965673174
 30
0.0
 10
17.9623599416
 20
43.7472876525
 30
0.0
 11
-2.6586046102
 21
44.48545688
 31
0.0
 11
-2.505178972
 21
44.3351201569
 31
0.0
 11
-1.9254390156
 21
43.8897698245
 31
0.0
 11
-1.187071915
 21
43.4727826299
 31
0.0
 11
-0.3017221605
 21
43.0907347101
 31
0.0
 11
0.7166477534
 21
42.7496511891
 31
0.0
 11
1.8519775248
 21
42.4549111578
 31
0.0
 11
3.0863623249
 21
42.2111628425
 31
0.0
 11
4.4003351682
 21
42.0222502999
 31
0.0
 11
5.7731739179
 21
41.8911527934
 31
0.0
 11
7.1832280869
 21
41.8199378093
 31
0.0
 11
8.6082602785
 21
41.8097284501
 31
0.0
 11
10.0257968839
 21
41.8606857238
 31
0.0
 11
11.413482504
 21
41.9720060035
 31
0.0
 11
12.7494325076
 21
42.1419337021
 31
0.0
 11
14.0125781651
 21
42.3677889581
 31
0.0
 11
15.1829989149
 21
42.6460098993
 31
0.0
 11
16.2422365225
 21
42.9722088153
 31
0.0
 11
17.1735861783
 21
43.3412413542
 31
0.0
 11
17.9623599416
 21
43.7472876525
 31
0.0
  0
SPLINE
  5
3E0
100
AcDbEntity
  8
RACCORDO
100
AcDbSpline
 62
253
  6
CONTINUOUS
 70
0
 71
3
 72
11
 73
7
 74
5
 42
0.0000001
 43
0.0000001
 44
0.0000000001
 12
2.7250505891
 22
1.6143097921
 32
0.0
 13
0.0088266823
 23
3.1831933123
 33
0.0
 40
0.0
 40
0.0
 40
0.0
 40
0.0
 40
0.3228331242
 40
0.5945967667
 40
0.8252554728
 40
1.0
 40
1.0
 40
1.0
 40
1.0
 10
20.2573272617
 20
41.9058162753
 30
0.0
 10
20.5505727935
 20
42.0795338332
 30
0.0
 10
21.0724572355
 20
42.4337504804
 30
0.0
 10
21.6951684182
 20
43.0526167017
 30
0.0
 10
22.0572965271
 20
43.6834407882
 30
0.0
 10
22.1322404756
 20
44.1145426813
 30
0.0
 10
22.1327546137
 20
44.2999578847
 30
0.0
 11
20.2573272617
 21
41.9058162753
 31
0.0
 11
21.0956968064
 21
42.4911991354
 31
0.0
 11
21.6938747805
 21
43.1101447224
 31
0.0
 11
22.0412774208
 21
43.7528287919
 31
0.0
 11
22.1327546137
 21
44.2999578847
 31
0.0
  0
SPLINE
  5
3E1
100
AcDbEntity
  8
RACCORDO
100
AcDbSpline
 62
253
  6
CONTINUOUS
 70
0
 71
3
 72
27
 73
23
 74
21
 42
0.0000001
 43
0.0000001
 44
0.0000000001
 12
-0.0775395215
 22
-28.2638307271
 32
0.0
 13
24.1959538162
 23
14.3335926797
 33
0.0
 40
0.0
 40
0.0
 40
0.0
 40
0.0
 40
0.0037706499
 40
0.0277082489
 40
0.0550780967
 40
0.0875615076
 40
0.1260825569
 40
0.1705807261
 40
0.2209841999
 40
0.2764651009
 40
0.3365556263
 40
0.4000350058
 40
0.4662359696
 40
0.5337466475
 40
0.6017932909
 40
0.6689392625
 40
0.7343758697
 40
0.7967973022
 40
0.855441472
 40
0.9092870063
 40
0.9575858935
 40
1.0
 40
1.0
 40
1.0
 40
1.0
 10
-5.8668115265
 20
44.299908824
 30
0.0
 10
-5.8669089846
 20
44.2643844875
 30
0.0
 10
-5.8590499095
 20
44.0034472776
 30
0.0
 10
-5.7140665155
 20
43.4941673341
 30
0.0
 10
-5.2517807258
 20
42.8460381058
 30
0.0
 10
-4.5505624654
 20
42.2383105196
 30
0.0
 10
-3.6229764195
 20
41.6728850662
 30
0.0
 10
-2.4817937099
 20
41.1554123455
 30
0.0
 10
-1.1475301613
 20
40.6953075525
 30
0.0
 10
0.358602956
 20
40.300126666
 30
0.0
 10
2.0068892436
 20
39.9780439145
 30
0.0
 10
3.7699572402
 20
39.7346106287
 30
0.0
 10
5.6123197716
 20
39.5749191193
 30
0.0
 10
7.5029381364
 20
39.5017462763
 30
0.0
 10
9.4037664
 20
39.5166140743
 30
0.0
 10
11.2824259164
 20
39.6192657006
 30
0.0
 10
13.1014947017
 20
39.8075841008
 30
0.0
 10
14.8296351681
 20
40.078226497
 30
0.0
 10
16.4331155814
 20
40.4256892352
 30
0.0
 10
17.8828484285
 20
40.8433511551
 30
0.0
 10
19.1520143645
 20
41.3227046308
 30
0.0
 10
19.9152440077
 20
41.7031674332
 30
0.0
 10
20.2573272617
 20
41.9058162753
 30
0.0
 11
-5.8668115265
 21
44.299908824
 31
0.0
 11
-5.863564825
 21
44.1934533639
 31
0.0
 11
-5.690883296
 21
43.5427834222
 31
0.0
 11
-5.2598310346
 21
42.905083679
 31
0.0
 11
-4.5801829103
 21
42.294665962
 31
0.0
 11
-3.6616428478
 21
41.7203210546
 31
0.0
 11
-2.5256400022
 21
41.195401449
 31
0.0
 11
-1.187732804
 21
40.727123951
 31
0.0
 11
0.3202681966
 21
40.3266065778
 31
0.0
 11
1.9781710156
 21
39.9992198265
 31
0.0
 11
3.7463044874
 21
39.752797845
 31
0.0
 11
5.6009901624
 21
39.590635861
 31
0.0
 11
7.4981404277
 21
39.5166005822
 31
0.0
 11
9.4117481201
 21
39.5316919356
 31
0.0
 11
11.2972258749
 21
39.6355812255
 31
0.0
 11
13.1275347006
 21
39.82675299
 31
0.0
 11
14.8614602287
 21
40.1009382091
 31
0.0
 11
16.4724898056
 21
40.4539040955
 31
0.0
 11
17.9261378911
 21
40.8781505613
 31
0.0
 11
19.1942702439
 21
41.3648011836
 31
0.0
 11
20.2573272617
 21
41.9058162753
 31
0.0
  0
SPLINE
  5
3E2
100
AcDbEntity
  8
RACCORDO
100
AcDbSpline
 62
253
  6
CONTINUOUS
 70
0
 71
3
 72
16
 73
12
 74
10
 42
0.0000001
 43
0.0000001
 44
0.0000000001
 12
4.1297805125
 22
2.4464665527
 32
0.0
 13
-4.2559805247
 23
2.2259178228
 33
0.0
 40
0.0
 40
0.0
 40
0.0
 40
0.0
 40
0.1071595882
 40
0.2132626668
 40
0.31739146
 40
0.4170009596
 40
0.5171621417
 40
0.6307558211
 40
0.7664447875
 40
0.930173037
 40
1.0
 40
1.0
 40
1.0
 40
1.0
 10
16.6872637262
 20
46.8714278308
 30
0.0
 10
16.8347789192
 20
46.9588152803
 30
0.0
 10
17.1208795736
 20
47.1460488903
 30
0.0
 10
17.5093452962
 20
47.4759249907
 30
0.0
 10
17.8251082666
 20
47.863290887
 30
0.0
 10
18.0194247688
 20
48.3198350511
 30
0.0
 10
18.0164845149
 20
48.837120423
 30
0.0
 10
17.7724781463
 20
49.3559105503
 30
0.0
 10
17.3133548706
 20
49.840767525
 30
0.0
 10
16.8242341117
 20
50.1772723126
 30
0.0
 10
16.4972080843
 20
50.3588118315
 30
0.0
 10
16.3981473527
 20
50.4106215253
 30
0.0
 11
16.6872637262
 21
46.8714278308
 31
0.0
 11
17.1159642572
 21
47.1556663596
 31
0.0
 11
17.5007935871
 21
47.4892690766
 31
0.0
 11
17.8095065037
 21
47.8823564373
 31
0.0
 11
17.9868482632
 21
48.3263798852
 31
0.0
 11
17.9842786395
 21
48.8071496732
 31
0.0
 11
17.7665090724
 21
49.307026953
 31
0.0
 11
17.3314268295
 21
49.7917016483
 31
0.0
 11
16.6911754045
 21
50.2474621785
 31
0.0
 11
16.3981473527
 21
50.4106215253
 31
0.0
  0
SPLINE
  5
3E3
100
AcDbEntity
  8
RACCORDO
100
AcDbSpline
 62
7
  6
CONTINUOUS
 70
0
 71
3
 72
9
 73
5
 74
3
 42
0.0000001
 43
0.0000001
 44
0.0000000001
 12
0.0003541365
 22
-0.0020224749
 32
0.0
 13
0.0027616379
 23
-0.0001531987
 33
0.0
 40
0.0
 40
0.0
 40
0.0
 40
0.0
 40
0.3715619708
 40
1.0
 40
1.0
 40
1.0
 40
1.0
 10
-49.2830151407
 20
-25.7402832345
 30
0.0
 10
-49.2829712795
 20
-25.740533726
 30
0.0
 10
-49.2827068998
 20
-25.7410969771
 30
0.0
 10
-49.2820020227
 20
-25.7413213961
 30
0.0
 10
-49.2814235166
 20
-25.7413534881
 30
0.0
 11
-49.2830151407
 21
-25.7402832345
 31
0.0
 11
-49.2827139983
 21
-25.7409055128
 31
0.0
 11
-49.2814235166
 21
-25.7413534881
 31
0.0
  0
SPLINE
  5
3E4
100
AcDbEntity
  8
RACCORDO
100
AcDbSpline
 62
7
  6
CONTINUOUS
 70
0
 71
3
 72
12
 73
8
 74
6
 42
0.0000001
 43
0.0000001
 44
0.0000000001
 12
-1.5798169578
 22
-44.6183365656
 32
0.0
 13
1.6484593964
 23
-44.6158546354
 33
0.0
 40
0.0
 40
0.0
 40
0.0
 40
0.0
 40
0.202493119
 40
0.4048389898
 40
0.6055218582
 40
0.8044355325
 40
1.0
 40
1.0
 40
1.0
 40
1.0
 10
-49.2826440876
 20
18.8966904519
 30
0.0
 10
-49.3892781087
 20
15.8850550731
 30
0.0
 10
-49.5609823422
 20
9.8624182618
 30
0.0
 10
-49.690928898
 20
0.8516318124
 30
0.0
 10
-49.6914870581
 20
-8.106854193
 30
0.0
 10
-49.5626668532
 20
-16.9634634658
 30
0.0
 10
-49.3902868776
 20
-22.8318533187
 30
0.0
 10
-49.2828268496
 20
-25.7402786036
 30
0.0
 11
-49.2826440876
 21
18.8966904519
 31
0.0
 11
-49.5398231805
 21
9.8597817116
 31
0.0
 11
-49.6695784211
 21
0.8267217055
 31
0.0
 11
-49.6695805864
 21
-8.1330233047
 31
0.0
 11
-49.5398218598
 21
-17.0128323486
 31
0.0
 11
-49.2828268496
 21
-25.7402786036
 31
0.0
  0
SPLINE
  5
3E5
100
AcDbEntity
  8
RACCORDO
100
AcDbSpline
 62
253
  6
CONTINUOUS
 70
0
 71
3
 72
12
 73
8
 74
6
 42
0.0000001
 43
0.0000001
 44
0.0000000001
 12
-1.5895020775
 22
43.832246575
 32
0.0
 13
1.5241039548
 23
43.8345692781
 33
0.0
 40
0.0
 40
0.0
 40
0.0
 40
0.0
 40
0.1857272487
 40
0.3730244929
 40
0.5671930721
 40
0.7784410552
 40
1.0
 40
1.0
 40
1.0
 40
1.0
 10
-49.0470376107
 20
-25.5068155672
 30
0.0
 10
-49.1454422266
 20
-22.7932013804
 30
0.0
 10
-49.3046890897
 20
-17.3415686184
 30
0.0
 10
-49.4326609475
 20
-9.0497507918
 30
0.0
 10
-49.4474470561
 20
-0.3837975888
 30
0.0
 10
-49.3326282254
 20
8.7823981471
 30
0.0
 10
-49.1595972321
 20
15.108103603
 30
0.0
 10
-49.0470376107
 20
18.3454172416
 30
0.0
 11
-49.0470376107
 21
-25.5068155672
 31
0.0
 11
-49.2854055419
 21
-17.3641102712
 31
0.0
 11
-49.4126560441
 21
-9.1500407003
 31
0.0
 11
-49.4276709377
 21
-0.6336147374
 31
0.0
 11
-49.3121775233
 21
8.6312253456
 31
0.0
 11
-49.0470376107
 21
18.3454172416
 31
0.0
  0
SPLINE
  5
3E6
100
AcDbEntity
  8
RACCORDO
100
AcDbSpline
 62
7
  6
CONTINUOUS
 70
0
 71
3
 72
13
 73
9
 74
7
 42
0.0000001
 43
0.0000001
 44
0.0000000001
 12
-0.246732165
 22
-0.2214932359
 32
0.0
 13
0.028651402
 23
-0.1636282781
 33
0.0
 40
0.0
 40
0.0
 40
0.0
 40
0.0
 40
0.2549375519
 40
0.4874180805
 40
0.6881551481
 40
0.8480446216
 40
0.9572498185
 40
1.0
 40
1.0
 40
1.0
 40
1.0
 10
-49.0470376107
 20
-25.5068155672
 30
0.0
 10
-49.0680047088
 20
-25.5256378816
 30
0.0
 10
-49.1078614868
 20
-25.5617016533
 30
0.0
 10
-49.1639276848
 20
-25.6138076166
 30
0.0
 10
-49.2104765682
 20
-25.6579400402
 30
0.0
 10
-49.2493088223
 20
-25.6978125176
 30
0.0
 10
-49.2681283655
 20
-25.7169713655
 30
0.0
 10
-49.2834234249
 20
-25.7379515216
 30
0.0
 10
-49.2830151407
 20
-25.7402832345
 30
0.0
 11
-49.0470376107
 21
-25.5068155672
 31
0.0
 11
-49.1096580841
 21
-25.5635937743
 31
0.0
 11
-49.1661408894
 21
-25.616047812
 31
0.0
 11
-49.2141481684
 21
-25.662147851
 31
0.0
 11
-49.2513791721
 21
-25.6998881135
 31
0.0
 11
-49.2753021527
 21
-25.7270683117
 31
0.0
 11
-49.2830151407
 21
-25.7402832345
 31
0.0
  0
SPLINE
  5
3E7
100
AcDbEntity
  8
RACCORDO
100
AcDbSpline
 62
7
  6
CONTINUOUS
 70
0
 71
3
 72
9
 73
5
 74
3
 42
0.0000001
 43
0.0000001
 44
0.0000000001
 12
-0.1146971006
 22
-0.6534869891
 32
0.0
 13
-0.4498855724
 23
-0.4916596956
 33
0.0
 40
0.0
 40
0.0
 40
0.0
 40
0.0
 40
0.6752196079
 40
1.0
 40
1.0
 40
1.0
 40
1.0
 10
39.4126060938
 20
-49.4047518738
 30
0.0
 10
39.38679085
 20
-49.5518342834
 30
0.0
 10
39.3133400503
 20
-49.7644146874
 30
0.0
 10
39.1797992652
 20
-49.9433787392
 30
0.0
 10
39.1310945943
 20
-49.9966058821
 30
0.0
 11
39.4126060938
 21
-49.4047518738
 31
0.0
 11
39.2602036922
 21
-49.8235847791
 31
0.0
 11
39.1310945943
 21
-49.9966058821
 31
0.0
  0
SPLINE
  5
3E8
100
AcDbEntity
  8
RACCORDO
100
AcDbSpline
 62
7
  6
CONTINUOUS
 70
0
 71
3
 72
8
 73
4
 74
2
 42
0.0000001
 43
0.0000001
 44
0.0000000001
 12
0.7090987861
 22
-0.1400224909
 32
0.0
 13
0.5662098724
 23
-0.4635742542
 33
0.0
 40
0.0
 40
0.0
 40
0.0
 40
0.0
 40
1.0
 40
1.0
 40
1.0
 40
1.0
 10
38.1352036922
 20
27.6882818801
 30
0.0
 10
38.3715699543
 20
27.6416077165
 30
0.0
 10
38.595986121
 20
27.5257066686
 30
0.0
 10
38.7847227451
 20
27.3711819172
 30
0.0
 11
38.1352036922
 21
27.6882818801
 31
0.0
 11
38.7847227451
 21
27.3711819172
 31
0.0
  0
SPLINE
  5
3E9
100
AcDbEntity
  8
RACCORDO
100
AcDbSpline
 62
7
  6
CONTINUOUS
 70
0
 71
3
 72
8
 73
4
 74
2
 42
0.0000001
 43
0.0000001
 44
0.0000000001
 12
0.4046295361
 22
-0.3312832301
 32
0.0
 13
0.2883591116
 23
-0.4328580404
 33
0.0
 40
0.0
 40
0.0
 40
0.0
 40
0.0
 40
1.0
 40
1.0
 40
1.0
 40
1.0
 10
38.7847227451
 20
27.3711819172
 30
0.0
 10
38.9195992571
 20
27.2607541738
 30
0.0
 10
39.0362544605
 20
27.1306015581
 30
0.0
 10
39.1323741643
 20
26.9863155446
 30
0.0
 11
38.7847227451
 21
27.3711819172
 31
0.0
 11
39.1323741643
 21
26.9863155446
 31
0.0
  0
SPLINE
  5
3EA
100
AcDbEntity
  8
RACCORDO
100
AcDbSpline
 62
7
  6
CONTINUOUS
 70
0
 71
3
 72
9
 73
5
 74
3
 42
0.0000001
 43
0.0000001
 44
0.0000000001
 12
0.5672538554
 22
-0.8515090467
 32
0.0
 13
0.0
 23
-1.0161010232
 33
0.0
 40
0.0
 40
0.0
 40
0.0
 40
0.0
 40
0.2526833353
 40
1.0
 40
1.0
 40
1.0
 40
1.0
 10
39.1323741643
 20
26.9863155446
 30
0.0
 10
39.1801526964
 20
26.9145948293
 30
0.0
 10
39.3491570505
 20
26.6169383947
 30
0.0
 10
39.4342417979
 20
26.2753442507
 30
0.0
 10
39.4342417979
 20
26.0222278414
 30
0.0
 11
39.1323741643
 21
26.9863155446
 31
0.0
 11
39.2602036922
 21
26.761363815
 31
0.0
 11
39.4342417979
 21
26.0222278414
 31
0.0
  0
SPLINE
  5
3EB
100
AcDbEntity
  8
RACCORDO
100
AcDbSpline
 62
7
  6
CONTINUOUS
 70
0
 71
3
 72
9
 73
5
 74
3
 42
0.0000001
 43
0.0000001
 44
0.0000000001
 12
0.4720969992
 22
0.2815466295
 32
0.0
 13
0.5518062326
 23
0.0030432926
 33
0.0
 40
0.0
 40
0.0
 40
0.0
 40
0.0
 40
0.2297258848
 40
1.0
 40
1.0
 40
1.0
 40
1.0
 10
-46.6310675928
 20
44.1582635746
 30
0.0
 10
-46.5949166258
 20
44.1798230908
 30
0.0
 10
-46.4316928409
 20
44.2635200075
 30
0.0
 10
-46.2467985043
 20
44.2978780038
 30
0.0
 10
-46.1051178185
 20
44.2986593936
 30
0.0
 11
-46.6310675928
 21
44.1582635746
 31
0.0
 11
-46.5187795277
 21
44.215673976
 31
0.0
 11
-46.1051178185
 21
44.2986593936
 31
0.0
  0
SPLINE
  5
3EC
100
AcDbEntity
  8
RACCORDO
100
AcDbSpline
 62
7
  6
CONTINUOUS
 70
0
 71
3
 72
8
 73
4
 74
2
 42
0.0000001
 43
0.0000001
 44
0.0000000001
 12
0.3528308914
 22
0.2530348658
 32
0.0
 13
0.2235144381
 23
0.3721176376
 33
0.0
 40
0.0
 40
0.0
 40
0.0
 40
0.0
 40
1.0
 40
1.0
 40
1.0
 40
1.0
 10
38.4678791652
 20
-50.4379589028
 30
0.0
 10
38.5854894623
 20
-50.3536139476
 30
0.0
 10
38.6856373301
 20
-50.2439246079
 30
0.0
 10
38.7601421428
 20
-50.1198853953
 30
0.0
 11
38.4678791652
 21
-50.4379589028
 31
0.0
 11
38.7601421428
 21
-50.1198853953
 31
0.0
  0
SPLINE
  5
3ED
100
AcDbEntity
  8
RACCORDO
100
AcDbSpline
 62
7
  6
CONTINUOUS
 70
0
 71
3
 72
8
 73
4
 74
2
 42
0.0000001
 43
0.0000001
 44
0.0000000001
 12
0.2310805649
 22
0.3847140912
 32
0.0
 13
0.0774663668
 23
0.4413647995
 33
0.0
 40
0.0
 40
0.0
 40
0.0
 40
0.0
 40
1.0
 40
1.0
 40
1.0
 40
1.0
 10
38.7601421428
 20
-50.1198853953
 30
0.0
 10
38.8371689977
 20
-49.9916473649
 30
0.0
 10
38.8867839715
 20
-49.8480716064
 30
0.0
 10
38.9126060938
 20
-49.7009500066
 30
0.0
 11
38.7601421428
 21
-50.1198853953
 31
0.0
 11
38.9126060938
 21
-49.7009500066
 31
0.0
  0
SPLINE
  5
3EE
100
AcDbEntity
  8
RACCORDO
100
AcDbSpline
 62
7
  6
CONTINUOUS
 70
0
 71
3
 72
8
 73
4
 74
2
 42
0.0000001
 43
0.0000001
 44
0.0000000001
 12
-0.6397246066
 22
0.1263234893
 32
0.0
 13
-0.6070505408
 23
-0.2609564641
 33
0.0
 40
0.0
 40
0.0
 40
0.0
 40
0.0
 40
1.0
 40
1.0
 40
1.0
 40
1.0
 10
-46.3692604748
 20
43.9800606987
 30
0.0
 10
-46.5825020104
 20
44.0221685284
 30
0.0
 10
-46.8161864736
 20
44.0065657777
 30
0.0
 10
-47.0185366538
 20
43.9195802897
 30
0.0
 11
-46.3692604748
 21
43.9800606987
 31
0.0
 11
-47.0185366538
 21
43.9195802897
 31
0.0
  0
SPLINE
  5
3EF
100
AcDbEntity
  8
RACCORDO
100
AcDbSpline
 62
7
  6
CONTINUOUS
 70
0
 71
3
 72
8
 73
4
 74
2
 42
0.0000001
 43
0.0000001
 44
0.0000000001
 12
0.0
 22
0.5126218155
 32
0.0
 13
-0.1584377195
 23
0.4938909464
 33
0.0
 40
0.0
 40
0.0
 40
0.0
 40
0.0
 40
1.0
 40
1.0
 40
1.0
 40
1.0
 10
38.9342417979
 20
25.7260297087
 30
0.0
 10
38.9342417979
 20
25.8969036472
 30
0.0
 10
38.9052638626
 20
26.0687631493
 30
0.0
 10
38.8524512895
 20
26.2333934648
 30
0.0
 11
38.9342417979
 21
25.7260297087
 31
0.0
 11
38.8524512895
 21
26.2333934648
 31
0.0
  0
SPLINE
  5
3F0
100
AcDbEntity
  8
RACCORDO
100
AcDbSpline
 62
7
  6
CONTINUOUS
 70
0
 71
3
 72
8
 73
4
 74
2
 42
0.0000001
 43
0.0000001
 44
0.0000000001
 12
-0.3373950545
 22
0.7051450355
 32
0.0
 13
-0.605855428
 23
0.496117307
 33
0.0
 40
0.0
 40
0.0
 40
0.0
 40
0.0
 40
1.0
 40
1.0
 40
1.0
 40
1.0
 10
38.7603422005
 20
26.4648762685
 30
0.0
 10
38.6478771824
 20
26.6999246137
 30
0.0
 10
38.4867837001
 20
26.9095219802
 30
0.0
 10
38.2848318907
 20
27.0748944158
 30
0.0
 11
38.7603422005
 21
26.4648762685
 31
0.0
 11
38.2848318907
 21
27.0748944158
 31
0.0
  0
SPLINE
  5
3F1
100
AcDbEntity
  8
RACCORDO
100
AcDbSpline
 62
7
  6
CONTINUOUS
 70
0
 71
3
 72
8
 73
4
 74
2
 42
0.0000001
 43
0.0000001
 44
0.0000000001
 12
-0.3731063216
 22
0.3055258647
 32
0.0
 13
-0.4457148544
 23
0.1786240012
 33
0.0
 40
0.0
 40
0.0
 40
0.0
 40
0.0
 40
1.0
 40
1.0
 40
1.0
 40
1.0
 10
38.2848318907
 20
27.0748944158
 30
0.0
 10
38.1604631169
 20
27.1767363707
 30
0.0
 10
38.0205973092
 20
27.2618072373
 30
0.0
 10
37.872025691
 20
27.3213485711
 30
0.0
 11
38.2848318907
 21
27.0748944158
 31
0.0
 11
37.872025691
 21
27.3213485711
 31
0.0
  0
SPLINE
  5
3F2
100
AcDbEntity
  8
RACCORDO
100
AcDbSpline
 62
7
  6
CONTINUOUS
 70
0
 71
3
 72
8
 73
4
 74
2
 42
0.0000001
 43
0.0000001
 44
0.0000000001
 12
-0.23076364
 22
0.0924804823
 32
0.0
 13
-0.2419378628
 23
0.0477743621
 33
0.0
 40
0.0
 40
0.0
 40
0.0
 40
0.0
 40
1.0
 40
1.0
 40
1.0
 40
1.0
 10
37.872025691
 20
27.3213485711
 30
0.0
 10
37.7951044777
 20
27.3521753985
 30
0.0
 10
37.7158496465
 20
27.37615896
 30
0.0
 10
37.6352036922
 20
27.3920837474
 30
0.0
 11
37.872025691
 21
27.3213485711
 31
0.0
 11
37.6352036922
 21
27.3920837474
 31
0.0
  0
SPLINE
  5
3F3
100
AcDbEntity
  8
RACCORDO
100
AcDbSpline
 62
7
  6
CONTINUOUS
 70
0
 71
3
 72
9
 73
5
 74
3
 42
0.0000001
 43
0.0000001
 44
0.0000000001
 12
0.0062395276
 22
-0.0538937833
 32
0.0
 13
0.0597182084
 23
-0.0017215221
 33
0.0
 40
0.0
 40
0.0
 40
0.0
 40
0.0
 40
0.147656278
 40
1.0
 40
1.0
 40
1.0
 40
1.0
 10
-26.6775966311
 20
-45.0703699197
 30
0.0
 10
-26.6772895293
 20
-45.0730225048
 30
0.0
 10
-26.6716358081
 20
-45.0917753549
 30
0.0
 10
-26.6496133692
 20
-45.0908060569
 30
0.0
 10
-26.6326465559
 20
-45.0912951664
 30
0.0
 11
-26.6775966311
 21
-45.0703699197
 31
0.0
 11
-26.6752630375
 21
-45.0781304672
 31
0.0
 11
-26.6326465559
 21
-45.0912951664
 31
0.0
  0
SPLINE
  5
3F4
100
AcDbEntity
  8
0
100
AcDbSpline
 62
7
  6
CONTINUOUS
 70
0
 71
3
 72
15
 73
11
 74
9
 42
0.0000001
 43
0.0000001
 44
0.0000000001
 12
-1.468635778
 22
-42.0611680716
 32
0.0
 13
1.406980241
 23
-42.0634073016
 33
0.0
 40
0.0
 40
0.0
 40
0.0
 40
0.0
 40
0.1323926697
 40
0.2641789638
 40
0.3953319424
 40
0.5258249874
 40
0.6556318189
 40
0.7847265123
 40
0.9130835151
 40
1.0
 40
1.0
 40
1.0
 40
1.0
 10
18.4246410901
 20
5.5446032869
 30
0.0
 10
18.3598288863
 20
3.6884065092
 30
0.0
 10
18.2463239809
 20
-0.0160580831
 30
0.0
 10
18.1243704636
 20
-5.5608689307
 30
0.0
 10
18.0511332296
 20
-11.0798903249
 30
0.0
 10
18.0266329049
 20
-16.5715732797
 30
0.0
 10
18.0508762229
 20
-22.0343826305
 30
0.0
 10
18.1238564215
 20
-27.4667916402
 30
0.0
 10
18.2326963521
 20
-32.2967477321
 30
0.0
 10
18.3241061984
 20
-35.3154537505
 30
0.0
 10
18.3648694574
 20
-36.5341215856
 30
0.0
 11
18.4246410901
 21
5.5446032869
 31
0.0
 11
18.2541027202
 21
-0.024770157
 31
0.0
 11
18.1322555058
 21
-5.5698950268
 31
0.0
 11
18.0591335381
 21
-11.0892198802
 31
0.0
 11
18.0347572755
 21
-16.5812004932
 31
0.0
 11
18.0591335381
 21
-22.0443002923
 31
0.0
 11
18.1322555058
 21
-27.4769907845
 31
0.0
 11
18.2541027202
 21
-32.8777519849
 31
0.0
 11
18.3648694574
 21
-36.5341215856
 31
0.0
  0
SPLINE
  5
3F5
100
AcDbEntity
  8
RACCORDO
100
AcDbSpline
 62
7
  6
CONTINUOUS
 70
0
 71
3
 72
8
 73
4
 74
2
 42
0.0000001
 43
0.0000001
 44
0.0000000001
 12
-0.4161542733
 22
-0.1061743834
 32
0.0
 13
-0.4247134873
 23
0.0426311194
 33
0.0
 40
0.0
 40
0.0
 40
0.0
 40
0.0
 40
1.0
 40
1.0
 40
1.0
 40
1.0
 10
-0.6610552695
 20
-50.0953066025
 30
0.0
 10
-0.7997733607
 20
-50.1306980636
 30
0.0
 10
-0.9448837932
 20
-50.1446462471
 30
0.0
 10
-1.0864549557
 20
-50.1304358739
 30
0.0
 11
-0.6610552695
 21
-50.0953066025
 31
0.0
 11
-1.0864549557
 21
-50.1304358739
 31
0.0
  0
SPLINE
  5
3F6
100
AcDbEntity
  8
RACCORDO
100
AcDbSpline
 62
7
  6
CONTINUOUS
 70
0
 71
3
 72
9
 73
5
 74
3
 42
0.0000001
 43
0.0000001
 44
0.0000000001
 12
-0.1237777629
 22
0.0124243396
 32
0.0
 13
-0.1220939768
 23
0.0241846336
 33
0.0
 40
0.0
 40
0.0
 40
0.0
 40
0.0
 40
0.9724035044
 40
1.0
 40
1.0
 40
1.0
 40
1.0
 10
-1.0864549557
 20
-50.1304358739
 30
0.0
 10
-1.1265755991
 20
-50.1264087168
 30
0.0
 10
-1.1675378541
 20
-50.1195070994
 30
0.0
 10
-1.208242873
 20
-50.1114763631
 30
0.0
 10
-1.209365995
 20
-50.1112538927
 30
0.0
 11
-1.0864549557
 21
-50.1304358739
 31
0.0
 11
-1.2059960454
 21
-50.1119187435
 31
0.0
 11
-1.209365995
 21
-50.1112538927
 31
0.0
  0
LINE
  5
3F7
100
AcDbEntity
  8
0
100
AcDbLine
 62
7
  6
CONTINUOUS
 10
-49.479174363
 20
-33.4695275339
 11
-49.4718139549
 21
-33.6151183279
  0
LINE
  5
3F8
100
AcDbEntity
  8
0
100
AcDbLine
 62
7
  6
CONTINUOUS
 10
19.1244710293
 20
-47.0163753095
 11
19.1318314375
 21
-47.1619661035
  0
LINE
  5
3F9
100
AcDbEntity
  8
0
100
AcDbLine
 62
7
  6
CONTINUOUS
 10
-45.1818873276
 20
-35.4224018673
 11
-45.1920204939
 21
-35.2284701409
  0
SPLINE
  5
3FA
100
AcDbEntity
  8
0
100
AcDbSpline
 62
7
  6
CONTINUOUS
 70
0
 71
3
 72
10
 73
6
 74
4
 42
0.0000001
 43
0.0000001
 44
0.0000000001
 12
-0.0398265856
 22
0.7764368652
 32
0.0
 13
-0.0387504025
 23
0.7764913192
 33
0.0
 40
0.0
 40
0.0
 40
0.0
 40
0.0
 40
0.3332272593
 40
0.6665606425
 40
1.0
 40
1.0
 40
1.0
 40
1.0
 10
-46.6128505969
 20
-34.5158718107
 30
0.0
 10
-46.6172743649
 20
-34.4296285012
 30
0.0
 10
-46.6260834145
 20
-34.2571123668
 30
0.0
 10
-46.6391794781
 20
-33.998290927
 30
0.0
 10
-46.647831871
 20
-33.8257118298
 30
0.0
 10
-46.6521388408
 20
-33.7394075743
 30
0.0
 11
-46.6128505969
 21
-34.5158718107
 31
0.0
 11
-46.6260620861
 21
-34.2571388209
 31
0.0
 11
-46.6391581703
 21
-33.9983173516
 31
0.0
 11
-46.6521388408
 21
-33.7394075743
 31
0.0
  0
LINE
  5
3FB
100
AcDbEntity
  8
0
100
AcDbLine
 62
7
  6
CONTINUOUS
 10
-45.3440794651
 20
-33.9977040707
 11
-45.3561422511
 21
-33.7549317997
  0
SPLINE
  5
3FC
100
AcDbEntity
  8
RACCORDO
100
AcDbSpline
 62
253
  6
CONTINUOUS
 70
0
 71
3
 72
22
 73
18
 74
16
 42
0.0000001
 43
0.0000001
 44
0.0000000001
 12
-0.2019471082
 22
1.3115317127
 32
0.0
 13
0.9163561453
 23
0.9597861652
 33
0.0
 40
0.0
 40
0.0
 40
0.0
 40
0.0
 40
0.1021326847
 40
0.1948324798
 40
0.2798662824
 40
0.3571697325
 40
0.4261133633
 40
0.4881379963
 40
0.5459408065
 40
0.6021219405
 40
0.6580941019
 40
0.7135961064
 40
0.7683695539
 40
0.8231626039
 40
0.8790724388
 40
0.9374020664
 40
1.0
 40
1.0
 40
1.0
 40
1.0
 10
18.3314940721
 20
9.9750006382
 30
0.0
 10
18.3246189387
 20
10.0196507232
 30
0.0
 10
18.3129242131
 20
10.1050546629
 30
0.0
 10
18.3003988829
 20
10.2282361245
 30
0.0
 10
18.2929032802
 20
10.3408207357
 30
0.0
 10
18.289712389
 20
10.4430947912
 30
0.0
 10
18.2901043549
 20
10.535237863
 30
0.0
 10
18.2934206548
 20
10.6186885258
 30
0.0
 10
18.2993361339
 20
10.6963350896
 30
0.0
 10
18.3079565126
 20
10.771036601
 30
0.0
 10
18.3196514222
 20
10.844294367
 30
0.0
 10
18.3348447114
 20
10.9162794528
 30
0.0
 10
18.3540181541
 20
10.9867801913
 30
0.0
 10
18.3779938325
 20
11.0560069685
 30
0.0
 10
18.4082995975
 20
11.1244788294
 30
0.0
 10
18.4474244163
 20
11.1924062466
 30
0.0
 10
18.4807476435
 20
11.2346502376
 30
0.0
 10
18.4998683105
 20
11.2546771145
 30
0.0
 11
18.3314940721
 21
9.9750006382
 31
0.0
 11
18.3131755354
 21
10.1092858166
 31
0.0
 11
18.3007986502
 21
10.2316731262
 31
0.0
 11
18.2933706478
 21
10.3442672391
 31
0.0
 11
18.2902376974
 21
10.446800163
 31
0.0
 11
18.290686662
 21
10.5382864559
 31
0.0
 11
18.2940098251
 21
10.6205253061
 31
0.0
 11
18.2998922389
 21
10.6970030674
 31
0.0
 11
18.3085027974
 21
10.7710558576
 31
0.0
 11
18.3202922182
 21
10.8443886397
 31
0.0
 11
18.3356030863
 21
10.9164301236
 31
0.0
 11
18.3548026777
 21
10.9865321904
 31
0.0
 11
18.3787649746
 21
11.0551799466
 31
0.0
 11
18.4090138379
 21
11.1229251643
 31
0.0
 11
18.4480082703
 21
11.1897878428
 31
0.0
 11
18.4998683105
 21
11.2546771145
 31
0.0
  0
SPLINE
  5
3FD
100
AcDbEntity
  8
RACCORDO
100
AcDbSpline
 62
253
  6
CONTINUOUS
 70
0
 71
3
 72
14
 73
10
 74
8
 42
0.0000001
 43
0.0000001
 44
0.0000000001
 12
-0.2195177014
 22
-1.8376202152
 32
0.0
 13
0.8665846557
 23
-1.6352575061
 33
0.0
 40
0.0
 40
0.0
 40
0.0
 40
0.0
 40
0.1851768229
 40
0.3548100445
 40
0.5092910439
 40
0.6502289517
 40
0.778691094
 40
0.8952248341
 40
1.0
 40
1.0
 40
1.0
 40
1.0
 10
18.3314940041
 20
-42.9246646526
 30
0.0
 10
18.3179441406
 20
-43.038092877
 30
0.0
 10
18.2978767396
 20
-43.2561913749
 30
0.0
 10
18.2870443389
 20
-43.5703546367
 30
0.0
 10
18.2945664306
 20
-43.857338866
 30
0.0
 10
18.3189627967
 20
-44.117907335
 30
0.0
 10
18.3597106407
 20
-44.3527902226
 30
0.0
 10
18.4168933166
 20
-44.5612110202
 30
0.0
 10
18.4695699752
 20
-44.6878578497
 30
0.0
 10
18.4998354922
 20
-44.7449693086
 30
0.0
 11
18.3314940041
 21
-42.9246646526
 31
0.0
 11
18.3004080715
 21
-43.2659558959
 31
0.0
 11
18.2900464281
 21
-43.5797225637
 31
0.0
 11
18.2981282259
 21
-43.8655040259
 31
0.0
 11
18.3232220325
 21
-44.1251258354
 31
0.0
 11
18.364870359
 21
-44.359192386
 31
0.0
 11
18.4233894833
 21
-44.5667686073
 31
0.0
 11
18.4998354922
 21
-44.7449693086
 31
0.0
  0
SPLINE
  5
3FE
100
AcDbEntity
  8
RACCORDO
100
AcDbSpline
 62
253
  6
CONTINUOUS
 70
0
 71
3
 72
14
 73
10
 74
8
 42
0.0000001
 43
0.0000001
 44
0.0000000001
 12
-0.409020371
 22
-1.7842404572
 32
0.0
 13
-1.3704790588
 23
-1.2135068283
 33
0.0
 40
0.0
 40
0.0
 40
0.0
 40
0.0
 40
0.1881514882
 40
0.3593436783
 40
0.5145848498
 40
0.6551582379
 40
0.7824286777
 40
0.8972201423
 40
1.0
 40
1.0
 40
1.0
 40
1.0
 10
-49.0478472689
 20
-29.6195739983
 30
0.0
 10
-49.073499866
 20
-29.7314764974
 30
0.0
 10
-49.1283514098
 20
-29.9439150693
 30
0.0
 10
-49.224498368
 20
-30.2430057621
 30
0.0
 10
-49.3284214333
 20
-30.5085500089
 30
0.0
 10
-49.4388972803
 20
-30.7421297071
 30
0.0
 10
-49.5556230113
 20
-30.9446874174
 30
0.0
 10
-49.6782501934
 20
-31.1161596911
 30
0.0
 10
-49.7696417551
 20
-31.2133334291
 30
0.0
 10
-49.8165943027
 20
-31.2549081155
 30
0.0
 11
-49.0478472689
 21
-29.6195739983
 31
0.0
 11
-49.1343093808
 21
-29.9529601538
 31
0.0
 11
-49.2306825926
 21
-30.251144086
 31
0.0
 11
-49.3348293292
 21
-30.5155441993
 31
0.0
 11
-49.4456125587
 21
-30.7477984885
 31
0.0
 11
-49.5628121944
 21
-30.9491437265
 31
0.0
 11
-49.6864248957
 21
-31.1190666936
 31
0.0
 11
-49.8165943027
 21
-31.2549081155
 31
0.0
  0
LINE
  5
3FF
100
AcDbEntity
  8
0
100
AcDbLine
 62
7
  6
CONTINUOUS
 10
19.4802472751
 20
-47.2193120961
 11
19.4704209706
 21
-47.0251984459
  0
SPLINE
  5
400
100
AcDbEntity
  8
0
100
AcDbSpline
 62
7
  6
CONTINUOUS
 70
0
 71
3
 72
9
 73
5
 74
3
 42
0.0000001
 43
0.0000001
 44
0.0000000001
 12
-0.051318136
 22
0.9577357833
 32
0.0
 13
-0.0496725853
 23
0.95782255
 33
0.0
 40
0.0
 40
0.0
 40
0.0
 40
0.0
 40
0.5312153457
 40
1.0
 40
1.0
 40
1.0
 40
1.0
 10
18.1629467954
 20
-48.4947128212
 30
0.0
 10
18.1538598016
 20
-48.3251248395
 30
0.0
 10
18.1368996993
 20
-48.0058717417
 30
0.0
 10
18.1202138251
 20
-47.6866042014
 30
0.0
 10
18.1124519099
 20
-47.5369333637
 30
0.0
 11
18.1629467954
 21
-48.4947128212
 31
0.0
 11
18.1359182527
 21
-47.9859364746
 31
0.0
 11
18.1124519099
 21
-47.5369333637
 31
0.0
  0
LINE
  5
401
100
AcDbEntity
  8
0
100
AcDbLine
 62
7
  6
CONTINUOUS
 10
18.0943522545
 20
-47.1857894408
 11
18.0605370728
 21
-46.5179242333
  0
LINE
  5
402
100
AcDbEntity
  8
0
100
AcDbLine
 62
7
  6
CONTINUOUS
 10
-47.1665287919
 20
-35.0305038034
 11
-47.1766619582
 21
-34.836572077
  0
SPLINE
  5
403
100
AcDbEntity
  8
RACCORDO
100
AcDbSpline
 62
253
  6
CONTINUOUS
 70
0
 71
3
 72
12
 73
8
 74
6
 42
0.0000001
 43
0.0000001
 44
0.0000000001
 12
0.0282510349
 22
-0.9004246243
 32
0.0
 13
0.2769087764
 23
-0.8572051893
 33
0.0
 40
0.0
 40
0.0
 40
0.0
 40
0.0
 40
0.1263631048
 40
0.3848971623
 40
0.6170248879
 40
0.8223911827
 40
1.0
 40
1.0
 40
1.0
 40
1.0
 10
18.5571071558
 20
-43.7015580805
 30
0.0
 10
18.5582971186
 20
-43.7394848976
 30
0.0
 10
18.5628422773
 20
-43.854979028
 30
0.0
 10
18.575043384
 20
-44.0399002821
 30
0.0
 10
18.598105462
 20
-44.2477219092
 30
0.0
 10
18.6289091176
 20
-44.4299259694
 30
0.0
 10
18.6568637331
 20
-44.541726668
 30
0.0
 10
18.6732575465
 20
-44.5924757346
 30
0.0
 11
18.5571071558
 21
-43.7015580805
 31
0.0
 11
18.5616119475
 21
-43.8153039511
 31
0.0
 11
18.5773854612
 21
-44.0476621917
 31
0.0
 11
18.6010791804
 21
-44.255421114
 31
0.0
 11
18.6328226425
 21
-44.4376757266
 31
0.0
 11
18.6732575465
 21
-44.5924757346
 31
0.0
  0
SPLINE
  5
404
100
AcDbEntity
  8
0
100
AcDbSpline
 62
7
  6
CONTINUOUS
 70
0
 71
3
 72
10
 73
6
 74
4
 42
0.0000001
 43
0.0000001
 44
0.0000000001
 12
-0.0398265856
 22
0.7764368652
 32
0.0
 13
-0.0387504025
 23
0.7764913192
 33
0.0
 40
0.0
 40
0.0
 40
0.0
 40
0.0
 40
0.3332272593
 40
0.6665606425
 40
1.0
 40
1.0
 40
1.0
 40
1.0
 10
-48.5974920612
 20
-34.1239737468
 30
0.0
 10
-48.6019158292
 20
-34.0377304373
 30
0.0
 10
-48.6107248788
 20
-33.8652143029
 30
0.0
 10
-48.6238209424
 20
-33.6063928631
 30
0.0
 10
-48.6324733353
 20
-33.4338137659
 30
0.0
 10
-48.6367803051
 20
-33.3475095104
 30
0.0
 11
-48.5974920612
 21
-34.1239737468
 31
0.0
 11
-48.6107035504
 21
-33.865240757
 31
0.0
 11
-48.6237996346
 21
-33.6064192877
 31
0.0
 11
-48.6367803051
 21
-33.3475095104
 31
0.0
  0
LINE
  5
405
100
AcDbEntity
  8
0
100
AcDbLine
 62
7
  6
CONTINUOUS
 10
-47.3287211875
 20
-33.6058059558
 11
-47.3407839735
 21
-33.3630336848
  0
SPLINE
  5
406
100
AcDbEntity
  8
RACCORDO
100
AcDbSpline
 62
7
  6
CONTINUOUS
 70
0
 71
3
 72
10
 73
6
 74
4
 42
0.0000001
 43
0.0000001
 44
0.0000000001
 12
-0.3782360009
 22
0.0746885315
 32
0.0
 13
-0.3554656047
 23
-0.0144445745
 33
0.0
 40
0.0
 40
0.0
 40
0.0
 40
0.0
 40
0.3867865174
 40
0.7269751484
 40
1.0
 40
1.0
 40
1.0
 40
1.0
 10
-26.1815764232
 20
-45.0981674692
 30
0.0
 10
-26.2303419517
 20
-45.0885379635
 30
0.0
 10
-26.3229586301
 20
-45.0719589626
 30
0.0
 10
-26.4484078797
 20
-45.057542585
 30
0.0
 10
-26.5315193591
 20
-45.0506473038
 30
0.0
 10
-26.5638696737
 20
-45.0519618797
 30
0.0
 11
-26.1815764232
 21
-45.0981674692
 31
0.0
 11
-26.3284937472
 21
-45.0726226606
 31
0.0
 11
-26.4587368257
 21
-45.0571729364
 31
0.0
 11
-26.5638696737
 21
-45.0519618797
 31
0.0
  0
SPLINE
  5
407
100
AcDbEntity
  8
RACCORDO
100
AcDbSpline
 62
7
  6
CONTINUOUS
 70
0
 71
3
 72
10
 73
6
 74
4
 42
0.0000001
 43
0.0000001
 44
0.0000000001
 12
-0.1107836682
 22
-0.0045017659
 32
0.0
 13
0.0142843745
 23
-0.123380972
 33
0.0
 40
0.0
 40
0.0
 40
0.0
 40
0.0
 40
0.6250378075
 40
0.9560593277
 40
1.0
 40
1.0
 40
1.0
 40
1.0
 10
-26.5638696737
 20
-45.0519618797
 30
0.0
 10
-26.5869510008
 20
-45.0528998044
 30
0.0
 10
-26.6186324677
 20
-45.057748535
 30
0.0
 10
-26.6775011483
 20
-45.0536026922
 30
0.0
 10
-26.6778058528
 20
-45.0685627721
 30
0.0
 10
-26.6775966311
 20
-45.0703699197
 30
0.0
 11
-26.5638696737
 21
-45.0519618797
 31
0.0
 11
-26.6388898977
 21
-45.0554731685
 31
0.0
 11
-26.6774354916
 21
-45.0652833116
 31
0.0
 11
-26.6775966311
 21
-45.0703699197
 31
0.0
  0
SPLINE
  5
408
100
AcDbEntity
  8
0
100
AcDbSpline
 62
7
  6
CONTINUOUS
 70
0
 71
3
 72
10
 73
6
 74
4
 42
0.0000001
 43
0.0000001
 44
0.0000000001
 12
-0.0372751548
 22
0.7279293851
 32
0.0
 13
-0.0363293303
 23
0.727977202
 33
0.0
 40
0.0
 40
0.0
 40
0.0
 40
0.0
 40
0.3332339072
 40
0.6665672843
 40
1.0
 40
1.0
 40
1.0
 40
1.0
 10
-50.5846199265
 20
-33.6835648206
 30
0.0
 10
-50.588760375
 20
-33.6027079029
 30
0.0
 10
-50.5970074472
 20
-33.4409681341
 30
0.0
 10
-50.6092747782
 20
-33.1983169739
 30
0.0
 10
-50.6173841672
 20
-33.0365218801
 30
0.0
 10
-50.621421963
 20
-32.9556114083
 30
0.0
 11
-50.5846199265
 21
-33.6835648206
 31
0.0
 11
-50.5969887041
 21
-33.4409913813
 31
0.0
 11
-50.609256052
 21
-33.1983401968
 31
0.0
 11
-50.621421963
 21
-32.9556114083
 31
0.0
  0
SPLINE
  5
409
100
AcDbEntity
  8
0
100
AcDbSpline
 62
7
  6
CONTINUOUS
 70
0
 71
3
 72
9
 73
5
 74
3
 42
0.0000001
 43
0.0000001
 44
0.0000000001
 12
-0.051318136
 22
0.9577357833
 32
0.0
 13
-0.0496725853
 23
0.95782255
 33
0.0
 40
0.0
 40
0.0
 40
0.0
 40
0.0
 40
0.5312153457
 40
1.0
 40
1.0
 40
1.0
 40
1.0
 10
-50.4406987905
 20
-34.9478650074
 30
0.0
 10
-50.4497857843
 20
-34.7782770257
 30
0.0
 10
-50.4667458866
 20
-34.4590239279
 30
0.0
 10
-50.4834317608
 20
-34.1397563876
 30
0.0
 10
-50.491193676
 20
-33.9900855499
 30
0.0
 11
-50.4406987905
 21
-34.9478650074
 31
0.0
 11
-50.4677273332
 21
-34.4390886607
 31
0.0
 11
-50.491193676
 21
-33.9900855499
 31
0.0
  0
SPLINE
  5
40A
100
AcDbEntity
  8
RACCORDO
100
AcDbSpline
 62
7
  6
CONTINUOUS
 70
0
 71
3
 72
13
 73
9
 74
7
 42
0.0000001
 43
0.0000001
 44
0.0000000001
 12
-0.0593594042
 22
0.5190699241
 32
0.0
 13
0.4960884706
 23
-0.0979603191
 33
0.0
 40
0.0
 40
0.0
 40
0.0
 40
0.0
 40
0.0103851726
 40
0.089042306
 40
0.2375634118
 40
0.4457275482
 40
0.7050998073
 40
1.0
 40
1.0
 40
1.0
 40
1.0
 10
-26.6775999754
 20
-43.1909556141
 30
0.0
 10
-26.6778054613
 20
-43.1891587372
 30
0.0
 10
-26.6774872788
 20
-43.1742184274
 30
0.0
 10
-26.6186324677
 20
-43.1783632934
 30
0.0
 10
-26.5579211728
 20
-43.1690716556
 30
0.0
 10
-26.4484078797
 20
-43.1781573435
 30
0.0
 10
-26.3229586301
 20
-43.192573721
 30
0.0
 10
-26.2303419517
 20
-43.209152722
 30
0.0
 10
-26.1815764232
 20
-43.2187822276
 30
0.0
 11
-26.6775999754
 21
-43.1909556141
 31
0.0
 11
-26.6774354916
 21
-43.18589807
 31
0.0
 11
-26.6388898977
 21
-43.1760879269
 31
0.0
 11
-26.5638696737
 21
-43.1725766382
 31
0.0
 11
-26.4587368257
 21
-43.1777876948
 31
0.0
 11
-26.3284937472
 21
-43.193237419
 31
0.0
 11
-26.1815764232
 21
-43.2187822276
 31
0.0
  0
LINE
  5
40B
100
AcDbEntity
  8
0
100
AcDbLine
 62
7
  6
CONTINUOUS
 10
-49.1233981172
 20
-33.6724643205
 11
-49.1332244218
 21
-33.4783506703
  0
LINE
  5
40C
100
AcDbEntity
  8
0
100
AcDbLine
 62
7
  6
CONTINUOUS
 10
-50.5092933314
 20
-33.638941627
 11
-50.5431085131
 21
-32.9710764195
  0
SPLINE
  5
40D
100
AcDbEntity
  8
0
100
AcDbSpline
 62
7
  6
CONTINUOUS
 70
0
 71
3
 72
10
 73
6
 74
4
 42
0.0000001
 43
0.0000001
 44
0.0000000001
 12
-0.054515592
 22
1.0178631539
 32
0.0
 13
-0.0526580284
 23
1.0179609432
 33
0.0
 40
0.0
 40
0.0
 40
0.0
 40
0.0
 40
0.3331929933
 40
0.6665264124
 40
1.0
 40
1.0
 40
1.0
 40
1.0
 10
-50.5160550387
 20
-34.9925057674
 30
0.0
 10
-50.5221097765
 20
-34.8794574771
 30
0.0
 10
-50.5341529218
 20
-34.6533095561
 30
0.0
 10
-50.5520149614
 20
-34.3140053673
 30
0.0
 10
-50.5637879244
 20
-34.0877477524
 30
0.0
 10
-50.5696412783
 20
-33.9745933898
 30
0.0
 11
-50.5160550387
 21
-34.9925057674
 31
0.0
 11
-50.534115993
 21
-34.6533553817
 31
0.0
 11
-50.5519780796
 21
-34.3140511267
 31
0.0
 11
-50.5696412783
 21
-33.9745933898
 31
0.0
  0
LINE
  5
40E
100
AcDbEntity
  8
0
100
AcDbLine
 62
7
  6
CONTINUOUS
 10
-49.1987193651
 20
-33.7170843464
 11
-49.2085414243
 21
-33.5229681813
  0
LINE
  5
40F
100
AcDbEntity
  8
0
100
AcDbLine
 62
7
  6
CONTINUOUS
 10
-47.0911869852
 20
-34.9858715985
 11
-47.1013245338
 21
-34.7919424681
  0
SPLINE
  5
410
100
AcDbEntity
  8
0
100
AcDbSpline
 62
7
  6
CONTINUOUS
 70
0
 71
3
 72
10
 73
6
 74
4
 42
0.0000001
 43
0.0000001
 44
0.0000000001
 12
-0.0372751548
 22
0.7279293851
 32
0.0
 13
-0.0363293303
 23
0.727977202
 33
0.0
 40
0.0
 40
0.0
 40
0.0
 40
0.0
 40
0.3332339072
 40
0.6665672843
 40
1.0
 40
1.0
 40
1.0
 40
1.0
 10
18.0190256594
 20
-47.2304126344
 30
0.0
 10
18.0148852109
 20
-47.1495557167
 30
0.0
 10
18.0066381387
 20
-46.9878159479
 30
0.0
 10
17.9943708077
 20
-46.7451647877
 30
0.0
 10
17.9862614187
 20
-46.5833696939
 30
0.0
 10
17.9822236229
 20
-46.5024592221
 30
0.0
 11
18.0190256594
 21
-47.2304126344
 31
0.0
 11
18.0066568818
 21
-46.9878391951
 31
0.0
 11
17.9943895339
 21
-46.7451880106
 31
0.0
 11
17.9822236229
 21
-46.5024592221
 31
0.0
  0
SPLINE
  5
411
100
AcDbEntity
  8
0
100
AcDbSpline
 62
7
  6
CONTINUOUS
 70
0
 71
3
 72
9
 73
5
 74
3
 42
0.0000001
 43
0.0000001
 44
0.0000000001
 12
-0.0367609553
 22
0.7163519386
 32
0.0
 13
-0.0358443545
 23
0.7163983939
 33
0.0
 40
0.0
 40
0.0
 40
0.0
 40
0.0
 40
0.5418017118
 40
1.0
 40
1.0
 40
1.0
 40
1.0
 10
-48.5221643913
 20
-34.0793499165
 30
0.0
 10
-48.5288034408
 20
-33.9499763476
 30
0.0
 10
-48.5409742168
 20
-33.7111881079
 30
0.0
 10
-48.5529922425
 20
-33.4723921359
 30
0.0
 10
-48.5584668498
 20
-33.36297463
 30
0.0
 11
-48.5221643913
 21
-34.0793499165
 31
0.0
 11
-48.5419468956
 21
-33.6912223237
 31
0.0
 11
-48.5584668498
 21
-33.36297463
 31
0.0
  0
LINE
  5
412
100
AcDbEntity
  8
0
100
AcDbLine
 62
7
  6
CONTINUOUS
 10
-47.253410499
 20
-33.5611921852
 11
-47.2654784974
 21
-33.318423002
  0
LINE
  5
413
100
AcDbEntity
  8
0
100
AcDbLine
 62
7
  6
CONTINUOUS
 10
19.4049260272
 20
-47.2639321221
 11
19.395103968
 21
-47.0698159569
  0
SPLINE
  5
414
100
AcDbEntity
  8
RACCORDO
100
AcDbSpline
 62
253
  6
CONTINUOUS
 70
0
 71
3
 72
14
 73
10
 74
8
 42
0.0000001
 43
0.0000001
 44
0.0000000001
 12
-1.7424731721
 22
-56.3841304607
 32
0.0
 13
1.8497186455
 23
-56.3807140917
 33
0.0
 40
0.0
 40
0.0
 40
0.0
 40
0.0
 40
0.14018475
 40
0.2790827036
 40
0.4168944102
 40
0.5550338783
 40
0.6973315257
 40
0.8469749248
 40
1.0
 40
1.0
 40
1.0
 40
1.0
 10
18.844718085
 20
11.3764074101
 30
0.0
 10
18.763295363
 20
8.7416756655
 30
0.0
 10
18.622748253
 20
3.4957042847
 30
0.0
 10
18.4781640613
 20
-4.342200029
 30
0.0
 10
18.4001552754
 20
-12.1425966373
 30
0.0
 10
18.3892457781
 20
-20.007305966
 30
0.0
 10
18.4505624733
 20
-28.0942873012
 30
0.0
 10
18.594263248
 20
-36.4601863928
 30
0.0
 10
18.7503669734
 20
-42.1494529861
 30
0.0
 10
18.844718085
 20
-45.0253406568
 30
0.0
 11
18.844718085
 21
11.3764074101
 31
0.0
 11
18.6331407643
 21
3.4712695702
 31
0.0
 11
18.4888571172
 21
-4.3627810505
 31
0.0
 11
18.411363479
 21
-12.1364976536
 31
0.0
 11
18.4008304035
 21
-19.9290827557
 31
0.0
 11
18.4620259107
 21
-27.9560089616
 31
0.0
 11
18.6074363649
 21
-36.3962975103
 31
0.0
 11
18.844718085
 21
-45.0253406568
 31
0.0
  0
SPLINE
  5
415
100
AcDbEntity
  8
0
100
AcDbSpline
 62
7
  6
CONTINUOUS
 70
0
 71
3
 72
10
 73
6
 74
4
 42
0.0000001
 43
0.0000001
 44
0.0000000001
 12
-0.054515592
 22
1.0178631539
 32
0.0
 13
-0.0526580284
 23
1.0179609432
 33
0.0
 40
0.0
 40
0.0
 40
0.0
 40
0.0
 40
0.3331929933
 40
0.6665264124
 40
1.0
 40
1.0
 40
1.0
 40
1.0
 10
18.0875905472
 20
-48.5393535812
 30
0.0
 10
18.0815358094
 20
-48.4263052909
 30
0.0
 10
18.0694926641
 20
-48.2001573699
 30
0.0
 10
18.0516306245
 20
-47.8608531811
 30
0.0
 10
18.0398576615
 20
-47.6345955662
 30
0.0
 10
18.0340043076
 20
-47.5214412036
 30
0.0
 11
18.0875905472
 21
-48.5393535812
 31
0.0
 11
18.0695295929
 21
-48.2002031955
 31
0.0
 11
18.0516675063
 21
-47.8608989406
 31
0.0
 11
18.0340043076
 21
-47.5214412036
 31
0.0
  0
SPLINE
  5
416
100
AcDbEntity
  8
RACCORDO
100
AcDbSpline
 62
253
  6
CONTINUOUS
 70
0
 71
3
 72
17
 73
13
 74
11
 42
0.0000001
 43
0.0000001
 44
0.0000000001
 12
0.0234185331
 22
0.7919980094
 32
0.0
 13
0.3079859116
 23
0.7300268109
 33
0.0
 40
0.0
 40
0.0
 40
0.0
 40
0.0
 40
0.0908395566
 40
0.1962388914
 40
0.2987876039
 40
0.4009310774
 40
0.502004379
 40
0.6012621151
 40
0.6996409781
 40
0.7983845126
 40
0.8983890133
 40
1.0
 40
1.0
 40
1.0
 40
1.0
 10
18.5559667337
 20
10.2397080505
 30
0.0
 10
18.5566758434
 20
10.2636896331
 30
0.0
 10
18.5585391555
 20
10.3154867741
 30
0.0
 10
18.5625606497
 20
10.3943013211
 30
0.0
 10
18.5681904682
 20
10.4760110893
 30
0.0
 10
18.5753417379
 20
10.5564561324
 30
0.0
 10
18.5842271472
 20
10.6358554447
 30
0.0
 10
18.5950779222
 20
10.7140095655
 30
0.0
 10
18.6082942945
 20
10.7911783522
 30
0.0
 10
18.6246018711
 20
10.8679700084
 30
0.0
 10
18.6451465505
 20
10.9446293448
 30
0.0
 10
18.6628263112
 20
10.9949716095
 30
0.0
 10
18.6732578953
 20
11.0196978577
 30
0.0
 11
18.5559667337
 21
10.2397080505
 31
0.0
 11
18.558567605
 21
10.3116366548
 31
0.0
 11
18.5628498858
 21
10.3950383528
 31
0.0
 11
18.5684666621
 21
10.4760969003
 31
0.0
 11
18.5756741769
 21
10.5567071535
 31
0.0
 11
18.58463488
 21
10.6362881578
 31
0.0
 11
18.5955219629
 21
10.7141763093
 31
0.0
 11
18.6087833331
 21
10.7909889544
 31
0.0
 11
18.6251957484
 21
10.8674860653
 31
0.0
 11
18.6459935281
 21
10.9439449571
 31
0.0
 11
18.6732578953
 21
11.0196978577
 31
0.0
  0
SPLINE
  5
417
100
AcDbEntity
  8
RACCORDO
100
AcDbSpline
 62
7
  6
CONTINUOUS
 70
0
 71
3
 72
14
 73
10
 74
8
 42
0.0000001
 43
0.0000001
 44
0.0000000001
 12
-1.2620648737
 22
0.2499924845
 32
0.0
 13
-1.2615391589
 23
0.2491103622
 33
0.0
 40
0.0
 40
0.0
 40
0.0
 40
0.0
 40
0.1189232907
 40
0.2596783423
 40
0.4141736123
 40
0.571987045
 40
0.7253354712
 40
0.8701942988
 40
1.0
 40
1.0
 40
1.0
 40
1.0
 10
-1.209365995
 20
-50.1112538927
 30
0.0
 10
-1.2593956309
 20
-50.1013439164
 30
0.0
 10
-1.3677990824
 20
-50.0760209597
 30
0.0
 10
-1.5391083008
 20
-50.0293239537
 30
0.0
 10
-1.7255342446
 20
-49.9749414542
 30
0.0
 10
-1.9170256197
 20
-49.9186396865
 30
0.0
 10
-2.1051823915
 20
-49.8656519158
 30
0.0
 10
-2.2829060615
 20
-49.8200426447
 30
0.0
 10
-2.3978953678
 20
-49.7946220812
 30
0.0
 10
-2.4524803595
 20
-49.7838434327
 30
0.0
 11
-1.209365995
 21
-50.1112538927
 31
0.0
 11
-1.3584764412
 21
-50.0773204115
 31
0.0
 11
-1.5332816127
 21
-50.0303842635
 31
0.0
 11
-1.7241497765
 21
-49.975272836
 31
0.0
 11
-1.9189720113
 21
-49.9184769923
 31
0.0
 11
-2.1088921595
 21
-49.8654252846
 31
0.0
 11
-2.2894181555
 21
-49.8195088624
 31
0.0
 11
-2.4524803595
 21
-49.7838434327
 31
0.0
  0
LINE
  5
418
100
AcDbEntity
  8
0
100
AcDbLine
 62
7
  6
CONTINUOUS
 10
-45.1065455209
 20
-35.3777696624
 11
-45.1166830695
 21
-35.183840532
  0
SPLINE
  5
419
100
AcDbEntity
  8
RACCORDO
100
AcDbSpline
 62
253
  6
CONTINUOUS
 70
0
 71
3
 72
10
 73
6
 74
4
 42
0.0000001
 43
0.0000001
 44
0.0000000001
 12
-0.1128806258
 22
0.2719077162
 32
0.0
 13
-0.2240059227
 23
0.1910423733
 33
0.0
 40
0.0
 40
0.0
 40
0.0
 40
0.0
 40
0.3263189803
 40
0.6614039204
 40
1.0
 40
1.0
 40
1.0
 40
1.0
 10
18.6732580293
 20
11.019697879
 30
0.0
 10
18.6609796657
 20
11.0492740953
 30
0.0
 10
18.6308754973
 20
11.1071707088
 30
0.0
 10
18.572292454
 20
11.18633379
 30
0.0
 10
18.5251664266
 20
11.2331345571
 30
0.0
 10
18.4998839175
 20
11.2546966233
 30
0.0
 11
18.6732580293
 21
11.019697879
 31
0.0
 11
18.6291706583
 21
11.1050553668
 31
0.0
 11
18.5706031203
 21
11.184440335
 31
0.0
 11
18.4998839175
 21
11.2546966233
 31
0.0
  0
SPLINE
  5
41A
100
AcDbEntity
  8
RACCORDO
100
AcDbSpline
 62
253
  6
CONTINUOUS
 70
0
 71
3
 72
12
 73
8
 74
6
 42
0.0000001
 43
0.0000001
 44
0.0000000001
 12
0.6266035609
 22
-0.0831462542
 32
0.0
 13
0.6103639449
 23
-0.1643203486
 33
0.0
 40
0.0
 40
0.0
 40
0.0
 40
0.0
 40
0.1581582932
 40
0.3531741695
 40
0.5698454434
 40
0.7912277783
 40
1.0
 40
1.0
 40
1.0
 40
1.0
 10
-49.6657926456
 20
-29.4881215405
 30
0.0
 10
-49.6327584624
 20
-29.4925049637
 30
0.0
 10
-49.5592740679
 20
-29.5043806049
 30
0.0
 10
-49.4413227948
 20
-29.5268484984
 30
0.0
 10
-49.310862318
 20
-29.5546895344
 30
0.0
 10
-49.178150639
 20
-29.5857259302
 30
0.0
 10
-49.0903229478
 20
-29.6081388235
 30
0.0
 10
-49.0478472689
 20
-29.6195739983
 30
0.0
 11
-49.6657926456
 21
-29.4881215405
 31
0.0
 11
-49.5670194772
 21
-29.5035522288
 31
0.0
 11
-49.4458894654
 21
-29.5264149741
 31
0.0
 11
-49.3119298584
 21
-29.5549115449
 31
0.0
 11
-49.1756769338
 21
-29.5868006027
 31
0.0
 11
-49.0478472689
 21
-29.6195739983
 31
0.0
  0
SPLINE
  5
41B
100
AcDbEntity
  8
RACCORDO
100
AcDbSpline
 62
253
  6
CONTINUOUS
 70
0
 71
3
 72
10
 73
6
 74
4
 42
0.0000001
 43
0.0000001
 44
0.0000000001
 12
0.2038882804
 22
-0.0259758225
 32
0.0
 13
0.1796464984
 23
-0.0204454229
 33
0.0
 40
0.0
 40
0.0
 40
0.0
 40
0.0
 40
0.5505595132
 40
0.9676242274
 40
1.0
 40
1.0
 40
1.0
 40
1.0
 10
18.3314940041
 20
-42.9246646526
 30
0.0
 10
18.3689115482
 20
-42.9294317313
 30
0.0
 10
18.4327872704
 20
-42.9372169915
 30
0.0
 10
18.5055202188
 20
-42.9484545529
 30
0.0
 10
18.5325344924
 20
-42.9515263686
 30
0.0
 10
18.5344732237
 20
-42.9517470141
 30
0.0
 11
18.3314940041
 21
-42.9246646526
 31
0.0
 11
18.4437047488
 21
-42.9392909174
 31
0.0
 11
18.528613059
 21
-42.9510735394
 31
0.0
 11
18.5344732237
 21
-42.9517470141
 31
0.0
  0
SPLINE
  5
41C
100
AcDbEntity
  8
RACCORDO
100
AcDbSpline
 62
253
  6
CONTINUOUS
 70
0
 71
3
 72
10
 73
6
 74
4
 42
0.0000001
 43
0.0000001
 44
0.0000000001
 12
0.1902483738
 22
0.1321511307
 32
0.0
 13
0.1433601203
 23
0.1819512049
 33
0.0
 40
0.0
 40
0.0
 40
0.0
 40
0.0
 40
0.380986817
 40
0.7178170106
 40
1.0
 40
1.0
 40
1.0
 40
1.0
 10
18.4998834635
 20
-44.7450825652
 30
0.0
 10
18.5240441709
 20
-44.7282999523
 30
0.0
 10
18.5686219988
 20
-44.6952633637
 30
0.0
 10
18.6269584894
 20
-44.644572255
 30
0.0
 10
18.6597731044
 20
-44.6095901969
 30
0.0
 10
18.6732577001
 20
-44.5924756853
 30
0.0
 11
18.4998834635
 21
-44.7450825652
 31
0.0
 11
18.5706027933
 21
-44.6922873068
 31
0.0
 11
18.6291703755
 21
-44.6407351433
 31
0.0
 11
18.6732577001
 21
-44.5924756853
 31
0.0
  0
SPLINE
  5
41D
100
AcDbEntity
  8
RACCORDO
100
AcDbSpline
 62
7
  6
CONTINUOUS
 70
0
 71
3
 72
14
 73
10
 74
8
 42
0.0000001
 43
0.0000001
 44
0.0000000001
 12
1.2615250394
 22
-0.249107574
 32
0.0
 13
1.2620489213
 23
-0.2499976967
 33
0.0
 40
0.0
 40
0.0
 40
0.0
 40
0.0
 40
0.129807154
 40
0.274667603
 40
0.4280177455
 40
0.5858329445
 40
0.7403299437
 40
0.8810865707
 40
1.0
 40
1.0
 40
1.0
 40
1.0
 10
-2.4524803595
 20
-47.9044581912
 30
0.0
 10
-2.3978953678
 20
-47.9152368396
 30
0.0
 10
-2.2829060615
 20
-47.9406574031
 30
0.0
 10
-2.1051823915
 20
-47.9862666743
 30
0.0
 10
-1.9170256197
 20
-48.0392544449
 30
0.0
 10
-1.7255342446
 20
-48.0955562127
 30
0.0
 10
-1.5391083008
 20
-48.1499387121
 30
0.0
 10
-1.3678037117
 20
-48.1966344562
 30
0.0
 10
-1.2594049755
 20
-48.2219564919
 30
0.0
 10
-1.2093801204
 20
-48.2318658531
 30
0.0
 11
-2.4524803595
 21
-47.9044581912
 31
0.0
 11
-2.2894181555
 21
-47.9401236208
 31
0.0
 11
-2.1088921595
 21
-47.9860400431
 31
0.0
 11
-1.9189720113
 21
-48.0390917507
 31
0.0
 11
-1.7241497765
 21
-48.0958875945
 31
0.0
 11
-1.5332816127
 21
-48.150999022
 31
0.0
 11
-1.3584764412
 21
-48.1979351699
 31
0.0
 11
-1.2093801204
 21
-48.2318658531
 31
0.0
  0
SPLINE
  5
41E
100
AcDbEntity
  8
RACCORDO
100
AcDbSpline
 62
253
  6
CONTINUOUS
 70
0
 71
3
 72
10
 73
6
 74
4
 42
0.0000001
 43
0.0000001
 44
0.0000000001
 12
0.1538759403
 22
0.3647613746
 32
0.0
 13
0.185488033
 23
0.3497468442
 33
0.0
 40
0.0
 40
0.0
 40
0.0
 40
0.0
 40
0.2999008985
 40
0.6330516194
 40
1.0
 40
1.0
 40
1.0
 40
1.0
 10
18.6732578953
 20
11.0196978577
 30
0.0
 10
18.6886404062
 20
11.0561619457
 30
0.0
 10
18.7225649901
 20
11.1325226732
 30
0.0
 10
18.7797014728
 20
11.2514926818
 30
0.0
 10
18.8220300384
 20
11.3336277873
 30
0.0
 10
18.8447182162
 20
11.3764074667
 30
0.0
 11
18.6732578953
 21
11.0196978577
 31
0.0
 11
18.7212871779
 21
11.1282770925
 31
0.0
 11
18.7782974134
 21
11.2472100737
 31
0.0
 11
18.8447182162
 21
11.3764074667
 31
0.0
  0
SPLINE
  5
41F
100
AcDbEntity
  8
RACCORDO
100
AcDbSpline
 62
253
  6
CONTINUOUS
 70
0
 71
3
 72
10
 73
6
 74
4
 42
0.0000001
 43
0.0000001
 44
0.0000000001
 12
0.1429916083
 22
-0.4433680283
 32
0.0
 13
0.1975941343
 23
-0.4218748235
 33
0.0
 40
0.0
 40
0.0
 40
0.0
 40
0.0
 40
0.3146077651
 40
0.6482355653
 40
1.0
 40
1.0
 40
1.0
 40
1.0
 10
18.6732575465
 20
-44.5924757346
 30
0.0
 10
18.68825297
 20
-44.6389714094
 30
0.0
 10
18.7213411333
 20
-44.7340778905
 30
0.0
 10
18.7783669644
 20
-44.8785550551
 30
0.0
 10
18.8215492233
 20
-44.9758738029
 30
0.0
 10
18.8447180863
 20
-45.0253406558
 30
0.0
 11
18.6732575465
 21
-44.5924757346
 31
0.0
 11
18.7212837296
 21
-44.7309455156
 31
0.0
 11
18.7783035149
 21
-44.8755307881
 31
0.0
 11
18.8447180863
 21
-45.0253406558
 31
0.0
  0
SPLINE
  5
420
100
AcDbEntity
  8
RACCORDO
100
AcDbSpline
 62
253
  6
CONTINUOUS
 70
0
 71
3
 72
10
 73
6
 74
4
 42
0.0000001
 43
0.0000001
 44
0.0000000001
 12
0.3244837271
 22
-0.3042907332
 32
0.0
 13
0.3620905707
 23
-0.2584046402
 33
0.0
 40
0.0
 40
0.0
 40
0.0
 40
0.0
 40
0.3075479556
 40
0.6407154158
 40
1.0
 40
1.0
 40
1.0
 40
1.0
 10
18.4997394595
 20
-44.744950345
 30
0.0
 10
18.5330042285
 20
-44.7761450093
 30
0.0
 10
18.6039696535
 20
-44.8393743974
 30
0.0
 10
18.7190297414
 20
-44.9329690532
 30
0.0
 10
18.8013535649
 20
-44.9943937222
 30
0.0
 10
18.844718085
 20
-45.0253406568
 30
0.0
 11
18.4997394595
 21
-44.744950345
 31
0.0
 11
18.6017668965
 21
-44.8360945688
 31
0.0
 11
18.7166382237
 21
-44.9297409791
 31
0.0
 11
18.844718085
 21
-45.0253406568
 31
0.0
  0
SPLINE
  5
421
100
AcDbEntity
  8
RACCORDO
100
AcDbSpline
 62
253
  6
CONTINUOUS
 70
0
 71
3
 72
10
 73
6
 74
4
 42
0.0000001
 43
0.0000001
 44
0.0000000001
 12
-0.3861743664
 22
0.2444549385
 32
0.0
 13
-0.3602072414
 23
0.2813176166
 33
0.0
 40
0.0
 40
0.0
 40
0.0
 40
0.0
 40
0.317374979
 40
0.6510844509
 40
1.0
 40
1.0
 40
1.0
 40
1.0
 10
-49.8165478695
 20
24.7448002857
 30
0.0
 10
-49.8574018966
 20
24.7706615793
 30
0.0
 10
-49.9402949304
 20
24.8251765456
 30
0.0
 10
-50.0648615956
 20
24.9129275063
 30
0.0
 10
-50.1478719583
 20
24.9756122187
 30
0.0
 10
-50.1897659274
 20
25.0083309156
 30
0.0
 11
-49.8165478695
 21
24.7448002857
 31
0.0
 11
-49.9377900627
 21
24.8244310145
 31
0.0
 11
-50.062484205
 21
24.9122584267
 31
0.0
 11
-50.1897659274
 21
25.0083309156
 31
0.0
  0
SPLINE
  5
422
100
AcDbEntity
  8
0
100
AcDbSpline
 62
7
  6
CONTINUOUS
 70
0
 71
3
 72
9
 73
5
 74
3
 42
0.0000001
 43
0.0000001
 44
0.0000000001
 12
-0.0367609553
 22
0.7163519386
 32
0.0
 13
-0.0358443545
 23
0.7163983939
 33
0.0
 40
0.0
 40
0.0
 40
0.0
 40
0.0
 40
0.5418017118
 40
1.0
 40
1.0
 40
1.0
 40
1.0
 10
-46.537522927
 20
-34.4712479804
 30
0.0
 10
-46.5441619765
 20
-34.3418744115
 30
0.0
 10
-46.5563327524
 20
-34.1030861719
 30
0.0
 10
-46.5683507782
 20
-33.8642901998
 30
0.0
 10
-46.5738253855
 20
-33.7548726939
 30
0.0
 11
-46.537522927
 21
-34.4712479804
 31
0.0
 11
-46.5573054313
 21
-34.0831203876
 31
0.0
 11
-46.5738253855
 21
-33.7548726939
 31
0.0
  0
LINE
  5
423
100
AcDbEntity
  8
0
100
AcDbLine
 62
7
  6
CONTINUOUS
 10
-45.2687687766
 20
-33.9530903001
 11
-45.280836775
 21
-33.7103211169
  0
SPLINE
  5
424
100
AcDbEntity
  8
RACCORDO
100
AcDbSpline
 62
253
  6
CONTINUOUS
 70
0
 71
3
 72
10
 73
6
 74
4
 42
0.0000001
 43
0.0000001
 44
0.0000000001
 12
-0.1574557393
 22
0.1967425006
 32
0.0
 13
-0.2425346438
 23
0.0603759179
 33
0.0
 40
0.0
 40
0.0
 40
0.0
 40
0.0
 40
0.0992171254
 40
0.5205867829
 40
1.0
 40
1.0
 40
1.0
 40
1.0
 10
18.5451297715
 20
9.8519325854
 30
0.0
 10
18.5399223362
 20
9.8584393272
 30
0.0
 10
18.5109277111
 20
9.8912440476
 30
0.0
 10
18.441654059
 20
9.939747853
 30
0.0
 10
18.3702521767
 20
9.9653523005
 30
0.0
 10
18.3314940721
 20
9.9750006382
 30
0.0
 11
18.5451297715
 21
9.8519325854
 31
0.0
 11
18.5286135874
 21
9.8706692428
 31
0.0
 11
18.4437052735
 21
9.9329747398
 31
0.0
 11
18.3314940721
 21
9.9750006382
 31
0.0
  0
SPLINE
  5
425
100
AcDbEntity
  8
RACCORDO
100
AcDbSpline
 62
7
  6
CONTINUOUS
 70
0
 71
3
 72
10
 73
6
 74
4
 42
0.0000001
 43
0.0000001
 44
0.0000000001
 12
-0.0061495942
 22
-0.1471442523
 32
0.0
 13
0.1371562892
 23
-0.0271237216
 33
0.0
 40
0.0
 40
0.0
 40
0.0
 40
0.0
 40
0.0731716939
 40
0.4064997663
 40
1.0
 40
1.0
 40
1.0
 40
1.0
 10
-0.8638804611
 20
-49.9733777655
 30
0.0
 10
-0.8640304531
 20
-49.9769666969
 30
0.0
 10
-0.8613856054
 20
-49.9969455626
 30
0.0
 10
-0.8051528988
 20
-50.009841329
 30
0.0
 10
-0.7686367828
 20
-50.0220767527
 30
0.0
 10
-0.7415026862
 20
-50.0274427311
 30
0.0
 11
-0.8638804611
 21
-49.9733777655
 31
0.0
 11
-0.8624233293
 21
-49.9836817662
 31
0.0
 11
-0.821801097
 21
-50.0065228478
 31
0.0
 11
-0.7415026862
 21
-50.0274427311
 31
0.0
  0
SPLINE
  5
426
100
AcDbEntity
  8
RACCORDO
100
AcDbSpline
 62
7
  6
CONTINUOUS
 70
0
 71
3
 72
13
 73
9
 74
7
 42
0.0000001
 43
0.0000001
 44
0.0000000001
 12
-2.6723632012
 22
56.9834911524
 32
0.0
 13
2.5292594863
 23
56.9900222447
 33
0.0
 40
0.0
 40
0.0
 40
0.0
 40
0.0
 40
0.1626804035
 40
0.327088903
 40
0.4931265443
 40
0.6606931859
 40
0.8296863534
 40
1.0
 40
1.0
 40
1.0
 40
1.0
 10
26.1339224746
 20
-46.8054350493
 30
0.0
 10
25.9890087666
 20
-43.7154026044
 30
0.0
 10
25.7479810961
 20
-37.5000441972
 30
0.0
 10
25.5323881461
 20
-28.1251767219
 30
0.0
 10
25.4609437599
 20
-18.6551735075
 30
0.0
 10
25.5337101286
 20
-9.0980100794
 30
0.0
 10
25.7506259076
 20
0.5382712045
 30
0.0
 10
25.9903333392
 20
6.986131205
 30
0.0
 10
26.1339224746
 20
10.2215240404
 30
0.0
 11
26.1339224746
 21
-46.8054350493
 31
0.0
 11
25.7735026725
 21
-37.5321507332
 31
0.0
 11
25.5571277896
 21
-28.1557800392
 31
0.0
 11
25.4849827422
 21
-18.6842516138
 31
0.0
 11
25.5571277896
 21
-9.1254971489
 31
0.0
 11
25.7735026726
 21
0.5124788083
 31
0.0
 11
26.1339224746
 21
10.2215240404
 31
0.0
  0
SPLINE
  5
427
100
AcDbEntity
  8
RACCORDO
100
AcDbSpline
 62
7
  6
CONTINUOUS
 70
0
 71
3
 72
13
 73
9
 74
7
 42
0.0000001
 43
0.0000001
 44
0.0000000001
 12
-2.6074891938
 22
-56.9876915772
 32
0.0
 13
2.7534790575
 23
-56.9808243558
 33
0.0
 40
0.0
 40
0.0
 40
0.0
 40
0.0
 40
0.170279121
 40
0.3392484221
 40
0.5068041897
 40
0.6728463217
 40
0.8372770907
 40
1.0
 40
1.0
 40
1.0
 40
1.0
 10
-57.5501804088
 20
26.7462407157
 30
0.0
 10
-57.6981807315
 20
23.5116360384
 30
0.0
 10
-57.9452515802
 20
17.0650131415
 30
0.0
 10
-58.1688220397
 20
7.4299787241
 30
0.0
 10
-58.2438163211
 20
-2.1268148924
 30
0.0
 10
-58.1701709238
 20
-11.5973247607
 30
0.0
 10
-57.9479498698
 20
-20.9735736118
 30
0.0
 10
-57.6995317831
 20
-27.1900232026
 30
0.0
 10
-57.5501804088
 20
-30.280718374
 30
0.0
 11
-57.5501804088
 21
26.7462407157
 31
0.0
 11
-57.9216631955
 21
17.0393800407
 31
0.0
 11
-58.1446796447
 21
7.4027155632
 31
0.0
 11
-58.219039164
 21
-2.1556016201
 31
0.0
 11
-58.1446796447
 21
-11.6275673271
 31
0.0
 11
-57.9216631955
 21
-21.0052495008
 31
0.0
 11
-57.5501804088
 21
-30.280718374
 31
0.0
  0
SPLINE
  5
428
100
AcDbEntity
  8
RACCORDO
100
AcDbSpline
 62
253
  6
CONTINUOUS
 70
0
 71
3
 72
18
 73
14
 74
12
 42
0.0000001
 43
0.0000001
 44
0.0000000001
 12
0.2470290844
 22
4.4583456808
 32
0.0
 13
3.8341576425
 23
2.2884721432
 33
0.0
 40
0.0
 40
0.0
 40
0.0
 40
0.0
 40
0.1015808372
 40
0.2049381935
 40
0.308613921
 40
0.4111971727
 40
0.5113282092
 40
0.6077123161
 40
0.6991757678
 40
0.784722081
 40
0.863601972
 40
0.9353748949
 40
1.0
 40
1.0
 40
1.0
 40
1.0
 10
28.4921443378
 20
16.5803528087
 30
0.0
 10
28.5005088115
 20
16.7313136376
 30
0.0
 10
28.5277521635
 20
17.0353847125
 30
0.0
 10
28.5979972989
 20
17.4896137395
 30
0.0
 10
28.696949931
 20
17.9400118563
 30
0.0
 10
28.8228810574
 20
18.3786335769
 30
0.0
 10
28.9735981785
 20
18.7978789251
 30
0.0
 10
29.1464849812
 20
19.1905015035
 30
0.0
 10
29.3385522112
 20
19.549738795
 30
0.0
 10
29.5464998532
 20
19.8694524529
 30
0.0
 10
29.7668879185
 20
20.1442574283
 30
0.0
 10
29.9959713655
 20
20.3694393457
 30
0.0
 10
30.1606113769
 20
20.490045721
 30
0.0
 10
30.243205657
 20
20.5393433053
 30
0.0
 11
28.4921443378
 21
16.5803528087
 31
0.0
 11
28.5322831766
 21
17.0321504405
 31
0.0
 11
28.6026710649
 21
17.4882608263
 31
0.0
 11
28.7020631072
 21
17.9403963513
 31
0.0
 11
28.8287110217
 21
18.38059285
 31
0.0
 11
28.9804067153
 21
18.8011757461
 31
0.0
 11
29.1544924985
 21
19.1947680176
 31
0.0
 11
29.3479133249
 21
19.5544621764
 31
0.0
 11
29.55727663
 21
19.8739551487
 31
0.0
 11
29.7789323407
 21
20.1476756492
 31
0.0
 11
30.0089754896
 21
20.3708059771
 31
0.0
 11
30.243205657
 21
20.5393433053
 31
0.0
  0
SPLINE
  5
429
100
AcDbEntity
  8
RACCORDO
100
AcDbSpline
 62
253
  6
CONTINUOUS
 70
0
 71
3
 72
15
 73
11
 74
9
 42
0.0000001
 43
0.0000001
 44
0.0000000001
 12
-2.741690924
 22
56.7368791428
 32
0.0
 13
2.5963260685
 23
56.7437169644
 33
0.0
 40
0.0
 40
0.0
 40
0.0
 40
0.0
 40
0.121898371
 40
0.2447550025
 40
0.3685314428
 40
0.4931950235
 40
0.6187100702
 40
0.7450402293
 40
0.8721508735
 40
1.0
 40
1.0
 40
1.0
 40
1.0
 10
28.1735423606
 20
-46.50099258
 30
0.0
 10
28.0621398082
 20
-44.1956148665
 30
0.0
 10
27.8673836122
 20
-39.5652896153
 30
0.0
 10
27.659552931
 20
-32.5903148633
 30
0.0
 10
27.5349355703
 20
-25.5609841374
 30
0.0
 10
27.4935804881
 20
-18.4803407035
 30
0.0
 10
27.5355024465
 20
-11.3513498762
 30
0.0
 10
27.6606867165
 20
-4.176995121
 30
0.0
 10
27.8690844867
 20
3.0396255587
 30
0.0
 10
28.062896354
 20
7.8633537075
 30
0.0
 10
28.1735423606
 20
10.2815652564
 30
0.0
 11
28.1735423606
 21
-46.50099258
 31
0.0
 11
27.8822173738
 21
-39.5829204403
 31
0.0
 11
27.6740443748
 21
-32.607390507
 31
0.0
 11
27.5491108569
 21
-25.5776170719
 31
0.0
 11
27.5074610053
 21
-18.4964637459
 31
0.0
 11
27.5491108582
 21
-11.3669436935
 31
0.0
 11
27.6740443774
 21
-4.1920887144
 31
0.0
 11
27.8822173766
 21
3.0251862378
 31
0.0
 11
28.1735423606
 21
10.2815652564
 31
0.0
  0
SPLINE
  5
42A
100
AcDbEntity
  8
RACCORDO
100
AcDbSpline
 62
253
  6
CONTINUOUS
 70
0
 71
3
 72
18
 73
14
 74
12
 42
0.0000001
 43
0.0000001
 44
0.0000000001
 12
-2.766061841
 22
-1.5611859861
 32
0.0
 13
-0.187764487
 23
3.1706693755
 33
0.0
 40
0.0
 40
0.0
 40
0.0
 40
0.0
 40
0.0806236487
 40
0.1543637816
 40
0.2243386827
 40
0.2945028219
 40
0.3687804024
 40
0.4502458807
 40
0.5408161993
 40
0.6413490825
 40
0.7518823149
 40
0.8718143708
 40
1.0
 40
1.0
 40
1.0
 40
1.0
 10
30.243205657
 20
-54.3553328014
 30
0.0
 10
30.168868991
 20
-54.3972889716
 30
0.0
 10
30.0188820562
 20
-54.4654773834
 30
0.0
 10
29.7836880627
 20
-54.5128251823
 30
0.0
 10
29.5548133043
 20
-54.4968750991
 30
0.0
 10
29.3391528243
 20
-54.4170713573
 30
0.0
 10
29.1424883996
 20
-54.2767732404
 30
0.0
 10
28.9679261277
 20
-54.0806829659
 30
0.0
 10
28.8172665152
 20
-53.8330895744
 30
0.0
 10
28.6922001093
 20
-53.5382569404
 30
0.0
 10
28.5944249983
 20
-53.2010145434
 30
0.0
 10
28.5254516076
 20
-52.8270845347
 30
0.0
 10
28.5001672407
 20
-52.5652753078
 30
0.0
 10
28.4921443378
 20
-52.4297972248
 30
0.0
 11
30.243205657
 21
-54.3553328014
 31
0.0
 11
30.0089621471
 21
-54.4588041466
 31
0.0
 11
29.7789186748
 21
-54.5028127389
 31
0.0
 11
29.5572628597
 21
-54.4864904864
 31
0.0
 11
29.3478997541
 21
-54.4101206819
 31
0.0
 11
29.1544794948
 21
-54.2750358616
 31
0.0
 11
28.9803951926
 21
-54.0836003023
 31
0.0
 11
28.8287016644
 21
-53.8391743594
 31
0.0
 11
28.7020559001
 21
-53.546048276
 31
0.0
 11
28.6026659817
 21
-53.209332325
 31
0.0
 11
28.5322799882
 21
-52.8349604401
 31
0.0
 11
28.4921443378
 21
-52.4297972248
 31
0.0
  0
SPLINE
  5
42B
100
AcDbEntity
  8
RACCORDO
100
AcDbSpline
 62
253
  6
CONTINUOUS
 70
0
 71
3
 72
10
 73
6
 74
4
 42
0.0000001
 43
0.0000001
 44
0.0000000001
 12
-0.5474254994
 22
0.108184904
 32
0.0
 13
-0.4437020005
 23
0.3382219723
 33
0.0
 40
0.0
 40
0.0
 40
0.0
 40
0.0
 40
0.0333937038
 40
0.6030632677
 40
1.0
 40
1.0
 40
1.0
 40
1.0
 10
27.9868106654
 20
-55.7002869301
 30
0.0
 10
27.9807171438
 20
-55.6990826986
 30
0.0
 10
27.8708579516
 20
-55.676411599
 30
0.0
 10
27.6946968706
 20
-55.6110540566
 30
0.0
 10
27.5433982262
 20
-55.5130775783
 30
0.0
 10
27.4846910188
 20
-55.4683266701
 30
0.0
 11
27.9868106654
 21
-55.7002869301
 31
0.0
 11
27.9685616838
 21
-55.6965206042
 31
0.0
 11
27.6708603785
 21
-55.5876769447
 31
0.0
 11
27.4846910188
 21
-55.4683266701
 31
0.0
  0
SPLINE
  5
42C
100
AcDbEntity
  8
RACCORDO
100
AcDbSpline
 62
253
  6
CONTINUOUS
 70
0
 71
3
 72
13
 73
9
 74
7
 42
0.0000001
 43
0.0000001
 44
0.0000000001
 12
-2.1410326015
 22
1.9079833273
 32
0.0
 13
-0.1683714247
 23
2.8566494237
 33
0.0
 40
0.0
 40
0.0
 40
0.0
 40
0.0
 40
0.1288346124
 40
0.272184879
 40
0.4313999935
 40
0.6065268983
 40
0.7966002545
 40
1.0
 40
1.0
 40
1.0
 40
1.0
 10
27.3958287501
 20
-55.3949632076
 30
0.0
 10
27.3038823816
 20
-55.3130251101
 30
0.0
 10
27.1304666742
 20
-55.1174697823
 30
0.0
 10
26.9162622087
 20
-54.7640403045
 30
0.0
 10
26.7384335674
 20
-54.3431197882
 30
0.0
 10
26.5993928616
 20
-53.8615919227
 30
0.0
 10
26.5012623677
 20
-53.327424913
 30
0.0
 10
26.465286109
 20
-52.9533537454
 30
0.0
 10
26.4538705407
 20
-52.7596731569
 30
0.0
 11
27.3958287501
 21
-55.3949632076
 31
0.0
 11
27.1482884889
 21
-55.1217520024
 31
0.0
 11
26.9325794764
 21
-54.7728342247
 31
0.0
 11
26.7524795757
 21
-54.3543303495
 31
0.0
 11
26.6111281829
 21
-53.8735336381
 31
0.0
 11
26.5110133018
 21
-53.3389115147
 31
0.0
 11
26.4538705407
 21
-52.7596731569
 31
0.0
  0
SPLINE
  5
42D
100
AcDbEntity
  8
RACCORDO
100
AcDbSpline
 62
253
  6
CONTINUOUS
 70
0
 71
3
 72
12
 73
8
 74
6
 42
0.0000001
 43
0.0000001
 44
0.0000000001
 12
1.0812043758
 22
0.6105953821
 32
0.0
 13
0.0058226578
 23
1.2387481144
 33
0.0
 40
0.0
 40
0.0
 40
0.0
 40
0.0
 40
0.1704258252
 40
0.3668437569
 40
0.5695616113
 40
0.7804490737
 40
1.0
 40
1.0
 40
1.0
 40
1.0
 10
29.6881142534
 20
-55.4012053848
 30
0.0
 10
29.7495359694
 20
-55.3665183109
 30
0.0
 10
29.8737503105
 20
-55.2776647751
 30
0.0
 10
30.0309682883
 20
-55.0998653605
 30
0.0
 10
30.1519608594
 20
-54.8766161347
 30
0.0
 10
30.2262496617
 20
-54.6241645194
 30
0.0
 10
30.2427795337
 20
-54.4459889001
 30
0.0
 10
30.243205657
 20
-54.3553328014
 30
0.0
 11
29.6881142534
 21
-55.4012053848
 31
0.0
 11
29.8599953478
 21
-55.2784213965
 31
0.0
 11
30.0217196428
 21
-55.0966318027
 31
0.0
 11
30.1422915919
 21
-54.8763519249
 31
0.0
 11
30.2170781613
 21
-54.6260461964
 31
0.0
 11
30.243205657
 21
-54.3553328014
 31
0.0
  0
SPLINE
  5
42E
100
AcDbEntity
  8
RACCORDO
100
AcDbSpline
 62
253
  6
CONTINUOUS
 70
0
 71
3
 72
18
 73
14
 74
12
 42
0.0000001
 43
0.0000001
 44
0.0000000001
 12
-5.4092920571
 22
-3.3398875988
 32
0.0
 13
-0.3426408173
 23
-6.3480616729
 33
0.0
 40
0.0
 40
0.0
 40
0.0
 40
0.0
 40
0.0639806572
 40
0.1352403999
 40
0.2137878473
 40
0.2991644428
 40
0.3906006068
 40
0.4870783639
 40
0.5874028543
 40
0.6902569461
 40
0.7942572568
 40
0.8979682614
 40
1.0
 40
1.0
 40
1.0
 40
1.0
 10
-54.8014782932
 20
38.7422483306
 30
0.0
 10
-54.9168416469
 20
38.6710189294
 30
0.0
 10
-55.1465222751
 20
38.4970688368
 30
0.0
 10
-55.4653878129
 20
38.1736717195
 30
0.0
 10
-55.7720787747
 20
37.779593863
 30
0.0
 10
-56.061478039
 20
37.3214921488
 30
0.0
 10
-56.3287931795
 20
36.8070658057
 30
0.0
 10
-56.5694276319
 20
36.2450997186
 30
0.0
 10
-56.7792176876
 20
35.6452676004
 30
0.0
 10
-56.9545185535
 20
35.0179328416
 30
0.0
 10
-57.0922780484
 20
34.3739647392
 30
0.0
 10
-57.1901120427
 20
33.7245237853
 30
0.0
 10
-57.2280667694
 20
33.2898344921
 30
0.0
 10
-57.2397201822
 20
33.0739332357
 30
0.0
 11
-54.8014782932
 21
38.7422483306
 31
0.0
 11
-55.1279002987
 21
38.4995764264
 31
0.0
 11
-55.4481640369
 21
38.1791735617
 31
0.0
 11
-55.7567466285
 21
37.7865833712
 31
0.0
 11
-56.0482141059
 21
37.328718384
 31
0.0
 11
-56.3174866207
 21
36.8135608777
 31
0.0
 11
-56.5598434004
 21
36.2501365308
 31
0.0
 11
-56.7710354312
 21
35.6483243062
 31
0.0
 11
-56.9473640859
 21
35.0186735228
 31
0.0
 11
-57.0857556101
 21
34.3721581155
 31
0.0
 11
-57.183774134
 21
33.7201626303
 31
0.0
 11
-57.2397201822
 21
33.0739332357
 31
0.0
  0
SPLINE
  5
42F
100
AcDbEntity
  8
RACCORDO
100
AcDbSpline
 62
253
  6
CONTINUOUS
 70
0
 71
3
 72
13
 73
9
 74
7
 42
0.0000001
 43
0.0000001
 44
0.0000000001
 12
0.1910276248
 22
3.4642211222
 32
0.0
 13
1.3595283181
 23
3.1928672986
 33
0.0
 40
0.0
 40
0.0
 40
0.0
 40
0.0
 40
0.1869199028
 40
0.3769273881
 40
0.5675079725
 40
0.7560621297
 40
0.9400847172
 40
1.0
 40
1.0
 40
1.0
 40
1.0
 10
26.4538707007
 20
16.547342903
 30
0.0
 10
26.465772989
 20
16.7631868615
 30
0.0
 10
26.5045415445
 20
17.1977445515
 30
0.0
 10
26.6044792318
 20
17.846825093
 30
0.0
 10
26.7452029124
 20
18.4902631887
 30
0.0
 10
26.9242780072
 20
19.1169088509
 30
0.0
 10
27.0928984276
 20
19.5882025517
 30
0.0
 10
27.2003109221
 20
19.8491593393
 30
0.0
 10
27.2274630966
 20
19.9129265216
 30
0.0
 11
26.4538707007
 21
16.547342903
 31
0.0
 11
26.5110133738
 21
17.1933361112
 31
0.0
 11
26.6111282694
 21
17.8449176354
 31
0.0
 11
26.7524797107
 21
18.4908485614
 31
0.0
 11
26.9325796423
 21
19.1197546481
 31
0.0
 11
27.1482886352
 21
19.7206749288
 31
0.0
 11
27.2274630966
 21
19.9129265216
 31
0.0
  0
SPLINE
  5
430
100
AcDbEntity
  8
RACCORDO
100
AcDbSpline
 62
253
  6
CONTINUOUS
 70
0
 71
3
 72
12
 73
8
 74
6
 42
0.0000001
 43
0.0000001
 44
0.0000000001
 12
1.0585091508
 22
2.0436474783
 32
0.0
 13
1.9726468701
 23
1.1843241591
 33
0.0
 40
0.0
 40
0.0
 40
0.0
 40
0.0
 40
0.1672479341
 40
0.4041619595
 40
0.6225322434
 40
0.8211284787
 40
1.0
 40
1.0
 40
1.0
 40
1.0
 10
27.4846735577
 20
20.4602585253
 30
0.0
 10
27.543684714
 20
20.5741904649
 30
0.0
 10
27.6934436902
 20
20.8457986937
 30
0.0
 10
27.9531817939
 20
21.2472013054
 30
0.0
 10
28.2665383359
 20
21.6400264575
 30
0.0
 10
28.5923530454
 20
21.9620899368
 30
0.0
 10
28.826644571
 20
22.1347465705
 30
0.0
 10
28.9442613532
 20
22.2053605252
 30
0.0
 11
27.4846735577
 21
20.4602585253
 31
0.0
 11
27.670860621
 21
20.7970959789
 31
0.0
 11
27.9685619451
 21
21.253729997
 31
0.0
 11
28.2837445574
 21
21.6450169115
 31
0.0
 11
28.610857867
 21
21.9640672227
 31
0.0
 11
28.9442613532
 21
22.2053605252
 31
0.0
  0
SPLINE
  5
431
100
AcDbEntity
  8
RACCORDO
100
AcDbSpline
 62
7
  6
CONTINUOUS
 70
0
 71
3
 72
15
 73
11
 74
9
 42
0.0000001
 43
0.0000001
 44
0.0000000001
 12
-1.3881318893
 22
0.2744900461
 32
0.0
 13
-1.3882045383
 23
0.2741223947
 33
0.0
 40
0.0
 40
0.0
 40
0.0
 40
0.0
 40
0.0890865341
 40
0.2032964407
 40
0.333983109
 40
0.4756963853
 40
0.618705408
 40
0.7563905122
 40
0.8851543048
 40
1.0
 40
1.0
 40
1.0
 40
1.0
 10
-27.0100065028
 20
-44.8403215444
 30
0.0
 10
-27.0512277891
 20
-44.8321704222
 30
0.0
 10
-27.1443659979
 20
-44.8089899799
 30
0.0
 10
-27.2953442699
 20
-44.7639922119
 30
0.0
 10
-27.4687318488
 20
-44.7074770899
 30
0.0
 10
-27.6544899586
 20
-44.6451580851
 30
0.0
 10
-27.8437655891
 20
-44.5829324953
 30
0.0
 10
-28.02839359
 20
-44.5261893328
 30
0.0
 10
-28.2019295982
 20
-44.4788277732
 30
0.0
 10
-28.3140306984
 20
-44.4533570757
 30
0.0
 10
-28.3671738035
 20
-44.4428631501
 30
0.0
 11
-27.0100065028
 21
-44.8403215444
 31
0.0
 11
-27.1326183791
 21
-44.8110462148
 31
0.0
 11
-27.2877056582
 21
-44.7656022444
 31
0.0
 11
-27.4637043017
 21
-44.7088483901
 31
0.0
 11
-27.6539753354
 21
-44.6455433823
 31
0.0
 11
-27.8463566762
 21
-44.5827843377
 31
0.0
 11
-28.032716158
 21
-44.5259753026
 31
0.0
 11
-28.2086073451
 21
-44.4784368359
 31
0.0
 11
-28.3671738035
 21
-44.4428631501
 31
0.0
  0
SPLINE
  5
432
100
AcDbEntity
  8
RACCORDO
100
AcDbSpline
 62
253
  6
CONTINUOUS
 70
0
 71
3
 72
15
 73
11
 74
9
 42
0.0000001
 43
0.0000001
 44
0.0000000001
 12
0.2004939928
 22
-3.4735854837
 32
0.0
 13
3.4030399378
 23
-0.7720360608
 33
0.0
 40
0.0
 40
0.0
 40
0.0
 40
0.0
 40
0.167185239
 40
0.3232843635
 40
0.4669185204
 40
0.597243198
 40
0.714245003
 40
0.8189907203
 40
0.9139701127
 40
1.0
 40
1.0
 40
1.0
 40
1.0
 10
-57.239720348
 20
-36.2330828329
 30
0.0
 10
-57.2285471359
 20
-36.4266602393
 30
0.0
 10
-57.1933504965
 20
-36.8004043692
 30
0.0
 10
-57.0973179796
 20
-37.3340675999
 30
0.0
 10
-56.9612636212
 20
-37.8149086527
 30
0.0
 10
-56.7872777242
 20
-38.2349843386
 30
0.0
 10
-56.5777241288
 20
-38.5874629502
 30
0.0
 10
-56.3348979471
 20
-38.8663703718
 30
0.0
 10
-56.064196549
 20
-39.0634243258
 30
0.0
 10
-55.8654678891
 20
-39.1390650316
 30
0.0
 10
-55.7678801751
 20
-39.1612044233
 30
0.0
 11
-57.239720348
 21
-36.2330828329
 31
0.0
 11
-57.1837742016
 21
-36.8120849964
 31
0.0
 11
-57.085755695
 21
-37.3462931583
 31
0.0
 11
-56.9473642137
 21
-37.8265053896
 31
0.0
 11
-56.7710355879
 21
-38.2442645684
 31
0.0
 11
-56.5598435348
 21
-38.5922904028
 31
0.0
 11
-56.3174867726
 21
-38.8644780462
 31
0.0
 11
-56.0482143334
 21
-39.0560545426
 31
0.0
 11
-55.7678801751
 21
-39.1612044233
 31
0.0
  0
SPLINE
  5
433
100
AcDbEntity
  8
RACCORDO
100
AcDbSpline
 62
7
  6
CONTINUOUS
 70
0
 71
3
 72
13
 73
9
 74
7
 42
0.0000001
 43
0.0000001
 44
0.0000000001
 12
-0.5027564755
 22
0.0992770195
 32
0.0
 13
-0.022540537
 23
-0.5393381015
 33
0.0
 40
0.0
 40
0.0
 40
0.0
 40
0.0
 40
0.2834665014
 40
0.5345009679
 40
0.7392825569
 40
0.8896862304
 40
0.9774838653
 40
1.0
 40
1.0
 40
1.0
 40
1.0
 10
-0.3668829791
 20
-49.9719523887
 30
0.0
 10
-0.4143878522
 20
-49.9625718189
 30
0.0
 10
-0.504713235
 20
-49.9469924268
 30
0.0
 10
-0.6294218304
 20
-49.9346772955
 30
0.0
 10
-0.7359121335
 20
-49.9313335063
 30
0.0
 10
-0.804966786
 20
-49.9427761633
 30
0.0
 10
-0.8589803278
 20
-49.9495434979
 30
0.0
 10
-0.8637112858
 20
-49.9693298291
 30
0.0
 10
-0.8638804611
 20
-49.9733777655
 30
0.0
 11
-0.3668829791
 21
-49.9719523887
 31
0.0
 11
-0.5101486114
 21
-49.9479246735
 31
0.0
 11
-0.6381883772
 21
-49.9354472863
 31
0.0
 11
-0.7431292789
 21
-49.9347345683
 31
0.0
 11
-0.8195967503
 21
-49.9444052689
 31
0.0
 11
-0.8610249932
 21
-49.9619576813
 31
0.0
 11
-0.8638804611
 21
-49.9733777655
 31
0.0
  0
SPLINE
  5
434
100
AcDbEntity
  8
RACCORDO
100
AcDbSpline
 62
253
  6
CONTINUOUS
 70
0
 71
3
 72
15
 73
11
 74
9
 42
0.0000001
 43
0.0000001
 44
0.0000000001
 12
2.0219611964
 22
-0.4009816307
 32
0.0
 13
1.9008514952
 23
0.7974189245
 33
0.0
 40
0.0
 40
0.0
 40
0.0
 40
0.0
 40
0.1308993177
 40
0.2696901778
 40
0.411523487
 40
0.5514070854
 40
0.6844402058
 40
0.8060518188
 40
0.9122596095
 40
1.0
 40
1.0
 40
1.0
 40
1.0
 10
26.1339238193
 20
10.2215246171
 30
0.0
 10
26.2221482664
 20
10.2040285431
 30
0.0
 10
26.4051994522
 20
10.1742988032
 30
0.0
 10
26.6865563975
 20
10.1448876695
 30
0.0
 10
26.9752441833
 20
10.1300288155
 30
0.0
 10
27.260361838
 20
10.1302855489
 30
0.0
 10
27.5311618204
 20
10.1456077993
 30
0.0
 10
27.7775517618
 20
10.1753162117
 30
0.0
 10
27.9903127369
 20
10.2181417082
 30
0.0
 10
28.1179485431
 20
10.2582433072
 30
0.0
 10
28.1735423606
 20
10.2815652564
 30
0.0
 11
26.1339238193
 21
10.2215246171
 31
0.0
 11
26.4001575776
 21
10.1776318292
 31
0.0
 11
26.6846702675
 21
10.1475854175
 31
0.0
 11
26.976648589
 21
10.1325273417
 31
0.0
 11
27.2649954939
 21
10.1330299119
 31
0.0
 11
27.5387519396
 21
10.1490740362
 31
0.0
 11
27.7875133993
 21
10.1800499448
 31
0.0
 11
28.0018253005
 21
10.2247803637
 31
0.0
 11
28.1735423606
 21
10.2815652564
 31
0.0
  0
SPLINE
  5
435
100
AcDbEntity
  8
RACCORDO
100
AcDbSpline
 62
253
  6
CONTINUOUS
 70
0
 71
3
 72
15
 73
11
 74
9
 42
0.0000001
 43
0.0000001
 44
0.0000000001
 12
1.939544926
 22
-0.3437617078
 32
0.0
 13
1.8383719345
 23
0.7067716473
 33
0.0
 40
0.0
 40
0.0
 40
0.0
 40
0.0
 40
0.0925728345
 40
0.2378786676
 40
0.3863300754
 40
0.5326547067
 40
0.671677805
 40
0.798568042
 40
0.9091024644
 40
1.0
 40
1.0
 40
1.0
 40
1.0
 10
26.5399419041
 20
16.531270264
 30
0.0
 10
26.5997916279
 20
16.5206625987
 30
0.0
 10
26.7541647362
 20
16.4965746076
 30
0.0
 10
27.0063726588
 20
16.4687935383
 30
0.0
 10
27.2948913119
 20
16.4514409239
 30
0.0
 10
27.5797940953
 20
16.4483705408
 30
0.0
 10
27.8503310173
 20
16.4596589745
 30
0.0
 10
28.096403001
 20
16.4847734167
 30
0.0
 10
28.3087846251
 20
16.5226199701
 30
0.0
 10
28.4364431783
 20
16.5589382084
 30
0.0
 10
28.4921443378
 20
16.5803528087
 30
0.0
 11
26.5399419041
 21
16.531270264
 31
0.0
 11
26.7200827899
 21
16.5029718447
 31
0.0
 11
27.004518375
 21
16.4713542186
 31
0.0
 11
27.2963723368
 21
16.4537757794
 31
0.0
 11
27.5845520958
 21
16.450904636
 31
0.0
 11
27.8581047193
 21
16.4628499127
 31
0.0
 11
28.1066332124
 21
16.4891576021
 31
0.0
 11
28.3206916796
 21
16.5288278199
 31
0.0
 11
28.4921443378
 21
16.5803528087
 31
0.0
  0
SPLINE
  5
436
100
AcDbEntity
  8
RACCORDO
100
AcDbSpline
 62
253
  6
CONTINUOUS
 70
0
 71
3
 72
15
 73
11
 74
9
 42
0.0000001
 43
0.0000001
 44
0.0000000001
 12
2.2248936142
 22
-0.4484228654
 32
0.0
 13
0.0107266942
 23
-2.2696078072
 33
0.0
 40
0.0
 40
0.0
 40
0.0
 40
0.0
 40
0.1163132906
 40
0.2374261161
 40
0.3626605393
 40
0.4908020711
 40
0.6202855145
 40
0.74939076
 40
0.8764409332
 40
1.0
 40
1.0
 40
1.0
 40
1.0
 10
28.9442170147
 20
22.2053339057
 30
0.0
 10
29.0304785806
 20
22.1879480594
 30
0.0
 10
29.203221764
 20
22.1338905143
 30
0.0
 10
29.4463599097
 20
22.0037652037
 30
0.0
 10
29.6703383009
 20
21.8280375349
 30
0.0
 10
29.8667466145
 20
21.6134525461
 30
0.0
 10
30.0283521288
 20
21.3681020572
 30
0.0
 10
30.1491111931
 20
21.1011458101
 30
0.0
 10
30.2244638677
 20
20.8226776409
 30
0.0
 10
30.2427638636
 20
20.6328201795
 30
0.0
 10
30.243205657
 20
20.5393433053
 30
0.0
 11
28.9442170147
 21
22.2053339057
 31
0.0
 11
29.1964740581
 21
22.1275115913
 31
0.0
 11
29.4392894343
 21
21.9986681457
 31
0.0
 11
29.6633327863
 21
21.8237544719
 31
0.0
 11
29.8599950859
 21
21.6094917547
 31
0.0
 11
30.0217194417
 21
21.3641131943
 31
0.0
 11
30.1422914779
 21
21.0970476397
 31
0.0
 11
30.2170781268
 21
20.8185572787
 31
0.0
 11
30.243205657
 21
20.5393433053
 31
0.0
  0
SPLINE
  5
437
100
AcDbEntity
  8
RACCORDO
100
AcDbSpline
 62
253
  6
CONTINUOUS
 70
0
 71
3
 72
15
 73
11
 74
9
 42
0.0000001
 43
0.0000001
 44
0.0000000001
 12
2.0680143658
 22
-0.4067318213
 32
0.0
 13
1.6927778135
 23
1.2556342882
 33
0.0
 40
0.0
 40
0.0
 40
0.0
 40
0.0
 40
0.1276558081
 40
0.2628579255
 40
0.4014393659
 40
0.5390340457
 40
0.6713332857
 40
0.7943471295
 40
0.9046976018
 40
1.0
 40
1.0
 40
1.0
 40
1.0
 10
26.1339235224
 20
-46.8054342573
 30
0.0
 10
26.2219215374
 20
-46.8227414837
 30
0.0
 10
26.4050758805
 20
-46.8488085753
 30
0.0
 10
26.6869903281
 20
-46.8640781198
 30
0.0
 10
26.9762111633
 20
-46.8563978018
 30
0.0
 10
27.2618856524
 20
-46.8260394274
 30
0.0
 10
27.5333482944
 20
-46.77417245
 30
0.0
 10
27.7805922575
 20
-46.7027584403
 30
0.0
 10
27.9945028857
 20
-46.6145625402
 30
0.0
 10
28.1197670988
 20
-46.5408808997
 30
0.0
 10
28.1735423606
 20
-46.50099258
 30
0.0
 11
26.1339235224
 21
-46.8054342573
 31
0.0
 11
26.4001573902
 21
-46.8442703769
 31
0.0
 11
26.6846701951
 21
-46.860163463
 31
0.0
 11
26.9766486198
 21
-46.8525094714
 31
0.0
 11
27.2649956005
 21
-46.8215992956
 31
0.0
 11
27.5387520831
 21
-46.7686077124
 31
0.0
 11
27.7875135356
 21
-46.6955487348
 31
0.0
 11
28.0018253863
 21
-46.6051990681
 31
0.0
 11
28.1735423606
 21
-46.50099258
 31
0.0
  0
SPLINE
  5
438
100
AcDbEntity
  8
RACCORDO
100
AcDbSpline
 62
253
  6
CONTINUOUS
 70
0
 71
3
 72
15
 73
11
 74
9
 42
0.0000001
 43
0.0000001
 44
0.0000000001
 12
2.0006472475
 22
-0.3220645654
 32
0.0
 13
1.5997815511
 23
1.2427323064
 33
0.0
 40
0.0
 40
0.0
 40
0.0
 40
0.0
 40
0.0896124102
 40
0.2302024003
 40
0.3743591278
 40
0.5176087123
 40
0.6555313345
 40
0.7840355207
 40
0.8996656981
 40
1.0
 40
1.0
 40
1.0
 40
1.0
 10
26.5399408989
 20
-52.7751162343
 30
0.0
 10
26.5997018395
 20
-52.7847365616
 30
0.0
 10
26.7541252825
 20
-52.8041549448
 30
0.0
 10
27.0068976086
 20
-52.8165207168
 30
0.0
 10
27.296062779
 20
-52.8064796775
 30
0.0
 10
27.5816398204
 20
-52.7729650997
 30
0.0
 10
27.852977223
 20
-52.7172613422
 30
0.0
 10
28.1000793317
 20
-52.6414620368
 30
0.0
 10
28.313843691
 20
-52.5484826213
 30
0.0
 10
28.4386400161
 20
-52.4713601176
 30
0.0
 10
28.4921443378
 20
-52.4297972248
 30
0.0
 11
26.5399408989
 21
-52.7751162343
 31
0.0
 11
26.7200821116
 21
-52.7980645002
 31
0.0
 11
27.0045178929
 21
-52.8124815091
 31
0.0
 11
27.2963720502
 21
-52.8024572586
 31
0.0
 11
27.5845519828
 21
-52.7683727438
 31
0.0
 11
27.8581047379
 21
-52.7115234265
 31
0.0
 11
28.1066333026
 21
-52.6340699981
 31
0.0
 11
28.3206917669
 21
-52.5389562574
 31
0.0
 11
28.4921443378
 21
-52.4297972248
 31
0.0
  0
SPLINE
  5
439
100
AcDbEntity
  8
RACCORDO
100
AcDbSpline
 62
253
  6
CONTINUOUS
 70
0
 71
3
 72
13
 73
9
 74
7
 42
0.0000001
 43
0.0000001
 44
0.0000000001
 12
-0.8687555036
 22
0.1708127016
 32
0.0
 13
0.048269287
 23
0.9031385743
 33
0.0
 40
0.0
 40
0.0
 40
0.0
 40
0.0
 40
0.2758993912
 40
0.5141169762
 40
0.7081293787
 40
0.8553611188
 40
0.96147693
 40
1.0
 40
1.0
 40
1.0
 40
1.0
 10
-57.5501793618
 20
26.7462411647
 30
0.0
 10
-57.6300757333
 20
26.7619502048
 30
0.0
 10
-57.7781555785
 20
26.7959201678
 30
0.0
 10
-57.9774570871
 20
26.8593464667
 30
0.0
 10
-58.134163739
 20
26.9301971053
 30
0.0
 10
-58.2429819988
 20
27.0050063404
 30
0.0
 10
-58.2977273832
 20
27.0778660599
 30
0.0
 10
-58.3012429903
 20
27.1215243862
 30
0.0
 10
-58.3006231633
 20
27.1331216097
 30
0.0
 11
-57.5501793618
 21
26.7462411647
 31
0.0
 11
-57.7880347877
 21
26.8018885675
 31
0.0
 11
-57.9884526396
 21
26.8675991899
 31
0.0
 11
-58.1438157394
 21
26.9408756066
 31
0.0
 11
-58.2482192713
 21
27.018932843
 31
0.0
 11
-58.2976952031
 21
27.0988042204
 31
0.0
 11
-58.3006231633
 21
27.1331216097
 31
0.0
  0
SPLINE
  5
43A
100
AcDbEntity
  8
RACCORDO
100
AcDbSpline
 62
253
  6
CONTINUOUS
 70
0
 71
3
 72
13
 73
9
 74
7
 42
0.0000001
 43
0.0000001
 44
0.0000000001
 12
-0.8611942124
 22
0.1691636332
 32
0.0
 13
0.0561026223
 23
0.8969368289
 33
0.0
 40
0.0
 40
0.0
 40
0.0
 40
0.0
 40
0.2782230344
 40
0.5180782845
 40
0.7127263964
 40
0.8591435444
 40
0.9623807875
 40
1.0
 40
1.0
 40
1.0
 40
1.0
 10
-57.2397156906
 20
33.0740168808
 30
0.0
 10
-57.3195837129
 20
33.0897052872
 30
0.0
 10
-57.4675665936
 20
33.123334619
 30
0.0
 10
-57.6667499102
 20
33.1852350379
 30
0.0
 10
-57.8234810593
 20
33.2535982545
 30
0.0
 10
-57.9317578277
 20
33.3247865871
 30
0.0
 10
-57.9880041867
 20
33.3941627533
 30
0.0
 10
-57.9913722883
 20
33.4364581422
 30
0.0
 10
-57.9906687761
 20
33.4477054946
 30
0.0
 11
-57.2397156906
 21
33.0740168808
 31
0.0
 11
-57.4776038103
 21
33.1291030521
 31
0.0
 11
-57.6781036005
 21
33.1932434286
 31
0.0
 11
-57.8335945973
 21
33.264000205
 31
0.0
 11
-57.9381670014
 21
33.3386841045
 31
0.0
 11
-57.9878462937
 21
33.4144565905
 31
0.0
 11
-57.9906687761
 21
33.4477054946
 31
0.0
  0
SPLINE
  5
43B
100
AcDbEntity
  8
RACCORDO
100
AcDbSpline
 62
253
  6
CONTINUOUS
 70
0
 71
3
 72
11
 73
7
 74
5
 42
0.0000001
 43
0.0000001
 44
0.0000000001
 12
-0.7983600808
 22
0.1544218152
 32
0.0
 13
-0.6923216832
 23
-0.4302644668
 33
0.0
 40
0.0
 40
0.0
 40
0.0
 40
0.0
 40
0.3142444208
 40
0.6176184804
 40
0.9140505219
 40
1.0
 40
1.0
 40
1.0
 40
1.0
 10
-54.8015217075
 20
38.7422215279
 30
0.0
 10
-54.8851484412
 20
38.7583969259
 30
0.0
 10
-55.0533191326
 20
38.7738283006
 30
0.0
 10
-55.3010717598
 20
38.7416584254
 30
0.0
 10
-55.4764576704
 20
38.6748577191
 30
0.0
 10
-55.566622375
 20
38.6231144295
 30
0.0
 10
-55.5864572708
 20
38.6107874274
 30
0.0
 11
-54.8015217075
 21
38.7422215279
 31
0.0
 11
-55.056080784
 21
38.7644778395
 31
0.0
 11
-55.300606722
 21
38.7318673662
 31
0.0
 11
-55.5257034145
 21
38.6456432095
 31
0.0
 11
-55.5864572708
 21
38.6107874274
 31
0.0
  0
SPLINE
  5
43C
100
AcDbEntity
  8
RACCORDO
100
AcDbSpline
 62
253
  6
CONTINUOUS
 70
0
 71
3
 72
13
 73
9
 74
7
 42
0.0000001
 43
0.0000001
 44
0.0000000001
 12
-0.9357712442
 22
0.1855197539
 32
0.0
 13
-0.0401557495
 23
0.9608174359
 33
0.0
 40
0.0
 40
0.0
 40
0.0
 40
0.0
 40
0.2573202783
 40
0.4834709899
 40
0.6749038147
 40
0.8327136385
 40
0.9656971125
 40
1.0
 40
1.0
 40
1.0
 40
1.0
 10
-57.5501790636
 20
-30.2807173571
 30
0.0
 10
-57.6304433692
 20
-30.2648046922
 30
0.0
 10
-57.7799968397
 20
-30.2276158812
 30
0.0
 10
-57.9808613538
 20
-30.1500520898
 30
0.0
 10
-58.1392283415
 20
-30.0561466839
 30
0.0
 10
-58.2505039889
 20
-29.9475822249
 30
0.0
 10
-58.2951003397
 20
-29.8504898257
 30
0.0
 10
-58.3007329318
 20
-29.7971409673
 30
0.0
 10
-58.3011920845
 20
-29.7861546965
 30
0.0
 11
-57.5501790636
 21
-30.2807173571
 31
0.0
 11
-57.7880344029
 21
-30.2200133
 31
0.0
 11
-57.9884522041
 21
-30.1401493903
 31
0.0
 11
-58.1438152966
 21
-30.0441609632
 31
0.0
 11
-58.2482188658
 21
-29.9356961883
 31
0.0
 11
-58.2976948738
 21
-29.8188774189
 31
0.0
 11
-58.3011920845
 21
-29.7861546965
 31
0.0
  0
SPLINE
  5
43D
100
AcDbEntity
  8
RACCORDO
100
AcDbSpline
 62
253
  6
CONTINUOUS
 70
0
 71
3
 72
13
 73
9
 74
7
 42
0.0000001
 43
0.0000001
 44
0.0000000001
 12
-0.9421864497
 22
0.1869423596
 32
0.0
 13
-0.0510949631
 23
0.966228768
 33
0.0
 40
0.0
 40
0.0
 40
0.0
 40
0.0
 40
0.2557295119
 40
0.4809862885
 40
0.6725312458
 40
0.8317795898
 40
0.9676410895
 40
1.0
 40
1.0
 40
1.0
 40
1.0
 10
-57.2397147224
 20
-36.233163158
 30
0.0
 10
-57.3200296827
 20
-36.2172275986
 30
0.0
 10
-57.4697936263
 20
-36.1796837384
 30
0.0
 10
-57.6708928313
 20
-36.1006123031
 30
0.0
 10
-57.8295576906
 20
-36.0042215305
 30
0.0
 10
-57.9409866511
 20
-35.892147816
 30
0.0
 10
-57.9848120399
 20
-35.7932240319
 30
0.0
 10
-57.9907394252
 20
-35.7392777857
 30
0.0
 10
-57.991290551
 20
-35.7288557489
 30
0.0
 11
-57.2397147224
 21
-36.233163158
 31
0.0
 11
-57.477602693
 21
-36.1719322215
 31
0.0
 11
-57.6781023978
 21
-36.0905913082
 31
0.0
 11
-57.8335933869
 21
-35.9922319656
 31
0.0
 11
-57.9381658693
 21
-35.8805925655
 31
0.0
 11
-57.9878453286
 21
-35.7599162187
 31
0.0
 11
-57.991290551
 21
-35.7288557489
 31
0.0
  0
SPLINE
  5
43E
100
AcDbEntity
  8
RACCORDO
100
AcDbSpline
 62
7
  6
CONTINUOUS
 70
0
 71
3
 72
12
 73
8
 74
6
 42
0.0000001
 43
0.0000001
 44
0.0000000001
 12
-0.1968894492
 22
0.038891339
 32
0.0
 13
-0.1728737047
 23
-0.1012756304
 33
0.0
 40
0.0
 40
0.0
 40
0.0
 40
0.0
 40
0.0059517875
 40
0.2366475605
 40
0.4750899372
 40
0.727857597
 40
1.0
 40
1.0
 40
1.0
 40
1.0
 10
-0.1947754764
 20
50.6104595086
 30
0.0
 10
-0.1951660911
 20
50.6105366662
 30
0.0
 10
-0.2107055951
 20
50.6135620361
 30
0.0
 10
-0.2425539648
 20
50.6162355611
 30
0.0
 10
-0.2907248419
 20
50.6104289583
 30
0.0
 10
-0.3395963005
 20
50.5950818816
 30
0.0
 10
-0.3710709471
 20
50.5793112166
 30
0.0
 10
-0.3867530356
 20
50.5701240854
 30
0.0
 11
-0.1947754764
 21
50.6104595086
 31
0.0
 11
-0.1959479468
 21
50.6106877736
 31
0.0
 11
-0.2419995903
 21
50.6146411033
 31
0.0
 11
-0.2894558385
 21
50.6091481441
 31
0.0
 11
-0.3378616893
 21
50.5942615615
 31
0.0
 11
-0.3867530356
 21
50.5701240854
 31
0.0
  0
SPLINE
  5
43F
100
AcDbEntity
  8
RACCORDO
100
AcDbSpline
 62
7
  6
CONTINUOUS
 70
0
 71
3
 72
19
 73
15
 74
13
 42
0.0000001
 43
0.0000001
 44
0.0000000001
 12
0.7881738675
 22
-0.1556870478
 32
0.0
 13
-0.0
 23
-0.8020463659
 33
0.0
 40
0.0
 40
0.0
 40
0.0
 40
0.0
 40
0.0560918741
 40
0.1155118996
 40
0.1784337249
 40
0.2461401563
 40
0.3195011911
 40
0.3990101785
 40
0.48484558
 40
0.576932126
 40
0.674992178
 40
0.7785865075
 40
0.8871464813
 40
1.0
 40
1.0
 40
1.0
 40
1.0
 10
-4.5249024953
 20
51.4655098669
 30
0.0
 10
-4.5101657789
 20
51.4625989408
 30
0.0
 10
-4.4804348383
 20
51.4534730324
 30
0.0
 10
-4.4382953227
 20
51.430469693
 30
0.0
 10
-4.3987575627
 20
51.398154216
 30
0.0
 10
-4.3624946208
 20
51.3571515169
 30
0.0
 10
-4.3297695684
 20
51.3079054927
 30
0.0
 10
-4.3008267809
 20
51.2508906304
 30
0.0
 10
-4.2758986518
 20
51.1866352998
 30
0.0
 10
-4.255198501
 20
51.1157326711
 30
0.0
 10
-4.2389115949
 20
51.0388419057
 30
0.0
 10
-4.2271881269
 20
50.9566824447
 30
0.0
 10
-4.2201383657
 20
50.8700316959
 30
0.0
 10
-4.2186253802
 20
50.8108230077
 30
0.0
 10
-4.2186253802
 20
50.7806517562
 30
0.0
 11
-4.5249024953
 21
51.4655098669
 31
0.0
 11
-4.481869462
 21
51.4523764171
 31
0.0
 11
-4.4399339329
 21
51.429734427
 31
0.0
 11
-4.4006704489
 21
51.398029249
 31
0.0
 11
-4.3644554614
 21
51.3575648669
 31
0.0
 11
-4.3316361934
 21
51.3087292462
 31
0.0
 11
-4.3025273105
 21
51.2519906142
 31
0.0
 11
-4.2774079034
 21
51.1878929711
 31
0.0
 11
-4.2565188128
 21
51.117050874
 31
0.0
 11
-4.2400603194
 21
51.0401435445
 31
0.0
 11
-4.2281902246
 21
50.9579083568
 31
0.0
 11
-4.2210223367
 21
50.8711337674
 31
0.0
 11
-4.2186253802
 21
50.7806517562
 31
0.0
  0
SPLINE
  5
440
100
AcDbEntity
  8
0
100
AcDbSpline
 62
7
  6
CONTINUOUS
 70
0
 71
3
 72
23
 73
19
 74
17
 42
0.0000001
 43
0.0000001
 44
0.0000000001
 12
4.9109155886
 22
-5.0271492682
 32
0.0
 13
0.0
 23
-7.0256818799
 33
0.0
 40
0.0
 40
0.0
 40
0.0
 40
0.0
 40
0.0410487926
 40
0.0892259289
 40
0.1396094432
 40
0.1922993051
 40
0.247357624
 40
0.304812801
 40
0.3646634187
 40
0.4268817543
 40
0.4914168868
 40
0.5581974202
 40
0.6271338642
 40
0.6981207219
 40
0.7710383323
 40
0.8457545135
 40
0.9221260416
 40
1.0
 40
1.0
 40
1.0
 40
1.0
 10
54.5369498813
 20
5.450969527
 30
0.0
 10
54.6041455998
 20
5.3821833911
 30
0.0
 10
54.7443452716
 20
5.2269613645
 30
0.0
 10
54.9447034158
 20
4.9681916136
 30
0.0
 10
55.1406564372
 20
4.672770837
 30
0.0
 10
55.3244009575
 20
4.3509522148
 30
0.0
 10
55.4954290548
 20
4.0036725702
 30
0.0
 10
55.6532627181
 20
3.6319394092
 30
0.0
 10
55.797456351
 20
3.2368303901
 30
0.0
 10
55.9275993515
 20
2.8194916384
 30
0.0
 10
56.043318497
 20
2.3811351982
 30
0.0
 10
56.1442800284
 20
1.9230358491
 30
0.0
 10
56.2301914114
 20
1.4465275302
 30
0.0
 10
56.3008027895
 20
0.9529992497
 30
0.0
 10
56.3559081628
 20
0.4438915247
 30
0.0
 10
56.3953463026
 20
-0.0793103344
 30
0.0
 10
56.4190015117
 20
-0.615071575
 30
0.0
 10
56.4241565018
 20
-0.9763222729
 30
0.0
 10
56.4241565018
 20
-1.1586948258
 30
0.0
 11
54.5369498813
 21
5.450969527
 31
0.0
 11
54.7305733384
 21
5.2372117135
 31
0.0
 11
54.9382499457
 21
4.9699342094
 31
0.0
 11
55.1343785924
 21
4.6752575
 31
0.0
 11
55.3183839996
 21
4.3540459228
 31
0.0
 11
55.4897264476
 21
4.0072416469
 31
0.0
 11
55.6479033595
 21
3.6358619088
 31
0.0
 11
55.7924507752
 21
3.2409960293
 31
0.0
 11
55.9229447122
 21
2.8238022182
 31
0.0
 11
56.0390024093
 21
2.3855041766
 31
0.0
 11
56.1402834492
 21
1.9273875084
 31
0.0
 11
56.2264907573
 21
1.4507959486
 31
0.0
 11
56.2973714726
 21
0.9571274224
 31
0.0
 11
56.3527176899
 21
0.4478299446
 31
0.0
 11
56.392367069
 21
-0.0756026275
 31
0.0
 11
56.4162033116
 21
-0.6116349761
 31
0.0
 11
56.4241565018
 21
-1.1586948258
 31
0.0
  0
SPLINE
  5
441
100
AcDbEntity
  8
0
100
AcDbSpline
 62
7
  6
CONTINUOUS
 70
0
 71
3
 72
38
 73
34
 74
32
 42
0.0000001
 43
0.0000001
 44
0.0000000001
 12
14.2192308656
 22
6.1326509694
 32
0.0
 13
0.0
 23
15.4806834029
 33
0.0
 40
0.0
 40
0.0
 40
0.0
 40
0.0
 40
0.0120589043
 40
0.0336257691
 40
0.0561761558
 40
0.0797611355
 40
0.1044140062
 40
0.1301521937
 40
0.1569790619
 40
0.1848855628
 40
0.2138517035
 40
0.243847834
 40
0.2748357736
 40
0.306769797
 40
0.3395975028
 40
0.3732605849
 40
0.4076955255
 40
0.4428342239
 40
0.4786045752
 40
0.5149310083
 40
0.5517349918
 40
0.5889355155
 40
0.6264495529
 40
0.664192508
 40
0.7020786529
 40
0.7400215572
 40
0.777934513
 40
0.8157309588
 40
0.8533249037
 40
0.8906313555
 40
0.9275667548
 40
0.9640494192
 40
1.0
 40
1.0
 40
1.0
 40
1.0
 10
50.538065194
 20
-14.8001231673
 30
0.0
 10
50.5952213088
 20
-14.7754721502
 30
0.0
 10
50.7528597492
 20
-14.7026945473
 30
0.0
 10
51.0077913522
 20
-14.5640779903
 30
0.0
 10
51.3015506502
 20
-14.374427241
 30
0.0
 10
51.5943072328
 20
-14.1555264791
 30
0.0
 10
51.8852353188
 20
-13.9080256702
 30
0.0
 10
52.1735093345
 20
-13.6326511616
 30
0.0
 10
52.4583061674
 20
-13.3302064826
 30
0.0
 10
52.738808082
 20
-13.0015720735
 30
0.0
 10
53.0142058771
 20
-12.6477040834
 30
0.0
 10
53.2837020455
 20
-12.2696324224
 30
0.0
 10
53.5465138231
 20
-11.868458236
 30
0.0
 10
53.8018760805
 20
-11.4453509363
 30
0.0
 10
54.0490440472
 20
-11.0015448837
 30
0.0
 10
54.2872958717
 20
-10.5383357917
 30
0.0
 10
54.5159350297
 20
-10.0570769007
 30
0.0
 10
54.734292588
 20
-9.5591749573
 30
0.0
 10
54.9417293352
 20
-9.0460860255
 30
0.0
 10
55.1376377839
 20
-8.5193111482
 30
0.0
 10
55.3214440481
 20
-7.9803918795
 30
0.0
 10
55.4926095998
 20
-7.4309056997
 30
0.0
 10
55.6506329028
 20
-6.8724613296
 30
0.0
 10
55.7950509254
 20
-6.3066939565
 30
0.0
 10
55.9254405294
 20
-5.735260385
 30
0.0
 10
56.0414197337
 20
-5.1598341306
 30
0.0
 10
56.1426488519
 20
-4.5821004474
 30
0.0
 10
56.2288314982
 20
-4.00375139
 30
0.0
 10
56.2997154635
 20
-3.4264805969
 30
0.0
 10
56.3550934508
 20
-2.8519790188
 30
0.0
 10
56.3948036926
 20
-2.2819271361
 30
0.0
 10
56.418730351
 20
-1.7180001185
 30
0.0
 10
56.4241565018
 20
-1.3442080125
 30
0.0
 10
56.4241565018
 20
-1.1586948258
 30
0.0
 11
50.538065194
 21
-14.8001231673
 31
0.0
 11
50.7076377249
 21
-14.7219618248
 31
0.0
 11
51.001229096
 21
-14.5629865013
 31
0.0
 11
51.2948204671
 21
-14.3741169612
 31
0.0
 11
51.5875506841
 21
-14.1559071913
 31
0.0
 11
51.8785611189
 21
-13.9089972386
 31
0.0
 11
52.1669981877
 21
-13.6341113323
 31
0.0
 11
52.4520158549
 21
-13.3320557604
 31
0.0
 11
52.7327781145
 21
-13.0037165038
 31
0.0
 11
53.0084614425
 21
-12.6500566381
 31
0.0
 11
53.2782572123
 21
-12.2721135086
 31
0.0
 11
53.5413740662
 21
-11.8709956876
 31
0.0
 11
53.7970402373
 21
-11.447879723
 31
0.0
 11
54.0445058126
 21
-11.0040066865
 31
0.0
 11
54.2830449329
 21
-10.5406785345
 31
0.0
 11
54.5119579219
 21
-10.059254288
 31
0.0
 11
54.7305733384
 21
-9.5611460475
 31
0.0
 11
54.9382499457
 21
-9.0478148503
 31
0.0
 11
55.1343785924
 21
-8.520766385
 31
0.0
 11
55.3183839996
 21
-7.9815465758
 31
0.0
 11
55.4897264476
 21
-7.4317370472
 31
0.0
 11
55.6479033595
 21
-6.8729504854
 31
0.0
 11
55.7924507752
 21
-6.3068259075
 31
0.0
 11
55.9229447122
 21
-5.7350238544
 31
0.0
 11
56.0390024093
 21
-5.1592215203
 31
0.0
 11
56.1402834492
 21
-4.5811078324
 31
0.0
 11
56.2264907573
 21
-4.0023784978
 31
0.0
 11
56.2973714726
 21
-3.4247310295
 31
0.0
 11
56.3527176899
 21
-2.8498597669
 31
0.0
 11
56.392367069
 21
-2.2794509065
 31
0.0
 11
56.4162033116
 21
-1.7151775558
 31
0.0
 11
56.4241565018
 21
-1.1586948258
 31
0.0
  0
SPLINE
  5
442
100
AcDbEntity
  8
0
100
AcDbSpline
 62
7
  6
CONTINUOUS
 70
0
 71
3
 72
14
 73
10
 74
8
 42
0.0000001
 43
0.0000001
 44
0.0000000001
 12
1.8070930548
 22
-0.4501864111
 32
0.0
 13
1.7096255169
 23
0.737349065
 33
0.0
 40
0.0
 40
0.0
 40
0.0
 40
0.0
 40
0.1188239794
 40
0.2731936949
 40
0.4296753806
 40
0.5897464876
 40
0.7547477349
 40
0.9258491241
 40
1.0
 40
1.0
 40
1.0
 40
1.0
 10
48.0961644737
 20
-15.261728555
 30
0.0
 10
48.167739803
 20
-15.2795595352
 30
0.0
 10
48.334125366
 20
-15.3132473832
 30
0.0
 10
48.6000341041
 20
-15.3391862743
 30
0.0
 10
48.8927781834
 20
-15.3343942998
 30
0.0
 10
49.18975037
 20
-15.2968345546
 30
0.0
 10
49.4900265587
 20
-15.2267014323
 30
0.0
 10
49.7314817781
 20
-15.1450038784
 30
0.0
 10
49.8723319582
 20
-15.0872497331
 30
0.0
 10
49.9145887014
 20
-15.0690247067
 30
0.0
 11
48.0961644737
 21
-15.261728555
 31
0.0
 11
48.3129841896
 21
-15.3056112068
 31
0.0
 11
48.5989402064
 21
-15.3336508202
 31
0.0
 11
48.8901644091
 21
-15.3291846042
 31
0.0
 11
49.1858025872
 21
-15.2922256591
 31
0.0
 11
49.4849875828
 21
-15.2228823919
 31
0.0
 11
49.7868418347
 21
-15.1213581983
 31
0.0
 11
49.9145887014
 21
-15.0690247067
 31
0.0
  0
SPLINE
  5
443
100
AcDbEntity
  8
0
100
AcDbSpline
 62
7
  6
CONTINUOUS
 70
0
 71
3
 72
31
 73
27
 74
25
 42
0.0000001
 43
0.0000001
 44
0.0000000001
 12
4.0581831832
 22
6.5998592931
 32
0.0
 13
5.4153238347
 23
-5.5434960674
 33
0.0
 40
0.0
 40
0.0
 40
0.0
 40
0.0
 40
0.0180287539
 40
0.0799489589
 40
0.1398873276
 40
0.1977675672
 40
0.2535304311
 40
0.3071359692
 40
0.3585661019
 40
0.4078275509
 40
0.4549551366
 40
0.5000153951
 40
0.5431103766
 40
0.5843813368
 40
0.6240118202
 40
0.6622293895
 40
0.6993050403
 40
0.7355493097
 40
0.7713044048
 40
0.8069324288
 40
0.8428008159
 40
0.8792669737
 40
0.9166644009
 40
0.9552920518
 40
0.9954077307
 40
1.0
 40
1.0
 40
1.0
 40
1.0
 10
48.3873009329
 20
3.0099583654
 30
0.0
 10
48.4116889281
 20
3.0496207783
 30
0.0
 10
48.5207479255
 20
3.2249453569
 30
0.0
 10
48.7187561465
 20
3.5271988848
 30
0.0
 10
48.988252315
 20
3.9052705459
 30
0.0
 10
49.2636501101
 20
4.259138536
 30
0.0
 10
49.5441520247
 20
4.587772945
 30
0.0
 10
49.8289488575
 20
4.8902176241
 30
0.0
 10
50.1172228733
 20
5.1655921327
 30
0.0
 10
50.4081509593
 20
5.4130929416
 30
0.0
 10
50.7009075419
 20
5.6319937035
 30
0.0
 10
50.9946668398
 20
5.8216444528
 30
0.0
 10
51.2886037854
 20
5.981469782
 30
0.0
 10
51.5818927368
 20
6.1109664897
 30
0.0
 10
51.8737031632
 20
6.209701974
 30
0.0
 10
52.1631922251
 20
6.2773156328
 30
0.0
 10
52.4494959779
 20
6.3135260811
 30
0.0
 10
52.7317235139
 20
6.3181459087
 30
0.0
 10
53.0089599907
 20
6.2911020182
 30
0.0
 10
53.2802824571
 20
6.2324545065
 30
0.0
 10
53.5447859063
 20
6.1424047378
 30
0.0
 10
53.8016101236
 20
6.0212874513
 30
0.0
 10
54.0499568784
 20
5.8695503969
 30
0.0
 10
54.2890930871
 20
5.6877310536
 30
0.0
 10
54.4475581903
 20
5.5416792039
 30
0.0
 10
54.5286603394
 20
5.4594552694
 30
0.0
 10
54.5369498813
 20
5.450969527
 30
0.0
 11
48.3873009329
 21
3.0099583654
 31
0.0
 11
48.4610841259
 21
3.1285621501
 31
0.0
 11
48.7242009798
 21
3.5296799711
 31
0.0
 11
48.9939967495
 21
3.9076231005
 31
0.0
 11
49.2696800775
 21
4.2612829663
 31
0.0
 11
49.5504423372
 21
4.5896222229
 31
0.0
 11
49.8354600044
 21
4.8916777948
 31
0.0
 11
50.1238970732
 21
5.166563701
 31
0.0
 11
50.4149075079
 21
5.4134736538
 31
0.0
 11
50.7076377249
 21
5.6316834237
 31
0.0
 11
51.001229096
 21
5.8205529638
 31
0.0
 11
51.2948204671
 21
5.9795282873
 31
0.0
 11
51.5875506841
 21
6.1081430921
 31
0.0
 11
51.8785611189
 21
6.2060201289
 31
0.0
 11
52.1669981877
 21
6.2728723074
 31
0.0
 11
52.4520158549
 21
6.3085035387
 31
0.0
 11
52.7327781145
 21
6.3128093103
 31
0.0
 11
53.0084614425
 21
6.2857769925
 31
0.0
 11
53.2782572123
 21
6.2274858758
 31
0.0
 11
53.5413740662
 21
6.1381069382
 31
0.0
 11
53.7970402373
 21
6.0179023434
 31
0.0
 11
54.0445058126
 21
5.8672246722
 31
0.0
 11
54.2830449329
 21
5.6865158882
 31
0.0
 11
54.5119579219
 21
5.4763060415
 31
0.0
 11
54.5369498813
 21
5.450969527
 31
0.0
  0
SPLINE
  5
444
100
AcDbEntity
  8
0
100
AcDbSpline
 62
7
  6
CONTINUOUS
 70
0
 71
3
 72
29
 73
25
 74
23
 42
0.0000001
 43
0.0000001
 44
0.0000000001
 12
1.4309859294
 22
-7.1324891236
 32
0.0
 13
6.6814252608
 23
2.8816501743
 33
0.0
 40
0.0
 40
0.0
 40
0.0
 40
0.0
 40
0.0644259035
 40
0.1267565382
 40
0.186849517
 40
0.2446556583
 40
0.3001481863
 40
0.3533257321
 40
0.4042157265
 40
0.4528781574
 40
0.4994095794
 40
0.5439471256
 40
0.5866720647
 40
0.6278121894
 40
0.6676420725
 40
0.7064801132
 40
0.7446815023
 40
0.7826268941
 40
0.8207076223
 40
0.8593093423
 40
0.8987965195
 40
0.9394998895
 40
0.9817080744
 40
1.0
 40
1.0
 40
1.0
 40
1.0
 10
45.8622798088
 20
-10.6703447865
 30
0.0
 10
45.8930106626
 20
-10.8235171386
 30
0.0
 10
45.9591851537
 20
-11.1237409377
 30
0.0
 10
46.0748588405
 20
-11.5619251759
 30
0.0
 10
46.2050018411
 20
-11.9792639276
 30
0.0
 10
46.349195474
 20
-12.3743729467
 30
0.0
 10
46.5070291372
 20
-12.7461061077
 30
0.0
 10
46.6780572345
 20
-13.0933857523
 30
0.0
 10
46.8618017549
 20
-13.4152043745
 30
0.0
 10
47.0577547763
 20
-13.7106251512
 30
0.0
 10
47.2653803616
 20
-13.9787810636
 30
0.0
 10
47.4841149587
 20
-14.2188725954
 30
0.0
 10
47.713365105
 20
-14.4301645912
 30
0.0
 10
47.9525013136
 20
-14.6119839344
 30
0.0
 10
48.2008480685
 20
-14.7637209888
 30
0.0
 10
48.4576722857
 20
-14.8848382753
 30
0.0
 10
48.7221757349
 20
-14.974888044
 30
0.0
 10
48.9934982013
 20
-15.0335355557
 30
0.0
 10
49.2707346781
 20
-15.0605794462
 30
0.0
 10
49.5529622142
 20
-15.0559596186
 30
0.0
 10
49.839265967
 20
-15.0197491703
 30
0.0
 10
50.1287550288
 20
-14.9521355115
 30
0.0
 10
50.3615362069
 20
-14.8733728619
 30
0.0
 10
50.4973264827
 20
-14.8176934774
 30
0.0
 10
50.538065194
 20
-14.8001231673
 30
0.0
 11
45.8622798088
 21
-10.6703447865
 31
0.0
 11
45.9634557828
 21
-11.1279377142
 31
0.0
 11
46.0795134799
 21
-11.5662357557
 31
0.0
 11
46.2100074169
 21
-11.9834295668
 31
0.0
 11
46.3545548325
 21
-12.3782954463
 31
0.0
 11
46.5127317445
 21
-12.7496751844
 31
0.0
 11
46.6840741925
 21
-13.0964794603
 31
0.0
 11
46.8680795996
 21
-13.4176910375
 31
0.0
 11
47.0642082464
 21
-13.7123677469
 31
0.0
 11
47.2718848537
 21
-13.9796452511
 31
0.0
 11
47.4905002702
 21
-14.218739579
 31
0.0
 11
47.7194132592
 21
-14.4289494258
 31
0.0
 11
47.9579523795
 21
-14.6096582097
 31
0.0
 11
48.2054179548
 21
-14.7603358809
 31
0.0
 11
48.4610841259
 21
-14.8805404757
 31
0.0
 11
48.7242009798
 21
-14.9699194133
 31
0.0
 11
48.9939967495
 21
-15.02821053
 31
0.0
 11
49.2696800775
 21
-15.0552428478
 31
0.0
 11
49.5504423372
 21
-15.0509370762
 31
0.0
 11
49.8354600044
 21
-15.0153058449
 31
0.0
 11
50.1238970732
 21
-14.9484536664
 31
0.0
 11
50.4149075079
 21
-14.8505766296
 31
0.0
 11
50.538065194
 21
-14.8001231673
 31
0.0
  0
SPLINE
  5
445
100
AcDbEntity
  8
0
100
AcDbSpline
 62
7
  6
CONTINUOUS
 70
0
 71
3
 72
15
 73
11
 74
9
 42
0.0000001
 43
0.0000001
 44
0.0000000001
 12
1.8770339938
 22
-0.2512240235
 32
0.0
 13
1.3230209979
 23
-1.3543348326
 33
0.0
 40
0.0
 40
0.0
 40
0.0
 40
0.0
 40
0.0290335335
 40
0.1802984343
 40
0.3325838383
 40
0.4874071806
 40
0.646184387
 40
0.8101847196
 40
0.980502731
 40
1.0
 40
1.0
 40
1.0
 40
1.0
 10
52.4226265089
 20
6.8104870296
 30
0.0
 10
52.4407921521
 20
6.8080557225
 30
0.0
 10
52.5534342822
 20
6.7917137101
 30
0.0
 10
52.7589882205
 20
6.7472823471
 30
0.0
 10
53.0333477666
 20
6.6538770862
 30
0.0
 10
53.2997419323
 20
6.5282466498
 30
0.0
 10
53.557342743
 20
6.3708554721
 30
0.0
 10
53.8053897983
 20
6.18226106
 30
0.0
 10
53.9697597296
 20
6.0307669327
 30
0.0
 10
54.053883959
 20
5.9454791173
 30
0.0
 10
54.0624823911
 20
5.9366771738
 30
0.0
 11
52.4226265089
 21
6.8104870296
 31
0.0
 11
52.4770384372
 21
6.8025917697
 31
0.0
 11
52.7568875097
 21
6.7421285721
 31
0.0
 11
53.0298087923
 21
6.6494191392
 31
0.0
 11
53.29500176
 21
6.5247354038
 31
0.0
 11
53.551688556
 21
6.3684430848
 31
0.0
 11
53.7991162738
 21
6.1810006143
 31
0.0
 11
54.0365591653
 21
5.9629577936
 31
0.0
 11
54.0624823911
 21
5.9366771738
 31
0.0
  0
SPLINE
  5
446
100
AcDbEntity
  8
0
100
AcDbSpline
 62
7
  6
CONTINUOUS
 70
0
 71
3
 72
16
 73
12
 74
10
 42
0.0000001
 43
0.0000001
 44
0.0000000001
 12
2.8555815534
 22
-1.1585496841
 32
0.0
 13
1.3035104366
 23
-2.7911328298
 33
0.0
 40
0.0
 40
0.0
 40
0.0
 40
0.0
 40
0.0959805504
 40
0.1957197017
 40
0.2987398666
 40
0.4057286107
 40
0.5172563562
 40
0.633777023
 40
0.7556340103
 40
0.8830691033
 40
1.0
 40
1.0
 40
1.0
 40
1.0
 10
53.0920015308
 20
6.8901876748
 30
0.0
 10
53.1833616273
 20
6.853121596
 30
0.0
 10
53.3654104914
 20
6.7671131013
 30
0.0
 10
53.6276167748
 20
6.6069080319
 30
0.0
 10
53.8811759868
 20
6.4141226329
 30
0.0
 10
54.1242528791
 20
6.1900869996
 30
0.0
 10
54.3561799988
 20
5.9355148461
 30
0.0
 10
54.5763280897
 20
5.6511856672
 30
0.0
 10
54.7840996103
 20
5.3379472005
 30
0.0
 10
54.9706572903
 20
5.0112014807
 30
0.0
 10
55.0824104917
 20
4.7864460587
 30
0.0
 10
55.1332173731
 20
4.6776561705
 30
0.0
 11
53.0920015308
 21
6.8901876748
 31
0.0
 11
53.3594459921
 21
6.7642075177
 31
0.0
 11
53.6218369392
 21
6.604442036
 31
0.0
 11
53.8747630507
 21
6.4128341773
 31
0.0
 11
54.1174824509
 21
6.1899459605
 31
0.0
 11
54.3492832018
 21
5.9364311552
 31
0.0
 11
54.5694853919
 21
5.653033364
 31
0.0
 11
54.7774431304
 21
5.3405838414
 31
0.0
 11
54.9725464412
 21
4.9999990556
 31
0.0
 11
55.1332173731
 21
4.6776561705
 31
0.0
  0
SPLINE
  5
447
100
AcDbEntity
  8
0
100
AcDbSpline
 62
7
  6
CONTINUOUS
 70
0
 71
3
 72
17
 73
13
 74
11
 42
0.0000001
 43
0.0000001
 44
0.0000000001
 12
3.0685560287
 22
0.0020793362
 32
0.0
 13
2.2568208004
 23
2.0773782958
 33
0.0
 40
0.0
 40
0.0
 40
0.0
 40
0.0
 40
0.0615071038
 40
0.160810013
 40
0.263171421
 40
0.3693171585
 40
0.4798567263
 40
0.5952817277
 40
0.7159704995
 40
0.842196372
 40
0.9741375544
 40
1.0
 40
1.0
 40
1.0
 40
1.0
 10
48.6681434496
 20
-15.5821032347
 30
0.0
 10
48.7310561143
 20
-15.5820606033
 30
0.0
 10
48.8955394775
 20
-15.5761092566
 30
0.0
 10
49.1629667935
 20
-15.5422862176
 30
0.0
 10
49.4699157864
 20
-15.4705945815
 30
0.0
 10
49.7793261521
 20
-15.3659040717
 30
0.0
 10
50.090304217
 20
-15.2285970392
 30
0.0
 10
50.4019693584
 20
-15.0591321775
 30
0.0
 10
50.7134461378
 20
-14.8580430375
 30
0.0
 10
51.0238597252
 20
-14.6259397312
 30
0.0
 10
51.2451586035
 20
-14.4376744723
 30
0.0
 10
51.364460647
 20
-14.3290425596
 30
0.0
 10
51.3839162821
 20
-14.3111338652
 30
0.0
 11
48.6681434496
 21
-15.5821032347
 31
0.0
 11
48.8567233668
 21
-15.5753551572
 31
0.0
 11
49.1589312822
 21
-15.5375749022
 31
0.0
 11
49.4647648332
 21
-15.4666906735
 31
0.0
 11
49.7733269574
 21
-15.3629103867
 31
0.0
 11
50.083712589
 21
-15.2265384473
 31
0.0
 11
50.3950113134
 21
-15.0579748576
 31
0.0
 11
50.7063100377
 21
-14.8577140438
 31
0.0
 11
51.0166956693
 21
-14.6263434052
 31
0.0
 11
51.3252577936
 21
-14.3645415919
 31
0.0
 11
51.3839162821
 21
-14.3111338652
 31
0.0
  0
SPLINE
  5
448
100
AcDbEntity
  8
RACCORDO
100
AcDbSpline
 62
253
  6
CONTINUOUS
 70
0
 71
3
 72
12
 73
8
 74
6
 42
0.0000001
 43
0.0000001
 44
0.0000000001
 12
-0.1968908681
 22
0.0388932734
 32
0.0
 13
-0.1728752261
 23
-0.1012765215
 33
0.0
 40
0.0
 40
0.0
 40
0.0
 40
0.0
 40
0.0059605089
 40
0.2366542569
 40
0.4750945411
 40
0.7278599834
 40
1.0
 40
1.0
 40
1.0
 40
1.0
 10
57.710423632
 20
39.1761849411
 30
0.0
 10
57.710032442
 20
39.1762622157
 30
0.0
 10
57.6944923737
 20
39.1792877609
 30
0.0
 10
57.6626434151
 20
39.181961336
 30
0.0
 10
57.6144725367
 20
39.1761547337
 30
0.0
 10
57.5656010767
 20
39.160807657
 30
0.0
 10
57.5341264291
 20
39.1450369916
 30
0.0
 10
57.5184443401
 20
39.1358498602
 30
0.0
 11
57.710423632
 21
39.1761849411
 31
0.0
 11
57.7092494341
 21
39.1764135474
 31
0.0
 11
57.6631977897
 21
39.1803668782
 31
0.0
 11
57.6157415402
 21
39.1748739195
 31
0.0
 11
57.567335688
 21
39.1599873369
 31
0.0
 11
57.5184443401
 21
39.1358498602
 31
0.0
  0
SPLINE
  5
449
100
AcDbEntity
  8
RACCORDO
100
AcDbSpline
 62
7
  6
CONTINUOUS
 70
0
 71
3
 72
12
 73
8
 74
6
 42
0.0000001
 43
0.0000001
 44
0.0000000001
 12
0.1728737047
 22
0.1012756304
 32
0.0
 13
0.1968894492
 23
-0.038891339
 33
0.0
 40
0.0
 40
0.0
 40
0.0
 40
0.0
 40
0.272142403
 40
0.5249100628
 40
0.7633524395
 40
0.9940482125
 40
1.0
 40
1.0
 40
1.0
 40
1.0
 10
-4.7168800545
 20
51.4251744437
 30
0.0
 10
-4.7011979661
 20
51.4343615749
 30
0.0
 10
-4.6697233194
 20
51.4501322399
 30
0.0
 10
-4.6208518608
 20
51.4654793166
 30
0.0
 10
-4.5726809838
 20
51.4712859194
 30
0.0
 10
-4.540832614
 20
51.4686123944
 30
0.0
 10
-4.52529311
 20
51.4655870245
 30
0.0
 10
-4.5249024953
 20
51.4655098669
 30
0.0
 11
-4.7168800545
 21
51.4251744437
 31
0.0
 11
-4.6679887082
 21
51.4493119198
 31
0.0
 11
-4.6195828575
 21
51.4641985024
 31
0.0
 11
-4.5721266092
 21
51.4696914616
 31
0.0
 11
-4.5260749657
 21
51.4657381319
 31
0.0
 11
-4.5249024953
 21
51.4655098669
 31
0.0
  0
SPLINE
  5
44A
100
AcDbEntity
  8
RACCORDO
100
AcDbSpline
 62
253
  6
CONTINUOUS
 70
0
 71
3
 72
13
 73
9
 74
7
 42
0.0000001
 43
0.0000001
 44
0.0000000001
 12
0.0001758235
 22
-0.2253319175
 32
0.0
 13
-0.1928016832
 23
-0.1151413263
 33
0.0
 40
0.0
 40
0.0
 40
0.0
 40
0.0
 40
0.046092883
 40
0.1987152316
 40
0.3644257757
 40
0.5505391638
 40
0.7616163387
 40
1.0
 40
1.0
 40
1.0
 40
1.0
 10
58.9497010585
 20
37.6397810708
 30
0.0
 10
58.9497037599
 20
37.6363190049
 30
0.0
 10
58.9490586996
 20
37.6213961759
 30
0.0
 10
58.9425855133
 20
37.5945301665
 30
0.0
 10
58.9244857895
 20
37.5610046065
 30
0.0
 10
58.8971366141
 20
37.5286485646
 30
0.0
 10
58.8609148687
 20
37.4975703983
 30
0.0
 10
58.8327947886
 20
37.478955242
 30
0.0
 10
58.8174745316
 20
37.4698059717
 30
0.0
 11
58.9497010585
 21
37.6397810708
 31
0.0
 11
58.9492493077
 21
37.6294108731
 31
0.0
 11
58.9414922583
 21
37.5960263884
 31
0.0
 11
58.9242261644
 21
37.5630614161
 31
0.0
 11
58.8976165702
 21
37.5308320185
 31
0.0
 11
58.861918604
 21
37.4996472055
 31
0.0
 11
58.8174745316
 21
37.4698059717
 31
0.0
  0
SPLINE
  5
44B
100
AcDbEntity
  8
RACCORDO
100
AcDbSpline
 62
253
  6
CONTINUOUS
 70
0
 71
3
 72
13
 73
9
 74
7
 42
0.0000001
 43
0.0000001
 44
0.0000000001
 12
0.0001687978
 22
-0.2253282085
 32
0.0
 13
-0.1927985356
 23
-0.1151394462
 33
0.0
 40
0.0
 40
0.0
 40
0.0
 40
0.0
 40
0.0460772904
 40
0.1987021327
 40
0.3644153842
 40
0.5505318139
 40
0.7616124398
 40
1.0
 40
1.0
 40
1.0
 40
1.0
 10
58.9497010613
 20
-37.2784620521
 30
0.0
 10
58.9497036539
 20
-37.2819228899
 30
0.0
 10
58.9490584099
 20
-37.2968444692
 30
0.0
 10
58.9425855148
 20
-37.3237092741
 30
0.0
 10
58.9244857915
 20
-37.357234835
 30
0.0
 10
58.897136616
 20
-37.3895908778
 30
0.0
 10
58.8609148698
 20
-37.4206690449
 30
0.0
 10
58.8327947891
 20
-37.4392842017
 30
0.0
 10
58.8174745316
 20
-37.4484334723
 30
0.0
 11
58.9497010613
 21
-37.2784620521
 31
0.0
 11
58.9492493081
 21
-37.2888285669
 31
0.0
 11
58.9414922597
 21
-37.3222130522
 31
0.0
 11
58.9242261663
 21
-37.3551780253
 31
0.0
 11
58.8976165721
 21
-37.3874074237
 31
0.0
 11
58.8619186053
 21
-37.4185922376
 31
0.0
 11
58.8174745316
 21
-37.4484334723
 31
0.0
  0
SPLINE
  5
44C
100
AcDbEntity
  8
RACCORDO
100
AcDbSpline
 62
253
  6
CONTINUOUS
 70
0
 71
3
 72
12
 73
8
 74
6
 42
0.0000001
 43
0.0000001
 44
0.0000000001
 12
-0.1968846397
 22
0.038884782
 32
0.0
 13
-0.1728685484
 23
-0.1012726097
 33
0.0
 40
0.0
 40
0.0
 40
0.0
 40
0.0
 40
0.0059221372
 40
0.2366247913
 40
0.4750742803
 40
0.7278494796
 40
1.0
 40
1.0
 40
1.0
 40
1.0
 10
-26.0570387847
 20
55.7173622422
 30
0.0
 10
-26.057427444
 20
55.7174390025
 30
0.0
 10
-26.0729650303
 20
55.7204637776
 30
0.0
 10
-26.1048114005
 20
55.7231371348
 30
0.0
 10
-26.1529822776
 20
55.717330532
 30
0.0
 10
-26.2018537361
 20
55.7019834552
 30
0.0
 10
-26.2333283828
 20
55.6862127903
 30
0.0
 10
-26.2490104713
 20
55.6770256591
 30
0.0
 11
-26.0570387847
 21
55.7173622422
 31
0.0
 11
-26.0582053824
 21
55.7175893473
 31
0.0
 11
-26.104257026
 21
55.721542677
 31
0.0
 11
-26.1517132742
 21
55.7160497178
 31
0.0
 11
-26.2001191249
 21
55.7011631352
 31
0.0
 11
-26.2490104713
 21
55.6770256591
 31
0.0
  0
SPLINE
  5
44D
100
AcDbEntity
  8
RACCORDO
100
AcDbSpline
 62
253
  6
CONTINUOUS
 70
0
 71
3
 72
14
 73
10
 74
8
 42
0.0000001
 43
0.0000001
 44
0.0000000001
 12
0.6667309148
 22
0.3696712469
 32
0.0
 13
0.7474086683
 23
-0.1483731333
 33
0.0
 40
0.0
 40
0.0
 40
0.0
 40
0.0
 40
0.1320521246
 40
0.2724960795
 40
0.4140737589
 40
0.5572504132
 40
0.7024285964
 40
0.8499331738
 40
1.0
 40
1.0
 40
1.0
 40
1.0
 10
-26.9882411837
 20
55.5725357817
 30
0.0
 10
-26.9588934391
 20
55.5888077395
 30
0.0
 10
-26.8966284429
 20
55.6193115563
 30
0.0
 10
-26.7977031654
 20
55.6556027815
 30
0.0
 10
-26.6927660143
 20
55.6819597941
 30
0.0
 10
-26.584484656
 20
55.6975066626
 30
0.0
 10
-26.4736895214
 20
55.7021330439
 30
0.0
 10
-26.3612431238
 20
55.6958168855
 30
0.0
 10
-26.2863911757
 20
55.6844463546
 30
0.0
 10
-26.2490040934
 20
55.6770243928
 30
0.0
 11
-26.9882411837
 21
55.5725357817
 31
0.0
 11
-26.8978798844
 21
55.6168172693
 31
0.0
 11
-26.7974223071
 21
55.6537089905
 31
0.0
 11
-26.6928043952
 21
55.6800427229
 31
0.0
 11
-26.584822215
 21
55.6956181271
 31
0.0
 11
-26.4742971885
 21
55.7003166787
 31
0.0
 11
-26.362071547
 21
55.6941026205
 31
0.0
 11
-26.2490040934
 21
55.6770243928
 31
0.0
  0
SPLINE
  5
44E
100
AcDbEntity
  8
RACCORDO
100
AcDbSpline
 62
253
  6
CONTINUOUS
 70
0
 71
3
 72
25
 73
21
 74
19
 42
0.0000001
 43
0.0000001
 44
0.0000000001
 12
2.2326305899
 22
-0.4385251908
 32
0.0
 13
-0.0027935219
 23
-2.2752880895
 33
0.0
 40
0.0
 40
0.0
 40
0.0
 40
0.0
 40
0.0512808876
 40
0.1034869689
 40
0.1566088035
 40
0.2106113523
 40
0.2654357705
 40
0.321001304
 40
0.3772080389
 40
0.4339403986
 40
0.49107029
 40
0.5484602087
 40
0.6059666463
 40
0.6634435243
 40
0.7207453663
 40
0.7777305548
 40
0.834265067
 40
0.8902256356
 40
0.9455021815
 40
1.0
 40
1.0
 40
1.0
 40
1.0
 10
57.5184389047
 20
39.1358509277
 30
0.0
 10
57.5566026641
 20
39.1283549407
 30
0.0
 10
57.6329637389
 20
39.1096769155
 30
0.0
 10
57.7455472468
 20
39.0713875822
 30
0.0
 10
57.8563753937
 20
39.022868857
 30
0.0
 10
57.9645964706
 20
38.9644972646
 30
0.0
 10
58.0693967563
 20
38.896719243
 30
0.0
 10
58.1699841712
 20
38.8200518653
 30
0.0
 10
58.2655994765
 20
38.7350783476
 30
0.0
 10
58.3555204173
 20
38.6424440822
 30
0.0
 10
58.439067619
 20
38.5428517502
 30
0.0
 10
58.5156094973
 20
38.4370562358
 30
0.0
 10
58.5845670775
 20
38.3258590111
 30
0.0
 10
58.6454183616
 20
38.2101020969
 30
0.0
 10
58.6977022088
 20
38.090661936
 30
0.0
 10
58.7410218619
 20
37.9684423605
 30
0.0
 10
58.7750479342
 20
37.8443689466
 30
0.0
 10
58.7995205562
 20
37.7193776978
 30
0.0
 10
58.8142516037
 20
37.5944271388
 30
0.0
 10
58.8175252698
 20
37.5111317823
 30
0.0
 10
58.8174745228
 20
37.4697990366
 30
0.0
 11
57.5184389047
 21
39.1358509277
 31
0.0
 11
57.6317983086
 21
39.1082174924
 31
0.0
 11
57.7442860918
 21
39.0700582364
 31
0.0
 11
57.8550424664
 21
39.0216640769
 31
0.0
 11
57.9632234547
 21
38.9634037419
 31
0.0
 11
58.0680060956
 21
38.8957204723
 31
0.0
 11
58.1685930917
 21
38.8191292359
 31
0.0
 11
58.2642186205
 21
38.734213139
 31
0.0
 11
58.35415491
 21
38.6416184796
 31
0.0
 11
58.4377176046
 21
38.5420498515
 31
0.0
 11
58.5142707008
 21
38.4362650719
 31
0.0
 11
58.5832315514
 21
38.3250692807
 31
0.0
 11
58.6440754002
 21
38.2093086082
 31
0.0
 11
58.6963391624
 21
38.0898640628
 31
0.0
 11
58.7396249462
 21
37.9676450348
 31
0.0
 11
58.7736034159
 21
37.8435815119
 31
0.0
 11
58.798016059
 21
37.7186172637
 31
0.0
 11
58.8126768845
 21
37.5937045195
 31
0.0
 11
58.8174745228
 21
37.4697990366
 31
0.0
  0
SPLINE
  5
44F
100
AcDbEntity
  8
RACCORDO
100
AcDbSpline
 62
253
  6
CONTINUOUS
 70
0
 71
3
 72
18
 73
14
 74
12
 42
0.0000001
 43
0.0000001
 44
0.0000000001
 12
0.0014687311
 22
-1.1939952433
 32
0.0
 13
-1.0131498635
 23
-0.632869219
 33
0.0
 40
0.0
 40
0.0
 40
0.0
 40
0.0
 40
0.1020744432
 40
0.2024231218
 40
0.3009994403
 40
0.3978121543
 40
0.492926901
 40
0.5864656427
 40
0.6786052202
 40
0.7695743003
 40
0.8596467478
 40
0.9491320719
 40
1.0
 40
1.0
 40
1.0
 40
1.0
 10
58.8174745242
 20
-37.448427587
 30
0.0
 10
58.8175244975
 20
-37.4890530536
 30
0.0
 10
58.814404525
 20
-37.5696628134
 30
0.0
 10
58.7998168463
 20
-37.6887067264
 30
0.0
 10
58.7754635291
 20
-37.8040192034
 30
0.0
 10
58.7415211483
 20
-37.9147115639
 30
0.0
 10
58.6982387296
 20
-38.0199417934
 30
0.0
 10
58.6459364603
 20
-38.1189033666
 30
0.0
 10
58.5850045855
 20
-38.210835036
 30
0.0
 10
58.5159016879
 20
-38.2950260284
 30
0.0
 10
58.4391522907
 20
-38.3708227734
 30
0.0
 10
58.3673055218
 20
-38.4280992257
 30
0.0
 10
58.3208097427
 20
-38.4591547793
 30
0.0
 10
58.3036307979
 20
-38.4698856946
 30
0.0
 11
58.8174745242
 21
-37.448427587
 31
0.0
 11
58.8126767124
 21
-37.5702096065
 31
0.0
 11
58.7980157184
 21
-37.6891251802
 31
0.0
 11
58.7736029067
 21
-37.8042652882
 31
0.0
 11
58.7396242715
 21
-37.9147525132
 31
0.0
 11
58.6963383321
 21
-38.0197463674
 31
0.0
 11
58.6440744189
 21
-38.118447936
 31
0.0
 11
58.5832304231
 21
-38.2101057478
 31
0.0
 11
58.514269436
 21
-38.2940222333
 31
0.0
 11
58.4377162141
 21
-38.3695588451
 31
0.0
 11
58.3541534028
 21
-38.4361406656
 31
0.0
 11
58.3036307979
 21
-38.4698856946
 31
0.0
  0
SPLINE
  5
450
100
AcDbEntity
  8
RACCORDO
100
AcDbSpline
 62
7
  6
CONTINUOUS
 70
0
 71
3
 72
12
 73
8
 74
6
 42
0.0000001
 43
0.0000001
 44
0.0000000001
 12
0.1741176663
 22
0.1031466553
 32
0.0
 13
0.1988763772
 23
-0.0392945125
 33
0.0
 40
0.0
 40
0.0
 40
0.0
 40
0.0
 40
0.2707566008
 40
0.5221077133
 40
0.7590325376
 40
0.9880473974
 40
1.0
 40
1.0
 40
1.0
 40
1.0
 10
-4.7186253802
 20
50.3781184402
 30
0.0
 10
-4.7029108778
 20
50.3874276527
 30
0.0
 10
-4.6713708071
 20
50.4034336062
 30
0.0
 10
-4.6223735896
 20
50.4191214109
 30
0.0
 10
-4.574063402
 20
50.4252336019
 30
0.0
 10
-4.541688035
 20
50.4227065502
 30
0.0
 10
-4.525696392
 20
50.4196387922
 30
0.0
 10
-4.5249040285
 20
50.419482235
 30
0.0
 11
-4.7186253802
 21
50.3781184402
 31
0.0
 11
-4.6696168101
 21
50.4026260573
 31
0.0
 11
-4.6210802192
 21
50.417847899
 31
0.0
 11
-4.5734830416
 21
50.4236373708
 31
0.0
 11
-4.5272836641
 21
50.4199387167
 31
0.0
 11
-4.5249040285
 21
50.419482235
 31
0.0
  0
ELLIPSE
  5
451
100
AcDbEntity
  8
DRAFT
100
AcDbEllipse
 62
7
  6
CONTINUOUS
 10
114.6609711955
 20
101.9718624232
 30
0.0
 11
66.499385627
 21
343.6265711523
 31
0.0
 40
0.4627391599
 41
-4.4163964375
 42
-4.2161159444
  0
ELLIPSE
  5
452
100
AcDbEntity
  8
DRAFT
100
AcDbEllipse
 62
7
  6
CONTINUOUS
 10
-54.380028701
 20
-32.6359542851
 30
0.0
 11
0.9499912232
 21
4.9089510165
 31
0.0
 40
0.4627391599
 41
-4.2161159444
 42
-3.1433329179
  0
ELLIPSE
  5
453
100
AcDbEntity
  8
0
100
AcDbEllipse
 62
7
  6
CONTINUOUS
 10
110.1790022884
 20
102.856896304
 30
0.0
 11
-193.2542382666
 21
370.7315974856
 31
0.0
 40
0.4861778622
 41
-4.5920798853
 42
-4.5916221273
  0
ELLIPSE
  5
454
100
AcDbEntity
  8
0
100
AcDbEllipse
 62
7
  6
CONTINUOUS
 10
119.5036737144
 20
101.0155961276
 30
0.0
 11
-62.5430784039
 21
362.1784842292
 31
0.0
 40
0.5277585691
 41
-4.4197261742
 42
-4.4192683962
  0
ELLIPSE
  5
455
100
AcDbEntity
  8
0
100
AcDbEllipse
 62
7
  6
CONTINUOUS
 10
138.2737126057
 20
97.3091624804
 30
0.0
 11
170.5281182154
 21
321.4676612036
 31
0.0
 40
0.3316597928
 41
-4.1197676106
 42
-4.1193097995
  0
ELLIPSE
  5
456
100
AcDbEntity
  8
DRAFT
100
AcDbEllipse
 62
7
  6
CONTINUOUS
 10
-54.380951806
 20
32.1847470673
 30
0.0
 11
0.9499912232
 21
4.9089510165
 31
0.0
 40
0.4627391599
 41
0.7053610218
 42
1.8667888697
  0
ELLIPSE
  5
457
100
AcDbEntity
  8
0
100
AcDbEllipse
 62
7
  6
CONTINUOUS
 10
147.7186547598
 20
95.4441129939
 30
0.0
 11
257.8546532
 21
304.0040326347
 31
0.0
 40
0.1902518542
 41
-4.113303358
 42
-4.1128455267
  0
ELLIPSE
  5
458
100
AcDbEntity
  8
0
100
AcDbEllipse
 62
7
  6
CONTINUOUS
 10
113.3302773823
 20
102.2346284383
 30
0.0
 11
-130.0386440779
 21
366.9850282437
 31
0.0
 40
0.5154458938
 41
1.7672890801
 42
1.7678995173
  0
ELLIPSE
  5
459
100
AcDbEntity
  8
0
100
AcDbEllipse
 62
7
  6
CONTINUOUS
 10
106.2126567722
 20
103.6401123944
 30
0.0
 11
-223.0490106171
 21
372.7939985973
 31
0.0
 40
0.4684052207
 41
-4.6184030625
 42
-4.6177925895
  0
ELLIPSE
  5
45A
100
AcDbEntity
  8
0
100
AcDbEllipse
 62
7
  6
CONTINUOUS
 10
79.9491963209
 20
108.8262376908
 30
0.0
 11
510.8793392859
 21
-413.0600297528
 31
0.0
 40
0.2920152321
 41
-1.5823345773
 42
-1.5818766988
  0
ELLIPSE
  5
45B
100
AcDbEntity
  8
0
100
AcDbEllipse
 62
7
  6
CONTINUOUS
 10
176.6253721621
 20
89.7360358487
 30
0.0
 11
524.8635520386
 21
252.9473527474
 31
0.0
 40
0.0318958473
 41
-2.0233071258
 42
-2.0228492473
  0
ELLIPSE
  5
45C
100
AcDbEntity
  8
0
100
AcDbEllipse
 62
7
  6
CONTINUOUS
 10
108.1943074671
 20
103.2488049041
 30
0.0
 11
-193.2549333935
 21
370.7316420369
 31
0.0
 40
0.4861774711
 41
-4.592080601
 42
-4.591622843
  0
ELLIPSE
  5
45D
100
AcDbEntity
  8
0
100
AcDbEllipse
 62
7
  6
CONTINUOUS
 10
117.5190856071
 20
101.4074836553
 30
0.0
 11
-62.5422927882
 21
362.1784143735
 31
0.0
 40
0.527758571
 41
-4.4197249689
 42
-4.4192671909
  0
ELLIPSE
  5
45E
100
AcDbEntity
  8
0
100
AcDbEllipse
 62
7
  6
CONTINUOUS
 10
136.2890170962
 20
97.7010712163
 30
0.0
 11
170.5275936787
 21
321.4677737248
 31
0.0
 40
0.3316606511
 41
-4.1197678625
 42
-4.1193100514
  0
ELLIPSE
  5
45F
100
AcDbEntity
  8
0
100
AcDbEllipse
 62
7
  6
CONTINUOUS
 10
145.7340673407
 20
95.8360003857
 30
0.0
 11
257.8551414825
 21
304.0039412686
 31
0.0
 40
0.1902511264
 41
-4.1133034923
 42
-4.112845661
  0
ELLIPSE
  5
460
100
AcDbEntity
  8
0
100
AcDbEllipse
 62
7
  6
CONTINUOUS
 10
111.345635918
 20
102.6265265022
 30
0.0
 11
-130.0386440779
 21
366.9850282437
 31
0.0
 40
0.5154458938
 41
1.7672890801
 42
1.7678995173
  0
ELLIPSE
  5
461
100
AcDbEntity
  8
0
100
AcDbEllipse
 62
7
  6
CONTINUOUS
 10
104.2280153079
 20
104.0320104583
 30
0.0
 11
-223.0490106171
 21
372.7939985973
 31
0.0
 40
0.4684052207
 41
-4.6184030625
 42
-4.6177925895
  0
ELLIPSE
  5
462
100
AcDbEntity
  8
0
100
AcDbEllipse
 62
7
  6
CONTINUOUS
 10
77.964609504
 20
109.2181249638
 30
0.0
 11
510.8787716512
 21
-413.0599242809
 31
0.0
 40
0.292015502
 41
-1.582334539
 42
-1.5818766605
  0
ELLIPSE
  5
463
100
AcDbEntity
  8
0
100
AcDbEllipse
 62
7
  6
CONTINUOUS
 10
174.6406757922
 20
90.1279447545
 30
0.0
 11
524.8630187292
 21
252.9474625079
 31
0.0
 40
0.031895664
 41
-2.0233074196
 42
-2.0228495411
  0
ELLIPSE
  5
464
100
AcDbEntity
  8
0
100
AcDbEllipse
 62
7
  6
CONTINUOUS
 10
115.7900640413
 20
101.7489056281
 30
0.0
 11
-62.5419640843
 21
362.1783851455
 31
0.0
 40
0.5277585717
 41
-4.4227758152
 42
-4.4223181677
  0
ELLIPSE
  5
465
100
AcDbEntity
  8
0
100
AcDbEllipse
 62
7
  6
CONTINUOUS
 10
133.9735753119
 20
98.158290905
 30
0.0
 11
170.5273314102
 21
321.4678299855
 31
0.0
 40
0.3316610802
 41
-4.1226669986
 42
-4.1222093125
  0
ELLIPSE
  5
466
100
AcDbEntity
  8
0
100
AcDbEllipse
 62
7
  6
CONTINUOUS
 10
184.3938391697
 20
88.2020322341
 30
0.0
 11
-62.5400000437
 21
362.1782105039
 31
0.0
 40
0.5277585764
 41
-4.4227728019
 42
-4.4223151545
  0
ELLIPSE
  5
467
100
AcDbEntity
  8
0
100
AcDbEllipse
 62
7
  6
CONTINUOUS
 10
202.5770903229
 20
84.6114688752
 30
0.0
 11
170.5260200658
 21
321.4681112895
 31
0.0
 40
0.3316632259
 41
-4.1226676284
 42
-4.1222099423
  0
ELLIPSE
  5
468
100
AcDbEntity
  8
0
100
AcDbEllipse
 62
7
  6
CONTINUOUS
 10
182.4795214053
 20
88.580043799
 30
0.0
 11
-82.108575306
 21
363.7955083111
 31
0.0
 40
0.5266219951
 41
-4.449622686
 42
-4.4464179129
  0
ELLIPSE
  5
469
100
AcDbEntity
  8
0
100
AcDbEllipse
 62
7
  6
CONTINUOUS
 10
181.8377247695
 20
88.7067764424
 30
0.0
 11
-62.5420736523
 21
362.1783948882
 31
0.0
 40
0.5277585715
 41
-4.4233861501
 42
-4.4192668547
  0
ELLIPSE
  5
46A
100
AcDbEntity
  8
0
100
AcDbEllipse
 62
7
  6
CONTINUOUS
 10
199.7145380602
 20
85.1767239652
 30
0.0
 11
172.4746005843
 21
321.0506634256
 31
0.0
 40
0.3284699681
 41
-4.1238872347
 42
-4.1167159854
  0
ELLIPSE
  5
46B
100
AcDbEntity
  8
0
100
AcDbEllipse
 62
7
  6
CONTINUOUS
 10
181.8226710903
 20
88.7097490235
 30
0.0
 11
-62.5423408663
 21
362.1784186485
 31
0.0
 40
0.5277585708
 41
-4.4186568632
 42
-4.4168254437
  0
ELLIPSE
  5
46C
100
AcDbEntity
  8
0
100
AcDbEllipse
 62
7
  6
CONTINUOUS
 10
198.6726005731
 20
85.3824705906
 30
0.0
 11
177.0393462855
 21
320.0772362576
 31
0.0
 40
0.3209548294
 41
2.1612893073
 42
2.1676974257
  0
ELLIPSE
  5
46D
100
AcDbEntity
  8
0
100
AcDbEllipse
 62
7
  6
CONTINUOUS
 10
177.3665894319
 20
89.5896710678
 30
0.0
 11
-81.0545676365
 21
363.7142459229
 31
0.0
 40
0.526737439
 41
-4.4504935872
 42
-4.4448477339
  0
ELLIPSE
  5
46E
100
AcDbEntity
  8
0
100
AcDbEllipse
 62
7
  6
CONTINUOUS
 10
195.2317075913
 20
86.0619279747
 30
0.0
 11
172.7589599432
 21
320.9898383567
 31
0.0
 40
0.3280031817
 41
2.1594284396
 42
2.1656839386
  0
ELLIPSE
  5
46F
100
AcDbEntity
  8
0
100
AcDbEllipse
 62
7
  6
CONTINUOUS
 10
175.4838641711
 20
89.9614442056
 30
0.0
 11
-65.4626620581
 21
362.4352015904
 31
0.0
 40
0.5277268313
 41
-4.428468451
 42
-4.4212972017
  0
ELLIPSE
  5
470
100
AcDbEntity
  8
0
100
AcDbEllipse
 62
7
  6
CONTINUOUS
 10
113.600910321
 20
102.1811877909
 30
0.0
 11
-130.0386440779
 21
366.9850282437
 31
0.0
 40
0.5154458938
 41
-4.5158962271
 42
-4.5152857898
  0
ELLIPSE
  5
471
100
AcDbEntity
  8
0
100
AcDbEllipse
 62
7
  6
CONTINUOUS
 10
178.239809758
 20
89.4172402478
 30
0.0
 11
-72.3089667901
 21
362.862291964
 31
0.0
 40
0.5274584916
 41
-4.4388884776
 42
-4.4327550379
  0
ELLIPSE
  5
472
100
AcDbEntity
  8
0
100
AcDbEllipse
 62
7
  6
CONTINUOUS
 10
150.3619117108
 20
94.9221611451
 30
0.0
 11
279.1936016495
 21
300.049671385
 31
0.0
 40
0.1596074836
 41
-4.1199760704
 42
-4.1193655973
  0
ELLIPSE
  5
473
100
AcDbEntity
  8
0
100
AcDbEllipse
 62
7
  6
CONTINUOUS
 10
140.3971625481
 20
96.8898545418
 30
0.0
 11
188.5967439477
 21
317.6429265989
 31
0.0
 40
0.3017729151
 41
-4.112626089
 42
-4.1118630481
  0
ELLIPSE
  5
474
100
AcDbEntity
  8
0
100
AcDbEllipse
 62
7
  6
CONTINUOUS
 10
117.8733731214
 20
101.3375241218
 30
0.0
 11
-89.8916894427
 21
364.3771867859
 31
0.0
 40
0.5255854114
 41
-4.4612745202
 42
-4.460511579
  0
ELLIPSE
  5
475
100
AcDbEntity
  8
0
100
AcDbEllipse
 62
7
  6
CONTINUOUS
 10
108.1296384617
 20
103.2615747965
 30
0.0
 11
-223.0490336567
 21
372.7940003263
 31
0.0
 40
0.4684052062
 41
-4.6211497709
 42
-4.6205394575
  0
ELLIPSE
  5
476
100
AcDbEntity
  8
0
100
AcDbEllipse
 62
7
  6
CONTINUOUS
 10
82.7758044515
 20
108.268080324
 30
0.0
 11
510.8793827085
 21
-413.0600378211
 31
0.0
 40
0.2920152115
 41
-1.5861494534
 42
-1.5856917413
  0
ELLIPSE
  5
477
100
AcDbEntity
  8
0
100
AcDbEllipse
 62
7
  6
CONTINUOUS
 10
173.7987640315
 20
90.2941932155
 30
0.0
 11
524.8635928354
 21
252.947344351
 31
0.0
 40
0.0318958613
 41
-2.0194920638
 42
-2.0190343517
  0
ELLIPSE
  5
478
100
AcDbEntity
  8
0
100
AcDbEllipse
 62
7
  6
CONTINUOUS
 10
199.5458172601
 20
85.2100404892
 30
0.0
 11
182.7123237347
 21
318.7236394625
 31
0.0
 40
0.3114306688
 41
-4.1174281118
 42
-4.1124807065
  0
ELLIPSE
  5
479
100
AcDbEntity
  8
DRAFT
100
AcDbEllipse
 62
7
  6
CONTINUOUS
 10
28.4753061167
 20
-48.9970179247
 30
0.0
 11
0.9875737764
 21
4.9015289797
 31
0.0
 40
0.476942715
 41
-4.2125157038
 42
-3.6561700679
  0
ELLIPSE
  5
47A
100
AcDbEntity
  8
0
100
AcDbEllipse
 62
7
  6
CONTINUOUS
 10
199.7807064528
 20
85.1636579956
 30
0.0
 11
170.4545310366
 21
321.330063136
 31
0.0
 40
0.3316606686
 41
-4.1192322352
 42
-4.1175894305
  0
ELLIPSE
  5
47B
100
AcDbEntity
  8
0
100
AcDbEllipse
 62
7
  6
CONTINUOUS
 10
164.9700446072
 20
92.0375600207
 30
0.0
 11
432.8684346105
 21
271.4106224556
 31
0.0
 40
0.0109531465
 41
2.0738911021
 42
2.074348847
  0
ELLIPSE
  5
47C
100
AcDbEntity
  8
0
100
AcDbEllipse
 62
7
  6
CONTINUOUS
 10
181.8888394829
 20
88.696683054
 30
0.0
 11
-65.4346812772
 21
362.2799442049
 31
0.0
 40
0.5277268301
 41
-4.4284298348
 42
-4.4212554849
  0
ELLIPSE
  5
47D
100
AcDbEntity
  8
0
100
AcDbEllipse
 62
7
  6
CONTINUOUS
 10
199.7656527736
 20
85.1666305768
 30
0.0
 11
170.4543527007
 21
321.3301013918
 31
0.0
 40
0.3316609605
 41
-4.1236615291
 42
-4.1200323933
  0
ELLIPSE
  5
47E
100
AcDbEntity
  8
0
100
AcDbEllipse
 62
7
  6
CONTINUOUS
 10
182.4967875781
 20
88.5766343269
 30
0.0
 11
-86.3059757507
 21
363.9599059957
 31
0.0
 40
0.5260979702
 41
-4.4561086841
 42
-4.4526535467
  0
ELLIPSE
  5
47F
100
AcDbEntity
  8
0
100
AcDbEllipse
 62
7
  6
CONTINUOUS
 10
214.3309703426
 20
82.2904839991
 30
0.0
 11
279.0740153295
 21
299.9211306639
 31
0.0
 40
0.1596074604
 41
-4.1231405784
 42
-4.1225300274
  0
ELLIPSE
  5
480
100
AcDbEntity
  8
0
100
AcDbEllipse
 62
7
  6
CONTINUOUS
 10
202.8627581954
 20
84.5550593482
 30
0.0
 11
170.4529687935
 21
321.3303982617
 31
0.0
 40
0.3316632259
 41
-4.1224753677
 42
-4.1220174773
  0
ELLIPSE
  5
481
100
AcDbEntity
  8
0
100
AcDbEllipse
 62
7
  6
CONTINUOUS
 10
184.6644721084
 20
88.1485915867
 30
0.0
 11
-62.5132086685
 21
362.0230577649
 31
0.0
 40
0.5277585764
 41
-4.4227335627
 42
-4.4222757174
  0
ELLIPSE
  5
482
100
AcDbEntity
  8
0
100
AcDbEllipse
 62
7
  6
CONTINUOUS
 10
173.3842018488
 20
90.3760549118
 30
0.0
 11
-222.9534821644
 21
372.6342999121
 31
0.0
 40
0.4684052062
 41
-4.6237042413
 42
-4.6230938108
  0
ELLIPSE
  5
483
100
AcDbEntity
  8
0
100
AcDbEllipse
 62
7
  6
CONTINUOUS
 10
157.6971940142
 20
93.4736965309
 30
0.0
 11
410.5622689053
 21
-395.3444226316
 31
0.0
 40
0.3455526779
 41
-1.5756706245
 42
-1.5752128239
  0
ELLIPSE
  5
484
100
AcDbEntity
  8
0
100
AcDbEllipse
 62
7
  6
CONTINUOUS
 10
111.6162688567
 20
102.5730858548
 30
0.0
 11
-130.0386440779
 21
366.9850282437
 31
0.0
 40
0.5154458938
 41
-4.5158962271
 42
-4.5152857898
  0
ELLIPSE
  5
485
100
AcDbEntity
  8
0
100
AcDbEllipse
 62
7
  6
CONTINUOUS
 10
59.5897010107
 20
112.8465340203
 30
0.0
 11
1492.9778085147
 21
-612.2533264202
 31
0.0
 40
0.1008816547
 41
-1.5567121509
 42
-1.5565595549
  0
ELLIPSE
  5
486
100
AcDbEntity
  8
DRAFT
100
AcDbEllipse
 62
7
  6
CONTINUOUS
 10
177.7787908657
 20
89.5082755378
 30
0.0
 11
100.2785227157
 21
334.8165253012
 31
0.0
 40
0.609797872
 41
-4.2686699495
 42
-4.252354024
  0
ELLIPSE
  5
487
100
AcDbEntity
  8
0
100
AcDbEllipse
 62
7
  6
CONTINUOUS
 10
148.3772699884
 20
95.3140592599
 30
0.0
 11
279.1936016495
 21
300.049671385
 31
0.0
 40
0.1596074836
 41
-4.1199760704
 42
-4.1193655973
  0
ELLIPSE
  5
488
100
AcDbEntity
  8
0
100
AcDbEllipse
 62
7
  6
CONTINUOUS
 10
138.4125534077
 20
97.2817462228
 30
0.0
 11
188.5970500569
 21
317.6428627283
 31
0.0
 40
0.3017724052
 41
-4.1126259989
 42
-4.1118629579
  0
ELLIPSE
  5
489
100
AcDbEntity
  8
0
100
AcDbEllipse
 62
7
  6
CONTINUOUS
 10
115.8886995397
 20
101.7294285278
 30
0.0
 11
-89.8921560894
 21
364.3772207299
 31
0.0
 40
0.5255853396
 41
-4.4612752045
 42
-4.4605122633
  0
ELLIPSE
  5
48A
100
AcDbEntity
  8
0
100
AcDbEllipse
 62
7
  6
CONTINUOUS
 10
106.1449967393
 20
103.6534729114
 30
0.0
 11
-223.0490336567
 21
372.7940003263
 31
0.0
 40
0.4684052062
 41
-4.6211497709
 42
-4.6205394575
  0
ELLIPSE
  5
48B
100
AcDbEntity
  8
0
100
AcDbEllipse
 62
7
  6
CONTINUOUS
 10
80.7912154839
 20
108.6599680216
 30
0.0
 11
510.8788150738
 21
-413.0599323492
 31
0.0
 40
0.2920154814
 41
-1.5861494151
 42
-1.585691703
  0
ELLIPSE
  5
48C
100
AcDbEntity
  8
0
100
AcDbEllipse
 62
7
  6
CONTINUOUS
 10
171.8140698124
 20
90.6861016966
 30
0.0
 11
524.863059526
 21
252.9474541115
 31
0.0
 40
0.031895678
 41
-2.0194923576
 42
-2.0190346455
  0
ELLIPSE
  5
48D
100
AcDbEntity
  8
0
100
AcDbEllipse
 62
7
  6
CONTINUOUS
 10
276.0327163522
 20
70.1065226964
 30
0.0
 11
907.3184461415
 21
171.2220364894
 31
0.0
 40
0.076849057
 41
4.4106416463
 42
4.4107561853
  0
ELLIPSE
  5
48E
100
AcDbEntity
  8
0
100
AcDbEllipse
 62
7
  6
CONTINUOUS
 10
162.9854560697
 20
92.4294476334
 30
0.0
 11
432.8689531672
 21
271.4105213874
 31
0.0
 40
0.0109528299
 41
2.0738907823
 42
2.0743485271
  0
ELLIPSE
  5
48F
100
AcDbEntity
  8
0
100
AcDbEllipse
 62
7
  6
CONTINUOUS
 10
116.0606710327
 20
101.6954701044
 30
0.0
 11
-62.5155645076
 21
362.0232672447
 31
0.0
 40
0.5277585708
 41
-4.4227371786
 42
-4.4222793333
  0
ELLIPSE
  5
490
100
AcDbEntity
  8
0
100
AcDbEllipse
 62
7
  6
CONTINUOUS
 10
104.7805750458
 20
103.9228990166
 30
0.0
 11
-222.9532312872
 21
372.6342810848
 31
0.0
 40
0.4684053634
 41
-4.6237040202
 42
-4.6230935897
  0
ELLIPSE
  5
491
100
AcDbEntity
  8
0
100
AcDbEllipse
 62
7
  6
CONTINUOUS
 10
89.0935992688
 20
107.0205343055
 30
0.0
 11
410.5616887004
 21
-395.3443286715
 31
0.0
 40
0.3455530228
 41
-1.5756705024
 42
-1.5752127018
  0
ELLIPSE
  5
492
100
AcDbEntity
  8
0
100
AcDbEllipse
 62
7
  6
CONTINUOUS
 10
-9.0137916664
 20
126.3933516399
 30
0.0
 11
1492.9761188419
 21
-612.2529830417
 31
0.0
 40
0.1008817763
 41
-1.5567122106
 42
-1.5565596147
  0
ELLIPSE
  5
493
100
AcDbEntity
  8
DRAFT
100
AcDbEllipse
 62
7
  6
CONTINUOUS
 10
202.7049720219
 20
84.5862166615
 30
0.0
 11
69.1301643452
 21
343.1070285799
 31
0.0
 40
0.476942715
 41
-4.4127961968
 42
-4.2125157038
  0
ELLIPSE
  5
494
100
AcDbEntity
  8
0
100
AcDbEllipse
 62
7
  6
CONTINUOUS
 10
161.88788908
 20
92.646179162
 30
0.0
 11
432.683517374
 21
271.2942524221
 31
0.0
 40
0.0109528299
 41
2.0737783675
 42
2.0742363037
  0
ELLIPSE
  5
495
100
AcDbEntity
  8
0
100
AcDbEllipse
 62
7
  6
CONTINUOUS
 10
145.7273044897
 20
95.8373358149
 30
0.0
 11
279.0738320751
 21
299.9211643511
 31
0.0
 40
0.1596077132
 41
-4.1231405071
 42
-4.1225299562
  0
ELLIPSE
  5
496
100
AcDbEntity
  8
0
100
AcDbEllipse
 62
7
  6
CONTINUOUS
 10
134.2592695188
 20
98.1018761779
 30
0.0
 11
170.4545417322
 21
321.3300608416
 31
0.0
 40
0.3316606511
 41
-4.122474612
 42
-4.1220167216
  0
ELLIPSE
  5
497
100
AcDbEntity
  8
0
100
AcDbEllipse
 62
7
  6
CONTINUOUS
 10
104.7805750458
 20
103.9228990166
 30
0.0
 11
-223.0487826721
 21
372.793981491
 31
0.0
 40
0.4684053634
 41
-4.6237429958
 42
-4.623132829
  0
ELLIPSE
  5
498
100
AcDbEntity
  8
0
100
AcDbEllipse
 62
7
  6
CONTINUOUS
 10
89.0935992688
 20
107.0205343055
 30
0.0
 11
410.7376437098
 21
-395.5137619552
 31
0.0
 40
0.3455530228
 41
-1.5757092803
 42
-1.5752516774
  0
ELLIPSE
  5
499
100
AcDbEntity
  8
0
100
AcDbEllipse
 62
7
  6
CONTINUOUS
 10
207.4293864561
 20
83.6533081724
 30
0.0
 11
907.3217799967
 21
171.2213224216
 31
0.0
 40
0.0768490844
 41
4.4106424768
 42
4.4107570154
  0
ELLIPSE
  5
49A
100
AcDbEntity
  8
0
100
AcDbEllipse
 62
7
  6
CONTINUOUS
 10
161.88788908
 20
92.646179162
 30
0.0
 11
432.8689531672
 21
271.4105213874
 31
0.0
 40
0.0109528299
 41
2.073738205
 42
2.0741959433
  0
ELLIPSE
  5
49B
100
AcDbEntity
  8
0
100
AcDbEllipse
 62
7
  6
CONTINUOUS
 10
145.7273044897
 20
95.8373358149
 30
0.0
 11
279.193435146
 21
300.0497019929
 31
0.0
 40
0.1596077132
 41
-4.1231804058
 42
-4.1225701186
  0
ELLIPSE
  5
49C
100
AcDbEntity
  8
0
100
AcDbEllipse
 62
7
  6
CONTINUOUS
 10
134.2592695188
 20
98.1018761779
 30
0.0
 11
170.5275936787
 21
321.4677737248
 31
0.0
 40
0.3316606511
 41
-4.1225143128
 42
-4.1220566202
  0
ELLIPSE
  5
49D
100
AcDbEntity
  8
0
100
AcDbEllipse
 62
7
  6
CONTINUOUS
 10
116.0606710327
 20
101.6954701044
 30
0.0
 11
-62.5423568924
 21
362.1784200735
 31
0.0
 40
0.5277585708
 41
-4.4227764178
 42
-4.4223187703
  0
ELLIPSE
  5
49E
100
AcDbEntity
  8
0
100
AcDbEllipse
 62
7
  6
CONTINUOUS
 10
240.8616336464
 20
77.0515953787
 30
0.0
 11
1199.9793863053
 21
109.1647089518
 31
0.0
 40
0.0733829652
 41
-1.8203593743
 42
-1.8202066889
  0
ELLIPSE
  5
49F
100
AcDbEntity
  8
0
100
AcDbEllipse
 62
7
  6
CONTINUOUS
 10
11.743815076
 20
122.2944420686
 30
0.0
 11
1197.941524609
 21
-552.0718785816
 31
0.0
 40
0.1273987989
 41
-1.5621264208
 42
-1.5619737355
  0
ELLIPSE
  5
4A0
100
AcDbEntity
  8
0
100
AcDbEllipse
 62
7
  6
CONTINUOUS
 10
83.1457049611
 20
108.1950377638
 30
0.0
 11
460.8853551407
 21
-403.8654197958
 31
0.0
 40
0.3171396067
 41
-1.5781927334
 42
-1.5778873694
  0
ELLIPSE
  5
4A1
100
AcDbEntity
  8
0
100
AcDbEllipse
 62
7
  6
CONTINUOUS
 10
111.6162688567
 20
102.5730858548
 30
0.0
 11
-129.9829371049
 21
366.8278163224
 31
0.0
 40
0.5154458938
 41
-4.5158552068
 42
-4.5152445056
  0
ELLIPSE
  5
4A2
100
AcDbEntity
  8
0
100
AcDbEllipse
 62
7
  6
CONTINUOUS
 10
148.3772699884
 20
95.3140592599
 30
0.0
 11
279.0739985073
 21
299.9211337563
 31
0.0
 40
0.1596074836
 41
-4.1199347861
 42
-4.1193240489
  0
ELLIPSE
  5
4A3
100
AcDbEntity
  8
0
100
AcDbEllipse
 62
7
  6
CONTINUOUS
 10
138.4125534077
 20
97.2817462228
 30
0.0
 11
188.5162573752
 21
317.5067883905
 31
0.0
 40
0.3017724052
 41
-4.1125850446
 42
-4.1118216737
  0
ELLIPSE
  5
4A4
100
AcDbEntity
  8
0
100
AcDbEllipse
 62
7
  6
CONTINUOUS
 10
115.8886995397
 20
101.7294285278
 30
0.0
 11
-89.8536473834
 21
364.2211259616
 31
0.0
 40
0.5255853396
 41
-4.4612348441
 42
-4.460471573
  0
ELLIPSE
  5
4A5
100
AcDbEntity
  8
0
100
AcDbEllipse
 62
7
  6
CONTINUOUS
 10
106.1449967393
 20
103.6534729114
 30
0.0
 11
-222.9534821644
 21
372.6342999121
 31
0.0
 40
0.4684052062
 41
-4.6211096743
 42
-4.6204990972
  0
ELLIPSE
  5
4A6
100
AcDbEntity
  8
0
100
AcDbEllipse
 62
7
  6
CONTINUOUS
 10
80.7912154839
 20
108.6599680216
 30
0.0
 11
510.6599608048
 21
-412.8829824995
 31
0.0
 40
0.2920154814
 41
-1.5861095165
 42
-1.5856516065
  0
ELLIPSE
  5
4A7
100
AcDbEntity
  8
0
100
AcDbEllipse
 62
7
  6
CONTINUOUS
 10
-10.9534842571
 20
126.7763738555
 30
0.0
 11
1492.9778085147
 21
-612.2533264202
 31
0.0
 40
0.1008816547
 41
-1.5541177296
 42
-1.5539650973
  0
ELLIPSE
  5
4A8
100
AcDbEntity
  8
0
100
AcDbEllipse
 62
7
  6
CONTINUOUS
 10
263.5586120634
 20
72.5697269616
 30
0.0
 11
1494.2498451122
 21
47.9632898729
 31
0.0
 40
0.0660229559
 41
-1.7831693159
 42
-1.7830166836
  0
ELLIPSE
  5
4A9
100
AcDbEntity
  8
0
100
AcDbEllipse
 62
7
  6
CONTINUOUS
 10
171.8140698124
 20
90.6861016966
 30
0.0
 11
524.6382145769
 21
252.8390944995
 31
0.0
 40
0.031895678
 41
-2.0195324541
 42
-2.0190745441
  0
ELLIPSE
  5
4AA
100
AcDbEntity
  8
0
100
AcDbEllipse
 62
7
  6
CONTINUOUS
 10
182.4967875781
 20
88.5766343269
 30
0.0
 11
-86.342964026
 21
364.1158888126
 31
0.0
 40
0.5260979702
 41
-4.4562052978
 42
-4.4526953592
  0
ELLIPSE
  5
4AB
100
AcDbEntity
  8
0
100
AcDbEllipse
 62
7
  6
CONTINUOUS
 10
214.3309703426
 20
82.2904839991
 30
0.0
 11
279.1936184789
 21
300.0496682913
 31
0.0
 40
0.1596074604
 41
-4.123180477
 42
-4.1225701899
  0
ELLIPSE
  5
4AC
100
AcDbEntity
  8
0
100
AcDbEllipse
 62
7
  6
CONTINUOUS
 10
202.8627581954
 20
84.5550593482
 30
0.0
 11
170.5260200658
 21
321.4681112895
 31
0.0
 40
0.3316632259
 41
-4.1225150685
 42
-4.1220573759
  0
ELLIPSE
  5
4AD
100
AcDbEntity
  8
0
100
AcDbEllipse
 62
7
  6
CONTINUOUS
 10
184.6644721084
 20
88.1485915867
 30
0.0
 11
-62.5400000437
 21
362.1782105039
 31
0.0
 40
0.5277585764
 41
-4.4227728019
 42
-4.4223151545
  0
ELLIPSE
  5
4AE
100
AcDbEntity
  8
0
100
AcDbEllipse
 62
7
  6
CONTINUOUS
 10
173.3842018488
 20
90.3760549118
 30
0.0
 11
-223.0490336567
 21
372.7940003263
 31
0.0
 40
0.4684052062
 41
-4.6237432169
 42
-4.6231330501
  0
ELLIPSE
  5
4AF
100
AcDbEntity
  8
0
100
AcDbEllipse
 62
7
  6
CONTINUOUS
 10
157.6971940142
 20
93.4736965309
 30
0.0
 11
410.7382241634
 21
-395.5138559556
 31
0.0
 40
0.3455526779
 41
-1.5757094023
 42
-1.5752517995
  0
ELLIPSE
  5
4B0
100
AcDbEntity
  8
0
100
AcDbEllipse
 62
7
  6
CONTINUOUS
 10
195.4746169278
 20
86.0139617801
 30
0.0
 11
172.4006645309
 21
320.9131399316
 31
0.0
 40
0.3284700503
 41
-4.1238485458
 42
-4.1166741959
  0
ELLIPSE
  5
4B1
100
AcDbEntity
  8
0
100
AcDbEllipse
 62
7
  6
CONTINUOUS
 10
199.7656527736
 20
85.1666305768
 30
0.0
 11
170.5274045661
 21
321.4678142924
 31
0.0
 40
0.3316609605
 41
-4.124192445
 42
-4.1200731496
  0
ELLIPSE
  5
4B2
100
AcDbEntity
  8
0
100
AcDbEllipse
 62
7
  6
CONTINUOUS
 10
199.7807064528
 20
85.1636579956
 30
0.0
 11
170.5275829785
 21
321.4677760202
 31
0.0
 40
0.3316606686
 41
-4.1194626624
 42
-4.117631243
  0
ELLIPSE
  5
4B3
100
AcDbEntity
  8
0
100
AcDbEllipse
 62
7
  6
CONTINUOUS
 10
242.846438795
 20
76.6596649928
 30
0.0
 11
1199.9810666574
 21
109.1643563189
 31
0.0
 40
0.0733829269
 41
-1.8203591335
 42
-1.8202064481
  0
ELLIPSE
  5
4B4
100
AcDbEntity
  8
0
100
AcDbEllipse
 62
7
  6
CONTINUOUS
 10
181.8888394829
 20
88.696683054
 30
0.0
 11
-65.462724712
 21
362.4352070381
 31
0.0
 40
0.5277268301
 41
-4.4284685467
 42
-4.4212972974
  0
ELLIPSE
  5
4B5
100
AcDbEntity
  8
0
100
AcDbEllipse
 62
7
  6
CONTINUOUS
 10
13.7284565404
 20
121.9025440047
 30
0.0
 11
1197.941524609
 21
-552.0718785816
 31
0.0
 40
0.1273987989
 41
-1.5621264208
 42
-1.5619737355
  0
ELLIPSE
  5
4B6
100
AcDbEntity
  8
0
100
AcDbEllipse
 62
7
  6
CONTINUOUS
 10
85.1303464255
 20
107.8031396999
 30
0.0
 11
460.8853551407
 21
-403.8654197958
 31
0.0
 40
0.3171396067
 41
-1.5781927334
 42
-1.5778873694
  0
ELLIPSE
  5
4B7
100
AcDbEntity
  8
0
100
AcDbEllipse
 62
7
  6
CONTINUOUS
 10
113.600910321
 20
102.1811877909
 30
0.0
 11
-129.9829371049
 21
366.8278163224
 31
0.0
 40
0.5154458938
 41
-4.5158552068
 42
-4.5152445056
  0
ELLIPSE
  5
4B8
100
AcDbEntity
  8
0
100
AcDbEllipse
 62
7
  6
CONTINUOUS
 10
178.239809758
 20
89.4172402478
 30
0.0
 11
-72.3399563473
 21
363.0178043748
 31
0.0
 40
0.5274584916
 41
-4.4389271896
 42
-4.4325190712
  0
ELLIPSE
  5
4B9
100
AcDbEntity
  8
0
100
AcDbEllipse
 62
7
  6
CONTINUOUS
 10
175.7267743206
 20
89.9134778505
 30
0.0
 11
-65.8617096436
 21
362.3170135892
 31
0.0
 40
0.5277180435
 41
-4.4290825313
 42
-4.4231188412
  0
ELLIPSE
  5
4BA
100
AcDbEntity
  8
0
100
AcDbEllipse
 62
7
  6
CONTINUOUS
 10
199.5458172601
 20
85.2100404892
 30
0.0
 11
182.7906290163
 21
318.860235308
 31
0.0
 40
0.3114306688
 41
-4.1181683723
 42
-4.112522519
  0
ELLIPSE
  5
4BB
100
AcDbEntity
  8
0
100
AcDbEllipse
 62
7
  6
CONTINUOUS
 10
150.3619117108
 20
94.9221611451
 30
0.0
 11
279.0739985073
 21
299.9211337563
 31
0.0
 40
0.1596074836
 41
-4.1199347861
 42
-4.1193240489
  0
ELLIPSE
  5
4BC
100
AcDbEntity
  8
0
100
AcDbEllipse
 62
7
  6
CONTINUOUS
 10
140.3971625481
 20
96.8898545418
 30
0.0
 11
188.5159513971
 21
317.5068522337
 31
0.0
 40
0.3017729151
 41
-4.1125851348
 42
-4.1118217638
  0
ELLIPSE
  5
4BD
100
AcDbEntity
  8
0
100
AcDbEllipse
 62
7
  6
CONTINUOUS
 10
175.7267743206
 20
89.9134778505
 30
0.0
 11
-65.8899360906
 21
362.4722923093
 31
0.0
 40
0.5277180435
 41
-4.4291212433
 42
-4.4228657442
  0
ELLIPSE
  5
4BE
100
AcDbEntity
  8
0
100
AcDbEllipse
 62
7
  6
CONTINUOUS
 10
117.8733731214
 20
101.3375241218
 30
0.0
 11
-89.8531809366
 21
364.2210920321
 31
0.0
 40
0.5255854114
 41
-4.4612341599
 42
-4.4604708887
  0
ELLIPSE
  5
4BF
100
AcDbEntity
  8
0
100
AcDbEllipse
 62
7
  6
CONTINUOUS
 10
108.1296384617
 20
103.2615747965
 30
0.0
 11
-222.9534821644
 21
372.6342999121
 31
0.0
 40
0.4684052062
 41
-4.6211096743
 42
-4.6204990972
  0
ELLIPSE
  5
4C0
100
AcDbEntity
  8
0
100
AcDbEllipse
 62
7
  6
CONTINUOUS
 10
195.4746169278
 20
86.0139617801
 30
0.0
 11
172.47455053
 21
321.0506741345
 31
0.0
 40
0.3284700503
 41
-4.1238872577
 42
-4.1167160084
  0
ELLIPSE
  5
4C1
100
AcDbEntity
  8
0
100
AcDbEllipse
 62
7
  6
CONTINUOUS
 10
82.7758044515
 20
108.268080324
 30
0.0
 11
510.6605281964
 21
-412.8830879263
 31
0.0
 40
0.2920152115
 41
-1.5861095547
 42
-1.5856516448
  0
ELLIPSE
  5
4C2
100
AcDbEntity
  8
0
100
AcDbEllipse
 62
7
  6
CONTINUOUS
 10
-8.9688427928
 20
126.3844757916
 30
0.0
 11
1492.9778085147
 21
-612.2533264202
 31
0.0
 40
0.1008816547
 41
-1.5541177296
 42
-1.5539650973
  0
ELLIPSE
  5
4C3
100
AcDbEntity
  8
0
100
AcDbEllipse
 62
7
  6
CONTINUOUS
 10
265.5430962958
 20
72.1778599456
 30
0.0
 11
1494.2481584726
 21
47.9636378509
 31
0.0
 40
0.0660229988
 41
-1.7831694682
 42
-1.7830168359
  0
ELLIPSE
  5
4C4
100
AcDbEntity
  8
0
100
AcDbEllipse
 62
7
  6
CONTINUOUS
 10
173.7987640315
 20
90.2941932155
 30
0.0
 11
524.6387476578
 21
252.8389847861
 31
0.0
 40
0.0318958613
 41
-2.0195321603
 42
-2.0190742503
  0
ELLIPSE
  5
4C5
100
AcDbEntity
  8
DRAFT
100
AcDbEllipse
 62
7
  6
CONTINUOUS
 10
28.4743546772
 20
15.8236890228
 30
0.0
 11
0.9875737764
 21
4.9015289797
 31
0.0
 40
0.476942715
 41
1.2219883707
 42
1.8703891103
  0
ELLIPSE
  5
4C6
100
AcDbEntity
  8
RACCORDO
100
AcDbEllipse
 62
7
  6
CONTINUOUS
 10
37.635154227
 20
-49.192801406
 30
0.0
 11
-0.7646456168
 21
1.2906012184
 31
0.0
 40
0.813738708
 41
-3.1587621934
 42
-2.2001248547
  0
ELLIPSE
  5
4C7
100
AcDbEntity
  8
RACCORDO
100
AcDbEllipse
 62
7
  6
CONTINUOUS
 10
37.635154227
 20
25.9825009109
 30
0.0
 11
-0.7644446732
 21
1.2905939075
 31
0.0
 40
0.8138566568
 41
-2.1999335318
 42
-0.6292133575
  0
ELLIPSE
  5
4C8
100
AcDbEntity
  8
DRAFT
100
AcDbEllipse
 62
7
  6
CONTINUOUS
 10
28.892872831
 20
17.5344202959
 30
0.0
 11
0.9499912232
 21
4.9089510165
 31
0.0
 40
0.4627391599
 41
7.3030333345
 42
8.1445267983
  0
ELLIPSE
  5
4C9
100
AcDbEntity
  8
RACCORDO
100
AcDbEllipse
 62
7
  6
CONTINUOUS
 10
197.8397913437
 20
85.507428532
 30
0.0
 11
66.499385627
 21
343.6265711523
 31
0.0
 40
0.4627391599
 41
-4.2294789342
 42
-4.2107229152
  0
ELLIPSE
  5
4CA
100
AcDbEntity
  8
RACCORDO
100
AcDbEllipse
 62
7
  6
CONTINUOUS
 10
197.8397913437
 20
85.507428532
 30
0.0
 11
66.499385627
 21
343.6265711523
 31
0.0
 40
0.4627391599
 41
-4.421843816
 42
-4.403087797
  0
ELLIPSE
  5
4CB
100
AcDbEntity
  8
DRAFT
100
AcDbEllipse
 62
7
  6
CONTINUOUS
 10
28.892872831
 20
-50.7826579296
 30
0.0
 11
0.9499912232
 21
4.9089510165
 31
0.0
 40
0.4627391599
 41
-4.2107229152
 42
-3.3692294513
  0
ELLIPSE
  5
4CC
100
AcDbEntity
  8
RACCORDO
100
AcDbEllipse
 62
7
  6
CONTINUOUS
 10
-46.3692110096
 20
42.5704583268
 30
0.0
 11
-0.7646456168
 21
1.2906012184
 31
0.0
 40
0.813738708
 41
-0.6292523755
 42
0.0169605243
  0
ELLIPSE
  5
4CD
100
AcDbEntity
  8
RACCORDO
100
AcDbEllipse
 62
7
  6
CONTINUOUS
 10
-26.0117945428
 20
-39.9408846269
 30
0.0
 11
1.0068610133
 21
4.8976927788
 31
0.0
 40
0.484028672
 41
-3.1378184249
 42
-3.0030497708
  0
ELLIPSE
  5
4CE
100
AcDbEntity
  8
RACCORDO
100
AcDbEllipse
 62
7
  6
CONTINUOUS
 10
-27.8671738035
 20
-43.5580939333
 30
0.0
 11
0.9999986713
 21
0.0046694065
 31
0.0
 40
0.349115364
 41
-2.0960252647
 42
-0.5426822304
  0
ELLIPSE
  5
4CF
100
AcDbEntity
  8
DRAFT
100
AcDbEllipse
 62
7
  6
CONTINUOUS
 10
-54.7065448462
 20
34.0424145712
 30
0.0
 11
0.9875737764
 21
4.9015289797
 31
0.0
 40
0.476942715
 41
1.0234482679
 42
1.8649417317
  0
ELLIPSE
  5
4D0
100
AcDbEntity
  8
RACCORDO
100
AcDbEllipse
 62
7
  6
CONTINUOUS
 10
119.4261518736
 20
100.9914109262
 30
0.0
 11
69.1301643452
 21
343.1070285799
 31
0.0
 40
0.476942715
 41
-4.2258786936
 42
-4.2071226746
  0
ELLIPSE
  5
4D1
100
AcDbEntity
  8
RACCORDO
100
AcDbEllipse
 62
7
  6
CONTINUOUS
 10
119.4261518736
 20
100.9914109262
 30
0.0
 11
69.1301643452
 21
343.1070285799
 31
0.0
 40
0.476942715
 41
-4.4182435754
 42
-4.3994875564
  0
ELLIPSE
  5
4D2
100
AcDbEntity
  8
DRAFT
100
AcDbEllipse
 62
7
  6
CONTINUOUS
 10
-54.7065448462
 20
-34.2746636543
 30
0.0
 11
0.9875737764
 21
4.9015289797
 31
0.0
 40
0.476942715
 41
-4.2071226746
 42
-3.3656292107
  0
ELLIPSE
  5
4D3
100
AcDbEntity
  8
RACCORDO
100
AcDbEllipse
 62
7
  6
CONTINUOUS
 10
0.1331170209
 20
-49.0871831719
 30
0.0
 11
0.9999986713
 21
0.0046694065
 31
0.0
 40
0.349115364
 41
8.9170023154
 42
10.4703453497
  0
ELLIPSE
  5
4D4
100
AcDbEntity
  8
RACCORDO
100
AcDbEllipse
 62
7
  6
CONTINUOUS
 10
-55.9722939952
 20
-38.1765038356
 30
0.0
 11
-0.1274074455
 21
0.2150989846
 31
0.0
 40
0.8138566568
 41
0.9416591217
 42
2.5123792961
  0
ELLIPSE
  5
4D5
100
AcDbEntity
  8
RACCORDO
100
AcDbEllipse
 62
7
  6
CONTINUOUS
 10
-55.9722939952
 20
36.137438092
 30
0.0
 11
-0.1274409361
 21
0.2151002031
 31
0.0
 40
0.813738708
 41
5.6539329317
 42
7.2246531061
  0
ELLIPSE
  5
4D6
100
AcDbEntity
  8
DRAFT
100
AcDbEllipse
 62
7
  6
CONTINUOUS
 10
51.3610849264
 20
-4.4422758521
 30
0.0
 11
2.2106061098
 21
11.2855421539
 31
0.0
 40
0.4670047577
 41
0.0
 42
6.2831853072
  0
ELLIPSE
  5
4D7
100
AcDbEntity
  8
RACCORDO
100
AcDbEllipse
 62
7
  6
CONTINUOUS
 10
38.1345911758
 20
-48.8958811438
 30
0.0
 11
-0.7645367905
 21
1.290556857
 31
0.0
 40
0.8137882453
 41
3.7922622656
 42
4.0831407882
  0
ELLIPSE
  5
4D8
100
AcDbEntity
  8
RACCORDO
100
AcDbEllipse
 62
7
  6
CONTINUOUS
 10
-45.8686479584
 20
42.8659343301
 30
0.0
 11
-0.7645367905
 21
1.290556857
 31
0.0
 40
0.8137882453
 41
5.6539492996
 42
5.7412154487
  0
ELLIPSE
  5
4D9
100
AcDbEntity
  8
RACCORDO
100
AcDbEllipse
 62
7
  6
CONTINUOUS
 10
38.1345911758
 20
26.2781992804
 30
0.0
 11
-0.7645046399
 21
1.2905556873
 31
0.0
 40
0.8138071175
 41
4.0831714005
 42
5.6539555426
  0
ENDSEC
  0
SECTION
  2
OBJECTS
  0
DICTIONARY
  5
C
100
AcDbDictionary
280
0
281
1
  3
ACAD_GROUP
350
D
  3
ACAD_MLINESTYLE
350
17
  3
ACAD_LAYOUT
350
1A
  3
ACAD_PLOTSETTINGS
350
19
  3
ACAD_PLOTSTYLENAME
350
E
  0
DICTIONARY
  5
D
102
{ACAD_REACTORS
330
C
102
}
100
AcDbDictionary
280
0
281
1
  0
ACDBDICTIONARYWDFLT
  5
E
102
{ACAD_REACTORS
330
C
102
}
100
AcDbDictionary
281
1
  3
Normal
350
F
100
AcDbDictionaryWithDefault
340
F
  0
DICTIONARY
  5
17
102
{ACAD_REACTORS
330
C
102
}
100
AcDbDictionary
280
0
281
1
  3
Standard
350
18
  0
DICTIONARY
  5
19
102
{ACAD_REACTORS
330
C
102
}
100
AcDbDictionary
281
1
  0
DICTIONARY
  5
1A
102
{ACAD_REACTORS
330
C
102
}
100
AcDbDictionary
281
1
  3
Model
350
4DA
  3
Layout1
350
4DB
  0
ACDBPLACEHOLDER
  5
F
102
{ACAD_REACTORS
330
E
102
}
  0
MLINESTYLE
  5
18
102
{ACAD_REACTORS
330
17
102
}
100
AcDbMlineStyle
  2
STANDARD
 70
0
  3

 62
256
 51
90.0
 52
90.0
 71
2
 49
0.5
 62
256
  6
BYLAYER
 49
-0.5
 62
256
  6
BYLAYER
  0
LAYOUT
  5
4DA
102
{ACAD_REACTORS
330
1A
102
}
100
AcDbPlotSettings
  1

  2
none_device
  4
ISO_A4_(297.00_x_210.00_MM)
  6

 40
0.0
 41
0.0
 42
0.0
 43
0.0
 44
297.0
 45
210.0
 46
0.0
 47
0.0
 48
0.0
 49
0.0
140
0.0
141
0.0
142
1.0
143
1.0
 70
1024
 72
1
 73
0
 74
0
  7

 75
0
147
1.0
148
0.0
149
0.0
100
AcDbLayout
  1
Model
 70
0
 71
0
 10
0.0
 20
0.0
 11
297.0
 21
210.0
 12
0.0
 22
0.0
 32
0.0
 14
0.0
 24
0.0
 34
0.0
 15
0.0
 25
0.0
 35
0.0
146
0.0
 13
0.0
 23
0.0
 33
0.0
 16
1.0
 26
0.0
 36
0.0
 17
0.0
 27
1.0
 37
0.0
 76
0
330
216
345
0
346
0
  0
LAYOUT
  5
4DB
102
{ACAD_REACTORS
330
1A
102
}
100
AcDbPlotSettings
  1

  2
none_device
  4
ISO_A4_(297.00_x_210.00_MM)
  6

 40
0.0
 41
0.0
 42
0.0
 43
0.0
 44
297.0
 45
210.0
 46
0.0
 47
0.0
 48
0.0
 49
0.0
140
0.0
141
0.0
142
1.0
143
1.0
 70
0
 72
1
 73
0
 74
0
  7

 75
0
147
1.0
148
0.0
149
0.0
100
AcDbLayout
  1
Layout1
 70
0
 71
1
 10
0.0
 20
0.0
 11
297.0
 21
210.0
 12
0.0
 22
0.0
 32
0.0
 14
0.0
 24
0.0
 34
0.0
 15
0.0
 25
0.0
 35
0.0
146
0.0
 13
0.0
 23
0.0
 33
0.0
 16
1.0
 26
0.0
 36
0.0
 17
0.0
 27
1.0
 37
0.0
 76
0
330
217
345
0
346
0
  0
ENDSEC
  0
EOF
