  0
SECTION
  2
HEADER
  9
$ACADVER
  1
AC1015
  9
$DWGCODEPAGE
  3
ANSI_1252
  9
$EXTMAX
 10
297.0
 20
210.0
 30
0.0
  9
$EXTMIN
 10
0.0
 20
0.0
 30
0.0
  9
$LIMMIN
 10
0.0
 20
0.0
  9
$LIMMAX
 10
297.0
 20
210.0
  9
$VIEWCTR
 10
148.5
 20
105.0
  9
$VIEWSIZE
 40
210.0
  9
$CLAYER
  8
0
  9
$LTSCALE
 40
16.335
  9
$CELTYPE
  6
BYLAYER
  9
$DIMSCALE
 40
1.0
  9
$DIMASZ
 40
3.0
  9
$DIMEXO
 40
1.85625
  9
$DIMDLI
 40
11.286
  9
$DIMEXE
 40
5.346
  9
$DIMCEN
 40
2.673
  9
$DIMLFAC
 40
1.0
  9
$DIMBLK
  1
_FILLED
  9
$DIMTXT
 40
3.0
  9
$DIMTOL
 70
1
  9
$DIMLIM
 70
0
  9
$DIMTFAC
 40
1.0
  9
$DIMTP
 40
0.01
  9
$DIMTM
 40
0.01
  9
$PDMODE
 70
3
  9
$PDSIZE
 40
3.0
  9
$HANDSEED
  5
4AC
  9
$TILEMODE
 70
1
  9
$MEASUREMENT
 70
1
  9
$INSUNITS
 70
4
  0
ENDSEC
  0
SECTION
  2
CLASSES
  0
CLASS
  1
ACDBDICTIONARYWDFLT
  2
AcDbDictionaryWithDefault
  3
AutoCAD 2000
 90
0
280
0
281
0
  0
CLASS
  1
ACDBPLACEHOLDER
  2
AcDbPlaceHolder
  3
AutoCAD 2000
 90
0
280
0
281
0
  0
CLASS
  1
LAYOUT
  2
AcDbLayout
  3
AutoCAD 2000
 90
0
280
0
281
0
  0
ENDSEC
  0
SECTION
  2
TABLES
  0
TABLE
  2
VPORT
  5
8
100
AcDbSymbolTable
 70
2
  0
VPORT
  5
1F4
100
AcDbSymbolTableRecord
100
AcDbViewportTableRecord
  2
*ACTIVE
 70
0
 10
0.0
 20
0.0
 11
1.0
 21
1.0
 12
148.5
 22
105.0
 13
0.0
 23
0.0
 14
1.0
 24
1.0
 15
0.0
 25
0.0
 16
0.0
 26
0.0
 36
1.0
 17
0.0
 27
0.0
 37
0.0
 40
210.0
 41
1.4142857143
 42
50.0
 43
0.0
 44
0.0
 50
0.0
 51
0.0
 71
0
 72
100
 73
1
 74
1
 75
0
 76
0
 77
0
 78
0
  0
ENDTAB
  0
TABLE
  2
LTYPE
  5
5
100
AcDbSymbolTable
 70
6
  0
LTYPE
  5
14
100
AcDbSymbolTableRecord
100
AcDbLinetypeTableRecord
  2
BYBLOCK
 70
0
  3

 72
65
 73
0
 40
0.0
  0
LTYPE
  5
15
100
AcDbSymbolTableRecord
100
AcDbLinetypeTableRecord
  2
BYLAYER
 70
0
  3

 72
65
 73
0
 40
0.0
  0
LTYPE
  5
16
100
AcDbSymbolTableRecord
100
AcDbLinetypeTableRecord
  2
CONTINUOUS
 70
64
  3
Solid line
 72
65
 73
0
 40
0.0
  0
LTYPE
  5
1F5
100
AcDbSymbolTableRecord
100
AcDbLinetypeTableRecord
  2
CENTER
 70
64
  3
____ _ ____ _ ____ _ ____ _ ____ _ ____ _ ____
 72
65
 73
4
 40
0.6
 49
0.375
 74
0
 49
-0.075
 74
0
 49
0.075
 74
0
 49
-0.075
 74
0
  0
LTYPE
  5
1F6
100
AcDbSymbolTableRecord
100
AcDbLinetypeTableRecord
  2
HIDDEN
 70
64
  3
- - - - - - - - - - - - - - - - - - - -
 72
65
 73
2
 40
0.2
 49
0.1
 74
0
 49
-0.1
 74
0
  0
LTYPE
  5
1F7
100
AcDbSymbolTableRecord
100
AcDbLinetypeTableRecord
  2
PHANTOM
 70
64
  3
_____ _ _ _____ _ _ _____ _ _ _____
 72
65
 73
6
 40
0.8
 49
0.45
 74
0
 49
-0.05
 74
0
 49
0.1
 74
0
 49
-0.05
 74
0
 49
0.1
 74
0
 49
-0.05
 74
0
  0
LTYPE
  5
1F8
100
AcDbSymbolTableRecord
100
AcDbLinetypeTableRecord
  2
DOT
 70
64
  3
. . . . . . . . . . . . . . . . . . . .
 72
65
 73
2
 40
0.2
 49
0.1
 74
0
 49
-0.1
 74
0
  0
LTYPE
  5
1F9
100
AcDbSymbolTableRecord
100
AcDbLinetypeTableRecord
  2
DASHED
 70
64
  3
- - - - - - - - - - - - - - - - - - - -
 72
65
 73
2
 40
0.2
 49
0.1
 74
0
 49
-0.1
 74
0
  0
ENDTAB
  0
TABLE
  2
LAYER
  5
2
100
AcDbSymbolTable
 70
36
  0
LAYER
  5
10
100
AcDbSymbolTableRecord
100
AcDbLayerTableRecord
  2
0
 70
0
 62
7
  6
CONTINUOUS
370
-3
390
F
  0
LAYER
  5
1FA
100
AcDbSymbolTableRecord
100
AcDbLayerTableRecord
  2
DEFAULT_1
 70
0
 62
7
  6
CENTER
370
-3
390
F
  0
LAYER
  5
1FB
100
AcDbSymbolTableRecord
100
AcDbLayerTableRecord
  2
DEFAULT_2
 70
0
 62
7
  6
HIDDEN
370
-3
390
F
  0
LAYER
  5
1FC
100
AcDbSymbolTableRecord
100
AcDbLayerTableRecord
  2
DEFAULT_3
 70
0
 62
7
  6
PHANTOM
370
-3
390
F
  0
LAYER
  5
1FD
100
AcDbSymbolTableRecord
100
AcDbLayerTableRecord
  2
ASSI
 70
0
 62
7
  6
CONTINUOUS
370
-3
390
F
  0
LAYER
  5
1FE
100
AcDbSymbolTableRecord
100
AcDbLayerTableRecord
  2
COLOR5
 70
0
 62
7
  6
CONTINUOUS
370
-3
390
F
  0
LAYER
  5
1FF
100
AcDbSymbolTableRecord
100
AcDbLayerTableRecord
  2
COORDINATE
 70
0
 62
7
  6
CONTINUOUS
370
-3
390
F
  0
LAYER
  5
200
100
AcDbSymbolTableRecord
100
AcDbLayerTableRecord
  2
COORD_ORIGINE
 70
0
 62
7
  6
CONTINUOUS
370
-3
390
F
  0
LAYER
  5
201
100
AcDbSymbolTableRecord
100
AcDbLayerTableRecord
  2
COPY_PUBLISH
 70
0
 62
7
  6
CONTINUOUS
370
-3
390
F
  0
LAYER
  5
202
100
AcDbSymbolTableRecord
100
AcDbLayerTableRecord
  2
COSMETIC
 70
0
 62
7
  6
CONTINUOUS
370
-3
390
F
  0
LAYER
  5
203
100
AcDbSymbolTableRecord
100
AcDbLayerTableRecord
  2
CURVE
 70
0
 62
7
  6
CONTINUOUS
370
-3
390
F
  0
LAYER
  5
204
100
AcDbSymbolTableRecord
100
AcDbLayerTableRecord
  2
DRAFT
 70
0
 62
7
  6
CONTINUOUS
370
-3
390
F
  0
LAYER
  5
205
100
AcDbSymbolTableRecord
100
AcDbLayerTableRecord
  2
IMPORT_IGES
 70
0
 62
7
  6
CONTINUOUS
370
-3
390
F
  0
LAYER
  5
206
100
AcDbSymbolTableRecord
100
AcDbLayerTableRecord
  2
INTF_1
 70
0
 62
7
  6
CONTINUOUS
370
-3
390
F
  0
LAYER
  5
207
100
AcDbSymbolTableRecord
100
AcDbLayerTableRecord
  2
INTF_2
 70
0
 62
7
  6
CONTINUOUS
370
-3
390
F
  0
LAYER
  5
208
100
AcDbSymbolTableRecord
100
AcDbLayerTableRecord
  2
NOTE
 70
0
 62
7
  6
CONTINUOUS
370
-3
390
F
  0
LAYER
  5
209
100
AcDbSymbolTableRecord
100
AcDbLayerTableRecord
  2
PIANI
 70
0
 62
7
  6
CONTINUOUS
370
-3
390
F
  0
LAYER
  5
20A
100
AcDbSymbolTableRecord
100
AcDbLayerTableRecord
  2
PIANI_ORIGINE
 70
0
 62
7
  6
CONTINUOUS
370
-3
390
F
  0
LAYER
  5
20B
100
AcDbSymbolTableRecord
100
AcDbLayerTableRecord
  2
PUNTI
 70
0
 62
7
  6
CONTINUOUS
370
-3
390
F
  0
LAYER
  5
20C
100
AcDbSymbolTableRecord
100
AcDbLayerTableRecord
  2
RACCORDO
 70
0
 62
7
  6
CONTINUOUS
370
-3
390
F
  0
LAYER
  5
20D
100
AcDbSymbolTableRecord
100
AcDbLayerTableRecord
  2
RGB__255__255__255__
 70
0
 62
7
  6
CONTINUOUS
370
-3
390
F
  0
LAYER
  5
20E
100
AcDbSymbolTableRecord
100
AcDbLayerTableRecord
  2
RGB____0____0____0__
 70
0
 62
7
  6
CONTINUOUS
370
-3
390
F
  0
LAYER
  5
20F
100
AcDbSymbolTableRecord
100
AcDbLayerTableRecord
  2
SMUSSO
 70
0
 62
7
  6
CONTINUOUS
370
-3
390
F
  0
LAYER
  5
210
100
AcDbSymbolTableRecord
100
AcDbLayerTableRecord
  2
SNAPLINE
 70
0
 62
7
  6
CONTINUOUS
370
-3
390
F
  0
LAYER
  5
211
100
AcDbSymbolTableRecord
100
AcDbLayerTableRecord
  2
SUPERFICI
 70
0
 62
7
  6
CONTINUOUS
370
-3
390
F
  0
LAYER
  5
212
100
AcDbSymbolTableRecord
100
AcDbLayerTableRecord
  2
TRASH
 70
0
 62
7
  6
CONTINUOUS
370
-3
390
F
  0
LAYER
  5
213
100
AcDbSymbolTableRecord
100
AcDbLayerTableRecord
  2
XSEC_DATUMS
 70
0
 62
7
  6
CONTINUOUS
370
-3
390
F
  0
ENDTAB
  0
TABLE
  2
STYLE
  5
3
100
AcDbSymbolTable
 70
1
  0
STYLE
  5
11
100
AcDbSymbolTableRecord
100
AcDbTextStyleTableRecord
  2
STANDARD
 70
0
 40
0.0
 41
0.8
 50
0.0
 71
0
 42
0.2
  3
txt
  4

  0
STYLE
  5
214
100
AcDbSymbolTableRecord
100
AcDbTextStyleTableRecord
  2
TEXTSTYLE_1
 70
0
 40
0.0
 41
0.8
 50
0.0
 71
0
 42
0.2
  3
gdt
  4

  0
ENDTAB
  0
TABLE
  2
VIEW
  5
6
100
AcDbSymbolTable
 70
0
  0
ENDTAB
  0
TABLE
  2
UCS
  5
7
100
AcDbSymbolTable
 70
0
  0
ENDTAB
  0
TABLE
  2
APPID
  5
9
100
AcDbSymbolTable
 70
1
  0
APPID
  5
215
100
AcDbSymbolTableRecord
100
AcDbRegAppTableRecord
  2
ACAD
 70
0
  0
ENDTAB
  0
TABLE
  2
BLOCK_RECORD
  5
1
100
AcDbSymbolTable
 70
0
  0
BLOCK_RECORD
  5
216
100
AcDbSymbolTableRecord
100
AcDbBlockTableRecord
  2
*Model_Space
  0
BLOCK_RECORD
  5
217
100
AcDbSymbolTableRecord
100
AcDbBlockTableRecord
  2
*Paper_Space
  0
ENDTAB
  0
TABLE
  2
DIMSTYLE
  5
A
100
AcDbSymbolTable
 70
1
100
AcDbDimStyleTable
 71
0
  0
DIMSTYLE
105
218
100
AcDbSymbolTableRecord
100
AcDbDimStyleTableRecord
  2
STANDARD
 70
0
  3

  4

 40
1.0
 41
3.0
 42
0.0625
 43
0.38
 44
0.18
 45
0.0
 46
0.0
 47
0.01
 48
0.01
140
3.0
141
0.09
142
0.0
143
25.4
144
1.0
145
0.0
146
1.0
147
0.09
 71
1.0
 72
0.0
 73
0
 74
0
 75
0
 76
0
 77
1
 78
8
170
0
171
2
172
0
173
0
174
0
175
0
176
0
177
0
178
0
270
2
271
2
272
2
273
2
274
2
275
0
280
0
281
0
282
0
283
1
284
8
285
0
286
0
287
3
288
0
340
11
  0
ENDTAB
  0
ENDSEC
  0
SECTION
  2
BLOCKS
  0
BLOCK
  5
20
100
AcDbEntity
  8
0
100
AcDbBlockBegin
  2
*Model_Space
 70
0
 10
0.0
 20
0.0
 30
0.0
  3
*Model_Space
  1

  0
ENDBLK
  5
21
100
AcDbEntity
  8
0
100
AcDbBlockEnd
  0
BLOCK
  5
1C
100
AcDbEntity
  8
0
100
AcDbBlockBegin
  2
*Paper_Space
 70
0
 10
0.0
 20
0.0
 30
0.0
  3
*Paper_Space
  1

  0
ENDBLK
  5
1D
100
AcDbEntity
  8
0
100
AcDbBlockEnd
  0
ENDSEC
  0
SECTION
  2
ENTITIES
  0
LWPOLYLINE
  5
219
100
AcDbEntity
  8
RACCORDO
100
AcDbPolyline
 62
7
  6
CONTINUOUS
 90
23
 70
0
 10
-73.4916402019
 20
-32.5375927864
 10
-73.4805916583
 20
-32.6977843496
 10
-73.4587104427
 20
-32.9219829596
 10
-73.4298979268
 20
-33.1391374586
 10
-73.3942951074
 20
-33.3492559226
 10
-73.3520547276
 20
-33.5521735649
 10
-73.3033570299
 20
-33.7475875413
 10
-73.2483049975
 20
-33.9355662581
 10
-73.1869737443
 20
-34.1161293596
 10
-73.1195168364
 20
-34.2890632842
 10
-73.0459556701
 20
-34.4545149779
 10
-72.966338568
 20
-34.6124644449
 10
-72.880923796
 20
-34.7625355502
 10
-72.7897424122
 20
-34.9048250361
 10
-72.6929046898
 20
-35.039249197
 10
-72.5909795578
 20
-35.1652005184
 10
-72.4842960948
 20
-35.2825607153
 10
-72.3730037578
 20
-35.391419562
 10
-72.2576463221
 20
-35.4915011986
 10
-72.1387951012
 20
-35.5826396852
 10
-72.0166701645
 20
-35.6649875931
 10
-71.8914243511
 20
-35.7386893196
 10
-71.7635471475
 20
-35.8036736246
  0
LWPOLYLINE
  5
21A
100
AcDbEntity
  8
RACCORDO
100
AcDbPolyline
 62
7
  6
CONTINUOUS
 90
19
 70
0
 10
-73.8017463697
 20
30.3243891315
 10
-73.9348578508
 20
27.1565309886
 10
-74.0553881568
 20
23.9184556169
 10
-74.1598810997
 20
20.6879224209
 10
-74.2483238964
 20
17.4652234864
 10
-74.3207060459
 20
14.250662033
 10
-74.3770177011
 20
11.0445457265
 10
-74.4172517004
 20
7.8471755064
 10
-74.4414027037
 20
4.6588474319
 10
-74.4494666275
 20
1.4798591271
 10
-74.4414421214
 20
-1.6894932729
 10
-74.4173285196
 20
-4.8489140279
 10
-74.3771278839
 20
-7.9981093206
 10
-74.3208435376
 20
-11.1367883338
 10
-74.2484806159
 20
-14.2646576135
 10
-74.1600469318
 20
-17.3814205687
 10
-74.0555509459
 20
-20.4867856629
 10
-73.9350034058
 20
-23.580474921
 10
-73.8015746375
 20
-26.5949424939
  0
LWPOLYLINE
  5
21B
100
AcDbEntity
  8
RACCORDO
100
AcDbPolyline
 62
7
  6
CONTINUOUS
 90
10
 70
0
 10
-73.4919479285
 20
36.6390112475
 10
-73.5261146317
 20
35.9973782217
 10
-73.5636861934
 20
35.2782747218
 10
-73.6004798545
 20
34.559477867
 10
-73.6364953914
 20
33.8409918862
 10
-73.6717326294
 20
33.1228200373
 10
-73.7061914377
 20
32.4049646095
 10
-73.7398716342
 20
31.6874288641
 10
-73.7727729906
 20
30.9702170324
 10
-73.8017455143
 20
30.324389491
  0
LWPOLYLINE
  5
21C
100
AcDbEntity
  8
RACCORDO
100
AcDbPolyline
 62
7
  6
CONTINUOUS
 90
10
 70
0
 10
-73.8015734902
 20
-26.5949415634
 10
-73.7728805184
 20
-27.1999152756
 10
-73.7399729508
 20
-27.8776259985
 10
-73.7062857724
 20
-28.5547282089
 10
-73.6718191846
 20
-29.2312179204
 10
-73.6365733419
 20
-29.9070920817
 10
-73.6005483464
 20
-30.5823485722
 10
-73.5637443446
 20
-31.2569843353
 10
-73.5261615335
 20
-31.9309953815
 10
-73.4916382142
 20
-32.5376435314
  0
LINE
  5
21D
100
AcDbEntity
  8
RACCORDO
100
AcDbLine
 62
7
  6
CONTINUOUS
 10
-71.689025922
 20
-35.7578331874
 11
-71.689025922
 21
-34.9425484666
  0
LINE
  5
21E
100
AcDbEntity
  8
RACCORDO
100
AcDbLine
 62
7
  6
CONTINUOUS
 10
-71.689025922
 20
39.3714292423
 11
-71.689025922
 21
40.1867139632
  0
LWPOLYLINE
  5
21F
100
AcDbEntity
  8
RACCORDO
100
AcDbPolyline
 62
7
  6
CONTINUOUS
 90
31
 70
0
 10
-71.0868287805
 20
41.8019243979
 10
-71.1607443816
 20
41.7544873401
 10
-71.2951093278
 20
41.6602921417
 10
-71.427541068
 20
41.5569100601
 10
-71.5582729788
 20
41.4439426289
 10
-71.6868800056
 20
41.3215298222
 10
-71.8123645962
 20
41.1905450011
 10
-71.9347094463
 20
41.0510215794
 10
-72.0539751914
 20
40.9028794323
 10
-72.1693898482
 20
40.7471349922
 10
-72.2809658965
 20
40.5838984786
 10
-72.3887195191
 20
40.4132539917
 10
-72.491924359
 20
40.2365325662
 10
-72.5905859058
 20
40.0540058755
 10
-72.6847181891
 20
39.8659041952
 10
-72.7736687441
 20
39.6738715909
 10
-72.8573591541
 20
39.4785987475
 10
-72.9359587815
 20
39.2801747653
 10
-73.0092548295
 20
39.0796235136
 10
-73.0771437637
 20
38.8778592908
 10
-73.1398529327
 20
38.6747955564
 10
-73.1976352939
 20
38.4700477284
 10
-73.2504672166
 20
38.2640291186
 10
-73.2983473435
 20
38.0570272171
 10
-73.3414453266
 20
37.8484615012
 10
-73.3796773094
 20
37.6386644458
 10
-73.4129562705
 20
37.4279595522
 10
-73.4413149175
 20
37.2157182556
 10
-73.4646204886
 20
37.0019367924
 10
-73.4826613839
 20
36.787310238
 10
-73.4919480981
 20
36.6389938898
  0
LINE
  5
220
100
AcDbEntity
  8
RACCORDO
100
AcDbLine
 62
7
  6
CONTINUOUS
 10
-71.0866815228
 20
41.8020176764
 11
-71.086829582
 21
41.8019256882
  0
LINE
  5
221
100
AcDbEntity
  8
RACCORDO
100
AcDbLine
 62
7
  6
CONTINUOUS
 10
-62.6519166189
 20
47.0414525487
 11
-71.0866815185
 21
41.802017679
  0
LINE
  5
222
100
AcDbEntity
  8
RACCORDO
100
AcDbLine
 62
253
  6
CONTINUOUS
 10
-61.8695272699
 20
47.1712895798
 11
-70.3016958255
 21
41.9334674848
  0
LINE
  5
223
100
AcDbEntity
  8
RACCORDO
100
AcDbLine
 62
253
  6
CONTINUOUS
 10
-61.8694778065
 20
47.1712798125
 11
-61.3694778065
 21
47.4674779452
  0
LINE
  5
224
100
AcDbEntity
  8
RACCORDO
100
AcDbLine
 62
7
  6
CONTINUOUS
 10
-62.1160294533
 20
47.3589134433
 11
-42.3151147218
 21
58.5360952771
  0
LINE
  5
225
100
AcDbEntity
  8
RACCORDO
100
AcDbLine
 62
253
  6
CONTINUOUS
 10
-61.3695272699
 20
47.4674877126
 11
-41.5703426476
 21
58.6436887293
  0
LINE
  5
226
100
AcDbEntity
  8
RACCORDO
100
AcDbLine
 62
253
  6
CONTINUOUS
 10
-71.689025922
 20
39.3714292423
 11
-71.3807166875
 21
39.5454630393
  0
LINE
  5
227
100
AcDbEntity
  8
0
100
AcDbLine
 62
7
  6
CONTINUOUS
 10
-65.1268936697
 20
-30.008888524
 11
-65.0318207183
 21
-30.1237891813
  0
LINE
  5
228
100
AcDbEntity
  8
0
100
AcDbLine
 62
7
  6
CONTINUOUS
 10
-62.8998795041
 20
-31.6493056779
 11
-62.8948129211
 21
-31.7462715412
  0
LINE
  5
229
100
AcDbEntity
  8
0
100
AcDbLine
 62
7
  6
CONTINUOUS
 10
-60.9152377817
 20
-32.0412037928
 11
-60.9101711987
 21
-32.1381696561
  0
LINE
  5
22A
100
AcDbEntity
  8
0
100
AcDbLine
 62
7
  6
CONTINUOUS
 10
-63.7764924641
 20
-31.9559025002
 11
-63.9169410525
 21
-31.8322551365
  0
LINE
  5
22B
100
AcDbEntity
  8
0
100
AcDbLine
 62
7
  6
CONTINUOUS
 10
-61.7918509998
 20
-32.3478005641
 11
-61.9322995881
 21
-32.2241532004
  0
LINE
  5
22C
100
AcDbEntity
  8
0
100
AcDbLine
 62
7
  6
CONTINUOUS
 10
-63.1906149882
 20
-31.2079044807
 11
-63.0502974491
 21
-31.3316294775
  0
LINE
  5
22D
100
AcDbEntity
  8
0
100
AcDbLine
 62
7
  6
CONTINUOUS
 10
-61.2059732658
 20
-31.5998025956
 11
-61.0656557266
 21
-31.7235275923
  0
LINE
  5
22E
100
AcDbEntity
  8
RACCORDO
100
AcDbLine
 62
253
  6
CONTINUOUS
 10
-60.0843399936
 20
-23.1248785618
 11
-60.0843437313
 21
-23.1247773643
  0
LINE
  5
22F
100
AcDbEntity
  8
RACCORDO
100
AcDbLine
 62
7
  6
CONTINUOUS
 10
-58.905891669
 20
21.666207263
 11
-58.905891669
 21
21.8016815699
  0
LINE
  5
230
100
AcDbEntity
  8
RACCORDO
100
AcDbLine
 62
253
  6
CONTINUOUS
 10
-60.0843690876
 20
20.7002915538
 11
-60.0843678512
 21
20.7003275677
  0
LINE
  5
231
100
AcDbEntity
  8
RACCORDO
100
AcDbLine
 62
7
  6
CONTINUOUS
 10
-24.9819824327
 20
54.5098929482
 11
-26.347864524
 21
53.7007494982
  0
LINE
  5
232
100
AcDbEntity
  8
RACCORDO
100
AcDbLine
 62
7
  6
CONTINUOUS
 10
-27.4819824327
 20
53.9246985695
 11
-24.977619165
 21
55.3671995877
  0
LINE
  5
233
100
AcDbEntity
  8
RACCORDO
100
AcDbLine
 62
7
  6
CONTINUOUS
 10
-23.1518554138
 20
53.0696482112
 11
-20.6474921461
 21
54.5121492294
  0
LWPOLYLINE
  5
234
100
AcDbEntity
  8
RACCORDO
100
AcDbPolyline
 62
7
  6
CONTINUOUS
 90
5
 70
0
 10
-71.7635471475
 20
-35.8036736246
 10
-71.6334501782
 20
-35.8599598899
 10
-71.5011948405
 20
-35.9077061797
 10
-71.3671097736
 20
-35.9469242852
 10
-71.2378009132
 20
-35.9763990116
  0
LINE
  5
235
100
AcDbEntity
  8
0
100
AcDbLine
 62
7
  6
CONTINUOUS
 10
-65.2646349673
 20
-29.9336210154
 11
-65.1268936697
 21
-30.008888524
  0
LINE
  5
236
100
AcDbEntity
  8
RACCORDO
100
AcDbLine
 62
253
  6
CONTINUOUS
 10
-59.5741969689
 20
-23.621851273
 11
-60.4028702629
 21
-27.2374578487
  0
LINE
  5
237
100
AcDbEntity
  8
RACCORDO
100
AcDbLine
 62
253
  6
CONTINUOUS
 10
-58.9534372329
 20
-23.741024325
 11
-59.7849248797
 21
-27.3689102786
  0
LINE
  5
238
100
AcDbEntity
  8
0
100
AcDbLine
 62
7
  6
CONTINUOUS
 10
-31.8273371431
 20
49.328067734
 11
-32.2224584434
 21
48.6993294349
  0
LINE
  5
239
100
AcDbEntity
  8
0
100
AcDbLine
 62
7
  6
CONTINUOUS
 10
34.6855613528
 20
-50.342991858
 11
34.5527275139
 21
-50.3647848851
  0
LWPOLYLINE
  5
23A
100
AcDbEntity
  8
RACCORDO
100
AcDbPolyline
 62
7
  6
CONTINUOUS
 90
15
 70
0
 10
43.6634917844
 20
-58.6654313749
 10
43.752818747
 20
-58.6812668038
 10
43.874395729
 20
-58.6970427463
 10
43.9988785475
 20
-58.7064443157
 10
44.1258493501
 20
-58.709120506
 10
44.2545855306
 20
-58.7047854374
 10
44.3847934569
 20
-58.6932149891
 10
44.5161449227
 20
-58.6742138859
 10
44.647892043
 20
-58.6477110542
 10
44.7797412377
 20
-58.6136253511
 10
44.9114219876
 20
-58.5718863848
 10
45.0423142872
 20
-58.5225862357
 10
45.1720955032
 20
-58.4657963744
 10
45.300687068
 20
-58.40149744
 10
45.3645771151
 20
-58.3664830049
  0
LINE
  5
23B
100
AcDbEntity
  8
0
100
AcDbLine
 62
7
  6
CONTINUOUS
 10
-63.8086960419
 20
-32.1892708643
 11
-63.5805759868
 21
-32.2822524674
  0
LINE
  5
23C
100
AcDbEntity
  8
0
100
AcDbLine
 62
7
  6
CONTINUOUS
 10
-61.8240543195
 20
-32.5811689791
 11
-61.5959345225
 21
-32.6741505313
  0
LINE
  5
23D
100
AcDbEntity
  8
0
100
AcDbLine
 62
7
  6
CONTINUOUS
 10
-63.1579404505
 20
-30.9742571524
 11
-63.385942
 21
-30.8812051475
  0
LINE
  5
23E
100
AcDbEntity
  8
0
100
AcDbLine
 62
7
  6
CONTINUOUS
 10
-61.1732989862
 20
-31.3661552163
 11
-61.4013005356
 21
-31.2731032114
  0
LINE
  5
23F
100
AcDbEntity
  8
0
100
AcDbLine
 62
7
  6
CONTINUOUS
 10
-65.0938714602
 20
-29.7750351343
 11
-65.3218032001
 21
-29.6819419783
  0
LINE
  5
240
100
AcDbEntity
  8
0
100
AcDbLine
 62
7
  6
CONTINUOUS
 10
-63.5934984723
 20
-32.0399894441
 11
-63.7764924641
 21
-31.9559025002
  0
LINE
  5
241
100
AcDbEntity
  8
0
100
AcDbLine
 62
7
  6
CONTINUOUS
 10
-61.608857008
 20
-32.431887508
 11
-61.7918509998
 21
-32.3478005641
  0
LINE
  5
242
100
AcDbEntity
  8
0
100
AcDbLine
 62
7
  6
CONTINUOUS
 10
-63.3735314277
 20
-31.1237713912
 11
-63.1906149882
 21
-31.2079044807
  0
LINE
  5
243
100
AcDbEntity
  8
0
100
AcDbLine
 62
7
  6
CONTINUOUS
 10
-61.3888899634
 20
-31.5156694551
 11
-61.2059732658
 21
-31.5998025956
  0
LINE
  5
244
100
AcDbEntity
  8
RACCORDO
100
AcDbLine
 62
253
  6
CONTINUOUS
 10
-59.3011642835
 20
21.4320492424
 11
-60.4028703961
 21
25.3408135473
  0
LINE
  5
245
100
AcDbEntity
  8
RACCORDO
100
AcDbLine
 62
253
  6
CONTINUOUS
 10
-58.7521542452
 20
21.8665676025
 11
-59.7849250485
 21
25.5307549979
  0
LINE
  5
246
100
AcDbEntity
  8
RACCORDO
100
AcDbLine
 62
7
  6
CONTINUOUS
 10
-58.8612097472
 20
21.6926766666
 11
-58.8888991507
 21
21.8192496997
  0
LINE
  5
247
100
AcDbEntity
  8
RACCORDO
100
AcDbLine
 62
7
  6
CONTINUOUS
 10
-59.8395084922
 20
21.1131361436
 11
-58.7042309849
 21
21.7856702992
  0
LINE
  5
248
100
AcDbEntity
  8
RACCORDO
100
AcDbLine
 62
253
  6
CONTINUOUS
 10
-59.5846698061
 20
21.1527996509
 11
-58.6046440018
 21
21.7333632775
  0
LINE
  5
249
100
AcDbEntity
  8
RACCORDO
100
AcDbLine
 62
253
  6
CONTINUOUS
 10
42.1210639701
 20
-55.72302004
 11
42.1305677452
 21
-55.7248166229
  0
LINE
  5
24A
100
AcDbEntity
  8
RACCORDO
100
AcDbLine
 62
7
  6
CONTINUOUS
 10
8.006991288
 20
-51.6245056238
 11
8.0072787678
 21
-51.6245622711
  0
LINE
  5
24B
100
AcDbEntity
  8
RACCORDO
100
AcDbLine
 62
7
  6
CONTINUOUS
 10
-35.5820206042
 20
-43.0171830039
 11
-35.5817151998
 21
-43.0172431907
  0
LINE
  5
24C
100
AcDbEntity
  8
RACCORDO
100
AcDbLine
 62
7
  6
CONTINUOUS
 10
-71.2385277968
 20
-35.9762558125
 11
-71.2377831798
 21
-35.9764025772
  0
LINE
  5
24D
100
AcDbEntity
  8
ASSI
100
AcDbLine
 62
7
  6
CONTINUOUS
 10
7.5372592299
 20
-51.7079500507
 11
-35.2027482035
 21
-43.2682764544
  0
LINE
  5
24E
100
AcDbEntity
  8
RACCORDO
100
AcDbLine
 62
7
  6
CONTINUOUS
 10
6.2960136148
 20
-51.3809063255
 11
-34.7535905246
 21
-43.2750289286
  0
LINE
  5
24F
100
AcDbEntity
  8
ASSI
100
AcDbLine
 62
7
  6
CONTINUOUS
 10
-71.2385325869
 20
-35.9762548666
 11
-35.5817160476
 21
-43.0172431852
  0
LINE
  5
250
100
AcDbEntity
  8
ASSI
100
AcDbLine
 62
7
  6
CONTINUOUS
 10
8.0072776431
 20
-51.6245622109
 11
43.6640941824
 21
-58.6655505295
  0
LINE
  5
251
100
AcDbEntity
  8
RACCORDO
100
AcDbLine
 62
7
  6
CONTINUOUS
 10
43.1314490123
 20
-58.4309067036
 11
8.3816109952
 21
-51.5690152814
  0
LINE
  5
252
100
AcDbEntity
  8
RACCORDO
100
AcDbLine
 62
7
  6
CONTINUOUS
 10
-36.9391879049
 20
-42.6197246095
 11
-71.689025922
 21
-35.7578331874
  0
LINE
  5
253
100
AcDbEntity
  8
RACCORDO
100
AcDbLine
 62
7
  6
CONTINUOUS
 10
-71.472527815
 20
-35.2202135666
 11
-36.9391879049
 21
-42.0393540987
  0
LINE
  5
254
100
AcDbEntity
  8
RACCORDO
100
AcDbLine
 62
7
  6
CONTINUOUS
 10
8.3816109952
 20
-50.9886447706
 11
42.5937037241
 21
-57.7443500926
  0
LINE
  5
255
100
AcDbEntity
  8
ASSI
100
AcDbLine
 62
7
  6
CONTINUOUS
 10
42.2413694289
 20
-56.6814265684
 11
7.5372592299
 21
-49.8285648091
  0
LINE
  5
256
100
AcDbEntity
  8
ASSI
100
AcDbLine
 62
7
  6
CONTINUOUS
 10
-35.2555882396
 20
-41.3784571328
 11
-70.834264536
 21
-34.3528988102
  0
LINE
  5
257
100
AcDbEntity
  8
RACCORDO
100
AcDbLine
 62
7
  6
CONTINUOUS
 10
6.2960136148
 20
-49.5015210839
 11
-34.7535905246
 21
-41.3956436871
  0
LINE
  5
258
100
AcDbEntity
  8
DRAFT
100
AcDbLine
 62
253
  6
CONTINUOUS
 10
41.6269356994
 20
-53.8981502977
 11
-72.3301155965
 21
-31.3955730945
  0
LINE
  5
259
100
AcDbEntity
  8
0
100
AcDbLine
 62
7
  6
CONTINUOUS
 10
-66.9183821445
 20
-31.6231511665
 11
-66.6477492058
 21
-31.6765918139
  0
LINE
  5
25A
100
AcDbEntity
  8
0
100
AcDbLine
 62
7
  6
CONTINUOUS
 10
-66.2869053091
 20
-31.7478460062
 11
-66.0162723704
 21
-31.8012866536
  0
LINE
  5
25B
100
AcDbEntity
  8
0
100
AcDbLine
 62
7
  6
CONTINUOUS
 10
-63.5805759868
 20
-32.2822524674
 11
-63.3099430481
 21
-32.3356931148
  0
LINE
  5
25C
100
AcDbEntity
  8
0
100
AcDbLine
 62
7
  6
CONTINUOUS
 10
-61.5959345225
 20
-32.6741505313
 11
-61.3253015838
 21
-32.7275911787
  0
LINE
  5
25D
100
AcDbEntity
  8
0
100
AcDbLine
 62
7
  6
CONTINUOUS
 10
26.7278315395
 20
-50.1150402532
 11
27.0886754363
 21
-50.1862944455
  0
LINE
  5
25E
100
AcDbEntity
  8
0
100
AcDbLine
 62
7
  6
CONTINUOUS
 10
28.171207191
 20
-50.4000570351
 11
28.4418401297
 21
-50.4534976825
  0
LINE
  5
25F
100
AcDbEntity
  8
0
100
AcDbLine
 62
7
  6
CONTINUOUS
 10
28.8026839619
 20
-50.524751862
 11
29.0733169006
 21
-50.5781925094
  0
LINE
  5
260
100
AcDbEntity
  8
0
100
AcDbLine
 62
7
  6
CONTINUOUS
 10
29.7047939296
 20
-50.7028873873
 11
30.0656377618
 21
-50.7741415668
  0
LINE
  5
261
100
AcDbEntity
  8
0
100
AcDbLine
 62
7
  6
CONTINUOUS
 10
30.6971147908
 20
-50.8988364447
 11
30.9677477295
 21
-50.9522770921
  0
LINE
  5
262
100
AcDbEntity
  8
0
100
AcDbLine
 62
7
  6
CONTINUOUS
 10
31.3285913036
 20
-51.0235312207
 11
31.5992242423
 21
-51.0769718681
  0
LINE
  5
263
100
AcDbEntity
  8
0
100
AcDbLine
 62
7
  6
CONTINUOUS
 10
32.8621783002
 20
-51.3263616239
 11
33.1328112389
 21
-51.3798022713
  0
LINE
  5
264
100
AcDbEntity
  8
0
100
AcDbLine
 62
7
  6
CONTINUOUS
 10
33.493654813
 20
-51.4510563998
 11
33.7642877517
 21
-51.5044970472
  0
LINE
  5
265
100
AcDbEntity
  8
0
100
AcDbLine
 62
7
  6
CONTINUOUS
 10
34.8919248242
 20
-51.7271663774
 11
35.2076635968
 21
-51.7895138673
  0
LINE
  5
266
100
AcDbEntity
  8
0
100
AcDbLine
 62
7
  6
CONTINUOUS
 10
-61.3382240693
 20
-32.4853281554
 11
-61.608857008
 21
-32.431887508
  0
LINE
  5
267
100
AcDbEntity
  8
0
100
AcDbLine
 62
7
  6
CONTINUOUS
 10
-63.3228655336
 20
-32.0934300915
 11
-63.5934984723
 21
-32.0399894441
  0
LINE
  5
268
100
AcDbEntity
  8
0
100
AcDbLine
 62
7
  6
CONTINUOUS
 10
-61.2628734116
 20
-32.4406907072
 11
-61.5335063503
 21
-32.3872500598
  0
LINE
  5
269
100
AcDbEntity
  8
0
100
AcDbLine
 62
7
  6
CONTINUOUS
 10
-63.2475148759
 20
-32.0487926433
 11
-63.5181478146
 21
-31.9953519959
  0
LINE
  5
26A
100
AcDbEntity
  8
0
100
AcDbLine
 62
7
  6
CONTINUOUS
 10
31.7488046535
 20
-50.5310658569
 11
32.650914105
 21
-50.7092012803
  0
LINE
  5
26B
100
AcDbEntity
  8
0
100
AcDbLine
 62
7
  6
CONTINUOUS
 10
-62.0327258225
 20
-32.0124563828
 11
-62.3033587612
 21
-31.9590157354
  0
LINE
  5
26C
100
AcDbEntity
  8
0
100
AcDbLine
 62
7
  6
CONTINUOUS
 10
-64.0173672868
 20
-31.6205583189
 11
-64.2880002255
 21
-31.5671176715
  0
LINE
  5
26D
100
AcDbEntity
  8
RACCORDO
100
AcDbLine
 62
7
  6
CONTINUOUS
 10
43.664088664
 20
-58.6655494398
 11
43.6635070715
 21
-58.6654344363
  0
LINE
  5
26E
100
AcDbEntity
  8
RACCORDO
100
AcDbLine
 62
253
  6
CONTINUOUS
 10
-72.7399376797
 20
-33.041863719
 11
-72.7304244492
 21
-33.0438224329
  0
LINE
  5
26F
100
AcDbEntity
  8
RACCORDO
100
AcDbLine
 62
7
  6
CONTINUOUS
 10
-59.9165497377
 20
21.1447417395
 11
-59.4985428968
 21
21.315122889
  0
LINE
  5
270
100
AcDbEntity
  8
0
100
AcDbLine
 62
7
  6
CONTINUOUS
 10
-61.9573829158
 20
-31.9678235262
 11
-62.2280158544
 21
-31.9143828788
  0
LINE
  5
271
100
AcDbEntity
  8
0
100
AcDbLine
 62
7
  6
CONTINUOUS
 10
-63.9420243801
 20
-31.5759254623
 11
-64.2126573187
 21
-31.5224848149
  0
LINE
  5
272
100
AcDbEntity
  8
0
100
AcDbLine
 62
7
  6
CONTINUOUS
 10
32.5956592395
 20
-50.5063725176
 11
31.7837604234
 21
-50.3460505754
  0
LINE
  5
273
100
AcDbEntity
  8
0
100
AcDbLine
 62
7
  6
CONTINUOUS
 10
32.5738876217
 20
-50.4425663675
 11
31.8590989408
 21
-50.3014203191
  0
LINE
  5
274
100
AcDbEntity
  8
0
100
AcDbLine
 62
7
  6
CONTINUOUS
 10
-66.06985861
 20
-30.783374276
 11
-65.2579597294
 21
-30.9436962309
  0
LINE
  5
275
100
AcDbEntity
  8
0
100
AcDbLine
 62
7
  6
CONTINUOUS
 10
-64.3107445731
 20
-31.1307384713
 11
-63.9950060586
 21
-31.1930859102
  0
LINE
  5
276
100
AcDbEntity
  8
0
100
AcDbLine
 62
7
  6
CONTINUOUS
 10
-62.3261031087
 20
-31.5226365352
 11
-62.0103643362
 21
-31.5849840251
  0
LINE
  5
277
100
AcDbEntity
  8
0
100
AcDbLine
 62
7
  6
CONTINUOUS
 10
33.7107015122
 20
-50.4865846697
 11
34.4774950105
 21
-50.6379998712
  0
LINE
  5
278
100
AcDbEntity
  8
0
100
AcDbLine
 62
7
  6
CONTINUOUS
 10
-63.6441643663
 20
-31.0703307438
 11
-63.3735314277
 21
-31.1237713912
  0
LINE
  5
279
100
AcDbEntity
  8
0
100
AcDbLine
 62
7
  6
CONTINUOUS
 10
-61.659522902
 20
-31.4622288077
 11
-61.3888899634
 21
-31.5156694551
  0
LINE
  5
27A
100
AcDbEntity
  8
0
100
AcDbLine
 62
7
  6
CONTINUOUS
 10
34.5527275139
 20
-50.3647848851
 11
33.6957228639
 21
-50.1955561004
  0
LINE
  5
27B
100
AcDbEntity
  8
0
100
AcDbLine
 62
7
  6
CONTINUOUS
 10
-65.2278329309
 20
-30.6615744277
 11
-66.0848372582
 21
-30.4923457067
  0
LINE
  5
27C
100
AcDbEntity
  8
0
100
AcDbLine
 62
7
  6
CONTINUOUS
 10
34.628054109
 20
-50.3201616915
 11
33.771049459
 21
-50.1509329068
  0
LINE
  5
27D
100
AcDbEntity
  8
0
100
AcDbLine
 62
7
  6
CONTINUOUS
 10
-65.1525063358
 20
-30.6169512341
 11
-66.0095106631
 21
-30.4477225131
  0
LINE
  5
27E
100
AcDbEntity
  8
0
100
AcDbLine
 62
7
  6
CONTINUOUS
 10
-61.4013005356
 20
-31.2731032114
 11
-61.6719334743
 21
-31.219662564
  0
LINE
  5
27F
100
AcDbEntity
  8
0
100
AcDbLine
 62
7
  6
CONTINUOUS
 10
-63.385942
 20
-30.8812051475
 11
-63.6565749386
 21
-30.8277645001
  0
LINE
  5
280
100
AcDbEntity
  8
0
100
AcDbLine
 62
7
  6
CONTINUOUS
 10
-61.3259771543
 20
-31.2284819216
 11
-61.596610093
 21
-31.1750412742
  0
LINE
  5
281
100
AcDbEntity
  8
0
100
AcDbLine
 62
7
  6
CONTINUOUS
 10
-63.3106186186
 20
-30.8365838577
 11
-63.5812515573
 21
-30.7831432103
  0
LINE
  5
282
100
AcDbEntity
  8
0
100
AcDbLine
 62
7
  6
CONTINUOUS
 10
-66.1216392947
 20
-29.7643922944
 11
-65.2646349673
 21
-29.9336210154
  0
LINE
  5
283
100
AcDbEntity
  8
0
100
AcDbLine
 62
7
  6
CONTINUOUS
 10
-64.1369976368
 20
-30.1562903966
 11
-62.8289385192
 21
-30.414586842
  0
LINE
  5
284
100
AcDbEntity
  8
0
100
AcDbLine
 62
7
  6
CONTINUOUS
 10
-62.1523561725
 20
-30.5481884605
 11
-60.8442967968
 21
-30.8064849568
  0
LINE
  5
285
100
AcDbEntity
  8
0
100
AcDbLine
 62
7
  6
CONTINUOUS
 10
33.6589208275
 20
-49.4676026881
 11
34.5159254774
 21
-49.6368314728
  0
LINE
  5
286
100
AcDbEntity
  8
0
100
AcDbLine
 62
7
  6
CONTINUOUS
 10
34.4587568575
 20
-49.3851523593
 11
33.3762251028
 21
-49.1713897697
  0
LINE
  5
287
100
AcDbEntity
  8
0
100
AcDbLine
 62
7
  6
CONTINUOUS
 10
32.293693348
 20
-48.9576271801
 11
31.9328497739
 21
-48.8863730516
  0
LINE
  5
288
100
AcDbEntity
  8
0
100
AcDbLine
 62
7
  6
CONTINUOUS
 10
30.8503180192
 20
-48.672610462
 11
30.4443686112
 21
-48.5924494909
  0
LINE
  5
289
100
AcDbEntity
  8
0
100
AcDbLine
 62
7
  6
CONTINUOUS
 10
29.0912036596
 20
-48.3252462029
 11
28.6852542516
 21
-48.2450852319
  0
LINE
  5
28A
100
AcDbEntity
  8
0
100
AcDbLine
 62
7
  6
CONTINUOUS
 10
28.3244104194
 20
-48.1738310523
 11
28.0537774807
 21
-48.1203904049
  0
LINE
  5
28B
100
AcDbEntity
  8
0
100
AcDbLine
 62
7
  6
CONTINUOUS
 10
27.6929335195
 20
-48.0491361999
 11
27.4223005808
 21
-47.9956955525
  0
LINE
  5
28C
100
AcDbEntity
  8
0
100
AcDbLine
 62
7
  6
CONTINUOUS
 10
26.15934691
 20
-47.7463058732
 11
25.8887139713
 21
-47.6928652258
  0
LINE
  5
28D
100
AcDbEntity
  8
0
100
AcDbLine
 62
7
  6
CONTINUOUS
 10
-60.8563595828
 20
-30.5637126858
 11
-62.3899465795
 21
-30.2608822826
  0
LINE
  5
28E
100
AcDbEntity
  8
0
100
AcDbLine
 62
7
  6
CONTINUOUS
 10
-62.8410013052
 20
-30.171814571
 11
-64.3745880438
 21
-29.8689842187
  0
LINE
  5
28F
100
AcDbEntity
  8
0
100
AcDbLine
 62
7
  6
CONTINUOUS
 10
-65.3218032001
 20
-29.6819419783
 11
-66.4043350194
 21
-29.468179376
  0
LINE
  5
290
100
AcDbEntity
  8
0
100
AcDbLine
 62
7
  6
CONTINUOUS
 10
-66.7651789161
 20
-29.3969251837
 11
-67.0358118548
 21
-29.3434845363
  0
LINE
  5
291
100
AcDbEntity
  8
0
100
AcDbLine
 62
7
  6
CONTINUOUS
 10
34.5340623336
 20
-49.3405416765
 11
33.4515305789
 21
-49.1267790869
  0
LINE
  5
292
100
AcDbEntity
  8
0
100
AcDbLine
 62
7
  6
CONTINUOUS
 10
32.3689988241
 20
-48.9130164973
 11
32.00815525
 21
-48.8417623687
  0
LINE
  5
293
100
AcDbEntity
  8
0
100
AcDbLine
 62
7
  6
CONTINUOUS
 10
30.9256234953
 20
-48.6279997792
 11
30.5196740873
 21
-48.5478388081
  0
LINE
  5
294
100
AcDbEntity
  8
0
100
AcDbLine
 62
7
  6
CONTINUOUS
 10
29.1665091358
 20
-48.2806355201
 11
28.7605597277
 21
-48.200474549
  0
LINE
  5
295
100
AcDbEntity
  8
0
100
AcDbLine
 62
7
  6
CONTINUOUS
 10
28.3997158955
 20
-48.1292203695
 11
28.1290829568
 21
-48.0757797221
  0
LINE
  5
296
100
AcDbEntity
  8
0
100
AcDbLine
 62
7
  6
CONTINUOUS
 10
27.7682389956
 20
-48.0045255171
 11
27.4976060569
 21
-47.9510848697
  0
LINE
  5
297
100
AcDbEntity
  8
0
100
AcDbLine
 62
7
  6
CONTINUOUS
 10
26.2346523861
 20
-47.7016951903
 11
25.9640194474
 21
-47.648254543
  0
LINE
  5
298
100
AcDbEntity
  8
0
100
AcDbLine
 62
7
  6
CONTINUOUS
 10
-60.7810541067
 20
-30.519102003
 11
-62.3146411034
 21
-30.2162715998
  0
LINE
  5
299
100
AcDbEntity
  8
0
100
AcDbLine
 62
7
  6
CONTINUOUS
 10
-62.7656958291
 20
-30.1272038881
 11
-64.2992825677
 21
-29.8243735359
  0
LINE
  5
29A
100
AcDbEntity
  8
0
100
AcDbLine
 62
7
  6
CONTINUOUS
 10
-65.246497724
 20
-29.6373312955
 11
-66.3290295433
 21
-29.4235686932
  0
LINE
  5
29B
100
AcDbEntity
  8
0
100
AcDbLine
 62
7
  6
CONTINUOUS
 10
-66.68987344
 20
-29.3523145009
 11
-66.9605063787
 21
-29.2988738535
  0
LINE
  5
29C
100
AcDbEntity
  8
RACCORDO
100
AcDbLine
 62
253
  6
CONTINUOUS
 10
-60.9268435383
 20
-29.1427534317
 11
29.7582755687
 21
-47.0499287287
  0
LINE
  5
29D
100
AcDbEntity
  8
RACCORDO
100
AcDbLine
 62
253
  6
CONTINUOUS
 10
29.4134000607
 20
-46.7695741452
 11
-60.5536717969
 21
-29.0042448374
  0
LINE
  5
29E
100
AcDbEntity
  8
RACCORDO
100
AcDbLine
 62
253
  6
CONTINUOUS
 10
-36.9391879049
 20
-42.6197246095
 11
-36.9391879049
 21
-42.0393540987
  0
LINE
  5
29F
100
AcDbEntity
  8
RACCORDO
100
AcDbLine
 62
253
  6
CONTINUOUS
 10
-35.5820206042
 20
-43.0171830039
 11
-35.5820206042
 21
-41.9112519087
  0
LINE
  5
2A0
100
AcDbEntity
  8
RACCORDO
100
AcDbLine
 62
7
  6
CONTINUOUS
 10
-35.2535905246
 20
-43.2477255904
 11
-35.2535905246
 21
-41.3683403488
  0
LINE
  5
2A1
100
AcDbEntity
  8
RACCORDO
100
AcDbLine
 62
253
  6
CONTINUOUS
 10
-34.7535905246
 20
-43.2750289286
 11
-34.7535905246
 21
-41.3956436871
  0
LINE
  5
2A2
100
AcDbEntity
  8
0
100
AcDbLine
 62
7
  6
CONTINUOUS
 10
-61.3253015838
 20
-32.7275911787
 11
-61.1023666551
 21
-32.7236773382
  0
LINE
  5
2A3
100
AcDbEntity
  8
0
100
AcDbLine
 62
7
  6
CONTINUOUS
 10
-63.3099430481
 20
-32.3356931148
 11
-63.0870081194
 21
-32.3317792743
  0
LINE
  5
2A4
100
AcDbEntity
  8
RACCORDO
100
AcDbLine
 62
7
  6
CONTINUOUS
 10
-59.6815321192
 20
-23.5972507611
 11
28.3066489053
 21
-40.9718740421
  0
LINE
  5
2A5
100
AcDbEntity
  8
RACCORDO
100
AcDbLine
 62
253
  6
CONTINUOUS
 10
-59.8341152216
 20
-23.2857716608
 11
28.1540658029
 21
-40.6603949417
  0
LINE
  5
2A6
100
AcDbEntity
  8
RACCORDO
100
AcDbLine
 62
253
  6
CONTINUOUS
 10
28.3064405856
 20
-40.9718326979
 11
28.3066699629
 21
-40.9718781981
  0
LINE
  5
2A7
100
AcDbEntity
  8
0
100
AcDbLine
 62
7
  6
CONTINUOUS
 10
34.6866888555
 20
-49.4782455662
 11
34.4587568575
 21
-49.3851523593
  0
LINE
  5
2A8
100
AcDbEntity
  8
RACCORDO
100
AcDbLine
 62
7
  6
CONTINUOUS
 10
-24.4819824327
 20
54.7211560967
 11
-24.4819824327
 21
54.4907774775
  0
LINE
  5
2A9
100
AcDbEntity
  8
0
100
AcDbLine
 62
7
  6
CONTINUOUS
 10
-2.7775947148
 20
42.8849869983
 11
-2.3824734145
 21
43.5137252975
  0
LINE
  5
2AA
100
AcDbEntity
  8
0
100
AcDbLine
 62
7
  6
CONTINUOUS
 10
-61.8374502948
 20
-31.4751077177
 11
-61.659522902
 21
-31.4622288077
  0
LINE
  5
2AB
100
AcDbEntity
  8
0
100
AcDbLine
 62
7
  6
CONTINUOUS
 10
-63.8220917591
 20
-31.0832096538
 11
-63.6441643663
 21
-31.0703307438
  0
LINE
  5
2AC
100
AcDbEntity
  8
0
100
AcDbLine
 62
7
  6
CONTINUOUS
 10
-61.1603739708
 20
-32.472495442
 11
-61.3382240693
 21
-32.4853281554
  0
LINE
  5
2AD
100
AcDbEntity
  8
0
100
AcDbLine
 62
7
  6
CONTINUOUS
 10
-63.1450156932
 20
-32.0805973271
 11
-63.3228655336
 21
-32.0934300915
  0
LINE
  5
2AE
100
AcDbEntity
  8
0
100
AcDbLine
 62
7
  6
CONTINUOUS
 10
-61.6719334743
 20
-31.219662564
 11
-61.8949866506
 21
-31.2236468572
  0
LINE
  5
2AF
100
AcDbEntity
  8
0
100
AcDbLine
 62
7
  6
CONTINUOUS
 10
-65.2579597294
 20
-30.9436962309
 11
-65.0349390424
 21
-30.9397313881
  0
LINE
  5
2B0
100
AcDbEntity
  8
0
100
AcDbLine
 62
7
  6
CONTINUOUS
 10
-63.6565749386
 20
-30.8277645001
 11
-63.879628373
 21
-30.8317487423
  0
LINE
  5
2B1
100
AcDbEntity
  8
0
100
AcDbLine
 62
7
  6
CONTINUOUS
 10
34.5159254774
 20
-49.6368314728
 11
34.6536662588
 21
-49.7120988795
  0
LINE
  5
2B2
100
AcDbEntity
  8
0
100
AcDbLine
 62
7
  6
CONTINUOUS
 10
-65.009739503
 20
-30.5605612886
 11
-65.0949985758
 21
-30.6397815026
  0
LINE
  5
2B3
100
AcDbEntity
  8
0
100
AcDbLine
 62
7
  6
CONTINUOUS
 10
-65.0949985758
 20
-30.6397815026
 11
-65.2278329309
 21
-30.6615744277
  0
LINE
  5
2B4
100
AcDbEntity
  8
RACCORDO
100
AcDbLine
 62
253
  6
CONTINUOUS
 10
-71.689025922
 20
-34.9425484666
 11
-70.7341269972
 21
-34.3726725116
  0
LINE
  5
2B5
100
AcDbEntity
  8
RACCORDO
100
AcDbLine
 62
253
  6
CONTINUOUS
 10
-71.472527815
 20
-35.2202135666
 11
-70.2218630217
 21
-34.4738269336
  0
LINE
  5
2B6
100
AcDbEntity
  8
0
100
AcDbLine
 62
7
  6
CONTINUOUS
 10
-67.0358118548
 20
-29.3434845363
 11
-66.9605063787
 21
-29.2988738535
  0
LINE
  5
2B7
100
AcDbEntity
  8
0
100
AcDbLine
 62
7
  6
CONTINUOUS
 10
-66.7651789161
 20
-29.3969251837
 11
-66.68987344
 21
-29.3523145009
  0
LINE
  5
2B8
100
AcDbEntity
  8
0
100
AcDbLine
 62
7
  6
CONTINUOUS
 10
-66.4043350194
 20
-29.468179376
 11
-66.3290295433
 21
-29.4235686932
  0
LINE
  5
2B9
100
AcDbEntity
  8
0
100
AcDbLine
 62
7
  6
CONTINUOUS
 10
-65.3218032001
 20
-29.6819419783
 11
-65.246497724
 21
-29.6373312955
  0
LINE
  5
2BA
100
AcDbEntity
  8
0
100
AcDbLine
 62
7
  6
CONTINUOUS
 10
-65.0938714602
 20
-29.7750351343
 11
-65.0185649452
 21
-29.730423836
  0
LINE
  5
2BB
100
AcDbEntity
  8
0
100
AcDbLine
 62
7
  6
CONTINUOUS
 10
-66.0848372582
 20
-30.4923457067
 11
-66.0095106631
 21
-30.4477225131
  0
LINE
  5
2BC
100
AcDbEntity
  8
0
100
AcDbLine
 62
7
  6
CONTINUOUS
 10
-64.9062117437
 20
-29.9563256123
 11
-64.8309021014
 21
-29.9117124614
  0
LINE
  5
2BD
100
AcDbEntity
  8
0
100
AcDbLine
 62
7
  6
CONTINUOUS
 10
-64.3745880438
 20
-29.8689842187
 11
-64.2992825677
 21
-29.8243735359
  0
LINE
  5
2BE
100
AcDbEntity
  8
0
100
AcDbLine
 62
7
  6
CONTINUOUS
 10
-64.7611879087
 20
-30.1772298032
 11
-64.6858740713
 21
-30.1326141672
  0
LINE
  5
2BF
100
AcDbEntity
  8
0
100
AcDbLine
 62
7
  6
CONTINUOUS
 10
-64.708758756
 20
-30.3317490674
 11
-64.6334417535
 21
-30.2871315564
  0
LINE
  5
2C0
100
AcDbEntity
  8
0
100
AcDbLine
 62
7
  6
CONTINUOUS
 10
-65.2278329309
 20
-30.6615744277
 11
-65.1525063358
 21
-30.6169512341
  0
LINE
  5
2C1
100
AcDbEntity
  8
0
100
AcDbLine
 62
7
  6
CONTINUOUS
 10
-66.6477492058
 20
-31.6765918139
 11
-66.5723929576
 21
-31.6319510539
  0
LINE
  5
2C2
100
AcDbEntity
  8
0
100
AcDbLine
 62
7
  6
CONTINUOUS
 10
-64.6989366968
 20
-30.5258652326
 11
-64.6236154489
 21
-30.4812452066
  0
LINE
  5
2C3
100
AcDbEntity
  8
0
100
AcDbLine
 62
7
  6
CONTINUOUS
 10
-64.7366327649
 20
-30.6625200086
 11
-64.6613083141
 21
-30.6178980852
  0
LINE
  5
2C4
100
AcDbEntity
  8
0
100
AcDbLine
 62
7
  6
CONTINUOUS
 10
-64.8620124614
 20
-30.829847856
 11
-64.7866837148
 21
-30.7852233879
  0
LINE
  5
2C5
100
AcDbEntity
  8
0
100
AcDbLine
 62
7
  6
CONTINUOUS
 10
-66.0162723704
 20
-31.8012866536
 11
-65.9409161222
 21
-31.7566458935
  0
LINE
  5
2C6
100
AcDbEntity
  8
0
100
AcDbLine
 62
7
  6
CONTINUOUS
 10
-62.8410013052
 20
-30.171814571
 11
-62.7656958291
 21
-30.1272038881
  0
LINE
  5
2C7
100
AcDbEntity
  8
0
100
AcDbLine
 62
7
  6
CONTINUOUS
 10
-64.0977093929
 20
-30.9327546329
 11
-64.022381723
 21
-30.8881308026
  0
LINE
  5
2C8
100
AcDbEntity
  8
0
100
AcDbLine
 62
7
  6
CONTINUOUS
 10
-63.879628373
 20
-30.8317487423
 11
-63.8043039222
 21
-30.787126819
  0
LINE
  5
2C9
100
AcDbEntity
  8
0
100
AcDbLine
 62
7
  6
CONTINUOUS
 10
-63.6565749386
 20
-30.8277645001
 11
-63.5812515573
 21
-30.7831432103
  0
LINE
  5
2CA
100
AcDbEntity
  8
0
100
AcDbLine
 62
7
  6
CONTINUOUS
 10
-62.8289385192
 20
-30.414586842
 11
-62.7536278307
 21
-30.3699730714
  0
LINE
  5
2CB
100
AcDbEntity
  8
0
100
AcDbLine
 62
7
  6
CONTINUOUS
 10
-62.3899465795
 20
-30.2608822826
 11
-62.3146411034
 21
-30.2162715998
  0
LINE
  5
2CC
100
AcDbEntity
  8
0
100
AcDbLine
 62
7
  6
CONTINUOUS
 10
-63.385942
 20
-30.8812051475
 11
-63.3106186186
 21
-30.8365838577
  0
LINE
  5
2CD
100
AcDbEntity
  8
0
100
AcDbLine
 62
7
  6
CONTINUOUS
 10
-64.2880002255
 20
-31.5671176715
 11
-64.2126573187
 21
-31.5224848149
  0
LINE
  5
2CE
100
AcDbEntity
  8
0
100
AcDbLine
 62
7
  6
CONTINUOUS
 10
-63.1579404505
 20
-30.9742571524
 11
-63.0826159997
 21
-30.929635229
  0
LINE
  5
2CF
100
AcDbEntity
  8
0
100
AcDbLine
 62
7
  6
CONTINUOUS
 10
-64.0173672868
 20
-31.6205583189
 11
-63.9420243801
 21
-31.5759254623
  0
LINE
  5
2D0
100
AcDbEntity
  8
0
100
AcDbLine
 62
7
  6
CONTINUOUS
 10
-62.9249667446
 20
-31.1643307547
 11
-62.8496390747
 21
-31.1197069243
  0
LINE
  5
2D1
100
AcDbEntity
  8
0
100
AcDbLine
 62
7
  6
CONTINUOUS
 10
-63.9169410525
 20
-31.8322551365
 11
-63.8415937274
 21
-31.7876196625
  0
LINE
  5
2D2
100
AcDbEntity
  8
0
100
AcDbLine
 62
7
  6
CONTINUOUS
 10
-63.7764924641
 20
-31.9559025002
 11
-63.7011429191
 21
-31.9112657112
  0
LINE
  5
2D3
100
AcDbEntity
  8
0
100
AcDbLine
 62
7
  6
CONTINUOUS
 10
-62.7796645104
 20
-31.3850701249
 11
-62.7043325231
 21
-31.3404437369
  0
LINE
  5
2D4
100
AcDbEntity
  8
0
100
AcDbLine
 62
7
  6
CONTINUOUS
 10
-63.5934984723
 20
-32.0399894441
 11
-63.5181478146
 21
-31.9953519959
  0
LINE
  5
2D5
100
AcDbEntity
  8
0
100
AcDbLine
 62
7
  6
CONTINUOUS
 10
-60.8563595828
 20
-30.5637126858
 11
-60.7810541067
 21
-30.519102003
  0
LINE
  5
2D6
100
AcDbEntity
  8
0
100
AcDbLine
 62
7
  6
CONTINUOUS
 10
-62.6768792899
 20
-31.6453529631
 11
-62.6015418655
 21
-31.6007233542
  0
LINE
  5
2D7
100
AcDbEntity
  8
0
100
AcDbLine
 62
7
  6
CONTINUOUS
 10
-62.1130679286
 20
-31.3246526968
 11
-62.0377402587
 21
-31.2800288665
  0
LINE
  5
2D8
100
AcDbEntity
  8
0
100
AcDbLine
 62
7
  6
CONTINUOUS
 10
-61.8949866506
 20
-31.2236468572
 11
-61.8196621998
 21
-31.1790249338
  0
LINE
  5
2D9
100
AcDbEntity
  8
0
100
AcDbLine
 62
7
  6
CONTINUOUS
 10
-63.3228655336
 20
-32.0934300915
 11
-63.2475148759
 21
-32.0487926433
  0
LINE
  5
2DA
100
AcDbEntity
  8
0
100
AcDbLine
 62
7
  6
CONTINUOUS
 10
-63.1450156932
 20
-32.0805973271
 11
-63.0696661482
 21
-32.0359605381
  0
LINE
  5
2DB
100
AcDbEntity
  8
0
100
AcDbLine
 62
7
  6
CONTINUOUS
 10
-61.6719334743
 20
-31.219662564
 11
-61.596610093
 21
-31.1750412742
  0
LINE
  5
2DC
100
AcDbEntity
  8
0
100
AcDbLine
 62
7
  6
CONTINUOUS
 10
-62.6667461236
 20
-31.8392846896
 11
-62.5914043169
 21
-31.7946524847
  0
LINE
  5
2DD
100
AcDbEntity
  8
0
100
AcDbLine
 62
7
  6
CONTINUOUS
 10
-60.8442967968
 20
-30.8064849568
 11
-60.7689861083
 21
-30.7618711863
  0
LINE
  5
2DE
100
AcDbEntity
  8
0
100
AcDbLine
 62
7
  6
CONTINUOUS
 10
-62.7441984042
 20
-32.0638312582
 11
-62.6688510792
 21
-32.0191957842
  0
LINE
  5
2DF
100
AcDbEntity
  8
0
100
AcDbLine
 62
7
  6
CONTINUOUS
 10
-61.4013005356
 20
-31.2731032114
 11
-61.3259771543
 21
-31.2284819216
  0
LINE
  5
2E0
100
AcDbEntity
  8
0
100
AcDbLine
 62
7
  6
CONTINUOUS
 10
-62.869234247
 20
-32.2309553236
 11
-62.7938824749
 21
-32.1863172152
  0
LINE
  5
2E1
100
AcDbEntity
  8
0
100
AcDbLine
 62
7
  6
CONTINUOUS
 10
-62.3033587612
 20
-31.9590157354
 11
-62.2280158544
 21
-31.9143828788
  0
LINE
  5
2E2
100
AcDbEntity
  8
0
100
AcDbLine
 62
7
  6
CONTINUOUS
 10
-61.1732989862
 20
-31.3661552163
 11
-61.0979745354
 21
-31.3215332929
  0
LINE
  5
2E3
100
AcDbEntity
  8
0
100
AcDbLine
 62
7
  6
CONTINUOUS
 10
-62.0327258225
 20
-32.0124563828
 11
-61.9573829158
 21
-31.9678235262
  0
LINE
  5
2E4
100
AcDbEntity
  8
0
100
AcDbLine
 62
7
  6
CONTINUOUS
 10
-60.9403250222
 20
-31.5562288695
 11
-60.8649973523
 21
-31.5116050392
  0
LINE
  5
2E5
100
AcDbEntity
  8
0
100
AcDbLine
 62
7
  6
CONTINUOUS
 10
-61.9322995881
 20
-32.2241532004
 11
-61.8569522631
 21
-32.1795177264
  0
LINE
  5
2E6
100
AcDbEntity
  8
0
100
AcDbLine
 62
7
  6
CONTINUOUS
 10
-61.7918509998
 20
-32.3478005641
 11
-61.7165014548
 21
-32.3031637751
  0
LINE
  5
2E7
100
AcDbEntity
  8
0
100
AcDbLine
 62
7
  6
CONTINUOUS
 10
-60.795022788
 20
-31.7769682397
 11
-60.7196908007
 21
-31.7323418518
  0
LINE
  5
2E8
100
AcDbEntity
  8
0
100
AcDbLine
 62
7
  6
CONTINUOUS
 10
-61.608857008
 20
-32.431887508
 11
-61.5335063503
 21
-32.3872500598
  0
LINE
  5
2E9
100
AcDbEntity
  8
0
100
AcDbLine
 62
7
  6
CONTINUOUS
 10
-60.6922378256
 20
-32.037251027
 11
-60.6169004012
 21
-31.9926214181
  0
LINE
  5
2EA
100
AcDbEntity
  8
0
100
AcDbLine
 62
7
  6
CONTINUOUS
 10
-61.3382240693
 20
-32.4853281554
 11
-61.2628734116
 21
-32.4406907072
  0
LINE
  5
2EB
100
AcDbEntity
  8
0
100
AcDbLine
 62
7
  6
CONTINUOUS
 10
-61.1603739708
 20
-32.472495442
 11
-61.0850244258
 21
-32.427858653
  0
LINE
  5
2EC
100
AcDbEntity
  8
0
100
AcDbLine
 62
7
  6
CONTINUOUS
 10
-60.6821046593
 20
-32.2311827535
 11
-60.6067628526
 21
-32.1865505486
  0
LINE
  5
2ED
100
AcDbEntity
  8
0
100
AcDbLine
 62
7
  6
CONTINUOUS
 10
-60.7595566818
 20
-32.4557293731
 11
-60.6842093568
 21
-32.4110938991
  0
LINE
  5
2EE
100
AcDbEntity
  8
0
100
AcDbLine
 62
7
  6
CONTINUOUS
 10
-60.8845925246
 20
-32.6228534385
 11
-60.8092407525
 21
-32.57821533
  0
LINE
  5
2EF
100
AcDbEntity
  8
0
100
AcDbLine
 62
7
  6
CONTINUOUS
 10
-63.0148313429
 20
-32.0103906108
 11
-63.1450156932
 21
-32.0805973271
  0
LINE
  5
2F0
100
AcDbEntity
  8
0
100
AcDbLine
 62
7
  6
CONTINUOUS
 10
-61.0301896205
 20
-32.4022887257
 11
-61.1603739708
 21
-32.472495442
  0
LINE
  5
2F1
100
AcDbEntity
  8
0
100
AcDbLine
 62
7
  6
CONTINUOUS
 10
34.6536662588
 20
-49.7120988795
 11
34.7487398555
 21
-49.8269996642
  0
LINE
  5
2F2
100
AcDbEntity
  8
RACCORDO
100
AcDbLine
 62
253
  6
CONTINUOUS
 10
6.2960136148
 20
-49.5015210839
 11
6.2960136148
 21
-51.3809063255
  0
LINE
  5
2F3
100
AcDbEntity
  8
0
100
AcDbLine
 62
7
  6
CONTINUOUS
 10
27.0623903142
 20
37.6993828609
 11
26.6672690139
 21
37.0706445618
  0
LINE
  5
2F4
100
AcDbEntity
  8
RACCORDO
100
AcDbLine
 62
253
  6
CONTINUOUS
 10
44.6209587583
 20
19.2402170203
 11
53.3119503602
 21
24.4269305141
  0
LINE
  5
2F5
100
AcDbEntity
  8
RACCORDO
100
AcDbLine
 62
253
  6
CONTINUOUS
 10
53.3119008968
 20
24.4269402814
 11
53.8119008968
 21
24.7231384141
  0
LINE
  5
2F6
100
AcDbEntity
  8
RACCORDO
100
AcDbLine
 62
253
  6
CONTINUOUS
 10
53.8119503602
 20
24.7231286468
 11
73.0214930427
 21
36.0157635579
  0
LINE
  5
2F7
100
AcDbEntity
  8
RACCORDO
100
AcDbLine
 62
253
  6
CONTINUOUS
 10
7.6620390186
 20
-49.8532045028
 11
7.6620390186
 21
-51.7274987667
  0
LINE
  5
2F8
100
AcDbEntity
  8
RACCORDO
100
AcDbLine
 62
7
  6
CONTINUOUS
 10
7.8816109952
 20
-50.6883283647
 11
7.8816109952
 21
-51.5704314838
  0
LINE
  5
2F9
100
AcDbEntity
  8
RACCORDO
100
AcDbLine
 62
253
  6
CONTINUOUS
 10
8.3816109952
 20
-50.9886447706
 11
8.3816109952
 21
-51.5690152814
  0
LINE
  5
2FA
100
AcDbEntity
  8
RACCORDO
100
AcDbLine
 62
253
  6
CONTINUOUS
 10
45.9199028616
 20
17.5741998393
 11
54.6109390025
 21
22.7609399136
  0
LINE
  5
2FB
100
AcDbEntity
  8
RACCORDO
100
AcDbLine
 62
253
  6
CONTINUOUS
 10
54.6109390025
 20
22.7608862427
 11
55.1109390025
 21
23.0570843754
  0
LINE
  5
2FC
100
AcDbEntity
  8
RACCORDO
100
AcDbLine
 62
253
  6
CONTINUOUS
 10
29.3642654953
 20
4.3473236156
 11
28.4035112184
 21
3.77817637
  0
LINE
  5
2FD
100
AcDbEntity
  8
RACCORDO
100
AcDbLine
 62
253
  6
CONTINUOUS
 10
29.3429007237
 20
3.522800751
 11
28.8365239203
 21
3.2228250237
  0
LINE
  5
2FE
100
AcDbEntity
  8
0
100
AcDbLine
 62
7
  6
CONTINUOUS
 10
29.3429007237
 20
3.522800751
 11
29.3381985739
 21
3.520015215
  0
LINE
  5
2FF
100
AcDbEntity
  8
RACCORDO
100
AcDbLine
 62
253
  6
CONTINUOUS
 10
55.1109390025
 20
23.0571380463
 11
74.3204864389
 21
34.3497660256
  0
LINE
  5
300
100
AcDbEntity
  8
RACCORDO
100
AcDbLine
 62
253
  6
CONTINUOUS
 10
28.1540658029
 20
3.1918378671
 11
-59.8341152216
 21
20.566461148
  0
LINE
  5
301
100
AcDbEntity
  8
DRAFT
100
AcDbLine
 62
7
  6
CONTINUOUS
 10
29.3428049764
 20
3.5191056098
 11
29.3381985739
 21
3.520015215
  0
LINE
  5
302
100
AcDbEntity
  8
DRAFT
100
AcDbLine
 62
7
  6
CONTINUOUS
 10
-59.8187547145
 20
21.125430604
 11
-59.9165497377
 21
21.1447417395
  0
LINE
  5
303
100
AcDbEntity
  8
RACCORDO
100
AcDbLine
 62
253
  6
CONTINUOUS
 10
28.4035112184
 20
3.77817637
 11
-59.5846698061
 21
21.1527996509
  0
LINE
  5
304
100
AcDbEntity
  8
RACCORDO
100
AcDbLine
 62
7
  6
CONTINUOUS
 10
-35.5820206042
 20
-41.9112519087
 11
-35.2535905246
 21
-41.7190753342
  0
LINE
  5
305
100
AcDbEntity
  8
RACCORDO
100
AcDbLine
 62
253
  6
CONTINUOUS
 10
-60.5536755798
 20
26.995484594
 11
29.4134260034
 21
9.2300893089
  0
LINE
  5
306
100
AcDbEntity
  8
RACCORDO
100
AcDbLine
 62
253
  6
CONTINUOUS
 10
29.7582755687
 20
9.3518193383
 11
-60.9268435383
 21
27.2589946353
  0
LINE
  5
307
100
AcDbEntity
  8
DRAFT
100
AcDbLine
 62
253
  6
CONTINUOUS
 10
41.625970471
 20
11.8619871852
 11
-72.3310520798
 21
34.3645587122
  0
LINE
  5
308
100
AcDbEntity
  8
0
100
AcDbLine
 62
7
  6
CONTINUOUS
 10
-10.619967224
 20
49.328067734
 11
-10.2248459237
 21
48.6993294349
  0
LINE
  5
309
100
AcDbEntity
  8
RACCORDO
100
AcDbLine
 62
253
  6
CONTINUOUS
 10
-72.7399375269
 20
36.2651523518
 11
-72.7304244492
 21
36.2633583756
  0
LINE
  5
30A
100
AcDbEntity
  8
RACCORDO
100
AcDbLine
 62
7
  6
CONTINUOUS
 10
42.8870014003
 20
16.981539887
 11
-71.472527815
 21
39.5635925623
  0
LINE
  5
30B
100
AcDbEntity
  8
DRAFT
100
AcDbLine
 62
7
  6
CONTINUOUS
 10
-71.689025922
 20
40.1867139632
 11
43.1314490123
 21
17.513640447
  0
LINE
  5
30C
100
AcDbEntity
  8
RACCORDO
100
AcDbLine
 62
253
  6
CONTINUOUS
 10
42.1210639701
 20
13.5841607685
 11
42.1305679175
 21
13.5821994342
  0
LINE
  5
30D
100
AcDbEntity
  8
RACCORDO
100
AcDbLine
 62
7
  6
CONTINUOUS
 10
29.4155271134
 20
-43.9019706218
 11
29.4706668158
 21
-45.7261245011
  0
LWPOLYLINE
  5
30E
100
AcDbEntity
  8
RACCORDO
100
AcDbPolyline
 62
7
  6
CONTINUOUS
 90
3
 70
0
 10
29.2601554927
 20
-37.7767765896
 10
29.3323007128
 20
-40.8456048549
 10
29.4155271134
 20
-43.9019706218
  0
LWPOLYLINE
  5
30F
100
AcDbEntity
  8
RACCORDO
100
AcDbPolyline
 62
7
  6
CONTINUOUS
 90
15
 70
0
 10
29.4156835264
 20
6.331681007
 10
29.3324425299
 20
3.1191914772
 10
29.2602813019
 20
-0.0849760245
 10
29.1992071944
 20
-3.280519908
 10
29.1492262522
 20
-6.4671385958
 10
29.1103443267
 20
-9.6445302066
 10
29.0825653029
 20
-12.8123964322
 10
29.0658918468
 20
-15.9704385484
 10
29.0603263891
 20
-19.118355791
 10
29.0658693395
 20
-22.2558529474
 10
29.0825200102
 20
-25.3826374757
 10
29.1102774796
 20
-28.4984148217
 10
29.1491387048
 20
-31.6028912297
 10
29.1990994653
 20
-34.6957753478
 10
29.2601554927
 20
-37.7767765896
  0
LINE
  5
310
100
AcDbEntity
  8
RACCORDO
100
AcDbLine
 62
7
  6
CONTINUOUS
 10
29.469524247
 20
8.2151196817
 11
29.4156835264
 21
6.331681007
  0
LINE
  5
311
100
AcDbEntity
  8
RACCORDO
100
AcDbLine
 62
253
  6
CONTINUOUS
 10
-70.3016958255
 20
41.9334674848
 11
44.6209587583
 21
19.2402170203
  0
LINE
  5
312
100
AcDbEntity
  8
RACCORDO
100
AcDbLine
 62
253
  6
CONTINUOUS
 10
29.4279943608
 20
6.7623346333
 11
29.2450515558
 21
7.9504125663
  0
LINE
  5
313
100
AcDbEntity
  8
RACCORDO
100
AcDbLine
 62
253
  6
CONTINUOUS
 10
29.4070959806
 20
-43.5923498124
 11
29.2450514878
 21
-44.9492527246
  0
LINE
  5
314
100
AcDbEntity
  8
RACCORDO
100
AcDbLine
 62
7
  6
CONTINUOUS
 10
-61.8695272699
 20
47.1712895798
 11
53.3119503602
 21
24.4269305141
  0
LINE
  5
315
100
AcDbEntity
  8
RACCORDO
100
AcDbLine
 62
7
  6
CONTINUOUS
 10
-61.3695272699
 20
47.4674877126
 11
53.8119503602
 21
24.7231286468
  0
LINE
  5
316
100
AcDbEntity
  8
0
100
AcDbLine
 62
7
  6
CONTINUOUS
 10
65.5912905429
 20
-18.0341655408
 11
66.2147668689
 21
-17.7652640959
  0
LINE
  5
317
100
AcDbEntity
  8
0
100
AcDbLine
 62
7
  6
CONTINUOUS
 10
19.220017805
 20
42.8849869983
 11
18.8248965047
 21
43.5137252975
  0
LINE
  5
318
100
AcDbEntity
  8
RACCORDO
100
AcDbLine
 62
7
  6
CONTINUOUS
 10
8.006991288
 20
-50.5185745286
 11
8.7253638139
 21
-50.063174382
  0
LINE
  5
319
100
AcDbEntity
  8
RACCORDO
100
AcDbLine
 62
253
  6
CONTINUOUS
 10
28.8365239203
 20
-40.5668511049
 11
29.319027806
 21
-40.2810176049
  0
LINE
  5
31A
100
AcDbEntity
  8
RACCORDO
100
AcDbLine
 62
7
  6
CONTINUOUS
 10
28.6583499044
 20
-40.9115288722
 11
29.3245722644
 21
-40.5168612342
  0
LWPOLYLINE
  5
31B
100
AcDbEntity
  8
RACCORDO
100
AcDbPolyline
 62
7
  6
CONTINUOUS
 90
27
 70
0
 10
-41.3809942761
 20
58.6825055088
 10
-41.4014968988
 20
58.6863976445
 10
-41.4399359609
 20
58.692857806
 10
-41.4784255676
 20
58.698240873
 10
-41.5169299677
 20
58.702546113
 10
-41.5554250281
 20
58.7057759997
 10
-41.5938957672
 20
58.7079337814
 10
-41.6323132818
 20
58.7090214431
 10
-41.6706483497
 20
58.7090422575
 10
-41.7088837935
 20
58.7080001765
 10
-41.7469883334
 20
58.7058992646
 10
-41.784932918
 20
58.7027445334
 10
-41.8227025895
 20
58.698540893
 10
-41.8602659367
 20
58.6932949237
 10
-41.8975940385
 20
58.6870136777
 10
-41.9346746283
 20
58.6797022208
 10
-41.9714775775
 20
58.671369235
 10
-42.0079728861
 20
58.6620241817
 10
-42.0441475511
 20
58.6516725996
 10
-42.0799716776
 20
58.6403255324
 10
-42.1154160555
 20
58.6279948928
 10
-42.1504679967
 20
58.6146869773
 10
-42.1850976789
 20
58.600414989
 10
-42.2192773357
 20
58.5851930709
 10
-42.2529965287
 20
58.5690276911
 10
-42.2862326835
 20
58.5519304453
 10
-42.3151615848
 20
58.5360686013
  0
LINE
  5
31C
100
AcDbEntity
  8
DRAFT
100
AcDbLine
 62
7
  6
CONTINUOUS
 10
-27.4819824327
 20
53.9246985695
 11
-23.1518554138
 21
53.0696482112
  0
LINE
  5
31D
100
AcDbEntity
  8
RACCORDO
100
AcDbLine
 62
253
  6
CONTINUOUS
 10
-24.9819824327
 20
54.5098929482
 11
-21.7570099416
 21
53.8730723948
  0
LINE
  5
31E
100
AcDbEntity
  8
RACCORDO
100
AcDbLine
 62
7
  6
CONTINUOUS
 10
-24.7882578065
 20
54.5512562734
 11
-21.6540735459
 21
53.9323632563
  0
LINE
  5
31F
100
AcDbEntity
  8
RACCORDO
100
AcDbLine
 62
253
  6
CONTINUOUS
 10
-41.5703426476
 20
58.6436887293
 11
-24.977619165
 21
55.3671995877
  0
LINE
  5
320
100
AcDbEntity
  8
RACCORDO
100
AcDbLine
 62
253
  6
CONTINUOUS
 10
-20.6474921461
 20
54.5121492294
 11
73.0214930427
 21
36.0157635579
  0
LINE
  5
321
100
AcDbEntity
  8
RACCORDO
100
AcDbLine
 62
7
  6
CONTINUOUS
 10
-41.3809868124
 20
58.6825041423
 11
-24.7882578065
 21
55.40601391
  0
LINE
  5
322
100
AcDbEntity
  8
RACCORDO
100
AcDbLine
 62
7
  6
CONTINUOUS
 10
-20.4581307876
 20
54.5509635517
 11
73.2108591552
 21
36.0545769414
  0
LINE
  5
323
100
AcDbEntity
  8
RACCORDO
100
AcDbLine
 62
7
  6
CONTINUOUS
 10
54.6109390025
 20
-52.4145234202
 11
54.6109390025
 21
22.7608862427
  0
LINE
  5
324
100
AcDbEntity
  8
RACCORDO
100
AcDbLine
 62
7
  6
CONTINUOUS
 10
55.1109390025
 20
-52.1183252875
 11
55.1109390025
 21
23.0570843754
  0
LINE
  5
325
100
AcDbEntity
  8
0
100
AcDbLine
 62
7
  6
CONTINUOUS
 10
25.8887139713
 20
-47.6928652258
 11
25.9640194474
 21
-47.648254543
  0
LINE
  5
326
100
AcDbEntity
  8
0
100
AcDbLine
 62
7
  6
CONTINUOUS
 10
26.15934691
 20
-47.7463058732
 11
26.2346523861
 21
-47.7016951903
  0
LINE
  5
327
100
AcDbEntity
  8
0
100
AcDbLine
 62
7
  6
CONTINUOUS
 10
27.4223005808
 20
-47.9956955525
 11
27.4976060569
 21
-47.9510848697
  0
LINE
  5
328
100
AcDbEntity
  8
0
100
AcDbLine
 62
7
  6
CONTINUOUS
 10
27.6929335195
 20
-48.0491361999
 11
27.7682389956
 21
-48.0045255171
  0
LINE
  5
329
100
AcDbEntity
  8
0
100
AcDbLine
 62
7
  6
CONTINUOUS
 10
28.0537774807
 20
-48.1203904049
 11
28.1290829568
 21
-48.0757797221
  0
LINE
  5
32A
100
AcDbEntity
  8
0
100
AcDbLine
 62
7
  6
CONTINUOUS
 10
28.3244104194
 20
-48.1738310523
 11
28.3997158955
 21
-48.1292203695
  0
LINE
  5
32B
100
AcDbEntity
  8
0
100
AcDbLine
 62
7
  6
CONTINUOUS
 10
28.6852542516
 20
-48.2450852319
 11
28.7605597277
 21
-48.200474549
  0
LINE
  5
32C
100
AcDbEntity
  8
0
100
AcDbLine
 62
7
  6
CONTINUOUS
 10
29.0912036596
 20
-48.3252462029
 11
29.1665091358
 21
-48.2806355201
  0
LINE
  5
32D
100
AcDbEntity
  8
0
100
AcDbLine
 62
7
  6
CONTINUOUS
 10
27.0886754363
 20
-50.1862944455
 11
27.1640316845
 21
-50.1416536855
  0
LINE
  5
32E
100
AcDbEntity
  8
0
100
AcDbLine
 62
7
  6
CONTINUOUS
 10
30.4443686112
 20
-48.5924494909
 11
30.5196740873
 21
-48.5478388081
  0
LINE
  5
32F
100
AcDbEntity
  8
0
100
AcDbLine
 62
7
  6
CONTINUOUS
 10
30.8503180192
 20
-48.672610462
 11
30.9256234953
 21
-48.6279997792
  0
LINE
  5
330
100
AcDbEntity
  8
0
100
AcDbLine
 62
7
  6
CONTINUOUS
 10
69.739188031
 20
2.9715247206
 11
70.2136552181
 21
2.4858173967
  0
LINE
  5
331
100
AcDbEntity
  8
0
100
AcDbLine
 62
7
  6
CONTINUOUS
 10
34.7708210708
 20
-50.2637717715
 11
34.6855613528
 21
-50.342991858
  0
LINE
  5
332
100
AcDbEntity
  8
0
100
AcDbLine
 62
7
  6
CONTINUOUS
 10
28.4418401297
 20
-50.4534976825
 11
28.5171963779
 21
-50.4088569224
  0
LINE
  5
333
100
AcDbEntity
  8
0
100
AcDbLine
 62
7
  6
CONTINUOUS
 10
29.0733169006
 20
-50.5781925094
 11
29.1486731488
 21
-50.5335517494
  0
LINE
  5
334
100
AcDbEntity
  8
0
100
AcDbLine
 62
7
  6
CONTINUOUS
 10
31.9328497739
 20
-48.8863730516
 11
32.00815525
 21
-48.8417623687
  0
LINE
  5
335
100
AcDbEntity
  8
0
100
AcDbLine
 62
7
  6
CONTINUOUS
 10
32.293693348
 20
-48.9576271801
 11
32.3689988241
 21
-48.9130164973
  0
LINE
  5
336
100
AcDbEntity
  8
0
100
AcDbLine
 62
7
  6
CONTINUOUS
 10
30.0656377618
 20
-50.7741415668
 11
30.14099401
 21
-50.7295008068
  0
LINE
  5
337
100
AcDbEntity
  8
0
100
AcDbLine
 62
7
  6
CONTINUOUS
 10
33.3762251028
 20
-49.1713897697
 11
33.4515305789
 21
-49.1267790869
  0
LINE
  5
338
100
AcDbEntity
  8
0
100
AcDbLine
 62
7
  6
CONTINUOUS
 10
31.7837604234
 20
-50.3460505754
 11
31.8590989408
 21
-50.3014203191
  0
LINE
  5
339
100
AcDbEntity
  8
0
100
AcDbLine
 62
7
  6
CONTINUOUS
 10
30.9677477295
 20
-50.9522770921
 11
31.0431039777
 21
-50.9076363321
  0
LINE
  5
33A
100
AcDbEntity
  8
0
100
AcDbLine
 62
7
  6
CONTINUOUS
 10
31.5992242423
 20
-51.0769718681
 11
31.6745804905
 21
-51.0323311081
  0
LINE
  5
33B
100
AcDbEntity
  8
0
100
AcDbLine
 62
7
  6
CONTINUOUS
 10
34.4587568575
 20
-49.3851523593
 11
34.5340623336
 21
-49.3405416765
  0
LINE
  5
33C
100
AcDbEntity
  8
0
100
AcDbLine
 62
7
  6
CONTINUOUS
 10
34.6866888555
 20
-49.4782455662
 11
34.7619953705
 21
-49.4336342679
  0
LINE
  5
33D
100
AcDbEntity
  8
0
100
AcDbLine
 62
7
  6
CONTINUOUS
 10
33.6957228639
 20
-50.1955561004
 11
33.771049459
 21
-50.1509329068
  0
LINE
  5
33E
100
AcDbEntity
  8
0
100
AcDbLine
 62
7
  6
CONTINUOUS
 10
34.8743488301
 20
-49.6595360952
 11
34.9496584725
 21
-49.6149229443
  0
LINE
  5
33F
100
AcDbEntity
  8
0
100
AcDbLine
 62
7
  6
CONTINUOUS
 10
35.0193727942
 20
-49.8804403116
 11
35.0946866316
 21
-49.8358246756
  0
LINE
  5
340
100
AcDbEntity
  8
0
100
AcDbLine
 62
7
  6
CONTINUOUS
 10
35.0718011726
 20
-50.0349594229
 11
35.1471181751
 21
-49.9903419119
  0
LINE
  5
341
100
AcDbEntity
  8
0
100
AcDbLine
 62
7
  6
CONTINUOUS
 10
34.5527275139
 20
-50.3647848851
 11
34.628054109
 21
-50.3201616915
  0
LINE
  5
342
100
AcDbEntity
  8
0
100
AcDbLine
 62
7
  6
CONTINUOUS
 10
33.1328112389
 20
-51.3798022713
 11
33.2081674872
 21
-51.3351615112
  0
LINE
  5
343
100
AcDbEntity
  8
0
100
AcDbLine
 62
7
  6
CONTINUOUS
 10
35.0816232318
 20
-50.2290755881
 11
35.1569444797
 21
-50.1844555621
  0
LINE
  5
344
100
AcDbEntity
  8
0
100
AcDbLine
 62
7
  6
CONTINUOUS
 10
35.043927938
 20
-50.365730517
 11
35.1192523888
 21
-50.3211085936
  0
LINE
  5
345
100
AcDbEntity
  8
0
100
AcDbLine
 62
7
  6
CONTINUOUS
 10
34.9185481124
 20
-50.5330583389
 11
34.993876859
 21
-50.4884338708
  0
LINE
  5
346
100
AcDbEntity
  8
0
100
AcDbLine
 62
7
  6
CONTINUOUS
 10
33.7642877517
 20
-51.5044970472
 11
33.8396439999
 21
-51.4598562872
  0
LINE
  5
347
100
AcDbEntity
  8
0
100
AcDbLine
 62
7
  6
CONTINUOUS
 10
35.2076635968
 20
-51.7895138673
 11
35.283019845
 21
-51.7448731073
  0
LINE
  5
348
100
AcDbEntity
  8
0
100
AcDbLine
 62
7
  6
CONTINUOUS
 10
34.7431186915
 20
-50.594440696
 11
34.9185481124
 21
-50.5330583389
  0
LINE
  5
349
100
AcDbEntity
  8
0
100
AcDbLine
 62
7
  6
CONTINUOUS
 10
48.2697602334
 20
37.6993828609
 11
48.6648815337
 21
37.0706445618
  0
LWPOLYLINE
  5
34A
100
AcDbEntity
  8
RACCORDO
100
AcDbPolyline
 62
7
  6
CONTINUOUS
 90
52
 70
0
 10
74.4501306471
 20
34.5181933807
 10
74.4499232555
 20
34.543218617
 10
74.4486373294
 20
34.5854223927
 10
74.4461752083
 20
34.6276716631
 10
74.4425344372
 20
34.6699548575
 10
74.4377150982
 20
34.7122348501
 10
74.4317221454
 20
34.7544471507
 10
74.4245569476
 20
34.796572816
 10
74.4162211505
 20
34.8385875392
 10
74.4067265119
 20
34.8804212305
 10
74.3960763833
 20
34.9220569951
 10
74.3842742192
 20
34.9634720061
 10
74.3713403138
 20
35.0045909345
 10
74.3572806561
 20
35.0453960394
 10
74.3420997508
 20
35.0858685073
 10
74.3258248134
 20
35.1259353224
 10
74.3084629321
 20
35.1655802473
 10
74.2900202654
 20
35.2047857486
 10
74.2705305188
 20
35.2434808561
 10
74.2500021098
 20
35.2816496161
 10
74.228442646
 20
35.3192764718
 10
74.2058905854
 20
35.3562944728
 10
74.1823553863
 20
35.3926888259
 10
74.1578463268
 20
35.4284445202
 10
74.1324069398
 20
35.4634974722
 10
74.1060483199
 20
35.4978339464
 10
74.0787811711
 20
35.5314392033
 10
74.0506549836
 20
35.5642518979
 10
74.0216833793
 20
35.5962586555
 10
73.9918782304
 20
35.6274456223
 10
73.9612941718
 20
35.6577565118
 10
73.9299473295
 20
35.6871783227
 10
73.8978513928
 20
35.7156981782
 10
73.865065054
 20
35.7432662756
 10
73.8316095025
 20
35.7698683279
 10
73.79749861
 20
35.7954948748
 10
73.7627864644
 20
35.8201084364
 10
73.7274943225
 20
35.8436971346
 10
73.6916408399
 20
35.8662508646
 10
73.655281371
 20
35.8877383147
 10
73.6184395366
 20
35.9081491295
 10
73.5811371157
 20
35.927474716
 10
73.5434315763
 20
35.9456894739
 10
73.5053526985
 20
35.9627838532
 10
73.4669223129
 20
35.9787532156
 10
73.428190323
 20
35.9935818539
 10
73.3891861655
 20
36.007263835
 10
73.3499356902
 20
36.0197957175
 10
73.3104872725
 20
36.0311676583
 10
73.2708785453
 20
36.0413753751
 10
73.2311361339
 20
36.0504193659
 10
73.2108662644
 20
36.0545754767
  0
LINE
  5
34B
100
AcDbEntity
  8
RACCORDO
100
AcDbLine
 62
253
  6
CONTINUOUS
 10
74.3204864389
 20
34.3497660256
 11
74.3204864389
 21
-40.1859519878
  0
LINE
  5
34C
100
AcDbEntity
  8
RACCORDO
100
AcDbLine
 62
7
  6
CONTINUOUS
 10
74.4501307429
 20
34.5181907953
 11
74.4501307429
 21
-40.0175383697
  0
LWPOLYLINE
  5
34D
100
AcDbEntity
  8
RACCORDO
100
AcDbPolyline
 62
7
  6
CONTINUOUS
 90
39
 70
0
 10
73.8055553884
 20
-41.2080637225
 10
73.8321281267
 20
-41.1911191581
 10
73.8625570907
 20
-41.1706004817
 10
73.8924128901
 20
-41.1492487343
 10
73.9216769617
 20
-41.1270772244
 10
73.9503422327
 20
-41.1040898949
 10
73.9783845125
 20
-41.0803045456
 10
74.0057804158
 20
-41.0557400987
 10
74.0325231043
 20
-41.0304005097
 10
74.0585897615
 20
-41.0043040908
 10
74.0839578013
 20
-40.977471377
 10
74.1086194708
 20
-40.9499076016
 10
74.1325531043
 20
-40.9216325319
 10
74.1557374824
 20
-40.8926672957
 10
74.1781647735
 20
-40.863017617
 10
74.1998148445
 20
-40.8327044854
 10
74.2206678502
 20
-40.8017497475
 10
74.2407158428
 20
-40.7701589641
 10
74.2599421564
 20
-40.7379507646
 10
74.2783264029
 20
-40.7051509188
 10
74.2958552173
 20
-40.671774547
 10
74.3125133145
 20
-40.6378422657
 10
74.3282835389
 20
-40.6033796833
 10
74.3431511749
 20
-40.5684086742
 10
74.3571023003
 20
-40.5329527115
 10
74.3701236929
 20
-40.4970357005
 10
74.3822032265
 20
-40.4606790886
 10
74.3933295207
 20
-40.4239046345
 10
74.4034911108
 20
-40.3867377739
 10
74.4126768829
 20
-40.3492038389
 10
74.4208774849
 20
-40.3113237943
 10
74.4280836459
 20
-40.2731234273
 10
74.4342856148
 20
-40.2346334848
 10
74.4394757259
 20
-40.195876118
 10
74.4436472272
 20
-40.1568736086
 10
74.4467928278
 20
-40.1176548087
 10
74.4489062923
 20
-40.0782436091
 10
74.4499826145
 20
-40.0386625498
 10
74.4501306883
 20
-40.0175412418
  0
LINE
  5
34E
100
AcDbEntity
  8
RACCORDO
100
AcDbLine
 62
253
  6
CONTINUOUS
 10
55.1109390025
 20
-52.1183789584
 11
74.3204864389
 21
-40.1859519878
  0
LINE
  5
34F
100
AcDbEntity
  8
RACCORDO
100
AcDbLine
 62
7
  6
CONTINUOUS
 10
54.5943157215
 20
-53.1415367478
 11
73.8055812366
 21
-41.2080477142
  0
LINE
  5
350
100
AcDbEntity
  8
RACCORDO
100
AcDbLine
 62
253
  6
CONTINUOUS
 10
54.6109390025
 20
-52.4145234202
 11
55.1109390025
 21
-52.1183252875
  0
LINE
  5
351
100
AcDbEntity
  8
RACCORDO
100
AcDbLine
 62
253
  6
CONTINUOUS
 10
54.6109390025
 20
-52.4145770911
 11
45.9199028616
 21
-57.3204762674
  0
LINE
  5
352
100
AcDbEntity
  8
RACCORDO
100
AcDbLine
 62
7
  6
CONTINUOUS
 10
54.0584249715
 20
-53.4589983057
 11
45.3648129556
 21
-58.3663515069
  0
ARC
  5
353
100
AcDbEntity
  8
RACCORDO
100
AcDbCircle
 62
253
  6
CONTINUOUS
 10
-63.9373276371
 20
-20.4593272812
 40
9.1904767519
100
AcDbArc
 50
289.1210793429
 51
291.60295846
  0
ARC
  5
354
100
AcDbEntity
  8
RACCORDO
100
AcDbCircle
 62
253
  6
CONTINUOUS
 10
-55.3660773186
 20
-31.7056542289
 40
6.1229526281
100
AcDbArc
 50
151.4540448238
 51
155.2555013323
  0
ARC
  5
355
100
AcDbEntity
  8
RACCORDO
100
AcDbCircle
 62
253
  6
CONTINUOUS
 10
42.6197038243
 20
-53.2333217748
 40
2.5391336589
100
AcDbArc
 50
258.89327931
 51
260.8661478324
  0
ARC
  5
356
100
AcDbEntity
  8
RACCORDO
100
AcDbCircle
 62
253
  6
CONTINUOUS
 10
44.0745491679
 20
-57.2368948868
 40
1.5052093669
100
AcDbArc
 50
228.2636778026
 51
232.6511019362
  0
ARC
  5
357
100
AcDbEntity
  8
RACCORDO
100
AcDbCircle
 62
7
  6
CONTINUOUS
 10
53.1527214584
 20
-52.4158281625
 40
1.4582181278
100
AcDbArc
 50
350.1177414407
 51
0.0512654693
  0
ARC
  5
358
100
AcDbEntity
  8
RACCORDO
100
AcDbCircle
 62
7
  6
CONTINUOUS
 10
7.7320492089
 20
-50.3079705664
 40
1.429282494
100
AcDbArc
 50
282.4074925195
 51
288.727324755
  0
ARC
  5
359
100
AcDbEntity
  8
RACCORDO
100
AcDbCircle
 62
253
  6
CONTINUOUS
 10
-71.0341635565
 20
-34.9388665809
 40
1.0573225267
100
AcDbArc
 50
257.2174633598
 51
258.8555152375
  0
ARC
  5
35A
100
AcDbEntity
  8
RACCORDO
100
AcDbCircle
 62
7
  6
CONTINUOUS
 10
54.0590373967
 20
-52.290832116
 40
1.0044050947
100
AcDbArc
 50
300.8247184704
 51
305.6597745526
  0
ARC
  5
35B
100
AcDbEntity
  8
RACCORDO
100
AcDbCircle
 62
253
  6
CONTINUOUS
 10
73.2810277219
 20
-40.3635528923
 40
0.9941466163
100
AcDbArc
 50
301.8461616028
 51
303.0219604925
  0
ARC
  5
35C
100
AcDbEntity
  8
RACCORDO
100
AcDbCircle
 62
7
  6
CONTINUOUS
 10
28.4035236354
 20
-40.4813931597
 40
0.4999523599
100
AcDbArc
 50
258.8029896492
 51
300.6438683036
  0
ARC
  5
35D
100
AcDbEntity
  8
RACCORDO
100
AcDbCircle
 62
7
  6
CONTINUOUS
 10
-59.5847122623
 20
-23.1067612315
 40
0.4999458612
100
AcDbArc
 50
182.0844127943
 51
258.8479158553
  0
ARC
  5
35E
100
AcDbEntity
  8
RACCORDO
100
AcDbCircle
 62
253
  6
CONTINUOUS
 10
17.1244905575
 20
44.5947175636
 40
37.438944182
100
AcDbArc
 50
289.1619068265
 51
289.7216128924
  0
ARC
  5
35F
100
AcDbEntity
  8
RACCORDO
100
AcDbCircle
 62
253
  6
CONTINUOUS
 10
50.798807533
 20
13.5862472545
 40
8.5805231692
100
AcDbArc
 50
156.734128002
 51
156.9357258007
  0
ARC
  5
360
100
AcDbEntity
  8
RACCORDO
100
AcDbCircle
 62
253
  6
CONTINUOUS
 10
50.2335102978
 20
13.8380714747
 40
7.961728794
100
AcDbArc
 50
152.6562581029
 51
156.792093936
  0
ARC
  5
361
100
AcDbEntity
  8
RACCORDO
100
AcDbCircle
 62
253
  6
CONTINUOUS
 10
42.9602602657
 20
17.7646618618
 40
4.2638795841
100
AcDbArc
 50
258.7795206637
 51
259.9562486744
  0
ARC
  5
362
100
AcDbEntity
  8
RACCORDO
100
AcDbCircle
 62
7
  6
CONTINUOUS
 10
52.7801585423
 20
22.706378813
 40
1.8370261513
100
AcDbArc
 50
17.8098575481
 51
25.5962159294
  0
ARC
  5
363
100
AcDbEntity
  8
RACCORDO
100
AcDbCircle
 62
7
  6
CONTINUOUS
 10
53.3273579813
 20
23.0349537523
 40
1.7799160515
100
AcDbArc
 50
33.6474651945
 51
42.2108628133
  0
ARC
  5
364
100
AcDbEntity
  8
RACCORDO
100
AcDbCircle
 62
7
  6
CONTINUOUS
 10
-61.5990714673
 20
46.302948465
 40
1.1869465698
100
AcDbArc
 50
78.8468496399
 51
90.3023592361
  0
ARC
  5
365
100
AcDbEntity
  8
RACCORDO
100
AcDbCircle
 62
7
  6
CONTINUOUS
 10
-62.1166143064
 20
46.1907628174
 40
1.0044050947
100
AcDbArc
 50
120.8247184704
 51
125.6597745526
  0
ARC
  5
366
100
AcDbEntity
  8
RACCORDO
100
AcDbCircle
 62
253
  6
CONTINUOUS
 10
-41.8273678975
 20
57.6720394681
 40
0.9922138642
100
AcDbArc
 50
118.7160476763
 51
119.4442588624
  0
ARC
  5
367
100
AcDbEntity
  8
RACCORDO
100
AcDbCircle
 62
7
  6
CONTINUOUS
 10
-61.6390437405
 20
46.5252326029
 40
0.9600466586
100
AcDbArc
 50
113.3137101402
 51
120.8455993508
  0
ARC
  5
368
100
AcDbEntity
  8
RACCORDO
100
AcDbCircle
 62
7
  6
CONTINUOUS
 10
-62.1390437405
 20
46.2290344702
 40
0.9600466586
100
AcDbArc
 50
113.3137101402
 51
120.8455993508
  0
ARC
  5
369
100
AcDbEntity
  8
RACCORDO
100
AcDbCircle
 62
7
  6
CONTINUOUS
 10
-59.5846795558
 20
20.6829610426
 40
0.4999884042
100
AcDbArc
 50
120.6418306489
 51
178.0136319602
  0
ARC
  5
36A
100
AcDbEntity
  8
RACCORDO
100
AcDbCircle
 62
253
  6
CONTINUOUS
 10
844.5306824407
 20
-20.3340222174
 40
815.2102886131
100
AcDbArc
 50
181.4044528824
 51
181.8780219501
  0
ARC
  5
36B
100
AcDbEntity
  8
RACCORDO
100
AcDbCircle
 62
253
  6
CONTINUOUS
 10
606.1025870606
 20
-0.2128581515
 40
679.8219019998
100
AcDbArc
 50
176.9241351575
 51
177.458080151
  0
ARC
  5
36C
100
AcDbEntity
  8
RACCORDO
100
AcDbCircle
 62
253
  6
CONTINUOUS
 10
700.3476402546
 20
-22.8802054218
 40
659.2262292141
100
AcDbArc
 50
176.8293000137
 51
177.3798051328
  0
ARC
  5
36D
100
AcDbEntity
  8
RACCORDO
100
AcDbCircle
 62
253
  6
CONTINUOUS
 10
699.6020667901
 20
-22.6950226665
 40
656.4382268784
100
AcDbArc
 50
176.8291221987
 51
177.379603103
  0
ARC
  5
36E
100
AcDbEntity
  8
RACCORDO
100
AcDbCircle
 62
253
  6
CONTINUOUS
 10
492.5052912293
 20
-0.5758452168
 40
566.1768373722
100
AcDbArc
 50
182.684101783
 51
183.2872887918
  0
ARC
  5
36F
100
AcDbEntity
  8
0
100
AcDbCircle
 62
7
  6
CONTINUOUS
 10
497.7143103457
 20
-2.5526955657
 40
560.7891958335
100
AcDbArc
 50
182.8320959559
 51
182.9611742168
  0
ARC
  5
370
100
AcDbEntity
  8
0
100
AcDbCircle
 62
7
  6
CONTINUOUS
 10
495.7296688374
 20
-2.160797504
 40
560.7891957894
100
AcDbArc
 50
182.8320959559
 51
182.9611742168
  0
ARC
  5
371
100
AcDbEntity
  8
0
100
AcDbCircle
 62
7
  6
CONTINUOUS
 10
587.7807359358
 20
-20.4981631476
 40
560.1404492295
100
AcDbArc
 50
182.8320483638
 51
183.0655407746
  0
ARC
  5
372
100
AcDbEntity
  8
0
100
AcDbCircle
 62
7
  6
CONTINUOUS
 10
492.6911465955
 20
-1.7212572793
 40
560.1404492247
100
AcDbArc
 50
182.8320483638
 51
183.0655407746
  0
ARC
  5
373
100
AcDbEntity
  8
0
100
AcDbCircle
 62
7
  6
CONTINUOUS
 10
590.3066435308
 20
-20.9969425575
 40
560.1404492247
100
AcDbArc
 50
182.8320483638
 51
183.0655407746
  0
ARC
  5
374
100
AcDbEntity
  8
0
100
AcDbCircle
 62
7
  6
CONTINUOUS
 10
587.5894024064
 20
-20.4544408367
 40
559.8740921235
100
AcDbArc
 50
182.8333057703
 51
183.0669064574
  0
ARC
  5
375
100
AcDbEntity
  8
0
100
AcDbCircle
 62
7
  6
CONTINUOUS
 10
492.4998130664
 20
-1.6775349683
 40
559.874092119
100
AcDbArc
 50
182.8333057703
 51
183.0669064574
  0
ARC
  5
376
100
AcDbEntity
  8
0
100
AcDbCircle
 62
7
  6
CONTINUOUS
 10
590.1153100014
 20
-20.9532202466
 40
559.8740921187
100
AcDbArc
 50
182.8333057703
 51
183.0669064574
  0
ARC
  5
377
100
AcDbEntity
  8
0
100
AcDbCircle
 62
7
  6
CONTINUOUS
 10
586.9856987347
 20
-20.4717353688
 40
559.6153502969
100
AcDbArc
 50
182.8319388252
 51
183.0656503269
  0
ARC
  5
378
100
AcDbEntity
  8
0
100
AcDbCircle
 62
7
  6
CONTINUOUS
 10
587.6171755043
 20
-20.5964301959
 40
559.6153502956
100
AcDbArc
 50
182.8319388252
 51
183.0656503269
  0
ARC
  5
379
100
AcDbEntity
  8
0
100
AcDbCircle
 62
7
  6
CONTINUOUS
 10
492.5275862322
 20
-1.8195243401
 40
559.6153502946
100
AcDbArc
 50
182.8319388252
 51
183.0656503269
  0
ARC
  5
37A
100
AcDbEntity
  8
0
100
AcDbCircle
 62
7
  6
CONTINUOUS
 10
491.8961093967
 20
-1.6948295004
 40
559.6153502945
100
AcDbArc
 50
182.8319388252
 51
183.0656503269
  0
ARC
  5
37B
100
AcDbEntity
  8
0
100
AcDbCircle
 62
7
  6
CONTINUOUS
 10
592.3081463544
 20
-21.5227347338
 40
559.6153502946
100
AcDbArc
 50
182.8319388252
 51
183.0656503269
  0
ARC
  5
37C
100
AcDbEntity
  8
0
100
AcDbCircle
 62
7
  6
CONTINUOUS
 10
587.8550734503
 20
-20.6518548405
 40
559.5825563321
100
AcDbArc
 50
182.8816721995
 51
183.0656267275
  0
ARC
  5
37D
100
AcDbEntity
  8
0
100
AcDbCircle
 62
7
  6
CONTINUOUS
 10
589.0657267892
 20
-20.9939602075
 40
559.168855029
100
AcDbArc
 50
182.8816041534
 51
183.0656947803
  0
ARC
  5
37E
100
AcDbEntity
  8
0
100
AcDbCircle
 62
7
  6
CONTINUOUS
 10
587.2622170711
 20
-20.6291253835
 40
558.9141281322
100
AcDbArc
 50
182.9119183915
 51
183.0670471329
  0
ARC
  5
37F
100
AcDbEntity
  8
RACCORDO
100
AcDbCircle
 62
253
  6
CONTINUOUS
 10
591.2135713806
 20
-23.2343942367
 40
550.0434277531
100
AcDbArc
 50
182.7652394142
 51
183.3863659224
  0
ARC
  5
380
100
AcDbEntity
  8
RACCORDO
100
AcDbCircle
 62
253
  6
CONTINUOUS
 10
590.9215273722
 20
-23.0405937195
 40
547.7091410868
100
AcDbArc
 50
182.7654460399
 51
183.3865554054
  0
ARC
  5
381
100
AcDbEntity
  8
RACCORDO
100
AcDbCircle
 62
253
  6
CONTINUOUS
 10
443.044757075
 20
-2.1422374675
 40
504.8284917597
100
AcDbArc
 50
176.6952729141
 51
176.909210968
  0
SPLINE
  5
382
100
AcDbEntity
  8
RACCORDO
100
AcDbSpline
 62
7
  6
CONTINUOUS
 70
0
 71
3
 72
11
 73
7
 74
5
 42
0.0000001
 43
0.0000001
 44
0.0000000001
 12
-1.523156264
 22
-43.8073128564
 32
0.0
 13
1.588513722
 23
-43.8049915975
 33
0.0
 40
0.0
 40
0.0
 40
0.0
 40
0.0
 40
0.2538248627
 40
0.5052327632
 40
0.7540229462
 40
1.0
 40
1.0
 40
1.0
 40
1.0
 10
-60.0843678512
 20
20.7003275677
 30
0.0
 10
-60.2132394944
 20
16.9938658438
 30
0.0
 10
-60.4071420858
 20
9.6138968153
 30
0.0
 10
-60.5052479251
 20
-1.4034397716
 30
0.0
 10
-60.4091805534
 20
-12.3061353695
 30
0.0
 10
-60.2145873483
 20
-19.5331682723
 30
0.0
 10
-60.0843413732
 20
-23.12484253
 30
0.0
 11
-60.0843678512
 21
20.7003275677
 31
0.0
 11
-60.3757206856
 21
9.5780386295
 31
0.0
 11
-60.4728789671
 21
-1.4416928046
 31
0.0
 11
-60.3757217753
 21
-12.3466752763
 31
0.0
 11
-60.0843413732
 21
-23.12484253
 31
0.0
  0
SPLINE
  5
383
100
AcDbEntity
  8
RACCORDO
100
AcDbSpline
 62
253
  6
CONTINUOUS
 70
0
 71
3
 72
11
 73
7
 74
5
 42
0.0000001
 43
0.0000001
 44
0.0000000001
 12
0.3496874263
 22
0.2073030417
 32
0.0
 13
0.0000000003
 23
0.4047260568
 33
0.0
 40
0.0
 40
0.0
 40
0.0
 40
0.0
 40
0.1566361105
 40
0.4244011268
 40
0.7044785941
 40
1.0
 40
1.0
 40
1.0
 40
1.0
 10
28.6583374557
 20
-40.9115078733
 30
0.0
 10
28.6765953485
 20
-40.9006841592
 30
0.0
 10
28.7232852018
 20
-40.8666397883
 30
0.0
 10
28.7841889916
 20
-40.7916605681
 30
0.0
 10
28.8273708941
 20
-40.6848080759
 30
0.0
 10
28.8365239202
 20
-40.6067195093
 30
0.0
 10
28.8365239203
 20
-40.5668511049
 30
0.0
 11
28.6583374557
 21
-40.9115078733
 31
0.0
 11
28.7096974351
 21
-40.8740387729
 31
0.0
 11
28.7785112178
 21
-40.7903187584
 31
0.0
 11
28.8217693701
 21
-40.6855427655
 31
0.0
 11
28.8365239203
 21
-40.5668511049
 31
0.0
  0
SPLINE
  5
384
100
AcDbEntity
  8
RACCORDO
100
AcDbSpline
 62
253
  6
CONTINUOUS
 70
0
 71
3
 72
11
 73
7
 74
5
 42
0.0000001
 43
0.0000001
 44
0.0000000001
 12
-1.5872271852
 22
43.7695139484
 32
0.0
 13
1.5219226603
 23
43.7718333273
 33
0.0
 40
0.0
 40
0.0
 40
0.0
 40
0.0
 40
0.2459471159
 40
0.4947507055
 40
0.7461806544
 40
1.0
 40
1.0
 40
1.0
 40
1.0
 10
28.8365239203
 20
-40.5668511049
 30
0.0
 10
28.7063992708
 20
-36.9785225309
 30
0.0
 10
28.5119656786
 20
-29.7575842866
 30
0.0
 10
28.4159674821
 20
-18.8636382068
 30
0.0
 10
28.5140032476
 20
-7.8547874346
 30
0.0
 10
28.7077594491
 20
-0.4805543395
 30
0.0
 10
28.8365239203
 20
3.2228250237
 30
0.0
 11
28.8365239203
 21
-40.5668511049
 31
0.0
 11
28.54540744
 21
-29.7987240342
 31
0.0
 11
28.4483147593
 21
-18.9019864229
 31
0.0
 11
28.5454074473
 21
-7.8902142624
 31
0.0
 11
28.8365239203
 21
3.2228250237
 31
0.0
  0
SPLINE
  5
385
100
AcDbEntity
  8
RACCORDO
100
AcDbSpline
 62
253
  6
CONTINUOUS
 70
0
 71
3
 72
11
 73
7
 74
5
 42
0.0000001
 43
0.0000001
 44
0.0000000001
 12
-1.5240968354
 22
-43.8343645176
 32
0.0
 13
1.5894946526
 23
-43.8320418253
 33
0.0
 40
0.0
 40
0.0
 40
0.0
 40
0.0
 40
0.253836876
 40
0.5052493008
 40
0.7540357273
 40
1.0
 40
1.0
 40
1.0
 40
1.0
 10
-59.8341152216
 20
20.566461148
 30
0.0
 10
-59.9630725481
 20
16.8575350977
 30
0.0
 10
-60.1571012237
 20
9.4727671054
 30
0.0
 10
-60.2552679643
 20
-1.5515597303
 30
0.0
 10
-60.1591415073
 20
-12.4608122484
 30
0.0
 10
-59.9644348537
 20
-19.6920662317
 30
0.0
 10
-59.8341152216
 20
-23.2857716608
 30
0.0
 11
-59.8341152216
 21
20.566461148
 31
0.0
 11
-60.1256610655
 21
9.4367772815
 31
0.0
 11
-60.2228789671
 21
-1.5899574474
 31
0.0
 11
-60.1256610655
 21
-12.5015091325
 31
0.0
 11
-59.8341152216
 21
-23.2857716608
 31
0.0
  0
SPLINE
  5
386
100
AcDbEntity
  8
RACCORDO
100
AcDbSpline
 62
253
  6
CONTINUOUS
 70
0
 71
3
 72
13
 73
9
 74
7
 42
0.0000001
 43
0.0000001
 44
0.0000000001
 12
0.0228413927
 22
0.6569385298
 32
0.0
 13
0.565548857
 23
0.3350290308
 33
0.0
 40
0.0
 40
0.0
 40
0.0
 40
0.0
 40
0.1873539211
 40
0.3776867623
 40
0.5617288878
 40
0.7308131114
 40
0.8782994528
 40
1.0
 40
1.0
 40
1.0
 40
1.0
 10
28.1540658029
 20
3.1918378671
 30
0.0
 10
28.1554922777
 20
3.2328645369
 30
0.0
 10
28.1637482718
 20
3.3154504374
 30
0.0
 10
28.1901608083
 20
3.4359312336
 30
0.0
 10
28.2292753984
 20
3.5487172502
 30
0.0
 10
28.278764461
 20
3.647073847
 30
0.0
 10
28.3354603226
 20
3.7251201282
 30
0.0
 10
28.3805686833
 20
3.7645852978
 30
0.0
 10
28.4035112184
 20
3.77817637
 30
0.0
 11
28.1540658029
 21
3.1918378671
 31
0.0
 11
28.1660215432
 21
3.3144105495
 31
0.0
 11
28.1928712167
 21
3.436608099
 31
0.0
 11
28.2329306169
 21
3.5507605465
 31
0.0
 11
28.2836545172
 21
3.6496560011
 31
0.0
 11
28.3418836883
 21
3.7271690963
 31
0.0
 11
28.4035112184
 21
3.77817637
 31
0.0
  0
SPLINE
  5
387
100
AcDbEntity
  8
RACCORDO
100
AcDbSpline
 62
253
  6
CONTINUOUS
 70
0
 71
3
 72
13
 73
9
 74
7
 42
0.0000001
 43
0.0000001
 44
0.0000000001
 12
0.6778821155
 22
-0.1338582779
 32
0.0
 13
0.6260659743
 23
0.2923757802
 33
0.0
 40
0.0
 40
0.0
 40
0.0
 40
0.0
 40
0.1767649594
 40
0.3647499932
 40
0.5521986067
 40
0.7272951628
 40
0.8795854527
 40
1.0
 40
1.0
 40
1.0
 40
1.0
 10
28.1540658029
 20
3.1918378671
 30
0.0
 10
28.1940077378
 20
3.1839507161
 30
0.0
 10
28.2772548354
 20
3.1717609389
 30
0.0
 10
28.4042519794
 20
3.163095396
 30
0.0
 10
28.5311629079
 20
3.1637654312
 30
0.0
 10
28.6494990056
 20
3.1736606879
 30
0.0
 10
28.7511151122
 20
3.1919590615
 30
0.0
 10
28.81139477
 20
3.211089592
 30
0.0
 10
28.8365239203
 20
3.2228250244
 30
0.0
 11
28.1540658029
 21
3.1918378671
 31
0.0
 11
28.2748443236
 21
3.1736544475
 31
0.0
 11
28.4044262113
 21
3.1646786506
 31
0.0
 11
28.5339451736
 21
3.1655252863
 31
0.0
 11
28.6544666917
 21
3.1761257823
 31
0.0
 11
28.7578484732
 21
3.1957524342
 31
0.0
 11
28.8365239203
 21
3.2228250244
 31
0.0
  0
SPLINE
  5
388
100
AcDbEntity
  8
RACCORDO
100
AcDbSpline
 62
253
  6
CONTINUOUS
 70
0
 71
3
 72
13
 73
9
 74
7
 42
0.0000001
 43
0.0000001
 44
0.0000000001
 12
0.6897045036
 22
-0.1361927907
 32
0.0
 13
0.571125485
 23
0.4099468977
 33
0.0
 40
0.0
 40
0.0
 40
0.0
 40
0.0
 40
0.1733082022
 40
0.3576695668
 40
0.5425425234
 40
0.7172273312
 40
0.8723606269
 40
1.0
 40
1.0
 40
1.0
 40
1.0
 10
28.1540658029
 20
-40.6603949417
 30
0.0
 10
28.1939096188
 20
-40.6682627176
 30
0.0
 10
28.2772906398
 20
-40.6788816172
 30
0.0
 10
28.4046123177
 20
-40.681333893
 30
0.0
 10
28.5318670319
 20
-40.670877849
 30
0.0
 10
28.6506289368
 20
-40.648232818
 30
0.0
 10
28.7528538797
 20
-40.6151073222
 30
0.0
 10
28.812224554
 20
-40.5842928932
 30
0.0
 10
28.8365239203
 20
-40.5668511049
 30
0.0
 11
28.1540658029
 21
-40.6603949417
 31
0.0
 11
28.2748442987
 21
-40.6764398475
 31
0.0
 11
28.4044262523
 21
-40.6791459215
 31
0.0
 11
28.5339450523
 21
-40.6683271063
 31
0.0
 11
28.654466713
 21
-40.64474366
 31
0.0
 11
28.7578484366
 21
-40.6100048408
 31
0.0
 11
28.8365239203
 21
-40.5668511049
 31
0.0
  0
SPLINE
  5
389
100
AcDbEntity
  8
RACCORDO
100
AcDbSpline
 62
253
  6
CONTINUOUS
 70
0
 71
3
 72
12
 73
8
 74
6
 42
0.0000001
 43
0.0000001
 44
0.0000000001
 12
0.0133618629
 22
-0.3684678846
 32
0.0
 13
0.3661799463
 23
-0.0716462123
 33
0.0
 40
0.0
 40
0.0
 40
0.0
 40
0.0
 40
0.2958012124
 40
0.5515302151
 40
0.7625278254
 40
0.9357285578
 40
1.0
 40
1.0
 40
1.0
 40
1.0
 10
28.1540658029
 20
-40.6603949417
 30
0.0
 10
28.155383288
 20
-40.696726024
 30
0.0
 10
28.1622181067
 20
-40.7644642549
 30
0.0
 10
28.1875619066
 20
-40.8553132395
 30
0.0
 10
28.2262887353
 20
-40.9249157241
 30
0.0
 10
28.2702818735
 20
-40.9615123945
 30
0.0
 10
28.2986283441
 20
-40.9701304836
 30
0.0
 10
28.3064733152
 20
-40.9716654187
 30
0.0
 11
28.1540658029
 21
-40.6603949417
 31
0.0
 11
28.1660215432
 21
-40.7688025524
 31
0.0
 11
28.1928712114
 21
-40.8591887964
 31
0.0
 11
28.232930624
 21
-40.9258791867
 31
0.0
 11
28.2836545114
 21
-40.9646773325
 31
0.0
 11
28.3064733152
 21
-40.9716654187
 31
0.0
  0
SPLINE
  5
38A
100
AcDbEntity
  8
RACCORDO
100
AcDbSpline
 62
253
  6
CONTINUOUS
 70
0
 71
3
 72
12
 73
8
 74
6
 42
0.0000001
 43
0.0000001
 44
0.0000000001
 12
0.0133702248
 22
-0.368698473
 32
0.0
 13
0.3665656226
 23
-0.0709656122
 33
0.0
 40
0.0
 40
0.0
 40
0.0
 40
0.0
 40
0.2956162145
 40
0.5511853185
 40
0.7620509027
 40
0.9351433586
 40
1.0
 40
1.0
 40
1.0
 40
1.0
 10
-59.8341152216
 20
-23.2857716608
 30
0.0
 10
-59.8327977365
 20
-23.3221027431
 30
0.0
 10
-59.8259629174
 20
-23.3898409783
 30
0.0
 10
-59.8006191173
 20
-23.4806899598
 30
0.0
 10
-59.761892287
 20
-23.5502924446
 30
0.0
 10
-59.7178377634
 20
-23.5869401814
 30
0.0
 10
-59.689403242
 20
-23.5955525505
 30
0.0
 10
-59.6814785036
 20
-23.5970867476
 30
0.0
 11
-59.8341152216
 21
-23.2857716608
 31
0.0
 11
-59.8221594813
 21
-23.3941792714
 31
0.0
 11
-59.7953098078
 21
-23.4845655281
 31
0.0
 11
-59.7552504076
 21
-23.5512558976
 31
0.0
 11
-59.7045265073
 21
-23.590054054
 31
0.0
 11
-59.6814785036
 21
-23.5970867476
 31
0.0
  0
SPLINE
  5
38B
100
AcDbEntity
  8
RACCORDO
100
AcDbSpline
 62
253
  6
CONTINUOUS
 70
0
 71
3
 72
11
 73
7
 74
5
 42
0.0000001
 43
0.0000001
 44
0.0000000001
 12
-0.3086211218
 22
0.060942
 32
0.0
 13
-0.0139241147
 23
0.3141099975
 33
0.0
 40
0.0
 40
0.0
 40
0.0
 40
0.0
 40
0.3417620502
 40
0.6229186332
 40
0.8394430329
 40
1.0
 40
1.0
 40
1.0
 40
1.0
 10
-59.8341152216
 20
-23.2857716608
 30
0.0
 10
-59.8692735507
 20
-23.2788291065
 30
0.0
 10
-59.9328173866
 20
-23.2623622475
 30
0.0
 10
-60.0132526447
 20
-23.2255096801
 30
0.0
 10
-60.0679291523
 20
-23.1809330132
 30
0.0
 10
-60.0835779495
 20
-23.1416886648
 30
0.0
 10
-60.084323154
 20
-23.1248778153
 30
0.0
 11
-59.8341152216
 21
-23.2857716608
 31
0.0
 11
-59.9378390655
 21
-23.2574851143
 31
0.0
 11
-60.0174197763
 21
-23.2188888069
 31
0.0
 11
-60.0674102554
 21
-23.1726230662
 31
0.0
 11
-60.084323154
 21
-23.1248778153
 31
0.0
  0
SPLINE
  5
38C
100
AcDbEntity
  8
RACCORDO
100
AcDbSpline
 62
253
  6
CONTINUOUS
 70
0
 71
3
 72
12
 73
8
 74
6
 42
0.0000001
 43
0.0000001
 44
0.0000000001
 12
-0.2917478332
 22
0.0576101089
 32
0.0
 13
0.0133175519
 23
0.28955568
 33
0.0
 40
0.0
 40
0.0
 40
0.0
 40
0.0
 40
0.3597027645
 40
0.6485435684
 40
0.8562764025
 40
0.9954800676
 40
1.0
 40
1.0
 40
1.0
 40
1.0
 10
-59.8341152216
 20
20.566461148
 30
0.0
 10
-59.8690960557
 20
20.5733686532
 30
0.0
 10
-59.9317624417
 20
20.5883134214
 30
0.0
 10
-60.0111941481
 20
20.6194741703
 30
0.0
 10
-60.0652586121
 20
20.6521090532
 30
0.0
 10
-60.0847587332
 20
20.6859801964
 30
0.0
 10
-60.0843769005
 20
20.6998547329
 30
0.0
 10
-60.0843568357
 20
20.7002909903
 30
0.0
 11
-59.8341152216
 21
20.566461148
 31
0.0
 11
-59.9378390472
 21
20.5926091768
 31
0.0
 11
-60.0174197968
 21
20.6249357772
 31
0.0
 11
-60.0674102229
 21
20.6612292737
 31
0.0
 11
-60.0843926524
 21
20.6989820814
 31
0.0
 11
-60.0843568357
 21
20.7002909903
 31
0.0
  0
SPLINE
  5
38D
100
AcDbEntity
  8
RACCORDO
100
AcDbSpline
 62
253
  6
CONTINUOUS
 70
0
 71
3
 72
13
 73
9
 74
7
 42
0.0000001
 43
0.0000001
 44
0.0000000001
 12
0.0228413927
 22
0.6569385296
 32
0.0
 13
0.5655488569
 23
0.3350290307
 33
0.0
 40
0.0
 40
0.0
 40
0.0
 40
0.0
 40
0.1873539214
 40
0.3776867324
 40
0.5617289153
 40
0.7308130948
 40
0.8782994707
 40
1.0
 40
1.0
 40
1.0
 40
1.0
 10
-59.8341152216
 20
20.566461148
 30
0.0
 10
-59.8326887468
 20
20.6074878179
 30
0.0
 10
-59.8244327534
 20
20.6900737118
 30
0.0
 10
-59.7980202166
 20
20.810554514
 30
0.0
 10
-59.758905628
 20
20.9233405274
 30
0.0
 10
-59.7094165601
 20
21.021697133
 30
0.0
 10
-59.6527207022
 20
21.0997434097
 30
0.0
 10
-59.6076123382
 20
21.1392085808
 30
0.0
 10
-59.5846698065
 20
21.152799651
 30
0.0
 11
-59.8341152216
 21
20.566461148
 31
0.0
 11
-59.8221594813
 21
20.6890338306
 31
0.0
 11
-59.7953098131
 21
20.8112313609
 31
0.0
 11
-59.7552504005
 21
20.9253838441
 31
0.0
 11
-59.7045265131
 21
21.0242792727
 31
0.0
 11
-59.6462973282
 21
21.1017923857
 31
0.0
 11
-59.5846698065
 21
21.152799651
 31
0.0
  0
SPLINE
  5
38E
100
AcDbEntity
  8
RACCORDO
100
AcDbSpline
 62
253
  6
CONTINUOUS
 70
0
 71
3
 72
10
 73
6
 74
4
 42
0.0000001
 43
0.0000001
 44
0.0000000001
 12
-0.2578042034
 22
0.0509074157
 32
0.0
 13
-0.2270466354
 23
-0.1345986576
 33
0.0
 40
0.0
 40
0.0
 40
0.0
 40
0.0
 40
0.4271174968
 40
0.8369583079
 40
1.0
 40
1.0
 40
1.0
 40
1.0
 10
-59.5846698061
 20
21.1527996509
 30
0.0
 10
-59.6213740348
 20
21.1600474669
 30
0.0
 10
-59.6957369528
 20
21.1646852739
 30
0.0
 10
-59.7821533467
 20
21.1433387589
 30
0.0
 10
-59.8271566876
 20
21.120430209
 30
0.0
 10
-59.8394960435
 20
21.1131151447
 30
0.0
 11
-59.5846698061
 21
21.1527996509
 31
0.0
 11
-59.6967417388
 21
21.158920358
 31
0.0
 11
-59.8011761557
 21
21.1326046997
 31
0.0
 11
-59.8394960435
 21
21.1131151447
 31
0.0
  0
SPLINE
  5
38F
100
AcDbEntity
  8
RACCORDO
100
AcDbSpline
 62
253
  6
CONTINUOUS
 70
0
 71
3
 72
13
 73
9
 74
7
 42
0.0000001
 43
0.0000001
 44
0.0000000001
 12
-0.0000000005
 22
0.7567252498
 32
0.0
 13
-0.7423898058
 23
0.1465963165
 33
0.0
 40
0.0
 40
0.0
 40
0.0
 40
0.0
 40
0.1657005545
 40
0.3365818239
 40
0.5090514549
 40
0.6791885752
 40
0.8435574706
 40
1.0
 40
1.0
 40
1.0
 40
1.0
 10
28.8365239203
 20
3.2228250237
 30
0.0
 10
28.8365239202
 20
3.2646216216
 30
0.0
 10
28.8260510321
 20
3.3497775882
 30
0.0
 10
28.7824869512
 20
3.4715600237
 30
0.0
 10
28.7137177413
 20
3.5824710028
 30
0.0
 10
28.6241691813
 20
3.6751907893
 30
0.0
 10
28.5196782281
 20
3.7435944885
 30
0.0
 10
28.442224998
 20
3.7705317371
 30
0.0
 10
28.4035112184
 20
3.77817637
 30
0.0
 11
28.8365239203
 21
3.2228250237
 31
0.0
 11
28.8217693701
 21
3.3473437113
 31
0.0
 11
28.7785112178
 21
3.4692036828
 31
0.0
 11
28.7096974351
 21
3.5801003825
 31
0.0
 11
28.620017568
 21
3.6724763834
 31
0.0
 11
28.515583151
 21
3.7400364141
 31
0.0
 11
28.4035112184
 21
3.77817637
 31
0.0
  0
SPLINE
  5
390
100
AcDbEntity
  8
RACCORDO
100
AcDbSpline
 62
253
  6
CONTINUOUS
 70
0
 71
3
 72
11
 73
7
 74
5
 42
0.0000001
 43
0.0000001
 44
0.0000000001
 12
-1.5894946526
 22
43.8320418253
 32
0.0
 13
1.5240968354
 23
43.8343645176
 33
0.0
 40
0.0
 40
0.0
 40
0.0
 40
0.0
 40
0.2459642727
 40
0.4947506992
 40
0.746163124
 40
1.0
 40
1.0
 40
1.0
 40
1.0
 10
28.1540658029
 20
-40.6603949417
 30
0.0
 10
28.0237461708
 20
-37.0666895126
 30
0.0
 10
27.8290395172
 20
-29.8354355293
 30
0.0
 10
27.7329130602
 20
-18.9261830113
 30
0.0
 10
27.8310798008
 20
-7.9018561756
 30
0.0
 10
28.0251084764
 20
-0.5170881832
 30
0.0
 10
28.1540658029
 20
3.1918378671
 30
0.0
 11
28.1540658029
 21
-40.6603949417
 31
0.0
 11
27.862519959
 21
-29.8761324134
 31
0.0
 11
27.7653020574
 21
-18.9645807283
 31
0.0
 11
27.862519959
 21
-7.9378459995
 31
0.0
 11
28.1540658029
 21
3.1918378671
 31
0.0
  0
SPLINE
  5
391
100
AcDbEntity
  8
RACCORDO
100
AcDbSpline
 62
7
  6
CONTINUOUS
 70
0
 71
3
 72
9
 73
5
 74
3
 42
0.0000001
 43
0.0000001
 44
0.0000000001
 12
0.0
 22
-1.120321801
 32
0.0
 13
-0.924470319
 23
-0.6629896328
 33
0.0
 40
0.0
 40
0.0
 40
0.0
 40
0.0
 40
0.6182375433
 40
1.0
 40
1.0
 40
1.0
 40
1.0
 10
55.1109390025
 20
-52.1183252875
 30
0.0
 10
55.1109390025
 20
-52.3492002868
 30
0.0
 10
55.0246090218
 20
-52.7351150983
 30
0.0
 10
54.7622190565
 20
-53.0225360525
 30
0.0
 10
54.6445763698
 20
-53.1069042361
 30
0.0
 11
55.1109390025
 21
-52.1183252875
 31
0.0
 11
54.9369008968
 21
-52.7887282451
 31
0.0
 11
54.6445763698
 21
-53.1069042361
 31
0.0
  0
SPLINE
  5
392
100
AcDbEntity
  8
RACCORDO
100
AcDbSpline
 62
7
  6
CONTINUOUS
 70
0
 71
3
 72
9
 73
5
 74
3
 42
0.0000001
 43
0.0000001
 44
0.0000000001
 12
0.9565467738
 22
-0.1888849122
 32
0.0
 13
0.65989659
 23
-0.7268826691
 33
0.0
 40
0.0
 40
0.0
 40
0.0
 40
0.0
 40
0.7413111471
 40
1.0
 40
1.0
 40
1.0
 40
1.0
 10
53.8119008968
 20
24.7231384141
 30
0.0
 10
54.0482671588
 20
24.6764642504
 30
0.0
 10
54.350995868
 20
24.5201182299
 30
0.0
 10
54.5887986416
 20
24.2934887946
 30
0.0
 10
54.6457012723
 20
24.2308099799
 30
0.0
 11
53.8119008968
 21
24.7231384141
 31
0.0
 11
54.4614199496
 21
24.4060384512
 31
0.0
 11
54.6457012723
 21
24.2308099799
 31
0.0
  0
SPLINE
  5
393
100
AcDbEntity
  8
RACCORDO
100
AcDbSpline
 62
7
  6
CONTINUOUS
 70
0
 71
3
 72
9
 73
5
 74
3
 42
0.0000001
 43
0.0000001
 44
0.0000000001
 12
0.5672538554
 22
-0.8515090467
 32
0.0
 13
0.0
 23
-1.0161010232
 33
0.0
 40
0.0
 40
0.0
 40
0.0
 40
0.0
 40
0.2526833353
 40
1.0
 40
1.0
 40
1.0
 40
1.0
 10
54.8090713689
 20
24.0211720786
 30
0.0
 10
54.8568499009
 20
23.9494513633
 30
0.0
 10
55.025854255
 20
23.6517949287
 30
0.0
 10
55.1109390025
 20
23.3102007846
 30
0.0
 10
55.1109390025
 20
23.0570843754
 30
0.0
 11
54.8090713689
 21
24.0211720786
 31
0.0
 11
54.9369008968
 21
23.796220349
 31
0.0
 11
55.1109390025
 21
23.0570843754
 31
0.0
  0
SPLINE
  5
394
100
AcDbEntity
  8
RACCORDO
100
AcDbSpline
 62
7
  6
CONTINUOUS
 70
0
 71
3
 72
8
 73
4
 74
2
 42
0.0000001
 43
0.0000001
 44
0.0000000001
 12
0.3886851056
 22
0.1672168578
 32
0.0
 13
0.4250420576
 23
0.0023441695
 33
0.0
 40
0.0
 40
0.0
 40
0.0
 40
0.0
 40
1.0
 40
1.0
 40
1.0
 40
1.0
 10
-62.0189968594
 20
47.4068930898
 30
0.0
 10
-61.8894351575
 20
47.4626320424
 30
0.0
 10
-61.747015836
 20
47.4890971176
 30
0.0
 10
-61.6053351502
 20
47.4898785075
 30
0.0
 11
-62.0189968594
 21
47.4068930898
 31
0.0
 11
-61.6053351502
 21
47.4898785075
 31
0.0
  0
SPLINE
  5
395
100
AcDbEntity
  8
RACCORDO
100
AcDbSpline
 62
7
  6
CONTINUOUS
 70
0
 71
3
 72
8
 73
4
 74
2
 42
0.0000001
 43
0.0000001
 44
0.0000000001
 12
-0.6399805688
 22
0.126374033
 32
0.0
 13
-0.6072181512
 23
-0.2612323183
 33
0.0
 40
0.0
 40
0.0
 40
0.0
 40
0.0
 40
1.0
 40
1.0
 40
1.0
 40
1.0
 10
-61.8694778065
 20
47.1712798125
 30
0.0
 10
-62.0828046628
 20
47.2134044902
 30
0.0
 10
-62.316590809
 20
47.1977723966
 30
0.0
 10
-62.5189968594
 20
47.1106949571
 30
0.0
 11
-61.8694778065
 21
47.1712798125
 31
0.0
 11
-62.5189968594
 21
47.1106949571
 31
0.0
  0
SPLINE
  5
396
100
AcDbEntity
  8
RACCORDO
100
AcDbSpline
 62
7
  6
CONTINUOUS
 70
0
 71
3
 72
8
 73
4
 74
2
 42
0.0000001
 43
0.0000001
 44
0.0000000001
 12
0.0
 22
0.5126218155
 32
0.0
 13
-0.1584377195
 23
0.4938909464
 33
0.0
 40
0.0
 40
0.0
 40
0.0
 40
0.0
 40
1.0
 40
1.0
 40
1.0
 40
1.0
 10
54.6109390025
 20
22.7608862427
 30
0.0
 10
54.6109390025
 20
22.9317601812
 30
0.0
 10
54.5819610672
 20
23.1036196833
 30
0.0
 10
54.529148494
 20
23.2682499988
 30
0.0
 11
54.6109390025
 21
22.7608862427
 31
0.0
 11
54.529148494
 21
23.2682499988
 31
0.0
  0
SPLINE
  5
397
100
AcDbEntity
  8
RACCORDO
100
AcDbSpline
 62
7
  6
CONTINUOUS
 70
0
 71
3
 72
9
 73
5
 74
3
 42
0.0000001
 43
0.0000001
 44
0.0000000001
 12
-0.5452293493
 22
1.1390065792
 32
0.0
 13
-1.1691759992
 23
0.4685571796
 33
0.0
 40
0.0
 40
0.0
 40
0.0
 40
0.0
 40
0.6188901641
 40
1.0
 40
1.0
 40
1.0
 40
1.0
 10
54.4369008968
 20
23.5000222162
 30
0.0
 10
54.3244218696
 20
23.7349955391
 30
0.0
 10
54.064146439
 20
24.0735473091
 30
0.0
 10
53.6972510533
 20
24.2966811885
 30
0.0
 10
53.5487228956
 20
24.3562051051
 30
0.0
 11
54.4369008968
 21
23.5000222162
 31
0.0
 11
53.9614199496
 21
24.1098403185
 31
0.0
 11
53.5487228956
 21
24.3562051051
 31
0.0
  0
SPLINE
  5
398
100
AcDbEntity
  8
RACCORDO
100
AcDbSpline
 62
7
  6
CONTINUOUS
 70
0
 71
3
 72
8
 73
4
 74
2
 42
0.0000001
 43
0.0000001
 44
0.0000000001
 12
-0.23076364
 22
0.0924804823
 32
0.0
 13
-0.2419378628
 23
0.0477743621
 33
0.0
 40
0.0
 40
0.0
 40
0.0
 40
0.0
 40
1.0
 40
1.0
 40
1.0
 40
1.0
 10
53.5487228956
 20
24.3562051051
 30
0.0
 10
53.4718016822
 20
24.3870319325
 30
0.0
 10
53.3925468511
 20
24.411015494
 30
0.0
 10
53.3119008968
 20
24.4269402814
 30
0.0
 11
53.5487228956
 21
24.3562051051
 31
0.0
 11
53.3119008968
 21
24.4269402814
 31
0.0
  0
SPLINE
  5
399
100
AcDbEntity
  8
RACCORDO
100
AcDbSpline
 62
7
  6
CONTINUOUS
 70
0
 71
3
 72
9
 73
5
 74
3
 42
0.0000001
 43
0.0000001
 44
0.0000000001
 12
0.8300770343
 22
0.4950368073
 32
0.0
 13
0.1670347974
 23
0.9516811343
 33
0.0
 40
0.0
 40
0.0
 40
0.0
 40
0.0
 40
0.5363497156
 40
1.0
 40
1.0
 40
1.0
 40
1.0
 10
54.0737080147
 20
-53.4495519871
 30
0.0
 10
54.2221118751
 20
-53.3610477035
 30
0.0
 10
54.4565207522
 20
-53.1227593373
 30
0.0
 10
54.5634880545
 20
-52.8131758821
 30
0.0
 10
54.5893032983
 20
-52.6660934726
 30
0.0
 11
54.0737080147
 21
-53.4495519871
 31
0.0
 11
54.4369008968
 21
-53.0849263778
 31
0.0
 11
54.5893032983
 21
-52.6660934726
 31
0.0
  0
SPLINE
  5
39A
100
AcDbEntity
  8
RACCORDO
100
AcDbSpline
 62
7
  6
CONTINUOUS
 70
0
 71
3
 72
9
 73
5
 74
3
 42
0.0000001
 43
0.0000001
 44
0.0000000001
 12
0.0129043343
 22
-0.0355418309
 32
0.0
 13
0.0492394916
 23
-0.0050482723
 33
0.0
 40
0.0
 40
0.0
 40
0.0
 40
0.0
 40
0.2867077408
 40
1.0
 40
1.0
 40
1.0
 40
1.0
 10
-35.2530563765
 20
-43.2475117808
 30
0.0
 10
-35.251823119
 20
-43.2509084868
 30
0.0
 10
-35.2327668992
 20
-43.2648616926
 30
0.0
 10
-35.2164583115
 20
-43.2675040346
 30
0.0
 10
-35.2047509288
 20
-43.2687043325
 30
0.0
 11
-35.2530563765
 21
-43.2475117808
 31
0.0
 11
-35.2411218465
 21
-43.257979703
 31
0.0
 11
-35.2047509288
 21
-43.2687043325
 31
0.0
  0
LINE
  5
39B
100
AcDbEntity
  8
0
100
AcDbLine
 62
7
  6
CONTINUOUS
 10
-64.9793916947
 20
-30.27830842
 11
-64.9720312866
 21
-30.423899214
  0
SPLINE
  5
39C
100
AcDbEntity
  8
0
100
AcDbSpline
 62
7
  6
CONTINUOUS
 70
0
 71
3
 72
15
 73
11
 74
9
 42
0.0000001
 43
0.0000001
 44
0.0000000001
 12
-1.468635778
 22
-42.061168073
 32
0.0
 13
1.4069802412
 23
-42.063407303
 33
0.0
 40
0.0
 40
0.0
 40
0.0
 40
0.0
 40
0.1323926697
 40
0.2641789638
 40
0.3953319424
 40
0.5258249874
 40
0.6556318189
 40
0.7847265123
 40
0.9130835151
 40
1.0
 40
1.0
 40
1.0
 40
1.0
 10
29.3381985739
 20
3.520015215
 30
0.0
 10
29.27338637
 20
1.6638184373
 30
0.0
 10
29.1598814646
 20
-2.040646155
 30
0.0
 10
29.0379279473
 20
-7.5854570026
 30
0.0
 10
28.9646907133
 20
-13.1044783968
 30
0.0
 10
28.9401903886
 20
-18.5961613515
 30
0.0
 10
28.9644337067
 20
-24.0589707024
 30
0.0
 10
29.0374139052
 20
-29.4913797121
 30
0.0
 10
29.1462538359
 20
-34.3213358044
 30
0.0
 10
29.2376636822
 20
-37.3400418233
 30
0.0
 10
29.2784269412
 20
-38.5587096588
 30
0.0
 11
29.3381985739
 21
3.520015215
 31
0.0
 11
29.1676602039
 21
-2.0493582289
 31
0.0
 11
29.0458129895
 21
-7.5944830987
 31
0.0
 11
28.9726910219
 21
-13.1138079521
 31
0.0
 11
28.9483147593
 21
-18.605788565
 31
0.0
 11
28.9726910219
 21
-24.0688883641
 31
0.0
 11
29.0458129895
 21
-29.5015788564
 31
0.0
 11
29.1676602039
 21
-34.9023400567
 31
0.0
 11
29.2784269412
 21
-38.5587096588
 31
0.0
  0
LINE
  5
39D
100
AcDbEntity
  8
0
100
AcDbLine
 62
7
  6
CONTINUOUS
 10
34.8011682339
 20
-49.9815187755
 11
34.808528642
 21
-50.1271095695
  0
SPLINE
  5
39E
100
AcDbEntity
  8
RACCORDO
100
AcDbSpline
 62
7
  6
CONTINUOUS
 70
0
 71
3
 72
9
 73
5
 74
3
 42
0.0000001
 43
0.0000001
 44
0.0000000001
 12
-0.3704453299
 22
-0.0810354842
 32
0.0
 13
-0.3766518028
 23
0.0378068709
 33
0.0
 40
0.0
 40
0.0
 40
0.0
 40
0.0
 40
0.2564614961
 40
1.0
 40
1.0
 40
1.0
 40
1.0
 10
8.0391491962
 20
-51.703871009
 30
0.0
 10
8.007480875
 20
-51.7107985028
 30
0.0
 10
7.8830075799
 20
-51.7333382092
 30
0.0
 10
7.7553907246
 20
-51.7368690547
 30
0.0
 10
7.6620390186
 20
-51.7274987667
 30
0.0
 11
8.0391491962
 21
-51.703871009
 31
0.0
 11
7.9434289002
 21
-51.7211093762
 31
0.0
 11
7.6620390186
 21
-51.7274987667
 31
0.0
  0
SPLINE
  5
39F
100
AcDbEntity
  8
RACCORDO
100
AcDbSpline
 62
7
  6
CONTINUOUS
 70
0
 71
3
 72
9
 73
5
 74
3
 42
0.0000001
 43
0.0000001
 44
0.0000000001
 12
-0.1239051612
 22
0.0124371273
 32
0.0
 13
-0.1222007661
 23
0.0241372296
 33
0.0
 40
0.0
 40
0.0
 40
0.0
 40
0.0
 40
0.8493800005
 40
1.0
 40
1.0
 40
1.0
 40
1.0
 10
7.6620390186
 20
-51.7274987667
 30
0.0
 10
7.6269581633
 20
-51.7239774842
 30
0.0
 10
7.5859160488
 20
-51.7173716993
 30
0.0
 10
7.5451440992
 20
-51.7095033371
 30
0.0
 10
7.5390088061
 20
-51.7082914873
 30
0.0
 11
7.6620390186
 21
-51.7274987667
 31
0.0
 11
7.5574323703
 21
-51.7118449592
 31
0.0
 11
7.5390088061
 21
-51.7082914873
 31
0.0
  0
LINE
  5
3A0
100
AcDbEntity
  8
0
100
AcDbLine
 62
7
  6
CONTINUOUS
 10
35.1569444797
 20
-50.1844555621
 11
35.1471181751
 21
-49.9903419119
  0
LINE
  5
3A1
100
AcDbEntity
  8
0
100
AcDbLine
 62
7
  6
CONTINUOUS
 10
-62.6667461236
 20
-31.8392846896
 11
-62.6768792899
 21
-31.6453529631
  0
SPLINE
  5
3A2
100
AcDbEntity
  8
0
100
AcDbSpline
 62
7
  6
CONTINUOUS
 70
0
 71
3
 72
10
 73
6
 74
4
 42
0.0000001
 43
0.0000001
 44
0.0000000001
 12
-0.0398265856
 22
0.7764368652
 32
0.0
 13
-0.0387504025
 23
0.7764913192
 33
0.0
 40
0.0
 40
0.0
 40
0.0
 40
0.0
 40
0.3332272593
 40
0.6665606425
 40
1.0
 40
1.0
 40
1.0
 40
1.0
 10
-64.0977093929
 20
-30.9327546329
 30
0.0
 10
-64.1021331609
 20
-30.8465113234
 30
0.0
 10
-64.1109422105
 20
-30.673995189
 30
0.0
 10
-64.1240382741
 20
-30.4151737492
 30
0.0
 10
-64.132690667
 20
-30.2425946521
 30
0.0
 10
-64.1369976368
 20
-30.1562903966
 30
0.0
 11
-64.0977093929
 21
-30.9327546329
 31
0.0
 11
-64.1109208821
 21
-30.6740216431
 31
0.0
 11
-64.1240169663
 21
-30.4152001739
 31
0.0
 11
-64.1369976368
 21
-30.1562903966
 31
0.0
  0
LINE
  5
3A3
100
AcDbEntity
  8
0
100
AcDbLine
 62
7
  6
CONTINUOUS
 10
-62.8289385192
 20
-30.414586842
 11
-62.8410013052
 21
-30.171814571
  0
SPLINE
  5
3A4
100
AcDbEntity
  8
0
100
AcDbSpline
 62
7
  6
CONTINUOUS
 70
0
 71
3
 72
10
 73
6
 74
4
 42
0.0000001
 43
0.0000001
 44
0.0000000001
 12
-0.0372751548
 22
0.7279293851
 32
0.0
 13
-0.0363293303
 23
0.727977202
 33
0.0
 40
0.0
 40
0.0
 40
0.0
 40
0.0
 40
0.3332339072
 40
0.6665672843
 40
1.0
 40
1.0
 40
1.0
 40
1.0
 10
-66.0848372582
 20
-30.4923457067
 30
0.0
 10
-66.0889777067
 20
-30.411488789
 30
0.0
 10
-66.0972247789
 20
-30.2497490202
 30
0.0
 10
-66.1094921099
 20
-30.00709786
 30
0.0
 10
-66.1176014989
 20
-29.8453027662
 30
0.0
 10
-66.1216392947
 20
-29.7643922944
 30
0.0
 11
-66.0848372582
 21
-30.4923457067
 31
0.0
 11
-66.0972060358
 21
-30.2497722674
 31
0.0
 11
-66.1094733837
 21
-30.0071210829
 31
0.0
 11
-66.1216392947
 21
-29.7643922944
 31
0.0
  0
SPLINE
  5
3A5
100
AcDbEntity
  8
0
100
AcDbSpline
 62
7
  6
CONTINUOUS
 70
0
 71
3
 72
9
 73
5
 74
3
 42
0.0000001
 43
0.0000001
 44
0.0000000001
 12
-0.051318136
 22
0.9577357833
 32
0.0
 13
-0.0496725853
 23
0.95782255
 33
0.0
 40
0.0
 40
0.0
 40
0.0
 40
0.0
 40
0.5312153457
 40
1.0
 40
1.0
 40
1.0
 40
1.0
 10
33.8396439999
 20
-51.4598562872
 30
0.0
 10
33.8305570062
 20
-51.2902683055
 30
0.0
 10
33.8135969038
 20
-50.9710152077
 30
0.0
 10
33.7969110297
 20
-50.6517476674
 30
0.0
 10
33.7891491144
 20
-50.5020768298
 30
0.0
 11
33.8396439999
 21
-51.4598562872
 31
0.0
 11
33.8126154573
 21
-50.9510799406
 31
0.0
 11
33.7891491144
 21
-50.5020768298
 31
0.0
  0
LINE
  5
3A6
100
AcDbEntity
  8
0
100
AcDbLine
 62
7
  6
CONTINUOUS
 10
33.771049459
 20
-50.1509329068
 11
33.7372342773
 21
-49.4830676993
  0
SPLINE
  5
3A7
100
AcDbEntity
  8
RACCORDO
100
AcDbSpline
 62
253
  6
CONTINUOUS
 70
0
 71
3
 72
10
 73
6
 74
4
 42
0.0000001
 43
0.0000001
 44
0.0000000001
 12
-0.1570494984
 22
0.1956047706
 32
0.0
 13
-0.2425843886
 23
0.0603883014
 33
0.0
 40
0.0
 40
0.0
 40
0.0
 40
0.0
 40
0.2327754435
 40
0.5963250558
 40
1.0
 40
1.0
 40
1.0
 40
1.0
 10
29.4585643398
 20
7.8275607263
 30
0.0
 10
29.4463785842
 20
7.8427380554
 30
0.0
 10
29.4106102817
 20
7.8779717906
 30
0.0
 10
29.3386407159
 20
7.9214783284
 30
0.0
 10
29.2776933023
 20
7.9422868183
 30
0.0
 10
29.2450515558
 20
7.9504125663
 30
0.0
 11
29.4585643398
 21
7.8275607263
 31
0.0
 11
29.4173649676
 21
7.8688295279
 31
0.0
 11
29.3402418043
 21
7.9169100416
 31
0.0
 11
29.2450515558
 21
7.9504125663
 31
0.0
  0
SPLINE
  5
3A8
100
AcDbEntity
  8
0
100
AcDbSpline
 62
7
  6
CONTINUOUS
 70
0
 71
3
 72
10
 73
6
 74
4
 42
0.0000001
 43
0.0000001
 44
0.0000000001
 12
-0.054515592
 22
1.0178631539
 32
0.0
 13
-0.0526580284
 23
1.0179609432
 33
0.0
 40
0.0
 40
0.0
 40
0.0
 40
0.0
 40
0.3331929933
 40
0.6665264124
 40
1.0
 40
1.0
 40
1.0
 40
1.0
 10
-66.0162723704
 20
-31.8012866536
 30
0.0
 10
-66.0223271082
 20
-31.6882383632
 30
0.0
 10
-66.0343702535
 20
-31.4620904423
 30
0.0
 10
-66.0522322931
 20
-31.1227862534
 30
0.0
 10
-66.0640052561
 20
-30.8965286386
 30
0.0
 10
-66.06985861
 20
-30.783374276
 30
0.0
 11
-66.0162723704
 21
-31.8012866536
 31
0.0
 11
-66.0343333247
 21
-31.4621362678
 31
0.0
 11
-66.0521954113
 21
-31.1228320129
 31
0.0
 11
-66.06985861
 21
-30.783374276
 31
0.0
  0
LINE
  5
3A9
100
AcDbEntity
  8
0
100
AcDbLine
 62
7
  6
CONTINUOUS
 10
-64.6989366968
 20
-30.5258652326
 11
-64.703310071
 21
-30.4395975201
  0
LINE
  5
3AA
100
AcDbEntity
  8
0
100
AcDbLine
 62
7
  6
CONTINUOUS
 10
-64.703310071
 20
-30.4395975201
 11
-64.708758756
 21
-30.3317490674
  0
SPLINE
  5
3AB
100
AcDbEntity
  8
RACCORDO
100
AcDbSpline
 62
253
  6
CONTINUOUS
 70
0
 71
3
 72
22
 73
18
 74
16
 42
0.0000001
 43
0.0000001
 44
0.0000000001
 12
-0.2019472454
 22
1.3115324223
 32
0.0
 13
0.9163591178
 23
0.9597843257
 33
0.0
 40
0.0
 40
0.0
 40
0.0
 40
0.0
 40
0.1023615135
 40
0.1952051615
 40
0.2803237217
 40
0.3576518854
 40
0.426568585
 40
0.4885364047
 40
0.5462787745
 40
0.602413092
 40
0.6583553676
 40
0.7138322235
 40
0.7685791153
 40
0.8233417149
 40
0.8792109943
 40
0.9374837082
 40
1.0
 40
1.0
 40
1.0
 40
1.0
 10
29.2450515558
 20
7.9504125663
 30
0.0
 10
29.2381610139
 20
7.9951627143
 30
0.0
 10
29.2264470812
 20
8.0807305988
 30
0.0
 10
29.2139149501
 20
8.2041149436
 30
0.0
 10
29.2064310583
 20
8.316812791
 30
0.0
 10
29.2032610087
 20
8.4191241287
 30
0.0
 10
29.2036749771
 20
8.5112410522
 30
0.0
 10
29.2070091824
 20
8.5946272003
 30
0.0
 10
29.2129375737
 20
8.6722000096
 30
0.0
 10
29.2215681137
 20
8.7468393001
 30
0.0
 10
29.2332727667
 20
8.8200499203
 30
0.0
 10
29.2484759071
 20
8.8919960817
 30
0.0
 10
29.2676577348
 20
8.9624569165
 30
0.0
 10
29.2916377528
 20
9.0316365436
 30
0.0
 10
29.3219389738
 20
9.1000484601
 30
0.0
 10
29.3610404487
 20
9.1678976171
 30
0.0
 10
29.3943302121
 20
9.2100885899
 30
0.0
 10
29.4134260034
 20
9.2300893089
 30
0.0
 11
29.2450515558
 21
7.9504125663
 31
0.0
 11
29.2266973049
 21
8.0849994128
 31
0.0
 11
29.2143150717
 21
8.207578113
 31
0.0
 11
29.2068990526
 21
8.3202857931
 31
0.0
 11
29.2037872812
 21
8.4228522277
 31
0.0
 11
29.2042580757
 21
8.5143027228
 31
0.0
 11
29.2075983204
 21
8.5964654729
 31
0.0
 11
29.2134926954
 21
8.6728619132
 31
0.0
 11
29.2221130258
 21
8.7468510625
 31
0.0
 11
29.2339130312
 21
8.8201420146
 31
0.0
 11
29.2492343098
 21
8.8921472073
 31
0.0
 11
29.2684424391
 21
8.9622104375
 31
0.0
 11
29.2924097201
 21
9.0308136949
 31
0.0
 11
29.3226547425
 21
9.0985017311
 31
0.0
 11
29.3616266579
 21
9.1652901588
 31
0.0
 11
29.4134260034
 21
9.2300893089
 31
0.0
  0
SPLINE
  5
3AC
100
AcDbEntity
  8
RACCORDO
100
AcDbSpline
 62
253
  6
CONTINUOUS
 70
0
 71
3
 72
14
 73
10
 74
8
 42
0.0000001
 43
0.0000001
 44
0.0000000001
 12
-0.4529897612
 22
1.6075777215
 32
0.0
 13
-1.1868741691
 23
1.1750895971
 33
0.0
 40
0.0
 40
0.0
 40
0.0
 40
0.0
 40
0.1727171373
 40
0.3346933087
 40
0.4857467763
 40
0.6271919491
 40
0.759861409
 40
0.8841262423
 40
1.0
 40
1.0
 40
1.0
 40
1.0
 10
-59.7849250485
 20
25.5307549979
 30
0.0
 10
-59.8110047468
 20
25.6233070719
 30
0.0
 10
-59.8670048235
 20
25.8011697791
 30
0.0
 10
-59.9635176992
 20
26.0539503138
 30
0.0
 10
-60.0677954229
 20
26.2846535284
 30
0.0
 10
-60.1786209611
 20
26.493993428
 30
0.0
 10
-60.2956577697
 20
26.6826233483
 30
0.0
 10
-60.4186099357
 20
26.850116233
 30
0.0
 10
-60.5078330565
 20
26.9500972449
 30
0.0
 10
-60.5536755798
 20
26.995484594
 30
0.0
 11
-59.7849250485
 21
25.5307549979
 31
0.0
 11
-59.8715981709
 21
25.8058951503
 31
0.0
 11
-59.9682657933
 21
26.0585641585
 31
0.0
 11
-60.07243512
 21
26.2883408438
 31
0.0
 11
-60.1833257382
 21
26.4969365785
 31
0.0
 11
-60.3005942961
 21
26.6849437474
 31
0.0
 11
-60.4240618726
 21
26.8517688241
 31
0.0
 11
-60.5536755798
 21
26.995484594
 31
0.0
  0
SPLINE
  5
3AD
100
AcDbEntity
  8
RACCORDO
100
AcDbSpline
 62
253
  6
CONTINUOUS
 70
0
 71
3
 72
14
 73
10
 74
8
 42
0.0000001
 43
0.0000001
 44
0.0000000001
 12
-0.2195230599
 22
-1.8376428531
 32
0.0
 13
0.8664278703
 23
-1.6353667402
 33
0.0
 40
0.0
 40
0.0
 40
0.0
 40
0.0
 40
0.187041687
 40
0.3577501106
 40
0.5125850071
 40
0.653321454
 40
0.7811123634
 40
0.8965790885
 40
1.0
 40
1.0
 40
1.0
 40
1.0
 10
29.2450514878
 20
-44.9492527246
 30
0.0
 10
29.2313648333
 20
-45.0638246643
 30
0.0
 10
29.2111906021
 20
-45.2837416854
 30
0.0
 10
29.2005449209
 20
-45.5999525371
 30
0.0
 10
29.20845181
 20
-45.8876904721
 30
0.0
 10
29.2332419269
 20
-46.1479057725
 30
0.0
 10
29.2742260453
 20
-46.3815339135
 30
0.0
 10
29.3312770194
 20
-46.5880136356
 30
0.0
 10
29.3835311407
 20
-46.7131971055
 30
0.0
 10
29.4134000607
 20
-46.7695741452
 30
0.0
 11
29.2450514878
 21
-44.9492527246
 31
0.0
 11
29.2137531653
 21
-45.2939945121
 31
0.0
 11
29.2035923346
 21
-45.6097625918
 31
0.0
 11
29.2120648993
 21
-45.8961915556
 31
0.0
 11
29.2375534338
 21
-46.1554035418
 31
0.0
 11
29.2794239228
 21
-46.3881713822
 31
0.0
 11
29.3377765374
 21
-46.5937452808
 31
0.0
 11
29.4134000607
 21
-46.7695741452
 31
0.0
  0
SPLINE
  5
3AE
100
AcDbEntity
  8
RACCORDO
100
AcDbSpline
 62
253
  6
CONTINUOUS
 70
0
 71
3
 72
15
 73
11
 74
9
 42
0.0000001
 43
0.0000001
 44
0.0000000001
 12
-0.408999704
 22
-1.7843846684
 32
0.0
 13
-1.3718492999
 23
-1.2121629021
 33
0.0
 40
0.0
 40
0.0
 40
0.0
 40
0.0
 40
0.1672045032
 40
0.3207848478
 40
0.4613488682
 40
0.5897636999
 40
0.7071627372
 40
0.8143785737
 40
0.9118405045
 40
1.0
 40
1.0
 40
1.0
 40
1.0
 10
-59.7849248797
 20
-27.3689102786
 30
0.0
 10
-59.8077204105
 20
-27.4683626626
 30
0.0
 10
-59.8561147946
 20
-27.6581388763
 30
0.0
 10
-59.9396330049
 20
-27.9271168755
 30
0.0
 10
-60.0292422586
 20
-28.1690420088
 30
0.0
 10
-60.1239023202
 20
-28.3851400158
 30
0.0
 10
-60.2230704435
 20
-28.5765784345
 30
0.0
 10
-60.3266554182
 20
-28.7438770002
 30
0.0
 10
-60.4344674498
 20
-28.8867435387
 30
0.0
 10
-60.5133579495
 20
-28.9686236141
 30
0.0
 10
-60.5536717969
 20
-29.0042448374
 30
0.0
 11
-59.7849248797
 21
-27.3689102786
 31
0.0
 11
-59.8607994029
 21
-27.6654516297
 31
0.0
 11
-59.944477815
 21
-27.933863622
 31
0.0
 11
-60.0342375972
 21
-28.1750257455
 31
0.0
 11
-60.1290102944
 21
-28.3901593426
 31
0.0
 11
-60.2284289519
 21
-28.5806992758
 31
0.0
 11
-60.332406678
 21
-28.7471706656
 31
0.0
 11
-60.4408011466
 21
-28.8888892269
 31
0.0
 11
-60.5536717969
 21
-29.0042448374
 31
0.0
  0
SPLINE
  5
3AF
100
AcDbEntity
  8
0
100
AcDbSpline
 62
7
  6
CONTINUOUS
 70
0
 71
3
 72
9
 73
5
 74
3
 42
0.0000001
 43
0.0000001
 44
0.0000000001
 12
-0.051318136
 22
0.9577357833
 32
0.0
 13
-0.0496725853
 23
0.95782255
 33
0.0
 40
0.0
 40
0.0
 40
0.0
 40
0.0
 40
0.5312153457
 40
1.0
 40
1.0
 40
1.0
 40
1.0
 10
-65.9409161222
 20
-31.7566458935
 30
0.0
 10
-65.950003116
 20
-31.5870579118
 30
0.0
 10
-65.9669632183
 20
-31.267804814
 30
0.0
 10
-65.9836490925
 20
-30.9485372737
 30
0.0
 10
-65.9914110077
 20
-30.7988664361
 30
0.0
 11
-65.9409161222
 21
-31.7566458935
 31
0.0
 11
-65.9679446648
 21
-31.2478695469
 31
0.0
 11
-65.9914110077
 21
-30.7988664361
 31
0.0
  0
SPLINE
  5
3B0
100
AcDbEntity
  8
RACCORDO
100
AcDbSpline
 62
253
  6
CONTINUOUS
 70
0
 71
3
 72
13
 73
9
 74
7
 42
0.0000001
 43
0.0000001
 44
0.0000000001
 12
-3.3165738898
 22
54.1476277937
 32
0.0
 13
2.9249846316
 23
54.1708252178
 33
0.0
 40
0.0
 40
0.0
 40
0.0
 40
0.0
 40
0.1626813694
 40
0.3267112223
 40
0.4921295805
 40
0.6632847034
 40
0.8480784883
 40
1.0
 40
1.0
 40
1.0
 40
1.0
 10
-60.9268435383
 20
-29.1427534317
 30
0.0
 10
-61.106691799
 20
-26.2064833524
 30
0.0
 10
-61.4084179131
 20
-20.305799911
 30
0.0
 10
-61.6875707849
 20
-11.4104448959
 30
0.0
 10
-61.7961023961
 20
-2.3581053399
 30
0.0
 10
-61.7268859904
 20
7.0701387023
 30
0.0
 10
-61.4760798832
 20
16.2511670277
 30
0.0
 10
-61.1975092336
 20
22.3340115531
 30
0.0
 10
-61.0493865379
 20
25.0772494389
 30
0.0
 11
-60.9268435383
 21
-29.1427534317
 31
0.0
 11
-61.3783112246
 21
-20.3289901433
 31
0.0
 11
-61.658163582
 21
-11.4349193274
 31
0.0
 11
-61.7664395439
 21
-2.4617748896
 31
0.0
 11
-61.6989803448
 21
6.8229920639
 31
0.0
 11
-61.4260257237
 21
16.8441726272
 31
0.0
 11
-61.0493865379
 21
25.0772494389
 31
0.0
  0
LINE
  5
3B1
100
AcDbEntity
  8
RACCORDO
100
AcDbLine
 62
253
  6
CONTINUOUS
 10
-60.9442372114
 20
26.9593042523
 11
-60.9268435383
 21
27.2589946353
  0
SPLINE
  5
3B2
100
AcDbEntity
  8
RACCORDO
100
AcDbSpline
 62
253
  6
CONTINUOUS
 70
0
 71
3
 72
13
 73
9
 74
7
 42
0.0000001
 43
0.0000001
 44
0.0000000001
 12
-2.9976102734
 22
52.5192245632
 32
0.0
 13
2.8647324374
 23
52.5266401375
 33
0.0
 40
0.0
 40
0.0
 40
0.0
 40
0.0
 40
0.15681523
 40
0.3148236262
 40
0.4741329743
 40
0.6389671509
 40
0.8159182533
 40
1.0
 40
1.0
 40
1.0
 40
1.0
 10
-60.4028702629
 20
-27.2374578487
 30
0.0
 10
-60.5595605777
 20
-24.4921864221
 30
0.0
 10
-60.8223891485
 20
-18.9776701178
 30
0.0
 10
-61.0654357235
 20
-10.6669110913
 30
0.0
 10
-61.1595864375
 20
-2.2124905369
 30
0.0
 10
-61.0985780632
 20
6.5744290566
 30
0.0
 10
-60.8626021195
 20
15.7929709955
 30
0.0
 10
-60.5786520464
 20
22.1177483257
 30
0.0
 10
-60.4028703961
 20
25.3408135473
 30
0.0
 11
-60.4028702629
 21
-27.2374578487
 31
0.0
 11
-60.7962234175
 21
-18.9976230906
 31
0.0
 11
-61.039800372
 21
-10.6892082758
 31
0.0
 11
-61.1336857124
 21
-2.3093134884
 31
0.0
 11
-61.0740594121
 21
6.3615341508
 31
0.0
 11
-60.8365088956
 21
15.6669624448
 31
0.0
 11
-60.4028703961
 21
25.3408135473
 31
0.0
  0
LINE
  5
3B3
100
AcDbEntity
  8
0
100
AcDbLine
 62
7
  6
CONTINUOUS
 10
-64.6236154489
 20
-30.4812452066
 11
-64.6334417535
 21
-30.2871315564
  0
LINE
  5
3B4
100
AcDbEntity
  8
0
100
AcDbLine
 62
7
  6
CONTINUOUS
 10
-66.0095106631
 20
-30.4477225131
 11
-66.0433258448
 21
-29.7798573057
  0
SPLINE
  5
3B5
100
AcDbEntity
  8
0
100
AcDbSpline
 62
7
  6
CONTINUOUS
 70
0
 71
3
 72
10
 73
6
 74
4
 42
0.0000001
 43
0.0000001
 44
0.0000000001
 12
-0.0372751548
 22
0.7279293851
 32
0.0
 13
-0.0363293303
 23
0.727977202
 33
0.0
 40
0.0
 40
0.0
 40
0.0
 40
0.0
 40
0.3332339072
 40
0.6665672843
 40
1.0
 40
1.0
 40
1.0
 40
1.0
 10
33.6957228639
 20
-50.1955561004
 30
0.0
 10
33.6915824155
 20
-50.1146991827
 30
0.0
 10
33.6833353432
 20
-49.9529594139
 30
0.0
 10
33.6710680123
 20
-49.7103082537
 30
0.0
 10
33.6629586232
 20
-49.5485131599
 30
0.0
 10
33.6589208275
 20
-49.4676026881
 30
0.0
 11
33.6957228639
 21
-50.1955561004
 31
0.0
 11
33.6833540864
 21
-49.9529826611
 31
0.0
 11
33.6710867385
 21
-49.7103314766
 31
0.0
 11
33.6589208275
 21
-49.4676026881
 31
0.0
  0
SPLINE
  5
3B6
100
AcDbEntity
  8
RACCORDO
100
AcDbSpline
 62
253
  6
CONTINUOUS
 70
0
 71
3
 72
14
 73
10
 74
8
 42
0.0000001
 43
0.0000001
 44
0.0000000001
 12
-1.5343452024
 22
-49.6493842464
 32
0.0
 13
1.2183925012
 23
-49.6584593723
 33
0.0
 40
0.0
 40
0.0
 40
0.0
 40
0.0
 40
0.1592004203
 40
0.3169395664
 40
0.4734450883
 40
0.6303228336
 40
0.791922831
 40
0.9618648439
 40
1.0
 40
1.0
 40
1.0
 40
1.0
 10
29.7582755687
 20
9.3518193383
 30
0.0
 10
29.6768527683
 20
6.7170850581
 30
0.0
 10
29.5363055117
 20
1.4711074266
 30
0.0
 10
29.391721256
 20
-6.3668063254
 30
0.0
 10
29.3137125693
 20
-14.1672130584
 30
0.0
 10
29.3028033493
 20
-22.0319325474
 30
0.0
 10
29.3641205103
 20
-30.1189219743
 30
0.0
 10
29.4692472729
 20
-36.2391172752
 30
0.0
 10
29.5498049545
 20
-39.683477954
 30
0.0
 10
29.5652928172
 20
-40.31472232
 30
0.0
 11
29.7582755687
 21
9.3518193383
 31
0.0
 11
29.5466980761
 21
1.4466738898
 31
0.0
 11
29.4024143344
 21
-6.387387877
 31
0.0
 11
29.3249208014
 21
-14.1611140377
 31
0.0
 11
29.3143880023
 21
-21.9537088069
 31
0.0
 11
29.3755839979
 21
-29.9806462648
 31
0.0
 11
29.5209950186
 21
-38.4209381661
 31
0.0
 11
29.5652928172
 21
-40.31472232
 31
0.0
  0
SPLINE
  5
3B7
100
AcDbEntity
  8
RACCORDO
100
AcDbSpline
 62
7
  6
CONTINUOUS
 70
0
 71
3
 72
10
 73
6
 74
4
 42
0.0000001
 43
0.0000001
 44
0.0000000001
 12
-0.3470650051
 22
0.0685333376
 32
0.0
 13
-0.3629285885
 23
0.0101057108
 33
0.0
 40
0.0
 40
0.0
 40
0.0
 40
0.0
 40
0.3768134263
 40
0.7156115807
 40
1.0
 40
1.0
 40
1.0
 40
1.0
 10
-34.7535905246
 20
-43.2750289286
 30
0.0
 10
-34.7971834425
 20
-43.2664208347
 30
0.0
 10
-34.8801121944
 20
-43.2515207687
 30
0.0
 10
-34.9977363286
 20
-43.2363104592
 30
0.0
 10
-35.0696939632
 20
-43.2304521665
 30
0.0
 10
-35.1040981924
 20
-43.2294941841
 30
0.0
 11
-34.7535905246
 21
-43.2750289286
 31
0.0
 11
-34.8848626419
 21
-43.2518425713
 31
0.0
 11
-35.0037389504
 21
-43.236552966
 31
0.0
 11
-35.1040981924
 21
-43.2294941841
 31
0.0
  0
SPLINE
  5
3B8
100
AcDbEntity
  8
RACCORDO
100
AcDbSpline
 62
7
  6
CONTINUOUS
 70
0
 71
3
 72
11
 73
7
 74
5
 42
0.0000001
 43
0.0000001
 44
0.0000000001
 12
-0.1578941627
 22
0.0043965474
 32
0.0
 13
0.0379721068
 23
-0.1045848758
 33
0.0
 40
0.0
 40
0.0
 40
0.0
 40
0.0
 40
0.5035712276
 40
0.8393527445
 40
0.9874226415
 40
1.0
 40
1.0
 40
1.0
 40
1.0
 10
-35.1040981924
 20
-43.2294941841
 30
0.0
 10
-35.1306018449
 20
-43.2287561925
 30
0.0
 10
-35.1763278618
 20
-43.229222955
 30
0.0
 10
-35.2174804826
 20
-43.2314273304
 30
0.0
 10
-35.2543485887
 20
-43.2416013958
 30
0.0
 10
-35.2532155728
 20
-43.2470733137
 30
0.0
 10
-35.2530563765
 20
-43.2475117808
 30
0.0
 11
-35.1040981924
 21
-43.2294941841
 31
0.0
 11
-35.1816012707
 21
-43.2298227206
 31
0.0
 11
-35.232897937
 21
-43.2361018946
 31
0.0
 11
-35.2533129088
 21
-43.246229861
 31
0.0
 11
-35.2530563765
 21
-43.2475117808
 31
0.0
  0
LINE
  5
3B9
100
AcDbEntity
  8
0
100
AcDbLine
 62
7
  6
CONTINUOUS
 10
35.0816232318
 20
-50.2290755881
 11
35.0718011726
 21
-50.0349594229
  0
LINE
  5
3BA
100
AcDbEntity
  8
0
100
AcDbLine
 62
7
  6
CONTINUOUS
 10
-62.5914043169
 20
-31.7946524847
 11
-62.6015418655
 21
-31.6007233542
  0
SPLINE
  5
3BB
100
AcDbEntity
  8
0
100
AcDbSpline
 62
7
  6
CONTINUOUS
 70
0
 71
3
 72
10
 73
6
 74
4
 42
0.0000001
 43
0.0000001
 44
0.0000000001
 12
-0.054515592
 22
1.0178631539
 32
0.0
 13
-0.0526580284
 23
1.0179609432
 33
0.0
 40
0.0
 40
0.0
 40
0.0
 40
0.0
 40
0.3331929933
 40
0.6665264124
 40
1.0
 40
1.0
 40
1.0
 40
1.0
 10
33.7642877517
 20
-51.5044970472
 30
0.0
 10
33.758233014
 20
-51.3914487569
 30
0.0
 10
33.7461898686
 20
-51.1653008359
 30
0.0
 10
33.728327829
 20
-50.8259966471
 30
0.0
 10
33.7165548661
 20
-50.5997390323
 30
0.0
 10
33.7107015122
 20
-50.4865846697
 30
0.0
 11
33.7642877517
 21
-51.5044970472
 31
0.0
 11
33.7462267975
 21
-51.1653466615
 31
0.0
 11
33.7283647108
 21
-50.8260424066
 31
0.0
 11
33.7107015122
 21
-50.4865846697
 31
0.0
  0
SPLINE
  5
3BC
100
AcDbEntity
  8
0
100
AcDbSpline
 62
7
  6
CONTINUOUS
 70
0
 71
3
 72
9
 73
5
 74
3
 42
0.0000001
 43
0.0000001
 44
0.0000000001
 12
-0.0367609553
 22
0.7163519386
 32
0.0
 13
-0.0358443545
 23
0.7163983939
 33
0.0
 40
0.0
 40
0.0
 40
0.0
 40
0.0
 40
0.5418017118
 40
1.0
 40
1.0
 40
1.0
 40
1.0
 10
-64.022381723
 20
-30.8881308026
 30
0.0
 10
-64.0290207725
 20
-30.7587572337
 30
0.0
 10
-64.0411915484
 20
-30.5199689941
 30
0.0
 10
-64.0532095742
 20
-30.2811730221
 30
0.0
 10
-64.0586841815
 20
-30.1717555162
 30
0.0
 11
-64.022381723
 21
-30.8881308026
 31
0.0
 11
-64.0421642273
 21
-30.5000032099
 31
0.0
 11
-64.0586841815
 21
-30.1717555162
 31
0.0
  0
LINE
  5
3BD
100
AcDbEntity
  8
0
100
AcDbLine
 62
7
  6
CONTINUOUS
 10
-62.7536278307
 20
-30.3699730714
 11
-62.7656958291
 21
-30.1272038881
  0
SPLINE
  5
3BE
100
AcDbEntity
  8
RACCORDO
100
AcDbSpline
 62
7
  6
CONTINUOUS
 70
0
 71
3
 72
15
 73
11
 74
9
 42
0.0000001
 43
0.0000001
 44
0.0000000001
 12
-1.2617618104
 22
0.2492245797
 32
0.0
 13
-1.2614310411
 23
0.2490890126
 33
0.0
 40
0.0
 40
0.0
 40
0.0
 40
0.0
 40
0.0899330363
 40
0.210971853
 40
0.3444003666
 40
0.484597765
 40
0.6235083015
 40
0.7584559369
 40
0.8854285254
 40
1.0
 40
1.0
 40
1.0
 40
1.0
 10
7.5390088061
 20
-51.7082914873
 30
0.0
 10
7.5011841159
 20
-51.7008203129
 30
0.0
 10
7.4129672177
 20
-51.6809116728
 30
0.0
 10
7.2701915022
 20
-51.6433440489
 30
0.0
 10
7.1075511032
 20
-51.5968546061
 30
0.0
 10
6.9379388837
 20
-51.5469134963
 30
0.0
 10
6.7675166394
 20
-51.4974180111
 30
0.0
 10
6.6018828328
 20
-51.4517854997
 30
0.0
 10
6.4453552491
 20
-51.4125063965
 30
0.0
 10
6.3441882863
 20
-51.3904191573
 30
0.0
 10
6.2960136148
 20
-51.3809063255
 30
0.0
 11
7.5390088061
 21
-51.7082914873
 31
0.0
 11
7.4261112827
 21
-51.6832828907
 31
0.0
 11
7.2754697639
 21
-51.6441938709
 31
0.0
 11
7.1104025387
 21
-51.5974395842
 31
0.0
 11
6.9373782569
 21
-51.5468647795
 31
0.0
 11
6.7657704343
 21
-51.4973454539
 31
0.0
 11
6.5984116501
 21
-51.4515391828
 31
0.0
 11
6.4399937828
 21
-51.4120727767
 31
0.0
 11
6.2960136148
 21
-51.3809063255
 31
0.0
  0
SPLINE
  5
3BF
100
AcDbEntity
  8
RACCORDO
100
AcDbSpline
 62
7
  6
CONTINUOUS
 70
0
 71
3
 72
14
 73
10
 74
8
 42
0.0000001
 43
0.0000001
 44
0.0000000001
 12
-0.1213174936
 22
0.3443714994
 32
0.0
 13
0.4979906826
 23
-0.0983359402
 33
0.0
 40
0.0
 40
0.0
 40
0.0
 40
0.0
 40
0.0036790769
 40
0.0485744182
 40
0.150384618
 40
0.3030692798
 40
0.5012683056
 40
0.7373871474
 40
1.0
 40
1.0
 40
1.0
 40
1.0
 10
-35.2530729482
 20
-41.3680802094
 30
0.0
 10
-35.253221727
 20
-41.3676578863
 30
0.0
 10
-35.2543156627
 20
-41.362207068
 30
0.0
 10
-35.2174804826
 20
-41.3520420888
 30
0.0
 10
-35.1763278618
 20
-41.3498377135
 30
0.0
 10
-35.0949907053
 20
-41.3490074392
 30
0.0
 10
-34.9977363286
 20
-41.3569252177
 30
0.0
 10
-34.8801121944
 20
-41.3721355272
 30
0.0
 10
-34.7971834425
 20
-41.3870355931
 30
0.0
 10
-34.7535905246
 20
-41.3956436871
 30
0.0
 11
-35.2530729482
 21
-41.3680802094
 31
0.0
 11
-35.2533129088
 21
-41.3668446195
 31
0.0
 11
-35.232897937
 21
-41.3567166531
 31
0.0
 11
-35.1816012707
 21
-41.350437479
 31
0.0
 11
-35.1040981924
 21
-41.3501089425
 31
0.0
 11
-35.0037389504
 21
-41.3571677244
 31
0.0
 11
-34.8848626419
 21
-41.3724573297
 31
0.0
 11
-34.7535905246
 21
-41.3956436871
 31
0.0
  0
SPLINE
  5
3C0
100
AcDbEntity
  8
RACCORDO
100
AcDbSpline
 62
253
  6
CONTINUOUS
 70
0
 71
3
 72
13
 73
9
 74
7
 42
0.0000001
 43
0.0000001
 44
0.0000000001
 12
-0.6584449014
 22
0.0953115919
 32
0.0
 13
-0.4828533797
 23
-0.4576970629
 33
0.0
 40
0.0
 40
0.0
 40
0.0
 40
0.0
 40
0.1590761973
 40
0.3292632219
 40
0.5047368511
 40
0.6790720233
 40
0.8459697806
 40
1.0
 40
1.0
 40
1.0
 40
1.0
 10
-59.7849250485
 20
25.5307549979
 30
0.0
 10
-59.8198393522
 20
25.5358089331
 30
0.0
 10
-59.8931520409
 20
25.539578254
 30
0.0
 10
-60.0048928569
 20
25.5286851435
 30
0.0
 10
-60.1174559037
 20
25.5020879947
 30
0.0
 10
-60.224868561
 20
25.4611727542
 30
0.0
 10
-60.3214471402
 20
25.4081315223
 30
0.0
 10
-60.378079088
 20
25.3643133772
 30
0.0
 10
-60.4028704253
 20
25.3408136509
 30
0.0
 11
-59.7849250485
 21
25.5307549979
 31
0.0
 11
-59.8905803447
 21
25.5369126064
 31
0.0
 11
-60.0033106335
 21
25.5263217565
 31
0.0
 11
-60.1169462571
 21
25.499561978
 31
0.0
 11
-60.2252679169
 21
25.4580977386
 31
0.0
 11
-60.322347067
 21
25.4041983232
 31
0.0
 11
-60.4028704253
 21
25.3408136509
 31
0.0
  0
SPLINE
  5
3C1
100
AcDbEntity
  8
RACCORDO
100
AcDbSpline
 62
253
  6
CONTINUOUS
 70
0
 71
3
 72
10
 73
6
 74
4
 42
0.0000001
 43
0.0000001
 44
0.0000000001
 12
-0.2021206714
 22
-0.1492400541
 32
0.0
 13
-0.1829971984
 23
-0.1721551188
 33
0.0
 40
0.0
 40
0.0
 40
0.0
 40
0.0
 40
0.2903683559
 40
0.6280179888
 40
1.0
 40
1.0
 40
1.0
 40
1.0
 10
-60.5536979005
 20
26.9955078937
 30
0.0
 10
-60.5732610495
 20
26.9810630306
 30
0.0
 10
-60.6145663311
 20
26.9484582629
 30
0.0
 10
-60.6781583067
 20
26.8939401803
 30
0.0
 10
-60.7220066487
 20
26.8538061564
 30
0.0
 10
-60.744697204
 20
26.832459954
 30
0.0
 11
-60.5536979005
 21
26.9955078937
 31
0.0
 11
-60.6111640779
 21
26.9505637476
 31
0.0
 11
-60.6756855889
 21
26.8954844882
 31
0.0
 11
-60.744697204
 21
26.832459954
 31
0.0
  0
SPLINE
  5
3C2
100
AcDbEntity
  8
RACCORDO
100
AcDbSpline
 62
253
  6
CONTINUOUS
 70
0
 71
3
 72
10
 73
6
 74
4
 42
0.0000001
 43
0.0000001
 44
0.0000000001
 12
-0.1128805158
 22
0.271907782
 32
0.0
 13
-0.2240059506
 23
0.1910423692
 33
0.0
 40
0.0
 40
0.0
 40
0.0
 40
0.0
 40
0.3263189852
 40
0.6614039251
 40
1.0
 40
1.0
 40
1.0
 40
1.0
 10
29.5868155117
 20
8.995109807
 30
0.0
 10
29.5745371599
 20
9.0246860308
 30
0.0
 10
29.5444330088
 20
9.0825826594
 30
0.0
 10
29.4858499752
 20
9.1617457564
 30
0.0
 10
29.4387239452
 20
9.208546527
 30
0.0
 10
29.4134414333
 20
9.2301085925
 30
0.0
 11
29.5868155117
 21
8.995109807
 31
0.0
 11
29.5427281666
 21
9.0804673166
 31
0.0
 11
29.4841606388
 21
9.1598523
 31
0.0
 11
29.4134414333
 21
9.2301085925
 31
0.0
  0
LINE
  5
3C3
100
AcDbEntity
  8
0
100
AcDbLine
 62
7
  6
CONTINUOUS
 10
-60.6067628526
 20
-32.1865505486
 11
-60.6169004012
 21
-31.9926214181
  0
SPLINE
  5
3C4
100
AcDbEntity
  8
RACCORDO
100
AcDbSpline
 62
253
  6
CONTINUOUS
 70
0
 71
3
 72
13
 73
9
 74
7
 42
0.0000001
 43
0.0000001
 44
0.0000000001
 12
0.6266088927
 22
-0.0831469324
 32
0.0
 13
0.6103691334
 23
-0.164321751
 33
0.0
 40
0.0
 40
0.0
 40
0.0
 40
0.0
 40
0.1288675371
 40
0.2849648664
 40
0.4598377043
 40
0.6439774806
 40
0.8273591885
 40
1.0
 40
1.0
 40
1.0
 40
1.0
 10
-60.4028702565
 20
-27.2374578207
 30
0.0
 10
-60.3759537416
 20
-27.2410294675
 30
0.0
 10
-60.3166225292
 20
-27.2503383742
 30
0.0
 10
-60.2213183446
 20
-27.2678143783
 30
0.0
 10
-60.1149696958
 20
-27.2895182275
 30
0.0
 10
-60.0033957641
 20
-27.3142761875
 30
0.0
 10
-59.8926994272
 20
-27.3407466938
 30
0.0
 10
-59.8200497539
 20
-27.3594540651
 30
0.0
 10
-59.7849248797
 20
-27.3689102786
 30
0.0
 11
-60.4028702565
 21
-27.2374578207
 31
0.0
 11
-60.3223472357
 21
-27.2497599362
 31
0.0
 11
-60.2252684319
 21
-27.2674048517
 31
0.0
 11
-60.1169469731
 21
-27.2894268599
 31
0.0
 11
-60.0033112965
 21
-27.3146206947
 31
0.0
 11
-59.8905806838
 21
-27.3416074969
 31
0.0
 11
-59.7849248797
 21
-27.3689102786
 31
0.0
  0
SPLINE
  5
3C5
100
AcDbEntity
  8
RACCORDO
100
AcDbSpline
 62
253
  6
CONTINUOUS
 70
0
 71
3
 72
10
 73
6
 74
4
 42
0.0000001
 43
0.0000001
 44
0.0000000001
 12
0.2138216808
 22
-0.2036392039
 32
0.0
 13
0.1659813805
 23
-0.2442106015
 33
0.0
 40
0.0
 40
0.0
 40
0.0
 40
0.0
 40
0.3343341565
 40
0.6715979274
 40
1.0
 40
1.0
 40
1.0
 40
1.0
 10
-60.7446973988
 20
-28.779713488
 30
0.0
 10
-60.7208681017
 20
-28.8024080018
 30
0.0
 10
-60.6746566185
 20
-28.8497651373
 30
0.0
 10
-60.6108219384
 20
-28.9247705047
 30
0.0
 10
-60.5718682012
 20
-28.9775383857
 30
0.0
 10
-60.5536986581
 20
-29.0042714749
 30
0.0
 11
-60.7446973988
 21
-28.779713488
 31
0.0
 11
-60.6756859918
 21
-28.8503060721
 31
0.0
 11
-60.6111646741
 21
-28.9261640475
 31
0.0
 11
-60.5536986581
 21
-29.0042714749
 31
0.0
  0
SPLINE
  5
3C6
100
AcDbEntity
  8
RACCORDO
100
AcDbSpline
 62
253
  6
CONTINUOUS
 70
0
 71
3
 72
10
 73
6
 74
4
 42
0.0000001
 43
0.0000001
 44
0.0000000001
 12
0.2030782153
 22
-0.0258726185
 32
0.0
 13
0.2022420797
 23
-0.0324567169
 33
0.0
 40
0.0
 40
0.0
 40
0.0
 40
0.0
 40
0.468878197
 40
0.8490806666
 40
1.0
 40
1.0
 40
1.0
 40
1.0
 10
29.2450514878
 20
-44.9492527246
 30
0.0
 10
29.276791137
 20
-44.9532964268
 30
0.0
 10
29.3341764041
 20
-44.9614247413
 30
0.0
 10
29.4020387973
 20
-44.9684347751
 30
0.0
 10
29.4376252143
 20
-44.9761987867
 30
0.0
 10
29.4477992942
 20
-44.9778315687
 30
0.0
 11
29.2450514878
 21
-44.9492527246
 31
0.0
 11
29.3402413466
 21
-44.9616100093
 31
0.0
 11
29.4173644283
 21
-44.9721127337
 31
0.0
 11
29.4477992942
 21
-44.9778315687
 31
0.0
  0
SPLINE
  5
3C7
100
AcDbEntity
  8
RACCORDO
100
AcDbSpline
 62
253
  6
CONTINUOUS
 70
0
 71
3
 72
11
 73
7
 74
5
 42
0.0000001
 43
0.0000001
 44
0.0000000001
 12
0.0583124028
 22
-0.0093582362
 32
0.0
 13
0.0139382459
 23
-0.0254104142
 33
0.0
 40
0.0
 40
0.0
 40
0.0
 40
0.0
 40
0.4155781004
 40
0.9238326153
 40
0.9804161531
 40
1.0
 40
1.0
 40
1.0
 40
1.0
 10
29.4477992942
 20
-44.9778315687
 30
0.0
 10
29.4558770801
 20
-44.9791279281
 30
0.0
 10
29.4739211069
 20
-44.9812062615
 30
0.0
 10
29.4935355716
 20
-44.9791549965
 30
0.0
 10
29.5041721963
 20
-44.9871050194
 30
0.0
 10
29.5047251304
 20
-44.9878256574
 30
0.0
 10
29.5048161186
 20
-44.9879915353
 30
0.0
 11
29.4477992942
 21
-44.9778315687
 31
0.0
 11
29.4721996944
 21
-44.9801860709
 31
0.0
 11
29.5017458592
 21
-44.985388146
 31
0.0
 11
29.5043857037
 21
-44.9874342262
 31
0.0
 11
29.5048161186
 21
-44.9879915353
 31
0.0
  0
SPLINE
  5
3C8
100
AcDbEntity
  8
RACCORDO
100
AcDbSpline
 62
253
  6
CONTINUOUS
 70
0
 71
3
 72
10
 73
6
 74
4
 42
0.0000001
 43
0.0000001
 44
0.0000000001
 12
0.1902483593
 22
0.1321511122
 32
0.0
 13
0.1433600271
 23
0.1819512498
 33
0.0
 40
0.0
 40
0.0
 40
0.0
 40
0.0
 40
0.3809868659
 40
0.7178170632
 40
1.0
 40
1.0
 40
1.0
 40
1.0
 10
29.4134409791
 20
-46.7696706399
 30
0.0
 10
29.4376016879
 20
-46.7528880272
 30
0.0
 10
29.4821795148
 20
-46.7198514395
 30
0.0
 10
29.540515996
 20
-46.6691603311
 30
0.0
 10
29.573330597
 20
-46.6341782706
 30
0.0
 10
29.5868151815
 20
-46.6170637579
 30
0.0
 11
29.4134409791
 21
-46.7696706399
 31
0.0
 11
29.484160311
 21
-46.7168753796
 31
0.0
 11
29.5427278831
 21
-46.6653232149
 31
0.0
 11
29.5868151815
 21
-46.6170637579
 31
0.0
  0
SPLINE
  5
3C9
100
AcDbEntity
  8
RACCORDO
100
AcDbSpline
 62
7
  6
CONTINUOUS
 70
0
 71
3
 72
15
 73
11
 74
9
 42
0.0000001
 43
0.0000001
 44
0.0000000001
 12
1.2614078039
 22
-0.2490844241
 32
0.0
 13
1.2617355662
 23
-0.249233865
 33
0.0
 40
0.0
 40
0.0
 40
0.0
 40
0.0
 40
0.1145735851
 40
0.2415485127
 40
0.3764986341
 40
0.5154117296
 40
0.6556117106
 40
0.7890426822
 40
0.9100837287
 40
1.0
 40
1.0
 40
1.0
 40
1.0
 10
6.2960136148
 20
-49.5015210839
 30
0.0
 10
6.3441882863
 20
-49.5110339157
 30
0.0
 10
6.4453552491
 20
-49.5331211549
 30
0.0
 10
6.6018828328
 20
-49.5724002581
 30
0.0
 10
6.7675166394
 20
-49.6180327695
 30
0.0
 10
6.9379388837
 20
-49.6675282547
 30
0.0
 10
7.1075511032
 20
-49.7174693645
 30
0.0
 10
7.2701915022
 20
-49.7639588074
 30
0.0
 10
7.4129595809
 20
-49.8015244218
 30
0.0
 10
7.5011687103
 20
-49.8214315946
 30
0.0
 10
7.5389855628
 20
-49.8289016545
 30
0.0
 11
6.2960136148
 21
-49.5015210839
 31
0.0
 11
6.4399937828
 21
-49.5326875352
 31
0.0
 11
6.5984116501
 21
-49.5721539412
 31
0.0
 11
6.7657704343
 21
-49.6179602123
 31
0.0
 11
6.9373782569
 21
-49.6674795379
 31
0.0
 11
7.1104025387
 21
-49.7180543426
 31
0.0
 11
7.2754697639
 21
-49.7648086293
 31
0.0
 11
7.4261112827
 21
-49.8038976491
 31
0.0
 11
7.5389855628
 21
-49.8289016545
 31
0.0
  0
SPLINE
  5
3CA
100
AcDbEntity
  8
0
100
AcDbSpline
 62
7
  6
CONTINUOUS
 70
0
 71
3
 72
9
 73
5
 74
3
 42
0.0000001
 43
0.0000001
 44
0.0000000001
 12
-0.0367609553
 22
0.7163519386
 32
0.0
 13
-0.0358443545
 23
0.7163983939
 33
0.0
 40
0.0
 40
0.0
 40
0.0
 40
0.0
 40
0.5418017118
 40
1.0
 40
1.0
 40
1.0
 40
1.0
 10
-62.0377402587
 20
-31.2800288665
 30
0.0
 10
-62.0443793082
 20
-31.1506552976
 30
0.0
 10
-62.0565500841
 20
-30.911867058
 30
0.0
 10
-62.0685681099
 20
-30.673071086
 30
0.0
 10
-62.0740427172
 20
-30.5636535801
 30
0.0
 11
-62.0377402587
 21
-31.2800288665
 31
0.0
 11
-62.057522763
 21
-30.8919012738
 31
0.0
 11
-62.0740427172
 21
-30.5636535801
 31
0.0
  0
LINE
  5
3CB
100
AcDbEntity
  8
0
100
AcDbLine
 62
7
  6
CONTINUOUS
 10
-60.7689861083
 20
-30.7618711863
 11
-60.7810541067
 21
-30.519102003
  0
SPLINE
  5
3CC
100
AcDbEntity
  8
RACCORDO
100
AcDbSpline
 62
253
  6
CONTINUOUS
 70
0
 71
3
 72
10
 73
6
 74
4
 42
0.0000001
 43
0.0000001
 44
0.0000000001
 12
0.1538762191
 22
0.3647612588
 32
0.0
 13
0.1854837712
 23
0.3497491062
 33
0.0
 40
0.0
 40
0.0
 40
0.0
 40
0.0
 40
0.2990228958
 40
0.6321087507
 40
1.0
 40
1.0
 40
1.0
 40
1.0
 10
29.586815379
 20
8.9951097859
 30
0.0
 10
29.6021528832
 20
9.0314671085
 30
0.0
 10
29.6360229166
 20
9.1077157814
 30
0.0
 10
29.6931500379
 20
9.22669033
 30
0.0
 10
29.7355297478
 20
9.3089295163
 30
0.0
 10
29.7582756999
 20
9.3518193948
 30
0.0
 11
29.586815379
 21
8.9951097859
 31
0.0
 11
29.6346991227
 21
9.1033733189
 31
0.0
 11
29.6916889043
 21
9.2222876272
 31
0.0
 11
29.7582756999
 21
9.3518193948
 31
0.0
  0
SPLINE
  5
3CD
100
AcDbEntity
  8
RACCORDO
100
AcDbSpline
 62
253
  6
CONTINUOUS
 70
0
 71
3
 72
10
 73
6
 74
4
 42
0.0000001
 43
0.0000001
 44
0.0000000001
 12
0.1429918965
 22
-0.4433679254
 32
0.0
 13
0.1975897224
 23
-0.4218768793
 33
0.0
 40
0.0
 40
0.0
 40
0.0
 40
0.0
 40
0.3137207093
 40
0.6473296326
 40
1.0
 40
1.0
 40
1.0
 40
1.0
 10
29.5868150302
 20
-46.6170638064
 30
0.0
 10
29.6017682033
 20
-46.6634283731
 30
0.0
 10
29.6348041096
 20
-46.7584038064
 30
0.0
 10
29.6918139058
 20
-46.9028873376
 30
0.0
 10
29.7350475567
 20
-47.0003342363
 30
0.0
 10
29.75827557
 20
-47.0499287277
 30
0.0
 11
29.5868150302
 21
-46.6170638064
 31
0.0
 11
29.6346976781
 21
-46.7551459772
 31
0.0
 11
29.6916981974
 21
-46.89972939
 31
0.0
 11
29.75827557
 21
-47.0499287277
 31
0.0
  0
SPLINE
  5
3CE
100
AcDbEntity
  8
RACCORDO
100
AcDbSpline
 62
253
  6
CONTINUOUS
 70
0
 71
3
 72
10
 73
6
 74
4
 42
0.0000001
 43
0.0000001
 44
0.0000000001
 12
0.3244648515
 22
-0.3042684117
 32
0.0
 13
0.3620689815
 23
-0.2583849044
 33
0.0
 40
0.0
 40
0.0
 40
0.0
 40
0.0
 40
0.3066309576
 40
0.6397801093
 40
1.0
 40
1.0
 40
1.0
 40
1.0
 10
29.4133183815
 20
-46.769558016
 30
0.0
 10
29.4464820375
 20
-46.8006573875
 30
0.0
 10
29.5173345332
 20
-46.8637952761
 30
0.0
 10
29.6323766169
 20
-46.9573967877
 30
0.0
 10
29.7148007524
 20
-47.0189036013
 30
0.0
 10
29.7582755687
 20
-47.0499287287
 30
0.0
 11
29.4133183815
 21
-46.769558016
 31
0.0
 11
29.5150292654
 21
-46.8604309328
 31
0.0
 11
29.6298758566
 21
-46.9540794847
 31
0.0
 11
29.7582755687
 21
-47.0499287287
 31
0.0
  0
SPLINE
  5
3CF
100
AcDbEntity
  8
RACCORDO
100
AcDbSpline
 62
253
  6
CONTINUOUS
 70
0
 71
3
 72
15
 73
11
 74
9
 42
0.0000001
 43
0.0000001
 44
0.0000000001
 12
-0.1537949419
 22
-1.5797341541
 32
0.0
 13
-0.7566861705
 23
-1.3952200261
 33
0.0
 40
0.0
 40
0.0
 40
0.0
 40
0.0
 40
0.1745364896
 40
0.3337130049
 40
0.4780329038
 40
0.6082409556
 40
0.7252817341
 40
0.8296762591
 40
0.9213401288
 40
1.0
 40
1.0
 40
1.0
 40
1.0
 10
-60.4028702565
 20
-27.2374578207
 30
0.0
 10
-60.4118178662
 20
-27.3293649053
 30
0.0
 10
-60.4312621891
 20
-27.5048750705
 30
0.0
 10
-60.4662298761
 20
-27.7553921237
 30
0.0
 10
-60.5047930088
 20
-27.9816260657
 30
0.0
 10
-60.5464034194
 20
-28.1846152453
 30
0.0
 10
-60.5907493022
 20
-28.3653497434
 30
0.0
 10
-60.6377345594
 20
-28.5242821645
 30
0.0
 10
-60.6871798794
 20
-28.6610531433
 30
0.0
 10
-60.7248571341
 20
-28.7431309448
 30
0.0
 10
-60.744697413
 20
-28.779713554
 30
0.0
 11
-60.4028702565
 21
-27.2374578207
 31
0.0
 11
-60.4335157132
 21
-27.5127823625
 31
0.0
 11
-60.4686328845
 21
-27.7629752715
 31
0.0
 11
-60.5073641223
 21
-27.9887420641
 31
0.0
 11
-60.5491634104
 21
-28.1911374674
 31
0.0
 11
-60.593826024
 21
-28.3714560715
 31
0.0
 11
-60.6413081627
 21
-28.5302023307
 31
0.0
 11
-60.6915540429
 21
-28.6667396727
 31
0.0
 11
-60.744697413
 21
-28.779713554
 31
0.0
  0
SPLINE
  5
3D0
100
AcDbEntity
  8
RACCORDO
100
AcDbSpline
 62
253
  6
CONTINUOUS
 70
0
 71
3
 72
14
 73
10
 74
8
 42
0.0000001
 43
0.0000001
 44
0.0000000001
 12
-0.161580983
 22
1.5280349573
 32
0.0
 13
-0.6880696168
 23
1.3738848013
 33
0.0
 40
0.0
 40
0.0
 40
0.0
 40
0.0
 40
0.1884393441
 40
0.3608447119
 40
0.5172170729
 40
0.6589735462
 40
0.7867899509
 40
0.9005804997
 40
1.0
 40
1.0
 40
1.0
 40
1.0
 10
-60.4028704253
 20
25.3408136509
 30
0.0
 10
-60.4130198301
 20
25.436794286
 30
0.0
 10
-60.4353380294
 20
25.6203001938
 30
0.0
 10
-60.47593537
 20
25.8821289454
 30
0.0
 10
-60.5210808874
 20
26.1189176645
 30
0.0
 10
-60.5701272695
 20
26.3315548824
 30
0.0
 10
-60.6228234535
 20
26.5207973204
 30
0.0
 10
-60.6790561444
 20
26.6862579055
 30
0.0
 10
-60.7218947078
 20
26.7869295898
 30
0.0
 10
-60.7446972203
 20
26.8324599033
 30
0.0
 11
-60.4028704253
 21
25.3408136509
 31
0.0
 11
-60.437967407
 21
25.6282259617
 31
0.0
 11
-60.4787717264
 21
25.889974754
 31
0.0
 11
-60.5240581395
 21
26.1259430542
 31
0.0
 11
-60.5733955204
 21
26.3380983304
 31
0.0
 11
-60.626606515
 21
26.5271494169
 31
0.0
 11
-60.6836138957
 21
26.6924402488
 31
0.0
 11
-60.7446972203
 21
26.8324599033
 31
0.0
  0
SPLINE
  5
3D1
100
AcDbEntity
  8
RACCORDO
100
AcDbSpline
 62
253
  6
CONTINUOUS
 70
0
 71
3
 72
10
 73
6
 74
4
 42
0.0000001
 43
0.0000001
 44
0.0000000001
 12
-0.2074820081
 22
0.4150483704
 32
0.0
 13
-0.158550345
 23
0.4360914142
 33
0.0
 40
0.0
 40
0.0
 40
0.0
 40
0.0
 40
0.3099138317
 40
0.6434111057
 40
1.0
 40
1.0
 40
1.0
 40
1.0
 10
-60.7446972203
 20
26.8324599033
 30
0.0
 10
-60.7661310683
 20
26.8753363136
 30
0.0
 10
-60.808766621
 20
26.9652937989
 30
0.0
 10
-60.8696078182
 20
27.1075320918
 30
0.0
 10
-60.9079977673
 20
27.2071595199
 30
0.0
 10
-60.9268435314
 20
27.2589946383
 30
0.0
 11
-60.7446972203
 21
26.8324599033
 31
0.0
 11
-60.806394237
 21
26.9623585012
 31
0.0
 11
-60.8673631198
 21
27.1045910712
 31
0.0
 11
-60.9268435314
 21
27.2589946383
 31
0.0
  0
SPLINE
  5
3D2
100
AcDbEntity
  8
RACCORDO
100
AcDbSpline
 62
253
  6
CONTINUOUS
 70
0
 71
3
 72
10
 73
6
 74
4
 42
0.0000001
 43
0.0000001
 44
0.0000000001
 12
-0.3861489233
 22
0.2444396469
 32
0.0
 13
-0.3601870987
 23
0.2812951935
 33
0.0
 40
0.0
 40
0.0
 40
0.0
 40
0.0
 40
0.3164437746
 40
0.6501621009
 40
1.0
 40
1.0
 40
1.0
 40
1.0
 10
-60.553650682
 20
26.995479678
 30
0.0
 10
-60.5943821563
 20
27.0212634795
 30
0.0
 10
-60.6771542188
 20
27.0756946635
 30
0.0
 10
-60.801720692
 20
27.1634287344
 30
0.0
 10
-60.8848411723
 20
27.2261920621
 30
0.0
 10
-60.9268435383
 20
27.2589946353
 30
0.0
 11
-60.553650682
 21
26.995479678
 31
0.0
 11
-60.6745324628
 21
27.0748667792
 31
0.0
 11
-60.7992294334
 21
27.162680004
 31
0.0
 11
-60.9268435383
 21
27.2589946353
 31
0.0
  0
SPLINE
  5
3D3
100
AcDbEntity
  8
RACCORDO
100
AcDbSpline
 62
253
  6
CONTINUOUS
 70
0
 71
3
 72
12
 73
8
 74
6
 42
0.0000001
 43
0.0000001
 44
0.0000000001
 12
0.0282461488
 22
-0.9004495114
 32
0.0
 13
0.2768923279
 23
-0.8572354146
 33
0.0
 40
0.0
 40
0.0
 40
0.0
 40
0.0
 40
0.1324753629
 40
0.390570363
 40
0.6213912875
 40
0.8247782535
 40
1.0
 40
1.0
 40
1.0
 40
1.0
 10
29.4706638527
 20
-45.7261247694
 30
0.0
 10
29.471911159
 20
-45.765887228
 30
0.0
 10
29.4765681191
 20
-45.8830854479
 30
0.0
 10
29.4890270951
 20
-46.069309463
 30
0.0
 10
29.5121920611
 20
-46.2759990338
 30
0.0
 10
29.5429137006
 20
-46.4564944269
 30
0.0
 10
29.5706425111
 20
-46.5669950443
 30
0.0
 10
29.5868150302
 20
-46.6170638064
 30
0.0
 11
29.4706638527
 21
-45.7261247694
 31
0.0
 11
29.4754354543
 21
-45.845373735
 31
0.0
 11
29.4914010908
 21
-46.07732854
 31
0.0
 11
29.5151897934
 21
-46.2838971851
 31
0.0
 11
29.5468277025
 21
-46.4643650982
 31
0.0
 11
29.5868150302
 21
-46.6170638064
 31
0.0
  0
LINE
  5
3D4
100
AcDbEntity
  8
0
100
AcDbLine
 62
7
  6
CONTINUOUS
 10
-60.6821046593
 20
-32.2311827535
 11
-60.6922378256
 21
-32.037251027
  0
SPLINE
  5
3D5
100
AcDbEntity
  8
0
100
AcDbSpline
 62
7
  6
CONTINUOUS
 70
0
 71
3
 72
10
 73
6
 74
4
 42
0.0000001
 43
0.0000001
 44
0.0000000001
 12
-0.0398265856
 22
0.7764368652
 32
0.0
 13
-0.0387504025
 23
0.7764913192
 33
0.0
 40
0.0
 40
0.0
 40
0.0
 40
0.0
 40
0.3332272593
 40
0.6665606425
 40
1.0
 40
1.0
 40
1.0
 40
1.0
 10
-62.1130679286
 20
-31.3246526968
 30
0.0
 10
-62.1174916965
 20
-31.2384093873
 30
0.0
 10
-62.1263007462
 20
-31.0658932529
 30
0.0
 10
-62.1393968098
 20
-30.8070718131
 30
0.0
 10
-62.1480492027
 20
-30.634492716
 30
0.0
 10
-62.1523561725
 20
-30.5481884605
 30
0.0
 11
-62.1130679286
 21
-31.3246526968
 31
0.0
 11
-62.1262794178
 21
-31.065919707
 31
0.0
 11
-62.139375502
 21
-30.8070982378
 31
0.0
 11
-62.1523561725
 21
-30.5481884605
 31
0.0
  0
LINE
  5
3D6
100
AcDbEntity
  8
0
100
AcDbLine
 62
7
  6
CONTINUOUS
 10
-60.8442967968
 20
-30.8064849568
 11
-60.8563595828
 21
-30.5637126858
  0
SPLINE
  5
3D7
100
AcDbEntity
  8
RACCORDO
100
AcDbSpline
 62
253
  6
CONTINUOUS
 70
0
 71
3
 72
17
 73
13
 74
11
 42
0.0000001
 43
0.0000001
 44
0.0000000001
 12
0.0234185387
 22
0.7919982546
 32
0.0
 13
0.3079843268
 23
0.730027749
 33
0.0
 40
0.0
 40
0.0
 40
0.0
 40
0.0
 40
0.0915662441
 40
0.1968564452
 40
0.2993199919
 40
0.4014084443
 40
0.5024344856
 40
0.6016414159
 40
0.6999614171
 40
0.7986273423
 40
0.8985270905
 40
1.0
 40
1.0
 40
1.0
 40
1.0
 10
29.4695242164
 20
8.2151198716
 30
0.0
 10
29.4702389989
 20
8.2392933068
 30
0.0
 10
29.4721108162
 20
8.2912533922
 30
0.0
 10
29.4761480858
 20
8.3702079556
 30
0.0
 10
29.4817819522
 20
8.4518514604
 30
0.0
 10
29.4889373077
 20
8.5322464613
 30
0.0
 10
29.497826987
 20
8.6116046368
 30
0.0
 10
29.5086812689
 20
8.6897164502
 30
0.0
 10
29.5218989844
 20
8.7668348504
 30
0.0
 10
29.5382033713
 20
8.8435620425
 30
0.0
 10
29.5587355583
 20
8.9201371162
 30
0.0
 10
29.5763980238
 20
8.970417106
 30
0.0
 10
29.586815379
 20
8.9951097859
 30
0.0
 11
29.4695242164
 21
8.2151198716
 31
0.0
 11
29.4721498178
 21
8.2876237537
 31
0.0
 11
29.4764367373
 21
8.3709386547
 31
0.0
 11
29.482057349
 21
8.4519293199
 31
0.0
 11
29.4892694839
 21
8.5324954161
 31
0.0
 11
29.4982348125
 21
8.6120382416
 31
0.0
 11
29.5091255305
 21
8.6898852627
 31
0.0
 11
29.5223886478
 21
8.7666503022
 31
0.0
 11
29.5387981433
 21
8.843085172
 31
0.0
 11
29.559583341
 21
8.9194614965
 31
0.0
 11
29.586815379
 21
8.9951097859
 31
0.0
  0
SPLINE
  5
3D8
100
AcDbEntity
  8
RACCORDO
100
AcDbSpline
 62
7
  6
CONTINUOUS
 70
0
 71
3
 72
10
 73
6
 74
4
 42
0.0000001
 43
0.0000001
 44
0.0000000001
 12
0.022613375
 22
-0.1289864631
 32
0.0
 13
0.1368594724
 23
-0.0270650238
 33
0.0
 40
0.0
 40
0.0
 40
0.0
 40
0.0
 40
0.1222494239
 40
0.4581883397
 40
1.0
 40
1.0
 40
1.0
 40
1.0
 10
7.8825257998
 20
-51.5701720578
 30
0.0
 10
7.8834472905
 20
-51.5754282314
 30
0.0
 10
7.897420773
 20
-51.5971490765
 30
0.0
 10
7.9433624319
 20
-51.6079076811
 30
0.0
 10
7.9822739354
 20
-51.6196175753
 30
0.0
 10
8.006991288
 20
-51.6245056238
 30
0.0
 11
7.8825257998
 21
-51.5701720578
 31
0.0
 11
7.8914075889
 21
-51.5858235857
 31
0.0
 11
7.933697201
 21
-51.6060247779
 31
0.0
 11
8.006991288
 21
-51.6245056238
 31
0.0
  0
SPLINE
  5
3D9
100
AcDbEntity
  8
RACCORDO
100
AcDbSpline
 62
7
  6
CONTINUOUS
 70
0
 71
3
 72
13
 73
9
 74
7
 42
0.0000001
 43
0.0000001
 44
0.0000000001
 12
-2.6723632012
 22
56.9834911524
 32
0.0
 13
2.5292594863
 23
56.9900222447
 33
0.0
 40
0.0
 40
0.0
 40
0.0
 40
0.0
 40
0.1626804035
 40
0.327088903
 40
0.4931265443
 40
0.6606931859
 40
0.8296863534
 40
1.0
 40
1.0
 40
1.0
 40
1.0
 10
41.8106196792
 20
-49.7705785153
 30
0.0
 10
41.6657059712
 20
-46.6805460704
 30
0.0
 10
41.4246783006
 20
-40.4651876632
 30
0.0
 10
41.2090853507
 20
-31.0903201879
 30
0.0
 10
41.1376409645
 20
-21.6203169735
 30
0.0
 10
41.2104073331
 20
-12.0631535454
 30
0.0
 10
41.4273231121
 20
-2.4268722615
 30
0.0
 10
41.6670305437
 20
4.020987739
 30
0.0
 10
41.8106196792
 20
7.2563805744
 30
0.0
 11
41.8106196792
 21
-49.7705785153
 31
0.0
 11
41.4501998771
 21
-40.4972941992
 31
0.0
 11
41.2338249941
 21
-31.1209235052
 31
0.0
 11
41.1616799467
 21
-21.6493950798
 31
0.0
 11
41.2338249941
 21
-12.0906406149
 31
0.0
 11
41.4501998771
 21
-2.4526646577
 31
0.0
 11
41.8106196792
 21
7.2563805744
 31
0.0
  0
SPLINE
  5
3DA
100
AcDbEntity
  8
RACCORDO
100
AcDbSpline
 62
253
  6
CONTINUOUS
 70
0
 71
3
 72
10
 73
6
 74
4
 42
0.0000001
 43
0.0000001
 44
0.0000000001
 12
-0.5474254994
 22
0.108184904
 32
0.0
 13
-0.4437020005
 23
0.3382219723
 33
0.0
 40
0.0
 40
0.0
 40
0.0
 40
0.0
 40
0.0333937038
 40
0.6030632677
 40
1.0
 40
1.0
 40
1.0
 40
1.0
 10
43.66350787
 20
-58.6654303962
 30
0.0
 10
43.6574143483
 20
-58.6642261646
 30
0.0
 10
43.5475551562
 20
-58.641555065
 30
0.0
 10
43.3713940751
 20
-58.5761975226
 30
0.0
 10
43.2200954307
 20
-58.4782210443
 30
0.0
 10
43.1613882233
 20
-58.4334701362
 30
0.0
 11
43.66350787
 21
-58.6654303962
 31
0.0
 11
43.6452588883
 21
-58.6616640702
 31
0.0
 11
43.3475575831
 21
-58.5528204108
 31
0.0
 11
43.1613882233
 21
-58.4334701362
 31
0.0
  0
SPLINE
  5
3DB
100
AcDbEntity
  8
RACCORDO
100
AcDbSpline
 62
253
  6
CONTINUOUS
 70
0
 71
3
 72
13
 73
9
 74
7
 42
0.0000001
 43
0.0000001
 44
0.0000000001
 12
-2.1410326015
 22
1.9079833273
 32
0.0
 13
-0.1683714247
 23
2.8566494237
 33
0.0
 40
0.0
 40
0.0
 40
0.0
 40
0.0
 40
0.1288346124
 40
0.272184879
 40
0.4313999935
 40
0.6065268983
 40
0.7966002545
 40
1.0
 40
1.0
 40
1.0
 40
1.0
 10
43.0725259546
 20
-58.3601066736
 30
0.0
 10
42.9805795861
 20
-58.2781685761
 30
0.0
 10
42.8071638787
 20
-58.0826132483
 30
0.0
 10
42.5929594132
 20
-57.7291837705
 30
0.0
 10
42.4151307719
 20
-57.3082632542
 30
0.0
 10
42.2760900661
 20
-56.8267353887
 30
0.0
 10
42.1779595723
 20
-56.292568379
 30
0.0
 10
42.1419833135
 20
-55.9184972114
 30
0.0
 10
42.1305677452
 20
-55.7248166229
 30
0.0
 11
43.0725259546
 21
-58.3601066736
 31
0.0
 11
42.8249856935
 21
-58.0868954684
 31
0.0
 11
42.6092766809
 21
-57.7379776908
 31
0.0
 11
42.4291767802
 21
-57.3194738155
 31
0.0
 11
42.2878253875
 21
-56.8386771041
 31
0.0
 11
42.1877105064
 21
-56.3040549807
 31
0.0
 11
42.1305677452
 21
-55.7248166229
 31
0.0
  0
SPLINE
  5
3DC
100
AcDbEntity
  8
RACCORDO
100
AcDbSpline
 62
7
  6
CONTINUOUS
 70
0
 71
3
 72
13
 73
9
 74
7
 42
0.0000001
 43
0.0000001
 44
0.0000000001
 12
-2.6074891938
 22
-56.9876915772
 32
0.0
 13
2.7534790575
 23
-56.9808243559
 33
0.0
 40
0.0
 40
0.0
 40
0.0
 40
0.0
 40
0.170279121
 40
0.3392484221
 40
0.5068041897
 40
0.6728463217
 40
0.8372770907
 40
1.0
 40
1.0
 40
1.0
 40
1.0
 10
-73.0503977405
 20
29.9374598295
 30
0.0
 10
-73.1983980632
 20
26.7028551523
 30
0.0
 10
-73.4454689118
 20
20.2562322554
 30
0.0
 10
-73.6690393714
 20
10.621197838
 30
0.0
 10
-73.7440336528
 20
1.0644042215
 30
0.0
 10
-73.6703882555
 20
-8.4061056469
 30
0.0
 10
-73.4481672015
 20
-17.782354498
 30
0.0
 10
-73.1997491148
 20
-23.9988040888
 30
0.0
 10
-73.0503977405
 20
-27.0894992602
 30
0.0
 11
-73.0503977405
 21
29.9374598295
 31
0.0
 11
-73.4218805271
 21
20.2305991545
 31
0.0
 11
-73.6448969764
 21
10.593934677
 31
0.0
 11
-73.7192564957
 21
1.0356174937
 31
0.0
 11
-73.6448969764
 21
-8.4363482133
 31
0.0
 11
-73.4218805272
 21
-17.8140303869
 31
0.0
 11
-73.0503977405
 21
-27.0894992602
 31
0.0
  0
SPLINE
  5
3DD
100
AcDbEntity
  8
RACCORDO
100
AcDbSpline
 62
253
  6
CONTINUOUS
 70
0
 71
3
 72
18
 73
14
 74
12
 42
0.0000001
 43
0.0000001
 44
0.0000000001
 12
0.2470290844
 22
4.4583456808
 32
0.0
 13
3.8341576425
 23
2.2884721432
 33
0.0
 40
0.0
 40
0.0
 40
0.0
 40
0.0
 40
0.1015808372
 40
0.2049381935
 40
0.308613921
 40
0.4111971727
 40
0.5113282092
 40
0.6077123161
 40
0.6991757678
 40
0.784722081
 40
0.863601972
 40
0.9353748949
 40
1.0
 40
1.0
 40
1.0
 40
1.0
 10
44.1688415423
 20
13.6152093427
 30
0.0
 10
44.1772060161
 20
13.7661701716
 30
0.0
 10
44.204449368
 20
14.0702412465
 30
0.0
 10
44.2746945034
 20
14.5244702735
 30
0.0
 10
44.3736471356
 20
14.9748683903
 30
0.0
 10
44.4995782619
 20
15.4134901109
 30
0.0
 10
44.6502953831
 20
15.832735459
 30
0.0
 10
44.8231821857
 20
16.2253580375
 30
0.0
 10
45.0152494157
 20
16.584595329
 30
0.0
 10
45.2231970578
 20
16.9043089869
 30
0.0
 10
45.443585123
 20
17.1791139622
 30
0.0
 10
45.67266857
 20
17.4042958797
 30
0.0
 10
45.8373085814
 20
17.524902255
 30
0.0
 10
45.9199028616
 20
17.5741998393
 30
0.0
 11
44.1688415423
 21
13.6152093427
 31
0.0
 11
44.2089803811
 21
14.0670069745
 31
0.0
 11
44.2793682694
 21
14.5231173603
 31
0.0
 11
44.3787603118
 21
14.9752528853
 31
0.0
 11
44.5054082262
 21
15.415449384
 31
0.0
 11
44.6571039199
 21
15.8360322801
 31
0.0
 11
44.8311897031
 21
16.2296245516
 31
0.0
 11
45.0246105294
 21
16.5893187104
 31
0.0
 11
45.2339738346
 21
16.9088116827
 31
0.0
 11
45.4556295453
 21
17.1825321832
 31
0.0
 11
45.6856726941
 21
17.4056625111
 31
0.0
 11
45.9199028616
 21
17.5741998393
 31
0.0
  0
SPLINE
  5
3DE
100
AcDbEntity
  8
RACCORDO
100
AcDbSpline
 62
253
  6
CONTINUOUS
 70
0
 71
3
 72
15
 73
11
 74
9
 42
0.0000001
 43
0.0000001
 44
0.0000000001
 12
-2.741690924
 22
56.7368791428
 32
0.0
 13
2.5963260685
 23
56.7437169644
 33
0.0
 40
0.0
 40
0.0
 40
0.0
 40
0.0
 40
0.121898371
 40
0.2447550025
 40
0.3685314428
 40
0.4931950235
 40
0.6187100702
 40
0.7450402293
 40
0.8721508735
 40
1.0
 40
1.0
 40
1.0
 40
1.0
 10
43.8502395651
 20
-49.466136046
 30
0.0
 10
43.7388370127
 20
-47.1607583325
 30
0.0
 10
43.5440808168
 20
-42.5304330813
 30
0.0
 10
43.3362501355
 20
-35.5554583293
 30
0.0
 10
43.2116327749
 20
-28.5261276034
 30
0.0
 10
43.1702776926
 20
-21.4454841695
 30
0.0
 10
43.212199651
 20
-14.3164933422
 30
0.0
 10
43.3373839211
 20
-7.142138587
 30
0.0
 10
43.5457816912
 20
0.0744820927
 30
0.0
 10
43.7395935585
 20
4.8982102415
 30
0.0
 10
43.8502395651
 20
7.3164217904
 30
0.0
 11
43.8502395651
 21
-49.466136046
 31
0.0
 11
43.5589145784
 21
-42.5480639064
 31
0.0
 11
43.3507415794
 21
-35.572533973
 31
0.0
 11
43.2258080614
 21
-28.5427605379
 31
0.0
 11
43.1841582098
 21
-21.4616072119
 31
0.0
 11
43.2258080627
 21
-14.3320871595
 31
0.0
 11
43.350741582
 21
-7.1572321804
 31
0.0
 11
43.5589145811
 21
0.0600427718
 31
0.0
 11
43.8502395651
 21
7.3164217904
 31
0.0
  0
SPLINE
  5
3DF
100
AcDbEntity
  8
RACCORDO
100
AcDbSpline
 62
253
  6
CONTINUOUS
 70
0
 71
3
 72
18
 73
14
 74
12
 42
0.0000001
 43
0.0000001
 44
0.0000000001
 12
-2.766061841
 22
-1.5611859861
 32
0.0
 13
-0.187764487
 23
3.1706693755
 33
0.0
 40
0.0
 40
0.0
 40
0.0
 40
0.0
 40
0.0806236487
 40
0.1543637816
 40
0.2243386827
 40
0.2945028219
 40
0.3687804024
 40
0.4502458807
 40
0.5408161993
 40
0.6413490825
 40
0.7518823149
 40
0.8718143708
 40
1.0
 40
1.0
 40
1.0
 40
1.0
 10
45.9199028616
 20
-57.3204762674
 30
0.0
 10
45.8455661955
 20
-57.3624324376
 30
0.0
 10
45.6955792607
 20
-57.4306208494
 30
0.0
 10
45.4603852673
 20
-57.4779686484
 30
0.0
 10
45.2315105089
 20
-57.4620185651
 30
0.0
 10
45.0158500288
 20
-57.3822148233
 30
0.0
 10
44.8191856041
 20
-57.2419167064
 30
0.0
 10
44.6446233323
 20
-57.0458264319
 30
0.0
 10
44.4939637198
 20
-56.7982330404
 30
0.0
 10
44.3688973139
 20
-56.5034004064
 30
0.0
 10
44.2711222028
 20
-56.1661580094
 30
0.0
 10
44.2021488122
 20
-55.7922280007
 30
0.0
 10
44.1768644453
 20
-55.5304187738
 30
0.0
 10
44.1688415423
 20
-55.3949406909
 30
0.0
 11
45.9199028616
 21
-57.3204762674
 31
0.0
 11
45.6856593516
 21
-57.4239476126
 31
0.0
 11
45.4556158793
 21
-57.4679562049
 31
0.0
 11
45.2339600643
 21
-57.4516339524
 31
0.0
 11
45.0245969586
 21
-57.375264148
 31
0.0
 11
44.8311766993
 21
-57.2401793277
 31
0.0
 11
44.6570923972
 21
-57.0487437683
 31
0.0
 11
44.5053988689
 21
-56.8043178254
 31
0.0
 11
44.3787531046
 21
-56.511191742
 31
0.0
 11
44.2793631863
 21
-56.174475791
 31
0.0
 11
44.2089771928
 21
-55.8001039061
 31
0.0
 11
44.1688415423
 21
-55.3949406909
 31
0.0
  0
SPLINE
  5
3E0
100
AcDbEntity
  8
RACCORDO
100
AcDbSpline
 62
253
  6
CONTINUOUS
 70
0
 71
3
 72
12
 73
8
 74
6
 42
0.0000001
 43
0.0000001
 44
0.0000000001
 12
1.0812043758
 22
0.6105953821
 32
0.0
 13
0.0058226578
 23
1.2387481144
 33
0.0
 40
0.0
 40
0.0
 40
0.0
 40
0.0
 40
0.1704258252
 40
0.3668437569
 40
0.5695616113
 40
0.7804490737
 40
1.0
 40
1.0
 40
1.0
 40
1.0
 10
45.364811458
 20
-58.3663488508
 30
0.0
 10
45.426233174
 20
-58.3316617769
 30
0.0
 10
45.550447515
 20
-58.2428082411
 30
0.0
 10
45.7076654929
 20
-58.0650088265
 30
0.0
 10
45.8286580639
 20
-57.8417596007
 30
0.0
 10
45.9029468662
 20
-57.5893079855
 30
0.0
 10
45.9194767383
 20
-57.4111323661
 30
0.0
 10
45.9199028616
 20
-57.3204762674
 30
0.0
 11
45.364811458
 21
-58.3663488508
 31
0.0
 11
45.5366925523
 21
-58.2435648625
 31
0.0
 11
45.6984168473
 21
-58.0617752687
 31
0.0
 11
45.8189887965
 21
-57.8414953909
 31
0.0
 11
45.8937753659
 21
-57.5911896624
 31
0.0
 11
45.9199028616
 21
-57.3204762674
 31
0.0
  0
SPLINE
  5
3E1
100
AcDbEntity
  8
RACCORDO
100
AcDbSpline
 62
253
  6
CONTINUOUS
 70
0
 71
3
 72
18
 73
14
 74
12
 42
0.0000001
 43
0.0000001
 44
0.0000000001
 12
-5.4092920571
 22
-3.3398875988
 32
0.0
 13
-0.3426408173
 23
-6.3480616729
 33
0.0
 40
0.0
 40
0.0
 40
0.0
 40
0.0
 40
0.0639806572
 40
0.1352403999
 40
0.2137878473
 40
0.2991644428
 40
0.3906006068
 40
0.4870783639
 40
0.5874028543
 40
0.6902569461
 40
0.7942572568
 40
0.8979682614
 40
1.0
 40
1.0
 40
1.0
 40
1.0
 10
-70.3016956249
 20
41.9334674445
 30
0.0
 10
-70.4170589786
 20
41.8622380433
 30
0.0
 10
-70.6467396068
 20
41.6882879506
 30
0.0
 10
-70.9656051446
 20
41.3648908334
 30
0.0
 10
-71.2722961064
 20
40.9708129769
 30
0.0
 10
-71.5616953707
 20
40.5127112627
 30
0.0
 10
-71.8290105112
 20
39.9982849196
 30
0.0
 10
-72.0696449636
 20
39.4363188325
 30
0.0
 10
-72.2794350193
 20
38.8364867143
 30
0.0
 10
-72.4547358852
 20
38.2091519555
 30
0.0
 10
-72.59249538
 20
37.5651838531
 30
0.0
 10
-72.6903293744
 20
36.9157428992
 30
0.0
 10
-72.7282841011
 20
36.4810536059
 30
0.0
 10
-72.7399375139
 20
36.2651523495
 30
0.0
 11
-70.3016956249
 21
41.9334674445
 31
0.0
 11
-70.6281176304
 21
41.6907955402
 31
0.0
 11
-70.9483813686
 21
41.3703926755
 31
0.0
 11
-71.2569639602
 21
40.9778024851
 31
0.0
 11
-71.5484314376
 21
40.5199374979
 31
0.0
 11
-71.8177039524
 21
40.0047799915
 31
0.0
 11
-72.0600607321
 21
39.4413556446
 31
0.0
 11
-72.2712527629
 21
38.8395434201
 31
0.0
 11
-72.4475814176
 21
38.2098926366
 31
0.0
 11
-72.5859729418
 21
37.5633772294
 31
0.0
 11
-72.6839914657
 21
36.9113817442
 31
0.0
 11
-72.7399375139
 21
36.2651523495
 31
0.0
  0
SPLINE
  5
3E2
100
AcDbEntity
  8
RACCORDO
100
AcDbSpline
 62
253
  6
CONTINUOUS
 70
0
 71
3
 72
13
 73
9
 74
7
 42
0.0000001
 43
0.0000001
 44
0.0000000001
 12
0.1910276248
 22
3.4642211222
 32
0.0
 13
1.3595283181
 23
3.1928672986
 33
0.0
 40
0.0
 40
0.0
 40
0.0
 40
0.0
 40
0.1869199028
 40
0.3769273881
 40
0.5675079725
 40
0.7560621297
 40
0.9400847172
 40
1.0
 40
1.0
 40
1.0
 40
1.0
 10
42.1305679052
 20
13.582199437
 30
0.0
 10
42.1424701936
 20
13.7980433955
 30
0.0
 10
42.181238749
 20
14.2326010855
 30
0.0
 10
42.2811764364
 20
14.881681627
 30
0.0
 10
42.421900117
 20
15.5251197227
 30
0.0
 10
42.6009752118
 20
16.1517653849
 30
0.0
 10
42.7695956321
 20
16.6230590857
 30
0.0
 10
42.8770081266
 20
16.8840158733
 30
0.0
 10
42.9041603011
 20
16.9477830556
 30
0.0
 11
42.1305679052
 21
13.582199437
 31
0.0
 11
42.1877105783
 21
14.2281926452
 31
0.0
 11
42.2878254739
 21
14.8797741694
 31
0.0
 11
42.4291769153
 21
15.5257050954
 31
0.0
 11
42.6092768469
 21
16.1546111821
 31
0.0
 11
42.8249858398
 21
16.7555314628
 31
0.0
 11
42.9041603011
 21
16.9477830556
 31
0.0
  0
SPLINE
  5
3E3
100
AcDbEntity
  8
RACCORDO
100
AcDbSpline
 62
253
  6
CONTINUOUS
 70
0
 71
3
 72
12
 73
8
 74
6
 42
0.0000001
 43
0.0000001
 44
0.0000000001
 12
1.0585091508
 22
2.0436474783
 32
0.0
 13
1.9726468701
 23
1.1843241591
 33
0.0
 40
0.0
 40
0.0
 40
0.0
 40
0.0
 40
0.1672479341
 40
0.4041619595
 40
0.6225322434
 40
0.8211284787
 40
1.0
 40
1.0
 40
1.0
 40
1.0
 10
43.1613707623
 20
17.4951150593
 30
0.0
 10
43.2203819185
 20
17.6090469989
 30
0.0
 10
43.3701408948
 20
17.8806552277
 30
0.0
 10
43.6298789984
 20
18.2820578393
 30
0.0
 10
43.9432355405
 20
18.6748829915
 30
0.0
 10
44.26905025
 20
18.9969464707
 30
0.0
 10
44.5033417756
 20
19.1696031045
 30
0.0
 10
44.6209585578
 20
19.2402170591
 30
0.0
 11
43.1613707623
 21
17.4951150593
 31
0.0
 11
43.3475578256
 21
17.8319525129
 31
0.0
 11
43.6452591496
 21
18.288586531
 31
0.0
 11
43.960441762
 21
18.6798734455
 31
0.0
 11
44.2875550715
 21
18.9989237567
 31
0.0
 11
44.6209585578
 21
19.2402170591
 31
0.0
  0
SPLINE
  5
3E4
100
AcDbEntity
  8
RACCORDO
100
AcDbSpline
 62
7
  6
CONTINUOUS
 70
0
 71
3
 72
16
 73
12
 74
10
 42
0.0000001
 43
0.0000001
 44
0.0000000001
 12
-1.3881459912
 22
0.2744928346
 32
0.0
 13
-1.388218641
 23
0.2741251795
 33
0.0
 40
0.0
 40
0.0
 40
0.0
 40
0.0
 40
0.0779332812
 40
0.1762693577
 40
0.2889889456
 40
0.4119884419
 40
0.5397688162
 40
0.6651778717
 40
0.7859398147
 40
0.8986787187
 40
1.0
 40
1.0
 40
1.0
 40
1.0
 10
-35.5820206042
 20
-43.0171830039
 30
0.0
 10
-35.6180815282
 20
-43.0100522948
 30
0.0
 10
-35.6989324754
 20
-42.9903901601
 30
0.0
 10
-35.8298449032
 20
-42.9523651133
 30
0.0
 10
-35.9799462124
 20
-42.9044014768
 30
0.0
 10
-36.1426019369
 20
-42.8501876758
 30
0.0
 10
-36.3109188291
 20
-42.7940250377
 30
0.0
 10
-36.4788362613
 20
-42.740013515
 30
0.0
 10
-36.6410666653
 20
-42.6915711694
 30
0.0
 10
-36.7937339363
 20
-42.651037231
 30
0.0
 10
-36.8923025411
 20
-42.6289828477
 30
0.0
 10
-36.9391879049
 20
-42.6197246095
 30
0.0
 11
-35.5820206042
 21
-43.0171830039
 31
0.0
 11
-35.6893785489
 21
-42.991975724
 31
0.0
 11
-35.8231609743
 21
-42.9537078649
 31
0.0
 11
-35.9752269175
 21
-42.9055775496
 31
0.0
 11
-36.1404599014
 21
-42.8508916906
 31
0.0
 11
-36.3120835808
 21
-42.7939843704
 31
0.0
 11
-36.4811129348
 21
-42.7399469395
 31
0.0
 11
-36.6449402597
 21
-42.6913570304
 31
0.0
 11
-36.7992075341
 21
-42.6507256839
 31
0.0
 11
-36.9391879049
 21
-42.6197246095
 31
0.0
  0
SPLINE
  5
3E5
100
AcDbEntity
  8
RACCORDO
100
AcDbSpline
 62
253
  6
CONTINUOUS
 70
0
 71
3
 72
15
 73
11
 74
9
 42
0.0000001
 43
0.0000001
 44
0.0000000001
 12
0.2004939928
 22
-3.4735854837
 32
0.0
 13
3.4030399378
 23
-0.7720360608
 33
0.0
 40
0.0
 40
0.0
 40
0.0
 40
0.0
 40
0.167185239
 40
0.3232843635
 40
0.4669185204
 40
0.597243198
 40
0.714245003
 40
0.8189907203
 40
0.9139701127
 40
1.0
 40
1.0
 40
1.0
 40
1.0
 10
-72.7399376797
 20
-33.041863719
 30
0.0
 10
-72.7287644676
 20
-33.2354411255
 30
0.0
 10
-72.6935678282
 20
-33.6091852554
 30
0.0
 10
-72.5975353113
 20
-34.1428484861
 30
0.0
 10
-72.4614809529
 20
-34.6236895389
 30
0.0
 10
-72.2874950559
 20
-35.0437652247
 30
0.0
 10
-72.0779414605
 20
-35.3962438364
 30
0.0
 10
-71.8351152788
 20
-35.675151258
 30
0.0
 10
-71.5644138807
 20
-35.872205212
 30
0.0
 10
-71.3656852208
 20
-35.9478459177
 30
0.0
 10
-71.2680975067
 20
-35.9699853095
 30
0.0
 11
-72.7399376797
 21
-33.041863719
 31
0.0
 11
-72.6839915333
 21
-33.6208658826
 31
0.0
 11
-72.5859730267
 21
-34.1550740445
 31
0.0
 11
-72.4475815454
 21
-34.6352862757
 31
0.0
 11
-72.2712529196
 21
-35.0530454546
 31
0.0
 11
-72.0600608665
 21
-35.4010712889
 31
0.0
 11
-71.8177041042
 21
-35.6732589324
 31
0.0
 11
-71.5484316651
 21
-35.8648354287
 31
0.0
 11
-71.2680975067
 21
-35.9699853095
 31
0.0
  0
SPLINE
  5
3E6
100
AcDbEntity
  8
RACCORDO
100
AcDbSpline
 62
253
  6
CONTINUOUS
 70
0
 71
3
 72
16
 73
12
 74
10
 42
0.0000001
 43
0.0000001
 44
0.0000000001
 12
2.0220574723
 22
-0.4010007235
 32
0.0
 13
1.9009420044
 23
0.7974568937
 33
0.0
 40
0.0
 40
0.0
 40
0.0
 40
0.0
 40
0.115877796
 40
0.2384061916
 40
0.3642085232
 40
0.4897861083
 40
0.6116485582
 40
0.7264443423
 40
0.8310965498
 40
0.9229553869
 40
1.0
 40
1.0
 40
1.0
 40
1.0
 10
41.8106210239
 20
7.2563811511
 30
0.0
 10
41.8887248783
 20
7.2408921244
 30
0.0
 10
42.0504221782
 20
7.2139848122
 30
0.0
 10
42.2991680069
 20
7.1856329197
 30
0.0
 10
42.5556344642
 20
7.168693758
 30
0.0
 10
42.8121500515
 20
7.1636826807
 30
0.0
 10
43.0610627732
 20
7.1707363393
 30
0.0
 10
43.2949477849
 20
7.1896057145
 30
0.0
 10
43.5069154231
 20
7.2196576368
 30
0.0
 10
43.6907036999
 20
7.2598937243
 30
0.0
 10
43.8014204514
 20
7.2959418711
 30
0.0
 10
43.8502395651
 20
7.3164217904
 30
0.0
 11
41.8106210239
 21
7.2563811511
 31
0.0
 11
42.0461780615
 21
7.2167077319
 31
0.0
 11
42.29710918
 21
7.1878551699
 31
0.0
 11
42.5558739543
 21
7.1706904809
 31
0.0
 11
42.8146965564
 21
7.1657294646
 31
0.0
 11
43.0657994142
 21
7.1731212041
 31
0.0
 11
43.301636924
 21
7.1926435861
 31
0.0
 11
43.5151221926
 21
7.2237099738
 31
0.0
 11
43.6998399976
 21
7.2653868343
 31
0.0
 11
43.8502395651
 21
7.3164217904
 31
0.0
  0
SPLINE
  5
3E7
100
AcDbEntity
  8
RACCORDO
100
AcDbSpline
 62
253
  6
CONTINUOUS
 70
0
 71
3
 72
15
 73
11
 74
9
 42
0.0000001
 43
0.0000001
 44
0.0000000001
 12
1.939544926
 22
-0.3437617078
 32
0.0
 13
1.8383719345
 23
0.7067716473
 33
0.0
 40
0.0
 40
0.0
 40
0.0
 40
0.0
 40
0.0925728345
 40
0.2378786676
 40
0.3863300754
 40
0.5326547067
 40
0.671677805
 40
0.798568042
 40
0.9091024644
 40
1.0
 40
1.0
 40
1.0
 40
1.0
 10
42.2166391086
 20
13.566126798
 30
0.0
 10
42.2764888324
 20
13.5555191327
 30
0.0
 10
42.4308619407
 20
13.5314311416
 30
0.0
 10
42.6830698634
 20
13.5036500723
 30
0.0
 10
42.9715885164
 20
13.4862974579
 30
0.0
 10
43.2564912998
 20
13.4832270748
 30
0.0
 10
43.5270282218
 20
13.4945155084
 30
0.0
 10
43.7731002055
 20
13.5196299507
 30
0.0
 10
43.9854818296
 20
13.5574765041
 30
0.0
 10
44.1131403828
 20
13.5937947424
 30
0.0
 10
44.1688415423
 20
13.6152093427
 30
0.0
 11
42.2166391086
 21
13.566126798
 31
0.0
 11
42.3967799945
 21
13.5378283787
 31
0.0
 11
42.6812155796
 21
13.5062107526
 31
0.0
 11
42.9730695413
 21
13.4886323134
 31
0.0
 11
43.2612493003
 21
13.48576117
 31
0.0
 11
43.5348019239
 21
13.4977064467
 31
0.0
 11
43.783330417
 21
13.5240141361
 31
0.0
 11
43.9973888841
 21
13.5636843539
 31
0.0
 11
44.1688415423
 21
13.6152093427
 31
0.0
  0
SPLINE
  5
3E8
100
AcDbEntity
  8
RACCORDO
100
AcDbSpline
 62
253
  6
CONTINUOUS
 70
0
 71
3
 72
15
 73
11
 74
9
 42
0.0000001
 43
0.0000001
 44
0.0000000001
 12
2.2248936142
 22
-0.4484228654
 32
0.0
 13
0.0107266942
 23
-2.2696078072
 33
0.0
 40
0.0
 40
0.0
 40
0.0
 40
0.0
 40
0.1163132906
 40
0.2374261161
 40
0.3626605393
 40
0.4908020711
 40
0.6202855145
 40
0.74939076
 40
0.8764409332
 40
1.0
 40
1.0
 40
1.0
 40
1.0
 10
44.6209142193
 20
19.2401904397
 30
0.0
 10
44.7071757851
 20
19.2228045933
 30
0.0
 10
44.8799189685
 20
19.1687470483
 30
0.0
 10
45.1230571143
 20
19.0386217377
 30
0.0
 10
45.3470355054
 20
18.8628940689
 30
0.0
 10
45.543443819
 20
18.6483090801
 30
0.0
 10
45.7050493333
 20
18.4029585912
 30
0.0
 10
45.8258083977
 20
18.1360023441
 30
0.0
 10
45.9011610723
 20
17.8575341749
 30
0.0
 10
45.9194610681
 20
17.6676767135
 30
0.0
 10
45.9199028616
 20
17.5741998393
 30
0.0
 11
44.6209142193
 21
19.2401904397
 31
0.0
 11
44.8731712627
 21
19.1623681252
 31
0.0
 11
45.1159866388
 21
19.0335246797
 31
0.0
 11
45.3400299908
 21
18.8586110059
 31
0.0
 11
45.5366922904
 21
18.6443482887
 31
0.0
 11
45.6984166462
 21
18.3989697282
 31
0.0
 11
45.8189886825
 21
18.1319041737
 31
0.0
 11
45.8937753313
 21
17.8534138127
 31
0.0
 11
45.9199028616
 21
17.5741998393
 31
0.0
  0
SPLINE
  5
3E9
100
AcDbEntity
  8
RACCORDO
100
AcDbSpline
 62
253
  6
CONTINUOUS
 70
0
 71
3
 72
16
 73
12
 74
10
 42
0.0000001
 43
0.0000001
 44
0.0000000001
 12
2.0682088347
 22
-0.406770069
 32
0.0
 13
1.6929369965
 23
1.2557523637
 33
0.0
 40
0.0
 40
0.0
 40
0.0
 40
0.0
 40
0.1130248429
 40
0.2323641465
 40
0.3551286312
 40
0.4782685374
 40
0.5987169049
 40
0.7135317573
 40
0.820046873
 40
0.9160469402
 40
1.0
 40
1.0
 40
1.0
 40
1.0
 10
41.8106207269
 20
-49.7705777233
 30
0.0
 10
41.8885403865
 20
-49.7859027643
 30
0.0
 10
42.0502663965
 20
-49.8098971525
 30
0.0
 10
42.2994156572
 20
-49.8269763322
 30
0.0
 10
42.5562602156
 20
-49.8258601863
 30
0.0
 10
42.8131538684
 20
-49.806567579
 30
0.0
 10
43.0624891005
 20
-49.7696772261
 30
0.0
 10
43.2968850696
 20
-49.7163115108
 30
0.0
 10
43.5095055156
 20
-49.6480622506
 30
0.0
 10
43.6941426924
 20
-49.5670019542
 30
0.0
 10
43.8028638182
 20
-49.5012774638
 30
0.0
 10
43.8502395651
 20
-49.466136046
 30
0.0
 11
41.8106207269
 21
-49.7705777233
 31
0.0
 11
42.0461778614
 21
-49.8062120951
 31
0.0
 11
42.2971090825
 21
-49.823802751
 31
0.0
 11
42.555873953
 21
-49.822821092
 31
0.0
 11
42.8146966335
 21
-49.803296612
 31
0.0
 11
43.0657995425
 21
-49.7658160122
 31
0.0
 11
43.3016370701
 21
-49.7115055716
 31
0.0
 11
43.5151223212
 21
-49.6419973037
 31
0.0
 11
43.6998400755
 21
-49.5593799161
 31
0.0
 11
43.8502395651
 21
-49.466136046
 31
0.0
  0
SPLINE
  5
3EA
100
AcDbEntity
  8
RACCORDO
100
AcDbSpline
 62
253
  6
CONTINUOUS
 70
0
 71
3
 72
15
 73
11
 74
9
 42
0.0000001
 43
0.0000001
 44
0.0000000001
 12
2.0006472475
 22
-0.3220645654
 32
0.0
 13
1.5997815511
 23
1.2427323064
 33
0.0
 40
0.0
 40
0.0
 40
0.0
 40
0.0
 40
0.0896124102
 40
0.2302024003
 40
0.3743591278
 40
0.5176087123
 40
0.6555313345
 40
0.7840355207
 40
0.8996656981
 40
1.0
 40
1.0
 40
1.0
 40
1.0
 10
42.2166381035
 20
-55.7402597003
 30
0.0
 10
42.2763990441
 20
-55.7498800276
 30
0.0
 10
42.430822487
 20
-55.7692984108
 30
0.0
 10
42.6835948131
 20
-55.7816641828
 30
0.0
 10
42.9727599836
 20
-55.7716231435
 30
0.0
 10
43.2583370249
 20
-55.7381085657
 30
0.0
 10
43.5296744276
 20
-55.6824048083
 30
0.0
 10
43.7767765362
 20
-55.6066055028
 30
0.0
 10
43.9905408956
 20
-55.5136260873
 30
0.0
 10
44.1153372206
 20
-55.4365035836
 30
0.0
 10
44.1688415423
 20
-55.3949406909
 30
0.0
 11
42.2166381035
 21
-55.7402597003
 31
0.0
 11
42.3967793161
 21
-55.7632079662
 31
0.0
 11
42.6812150975
 21
-55.7776249751
 31
0.0
 11
42.9730692547
 21
-55.7676007246
 31
0.0
 11
43.2612491874
 21
-55.7335162098
 31
0.0
 11
43.5348019425
 21
-55.6766668925
 31
0.0
 11
43.7833305071
 21
-55.5992134641
 31
0.0
 11
43.9973889714
 21
-55.5040997234
 31
0.0
 11
44.1688415423
 21
-55.3949406909
 31
0.0
  0
SPLINE
  5
3EB
100
AcDbEntity
  8
RACCORDO
100
AcDbSpline
 62
253
  6
CONTINUOUS
 70
0
 71
3
 72
14
 73
10
 74
8
 42
0.0000001
 43
0.0000001
 44
0.0000000001
 12
-0.8692684341
 22
0.1709135528
 32
0.0
 13
0.0500795208
 23
0.885381442
 33
0.0
 40
0.0
 40
0.0
 40
0.0
 40
0.0
 40
0.2468251528
 40
0.4645718138
 40
0.648313382
 40
0.7952604219
 40
0.9064474617
 40
0.9911206777
 40
1.0
 40
1.0
 40
1.0
 40
1.0
 10
-73.0503966935
 20
29.9374602786
 30
0.0
 10
-73.1219157982
 20
29.9515221998
 30
0.0
 10
-73.255846728
 20
29.9817737797
 30
0.0
 10
-73.4392310822
 20
30.0374277322
 30
0.0
 10
-73.5894092474
 20
30.0990068883
 30
0.0
 10
-73.7024843356
 20
30.1653172396
 30
0.0
 10
-73.7778813093
 20
30.2346817081
 30
0.0
 10
-73.8023323111
 20
30.2941439909
 30
0.0
 10
-73.8018193072
 20
30.3217643542
 30
0.0
 10
-73.8016710832
 20
30.3243848833
 30
0.0
 11
-73.0503966935
 21
29.9374602786
 31
0.0
 11
-73.2635182881
 21
29.9863853805
 31
0.0
 11
-73.447783082
 21
30.0434689791
 31
0.0
 11
-73.5976539454
 21
30.1069957234
 31
0.0
 11
-73.7086272748
 21
30.1750566469
 31
0.0
 11
-73.7773683254
 21
30.2456065309
 31
0.0
 11
-73.8018114205
 21
30.3165253625
 31
0.0
 11
-73.8016710832
 21
30.3243848833
 31
0.0
  0
SPLINE
  5
3EC
100
AcDbEntity
  8
RACCORDO
100
AcDbSpline
 62
253
  6
CONTINUOUS
 70
0
 71
3
 72
13
 73
9
 74
7
 42
0.0000001
 43
0.0000001
 44
0.0000000001
 12
-0.8611969121
 22
0.1691641635
 32
0.0
 13
0.0561241038
 23
0.8969389932
 33
0.0
 40
0.0
 40
0.0
 40
0.0
 40
0.0
 40
0.2782221622
 40
0.5180766605
 40
0.7127241621
 40
0.8591408512
 40
0.9623777706
 40
1.0
 40
1.0
 40
1.0
 40
1.0
 10
-72.7399330223
 20
36.2652359946
 30
0.0
 10
-72.8198010446
 20
36.2809244011
 30
0.0
 10
-72.9677839253
 20
36.3145537329
 30
0.0
 10
-73.1669672419
 20
36.3764541518
 30
0.0
 10
-73.323698391
 20
36.4448173684
 30
0.0
 10
-73.4319751593
 20
36.5160057009
 30
0.0
 10
-73.4882221322
 20
36.5853826242
 30
0.0
 10
-73.4915897699
 20
36.6276791387
 30
0.0
 10
-73.4908859319
 20
36.6389274202
 30
0.0
 11
-72.7399330223
 21
36.2652359946
 31
0.0
 11
-72.977821142
 21
36.320322166
 31
0.0
 11
-73.1783209322
 21
36.3844625425
 31
0.0
 11
-73.333811929
 21
36.4552193189
 31
0.0
 11
-73.4383843331
 21
36.5299032183
 31
0.0
 11
-73.4880636254
 21
36.6056757043
 31
0.0
 11
-73.4908859319
 21
36.6389274202
 31
0.0
  0
SPLINE
  5
3ED
100
AcDbEntity
  8
RACCORDO
100
AcDbSpline
 62
253
  6
CONTINUOUS
 70
0
 71
3
 72
11
 73
7
 74
5
 42
0.0000001
 43
0.0000001
 44
0.0000000001
 12
-0.7983600808
 22
0.1544218152
 32
0.0
 13
-0.6923216832
 23
-0.4302644668
 33
0.0
 40
0.0
 40
0.0
 40
0.0
 40
0.0
 40
0.3142444208
 40
0.6176184804
 40
0.9140505219
 40
1.0
 40
1.0
 40
1.0
 40
1.0
 10
-70.3017390392
 20
41.9334406417
 30
0.0
 10
-70.3853657729
 20
41.9496160397
 30
0.0
 10
-70.5535364642
 20
41.9650474145
 30
0.0
 10
-70.8012890915
 20
41.9328775393
 30
0.0
 10
-70.9766750021
 20
41.8660768329
 30
0.0
 10
-71.0668397067
 20
41.8143335434
 30
0.0
 10
-71.0866746025
 20
41.8020065413
 30
0.0
 11
-70.3017390392
 21
41.9334406417
 31
0.0
 11
-70.5562981157
 21
41.9556969533
 31
0.0
 11
-70.8008240537
 21
41.9230864801
 31
0.0
 11
-71.0259207462
 21
41.8368623234
 31
0.0
 11
-71.0866746025
 21
41.8020065413
 31
0.0
  0
SPLINE
  5
3EE
100
AcDbEntity
  8
RACCORDO
100
AcDbSpline
 62
253
  6
CONTINUOUS
 70
0
 71
3
 72
13
 73
9
 74
7
 42
0.0000001
 43
0.0000001
 44
0.0000000001
 12
-0.936175239
 22
0.1855998472
 32
0.0
 13
-0.0466066124
 23
0.9576839121
 33
0.0
 40
0.0
 40
0.0
 40
0.0
 40
0.0
 40
0.2300975555
 40
0.4360198954
 40
0.6148558384
 40
0.7662593034
 40
0.8939577558
 40
1.0
 40
1.0
 40
1.0
 40
1.0
 10
-73.0503963952
 20
-27.0894982432
 30
0.0
 10
-73.1222002732
 20
-27.0752628862
 30
0.0
 10
-73.2572287034
 20
-27.042387155
 30
0.0
 10
-73.4415763161
 20
-26.9756198768
 30
0.0
 10
-73.5930144271
 20
-26.8955547905
 30
0.0
 10
-73.7076564225
 20
-26.8037991489
 30
0.0
 10
-73.7807969998
 20
-26.7028059165
 30
0.0
 10
-73.7999177702
 20
-26.6287936869
 30
0.0
 10
-73.8015651934
 20
-26.5949420364
 30
0.0
 11
-73.0503963952
 21
-27.0894982432
 31
0.0
 11
-73.2635179114
 21
-27.036534105
 31
0.0
 11
-73.4477826542
 21
-26.9681886311
 31
0.0
 11
-73.5976535
 21
-26.8865155857
 31
0.0
 11
-73.7086268474
 21
-26.7939692231
 31
0.0
 11
-73.7773679495
 21
-26.6933305396
 31
0.0
 11
-73.8015651934
 21
-26.5949420364
 31
0.0
  0
SPLINE
  5
3EF
100
AcDbEntity
  8
RACCORDO
100
AcDbSpline
 62
253
  6
CONTINUOUS
 70
0
 71
3
 72
13
 73
9
 74
7
 42
0.0000001
 43
0.0000001
 44
0.0000000001
 12
-0.9421864497
 22
0.1869423596
 32
0.0
 13
-0.0510949631
 23
0.966228768
 33
0.0
 40
0.0
 40
0.0
 40
0.0
 40
0.0
 40
0.2557295119
 40
0.4809862885
 40
0.6725312458
 40
0.8317795898
 40
0.9676410895
 40
1.0
 40
1.0
 40
1.0
 40
1.0
 10
-72.7399320541
 20
-33.0419440442
 30
0.0
 10
-72.8202470144
 20
-33.0260084847
 30
0.0
 10
-72.970010958
 20
-32.9884646245
 30
0.0
 10
-73.171110163
 20
-32.9093931893
 30
0.0
 10
-73.3297750223
 20
-32.8130024166
 30
0.0
 10
-73.4412039828
 20
-32.7009287022
 30
0.0
 10
-73.4850293716
 20
-32.602004918
 30
0.0
 10
-73.4909567569
 20
-32.5480586718
 30
0.0
 10
-73.4915078827
 20
-32.5376366351
 30
0.0
 11
-72.7399320541
 21
-33.0419440442
 31
0.0
 11
-72.9778200247
 21
-32.9807131077
 31
0.0
 11
-73.1783197295
 21
-32.8993721944
 31
0.0
 11
-73.3338107186
 21
-32.8010128517
 31
0.0
 11
-73.438383201
 21
-32.6893734516
 31
0.0
 11
-73.4880626603
 21
-32.5686971049
 31
0.0
 11
-73.4915078827
 21
-32.5376366351
 31
0.0
  0
SPLINE
  5
3F0
100
AcDbEntity
  8
RACCORDO
100
AcDbSpline
 62
7
  6
CONTINUOUS
 70
0
 71
3
 72
14
 73
10
 74
8
 42
0.0000001
 43
0.0000001
 44
0.0000000001
 12
-0.504213947
 22
0.0995648197
 32
0.0
 13
0.0833069494
 23
-0.4751819996
 33
0.0
 40
0.0
 40
0.0
 40
0.0
 40
0.0
 40
0.2525644927
 40
0.4809592377
 40
0.6750268452
 40
0.8276198345
 40
0.9341218394
 40
0.9907815084
 40
1.0
 40
1.0
 40
1.0
 40
1.0
 10
8.3816109952
 20
-51.5690152814
 30
0.0
 10
8.3391621486
 20
-51.560633102
 30
0.0
 10
8.2580217833
 20
-51.5464762059
 30
0.0
 10
8.142730119
 20
-51.5334564667
 30
0.0
 10
8.0450905384
 20
-51.529097575
 30
0.0
 10
7.9650650991
 20
-51.5340583123
 30
0.0
 10
7.9167947285
 20
-51.5425779539
 30
0.0
 10
7.8819883594
 20
-51.558574549
 30
0.0
 10
7.8822698116
 20
-51.568711904
 30
0.0
 10
7.8825257998
 20
-51.5701720578
 30
0.0
 11
8.3816109952
 21
-51.5690152814
 31
0.0
 11
8.2536669745
 21
-51.5471105528
 31
0.0
 11
8.1369911688
 21
-51.5342400098
 31
0.0
 11
8.037309551
 21
-51.5307960143
 31
0.0
 11
7.9590574547
 21
-51.5360039093
 31
0.0
 11
7.9057657868
 21
-51.5484982256
 31
0.0
 11
7.8824570194
 21
-51.5659536081
 31
0.0
 11
7.8825257998
 21
-51.5701720578
 31
0.0
  0
SPLINE
  5
3F1
100
AcDbEntity
  8
RACCORDO
100
AcDbSpline
 62
7
  6
CONTINUOUS
 70
0
 71
3
 72
12
 73
8
 74
6
 42
0.0000001
 43
0.0000001
 44
0.0000000001
 12
-0.1939159952
 22
0.0383316587
 32
0.0
 13
-0.171017637
 23
-0.0985053241
 33
0.0
 40
0.0
 40
0.0
 40
0.0
 40
0.0
 40
0.05130078
 40
0.2717291012
 40
0.4999248759
 40
0.7412895932
 40
1.0
 40
1.0
 40
1.0
 40
1.0
 10
-20.4581368134
 20
54.5509629981
 30
0.0
 10
-20.4614528273
 20
54.5516184794
 30
0.0
 10
-20.4790960695
 20
54.5546872623
 30
0.0
 10
-20.5121505699
 20
54.5563364868
 30
0.0
 10
-20.5573503081
 20
54.5500093912
 30
0.0
 10
-20.603161464
 20
54.5353172073
 30
0.0
 10
-20.6327441319
 20
54.5206440135
 30
0.0
 10
-20.6474921461
 20
54.5121492294
 30
0.0
 11
-20.4581368134
 21
54.5509629981
 31
0.0
 11
-20.4681262179
 21
54.5526997842
 31
0.0
 11
-20.5115708186
 21
54.5549604179
 31
0.0
 11
-20.556198868
 21
54.5489098035
 31
0.0
 11
-20.601633774
 21
54.5345991118
 31
0.0
 11
-20.6474921461
 21
54.5121492294
 31
0.0
  0
SPLINE
  5
3F2
100
AcDbEntity
  8
RACCORDO
100
AcDbSpline
 62
7
  6
CONTINUOUS
 70
0
 71
3
 72
20
 73
16
 74
14
 42
0.0000001
 43
0.0000001
 44
0.0000000001
 12
0.788112132
 22
-0.1557872791
 32
0.0
 13
0.0
 23
-0.8021026593
 33
0.0
 40
0.0
 40
0.0
 40
0.0
 40
0.0
 40
0.0412398075
 40
0.0963087275
 40
0.1540275944
 40
0.2155722246
 40
0.2817994071
 40
0.353257149
 40
0.4302246058
 40
0.5127584353
 40
0.6007347447
 40
0.6938836699
 40
0.7918170486
 40
0.8940506464
 40
1.0
 40
1.0
 40
1.0
 40
1.0
 10
-24.7882638323
 20
55.4060133564
 30
0.0
 10
-24.7774299681
 20
55.4038718106
 30
0.0
 10
-24.7525012348
 20
55.3969732339
 30
0.0
 10
-24.7150564247
 20
55.3792540263
 30
0.0
 10
-24.6770007794
 20
55.3519512625
 30
0.0
 10
-24.6417017393
 20
55.3168539307
 30
0.0
 10
-24.6093982369
 20
55.2743157497
 30
0.0
 10
-24.5803051353
 20
55.2247110958
 30
0.0
 10
-24.5546257496
 20
55.1684512411
 30
0.0
 10
-24.5325502733
 20
55.1059953958
 30
0.0
 10
-24.5142499135
 20
55.0378541781
 30
0.0
 10
-24.4998712503
 20
54.9645883862
 30
0.0
 10
-24.4895320162
 20
54.8868039273
 30
0.0
 10
-24.4833185965
 20
54.8051563763
 30
0.0
 10
-24.4819824327
 20
54.7494835162
 30
0.0
 10
-24.4819824327
 20
54.7211560967
 30
0.0
 11
-24.7882638323
 21
55.4060133564
 31
0.0
 11
-24.756358695
 21
55.3971972422
 31
0.0
 11
-24.7163677453
 21
55.3784410499
 31
0.0
 11
-24.6786178574
 21
55.3516397839
 31
0.0
 11
-24.6434275878
 21
55.3170195707
 31
0.0
 11
-24.611093889
 21
55.2748725366
 31
0.0
 11
-24.581889602
 21
55.2255543406
 31
0.0
 11
-24.5560611519
 21
55.1694811706
 31
0.0
 11
-24.5338264674
 21
55.1071262286
 31
0.0
 11
-24.5153731404
 21
55.0390157334
 31
0.0
 11
-24.500856843
 21
54.9657244759
 31
0.0
 11
-24.4904000133
 21
54.8878709637
 31
0.0
 11
-24.4840908227
 21
54.8061121967
 31
0.0
 11
-24.4819824327
 21
54.7211560967
 31
0.0
  0
SPLINE
  5
3F3
100
AcDbEntity
  8
0
100
AcDbSpline
 62
7
  6
CONTINUOUS
 70
0
 71
3
 72
23
 73
19
 74
17
 42
0.0000001
 43
0.0000001
 44
0.0000000001
 12
-3.1130924572
 22
4.9540037213
 32
0.0
 13
-5.7370342607
 23
1.1328658903
 33
0.0
 40
0.0
 40
0.0
 40
0.0
 40
0.0
 40
0.0377900977
 40
0.0799147622
 40
0.1249769266
 40
0.1731656594
 40
0.2246045448
 40
0.2793627944
 40
0.3374645388
 40
0.3988963309
 40
0.4636131129
 40
0.5315429506
 40
0.6025908111
 40
0.6766416115
 40
0.7535627184
 40
0.8332060337
 40
0.9154097711
 40
1.0
 40
1.0
 40
1.0
 40
1.0
 10
48.2697624731
 20
37.6993797009
 30
0.0
 10
48.2305477837
 20
37.7617837958
 30
0.0
 10
48.1401803307
 20
37.8890195941
 30
0.0
 10
47.9798669094
 20
38.0729347881
 30
0.0
 10
47.7893279038
 20
38.2559324316
 30
0.0
 10
47.5712242444
 20
38.4351407264
 30
0.0
 10
47.3261397246
 20
38.6101260219
 30
0.0
 10
47.0547250009
 20
38.7804482219
 30
0.0
 10
46.7577018015
 20
38.9456664363
 30
0.0
 10
46.4358637232
 20
39.1053442289
 30
0.0
 10
46.0900750673
 20
39.2590539196
 30
0.0
 10
45.7212686048
 20
39.4063799682
 30
0.0
 10
45.330442802
 20
39.5469216152
 30
0.0
 10
44.9186586342
 20
39.680294998
 30
0.0
 10
44.4870366254
 20
39.8061348011
 30
0.0
 10
44.0367521452
 20
39.9240959176
 30
0.0
 10
43.5690369592
 20
40.0338537575
 30
0.0
 10
43.25076836
 20
40.1004534328
 30
0.0
 10
43.0890026796
 20
40.1323965612
 30
0.0
 11
48.2697624731
 21
37.6993797009
 31
0.0
 11
48.1423665445
 21
37.8799640775
 31
0.0
 11
47.9810961671
 21
38.0661734113
 31
0.0
 11
47.7915530345
 21
38.2492408198
 31
0.0
 11
47.5742566711
 21
38.428664528
 31
0.0
 11
47.3298026713
 21
38.6039527479
 31
0.0
 11
47.0588610664
 21
38.7746250267
 31
0.0
 11
46.7621744885
 21
38.9402135636
 31
0.0
 11
46.4405561349
 21
39.1002644918
 31
0.0
 11
46.0948875391
 21
39.254339123
 31
0.0
 11
45.7261161549
 21
39.4020151492
 31
0.0
 11
45.3352527588
 21
39.5428878008
 31
0.0
 11
44.9233686803
 21
39.6765709555
 31
0.0
 11
44.4915928651
 21
39.8026981972
 31
0.0
 11
44.0411087805
 21
39.9209238199
 31
0.0
 11
43.5731511723
 21
40.0309237753
 31
0.0
 11
43.0890026796
 21
40.1323965612
 31
0.0
  0
SPLINE
  5
3F4
100
AcDbEntity
  8
0
100
AcDbSpline
 62
7
  6
CONTINUOUS
 70
0
 71
3
 72
43
 73
39
 74
37
 42
0.0000001
 43
0.0000001
 44
0.0000000001
 12
8.9199248572
 22
14.1946766897
 32
0.0
 13
16.4382893251
 23
-3.2459937355
 33
0.0
 40
0.0
 40
0.0
 40
0.0
 40
0.0
 40
0.013188908
 40
0.0278905986
 40
0.0436174894
 40
0.0604355661
 40
0.0783879602
 40
0.0974988267
 40
0.1177765875
 40
0.1392165493
 40
0.1618029869
 40
0.1855107948
 40
0.2103068063
 40
0.2361508567
 40
0.2629966566
 40
0.290792519
 40
0.3194819799
 40
0.3490043366
 40
0.3792951257
 40
0.4102865548
 40
0.4419078992
 40
0.4740858736
 40
0.5067449829
 40
0.5398078594
 40
0.5731955883
 40
0.6068280255
 40
0.6406241092
 40
0.6745021683
 40
0.7083802274
 40
0.7421763111
 40
0.7758087483
 40
0.8091964772
 40
0.8422593537
 40
0.874918463
 40
0.9070964374
 40
0.9387177818
 40
0.9697092109
 40
1.0
 40
1.0
 40
1.0
 40
1.0
 10
27.0623880745
 20
37.6993797009
 30
0.0
 10
27.1016027639
 20
37.7617837958
 30
0.0
 10
27.1919702169
 20
37.8890195941
 30
0.0
 10
27.3522836381
 20
38.0729347881
 30
0.0
 10
27.5428226437
 20
38.2559324316
 30
0.0
 10
27.7609263032
 20
38.4351407264
 30
0.0
 10
28.0060108229
 20
38.6101260219
 30
0.0
 10
28.2774255467
 20
38.7804482219
 30
0.0
 10
28.5744487461
 20
38.9456664364
 30
0.0
 10
28.8962868243
 20
39.1053442288
 30
0.0
 10
29.2420754807
 20
39.2590539197
 30
0.0
 10
29.6108819411
 20
39.4063799679
 30
0.0
 10
30.0017077523
 20
39.5469216164
 30
0.0
 10
30.4134918865
 20
39.6802949931
 30
0.0
 10
30.845114028
 20
39.8061348202
 30
0.0
 10
31.2953979867
 20
39.9240958427
 30
0.0
 10
31.7631152132
 20
40.0338540504
 30
0.0
 10
32.2469884066
 20
40.135107743
 30
0.0
 10
32.7456952097
 20
40.2275784683
 30
0.0
 10
33.2578719898
 20
40.3110118567
 30
0.0
 10
33.7821177016
 20
40.3851783612
 30
0.0
 10
34.3169978287
 20
40.4498739131
 30
0.0
 10
34.8610483968
 20
40.504920496
 30
0.0
 10
35.4127800529
 20
40.5501666425
 30
0.0
 10
35.9706822036
 20
40.5854878528
 30
0.0
 10
36.5332272012
 20
40.6107869382
 30
0.0
 10
37.0988745719
 20
40.6259942873
 30
0.0
 10
37.6660752738
 20
40.6310680571
 30
0.0
 10
38.2332759756
 20
40.6259942873
 30
0.0
 10
38.7989233466
 20
40.6107869381
 30
0.0
 10
39.3614683433
 20
40.5854878529
 30
0.0
 10
39.9193704974
 20
40.550166642
 30
0.0
 10
40.4711021408
 20
40.5049204978
 30
0.0
 10
41.0151527555
 20
40.4498739065
 30
0.0
 10
41.5500327123
 20
40.3851783853
 30
0.0
 10
42.0742790431
 20
40.3110117692
 30
0.0
 10
42.5864535827
 20
40.2275787847
 30
0.0
 10
42.9230264276
 20
40.1651711318
 30
0.0
 10
43.0890026796
 20
40.1323965612
 30
0.0
 11
27.0623880745
 21
37.6993797009
 31
0.0
 11
27.1897840031
 21
37.8799640775
 31
0.0
 11
27.3510543805
 21
38.0661734113
 31
0.0
 11
27.5405975131
 21
38.2492408198
 31
0.0
 11
27.7578938764
 21
38.428664528
 31
0.0
 11
28.0023478763
 21
38.6039527479
 31
0.0
 11
28.2732894812
 21
38.7746250267
 31
0.0
 11
28.5699760591
 21
38.9402135636
 31
0.0
 11
28.8915944127
 21
39.1002644918
 31
0.0
 11
29.2372630084
 21
39.254339123
 31
0.0
 11
29.6060343927
 21
39.4020151492
 31
0.0
 11
29.9968977888
 21
39.5428878008
 31
0.0
 11
30.4087818672
 21
39.6765709555
 31
0.0
 11
30.8405576825
 21
39.8026981972
 31
0.0
 11
31.291041767
 21
39.9209238199
 31
0.0
 11
31.7589993753
 21
40.0309237753
 31
0.0
 11
32.243147868
 21
40.1323965612
 31
0.0
 11
32.7421602278
 21
40.2250640477
 31
0.0
 11
33.2546686964
 21
40.3086722398
 31
0.0
 11
33.7792685239
 21
40.3829919731
 31
0.0
 11
34.3145218185
 21
40.4478195425
 31
0.0
 11
34.8589614881
 21
40.5029772601
 31
0.0
 11
35.4110952616
 21
40.5483139424
 31
0.0
 11
35.9694097784
 21
40.5837053247
 31
0.0
 11
36.5323747375
 21
40.6090544017
 31
0.0
 11
37.098447091
 21
40.6242916934
 31
0.0
 11
37.6660752738
 21
40.6293754353
 31
0.0
 11
38.2337034566
 21
40.6242916934
 31
0.0
 11
38.7997758101
 21
40.6090544017
 31
0.0
 11
39.3627407691
 21
40.5837053247
 31
0.0
 11
39.921055286
 21
40.5483139424
 31
0.0
 11
40.4731890594
 21
40.5029772601
 31
0.0
 11
41.0176287291
 21
40.4478195425
 31
0.0
 11
41.5528820237
 21
40.3829919731
 31
0.0
 11
42.0774818511
 21
40.3086722398
 31
0.0
 11
42.5899903198
 21
40.2250640477
 31
0.0
 11
43.0890026796
 21
40.1323965612
 31
0.0
  0
SPLINE
  5
3F5
100
AcDbEntity
  8
0
100
AcDbSpline
 62
7
  6
CONTINUOUS
 70
0
 71
3
 72
23
 73
19
 74
17
 42
0.0000001
 43
0.0000001
 44
0.0000000001
 12
-3.1130924572
 22
4.9540037213
 32
0.0
 13
-5.7370342607
 23
1.1328658903
 33
0.0
 40
0.0
 40
0.0
 40
0.0
 40
0.0
 40
0.0377900977
 40
0.0799147622
 40
0.1249769266
 40
0.1731656594
 40
0.2246045448
 40
0.2793627944
 40
0.3374645388
 40
0.3988963309
 40
0.4636131129
 40
0.5315429506
 40
0.6025908111
 40
0.6766416115
 40
0.7535627184
 40
0.8332060337
 40
0.9154097711
 40
1.0
 40
1.0
 40
1.0
 40
1.0
 10
-10.6199649843
 20
49.328064574
 30
0.0
 10
-10.6591796736
 20
49.3904686689
 30
0.0
 10
-10.7495471267
 20
49.5177044671
 30
0.0
 10
-10.9098605479
 20
49.7016196611
 30
0.0
 10
-11.1003995535
 20
49.8846173047
 30
0.0
 10
-11.3185032129
 20
50.0638255994
 30
0.0
 10
-11.5635877327
 20
50.238810895
 30
0.0
 10
-11.8350024564
 20
50.4091330949
 30
0.0
 10
-12.1320256558
 20
50.5743513094
 30
0.0
 10
-12.4538637341
 20
50.7340291019
 30
0.0
 10
-12.7996523901
 20
50.8877387927
 30
0.0
 10
-13.1684588525
 20
51.0350648412
 30
0.0
 10
-13.5592846553
 20
51.1756064883
 30
0.0
 10
-13.9710688231
 20
51.308979871
 30
0.0
 10
-14.4026908319
 20
51.4348196742
 30
0.0
 10
-14.8529753122
 20
51.5527807907
 30
0.0
 10
-15.3206904981
 20
51.6625386306
 30
0.0
 10
-15.6389590974
 20
51.7291383059
 30
0.0
 10
-15.8007247778
 20
51.7610814342
 30
0.0
 11
-10.6199649843
 21
49.328064574
 31
0.0
 11
-10.7473609129
 21
49.5086489505
 31
0.0
 11
-10.9086312902
 21
49.6948582844
 31
0.0
 11
-11.0981744228
 21
49.8779256929
 31
0.0
 11
-11.3154707862
 21
50.0573494011
 31
0.0
 11
-11.559924786
 21
50.232637621
 31
0.0
 11
-11.830866391
 21
50.4033098998
 31
0.0
 11
-12.1275529689
 21
50.5688984367
 31
0.0
 11
-12.4491713225
 21
50.7289493649
 31
0.0
 11
-12.7948399182
 21
50.8830239961
 31
0.0
 11
-13.1636113025
 21
51.0307000223
 31
0.0
 11
-13.5544746985
 21
51.1715726739
 31
0.0
 11
-13.966358777
 21
51.3052558286
 31
0.0
 11
-14.3981345923
 21
51.4313830703
 31
0.0
 11
-14.8486186768
 21
51.5496086929
 31
0.0
 11
-15.3165762851
 21
51.6596086483
 31
0.0
 11
-15.8007247778
 21
51.7610814342
 31
0.0
  0
SPLINE
  5
3F6
100
AcDbEntity
  8
0
100
AcDbSpline
 62
7
  6
CONTINUOUS
 70
0
 71
3
 72
43
 73
39
 74
37
 42
0.0000001
 43
0.0000001
 44
0.0000000001
 12
8.9199248572
 22
14.1946766897
 32
0.0
 13
16.4382893251
 23
-3.2459937355
 33
0.0
 40
0.0
 40
0.0
 40
0.0
 40
0.0
 40
0.013188908
 40
0.0278905986
 40
0.0436174894
 40
0.0604355661
 40
0.0783879602
 40
0.0974988267
 40
0.1177765875
 40
0.1392165493
 40
0.1618029869
 40
0.1855107948
 40
0.2103068063
 40
0.2361508567
 40
0.2629966566
 40
0.290792519
 40
0.3194819799
 40
0.3490043366
 40
0.3792951257
 40
0.4102865548
 40
0.4419078992
 40
0.4740858736
 40
0.5067449829
 40
0.5398078594
 40
0.5731955883
 40
0.6068280255
 40
0.6406241092
 40
0.6745021683
 40
0.7083802274
 40
0.7421763111
 40
0.7758087483
 40
0.8091964772
 40
0.8422593537
 40
0.874918463
 40
0.9070964374
 40
0.9387177818
 40
0.9697092109
 40
1.0
 40
1.0
 40
1.0
 40
1.0
 10
-31.8273393828
 20
49.328064574
 30
0.0
 10
-31.7881246935
 20
49.3904686689
 30
0.0
 10
-31.6977572404
 20
49.5177044671
 30
0.0
 10
-31.5374438192
 20
49.7016196611
 30
0.0
 10
-31.3469048136
 20
49.8846173047
 30
0.0
 10
-31.1288011542
 20
50.0638255994
 30
0.0
 10
-30.8837166344
 20
50.238810895
 30
0.0
 10
-30.6123019107
 20
50.4091330949
 30
0.0
 10
-30.3152787112
 20
50.5743513094
 30
0.0
 10
-29.9934406331
 20
50.7340291019
 30
0.0
 10
-29.6476519766
 20
50.8877387927
 30
0.0
 10
-29.2788455163
 20
51.0350648409
 30
0.0
 10
-28.888019705
 20
51.1756064895
 30
0.0
 10
-28.4762355708
 20
51.3089798662
 30
0.0
 10
-28.0446134293
 20
51.4348196933
 30
0.0
 10
-27.5943294707
 20
51.5527807157
 30
0.0
 10
-27.1266122441
 20
51.6625389235
 30
0.0
 10
-26.6427390507
 20
51.7637926161
 30
0.0
 10
-26.1440322476
 20
51.8562633414
 30
0.0
 10
-25.6318554676
 20
51.9396967298
 30
0.0
 10
-25.1076097557
 20
52.0138632343
 30
0.0
 10
-24.5727296286
 20
52.0785587861
 30
0.0
 10
-24.0286790606
 20
52.1336053691
 30
0.0
 10
-23.4769474044
 20
52.1788515155
 30
0.0
 10
-22.9190452538
 20
52.2141727259
 30
0.0
 10
-22.3565002562
 20
52.2394718112
 30
0.0
 10
-21.7908528855
 20
52.2546791604
 30
0.0
 10
-21.2236521835
 20
52.2597529302
 30
0.0
 10
-20.6564514817
 20
52.2546791604
 30
0.0
 10
-20.0908041107
 20
52.2394718112
 30
0.0
 10
-19.5282591141
 20
52.214172726
 30
0.0
 10
-18.97035696
 20
52.1788515151
 30
0.0
 10
-18.4186253165
 20
52.1336053709
 30
0.0
 10
-17.8745747018
 20
52.0785587795
 30
0.0
 10
-17.339694745
 20
52.0138632584
 30
0.0
 10
-16.8154484142
 20
51.9396966423
 30
0.0
 10
-16.3032738747
 20
51.8562636578
 30
0.0
 10
-15.9667010297
 20
51.7938560048
 30
0.0
 10
-15.8007247778
 20
51.7610814342
 30
0.0
 11
-31.8273393828
 21
49.328064574
 31
0.0
 11
-31.6999434542
 21
49.5086489505
 31
0.0
 11
-31.5386730769
 21
49.6948582844
 31
0.0
 11
-31.3491299443
 21
49.8779256929
 31
0.0
 11
-31.1318335809
 21
50.0573494011
 31
0.0
 11
-30.8873795811
 21
50.232637621
 31
0.0
 11
-30.6164379761
 21
50.4033098998
 31
0.0
 11
-30.3197513982
 21
50.5688984367
 31
0.0
 11
-29.9981330446
 21
50.7289493649
 31
0.0
 11
-29.6524644489
 21
50.8830239961
 31
0.0
 11
-29.2836930646
 21
51.0307000223
 31
0.0
 11
-28.8928296686
 21
51.1715726739
 31
0.0
 11
-28.4809455901
 21
51.3052558286
 31
0.0
 11
-28.0491697748
 21
51.4313830703
 31
0.0
 11
-27.5986856903
 21
51.5496086929
 31
0.0
 11
-27.130728082
 21
51.6596086483
 31
0.0
 11
-26.6465795893
 21
51.7610814342
 31
0.0
 11
-26.1475672296
 21
51.8537489208
 31
0.0
 11
-25.6350587609
 21
51.9373571129
 31
0.0
 11
-25.1104589334
 21
52.0116768462
 31
0.0
 11
-24.5752056388
 21
52.0765044156
 31
0.0
 11
-24.0307659692
 21
52.1316621332
 31
0.0
 11
-23.4786321958
 21
52.1769988154
 31
0.0
 11
-22.9203176789
 21
52.2123901978
 31
0.0
 11
-22.3573527198
 21
52.2377392748
 31
0.0
 11
-21.7912803664
 21
52.2529765664
 31
0.0
 11
-21.2236521836
 21
52.2580603084
 31
0.0
 11
-20.6560240007
 21
52.2529765664
 31
0.0
 11
-20.0899516473
 21
52.2377392748
 31
0.0
 11
-19.5269866882
 21
52.2123901978
 31
0.0
 11
-18.9686721713
 21
52.1769988154
 31
0.0
 11
-18.4165383979
 21
52.1316621332
 31
0.0
 11
-17.8720987283
 21
52.0765044156
 31
0.0
 11
-17.3368454337
 21
52.0116768462
 31
0.0
 11
-16.8122456062
 21
51.9373571129
 31
0.0
 11
-16.2997371375
 21
51.8537489208
 31
0.0
 11
-15.8007247778
 21
51.7610814342
 31
0.0
  0
SPLINE
  5
3F7
100
AcDbEntity
  8
0
100
AcDbSpline
 62
7
  6
CONTINUOUS
 70
0
 71
3
 72
24
 73
20
 74
18
 42
0.0000001
 43
0.0000001
 44
0.0000000001
 12
4.9108664963
 22
-5.0272533344
 32
0.0
 13
-0.0
 23
-7.0257085402
 33
0.0
 40
0.0
 40
0.0
 40
0.0
 40
0.0
 40
0.019280552
 40
0.0648676545
 40
0.1124554174
 40
0.162153277
 40
0.2140356537
 40
0.268145498
 40
0.3244977229
 40
0.3830823728
 40
0.4438674685
 40
0.5068015245
 40
0.5718157608
 40
0.6388260463
 40
0.7077346123
 40
0.7784315739
 40
0.850796294
 40
0.9246986171
 40
1.0
 40
1.0
 40
1.0
 40
1.0
 10
70.2136590898
 20
2.4858138888
 30
0.0
 10
70.2452204955
 20
2.4535044823
 30
0.0
 10
70.3494091376
 20
2.3428491667
 30
0.0
 10
70.518586196
 20
2.1406728406
 30
0.0
 10
70.7139126784
 20
1.8686657001
 30
0.0
 10
70.8981011533
 20
1.5715423354
 30
0.0
 10
71.0706766145
 20
1.2501142135
 30
0.0
 10
71.2311895557
 20
0.9052546115
 30
0.0
 10
71.3792178227
 20
0.5378986704
 30
0.0
 10
71.5143687293
 20
0.1490424294
 30
0.0
 10
71.6362811286
 20
-0.2602589499
 30
0.0
 10
71.7446272919
 20
-0.6888935592
 30
0.0
 10
71.8391145406
 20
-1.1356955697
 30
0.0
 10
71.9194866262
 20
-1.5994483292
 30
0.0
 10
71.9855248737
 20
-2.0788878733
 30
0.0
 10
72.037049114
 20
-2.5727059183
 30
0.0
 10
72.0739184085
 20
-3.0795556915
 30
0.0
 10
72.0960316597
 20
-3.5980474555
 30
0.0
 10
72.1008537064
 20
-3.9474897688
 30
0.0
 10
72.1008537064
 20
-4.1238382918
 30
0.0
 11
70.2136590898
 21
2.4858138888
 31
0.0
 11
70.3065730038
 21
2.3871974601
 31
0.0
 11
70.5125150431
 21
2.141905306
 31
0.0
 11
70.7079467411
 21
1.8706338849
 31
0.0
 11
70.8923324332
 21
1.5741267329
 31
0.0
 11
71.0651667311
 21
1.2531965555
 31
0.0
 11
71.2259759079
 21
0.9087229999
 31
0.0
 11
71.3743191969
 21
0.5416502444
 31
0.0
 11
71.5097899993
 21
0.1529844097
 31
0.0
 11
71.6320169992
 21
-0.2562091981
 31
0.0
 11
71.7406651809
 21
-0.6848090078
 31
0.0
 11
71.8354367472
 21
-1.131640257
 31
0.0
 11
71.9160719359
 21
-1.5954782124
 31
0.0
 11
71.9823497315
 21
-2.0750515264
 31
0.0
 11
72.0340884712
 21
-2.5690457218
 31
0.0
 11
72.0711463426
 21
-3.076106795
 31
0.0
 11
72.0934217728
 21
-3.5948449267
 31
0.0
 11
72.1008537064
 21
-4.1238382918
 31
0.0
  0
SPLINE
  5
3F8
100
AcDbEntity
  8
0
100
AcDbSpline
 62
7
  6
CONTINUOUS
 70
0
 71
3
 72
39
 73
35
 74
33
 42
0.0000001
 43
0.0000001
 44
0.0000000001
 12
14.2189623703
 22
6.132493989
 32
0.0
 13
0.0
 23
15.480748563
 33
0.0
 40
0.0
 40
0.0
 40
0.0
 40
0.0
 40
0.0127630577
 40
0.033626447
 40
0.0554089365
 40
0.0781569317
 40
0.1019012628
 40
0.1266587921
 40
0.152433952
 40
0.1792201553
 40
0.2070010567
 40
0.2357516666
 40
0.2654393298
 40
0.2960245852
 40
0.3274619251
 40
0.3597004704
 40
0.3926845769
 40
0.4263543853
 40
0.4606463261
 40
0.4954935879
 40
0.5308265569
 40
0.5665732332
 40
0.6026596293
 40
0.6390101545
 40
0.6755479887
 40
0.7121954492
 40
0.7488743513
 40
0.7855063671
 40
0.8220133826
 40
0.8583178562
 40
0.8943431815
 40
0.9300140539
 40
0.9652568471
 40
1.0
 40
1.0
 40
1.0
 40
1.0
 10
66.2147597037
 20
-17.7652677273
 30
0.0
 10
66.2752521827
 20
-17.7391779358
 30
0.0
 10
66.4327883115
 20
-17.6661654098
 30
0.0
 10
66.6840579851
 20
-17.5291504169
 30
0.0
 10
66.968026267
 20
-17.3463456984
 30
0.0
 10
67.2510919905
 20
-17.1361834831
 30
0.0
 10
67.5325072874
 20
-16.8992468665
 30
0.0
 10
67.8115246411
 20
-16.6361860221
 30
0.0
 10
68.0873987415
 20
-16.3477187888
 30
0.0
 10
68.3593888854
 20
-16.0346304219
 30
0.0
 10
68.6267615902
 20
-15.6977726029
 30
0.0
 10
68.88879323
 20
-15.3380618454
 30
0.0
 10
69.1447725962
 20
-14.9564774261
 30
0.0
 10
69.3940033402
 20
-14.5540589435
 30
0.0
 10
69.635806286
 20
-14.1319035852
 30
0.0
 10
69.8695216124
 20
-13.6911631576
 30
0.0
 10
70.0945109126
 20
-13.2330409197
 30
0.0
 10
70.3101591381
 20
-12.758788251
 30
0.0
 10
70.5158764333
 20
-12.2697011747
 30
0.0
 10
70.7110998659
 20
-11.7671167529
 30
0.0
 10
70.8952950565
 20
-11.2524093695
 30
0.0
 10
71.0679577098
 20
-10.7269869125
 30
0.0
 10
71.228615047
 20
-10.1922868665
 30
0.0
 10
71.3768271399
 20
-9.6497723277
 30
0.0
 10
71.5121881462
 20
-9.1009279509
 30
0.0
 10
71.6343274437
 20
-8.5472558389
 30
0.0
 10
71.7429106626
 20
-7.9902713895
 30
0.0
 10
71.8376406131
 20
-7.4314990899
 30
0.0
 10
71.9182581076
 20
-6.8724683485
 30
0.0
 10
71.984542675
 20
-6.3147090794
 30
0.0
 10
72.0363131604
 20
-5.7597481419
 30
0.0
 10
72.0734282294
 20
-5.2091026166
 30
0.0
 10
72.0957866927
 20
-4.664284754
 30
0.0
 10
72.1008537064
 20
-4.3031216296
 30
0.0
 10
72.1008537064
 20
-4.1238382918
 30
0.0
 11
66.2147597037
 21
-17.7652677273
 31
0.0
 11
66.3941122092
 21
-17.6822929089
 31
0.0
 11
66.6779263006
 21
-17.5281299673
 31
0.0
 11
66.961740392
 21
-17.3460320933
 31
0.0
 11
67.2447765687
 21
-17.1364984044
 31
0.0
 11
67.5262590482
 21
-16.900103218
 31
0.0
 11
67.8054163067
 21
-16.6374944769
 31
0.0
 11
68.0814831934
 21
-16.3493919734
 31
0.0
 11
68.3537030282
 21
-16.0365853763
 31
0.0
 11
68.6213296755
 21
-15.6999320669
 31
0.0
 11
68.8836295892
 21
-15.3403547884
 31
0.0
 11
69.1398838236
 21
-14.9588391172
 31
0.0
 11
69.3893900035
 21
-14.5564307612
 31
0.0
 11
69.6314642498
 21
-14.1342326937
 31
0.0
 11
69.8654430539
 21
-13.6934021304
 31
0.0
 11
70.0906850962
 21
-13.2351473571
 31
0.0
 11
70.3065730038
 21
-12.7607244183
 31
0.0
 11
70.5125150431
 21
-12.2714336743
 31
0.0
 11
70.7079467411
 21
-11.7686162371
 31
0.0
 11
70.8923324332
 21
-11.2536502942
 31
0.0
 11
71.0651667311
 21
-10.7279473316
 31
0.0
 11
71.2259759079
 21
-10.1929482645
 31
0.0
 11
71.3743191969
 21
-9.6501194882
 31
0.0
 11
71.5097899993
 21
-9.1009488586
 31
0.0
 11
71.6320169992
 21
-8.5469416142
 31
0.0
 11
71.7406651809
 21
-7.9896162504
 31
0.0
 11
71.8354367472
 21
-7.4305003572
 31
0.0
 11
71.9160719359
 21
-6.8711264326
 31
0.0
 11
71.9823497315
 21
-6.3130276814
 31
0.0
 11
72.0340884712
 21
-5.7577338137
 31
0.0
 11
72.0711463426
 21
-5.2067668512
 31
0.0
 11
72.0934217728
 21
-4.6616369562
 31
0.0
 11
72.1008537064
 21
-4.1238382918
 31
0.0
  0
SPLINE
  5
3F9
100
AcDbEntity
  8
0
100
AcDbSpline
 62
7
  6
CONTINUOUS
 70
0
 71
3
 72
43
 73
39
 74
37
 42
0.0000001
 43
0.0000001
 44
0.0000000001
 12
8.9199248572
 22
14.1946766897
 32
0.0
 13
16.4382893251
 23
-3.2459937355
 33
0.0
 40
0.0
 40
0.0
 40
0.0
 40
0.0
 40
0.013188908
 40
0.0278905986
 40
0.0436174894
 40
0.0604355661
 40
0.0783879602
 40
0.0974988267
 40
0.1177765875
 40
0.1392165493
 40
0.1618029869
 40
0.1855107948
 40
0.2103068063
 40
0.2361508567
 40
0.2629966566
 40
0.290792519
 40
0.3194819799
 40
0.3490043366
 40
0.3792951257
 40
0.4102865548
 40
0.4419078992
 40
0.4740858736
 40
0.5067449829
 40
0.5398078594
 40
0.5731955883
 40
0.6068280255
 40
0.6406241092
 40
0.6745021683
 40
0.7083802274
 40
0.7421763111
 40
0.7758087483
 40
0.8091964772
 40
0.8422593537
 40
0.874918463
 40
0.9070964374
 40
0.9387177818
 40
0.9697092109
 40
1.0
 40
1.0
 40
1.0
 40
1.0
 10
-2.3824756542
 20
43.5137221375
 30
0.0
 10
-2.3432609648
 20
43.5761262324
 30
0.0
 10
-2.2528935117
 20
43.7033620306
 30
0.0
 10
-2.0925800905
 20
43.8872772246
 30
0.0
 10
-1.9020410849
 20
44.0702748682
 30
0.0
 10
-1.6839374255
 20
44.2494831629
 30
0.0
 10
-1.4388529057
 20
44.4244684584
 30
0.0
 10
-1.167438182
 20
44.5947906584
 30
0.0
 10
-0.8704149826
 20
44.7600088729
 30
0.0
 10
-0.5485769044
 20
44.9196866654
 30
0.0
 10
-0.202788248
 20
45.0733963562
 30
0.0
 10
0.1660182124
 20
45.2207224044
 30
0.0
 10
0.5568440236
 20
45.361264053
 30
0.0
 10
0.9686281579
 20
45.4946374297
 30
0.0
 10
1.4002502994
 20
45.6204772567
 30
0.0
 10
1.850534258
 20
45.7384382792
 30
0.0
 10
2.3182514845
 20
45.848196487
 30
0.0
 10
2.802124678
 20
45.9494501795
 30
0.0
 10
3.3008314811
 20
46.0419209048
 30
0.0
 10
3.8130082611
 20
46.1253542932
 30
0.0
 10
4.3372539729
 20
46.1995207977
 30
0.0
 10
4.8721341001
 20
46.2642163496
 30
0.0
 10
5.4161846681
 20
46.3192629325
 30
0.0
 10
5.9679163243
 20
46.364509079
 30
0.0
 10
6.5258184749
 20
46.3998302893
 30
0.0
 10
7.0883634725
 20
46.4251293747
 30
0.0
 10
7.6540108432
 20
46.4403367238
 30
0.0
 10
8.2212115451
 20
46.4454104937
 30
0.0
 10
8.788412247
 20
46.4403367238
 30
0.0
 10
9.3540596179
 20
46.4251293747
 30
0.0
 10
9.9166046146
 20
46.3998302895
 30
0.0
 10
10.4745067687
 20
46.3645090785
 30
0.0
 10
11.0262384121
 20
46.3192629344
 30
0.0
 10
11.5702890268
 20
46.264216343
 30
0.0
 10
12.1051689837
 20
46.1995208218
 30
0.0
 10
12.6294153144
 20
46.1253542057
 30
0.0
 10
13.141589854
 20
46.0419212213
 30
0.0
 10
13.4781626989
 20
45.9795135683
 30
0.0
 10
13.6441389509
 20
45.9467389977
 30
0.0
 11
-2.3824756542
 21
43.5137221375
 31
0.0
 11
-2.2550797256
 21
43.694306514
 31
0.0
 11
-2.0938093482
 21
43.8805158478
 31
0.0
 11
-1.9042662156
 21
44.0635832564
 31
0.0
 11
-1.6869698522
 21
44.2430069645
 31
0.0
 11
-1.4425158524
 21
44.4182951845
 31
0.0
 11
-1.1715742475
 21
44.5889674633
 31
0.0
 11
-0.8748876696
 21
44.7545560001
 31
0.0
 11
-0.553269316
 21
44.9146069284
 31
0.0
 11
-0.2076007202
 21
45.0686815595
 31
0.0
 11
0.161170664
 21
45.2163575858
 31
0.0
 11
0.5520340601
 21
45.3572302373
 31
0.0
 11
0.9639181386
 21
45.4909133921
 31
0.0
 11
1.3956939538
 21
45.6170406338
 31
0.0
 11
1.8461780384
 21
45.7352662564
 31
0.0
 11
2.3141356466
 21
45.8452662118
 31
0.0
 11
2.7982841393
 21
45.9467389977
 31
0.0
 11
3.2972964991
 21
46.0394064843
 31
0.0
 11
3.8098049678
 21
46.1230146763
 31
0.0
 11
4.3344047952
 21
46.1973344097
 31
0.0
 11
4.8696580898
 21
46.262161979
 31
0.0
 11
5.4140977595
 21
46.3173196966
 31
0.0
 11
5.9662315329
 21
46.3626563789
 31
0.0
 11
6.5245460498
 21
46.3980477612
 31
0.0
 11
7.0875110088
 21
46.4233968382
 31
0.0
 11
7.6535833623
 21
46.4386341299
 31
0.0
 11
8.2212115451
 21
46.4437178718
 31
0.0
 11
8.788839728
 21
46.4386341299
 31
0.0
 11
9.3549120814
 21
46.4233968382
 31
0.0
 11
9.9178770405
 21
46.3980477612
 31
0.0
 11
10.4761915574
 21
46.3626563789
 31
0.0
 11
11.0283253308
 21
46.3173196966
 31
0.0
 11
11.5727650004
 21
46.262161979
 31
0.0
 11
12.108018295
 21
46.1973344097
 31
0.0
 11
12.6326181225
 21
46.1230146763
 31
0.0
 11
13.1451265911
 21
46.0394064843
 31
0.0
 11
13.6441389509
 21
45.9467389977
 31
0.0
  0
SPLINE
  5
3FA
100
AcDbEntity
  8
0
100
AcDbSpline
 62
7
  6
CONTINUOUS
 70
0
 71
3
 72
23
 73
19
 74
17
 42
0.0000001
 43
0.0000001
 44
0.0000000001
 12
-3.1130924572
 22
4.9540037213
 32
0.0
 13
-5.7370342607
 23
1.1328658903
 33
0.0
 40
0.0
 40
0.0
 40
0.0
 40
0.0
 40
0.0377900977
 40
0.0799147622
 40
0.1249769266
 40
0.1731656594
 40
0.2246045448
 40
0.2793627944
 40
0.3374645388
 40
0.3988963309
 40
0.4636131129
 40
0.5315429506
 40
0.6025908111
 40
0.6766416115
 40
0.7535627184
 40
0.8332060337
 40
0.9154097711
 40
1.0
 40
1.0
 40
1.0
 40
1.0
 10
18.8248987444
 20
43.5137221375
 30
0.0
 10
18.785684055
 20
43.5761262324
 30
0.0
 10
18.695316602
 20
43.7033620306
 30
0.0
 10
18.5350031808
 20
43.8872772246
 30
0.0
 10
18.3444641752
 20
44.0702748682
 30
0.0
 10
18.1263605157
 20
44.2494831629
 30
0.0
 10
17.881275996
 20
44.4244684584
 30
0.0
 10
17.6098612722
 20
44.5947906584
 30
0.0
 10
17.3128380728
 20
44.7600088729
 30
0.0
 10
16.9909999945
 20
44.9196866654
 30
0.0
 10
16.6452113386
 20
45.0733963561
 30
0.0
 10
16.2764048762
 20
45.2207224047
 30
0.0
 10
15.8855790734
 20
45.3612640517
 30
0.0
 10
15.4737949055
 20
45.4946374345
 30
0.0
 10
15.0421728967
 20
45.6204772376
 30
0.0
 10
14.5918884165
 20
45.7384383541
 30
0.0
 10
14.1241732306
 20
45.8481961941
 30
0.0
 10
13.8059046313
 20
45.9147958694
 30
0.0
 10
13.6441389509
 20
45.9467389977
 30
0.0
 11
18.8248987444
 21
43.5137221375
 31
0.0
 11
18.6975028158
 21
43.694306514
 31
0.0
 11
18.5362324385
 21
43.8805158478
 31
0.0
 11
18.3466893058
 21
44.0635832564
 31
0.0
 11
18.1293929425
 21
44.2430069645
 31
0.0
 11
17.8849389426
 21
44.4182951845
 31
0.0
 11
17.6139973377
 21
44.5889674633
 31
0.0
 11
17.3173107598
 21
44.7545560001
 31
0.0
 11
16.9956924062
 21
44.9146069284
 31
0.0
 11
16.6500238105
 21
45.0686815595
 31
0.0
 11
16.2812524262
 21
45.2163575858
 31
0.0
 11
15.8903890301
 21
45.3572302373
 31
0.0
 11
15.4785049517
 21
45.4909133921
 31
0.0
 11
15.0467291364
 21
45.6170406338
 31
0.0
 11
14.5962450519
 21
45.7352662564
 31
0.0
 11
14.1282874436
 21
45.8452662118
 31
0.0
 11
13.6441389509
 21
45.9467389977
 31
0.0
  0
SPLINE
  5
3FB
100
AcDbEntity
  8
0
100
AcDbSpline
 62
7
  6
CONTINUOUS
 70
0
 71
3
 72
14
 73
10
 74
8
 42
0.0000001
 43
0.0000001
 44
0.0000000001
 12
0.518892866
 22
1.4017936964
 32
0.0
 13
1.1940574807
 23
0.8976159035
 33
0.0
 40
0.0
 40
0.0
 40
0.0
 40
0.0
 40
0.0318504515
 40
0.1803470423
 40
0.33746705
 40
0.5047728656
 40
0.6834620534
 40
0.8744089481
 40
1.0
 40
1.0
 40
1.0
 40
1.0
 10
-32.63255335
 20
48.3848627778
 30
0.0
 10
-32.6270443593
 20
48.3997453652
 30
0.0
 10
-32.5945928479
 20
48.4835480984
 30
0.0
 10
-32.5210620007
 20
48.6351005163
 30
0.0
 10
-32.3935954652
 20
48.8336375714
 30
0.0
 10
-32.236614105
 20
49.0293331574
 30
0.0
 10
-32.0505939353
 20
49.2217659921
 30
0.0
 10
-31.8653077412
 20
49.3847677242
 30
0.0
 10
-31.7412250986
 20
49.4820084637
 30
0.0
 10
-31.6912374536
 20
49.5195859722
 30
0.0
 11
-32.63255335
 21
48.3848627778
 31
0.0
 11
-32.6153685913
 21
48.4292578965
 31
0.0
 11
-32.5192150354
 21
48.6291152592
 31
0.0
 11
-32.3931076774
 21
48.8270146754
 31
0.0
 11
-32.2373809314
 21
49.0224313513
 31
0.0
 11
-32.0524477566
 21
49.2148470771
 31
0.0
 11
-31.8387985627
 21
49.4037516008
 31
0.0
 11
-31.6912374536
 21
49.5195859722
 31
0.0
  0
SPLINE
  5
3FC
100
AcDbEntity
  8
0
100
AcDbSpline
 62
7
  6
CONTINUOUS
 70
0
 71
3
 72
18
 73
14
 74
12
 42
0.0000001
 43
0.0000001
 44
0.0000000001
 12
2.9490436432
 22
-1.1116084818
 32
0.0
 13
1.3314833231
 23
-2.8552071871
 33
0.0
 40
0.0
 40
0.0
 40
0.0
 40
0.0
 40
0.0226802036
 40
0.1131150999
 40
0.2057335904
 40
0.3012094733
 40
0.4001293982
 40
0.5029866288
 40
0.6101808344
 40
0.7220220538
 40
0.838737101
 40
0.9604770752
 40
1.0
 40
1.0
 40
1.0
 40
1.0
 10
68.707541273
 20
3.9489731268
 30
0.0
 10
68.7298362431
 20
3.9405692913
 30
0.0
 10
68.8404584932
 20
3.8971411512
 30
0.0
 10
69.0361296612
 20
3.8046740992
 30
0.0
 10
69.2867864528
 20
3.653053787
 30
0.0
 10
69.5286844126
 20
3.4725655611
 30
0.0
 10
69.7612016254
 20
3.2637524869
 30
0.0
 10
69.9837556053
 20
3.0272149912
 30
0.0
 10
70.1957956579
 20
2.7636090703
 30
0.0
 10
70.3967978895
 20
2.473647549
 30
0.0
 10
70.5862630315
 20
2.1581022592
 30
0.0
 10
70.7212964744
 20
1.8991531094
 30
0.0
 10
70.7941697436
 20
1.7462798743
 30
0.0
 10
70.8117111153
 20
1.7086644947
 30
0.0
 11
68.707541273
 21
3.9489731268
 31
0.0
 11
68.7740747903
 21
3.9228561661
 31
0.0
 11
69.0317671266
 21
3.8014151222
 31
0.0
 11
69.2816099196
 21
3.6507561418
 31
0.0
 11
69.5229406311
 21
3.4712787456
 31
0.0
 11
69.7551192954
 21
3.2634588752
 31
0.0
 11
69.9775302166
 21
3.0278476316
 31
0.0
 11
70.1895836007
 21
2.7650698135
 31
0.0
 11
70.3907171204
 21
2.4758222605
 31
0.0
 11
70.5803974057
 21
2.1608720049
 31
0.0
 11
70.7581214586
 21
1.8210542384
 31
0.0
 11
70.8117111153
 21
1.7086644947
 31
0.0
  0
SPLINE
  5
3FD
100
AcDbEntity
  8
0
100
AcDbSpline
 62
7
  6
CONTINUOUS
 70
0
 71
3
 72
17
 73
13
 74
11
 42
0.0000001
 43
0.0000001
 44
0.0000000001
 12
3.1114919556
 22
-0.0492231767
 32
0.0
 13
2.2888185127
 23
2.1067669708
 33
0.0
 40
0.0
 40
0.0
 40
0.0
 40
0.0
 40
0.0525338613
 40
0.1450279396
 40
0.2400511036
 40
0.3382472161
 40
0.4401681671
 40
0.54627053
 40
0.6569174893
 40
0.7723841649
 40
0.8928647439
 40
1.0
 40
1.0
 40
1.0
 40
1.0
 10
64.3012302885
 20
-18.5469162154
 30
0.0
 10
64.3557165174
 20
-18.5477781765
 30
0.0
 10
64.5062098237
 20
-18.5454992871
 30
0.0
 10
64.7543284435
 20
-18.5210144204
 30
0.0
 10
65.0451953124
 20
-18.4624933795
 30
0.0
 10
65.3385793584
 20
-18.3740527728
 30
0.0
 10
65.6337063167
 20
-18.2559900473
 30
0.0
 10
65.929813679
 20
-18.1086680465
 30
0.0
 10
66.2261446733
 20
-17.9325124099
 30
0.0
 10
66.5219441473
 20
-17.728011928
 30
0.0
 10
66.8014035576
 20
-17.5075930205
 30
0.0
 10
66.978689169
 20
-17.3516851159
 30
0.0
 10
67.0604268881
 20
-17.2764487763
 30
0.0
 11
64.3012302885
 21
-18.5469162154
 31
0.0
 11
64.4646661175
 21
-18.5444852391
 31
0.0
 11
64.7510040007
 21
-18.5165811339
 31
0.0
 11
65.0408441548
 21
-18.4587116511
 31
0.0
 11
65.3334179758
 21
-18.3710302502
 31
0.0
 11
65.6279496107
 21
-18.2537694466
 31
0.0
 11
65.9236580144
 21
-18.1072401948
 31
0.0
 11
66.2197590214
 21
-17.931831064
 31
0.0
 11
66.5154674251
 21
-17.7280072078
 31
0.0
 11
66.80999906
 21
-17.4963091303
 31
0.0
 11
67.0604268881
 21
-17.2764487763
 31
0.0
  0
SPLINE
  5
3FE
100
AcDbEntity
  8
0
100
AcDbSpline
 62
7
  6
CONTINUOUS
 70
0
 71
3
 72
14
 73
10
 74
8
 42
0.0000001
 43
0.0000001
 44
0.0000000001
 12
0.518892866
 22
1.4017936964
 32
0.0
 13
1.1940574807
 23
0.8976159035
 33
0.0
 40
0.0
 40
0.0
 40
0.0
 40
0.0
 40
0.0318504515
 40
0.1803470423
 40
0.33746705
 40
0.5047728656
 40
0.6834620534
 40
0.8744089481
 40
1.0
 40
1.0
 40
1.0
 40
1.0
 10
-3.1876896213
 20
42.5705203413
 30
0.0
 10
-3.1821806306
 20
42.5854029287
 30
0.0
 10
-3.1497291192
 20
42.6692056619
 30
0.0
 10
-3.076198272
 20
42.8207580797
 30
0.0
 10
-2.9487317365
 20
43.0192951348
 30
0.0
 10
-2.7917503763
 20
43.2149907209
 30
0.0
 10
-2.6057302066
 20
43.4074235556
 30
0.0
 10
-2.4204440125
 20
43.5704252877
 30
0.0
 10
-2.29636137
 20
43.6676660271
 30
0.0
 10
-2.246373725
 20
43.7052435356
 30
0.0
 11
-3.1876896213
 21
42.5705203413
 31
0.0
 11
-3.1705048626
 21
42.61491546
 31
0.0
 11
-3.0743513067
 21
42.8147728227
 31
0.0
 11
-2.9482439487
 21
43.0126722388
 31
0.0
 11
-2.7925172027
 21
43.2080889147
 31
0.0
 11
-2.607584028
 21
43.4005046405
 31
0.0
 11
-2.393934834
 21
43.5894091643
 31
0.0
 11
-2.246373725
 21
43.7052435356
 31
0.0
  0
SPLINE
  5
3FF
100
AcDbEntity
  8
0
100
AcDbSpline
 62
7
  6
CONTINUOUS
 70
0
 71
3
 72
14
 73
10
 74
8
 42
0.0000001
 43
0.0000001
 44
0.0000000001
 12
-0.48960223
 22
1.4654806012
 32
0.0
 13
-1.234267287
 23
0.9278466683
 33
0.0
 40
0.0
 40
0.0
 40
0.0
 40
0.0
 40
0.0170399657
 40
0.1583185625
 40
0.307353166
 40
0.4657787007
 40
0.6348675723
 40
0.8155647834
 40
1.0
 40
1.0
 40
1.0
 40
1.0
 10
19.6468303324
 20
42.5230536758
 30
0.0
 10
19.6440493973
 20
42.5313775889
 30
0.0
 10
19.6175535051
 20
42.6084933567
 30
0.0
 10
19.5544716406
 20
42.754022437
 30
0.0
 10
19.4369460007
 20
42.9534108159
 30
0.0
 10
19.2897511387
 20
43.1501006367
 30
0.0
 10
19.113355982
 20
43.3436678452
 30
0.0
 10
18.9114817703
 20
43.5307023535
 30
0.0
 10
18.7646728737
 20
43.6482015489
 30
0.0
 10
18.6887920889
 20
43.7052440826
 30
0.0
 11
19.6468303324
 21
42.5230536758
 31
0.0
 11
19.6382763645
 21
42.5479527197
 31
0.0
 11
19.552168016
 21
42.7483451727
 31
0.0
 11
19.4360120079
 21
42.9469558332
 31
0.0
 11
19.2901163651
 21
43.1432580217
 31
0.0
 11
19.1148679766
 21
43.3367311799
 31
0.0
 11
18.9107315695
 21
43.5268622518
 31
0.0
 11
18.6887920889
 21
43.7052440826
 31
0.0
  0
SPLINE
  5
400
100
AcDbEntity
  8
RACCORDO
100
AcDbSpline
 62
253
  6
CONTINUOUS
 70
0
 71
3
 72
13
 73
9
 74
7
 42
0.0000001
 43
0.0000001
 44
0.0000000001
 12
-0.000090486
 22
-0.2222716291
 32
0.0
 13
-0.1896252855
 23
-0.1146320037
 33
0.0
 40
0.0
 40
0.0
 40
0.0
 40
0.0
 40
0.085629233
 40
0.2327894555
 40
0.3931003139
 40
0.5722919004
 40
0.7739609768
 40
1.0
 40
1.0
 40
1.0
 40
1.0
 10
74.4501232117
 20
-40.0175412388
 30
0.0
 10
74.4501206289
 20
-40.0238855551
 30
0.0
 10
74.4487270099
 20
-40.0411359765
 30
0.0
 10
74.4401207746
 20
-40.069190977
 30
0.0
 10
74.4217906715
 20
-40.1004162105
 30
0.0
 10
74.3953574339
 20
-40.1306428545
 30
0.0
 10
74.3611137289
 20
-40.1597595281
 30
0.0
 10
74.3347740103
 20
-40.1773200441
 30
0.0
 10
74.3204864389
 20
-40.1859571461
 30
0.0
 11
74.4501232117
 21
-40.0175412388
 31
0.0
 11
74.4485943475
 21
-40.0364902067
 31
0.0
 11
74.439297837
 21
-40.0677448531
 31
0.0
 11
74.4216555442
 21
-40.0985758985
 31
0.0
 11
74.3958163202
 21
-40.1287232156
 31
0.0
 11
74.3619981751
 21
-40.157932446
 31
0.0
 11
74.3204864389
 21
-40.1859571461
 31
0.0
  0
SPLINE
  5
401
100
AcDbEntity
  8
RACCORDO
100
AcDbSpline
 62
7
  6
CONTINUOUS
 70
0
 71
3
 72
12
 73
8
 74
6
 42
0.0000001
 43
0.0000001
 44
0.0000000001
 12
0.1741433219
 22
0.1031618535
 32
0.0
 13
0.1988856032
 23
-0.0393093919
 33
0.0
 40
0.0
 40
0.0
 40
0.0
 40
0.0
 40
0.2553958531
 40
0.4933833921
 40
0.7179918867
 40
0.9344879038
 40
1.0
 40
1.0
 40
1.0
 40
1.0
 10
-24.9819824327
 20
54.5098929482
 30
0.0
 10
-24.967157272
 20
54.518675318
 30
0.0
 10
-24.9374184799
 20
54.5339037646
 30
0.0
 10
-24.8913121753
 20
54.5494011679
 30
0.0
 10
-24.8457883087
 20
54.5564558211
 30
0.0
 10
-24.8114122216
 20
54.5552477265
 30
0.0
 10
-24.7926064194
 20
54.5521132627
 30
0.0
 10
-24.7882632818
 20
54.5512548491
 30
0.0
 11
-24.9819824327
 21
54.5098929482
 31
0.0
 11
-24.935848253
 21
54.5332141009
 31
0.0
 11
-24.8901076738
 21
54.5483191596
 31
0.0
 11
-24.8451509377
 21
54.5550792534
 31
0.0
 11
-24.8013615997
 21
54.5534367074
 31
0.0
 11
-24.7882632818
 21
54.5512548491
 31
0.0
  0
SPLINE
  5
402
100
AcDbEntity
  8
RACCORDO
100
AcDbSpline
 62
253
  6
CONTINUOUS
 70
0
 71
3
 72
18
 73
14
 74
12
 42
0.0000001
 43
0.0000001
 44
0.0000000001
 12
0.0035883283
 22
-1.1752277275
 32
0.0
 13
-0.9858078664
 23
-0.6407287771
 33
0.0
 40
0.0
 40
0.0
 40
0.0
 40
0.0
 40
0.0981757199
 40
0.1947796776
 40
0.2897711594
 40
0.3831554826
 40
0.4749842433
 40
0.5653547255
 40
0.6544097213
 40
0.7423350369
 40
0.8293553138
 40
0.9157269339
 40
1.0
 40
1.0
 40
1.0
 40
1.0
 10
74.3204864228
 20
-40.1859519978
 30
0.0
 10
74.3206038517
 20
-40.2244116072
 30
0.0
 10
74.3179393862
 20
-40.30075943
 30
0.0
 10
74.3050319328
 20
-40.413656698
 30
0.0
 10
74.2833274196
 20
-40.5232978912
 30
0.0
 10
74.2529675405
 20
-40.6289246231
 30
0.0
 10
74.214152591
 20
-40.7298162778
 30
0.0
 10
74.1671405872
 20
-40.825279813
 30
0.0
 10
74.1122463925
 20
-40.9146575523
 30
0.0
 10
74.0498403295
 20
-40.9973311609
 30
0.0
 10
73.9803465427
 20
-41.0727265227
 30
0.0
 10
73.904748307
 20
-41.1398677648
 30
0.0
 10
73.8504906529
 20
-41.1791080833
 30
0.0
 10
73.8227983024
 20
-41.1971068095
 30
0.0
 11
74.3204864228
 21
-40.1859519978
 31
0.0
 11
74.3163906009
 21
-40.3012586426
 31
0.0
 11
74.303420043
 21
-40.4140474731
 31
0.0
 11
74.2816632092
 21
-40.523544012
 31
0.0
 11
74.2512688787
 21
-40.6289996265
 31
0.0
 11
74.2124445621
 21
-40.7296944322
 31
0.0
 11
74.1654554736
 21
-40.8249405511
 31
0.0
 11
74.1106226049
 21
-40.9140873591
 31
0.0
 11
74.0483205547
 21
-40.996525893
 31
0.0
 11
73.9789747432
 21
-41.0716932469
 31
0.0
 11
73.9030589327
 21
-41.1390758808
 31
0.0
 11
73.8227983024
 21
-41.1971068095
 31
0.0
  0
SPLINE
  5
403
100
AcDbEntity
  8
RACCORDO
100
AcDbSpline
 62
253
  6
CONTINUOUS
 70
0
 71
3
 72
26
 73
22
 74
20
 42
0.0000001
 43
0.0000001
 44
0.0000000001
 12
2.2342751174
 22
-0.4354102535
 32
0.0
 13
-0.0069230578
 23
-2.2762951172
 33
0.0
 40
0.0
 40
0.0
 40
0.0
 40
0.0
 40
0.0486129205
 40
0.0980428638
 40
0.1482839284
 40
0.1993101948
 40
0.2510764622
 40
0.3035194459
 40
0.3565601596
 40
0.4101061928
 40
0.464054275
 40
0.5182923725
 40
0.5727025226
 40
0.6271630545
 40
0.6815514573
 40
0.7357465529
 40
0.7896311771
 40
0.8430946728
 40
0.8960356342
 40
0.9483635824
 40
1.0
 40
1.0
 40
1.0
 40
1.0
 10
73.0214930266
 20
36.0157635484
 30
0.0
 10
73.0576979062
 20
36.0087080271
 30
0.0
 10
73.1301315306
 20
35.9912915586
 30
0.0
 10
73.2370649708
 20
35.9559165244
 30
0.0
 10
73.3424851959
 20
35.91131635
 30
0.0
 10
73.4456643641
 20
35.857801753
 30
0.0
 10
73.5459054839
 20
35.7957401299
 30
0.0
 10
73.6425279996
 20
35.7255566699
 30
0.0
 10
73.7348767827
 20
35.6477309022
 30
0.0
 10
73.8223253812
 20
35.5627936783
 30
0.0
 10
73.9042804402
 20
35.4713236987
 30
0.0
 10
73.9801856864
 20
35.3739436253
 30
0.0
 10
74.0495255782
 20
35.2713161029
 30
0.0
 10
74.1118289809
 20
35.164139086
 30
0.0
 10
74.1666722236
 20
35.0531412933
 30
0.0
 10
74.2136820158
 20
34.9390772691
 30
0.0
 10
74.2525379043
 20
34.8227221406
 30
0.0
 10
74.2829745092
 20
34.704867196
 30
0.0
 10
74.3047830864
 20
34.5863108835
 30
0.0
 10
74.3178130523
 20
34.4678698181
 30
0.0
 10
74.3206055808
 20
34.3889459231
 30
0.0
 10
74.3204864202
 20
34.3497660147
 30
0.0
 11
73.0214930266
 21
36.0157635484
 31
0.0
 11
73.1291023467
 21
35.9899682503
 31
0.0
 11
73.2359507818
 21
35.9547030338
 31
0.0
 11
73.3413046869
 21
35.9102093997
 31
0.0
 11
73.4444438035
 21
35.8567915625
 31
0.0
 11
73.5446640348
 21
35.7948142118
 31
0.0
 11
73.641280753
 21
35.7247007241
 31
0.0
 11
73.7336339678
 21
35.6469300552
 31
0.0
 11
73.8210928075
 21
35.5620334963
 31
0.0
 11
73.9030600849
 21
35.4705907481
 31
0.0
 11
73.978975804
 21
35.3732265379
 31
0.0
 11
74.0483215176
 21
35.2706057896
 31
0.0
 11
74.1106234629
 21
35.1634296028
 31
0.0
 11
74.1654562182
 21
35.0524298058
 31
0.0
 11
74.2124451906
 21
34.9383646425
 31
0.0
 11
74.2512693877
 21
34.822013296
 31
0.0
 11
74.2816635939
 21
34.7041705984
 31
0.0
 11
74.3034202983
 21
34.5856410241
 31
0.0
 11
74.3163907298
 21
34.4672349046
 31
0.0
 11
74.3204864202
 21
34.3497660147
 31
0.0
  0
SPLINE
  5
404
100
AcDbEntity
  8
0
100
AcDbSpline
 62
7
  6
CONTINUOUS
 70
0
 71
3
 72
11
 73
7
 74
5
 42
0.0000001
 43
0.0000001
 44
0.0000000001
 12
-0.0483897418
 22
0.7745446193
 32
0.0
 13
-0.4128103988
 23
0.6568676634
 33
0.0
 40
0.0
 40
0.0
 40
0.0
 40
0.0
 40
0.236578044
 40
0.5005614416
 40
0.7757484354
 40
1.0
 40
1.0
 40
1.0
 40
1.0
 10
19.4686485041
 20
42.158553932
 30
0.0
 10
19.4648325206
 20
42.2196340157
 30
0.0
 10
19.4477538729
 20
42.3483046975
 30
0.0
 10
19.3935967791
 20
42.5420439475
 30
0.0
 10
19.3149040465
 20
42.7235871075
 30
0.0
 10
19.2508701089
 20
42.8358943026
 30
0.0
 10
19.2200123163
 20
42.884995503
 30
0.0
 11
19.4686485041
 21
42.158553932
 31
0.0
 11
19.4446979016
 21
42.3404429736
 31
0.0
 11
19.3900793032
 21
42.5377022741
 31
0.0
 11
19.3058428753
 21
42.7337383693
 31
0.0
 11
19.2200123163
 21
42.884995503
 31
0.0
  0
SPLINE
  5
405
100
AcDbEntity
  8
0
100
AcDbSpline
 62
7
  6
CONTINUOUS
 70
0
 71
3
 72
24
 73
20
 74
18
 42
0.0000001
 43
0.0000001
 44
0.0000000001
 12
-3.6075026772
 22
1.6977961767
 32
0.0
 13
2.1223502429
 23
3.377391178
 33
0.0
 40
0.0
 40
0.0
 40
0.0
 40
0.0
 40
0.0903214627
 40
0.1755458986
 40
0.2558660505
 40
0.3313173134
 40
0.4020012078
 40
0.4680990088
 40
0.5298880447
 40
0.5877598613
 40
0.6422377601
 40
0.6939885627
 40
0.7438206149
 40
0.7926595393
 40
0.8414984637
 40
0.8913305159
 40
0.9430813185
 40
0.9975592173
 40
1.0
 40
1.0
 40
1.0
 40
1.0
 10
-0.5525028577
 20
40.5534664179
 30
0.0
 10
-0.6611144972
 20
40.6045822292
 30
0.0
 10
-0.870168134
 20
40.7082879281
 30
0.0
 10
-1.1674381821
 20
40.8736434509
 30
0.0
 10
-1.4388529057
 20
41.043965651
 30
0.0
 10
-1.6839374255
 20
41.2189509465
 30
0.0
 10
-1.9020410849
 20
41.3981592412
 30
0.0
 10
-2.0925800905
 20
41.5811568848
 30
0.0
 10
-2.2550280021
 20
41.7675208145
 30
0.0
 10
-2.3888996711
 20
41.9568366436
 30
0.0
 10
-2.4937312833
 20
42.1486828699
 30
0.0
 10
-2.5690687701
 20
42.3425935403
 30
0.0
 10
-2.6144886175
 20
42.5380044669
 30
0.0
 10
-2.6296694874
 20
42.7342170547
 30
0.0
 10
-2.6144886175
 20
42.9304296425
 30
0.0
 10
-2.5690687701
 20
43.125840569
 30
0.0
 10
-2.4937312833
 20
43.3197512395
 30
0.0
 10
-2.4243104347
 20
43.4467942903
 30
0.0
 10
-2.3842023861
 20
43.5109743115
 30
0.0
 10
-2.3824756542
 20
43.5137221375
 30
0.0
 11
-0.5525028577
 21
40.5534664179
 31
0.0
 11
-0.8748876696
 21
40.7138781093
 31
0.0
 11
-1.1715742475
 21
40.8794666461
 31
0.0
 11
-1.4425158524
 21
41.0501389249
 31
0.0
 11
-1.6869698522
 21
41.2254271448
 31
0.0
 11
-1.9042662156
 21
41.404850853
 31
0.0
 11
-2.0938093482
 21
41.5879182616
 31
0.0
 11
-2.2550797256
 21
41.7741275954
 31
0.0
 11
-2.3876353167
 21
41.9629684677
 31
0.0
 11
-2.4911127961
 21
42.1539232788
 31
0.0
 11
-2.565228539
 21
42.3464686348
 31
0.0
 11
-2.6097793994
 21
42.5400767822
 31
0.0
 11
-2.6246432664
 21
42.7342170547
 31
0.0
 11
-2.6097793994
 21
42.9283573271
 31
0.0
 11
-2.565228539
 21
43.1219654746
 31
0.0
 11
-2.4911127961
 21
43.3145108306
 31
0.0
 11
-2.3876353167
 21
43.5054656417
 31
0.0
 11
-2.3824756542
 21
43.5137221375
 31
0.0
  0
SPLINE
  5
406
100
AcDbEntity
  8
0
100
AcDbSpline
 62
7
  6
CONTINUOUS
 70
0
 71
3
 72
28
 73
24
 74
22
 42
0.0000001
 43
0.0000001
 44
0.0000000001
 12
5.0319665482
 22
1.6693512601
 32
0.0
 13
-2.8222287573
 23
4.4911392636
 33
0.0
 40
0.0
 40
0.0
 40
0.0
 40
0.0
 40
0.0234600736
 40
0.1018302475
 40
0.1767610499
 40
0.2481476536
 40
0.3159107107
 40
0.3800005199
 40
0.4404022479
 40
0.4971425124
 40
0.550297658
 40
0.6000040057
 40
0.6464701099
 40
0.6899904176
 40
0.730958458
 40
0.769875689
 40
0.8073499964
 40
0.8440774597
 40
0.880804923
 40
0.9182792304
 40
0.9571964614
 40
0.9981645018
 40
1.0
 40
1.0
 40
1.0
 40
1.0
 10
15.7725197926
 20
40.0714998487
 30
0.0
 10
15.8118698944
 20
40.0845542165
 30
0.0
 10
15.9824150544
 20
40.1419924478
 30
0.0
 10
16.2764048779
 20
40.247711705
 30
0.0
 10
16.6452113382
 20
40.3950377532
 30
0.0
 10
16.9909999946
 20
40.548747444
 30
0.0
 10
17.3128380728
 20
40.7084252365
 30
0.0
 10
17.6098612723
 20
40.873643451
 30
0.0
 10
17.881275996
 20
41.043965651
 30
0.0
 10
18.1263605157
 20
41.2189509465
 30
0.0
 10
18.3444641752
 20
41.3981592412
 30
0.0
 10
18.5350031808
 20
41.5811568848
 30
0.0
 10
18.6974510923
 20
41.7675208145
 30
0.0
 10
18.8313227614
 20
41.9568366436
 30
0.0
 10
18.9361543735
 20
42.1486828699
 30
0.0
 10
19.0114918604
 20
42.3425935403
 30
0.0
 10
19.0569117077
 20
42.5380044669
 30
0.0
 10
19.0720925777
 20
42.7342170547
 30
0.0
 10
19.0569117077
 20
42.9304296425
 30
0.0
 10
19.0114918604
 20
43.125840569
 30
0.0
 10
18.9361543735
 20
43.3197512395
 30
0.0
 10
18.8667335249
 20
43.4467942903
 30
0.0
 10
18.8266254763
 20
43.5109743115
 30
0.0
 10
18.8248987444
 20
43.5137221375
 30
0.0
 11
15.7725197926
 21
40.0714998487
 31
0.0
 11
15.8903890301
 21
40.1112038721
 31
0.0
 11
16.2812524262
 21
40.2520765236
 31
0.0
 11
16.6500238105
 21
40.3997525499
 31
0.0
 11
16.9956924062
 21
40.553827181
 31
0.0
 11
17.3173107598
 21
40.7138781093
 31
0.0
 11
17.6139973377
 21
40.8794666461
 31
0.0
 11
17.8849389426
 21
41.0501389249
 31
0.0
 11
18.1293929425
 21
41.2254271448
 31
0.0
 11
18.3466893058
 21
41.404850853
 31
0.0
 11
18.5362324385
 21
41.5879182616
 31
0.0
 11
18.6975028158
 21
41.7741275954
 31
0.0
 11
18.830058407
 21
41.9629684677
 31
0.0
 11
18.9335358863
 21
42.1539232788
 31
0.0
 11
19.0076516292
 21
42.3464686348
 31
0.0
 11
19.0522024896
 21
42.5400767822
 31
0.0
 11
19.0670663567
 21
42.7342170547
 31
0.0
 11
19.0522024896
 21
42.9283573271
 31
0.0
 11
19.0076516292
 21
43.1219654746
 31
0.0
 11
18.9335358863
 21
43.3145108306
 31
0.0
 11
18.830058407
 21
43.5054656417
 31
0.0
 11
18.8248987444
 21
43.5137221375
 31
0.0
  0
SPLINE
  5
407
100
AcDbEntity
  8
0
100
AcDbSpline
 62
7
  6
CONTINUOUS
 70
0
 71
3
 72
11
 73
7
 74
5
 42
0.0000001
 43
0.0000001
 44
0.0000000001
 12
0.0853422188
 22
0.690020341
 32
0.0
 13
0.3698172039
 23
0.5884681942
 33
0.0
 40
0.0
 40
0.0
 40
0.0
 40
0.0
 40
0.245046292
 40
0.5433286686
 40
0.8556544756
 40
1.0
 40
1.0
 40
1.0
 40
1.0
 10
-3.0187483194
 20
42.2389454815
 30
0.0
 10
-3.011777388
 20
42.2953077901
 30
0.0
 10
-2.9883776102
 20
42.4192930579
 30
0.0
 10
-2.9259750845
 20
42.6080070648
 30
0.0
 10
-2.8494644486
 20
42.7657010437
 30
0.0
 10
-2.7953906137
 20
42.8566717445
 30
0.0
 10
-2.7775967943
 20
42.8849859945
 30
0.0
 11
-3.0187483194
 21
42.2389454815
 31
0.0
 11
-2.9873700437
 21
42.4062997471
 31
0.0
 11
-2.9228588538
 21
42.6032093026
 31
0.0
 11
-2.8287955926
 21
42.79872194
 31
0.0
 11
-2.7775967943
 21
42.8849859945
 31
0.0
  0
SPLINE
  5
408
100
AcDbEntity
  8
0
100
AcDbSpline
 62
7
  6
CONTINUOUS
 70
0
 71
3
 72
15
 73
11
 74
9
 42
0.0000001
 43
0.0000001
 44
0.0000000001
 12
1.8787036782
 22
-0.5435209572
 32
0.0
 13
1.7955041626
 23
0.7743992003
 33
0.0
 40
0.0
 40
0.0
 40
0.0
 40
0.0
 40
0.0024270311
 40
0.1417210293
 40
0.2813081455
 40
0.4224748743
 40
0.5664490517
 40
0.7143599463
 40
0.8672097803
 40
1.0
 40
1.0
 40
1.0
 40
1.0
 10
63.6826291442
 20
-18.2025876977
 30
0.0
 10
63.6841490349
 20
-18.2030274118
 30
0.0
 10
63.7729240901
 20
-18.2286192235
 30
0.0
 10
63.9519555259
 20
-18.2696340677
 30
0.0
 10
64.224386796
 20
-18.3011620352
 30
0.0
 10
64.5016608112
 20
-18.3030273367
 30
0.0
 10
64.7829671407
 20
-18.275267437
 30
0.0
 10
65.0675108168
 20
-18.2180185927
 30
0.0
 10
65.3383629323
 20
-18.1363702353
 30
0.0
 10
65.5118272676
 20
-18.0684379094
 30
0.0
 10
65.5913023984
 20
-18.0341603627
 30
0.0
 11
63.6826291442
 21
-18.2025876977
 31
0.0
 11
63.6871900702
 21
-18.203902507
 31
0.0
 11
63.9526141162
 21
-18.2646695153
 31
0.0
 11
64.2236576197
 21
-18.2961391705
 31
0.0
 11
64.4996018219
 21
-18.2982280205
 31
0.0
 11
64.7797149684
 21
-18.2709305263
 31
0.0
 11
65.0632542496
 21
-18.2143190757
 31
0.0
 11
65.3494677702
 21
-18.1285437923
 31
0.0
 11
65.5913023984
 21
-18.0341603627
 31
0.0
  0
SPLINE
  5
409
100
AcDbEntity
  8
0
100
AcDbSpline
 62
7
  6
CONTINUOUS
 70
0
 71
3
 72
38
 73
34
 74
32
 42
0.0000001
 43
0.0000001
 44
0.0000000001
 12
3.8439772018
 22
10.3999079503
 32
0.0
 13
7.7498209367
 23
-7.9334905916
 33
0.0
 40
0.0
 40
0.0
 40
0.0
 40
0.0
 40
0.0057306469
 40
0.0543867077
 40
0.1022673925
 40
0.1492794146
 40
0.1953340143
 40
0.2403476119
 40
0.2842425134
 40
0.3269476779
 40
0.3683995645
 40
0.4085430752
 40
0.4473326144
 40
0.4847332901
 40
0.5207222798
 40
0.5552903861
 40
0.5884437978
 40
0.6202060592
 40
0.6506202175
 40
0.6797510669
 40
0.7076873257
 40
0.7345434689
 40
0.7604608071
 40
0.7856072848
 40
0.8101754445
 40
0.8343781468
 40
0.8584420121
 40
0.8825990884
 40
0.907077767
 40
0.932094209
 40
0.9578453779
 40
0.9845042983
 40
1.0
 40
1.0
 40
1.0
 40
1.0
 10
62.6257841411
 20
-2.9636678824
 30
0.0
 10
62.6331269664
 20
-2.9438018156
 30
0.0
 10
62.7031087046
 20
-2.7553717452
 30
0.0
 10
62.8399761678
 20
-2.4030192948
 30
0.0
 10
63.045693463
 20
-1.9139322185
 30
0.0
 10
63.2613416886
 20
-1.4396795499
 30
0.0
 10
63.4863309888
 20
-0.981557312
 30
0.0
 10
63.7200463151
 20
-0.5408168843
 30
0.0
 10
63.9618492609
 20
-0.118661526
 30
0.0
 10
64.2110800049
 20
0.2837569565
 30
0.0
 10
64.4670593711
 20
0.6653413759
 30
0.0
 10
64.7290910109
 20
1.0250521333
 30
0.0
 10
64.9964637158
 20
1.3619099523
 30
0.0
 10
65.2684538596
 20
1.6749983192
 30
0.0
 10
65.5443279601
 20
1.9634655526
 30
0.0
 10
65.8233453138
 20
2.226526397
 30
0.0
 10
66.1047606107
 20
2.4634630136
 30
0.0
 10
66.3878263342
 20
2.6736252289
 30
0.0
 10
66.671794616
 20
2.8564299474
 30
0.0
 10
66.9559180373
 20
3.0113597802
 30
0.0
 10
67.2394487216
 20
3.137961272
 30
0.0
 10
67.5216351145
 20
3.2358436774
 30
0.0
 10
67.8017163657
 20
3.3046799418
 30
0.0
 10
68.0789154959
 20
3.3442119746
 30
0.0
 10
68.3524343733
 20
3.3542616405
 30
0.0
 10
68.6214548788
 20
3.3347464536
 30
0.0
 10
68.8851496452
 20
3.285695293
 30
0.0
 10
69.142701526
 20
3.2072571862
 30
0.0
 10
69.3933256631
 20
3.0996982197
 30
0.0
 10
69.6362860037
 20
2.9633875264
 30
0.0
 10
69.870901385
 20
2.7987786671
 30
0.0
 10
70.0621352696
 20
2.6357293764
 30
0.0
 10
70.1736294521
 20
2.5267922233
 30
0.0
 10
70.2136590898
 20
2.4858138888
 30
0.0
 11
62.6257841411
 21
-2.9636678824
 31
0.0
 11
62.64790586
 21
-2.9041042324
 31
0.0
 11
62.8433375581
 21
-2.4012867952
 31
0.0
 11
63.0492795973
 21
-1.9119960512
 31
0.0
 11
63.2651675049
 21
-1.4375731124
 31
0.0
 11
63.4904095472
 21
-0.9793183391
 31
0.0
 11
63.7243883513
 21
-0.5384877758
 31
0.0
 11
63.9664625977
 21
-0.1162897084
 31
0.0
 11
64.2159687776
 21
0.2861186476
 31
0.0
 11
64.4722230119
 21
0.6676343188
 31
0.0
 11
64.7345229256
 21
1.0272115973
 31
0.0
 11
65.0021495729
 21
1.3638649068
 31
0.0
 11
65.2743694077
 21
1.6766715038
 31
0.0
 11
65.5504362945
 21
1.9647740074
 31
0.0
 11
65.8295935529
 21
2.2273827485
 31
0.0
 11
66.1110760324
 21
2.4637779349
 31
0.0
 11
66.3941122092
 21
2.6733116237
 31
0.0
 11
66.6779263006
 21
2.8554094978
 31
0.0
 11
66.961740392
 21
3.0095724394
 31
0.0
 11
67.2447765687
 21
3.1353778987
 31
0.0
 11
67.5262590482
 21
3.2324810517
 31
0.0
 11
67.8054163067
 21
3.3006157453
 31
0.0
 11
68.0814831934
 21
3.3395952271
 31
0.0
 11
68.3537030282
 21
3.3493126571
 31
0.0
 11
68.6213296755
 21
3.3297414005
 31
0.0
 11
68.8836295892
 21
3.2809351006
 31
0.0
 11
69.1398838236
 21
3.2030275323
 31
0.0
 11
69.3893900035
 21
3.0962322346
 31
0.0
 11
69.6314642498
 21
2.9608419262
 31
0.0
 11
69.8654430539
 21
2.7972277024
 31
0.0
 11
70.0906850962
 21
2.6058380184
 31
0.0
 11
70.2136590898
 21
2.4858138888
 31
0.0
  0
SPLINE
  5
40A
100
AcDbEntity
  8
0
100
AcDbSpline
 62
7
  6
CONTINUOUS
 70
0
 71
3
 72
35
 73
31
 74
29
 42
0.0000001
 43
0.0000001
 44
0.0000000001
 12
0.4635885801
 22
-9.4729075907
 32
0.0
 13
8.7109309175
 23
3.7569359914
 33
0.0
 40
0.0
 40
0.0
 40
0.0
 40
0.0
 40
0.0161739242
 40
0.0697817748
 40
0.1221541484
 40
0.1732016768
 40
0.2228429573
 40
0.2710055628
 40
0.3176271688
 40
0.3626568231
 40
0.4060563851
 40
0.4478021646
 40
0.4878867865
 40
0.5263212985
 40
0.5631375181
 40
0.5983905762
 40
0.6321615432
 40
0.6645599256
 40
0.6957256773
 40
0.7258302173
 40
0.7550758209
 40
0.7836927494
 40
0.8119337069
 40
0.8400656957
 40
0.8683599927
 40
0.8970815295
 40
0.9264791521
 40
0.9567779531
 40
0.9881742691
 40
1.0
 40
1.0
 40
1.0
 40
1.0
 10
61.2765302111
 20
-11.4434346489
 30
0.0
 10
61.2790295599
 20
-11.4945060121
 30
0.0
 10
61.2907824728
 20
-11.7148039059
 30
0.0
 10
61.3188034872
 20
-12.1000145512
 30
0.0
 10
61.3703277274
 20
-12.5938325962
 30
0.0
 10
61.436365975
 20
-13.0732721403
 30
0.0
 10
61.5167380606
 20
-13.5370248999
 30
0.0
 10
61.6112253092
 20
-13.9838269103
 30
0.0
 10
61.7195714725
 20
-14.4124615196
 30
0.0
 10
61.8414838718
 20
-14.8217628989
 30
0.0
 10
61.9766347784
 20
-15.2106191399
 30
0.0
 10
62.1246630454
 20
-15.577975081
 30
0.0
 10
62.2851759866
 20
-15.922834683
 30
0.0
 10
62.4577514478
 20
-16.2442628049
 30
0.0
 10
62.6419399227
 20
-16.5413861696
 30
0.0
 10
62.8372664052
 20
-16.8133933101
 30
0.0
 10
63.0432314378
 20
-17.0595333838
 30
0.0
 10
63.2593105573
 20
-17.2791140399
 30
0.0
 10
63.4849512162
 20
-17.4714991367
 30
0.0
 10
63.7195665975
 20
-17.6361079959
 30
0.0
 10
63.962526938
 20
-17.7724186892
 30
0.0
 10
64.2131510751
 20
-17.8799776557
 30
0.0
 10
64.470702956
 20
-17.9584157626
 30
0.0
 10
64.7343977224
 20
-18.0074669231
 30
0.0
 10
65.0034182279
 20
-18.02698211
 30
0.0
 10
65.2769371052
 20
-18.0169324441
 30
0.0
 10
65.5541362354
 20
-17.9774004114
 30
0.0
 10
65.8342174866
 20
-17.9085641469
 30
0.0
 10
66.0540974107
 20
-17.8322940772
 30
0.0
 10
66.1804219956
 20
-17.7800772319
 30
0.0
 10
66.2147597037
 20
-17.7652677273
 30
0.0
 11
61.2765302111
 21
-11.4434346489
 31
0.0
 11
61.2847062585
 21
-11.5966136746
 31
0.0
 11
61.32176413
 21
-12.1036747477
 31
0.0
 11
61.3735028696
 21
-12.5976689431
 31
0.0
 11
61.4397806652
 21
-13.0772422571
 31
0.0
 11
61.5204158539
 21
-13.5410802125
 31
0.0
 11
61.6151874202
 21
-13.9879114617
 31
0.0
 11
61.7238356019
 21
-14.4165112714
 31
0.0
 11
61.8460626018
 21
-14.8257048792
 31
0.0
 11
61.9815334043
 21
-15.2143707139
 31
0.0
 11
62.1298766932
 21
-15.5814434695
 31
0.0
 11
62.29068587
 21
-15.925917025
 31
0.0
 11
62.4635201679
 21
-16.2468472024
 31
0.0
 11
62.64790586
 21
-16.5433543545
 31
0.0
 11
62.8433375581
 21
-16.8146257755
 31
0.0
 11
63.0492795973
 21
-17.0599179296
 31
0.0
 11
63.2651675049
 21
-17.2785584879
 31
0.0
 11
63.4904095472
 21
-17.4699481719
 31
0.0
 11
63.7243883513
 21
-17.6335623957
 31
0.0
 11
63.9664625977
 21
-17.7689527042
 31
0.0
 11
64.2159687776
 21
-17.8757480018
 31
0.0
 11
64.4722230119
 21
-17.9536555702
 31
0.0
 11
64.7345229256
 21
-18.00246187
 31
0.0
 11
65.0021495729
 21
-18.0220331267
 31
0.0
 11
65.2743694077
 21
-18.0123156967
 31
0.0
 11
65.5504362945
 21
-17.9733362148
 31
0.0
 11
65.8295935529
 21
-17.9052015212
 31
0.0
 11
66.1110760324
 21
-17.8080983683
 31
0.0
 11
66.2147597037
 21
-17.7652677273
 31
0.0
  0
SPLINE
  5
40B
100
AcDbEntity
  8
0
100
AcDbSpline
 62
7
  6
CONTINUOUS
 70
0
 71
3
 72
15
 73
11
 74
9
 42
0.0000001
 43
0.0000001
 44
0.0000000001
 12
2.0373610212
 22
-0.1503757862
 32
0.0
 13
1.4272267381
 23
-1.4610196736
 33
0.0
 40
0.0
 40
0.0
 40
0.0
 40
0.0
 40
0.1183051249
 40
0.2516570665
 40
0.385970685
 40
0.5224520197
 40
0.6622287619
 40
0.8063177856
 40
0.955604443
 40
1.0
 40
1.0
 40
1.0
 40
1.0
 10
67.9510002516
 20
3.8607216009
 30
0.0
 10
68.0313436683
 20
3.8547915255
 30
0.0
 10
68.2016509288
 20
3.8339933742
 30
0.0
 10
68.458237763
 20
3.7752111332
 30
0.0
 10
68.718564766
 20
3.6846957534
 30
0.0
 10
68.9716857233
 20
3.5650800279
 30
0.0
 10
69.2168934542
 20
3.4167558094
 30
0.0
 10
69.4535327627
 20
3.2401912406
 30
0.0
 10
69.6247978885
 20
3.0863858642
 30
0.0
 10
69.7180594855
 20
2.9931541784
 30
0.0
 10
69.7391803275
 20
2.971533251
 30
0.0
 11
67.9510002516
 21
3.8607216009
 31
0.0
 11
68.1908029196
 21
3.8313631461
 31
0.0
 11
68.4562269657
 21
3.7705961378
 31
0.0
 11
68.7153276974
 21
3.6806929194
 31
0.0
 11
68.9674180264
 21
3.5618918981
 31
0.0
 11
69.2118294543
 21
3.414508113
 31
0.0
 11
69.447913846
 21
3.2389323992
 31
0.0
 11
69.6750451481
 21
3.0356303521
 31
0.0
 11
69.7391803275
 21
2.971533251
 31
0.0
  0
SPLINE
  5
40C
100
AcDbEntity
  8
0
100
AcDbSpline
 62
7
  6
CONTINUOUS
 70
0
 71
3
 72
11
 73
7
 74
5
 42
0.0000001
 43
0.0000001
 44
0.0000000001
 12
0.0853422189
 22
0.6900203409
 32
0.0
 13
0.3698172039
 23
0.5884681942
 33
0.0
 40
0.0
 40
0.0
 40
0.0
 40
0.0
 40
0.245046292
 40
0.5433286686
 40
0.8556544756
 40
1.0
 40
1.0
 40
1.0
 40
1.0
 10
-32.4636120481
 20
48.053287918
 30
0.0
 10
-32.4566411167
 20
48.1096502267
 30
0.0
 10
-32.4332413389
 20
48.2336354944
 30
0.0
 10
-32.3708388132
 20
48.4223495013
 30
0.0
 10
-32.2943281772
 20
48.5800434802
 30
0.0
 10
-32.2402543424
 20
48.671014181
 30
0.0
 10
-32.222460523
 20
48.6993284311
 30
0.0
 11
-32.4636120481
 21
48.053287918
 31
0.0
 11
-32.4322337723
 21
48.2206421836
 31
0.0
 11
-32.3677225825
 21
48.4175517392
 31
0.0
 11
-32.2736593212
 21
48.6130643766
 31
0.0
 11
-32.222460523
 21
48.6993284311
 31
0.0
  0
SPLINE
  5
40D
100
AcDbEntity
  8
0
100
AcDbSpline
 62
7
  6
CONTINUOUS
 70
0
 71
3
 72
28
 73
24
 74
22
 42
0.0000001
 43
0.0000001
 44
0.0000000001
 12
5.0319665486
 22
1.66935126
 32
0.0
 13
-2.8222287574
 23
4.4911392638
 33
0.0
 40
0.0
 40
0.0
 40
0.0
 40
0.0
 40
0.0234600736
 40
0.1018302476
 40
0.17676105
 40
0.2481476536
 40
0.3159107108
 40
0.3800005199
 40
0.4404022479
 40
0.4971425124
 40
0.550297658
 40
0.6000040058
 40
0.6464701099
 40
0.6899904176
 40
0.730958458
 40
0.769875689
 40
0.8073499964
 40
0.8440774597
 40
0.880804923
 40
0.9182792304
 40
0.9571964614
 40
0.9981645018
 40
1.0
 40
1.0
 40
1.0
 40
1.0
 10
-13.6723439363
 20
45.8858422852
 30
0.0
 10
-13.6329938344
 20
45.898896653
 30
0.0
 10
-13.4624486744
 20
45.9563348843
 30
0.0
 10
-13.1684588508
 20
46.0620541415
 30
0.0
 10
-12.7996523905
 20
46.2093801897
 30
0.0
 10
-12.453863734
 20
46.3630898805
 30
0.0
 10
-12.1320256559
 20
46.522767673
 30
0.0
 10
-11.8350024564
 20
46.6879858875
 30
0.0
 10
-11.5635877327
 20
46.8583080875
 30
0.0
 10
-11.3185032129
 20
47.033293383
 30
0.0
 10
-11.1003995535
 20
47.2125016777
 30
0.0
 10
-10.9098605479
 20
47.3954993213
 30
0.0
 10
-10.7474126364
 20
47.581863251
 30
0.0
 10
-10.6135409673
 20
47.7711790801
 30
0.0
 10
-10.5087093551
 20
47.9630253064
 30
0.0
 10
-10.4333718683
 20
48.1569359769
 30
0.0
 10
-10.387952021
 20
48.3523469035
 30
0.0
 10
-10.372771151
 20
48.5485594912
 30
0.0
 10
-10.387952021
 20
48.744772079
 30
0.0
 10
-10.4333718683
 20
48.9401830056
 30
0.0
 10
-10.5087093551
 20
49.134093676
 30
0.0
 10
-10.5781302037
 20
49.2611367269
 30
0.0
 10
-10.6182382524
 20
49.325316748
 30
0.0
 10
-10.6199649843
 20
49.328064574
 30
0.0
 11
-13.6723439363
 21
45.8858422852
 31
0.0
 11
-13.5544746985
 21
45.9255463086
 31
0.0
 11
-13.1636113025
 21
46.0664189602
 31
0.0
 11
-12.7948399182
 21
46.2140949864
 31
0.0
 11
-12.4491713225
 21
46.3681696176
 31
0.0
 11
-12.1275529689
 21
46.5282205458
 31
0.0
 11
-11.830866391
 21
46.6938090827
 31
0.0
 11
-11.559924786
 21
46.8644813615
 31
0.0
 11
-11.3154707862
 21
47.0397695814
 31
0.0
 11
-11.0981744228
 21
47.2191932896
 31
0.0
 11
-10.9086312902
 21
47.4022606981
 31
0.0
 11
-10.7473609129
 21
47.5884700319
 31
0.0
 11
-10.6148053217
 21
47.7773109043
 31
0.0
 11
-10.5113278424
 21
47.9682657153
 31
0.0
 11
-10.4372120995
 21
48.1608110713
 31
0.0
 11
-10.3926612391
 21
48.3544192188
 31
0.0
 11
-10.377797372
 21
48.5485594912
 31
0.0
 11
-10.3926612391
 21
48.7426997637
 31
0.0
 11
-10.4372120995
 21
48.9363079111
 31
0.0
 11
-10.5113278424
 21
49.1288532671
 31
0.0
 11
-10.6148053217
 21
49.3198080782
 31
0.0
 11
-10.6199649843
 21
49.328064574
 31
0.0
  0
SPLINE
  5
40E
100
AcDbEntity
  8
0
100
AcDbSpline
 62
7
  6
CONTINUOUS
 70
0
 71
3
 72
24
 73
20
 74
18
 42
0.0000001
 43
0.0000001
 44
0.0000000001
 12
-3.6075026771
 22
1.6977961767
 32
0.0
 13
2.1223502429
 23
3.377391178
 33
0.0
 40
0.0
 40
0.0
 40
0.0
 40
0.0
 40
0.0903214627
 40
0.1755458986
 40
0.2558660505
 40
0.3313173134
 40
0.4020012078
 40
0.4680990088
 40
0.5298880447
 40
0.5877598613
 40
0.6422377601
 40
0.6939885627
 40
0.7438206149
 40
0.7926595393
 40
0.8414984637
 40
0.8913305159
 40
0.9430813185
 40
0.9975592173
 40
1.0
 40
1.0
 40
1.0
 40
1.0
 10
-29.9973665864
 20
46.3678088545
 30
0.0
 10
-30.1059782259
 20
46.4189246658
 30
0.0
 10
-30.3150318627
 20
46.5226303646
 30
0.0
 10
-30.6123019107
 20
46.6879858875
 30
0.0
 10
-30.8837166344
 20
46.8583080875
 30
0.0
 10
-31.1288011542
 20
47.033293383
 30
0.0
 10
-31.3469048136
 20
47.2125016777
 30
0.0
 10
-31.5374438192
 20
47.3954993213
 30
0.0
 10
-31.6998917307
 20
47.581863251
 30
0.0
 10
-31.8337633998
 20
47.7711790801
 30
0.0
 10
-31.938595012
 20
47.9630253064
 30
0.0
 10
-32.0139324988
 20
48.1569359769
 30
0.0
 10
-32.0593523461
 20
48.3523469035
 30
0.0
 10
-32.0745332161
 20
48.5485594912
 30
0.0
 10
-32.0593523461
 20
48.744772079
 30
0.0
 10
-32.0139324988
 20
48.9401830056
 30
0.0
 10
-31.938595012
 20
49.134093676
 30
0.0
 10
-31.8691741634
 20
49.2611367269
 30
0.0
 10
-31.8290661148
 20
49.325316748
 30
0.0
 10
-31.8273393828
 20
49.328064574
 30
0.0
 11
-29.9973665864
 21
46.3678088545
 31
0.0
 11
-30.3197513982
 21
46.5282205458
 31
0.0
 11
-30.6164379761
 21
46.6938090827
 31
0.0
 11
-30.8873795811
 21
46.8644813615
 31
0.0
 11
-31.1318335809
 21
47.0397695814
 31
0.0
 11
-31.3491299443
 21
47.2191932896
 31
0.0
 11
-31.5386730769
 21
47.4022606981
 31
0.0
 11
-31.6999434542
 21
47.5884700319
 31
0.0
 11
-31.8324990454
 21
47.7773109043
 31
0.0
 11
-31.9359765247
 21
47.9682657153
 31
0.0
 11
-32.0100922676
 21
48.1608110713
 31
0.0
 11
-32.054643128
 21
48.3544192188
 31
0.0
 11
-32.0695069951
 21
48.5485594912
 31
0.0
 11
-32.054643128
 21
48.7426997637
 31
0.0
 11
-32.0100922676
 21
48.9363079111
 31
0.0
 11
-31.9359765247
 21
49.1288532671
 31
0.0
 11
-31.8324990454
 21
49.3198080782
 31
0.0
 11
-31.8273393828
 21
49.328064574
 31
0.0
  0
SPLINE
  5
40F
100
AcDbEntity
  8
0
100
AcDbSpline
 62
7
  6
CONTINUOUS
 70
0
 71
3
 72
11
 73
7
 74
5
 42
0.0000001
 43
0.0000001
 44
0.0000000001
 12
-0.0483897418
 22
0.7745446193
 32
0.0
 13
-0.4128103988
 23
0.6568676633
 33
0.0
 40
0.0
 40
0.0
 40
0.0
 40
0.0
 40
0.236578044
 40
0.5005614416
 40
0.7757484354
 40
1.0
 40
1.0
 40
1.0
 40
1.0
 10
-9.9762152246
 20
47.9728963686
 30
0.0
 10
-9.9800312081
 20
48.0339764522
 30
0.0
 10
-9.9971098558
 20
48.162647134
 30
0.0
 10
-10.0512669495
 20
48.3563863841
 30
0.0
 10
-10.1299596822
 20
48.537929544
 30
0.0
 10
-10.1939936198
 20
48.6502367391
 30
0.0
 10
-10.2248514124
 20
48.6993379395
 30
0.0
 11
-9.9762152246
 21
47.9728963686
 31
0.0
 11
-10.0001658271
 21
48.1547854101
 31
0.0
 11
-10.0547844255
 21
48.3520447106
 31
0.0
 11
-10.1390208533
 21
48.5480808059
 31
0.0
 11
-10.2248514124
 21
48.6993379395
 31
0.0
  0
SPLINE
  5
410
100
AcDbEntity
  8
0
100
AcDbSpline
 62
7
  6
CONTINUOUS
 70
0
 71
3
 72
11
 73
7
 74
5
 42
0.0000001
 43
0.0000001
 44
0.0000000001
 12
0.0853422189
 22
0.6900203409
 32
0.0
 13
0.3698172039
 23
0.5884681942
 33
0.0
 40
0.0
 40
0.0
 40
0.0
 40
0.0
 40
0.245046292
 40
0.5433286686
 40
0.8556544756
 40
1.0
 40
1.0
 40
1.0
 40
1.0
 10
26.4261154092
 20
36.4246030449
 30
0.0
 10
26.4330863407
 20
36.4809653536
 30
0.0
 10
26.4564861184
 20
36.6049506213
 30
0.0
 10
26.5188886442
 20
36.7936646283
 30
0.0
 10
26.5953992801
 20
36.9513586072
 30
0.0
 10
26.649473115
 20
37.042329308
 30
0.0
 10
26.6672669344
 20
37.070643558
 30
0.0
 11
26.4261154092
 21
36.4246030449
 31
0.0
 11
26.457493685
 21
36.5919573106
 31
0.0
 11
26.5220048749
 21
36.7888668661
 31
0.0
 11
26.6160681361
 21
36.9843795035
 31
0.0
 11
26.6672669344
 21
37.070643558
 31
0.0
  0
SPLINE
  5
411
100
AcDbEntity
  8
0
100
AcDbSpline
 62
7
  6
CONTINUOUS
 70
0
 71
3
 72
28
 73
24
 74
22
 42
0.0000001
 43
0.0000001
 44
0.0000000001
 12
5.0319665486
 22
1.66935126
 32
0.0
 13
-2.8222287574
 23
4.4911392638
 33
0.0
 40
0.0
 40
0.0
 40
0.0
 40
0.0
 40
0.0234600736
 40
0.1018302476
 40
0.17676105
 40
0.2481476536
 40
0.3159107108
 40
0.3800005199
 40
0.4404022479
 40
0.4971425124
 40
0.550297658
 40
0.6000040058
 40
0.6464701099
 40
0.6899904176
 40
0.730958458
 40
0.769875689
 40
0.8073499964
 40
0.8440774597
 40
0.880804923
 40
0.9182792304
 40
0.9571964614
 40
0.9981645018
 40
1.0
 40
1.0
 40
1.0
 40
1.0
 10
45.217383521
 20
34.2571574121
 30
0.0
 10
45.2567336229
 20
34.2702117799
 30
0.0
 10
45.4272787829
 20
34.3276500112
 30
0.0
 10
45.7212686065
 20
34.4333692685
 30
0.0
 10
46.0900750669
 20
34.5806953166
 30
0.0
 10
46.4358637233
 20
34.7344050075
 30
0.0
 10
46.7577018015
 20
34.8940828
 30
0.0
 10
47.0547250009
 20
35.0593010144
 30
0.0
 10
47.3261397246
 20
35.2296232144
 30
0.0
 10
47.5712242444
 20
35.40460851
 30
0.0
 10
47.7893279038
 20
35.5838168047
 30
0.0
 10
47.9798669094
 20
35.7668144482
 30
0.0
 10
48.142314821
 20
35.953178378
 30
0.0
 10
48.27618649
 20
36.142494207
 30
0.0
 10
48.3810181022
 20
36.3343404334
 30
0.0
 10
48.456355589
 20
36.5282511038
 30
0.0
 10
48.5017754364
 20
36.7236620304
 30
0.0
 10
48.5169563063
 20
36.9198746182
 30
0.0
 10
48.5017754364
 20
37.1160872059
 30
0.0
 10
48.456355589
 20
37.3114981325
 30
0.0
 10
48.3810181022
 20
37.505408803
 30
0.0
 10
48.3115972536
 20
37.6324518538
 30
0.0
 10
48.271489205
 20
37.696631875
 30
0.0
 10
48.2697624731
 20
37.6993797009
 30
0.0
 11
45.217383521
 21
34.2571574121
 31
0.0
 11
45.3352527588
 21
34.2968614355
 31
0.0
 11
45.7261161549
 21
34.4377340871
 31
0.0
 11
46.0948875391
 21
34.5854101133
 31
0.0
 11
46.4405561349
 21
34.7394847445
 31
0.0
 11
46.7621744885
 21
34.8995356727
 31
0.0
 11
47.0588610664
 21
35.0651242096
 31
0.0
 11
47.3298026713
 21
35.2357964884
 31
0.0
 11
47.5742566711
 21
35.4110847083
 31
0.0
 11
47.7915530345
 21
35.5905084165
 31
0.0
 11
47.9810961671
 21
35.773575825
 31
0.0
 11
48.1423665445
 21
35.9597851589
 31
0.0
 11
48.2749221356
 21
36.1486260312
 31
0.0
 11
48.378399615
 21
36.3395808423
 31
0.0
 11
48.4525153579
 21
36.5321261983
 31
0.0
 11
48.4970662183
 21
36.7257343457
 31
0.0
 11
48.5119300854
 21
36.9198746182
 31
0.0
 11
48.4970662183
 21
37.1140148906
 31
0.0
 11
48.4525153579
 21
37.3076230381
 31
0.0
 11
48.378399615
 21
37.5001683941
 31
0.0
 11
48.2749221356
 21
37.6911232051
 31
0.0
 11
48.2697624731
 21
37.6993797009
 31
0.0
  0
SPLINE
  5
412
100
AcDbEntity
  8
0
100
AcDbSpline
 62
7
  6
CONTINUOUS
 70
0
 71
3
 72
24
 73
20
 74
18
 42
0.0000001
 43
0.0000001
 44
0.0000000001
 12
-3.6075026771
 22
1.6977961767
 32
0.0
 13
2.1223502429
 23
3.3773911779
 33
0.0
 40
0.0
 40
0.0
 40
0.0
 40
0.0
 40
0.0903214627
 40
0.1755458986
 40
0.2558660505
 40
0.3313173134
 40
0.4020012078
 40
0.4680990088
 40
0.5298880447
 40
0.5877598613
 40
0.6422377601
 40
0.6939885627
 40
0.7438206149
 40
0.7926595393
 40
0.8414984637
 40
0.8913305159
 40
0.9430813185
 40
0.9975592173
 40
1.0
 40
1.0
 40
1.0
 40
1.0
 10
28.8923608709
 20
34.7391239814
 30
0.0
 10
28.7837492315
 20
34.7902397927
 30
0.0
 10
28.5746955946
 20
34.8939454915
 30
0.0
 10
28.2774255466
 20
35.0593010144
 30
0.0
 10
28.006010823
 20
35.2296232144
 30
0.0
 10
27.7609263032
 20
35.40460851
 30
0.0
 10
27.5428226437
 20
35.5838168047
 30
0.0
 10
27.3522836381
 20
35.7668144482
 30
0.0
 10
27.1898357266
 20
35.953178378
 30
0.0
 10
27.0559640576
 20
36.142494207
 30
0.0
 10
26.9511324454
 20
36.3343404334
 30
0.0
 10
26.8757949586
 20
36.5282511038
 30
0.0
 10
26.8303751112
 20
36.7236620304
 30
0.0
 10
26.8151942412
 20
36.9198746182
 30
0.0
 10
26.8303751112
 20
37.1160872059
 30
0.0
 10
26.8757949586
 20
37.3114981325
 30
0.0
 10
26.9511324454
 20
37.505408803
 30
0.0
 10
27.020553294
 20
37.6324518538
 30
0.0
 10
27.0606613426
 20
37.696631875
 30
0.0
 10
27.0623880745
 20
37.6993797009
 30
0.0
 11
28.8923608709
 21
34.7391239814
 31
0.0
 11
28.5699760591
 21
34.8995356727
 31
0.0
 11
28.2732894812
 21
35.0651242096
 31
0.0
 11
28.0023478763
 21
35.2357964884
 31
0.0
 11
27.7578938764
 21
35.4110847083
 31
0.0
 11
27.5405975131
 21
35.5905084165
 31
0.0
 11
27.3510543805
 21
35.773575825
 31
0.0
 11
27.1897840031
 21
35.9597851589
 31
0.0
 11
27.0572284119
 21
36.1486260312
 31
0.0
 11
26.9537509326
 21
36.3395808423
 31
0.0
 11
26.8796351897
 21
36.5321261983
 31
0.0
 11
26.8350843293
 21
36.7257343457
 31
0.0
 11
26.8202204622
 21
36.9198746182
 31
0.0
 11
26.8350843293
 21
37.1140148906
 31
0.0
 11
26.8796351897
 21
37.3076230381
 31
0.0
 11
26.9537509326
 21
37.5001683941
 31
0.0
 11
27.0572284119
 21
37.6911232051
 31
0.0
 11
27.0623880745
 21
37.6993797009
 31
0.0
  0
SPLINE
  5
413
100
AcDbEntity
  8
0
100
AcDbSpline
 62
7
  6
CONTINUOUS
 70
0
 71
3
 72
11
 73
7
 74
5
 42
0.0000001
 43
0.0000001
 44
0.0000000001
 12
-0.0483897418
 22
0.7745446193
 32
0.0
 13
-0.4128103988
 23
0.6568676633
 33
0.0
 40
0.0
 40
0.0
 40
0.0
 40
0.0
 40
0.236578044
 40
0.5005614416
 40
0.7757484354
 40
1.0
 40
1.0
 40
1.0
 40
1.0
 10
48.9135122327
 20
36.3442114955
 30
0.0
 10
48.9096962493
 20
36.4052915792
 30
0.0
 10
48.8926176015
 20
36.533962261
 30
0.0
 10
48.8384605078
 20
36.727701511
 30
0.0
 10
48.7597677751
 20
36.909244671
 30
0.0
 10
48.6957338375
 20
37.021551866
 30
0.0
 10
48.664876045
 20
37.0706530664
 30
0.0
 11
48.9135122327
 21
36.3442114955
 31
0.0
 11
48.8895616303
 21
36.526100537
 31
0.0
 11
48.8349430319
 21
36.7233598375
 31
0.0
 11
48.750706604
 21
36.9193959328
 31
0.0
 11
48.664876045
 21
37.0706530664
 31
0.0
  0
SPLINE
  5
414
100
AcDbEntity
  8
RACCORDO
100
AcDbSpline
 62
253
  6
CONTINUOUS
 70
0
 71
3
 72
12
 73
8
 74
6
 42
0.0000001
 43
0.0000001
 44
0.0000000001
 12
-0.1939145497
 22
0.0383297436
 32
0.0
 13
-0.1710160975
 23
-0.0985044374
 33
0.0
 40
0.0
 40
0.0
 40
0.0
 40
0.0
 40
0.0512976773
 40
0.2717251282
 40
0.4999209455
 40
0.7412868469
 40
1.0
 40
1.0
 40
1.0
 40
1.0
 10
-41.3809945873
 20
58.6825039342
 30
0.0
 10
-41.384310376
 20
58.6831593432
 30
0.0
 10
-41.4019532199
 20
58.6862279386
 30
0.0
 10
-41.4350071627
 20
58.6878770192
 30
0.0
 10
-41.4802065051
 20
58.6815499242
 30
0.0
 10
-41.5260174967
 20
58.6668577922
 30
0.0
 10
-41.5556001329
 20
58.6521846178
 30
0.0
 10
-41.5703481709
 20
58.6436898199
 30
0.0
 11
-41.3809945873
 21
58.6825039342
 31
0.0
 11
-41.3909833087
 21
58.6842405348
 31
0.0
 11
-41.4344273548
 21
58.6865009864
 31
0.0
 11
-41.4790550031
 21
58.6804503691
 31
0.0
 11
-41.5244897221
 21
58.6661397332
 31
0.0
 11
-41.5703481709
 21
58.6436898199
 31
0.0
  0
SPLINE
  5
415
100
AcDbEntity
  8
RACCORDO
100
AcDbSpline
 62
253
  6
CONTINUOUS
 70
0
 71
3
 72
13
 73
9
 74
7
 42
0.0000001
 43
0.0000001
 44
0.0000000001
 12
-0.0000850946
 22
-0.2222744897
 32
0.0
 13
-0.1896277357
 23
-0.1146334851
 33
0.0
 40
0.0
 40
0.0
 40
0.0
 40
0.0
 40
0.0856410639
 40
0.2327993834
 40
0.3931081686
 40
0.572297437
 40
0.7739639034
 40
1.0
 40
1.0
 40
1.0
 40
1.0
 10
74.4501232128
 20
34.5181907982
 30
0.0
 10
74.4501207836
 20
34.5118455236
 30
0.0
 10
74.4487272924
 20
34.4945941084
 30
0.0
 10
74.4401207732
 20
34.466538185
 30
0.0
 10
74.4217906697
 20
34.4353129522
 30
0.0
 10
74.3953574323
 20
34.4050863089
 30
0.0
 10
74.3611137279
 20
34.3759696361
 30
0.0
 10
74.3347740099
 20
34.3584091206
 30
0.0
 10
74.3204864389
 20
34.3497720187
 30
0.0
 11
74.4501232128
 21
34.5181907982
 31
0.0
 11
74.4485943469
 21
34.4992389547
 31
0.0
 11
74.4392978357
 21
34.4679843088
 31
0.0
 11
74.4216555425
 21
34.4371532641
 31
0.0
 11
74.3958163186
 21
34.4070059478
 31
0.0
 11
74.3619981741
 21
34.3777967181
 31
0.0
 11
74.3204864389
 21
34.3497720187
 31
0.0
  0
SPLINE
  5
416
100
AcDbEntity
  8
RACCORDO
100
AcDbSpline
 62
7
  6
CONTINUOUS
 70
0
 71
3
 72
12
 73
8
 74
6
 42
0.0000001
 43
0.0000001
 44
0.0000000001
 12
0.171017637
 22
0.0985053241
 32
0.0
 13
0.1939159951
 23
-0.0383316587
 33
0.0
 40
0.0
 40
0.0
 40
0.0
 40
0.0
 40
0.2587104068
 40
0.5000751241
 40
0.7282708988
 40
0.94869922
 40
1.0
 40
1.0
 40
1.0
 40
1.0
 10
-24.977619165
 20
55.3671995877
 30
0.0
 10
-24.9628711509
 20
55.3756943719
 30
0.0
 10
-24.9332884829
 20
55.3903675657
 30
0.0
 10
-24.887477327
 20
55.4050597495
 30
0.0
 10
-24.8422775889
 20
55.4113868451
 30
0.0
 10
-24.8092230884
 20
55.4097376206
 30
0.0
 10
-24.7915798462
 20
55.4066688377
 30
0.0
 10
-24.7882638323
 20
55.4060133564
 30
0.0
 11
-24.977619165
 21
55.3671995877
 31
0.0
 11
-24.9317607929
 21
55.3896494701
 31
0.0
 11
-24.8863258869
 21
55.4039601619
 31
0.0
 11
-24.8416978375
 21
55.4100107762
 31
0.0
 11
-24.7982532368
 21
55.4077501425
 31
0.0
 11
-24.7882638323
 21
55.4060133564
 31
0.0
  0
SPLINE
  5
417
100
AcDbEntity
  8
0
100
AcDbSpline
 62
7
  6
CONTINUOUS
 70
0
 71
3
 72
14
 73
10
 74
8
 42
0.0000001
 43
0.0000001
 44
0.0000000001
 12
-0.4896022299
 22
1.4654806013
 32
0.0
 13
-1.2342672871
 23
0.9278466684
 33
0.0
 40
0.0
 40
0.0
 40
0.0
 40
0.0
 40
0.0170399658
 40
0.1583185626
 40
0.307353166
 40
0.4657787008
 40
0.6348675724
 40
0.8155647835
 40
1.0
 40
1.0
 40
1.0
 40
1.0
 10
49.0916940611
 20
36.7087112391
 30
0.0
 10
49.088913126
 20
36.7170351522
 30
0.0
 10
49.0624172337
 20
36.7941509201
 30
0.0
 10
48.9993353693
 20
36.9396800004
 30
0.0
 10
48.8818097293
 20
37.1390683794
 30
0.0
 10
48.7346148674
 20
37.3357582002
 30
0.0
 10
48.5582197107
 20
37.5293254087
 30
0.0
 10
48.356345499
 20
37.716359917
 30
0.0
 10
48.2095366023
 20
37.8338591123
 30
0.0
 10
48.1336558175
 20
37.8909016461
 30
0.0
 11
49.0916940611
 21
36.7087112391
 31
0.0
 11
49.0831400932
 21
36.7336102832
 31
0.0
 11
48.9970317447
 21
36.9340027361
 31
0.0
 11
48.8808757366
 21
37.1326133967
 31
0.0
 11
48.7349800938
 21
37.3289155851
 31
0.0
 11
48.5597317052
 21
37.5223887433
 31
0.0
 11
48.3555952982
 21
37.7125198153
 31
0.0
 11
48.1336558175
 21
37.8909016461
 31
0.0
  0
SPLINE
  5
418
100
AcDbEntity
  8
0
100
AcDbSpline
 62
7
  6
CONTINUOUS
 70
0
 71
3
 72
14
 73
10
 74
8
 42
0.0000001
 43
0.0000001
 44
0.0000000001
 12
0.518892866
 22
1.4017936964
 32
0.0
 13
1.1940574807
 23
0.8976159035
 33
0.0
 40
0.0
 40
0.0
 40
0.0
 40
0.0
 40
0.0318504515
 40
0.1803470423
 40
0.33746705
 40
0.5047728656
 40
0.6834620534
 40
0.8744089481
 40
1.0
 40
1.0
 40
1.0
 40
1.0
 10
26.2571741073
 20
36.7561779048
 30
0.0
 10
26.262683098
 20
36.7710604921
 30
0.0
 10
26.2951346095
 20
36.8548632253
 30
0.0
 10
26.3686654566
 20
37.0064156432
 30
0.0
 10
26.4961319921
 20
37.2049526983
 30
0.0
 10
26.6531133524
 20
37.4006482844
 30
0.0
 10
26.8391335221
 20
37.593081119
 30
0.0
 10
27.0244197161
 20
37.7560828511
 30
0.0
 10
27.1485023587
 20
37.8533235906
 30
0.0
 10
27.1984900037
 20
37.8909010991
 30
0.0
 11
26.2571741073
 21
36.7561779048
 31
0.0
 11
26.274358866
 21
36.8005730235
 31
0.0
 11
26.3705124219
 21
37.0004303862
 31
0.0
 11
26.4966197799
 21
37.1983298023
 31
0.0
 11
26.652346526
 21
37.3937464782
 31
0.0
 11
26.8372797007
 21
37.586162204
 31
0.0
 11
27.0509288946
 21
37.7750667278
 31
0.0
 11
27.1984900037
 21
37.8909010991
 31
0.0
  0
SPLINE
  5
419
100
AcDbEntity
  8
RACCORDO
100
AcDbSpline
 62
253
  6
CONTINUOUS
 70
0
 71
3
 72
15
 73
11
 74
9
 42
0.0000001
 43
0.0000001
 44
0.0000000001
 12
0.6632145113
 22
0.3633405712
 32
0.0
 13
0.7412059015
 23
-0.1482930404
 33
0.0
 40
0.0
 40
0.0
 40
0.0
 40
0.0
 40
0.0373554646
 40
0.1709163059
 40
0.3051555802
 40
0.4405056345
 40
0.5773584071
 40
0.7160535447
 40
0.8568668038
 40
1.0
 40
1.0
 40
1.0
 40
1.0
 10
-42.3040960533
 20
58.5422225625
 30
0.0
 10
-42.2958378245
 20
58.5467468144
 30
0.0
 10
-42.2577584352
 20
58.5669091103
 30
0.0
 10
-42.1874878853
 20
58.5984403708
 30
0.0
 10
-42.0909258589
 20
58.6305178263
 30
0.0
 10
-41.9908453461
 20
58.6530059063
 30
0.0
 10
-41.8879396031
 20
58.6657558177
 30
0.0
 10
-41.7829157411
 20
58.6686867923
 30
0.0
 10
-41.6765069651
 20
58.6617891761
 30
0.0
 10
-41.6057063901
 20
58.6507639374
 30
0.0
 10
-41.5703426668
 20
58.6436887184
 30
0.0
 11
-42.3040960533
 21
58.5422225625
 31
0.0
 11
-42.2791314751
 21
58.5554406505
 31
0.0
 11
-42.1870285607
 21
58.596787489
 31
0.0
 11
-42.0907429371
 21
58.6288093085
 31
0.0
 11
-41.9909323316
 21
58.6512873562
 31
0.0
 11
-41.8882785883
 21
58.6640680847
 31
0.0
 11
-41.7834824701
 21
58.6670642159
 31
0.0
 11
-41.6772604616
 21
58.6602552499
 31
0.0
 11
-41.5703426668
 21
58.6436887184
 31
0.0
  0
SPLINE
  5
41A
100
AcDbEntity
  8
RACCORDO
100
AcDbSpline
 62
253
  6
CONTINUOUS
 70
0
 71
3
 72
12
 73
8
 74
6
 42
0.0000001
 43
0.0000001
 44
0.0000000001
 12
-0.193920687
 22
0.0383378755
 32
0.0
 13
-0.1710226617
 23
-0.0985082183
 33
0.0
 40
0.0
 40
0.0
 40
0.0
 40
0.0
 40
0.0513340544
 40
0.2717530523
 40
0.499940119
 40
0.7412967657
 40
1.0
 40
1.0
 40
1.0
 40
1.0
 10
73.2108588232
 20
36.0545752621
 30
0.0
 10
73.2075405782
 20
36.055231275
 30
0.0
 10
73.1898952897
 20
36.0583006106
 30
0.0
 10
73.1568388104
 20
36.0599498187
 30
0.0
 10
73.1116394663
 20
36.0536227244
 30
0.0
 10
73.0658284727
 20
36.0389305923
 30
0.0
 10
73.0362458352
 20
36.0242574174
 30
0.0
 10
73.0214977966
 20
36.0157626192
 30
0.0
 11
73.2108588232
 21
36.0545752621
 31
0.0
 11
73.2008626658
 21
36.056313333
 31
0.0
 11
73.1574186183
 21
36.0585737858
 31
0.0
 11
73.1127909683
 21
36.0525231692
 31
0.0
 11
73.0673562474
 21
36.0382125332
 31
0.0
 11
73.0214977966
 21
36.0157626192
 31
0.0
  0
SPLINE
  5
41B
100
AcDbEntity
  8
0
100
AcDbSpline
 62
7
  6
CONTINUOUS
 70
0
 71
3
 72
14
 73
10
 74
8
 42
0.0000001
 43
0.0000001
 44
0.0000000001
 12
-0.4896022299
 22
1.4654806013
 32
0.0
 13
-1.2342672871
 23
0.9278466684
 33
0.0
 40
0.0
 40
0.0
 40
0.0
 40
0.0
 40
0.0170399658
 40
0.1583185626
 40
0.307353166
 40
0.4657787008
 40
0.6348675724
 40
0.8155647835
 40
1.0
 40
1.0
 40
1.0
 40
1.0
 10
-9.7980333962
 20
48.3373961122
 30
0.0
 10
-9.8008143313
 20
48.3457200253
 30
0.0
 10
-9.8273102236
 20
48.4228357932
 30
0.0
 10
-9.8903920881
 20
48.5683648735
 30
0.0
 10
-10.007917728
 20
48.7677532525
 30
0.0
 10
-10.1551125899
 20
48.9644430733
 30
0.0
 10
-10.3315077467
 20
49.1580102817
 30
0.0
 10
-10.5333819583
 20
49.3450447901
 30
0.0
 10
-10.680190855
 20
49.4625439854
 30
0.0
 10
-10.7560716398
 20
49.5195865191
 30
0.0
 11
-9.7980333962
 21
48.3373961122
 31
0.0
 11
-9.8065873642
 21
48.3622951563
 31
0.0
 11
-9.8926957127
 21
48.5626876092
 31
0.0
 11
-10.0088517207
 21
48.7612982698
 31
0.0
 11
-10.1547473636
 21
48.9576004582
 31
0.0
 11
-10.3299957521
 21
49.1510736164
 31
0.0
 11
-10.5341321592
 21
49.3412046883
 31
0.0
 11
-10.7560716398
 21
49.5195865191
 31
0.0
  0
ELLIPSE
  5
41C
100
AcDbEntity
  8
DRAFT
100
AcDbEllipse
 62
7
  6
CONTINUOUS
 10
99.1607538638
 20
105.1630815371
 30
0.0
 11
66.499385627
 21
343.6265711523
 31
0.0
 40
0.4627391599
 41
-4.4163964375
 42
-4.2161159444
  0
ELLIPSE
  5
41D
100
AcDbEntity
  8
DRAFT
100
AcDbEllipse
 62
7
  6
CONTINUOUS
 10
-69.8802460327
 20
-29.4447351712
 30
0.0
 11
0.9499912232
 21
4.9089510165
 31
0.0
 40
0.4627391599
 41
-4.2161159444
 42
-3.1433329179
  0
ELLIPSE
  5
41E
100
AcDbEntity
  8
0
100
AcDbEllipse
 62
7
  6
CONTINUOUS
 10
94.6787849567
 20
106.0481154179
 30
0.0
 11
-193.2542382666
 21
370.7315974856
 31
0.0
 40
0.4861778622
 41
-4.5920798853
 42
-4.5916221273
  0
ELLIPSE
  5
41F
100
AcDbEntity
  8
0
100
AcDbEllipse
 62
7
  6
CONTINUOUS
 10
104.0034563827
 20
104.2068152414
 30
0.0
 11
-62.5430784039
 21
362.1784842292
 31
0.0
 40
0.5277585691
 41
-4.4197261742
 42
-4.4192683962
  0
ELLIPSE
  5
420
100
AcDbEntity
  8
0
100
AcDbEllipse
 62
7
  6
CONTINUOUS
 10
122.773495274
 20
100.5003815942
 30
0.0
 11
170.5281182154
 21
321.4676612036
 31
0.0
 40
0.3316597928
 41
-4.1197676106
 42
-4.1193097995
  0
ELLIPSE
  5
421
100
AcDbEntity
  8
0
100
AcDbEllipse
 62
7
  6
CONTINUOUS
 10
132.2184374281
 20
98.6353321077
 30
0.0
 11
257.8546532
 21
304.0040326347
 31
0.0
 40
0.1902518542
 41
-4.113303358
 42
-4.1128455267
  0
ELLIPSE
  5
422
100
AcDbEntity
  8
DRAFT
100
AcDbEllipse
 62
7
  6
CONTINUOUS
 10
-69.8811691377
 20
35.3759661811
 30
0.0
 11
0.9499912232
 21
4.9089510165
 31
0.0
 40
0.4627391599
 41
0.7056003062
 42
1.8667888697
  0
ELLIPSE
  5
423
100
AcDbEntity
  8
0
100
AcDbEllipse
 62
7
  6
CONTINUOUS
 10
97.8300600506
 20
105.4258475522
 30
0.0
 11
-130.0386440779
 21
366.9850282437
 31
0.0
 40
0.5154458938
 41
1.7672890801
 42
1.7678995173
  0
ELLIPSE
  5
424
100
AcDbEntity
  8
0
100
AcDbEllipse
 62
7
  6
CONTINUOUS
 10
90.7124394405
 20
106.8313315083
 30
0.0
 11
-223.0490106171
 21
372.7939985973
 31
0.0
 40
0.4684052207
 41
-4.6184030625
 42
-4.6177925895
  0
ELLIPSE
  5
425
100
AcDbEntity
  8
0
100
AcDbEllipse
 62
7
  6
CONTINUOUS
 10
64.4489789892
 20
112.0174568047
 30
0.0
 11
510.8793392859
 21
-413.0600297528
 31
0.0
 40
0.2920152321
 41
-1.5823345773
 42
-1.5818766988
  0
ELLIPSE
  5
426
100
AcDbEntity
  8
0
100
AcDbEllipse
 62
7
  6
CONTINUOUS
 10
161.1251548304
 20
92.9272549625
 30
0.0
 11
524.8635520386
 21
252.9473527474
 31
0.0
 40
0.0318958473
 41
-2.0233071258
 42
-2.0228492473
  0
ELLIPSE
  5
427
100
AcDbEntity
  8
0
100
AcDbEllipse
 62
7
  6
CONTINUOUS
 10
92.6940901355
 20
106.4400240179
 30
0.0
 11
-193.2549333935
 21
370.7316420369
 31
0.0
 40
0.4861774711
 41
-4.592080601
 42
-4.591622843
  0
ELLIPSE
  5
428
100
AcDbEntity
  8
0
100
AcDbEllipse
 62
7
  6
CONTINUOUS
 10
102.0188682754
 20
104.5987027692
 30
0.0
 11
-62.5422927882
 21
362.1784143735
 31
0.0
 40
0.527758571
 41
-4.4197249689
 42
-4.4192671909
  0
ELLIPSE
  5
429
100
AcDbEntity
  8
0
100
AcDbEllipse
 62
7
  6
CONTINUOUS
 10
120.7887997645
 20
100.8922903302
 30
0.0
 11
170.5275936787
 21
321.4677737248
 31
0.0
 40
0.3316606511
 41
-4.1197678625
 42
-4.1193100514
  0
ELLIPSE
  5
42A
100
AcDbEntity
  8
0
100
AcDbEllipse
 62
7
  6
CONTINUOUS
 10
130.233850009
 20
99.0272194996
 30
0.0
 11
257.8551414825
 21
304.0039412686
 31
0.0
 40
0.1902511264
 41
-4.1133034923
 42
-4.112845661
  0
ELLIPSE
  5
42B
100
AcDbEntity
  8
0
100
AcDbEllipse
 62
7
  6
CONTINUOUS
 10
95.8454185863
 20
105.8177456161
 30
0.0
 11
-130.0386440779
 21
366.9850282437
 31
0.0
 40
0.5154458938
 41
1.7672890801
 42
1.7678995173
  0
ELLIPSE
  5
42C
100
AcDbEntity
  8
0
100
AcDbEllipse
 62
7
  6
CONTINUOUS
 10
88.7277979762
 20
107.2232295722
 30
0.0
 11
-223.0490106171
 21
372.7939985973
 31
0.0
 40
0.4684052207
 41
-4.6184030625
 42
-4.6177925895
  0
ELLIPSE
  5
42D
100
AcDbEntity
  8
0
100
AcDbEllipse
 62
7
  6
CONTINUOUS
 10
62.4643921723
 20
112.4093440776
 30
0.0
 11
510.8787716512
 21
-413.0599242809
 31
0.0
 40
0.292015502
 41
-1.582334539
 42
-1.5818766605
  0
ELLIPSE
  5
42E
100
AcDbEntity
  8
0
100
AcDbEllipse
 62
7
  6
CONTINUOUS
 10
159.1404584605
 20
93.3191638684
 30
0.0
 11
524.8630187292
 21
252.9474625079
 31
0.0
 40
0.031895664
 41
-2.0233074196
 42
-2.0228495411
  0
ELLIPSE
  5
42F
100
AcDbEntity
  8
0
100
AcDbEllipse
 62
7
  6
CONTINUOUS
 10
100.2898467096
 20
104.940124742
 30
0.0
 11
-62.5419640843
 21
362.1783851455
 31
0.0
 40
0.5277585717
 41
-4.4227758152
 42
-4.4223181677
  0
ELLIPSE
  5
430
100
AcDbEntity
  8
0
100
AcDbEllipse
 62
7
  6
CONTINUOUS
 10
118.4733579802
 20
101.3495100188
 30
0.0
 11
170.5273314102
 21
321.4678299855
 31
0.0
 40
0.3316610802
 41
-4.1226669986
 42
-4.1222093125
  0
ELLIPSE
  5
431
100
AcDbEntity
  8
0
100
AcDbEllipse
 62
7
  6
CONTINUOUS
 10
200.0705363743
 20
85.2368887681
 30
0.0
 11
-62.5400000437
 21
362.1782105039
 31
0.0
 40
0.5277585764
 41
-4.4227728019
 42
-4.4223151545
  0
ELLIPSE
  5
432
100
AcDbEntity
  8
0
100
AcDbEllipse
 62
7
  6
CONTINUOUS
 10
218.2537875274
 20
81.6463254092
 30
0.0
 11
170.5260200658
 21
321.4681112895
 31
0.0
 40
0.3316632259
 41
-4.1226676284
 42
-4.1222099423
  0
ELLIPSE
  5
433
100
AcDbEntity
  8
0
100
AcDbEllipse
 62
7
  6
CONTINUOUS
 10
198.1562186099
 20
85.614900333
 30
0.0
 11
-82.108575306
 21
363.7955083111
 31
0.0
 40
0.5266219951
 41
-4.449622686
 42
-4.4464179129
  0
ELLIPSE
  5
434
100
AcDbEntity
  8
0
100
AcDbEllipse
 62
7
  6
CONTINUOUS
 10
197.5144219741
 20
85.7416329764
 30
0.0
 11
-62.5420736523
 21
362.1783948882
 31
0.0
 40
0.5277585715
 41
-4.4233861501
 42
-4.4192668547
  0
ELLIPSE
  5
435
100
AcDbEntity
  8
0
100
AcDbEllipse
 62
7
  6
CONTINUOUS
 10
215.3912352648
 20
82.2115804992
 30
0.0
 11
172.4746005843
 21
321.0506634256
 31
0.0
 40
0.3284699681
 41
-4.1238872347
 42
-4.1167159854
  0
ELLIPSE
  5
436
100
AcDbEntity
  8
0
100
AcDbEllipse
 62
7
  6
CONTINUOUS
 10
197.4993682948
 20
85.7446055575
 30
0.0
 11
-62.5423408663
 21
362.1784186485
 31
0.0
 40
0.5277585708
 41
-4.4186568632
 42
-4.4168254437
  0
ELLIPSE
  5
437
100
AcDbEntity
  8
0
100
AcDbEllipse
 62
7
  6
CONTINUOUS
 10
214.3492977777
 20
82.4173271246
 30
0.0
 11
177.0393462855
 21
320.0772362576
 31
0.0
 40
0.3209548294
 41
2.1612893073
 42
2.1676974257
  0
ELLIPSE
  5
438
100
AcDbEntity
  8
0
100
AcDbEllipse
 62
7
  6
CONTINUOUS
 10
193.0432866364
 20
86.6245276018
 30
0.0
 11
-81.0545676365
 21
363.7142459229
 31
0.0
 40
0.526737439
 41
-4.4504935872
 42
-4.4448477339
  0
ELLIPSE
  5
439
100
AcDbEntity
  8
0
100
AcDbEllipse
 62
7
  6
CONTINUOUS
 10
210.9084047959
 20
83.0967845086
 30
0.0
 11
172.7589599432
 21
320.9898383567
 31
0.0
 40
0.3280031817
 41
2.1594284396
 42
2.1656839386
  0
ELLIPSE
  5
43A
100
AcDbEntity
  8
0
100
AcDbEllipse
 62
7
  6
CONTINUOUS
 10
191.1605613757
 20
86.9963007396
 30
0.0
 11
-65.4626620581
 21
362.4352015904
 31
0.0
 40
0.5277268313
 41
-4.428468451
 42
-4.4212972017
  0
ELLIPSE
  5
43B
100
AcDbEntity
  8
RACCORDO
100
AcDbEllipse
 62
7
  6
CONTINUOUS
 10
29.4010825299
 20
3.8225918788
 30
0.0
 11
-0.609642398
 21
0.5499411401
 31
0.0
 40
0.6544438523
 41
-0.9895021425
 42
-0.8303740675
  0
ELLIPSE
  5
43C
100
AcDbEntity
  8
0
100
AcDbEllipse
 62
7
  6
CONTINUOUS
 10
198.1734847826
 20
85.6114908609
 30
0.0
 11
-86.3059757507
 21
363.9599059957
 31
0.0
 40
0.5260979702
 41
-4.4561086841
 42
-4.4526535467
  0
ELLIPSE
  5
43D
100
AcDbEntity
  8
0
100
AcDbEllipse
 62
7
  6
CONTINUOUS
 10
230.0076675472
 20
79.3253405331
 30
0.0
 11
279.0740153295
 21
299.9211306639
 31
0.0
 40
0.1596074604
 41
-4.1231405784
 42
-4.1225300274
  0
ELLIPSE
  5
43E
100
AcDbEntity
  8
0
100
AcDbEllipse
 62
7
  6
CONTINUOUS
 10
218.5394553999
 20
81.5899158822
 30
0.0
 11
170.4529687935
 21
321.3303982617
 31
0.0
 40
0.3316632259
 41
-4.1224753677
 42
-4.1220174773
  0
ELLIPSE
  5
43F
100
AcDbEntity
  8
0
100
AcDbEllipse
 62
7
  6
CONTINUOUS
 10
200.3411693129
 20
85.1834481207
 30
0.0
 11
-62.5132086685
 21
362.0230577649
 31
0.0
 40
0.5277585764
 41
-4.4227335627
 42
-4.4222757174
  0
ELLIPSE
  5
440
100
AcDbEntity
  8
0
100
AcDbEllipse
 62
7
  6
CONTINUOUS
 10
189.0608990533
 20
87.4109114458
 30
0.0
 11
-222.9534821644
 21
372.6342999121
 31
0.0
 40
0.4684052062
 41
-4.6237042413
 42
-4.6230938108
  0
ELLIPSE
  5
441
100
AcDbEntity
  8
0
100
AcDbEllipse
 62
7
  6
CONTINUOUS
 10
132.8770526567
 20
98.5052783738
 30
0.0
 11
279.1936016495
 21
300.049671385
 31
0.0
 40
0.1596074836
 41
-4.1199760704
 42
-4.1193655973
  0
ELLIPSE
  5
442
100
AcDbEntity
  8
0
100
AcDbEllipse
 62
7
  6
CONTINUOUS
 10
173.3738912187
 20
90.5085530649
 30
0.0
 11
410.5622689053
 21
-395.3444226316
 31
0.0
 40
0.3455526779
 41
-1.5756706245
 42
-1.5752128239
  0
ELLIPSE
  5
443
100
AcDbEntity
  8
0
100
AcDbEllipse
 62
7
  6
CONTINUOUS
 10
122.912336076
 20
100.4729653367
 30
0.0
 11
188.5970500569
 21
317.6428627283
 31
0.0
 40
0.3017724052
 41
-4.1126259989
 42
-4.1118629579
  0
ELLIPSE
  5
444
100
AcDbEntity
  8
0
100
AcDbEllipse
 62
7
  6
CONTINUOUS
 10
100.388482208
 20
104.9206476417
 30
0.0
 11
-89.8921560894
 21
364.3772207299
 31
0.0
 40
0.5255853396
 41
-4.4612752045
 42
-4.4605122633
  0
ELLIPSE
  5
445
100
AcDbEntity
  8
0
100
AcDbEllipse
 62
7
  6
CONTINUOUS
 10
90.6447794076
 20
106.8446920252
 30
0.0
 11
-223.0490336567
 21
372.7940003263
 31
0.0
 40
0.4684052062
 41
-4.6211497709
 42
-4.6205394575
  0
ELLIPSE
  5
446
100
AcDbEntity
  8
0
100
AcDbEllipse
 62
7
  6
CONTINUOUS
 10
65.2909981522
 20
111.8511871355
 30
0.0
 11
510.8788150738
 21
-413.0599323492
 31
0.0
 40
0.2920154814
 41
-1.5861494151
 42
-1.585691703
  0
ELLIPSE
  5
447
100
AcDbEntity
  8
0
100
AcDbEllipse
 62
7
  6
CONTINUOUS
 10
156.3138524807
 20
93.8773208105
 30
0.0
 11
524.863059526
 21
252.9474541115
 31
0.0
 40
0.031895678
 41
-2.0194923576
 42
-2.0190346455
  0
ELLIPSE
  5
448
100
AcDbEntity
  8
0
100
AcDbEllipse
 62
7
  6
CONTINUOUS
 10
75.2663982153
 20
109.8813905542
 30
0.0
 11
1492.9778085147
 21
-612.2533264202
 31
0.0
 40
0.1008816547
 41
-1.5567121509
 42
-1.5565595549
  0
ELLIPSE
  5
449
100
AcDbEntity
  8
0
100
AcDbEllipse
 62
7
  6
CONTINUOUS
 10
147.485238738
 20
95.6206667473
 30
0.0
 11
432.8689531672
 21
271.4105213874
 31
0.0
 40
0.0109528299
 41
2.0738907823
 42
2.0743485271
  0
ELLIPSE
  5
44A
100
AcDbEntity
  8
DRAFT
100
AcDbEllipse
 62
7
  6
CONTINUOUS
 10
218.3816692265
 20
81.6210731955
 30
0.0
 11
69.1301643452
 21
343.1070285799
 31
0.0
 40
0.476942715
 41
-4.4127961968
 42
-4.2125157038
  0
ELLIPSE
  5
44B
100
AcDbEntity
  8
0
100
AcDbEllipse
 62
7
  6
CONTINUOUS
 10
89.2803577141
 20
107.1141181305
 30
0.0
 11
-223.0487826721
 21
372.793981491
 31
0.0
 40
0.4684053634
 41
-4.6237429958
 42
-4.623132829
  0
ELLIPSE
  5
44C
100
AcDbEntity
  8
0
100
AcDbEllipse
 62
7
  6
CONTINUOUS
 10
73.5933819371
 20
110.2117534193
 30
0.0
 11
410.7376437098
 21
-395.5137619552
 31
0.0
 40
0.3455530228
 41
-1.5757092803
 42
-1.5752516774
  0
ELLIPSE
  5
44D
100
AcDbEntity
  8
0
100
AcDbEllipse
 62
7
  6
CONTINUOUS
 10
291.7094135567
 20
67.1413792304
 30
0.0
 11
907.3184461415
 21
171.2220364894
 31
0.0
 40
0.076849057
 41
4.4106416463
 42
4.4107561853
  0
ELLIPSE
  5
44E
100
AcDbEntity
  8
0
100
AcDbEllipse
 62
7
  6
CONTINUOUS
 10
100.560453701
 20
104.8866892183
 30
0.0
 11
-62.5155645076
 21
362.0232672447
 31
0.0
 40
0.5277585708
 41
-4.4227371786
 42
-4.4222793333
  0
ELLIPSE
  5
44F
100
AcDbEntity
  8
0
100
AcDbEllipse
 62
7
  6
CONTINUOUS
 10
146.3876717483
 20
95.8373982759
 30
0.0
 11
432.8689531672
 21
271.4105213874
 31
0.0
 40
0.0109528299
 41
2.073738205
 42
2.0741959433
  0
ELLIPSE
  5
450
100
AcDbEntity
  8
0
100
AcDbEllipse
 62
7
  6
CONTINUOUS
 10
89.2803577141
 20
107.1141181305
 30
0.0
 11
-222.9532312872
 21
372.6342810848
 31
0.0
 40
0.4684053634
 41
-4.6237040202
 42
-4.6230935897
  0
ELLIPSE
  5
451
100
AcDbEntity
  8
0
100
AcDbEllipse
 62
7
  6
CONTINUOUS
 10
130.227087158
 20
99.0285549288
 30
0.0
 11
279.193435146
 21
300.0497019929
 31
0.0
 40
0.1596077132
 41
-4.1231804058
 42
-4.1225701186
  0
ELLIPSE
  5
452
100
AcDbEntity
  8
0
100
AcDbEllipse
 62
7
  6
CONTINUOUS
 10
118.7590521871
 20
101.2930952917
 30
0.0
 11
170.5275936787
 21
321.4677737248
 31
0.0
 40
0.3316606511
 41
-4.1225143128
 42
-4.1220566202
  0
ELLIPSE
  5
453
100
AcDbEntity
  8
0
100
AcDbEllipse
 62
7
  6
CONTINUOUS
 10
73.5933819371
 20
110.2117534193
 30
0.0
 11
410.5616887004
 21
-395.3443286715
 31
0.0
 40
0.3455530228
 41
-1.5756705024
 42
-1.5752127018
  0
ELLIPSE
  5
454
100
AcDbEntity
  8
0
100
AcDbEllipse
 62
7
  6
CONTINUOUS
 10
100.560453701
 20
104.8866892183
 30
0.0
 11
-62.5423568924
 21
362.1784200735
 31
0.0
 40
0.5277585708
 41
-4.4227764178
 42
-4.4223187703
  0
ELLIPSE
  5
455
100
AcDbEntity
  8
0
100
AcDbEllipse
 62
7
  6
CONTINUOUS
 10
-24.5140089981
 20
129.5845707537
 30
0.0
 11
1492.9761188419
 21
-612.2529830417
 31
0.0
 40
0.1008817763
 41
-1.5567122106
 42
-1.5565596147
  0
ELLIPSE
  5
456
100
AcDbEntity
  8
DRAFT
100
AcDbEllipse
 62
7
  6
CONTINUOUS
 10
167.0417132549
 20
91.7589392575
 30
0.0
 11
100.2785227157
 21
334.8165253012
 31
0.0
 40
0.609797872
 41
-4.3227533747
 42
-4.3224772769
  0
ELLIPSE
  5
457
100
AcDbEntity
  8
0
100
AcDbEllipse
 62
7
  6
CONTINUOUS
 10
146.3876717483
 20
95.8373982759
 30
0.0
 11
432.683517374
 21
271.2942524221
 31
0.0
 40
0.0109528299
 41
2.0737783675
 42
2.0742363037
  0
ELLIPSE
  5
458
100
AcDbEntity
  8
0
100
AcDbEllipse
 62
7
  6
CONTINUOUS
 10
130.227087158
 20
99.0285549288
 30
0.0
 11
279.0738320751
 21
299.9211643511
 31
0.0
 40
0.1596077132
 41
-4.1231405071
 42
-4.1225299562
  0
ELLIPSE
  5
459
100
AcDbEntity
  8
0
100
AcDbEllipse
 62
7
  6
CONTINUOUS
 10
118.7590521871
 20
101.2930952917
 30
0.0
 11
170.4545417322
 21
321.3300608416
 31
0.0
 40
0.3316606511
 41
-4.122474612
 42
-4.1220167216
  0
ELLIPSE
  5
45A
100
AcDbEntity
  8
0
100
AcDbEllipse
 62
7
  6
CONTINUOUS
 10
191.9291691244
 20
86.8445272863
 30
0.0
 11
907.3217799967
 21
171.2213224216
 31
0.0
 40
0.0768490844
 41
4.4106424768
 42
4.4107570154
  0
ELLIPSE
  5
45B
100
AcDbEntity
  8
RACCORDO
100
AcDbEllipse
 62
7
  6
CONTINUOUS
 10
-58.6804070012
 20
20.4786612929
 30
0.0
 11
-0.1085604031
 21
1.3901490875
 31
0.0
 40
0.3064995617
 41
6.1976135672
 42
6.8878333558
  0
ELLIPSE
  5
45C
100
AcDbEntity
  8
0
100
AcDbEllipse
 62
7
  6
CONTINUOUS
 10
225.3614163147
 20
80.2428144925
 30
0.0
 11
1199.9793863053
 21
109.1647089518
 31
0.0
 40
0.0733829652
 41
-1.8203593743
 42
-1.8202066889
  0
ELLIPSE
  5
45D
100
AcDbEntity
  8
0
100
AcDbEllipse
 62
7
  6
CONTINUOUS
 10
-3.7564022556
 20
125.4856611824
 30
0.0
 11
1197.941524609
 21
-552.0718785816
 31
0.0
 40
0.1273987989
 41
-1.5621264208
 42
-1.5619737355
  0
ELLIPSE
  5
45E
100
AcDbEntity
  8
0
100
AcDbEllipse
 62
7
  6
CONTINUOUS
 10
67.6454876294
 20
111.3862568777
 30
0.0
 11
460.8853551407
 21
-403.8654197958
 31
0.0
 40
0.3171396067
 41
-1.5781927334
 42
-1.5778873694
  0
ELLIPSE
  5
45F
100
AcDbEntity
  8
0
100
AcDbEllipse
 62
7
  6
CONTINUOUS
 10
96.116051525
 20
105.7643049687
 30
0.0
 11
-129.9829371049
 21
366.8278163224
 31
0.0
 40
0.5154458938
 41
-4.5158552068
 42
-4.5152445056
  0
ELLIPSE
  5
460
100
AcDbEntity
  8
0
100
AcDbEllipse
 62
7
  6
CONTINUOUS
 10
198.1734847826
 20
85.6114908609
 30
0.0
 11
-86.342964026
 21
364.1158888126
 31
0.0
 40
0.5260979702
 41
-4.4562052978
 42
-4.4526953592
  0
ELLIPSE
  5
461
100
AcDbEntity
  8
0
100
AcDbEllipse
 62
7
  6
CONTINUOUS
 10
230.0076675472
 20
79.3253405331
 30
0.0
 11
279.1936184789
 21
300.0496682913
 31
0.0
 40
0.1596074604
 41
-4.123180477
 42
-4.1225701899
  0
ELLIPSE
  5
462
100
AcDbEntity
  8
0
100
AcDbEllipse
 62
7
  6
CONTINUOUS
 10
218.5394553999
 20
81.5899158822
 30
0.0
 11
170.5260200658
 21
321.4681112895
 31
0.0
 40
0.3316632259
 41
-4.1225150685
 42
-4.1220573759
  0
ELLIPSE
  5
463
100
AcDbEntity
  8
0
100
AcDbEllipse
 62
7
  6
CONTINUOUS
 10
200.3411693129
 20
85.1834481207
 30
0.0
 11
-62.5400000437
 21
362.1782105039
 31
0.0
 40
0.5277585764
 41
-4.4227728019
 42
-4.4223151545
  0
ELLIPSE
  5
464
100
AcDbEntity
  8
0
100
AcDbEllipse
 62
7
  6
CONTINUOUS
 10
211.1513141323
 20
83.0488183141
 30
0.0
 11
172.4006645309
 21
320.9131399316
 31
0.0
 40
0.3284700503
 41
-4.1238485458
 42
-4.1166741959
  0
ELLIPSE
  5
465
100
AcDbEntity
  8
0
100
AcDbEllipse
 62
7
  6
CONTINUOUS
 10
132.8770526567
 20
98.5052783738
 30
0.0
 11
279.0739985073
 21
299.9211337563
 31
0.0
 40
0.1596074836
 41
-4.1199347861
 42
-4.1193240489
  0
ELLIPSE
  5
466
100
AcDbEntity
  8
0
100
AcDbEllipse
 62
7
  6
CONTINUOUS
 10
189.0608990533
 20
87.4109114458
 30
0.0
 11
-223.0490336567
 21
372.7940003263
 31
0.0
 40
0.4684052062
 41
-4.6237432169
 42
-4.6231330501
  0
ELLIPSE
  5
467
100
AcDbEntity
  8
0
100
AcDbEllipse
 62
7
  6
CONTINUOUS
 10
122.912336076
 20
100.4729653367
 30
0.0
 11
188.5162573752
 21
317.5067883905
 31
0.0
 40
0.3017724052
 41
-4.1125850446
 42
-4.1118216737
  0
ELLIPSE
  5
468
100
AcDbEntity
  8
0
100
AcDbEllipse
 62
7
  6
CONTINUOUS
 10
100.388482208
 20
104.9206476417
 30
0.0
 11
-89.8536473834
 21
364.2211259616
 31
0.0
 40
0.5255853396
 41
-4.4612348441
 42
-4.460471573
  0
ELLIPSE
  5
469
100
AcDbEntity
  8
0
100
AcDbEllipse
 62
7
  6
CONTINUOUS
 10
90.6447794076
 20
106.8446920252
 30
0.0
 11
-222.9534821644
 21
372.6342999121
 31
0.0
 40
0.4684052062
 41
-4.6211096743
 42
-4.6204990972
  0
ELLIPSE
  5
46A
100
AcDbEntity
  8
0
100
AcDbEllipse
 62
7
  6
CONTINUOUS
 10
173.3738912187
 20
90.5085530649
 30
0.0
 11
410.7382241634
 21
-395.5138559556
 31
0.0
 40
0.3455526779
 41
-1.5757094023
 42
-1.5752517995
  0
ELLIPSE
  5
46B
100
AcDbEntity
  8
0
100
AcDbEllipse
 62
7
  6
CONTINUOUS
 10
65.2909981522
 20
111.8511871355
 30
0.0
 11
510.6599608048
 21
-412.8829824995
 31
0.0
 40
0.2920154814
 41
-1.5861095165
 42
-1.5856516065
  0
ELLIPSE
  5
46C
100
AcDbEntity
  8
0
100
AcDbEllipse
 62
7
  6
CONTINUOUS
 10
-26.4537015888
 20
129.9675929694
 30
0.0
 11
1492.9778085147
 21
-612.2533264202
 31
0.0
 40
0.1008816547
 41
-1.5541177296
 42
-1.5539650973
  0
ELLIPSE
  5
46D
100
AcDbEntity
  8
0
100
AcDbEllipse
 62
7
  6
CONTINUOUS
 10
248.0583947317
 20
75.7609460755
 30
0.0
 11
1494.2498451122
 21
47.9632898729
 31
0.0
 40
0.0660229559
 41
-1.7831693159
 42
-1.7830166836
  0
ELLIPSE
  5
46E
100
AcDbEntity
  8
0
100
AcDbEllipse
 62
7
  6
CONTINUOUS
 10
156.3138524807
 20
93.8773208105
 30
0.0
 11
524.6382145769
 21
252.8390944995
 31
0.0
 40
0.031895678
 41
-2.0195324541
 42
-2.0190745441
  0
ELLIPSE
  5
46F
100
AcDbEntity
  8
0
100
AcDbEllipse
 62
7
  6
CONTINUOUS
 10
215.4423499781
 20
82.2014871107
 30
0.0
 11
170.5274045661
 21
321.4678142924
 31
0.0
 40
0.3316609605
 41
-4.124192445
 42
-4.1200731496
  0
ELLIPSE
  5
470
100
AcDbEntity
  8
0
100
AcDbEllipse
 62
7
  6
CONTINUOUS
 10
215.4574036574
 20
82.1985145296
 30
0.0
 11
170.5275829785
 21
321.4677760202
 31
0.0
 40
0.3316606686
 41
-4.1194626624
 42
-4.117631243
  0
ELLIPSE
  5
471
100
AcDbEntity
  8
0
100
AcDbEllipse
 62
7
  6
CONTINUOUS
 10
191.4034715251
 20
86.9483343845
 30
0.0
 11
-65.8617096436
 21
362.3170135892
 31
0.0
 40
0.5277180435
 41
-4.4290825313
 42
-4.4231188412
  0
ELLIPSE
  5
472
100
AcDbEntity
  8
0
100
AcDbEllipse
 62
7
  6
CONTINUOUS
 10
197.5655366874
 20
85.7315395879
 30
0.0
 11
-65.462724712
 21
362.4352070381
 31
0.0
 40
0.5277268301
 41
-4.4284685467
 42
-4.4212972974
  0
ELLIPSE
  5
473
100
AcDbEntity
  8
0
100
AcDbEllipse
 62
7
  6
CONTINUOUS
 10
193.9165069625
 20
86.4520967818
 30
0.0
 11
-72.3399563473
 21
363.0178043748
 31
0.0
 40
0.5274584916
 41
-4.4389271896
 42
-4.4325190712
  0
ELLIPSE
  5
474
100
AcDbEntity
  8
0
100
AcDbEllipse
 62
7
  6
CONTINUOUS
 10
215.2225144646
 20
82.2448970231
 30
0.0
 11
182.7906290163
 21
318.860235308
 31
0.0
 40
0.3114306688
 41
-4.1181683723
 42
-4.112522519
  0
ELLIPSE
  5
475
100
AcDbEntity
  8
0
100
AcDbEllipse
 62
7
  6
CONTINUOUS
 10
227.3462214633
 20
79.8508841067
 30
0.0
 11
1199.9810666574
 21
109.1643563189
 31
0.0
 40
0.0733829269
 41
-1.8203591335
 42
-1.8202064481
  0
ELLIPSE
  5
476
100
AcDbEntity
  8
0
100
AcDbEllipse
 62
7
  6
CONTINUOUS
 10
-1.7717607913
 20
125.0937631185
 30
0.0
 11
1197.941524609
 21
-552.0718785816
 31
0.0
 40
0.1273987989
 41
-1.5621264208
 42
-1.5619737355
  0
ELLIPSE
  5
477
100
AcDbEntity
  8
0
100
AcDbEllipse
 62
7
  6
CONTINUOUS
 10
69.6301290938
 20
110.9943588138
 30
0.0
 11
460.8853551407
 21
-403.8654197958
 31
0.0
 40
0.3171396067
 41
-1.5781927334
 42
-1.5778873694
  0
ELLIPSE
  5
478
100
AcDbEntity
  8
0
100
AcDbEllipse
 62
7
  6
CONTINUOUS
 10
98.1006929893
 20
105.3724069048
 30
0.0
 11
-129.9829371049
 21
366.8278163224
 31
0.0
 40
0.5154458938
 41
-4.5158552068
 42
-4.5152445056
  0
ELLIPSE
  5
479
100
AcDbEntity
  8
0
100
AcDbEllipse
 62
7
  6
CONTINUOUS
 10
191.4034715251
 20
86.9483343845
 30
0.0
 11
-65.8899360906
 21
362.4722923093
 31
0.0
 40
0.5277180435
 41
-4.4291212433
 42
-4.4228657442
  0
ELLIPSE
  5
47A
100
AcDbEntity
  8
0
100
AcDbEllipse
 62
7
  6
CONTINUOUS
 10
211.1513141323
 20
83.0488183141
 30
0.0
 11
172.47455053
 21
321.0506741345
 31
0.0
 40
0.3284700503
 41
-4.1238872577
 42
-4.1167160084
  0
ELLIPSE
  5
47B
100
AcDbEntity
  8
0
100
AcDbEllipse
 62
7
  6
CONTINUOUS
 10
134.8616943791
 20
98.1133802589
 30
0.0
 11
279.0739985073
 21
299.9211337563
 31
0.0
 40
0.1596074836
 41
-4.1199347861
 42
-4.1193240489
  0
ELLIPSE
  5
47C
100
AcDbEntity
  8
0
100
AcDbEllipse
 62
7
  6
CONTINUOUS
 10
124.8969452164
 20
100.0810736556
 30
0.0
 11
188.5159513971
 21
317.5068522337
 31
0.0
 40
0.3017729151
 41
-4.1125851348
 42
-4.1118217638
  0
ELLIPSE
  5
47D
100
AcDbEntity
  8
0
100
AcDbEllipse
 62
7
  6
CONTINUOUS
 10
102.3731557897
 20
104.5287432357
 30
0.0
 11
-89.8531809366
 21
364.2210920321
 31
0.0
 40
0.5255854114
 41
-4.4612341599
 42
-4.4604708887
  0
ELLIPSE
  5
47E
100
AcDbEntity
  8
0
100
AcDbEllipse
 62
7
  6
CONTINUOUS
 10
92.62942113
 20
106.4527939104
 30
0.0
 11
-222.9534821644
 21
372.6342999121
 31
0.0
 40
0.4684052062
 41
-4.6211096743
 42
-4.6204990972
  0
ELLIPSE
  5
47F
100
AcDbEntity
  8
0
100
AcDbEllipse
 62
7
  6
CONTINUOUS
 10
67.2755871198
 20
111.4592994379
 30
0.0
 11
510.6605281964
 21
-412.8830879263
 31
0.0
 40
0.2920152115
 41
-1.5861095547
 42
-1.5856516448
  0
ELLIPSE
  5
480
100
AcDbEntity
  8
0
100
AcDbEllipse
 62
7
  6
CONTINUOUS
 10
-24.4690601245
 20
129.5756949055
 30
0.0
 11
1492.9778085147
 21
-612.2533264202
 31
0.0
 40
0.1008816547
 41
-1.5541177296
 42
-1.5539650973
  0
ELLIPSE
  5
481
100
AcDbEntity
  8
0
100
AcDbEllipse
 62
7
  6
CONTINUOUS
 10
250.0428789641
 20
75.3690790594
 30
0.0
 11
1494.2481584726
 21
47.9636378509
 31
0.0
 40
0.0660229988
 41
-1.7831694682
 42
-1.7830168359
  0
ELLIPSE
  5
482
100
AcDbEntity
  8
0
100
AcDbEllipse
 62
7
  6
CONTINUOUS
 10
158.2985466998
 20
93.4854123293
 30
0.0
 11
524.6387476578
 21
252.8389847861
 31
0.0
 40
0.0318958613
 41
-2.0195321603
 42
-2.0190742503
  0
ELLIPSE
  5
483
100
AcDbEntity
  8
DRAFT
100
AcDbEllipse
 62
7
  6
CONTINUOUS
 10
44.1510518818
 20
12.8585455568
 30
0.0
 11
0.9875737764
 21
4.9015289797
 31
0.0
 40
0.476942715
 41
1.2222616266
 42
1.8703891103
  0
ELLIPSE
  5
484
100
AcDbEntity
  8
0
100
AcDbEllipse
 62
7
  6
CONTINUOUS
 10
193.9165069625
 20
86.4520967818
 30
0.0
 11
-72.3089667901
 21
362.862291964
 31
0.0
 40
0.5274584916
 41
-4.4388884776
 42
-4.4327550379
  0
ELLIPSE
  5
485
100
AcDbEntity
  8
0
100
AcDbEllipse
 62
7
  6
CONTINUOUS
 10
98.1006929893
 20
105.3724069048
 30
0.0
 11
-130.0386440779
 21
366.9850282437
 31
0.0
 40
0.5154458938
 41
-4.5158962271
 42
-4.5152857898
  0
ELLIPSE
  5
486
100
AcDbEntity
  8
DRAFT
100
AcDbEllipse
 62
7
  6
CONTINUOUS
 10
44.1520033212
 20
-51.9621613907
 30
0.0
 11
0.9875737764
 21
4.9015289797
 31
0.0
 40
0.476942715
 41
-4.2125157038
 42
-3.6561700679
  0
ELLIPSE
  5
487
100
AcDbEntity
  8
0
100
AcDbEllipse
 62
7
  6
CONTINUOUS
 10
215.2225144646
 20
82.2448970231
 30
0.0
 11
182.7123237347
 21
318.7236394625
 31
0.0
 40
0.3114306688
 41
-4.1174281118
 42
-4.1124807065
  0
ELLIPSE
  5
488
100
AcDbEntity
  8
0
100
AcDbEllipse
 62
7
  6
CONTINUOUS
 10
134.8616943791
 20
98.1133802589
 30
0.0
 11
279.1936016495
 21
300.049671385
 31
0.0
 40
0.1596074836
 41
-4.1199760704
 42
-4.1193655973
  0
ELLIPSE
  5
489
100
AcDbEntity
  8
0
100
AcDbEllipse
 62
7
  6
CONTINUOUS
 10
124.8969452164
 20
100.0810736556
 30
0.0
 11
188.5967439477
 21
317.6429265989
 31
0.0
 40
0.3017729151
 41
-4.112626089
 42
-4.1118630481
  0
ELLIPSE
  5
48A
100
AcDbEntity
  8
0
100
AcDbEllipse
 62
7
  6
CONTINUOUS
 10
102.3731557897
 20
104.5287432357
 30
0.0
 11
-89.8916894427
 21
364.3771867859
 31
0.0
 40
0.5255854114
 41
-4.4612745202
 42
-4.460511579
  0
ELLIPSE
  5
48B
100
AcDbEntity
  8
0
100
AcDbEllipse
 62
7
  6
CONTINUOUS
 10
92.62942113
 20
106.4527939104
 30
0.0
 11
-223.0490336567
 21
372.7940003263
 31
0.0
 40
0.4684052062
 41
-4.6211497709
 42
-4.6205394575
  0
ELLIPSE
  5
48C
100
AcDbEntity
  8
0
100
AcDbEllipse
 62
7
  6
CONTINUOUS
 10
67.2755871198
 20
111.4592994379
 30
0.0
 11
510.8793827085
 21
-413.0600378211
 31
0.0
 40
0.2920152115
 41
-1.5861494534
 42
-1.5856917413
  0
ELLIPSE
  5
48D
100
AcDbEntity
  8
0
100
AcDbEllipse
 62
7
  6
CONTINUOUS
 10
158.2985466998
 20
93.4854123293
 30
0.0
 11
524.8635928354
 21
252.947344351
 31
0.0
 40
0.0318958613
 41
-2.0194920638
 42
-2.0190343517
  0
ELLIPSE
  5
48E
100
AcDbEntity
  8
0
100
AcDbEllipse
 62
7
  6
CONTINUOUS
 10
215.4574036574
 20
82.1985145296
 30
0.0
 11
170.4545310366
 21
321.330063136
 31
0.0
 40
0.3316606686
 41
-4.1192322352
 42
-4.1175894305
  0
ELLIPSE
  5
48F
100
AcDbEntity
  8
0
100
AcDbEllipse
 62
7
  6
CONTINUOUS
 10
149.4698272755
 20
95.2287791346
 30
0.0
 11
432.8684346105
 21
271.4106224556
 31
0.0
 40
0.0109531465
 41
2.0738911021
 42
2.074348847
  0
ELLIPSE
  5
490
100
AcDbEntity
  8
0
100
AcDbEllipse
 62
7
  6
CONTINUOUS
 10
197.5655366874
 20
85.7315395879
 30
0.0
 11
-65.4346812772
 21
362.2799442049
 31
0.0
 40
0.5277268301
 41
-4.4284298348
 42
-4.4212554849
  0
ELLIPSE
  5
491
100
AcDbEntity
  8
0
100
AcDbEllipse
 62
7
  6
CONTINUOUS
 10
215.4423499781
 20
82.2014871107
 30
0.0
 11
170.4543527007
 21
321.3301013918
 31
0.0
 40
0.3316609605
 41
-4.1236615291
 42
-4.1200323933
  0
ELLIPSE
  5
492
100
AcDbEntity
  8
0
100
AcDbEllipse
 62
7
  6
CONTINUOUS
 10
96.116051525
 20
105.7643049687
 30
0.0
 11
-130.0386440779
 21
366.9850282437
 31
0.0
 40
0.5154458938
 41
-4.5158962271
 42
-4.5152857898
  0
ELLIPSE
  5
493
100
AcDbEntity
  8
RACCORDO
100
AcDbEllipse
 62
7
  6
CONTINUOUS
 10
-61.8694283413
 20
45.7616774407
 30
0.0
 11
-0.7646456168
 21
1.2906012184
 31
0.0
 40
0.813738708
 41
-0.6292523755
 42
0.0171446914
  0
ELLIPSE
  5
494
100
AcDbEntity
  8
RACCORDO
100
AcDbEllipse
 62
7
  6
CONTINUOUS
 10
53.3118514315
 20
-52.157944872
 30
0.0
 11
-0.7646456168
 21
1.2906012184
 31
0.0
 40
0.813738708
 41
-3.1586583893
 42
-2.2001248547
  0
ELLIPSE
  5
495
100
AcDbEntity
  8
RACCORDO
100
AcDbEllipse
 62
7
  6
CONTINUOUS
 10
53.3118514315
 20
23.0173574449
 30
0.0
 11
-0.7644446732
 21
1.2905939075
 31
0.0
 40
0.8138566568
 41
-2.1999335318
 42
-0.6292133575
  0
ELLIPSE
  5
496
100
AcDbEntity
  8
DRAFT
100
AcDbEllipse
 62
7
  6
CONTINUOUS
 10
44.5695700355
 20
14.5692768299
 30
0.0
 11
0.9499912232
 21
4.9089510165
 31
0.0
 40
0.4627391599
 41
7.3030333345
 42
8.1445267983
  0
ELLIPSE
  5
497
100
AcDbEntity
  8
RACCORDO
100
AcDbEllipse
 62
7
  6
CONTINUOUS
 10
213.5164885483
 20
82.542285066
 30
0.0
 11
66.499385627
 21
343.6265711523
 31
0.0
 40
0.4627391599
 41
-4.2294789342
 42
-4.2107229152
  0
ELLIPSE
  5
498
100
AcDbEntity
  8
RACCORDO
100
AcDbEllipse
 62
7
  6
CONTINUOUS
 10
213.5164885483
 20
82.542285066
 30
0.0
 11
66.499385627
 21
343.6265711523
 31
0.0
 40
0.4627391599
 41
-4.421843816
 42
-4.403087797
  0
ELLIPSE
  5
499
100
AcDbEntity
  8
DRAFT
100
AcDbEllipse
 62
7
  6
CONTINUOUS
 10
44.5695700355
 20
-53.7478013956
 30
0.0
 11
0.9499912232
 21
4.9089510165
 31
0.0
 40
0.4627391599
 41
-4.2107229152
 42
-3.3692294513
  0
ELLIPSE
  5
49A
100
AcDbEntity
  8
RACCORDO
100
AcDbEllipse
 62
7
  6
CONTINUOUS
 10
-34.5838086442
 20
-38.1177460863
 30
0.0
 11
1.0068610133
 21
4.8976927788
 31
0.0
 40
0.484028672
 41
-3.1378184249
 42
-3.0030497708
  0
ELLIPSE
  5
49B
100
AcDbEntity
  8
RACCORDO
100
AcDbEllipse
 62
7
  6
CONTINUOUS
 10
-36.4391879049
 20
-41.7349553927
 30
0.0
 11
0.9999986713
 21
0.0046694065
 31
0.0
 40
0.349115364
 41
-2.0960252647
 42
-0.5426822304
  0
ELLIPSE
  5
49C
100
AcDbEntity
  8
RACCORDO
100
AcDbEllipse
 62
7
  6
CONTINUOUS
 10
8.8816109952
 20
-50.6842460646
 30
0.0
 11
0.9999986713
 21
0.0046694065
 31
0.0
 40
0.349115364
 41
8.9170023154
 42
10.4703453497
  0
ELLIPSE
  5
49D
100
AcDbEntity
  8
DRAFT
100
AcDbEllipse
 62
7
  6
CONTINUOUS
 10
-70.2067621779
 20
37.2336336851
 30
0.0
 11
0.9875737764
 21
4.9015289797
 31
0.0
 40
0.476942715
 41
1.0234482679
 42
1.8649417317
  0
ELLIPSE
  5
49E
100
AcDbEntity
  8
RACCORDO
100
AcDbEllipse
 62
7
  6
CONTINUOUS
 10
103.925934542
 20
104.18263004
 30
0.0
 11
69.1301643452
 21
343.1070285799
 31
0.0
 40
0.476942715
 41
-4.2258786936
 42
-4.2071226746
  0
ELLIPSE
  5
49F
100
AcDbEntity
  8
RACCORDO
100
AcDbEllipse
 62
7
  6
CONTINUOUS
 10
103.925934542
 20
104.18263004
 30
0.0
 11
69.1301643452
 21
343.1070285799
 31
0.0
 40
0.476942715
 41
-4.4182435754
 42
-4.3994875564
  0
ELLIPSE
  5
4A0
100
AcDbEntity
  8
RACCORDO
100
AcDbEllipse
 62
7
  6
CONTINUOUS
 10
-71.4725113269
 20
-34.9852847218
 30
0.0
 11
-0.1274074455
 21
0.2150989846
 31
0.0
 40
0.8138566568
 41
0.9416591217
 42
2.5123792961
  0
ELLIPSE
  5
4A1
100
AcDbEntity
  8
RACCORDO
100
AcDbEllipse
 62
7
  6
CONTINUOUS
 10
-71.4725113269
 20
39.3286572058
 30
0.0
 11
-0.1274409361
 21
0.2151002031
 31
0.0
 40
0.813738708
 41
5.6539329317
 42
7.2246531061
  0
ELLIPSE
  5
4A2
100
AcDbEntity
  8
DRAFT
100
AcDbEllipse
 62
7
  6
CONTINUOUS
 10
-70.2067621779
 20
-31.0834445404
 30
0.0
 11
0.9875737764
 21
4.9015289797
 31
0.0
 40
0.476942715
 41
-4.2071226746
 42
-3.3656292107
  0
ELLIPSE
  5
4A3
100
AcDbEntity
  8
RACCORDO
100
AcDbEllipse
 62
7
  6
CONTINUOUS
 10
-61.3694283413
 20
46.0578755734
 30
0.0
 11
-0.7646456168
 21
1.2906012184
 31
0.0
 40
0.813738708
 41
-0.6292523755
 42
0.0030032309
  0
ELLIPSE
  5
4A4
100
AcDbEntity
  8
RACCORDO
100
AcDbEllipse
 62
7
  6
CONTINUOUS
 10
53.8118514315
 20
23.3135555776
 30
0.0
 11
-0.7644446732
 21
1.2905939075
 31
0.0
 40
0.8138566568
 41
-2.1999335318
 42
-0.6292133575
  0
ELLIPSE
  5
4A5
100
AcDbEntity
  8
DRAFT
100
AcDbEllipse
 62
7
  6
CONTINUOUS
 10
8.2212115451
 20
43.0072496067
 30
0.0
 11
11.4999862439
 21
-0.0531105494
 31
0.0
 40
0.3349118965
 41
0.0
 42
6.2831853072
  0
ELLIPSE
  5
4A6
100
AcDbEntity
  8
DRAFT
100
AcDbEllipse
 62
7
  6
CONTINUOUS
 10
66.9295544616
 20
-7.3860480957
 30
0.0
 11
2.1849798135
 21
11.2905873379
 31
0.0
 40
0.4627391599
 41
0.0
 42
6.2831853072
  0
ELLIPSE
  5
4A7
100
AcDbEntity
  8
DRAFT
100
AcDbEllipse
 62
7
  6
CONTINUOUS
 10
-21.2236521836
 20
48.8215920433
 30
0.0
 11
11.4999862439
 21
-0.0531105494
 31
0.0
 40
0.3349118965
 41
0.0
 42
6.2831853072
  0
ELLIPSE
  5
4A8
100
AcDbEntity
  8
RACCORDO
100
AcDbEllipse
 62
7
  6
CONTINUOUS
 10
53.8118514315
 20
-51.8617467393
 30
0.0
 11
-0.7646456168
 21
1.2906012184
 31
0.0
 40
0.813738708
 41
3.1461491204
 42
4.0830604525
  0
ELLIPSE
  5
4A9
100
AcDbEntity
  8
DRAFT
100
AcDbEllipse
 62
7
  6
CONTINUOUS
 10
37.6660752738
 20
37.1929071702
 30
0.0
 11
11.4999862439
 21
-0.0531105494
 31
0.0
 40
0.3349118965
 41
0.0
 42
6.2831853072
  0
ENDSEC
  0
SECTION
  2
OBJECTS
  0
DICTIONARY
  5
C
100
AcDbDictionary
280
0
281
1
  3
ACAD_GROUP
350
D
  3
ACAD_MLINESTYLE
350
17
  3
ACAD_LAYOUT
350
1A
  3
ACAD_PLOTSETTINGS
350
19
  3
ACAD_PLOTSTYLENAME
350
E
  0
DICTIONARY
  5
D
102
{ACAD_REACTORS
330
C
102
}
100
AcDbDictionary
280
0
281
1
  0
ACDBDICTIONARYWDFLT
  5
E
102
{ACAD_REACTORS
330
C
102
}
100
AcDbDictionary
281
1
  3
Normal
350
F
100
AcDbDictionaryWithDefault
340
F
  0
DICTIONARY
  5
17
102
{ACAD_REACTORS
330
C
102
}
100
AcDbDictionary
280
0
281
1
  3
Standard
350
18
  0
DICTIONARY
  5
19
102
{ACAD_REACTORS
330
C
102
}
100
AcDbDictionary
281
1
  0
DICTIONARY
  5
1A
102
{ACAD_REACTORS
330
C
102
}
100
AcDbDictionary
281
1
  3
Model
350
4AA
  3
Layout1
350
4AB
  0
ACDBPLACEHOLDER
  5
F
102
{ACAD_REACTORS
330
E
102
}
  0
MLINESTYLE
  5
18
102
{ACAD_REACTORS
330
17
102
}
100
AcDbMlineStyle
  2
STANDARD
 70
0
  3

 62
256
 51
90.0
 52
90.0
 71
2
 49
0.5
 62
256
  6
BYLAYER
 49
-0.5
 62
256
  6
BYLAYER
  0
LAYOUT
  5
4AA
102
{ACAD_REACTORS
330
1A
102
}
100
AcDbPlotSettings
  1

  2
none_device
  4
ISO_A4_(297.00_x_210.00_MM)
  6

 40
0.0
 41
0.0
 42
0.0
 43
0.0
 44
297.0
 45
210.0
 46
0.0
 47
0.0
 48
0.0
 49
0.0
140
0.0
141
0.0
142
1.0
143
1.0
 70
1024
 72
1
 73
0
 74
0
  7

 75
0
147
1.0
148
0.0
149
0.0
100
AcDbLayout
  1
Model
 70
0
 71
0
 10
0.0
 20
0.0
 11
297.0
 21
210.0
 12
0.0
 22
0.0
 32
0.0
 14
0.0
 24
0.0
 34
0.0
 15
0.0
 25
0.0
 35
0.0
146
0.0
 13
0.0
 23
0.0
 33
0.0
 16
1.0
 26
0.0
 36
0.0
 17
0.0
 27
1.0
 37
0.0
 76
0
330
216
345
0
346
0
  0
LAYOUT
  5
4AB
102
{ACAD_REACTORS
330
1A
102
}
100
AcDbPlotSettings
  1

  2
none_device
  4
ISO_A4_(297.00_x_210.00_MM)
  6

 40
0.0
 41
0.0
 42
0.0
 43
0.0
 44
297.0
 45
210.0
 46
0.0
 47
0.0
 48
0.0
 49
0.0
140
0.0
141
0.0
142
1.0
143
1.0
 70
0
 72
1
 73
0
 74
0
  7

 75
0
147
1.0
148
0.0
149
0.0
100
AcDbLayout
  1
Layout1
 70
0
 71
1
 10
0.0
 20
0.0
 11
297.0
 21
210.0
 12
0.0
 22
0.0
 32
0.0
 14
0.0
 24
0.0
 34
0.0
 15
0.0
 25
0.0
 35
0.0
146
0.0
 13
0.0
 23
0.0
 33
0.0
 16
1.0
 26
0.0
 36
0.0
 17
0.0
 27
1.0
 37
0.0
 76
0
330
217
345
0
346
0
  0
ENDSEC
  0
EOF
