  0
SECTION
  2
HEADER
  9
$ACADVER
  1
AC1024
  9
$DWGCODEPAGE
  3
ANSI_1252
  9
$EXTMAX
 10
297.0
 20
210.0
 30
0.0
  9
$EXTMIN
 10
0.0
 20
0.0
 30
0.0
  9
$LIMMIN
 10
0.0
 20
0.0
  9
$LIMMAX
 10
297.0
 20
210.0
  9
$VIEWCTR
 10
148.5
 20
105.0
  9
$VIEWSIZE
 40
210.0
  9
$CLAYER
  8
0
  9
$LTSCALE
 40
16.335
  9
$CELTYPE
  6
BYLAYER
  9
$DIMSCALE
 40
1.0
  9
$DIMASZ
 40
3.0
  9
$DIMEXO
 40
0.5
  9
$DIMDLI
 40
11.286
  9
$DIMEXE
 40
1.5
  9
$DIMCEN
 40
2.673
  9
$DIMLFAC
 40
1.0
  9
$DIMBLK
  1
_FILLED
  9
$DIMALT
 70
0
  9
$DIMALTF
 40
0.0393700787
  9
$DIMTXT
 40
3.0
  9
$DIMTOL
 70
1
  9
$DIMLIM
 70
0
  9
$DIMTFAC
 40
1.0
  9
$DIMTP
 40
0.01
  9
$DIMTM
 40
0.01
  9
$DIMGAP
 40
0.625
  9
$DIMDSEP
 70
44
  9
$AUNITS
 70
0
  9
$PDMODE
 70
3
  9
$PDSIZE
 40
3.0
  9
$HANDSEED
  5
349
  9
$TILEMODE
 70
1
  9
$MEASUREMENT
 70
1
  9
$INSUNITS
 70
4
  0
ENDSEC
  0
SECTION
  2
CLASSES
  0
CLASS
  1
ACDBDICTIONARYWDFLT
  2
AcDbDictionaryWithDefault
  3
AutoCAD 2000
 90
0
 91
1
280
0
281
0
  0
CLASS
  1
ACDBPLACEHOLDER
  2
AcDbPlaceHolder
  3
AutoCAD 2000
 90
0
 91
1
280
0
281
0
  0
CLASS
  1
LAYOUT
  2
AcDbLayout
  3
AutoCAD 2000
 90
0
 91
0
280
0
281
0
  0
ENDSEC
  0
SECTION
  2
TABLES
  0
TABLE
  2
VPORT
  5
8
100
AcDbSymbolTable
 70
2
  0
VPORT
  5
1F4
100
AcDbSymbolTableRecord
100
AcDbViewportTableRecord
  2
*ACTIVE
 70
0
 10
0.0
 20
0.0
 11
1.0
 21
1.0
 12
148.5
 22
105.0
 13
0.0
 23
0.0
 14
1.0
 24
1.0
 15
0.0
 25
0.0
 16
0.0
 26
0.0
 36
1.0
 17
0.0
 27
0.0
 37
0.0
 40
210.0
 41
1.4142857143
 42
50.0
 43
0.0
 44
0.0
 50
0.0
 51
0.0
 71
0
 72
100
 73
1
 74
1
 75
0
 76
0
 77
0
 78
0
  0
ENDTAB
  0
TABLE
  2
LTYPE
  5
5
100
AcDbSymbolTable
 70
6
  0
LTYPE
  5
14
100
AcDbSymbolTableRecord
100
AcDbLinetypeTableRecord
  2
BYBLOCK
 70
0
  3

 72
65
 73
0
 40
0.0
  0
LTYPE
  5
15
100
AcDbSymbolTableRecord
100
AcDbLinetypeTableRecord
  2
BYLAYER
 70
0
  3

 72
65
 73
0
 40
0.0
  0
LTYPE
  5
16
100
AcDbSymbolTableRecord
100
AcDbLinetypeTableRecord
  2
CONTINUOUS
 70
64
  3
Solid line
 72
65
 73
0
 40
0.0
  0
LTYPE
  5
1F5
100
AcDbSymbolTableRecord
100
AcDbLinetypeTableRecord
  2
CENTER
 70
64
  3
____ _ ____ _ ____ _ ____ _ ____ _ ____ _ ____
 72
65
 73
4
 40
0.6
 49
0.375
 74
0
 49
-0.075
 74
0
 49
0.075
 74
0
 49
-0.075
 74
0
  0
LTYPE
  5
1F6
100
AcDbSymbolTableRecord
100
AcDbLinetypeTableRecord
  2
HIDDEN
 70
64
  3
- - - - - - - - - - - - - - - - - - - -
 72
65
 73
2
 40
0.2
 49
0.1
 74
0
 49
-0.1
 74
0
  0
LTYPE
  5
1F7
100
AcDbSymbolTableRecord
100
AcDbLinetypeTableRecord
  2
PHANTOM
 70
64
  3
_____ _ _ _____ _ _ _____ _ _ _____
 72
65
 73
6
 40
0.8
 49
0.45
 74
0
 49
-0.05
 74
0
 49
0.1
 74
0
 49
-0.05
 74
0
 49
0.1
 74
0
 49
-0.05
 74
0
  0
LTYPE
  5
1F8
100
AcDbSymbolTableRecord
100
AcDbLinetypeTableRecord
  2
DOT
 70
64
  3
. . . . . . . . . . . . . . . . . . . .
 72
65
 73
2
 40
0.2
 49
0.1
 74
0
 49
-0.1
 74
0
  0
LTYPE
  5
1F9
100
AcDbSymbolTableRecord
100
AcDbLinetypeTableRecord
  2
DASHED
 70
64
  3
- - - - - - - - - - - - - - - - - - - -
 72
65
 73
2
 40
0.2
 49
0.1
 74
0
 49
-0.1
 74
0
  0
ENDTAB
  0
TABLE
  2
LAYER
  5
2
100
AcDbSymbolTable
 70
36
  0
LAYER
  5
10
100
AcDbSymbolTableRecord
100
AcDbLayerTableRecord
  2
0
 70
0
 62
7
  6
CONTINUOUS
370
-3
390
F
  0
LAYER
  5
1FA
100
AcDbSymbolTableRecord
100
AcDbLayerTableRecord
  2
DEFAULT_1
 70
0
 62
7
  6
CENTER
370
-3
390
F
  0
LAYER
  5
1FB
100
AcDbSymbolTableRecord
100
AcDbLayerTableRecord
  2
DEFAULT_2
 70
0
 62
7
  6
HIDDEN
370
-3
390
F
  0
LAYER
  5
1FC
100
AcDbSymbolTableRecord
100
AcDbLayerTableRecord
  2
DEFAULT_3
 70
0
 62
7
  6
PHANTOM
370
-3
390
F
  0
LAYER
  5
1FD
100
AcDbSymbolTableRecord
100
AcDbLayerTableRecord
  2
ASSI
 70
0
 62
7
  6
CONTINUOUS
370
-3
390
F
  0
LAYER
  5
1FE
100
AcDbSymbolTableRecord
100
AcDbLayerTableRecord
  2
COORDINATE
 70
0
 62
7
  6
CONTINUOUS
370
-3
390
F
  0
LAYER
  5
1FF
100
AcDbSymbolTableRecord
100
AcDbLayerTableRecord
  2
COPY_PUBLISH
 70
0
 62
7
  6
CONTINUOUS
370
-3
390
F
  0
LAYER
  5
200
100
AcDbSymbolTableRecord
100
AcDbLayerTableRecord
  2
COSMETICI
 70
0
 62
7
  6
CONTINUOUS
370
-3
390
F
  0
LAYER
  5
201
100
AcDbSymbolTableRecord
100
AcDbLayerTableRecord
  2
CURVE
 70
0
 62
7
  6
CONTINUOUS
370
-3
390
F
  0
LAYER
  5
202
100
AcDbSymbolTableRecord
100
AcDbLayerTableRecord
  2
DRAFT
 70
0
 62
7
  6
CONTINUOUS
370
-3
390
F
  0
LAYER
  5
203
100
AcDbSymbolTableRecord
100
AcDbLayerTableRecord
  2
IMPORT_IGES
 70
0
 62
7
  6
CONTINUOUS
370
-3
390
F
  0
LAYER
  5
204
100
AcDbSymbolTableRecord
100
AcDbLayerTableRecord
  2
INTF_11
 70
0
 62
7
  6
CONTINUOUS
370
-3
390
F
  0
LAYER
  5
205
100
AcDbSymbolTableRecord
100
AcDbLayerTableRecord
  2
NOTE
 70
0
 62
7
  6
CONTINUOUS
370
-3
390
F
  0
LAYER
  5
206
100
AcDbSymbolTableRecord
100
AcDbLayerTableRecord
  2
PIANI
 70
0
 62
7
  6
CONTINUOUS
370
-3
390
F
  0
LAYER
  5
207
100
AcDbSymbolTableRecord
100
AcDbLayerTableRecord
  2
PUNTI
 70
0
 62
7
  6
CONTINUOUS
370
-3
390
F
  0
LAYER
  5
208
100
AcDbSymbolTableRecord
100
AcDbLayerTableRecord
  2
RACCORDO
 70
0
 62
7
  6
CONTINUOUS
370
-3
390
F
  0
LAYER
  5
209
100
AcDbSymbolTableRecord
100
AcDbLayerTableRecord
  2
SIMBOLI
 70
0
 62
7
  6
CONTINUOUS
370
-3
390
F
  0
LAYER
  5
20A
100
AcDbSymbolTableRecord
100
AcDbLayerTableRecord
  2
SMUSSO
 70
0
 62
7
  6
CONTINUOUS
370
-3
390
F
  0
LAYER
  5
20B
100
AcDbSymbolTableRecord
100
AcDbLayerTableRecord
  2
SNAPLINE
 70
0
 62
7
  6
CONTINUOUS
370
-3
390
F
  0
LAYER
  5
20C
100
AcDbSymbolTableRecord
100
AcDbLayerTableRecord
  2
SUPERFICI
 70
0
 62
7
  6
CONTINUOUS
370
-3
390
F
  0
LAYER
  5
20D
100
AcDbSymbolTableRecord
100
AcDbLayerTableRecord
  2
TRASH
 70
0
 62
7
  6
CONTINUOUS
370
-3
390
F
  0
ENDTAB
  0
TABLE
  2
STYLE
  5
3
100
AcDbSymbolTable
 70
1
  0
STYLE
  5
11
100
AcDbSymbolTableRecord
100
AcDbTextStyleTableRecord
  2
STANDARD
 70
0
 40
0.0
 41
0.8
 50
0.0
 71
0
 42
0.2
  3
txt
  4

  0
STYLE
  5
20E
100
AcDbSymbolTableRecord
100
AcDbTextStyleTableRecord
  2
TEXTSTYLE_1
 70
0
 40
0.0
 41
0.8
 50
0.0
 71
0
 42
0.2
  3
gdt
  4

  0
ENDTAB
  0
TABLE
  2
VIEW
  5
6
100
AcDbSymbolTable
 70
0
  0
ENDTAB
  0
TABLE
  2
UCS
  5
7
100
AcDbSymbolTable
 70
0
  0
ENDTAB
  0
TABLE
  2
APPID
  5
9
100
AcDbSymbolTable
 70
1
  0
APPID
  5
20F
100
AcDbSymbolTableRecord
100
AcDbRegAppTableRecord
  2
ACAD
 70
0
  0
ENDTAB
  0
TABLE
  2
BLOCK_RECORD
  5
1
100
AcDbSymbolTable
 70
0
  0
BLOCK_RECORD
  5
210
100
AcDbSymbolTableRecord
100
AcDbBlockTableRecord
  2
*Model_Space
  0
BLOCK_RECORD
  5
211
100
AcDbSymbolTableRecord
100
AcDbBlockTableRecord
  2
*Paper_Space
  0
BLOCK_RECORD
  5
212
100
AcDbSymbolTableRecord
100
AcDbBlockTableRecord
  2
_FILLED
  0
ENDTAB
  0
TABLE
  2
DIMSTYLE
  5
A
100
AcDbSymbolTable
 70
1
100
AcDbDimStyleTable
 71
0
  0
DIMSTYLE
105
213
100
AcDbSymbolTableRecord
100
AcDbDimStyleTableRecord
  2
STANDARD
 70
0
  3

  4

 40
1.0
 41
3.0
 42
0.5
 43
0.38
 44
1.5
 45
0.0
 46
0.0
 47
0.01
 48
0.01
140
3.0
141
0.09
142
0.0
143
25.4
144
1.0
145
0.0
146
1.0
147
0.625
 71
1
 72
0
 73
0
 74
0
 75
0
 76
0
 77
1
 78
8
 79
2
170
0
171
1
172
0
173
0
174
0
175
0
176
0
177
0
178
0
270
2
179
2
271
2
272
2
273
2
274
2
275
0
280
0
281
0
282
0
283
1
284
8
285
0
286
0
287
3
288
0
340
11
278
44
341
212
342
212
343
212
344
212
  0
ENDTAB
  0
ENDSEC
  0
SECTION
  2
BLOCKS
  0
BLOCK
  5
20
100
AcDbEntity
  8
0
100
AcDbBlockBegin
  2
*Model_Space
 70
0
 10
0.0
 20
0.0
 30
0.0
  3
*Model_Space
  1

  0
ENDBLK
  5
21
100
AcDbEntity
  8
0
100
AcDbBlockEnd
  0
BLOCK
  5
1C
100
AcDbEntity
  8
0
100
AcDbBlockBegin
  2
*Paper_Space
 70
0
 10
0.0
 20
0.0
 30
0.0
  3
*Paper_Space
  1

  0
ENDBLK
  5
1D
100
AcDbEntity
  8
0
100
AcDbBlockEnd
  0
BLOCK
  5
214
100
AcDbEntity
  8
0
100
AcDbBlockBegin
  2
_FILLED
 70
64
 10
0.0
 20
0.0
  3
_FILLED
  1

  0
SOLID
  5
215
100
AcDbEntity
  8
0
  6
BYBLOCK
 62
0
100
AcDbTrace
 10
0.0
 20
0.0
 11
-1.0
 21
0.1333333333
 12
-1.0
 22
-0.1333333333
 13
-1.0
 23
-0.1333333333
  0
ENDBLK
  5
216
100
AcDbEntity
  8
0
  6
BYBLOCK
 62
0
100
AcDbBlockEnd
  0
ENDSEC
  0
SECTION
  2
ENTITIES
  0
LWPOLYLINE
  5
217
100
AcDbEntity
  8
RACCORDO
100
AcDbPolyline
 62
7
  6
CONTINUOUS
 90
22
 70
0
 10
-54.4045806486
 20
63.6416755858
 10
-54.4445591014
 20
63.6211021747
 10
-54.5722927003
 20
63.5477738378
 10
-54.6947981589
 20
63.4654282928
 10
-54.8120456588
 20
63.3740141107
 10
-54.9240650186
 20
63.2735827205
 10
-55.0302185562
 20
63.1647058382
 10
-55.1304728166
 20
63.0473352956
 10
-55.2248612549
 20
62.921519261
 10
-55.3128465552
 20
62.7879739551
 10
-55.3943921977
 20
62.6466552945
 10
-55.4695347022
 20
62.4976073627
 10
-55.5378463123
 20
62.3416786304
 10
-55.5992880684
 20
62.1788298534
 10
-55.65389893
 20
62.0091002758
 10
-55.7013680193
 20
61.8334561009
 10
-55.7416546035
 20
61.6518635952
 10
-55.7747994153
 20
61.464356492
 10
-55.8006137744
 20
61.2720021951
 10
-55.8190347874
 20
61.0751565054
 10
-55.8301253478
 20
60.873463622
 10
-55.8338854554
 20
60.6669235448
  0
LINE
  5
218
100
AcDbEntity
  8
RACCORDO
100
AcDbLine
 62
7
  6
CONTINUOUS
 10
-54.4044729341
 20
63.641729447
 11
-52.9902593717
 21
64.3488362282
  0
LWPOLYLINE
  5
219
100
AcDbEntity
  8
RACCORDO
100
AcDbPolyline
 62
7
  6
CONTINUOUS
 90
17
 70
0
 10
-52.9903670862
 20
64.348782367
 10
-52.8981109367
 20
64.3921026555
 10
-52.7613496595
 20
64.4465079082
 10
-52.6200873789
 20
64.4914785236
 10
-52.4751282447
 20
64.5267585018
 10
-52.3264511725
 20
64.5522925731
 10
-52.1740772467
 20
64.5681360073
 10
-52.0188738719
 20
64.5741986139
 10
-51.8608249104
 20
64.5704246089
 10
-51.6999464997
 20
64.5568697763
 10
-51.5371544569
 20
64.5336112784
 10
-51.3724378677
 20
64.5005937713
 10
-51.2058076463
 20
64.4578725989
 10
-51.0382123525
 20
64.4056909559
 10
-50.8699681729
 20
64.3441299073
 10
-50.7007589209
 20
64.2731083882
 10
-50.5305845965
 20
64.1926263985
  0
LWPOLYLINE
  5
21A
100
AcDbEntity
  8
RACCORDO
100
AcDbPolyline
 62
7
  6
CONTINUOUS
 90
18
 70
0
 10
-56.5984234647
 20
59.190652213
 10
-56.6632487197
 20
59.1549394531
 10
-56.7303320648
 20
59.1105440328
 10
-56.7939674346
 20
59.0602017349
 10
-56.8541828991
 20
59.0039609727
 10
-56.9104855718
 20
58.9422820982
 10
-56.9628433375
 20
58.8751204765
 10
-57.0112883114
 20
58.8025207424
 10
-57.0554239531
 20
58.7250771523
 10
-57.0952148926
 20
58.6427499489
 10
-57.1306964999
 20
58.5555788893
 10
-57.1615783447
 20
58.4642775018
 10
-57.1878226731
 20
58.3688118855
 10
-57.2094672389
 20
58.2692159413
 10
-57.2263348731
 20
58.1663048996
 10
-57.2383665195
 20
58.0603505039
 10
-57.2456212344
 20
57.9510810107
 10
-57.2480990178
 20
57.83849642
  0
LINE
  5
21B
100
AcDbEntity
  8
RACCORDO
100
AcDbLine
 62
250
  6
CONTINUOUS
 10
-51.9447981589
 20
63.4855196173
 11
-50.5305845965
 21
64.1926263985
  0
LINE
  5
21C
100
AcDbEntity
  8
RACCORDO
100
AcDbLine
 62
7
  6
CONTINUOUS
 10
-56.5983660535
 20
59.190680921
 11
-53.0628321476
 21
60.958447874
  0
LINE
  5
21D
100
AcDbEntity
  8
RACCORDO
100
AcDbLine
 62
250
  6
CONTINUOUS
 10
-55.4803320648
 20
59.119676453
 11
-51.9447981589
 21
60.887443406
  0
LWPOLYLINE
  5
21E
100
AcDbEntity
  8
RACCORDO
100
AcDbPolyline
 62
7
  6
CONTINUOUS
 90
14
 70
0
 10
-53.0628895587
 20
60.958419166
 10
-52.9838655033
 20
60.9934867418
 10
-52.9076533005
 20
61.0195055453
 10
-52.8285982881
 20
61.0393107725
 10
-52.7473475613
 20
61.0527403099
 10
-52.6638830981
 20
61.0597418274
 10
-52.5782229205
 20
61.0603676552
 10
-52.4910681894
 20
61.0546126706
 10
-52.4024066379
 20
61.0424245015
 10
-52.312250533
 20
61.02385552
 10
-52.2213378365
 20
60.9990577202
 10
-52.1299145355
 20
60.968081767
 10
-52.037734643
 20
60.9308769956
 10
-51.9447981589
 20
60.887443406
  0
LINE
  5
21F
100
AcDbEntity
  8
RACCORDO
100
AcDbLine
 62
7
  6
CONTINUOUS
 10
-48.6374673345
 20
48.5910114159
 11
-46.4791192066
 21
49.5878081066
  0
LINE
  5
220
100
AcDbEntity
  8
RACCORDO
100
AcDbLine
 62
7
  6
CONTINUOUS
 10
-33.1696087267
 20
55.5121384636
 11
-11.810394992
 21
65.3765311862
  0
LINE
  5
221
100
AcDbEntity
  8
RACCORDO
100
AcDbLine
 62
250
  6
CONTINUOUS
 10
-47.7640858372
 20
48.5241082139
 11
-45.6057377093
 21
49.5209049045
  0
LINE
  5
222
100
AcDbEntity
  8
RACCORDO
100
AcDbLine
 62
250
  6
CONTINUOUS
 10
-32.558458386
 20
55.2065632933
 11
-10.7186681204
 21
65.2929021837
  0
LWPOLYLINE
  5
223
100
AcDbEntity
  8
RACCORDO
100
AcDbPolyline
 62
7
  6
CONTINUOUS
 90
31
 70
0
 10
-57.2480990178
 20
-20.9698153244
 10
-57.2456212344
 20
-21.0848776984
 10
-57.2383665195
 20
-21.2014019065
 10
-57.2263348731
 20
-21.3193879486
 10
-57.2094672389
 20
-21.4391666246
 10
-57.1878226731
 20
-21.5604071346
 10
-57.1615783447
 20
-21.6821170792
 10
-57.1306964999
 20
-21.8043003115
 10
-57.0952148926
 20
-21.9269529783
 10
-57.0554239531
 20
-22.0490711213
 10
-57.0112883114
 20
-22.1706503532
 10
-56.9628433375
 20
-22.2916950611
 10
-56.9104855718
 20
-22.4112144485
 10
-56.8541828991
 20
-22.5291959957
 10
-56.7939674346
 20
-22.6456522224
 10
-56.7303320648
 20
-22.7596298901
 10
-56.6632487197
 20
-22.8711086555
 10
-56.5927454693
 20
-22.980108862
 10
-56.5193994092
 20
-23.0857383017
 10
-56.4431872064
 20
-23.1879693081
 10
-56.364132194
 20
-23.2868295476
 10
-56.2828814672
 20
-23.3815098119
 10
-56.199417004
 20
-23.4719757925
 10
-56.1137568264
 20
-23.5582617979
 10
-56.0266020953
 20
-23.6396615444
 10
-55.9379405439
 20
-23.7161349267
 10
-55.8477844389
 20
-23.7877220502
 10
-55.7568717424
 20
-23.853836947
 10
-55.6654484415
 20
-23.9142842947
 10
-55.5732685489
 20
-23.9692594158
 10
-55.4803320648
 20
-24.0187623103
  0
LINE
  5
224
100
AcDbEntity
  8
RACCORDO
100
AcDbLine
 62
7
  6
CONTINUOUS
 10
-57.2480990178
 20
57.83849642
 11
-57.2480990178
 21
-20.9698153244
  0
LINE
  5
225
100
AcDbEntity
  8
RACCORDO
100
AcDbLine
 62
250
  6
CONTINUOUS
 10
-47.7021574717
 20
44.5207768155
 11
-45.4515241006
 21
45.5601938897
  0
LINE
  5
226
100
AcDbEntity
  8
RACCORDO
100
AcDbLine
 62
7
  6
CONTINUOUS
 10
-55.8338854554
 20
60.6669235448
 11
-55.8338854554
 21
59.5729212201
  0
LINE
  5
227
100
AcDbEntity
  8
0
100
AcDbLine
 62
7
  6
CONTINUOUS
 10
-55.4803320648
 20
-21.8536988009
 11
-55.4803320648
 21
56.9546129435
  0
LINE
  5
228
100
AcDbEntity
  8
0
100
AcDbLine
 62
7
  6
CONTINUOUS
 10
-51.9447981589
 20
-20.0859318479
 11
-51.9447981589
 21
55.1868459906
  0
LWPOLYLINE
  5
229
100
AcDbEntity
  8
0
100
AcDbPolyline
 62
7
  6
CONTINUOUS
 90
65
 70
0
 10
-14.4676449656
 20
56.0960298159
 10
-14.157178359
 20
56.2389963215
 10
-13.8366928276
 20
56.3757085708
 10
-13.5061883715
 20
56.5061665639
 10
-13.1651751825
 20
56.63053511
 10
-12.8141430687
 20
56.7486493998
 10
-12.4545614544
 20
56.8600150056
 10
-12.0863945013
 20
56.9646036379
 10
-11.7096780477
 20
57.0624435862
 10
-11.3259890329
 20
57.1531252915
 10
-10.9352982288
 20
57.2366187473
 10
-10.5376348635
 20
57.31295396
 10
-10.1346635601
 20
57.3818113896
 10
-9.7263620686
 20
57.4431596903
 10
-9.312752639
 20
57.4970302078
 10
-8.895566645
 20
57.5431974397
 10
-8.4747890941
 20
57.5816290947
 10
-8.0504349789
 20
57.6123574641
 10
-7.6242806502
 20
57.6352539185
 10
-7.1963185619
 20
57.6502856275
 10
-6.7665562602
 20
57.6574854216
 10
-6.3367927348
 20
57.6568231623
 10
-5.9070279806
 20
57.6482658929
 10
-5.4772620027
 20
57.6318465702
 10
-5.0492938063
 20
57.6076339254
 10
-4.6231309273
 20
57.5755952903
 10
-4.1987658298
 20
57.5357633332
 10
-3.7779749107
 20
57.4883047911
 10
-3.3607731524
 20
57.4331876945
 10
-2.9471455726
 20
57.370444013
 10
-2.5388236208
 20
57.3003363924
 10
-2.1358295375
 20
57.2228339639
 10
-1.7381410821
 20
57.1379675962
 10
-1.3474229831
 20
57.0460925409
 10
-0.963704459
 20
56.9471794185
 10
-0.5869562913
 20
56.8412576085
 10
-0.2187555517
 20
56.7287705006
 10
0.1408619299
 20
56.6096905743
 10
0.4919319833
 20
56.4840453501
 10
0.8329850253
 20
56.3523607804
 10
1.1639790661
 20
56.2146115492
 10
1.4849560955
 20
56.0708229724
 10
1.7945725002
 20
55.9215969508
 10
2.0927806579
 20
55.7669106912
 10
2.379628191
 20
55.6067869867
 10
2.6539143523
 20
55.4418961169
 10
2.9155864865
 20
55.2722180985
 10
3.164697249
 20
55.0977729147
 10
3.4002038595
 20
54.9192907951
 10
3.6220492911
 20
54.7367548173
 10
3.8302905707
 20
54.5501819036
 10
4.024055998
 20
54.3603530504
 10
4.2032848921
 20
54.1672546091
 10
4.3680379339
 20
53.9709002282
 10
4.5176254653
 20
53.7721118493
 10
4.6519839145
 20
53.5708792695
 10
4.7711768534
 20
53.3672126916
 10
4.8747053389
 20
53.1619646663
 10
4.9625037079
 20
52.9551285643
 10
5.0346376235
 20
52.7467110149
 10
5.0908051323
 20
52.5375844562
 10
5.1309393055
 20
52.3277459161
 10
5.155107072
 20
52.1171983666
 10
5.1632072652
 20
51.9068231623
 10
5.1629307615
 20
51.8673759034
  0
LWPOLYLINE
  5
22A
100
AcDbEntity
  8
0
100
AcDbPolyline
 62
7
  6
CONTINUOUS
 90
54
 70
0
 10
-14.0112648244
 20
55.4287226359
 10
-13.7073536431
 20
55.5684663322
 10
-13.3933343781
 20
55.7018469765
 10
-13.0692070293
 20
55.8288645688
 10
-12.7344541907
 20
55.9496908421
 10
-12.3895932684
 20
56.0641540634
 10
-12.0361764807
 20
56.1717390339
 10
-11.67416526
 20
56.2724147482
 10
-11.303598174
 20
56.3662122118
 10
-10.9261431446
 20
56.4527092423
 10
-10.5417691225
 20
56.5318729313
 10
-10.150507157
 20
56.6037361873
 10
-9.7541183175
 20
56.667975554
 10
-9.3525794934
 20
56.7245566645
 10
-8.9459137953
 20
56.7735138857
 10
-8.5359516248
 20
56.8146268612
 10
-8.1226781223
 20
56.8478602309
 10
-7.7061081475
 20
56.8732493549
 10
-7.2881166812
 20
56.8906799567
 10
-6.8686973155
 20
56.9001161613
 10
-6.4478564583
 20
56.9015938437
 10
-6.0274883136
 20
56.8951063529
 10
-5.6075950121
 20
56.8806177838
 10
-5.1881744232
 20
56.8581640415
 10
-4.7711143581
 20
56.8278461903
 10
-4.3564254575
 20
56.7896287806
 10
-3.9440970808
 20
56.743547262
 10
-3.5359851172
 20
56.6898090472
 10
-3.1321085734
 20
56.6283796218
 10
-2.7324484429
 20
56.5592935003
 10
-2.3388035951
 20
56.4828616392
 10
-1.9512011455
 20
56.3990509257
 10
-1.5696139788
 20
56.3078944727
 10
-1.195759618
 20
56.209802575
 10
-0.8296729209
 20
56.1047439695
 10
-0.4713190298
 20
55.9927499195
 10
-0.1223108949
 20
55.87432451
 10
0.2173093552
 20
55.74943875
 10
0.547583849
 20
55.6181216304
 10
0.8670260217
 20
55.4809642095
 10
1.1755870435
 20
55.3379401605
 10
1.4733157442
 20
55.1890758102
 10
1.7588720472
 20
55.0350411967
 10
2.0322010823
 20
54.8758130138
 10
2.2933577198
 20
54.7114145677
 10
2.541166494
 20
54.5425858155
 10
2.7755672361
 20
54.3693067866
 10
2.9966201149
 20
54.1915974516
 10
3.2033301719
 20
54.0102576801
 10
3.3956327529
 20
53.8252711068
 10
3.5735925121
 20
53.6366540969
 10
3.7364084529
 20
53.4452556153
 10
3.8840123105
 20
53.2510631237
 10
3.9425050604
 20
53.1672490653
  0
LINE
  5
22B
100
AcDbEntity
  8
RACCORDO
100
AcDbLine
 62
7
  6
CONTINUOUS
 10
-49.178084008
 20
47.4993202914
 11
-49.178084008
 21
-15.8722270808
  0
LINE
  5
22C
100
AcDbEntity
  8
RACCORDO
100
AcDbLine
 62
7
  6
CONTINUOUS
 10
-47.7021574717
 20
44.5207768155
 11
-47.7021574717
 21
-14.3696101411
  0
LINE
  5
22D
100
AcDbEntity
  8
DRAFT
100
AcDbLine
 62
7
  6
CONTINUOUS
 10
-46.9827080958
 20
14.5569400266
 11
-46.9827080958
 21
16.2889908342
  0
LWPOLYLINE
  5
22E
100
AcDbEntity
  8
RACCORDO
100
AcDbPolyline
 62
7
  6
CONTINUOUS
 90
14
 70
0
 10
25.8369477717
 20
-64.6774022285
 10
25.9298842558
 20
-64.7208358182
 10
26.0220641484
 20
-64.7580405896
 10
26.1134874493
 20
-64.7890165428
 10
26.2044001458
 20
-64.8138143425
 10
26.2945562508
 20
-64.8323833241
 10
26.3832178022
 20
-64.8445714932
 10
26.4703725333
 20
-64.8503264778
 10
26.5560327109
 20
-64.84970065
 10
26.6394971741
 20
-64.8426991325
 10
26.7207479009
 20
-64.8292695951
 10
26.7998029133
 20
-64.8094643679
 10
26.8760151161
 20
-64.7834455644
 10
26.9550391716
 20
-64.7483779886
  0
LWPOLYLINE
  5
22F
100
AcDbEntity
  8
RACCORDO
100
AcDbPolyline
 62
7
  6
CONTINUOUS
 90
17
 70
0
 10
29.3724816776
 20
-65.5077114869
 10
29.542656002
 20
-65.5881934766
 10
29.711865254
 20
-65.6592149957
 10
29.8801094336
 20
-65.7207760443
 10
30.0477047274
 20
-65.7729576873
 10
30.2143349488
 20
-65.8156788597
 10
30.379051538
 20
-65.8486963669
 10
30.5418435808
 20
-65.8719548647
 10
30.7027219915
 20
-65.8855096973
 10
30.860770953
 20
-65.8892837024
 10
31.0159743279
 20
-65.8832210957
 10
31.1683482536
 20
-65.8673776615
 10
31.3170253259
 20
-65.8418435902
 10
31.46198446
 20
-65.806563612
 10
31.6032467407
 20
-65.7615929966
 10
31.7400080178
 20
-65.707187744
 10
31.8322641673
 20
-65.6638674554
  0
LINE
  5
230
100
AcDbEntity
  8
RACCORDO
100
AcDbLine
 62
7
  6
CONTINUOUS
 10
-55.4803320648
 20
-24.0187623103
 11
25.8369477717
 21
-64.6774022285
  0
LWPOLYLINE
  5
231
100
AcDbEntity
  8
0
100
AcDbPolyline
 62
7
  6
CONTINUOUS
 90
40
 70
0
 10
-43.5655828018
 20
13.7144027834
 10
-43.563246024
 20
13.6170267264
 10
-43.5564424148
 20
13.5183818908
 10
-43.5451719741
 20
13.4184682765
 10
-43.529366492
 20
13.3169400029
 10
-43.5090941784
 20
13.2141429507
 10
-43.4845596639
 20
13.1111147623
 10
-43.4557197802
 20
13.0078530965
 10
-43.4226176956
 20
12.9043602946
 10
-43.3855875454
 20
12.8016810216
 10
-43.3445895454
 20
12.6998235172
 10
-43.2996634799
 20
12.5987795418
 10
-43.2512628363
 20
12.4995690421
 10
-43.1993524237
 20
12.4022105878
 10
-43.143967433
 20
12.3066856092
 10
-43.0856669251
 20
12.2139583435
 10
-43.0244213713
 20
12.1240571267
 10
-42.9602603004
 20
12.0369536228
 10
-42.8938313597
 20
11.9535270623
 10
-42.8251115799
 20
11.8738146859
 10
-42.7541239304
 20
11.7977792528
 10
-42.6815849666
 20
11.7261882712
 10
-42.6074789765
 20
11.6590867554
 10
-42.5318216723
 20
11.5964296912
 10
-42.4553767451
 20
11.5388495443
 10
-42.3781362178
 20
11.4863977348
 10
-42.3001080677
 20
11.4390228426
 10
-42.2220799175
 20
11.3972030741
 10
-42.1440517674
 20
11.3609946924
 10
-42.0660236172
 20
11.3303414345
 10
-41.98878309
 20
11.3055527168
 10
-41.9123381628
 20
11.2866879364
 10
-41.8366808585
 20
11.2736876964
 10
-41.7625748685
 20
11.2666832222
 10
-41.6900359047
 20
11.2657352399
 10
-41.6190482552
 20
11.2707830235
 10
-41.5503284754
 20
11.2817756202
 10
-41.4838995347
 20
11.29877324
 10
-41.4197384638
 20
11.3217156729
 10
-41.3724296001
 20
11.3432119244
  0
LWPOLYLINE
  5
232
100
AcDbEntity
  8
0
100
AcDbPolyline
 62
7
  6
CONTINUOUS
 90
40
 70
0
 10
-40.8785770333
 20
12.3708998991
 10
-40.8809138111
 20
12.4682759562
 10
-40.8877174203
 20
12.5669207918
 10
-40.8989878609
 20
12.666834406
 10
-40.9147933431
 20
12.7683626796
 10
-40.9350656567
 20
12.8711597318
 10
-40.9596001712
 20
12.9741879203
 10
-40.9884400549
 20
13.077449586
 10
-41.0215421395
 20
13.180942388
 10
-41.0585722897
 20
13.283621661
 10
-41.0995702896
 20
13.3854791653
 10
-41.1444963552
 20
13.4865231407
 10
-41.1928969987
 20
13.5857336404
 10
-41.2448074114
 20
13.6830920947
 10
-41.3001924021
 20
13.7786170734
 10
-41.35849291
 20
13.871344339
 10
-41.4197384638
 20
13.9612455559
 10
-41.4838995347
 20
14.0483490597
 10
-41.5503284754
 20
14.1317756202
 10
-41.6190482552
 20
14.2114879967
 10
-41.6900359047
 20
14.2875234298
 10
-41.7625748685
 20
14.3591144113
 10
-41.8366808585
 20
14.4262159271
 10
-41.9123381628
 20
14.4888729914
 10
-41.98878309
 20
14.5464531382
 10
-42.0660236172
 20
14.5989049478
 10
-42.1440517674
 20
14.64627984
 10
-42.2220799175
 20
14.6880996085
 10
-42.3001080677
 20
14.7243079901
 10
-42.3781362178
 20
14.7549612481
 10
-42.4553767451
 20
14.7797499658
 10
-42.5318216723
 20
14.7986147461
 10
-42.6074789765
 20
14.8116149861
 10
-42.6815849666
 20
14.8186194604
 10
-42.7541239304
 20
14.8195674426
 10
-42.8251115799
 20
14.814519659
 10
-42.8938313597
 20
14.8035270623
 10
-42.9602603004
 20
14.7865294425
 10
-43.0244213713
 20
14.7635870096
 10
-43.071730235
 20
14.7420907581
  0
LINE
  5
233
100
AcDbEntity
  8
0
100
AcDbLine
 62
7
  6
CONTINUOUS
 10
-16.5780361356
 20
53.4576545574
 11
-16.9680931159
 21
52.9166495549
  0
LWPOLYLINE
  5
234
100
AcDbEntity
  8
0
100
AcDbPolyline
 62
7
  6
CONTINUOUS
 90
13
 70
0
 10
-16.5779533218
 20
53.457769415
 10
-16.496966544
 20
53.5661811105
 10
-16.3415532067
 20
53.7559686806
 10
-16.1713705146
 20
53.9422280346
 10
-15.986351891
 20
54.1249432681
 10
-15.7865639126
 20
54.3041302854
 10
-15.5729058248
 20
54.4789825662
 10
-15.3453151045
 20
54.6494805704
 10
-15.1038542747
 20
54.815643838
 10
-14.8496101504
 20
54.9767244684
 10
-14.582945003
 20
55.1324731614
 10
-14.303496561
 20
55.2831392173
 10
-14.0112648244
 20
55.4287226359
  0
LWPOLYLINE
  5
235
100
AcDbEntity
  8
0
100
AcDbPolyline
 62
7
  6
CONTINUOUS
 90
3
 70
0
 10
1.8987703242
 20
48.0557946253
 10
1.6193218822
 20
47.9051285695
 10
1.3270901456
 20
47.7595451509
  0
LWPOLYLINE
  5
236
100
AcDbEntity
  8
0
100
AcDbPolyline
 62
7
  6
CONTINUOUS
 90
65
 70
0
 10
1.7958110017
 20
47.9643018322
 10
1.4853443951
 20
47.8213353267
 10
1.1648588638
 20
47.6846230773
 10
0.8343544076
 20
47.5541650842
 10
0.4933412186
 20
47.4297965382
 10
0.1423091048
 20
47.3116822484
 10
-0.2172725095
 20
47.2003166426
 10
-0.5854394626
 20
47.0957280103
 10
-0.9621559161
 20
46.9978880619
 10
-1.345844931
 20
46.9072063567
 10
-1.736535735
 20
46.8237129009
 10
-2.1341991004
 20
46.7473776881
 10
-2.5371704038
 20
46.6785202585
 10
-2.9454718953
 20
46.6171719579
 10
-3.3590813249
 20
46.5633014403
 10
-3.7762673189
 20
46.5171342085
 10
-4.1970448697
 20
46.4787025534
 10
-4.621398985
 20
46.447974184
 10
-5.0475533137
 20
46.4250777297
 10
-5.475515402
 20
46.4100460206
 10
-5.9052777037
 20
46.4028462265
 10
-6.3350412291
 20
46.4035084858
 10
-6.7648059833
 20
46.4120657552
 10
-7.1945719612
 20
46.428485078
 10
-7.6225401576
 20
46.4526977227
 10
-8.0487030366
 20
46.4847363579
 10
-8.4730681341
 20
46.524568315
 10
-8.8938590532
 20
46.572026857
 10
-9.3110608114
 20
46.6271439536
 10
-9.7246883913
 20
46.6898876351
 10
-10.1330103431
 20
46.7599952558
 10
-10.5360044264
 20
46.8374976843
 10
-10.9336928817
 20
46.9223640519
 10
-11.3244109808
 20
47.0142391073
 10
-11.7081295048
 20
47.1131522296
 10
-12.0848776726
 20
47.2190740397
 10
-12.4530784121
 20
47.3315611475
 10
-12.8126958938
 20
47.4506410739
 10
-13.1637659472
 20
47.5762862981
 10
-13.5048189892
 20
47.7079708677
 10
-13.83581303
 20
47.845720099
 10
-14.1567900594
 20
47.9895086757
 10
-14.466406464
 20
48.1387346973
 10
-14.7646146218
 20
48.2934209569
 10
-15.0514621548
 20
48.4535446614
 10
-15.3257483162
 20
48.6184355312
 10
-15.5874204504
 20
48.7881135497
 10
-15.8365312129
 20
48.9625587335
 10
-16.0720378233
 20
49.1410408531
 10
-16.293883255
 20
49.3235768309
 10
-16.5021245346
 20
49.5101497445
 10
-16.6958899618
 20
49.6999785978
 10
-16.875118856
 20
49.8930770391
 10
-17.0398718978
 20
50.0894314199
 10
-17.1894594291
 20
50.2882197988
 10
-17.3238178784
 20
50.4894523787
 10
-17.4430108173
 20
50.6931189565
 10
-17.5465393028
 20
50.8983669818
 10
-17.6343376717
 20
51.1052030838
 10
-17.7064715873
 20
51.3136206333
 10
-17.7626390962
 20
51.522747192
 10
-17.8027732694
 20
51.7325857321
 10
-17.8269410359
 20
51.9431332815
 10
-17.8350412291
 20
52.1535084858
 10
-17.8347647254
 20
52.1929557448
  0
LWPOLYLINE
  5
237
100
AcDbEntity
  8
0
100
AcDbPolyline
 62
7
  6
CONTINUOUS
 90
7
 70
0
 10
44.6288265248
 20
-33.6761481814
 10
44.8686238752
 20
-33.6157446031
 10
45.1566676092
 20
-33.5299249605
 10
45.4460256006
 20
-33.4294067922
 10
45.7362656879
 20
-33.314318856
 10
46.0278200328
 20
-33.184532394
 10
46.320688635
 20
-33.0400474062
  0
LINE
  5
238
100
AcDbEntity
  8
RACCORDO
100
AcDbLine
 62
7
  6
CONTINUOUS
 10
27.4044269287
 20
-64.5236841125
 11
29.3724816776
 21
-65.5077114869
  0
LINE
  5
239
100
AcDbEntity
  8
0
100
AcDbLine
 62
7
  6
CONTINUOUS
 10
25.8369477717
 20
-62.5123387191
 11
-55.4803320648
 21
-21.8536988009
  0
LINE
  5
23A
100
AcDbEntity
  8
0
100
AcDbLine
 62
7
  6
CONTINUOUS
 10
25.8369477717
 20
-58.9768048131
 11
-51.9447981589
 21
-20.0859318479
  0
LWPOLYLINE
  5
23B
100
AcDbEntity
  8
0
100
AcDbPolyline
 62
7
  6
CONTINUOUS
 90
42
 70
0
 10
-44.8876005046
 20
13.509386231
 10
-44.8493369198
 20
13.3299044787
 10
-44.8049374319
 20
13.1505950439
 10
-44.7544020408
 20
12.9714579264
 10
-44.6975785804
 20
12.792059903
 10
-44.6346192169
 20
12.6128341969
 10
-44.565980449
 20
12.4350804783
 10
-44.491620989
 20
12.2588094409
 10
-44.4115821246
 20
12.084010391
 10
-44.326444218
 20
11.9119509165
 10
-44.2361701996
 20
11.7426509266
 10
-44.1407971391
 20
11.5760905121
 10
-44.0410166075
 20
11.413477534
 10
-43.9367965619
 20
11.2548406825
 10
-43.8281690453
 20
11.1001512673
 10
-43.7159217572
 20
10.9505310784
 10
-43.6000283806
 20
10.8060169619
 10
-43.4805152325
 20
10.6665720716
 10
-43.3582489636
 20
10.53320766
 10
-43.2332095568
 20
10.4059679252
 10
-43.1054170293
 20
10.2848086691
 10
-42.9757980832
 20
10.1706085496
 10
-42.8443394379
 20
10.0634181532
 10
-42.711054374
 20
9.9631868935
 10
-42.5769094353
 20
9.870641669
 10
-42.4418983675
 20
9.7858383514
 10
-42.3060274248
 20
9.7087210689
 10
-42.1702819133
 20
9.6398491054
 10
-42.0346627416
 20
9.579282399
 10
-41.899169001
 20
9.5269610114
 10
-41.7647832709
 20
9.4832644114
 10
-41.6315136034
 20
9.4482552966
 10
-41.4993519464
 20
9.4218709694
 10
-41.3692567229
 20
9.4043028053
 10
-41.2412429529
 20
9.3956148939
 10
-41.1152956164
 20
9.3957431456
 10
-40.9923280771
 20
9.4046866668
 10
-40.8723619949
 20
9.4225095412
 10
-40.7553757099
 20
9.4491476852
 10
-40.6422176053
 20
9.4844079536
 10
-40.5329155092
 20
9.5283530266
 10
-40.4779499651
 20
9.5543837614
  0
LWPOLYLINE
  5
23C
100
AcDbEntity
  8
0
100
AcDbPolyline
 62
7
  6
CONTINUOUS
 90
14
 70
0
 10
-43.9661038451
 20
16.5309719279
 10
-44.0410166075
 20
16.4907618385
 10
-44.1407971391
 20
16.427929392
 10
-44.2361701996
 20
16.3567420381
 10
-44.326444218
 20
16.2777160665
 10
-44.4115821246
 20
16.1907944986
 10
-44.491620989
 20
16.0960343131
 10
-44.565980449
 20
15.9941227358
 10
-44.6346192169
 20
15.885007785
 10
-44.6975785804
 20
15.7687414425
 10
-44.7544020408
 20
15.6461668795
 10
-44.8049374319
 20
15.517565153
 10
-44.8493369198
 20
15.382655206
 10
-44.8876005046
 20
15.2414370386
  0
LINE
  5
23D
100
AcDbEntity
  8
ASSI
100
AcDbLine
 62
7
  6
CONTINUOUS
 10
-15.6795920167
 20
30.6742278478
 11
-43.96621294
 21
16.5309173862
  0
LINE
  5
23E
100
AcDbEntity
  8
DRAFT
100
AcDbLine
 62
7
  6
CONTINUOUS
 10
-16.4216188347
 20
31.0452412568
 11
-46.9827080958
 21
16.2889908342
  0
LINE
  5
23F
100
AcDbEntity
  8
RACCORDO
100
AcDbLine
 62
7
  6
CONTINUOUS
 10
-47.7640858372
 20
-18.3110131741
 11
20.9491286688
 21
-52.6676204271
  0
LINE
  5
240
100
AcDbEntity
  8
RACCORDO
100
AcDbLine
 62
7
  6
CONTINUOUS
 10
-45.9346597582
 20
-17.4180927577
 11
19.1197025899
 21
-49.9452739317
  0
LWPOLYLINE
  5
241
100
AcDbEntity
  8
0
100
AcDbPolyline
 62
7
  6
CONTINUOUS
 90
15
 70
0
 10
-17.7904981646
 20
51.6684062595
 10
-17.7587157718
 20
51.813314263
 10
-17.6940499676
 20
52.0287490406
 10
-17.6124624224
 20
52.2422926568
 10
-17.5138768573
 20
52.4539365866
 10
-17.3983695512
 20
52.663689355
 10
-17.2664604025
 20
52.8706068651
 10
-17.1180754754
 20
53.0746763363
 10
-16.9532887057
 20
53.2759105492
 10
-16.7728417983
 20
53.4734037489
 10
-16.576664161
 20
53.6671390719
 10
-16.364826386
 20
53.8571333818
 10
-16.1382819548
 20
54.0425315144
 10
-15.8969645732
 20
54.2233127513
 10
-15.8097731382
 20
54.2833142587
  0
LWPOLYLINE
  5
242
100
AcDbEntity
  8
0
100
AcDbPolyline
 62
7
  6
CONTINUOUS
 90
17
 70
0
 10
-43.071730235
 20
14.7420907581
 10
-43.0856669251
 20
14.7349313466
 10
-43.143967433
 20
14.7005045888
 10
-43.1993524237
 20
14.6603646008
 10
-43.2512628363
 20
14.6149165592
 10
-43.2996634799
 20
14.5641067031
 10
-43.3445895454
 20
14.5079887932
 10
-43.3855875454
 20
14.4471292888
 10
-43.4226176956
 20
14.381480166
 10
-43.4557197802
 20
14.3110894487
 10
-43.4845596639
 20
14.2366676666
 10
-43.5090941784
 20
14.1581739927
 10
-43.529366492
 20
14.075649254
 10
-43.5451719741
 20
13.9899264626
 10
-43.5564424148
 20
13.901283289
 10
-43.563246024
 20
13.8094420626
 10
-43.5655828018
 20
13.7144027834
  0
LWPOLYLINE
  5
243
100
AcDbEntity
  8
0
100
AcDbPolyline
 62
7
  6
CONTINUOUS
 90
17
 70
0
 10
-41.3724296001
 20
11.3432119244
 10
-41.35849291
 20
11.350371336
 10
-41.3001924021
 20
11.3847980937
 10
-41.2448074114
 20
11.4249380817
 10
-41.1928969987
 20
11.4703861233
 10
-41.1444963552
 20
11.5211959795
 10
-41.0995702896
 20
11.5773138893
 10
-41.0585722897
 20
11.6381733938
 10
-41.0215421395
 20
11.7038225165
 10
-40.9884400549
 20
11.7742132339
 10
-40.9596001712
 20
11.8486350159
 10
-40.9350656567
 20
11.9271286899
 10
-40.9147933431
 20
12.0096534285
 10
-40.8989878609
 20
12.0953762199
 10
-40.8877174203
 20
12.1840193935
 10
-40.8809138111
 20
12.2758606199
 10
-40.8785770333
 20
12.3708998991
  0
LWPOLYLINE
  5
244
100
AcDbEntity
  8
0
100
AcDbPolyline
 62
7
  6
CONTINUOUS
 90
66
 70
0
 10
-40.4779499651
 20
9.5543837614
 10
-40.4274415935
 20
9.5809202241
 10
-40.3265607579
 20
9.6417283602
 10
-40.2303063911
 20
9.7108373446
 10
-40.1386451044
 20
9.7881872677
 10
-40.0522416303
 20
9.8732172155
 10
-39.9711341907
 20
9.9659830198
 10
-39.8952845638
 20
10.0664288487
 10
-39.8252428172
 20
10.1738262921
 10
-39.7610511718
 20
10.2882258868
 10
-39.7026674067
 20
10.409577096
 10
-39.6505149269
 20
10.5369998987
 10
-39.6046390318
 20
10.6705384339
 10
-39.564994422
 20
10.8101485627
 10
-39.531868605
 20
10.9548178475
 10
-39.5053089699
 20
11.1045830676
 10
-39.4852681276
 20
11.2594074437
 10
-39.4718914172
 20
11.4181682007
 10
-39.4652272852
 20
11.5808939567
 10
-39.4652272852
 20
11.7475560935
 10
-39.4718914172
 20
11.9169459814
 10
-39.4852681276
 20
12.0890834488
 10
-39.5053089699
 20
12.2639486673
 10
-39.531868605
 20
12.4402735225
 10
-39.564994422
 20
12.6180686244
 10
-39.6046390318
 20
12.7973233629
 10
-39.6505149269
 20
12.9767377932
 10
-39.7026674067
 20
13.1563130757
 10
-39.7610511718
 20
13.33604805
 10
-39.8252428172
 20
13.5146392901
 10
-39.8952845638
 20
13.6920784801
 10
-39.9711341907
 20
13.8683739359
 10
-40.0522416303
 20
14.0422471799
 10
-40.1386451044
 20
14.2136806016
 10
-40.2303063911
 20
14.3826918115
 10
-40.3265607579
 20
14.5480551626
 10
-40.4274415935
 20
14.7097441345
 10
-40.5329155092
 20
14.8677852476
 10
-40.6422176053
 20
15.0210324167
 10
-40.7553757099
 20
15.1694507897
 10
-40.8723619949
 20
15.3130752187
 10
-40.9923280771
 20
15.4508641753
 10
-41.1152956164
 20
15.5827752358
 10
-41.2412429529
 20
15.708850824
 10
-41.3692567229
 20
15.8281766827
 10
-41.4993519464
 20
15.940703742
 10
-41.6315136034
 20
16.0464810718
 10
-41.7647832709
 20
16.1447416246
 10
-41.899169001
 20
16.2354307546
 10
-42.0346627416
 20
16.3186031076
 10
-42.1702819133
 20
16.3936555729
 10
-42.3060274248
 20
16.4605291209
 10
-42.4418983675
 20
16.5192827812
 10
-42.5769094353
 20
16.5694905313
 10
-42.711054374
 20
16.6110902456
 10
-42.8443394379
 20
16.6441440497
 10
-42.9757980832
 20
16.6684122986
 10
-43.1054170293
 20
16.6838311252
 10
-43.2332095568
 20
16.6904643966
 10
-43.3582489636
 20
16.6882640686
 10
-43.4805152325
 20
16.6771659259
 10
-43.6000283806
 20
16.6572341838
 10
-43.7159217572
 20
16.6286134438
 10
-43.8281690453
 20
16.591240543
 10
-43.9367965619
 20
16.5451786444
 10
-43.9661038451
 20
16.5309719279
  0
LINE
  5
245
100
AcDbEntity
  8
ASSI
100
AcDbLine
 62
7
  6
CONTINUOUS
 10
-6.9589269045
 20
26.3138952917
 11
-40.4779468951
 21
9.5543852964
  0
LWPOLYLINE
  5
246
100
AcDbEntity
  8
0
100
AcDbPolyline
 62
7
  6
CONTINUOUS
 90
13
 70
0
 10
21.3440742349
 20
37.7510531062
 10
21.0518424983
 20
37.6054696876
 10
20.7723940563
 20
37.4548036318
 10
20.5057289089
 20
37.2990549388
 10
20.2514847846
 20
37.1379743083
 10
20.0100239548
 20
36.9718110407
 10
19.7824332345
 20
36.8013130365
 10
19.5687751467
 20
36.6264607558
 10
19.3689871683
 20
36.4472737384
 10
19.1839685447
 20
36.2645585049
 10
19.0137858526
 20
36.078299151
 10
18.8583725153
 20
35.8885115809
 10
18.7773857375
 20
35.7800998853
  0
LWPOLYLINE
  5
247
100
AcDbEntity
  8
0
100
AcDbPolyline
 62
7
  6
CONTINUOUS
 90
22
 70
0
 10
20.8876940937
 20
38.4183602862
 10
20.5887327307
 20
38.2696411589
 10
20.3023342651
 20
38.1158853766
 10
20.0284986972
 20
37.9570929395
 10
19.766878508
 20
37.7930278935
 10
19.5178212163
 20
37.6239261926
 10
19.2823693788
 20
37.4504956984
 10
19.0605800276
 20
37.2727182652
 10
18.8523961305
 20
37.0906120386
 10
18.6586891476
 20
36.9049393174
 10
18.4795197642
 20
36.7156851512
 10
18.314827295
 20
36.5228644904
 10
18.1653011445
 20
36.3272844844
 10
18.0310048878
 20
36.1289335663
 10
17.9118749499
 20
35.9278233029
 10
17.8084100099
 20
35.7247955441
 10
17.7206757333
 20
35.5198422519
 10
17.6486064546
 20
35.3129714642
 10
17.5925038567
 20
35.1050491445
 10
17.5524348696
 20
34.8960708848
 10
17.5283325633
 20
34.686041093
 10
17.5205743339
 20
34.5152862151
  0
LWPOLYLINE
  5
248
100
AcDbEntity
  8
0
100
AcDbPolyline
 62
7
  6
CONTINUOUS
 90
15
 70
0
 10
41.6893418572
 20
-34.068053993
 10
41.9579206137
 20
-34.1223104236
 10
42.2318865422
 20
-34.1604046159
 10
42.5112639268
 20
-34.1822637141
 10
42.7960284835
 20
-34.187960574
 10
43.0848984874
 20
-34.1774695538
 10
43.3778924449
 20
-34.1507176825
 10
43.6749918496
 20
-34.1077779313
 10
43.9748594576
 20
-34.0488435717
 10
44.2775077473
 20
-33.9738425041
 10
44.5829242403
 20
-33.8828468282
 10
44.8897342575
 20
-33.7762661155
 10
45.1974795724
 20
-33.6542368897
 10
45.5066184115
 20
-33.516622627
 10
45.8171507748
 20
-33.3634233275
  0
LWPOLYLINE
  5
249
100
AcDbEntity
  8
0
100
AcDbPolyline
 62
7
  6
CONTINUOUS
 90
11
 70
0
 10
-17.59650914
 20
51.0160863254
 10
-17.5993125981
 20
51.157607825
 10
-17.5866443073
 20
51.3710676738
 10
-17.5571374063
 20
51.5836260651
 10
-17.5107159907
 20
51.7952789354
 10
-17.4474559648
 20
52.0060303482
 10
-17.367642062
 20
52.2149317118
 10
-17.2711996612
 20
52.4219746867
 10
-17.1582033836
 20
52.6271676123
 10
-17.029161825
 20
52.8295869157
 10
-16.9680072163
 20
52.9167686924
  0
LWPOLYLINE
  5
24A
100
AcDbEntity
  8
0
100
AcDbPolyline
 62
7
  6
CONTINUOUS
 90
22
 70
0
 10
-17.8347647254
 20
52.1929557448
 10
-17.827006496
 20
52.3637106227
 10
-17.8029041897
 20
52.5737404145
 10
-17.7628352026
 20
52.7827186742
 10
-17.7067326047
 20
52.9906409939
 10
-17.6346633261
 20
53.1975117816
 10
-17.5469290495
 20
53.4024650737
 10
-17.4434641094
 20
53.6054928326
 10
-17.3243341715
 20
53.8066030959
 10
-17.1900379148
 20
54.004954014
 10
-17.0405117643
 20
54.2005340201
 10
-16.8758192951
 20
54.3933546809
 10
-16.6966499117
 20
54.5826088471
 10
-16.5029429288
 20
54.7682815683
 10
-16.2947590318
 20
54.9503877949
 10
-16.0729696805
 20
55.1281652281
 10
-15.837517843
 20
55.3015957223
 10
-15.5884605514
 20
55.4706974232
 10
-15.3268403621
 20
55.6347624691
 10
-15.0530047942
 20
55.7935549063
 10
-14.7666063287
 20
55.9473106886
 10
-14.4676449656
 20
56.0960298159
  0
LWPOLYLINE
  5
24B
100
AcDbEntity
  8
0
100
AcDbPolyline
 62
7
  6
CONTINUOUS
 90
15
 70
0
 10
19.5455659211
 20
36.605644729
 10
19.4583744861
 20
36.5456432217
 10
19.2170571046
 20
36.3648619847
 10
18.9905126733
 20
36.1794638521
 10
18.7786748983
 20
35.9894695423
 10
18.582497261
 20
35.7957342193
 10
18.4020503536
 20
35.5982410195
 10
18.2372635839
 20
35.3970068066
 10
18.0888786569
 20
35.1929373355
 10
17.9569695081
 20
34.9860198253
 10
17.8414622021
 20
34.7762670569
 10
17.7428766369
 20
34.5646231271
 10
17.6612890918
 20
34.3510795109
 10
17.5966232875
 20
34.1356447334
 10
17.5648408947
 20
33.9907367298
  0
LWPOLYLINE
  5
24C
100
AcDbEntity
  8
0
100
AcDbPolyline
 62
7
  6
CONTINUOUS
 90
3
 70
0
 10
41.2546432679
 20
-33.9396005845
 10
41.4273591453
 20
-33.997879532
 10
41.6893418572
 20
-34.068053993
  0
LINE
  5
24D
100
AcDbEntity
  8
RACCORDO
100
AcDbLine
 62
7
  6
CONTINUOUS
 10
-12.3052481743
 20
23.6407346567
 11
-12.3052481743
 21
3.4653221034
  0
LINE
  5
24E
100
AcDbEntity
  8
0
100
AcDbLine
 62
7
  6
CONTINUOUS
 10
36.6824292049
 20
30.0818756212
 11
36.9746609415
 21
30.2274590398
  0
LWPOLYLINE
  5
24F
100
AcDbEntity
  8
0
100
AcDbPolyline
 62
7
  6
CONTINUOUS
 90
22
 70
0
 10
37.151150061
 20
30.2866323026
 10
37.4501114241
 20
30.4353514299
 10
37.7365098897
 20
30.5891072122
 10
38.0103454576
 20
30.7478996494
 10
38.2719656468
 20
30.9119646953
 10
38.5210229385
 20
31.0810663962
 10
38.756474776
 20
31.2544968904
 10
38.9782641272
 20
31.4322743236
 10
39.1864480243
 20
31.6143805502
 10
39.3801550071
 20
31.8000532714
 10
39.5593243906
 20
31.9893074376
 10
39.7240168598
 20
32.1821280984
 10
39.8735430103
 20
32.3777081044
 10
40.0078392669
 20
32.5760590225
 10
40.1269692049
 20
32.7771692859
 10
40.2304341449
 20
32.9801970447
 10
40.3181684215
 20
33.1851503369
 10
40.3902377002
 20
33.3920211246
 10
40.4463402981
 20
33.5999434443
 10
40.4864092851
 20
33.808921704
 10
40.5105115915
 20
34.0189514958
 10
40.5182698208
 20
34.1897063737
  0
LWPOLYLINE
  5
250
100
AcDbEntity
  8
0
100
AcDbPolyline
 62
7
  6
CONTINUOUS
 90
19
 70
0
 10
41.6799863325
 20
-34.1769040853
 10
41.9364853733
 20
-34.2902360588
 10
42.180364519
 20
-34.3796934582
 10
42.4301823792
 20
-34.4542929956
 10
42.6859638483
 20
-34.5139723891
 10
42.9476840319
 20
-34.5587939207
 10
43.2142473666
 20
-34.588569967
 10
43.4856741541
 20
-34.6032374594
 10
43.7619440925
 20
-34.6028594664
 10
44.041900713
 20
-34.5874375705
 10
44.3255594695
 20
-34.5569087096
 10
44.612904908
 20
-34.5113359456
 10
44.9027341974
 20
-34.4509100467
 10
45.1950577495
 20
-34.3755687506
 10
45.4898651525
 20
-34.2853743196
 10
45.7859223392
 20
-34.1807043085
 10
46.0828179541
 20
-34.061684569
 10
46.3809633528
 20
-33.9281892494
 10
46.6803585352
 20
-33.7802183498
  0
LWPOLYLINE
  5
251
100
AcDbEntity
  8
0
100
AcDbPolyline
 62
7
  6
CONTINUOUS
 90
11
 70
0
 10
18.3873318431
 20
35.2390991627
 10
18.3261772343
 20
35.151917386
 10
18.1971356758
 20
34.9494980826
 10
18.0841393981
 20
34.744305157
 10
17.9876969974
 20
34.5372621822
 10
17.9078830945
 20
34.3283608185
 10
17.8446230687
 20
34.1176094057
 10
17.798201653
 20
33.9059565354
 10
17.768694752
 20
33.6933981441
 10
17.7560264612
 20
33.4799382953
 10
17.7588299193
 20
33.3384167957
  0
LWPOLYLINE
  5
252
100
AcDbEntity
  8
0
100
AcDbPolyline
 62
7
  6
CONTINUOUS
 90
31
 70
0
 10
18.7773857375
 20
35.7800998853
 10
18.718428048
 20
35.6960500282
 10
18.5940221805
 20
35.5009024392
 10
18.485085183
 20
35.3030808677
 10
18.3921073807
 20
35.1034757082
 10
18.3151607139
 20
34.9020789206
 10
18.2541732422
 20
34.6988985451
 10
18.2094194703
 20
34.494849096
 10
18.1809725757
 20
34.2899266559
 10
18.1687593808
 20
34.0841351424
 10
18.1728348572
 20
33.8784008226
 10
18.1932724303
 20
33.6727239544
 10
18.2299986747
 20
33.46710428
 10
18.2828482857
 20
33.2624672933
 10
18.3518939434
 20
33.0588174238
 10
18.4370629676
 20
32.856150242
 10
18.5379720127
 20
32.6553779524
 10
18.654692031
 20
32.4565090968
 10
18.7871520701
 20
32.2595351334
 10
18.9347559276
 20
32.0653426418
 10
19.0975718684
 20
31.8739441602
 10
19.2755316276
 20
31.6853271503
 10
19.4678342086
 20
31.500340577
 10
19.6745442656
 20
31.3190008054
 10
19.8955971444
 20
31.1412914705
 10
20.1299978865
 20
30.9680124416
 10
20.3778066608
 20
30.7991836894
 10
20.6389632982
 20
30.6347852433
 10
20.9122923334
 20
30.4755570604
 10
21.1978486364
 20
30.3215224469
 10
21.3779339072
 20
30.2314798115
  0
LINE
  5
253
100
AcDbEntity
  8
0
100
AcDbLine
 62
7
  6
CONTINUOUS
 10
18.3872459434
 20
35.2389800253
 11
18.7773029237
 21
35.7799850277
  0
LWPOLYLINE
  5
254
100
AcDbEntity
  8
0
100
AcDbPolyline
 62
7
  6
CONTINUOUS
 90
29
 70
0
 10
36.9746609415
 20
30.2274590398
 10
37.2541093835
 20
30.3781250957
 10
37.5207745309
 20
30.5338737887
 10
37.7750186553
 20
30.6949544191
 10
38.016479485
 20
30.8611176867
 10
38.2440702053
 20
31.0316156909
 10
38.4577282931
 20
31.2064679716
 10
38.6575162715
 20
31.385654989
 10
38.8425348951
 20
31.5683702225
 10
39.0127175872
 20
31.7546295765
 10
39.1681309245
 20
31.9444171466
 10
39.3080753919
 20
32.1368786992
 10
39.4324812593
 20
32.3320262882
 10
39.5414182568
 20
32.5298478597
 10
39.6343960591
 20
32.7294530192
 10
39.711342726
 20
32.9308498068
 10
39.7723301976
 20
33.1340301824
 10
39.8170839696
 20
33.3380796314
 10
39.8455308641
 20
33.5430020715
 10
39.857744059
 20
33.748793585
 10
39.8536685826
 20
33.9545279048
 10
39.8332310095
 20
34.160204773
 10
39.7965047651
 20
34.3658244474
 10
39.7436551542
 20
34.5704614342
 10
39.6746094965
 20
34.7741113036
 10
39.5894404722
 20
34.9767784855
 10
39.4885314271
 20
35.1775507751
 10
39.3718114089
 20
35.3764196307
 10
39.2978441197
 20
35.4895795356
  0
LINE
  5
255
100
AcDbEntity
  8
RACCORDO
100
AcDbLine
 62
250
  6
CONTINUOUS
 10
-47.7021574717
 20
-14.3696101411
 11
-12.3052481743
 21
3.4653221034
  0
LINE
  5
256
100
AcDbEntity
  8
RACCORDO
100
AcDbLine
 62
250
  6
CONTINUOUS
 10
-45.9346597582
 20
-17.4180927577
 11
-10.5377504608
 21
0.4168394869
  0
LINE
  5
257
100
AcDbEntity
  8
RACCORDO
100
AcDbLine
 62
250
  6
CONTINUOUS
 10
29.3724816776
 20
22.8268796991
 11
30.78669524
 21
23.5339864803
  0
LINE
  5
258
100
AcDbEntity
  8
0
100
AcDbLine
 62
7
  6
CONTINUOUS
 10
-51.9447981589
 20
-20.0859318479
 11
-55.4803320648
 21
-21.8536988009
  0
LINE
  5
259
100
AcDbEntity
  8
RACCORDO
100
AcDbLine
 62
250
  6
CONTINUOUS
 10
25.8369477717
 20
18.4610365348
 11
29.3724816776
 21
20.2288034877
  0
LWPOLYLINE
  5
25A
100
AcDbEntity
  8
0
100
AcDbPolyline
 62
7
  6
CONTINUOUS
 90
16
 70
0
 10
44.6287394382
 20
-0.767202908
 10
44.0149092689
 20
-0.9084714369
 10
43.7215605219
 20
-0.9661246147
 10
43.4309197999
 20
-1.0081308931
 10
43.1442952762
 20
-1.0343012019
 10
42.861705055
 20
-1.0445641565
 10
42.5831310322
 20
-1.0389911414
 10
42.309827069
 20
-1.0176072409
 10
42.0418169215
 20
-0.9803411833
 10
41.7790768337
 20
-0.9272642403
 10
41.5227893981
 20
-0.858615311
 10
41.2729837019
 20
-0.7743242008
 10
41.0296306579
 20
-0.6744611044
 10
40.793825598
 20
-0.5594755054
 10
40.5656025464
 20
-0.4292992352
 10
40.4074087625
 20
-0.3251399257
  0
LWPOLYLINE
  5
25B
100
AcDbEntity
  8
0
100
AcDbPolyline
 62
7
  6
CONTINUOUS
 90
48
 70
0
 10
44.5831908831
 20
-0.7775141019
 10
44.3003804015
 20
-0.8330961459
 10
44.0201806616
 20
-0.8735933901
 10
43.7438528422
 20
-0.8988235563
 10
43.4714143968
 20
-0.9087178243
 10
43.2028478719
 20
-0.9033450143
 10
42.9393620848
 20
-0.8827293095
 10
42.6809799384
 20
-0.8468019983
 10
42.4276785298
 20
-0.7956317923
 10
42.1805979684
 20
-0.7294490083
 10
41.9397662962
 20
-0.6481859734
 10
41.7051554711
 20
-0.5519103605
 10
41.477821476
 20
-0.4410555061
 10
41.2577971132
 20
-0.3155556904
 10
41.0450495805
 20
-0.1754766332
 10
40.8405364541
 20
-0.0214488301
 10
40.6442948528
 20
0.1465905966
 10
40.4562876578
 20
0.3285787692
 10
40.2773610893
 20
0.5236965592
 10
40.1075560805
 20
0.7320031519
 10
39.9468316981
 20
0.953439362
 10
39.7959113623
 20
1.1870085055
 10
39.6548392674
 20
1.4327652749
 10
39.5235712192
 20
1.6906549777
 10
39.4026980548
 20
1.9595168528
 10
39.2922666319
 20
2.2394003601
 10
39.192230093
 20
2.5302560398
 10
39.1030387022
 20
2.8307747508
 10
39.0247413469
 20
3.1410000518
 10
38.9572891398
 20
3.4608883842
 10
38.9009856831
 20
3.788999931
 10
38.8558812328
 20
4.1253717607
 10
38.821925533
 20
4.4699668049
 10
38.7992714182
 20
4.8212340419
 10
38.7879698332
 20
5.1792035483
 10
38.7879698332
 20
5.5438452474
 10
38.7992714182
 20
5.9135178877
 10
38.821925533
 20
6.2882441473
 10
38.8558812328
 20
6.668001348
 10
38.9009856831
 20
7.0510802032
 10
38.9572891398
 20
7.4374956863
 10
39.0247413469
 20
7.8272328238
 10
39.1030387022
 20
8.2185374097
 10
39.192230093
 20
8.6114165096
 10
39.2922666319
 20
9.0058630579
 10
39.4026980548
 20
9.4001016511
 10
39.5235712192
 20
9.7941313521
 10
39.6548392674
 20
10.1879530981
  0
LINE
  5
25C
100
AcDbEntity
  8
DRAFT
100
AcDbLine
 62
7
  6
CONTINUOUS
 10
-46.9827080958
 20
14.5569400266
 11
-44.8876005046
 21
13.509386231
  0
LINE
  5
25D
100
AcDbEntity
  8
DRAFT
100
AcDbLine
 62
7
  6
CONTINUOUS
 10
19.4868568986
 20
-18.6778424706
 11
20.8872003034
 21
-19.378014173
  0
LINE
  5
25E
100
AcDbEntity
  8
DRAFT
100
AcDbLine
 62
7
  6
CONTINUOUS
 10
20.8872003034
 20
-17.6459633654
 11
19.4868568986
 21
-16.945791663
  0
LINE
  5
25F
100
AcDbEntity
  8
DRAFT
100
AcDbLine
 62
7
  6
CONTINUOUS
 10
-44.8876005046
 20
15.2414370386
 11
-46.9827080958
 21
16.2889908342
  0
LWPOLYLINE
  5
260
100
AcDbEntity
  8
0
100
AcDbPolyline
 62
7
  6
CONTINUOUS
 90
16
 70
0
 10
40.4074087625
 20
-33.2341052695
 10
40.5656025464
 20
-33.338264579
 10
40.793825598
 20
-33.4684408492
 10
41.0296306579
 20
-33.5834264482
 10
41.2729837019
 20
-33.6832895446
 10
41.5227893981
 20
-33.7675806549
 10
41.7790768337
 20
-33.8362295841
 10
42.0418169215
 20
-33.8893065271
 10
42.309827069
 20
-33.9265725847
 10
42.5831310322
 20
-33.9479564852
 10
42.861705055
 20
-33.9535295003
 10
43.1442952762
 20
-33.9432665457
 10
43.4309197999
 20
-33.9170962369
 10
43.7215605219
 20
-33.8750899585
 10
44.0149092689
 20
-33.8174367807
 10
44.6287394382
 20
-33.6761682518
  0
LWPOLYLINE
  5
261
100
AcDbEntity
  8
ASSI
100
AcDbPolyline
 62
7
  6
CONTINUOUS
 90
16
 70
0
 10
0.23965118
 20
2.3702253873
 10
0.2420028771
 20
2.4602501543
 10
0.2488256278
 20
2.5470157714
 10
0.2601194321
 20
2.6305222386
 10
0.2759608578
 20
2.7110608603
 10
0.296273337
 20
2.7883403321
 10
0.3208271666
 20
2.8614867408
 10
0.3496704913
 20
2.9304531708
 10
0.3827551664
 20
2.9952865377
 10
0.4197070545
 20
3.0552536747
 10
0.4605700534
 20
3.1102993439
 10
0.5053002654
 20
3.1604787833
 10
0.5533918597
 20
3.2052245397
 10
0.6048829925
 20
3.244474934
 10
0.6597355076
 20
3.2782916453
 10
0.6813866928
 20
3.2896874675
  0
LWPOLYLINE
  5
262
100
AcDbEntity
  8
ASSI
100
AcDbPolyline
 62
7
  6
CONTINUOUS
 90
25
 70
0
 10
0.7721978269
 20
2.5994864138
 10
0.7651553788
 20
2.5792381502
 10
0.75044335
 20
2.5258754582
 10
0.7387533127
 20
2.4702568186
 10
0.7301177114
 20
2.4123580111
 10
0.7245041014
 20
2.3522032559
 10
0.7219725367
 20
2.2904360824
 10
0.7225561065
 20
2.2270391795
 10
0.7262217216
 20
2.1620298583
 10
0.7329301674
 20
2.0961035818
 10
0.7427141125
 20
2.0292505055
 10
0.7555408884
 20
1.961480474
 10
0.7712732756
 20
1.893518484
 10
0.7899424693
 20
1.8253624747
 10
0.8115172743
 20
1.757014507
 10
0.8357668855
 20
1.6892057604
 10
0.8627200202
 20
1.6219420241
 10
0.8923479612
 20
1.5552175089
 10
0.9243337517
 20
1.4897460268
 10
0.9587027061
 20
1.4255410306
 10
0.9954295102
 20
1.3625890675
 10
1.0341212642
 20
1.3015635911
 10
1.0746470018
 20
1.2426890859
 10
1.1171376893
 20
1.1857410675
 10
1.1615933269
 20
1.1307195358
  0
LINE
  5
263
100
AcDbEntity
  8
ASSI
100
AcDbLine
 62
7
  6
CONTINUOUS
 10
0.9155504418
 20
0.884024648
 11
1.0201719707
 21
1.0600088577
  0
LINE
  5
264
100
AcDbEntity
  8
ASSI
100
AcDbLine
 62
7
  6
CONTINUOUS
 10
1.0569717981
 20
0.9547353261
 11
1.1615933269
 21
1.1307195358
  0
LWPOLYLINE
  5
265
100
AcDbEntity
  8
ASSI
100
AcDbPolyline
 62
7
  6
CONTINUOUS
 90
28
 70
0
 10
0.6828621749
 20
3.0813223215
 10
0.6322653964
 20
3.0403543921
 10
0.5858544326
 20
2.9939203137
 10
0.5436292837
 20
2.9420200864
 10
0.505432173
 20
2.884360875
 10
0.4714208771
 20
2.8212355147
 10
0.4420687257
 20
2.7535225107
 10
0.4174408614
 20
2.68115772
 10
0.3974721416
 20
2.6042052856
 10
0.3824404676
 20
2.523736142
 10
0.3724148677
 20
2.4397011196
 10
0.3673263136
 20
2.3521493879
 10
0.367245622
 20
2.2622993901
 10
0.3722428111
 20
2.1701189925
 10
0.3822478627
 20
2.0756403287
 10
0.397121538
 20
1.9801782428
 10
0.4169319087
 20
1.883718985
 10
0.4416109031
 20
1.786276305
 10
0.4708150678
 20
1.6892062968
 10
0.5046076722
 20
1.5925141709
 10
0.5429254468
 20
1.4961947168
 10
0.5852351295
 20
1.4015883964
 10
0.6315925339
 20
1.3087191623
 10
0.6819418463
 20
1.2175630619
 10
0.7355823636
 20
1.1293886999
 10
0.7922805181
 20
1.0446189443
 10
0.8522698775
 20
0.962830927
 10
0.9155504418
 20
0.884024648
  0
LWPOLYLINE
  5
266
100
AcDbEntity
  8
ASSI
100
AcDbPolyline
 62
7
  6
CONTINUOUS
 90
14
 70
0
 10
0.7528754678
 20
3.3193167191
 10
0.7087608294
 20
3.2873448612
 10
0.6623134685
 20
3.2466797714
 10
0.6190065087
 20
3.2012171445
 10
0.5788084623
 20
3.1510050835
 10
0.5421250919
 20
3.0965504333
 10
0.5089919947
 20
3.0378102243
 10
0.4793735735
 20
2.974827426
 10
0.4535687991
 20
2.9082377923
 10
0.4316162969
 20
2.8380047926
 10
0.4134774416
 20
2.7641649575
 10
0.3993353284
 20
2.6874636326
 10
0.389250989
 20
2.6081492666
 10
0.3833638391
 20
2.5286792319
  0
LWPOLYLINE
  5
267
100
AcDbEntity
  8
ASSI
100
AcDbPolyline
 62
7
  6
CONTINUOUS
 90
44
 70
0
 10
0.5366530632
 20
3.5795479648
 10
0.4679233194
 20
3.5406028252
 10
0.4084451915
 20
3.4985917076
 10
0.3522807281
 20
3.4505529736
 10
0.3000013133
 20
3.3969753412
 10
0.2516466058
 20
3.3378022691
 10
0.2071769471
 20
3.2730902985
 10
0.1670447452
 20
3.203497771
 10
0.1312942771
 20
3.1289748658
 10
0.099881266
 20
3.0495714038
 10
0.0731252892
 20
2.9660951891
 10
0.051073886
 20
2.878504647
 10
0.0336795173
 20
2.7868413524
 10
0.0211191431
 20
2.6920378336
 10
0.013442109
 20
2.5940620354
 10
0.0105990694
 20
2.492946013
 10
0.0126189478
 20
2.3897184618
 10
0.0195513849
 20
2.284357827
 10
0.03134674
 20
2.1768856632
 10
0.047885014
 20
2.0683953292
 10
0.0692146228
 20
1.9588764315
 10
0.0952871506
 20
1.8483393635
 10
0.1258373506
 20
1.7379086646
 10
0.1609109313
 20
1.6275854206
 10
0.2004621842
 20
1.5173685456
 10
0.2440887383
 20
1.4083793214
 10
0.2918321942
 20
1.30063028
 10
0.3436509512
 20
1.1941088895
 10
0.3990178357
 20
1.0898988359
 10
0.457969067
 20
0.9880237135
 10
0.5204684258
 20
0.8884599281
 10
0.5858800802
 20
0.7922203833
 10
0.6542337591
 20
0.6993390129
 10
0.7254997337
 20
0.609781883
 10
0.7989529857
 20
0.5244600953
 10
0.874615843
 20
0.4434168843
 10
0.9524659777
 20
0.3666090155
 10
1.0317113882
 20
0.2948178872
 10
1.1123662866
 20
0.2280947269
 10
1.1944164608
 20
0.1663883069
 10
1.2770272734
 20
0.1103263427
 10
1.3599205121
 20
0.0601180725
 10
1.4433743893
 20
0.015554258
 10
1.527388905
 20
-0.0233651008
  0
LWPOLYLINE
  5
268
100
AcDbEntity
  8
ASSI
100
AcDbPolyline
 62
7
  6
CONTINUOUS
 90
26
 70
0
 10
2.1215495119
 20
0.4091448295
 10
2.147781714
 20
0.4231147854
 10
2.2013815308
 20
0.4575933691
 10
2.2516973466
 20
0.4983330454
 10
2.2980302891
 20
0.5447679518
 10
2.3403247799
 20
0.5969775613
 10
2.3786363974
 20
0.654882401
 10
2.412433004
 20
0.717678189
 10
2.4416515958
 20
0.7854331751
 10
2.4663551767
 20
0.8580791094
 10
2.486200621
 20
0.9346069606
 10
2.5011201367
 20
1.015070898
 10
2.5111815157
 20
1.0994167522
 10
2.5162450084
 20
1.1864729831
 10
2.5162408726
 20
1.2762774122
 10
2.5112388505
 20
1.3687922181
 10
2.5013084187
 20
1.4627323962
 10
2.4863808046
 20
1.5581178366
 10
2.4665247809
 20
1.6549286492
 10
2.4420161421
 20
1.7518201593
 10
2.412789963
 20
1.8487934948
 10
2.3789111689
 20
1.9458475278
 10
2.3408503294
 20
2.0416341993
 10
2.2987643011
 20
2.1357041564
 10
2.2524962275
 20
2.2285067522
 10
2.2020461084
 20
2.3200419865
  0
LINE
  5
269
100
AcDbEntity
  8
ASSI
100
AcDbLine
 62
7
  6
CONTINUOUS
 10
2.2020461084
 20
2.3200419865
 11
1.5643358315
 21
1.9807165708
  0
LINE
  5
26A
100
AcDbEntity
  8
ASSI
100
AcDbLine
 62
7
  6
CONTINUOUS
 10
1.5643358315
 20
1.6388643009
 11
2.1724569552
 21
1.9624462269
  0
LWPOLYLINE
  5
26B
100
AcDbEntity
  8
ASSI
100
AcDbPolyline
 62
7
  6
CONTINUOUS
 90
14
 70
0
 10
2.2630991132
 20
0.4799195934
 10
2.2724371682
 20
0.4846952531
 10
2.3217616957
 20
0.5137665783
 10
2.3684876219
 20
0.5479471875
 10
2.4120884368
 20
0.5868519323
 10
2.4525287938
 20
0.6305342451
 10
2.4898440395
 20
0.6789406933
 10
2.5236137041
 20
0.731525831
 10
2.5537976852
 20
0.7883369213
 10
2.5804360851
 20
0.849326701
 10
2.6032287412
 20
0.9138079345
 10
2.622132156
 20
0.981820112
 10
2.637189827
 20
1.0533237433
 10
2.6416629307
 20
1.0833770916
  0
LINE
  5
26C
100
AcDbEntity
  8
ASSI
100
AcDbLine
 62
7
  6
CONTINUOUS
 10
0.6780114648
 20
3.6502271693
 11
0.5365901086
 21
3.5795164912
  0
LINE
  5
26D
100
AcDbEntity
  8
ASSI
100
AcDbLine
 62
7
  6
CONTINUOUS
 10
0.8242835312
 20
3.1520329996
 11
0.6828621749
 21
3.0813223215
  0
LINE
  5
26E
100
AcDbEntity
  8
ASSI
100
AcDbLine
 62
7
  6
CONTINUOUS
 10
1.2696292815
 20
3.2591244117
 11
1.1282079252
 21
3.1884137336
  0
LINE
  5
26F
100
AcDbEntity
  8
ASSI
100
AcDbLine
 62
7
  6
CONTINUOUS
 10
1.8704887842
 20
2.9295043434
 11
1.7582577449
 21
2.8733888237
  0
LINE
  5
270
100
AcDbEntity
  8
ASSI
100
AcDbLine
 62
7
  6
CONTINUOUS
 10
1.8996791012
 20
2.6642044215
 11
1.7582577449
 21
2.5934937433
  0
LINE
  5
271
100
AcDbEntity
  8
RACCORDO
100
AcDbLine
 62
250
  6
CONTINUOUS
 10
27.6047147246
 20
15.4120895488
 11
31.1402486306
 21
17.1798565018
  0
LINE
  5
272
100
AcDbEntity
  8
ASSI
100
AcDbLine
 62
7
  6
CONTINUOUS
 10
2.3004160323
 20
2.3692269449
 11
2.202045739
 21
2.3200417899
  0
LINE
  5
273
100
AcDbEntity
  8
ASSI
100
AcDbLine
 62
7
  6
CONTINUOUS
 10
1.1615933269
 20
1.1307195358
 11
1.0201719085
 21
1.0600087532
  0
LINE
  5
274
100
AcDbEntity
  8
ASSI
100
AcDbLine
 62
7
  6
CONTINUOUS
 10
1.0569717981
 20
0.9547353261
 11
0.9155505105
 21
0.8840247635
  0
LINE
  5
275
100
AcDbEntity
  8
ASSI
100
AcDbLine
 62
7
  6
CONTINUOUS
 10
1.2622067816
 20
1.0053005576
 11
1.1207854253
 21
0.9345898795
  0
LINE
  5
276
100
AcDbEntity
  8
ASSI
100
AcDbLine
 62
7
  6
CONTINUOUS
 10
1.7057571877
 20
0.7835253545
 11
1.5643358315
 21
0.7128146764
  0
LINE
  5
277
100
AcDbEntity
  8
ASSI
100
AcDbLine
 62
7
  6
CONTINUOUS
 10
1.907101601
 20
0.6828531479
 11
1.7656802448
 21
0.6121424698
  0
LINE
  5
278
100
AcDbEntity
  8
ASSI
100
AcDbLine
 62
7
  6
CONTINUOUS
 10
2.0047770892
 20
0.7091275192
 11
1.8633557329
 21
0.638416841
  0
LINE
  5
279
100
AcDbEntity
  8
RACCORDO
100
AcDbLine
 62
250
  6
CONTINUOUS
 10
33.2615689741
 20
16.11919633
 11
34.6757825365
 21
16.8263031112
  0
LINE
  5
27A
100
AcDbEntity
  8
ASSI
100
AcDbLine
 62
7
  6
CONTINUOUS
 10
1.907101601
 20
0.4044892004
 11
1.7656802448
 21
0.3337785223
  0
LINE
  5
27B
100
AcDbEntity
  8
ASSI
100
AcDbLine
 62
7
  6
CONTINUOUS
 10
2.2631520263
 20
0.4799460464
 11
2.12173067
 21
0.4092353683
  0
LINE
  5
27C
100
AcDbEntity
  8
ASSI
100
AcDbLine
 62
7
  6
CONTINUOUS
 10
2.4883588891
 20
0.0295323208
 11
2.3469375329
 21
-0.0411783574
  0
LINE
  5
27D
100
AcDbEntity
  8
RACCORDO
100
AcDbLine
 62
250
  6
CONTINUOUS
 10
33.5370380956
 20
20.7632849864
 11
56.028602633
 21
31.919266807
  0
LINE
  5
27E
100
AcDbEntity
  8
RACCORDO
100
AcDbLine
 62
250
  6
CONTINUOUS
 10
20.9491286688
 20
14.1675009609
 11
23.0334212281
 21
15.2013254359
  0
LINE
  5
27F
100
AcDbEntity
  8
RACCORDO
100
AcDbLine
 62
250
  6
CONTINUOUS
 10
22.3631268396
 20
11.7287148676
 11
24.4474193988
 21
12.7625393426
  0
LINE
  5
280
100
AcDbEntity
  8
RACCORDO
100
AcDbLine
 62
250
  6
CONTINUOUS
 10
34.6489318636
 20
17.3896179797
 11
57.7961003465
 21
28.8707841905
  0
LWPOLYLINE
  5
281
100
AcDbEntity
  8
ASSI
100
AcDbPolyline
 62
7
  6
CONTINUOUS
 90
10
 70
0
 10
0.6813866928
 20
3.2896874675
 10
0.7173291066
 20
3.306292258
 10
0.7776949043
 20
3.3284107522
 10
0.840801786
 20
3.3447131478
 10
0.9059361088
 20
3.3550150896
 10
0.9731208867
 20
3.3592484649
 10
1.0423331058
 20
3.3574813863
 10
1.1127900811
 20
3.3497338369
 10
1.1845059422
 20
3.3359379308
 10
1.2574665595
 20
3.3161615538
  0
LWPOLYLINE
  5
282
100
AcDbEntity
  8
ASSI
100
AcDbPolyline
 62
7
  6
CONTINUOUS
 90
38
 70
0
 10
2.2021409487
 20
0.2486506663
 10
2.1661985349
 20
0.2320458758
 10
2.1058327371
 20
0.2099273816
 10
2.0427258554
 20
0.193624986
 10
1.9775915327
 20
0.1833230442
 10
1.9104067547
 20
0.1790896689
 10
1.8411945357
 20
0.1808567475
 10
1.7707375604
 20
0.1886042969
 10
1.6990216993
 20
0.2024002031
 10
1.626061082
 20
0.2221765801
 10
1.552680782
 20
0.2477097872
 10
1.4788760354
 20
0.2790651717
 10
1.4046516061
 20
0.3161773863
 10
1.3308468595
 20
0.3586267484
 10
1.2574665595
 20
0.4064738413
 10
1.1845059422
 20
0.4596580816
 10
1.1127900811
 20
0.5175780366
 10
1.0423331058
 20
0.5802874625
 10
0.9731208867
 20
0.6477326029
 10
0.9059361088
 20
0.7191507561
 10
0.840801786
 20
0.7945870207
 10
0.7776949043
 20
0.873996298
 10
0.7173291066
 20
0.9564805899
 10
0.6597355076
 20
1.0420748017
 10
0.6048829925
 20
1.1307440281
 10
0.5533918597
 20
1.2214855551
 10
0.5053002654
 20
1.3143229058
 10
0.4605700534
 20
1.4092325572
 10
0.4197070545
 20
1.5051412253
 10
0.3827551664
 20
1.6020602504
 10
0.3496704913
 20
1.6999782924
 10
0.3208271666
 20
1.7977880471
 10
0.296273337
 20
1.8954882854
 10
0.2759608578
 20
1.9930802364
 10
0.2601194321
 20
2.0894602838
 10
0.2488256278
 20
2.1842605553
 10
0.2420028771
 20
2.2778489231
 10
0.23965118
 20
2.3702253873
  0
LWPOLYLINE
  5
283
100
AcDbEntity
  8
ASSI
100
AcDbPolyline
 62
7
  6
CONTINUOUS
 90
4
 70
0
 10
1.9864107767
 20
0.6795520744
 10
1.9607351206
 20
0.6677292994
 10
1.9133214058
 20
0.6506302161
 10
1.8633557329
 20
0.638416841
  0
LWPOLYLINE
  5
284
100
AcDbEntity
  8
ASSI
100
AcDbPolyline
 62
7
  6
CONTINUOUS
 90
4
 70
0
 10
1.9679771309
 20
0.3578114533
 10
2.0311959929
 20
0.373318138
 10
2.0911308539
 20
0.3950859154
 10
2.1215495119
 20
0.4091448295
  0
LINE
  5
285
100
AcDbEntity
  8
ASSI
100
AcDbLine
 62
7
  6
CONTINUOUS
 10
2.0047770892
 20
0.7091275192
 11
2.0492327333
 21
0.7196934148
  0
LWPOLYLINE
  5
286
100
AcDbEntity
  8
ASSI
100
AcDbPolyline
 62
7
  6
CONTINUOUS
 90
7
 70
0
 10
1.979952506
 20
-0.1241335201
 10
2.0568570621
 20
-0.1210447752
 10
2.1311717095
 20
-0.1116100463
 10
2.2028964479
 20
-0.0958293334
 10
2.2722577015
 20
-0.0736057541
 10
2.3390290462
 20
-0.0450361908
 10
2.3468520606
 20
-0.0412210867
  0
LWPOLYLINE
  5
287
100
AcDbEntity
  8
ASSI
100
AcDbPolyline
 62
7
  6
CONTINUOUS
 90
45
 70
0
 10
13.6290391083
 20
-5.8544791218
 10
13.553165511
 20
-5.8270461675
 10
13.4774607597
 20
-5.7941245425
 10
13.4019248545
 20
-5.7557142467
 10
13.3262865053
 20
-5.7116371062
 10
13.2508170022
 20
-5.6620712951
 10
13.176330215
 20
-5.6075513353
 10
13.1028367797
 20
-5.5480236084
 10
13.0303260603
 20
-5.4835417329
 10
12.9595800191
 20
-5.4148010872
 10
12.890617755
 20
-5.3417555787
 10
12.823420169
 20
-5.2644513
 10
12.7587119258
 20
-5.1837219075
 10
12.6965199678
 20
-5.0995303311
 10
12.6368173526
 20
-5.0119136408
 10
12.5802479187
 20
-4.9218167029
 10
12.5268455765
 20
-4.8292126737
 10
12.4765764155
 20
-4.7341283969
 10
12.429982543
 20
-4.6375892699
 10
12.3871037366
 20
-4.5395795469
 10
12.3479002186
 20
-4.4401149737
 10
12.3127947633
 20
-4.3402681853
 10
12.281831724
 20
-4.2400350448
 10
12.2549667474
 20
-4.1394196891
 10
12.2324895479
 20
-4.0395071631
 10
12.2144476142
 20
-3.9403050736
 10
12.2007934576
 20
-3.841805814
 10
12.1916743257
 20
-3.7450716089
 10
12.187139301
 20
-3.6501215618
 10
12.187139301
 20
-3.5569365693
 10
12.1916743257
 20
-3.4665215468
 10
12.2007934576
 20
-3.3789064737
 10
12.2144476142
 20
-3.2940613706
 10
12.2324895479
 20
-3.2129012148
 10
12.2549667474
 20
-3.1354658884
 10
12.281831724
 20
-3.0617155093
 10
12.3127947633
 20
-2.9924454081
 10
12.3479002186
 20
-2.9277040749
 10
12.3871037366
 20
-2.8674430197
 10
12.429982543
 20
-2.8123121032
 10
12.4765764155
 20
-2.7623668487
 10
12.5268455765
 20
-2.7175517329
 10
12.5802479187
 20
-2.6783500459
 10
12.6368173526
 20
-2.6448225419
 10
12.6504919117
 20
-2.6377494751
  0
LWPOLYLINE
  5
288
100
AcDbEntity
  8
ASSI
100
AcDbPolyline
 62
7
  6
CONTINUOUS
 90
25
 70
0
 10
16.6943470047
 20
-7.3871326857
 10
16.6155528685
 20
-7.3585242076
 10
16.5369740832
 20
-7.3240229041
 10
16.4586106488
 20
-7.283628775
 10
16.3801597658
 20
-7.2371390808
 10
16.3019242337
 20
-7.1847565611
 10
16.2248124513
 20
-7.1270894345
 10
16.1488375158
 20
-7.0640761016
 10
16.0739863301
 20
-6.9957781619
 10
16.0011280019
 20
-6.9229886323
 10
15.9302857604
 20
-6.8456551578
 10
15.8614363765
 20
-6.7638300934
 10
15.7953792699
 20
-6.6784635217
 10
15.7321469883
 20
-6.5895141618
 10
15.6717069842
 20
-6.4970232945
 10
15.6147610349
 20
-6.4020648443
 10
15.5613498682
 20
-6.3046100485
 10
15.5114327563
 20
-6.2046876698
 10
15.4655892939
 20
-6.1034579212
 10
15.4238669646
 20
-6.0009055635
 10
15.3862182848
 20
-5.8970458358
 10
15.3530803987
 20
-5.7930846682
 10
15.324599021
 20
-5.6894240372
 10
15.300628437
 20
-5.5856619662
 10
15.2811686467
 20
-5.4817984553
  0
LINE
  5
289
100
AcDbEntity
  8
RACCORDO
100
AcDbLine
 62
7
  6
CONTINUOUS
 10
-10.5377504608
 20
0.4168394869
 11
15.6773566294
 21
-12.6907140582
  0
LINE
  5
28A
100
AcDbEntity
  8
ASSI
100
AcDbLine
 62
7
  6
CONTINUOUS
 10
1.1207854253
 20
0.9345898795
 11
1.1207854253
 21
0.656225932
  0
LINE
  5
28B
100
AcDbEntity
  8
ASSI
100
AcDbLine
 62
7
  6
CONTINUOUS
 10
1.1282079252
 20
3.1884137336
 11
1.1282079252
 21
2.9085186532
  0
LINE
  5
28C
100
AcDbEntity
  8
ASSI
100
AcDbLine
 62
7
  6
CONTINUOUS
 10
1.3222076204
 20
2.8115188056
 11
1.3222076204
 21
2.1017806763
  0
LINE
  5
28D
100
AcDbEntity
  8
ASSI
100
AcDbLine
 62
7
  6
CONTINUOUS
 10
1.3222076204
 20
1.7568159112
 11
1.3222076204
 21
0.833878782
  0
LINE
  5
28E
100
AcDbEntity
  8
ASSI
100
AcDbLine
 62
7
  6
CONTINUOUS
 10
1.5643358315
 20
0.7128146764
 11
1.5643358315
 21
1.6388643009
  0
LINE
  5
28F
100
AcDbEntity
  8
ASSI
100
AcDbLine
 62
7
  6
CONTINUOUS
 10
1.5643358315
 20
1.9807165708
 11
1.5643358315
 21
2.6904547
  0
LINE
  5
290
100
AcDbEntity
  8
ASSI
100
AcDbLine
 62
7
  6
CONTINUOUS
 10
1.7057571877
 20
0.7835253545
 11
1.7057571877
 21
1.7095749791
  0
LINE
  5
291
100
AcDbEntity
  8
ASSI
100
AcDbLine
 62
7
  6
CONTINUOUS
 10
1.7057571877
 20
2.055966825
 11
1.7057571877
 21
2.6197440219
  0
LINE
  5
292
100
AcDbEntity
  8
ASSI
100
AcDbLine
 62
7
  6
CONTINUOUS
 10
1.7582577449
 20
2.5934937433
 11
1.7582577449
 21
2.8733888237
  0
LINE
  5
293
100
AcDbEntity
  8
ASSI
100
AcDbLine
 62
7
  6
CONTINUOUS
 10
1.7656802448
 20
0.3337785223
 11
1.7656802448
 21
0.6121424698
  0
LINE
  5
294
100
AcDbEntity
  8
ASSI
100
AcDbLine
 62
7
  6
CONTINUOUS
 10
1.8996791012
 20
2.6642044215
 11
1.8996791012
 21
2.9010592934
  0
LINE
  5
295
100
AcDbEntity
  8
ASSI
100
AcDbLine
 62
7
  6
CONTINUOUS
 10
1.907101601
 20
0.4044892004
 11
1.907101601
 21
0.5210859076
  0
LINE
  5
296
100
AcDbEntity
  8
ASSI
100
AcDbLine
 62
7
  6
CONTINUOUS
 10
1.907101601
 20
0.6602897751
 11
1.907101601
 21
0.6828531479
  0
LWPOLYLINE
  5
297
100
AcDbEntity
  8
ASSI
100
AcDbPolyline
 62
7
  6
CONTINUOUS
 90
16
 70
0
 10
2.6438764614
 20
1.1681127466
 10
2.6415247643
 20
1.0780879795
 10
2.6347020136
 20
0.9913223624
 10
2.6234082093
 20
0.9078158952
 10
2.6075667837
 20
0.8272772735
 10
2.5872543044
 20
0.7499978017
 10
2.5627004748
 20
0.676851393
 10
2.5338571501
 20
0.607884963
 10
2.5007724751
 20
0.5430515961
 10
2.4638205869
 20
0.4830844591
 10
2.422957588
 20
0.4280387899
 10
2.3782273761
 20
0.3778593505
 10
2.3301357817
 20
0.3331135941
 10
2.278644649
 20
0.2938631998
 10
2.2237921339
 20
0.2600464885
 10
2.2021409487
 20
0.2486506663
  0
LWPOLYLINE
  5
298
100
AcDbEntity
  8
0
100
AcDbPolyline
 62
7
  6
CONTINUOUS
 90
22
 70
0
 10
5.1629307615
 20
51.8673759034
 10
5.1551725321
 20
51.6966210255
 10
5.1310702258
 20
51.4865912337
 10
5.0910012387
 20
51.277612974
 10
5.0348986408
 20
51.0696906542
 10
4.9628293622
 20
50.8628198666
 10
4.8750950856
 20
50.6578665744
 10
4.7716301456
 20
50.4548388156
 10
4.6525002076
 20
50.2537285522
 10
4.5182039509
 20
50.0553776341
 10
4.3686778004
 20
49.859797628
 10
4.2039853312
 20
49.6669769672
 10
4.0248159478
 20
49.4777228011
 10
3.831108965
 20
49.2920500799
 10
3.6229250679
 20
49.1099438533
 10
3.4011357167
 20
48.9321664201
 10
3.1656838792
 20
48.7587359259
 10
2.9166265875
 20
48.589634225
 10
2.6550063983
 20
48.425569179
 10
2.3811708303
 20
48.2667767419
 10
2.0947723648
 20
48.1130209596
 10
1.7958110017
 20
47.9643018322
  0
LINE
  5
299
100
AcDbEntity
  8
ASSI
100
AcDbLine
 62
7
  6
CONTINUOUS
 10
2.2648594486
 20
-0.7996099227
 11
2.383462469
 21
-0.6529853143
  0
LINE
  5
29A
100
AcDbEntity
  8
ASSI
100
AcDbLine
 62
7
  6
CONTINUOUS
 10
2.4062808048
 20
-0.7288992446
 11
2.5248838252
 21
-0.5822746362
  0
LWPOLYLINE
  5
29B
100
AcDbEntity
  8
ASSI
100
AcDbPolyline
 62
7
  6
CONTINUOUS
 90
55
 70
0
 10
2.3468520606
 20
-0.0412210867
 10
2.4025312102
 20
-0.0104112909
 10
2.4627308283
 20
0.0303307596
 10
2.5196612656
 20
0.0771281466
 10
2.5727433452
 20
0.1295047811
 10
2.621937783
 20
0.1875176162
 10
2.6672838631
 20
0.2511096987
 10
2.7083202612
 20
0.3196340801
 10
2.7450029838
 20
0.3931411096
 10
2.7773760243
 20
0.4715804379
 10
2.8051100385
 20
0.5541540694
 10
2.8281576709
 20
0.6409042073
 10
2.8465662769
 20
0.7317886484
 10
2.8601485781
 20
0.8258827877
 10
2.8688553075
 20
0.9232193899
 10
2.8727357322
 20
1.0237656904
 10
2.871750375
 20
1.12649879
 10
2.8658495657
 20
1.2314410118
 10
2.8550829746
 20
1.3385700327
 10
2.8395601345
 20
1.446795985
 10
2.8192324935
 20
1.5561300661
 10
2.7941486037
 20
1.6665610787
 10
2.7645636536
 20
1.7769655623
 10
2.7304316964
 20
1.8873432461
 10
2.6917986791
 20
1.9976944009
 10
2.6490576312
 20
2.106896379
 10
2.602166618
 20
2.2149374493
 10
2.5511675742
 20
2.3218293428
 10
2.4965793342
 20
2.426484604
 10
2.4383652595
 20
2.5288804013
 10
2.3765619886
 20
2.6290395664
 10
2.3117982718
 20
2.7259431387
 10
2.2440438887
 20
2.8195578849
 10
2.1733290596
 20
2.9099170383
 10
2.1003731958
 20
2.9961013379
 10
2.0251534206
 20
3.0780681665
 10
1.9476926107
 20
3.1558601414
 10
1.8687788068
 20
3.2286858524
 10
1.7883971768
 20
3.296494604
 10
1.7065625529
 20
3.3593370918
 10
1.6241074724
 20
3.4165739933
 10
1.5410256018
 20
3.4681480864
 10
1.4573232748
 20
3.5141165932
 10
1.3738520296
 20
3.554011857
 10
1.2906142251
 20
3.587771882
 10
1.2076075025
 20
3.615458664
 10
1.1256763235
 20
3.636790534
 10
1.0448316672
 20
3.6517026208
 10
0.9650625545
 20
3.6602597956
 10
0.8871805095
 20
3.6623750026
 10
0.8112047955
 20
3.6579824822
 10
0.7371161491
 20
3.647147994
 10
0.6656683049
 20
3.6299817618
 10
0.5968882202
 20
3.6064191511
 10
0.5366530632
 20
3.5795479648
  0
LWPOLYLINE
  5
29C
100
AcDbEntity
  8
ASSI
100
AcDbPolyline
 62
7
  6
CONTINUOUS
 90
57
 70
0
 10
2.4882725531
 20
0.0294891596
 10
2.5332832631
 20
0.0539175186
 10
2.5923744886
 20
0.0924121817
 10
2.6484144944
 20
0.1366424245
 10
2.7008650948
 20
0.1861834777
 10
2.7496917081
 20
0.2410865079
 10
2.794928916
 20
0.3013003486
 10
2.8361422789
 20
0.3662467303
 10
2.8732930292
 20
0.4359712485
 10
2.9064199344
 20
0.5104283079
 10
2.9352048571
 20
0.5889028528
 10
2.9596059648
 20
0.6714335897
 10
2.9796650901
 20
0.7579818123
 10
2.9951895933
 20
0.8477163466
 10
3.0061357857
 20
0.9406678908
 10
3.012547356
 20
1.0368057467
 10
3.01436273
 20
1.1352066452
 10
3.0115376259
 20
1.2358923896
 10
3.0041163256
 20
1.3388411766
 10
2.9921701001
 20
1.443064328
 10
2.9756553545
 20
1.5485741213
 10
2.9546156837
 20
1.655358279
 10
2.9292531442
 20
1.7623912892
 10
2.8995260877
 20
1.8696755494
 10
2.8654761625
 20
1.9772086622
 10
2.8274303704
 20
2.0839579231
 10
2.7853502133
 20
2.1899157802
 10
2.7392741893
 20
2.2950897854
 10
2.6896447937
 20
2.3984698902
 10
2.6364277919
 20
2.5000388114
 10
2.5796574185
 20
2.5998138322
 10
2.5198788732
 20
2.6968367539
 10
2.4570631741
 20
2.7910810614
 10
2.391239303
 20
2.8825732696
 10
2.3230394058
 20
2.9704347246
 10
2.2524405908
 20
3.0546304461
 10
2.1794657497
 20
3.1351954143
 10
2.1048157032
 20
3.2113559159
 10
2.0284743117
 20
3.2830695164
 10
1.9504577149
 20
3.3503786504
 10
1.8715151525
 20
3.4126369081
 10
1.7916377034
 20
3.4697956273
 10
1.7108342886
 20
3.5219034704
 10
1.6298809115
 20
3.5684600146
 10
1.5487761273
 20
3.6094117765
 10
1.4675213807
 20
3.6448122395
 10
1.3868970094
 20
3.6743214321
 10
1.3069090866
 20
3.6978825952
 10
1.2275515392
 20
3.7155524877
 10
1.1495864847
 20
3.7271614153
 10
1.0730273391
 20
3.732650984
 10
0.9978606864
 20
3.7320795877
 10
0.9248083968
 20
3.725452714
 10
0.8538908409
 20
3.7127120216
 10
0.7850876481
 20
3.6939158517
 10
0.7190595762
 20
3.6692447151
 10
0.6779236788
 20
3.6501832692
  0
LINE
  5
29D
100
AcDbEntity
  8
ASSI
100
AcDbLine
 62
7
  6
CONTINUOUS
 10
2.5248838252
 20
-0.5822746362
 11
2.383462469
 21
-0.6529853143
  0
LINE
  5
29E
100
AcDbEntity
  8
ASSI
100
AcDbLine
 62
7
  6
CONTINUOUS
 10
2.4062808048
 20
-0.7288992446
 11
2.2648594486
 21
-0.7996099227
  0
LWPOLYLINE
  5
29F
100
AcDbEntity
  8
0
100
AcDbPolyline
 62
7
  6
CONTINUOUS
 90
19
 70
0
 10
46.6803585352
 20
19.0473312811
 10
46.9797537177
 20
19.1953021807
 10
47.2778991163
 20
19.3287975003
 10
47.5747947312
 20
19.4478172398
 10
47.8708519179
 20
19.5524872509
 10
48.1656593209
 20
19.6426816819
 10
48.457982873
 20
19.718022978
 10
48.7478121624
 20
19.7784488769
 10
49.0351576009
 20
19.8240216408
 10
49.3188163574
 20
19.8545505018
 10
49.5987729779
 20
19.8699723977
 10
49.8750429164
 20
19.8703503906
 10
50.1464697038
 20
19.8556828982
 10
50.4130330385
 20
19.8259068519
 10
50.6747532221
 20
19.7810853204
 10
50.9305346912
 20
19.7214059269
 10
51.1803525514
 20
19.6468063894
 10
51.4242316971
 20
19.5573489901
 10
51.6807307379
 20
19.4440170166
  0
LWPOLYLINE
  5
2A0
100
AcDbEntity
  8
0
100
AcDbPolyline
 62
7
  6
CONTINUOUS
 90
30
 70
0
 10
46.320688635
 20
18.6544895227
 10
46.6135572373
 20
18.7989745105
 10
46.9051115821
 20
18.9287609725
 10
47.1953516695
 20
19.0438489087
 10
47.4847096609
 20
19.144367077
 10
47.7727533948
 20
19.2301867195
 10
48.0581863869
 20
19.3009215622
 10
48.3409968686
 20
19.3565036062
 10
48.6211966084
 20
19.3970008504
 10
48.8975244279
 20
19.4222310166
 10
49.1699628732
 20
19.4321252846
 10
49.4385293982
 20
19.4267524746
 10
49.7020151853
 20
19.4061367698
 10
49.9603973317
 20
19.3702094586
 10
50.2136987402
 20
19.3190392526
 10
50.4607793017
 20
19.2528564686
 10
50.7016109739
 20
19.1715934337
 10
50.936221799
 20
19.0753178208
 10
51.1635557941
 20
18.9644629664
 10
51.3835801569
 20
18.8389631507
 10
51.5963276896
 20
18.6988840935
 10
51.800840816
 20
18.5448562904
 10
51.9970824173
 20
18.3768168637
 10
52.1850896123
 20
18.1948286911
 10
52.3640161808
 20
17.9997109011
 10
52.5338211896
 20
17.7914043084
 10
52.694545572
 20
17.5699680983
 10
52.8454659078
 20
17.3363989548
 10
52.9865380026
 20
17.0906421854
 10
53.1222190779
 20
16.8235849102
  0
LWPOLYLINE
  5
2A1
100
AcDbEntity
  8
ASSI
100
AcDbPolyline
 62
7
  6
CONTINUOUS
 90
10
 70
0
 10
1.7228181122
 20
0.3077733328
 10
1.7919298464
 20
0.2855933798
 10
1.8603297094
 20
0.2687139289
 10
1.928024839
 20
0.2570818341
 10
1.9943319146
 20
0.2508145108
 10
2.0592368779
 20
0.2499662942
 10
2.1227537872
 20
0.254482849
 10
2.1842414973
 20
0.2643185849
 10
2.2436794563
 20
0.2795273751
 10
2.2715649468
 20
0.2894985459
  0
LWPOLYLINE
  5
2A2
100
AcDbEntity
  8
ASSI
100
AcDbPolyline
 62
7
  6
CONTINUOUS
 90
16
 70
0
 10
1.2574665595
 20
3.3161615538
 10
1.3308468595
 20
3.2906283467
 10
1.4046516061
 20
3.2592729621
 10
1.4788760354
 20
3.2221607475
 10
1.552680782
 20
3.1797113854
 10
1.626061082
 20
3.1318642925
 10
1.6990216993
 20
3.0786800522
 10
1.7707375604
 20
3.0207600973
 10
1.8411945357
 20
2.9580506714
 10
1.9104067547
 20
2.8906055309
 10
1.9775915327
 20
2.8191873777
 10
2.0427258554
 20
2.7437511131
 10
2.1058327371
 20
2.6643418358
 10
2.1661985349
 20
2.5818575439
 10
2.2237921339
 20
2.4962633321
 10
2.278644649
 20
2.4075941057
  0
LINE
  5
2A3
100
AcDbEntity
  8
ASSI
100
AcDbLine
 62
7
  6
CONTINUOUS
 10
1.1207854253
 20
0.656225932
 11
1.7656802448
 21
0.3337785223
  0
LINE
  5
2A4
100
AcDbEntity
  8
ASSI
100
AcDbLine
 62
7
  6
CONTINUOUS
 10
1.7656802448
 20
0.6121424698
 11
1.5643358315
 21
0.7128146764
  0
LINE
  5
2A5
100
AcDbEntity
  8
ASSI
100
AcDbLine
 62
7
  6
CONTINUOUS
 10
1.3222076204
 20
0.833878782
 11
1.1207854253
 21
0.9345898795
  0
LINE
  5
2A6
100
AcDbEntity
  8
ASSI
100
AcDbLine
 62
7
  6
CONTINUOUS
 10
1.907101601
 20
0.6828531479
 11
1.7057571877
 21
0.7835253545
  0
LINE
  5
2A7
100
AcDbEntity
  8
ASSI
100
AcDbLine
 62
7
  6
CONTINUOUS
 10
1.3222076204
 20
0.9753001382
 11
1.2622067816
 21
1.0053005576
  0
LINE
  5
2A8
100
AcDbEntity
  8
ASSI
100
AcDbLine
 62
7
  6
CONTINUOUS
 10
15.2811686467
 20
-5.4817984553
 11
16.3337225463
 21
-6.0080754051
  0
LINE
  5
2A9
100
AcDbEntity
  8
ASSI
100
AcDbLine
 62
7
  6
CONTINUOUS
 10
16.3337225463
 20
-5.3455659712
 11
15.2811683175
 21
-4.8192888569
  0
LINE
  5
2AA
100
AcDbEntity
  8
ASSI
100
AcDbLine
 62
7
  6
CONTINUOUS
 10
16.4751439025
 20
-5.2748552931
 11
15.4225896806
 21
-4.7485781821
  0
LINE
  5
2AB
100
AcDbEntity
  8
ASSI
100
AcDbLine
 62
7
  6
CONTINUOUS
 10
1.1282079252
 20
2.9085186532
 11
1.3222076204
 21
2.8115188056
  0
LINE
  5
2AC
100
AcDbEntity
  8
ASSI
100
AcDbLine
 62
7
  6
CONTINUOUS
 10
1.5643358315
 20
2.6904547
 11
1.7582577449
 21
2.5934937433
  0
LINE
  5
2AD
100
AcDbEntity
  8
ASSI
100
AcDbLine
 62
7
  6
CONTINUOUS
 10
1.7582577449
 20
2.8733888237
 11
1.1282079252
 21
3.1884137336
  0
LINE
  5
2AE
100
AcDbEntity
  8
ASSI
100
AcDbLine
 62
7
  6
CONTINUOUS
 10
1.8019904308
 20
2.992943837
 11
1.2696292815
 21
3.2591244117
  0
LWPOLYLINE
  5
2AF
100
AcDbEntity
  8
ASSI
100
AcDbPolyline
 62
7
  6
CONTINUOUS
 90
15
 70
0
 10
13.6290391083
 20
-2.1271837262
 10
13.5283647806
 20
-2.0679849112
 10
13.4280636995
 20
-2.0157926224
 10
13.3281358649
 20
-1.9706068598
 10
13.2282742963
 20
-1.9323311393
 10
13.1287859742
 20
-1.9010619449
 10
13.0305918401
 20
-1.8770887288
 10
12.9337039111
 20
-1.8604792371
 10
12.8381101701
 20
-1.8511657237
 10
12.7446955073
 20
-1.8492344017
 10
12.6534801565
 20
-1.8547538178
 10
12.5644438838
 20
-1.8676554252
 10
12.4784108786
 20
-1.8878197967
 10
12.3954090274
 20
-1.9153143701
 10
12.3084227036
 20
-1.9534882376
  0
LWPOLYLINE
  5
2B0
100
AcDbEntity
  8
ASSI
100
AcDbPolyline
 62
7
  6
CONTINUOUS
 90
15
 70
0
 10
16.6943470047
 20
-3.6598376744
 10
16.5936726771
 20
-3.6006388595
 10
16.4933715959
 20
-3.5484465706
 10
16.3934437613
 20
-3.503260808
 10
16.2935821927
 20
-3.4649850875
 10
16.1940938706
 20
-3.4337158931
 10
16.0958997365
 20
-3.409742677
 10
15.9990118075
 20
-3.3931331854
 10
15.9034180666
 20
-3.3838196719
 10
15.8100034038
 20
-3.3818883499
 10
15.7187880529
 20
-3.387407766
 10
15.6297517803
 20
-3.4003093735
 10
15.543718775
 20
-3.4204737449
 10
15.4607169238
 20
-3.4479683183
 10
15.3737306
 20
-3.4861421858
  0
LWPOLYLINE
  5
2B1
100
AcDbEntity
  8
ASSI
100
AcDbPolyline
 62
7
  6
CONTINUOUS
 90
16
 70
0
 10
13.7704604645
 20
-2.0564730481
 10
13.6746339502
 20
-1.9999592716
 10
13.5791058472
 20
-1.9497849967
 10
13.4838761557
 20
-1.9059502234
 10
13.3886791469
 20
-1.8683674663
 10
13.2937805496
 20
-1.8371242109
 10
13.1999775492
 20
-1.8124829126
 10
13.1072793752
 20
-1.7944991864
 10
13.0156767981
 20
-1.7831174174
 10
12.9259393158
 20
-1.7784332169
 10
12.8380826398
 20
-1.7805030053
 10
12.7520910586
 20
-1.7892703621
 10
12.6686869353
 20
-1.8046616383
 10
12.5878920666
 20
-1.8267326336
 10
12.5096846559
 20
-1.8554275483
 10
12.4498050015
 20
-1.8827970846
  0
LWPOLYLINE
  5
2B2
100
AcDbEntity
  8
ASSI
100
AcDbPolyline
 62
7
  6
CONTINUOUS
 90
16
 70
0
 10
16.8357683609
 20
-3.5891269963
 10
16.7399418466
 20
-3.5326132198
 10
16.6444137437
 20
-3.4824389449
 10
16.5491840521
 20
-3.4386041716
 10
16.4539870434
 20
-3.4010214146
 10
16.359088446
 20
-3.3697781591
 10
16.2652854457
 20
-3.3451368609
 10
16.1725872716
 20
-3.3271531346
 10
16.0809846946
 20
-3.3157713656
 10
15.9912472123
 20
-3.3110871652
 10
15.9033905363
 20
-3.3131569535
 10
15.817398955
 20
-3.3219243104
 10
15.7339948317
 20
-3.3373155866
 10
15.6531999631
 20
-3.3593865819
 10
15.5749925524
 20
-3.3880814965
 10
15.5151128979
 20
-3.4154510328
  0
LWPOLYLINE
  5
2B3
100
AcDbEntity
  8
ASSI
100
AcDbPolyline
 62
7
  6
CONTINUOUS
 90
10
 70
0
 10
1.527388905
 20
-0.0233651008
 10
1.6187361891
 20
-0.0846070191
 10
1.7080515442
 20
-0.1524372104
 10
1.7953349701
 20
-0.2268556747
 10
1.8810125991
 20
-0.3083109406
 10
1.9646582989
 20
-0.3963544795
 10
2.0449936734
 20
-0.4896407057
 10
2.1215925905
 20
-0.5877210907
 10
2.1948811822
 20
-0.6910441631
 10
2.2648594486
 20
-0.7996099227
  0
LWPOLYLINE
  5
2B4
100
AcDbEntity
  8
ASSI
100
AcDbPolyline
 62
7
  6
CONTINUOUS
 90
8
 70
0
 10
1.2519836206
 20
0.5906268344
 10
1.3060406445
 20
0.5458584614
 10
1.3744405076
 20
0.4943380492
 10
1.4435522417
 20
0.4474062681
 10
1.5133687093
 20
0.4050171095
 10
1.583185177
 20
0.3675984535
 10
1.6530016446
 20
0.3352006419
 10
1.7228181122
 20
0.3077733328
  0
LINE
  5
2B5
100
AcDbEntity
  8
ASSI
100
AcDbLine
 62
7
  6
CONTINUOUS
 10
1.1071334761
 20
0.7260179951
 11
1.1207854253
 21
0.7125444576
  0
LWPOLYLINE
  5
2B6
100
AcDbEntity
  8
ASSI
100
AcDbPolyline
 62
7
  6
CONTINUOUS
 90
3
 70
0
 10
0.9821288566
 20
0.8653749052
 10
1.0436165668
 20
0.7940514592
 10
1.1071334761
 20
0.7260179951
  0
LWPOLYLINE
  5
2B7
100
AcDbEntity
  8
ASSI
100
AcDbPolyline
 62
7
  6
CONTINUOUS
 90
25
 70
0
 10
1.0201719707
 20
1.0600088577
 10
0.9702063052
 20
1.1221878965
 10
0.9227925974
 20
1.1867006851
 10
0.8779308472
 20
1.2535472236
 10
0.8354411073
 20
1.3230511908
 10
0.7955033251
 20
1.3948889078
 10
0.758657343
 20
1.4680893382
 10
0.7249451422
 20
1.5426709853
 10
0.6943247414
 20
1.6186153457
 10
0.6672100393
 20
1.6948958731
 10
0.6436486371
 20
1.7715171321
 10
0.6235929335
 20
1.8484745582
 10
0.6073140232
 20
1.9247279112
 10
0.5948631885
 20
2.000267631
 10
0.5861891469
 20
2.0751032779
 10
0.5814091464
 20
2.148223292
 10
0.5805760613
 20
2.2196043779
 10
0.5836370171
 20
2.289269831
 10
0.5905506388
 20
2.3562779776
 10
0.6013692388
 20
2.4205927358
 10
0.6160405046
 20
2.4822501875
 10
0.6343661234
 20
2.5404169035
 10
0.6562799911
 20
2.5948150743
 10
0.6818482119
 20
2.6457225094
 10
0.7110707858
 20
2.6931392089
  0
LINE
  5
2B8
100
AcDbEntity
  8
ASSI
100
AcDbLine
 62
7
  6
CONTINUOUS
 10
0.9525487561
 20
0.902523865
 11
0.9821288566
 21
0.8653749052
  0
LINE
  5
2B9
100
AcDbEntity
  8
ASSI
100
AcDbLine
 62
7
  6
CONTINUOUS
 10
0.7110707858
 20
2.6931392089
 11
1.3222076204
 21
1.7568159112
  0
LINE
  5
2BA
100
AcDbEntity
  8
ASSI
100
AcDbLine
 62
7
  6
CONTINUOUS
 10
1.3222076204
 20
2.1017806763
 11
0.6828621749
 21
3.0813223215
  0
LINE
  5
2BB
100
AcDbEntity
  8
ASSI
100
AcDbLine
 62
7
  6
CONTINUOUS
 10
1.3222076204
 20
2.3891631223
 11
0.8242835312
 21
3.1520329996
  0
LWPOLYLINE
  5
2BC
100
AcDbEntity
  8
ASSI
100
AcDbPolyline
 62
7
  6
CONTINUOUS
 90
10
 70
0
 10
2.383462469
 20
-0.6529853143
 10
2.3439852276
 20
-0.587651595
 10
2.3031064961
 20
-0.5238794687
 10
2.2608262746
 20
-0.4616689355
 10
2.2170616427
 20
-0.4009113166
 10
2.1718955207
 20
-0.3417152908
 10
2.1255766699
 20
-0.2844068946
 10
2.0781880107
 20
-0.2290948068
 10
2.0296466228
 20
-0.1756703486
 10
1.979952506
 20
-0.1241335201
  0
LWPOLYLINE
  5
2BD
100
AcDbEntity
  8
ASSI
100
AcDbPolyline
 62
7
  6
CONTINUOUS
 90
10
 70
0
 10
2.5248838252
 20
-0.5822746362
 10
2.4854065838
 20
-0.5169409169
 10
2.4445278524
 20
-0.4531687906
 10
2.4022476309
 20
-0.3909582574
 10
2.3584830002
 20
-0.3302006394
 10
2.3133168796
 20
-0.2710046145
 10
2.2669980261
 20
-0.2136962164
 10
2.2196093591
 20
-0.1583841233
 10
2.1710679592
 20
-0.1049596571
 10
2.1693755763
 20
-0.1032045189
  0
LINE
  5
2BE
100
AcDbEntity
  8
ASSI
100
AcDbLine
 62
7
  6
CONTINUOUS
 10
2.278644649
 20
2.4075941057
 11
2.3301357817
 21
2.3168525788
  0
LWPOLYLINE
  5
2BF
100
AcDbEntity
  8
ASSI
100
AcDbPolyline
 62
7
  6
CONTINUOUS
 90
13
 70
0
 10
2.3301357817
 20
2.3168525788
 10
2.3782273761
 20
2.224015228
 10
2.422957588
 20
2.1291055766
 10
2.4638205869
 20
2.0331969085
 10
2.5007724751
 20
1.9362778834
 10
2.5338571501
 20
1.8383598414
 10
2.5627004748
 20
1.7405500867
 10
2.5872543044
 20
1.6428498484
 10
2.6075667837
 20
1.5452578974
 10
2.6234082093
 20
1.44887785
 10
2.6347020136
 20
1.3540775785
 10
2.6415247643
 20
1.2604892107
 10
2.6438764614
 20
1.1681127466
  0
LWPOLYLINE
  5
2C0
100
AcDbEntity
  8
ASSI
100
AcDbPolyline
 62
7
  6
CONTINUOUS
 90
23
 70
0
 10
2.1724569552
 20
1.9624462269
 10
2.201679537
 20
1.8858069314
 10
2.2272477643
 20
1.8093312561
 10
2.249161637
 20
1.7330192009
 10
2.2674872592
 20
1.6565268529
 10
2.2821585268
 20
1.5801981251
 10
2.2929771281
 20
1.5050647567
 10
2.2998907508
 20
1.4311429776
 10
2.3029517071
 20
1.3584165579
 10
2.3021186218
 20
1.2878685467
 10
2.2973386206
 20
1.2195285231
 10
2.2886645778
 20
1.153366908
 10
2.2762137412
 20
1.0902780136
 10
2.2599348285
 20
1.0303035621
 10
2.2398791219
 20
0.9734018313
 10
2.2163177163
 20
0.9203419666
 10
2.1892030102
 20
0.8711761341
 10
2.1585826049
 20
0.8258521677
 10
2.1248703991
 20
0.7849827154
 10
2.0880244116
 20
0.7486282618
 10
2.0480866235
 20
0.7167283223
 10
2.0055968773
 20
0.689714091
 10
1.9864107767
 20
0.6795520744
  0
LINE
  5
2C1
100
AcDbEntity
  8
ASSI
100
AcDbLine
 62
7
  6
CONTINUOUS
 10
1.8633557329
 20
0.638416841
 11
1.9679771309
 21
0.3578114533
  0
LWPOLYLINE
  5
2C2
100
AcDbEntity
  8
ASSI
100
AcDbPolyline
 62
7
  6
CONTINUOUS
 90
43
 70
0
 10
12.6132128672
 20
-2.6963364688
 10
12.569230131
 20
-2.744207389
 10
12.5284290581
 20
-2.7968569028
 10
12.4912069946
 20
-2.8537722765
 10
12.4575989087
 20
-2.914995189
 10
12.4275698322
 20
-2.9804839615
 10
12.401412207
 20
-3.0496008234
 10
12.3791638585
 20
-3.1223812225
 10
12.3607869613
 20
-3.198789711
 10
12.346460481
 20
-3.2780821756
 10
12.3362239916
 20
-3.3602867938
 10
12.3300379192
 20
-3.445375388
 10
12.3279625075
 20
-3.5325193125
 10
12.3300379192
 20
-3.6217386488
 10
12.3362239916
 20
-3.7130133154
 10
12.346460481
 20
-3.8054544229
 10
12.3607869613
 20
-3.8990733678
 10
12.3791638585
 20
-3.9938587536
 10
12.401412207
 20
-4.0888875012
 10
12.4275698322
 20
-4.1841619883
 10
12.4575989087
 20
-4.2796798372
 10
12.4912069946
 20
-4.3745108356
 10
12.5284290581
 20
-4.4686482729
 10
12.569230131
 20
-4.5620988597
 10
12.6132128672
 20
-4.653952516
 10
12.6604083525
 20
-4.7441936394
 10
12.7107855011
 20
-4.8328378323
 10
12.7638537088
 20
-4.9190218225
 10
12.8196392682
 20
-5.0027215729
 10
12.8781158868
 20
-5.0839611205
 10
12.938714083
 20
-5.1619493042
 10
13.0014545851
 20
-5.2366543569
 10
13.0663166647
 20
-5.3081080455
 10
13.1326686545
 20
-5.3756145097
 10
13.2005251114
 20
-5.4391351836
 10
13.2698714784
 20
-5.498708633
 10
13.3400324176
 20
-5.5537546945
 10
13.4110158875
 20
-5.6042291341
 10
13.4828139296
 20
-5.6501761859
 10
13.5547273297
 20
-5.6911483888
 10
13.6265230165
 20
-5.7269965893
 10
13.6984340615
 20
-5.7578699409
 10
13.7704604645
 20
-5.7837684437
  0
LWPOLYLINE
  5
2C3
100
AcDbEntity
  8
ASSI
100
AcDbPolyline
 62
7
  6
CONTINUOUS
 90
3
 70
0
 10
12.7107855011
 20
-2.6150237863
 10
12.6604083525
 20
-2.6532908308
 10
12.6132128672
 20
-2.6963364688
  0
LWPOLYLINE
  5
2C4
100
AcDbEntity
  8
ASSI
100
AcDbPolyline
 62
7
  6
CONTINUOUS
 90
12
 70
0
 10
15.7894704878
 20
-4.1392372481
 10
15.7500234261
 20
-4.1665684101
 10
15.7026820309
 20
-4.2059749928
 10
15.6582943819
 20
-4.250001707
 10
15.6168335071
 20
-4.2986063646
 10
15.5786803208
 20
-4.3513424193
 10
15.5438653054
 20
-4.4082479413
 10
15.5123579785
 20
-4.4692848605
 10
15.4844478059
 20
-4.5338924199
 10
15.4602312764
 20
-4.6018837004
 10
15.4396119013
 20
-4.6734456212
 10
15.4225896806
 20
-4.7485781821
  0
LWPOLYLINE
  5
2C5
100
AcDbEntity
  8
ASSI
100
AcDbPolyline
 62
7
  6
CONTINUOUS
 90
47
 70
0
 10
12.3084227036
 20
-1.9534882376
 10
12.2391556564
 20
-1.9917700679
 10
12.1666794287
 20
-2.0404739016
 10
12.0979469977
 20
-2.0961187584
 10
12.0335946043
 20
-2.158189546
 10
11.9736629191
 20
-2.2267459319
 10
11.9181112716
 20
-2.3017282486
 10
11.8674538911
 20
-2.3824424013
 10
11.8217362231
 20
-2.4689416126
 10
11.780912822
 20
-2.5611726599
 10
11.7453615812
 20
-2.6582817807
 10
11.715131455
 20
-2.76031427
 10
11.690173489
 20
-2.8672248328
 10
11.6707187137
 20
-2.9780238216
 10
11.6568182286
 20
-3.092747342
 10
11.6484209341
 20
-3.2113592884
 10
11.6456045621
 20
-3.3327616961
 10
11.6484209341
 20
-3.4569804757
 10
11.6568182286
 20
-3.5839897166
 10
11.6707187137
 20
-3.7126137222
 10
11.690173489
 20
-3.8428674863
 10
11.715131455
 20
-3.9747360151
 10
11.7453615812
 20
-4.1069986306
 10
11.780912822
 20
-4.2396589922
 10
11.8217362231
 20
-4.3727134405
 10
11.8674538911
 20
-4.5049303199
 10
11.9181112716
 20
-4.6363018531
 10
11.9736629191
 20
-4.7668358173
 10
12.0335946043
 20
-4.8953238884
 10
12.0979469977
 20
-5.0217470693
 10
12.1666794287
 20
-5.1461243571
 10
12.2391556564
 20
-5.2673044186
 10
12.3154104436
 20
-5.3852575661
 10
12.3954090274
 20
-5.5000134873
 10
12.4784108786
 20
-5.6105099119
 10
12.5644438838
 20
-5.7167072887
 10
12.6534801565
 20
-5.8186451688
 10
12.7446955073
 20
-5.9153799357
 10
12.8381101701
 20
-6.0068632764
 10
12.9337039111
 20
-6.093143504
 10
13.0305918401
 20
-6.1734219414
 10
13.1287859742
 20
-6.2476428593
 10
13.2282742963
 20
-6.3158619871
 10
13.3281358649
 20
-6.3774478352
 10
13.4280636995
 20
-6.4321899071
 10
13.5283647806
 20
-6.4802986994
 10
13.6290391083
 20
-6.5217742121
  0
LWPOLYLINE
  5
2C6
100
AcDbEntity
  8
ASSI
100
AcDbPolyline
 62
7
  6
CONTINUOUS
 90
47
 70
0
 10
15.3737306
 20
-3.4861421858
 10
15.3044635529
 20
-3.5244240161
 10
15.2319873252
 20
-3.5731278499
 10
15.1632548941
 20
-3.6287727066
 10
15.0989025008
 20
-3.6908434942
 10
15.0389708156
 20
-3.7593998801
 10
14.9834191681
 20
-3.8343821968
 10
14.9327617876
 20
-3.9150963495
 10
14.8870441195
 20
-4.0015955608
 10
14.8462207185
 20
-4.0938266081
 10
14.8106694777
 20
-4.1909357289
 10
14.7804393514
 20
-4.2929682182
 10
14.7554813855
 20
-4.399878781
 10
14.7360266101
 20
-4.5106777698
 10
14.722126125
 20
-4.6254012902
 10
14.7137288305
 20
-4.7440132366
 10
14.7109124586
 20
-4.8654156443
 10
14.7137288305
 20
-4.9896344239
 10
14.722126125
 20
-5.1166436648
 10
14.7360266101
 20
-5.2452676704
 10
14.7554813855
 20
-5.3755214345
 10
14.7804393514
 20
-5.5073899633
 10
14.8106694777
 20
-5.6396525788
 10
14.8462207185
 20
-5.7723129404
 10
14.8870441195
 20
-5.9053673888
 10
14.9327617876
 20
-6.0375842681
 10
14.9834191681
 20
-6.1689558013
 10
15.0389708156
 20
-6.2994897655
 10
15.0989025008
 20
-6.4279778366
 10
15.1632548941
 20
-6.5544010176
 10
15.2319873252
 20
-6.6787783053
 10
15.3044635529
 20
-6.7999583668
 10
15.38071834
 20
-6.9179115144
 10
15.4607169238
 20
-7.0326674356
 10
15.543718775
 20
-7.1431638602
 10
15.6297517803
 20
-7.2493612369
 10
15.7187880529
 20
-7.351299117
 10
15.8100034038
 20
-7.448033884
 10
15.9034180666
 20
-7.5395172247
 10
15.9990118075
 20
-7.6257974522
 10
16.0958997365
 20
-7.7060758896
 10
16.1940938706
 20
-7.7802968075
 10
16.2935821927
 20
-7.8485159353
 10
16.3934437613
 20
-7.9101017834
 10
16.4933715959
 20
-7.9648438553
 10
16.5936726771
 20
-8.0129526477
 10
16.6943470047
 20
-8.0544281603
  0
LINE
  5
2C7
100
AcDbEntity
  8
ASSI
100
AcDbLine
 62
7
  6
CONTINUOUS
 10
12.449753551
 20
-1.8828228079
 11
12.3083321948
 21
-1.953533486
  0
LINE
  5
2C8
100
AcDbEntity
  8
ASSI
100
AcDbLine
 62
7
  6
CONTINUOUS
 10
13.7704604645
 20
-2.0564730481
 11
13.6290391083
 21
-2.1271837262
  0
LINE
  5
2C9
100
AcDbEntity
  8
ASSI
100
AcDbLine
 62
7
  6
CONTINUOUS
 10
13.7704604645
 20
-2.7237681384
 11
13.6290391083
 21
-2.7944788165
  0
LINE
  5
2CA
100
AcDbEntity
  8
ASSI
100
AcDbLine
 62
7
  6
CONTINUOUS
 10
15.5150614475
 20
-3.4154767561
 11
15.3736400912
 21
-3.4861874342
  0
LINE
  5
2CB
100
AcDbEntity
  8
ASSI
100
AcDbLine
 62
7
  6
CONTINUOUS
 10
16.8357683609
 20
-3.5891269963
 11
16.6943470047
 21
-3.6598376744
  0
LINE
  5
2CC
100
AcDbEntity
  8
ASSI
100
AcDbLine
 62
7
  6
CONTINUOUS
 10
15.4225896806
 20
-4.7485781821
 11
15.2811686467
 21
-4.8192890214
  0
LINE
  5
2CD
100
AcDbEntity
  8
ASSI
100
AcDbLine
 62
7
  6
CONTINUOUS
 10
13.7704604645
 20
-5.7837684437
 11
13.6290391083
 21
-5.8544791218
  0
LINE
  5
2CE
100
AcDbEntity
  8
ASSI
100
AcDbLine
 62
7
  6
CONTINUOUS
 10
16.8357683609
 20
-4.2564220866
 11
16.6943470047
 21
-4.3271327647
  0
LINE
  5
2CF
100
AcDbEntity
  8
ASSI
100
AcDbLine
 62
7
  6
CONTINUOUS
 10
13.7704604645
 20
-6.451063534
 11
13.6290391083
 21
-6.5217742121
  0
LINE
  5
2D0
100
AcDbEntity
  8
ASSI
100
AcDbLine
 62
7
  6
CONTINUOUS
 10
16.4751439025
 20
-5.2748552931
 11
16.3337225463
 21
-5.3455659712
  0
LINE
  5
2D1
100
AcDbEntity
  8
ASSI
100
AcDbLine
 62
7
  6
CONTINUOUS
 10
16.4751439025
 20
-5.937364727
 11
16.3337225463
 21
-6.0080754051
  0
LWPOLYLINE
  5
2D2
100
AcDbEntity
  8
ASSI
100
AcDbPolyline
 62
7
  6
CONTINUOUS
 90
15
 70
0
 10
15.7157175418
 20
-4.1704445564
 10
15.7321467933
 20
-4.1625512564
 10
15.7953790907
 20
-4.1368341717
 10
15.8614362137
 20
-4.1175247016
 10
15.9302856148
 20
-4.104549018
 10
16.0011278739
 20
-4.0980577833
 10
16.0739862203
 20
-4.098126582
 10
16.1488374247
 20
-4.1046798296
 10
16.2248123792
 20
-4.1176414354
 10
16.3019241824
 20
-4.137086097
 10
16.3801597357
 20
-4.1629391168
 10
16.458610635
 20
-4.1949003118
 10
16.5369740789
 20
-4.2328696209
 10
16.6155528688
 20
-4.2769471052
 10
16.6943470047
 20
-4.3271327647
  0
LWPOLYLINE
  5
2D3
100
AcDbEntity
  8
ASSI
100
AcDbPolyline
 62
7
  6
CONTINUOUS
 90
15
 70
0
 10
12.6504919117
 20
-2.6377494751
 10
12.6965199678
 20
-2.6169084668
 10
12.7587119258
 20
-2.5949088484
 10
12.823420169
 20
-2.578887699
 10
12.890617755
 20
-2.5687810063
 10
12.9595800191
 20
-2.5646977619
 10
13.0303260603
 20
-2.5667031575
 10
13.1028367797
 20
-2.5747320014
 10
13.176330215
 20
-2.5886977097
 10
13.2508170022
 20
-2.6086645372
 10
13.3262865053
 20
-2.6345682291
 10
13.4019248545
 20
-2.6661294378
 10
13.4774607597
 20
-2.7032550473
 10
13.553165511
 20
-2.7460381735
 10
13.6290391083
 20
-2.7944788165
  0
LWPOLYLINE
  5
2D4
100
AcDbEntity
  8
0
100
AcDbPolyline
 62
7
  6
CONTINUOUS
 90
4
 70
0
 10
41.9579206137
 20
-1.2133450798
 10
41.6893418572
 20
-1.1590886492
 10
41.4273591453
 20
-1.0889141882
 10
41.2546432679
 20
-1.0306352407
  0
LWPOLYLINE
  5
2D5
100
AcDbEntity
  8
0
100
AcDbPolyline
 62
7
  6
CONTINUOUS
 90
19
 70
0
 10
51.6807307379
 20
-13.4649483272
 10
51.4242316971
 20
-13.3516163537
 10
51.1803525514
 20
-13.2621589544
 10
50.9305346912
 20
-13.1875594169
 10
50.6747532221
 20
-13.1278800234
 10
50.4130330385
 20
-13.0830584919
 10
50.1464697038
 20
-13.0532824456
 10
49.8750429164
 20
-13.0386149532
 10
49.5987729779
 20
-13.0389929461
 10
49.3188163574
 20
-13.0544148421
 10
49.0351576009
 20
-13.084943703
 10
48.7478121624
 20
-13.1305164669
 10
48.457982873
 20
-13.1909423658
 10
48.1656593209
 20
-13.2662836619
 10
47.8708519179
 20
-13.3564780929
 10
47.5747947312
 20
-13.461148104
 10
47.2778991163
 20
-13.5801678435
 10
46.9797537177
 20
-13.7136631631
 10
46.6803585352
 20
-13.8616340628
  0
LWPOLYLINE
  5
2D6
100
AcDbEntity
  8
0
100
AcDbPolyline
 62
7
  6
CONTINUOUS
 90
40
 70
0
 10
15.4778334273
 20
-15.8073053311
 10
15.4801702051
 20
-15.9046813882
 10
15.4869738143
 20
-16.0033262238
 10
15.4982442549
 20
-16.103239838
 10
15.5140497371
 20
-16.2047681116
 10
15.5343220507
 20
-16.3075651638
 10
15.5588565652
 20
-16.4105933523
 10
15.5876964489
 20
-16.513855018
 10
15.6207985335
 20
-16.61734782
 10
15.6578286837
 20
-16.720027093
 10
15.6988266836
 20
-16.8218845973
 10
15.7437527492
 20
-16.9229285727
 10
15.7921533927
 20
-17.0221390724
 10
15.8440638054
 20
-17.1194975267
 10
15.8994487961
 20
-17.2150225054
 10
15.957749304
 20
-17.307749771
 10
16.0189948578
 20
-17.3976509879
 10
16.0831559287
 20
-17.4847544917
 10
16.1495848694
 20
-17.5681810522
 10
16.2183046492
 20
-17.6478934287
 10
16.2892922987
 20
-17.7239288618
 10
16.3618312625
 20
-17.7955198433
 10
16.4359372525
 20
-17.8626213591
 10
16.5115945568
 20
-17.9252784234
 10
16.588039484
 20
-17.9828585702
 10
16.6652800112
 20
-18.0353103798
 10
16.7433081614
 20
-18.0826852719
 10
16.8213363115
 20
-18.1245050405
 10
16.8993644617
 20
-18.1607134221
 10
16.9773926118
 20
-18.1913666801
 10
17.0546331391
 20
-18.2161553977
 10
17.1310780663
 20
-18.2350201781
 10
17.2067353705
 20
-18.2480204181
 10
17.2808413606
 20
-18.2550248923
 10
17.3533803244
 20
-18.2559728746
 10
17.4243679739
 20
-18.250925091
 10
17.4930877537
 20
-18.2399324943
 10
17.5595166944
 20
-18.2229348745
 10
17.6236777653
 20
-18.1999924416
 10
17.670986629
 20
-18.1784961901
  0
LWPOLYLINE
  5
2D7
100
AcDbEntity
  8
0
100
AcDbPolyline
 62
7
  6
CONTINUOUS
 90
40
 70
0
 10
18.1648391958
 20
-17.1508082154
 10
18.162502418
 20
-17.0534321584
 10
18.1556988088
 20
-16.9547873228
 10
18.1444283681
 20
-16.8548737085
 10
18.128622886
 20
-16.7533454349
 10
18.1083505724
 20
-16.6505483827
 10
18.0838160579
 20
-16.5475201943
 10
18.0549761742
 20
-16.4442585285
 10
18.0218740896
 20
-16.3407657265
 10
17.9848439394
 20
-16.2380864536
 10
17.9438459394
 20
-16.1362289492
 10
17.8989198739
 20
-16.0351849738
 10
17.8505192303
 20
-15.9359744741
 10
17.7986088177
 20
-15.8386160198
 10
17.743223827
 20
-15.7430910412
 10
17.6849233191
 20
-15.6503637755
 10
17.6236777653
 20
-15.5604625587
 10
17.5595166944
 20
-15.4733590548
 10
17.4930877537
 20
-15.3899324943
 10
17.4243679739
 20
-15.3102201179
 10
17.3533803244
 20
-15.2341846848
 10
17.2808413606
 20
-15.1625937032
 10
17.2067353705
 20
-15.0954921874
 10
17.1310780663
 20
-15.0328351232
 10
17.0546331391
 20
-14.9752549763
 10
16.9773926118
 20
-14.9228031668
 10
16.8993644617
 20
-14.8754282746
 10
16.8213363115
 20
-14.8336085061
 10
16.7433081614
 20
-14.7974001244
 10
16.6652800112
 20
-14.7667468665
 10
16.588039484
 20
-14.7419581488
 10
16.5115945568
 20
-14.7230933684
 10
16.4359372525
 20
-14.7100931284
 10
16.3618312625
 20
-14.7030886542
 10
16.2892922987
 20
-14.7021406719
 10
16.2183046492
 20
-14.7071884555
 10
16.1495848694
 20
-14.7181810522
 10
16.0831559287
 20
-14.735178672
 10
16.0189948578
 20
-14.7581211049
 10
15.9716859941
 20
-14.7796173564
  0
LINE
  5
2D8
100
AcDbEntity
  8
ASSI
100
AcDbLine
 62
7
  6
CONTINUOUS
 10
13.6290391083
 20
-6.5217742121
 11
13.6290391083
 21
-5.8544791218
  0
LINE
  5
2D9
100
AcDbEntity
  8
ASSI
100
AcDbLine
 62
7
  6
CONTINUOUS
 10
13.6290391083
 20
-2.7944788165
 11
13.6290391083
 21
-2.1271837262
  0
LINE
  5
2DA
100
AcDbEntity
  8
ASSI
100
AcDbLine
 62
7
  6
CONTINUOUS
 10
13.7704604645
 20
-6.451063534
 11
13.7704604645
 21
-5.7837684437
  0
LINE
  5
2DB
100
AcDbEntity
  8
ASSI
100
AcDbLine
 62
7
  6
CONTINUOUS
 10
13.7704604645
 20
-2.7237681384
 11
13.7704604645
 21
-2.0564730481
  0
LINE
  5
2DC
100
AcDbEntity
  8
ASSI
100
AcDbLine
 62
7
  6
CONTINUOUS
 10
16.3337225463
 20
-6.0080754051
 11
16.3337225463
 21
-5.3455659712
  0
LINE
  5
2DD
100
AcDbEntity
  8
ASSI
100
AcDbLine
 62
7
  6
CONTINUOUS
 10
16.4751439025
 20
-5.937364727
 11
16.4751439025
 21
-5.2748552931
  0
LINE
  5
2DE
100
AcDbEntity
  8
ASSI
100
AcDbLine
 62
7
  6
CONTINUOUS
 10
16.6943470047
 20
-8.0544281603
 11
16.6943470047
 21
-7.3871326857
  0
LINE
  5
2DF
100
AcDbEntity
  8
ASSI
100
AcDbLine
 62
7
  6
CONTINUOUS
 10
16.6943470047
 20
-4.3271327647
 11
16.6943470047
 21
-3.6598376744
  0
LINE
  5
2E0
100
AcDbEntity
  8
ASSI
100
AcDbLine
 62
7
  6
CONTINUOUS
 10
16.8357683609
 20
-7.9837174822
 11
16.8357683609
 21
-7.3164220023
  0
LINE
  5
2E1
100
AcDbEntity
  8
ASSI
100
AcDbLine
 62
7
  6
CONTINUOUS
 10
16.8357683609
 20
-4.2564220866
 11
16.8357683609
 21
-3.5891269963
  0
LWPOLYLINE
  5
2E2
100
AcDbEntity
  8
0
100
AcDbPolyline
 62
7
  6
CONTINUOUS
 90
65
 70
0
 10
17.5205743339
 20
34.5152862151
 10
17.5202978302
 20
34.4758389562
 10
17.5283980235
 20
34.2654637518
 10
17.5525657899
 20
34.0549162024
 10
17.5926999631
 20
33.8450776623
 10
17.648867472
 20
33.6359511036
 10
17.7210013876
 20
33.4275335542
 10
17.8087997565
 20
33.2206974522
 10
17.9123282421
 20
33.0154494269
 10
18.0315211809
 20
32.811782849
 10
18.1658796302
 20
32.6105502692
 10
18.3154671616
 20
32.4117618903
 10
18.4802202034
 20
32.2154075094
 10
18.6594490975
 20
32.0223090681
 10
18.8532145247
 20
31.8324802149
 10
19.0614558043
 20
31.6459073012
 10
19.283301236
 20
31.4633713234
 10
19.5188078464
 20
31.2848892038
 10
19.767918609
 20
31.11044402
 10
20.0295907431
 20
30.9407660016
 10
20.3038769045
 20
30.7758751317
 10
20.5907244375
 20
30.6157514273
 10
20.8889325953
 20
30.4610651677
 10
21.198549
 20
30.311839146
 10
21.5195260294
 20
30.1680505693
 10
21.8505200701
 20
30.0303013381
 10
22.1915731122
 20
29.8986167684
 10
22.5426431656
 20
29.7729715442
 10
22.9022606472
 20
29.6538916178
 10
23.2704613867
 20
29.54140451
 10
23.6472095545
 20
29.4354827
 10
24.0309280785
 20
29.3365695776
 10
24.4216461776
 20
29.2446945223
 10
24.8193346329
 20
29.1598281546
 10
25.2223287163
 20
29.0823257261
 10
25.6306506681
 20
29.0122181054
 10
26.0442782479
 20
28.9494744239
 10
26.4614800061
 20
28.8943573274
 10
26.8822709252
 20
28.8468987853
 10
27.3066360228
 20
28.8070668282
 10
27.7327989017
 20
28.775028193
 10
28.1607670982
 20
28.7508155483
 10
28.590533076
 20
28.7343962255
 10
29.0202978302
 20
28.7258389562
 10
29.4500613556
 20
28.7251766969
 10
29.8798236574
 20
28.7323764909
 10
30.3077857457
 20
28.7474082
 10
30.7339400743
 20
28.7703046544
 10
31.1582941896
 20
28.8010330237
 10
31.5790717404
 20
28.8394646788
 10
31.9962577344
 20
28.8856319106
 10
32.409867164
 20
28.9395024282
 10
32.8181686556
 20
29.0008507289
 10
33.2211399589
 20
29.0697081585
 10
33.6188033243
 20
29.1460433712
 10
34.0094941284
 20
29.229536827
 10
34.3931831432
 20
29.3202185323
 10
34.7698995968
 20
29.4180584806
 10
35.1380665498
 20
29.5226471129
 10
35.4976481641
 20
29.6340127187
 10
35.8486802779
 20
29.7521270085
 10
36.1896934669
 20
29.8764955546
 10
36.5201979231
 20
30.0069535476
 10
36.8406834545
 20
30.143665797
 10
37.151150061
 20
30.2866323026
  0
LWPOLYLINE
  5
2E3
100
AcDbEntity
  8
ASSI
100
AcDbPolyline
 62
7
  6
CONTINUOUS
 90
12
 70
0
 10
15.2811683175
 20
-4.8192888569
 10
15.3006281223
 20
-4.7348850833
 10
15.3245987195
 20
-4.6550935525
 10
15.3530801091
 20
-4.5799142645
 10
15.3862180051
 20
-4.50909096
 10
15.4238666935
 20
-4.4428798982
 10
15.4655890324
 20
-4.3820498574
 10
15.5114325062
 20
-4.3266635572
 10
15.5613496305
 20
-4.276658278
 10
15.6147608106
 20
-4.232614638
 10
15.6717067741
 20
-4.1946021276
 10
15.7157175418
 20
-4.1704445564
  0
LWPOLYLINE
  5
2E4
100
AcDbEntity
  8
0
100
AcDbPolyline
 62
7
  6
CONTINUOUS
 90
66
 70
0
 10
15.0772063591
 20
-12.9907891933
 10
15.0266979875
 20
-13.0173256561
 10
14.9258171519
 20
-13.0781337922
 10
14.8295627851
 20
-13.1472427766
 10
14.7379014984
 20
-13.2245926997
 10
14.6514980243
 20
-13.3096226475
 10
14.5703905847
 20
-13.4023884518
 10
14.4945409578
 20
-13.5028342807
 10
14.4244992112
 20
-13.6102317241
 10
14.3603075658
 20
-13.7246313188
 10
14.3019238007
 20
-13.845982528
 10
14.2497713209
 20
-13.9734053307
 10
14.2038954258
 20
-14.1069438659
 10
14.164250816
 20
-14.2465539947
 10
14.131124999
 20
-14.3912232795
 10
14.1045653639
 20
-14.5409884996
 10
14.0845245216
 20
-14.6958128757
 10
14.0711478112
 20
-14.8545736327
 10
14.0644836792
 20
-15.0172993887
 10
14.0644836792
 20
-15.1839615255
 10
14.0711478112
 20
-15.3533514134
 10
14.0845245216
 20
-15.5254888808
 10
14.1045653639
 20
-15.7003540993
 10
14.131124999
 20
-15.8766789545
 10
14.164250816
 20
-16.0544740564
 10
14.2038954258
 20
-16.2337287949
 10
14.2497713209
 20
-16.4131432252
 10
14.3019238007
 20
-16.5927185077
 10
14.3603075658
 20
-16.772453482
 10
14.4244992112
 20
-16.9510447221
 10
14.4945409578
 20
-17.1284839121
 10
14.5703905847
 20
-17.3047793679
 10
14.6514980243
 20
-17.4786526119
 10
14.7379014984
 20
-17.6500860336
 10
14.8295627851
 20
-17.8190972435
 10
14.9258171519
 20
-17.9844605946
 10
15.0266979875
 20
-18.1461495665
 10
15.1321719032
 20
-18.3041906796
 10
15.2414739993
 20
-18.4574378487
 10
15.3546321039
 20
-18.6058562217
 10
15.4716183889
 20
-18.7494806507
 10
15.5915844711
 20
-18.8872696073
 10
15.7145520104
 20
-19.0191806678
 10
15.8404993469
 20
-19.145256256
 10
15.9685131169
 20
-19.2645821147
 10
16.0986083404
 20
-19.377109174
 10
16.2307699974
 20
-19.4828865038
 10
16.3640396649
 20
-19.5811470566
 10
16.498425395
 20
-19.6718361866
 10
16.6339191356
 20
-19.7550085396
 10
16.7695383073
 20
-19.8300610049
 10
16.9052838188
 20
-19.8969345529
 10
17.0411547615
 20
-19.9556882132
 10
17.1761658293
 20
-20.0058959633
 10
17.310310768
 20
-20.0474956776
 10
17.4435958319
 20
-20.0805494817
 10
17.5750544772
 20
-20.1048177306
 10
17.7046734233
 20
-20.1202365572
 10
17.8324659508
 20
-20.1268698286
 10
17.9575053576
 20
-20.1246695006
 10
18.0797716265
 20
-20.1135713579
 10
18.1992847746
 20
-20.0936396158
 10
18.3151781512
 20
-20.0650188758
 10
18.4274254393
 20
-20.027645975
 10
18.5360529559
 20
-19.9815840764
 10
18.5653602391
 20
-19.9673773599
  0
LINE
  5
2E5
100
AcDbEntity
  8
ASSI
100
AcDbLine
 62
7
  6
CONTINUOUS
 10
16.8357683609
 20
-7.3164220023
 11
16.6943470047
 21
-7.38713307
  0
LINE
  5
2E6
100
AcDbEntity
  8
ASSI
100
AcDbLine
 62
7
  6
CONTINUOUS
 10
16.8357683609
 20
-7.9837174822
 11
16.6943470047
 21
-8.0544281603
  0
LINE
  5
2E7
100
AcDbEntity
  8
ASSI
100
AcDbLine
 62
7
  6
CONTINUOUS
 10
20.8872003034
 20
-10.0857922212
 11
15.0772032891
 21
-12.9907907284
  0
LWPOLYLINE
  5
2E8
100
AcDbEntity
  8
0
100
AcDbPolyline
 62
7
  6
CONTINUOUS
 90
67
 70
0
 10
41.6799863325
 20
-1.2679387415
 10
41.4696350417
 20
-1.1588450273
 10
41.2466638558
 20
-1.0258767389
 10
41.0315856251
 20
-0.878981665
 10
40.8244334357
 20
-0.7181014265
 10
40.6251742016
 20
-0.5432944025
 10
40.434642024
 20
-0.355292337
 10
40.2528734855
 20
-0.1540399185
 10
40.0798320036
 20
0.0604075415
 10
39.9162419319
 20
0.2871523634
 10
39.7621428892
 20
0.5262460961
 10
39.6174952566
 20
0.7776371907
 10
39.4829045307
 20
1.0402733214
 10
39.3584128686
 20
1.3142016258
 10
39.2439781132
 20
1.5993749663
 10
39.1400792896
 20
1.894599604
 10
39.0467605631
 20
2.1999176727
 10
38.9639777683
 20
2.5152870388
 10
38.8920774351
 20
2.8393875625
 10
38.8311051812
 20
3.1722558437
 10
38.7810153887
 20
3.5138552825
 10
38.7420177343
 20
3.86275594
 10
38.7141587144
 20
4.2189884219
 10
38.6973918325
 20
4.5825221225
 10
38.6917872749
 20
4.9518352856
 10
38.6973918325
 20
5.326952138
 10
38.7141587144
 20
5.707848453
 10
38.7420177343
 20
6.0929297945
 10
38.7810153887
 20
6.4822137054
 10
38.8311051812
 20
6.8756826427
 10
38.8920774351
 20
7.2716895411
 10
38.9639777683
 20
7.6702450394
 10
39.0467605631
 20
8.0713384989
 10
39.1400792896
 20
8.4732909378
 10
39.2439781132
 20
8.8761059569
 10
39.3584128686
 20
9.2797799556
 10
39.4829045307
 20
9.6826231498
 10
39.6174952566
 20
10.0846320572
 10
39.7621428892
 20
10.4858101602
 10
39.9162419319
 20
10.8844781229
 10
40.0798320036
 20
11.2806254232
 10
40.2528734855
 20
11.6742625832
 10
40.434642024
 20
12.0637418334
 10
40.6251742016
 20
12.4490457445
 10
40.8244334357
 20
12.8301917458
 10
41.0315856251
 20
13.205584356
 10
41.2466638558
 20
13.5751994576
 10
41.4696350417
 20
13.9390611681
 10
41.699565823
 20
14.2956463583
 10
41.9364853733
 20
14.6449245262
 10
42.180364519
 20
14.9869261737
 10
42.4301823792
 20
15.3202196784
 10
42.6859638483
 20
15.6447685368
 10
42.9476840319
 20
15.9606092523
 10
43.2142473666
 20
16.2664197122
 10
43.4856741541
 20
16.5621578709
 10
43.7619440925
 20
16.8478657741
 10
44.041900713
 20
17.1223474452
 10
44.3255594695
 20
17.3855558254
 10
44.612904908
 20
17.6375379736
 10
44.9027341974
 20
17.8772390897
 10
45.1950577495
 20
18.1046076932
 10
45.4898651525
 20
18.3196952647
 10
45.7859223392
 20
18.5216014451
 10
46.0828179541
 20
18.7100261148
 10
46.3809633528
 20
18.8852693935
 10
46.6803585352
 20
19.0473312811
  0
LWPOLYLINE
  5
2E9
100
AcDbEntity
  8
ASSI
100
AcDbPolyline
 62
7
  6
CONTINUOUS
 90
27
 70
0
 10
15.4541635461
 20
-5.568295905
 10
15.4602315778
 20
-5.5954237387
 10
15.484448098
 20
-5.6876315057
 10
15.5123582625
 20
-5.7801492079
 10
15.5438655822
 20
-5.8726934343
 10
15.5786805894
 20
-5.9644139522
 10
15.6168337662
 20
-6.0553031706
 10
15.6582946306
 20
-6.1453686804
 10
15.7026822686
 20
-6.2337830216
 10
15.750023652
 20
-6.3205309779
 10
15.800291809
 20
-6.4056277656
 10
15.8530249103
 20
-6.4882915739
 10
15.9082456717
 20
-6.5684999816
 10
15.9659313774
 20
-6.6462754099
 10
16.0255520508
 20
-6.7209033115
 10
16.0871255236
 20
-6.7923546805
 10
16.1506339641
 20
-6.8606585229
 10
16.2154939004
 20
-6.9251873099
 10
16.2817177872
 20
-6.9859062524
 10
16.3492931698
 20
-7.0428501395
 10
16.417599212
 20
-7.0954958099
 10
16.4866426455
 20
-7.1438036528
 10
16.5564167386
 20
-7.1878132789
 10
16.6262804599
 20
-7.2271203599
 10
16.6960201321
 20
-7.2615901193
 10
16.7658494324
 20
-7.2913573334
 10
16.8357683609
 20
-7.3164220023
  0
LWPOLYLINE
  5
2EA
100
AcDbEntity
  8
0
100
AcDbPolyline
 62
7
  6
CONTINUOUS
 90
42
 70
0
 10
19.4868568986
 20
-16.945791663
 10
19.4485933138
 20
-16.7663099107
 10
19.4041938259
 20
-16.5870004758
 10
19.3536584348
 20
-16.4078633584
 10
19.2968349744
 20
-16.228465335
 10
19.2338756109
 20
-16.0492396289
 10
19.165236843
 20
-15.8714859103
 10
19.090877383
 20
-15.6952148729
 10
19.0108385186
 20
-15.520415823
 10
18.925700612
 20
-15.3483563485
 10
18.8354265936
 20
-15.1790563586
 10
18.7400535331
 20
-15.0124959441
 10
18.6402730015
 20
-14.849882966
 10
18.5360529559
 20
-14.6912461145
 10
18.4274254393
 20
-14.5365566993
 10
18.3151781512
 20
-14.3869365104
 10
18.1992847746
 20
-14.2424223938
 10
18.0797716265
 20
-14.1029775036
 10
17.9575053576
 20
-13.969613092
 10
17.8324659508
 20
-13.8423733572
 10
17.7046734233
 20
-13.7212141011
 10
17.5750544772
 20
-13.6070139816
 10
17.4435958319
 20
-13.4998235852
 10
17.310310768
 20
-13.3995923255
 10
17.1761658293
 20
-13.307047101
 10
17.0411547615
 20
-13.2222437834
 10
16.9052838188
 20
-13.1451265009
 10
16.7695383073
 20
-13.0762545374
 10
16.6339191356
 20
-13.015687831
 10
16.498425395
 20
-12.9633664434
 10
16.3640396649
 20
-12.9196698434
 10
16.2307699974
 20
-12.8846607286
 10
16.0986083404
 20
-12.8582764014
 10
15.9685131169
 20
-12.8407082373
 10
15.8404993469
 20
-12.8320203259
 10
15.7145520104
 20
-12.8321485776
 10
15.5915844711
 20
-12.8410920987
 10
15.4716183889
 20
-12.8589149732
 10
15.3546321039
 20
-12.8855531172
 10
15.2414739993
 20
-12.9208133856
 10
15.1321719032
 20
-12.9647584586
 10
15.0772063591
 20
-12.9907891933
  0
LINE
  5
2EB
100
AcDbEntity
  8
RACCORDO
100
AcDbLine
 62
7
  6
CONTINUOUS
 10
20.8872003034
 20
-48.6642890287
 11
20.8872003034
 21
10.226097928
  0
LINE
  5
2EC
100
AcDbEntity
  8
RACCORDO
100
AcDbLine
 62
7
  6
CONTINUOUS
 10
22.3631268396
 20
-51.6428325046
 11
22.3631268396
 21
11.7287148676
  0
LWPOLYLINE
  5
2ED
100
AcDbEntity
  8
0
100
AcDbPolyline
 62
7
  6
CONTINUOUS
 90
3
 70
0
 10
46.4368219772
 20
-0.1035832313
 10
46.1276831381
 20
-0.2860916077
 10
45.8171507748
 20
-0.4544579837
  0
LWPOLYLINE
  5
2EE
100
AcDbEntity
  8
0
100
AcDbPolyline
 62
7
  6
CONTINUOUS
 90
17
 70
0
 10
15.9716859941
 20
-14.7796173564
 10
15.957749304
 20
-14.786776768
 10
15.8994487961
 20
-14.8212035257
 10
15.8440638054
 20
-14.8613435137
 10
15.7921533927
 20
-14.9067915553
 10
15.7437527492
 20
-14.9576014115
 10
15.6988266836
 20
-15.0137193213
 10
15.6578286837
 20
-15.0745788258
 10
15.6207985335
 20
-15.1402279485
 10
15.5876964489
 20
-15.2106186659
 10
15.5588565652
 20
-15.2850404479
 10
15.5343220507
 20
-15.3635341219
 10
15.5140497371
 20
-15.4460588605
 10
15.4982442549
 20
-15.5317816519
 10
15.4869738143
 20
-15.6204248255
 10
15.4801702051
 20
-15.7122660519
 10
15.4778334273
 20
-15.8073053311
  0
LWPOLYLINE
  5
2EF
100
AcDbEntity
  8
0
100
AcDbPolyline
 62
7
  6
CONTINUOUS
 90
17
 70
0
 10
17.670986629
 20
-18.1784961901
 10
17.6849233191
 20
-18.1713367786
 10
17.743223827
 20
-18.1369100208
 10
17.7986088177
 20
-18.0967700328
 10
17.8505192303
 20
-18.0513219912
 10
17.8989198739
 20
-18.000512135
 10
17.9438459394
 20
-17.9443942252
 10
17.9848439394
 20
-17.8835347208
 10
18.0218740896
 20
-17.817885598
 10
18.0549761742
 20
-17.7474948806
 10
18.0838160579
 20
-17.6730730986
 10
18.1083505724
 20
-17.5945794246
 10
18.128622886
 20
-17.512054686
 10
18.1444283681
 20
-17.4263318946
 10
18.1556988088
 20
-17.337688721
 10
18.162502418
 20
-17.2458474946
 10
18.1648391958
 20
-17.1508082154
  0
LINE
  5
2F0
100
AcDbEntity
  8
0
100
AcDbLine
 62
7
  6
CONTINUOUS
 10
20.8872003034
 20
-16.2456199606
 11
19.4868568986
 21
-16.945791663
  0
LWPOLYLINE
  5
2F1
100
AcDbEntity
  8
0
100
AcDbPolyline
 62
7
  6
CONTINUOUS
 90
19
 70
0
 10
46.6803585352
 20
-0.871253006
 10
46.3809633528
 20
-1.0192239056
 10
46.0828179541
 20
-1.1527192252
 10
45.7859223392
 20
-1.2717389647
 10
45.4898651525
 20
-1.3764089758
 10
45.1950577495
 20
-1.4666034068
 10
44.9027341974
 20
-1.5419447029
 10
44.612904908
 20
-1.6023706018
 10
44.3255594695
 20
-1.6479433658
 10
44.041900713
 20
-1.6784722267
 10
43.7619440925
 20
-1.6938941226
 10
43.4856741541
 20
-1.6942721156
 10
43.2142473666
 20
-1.6796046232
 10
42.9476840319
 20
-1.6498285769
 10
42.6859638483
 20
-1.6050070453
 10
42.4301823792
 20
-1.5453276518
 10
42.180364519
 20
-1.4707281144
 10
41.9364853733
 20
-1.381270715
 10
41.6799863325
 20
-1.2679387415
  0
LWPOLYLINE
  5
2F2
100
AcDbEntity
  8
0
100
AcDbPolyline
 62
7
  6
CONTINUOUS
 90
7
 70
0
 10
46.320688635
 20
-0.1310820624
 10
46.0278200328
 20
-0.2755670502
 10
45.7362656879
 20
-0.4053535122
 10
45.4460256006
 20
-0.5204414484
 10
45.1566676092
 20
-0.6209596167
 10
44.8686238752
 20
-0.7067792593
 10
44.6288265248
 20
-0.7671828376
  0
LWPOLYLINE
  5
2F3
100
AcDbEntity
  8
0
100
AcDbPolyline
 62
7
  6
CONTINUOUS
 90
14
 70
0
 10
45.8171507748
 20
-0.4544579837
 10
45.5066184115
 20
-0.6076572832
 10
45.1974795724
 20
-0.7452715459
 10
44.8897342575
 20
-0.8673007717
 10
44.5829242403
 20
-0.9738814844
 10
44.2775077473
 20
-1.0648771603
 10
43.9748594576
 20
-1.1398782279
 10
43.6749918496
 20
-1.1988125874
 10
43.3778924449
 20
-1.2417523387
 10
43.0848984874
 20
-1.26850421
 10
42.7960284835
 20
-1.2789952301
 10
42.5112639268
 20
-1.2732983703
 10
42.2318865422
 20
-1.2514392721
 10
41.9579206137
 20
-1.2133450798
  0
LINE
  5
2F4
100
AcDbEntity
  8
RACCORDO
100
AcDbLine
 62
7
  6
CONTINUOUS
 10
19.1197025899
 20
13.2745805445
 11
-45.9346597582
 21
45.8017617186
  0
LINE
  5
2F5
100
AcDbEntity
  8
RACCORDO
100
AcDbLine
 62
7
  6
CONTINUOUS
 10
20.9491286688
 20
14.1675009609
 11
-47.7640858372
 21
48.5241082139
  0
LINE
  5
2F6
100
AcDbEntity
  8
RACCORDO
100
AcDbLine
 62
7
  6
CONTINUOUS
 10
23.0334212281
 20
15.2013254359
 11
-45.6057377093
 21
49.5209049045
  0
LWPOLYLINE
  5
2F7
100
AcDbEntity
  8
0
100
AcDbPolyline
 62
7
  6
CONTINUOUS
 90
3
 70
0
 10
51.6278269434
 20
-13.5610845733
 10
51.4109790328
 20
-13.3977669034
 10
51.2360524976
 20
-13.2825902722
  0
LWPOLYLINE
  5
2F8
100
AcDbEntity
  8
RACCORDO
100
AcDbPolyline
 62
7
  6
CONTINUOUS
 90
31
 70
0
 10
27.6047147246
 20
15.4120895488
 10
27.6022369413
 20
15.5271519228
 10
27.5949822264
 20
15.6436761309
 10
27.58295058
 20
15.761662173
 10
27.5660829457
 20
15.881440849
 10
27.5444383799
 20
16.002681359
 10
27.5181940516
 20
16.1243913037
 10
27.4873122068
 20
16.2465745359
 10
27.4518305995
 20
16.3692272028
 10
27.41203966
 20
16.4913453458
 10
27.3679040183
 20
16.6129245776
 10
27.3194590444
 20
16.7339692856
 10
27.2671012787
 20
16.8534886729
 10
27.210798606
 20
16.9714702202
 10
27.1505831415
 20
17.0879264468
 10
27.0869477717
 20
17.2019041145
 10
27.0198644266
 20
17.3133828799
 10
26.9493611762
 20
17.4223830864
 10
26.8760151161
 20
17.5280125261
 10
26.7998029133
 20
17.6302435325
 10
26.7207479009
 20
17.7291037721
 10
26.6394971741
 20
17.8237840363
 10
26.5560327109
 20
17.914250017
 10
26.4703725333
 20
18.0005360224
 10
26.3832178022
 20
18.0819357689
 10
26.2945562508
 20
18.1584091512
 10
26.2044001458
 20
18.2299962746
 10
26.1134874493
 20
18.2961111714
 10
26.0220641484
 20
18.3565585191
 10
25.9298842558
 20
18.4115336402
 10
25.8369477717
 20
18.4610365348
  0
LINE
  5
2F9
100
AcDbEntity
  8
RACCORDO
100
AcDbLine
 62
7
  6
CONTINUOUS
 10
24.4474193988
 20
-50.5183088517
 11
24.4474193988
 21
12.7625393426
  0
LINE
  5
2FA
100
AcDbEntity
  8
0
100
AcDbLine
 62
7
  6
CONTINUOUS
 10
25.8369477717
 20
16.2959730253
 11
25.8369477717
 21
-62.5123387191
  0
LINE
  5
2FB
100
AcDbEntity
  8
RACCORDO
100
AcDbLine
 62
7
  6
CONTINUOUS
 10
27.6047147246
 20
-63.3962221956
 11
27.6047147246
 21
15.4120895488
  0
LWPOLYLINE
  5
2FC
100
AcDbEntity
  8
0
100
AcDbPolyline
 62
7
  6
CONTINUOUS
 90
20
 70
0
 10
41.3663592318
 20
13.7705276748
 10
41.477821476
 20
13.9495272175
 10
41.7051554711
 20
14.2957933152
 10
41.9397662962
 20
14.6350155494
 10
42.1805979684
 20
14.9656670815
 10
42.4276785298
 20
15.2877092767
 10
42.6809799384
 20
15.6011807699
 10
42.9393620848
 20
15.9046706262
 10
43.2028478719
 20
16.1981338508
 10
43.4714143968
 20
16.4816154386
 10
43.7438528422
 20
16.7538394395
 10
44.0201806616
 20
17.0147551068
 10
44.3003804015
 20
17.2644131872
 10
44.5831908831
 20
17.50168997
 10
44.8686238752
 20
17.7265296432
 10
45.1566676092
 20
17.9389880189
 10
45.4460256006
 20
18.1381088221
 10
45.7362656879
 20
18.3235732947
 10
46.0278200328
 20
18.4957001949
 10
46.320688635
 20
18.6544895227
  0
LWPOLYLINE
  5
2FD
100
AcDbEntity
  8
0
100
AcDbPolyline
 62
7
  6
CONTINUOUS
 90
3
 70
0
 10
46.8671548648
 20
0.177425403
 10
46.7445672921
 20
0.0930671455
 10
46.4368219772
 20
-0.1035832313
  0
LWPOLYLINE
  5
2FE
100
AcDbEntity
  8
0
100
AcDbPolyline
 62
7
  6
CONTINUOUS
 90
14
 70
0
 10
18.5653602391
 20
-19.9673773599
 10
18.6402730015
 20
-19.9271672705
 10
18.7400535331
 20
-19.864334824
 10
18.8354265936
 20
-19.7931474701
 10
18.925700612
 20
-19.7141214985
 10
19.0108385186
 20
-19.6271999306
 10
19.090877383
 20
-19.532439745
 10
19.165236843
 20
-19.4305281678
 10
19.2338756109
 20
-19.321413217
 10
19.2968349744
 20
-19.2051468745
 10
19.3536584348
 20
-19.0825723114
 10
19.4041938259
 20
-18.953970585
 10
19.4485933138
 20
-18.819060638
 10
19.4868568986
 20
-18.6778424706
  0
LINE
  5
2FF
100
AcDbEntity
  8
ASSI
100
AcDbLine
 62
7
  6
CONTINUOUS
 10
20.3156434639
 20
-19.0922357532
 11
18.565469334
 21
-19.9673228182
  0
LINE
  5
300
100
AcDbEntity
  8
0
100
AcDbLine
 62
7
  6
CONTINUOUS
 10
-55.4803320648
 20
56.9546129435
 11
25.8369477717
 21
16.2959730253
  0
LINE
  5
301
100
AcDbEntity
  8
RACCORDO
100
AcDbLine
 62
7
  6
CONTINUOUS
 10
25.8369477717
 20
18.4610365348
 11
-55.4803320648
 21
59.119676453
  0
LWPOLYLINE
  5
302
100
AcDbEntity
  8
RACCORDO
100
AcDbPolyline
 62
7
  6
CONTINUOUS
 90
37
 70
0
 10
33.2615689741
 20
16.11919633
 10
33.2578088665
 20
16.3294965149
 10
33.2467183062
 20
16.5422799586
 10
33.2282972932
 20
16.7575466613
 10
33.2024829341
 20
16.9757153173
 10
33.1693381222
 20
17.1963672323
 10
33.129051538
 20
17.4182463223
 10
33.0815824488
 20
17.6413595864
 10
33.0269715871
 20
17.8657000256
 10
32.965529831
 20
18.0899905588
 10
32.8972182209
 20
18.3142309012
 10
32.8220757164
 20
18.5384213375
 10
32.7405300739
 20
18.7612856405
 10
32.6525447736
 20
18.9828162467
 10
32.5581563353
 20
19.2030207197
 10
32.457902075
 20
19.4206455226
 10
32.3517485373
 20
19.6356759425
 10
32.2397291776
 20
19.8481266925
 10
32.1224816776
 20
20.0567883746
 10
31.999976219
 20
20.2616393782
 10
31.8722426202
 20
20.4627013139
 10
31.7400080178
 20
20.658829616
 10
31.6032467407
 20
20.8499961457
 10
31.46198446
 20
21.0362290418
 10
31.3170253259
 20
21.2164681541
 10
31.1683482536
 20
21.3906792977
 10
31.0159743279
 20
21.5588966576
 10
30.860770953
 20
21.7201626391
 10
30.7027219915
 20
21.8744375956
 10
30.5418435808
 20
22.0217611736
 10
30.379051538
 20
22.1612947186
 10
30.2143349488
 20
22.2929938007
 10
30.0477047274
 20
22.4169028496
 10
29.8801094336
 20
22.5323165005
 10
29.711865254
 20
22.6389996315
 10
29.542656002
 20
22.7371873643
 10
29.3724816776
 20
22.8268796991
  0
LINE
  5
303
100
AcDbEntity
  8
RACCORDO
100
AcDbLine
 62
7
  6
CONTINUOUS
 10
31.1402486306
 20
-61.6284552426
 11
31.1402486306
 21
17.1798565018
  0
LINE
  5
304
100
AcDbEntity
  8
RACCORDO
100
AcDbLine
 62
7
  6
CONTINUOUS
 10
33.2615689741
 20
-62.6891154144
 11
33.2615689741
 21
16.11919633
  0
LINE
  5
305
100
AcDbEntity
  8
RACCORDO
100
AcDbLine
 62
7
  6
CONTINUOUS
 10
34.6757825365
 20
-61.9820086332
 11
34.6757825365
 21
16.8263031112
  0
LWPOLYLINE
  5
306
100
AcDbEntity
  8
RACCORDO
100
AcDbPolyline
 62
7
  6
CONTINUOUS
 90
22
 70
0
 10
34.6757825365
 20
-61.9820086332
 10
34.6720224289
 20
-62.1885487104
 10
34.6609318686
 20
-62.3902415939
 10
34.6425108555
 20
-62.5870872835
 10
34.6166964964
 20
-62.7794415805
 10
34.5835516846
 20
-62.9669486836
 10
34.5432651004
 20
-63.1485411894
 10
34.4957960112
 20
-63.3241853643
 10
34.4411851495
 20
-63.4939149418
 10
34.3797433934
 20
-63.6567637188
 10
34.3114317833
 20
-63.8126924512
 10
34.2362892788
 20
-63.961740383
 10
34.1547436363
 20
-64.1030590435
 10
34.066758336
 20
-64.2366043494
 10
33.9723698977
 20
-64.3624203841
 10
33.8721156374
 20
-64.4797909266
 10
33.7659620997
 20
-64.5886678089
 10
33.65394274
 20
-64.6890991991
 10
33.53669524
 20
-64.7805133813
 10
33.4141897814
 20
-64.8628589263
 10
33.2864561826
 20
-64.9361872632
 10
33.2464777297
 20
-64.9567606743
  0
LWPOLYLINE
  5
307
100
AcDbEntity
  8
RACCORDO
100
AcDbPolyline
 62
7
  6
CONTINUOUS
 90
18
 70
0
 10
31.1402486306
 20
-61.6284552426
 10
31.1377708472
 20
-61.7410398333
 10
31.1305161323
 20
-61.8503093265
 10
31.1184844859
 20
-61.9562637222
 10
31.1016168517
 20
-62.0591747639
 10
31.0799722859
 20
-62.1587707081
 10
31.0537279575
 20
-62.2542363244
 10
31.0228461128
 20
-62.3455377119
 10
30.9873645054
 20
-62.4327087714
 10
30.9475735659
 20
-62.5150359749
 10
30.9034379242
 20
-62.592479565
 10
30.8549929503
 20
-62.6650792991
 10
30.8026351846
 20
-62.7322409208
 10
30.7463325119
 20
-62.7939197953
 10
30.6861170475
 20
-62.8501605575
 10
30.6224816776
 20
-62.9005028554
 10
30.5553983325
 20
-62.9448982757
 10
30.4905730775
 20
-62.9806110356
  0
LWPOLYLINE
  5
308
100
AcDbEntity
  8
0
100
AcDbPolyline
 62
7
  6
CONTINUOUS
 90
20
 70
0
 10
46.320688635
 20
-14.2544758211
 10
46.0278200328
 20
-14.4132651489
 10
45.7362656879
 20
-14.5853920491
 10
45.4460256006
 20
-14.7708565217
 10
45.1566676092
 20
-14.969977325
 10
44.8686238752
 20
-15.1824357006
 10
44.5831908831
 20
-15.4072753739
 10
44.3003804015
 20
-15.6445521566
 10
44.0201806616
 20
-15.894210237
 10
43.7438528422
 20
-16.1551259043
 10
43.4714143968
 20
-16.4273499052
 10
43.2028478719
 20
-16.710831493
 10
42.9393620848
 20
-17.0042947176
 10
42.6809799384
 20
-17.3077845739
 10
42.4276785298
 20
-17.6212560671
 10
42.1805979684
 20
-17.9432982623
 10
41.9397662962
 20
-18.2739497944
 10
41.7051554711
 20
-18.6131720286
 10
41.477821476
 20
-18.9594381263
 10
41.3663592318
 20
-19.138437669
  0
LWPOLYLINE
  5
309
100
AcDbEntity
  8
0
100
AcDbPolyline
 62
7
  6
CONTINUOUS
 90
67
 70
0
 10
46.6803585352
 20
-13.8616340628
 10
46.3809633528
 20
-14.0236959503
 10
46.0828179541
 20
-14.198939229
 10
45.7859223392
 20
-14.3873638987
 10
45.4898651525
 20
-14.5892700791
 10
45.1950577495
 20
-14.8043576506
 10
44.9027341974
 20
-15.0317262542
 10
44.612904908
 20
-15.2714273702
 10
44.3255594695
 20
-15.5234095184
 10
44.041900713
 20
-15.7866178986
 10
43.7619440925
 20
-16.0610995697
 10
43.4856741541
 20
-16.3468074729
 10
43.2142473666
 20
-16.6425456317
 10
42.9476840319
 20
-16.9483560915
 10
42.6859638483
 20
-17.264196807
 10
42.4301823792
 20
-17.5887456654
 10
42.180364519
 20
-17.9220391701
 10
41.9364853733
 20
-18.2640408176
 10
41.699565823
 20
-18.6133189855
 10
41.4696350417
 20
-18.9699041757
 10
41.2466638558
 20
-19.3337658862
 10
41.0315856251
 20
-19.7033809879
 10
40.8244334357
 20
-20.078773598
 10
40.6251742016
 20
-20.4599195993
 10
40.434642024
 20
-20.8452235104
 10
40.2528734855
 20
-21.2347027606
 10
40.0798320036
 20
-21.6283399206
 10
39.9162419319
 20
-22.0244872209
 10
39.7621428892
 20
-22.4231551836
 10
39.6174952566
 20
-22.8243332866
 10
39.4829045307
 20
-23.226342194
 10
39.3584128686
 20
-23.6291853883
 10
39.2439781132
 20
-24.0328593869
 10
39.1400792896
 20
-24.435674406
 10
39.0467605631
 20
-24.8376268449
 10
38.9639777683
 20
-25.2387203044
 10
38.8920774351
 20
-25.6372758027
 10
38.8311051812
 20
-26.0332827011
 10
38.7810153887
 20
-26.4267516385
 10
38.7420177343
 20
-26.8160355494
 10
38.7141587144
 20
-27.2011168908
 10
38.6973918325
 20
-27.5820132058
 10
38.6917872749
 20
-27.9571300582
 10
38.6973918325
 20
-28.3264432214
 10
38.7141587144
 20
-28.6899769219
 10
38.7420177343
 20
-29.0462094038
 10
38.7810153887
 20
-29.3951100613
 10
38.8311051812
 20
-29.7367095002
 10
38.8920774351
 20
-30.0695777813
 10
38.9639777683
 20
-30.393678305
 10
39.0467605631
 20
-30.7090476711
 10
39.1400792896
 20
-31.0143657398
 10
39.2439781132
 20
-31.3095903775
 10
39.3584128686
 20
-31.594763718
 10
39.4829045307
 20
-31.8686920224
 10
39.6174952566
 20
-32.1313281531
 10
39.7621428892
 20
-32.3827192477
 10
39.9162419319
 20
-32.6218129804
 10
40.0798320036
 20
-32.8485578023
 10
40.2528734855
 20
-33.0630052623
 10
40.434642024
 20
-33.2642576809
 10
40.6251742016
 20
-33.4522597463
 10
40.8244334357
 20
-33.6270667703
 10
41.0315856251
 20
-33.7879470089
 10
41.2466638558
 20
-33.9348420827
 10
41.4696350417
 20
-34.0678103711
 10
41.6799863325
 20
-34.1769040853
  0
LWPOLYLINE
  5
30A
100
AcDbEntity
  8
0
100
AcDbPolyline
 62
7
  6
CONTINUOUS
 90
15
 70
0
 10
50.1500365547
 20
19.8552844687
 10
50.3613178477
 20
19.7839925204
 10
50.6046708916
 20
19.684129424
 10
50.8404759516
 20
19.569143825
 10
51.0686990031
 20
19.4389675548
 10
51.2893740707
 20
19.2936687821
 10
51.5015078962
 20
19.1339014963
 10
51.7050619777
 20
18.9596004769
 10
51.9000748172
 20
18.7708309445
 10
52.0856686621
 20
18.5684425504
 10
52.2618010539
 20
18.3523739041
 10
52.4285144512
 20
18.1226863961
 10
52.5850584772
 20
17.8804138495
 10
52.7313872908
 20
17.625499534
 10
52.8721242012
 20
17.3484909996
  0
LWPOLYLINE
  5
30B
100
AcDbEntity
  8
RACCORDO
100
AcDbPolyline
 62
7
  6
CONTINUOUS
 90
14
 70
0
 10
-55.4803320648
 20
59.119676453
 10
-55.5732685489
 20
59.1631100426
 10
-55.6654484415
 20
59.2003148141
 10
-55.7568717424
 20
59.2312907673
 10
-55.8477844389
 20
59.256088567
 10
-55.9379405439
 20
59.2746575485
 10
-56.0266020953
 20
59.2868457177
 10
-56.1137568264
 20
59.2926007022
 10
-56.199417004
 20
59.2919748744
 10
-56.2828814672
 20
59.2849733569
 10
-56.364132194
 20
59.2715438195
 10
-56.4431872064
 20
59.2517385924
 10
-56.5193994092
 20
59.2257197888
 10
-56.5984234647
 20
59.190652213
  0
LWPOLYLINE
  5
30C
100
AcDbEntity
  8
RACCORDO
100
AcDbPolyline
 62
7
  6
CONTINUOUS
 90
17
 70
0
 10
-51.9447981589
 20
63.4855196173
 10
-52.1149724833
 20
63.566001607
 10
-52.2841817353
 20
63.6370231261
 10
-52.4524259149
 20
63.6985841747
 10
-52.6200212087
 20
63.7507658177
 10
-52.78665143
 20
63.7934869901
 10
-52.9513680193
 20
63.8265044973
 10
-53.1141600621
 20
63.8497629951
 10
-53.2750384727
 20
63.8633178277
 10
-53.4330874343
 20
63.8670918327
 10
-53.5882908091
 20
63.8610292261
 10
-53.7406647348
 20
63.8451857919
 10
-53.8893418071
 20
63.8196517206
 10
-54.0343009412
 20
63.7843717424
 10
-54.1755632219
 20
63.739401127
 10
-54.312324499
 20
63.6849958744
 10
-54.4045806486
 20
63.6416755858
  0
LINE
  5
30D
100
AcDbEntity
  8
RACCORDO
100
AcDbLine
 62
7
  6
CONTINUOUS
 10
29.3724816776
 20
20.2288034877
 11
-51.9447981589
 21
60.887443406
  0
LINE
  5
30E
100
AcDbEntity
  8
RACCORDO
100
AcDbLine
 62
7
  6
CONTINUOUS
 10
29.3724816776
 20
22.8268796991
 11
-51.9447981589
 21
63.4855196173
  0
LINE
  5
30F
100
AcDbEntity
  8
RACCORDO
100
AcDbLine
 62
7
  6
CONTINUOUS
 10
30.78669524
 20
23.5339864803
 11
-50.5305845965
 21
64.1926263985
  0
LWPOLYLINE
  5
310
100
AcDbEntity
  8
RACCORDO
100
AcDbPolyline
 62
7
  6
CONTINUOUS
 90
37
 70
0
 10
30.78669524
 20
23.5339864803
 10
30.9568695644
 20
23.4442941455
 10
31.1260788164
 20
23.3461064127
 10
31.294322996
 20
23.2394232816
 10
31.4619182898
 20
23.1240096308
 10
31.6285485112
 20
23.0001005818
 10
31.7932651004
 20
22.8684014998
 10
31.9560571432
 20
22.7288679548
 10
32.1169355538
 20
22.5815443768
 10
32.2749845154
 20
22.4272694203
 10
32.4301878902
 20
22.2660034388
 10
32.582561816
 20
22.0977860789
 10
32.7312388882
 20
21.9235749353
 10
32.8761980224
 20
21.743335823
 10
33.017460303
 20
21.5571029269
 10
33.1542215801
 20
21.3659363971
 10
33.2864561826
 20
21.1698080951
 10
33.4141897814
 20
20.9687461594
 10
33.53669524
 20
20.7638951558
 10
33.65394274
 20
20.5552334737
 10
33.7659620997
 20
20.3427827237
 10
33.8721156374
 20
20.1277523038
 10
33.9723698977
 20
19.9101275009
 10
34.066758336
 20
19.6899230279
 10
34.1547436363
 20
19.4683924217
 10
34.2362892788
 20
19.2455281187
 10
34.3114317833
 20
19.0213376823
 10
34.3797433934
 20
18.7970973399
 10
34.4411851495
 20
18.5728068068
 10
34.4957960112
 20
18.3484663676
 10
34.5432651004
 20
18.1253531035
 10
34.5835516846
 20
17.9034740135
 10
34.6166964964
 20
17.6828220985
 10
34.6425108555
 20
17.4646534424
 10
34.6609318686
 20
17.2493867398
 10
34.6720224289
 20
17.0366032961
 10
34.6757825365
 20
16.8263031112
  0
LWPOLYLINE
  5
311
100
AcDbEntity
  8
RACCORDO
100
AcDbPolyline
 62
7
  6
CONTINUOUS
 90
31
 70
0
 10
29.3724816776
 20
20.2288034877
 10
29.4654181618
 20
20.1793005932
 10
29.5575980543
 20
20.1243254721
 10
29.6490213552
 20
20.0638781244
 10
29.7399340518
 20
19.9977632276
 10
29.8300901567
 20
19.9261761042
 10
29.9187517082
 20
19.8497027219
 10
30.0059064392
 20
19.7683029754
 10
30.0915666168
 20
19.68201697
 10
30.17503108
 20
19.5915509893
 10
30.2562818068
 20
19.496870725
 10
30.3353368192
 20
19.3980104855
 10
30.411549022
 20
19.2957794791
 10
30.4848950821
 20
19.1901500394
 10
30.5553983325
 20
19.0811498329
 10
30.6224816776
 20
18.9696710675
 10
30.6861170475
 20
18.8556933998
 10
30.7463325119
 20
18.7392371731
 10
30.8026351846
 20
18.6212556259
 10
30.8549929503
 20
18.5017362385
 10
30.9034379242
 20
18.3806915306
 10
30.9475735659
 20
18.2591122987
 10
30.9873645054
 20
18.1369941558
 10
31.0228461128
 20
18.0143414889
 10
31.0537279575
 20
17.8921582566
 10
31.0799722859
 20
17.770448312
 10
31.1016168517
 20
17.649207802
 10
31.1184844859
 20
17.529429126
 10
31.1305161323
 20
17.4114430839
 10
31.1377708472
 20
17.2949188758
 10
31.1402486306
 20
17.1798565018
  0
LINE
  5
312
100
AcDbEntity
  8
0
100
AcDbLine
 62
7
  6
CONTINUOUS
 10
3.9424940683
 20
53.1672652581
 11
4.3170862273
 21
52.6154395836
  0
LWPOLYLINE
  5
313
100
AcDbEntity
  8
0
100
AcDbPolyline
 62
7
  6
CONTINUOUS
 90
28
 70
0
 10
3.9425050604
 20
53.1672490653
 10
4.0164723496
 20
53.0540891603
 10
4.1331923678
 20
52.8552203047
 10
4.2341014129
 20
52.6544480151
 10
4.3192704371
 20
52.4517808333
 10
4.3883160949
 20
52.2481309638
 10
4.4411657058
 20
52.0434939771
 10
4.4778919502
 20
51.8378743027
 10
4.4983295233
 20
51.6321974345
 10
4.5024049997
 20
51.4264631147
 10
4.4901918048
 20
51.2206716011
 10
4.4617449102
 20
51.0157491611
 10
4.4169911383
 20
50.811699712
 10
4.3560036666
 20
50.6085193365
 10
4.2790569998
 20
50.4071225489
 10
4.1860791975
 20
50.2075173894
 10
4.0771422
 20
50.0096958178
 10
3.9527363326
 20
49.8145482289
 10
3.8127918652
 20
49.6220866762
 10
3.6573785279
 20
49.4322991061
 10
3.4871958358
 20
49.2460397522
 10
3.3021772122
 20
49.0633245187
 10
3.1023892338
 20
48.8841375013
 10
2.888731146
 20
48.7092852205
 10
2.6611404257
 20
48.5387872163
 10
2.4196795959
 20
48.3726239487
 10
2.1654354716
 20
48.2115433183
 10
1.8987703242
 20
48.0557946253
  0
LWPOLYLINE
  5
314
100
AcDbEntity
  8
0
100
AcDbPolyline
 62
7
  6
CONTINUOUS
 90
11
 70
0
 10
4.3170976289
 20
52.6154227873
 10
4.3938211346
 20
52.4980462456
 10
4.5148904489
 20
52.2917670113
 10
4.6195596315
 20
52.0835134161
 10
4.7079022784
 20
51.8732943199
 10
4.7795207597
 20
51.6620559186
 10
4.8343396866
 20
51.4497936173
 10
4.8724344479
 20
51.2365120109
 10
4.8936335789
 20
51.0231710796
 10
4.8978609184
 20
50.8097705558
 10
4.8910590473
 20
50.6951594846
  0
LWPOLYLINE
  5
315
100
AcDbEntity
  8
0
100
AcDbPolyline
 62
7
  6
CONTINUOUS
 90
65
 70
0
 10
40.5182698208
 20
34.1897063737
 10
40.5185463245
 20
34.2291536326
 10
40.5104461313
 20
34.439528837
 10
40.4862783649
 20
34.6500763864
 10
40.4461441917
 20
34.8599149265
 10
40.3899766828
 20
35.0690414852
 10
40.3178427672
 20
35.2774590347
 10
40.2300443982
 20
35.4842951366
 10
40.1265159127
 20
35.689543162
 10
40.0073229739
 20
35.8932097398
 10
39.8729645246
 20
36.0944423197
 10
39.7233769932
 20
36.2932306985
 10
39.5586239514
 20
36.4895850794
 10
39.3793950573
 20
36.6826835207
 10
39.18562963
 20
36.872512374
 10
38.9773883504
 20
37.0590852876
 10
38.7555429188
 20
37.2416212654
 10
38.5200363083
 20
37.420103385
 10
38.2709255458
 20
37.5945485688
 10
38.0092534117
 20
37.7642265872
 10
37.7349672503
 20
37.9291174571
 10
37.4481197173
 20
38.0892411616
 10
37.1499115595
 20
38.2439274211
 10
36.8402951548
 20
38.3931534428
 10
36.5193181254
 20
38.5369420195
 10
36.1883240846
 20
38.6746912507
 10
35.8472710426
 20
38.8063758204
 10
35.4962009892
 20
38.9320210446
 10
35.1365835076
 20
39.051100971
 10
34.7683827681
 20
39.1635880788
 10
34.3916346003
 20
39.2695098888
 10
34.0079160763
 20
39.3684230112
 10
33.6171979772
 20
39.4602980665
 10
33.2195095219
 20
39.5451644342
 10
32.8165154385
 20
39.6226668627
 10
32.4081934867
 20
39.6927744834
 10
31.9945659069
 20
39.7555181649
 10
31.5773641486
 20
39.8106352614
 10
31.1565732295
 20
39.8580938035
 10
30.732208132
 20
39.8979257606
 10
30.3060452531
 20
39.9299643958
 10
29.8780770566
 20
39.9541770405
 10
29.4483110787
 20
39.9705963633
 10
29.0185463245
 20
39.9791536326
 10
28.5887827991
 20
39.979815892
 10
28.1590204974
 20
39.9726160979
 10
27.7310584091
 20
39.9575843888
 10
27.3049040804
 20
39.9346879344
 10
26.8805499652
 20
39.9039595651
 10
26.4597724143
 20
39.86552791
 10
26.0425864204
 20
39.8193606782
 10
25.6289769908
 20
39.7654901606
 10
25.2206754992
 20
39.7041418599
 10
24.8177041958
 20
39.6352844303
 10
24.4200408305
 20
39.5589492176
 10
24.0293500264
 20
39.4754557618
 10
23.6456610116
 20
39.3847740565
 10
23.268944558
 20
39.2869341082
 10
22.9007776049
 20
39.1823454759
 10
22.5411959907
 20
39.0709798701
 10
22.1901638769
 20
38.9528655803
 10
21.8491506878
 20
38.8284970342
 10
21.5186462317
 20
38.6980390412
 10
21.1981607003
 20
38.5613267918
 10
20.8876940937
 20
38.4183602862
  0
LWPOLYLINE
  5
316
100
AcDbEntity
  8
0
100
AcDbPolyline
 62
7
  6
CONTINUOUS
 90
11
 70
0
 10
40.2463981066
 20
33.0174899549
 10
40.2531999777
 20
33.1321010261
 10
40.2489726383
 20
33.3455015499
 10
40.2277735072
 20
33.5588424813
 10
40.189678746
 20
33.7721240877
 10
40.134859819
 20
33.9843863889
 10
40.0632413378
 20
34.1956247902
 10
39.9748986908
 20
34.4058438864
 10
39.8702295082
 20
34.6140974816
 10
39.7491601939
 20
34.8203767159
 10
39.6724366882
 20
34.9377532577
  0
LWPOLYLINE
  5
317
100
AcDbEntity
  8
0
100
AcDbPolyline
 62
7
  6
CONTINUOUS
 90
31
 70
0
 10
-13.9774051522
 20
47.9091493411
 10
-14.157490423
 20
47.9991919765
 10
-14.443046726
 20
48.15322659
 10
-14.7163757611
 20
48.312454773
 10
-14.9775323986
 20
48.4768532191
 10
-15.2253411728
 20
48.6456819712
 10
-15.4597419149
 20
48.8189610002
 10
-15.6807947937
 20
48.9966703351
 10
-15.8875048507
 20
49.1780101067
 10
-16.0798074317
 20
49.36299668
 10
-16.2577671909
 20
49.5516136898
 10
-16.4205831317
 20
49.7430121715
 10
-16.5681869893
 20
49.9372046631
 10
-16.7006470284
 20
50.1341786264
 10
-16.8173670466
 20
50.333047482
 10
-16.9182760917
 20
50.5338197716
 10
-17.003445116
 20
50.7364869535
 10
-17.0724907737
 20
50.9401368229
 10
-17.1253403846
 20
51.1447738097
 10
-17.162066629
 20
51.3503934841
 10
-17.1825042021
 20
51.5560703523
 10
-17.1865796785
 20
51.761804672
 10
-17.1743664836
 20
51.9675961856
 10
-17.145919589
 20
52.1725186257
 10
-17.1011658171
 20
52.3765680747
 10
-17.0401783455
 20
52.5797484503
 10
-16.9632316786
 20
52.7811452378
 10
-16.8702538763
 20
52.9807503974
 10
-16.7613168788
 20
53.1785719689
 10
-16.6369110114
 20
53.3737195579
 10
-16.5779533218
 20
53.457769415
  0
LWPOLYLINE
  5
318
100
AcDbEntity
  8
0
100
AcDbPolyline
 62
7
  6
CONTINUOUS
 90
67
 70
0
 10
51.6807307379
 20
19.4440170166
 10
51.8910820287
 20
19.3349233024
 10
52.1140532146
 20
19.201955014
 10
52.3291314453
 20
19.0550599401
 10
52.5362836347
 20
18.8941797016
 10
52.7355428688
 20
18.7193726775
 10
52.9260750464
 20
18.5313706121
 10
53.1078435849
 20
18.3301181935
 10
53.2808850668
 20
18.1156707336
 10
53.4444751385
 20
17.8889259117
 10
53.5985741812
 20
17.649832179
 10
53.7432218138
 20
17.3984410843
 10
53.8778125397
 20
17.1358049536
 10
54.0023042018
 20
16.8618766492
 10
54.1167389572
 20
16.5767033088
 10
54.2206377808
 20
16.281478671
 10
54.3139565073
 20
15.9761606023
 10
54.3967393021
 20
15.6607912363
 10
54.4686396353
 20
15.3366907126
 10
54.5296118892
 20
15.0038224314
 10
54.5797016817
 20
14.6622229926
 10
54.6186993361
 20
14.313322335
 10
54.646558356
 20
13.9570898532
 10
54.6633252379
 20
13.5935561526
 10
54.6689297955
 20
13.2242429895
 10
54.6633252379
 20
12.8491261371
 10
54.646558356
 20
12.468229822
 10
54.6186993361
 20
12.0831484806
 10
54.5797016817
 20
11.6938645697
 10
54.5296118892
 20
11.3003956324
 10
54.4686396353
 20
10.904388734
 10
54.3967393021
 20
10.5058332356
 10
54.3139565073
 20
10.1047397762
 10
54.2206377808
 20
9.7027873372
 10
54.1167389572
 20
9.2999723181
 10
54.0023042018
 20
8.8962983195
 10
53.8778125397
 20
8.4934551252
 10
53.7432218138
 20
8.0914462179
 10
53.5985741812
 20
7.6902681149
 10
53.4444751385
 20
7.2916001522
 10
53.2808850668
 20
6.8954528519
 10
53.1078435849
 20
6.5018156919
 10
52.9260750464
 20
6.1123364417
 10
52.7355428688
 20
5.7270325306
 10
52.5362836347
 20
5.3458865293
 10
52.3291314453
 20
4.9704939191
 10
52.1140532146
 20
4.6008788175
 10
51.8910820287
 20
4.237017107
 10
51.6611512474
 20
3.8804319167
 10
51.4242316971
 20
3.5311537489
 10
51.1803525514
 20
3.1891521013
 10
50.9305346912
 20
2.8558585967
 10
50.6747532221
 20
2.5313097383
 10
50.4130330385
 20
2.2154690228
 10
50.1464697038
 20
1.9096585629
 10
49.8750429164
 20
1.6139204041
 10
49.5987729779
 20
1.328212501
 10
49.3188163574
 20
1.0537308299
 10
49.0351576009
 20
0.7905224496
 10
48.7478121624
 20
0.5385403015
 10
48.457982873
 20
0.2988391854
 10
48.1656593209
 20
0.0714705818
 10
47.8708519179
 20
-0.1436169896
 10
47.5747947312
 20
-0.34552317
 10
47.2778991163
 20
-0.5339478397
 10
46.9797537177
 20
-0.7091911184
 10
46.6803585352
 20
-0.871253006
  0
LWPOLYLINE
  5
319
100
AcDbEntity
  8
0
100
AcDbPolyline
 62
7
  6
CONTINUOUS
 90
30
 70
0
 10
53.1222190779
 20
-16.0853804336
 10
52.9865380026
 20
-15.8183231584
 10
52.8454659078
 20
-15.572566389
 10
52.694545572
 20
-15.3389972455
 10
52.5338211896
 20
-15.1175610354
 10
52.3640161808
 20
-14.9092544427
 10
52.1850896123
 20
-14.7141366527
 10
51.9970824173
 20
-14.5321484801
 10
51.800840816
 20
-14.3641090534
 10
51.5963276896
 20
-14.2100812503
 10
51.3835801569
 20
-14.0700021931
 10
51.1635557941
 20
-13.9445023774
 10
50.936221799
 20
-13.833647523
 10
50.7016109739
 20
-13.7373719101
 10
50.4607793017
 20
-13.6561088752
 10
50.2136987402
 20
-13.5899260912
 10
49.9603973317
 20
-13.5387558852
 10
49.7020151853
 20
-13.5028285741
 10
49.4385293982
 20
-13.4822128692
 10
49.1699628732
 20
-13.4768400592
 10
48.8975244279
 20
-13.4867343272
 10
48.6211966084
 20
-13.5119644934
 10
48.3409968686
 20
-13.5524617376
 10
48.0581863869
 20
-13.6080437816
 10
47.7727533948
 20
-13.6787786243
 10
47.4847096609
 20
-13.7645982668
 10
47.1953516695
 20
-13.8651164351
 10
46.9051115821
 20
-13.9802043713
 10
46.6135572373
 20
-14.1099908333
 10
46.320688635
 20
-14.2544758211
  0
LWPOLYLINE
  5
31A
100
AcDbEntity
  8
0
100
AcDbPolyline
 62
7
  6
CONTINUOUS
 90
15
 70
0
 10
52.8721242012
 20
-15.5604743443
 10
52.7313872908
 20
-15.2834658098
 10
52.5850584772
 20
-15.0285514943
 10
52.4285144512
 20
-14.7862789477
 10
52.2618010539
 20
-14.5565914397
 10
52.0856686621
 20
-14.3405227934
 10
51.9000748172
 20
-14.1381343993
 10
51.7050619777
 20
-13.9493648669
 10
51.5015078962
 20
-13.7750638475
 10
51.2893740707
 20
-13.6152965617
 10
51.0686990031
 20
-13.469997789
 10
50.8404759516
 20
-13.3398215188
 10
50.6046708916
 20
-13.2248359198
 10
50.3613178477
 20
-13.1249728234
 10
50.1500365547
 20
-13.0536808752
  0
LINE
  5
31B
100
AcDbEntity
  8
0
100
AcDbLine
 62
7
  6
CONTINUOUS
 10
52.8721929932
 20
-15.560618722
 11
53.1222853986
 21
-16.0855196248
  0
LWPOLYLINE
  5
31C
100
AcDbEntity
  8
0
100
AcDbPolyline
 62
7
  6
CONTINUOUS
 90
48
 70
0
 10
39.6548392674
 20
-22.7210122457
 10
39.5235712192
 20
-23.1148339917
 10
39.4026980548
 20
-23.5088636927
 10
39.2922666319
 20
-23.903102286
 10
39.192230093
 20
-24.2975488342
 10
39.1030387022
 20
-24.6904279341
 10
39.0247413469
 20
-25.08173252
 10
38.9572891398
 20
-25.4714696575
 10
38.9009856831
 20
-25.8578851406
 10
38.8558812328
 20
-26.2409639958
 10
38.821925533
 20
-26.6207211965
 10
38.7992714182
 20
-26.9954474561
 10
38.7879698332
 20
-27.3651200964
 10
38.7879698332
 20
-27.7297617955
 10
38.7992714182
 20
-28.0877313019
 10
38.821925533
 20
-28.4389985389
 10
38.8558812328
 20
-28.7835935831
 10
38.9009856831
 20
-29.1199654128
 10
38.9572891398
 20
-29.4480769596
 10
39.0247413469
 20
-29.767965292
 10
39.1030387022
 20
-30.078190593
 10
39.192230093
 20
-30.378709304
 10
39.2922666319
 20
-30.6695649837
 10
39.4026980548
 20
-30.949448491
 10
39.5235712192
 20
-31.2183103661
 10
39.6548392674
 20
-31.4762000689
 10
39.7959113623
 20
-31.7219568383
 10
39.9468316981
 20
-31.9555259818
 10
40.1075560805
 20
-32.176962192
 10
40.2773610893
 20
-32.3852687846
 10
40.4562876578
 20
-32.5803865747
 10
40.6442948528
 20
-32.7623747472
 10
40.8405364541
 20
-32.9304141739
 10
41.0450495805
 20
-33.084441977
 10
41.2577971132
 20
-33.2245210342
 10
41.477821476
 20
-33.3500208499
 10
41.7051554711
 20
-33.4608757043
 10
41.9397662962
 20
-33.5571513172
 10
42.1805979684
 20
-33.6384143521
 10
42.4276785298
 20
-33.7045971361
 10
42.6809799384
 20
-33.7557673421
 10
42.9393620848
 20
-33.7916946533
 10
43.2028478719
 20
-33.8123103581
 10
43.4714143968
 20
-33.8176831681
 10
43.7438528422
 20
-33.8077889001
 10
44.0201806616
 20
-33.7825587339
 10
44.3003804015
 20
-33.7420614897
 10
44.5831908831
 20
-33.6864794457
  0
LINE
  5
31D
100
AcDbEntity
  8
0
100
AcDbLine
 62
7
  6
CONTINUOUS
 10
51.2360524976
 20
19.6263750716
 11
51.4109790328
 21
19.5111984404
  0
LWPOLYLINE
  5
31E
100
AcDbEntity
  8
0
100
AcDbPolyline
 62
7
  6
CONTINUOUS
 90
15
 70
0
 10
3.2038001801
 20
54.009805553
 10
3.3168411191
 20
53.9262408681
 10
3.5512263428
 20
53.737813364
 10
3.7704036872
 20
53.5455364611
 10
3.9743045987
 20
53.3493928071
 10
4.1629976309
 20
53.1493997544
 10
4.3356334767
 20
52.9464574711
 10
4.4921397541
 20
52.7405526631
 10
4.6325888451
 20
52.5316986246
 10
4.7563485886
 20
52.3208354073
 10
4.8633437531
 20
52.1079539544
 10
4.9536495699
 20
51.8930633228
 10
5.026859573
 20
51.6771307347
 10
5.0828966983
 20
51.4601514935
 10
5.1036849197
 20
51.3437642238
  0
LINE
  5
31F
100
AcDbEntity
  8
0
100
AcDbLine
 62
7
  6
CONTINUOUS
 10
51.4109790328
 20
19.5111984404
 11
51.6278269434
 21
19.3478807705
  0
LWPOLYLINE
  5
320
100
AcDbEntity
  8
0
100
AcDbPolyline
 62
7
  6
CONTINUOUS
 90
15
 70
0
 10
40.459023979
 20
33.6660946942
 10
40.4382357577
 20
33.7824819638
 10
40.3821986323
 20
33.9994612051
 10
40.3089886293
 20
34.2153937931
 10
40.2186828124
 20
34.4302844247
 10
40.111687648
 20
34.6431658777
 10
39.9879279045
 20
34.8540290949
 10
39.8474788134
 20
35.0628831334
 10
39.690972536
 20
35.2687879415
 10
39.5183366902
 20
35.4717302247
 10
39.3296436581
 20
35.6717232775
 10
39.1257427465
 20
35.8678669314
 10
38.9065654022
 20
36.0601438344
 10
38.6721801784
 20
36.2485713385
 10
38.5591392394
 20
36.3321360233
  0
LWPOLYLINE
  5
321
100
AcDbEntity
  8
0
100
AcDbPolyline
 62
7
  6
CONTINUOUS
 90
19
 70
0
 10
53.7754486595
 20
-18.4360001239
 10
53.7681861862
 20
-18.3233906064
 10
53.7321825189
 20
-17.9580120284
 10
53.6843576874
 20
-17.601352631
 10
53.6246584048
 20
-17.2534517182
 10
53.553137958
 20
-16.914269986
 10
53.4701182605
 20
-16.5853340908
 10
53.3755474764
 20
-16.2666902184
 10
53.2694774415
 20
-15.958292183
 10
53.1523855769
 20
-15.6615280837
 10
53.0242221989
 20
-15.3764503635
 10
52.8850369912
 20
-15.1030065793
 10
52.7354564261
 20
-14.8424275012
 10
52.575433644
 20
-14.5947711203
 10
52.4050155046
 20
-14.3599794454
 10
52.2249690596
 20
-14.1391092736
 10
52.035250907
 20
-13.9322233596
 10
51.8359044489
 20
-13.7392589487
 10
51.6278269434
 20
-13.5610845733
  0
LWPOLYLINE
  5
322
100
AcDbEntity
  8
0
100
AcDbPolyline
 62
7
  6
CONTINUOUS
 90
4
 70
0
 10
46.1276831381
 20
-33.1950569515
 10
46.4368219772
 20
-33.0125485751
 10
46.7445672921
 20
-32.8158981983
 10
46.8671548648
 20
-32.7315399408
  0
LWPOLYLINE
  5
323
100
AcDbEntity
  8
0
100
AcDbPolyline
 62
7
  6
CONTINUOUS
 90
53
 70
0
 10
46.320688635
 20
-33.0400474062
 10
46.6135572373
 20
-32.8812580784
 10
46.9051115821
 20
-32.7091311782
 10
47.1953516695
 20
-32.5236667056
 10
47.4847096609
 20
-32.3245459024
 10
47.7727533948
 20
-32.1120875267
 10
48.0581863869
 20
-31.8872478535
 10
48.3409968686
 20
-31.6499710707
 10
48.6211966084
 20
-31.4003129903
 10
48.8975244279
 20
-31.139397323
 10
49.1699628732
 20
-30.8671733221
 10
49.4385293982
 20
-30.5836917343
 10
49.7020151853
 20
-30.2902285097
 10
49.9603973317
 20
-29.9867386534
 10
50.2136987402
 20
-29.6732671603
 10
50.4607793017
 20
-29.351224965
 10
50.7016109739
 20
-29.0205734329
 10
50.936221799
 20
-28.6813511987
 10
51.1635557941
 20
-28.335085101
 10
51.3835801569
 20
-27.9817433879
 10
51.5963276896
 20
-27.6213578114
 10
51.800840816
 20
-27.2555504663
 10
51.9970824173
 20
-26.8842969127
 10
52.1850896123
 20
-26.5076215905
 10
52.3640161808
 20
-26.1272199148
 10
52.5338211896
 20
-25.7430750881
 10
52.694545572
 20
-25.3552039078
 10
52.8454659078
 20
-24.9653521816
 10
52.9865380026
 20
-24.5735109816
 10
53.1178060509
 20
-24.1796892356
 10
53.2386792153
 20
-23.7856595347
 10
53.3491106381
 20
-23.3914209414
 10
53.4491471771
 20
-22.9969743931
 10
53.5383385679
 20
-22.6040952932
 10
53.6166359232
 20
-22.2127907073
 10
53.6840881303
 20
-21.8230535698
 10
53.7403915869
 20
-21.4366380868
 10
53.7854960372
 20
-21.0535592315
 10
53.8194517371
 20
-20.6738020308
 10
53.8421058519
 20
-20.2990757712
 10
53.8534074369
 20
-19.9294031309
 10
53.8534074369
 20
-19.5647614318
 10
53.8421058519
 20
-19.2067919254
 10
53.8194517371
 20
-18.8555246884
 10
53.7854960372
 20
-18.5109296442
 10
53.7403915869
 20
-18.1745578146
 10
53.6840881303
 20
-17.8464462677
 10
53.6166359232
 20
-17.5265579353
 10
53.5383385679
 20
-17.2163326343
 10
53.4491471771
 20
-16.9158139233
 10
53.3491106381
 20
-16.6249582436
 10
53.2386792153
 20
-16.3450747363
 10
53.1222190779
 20
-16.0853804336
  0
LINE
  5
324
100
AcDbEntity
  8
0
100
AcDbLine
 62
7
  6
CONTINUOUS
 10
45.8171507748
 20
-33.3634233275
 11
46.1276831381
 21
-33.1950569515
  0
LWPOLYLINE
  5
325
100
AcDbEntity
  8
0
100
AcDbPolyline
 62
7
  6
CONTINUOUS
 90
67
 70
0
 10
46.6803585352
 20
-33.7802183498
 10
46.9797537177
 20
-33.6181564622
 10
47.2778991163
 20
-33.4429131836
 10
47.5747947312
 20
-33.2544885138
 10
47.8708519179
 20
-33.0525823334
 10
48.1656593209
 20
-32.837494762
 10
48.457982873
 20
-32.6101261584
 10
48.7478121624
 20
-32.3704250423
 10
49.0351576009
 20
-32.1184428942
 10
49.3188163574
 20
-31.8552345139
 10
49.5987729779
 20
-31.5807528428
 10
49.8750429164
 20
-31.2950449397
 10
50.1464697038
 20
-30.9993067809
 10
50.4130330385
 20
-30.693496321
 10
50.6747532221
 20
-30.3776556055
 10
50.9305346912
 20
-30.0531067471
 10
51.1803525514
 20
-29.7198132425
 10
51.4242316971
 20
-29.3778115949
 10
51.6611512474
 20
-29.0285334271
 10
51.8910820287
 20
-28.6719482368
 10
52.1140532146
 20
-28.3080865263
 10
52.3291314453
 20
-27.9384714247
 10
52.5362836347
 20
-27.5630788145
 10
52.7355428688
 20
-27.1819328132
 10
52.9260750464
 20
-26.7966289021
 10
53.1078435849
 20
-26.4071496519
 10
53.2808850668
 20
-26.0135124919
 10
53.4444751385
 20
-25.6173651916
 10
53.5985741812
 20
-25.2186972289
 10
53.7432218138
 20
-24.8175191259
 10
53.8778125397
 20
-24.4155102186
 10
54.0023042018
 20
-24.0126670243
 10
54.1167389572
 20
-23.6089930257
 10
54.2206377808
 20
-23.2061780066
 10
54.3139565073
 20
-22.8042255676
 10
54.3967393021
 20
-22.4031321082
 10
54.4686396353
 20
-22.0045766099
 10
54.5296118892
 20
-21.6085697114
 10
54.5797016817
 20
-21.2151007741
 10
54.6186993361
 20
-20.8258168632
 10
54.646558356
 20
-20.4407355218
 10
54.6633252379
 20
-20.0598392067
 10
54.6689297955
 20
-19.6847223543
 10
54.6633252379
 20
-19.3154091912
 10
54.646558356
 20
-18.9518754907
 10
54.6186993361
 20
-18.5956430088
 10
54.5797016817
 20
-18.2467423513
 10
54.5296118892
 20
-17.9051429124
 10
54.4686396353
 20
-17.5722746312
 10
54.3967393021
 20
-17.2481741075
 10
54.3139565073
 20
-16.9328047415
 10
54.2206377808
 20
-16.6274866728
 10
54.1167389572
 20
-16.332262035
 10
54.0023042018
 20
-16.0470886946
 10
53.8778125397
 20
-15.7731603902
 10
53.7432218138
 20
-15.5105242595
 10
53.5985741812
 20
-15.2591331648
 10
53.4444751385
 20
-15.0200394321
 10
53.2808850668
 20
-14.7932946102
 10
53.1078435849
 20
-14.5788471503
 10
52.9260750464
 20
-14.3775947317
 10
52.7355428688
 20
-14.1895926663
 10
52.5362836347
 20
-14.0147856422
 10
52.3291314453
 20
-13.8539054037
 10
52.1140532146
 20
-13.7070103298
 10
51.8910820287
 20
-13.5740420414
 10
51.6807307379
 20
-13.4649483272
  0
LINE
  5
326
100
AcDbEntity
  8
RACCORDO
100
AcDbLine
 62
250
  6
CONTINUOUS
 10
19.1197025899
 20
-49.9452739317
 11
20.8634051127
 21
-49.0045064172
  0
LWPOLYLINE
  5
327
100
AcDbEntity
  8
0
100
AcDbPolyline
 62
7
  6
CONTINUOUS
 90
19
 70
0
 10
51.6278269434
 20
19.3478807705
 10
51.8359044489
 20
19.1697063951
 10
52.035250907
 20
18.9767419842
 10
52.2249690596
 20
18.7698560702
 10
52.4050155046
 20
18.5489858984
 10
52.575433644
 20
18.3141942235
 10
52.7354564261
 20
18.0665378426
 10
52.8850369912
 20
17.8059587645
 10
53.0242221989
 20
17.5325149804
 10
53.1523855769
 20
17.2474372601
 10
53.2694774415
 20
16.9506731608
 10
53.3755474764
 20
16.6422751254
 10
53.4701182605
 20
16.323631253
 10
53.553137958
 20
15.9946953578
 10
53.6246584048
 20
15.6555136256
 10
53.6843576874
 20
15.3076127128
 10
53.7321825189
 20
14.9509533154
 10
53.7681861862
 20
14.5855747374
 10
53.7754486595
 20
14.4729652199
  0
LWPOLYLINE
  5
328
100
AcDbEntity
  8
0
100
AcDbPolyline
 62
7
  6
CONTINUOUS
 90
54
 70
0
 10
39.2978441197
 20
35.4895795356
 10
39.2393513698
 20
35.573393594
 10
39.0917475122
 20
35.7675860856
 10
38.9289315715
 20
35.9589845672
 10
38.7509718123
 20
36.1476015771
 10
38.5586692312
 20
36.3325881504
 10
38.3519591742
 20
36.513927922
 10
38.1309062954
 20
36.6916372569
 10
37.8965055533
 20
36.8649162859
 10
37.6486967791
 20
37.033745038
 10
37.3875401416
 20
37.1981434841
 10
37.1142111065
 20
37.3573716671
 10
36.8286548035
 20
37.5114062805
 10
36.5309261028
 20
37.6602706309
 10
36.222365081
 20
37.8032946798
 10
35.9029229084
 20
37.9404521007
 10
35.5726484145
 20
38.0717692203
 10
35.2330281644
 20
38.1966549803
 10
34.8840200296
 20
38.3150803899
 10
34.5256661384
 20
38.4270744399
 10
34.1595794413
 20
38.5321330454
 10
33.7857250806
 20
38.630224943
 10
33.4041379138
 20
38.7213813961
 10
33.0165354642
 20
38.8051921096
 10
32.6228906165
 20
38.8816239707
 10
32.2232304859
 20
38.9507100922
 10
31.8193539421
 20
39.0121395176
 10
31.4112419786
 20
39.0658777323
 10
30.9989136018
 20
39.1119592509
 10
30.5842247012
 20
39.1501766606
 10
30.1671646361
 20
39.1804945119
 10
29.7477440472
 20
39.2029482542
 10
29.3278507458
 20
39.2174368233
 10
28.907482601
 20
39.223924314
 10
28.4866417438
 20
39.2224466316
 10
28.0672223782
 20
39.2130104271
 10
27.6492309118
 20
39.1955798253
 10
27.232660937
 20
39.1701907013
 10
26.8193874345
 20
39.1369573315
 10
26.4094252641
 20
39.0958443561
 10
26.0027595659
 20
39.0468871349
 10
25.6012207418
 20
38.9903060243
 10
25.2048319023
 20
38.9260666577
 10
24.8135699368
 20
38.8542034016
 10
24.4291959148
 20
38.7750397127
 10
24.0517408853
 20
38.6885426821
 10
23.6811737993
 20
38.5947452185
 10
23.3191625786
 20
38.4940695043
 10
22.965745791
 20
38.3864845337
 10
22.6208848686
 20
38.2720213124
 10
22.28613203
 20
38.1511950391
 10
21.9620046812
 20
38.0241774468
 10
21.6479854162
 20
37.8907968025
 10
21.3440742349
 20
37.7510531062
  0
LINE
  5
329
100
AcDbEntity
  8
0
100
AcDbLine
 62
7
  6
CONTINUOUS
 10
39.6724252866
 20
34.9377700539
 11
39.2978331277
 21
35.4895957284
  0
LINE
  5
32A
100
AcDbEntity
  8
RACCORDO
100
AcDbLine
 62
7
  6
CONTINUOUS
 10
57.7961003465
 20
-32.0929836533
 11
57.7961003465
 21
28.8707841905
  0
LINE
  5
32B
100
AcDbEntity
  8
RACCORDO
100
AcDbLine
 62
250
  6
CONTINUOUS
 10
34.6757825365
 20
-44.566925531
 11
57.7961003465
 21
-32.0929836533
  0
LINE
  5
32C
100
AcDbEntity
  8
RACCORDO
100
AcDbLine
 62
250
  6
CONTINUOUS
 10
22.3631268396
 20
-51.6428325046
 11
24.4474193988
 21
-50.5183088517
  0
LINE
  5
32D
100
AcDbEntity
  8
RACCORDO
100
AcDbLine
 62
7
  6
CONTINUOUS
 10
34.6757825365
 20
-45.5689997936
 11
57.1724033658
 21
-33.4315567456
  0
LINE
  5
32E
100
AcDbEntity
  8
RACCORDO
100
AcDbLine
 62
7
  6
CONTINUOUS
 10
21.8641692551
 20
-52.7136909785
 11
23.9484618143
 21
-51.5891673256
  0
LINE
  5
32F
100
AcDbEntity
  8
RACCORDO
100
AcDbLine
 62
7
  6
CONTINUOUS
 10
56.028602633
 20
31.919266807
 11
-10.7186681204
 21
65.2929021837
  0
LINE
  5
330
100
AcDbEntity
  8
0
100
AcDbLine
 62
7
  6
CONTINUOUS
 10
53.1222853986
 20
16.8234457191
 11
52.8721929932
 21
17.3483466218
  0
LWPOLYLINE
  5
331
100
AcDbEntity
  8
0
100
AcDbPolyline
 62
7
  6
CONTINUOUS
 90
53
 70
0
 10
53.1222190779
 20
16.8235849102
 10
53.2386792153
 20
16.5638906075
 10
53.3491106381
 20
16.2840071002
 10
53.4491471771
 20
15.9931514205
 10
53.5383385679
 20
15.6926327095
 10
53.6166359232
 20
15.3824074085
 10
53.6840881303
 20
15.0625190761
 10
53.7403915869
 20
14.7344075292
 10
53.7854960372
 20
14.3980356996
 10
53.8194517371
 20
14.0534406554
 10
53.8421058519
 20
13.7021734184
 10
53.8534074369
 20
13.344203912
 10
53.8534074369
 20
12.9795622129
 10
53.8421058519
 20
12.6098895726
 10
53.8194517371
 20
12.235163313
 10
53.7854960372
 20
11.8554061123
 10
53.7403915869
 20
11.4723272571
 10
53.6840881303
 20
11.085911774
 10
53.6166359232
 20
10.6961746365
 10
53.5383385679
 20
10.3048700506
 10
53.4491471771
 20
9.9119909507
 10
53.3491106381
 20
9.5175444024
 10
53.2386792153
 20
9.1233058092
 10
53.1178060509
 20
8.7292761082
 10
52.9865380026
 20
8.3354543622
 10
52.8454659078
 20
7.9436131622
 10
52.694545572
 20
7.553761436
 10
52.5338211896
 20
7.1658902557
 10
52.3640161808
 20
6.781745429
 10
52.1850896123
 20
6.4013437533
 10
51.9970824173
 20
6.0246684311
 10
51.800840816
 20
5.6534148775
 10
51.5963276896
 20
5.2876075324
 10
51.3835801569
 20
4.9272219559
 10
51.1635557941
 20
4.5738802428
 10
50.936221799
 20
4.2276141451
 10
50.7016109739
 20
3.8883919109
 10
50.4607793017
 20
3.5577403788
 10
50.2136987402
 20
3.2356981836
 10
49.9603973317
 20
2.9222266904
 10
49.7020151853
 20
2.6187368341
 10
49.4385293982
 20
2.3252736095
 10
49.1699628732
 20
2.0417920217
 10
48.8975244279
 20
1.7695680208
 10
48.6211966084
 20
1.5086523535
 10
48.3409968686
 20
1.2589942731
 10
48.0581863869
 20
1.0217174903
 10
47.7727533948
 20
0.7968778171
 10
47.4847096609
 20
0.5844194414
 10
47.1953516695
 20
0.3852986382
 10
46.9051115821
 20
0.1998341656
 10
46.6135572373
 20
0.0277072654
 10
46.320688635
 20
-0.1310820624
  0
LWPOLYLINE
  5
332
100
AcDbEntity
  8
RACCORDO
100
AcDbPolyline
 62
7
  6
CONTINUOUS
 90
18
 70
0
 10
26.9550391716
 20
-64.7483779886
 10
27.0198644266
 20
-64.7126652287
 10
27.0869477717
 20
-64.6682698083
 10
27.1505831415
 20
-64.6179275104
 10
27.210798606
 20
-64.5616867483
 10
27.2671012787
 20
-64.5000078737
 10
27.3194590444
 20
-64.4328462521
 10
27.3679040183
 20
-64.360246518
 10
27.41203966
 20
-64.2828029279
 10
27.4518305995
 20
-64.2004757244
 10
27.4873122068
 20
-64.1133046649
 10
27.5181940516
 20
-64.0220032774
 10
27.5444383799
 20
-63.9265376611
 10
27.5660829457
 20
-63.8269417169
 10
27.58295058
 20
-63.7240306751
 10
27.5949822264
 20
-63.6180762794
 10
27.6022369413
 20
-63.5088067862
 10
27.6047147246
 20
-63.3962221956
  0
LINE
  5
333
100
AcDbEntity
  8
RACCORDO
100
AcDbLine
 62
250
  6
CONTINUOUS
 10
27.6047147246
 20
-63.3962221956
 11
31.1402486306
 21
-61.6284552426
  0
LINE
  5
334
100
AcDbEntity
  8
RACCORDO
100
AcDbLine
 62
7
  6
CONTINUOUS
 10
26.9549817604
 20
-64.7484066966
 11
30.4905156664
 21
-62.9806397436
  0
LWPOLYLINE
  5
335
100
AcDbEntity
  8
RACCORDO
100
AcDbPolyline
 62
7
  6
CONTINUOUS
 90
22
 70
0
 10
31.8322641673
 20
-65.6638674554
 10
31.8722426202
 20
-65.6432940443
 10
31.999976219
 20
-65.5699657075
 10
32.1224816776
 20
-65.4876201624
 10
32.2397291776
 20
-65.3962059803
 10
32.3517485373
 20
-65.2957745901
 10
32.457902075
 20
-65.1868977078
 10
32.5581563353
 20
-65.0695271652
 10
32.6525447736
 20
-64.9437111306
 10
32.7405300739
 20
-64.8101658247
 10
32.8220757164
 20
-64.6688471642
 10
32.8972182209
 20
-64.5197992324
 10
32.965529831
 20
-64.3638705
 10
33.0269715871
 20
-64.201021723
 10
33.0815824488
 20
-64.0312921455
 10
33.129051538
 20
-63.8556479706
 10
33.1693381222
 20
-63.6740554648
 10
33.2024829341
 20
-63.4865483616
 10
33.2282972932
 20
-63.2941940647
 10
33.2467183062
 20
-63.0973483751
 10
33.2578088665
 20
-62.8956554916
 10
33.2615689741
 20
-62.6891154144
  0
LINE
  5
336
100
AcDbEntity
  8
RACCORDO
100
AcDbLine
 62
250
  6
CONTINUOUS
 10
33.2615689741
 20
-62.6891154144
 11
34.6757825365
 21
-61.9820086332
  0
LINE
  5
337
100
AcDbEntity
  8
RACCORDO
100
AcDbLine
 62
7
  6
CONTINUOUS
 10
31.8321564529
 20
-65.6639213166
 11
33.2463700152
 21
-64.9568145354
  0
ELLIPSE
  5
338
100
AcDbEntity
  8
RACCORDO
100
AcDbEllipse
 62
7
  6
CONTINUOUS
 10
-10.7181296004
 20
63.1272396144
 30
0.0
 11
-1.1185045536
 21
2.2366755677
 31
0.0
 40
0.6121897086
 41
-0.6846338794
 42
-0.0190163424
  0
ELLIPSE
  5
339
100
AcDbEntity
  8
RACCORDO
100
AcDbEllipse
 62
7
  6
CONTINUOUS
 10
56.0280641131
 20
-31.208305987
 30
0.0
 11
-1.1185045536
 21
2.2366755677
 31
0.0
 40
0.6121897086
 41
-3.1225763136
 42
-2.2557347926
  0
ELLIPSE
  5
33A
100
AcDbEntity
  8
RACCORDO
100
AcDbEllipse
 62
7
  6
CONTINUOUS
 10
56.0280641131
 20
29.7541427576
 30
0.0
 11
-1.117903878
 21
2.236141634
 31
0.0
 40
0.6125552124
 41
-2.255296188
 42
-0.6848044477
  0
ELLIPSE
  5
33B
100
AcDbEntity
  8
RACCORDO
100
AcDbEllipse
 62
7
  6
CONTINUOUS
 10
-47.7636550212
 20
-16.5789139346
 30
0.0
 11
-0.8943231024
 21
1.7889133072
 31
0.0
 40
0.6125552124
 41
0.8862964655
 42
2.4567882058
  0
ELLIPSE
  5
33C
100
AcDbEntity
  8
RACCORDO
100
AcDbEllipse
 62
7
  6
CONTINUOUS
 10
19.1191640699
 20
11.1094564951
 30
0.0
 11
-1.117903878
 21
2.236141634
 31
0.0
 40
0.6125552124
 41
-2.255296188
 42
-0.6848044477
  0
ELLIPSE
  5
33D
100
AcDbEntity
  8
RACCORDO
100
AcDbEllipse
 62
7
  6
CONTINUOUS
 10
-10.5372119409
 20
2.5819635363
 30
0.0
 11
-1.117903878
 21
2.236141634
 31
0.0
 40
0.6125552124
 41
0.8862964655
 42
2.4567882058
  0
ELLIPSE
  5
33E
100
AcDbEntity
  8
RACCORDO
100
AcDbEllipse
 62
7
  6
CONTINUOUS
 10
19.1191640699
 20
-47.7796113624
 30
0.0
 11
-1.1185045536
 21
2.2366755677
 31
0.0
 40
0.6121897086
 41
-3.8262265329
 42
-2.2557347926
  0
ELLIPSE
  5
33F
100
AcDbEntity
  8
RACCORDO
100
AcDbEllipse
 62
7
  6
CONTINUOUS
 10
20.9486978529
 20
12.4354017214
 30
0.0
 11
-0.8943231024
 21
1.7889133072
 31
0.0
 40
0.6125552124
 41
-2.255296188
 42
-0.6848044477
  0
ELLIPSE
  5
340
100
AcDbEntity
  8
RACCORDO
100
AcDbEllipse
 62
7
  6
CONTINUOUS
 10
-47.7636550212
 20
46.7915781584
 30
0.0
 11
-0.8948036428
 21
1.7893404542
 31
0.0
 40
0.6121897086
 41
-0.6846338794
 42
0.8858578609
  0
ELLIPSE
  5
341
100
AcDbEntity
  8
RACCORDO
100
AcDbEllipse
 62
7
  6
CONTINUOUS
 10
23.0329904121
 20
13.4692261964
 30
0.0
 11
-0.8943231024
 21
1.7889133072
 31
0.0
 40
0.6125552124
 41
-2.255296188
 42
-0.6848044477
  0
ELLIPSE
  5
342
100
AcDbEntity
  8
RACCORDO
100
AcDbEllipse
 62
7
  6
CONTINUOUS
 10
23.0329904121
 20
-49.8105667187
 30
0.0
 11
-0.8948036428
 21
1.7893404542
 31
0.0
 40
0.6121897086
 41
-3.1225763132
 42
-2.2557347926
  0
ELLIPSE
  5
343
100
AcDbEntity
  8
RACCORDO
100
AcDbEllipse
 62
7
  6
CONTINUOUS
 10
-45.9341212383
 20
-15.2529687083
 30
0.0
 11
-1.117903878
 21
2.236141634
 31
0.0
 40
0.6125552124
 41
0.8862964655
 42
2.4567882058
  0
ELLIPSE
  5
344
100
AcDbEntity
  8
RACCORDO
100
AcDbEllipse
 62
7
  6
CONTINUOUS
 10
-45.9341212383
 20
43.6360991492
 30
0.0
 11
-1.1185045536
 21
2.2366755677
 31
0.0
 40
0.6121897086
 41
5.5985514278
 42
7.1690431681
  0
ELLIPSE
  5
345
100
AcDbEntity
  8
RACCORDO
100
AcDbEllipse
 62
7
  6
CONTINUOUS
 10
-45.6053068933
 20
47.7883748491
 30
0.0
 11
-0.8948036428
 21
1.7893404542
 31
0.0
 40
0.6121897086
 41
-0.6846338794
 42
-0.0190163374
  0
ELLIPSE
  5
346
100
AcDbEntity
  8
RACCORDO
100
AcDbEllipse
 62
7
  6
CONTINUOUS
 10
20.9486978529
 20
-50.9350903716
 30
0.0
 11
-0.8948036428
 21
1.7893404542
 31
0.0
 40
0.6121897086
 41
2.4569587742
 42
4.0274505145
  0
ENDSEC
  0
SECTION
  2
OBJECTS
  0
DICTIONARY
  5
C
100
AcDbDictionary
280
0
281
1
  3
ACAD_GROUP
350
D
  3
ACAD_MLINESTYLE
350
17
  3
ACAD_LAYOUT
350
1A
  3
ACAD_PLOTSETTINGS
350
19
  3
ACAD_PLOTSTYLENAME
350
E
  0
DICTIONARY
  5
D
102
{ACAD_REACTORS
330
C
102
}
100
AcDbDictionary
280
0
281
1
  0
ACDBDICTIONARYWDFLT
  5
E
102
{ACAD_REACTORS
330
C
102
}
100
AcDbDictionary
281
1
  3
Normal
350
F
100
AcDbDictionaryWithDefault
340
F
  0
DICTIONARY
  5
17
102
{ACAD_REACTORS
330
C
102
}
100
AcDbDictionary
280
0
281
1
  3
Standard
350
18
  0
DICTIONARY
  5
19
102
{ACAD_REACTORS
330
C
102
}
100
AcDbDictionary
281
1
  0
DICTIONARY
  5
1A
102
{ACAD_REACTORS
330
C
102
}
100
AcDbDictionary
281
1
  3
Model
350
347
  3
Layout1
350
348
  0
ACDBPLACEHOLDER
  5
F
102
{ACAD_REACTORS
330
E
102
}
  0
MLINESTYLE
  5
18
102
{ACAD_REACTORS
330
17
102
}
100
AcDbMlineStyle
  2
STANDARD
 70
0
  3

 62
256
 51
90.0
 52
90.0
 71
2
 49
0.5
 62
256
  6
BYLAYER
 49
-0.5
 62
256
  6
BYLAYER
  0
LAYOUT
  5
347
102
{ACAD_REACTORS
330
1A
102
}
100
AcDbPlotSettings
  1

  2
none_device
  4
ISO_A4_(297.00_x_210.00_MM)
  6

 40
0.0
 41
0.0
 42
0.0
 43
0.0
 44
297.0
 45
210.0
 46
0.0
 47
0.0
 48
0.0
 49
0.0
140
0.0
141
0.0
142
1.0
143
1.0
 70
1024
 72
1
 73
0
 74
0
  7

 75
0
147
1.0
148
0.0
149
0.0
100
AcDbLayout
  1
Model
 70
0
 71
0
 10
0.0
 20
0.0
 11
297.0
 21
210.0
 12
0.0
 22
0.0
 32
0.0
 14
0.0
 24
0.0
 34
0.0
 15
0.0
 25
0.0
 35
0.0
146
0.0
 13
0.0
 23
0.0
 33
0.0
 16
1.0
 26
0.0
 36
0.0
 17
0.0
 27
1.0
 37
0.0
 76
0
330
210
345
0
346
0
  0
LAYOUT
  5
348
102
{ACAD_REACTORS
330
1A
102
}
100
AcDbPlotSettings
  1

  2
none_device
  4
ISO_A4_(297.00_x_210.00_MM)
  6

 40
0.0
 41
0.0
 42
0.0
 43
0.0
 44
297.0
 45
210.0
 46
0.0
 47
0.0
 48
0.0
 49
0.0
140
0.0
141
0.0
142
1.0
143
1.0
 70
0
 72
1
 73
0
 74
0
  7

 75
0
147
1.0
148
0.0
149
0.0
100
AcDbLayout
  1
Layout1
 70
0
 71
1
 10
0.0
 20
0.0
 11
297.0
 21
210.0
 12
0.0
 22
0.0
 32
0.0
 14
0.0
 24
0.0
 34
0.0
 15
0.0
 25
0.0
 35
0.0
146
0.0
 13
0.0
 23
0.0
 33
0.0
 16
1.0
 26
0.0
 36
0.0
 17
0.0
 27
1.0
 37
0.0
 76
0
330
211
345
0
346
0
  0
ENDSEC
  0
EOF
