  0
SECTION
  2
HEADER
  9
$ACADVER
  1
AC1024
  9
$DWGCODEPAGE
  3
ANSI_1252
  9
$EXTMAX
 10
297.0
 20
210.0
 30
0.0
  9
$EXTMIN
 10
0.0
 20
0.0
 30
0.0
  9
$LIMMIN
 10
0.0
 20
0.0
  9
$LIMMAX
 10
297.0
 20
210.0
  9
$VIEWCTR
 10
148.5
 20
105.0
  9
$VIEWSIZE
 40
210.0
  9
$CLAYER
  8
0
  9
$LTSCALE
 40
16.335
  9
$CELTYPE
  6
BYLAYER
  9
$DIMSCALE
 40
1.0
  9
$DIMASZ
 40
3.0
  9
$DIMEXO
 40
0.5
  9
$DIMDLI
 40
11.286
  9
$DIMEXE
 40
1.5
  9
$DIMCEN
 40
2.673
  9
$DIMLFAC
 40
1.0
  9
$DIMBLK
  1
_FILLED
  9
$DIMALT
 70
0
  9
$DIMALTF
 40
0.0393700787
  9
$DIMTXT
 40
3.0
  9
$DIMTOL
 70
1
  9
$DIMLIM
 70
0
  9
$DIMTFAC
 40
1.0
  9
$DIMTP
 40
0.01
  9
$DIMTM
 40
0.01
  9
$DIMGAP
 40
0.625
  9
$DIMDSEP
 70
44
  9
$AUNITS
 70
0
  9
$PDMODE
 70
3
  9
$PDSIZE
 40
3.0
  9
$HANDSEED
  5
5EF
  9
$TILEMODE
 70
1
  9
$MEASUREMENT
 70
1
  9
$INSUNITS
 70
4
  0
ENDSEC
  0
SECTION
  2
CLASSES
  0
CLASS
  1
ACDBDICTIONARYWDFLT
  2
AcDbDictionaryWithDefault
  3
AutoCAD 2000
 90
0
 91
1
280
0
281
0
  0
CLASS
  1
ACDBPLACEHOLDER
  2
AcDbPlaceHolder
  3
AutoCAD 2000
 90
0
 91
1
280
0
281
0
  0
CLASS
  1
LAYOUT
  2
AcDbLayout
  3
AutoCAD 2000
 90
0
 91
0
280
0
281
0
  0
ENDSEC
  0
SECTION
  2
TABLES
  0
TABLE
  2
VPORT
  5
8
100
AcDbSymbolTable
 70
2
  0
VPORT
  5
1F4
100
AcDbSymbolTableRecord
100
AcDbViewportTableRecord
  2
*ACTIVE
 70
0
 10
0.0
 20
0.0
 11
1.0
 21
1.0
 12
148.5
 22
105.0
 13
0.0
 23
0.0
 14
1.0
 24
1.0
 15
0.0
 25
0.0
 16
0.0
 26
0.0
 36
1.0
 17
0.0
 27
0.0
 37
0.0
 40
210.0
 41
1.4142857143
 42
50.0
 43
0.0
 44
0.0
 50
0.0
 51
0.0
 71
0
 72
100
 73
1
 74
1
 75
0
 76
0
 77
0
 78
0
  0
ENDTAB
  0
TABLE
  2
LTYPE
  5
5
100
AcDbSymbolTable
 70
6
  0
LTYPE
  5
14
100
AcDbSymbolTableRecord
100
AcDbLinetypeTableRecord
  2
BYBLOCK
 70
0
  3

 72
65
 73
0
 40
0.0
  0
LTYPE
  5
15
100
AcDbSymbolTableRecord
100
AcDbLinetypeTableRecord
  2
BYLAYER
 70
0
  3

 72
65
 73
0
 40
0.0
  0
LTYPE
  5
16
100
AcDbSymbolTableRecord
100
AcDbLinetypeTableRecord
  2
CONTINUOUS
 70
64
  3
Solid line
 72
65
 73
0
 40
0.0
  0
LTYPE
  5
1F5
100
AcDbSymbolTableRecord
100
AcDbLinetypeTableRecord
  2
CENTER
 70
64
  3
____ _ ____ _ ____ _ ____ _ ____ _ ____ _ ____
 72
65
 73
4
 40
0.6
 49
0.375
 74
0
 49
-0.075
 74
0
 49
0.075
 74
0
 49
-0.075
 74
0
  0
LTYPE
  5
1F6
100
AcDbSymbolTableRecord
100
AcDbLinetypeTableRecord
  2
HIDDEN
 70
64
  3
- - - - - - - - - - - - - - - - - - - -
 72
65
 73
2
 40
0.2
 49
0.1
 74
0
 49
-0.1
 74
0
  0
LTYPE
  5
1F7
100
AcDbSymbolTableRecord
100
AcDbLinetypeTableRecord
  2
PHANTOM
 70
64
  3
_____ _ _ _____ _ _ _____ _ _ _____
 72
65
 73
6
 40
0.8
 49
0.45
 74
0
 49
-0.05
 74
0
 49
0.1
 74
0
 49
-0.05
 74
0
 49
0.1
 74
0
 49
-0.05
 74
0
  0
LTYPE
  5
1F8
100
AcDbSymbolTableRecord
100
AcDbLinetypeTableRecord
  2
DOT
 70
64
  3
. . . . . . . . . . . . . . . . . . . .
 72
65
 73
2
 40
0.2
 49
0.1
 74
0
 49
-0.1
 74
0
  0
LTYPE
  5
1F9
100
AcDbSymbolTableRecord
100
AcDbLinetypeTableRecord
  2
DASHED
 70
64
  3
- - - - - - - - - - - - - - - - - - - -
 72
65
 73
2
 40
0.2
 49
0.1
 74
0
 49
-0.1
 74
0
  0
ENDTAB
  0
TABLE
  2
LAYER
  5
2
100
AcDbSymbolTable
 70
36
  0
LAYER
  5
10
100
AcDbSymbolTableRecord
100
AcDbLayerTableRecord
  2
0
 70
0
 62
7
  6
CONTINUOUS
370
-3
390
F
  0
LAYER
  5
1FA
100
AcDbSymbolTableRecord
100
AcDbLayerTableRecord
  2
DEFAULT_1
 70
0
 62
7
  6
CENTER
370
-3
390
F
  0
LAYER
  5
1FB
100
AcDbSymbolTableRecord
100
AcDbLayerTableRecord
  2
DEFAULT_2
 70
0
 62
7
  6
HIDDEN
370
-3
390
F
  0
LAYER
  5
1FC
100
AcDbSymbolTableRecord
100
AcDbLayerTableRecord
  2
DEFAULT_3
 70
0
 62
7
  6
PHANTOM
370
-3
390
F
  0
LAYER
  5
1FD
100
AcDbSymbolTableRecord
100
AcDbLayerTableRecord
  2
ASSI
 70
0
 62
7
  6
CONTINUOUS
370
-3
390
F
  0
LAYER
  5
1FE
100
AcDbSymbolTableRecord
100
AcDbLayerTableRecord
  2
COORDINATE
 70
0
 62
7
  6
CONTINUOUS
370
-3
390
F
  0
LAYER
  5
1FF
100
AcDbSymbolTableRecord
100
AcDbLayerTableRecord
  2
COPY_PUBLISH
 70
0
 62
7
  6
CONTINUOUS
370
-3
390
F
  0
LAYER
  5
200
100
AcDbSymbolTableRecord
100
AcDbLayerTableRecord
  2
COSMETIC
 70
0
 62
7
  6
CONTINUOUS
370
-3
390
F
  0
LAYER
  5
201
100
AcDbSymbolTableRecord
100
AcDbLayerTableRecord
  2
CURVE
 70
0
 62
7
  6
CONTINUOUS
370
-3
390
F
  0
LAYER
  5
202
100
AcDbSymbolTableRecord
100
AcDbLayerTableRecord
  2
DRAFT
 70
0
 62
7
  6
CONTINUOUS
370
-3
390
F
  0
LAYER
  5
203
100
AcDbSymbolTableRecord
100
AcDbLayerTableRecord
  2
IMPORT_IGES
 70
0
 62
7
  6
CONTINUOUS
370
-3
390
F
  0
LAYER
  5
204
100
AcDbSymbolTableRecord
100
AcDbLayerTableRecord
  2
PIANI
 70
0
 62
7
  6
CONTINUOUS
370
-3
390
F
  0
LAYER
  5
205
100
AcDbSymbolTableRecord
100
AcDbLayerTableRecord
  2
PIANI_SFORMI
 70
0
 62
7
  6
CONTINUOUS
370
-3
390
F
  0
LAYER
  5
206
100
AcDbSymbolTableRecord
100
AcDbLayerTableRecord
  2
PUNTI
 70
0
 62
7
  6
CONTINUOUS
370
-3
390
F
  0
LAYER
  5
207
100
AcDbSymbolTableRecord
100
AcDbLayerTableRecord
  2
RACCORDO
 70
0
 62
7
  6
CONTINUOUS
370
-3
390
F
  0
LAYER
  5
208
100
AcDbSymbolTableRecord
100
AcDbLayerTableRecord
  2
SMUSSO
 70
0
 62
7
  6
CONTINUOUS
370
-3
390
F
  0
LAYER
  5
209
100
AcDbSymbolTableRecord
100
AcDbLayerTableRecord
  2
SNAPLINE
 70
0
 62
7
  6
CONTINUOUS
370
-3
390
F
  0
LAYER
  5
20A
100
AcDbSymbolTableRecord
100
AcDbLayerTableRecord
  2
SUPERFICI
 70
0
 62
7
  6
CONTINUOUS
370
-3
390
F
  0
LAYER
  5
20B
100
AcDbSymbolTableRecord
100
AcDbLayerTableRecord
  2
TRASH
 70
0
 62
7
  6
CONTINUOUS
370
-3
390
F
  0
LAYER
  5
20C
100
AcDbSymbolTableRecord
100
AcDbLayerTableRecord
  2
XSEC_DATUMS
 70
0
 62
7
  6
CONTINUOUS
370
-3
390
F
  0
ENDTAB
  0
TABLE
  2
STYLE
  5
3
100
AcDbSymbolTable
 70
1
  0
STYLE
  5
11
100
AcDbSymbolTableRecord
100
AcDbTextStyleTableRecord
  2
STANDARD
 70
0
 40
0.0
 41
0.8
 50
0.0
 71
0
 42
0.2
  3
txt
  4

  0
STYLE
  5
20D
100
AcDbSymbolTableRecord
100
AcDbTextStyleTableRecord
  2
TEXTSTYLE_1
 70
0
 40
0.0
 41
0.8
 50
0.0
 71
0
 42
0.2
  3
gdt
  4

  0
ENDTAB
  0
TABLE
  2
VIEW
  5
6
100
AcDbSymbolTable
 70
0
  0
ENDTAB
  0
TABLE
  2
UCS
  5
7
100
AcDbSymbolTable
 70
0
  0
ENDTAB
  0
TABLE
  2
APPID
  5
9
100
AcDbSymbolTable
 70
1
  0
APPID
  5
20E
100
AcDbSymbolTableRecord
100
AcDbRegAppTableRecord
  2
ACAD
 70
0
  0
ENDTAB
  0
TABLE
  2
BLOCK_RECORD
  5
1
100
AcDbSymbolTable
 70
0
  0
BLOCK_RECORD
  5
20F
100
AcDbSymbolTableRecord
100
AcDbBlockTableRecord
  2
*Model_Space
  0
BLOCK_RECORD
  5
210
100
AcDbSymbolTableRecord
100
AcDbBlockTableRecord
  2
*Paper_Space
  0
BLOCK_RECORD
  5
211
100
AcDbSymbolTableRecord
100
AcDbBlockTableRecord
  2
_FILLED
  0
ENDTAB
  0
TABLE
  2
DIMSTYLE
  5
A
100
AcDbSymbolTable
 70
1
100
AcDbDimStyleTable
 71
0
  0
DIMSTYLE
105
212
100
AcDbSymbolTableRecord
100
AcDbDimStyleTableRecord
  2
STANDARD
 70
0
  3

  4

 40
1.0
 41
3.0
 42
0.5
 43
0.38
 44
1.5
 45
0.0
 46
0.0
 47
0.01
 48
0.01
140
3.0
141
0.09
142
0.0
143
25.4
144
1.0
145
0.0
146
1.0
147
0.625
 71
1
 72
0
 73
0
 74
0
 75
0
 76
0
 77
1
 78
8
 79
2
170
0
171
1
172
0
173
0
174
0
175
0
176
0
177
0
178
0
270
2
179
2
271
2
272
2
273
2
274
2
275
0
280
0
281
0
282
0
283
1
284
8
285
0
286
0
287
3
288
0
340
11
278
44
341
211
342
211
343
211
344
211
  0
ENDTAB
  0
ENDSEC
  0
SECTION
  2
BLOCKS
  0
BLOCK
  5
20
100
AcDbEntity
  8
0
100
AcDbBlockBegin
  2
*Model_Space
 70
0
 10
0.0
 20
0.0
 30
0.0
  3
*Model_Space
  1

  0
ENDBLK
  5
21
100
AcDbEntity
  8
0
100
AcDbBlockEnd
  0
BLOCK
  5
1C
100
AcDbEntity
  8
0
100
AcDbBlockBegin
  2
*Paper_Space
 70
0
 10
0.0
 20
0.0
 30
0.0
  3
*Paper_Space
  1

  0
ENDBLK
  5
1D
100
AcDbEntity
  8
0
100
AcDbBlockEnd
  0
BLOCK
  5
213
100
AcDbEntity
  8
0
100
AcDbBlockBegin
  2
_FILLED
 70
64
 10
0.0
 20
0.0
  3
_FILLED
  1

  0
SOLID
  5
214
100
AcDbEntity
  8
0
  6
BYBLOCK
 62
0
100
AcDbTrace
 10
0.0
 20
0.0
 11
-1.0
 21
0.3166666667
 12
-1.0
 22
-0.3166666667
 13
-1.0
 23
-0.3166666667
  0
ENDBLK
  5
215
100
AcDbEntity
  8
0
  6
BYBLOCK
 62
0
100
AcDbBlockEnd
  0
ENDSEC
  0
SECTION
  2
ENTITIES
  0
LINE
  5
216
100
AcDbEntity
  8
RACCORDO
100
AcDbLine
 62
250
  6
CONTINUOUS
 10
-52.0732559586
 20
46.9935827985
 11
-52.095164248
 21
46.9372295998
  0
LINE
  5
217
100
AcDbEntity
  8
RACCORDO
100
AcDbLine
 62
250
  6
CONTINUOUS
 10
-52.0510589927
 20
47.0496117443
 11
-52.0732559586
 21
46.9935827985
  0
LINE
  5
218
100
AcDbEntity
  8
RACCORDO
100
AcDbLine
 62
250
  6
CONTINUOUS
 10
-52.0285766787
 20
47.1053075213
 11
-52.0510589927
 21
47.0496117443
  0
LINE
  5
219
100
AcDbEntity
  8
RACCORDO
100
AcDbLine
 62
250
  6
CONTINUOUS
 10
-52.0058123707
 20
47.1606612632
 11
-52.0285766787
 21
47.1053075213
  0
LINE
  5
21A
100
AcDbEntity
  8
RACCORDO
100
AcDbLine
 62
250
  6
CONTINUOUS
 10
-51.9827694667
 20
47.2156641571
 11
-52.0058123707
 21
47.1606612632
  0
LINE
  5
21B
100
AcDbEntity
  8
RACCORDO
100
AcDbLine
 62
250
  6
CONTINUOUS
 10
-51.9594514297
 20
47.2703074498
 11
-51.9827694667
 21
47.2156641571
  0
LINE
  5
21C
100
AcDbEntity
  8
RACCORDO
100
AcDbLine
 62
250
  6
CONTINUOUS
 10
-51.9358617463
 20
47.3245824414
 11
-51.9594514297
 21
47.2703074498
  0
LINE
  5
21D
100
AcDbEntity
  8
RACCORDO
100
AcDbLine
 62
250
  6
CONTINUOUS
 10
-51.9120039442
 20
47.3784804903
 11
-51.9358617463
 21
47.3245824414
  0
LINE
  5
21E
100
AcDbEntity
  8
RACCORDO
100
AcDbLine
 62
250
  6
CONTINUOUS
 10
-51.8878816155
 20
47.4319930185
 11
-51.9120039442
 21
47.3784804903
  0
LINE
  5
21F
100
AcDbEntity
  8
RACCORDO
100
AcDbLine
 62
250
  6
CONTINUOUS
 10
-51.8634983724
 20
47.485111505
 11
-51.8878816155
 21
47.4319930185
  0
LINE
  5
220
100
AcDbEntity
  8
RACCORDO
100
AcDbLine
 62
250
  6
CONTINUOUS
 10
-51.838857867
 20
47.5378274908
 11
-51.8634983724
 21
47.485111505
  0
LINE
  5
221
100
AcDbEntity
  8
RACCORDO
100
AcDbLine
 62
250
  6
CONTINUOUS
 10
-51.8139638158
 20
47.590132585
 11
-51.838857867
 21
47.5378274908
  0
LINE
  5
222
100
AcDbEntity
  8
RACCORDO
100
AcDbLine
 62
250
  6
CONTINUOUS
 10
-51.7888199527
 20
47.6420184576
 11
-51.8139638158
 21
47.590132585
  0
LINE
  5
223
100
AcDbEntity
  8
RACCORDO
100
AcDbLine
 62
250
  6
CONTINUOUS
 10
-51.7634300509
 20
47.6934768448
 11
-51.7888199527
 21
47.6420184576
  0
LINE
  5
224
100
AcDbEntity
  8
RACCORDO
100
AcDbLine
 62
250
  6
CONTINUOUS
 10
-51.7377979461
 20
47.7444995552
 11
-51.7634300509
 21
47.6934768448
  0
LWPOLYLINE
  5
225
100
AcDbEntity
  8
RACCORDO
100
AcDbPolyline
 62
7
  6
CONTINUOUS
 90
6
 70
0
 10
-50.43875041
 20
45.8076902242
 10
-50.7643794171
 20
45.1714390297
 10
-51.0418024142
 20
44.4772332171
 10
-51.2671996532
 20
43.7410658018
 10
-51.4371672911
 20
42.9774981043
 10
-51.5478099166
 20
42.2042149907
  0
LINE
  5
226
100
AcDbEntity
  8
RACCORDO
100
AcDbLine
 62
250
  6
CONTINUOUS
 10
-51.7119274885
 20
47.7950784622
 11
-51.7377979461
 21
47.7444995552
  0
LINE
  5
227
100
AcDbEntity
  8
RACCORDO
100
AcDbLine
 62
250
  6
CONTINUOUS
 10
-51.6858225644
 20
47.8452055089
 11
-51.7119274885
 21
47.7950784622
  0
LINE
  5
228
100
AcDbEntity
  8
RACCORDO
100
AcDbLine
 62
250
  6
CONTINUOUS
 10
-51.659487123
 20
47.8948727147
 11
-51.6858225644
 21
47.8452055089
  0
LINE
  5
229
100
AcDbEntity
  8
RACCORDO
100
AcDbLine
 62
250
  6
CONTINUOUS
 10
-51.6329251245
 20
47.944072167
 11
-51.659487123
 21
47.8948727147
  0
LINE
  5
22A
100
AcDbEntity
  8
RACCORDO
100
AcDbLine
 62
250
  6
CONTINUOUS
 10
-51.6061405652
 20
47.9927960273
 11
-51.6329251245
 21
47.944072167
  0
LWPOLYLINE
  5
22B
100
AcDbEntity
  8
RACCORDO
100
AcDbPolyline
 62
250
  6
CONTINUOUS
 90
46
 70
0
 10
-51.0102761354
 20
47.8090332196
 10
-51.0515740817
 20
47.7352745565
 10
-51.0922722248
 20
47.660385194
 10
-51.1323705647
 20
47.5843651323
 10
-51.1718850663
 20
47.507182211
 10
-51.2107997648
 20
47.4288685905
 10
-51.2490667645
 20
47.3495207513
 10
-51.2866852768
 20
47.2691373972
 10
-51.3236560904
 20
47.1877198245
 10
-51.3599336763
 20
47.1053684033
 10
-51.3955171705
 20
47.0220820081
 10
-51.430407437
 20
46.9378617643
 10
-51.4645615387
 20
46.8528114189
 10
-51.4979785753
 20
46.7669299361
 10
-51.5306594471
 20
46.6802183517
 10
-51.5625639185
 20
46.5927835192
 10
-51.5936910298
 20
46.504624559
 10
-51.6240417407
 20
46.4157423507
 10
-51.6535786951
 20
46.3262463873
 10
-51.6823008863
 20
46.2361359329
 10
-51.710209321
 20
46.1454117235
 10
-51.7372696625
 20
46.0541854594
 10
-51.7634808729
 20
45.9624565062
 10
-51.7888439901
 20
45.8702254984
 10
-51.8133277911
 20
45.7776060396
 10
-51.836931194
 20
45.6845976515
 10
-51.8596552807
 20
45.5912008125
 10
-51.8814720738
 20
45.4975305615
 10
-51.9023804587
 20
45.4035865459
 10
-51.9223815501
 20
45.3093691183
 10
-51.9414507151
 20
45.2149943751
 10
-51.9595867955
 20
45.1204622005
 10
-51.9767909496
 20
45.0257727103
 10
-51.9930420194
 20
44.9310423492
 10
-52.0083388421
 20
44.836271017
 10
-52.0226825806
 20
44.741458814
 10
-52.0360555652
 20
44.6467224851
 10
-52.0484566218
 20
44.5520618914
 10
-52.0598869245
 20
44.4574771719
 10
-52.0703323261
 20
44.3630854887
 10
-52.0797916285
 20
44.2688861005
 10
-52.0882660299
 20
44.1748797485
 10
-52.0957449775
 20
44.0811858183
 10
-52.1022249539
 20
43.987844105
 10
-52.1077094765
 20
43.8948148134
 10
-52.1121985453
 20
43.8020979435
  0
LINE
  5
22C
100
AcDbEntity
  8
RACCORDO
100
AcDbLine
 62
250
  6
CONTINUOUS
 10
-51.5791375024
 20
48.0410365375
 11
-51.6061405652
 21
47.9927960273
  0
LINE
  5
22D
100
AcDbEntity
  8
RACCORDO
100
AcDbLine
 62
250
  6
CONTINUOUS
 10
-51.5519200033
 20
48.0887860109
 11
-51.5791375024
 21
48.0410365375
  0
LINE
  5
22E
100
AcDbEntity
  8
RACCORDO
100
AcDbLine
 62
250
  6
CONTINUOUS
 10
-51.5244921672
 20
48.1360368391
 11
-51.5519200033
 21
48.0887860109
  0
LWPOLYLINE
  5
22F
100
AcDbEntity
  8
RACCORDO
100
AcDbPolyline
 62
250
  6
CONTINUOUS
 90
46
 70
0
 10
-51.2248504308
 20
48.1264881481
 10
-51.2706197352
 20
48.0482764646
 10
-51.3157796913
 20
47.9686698588
 10
-51.3603110017
 20
47.8877034553
 10
-51.4041951805
 20
47.8054130549
 10
-51.4474129331
 20
47.7218348771
 10
-51.4899441667
 20
47.637005548
 10
-51.5317706648
 20
47.5509625197
 10
-51.5728746043
 20
47.4637437039
 10
-51.6132369352
 20
47.3753872143
 10
-51.6528404008
 20
47.2859319673
 10
-51.6916680937
 20
47.1954174409
 10
-51.7297019746
 20
47.1038833115
 10
-51.7669257507
 20
47.0113699629
 10
-51.8033235688
 20
46.9179181376
 10
-51.8388785679
 20
46.8235686913
 10
-51.8735755454
 20
46.7283631467
 10
-51.9073996941
 20
46.6323435069
 10
-51.9403352965
 20
46.535551908
 10
-51.9723682334
 20
46.43803105
 10
-52.0034848799
 20
46.3398238383
 10
-52.0336708375
 20
46.2409731943
 10
-52.0629131913
 20
46.141522605
 10
-52.0911994732
 20
46.0415159185
 10
-52.1185165575
 20
45.9409969877
 10
-52.1448527371
 20
45.8400100875
 10
-52.1701968074
 20
45.7385996703
 10
-52.1945370236
 20
45.6368101589
 10
-52.2178629654
 20
45.5346863077
 10
-52.2401646973
 20
45.4322731285
 10
-52.2614318549
 20
45.3296156463
 10
-52.2816553021
 20
45.2267591441
 10
-52.3008264683
 20
45.1237487918
 10
-52.3189365036
 20
45.0206295714
 10
-52.3359776437
 20
44.9174467956
 10
-52.3519426402
 20
44.8142459301
 10
-52.3668240946
 20
44.7110722228
 10
-52.3806156264
 20
44.6079709377
 10
-52.3933113681
 20
44.5049875602
 10
-52.4049053979
 20
44.4021676167
 10
-52.415392667
 20
44.2995570247
 10
-52.4247688305
 20
44.1972002189
 10
-52.4330296842
 20
44.0951403719
 10
-52.4401715786
 20
43.9934217707
 10
-52.4461914826
 20
43.8920897804
 10
-52.4510867806
 20
43.7911889806
  0
LINE
  5
230
100
AcDbEntity
  8
RACCORDO
100
AcDbLine
 62
250
  6
CONTINUOUS
 10
-51.4968581535
 20
48.1827814975
 11
-51.5244921672
 21
48.1360368391
  0
LINE
  5
231
100
AcDbEntity
  8
RACCORDO
100
AcDbLine
 62
250
  6
CONTINUOUS
 10
-51.4690221278
 20
48.2290125363
 11
-51.4968581535
 21
48.1827814975
  0
LINE
  5
232
100
AcDbEntity
  8
RACCORDO
100
AcDbLine
 62
250
  6
CONTINUOUS
 10
-51.4409882868
 20
48.2747225871
 11
-51.4690221278
 21
48.2290125363
  0
LINE
  5
233
100
AcDbEntity
  8
RACCORDO
100
AcDbLine
 62
250
  6
CONTINUOUS
 10
-51.4127608864
 20
48.3199043693
 11
-51.4409882868
 21
48.2747225871
  0
LINE
  5
234
100
AcDbEntity
  8
RACCORDO
100
AcDbLine
 62
250
  6
CONTINUOUS
 10
-51.3843441858
 20
48.3645506808
 11
-51.4127608864
 21
48.3199043693
  0
LINE
  5
235
100
AcDbEntity
  8
RACCORDO
100
AcDbLine
 62
250
  6
CONTINUOUS
 10
-51.355742475
 20
48.4086544041
 11
-51.3843441858
 21
48.3645506808
  0
LINE
  5
236
100
AcDbEntity
  8
RACCORDO
100
AcDbLine
 62
7
  6
CONTINUOUS
 10
-50.0704615489
 20
46.3676627675
 11
-50.43875041
 21
45.8076902242
  0
LINE
  5
237
100
AcDbEntity
  8
RACCORDO
100
AcDbLine
 62
7
  6
CONTINUOUS
 10
-49.8904677299
 20
46.5924534474
 11
-50.0704615489
 21
46.3676627675
  0
LINE
  5
238
100
AcDbEntity
  8
RACCORDO
100
AcDbLine
 62
250
  6
CONTINUOUS
 10
-49.6540171399
 20
46.5889790526
 11
-49.5830629349
 21
46.6740995431
  0
LINE
  5
239
100
AcDbEntity
  8
RACCORDO
100
AcDbLine
 62
7
  6
CONTINUOUS
 10
-49.8934570688
 20
46.5889733628
 11
-49.8904723231
 21
46.592457362
  0
LWPOLYLINE
  5
23A
100
AcDbEntity
  8
RACCORDO
100
AcDbPolyline
 62
250
  6
CONTINUOUS
 90
4
 70
0
 10
-49.5830629007
 20
46.6740995363
 10
-49.4959974258
 20
46.7736170303
 10
-49.4051922081
 20
46.8727177133
 10
-49.3233524037
 20
46.9576624862
  0
LINE
  5
23B
100
AcDbEntity
  8
RACCORDO
100
AcDbLine
 62
7
  6
CONTINUOUS
 10
-49.641929094
 20
46.8649628854
 11
-49.8934570688
 21
46.5889733628
  0
LINE
  5
23C
100
AcDbEntity
  8
RACCORDO
100
AcDbLine
 62
7
  6
CONTINUOUS
 10
-49.5030104638
 20
46.9931387408
 11
-49.641929094
 21
46.8649628854
  0
LWPOLYLINE
  5
23D
100
AcDbEntity
  8
RACCORDO
100
AcDbPolyline
 62
250
  6
CONTINUOUS
 90
6
 70
0
 10
-49.8904723231
 20
46.592457362
 10
-49.8457801599
 20
46.6322011851
 10
-49.7908022245
 20
46.6610468408
 10
-49.7273749219
 20
46.677924493
 10
-49.6574194232
 20
46.6823229252
 10
-49.5830546332
 20
46.6741089074
  0
LWPOLYLINE
  5
23E
100
AcDbEntity
  8
RACCORDO
100
AcDbPolyline
 62
7
  6
CONTINUOUS
 90
64
 70
0
 10
-50.7497947295
 20
49.5152601861
 10
-50.8045691319
 20
49.4805670596
 10
-50.8703370938
 20
49.4365090884
 10
-50.9360295608
 20
49.3898259766
 10
-51.0017364402
 20
49.3403904038
 10
-51.0673317091
 20
49.2882316686
 10
-51.1324881272
 20
49.2335696612
 10
-51.1971945821
 20
49.1763924844
 10
-51.2614556485
 20
49.116672595
 10
-51.3249905651
 20
49.0546639322
 10
-51.3877991096
 20
48.9903773706
 10
-51.4498926061
 20
48.9238094615
 10
-51.5110239493
 20
48.8552489384
 10
-51.5711792286
 20
48.784753461
 10
-51.6303953627
 20
48.7123192079
 10
-51.6885110174
 20
48.6381917922
 10
-51.7455077589
 20
48.5624565455
 10
-51.8014305041
 20
48.4851131082
 10
-51.8562146357
 20
48.4063114002
 10
-51.9098639004
 20
48.326111281
 10
-51.9623963095
 20
48.2445489327
 10
-52.0137664829
 20
48.1617600201
 10
-52.0639611681
 20
48.077836162
 10
-52.113012678
 20
47.9927918488
 10
-52.1609394433
 20
47.906658838
 10
-52.2077415763
 20
47.8194986656
 10
-52.2534299645
 20
47.7313514701
 10
-52.2980322551
 20
47.6422201041
 10
-52.3415507228
 20
47.5521526283
 10
-52.3839868787
 20
47.4611975268
 10
-52.4253610863
 20
47.3693596666
 10
-52.4656729053
 20
47.2766854603
 10
-52.5049214036
 20
47.1832217438
 10
-52.5431214296
 20
47.0889751262
 10
-52.5802707107
 20
46.993990433
 10
-52.6163663541
 20
46.898313721
 10
-52.6514185263
 20
46.8019543116
 10
-52.6854233181
 20
46.7049567822
 10
-52.7183767811
 20
46.6073657944
 10
-52.7502860142
 20
46.5091914093
 10
-52.7811461402
 20
46.4104773389
 10
-52.8109521563
 20
46.3112679205
 10
-52.8397084678
 20
46.2115745652
 10
-52.8674098073
 20
46.111439148
 10
-52.8940500414
 20
46.0109070808
 10
-52.9196302962
 20
45.9099953834
 10
-52.9441444997
 20
45.8087470701
 10
-52.9675865206
 20
45.7072060954
 10
-52.9899558523
 20
45.605391088
 10
-53.0112460309
 20
45.5033455148
 10
-53.0314508179
 20
45.4011127302
 10
-53.0505686891
 20
45.2987112006
 10
-53.068592936
 20
45.1961846728
 10
-53.0855171986
 20
45.0935761452
 10
-53.1013391496
 20
44.9909027958
 10
-53.1160518991
 20
44.8882082465
 10
-53.1296488344
 20
44.7855357614
 10
-53.1421266693
 20
44.6829018136
 10
-53.1534783049
 20
44.5803502323
 10
-53.1636969136
 20
44.4779246157
 10
-53.1727782058
 20
44.3756407849
 10
-53.1807155475
 20
44.2735330027
 10
-53.1875009379
 20
44.1716544691
 10
-53.1924393067
 20
44.0836796478
  0
LWPOLYLINE
  5
23F
100
AcDbEntity
  8
RACCORDO
100
AcDbPolyline
 62
7
  6
CONTINUOUS
 90
4
 70
0
 10
-46.7981063117
 20
51.9616961419
 10
-49.1034643354
 20
50.5332258012
 10
-49.9183950165
 20
50.0288616584
 10
-50.7497843081
 20
49.5152666164
  0
LWPOLYLINE
  5
240
100
AcDbEntity
  8
RACCORDO
100
AcDbPolyline
 62
7
  6
CONTINUOUS
 90
5
 70
0
 10
-44.0557632163
 20
53.6546090505
 10
-44.6972326573
 20
53.2599226735
 10
-45.3750730743
 20
52.8418434579
 10
-46.0753147825
 20
52.4090766603
 10
-46.7981063117
 20
51.9616961419
  0
LWPOLYLINE
  5
241
100
AcDbEntity
  8
RACCORDO
100
AcDbPolyline
 62
250
  6
CONTINUOUS
 90
74
 70
0
 10
-50.2089237304
 20
49.6025597285
 10
-50.2250324886
 20
49.592704648
 10
-50.2411390216
 20
49.5826648992
 10
-50.2572427062
 20
49.5724408834
 10
-50.2733429042
 20
49.562033011
 10
-50.2894390076
 20
49.5514416964
 10
-50.3055304394
 20
49.5406673576
 10
-50.3216165803
 20
49.529710422
 10
-50.3376968045
 20
49.5185713293
 10
-50.3537705246
 20
49.5072505263
 10
-50.369837121
 20
49.4957484626
 10
-50.3858959698
 20
49.4840655986
 10
-50.4019464784
 20
49.4722024075
 10
-50.417988025
 20
49.4601593627
 10
-50.4340199898
 20
49.4479369439
 10
-50.4500417841
 20
49.4355356439
 10
-50.4660527883
 20
49.4229559568
 10
-50.482052383
 20
49.4101983842
 10
-50.49803998
 20
49.3972634409
 10
-50.514014961
 20
49.3841516422
 10
-50.5299767081
 20
49.3708635107
 10
-50.5459246354
 20
49.3573995819
 10
-50.561858126
 20
49.3437603923
 10
-50.5777765636
 20
49.3299464851
 10
-50.5936793641
 20
49.3159584169
 10
-50.6095659124
 20
49.3017967449
 10
-50.6254355941
 20
49.287462033
 10
-50.6412878268
 20
49.2729548586
 10
-50.6571219974
 20
49.2582757993
 10
-50.6729374939
 20
49.2434254397
 10
-50.6887337355
 20
49.2284043771
 10
-50.7045101117
 20
49.2132132095
 10
-50.7202660126
 20
49.197852542
 10
-50.7360008593
 20
49.1823229921
 10
-50.7517140436
 20
49.1666251782
 10
-50.7674049582
 20
49.1507597251
 10
-50.7830730271
 20
49.1347272706
 10
-50.7987176449
 20
49.1185284527
 10
-50.814338207
 20
49.1021639164
 10
-50.8299341403
 20
49.085634319
 10
-50.8455048423
 20
49.0689403184
 10
-50.8610497114
 20
49.0520825791
 10
-50.8765681775
 20
49.0350617781
 10
-50.8920596411
 20
49.0178785928
 10
-50.9075235038
 20
49.000533707
 10
-50.9229591986
 20
48.9830278168
 10
-50.9383661296
 20
48.9653616187
 10
-50.9537437016
 20
48.9475358159
 10
-50.9690913508
 20
48.9295511235
 10
-50.9844084846
 20
48.9114082573
 10
-50.9996945117
 20
48.8931079391
 10
-51.0149488721
 20
48.8746509028
 10
-51.0301709769
 20
48.8560378829
 10
-51.0453602387
 20
48.8372696199
 10
-51.0605161011
 20
48.8183468662
 10
-51.0756379796
 20
48.7992703748
 10
-51.0907252906
 20
48.7800409045
 10
-51.1057774816
 20
48.7606592262
 10
-51.1207939721
 20
48.7411261108
 10
-51.135774183
 20
48.7214423354
 10
-51.1507175658
 20
48.7016086886
 10
-51.1656235445
 20
48.6816259592
 10
-51.1804915442
 20
48.6614949422
 10
-51.1953210206
 20
48.6412164439
 10
-51.2101114021
 20
48.6207912711
 10
-51.2248621186
 20
48.600220236
 10
-51.2395726307
 20
48.5795041624
 10
-51.2542423715
 20
48.5586438743
 10
-51.2688707759
 20
48.5376402013
 10
-51.283457309
 20
48.5164939843
 10
-51.2980014092
 20
48.4952060644
 10
-51.3125025163
 20
48.4737772881
 10
-51.3269601004
 20
48.4522085132
 10
-51.355742475
 20
48.4086544041
  0
LWPOLYLINE
  5
242
100
AcDbEntity
  8
RACCORDO
100
AcDbPolyline
 62
7
  6
CONTINUOUS
 90
25
 70
0
 10
-44.0557647534
 20
53.6546115825
 10
-44.0467599938
 20
53.6600801008
 10
-44.0177319557
 20
53.6768352673
 10
-43.9881315839
 20
53.6926083927
 10
-43.9579305835
 20
53.7074146243
 10
-43.9271572494
 20
53.7212388148
 10
-43.8959002374
 20
53.734032386
 10
-43.8641516011
 20
53.7457909902
 10
-43.8319192869
 20
53.756518975
 10
-43.7993157895
 20
53.7661808052
 10
-43.7663538403
 20
53.7747677504
 10
-43.7330207079
 20
53.7822885409
 10
-43.6993906925
 20
53.7887338316
 10
-43.6654824933
 20
53.7941019383
 10
-43.6312774111
 20
53.7983945452
 10
-43.5967936492
 20
53.8016073597
 10
-43.5620008568
 20
53.8037420894
 10
-43.5269293846
 20
53.8047970268
 10
-43.4916884882
 20
53.8047627562
 10
-43.4562718467
 20
53.8036319441
 10
-43.4206857809
 20
53.8014119241
 10
-43.3850585085
 20
53.7981152809
 10
-43.3494327687
 20
53.7937462098
 10
-43.3137658224
 20
53.7883005156
 10
-43.2780576694
 20
53.7817781984
  0
LINE
  5
243
100
AcDbEntity
  8
RACCORDO
100
AcDbLine
 62
250
  6
CONTINUOUS
 10
-45.7882296215
 20
52.2727824299
 11
-48.3121535648
 21
50.746472912
  0
LINE
  5
244
100
AcDbEntity
  8
RACCORDO
100
AcDbLine
 62
250
  6
CONTINUOUS
 10
-48.3121535648
 20
50.746472912
 11
-48.8172214146
 21
50.4412796953
  0
LWPOLYLINE
  5
245
100
AcDbEntity
  8
RACCORDO
100
AcDbPolyline
 62
250
  6
CONTINUOUS
 90
3
 70
0
 10
-48.8172214146
 20
50.4412796953
 10
-49.7617772576
 20
49.8716910759
 10
-50.2089237296
 20
49.6025597283
  0
LWPOLYLINE
  5
246
100
AcDbEntity
  8
RACCORDO
100
AcDbPolyline
 62
250
  6
CONTINUOUS
 90
6
 70
0
 10
-43.2780576694
 20
53.7817781984
 10
-43.6524813529
 20
53.5578316039
 10
-44.0444803598
 20
53.3228639292
 10
-44.4540546901
 20
53.0768751745
 10
-44.8814210868
 20
52.8196995075
 10
-45.7882296215
 20
52.2727824299
  0
LINE
  5
247
100
AcDbEntity
  8
RACCORDO
100
AcDbLine
 62
250
  6
CONTINUOUS
 10
-52.5731543628
 20
45.2960975175
 11
-52.5856499966
 21
45.234428566
  0
LINE
  5
248
100
AcDbEntity
  8
RACCORDO
100
AcDbLine
 62
250
  6
CONTINUOUS
 10
-52.5602964573
 20
45.357712308
 11
-52.5731543628
 21
45.2960975175
  0
LINE
  5
249
100
AcDbEntity
  8
RACCORDO
100
AcDbLine
 62
250
  6
CONTINUOUS
 10
-52.5470781299
 20
45.4192631361
 11
-52.5602964573
 21
45.357712308
  0
LINE
  5
24A
100
AcDbEntity
  8
RACCORDO
100
AcDbLine
 62
250
  6
CONTINUOUS
 10
-52.5335012807
 20
45.4807402094
 11
-52.5470781299
 21
45.4192631361
  0
LINE
  5
24B
100
AcDbEntity
  8
RACCORDO
100
AcDbLine
 62
250
  6
CONTINUOUS
 10
-52.5195678655
 20
45.5421337479
 11
-52.5335012807
 21
45.4807402094
  0
LINE
  5
24C
100
AcDbEntity
  8
RACCORDO
100
AcDbLine
 62
250
  6
CONTINUOUS
 10
-52.5052799048
 20
45.6034339857
 11
-52.5195678655
 21
45.5421337479
  0
LINE
  5
24D
100
AcDbEntity
  8
RACCORDO
100
AcDbLine
 62
250
  6
CONTINUOUS
 10
-52.4906394676
 20
45.66463117
 11
-52.5052799048
 21
45.6034339857
  0
LINE
  5
24E
100
AcDbEntity
  8
RACCORDO
100
AcDbLine
 62
250
  6
CONTINUOUS
 10
-52.4756486761
 20
45.7257155653
 11
-52.4906394676
 21
45.66463117
  0
LINE
  5
24F
100
AcDbEntity
  8
RACCORDO
100
AcDbLine
 62
250
  6
CONTINUOUS
 10
-52.460309718
 20
45.7866774545
 11
-52.4756486761
 21
45.7257155653
  0
LINE
  5
250
100
AcDbEntity
  8
RACCORDO
100
AcDbLine
 62
250
  6
CONTINUOUS
 10
-52.4446248263
 20
45.8475071389
 11
-52.460309718
 21
45.7866774545
  0
LINE
  5
251
100
AcDbEntity
  8
RACCORDO
100
AcDbLine
 62
250
  6
CONTINUOUS
 10
-52.4285962877
 20
45.9081949398
 11
-52.4446248263
 21
45.8475071389
  0
LINE
  5
252
100
AcDbEntity
  8
RACCORDO
100
AcDbLine
 62
250
  6
CONTINUOUS
 10
-52.4122264543
 20
45.9687312032
 11
-52.4285962877
 21
45.9081949398
  0
LINE
  5
253
100
AcDbEntity
  8
RACCORDO
100
AcDbLine
 62
250
  6
CONTINUOUS
 10
-52.3955177217
 20
46.0291062982
 11
-52.4122264543
 21
45.9687312032
  0
LINE
  5
254
100
AcDbEntity
  8
RACCORDO
100
AcDbLine
 62
250
  6
CONTINUOUS
 10
-52.3784725368
 20
46.0893106182
 11
-52.3955177217
 21
46.0291062982
  0
LINE
  5
255
100
AcDbEntity
  8
RACCORDO
100
AcDbLine
 62
250
  6
CONTINUOUS
 10
-52.3610934121
 20
46.1493345859
 11
-52.3784725368
 21
46.0893106182
  0
LINE
  5
256
100
AcDbEntity
  8
RACCORDO
100
AcDbLine
 62
250
  6
CONTINUOUS
 10
-52.3433829003
 20
46.2091686508
 11
-52.3610934121
 21
46.1493345859
  0
LINE
  5
257
100
AcDbEntity
  8
RACCORDO
100
AcDbLine
 62
250
  6
CONTINUOUS
 10
-52.3253436048
 20
46.2688032917
 11
-52.3433829003
 21
46.2091686508
  0
LINE
  5
258
100
AcDbEntity
  8
RACCORDO
100
AcDbLine
 62
250
  6
CONTINUOUS
 10
-52.3069781957
 20
46.3282290214
 11
-52.3253436048
 21
46.2688032917
  0
LINE
  5
259
100
AcDbEntity
  8
RACCORDO
100
AcDbLine
 62
250
  6
CONTINUOUS
 10
-52.2882893808
 20
46.3874363833
 11
-52.3069781957
 21
46.3282290214
  0
LINE
  5
25A
100
AcDbEntity
  8
RACCORDO
100
AcDbLine
 62
250
  6
CONTINUOUS
 10
-52.2692799181
 20
46.4464159556
 11
-52.2882893808
 21
46.3874363833
  0
LINE
  5
25B
100
AcDbEntity
  8
RACCORDO
100
AcDbLine
 62
250
  6
CONTINUOUS
 10
-52.2499526314
 20
46.5051583554
 11
-52.2692799181
 21
46.4464159556
  0
LINE
  5
25C
100
AcDbEntity
  8
RACCORDO
100
AcDbLine
 62
250
  6
CONTINUOUS
 10
-52.2303103798
 20
46.5636542343
 11
-52.2499526314
 21
46.5051583554
  0
LINE
  5
25D
100
AcDbEntity
  8
RACCORDO
100
AcDbLine
 62
250
  6
CONTINUOUS
 10
-52.2103560699
 20
46.621894283
 11
-52.2303103798
 21
46.5636542343
  0
LINE
  5
25E
100
AcDbEntity
  8
RACCORDO
100
AcDbLine
 62
250
  6
CONTINUOUS
 10
-52.1900926749
 20
46.6798692353
 11
-52.2103560699
 21
46.621894283
  0
LINE
  5
25F
100
AcDbEntity
  8
RACCORDO
100
AcDbLine
 62
250
  6
CONTINUOUS
 10
-52.1695232
 20
46.7375698644
 11
-52.1900926749
 21
46.6798692353
  0
LINE
  5
260
100
AcDbEntity
  8
RACCORDO
100
AcDbLine
 62
250
  6
CONTINUOUS
 10
-52.1486506984
 20
46.794986986
 11
-52.1695232
 21
46.7375698644
  0
LINE
  5
261
100
AcDbEntity
  8
RACCORDO
100
AcDbLine
 62
250
  6
CONTINUOUS
 10
-52.127478289
 20
46.8521114645
 11
-52.1486506984
 21
46.794986986
  0
LWPOLYLINE
  5
262
100
AcDbEntity
  8
RACCORDO
100
AcDbPolyline
 62
250
  6
CONTINUOUS
 90
3
 70
0
 10
-52.095164248
 20
46.9372295998
 10
-52.1060091212
 20
46.9089342077
 10
-52.127478289
 20
46.8521114645
  0
LWPOLYLINE
  5
263
100
AcDbEntity
  8
RACCORDO
100
AcDbPolyline
 62
250
  6
CONTINUOUS
 90
12
 70
0
 10
-50.4903765134
 20
45.1837060123
 10
-50.4142153505
 20
45.3495305024
 10
-50.3372753733
 20
45.5075878025
 10
-50.2598837448
 20
45.6577843022
 10
-50.182302582
 20
45.8001943194
 10
-50.1047739158
 20
45.9349336067
 10
-50.0275809681
 20
46.0620348564
 10
-49.9509422464
 20
46.1816639129
 10
-49.8750551672
 20
46.2940116472
 10
-49.8001543164
 20
46.3991991379
 10
-49.7264282912
 20
46.4974304181
 10
-49.6540171399
 20
46.5889790526
  0
LINE
  5
264
100
AcDbEntity
  8
RACCORDO
100
AcDbLine
 62
250
  6
CONTINUOUS
 10
-52.7440460446
 20
-31.9202180823
 11
-52.7381258018
 21
-31.9761704261
  0
LINE
  5
265
100
AcDbEntity
  8
RACCORDO
100
AcDbLine
 62
250
  6
CONTINUOUS
 10
-52.7495800145
 20
-31.8639257827
 11
-52.7440460446
 21
-31.9202180823
  0
LINE
  5
266
100
AcDbEntity
  8
RACCORDO
100
AcDbLine
 62
250
  6
CONTINUOUS
 10
-52.7547270109
 20
-31.8073024066
 11
-52.7495800145
 21
-31.8639257827
  0
LWPOLYLINE
  5
267
100
AcDbEntity
  8
RACCORDO
100
AcDbPolyline
 62
7
  6
CONTINUOUS
 90
43
 70
0
 10
-53.1924392843
 20
44.0836800846
 10
-53.2789293957
 20
42.3543289119
 10
-53.3623654121
 20
40.5991429567
 10
-53.4418970313
 20
38.8337142474
 10
-53.5174972507
 20
37.0574704165
 10
-53.5890845187
 20
35.271109028
 10
-53.6565387967
 20
33.4765907124
 10
-53.7198245102
 20
31.6739717435
 10
-53.7789071102
 20
29.8633092773
 10
-53.8336983929
 20
28.0465527646
 10
-53.884180143
 20
26.2237528288
 10
-53.9303351366
 20
24.3949596119
 10
-53.972106478
 20
22.5621083614
 10
-54.009492827
 20
20.7252425923
 10
-54.0424937012
 20
18.8844049257
 10
-54.071082606
 20
17.0415149319
 10
-54.0952743439
 20
15.1966076494
 10
-54.1150843689
 20
13.3497179016
 10
-54.130515393
 20
11.5027498434
 10
-54.1415974001
 20
9.6557314216
 10
-54.148360697
 20
7.8086869997
 10
-54.1508367707
 20
5.9634996838
 10
-54.1490544659
 20
4.1201983571
 10
-54.1429837908
 20
2.2788049723
 10
-54.1325831938
 20
0.4411821826
 10
-54.1178133652
 20
-1.3926190344
 10
-54.0986348231
 20
-3.222558632
 10
-54.0750336922
 20
-5.0468056685
 10
-54.0469843013
 20
-6.8653223745
 10
-54.0144614541
 20
-8.6780713765
 10
-53.9774791101
 20
-10.4832388477
 10
-53.9360266025
 20
-12.2807969832
 10
-53.8900939728
 20
-14.0707173297
 10
-53.8397243305
 20
-15.8512029867
 10
-53.7849228979
 20
-17.6222369615
 10
-53.7256957718
 20
-19.3838017514
 10
-53.662116276
 20
-21.134118856
 10
-53.5942062388
 20
-22.8731822911
 10
-53.5219884022
 20
-24.6009879105
 10
-53.4455669672
 20
-26.3157802453
 10
-53.365009178
 20
-28.0169838278
 10
-53.2803295814
 20
-29.7051926545
 10
-53.1922993391
 20
-31.3669888669
  0
LWPOLYLINE
  5
268
100
AcDbEntity
  8
RACCORDO
100
AcDbPolyline
 62
250
  6
CONTINUOUS
 90
152
 70
0
 10
-52.7993411306
 20
43.3816040528
 10
-52.8304254911
 20
42.9088402503
 10
-52.8610919601
 20
42.435455952
 10
-52.8913382698
 20
41.9614556342
 10
-52.9211645242
 20
41.4868367063
 10
-52.9505731802
 20
41.0115895192
 10
-52.9795630774
 20
40.5357155281
 10
-53.0081331653
 20
40.0592152087
 10
-53.0362860268
 20
39.5820774676
 10
-53.0640205002
 20
39.1043034011
 10
-53.0913354871
 20
38.6258938909
 10
-53.1182336218
 20
38.1468375473
 10
-53.1447137177
 20
37.6671354729
 10
-53.1707746509
 20
37.1867885922
 10
-53.1964191064
 20
36.7057852744
 10
-53.2216458664
 20
36.2241267272
 10
-53.2464537864
 20
35.7418138204
 10
-53.270845616
 20
35.2588344441
 10
-53.2948201116
 20
34.7751897931
 10
-53.3183761004
 20
34.2908808026
 10
-53.3415163912
 20
33.8058950032
 10
-53.36423971
 20
33.3202336452
 10
-53.3865448587
 20
32.8338976627
 10
-53.4084347105
 20
32.3468741424
 10
-53.4299079615
 20
31.8591643621
 10
-53.4509633852
 20
31.3707692849
 10
-53.4716039208
 20
30.8816755581
 10
-53.4918282325
 20
30.3918844991
 10
-53.5116350651
 20
29.9013970904
 10
-53.5310274262
 20
29.4101995104
 10
-53.550003947
 20
28.9182931147
 10
-53.5685633425
 20
28.425678909
 10
-53.5867086909
 20
27.9323425815
 10
-53.604438589
 20
27.438285529
 10
-53.6217517209
 20
26.94350878
 10
-53.6386512379
 20
26.4479975075
 10
-53.6551357014
 20
25.9517531507
 10
-53.6712037628
 20
25.4547767623
 10
-53.6868586497
 20
24.9570529734
 10
-53.702098886
 20
24.4585832684
 10
-53.7169230896
 20
23.9593687242
 10
-53.7313345669
 20
23.4593934023
 10
-53.745331803
 20
22.9586588337
 10
-53.7589133809
 20
22.457166121
 10
-53.7720826886
 20
21.9548987258
 10
-53.7848381707
 20
21.4518582295
 10
-53.7971783739
 20
20.9480457598
 10
-53.8091067712
 20
20.4434441422
 10
-53.8206217651
 20
19.938055002
 10
-53.8317218639
 20
19.4318795021
 10
-53.8424106287
 20
18.9248998215
 10
-53.8526864172
 20
18.4171176755
 10
-53.8625476987
 20
17.9085342196
 10
-53.8719981278
 20
17.3991308424
 10
-53.8810360182
 20
16.888909178
 10
-53.8896597952
 20
16.3778705497
 10
-53.8978732036
 20
15.8659959323
 10
-53.9056745019
 20
15.3532875207
 10
-53.9130620805
 20
14.8397461671
 10
-53.9200398001
 20
14.325350888
 10
-53.9266058882
 20
13.8101022272
 10
-53.9327586651
 20
13.2940027856
 10
-53.9385020499
 20
12.7770347222
 10
-53.9438341658
 20
12.2592043053
 10
-53.9487533541
 20
11.7405085008
 10
-53.9532637605
 20
11.2209155821
 10
-53.957363574
 20
10.7004136014
 10
-53.9610509085
 20
10.1790178774
 10
-53.9643297421
 20
9.6567376243
 10
-53.9671979495
 20
9.1336208221
 10
-53.969654032
 20
8.6096228656
 10
-53.9717026788
 20
8.0846142354
 10
-53.9733423156
 20
7.558384476
 10
-53.9745700924
 20
7.0311479319
 10
-53.9753894456
 20
6.5034119083
 10
-53.9758012864
 20
5.9748974283
 10
-53.9758019821
 20
5.4458864052
 10
-53.9753914711
 20
4.9177255269
 10
-53.9745733801
 20
4.3907024898
 10
-53.9733468705
 20
3.8645292696
 10
-53.9717084647
 20
3.3396870165
 10
-53.9696609677
 20
2.8163790126
 10
-53.9672059729
 20
2.2944006382
 10
-53.9643388125
 20
1.773620804
 10
-53.961060989
 20
1.2539940829
 10
-53.9573746184
 20
0.7355649859
 10
-53.9532757279
 20
0.2183374549
 10
-53.9487661964
 20
-0.2976758807
 10
-53.9438478322
 20
-0.8124886539
 10
-53.9385165027
 20
-1.3261362936
 10
-53.9327738644
 20
-1.8386237847
 10
-53.9266217884
 20
-2.3499470919
 10
-53.9200563645
 20
-2.8601280631
 10
-53.9130792682
 20
-3.3691662131
 10
-53.9056922685
 20
-3.8770629676
 10
-53.8978915142
 20
-4.383843
 10
-53.8896786119
 20
-4.8895074428
 10
-53.881055299
 20
-5.3940560822
 10
-53.8720178394
 20
-5.8975115302
 10
-53.8625678045
 20
-6.3998744156
 10
-53.8527068771
 20
-6.9011450114
 10
-53.842431411
 20
-7.4013453566
 10
-53.8317429339
 20
-7.9004761881
 10
-53.8206430847
 20
-8.3985376533
 10
-53.8091283102
 20
-8.8955508691
 10
-53.7972000995
 20
-9.3915165155
 10
-53.7848600465
 20
-9.8864347802
 10
-53.772104686
 20
-10.380326005
 10
-53.7589354687
 20
-10.8731908548
 10
-53.7453539468
 20
-11.3650295163
 10
-53.7313567395
 20
-11.8558615779
 10
-53.7169452611
 20
-12.3456876843
 10
-53.7021210237
 20
-12.8345080269
 10
-53.6868807277
 20
-13.3223414809
 10
-53.6712257528
 20
-13.809188672
 10
-53.6551575721
 20
-14.2950497955
 10
-53.6386729647
 20
-14.7799430475
 10
-53.6217732765
 20
-15.2638690421
 10
-53.6044599438
 20
-15.7468279719
 10
-53.586729822
 20
-16.2288373687
 10
-53.568584225
 20
-16.7098978255
 10
-53.5500245533
 20
-17.1900095421
 10
-53.5310477356
 20
-17.6691894297
 10
-53.5116550548
 20
-18.1474380627
 10
-53.4918478774
 20
-18.624755646
 10
-53.4716232026
 20
-19.1011585071
 10
-53.4509822843
 20
-19.5766471827
 10
-53.4299264553
 20
-20.0512219025
 10
-53.4084527799
 20
-20.5248985036
 10
-53.3865624832
 20
-20.9976775091
 10
-53.3642568665
 20
-21.4695591496
 10
-53.3415330568
 20
-21.9405587955
 10
-53.3183922497
 20
-22.4106769964
 10
-53.2948357178
 20
-22.8799139441
 10
-53.2708606545
 20
-23.348284445
 10
-53.2464682299
 20
-23.8157890128
 10
-53.221659686
 20
-24.2824278634
 10
-53.1964322772
 20
-24.7482153301
 10
-53.1707871461
 20
-25.2131519441
 10
-53.1447255081
 20
-25.6772378922
 10
-53.1182446816
 20
-26.1404869655
 10
-53.0913457884
 20
-26.6028996141
 10
-53.064030013
 20
-27.0644760951
 10
-53.0362947241
 20
-27.5252298848
 10
-53.0081410183
 20
-27.9851614442
 10
-52.979570055
 20
-28.4442710086
 10
-52.950579254
 20
-28.9025716915
 10
-52.9211696633
 20
-29.360064324
 10
-52.8913424418
 20
-29.8167487602
 10
-52.8610951364
 20
-30.272636625
 10
-52.8304276429
 20
-30.7277320136
 10
-52.7993422256
 20
-31.1820315057
  0
LINE
  5
269
100
AcDbEntity
  8
RACCORDO
100
AcDbLine
 62
250
  6
CONTINUOUS
 10
-52.7638573524
 20
43.9140421085
 11
-52.7993411306
 21
43.3816040528
  0
LINE
  5
26A
100
AcDbEntity
  8
RACCORDO
100
AcDbLine
 62
250
  6
CONTINUOUS
 10
-52.7594865174
 20
43.9745035711
 11
-52.7638573524
 21
43.9140421085
  0
LINE
  5
26B
100
AcDbEntity
  8
RACCORDO
100
AcDbLine
 62
250
  6
CONTINUOUS
 10
-52.7547279551
 20
44.0351211687
 11
-52.7594865174
 21
43.9745035711
  0
LINE
  5
26C
100
AcDbEntity
  8
RACCORDO
100
AcDbLine
 62
250
  6
CONTINUOUS
 10
-52.7495822404
 20
44.0958851673
 11
-52.7547279551
 21
44.0351211687
  0
LINE
  5
26D
100
AcDbEntity
  8
RACCORDO
100
AcDbLine
 62
250
  6
CONTINUOUS
 10
-52.7440499938
 20
44.1567859492
 11
-52.7495822404
 21
44.0958851673
  0
LINE
  5
26E
100
AcDbEntity
  8
RACCORDO
100
AcDbLine
 62
250
  6
CONTINUOUS
 10
-52.738131899
 20
44.21781383
 11
-52.7440499938
 21
44.1567859492
  0
LINE
  5
26F
100
AcDbEntity
  8
RACCORDO
100
AcDbLine
 62
250
  6
CONTINUOUS
 10
-52.7318287034
 20
44.2789590844
 11
-52.738131899
 21
44.21781383
  0
LINE
  5
270
100
AcDbEntity
  8
RACCORDO
100
AcDbLine
 62
250
  6
CONTINUOUS
 10
-52.7251412103
 20
44.3402119899
 11
-52.7318287034
 21
44.2789590844
  0
LWPOLYLINE
  5
271
100
AcDbEntity
  8
RACCORDO
100
AcDbPolyline
 62
250
  6
CONTINUOUS
 90
5
 70
0
 10
-51.2948717965
 20
42.1068670846
 10
-51.2701598661
 20
42.3229092473
 10
-51.2408321706
 20
42.5394731112
 10
-51.2069469899
 20
42.7561206216
 10
-51.1685813918
 20
42.9723844697
  0
LINE
  5
272
100
AcDbEntity
  8
RACCORDO
100
AcDbLine
 62
250
  6
CONTINUOUS
 10
-52.718070286
 20
44.4015628012
 11
-52.7251412103
 21
44.3402119899
  0
LINE
  5
273
100
AcDbEntity
  8
RACCORDO
100
AcDbLine
 62
250
  6
CONTINUOUS
 10
-52.7106168562
 20
44.4630017559
 11
-52.718070286
 21
44.4015628012
  0
LINE
  5
274
100
AcDbEntity
  8
RACCORDO
100
AcDbLine
 62
250
  6
CONTINUOUS
 10
-52.702781905
 20
44.5245190781
 11
-52.7106168562
 21
44.4630017559
  0
LINE
  5
275
100
AcDbEntity
  8
RACCORDO
100
AcDbLine
 62
250
  6
CONTINUOUS
 10
-52.6945664817
 20
44.5861049793
 11
-52.702781905
 21
44.5245190781
  0
LINE
  5
276
100
AcDbEntity
  8
RACCORDO
100
AcDbLine
 62
250
  6
CONTINUOUS
 10
-52.6859716946
 20
44.6477496577
 11
-52.6945664817
 21
44.5861049793
  0
LINE
  5
277
100
AcDbEntity
  8
RACCORDO
100
AcDbLine
 62
250
  6
CONTINUOUS
 10
-52.6769987242
 20
44.7094433046
 11
-52.6859716946
 21
44.6477496577
  0
LINE
  5
278
100
AcDbEntity
  8
RACCORDO
100
AcDbLine
 62
250
  6
CONTINUOUS
 10
-52.6676488089
 20
44.7711761057
 11
-52.6769987242
 21
44.7094433046
  0
LINE
  5
279
100
AcDbEntity
  8
RACCORDO
100
AcDbLine
 62
250
  6
CONTINUOUS
 10
-52.6579232476
 20
44.8329382428
 11
-52.6676488089
 21
44.7711761057
  0
LINE
  5
27A
100
AcDbEntity
  8
RACCORDO
100
AcDbLine
 62
250
  6
CONTINUOUS
 10
-52.6478233966
 20
44.8947198918
 11
-52.6579232476
 21
44.8329382428
  0
LINE
  5
27B
100
AcDbEntity
  8
RACCORDO
100
AcDbLine
 62
250
  6
CONTINUOUS
 10
-52.6373506727
 20
44.9565112253
 11
-52.6478233966
 21
44.8947198918
  0
LINE
  5
27C
100
AcDbEntity
  8
RACCORDO
100
AcDbLine
 62
250
  6
CONTINUOUS
 10
-52.626506551
 20
45.018302414
 11
-52.6373506727
 21
44.9565112253
  0
LINE
  5
27D
100
AcDbEntity
  8
RACCORDO
100
AcDbLine
 62
250
  6
CONTINUOUS
 10
-52.6152925625
 20
45.0800836309
 11
-52.626506551
 21
45.018302414
  0
LINE
  5
27E
100
AcDbEntity
  8
RACCORDO
100
AcDbLine
 62
250
  6
CONTINUOUS
 10
-52.6037102983
 20
45.1418450494
 11
-52.6152925625
 21
45.0800836309
  0
LWPOLYLINE
  5
27F
100
AcDbEntity
  8
RACCORDO
100
AcDbPolyline
 62
250
  6
CONTINUOUS
 90
3
 70
0
 10
-52.5856499966
 20
45.234428566
 10
-52.5917614028
 20
45.2035768455
 10
-52.6037102983
 20
45.1418450494
  0
LWPOLYLINE
  5
280
100
AcDbEntity
  8
RACCORDO
100
AcDbPolyline
 62
250
  6
CONTINUOUS
 90
12
 70
0
 10
-51.1685813918
 20
42.9723844697
 10
-51.125804217
 20
43.18789625
 10
-51.0786679069
 20
43.4023657641
 10
-51.0272034482
 20
43.6155958689
 10
-50.9715514504
 20
43.8269481388
 10
-50.9119651763
 20
44.0354880203
 10
-50.8483512503
 20
44.2415654765
 10
-50.7810640756
 20
44.4440418667
 10
-50.7112203187
 20
44.6399168864
 10
-50.639361482
 20
44.8283813915
 10
-50.5655539739
 20
45.0099184394
 10
-50.4903765134
 20
45.1837060123
  0
LWPOLYLINE
  5
281
100
AcDbEntity
  8
RACCORDO
100
AcDbPolyline
 62
250
  6
CONTINUOUS
 90
34
 70
0
 10
-52.1121985453
 20
43.8020979435
 10
-52.1184751531
 20
43.7995972681
 10
-52.1252126042
 20
43.7971996968
 10
-52.1323959722
 20
43.7949105411
 10
-52.1400093431
 20
43.7927348725
 10
-52.1480358497
 20
43.790677511
 10
-52.1564577101
 20
43.7887430147
 10
-52.165256266
 20
43.7869356692
 10
-52.174412025
 20
43.7852594786
 10
-52.183904703
 20
43.7837181564
 10
-52.1937132698
 20
43.7823151172
 10
-52.203815995
 20
43.7810534695
 10
-52.2141904969
 20
43.7799360083
 10
-52.2248137913
 20
43.7789652092
 10
-52.2356623432
 20
43.778143223
 10
-52.2467121184
 20
43.7774718708
 10
-52.2579386367
 20
43.7769526398
 10
-52.2693170267
 20
43.7765866805
 10
-52.2808220802
 20
43.7763748035
 10
-52.2924283087
 20
43.7763174783
 10
-52.3041099994
 20
43.7764148318
 10
-52.3158412722
 20
43.7766666484
 10
-52.3275961374
 20
43.7770723702
 10
-52.3393485528
 20
43.7776310984
 10
-52.3510724818
 20
43.7783415951
 10
-52.3627419508
 20
43.7792022863
 10
-52.3743311069
 20
43.7802112651
 10
-52.3858142752
 20
43.7813662963
 10
-52.3971660155
 20
43.782664821
 10
-52.4083611788
 20
43.7841039623
 10
-52.419374963
 20
43.7856805319
 10
-52.4301829677
 20
43.7873910371
 10
-52.4407612487
 20
43.7892316884
 10
-52.4510863704
 20
43.7911984079
  0
LWPOLYLINE
  5
282
100
AcDbEntity
  8
RACCORDO
100
AcDbPolyline
 62
7
  6
CONTINUOUS
 90
8
 70
0
 10
-51.4562293506
 20
-30.9855019501
 10
-51.3075307972
 20
-31.5393357424
 10
-51.1050111792
 20
-32.0280664288
 10
-50.8569904571
 20
-32.4308937936
 10
-50.5713197676
 20
-32.742998579
 10
-50.2487345865
 20
-32.96852958
 10
-49.8944133434
 20
-33.1042337584
 10
-49.8256374169
 20
-33.1191523952
  0
LWPOLYLINE
  5
283
100
AcDbEntity
  8
RACCORDO
100
AcDbPolyline
 62
250
  6
CONTINUOUS
 90
7
 70
0
 10
-51.5868549504
 20
-29.8883625637
 10
-51.578793613
 20
-29.9210034305
 10
-51.5559063339
 20
-29.9539596314
 10
-51.5189368811
 20
-29.9843283099
 10
-51.4689961749
 20
-30.0111968985
 10
-51.4075849165
 20
-30.0337580069
 10
-51.3365484926
 20
-30.0513336826
  0
LWPOLYLINE
  5
284
100
AcDbEntity
  8
RACCORDO
100
AcDbPolyline
 62
250
  6
CONTINUOUS
 90
136
 70
0
 10
-52.6372933463
 20
-32.6179246546
 10
-52.6319146651
 20
-32.6433567396
 10
-52.6264432675
 20
-32.6686753049
 10
-52.6208793482
 20
-32.6938793523
 10
-52.6152231056
 20
-32.7189678876
 10
-52.6094747409
 20
-32.7439399216
 10
-52.6036344594
 20
-32.7687944698
 10
-52.5977024704
 20
-32.7935305517
 10
-52.5916789863
 20
-32.8181471923
 10
-52.5855642227
 20
-32.8426434212
 10
-52.5793583999
 20
-32.8670182725
 10
-52.5730617414
 20
-32.8912707851
 10
-52.5666744728
 20
-32.9154000033
 10
-52.5601968254
 20
-32.9394049755
 10
-52.5536290337
 20
-32.9632847551
 10
-52.5469713331
 20
-32.9870384017
 10
-52.5402239658
 20
-33.0106649785
 10
-52.5333871773
 20
-33.0341635539
 10
-52.526461213
 20
-33.0575332024
 10
-52.5194463258
 20
-33.0807730026
 10
-52.512342772
 20
-33.1038820382
 10
-52.5051508072
 20
-33.126859399
 10
-52.497870695
 20
-33.1497041791
 10
-52.4905027023
 20
-33.1724154779
 10
-52.4830470947
 20
-33.1949924012
 10
-52.4755041465
 20
-33.2174340591
 10
-52.4678741352
 20
-33.2397395667
 10
-52.4601573358
 20
-33.2619080461
 10
-52.4523540334
 20
-33.2839386232
 10
-52.4444645158
 20
-33.3058304297
 10
-52.4364890677
 20
-33.3275826043
 10
-52.4284279843
 20
-33.3491942894
 10
-52.420281564
 20
-33.370664633
 10
-52.4120501012
 20
-33.3919927906
 10
-52.4037339013
 20
-33.4131779214
 10
-52.3953332729
 20
-33.4342191904
 10
-52.38684852
 20
-33.45511577
 10
-52.3782799585
 20
-33.4758668364
 10
-52.3696279071
 20
-33.4964715719
 10
-52.3608926791
 20
-33.5169291662
 10
-52.3520746007
 20
-33.5372388131
 10
-52.3431740004
 20
-33.5573997121
 10
-52.3341912011
 20
-33.5774110709
 10
-52.3251265386
 20
-33.5972721006
 10
-52.3159803515
 20
-33.6169820186
 10
-52.3067529717
 20
-33.6365400505
 10
-52.2974447447
 20
-33.6559454255
 10
-52.2880560193
 20
-33.675197379
 10
-52.278587136
 20
-33.6942951546
 10
-52.2690384504
 20
-33.713238
 10
-52.2594103208
 20
-33.7320251685
 10
-52.249703097
 20
-33.7506559226
 10
-52.2399171442
 20
-33.7691295279
 10
-52.23005283
 20
-33.7874452568
 10
-52.2201105135
 20
-33.8056023902
 10
-52.2100905691
 20
-33.8236002128
 10
-52.1999933741
 20
-33.8414380155
 10
-52.189819296
 20
-33.8591150984
 10
-52.1795687188
 20
-33.8766307651
 10
-52.1692420287
 20
-33.8939843257
 10
-52.158839602
 20
-33.9111750995
 10
-52.1483618315
 20
-33.9282024093
 10
-52.137809113
 20
-33.9450655845
 10
-52.127181831
 20
-33.961763964
 10
-52.1164803875
 20
-33.9782968901
 10
-52.1057051874
 20
-33.9946637116
 10
-52.0948566235
 20
-34.0108637871
 10
-52.0839351069
 20
-34.0268964785
 10
-52.0729410512
 20
-34.0427611547
 10
-52.0618748579
 20
-34.058457194
 10
-52.0507369466
 20
-34.0739839784
 10
-52.0395277398
 20
-34.0893408967
 10
-52.0282476468
 20
-34.1045273475
 10
-52.016897096
 20
-34.119542733
 10
-52.0054765183
 20
-34.1343864621
 10
-51.9939863309
 20
-34.1490579538
 10
-51.9824269706
 20
-34.1635566308
 10
-51.9707988769
 20
-34.1778819224
 10
-51.9591024745
 20
-34.1920332682
 10
-51.9473382088
 20
-34.2060101114
 10
-51.9355065274
 20
-34.219811902
 10
-51.923607863
 20
-34.2334381004
 10
-51.911642669
 20
-34.2468881704
 10
-51.8996114011
 20
-34.2601615829
 10
-51.8875144997
 20
-34.2732578194
 10
-51.8753524263
 20
-34.2861763646
 10
-51.8631256445
 20
-34.2989167105
 10
-51.850834602
 20
-34.3114783597
 10
-51.8384797679
 20
-34.3238608181
 10
-51.8260616138
 20
-34.3360635989
 10
-51.8135805942
 20
-34.348086226
 10
-51.8010371862
 20
-34.3599282268
 10
-51.7884318688
 20
-34.3715891357
 10
-51.7757651038
 20
-34.3830684983
 10
-51.7630373755
 20
-34.3943658633
 10
-51.7502491706
 20
-34.4054807867
 10
-51.7374009578
 20
-34.4164128358
 10
-51.7244932289
 20
-34.4271615809
 10
-51.7115264777
 20
-34.4377265997
 10
-51.69850118
 20
-34.4481074813
 10
-51.6854178348
 20
-34.4583038179
 10
-51.6722769428
 20
-34.4683152089
 10
-51.6590789863
 20
-34.4781412656
 10
-51.6458244712
 20
-34.487781602
 10
-51.6325139052
 20
-34.4972358397
 10
-51.6191477769
 20
-34.5065036119
 10
-51.605726599
 20
-34.5155845549
 10
-51.5922508858
 20
-34.5244783123
 10
-51.5787211323
 20
-34.5331845395
 10
-51.5651378577
 20
-34.5417028951
 10
-51.551501583
 20
-34.5500330449
 10
-51.5378128094
 20
-34.5581746668
 10
-51.5240720625
 20
-34.5661274416
 10
-51.5102798696
 20
-34.5738910575
 10
-51.4964367382
 20
-34.5814652149
 10
-51.4825431999
 20
-34.5888496169
 10
-51.4685997886
 20
-34.5960439743
 10
-51.4546070169
 20
-34.6030480101
 10
-51.4405654227
 20
-34.6098614501
 10
-51.4264755457
 20
-34.6164840277
 10
-51.412337904
 20
-34.6229154884
 10
-51.3981530415
 20
-34.6291555807
 10
-51.3839215036
 20
-34.6352040608
 10
-51.3696438138
 20
-34.6410606969
 10
-51.3553205216
 20
-34.6467252603
 10
-51.3409521781
 20
-34.6521975299
 10
-51.3265393122
 20
-34.6574772969
 10
-51.3120824786
 20
-34.6625643553
 10
-51.297582234
 20
-34.6674585068
 10
-51.2830391126
 20
-34.6721595655
 10
-51.2684536745
 20
-34.6766673483
 10
-51.2538264814
 20
-34.68098168
 10
-51.2391580722
 20
-34.6851023976
 10
-51.2244490122
 20
-34.6890293411
 10
-51.209699868
 20
-34.692762358
 10
-51.1949111833
 20
-34.6963013086
  0
LINE
  5
285
100
AcDbEntity
  8
RACCORDO
100
AcDbLine
 62
250
  6
CONTINUOUS
 10
-52.6477718022
 20
-32.5667239416
 11
-52.6372933463
 21
-32.6179246546
  0
LWPOLYLINE
  5
286
100
AcDbEntity
  8
RACCORDO
100
AcDbPolyline
 62
250
  6
CONTINUOUS
 90
7
 70
0
 10
-51.197747643
 20
-31.2019976653
 10
-51.2328391744
 20
-31.023697346
 10
-51.2633061456
 20
-30.8390959673
 10
-51.2889658901
 20
-30.6491127763
 10
-51.309742434
 20
-30.4543323436
 10
-51.3256157995
 20
-30.2549463923
 10
-51.336547804
 20
-30.0513527389
  0
LINE
  5
287
100
AcDbEntity
  8
RACCORDO
100
AcDbLine
 62
250
  6
CONTINUOUS
 10
-52.6578771515
 20
-32.5150812424
 11
-52.6477718022
 21
-32.5667239416
  0
LINE
  5
288
100
AcDbEntity
  8
RACCORDO
100
AcDbLine
 62
250
  6
CONTINUOUS
 10
-52.6676079717
 20
-32.463004704
 11
-52.6578771515
 21
-32.5150812424
  0
LINE
  5
289
100
AcDbEntity
  8
RACCORDO
100
AcDbLine
 62
250
  6
CONTINUOUS
 10
-52.6769628968
 20
-32.4105025427
 11
-52.6676079717
 21
-32.463004704
  0
LINE
  5
28A
100
AcDbEntity
  8
RACCORDO
100
AcDbLine
 62
250
  6
CONTINUOUS
 10
-52.6859406185
 20
-32.3575830416
 11
-52.6769628968
 21
-32.4105025427
  0
LINE
  5
28B
100
AcDbEntity
  8
RACCORDO
100
AcDbLine
 62
250
  6
CONTINUOUS
 10
-52.694539892
 20
-32.3042545503
 11
-52.6859406185
 21
-32.3575830416
  0
LINE
  5
28C
100
AcDbEntity
  8
RACCORDO
100
AcDbLine
 62
7
  6
CONTINUOUS
 10
-51.5502385547
 20
-30.3840644517
 11
-51.4562293506
 21
-30.9855019501
  0
LINE
  5
28D
100
AcDbEntity
  8
RACCORDO
100
AcDbLine
 62
250
  6
CONTINUOUS
 10
-52.7027595291
 20
-32.2505254843
 11
-52.694539892
 21
-32.3042545503
  0
LINE
  5
28E
100
AcDbEntity
  8
RACCORDO
100
AcDbLine
 62
250
  6
CONTINUOUS
 10
-52.7105984004
 20
-32.1964043221
 11
-52.7027595291
 21
-32.2505254843
  0
LINE
  5
28F
100
AcDbEntity
  8
RACCORDO
100
AcDbLine
 62
250
  6
CONTINUOUS
 10
-52.7180554418
 20
-32.1418996039
 11
-52.7105984004
 21
-32.1964043221
  0
LINE
  5
290
100
AcDbEntity
  8
RACCORDO
100
AcDbLine
 62
250
  6
CONTINUOUS
 10
-52.7251296449
 20
-32.0870199306
 11
-52.7180554418
 21
-32.1418996039
  0
LINE
  5
291
100
AcDbEntity
  8
RACCORDO
100
AcDbLine
 62
250
  6
CONTINUOUS
 10
-52.7318200591
 20
-32.0317739654
 11
-52.7251296449
 21
-32.0870199306
  0
LINE
  5
292
100
AcDbEntity
  8
RACCORDO
100
AcDbLine
 62
250
  6
CONTINUOUS
 10
-52.7381258018
 20
-31.9761704261
 11
-52.7318200591
 21
-32.0317739654
  0
LINE
  5
293
100
AcDbEntity
  8
RACCORDO
100
AcDbLine
 62
250
  6
CONTINUOUS
 10
-52.7594863881
 20
-31.7503568421
 11
-52.7547270109
 21
-31.8073024066
  0
LINE
  5
294
100
AcDbEntity
  8
RACCORDO
100
AcDbLine
 62
250
  6
CONTINUOUS
 10
-52.7638575419
 20
-31.6930981687
 11
-52.7594863881
 21
-31.7503568421
  0
LINE
  5
295
100
AcDbEntity
  8
RACCORDO
100
AcDbLine
 62
7
  6
CONTINUOUS
 10
-51.5869104512
 20
-29.8864765027
 11
-51.5502385547
 21
-30.3840644517
  0
LINE
  5
296
100
AcDbEntity
  8
RACCORDO
100
AcDbLine
 62
250
  6
CONTINUOUS
 10
-52.7993422256
 20
-31.1820315057
 11
-52.7638575419
 21
-31.6930981687
  0
LWPOLYLINE
  5
297
100
AcDbEntity
  8
RACCORDO
100
AcDbPolyline
 62
7
  6
CONTINUOUS
 90
55
 70
0
 10
-53.1922994898
 20
-31.3669860952
 10
-53.1871887299
 20
-31.4521266966
 10
-53.1800123167
 20
-31.5511702286
 10
-53.1715129799
 20
-31.6497940437
 10
-53.1616675868
 20
-31.7479745271
 10
-53.1504570598
 20
-31.8456397593
 10
-53.1378689298
 20
-31.9426762663
 10
-53.1238837989
 20
-32.03903899
 10
-53.1084814939
 20
-32.1346837401
 10
-53.0916516135
 20
-32.229509664
 10
-53.0733744605
 20
-32.3234768008
 10
-53.053629896
 20
-32.4165425378
 10
-53.0324086805
 20
-32.5086149367
 10
-53.0096899707
 20
-32.5996576379
 10
-52.9854521934
 20
-32.6896319275
 10
-52.9596852925
 20
-32.7784563839
 10
-52.9323660679
 20
-32.8660974891
 10
-52.9034699767
 20
-32.9525203747
 10
-52.8729833554
 20
-33.0376557518
 10
-52.8408242368
 20
-33.1216104726
 10
-52.8070134791
 20
-33.2042073216
 10
-52.7717115938
 20
-33.2849877712
 10
-52.7348659396
 20
-33.3640361877
 10
-52.6965062312
 20
-33.4412496406
 10
-52.6569771155
 20
-33.5159655176
 10
-52.6164185167
 20
-33.5880266675
 10
-52.5747526709
 20
-33.6576717171
 10
-52.5320410281
 20
-33.7248799932
 10
-52.4883189585
 20
-33.7896785886
 10
-52.4436104634
 20
-33.8521100235
 10
-52.3979686313
 20
-33.9121761145
 10
-52.3514264348
 20
-33.9699083719
 10
-52.3040174485
 20
-34.0253366838
 10
-52.2558058249
 20
-34.0784575023
 10
-52.2068462966
 20
-34.1292836251
 10
-52.1571639094
 20
-34.1778596783
 10
-52.106787016
 20
-34.2242238191
 10
-52.0557671853
 20
-34.2683922445
 10
-52.0041402268
 20
-34.3103960399
 10
-51.9519153145
 20
-34.3502850504
 10
-51.8991593749
 20
-34.3880632367
 10
-51.8458986504
 20
-34.4237659748
 10
-51.7920804657
 20
-34.4574738983
 10
-51.7377578955
 20
-34.4891926743
 10
-51.6829685167
 20
-34.5189390135
 10
-51.6276307737
 20
-34.5467875442
 10
-51.5717908082
 20
-34.5727381494
 10
-51.5154890384
 20
-34.5967953429
 10
-51.4586283947
 20
-34.6190162143
 10
-51.4012511962
 20
-34.6393926585
 10
-51.3433978166
 20
-34.6579192382
 10
-51.2849613979
 20
-34.6746318269
 10
-51.2259312087
 20
-34.6895255924
 10
-51.1663970006
 20
-34.7025706044
 10
-51.1567136346
 20
-34.7045078156
  0
LWPOLYLINE
  5
298
100
AcDbEntity
  8
RACCORDO
100
AcDbPolyline
 62
250
  6
CONTINUOUS
 90
46
 70
0
 10
-52.1121985453
 20
-31.6494390245
 10
-52.1077091379
 20
-31.7370499635
 10
-52.1022243367
 20
-31.8238388649
 10
-52.0957441418
 20
-31.9098057287
 10
-52.088265053
 20
-31.9949859613
 10
-52.0797905704
 20
-32.0793441563
 10
-52.0703311947
 20
-32.1627740945
 10
-52.0598857102
 20
-32.2452740377
 10
-52.0484553325
 20
-32.3268457241
 10
-52.0360542093
 20
-32.4073881494
 10
-52.0226811663
 20
-32.4868998577
 10
-52.0083373777
 20
-32.5653823049
 10
-51.9930405131
 20
-32.6427388535
 10
-51.9767894096
 20
-32.7189680748
 10
-51.95958523
 20
-32.7940713975
 10
-51.9414491329
 20
-32.8679564698
 10
-51.9223799606
 20
-32.9406218572
 10
-51.9023788707
 20
-33.0120689941
 10
-51.8814704946
 20
-33.0822098328
 10
-51.8596537172
 20
-33.1510427527
 10
-51.8369296536
 20
-33.2185693742
 10
-51.8133262807
 20
-33.2847065105
 10
-51.7888425168
 20
-33.3494524512
 10
-51.7634794435
 20
-33.4128089068
 10
-51.7372682826
 20
-33.4746978211
 10
-51.7102079962
 20
-33.5351173788
 10
-51.6822996221
 20
-33.5940693953
 10
-51.653577496
 20
-33.6514812609
 10
-51.6240406122
 20
-33.7073510932
 10
-51.5936899764
 20
-33.7616807746
 10
-51.5625629418
 20
-33.8144033431
 10
-51.5306585479
 20
-33.865516828
 10
-51.497977755
 20
-33.9150232
 10
-51.4645607982
 20
-33.9628614094
 10
-51.4304067776
 20
-34.0090293946
 10
-51.395516593
 20
-34.0535292173
 10
-51.3599331778
 20
-34.0963060128
 10
-51.3236556672
 20
-34.1373576731
 10
-51.286684926
 20
-34.1766863062
 10
-51.2490664822
 20
-34.2142433711
 10
-51.2107995482
 20
-34.2500266733
 10
-51.1718849116
 20
-34.2840384073
 10
-51.1323704629
 20
-34.3162366155
 10
-51.0922721657
 20
-34.3466073121
 10
-51.0515740566
 20
-34.3751644828
 10
-51.0102761354
 20
-34.4019081278
  0
LWPOLYLINE
  5
299
100
AcDbEntity
  8
RACCORDO
100
AcDbPolyline
 62
250
  6
CONTINUOUS
 90
19
 70
0
 10
-51.3365477937
 20
-30.051352741
 10
-51.4866232071
 20
-26.1752203051
 10
-51.6190964757
 20
-22.2861671065
 10
-51.7339579892
 20
-18.3844718578
 10
-51.8311993172
 20
-14.4704148178
 10
-51.9108135197
 20
-10.5442758411
 10
-51.9727951189
 20
-6.6063343388
 10
-52.0171396701
 20
-2.656871899
 10
-52.0438438806
 20
1.3038278858
 10
-52.0529058973
 20
5.2754813837
 10
-52.0443251183
 20
9.2578040838
 10
-52.0181021089
 20
13.2505105688
 10
-51.97423869
 20
17.2533147065
 10
-51.9127380945
 20
21.2659306466
 10
-51.8336047464
 20
25.2880699351
 10
-51.7368442172
 20
29.3194414658
 10
-51.6224635269
 20
33.359755403
 10
-51.490471101
 20
37.4087232239
 10
-51.3408765803
 20
41.4660548182
  0
LINE
  5
29A
100
AcDbEntity
  8
RACCORDO
100
AcDbLine
 62
7
  6
CONTINUOUS
 10
-51.0102761354
 20
-34.4019081278
 11
-51.0102761354
 21
-34.068333174
  0
LINE
  5
29B
100
AcDbEntity
  8
RACCORDO
100
AcDbLine
 62
7
  6
CONTINUOUS
 10
-51.0102761354
 20
47.2907715925
 11
-51.0102761354
 21
47.8090332196
  0
LWPOLYLINE
  5
29C
100
AcDbEntity
  8
RACCORDO
100
AcDbPolyline
 62
7
  6
CONTINUOUS
 90
16
 70
0
 10
-51.0102761354
 20
-34.4019081278
 10
-51.0105053012
 20
-34.4144582721
 10
-51.011151664
 20
-34.426788489
 10
-51.0122152238
 20
-34.4388987784
 10
-51.0137071049
 20
-34.4508164876
 10
-51.0156161829
 20
-34.4625142693
 10
-51.017909085
 20
-34.4739100823
 10
-51.0205863301
 20
-34.4849891931
 10
-51.0236473991
 20
-34.4957663351
 10
-51.0270573622
 20
-34.5062036679
 10
-51.0308191356
 20
-34.5163025643
 10
-51.0349298031
 20
-34.5260616515
 10
-51.0393456848
 20
-34.5354389711
 10
-51.044052221
 20
-34.5444205369
 10
-51.0490639716
 20
-34.553020335
 10
-51.0543809364
 20
-34.5612383655
  0
LWPOLYLINE
  5
29D
100
AcDbEntity
  8
RACCORDO
100
AcDbPolyline
 62
7
  6
CONTINUOUS
 90
10
 70
0
 10
-51.5912186979
 20
41.5975275554
 10
-51.8525342095
 20
34.1486955694
 10
-52.073684212
 20
25.8810234732
 10
-52.220876003
 20
17.651952085
 10
-52.2940660704
 20
9.4639047831
 10
-52.293231683
 20
1.3193305308
 10
-52.2183714081
 20
-6.7793439033
 10
-52.0695046536
 20
-14.8296980614
 10
-51.8466717311
 20
-22.8293594391
 10
-51.5868549504
 20
-29.8883625637
  0
LWPOLYLINE
  5
29E
100
AcDbEntity
  8
RACCORDO
100
AcDbPolyline
 62
250
  6
CONTINUOUS
 90
40
 70
0
 10
-52.4510867759
 20
43.7911889797
 10
-52.5342331906
 20
41.8120998136
 10
-52.6130117161
 20
39.8348868535
 10
-52.6874210455
 20
37.8595837392
 10
-52.7574599886
 20
35.8862237444
 10
-52.823127337
 20
33.9148407768
 10
-52.8844218712
 20
31.9454693738
 10
-52.9413425636
 20
29.9781433751
 10
-52.9938884924
 20
28.012895909
 10
-53.0420587118
 20
26.0497603896
 10
-53.0858524203
 20
24.0887702152
 10
-53.1252689018
 20
22.1299587397
 10
-53.1603074474
 20
20.1733592555
 10
-53.1909674723
 20
18.219005044
 10
-53.217248477
 20
16.2669293494
 10
-53.2391499889
 20
14.3171653506
 10
-53.25667164
 20
12.3697462105
 10
-53.2698131476
 20
10.4247050551
 10
-53.2785742753
 20
8.4820749474
 10
-53.2829548721
 20
6.5418889266
 10
-53.2829548721
 20
4.6041799957
 10
-53.2785742753
 20
2.6689811002
 10
-53.2698131476
 20
0.736325155
 10
-53.25667164
 20
-1.1937549695
 10
-53.239149989
 20
-3.1212264594
 10
-53.2172484771
 20
-5.0460565339
 10
-53.1909674723
 20
-6.9682124556
 10
-53.1603074475
 20
-8.8876615437
 10
-53.1252689019
 20
-10.8043711559
 10
-53.0858524203
 20
-12.7183086934
 10
-53.0420587118
 20
-14.6294416108
 10
-52.9938884924
 20
-16.5377374127
 10
-52.9413425637
 20
-18.4431636403
 10
-52.8844218713
 20
-20.3456878756
 10
-52.8231273384
 20
-22.2452780528
 10
-52.7574599916
 20
-24.1419015798
 10
-52.6874210455
 20
-26.0355253284
 10
-52.6130117063
 20
-27.9261168104
 10
-52.5342331646
 20
-29.8136441733
 10
-52.4510867266
 20
-31.6980753249
  0
LWPOLYLINE
  5
29F
100
AcDbEntity
  8
RACCORDO
100
AcDbPolyline
 62
250
  6
CONTINUOUS
 90
40
 70
0
 10
-52.1121985453
 20
43.8020979435
 10
-52.1953068378
 20
41.8239385341
 10
-52.2740468253
 20
39.8477225764
 10
-52.348418508
 20
37.8734500705
 10
-52.4184230019
 20
35.9010874978
 10
-52.4840591909
 20
33.9306683768
 10
-52.5453237264
 20
31.9622932629
 10
-52.6022163852
 20
29.9959622667
 10
-52.6547373905
 20
28.0316752777
 10
-52.7028840637
 20
26.06953252
 10
-52.7466561814
 20
24.1095341081
 10
-52.7860539669
 20
22.1516799276
 10
-52.8210754114
 20
20.1960698594
 10
-52.8517202916
 20
18.2427040187
 10
-52.8779888307
 20
16.2915822904
 10
-52.8998796893
 20
14.3428042106
 10
-52.9173926441
 20
12.3963698983
 10
-52.9305279183
 20
10.4522792346
 10
-52.9392848421
 20
8.5106313979
 10
-52.9436631923
 20
6.5714265114
 10
-52.9436631921
 20
4.6346644521
 10
-52.9392848416
 20
2.7004440295
 10
-52.9305279174
 20
0.7687653749
 10
-52.9173926428
 20
-1.160371643
 10
-52.8998796877
 20
-3.086868608
 10
-52.8779888288
 20
-5.0107253851
 10
-52.8517202894
 20
-6.9319421094
 10
-52.8210754088
 20
-8.8504207696
 10
-52.786053964
 20
-10.7661612268
 10
-52.7466561781
 20
-12.6791636199
 10
-52.7028840601
 20
-14.589330355
 10
-52.6547373866
 20
-16.4966612923
 10
-52.6022163809
 20
-18.4011565715
 10
-52.5453237218
 20
-20.3027190181
 10
-52.4840591857
 20
-22.2013484937
 10
-52.4184229961
 20
-24.0970451366
 10
-52.3484185024
 20
-25.989712187
 10
-52.2740468209
 20
-27.8793173919
 10
-52.1953068352
 20
-29.7658930044
 10
-52.1121985453
 20
-31.6494390245
  0
LWPOLYLINE
  5
2A0
100
AcDbEntity
  8
RACCORDO
100
AcDbPolyline
 62
250
  6
CONTINUOUS
 90
4
 70
0
 10
-51.3408765675
 20
41.4660548157
 10
-51.3302647769
 20
41.678028796
 10
-51.3149198441
 20
41.8917705643
 10
-51.2948717965
 20
42.1068670846
  0
LINE
  5
2A1
100
AcDbEntity
  8
RACCORDO
100
AcDbLine
 62
7
  6
CONTINUOUS
 10
-51.5478099166
 20
42.2042149907
 11
-51.5912237752
 21
41.597351951
  0
LWPOLYLINE
  5
2A2
100
AcDbEntity
  8
RACCORDO
100
AcDbPolyline
 62
250
  6
CONTINUOUS
 90
46
 70
0
 10
-51.1734109385
 20
-34.6610014918
 10
-51.2209725753
 20
-34.6367136665
 10
-51.2679174103
 20
-34.610219796
 10
-51.31422437
 20
-34.5815319851
 10
-51.35987342
 20
-34.5506631162
 10
-51.4048433096
 20
-34.5176275381
 10
-51.4491116068
 20
-34.4824411432
 10
-51.4926581348
 20
-34.4451204035
 10
-51.5354637084
 20
-34.4056822624
 10
-51.5775078723
 20
-34.3641448145
 10
-51.6187719657
 20
-34.3205268834
 10
-51.6592372539
 20
-34.2748487376
 10
-51.6988836962
 20
-34.2271320734
 10
-51.7376934116
 20
-34.1773989823
 10
-51.775649116
 20
-34.1256722826
 10
-51.8127322524
 20
-34.0719762222
 10
-51.8489261646
 20
-34.0163355819
 10
-51.8842146816
 20
-33.9587760036
 10
-51.9185805838
 20
-33.8993243957
 10
-51.9520084342
 20
-33.8380082203
 10
-51.9844833176
 20
-33.774855738
 10
-52.0159894349
 20
-33.7098963573
 10
-52.0465126479
 20
-33.6431600616
 10
-52.0760393362
 20
-33.5746776402
 10
-52.1045551423
 20
-33.504480945
 10
-52.1320472773
 20
-33.4326023652
 10
-52.15850348
 20
-33.359075081
 10
-52.1839108784
 20
-33.2839333019
 10
-52.2082580588
 20
-33.2072117794
 10
-52.2315342033
 20
-33.1289458635
 10
-52.2537280474
 20
-33.0491717535
 10
-52.2748296759
 20
-32.9679261068
 10
-52.2948296601
 20
-32.8852465746
 10
-52.3137182128
 20
-32.8011718804
 10
-52.3314867417
 20
-32.7157415312
 10
-52.3481275303
 20
-32.6289943119
 10
-52.3636328128
 20
-32.5409687491
 10
-52.3779956908
 20
-32.451704763
 10
-52.3912096445
 20
-32.3612441384
 10
-52.4032681948
 20
-32.2696289991
 10
-52.4141658061
 20
-32.1769024409
 10
-52.4238977561
 20
-32.0831064063
 10
-52.4324594984
 20
-31.9882820004
 10
-52.4398470494
 20
-31.892472167
 10
-52.4460570792
 20
-31.79572175
 10
-52.4510867308
 20
-31.6980753241
  0
LWPOLYLINE
  5
2A3
100
AcDbEntity
  8
RACCORDO
100
AcDbPolyline
 62
250
  6
CONTINUOUS
 90
17
 70
0
 10
-50.0930446528
 20
-33.0312549974
 10
-50.1876592748
 20
-32.9808449189
 10
-50.2793854685
 20
-32.9211106012
 10
-50.3683745339
 20
-32.8519942516
 10
-50.4542953467
 20
-32.7737694228
 10
-50.5369313783
 20
-32.6866911764
 10
-50.6161907252
 20
-32.590915552
 10
-50.6919538555
 20
-32.4866363979
 10
-50.764077887
 20
-32.3740916759
 10
-50.8324349927
 20
-32.2535233793
 10
-50.8969328356
 20
-32.125137229
 10
-50.9574052641
 20
-31.9893094295
 10
-51.0137932735
 20
-31.8462210269
 10
-51.0661381664
 20
-31.6957356574
 10
-51.1143290915
 20
-31.5380319126
 10
-51.1582181723
 20
-31.373441976
 10
-51.197747643
 20
-31.2019976653
  0
LINE
  5
2A4
100
AcDbEntity
  8
0
100
AcDbLine
 62
7
  6
CONTINUOUS
 10
-40.4833976784
 20
-31.4495339593
 11
-40.4242154804
 21
-31.5072711345
  0
LWPOLYLINE
  5
2A5
100
AcDbEntity
  8
0
100
AcDbPolyline
 62
7
  6
CONTINUOUS
 90
5
 70
0
 10
-42.0915231531
 20
-30.9721278299
 10
-42.1429513862
 20
-30.9212303353
 10
-42.1882772992
 20
-30.8680769099
 10
-42.2273305799
 20
-30.8141498309
 10
-42.2602805641
 20
-30.7579661077
  0
LWPOLYLINE
  5
2A6
100
AcDbEntity
  8
0
100
AcDbPolyline
 62
7
  6
CONTINUOUS
 90
5
 70
0
 10
-40.2221831461
 20
-31.3412578522
 10
-40.2736113775
 20
-31.2903603626
 10
-40.3189372894
 20
-31.2372069419
 10
-40.3579905697
 20
-31.183279867
 10
-40.3909405543
 20
-31.1270961476
  0
LWPOLYLINE
  5
2A7
100
AcDbEntity
  8
0
100
AcDbPolyline
 62
7
  6
CONTINUOUS
 90
3
 70
0
 10
-43.0697540574
 20
-28.705686498
 10
-43.1100079775
 20
-28.6651038462
 10
-43.1541940731
 20
-28.6263849417
  0
LWPOLYLINE
  5
2A8
100
AcDbEntity
  8
0
100
AcDbPolyline
 62
7
  6
CONTINUOUS
 90
4
 70
0
 10
-41.5599843965
 20
-30.1343832117
 10
-41.5184386081
 20
-30.177200844
 10
-41.481719669
 20
-30.2214170121
 10
-41.4502774656
 20
-30.2670646244
  0
LWPOLYLINE
  5
2A9
100
AcDbEntity
  8
0
100
AcDbPolyline
 62
7
  6
CONTINUOUS
 90
19
 70
0
 10
-41.2938790383
 20
-30.0437477457
 10
-41.3236435615
 20
-30.0082130595
 10
-41.3542012388
 20
-29.9754933345
 10
-41.3847709684
 20
-29.9452048054
 10
-41.4152050631
 20
-29.9173646709
 10
-41.4456516156
 20
-29.8919560271
 10
-41.4757730751
 20
-29.8685438676
 10
-41.5055119854
 20
-29.8471128575
 10
-41.5349260326
 20
-29.8276784988
 10
-41.5638503034
 20
-29.8098519846
 10
-41.5922737516
 20
-29.7935555368
 10
-41.6202075458
 20
-29.7788670225
 10
-41.6475200552
 20
-29.765631075
 10
-41.67416955
 20
-29.7538916626
 10
-41.7001978295
 20
-29.7436048674
 10
-41.7255985359
 20
-29.7344834773
 10
-41.7503516238
 20
-29.7266728527
 10
-41.7744771664
 20
-29.7200276533
 10
-41.8210249585
 20
-29.707822612
  0
LWPOLYLINE
  5
2AA
100
AcDbEntity
  8
0
100
AcDbPolyline
 62
7
  6
CONTINUOUS
 90
20
 70
0
 10
-41.1898215841
 20
-30.0377196951
 10
-41.2186834256
 20
-29.9992058401
 10
-41.2484483417
 20
-29.9636710613
 10
-41.2790064455
 20
-29.9309511828
 10
-41.3095765575
 20
-29.9006625388
 10
-41.3400109553
 20
-29.872822376
 10
-41.3704577671
 20
-29.8474137427
 10
-41.4005794698
 20
-29.824001588
 10
-41.4303186136
 20
-29.8025705608
 10
-41.4597328784
 20
-29.7831361794
 10
-41.4886573601
 20
-29.7653096409
 10
-41.5170810173
 20
-29.7490131665
 10
-41.5450150139
 20
-29.7343246241
 10
-41.5723277149
 20
-29.7210886518
 10
-41.598977388
 20
-29.7093492255
 10
-41.6250058351
 20
-29.6990624199
 10
-41.6504067013
 20
-29.6899410058
 10
-41.6751567965
 20
-29.6821311479
 10
-41.6992793386
 20
-29.6754867017
 10
-41.7458525631
 20
-29.6632750277
  0
LWPOLYLINE
  5
2AB
100
AcDbEntity
  8
0
100
AcDbPolyline
 62
7
  6
CONTINUOUS
 90
3
 70
0
 10
-42.111787339
 20
-30.8251877017
 10
-42.1510798055
 20
-30.7710117657
 10
-42.1844585085
 20
-30.7142742969
  0
LWPOLYLINE
  5
2AC
100
AcDbEntity
  8
0
100
AcDbPolyline
 62
7
  6
CONTINUOUS
 90
3
 70
0
 10
-40.2424473309
 20
-31.1943177313
 10
-40.2817397966
 20
-31.1401417998
 10
-40.3151184995
 20
-31.0834043357
  0
LWPOLYLINE
  5
2AD
100
AcDbEntity
  8
0
100
AcDbPolyline
 62
7
  6
CONTINUOUS
 90
4
 70
0
 10
-40.6271309846
 20
-31.2589772985
 10
-40.5846629446
 20
-31.3230495136
 10
-40.5367839178
 20
-31.3869579845
 10
-40.4833976784
 20
-31.4495339593
  0
LWPOLYLINE
  5
2AE
100
AcDbEntity
  8
0
100
AcDbPolyline
 62
7
  6
CONTINUOUS
 90
6
 70
0
 10
-43.0529762179
 20
-28.8743412912
 10
-43.0862785524
 20
-28.8230251934
 10
-43.1250488842
 20
-28.773505644
 10
-43.1688399786
 20
-28.7256140822
 10
-43.2170469617
 20
-28.680647835
 10
-43.2700135495
 20
-28.6388515366
  0
LWPOLYLINE
  5
2AF
100
AcDbEntity
  8
0
100
AcDbPolyline
 62
7
  6
CONTINUOUS
 90
9
 70
0
 10
-41.4502774656
 20
-30.2670646244
 10
-41.4236614489
 20
-30.3141102893
 10
-41.4013251188
 20
-30.3608629393
 10
-41.3835787293
 20
-30.407036005
 10
-41.3701118789
 20
-30.4529159474
 10
-41.3594475272
 20
-30.4976715683
 10
-41.351093463
 20
-30.5410259003
 10
-41.3455421096
 20
-30.5832560648
 10
-41.3427935518
 20
-30.6243621233
  0
LINE
  5
2B0
100
AcDbEntity
  8
0
100
AcDbLine
 62
7
  6
CONTINUOUS
 10
-40.6640910042
 20
-31.1935719974
 11
-40.6271309846
 21
-31.2589772985
  0
LWPOLYLINE
  5
2B1
100
AcDbEntity
  8
0
100
AcDbPolyline
 62
7
  6
CONTINUOUS
 90
5
 70
0
 10
-41.1843491668
 20
-30.2142310432
 10
-41.210122308
 20
-30.1676230175
 10
-41.2369485622
 20
-30.1235896231
 10
-41.2650175664
 20
-30.0822614536
 10
-41.2938790383
 20
-30.0437477457
  0
LWPOLYLINE
  5
2B2
100
AcDbEntity
  8
0
100
AcDbPolyline
 62
7
  6
CONTINUOUS
 90
3
 70
0
 10
-43.3100126971
 20
-28.9772201175
 10
-43.2737039656
 20
-29.0518636378
 10
-43.2501168895
 20
-29.1340954305
  0
LWPOLYLINE
  5
2B3
100
AcDbEntity
  8
0
100
AcDbPolyline
 62
7
  6
CONTINUOUS
 90
9
 70
0
 10
-42.5648987079
 20
-30.7576703019
 10
-42.5334473328
 20
-30.824412055
 10
-42.4964873431
 20
-30.8898204117
 10
-42.4540192485
 20
-30.953895744
 10
-42.4061402443
 20
-31.0178074273
 10
-42.352753943
 20
-31.080386676
 10
-42.2935711141
 20
-31.1381270858
 10
-42.2274840943
 20
-31.1905974928
 10
-42.1556024699
 20
-31.2382304694
  0
LINE
  5
2B4
100
AcDbEntity
  8
0
100
AcDbLine
 62
7
  6
CONTINUOUS
 10
-42.1844585085
 20
-30.7142742969
 11
-42.21192277
 21
-30.6549747999
  0
LINE
  5
2B5
100
AcDbEntity
  8
0
100
AcDbLine
 62
7
  6
CONTINUOUS
 10
-42.2602805641
 20
-30.7579661077
 11
-42.2871266285
 21
-30.6995252849
  0
LWPOLYLINE
  5
2B6
100
AcDbEntity
  8
0
100
AcDbPolyline
 62
7
  6
CONTINUOUS
 90
12
 70
0
 10
-42.8634898309
 20
-29.1947558736
 10
-42.8677210619
 20
-29.1530617792
 10
-42.8743867638
 20
-29.1103329753
 10
-42.8831863571
 20
-29.066358145
 10
-42.8944202268
 20
-29.0213484651
 10
-42.9089898621
 20
-28.9759377068
 10
-42.9271407633
 20
-28.9299903482
 10
-42.9486275009
 20
-28.8836419634
 10
-42.9736154569
 20
-28.8379331756
 10
-43.0020167579
 20
-28.7928032817
 10
-43.0339196567
 20
-28.7483132602
 10
-43.0697540574
 20
-28.705686498
  0
LINE
  5
2B7
100
AcDbEntity
  8
0
100
AcDbLine
 62
7
  6
CONTINUOUS
 10
-45.2781394633
 20
-30.6354648482
 11
-45.3120421998
 21
-29.7946617323
  0
LINE
  5
2B8
100
AcDbEntity
  8
0
100
AcDbLine
 62
7
  6
CONTINUOUS
 10
-44.9957969951
 20
-30.6912177227
 11
-45.0296997317
 21
-29.8504146069
  0
LINE
  5
2B9
100
AcDbEntity
  8
0
100
AcDbLine
 62
7
  6
CONTINUOUS
 10
-44.9544996112
 20
-29.8058663782
 11
-44.9205866497
 21
-30.646663395
  0
LINE
  5
2BA
100
AcDbEntity
  8
0
100
AcDbLine
 62
7
  6
CONTINUOUS
 10
-44.4040349085
 20
-30.8080702728
 11
-44.4379376451
 21
-29.9672671569
  0
LINE
  5
2BB
100
AcDbEntity
  8
0
100
AcDbLine
 62
7
  6
CONTINUOUS
 10
-44.1215131731
 20
-30.8638585464
 11
-44.1520097631
 21
-30.1085098448
  0
LINE
  5
2BC
100
AcDbEntity
  8
0
100
AcDbLine
 62
7
  6
CONTINUOUS
 10
-44.1520097631
 20
-30.1085098448
 11
-44.167003337
 21
-29.7306509638
  0
LINE
  5
2BD
100
AcDbEntity
  8
0
100
AcDbLine
 62
7
  6
CONTINUOUS
 10
-44.0918067128
 20
-29.6861047644
 11
-44.0463028276
 21
-30.8193042187
  0
LINE
  5
2BE
100
AcDbEntity
  8
0
100
AcDbLine
 62
7
  6
CONTINUOUS
 10
-45.3120421998
 20
-29.7946617323
 11
-45.3451033073
 21
-28.9532505128
  0
LINE
  5
2BF
100
AcDbEntity
  8
0
100
AcDbLine
 62
7
  6
CONTINUOUS
 10
-45.0296997317
 20
-29.8504146069
 11
-45.0627608391
 21
-29.0090033873
  0
LINE
  5
2C0
100
AcDbEntity
  8
0
100
AcDbLine
 62
7
  6
CONTINUOUS
 10
-44.9875706887
 20
-28.9644610649
 11
-44.9544996112
 21
-29.8058663782
  0
LINE
  5
2C1
100
AcDbEntity
  8
0
100
AcDbLine
 62
7
  6
CONTINUOUS
 10
-44.4379376451
 20
-29.9672671569
 11
-44.4709987525
 21
-29.1258559374
  0
LINE
  5
2C2
100
AcDbEntity
  8
0
100
AcDbLine
 62
7
  6
CONTINUOUS
 10
-44.1779304723
 20
-29.4524593135
 11
-44.2048313599
 21
-28.7570672274
  0
LINE
  5
2C3
100
AcDbEntity
  8
0
100
AcDbLine
 62
7
  6
CONTINUOUS
 10
-44.1349589979
 20
-28.5734004912
 11
-44.1027371433
 21
-29.4079150662
  0
LINE
  5
2C4
100
AcDbEntity
  8
0
100
AcDbLine
 62
7
  6
CONTINUOUS
 10
-44.2048313599
 20
-28.7570672274
 11
-44.2101426146
 21
-28.617938985
  0
LINE
  5
2C5
100
AcDbEntity
  8
0
100
AcDbLine
 62
7
  6
CONTINUOUS
 10
-45.3451033073
 20
-28.9532505128
 11
-45.3773227856
 21
-28.1112311896
  0
LINE
  5
2C6
100
AcDbEntity
  8
0
100
AcDbLine
 62
7
  6
CONTINUOUS
 10
-45.0627608391
 20
-29.0090033873
 11
-45.0949803174
 21
-28.1669840642
  0
LINE
  5
2C7
100
AcDbEntity
  8
0
100
AcDbLine
 62
7
  6
CONTINUOUS
 10
-45.0197998823
 20
-28.1224474551
 11
-44.9875706887
 21
-28.9644610649
  0
LINE
  5
2C8
100
AcDbEntity
  8
0
100
AcDbLine
 62
7
  6
CONTINUOUS
 10
-44.4709987525
 20
-29.1258559374
 11
-44.5032182308
 21
-28.2838366142
  0
LINE
  5
2C9
100
AcDbEntity
  8
RACCORDO
100
AcDbLine
 62
250
  6
CONTINUOUS
 10
10.1491659878
 20
-46.6910144322
 11
10.2177159152
 21
-46.6852060472
  0
LINE
  5
2CA
100
AcDbEntity
  8
RACCORDO
100
AcDbLine
 62
250
  6
CONTINUOUS
 10
9.962609466
 20
-46.690031595
 11
10.0179763346
 21
-46.6865004638
  0
LINE
  5
2CB
100
AcDbEntity
  8
RACCORDO
100
AcDbLine
 62
250
  6
CONTINUOUS
 10
10.0179763346
 20
-46.6865004638
 11
10.1491659878
 21
-46.6910144322
  0
LINE
  5
2CC
100
AcDbEntity
  8
RACCORDO
100
AcDbLine
 62
7
  6
CONTINUOUS
 10
9.8345957683
 20
-46.9399011914
 11
9.729173923
 21
-46.9337929917
  0
LWPOLYLINE
  5
2CD
100
AcDbEntity
  8
RACCORDO
100
AcDbPolyline
 62
250
  6
CONTINUOUS
 90
3
 70
0
 10
-49.8981438643
 20
-33.1027612421
 10
-49.9960581471
 20
-33.0720249462
 10
-50.0930446528
 20
-33.0312549974
  0
LINE
  5
2CE
100
AcDbEntity
  8
0
100
AcDbLine
 62
7
  6
CONTINUOUS
 10
-42.0809635499
 20
-31.2788157029
 11
-42.0045802519
 21
-31.3116167755
  0
LWPOLYLINE
  5
2CF
100
AcDbEntity
  8
0
100
AcDbPolyline
 62
7
  6
CONTINUOUS
 90
4
 70
0
 10
-41.9040322498
 20
-31.08164027
 10
-41.9720627334
 20
-31.052332174
 10
-42.0345032615
 20
-31.0163223619
 10
-42.0915231531
 20
-30.9721278299
  0
LWPOLYLINE
  5
2D0
100
AcDbEntity
  8
0
100
AcDbPolyline
 62
7
  6
CONTINUOUS
 90
5
 70
0
 10
-43.5686339985
 20
-28.7597656625
 10
-43.4952916343
 20
-28.7988357359
 10
-43.4254293325
 20
-28.848969774
 10
-43.3613579296
 20
-28.9092991721
 10
-43.3100126971
 20
-28.9772201175
  0
LINE
  5
2D1
100
AcDbEntity
  8
0
100
AcDbLine
 62
7
  6
CONTINUOUS
 10
-42.1556024699
 20
-31.2382304694
 11
-42.0809635499
 21
-31.2788157029
  0
LINE
  5
2D2
100
AcDbEntity
  8
0
100
AcDbLine
 62
7
  6
CONTINUOUS
 10
-40.2862502066
 20
-31.6073679128
 11
-40.2116137072
 21
-31.6479503851
  0
LWPOLYLINE
  5
2D3
100
AcDbEntity
  8
0
100
AcDbPolyline
 62
7
  6
CONTINUOUS
 90
5
 70
0
 10
-41.8962356748
 20
-31.0081099775
 10
-41.9584333846
 20
-30.9723507172
 10
-42.0152157629
 20
-30.9285818411
 10
-42.0664578943
 20
-30.8781651443
 10
-42.111787339
 20
-30.8251877017
  0
LWPOLYLINE
  5
2D4
100
AcDbEntity
  8
0
100
AcDbPolyline
 62
7
  6
CONTINUOUS
 90
5
 70
0
 10
-40.0268956747
 20
-31.3772399915
 10
-40.0890933817
 20
-31.3414807341
 10
-40.1458757578
 20
-31.2977118617
 10
-40.1971178874
 20
-31.2472951694
 10
-40.2424473309
 20
-31.1943177313
  0
LWPOLYLINE
  5
2D5
100
AcDbEntity
  8
0
100
AcDbPolyline
 62
7
  6
CONTINUOUS
 90
9
 70
0
 10
-43.2700135495
 20
-28.6388515366
 10
-43.3273969679
 20
-28.5999812345
 10
-43.3875627205
 20
-28.5646014563
 10
-43.4502105818
 20
-28.5330301295
 10
-43.5156414139
 20
-28.5049497871
 10
-43.583122258
 20
-28.4799717967
 10
-43.6524088664
 20
-28.4579666664
 10
-43.7237457356
 20
-28.439064068
 10
-43.7971329266
 20
-28.4232640457
  0
LWPOLYLINE
  5
2D6
100
AcDbEntity
  8
0
100
AcDbPolyline
 62
7
  6
CONTINUOUS
 90
3
 70
0
 10
-41.6551754252
 20
-30.057783444
 10
-41.6055532995
 20
-30.0945560373
 10
-41.5599843965
 20
-30.1343832117
  0
LWPOLYLINE
  5
2D7
100
AcDbEntity
  8
0
100
AcDbPolyline
 62
7
  6
CONTINUOUS
 90
3
 70
0
 10
-39.7858354321
 20
-30.4269134542
 10
-39.7362133065
 20
-30.4636860475
 10
-39.6906444034
 20
-30.5035132219
  0
LWPOLYLINE
  5
2D8
100
AcDbEntity
  8
0
100
AcDbPolyline
 62
7
  6
CONTINUOUS
 90
11
 70
0
 10
-43.1541940731
 20
-28.6263849417
 10
-43.2012793999
 20
-28.5902114902
 10
-43.251284774
 20
-28.5568256755
 10
-43.3041899622
 20
-28.5259857356
 10
-43.358900426
 20
-28.4976474414
 10
-43.4150903654
 20
-28.4718450046
 10
-43.4730859122
 20
-28.4485444536
 10
-43.5327703545
 20
-28.427599233
 10
-43.5941048361
 20
-28.4089605257
 10
-43.6571283646
 20
-28.3926772583
 10
-43.7218409772
 20
-28.3787494578
  0
LWPOLYLINE
  5
2D9
100
AcDbEntity
  8
0
100
AcDbPolyline
 62
7
  6
CONTINUOUS
 90
3
 70
0
 10
-40.4242154804
 20
-31.5072711345
 10
-40.3581298613
 20
-31.5597382193
 10
-40.2862502066
 20
-31.6073679128
  0
LWPOLYLINE
  5
2DA
100
AcDbEntity
  8
0
100
AcDbPolyline
 62
7
  6
CONTINUOUS
 90
4
 70
0
 10
-39.6906444034
 20
-30.5035132219
 10
-39.6490986151
 20
-30.5463308543
 10
-39.6123796759
 20
-30.5905470223
 10
-39.5809374725
 20
-30.6361946346
  0
LWPOLYLINE
  5
2DB
100
AcDbEntity
  8
0
100
AcDbPolyline
 62
7
  6
CONTINUOUS
 90
19
 70
0
 10
-39.4245390452
 20
-30.4128777559
 10
-39.4543035685
 20
-30.3773430697
 10
-39.4848612457
 20
-30.3446233447
 10
-39.5154309754
 20
-30.3143348156
 10
-39.54586507
 20
-30.2864946811
 10
-39.5763116225
 20
-30.2610860374
 10
-39.606433082
 20
-30.2376738779
 10
-39.6361719923
 20
-30.2162428678
 10
-39.6655860395
 20
-30.196808509
 10
-39.6945103103
 20
-30.1789819949
 10
-39.7229337585
 20
-30.162685547
 10
-39.7508675527
 20
-30.1479970328
 10
-39.7781800621
 20
-30.1347610852
 10
-39.8048295569
 20
-30.1230216728
 10
-39.8308578364
 20
-30.1127348776
 10
-39.8562585428
 20
-30.1036134875
 10
-39.8810116307
 20
-30.0958028629
 10
-39.9051371733
 20
-30.0891576635
 10
-39.9516849654
 20
-30.0769526222
  0
LWPOLYLINE
  5
2DC
100
AcDbEntity
  8
0
100
AcDbPolyline
 62
7
  6
CONTINUOUS
 90
20
 70
0
 10
-39.320481591
 20
-30.4068497054
 10
-39.3493434325
 20
-30.3683358503
 10
-39.3791083486
 20
-30.3328010715
 10
-39.4096664524
 20
-30.3000811931
 10
-39.4402365644
 20
-30.2697925491
 10
-39.4706709622
 20
-30.2419523863
 10
-39.501117774
 20
-30.216543753
 10
-39.5312394767
 20
-30.1931315982
 10
-39.5609786205
 20
-30.171700571
 10
-39.5903928853
 20
-30.1522661896
 10
-39.619317367
 20
-30.1344396511
 10
-39.6477410242
 20
-30.1181431768
 10
-39.6756750208
 20
-30.1034546343
 10
-39.7029877218
 20
-30.090218662
 10
-39.7296373949
 20
-30.0784792357
 10
-39.755665842
 20
-30.0681924301
 10
-39.7810667082
 20
-30.059071016
 10
-39.8058168501
 20
-30.0512611466
 10
-39.8299394389
 20
-30.0446166888
 10
-39.8765122897
 20
-30.0324051074
  0
LWPOLYLINE
  5
2DD
100
AcDbEntity
  8
0
100
AcDbPolyline
 62
7
  6
CONTINUOUS
 90
9
 70
0
 10
-39.5809374725
 20
-30.6361946346
 10
-39.5543214558
 20
-30.6832402996
 10
-39.5319851257
 20
-30.7299929496
 10
-39.5142387362
 20
-30.7761660152
 10
-39.5007718858
 20
-30.8220459576
 10
-39.4901075341
 20
-30.8668015785
 10
-39.4817534699
 20
-30.9101559106
 10
-39.4762021165
 20
-30.9523860751
 10
-39.4734535587
 20
-30.9934921336
  0
LINE
  5
2DE
100
AcDbEntity
  8
0
100
AcDbLine
 62
7
  6
CONTINUOUS
 10
-40.6955424935
 20
-31.1268332385
 11
-40.6640910042
 21
-31.1935719974
  0
LINE
  5
2DF
100
AcDbEntity
  8
0
100
AcDbLine
 62
7
  6
CONTINUOUS
 10
-40.3151184995
 20
-31.0834043357
 11
-40.3425827612
 21
-31.0241048434
  0
LINE
  5
2E0
100
AcDbEntity
  8
0
100
AcDbLine
 62
7
  6
CONTINUOUS
 10
-40.3909405543
 20
-31.1270961476
 11
-40.4177866197
 21
-31.0686553284
  0
LWPOLYLINE
  5
2E1
100
AcDbEntity
  8
0
100
AcDbPolyline
 62
7
  6
CONTINUOUS
 90
6
 70
0
 10
-41.0853021774
 20
-30.4909329969
 10
-41.0999479912
 20
-30.4305277948
 10
-41.117618002
 20
-30.3716925348
 10
-41.1375464169
 20
-30.3158424637
 10
-41.1598179338
 20
-30.2635436805
 10
-41.1843491668
 20
-30.2142310432
  0
LWPOLYLINE
  5
2E2
100
AcDbEntity
  8
0
100
AcDbPolyline
 62
7
  6
CONTINUOUS
 90
10
 70
0
 10
-40.9987457539
 20
-30.5076857052
 10
-41.0101046157
 20
-30.4463808426
 10
-41.0247482592
 20
-30.3860429784
 10
-41.0424201663
 20
-30.3271767372
 10
-41.0623502743
 20
-30.2712956194
 10
-41.0846217529
 20
-30.2189986302
 10
-41.109152749
 20
-30.1696877249
 10
-41.1349257945
 20
-30.1230809241
 10
-41.1617522437
 20
-30.0790479507
 10
-41.1898215841
 20
-30.0377196951
  0
LWPOLYLINE
  5
2E3
100
AcDbEntity
  8
0
100
AcDbPolyline
 62
7
  6
CONTINUOUS
 90
7
 70
0
 10
-42.944693381
 20
-29.1848842923
 10
-42.9536488318
 20
-29.1354925405
 10
-42.9656610837
 20
-29.0845451126
 10
-42.9810363345
 20
-29.0323867483
 10
-43.0006936528
 20
-28.980052011
 10
-43.0246937986
 20
-28.9272847625
 10
-43.0529762179
 20
-28.8743412912
  0
LINE
  5
2E4
100
AcDbEntity
  8
0
100
AcDbLine
 62
7
  6
CONTINUOUS
 10
-43.2501168895
 20
-29.1340954305
 11
-43.2392486336
 21
-29.2239134374
  0
LINE
  5
2E5
100
AcDbEntity
  8
0
100
AcDbLine
 62
7
  6
CONTINUOUS
 10
-42.9391011654
 20
-29.2330652781
 11
-42.944693381
 21
-29.1848842923
  0
LWPOLYLINE
  5
2E6
100
AcDbEntity
  8
0
100
AcDbPolyline
 62
7
  6
CONTINUOUS
 90
3
 70
0
 10
-40.9851099275
 20
-30.6347081818
 10
-40.9904143443
 20
-30.5704615971
 10
-40.9987457539
 20
-30.5076857052
  0
LWPOLYLINE
  5
2E7
100
AcDbEntity
  8
0
100
AcDbPolyline
 62
7
  6
CONTINUOUS
 90
12
 70
0
 10
-39.1157699344
 20
-31.003838192
 10
-39.1210743512
 20
-30.9395916073
 10
-39.1294057608
 20
-30.8768157155
 10
-39.1407646226
 20
-30.8155108529
 10
-39.1554082661
 20
-30.7551729887
 10
-39.1730801733
 20
-30.6963067474
 10
-39.1930102812
 20
-30.6404256297
 10
-39.2152817598
 20
-30.5881286404
 10
-39.2398127559
 20
-30.5388177352
 10
-39.2655858014
 20
-30.4922109344
 10
-39.2924122506
 20
-30.4481779609
 10
-39.320481591
 20
-30.4068497054
  0
LWPOLYLINE
  5
2E8
100
AcDbEntity
  8
0
100
AcDbPolyline
 62
7
  6
CONTINUOUS
 90
4
 70
0
 10
-41.0602720727
 20
-30.6801503464
 10
-41.0655924249
 20
-30.6155088185
 10
-41.0739356321
 20
-30.5524362508
 10
-41.0853021774
 20
-30.4909329969
  0
LWPOLYLINE
  5
2E9
100
AcDbEntity
  8
0
100
AcDbPolyline
 62
7
  6
CONTINUOUS
 90
13
 70
0
 10
-39.1909320796
 20
-31.0492803566
 10
-39.1962524319
 20
-30.9846388288
 10
-39.2045956391
 20
-30.9215662611
 10
-39.2159621843
 20
-30.8600630071
 10
-39.2306079981
 20
-30.799657805
 10
-39.2482780089
 20
-30.740822545
 10
-39.2682064238
 20
-30.6849724739
 10
-39.2904779407
 20
-30.6326736907
 10
-39.3150091737
 20
-30.5833610535
 10
-39.3407823149
 20
-30.5367530278
 10
-39.3676085691
 20
-30.4927196333
 10
-39.3956775733
 20
-30.4513914638
 10
-39.4245390452
 20
-30.4128777559
  0
LWPOLYLINE
  5
2EA
100
AcDbEntity
  8
RACCORDO
100
AcDbPolyline
 62
250
  6
CONTINUOUS
 90
28
 70
0
 10
-39.4109647965
 20
-23.2539338468
 10
-39.4051063044
 20
-23.3691296973
 10
-39.3974928462
 20
-23.4811691807
 10
-39.3881257994
 20
-23.5900532531
 10
-39.3769215182
 20
-23.6957421795
 10
-39.3639662865
 20
-23.7982775288
 10
-39.3495162488
 20
-23.8977821256
 10
-39.3336113763
 20
-23.9942446631
 10
-39.3162139501
 20
-24.087678018
 10
-39.2974633994
 20
-24.1782411649
 10
-39.2774054148
 20
-24.2659088852
 10
-39.2559962178
 20
-24.3507077334
 10
-39.2332408526
 20
-24.4328742184
 10
-39.209204288
 20
-24.5124139844
 10
-39.1838231292
 20
-24.5893224892
 10
-39.1569097157
 20
-24.6638208504
 10
-39.1286641665
 20
-24.7358801919
 10
-39.0988876756
 20
-24.8055303108
 10
-39.066794073
 20
-24.8730802486
 10
-39.0326289063
 20
-24.9385325483
 10
-38.9961477171
 20
-25.0018854322
 10
-38.9558292569
 20
-25.0634414114
 10
-38.9124883248
 20
-25.1250039595
 10
-38.865310846
 20
-25.1847701123
 10
-38.810333269
 20
-25.2376334358
 10
-38.7462355963
 20
-25.2818926227
 10
-38.6743402243
 20
-25.319250673
 10
-38.5946478533
 20
-25.3497080812
  0
LINE
  5
2EB
100
AcDbEntity
  8
0
100
AcDbLine
 62
7
  6
CONTINUOUS
 10
-42.9344091452
 20
-29.3326508925
 11
-42.9391011654
 21
-29.2330652781
  0
LINE
  5
2EC
100
AcDbEntity
  8
0
100
AcDbLine
 62
7
  6
CONTINUOUS
 10
-42.8592244974
 20
-29.2880688456
 11
-42.8634898309
 21
-29.1947558736
  0
LINE
  5
2ED
100
AcDbEntity
  8
0
100
AcDbLine
 62
7
  6
CONTINUOUS
 10
-41.2009442255
 20
-29.2121516142
 11
-41.2114981063
 21
-28.9338375171
  0
LINE
  5
2EE
100
AcDbEntity
  8
0
100
AcDbLine
 62
7
  6
CONTINUOUS
 10
-41.1363176711
 20
-28.8893009081
 11
-41.1257606088
 21
-29.1676131204
  0
LINE
  5
2EF
100
AcDbEntity
  8
0
100
AcDbLine
 62
7
  6
CONTINUOUS
 10
-39.3315140761
 20
-29.5812994272
 11
-39.3420679569
 21
-29.3029853301
  0
LINE
  5
2F0
100
AcDbEntity
  8
0
100
AcDbLine
 62
7
  6
CONTINUOUS
 10
-39.2668875217
 20
-29.2584487211
 11
-39.2563304594
 21
-29.5367609335
  0
LINE
  5
2F1
100
AcDbEntity
  8
RACCORDO
100
AcDbLine
 62
250
  6
CONTINUOUS
 10
-39.6145632289
 20
-17.4747914211
 11
-39.4109647965
 21
-23.2539338468
  0
LWPOLYLINE
  5
2F2
100
AcDbEntity
  8
0
100
AcDbPolyline
 62
7
  6
CONTINUOUS
 90
3
 70
0
 10
-43.2392486336
 20
-29.2239134374
 10
-43.2386512119
 20
-29.2644497216
 10
-43.242208684
 20
-29.3041575892
  0
LWPOLYLINE
  5
2F3
100
AcDbEntity
  8
0
100
AcDbPolyline
 62
7
  6
CONTINUOUS
 90
7
 70
0
 10
-41.3427935518
 20
-30.6243621233
 10
-41.3444474048
 20
-30.7285634332
 10
-41.3612579469
 20
-30.8218027234
 10
-41.3932279644
 20
-30.9040820251
 10
-41.4430687112
 20
-30.9777535992
 10
-41.5080733
 20
-31.0404683709
 10
-41.5370132417
 20
-31.0612415572
  0
LWPOLYLINE
  5
2F4
100
AcDbEntity
  8
RACCORDO
100
AcDbPolyline
 62
250
  6
CONTINUOUS
 90
7
 70
0
 10
-39.7672838872
 20
17.6717675688
 10
-39.8691091502
 20
11.7625287559
 10
-39.920025588
 20
5.8726043908
 10
-39.9200257902
 20
0.0029419486
 10
-39.869109673
 20
-5.8454610406
 10
-39.7672845306
 20
-11.6716658085
 10
-39.6145632289
 20
-17.4747914211
  0
LWPOLYLINE
  5
2F5
100
AcDbEntity
  8
RACCORDO
100
AcDbPolyline
 62
250
  6
CONTINUOUS
 90
3
 70
0
 10
-39.4109647965
 20
29.5445732988
 10
-39.6145627297
 20
23.5994246222
 10
-39.7672838872
 20
17.6717675688
  0
LINE
  5
2F6
100
AcDbEntity
  8
0
100
AcDbLine
 62
7
  6
CONTINUOUS
 10
-42.8613805128
 20
-29.3404481307
 11
-42.8592244974
 21
-29.2880688456
  0
LINE
  5
2F7
100
AcDbEntity
  8
RACCORDO
100
AcDbLine
 62
250
  6
CONTINUOUS
 10
-39.4041284214
 20
29.6791461215
 11
-39.4109647965
 21
29.5445732988
  0
LINE
  5
2F8
100
AcDbEntity
  8
RACCORDO
100
AcDbLine
 62
250
  6
CONTINUOUS
 10
-38.2045444049
 20
25.119746931
 11
-38.1707491019
 21
25.1450619453
  0
LWPOLYLINE
  5
2F9
100
AcDbEntity
  8
RACCORDO
100
AcDbPolyline
 62
7
  6
CONTINUOUS
 90
7
 70
0
 10
-38.4288423581
 20
25.103513693
 10
-38.4972372307
 20
25.0532048547
 10
-38.5612307702
 20
24.9840079123
 10
-38.6104091874
 20
24.9047569026
 10
-38.643237924
 20
24.8181692759
 10
-38.6583194679
 20
24.7255606721
 10
-38.65917977
 20
24.7013715109
  0
LINE
  5
2FA
100
AcDbEntity
  8
RACCORDO
100
AcDbLine
 62
7
  6
CONTINUOUS
 10
-38.4261535678
 20
25.1051265953
 11
-38.4283824738
 21
25.1037943569
  0
LINE
  5
2FB
100
AcDbEntity
  8
SUPERFICI
100
AcDbLine
 62
7
  6
CONTINUOUS
 10
-36.9206845038
 20
25.9969608466
 11
-38.4261729211
 21
25.1051151305
  0
LINE
  5
2FC
100
AcDbEntity
  8
RACCORDO
100
AcDbLine
 62
250
  6
CONTINUOUS
 10
-36.7978558235
 20
25.9583593758
 11
-38.1707498303
 21
25.1450620934
  0
LWPOLYLINE
  5
2FD
100
AcDbEntity
  8
RACCORDO
100
AcDbPolyline
 62
7
  6
CONTINUOUS
 90
10
 70
0
 10
-37.7440832373
 20
25.8866653767
 10
-37.6901898163
 20
25.9179084861
 10
-37.6284066405
 20
25.9464089657
 10
-37.5600505845
 20
25.9711901355
 10
-37.4865816146
 20
25.9911497151
 10
-37.4097129468
 20
26.0057296838
 10
-37.3313698257
 20
26.0149278463
 10
-37.2534657016
 20
26.0184605072
 10
-37.1778613223
 20
26.0157905023
 10
-37.1064564375
 20
26.0067786242
  0
LWPOLYLINE
  5
2FE
100
AcDbEntity
  8
RACCORDO
100
AcDbPolyline
 62
250
  6
CONTINUOUS
 90
6
 70
0
 10
-15.7792028448
 20
-41.4793573803
 10
-15.7377315714
 20
-41.4817771736
 10
-15.6960325332
 20
-41.4826653614
 10
-15.6541057301
 20
-41.4820219436
 10
-15.6119357292
 20
-41.4798457239
 10
-15.5771451329
 20
-41.4768031708
  0
LWPOLYLINE
  5
2FF
100
AcDbEntity
  8
0
100
AcDbPolyline
 62
7
  6
CONTINUOUS
 90
4
 70
0
 10
33.8315241163
 20
-44.8420643757
 10
33.8990186866
 20
-44.8461332246
 10
33.9614393967
 20
-44.8308177956
 10
33.984334582
 20
-44.8192550335
  0
LWPOLYLINE
  5
300
100
AcDbEntity
  8
RACCORDO
100
AcDbPolyline
 62
7
  6
CONTINUOUS
 90
10
 70
0
 10
-15.9668942338
 20
-41.6440487026
 10
-15.9281582499
 20
-41.6464591249
 10
-15.8801609712
 20
-41.6478668425
 10
-15.8317621527
 20
-41.6475418371
 10
-15.7829749021
 20
-41.6454653628
 10
-15.733828159
 20
-41.641620636
 10
-15.6843668487
 20
-41.6359950605
 10
-15.6346122489
 20
-41.6285761199
 10
-15.5845812563
 20
-41.6193518091
 10
-15.5771451329
 20
-41.6177192402
  0
LINE
  5
301
100
AcDbEntity
  8
RACCORDO
100
AcDbLine
 62
7
  6
CONTINUOUS
 10
-15.9668230546
 20
-41.6440541691
 11
-15.9668942338
 21
-41.6440487026
  0
LWPOLYLINE
  5
302
100
AcDbEntity
  8
RACCORDO
100
AcDbPolyline
 62
7
  6
CONTINUOUS
 90
7
 70
0
 10
-15.2350270207
 20
-42.0053716868
 10
-15.2535877893
 20
-42.0034540663
 10
-15.2706339045
 20
-42.0015358688
 10
-15.2861585097
 20
-41.9995869774
 10
-15.300406808
 20
-41.9975272118
 10
-15.3131184794
 20
-41.995373163
 10
-15.3166817043
 20
-41.9946938916
  0
LWPOLYLINE
  5
303
100
AcDbEntity
  8
RACCORDO
100
AcDbPolyline
 62
7
  6
CONTINUOUS
 90
4
 70
0
 10
-15.5771451264
 20
-39.881794196
 10
-15.5599531899
 20
-39.8838523938
 10
-15.5131779355
 20
-39.8846670704
 10
-15.4385958113
 20
-39.8920877105
  0
LINE
  5
304
100
AcDbEntity
  8
RACCORDO
100
AcDbLine
 62
7
  6
CONTINUOUS
 10
-15.4385958113
 20
-39.8920877105
 11
-15.0771451329
 21
-39.9488988608
  0
LWPOLYLINE
  5
305
100
AcDbEntity
  8
RACCORDO
100
AcDbPolyline
 62
250
  6
CONTINUOUS
 90
20
 70
0
 10
-16.2178583626
 20
-41.4401162196
 10
-16.1893811281
 20
-41.4446773386
 10
-16.1613141786
 20
-41.4490136308
 10
-16.1336896767
 20
-41.453128523
 10
-16.1065620078
 20
-41.4569764995
 10
-16.0799597434
 20
-41.4605620347
 10
-16.053910354
 20
-41.4638914375
 10
-16.0284630227
 20
-41.4669239701
 10
-16.0036459228
 20
-41.4696648238
 10
-15.9794803391
 20
-41.4721228647
 10
-15.9560016127
 20
-41.4742643942
 10
-15.9332327444
 20
-41.476095612
 10
-15.9111938439
 20
-41.4776265535
 10
-15.8899129286
 20
-41.478830252
 10
-15.8694081795
 20
-41.4797135882
 10
-15.8496979056
 20
-41.4802875566
 10
-15.8308071454
 20
-41.4805321559
 10
-15.8127533719
 20
-41.4804472741
 10
-15.7955476336
 20
-41.4800523637
 10
-15.7792028448
 20
-41.4793572182
  0
LWPOLYLINE
  5
306
100
AcDbEntity
  8
RACCORDO
100
AcDbPolyline
 62
250
  6
CONTINUOUS
 90
3
 70
0
 10
-16.3053924904
 20
-41.4252021069
 10
-16.27590612
 20
-41.430355604
 10
-16.2178583626
 20
-41.4401162196
  0
LWPOLYLINE
  5
307
100
AcDbEntity
  8
RACCORDO
100
AcDbPolyline
 62
250
  6
CONTINUOUS
 90
13
 70
0
 10
9.1117326127
 20
-46.5943351982
 10
9.1798769701
 20
-46.6063880958
 10
9.2499394296
 20
-46.6184472983
 10
9.3215663855
 20
-46.6303216364
 10
9.3947763281
 20
-46.6417888539
 10
9.4690928509
 20
-46.6527851403
 10
9.5438507605
 20
-46.6630612934
 10
9.6186237069
 20
-46.6720780366
 10
9.6925464694
 20
-46.6798073377
 10
9.7647616891
 20
-46.6860385443
 10
9.8346164225
 20
-46.6899413841
 10
9.9010348266
 20
-46.6911941642
 10
9.962609466
 20
-46.690031595
  0
LWPOLYLINE
  5
308
100
AcDbEntity
  8
RACCORDO
100
AcDbPolyline
 62
250
  6
CONTINUOUS
 90
33
 70
0
 10
-52.7678399729
 20
-31.6355353173
 10
-52.7913637768
 20
-31.631360977
 10
-52.8144215626
 20
-31.6268371995
 10
-52.8369891564
 20
-31.6219687275
 10
-52.859042898
 20
-31.6167606651
 10
-52.8805596662
 20
-31.6112184726
 10
-52.9015169024
 20
-31.6053479604
 10
-52.9218926349
 20
-31.5991552833
 10
-52.9416655016
 20
-31.5926469336
 10
-52.9608147723
 20
-31.585829735
 10
-52.9793203709
 20
-31.5787108344
 10
-52.9971628957
 20
-31.5712976956
 10
-53.0143236406
 20
-31.5635980905
 10
-53.0307846139
 20
-31.5556200914
 10
-53.0465285579
 20
-31.5473720626
 10
-53.0615389665
 20
-31.5388626514
 10
-53.0758001025
 20
-31.5301007792
 10
-53.0892970144
 20
-31.5210956319
 10
-53.102015552
 20
-31.5118566507
 10
-53.113942381
 20
-31.5023935219
 10
-53.1250649971
 20
-31.4927161666
 10
-53.1353717393
 20
-31.4828347308
 10
-53.1448518019
 20
-31.4727595742
 10
-53.1534952459
 20
-31.4625012596
 10
-53.1612930095
 20
-31.4520705422
 10
-53.1682369173
 20
-31.4414783574
 10
-53.1743196893
 20
-31.4307358104
 10
-53.1795349482
 20
-31.4198541636
 10
-53.1838772264
 20
-31.4088448255
 10
-53.1873419713
 20
-31.3977193385
 10
-53.1899255505
 20
-31.3864893665
 10
-53.1916252552
 20
-31.3751666833
 10
-53.1922993391
 20
-31.3669888669
  0
LINE
  5
309
100
AcDbEntity
  8
RACCORDO
100
AcDbLine
 62
250
  6
CONTINUOUS
 10
-16.3651160252
 20
-41.4143869459
 11
-16.3053924904
 21
-41.4252021069
  0
LINE
  5
30A
100
AcDbEntity
  8
RACCORDO
100
AcDbLine
 62
250
  6
CONTINUOUS
 10
8.9820553529
 20
-46.5705565765
 11
9.1117326127
 21
-46.5943351982
  0
LWPOLYLINE
  5
30B
100
AcDbEntity
  8
RACCORDO
100
AcDbPolyline
 62
7
  6
CONTINUOUS
 90
4
 70
0
 10
9.5729775191
 20
-46.9095410259
 10
9.619103567
 20
-46.9181245403
 10
9.6639933619
 20
-46.9252374882
 10
9.7065046083
 20
-46.9304617507
  0
LINE
  5
30C
100
AcDbEntity
  8
RACCORDO
100
AcDbLine
 62
250
  6
CONTINUOUS
 10
10.3199208777
 20
-46.6844267174
 11
10.5114078555
 21
-46.7195380612
  0
LINE
  5
30D
100
AcDbEntity
  8
RACCORDO
100
AcDbLine
 62
250
  6
CONTINUOUS
 10
8.8614324946
 20
-46.5477857529
 11
8.9820553529
 21
-46.5705565765
  0
LINE
  5
30E
100
AcDbEntity
  8
RACCORDO
100
AcDbLine
 62
250
  6
CONTINUOUS
 10
-16.4255787141
 20
-41.4030211852
 11
-16.3651160252
 21
-41.4143869459
  0
LINE
  5
30F
100
AcDbEntity
  8
RACCORDO
100
AcDbLine
 62
250
  6
CONTINUOUS
 10
10.5114078555
 20
-46.7195380612
 11
10.5985147536
 21
-46.7359352814
  0
LINE
  5
310
100
AcDbEntity
  8
RACCORDO
100
AcDbLine
 62
250
  6
CONTINUOUS
 10
-15.1620466502
 20
-41.8051544942
 11
-15.0771451329
 21
-41.8213154872
  0
LWPOLYLINE
  5
311
100
AcDbEntity
  8
RACCORDO
100
AcDbPolyline
 62
7
  6
CONTINUOUS
 90
10
 70
0
 10
-16.1543306918
 20
-41.6162680279
 10
-16.135756538
 20
-41.6198709887
 10
-16.1131672291
 20
-41.6240648216
 10
-16.0906980768
 20
-41.6280082835
 10
-16.0684168743
 20
-41.6316661078
 10
-16.0463647161
 20
-41.635005777
 10
-16.024378739
 20
-41.6380198306
 10
-16.0024479591
 20
-41.6406667974
 10
-15.9807187007
 20
-41.6428809986
 10
-15.9668230522
 20
-41.644054138
  0
LWPOLYLINE
  5
312
100
AcDbEntity
  8
RACCORDO
100
AcDbPolyline
 62
7
  6
CONTINUOUS
 90
25
 70
0
 10
45.3941219195
 20
-53.7699592853
 10
45.4036376813
 20
-53.7718125098
 10
45.461314053
 20
-53.7819278418
 10
45.5194834153
 20
-53.7902146927
 10
45.5780710283
 20
-53.7966526229
 10
45.6370676208
 20
-53.8012313556
 10
45.6965321247
 20
-53.8039402796
 10
45.7564257639
 20
-53.8047580151
 10
45.8167061337
 20
-53.8036648193
 10
45.8774309459
 20
-53.8006363224
 10
45.9385618433
 20
-53.7956467611
 10
46.0000587472
 20
-53.7886720269
 10
46.0619811702
 20
-53.7796736045
 10
46.1242941871
 20
-53.7686201268
 10
46.1869576058
 20
-53.7554823538
 10
46.2500277048
 20
-53.740207745
 10
46.3134716656
 20
-53.7227586901
 10
46.3772509821
 20
-53.7030999899
 10
46.4414183741
 20
-53.6811650666
 10
46.5059385424
 20
-53.656910832
 10
46.5707793733
 20
-53.6302935877
 10
46.6360033006
 20
-53.6012261517
 10
46.7016107433
 20
-53.5696390185
 10
46.7675370944
 20
-53.5354927559
 10
46.8224216335
 20
-53.5051999662
  0
LINE
  5
313
100
AcDbEntity
  8
RACCORDO
100
AcDbLine
 62
250
  6
CONTINUOUS
 10
-16.486478201
 20
-41.391239063
 11
-16.4255787141
 21
-41.4030211852
  0
LINE
  5
314
100
AcDbEntity
  8
RACCORDO
100
AcDbLine
 62
250
  6
CONTINUOUS
 10
10.5985147536
 20
-46.7359352814
 11
10.6916769236
 21
-46.7539558047
  0
LINE
  5
315
100
AcDbEntity
  8
RACCORDO
100
AcDbLine
 62
250
  6
CONTINUOUS
 10
8.6519509308
 20
-46.5069914507
 11
8.8614324946
 21
-46.5477857529
  0
LINE
  5
316
100
AcDbEntity
  8
0
100
AcDbLine
 62
7
  6
CONTINUOUS
 10
9.5728832247
 20
-46.9095224082
 11
8.7212004757
 21
-46.7413445149
  0
LINE
  5
317
100
AcDbEntity
  8
0
100
AcDbLine
 62
7
  6
CONTINUOUS
 10
-15.007895588
 20
-42.0556685513
 11
-15.3150582697
 21
-41.9950145428
  0
LINE
  5
318
100
AcDbEntity
  8
RACCORDO
100
AcDbLine
 62
250
  6
CONTINUOUS
 10
-15.0011496636
 20
-42.021505991
 11
8.7279464001
 21
-46.7071819545
  0
LINE
  5
319
100
AcDbEntity
  8
ASSI
100
AcDbLine
 62
7
  6
CONTINUOUS
 10
-51.1568141154
 20
-34.7044879791
 11
-16.1550857405
 21
-41.616119037
  0
LINE
  5
31A
100
AcDbEntity
  8
ASSI
100
AcDbLine
 62
7
  6
CONTINUOUS
 10
10.392485246
 20
-46.85834634
 11
45.3942149406
 21
-53.7699776585
  0
LINE
  5
31B
100
AcDbEntity
  8
RACCORDO
100
AcDbLine
 62
250
  6
CONTINUOUS
 10
-15.0771451329
 20
-41.8213154872
 11
8.6519509308
 21
-46.5069914507
  0
LINE
  5
31C
100
AcDbEntity
  8
RACCORDO
100
AcDbLine
 62
250
  6
CONTINUOUS
 10
10.7464407193
 20
-46.8880760315
 11
44.8482234043
 21
-53.6219540209
  0
LINE
  5
31D
100
AcDbEntity
  8
RACCORDO
100
AcDbLine
 62
250
  6
CONTINUOUS
 10
10.6916769236
 20
-46.7539558047
 11
44.5416306329
 21
-53.4381451141
  0
LINE
  5
31E
100
AcDbEntity
  8
RACCORDO
100
AcDbLine
 62
250
  6
CONTINUOUS
 10
44.054030183
 20
-52.840246521
 11
10.7156461777
 21
-46.2570684606
  0
LINE
  5
31F
100
AcDbEntity
  8
RACCORDO
100
AcDbLine
 62
250
  6
CONTINUOUS
 10
-17.1408403798
 20
-40.7563755922
 11
-51.0102761354
 21
-34.068333174
  0
LINE
  5
320
100
AcDbEntity
  8
RACCORDO
100
AcDbLine
 62
250
  6
CONTINUOUS
 10
43.9092449152
 20
-52.5461388668
 11
10.8138951431
 21
-46.0109516638
  0
LINE
  5
321
100
AcDbEntity
  8
RACCORDO
100
AcDbLine
 62
250
  6
CONTINUOUS
 10
-17.0425798265
 20
-40.5102610836
 11
-50.9090508341
 21
-33.8228041006
  0
LINE
  5
322
100
AcDbEntity
  8
ASSI
100
AcDbLine
 62
7
  6
CONTINUOUS
 10
43.6243595282
 20
-51.5723286013
 11
9.6517078855
 21
-44.8639046144
  0
LINE
  5
323
100
AcDbEntity
  8
ASSI
100
AcDbLine
 62
7
  6
CONTINUOUS
 10
-15.5740111536
 20
-39.8826973637
 11
-49.8331965495
 21
-33.1176928684
  0
LINE
  5
324
100
AcDbEntity
  8
RACCORDO
100
AcDbLine
 62
7
  6
CONTINUOUS
 10
8.6519509308
 20
-44.6345748243
 11
-15.0771451329
 21
-39.9488988608
  0
LINE
  5
325
100
AcDbEntity
  8
RACCORDO
100
AcDbLine
 62
250
  6
CONTINUOUS
 10
-52.7678399641
 20
-31.6355354444
 11
-52.4510867266
 21
-31.6980753249
  0
LINE
  5
326
100
AcDbEntity
  8
RACCORDO
100
AcDbLine
 62
250
  6
CONTINUOUS
 10
43.641891801
 20
-50.6731158636
 11
43.9586457426
 21
-50.7356717455
  0
LINE
  5
327
100
AcDbEntity
  8
RACCORDO
100
AcDbLine
 62
7
  6
CONTINUOUS
 10
-15.3166817043
 20
-41.9946938916
 11
-15.3177133617
 21
-41.9944889577
  0
LWPOLYLINE
  5
328
100
AcDbEntity
  8
RACCORDO
100
AcDbPolyline
 62
250
  6
CONTINUOUS
 90
3
 70
0
 10
-51.1734109385
 20
-34.6610014918
 10
-17.0713237768
 20
-41.3950294312
 10
-17.0513888452
 20
-41.399111152
  0
LWPOLYLINE
  5
329
100
AcDbEntity
  8
RACCORDO
100
AcDbPolyline
 62
7
  6
CONTINUOUS
 90
7
 70
0
 10
8.7279464001
 20
-46.7071819545
 10
8.7618409339
 20
-46.7139894448
 10
8.7976768419
 20
-46.7215535267
 10
8.8354560096
 20
-46.7298668173
 10
8.875267715
 20
-46.7389120919
 10
8.9170304947
 20
-46.7486757582
 10
8.9604933124
 20
-46.7591431201
  0
LINE
  5
32A
100
AcDbEntity
  8
RACCORDO
100
AcDbLine
 62
250
  6
CONTINUOUS
 10
-16.5780266814
 20
-41.3730121566
 11
-16.486478201
 21
-41.391239063
  0
LWPOLYLINE
  5
32B
100
AcDbEntity
  8
RACCORDO
100
AcDbPolyline
 62
250
  6
CONTINUOUS
 90
140
 70
0
 10
45.3941218119
 20
-53.7699592645
 10
45.3862615008
 20
-53.768374993
 10
45.3721959762
 20
-53.7653826551
 10
45.358170598
 20
-53.7621963296
 10
45.344185938
 20
-53.7588161457
 10
45.3302425659
 20
-53.7552422405
 10
45.3163410751
 20
-53.7514747637
 10
45.3024820324
 20
-53.7475138675
 10
45.2886660028
 20
-53.7433597121
 10
45.2748935744
 20
-53.7390124701
 10
45.2611653091
 20
-53.7344723168
 10
45.2474817668
 20
-53.7297394352
 10
45.2338435302
 20
-53.7248140209
 10
45.2202511561
 20
-53.7196962722
 10
45.2067051989
 20
-53.7143863949
 10
45.1932062356
 20
-53.7088846073
 10
45.1797548174
 20
-53.7031911307
 10
45.1663514935
 20
-53.6973061936
 10
45.1529968349
 20
-53.6912300371
 10
45.139691387
 20
-53.6849629052
 10
45.1264356937
 20
-53.6785050493
 10
45.1132303197
 20
-53.6718567331
 10
45.1000758051
 20
-53.6650182233
 10
45.0869726875
 20
-53.6579897939
 10
45.0739215258
 20
-53.6507717313
 10
45.0609228538
 20
-53.6433643247
 10
45.0479772033
 20
-53.6357678707
 10
45.0350851264
 20
-53.6279826781
 10
45.0222471512
 20
-53.6200090585
 10
45.0094638028
 20
-53.6118473313
 10
44.9967356267
 20
-53.6034978272
 10
44.9840631444
 20
-53.5949608804
 10
44.9714468747
 20
-53.5862368323
 10
44.9588873562
 20
-53.5773260363
 10
44.9463851037
 20
-53.5682288486
 10
44.9339406295
 20
-53.558945633
 10
44.9215544653
 20
-53.5494767647
 10
44.9092271192
 20
-53.5398226223
 10
44.8969590967
 20
-53.5299835916
 10
44.8847509222
 20
-53.5199600699
 10
44.8726030971
 20
-53.5097524576
 10
44.8605161198
 20
-53.4993611625
 10
44.8484905073
 20
-53.4887866038
 10
44.8365267538
 20
-53.4780292037
 10
44.8246253507
 20
-53.4670893918
 10
44.812786807
 20
-53.4559676088
 10
44.8010116097
 20
-53.4446642988
 10
44.7893002427
 20
-53.4331799129
 10
44.7776532073
 20
-53.4215149134
 10
44.7660709828
 20
-53.4096697658
 10
44.7545540458
 20
-53.3976449429
 10
44.7431028896
 20
-53.3854409282
 10
44.7317179861
 20
-53.3730582087
 10
44.720399804
 20
-53.3604972784
 10
44.7091488288
 20
-53.3477586421
 10
44.6979655242
 20
-53.3348428079
 10
44.6868503515
 20
-53.3217502911
 10
44.6758037874
 20
-53.3084816173
 10
44.6648262879
 20
-53.2950373158
 10
44.6539183062
 20
-53.2814179226
 10
44.6430803102
 20
-53.2676239842
 10
44.6323127479
 20
-53.2536560507
 10
44.6216160642
 20
-53.2395146789
 10
44.6109907183
 20
-53.2252004359
 10
44.6004371497
 20
-53.2107138924
 10
44.5899557952
 20
-53.1960556257
 10
44.5795471052
 20
-53.1812262235
 10
44.5692115108
 20
-53.1662262769
 10
44.5589494403
 20
-53.1510563836
 10
44.5487613351
 20
-53.1357171514
 10
44.5386476178
 20
-53.1202091916
 10
44.5286087079
 20
-53.1045331221
 10
44.5186450375
 20
-53.0886895706
 10
44.5087570207
 20
-53.0726791684
 10
44.498945068
 20
-53.0565025535
 10
44.4892096021
 20
-53.0401603731
 10
44.479551028
 20
-53.0236532783
 10
44.4699697474
 20
-53.0069819268
 10
44.4604661732
 20
-52.9901469854
 10
44.4510407015
 20
-52.9731491246
 10
44.4416937248
 20
-52.9559890217
 10
44.4324256466
 20
-52.9386673628
 10
44.4232368538
 20
-52.9211848378
 10
44.4141277298
 20
-52.9035421431
 10
44.4050986682
 20
-52.8857399838
 10
44.3961500465
 20
-52.867779069
 10
44.387282239
 20
-52.849660114
 10
44.378495629
 20
-52.8313838425
 10
44.3697905848
 20
-52.8129509827
 10
44.361167471
 20
-52.7943622683
 10
44.3526266607
 20
-52.7756184419
 10
44.3441685127
 20
-52.7567202498
 10
44.3357933819
 20
-52.7376684445
 10
44.3275016309
 20
-52.7184637866
 10
44.3192936087
 20
-52.6991070407
 10
44.3111696605
 20
-52.6795989776
 10
44.3031301389
 20
-52.6599403758
 10
44.295175383
 20
-52.6401320182
 10
44.2873057281
 20
-52.6201746934
 10
44.2795215162
 20
-52.6000691975
 10
44.2718230765
 20
-52.5798163312
 10
44.2642107345
 20
-52.5594169007
 10
44.2566848213
 20
-52.5388717196
 10
44.2492456561
 20
-52.5181816057
 10
44.2418935541
 20
-52.4973473829
 10
44.2346288357
 20
-52.4763698816
 10
44.2274518097
 20
-52.4552499372
 10
44.2203627814
 20
-52.4339883903
 10
44.2133620596
 20
-52.4125860882
 10
44.206449943
 20
-52.3910438829
 10
44.1996267266
 20
-52.3693626319
 10
44.1928927082
 20
-52.3475431993
 10
44.1862481763
 20
-52.3255864536
 10
44.1796934153
 20
-52.3034932688
 10
44.1732287121
 20
-52.2812645251
 10
44.1668543446
 20
-52.2589011073
 10
44.1605705866
 20
-52.2364039054
 10
44.1543777138
 20
-52.2137738155
 10
44.1482759933
 20
-52.1910117384
 10
44.1422656885
 20
-52.1681185798
 10
44.1363470635
 20
-52.1450952517
 10
44.1305203747
 20
-52.1219426702
 10
44.1247858749
 20
-52.0986617569
 10
44.1191438165
 20
-52.0752534386
 10
44.1135944454
 20
-52.0517186469
 10
44.1081380034
 20
-52.0280583184
 10
44.1027747317
 20
-52.0042733951
 10
44.0975048653
 20
-51.9803648236
 10
44.0923286351
 20
-51.9563335553
 10
44.0872462707
 20
-51.9321805468
 10
44.0822579961
 20
-51.9079067592
 10
44.0773640313
 20
-51.8835131585
 10
44.0725645939
 20
-51.8590007153
 10
44.0678598973
 20
-51.8343704052
 10
44.06325015
 20
-51.8096232082
 10
44.0587355577
 20
-51.7847601086
 10
44.0543163226
 20
-51.7597820962
 10
44.0499926421
 20
-51.7346901645
 10
44.0457647086
 20
-51.7094853112
 10
44.041632713
 20
-51.6841685389
  0
LINE
  5
32C
100
AcDbEntity
  8
RACCORDO
100
AcDbLine
 62
250
  6
CONTINUOUS
 10
-51.0543809364
 20
-34.5612383655
 11
-17.040181449
 21
-41.2781143172
  0
LINE
  5
32D
100
AcDbEntity
  8
RACCORDO
100
AcDbLine
 62
250
  6
CONTINUOUS
 10
-15.2390154639
 20
-41.7894811288
 11
-15.1620466502
 21
-41.8051544942
  0
LWPOLYLINE
  5
32E
100
AcDbEntity
  8
RACCORDO
100
AcDbPolyline
 62
250
  6
CONTINUOUS
 90
36
 70
0
 10
10.7156461777
 20
-46.2570684647
 10
10.6893626539
 20
-46.2516870736
 10
10.6635722241
 20
-46.2460205912
 10
10.6382991031
 20
-46.2400742999
 10
10.6135669377
 20
-46.2338536604
 10
10.5893990432
 20
-46.2273645243
 10
10.5658183611
 20
-46.2206131379
 10
10.5428470302
 20
-46.2136057331
 10
10.5205066035
 20
-46.2063488349
 10
10.4988182519
 20
-46.1988494872
 10
10.4778024251
 20
-46.1911146368
 10
10.4574787146
 20
-46.1831514263
 10
10.437866054
 20
-46.1749675097
 10
10.4189828017
 20
-46.1665703765
 10
10.4008467324
 20
-46.1579678129
 10
10.3834748895
 20
-46.1491681982
 10
10.3668835807
 20
-46.1401795946
 10
10.3510883721
 20
-46.131010288
 10
10.3361040936
 20
-46.1216692454
 10
10.3219448062
 20
-46.1121650038
 10
10.3086238023
 20
-46.1025063061
 10
10.2961535961
 20
-46.0927026432
 10
10.2845459053
 20
-46.0827629745
 10
10.2738116076
 20
-46.0726964075
 10
10.2639607496
 20
-46.0625128319
 10
10.2550025685
 20
-46.0522215037
 10
10.2469455028
 20
-46.041831865
 10
10.2397971459
 20
-46.0313542234
 10
10.2335642206
 20
-46.0207981316
 10
10.2282525647
 20
-46.0101732132
 10
10.2238671557
 20
-45.9994899816
 10
10.2204121169
 20
-45.988758126
 10
10.21789071
 20
-45.9779874466
 10
10.2163053156
 20
-45.9671886804
 10
10.2156574309
 20
-45.956371624
 10
10.2156403877
 20
-45.9543397554
  0
LWPOLYLINE
  5
32F
100
AcDbEntity
  8
RACCORDO
100
AcDbPolyline
 62
250
  6
CONTINUOUS
 90
52
 70
0
 10
10.8138951431
 20
-46.0109516638
 10
10.7928424231
 20
-46.0066392083
 10
10.7722207568
 20
-46.002104705
 10
10.7520301441
 20
-45.9973481539
 10
10.7322518887
 20
-45.9923645691
 10
10.7129046869
 20
-45.9871589365
 10
10.6940446286
 20
-45.981746214
 10
10.6756735953
 20
-45.9761259162
 10
10.6577897056
 20
-45.9702985285
 10
10.6404434042
 20
-45.9642804646
 10
10.6236363026
 20
-45.9580712162
 10
10.6073667893
 20
-45.9516712916
 10
10.5916804756
 20
-45.9450986289
 10
10.5765789522
 20
-45.9383527276
 10
10.5620606283
 20
-45.9314340883
 10
10.5481663424
 20
-45.9243621507
 10
10.5348978555
 20
-45.9171364844
 10
10.5222534066
 20
-45.9097575197
 10
10.5102685521
 20
-45.9022459872
 10
10.4989451457
 20
-45.8946015119
 10
10.4882813336
 20
-45.8868244689
 10
10.4783071109
 20
-45.8789367129
 10
10.469024426
 20
-45.8709379429
 10
10.4604313305
 20
-45.86282846
 10
10.4525519744
 20
-45.8546310226
 10
10.4453883479
 20
-45.8463453621
 10
10.4389384607
 20
-45.8379717471
 10
10.4332204918
 20
-45.829533742
 10
10.4282365146
 20
-45.8210311829
 10
10.4239844557
 20
-45.8124642336
 10
10.4204762736
 20
-45.8038569494
 10
10.4177140563
 20
-45.795209207
 10
10.4156957158
 20
-45.7865211296
 10
10.4144269475
 20
-45.7778171423
 10
10.4139098631
 20
-45.7690972007
 10
10.414142351
 20
-45.7603613492
 10
10.4151237712
 20
-45.7516341463
 10
10.4168562365
 20
-45.7429156132
 10
10.4193376341
 20
-45.7342057287
 10
10.4225609853
 20
-45.7255289878
 10
10.4265283595
 20
-45.7168855056
 10
10.4312376873
 20
-45.708275167
 10
10.4366757815
 20
-45.6997221223
 10
10.442844739
 20
-45.6912264888
 10
10.4497424628
 20
-45.6827881492
 10
10.457349475
 20
-45.6744309016
 10
10.4656680631
 20
-45.6661547975
 10
10.4746959396
 20
-45.6579597855
 10
10.4844067642
 20
-45.6498695083
 10
10.4947917568
 20
-45.6418918469
 10
10.5058596975
 20
-45.6340189203
 10
10.5176105864
 20
-45.6262507287
  0
LINE
  5
330
100
AcDbEntity
  8
RACCORDO
100
AcDbLine
 62
250
  6
CONTINUOUS
 10
-17.040181449
 20
-41.2781143172
 11
-16.8751188477
 21
-41.3118992569
  0
LINE
  5
331
100
AcDbEntity
  8
RACCORDO
100
AcDbLine
 62
250
  6
CONTINUOUS
 10
-16.8751188477
 20
-41.3118992569
 11
-16.5780266814
 21
-41.3730121566
  0
LINE
  5
332
100
AcDbEntity
  8
RACCORDO
100
AcDbLine
 62
250
  6
CONTINUOUS
 10
10.3916582934
 20
-46.8581830399
 11
10.3889244916
 21
-46.8576319612
  0
LINE
  5
333
100
AcDbEntity
  8
RACCORDO
100
AcDbLine
 62
250
  6
CONTINUOUS
 10
-51.180083528
 20
-34.6996460558
 11
-51.1652174736
 21
-34.7027964703
  0
LINE
  5
334
100
AcDbEntity
  8
RACCORDO
100
AcDbLine
 62
250
  6
CONTINUOUS
 10
-17.0513888452
 20
-41.399111152
 11
-17.0102128728
 21
-41.4078299021
  0
LWPOLYLINE
  5
335
100
AcDbEntity
  8
RACCORDO
100
AcDbPolyline
 62
7
  6
CONTINUOUS
 90
17
 70
0
 10
-15.3177133617
 20
-41.9944889577
 10
-15.3235285224
 20
-41.9932426327
 10
-15.3317591588
 20
-41.9910762853
 10
-15.3376711855
 20
-41.9888691425
 10
-15.3401134856
 20
-41.9868517762
 10
-15.339110924
 20
-41.9850044018
 10
-15.3346319503
 20
-41.9833372757
 10
-15.3254579371
 20
-41.9822050842
 10
-15.3115147083
 20
-41.9816565
 10
-15.2928928482
 20
-41.9817322471
 10
-15.2686466202
 20
-41.9828843669
 10
-15.2386013574
 20
-41.9852404397
 10
-15.2029733456
 20
-41.9888542199
 10
-15.161427223
 20
-41.994161943
 10
-15.113870683
 20
-42.0013869222
 10
-15.0604408588
 20
-42.0104859531
 10
-15.0011496636
 20
-42.021505991
  0
LWPOLYLINE
  5
336
100
AcDbEntity
  8
RACCORDO
100
AcDbPolyline
 62
250
  6
CONTINUOUS
 90
49
 70
0
 10
43.9586457402
 20
-50.7356716195
 10
43.9826729104
 20
-50.7408872086
 10
44.0071175191
 20
-50.7457437588
 10
44.0319539381
 20
-50.7502361783
 10
44.0571561289
 20
-50.7543597573
 10
44.082697669
 20
-50.7581101725
 10
44.1085517805
 20
-50.761483492
 10
44.1346913577
 20
-50.7644761792
 10
44.1610889953
 20
-50.7670850964
 10
44.187717018
 20
-50.7693075085
 10
44.2145475086
 20
-50.7711410855
 10
44.2415523376
 20
-50.772583905
 10
44.2687031929
 20
-50.7736344544
 10
44.2959716093
 20
-50.7742916322
 10
44.3233289981
 20
-50.7745547494
 10
44.3507466777
 20
-50.7744235303
 10
44.378195903
 20
-50.7738981123
 10
44.4056478959
 20
-50.7729790463
 10
44.4330738755
 20
-50.771667296
 10
44.460445088
 20
-50.7699642364
 10
44.4877328371
 20
-50.7678716533
 10
44.514908514
 20
-50.7653917403
 10
44.5419436275
 20
-50.7625270975
 10
44.5688098337
 20
-50.7592807283
 10
44.5954789656
 20
-50.7556560361
 10
44.6219230631
 20
-50.7516568212
 10
44.6481144019
 20
-50.7472872763
 10
44.6740255226
 20
-50.7425519825
 10
44.6996292599
 20
-50.7374559044
 10
44.7248987703
 20
-50.7320043848
 10
44.7498075611
 20
-50.726203139
 10
44.7743295176
 20
-50.7200582492
 10
44.7984389306
 20
-50.7135761578
 10
44.8221105238
 20
-50.7067636606
 10
44.8453194793
 20
-50.6996278999
 10
44.8680414648
 20
-50.6921763571
 10
44.8902526582
 20
-50.6844168443
 10
44.911929773
 20
-50.6763574966
 10
44.9330500828
 20
-50.6680067638
 10
44.9535914447
 20
-50.6593734006
 10
44.9735323229
 20
-50.6504664585
 10
44.9928518113
 20
-50.6412952755
 10
45.011529655
 20
-50.631869467
 10
45.0295462719
 20
-50.6221989149
 10
45.0468827733
 20
-50.612293758
 10
45.0635209833
 20
-50.602164381
 10
45.0794434583
 20
-50.5918214036
 10
45.0946335049
 20
-50.5812756695
 10
45.1090751977
 20
-50.5705382351
  0
LINE
  5
337
100
AcDbEntity
  8
RACCORDO
100
AcDbLine
 62
250
  6
CONTINUOUS
 10
-17.0102128728
 20
-41.4078299021
 11
-16.9673704817
 21
-41.4172698922
  0
LINE
  5
338
100
AcDbEntity
  8
RACCORDO
100
AcDbLine
 62
250
  6
CONTINUOUS
 10
-51.1949111833
 20
-34.6963013086
 11
-51.180083528
 21
-34.6996460558
  0
LINE
  5
339
100
AcDbEntity
  8
RACCORDO
100
AcDbLine
 62
250
  6
CONTINUOUS
 10
-49.8319044915
 20
-33.1179472065
 11
-49.8981438643
 21
-33.1027612421
  0
LWPOLYLINE
  5
33A
100
AcDbEntity
  8
RACCORDO
100
AcDbPolyline
 62
250
  6
CONTINUOUS
 90
7
 70
0
 10
-16.2766515417
 20
-41.5897347899
 10
-16.2544909414
 20
-41.5948390442
 10
-16.2327450931
 20
-41.5997366819
 10
-16.2114098081
 20
-41.6044223881
 10
-16.1905699302
 20
-41.6088721812
 10
-16.1702308258
 20
-41.6130804842
 10
-16.1544759417
 20
-41.6162394455
  0
LINE
  5
33B
100
AcDbEntity
  8
RACCORDO
100
AcDbLine
 62
250
  6
CONTINUOUS
 10
-16.9673704817
 20
-41.4172698922
 11
-16.9230821637
 21
-41.4273849976
  0
LWPOLYLINE
  5
33C
100
AcDbEntity
  8
RACCORDO
100
AcDbPolyline
 62
7
  6
CONTINUOUS
 90
7
 70
0
 10
8.6519509308
 20
-44.6345748243
 10
8.8062863578
 20
-44.6707231503
 10
8.9715047445
 20
-44.7080899475
 10
9.1428728519
 20
-44.7460777889
 10
9.3152019399
 20
-44.7874135755
 10
9.4834604869
 20
-44.8290606393
 10
9.6538246564
 20
-44.8639770335
  0
LINE
  5
33D
100
AcDbEntity
  8
RACCORDO
100
AcDbLine
 62
250
  6
CONTINUOUS
 10
-16.9230821637
 20
-41.4273849976
 11
-16.8775888184
 21
-41.4381063648
  0
LINE
  5
33E
100
AcDbEntity
  8
RACCORDO
100
AcDbLine
 62
250
  6
CONTINUOUS
 10
-16.3221158533
 20
-41.5789543902
 11
-16.2766515417
 21
-41.5897347899
  0
LWPOLYLINE
  5
33F
100
AcDbEntity
  8
RACCORDO
100
AcDbPolyline
 62
250
  6
CONTINUOUS
 90
40
 70
0
 10
10.3876594417
 20
-46.8573454885
 10
10.383331922
 20
-46.8562989198
 10
10.3798136403
 20
-46.8552695429
 10
10.3771003973
 20
-46.8542610461
 10
10.3752033713
 20
-46.8532828645
 10
10.3741265331
 20
-46.8523419242
 10
10.373864099
 20
-46.8514430469
 10
10.3744119421
 20
-46.8505955123
 10
10.375773371
 20
-46.8498075054
 10
10.3779425824
 20
-46.8490848975
 10
10.3809011916
 20
-46.8484359918
 10
10.3846516017
 20
-46.8478696194
 10
10.3891884023
 20
-46.8473924007
 10
10.3944810149
 20
-46.8470112053
 10
10.40053118
 20
-46.8467351482
 10
10.4073338177
 20
-46.8465711312
 10
10.4148477682
 20
-46.8465240143
 10
10.4230741352
 20
-46.8466027954
 10
10.4320083397
 20
-46.8468142675
 10
10.4416004717
 20
-46.847160752
 10
10.4518504313
 20
-46.8476506682
 10
10.4627549056
 20
-46.8482904446
 10
10.4742590625
 20
-46.8490796883
 10
10.4863582647
 20
-46.8500253587
 10
10.499053987
 20
-46.8511337821
 10
10.5123005835
 20
-46.8524034281
 10
10.5260957471
 20
-46.8538400396
 10
10.5404390515
 20
-46.8554490435
 10
10.5552877634
 20
-46.8572279882
 10
10.5706494915
 20
-46.859183084
 10
10.5865143835
 20
-46.8613170885
 10
10.6028136227
 20
-46.8636218956
 10
10.6195515907
 20
-46.8661027899
 10
10.6367221776
 20
-46.8687612791
 10
10.6542409611
 20
-46.8715830471
 10
10.6721100497
 20
-46.8745719309
 10
10.690326192
 20
-46.8777285332
 10
10.7087970891
 20
-46.8810330431
 10
10.7274917983
 20
-46.884479536
 10
10.7464407193
 20
-46.8880760315
  0
LINE
  5
340
100
AcDbEntity
  8
RACCORDO
100
AcDbLine
 62
250
  6
CONTINUOUS
 10
-16.8775888184
 20
-41.4381063648
 11
-16.8310407698
 21
-41.4493750723
  0
LWPOLYLINE
  5
341
100
AcDbEntity
  8
RACCORDO
100
AcDbPolyline
 62
7
  6
CONTINUOUS
 90
5
 70
0
 10
9.3616616862
 20
-46.8612118361
 10
9.4152306751
 20
-46.8743792149
 10
9.4685390584
 20
-46.8869941463
 10
9.5214027673
 20
-46.8988333992
 10
9.5729775191
 20
-46.9095410259
  0
LINE
  5
342
100
AcDbEntity
  8
RACCORDO
100
AcDbLine
 62
250
  6
CONTINUOUS
 10
-16.3688595859
 20
-41.5675163251
 11
-16.3221158533
 21
-41.5789543902
  0
LINE
  5
343
100
AcDbEntity
  8
RACCORDO
100
AcDbLine
 62
250
  6
CONTINUOUS
 10
-16.8310407698
 20
-41.4493750723
 11
-16.7836824641
 21
-41.4611031653
  0
LINE
  5
344
100
AcDbEntity
  8
RACCORDO
100
AcDbLine
 62
7
  6
CONTINUOUS
 10
8.9604933124
 20
-46.7591431201
 11
9.0525911701
 21
-46.782041768
  0
LINE
  5
345
100
AcDbEntity
  8
RACCORDO
100
AcDbLine
 62
250
  6
CONTINUOUS
 10
-16.4166036344
 20
-41.555548449
 11
-16.3688595859
 21
-41.5675163251
  0
LINE
  5
346
100
AcDbEntity
  8
RACCORDO
100
AcDbLine
 62
250
  6
CONTINUOUS
 10
-16.7836824641
 20
-41.4611031653
 11
-16.7113432813
 21
-41.4794197503
  0
LINE
  5
347
100
AcDbEntity
  8
RACCORDO
100
AcDbLine
 62
7
  6
CONTINUOUS
 10
9.2543597646
 20
-46.8339577026
 11
9.3616616862
 21
-46.8612118361
  0
LINE
  5
348
100
AcDbEntity
  8
RACCORDO
100
AcDbLine
 62
7
  6
CONTINUOUS
 10
9.0525911701
 20
-46.782041768
 11
9.2543597646
 21
-46.8339577026
  0
LINE
  5
349
100
AcDbEntity
  8
RACCORDO
100
AcDbLine
 62
250
  6
CONTINUOUS
 10
-16.5142723737
 20
-41.5304848086
 11
-16.4166036344
 21
-41.555548449
  0
LINE
  5
34A
100
AcDbEntity
  8
RACCORDO
100
AcDbLine
 62
250
  6
CONTINUOUS
 10
-16.7113432813
 20
-41.4794197503
 11
-16.5142723737
 21
-41.5304848086
  0
LWPOLYLINE
  5
34B
100
AcDbEntity
  8
0
100
AcDbPolyline
 62
7
  6
CONTINUOUS
 90
3
 70
0
 10
-41.755224952
 20
-31.0596890168
 10
-41.8284993832
 20
-31.0372226361
 10
-41.8962356748
 20
-31.0081099775
  0
LWPOLYLINE
  5
34C
100
AcDbEntity
  8
0
100
AcDbPolyline
 62
7
  6
CONTINUOUS
 90
3
 70
0
 10
-39.8858849589
 20
-31.4288190271
 10
-39.9591593863
 20
-31.4063526478
 10
-40.0268956747
 20
-31.3772399915
  0
LINE
  5
34D
100
AcDbEntity
  8
0
100
AcDbLine
 62
7
  6
CONTINUOUS
 10
-41.8304122603
 20
-31.1042469792
 11
-41.9040322498
 21
-31.08164027
  0
LINE
  5
34E
100
AcDbEntity
  8
0
100
AcDbLine
 62
7
  6
CONTINUOUS
 10
-39.9610722672
 20
-31.4733769894
 11
-40.0346922522
 21
-31.4507702821
  0
LINE
  5
34F
100
AcDbEntity
  8
0
100
AcDbLine
 62
7
  6
CONTINUOUS
 10
-42.0045802519
 20
-31.3116167755
 11
-41.9254408874
 21
-31.3373710062
  0
LINE
  5
350
100
AcDbEntity
  8
0
100
AcDbLine
 62
7
  6
CONTINUOUS
 10
-40.1352332416
 20
-31.6807493788
 11
-40.0560971603
 21
-31.7065020523
  0
LINE
  5
351
100
AcDbEntity
  8
0
100
AcDbLine
 62
7
  6
CONTINUOUS
 10
-43.6477697893
 20
-28.7308927799
 11
-43.5686339985
 21
-28.7597656625
  0
LINE
  5
352
100
AcDbEntity
  8
0
100
AcDbLine
 62
7
  6
CONTINUOUS
 10
-40.2116137072
 20
-31.6479503851
 11
-40.1352332416
 21
-31.6807493788
  0
LWPOLYLINE
  5
353
100
AcDbEntity
  8
0
100
AcDbPolyline
 62
7
  6
CONTINUOUS
 90
4
 70
0
 10
-40.0346922522
 20
-31.4507702821
 10
-40.102722732
 20
-31.4214621887
 10
-40.165163257
 20
-31.3854523799
 10
-40.2221831461
 20
-31.3412578522
  0
LINE
  5
354
100
AcDbEntity
  8
RACCORDO
100
AcDbLine
 62
250
  6
CONTINUOUS
 10
-38.6534576966
 20
-19.1640499769
 11
-38.6595413949
 21
-19.1391765173
  0
LINE
  5
355
100
AcDbEntity
  8
RACCORDO
100
AcDbLine
 62
250
  6
CONTINUOUS
 10
-38.7895178079
 20
29.6744730613
 11
-38.7783375093
 21
29.5561159988
  0
LWPOLYLINE
  5
356
100
AcDbEntity
  8
RACCORDO
100
AcDbPolyline
 62
250
  6
CONTINUOUS
 90
13
 70
0
 10
-38.4594579406
 20
-19.264693484
 10
-38.4585476812
 20
-19.2756623711
 10
-38.4564270959
 20
-19.286632913
 10
-38.4530961935
 20
-19.2976051156
 10
-38.4485180746
 20
-19.3088238424
 10
-38.4427296501
 20
-19.3200442378
 10
-38.4358416701
 20
-19.3305317463
 10
-38.4279324053
 20
-19.3401400884
 10
-38.4189236453
 20
-19.3490155848
 10
-38.4086914457
 20
-19.3568625989
 10
-38.3971945108
 20
-19.3635825982
 10
-38.3844741838
 20
-19.3692741475
 10
-38.3705304791
 20
-19.3739372566
  0
LWPOLYLINE
  5
357
100
AcDbEntity
  8
RACCORDO
100
AcDbPolyline
 62
250
  6
CONTINUOUS
 90
8
 70
0
 10
-38.3705304791
 20
-19.3739372566
 10
-38.3660950809
 20
-19.4343316222
 10
-38.3560722689
 20
-19.4891098033
 10
-38.3407487389
 20
-19.5367049436
 10
-38.3205630427
 20
-19.5757555947
 10
-38.2960923596
 20
-19.6051448233
 10
-38.2680359689
 20
-19.6240321339
 10
-38.248241936
 20
-19.6304105297
  0
LWPOLYLINE
  5
358
100
AcDbEntity
  8
RACCORDO
100
AcDbPolyline
 62
7
  6
CONTINUOUS
 90
10
 70
0
 10
-38.6596792244
 20
-19.1384338244
 10
-38.6585975438
 20
-19.1616391563
 10
-38.6434240765
 20
-19.2523915897
 10
-38.6129060712
 20
-19.3383489371
 10
-38.565724874
 20
-19.4211188871
 10
-38.5014213728
 20
-19.496369525
 10
-38.4273032674
 20
-19.5565123665
 10
-38.3478334213
 20
-19.5999557441
 10
-38.2602882906
 20
-19.6276338458
 10
-38.2474374133
 20
-19.6301355633
  0
LINE
  5
359
100
AcDbEntity
  8
RACCORDO
100
AcDbLine
 62
250
  6
CONTINUOUS
 10
-38.9818008364
 20
-17.4147999349
 11
-38.7783375093
 21
-23.1895926397
  0
LINE
  5
35A
100
AcDbEntity
  8
RACCORDO
100
AcDbLine
 62
7
  6
CONTINUOUS
 10
-38.6595403148
 20
-19.1392193683
 11
-38.7670066684
 21
-14.3340436725
  0
LINE
  5
35B
100
AcDbEntity
  8
RACCORDO
100
AcDbLine
 62
250
  6
CONTINUOUS
 10
-38.5669545385
 20
-14.4581035867
 11
-38.4594579406
 21
-19.264693484
  0
LWPOLYLINE
  5
35C
100
AcDbEntity
  8
RACCORDO
100
AcDbPolyline
 62
7
  6
CONTINUOUS
 90
8
 70
0
 10
-38.7670066684
 20
-14.3340436725
 10
-38.8476161052
 20
-9.5111572023
 10
-38.901360351
 20
-4.6710775938
 10
-38.9282340059
 20
0.1856754239
 10
-38.92823455
 20
5.0585808608
 10
-38.9013623296
 20
9.9471164977
 10
-38.8476205571
 20
14.8507579194
 10
-38.7670153254
 20
19.7689785933
  0
LINE
  5
35D
100
AcDbEntity
  8
RACCORDO
100
AcDbLine
 62
250
  6
CONTINUOUS
 10
-37.7440832373
 20
25.8866653767
 11
-37.7440832373
 21
25.4996656476
  0
LINE
  5
35E
100
AcDbEntity
  8
RACCORDO
100
AcDbLine
 62
250
  6
CONTINUOUS
 10
-37.1110610158
 20
26.0076878692
 11
-37.1110610158
 21
25.8737336028
  0
LWPOLYLINE
  5
35F
100
AcDbEntity
  8
0
100
AcDbPolyline
 62
7
  6
CONTINUOUS
 90
7
 70
0
 10
-39.4734535587
 20
-30.9934921336
 10
-39.4751074117
 20
-31.0976934435
 10
-39.4919179538
 20
-31.1909327337
 10
-39.5238879713
 20
-31.2732120353
 10
-39.5737287181
 20
-31.3468836095
 10
-39.6387333069
 20
-31.4095983812
 10
-39.6676732486
 20
-31.4303715675
  0
LINE
  5
360
100
AcDbEntity
  8
RACCORDO
100
AcDbLine
 62
7
  6
CONTINUOUS
 10
-38.7670153254
 20
19.7689785933
 11
-38.6595556189
 21
24.7012499888
  0
LWPOLYLINE
  5
361
100
AcDbEntity
  8
RACCORDO
100
AcDbPolyline
 62
250
  6
CONTINUOUS
 90
9
 70
0
 10
-38.4594579406
 20
24.5906346091
 10
-38.5669554432
 20
19.656636159
 10
-38.64758946
 20
14.7366865471
 10
-38.7013507882
 20
9.831314566
 10
-38.7282331826
 20
4.9410216998
 10
-38.7282328594
 20
0.0663595155
 10
-38.7013499157
 20
-4.7920712336
 10
-38.647588329
 20
-9.633723586
 10
-38.5669545385
 20
-14.4581035867
  0
LWPOLYLINE
  5
362
100
AcDbEntity
  8
RACCORDO
100
AcDbPolyline
 62
250
  6
CONTINUOUS
 90
8
 70
0
 10
-38.9818003674
 20
23.6154839141
 10
-39.1343975696
 20
17.6941208026
 10
-39.236129116
 20
11.7920266644
 10
-39.2869950845
 20
5.9082275334
 10
-39.2869953972
 20
0.0436973757
 10
-39.2361298194
 20
-5.7986419103
 10
-39.1343982731
 20
-11.6178163585
 10
-38.9818008364
 20
-17.4147999349
  0
LINE
  5
363
100
AcDbEntity
  8
RACCORDO
100
AcDbLine
 62
250
  6
CONTINUOUS
 10
-38.7783375093
 20
29.5561159988
 11
-38.9818003674
 21
23.6154839141
  0
LINE
  5
364
100
AcDbEntity
  8
0
100
AcDbLine
 62
7
  6
CONTINUOUS
 10
-40.9947492654
 20
-30.7982101069
 11
-40.9851099275
 21
-30.6347081818
  0
LINE
  5
365
100
AcDbEntity
  8
0
100
AcDbLine
 62
7
  6
CONTINUOUS
 10
-39.1254092723
 20
-31.1673401172
 11
-39.1157699344
 21
-31.003838192
  0
LINE
  5
366
100
AcDbEntity
  8
0
100
AcDbLine
 62
7
  6
CONTINUOUS
 10
-41.0699475695
 20
-30.8432964874
 11
-41.0602720727
 21
-30.6801503464
  0
LINE
  5
367
100
AcDbEntity
  8
0
100
AcDbLine
 62
7
  6
CONTINUOUS
 10
-39.2006075764
 20
-31.2124264976
 11
-39.1909320796
 21
-31.0492803566
  0
LWPOLYLINE
  5
368
100
AcDbEntity
  8
RACCORDO
100
AcDbPolyline
 62
250
  6
CONTINUOUS
 90
9
 70
0
 10
-38.3705304791
 20
24.6684350843
 10
-38.3661928646
 20
24.7341171524
 10
-38.3562412186
 20
24.8007953992
 10
-38.3409631303
 20
24.8665624062
 10
-38.3207976195
 20
24.929537527
 10
-38.2963229965
 20
24.9879193449
 10
-38.2682405571
 20
25.0400375402
 10
-38.2373536531
 20
25.0844023971
 10
-38.2045444049
 20
25.119746931
  0
LWPOLYLINE
  5
369
100
AcDbEntity
  8
RACCORDO
100
AcDbPolyline
 62
250
  6
CONTINUOUS
 90
28
 70
0
 10
-38.7783375093
 20
-23.1895926397
 10
-38.7882345813
 20
-23.3024896229
 10
-38.7966908404
 20
-23.4120818627
 10
-38.803788847
 20
-23.5183507011
 10
-38.8096264241
 20
-23.6212092725
 10
-38.8142649514
 20
-23.7207070792
 10
-38.8177165659
 20
-23.8170340916
 10
-38.8200413625
 20
-23.9101750311
 10
-38.8212981261
 20
-24.000117469
 10
-38.8214738989
 20
-24.0870626879
 10
-38.8206228645
 20
-24.1709850333
 10
-38.8187842903
 20
-24.251889128
 10
-38.8159040703
 20
-24.3300282564
 10
-38.8120511296
 20
-24.405413266
 10
-38.8072329031
 20
-24.4780181219
 10
-38.8012864726
 20
-24.5480481663
 10
-38.7943185254
 20
-24.6154732283
 10
-38.7862928418
 20
-24.6803133919
 10
-38.7768183073
 20
-24.7428595694
 10
-38.7662211047
 20
-24.8033139443
 10
-38.7542626019
 20
-24.8614689705
 10
-38.7397079406
 20
-24.9170181653
 10
-38.7231302379
 20
-24.9714433744
 10
-38.7041623316
 20
-25.0232606006
 10
-38.6802575739
 20
-25.0677283212
 10
-38.6508300976
 20
-25.1032502456
 10
-38.6172268395
 20
-25.1313564202
 10
-38.5800275673
 20
-25.1519676677
  0
LWPOLYLINE
  5
36A
100
AcDbEntity
  8
0
100
AcDbPolyline
 62
7
  6
CONTINUOUS
 90
8
 70
0
 10
-43.242208684
 20
-29.3041575892
 10
-43.2499210509
 20
-29.3430370405
 10
-43.2612836003
 20
-29.3821330856
 10
-43.2768009531
 20
-29.4204006473
 10
-43.2979875294
 20
-29.4547049
 10
-43.3257445577
 20
-29.4843894889
 10
-43.3591716098
 20
-29.5101113497
 10
-43.3722913164
 20
-29.5181348368
  0
LINE
  5
36B
100
AcDbEntity
  8
RACCORDO
100
AcDbLine
 62
7
  6
CONTINUOUS
 10
-37.7955835021
 20
25.4786739474
 11
-38.2283911658
 21
25.3022599273
  0
LWPOLYLINE
  5
36C
100
AcDbEntity
  8
RACCORDO
100
AcDbPolyline
 62
250
  6
CONTINUOUS
 90
19
 70
0
 10
29.0971914141
 20
-38.5158782612
 10
29.1300645189
 20
-38.5156553472
 10
29.1620452089
 20
-38.5047726282
 10
29.19306446
 20
-38.4832180744
 10
29.2235378745
 20
-38.4494333163
 10
29.2529493439
 20
-38.4049579896
 10
29.2800434612
 20
-38.354450035
 10
29.3044601005
 20
-38.2989246395
 10
29.3270610682
 20
-38.237415994
 10
29.3484463065
 20
-38.1716134652
 10
29.3687199688
 20
-38.1020656596
 10
29.3878757398
 20
-38.0282320954
 10
29.4061166538
 20
-37.9501431946
 10
29.4234719419
 20
-37.8677805854
 10
29.4399390453
 20
-37.7811634136
 10
29.455575291
 20
-37.6903672806
 10
29.4703645547
 20
-37.5954221773
 10
29.4842920162
 20
-37.496292371
 10
29.497552912
 20
-37.3912733051
  0
LWPOLYLINE
  5
36D
100
AcDbEntity
  8
RACCORDO
100
AcDbPolyline
 62
250
  6
CONTINUOUS
 90
24
 70
0
 10
29.082571128
 20
-38.7136186748
 10
29.1475953452
 20
-38.7169812111
 10
29.2095961445
 20
-38.7097570739
 10
29.2685742227
 20
-38.6919457711
 10
29.3252333609
 20
-38.662305487
 10
29.3788724098
 20
-38.6220761801
 10
29.4273844639
 20
-38.5749801669
 10
29.4692274762
 20
-38.5213543152
 10
29.5059458881
 20
-38.4608600706
 10
29.5400614335
 20
-38.3962073881
 10
29.5723719988
 20
-38.3284227319
 10
29.6020814434
 20
-38.2564784117
 10
29.6293201084
 20
-38.1800033999
 10
29.6540177428
 20
-38.0987987686
 10
29.6762470605
 20
-38.013061719
 10
29.6963529973
 20
-37.9230153146
 10
29.7145160029
 20
-37.8287608559
 10
29.7305582763
 20
-37.7301951909
 10
29.744287424
 20
-37.6272346732
 10
29.7557198623
 20
-37.5198898847
 10
29.7648421952
 20
-37.4081481382
 10
29.7714174384
 20
-37.2918907966
 10
29.7753677487
 20
-37.1710775137
 10
29.7767743929
 20
-37.0457462571
  0
LINE
  5
36E
100
AcDbEntity
  8
0
100
AcDbLine
 62
7
  6
CONTINUOUS
 10
-39.8705926871
 20
-31.4850206634
 11
-39.9610722672
 21
-31.4733769894
  0
LINE
  5
36F
100
AcDbEntity
  8
0
100
AcDbLine
 62
7
  6
CONTINUOUS
 10
-41.7399326802
 20
-31.1158906532
 11
-41.8304122603
 21
-31.1042469792
  0
LWPOLYLINE
  5
370
100
AcDbEntity
  8
0
100
AcDbPolyline
 62
7
  6
CONTINUOUS
 90
4
 70
0
 10
-39.9742057423
 20
-31.7252086099
 10
-39.8309325625
 20
-31.7439196288
 10
-39.6990846441
 20
-31.7384583455
 10
-39.5786594804
 20
-31.7088229225
  0
LWPOLYLINE
  5
371
100
AcDbEntity
  8
0
100
AcDbPolyline
 62
7
  6
CONTINUOUS
 90
4
 70
0
 10
-41.8435457354
 20
-31.3560785997
 10
-41.7002725556
 20
-31.3747896185
 10
-41.5684246371
 20
-31.3693283353
 10
-41.4479994735
 20
-31.3396929122
  0
LINE
  5
372
100
AcDbEntity
  8
0
100
AcDbLine
 62
7
  6
CONTINUOUS
 10
-43.6895636873
 20
-29.8249287844
 11
-43.6051878901
 21
-29.8380584495
  0
LWPOLYLINE
  5
373
100
AcDbEntity
  8
0
100
AcDbPolyline
 62
7
  6
CONTINUOUS
 90
10
 70
0
 10
-39.9959557319
 20
-30.0662750953
 10
-40.0325626689
 20
-30.060056555
 10
-40.0681554936
 20
-30.0554143046
 10
-40.1027341939
 20
-30.0523483354
 10
-40.1363636545
 20
-30.0507960323
 10
-40.1689789472
 20
-30.0508199788
 10
-40.2003853278
 20
-30.052607954
 10
-40.2305178476
 20
-30.0562225263
 10
-40.2594413574
 20
-30.0616010561
 10
-40.2871557959
 20
-30.0687434989
  0
LWPOLYLINE
  5
374
100
AcDbEntity
  8
0
100
AcDbPolyline
 62
7
  6
CONTINUOUS
 90
10
 70
0
 10
-41.865295725
 20
-29.697145085
 10
-41.9019159182
 20
-29.690924572
 10
-41.9375210941
 20
-29.6862814992
 10
-41.9721112408
 20
-29.6832158579
 10
-42.0057511855
 20
-29.6816649989
 10
-42.0383760574
 20
-29.6816915398
 10
-42.069791284
 20
-29.6834833624
 10
-42.0999319736
 20
-29.6871030692
 10
-42.1288629198
 20
-29.6924879863
 10
-42.1565840612
 20
-29.6996380693
  0
LINE
  5
375
100
AcDbEntity
  8
RACCORDO
100
AcDbLine
 62
250
  6
CONTINUOUS
 10
42.3660392127
 20
-48.5543736273
 11
-51.3365477937
 21
-30.051352741
  0
LINE
  5
376
100
AcDbEntity
  8
0
100
AcDbLine
 62
7
  6
CONTINUOUS
 10
-44.1215131731
 20
-30.8638585464
 11
-44.4040349085
 21
-30.8080702728
  0
LINE
  5
377
100
AcDbEntity
  8
0
100
AcDbLine
 62
7
  6
CONTINUOUS
 10
-44.9957969951
 20
-30.6912177227
 11
-45.2781394633
 21
-30.6354648482
  0
LINE
  5
378
100
AcDbEntity
  8
0
100
AcDbLine
 62
7
  6
CONTINUOUS
 10
31.2509382292
 20
-45.6341582611
 11
30.8179102003
 21
-45.5486565701
  0
LINE
  5
379
100
AcDbEntity
  8
0
100
AcDbLine
 62
7
  6
CONTINUOUS
 10
29.6867880968
 20
-45.3252926954
 11
29.2537704602
 21
-45.2397930565
  0
LINE
  5
37A
100
AcDbEntity
  8
0
100
AcDbLine
 62
7
  6
CONTINUOUS
 10
34.6626727962
 20
-46.3078524053
 11
34.174932709
 21
-46.2115460645
  0
LINE
  5
37B
100
AcDbEntity
  8
0
100
AcDbLine
 62
7
  6
CONTINUOUS
 10
27.9783202884
 20
-44.9879357504
 11
27.5452922221
 21
-44.9024331418
  0
LINE
  5
37C
100
AcDbEntity
  8
0
100
AcDbLine
 62
7
  6
CONTINUOUS
 10
26.5614490342
 20
-44.7081526705
 11
26.1284036474
 21
-44.6226466417
  0
LINE
  5
37D
100
AcDbEntity
  8
0
100
AcDbLine
 62
7
  6
CONTINUOUS
 10
30.5292258281
 20
-45.4916513888
 11
30.0961966717
 21
-45.4061431038
  0
LINE
  5
37E
100
AcDbEntity
  8
0
100
AcDbLine
 62
7
  6
CONTINUOUS
 10
28.8443673428
 20
-45.1589500973
 11
28.4113390525
 21
-45.0734419833
  0
LINE
  5
37F
100
AcDbEntity
  8
0
100
AcDbLine
 62
7
  6
CONTINUOUS
 10
33.3629957878
 20
-46.0512165978
 11
32.9299614353
 21
-45.9657072868
  0
LINE
  5
380
100
AcDbEntity
  8
0
100
AcDbLine
 62
7
  6
CONTINUOUS
 10
32.6412773245
 20
-45.9087085284
 11
32.2082427106
 21
-45.8231927943
  0
LINE
  5
381
100
AcDbEntity
  8
0
100
AcDbLine
 62
7
  6
CONTINUOUS
 10
32.0533024976
 20
-45.3449918853
 11
31.3694082985
 21
-45.2099464288
  0
LINE
  5
382
100
AcDbEntity
  8
0
100
AcDbLine
 62
7
  6
CONTINUOUS
 10
31.9038226387
 20
-44.8828381017
 11
31.4841034268
 21
-44.7999580705
  0
LINE
  5
383
100
AcDbEntity
  8
0
100
AcDbLine
 62
7
  6
CONTINUOUS
 10
33.7053563965
 20
-45.2385787251
 11
33.3274166299
 21
-45.1639432239
  0
LINE
  5
384
100
AcDbEntity
  8
0
100
AcDbLine
 62
7
  6
CONTINUOUS
 10
31.9151111606
 20
-44.8256710203
 11
31.5593016229
 21
-44.7554109399
  0
LINE
  5
385
100
AcDbEntity
  8
0
100
AcDbLine
 62
7
  6
CONTINUOUS
 10
-43.6895594876
 20
-29.824929622
 11
-44.167003337
 21
-29.7306509638
  0
LINE
  5
386
100
AcDbEntity
  8
0
100
AcDbLine
 62
7
  6
CONTINUOUS
 10
-43.700486607
 20
-29.5467379623
 11
-44.1779304723
 21
-29.4524593135
  0
LINE
  5
387
100
AcDbEntity
  8
0
100
AcDbLine
 62
7
  6
CONTINUOUS
 10
33.8315241522
 20
-44.8420624751
 11
33.3046844901
 21
-44.7380298873
  0
LINE
  5
388
100
AcDbEntity
  8
0
100
AcDbLine
 62
7
  6
CONTINUOUS
 10
-44.1027371433
 20
-29.4079150662
 11
-43.6252932849
 21
-29.5021937191
  0
LINE
  5
389
100
AcDbEntity
  8
0
100
AcDbLine
 62
7
  6
CONTINUOUS
 10
33.9067172722
 20
-44.7975183516
 11
33.379877646
 21
-44.6934857426
  0
LINE
  5
38A
100
AcDbEntity
  8
0
100
AcDbLine
 62
7
  6
CONTINUOUS
 10
33.8098680137
 20
-44.2831937765
 11
33.2830231913
 21
-44.1791601414
  0
LINE
  5
38B
100
AcDbEntity
  8
0
100
AcDbLine
 62
7
  6
CONTINUOUS
 10
-39.3315140761
 20
-29.5812994272
 11
-40.3031694644
 21
-29.3894310861
  0
LINE
  5
38C
100
AcDbEntity
  8
0
100
AcDbLine
 62
7
  6
CONTINUOUS
 10
-41.2009442255
 20
-29.2121516142
 11
-42.1726888144
 21
-29.0202656591
  0
LINE
  5
38D
100
AcDbEntity
  8
0
100
AcDbLine
 62
7
  6
CONTINUOUS
 10
-43.7326987536
 20
-28.7122176363
 11
-44.2101426146
 21
-28.617938985
  0
LINE
  5
38E
100
AcDbEntity
  8
0
100
AcDbLine
 62
7
  6
CONTINUOUS
 10
30.4390144618
 20
-43.195754528
 11
29.7843910552
 21
-43.0664890409
  0
LINE
  5
38F
100
AcDbEntity
  8
0
100
AcDbLine
 62
7
  6
CONTINUOUS
 10
28.9757502268
 20
-42.9068104386
 11
28.3211276862
 21
-42.7775451225
  0
LINE
  5
390
100
AcDbEntity
  8
0
100
AcDbLine
 62
7
  6
CONTINUOUS
 10
27.8881149843
 20
-42.6920400867
 11
27.4550858279
 21
-42.6065318017
  0
LINE
  5
391
100
AcDbEntity
  8
0
100
AcDbLine
 62
7
  6
CONTINUOUS
 10
27.1664014557
 20
-42.5495266203
 11
26.7333671032
 21
-42.4640173093
  0
LINE
  5
392
100
AcDbEntity
  8
0
100
AcDbLine
 62
7
  6
CONTINUOUS
 10
25.776067818
 20
-42.2749838021
 11
25.3430334655
 21
-42.189474491
  0
LINE
  5
393
100
AcDbEntity
  8
0
100
AcDbLine
 62
7
  6
CONTINUOUS
 10
31.8559019615
 20
-43.4755353427
 11
31.4228511545
 21
-43.3900227824
  0
LINE
  5
394
100
AcDbEntity
  8
0
100
AcDbLine
 62
7
  6
CONTINUOUS
 10
33.8537575673
 20
-43.8700427812
 11
32.8397501215
 21
-43.6698113346
  0
LINE
  5
395
100
AcDbEntity
  8
0
100
AcDbLine
 62
7
  6
CONTINUOUS
 10
30.5141961998
 20
-43.1512171472
 11
29.8595727932
 21
-43.0219516601
  0
LINE
  5
396
100
AcDbEntity
  8
0
100
AcDbLine
 62
7
  6
CONTINUOUS
 10
29.0509319647
 20
-42.8622730578
 11
28.3963094242
 21
-42.7330077417
  0
LINE
  5
397
100
AcDbEntity
  8
0
100
AcDbLine
 62
7
  6
CONTINUOUS
 10
27.9632967223
 20
-42.6475027059
 11
27.5302675659
 21
-42.5619944209
  0
LINE
  5
398
100
AcDbEntity
  8
0
100
AcDbLine
 62
7
  6
CONTINUOUS
 10
27.2415831937
 20
-42.5049892395
 11
26.8085488412
 21
-42.4194799285
  0
LINE
  5
399
100
AcDbEntity
  8
0
100
AcDbLine
 62
7
  6
CONTINUOUS
 10
25.851249556
 20
-42.2304464213
 11
25.4182152035
 21
-42.1449371102
  0
LINE
  5
39A
100
AcDbEntity
  8
0
100
AcDbLine
 62
7
  6
CONTINUOUS
 10
33.928939354
 20
-43.8255053715
 11
32.9149318594
 21
-43.6252739538
  0
LINE
  5
39B
100
AcDbEntity
  8
0
100
AcDbLine
 62
7
  6
CONTINUOUS
 10
31.9310836994
 20
-43.4309979619
 11
31.4980328924
 21
-43.3454854017
  0
LINE
  5
39C
100
AcDbEntity
  8
0
100
AcDbLine
 62
7
  6
CONTINUOUS
 10
-39.3420679569
 20
-29.3029853301
 11
-40.5896095939
 21
-29.0566389945
  0
LINE
  5
39D
100
AcDbEntity
  8
0
100
AcDbLine
 62
7
  6
CONTINUOUS
 10
-41.2114981063
 20
-28.9338375171
 11
-42.4589496767
 21
-28.6875089665
  0
LINE
  5
39E
100
AcDbEntity
  8
0
100
AcDbLine
 62
7
  6
CONTINUOUS
 10
-43.7971388423
 20
-28.4232628845
 11
-44.5032182308
 21
-28.2838366142
  0
LINE
  5
39F
100
AcDbEntity
  8
0
100
AcDbLine
 62
7
  6
CONTINUOUS
 10
-45.0949803174
 20
-28.1669840642
 11
-45.3773227856
 21
-28.1112311896
  0
LINE
  5
3A0
100
AcDbEntity
  8
0
100
AcDbLine
 62
7
  6
CONTINUOUS
 10
-45.3021423504
 20
-28.0666945806
 11
-45.0197998823
 21
-28.1224474551
  0
LINE
  5
3A1
100
AcDbEntity
  8
0
100
AcDbLine
 62
7
  6
CONTINUOUS
 10
-44.4280377957
 20
-28.2393000052
 11
-43.7219583995
 21
-28.378726271
  0
LINE
  5
3A2
100
AcDbEntity
  8
0
100
AcDbLine
 62
7
  6
CONTINUOUS
 10
-42.3837692416
 20
-28.6429723575
 11
-41.1363176711
 21
-28.8893009081
  0
LINE
  5
3A3
100
AcDbEntity
  8
0
100
AcDbLine
 62
7
  6
CONTINUOUS
 10
-40.5144291588
 20
-29.0121023855
 11
-39.2668875217
 21
-29.2584487211
  0
LINE
  5
3A4
100
AcDbEntity
  8
0
100
AcDbLine
 62
7
  6
CONTINUOUS
 10
-43.7326995497
 20
-28.7122174815
 11
-43.6477697893
 21
-28.7308927799
  0
LINE
  5
3A5
100
AcDbEntity
  8
0
100
AcDbLine
 62
7
  6
CONTINUOUS
 10
-41.9254408874
 20
-31.3373710062
 11
-41.8435457354
 21
-31.3560785997
  0
LINE
  5
3A6
100
AcDbEntity
  8
0
100
AcDbLine
 62
7
  6
CONTINUOUS
 10
-40.0560971603
 20
-31.7065020523
 11
-39.9742057423
 21
-31.7252086099
  0
LWPOLYLINE
  5
3A7
100
AcDbEntity
  8
0
100
AcDbPolyline
 62
7
  6
CONTINUOUS
 90
6
 70
0
 10
-41.9538280423
 20
-29.9341942049
 10
-41.8879530231
 20
-29.9499413537
 10
-41.8252099737
 20
-29.9700806344
 10
-41.7655987536
 20
-29.9946119447
 10
-41.708821463
 20
-30.0240018893
 10
-41.6551754252
 20
-30.057783444
  0
LWPOLYLINE
  5
3A8
100
AcDbEntity
  8
0
100
AcDbPolyline
 62
7
  6
CONTINUOUS
 90
6
 70
0
 10
-40.0844880492
 20
-30.3033242151
 10
-40.01861303
 20
-30.319071364
 10
-39.9558699806
 20
-30.3392106447
 10
-39.8962587605
 20
-30.3637419549
 10
-39.8394814699
 20
-30.3931318996
 10
-39.7858354321
 20
-30.4269134542
  0
LWPOLYLINE
  5
3A9
100
AcDbEntity
  8
0
100
AcDbPolyline
 62
7
  6
CONTINUOUS
 90
3
 70
0
 10
-41.8210249585
 20
-29.707822612
 10
-41.8434472108
 20
-29.702262772
 10
-41.865295725
 20
-29.697145085
  0
LWPOLYLINE
  5
3AA
100
AcDbEntity
  8
0
100
AcDbPolyline
 62
7
  6
CONTINUOUS
 90
3
 70
0
 10
-41.7458525631
 20
-29.6632750277
 10
-41.7683032482
 20
-29.6577078018
 10
-41.7901896246
 20
-29.6525802857
  0
LWPOLYLINE
  5
3AB
100
AcDbEntity
  8
0
100
AcDbPolyline
 62
7
  6
CONTINUOUS
 90
3
 70
0
 10
-39.9516849654
 20
-30.0769526222
 10
-39.9741072177
 20
-30.0713927823
 10
-39.9959557319
 20
-30.0662750953
  0
LWPOLYLINE
  5
3AC
100
AcDbEntity
  8
0
100
AcDbPolyline
 62
7
  6
CONTINUOUS
 90
3
 70
0
 10
-39.8765122897
 20
-30.0324051074
 10
-39.8989625546
 20
-30.0268379858
 10
-39.9208483705
 20
-30.0217106087
  0
LWPOLYLINE
  5
3AD
100
AcDbEntity
  8
RACCORDO
100
AcDbPolyline
 62
250
  6
CONTINUOUS
 90
7
 70
0
 10
-51.5912237752
 20
41.597351951
 10
-51.5831180645
 20
41.5706502996
 10
-51.5602316278
 20
41.5464987625
 10
-51.5232628769
 20
41.5232953848
 10
-51.4733227408
 20
41.5017374355
 10
-51.4119119085
 20
41.4824727244
 10
-51.3408757676
 20
41.4660801563
  0
LWPOLYLINE
  5
3AE
100
AcDbEntity
  8
RACCORDO
100
AcDbPolyline
 62
250
  6
CONTINUOUS
 90
10
 70
0
 10
-38.5800275673
 20
-25.1519676677
 10
-38.5836740578
 20
-25.1743767508
 10
-38.5868263031
 20
-25.1967835687
 10
-38.5894778118
 20
-25.2191417409
 10
-38.5916227699
 20
-25.241404565
 10
-38.5932571518
 20
-25.2635264033
 10
-38.5943786163
 20
-25.2854627422
 10
-38.5949850985
 20
-25.3071685643
 10
-38.5950749281
 20
-25.3285984791
 10
-38.5946478533
 20
-25.3497080812
  0
LINE
  5
3AF
100
AcDbEntity
  8
RACCORDO
100
AcDbLine
 62
250
  6
CONTINUOUS
 10
-37.9768523257
 20
-19.6926112347
 11
-38.7783375093
 21
-23.1895926397
  0
LINE
  5
3B0
100
AcDbEntity
  8
RACCORDO
100
AcDbLine
 62
250
  6
CONTINUOUS
 10
-37.3611229456
 20
-19.8337323669
 11
-38.5800275673
 21
-25.1519676677
  0
LINE
  5
3B1
100
AcDbEntity
  8
0
100
AcDbLine
 62
7
  6
CONTINUOUS
 10
-43.525341165
 20
-29.8452348278
 11
-43.4500233546
 21
-29.8464578045
  0
LINE
  5
3B2
100
AcDbEntity
  8
0
100
AcDbLine
 62
7
  6
CONTINUOUS
 10
-43.6051878901
 20
-29.8380584495
 11
-43.525341165
 21
-29.8452348278
  0
LINE
  5
3B3
100
AcDbEntity
  8
0
100
AcDbLine
 62
7
  6
CONTINUOUS
 10
-40.1727791864
 20
-30.2946665687
 11
-40.0844880492
 21
-30.3033242151
  0
LINE
  5
3B4
100
AcDbEntity
  8
0
100
AcDbLine
 62
7
  6
CONTINUOUS
 10
-42.0421191993
 20
-29.9255365588
 11
-41.9538280423
 21
-29.9341942049
  0
LINE
  5
3B5
100
AcDbEntity
  8
RACCORDO
100
AcDbLine
 62
250
  6
CONTINUOUS
 10
-38.5946478533
 20
-25.3497080812
 11
29.082571128
 21
-38.7136186748
  0
LINE
  5
3B6
100
AcDbEntity
  8
RACCORDO
100
AcDbLine
 62
250
  6
CONTINUOUS
 10
-38.5800275673
 20
-25.1519676677
 11
29.0971914141
 21
-38.5158782612
  0
LWPOLYLINE
  5
3B7
100
AcDbEntity
  8
0
100
AcDbPolyline
 62
7
  6
CONTINUOUS
 90
5
 70
0
 10
33.8537575673
 20
-43.8700401473
 10
34.00486268
 20
-43.9177881407
 10
34.1493432321
 20
-43.9998026953
 10
34.2797836854
 20
-44.1118358704
 10
34.3897987603
 20
-44.2479086247
  0
LINE
  5
3B8
100
AcDbEntity
  8
0
100
AcDbLine
 62
7
  6
CONTINUOUS
 10
33.8784623498
 20
-44.3060072914
 11
33.8098680137
 21
-44.2831937765
  0
LINE
  5
3B9
100
AcDbEntity
  8
0
100
AcDbLine
 62
7
  6
CONTINUOUS
 10
34.0912554142
 20
-43.8830370303
 11
33.9289041692
 21
-43.8254984237
  0
LWPOLYLINE
  5
3BA
100
AcDbEntity
  8
RACCORDO
100
AcDbPolyline
 62
250
  6
CONTINUOUS
 90
10
 70
0
 10
-38.5800275673
 20
31.2348899753
 10
-38.5836869123
 20
31.2529816294
 10
-38.5868490921
 20
31.2716558546
 10
-38.5895075871
 20
31.2908739916
 10
-38.5916569144
 20
31.3105962646
 10
-38.5932926362
 20
31.3307818346
 10
-38.5944113713
 20
31.3513888817
 10
-38.595010805
 20
31.3723747315
 10
-38.5950896919
 20
31.3936959457
 10
-38.5946478562
 20
31.4153083817
  0
LWPOLYLINE
  5
3BB
100
AcDbEntity
  8
RACCORDO
100
AcDbPolyline
 62
7
  6
CONTINUOUS
 90
25
 70
0
 10
-51.1734109385
 20
-34.6610014918
 10
-51.1685741742
 20
-34.6605235425
 10
-51.1636765083
 20
-34.6596151734
 10
-51.1587103239
 20
-34.658285801
 10
-51.1536508941
 20
-34.6565470321
 10
-51.1485087883
 20
-34.6544079083
 10
-51.1433309136
 20
-34.6518776238
 10
-51.1381137526
 20
-34.6489696101
 10
-51.1328515305
 20
-34.6457002576
 10
-51.1275909134
 20
-34.6420894985
 10
-51.1223346738
 20
-34.6381560501
 10
-51.1170770846
 20
-34.6339192104
 10
-51.1118556805
 20
-34.6294053351
 10
-51.1066796183
 20
-34.6246387556
 10
-51.1015430802
 20
-34.6196374028
 10
-51.0964633903
 20
-34.6144200434
 10
-51.0914452549
 20
-34.6090047901
 10
-51.086490116
 20
-34.6034129742
 10
-51.0816116489
 20
-34.5976681504
 10
-51.076813946
 20
-34.5917827765
 10
-51.0721020869
 20
-34.5857811141
 10
-51.0674940511
 20
-34.5797056461
 10
-51.0630015671
 20
-34.5735829738
 10
-51.0586280084
 20
-34.5674219086
 10
-51.0543809364
 20
-34.5612383655
  0
LWPOLYLINE
  5
3BC
100
AcDbEntity
  8
0
100
AcDbPolyline
 62
7
  6
CONTINUOUS
 90
6
 70
0
 10
-43.4500233546
 20
-29.8464578045
 10
-43.379204291
 20
-29.8417913284
 10
-43.3129135524
 20
-29.8311710213
 10
-43.2512404468
 20
-29.8144041659
 10
-43.1937288452
 20
-29.7911518154
 10
-43.1772022293
 20
-29.7828838353
  0
LWPOLYLINE
  5
3BD
100
AcDbEntity
  8
RACCORDO
100
AcDbPolyline
 62
250
  6
CONTINUOUS
 90
13
 70
0
 10
27.9942624385
 20
-32.4786890839
 10
28.0044937549
 20
-32.4800379699
 10
28.0144403794
 20
-32.4800485823
 10
28.0241023208
 20
-32.4787209149
 10
28.0336860281
 20
-32.4760767113
 10
28.0429850876
 20
-32.4720942039
 10
28.0513802225
 20
-32.4667081153
 10
28.0587764921
 20
-32.4599566806
 10
28.0652689021
 20
-32.4518016204
 10
28.070523105
 20
-32.4420628783
 10
28.0744276895
 20
-32.4306804096
 10
28.0770941764
 20
-32.4177141843
 10
28.0785226296
 20
-32.4031641592
  0
LWPOLYLINE
  5
3BE
100
AcDbEntity
  8
RACCORDO
100
AcDbPolyline
 62
250
  6
CONTINUOUS
 90
9
 70
0
 10
28.0785226296
 20
-32.4031641592
 10
28.1417112704
 20
-32.4129780775
 10
28.2090502396
 20
-32.4183655245
 10
28.2784934756
 20
-32.4191628119
 10
28.347930972
 20
-32.4153459766
 10
28.4152529196
 20
-32.4070307703
 10
28.4784138051
 20
-32.394469124
 10
28.5354945172
 20
-32.3780424722
 10
28.5847606665
 20
-32.3582501659
  0
LWPOLYLINE
  5
3BF
100
AcDbEntity
  8
RACCORDO
100
AcDbPolyline
 62
7
  6
CONTINUOUS
 90
8
 70
0
 10
28.1168889407
 20
-32.7353747205
 10
28.1527899996
 20
-32.7410905984
 10
28.2079748711
 20
-32.7443269004
 10
28.263292982
 20
-32.7410569698
 10
28.3181351123
 20
-32.7314195543
 10
28.3717130978
 20
-32.7154351753
 10
28.4231205025
 20
-32.6931516884
 10
28.4513803702
 20
-32.6775206759
  0
LINE
  5
3C0
100
AcDbEntity
  8
RACCORDO
100
AcDbLine
 62
7
  6
CONTINUOUS
 10
-38.2482415466
 20
-19.6304106066
 11
28.1167277699
 21
-32.7351972666
  0
LINE
  5
3C1
100
AcDbEntity
  8
RACCORDO
100
AcDbLine
 62
250
  6
CONTINUOUS
 10
-38.3705304791
 20
-19.3739372566
 11
27.9942624385
 21
-32.4786890839
  0
LWPOLYLINE
  5
3C2
100
AcDbEntity
  8
RACCORDO
100
AcDbPolyline
 62
250
  6
CONTINUOUS
 90
6
 70
0
 10
-38.4594579406
 20
-19.264693484
 10
-38.5165836388
 20
-19.2508710713
 10
-38.5658989836
 20
-19.2333124673
 10
-38.6059061478
 20
-19.2125545959
 10
-38.6353906829
 20
-19.1892303796
 10
-38.6534576966
 20
-19.1640499769
  0
LINE
  5
3C3
100
AcDbEntity
  8
RACCORDO
100
AcDbLine
 62
250
  6
CONTINUOUS
 10
29.7116986454
 20
-36.8998820897
 11
29.7756396633
 21
-36.9158954344
  0
LWPOLYLINE
  5
3C4
100
AcDbEntity
  8
RACCORDO
100
AcDbPolyline
 62
7
  6
CONTINUOUS
 90
8
 70
0
 10
44.7705646568
 20
-53.5904409804
 10
44.773846125
 20
-53.5921677565
 10
44.785638167
 20
-53.5980568154
 10
44.797729505
 20
-53.6036062341
 10
44.8100474578
 20
-53.608783128
 10
44.8225627672
 20
-53.613570359
 10
44.8352906145
 20
-53.6179638836
 10
44.8482234043
 20
-53.6219540209
  0
LINE
  5
3C5
100
AcDbEntity
  8
RACCORDO
100
AcDbLine
 62
250
  6
CONTINUOUS
 10
-38.7783375093
 20
29.5561159988
 11
-37.7440832373
 21
25.8866653767
  0
LINE
  5
3C6
100
AcDbEntity
  8
RACCORDO
100
AcDbLine
 62
250
  6
CONTINUOUS
 10
-38.5800275673
 20
31.2348899753
 11
-37.1064564375
 21
26.0067786242
  0
LWPOLYLINE
  5
3C7
100
AcDbEntity
  8
0
100
AcDbPolyline
 62
7
  6
CONTINUOUS
 90
4
 70
0
 10
-40.4169976571
 20
-30.3139365498
 10
-40.339034464
 20
-30.2999730808
 10
-40.2576281208
 20
-30.2935496182
 10
-40.1727791864
 20
-30.2946665687
  0
LWPOLYLINE
  5
3C8
100
AcDbEntity
  8
RACCORDO
100
AcDbPolyline
 62
250
  6
CONTINUOUS
 90
3
 70
0
 10
44.7589956248
 20
-53.5722146843
 10
44.8033194977
 20
-53.5981910054
 10
44.8482234043
 20
-53.6219540209
  0
LWPOLYLINE
  5
3C9
100
AcDbEntity
  8
RACCORDO
100
AcDbPolyline
 62
7
  6
CONTINUOUS
 90
11
 70
0
 10
-15.5771473588
 20
-41.6938478935
 10
-15.5746332317
 20
-41.7326863039
 10
-15.5597815295
 20
-41.7946064826
 10
-15.5340588065
 20
-41.8490307978
 10
-15.4994129358
 20
-41.8957445698
 10
-15.4592009257
 20
-41.9328843733
 10
-15.419298723
 20
-41.9588897383
 10
-15.383604678
 20
-41.9755739806
 10
-15.3517328959
 20
-41.9863358414
 10
-15.3226757418
 20
-41.9934732986
 10
-15.3175495115
 20
-41.994520205
  0
LWPOLYLINE
  5
3CA
100
AcDbEntity
  8
RACCORDO
100
AcDbPolyline
 62
250
  6
CONTINUOUS
 90
10
 70
0
 10
-15.5771450619
 20
-41.6938186335
 10
-15.5771136499
 20
-41.6945077519
 10
-15.5739830342
 20
-41.7003637287
 10
-15.56531881
 20
-41.7066017525
 10
-15.5505538473
 20
-41.7137839184
 10
-15.5291344348
 20
-41.7215929578
 10
-15.5005618896
 20
-41.7299192375
 10
-15.4644401118
 20
-41.7395908673
 10
-15.4204272811
 20
-41.7502533424
 10
-15.2390154639
 20
-41.7894811288
  0
LWPOLYLINE
  5
3CB
100
AcDbEntity
  8
RACCORDO
100
AcDbPolyline
 62
250
  6
CONTINUOUS
 90
10
 70
0
 10
-15.0771451329
 20
-41.8213154872
 10
-15.0761160358
 20
-41.8536712336
 10
-15.0730428698
 20
-41.8843637513
 10
-15.0679678029
 20
-41.9129719004
 10
-15.0609604726
 20
-41.9391031405
 10
-15.0521170283
 20
-41.9623989197
 10
-15.0415588115
 20
-41.9825395934
 10
-15.0294306931
 20
-41.9992488065
 10
-15.0158990869
 20
-42.0122972864
 10
-15.0011496636
 20
-42.021505991
  0
LWPOLYLINE
  5
3CC
100
AcDbEntity
  8
RACCORDO
100
AcDbPolyline
 62
250
  6
CONTINUOUS
 90
34
 70
0
 10
-15.7792054254
 20
-40.6207595395
 10
-15.779484857
 20
-40.6118289115
 10
-15.7801539537
 20
-40.6028398788
 10
-15.7812112
 20
-40.5938128007
 10
-15.7826542015
 20
-40.5847681224
 10
-15.7844796898
 20
-40.575726329
 10
-15.7866835306
 20
-40.5667078992
 10
-15.7892607322
 20
-40.5577332587
 10
-15.7922054576
 20
-40.5488227341
 10
-15.7955110374
 20
-40.5399965066
 10
-15.7991699847
 20
-40.5312745667
 10
-15.8031740125
 20
-40.5226766685
 10
-15.807514052
 20
-40.5142222852
 10
-15.8121802736
 20
-40.5059305652
 10
-15.8171621088
 20
-40.4978202881
 10
-15.8224482742
 20
-40.4899098227
 10
-15.8280267973
 20
-40.4822170854
 10
-15.8338850433
 20
-40.4747594993
 10
-15.840009744
 20
-40.4675539549
 10
-15.8463870277
 20
-40.4606167719
 10
-15.8530024505
 20
-40.4539636622
 10
-15.8598410292
 20
-40.4476096943
 10
-15.8668872752
 20
-40.4415692591
 10
-15.8741252296
 20
-40.4358560375
 10
-15.8815384993
 20
-40.4304829693
 10
-15.889110294
 20
-40.4254622237
 10
-15.8968234646
 20
-40.4208051722
 10
-15.9046605416
 20
-40.4165223623
 10
-15.9126037749
 20
-40.4126234941
 10
-15.920635174
 20
-40.409117398
 10
-15.9287365488
 20
-40.4060120149
 10
-15.9368895507
 20
-40.4033143779
 10
-15.9450757141
 20
-40.4010305971
 10
-15.9532764982
 20
-40.3991658446
  0
LWPOLYLINE
  5
3CD
100
AcDbEntity
  8
RACCORDO
100
AcDbPolyline
 62
250
  6
CONTINUOUS
 90
22
 70
0
 10
-17.1408345859
 20
-41.2579911009
 10
-17.1407102688
 20
-41.2672857706
 10
-17.1403376263
 20
-41.2764100397
 10
-17.1397175851
 20
-41.285341222
 10
-17.1388516867
 20
-41.2940571117
 10
-17.1377420843
 20
-41.3025360381
 10
-17.1363915367
 20
-41.3107569196
 10
-17.134803402
 20
-41.3186993165
 10
-17.1329816288
 20
-41.3263434813
 10
-17.1309307468
 20
-41.3336704081
 10
-17.1286558552
 20
-41.3406618797
 10
-17.1261626102
 20
-41.3473005131
 10
-17.123457211
 20
-41.3535698025
 10
-17.1205463842
 20
-41.3594541604
 10
-17.1174373671
 20
-41.3649389563
 10
-17.1141378897
 20
-41.3700105535
 10
-17.1106561559
 20
-41.3746563423
 10
-17.1070008224
 20
-41.3788647718
 10
-17.1031809775
 20
-41.3826253786
 10
-17.0992061187
 20
-41.3859288127
 10
-17.095086129
 20
-41.3887668606
 10
-17.0908312519
 20
-41.3911324663
  0
LINE
  5
3CE
100
AcDbEntity
  8
RACCORDO
100
AcDbLine
 62
250
  6
CONTINUOUS
 10
-17.1408442544
 20
-41.2579891917
 11
-17.1408403798
 21
-40.7563755922
  0
LINE
  5
3CF
100
AcDbEntity
  8
RACCORDO
100
AcDbLine
 62
250
  6
CONTINUOUS
 10
-15.7792028448
 20
-41.4793573803
 11
-15.7792020873
 21
-40.6207574934
  0
LINE
  5
3D0
100
AcDbEntity
  8
RACCORDO
100
AcDbLine
 62
7
  6
CONTINUOUS
 10
-15.5771451329
 20
-41.6938994361
 11
-15.5771451329
 21
-39.8818754094
  0
LINE
  5
3D1
100
AcDbEntity
  8
RACCORDO
100
AcDbLine
 62
250
  6
CONTINUOUS
 10
-15.0771451329
 20
-41.8213154872
 11
-15.0771451329
 21
-39.9488988608
  0
LWPOLYLINE
  5
3D2
100
AcDbEntity
  8
RACCORDO
100
AcDbPolyline
 62
250
  6
CONTINUOUS
 90
34
 70
0
 10
-17.1408345859
 20
-40.7563767363
 10
-17.1407238224
 20
-40.7474679324
 10
-17.1403917772
 20
-40.7384476322
 10
-17.139839186
 20
-40.7293358179
 10
-17.1390672729
 20
-40.7201526749
 10
-17.1380777478
 20
-40.7109185461
 10
-17.1368728029
 20
-40.7016538878
 10
-17.1354551074
 20
-40.6923792235
 10
-17.1338278019
 20
-40.6831150993
 10
-17.1319944913
 20
-40.6738820376
 10
-17.1299592368
 20
-40.6647004922
 10
-17.1277265472
 20
-40.6555908026
 10
-17.1253013685
 20
-40.6465731493
 10
-17.122689073
 20
-40.6376675089
 10
-17.1198954477
 20
-40.6288936097
 10
-17.1169266813
 20
-40.6202708883
 10
-17.1137893503
 20
-40.6118184463
 10
-17.1104904048
 20
-40.6035550081
 10
-17.1070371528
 20
-40.5954988797
 10
-17.1034372443
 20
-40.5876679073
 10
-17.099698654
 20
-40.5800794388
 10
-17.0958296639
 20
-40.5727502846
 10
-17.0918388449
 20
-40.5656966809
 10
-17.0877350376
 20
-40.5589342532
 10
-17.0835273332
 20
-40.5524779822
 10
-17.0792250528
 20
-40.5463421702
 10
-17.0748377271
 20
-40.5405404097
 10
-17.0703750753
 20
-40.5350855531
 10
-17.0658469833
 20
-40.5299896846
 10
-17.0612634822
 20
-40.5252640927
 10
-17.0566347255
 20
-40.520919246
 10
-17.0519709672
 20
-40.5169647695
 10
-17.0472825388
 20
-40.5134094233
 10
-17.0425798265
 20
-40.5102610836
  0
LINE
  5
3D3
100
AcDbEntity
  8
RACCORDO
100
AcDbLine
 62
7
  6
CONTINUOUS
 10
-15.5771427894
 20
-39.881733404
 11
-15.5771451264
 21
-39.881794196
  0
LWPOLYLINE
  5
3D4
100
AcDbEntity
  8
0
100
AcDbPolyline
 62
7
  6
CONTINUOUS
 90
9
 70
0
 10
-43.094010661
 20
-29.7270275356
 10
-43.0537493586
 20
-29.6861933077
 10
-43.0195588228
 20
-29.6400333367
 10
-42.9914250235
 20
-29.5917244874
 10
-42.9698216409
 20
-29.5416984862
 10
-42.9542746916
 20
-29.4895233878
 10
-42.9433495647
 20
-29.4370812149
 10
-42.9365682822
 20
-29.3849994728
 10
-42.9344091452
 20
-29.3326508925
  0
LWPOLYLINE
  5
3D5
100
AcDbEntity
  8
RACCORDO
100
AcDbPolyline
 62
250
  6
CONTINUOUS
 90
32
 70
0
 10
-15.7792054254
 20
-41.4793573253
 10
-15.781013669
 20
-41.4886660839
 10
-15.7832067546
 20
-41.497875479
 10
-15.7857797325
 20
-41.5069647259
 10
-15.7887267958
 20
-41.5159133109
 10
-15.7920412934
 20
-41.524701038
 10
-15.7957157445
 20
-41.5333080741
 10
-15.7997418565
 20
-41.5417149939
 10
-15.8041105427
 20
-41.5499028239
 10
-15.8088119434
 20
-41.5578530849
 10
-15.8138354481
 20
-41.5655478339
 10
-15.819169719
 20
-41.5729697045
 10
-15.8248027174
 20
-41.5801019464
 10
-15.83072173
 20
-41.5869284627
 10
-15.8369133982
 20
-41.5934338466
 10
-15.843363748
 20
-41.5996034162
 10
-15.8500582216
 20
-41.6054232472
 10
-15.8569817102
 20
-41.6108802048
 10
-15.8641185881
 20
-41.6159619734
 10
-15.871452748
 20
-41.6206570836
 10
-15.8789676375
 20
-41.6249549392
 10
-15.8866462962
 20
-41.6288458403
 10
-15.8944713941
 20
-41.6323210056
 10
-15.9024252707
 20
-41.6353725917
 10
-15.9104899748
 20
-41.6379937118
 10
-15.9186473051
 20
-41.64017845
 10
-15.9268788514
 20
-41.6419218758
 10
-15.9351660358
 20
-41.6432200542
 10
-15.943490155
 20
-41.6440700556
 10
-15.9518324221
 20
-41.6444699614
 10
-15.9601740095
 20
-41.6444188692
 10
-15.9668230546
 20
-41.6440541691
  0
LWPOLYLINE
  5
3D6
100
AcDbEntity
  8
RACCORDO
100
AcDbPolyline
 62
250
  6
CONTINUOUS
 90
10
 70
0
 10
43.041670349
 20
22.988256266
 10
42.9914990561
 20
22.9703541077
 10
42.9298895488
 20
22.9555980665
 10
42.858693201
 20
22.9444315514
 10
42.780049444
 20
22.9371901045
 10
42.696321528
 20
22.9340913238
 10
42.6100255157
 20
22.9352283159
 10
42.5237545913
 20
22.9405668958
 10
42.4401011284
 20
22.9499466249
 10
42.3615788489
 20
22.9630856321
  0
LWPOLYLINE
  5
3D7
100
AcDbEntity
  8
0
100
AcDbPolyline
 62
7
  6
CONTINUOUS
 90
5
 70
0
 10
-41.3420019154
 20
-31.2889101043
 10
-41.2343413244
 20
-31.2059475948
 10
-41.1552092836
 20
-31.1057042754
 10
-41.101590275
 20
-30.9851455868
 10
-41.0699475695
 20
-30.8432964874
  0
LWPOLYLINE
  5
3D8
100
AcDbEntity
  8
RACCORDO
100
AcDbPolyline
 62
250
  6
CONTINUOUS
 90
34
 70
0
 10
-52.1121985453
 20
-31.6494390245
 10
-52.1184751548
 20
-31.6537160543
 10
-52.1252126074
 20
-31.6578860447
 10
-52.1323959768
 20
-31.6619397573
 10
-52.1400093488
 20
-31.6658682114
 10
-52.1480358564
 20
-31.6696627038
 10
-52.1564577175
 20
-31.6733148281
 10
-52.165256274
 20
-31.6768164933
 10
-52.1744120334
 20
-31.6801599416
 10
-52.1839047116
 20
-31.6833377659
 10
-52.1937132783
 20
-31.686342926
 10
-52.2038160033
 20
-31.6891687641
 10
-52.2141905048
 20
-31.6918090197
 10
-52.2248137986
 20
-31.6942578436
 10
-52.2356623497
 20
-31.6965098106
 10
-52.2467121239
 20
-31.6985599316
 10
-52.2579386411
 20
-31.7004036647
 10
-52.2693170297
 20
-31.7020369253
 10
-52.2808220819
 20
-31.7034560949
 10
-52.2924283088
 20
-31.7046580295
 10
-52.3041099977
 20
-31.7056400664
 10
-52.3158412687
 20
-31.7064000298
 10
-52.327596132
 20
-31.7069362361
 10
-52.3393485454
 20
-31.7072474975
 10
-52.3510724723
 20
-31.7073331242
 10
-52.3627419392
 20
-31.7071929268
 10
-52.3743310932
 20
-31.7068272156
 10
-52.3858142594
 20
-31.706236801
 10
-52.3971659975
 20
-31.7054229909
 10
-52.4083611586
 20
-31.7043875883
 10
-52.4193749407
 20
-31.7031328871
 10
-52.4301829434
 20
-31.701661667
 10
-52.4407612224
 20
-31.6999771873
 10
-52.4510863422
 20
-31.6980831799
  0
LINE
  5
3D9
100
AcDbEntity
  8
RACCORDO
100
AcDbLine
 62
250
  6
CONTINUOUS
 10
46.280951036
 20
30.5361099021
 11
46.7137291151
 21
30.8174175149
  0
LWPOLYLINE
  5
3DA
100
AcDbEntity
  8
RACCORDO
100
AcDbPolyline
 62
250
  6
CONTINUOUS
 90
5
 70
0
 10
51.3545291902
 20
33.8223071426
 10
51.7539058789
 20
34.0819310793
 10
52.137253016
 20
34.3316364756
 10
52.5035722121
 20
34.570741218
 10
52.8528634672
 20
34.7992453065
  0
LINE
  5
3DB
100
AcDbEntity
  8
RACCORDO
100
AcDbLine
 62
250
  6
CONTINUOUS
 10
50.5016968215
 20
33.2692109672
 11
51.3545291902
 21
33.8223071426
  0
LINE
  5
3DC
100
AcDbEntity
  8
RACCORDO
100
AcDbLine
 62
250
  6
CONTINUOUS
 10
46.7137291151
 20
30.8174175149
 11
47.6022605404
 21
31.3937716357
  0
LINE
  5
3DD
100
AcDbEntity
  8
RACCORDO
100
AcDbLine
 62
250
  6
CONTINUOUS
 10
47.6022605404
 20
31.3937716357
 11
50.5016968215
 21
33.2692109672
  0
LINE
  5
3DE
100
AcDbEntity
  8
RACCORDO
100
AcDbLine
 62
250
  6
CONTINUOUS
 10
50.1388214735
 20
30.9709496706
 11
51.1637267789
 21
31.5269415457
  0
LWPOLYLINE
  5
3DF
100
AcDbEntity
  8
RACCORDO
100
AcDbPolyline
 62
250
  6
CONTINUOUS
 90
8
 70
0
 10
51.1637267789
 20
31.5269415457
 10
51.6533594625
 20
31.7921702354
 10
52.115525507
 20
32.0420316972
 10
52.5569021289
 20
32.2802289835
 10
52.9807926487
 20
32.5084132211
 10
53.3882981729
 20
32.7271347853
 10
53.7783175949
 20
32.9358433008
 10
54.1508509147
 20
33.1345387675
  0
LWPOLYLINE
  5
3E0
100
AcDbEntity
  8
RACCORDO
100
AcDbPolyline
 62
250
  6
CONTINUOUS
 90
6
 70
0
 10
47.1904401462
 20
29.3759638057
 10
47.6462367881
 20
29.6214491978
 10
48.1077290472
 20
29.8704322363
 10
48.5877336454
 20
30.1298738028
 10
49.0937750599
 20
30.403995455
 10
50.1388214735
 20
30.9709496706
  0
LWPOLYLINE
  5
3E1
100
AcDbEntity
  8
RACCORDO
100
AcDbPolyline
 62
250
  6
CONTINUOUS
 90
15
 70
0
 10
10.2156403843
 20
-46.6565751576
 10
10.2159162769
 20
-46.657604569
 10
10.2171638043
 20
-46.6590568725
 10
10.2194113366
 20
-46.6605628325
 10
10.2226522929
 20
-46.6621118139
 10
10.2268757036
 20
-46.6637385962
 10
10.2320707284
 20
-46.6654334754
 10
10.2382259409
 20
-46.6671856548
 10
10.2453242236
 20
-46.6690287544
 10
10.2533503609
 20
-46.6709544759
 10
10.2622886852
 20
-46.6729521786
 10
10.2721168838
 20
-46.6750526227
 10
10.2828158972
 20
-46.6772490139
 10
10.2943665286
 20
-46.6795311703
 10
10.3199208777
 20
-46.6844267174
  0
LWPOLYLINE
  5
3E2
100
AcDbEntity
  8
0
100
AcDbPolyline
 62
7
  6
CONTINUOUS
 90
5
 70
0
 10
-39.4726619223
 20
-31.6580401145
 10
-39.3650013314
 20
-31.575077605
 10
-39.2858692905
 20
-31.4748342856
 10
-39.2322502819
 20
-31.354275597
 10
-39.2006075764
 20
-31.2124264976
  0
LINE
  5
3E3
100
AcDbEntity
  8
RACCORDO
100
AcDbLine
 62
7
  6
CONTINUOUS
 10
-49.8073843849
 20
-33.1606373304
 11
-50.9090508341
 21
-33.8228041006
  0
LINE
  5
3E4
100
AcDbEntity
  8
0
100
AcDbLine
 62
7
  6
CONTINUOUS
 10
-45.3773227856
 20
-28.1112311896
 11
-45.3021423504
 21
-28.0666945806
  0
LINE
  5
3E5
100
AcDbEntity
  8
0
100
AcDbLine
 62
7
  6
CONTINUOUS
 10
-45.0949803174
 20
-28.1669840642
 11
-45.0197998823
 21
-28.1224474551
  0
LINE
  5
3E6
100
AcDbEntity
  8
0
100
AcDbLine
 62
7
  6
CONTINUOUS
 10
-44.5032182308
 20
-28.2838366142
 11
-44.4280377957
 21
-28.2393000052
  0
LINE
  5
3E7
100
AcDbEntity
  8
0
100
AcDbLine
 62
250
  6
CONTINUOUS
 10
-43.7971388423
 20
-28.4232628845
 11
-43.7219583995
 21
-28.378726271
  0
LINE
  5
3E8
100
AcDbEntity
  8
0
100
AcDbLine
 62
7
  6
CONTINUOUS
 10
-44.1779304723
 20
-29.4524593135
 11
-44.1027371433
 21
-29.4079150662
  0
LINE
  5
3E9
100
AcDbEntity
  8
0
100
AcDbLine
 62
7
  6
CONTINUOUS
 10
-42.4589496767
 20
-28.6875089665
 11
-42.3837692416
 21
-28.6429723575
  0
LINE
  5
3EA
100
AcDbEntity
  8
0
100
AcDbLine
 62
250
  6
CONTINUOUS
 10
-43.700486607
 20
-29.5467379623
 11
-43.6252932849
 21
-29.5021937191
  0
LINE
  5
3EB
100
AcDbEntity
  8
0
100
AcDbLine
 62
250
  6
CONTINUOUS
 10
-42.9368722777
 20
-29.2800355646
 11
-42.8616838742
 21
-29.2354942352
  0
LINE
  5
3EC
100
AcDbEntity
  8
0
100
AcDbLine
 62
7
  6
CONTINUOUS
 10
-44.9957969951
 20
-30.6912177227
 11
-44.9205866497
 21
-30.646663395
  0
LINE
  5
3ED
100
AcDbEntity
  8
SUPERFICI
100
AcDbLine
 62
7
  6
CONTINUOUS
 10
-43.1768779902
 20
-29.7834272375
 11
-43.1016830736
 21
-29.7388820497
  0
LINE
  5
3EE
100
AcDbEntity
  8
0
100
AcDbLine
 62
7
  6
CONTINUOUS
 10
-41.2114981063
 20
-28.9338375171
 11
-41.1363176711
 21
-28.8893009081
  0
LINE
  5
3EF
100
AcDbEntity
  8
RACCORDO
100
AcDbLine
 62
250
  6
CONTINUOUS
 10
28.1940932739
 20
12.040300356
 11
29.4660513831
 21
12.7938178907
  0
LINE
  5
3F0
100
AcDbEntity
  8
0
100
AcDbLine
 62
7
  6
CONTINUOUS
 10
-42.1565840612
 20
-29.6996380693
 11
-42.0813925339
 21
-29.6550948894
  0
LINE
  5
3F1
100
AcDbEntity
  8
0
100
AcDbLine
 62
7
  6
CONTINUOUS
 10
-44.1215131731
 20
-30.8638585464
 11
-44.0463028276
 21
-30.8193042187
  0
LINE
  5
3F2
100
AcDbEntity
  8
0
100
AcDbLine
 62
7
  6
CONTINUOUS
 10
-41.2009442255
 20
-29.2121516142
 11
-41.1257606088
 21
-29.1676131204
  0
LINE
  5
3F3
100
AcDbEntity
  8
0
100
AcDbLine
 62
250
  6
CONTINUOUS
 10
-41.865295725
 20
-29.697145085
 11
-41.7901053357
 21
-29.6526025792
  0
LINE
  5
3F4
100
AcDbEntity
  8
0
100
AcDbLine
 62
7
  6
CONTINUOUS
 10
-40.5896095939
 20
-29.0566389945
 11
-40.5144291588
 21
-29.0121023855
  0
LINE
  5
3F5
100
AcDbEntity
  8
RACCORDO
100
AcDbLine
 62
250
  6
CONTINUOUS
 10
29.4509390251
 20
11.9730593047
 11
28.6247153099
 21
11.4836074613
  0
LINE
  5
3F6
100
AcDbEntity
  8
0
100
AcDbLine
 62
7
  6
CONTINUOUS
 10
-42.5648987079
 20
-30.7576703019
 11
-42.4896934662
 21
-30.7131189977
  0
LINE
  5
3F7
100
AcDbEntity
  8
0
100
AcDbLine
 62
7
  6
CONTINUOUS
 10
-42.2871266285
 20
-30.6995252849
 11
-42.21192277
 21
-30.6549747999
  0
LINE
  5
3F8
100
AcDbEntity
  8
0
100
AcDbLine
 62
7
  6
CONTINUOUS
 10
-39.3420679569
 20
-29.3029853301
 11
-39.2668875217
 21
-29.2584487211
  0
LINE
  5
3F9
100
AcDbEntity
  8
0
100
AcDbLine
 62
7
  6
CONTINUOUS
 10
-40.2871557959
 20
-30.0687434989
 11
-40.2119642692
 21
-30.0242003193
  0
LINE
  5
3FA
100
AcDbEntity
  8
0
100
AcDbLine
 62
7
  6
CONTINUOUS
 10
-39.3315140761
 20
-29.5812994272
 11
-39.2563304594
 21
-29.5367609335
  0
LINE
  5
3FB
100
AcDbEntity
  8
0
100
AcDbLine
 62
250
  6
CONTINUOUS
 10
-41.8304122603
 20
-31.1042469792
 11
-41.7552043964
 21
-31.0596941214
  0
LINE
  5
3FC
100
AcDbEntity
  8
0
100
AcDbLine
 62
250
  6
CONTINUOUS
 10
-41.0602720727
 20
-30.6801503464
 11
-40.9850720486
 21
-30.6356021329
  0
LINE
  5
3FD
100
AcDbEntity
  8
0
100
AcDbLine
 62
250
  6
CONTINUOUS
 10
-39.9959557319
 20
-30.0662750953
 11
-39.9207653367
 21
-30.021732586
  0
LWPOLYLINE
  5
3FE
100
AcDbEntity
  8
0
100
AcDbPolyline
 62
7
  6
CONTINUOUS
 90
3
 70
0
 10
-43.1772022293
 20
-29.7828838353
 10
-43.1408336387
 20
-29.7617520156
 10
-43.094010661
 20
-29.7270275356
  0
LWPOLYLINE
  5
3FF
100
AcDbEntity
  8
RACCORDO
100
AcDbPolyline
 62
250
  6
CONTINUOUS
 90
10
 70
0
 10
8.6519509308
 20
-46.5069914507
 10
8.6529801043
 20
-46.5393474978
 10
8.6560533601
 20
-46.5700402088
 10
8.6611285146
 20
-46.5986484491
 10
8.6681359146
 20
-46.6247796874
 10
8.6769793964
 20
-46.6480753917
 10
8.6875376079
 20
-46.6682159448
 10
8.6996656691
 20
-46.6849250163
 10
8.7131971583
 20
-46.6979733577
 10
8.7279464001
 20
-46.7071819545
  0
LWPOLYLINE
  5
400
100
AcDbEntity
  8
RACCORDO
100
AcDbPolyline
 62
7
  6
CONTINUOUS
 90
47
 70
0
 10
10.2156403206
 20
-46.6565711705
 10
10.2158515223
 20
-46.6657777244
 10
10.2164860567
 20
-46.67497999
 10
10.2175299655
 20
-46.6840524326
 10
10.2189687009
 20
-46.6929782101
 10
10.220787044
 20
-46.70174084
 10
10.2229686677
 20
-46.71032304
 10
10.2254973303
 20
-46.718711615
 10
10.2283563216
 20
-46.7268939457
 10
10.2315274238
 20
-46.7348556999
 10
10.2349931299
 20
-46.7425869023
 10
10.2387361276
 20
-46.7500793115
 10
10.2427377386
 20
-46.7573233306
 10
10.2469833776
 20
-46.7643175579
 10
10.2514530989
 20
-46.7710521407
 10
10.2561183128
 20
-46.7775079667
 10
10.2609662558
 20
-46.7836906679
 10
10.2659736085
 20
-46.789592268
 10
10.2710908305
 20
-46.7951796915
 10
10.276296027
 20
-46.8004567894
 10
10.2815709652
 20
-46.8054311439
 10
10.2868662757
 20
-46.8100835501
 10
10.2921613755
 20
-46.8144245254
 10
10.2974385821
 20
-46.8184664741
 10
10.3026500593
 20
-46.8222003012
 10
10.3077653808
 20
-46.8256331335
 10
10.3127815123
 20
-46.8287900517
 10
10.3176928049
 20
-46.8316916611
 10
10.3224747939
 20
-46.8343464033
 10
10.327129409
 20
-46.8367768233
 10
10.3316959786
 20
-46.8390207802
 10
10.3361784782
 20
-46.8410940084
 10
10.3405635093
 20
-46.8430033103
 10
10.3448700423
 20
-46.8447687289
 10
10.3491168856
 20
-46.8464075512
 10
10.3532854512
 20
-46.8479215915
 10
10.35734051
 20
-46.8493082735
 10
10.3612741609
 20
-46.8505757771
 10
10.3650975791
 20
-46.8517377498
 10
10.3688024992
 20
-46.8528009496
 10
10.3723760781
 20
-46.8537707966
 10
10.3758351082
 20
-46.8546601613
 10
10.3792138327
 20
-46.8554844887
 10
10.3825100556
 20
-46.8562487964
 10
10.3857310168
 20
-46.856959828
 10
10.3889244916
 20
-46.8576319612
 10
10.3916969312
 20
-46.8581905702
  0
LWPOLYLINE
  5
401
100
AcDbEntity
  8
RACCORDO
100
AcDbPolyline
 62
250
  6
CONTINUOUS
 90
22
 70
0
 10
10.7156403838
 20
-46.7586816811
 10
10.7157647008
 20
-46.7679763425
 10
10.7161373427
 20
-46.7771006043
 10
10.7167573831
 20
-46.7860317805
 10
10.7176232803
 20
-46.7947476651
 10
10.7187328813
 20
-46.8032265876
 10
10.7200834274
 20
-46.8114474665
 10
10.7216715606
 20
-46.8193898617
 10
10.7234933322
 20
-46.8270340259
 10
10.7255442128
 20
-46.834360953
 10
10.7278191032
 20
-46.8413524258
 10
10.7303123471
 20
-46.8479910612
 10
10.7330177456
 20
-46.8542603531
 10
10.735928572
 20
-46.8601447141
 10
10.7390375892
 20
-46.8656295136
 10
10.7423370669
 20
-46.8707011145
 10
10.7458188017
 20
-46.8753469071
 10
10.7494741367
 20
-46.8795553404
 10
10.7532939834
 20
-46.8833159507
 10
10.7572688446
 20
-46.886619388
 10
10.7613888373
 20
-46.8894574387
 10
10.7656437177
 20
-46.8918230465
  0
LINE
  5
402
100
AcDbEntity
  8
RACCORDO
100
AcDbLine
 62
250
  6
CONTINUOUS
 10
8.6519509308
 20
-44.6345748243
 11
8.6519509308
 21
-46.5069914507
  0
LINE
  5
403
100
AcDbEntity
  8
RACCORDO
100
AcDbLine
 62
250
  6
CONTINUOUS
 10
10.0179763346
 20
-44.9077876297
 11
10.0179763346
 21
-46.6865004638
  0
LINE
  5
404
100
AcDbEntity
  8
RACCORDO
100
AcDbLine
 62
7
  6
CONTINUOUS
 10
10.2156403877
 20
-45.9543397554
 11
10.2156403838
 21
-45.9543083221
  0
LINE
  5
405
100
AcDbEntity
  8
RACCORDO
100
AcDbLine
 62
7
  6
CONTINUOUS
 10
10.2156403838
 20
-45.9543016672
 11
10.2156403838
 21
-46.6566262221
  0
LINE
  5
406
100
AcDbEntity
  8
RACCORDO
100
AcDbLine
 62
250
  6
CONTINUOUS
 10
10.7156461777
 20
-46.2570684606
 11
10.7156500505
 21
-46.75868359
  0
LINE
  5
407
100
AcDbEntity
  8
SUPERFICI
100
AcDbLine
 62
7
  6
CONTINUOUS
 10
-41.3407975771
 20
-31.2907608666
 11
-41.2655887465
 21
-31.2462074362
  0
LINE
  5
408
100
AcDbEntity
  8
0
100
AcDbLine
 62
7
  6
CONTINUOUS
 10
-40.6955424935
 20
-31.1268332385
 11
-40.6203372515
 21
-31.082281934
  0
LINE
  5
409
100
AcDbEntity
  8
0
100
AcDbLine
 62
7
  6
CONTINUOUS
 10
-40.4177866197
 20
-31.0686553284
 11
-40.3425827612
 21
-31.0241048434
  0
LINE
  5
40A
100
AcDbEntity
  8
0
100
AcDbLine
 62
250
  6
CONTINUOUS
 10
-39.9610722672
 20
-31.4733769894
 11
-39.8858644033
 21
-31.4288241317
  0
LINE
  5
40B
100
AcDbEntity
  8
0
100
AcDbLine
 62
250
  6
CONTINUOUS
 10
-39.1909320796
 20
-31.0492803566
 11
-39.1157320555
 21
-31.0047321432
  0
LINE
  5
40C
100
AcDbEntity
  8
SUPERFICI
100
AcDbLine
 62
7
  6
CONTINUOUS
 10
-39.4714575841
 20
-31.6598908768
 11
-39.3962487534
 21
-31.6153374465
  0
LWPOLYLINE
  5
40D
100
AcDbEntity
  8
0
100
AcDbPolyline
 62
7
  6
CONTINUOUS
 90
4
 70
0
 10
-41.5370132417
 20
-31.0612415572
 10
-41.5801192883
 20
-31.0851778206
 10
-41.6565021482
 20
-31.1095346028
 10
-41.7399326802
 20
-31.1158906532
  0
LWPOLYLINE
  5
40E
100
AcDbEntity
  8
0
100
AcDbPolyline
 62
7
  6
CONTINUOUS
 90
4
 70
0
 10
-39.6676732486
 20
-31.4303715675
 10
-39.7107792952
 20
-31.4543078308
 10
-39.7871621551
 20
-31.4786646131
 10
-39.8705926871
 20
-31.4850206634
  0
LWPOLYLINE
  5
40F
100
AcDbEntity
  8
0
100
AcDbPolyline
 62
7
  6
CONTINUOUS
 90
8
 70
0
 10
-43.3722913164
 20
-29.5181348368
 10
-43.3970811587
 20
-29.5307059832
 10
-43.4396640478
 20
-29.5456946661
 10
-43.4867302516
 20
-29.555556716
 10
-43.5365210102
 20
-29.5605647475
 10
-43.5884502047
 20
-29.5608097294
 10
-43.6431043508
 20
-29.5562009812
 10
-43.7004835451
 20
-29.5467385733
  0
LINE
  5
410
100
AcDbEntity
  8
0
100
AcDbLine
 62
7
  6
CONTINUOUS
 10
-41.4479994735
 20
-31.3396929122
 11
-41.3420019154
 21
-31.2889101043
  0
LWPOLYLINE
  5
411
100
AcDbEntity
  8
RACCORDO
100
AcDbPolyline
 62
250
  6
CONTINUOUS
 90
10
 70
0
 10
-38.7783389032
 20
-23.1895922396
 10
-38.8325311455
 20
-23.2126274775
 10
-38.8946250992
 20
-23.2324677665
 10
-38.9631286684
 20
-23.2486363532
 10
-39.0363957365
 20
-23.2607447138
 10
-39.1126657218
 20
-23.2685018902
 10
-39.1901058835
 20
-23.2717214818
 10
-39.2668553618
 20
-23.2703261244
 10
-39.3410698939
 20
-23.2643493495
 10
-39.4109661308
 20
-23.2539347783
  0
LWPOLYLINE
  5
412
100
AcDbEntity
  8
0
100
AcDbPolyline
 62
7
  6
CONTINUOUS
 90
7
 70
0
 10
34.3897987603
 20
-44.2479086247
 10
34.4735596748
 20
-44.4009795795
 10
34.5261449075
 20
-44.5632869448
 10
34.5451535579
 20
-44.7261710037
 10
34.529838221
 20
-44.8809698397
 10
34.4804430496
 20
-45.0198559044
 10
34.3996155164
 20
-45.1356073927
  0
LWPOLYLINE
  5
413
100
AcDbEntity
  8
RACCORDO
100
AcDbPolyline
 62
250
  6
CONTINUOUS
 90
34
 70
0
 10
10.7156403838
 20
-46.2570673165
 10
10.7157511473
 20
-46.2481585099
 10
10.7160831927
 20
-46.2391382068
 10
10.7166357842
 20
-46.2300263899
 10
10.7174076978
 20
-46.2208432441
 10
10.7183972234
 20
-46.2116091127
 10
10.719602169
 20
-46.2023444519
 10
10.7210198652
 20
-46.1930697853
 10
10.7226471716
 20
-46.1838056589
 10
10.7244804831
 20
-46.1745725952
 10
10.7265157384
 20
-46.165391048
 10
10.728748429
 20
-46.156281357
 10
10.7311736087
 20
-46.1472637025
 10
10.7337859051
 20
-46.1383580611
 10
10.7365795314
 20
-46.1295841613
 10
10.7395482987
 20
-46.1209614395
 10
10.7426856305
 20
-46.1125089975
 10
10.7459845767
 20
-46.1042455597
 10
10.7494378292
 20
-46.0961894318
 10
10.7530377382
 20
-46.0883584603
 10
10.7567763288
 20
-46.080769993
 10
10.7606453191
 20
-46.0734408403
 10
10.7646361382
 20
-46.0663872382
 10
10.7687399453
 20
-46.0596248123
 10
10.7729476493
 20
-46.0531685433
 10
10.7772499291
 20
-46.0470327335
 10
10.781637254
 20
-46.0412309753
 10
10.7860999048
 20
-46.0357761211
 10
10.7906279955
 20
-46.0306802548
 10
10.7952114953
 20
-46.0259546653
 10
10.7998402503
 20
-46.0216098207
 10
10.8045040067
 20
-46.0176553462
 10
10.809192433
 20
-46.0141000019
 10
10.8138951431
 20
-46.0109516638
  0
LWPOLYLINE
  5
414
100
AcDbEntity
  8
RACCORDO
100
AcDbPolyline
 62
250
  6
CONTINUOUS
 90
31
 70
0
 10
44.1678861634
 20
28.1615287031
 10
44.0949738453
 20
28.0767955832
 10
44.0205696891
 20
27.9856412156
 10
43.944815766
 20
27.8878110944
 10
43.8678445266
 20
27.7830331531
 10
43.7898521643
 20
27.6711018509
 10
43.7110960561
 20
27.5518915945
 10
43.6317755751
 20
27.4252111258
 10
43.5521072723
 20
27.2908949751
 10
43.4723912929
 20
27.1489070735
 10
43.3928670443
 20
26.9991321747
 10
43.3137992716
 20
26.8414954365
 10
43.2355399408
 20
26.6760855436
 10
43.1582915797
 20
26.5027070602
 10
43.0824428081
 20
26.3215731186
 10
43.0086042461
 20
26.1334994104
 10
42.9368386785
 20
25.9380035266
 10
42.8676912495
 20
25.7358939463
 10
42.8023214179
 20
25.5301626884
 10
42.7410933677
 20
25.3219465223
 10
42.6839039408
 20
25.1108973647
 10
42.631019838
 20
24.8979471184
 10
42.582584178
 20
24.6837337267
 10
42.5386254372
 20
24.4684548213
 10
42.4992019681
 20
24.2523994049
 10
42.4643829894
 20
24.0359358001
 10
42.4342451938
 20
23.8195314038
 10
42.4088516437
 20
23.6036233319
 10
42.3882520513
 20
23.3886352149
 10
42.372484056
 20
23.174976479
 10
42.3615776858
 20
22.9630601632
  0
LINE
  5
415
100
AcDbEntity
  8
RACCORDO
100
AcDbLine
 62
250
  6
CONTINUOUS
 10
44.2576031987
 20
28.2605275636
 11
44.1678861287
 21
28.1615287099
  0
LWPOLYLINE
  5
416
100
AcDbEntity
  8
RACCORDO
100
AcDbPolyline
 62
250
  6
CONTINUOUS
 90
3
 70
0
 10
44.4498984938
 20
28.4563994738
 10
44.3516068876
 20
28.3590013522
 10
44.2576031987
 20
28.2605275636
  0
LINE
  5
417
100
AcDbEntity
  8
0
100
AcDbLine
 62
7
  6
CONTINUOUS
 10
-39.5786594804
 20
-31.7088229225
 11
-39.4726619223
 21
-31.6580401145
  0
LWPOLYLINE
  5
418
100
AcDbEntity
  8
0
100
AcDbPolyline
 62
7
  6
CONTINUOUS
 90
6
 70
0
 10
-42.4319315865
 20
-29.995351285
 10
-42.3608570426
 20
-29.9663095087
 10
-42.2863377173
 20
-29.9448065548
 10
-42.2083745105
 20
-29.9308430785
 10
-42.1269681515
 20
-29.9244196109
 10
-42.0421191993
 20
-29.9255365588
  0
LINE
  5
419
100
AcDbEntity
  8
0
100
AcDbLine
 62
7
  6
CONTINUOUS
 10
-40.5625915049
 20
-30.3644812586
 11
-40.4915169707
 21
-30.3354394942
  0
LWPOLYLINE
  5
41A
100
AcDbEntity
  8
RACCORDO
100
AcDbPolyline
 62
250
  6
CONTINUOUS
 90
10
 70
0
 10
28.0785226296
 20
11.4511852875
 10
28.141727127
 20
11.4409513305
 10
28.2090793901
 20
11.4340683323
 10
28.2785319664
 20
11.430747621
 10
28.3479744185
 20
11.4310913579
 10
28.415296249
 20
11.4350895099
 10
28.4784511953
 20
11.4426199791
 10
28.5355211073
 20
11.4534524069
 10
28.584773962
 20
11.4672554285
 10
28.6247152907
 20
11.4836066746
  0
LWPOLYLINE
  5
41B
100
AcDbEntity
  8
RACCORDO
100
AcDbPolyline
 62
250
  6
CONTINUOUS
 90
7
 70
0
 10
-38.4594579406
 20
24.5906346091
 10
-38.5165762968
 20
24.6040445136
 10
-38.5658888339
 20
24.6201107176
 10
-38.6058972211
 20
24.6383450597
 10
-38.6353858183
 20
24.6581937591
 10
-38.6534586542
 20
24.6790534955
 10
-38.6595666211
 20
24.7002897356
  0
LINE
  5
41C
100
AcDbEntity
  8
RACCORDO
100
AcDbLine
 62
250
  6
CONTINUOUS
 10
43.4551054332
 20
-50.33007
 11
43.5102967579
 21
-50.4366682356
  0
LWPOLYLINE
  5
41D
100
AcDbEntity
  8
RACCORDO
100
AcDbPolyline
 62
250
  6
CONTINUOUS
 90
11
 70
0
 10
42.8198446911
 20
-50.6348034999
 10
42.8864901723
 20
-50.7637320165
 10
42.9571425751
 20
-50.8848238566
 10
43.0316791898
 20
-50.9978334832
 10
43.1099697781
 20
-51.1025185146
 10
43.1918684299
 20
-51.1986418053
 10
43.2772183242
 20
-51.2859857839
 10
43.3659317287
 20
-51.3644083733
 10
43.4577782282
 20
-51.4336563292
 10
43.5523557618
 20
-51.4934358558
 10
43.6159239159
 20
-51.5263036423
  0
LINE
  5
41E
100
AcDbEntity
  8
0
100
AcDbLine
 62
7
  6
CONTINUOUS
 10
-40.4915169707
 20
-30.3354394942
 11
-40.4169976571
 21
-30.3139365498
  0
LWPOLYLINE
  5
41F
100
AcDbEntity
  8
RACCORDO
100
AcDbPolyline
 62
250
  6
CONTINUOUS
 90
13
 70
0
 10
-38.3705304791
 20
24.6684350843
 10
-38.3807857129
 20
24.6697617597
 10
-38.3908178186
 20
24.6697176689
 10
-38.4006267875
 20
24.6683028164
 10
-38.4104132258
 20
24.6655426577
 10
-38.4199764924
 20
24.661411755
 10
-38.4287146995
 20
24.6558337767
 10
-38.4365440074
 20
24.6488274046
 10
-38.4435481899
 20
24.6403739901
 10
-38.4493767705
 20
24.6303412111
 10
-38.4539128879
 20
24.6186849783
 10
-38.4572732983
 20
24.605449434
 10
-38.4594579406
 20
24.5906346091
  0
LWPOLYLINE
  5
420
100
AcDbEntity
  8
RACCORDO
100
AcDbPolyline
 62
250
  6
CONTINUOUS
 90
7
 70
0
 10
-38.1707498303
 20
25.1450620934
 10
-38.2205410518
 20
25.1516653576
 10
-38.2708946584
 20
25.1518380742
 10
-38.3209435556
 20
25.1452796726
 10
-38.3697233535
 20
25.1316919623
 10
-38.4162048082
 20
25.1107897178
 10
-38.4261535678
 20
25.1051265953
  0
LINE
  5
421
100
AcDbEntity
  8
RACCORDO
100
AcDbLine
 62
250
  6
CONTINUOUS
 10
27.9942624385
 20
11.5636832571
 11
-38.3705304791
 21
24.6684350843
  0
LINE
  5
422
100
AcDbEntity
  8
RACCORDO
100
AcDbLine
 62
250
  6
CONTINUOUS
 10
28.1940932739
 20
12.040300356
 11
-38.1707498303
 21
25.1450620934
  0
LINE
  5
423
100
AcDbEntity
  8
DRAFT
100
AcDbLine
 62
7
  6
CONTINUOUS
 10
-38.1271334078
 20
25.2822650214
 11
-38.2283911658
 21
25.3022599273
  0
LINE
  5
424
100
AcDbEntity
  8
RACCORDO
100
AcDbLine
 62
7
  6
CONTINUOUS
 10
-37.1110610158
 20
26.0076878692
 11
-36.9026609786
 21
25.9665360679
  0
LINE
  5
425
100
AcDbEntity
  8
RACCORDO
100
AcDbLine
 62
7
  6
CONTINUOUS
 10
29.4675137604
 20
12.8732402191
 11
-36.7978558235
 21
25.9583593758
  0
LWPOLYLINE
  5
426
100
AcDbEntity
  8
RACCORDO
100
AcDbPolyline
 62
250
  6
CONTINUOUS
 90
8
 70
0
 10
27.9942624385
 20
-32.4786890839
 10
27.9987985197
 20
-32.5391143376
 10
28.0088989145
 20
-32.5939137893
 10
28.0242760484
 20
-32.6415207519
 10
28.0444908757
 20
-32.6805747318
 10
28.0689651378
 20
-32.7099594605
 10
28.0969976734
 20
-32.7288354283
 10
28.1167482472
 20
-32.7352013102
  0
LINE
  5
427
100
AcDbEntity
  8
0
100
AcDbLine
 62
7
  6
CONTINUOUS
 10
27.5452922221
 20
-44.9024331418
 11
27.514527173
 21
-44.1376358674
  0
LINE
  5
428
100
AcDbEntity
  8
0
100
AcDbLine
 62
7
  6
CONTINUOUS
 10
27.514527173
 20
-44.1376358674
 11
27.484458375
 21
-43.3723354207
  0
LINE
  5
429
100
AcDbEntity
  8
0
100
AcDbLine
 62
7
  6
CONTINUOUS
 10
27.484458375
 20
-43.3723354207
 11
27.4550858279
 21
-42.6065318017
  0
LWPOLYLINE
  5
42A
100
AcDbEntity
  8
RACCORDO
100
AcDbPolyline
 62
250
  6
CONTINUOUS
 90
10
 70
0
 10
10.0179763346
 20
-46.6865004638
 10
10.0050591776
 20
-46.7369894
 10
9.9846410168
 20
-46.784386871
 10
9.9573417252
 20
-46.8272526468
 10
9.9239902158
 20
-46.8642841251
 10
9.8855995509
 20
-46.8943556201
 10
9.8433363094
 20
-46.9165527907
 10
9.7984846968
 20
-46.93020081
 10
9.7524074161
 20
-46.9348846912
 10
9.729173923
 20
-46.9337929917
  0
LINE
  5
42B
100
AcDbEntity
  8
RACCORDO
100
AcDbLine
 62
250
  6
CONTINUOUS
 10
45.0098718942
 20
28.9946657598
 11
45.0354951205
 21
29.042502536
  0
LWPOLYLINE
  5
42C
100
AcDbEntity
  8
RACCORDO
100
AcDbPolyline
 62
7
  6
CONTINUOUS
 90
9
 70
0
 10
44.6181614822
 20
29.0734778595
 10
44.6092055335
 20
29.057002087
 10
44.5666840183
 20
28.9772883077
 10
44.5248229569
 20
28.8963318779
 10
44.4836379271
 20
28.8141721895
 10
44.4431415624
 20
28.7308437689
 10
44.4033442871
 20
28.6463758101
 10
44.3642599603
 20
28.5608057652
 10
44.3259022748
 20
28.4741718469
  0
LINE
  5
42D
100
AcDbEntity
  8
RACCORDO
100
AcDbLine
 62
250
  6
CONTINUOUS
 10
45.0354951205
 20
29.042502536
 11
45.0613343898
 21
29.0898353581
  0
LINE
  5
42E
100
AcDbEntity
  8
RACCORDO
100
AcDbLine
 62
250
  6
CONTINUOUS
 10
45.0613343898
 20
29.0898353581
 11
45.087385394
 21
29.1366567673
  0
LINE
  5
42F
100
AcDbEntity
  8
RACCORDO
100
AcDbLine
 62
250
  6
CONTINUOUS
 10
45.087385394
 20
29.1366567673
 11
45.1136438179
 21
29.1829593807
  0
LWPOLYLINE
  5
430
100
AcDbEntity
  8
RACCORDO
100
AcDbPolyline
 62
7
  6
CONTINUOUS
 90
25
 70
0
 10
44.6181618118
 20
29.0734776039
 10
44.6236429015
 20
29.0829749213
 10
44.6293316795
 20
29.0917863517
 10
44.635288364
 20
29.1001112214
 10
44.6415042266
 20
29.1079353006
 10
44.6479879957
 20
29.1152728191
 10
44.654698985
 20
29.1221322291
 10
44.6616385452
 20
29.1285164251
 10
44.6688053256
 20
29.1344225125
 10
44.6761545887
 20
29.1398502593
 10
44.6836929924
 20
29.1448006949
 10
44.6914138788
 20
29.14927279
 10
44.6992525363
 20
29.1532632243
 10
44.707196469
 20
29.1567646616
 10
44.7152581727
 20
29.1597844383
 10
44.7234104229
 20
29.1623412428
 10
44.7316510929
 20
29.1644376511
 10
44.7399823092
 20
29.1660710873
 10
44.7483832275
 20
29.167252513
 10
44.7568674385
 20
29.1679819646
 10
44.7654213514
 20
29.1682594058
 10
44.7739833486
 20
29.1680956882
 10
44.7825328909
 20
29.1674944294
 10
44.7910905176
 20
29.1664520119
 10
44.7996562286
 20
29.1649684358
  0
LINE
  5
431
100
AcDbEntity
  8
RACCORDO
100
AcDbLine
 62
250
  6
CONTINUOUS
 10
46.0504029461
 20
28.1225003996
 11
46.0724423918
 21
28.1607539105
  0
LINE
  5
432
100
AcDbEntity
  8
RACCORDO
100
AcDbLine
 62
250
  6
CONTINUOUS
 10
45.1136438179
 20
29.1829593807
 11
45.1401052872
 21
29.2287359033
  0
LINE
  5
433
100
AcDbEntity
  8
RACCORDO
100
AcDbLine
 62
250
  6
CONTINUOUS
 10
46.0724423918
 20
28.1607539105
 11
46.0946488408
 21
28.1985822081
  0
LINE
  5
434
100
AcDbEntity
  8
RACCORDO
100
AcDbLine
 62
250
  6
CONTINUOUS
 10
45.1401052872
 20
29.2287359033
 11
45.1667653938
 21
29.2739791234
  0
LINE
  5
435
100
AcDbEntity
  8
RACCORDO
100
AcDbLine
 62
250
  6
CONTINUOUS
 10
46.0946488408
 20
28.1985822081
 11
46.1170181326
 21
28.2359788967
  0
LINE
  5
436
100
AcDbEntity
  8
RACCORDO
100
AcDbLine
 62
250
  6
CONTINUOUS
 10
45.1667653938
 20
29.2739791234
 11
45.193619726
 21
29.3186819082
  0
LINE
  5
437
100
AcDbEntity
  8
RACCORDO
100
AcDbLine
 62
250
  6
CONTINUOUS
 10
46.1170181326
 20
28.2359788967
 11
46.1395460611
 21
28.2729377372
  0
LWPOLYLINE
  5
438
100
AcDbEntity
  8
RACCORDO
100
AcDbPolyline
 62
250
  6
CONTINUOUS
 90
74
 70
0
 10
45.193619726
 20
29.3186819082
 10
45.2206638136
 20
29.3628372159
 10
45.2342556087
 20
29.3847073893
 10
45.2478931564
 20
29.4064380915
 10
45.2615759
 20
29.4280284648
 10
45.2753032532
 20
29.4494776624
 10
45.2890746559
 20
29.4707848376
 10
45.3028895464
 20
29.4919491496
 10
45.316747333
 20
29.5129697688
 10
45.3306474507
 20
29.5338458655
 10
45.3445893324
 20
29.5545766158
 10
45.3585723813
 20
29.5751612072
 10
45.3725960272
 20
29.5955988274
 10
45.3866596986
 20
29.6158886697
 10
45.4007627934
 20
29.6360299392
 10
45.4149047369
 20
29.656021841
 10
45.4290849529
 20
29.6758635863
 10
45.4433028346
 20
29.6955543978
 10
45.4575578031
 20
29.7150934986
 10
45.4718492775
 20
29.7344801175
 10
45.4861766469
 20
29.7537134954
 10
45.5005393278
 20
29.7727928732
 10
45.5149367355
 20
29.7917174983
 10
45.5293682541
 20
29.81048663
 10
45.5438332964
 20
29.8290995277
 10
45.5583312736
 20
29.8475554571
 10
45.5728615653
 20
29.865853696
 10
45.5874235804
 20
29.8839935225
 10
45.6020167263
 20
29.901974221
 10
45.6166403788
 20
29.9197950882
 10
45.6312939432
 20
29.9374554211
 10
45.6459768232
 20
29.954954523
 10
45.6606883914
 20
29.9722917097
 10
45.6754280492
 20
29.9894662976
 10
45.6901951974
 20
30.006477609
 10
45.7049892051
 20
30.0233249788
 10
45.7198094705
 20
30.0400077428
 10
45.7346553913
 20
30.0565252428
 10
45.7495263347
 20
30.0728768334
 10
45.7644216962
 20
30.0890618697
 10
45.7793408702
 20
30.1050797136
 10
45.7942832213
 20
30.1209297391
 10
45.8092481421
 20
30.1366113213
 10
45.8242350244
 20
30.1521238418
 10
45.8392432299
 20
30.167466695
 10
45.8542721489
 20
30.1826392759
 10
45.8693211706
 20
30.1976409863
 10
45.8843896544
 20
30.2124712407
 10
45.8994769884
 20
30.2271294545
 10
45.9145825595
 20
30.24161505
 10
45.9297057243
 20
30.2559274621
 10
45.9448458699
 20
30.2700661264
 10
45.9600023801
 20
30.2840304861
 10
45.9751746054
 20
30.2978199977
 10
45.9903619304
 20
30.311434118
 10
46.0055637376
 20
30.3248723105
 10
46.0207793739
 20
30.3381340527
 10
46.0360082214
 20
30.3512188224
 10
46.0512496617
 20
30.3641261039
 10
46.0665030398
 20
30.3768553958
 10
46.081767736
 20
30.3894061965
 10
46.0970431308
 20
30.4017780119
 10
46.1123285688
 20
30.4139703623
 10
46.1276234301
 20
30.4259827681
 10
46.1429270929
 20
30.4378147558
 10
46.1582388986
 20
30.4494658652
 10
46.1735582234
 20
30.4609356361
 10
46.1888844475
 20
30.4722236187
 10
46.2042169184
 20
30.483329379
 10
46.2195550097
 20
30.4942524775
 10
46.2348981027
 20
30.5049924866
 10
46.2502455556
 20
30.5155490013
 10
46.2655967389
 20
30.5259216114
 10
46.280951036
 20
30.5361099021
  0
LINE
  5
439
100
AcDbEntity
  8
RACCORDO
100
AcDbLine
 62
250
  6
CONTINUOUS
 10
46.1395460611
 20
28.2729377372
 11
46.1622298133
 21
28.3094546043
  0
LWPOLYLINE
  5
43A
100
AcDbEntity
  8
RACCORDO
100
AcDbPolyline
 62
250
  6
CONTINUOUS
 90
83
 70
0
 10
46.1622298133
 20
28.3094546043
 10
46.1850651552
 20
28.3455233605
 10
46.1965382458
 20
28.3633877111
 10
46.2080478118
 20
28.3811380296
 10
46.2195938497
 20
28.3987743309
 10
46.231174925
 20
28.4162946623
 10
46.2427910411
 20
28.4336990089
 10
46.2544421946
 20
28.4509873858
 10
46.2661269409
 20
28.4681578855
 10
46.2778452832
 20
28.4852104929
 10
46.2895972182
 20
28.5021452232
 10
46.3013812917
 20
28.5189602151
 10
46.3131975066
 20
28.535655453
 10
46.3250458598
 20
28.5522309525
 10
46.336924888
 20
28.5686848986
 10
46.3488345938
 20
28.5850172757
 10
46.3607749744
 20
28.6012280995
 10
46.3727445578
 20
28.6173156022
 10
46.3847433468
 20
28.6332797679
 10
46.3967713386
 20
28.6491206125
 10
46.4088270531
 20
28.6648364155
 10
46.4209104929
 20
28.6804271608
 10
46.4330216555
 20
28.6958928644
 10
46.4451590534
 20
28.7112318539
 10
46.4573226889
 20
28.7264441131
 10
46.4695125597
 20
28.741529658
 10
46.4817271714
 20
28.756486865
 10
46.4939665261
 20
28.7713157175
 10
46.5062306217
 20
28.786016232
 10
46.5185179574
 20
28.8005868337
 10
46.5308285351
 20
28.8150275061
 10
46.5431623528
 20
28.8293382656
 10
46.5555179043
 20
28.8435175868
 10
46.5678951912
 20
28.8575654532
 10
46.5802942119
 20
28.8714818811
 10
46.5927134545
 20
28.8852653947
 10
46.6051529208
 20
28.8989159772
 10
46.6176126091
 20
28.9124336452
 10
46.6300910031
 20
28.9258169732
 10
46.6425881042
 20
28.9390659442
 10
46.655103911
 20
28.952180575
 10
46.6676369031
 20
28.9651594908
 10
46.6801870817
 20
28.9780026745
 10
46.6927544455
 20
28.9907101431
 10
46.7053374705
 20
29.0032805732
 10
46.7179361575
 20
29.0157139472
 10
46.7305505056
 20
29.0280102826
 10
46.7431789877
 20
29.0401683083
 10
46.7558216045
 20
29.0521880072
 10
46.7684783553
 20
29.0640693965
 10
46.7811477103
 20
29.0758112573
 10
46.7938296704
 20
29.0874135721
 10
46.8065242347
 20
29.0988763585
 10
46.819229872
 20
29.1101984496
 10
46.8319465825
 20
29.121379828
 10
46.8446743661
 20
29.1324205112
 10
46.8574116898
 20
29.1433193851
 10
46.8701585541
 20
29.1540764324
 10
46.8829149586
 20
29.1646916704
 10
46.89567937
 20
29.1751640374
 10
46.9084517884
 20
29.1854935173
 10
46.9212322136
 20
29.1956801262
 10
46.9340191128
 20
29.2057228511
 10
46.9468124859
 20
29.2156216752
 10
46.959612333
 20
29.2253766152
 10
46.9724171211
 20
29.2349867095
 10
46.98522685
 20
29.2444519401
 10
46.9980415199
 20
29.253772325
 10
47.0108595984
 20
29.2629469551
 10
47.023681085
 20
29.2719758125
 10
47.0365059801
 20
29.2808589152
 10
47.0493327533
 20
29.2895954083
 10
47.0621614045
 20
29.2981852743
 10
47.0749919338
 20
29.3066285307
 10
47.0878228104
 20
29.3149243753
 10
47.1006540316
 20
29.323072789
 10
47.1134856002
 20
29.3310737908
 10
47.126315993
 20
29.3389266364
 10
47.1391452114
 20
29.3466313088
 10
47.1519732541
 20
29.3541878248
 10
47.1647985938
 20
29.3615954901
 10
47.1776207215
 20
29.3688540733
 10
47.1904401462
 20
29.3759638057
  0
LINE
  5
43B
100
AcDbEntity
  8
RACCORDO
100
AcDbLine
 62
250
  6
CONTINUOUS
 10
-15.5771451329
 20
-40.1686156348
 11
-15.9532764982
 21
-40.3991658446
  0
LINE
  5
43C
100
AcDbEntity
  8
RACCORDO
100
AcDbLine
 62
250
  6
CONTINUOUS
 10
29.0971914141
 20
17.8709793817
 11
-38.5800275673
 21
31.2348899753
  0
LINE
  5
43D
100
AcDbEntity
  8
RACCORDO
100
AcDbLine
 62
250
  6
CONTINUOUS
 10
29.082571128
 20
18.0513977895
 11
-38.5946478533
 21
31.4153083831
  0
LWPOLYLINE
  5
43E
100
AcDbEntity
  8
RACCORDO
100
AcDbPolyline
 62
250
  6
CONTINUOUS
 90
4
 70
0
 10
43.2976216111
 20
-49.9421185073
 10
43.3462806993
 20
-50.0779838005
 10
43.3988364472
 20
-50.2074256953
 10
43.4551054332
 20
-50.33007
  0
LWPOLYLINE
  5
43F
100
AcDbEntity
  8
RACCORDO
100
AcDbPolyline
 62
250
  6
CONTINUOUS
 90
7
 70
0
 10
29.5253589512
 20
-36.7523230431
 10
29.5287559022
 20
-36.7734150365
 10
29.5437379038
 20
-36.8029493746
 10
29.5702904187
 20
-36.8310102448
 10
29.6077753952
 20
-36.8569233498
 10
29.6552920764
 20
-36.8800660026
 10
29.7116986454
 20
-36.8998820897
  0
LWPOLYLINE
  5
440
100
AcDbEntity
  8
0
100
AcDbPolyline
 62
7
  6
CONTINUOUS
 90
7
 70
0
 10
34.6176895762
 20
-44.6795635569
 10
34.6016377543
 20
-44.520128892
 10
34.5480221779
 20
-44.3613247027
 10
34.4618784712
 20
-44.2030272013
 10
34.3556594648
 20
-44.0680111513
 10
34.2335054462
 20
-43.9638758605
 10
34.0912554142
 20
-43.8830370303
  0
LWPOLYLINE
  5
441
100
AcDbEntity
  8
RACCORDO
100
AcDbPolyline
 62
250
  6
CONTINUOUS
 90
13
 70
0
 10
28.6247153099
 20
11.4836074613
 10
28.6220186107
 20
11.5384681013
 10
28.6132766752
 20
11.5951066354
 10
28.5983680273
 20
11.6525999998
 10
28.5771830965
 20
11.7099364565
 10
28.5496497023
 20
11.7659789365
 10
28.5159246162
 20
11.8196715027
 10
28.4767880629
 20
11.8695736604
 10
28.4322589809
 20
11.9152890343
 10
28.3811689563
 20
11.956865764
 10
28.3234323435
 20
11.9929619437
 10
28.2605953246
 20
12.0214204724
 10
28.1940932233
 20
12.0403003229
  0
LINE
  5
442
100
AcDbEntity
  8
0
100
AcDbLine
 62
7
  6
CONTINUOUS
 10
27.9783202884
 20
-44.9879357504
 11
27.947555606
 21
-44.2231403657
  0
LINE
  5
443
100
AcDbEntity
  8
0
100
AcDbLine
 62
7
  6
CONTINUOUS
 10
28.053529231
 20
-44.9433822537
 11
28.0227552695
 21
-44.1785924006
  0
LINE
  5
444
100
AcDbEntity
  8
0
100
AcDbLine
 62
7
  6
CONTINUOUS
 10
28.4113390525
 20
-45.0734419833
 11
28.3805723496
 21
-44.3086461996
  0
LINE
  5
445
100
AcDbEntity
  8
0
100
AcDbLine
 62
7
  6
CONTINUOUS
 10
30.5292258281
 20
-45.4916513888
 11
30.4984591251
 21
-44.7268556051
  0
LINE
  5
446
100
AcDbEntity
  8
0
100
AcDbLine
 62
7
  6
CONTINUOUS
 10
30.6044347706
 20
-45.4470978921
 11
30.5736587887
 21
-44.68230764
  0
LINE
  5
447
100
AcDbEntity
  8
0
100
AcDbLine
 62
7
  6
CONTINUOUS
 10
32.9299614353
 20
-45.9657072868
 11
32.8991947504
 21
-45.2009118056
  0
LINE
  5
448
100
AcDbEntity
  8
0
100
AcDbLine
 62
7
  6
CONTINUOUS
 10
28.8443673428
 20
-45.1589500973
 11
28.8139289694
 21
-44.4024110156
  0
LINE
  5
449
100
AcDbEntity
  8
0
100
AcDbLine
 62
7
  6
CONTINUOUS
 10
28.9195762854
 20
-45.1143966006
 11
28.8891287313
 21
-44.3578629747
  0
LINE
  5
44A
100
AcDbEntity
  8
0
100
AcDbLine
 62
7
  6
CONTINUOUS
 10
30.0961966717
 20
-45.4061431038
 11
30.0657557004
 21
-44.6496035091
  0
LINE
  5
44B
100
AcDbEntity
  8
0
100
AcDbLine
 62
7
  6
CONTINUOUS
 10
28.8891287313
 20
-44.3578629747
 11
28.8729158717
 21
-43.9475092898
  0
LINE
  5
44C
100
AcDbEntity
  8
0
100
AcDbLine
 62
7
  6
CONTINUOUS
 10
30.5736587887
 20
-44.68230764
 11
30.5435792651
 21
-43.9170140584
  0
LINE
  5
44D
100
AcDbEntity
  8
0
100
AcDbLine
 62
7
  6
CONTINUOUS
 10
27.947555606
 20
-44.2231403657
 11
27.9174871713
 21
-43.4578418111
  0
LINE
  5
44E
100
AcDbEntity
  8
0
100
AcDbLine
 62
7
  6
CONTINUOUS
 10
28.0227552695
 20
-44.1785924006
 11
27.9926777666
 21
-43.413299218
  0
LINE
  5
44F
100
AcDbEntity
  8
0
100
AcDbLine
 62
7
  6
CONTINUOUS
 10
28.3805723496
 20
-44.3086461996
 11
28.3505018941
 21
-43.543347246
  0
LINE
  5
450
100
AcDbEntity
  8
0
100
AcDbLine
 62
7
  6
CONTINUOUS
 10
28.8139289694
 20
-44.4024110156
 11
28.7841718737
 21
-43.6453788513
  0
LINE
  5
451
100
AcDbEntity
  8
0
100
AcDbLine
 62
7
  6
CONTINUOUS
 10
30.0657557004
 20
-44.6496035091
 11
30.0359960064
 21
-43.8925708317
  0
LINE
  5
452
100
AcDbEntity
  8
0
100
AcDbLine
 62
7
  6
CONTINUOUS
 10
30.4984591251
 20
-44.7268556051
 11
30.4683886697
 21
-43.9615566515
  0
LINE
  5
453
100
AcDbEntity
  8
0
100
AcDbLine
 62
7
  6
CONTINUOUS
 10
32.8991947504
 20
-45.2009118056
 11
32.8691243125
 21
-44.4356131549
  0
LINE
  5
454
100
AcDbEntity
  8
0
100
AcDbLine
 62
7
  6
CONTINUOUS
 10
27.9174871713
 20
-43.4578418111
 11
27.8881149843
 21
-42.6920400867
  0
LINE
  5
455
100
AcDbEntity
  8
0
100
AcDbLine
 62
7
  6
CONTINUOUS
 10
27.9926777666
 20
-43.413299218
 11
27.9632967223
 21
-42.6475027059
  0
LINE
  5
456
100
AcDbEntity
  8
0
100
AcDbLine
 62
7
  6
CONTINUOUS
 10
28.3505018941
 20
-43.543347246
 11
28.3211276862
 21
-42.7775451225
  0
LINE
  5
457
100
AcDbEntity
  8
0
100
AcDbLine
 62
7
  6
CONTINUOUS
 10
30.4683886697
 20
-43.9615566515
 11
30.4390144618
 21
-43.195754528
  0
LINE
  5
458
100
AcDbEntity
  8
0
100
AcDbLine
 62
7
  6
CONTINUOUS
 10
30.5435792651
 20
-43.9170140584
 11
30.5141961998
 21
-43.1512171472
  0
LINE
  5
459
100
AcDbEntity
  8
0
100
AcDbLine
 62
7
  6
CONTINUOUS
 10
32.8691243125
 20
-44.4356131549
 11
32.8397501215
 21
-43.6698113346
  0
LWPOLYLINE
  5
45A
100
AcDbEntity
  8
RACCORDO
100
AcDbPolyline
 62
250
  6
CONTINUOUS
 90
13
 70
0
 10
28.0785226296
 20
11.4511852875
 10
28.0781662954
 20
11.4625976021
 10
28.0765980334
 20
11.4739728135
 10
28.0738178335
 20
11.4853109167
 10
28.0698118742
 20
11.4968462827
 10
28.064593963
 20
11.5083445334
 10
28.0582055104
 20
11.5191025281
 10
28.0507014839
 20
11.52899753
 10
28.0420268568
 20
11.5381522461
 10
28.0320580213
 20
11.5462316868
 10
28.0207537553
 20
11.5531241791
 10
28.0081552325
 20
11.5589413716
 10
27.9942624385
 20
11.5636832571
  0
LWPOLYLINE
  5
45B
100
AcDbEntity
  8
RACCORDO
100
AcDbPolyline
 62
250
  6
CONTINUOUS
 90
10
 70
0
 10
28.0785226296
 20
-32.4031641592
 10
27.9710299383
 20
-27.5966342715
 10
27.8903995252
 20
-22.7723262574
 10
27.8366405946
 20
-17.9307579696
 10
27.8097593938
 20
-13.0724234619
 10
27.8097597085
 20
-8.1978697768
 10
27.8366414442
 20
-3.3076977294
 10
27.8904006264
 20
1.5975410481
 10
27.9710308192
 20
6.5173450029
 10
28.0785226296
 20
11.4511852875
  0
LWPOLYLINE
  5
45C
100
AcDbEntity
  8
RACCORDO
100
AcDbPolyline
 62
250
  6
CONTINUOUS
 90
9
 70
0
 10
28.6247153099
 20
-32.3356935543
 10
28.5172980545
 20
-27.5321669388
 10
28.4367352181
 20
-22.7118973133
 10
28.3830268007
 20
-17.8748846777
 10
28.3561729426
 20
-13.0205665549
 10
28.3561735034
 20
-8.1495054222
 10
28.3830280626
 20
-3.263388711
 10
28.43673648
 20
1.6372211014
 10
28.5172988957
 20
6.5528864922
  0
LINE
  5
45D
100
AcDbEntity
  8
RACCORDO
100
AcDbLine
 62
250
  6
CONTINUOUS
 10
29.7756391651
 20
-36.9158957822
 11
29.6672438404
 21
-31.1555526782
  0
LWPOLYLINE
  5
45E
100
AcDbEntity
  8
RACCORDO
100
AcDbPolyline
 62
7
  6
CONTINUOUS
 90
6
 70
0
 10
29.4288706773
 20
-31.7015135475
 10
29.5258735589
 20
-36.7798107318
 10
29.5263767627
 20
-36.9155722125
 10
29.5234916672
 20
-37.0461839746
 10
29.5173517161
 20
-37.1715578686
 10
29.5080740075
 20
-37.2916753661
  0
LINE
  5
45F
100
AcDbEntity
  8
RACCORDO
100
AcDbLine
 62
7
  6
CONTINUOUS
 10
29.3419852114
 20
-25.7272011337
 11
29.4288706773
 21
-31.7015135475
  0
LWPOLYLINE
  5
460
100
AcDbEntity
  8
RACCORDO
100
AcDbPolyline
 62
250
  6
CONTINUOUS
 90
8
 70
0
 10
29.6672438404
 20
-31.1555526782
 10
29.5859248501
 20
-25.3665265531
 10
29.5317012229
 20
-19.5497214385
 10
29.504585799
 20
-13.7060182632
 10
29.5045858983
 20
-7.8363558007
 10
29.5317015142
 20
-1.9417315963
 10
29.585925262
 20
3.9769068699
 10
29.6672441853
 20
9.9186633955
  0
LINE
  5
461
100
AcDbEntity
  8
RACCORDO
100
AcDbLine
 62
250
  6
CONTINUOUS
 10
29.7767743929
 20
-37.0457462571
 11
29.7756391651
 21
-36.9158957822
  0
LWPOLYLINE
  5
462
100
AcDbEntity
  8
RACCORDO
100
AcDbPolyline
 62
250
  6
CONTINUOUS
 90
7
 70
0
 10
29.7756391651
 20
15.8826113634
 10
29.7767915327
 20
16.001960421
 10
29.7760039428
 20
16.1180435233
 10
29.7732750178
 20
16.2308599943
 10
29.7685148597
 20
16.3403663951
 10
29.7618107285
 20
16.446604873
 10
29.7534271108
 20
16.5497031943
  0
LWPOLYLINE
  5
463
100
AcDbEntity
  8
RACCORDO
100
AcDbPolyline
 62
7
  6
CONTINUOUS
 90
7
 70
0
 10
29.4276087393
 20
10.705981568
 10
29.3410860852
 20
4.5689541113
 10
29.2834524176
 20
-1.5435691279
 10
29.2547238602
 20
-7.6304082089
 10
29.2549031908
 20
-13.6905820321
 10
29.2839909477
 20
-19.7231727541
 10
29.3419852114
 20
-25.7272011337
  0
LINE
  5
464
100
AcDbEntity
  8
RACCORDO
100
AcDbLine
 62
250
  6
CONTINUOUS
 10
29.6672441853
 20
9.9186633955
 11
29.7756391651
 21
15.8826113634
  0
LINE
  5
465
100
AcDbEntity
  8
RACCORDO
100
AcDbLine
 62
7
  6
CONTINUOUS
 10
29.5253486089
 20
16.0142754225
 11
29.4276087393
 21
10.705981568
  0
LINE
  5
466
100
AcDbEntity
  8
RACCORDO
100
AcDbLine
 62
250
  6
CONTINUOUS
 10
28.5172988957
 20
6.5528864922
 11
28.6247153099
 21
11.4836074613
  0
LWPOLYLINE
  5
467
100
AcDbEntity
  8
RACCORDO
100
AcDbPolyline
 62
250
  6
CONTINUOUS
 90
10
 70
0
 10
27.9942624385
 20
11.5636832571
 10
27.9986976968
 20
11.6293325717
 10
28.0087207412
 20
11.6959858478
 10
28.0240448759
 20
11.7617365541
 10
28.0442319986
 20
11.8247039162
 10
28.0687044805
 20
11.883086896
 10
28.0967616931
 20
11.9352156952
 10
28.1276008983
 20
11.979599277
 10
28.1603401922
 20
12.0149680318
 10
28.1940430873
 20
12.0403102661
  0
LINE
  5
468
100
AcDbEntity
  8
RACCORDO
100
AcDbLine
 62
250
  6
CONTINUOUS
 10
28.6197727885
 20
-32.4066516759
 11
28.6247153099
 21
-32.3356935543
  0
LINE
  5
469
100
AcDbEntity
  8
RACCORDO
100
AcDbLine
 62
250
  6
CONTINUOUS
 10
44.6434207287
 20
28.194580705
 11
44.6651728492
 21
28.2492185485
  0
LINE
  5
46A
100
AcDbEntity
  8
RACCORDO
100
AcDbLine
 62
250
  6
CONTINUOUS
 10
44.6651728492
 20
28.2492185485
 11
44.6872028552
 21
28.3034775206
  0
LINE
  5
46B
100
AcDbEntity
  8
RACCORDO
100
AcDbLine
 62
250
  6
CONTINUOUS
 10
44.6872028552
 20
28.3034775206
 11
44.7095070669
 21
28.3573490604
  0
LINE
  5
46C
100
AcDbEntity
  8
RACCORDO
100
AcDbLine
 62
250
  6
CONTINUOUS
 10
44.7095070669
 20
28.3573490604
 11
44.73208174
 21
28.4108246729
  0
LWPOLYLINE
  5
46D
100
AcDbEntity
  8
RACCORDO
100
AcDbPolyline
 62
7
  6
CONTINUOUS
 90
38
 70
0
 10
44.3259022748
 20
28.4741718469
 10
44.2882818565
 20
28.3865048304
 10
44.2514121671
 20
28.2978431461
 10
44.2153062977
 20
28.208225681
 10
44.1799746822
 20
28.1176842221
 10
44.145430246
 20
28.026257999
 10
44.1116854505
 20
27.9339866117
 10
44.0787503613
 20
27.840902607
 10
44.0466372481
 20
27.7470457889
 10
44.0153579332
 20
27.6524565324
 10
43.9849221241
 20
27.5571683486
 10
43.9553414165
 20
27.4612216638
 10
43.9266268864
 20
27.3646574296
 10
43.8987877747
 20
27.2675099824
 10
43.8718348773
 20
27.1698200263
 10
43.8457785514
 20
27.0716292631
 10
43.8206276852
 20
26.9729735252
 10
43.7963922758
 20
26.87389394
 10
43.7730818253
 20
26.7744326628
 10
43.7507047604
 20
26.6746270512
 10
43.7292702924
 20
26.5745189409
 10
43.7087869182
 20
26.4741504548
 10
43.6892622737
 20
26.3735593419
 10
43.670704649
 20
26.2727875903
 10
43.6531216177
 20
26.1718776565
 10
43.6365200403
 20
26.0708679328
 10
43.6209072991
 20
25.9698007513
 10
43.6062899502
 20
25.868718312
 10
43.5926739335
 20
25.7676587312
 10
43.5800657373
 20
25.6666649025
 10
43.5684708749
 20
25.5657788493
 10
43.5578942241
 20
25.4650373007
 10
43.5483412947
 20
25.3644826566
 10
43.5398167002
 20
25.2641557407
 10
43.5323244521
 20
25.1640908406
 10
43.5258689936
 20
25.0643272965
 10
43.5204543706
 20
24.9649132944
 10
43.5166934259
 20
24.8812239832
  0
LINE
  5
46E
100
AcDbEntity
  8
RACCORDO
100
AcDbLine
 62
250
  6
CONTINUOUS
 10
44.73208174
 20
28.4108246729
 11
44.7549230855
 21
28.4638959265
  0
LINE
  5
46F
100
AcDbEntity
  8
RACCORDO
100
AcDbLine
 62
250
  6
CONTINUOUS
 10
45.7327645017
 20
27.4795639537
 11
45.7517674368
 21
27.5236436616
  0
LINE
  5
470
100
AcDbEntity
  8
RACCORDO
100
AcDbLine
 62
250
  6
CONTINUOUS
 10
44.7549230855
 20
28.4638959265
 11
44.7780272953
 21
28.5165544484
  0
LINE
  5
471
100
AcDbEntity
  8
RACCORDO
100
AcDbLine
 62
250
  6
CONTINUOUS
 10
45.7517674368
 20
27.5236436616
 11
45.7709911102
 21
27.5673941026
  0
LINE
  5
472
100
AcDbEntity
  8
RACCORDO
100
AcDbLine
 62
250
  6
CONTINUOUS
 10
44.7780272953
 20
28.5165544484
 11
44.8013904965
 21
28.5687919364
  0
LINE
  5
473
100
AcDbEntity
  8
RACCORDO
100
AcDbLine
 62
250
  6
CONTINUOUS
 10
45.7709911102
 20
27.5673941026
 11
45.7904318091
 21
27.6108077484
  0
LINE
  5
474
100
AcDbEntity
  8
RACCORDO
100
AcDbLine
 62
250
  6
CONTINUOUS
 10
44.8013904965
 20
28.5687919364
 11
44.8250087739
 21
28.6206001547
  0
LINE
  5
475
100
AcDbEntity
  8
RACCORDO
100
AcDbLine
 62
250
  6
CONTINUOUS
 10
45.7904318091
 20
27.6108077484
 11
45.8100870451
 21
27.6538796077
  0
LINE
  5
476
100
AcDbEntity
  8
RACCORDO
100
AcDbLine
 62
250
  6
CONTINUOUS
 10
44.8250087739
 20
28.6206001547
 11
44.8488781965
 21
28.6719709307
  0
LINE
  5
477
100
AcDbEntity
  8
RACCORDO
100
AcDbLine
 62
250
  6
CONTINUOUS
 10
45.8100870451
 20
27.6538796077
 11
45.8299530644
 21
27.696602234
  0
LINE
  5
478
100
AcDbEntity
  8
RACCORDO
100
AcDbLine
 62
250
  6
CONTINUOUS
 10
44.8488781965
 20
28.6719709307
 11
44.8729947696
 21
28.7228961659
  0
LINE
  5
479
100
AcDbEntity
  8
RACCORDO
100
AcDbLine
 62
250
  6
CONTINUOUS
 10
45.8299530644
 20
27.696602234
 11
45.8500260504
 21
27.7389683127
  0
LINE
  5
47A
100
AcDbEntity
  8
RACCORDO
100
AcDbLine
 62
250
  6
CONTINUOUS
 10
44.8729947696
 20
28.7228961659
 11
44.8973544594
 21
28.7733678321
  0
LINE
  5
47B
100
AcDbEntity
  8
RACCORDO
100
AcDbLine
 62
250
  6
CONTINUOUS
 10
45.8500260504
 20
27.7389683127
 11
45.8703034463
 21
27.7809729964
  0
LINE
  5
47C
100
AcDbEntity
  8
RACCORDO
100
AcDbLine
 62
250
  6
CONTINUOUS
 10
44.8973544594
 20
28.7733678321
 11
44.9219532177
 21
28.8233779686
  0
LINE
  5
47D
100
AcDbEntity
  8
RACCORDO
100
AcDbLine
 62
250
  6
CONTINUOUS
 10
45.8703034463
 20
27.7809729964
 11
45.890781397
 21
27.8226090563
  0
LINE
  5
47E
100
AcDbEntity
  8
RACCORDO
100
AcDbLine
 62
250
  6
CONTINUOUS
 10
45.890781397
 20
27.8226090563
 11
45.9114559891
 21
27.8638694003
  0
LINE
  5
47F
100
AcDbEntity
  8
RACCORDO
100
AcDbLine
 62
250
  6
CONTINUOUS
 10
44.9219532177
 20
28.8233779686
 11
44.9467869345
 21
28.8729186927
  0
LINE
  5
480
100
AcDbEntity
  8
RACCORDO
100
AcDbLine
 62
250
  6
CONTINUOUS
 10
45.9114559891
 20
27.8638694003
 11
45.9323246015
 21
27.9047493307
  0
LINE
  5
481
100
AcDbEntity
  8
RACCORDO
100
AcDbLine
 62
250
  6
CONTINUOUS
 10
44.9467869345
 20
28.8729186927
 11
44.9718514604
 21
28.9219821962
  0
LINE
  5
482
100
AcDbEntity
  8
RACCORDO
100
AcDbLine
 62
250
  6
CONTINUOUS
 10
45.9323246015
 20
27.9047493307
 11
45.9533832842
 21
27.9452418449
  0
LWPOLYLINE
  5
483
100
AcDbEntity
  8
RACCORDO
100
AcDbPolyline
 62
250
  6
CONTINUOUS
 90
3
 70
0
 10
44.9718514604
 20
28.9219821962
 10
44.9971426357
 20
28.9705607412
 10
45.0098718942
 20
28.9946657598
  0
LINE
  5
484
100
AcDbEntity
  8
RACCORDO
100
AcDbLine
 62
250
  6
CONTINUOUS
 10
45.9533832842
 20
27.9452418449
 11
45.9746280321
 21
27.9853400837
  0
LINE
  5
485
100
AcDbEntity
  8
RACCORDO
100
AcDbLine
 62
250
  6
CONTINUOUS
 10
45.9746280321
 20
27.9853400837
 11
45.9960561638
 21
28.0250395057
  0
LINE
  5
486
100
AcDbEntity
  8
RACCORDO
100
AcDbLine
 62
250
  6
CONTINUOUS
 10
45.9960561638
 20
28.0250395057
 11
46.01766364
 21
28.0643333452
  0
LWPOLYLINE
  5
487
100
AcDbEntity
  8
RACCORDO
100
AcDbPolyline
 62
250
  6
CONTINUOUS
 90
3
 70
0
 10
46.01766364
 20
28.0643333452
 10
46.0394463706
 20
28.103214985
 10
46.0504029461
 20
28.1225003996
  0
LINE
  5
488
100
AcDbEntity
  8
RACCORDO
100
AcDbLine
 62
250
  6
CONTINUOUS
 10
-15.5771451329
 20
-40.4969064203
 11
-15.7792020873
 21
-40.6207574934
  0
LWPOLYLINE
  5
489
100
AcDbEntity
  8
RACCORDO
100
AcDbPolyline
 62
250
  6
CONTINUOUS
 90
52
 70
0
 10
-15.9532764982
 20
-40.3991658446
 10
-15.9660521608
 20
-40.4067316789
 10
-15.9794375372
 20
-40.414146992
 10
-15.9934326271
 20
-40.421411784
 10
-16.0080520251
 20
-40.4285327877
 10
-16.0232811368
 20
-40.4355032703
 10
-16.0390761787
 20
-40.4423030332
 10
-16.0554384658
 20
-40.4489314168
 10
-16.0723666831
 20
-40.4553890808
 10
-16.089813102
 20
-40.4616578056
 10
-16.1077790981
 20
-40.4677370228
 10
-16.1262632958
 20
-40.4736273009
 10
-16.1452138396
 20
-40.4793121252
 10
-16.1646320849
 20
-40.4847909345
 10
-16.1845166764
 20
-40.49006429
 10
-16.2048116921
 20
-40.4951173613
 10
-16.225518282
 20
-40.4999495252
 10
-16.2466352961
 20
-40.5045614049
 10
-16.2681033625
 20
-40.5089400395
 10
-16.2899234712
 20
-40.5130847719
 10
-16.3120946322
 20
-40.5169962592
 10
-16.3345545041
 20
-40.5206635111
 10
-16.3573038727
 20
-40.5240858371
 10
-16.380341952
 20
-40.5272639277
 10
-16.4036040433
 20
-40.5301888649
 10
-16.4270908268
 20
-40.5328599413
 10
-16.4508016222
 20
-40.5352778644
 10
-16.47466969
 20
-40.5374358383
 10
-16.4986954121
 20
-40.5393331259
 10
-16.5228784066
 20
-40.5409704644
 10
-16.5471507887
 20
-40.5423432689
 10
-16.5715128394
 20
-40.5434507982
 10
-16.5959642776
 20
-40.5442937936
 10
-16.6204363758
 20
-40.5448698944
 10
-16.6449291866
 20
-40.5451783493
 10
-16.6694426574
 20
-40.5452199097
 10
-16.6939079029
 20
-40.5449944686
 10
-16.7183247924
 20
-40.5445012739
 10
-16.7426934564
 20
-40.5437410777
 10
-16.7669454014
 20
-40.5427160297
 10
-16.7910802377
 20
-40.5414253922
 10
-16.8150983549
 20
-40.5398699029
 10
-16.8389324281
 20
-40.5380539246
 10
-16.8625820596
 20
-40.5359767094
 10
-16.8860476472
 20
-40.5336390051
 10
-16.909263059
 20
-40.5310474179
 10
-16.9322280935
 20
-40.5282011308
 10
-16.9549429522
 20
-40.5251009609
 10
-16.9773421076
 20
-40.5217559655
 10
-16.9994037172
 20
-40.5181691637
 10
-17.0211496235
 20
-40.5143375364
 10
-17.0425798265
 20
-40.5102610836
  0
LWPOLYLINE
  5
48A
100
AcDbEntity
  8
RACCORDO
100
AcDbPolyline
 62
250
  6
CONTINUOUS
 90
52
 70
0
 10
-15.7792020873
 20
-40.6207575151
 10
-15.7951488959
 20
-40.6301032623
 10
-15.8118892666
 20
-40.639276693
 10
-15.8294075325
 20
-40.6482695701
 10
-15.8476873633
 20
-40.6570742275
 10
-15.8667115828
 20
-40.6656823656
 10
-15.8864621587
 20
-40.6740850654
 10
-15.9069205687
 20
-40.6822748049
 10
-15.9280676314
 20
-40.6902442734
 10
-15.9498832848
 20
-40.6979851781
 10
-15.9723469285
 20
-40.705490574
 10
-15.9954375917
 20
-40.7127538365
 10
-16.0191337349
 20
-40.7197674824
 10
-16.0434131908
 20
-40.7265252894
 10
-16.0682531204
 20
-40.7330212601
 10
-16.0936301626
 20
-40.7392486
 10
-16.1195204964
 20
-40.7452017897
 10
-16.1458998384
 20
-40.7508755981
 10
-16.172743407
 20
-40.756264043
 10
-16.2000260165
 20
-40.7613623767
 10
-16.2277220656
 20
-40.7661661534
 10
-16.2558055291
 20
-40.7706702452
 10
-16.2842500162
 20
-40.7748707076
 10
-16.3130288766
 20
-40.7787639278
 10
-16.3421151903
 20
-40.7823456912
 10
-16.3714817283
 20
-40.7856129037
 10
-16.4011008832
 20
-40.7885627916
 10
-16.4309447741
 20
-40.7911920523
 10
-16.4609853403
 20
-40.7934984509
 10
-16.4911944598
 20
-40.7954801088
 10
-16.5215438839
 20
-40.7971346981
 10
-16.5520051823
 20
-40.7984608734
 10
-16.5825497405
 20
-40.7994576393
 10
-16.6131488787
 20
-40.8001236395
 10
-16.643773888
 20
-40.800458425
 10
-16.6743960461
 20
-40.8004619066
 10
-16.7049866174
 20
-40.8001337204
 10
-16.7355169166
 20
-40.7994743183
 10
-16.7659582977
 20
-40.7984845153
 10
-16.79628217
 20
-40.7971649428
 10
-16.8264600135
 20
-40.7955169565
 10
-16.8564636028
 20
-40.7935422655
 10
-16.886264992
 20
-40.7912424729
 10
-16.9158363833
 20
-40.7886197939
 10
-16.9451498783
 20
-40.7856768286
 10
-16.9741777078
 20
-40.7824161973
 10
-17.0028926605
 20
-40.7788410041
 10
-17.0312678001
 20
-40.7749547078
 10
-17.0592762309
 20
-40.7707609033
 10
-17.0868916086
 20
-40.7662635448
 10
-17.1140881525
 20
-40.7614669321
 10
-17.1408403798
 20
-40.7563755962
  0
LWPOLYLINE
  5
48B
100
AcDbEntity
  8
RACCORDO
100
AcDbPolyline
 62
250
  6
CONTINUOUS
 90
24
 70
0
 10
-38.5800275673
 20
31.2348899753
 10
-38.6119623023
 20
31.235222948
 10
-38.6420030335
 20
31.2254894534
 10
-38.6699034914
 20
31.205782461
 10
-38.6954463018
 20
31.1749185744
 10
-38.7184229908
 20
31.1342551876
 10
-38.7385889748
 20
31.0878514332
 10
-38.7552249316
 20
31.0369352851
 10
-38.7687365326
 20
30.9808111464
 10
-38.7805919463
 20
30.9206540501
 10
-38.7910924544
 20
30.8568958246
 10
-38.7997924092
 20
30.7892562467
 10
-38.8070428556
 20
30.717678058
 10
-38.812825496
 20
30.642171042
 10
-38.8170396246
 20
30.5628124867
 10
-38.8198938198
 20
30.4795883927
 10
-38.8213584107
 20
30.3925367759
 10
-38.8213333897
 20
30.3016723681
 10
-38.8198964727
 20
30.2069157656
 10
-38.8169739111
 20
30.1083059414
 10
-38.8124859136
 20
30.0058485549
 10
-38.8064690019
 20
29.8993960397
 10
-38.798860304
 20
29.7889099646
 10
-38.7895178079
 20
29.6744730613
  0
LWPOLYLINE
  5
48C
100
AcDbEntity
  8
RACCORDO
100
AcDbPolyline
 62
250
  6
CONTINUOUS
 90
24
 70
0
 10
-38.5946478533
 20
31.4153083831
 10
-38.6602982647
 20
31.4182999643
 10
-38.7235845982
 20
31.4103142814
 10
-38.7845061569
 20
31.3913516681
 10
-38.8438554625
 20
31.3601177388
 10
-38.9008373615
 20
31.31790814
 10
-38.9530698515
 20
31.2686081546
 10
-38.9989664795
 20
31.2125809561
 10
-39.040111304
 20
31.1494645211
 10
-39.0788791834
 20
31.0820558133
 10
-39.1160096986
 20
31.0114158368
 10
-39.1507615227
 20
30.9364844298
 10
-39.183288504
 20
30.8568766392
 10
-39.2135298562
 20
30.7723879302
 10
-39.2415439026
 20
30.6832240288
 10
-39.2676630081
 20
30.5896154458
 10
-39.2920607601
 20
30.4916675466
 10
-39.3145609226
 20
30.3892762523
 10
-39.3349710779
 20
30.2823579306
 10
-39.3533041306
 20
30.1709252439
 10
-39.3695441559
 20
30.0549670031
 10
-39.383455366
 20
29.934363862
 10
-39.3949580131
 20
29.8090766031
 10
-39.4041284214
 20
29.6791461215
  0
LINE
  5
48D
100
AcDbEntity
  8
RACCORDO
100
AcDbLine
 62
250
  6
CONTINUOUS
 10
42.3615776858
 20
22.9630601632
 11
-51.3408765675
 21
41.4660548157
  0
LWPOLYLINE
  5
48E
100
AcDbEntity
  8
RACCORDO
100
AcDbPolyline
 62
250
  6
CONTINUOUS
 90
34
 70
0
 10
-52.7678399691
 20
43.8537462908
 10
-52.791363757
 20
43.8592600808
 10
-52.8144215277
 20
43.8649381877
 10
-52.8369891071
 20
43.8707746586
 10
-52.8590428351
 20
43.8767633743
 10
-52.8805595903
 20
43.8828980563
 10
-52.9015168144
 20
43.8891722729
 10
-52.9218925355
 20
43.8955794462
 10
-52.9416653916
 20
43.9021128587
 10
-52.9608146524
 20
43.9087656608
 10
-52.9793202417
 20
43.9155308776
 10
-52.9971627581
 20
43.9224014164
 10
-53.0143234952
 20
43.929370074
 10
-53.0307844615
 20
43.9364295444
 10
-53.0465283992
 20
43.9435724264
 10
-53.0615388021
 20
43.9507912312
 10
-53.0757999332
 20
43.9580783907
 10
-53.0892968409
 20
43.9654262649
 10
-53.1020153749
 20
43.9728271501
 10
-53.1139422009
 20
43.9802732872
 10
-53.1250648148
 20
43.9877568696
 10
-53.1353715554
 20
43.9952700515
 10
-53.1448516171
 20
44.0028049558
 10
-53.1534950608
 20
44.010353683
 10
-53.1612928247
 20
44.0179083188
 10
-53.1682367335
 20
44.0254609429
 10
-53.1743195071
 20
44.033003637
 10
-53.1795347682
 20
44.0405284934
 10
-53.1838770492
 20
44.0480276227
 10
-53.1873417975
 20
44.055493163
 10
-53.1899253807
 20
44.0629172871
 10
-53.1916250901
 20
44.0702922116
 10
-53.1924391436
 20
44.0776102046
 10
-53.1924393067
 20
44.0836796478
  0
LWPOLYLINE
  5
48F
100
AcDbEntity
  8
0
100
AcDbPolyline
 62
7
  6
CONTINUOUS
 90
6
 70
0
 10
34.0840891181
 20
-44.6146519393
 10
34.0723643204
 20
-44.5403974544
 10
34.0432577678
 20
-44.4677733008
 10
33.9991065753
 20
-44.4016064515
 10
33.9429855616
 20
-44.3463944548
 10
33.8784623498
 20
-44.3060072914
  0
LWPOLYLINE
  5
490
100
AcDbEntity
  8
RACCORDO
100
AcDbPolyline
 62
250
  6
CONTINUOUS
 90
11
 70
0
 10
29.7534271108
 20
16.5497031943
 10
29.743401407
 20
16.6496485295
 10
29.7316939644
 20
16.7464526094
 10
29.7184538699
 20
16.84028013
 10
29.7037237824
 20
16.9311040766
 10
29.6874591309
 20
17.0189505343
 10
29.6696783381
 20
17.1040639375
 10
29.6504459075
 20
17.1864496545
 10
29.6296957615
 20
17.266101554
 10
29.6072506116
 20
17.3432468978
 10
29.5833098869
 20
17.4178564014
  0
LINE
  5
491
100
AcDbEntity
  8
0
100
AcDbLine
 62
7
  6
CONTINUOUS
 10
33.3629957878
 20
-46.0512165978
 11
33.3332814218
 21
-45.3118692686
  0
LINE
  5
492
100
AcDbEntity
  8
0
100
AcDbLine
 62
7
  6
CONTINUOUS
 10
33.4382047303
 20
-46.0066631012
 11
33.4084813893
 21
-45.267321092
  0
LINE
  5
493
100
AcDbEntity
  8
0
100
AcDbLine
 62
7
  6
CONTINUOUS
 10
33.3332814218
 20
-45.3118692686
 11
33.3274166299
 21
-45.1639432239
  0
LINE
  5
494
100
AcDbEntity
  8
0
100
AcDbLine
 62
7
  6
CONTINUOUS
 10
33.379877646
 20
-44.6934857426
 11
33.3617953504
 21
-44.2277828181
  0
LINE
  5
495
100
AcDbEntity
  8
0
100
AcDbLine
 62
7
  6
CONTINUOUS
 10
33.3046844901
 20
-44.7380298873
 11
33.2830231913
 21
-44.1791601414
  0
LINE
  5
496
100
AcDbEntity
  8
RACCORDO
100
AcDbLine
 62
7
  6
CONTINUOUS
 10
29.5080740075
 20
-37.2916753661
 11
29.4976541153
 21
-37.3904942256
  0
LINE
  5
497
100
AcDbEntity
  8
RACCORDO
100
AcDbLine
 62
250
  6
CONTINUOUS
 10
29.0971914141
 20
-38.5158782612
 11
29.4953560553
 21
-35.1817892603
  0
LINE
  5
498
100
AcDbEntity
  8
RACCORDO
100
AcDbLine
 62
7
  6
CONTINUOUS
 10
29.497552912
 20
-37.3912733051
 11
29.4976446776
 21
-37.3905045942
  0
LWPOLYLINE
  5
499
100
AcDbEntity
  8
RACCORDO
100
AcDbPolyline
 62
250
  6
CONTINUOUS
 90
10
 70
0
 10
29.0971914141
 20
-38.5158782612
 10
29.0935584588
 20
-38.5382898468
 10
29.0904160713
 20
-38.5606988741
 10
29.0877707713
 20
-38.5830589595
 10
29.0856280416
 20
-38.6053238311
 10
29.0839923201
 20
-38.6274473918
 10
29.0828669883
 20
-38.6493838157
 10
29.0822543608
 20
-38.6710876861
 10
29.0821556831
 20
-38.6925140889
 10
29.0825711308
 20
-38.7136186734
  0
LINE
  5
49A
100
AcDbEntity
  8
RACCORDO
100
AcDbLine
 62
250
  6
CONTINUOUS
 10
44.2720150325
 20
27.0359243469
 11
44.2875056072
 21
27.0962602582
  0
LINE
  5
49B
100
AcDbEntity
  8
RACCORDO
100
AcDbLine
 62
250
  6
CONTINUOUS
 10
44.2875056072
 20
27.0962602582
 11
44.3033379522
 21
27.1563991955
  0
LINE
  5
49C
100
AcDbEntity
  8
RACCORDO
100
AcDbLine
 62
250
  6
CONTINUOUS
 10
44.3033379522
 20
27.1563991955
 11
44.3195093561
 21
27.2163316696
  0
LINE
  5
49D
100
AcDbEntity
  8
RACCORDO
100
AcDbLine
 62
250
  6
CONTINUOUS
 10
44.3195093561
 20
27.2163316696
 11
44.3360170514
 21
27.2760482246
  0
LINE
  5
49E
100
AcDbEntity
  8
RACCORDO
100
AcDbLine
 62
250
  6
CONTINUOUS
 10
44.3360170514
 20
27.2760482246
 11
44.3528582323
 21
27.3355394352
  0
LINE
  5
49F
100
AcDbEntity
  8
RACCORDO
100
AcDbLine
 62
250
  6
CONTINUOUS
 10
44.3528582323
 20
27.3355394352
 11
44.3700300256
 21
27.3947959151
  0
LINE
  5
4A0
100
AcDbEntity
  8
RACCORDO
100
AcDbLine
 62
250
  6
CONTINUOUS
 10
45.4177719267
 20
26.5888486041
 11
45.4320022131
 21
26.6378323975
  0
LINE
  5
4A1
100
AcDbEntity
  8
RACCORDO
100
AcDbLine
 62
250
  6
CONTINUOUS
 10
44.3700300256
 20
27.3947959151
 11
44.3875295043
 21
27.4538083151
  0
LINE
  5
4A2
100
AcDbEntity
  8
RACCORDO
100
AcDbLine
 62
250
  6
CONTINUOUS
 10
45.4320022131
 20
26.6378323975
 11
45.4465092583
 21
26.6866258626
  0
LINE
  5
4A3
100
AcDbEntity
  8
RACCORDO
100
AcDbLine
 62
250
  6
CONTINUOUS
 10
44.3875295043
 20
27.4538083151
 11
44.4053537058
 21
27.5125673214
  0
LINE
  5
4A4
100
AcDbEntity
  8
RACCORDO
100
AcDbLine
 62
250
  6
CONTINUOUS
 10
45.4465092583
 20
26.6866258626
 11
45.4612901761
 21
26.7352203336
  0
LINE
  5
4A5
100
AcDbEntity
  8
RACCORDO
100
AcDbLine
 62
250
  6
CONTINUOUS
 10
44.4053537058
 20
27.5125673214
 11
44.4234996009
 21
27.5710636641
  0
LINE
  5
4A6
100
AcDbEntity
  8
RACCORDO
100
AcDbLine
 62
250
  6
CONTINUOUS
 10
45.4612901761
 20
26.7352203336
 11
45.4763419945
 21
26.7836072283
  0
LWPOLYLINE
  5
4A7
100
AcDbEntity
  8
RACCORDO
100
AcDbPolyline
 62
250
  6
CONTINUOUS
 90
7
 70
0
 10
43.4978808
 20
25.4834368773
 10
43.4389229826
 20
25.2984845421
 10
43.3837990462
 20
25.1111924228
 10
43.3321802302
 20
24.9210147418
 10
43.2845165589
 20
24.7295056644
 10
43.2408919387
 20
24.5368466134
 10
43.2012224633
 20
24.3428561662
  0
LINE
  5
4A8
100
AcDbEntity
  8
RACCORDO
100
AcDbLine
 62
250
  6
CONTINUOUS
 10
44.4234996009
 20
27.5710636641
 11
44.4419641073
 21
27.6292881149
  0
LINE
  5
4A9
100
AcDbEntity
  8
RACCORDO
100
AcDbLine
 62
250
  6
CONTINUOUS
 10
45.4763419945
 20
26.7836072283
 11
45.4916627145
 21
26.8317808444
  0
LINE
  5
4AA
100
AcDbEntity
  8
RACCORDO
100
AcDbLine
 62
250
  6
CONTINUOUS
 10
44.4419641073
 20
27.6292881149
 11
44.4607441095
 21
27.687231485
  0
LINE
  5
4AB
100
AcDbEntity
  8
RACCORDO
100
AcDbLine
 62
250
  6
CONTINUOUS
 10
45.4916627145
 20
26.8317808444
 11
45.5072493105
 21
26.8797326556
  0
LINE
  5
4AC
100
AcDbEntity
  8
RACCORDO
100
AcDbLine
 62
250
  6
CONTINUOUS
 10
44.4607441095
 20
27.687231485
 11
44.4798364244
 21
27.7448846342
  0
LINE
  5
4AD
100
AcDbEntity
  8
RACCORDO
100
AcDbLine
 62
250
  6
CONTINUOUS
 10
45.5072493105
 20
26.8797326556
 11
45.5230986736
 21
26.9274542266
  0
LINE
  5
4AE
100
AcDbEntity
  8
RACCORDO
100
AcDbLine
 62
250
  6
CONTINUOUS
 10
44.4798364244
 20
27.7448846342
 11
44.4992378182
 21
27.8022384681
  0
LINE
  5
4AF
100
AcDbEntity
  8
RACCORDO
100
AcDbLine
 62
250
  6
CONTINUOUS
 10
45.5230986736
 20
26.9274542266
 11
45.5392087142
 21
26.9749399543
  0
LINE
  5
4B0
100
AcDbEntity
  8
RACCORDO
100
AcDbLine
 62
250
  6
CONTINUOUS
 10
44.4992378182
 20
27.8022384681
 11
44.5189450267
 21
27.8592839356
  0
LINE
  5
4B1
100
AcDbEntity
  8
RACCORDO
100
AcDbLine
 62
250
  6
CONTINUOUS
 10
45.5392087142
 20
26.9749399543
 11
45.5555762715
 21
27.0221814639
  0
LINE
  5
4B2
100
AcDbEntity
  8
RACCORDO
100
AcDbLine
 62
250
  6
CONTINUOUS
 10
44.5189450267
 20
27.8592839356
 11
44.5389547193
 21
27.9160120382
  0
LINE
  5
4B3
100
AcDbEntity
  8
RACCORDO
100
AcDbLine
 62
250
  6
CONTINUOUS
 10
45.5555762715
 20
27.0221814639
 11
45.5721981044
 21
27.0691704796
  0
LINE
  5
4B4
100
AcDbEntity
  8
RACCORDO
100
AcDbLine
 62
250
  6
CONTINUOUS
 10
44.5389547193
 20
27.9160120382
 11
44.5592635166
 21
27.9724138284
  0
LINE
  5
4B5
100
AcDbEntity
  8
RACCORDO
100
AcDbLine
 62
250
  6
CONTINUOUS
 10
45.5721981044
 20
27.0691704796
 11
45.5890720361
 21
27.1159015062
  0
LWPOLYLINE
  5
4B6
100
AcDbEntity
  8
RACCORDO
100
AcDbPolyline
 62
250
  6
CONTINUOUS
 90
3
 70
0
 10
43.5900267951
 20
25.7464546952
 10
43.5603437377
 20
25.6655036506
 10
43.4978808
 20
25.4834368773
  0
LINE
  5
4B7
100
AcDbEntity
  8
RACCORDO
100
AcDbLine
 62
250
  6
CONTINUOUS
 10
44.5592635166
 20
27.9724138284
 11
44.5798680115
 21
28.0284804059
  0
LINE
  5
4B8
100
AcDbEntity
  8
RACCORDO
100
AcDbLine
 62
250
  6
CONTINUOUS
 10
45.5890720361
 20
27.1159015062
 11
45.606194776
 21
27.1623663327
  0
LINE
  5
4B9
100
AcDbEntity
  8
RACCORDO
100
AcDbLine
 62
250
  6
CONTINUOUS
 10
44.5798680115
 20
28.0284804059
 11
44.6007647304
 21
28.0842029279
  0
LINE
  5
4BA
100
AcDbEntity
  8
RACCORDO
100
AcDbLine
 62
250
  6
CONTINUOUS
 10
45.606194776
 20
27.1623663327
 11
45.6235629574
 21
27.2085568535
  0
LINE
  5
4BB
100
AcDbEntity
  8
RACCORDO
100
AcDbLine
 62
250
  6
CONTINUOUS
 10
44.6007647304
 20
28.0842029279
 11
44.6219501516
 21
28.1395726065
  0
LINE
  5
4BC
100
AcDbEntity
  8
RACCORDO
100
AcDbLine
 62
250
  6
CONTINUOUS
 10
45.6235629574
 20
27.2085568535
 11
45.6411743198
 21
27.2544676881
  0
LINE
  5
4BD
100
AcDbEntity
  8
RACCORDO
100
AcDbLine
 62
250
  6
CONTINUOUS
 10
44.6219501516
 20
28.1395726065
 11
44.6434207287
 21
28.194580705
  0
LINE
  5
4BE
100
AcDbEntity
  8
RACCORDO
100
AcDbLine
 62
250
  6
CONTINUOUS
 10
45.6411743198
 20
27.2544676881
 11
45.6590254488
 21
27.3000908001
  0
LINE
  5
4BF
100
AcDbEntity
  8
RACCORDO
100
AcDbLine
 62
250
  6
CONTINUOUS
 10
45.6590254488
 20
27.3000908001
 11
45.6771128561
 21
27.3454182654
  0
LINE
  5
4C0
100
AcDbEntity
  8
RACCORDO
100
AcDbLine
 62
250
  6
CONTINUOUS
 10
45.6771128561
 20
27.3454182654
 11
45.6954342015
 21
27.3904448262
  0
LINE
  5
4C1
100
AcDbEntity
  8
RACCORDO
100
AcDbLine
 62
250
  6
CONTINUOUS
 10
45.6954342015
 20
27.3904448262
 11
45.7139859512
 21
27.4351626327
  0
LINE
  5
4C2
100
AcDbEntity
  8
RACCORDO
100
AcDbLine
 62
250
  6
CONTINUOUS
 10
45.7139859512
 20
27.4351626327
 11
45.7327645017
 21
27.4795639537
  0
LWPOLYLINE
  5
4C3
100
AcDbEntity
  8
RACCORDO
100
AcDbPolyline
 62
250
  6
CONTINUOUS
 90
49
 70
0
 10
43.9586457364
 20
24.75360999
 10
43.9826729
 20
24.7497338355
 10
44.0071175018
 20
24.7460316
 10
44.031953914
 20
24.7425071651
 10
44.0571560978
 20
24.7391642257
 10
44.0826976309
 20
24.7360062866
 10
44.1085517354
 20
24.7330366587
 10
44.1346913055
 20
24.7302584553
 10
44.1610889362
 20
24.7276745891
 10
44.187716952
 20
24.7252877692
 10
44.2145474357
 20
24.7231004978
 10
44.241552258
 20
24.7211150681
 10
44.2687031068
 20
24.7193335617
 10
44.2959715168
 20
24.7177578463
 10
44.3233288996
 20
24.7163895739
 10
44.3507465733
 20
24.715230179
 10
44.378195793
 20
24.7142808772
 10
44.4056477806
 20
24.7135426637
 10
44.4330737552
 20
24.7130163124
 10
44.460444963
 20
24.7127023752
 10
44.4877327079
 20
24.7126011813
 10
44.5149083811
 20
24.7127128366
 10
44.5419434913
 20
24.7130372242
 10
44.5688096945
 20
24.713574004
 10
44.5954788241
 20
24.7143226132
 10
44.6219229197
 20
24.7152822669
 10
44.6481142572
 20
24.716451959
 10
44.6740253772
 20
24.7178304633
 10
44.6996291143
 20
24.7194163344
 10
44.7248986252
 20
24.7212079098
 10
44.7498074171
 20
24.7232033111
 10
44.7743293754
 20
24.7254004464
 10
44.7984387909
 20
24.727797012
 10
44.8221103872
 20
24.7303904955
 10
44.8453193466
 20
24.7331781778
 10
44.8680413366
 20
24.7361571363
 10
44.8902525353
 20
24.7393242478
 10
44.9119296563
 20
24.7426761919
 10
44.9330499729
 20
24.7462094543
 10
44.9535913424
 20
24.7499203307
 10
44.973532229
 20
24.7538049307
 10
44.9928517266
 20
24.7578591815
 10
45.0115295802
 20
24.7620788327
 10
45.029546208
 20
24.7664594603
 10
45.046882721
 20
24.7709964716
 10
45.0635209434
 20
24.77568511
 10
45.0794434316
 20
24.7805204598
 10
45.0946334923
 20
24.7854974517
 10
45.1090752
 20
24.7906108676
  0
LINE
  5
4C4
100
AcDbEntity
  8
RACCORDO
100
AcDbLine
 62
250
  6
CONTINUOUS
 10
-52.7678399603
 20
43.853746423
 11
-52.4510867759
 21
43.7911889797
  0
LINE
  5
4C5
100
AcDbEntity
  8
RACCORDO
100
AcDbLine
 62
250
  6
CONTINUOUS
 10
43.6418917544
 20
24.8161484405
 11
43.9586457388
 21
24.7536101234
  0
LINE
  5
4C6
100
AcDbEntity
  8
RACCORDO
100
AcDbLine
 62
250
  6
CONTINUOUS
 10
44.1678861287
 20
28.1615287099
 11
-49.5830629007
 21
46.6740995363
  0
LWPOLYLINE
  5
4C7
100
AcDbEntity
  8
RACCORDO
100
AcDbPolyline
 62
7
  6
CONTINUOUS
 90
37
 70
0
 10
-51.2248504308
 20
48.1264881481
 10
-51.2162847197
 20
48.1245888608
 10
-51.207727093
 20
48.1222516075
 10
-51.1991775507
 20
48.1194763884
 10
-51.1906155535
 20
48.1162587091
 10
-51.1820616406
 20
48.112603064
 10
-51.1735774296
 20
48.1085229357
 10
-51.1651765114
 20
48.1040237283
 10
-51.156845295
 20
48.0991000378
 10
-51.148604625
 20
48.0937491348
 10
-51.1404523749
 20
48.0879727551
 10
-51.1323906711
 20
48.0817691631
 10
-51.1244467384
 20
48.0751304217
 10
-51.116608081
 20
48.0680442597
 10
-51.1088871946
 20
48.0605229485
 10
-51.1013487908
 20
48.0525953647
 10
-51.0939995277
 20
48.0442651672
 10
-51.0868327473
 20
48.0355286972
 10
-51.0798931872
 20
48.0264038549
 10
-51.0731821978
 20
48.0168940683
 10
-51.0666984288
 20
48.0069959093
 10
-51.0604825661
 20
47.9967169943
 10
-51.0545258817
 20
47.9860396461
 10
-51.0488371036
 20
47.9749815418
 10
-51.0434831031
 20
47.9636033289
 10
-51.038467031
 20
47.9519004191
 10
-51.0337857365
 20
47.9398774005
 10
-51.0294966372
 20
47.9276086852
 10
-51.0256043058
 20
47.9150987498
 10
-51.0221041697
 20
47.9023431176
 10
-51.0190399294
 20
47.8894027704
 10
-51.0164120614
 20
47.8762599028
 10
-51.0142200891
 20
47.8629323202
 10
-51.0125062833
 20
47.8495344208
 10
-51.0112847342
 20
47.8361043372
 10
-51.0105413515
 20
47.8226039368
 10
-51.0102761354
 20
47.8090332196
  0
LWPOLYLINE
  5
4C8
100
AcDbEntity
  8
RACCORDO
100
AcDbPolyline
 62
250
  6
CONTINUOUS
 90
11
 70
0
 10
29.5576728453
 20
17.4899587145
 10
29.529562063
 20
17.5598680602
 10
29.4992252668
 20
17.6275882723
 10
29.4664136408
 20
17.6931149917
 10
29.4296050179
 20
17.7567501854
 10
29.3897422134
 20
17.8203731633
 10
29.3458816877
 20
17.8821042667
 10
29.2936707327
 20
17.9366065268
 10
29.2316572594
 20
17.9821003856
 10
29.161290958
 20
18.0203642517
 10
29.082571128
 20
18.0513977895
  0
LINE
  5
4C9
100
AcDbEntity
  8
RACCORDO
100
AcDbLine
 62
250
  6
CONTINUOUS
 10
29.5833098869
 20
17.4178564014
 11
29.5576728453
 21
17.4899587145
  0
LWPOLYLINE
  5
4CA
100
AcDbEntity
  8
RACCORDO
100
AcDbPolyline
 62
250
  6
CONTINUOUS
 90
10
 70
0
 10
29.0971914141
 20
17.8709793817
 10
29.0935455541
 20
17.8890685037
 10
29.0903933057
 20
17.907740563
 10
29.0877411602
 20
17.9269568703
 10
29.0855942971
 20
17.9466772355
 10
29.0839573765
 20
17.9668611665
 10
29.0828346437
 20
17.9874680513
 10
29.0822287983
 20
18.008455695
 10
29.0821408758
 20
18.0297803101
 10
29.082571128
 20
18.0513977895
  0
LWPOLYLINE
  5
4CB
100
AcDbEntity
  8
RACCORDO
100
AcDbPolyline
 62
250
  6
CONTINUOUS
 90
8
 70
0
 10
29.5253491811
 20
16.0142576668
 10
29.528756531
 20
15.9963579693
 10
29.543738105
 20
15.9739382208
 10
29.5702901778
 20
15.9522426915
 10
29.6077747125
 20
15.9317927188
 10
29.655290969
 20
15.9130797101
 10
29.7116971486
 20
15.8965533336
 10
29.7756378308
 20
15.8826107141
  0
LWPOLYLINE
  5
4CC
100
AcDbEntity
  8
RACCORDO
100
AcDbPolyline
 62
250
  6
CONTINUOUS
 90
19
 70
0
 10
29.4724633501
 20
16.8937494472
 10
29.4613680511
 20
16.9632058715
 10
29.4485469794
 20
17.0376039758
 10
29.4351416943
 20
17.1095080948
 10
29.4211631161
 20
17.1788947147
 10
29.4066173132
 20
17.2457369906
 10
29.3914076741
 20
17.3102795449
 10
29.3755468886
 20
17.3724365226
 10
29.3589931648
 20
17.432224707
 10
29.3414803302
 20
17.4900090255
 10
29.3230267282
 20
17.5458092987
 10
29.3034961336
 20
17.5994786461
 10
29.2821873667
 20
17.6510267339
 10
29.2588003503
 20
17.701418131
 10
29.2332385842
 20
17.7493291793
 10
29.204748148
 20
17.791080361
 10
29.172719872
 20
17.8250615815
 10
29.1369619232
 20
17.8518913254
 10
29.0971914141
 20
17.8709793817
  0
LINE
  5
4CD
100
AcDbEntity
  8
RACCORDO
100
AcDbLine
 62
250
  6
CONTINUOUS
 10
44.041632713
 20
-51.6841685389
 11
44.0336572748
 21
-51.6332032715
  0
LINE
  5
4CE
100
AcDbEntity
  8
RACCORDO
100
AcDbLine
 62
250
  6
CONTINUOUS
 10
29.5101547186
 20
15.1890887808
 11
29.0971914141
 21
17.8709793817
  0
LINE
  5
4CF
100
AcDbEntity
  8
RACCORDO
100
AcDbLine
 62
7
  6
CONTINUOUS
 10
29.4726269265
 20
16.892686629
 11
29.4724633501
 21
16.8937494472
  0
LWPOLYLINE
  5
4D0
100
AcDbEntity
  8
RACCORDO
100
AcDbPolyline
 62
7
  6
CONTINUOUS
 90
8
 70
0
 10
29.4726343562
 20
16.8926521203
 10
29.4784023689
 20
16.8538412517
 10
29.4961801784
 20
16.7135228837
 10
29.5099071705
 20
16.5684599231
 10
29.5195673987
 20
16.4192600742
 10
29.5251299619
 20
16.266133048
 10
29.5265326683
 20
16.1089089168
 10
29.5253491811
 20
16.0142576668
  0
LINE
  5
4D1
100
AcDbEntity
  8
RACCORDO
100
AcDbLine
 62
250
  6
CONTINUOUS
 10
44.0336572748
 20
-51.6332032715
 11
44.0260677685
 21
-51.5818024722
  0
LINE
  5
4D2
100
AcDbEntity
  8
RACCORDO
100
AcDbLine
 62
250
  6
CONTINUOUS
 10
43.9995957231
 20
-51.3720085343
 11
43.993955336
 21
-51.3185540942
  0
LINE
  5
4D3
100
AcDbEntity
  8
RACCORDO
100
AcDbLine
 62
250
  6
CONTINUOUS
 10
45.1328224772
 20
-50.8481917622
 11
45.1280260642
 21
-50.802681714
  0
LWPOLYLINE
  5
4D4
100
AcDbEntity
  8
RACCORDO
100
AcDbPolyline
 62
7
  6
CONTINUOUS
 90
42
 70
0
 10
43.5415305146
 20
-50.9649031274
 10
43.5507582623
 20
-51.0594847012
 10
43.5611407788
 20
-51.1530952171
 10
43.5726781344
 20
-51.2456914694
 10
43.5853696025
 20
-51.3372302385
 10
43.599215852
 20
-51.4276763146
 10
43.6142163112
 20
-51.516986899
 10
43.63036955
 20
-51.6051194639
 10
43.6476760118
 20
-51.6920399561
 10
43.666134451
 20
-51.7777064738
 10
43.6857430774
 20
-51.8620781466
 10
43.7065027594
 20
-51.9451233966
 10
43.7284118033
 20
-52.0268009311
 10
43.7514683898
 20
-52.1070715118
 10
43.7756748298
 20
-52.1859077016
 10
43.8010307134
 20
-52.2632728274
 10
43.8275333722
 20
-52.3391246303
 10
43.8551834269
 20
-52.41342897
 10
43.8839947389
 20
-52.4861847186
 10
43.9139516841
 20
-52.5573146431
 10
43.9450073309
 20
-52.6266810157
 10
43.9771572929
 20
-52.6942579464
 10
44.0103942398
 20
-52.7600133122
 10
44.0446585431
 20
-52.823820149
 10
44.079933157
 20
-52.8856485945
 10
44.116214188
 20
-52.9454922875
 10
44.1534551656
 20
-53.0032772489
 10
44.1916445806
 20
-53.0589937125
 10
44.2307685077
 20
-53.1126278239
 10
44.2707716013
 20
-53.164113688
 10
44.3116402182
 20
-53.2134488997
 10
44.3533560609
 20
-53.2606248848
 10
44.3958500022
 20
-53.3055810675
 10
44.4391043741
 20
-53.3483217944
 10
44.4830952692
 20
-53.3888450253
 10
44.5277351067
 20
-53.4270964217
 10
44.573002026
 20
-53.4630893203
 10
44.6188631509
 20
-53.4968285421
 10
44.6652027691
 20
-53.5282660487
 10
44.7119561178
 20
-53.5574045133
 10
44.7591159172
 20
-53.5842852906
 10
44.7705634703
 20
-53.5904417566
  0
LWPOLYLINE
  5
4D5
100
AcDbEntity
  8
RACCORDO
100
AcDbPolyline
 62
250
  6
CONTINUOUS
 90
23
 70
0
 10
43.5167155482
 20
-50.5911020445
 10
43.5171288801
 20
-50.5954343934
 10
43.5181111313
 20
-50.6001749123
 10
43.5196436447
 20
-50.6048717125
 10
43.521723025
 20
-50.6095143887
 10
43.5243446655
 20
-50.6140926552
 10
43.5275027582
 20
-50.6185963693
 10
43.5311903064
 20
-50.6230155533
 10
43.5353991408
 20
-50.6273404167
 10
43.5401199369
 20
-50.6315613782
 10
43.5453422361
 20
-50.6356690865
 10
43.5510544687
 20
-50.6396544412
 10
43.5572439798
 20
-50.6435086132
 10
43.5638970569
 20
-50.6472230636
 10
43.5709989605
 20
-50.6507895635
 10
43.5785339569
 20
-50.6542002114
 10
43.5864853528
 20
-50.6574474514
 10
43.5948355324
 20
-50.6605240893
 10
43.6035659965
 20
-50.6634233092
 10
43.6126574034
 20
-50.666138688
 10
43.6220896117
 20
-50.6686642099
 10
43.6318417249
 20
-50.6709942798
 10
43.6418921379
 20
-50.6731237357
  0
LINE
  5
4D6
100
AcDbEntity
  8
RACCORDO
100
AcDbLine
 62
250
  6
CONTINUOUS
 10
43.993955336
 20
-51.3185540942
 11
43.9887082442
 21
-51.2647141928
  0
LINE
  5
4D7
100
AcDbEntity
  8
RACCORDO
100
AcDbLine
 62
250
  6
CONTINUOUS
 10
45.1280260642
 20
-50.802681714
 11
45.1235638897
 21
-50.7568566097
  0
LINE
  5
4D8
100
AcDbEntity
  8
RACCORDO
100
AcDbLine
 62
250
  6
CONTINUOUS
 10
43.9887082442
 20
-51.2647141928
 11
43.9838554672
 21
-51.2104973978
  0
LINE
  5
4D9
100
AcDbEntity
  8
RACCORDO
100
AcDbLine
 62
250
  6
CONTINUOUS
 10
45.1235638897
 20
-50.7568566097
 11
45.1194367047
 21
-50.7107218297
  0
LWPOLYLINE
  5
4DA
100
AcDbEntity
  8
RACCORDO
100
AcDbPolyline
 62
250
  6
CONTINUOUS
 90
41
 70
0
 10
43.6594789044
 20
-50.9631171502
 10
43.6675626024
 20
-51.0578471588
 10
43.6767509654
 20
-51.1515358539
 10
43.6870401916
 20
-51.2441422771
 10
43.6984254658
 20
-51.3356244676
 10
43.7109013452
 20
-51.425939348
 10
43.724462373
 20
-51.5150449965
 10
43.739101949
 20
-51.6028996122
 10
43.7548132551
 20
-51.6894632908
 10
43.7715897895
 20
-51.7746977554
 10
43.7894237427
 20
-51.8585642026
 10
43.8083066153
 20
-51.941023144
 10
43.828230162
 20
-52.0220361603
 10
43.8491848718
 20
-52.1015655841
 10
43.8711609119
 20
-52.1795747744
 10
43.8941488075
 20
-52.2560278851
 10
43.9181376576
 20
-52.33088955
 10
43.9431161314
 20
-52.4041250338
 10
43.9690733958
 20
-52.4757005298
 10
43.9959971104
 20
-52.545582842
 10
44.0238745654
 20
-52.6137395968
 10
44.0526936794
 20
-52.6801393919
 10
44.0824407556
 20
-52.7447514228
 10
44.1131017321
 20
-52.8075457212
 10
44.1446633141
 20
-52.8684933731
 10
44.177110513
 20
-52.9275661035
 10
44.2104279653
 20
-52.9847364647
 10
44.2446011766
 20
-53.0399780864
 10
44.2796139065
 20
-53.0932653131
 10
44.3154495682
 20
-53.1445733776
 10
44.3520925392
 20
-53.1938786116
 10
44.3895254653
 20
-53.2411581829
 10
44.4277305357
 20
-53.2863900139
 10
44.4666908539
 20
-53.3295530291
 10
44.5063876388
 20
-53.3706269508
 10
44.5468022761
 20
-53.4095929646
 10
44.5879175957
 20
-53.4464336248
 10
44.6297143393
 20
-53.4811319733
 10
44.6721724031
 20
-53.5136715526
 10
44.7152728592
 20
-53.5440371624
 10
44.7589956248
 20
-53.5722146843
  0
LINE
  5
4DB
100
AcDbEntity
  8
RACCORDO
100
AcDbLine
 62
250
  6
CONTINUOUS
 10
43.9838554672
 20
-51.2104973978
 11
43.9793979629
 21
-51.1559123374
  0
LINE
  5
4DC
100
AcDbEntity
  8
RACCORDO
100
AcDbLine
 62
250
  6
CONTINUOUS
 10
45.1194367047
 20
-50.7107218297
 11
45.1156455981
 21
-50.6642854577
  0
LINE
  5
4DD
100
AcDbEntity
  8
RACCORDO
100
AcDbLine
 62
250
  6
CONTINUOUS
 10
43.9793979629
 20
-51.1559123374
 11
43.9753366253
 21
-51.1009676989
  0
LINE
  5
4DE
100
AcDbEntity
  8
RACCORDO
100
AcDbLine
 62
250
  6
CONTINUOUS
 10
45.1156455981
 20
-50.6642854577
 11
45.1121916522
 21
-50.6175566774
  0
LINE
  5
4DF
100
AcDbEntity
  8
RACCORDO
100
AcDbLine
 62
250
  6
CONTINUOUS
 10
43.9753366253
 20
-51.1009676989
 11
43.9716722824
 21
-51.045672219
  0
LWPOLYLINE
  5
4E0
100
AcDbEntity
  8
RACCORDO
100
AcDbPolyline
 62
250
  6
CONTINUOUS
 90
3
 70
0
 10
43.9716722824
 20
-51.045672219
 10
43.9684057035
 20
-50.9900346983
 10
43.9669217971
 20
-50.9620904446
  0
LWPOLYLINE
  5
4E1
100
AcDbEntity
  8
RACCORDO
100
AcDbPolyline
 62
250
  6
CONTINUOUS
 90
10
 70
0
 10
43.0461256482
 20
-48.4576664884
 10
43.0563604165
 20
-48.6420197811
 10
43.0711067493
 20
-48.8218777528
 10
43.0903646467
 20
-48.9972404035
 10
43.1142464523
 20
-49.1685853648
 10
43.1426398225
 20
-49.3354350051
 10
43.1752077265
 20
-49.4963564291
 10
43.2119304456
 20
-49.6510370655
 10
43.2528276985
 20
-49.7997894856
 10
43.2976216111
 20
-49.9421185073
  0
LWPOLYLINE
  5
4E2
100
AcDbEntity
  8
RACCORDO
100
AcDbPolyline
 62
250
  6
CONTINUOUS
 90
13
 70
0
 10
42.366039223
 20
-48.5543736293
 10
42.3773109203
 20
-48.7585523576
 10
42.3936838229
 20
-48.9585243445
 10
42.4151192145
 20
-49.153888882
 10
42.4416001489
 20
-49.3444539455
 10
42.473046377
 20
-49.5296297622
 10
42.5092630518
 20
-49.7084877243
 10
42.5500577347
 20
-49.8804565937
 10
42.5953541641
 20
-50.0455526474
 10
42.6450968235
 20
-50.203777533
 10
42.6991423829
 20
-50.3548039247
 10
42.7573789019
 20
-50.4984356663
 10
42.8198446911
 20
-50.6348034999
  0
LWPOLYLINE
  5
4E3
100
AcDbEntity
  8
RACCORDO
100
AcDbPolyline
 62
250
  6
CONTINUOUS
 90
4
 70
0
 10
43.6418918052
 20
-50.6731158644
 10
43.6466402883
 20
-50.7707067692
 10
43.652503607
 20
-50.8673887227
 10
43.6594789044
 20
-50.9631171502
  0
LWPOLYLINE
  5
4E4
100
AcDbEntity
  8
RACCORDO
100
AcDbPolyline
 62
7
  6
CONTINUOUS
 90
5
 70
0
 10
43.5167155571
 20
-50.5911015964
 10
43.5207688774
 20
-50.6757207651
 10
43.5265362478
 20
-50.7729747114
 10
43.53345659
 20
-50.8693860462
 10
43.5415305146
 20
-50.9649031274
  0
LWPOLYLINE
  5
4E5
100
AcDbEntity
  8
RACCORDO
100
AcDbPolyline
 62
250
  6
CONTINUOUS
 90
6
 70
0
 10
41.7741644679
 20
-29.0438195367
 10
41.8562200423
 20
-32.9704405994
 10
41.9564430104
 20
-36.8850864115
 10
42.074826258
 20
-40.7874770849
 10
42.2113615289
 20
-44.6773323944
 10
42.3660392127
 20
-48.5543736273
  0
LINE
  5
4E6
100
AcDbEntity
  8
0
100
AcDbLine
 62
7
  6
CONTINUOUS
 10
34.0778181806
 20
-44.685351065
 11
34.0840891181
 21
-44.6146519393
  0
LINE
  5
4E7
100
AcDbEntity
  8
RACCORDO
100
AcDbLine
 62
250
  6
CONTINUOUS
 10
43.9996211759
 20
25.4607253115
 11
44.0056578879
 21
25.5228095209
  0
LINE
  5
4E8
100
AcDbEntity
  8
RACCORDO
100
AcDbLine
 62
250
  6
CONTINUOUS
 10
44.0056578879
 20
25.5228095209
 11
44.0120859712
 21
25.5849451177
  0
LINE
  5
4E9
100
AcDbEntity
  8
RACCORDO
100
AcDbLine
 62
250
  6
CONTINUOUS
 10
44.0120859712
 20
25.5849451177
 11
44.0189042192
 21
25.6471222912
  0
LINE
  5
4EA
100
AcDbEntity
  8
RACCORDO
100
AcDbLine
 62
250
  6
CONTINUOUS
 10
44.0189042192
 20
25.6471222912
 11
44.0261113621
 21
25.7093312262
  0
LINE
  5
4EB
100
AcDbEntity
  8
RACCORDO
100
AcDbLine
 62
250
  6
CONTINUOUS
 10
44.0261113621
 20
25.7093312262
 11
44.0337060697
 21
25.7715621011
  0
LINE
  5
4EC
100
AcDbEntity
  8
RACCORDO
100
AcDbLine
 62
250
  6
CONTINUOUS
 10
44.0337060697
 20
25.7715621011
 11
44.0416869491
 21
25.833805091
  0
LINE
  5
4ED
100
AcDbEntity
  8
RACCORDO
100
AcDbLine
 62
250
  6
CONTINUOUS
 10
44.0416869491
 20
25.833805091
 11
44.0500525435
 21
25.8960503709
  0
LINE
  5
4EE
100
AcDbEntity
  8
RACCORDO
100
AcDbLine
 62
250
  6
CONTINUOUS
 10
45.1685379359
 20
25.402001574
 11
45.1756381599
 21
25.4531897474
  0
LINE
  5
4EF
100
AcDbEntity
  8
RACCORDO
100
AcDbLine
 62
250
  6
CONTINUOUS
 10
44.0500525435
 20
25.8960503709
 11
44.0588013382
 21
25.9582881137
  0
LINE
  5
4F0
100
AcDbEntity
  8
RACCORDO
100
AcDbLine
 62
250
  6
CONTINUOUS
 10
45.1756381599
 20
25.4531897474
 11
45.183062214
 21
25.5043748636
  0
LINE
  5
4F1
100
AcDbEntity
  8
RACCORDO
100
AcDbLine
 62
250
  6
CONTINUOUS
 10
44.0588013382
 20
25.9582881137
 11
44.0679317547
 21
26.020508495
  0
LINE
  5
4F2
100
AcDbEntity
  8
RACCORDO
100
AcDbLine
 62
250
  6
CONTINUOUS
 10
45.183062214
 20
25.5043748636
 11
45.1908089914
 21
25.5555507147
  0
LINE
  5
4F3
100
AcDbEntity
  8
RACCORDO
100
AcDbLine
 62
250
  6
CONTINUOUS
 10
44.0679317547
 20
26.020508495
 11
44.0774421525
 21
26.0827016926
  0
LINE
  5
4F4
100
AcDbEntity
  8
RACCORDO
100
AcDbLine
 62
250
  6
CONTINUOUS
 10
45.1908089914
 20
25.5555507147
 11
45.1988767972
 21
25.6067079954
  0
LINE
  5
4F5
100
AcDbEntity
  8
RACCORDO
100
AcDbLine
 62
250
  6
CONTINUOUS
 10
44.0774421525
 20
26.0827016926
 11
44.0873308353
 21
26.144857888
  0
LINE
  5
4F6
100
AcDbEntity
  8
RACCORDO
100
AcDbLine
 62
250
  6
CONTINUOUS
 10
45.1988767972
 20
25.6067079954
 11
45.2072638316
 21
25.657837423
  0
LINE
  5
4F7
100
AcDbEntity
  8
RACCORDO
100
AcDbLine
 62
250
  6
CONTINUOUS
 10
44.0873308353
 20
26.144857888
 11
44.0975960429
 21
26.2069672705
  0
LINE
  5
4F8
100
AcDbEntity
  8
RACCORDO
100
AcDbLine
 62
250
  6
CONTINUOUS
 10
45.2072638316
 20
25.657837423
 11
45.2159688727
 21
25.708932816
  0
LINE
  5
4F9
100
AcDbEntity
  8
RACCORDO
100
AcDbLine
 62
250
  6
CONTINUOUS
 10
44.0975960429
 20
26.2069672705
 11
44.1082359531
 21
26.2690200364
  0
LINE
  5
4FA
100
AcDbEntity
  8
RACCORDO
100
AcDbLine
 62
250
  6
CONTINUOUS
 10
45.2159688727
 20
25.708932816
 11
45.2249900547
 21
25.7599849109
  0
LINE
  5
4FB
100
AcDbEntity
  8
RACCORDO
100
AcDbLine
 62
250
  6
CONTINUOUS
 10
44.1082359531
 20
26.2690200364
 11
44.1192486901
 21
26.3310063897
  0
LWPOLYLINE
  5
4FC
100
AcDbEntity
  8
RACCORDO
100
AcDbPolyline
 62
250
  6
CONTINUOUS
 90
8
 70
0
 10
43.2012224633
 20
24.3428561662
 10
43.1657064378
 20
24.1485442208
 10
43.1343565937
 20
23.9538653588
 10
43.1071601995
 20
23.7588649986
 10
43.0842773668
 20
23.5646892939
 10
43.0657614662
 20
23.3717202958
 10
43.051559127
 20
23.1795759532
 10
43.0416703493
 20
22.988256266
  0
LINE
  5
4FD
100
AcDbEntity
  8
RACCORDO
100
AcDbLine
 62
250
  6
CONTINUOUS
 10
45.2249900547
 20
25.7599849109
 11
45.2343254086
 21
25.8109844759
  0
LINE
  5
4FE
100
AcDbEntity
  8
RACCORDO
100
AcDbLine
 62
250
  6
CONTINUOUS
 10
44.1192486901
 20
26.3310063897
 11
44.130632313
 21
26.392916547
  0
LINE
  5
4FF
100
AcDbEntity
  8
RACCORDO
100
AcDbLine
 62
250
  6
CONTINUOUS
 10
45.2343254086
 20
25.8109844759
 11
45.2439736003
 21
25.8619253648
  0
LINE
  5
500
100
AcDbEntity
  8
RACCORDO
100
AcDbLine
 62
250
  6
CONTINUOUS
 10
44.130632313
 20
26.392916547
 11
44.14238482
 21
26.4547407371
  0
LINE
  5
501
100
AcDbEntity
  8
RACCORDO
100
AcDbLine
 62
250
  6
CONTINUOUS
 10
45.2439736003
 20
25.8619253648
 11
45.2539325955
 21
25.9127983686
  0
LINE
  5
502
100
AcDbEntity
  8
RACCORDO
100
AcDbLine
 62
250
  6
CONTINUOUS
 10
44.14238482
 20
26.4547407371
 11
44.154504159
 21
26.5164692
  0
LINE
  5
503
100
AcDbEntity
  8
RACCORDO
100
AcDbLine
 62
250
  6
CONTINUOUS
 10
45.2539325955
 20
25.9127983686
 11
45.2642002593
 21
25.9635943202
  0
LINE
  5
504
100
AcDbEntity
  8
RACCORDO
100
AcDbLine
 62
250
  6
CONTINUOUS
 10
44.154504159
 20
26.5164692
 11
44.166988212
 21
26.5780921928
  0
LINE
  5
505
100
AcDbEntity
  8
RACCORDO
100
AcDbLine
 62
250
  6
CONTINUOUS
 10
45.2642002593
 20
25.9635943202
 11
45.2747751471
 21
26.0143071178
  0
LINE
  5
506
100
AcDbEntity
  8
RACCORDO
100
AcDbLine
 62
250
  6
CONTINUOUS
 10
44.166988212
 20
26.5780921928
 11
44.1798348025
 21
26.6395999905
  0
LINE
  5
507
100
AcDbEntity
  8
RACCORDO
100
AcDbLine
 62
250
  6
CONTINUOUS
 10
45.2747751471
 20
26.0143071178
 11
45.2856550607
 21
26.0649276222
  0
LINE
  5
508
100
AcDbEntity
  8
RACCORDO
100
AcDbLine
 62
250
  6
CONTINUOUS
 10
44.1798348025
 20
26.6395999905
 11
44.1930417051
 21
26.7009828837
  0
LINE
  5
509
100
AcDbEntity
  8
RACCORDO
100
AcDbLine
 62
250
  6
CONTINUOUS
 10
45.2856550607
 20
26.0649276222
 11
45.2968377034
 21
26.1154467431
  0
LINE
  5
50A
100
AcDbEntity
  8
RACCORDO
100
AcDbLine
 62
250
  6
CONTINUOUS
 10
44.1930417051
 20
26.7009828837
 11
44.2066066282
 21
26.7622311851
  0
LINE
  5
50B
100
AcDbEntity
  8
RACCORDO
100
AcDbLine
 62
250
  6
CONTINUOUS
 10
44.2066066282
 20
26.7622311851
 11
44.2205272212
 21
26.8233352295
  0
LINE
  5
50C
100
AcDbEntity
  8
RACCORDO
100
AcDbLine
 62
250
  6
CONTINUOUS
 10
45.2968377034
 20
26.1154467431
 11
45.3083215237
 21
26.165858432
  0
LINE
  5
50D
100
AcDbEntity
  8
RACCORDO
100
AcDbLine
 62
250
  6
CONTINUOUS
 10
44.2205272212
 20
26.8233352295
 11
44.2348010879
 21
26.8842853715
  0
LINE
  5
50E
100
AcDbEntity
  8
RACCORDO
100
AcDbLine
 62
250
  6
CONTINUOUS
 10
45.3083215237
 20
26.165858432
 11
45.320104163
 21
26.2161536321
  0
LINE
  5
50F
100
AcDbEntity
  8
RACCORDO
100
AcDbLine
 62
250
  6
CONTINUOUS
 10
44.2348010879
 20
26.8842853715
 11
44.2494257656
 21
26.9450719931
  0
LINE
  5
510
100
AcDbEntity
  8
RACCORDO
100
AcDbLine
 62
250
  6
CONTINUOUS
 10
45.320104163
 20
26.2161536321
 11
45.3321831665
 21
26.2663233431
  0
LWPOLYLINE
  5
511
100
AcDbEntity
  8
RACCORDO
100
AcDbPolyline
 62
250
  6
CONTINUOUS
 90
3
 70
0
 10
44.2494257656
 20
26.9450719931
 10
44.2643987344
 20
27.0056855017
 10
44.2720150325
 20
27.0359243469
  0
LINE
  5
512
100
AcDbEntity
  8
RACCORDO
100
AcDbLine
 62
250
  6
CONTINUOUS
 10
45.3321831665
 20
26.2663233431
 11
45.3445568776
 21
26.3163615785
  0
LINE
  5
513
100
AcDbEntity
  8
RACCORDO
100
AcDbLine
 62
250
  6
CONTINUOUS
 10
45.3445568776
 20
26.3163615785
 11
45.3572227811
 21
26.3662593777
  0
LINE
  5
514
100
AcDbEntity
  8
RACCORDO
100
AcDbLine
 62
250
  6
CONTINUOUS
 10
45.3572227811
 20
26.3662593777
 11
45.3701782688
 21
26.4160078442
  0
LINE
  5
515
100
AcDbEntity
  8
RACCORDO
100
AcDbLine
 62
250
  6
CONTINUOUS
 10
45.3701782688
 20
26.4160078442
 11
45.3834215823
 21
26.4656010622
  0
LINE
  5
516
100
AcDbEntity
  8
RACCORDO
100
AcDbLine
 62
250
  6
CONTINUOUS
 10
45.3834215823
 20
26.4656010622
 11
45.3969500554
 21
26.5150301795
  0
LWPOLYLINE
  5
517
100
AcDbEntity
  8
RACCORDO
100
AcDbPolyline
 62
250
  6
CONTINUOUS
 90
3
 70
0
 10
45.3969500554
 20
26.5150301795
 10
45.4107609307
 20
26.5642864156
 10
45.4177719267
 20
26.5888486041
  0
LWPOLYLINE
  5
518
100
AcDbEntity
  8
RACCORDO
100
AcDbPolyline
 62
250
  6
CONTINUOUS
 90
10
 70
0
 10
-38.7783375093
 20
29.5561159988
 10
-38.8325298497
 20
29.5413663047
 10
-38.8946238913
 20
29.5296124803
 10
-38.9631275264
 20
29.5211369676
 10
-39.0363946261
 20
29.5161434317
 10
-39.1126645961
 20
29.5147518661
 10
-39.1901046841
 20
29.51699571
 10
-39.2668540197
 20
29.5228210442
 10
-39.3410683314
 20
29.532087887
 10
-39.4109642639
 20
29.5445735581
  0
LWPOLYLINE
  5
519
100
AcDbEntity
  8
RACCORDO
100
AcDbPolyline
 62
250
  6
CONTINUOUS
 90
22
 70
0
 10
-50.2089239134
 20
49.6025596175
 10
-50.2365760694
 20
49.6077808963
 10
-50.2642111481
 20
49.6120581972
 10
-50.2918029056
 20
49.6153874583
 10
-50.3193251389
 20
49.6177655178
 10
-50.3467517113
 20
49.6191901173
 10
-50.3740565766
 20
49.6196599041
 10
-50.4012138046
 20
49.619174432
 10
-50.4281976049
 20
49.6177341619
 10
-50.454982352
 20
49.6153404617
 10
-50.4815426096
 20
49.6119956046
 10
-50.5078531541
 20
49.6077027671
 10
-50.5338889996
 20
49.6024660259
 10
-50.5596254208
 20
49.5962903541
 10
-50.5850379766
 20
49.5891816166
 10
-50.6101025337
 20
49.5811465643
 10
-50.6347952893
 20
49.5721928277
 10
-50.6590927935
 20
49.56232891
 10
-50.6829719719
 20
49.5515641784
 10
-50.7064101474
 20
49.5399088559
 10
-50.7293850614
 20
49.5273740111
 10
-50.7497843081
 20
49.5152666164
  0
LINE
  5
51A
100
AcDbEntity
  8
DRAFT
100
AcDbLine
 62
7
  6
CONTINUOUS
 10
44.3223422436
 20
28.4658758913
 11
-51.0102761354
 21
47.2907715925
  0
LINE
  5
51B
100
AcDbEntity
  8
RACCORDO
100
AcDbLine
 62
7
  6
CONTINUOUS
 10
-51.2248504308
 20
48.1264881481
 11
44.7996562286
 21
29.1649684358
  0
LINE
  5
51C
100
AcDbEntity
  8
RACCORDO
100
AcDbLine
 62
250
  6
CONTINUOUS
 10
-50.2089237296
 20
49.6025597283
 11
46.2963078227
 21
30.5461134724
  0
LWPOLYLINE
  5
51D
100
AcDbEntity
  8
RACCORDO
100
AcDbPolyline
 62
250
  6
CONTINUOUS
 90
52
 70
0
 10
46.2963076489
 20
30.5461133595
 10
46.324513758
 20
30.5403047055
 10
46.3526849401
 20
30.5335623379
 10
46.380794442
 20
30.5258926597
 10
46.4088155691
 20
30.5173029544
 10
46.4367217108
 20
30.5078013794
 10
46.4644863655
 20
30.497396958
 10
46.4920831663
 20
30.4860995709
 10
46.5194859054
 20
30.4739199468
 10
46.5466685594
 20
30.4608696523
 10
46.573605314
 20
30.4469610808
 10
46.6002705882
 20
30.4322074408
 10
46.626639059
 20
30.4166227431
 10
46.6526856852
 20
30.4002217882
 10
46.6783857313
 20
30.3830201513
 10
46.7037147909
 20
30.3650341683
 10
46.7286488098
 20
30.3462809198
 10
46.7531641091
 20
30.326778215
 10
46.7772374076
 20
30.306544575
 10
46.8008458437
 20
30.285599215
 10
46.8239669972
 20
30.2639620261
 10
46.8465789109
 20
30.2416535561
 10
46.868660111
 20
30.2186949909
 10
46.8901896279
 20
30.1951081331
 10
46.9111470156
 20
30.1709153825
 10
46.9315123718
 20
30.1461397141
 10
46.9512663562
 20
30.1208046563
 10
46.9703902091
 20
30.094934269
 10
46.9888657693
 20
30.0685531204
 10
47.0066754913
 20
30.0416862637
 10
47.0238024617
 20
30.0143592133
 10
47.0402304157
 20
29.9865979209
 10
47.0559437522
 20
29.9584287502
 10
47.070927549
 20
29.9298784526
 10
47.0851675763
 20
29.9009741413
 10
47.098650311
 20
29.8717432656
 10
47.1113629489
 20
29.842213585
 10
47.1232934175
 20
29.8124131429
 10
47.1344303866
 20
29.7823702395
 10
47.14476328
 20
29.7521134057
 10
47.1542822848
 20
29.7216713752
 10
47.1629783612
 20
29.6910730577
 10
47.1708432509
 20
29.6603475114
 10
47.1778694848
 20
29.6295239151
 10
47.1840503904
 20
29.5986315411
 10
47.1893800979
 20
29.5676997265
 10
47.1938535459
 20
29.5367578464
 10
47.197466486
 20
29.505835285
 10
47.2002154873
 20
29.4749614084
 10
47.2020979391
 20
29.4441655364
 10
47.2031120536
 20
29.4134769148
 10
47.2032568679
 20
29.3829246874
  0
LINE
  5
51E
100
AcDbEntity
  8
RACCORDO
100
AcDbLine
 62
250
  6
CONTINUOUS
 10
45.1720649553
 20
-51.1358170827
 11
45.1651250643
 21
-51.0925325249
  0
LINE
  5
51F
100
AcDbEntity
  8
RACCORDO
100
AcDbLine
 62
250
  6
CONTINUOUS
 10
45.1651250643
 20
-51.0925325249
 11
45.1585112918
 21
-51.0488859837
  0
LINE
  5
520
100
AcDbEntity
  8
RACCORDO
100
AcDbLine
 62
250
  6
CONTINUOUS
 10
45.1585112918
 20
-51.0488859837
 11
45.1522251826
 21
-51.0048850508
  0
LINE
  5
521
100
AcDbEntity
  8
RACCORDO
100
AcDbLine
 62
250
  6
CONTINUOUS
 10
44.0260677685
 20
-51.5818024722
 11
44.0188655724
 21
-51.5299743193
  0
LINE
  5
522
100
AcDbEntity
  8
RACCORDO
100
AcDbLine
 62
250
  6
CONTINUOUS
 10
45.1522251826
 20
-51.0048850508
 11
45.1462681691
 21
-50.9605374539
  0
LINE
  5
523
100
AcDbEntity
  8
RACCORDO
100
AcDbLine
 62
250
  6
CONTINUOUS
 10
44.0188655724
 20
-51.5299743193
 11
44.0120520068
 21
-51.4777270597
  0
LINE
  5
524
100
AcDbEntity
  8
RACCORDO
100
AcDbLine
 62
250
  6
CONTINUOUS
 10
45.1462681691
 20
-50.9605374539
 11
45.1406411835
 21
-50.9158483719
  0
LINE
  5
525
100
AcDbEntity
  8
RACCORDO
100
AcDbLine
 62
250
  6
CONTINUOUS
 10
44.0120520068
 20
-51.4777270597
 11
44.0056283264
 21
-51.4250690045
  0
LWPOLYLINE
  5
526
100
AcDbEntity
  8
RACCORDO
100
AcDbPolyline
 62
250
  6
CONTINUOUS
 90
3
 70
0
 10
45.1406411835
 20
-50.9158483719
 10
45.1353455892
 20
-50.8708256171
 10
45.1328224772
 20
-50.8481917622
  0
LINE
  5
527
100
AcDbEntity
  8
RACCORDO
100
AcDbLine
 62
250
  6
CONTINUOUS
 10
44.0056283264
 20
-51.4250690045
 11
43.9995957231
 21
-51.3720085343
  0
LINE
  5
528
100
AcDbEntity
  8
RACCORDO
100
AcDbLine
 62
250
  6
CONTINUOUS
 10
45.1121916522
 20
-50.6175566774
 11
45.1090751977
 21
-50.5705382351
  0
LWPOLYLINE
  5
529
100
AcDbEntity
  8
RACCORDO
100
AcDbPolyline
 62
250
  6
CONTINUOUS
 90
153
 70
0
 10
45.1090751977
 20
-50.5705382351
 10
45.0814536519
 20
-50.1253452315
 10
45.0541779752
 20
-49.6792043173
 10
45.0272481675
 20
-49.2321154923
 10
45.0006638044
 20
-48.7840816291
 10
44.9744253105
 20
-48.3350998551
 10
44.9485339587
 20
-47.8851615532
 10
44.9229897628
 20
-47.4342672042
 10
44.8977927092
 20
-46.9824163273
 10
44.8729440297
 20
-46.529598862
 10
44.8484437147
 20
-46.0758149249
 10
44.8242917738
 20
-45.6210643994
 10
44.8004894679
 20
-45.1653368752
 10
44.7770367861
 20
-44.7086324519
 10
44.7539337393
 20
-44.2509510299
 10
44.7311816215
 20
-43.7922818993
 10
44.7087804247
 20
-43.3326252371
 10
44.686730157
 20
-42.8719808665
 10
44.6650321361
 20
-42.4103375469
 10
44.6436863512
 20
-41.9476954188
 10
44.6226928131
 20
-41.4840543417
 10
44.6020528717
 20
-41.0194026542
 10
44.5817665167
 20
-40.5537405248
 10
44.5618337585
 20
-40.087067785
 10
44.5422559779
 20
-39.6193722672
 10
44.5230331637
 20
-39.1506541403
 10
44.5041653272
 20
-38.6809132355
 10
44.4856538835
 20
-38.2101368785
 10
44.4674988207
 20
-37.7383252493
 10
44.4497001507
 20
-37.2654781679
 10
44.4322593246
 20
-36.7915824203
 10
44.4151763297
 20
-36.3166381951
 10
44.3984511786
 20
-35.8406453037
 10
44.3820853608
 20
-35.3635899666
 10
44.3660788626
 20
-34.8854723824
 10
44.3504316976
 20
-34.4062923525
 10
44.3351453959
 20
-33.9260355018
 10
44.320219943
 20
-33.4447020394
 10
44.3056553532
 20
-32.9622917562
 10
44.2914532
 20
-32.4787896503
 10
44.2776134679
 20
-31.9941959419
 10
44.2641361723
 20
-31.5085104107
 10
44.2510229323
 20
-31.0217173941
 10
44.2382737318
 20
-30.5338171243
 10
44.2258885871
 20
-30.0448093691
 10
44.2138691662
 20
-29.5546777693
 10
44.2022154519
 20
-29.0634225711
 10
44.1909274616
 20
-28.5710435284
 10
44.1800069154
 20
-28.0775235431
 10
44.1694537947
 20
-27.5828628674
 10
44.1592681183
 20
-27.0870612492
 10
44.1494516621
 20
-26.5901008342
 10
44.1400044069
 20
-26.0919819245
 10
44.1309263721
 20
-25.592704218
 10
44.1222193913
 20
-25.092248955
 10
44.1138834421
 20
-24.5906163161
 10
44.1059185471
 20
-24.0878061206
 10
44.0983266077
 20
-23.5837990662
 10
44.0911076063
 20
-23.0785958456
 10
44.0842615605
 20
-22.5721957662
 10
44.0777904252
 20
-22.0645774472
 10
44.0716941635
 20
-21.5557399003
 10
44.0659728122
 20
-21.0456841139
 10
44.0606284368
 20
-20.5343916727
 10
44.0556610449
 20
-20.0218672257
 10
44.051070629
 20
-19.5081061238
 10
44.0468592321
 20
-18.9930760053
 10
44.0430267515
 20
-18.4767633483
 10
44.0395732899
 20
-17.9591816747
 10
44.036501199
 20
-17.4403391881
 10
44.0338105941
 20
-16.9202820334
 10
44.0315013599
 20
-16.3989640659
 10
44.0295755022
 20
-15.8762550548
 10
44.0280328408
 20
-15.3519430828
 10
44.026873556
 20
-14.8262400674
 10
44.0261001947
 20
-14.2996515305
 10
44.025713606
 20
-13.7718965655
 10
44.0257129408
 20
-13.2432560791
 10
44.026098199
 20
-12.7150783129
 10
44.0268702242
 20
-12.1876502755
 10
44.0280281728
 20
-11.6606849583
 10
44.029569514
 20
-11.1346695778
 10
44.0314940736
 20
-10.6098082503
 10
44.0338020258
 20
-10.0858968595
 10
44.0364913616
 20
-9.5628102724
 10
44.0395621924
 20
-9.0405034326
 10
44.0430144068
 20
-8.5190213966
 10
44.0468456628
 20
-7.9983742009
 10
44.05105586
 20
-7.4785750581
 10
44.0556450988
 20
-6.9596107556
 10
44.0606113379
 20
-6.4414516919
 10
44.0659545838
 20
-5.924093355
 10
44.07167483
 20
-5.4075402568
 10
44.0777700158
 20
-4.8917763322
 10
44.0842401049
 20
-4.376802568
 10
44.0910851336
 20
-3.8626179773
 10
44.0983031503
 20
-3.3492035341
 10
44.1058941372
 20
-2.8365585816
 10
44.1138581122
 20
-2.3246837766
 10
44.1221931769
 20
-1.8135620634
 10
44.1308993091
 20
-1.3031932841
 10
44.1399765311
 20
-0.7935775966
 10
44.1494230119
 20
-0.2846984185
 10
44.1592387324
 20
0.2234445275
 10
44.1694237118
 20
0.730850964
 10
44.1799761766
 20
1.2375366411
 10
44.1908961083
 20
1.7435017885
 10
44.2021835255
 20
2.2487461764
 10
44.2138367103
 20
2.7532848667
 10
44.2258556454
 20
3.2571180828
 10
44.2382403481
 20
3.7602456012
 10
44.2509891527
 20
4.2626818123
 10
44.2641020428
 20
4.7644269281
 10
44.2775790346
 20
5.2654807366
 10
44.2914185112
 20
5.765856993
 10
44.3056204573
 20
6.2655558987
 10
44.3201848881
 20
6.7645772523
 10
44.3351102325
 20
7.262934204
 10
44.3503964762
 20
7.760626952
 10
44.3660436336
 20
8.2576552981
 10
44.3820501757
 20
8.7540317988
 10
44.3984160892
 20
9.2497566386
 10
44.4151413875
 20
9.744829633
 10
44.4322245821
 20
10.2392627849
 10
44.4496656603
 20
10.7330562674
 10
44.4674646347
 20
11.2262099075
 10
44.4856200549
 20
11.7187351883
 10
44.504131908
 20
12.2106322521
 10
44.5230002068
 20
12.7019009566
 10
44.5422235393
 20
13.192552359
 10
44.5618018934
 20
13.6825865941
 10
44.5817352812
 20
14.1720035271
 10
44.6020223273
 20
14.6608138096
 10
44.622663022
 20
15.1490176113
 10
44.6436573751
 20
15.6366147626
 10
44.6650040409
 20
16.1236154057
 10
44.6867030091
 20
16.6100196802
 10
44.7087542899
 20
17.0958274465
 10
44.7311565684
 20
17.5810484284
 10
44.7539098365
 20
18.0656827905
 10
44.7770141021
 20
18.5497303682
 10
44.8004680747
 20
19.0332003915
 10
44.824271743
 20
19.5160929471
 10
44.8484251181
 20
19.9984079484
 10
44.8729269425
 20
20.4801543656
 10
44.8977772063
 20
20.9613323026
 10
44.9229759193
 20
21.4419416556
 10
44.9485218532
 20
21.9219910835
 10
44.974415022
 20
22.4014810903
 10
45.0006554117
 20
22.880411172
 10
45.0272417514
 20
23.3587884758
 10
45.0541736176
 20
23.8366153842
 10
45.0814514338
 20
24.3138895149
  0
LINE
  5
52A
100
AcDbEntity
  8
RACCORDO
100
AcDbLine
 62
250
  6
CONTINUOUS
 10
43.9669217971
 20
-50.9620904446
 11
43.9642531606
 21
-50.9059564917
  0
LWPOLYLINE
  5
52B
100
AcDbEntity
  8
RACCORDO
100
AcDbPolyline
 62
250
  6
CONTINUOUS
 90
40
 70
0
 10
43.641891801
 20
-50.6731158636
 10
43.5636231208
 20
-48.7896479005
 10
43.4894659558
 20
-46.9030330997
 10
43.4194216121
 20
-45.0133035533
 10
43.3534913466
 20
-43.120491127
 10
43.2916762992
 20
-41.224628296
 10
43.233977486
 20
-39.3257481491
 10
43.1803959198
 20
-37.4238832757
 10
43.1309325375
 20
-35.5190657445
 10
43.0855881276
 20
-33.6113279422
 10
43.0443634786
 20
-31.7007023253
 10
43.0072593196
 20
-29.7872213915
 10
42.9742762417
 20
-27.8709176631
 10
42.9454148166
 20
-25.9518237363
 10
42.9206755568
 20
-24.0299722559
 10
42.9000588563
 20
-22.1053958873
 10
42.8835650702
 20
-20.1781273651
 10
42.871194494
 20
-18.2481994729
 10
42.8629473249
 20
-16.3156450167
 10
42.8588237009
 20
-14.3804968645
 10
42.8588237009
 20
-12.4427879335
 10
42.8629473249
 20
-10.5025511695
 10
42.871194494
 20
-8.5598195728
 10
42.8835650702
 20
-6.6146261851
 10
42.9000588563
 20
-4.6670040772
 10
42.9206755568
 20
-2.7169863726
 10
42.9454148166
 20
-0.7646062367
 10
42.9742762417
 20
1.1901031361
 10
43.0072593196
 20
3.1471085041
 10
43.0443634787
 20
5.1063765833
 10
43.0855881277
 20
7.0678740581
 10
43.1309325375
 20
9.0315675772
 10
43.1803959198
 20
10.9974237397
 10
43.233977486
 20
12.9654091003
 10
43.2916763005
 20
14.9354905336
 10
43.3534913494
 20
16.9076341972
 10
43.4194216122
 20
18.8818055143
 10
43.4894659466
 20
20.8579705641
 10
43.5636230963
 20
22.8360960862
 10
43.6418917544
 20
24.8161484405
  0
LINE
  5
52C
100
AcDbEntity
  8
RACCORDO
100
AcDbLine
 62
250
  6
CONTINUOUS
 10
43.9642531606
 20
-50.9059564917
 11
43.9619839218
 21
-50.8495026822
  0
LINE
  5
52D
100
AcDbEntity
  8
RACCORDO
100
AcDbLine
 62
250
  6
CONTINUOUS
 10
43.9619839218
 20
-50.8495026822
 11
43.9601146196
 21
-50.7927380821
  0
LINE
  5
52E
100
AcDbEntity
  8
RACCORDO
100
AcDbLine
 62
250
  6
CONTINUOUS
 10
43.9601146196
 20
-50.7927380821
 11
43.9586457431
 21
-50.7356717456
  0
LWPOLYLINE
  5
52F
100
AcDbEntity
  8
RACCORDO
100
AcDbPolyline
 62
250
  6
CONTINUOUS
 90
6
 70
0
 10
42.4548370085
 20
-28.9666430453
 10
42.5368171705
 20
-32.8895676986
 10
42.636937994
 20
-36.8002194364
 10
42.7551932173
 20
-40.6983080358
 10
42.8915891021
 20
-44.5841237198
 10
43.0461256482
 20
-48.4576664884
  0
LINE
  5
530
100
AcDbEntity
  8
RACCORDO
100
AcDbLine
 62
250
  6
CONTINUOUS
 10
43.9586457426
 20
-50.7356717455
 11
43.9507002823
 21
-50.286897773
  0
LWPOLYLINE
  5
531
100
AcDbEntity
  8
RACCORDO
100
AcDbPolyline
 62
250
  6
CONTINUOUS
 90
3
 70
0
 10
43.9507002823
 20
-50.286897773
 10
43.934851163
 20
-49.3867203022
 10
43.9269487815
 20
-48.9353194757
  0
LINE
  5
532
100
AcDbEntity
  8
RACCORDO
100
AcDbLine
 62
250
  6
CONTINUOUS
 10
43.9269487815
 20
-48.9353194757
 11
43.9111982338
 21
-48.0298751523
  0
LINE
  5
533
100
AcDbEntity
  8
RACCORDO
100
AcDbLine
 62
250
  6
CONTINUOUS
 10
43.9111982338
 20
-48.0298751523
 11
43.8955343835
 21
-47.120879038
  0
LINE
  5
534
100
AcDbEntity
  8
RACCORDO
100
AcDbLine
 62
250
  6
CONTINUOUS
 10
43.8955343835
 20
-47.120879038
 11
43.8799743502
 21
-46.2082930382
  0
LINE
  5
535
100
AcDbEntity
  8
RACCORDO
100
AcDbLine
 62
250
  6
CONTINUOUS
 10
43.8799743502
 20
-46.2082930382
 11
43.8568623588
 21
-44.8326198782
  0
LINE
  5
536
100
AcDbEntity
  8
RACCORDO
100
AcDbLine
 62
250
  6
CONTINUOUS
 10
43.8568623588
 20
-44.8326198782
 11
43.8340757332
 21
-43.448685072
  0
LWPOLYLINE
  5
537
100
AcDbEntity
  8
RACCORDO
100
AcDbPolyline
 62
250
  6
CONTINUOUS
 90
3
 70
0
 10
43.8340757332
 20
-43.448685072
 10
43.8116728371
 20
-42.0563685488
 10
43.8043000992
 20
-41.590381901
  0
LINE
  5
538
100
AcDbEntity
  8
RACCORDO
100
AcDbLine
 62
250
  6
CONTINUOUS
 10
43.8043000992
 20
-41.590381901
 11
43.7825024179
 21
-40.1866953559
  0
LINE
  5
539
100
AcDbEntity
  8
RACCORDO
100
AcDbLine
 62
250
  6
CONTINUOUS
 10
43.7825024179
 20
-40.1866953559
 11
43.7612310859
 21
-38.7743300969
  0
LINE
  5
53A
100
AcDbEntity
  8
RACCORDO
100
AcDbLine
 62
250
  6
CONTINUOUS
 10
43.7612310859
 20
-38.7743300969
 11
43.7405501698
 21
-37.3531515963
  0
LINE
  5
53B
100
AcDbEntity
  8
RACCORDO
100
AcDbLine
 62
250
  6
CONTINUOUS
 10
43.7405501698
 20
-37.3531515963
 11
43.7205256162
 21
-35.9230206558
  0
LINE
  5
53C
100
AcDbEntity
  8
RACCORDO
100
AcDbLine
 62
250
  6
CONTINUOUS
 10
43.7205256162
 20
-35.9230206558
 11
43.7012253372
 21
-34.4837931577
  0
LINE
  5
53D
100
AcDbEntity
  8
RACCORDO
100
AcDbLine
 62
250
  6
CONTINUOUS
 10
43.7012253372
 20
-34.4837931577
 11
43.6827193017
 21
-33.0353198201
  0
LINE
  5
53E
100
AcDbEntity
  8
RACCORDO
100
AcDbLine
 62
250
  6
CONTINUOUS
 10
43.6827193017
 20
-33.0353198201
 11
43.6708596002
 21
-32.0644544738
  0
LINE
  5
53F
100
AcDbEntity
  8
RACCORDO
100
AcDbLine
 62
250
  6
CONTINUOUS
 10
43.6708596002
 20
-32.0644544738
 11
43.6594055304
 21
-31.0893693887
  0
LINE
  5
540
100
AcDbEntity
  8
RACCORDO
100
AcDbLine
 62
250
  6
CONTINUOUS
 10
43.6594055304
 20
-31.0893693887
 11
43.6483807066
 21
-30.1100110574
  0
LINE
  5
541
100
AcDbEntity
  8
RACCORDO
100
AcDbLine
 62
250
  6
CONTINUOUS
 10
43.6483807066
 20
-30.1100110574
 11
43.6378094781
 21
-29.1263235439
  0
LINE
  5
542
100
AcDbEntity
  8
RACCORDO
100
AcDbLine
 62
250
  6
CONTINUOUS
 10
43.6378094781
 20
-29.1263235439
 11
43.6277123671
 21
-28.1382678221
  0
LINE
  5
543
100
AcDbEntity
  8
RACCORDO
100
AcDbLine
 62
250
  6
CONTINUOUS
 10
43.6277123671
 20
-28.1382678221
 11
43.618114553
 21
-27.1457862065
  0
LINE
  5
544
100
AcDbEntity
  8
RACCORDO
100
AcDbLine
 62
250
  6
CONTINUOUS
 10
43.618114553
 20
-27.1457862065
 11
43.6090420302
 21
-26.1488184223
  0
LINE
  5
545
100
AcDbEntity
  8
RACCORDO
100
AcDbLine
 62
250
  6
CONTINUOUS
 10
43.6090420302
 20
-26.1488184223
 11
43.6005166639
 21
-25.1473223315
  0
LINE
  5
546
100
AcDbEntity
  8
RACCORDO
100
AcDbLine
 62
250
  6
CONTINUOUS
 10
43.6005166639
 20
-25.1473223315
 11
43.5925653591
 21
-24.1412351987
  0
LINE
  5
547
100
AcDbEntity
  8
RACCORDO
100
AcDbLine
 62
250
  6
CONTINUOUS
 10
43.5925653591
 20
-24.1412351987
 11
43.58521594
 21
-23.130493093
  0
LINE
  5
548
100
AcDbEntity
  8
RACCORDO
100
AcDbLine
 62
250
  6
CONTINUOUS
 10
43.58521594
 20
-23.130493093
 11
43.5784917496
 21
-22.1150498665
  0
LINE
  5
549
100
AcDbEntity
  8
RACCORDO
100
AcDbLine
 62
250
  6
CONTINUOUS
 10
43.5784917496
 20
-22.1150498665
 11
43.5724215791
 21
-21.094832346
  0
LINE
  5
54A
100
AcDbEntity
  8
RACCORDO
100
AcDbLine
 62
250
  6
CONTINUOUS
 10
43.5724215791
 20
-21.094832346
 11
43.5670353614
 21
-20.0697857409
  0
LINE
  5
54B
100
AcDbEntity
  8
RACCORDO
100
AcDbLine
 62
250
  6
CONTINUOUS
 10
43.5670353614
 20
-20.0697857409
 11
43.562358024
 21
-19.0398539012
  0
LINE
  5
54C
100
AcDbEntity
  8
RACCORDO
100
AcDbLine
 62
250
  6
CONTINUOUS
 10
43.562358024
 20
-19.0398539012
 11
43.5584203003
 21
-18.0049018244
  0
LWPOLYLINE
  5
54D
100
AcDbEntity
  8
RACCORDO
100
AcDbPolyline
 62
250
  6
CONTINUOUS
 90
24
 70
0
 10
43.5166934259
 20
24.8812239832
 10
43.5166991105
 20
24.8795615874
 10
43.5171289266
 20
24.8763106482
 10
43.5181111806
 20
24.8730481558
 10
43.5196436965
 20
24.869781338
 10
43.5217230791
 20
24.8665174323
 10
43.5243447216
 20
24.8632636696
 10
43.5275028159
 20
24.8600272585
 10
43.5311903656
 20
24.8568153689
 10
43.535399201
 20
24.8536351165
 10
43.5401199979
 20
24.850493547
 10
43.5453422975
 20
24.8473976204
 10
43.5510545303
 20
24.8443541953
 10
43.5572440412
 20
24.8413700144
 10
43.5638971178
 20
24.8384516888
 10
43.5709990206
 20
24.8356056839
 10
43.5785340159
 20
24.8328383049
 10
43.5864854104
 20
24.8301556825
 10
43.5948355884
 20
24.8275637601
 10
43.6035660507
 20
24.8250682798
 10
43.6126574554
 20
24.8226747702
 10
43.6220896613
 20
24.820388534
 10
43.631841772
 20
24.8182146361
 10
43.6418921823
 20
24.8161578926
  0
LINE
  5
54E
100
AcDbEntity
  8
RACCORDO
100
AcDbLine
 62
250
  6
CONTINUOUS
 10
43.5584203003
 20
-18.0049018244
 11
43.5552549425
 21
-16.9650213516
  0
LWPOLYLINE
  5
54F
100
AcDbEntity
  8
RACCORDO
100
AcDbPolyline
 62
250
  6
CONTINUOUS
 90
5
 70
0
 10
42.3085296037
 20
-13.1617926422
 10
42.3178617717
 20
-17.1294684454
 10
42.3453593091
 20
-21.0865934187
 10
42.3910162924
 20
-25.0323161461
 10
42.4548370085
 20
-28.9666430453
  0
LINE
  5
550
100
AcDbEntity
  8
RACCORDO
100
AcDbLine
 62
250
  6
CONTINUOUS
 10
43.5552549425
 20
-16.9650213516
 11
43.5528882155
 21
-15.9200853931
  0
LINE
  5
551
100
AcDbEntity
  8
RACCORDO
100
AcDbLine
 62
250
  6
CONTINUOUS
 10
43.5528882155
 20
-15.9200853931
 11
43.5513526694
 21
-14.8692269298
  0
LINE
  5
552
100
AcDbEntity
  8
RACCORDO
100
AcDbLine
 62
250
  6
CONTINUOUS
 10
43.5513526694
 20
-14.8692269298
 11
43.5506868782
 21
-13.8141001655
  0
LINE
  5
553
100
AcDbEntity
  8
RACCORDO
100
AcDbLine
 62
250
  6
CONTINUOUS
 10
43.5506868782
 20
-13.8141001655
 11
43.550907444
 21
-12.7565554262
  0
LINE
  5
554
100
AcDbEntity
  8
RACCORDO
100
AcDbLine
 62
250
  6
CONTINUOUS
 10
43.550907444
 20
-12.7565554262
 11
43.5520115456
 21
-11.7014951452
  0
LINE
  5
555
100
AcDbEntity
  8
RACCORDO
100
AcDbLine
 62
250
  6
CONTINUOUS
 10
43.5520115456
 20
-11.7014951452
 11
43.5539619422
 21
-10.6500069962
  0
LWPOLYLINE
  5
556
100
AcDbEntity
  8
RACCORDO
100
AcDbPolyline
 62
250
  6
CONTINUOUS
 90
6
 70
0
 10
41.6365589698
 20
-9.2409312089
 10
41.6277150272
 20
-13.2232019433
 10
41.6370549632
 20
-17.1949103206
 10
41.6645780596
 20
-21.155771807
 10
41.7102822869
 20
-25.1055027359
 10
41.7741644679
 20
-29.0438195367
  0
LINE
  5
557
100
AcDbEntity
  8
RACCORDO
100
AcDbLine
 62
250
  6
CONTINUOUS
 10
42.3173667277
 20
-9.1835639754
 11
42.3085296037
 21
-13.1617926422
  0
LINE
  5
558
100
AcDbEntity
  8
RACCORDO
100
AcDbLine
 62
250
  6
CONTINUOUS
 10
43.5539619422
 20
-10.6500069962
 11
43.5567292733
 21
-9.6024572889
  0
LINE
  5
559
100
AcDbEntity
  8
RACCORDO
100
AcDbLine
 62
250
  6
CONTINUOUS
 10
43.5567292733
 20
-9.6024572889
 11
43.5602818229
 21
-8.5581721963
  0
LINE
  5
55A
100
AcDbEntity
  8
RACCORDO
100
AcDbLine
 62
250
  6
CONTINUOUS
 10
43.5602818229
 20
-8.5581721963
 11
43.5645870805
 21
-7.5172819913
  0
LINE
  5
55B
100
AcDbEntity
  8
RACCORDO
100
AcDbLine
 62
250
  6
CONTINUOUS
 10
43.5645870805
 20
-7.5172819913
 11
43.5696190284
 21
-6.4797693141
  0
LINE
  5
55C
100
AcDbEntity
  8
RACCORDO
100
AcDbLine
 62
250
  6
CONTINUOUS
 10
43.5696190284
 20
-6.4797693141
 11
43.5753470673
 21
-5.4455193282
  0
LINE
  5
55D
100
AcDbEntity
  8
RACCORDO
100
AcDbLine
 62
250
  6
CONTINUOUS
 10
43.5753470673
 20
-5.4455193282
 11
43.5817413175
 21
-4.4144901117
  0
LINE
  5
55E
100
AcDbEntity
  8
RACCORDO
100
AcDbLine
 62
250
  6
CONTINUOUS
 10
43.5817413175
 20
-4.4144901117
 11
43.5887776586
 21
-3.3866481324
  0
LINE
  5
55F
100
AcDbEntity
  8
RACCORDO
100
AcDbLine
 62
250
  6
CONTINUOUS
 10
43.5887776586
 20
-3.3866481324
 11
43.5964273905
 21
-2.3619298647
  0
LINE
  5
560
100
AcDbEntity
  8
RACCORDO
100
AcDbLine
 62
250
  6
CONTINUOUS
 10
43.5964273905
 20
-2.3619298647
 11
43.6046627205
 21
-1.3402811466
  0
LINE
  5
561
100
AcDbEntity
  8
RACCORDO
100
AcDbLine
 62
250
  6
CONTINUOUS
 10
43.6046627205
 20
-1.3402811466
 11
43.6134611041
 21
-0.3216693884
  0
LINE
  5
562
100
AcDbEntity
  8
RACCORDO
100
AcDbLine
 62
250
  6
CONTINUOUS
 10
43.6134611041
 20
-0.3216693884
 11
43.6227957197
 21
0.6939600622
  0
LINE
  5
563
100
AcDbEntity
  8
RACCORDO
100
AcDbLine
 62
250
  6
CONTINUOUS
 10
43.6227957197
 20
0.6939600622
 11
43.6326405957
 21
1.7066586422
  0
LINE
  5
564
100
AcDbEntity
  8
RACCORDO
100
AcDbLine
 62
250
  6
CONTINUOUS
 10
43.6326405957
 20
1.7066586422
 11
43.6429745957
 21
2.716456569
  0
LINE
  5
565
100
AcDbEntity
  8
RACCORDO
100
AcDbLine
 62
250
  6
CONTINUOUS
 10
43.6429745957
 20
2.716456569
 11
43.6537726168
 21
3.7234040801
  0
LINE
  5
566
100
AcDbEntity
  8
RACCORDO
100
AcDbLine
 62
250
  6
CONTINUOUS
 10
43.6537726168
 20
3.7234040801
 11
43.6650103263
 21
4.727548946
  0
LINE
  5
567
100
AcDbEntity
  8
RACCORDO
100
AcDbLine
 62
250
  6
CONTINUOUS
 10
43.6650103263
 20
4.727548946
 11
43.6826459405
 21
6.2285818757
  0
LINE
  5
568
100
AcDbEntity
  8
RACCORDO
100
AcDbLine
 62
250
  6
CONTINUOUS
 10
43.6826459405
 20
6.2285818757
 11
43.7011489395
 21
7.7235195595
  0
LINE
  5
569
100
AcDbEntity
  8
RACCORDO
100
AcDbLine
 62
250
  6
CONTINUOUS
 10
43.7011489395
 20
7.7235195595
 11
43.7204473244
 21
9.2124905069
  0
LINE
  5
56A
100
AcDbEntity
  8
RACCORDO
100
AcDbLine
 62
250
  6
CONTINUOUS
 10
43.7204473244
 20
9.2124905069
 11
43.7404712395
 21
10.6956184693
  0
LINE
  5
56B
100
AcDbEntity
  8
RACCORDO
100
AcDbLine
 62
250
  6
CONTINUOUS
 10
43.7404712395
 20
10.6956184693
 11
43.7611528753
 21
12.1730227625
  0
LINE
  5
56C
100
AcDbEntity
  8
RACCORDO
100
AcDbLine
 62
250
  6
CONTINUOUS
 10
43.7611528753
 20
12.1730227625
 11
43.7824263822
 21
13.6448187274
  0
LINE
  5
56D
100
AcDbEntity
  8
RACCORDO
100
AcDbLine
 62
250
  6
CONTINUOUS
 10
43.7824263822
 20
13.6448187274
 11
43.8042277965
 21
15.1111184365
  0
LINE
  5
56E
100
AcDbEntity
  8
RACCORDO
100
AcDbLine
 62
250
  6
CONTINUOUS
 10
43.8042277965
 20
15.1111184365
 11
43.834011019
 21
17.0578187512
  0
LINE
  5
56F
100
AcDbEntity
  8
RACCORDO
100
AcDbLine
 62
250
  6
CONTINUOUS
 10
43.834011019
 20
17.0578187512
 11
43.8721864181
 21
19.4781056398
  0
LINE
  5
570
100
AcDbEntity
  8
RACCORDO
100
AcDbLine
 62
250
  6
CONTINUOUS
 10
43.8721864181
 20
19.4781056398
 11
43.9111670274
 21
21.8842622169
  0
LINE
  5
571
100
AcDbEntity
  8
RACCORDO
100
AcDbLine
 62
250
  6
CONTINUOUS
 10
43.9111670274
 20
21.8842622169
 11
43.9586457388
 21
24.7536101234
  0
LWPOLYLINE
  5
572
100
AcDbEntity
  8
RACCORDO
100
AcDbPolyline
 62
250
  6
CONTINUOUS
 90
5
 70
0
 10
42.5343426478
 20
6.8297432045
 10
42.4528571811
 20
2.8118691111
 10
42.3895312396
 20
-1.1963116696
 10
42.3443692211
 20
-5.1947844788
 10
42.3173667277
 20
-9.1835639754
  0
LWPOLYLINE
  5
573
100
AcDbEntity
  8
RACCORDO
100
AcDbPolyline
 62
250
  6
CONTINUOUS
 90
6
 70
0
 10
41.9534682799
 20
10.8188443885
 10
41.8537408547
 20
6.7880587169
 10
41.7721808802
 20
2.7663986033
 10
41.7087944514
 20
-1.2458449499
 10
41.6635861093
 20
-5.2483835118
 10
41.6365589698
 20
-9.2409312089
  0
LINE
  5
574
100
AcDbEntity
  8
RACCORDO
100
AcDbLine
 62
250
  6
CONTINUOUS
 10
42.6339686017
 20
10.856409116
 11
42.5343426478
 21
6.8297432045
  0
LINE
  5
575
100
AcDbEntity
  8
RACCORDO
100
AcDbLine
 62
250
  6
CONTINUOUS
 10
43.9586457392
 20
24.7536101233
 11
43.9601152416
 21
24.814402118
  0
LINE
  5
576
100
AcDbEntity
  8
RACCORDO
100
AcDbLine
 62
250
  6
CONTINUOUS
 10
43.9601152416
 20
24.814402118
 11
43.9619854704
 21
24.8753574164
  0
LWPOLYLINE
  5
577
100
AcDbEntity
  8
RACCORDO
100
AcDbPolyline
 62
250
  6
CONTINUOUS
 90
3
 70
0
 10
42.2073956477
 20
18.9066344441
 10
42.0713559613
 20
14.8584658166
 10
41.9534682799
 20
10.8188443885
  0
LWPOLYLINE
  5
578
100
AcDbEntity
  8
RACCORDO
100
AcDbPolyline
 62
250
  6
CONTINUOUS
 90
3
 70
0
 10
42.8876292795
 20
18.9355153977
 10
42.7517286969
 20
14.8915663478
 10
42.6339686017
 20
10.856409116
  0
LINE
  5
579
100
AcDbEntity
  8
RACCORDO
100
AcDbLine
 62
250
  6
CONTINUOUS
 10
42.3615776986
 20
22.9630601607
 11
42.2073956477
 21
18.9066344441
  0
LINE
  5
57A
100
AcDbEntity
  8
RACCORDO
100
AcDbLine
 62
250
  6
CONTINUOUS
 10
43.0416703493
 20
22.988256266
 11
42.8876292795
 21
18.9355153977
  0
LINE
  5
57B
100
AcDbEntity
  8
RACCORDO
100
AcDbLine
 62
250
  6
CONTINUOUS
 10
43.9619854704
 20
24.8753574164
 11
43.9642559367
 21
24.936466374
  0
LWPOLYLINE
  5
57C
100
AcDbEntity
  8
RACCORDO
100
AcDbPolyline
 62
7
  6
CONTINUOUS
 90
40
 70
0
 10
43.5166933873
 20
24.8812240643
 10
43.4389629675
 20
22.9151031695
 10
43.3647698601
 20
20.9366997858
 10
43.294691498
 20
18.9602547271
 10
43.2287292839
 20
16.9858056855
 10
43.1668842874
 20
15.0133855094
 10
43.1091574804
 20
13.0430251262
 10
43.0555498544
 20
11.0747569178
 10
43.0060623152
 20
9.1086146468
 10
42.9606957208
 20
7.1446313196
 10
42.9194509018
 20
5.1828400341
 10
42.8823285631
 20
3.22327475
 10
42.8493293737
 20
1.2659697648
 10
42.8204539488
 20
-0.6890414409
 10
42.7957027589
 20
-2.641725829
 10
42.775076248
 20
-4.5920497715
 10
42.7585748192
 20
-6.5399800195
 10
42.7461987338
 20
-8.4854834639
 10
42.7379482192
 20
-10.4285266891
 10
42.733823465
 20
-12.3690766052
 10
42.7338245202
 20
-14.3071002162
 10
42.737951398
 20
-16.2425642497
 10
42.746204076
 20
-18.1754357516
 10
42.7585823912
 20
-20.105681852
 10
42.7750861429
 20
-22.0332694085
 10
42.7957150962
 20
-23.9581656178
 10
42.820468875
 20
-25.8803377128
 10
42.8493470618
 20
-27.7997526084
 10
42.8823492129
 20
-29.7163778307
 10
42.91947474
 20
-31.6301806422
 10
42.9607230011
 20
-33.5411275687
 10
43.006093318
 20
-35.4491855067
 10
43.0555848873
 20
-37.3543223657
 10
43.1091968781
 20
-39.2565061933
 10
43.1669284114
 20
-41.155704327
 10
43.2287785229
 20
-43.0518855906
 10
43.294746268
 20
-44.9450202514
 10
43.3648306046
 20
-46.8350767759
 10
43.4390301576
 20
-48.7220191905
 10
43.5167155482
 20
-50.5911020445
  0
LINE
  5
57D
100
AcDbEntity
  8
RACCORDO
100
AcDbLine
 62
250
  6
CONTINUOUS
 10
43.9642559367
 20
24.936466374
 11
43.9669261027
 21
24.9977192487
  0
LWPOLYLINE
  5
57E
100
AcDbEntity
  8
RACCORDO
100
AcDbPolyline
 62
250
  6
CONTINUOUS
 90
46
 70
0
 10
43.6418917592
 20
24.8161484395
 10
43.6465134174
 20
24.9171032738
 10
43.652197222
 20
25.0185016321
 10
43.6589405573
 20
25.1202989349
 10
43.6667401646
 20
25.2224498621
 10
43.6755926221
 20
25.3249100817
 10
43.6854944088
 20
25.4276362862
 10
43.6964410958
 20
25.5305840575
 10
43.7084277184
 20
25.6337074616
 10
43.7214492894
 20
25.7369607873
 10
43.7354998617
 20
25.8402985651
 10
43.7505731345
 20
25.9436755152
 10
43.7666628834
 20
26.0470461578
 10
43.7837617822
 20
26.1503650427
 10
43.8018621444
 20
26.2535868418
 10
43.8209565277
 20
26.3566662951
 10
43.8410362836
 20
26.4595582481
 10
43.8620923541
 20
26.5622174024
 10
43.8841160158
 20
26.6645984089
 10
43.9070972594
 20
26.7666562703
 10
43.9310257384
 20
26.8683462178
 10
43.955891572
 20
26.9696234606
 10
43.9816834828
 20
27.0704435604
 10
44.0083898365
 20
27.1707622281
 10
44.0359995883
 20
27.2705351999
 10
44.0645002016
 20
27.369718641
 10
44.0938788299
 20
27.4682690512
 10
44.1241233622
 20
27.5661430573
 10
44.1552201057
 20
27.6632977672
 10
44.187155009
 20
27.7596904677
 10
44.2199148444
 20
27.8552785308
 10
44.2534847425
 20
27.9500199659
 10
44.287849563
 20
28.0438732381
 10
44.3229951216
 20
28.1367969627
 10
44.3589055042
 20
28.2287504095
 10
44.395564479
 20
28.3196931828
 10
44.432956865
 20
28.4095850416
 10
44.4710656996
 20
28.4983865188
 10
44.5098737814
 20
28.5860586871
 10
44.5493650838
 20
28.6725628358
 10
44.5895217311
 20
28.7578610636
 10
44.6303255595
 20
28.8419159079
 10
44.6717596576
 20
28.9246901146
 10
44.7138057912
 20
29.0061472546
 10
44.756444414
 20
29.0862517365
 10
44.7996562286
 20
29.1649684358
  0
LINE
  5
57F
100
AcDbEntity
  8
RACCORDO
100
AcDbLine
 62
250
  6
CONTINUOUS
 10
43.9669261027
 20
24.9977192487
 11
43.9699953658
 21
25.0591064197
  0
LINE
  5
580
100
AcDbEntity
  8
RACCORDO
100
AcDbLine
 62
250
  6
CONTINUOUS
 10
43.9699953658
 20
25.0591064197
 11
43.9734630531
 21
25.1206182001
  0
LINE
  5
581
100
AcDbEntity
  8
RACCORDO
100
AcDbLine
 62
250
  6
CONTINUOUS
 10
45.0814514338
 20
24.3138895149
 11
45.1105910844
 21
24.8158821816
  0
LINE
  5
582
100
AcDbEntity
  8
RACCORDO
100
AcDbLine
 62
250
  6
CONTINUOUS
 10
43.9734630531
 20
25.1206182001
 11
43.977328432
 21
25.1822448614
  0
LINE
  5
583
100
AcDbEntity
  8
RACCORDO
100
AcDbLine
 62
250
  6
CONTINUOUS
 10
45.1105910844
 20
24.8158821816
 11
45.1138757534
 21
24.8664949062
  0
LINE
  5
584
100
AcDbEntity
  8
RACCORDO
100
AcDbLine
 62
250
  6
CONTINUOUS
 10
43.977328432
 20
25.1822448614
 11
43.9815907049
 21
25.24397668
  0
LINE
  5
585
100
AcDbEntity
  8
RACCORDO
100
AcDbLine
 62
250
  6
CONTINUOUS
 10
45.1138757534
 20
24.8664949062
 11
45.1174978431
 21
24.917203171
  0
LINE
  5
586
100
AcDbEntity
  8
RACCORDO
100
AcDbLine
 62
250
  6
CONTINUOUS
 10
43.9815907049
 20
25.24397668
 11
43.9862490081
 21
25.3058039102
  0
LINE
  5
587
100
AcDbEntity
  8
RACCORDO
100
AcDbLine
 62
250
  6
CONTINUOUS
 10
45.1174978431
 20
24.917203171
 11
45.1214561518
 21
24.9679955426
  0
LINE
  5
588
100
AcDbEntity
  8
RACCORDO
100
AcDbLine
 62
250
  6
CONTINUOUS
 10
43.9862490081
 20
25.3058039102
 11
43.9913024177
 21
25.3677167885
  0
LINE
  5
589
100
AcDbEntity
  8
RACCORDO
100
AcDbLine
 62
250
  6
CONTINUOUS
 10
45.1214561518
 20
24.9679955426
 11
45.1257499895
 21
25.0188657963
  0
LWPOLYLINE
  5
58A
100
AcDbEntity
  8
RACCORDO
100
AcDbPolyline
 62
250
  6
CONTINUOUS
 90
3
 70
0
 10
43.9913024177
 20
25.3677167885
 10
43.9967499448
 20
25.4297055407
 10
43.9996211759
 20
25.4607253115
  0
LINE
  5
58B
100
AcDbEntity
  8
RACCORDO
100
AcDbLine
 62
250
  6
CONTINUOUS
 10
45.1257499895
 20
25.0188657963
 11
45.1303782883
 21
25.0698046218
  0
LINE
  5
58C
100
AcDbEntity
  8
RACCORDO
100
AcDbLine
 62
250
  6
CONTINUOUS
 10
45.1303782883
 20
25.0698046218
 11
45.1353398657
 21
25.1208026545
  0
LINE
  5
58D
100
AcDbEntity
  8
RACCORDO
100
AcDbLine
 62
250
  6
CONTINUOUS
 10
45.1353398657
 20
25.1208026545
 11
45.1406339108
 21
25.1718536603
  0
LINE
  5
58E
100
AcDbEntity
  8
RACCORDO
100
AcDbLine
 62
250
  6
CONTINUOUS
 10
45.1406339108
 20
25.1718536603
 11
45.1462591727
 21
25.2229482939
  0
LINE
  5
58F
100
AcDbEntity
  8
RACCORDO
100
AcDbLine
 62
250
  6
CONTINUOUS
 10
45.1462591727
 20
25.2229482939
 11
45.1522142906
 21
25.2740772062
  0
LINE
  5
590
100
AcDbEntity
  8
RACCORDO
100
AcDbLine
 62
250
  6
CONTINUOUS
 10
45.1522142906
 20
25.2740772062
 11
45.158498334
 21
25.3252341675
  0
LWPOLYLINE
  5
591
100
AcDbEntity
  8
RACCORDO
100
AcDbPolyline
 62
250
  6
CONTINUOUS
 90
3
 70
0
 10
45.158498334
 20
25.3252341675
 10
45.1651098727
 20
25.3764098353
 10
45.1685379359
 20
25.402001574
  0
LWPOLYLINE
  5
592
100
AcDbEntity
  8
RACCORDO
100
AcDbPolyline
 62
250
  6
CONTINUOUS
 90
7
 70
0
 10
28.4510310444
 20
-32.6777324613
 10
28.4821570458
 20
-32.6563837093
 10
28.5206658148
 20
-32.6214485926
 10
28.5543059467
 20
-32.5797304125
 10
28.5829432114
 20
-32.5299643858
 10
28.6053390272
 20
-32.471827905
 10
28.6197727885
 20
-32.4066516759
  0
LWPOLYLINE
  5
593
100
AcDbEntity
  8
RACCORDO
100
AcDbPolyline
 62
7
  6
CONTINUOUS
 90
26
 70
0
 10
10.411805622
 20
-45.6445061153
 10
10.4045696536
 20
-45.6491902415
 10
10.3890802009
 20
-45.6597074756
 10
10.3743197389
 20
-45.6704191973
 10
10.3602779171
 20
-45.681321285
 10
10.3469308699
 20
-45.6924208251
 10
10.3342453506
 20
-45.7037364752
 10
10.3222089312
 20
-45.7152732325
 10
10.3108153782
 20
-45.7270319434
 10
10.3000495666
 20
-45.7390243245
 10
10.2899062502
 20
-45.7512546579
 10
10.2803884897
 20
-45.7637187867
 10
10.2715002399
 20
-45.7764112327
 10
10.2632433241
 20
-45.7893291822
 10
10.2556236092
 20
-45.8024635257
 10
10.2486532346
 20
-45.8157918861
 10
10.2423372638
 20
-45.8293013299
 10
10.2366805525
 20
-45.8429780331
 10
10.2316931394
 20
-45.8567903821
 10
10.2273779748
 20
-45.870718109
 10
10.2237367014
 20
-45.8847417398
 10
10.2207733274
 20
-45.8988248405
 10
10.2184861179
 20
-45.9129439553
 10
10.2168718239
 20
-45.9270753306
 10
10.2159264904
 20
-45.9411790305
 10
10.2156405507
 20
-45.9543413687
  0
LINE
  5
594
100
AcDbEntity
  8
RACCORDO
100
AcDbLine
 62
7
  6
CONTINUOUS
 10
10.4118051788
 20
-45.6445062992
 11
11.1666412999
 21
-45.1630515801
  0
LINE
  5
595
100
AcDbEntity
  8
RACCORDO
100
AcDbLine
 62
250
  6
CONTINUOUS
 10
10.5176105864
 20
-45.6262507287
 11
11.2255787035
 21
-45.1746896793
  0
LWPOLYLINE
  5
596
100
AcDbEntity
  8
RACCORDO
100
AcDbPolyline
 62
250
  6
CONTINUOUS
 90
15
 70
0
 10
10.4118055772
 20
-45.6445060451
 10
10.4169716285
 20
-45.6413751932
 10
10.4237858746
 20
-45.6377171845
 10
10.4308165754
 20
-45.6344564579
 10
10.4380478072
 20
-45.6316003984
 10
10.4454631921
 20
-45.6291554748
 10
10.4530459351
 20
-45.6271272246
 10
10.4607788623
 20
-45.6255202414
 10
10.4686444594
 20
-45.6243381649
 10
10.4766249118
 20
-45.6235836724
 10
10.4847021446
 20
-45.6232584727
 10
10.492857864
 20
-45.6233633024
 10
10.5010735982
 20
-45.6238979239
 10
10.5093307395
 20
-45.6248611265
 10
10.5176105864
 20
-45.6262507287
  0
LINE
  5
597
100
AcDbEntity
  8
RACCORDO
100
AcDbLine
 62
7
  6
CONTINUOUS
 10
28.4485978096
 20
-32.6791882344
 11
28.4510310444
 21
-32.6777324613
  0
LINE
  5
598
100
AcDbEntity
  8
RACCORDO
100
AcDbLine
 62
250
  6
CONTINUOUS
 10
29.4318514992
 20
-31.85754909
 11
28.6247153099
 21
-32.3356935543
  0
LINE
  5
599
100
AcDbEntity
  8
SUPERFICI
100
AcDbLine
 62
7
  6
CONTINUOUS
 10
28.4485783143
 20
-32.6791997833
 11
29.4363692248
 21
-32.0940361369
  0
LINE
  5
59A
100
AcDbEntity
  8
RACCORDO
100
AcDbLine
 62
250
  6
CONTINUOUS
 10
28.5847606665
 20
-32.3582501659
 11
28.6247153099
 21
-32.3356935543
  0
LINE
  5
59B
100
AcDbEntity
  8
RACCORDO
100
AcDbLine
 62
7
  6
CONTINUOUS
 10
-43.2780576694
 20
53.7817781984
 11
52.8528634672
 21
34.7992453065
  0
LWPOLYLINE
  5
59C
100
AcDbEntity
  8
RACCORDO
100
AcDbPolyline
 62
7
  6
CONTINUOUS
 90
58
 70
0
 10
52.8528634672
 20
34.7992453065
 10
52.8885723734
 20
34.7916651912
 10
52.9242400004
 20
34.7830247127
 10
52.9598663483
 20
34.7733238709
 10
52.9954940936
 20
34.7625500052
 10
53.0310805597
 20
34.7507157763
 10
53.0664977168
 20
34.7378591663
 10
53.1017394408
 20
34.7239752502
 10
53.1368118559
 20
34.709068953
 10
53.1716053044
 20
34.6931930321
 10
53.2060892714
 20
34.6763612385
 10
53.2402942719
 20
34.6585598212
 10
53.2742021941
 20
34.6398002835
 10
53.3078316827
 20
34.6200736088
 10
53.341164093
 20
34.5993888137
 10
53.374125379
 20
34.5777844515
 10
53.4067283376
 20
34.5552467421
 10
53.438960172
 20
34.5317894656
 10
53.470708446
 20
34.5074925156
 10
53.5019652741
 20
34.4823546308
 10
53.5327385417
 20
34.4563770725
 10
53.5629394689
 20
34.4296435185
 10
53.5925397412
 20
34.4021802922
 10
53.621567673
 20
34.3739610701
 10
53.6500194282
 20
34.3449905601
 10
53.6779195461
 20
34.3152447877
 10
53.7052434874
 20
34.2847477273
 10
53.7319137985
 20
34.2535760099
 10
53.7579337519
 20
34.2217178514
 10
53.7833000751
 20
34.1891850358
 10
53.8079254981
 20
34.1560895473
 10
53.8317996421
 20
34.1224371733
 10
53.8549328859
 20
34.0882221262
 10
53.8772690948
 20
34.0535390276
 10
53.8987907757
 20
34.0184178363
 10
53.9195154218
 20
33.9828285935
 10
53.939439378
 20
33.9467760433
 10
53.9585818885
 20
33.9102253547
 10
53.976923709
 20
33.8732113587
 10
53.9944034523
 20
33.8358432931
 10
54.0110183298
 20
33.7981134489
 10
54.0267711301
 20
33.7600295351
 10
54.0416088308
 20
33.7217239157
 10
54.0555210314
 20
33.6832127272
 10
54.0685181325
 20
33.6444798331
 10
54.0805783135
 20
33.6056091889
 10
54.0916967546
 20
33.5666218387
 10
54.1018782756
 20
33.5274967383
 10
54.1111155151
 20
33.4882547109
 10
54.1194156528
 20
33.4488608024
 10
54.1267715091
 20
33.4093499667
 10
54.1331541834
 20
33.3698478892
 10
54.1385579196
 20
33.3303494998
 10
54.1429884739
 20
33.2908598684
 10
54.1464342138
 20
33.2515198899
 10
54.1488912618
 20
33.2123765295
 10
54.1503634954
 20
33.1733828219
 10
54.1508509147
 20
33.1345387674
  0
LINE
  5
59D
100
AcDbEntity
  8
0
100
AcDbLine
 62
7
  6
CONTINUOUS
 10
25.4182152035
 20
-42.1449371102
 11
25.3430334655
 21
-42.189474491
  0
LINE
  5
59E
100
AcDbEntity
  8
0
100
AcDbLine
 62
7
  6
CONTINUOUS
 10
25.851249556
 20
-42.2304464213
 11
25.776067818
 21
-42.2749838021
  0
LINE
  5
59F
100
AcDbEntity
  8
0
100
AcDbLine
 62
7
  6
CONTINUOUS
 10
26.8085488412
 20
-42.4194799285
 11
26.7333671032
 21
-42.4640173093
  0
LINE
  5
5A0
100
AcDbEntity
  8
0
100
AcDbLine
 62
7
  6
CONTINUOUS
 10
27.2415831937
 20
-42.5049892395
 11
27.1664014557
 21
-42.5495266203
  0
LINE
  5
5A1
100
AcDbEntity
  8
0
100
AcDbLine
 62
7
  6
CONTINUOUS
 10
27.5302675659
 20
-42.5619944209
 11
27.4550858279
 21
-42.6065318017
  0
LINE
  5
5A2
100
AcDbEntity
  8
0
100
AcDbLine
 62
7
  6
CONTINUOUS
 10
27.9632967223
 20
-42.6475027059
 11
27.8881149843
 21
-42.6920400867
  0
LINE
  5
5A3
100
AcDbEntity
  8
0
100
AcDbLine
 62
7
  6
CONTINUOUS
 10
28.3963094242
 20
-42.7330077417
 11
28.3211276862
 21
-42.7775451225
  0
LWPOLYLINE
  5
5A4
100
AcDbEntity
  8
RACCORDO
100
AcDbPolyline
 62
7
  6
CONTINUOUS
 90
6
 70
0
 10
10.3829485879
 20
-46.8448943689
 10
10.2712679429
 20
-46.8810250924
 10
10.1602902743
 20
-46.9085128095
 10
10.0503556164
 20
-46.9274083943
 10
9.9417333655
 20
-46.937823412
 10
9.8345957683
 20
-46.9399011914
  0
LINE
  5
5A5
100
AcDbEntity
  8
RACCORDO
100
AcDbLine
 62
7
  6
CONTINUOUS
 10
54.1508509147
 20
-48.6209993098
 11
54.1508509147
 21
33.1345387674
  0
LWPOLYLINE
  5
5A6
100
AcDbEntity
  8
RACCORDO
100
AcDbPolyline
 62
7
  6
CONTINUOUS
 90
36
 70
0
 10
54.1508509147
 20
-48.6209993098
 10
54.1503635298
 20
-48.6596500251
 10
54.148891353
 20
-48.698061569
 10
54.1464343841
 20
-48.7362339414
 10
54.1429887373
 20
-48.7742126447
 10
54.1385582984
 20
-48.8119521766
 10
54.1331547257
 20
-48.8493160304
 10
54.1267723013
 20
-48.8862966774
 10
54.1194167431
 20
-48.9229016463
 10
54.1111168629
 20
-48.959017017
 10
54.1018798235
 20
-48.9946108124
 10
54.0916984622
 20
-49.0297150095
 10
54.0805801019
 20
-49.0643116196
 10
54.0685198886
 20
-49.0984198346
 10
54.0555226764
 20
-49.1320204625
 10
54.0416103506
 20
-49.165037938
 10
54.0267725165
 20
-49.197484232
 10
54.0110195688
 20
-49.2293473736
 10
53.9944045764
 20
-49.2605158855
 10
53.9769247759
 20
-49.2909809134
 10
53.9585829308
 20
-49.3207513115
 10
53.9394403999
 20
-49.3497421644
 10
53.9195164409
 20
-49.3779262419
 10
53.898791796
 20
-49.4053307741
 10
53.8772700512
 20
-49.4319525362
 10
53.8549336803
 20
-49.4578146225
 10
53.8318002095
 20
-49.4828939385
 10
53.8079258021
 20
-49.5071179763
 10
53.7833000796
 20
-49.5304884154
 10
53.7579334207
 20
-49.5530035762
 10
53.7319131244
 20
-49.5745859116
 10
53.7052424459
 20
-49.5952249324
 10
53.6779181302
 20
-49.6149311278
 10
53.6500177107
 20
-49.6336584182
 10
53.6215657754
 20
-49.6513924888
 10
53.6027741041
 20
-49.6623884708
  0
LWPOLYLINE
  5
5A7
100
AcDbEntity
  8
0
100
AcDbPolyline
 62
7
  6
CONTINUOUS
 90
4
 70
0
 10
33.984334582
 20
-44.8192550335
 10
34.0144538052
 20
-44.7971579345
 10
34.0541609094
 20
-44.7475527004
 10
34.0778181806
 20
-44.685351065
  0
LINE
  5
5A8
100
AcDbEntity
  8
0
100
AcDbLine
 62
7
  6
CONTINUOUS
 10
29.0509319647
 20
-42.8622730578
 11
28.9757502268
 21
-42.9068104386
  0
LINE
  5
5A9
100
AcDbEntity
  8
0
100
AcDbLine
 62
7
  6
CONTINUOUS
 10
26.6366579768
 20
-44.6635991738
 11
26.5614490342
 21
-44.7081526705
  0
LINE
  5
5AA
100
AcDbEntity
  8
0
100
AcDbLine
 62
7
  6
CONTINUOUS
 10
29.8595727932
 20
-43.0219516601
 11
29.7843910552
 21
-43.0664890409
  0
LINE
  5
5AB
100
AcDbEntity
  8
0
100
AcDbLine
 62
7
  6
CONTINUOUS
 10
30.5141961998
 20
-43.1512171472
 11
30.4390144618
 21
-43.195754528
  0
LINE
  5
5AC
100
AcDbEntity
  8
0
100
AcDbLine
 62
7
  6
CONTINUOUS
 10
28.053529231
 20
-44.9433822537
 11
27.9783202884
 21
-44.9879357504
  0
LINE
  5
5AD
100
AcDbEntity
  8
0
100
AcDbLine
 62
7
  6
CONTINUOUS
 10
31.4980328924
 20
-43.3454854017
 11
31.4228511545
 21
-43.3900227824
  0
LINE
  5
5AE
100
AcDbEntity
  8
0
100
AcDbLine
 62
7
  6
CONTINUOUS
 10
28.9195762854
 20
-45.1143966006
 11
28.8443673428
 21
-45.1589500973
  0
LINE
  5
5AF
100
AcDbEntity
  8
0
100
AcDbLine
 62
7
  6
CONTINUOUS
 10
31.9310836994
 20
-43.4309979619
 11
31.8559019615
 21
-43.4755353427
  0
LINE
  5
5B0
100
AcDbEntity
  8
0
100
AcDbLine
 62
7
  6
CONTINUOUS
 10
29.7619970393
 20
-45.2807391988
 11
29.6867880968
 21
-45.3252926954
  0
LINE
  5
5B1
100
AcDbEntity
  8
0
100
AcDbLine
 62
7
  6
CONTINUOUS
 10
32.9149318594
 20
-43.6252739538
 11
32.8397501215
 21
-43.6698113346
  0
LINE
  5
5B2
100
AcDbEntity
  8
0
100
AcDbLine
 62
7
  6
CONTINUOUS
 10
31.5593016229
 20
-44.7554109399
 11
31.4841034268
 21
-44.7999580705
  0
LINE
  5
5B3
100
AcDbEntity
  8
0
100
AcDbLine
 62
7
  6
CONTINUOUS
 10
30.6044347706
 20
-45.4470978921
 11
30.5292258281
 21
-45.4916513888
  0
LINE
  5
5B4
100
AcDbEntity
  8
0
100
AcDbLine
 62
7
  6
CONTINUOUS
 10
33.928939354
 20
-43.8255053715
 11
33.8537575673
 21
-43.8700427812
  0
LINE
  5
5B5
100
AcDbEntity
  8
0
100
AcDbLine
 62
7
  6
CONTINUOUS
 10
31.3261471717
 20
-45.5896047645
 11
31.2509382292
 21
-45.6341582611
  0
LINE
  5
5B6
100
AcDbEntity
  8
0
100
AcDbLine
 62
7
  6
CONTINUOUS
 10
33.379877646
 20
-44.6934857426
 11
33.3046844901
 21
-44.7380298873
  0
LINE
  5
5B7
100
AcDbEntity
  8
0
100
AcDbLine
 62
7
  6
CONTINUOUS
 10
33.9067172722
 20
-44.7975183516
 11
33.8315241522
 21
-44.8420624751
  0
LINE
  5
5B8
100
AcDbEntity
  8
0
100
AcDbLine
 62
7
  6
CONTINUOUS
 10
32.7164862671
 20
-45.8641550317
 11
32.6412773245
 21
-45.9087085284
  0
LINE
  5
5B9
100
AcDbEntity
  8
ASSI
100
AcDbLine
 62
7
  6
CONTINUOUS
 10
34.367906648
 20
-45.1770884883
 11
34.2927050059
 21
-45.2216376602
  0
LINE
  5
5BA
100
AcDbEntity
  8
0
100
AcDbLine
 62
7
  6
CONTINUOUS
 10
33.4382047303
 20
-46.0066631012
 11
33.3629957878
 21
-46.0512165978
  0
LINE
  5
5BB
100
AcDbEntity
  8
0
100
AcDbLine
 62
7
  6
CONTINUOUS
 10
34.2932624659
 20
-45.2213074143
 11
34.1639225844
 21
-45.2743487891
  0
LINE
  5
5BC
100
AcDbEntity
  8
0
100
AcDbLine
 62
7
  6
CONTINUOUS
 10
34.3996155164
 20
-45.1356073927
 11
34.2932624659
 21
-45.2213074143
  0
LINE
  5
5BD
100
AcDbEntity
  8
0
100
AcDbLine
 62
7
  6
CONTINUOUS
 10
34.7378817386
 20
-46.2632989087
 11
34.6626727962
 21
-46.3078524053
  0
LWPOLYLINE
  5
5BE
100
AcDbEntity
  8
RACCORDO
100
AcDbPolyline
 62
250
  6
CONTINUOUS
 90
10
 70
0
 10
43.0461255861
 20
-48.4576664759
 10
42.9959552645
 20
-48.4879198231
 10
42.9343467256
 20
-48.5146559349
 10
42.8631512828
 20
-48.5370714005
 10
42.7845083318
 20
-48.5544926432
 10
42.7007810649
 20
-48.5663961606
 10
42.6144854582
 20
-48.5724242557
 10
42.528214664
 20
-48.5723957867
 10
42.4445610877
 20
-48.5663116091
 10
42.3660384886
 20
-48.5543545504
  0
LWPOLYLINE
  5
5BF
100
AcDbEntity
  8
RACCORDO
100
AcDbPolyline
 62
250
  6
CONTINUOUS
 90
8
 70
0
 10
54.1508509147
 20
-48.62099931
 10
53.7801403137
 20
-48.8453365106
 10
53.3920613246
 20
-49.0795301699
 10
52.9866139474
 20
-49.3235802878
 10
52.5634634998
 20
-49.5776500807
 10
52.1229446642
 20
-49.8415763323
 10
51.6660614871
 20
-50.1148693936
 10
51.1904041801
 20
-50.3988964531
  0
LWPOLYLINE
  5
5C0
100
AcDbEntity
  8
RACCORDO
100
AcDbPolyline
 62
250
  6
CONTINUOUS
 90
3
 70
0
 10
48.6572200604
 20
-51.9090305357
 10
48.1628938072
 20
-52.2043680544
 10
47.2032568679
 20
-52.7787639954
  0
LWPOLYLINE
  5
5C1
100
AcDbEntity
  8
RACCORDO
100
AcDbPolyline
 62
250
  6
CONTINUOUS
 90
3
 70
0
 10
51.1904041801
 20
-50.3988964531
 10
49.6867566569
 20
-51.2952750947
 10
48.6572200604
 20
-51.9090305357
  0
LWPOLYLINE
  5
5C2
100
AcDbEntity
  8
RACCORDO
100
AcDbPolyline
 62
250
  6
CONTINUOUS
 90
200
 70
0
 10
47.2032568679
 20
-52.7787639954
 10
47.1904402456
 20
-52.7863808827
 10
47.177621004
 20
-52.7938522022
 10
47.1647991433
 20
-52.801177954
 10
47.1519741568
 20
-52.8083584868
 10
47.1391465511
 20
-52.8153934519
 10
47.1263178459
 20
-52.8222818031
 10
47.1134880422
 20
-52.8290235223
 10
47.100657139
 20
-52.8356186274
 10
47.0878266524
 20
-52.8420661267
 10
47.0749965798
 20
-52.848366004
 10
47.0621669239
 20
-52.8545182753
 10
47.0493392084
 20
-52.8605219974
 10
47.0365134334
 20
-52.8663771526
 10
47.0236895989
 20
-52.8720837585
 10
47.0108692292
 20
-52.877640924
 10
46.9980523235
 20
-52.883048632
 10
46.9852388825
 20
-52.8883068996
 10
46.9724304327
 20
-52.8934148873
 10
46.9596269737
 20
-52.8983725777
 10
46.9468285058
 20
-52.9031799882
 10
46.9340365562
 20
-52.9078363316
 10
46.9212511248
 20
-52.9123415903
 10
46.9084722117
 20
-52.9166957817
 10
46.8957013447
 20
-52.9208981711
 10
46.8829385237
 20
-52.9249487408
 10
46.8701837488
 20
-52.9288475083
 10
46.8574385475
 20
-52.9325937913
 10
46.8447029203
 20
-52.9361875723
 10
46.8319768668
 20
-52.9396288687
 10
46.819261914
 20
-52.9429170512
 10
46.8065580623
 20
-52.9460521019
 10
46.7938653113
 20
-52.9490340387
 10
46.7811851871
 20
-52.9518622849
 10
46.7685176904
 20
-52.9545368227
 10
46.7558628204
 20
-52.95705767
 10
46.7432221015
 20
-52.9594243046
 10
46.7305955345
 20
-52.9616367082
 10
46.7179831186
 20
-52.963694899
 10
46.7053863758
 20
-52.9655984089
 10
46.6928053071
 20
-52.9673472198
 10
46.6802399116
 20
-52.9689413499
 10
46.6676917084
 20
-52.9703803855
 10
46.6551606989
 20
-52.9716643086
 10
46.6426468817
 20
-52.9727931373
 10
46.6301517728
 20
-52.9737665126
 10
46.6176753734
 20
-52.9745844163
 10
46.6052176822
 20
-52.9752468667
 10
46.5927802114
 20
-52.9757535597
 10
46.5803629625
 20
-52.976104477
 10
46.5679659339
 20
-52.9762996369
 10
46.5555906332
 20
-52.976338791
 10
46.543237062
 20
-52.9762219208
 10
46.5309052186
 20
-52.9759490448
 10
46.5185966057
 20
-52.97551997
 10
46.506311225
 20
-52.974934678
 10
46.4940490746
 20
-52.9741931873
 10
46.4818116516
 20
-52.9732953607
 10
46.4695989579
 20
-52.9722411797
 10
46.4574109915
 20
-52.9710306627
 10
46.4452492432
 20
-52.9696637283
 10
46.4331137152
 20
-52.9681403579
 10
46.4210044053
 20
-52.96646057
 10
46.4089227976
 20
-52.9646243392
 10
46.3968688948
 20
-52.9626316466
 10
46.3848426942
 20
-52.9604825111
 10
46.3728456729
 20
-52.9581769635
 10
46.3608778334
 20
-52.955714985
 10
46.3489391732
 20
-52.9530965944
 10
46.3370311612
 20
-52.9503218792
 10
46.3251538004
 20
-52.9473908204
 10
46.3133070878
 20
-52.9443034369
 10
46.3014924843
 20
-52.9410598726
 10
46.2897099929
 20
-52.9376601086
 10
46.2779596105
 20
-52.9341041636
 10
46.266242789
 20
-52.930392238
 10
46.2545595315
 20
-52.9265243128
 10
46.242909835
 20
-52.9225004068
 10
46.2312951418
 20
-52.9183207768
 10
46.2197154554
 20
-52.9139854037
 10
46.2081707725
 20
-52.9094943066
 10
46.1966625254
 20
-52.9048477989
 10
46.1851907177
 20
-52.9000458617
 10
46.1737553458
 20
-52.895088514
 10
46.1623578317
 20
-52.889976126
 10
46.150998179
 20
-52.8847086789
 10
46.1396763841
 20
-52.8792861916
 10
46.1283938576
 20
-52.873709091
 10
46.1171506036
 20
-52.8679773584
 10
46.1059466181
 20
-52.8620910125
 10
46.0947833002
 20
-52.8560505369
 10
46.0836606541
 20
-52.8498559126
 10
46.0725786756
 20
-52.8435071586
 10
46.061538752
 20
-52.8370048148
 10
46.0505408874
 20
-52.8303488622
 10
46.0395850775
 20
-52.8235393199
 10
46.0286726968
 20
-52.8165767846
 10
46.0178037497
 20
-52.8094612375
 10
46.0069782317
 20
-52.8021926973
 10
45.9961975039
 20
-52.7947718175
 10
45.9854615708
 20
-52.7871985794
 10
45.974770428
 20
-52.7794730017
 10
45.9641254225
 20
-52.7715957942
 10
45.9535265593
 20
-52.7635669382
 10
45.9429738335
 20
-52.7553864524
 10
45.9324685782
 20
-52.7470551027
 10
45.9220107982
 20
-52.7385728704
 10
45.9116004887
 20
-52.7299397743
 10
45.901238968
 20
-52.721156636
 10
45.890926241
 20
-52.7122234371
 10
45.8806623028
 20
-52.7031401961
 10
45.8704484563
 20
-52.6939077911
 10
45.8602847066
 20
-52.6845262036
 10
45.8501710486
 20
-52.674995452
 10
45.8401087692
 20
-52.6653164704
 10
45.8300978738
 20
-52.6554892403
 10
45.820138357
 20
-52.6455137801
 10
45.8102314895
 20
-52.6353910793
 10
45.8003772767
 20
-52.6251211196
 10
45.7905757131
 20
-52.6147039193
 10
45.7808280525
 20
-52.6041405231
 10
45.7711343007
 20
-52.5934309127
 10
45.7614944518
 20
-52.5825751064
 10
45.7519097423
 20
-52.5715742038
 10
45.7423801783
 20
-52.5604281866
 10
45.7329057538
 20
-52.5491370732
 10
45.7234876872
 20
-52.5377020182
 10
45.7141259848
 20
-52.5261230033
 10
45.7048206403
 20
-52.5144000469
 10
45.695572854
 20
-52.5025343581
 10
45.6863826322
 20
-52.490525919
 10
45.6772499684
 20
-52.4783747475
 10
45.6681760441
 20
-52.4660821071
 10
45.6591608655
 20
-52.4536479799
 10
45.6502044264
 20
-52.4410723838
 10
45.6413078886
 20
-52.4283566359
 10
45.6324712589
 20
-52.4155007184
 10
45.6236945306
 20
-52.4025046492
 10
45.6149788459
 20
-52.3893697988
 10
45.6063242117
 20
-52.3760961493
 10
45.5977306211
 20
-52.3626837186
 10
45.5891991962
 20
-52.3491339306
 10
45.5807299438
 20
-52.3354467677
 10
45.572322857
 20
-52.3216222475
 10
45.563979037
 20
-52.3076618467
 10
45.5556984907
 20
-52.2935655479
 10
45.5474812112
 20
-52.2793333685
 10
45.5393282783
 20
-52.2649668375
 10
45.5312396993
 20
-52.2504659377
 10
45.5232154669
 20
-52.2358306863
 10
45.5152566394
 20
-52.221062664
 10
45.5073632243
 20
-52.2061618539
 10
45.4995352141
 20
-52.191128273
 10
45.4917736451
 20
-52.1759635533
 10
45.4840785249
 20
-52.1606676778
 10
45.476449846
 20
-52.1452406634
 10
45.468888622
 20
-52.1296841935
 10
45.4613948607
 20
-52.1139982512
 10
45.4539685544
 20
-52.0981828533
 10
45.4466106936
 20
-52.0822397335
 10
45.4393212864
 20
-52.0661688751
 10
45.4321003247
 20
-52.0499702949
 10
45.424948776
 20
-52.0336457762
 10
45.417866648
 20
-52.0171953028
 10
45.410853933
 20
-52.0006188909
 10
45.4039115745
 20
-51.9839183734
 10
45.3970395804
 20
-51.967093734
 10
45.3902379429
 20
-51.950144989
 10
45.3835075812
 20
-51.9330740197
 10
45.3768485037
 20
-51.91588081
 10
45.3702607021
 20
-51.8985653759
 10
45.3637450712
 20
-51.8811296472
 10
45.3573016194
 20
-51.8635736081
 10
45.3509303383
 20
-51.8458972745
 10
45.3446320977
 20
-51.8281026237
 10
45.338406906
 20
-51.8101896401
 10
45.3322547548
 20
-51.7921583393
 10
45.3261764884
 20
-51.7740107457
 10
45.3201721153
 20
-51.7557468438
 10
45.314241627
 20
-51.7373666491
 10
45.3083858422
 20
-51.7188722321
 10
45.3026047696
 20
-51.7002635777
 10
45.2968984004
 20
-51.6815407012
 10
45.2912675272
 20
-51.6627057187
 10
45.2857121587
 20
-51.6437586152
 10
45.2802322861
 20
-51.6246994059
 10
45.2748286754
 20
-51.6055302521
 10
45.2695013353
 20
-51.5862511393
 10
45.2642502571
 20
-51.5668620821
 10
45.2590761796
 20
-51.5473652864
 10
45.2539791119
 20
-51.5277607376
 10
45.2489590449
 20
-51.5080484502
 10
45.2440166903
 20
-51.4882306736
 10
45.2391520574
 20
-51.4683073935
 10
45.234365137
 20
-51.4482786241
 10
45.2296566134
 20
-51.4281466571
 10
45.2250264958
 20
-51.4079114788
 10
45.220474775
 20
-51.3875731029
 10
45.2160021083
 20
-51.3671338624
 10
45.211608505
 20
-51.3465937432
  0
LWPOLYLINE
  5
5C3
100
AcDbEntity
  8
RACCORDO
100
AcDbPolyline
 62
250
  6
CONTINUOUS
 90
11
 70
0
 10
45.211608505
 20
-51.3465937432
 10
45.2072939557
 20
-51.3259527593
 10
45.2030590898
 20
-51.3052132852
 10
45.1989039167
 20
-51.2843753072
 10
45.194828427
 20
-51.2634388389
 10
45.1908332214
 20
-51.2424062953
 10
45.1869183096
 20
-51.2212776633
 10
45.1830836818
 20
-51.2000529559
 10
45.1793299103
 20
-51.1787346278
 10
45.1756570047
 20
-51.1573226656
 10
45.1720649553
 20
-51.1358170827
  0
LWPOLYLINE
  5
5C4
100
AcDbEntity
  8
RACCORDO
100
AcDbPolyline
 62
250
  6
CONTINUOUS
 90
32
 70
0
 10
46.8224369267
 20
-53.5051912869
 10
46.8464585442
 20
-53.4909142886
 10
46.8685380257
 20
-53.4765999947
 10
46.8900662239
 20
-53.4614585619
 10
46.9110226954
 20
-53.4455043685
 10
46.9313875396
 20
-53.4287525651
 10
46.9511414177
 20
-53.4112190595
 10
46.970265571
 20
-53.3929205016
 10
46.988741839
 20
-53.3738742682
 10
47.0065526762
 20
-53.3540984458
 10
47.0236811693
 20
-53.3336118139
 10
47.0401110527
 20
-53.312433827
 10
47.0558267243
 20
-53.2905845959
 10
47.0708132602
 20
-53.2680848692
 10
47.0850564291
 20
-53.2449560129
 10
47.0985427053
 20
-53.2212199905
 10
47.1112592821
 20
-53.1968993422
 10
47.1231940836
 20
-53.1720171633
 10
47.1343357763
 20
-53.1465970822
 10
47.1446737799
 20
-53.1206632384
 10
47.1541982772
 20
-53.094240259
 10
47.1629002236
 20
-53.0673532358
 10
47.1707713556
 20
-53.040027701
 10
47.1778041987
 20
-53.0122896034
 10
47.1839920743
 20
-52.9841652838
 10
47.1893291063
 20
-52.9556814492
 10
47.1938102267
 20
-52.9268651485
 10
47.19743118
 20
-52.8977437461
 10
47.2001885277
 20
-52.8683448961
 10
47.2020796514
 20
-52.8386965163
 10
47.2031027554
 20
-52.8088267611
 10
47.2032568679
 20
-52.7787639954
  0
LINE
  5
5C5
100
AcDbEntity
  8
RACCORDO
100
AcDbLine
 62
7
  6
CONTINUOUS
 10
46.8224369267
 20
-53.5051912869
 11
47.6465510179
 21
-53.0379503396
  0
LWPOLYLINE
  5
5C6
100
AcDbEntity
  8
RACCORDO
100
AcDbPolyline
 62
7
  6
CONTINUOUS
 90
5
 70
0
 10
50.7859095115
 20
-51.2619095234
 10
51.5229571422
 20
-50.8445090204
 10
52.2405283466
 20
-50.4375131473
 10
52.9385217763
 20
-50.0408203084
 10
53.6027718669
 20
-49.6623845989
  0
LWPOLYLINE
  5
5C7
100
AcDbEntity
  8
RACCORDO
100
AcDbPolyline
 62
7
  6
CONTINUOUS
 90
3
 70
0
 10
47.6465510179
 20
-53.0379503396
 10
49.2540508627
 20
-52.1283568896
 10
50.7859095115
 20
-51.2619095234
  0
ELLIPSE
  5
5C8
100
AcDbEntity
  8
DRAFT
100
AcDbEllipse
 62
7
  6
CONTINUOUS
 10
276.9009601429
 20
137.8381303984
 30
0.0
 11
95.8249691963
 21
489.2037185852
 31
0.0
 40
0.4670047577
 41
-4.3619961844
 42
-4.2684816726
  0
ELLIPSE
  5
5C9
100
AcDbEntity
  8
RACCORDO
100
AcDbEllipse
 62
7
  6
CONTINUOUS
 10
-36.7061908343
 20
25.5417752373
 30
0.0
 11
-0.3809508914
 21
0.3447354528
 31
0.0
 40
0.6536803296
 41
-0.8280121999
 42
-0.5766887127
  0
ELLIPSE
  5
5CA
100
AcDbEntity
  8
0
100
AcDbEllipse
 62
7
  6
CONTINUOUS
 10
207.5875745563
 20
151.5251273208
 30
0.0
 11
106.5771618209
 21
488.7411952185
 31
0.0
 40
0.4631856947
 41
-4.2360928638
 42
-4.2332293016
  0
ELLIPSE
  5
5CB
100
AcDbEntity
  8
0
100
AcDbEllipse
 62
7
  6
CONTINUOUS
 10
209.456914639
 20
151.1559972928
 30
0.0
 11
106.5771618209
 21
488.7411952185
 31
0.0
 40
0.4631856947
 41
-4.2360928638
 42
-4.2332293017
  0
ELLIPSE
  5
5CC
100
AcDbEntity
  8
0
100
AcDbEllipse
 62
7
  6
CONTINUOUS
 10
285.8661461382
 20
136.0678161641
 30
0.0
 11
241.4389057435
 21
459.6403147206
 31
0.0
 40
0.3341097868
 41
-4.1460820517
 42
-4.142631399
  0
ELLIPSE
  5
5CD
100
AcDbEntity
  8
0
100
AcDbEllipse
 62
7
  6
CONTINUOUS
 10
265.1514742272
 20
140.1582475908
 30
0.0
 11
-86.134883213
 21
517.0442562358
 31
0.0
 40
0.5277491842
 41
-4.4411030777
 42
-4.4360913345
  0
ELLIPSE
  5
5CE
100
AcDbEntity
  8
0
100
AcDbEllipse
 62
7
  6
CONTINUOUS
 10
287.8844896769
 20
135.6692631059
 30
0.0
 11
227.5125556787
 21
462.6514669238
 31
0.0
 40
0.3498729044
 41
-4.151413368
 42
-4.148149756
  0
ELLIPSE
  5
5CF
100
AcDbEntity
  8
0
100
AcDbEllipse
 62
7
  6
CONTINUOUS
 10
269.3841002489
 20
139.3224503081
 30
0.0
 11
-65.5078568368
 21
515.0702697697
 31
0.0
 40
0.5269680089
 41
-4.4170015222
 42
-4.4136964185
  0
ELLIPSE
  5
5D0
100
AcDbEntity
  8
0
100
AcDbEllipse
 62
7
  6
CONTINUOUS
 10
271.2316665211
 20
138.9576198548
 30
0.0
 11
-86.1283788702
 21
517.0436678112
 31
0.0
 40
0.5277491351
 41
-4.4370700854
 42
-4.4360843546
  0
ELLIPSE
  5
5D1
100
AcDbEntity
  8
0
100
AcDbEllipse
 62
7
  6
CONTINUOUS
 10
290.555667393
 20
135.1417978714
 30
0.0
 11
241.4394224986
 21
459.6402036482
 31
0.0
 40
0.3341091963
 41
-4.1460818843
 42
-4.1410701411
  0
ELLIPSE
  5
5D2
100
AcDbEntity
  8
0
100
AcDbEllipse
 62
7
  6
CONTINUOUS
 10
271.2313364979
 20
138.957685023
 30
0.0
 11
-86.1343879269
 21
517.0442114298
 31
0.0
 40
0.5277491805
 41
-4.4395418545
 42
-4.4380288531
  0
ELLIPSE
  5
5D3
100
AcDbEntity
  8
0
100
AcDbEllipse
 62
7
  6
CONTINUOUS
 10
266.833620313
 20
139.8260819044
 30
0.0
 11
-202.1768471054
 21
525.1591169261
 31
0.0
 40
0.511199688
 41
-4.5536544462
 42
-4.5517164202
  0
ELLIPSE
  5
5D4
100
AcDbEntity
  8
0
100
AcDbEllipse
 62
7
  6
CONTINUOUS
 10
288.3174160935
 20
135.5837751084
 30
0.0
 11
227.4429407308
 21
462.5130134817
 31
0.0
 40
0.3498744522
 41
-4.1491348956
 42
-4.1463798237
  0
ELLIPSE
  5
5D5
100
AcDbEntity
  8
0
100
AcDbEllipse
 62
7
  6
CONTINUOUS
 10
269.8169943249
 20
139.2369686968
 30
0.0
 11
-65.4909667323
 21
514.9160737676
 31
0.0
 40
0.5269681984
 41
-4.4186902699
 42
-4.4156734802
  0
ELLIPSE
  5
5D6
100
AcDbEntity
  8
0
100
AcDbEllipse
 62
7
  6
CONTINUOUS
 10
286.2993988252
 20
135.9822637395
 30
0.0
 11
241.3694130995
 21
459.501836931
 31
0.0
 40
0.3341064523
 41
-4.1460601444
 42
-4.1410469019
  0
ELLIPSE
  5
5D7
100
AcDbEntity
  8
0
100
AcDbEllipse
 62
7
  6
CONTINUOUS
 10
265.5845266118
 20
140.072734719
 30
0.0
 11
-86.1086904983
 21
516.8891569117
 31
0.0
 40
0.5277491815
 41
-4.4410817956
 42
-4.4378444576
  0
ELLIPSE
  5
5D8
100
AcDbEntity
  8
0
100
AcDbEllipse
 62
7
  6
CONTINUOUS
 10
209.6427018688
 20
151.1193107391
 30
0.0
 11
104.9591512794
 21
488.9141490444
 31
0.0
 40
0.4643035268
 41
2.046735652
 42
2.0477269209
  0
ELLIPSE
  5
5D9
100
AcDbEntity
  8
0
100
AcDbEllipse
 62
7
  6
CONTINUOUS
 10
207.7689404677
 20
151.4893138246
 30
0.0
 11
104.9197661295
 21
489.0750762453
 31
0.0
 40
0.4643532172
 41
-4.23703259
 42
-4.2355460429
  0
ELLIPSE
  5
5DA
100
AcDbEntity
  8
0
100
AcDbEllipse
 62
7
  6
CONTINUOUS
 10
290.8289233246
 20
135.0878392736
 30
0.0
 11
1164.9240631236
 21
272.935690568
 31
0.0
 40
0.0749129184
 41
-1.8785521504
 42
-1.8783033457
  0
ELLIPSE
  5
5DB
100
AcDbEntity
  8
0
100
AcDbEllipse
 62
7
  6
CONTINUOUS
 10
209.6427018688
 20
151.1193107391
 30
0.0
 11
104.9906390247
 21
489.0608232891
 31
0.0
 40
0.4643035268
 41
-4.2369662912
 42
-4.2354798365
  0
ELLIPSE
  5
5DC
100
AcDbEntity
  8
0
100
AcDbEllipse
 62
7
  6
CONTINUOUS
 10
292.6718224531
 20
134.7239304199
 30
0.0
 11
1164.5729319838
 21
273.0112076868
 31
0.0
 40
0.0749039699
 41
-1.8786264946
 42
-1.8783776245
  0
ELLIPSE
  5
5DD
100
AcDbEntity
  8
0
100
AcDbEllipse
 62
7
  6
CONTINUOUS
 10
286.2993988252
 20
135.9822637395
 30
0.0
 11
241.4418239234
 21
459.639687482
 31
0.0
 40
0.3341064523
 41
-4.1460810387
 42
-4.1410693075
  0
ELLIPSE
  5
5DE
100
AcDbEntity
  8
0
100
AcDbEllipse
 62
7
  6
CONTINUOUS
 10
265.5845266118
 20
140.072734719
 30
0.0
 11
-86.1345231055
 21
517.0442236587
 31
0.0
 40
0.5277491815
 41
-4.4411026898
 42
-4.4376520371
  0
ELLIPSE
  5
5DF
100
AcDbEntity
  8
0
100
AcDbEllipse
 62
7
  6
CONTINUOUS
 10
207.7689404677
 20
151.4893138246
 30
0.0
 11
104.8882996396
 21
488.928397726
 31
0.0
 40
0.4643532172
 41
2.046669384
 42
2.0476607145
  0
ELLIPSE
  5
5E0
100
AcDbEntity
  8
0
100
AcDbEllipse
 62
7
  6
CONTINUOUS
 10
288.3174160935
 20
135.5837751084
 30
0.0
 11
227.511173613
 21
462.6517673858
 31
0.0
 40
0.3498744522
 41
-4.1497073189
 42
-4.1464022292
  0
ELLIPSE
  5
5E1
100
AcDbEntity
  8
0
100
AcDbEllipse
 62
7
  6
CONTINUOUS
 10
269.8169943249
 20
139.2369686968
 30
0.0
 11
-65.5106140223
 21
515.0705485897
 31
0.0
 40
0.5269681984
 41
-4.4187111642
 42
-4.4154475522
  0
ELLIPSE
  5
5E2
100
AcDbEntity
  8
0
100
AcDbEllipse
 62
7
  6
CONTINUOUS
 10
271.6642723775
 20
138.8721951569
 30
0.0
 11
-86.1363255391
 21
517.0443867151
 31
0.0
 40
0.5277491951
 41
-4.4411046433
 42
-4.4360929001
  0
ELLIPSE
  5
5E3
100
AcDbEntity
  8
0
100
AcDbEllipse
 62
7
  6
CONTINUOUS
 10
290.9888942208
 20
135.0562505531
 30
0.0
 11
241.4419222446
 21
459.6396663487
 31
0.0
 40
0.3341063399
 41
-4.1420550182
 42
-4.1410692874
  0
ELLIPSE
  5
5E4
100
AcDbEntity
  8
0
100
AcDbEllipse
 62
7
  6
CONTINUOUS
 10
290.9882653753
 20
135.0563747284
 30
0.0
 11
241.4338222168
 21
459.6414073865
 31
0.0
 40
0.3341155956
 41
-4.1445231268
 42
-4.1430101254
  0
ELLIPSE
  5
5E5
100
AcDbEntity
  8
0
100
AcDbEllipse
 62
7
  6
CONTINUOUS
 10
267.3214548097
 20
139.7297514598
 30
0.0
 11
-202.1146033062
 21
525.0015232117
 31
0.0
 40
0.5112001304
 41
-4.5537517732
 42
-4.5516925906
  0
ELLIPSE
  5
5E6
100
AcDbEntity
  8
0
100
AcDbEllipse
 62
7
  6
CONTINUOUS
 10
267.3214548097
 20
139.7297514598
 30
0.0
 11
-202.1752376872
 21
525.1590236686
 31
0.0
 40
0.5112001304
 41
-4.5537735579
 42
-4.5517149962
  0
ELLIPSE
  5
5E7
100
AcDbEntity
  8
0
100
AcDbEllipse
 62
7
  6
CONTINUOUS
 10
290.9882653753
 20
135.0563747284
 30
0.0
 11
241.3614137926
 21
459.5035563196
 31
0.0
 40
0.3341155956
 41
-4.1442495189
 42
-4.1429883044
  0
ELLIPSE
  5
5E8
100
AcDbEntity
  8
0
100
AcDbEllipse
 62
7
  6
CONTINUOUS
 10
290.9888942208
 20
135.0562505531
 30
0.0
 11
241.3695113912
 21
459.501815804
 31
0.0
 40
0.3341063399
 41
-4.1418915718
 42
-4.1410468818
  0
ELLIPSE
  5
5E9
100
AcDbEntity
  8
RACCORDO
100
AcDbEllipse
 62
7
  6
CONTINUOUS
 10
-36.7949709784
 20
25.4901825608
 30
0.0
 11
-0.2548455968
 21
0.430185619
 31
0.0
 40
0.8137882453
 41
5.9052727868
 42
6.4722213537
  0
ELLIPSE
  5
5EA
100
AcDbEntity
  8
0
100
AcDbEllipse
 62
7
  6
CONTINUOUS
 10
271.6642723775
 20
138.8721951569
 30
0.0
 11
-86.1104923914
 21
516.8893199192
 31
0.0
 40
0.5277491951
 41
-4.441083749
 42
-4.4360704945
  0
ELLIPSE
  5
5EB
100
AcDbEntity
  8
DRAFT
100
AcDbEllipse
 62
7
  6
CONTINUOUS
 10
286.7887688559
 20
135.88563008
 30
0.0
 11
143.4400102548
 21
478.9269379129
 31
0.0
 40
0.609797872
 41
-4.3026027584
 42
-4.3024309601
  0
ELLIPSE
  5
5EC
100
AcDbEntity
  8
RACCORDO
100
AcDbEllipse
 62
7
  6
CONTINUOUS
 10
-50.9072528295
 20
-34.0096905459
 30
0.0
 11
0.0402744405
 21
0.1959077112
 31
0.0
 40
0.484028672
 41
0.4190902207
 42
1.972433255
  0
ENDSEC
  0
SECTION
  2
OBJECTS
  0
DICTIONARY
  5
C
100
AcDbDictionary
280
0
281
1
  3
ACAD_GROUP
350
D
  3
ACAD_MLINESTYLE
350
17
  3
ACAD_LAYOUT
350
1A
  3
ACAD_PLOTSETTINGS
350
19
  3
ACAD_PLOTSTYLENAME
350
E
  0
DICTIONARY
  5
D
102
{ACAD_REACTORS
330
C
102
}
100
AcDbDictionary
280
0
281
1
  0
ACDBDICTIONARYWDFLT
  5
E
102
{ACAD_REACTORS
330
C
102
}
100
AcDbDictionary
281
1
  3
Normal
350
F
100
AcDbDictionaryWithDefault
340
F
  0
DICTIONARY
  5
17
102
{ACAD_REACTORS
330
C
102
}
100
AcDbDictionary
280
0
281
1
  3
Standard
350
18
  0
DICTIONARY
  5
19
102
{ACAD_REACTORS
330
C
102
}
100
AcDbDictionary
281
1
  0
DICTIONARY
  5
1A
102
{ACAD_REACTORS
330
C
102
}
100
AcDbDictionary
281
1
  3
Model
350
5ED
  3
Layout1
350
5EE
  0
ACDBPLACEHOLDER
  5
F
102
{ACAD_REACTORS
330
E
102
}
  0
MLINESTYLE
  5
18
102
{ACAD_REACTORS
330
17
102
}
100
AcDbMlineStyle
  2
STANDARD
 70
0
  3

 62
256
 51
90.0
 52
90.0
 71
2
 49
0.5
 62
256
  6
BYLAYER
 49
-0.5
 62
256
  6
BYLAYER
  0
LAYOUT
  5
5ED
102
{ACAD_REACTORS
330
1A
102
}
100
AcDbPlotSettings
  1

  2
none_device
  4
ISO_A4_(297.00_x_210.00_MM)
  6

 40
0.0
 41
0.0
 42
0.0
 43
0.0
 44
297.0
 45
210.0
 46
0.0
 47
0.0
 48
0.0
 49
0.0
140
0.0
141
0.0
142
1.0
143
1.0
 70
1024
 72
1
 73
0
 74
0
  7

 75
0
147
1.0
148
0.0
149
0.0
100
AcDbLayout
  1
Model
 70
0
 71
0
 10
0.0
 20
0.0
 11
297.0
 21
210.0
 12
0.0
 22
0.0
 32
0.0
 14
0.0
 24
0.0
 34
0.0
 15
0.0
 25
0.0
 35
0.0
146
0.0
 13
0.0
 23
0.0
 33
0.0
 16
1.0
 26
0.0
 36
0.0
 17
0.0
 27
1.0
 37
0.0
 76
0
330
20F
345
0
346
0
  0
LAYOUT
  5
5EE
102
{ACAD_REACTORS
330
1A
102
}
100
AcDbPlotSettings
  1

  2
none_device
  4
ISO_A4_(297.00_x_210.00_MM)
  6

 40
0.0
 41
0.0
 42
0.0
 43
0.0
 44
297.0
 45
210.0
 46
0.0
 47
0.0
 48
0.0
 49
0.0
140
0.0
141
0.0
142
1.0
143
1.0
 70
0
 72
1
 73
0
 74
0
  7

 75
0
147
1.0
148
0.0
149
0.0
100
AcDbLayout
  1
Layout1
 70
0
 71
1
 10
0.0
 20
0.0
 11
297.0
 21
210.0
 12
0.0
 22
0.0
 32
0.0
 14
0.0
 24
0.0
 34
0.0
 15
0.0
 25
0.0
 35
0.0
146
0.0
 13
0.0
 23
0.0
 33
0.0
 16
1.0
 26
0.0
 36
0.0
 17
0.0
 27
1.0
 37
0.0
 76
0
330
210
345
0
346
0
  0
ENDSEC
  0
EOF
