  0
SECTION
  2
HEADER
  9
$ACADVER
  1
AC1024
  9
$DWGCODEPAGE
  3
ANSI_1252
  9
$EXTMAX
 10
297.0
 20
210.0
 30
0.0
  9
$EXTMIN
 10
0.0
 20
0.0
 30
0.0
  9
$LIMMIN
 10
0.0
 20
0.0
  9
$LIMMAX
 10
297.0
 20
210.0
  9
$VIEWCTR
 10
148.5
 20
105.0
  9
$VIEWSIZE
 40
210.0
  9
$CLAYER
  8
0
  9
$LTSCALE
 40
16.335
  9
$CELTYPE
  6
BYLAYER
  9
$DIMSCALE
 40
1.0
  9
$DIMASZ
 40
3.0
  9
$DIMEXO
 40
0.5
  9
$DIMDLI
 40
11.286
  9
$DIMEXE
 40
1.5
  9
$DIMCEN
 40
2.673
  9
$DIMLFAC
 40
1.0
  9
$DIMBLK
  1
_FILLED
  9
$DIMALT
 70
0
  9
$DIMALTF
 40
0.0393700787
  9
$DIMTXT
 40
3.0
  9
$DIMTOL
 70
1
  9
$DIMLIM
 70
0
  9
$DIMTFAC
 40
1.0
  9
$DIMTP
 40
0.01
  9
$DIMTM
 40
0.01
  9
$DIMGAP
 40
0.625
  9
$DIMDSEP
 70
44
  9
$AUNITS
 70
0
  9
$PDMODE
 70
3
  9
$PDSIZE
 40
3.0
  9
$HANDSEED
  5
44C
  9
$TILEMODE
 70
1
  9
$MEASUREMENT
 70
1
  9
$INSUNITS
 70
4
  0
ENDSEC
  0
SECTION
  2
CLASSES
  0
CLASS
  1
ACDBDICTIONARYWDFLT
  2
AcDbDictionaryWithDefault
  3
AutoCAD 2000
 90
0
 91
1
280
0
281
0
  0
CLASS
  1
ACDBPLACEHOLDER
  2
AcDbPlaceHolder
  3
AutoCAD 2000
 90
0
 91
1
280
0
281
0
  0
CLASS
  1
LAYOUT
  2
AcDbLayout
  3
AutoCAD 2000
 90
0
 91
0
280
0
281
0
  0
ENDSEC
  0
SECTION
  2
TABLES
  0
TABLE
  2
VPORT
  5
8
100
AcDbSymbolTable
 70
2
  0
VPORT
  5
1F4
100
AcDbSymbolTableRecord
100
AcDbViewportTableRecord
  2
*ACTIVE
 70
0
 10
0.0
 20
0.0
 11
1.0
 21
1.0
 12
148.5
 22
105.0
 13
0.0
 23
0.0
 14
1.0
 24
1.0
 15
0.0
 25
0.0
 16
0.0
 26
0.0
 36
1.0
 17
0.0
 27
0.0
 37
0.0
 40
210.0
 41
1.4142857143
 42
50.0
 43
0.0
 44
0.0
 50
0.0
 51
0.0
 71
0
 72
100
 73
1
 74
1
 75
0
 76
0
 77
0
 78
0
  0
ENDTAB
  0
TABLE
  2
LTYPE
  5
5
100
AcDbSymbolTable
 70
6
  0
LTYPE
  5
14
100
AcDbSymbolTableRecord
100
AcDbLinetypeTableRecord
  2
BYBLOCK
 70
0
  3

 72
65
 73
0
 40
0.0
  0
LTYPE
  5
15
100
AcDbSymbolTableRecord
100
AcDbLinetypeTableRecord
  2
BYLAYER
 70
0
  3

 72
65
 73
0
 40
0.0
  0
LTYPE
  5
16
100
AcDbSymbolTableRecord
100
AcDbLinetypeTableRecord
  2
CONTINUOUS
 70
64
  3
Solid line
 72
65
 73
0
 40
0.0
  0
LTYPE
  5
1F5
100
AcDbSymbolTableRecord
100
AcDbLinetypeTableRecord
  2
CENTER
 70
64
  3
____ _ ____ _ ____ _ ____ _ ____ _ ____ _ ____
 72
65
 73
4
 40
0.6
 49
0.375
 74
0
 49
-0.075
 74
0
 49
0.075
 74
0
 49
-0.075
 74
0
  0
LTYPE
  5
1F6
100
AcDbSymbolTableRecord
100
AcDbLinetypeTableRecord
  2
HIDDEN
 70
64
  3
- - - - - - - - - - - - - - - - - - - -
 72
65
 73
2
 40
0.2
 49
0.1
 74
0
 49
-0.1
 74
0
  0
LTYPE
  5
1F7
100
AcDbSymbolTableRecord
100
AcDbLinetypeTableRecord
  2
PHANTOM
 70
64
  3
_____ _ _ _____ _ _ _____ _ _ _____
 72
65
 73
6
 40
0.8
 49
0.45
 74
0
 49
-0.05
 74
0
 49
0.1
 74
0
 49
-0.05
 74
0
 49
0.1
 74
0
 49
-0.05
 74
0
  0
LTYPE
  5
1F8
100
AcDbSymbolTableRecord
100
AcDbLinetypeTableRecord
  2
DOT
 70
64
  3
. . . . . . . . . . . . . . . . . . . .
 72
65
 73
2
 40
0.2
 49
0.1
 74
0
 49
-0.1
 74
0
  0
LTYPE
  5
1F9
100
AcDbSymbolTableRecord
100
AcDbLinetypeTableRecord
  2
DASHED
 70
64
  3
- - - - - - - - - - - - - - - - - - - -
 72
65
 73
2
 40
0.2
 49
0.1
 74
0
 49
-0.1
 74
0
  0
ENDTAB
  0
TABLE
  2
LAYER
  5
2
100
AcDbSymbolTable
 70
36
  0
LAYER
  5
10
100
AcDbSymbolTableRecord
100
AcDbLayerTableRecord
  2
0
 70
0
 62
7
  6
CONTINUOUS
370
-3
390
F
  0
LAYER
  5
1FA
100
AcDbSymbolTableRecord
100
AcDbLayerTableRecord
  2
DEFAULT_1
 70
0
 62
7
  6
CENTER
370
-3
390
F
  0
LAYER
  5
1FB
100
AcDbSymbolTableRecord
100
AcDbLayerTableRecord
  2
DEFAULT_2
 70
0
 62
7
  6
HIDDEN
370
-3
390
F
  0
LAYER
  5
1FC
100
AcDbSymbolTableRecord
100
AcDbLayerTableRecord
  2
DEFAULT_3
 70
0
 62
7
  6
PHANTOM
370
-3
390
F
  0
LAYER
  5
1FD
100
AcDbSymbolTableRecord
100
AcDbLayerTableRecord
  2
21814000
 70
0
 62
7
  6
CONTINUOUS
370
-3
390
F
  0
LAYER
  5
1FE
100
AcDbSymbolTableRecord
100
AcDbLayerTableRecord
  2
218140001
 70
0
 62
7
  6
CONTINUOUS
370
-3
390
F
  0
LAYER
  5
1FF
100
AcDbSymbolTableRecord
100
AcDbLayerTableRecord
  2
260140000
 70
0
 62
7
  6
CONTINUOUS
370
-3
390
F
  0
LAYER
  5
200
100
AcDbSymbolTableRecord
100
AcDbLayerTableRecord
  2
26814000
 70
0
 62
7
  6
CONTINUOUS
370
-3
390
F
  0
LAYER
  5
201
100
AcDbSymbolTableRecord
100
AcDbLayerTableRecord
  2
28414000
 70
0
 62
7
  6
CONTINUOUS
370
-3
390
F
  0
LAYER
  5
202
100
AcDbSymbolTableRecord
100
AcDbLayerTableRecord
  2
290140000
 70
0
 62
7
  6
CONTINUOUS
370
-3
390
F
  0
LAYER
  5
203
100
AcDbSymbolTableRecord
100
AcDbLayerTableRecord
  2
340000230
 70
0
 62
7
  6
CONTINUOUS
370
-3
390
F
  0
LAYER
  5
204
100
AcDbSymbolTableRecord
100
AcDbLayerTableRecord
  2
712140000
 70
0
 62
7
  6
CONTINUOUS
370
-3
390
F
  0
LAYER
  5
205
100
AcDbSymbolTableRecord
100
AcDbLayerTableRecord
  2
715140000
 70
0
 62
7
  6
CONTINUOUS
370
-3
390
F
  0
LAYER
  5
206
100
AcDbSymbolTableRecord
100
AcDbLayerTableRecord
  2
ASSI
 70
0
 62
7
  6
CONTINUOUS
370
-3
390
F
  0
LAYER
  5
207
100
AcDbSymbolTableRecord
100
AcDbLayerTableRecord
  2
COLORE_TOP
 70
0
 62
7
  6
CONTINUOUS
370
-3
390
F
  0
LAYER
  5
208
100
AcDbSymbolTableRecord
100
AcDbLayerTableRecord
  2
COORDINATE
 70
0
 62
7
  6
CONTINUOUS
370
-3
390
F
  0
LAYER
  5
209
100
AcDbSymbolTableRecord
100
AcDbLayerTableRecord
  2
COORD_ORIGINE
 70
0
 62
7
  6
CONTINUOUS
370
-3
390
F
  0
LAYER
  5
20A
100
AcDbSymbolTableRecord
100
AcDbLayerTableRecord
  2
COPY_PUBLISH
 70
0
 62
7
  6
CONTINUOUS
370
-3
390
F
  0
LAYER
  5
20B
100
AcDbSymbolTableRecord
100
AcDbLayerTableRecord
  2
COSMETIC
 70
0
 62
7
  6
CONTINUOUS
370
-3
390
F
  0
LAYER
  5
20C
100
AcDbSymbolTableRecord
100
AcDbLayerTableRecord
  2
COSMETICHE
 70
0
 62
7
  6
CONTINUOUS
370
-3
390
F
  0
LAYER
  5
20D
100
AcDbSymbolTableRecord
100
AcDbLayerTableRecord
  2
COSMETICI
 70
0
 62
7
  6
CONTINUOUS
370
-3
390
F
  0
LAYER
  5
20E
100
AcDbSymbolTableRecord
100
AcDbLayerTableRecord
  2
CURVE
 70
0
 62
7
  6
CONTINUOUS
370
-3
390
F
  0
LAYER
  5
20F
100
AcDbSymbolTableRecord
100
AcDbLayerTableRecord
  2
DRAFT
 70
0
 62
7
  6
CONTINUOUS
370
-3
390
F
  0
LAYER
  5
210
100
AcDbSymbolTableRecord
100
AcDbLayerTableRecord
  2
IMPORT
 70
0
 62
7
  6
CONTINUOUS
370
-3
390
F
  0
LAYER
  5
211
100
AcDbSymbolTableRecord
100
AcDbLayerTableRecord
  2
IMPORTED
 70
0
 62
7
  6
CONTINUOUS
370
-3
390
F
  0
LAYER
  5
212
100
AcDbSymbolTableRecord
100
AcDbLayerTableRecord
  2
IMPORT_IGES
 70
0
 62
7
  6
CONTINUOUS
370
-3
390
F
  0
LAYER
  5
213
100
AcDbSymbolTableRecord
100
AcDbLayerTableRecord
  2
INCISIONI_LASER
 70
0
 62
7
  6
CONTINUOUS
370
-3
390
F
  0
LAYER
  5
214
100
AcDbSymbolTableRecord
100
AcDbLayerTableRecord
  2
INTF_1
 70
0
 62
7
  6
CONTINUOUS
370
-3
390
F
  0
LAYER
  5
215
100
AcDbSymbolTableRecord
100
AcDbLayerTableRecord
  2
INTF_11
 70
0
 62
7
  6
CONTINUOUS
370
-3
390
F
  0
LAYER
  5
216
100
AcDbSymbolTableRecord
100
AcDbLayerTableRecord
  2
INTF_12
 70
0
 62
7
  6
CONTINUOUS
370
-3
390
F
  0
LAYER
  5
217
100
AcDbSymbolTableRecord
100
AcDbLayerTableRecord
  2
INTF_13
 70
0
 62
7
  6
CONTINUOUS
370
-3
390
F
  0
LAYER
  5
218
100
AcDbSymbolTableRecord
100
AcDbLayerTableRecord
  2
INTF_2
 70
0
 62
7
  6
CONTINUOUS
370
-3
390
F
  0
LAYER
  5
219
100
AcDbSymbolTableRecord
100
AcDbLayerTableRecord
  2
INTF_6
 70
0
 62
7
  6
CONTINUOUS
370
-3
390
F
  0
LAYER
  5
21A
100
AcDbSymbolTableRecord
100
AcDbLayerTableRecord
  2
NOTE
 70
0
 62
7
  6
CONTINUOUS
370
-3
390
F
  0
LAYER
  5
21B
100
AcDbSymbolTableRecord
100
AcDbLayerTableRecord
  2
PIANI
 70
0
 62
7
  6
CONTINUOUS
370
-3
390
F
  0
LAYER
  5
21C
100
AcDbSymbolTableRecord
100
AcDbLayerTableRecord
  2
PIANI_DI_RIFERIMENTO
 70
0
 62
7
  6
CONTINUOUS
370
-3
390
F
  0
LAYER
  5
21D
100
AcDbSymbolTableRecord
100
AcDbLayerTableRecord
  2
PIANI_ORIGINE
 70
0
 62
7
  6
CONTINUOUS
370
-3
390
F
  0
LAYER
  5
21E
100
AcDbSymbolTableRecord
100
AcDbLayerTableRecord
  2
PIANI_RIFERIMENTO
 70
0
 62
7
  6
CONTINUOUS
370
-3
390
F
  0
LAYER
  5
21F
100
AcDbSymbolTableRecord
100
AcDbLayerTableRecord
  2
PIANI_SFORMO
 70
0
 62
7
  6
CONTINUOUS
370
-3
390
F
  0
LAYER
  5
220
100
AcDbSymbolTableRecord
100
AcDbLayerTableRecord
  2
PUNTI
 70
0
 62
7
  6
CONTINUOUS
370
-3
390
F
  0
LAYER
  5
221
100
AcDbSymbolTableRecord
100
AcDbLayerTableRecord
  2
RACCORDO
 70
0
 62
7
  6
CONTINUOUS
370
-3
390
F
  0
LAYER
  5
222
100
AcDbSymbolTableRecord
100
AcDbLayerTableRecord
  2
RGB__255__255__255__
 70
0
 62
7
  6
CONTINUOUS
370
-3
390
F
  0
LAYER
  5
223
100
AcDbSymbolTableRecord
100
AcDbLayerTableRecord
  2
RINTRACCIABILITA
 70
0
 62
7
  6
CONTINUOUS
370
-3
390
F
  0
LAYER
  5
224
100
AcDbSymbolTableRecord
100
AcDbLayerTableRecord
  2
SIMBOLI
 70
0
 62
7
  6
CONTINUOUS
370
-3
390
F
  0
LAYER
  5
225
100
AcDbSymbolTableRecord
100
AcDbLayerTableRecord
  2
SMUSSO
 70
0
 62
7
  6
CONTINUOUS
370
-3
390
F
  0
LAYER
  5
226
100
AcDbSymbolTableRecord
100
AcDbLayerTableRecord
  2
SNAPLINE
 70
0
 62
7
  6
CONTINUOUS
370
-3
390
F
  0
LAYER
  5
227
100
AcDbSymbolTableRecord
100
AcDbLayerTableRecord
  2
SUPERFICI
 70
0
 62
7
  6
CONTINUOUS
370
-3
390
F
  0
LAYER
  5
228
100
AcDbSymbolTableRecord
100
AcDbLayerTableRecord
  2
TRASH
 70
0
 62
7
  6
CONTINUOUS
370
-3
390
F
  0
LAYER
  5
229
100
AcDbSymbolTableRecord
100
AcDbLayerTableRecord
  2
WHITE
 70
0
 62
7
  6
CONTINUOUS
370
-3
390
F
  0
LAYER
  5
22A
100
AcDbSymbolTableRecord
100
AcDbLayerTableRecord
  2
XSEC_DATUMS
 70
0
 62
7
  6
CONTINUOUS
370
-3
390
F
  0
ENDTAB
  0
TABLE
  2
STYLE
  5
3
100
AcDbSymbolTable
 70
1
  0
STYLE
  5
11
100
AcDbSymbolTableRecord
100
AcDbTextStyleTableRecord
  2
STANDARD
 70
0
 40
0.0
 41
0.8
 50
0.0
 71
0
 42
0.2
  3
txt
  4

  0
STYLE
  5
22B
100
AcDbSymbolTableRecord
100
AcDbTextStyleTableRecord
  2
TEXTSTYLE_1
 70
0
 40
0.0
 41
0.8
 50
0.0
 71
0
 42
0.2
  3
gdt
  4

  0
ENDTAB
  0
TABLE
  2
VIEW
  5
6
100
AcDbSymbolTable
 70
0
  0
ENDTAB
  0
TABLE
  2
UCS
  5
7
100
AcDbSymbolTable
 70
0
  0
ENDTAB
  0
TABLE
  2
APPID
  5
9
100
AcDbSymbolTable
 70
1
  0
APPID
  5
22C
100
AcDbSymbolTableRecord
100
AcDbRegAppTableRecord
  2
ACAD
 70
0
  0
ENDTAB
  0
TABLE
  2
BLOCK_RECORD
  5
1
100
AcDbSymbolTable
 70
0
  0
BLOCK_RECORD
  5
22D
100
AcDbSymbolTableRecord
100
AcDbBlockTableRecord
  2
*Model_Space
  0
BLOCK_RECORD
  5
22E
100
AcDbSymbolTableRecord
100
AcDbBlockTableRecord
  2
*Paper_Space
  0
BLOCK_RECORD
  5
22F
100
AcDbSymbolTableRecord
100
AcDbBlockTableRecord
  2
_FILLED
  0
ENDTAB
  0
TABLE
  2
DIMSTYLE
  5
A
100
AcDbSymbolTable
 70
1
100
AcDbDimStyleTable
 71
0
  0
DIMSTYLE
105
230
100
AcDbSymbolTableRecord
100
AcDbDimStyleTableRecord
  2
STANDARD
 70
0
  3

  4

 40
1.0
 41
3.0
 42
0.5
 43
0.38
 44
1.5
 45
0.0
 46
0.0
 47
0.01
 48
0.01
140
3.0
141
0.09
142
0.0
143
25.4
144
1.0
145
0.0
146
1.0
147
0.625
 71
1
 72
0
 73
0
 74
0
 75
0
 76
0
 77
1
 78
8
 79
2
170
0
171
1
172
0
173
0
174
0
175
0
176
0
177
0
178
0
270
2
179
2
271
2
272
2
273
2
274
2
275
0
280
0
281
0
282
0
283
1
284
8
285
0
286
0
287
3
288
0
340
11
278
44
341
22F
342
22F
343
22F
344
22F
  0
ENDTAB
  0
ENDSEC
  0
SECTION
  2
BLOCKS
  0
BLOCK
  5
20
100
AcDbEntity
  8
0
100
AcDbBlockBegin
  2
*Model_Space
 70
0
 10
0.0
 20
0.0
 30
0.0
  3
*Model_Space
  1

  0
ENDBLK
  5
21
100
AcDbEntity
  8
0
100
AcDbBlockEnd
  0
BLOCK
  5
1C
100
AcDbEntity
  8
0
100
AcDbBlockBegin
  2
*Paper_Space
 70
0
 10
0.0
 20
0.0
 30
0.0
  3
*Paper_Space
  1

  0
ENDBLK
  5
1D
100
AcDbEntity
  8
0
100
AcDbBlockEnd
  0
BLOCK
  5
231
100
AcDbEntity
  8
0
100
AcDbBlockBegin
  2
_FILLED
 70
64
 10
0.0
 20
0.0
  3
_FILLED
  1

  0
SOLID
  5
232
100
AcDbEntity
  8
0
  6
BYBLOCK
 62
0
100
AcDbTrace
 10
0.0
 20
0.0
 11
-1.0
 21
0.3166666667
 12
-1.0
 22
-0.3166666667
 13
-1.0
 23
-0.3166666667
  0
ENDBLK
  5
233
100
AcDbEntity
  8
0
  6
BYBLOCK
 62
0
100
AcDbBlockEnd
  0
ENDSEC
  0
SECTION
  2
ENTITIES
  0
LINE
  5
234
100
AcDbEntity
  8
26814000
100
AcDbLine
 62
7
  6
CONTINUOUS
 10
-13.2930949399
 20
24.3584074586
 11
-11.7103383367
 21
25.1703915559
  0
LINE
  5
235
100
AcDbEntity
  8
26814000
100
AcDbLine
 62
7
  6
CONTINUOUS
 10
-13.7770500522
 20
22.6157070566
 11
-12.7648277681
 21
23.1326370192
  0
LINE
  5
236
100
AcDbEntity
  8
26814000
100
AcDbLine
 62
250
  6
CONTINUOUS
 10
-13.6195266459
 20
22.606273727
 11
-12.7648277681
 21
23.0427583469
  0
LINE
  5
237
100
AcDbEntity
  8
26814000
100
AcDbLine
 62
7
  6
CONTINUOUS
 10
-11.6852735308
 20
23.5544967541
 11
-10.08399274
 21
24.3572187576
  0
LINE
  5
238
100
AcDbEntity
  8
26814000
100
AcDbLine
 62
7
  6
CONTINUOUS
 10
-10.08399274
 20
24.3572187576
 11
-9.5557255682
 21
24.6206575776
  0
LINE
  5
239
100
AcDbEntity
  8
26814000
100
AcDbLine
 62
7
  6
CONTINUOUS
 10
-11.7103383367
 20
25.1703915559
 11
-11.175888458
 21
25.4307390225
  0
LINE
  5
23A
100
AcDbEntity
  8
RACCORDO
100
AcDbLine
 62
250
  6
CONTINUOUS
 10
-20.2656901908
 20
-18.6730058758
 11
-20.3243857563
 21
-18.6390169064
  0
LWPOLYLINE
  5
23B
100
AcDbEntity
  8
ASSI
100
AcDbPolyline
 62
250
  6
CONTINUOUS
 90
14
 70
0
 10
-20.266409265
 20
-18.6726456746
 10
-20.3243857563
 20
-18.6390169064
 10
-20.3764779505
 20
-18.5999741225
 10
-20.4246724847
 20
-18.5545832009
 10
-20.4687501603
 20
-18.503052708
 10
-20.5084943218
 20
-18.4456257288
 10
-20.5436918074
 20
-18.3825979227
 10
-20.5741602702
 20
-18.3142983021
 10
-20.5997443559
 20
-18.2410803225
 10
-20.6203194942
 20
-18.1633040447
 10
-20.6357878961
 20
-18.081347263
 10
-20.6460717858
 20
-17.995615478
 10
-20.6511161081
 20
-17.9065418156
 10
-20.6508941814
 20
-17.8145719823
  0
LWPOLYLINE
  5
23C
100
AcDbEntity
  8
RACCORDO
100
AcDbPolyline
 62
250
  6
CONTINUOUS
 90
13
 70
0
 10
-20.3243857563
 20
-18.6390169064
 10
-20.3764779505
 20
-18.5999741225
 10
-20.4246724847
 20
-18.5545832009
 10
-20.4687501603
 20
-18.503052708
 10
-20.5084943218
 20
-18.4456257288
 10
-20.5436918074
 20
-18.3825979227
 10
-20.5741602702
 20
-18.3142983021
 10
-20.5997443559
 20
-18.2410803225
 10
-20.6203194942
 20
-18.1633040447
 10
-20.6357878961
 20
-18.081347263
 10
-20.6460717858
 20
-17.995615478
 10
-20.6511161081
 20
-17.9065418156
 10
-20.6508941814
 20
-17.8145719823
  0
LWPOLYLINE
  5
23D
100
AcDbEntity
  8
ASSI
100
AcDbPolyline
 62
250
  6
CONTINUOUS
 90
4
 70
0
 10
-17.1194710875
 20
19.5992819642
 10
-17.0521947349
 20
19.6728942499
 10
-16.9828335579
 20
19.7415933223
 10
-16.9117474771
 20
19.8050299287
  0
LWPOLYLINE
  5
23E
100
AcDbEntity
  8
RACCORDO
100
AcDbPolyline
 62
250
  6
CONTINUOUS
 90
6
 70
0
 10
-16.9117474771
 20
19.8050299287
 10
-16.8392864843
 20
19.8628982035
 10
-16.765798017
 20
19.914913537
 10
-16.6916465633
 20
19.9608164557
 10
-16.6172123504
 20
20.0003764858
 10
-16.5428710921
 20
20.0333959059
  0
LWPOLYLINE
  5
23F
100
AcDbEntity
  8
ASSI
100
AcDbPolyline
 62
250
  6
CONTINUOUS
 90
4
 70
0
 10
-16.9117474771
 20
19.8050299287
 10
-16.8392864843
 20
19.8628982035
 10
-16.765798017
 20
19.914913537
 10
-16.6916465633
 20
19.9608164557
  0
LINE
  5
240
100
AcDbEntity
  8
ASSI
100
AcDbLine
 62
250
  6
CONTINUOUS
 10
-16.6916465633
 20
19.9608164557
 11
-16.6172123504
 21
20.0003764858
  0
LINE
  5
241
100
AcDbEntity
  8
26814000
100
AcDbLine
 62
7
  6
CONTINUOUS
 10
-10.08399274
 20
22.62516795
 11
-11.1508236521
 21
22.0865867005
  0
LWPOLYLINE
  5
242
100
AcDbEntity
  8
ASSI
100
AcDbPolyline
 62
7
  6
CONTINUOUS
 90
10
 70
0
 10
-16.8958001045
 20
20.0586894537
 10
-17.0342275286
 20
19.9923168105
 10
-17.1920041409
 20
19.8912079788
 10
-17.3426863816
 20
19.7651484293
 10
-17.4795414361
 20
19.6196544564
 10
-17.602720114
 20
19.4549368578
 10
-17.710382931
 20
19.2722208209
 10
-17.7964480509
 20
19.0820277417
 10
-17.8600504655
 20
18.8893186278
 10
-17.9021437793
 20
18.6917405847
  0
LINE
  5
243
100
AcDbEntity
  8
ASSI
100
AcDbLine
 62
250
  6
CONTINUOUS
 10
-16.6172123504
 20
20.0003764858
 11
-16.5428710921
 21
20.0333959059
  0
LWPOLYLINE
  5
244
100
AcDbEntity
  8
RACCORDO
100
AcDbPolyline
 62
7
  6
CONTINUOUS
 90
17
 70
0
 10
-16.8950126652
 20
20.0590128195
 10
-16.9126335939
 20
20.0516527075
 10
-17.0050153311
 20
20.0079691012
 10
-17.0947837072
 20
19.9569111983
 10
-17.1819455665
 20
19.8985385561
 10
-17.266108832
 20
19.8331753597
 10
-17.3465098352
 20
19.761521
 10
-17.4231771423
 20
19.6836701566
 10
-17.4959294172
 20
19.599835011
 10
-17.563837538
 20
19.5111288917
 10
-17.6268700824
 20
19.4177373466
 10
-17.6848714826
 20
19.3198411143
 10
-17.7369940903
 20
19.2189037673
 10
-17.7831744472
 20
19.1151913097
 10
-17.8232700459
 20
19.0088751626
 10
-17.856711119
 20
18.9014495498
 10
-17.8833429528
 20
18.7935195771
  0
LINE
  5
245
100
AcDbEntity
  8
RACCORDO
100
AcDbLine
 62
7
  6
CONTINUOUS
 10
-16.89501719
 20
20.0590238855
 11
-12.9789089913
 21
21.6598095358
  0
LINE
  5
246
100
AcDbEntity
  8
ASSI
100
AcDbLine
 62
7
  6
CONTINUOUS
 10
-16.8958046333
 20
20.0587004967
 11
-12.9789089913
 21
21.6598095358
  0
LINE
  5
247
100
AcDbEntity
  8
RACCORDO
100
AcDbLine
 62
250
  6
CONTINUOUS
 10
-16.5428710921
 20
20.0333959059
 11
-12.63070682
 21
21.6325693639
  0
LINE
  5
248
100
AcDbEntity
  8
ASSI
100
AcDbLine
 62
250
  6
CONTINUOUS
 10
-16.5428710921
 20
20.0333959059
 11
-12.63070682
 21
21.6325693639
  0
LWPOLYLINE
  5
249
100
AcDbEntity
  8
26814000
100
AcDbPolyline
 62
7
  6
CONTINUOUS
 90
3
 70
0
 10
-2.1014191046
 20
25.8455788458
 10
-2.1139841244
 20
25.8408797949
 10
-2.119866843
 20
25.8381215031
  0
LWPOLYLINE
  5
24A
100
AcDbEntity
  8
RACCORDO
100
AcDbPolyline
 62
250
  6
CONTINUOUS
 90
7
 70
0
 10
-16.8948762057
 20
20.0590815511
 10
-16.8371397058
 20
20.0771061775
 10
-16.7811388153
 20
20.0850517862
 10
-16.723068387
 20
20.0846028106
 10
-16.6635644062
 20
20.0757641678
 10
-16.6032785584
 20
20.0586326583
 10
-16.5428710921
 20
20.0333959059
  0
LWPOLYLINE
  5
24B
100
AcDbEntity
  8
ASSI
100
AcDbPolyline
 62
250
  6
CONTINUOUS
 90
7
 70
0
 10
-16.8948762057
 20
20.0590815511
 10
-16.8371397058
 20
20.0771061775
 10
-16.7811388153
 20
20.0850517862
 10
-16.723068387
 20
20.0846028106
 10
-16.6635644062
 20
20.0757641678
 10
-16.6032785584
 20
20.0586326583
 10
-16.5428710921
 20
20.0333959059
  0
LWPOLYLINE
  5
24C
100
AcDbEntity
  8
26814000
100
AcDbPolyline
 62
7
  6
CONTINUOUS
 90
10
 70
0
 10
-2.1014191046
 20
25.8455788458
 10
-2.0921794838
 20
25.8483246447
 10
-2.0836163299
 20
25.8505903632
 10
-2.075729643
 20
25.8523760013
 10
-2.0684802848
 20
25.8537024059
 10
-2.0619073934
 20
25.85454873
 10
-2.056128384
 20
25.8548524328
 10
-2.0511474269
 20
25.854613097
 10
-2.0469603517
 20
25.8538311398
 10
-2.0443706705
 20
25.8528347066
  0
LWPOLYLINE
  5
24D
100
AcDbEntity
  8
RACCORDO
100
AcDbPolyline
 62
7
  6
CONTINUOUS
 90
12
 70
0
 10
-6.1315696067
 20
-25.7400522502
 10
-6.0978328682
 20
-25.7562289459
 10
-6.0151981708
 20
-25.7900201696
 10
-5.9295476967
 20
-25.8169940635
 10
-5.8413321551
 20
-25.836897657
 10
-5.7507427295
 20
-25.8495512252
 10
-5.658328546
 20
-25.8547286092
 10
-5.5647088109
 20
-25.8522611102
 10
-5.4700737325
 20
-25.8419873121
 10
-5.3748205901
 20
-25.8237572009
 10
-5.279652672
 20
-25.7975441487
 10
-5.2619591536
 20
-25.7917717337
  0
LWPOLYLINE
  5
24E
100
AcDbEntity
  8
ASSI
100
AcDbPolyline
 62
7
  6
CONTINUOUS
 90
8
 70
0
 10
-6.1351043818
 20
-25.7382630175
 10
-6.09847911
 20
-25.7559253743
 10
-5.9476335472
 20
-25.8119451342
 10
-5.7883196421
 20
-25.8452310156
 10
-5.6237993406
 20
-25.8547131911
 10
-5.4565193089
 20
-25.8398768785
 10
-5.2889591732
 20
-25.800463168
 10
-5.2632583943
 20
-25.7922019465
  0
LINE
  5
24F
100
AcDbEntity
  8
RACCORDO
100
AcDbLine
 62
7
  6
CONTINUOUS
 10
-6.1306197942
 20
-25.7405410741
 11
-20.2657089257
 21
-18.6729965083
  0
LINE
  5
250
100
AcDbEntity
  8
RACCORDO
100
AcDbLine
 62
250
  6
CONTINUOUS
 10
-6.52362314
 20
-24.878207503
 11
-20.6508941814
 21
-17.8145719823
  0
LINE
  5
251
100
AcDbEntity
  8
ASSI
100
AcDbLine
 62
250
  6
CONTINUOUS
 10
-6.52362314
 20
-24.878207503
 11
-20.6508941814
 21
-17.8145719823
  0
LINE
  5
252
100
AcDbEntity
  8
ASSI
100
AcDbLine
 62
7
  6
CONTINUOUS
 10
-6.1306197942
 20
-25.7405410741
 11
-20.266409265
 21
-18.6726456746
  0
LINE
  5
253
100
AcDbEntity
  8
26814000
100
AcDbLine
 62
7
  6
CONTINUOUS
 10
-9.468873905
 20
23.999659991
 11
-9.9961186207
 21
23.3579522629
  0
LWPOLYLINE
  5
254
100
AcDbEntity
  8
26814000
100
AcDbPolyline
 62
7
  6
CONTINUOUS
 90
12
 70
0
 10
-2.119866843
 20
25.8381215031
 10
-2.1261536344
 20
25.8347651295
 10
-2.138008061
 20
25.8272608563
 10
-2.149663241
 20
25.818388345
 10
-2.1611588358
 20
25.8082032345
 10
-2.1724501335
 20
25.7967721621
 10
-2.1835951999
 20
25.784125136
 10
-2.1946620793
 20
25.7702955998
 10
-2.2056081985
 20
25.755326101
 10
-2.2164554997
 20
25.7392431738
 10
-2.2272939284
 20
25.7220749195
 10
-2.2381782963
 20
25.703856288
  0
LINE
  5
255
100
AcDbEntity
  8
26814000
100
AcDbLine
 62
7
  6
CONTINUOUS
 10
-7.8195983086
 20
22.2056617601
 11
-7.3262762934
 21
22.458745292
  0
LINE
  5
256
100
AcDbEntity
  8
26814000
100
AcDbLine
 62
7
  6
CONTINUOUS
 10
-8.6282117635
 20
22.5968265537
 11
-2.1201751368
 21
25.8379681593
  0
LINE
  5
257
100
AcDbEntity
  8
26814000
100
AcDbLine
 62
250
  6
CONTINUOUS
 10
-8.552718623
 20
22.5590799835
 11
-2.2381782963
 21
25.703856288
  0
LINE
  5
258
100
AcDbEntity
  8
26814000
100
AcDbLine
 62
7
  6
CONTINUOUS
 10
-1.2451579752
 20
24.8241127572
 11
-5.9827734091
 21
22.4890622426
  0
LINE
  5
259
100
AcDbEntity
  8
26814000
100
AcDbLine
 62
7
  6
CONTINUOUS
 10
-7.3262762934
 20
22.458745292
 11
-1.8486363039
 21
25.1270772552
  0
LINE
  5
25A
100
AcDbEntity
  8
26814000
100
AcDbLine
 62
7
  6
CONTINUOUS
 10
3.3681995437
 20
-23.4988109587
 11
3.8954442594
 21
-23.6071032306
  0
LINE
  5
25B
100
AcDbEntity
  8
26814000
100
AcDbLine
 62
7
  6
CONTINUOUS
 10
-0.0389090792
 20
-24.5700151435
 11
1.5676270183
 21
-25.3732831922
  0
LINE
  5
25C
100
AcDbEntity
  8
26814000
100
AcDbLine
 62
250
  6
CONTINUOUS
 10
-0.103502558
 20
-24.4349866022
 11
1.5022739042
 21
-25.2378748333
  0
LWPOLYLINE
  5
25D
100
AcDbEntity
  8
ASSI
100
AcDbPolyline
 62
250
  6
CONTINUOUS
 90
9
 70
0
 10
-20.8852342449
 20
-17.5335208322
 10
-20.8838289612
 20
-17.5619428567
 10
-20.8745281287
 20
-17.6014650861
 10
-20.8567741175
 20
-17.6405205118
 10
-20.8307571593
 20
-17.6786906609
 10
-20.7967560217
 20
-17.715566546
 10
-20.7551350219
 20
-17.7507530478
 10
-20.7063401226
 20
-17.783873148
 10
-20.6508941539
 20
-17.8145719698
  0
LWPOLYLINE
  5
25E
100
AcDbEntity
  8
RACCORDO
100
AcDbPolyline
 62
250
  6
CONTINUOUS
 90
9
 70
0
 10
-20.8852257392
 20
-17.5332288167
 10
-20.8838289612
 20
-17.5619428567
 10
-20.8745281287
 20
-17.6014650861
 10
-20.8567741175
 20
-17.6405205118
 10
-20.8307571593
 20
-17.6786906609
 10
-20.7967560217
 20
-17.715566546
 10
-20.7551350219
 20
-17.7507530478
 10
-20.7063401226
 20
-17.783873148
 10
-20.6508941539
 20
-17.8145719698
  0
LWPOLYLINE
  5
25F
100
AcDbEntity
  8
ASSI
100
AcDbPolyline
 62
7
  6
CONTINUOUS
 90
9
 70
0
 10
-20.8852246525
 20
-17.5335211182
 10
-20.8845975702
 20
-17.6468854822
 10
-20.8634663729
 20
-17.8397775586
 10
-20.8167902411
 20
-18.0231586792
 10
-20.7446062003
 20
-18.1945947619
 10
-20.6485961971
 20
-18.349405413
 10
-20.5322548139
 20
-18.4830669055
 10
-20.3980497693
 20
-18.5942404454
 10
-20.2664896443
 20
-18.6725924217
  0
LWPOLYLINE
  5
260
100
AcDbEntity
  8
RACCORDO
100
AcDbPolyline
 62
7
  6
CONTINUOUS
 90
15
 70
0
 10
-20.8852161574
 20
-17.5332291059
 10
-20.8859691161
 20
-17.5828278289
 10
-20.88133141
 20
-17.7008109642
 10
-20.8677702436
 20
-17.8145033048
 10
-20.8456458916
 20
-17.923513368
 10
-20.8152673156
 20
-18.0276867656
 10
-20.7768852708
 20
-18.1268122472
 10
-20.7309602192
 20
-18.2202785448
 10
-20.6778773434
 20
-18.3077691359
 10
-20.6178359641
 20
-18.389175641
 10
-20.5514109433
 20
-18.4638988039
 10
-20.4791995524
 20
-18.5314969975
 10
-20.4014471791
 20
-18.5918578334
 10
-20.3186941286
 20
-18.6445758614
 10
-20.2646447278
 20
-18.6735136138
  0
LINE
  5
261
100
AcDbEntity
  8
ASSI
100
AcDbLine
 62
7
  6
CONTINUOUS
 10
-20.8852191021
 20
-17.5330113961
 11
-20.8852342449
 21
-17.5335208322
  0
LINE
  5
262
100
AcDbEntity
  8
RACCORDO
100
AcDbLine
 62
7
  6
CONTINUOUS
 10
-20.8852190941
 20
-17.5330111406
 11
-20.8852257392
 21
-17.5332288167
  0
LWPOLYLINE
  5
263
100
AcDbEntity
  8
RACCORDO
100
AcDbPolyline
 62
250
  6
CONTINUOUS
 90
13
 70
0
 10
-20.6508941814
 20
-17.8145719823
 10
-20.5459470797
 20
-14.8564336149
 10
-20.4148654029
 20
-11.8863524356
 10
-20.2576653471
 20
-8.9047014178
 10
-20.0743663604
 20
-5.9118550376
 10
-19.8649913956
 20
-2.9081889884
 10
-19.6295669044
 20
0.1059198672
 10
-19.3681225854
 20
3.1300932339
 10
-19.080691113
 20
6.1639514076
 10
-18.767308383
 20
9.2071135632
 10
-18.4280137863
 20
12.2591977523
 10
-18.0628502068
 20
15.3198209495
 10
-17.6718637434
 20
18.3885990795
  0
LWPOLYLINE
  5
264
100
AcDbEntity
  8
ASSI
100
AcDbPolyline
 62
250
  6
CONTINUOUS
 90
13
 70
0
 10
-20.6508941814
 20
-17.8145719823
 10
-20.5459470797
 20
-14.8564336149
 10
-20.4148654029
 20
-11.8863524356
 10
-20.2576653471
 20
-8.9047014178
 10
-20.0743663604
 20
-5.9118550376
 10
-19.8649913956
 20
-2.9081889884
 10
-19.6295669044
 20
0.1059198672
 10
-19.3681225854
 20
3.1300932339
 10
-19.080691113
 20
6.1639514076
 10
-18.767308383
 20
9.2071135632
 10
-18.4280137863
 20
12.2591977523
 10
-18.0628502068
 20
15.3198209495
 10
-17.6718637434
 20
18.3885990795
  0
LINE
  5
265
100
AcDbEntity
  8
ASSI
100
AcDbLine
 62
7
  6
CONTINUOUS
 10
-20.7494447627
 20
-13.8217834072
 11
-20.8852191021
 21
-17.5330113961
  0
LWPOLYLINE
  5
266
100
AcDbEntity
  8
RACCORDO
100
AcDbPolyline
 62
7
  6
CONTINUOUS
 90
3
 70
0
 10
-20.6516145296
 20
-11.6555368055
 10
-20.7826812077
 20
-14.6358132674
 10
-20.8852190941
 20
-17.5330111406
  0
LWPOLYLINE
  5
267
100
AcDbEntity
  8
ASSI
100
AcDbPolyline
 62
250
  6
CONTINUOUS
 90
10
 70
0
 10
-17.9077544617
 20
18.6525003867
 10
-17.9082162299
 20
18.6482761746
 10
-17.9068811002
 20
18.6158394639
 10
-17.8970559768
 20
18.5826837077
 10
-17.8788461333
 20
18.5491641616
 10
-17.8524466835
 20
18.515639979
 10
-17.8181404909
 20
18.4824703633
 10
-17.7762951375
 20
18.4500107184
 10
-17.7273589858
 20
18.4186088413
 10
-17.6718563741
 20
18.388601195
  0
LWPOLYLINE
  5
268
100
AcDbEntity
  8
RACCORDO
100
AcDbPolyline
 62
250
  6
CONTINUOUS
 90
10
 70
0
 10
-17.9077034467
 20
18.652895949
 10
-17.9082162299
 20
18.6482761746
 10
-17.9068811002
 20
18.6158394639
 10
-17.8970559768
 20
18.5826837077
 10
-17.8788461333
 20
18.5491641616
 10
-17.8524466835
 20
18.515639979
 10
-17.8181404909
 20
18.4824703633
 10
-17.7762951375
 20
18.4500107184
 10
-17.7273589858
 20
18.4186088413
 10
-17.6718563741
 20
18.388601195
  0
LWPOLYLINE
  5
269
100
AcDbEntity
  8
RACCORDO
100
AcDbPolyline
 62
7
  6
CONTINUOUS
 90
10
 70
0
 10
-18.291537406
 20
15.6419787185
 10
-18.6583125001
 20
12.5712076737
 10
-18.9990455116
 20
9.5089532026
 10
-19.3136848883
 20
6.4556469002
 10
-19.6021926593
 20
3.4116679434
 10
-19.8645346067
 20
0.3773750626
 10
-20.1006761913
 20
-2.6468587741
 10
-20.3105880935
 20
-5.6606624904
 10
-20.4942431088
 20
-8.6636800115
 10
-20.6516145296
 20
-11.6555368055
  0
LWPOLYLINE
  5
26A
100
AcDbEntity
  8
ASSI
100
AcDbPolyline
 62
7
  6
CONTINUOUS
 90
9
 70
0
 10
-17.9076977886
 20
18.6529844651
 10
-18.3967887702
 20
14.7818870125
 10
-18.8757887406
 20
10.6430013701
 10
-19.3073032017
 20
6.5201032212
 10
-19.6912284496
 20
2.4141713825
 10
-20.0274780641
 20
-1.6738841023
 10
-20.3159756539
 20
-5.7431737436
 10
-20.5566520478
 20
-9.7927944597
 10
-20.7494447627
 20
-13.8217834072
  0
LINE
  5
26B
100
AcDbEntity
  8
RACCORDO
100
AcDbLine
 62
7
  6
CONTINUOUS
 10
-17.9076978101
 20
18.6529843019
 11
-18.291537406
 21
15.6419787185
  0
LINE
  5
26C
100
AcDbEntity
  8
ASSI
100
AcDbLine
 62
7
  6
CONTINUOUS
 10
-17.9021437793
 20
18.6917405847
 11
-17.9077544617
 21
18.6525003867
  0
LWPOLYLINE
  5
26D
100
AcDbEntity
  8
RACCORDO
100
AcDbPolyline
 62
250
  6
CONTINUOUS
 90
17
 70
0
 10
-17.6718637434
 20
18.3885990795
 10
-17.656476525
 20
18.4863156784
 10
-17.635976553
 20
18.5850598312
 10
-17.6104681653
 20
18.6843372057
 10
-17.5800839465
 20
18.7836459396
 10
-17.5449755818
 20
18.8824946689
 10
-17.5053103748
 20
18.9804045978
 10
-17.4612805443
 20
19.0769007682
 10
-17.413111905
 20
19.171485018
 10
-17.3610562038
 20
19.2636556953
 10
-17.3053908358
 20
19.3529351056
 10
-17.246387096
 20
19.4388992007
 10
-17.1843144442
 20
19.521147018
 10
-17.1194710875
 20
19.5992819642
 10
-17.0521947349
 20
19.6728942499
 10
-16.9828335579
 20
19.7415933223
 10
-16.9117474771
 20
19.8050299287
  0
LWPOLYLINE
  5
26E
100
AcDbEntity
  8
ASSI
100
AcDbPolyline
 62
250
  6
CONTINUOUS
 90
14
 70
0
 10
-17.6718637434
 20
18.3885990795
 10
-17.656476525
 20
18.4863156784
 10
-17.635976553
 20
18.5850598312
 10
-17.6104681653
 20
18.6843372057
 10
-17.5800839465
 20
18.7836459396
 10
-17.5449755818
 20
18.8824946689
 10
-17.5053103748
 20
18.9804045978
 10
-17.4612805443
 20
19.0769007682
 10
-17.413111905
 20
19.171485018
 10
-17.3610562038
 20
19.2636556953
 10
-17.3053908358
 20
19.3529351056
 10
-17.246387096
 20
19.4388992007
 10
-17.1843144442
 20
19.521147018
 10
-17.1194710875
 20
19.5992819642
  0
LWPOLYLINE
  5
26F
100
AcDbEntity
  8
RACCORDO
100
AcDbPolyline
 62
7
  6
CONTINUOUS
 90
3
 70
0
 10
-17.8833429528
 20
18.7935195771
 10
-17.9031939638
 20
18.6848655235
 10
-17.9077034467
 20
18.652895949
  0
LINE
  5
270
100
AcDbEntity
  8
26814000
100
AcDbLine
 62
7
  6
CONTINUOUS
 10
0.0819158532
 20
23.3542385237
 11
-1.3158686533
 21
22.6553462704
  0
LINE
  5
271
100
AcDbEntity
  8
26814000
100
AcDbLine
 62
7
  6
CONTINUOUS
 10
-1.6694220439
 20
23.384681155
 11
-1.2451579752
 21
23.5922785759
  0
LINE
  5
272
100
AcDbEntity
  8
26814000
100
AcDbLine
 62
7
  6
CONTINUOUS
 10
0.7409116046
 20
24.2143113375
 11
-1.3158686533
 21
23.2079044597
  0
LINE
  5
273
100
AcDbEntity
  8
21814000
100
AcDbLine
 62
7
  6
CONTINUOUS
 10
-2.2530758635
 20
22.0282504874
 11
-2.3911906657
 21
21.9630134021
  0
LINE
  5
274
100
AcDbEntity
  8
21814000
100
AcDbLine
 62
250
  6
CONTINUOUS
 10
-2.1695418571
 20
22.0197514007
 11
-2.3058181461
 21
21.9553827179
  0
LWPOLYLINE
  5
275
100
AcDbEntity
  8
21814000
100
AcDbPolyline
 62
250
  6
CONTINUOUS
 90
11
 70
0
 10
-1.3360757341
 20
22.0735713739
 10
-1.3269832736
 20
22.077661825
 10
-1.3179245993
 20
22.0810186102
 10
-1.3089374778
 20
22.0836255823
 10
-1.3000562901
 20
22.0854701865
 10
-1.2913218257
 20
22.0865413321
 10
-1.2827804773
 20
22.0868323461
 10
-1.2744636519
 20
22.0863418521
 10
-1.2664104279
 20
22.0850718397
 10
-1.2586744476
 20
22.0830343235
 10
-1.2513008049
 20
22.0802509546
  0
LINE
  5
276
100
AcDbEntity
  8
21814000
100
AcDbLine
 62
7
  6
CONTINUOUS
 10
-2.2530223481
 20
22.0282757649
 11
-2.2498143079
 21
22.0296913945
  0
LWPOLYLINE
  5
277
100
AcDbEntity
  8
21814000
100
AcDbPolyline
 62
7
  6
CONTINUOUS
 90
5
 70
0
 10
-2.3913091344
 20
21.9629564998
 10
-2.3864659696
 20
21.9650141241
 10
-2.3790396098
 20
21.9673319866
 10
-2.3708931916
 20
21.9688643512
 10
-2.3619748566
 20
21.9695152649
  0
LINE
  5
278
100
AcDbEntity
  8
21814000
100
AcDbLine
 62
7
  6
CONTINUOUS
 10
-2.1799737181
 20
22.0557925317
 11
-2.2498146693
 21
22.0296912243
  0
LINE
  5
279
100
AcDbEntity
  8
21814000
100
AcDbLine
 62
7
  6
CONTINUOUS
 10
-2.104934608
 20
22.0787200968
 11
-2.1799737181
 21
22.0557925317
  0
LWPOLYLINE
  5
27A
100
AcDbEntity
  8
21814000
100
AcDbPolyline
 62
7
  6
CONTINUOUS
 90
6
 70
0
 10
-2.2498143079
 20
22.0296913945
 10
-2.2365860334
 20
22.0336334195
 10
-2.2208024132
 20
22.0349720549
 10
-2.2041650807
 20
22.0330782297
 10
-2.1869764796
 20
22.0279770208
 10
-2.1695418571
 20
22.0197514007
  0
LINE
  5
27B
100
AcDbEntity
  8
ASSI
100
AcDbLine
 62
250
  6
CONTINUOUS
 10
-13.3168763282
 20
-16.2151119559
 11
-13.3916080838
 21
-16.1817135616
  0
LWPOLYLINE
  5
27C
100
AcDbEntity
  8
RACCORDO
100
AcDbPolyline
 62
250
  6
CONTINUOUS
 90
55
 70
0
 10
-13.502828624
 20
-15.8731110955
 10
-13.4656972848
 20
-15.8902564978
 10
-13.4284634344
 20
-15.9046162967
 10
-13.3912523732
 20
-15.9161415118
 10
-13.3542076618
 20
-15.9247890304
 10
-13.3174355083
 20
-15.9305355982
 10
-13.2810059765
 20
-15.9333635151
 10
-13.245006538
 20
-15.9332480083
 10
-13.2096006615
 20
-15.9301710027
 10
-13.1749693888
 20
-15.9241415495
 10
-13.1412350814
 20
-15.9151826447
 10
-13.1085069568
 20
-15.9033252185
 10
-13.0769342284
 20
-15.8886306316
 10
-13.046648145
 20
-15.8711786555
 10
-13.0177143526
 20
-15.8510264507
 10
-12.9901792309
 20
-15.8282119386
 10
-12.9641197878
 20
-15.8027912417
 10
-12.9396446257
 20
-15.7748621895
 10
-12.9168454428
 20
-15.744527364
 10
-12.8957996589
 20
-15.7118901096
 10
-12.8765776384
 20
-15.6770599001
 10
-12.8592485031
 20
-15.6401643255
 10
-12.8438782007
 20
-15.6013545466
 10
-12.8305053518
 20
-15.5607401938
 10
-12.8191565272
 20
-15.5183892304
 10
-12.8098703633
 20
-15.4743944584
 10
-12.8026989567
 20
-15.4289396359
 10
-12.7976804463
 20
-15.3822353526
 10
-12.7948328735
 20
-15.3344585949
 10
-12.7941639028
 20
-15.2857539855
 10
-12.7956757095
 20
-15.2362947298
 10
-12.7993618875
 20
-15.1862549022
 10
-12.8052092565
 20
-15.1357988712
 10
-12.8131989881
 20
-15.0850883314
 10
-12.8233059579
 20
-15.0342886606
 10
-12.8354954256
 20
-14.9835791459
 10
-12.8497233113
 20
-14.9331425629
 10
-12.8659380665
 20
-14.8831571827
 10
-12.8840857919
 20
-14.8337852541
 10
-12.9041087952
 20
-14.7851834469
 10
-12.9259432863
 20
-14.7375093875
 10
-12.9495125331
 20
-14.6909331527
 10
-12.974730122
 20
-14.6456249747
 10
-13.0015041616
 20
-14.6017465311
 10
-13.0297478726
 20
-14.559436878
 10
-13.0593747674
 20
-14.5188256023
 10
-13.0903058055
 20
-14.4800264349
 10
-13.1224172984
 20
-14.4431995381
 10
-13.1555450179
 20
-14.4085264791
 10
-13.1895363664
 20
-14.3761475133
 10
-13.2243065999
 20
-14.3461247417
 10
-13.2597878238
 20
-14.3185100895
 10
-13.2958784128
 20
-14.2933846063
 10
-13.332439677
 20
-14.2708466221
 10
-13.3693485338
 20
-14.2509717319
  0
LINE
  5
27D
100
AcDbEntity
  8
26814000
100
AcDbLine
 62
250
  6
CONTINUOUS
 10
1.5022739042
 20
-24.9845034395
 11
-0.103502558
 21
-24.1816152084
  0
LINE
  5
27E
100
AcDbEntity
  8
26814000
100
AcDbLine
 62
250
  6
CONTINUOUS
 10
1.5911764802
 20
-24.7530663799
 11
-0.0156284387
 21
-23.9496639204
  0
LINE
  5
27F
100
AcDbEntity
  8
26814000
100
AcDbLine
 62
7
  6
CONTINUOUS
 10
-0.8068944544
 20
-22.5601920123
 11
1.6539798277
 21
-23.7906291534
  0
LINE
  5
280
100
AcDbEntity
  8
26814000
100
AcDbLine
 62
7
  6
CONTINUOUS
 10
2.2134945123
 20
-24.0080069624
 11
1.804229516
 21
-23.8033744643
  0
LINE
  5
281
100
AcDbEntity
  8
26814000
100
AcDbLine
 62
7
  6
CONTINUOUS
 10
-0.781009328
 20
-22.245618637
 11
1.9014672011
 21
-23.5868569016
  0
LWPOLYLINE
  5
282
100
AcDbEntity
  8
RACCORDO
100
AcDbPolyline
 62
7
  6
CONTINUOUS
 90
46
 70
0
 10
-13.4768465357
 20
-15.9284405458
 10
-13.5173969303
 20
-15.9066544997
 10
-13.5574024471
 20
-15.882132815
 10
-13.5967580234
 20
-15.8549526297
 10
-13.635372029
 20
-15.8251861103
 10
-13.6731328909
 20
-15.7929251367
 10
-13.7099075435
 20
-15.758291712
 10
-13.7456133767
 20
-15.7213711798
 10
-13.780137448
 20
-15.6822848204
 10
-13.8133090154
 20
-15.6412415912
 10
-13.8450258917
 20
-15.5983963377
 10
-13.8752253503
 20
-15.5538599536
 10
-13.903808463
 20
-15.5078031736
 10
-13.9306904995
 20
-15.4603926303
 10
-13.9558176766
 20
-15.4117514598
 10
-13.979140952
 20
-15.3619929834
 10
-14.0006023729
 20
-15.3112495549
 10
-14.0201350443
 20
-15.2596846527
 10
-14.0376796775
 20
-15.2074605864
 10
-14.0531834895
 20
-15.1547399046
 10
-14.066604482
 20
-15.101665867
 10
-14.0779054592
 20
-15.0483722078
 10
-14.0870512774
 20
-14.9949880009
 10
-14.0940018947
 20
-14.9416913097
 10
-14.0987240224
 20
-14.8886853638
 10
-14.1011981045
 20
-14.8361410313
 10
-14.1014117396
 20
-14.7841875509
 10
-14.0993537099
 20
-14.7329577607
 10
-14.095010034
 20
-14.6825442953
 10
-14.0883775423
 20
-14.6331468596
 10
-14.079483971
 20
-14.585040662
 10
-14.0683509239
 20
-14.538351733
 10
-14.0550047664
 20
-14.4932084946
 10
-14.0395227274
 20
-14.4498558392
 10
-14.0219668106
 20
-14.4084203419
 10
-14.0023841097
 20
-14.3689774062
 10
-13.9808607244
 20
-14.3316671738
 10
-13.9574664552
 20
-14.2965744169
 10
-13.9322786519
 20
-14.2637843046
 10
-13.9054202529
 20
-14.2334193857
 10
-13.8770077973
 20
-14.2055634383
 10
-13.8471294843
 20
-14.180257444
 10
-13.8158882626
 20
-14.1575498356
 10
-13.7834014614
 20
-14.137489239
 10
-13.7497973139
 20
-14.1201174503
 10
-13.7152062738
 20
-14.1054633249
  0
LWPOLYLINE
  5
283
100
AcDbEntity
  8
RACCORDO
100
AcDbPolyline
 62
250
  6
CONTINUOUS
 90
3
 70
0
 10
-13.3136210426
 20
-16.0615272426
 10
-13.3813422827
 20
-16.0242005699
 10
-13.4484282192
 20
-15.9802413828
  0
LWPOLYLINE
  5
284
100
AcDbEntity
  8
ASSI
100
AcDbPolyline
 62
250
  6
CONTINUOUS
 90
3
 70
0
 10
-13.3136210426
 20
-16.0615272426
 10
-13.3813422827
 20
-16.0242005699
 10
-13.4484282192
 20
-15.9802413828
  0
LWPOLYLINE
  5
285
100
AcDbEntity
  8
RACCORDO
100
AcDbPolyline
 62
250
  6
CONTINUOUS
 90
37
 70
0
 10
-13.3916080838
 20
-16.1817135616
 10
-13.4656485965
 20
-16.1407897993
 10
-13.5380720215
 20
-16.0932934161
 10
-13.6088776409
 20
-16.0392241032
 10
-13.6785354825
 20
-15.97813533
 10
-13.7465726328
 20
-15.910472387
 10
-13.8115734402
 20
-15.8375724726
 10
-13.8734513719
 20
-15.7593348327
 10
-13.9322878238
 20
-15.6758580177
 10
-13.9869191211
 20
-15.5887782202
 10
-14.0372451088
 20
-15.4980520984
 10
-14.0833597635
 20
-15.4037203515
 10
-14.1243914919
 20
-15.3075456153
 10
-14.1602534852
 20
-15.2094591973
 10
-14.191026649
 20
-15.1095272769
 10
-14.2160927299
 20
-15.009715556
 10
-14.2353321301
 20
-14.9100428267
 10
-14.2488602961
 20
-14.8104885439
 10
-14.2564140568
 20
-14.7129604793
 10
-14.2578772727
 20
-14.6174884006
 10
-14.2533645538
 20
-14.524041911
 10
-14.2429617736
 20
-14.4344397795
 10
-14.2265544725
 20
-14.3487629548
 10
-14.2042586149
 20
-14.2669311479
 10
-14.1765086428
 20
-14.1905225138
 10
-14.1431973732
 20
-14.1196420112
 10
-14.1044361465
 20
-14.0541864575
 10
-14.0609897061
 20
-13.9954228566
 10
-14.01277717
 20
-13.9434902917
 10
-13.9598852982
 20
-13.898252171
 10
-13.9033320709
 20
-13.8605627308
 10
-13.8430584864
 20
-13.8305641071
 10
-13.7791297464
 20
-13.8081167794
 10
-13.7127510219
 20
-13.7936528693
 10
-13.6438382755
 20
-13.7873341201
 10
-13.5724806694
 20
-13.7890009436
 10
-13.500143263
 20
-13.7986035001
  0
LWPOLYLINE
  5
286
100
AcDbEntity
  8
ASSI
100
AcDbPolyline
 62
250
  6
CONTINUOUS
 90
5
 70
0
 10
-13.3916080838
 20
-16.1817135616
 10
-13.4656485965
 20
-16.1407897993
 10
-13.5380720215
 20
-16.0932934161
 10
-13.6088776409
 20
-16.0392241032
 10
-13.6785354825
 20
-15.97813533
  0
LINE
  5
287
100
AcDbEntity
  8
RACCORDO
100
AcDbLine
 62
250
  6
CONTINUOUS
 10
-13.4484282192
 20
-15.9802413828
 11
-13.5144453318
 21
-15.929904943
  0
LWPOLYLINE
  5
288
100
AcDbEntity
  8
ASSI
100
AcDbPolyline
 62
250
  6
CONTINUOUS
 90
4
 70
0
 10
-13.4484282192
 20
-15.9802413828
 10
-13.5144453318
 20
-15.929904943
 10
-13.578999646
 20
-15.8734708123
 10
-13.6007733172
 20
-15.8518573455
  0
LWPOLYLINE
  5
289
100
AcDbEntity
  8
RACCORDO
100
AcDbPolyline
 62
250
  6
CONTINUOUS
 90
3
 70
0
 10
-13.5144453318
 20
-15.929904943
 10
-13.578999646
 20
-15.8734708123
 10
-13.6007733172
 20
-15.8518573455
  0
LWPOLYLINE
  5
28A
100
AcDbEntity
  8
ASSI
100
AcDbPolyline
 62
250
  6
CONTINUOUS
 90
30
 70
0
 10
-13.6785354825
 20
-15.97813533
 10
-13.7465726328
 20
-15.910472387
 10
-13.8115734402
 20
-15.8375724726
 10
-13.8734513719
 20
-15.7593348327
 10
-13.9322878238
 20
-15.6758580177
 10
-13.9869191211
 20
-15.5887782202
 10
-14.0372451088
 20
-15.4980520984
 10
-14.0833597635
 20
-15.4037203515
 10
-14.1243914919
 20
-15.3075456153
 10
-14.1602534852
 20
-15.2094591973
 10
-14.191026649
 20
-15.1095272769
 10
-14.2160927299
 20
-15.009715556
 10
-14.2353321301
 20
-14.9100428267
 10
-14.2488602961
 20
-14.8104885439
 10
-14.2564140568
 20
-14.7129604793
 10
-14.2578772727
 20
-14.6174884006
 10
-14.2533645538
 20
-14.524041911
 10
-14.2429617736
 20
-14.4344397795
 10
-14.2265544725
 20
-14.3487629548
 10
-14.2042586149
 20
-14.2669311479
 10
-14.1765086428
 20
-14.1905225138
 10
-14.1431973732
 20
-14.1196420112
 10
-14.1044361465
 20
-14.0541864575
 10
-14.0609897061
 20
-13.9954228566
 10
-14.01277717
 20
-13.9434902917
 10
-13.9598852982
 20
-13.898252171
 10
-13.9033320709
 20
-13.8605627308
 10
-13.8430584864
 20
-13.8305641071
 10
-13.7791297464
 20
-13.8081167794
 10
-13.7127510219
 20
-13.7936528693
  0
LINE
  5
28B
100
AcDbEntity
  8
21814000
100
AcDbLine
 62
7
  6
CONTINUOUS
 10
-2.4059218642
 20
21.9533369709
 11
-3.3168482227
 21
21.1560996494
  0
LINE
  5
28C
100
AcDbEntity
  8
21814000
100
AcDbLine
 62
250
  6
CONTINUOUS
 10
-2.3064770205
 20
21.9557121551
 11
-3.2552872008
 21
21.1253191385
  0
LWPOLYLINE
  5
28D
100
AcDbEntity
  8
21814000
100
AcDbPolyline
 62
7
  6
CONTINUOUS
 90
5
 70
0
 10
-2.4060191031
 20
21.9532513724
 10
-2.4049382998
 20
21.954182893
 10
-2.3993899351
 20
21.9583656293
 10
-2.3932354751
 20
21.962003278
 10
-2.3913091344
 20
21.9629564998
  0
LINE
  5
28E
100
AcDbEntity
  8
21814000
100
AcDbLine
 62
250
  6
CONTINUOUS
 10
-2.7545582424
 20
20.8749546593
 11
-2.2807497988
 21
21.2463747157
  0
LINE
  5
28F
100
AcDbEntity
  8
21814000
100
AcDbLine
 62
250
  6
CONTINUOUS
 10
-2.4766685794
 20
20.7360098278
 11
-2.1079426689
 21
21.0250553279
  0
LWPOLYLINE
  5
290
100
AcDbEntity
  8
21814000
100
AcDbPolyline
 62
250
  6
CONTINUOUS
 90
13
 70
0
 10
-2.2807497988
 20
21.2463747157
 10
-2.2395708795
 20
21.2759208457
 10
-2.1963755072
 20
21.3025309818
 10
-2.1511636818
 20
21.3262051242
 10
-2.1033867138
 20
21.3471000922
 10
-2.0535932927
 20
21.3650590665
 10
-2.0034294875
 20
21.3796115887
 10
-1.9529236966
 20
21.3906300868
 10
-1.9020475215
 20
21.3982421328
 10
-1.8523618361
 20
21.4023599847
 10
-1.8040068818
 20
21.4028981801
 10
-1.7568424171
 20
21.3999421814
 10
-1.7120085922
 20
21.3936606333
  0
LINE
  5
291
100
AcDbEntity
  8
26814000
100
AcDbLine
 62
7
  6
CONTINUOUS
 10
-1.6028323517
 20
19.0972787816
 11
-1.1037366189
 21
19.3474754548
  0
LINE
  5
292
100
AcDbEntity
  8
26814000
100
AcDbLine
 62
7
  6
CONTINUOUS
 10
-1.1037366189
 20
19.3474754548
 11
4.3105360762
 21
22.0474910651
  0
LINE
  5
293
100
AcDbEntity
  8
26814000
100
AcDbLine
 62
7
  6
CONTINUOUS
 10
3.7045894931
 20
22.3492390231
 11
-1.0330259408
 21
20.0141885085
  0
LINE
  5
294
100
AcDbEntity
  8
26814000
100
AcDbLine
 62
7
  6
CONTINUOUS
 10
4.9835522917
 20
22.092990994
 11
4.3971735046
 21
21.8060689263
  0
LWPOLYLINE
  5
295
100
AcDbEntity
  8
26814000
100
AcDbPolyline
 62
7
  6
CONTINUOUS
 90
18
 70
0
 10
4.9835522917
 20
22.092990994
 10
5.0119268125
 20
22.1061729508
 10
5.0401612645
 20
22.1179073425
 10
5.0682556477
 20
22.1281941692
 10
5.0962599608
 20
22.1370463038
 10
5.124124205
 20
22.1444508733
 10
5.1516983847
 20
22.150369259
 10
5.1789675133
 20
22.1547926802
 10
5.2059465773
 20
22.1577299176
 10
5.2325305399
 20
22.1591686935
 10
5.2587354988
 20
22.159101557
 10
5.2845453563
 20
22.157535959
 10
5.3098067825
 20
22.1544819756
 10
5.3344965359
 20
22.1499361912
 10
5.358637858
 20
22.1439020213
 10
5.3821471443
 20
22.1363997886
 10
5.4050429245
 20
22.1274143739
 10
5.4246050088
 20
22.1183246409
  0
LINE
  5
296
100
AcDbEntity
  8
21814000
100
AcDbLine
 62
7
  6
CONTINUOUS
 10
11.2128907626
 20
24.6618874169
 11
5.5594208721
 21
22.0509276719
  0
LINE
  5
297
100
AcDbEntity
  8
21814000
100
AcDbLine
 62
250
  6
CONTINUOUS
 10
11.6013482452
 20
24.6296730812
 11
5.7794349948
 21
21.9409206106
  0
LWPOLYLINE
  5
298
100
AcDbEntity
  8
21814000
100
AcDbPolyline
 62
250
  6
CONTINUOUS
 90
9
 70
0
 10
11.6013482452
 20
24.6296730812
 10
11.6553546467
 20
24.6527045971
 10
11.7090747198
 20
24.6699462337
 10
11.7621105643
 20
24.6812110053
 10
11.8140964895
 20
24.6863549219
 10
11.8645977394
 20
24.6852667829
 10
11.9131258756
 20
24.6779113876
 10
11.9593081683
 20
24.6643172382
 10
11.9927192587
 20
24.6498073669
  0
LWPOLYLINE
  5
299
100
AcDbEntity
  8
21814000
100
AcDbPolyline
 62
7
  6
CONTINUOUS
 90
12
 70
0
 10
11.2128907626
 20
24.6618874169
 10
11.2785182387
 20
24.6891070664
 10
11.3472170693
 20
24.7113828358
 10
11.4185245518
 20
24.7282822181
 10
11.4920812013
 20
24.7394465426
 10
11.5671091836
 20
24.7445182654
 10
11.6424951411
 20
24.7432974186
 10
11.7176806498
 20
24.7357472836
 10
11.7920380813
 20
24.7219006521
 10
11.8645594527
 20
24.7019910352
 10
11.9349114843
 20
24.6762015845
 10
11.9927516133
 20
24.6497911894
  0
LWPOLYLINE
  5
29A
100
AcDbEntity
  8
21814000
100
AcDbPolyline
 62
250
  6
CONTINUOUS
 90
9
 70
0
 10
11.2128907626
 20
24.6618874169
 10
11.2408033881
 20
24.6732863964
 10
11.2873178011
 20
24.6862654494
 10
11.3361367538
 20
24.6928430427
 10
11.3868888483
 20
24.6929691362
 10
11.4391879803
 20
24.6866427708
 10
11.4926362761
 20
24.6739120751
 10
11.5468271194
 20
24.6548739
 10
11.6013482452
 20
24.6296730812
  0
LWPOLYLINE
  5
29B
100
AcDbEntity
  8
RACCORDO
100
AcDbPolyline
 62
250
  6
CONTINUOUS
 90
5
 70
0
 10
-13.0983274206
 20
-16.2678356763
 10
-13.1704798851
 20
-16.258164341
 10
-13.2431671705
 20
-16.2405956531
 10
-13.3168763282
 20
-16.2151119559
 10
-13.3916080838
 20
-16.1817135616
  0
LWPOLYLINE
  5
29C
100
AcDbEntity
  8
RACCORDO
100
AcDbPolyline
 62
250
  6
CONTINUOUS
 90
4
 70
0
 10
-13.109381773
 20
-16.1321830289
 10
-13.1770618153
 20
-16.1157999013
 10
-13.2452898259
 20
-16.0921933655
 10
-13.3136210426
 20
-16.0615272426
  0
LWPOLYLINE
  5
29D
100
AcDbEntity
  8
RACCORDO
100
AcDbPolyline
 62
7
  6
CONTINUOUS
 90
4
 70
0
 10
-13.3865297856
 20
-13.8819977283
 10
-13.325495849
 20
-13.9026637009
 10
-13.2641685437
 20
-13.9293110803
 10
-13.2529204893
 20
-13.9348325085
  0
LINE
  5
29E
100
AcDbEntity
  8
RACCORDO
100
AcDbLine
 62
250
  6
CONTINUOUS
 10
-13.4273154525
 20
-13.8161256142
 11
-13.353510753
 21
-13.8415846832
  0
LINE
  5
29F
100
AcDbEntity
  8
ASSI
100
AcDbLine
 62
250
  6
CONTINUOUS
 10
-13.4273154525
 20
-13.8161256142
 11
-13.353510753
 21
-13.8415846832
  0
LINE
  5
2A0
100
AcDbEntity
  8
ASSI
100
AcDbLine
 62
7
  6
CONTINUOUS
 10
-13.338579981
 20
-13.8977372663
 11
-13.2530188595
 21
-13.934783041
  0
LWPOLYLINE
  5
2A1
100
AcDbEntity
  8
0
100
AcDbPolyline
 62
7
  6
CONTINUOUS
 90
3
 70
0
 10
-12.6165258063
 20
-15.821188808
 10
-12.5640811484
 20
-15.8442472089
 10
-12.5462662022
 20
-15.8500948713
  0
LWPOLYLINE
  5
2A2
100
AcDbEntity
  8
ASSI
100
AcDbPolyline
 62
7
  6
CONTINUOUS
 90
3
 70
0
 10
-12.6165258063
 20
-15.821188808
 10
-12.5640811484
 20
-15.8442472089
 10
-12.5462662022
 20
-15.8500948713
  0
LINE
  5
2A3
100
AcDbEntity
  8
RACCORDO
100
AcDbLine
 62
250
  6
CONTINUOUS
 10
-13.353510753
 20
-13.8415846832
 11
-13.27872989
 21
-13.8749810116
  0
LINE
  5
2A4
100
AcDbEntity
  8
ASSI
100
AcDbLine
 62
250
  6
CONTINUOUS
 10
-13.353510753
 20
-13.8415846832
 11
-13.27872989
 21
-13.8749810116
  0
LWPOLYLINE
  5
2A5
100
AcDbEntity
  8
RACCORDO
100
AcDbPolyline
 62
250
  6
CONTINUOUS
 90
55
 70
0
 10
-13.3693485338
 20
-14.2509717319
 10
-13.4064798346
 20
-14.2338263153
 10
-13.4437136661
 20
-14.2194665094
 10
-13.4809247278
 20
-14.2079412945
 10
-13.5179694719
 20
-14.199293788
 10
-13.5547416776
 20
-14.1935472395
 10
-13.5911712425
 20
-14.1907193349
 10
-13.6271706733
 20
-14.1908348389
 10
-13.6625765229
 20
-14.1939118346
 10
-13.697207776
 20
-14.1999412804
 10
-13.7309420826
 20
-14.2089001849
 10
-13.7636702135
 20
-14.2207576135
 10
-13.7952429463
 20
-14.235452202
 10
-13.8255290286
 20
-14.2529041777
 10
-13.8544628179
 20
-14.2730563813
 10
-13.8819979371
 20
-14.2958708925
 10
-13.908057379
 20
-14.321291589
 10
-13.9325325404
 20
-14.349220641
 10
-13.9553317226
 20
-14.3795554662
 10
-13.9763775052
 20
-14.4121927201
 10
-13.9955995245
 20
-14.4470229291
 10
-14.0129286587
 20
-14.4839185033
 10
-14.0282989606
 20
-14.522728282
 10
-14.0416718093
 20
-14.5633426347
 10
-14.0530206336
 20
-14.605693598
 10
-14.0623067968
 20
-14.6496883698
 10
-14.0694782026
 20
-14.695143192
 10
-14.0744967124
 20
-14.741847475
 10
-14.0773442848
 20
-14.7896242326
 10
-14.0780132553
 20
-14.838328842
 10
-14.0765014485
 20
-14.8877880976
 10
-14.0728152704
 20
-14.9378279252
 10
-14.0669679013
 20
-14.9882839562
 10
-14.0589781699
 20
-15.038994496
 10
-14.0488712003
 20
-15.0897941668
 10
-14.0366817329
 20
-15.1405036816
 10
-14.0224538475
 20
-15.1909402648
 10
-14.0062390924
 20
-15.240925645
 10
-13.988091367
 20
-15.2902975736
 10
-13.9680683643
 20
-15.338899381
 10
-13.9462338749
 20
-15.3865734411
 10
-13.9226646304
 20
-15.4331496767
 10
-13.8974470423
 20
-15.478457855
 10
-13.8706729995
 20
-15.5223362975
 10
-13.8424292839
 20
-15.5646459489
 10
-13.8128023894
 20
-15.6052572247
 10
-13.7818713644
 20
-15.6440563969
 10
-13.7497598895
 20
-15.6808833004
 10
-13.7166321751
 20
-15.7155563613
 10
-13.6826408036
 20
-15.7479353186
 10
-13.6478705343
 20
-15.7779580769
 10
-13.6123892885
 20
-15.8055727209
 10
-13.5762987006
 20
-15.8306982046
 10
-13.5397374516
 20
-15.8532361944
 10
-13.502828624
 20
-15.8731110955
  0
LWPOLYLINE
  5
2A6
100
AcDbEntity
  8
RACCORDO
100
AcDbPolyline
 62
250
  6
CONTINUOUS
 90
12
 70
0
 10
-13.2929569204
 20
-14.1433940329
 10
-13.3338290701
 20
-14.1245215986
 10
-13.3748140457
 20
-14.1087152644
 10
-13.4157739439
 20
-14.0960289354
 10
-13.4565507806
 20
-14.0865099586
 10
-13.4970276587
 20
-14.0801840294
 10
-13.5371273924
 20
-14.0770709439
 10
-13.5767536235
 20
-14.0771981496
 10
-13.6157264336
 20
-14.0805853677
 10
-13.6538466066
 20
-14.0872224216
 10
-13.6909795019
 20
-14.0970839052
 10
-13.7152062753
 20
-14.1054633255
  0
LINE
  5
2A7
100
AcDbEntity
  8
26814000
100
AcDbLine
 62
250
  6
CONTINUOUS
 10
3.3681995437
 20
-23.4988109587
 11
3.3247772178
 21
-23.4770997957
  0
LINE
  5
2A8
100
AcDbEntity
  8
26814000
100
AcDbLine
 62
7
  6
CONTINUOUS
 10
-0.7070757157
 20
-21.3471279135
 11
2.7146399995
 21
-23.0579857711
  0
LINE
  5
2A9
100
AcDbEntity
  8
26814000
100
AcDbLine
 62
250
  6
CONTINUOUS
 10
3.2803254244
 20
-23.2995438131
 11
3.8954442594
 21
-23.6071032306
  0
LINE
  5
2AA
100
AcDbEntity
  8
26814000
100
AcDbLine
 62
7
  6
CONTINUOUS
 10
3.2803254244
 20
-23.2959236636
 11
3.9187236327
 21
-23.6151227678
  0
LINE
  5
2AB
100
AcDbEntity
  8
26814000
100
AcDbLine
 62
7
  6
CONTINUOUS
 10
-0.5766757638
 20
-19.7624204519
 11
2.7146399995
 21
-21.4080783335
  0
LWPOLYLINE
  5
2AC
100
AcDbEntity
  8
RACCORDO
100
AcDbPolyline
 62
7
  6
CONTINUOUS
 90
25
 70
0
 10
-13.2528453773
 20
-13.9348760393
 10
-13.2360611612
 20
-13.9434917445
 10
-13.1650883231
 20
-13.9847821699
 10
-13.0947678485
 20
-14.0336278026
 10
-13.0257670513
 20
-14.089621748
 10
-12.9586338129
 20
-14.1522991168
 10
-12.8938278257
 20
-14.2212551938
 10
-12.8318672013
 20
-14.295958358
 10
-12.7732355203
 20
-14.3757984869
 10
-12.7183074447
 20
-14.4602973673
 10
-12.6675159919
 20
-14.5488244555
 10
-12.621239885
 20
-14.6406874526
 10
-12.5797706336
 20
-14.735346978
 10
-12.5434452281
 20
-14.8320907601
 10
-12.5125306363
 20
-14.9301805841
 10
-12.4872369725
 20
-15.029034341
 10
-12.4677948015
 20
-15.1278870979
 10
-12.4543541301
 20
-15.2259656769
 10
-12.4470346831
 20
-15.3226278972
 10
-12.4459356583
 20
-15.4170907679
 10
-12.451065221
 20
-15.5085558725
 10
-12.4624044193
 20
-15.5962758517
 10
-12.4798755281
 20
-15.6795043354
 10
-12.5032862447
 20
-15.757480765
 10
-12.5323646388
 20
-15.8294018601
  0
LINE
  5
2AD
100
AcDbEntity
  8
ASSI
100
AcDbLine
 62
7
  6
CONTINUOUS
 10
-13.2524299565
 20
-13.9350798301
 11
-13.2024895373
 21
-13.9620366707
  0
LINE
  5
2AE
100
AcDbEntity
  8
RACCORDO
100
AcDbLine
 62
250
  6
CONTINUOUS
 10
-13.27872989
 20
-13.8749810116
 11
-13.2046925862
 21
-13.9159295953
  0
LINE
  5
2AF
100
AcDbEntity
  8
ASSI
100
AcDbLine
 62
250
  6
CONTINUOUS
 10
-13.27872989
 20
-13.8749810116
 11
-13.2046925862
 21
-13.9159295953
  0
LWPOLYLINE
  5
2B0
100
AcDbEntity
  8
RACCORDO
100
AcDbPolyline
 62
250
  6
CONTINUOUS
 90
3
 70
0
 10
-13.2046925862
 20
-13.9159295953
 10
-13.13232503
 20
-13.9634702021
 10
-13.0616265037
 20
-14.0176025308
  0
LINE
  5
2B1
100
AcDbEntity
  8
ASSI
100
AcDbLine
 62
250
  6
CONTINUOUS
 10
-13.2046925862
 20
-13.9159295953
 11
-13.13232503
 21
-13.9634702021
  0
LWPOLYLINE
  5
2B2
100
AcDbEntity
  8
ASSI
100
AcDbPolyline
 62
7
  6
CONTINUOUS
 90
4
 70
0
 10
-13.2024895373
 20
-13.9620366707
 10
-13.0659093497
 20
-14.0560484268
 10
-12.9346619494
 20
-14.1767858462
 10
-12.8127974765
 20
-14.3208750527
  0
LINE
  5
2B3
100
AcDbEntity
  8
ASSI
100
AcDbLine
 62
250
  6
CONTINUOUS
 10
-13.13232503
 20
-13.9634702021
 11
-13.0616265037
 21
-14.0176025308
  0
LINE
  5
2B4
100
AcDbEntity
  8
RACCORDO
100
AcDbLine
 62
250
  6
CONTINUOUS
 10
-13.0616265037
 20
-14.0176025308
 11
-12.9921256415
 21
-14.0787737774
  0
LINE
  5
2B5
100
AcDbEntity
  8
ASSI
100
AcDbLine
 62
250
  6
CONTINUOUS
 10
-13.0616265037
 20
-14.0176025308
 11
-12.9921256415
 21
-14.0787737774
  0
LWPOLYLINE
  5
2B6
100
AcDbEntity
  8
RACCORDO
100
AcDbPolyline
 62
250
  6
CONTINUOUS
 90
17
 70
0
 10
-12.9921256415
 20
-14.0787737774
 10
-12.9242909245
 20
-14.1465355353
 10
-12.8595308844
 20
-14.2195438797
 10
-12.7979291406
 20
-14.2978967958
 10
-12.7393969414
 20
-14.3814941405
 10
-12.6850843468
 20
-14.4686948313
 10
-12.6350862145
 20
-14.5595389754
 10
-12.5893015156
 20
-14.6539838624
 10
-12.5485873637
 20
-14.7502645539
 10
-12.513024907
 20
-14.8484468079
 10
-12.4825270992
 20
-14.9484623667
 10
-12.4577005243
 20
-15.0483460076
 10
-12.4386600565
 20
-15.1480778997
 10
-12.4252866669
 20
-15.2476760991
 10
-12.4178385942
 20
-15.3452332725
 10
-12.4164301756
 20
-15.4407202403
 10
-12.4209455329
 20
-15.534165507
  0
LWPOLYLINE
  5
2B7
100
AcDbEntity
  8
ASSI
100
AcDbPolyline
 62
250
  6
CONTINUOUS
 90
4
 70
0
 10
-12.9921256415
 20
-14.0787737774
 10
-12.9242909245
 20
-14.1465355353
 10
-12.8595308844
 20
-14.2195438797
 10
-12.7979291406
 20
-14.2978967958
  0
LWPOLYLINE
  5
2B8
100
AcDbEntity
  8
ASSI
100
AcDbPolyline
 62
250
  6
CONTINUOUS
 90
12
 70
0
 10
-12.7979291406
 20
-14.2978967958
 10
-12.7393969414
 20
-14.3814941405
 10
-12.6850843468
 20
-14.4686948313
 10
-12.6350862145
 20
-14.5595389754
 10
-12.5893015156
 20
-14.6539838624
 10
-12.5485873637
 20
-14.7502645539
 10
-12.513024907
 20
-14.8484468079
 10
-12.4825270992
 20
-14.9484623667
 10
-12.4577005243
 20
-15.0483460076
 10
-12.4386600565
 20
-15.1480778997
 10
-12.4252866669
 20
-15.2476760991
 10
-12.4178385942
 20
-15.3452332725
  0
LWPOLYLINE
  5
2B9
100
AcDbEntity
  8
ASSI
100
AcDbPolyline
 62
7
  6
CONTINUOUS
 90
12
 70
0
 10
-12.8127974765
 20
-14.3208750527
 10
-12.7035660958
 20
-14.4848540546
 10
-12.6103916528
 20
-14.6641515153
 10
-12.5361798975
 20
-14.8535532438
 10
-12.482959294
 20
-15.0484368899
 10
-12.4526279806
 20
-15.2429990775
 10
-12.4463121385
 20
-15.4311558043
 10
-12.4643066851
 20
-15.6072228392
 10
-12.5059667506
 20
-15.7650323916
 10
-12.5695721741
 20
-15.89928819
 10
-12.6528626382
 20
-16.0061778602
 10
-12.7532845381
 20
-16.0828659692
  0
LWPOLYLINE
  5
2BA
100
AcDbEntity
  8
21814000
100
AcDbPolyline
 62
250
  6
CONTINUOUS
 90
10
 70
0
 10
-1.3360757341
 20
22.0735713739
 10
-1.3308186066
 20
22.0790988794
 10
-1.3255841386
 20
22.083861837
 10
-1.3203949322
 20
22.0878374655
 10
-1.3152714942
 20
22.0910073665
 10
-1.3102382576
 20
22.0933536947
 10
-1.3053230625
 20
22.0948625458
 10
-1.300544941
 20
22.095528008
 10
-1.2959267374
 20
22.0953468283
 10
-1.2938874225
 20
22.0949851613
  0
LWPOLYLINE
  5
2BB
100
AcDbEntity
  8
21814000
100
AcDbPolyline
 62
250
  6
CONTINUOUS
 90
10
 70
0
 10
-1.5926311051
 20
21.3550313366
 10
-1.6116719936
 20
21.3369717715
 10
-1.6295200491
 20
21.3162613062
 10
-1.6458083455
 20
21.2933257132
 10
-1.6602020227
 20
21.2686365099
 10
-1.6724051708
 20
21.2427012649
 10
-1.6821669135
 20
21.2160531634
 10
-1.6892865658
 20
21.1892400458
 10
-1.6936177595
 20
21.1628131448
 10
-1.6950714526
 20
21.1373157532
  0
LWPOLYLINE
  5
2BC
100
AcDbEntity
  8
21814000
100
AcDbPolyline
 62
250
  6
CONTINUOUS
 90
10
 70
0
 10
-0.8342255064
 20
20.9758285373
 10
-0.8532669589
 20
20.9577683429
 10
-0.8711153507
 20
20.9370572826
 10
-0.8874037665
 20
20.9141212226
 10
-0.9017973673
 20
20.889431774
 10
-0.9140003068
 20
20.8634965371
 10
-0.9237617929
 20
20.8368486561
 10
-0.9308812011
 20
20.8100359439
 10
-0.9352122147
 20
20.7836096275
 10
-0.9366658518
 20
20.7581129528
  0
LWPOLYLINE
  5
2BD
100
AcDbEntity
  8
21814000
100
AcDbPolyline
 62
250
  6
CONTINUOUS
 90
16
 70
0
 10
-2.1079426689
 20
21.0250553279
 10
-2.0837133334
 20
21.0479183304
 10
-2.0576720053
 20
21.0689376422
 10
-2.0301167678
 20
21.0880365948
 10
-2.0013478405
 20
21.1052673787
 10
-1.9716901582
 20
21.1204734495
 10
-1.9414923215
 20
21.1332942186
 10
-1.9110775884
 20
21.1436882283
 10
-1.8807608132
 20
21.1517026389
 10
-1.850872911
 20
21.1571418553
 10
-1.8217611671
 20
21.1600187483
 10
-1.7936510096
 20
21.1604296126
 10
-1.7666815401
 20
21.1583086723
 10
-1.741077167
 20
21.1536734846
 10
-1.7171298274
 20
21.1466458692
 10
-1.6950714526
 20
21.1373157532
  0
LINE
  5
2BE
100
AcDbEntity
  8
21814000
100
AcDbLine
 62
250
  6
CONTINUOUS
 10
-0.8162064843
 20
20.5141030585
 11
-1.2428255231
 21
20.1190882996
  0
LINE
  5
2BF
100
AcDbEntity
  8
21814000
100
AcDbLine
 62
7
  6
CONTINUOUS
 10
-0.9130068553
 20
20.5139428186
 11
-1.3055705603
 21
20.1504608182
  0
LINE
  5
2C0
100
AcDbEntity
  8
26814000
100
AcDbLine
 62
7
  6
CONTINUOUS
 10
0.0712232245
 20
17.6762483764
 11
1.6539798277
 21
18.4882324737
  0
LINE
  5
2C1
100
AcDbEntity
  8
26814000
100
AcDbLine
 62
7
  6
CONTINUOUS
 10
-1.6028323517
 20
17.8830753088
 11
-1.1037366189
 21
18.1350398895
  0
LINE
  5
2C2
100
AcDbEntity
  8
26814000
100
AcDbLine
 62
7
  6
CONTINUOUS
 10
-1.1037366189
 20
18.1350398895
 11
4.3105360762
 21
20.8156524868
  0
LINE
  5
2C3
100
AcDbEntity
  8
26814000
100
AcDbLine
 62
7
  6
CONTINUOUS
 10
1.6539798277
 20
18.4882324737
 11
2.1884297064
 21
18.7485799403
  0
LINE
  5
2C4
100
AcDbEntity
  8
21814000
100
AcDbLine
 62
7
  6
CONTINUOUS
 10
12.5725070788
 20
24.1440936644
 11
9.1421031784
 21
22.5067568514
  0
LINE
  5
2C5
100
AcDbEntity
  8
ASSI
100
AcDbLine
 62
7
  6
CONTINUOUS
 10
-13.5320608323
 20
-13.8576537323
 11
-13.4366389217
 21
-13.8695323012
  0
LINE
  5
2C6
100
AcDbEntity
  8
RACCORDO
100
AcDbLine
 62
7
  6
CONTINUOUS
 10
-13.4467927541
 20
-13.8675167658
 11
-13.3865297856
 21
-13.8819977283
  0
LINE
  5
2C7
100
AcDbEntity
  8
RACCORDO
100
AcDbLine
 62
250
  6
CONTINUOUS
 10
-13.500143263
 20
-13.7986035001
 11
-13.4273154525
 21
-13.8161256142
  0
LINE
  5
2C8
100
AcDbEntity
  8
ASSI
100
AcDbLine
 62
7
  6
CONTINUOUS
 10
-13.4366389217
 20
-13.8695323012
 11
-13.338579981
 21
-13.8977372663
  0
LWPOLYLINE
  5
2C9
100
AcDbEntity
  8
RACCORDO
100
AcDbPolyline
 62
250
  6
CONTINUOUS
 90
16
 70
0
 10
-14.1007050035
 20
-14.8466134644
 10
-14.1075898702
 20
-14.7969999506
 10
-14.1147591753
 20
-14.7069341748
 10
-14.116392041
 20
-14.6187416472
 10
-14.1124977494
 20
-14.5330131074
 10
-14.1030612928
 20
-14.4503042603
 10
-14.0881647156
 20
-14.3711640646
 10
-14.0679283136
 20
-14.2961078518
 10
-14.0424485945
 20
-14.2256051787
 10
-14.0119045686
 20
-14.1601142441
 10
-13.9765185253
 20
-14.1000739527
 10
-13.9365015368
 20
-14.0458733036
 10
-13.8921350969
 20
-13.9978707114
 10
-13.8437239896
 20
-13.9563733487
 10
-13.7915548998
 20
-13.9216328265
 10
-13.7359808854
 20
-13.8938794587
  0
LWPOLYLINE
  5
2CA
100
AcDbEntity
  8
ASSI
100
AcDbPolyline
 62
250
  6
CONTINUOUS
 90
12
 70
0
 10
-14.1007050035
 20
-14.8466134644
 10
-14.1075898702
 20
-14.7969999506
 10
-14.1147591753
 20
-14.7069341748
 10
-14.116392041
 20
-14.6187416472
 10
-14.1124977494
 20
-14.5330131074
 10
-14.1030612928
 20
-14.4503042603
 10
-14.0881647156
 20
-14.3711640646
 10
-14.0679283136
 20
-14.2961078518
 10
-14.0424485945
 20
-14.2256051787
 10
-14.0119045686
 20
-14.1601142441
 10
-13.9765185253
 20
-14.1000739527
 10
-13.9365015368
 20
-14.0458733036
  0
LINE
  5
2CB
100
AcDbEntity
  8
26814000
100
AcDbLine
 62
7
  6
CONTINUOUS
 10
-13.8670140193
 20
22.4268969805
 11
-13.8670140193
 21
22.4025014752
  0
LINE
  5
2CC
100
AcDbEntity
  8
26814000
100
AcDbLine
 62
7
  6
CONTINUOUS
 10
-13.4678207224
 20
23.8001480132
 11
-13.4678207224
 21
24.0535194069
  0
LINE
  5
2CD
100
AcDbEntity
  8
26814000
100
AcDbLine
 62
7
  6
CONTINUOUS
 10
-13.053841221
 20
21.995915076
 11
-13.053841221
 21
21.6291795253
  0
LINE
  5
2CE
100
AcDbEntity
  8
21814000
100
AcDbLine
 62
250
  6
CONTINUOUS
 10
-0.7831065595
 20
20.5478294401
 11
-0.8162064843
 21
20.5141030585
  0
LWPOLYLINE
  5
2CF
100
AcDbEntity
  8
21814000
100
AcDbPolyline
 62
7
  6
CONTINUOUS
 90
13
 70
0
 10
9.5566806901
 20
21.4311783112
 10
9.427695872
 20
21.3608245928
 10
9.3087825877
 20
21.2861665442
 10
9.2005137542
 20
21.2075638633
 10
9.1034110042
 20
21.1253952531
 10
9.0179421729
 20
21.0400565969
 10
8.9445190438
 20
20.9519590513
 10
8.8834953652
 20
20.8615270648
 10
8.8351651454
 20
20.7691963333
 10
8.7997612365
 20
20.6754117006
 10
8.7774542125
 20
20.5806250154
 10
8.768351547
 20
20.4852929543
 10
8.7681194253
 20
20.4674280728
  0
LINE
  5
2D0
100
AcDbEntity
  8
26814000
100
AcDbLine
 62
250
  6
CONTINUOUS
 10
3.7944062576
 20
17.1945279046
 11
9.1527330377
 21
20.0854681315
  0
LINE
  5
2D1
100
AcDbEntity
  8
26814000
100
AcDbLine
 62
250
  6
CONTINUOUS
 10
3.4277861043
 20
16.7483157785
 11
9.0685814701
 21
19.7916542877
  0
LINE
  5
2D2
100
AcDbEntity
  8
0
100
AcDbLine
 62
7
  6
CONTINUOUS
 10
9.22584983
 20
20.1592762309
 11
9.8766234847
 21
20.502442047
  0
LINE
  5
2D3
100
AcDbEntity
  8
RACCORDO
100
AcDbLine
 62
250
  6
CONTINUOUS
 10
9.8764957027
 20
20.5023746601
 11
9.8766234847
 21
20.502442047
  0
LINE
  5
2D4
100
AcDbEntity
  8
26814000
100
AcDbLine
 62
250
  6
CONTINUOUS
 10
3.3393961495
 20
16.6130225972
 11
9.0685814701
 21
19.5793951336
  0
LINE
  5
2D5
100
AcDbEntity
  8
26814000
100
AcDbLine
 62
7
  6
CONTINUOUS
 10
3.4591622802
 20
16.5531395319
 11
9.1507911825
 21
19.5000666635
  0
LINE
  5
2D6
100
AcDbEntity
  8
21814000
100
AcDbLine
 62
7
  6
CONTINUOUS
 10
13.5688366685
 20
23.4725781039
 11
9.5566806901
 21
21.4311783112
  0
LINE
  5
2D7
100
AcDbEntity
  8
26814000
100
AcDbLine
 62
7
  6
CONTINUOUS
 10
1.6790446336
 20
16.8723376718
 11
3.2803254244
 21
17.6750596753
  0
LINE
  5
2D8
100
AcDbEntity
  8
0
100
AcDbLine
 62
7
  6
CONTINUOUS
 10
10.0049109135
 20
20.2793503156
 11
10.4998856604
 21
20.526837689
  0
LINE
  5
2D9
100
AcDbEntity
  8
26814000
100
AcDbLine
 62
7
  6
CONTINUOUS
 10
3.2803254244
 20
17.6750596753
 11
3.8085925962
 21
17.9384984954
  0
LINE
  5
2DA
100
AcDbEntity
  8
21814000
100
AcDbLine
 62
7
  6
CONTINUOUS
 10
13.5688366685
 20
23.0647268366
 11
9.5566806901
 21
21.109854029
  0
LINE
  5
2DB
100
AcDbEntity
  8
26814000
100
AcDbLine
 62
250
  6
CONTINUOUS
 10
3.1908032145
 20
18.3093705571
 11
7.9626421926
 21
20.6034460435
  0
LINE
  5
2DC
100
AcDbEntity
  8
26814000
100
AcDbLine
 62
250
  6
CONTINUOUS
 10
3.4184187143
 20
18.1955628072
 11
8.4044830606
 21
20.5926277632
  0
LINE
  5
2DD
100
AcDbEntity
  8
26814000
100
AcDbLine
 62
7
  6
CONTINUOUS
 10
1.9014672011
 20
14.518260865
 11
2.7146399995
 21
14.8025625329
  0
LINE
  5
2DE
100
AcDbEntity
  8
ASSI
100
AcDbLine
 62
7
  6
CONTINUOUS
 10
-13.6238850446
 20
-13.8623852245
 11
-13.5320608323
 21
-13.8576537323
  0
LWPOLYLINE
  5
2DF
100
AcDbEntity
  8
RACCORDO
100
AcDbPolyline
 62
7
  6
CONTINUOUS
 90
3
 70
0
 10
-13.563523495
 20
-13.8573727425
 10
-13.5058913125
 20
-13.859304284
 10
-13.4467927541
 20
-13.8675167658
  0
LWPOLYLINE
  5
2E0
100
AcDbEntity
  8
ASSI
100
AcDbPolyline
 62
250
  6
CONTINUOUS
 90
4
 70
0
 10
-12.4178385942
 20
-15.3452332725
 10
-12.4164301756
 20
-15.4407202403
 10
-12.4209455329
 20
-15.534165507
 10
-12.4313004994
 20
-15.623749502
  0
LINE
  5
2E1
100
AcDbEntity
  8
26814000
100
AcDbLine
 62
7
  6
CONTINUOUS
 10
-12.7648277681
 20
22.8935887585
 11
-12.7648277681
 21
23.3459197341
  0
LINE
  5
2E2
100
AcDbEntity
  8
26814000
100
AcDbLine
 62
7
  6
CONTINUOUS
 10
-11.8620442602
 20
23.2506311758
 11
-11.8620442602
 21
22.9972597821
  0
LINE
  5
2E3
100
AcDbEntity
  8
26814000
100
AcDbLine
 62
7
  6
CONTINUOUS
 10
-11.1508236521
 20
22.0865867005
 11
-11.1508236521
 21
22.7237562592
  0
LINE
  5
2E4
100
AcDbEntity
  8
28414000
100
AcDbLine
 62
7
  6
CONTINUOUS
 10
-6.9804751685
 20
18.9592320498
 11
-7.0237033733
 21
18.8290676405
  0
LWPOLYLINE
  5
2E5
100
AcDbEntity
  8
26814000
100
AcDbPolyline
 62
7
  6
CONTINUOUS
 90
5
 70
0
 10
9.1509996762
 20
19.5001649747
 10
9.1512341131
 20
19.5002979765
 10
9.152161349
 20
19.5011256479
 10
9.1526677665
 20
19.5021767193
 10
9.1527795118
 20
19.5031209636
  0
LINE
  5
2E6
100
AcDbEntity
  8
26814000
100
AcDbLine
 62
250
  6
CONTINUOUS
 10
3.4217467807
 20
15.8722981897
 11
1.6539798277
 21
14.9695204902
  0
LINE
  5
2E7
100
AcDbEntity
  8
26814000
100
AcDbLine
 62
250
  6
CONTINUOUS
 10
3.6692341541
 20
15.4454340697
 11
1.9014672011
 21
14.5426563702
  0
LINE
  5
2E8
100
AcDbEntity
  8
26814000
100
AcDbLine
 62
7
  6
CONTINUOUS
 10
3.2803254244
 20
15.9430088678
 11
2.2134945123
 21
15.4044276183
  0
LINE
  5
2E9
100
AcDbEntity
  8
RACCORDO
100
AcDbLine
 62
7
  6
CONTINUOUS
 10
12.9680635729
 20
20.7073375413
 11
11.6565992618
 21
20.0516053858
  0
LINE
  5
2EA
100
AcDbEntity
  8
RACCORDO
100
AcDbLine
 62
7
  6
CONTINUOUS
 10
13.8165942806
 20
20.2830747578
 11
12.9377016294
 21
19.8436284322
  0
LINE
  5
2EB
100
AcDbEntity
  8
26814000
100
AcDbLine
 62
250
  6
CONTINUOUS
 10
4.1288535619
 20
16.218293891
 11
3.4217467807
 21
15.8722981897
  0
LINE
  5
2EC
100
AcDbEntity
  8
26814000
100
AcDbLine
 62
250
  6
CONTINUOUS
 10
4.3763409353
 20
15.7914297711
 11
3.6692341541
 21
15.4454340697
  0
LINE
  5
2ED
100
AcDbEntity
  8
21814000
100
AcDbLine
 62
7
  6
CONTINUOUS
 10
9.7345831098
 20
19.0005499457
 11
4.068718541
 21
16.2483614015
  0
LINE
  5
2EE
100
AcDbEntity
  8
21814000
100
AcDbLine
 62
7
  6
CONTINUOUS
 10
18.079842094
 20
21.3904261568
 11
10.4872771938
 21
17.7023446847
  0
LINE
  5
2EF
100
AcDbEntity
  8
21814000
100
AcDbLine
 62
7
  6
CONTINUOUS
 10
17.274170158
 20
21.7932621248
 11
13.8530240882
 21
20.1512963965
  0
LWPOLYLINE
  5
2F0
100
AcDbEntity
  8
RACCORDO
100
AcDbPolyline
 62
7
  6
CONTINUOUS
 90
10
 70
0
 10
13.8165653847
 20
20.2830603098
 10
13.827961849
 20
20.2882289651
 10
13.8391822515
 20
20.2922808614
 10
13.8502265922
 20
20.295215999
 10
13.8611898511
 20
20.2970345303
 10
13.8719770483
 20
20.2977363028
 10
13.8823032437
 20
20.2973208584
 10
13.8920734574
 20
20.2957880445
 10
13.9013826694
 20
20.2931380138
 10
13.9102308798
 20
20.2893707662
  0
LWPOLYLINE
  5
2F1
100
AcDbEntity
  8
21814000
100
AcDbPolyline
 62
7
  6
CONTINUOUS
 90
9
 70
0
 10
18.079842094
 20
21.3904261568
 10
18.1359879717
 20
21.4156891951
 10
18.1892206826
 20
21.4351416876
 10
18.2390911431
 20
21.4487712985
 10
18.2850619128
 20
21.456678986
 10
18.3268538744
 20
21.4589119639
 10
18.3644467845
 20
21.4554549496
 10
18.397481073
 20
21.4465183455
 10
18.4120430235
 20
21.4401452876
  0
LWPOLYLINE
  5
2F2
100
AcDbEntity
  8
RACCORDO
100
AcDbPolyline
 62
250
  6
CONTINUOUS
 90
22
 70
0
 10
-2.3986610196
 20
12.9612908697
 10
-2.4742332434
 20
12.9288869323
 10
-2.5498786705
 20
12.8899325093
 10
-2.6252215872
 20
12.8446253221
 10
-2.6998873844
 20
12.7931986535
 10
-2.7735059558
 20
12.7359091681
 10
-2.8457130094
 20
12.673033048
 10
-2.9161583084
 20
12.6048760367
 10
-2.9844821769
 20
12.5317875089
 10
-3.0503203235
 20
12.4541499577
 10
-3.1133339193
 20
12.3723726123
 10
-3.1732258768
 20
12.2868526261
 10
-3.229713976
 20
12.1979845814
 10
-3.2825262289
 20
12.1061921799
 10
-3.3313859331
 20
12.0119534626
 10
-3.3760306604
 20
11.9157647406
 10
-3.4162332508
 20
11.8181235034
 10
-3.4518028307
 20
11.7195053817
 10
-3.4825654507
 20
11.6203858484
 10
-3.5083672102
 20
11.5212551598
 10
-3.5290777399
 20
11.4226162859
 10
-3.544592702
 20
11.3249635588
  0
LWPOLYLINE
  5
2F3
100
AcDbEntity
  8
ASSI
100
AcDbPolyline
 62
250
  6
CONTINUOUS
 90
22
 70
0
 10
-2.3986610196
 20
12.9612908697
 10
-2.4742332434
 20
12.9288869323
 10
-2.5498786705
 20
12.8899325093
 10
-2.6252215872
 20
12.8446253221
 10
-2.6998873844
 20
12.7931986535
 10
-2.7735059558
 20
12.7359091681
 10
-2.8457130094
 20
12.673033048
 10
-2.9161583084
 20
12.6048760367
 10
-2.9844821769
 20
12.5317875089
 10
-3.0503203235
 20
12.4541499577
 10
-3.1133339193
 20
12.3723726123
 10
-3.1732258768
 20
12.2868526261
 10
-3.229713976
 20
12.1979845814
 10
-3.2825262289
 20
12.1061921799
 10
-3.3313859331
 20
12.0119534626
 10
-3.3760306604
 20
11.9157647406
 10
-3.4162332508
 20
11.8181235034
 10
-3.4518028307
 20
11.7195053817
 10
-3.4825654507
 20
11.6203858484
 10
-3.5083672102
 20
11.5212551598
 10
-3.5290777399
 20
11.4226162859
 10
-3.544592702
 20
11.3249635588
  0
LWPOLYLINE
  5
2F4
100
AcDbEntity
  8
RACCORDO
100
AcDbPolyline
 62
250
  6
CONTINUOUS
 90
22
 70
0
 10
-1.8921829737
 20
11.9600105854
 10
-1.9278939525
 20
11.9449786242
 10
-1.9633379986
 20
11.9270696102
 10
-1.9985151121
 20
11.9062835434
 10
-2.0336134191
 20
11.8824831153
 10
-2.0684447934
 20
11.8558056343
 10
-2.1024448562
 20
11.8266630263
 10
-2.1355888905
 20
11.7950207245
 10
-2.1679016132
 20
11.7609132956
 10
-2.1988927968
 20
11.7248563658
 10
-2.2285376055
 20
11.6868268254
 10
-2.256860875
 20
11.6468477841
 10
-2.2834468845
 20
11.6055041981
 10
-2.3082749097
 20
11.5627658808
 10
-2.3313656749
 20
11.5186630187
 10
-2.3523656325
 20
11.4738711276
 10
-2.3712414946
 20
11.4283691383
 10
-2.388026549
 20
11.3821781199
 10
-2.4024671119
 20
11.3360367956
 10
-2.4144786218
 20
11.2901914066
 10
-2.4241456402
 20
11.2443957118
 10
-2.431468167
 20
11.1986497111
  0
LWPOLYLINE
  5
2F5
100
AcDbEntity
  8
ASSI
100
AcDbPolyline
 62
250
  6
CONTINUOUS
 90
22
 70
0
 10
-1.8921829737
 20
11.9600105854
 10
-1.9278939525
 20
11.9449786242
 10
-1.9633379986
 20
11.9270696102
 10
-1.9985151121
 20
11.9062835434
 10
-2.0336134191
 20
11.8824831153
 10
-2.0684447934
 20
11.8558056343
 10
-2.1024448562
 20
11.8266630263
 10
-2.1355888905
 20
11.7950207245
 10
-2.1679016132
 20
11.7609132956
 10
-2.1988927968
 20
11.7248563658
 10
-2.2285376055
 20
11.6868268254
 10
-2.256860875
 20
11.6468477841
 10
-2.2834468845
 20
11.6055041981
 10
-2.3082749097
 20
11.5627658808
 10
-2.3313656749
 20
11.5186630187
 10
-2.3523656325
 20
11.4738711276
 10
-2.3712414946
 20
11.4283691383
 10
-2.388026549
 20
11.3821781199
 10
-2.4024671119
 20
11.3360367956
 10
-2.4144786218
 20
11.2901914066
 10
-2.4241456402
 20
11.2443957118
 10
-2.431468167
 20
11.1986497111
  0
LINE
  5
2F6
100
AcDbEntity
  8
RACCORDO
100
AcDbLine
 62
250
  6
CONTINUOUS
 10
1.6530224733
 20
14.4907047173
 11
-2.3986610196
 21
12.9612908697
  0
LINE
  5
2F7
100
AcDbEntity
  8
ASSI
100
AcDbLine
 62
250
  6
CONTINUOUS
 10
1.6530224733
 20
14.4907047173
 11
-2.3986610196
 21
12.9612908697
  0
LINE
  5
2F8
100
AcDbEntity
  8
RACCORDO
100
AcDbLine
 62
250
  6
CONTINUOUS
 10
2.1595005192
 20
13.489424433
 11
-1.8921829737
 21
11.9600105854
  0
LINE
  5
2F9
100
AcDbEntity
  8
ASSI
100
AcDbLine
 62
250
  6
CONTINUOUS
 10
2.1595005192
 20
13.489424433
 11
-1.8921829737
 21
11.9600105854
  0
LWPOLYLINE
  5
2FA
100
AcDbEntity
  8
RACCORDO
100
AcDbPolyline
 62
7
  6
CONTINUOUS
 90
3
 70
0
 10
-13.6729796395
 20
-13.8723526958
 10
-13.6192789304
 20
-13.8617311074
 10
-13.563523495
 20
-13.8573727425
  0
LWPOLYLINE
  5
2FB
100
AcDbEntity
  8
ASSI
100
AcDbPolyline
 62
250
  6
CONTINUOUS
 90
5
 70
0
 10
-13.7127510219
 20
-13.7936528693
 10
-13.6438382755
 20
-13.7873341201
 10
-13.5724806694
 20
-13.7890009436
 10
-13.500143263
 20
-13.7986035001
 10
-13.4273154525
 20
-13.8161256142
  0
LINE
  5
2FC
100
AcDbEntity
  8
26814000
100
AcDbLine
 62
7
  6
CONTINUOUS
 10
-10.08399274
 20
22.62516795
 11
-10.08399274
 21
24.3572187576
  0
LINE
  5
2FD
100
AcDbEntity
  8
26814000
100
AcDbLine
 62
7
  6
CONTINUOUS
 10
-9.3809997857
 20
24.4925402553
 11
-9.3809997857
 21
24.231611279
  0
LWPOLYLINE
  5
2FE
100
AcDbEntity
  8
RACCORDO
100
AcDbPolyline
 62
250
  6
CONTINUOUS
 90
6
 70
0
 10
-12.4209455329
 20
-15.534165507
 10
-12.4313004994
 20
-15.623749502
 10
-12.4476114545
 20
-15.7093928574
 10
-12.469763512
 20
-15.7911755548
 10
-12.4973285417
 20
-15.8675182968
 10
-12.5304188039
 20
-15.9383178675
  0
LWPOLYLINE
  5
2FF
100
AcDbEntity
  8
ASSI
100
AcDbPolyline
 62
250
  6
CONTINUOUS
 90
5
 70
0
 10
-12.4313004994
 20
-15.623749502
 10
-12.4476114545
 20
-15.7093928574
 10
-12.469763512
 20
-15.7911755548
 10
-12.4973285417
 20
-15.8675182968
 10
-12.5304188039
 20
-15.9383178675
  0
LINE
  5
300
100
AcDbEntity
  8
21814000
100
AcDbLine
 62
250
  6
CONTINUOUS
 10
18.8383487889
 20
19.4950936489
 11
4.3763409353
 21
12.0071698836
  0
LINE
  5
301
100
AcDbEntity
  8
21814000
100
AcDbLine
 62
250
  6
CONTINUOUS
 10
18.499385305
 20
20.6668211553
 11
4.3763409353
 21
13.644964957
  0
LINE
  5
302
100
AcDbEntity
  8
ASSI
100
AcDbLine
 62
7
  6
CONTINUOUS
 10
-13.7109889724
 20
-13.884103063
 11
-13.6238850446
 21
-13.8623852245
  0
LINE
  5
303
100
AcDbEntity
  8
26814000
100
AcDbLine
 62
7
  6
CONTINUOUS
 10
-7.906235737
 20
22.0991548182
 11
-7.906235737
 21
20.884421432
  0
LINE
  5
304
100
AcDbEntity
  8
26814000
100
AcDbLine
 62
250
  6
CONTINUOUS
 10
-7.8183677714
 20
21.9926458614
 11
-7.8183677714
 21
20.7776909953
  0
LINE
  5
305
100
AcDbEntity
  8
26814000
100
AcDbLine
 62
7
  6
CONTINUOUS
 10
-7.6444743449
 20
19.291231638
 11
-7.6444743449
 21
19.1394531263
  0
LWPOLYLINE
  5
306
100
AcDbEntity
  8
RACCORDO
100
AcDbPolyline
 62
250
  6
CONTINUOUS
 90
14
 70
0
 10
-6.52362314
 20
-24.878207503
 10
-6.5237173655
 20
-24.9702411869
 10
-6.5184625122
 20
-25.0594201149
 10
-6.5078852617
 20
-25.1452985802
 10
-6.4920384236
 20
-25.22744458
 10
-6.4710020193
 20
-25.3054514908
 10
-6.4448805743
 20
-25.3789381501
 10
-6.4137973855
 20
-25.4475451337
 10
-6.3779090805
 20
-25.5109183495
 10
-6.3374085624
 20
-25.568723507
 10
-6.2925082637
 20
-25.6206653114
 10
-6.2434255692
 20
-25.6665003132
 10
-6.190392422
 20
-25.7060135735
 10
-6.1314919016
 20
-25.7401041418
  0
LWPOLYLINE
  5
307
100
AcDbEntity
  8
ASSI
100
AcDbPolyline
 62
250
  6
CONTINUOUS
 90
14
 70
0
 10
-6.52362314
 20
-24.878207503
 10
-6.5237173655
 20
-24.9702411869
 10
-6.5184625122
 20
-25.0594201149
 10
-6.5078852617
 20
-25.1452985802
 10
-6.4920384236
 20
-25.22744458
 10
-6.4710020193
 20
-25.3054514908
 10
-6.4448805743
 20
-25.3789381501
 10
-6.4137973855
 20
-25.4475451337
 10
-6.3779090805
 20
-25.5109183495
 10
-6.3374085624
 20
-25.568723507
 10
-6.2925082637
 20
-25.6206653114
 10
-6.2434255692
 20
-25.6665003132
 10
-6.190392422
 20
-25.7060135735
 10
-6.1350189463
 20
-25.7383180326
  0
LINE
  5
308
100
AcDbEntity
  8
28414000
100
AcDbLine
 62
7
  6
CONTINUOUS
 10
-2.7378344814
 20
16.8379117062
 11
-2.7810626862
 21
16.707747297
  0
LINE
  5
309
100
AcDbEntity
  8
26814000
100
AcDbLine
 62
7
  6
CONTINUOUS
 10
3.8954442594
 20
17.3175009087
 11
3.3681995437
 21
16.6757931807
  0
LWPOLYLINE
  5
30A
100
AcDbEntity
  8
21814000
100
AcDbPolyline
 62
250
  6
CONTINUOUS
 90
32
 70
0
 10
18.946008079
 20
13.948796527
 10
18.966099184
 20
13.9547432124
 10
18.9854189837
 20
13.9585943186
 10
19.0039446029
 20
13.9603768587
 10
19.0216396028
 20
13.9599929552
 10
19.0384783352
 20
13.9576101028
 10
19.0544555274
 20
13.9536507172
 10
19.0694952716
 20
13.9481895232
 10
19.0836089147
 20
13.9412220965
 10
19.0969314449
 20
13.933042393
 10
19.1094465624
 20
13.9237475035
 10
19.1211023406
 20
13.9133181526
 10
19.1319824859
 20
13.9018733977
 10
19.1420861449
 20
13.8894893158
 10
19.1513349312
 20
13.8761864073
 10
19.1596931657
 20
13.8620061918
 10
19.1671416838
 20
13.8470261639
 10
19.1736098135
 20
13.8312863452
 10
19.1789799769
 20
13.814779847
 10
19.183227489
 20
13.7976236308
 10
19.1862772305
 20
13.7798418708
 10
19.1879235245
 20
13.7613067638
 10
19.1881569755
 20
13.7421793522
 10
19.1868627269
 20
13.7224875699
 10
19.183646496
 20
13.7019475528
 10
19.1785049677
 20
13.6807546798
 10
19.1712676115
 20
13.6589960695
 10
19.1612428338
 20
13.6362946005
 10
19.14843609
 20
13.6129276879
 10
19.1326087816
 20
13.5890287388
 10
19.1126474578
 20
13.564092157
 10
19.0909429686
 20
13.5410524263
  0
LWPOLYLINE
  5
30B
100
AcDbEntity
  8
RACCORDO
100
AcDbPolyline
 62
250
  6
CONTINUOUS
 90
22
 70
0
 10
-5.4025545239
 20
-24.9079795612
 10
-5.4025482843
 20
-24.9510812051
 10
-5.4000657011
 20
-24.9925215324
 10
-5.3951067744
 20
-25.0323005431
 10
-5.3876233613
 20
-25.0706192579
 10
-5.3776636046
 20
-25.1072766562
 10
-5.3653719326
 20
-25.1416696752
 10
-5.3507110866
 20
-25.1737483766
 10
-5.3337183252
 20
-25.2035626989
 10
-5.3146498528
 20
-25.2306593946
 10
-5.2934778638
 20
-25.2549934515
 10
-5.2702301637
 20
-25.2766098819
 10
-5.2452463743
 20
-25.2951904758
 10
-5.218494261
 20
-25.3106927931
 10
-5.1900060583
 20
-25.3231592738
 10
-5.1602180911
 20
-25.3323990283
 10
-5.1291012632
 20
-25.3383561586
 10
-5.0966846708
 20
-25.3410865626
 10
-5.0634919269
 20
-25.3405670442
 10
-5.029697569
 20
-25.3367898715
 10
-4.9951270596
 20
-25.3297627763
 10
-4.9597803985
 20
-25.3194857588
  0
LWPOLYLINE
  5
30C
100
AcDbEntity
  8
ASSI
100
AcDbPolyline
 62
250
  6
CONTINUOUS
 90
22
 70
0
 10
-5.4025545239
 20
-24.9079795612
 10
-5.4025482843
 20
-24.9510812051
 10
-5.4000657011
 20
-24.9925215324
 10
-5.3951067744
 20
-25.0323005431
 10
-5.3876233613
 20
-25.0706192579
 10
-5.3776636046
 20
-25.1072766562
 10
-5.3653719326
 20
-25.1416696752
 10
-5.3507110866
 20
-25.1737483766
 10
-5.3337183252
 20
-25.2035626989
 10
-5.3146498528
 20
-25.2306593946
 10
-5.2934778638
 20
-25.2549934515
 10
-5.2702301637
 20
-25.2766098819
 10
-5.2452463743
 20
-25.2951904758
 10
-5.218494261
 20
-25.3106927931
 10
-5.1900060583
 20
-25.3231592738
 10
-5.1602180911
 20
-25.3323990283
 10
-5.1291012632
 20
-25.3383561586
 10
-5.0966846708
 20
-25.3410865626
 10
-5.0634919269
 20
-25.3405670442
 10
-5.029697569
 20
-25.3367898715
 10
-4.9951270596
 20
-25.3297627763
 10
-4.9597803985
 20
-25.3194857588
  0
LWPOLYLINE
  5
30D
100
AcDbEntity
  8
RACCORDO
100
AcDbPolyline
 62
250
  6
CONTINUOUS
 90
13
 70
0
 10
-3.544592702
 20
11.3249635588
 10
-3.9406760114
 20
8.2587338518
 10
-4.3100098803
 20
5.2001957993
 10
-4.6525482099
 20
2.1497334767
 10
-4.9682482907
 20
-0.8922700035
 10
-5.2570705574
 20
-3.9254327801
 10
-5.5189785908
 20
-6.9493742896
 10
-5.7539393677
 20
-9.9637150023
 10
-5.9619235383
 20
-12.9680764486
 10
-6.1429051743
 20
-15.9620815043
 10
-6.2968614972
 20
-18.9453543885
 10
-6.4237728844
 20
-21.9175207125
 10
-6.52362314
 20
-24.878207503
  0
LWPOLYLINE
  5
30E
100
AcDbEntity
  8
ASSI
100
AcDbPolyline
 62
250
  6
CONTINUOUS
 90
13
 70
0
 10
-3.544592702
 20
11.3249635588
 10
-3.9406760114
 20
8.2587338518
 10
-4.3100098803
 20
5.2001957993
 10
-4.6525482099
 20
2.1497334767
 10
-4.9682482907
 20
-0.8922700035
 10
-5.2570705574
 20
-3.9254327801
 10
-5.5189785908
 20
-6.9493742896
 10
-5.7539393677
 20
-9.9637150023
 10
-5.9619235383
 20
-12.9680764486
 10
-6.1429051743
 20
-15.9620815043
 10
-6.2968614972
 20
-18.9453543885
 10
-6.4237728844
 20
-21.9175207125
 10
-6.52362314
 20
-24.878207503
  0
LWPOLYLINE
  5
30F
100
AcDbEntity
  8
21814000
100
AcDbPolyline
 62
7
  6
CONTINUOUS
 90
9
 70
0
 10
-0.8491454394
 20
20.610824552
 10
-0.8507284335
 20
20.6030074744
 10
-0.8541507938
 20
20.5927358672
 10
-0.8599145324
 20
20.5801795181
 10
-0.868233288
 20
20.5659380986
 10
-0.8789119021
 20
20.5508788451
 10
-0.8917264564
 20
20.5355094719
 10
-0.9065697402
 20
20.5200589688
 10
-0.9130066772
 20
20.5139426255
  0
LINE
  5
310
100
AcDbEntity
  8
0
100
AcDbLine
 62
7
  6
CONTINUOUS
 10
-13.2937179229
 20
-13.9171613887
 11
-13.3107552899
 21
-13.9520804991
  0
LINE
  5
311
100
AcDbEntity
  8
ASSI
100
AcDbLine
 62
7
  6
CONTINUOUS
 10
-13.2937179229
 20
-13.9171613887
 11
-13.3176494434
 21
-13.966210482
  0
LWPOLYLINE
  5
312
100
AcDbEntity
  8
RACCORDO
100
AcDbPolyline
 62
250
  6
CONTINUOUS
 90
47
 70
0
 10
9.4418422334
 20
20.0661835514
 10
9.4807750077
 20
20.1182255462
 10
9.530058226
 20
20.1750062236
 10
9.5851919006
 20
20.2305968379
 10
9.645695379
 20
20.2845393602
 10
9.7115677306
 20
20.3367922597
 10
9.7828098859
 20
20.3873970672
 10
9.8589439836
 20
20.4360203457
 10
9.9399606126
 20
20.4826480882
 10
10.025869184
 20
20.5272943018
 10
10.1162200697
 20
20.5696675709
 10
10.2112703499
 20
20.6098267689
 10
10.3107629444
 20
20.6477130224
 10
10.4134769847
 20
20.6828582955
 10
10.5198178535
 20
20.7152360154
 10
10.6293801681
 20
20.744872755
 10
10.7397269125
 20
20.7713801972
 10
10.8508314294
 20
20.7945795906
 10
10.9627203761
 20
20.8146496867
 10
11.0730367082
 20
20.8317384225
 10
11.1814271981
 20
20.8457123183
 10
11.2882450734
 20
20.8567048539
 10
11.3921929725
 20
20.8652644051
 10
11.493028807
 20
20.8713669747
 10
11.5909946652
 20
20.8750365599
 10
11.6855194516
 20
20.8768935287
 10
11.7764411917
 20
20.8769593975
 10
11.8639218598
 20
20.87521265
 10
11.9478762832
 20
20.8722091047
 10
12.0281803566
 20
20.867990304
 10
12.1049581852
 20
20.8625147055
 10
12.1784969117
 20
20.8562134999
 10
12.2487634453
 20
20.8491274661
 10
12.3157908769
 20
20.8412158252
 10
12.3799656211
 20
20.8327874311
 10
12.4412733679
 20
20.8238767905
 10
12.4997284273
 20
20.8144493967
 10
12.5557601438
 20
20.8047105829
 10
12.6093647274
 20
20.7946890612
 10
12.660545968
 20
20.7843561194
 10
12.7097445803
 20
20.7738309547
 10
12.7569637252
 20
20.7631364155
 10
12.8022002418
 20
20.7522496534
 10
12.8458853617
 20
20.7412213198
 10
12.8881628287
 20
20.7300682985
 10
12.9288888992
 20
20.7187737056
 10
12.9680635729
 20
20.7073375413
  0
LWPOLYLINE
  5
313
100
AcDbEntity
  8
RACCORDO
100
AcDbPolyline
 62
250
  6
CONTINUOUS
 90
10
 70
0
 10
9.3601883639
 20
20.0998411934
 10
9.3624830519
 20
20.1029012041
 10
9.415345703
 20
20.1636183021
 10
9.4744245735
 20
20.2228775194
 10
9.539517353
 20
20.2804854526
 10
9.6103931848
 20
20.3362589202
 10
9.6868863226
 20
20.3900868557
 10
9.7688777263
 20
20.4418880394
 10
9.8561263233
 20
20.4915056787
 10
9.8764957027
 20
20.5023746601
  0
LINE
  5
314
100
AcDbEntity
  8
26814000
100
AcDbLine
 62
7
  6
CONTINUOUS
 10
-2.6947268766
 20
16.8163579038
 11
-2.6947268766
 21
16.6645793922
  0
LINE
  5
315
100
AcDbEntity
  8
21814000
100
AcDbLine
 62
250
  6
CONTINUOUS
 10
-2.1079426689
 20
21.0250553279
 11
-2.1079426689
 21
20.5516468725
  0
LINE
  5
316
100
AcDbEntity
  8
26814000
100
AcDbLine
 62
250
  6
CONTINUOUS
 10
-2.0258587033
 20
17.8814364613
 11
-2.0258587033
 21
19.0963913273
  0
LWPOLYLINE
  5
317
100
AcDbEntity
  8
RACCORDO
100
AcDbPolyline
 62
250
  6
CONTINUOUS
 90
16
 70
0
 10
-1.8921829737
 20
11.9600105854
 10
-1.8900915588
 20
12.0362936275
 10
-1.8941098192
 20
12.1148784418
 10
-1.904193779
 20
12.1949043955
 10
-1.9202330322
 20
12.2754950682
 10
-1.9420519493
 20
12.3557678418
 10
-1.9694115981
 20
12.4348435667
 10
-2.0020123658
 20
12.5118562086
 10
-2.0394972338
 20
12.585962313
 10
-2.0814556794
 20
12.6563502372
 10
-2.1274281923
 20
12.7222490782
 10
-2.1769112931
 20
12.782937086
 10
-2.2293630312
 20
12.8377495586
 10
-2.2842089508
 20
12.8860861611
 10
-2.3408483858
 20
12.927417494
 10
-2.3986610178
 20
12.9612908704
  0
LWPOLYLINE
  5
318
100
AcDbEntity
  8
ASSI
100
AcDbPolyline
 62
250
  6
CONTINUOUS
 90
16
 70
0
 10
-1.8921829737
 20
11.9600105854
 10
-1.8900915588
 20
12.0362936275
 10
-1.8941098192
 20
12.1148784418
 10
-1.904193779
 20
12.1949043955
 10
-1.9202330322
 20
12.2754950682
 10
-1.9420519493
 20
12.3557678418
 10
-1.9694115981
 20
12.4348435667
 10
-2.0020123658
 20
12.5118562086
 10
-2.0394972338
 20
12.585962313
 10
-2.0814556794
 20
12.6563502372
 10
-2.1274281923
 20
12.7222490782
 10
-2.1769112931
 20
12.782937086
 10
-2.2293630312
 20
12.8377495586
 10
-2.2842089508
 20
12.8860861611
 10
-2.3408483858
 20
12.927417494
 10
-2.3986610178
 20
12.9612908704
  0
LINE
  5
319
100
AcDbEntity
  8
21814000
100
AcDbLine
 62
7
  6
CONTINUOUS
 10
-0.8488028534
 20
20.6156949047
 11
-0.8491454394
 21
20.610824552
  0
LWPOLYLINE
  5
31A
100
AcDbEntity
  8
RACCORDO
100
AcDbPolyline
 62
250
  6
CONTINUOUS
 90
7
 70
0
 10
-4.4006119384
 20
-7.0269535656
 10
-4.6349318584
 20
-10.0331385945
 10
-4.8423773902
 20
-13.0297497165
 10
-5.0228702509
 20
-16.0156527885
 10
-5.1763843463
 20
-18.9904697627
 10
-5.3029457706
 20
-21.954578687
 10
-5.4025545239
 20
-24.9079795612
  0
LWPOLYLINE
  5
31B
100
AcDbEntity
  8
ASSI
100
AcDbPolyline
 62
250
  6
CONTINUOUS
 90
7
 70
0
 10
-4.4006119384
 20
-7.0269535656
 10
-4.6349318584
 20
-10.0331385945
 10
-4.8423773902
 20
-13.0297497165
 10
-5.0228702509
 20
-16.0156527885
 10
-5.1763843463
 20
-18.9904697627
 10
-5.3029457706
 20
-21.954578687
 10
-5.4025545239
 20
-24.9079795612
  0
LWPOLYLINE
  5
31C
100
AcDbEntity
  8
RACCORDO
100
AcDbPolyline
 62
250
  6
CONTINUOUS
 90
7
 70
0
 10
-2.431468167
 20
11.1986497111
 10
-2.8265721733
 20
8.1399729131
 10
-3.1949108285
 20
5.0897266159
 10
-3.5364841326
 20
2.0479108194
 10
-3.8513284313
 20
-0.9858556118
 10
-4.1394073789
 20
-4.0111915421
 10
-4.4006119384
 20
-7.0269535656
  0
LWPOLYLINE
  5
31D
100
AcDbEntity
  8
ASSI
100
AcDbPolyline
 62
250
  6
CONTINUOUS
 90
7
 70
0
 10
-2.431468167
 20
11.1986497111
 10
-2.8265721733
 20
8.1399729131
 10
-3.1949108285
 20
5.0897266159
 10
-3.5364841326
 20
2.0479108194
 10
-3.8513284313
 20
-0.9858556118
 10
-4.1394073789
 20
-4.0111915421
 10
-4.4006119384
 20
-7.0269535656
  0
LWPOLYLINE
  5
31E
100
AcDbEntity
  8
RACCORDO
100
AcDbPolyline
 62
7
  6
CONTINUOUS
 90
6
 70
0
 10
-12.5323646388
 20
-15.8294018601
 10
-12.5667473406
 20
-15.8945987611
 10
-12.6060548152
 20
-15.9526625048
 10
-12.6499566226
 20
-16.0032535109
 10
-12.6979602895
 20
-16.0459993594
 10
-12.7497714071
 20
-16.0808425561
  0
LWPOLYLINE
  5
31F
100
AcDbEntity
  8
RACCORDO
100
AcDbPolyline
 62
250
  6
CONTINUOUS
 90
3
 70
0
 10
-12.5304188039
 20
-15.9383178675
 10
-12.5689261921
 20
-16.003679237
 10
-12.6120945481
 20
-16.0623364658
  0
LWPOLYLINE
  5
320
100
AcDbEntity
  8
ASSI
100
AcDbPolyline
 62
250
  6
CONTINUOUS
 90
3
 70
0
 10
-12.5304188039
 20
-15.9383178675
 10
-12.5689261921
 20
-16.003679237
 10
-12.6120945481
 20
-16.0623364658
  0
LINE
  5
321
100
AcDbEntity
  8
26814000
100
AcDbLine
 62
7
  6
CONTINUOUS
 10
0.6521523209
 20
-4.8288793938
 11
0.9822283856
 21
-4.9939174261
  0
LWPOLYLINE
  5
322
100
AcDbEntity
  8
26814000
100
AcDbPolyline
 62
7
  6
CONTINUOUS
 90
13
 70
0
 10
9.1493598951
 20
-17.4236543084
 10
9.14646873
 20
-17.4197611174
 10
9.1427799658
 20
-17.4153787772
 10
9.1383200019
 20
-17.4106214844
 10
9.1331271436
 20
-17.4054816298
 10
9.1272444865
 20
-17.399934271
 10
9.1206839523
 20
-17.3940666724
 10
9.1134770491
 20
-17.3878693645
 10
9.1056599034
 20
-17.3813242398
 10
9.097235964
 20
-17.3745033637
 10
9.0882230726
 20
-17.3674213389
 10
9.0786612272
 20
-17.3600376956
 10
9.0685814701
 20
-17.352341141
  0
LINE
  5
323
100
AcDbEntity
  8
26814000
100
AcDbLine
 62
7
  6
CONTINUOUS
 10
0.0448521305
 20
-12.2091976339
 11
0.7090149831
 21
-18.399712965
  0
LINE
  5
324
100
AcDbEntity
  8
26814000
100
AcDbLine
 62
7
  6
CONTINUOUS
 10
0.378150925
 20
-8.1587276831
 11
0.4088719745
 21
-8.4474165396
  0
LINE
  5
325
100
AcDbEntity
  8
21814000
100
AcDbLine
 62
7
  6
CONTINUOUS
 10
-0.8487979247
 20
20.6157520319
 11
-0.8487978892
 21
20.6156530557
  0
LINE
  5
326
100
AcDbEntity
  8
21814000
100
AcDbLine
 62
250
  6
CONTINUOUS
 10
-1.6950714526
 20
21.1373157532
 11
-1.6950714526
 21
20.3452112644
  0
LINE
  5
327
100
AcDbEntity
  8
26814000
100
AcDbLine
 62
7
  6
CONTINUOUS
 10
-1.6694220439
 20
22.1344102958
 11
-1.6694220439
 21
23.384681155
  0
LINE
  5
328
100
AcDbEntity
  8
26814000
100
AcDbLine
 62
250
  6
CONTINUOUS
 10
-1.6028323517
 20
17.8830753088
 11
-1.6028323517
 21
19.0972787816
  0
LINE
  5
329
100
AcDbEntity
  8
26814000
100
AcDbLine
 62
7
  6
CONTINUOUS
 10
-1.3158686533
 20
22.6553462704
 11
-1.3158686533
 21
23.2079044597
  0
LINE
  5
32A
100
AcDbEntity
  8
26814000
100
AcDbLine
 62
250
  6
CONTINUOUS
 10
-1.2451579752
 20
24.8241127572
 11
-1.2451579752
 21
23.5922785759
  0
LINE
  5
32B
100
AcDbEntity
  8
26814000
100
AcDbLine
 62
7
  6
CONTINUOUS
 10
-1.1572900095
 20
24.9291099712
 11
-1.1572900095
 21
23.6967413664
  0
LINE
  5
32C
100
AcDbEntity
  8
26814000
100
AcDbLine
 62
7
  6
CONTINUOUS
 10
-1.1037366189
 20
19.3474754548
 11
-1.1037366189
 21
18.1350398895
  0
LINE
  5
32D
100
AcDbEntity
  8
21814000
100
AcDbLine
 62
250
  6
CONTINUOUS
 10
-0.9366658539
 20
20.7581129538
 11
-0.9366658539
 21
20.4920367686
  0
LINE
  5
32E
100
AcDbEntity
  8
26814000
100
AcDbLine
 62
7
  6
CONTINUOUS
 10
-0.103502558
 20
-24.4349866022
 11
-0.103502558
 21
-24.1816152084
  0
LINE
  5
32F
100
AcDbEntity
  8
26814000
100
AcDbLine
 62
7
  6
CONTINUOUS
 10
-0.103502558
 20
17.1179889309
 11
-0.103502558
 21
17.3713603247
  0
LWPOLYLINE
  5
330
100
AcDbEntity
  8
RACCORDO
100
AcDbPolyline
 62
250
  6
CONTINUOUS
 90
11
 70
0
 10
-4.9597803985
 20
-25.3194857588
 10
-4.970046306
 20
-25.3933762148
 10
-4.986286673
 20
-25.4633202897
 10
-5.0083236356
 20
-25.5285519586
 10
-5.0359158458
 20
-25.5883568065
 10
-5.0687611147
 20
-25.6420798529
 10
-5.1064997221
 20
-25.6891327248
 10
-5.148718356
 20
-25.7290001009
 10
-5.1949546396
 20
-25.7612453551
 10
-5.2447021946
 20
-25.7855153385
 10
-5.2614829281
 20
-25.7916211868
  0
LWPOLYLINE
  5
331
100
AcDbEntity
  8
ASSI
100
AcDbPolyline
 62
250
  6
CONTINUOUS
 90
11
 70
0
 10
-4.9597803985
 20
-25.3194857588
 10
-4.970046306
 20
-25.3933762148
 10
-4.986286673
 20
-25.4633202897
 10
-5.0083236356
 20
-25.5285519586
 10
-5.0359158458
 20
-25.5883568065
 10
-5.0687611147
 20
-25.6420798529
 10
-5.1064997221
 20
-25.6891327248
 10
-5.148718356
 20
-25.7290001009
 10
-5.1949546396
 20
-25.7612453551
 10
-5.2447021946
 20
-25.7855153385
 10
-5.2614829281
 20
-25.7916211868
  0
LWPOLYLINE
  5
332
100
AcDbEntity
  8
ASSI
100
AcDbPolyline
 62
250
  6
CONTINUOUS
 90
5
 70
0
 10
-13.9365015368
 20
-14.0458733036
 10
-13.8921350969
 20
-13.9978707114
 10
-13.8437239896
 20
-13.9563733487
 10
-13.7915548998
 20
-13.9216328265
 10
-13.7359808854
 20
-13.8938794587
  0
LINE
  5
333
100
AcDbEntity
  8
21814000
100
AcDbLine
 62
7
  6
CONTINUOUS
 10
19.0909429686
 20
13.5261322086
 11
20.1616660625
 21
14.2186668658
  0
LINE
  5
334
100
AcDbEntity
  8
26814000
100
AcDbLine
 62
7
  6
CONTINUOUS
 10
0.9822283856
 20
-4.9939174261
 11
2.7146399995
 21
-21.4080783335
  0
LWPOLYLINE
  5
335
100
AcDbEntity
  8
26814000
100
AcDbPolyline
 62
7
  6
CONTINUOUS
 90
24
 70
0
 10
1.4418477934
 20
23.6987870037
 10
1.4412746089
 20
23.7332594099
 10
1.4395754959
 20
23.7670093309
 10
1.4367504544
 20
23.8000367666
 10
1.4327900198
 20
23.832398324
 10
1.4277036567
 20
23.8640373962
 10
1.4215197583
 20
23.8947841628
 10
1.4142371429
 20
23.9246196902
 10
1.4058569922
 20
23.9535629119
 10
1.396411245
 20
23.9815008079
 10
1.3858873865
 20
24.0084469707
 10
1.3742979314
 20
24.0343878077
 10
1.3617123627
 20
24.0591695205
 10
1.3481371768
 20
24.0827668219
 10
1.3335658773
 20
24.1052049992
 10
1.3180484572
 20
24.1264061165
 10
1.3015651699
 20
24.1463832064
 10
1.284135762
 20
24.1651232363
 10
1.2658694674
 20
24.1825091718
 10
1.2467808115
 20
24.1985180982
 10
1.2268552688
 20
24.2131729302
 10
1.2061584963
 20
24.2264253786
 10
1.1846659817
 20
24.2382812399
 10
-2.0445352845
 20
25.8529057502
  0
LINE
  5
336
100
AcDbEntity
  8
26814000
100
AcDbLine
 62
7
  6
CONTINUOUS
 10
0.5994903963
 20
16.2114296763
 11
0.5994903963
 21
16.6637606519
  0
LINE
  5
337
100
AcDbEntity
  8
26814000
100
AcDbLine
 62
7
  6
CONTINUOUS
 10
1.4418477934
 20
23.6987870037
 11
1.4418477934
 21
23.4279867111
  0
LINE
  5
338
100
AcDbEntity
  8
26814000
100
AcDbLine
 62
7
  6
CONTINUOUS
 10
1.5022739042
 20
16.5684720936
 11
1.5022739042
 21
16.3151006999
  0
LINE
  5
339
100
AcDbEntity
  8
26814000
100
AcDbLine
 62
7
  6
CONTINUOUS
 10
1.5022739042
 20
-24.9845034395
 11
1.5022739042
 21
-25.2378748333
  0
LINE
  5
33A
100
AcDbEntity
  8
26814000
100
AcDbLine
 62
7
  6
CONTINUOUS
 10
1.9014672011
 20
14.5426563702
 11
1.9014672011
 21
14.518260865
  0
LINE
  5
33B
100
AcDbEntity
  8
26814000
100
AcDbLine
 62
7
  6
CONTINUOUS
 10
1.9014672011
 20
-23.5868569016
 11
1.9014672011
 21
-23.6112524068
  0
LINE
  5
33C
100
AcDbEntity
  8
26814000
100
AcDbLine
 62
7
  6
CONTINUOUS
 10
2.2134945123
 20
-24.0080069624
 11
2.2134945123
 21
-23.6033848714
  0
LINE
  5
33D
100
AcDbEntity
  8
26814000
100
AcDbLine
 62
7
  6
CONTINUOUS
 10
2.2134945123
 20
15.4044276183
 11
2.2134945123
 21
16.041597177
  0
LINE
  5
33E
100
AcDbEntity
  8
RACCORDO
100
AcDbLine
 62
7
  6
CONTINUOUS
 10
-0.9226806354
 20
-23.9673031526
 11
2.1595005192
 21
13.489424433
  0
LINE
  5
33F
100
AcDbEntity
  8
ASSI
100
AcDbLine
 62
7
  6
CONTINUOUS
 10
-0.9226806354
 20
-23.9673031526
 11
2.1595005192
 21
13.489424433
  0
LINE
  5
340
100
AcDbEntity
  8
26814000
100
AcDbLine
 62
7
  6
CONTINUOUS
 10
2.7146399995
 20
13.1526550953
 11
0.9822283856
 21
-4.9939174261
  0
LWPOLYLINE
  5
341
100
AcDbEntity
  8
RACCORDO
100
AcDbPolyline
 62
250
  6
CONTINUOUS
 90
3
 70
0
 10
-12.6120945481
 20
-16.0623364658
 10
-12.6600115038
 20
-16.1141522571
 10
-12.7125953104
 20
-16.1592664119
  0
LWPOLYLINE
  5
342
100
AcDbEntity
  8
ASSI
100
AcDbPolyline
 62
250
  6
CONTINUOUS
 90
12
 70
0
 10
-12.6120945481
 20
-16.0623364658
 10
-12.6600115038
 20
-16.1141522571
 10
-12.7125953104
 20
-16.1592664119
 10
-12.7688375181
 20
-16.196829402
 10
-12.8288037867
 20
-16.2267012831
 10
-12.8924346637
 20
-16.2490246543
 10
-12.9585349183
 20
-16.2633741846
 10
-13.027193916
 20
-16.2695907506
 10
-13.0983274206
 20
-16.2678356763
 10
-13.1704798851
 20
-16.258164341
 10
-13.2431671705
 20
-16.2405956531
 10
-13.3168763282
 20
-16.2151119559
  0
LWPOLYLINE
  5
343
100
AcDbEntity
  8
21814000
100
AcDbPolyline
 62
250
  6
CONTINUOUS
 90
28
 70
0
 10
18.8383487889
 20
13.8197386555
 10
18.8546272648
 20
13.8342045443
 10
18.8706798913
 20
13.846358888
 10
18.8864734658
 20
13.8562048767
 10
18.9020045696
 20
13.8637923967
 10
18.917204989
 20
13.869076915
 10
18.9319529883
 20
13.8719152013
 10
18.9462465459
 20
13.8721332585
 10
18.9600325453
 20
13.8698989455
 10
18.9731432251
 20
13.8655706563
 10
18.9855264403
 20
13.8590734433
 10
18.9972295165
 20
13.8504593172
 10
19.0082546607
 20
13.8402708771
 10
19.0185712432
 20
13.8285664836
 10
19.0282055012
 20
13.8152662896
 10
19.037227915
 20
13.8007093492
 10
19.0456173324
 20
13.7849432457
 10
19.0533561364
 20
13.7679054049
 10
19.0604846175
 20
13.7497754222
 10
19.0669697168
 20
13.7305573782
 10
19.0727658024
 20
13.7102341334
 10
19.0778608303
 20
13.688956484
 10
19.0822008134
 20
13.6667223545
 10
19.0857311108
 20
13.6435161699
 10
19.0884085003
 20
13.6194686607
 10
19.0901597236
 20
13.5945957692
 10
19.0909169967
 20
13.5688544422
 10
19.0909426048
 20
13.5637938198
  0
LWPOLYLINE
  5
344
100
AcDbEntity
  8
21814000
100
AcDbPolyline
 62
7
  6
CONTINUOUS
 90
76
 70
0
 10
18.946008079
 20
13.948796527
 10
19.0080215073
 20
14.0004147326
 10
19.0683314003
 20
14.0510453732
 10
19.126937758
 20
14.1006884486
 10
19.1838013471
 20
14.1493130076
 10
19.2389614008
 20
14.1969500015
 10
19.2925356192
 20
14.2436922844
 10
19.3445308429
 20
14.2895427999
 10
19.3949402312
 20
14.3344986044
 10
19.4438609618
 20
14.3786437204
 10
19.4912978983
 20
14.421978679
 10
19.5372461771
 20
14.4645029491
 10
19.5817883848
 20
14.5062989598
 10
19.6249302741
 20
14.5473667572
 10
19.6666660924
 20
14.5877062952
 10
19.7070611681
 20
14.6273998654
 10
19.7461229891
 20
14.6664469888
 10
19.7838440675
 20
14.7048481444
 10
19.8202672684
 20
14.7426870606
 10
19.8554032933
 20
14.7799626543
 10
19.8892414406
 20
14.8166760086
 10
19.9217924709
 20
14.8529141006
 10
19.9530745493
 20
14.8886771308
 10
19.9830695107
 20
14.9239648988
 10
20.0117336206
 20
14.9588637805
 10
20.0390976313
 20
14.9933763614
 10
20.0651307906
 20
15.0275000561
 10
20.0896971078
 20
15.0613134837
 10
20.1128655606
 20
15.0948618493
 10
20.1345671713
 20
15.1280999479
 10
20.1544590159
 20
15.1609707843
 10
20.1726172396
 20
15.1935914248
 10
20.1889656973
 20
15.2258448029
 10
20.2029330289
 20
15.2573227246
 10
20.2144724754
 20
15.2880385822
 10
20.2236307959
 20
15.3179789832
 10
20.2299769079
 20
15.3466955558
 10
20.2334015636
 20
15.3741479322
 10
20.2340140108
 20
15.40037648
 10
20.2317109111
 20
15.4250539305
 10
20.2263267847
 20
15.4481425487
 10
20.2180271114
 20
15.4696800696
 10
20.2072049928
 20
15.489452429
 10
20.1937842161
 20
15.5073306351
 10
20.177840994
 20
15.5234436797
 10
20.1599970657
 20
15.5379644743
 10
20.1403325926
 20
15.5508425356
 10
20.1187674133
 20
15.5621283468
 10
20.0956827837
 20
15.5721462692
 10
20.0711530055
 20
15.5809247297
 10
20.045103777
 20
15.5884353013
 10
20.0176934483
 20
15.5949170651
 10
19.9889573433
 20
15.6004016378
 10
19.958860138
 20
15.6048574025
 10
19.9274542114
 20
15.6084285898
 10
19.8947589445
 20
15.6111355812
 10
19.8607549561
 20
15.6129579951
 10
19.8254364815
 20
15.6139789172
 10
19.7888157403
 20
15.6142115098
 10
19.7508805128
 20
15.6136426107
 10
19.7115883753
 20
15.6123158184
 10
19.6709448794
 20
15.6102397211
 10
19.6289444734
 20
15.6074057307
 10
19.5855280777
 20
15.6038316817
 10
19.5406998302
 20
15.5995232928
 10
19.494455593
 20
15.5944748453
 10
19.4467238733
 20
15.5886870175
 10
19.3975152807
 20
15.5821652235
 10
19.3468192056
 20
15.5749040492
 10
19.2945323266
 20
15.5668879308
 10
19.2406615376
 20
15.5581219114
 10
19.1851999448
 20
15.5486009479
 10
19.1280235454
 20
15.5382943464
 10
19.0690910053
 20
15.5271918758
 10
19.0084436587
 20
15.5153037672
 10
18.9460815056
 20
15.5026300207
  0
LWPOLYLINE
  5
345
100
AcDbEntity
  8
26814000
100
AcDbPolyline
 62
7
  6
CONTINUOUS
 90
31
 70
0
 10
3.6692341541
 20
15.4454340697
 10
3.6688944866
 20
15.4614671018
 10
3.6678780491
 20
15.477795671
 10
3.6661873158
 20
15.4943748742
 10
3.6638263112
 20
15.5111589739
 10
3.6608014996
 20
15.5281019679
 10
3.6571217671
 20
15.5451577162
 10
3.6527969141
 20
15.5622793348
 10
3.6478384842
 20
15.5794197457
 10
3.6422606337
 20
15.5965322505
 10
3.6360783895
 20
15.6135698203
 10
3.6293083992
 20
15.6304856124
 10
3.6219697408
 20
15.64723352
 10
3.6140822988
 20
15.6637675272
 10
3.6056674149
 20
15.6800421799
 10
3.5967486198
 20
15.6960130982
 10
3.587350166
 20
15.7116364123
 10
3.5774975643
 20
15.7268691762
 10
3.5672182189
 20
15.7416698305
 10
3.5565401535
 20
15.7559977317
 10
3.5454924197
 20
15.7698134998
 10
3.5341056204
 20
15.7830794198
 10
3.5224108607
 20
15.7957590758
 10
3.5104400175
 20
15.8078176237
 10
3.4982261385
 20
15.8192221225
 10
3.4858026441
 20
15.8299412806
 10
3.4732034518
 20
15.839945648
 10
3.4604632394
 20
15.8492078694
 10
3.4476169432
 20
15.8577025607
 10
3.4346996629
 20
15.8654063783
 10
3.4217467807
 20
15.8722981897
  0
LINE
  5
346
100
AcDbEntity
  8
26814000
100
AcDbLine
 62
7
  6
CONTINUOUS
 10
2.7146399995
 20
14.8025625329
 11
2.7146399995
 21
13.1526550953
  0
LINE
  5
347
100
AcDbEntity
  8
26814000
100
AcDbLine
 62
7
  6
CONTINUOUS
 10
2.7146399995
 20
-21.4080783335
 11
2.7146399995
 21
-23.0579857711
  0
LINE
  5
348
100
AcDbEntity
  8
26814000
100
AcDbLine
 62
7
  6
CONTINUOUS
 10
3.2803254244
 20
-23.0813719031
 11
3.2803254244
 21
-24.5869800293
  0
LINE
  5
349
100
AcDbEntity
  8
26814000
100
AcDbLine
 62
7
  6
CONTINUOUS
 10
3.2803254244
 20
15.9430088678
 11
3.2803254244
 21
17.6750596753
  0
LINE
  5
34A
100
AcDbEntity
  8
26814000
100
AcDbLine
 62
7
  6
CONTINUOUS
 10
3.9833183787
 20
17.8103811731
 11
3.9833183787
 21
17.5494521967
  0
LINE
  5
34B
100
AcDbEntity
  8
26814000
100
AcDbLine
 62
7
  6
CONTINUOUS
 10
3.9833183787
 20
-23.7501519426
 11
3.9833183787
 21
-24.011080919
  0
LINE
  5
34C
100
AcDbEntity
  8
26814000
100
AcDbLine
 62
250
  6
CONTINUOUS
 10
4.3105360762
 20
22.0474910651
 11
4.3105360762
 21
20.8156524868
  0
LINE
  5
34D
100
AcDbEntity
  8
21814000
100
AcDbLine
 62
7
  6
CONTINUOUS
 10
4.3763409353
 20
-18.600892186
 11
4.3763409353
 21
12.0071698836
  0
LINE
  5
34E
100
AcDbEntity
  8
26814000
100
AcDbLine
 62
7
  6
CONTINUOUS
 10
4.3763409353
 20
-22.3851520736
 11
4.3763409353
 21
15.7914297711
  0
LINE
  5
34F
100
AcDbEntity
  8
26814000
100
AcDbLine
 62
7
  6
CONTINUOUS
 10
4.3971735046
 20
22.1518784405
 11
4.3971735046
 21
20.9195099487
  0
LWPOLYLINE
  5
350
100
AcDbEntity
  8
26814000
100
AcDbPolyline
 62
7
  6
CONTINUOUS
 90
18
 70
0
 10
3.6692341541
 20
-22.7462631534
 10
3.6688955096
 20
-22.7619570294
 10
3.6678788661
 20
-22.7772690582
 10
3.6661873158
 20
-22.7921571195
 10
3.6638260986
 20
-22.8065801083
 10
3.660801687
 20
-22.8204984907
 10
3.6571217671
 20
-22.8338744129
 10
3.6527967034
 20
-22.8466710731
 10
3.6478386537
 20
-22.8588532442
 10
3.6422606337
 20
-22.8703878137
 10
3.6360781858
 20
-22.8812430375
 10
3.6293085464
 20
-22.8913890148
 10
3.6219697408
 20
-22.9007981904
 10
3.6140821073
 20
-22.9094446598
 10
3.6056675363
 20
-22.917304585
 10
3.5967486198
 20
-22.9243566475
 10
3.5873499913
 20
-22.9305814205
 10
3.57926538
 20
-22.9350756848
  0
LWPOLYLINE
  5
351
100
AcDbEntity
  8
RACCORDO
100
AcDbPolyline
 62
250
  6
CONTINUOUS
 90
7
 70
0
 10
-12.7125953104
 20
-16.1592664119
 10
-12.7688375181
 20
-16.196829402
 10
-12.8288037867
 20
-16.2267012831
 10
-12.8924346637
 20
-16.2490246543
 10
-12.9585349183
 20
-16.2633741846
 10
-13.027193916
 20
-16.2695907506
 10
-13.0983274206
 20
-16.2678356763
  0
LWPOLYLINE
  5
352
100
AcDbEntity
  8
26814000
100
AcDbPolyline
 62
7
  6
CONTINUOUS
 90
4
 70
0
 10
9.1527795083
 20
-17.431734116
 10
9.1525450027
 20
-17.429965902
 10
9.1514042266
 20
-17.4270336763
 10
9.1493598951
 20
-17.4236543084
  0
LINE
  5
353
100
AcDbEntity
  8
26814000
100
AcDbLine
 62
250
  6
CONTINUOUS
 10
9.0685814701
 20
19.7916542877
 11
9.0685814701
 21
19.5793951336
  0
LINE
  5
354
100
AcDbEntity
  8
26814000
100
AcDbLine
 62
250
  6
CONTINUOUS
 10
9.0685814701
 20
-17.1625714369
 11
9.0685814701
 21
-17.352341141
  0
LINE
  5
355
100
AcDbEntity
  8
26814000
100
AcDbLine
 62
7
  6
CONTINUOUS
 10
9.15277953
 20
20.0792751659
 11
9.15277953
 21
19.5033119764
  0
LINE
  5
356
100
AcDbEntity
  8
26814000
100
AcDbLine
 62
7
  6
CONTINUOUS
 10
9.15277953
 20
-17.1180461158
 11
9.15277953
 21
-17.4315645081
  0
LWPOLYLINE
  5
357
100
AcDbEntity
  8
26814000
100
AcDbPolyline
 62
7
  6
CONTINUOUS
 90
16
 70
0
 10
9.1527795083
 20
20.0793307935
 10
9.1525450027
 20
20.0658164852
 10
9.1514042266
 20
20.046051294
 10
9.1493598951
 20
20.0261976434
 10
9.14646873
 20
20.0062618595
 10
9.1427799658
 20
19.9862796232
 10
9.1383200019
 20
19.9663178016
 10
9.1331271436
 20
19.9463970839
 10
9.1272444865
 20
19.9265293325
 10
9.1206839523
 20
19.9067691064
 10
9.1134770491
 20
19.8871320397
 10
9.1056599034
 20
19.8676300752
 10
9.097235964
 20
19.8483144762
 10
9.0882230726
 20
19.8292117498
 10
9.0786612272
 20
19.8103212559
 10
9.0685814701
 20
19.7916542877
  0
LWPOLYLINE
  5
358
100
AcDbEntity
  8
21814000
100
AcDbPolyline
 62
7
  6
CONTINUOUS
 90
7
 70
0
 10
18.8383487889
 20
13.8197386555
 10
18.8533469044
 20
13.8440227758
 10
18.8695230597
 20
13.8671971061
 10
18.8868772548
 20
13.8892616463
 10
18.9054094897
 20
13.9102163966
 10
18.9251197645
 20
13.9300613568
 10
18.946008079
 20
13.948796527
  0
LINE
  5
359
100
AcDbEntity
  8
26814000
100
AcDbLine
 62
250
  6
CONTINUOUS
 10
0.3521003929
 20
-8.4753111786
 11
0.4088719745
 21
-8.4474165396
  0
LINE
  5
35A
100
AcDbEntity
  8
26814000
100
AcDbLine
 62
7
  6
CONTINUOUS
 10
0.3450141317
 20
-8.5614281668
 11
0.3700224776
 21
-8.5491403502
  0
LWPOLYLINE
  5
35B
100
AcDbEntity
  8
RACCORDO
100
AcDbPolyline
 62
7
  6
CONTINUOUS
 90
3
 70
0
 10
-12.7497714071
 20
-16.0808425561
 10
-12.8055756324
 20
-16.107843853
 10
-12.8164393745
 20
-16.1120028903
  0
LINE
  5
35C
100
AcDbEntity
  8
ASSI
100
AcDbLine
 62
250
  6
CONTINUOUS
 10
-13.7359808854
 20
-13.8938794587
 11
-13.7205203088
 21
-13.8876395133
  0
LINE
  5
35D
100
AcDbEntity
  8
RACCORDO
100
AcDbLine
 62
250
  6
CONTINUOUS
 10
-13.7359808854
 20
-13.8938794587
 11
-13.7153152081
 21
-13.8856735188
  0
LINE
  5
35E
100
AcDbEntity
  8
DRAFT
100
AcDbLine
 62
7
  6
CONTINUOUS
 10
-13.7152062769
 20
-14.1054633261
 11
-13.2586803644
 21
-13.9323317543
  0
LINE
  5
35F
100
AcDbEntity
  8
ASSI
100
AcDbLine
 62
250
  6
CONTINUOUS
 10
-13.7205203088
 20
-13.8876395133
 11
-13.7153152081
 21
-13.8856735188
  0
LINE
  5
360
100
AcDbEntity
  8
ASSI
100
AcDbLine
 62
7
  6
CONTINUOUS
 10
-13.7206356897
 20
-13.8876948553
 11
-13.7109889724
 21
-13.884103063
  0
LINE
  5
361
100
AcDbEntity
  8
RACCORDO
100
AcDbLine
 62
7
  6
CONTINUOUS
 10
-13.7153152081
 20
-13.8856735188
 11
-13.7141877379
 21
-13.8852564447
  0
LINE
  5
362
100
AcDbEntity
  8
RACCORDO
100
AcDbLine
 62
7
  6
CONTINUOUS
 10
-13.7142876326
 20
-13.8853076314
 11
-13.6729796395
 21
-13.8723526958
  0
LINE
  5
363
100
AcDbEntity
  8
RACCORDO
100
AcDbLine
 62
250
  6
CONTINUOUS
 10
-3.544592702
 20
11.3249635588
 11
-17.6718637434
 21
18.3885990795
  0
LINE
  5
364
100
AcDbEntity
  8
ASSI
100
AcDbLine
 62
250
  6
CONTINUOUS
 10
-3.544592702
 20
11.3249635588
 11
-17.6718637434
 21
18.3885990795
  0
LINE
  5
365
100
AcDbEntity
  8
21814000
100
AcDbLine
 62
7
  6
CONTINUOUS
 10
8.7681194253
 20
20.4674280728
 11
8.7697988536
 21
20.4376759223
  0
LWPOLYLINE
  5
366
100
AcDbEntity
  8
26814000
100
AcDbPolyline
 62
7
  6
CONTINUOUS
 90
5
 70
0
 10
9.1527795118
 20
19.5031209636
 10
9.1527668614
 20
19.5034558992
 10
9.1524724583
 20
19.504973688
 10
9.1517971233
 20
19.5066903523
 10
9.1507530304
 20
19.5086100561
  0
LWPOLYLINE
  5
367
100
AcDbEntity
  8
26814000
100
AcDbPolyline
 62
7
  6
CONTINUOUS
 90
7
 70
0
 10
9.1527330377
 20
20.0854681315
 10
9.1526414296
 20
20.0897759328
 10
9.1525022589
 20
20.0940872635
 10
9.1523155255
 20
20.0984021234
 10
9.1520812293
 20
20.1027205128
 10
9.1517993705
 20
20.1070424315
 10
9.1514699491
 20
20.1113678796
  0
LINE
  5
368
100
AcDbEntity
  8
26814000
100
AcDbLine
 62
7
  6
CONTINUOUS
 10
9.1527330377
 20
20.0854681315
 11
9.1527795083
 21
20.0793307935
  0
LINE
  5
369
100
AcDbEntity
  8
21814000
100
AcDbLine
 62
250
  6
CONTINUOUS
 10
9.5566806901
 20
21.4311783112
 11
9.5566806901
 21
21.109854029
  0
LINE
  5
36A
100
AcDbEntity
  8
21814000
100
AcDbLine
 62
7
  6
CONTINUOUS
 10
10.239390888
 20
21.0094833302
 11
10.239390888
 21
21.4424960321
  0
LINE
  5
36B
100
AcDbEntity
  8
0
100
AcDbLine
 62
7
  6
CONTINUOUS
 10
11.2068546005
 20
20.173353219
 11
11.2068546005
 21
19.7074784525
  0
LINE
  5
36C
100
AcDbEntity
  8
26814000
100
AcDbLine
 62
7
  6
CONTINUOUS
 10
9.1527330377
 20
-17.4324760708
 11
9.1527795083
 21
-17.431734116
  0
LINE
  5
36D
100
AcDbEntity
  8
ASSI
100
AcDbLine
 62
7
  6
CONTINUOUS
 10
-12.7532845381
 20
-16.0828659692
 11
-12.8329746694
 21
-16.1177538326
  0
LWPOLYLINE
  5
36E
100
AcDbEntity
  8
RACCORDO
100
AcDbPolyline
 62
250
  6
CONTINUOUS
 90
45
 70
0
 10
-13.0232933162
 20
-15.9689887176
 10
-13.0058366159
 20
-15.9622152297
 10
-12.9710830481
 20
-15.9460402582
 10
-12.93774577
 20
-15.9268300576
 10
-12.9058970297
 20
-15.9046475783
 10
-12.8755878698
 20
-15.8795345797
 10
-12.8469030513
 20
-15.8515528448
 10
-12.8199621217
 20
-15.8208100521
 10
-12.7948660201
 20
-15.7874191141
 10
-12.7716999678
 20
-15.7514937851
 10
-12.7505414164
 20
-15.7131545701
 10
-12.7314664494
 20
-15.6725419154
 10
-12.7145476566
 20
-15.6298222118
 10
-12.6998275509
 20
-15.5851161326
 10
-12.6873353821
 20
-15.5384984862
 10
-12.6771136806
 20
-15.4900714236
 10
-12.6692197903
 20
-15.4400372167
 10
-12.6636956902
 20
-15.3886276723
 10
-12.6605612388
 20
-15.3360376074
 10
-12.6598248734
 20
-15.2824262144
 10
-12.661488989
 20
-15.227984148
 10
-12.6655465344
 20
-15.1729030196
 10
-12.6719830014
 20
-15.1173637572
 10
-12.6807776641
 20
-15.0615443454
 10
-12.6919028669
 20
-15.005626823
 10
-12.7053203699
 20
-14.9498085392
 10
-12.720981653
 20
-14.8942906834
 10
-12.7388299757
 20
-14.8392694873
 10
-12.7588060074
 20
-14.7849235455
 10
-12.7808462406
 20
-14.7314253102
 10
-12.8048804552
 20
-14.6789482848
 10
-12.8308241931
 20
-14.6276796819
 10
-12.8585823445
 20
-14.577806891
 10
-12.8880537716
 20
-14.529507892
 10
-12.9191429374
 20
-14.4829357422
 10
-12.9517546148
 20
-14.4382330516
 10
-12.9858017748
 20
-14.3955249578
 10
-13.0211483066
 20
-14.3549877936
 10
-13.0576134975
 20
-14.3168215287
 10
-13.0950294056
 20
-14.2811806623
 10
-13.1333026849
 20
-14.2481334716
 10
-13.1723585299
 20
-14.2177369254
 10
-13.2120850749
 20
-14.1900801583
 10
-13.2523296943
 20
-14.1652714599
 10
-13.2929569204
 20
-14.1433940329
  0
LINE
  5
36F
100
AcDbEntity
  8
RACCORDO
100
AcDbLine
 62
7
  6
CONTINUOUS
 10
-12.8151990668
 20
-16.11155872
 11
-12.8165423347
 21
-16.1120552351
  0
LINE
  5
370
100
AcDbEntity
  8
RACCORDO
100
AcDbLine
 62
250
  6
CONTINUOUS
 10
-13.0233234471
 20
-15.968999667
 11
-13.0232933162
 21
-15.9689887176
  0
LINE
  5
371
100
AcDbEntity
  8
DRAFT
100
AcDbLine
 62
7
  6
CONTINUOUS
 10
-13.0233234487
 20
-15.9689996676
 11
-12.5151143165
 21
-15.7843407098
  0
LINE
  5
372
100
AcDbEntity
  8
ASSI
100
AcDbLine
 62
250
  6
CONTINUOUS
 10
-12.8151990668
 20
-16.11155872
 11
-12.8330280126
 21
-16.1177908902
  0
LWPOLYLINE
  5
373
100
AcDbEntity
  8
RACCORDO
100
AcDbPolyline
 62
250
  6
CONTINUOUS
 90
6
 70
0
 10
-12.8165423347
 20
-16.1120552351
 10
-12.8530285732
 20
-16.123887914
 10
-12.9140511586
 20
-16.1370656347
 10
-12.9774201538
 20
-16.1428663238
 10
-13.0426840971
 20
-16.141231328
 10
-13.109381773
 20
-16.1321830289
  0
LWPOLYLINE
  5
374
100
AcDbEntity
  8
RACCORDO
100
AcDbPolyline
 62
7
  6
CONTINUOUS
 90
13
 70
0
 10
-13.0233234457
 20
-15.9689996665
 10
-13.0576213528
 20
-15.9800558442
 10
-13.0928868741
 20
-15.988630578
 10
-13.1290172608
 20
-15.9946632021
 10
-13.1658848443
 20
-15.9981014307
 10
-13.2034016167
 20
-15.9989082602
 10
-13.2415275364
 20
-15.997046325
 10
-13.2802021597
 20
-15.9924715052
 10
-13.3192761967
 20
-15.9851549853
 10
-13.3585855815
 20
-15.9750918133
 10
-13.3980091094
 20
-15.9622848482
 10
-13.4374637033
 20
-15.9467317952
 10
-13.4768465357
 20
-15.9284405458
  0
LINE
  5
375
100
AcDbEntity
  8
RACCORDO
100
AcDbLine
 62
250
  6
CONTINUOUS
 10
-2.3986610196
 20
12.9612908697
 11
-16.5428710921
 21
20.0333959059
  0
LINE
  5
376
100
AcDbEntity
  8
ASSI
100
AcDbLine
 62
250
  6
CONTINUOUS
 10
-2.3986610196
 20
12.9612908697
 11
-16.5428710921
 21
20.0333959059
  0
LINE
  5
377
100
AcDbEntity
  8
21814000
100
AcDbLine
 62
250
  6
CONTINUOUS
 10
11.6241877814
 20
20.9024684427
 11
11.6241877814
 21
21.3612000089
  0
LINE
  5
378
100
AcDbEntity
  8
0
100
AcDbLine
 62
7
  6
CONTINUOUS
 10
11.6565992618
 20
20.0516053858
 11
11.6565992618
 21
19.698419832
  0
LINE
  5
379
100
AcDbEntity
  8
21814000
100
AcDbLine
 62
250
  6
CONTINUOUS
 10
11.7652007028
 20
20.9033987209
 11
11.7652007028
 21
21.372195906
  0
LINE
  5
37A
100
AcDbEntity
  8
21814000
100
AcDbLine
 62
7
  6
CONTINUOUS
 10
13.5688366685
 20
23.4725781039
 11
13.5688366685
 21
23.0647268366
  0
LWPOLYLINE
  5
37B
100
AcDbEntity
  8
26814000
100
AcDbPolyline
 62
7
  6
CONTINUOUS
 90
7
 70
0
 10
9.1527330377
 20
-17.4324760708
 10
9.1526414296
 20
-17.4329616783
 10
9.1525022589
 20
-17.4334738261
 10
9.1523155255
 20
-17.4340125141
 10
9.1520812293
 20
-17.4345777424
 10
9.1517993705
 20
-17.435169511
 10
9.1514699491
 20
-17.4357878199
  0
LWPOLYLINE
  5
37C
100
AcDbEntity
  8
ASSI
100
AcDbPolyline
 62
250
  6
CONTINUOUS
 90
9
 70
0
 10
-12.8330280126
 20
-16.1177908902
 10
-12.8530285732
 20
-16.123887914
 10
-12.9140511586
 20
-16.1370656347
 10
-12.9774201538
 20
-16.1428663238
 10
-13.0426840971
 20
-16.141231328
 10
-13.109381773
 20
-16.1321830289
 10
-13.1770618153
 20
-16.1157999013
 10
-13.2452898259
 20
-16.0921933655
 10
-13.3136210426
 20
-16.0615272426
  0
LWPOLYLINE
  5
37D
100
AcDbEntity
  8
RACCORDO
100
AcDbPolyline
 62
250
  6
CONTINUOUS
 90
16
 70
0
 10
-2.431468167
 20
11.1986497111
 10
-2.4930697991
 20
11.1841441337
 10
-2.5599664865
 20
11.1728631965
 10
-2.631441441
 20
11.164927773
 10
-2.7067288194
 20
11.1604228901
 10
-2.7850219286
 20
11.1593968168
 10
-2.8654818698
 20
11.1618605476
 10
-2.9472465267
 20
11.1677876837
 10
-3.0294398034
 20
11.177114717
 10
-3.1111810111
 20
11.1897417095
 10
-3.1915943052
 20
11.205533365
 10
-3.2698180692
 20
11.2243204783
 10
-3.3450141473
 20
11.2459017483
 10
-3.4163768247
 20
11.2700459351
 10
-3.483141461
 20
11.2964943373
 10
-3.5445926833
 20
11.3249635642
  0
LWPOLYLINE
  5
37E
100
AcDbEntity
  8
ASSI
100
AcDbPolyline
 62
250
  6
CONTINUOUS
 90
16
 70
0
 10
-2.431468167
 20
11.1986497111
 10
-2.4930697991
 20
11.1841441337
 10
-2.5599664865
 20
11.1728631965
 10
-2.631441441
 20
11.164927773
 10
-2.7067288194
 20
11.1604228901
 10
-2.7850219286
 20
11.1593968168
 10
-2.8654818698
 20
11.1618605476
 10
-2.9472465267
 20
11.1677876837
 10
-3.0294398034
 20
11.177114717
 10
-3.1111810111
 20
11.1897417095
 10
-3.1915943052
 20
11.205533365
 10
-3.2698180692
 20
11.2243204783
 10
-3.3450141473
 20
11.2459017483
 10
-3.4163768247
 20
11.2700459351
 10
-3.483141461
 20
11.2964943373
 10
-3.5445926833
 20
11.3249635642
  0
LWPOLYLINE
  5
37F
100
AcDbEntity
  8
21814000
100
AcDbPolyline
 62
7
  6
CONTINUOUS
 90
7
 70
0
 10
18.9460815056
 20
15.5026300207
 10
18.9251095595
 20
15.4997402886
 10
18.9053442108
 20
15.4991778709
 10
18.8867854593
 20
15.5009427677
 10
18.8694333052
 20
15.5050349788
 10
18.8532877483
 20
15.5114545044
 10
18.8383487889
 20
15.5202013443
  0
LINE
  5
380
100
AcDbEntity
  8
26814000
100
AcDbLine
 62
7
  6
CONTINUOUS
 10
2.1548216963
 20
13.4325642469
 11
2.7146399995
 21
13.1526550953
  0
LINE
  5
381
100
AcDbEntity
  8
26814000
100
AcDbLine
 62
7
  6
CONTINUOUS
 10
-0.0156284387
 20
-23.9496639204
 11
0.5631619015
 21
-23.2452201903
  0
LINE
  5
382
100
AcDbEntity
  8
RACCORDO
100
AcDbLine
 62
7
  6
CONTINUOUS
 10
-12.63070682
 20
21.6325693639
 11
1.6530224733
 21
14.4907047173
  0
LINE
  5
383
100
AcDbEntity
  8
ASSI
100
AcDbLine
 62
7
  6
CONTINUOUS
 10
-12.63070682
 20
21.6325693639
 11
1.6530224733
 21
14.4907047173
  0
LINE
  5
384
100
AcDbEntity
  8
26814000
100
AcDbLine
 62
7
  6
CONTINUOUS
 10
-13.8670140193
 20
22.4025014752
 11
1.9014672011
 21
14.518260865
  0
LINE
  5
385
100
AcDbEntity
  8
26814000
100
AcDbLine
 62
7
  6
CONTINUOUS
 10
1.6539798277
 20
14.9695204902
 11
-13.6195266459
 21
22.606273727
  0
LINE
  5
386
100
AcDbEntity
  8
26814000
100
AcDbLine
 62
7
  6
CONTINUOUS
 10
2.2134945123
 20
15.4044276183
 11
0.5994903963
 21
16.2114296763
  0
LINE
  5
387
100
AcDbEntity
  8
26814000
100
AcDbLine
 62
7
  6
CONTINUOUS
 10
-11.1508236521
 20
22.0865867005
 11
-12.7648277681
 21
22.8935887585
  0
LINE
  5
388
100
AcDbEntity
  8
26814000
100
AcDbLine
 62
7
  6
CONTINUOUS
 10
-7.8183677714
 20
20.7776909953
 11
-2.0258587033
 21
17.8814364613
  0
LINE
  5
389
100
AcDbEntity
  8
26814000
100
AcDbLine
 62
7
  6
CONTINUOUS
 10
-13.4032259764
 20
23.6651188383
 11
-11.7966924134
 21
22.8618520567
  0
LINE
  5
38A
100
AcDbEntity
  8
26814000
100
AcDbLine
 62
7
  6
CONTINUOUS
 10
-0.038907812
 20
16.9829597561
 11
1.5676257511
 21
16.1796929745
  0
LINE
  5
38B
100
AcDbEntity
  8
26814000
100
AcDbLine
 62
250
  6
CONTINUOUS
 10
-13.4678207224
 20
23.8001480132
 11
-11.8620442602
 21
22.9972597821
  0
LINE
  5
38C
100
AcDbEntity
  8
26814000
100
AcDbLine
 62
250
  6
CONTINUOUS
 10
-0.103502558
 20
17.1179889309
 11
1.5022739042
 21
16.3151006999
  0
LINE
  5
38D
100
AcDbEntity
  8
26814000
100
AcDbLine
 62
250
  6
CONTINUOUS
 10
1.5022739042
 20
16.5684720936
 11
-0.103502558
 21
17.3713603247
  0
LINE
  5
38E
100
AcDbEntity
  8
26814000
100
AcDbLine
 62
250
  6
CONTINUOUS
 10
-11.8620442602
 20
23.2506311758
 11
-13.4678207224
 21
24.0535194069
  0
LINE
  5
38F
100
AcDbEntity
  8
26814000
100
AcDbLine
 62
7
  6
CONTINUOUS
 10
-10.08399274
 20
22.62516795
 11
-7.906235737
 21
21.5362894485
  0
LINE
  5
390
100
AcDbEntity
  8
26814000
100
AcDbLine
 62
7
  6
CONTINUOUS
 10
-1.1037366189
 20
18.1350398895
 11
-0.0226146678
 21
17.5944789139
  0
LINE
  5
391
100
AcDbEntity
  8
26814000
100
AcDbLine
 62
7
  6
CONTINUOUS
 10
3.2803254244
 20
15.9430088678
 11
3.4217467807
 21
15.8722981897
  0
LWPOLYLINE
  5
392
100
AcDbEntity
  8
21814000
100
AcDbPolyline
 62
250
  6
CONTINUOUS
 90
10
 70
0
 10
19.0909429686
 20
19.8076899156
 10
19.0882366156
 20
19.7728183263
 10
19.0788864031
 20
19.7342793286
 10
19.0629276509
 20
19.696286691
 10
19.0404791324
 20
19.6591231744
 10
19.0117079212
 20
19.6230653693
 10
18.9768281479
 20
19.5883816366
 10
18.9360994057
 20
19.5553301109
 10
18.8898248195
 20
19.5241567789
 10
18.8383487889
 20
19.4950936489
  0
LINE
  5
393
100
AcDbEntity
  8
26814000
100
AcDbLine
 62
7
  6
CONTINUOUS
 10
1.5911764802
 20
-24.7530663799
 11
2.2134945123
 21
-24.0080069624
  0
LINE
  5
394
100
AcDbEntity
  8
26814000
100
AcDbLine
 62
250
  6
CONTINUOUS
 10
0.7090149831
 20
-18.399712965
 11
-0.5109034873
 21
-18.9631117414
  0
LINE
  5
395
100
AcDbEntity
  8
26814000
100
AcDbLine
 62
7
  6
CONTINUOUS
 10
0.5081613972
 20
-18.9134820217
 11
-0.5469153018
 21
-19.4007514053
  0
LINE
  5
396
100
AcDbEntity
  8
26814000
100
AcDbLine
 62
7
  6
CONTINUOUS
 10
2.2134945123
 20
16.041597177
 11
1.5911764802
 21
16.1715377595
  0
LINE
  5
397
100
AcDbEntity
  8
26814000
100
AcDbLine
 62
250
  6
CONTINUOUS
 10
1.6790446336
 20
16.8723376718
 11
0.0712232245
 21
17.6762483764
  0
LINE
  5
398
100
AcDbEntity
  8
26814000
100
AcDbLine
 62
250
  6
CONTINUOUS
 10
-11.6852735308
 20
23.5544967541
 11
-13.2930949399
 21
24.3584074586
  0
LINE
  5
399
100
AcDbEntity
  8
26814000
100
AcDbLine
 62
7
  6
CONTINUOUS
 10
-7.8183677714
 20
21.9926458614
 11
-2.0258587033
 21
19.0963913273
  0
LINE
  5
39A
100
AcDbEntity
  8
26814000
100
AcDbLine
 62
7
  6
CONTINUOUS
 10
4.1288535619
 20
16.218293891
 11
3.329121538
 21
16.618159903
  0
LINE
  5
39B
100
AcDbEntity
  8
26814000
100
AcDbLine
 62
7
  6
CONTINUOUS
 10
-8.552718623
 20
22.5590799835
 11
-10.0351966264
 21
23.3003189852
  0
LINE
  5
39C
100
AcDbEntity
  8
26814000
100
AcDbLine
 62
7
  6
CONTINUOUS
 10
-7.3262762934
 20
22.458745292
 11
-1.1037366189
 21
19.3474754548
  0
LINE
  5
39D
100
AcDbEntity
  8
26814000
100
AcDbLine
 62
7
  6
CONTINUOUS
 10
-11.7103383367
 20
25.1703915559
 11
-10.08399274
 21
24.3572187576
  0
LINE
  5
39E
100
AcDbEntity
  8
26814000
100
AcDbLine
 62
7
  6
CONTINUOUS
 10
1.6539798277
 20
18.4882324737
 11
3.2803254244
 21
17.6750596753
  0
LINE
  5
39F
100
AcDbEntity
  8
26814000
100
AcDbLine
 62
7
  6
CONTINUOUS
 10
-5.9827734091
 20
22.4890622426
 11
-1.0330259408
 21
20.0141885085
  0
LINE
  5
3A0
100
AcDbEntity
  8
26814000
100
AcDbLine
 62
250
  6
CONTINUOUS
 10
-11.175888458
 20
25.4307390225
 11
-9.5557255682
 21
24.6206575776
  0
LINE
  5
3A1
100
AcDbEntity
  8
26814000
100
AcDbLine
 62
250
  6
CONTINUOUS
 10
2.1884297064
 20
18.7485799403
 11
3.8085925962
 21
17.9384984954
  0
LINE
  5
3A2
100
AcDbEntity
  8
26814000
100
AcDbLine
 62
7
  6
CONTINUOUS
 10
-11.0644708427
 20
25.4370075857
 11
-9.4455932645
 21
24.6275687966
  0
LINE
  5
3A3
100
AcDbEntity
  8
26814000
100
AcDbLine
 62
7
  6
CONTINUOUS
 10
2.2998473217
 20
18.7548485035
 11
3.9187248999
 21
17.9454097144
  0
LWPOLYLINE
  5
3A4
100
AcDbEntity
  8
21814000
100
AcDbPolyline
 62
250
  6
CONTINUOUS
 90
15
 70
0
 10
-0.8342255064
 20
20.9758285373
 10
-0.80064353
 20
20.9565854113
 10
-0.7713269419
 20
20.9349620085
 10
-0.7462757422
 20
20.9109583287
 10
-0.7252865502
 20
20.88432598
 10
-0.7085627465
 20
20.8553133545
 10
-0.6967144733
 20
20.824665628
 10
-0.6898576797
 20
20.7923056804
 10
-0.6878764167
 20
20.7583106319
 10
-0.6910329795
 20
20.7236570196
 10
-0.6994957188
 20
20.688290931
 10
-0.7130962839
 20
20.6522662786
 10
-0.7315919187
 20
20.6167213377
 10
-0.7549017043
 20
20.5820355332
 10
-0.7831065595
 20
20.5478294401
  0
LWPOLYLINE
  5
3A5
100
AcDbEntity
  8
21814000
100
AcDbPolyline
 62
250
  6
CONTINUOUS
 90
9
 70
0
 10
-0.9366658539
 20
20.7581129538
 10
-0.9167846775
 20
20.746498963
 10
-0.8991229458
 20
20.732754481
 10
-0.8838713708
 20
20.7169897956
 10
-0.8712067871
 20
20.6992960332
 10
-0.8612630913
 20
20.6798317481
 10
-0.8541484781
 20
20.6588183961
 10
-0.8499720615
 20
20.6363537829
 10
-0.8487979247
 20
20.6157520319
  0
LWPOLYLINE
  5
3A6
100
AcDbEntity
  8
21814000
100
AcDbPolyline
 62
250
  6
CONTINUOUS
 90
13
 70
0
 10
-2.2807497988
 20
21.2463747157
 10
-2.2630388631
 20
21.2352528398
 10
-2.2449707497
 20
21.2218483517
 10
-2.2268489885
 20
21.2063864837
 10
-2.2089780031
 20
21.1891270243
 10
-2.1916579835
 20
21.17035994
 10
-2.175179845
 20
21.1504004993
 10
-2.1598203749
 20
21.1295840152
 10
-2.1458375379
 20
21.1082601565
 10
-2.1334661453
 20
21.0867870547
 10
-2.1229139714
 20
21.0655253788
 10
-2.1143582507
 20
21.0448322794
 10
-2.1079426672
 20
21.0250553292
  0
LINE
  5
3A7
100
AcDbEntity
  8
21814000
100
AcDbLine
 62
7
  6
CONTINUOUS
 10
10.4872771938
 20
17.7023446847
 11
9.7345831098
 21
19.0005499457
  0
LINE
  5
3A8
100
AcDbEntity
  8
21814000
100
AcDbLine
 62
250
  6
CONTINUOUS
 10
9.1421031784
 20
22.5067568514
 11
9.5566806901
 21
21.4311783112
  0
LINE
  5
3A9
100
AcDbEntity
  8
0
100
AcDbLine
 62
7
  6
CONTINUOUS
 10
10.7013850183
 20
19.9311132632
 11
10.4998856604
 21
20.526837689
  0
LWPOLYLINE
  5
3AA
100
AcDbEntity
  8
21814000
100
AcDbPolyline
 62
7
  6
CONTINUOUS
 90
10
 70
0
 10
19.0909429686
 20
19.8076899156
 10
19.0871380725
 20
19.9216276119
 10
19.0759919834
 20
20.0348918089
 10
19.0578536583
 20
20.1472790824
 10
19.0328985571
 20
20.2590158592
 10
19.0013515577
 20
20.3696480266
 10
18.9637302915
 20
20.4779544158
 10
18.920429056
 20
20.5834383868
 10
18.8714762744
 20
20.6863652673
 10
18.8169442289
 20
20.786609677
  0
LINE
  5
3AB
100
AcDbEntity
  8
21814000
100
AcDbLine
 62
7
  6
CONTINUOUS
 10
19.0909426048
 20
13.5637938198
 11
19.0909429303
 21
13.5633347521
  0
LINE
  5
3AC
100
AcDbEntity
  8
21814000
100
AcDbLine
 62
250
  6
CONTINUOUS
 10
18.8383487889
 20
19.4950936489
 11
18.8383487889
 21
15.5202013443
  0
LINE
  5
3AD
100
AcDbEntity
  8
21814000
100
AcDbLine
 62
250
  6
CONTINUOUS
 10
18.8383487889
 20
13.8197386555
 11
18.8383487889
 21
-11.1129684207
  0
LINE
  5
3AE
100
AcDbEntity
  8
21814000
100
AcDbLine
 62
7
  6
CONTINUOUS
 10
19.0909429686
 20
19.8076899156
 11
19.0909429686
 21
16.402004469
  0
LINE
  5
3AF
100
AcDbEntity
  8
21814000
100
AcDbLine
 62
7
  6
CONTINUOUS
 10
19.0909429686
 20
13.5630437995
 11
19.0909429686
 21
-10.800372154
  0
LINE
  5
3B0
100
AcDbEntity
  8
21814000
100
AcDbLine
 62
7
  6
CONTINUOUS
 10
19.0909428184
 20
16.4009859662
 11
19.0909427306
 21
16.4007383861
  0
LWPOLYLINE
  5
3B1
100
AcDbEntity
  8
21814000
100
AcDbPolyline
 62
250
  6
CONTINUOUS
 90
29
 70
0
 10
19.0909427306
 20
16.4007383861
 10
19.0906143598
 20
16.3572840788
 10
19.0894080438
 20
16.3055581294
 10
19.0873770852
 20
16.2552410188
 10
19.0845707311
 20
16.2063415054
 10
19.0810415274
 20
16.1588759509
 10
19.0768405876
 20
16.112845601
 10
19.0719913266
 20
16.0682357323
 10
19.0665352702
 20
16.0250615218
 10
19.0605088773
 20
15.9833200384
 10
19.0539026216
 20
15.9429705527
 10
19.0467396067
 20
15.9039856855
 10
19.0390456534
 20
15.8664039638
 10
19.0307903802
 20
15.8302863053
 10
19.0219817657
 20
15.7955868207
 10
19.0126378096
 20
15.7623640987
 10
19.0027239114
 20
15.7308390726
 10
18.9922426807
 20
15.7009807772
 10
18.9812035434
 20
15.6728353298
 10
18.9695684151
 20
15.6467425712
 10
18.9573251038
 20
15.6226854738
 10
18.9444874587
 20
15.6006998342
 10
18.9310501644
 20
15.5812067854
 10
18.917000705
 20
15.5642697314
 10
18.9023551511
 20
15.5498451925
 10
18.887155015
 20
15.5381929143
 10
18.8714211714
 20
15.5294043818
 10
18.8551495184
 20
15.5234044465
 10
18.8383487889
 20
15.5202013443
  0
LWPOLYLINE
  5
3B2
100
AcDbEntity
  8
21814000
100
AcDbPolyline
 62
250
  6
CONTINUOUS
 90
11
 70
0
 10
19.0909429686
 20
-10.800372154
 10
19.0901403289
 20
-10.8193728592
 10
19.0841577756
 20
-10.8555249157
 10
19.0723707864
 20
-10.8913185695
 10
19.0548559574
 20
-10.9265212203
 10
19.0317271064
 20
-10.9609041084
 10
19.0031345331
 20
-10.9942438014
 10
18.9692640426
 20
-11.0263236453
 10
18.9303357375
 20
-11.0569351738
 10
18.8866025883
 20
-11.0858794618
 10
18.8383487889
 20
-11.1129684189
  0
LINE
  5
3B3
100
AcDbEntity
  8
21814000
100
AcDbLine
 62
7
  6
CONTINUOUS
 10
10.4872771938
 20
-16.2648676219
 11
9.7345831098
 21
-16.810378799
  0
LWPOLYLINE
  5
3B4
100
AcDbEntity
  8
21814000
100
AcDbPolyline
 62
7
  6
CONTINUOUS
 90
3
 70
0
 10
18.079842094
 20
-12.2497942337
 10
18.1362339394
 20
-12.2156022218
 10
18.148968281
 20
-12.2066074641
  0
LWPOLYLINE
  5
3B5
100
AcDbEntity
  8
26814000
100
AcDbPolyline
 62
7
  6
CONTINUOUS
 90
25
 70
0
 10
8.4044830606
 20
-17.8956288851
 10
8.4303994709
 20
-17.8807966684
 10
8.4569017076
 20
-17.8655296917
 10
8.4839897706
 20
-17.8498279548
 10
8.5116914269
 20
-17.8336788521
 10
8.5399789096
 20
-17.8170949892
 10
8.5687689176
 20
-17.8001141833
 10
8.5980424366
 20
-17.7827476094
 10
8.627818481
 20
-17.7649840924
 10
8.6580707921
 20
-17.746827924
 10
8.6888132264
 20
-17.7282710271
 10
8.7200319275
 20
-17.7093214788
 10
8.751659067
 20
-17.6900078024
 10
8.7837058016
 20
-17.6703231676
 10
8.8161609747
 20
-17.6502744048
 10
8.8489232881
 20
-17.6299105281
 10
8.8820080622
 20
-17.6092216888
 10
8.9153999766
 20
-17.5882177357
 10
8.948951772
 20
-17.566977229
 10
8.982683087
 20
-17.5454869431
 10
9.0165742831
 20
-17.5237601036
 10
9.0504191848
 20
-17.5019149478
 10
9.0841490672
 20
-17.4799908882
 10
9.1178326553
 20
-17.4579485122
 10
9.1514699491
 20
-17.4357878199
  0
LWPOLYLINE
  5
3B6
100
AcDbEntity
  8
26814000
100
AcDbPolyline
 62
7
  6
CONTINUOUS
 90
3
 70
0
 10
8.4044830606
 20
-17.8956288851
 10
8.3698985834
 20
-17.9145045827
 10
8.3540616778
 20
-17.922605501
  0
LINE
  5
3B7
100
AcDbEntity
  8
21814000
100
AcDbLine
 62
7
  6
CONTINUOUS
 10
18.079842094
 20
-12.2497942337
 11
10.4872771938
 21
-16.2648676219
  0
LINE
  5
3B8
100
AcDbEntity
  8
21814000
100
AcDbLine
 62
7
  6
CONTINUOUS
 10
9.7345831098
 20
-16.810378799
 11
4.3763409353
 21
-19.6439055249
  0
LINE
  5
3B9
100
AcDbEntity
  8
21814000
100
AcDbLine
 62
250
  6
CONTINUOUS
 10
18.499385305
 20
-11.9457324432
 11
4.3763409353
 21
-19.399907415
  0
LINE
  5
3BA
100
AcDbEntity
  8
21814000
100
AcDbLine
 62
250
  6
CONTINUOUS
 10
18.8383487889
 20
-11.1129684207
 11
4.3763409353
 21
-18.600892186
  0
LINE
  5
3BB
100
AcDbEntity
  8
26814000
100
AcDbLine
 62
250
  6
CONTINUOUS
 10
4.3763409353
 20
-19.9175320686
 11
8.4044830606
 21
-17.8956288851
  0
LINE
  5
3BC
100
AcDbEntity
  8
26814000
100
AcDbLine
 62
7
  6
CONTINUOUS
 10
4.3763409353
 20
-19.9192001494
 11
8.3541040063
 21
-17.9225844475
  0
LINE
  5
3BD
100
AcDbEntity
  8
26814000
100
AcDbLine
 62
250
  6
CONTINUOUS
 10
4.3763409353
 20
-19.6797270379
 11
9.0685814701
 21
-17.352341141
  0
LINE
  5
3BE
100
AcDbEntity
  8
26814000
100
AcDbLine
 62
250
  6
CONTINUOUS
 10
4.3763409353
 20
-19.8016017657
 11
9.1527330377
 21
-17.4324760708
  0
LINE
  5
3BF
100
AcDbEntity
  8
26814000
100
AcDbLine
 62
7
  6
CONTINUOUS
 10
-11.1508236521
 20
22.7237562592
 11
-11.7731416842
 21
22.8536968417
  0
LWPOLYLINE
  5
3C0
100
AcDbEntity
  8
21814000
100
AcDbPolyline
 62
250
  6
CONTINUOUS
 90
8
 70
0
 10
-0.8162064843
 20
20.5141030585
 10
-0.8350311573
 20
20.521249119
 10
-0.8528848177
 20
20.5258057708
 10
-0.8694675617
 20
20.5276964715
 10
-0.8845008346
 20
20.5268894616
 10
-0.8977321092
 20
20.5233982971
 10
-0.9089391282
 20
20.5172816221
 10
-0.9130068553
 20
20.5139428186
  0
LINE
  5
3C1
100
AcDbEntity
  8
21814000
100
AcDbLine
 62
250
  6
CONTINUOUS
 10
-1.2513008049
 20
22.0802509546
 11
-1.2478599754
 21
22.0786376877
  0
LINE
  5
3C2
100
AcDbEntity
  8
21814000
100
AcDbLine
 62
250
  6
CONTINUOUS
 10
-1.6950714526
 20
21.1373157532
 11
-0.9366658539
 21
20.7581129538
  0
LINE
  5
3C3
100
AcDbEntity
  8
21814000
100
AcDbLine
 62
250
  6
CONTINUOUS
 10
-1.5926311051
 20
21.3550313366
 11
-0.8342255064
 21
20.9758285373
  0
LINE
  5
3C4
100
AcDbEntity
  8
21814000
100
AcDbLine
 62
7
  6
CONTINUOUS
 10
-2.3058181461
 20
21.9553827179
 11
0.2811360395
 21
20.6619056251
  0
LINE
  5
3C5
100
AcDbEntity
  8
21814000
100
AcDbLine
 62
250
  6
CONTINUOUS
 10
0.888523756
 20
20.9612716288
 11
-1.3360757341
 21
22.0735713739
  0
LINE
  5
3C6
100
AcDbEntity
  8
21814000
100
AcDbLine
 62
7
  6
CONTINUOUS
 10
0.9380508478
 20
20.9856822766
 11
-1.2478671335
 21
22.0786412672
  0
LINE
  5
3C7
100
AcDbEntity
  8
26814000
100
AcDbLine
 62
7
  6
CONTINUOUS
 10
1.484649804
 20
21.2550870418
 11
-1.3158686533
 21
22.6553462704
  0
LINE
  5
3C8
100
AcDbEntity
  8
26814000
100
AcDbLine
 62
7
  6
CONTINUOUS
 10
-1.6694220439
 20
23.384681155
 11
-1.3158686533
 21
23.2079044597
  0
LWPOLYLINE
  5
3C9
100
AcDbEntity
  8
26814000
100
AcDbPolyline
 62
7
  6
CONTINUOUS
 90
20
 70
0
 10
9.1507530304
 20
19.5086100561
 10
9.1493528787
 20
19.5107411209
 10
9.1476064524
 20
19.5130495683
 10
9.1455248425
 20
19.5155392073
 10
9.1431198781
 20
19.5182166502
 10
9.1403997862
 20
19.5210518661
 10
9.137374855
 20
19.5240483925
 10
9.1340563536
 20
19.5272114707
 10
9.1304521967
 20
19.5305134631
 10
9.1265723398
 20
19.5339574459
 10
9.1224276683
 20
19.5375476902
 10
9.1180264356
 20
19.5412581898
 10
9.1133780971
 20
19.5450917817
 10
9.1084936431
 20
19.5490516553
 10
9.1033832548
 20
19.5531120756
 10
9.0980563797
 20
19.5572752909
 10
9.0925241764
 20
19.5615436623
 10
9.0867997051
 20
19.5658911618
 10
9.0808945217
 20
19.570310044
 10
9.0685814701
 20
19.5793951336
  0
LWPOLYLINE
  5
3CA
100
AcDbEntity
  8
21814000
100
AcDbPolyline
 62
250
  6
CONTINUOUS
 90
11
 70
0
 10
18.5991993256
 20
-11.8562435137
 10
18.6433112372
 20
-11.8029061412
 10
18.6833023324
 20
-11.7441367808
 10
18.7190014609
 20
-11.6801871428
 10
18.7502558833
 20
-11.611331002
 10
18.7769317554
 20
-11.5378634203
 10
18.7989149692
 20
-11.460098886
 10
18.8161115667
 20
-11.3783697036
 10
18.8284478612
 20
-11.2930255294
 10
18.8358708908
 20
-11.2044319937
 10
18.8383487889
 20
-11.1129684207
  0
LWPOLYLINE
  5
3CB
100
AcDbEntity
  8
21814000
100
AcDbPolyline
 62
250
  6
CONTINUOUS
 90
3
 70
0
 10
18.499385305
 20
-11.9457324432
 10
18.5511554563
 20
-11.9039203665
 10
18.5991993256
 20
-11.8562435137
  0
LWPOLYLINE
  5
3CC
100
AcDbEntity
  8
21814000
100
AcDbPolyline
 62
7
  6
CONTINUOUS
 90
13
 70
0
 10
18.5664961397
 20
-11.9040065237
 10
18.6410508638
 20
-11.8452829451
 10
18.7118437127
 20
-11.7796685495
 10
18.778219154
 20
-11.7073469816
 10
18.8394797843
 20
-11.6286726851
 10
18.8951080596
 20
-11.5439122329
 10
18.9447511714
 20
-11.4531015815
 10
18.9879523414
 20
-11.3564044271
 10
19.024131663
 20
-11.2543766524
 10
19.0528610174
 20
-11.1474531442
 10
19.0737968514
 20
-11.0359266328
 10
19.0866016673
 20
-10.9201135639
 10
19.0909429686
 20
-10.800372154
  0
LINE
  5
3CD
100
AcDbEntity
  8
21814000
100
AcDbLine
 62
250
  6
CONTINUOUS
 10
18.499385305
 20
-11.9457324432
 11
18.079842094
 21
-12.2497942337
  0
LINE
  5
3CE
100
AcDbEntity
  8
21814000
100
AcDbLine
 62
7
  6
CONTINUOUS
 10
18.5664961396
 20
-11.9040065237
 11
18.1501153001
 21
-12.2057764017
  0
LWPOLYLINE
  5
3CF
100
AcDbEntity
  8
21814000
100
AcDbPolyline
 62
250
  6
CONTINUOUS
 90
3
 70
0
 10
18.5664961396
 20
-11.9040065237
 10
18.5482076791
 20
-11.9167111537
 10
18.499385305
 20
-11.9457324432
  0
LINE
  5
3D0
100
AcDbEntity
  8
26814000
100
AcDbLine
 62
7
  6
CONTINUOUS
 10
2.7146399995
 20
-23.0579857711
 11
1.9014672011
 21
-23.5868569016
  0
LINE
  5
3D1
100
AcDbEntity
  8
26814000
100
AcDbLine
 62
250
  6
CONTINUOUS
 10
3.6692341541
 20
-22.7462631534
 11
4.3763409353
 21
-22.3851520736
  0
LINE
  5
3D2
100
AcDbEntity
  8
26814000
100
AcDbLine
 62
7
  6
CONTINUOUS
 10
3.579270186
 20
-22.93507323
 11
4.2863769682
 21
-22.5739621497
  0
LINE
  5
3D3
100
AcDbEntity
  8
26814000
100
AcDbLine
 62
7
  6
CONTINUOUS
 10
3.57926538
 20
-22.9350756848
 11
3.5772577831
 21
-22.9360793922
  0
LINE
  5
3D4
100
AcDbEntity
  8
26814000
100
AcDbLine
 62
250
  6
CONTINUOUS
 10
1.9014672011
 20
-23.6112524068
 11
3.6692341541
 21
-22.7462631534
  0
LINE
  5
3D5
100
AcDbEntity
  8
26814000
100
AcDbLine
 62
7
  6
CONTINUOUS
 10
1.8094862821
 20
-23.8010708711
 11
3.5772532365
 21
-22.9360816169
  0
LWPOLYLINE
  5
3D6
100
AcDbEntity
  8
RACCORDO
100
AcDbPolyline
 62
250
  6
CONTINUOUS
 90
16
 70
0
 10
-5.4025545239
 20
-24.9079795611
 10
-5.4649771098
 20
-24.9324657999
 10
-5.5326858096
 20
-24.9536204734
 10
-5.6049551452
 20
-24.9712169156
 10
-5.6810107725
 20
-24.9850665861
 10
-5.7600377782
 20
-24.9950210896
 10
-5.8411894118
 20
-25.0009737669
 10
-5.9235961582
 20
-25.0028608366
 10
-6.0063750539
 20
-25.0006620795
 10
-6.0886391479
 20
-24.9944010546
 10
-6.1695070054
 20
-24.9841448468
 10
-6.2481121516
 20
-24.9700033483
 10
-6.3236123562
 20
-24.9521280813
 10
-6.3951986571
 20
-24.9307105738
 10
-6.4621040288
 20
-24.9059803079
 10
-6.5236116005
 20
-24.8782022611
  0
LWPOLYLINE
  5
3D7
100
AcDbEntity
  8
ASSI
100
AcDbPolyline
 62
250
  6
CONTINUOUS
 90
16
 70
0
 10
-5.4025545239
 20
-24.9079795611
 10
-5.4649771098
 20
-24.9324657999
 10
-5.5326858096
 20
-24.9536204734
 10
-5.6049551452
 20
-24.9712169156
 10
-5.6810107725
 20
-24.9850665861
 10
-5.7600377782
 20
-24.9950210896
 10
-5.8411894118
 20
-25.0009737669
 10
-5.9235961582
 20
-25.0028608366
 10
-6.0063750539
 20
-25.0006620795
 10
-6.0886391479
 20
-24.9944010546
 10
-6.1695070054
 20
-24.9841448468
 10
-6.2481121516
 20
-24.9700033483
 10
-6.3236123562
 20
-24.9521280813
 10
-6.3951986571
 20
-24.9307105738
 10
-6.4621040288
 20
-24.9059803079
 10
-6.5236116005
 20
-24.8782022611
  0
LINE
  5
3D8
100
AcDbEntity
  8
RACCORDO
100
AcDbLine
 62
250
  6
CONTINUOUS
 10
-4.9597803985
 20
-25.3194857588
 11
-0.9226806354
 21
-23.9673031526
  0
LINE
  5
3D9
100
AcDbEntity
  8
ASSI
100
AcDbLine
 62
250
  6
CONTINUOUS
 10
-4.9597803985
 20
-25.3194857588
 11
-0.9226806354
 21
-23.9673031526
  0
LWPOLYLINE
  5
3DA
100
AcDbEntity
  8
21814000
100
AcDbPolyline
 62
7
  6
CONTINUOUS
 90
6
 70
0
 10
-2.3619748566
 20
21.9695152649
 10
-2.3522948463
 20
21.9691778509
 10
-2.3418836499
 20
21.9677229803
 10
-2.3307626102
 20
21.9650457539
 10
-2.3189461692
 20
21.9610685774
 10
-2.3064770205
 20
21.9557121551
  0
LWPOLYLINE
  5
3DB
100
AcDbEntity
  8
21814000
100
AcDbPolyline
 62
7
  6
CONTINUOUS
 90
10
 70
0
 10
-1.3733042569
 20
22.1105180241
 10
-1.4544267153
 20
22.1222383788
 10
-1.5367003344
 20
22.13014163
 10
-1.6194933959
 20
22.1342305935
 10
-1.7023725667
 20
22.1345288907
 10
-1.7851023967
 20
22.1310368953
 10
-1.867153143
 20
22.1237412977
 10
-1.9479855745
 20
22.1126369987
 10
-2.0273837778
 20
22.0976569459
 10
-2.104934608
 20
22.0787200968
  0
LWPOLYLINE
  5
3DC
100
AcDbEntity
  8
26814000
100
AcDbPolyline
 62
7
  6
CONTINUOUS
 90
13
 70
0
 10
8.4044830606
 20
20.5926277632
 10
8.3698322506
 20
20.5990574443
 10
8.3346280276
 20
20.6044405971
 10
8.2989081757
 20
20.608802738
 10
8.2626828588
 20
20.6121966611
 10
8.2260151207
 20
20.6146264108
 10
8.1890189108
 20
20.6160376399
 10
8.1517318758
 20
20.6164477749
 10
8.1141808939
 20
20.6158838933
 10
8.0764601931
 20
20.6142919052
 10
8.0386208183
 20
20.6116628142
 10
8.0006716321
 20
20.608040833
 10
7.9626421926
 20
20.6034460435
  0
LWPOLYLINE
  5
3DD
100
AcDbEntity
  8
21814000
100
AcDbPolyline
 62
250
  6
CONTINUOUS
 90
13
 70
0
 10
-1.3360757341
 20
22.0735713739
 10
-1.405797964
 20
22.0871461186
 10
-1.4765397629
 20
22.0974096197
 10
-1.5483011308
 20
22.1043618773
 10
-1.6217405071
 20
22.1080122519
 10
-1.6961994523
 20
22.1083513829
 10
-1.7697026481
 20
22.1053511883
 10
-1.8422271583
 20
22.0989066266
 10
-1.913795919
 20
22.0891227393
 10
-1.9825024203
 20
22.0762865688
 10
-2.0477111587
 20
22.0604937959
 10
-2.1100576376
 20
22.0416487399
 10
-2.1695418571
 20
22.0197514007
  0
LINE
  5
3DE
100
AcDbEntity
  8
21814000
100
AcDbLine
 62
7
  6
CONTINUOUS
 10
-1.2938805648
 20
22.0949836369
 11
-1.3733042569
 21
22.1105180241
  0
LWPOLYLINE
  5
3DF
100
AcDbEntity
  8
21814000
100
AcDbPolyline
 62
250
  6
CONTINUOUS
 90
4
 70
0
 10
-1.7120085922
 20
21.3936606333
 10
-1.6698854568
 20
21.3841097505
 10
-1.6300929611
 20
21.3712333183
 10
-1.5926311051
 20
21.3550313366
  0
LWPOLYLINE
  5
3E0
100
AcDbEntity
  8
21814000
100
AcDbPolyline
 62
7
  6
CONTINUOUS
 90
7
 70
0
 10
-1.2938874225
 20
22.0949851613
 10
-1.2860267397
 20
22.0930691558
 10
-1.2769306868
 20
22.0904240128
 10
-1.2679673031
 20
22.0873501008
 10
-1.2591470201
 20
22.0838497496
 10
-1.2504895587
 20
22.0799286241
 10
-1.2478490005
 20
22.0786321977
  0
LINE
  5
3E1
100
AcDbEntity
  8
0
100
AcDbLine
 62
7
  6
CONTINUOUS
 10
11.6565992618
 20
20.0516053858
 11
11.2068546005
 21
20.173353219
  0
LWPOLYLINE
  5
3E2
100
AcDbEntity
  8
26814000
100
AcDbPolyline
 62
7
  6
CONTINUOUS
 90
10
 70
0
 10
8.6507981602
 20
20.5052502913
 10
8.627818481
 20
20.5164417235
 10
8.5980424366
 20
20.5300181652
 10
8.5687689176
 20
20.542403782
 10
8.5399789096
 20
20.5536055785
 10
8.5116914269
 20
20.56361655
 10
8.4839897706
 20
20.5725162945
 10
8.4569017076
 20
20.5803313445
 10
8.4303994709
 20
20.5870351674
 10
8.4044830606
 20
20.5926277632
  0
LINE
  5
3E3
100
AcDbEntity
  8
26814000
100
AcDbLine
 62
7
  6
CONTINUOUS
 10
2.8924655002
 20
21.9489637002
 11
0.0819158532
 21
23.3542385237
  0
LINE
  5
3E4
100
AcDbEntity
  8
21814000
100
AcDbLine
 62
7
  6
CONTINUOUS
 10
9.7345831098
 20
19.0005499457
 11
8.9467944622
 21
19.3944442696
  0
LINE
  5
3E5
100
AcDbEntity
  8
26814000
100
AcDbLine
 62
7
  6
CONTINUOUS
 10
1.4418477934
 20
23.4279867111
 11
3.6515886815
 21
22.323116267
  0
LINE
  5
3E6
100
AcDbEntity
  8
26814000
100
AcDbLine
 62
7
  6
CONTINUOUS
 10
4.3971735046
 20
21.9503238554
 11
4.5429869147
 21
21.8774171504
  0
LINE
  5
3E7
100
AcDbEntity
  8
26814000
100
AcDbLine
 62
7
  6
CONTINUOUS
 10
-1.4256099523
 20
25.1249592636
 11
-1.2451579752
 21
25.0347332751
  0
LINE
  5
3E8
100
AcDbEntity
  8
26814000
100
AcDbLine
 62
7
  6
CONTINUOUS
 10
4.1288535619
 20
22.3477275066
 11
4.309305539
 21
22.257501518
  0
LINE
  5
3E9
100
AcDbEntity
  8
26814000
100
AcDbLine
 62
250
  6
CONTINUOUS
 10
-2.2381782963
 20
25.703856288
 11
0.7409116046
 21
24.2143113375
  0
LINE
  5
3EA
100
AcDbEntity
  8
26814000
100
AcDbLine
 62
250
  6
CONTINUOUS
 10
4.9835522917
 20
22.092990994
 11
7.9626421926
 21
20.6034460435
  0
LINE
  5
3EB
100
AcDbEntity
  8
26814000
100
AcDbLine
 62
7
  6
CONTINUOUS
 10
5.4245952948
 20
22.1183404606
 11
8.6510851869
 21
20.5050955145
  0
LINE
  5
3EC
100
AcDbEntity
  8
0
100
AcDbLine
 62
7
  6
CONTINUOUS
 10
10.7118798536
 20
19.9258658455
 11
10.9257723076
 21
19.7283325779
  0
LWPOLYLINE
  5
3ED
100
AcDbEntity
  8
26814000
100
AcDbPolyline
 62
7
  6
CONTINUOUS
 90
17
 70
0
 10
9.1514699491
 20
20.1113678796
 10
9.1178326553
 20
20.1474300301
 10
9.0841490672
 20
20.1820686897
 10
9.0504191848
 20
20.2152838585
 10
9.0165742831
 20
20.2470911625
 10
8.982683087
 20
20.2774749756
 10
8.948951772
 20
20.3063884197
 10
8.9153999766
 20
20.333807595
 10
8.8820080622
 20
20.3597564013
 10
8.8489232881
 20
20.3842596598
 10
8.8161609747
 20
20.4073033667
 10
8.7837058016
 20
20.4289015258
 10
8.751659067
 20
20.4491209698
 10
8.7200319275
 20
20.4679548838
 10
8.6888132264
 20
20.4854100828
 10
8.6580707921
 20
20.5015738443
 10
8.6507981602
 20
20.5052502913
  0
LINE
  5
3EE
100
AcDbEntity
  8
21814000
100
AcDbLine
 62
7
  6
CONTINUOUS
 10
13.5597212098
 20
23.496471905
 11
13.5688366685
 21
23.4725781039
  0
LINE
  5
3EF
100
AcDbEntity
  8
26814000
100
AcDbLine
 62
7
  6
CONTINUOUS
 10
3.2803254244
 20
-24.5869800293
 11
3.8085925962
 21
-24.3159689707
  0
LINE
  5
3F0
100
AcDbEntity
  8
26814000
100
AcDbLine
 62
7
  6
CONTINUOUS
 10
1.6790446336
 20
-25.367014629
 11
3.2803254244
 21
-24.5869800293
  0
LINE
  5
3F1
100
AcDbEntity
  8
RACCORDO
100
AcDbLine
 62
7
  6
CONTINUOUS
 10
-1.2205179391
 20
-24.4381439652
 11
-5.2619565729
 21
-25.7917794492
  0
LINE
  5
3F2
100
AcDbEntity
  8
ASSI
100
AcDbLine
 62
7
  6
CONTINUOUS
 10
-1.2205179391
 20
-24.4381439652
 11
-5.2632558207
 21
-25.7922096849
  0
LINE
  5
3F3
100
AcDbEntity
  8
26814000
100
AcDbLine
 62
7
  6
CONTINUOUS
 10
0.0819158532
 20
23.3542385237
 11
1.4418477934
 21
23.4279867111
  0
LWPOLYLINE
  5
3F4
100
AcDbEntity
  8
RACCORDO
100
AcDbPolyline
 62
7
  6
CONTINUOUS
 90
9
 70
0
 10
13.0496620606
 20
20.7184526155
 10
13.04354532
 20
20.7200521132
 10
13.0337751063
 20
20.7215849271
 10
13.0234489108
 20
20.7220003715
 10
13.0126617137
 20
20.721298599
 10
13.0016984547
 20
20.7194800677
 10
12.990654114
 20
20.7165449301
 10
12.9794337115
 20
20.7124930338
 10
12.9680372473
 20
20.7073243785
  0
LWPOLYLINE
  5
3F5
100
AcDbEntity
  8
RACCORDO
100
AcDbPolyline
 62
7
  6
CONTINUOUS
 90
28
 70
0
 10
13.0496519243
 20
20.7184286631
 10
12.9409365778
 20
20.7497145089
 10
12.8260815348
 20
20.7790681859
 10
12.7088201108
 20
20.8053952561
 10
12.589446946
 20
20.8286573478
 10
12.4682265744
 20
20.8488279006
 10
12.3453972049
 20
20.8658871759
 10
12.2212484075
 20
20.8798110175
 10
12.0960649444
 20
20.8905816865
 10
11.9700844269
 20
20.8981890862
 10
11.8435980408
 20
20.9026224649
 10
11.7168953179
 20
20.9038770196
 10
11.5902135724
 20
20.9019522465
 10
11.4638423026
 20
20.8968509115
 10
11.3380727121
 20
20.8885816993
 10
11.2131431127
 20
20.8771538239
 10
11.0893442381
 20
20.8625839916
 10
10.9669594857
 20
20.84489397
 10
10.8462110495
 20
20.8240997947
 10
10.7273761284
 20
20.8002281947
 10
10.610740305
 20
20.7733131429
 10
10.496528732
 20
20.7433783756
 10
10.3850135538
 20
20.7104612717
 10
10.2764673574
 20
20.6746046369
 10
10.1711004658
 20
20.6358330193
 10
10.0691536833
 20
20.5941802109
 10
9.9709075459
 20
20.5496994364
 10
9.8766234847
 20
20.502442047
  0
LWPOLYLINE
  5
3F6
100
AcDbEntity
  8
RACCORDO
100
AcDbPolyline
 62
7
  6
CONTINUOUS
 90
3
 70
0
 10
13.0617027423
 20
20.7136348349
 10
13.052854532
 20
20.7174020825
 10
13.0496620606
 20
20.7184526155
  0
LWPOLYLINE
  5
3F7
100
AcDbEntity
  8
26814000
100
AcDbPolyline
 62
7
  6
CONTINUOUS
 90
18
 70
0
 10
1.1819643216
 20
24.2396449844
 10
1.1624022373
 20
24.2487347175
 10
1.1395064571
 20
24.2577201321
 10
1.1159971709
 20
24.2652223649
 10
1.0918558488
 20
24.2712565347
 10
1.0671660954
 20
24.2758023191
 10
1.0419046692
 20
24.2788563026
 10
1.0160948117
 20
24.2804219005
 10
0.9898898528
 20
24.2804890371
 10
0.9633058902
 20
24.2790502611
 10
0.9363268262
 20
24.2761130238
 10
0.9090576976
 20
24.2716896025
 10
0.8814835179
 20
24.2657712169
 10
0.8536192736
 20
24.2583666474
 10
0.8256149606
 20
24.2495145128
 10
0.7975205774
 20
24.2392276861
 10
0.7692861254
 20
24.2274932943
 10
0.7409116046
 20
24.2143113375
  0
LINE
  5
3F8
100
AcDbEntity
  8
0
100
AcDbLine
 62
7
  6
CONTINUOUS
 10
10.7118798536
 20
19.9258658455
 11
10.0049109135
 21
20.2793503156
  0
LINE
  5
3F9
100
AcDbEntity
  8
0
100
AcDbLine
 62
7
  6
CONTINUOUS
 10
11.2068546005
 20
20.173353219
 11
10.4998856604
 21
20.526837689
  0
LINE
  5
3FA
100
AcDbEntity
  8
21814000
100
AcDbLine
 62
7
  6
CONTINUOUS
 10
10.239390888
 20
21.0094833302
 11
9.8007804155
 21
21.2287885665
  0
LINE
  5
3FB
100
AcDbEntity
  8
RACCORDO
100
AcDbLine
 62
7
  6
CONTINUOUS
 10
13.9102308798
 20
20.2893707662
 11
14.023005765
 21
20.2328784401
  0
LWPOLYLINE
  5
3FC
100
AcDbEntity
  8
RACCORDO
100
AcDbPolyline
 62
7
  6
CONTINUOUS
 90
10
 70
0
 10
13.8722868125
 20
20.3020384212
 10
13.7748097588
 20
20.3520938529
 10
13.679196557
 20
20.4010697285
 10
13.585447207
 20
20.4489660481
 10
13.4935761257
 20
20.4957842359
 10
13.4035688963
 20
20.5415228676
 10
13.3153822683
 20
20.5861776706
 10
13.2290018249
 20
20.6297472208
 10
13.1444419829
 20
20.6722329422
 10
13.0617027423
 20
20.7136348349
  0
LINE
  5
3FD
100
AcDbEntity
  8
RACCORDO
100
AcDbLine
 62
7
  6
CONTINUOUS
 10
13.8800452411
 20
20.2974519491
 11
13.8722868125
 21
20.3020384212
  0
LWPOLYLINE
  5
3FE
100
AcDbEntity
  8
RACCORDO
100
AcDbPolyline
 62
250
  6
CONTINUOUS
 90
5
 70
0
 10
13.9102308798
 20
20.2893707662
 10
13.9347538701
 20
20.2688663878
 10
13.9591196317
 20
20.2475881234
 10
13.9832563819
 20
20.2255258461
 10
13.9914052093
 20
20.2177118765
  0
LWPOLYLINE
  5
3FF
100
AcDbEntity
  8
RACCORDO
100
AcDbPolyline
 62
250
  6
CONTINUOUS
 90
4
 70
0
 10
13.8165942806
 20
20.2830747578
 10
13.83945471
 20
20.2634960243
 10
13.8620322483
 20
20.2431429778
 10
13.8843268955
 20
20.2220156182
  0
LINE
  5
400
100
AcDbEntity
  8
RACCORDO
100
AcDbLine
 62
250
  6
CONTINUOUS
 10
13.8843268955
 20
20.2220156182
 11
13.9063723938
 21
20.2001857312
  0
LINE
  5
401
100
AcDbEntity
  8
RACCORDO
100
AcDbLine
 62
250
  6
CONTINUOUS
 10
13.9063723938
 20
20.2001857312
 11
13.921705433
 21
20.1842597404
  0
LWPOLYLINE
  5
402
100
AcDbEntity
  8
21814000
100
AcDbPolyline
 62
250
  6
CONTINUOUS
 90
35
 70
0
 10
19.0909429686
 20
17.0930094706
 10
19.1025404949
 20
17.0561345501
 10
19.1224780023
 20
16.9832206786
 10
19.1387919994
 20
16.9122489282
 10
19.1523877597
 20
16.8431825932
 10
19.1634455165
 20
16.7762037239
 10
19.1719728915
 20
16.7112802225
 10
19.178572573
 20
16.6480286593
 10
19.1833849869
 20
16.586469971
 10
19.1864045263
 20
16.5266751653
 10
19.1879766644
 20
16.4683164604
 10
19.1881928433
 20
16.411345731
 10
19.1870618963
 20
16.3558693377
 10
19.1847840683
 20
16.3017812358
 10
19.1814229227
 20
16.2490667223
 10
19.1770003466
 20
16.1977805979
 10
19.1716454295
 20
16.1479166614
 10
19.1654166901
 20
16.0995004178
 10
19.1583329219
 20
16.052534463
 10
19.1504588382
 20
16.0069754179
 10
19.141852154
 20
15.9628387918
 10
19.1325231184
 20
15.9201276817
 10
19.1224611999
 20
15.8787776535
 10
19.1117116083
 20
15.8387500966
 10
19.1002880535
 20
15.8000950606
 10
19.0881320842
 20
15.7628793845
 10
19.0752796407
 20
15.7270523342
 10
19.061749753
 20
15.6926716483
 10
19.0474625604
 20
15.6599660855
 10
19.0324511026
 20
15.6288984406
 10
19.0167350043
 20
15.599510796
 10
19.0002199199
 20
15.5721509257
 10
18.9828916419
 20
15.5469366624
 10
18.964810807
 20
15.5237556865
 10
18.9459949781
 20
15.5026111534
  0
LINE
  5
403
100
AcDbEntity
  8
21814000
100
AcDbLine
 62
7
  6
CONTINUOUS
 10
14.469303868
 20
20.7697469556
 11
13.7428064793
 21
21.13299565
  0
LINE
  5
404
100
AcDbEntity
  8
21814000
100
AcDbLine
 62
7
  6
CONTINUOUS
 10
14.2864742076
 20
20.8768216384
 11
13.9823548237
 21
21.0288813304
  0
LINE
  5
405
100
AcDbEntity
  8
21814000
100
AcDbLine
 62
7
  6
CONTINUOUS
 10
16.6810742414
 20
21.5086080502
 11
13.5688366685
 21
23.0647268366
  0
LWPOLYLINE
  5
406
100
AcDbEntity
  8
21814000
100
AcDbPolyline
 62
7
  6
CONTINUOUS
 90
10
 70
0
 10
14.2864742076
 20
20.8768216384
 10
14.2550587532
 20
20.8948744506
 10
14.2230417759
 20
20.9126417531
 10
14.1904232758
 20
20.9301235456
 10
14.157193085
 20
20.9473249123
 10
14.1233613714
 20
20.9642407691
 10
14.0889586382
 20
20.9808558644
 10
14.053995053
 20
20.9971651145
 10
14.0184604482
 20
21.0131736031
 10
13.9823548237
 20
21.0288813304
  0
LWPOLYLINE
  5
407
100
AcDbEntity
  8
21814000
100
AcDbPolyline
 62
7
  6
CONTINUOUS
 90
35
 70
0
 10
19.0909429686
 20
19.1750975424
 10
19.2077164973
 20
19.0979954361
 10
19.3475131708
 20
18.9934817899
 10
19.4842510265
 20
18.8789531928
 10
19.6171164701
 20
18.7552366883
 10
19.7455019233
 20
18.6230899133
 10
19.8690835235
 20
18.4830225073
 10
19.9874636848
 20
18.3356170036
 10
20.1002180679
 20
18.181506114
 10
20.2068936339
 20
18.02139933
 10
20.307050646
 20
17.8560435729
 10
20.4002665898
 20
17.6862258111
 10
20.4862197124
 20
17.5126077805
 10
20.564635094
 20
17.3357698218
 10
20.635201769
 20
17.156379258
 10
20.6975763514
 20
16.975244698
 10
20.7514610874
 20
16.793149403
 10
20.7965978105
 20
16.6108448199
 10
20.8327567133
 20
16.4290679829
 10
20.8597324572
 20
16.2485445231
 10
20.8773522626
 20
16.0698420708
 10
20.8854251637
 20
15.893845555
 10
20.8838251019
 20
15.7216653143
 10
20.8724777298
 20
15.5537493389
 10
20.8513431276
 20
15.3909724026
 10
20.8206137735
 20
15.2348787622
 10
20.7805092811
 20
15.0861367975
 10
20.731182933
 20
14.945043867
 10
20.6729878133
 20
14.8123777771
 10
20.6061794296
 20
14.6884804263
 10
20.5311107159
 20
14.5738213281
 10
20.4485210105
 20
14.46922369
 10
20.3590818395
 20
14.3750963506
 10
20.2632575311
 20
14.2915157907
 10
20.1616660616
 20
14.2186668652
  0
LWPOLYLINE
  5
408
100
AcDbEntity
  8
21814000
100
AcDbPolyline
 62
250
  6
CONTINUOUS
 90
34
 70
0
 10
19.0909429686
 20
19.0964870214
 10
19.1690380593
 20
19.0409752179
 10
19.3061789292
 20
18.9315196087
 10
19.4407214208
 20
18.8119941352
 10
19.5720379997
 20
18.6829562864
 10
19.6995161582
 20
18.5450079381
 10
19.8225612951
 20
18.3987925275
 10
19.9405994905
 20
18.2449920487
 10
20.053080185
 20
18.0843238667
 10
20.1594787396
 20
17.9175373793
 10
20.2592988826
 20
17.7454105238
 10
20.352075024
 20
17.568746149
 10
20.4373744293
 20
17.3883682681
 10
20.5147992381
 20
17.2051182142
 10
20.5839883198
 20
17.0198507164
 10
20.6446189576
 20
16.8334299133
 10
20.696408353
 20
16.6467253235
 10
20.739114946
 20
16.4606077893
 10
20.7725395411
 20
16.275945415
 10
20.7965262366
 20
16.0935995172
 10
20.8109631519
 20
15.9144206082
 10
20.8157829492
 20
15.7392444282
 10
20.8109631476
 20
15.5688880477
 10
20.796526228
 20
15.4041460566
 10
20.7725395282
 20
15.2457868572
 10
20.7391149289
 20
15.094549081
 10
20.6964083317
 20
14.9511381432
 10
20.644618932
 20
14.8162229526
 10
20.5839882902
 20
14.6904327913
 10
20.5147992045
 20
14.5743543795
 10
20.4373743918
 20
14.4685291391
 10
20.3520749827
 20
14.3734506682
 10
20.2592988376
 20
14.2895624398
 10
20.1616660616
 20
14.2186668652
  0
LINE
  5
409
100
AcDbEntity
  8
21814000
100
AcDbLine
 62
250
  6
CONTINUOUS
 10
18.079842094
 20
21.3904261568
 11
18.499385305
 21
20.6668211553
  0
LINE
  5
40A
100
AcDbEntity
  8
21814000
100
AcDbLine
 62
7
  6
CONTINUOUS
 10
18.4701064584
 20
21.3848163429
 11
18.8169442289
 21
20.786609677
  0
LWPOLYLINE
  5
40B
100
AcDbEntity
  8
21814000
100
AcDbPolyline
 62
250
  6
CONTINUOUS
 90
13
 70
0
 10
18.499385305
 20
20.6668211553
 10
18.5511545544
 20
20.5732406379
 10
18.5991979049
 20
20.4775211833
 10
18.6433096273
 20
20.3800726769
 10
18.6833008285
 20
20.2813124077
 10
18.7190002597
 20
20.1816632827
 10
18.7502550501
 20
20.081552016
 10
18.7769313617
 20
19.9814072993
 10
18.7989149626
 20
19.8816579677
 10
18.8161117154
 20
19.7827311643
 10
18.8284479812
 20
19.6850505091
 10
18.8358709343
 20
19.5890342852
 10
18.8383487889
 20
19.4950936489
  0
LINE
  5
40C
100
AcDbEntity
  8
21814000
100
AcDbLine
 62
250
  6
CONTINUOUS
 10
18.079842094
 20
21.3904261568
 11
17.274170158
 21
21.7932621248
  0
LINE
  5
40D
100
AcDbEntity
  8
21814000
100
AcDbLine
 62
250
  6
CONTINUOUS
 10
12.5725070788
 20
24.1440936644
 11
11.6013482452
 21
24.6296730812
  0
LINE
  5
40E
100
AcDbEntity
  8
21814000
100
AcDbLine
 62
7
  6
CONTINUOUS
 10
18.4101174716
 20
21.4411082609
 11
17.5843585714
 21
21.853987711
  0
LINE
  5
40F
100
AcDbEntity
  8
21814000
100
AcDbLine
 62
7
  6
CONTINUOUS
 10
13.0450898504
 20
24.1236220715
 11
11.9927338377
 21
24.6498000778
  0
LWPOLYLINE
  5
410
100
AcDbEntity
  8
21814000
100
AcDbPolyline
 62
7
  6
CONTINUOUS
 90
4
 70
0
 10
18.4120430235
 20
21.4401452876
 10
18.4256864995
 20
21.4323305457
 10
18.4492221961
 20
21.4129582673
 10
18.4694003388
 20
21.3860804357
  0
LWPOLYLINE
  5
411
100
AcDbEntity
  8
21814000
100
AcDbPolyline
 62
250
  6
CONTINUOUS
 90
12
 70
0
 10
18.8169442289
 20
20.786609677
 10
18.8155850922
 20
20.7882067911
 10
18.8076661741
 20
20.7907283942
 10
18.7940215816
 20
20.789859585
 10
18.774752865
 20
20.7856068297
 10
18.750003432
 20
20.7780017794
 10
18.719957481
 20
20.7671010348
 10
18.6848386296
 20
20.7529857252
 10
18.6449082505
 20
20.7357609041
 10
18.6004635266
 20
20.7155547678
 10
18.5518352387
 20
20.6925177008
 10
18.499385304
 20
20.6668211571
  0
ELLIPSE
  5
412
100
AcDbEntity
  8
RACCORDO
100
AcDbEllipse
 62
7
  6
CONTINUOUS
 10
-12.6896737289
 20
20.9137836444
 30
0.0
 11
-0.2786191524
 21
0.7501668109
 31
0.0
 40
0.6610921126
 41
-0.6157157441
 42
0.0213201202
  0
ELLIPSE
  5
413
100
AcDbEntity
  8
RACCORDO
100
AcDbEllipse
 62
7
  6
CONTINUOUS
 10
1.5937109115
 20
13.7720913241
 30
0.0
 11
-0.2783604326
 21
0.7500177284
 31
0.0
 40
0.6614719787
 41
-2.1862531203
 42
-0.61576138
  0
ELLIPSE
  5
414
100
AcDbEntity
  8
RACCORDO
100
AcDbEllipse
 62
7
  6
CONTINUOUS
 10
-1.4884342171
 20
-23.6841984491
 30
0.0
 11
-0.2786191524
 21
0.7501668109
 31
0.0
 40
0.6610921126
 41
-3.1630638698
 42
-2.1868166574
  0
ELLIPSE
  5
415
100
AcDbEntity
  8
ASSI
100
AcDbEllipse
 62
7
  6
CONTINUOUS
 10
-12.6896737289
 20
20.9137836444
 30
0.0
 11
-0.2786191524
 21
0.7501668109
 31
0.0
 40
0.6610921126
 41
-0.6157157441
 42
0.0213201202
  0
ELLIPSE
  5
416
100
AcDbEntity
  8
ASSI
100
AcDbEllipse
 62
7
  6
CONTINUOUS
 10
1.5937109115
 20
13.7720913241
 30
0.0
 11
-0.2783604326
 21
0.7500177284
 31
0.0
 40
0.6614719787
 41
-2.1862531203
 42
-0.61576138
  0
ELLIPSE
  5
417
100
AcDbEntity
  8
ASSI
100
AcDbEllipse
 62
7
  6
CONTINUOUS
 10
-1.4884342171
 20
-23.6841984491
 30
0.0
 11
-0.2786191524
 21
0.7501668109
 31
0.0
 40
0.6610921126
 41
-3.1630638698
 42
-2.1868166574
  0
ELLIPSE
  5
418
100
AcDbEntity
  8
21814000
100
AcDbEllipse
 62
7
  6
CONTINUOUS
 10
11.4943806062
 20
21.3275031572
 30
0.0
 11
3.3311333813
 21
-0.0467042088
 31
0.0
 40
0.4892378494
 41
3.8528301344
 42
5.5059722822
  0
ELLIPSE
  5
419
100
AcDbEntity
  8
21814000
100
AcDbEllipse
 62
7
  6
CONTINUOUS
 10
12.1898708674
 20
20.0342433405
 30
0.0
 11
2.7583300471
 21
-0.038763314
 31
0.0
 40
0.4892375088
 41
0.4291477653
 42
0.6564870977
  0
ELLIPSE
  5
41A
100
AcDbEntity
  8
21814000
100
AcDbEllipse
 62
7
  6
CONTINUOUS
 10
11.5181194253
 20
20.1457410245
 30
0.0
 11
2.7499350056
 21
-0.0386453369
 31
0.0
 40
0.4892375088
 41
8.654981679
 42
9.2557277435
  0
ELLIPSE
  5
41B
100
AcDbEntity
  8
21814000
100
AcDbEllipse
 62
7
  6
CONTINUOUS
 10
12.1898708674
 20
20.0342433405
 30
0.0
 11
2.7583300471
 21
-0.038763314
 31
0.0
 40
0.4892375088
 41
0.9280596999
 42
2.3630697256
  0
ELLIPSE
  5
41C
100
AcDbEntity
  8
21814000
100
AcDbEllipse
 62
7
  6
CONTINUOUS
 10
16.8955850985
 20
21.1921438576
 30
0.0
 11
0.716172246
 21
0.6416715914
 31
0.0
 40
0.2882345029
 41
0.1142323894
 42
0.7807533904
  0
ELLIPSE
  5
41D
100
AcDbEntity
  8
21814000
100
AcDbEllipse
 62
7
  6
CONTINUOUS
 10
12.1898708674
 20
21.9789540517
 30
0.0
 11
2.7583515655
 21
-1.4175703156
 31
0.0
 40
0.0109499087
 41
-0.9155571536
 42
-0.85781018
  0
ELLIPSE
  5
41E
100
AcDbEntity
  8
21814000
100
AcDbEllipse
 62
7
  6
CONTINUOUS
 10
12.1898708674
 20
21.9789540517
 30
0.0
 11
2.7583515655
 21
-1.4175703156
 31
0.0
 40
0.0109499087
 41
-0.7017315251
 42
-0.6439845515
  0
ELLIPSE
  5
41F
100
AcDbEntity
  8
21814000
100
AcDbEllipse
 62
7
  6
CONTINUOUS
 10
12.1898708674
 20
20.4672560424
 30
0.0
 11
2.7583300471
 21
-0.038763314
 31
0.0
 40
0.4892375088
 41
0.1708839954
 42
2.3630697256
  0
ELLIPSE
  5
420
100
AcDbEntity
  8
21814000
100
AcDbEllipse
 62
7
  6
CONTINUOUS
 10
12.9288788514
 20
23.1754969811
 30
0.0
 11
-0.2796057293
 21
0.9974617846
 31
0.0
 40
0.6760995073
 41
4.8467711056
 42
6.4001141399
  0
ELLIPSE
  5
421
100
AcDbEntity
  8
21814000
100
AcDbEllipse
 62
7
  6
CONTINUOUS
 10
11.4943806062
 20
21.3275031572
 30
0.0
 11
3.3311333813
 21
-0.0467042088
 31
0.0
 40
0.4892378494
 41
2.3616770883
 42
3.7058786528
  0
ELLIPSE
  5
422
100
AcDbEntity
  8
26814000
100
AcDbEllipse
 62
7
  6
CONTINUOUS
 10
0.0722456806
 20
-24.3460840262
 30
0.0
 11
0.110769438
 21
0.2241226716
 31
0.0
 40
0.6088015717
 41
-4.0304836828
 42
-3.1443955108
  0
ELLIPSE
  5
423
100
AcDbEntity
  8
26814000
100
AcDbEllipse
 62
7
  6
CONTINUOUS
 10
-13.2920724838
 20
23.8890505892
 30
0.0
 11
0.110769438
 21
0.2241226716
 31
0.0
 40
0.6088015717
 41
-4.0304836828
 42
-3.1443650652
  0
ELLIPSE
  5
424
100
AcDbEntity
  8
26814000
100
AcDbEllipse
 62
7
  6
CONTINUOUS
 10
0.0722456806
 20
17.2068915069
 30
0.0
 11
0.110769438
 21
0.2241226716
 31
0.0
 40
0.6088015717
 41
-4.0304836828
 42
-3.1443650652
  0
ELLIPSE
  5
425
100
AcDbEntity
  8
26814000
100
AcDbEllipse
 62
7
  6
CONTINUOUS
 10
4.1288535619
 20
15.9151734578
 30
0.0
 11
-0.1565168911
 21
0.3130623908
 31
0.0
 40
0.6123677712
 41
-2.2554744912
 42
-0.6846781644
  0
ELLIPSE
  5
426
100
AcDbEntity
  8
26814000
100
AcDbEllipse
 62
7
  6
CONTINUOUS
 10
4.1288535619
 20
-22.2614083869
 30
0.0
 11
-0.1565168911
 21
0.3130623908
 31
0.0
 40
0.6123677712
 41
-3.1363904945
 42
-2.2554744912
  0
ELLIPSE
  5
427
100
AcDbEntity
  8
26814000
100
AcDbEllipse
 62
7
  6
CONTINUOUS
 10
-1.6377419867
 20
25.020404763
 30
0.0
 11
0.2999991737
 21
-0.0014183462
 31
0.0
 40
0.4964289597
 41
0.7877451926
 42
2.3527237553
  0
ELLIPSE
  5
428
100
AcDbEntity
  8
26814000
100
AcDbEllipse
 62
7
  6
CONTINUOUS
 10
3.9167215275
 20
22.2431730059
 30
0.0
 11
0.2999991737
 21
-0.0014183462
 31
0.0
 40
0.4964289597
 41
0.7877451926
 42
2.3585415194
  0
ELLIPSE
  5
429
100
AcDbEntity
  8
26814000
100
AcDbEllipse
 62
7
  6
CONTINUOUS
 10
3.456073663
 20
16.5327444687
 30
0.0
 11
0.110769438
 21
0.2241226716
 31
0.0
 40
0.6088015717
 41
1.2055040732
 42
2.2526937431
  0
ELLIPSE
  5
42A
100
AcDbEntity
  8
26814000
100
AcDbEllipse
 62
7
  6
CONTINUOUS
 10
-9.9082445014
 20
23.2149035509
 30
0.0
 11
0.110769438
 21
0.2241226716
 31
0.0
 40
0.6088015717
 41
1.2055040732
 42
2.2526937431
  0
ELLIPSE
  5
42B
100
AcDbEntity
  8
26814000
100
AcDbEllipse
 62
7
  6
CONTINUOUS
 10
3.8075701401
 20
17.4605496207
 30
0.0
 11
0.110769438
 21
0.2241226716
 31
0.0
 40
0.6088015717
 41
-1.9360885804
 42
-0.8888910292
  0
ELLIPSE
  5
42C
100
AcDbEntity
  8
26814000
100
AcDbEllipse
 62
7
  6
CONTINUOUS
 10
2.1873952838
 20
18.5315660253
 30
0.0
 11
0.1128509832
 21
0.2230818409
 31
0.0
 40
0.6159267166
 41
0.0028979148
 42
0.6817883054
  0
ELLIPSE
  5
42D
100
AcDbEntity
  8
26814000
100
AcDbEllipse
 62
7
  6
CONTINUOUS
 10
0.0722456806
 20
17.4602629007
 30
0.0
 11
0.110769438
 21
0.2241226716
 31
0.0
 40
0.6088015717
 41
0.6877230618
 42
2.2527016244
  0
ELLIPSE
  5
42E
100
AcDbEntity
  8
26814000
100
AcDbEllipse
 62
7
  6
CONTINUOUS
 10
-9.5567480243
 20
24.1427087029
 30
0.0
 11
0.110769438
 21
0.2241226716
 31
0.0
 40
0.6088015717
 41
-1.9360885804
 42
-0.8888910292
  0
ELLIPSE
  5
42F
100
AcDbEntity
  8
26814000
100
AcDbEllipse
 62
7
  6
CONTINUOUS
 10
-11.1769228806
 20
25.2137251075
 30
0.0
 11
0.1128509832
 21
0.2230818409
 31
0.0
 40
0.6159267166
 41
0.0028979148
 42
0.6817883054
  0
ELLIPSE
  5
430
100
AcDbEntity
  8
26814000
100
AcDbEllipse
 62
7
  6
CONTINUOUS
 10
-13.2920724838
 20
24.1424219829
 30
0.0
 11
0.110769438
 21
0.2241226716
 31
0.0
 40
0.6088015717
 41
0.6877230618
 42
2.2527016244
  0
ELLIPSE
  5
431
100
AcDbEntity
  8
26814000
100
AcDbEllipse
 62
7
  6
CONTINUOUS
 10
3.8075701401
 20
-24.099983495
 30
0.0
 11
0.110769438
 21
0.2241226716
 31
0.0
 40
0.6088015717
 41
-2.4538695918
 42
-0.8888910292
  0
ELLIPSE
  5
432
100
AcDbEntity
  8
26814000
100
AcDbEllipse
 62
7
  6
CONTINUOUS
 10
0.0722456806
 20
-24.0927126324
 30
0.0
 11
0.110769438
 21
0.2241226716
 31
0.0
 40
0.6088015717
 41
1.2055040732
 42
2.2527016244
  0
ELLIPSE
  5
433
100
AcDbEntity
  8
26814000
100
AcDbEllipse
 62
7
  6
CONTINUOUS
 10
3.8075701401
 20
-23.8390545187
 30
0.0
 11
0.110769438
 21
0.2241226716
 31
0.0
 40
0.6088015717
 41
5.394294278
 42
6.4414918292
  0
ELLIPSE
  5
434
100
AcDbEntity
  8
26814000
100
AcDbEllipse
 62
7
  6
CONTINUOUS
 10
-9.5567480243
 20
24.4036376793
 30
0.0
 11
0.110769438
 21
0.2241226716
 31
0.0
 40
0.6088015717
 41
5.394294278
 42
6.9592728406
  0
ELLIPSE
  5
435
100
AcDbEntity
  8
26814000
100
AcDbEllipse
 62
7
  6
CONTINUOUS
 10
3.8075701401
 20
17.7214785971
 30
0.0
 11
0.110769438
 21
0.2241226716
 31
0.0
 40
0.6088015717
 41
5.394294278
 42
6.9592728406
  0
ELLIPSE
  5
436
100
AcDbEntity
  8
26814000
100
AcDbEllipse
 62
7
  6
CONTINUOUS
 10
-1.4572900095
 20
23.698344593
 30
0.0
 11
0.2999981629
 21
-0.0021225547
 31
0.0
 40
0.4946372042
 41
-0.7818985079
 42
0.0034997008
  0
ELLIPSE
  5
437
100
AcDbEntity
  8
26814000
100
AcDbEllipse
 62
7
  6
CONTINUOUS
 10
4.0971735046
 20
20.921112836
 30
0.0
 11
0.2999981629
 21
-0.0021225547
 31
0.0
 40
0.4946372042
 41
-0.7760807437
 42
0.0035109161
  0
ELLIPSE
  5
438
100
AcDbEntity
  8
26814000
100
AcDbEllipse
 62
7
  6
CONTINUOUS
 10
-7.606235737
 20
22.1002233951
 30
0.0
 11
0.2999991335
 21
0.0014318851
 31
0.0
 40
0.5035541159
 41
8.6427941204
 42
10.207772683
  0
ELLIPSE
  5
439
100
AcDbEntity
  8
26814000
100
AcDbEllipse
 62
7
  6
CONTINUOUS
 10
-13.6195266459
 20
22.3031532938
 30
0.0
 11
-0.1565168911
 21
0.3130623908
 31
0.0
 40
0.6123677712
 41
-0.6846781644
 42
0.8861181623
  0
ELLIPSE
  5
43A
100
AcDbEntity
  8
26814000
100
AcDbEllipse
 62
7
  6
CONTINUOUS
 10
1.6539798277
 20
14.6664000569
 30
0.0
 11
-0.1565168911
 21
0.3130623908
 31
0.0
 40
0.6123677712
 41
-2.2554744912
 42
-0.6846781644
  0
ELLIPSE
  5
43B
100
AcDbEntity
  8
26814000
100
AcDbEllipse
 62
7
  6
CONTINUOUS
 10
0.2674452332
 20
-8.376703169
 30
0.0
 11
-0.1085782352
 21
0.1690527654
 31
0.0
 40
0.5459771812
 41
-3.2040641194
 42
-2.3138348679
  0
ELLIPSE
  5
43C
100
AcDbEntity
  8
26814000
100
AcDbEllipse
 62
7
  6
CONTINUOUS
 10
-1.8137266689
 20
19.203968861
 30
0.0
 11
0.2999991335
 21
0.0014318851
 31
0.0
 40
0.5035541159
 41
-2.3585979313
 42
-0.7936193687
  0
ELLIPSE
  5
43D
100
AcDbEntity
  8
26814000
100
AcDbEllipse
 62
7
  6
CONTINUOUS
 10
-1.8137266689
 20
17.9897697852
 30
0.0
 11
0.2999980272
 21
0.0021530184
 31
0.0
 40
0.5053247124
 41
-2.3598210761
 42
-0.7948425135
  0
ELLIPSE
  5
43E
100
AcDbEntity
  8
26814000
100
AcDbEllipse
 62
7
  6
CONTINUOUS
 10
-7.606235737
 20
20.8860243192
 30
0.0
 11
0.2999980272
 21
0.0021530184
 31
0.0
 40
0.5053247124
 41
3.1379773283
 42
3.9233642311
  0
ELLIPSE
  5
43F
100
AcDbEntity
  8
26814000
100
AcDbEllipse
 62
7
  6
CONTINUOUS
 10
4.0971735046
 20
22.1529470173
 30
0.0
 11
0.2999991737
 21
-0.0014183462
 31
0.0
 40
0.4964289597
 41
-0.77723337
 42
0.7877451926
  0
ELLIPSE
  5
440
100
AcDbEntity
  8
26814000
100
AcDbEllipse
 62
7
  6
CONTINUOUS
 10
-1.4572900095
 20
24.9301787744
 30
0.0
 11
0.2999991737
 21
-0.0014183462
 31
0.0
 40
0.4964289597
 41
-0.7830511342
 42
0.7877451926
  0
ELLIPSE
  5
441
100
AcDbEntity
  8
26814000
100
AcDbEllipse
 62
7
  6
CONTINUOUS
 10
1.6539798277
 20
-23.4875087201
 30
0.0
 11
-0.1565168911
 21
0.3130623908
 31
0.0
 40
0.6123677712
 41
2.4569144891
 42
4.0277108159
  0
ELLIPSE
  5
442
100
AcDbEntity
  8
26814000
100
AcDbEllipse
 62
7
  6
CONTINUOUS
 10
3.456073663
 20
-23.2668596707
 30
0.0
 11
0.110769438
 21
0.2241226716
 31
0.0
 40
0.6088015717
 41
2.2527095058
 42
3.2998991756
  0
ELLIPSE
  5
443
100
AcDbEntity
  8
26814000
100
AcDbEllipse
 62
7
  6
CONTINUOUS
 10
1.6800790562
 20
16.6563462129
 30
0.0
 11
0.1128509832
 21
0.2230818409
 31
0.0
 40
0.6159267166
 41
0.6934238338
 42
2.2584023964
  0
ELLIPSE
  5
444
100
AcDbEntity
  8
26814000
100
AcDbEllipse
 62
7
  6
CONTINUOUS
 10
1.6800790562
 20
16.4029748191
 30
0.0
 11
0.1128509832
 21
0.2230818409
 31
0.0
 40
0.6159267166
 41
-4.0247829108
 42
-2.9775853596
  0
ELLIPSE
  5
445
100
AcDbEntity
  8
26814000
100
AcDbEllipse
 62
7
  6
CONTINUOUS
 10
-11.6842391082
 20
23.3385052951
 30
0.0
 11
0.1128509832
 21
0.2230818409
 31
0.0
 40
0.6159267166
 41
0.6934238338
 42
2.2584023964
  0
ELLIPSE
  5
446
100
AcDbEntity
  8
26814000
100
AcDbEllipse
 62
7
  6
CONTINUOUS
 10
-11.6842391082
 20
23.0851339013
 30
0.0
 11
0.1128509832
 21
0.2230818409
 31
0.0
 40
0.6159267166
 41
-4.0247829108
 42
-2.9775853596
  0
ELLIPSE
  5
447
100
AcDbEntity
  8
26814000
100
AcDbEllipse
 62
7
  6
CONTINUOUS
 10
1.6800790562
 20
-25.150000714
 30
0.0
 11
0.1128509832
 21
0.2230818409
 31
0.0
 40
0.6159267166
 41
-4.0247829108
 42
-2.4598043482
  0
ELLIPSE
  5
448
100
AcDbEntity
  8
26814000
100
AcDbEllipse
 62
7
  6
CONTINUOUS
 10
1.6800790562
 20
-24.8966293202
 30
0.0
 11
0.1128509832
 21
0.2230818409
 31
0.0
 40
0.6159267166
 41
1.2112048452
 42
2.2584023964
  0
ELLIPSE
  5
449
100
AcDbEntity
  8
26814000
100
AcDbEllipse
 62
7
  6
CONTINUOUS
 10
0.0017735215
 20
-18.0458543533
 30
0.0
 11
-0.542618321
 21
0.8478124368
 31
0.0
 40
0.5451249042
 41
-3.2164376038
 42
-2.3115524019
  0
ENDSEC
  0
SECTION
  2
OBJECTS
  0
DICTIONARY
  5
C
100
AcDbDictionary
280
0
281
1
  3
ACAD_GROUP
350
D
  3
ACAD_MLINESTYLE
350
17
  3
ACAD_LAYOUT
350
1A
  3
ACAD_PLOTSETTINGS
350
19
  3
ACAD_PLOTSTYLENAME
350
E
  0
DICTIONARY
  5
D
102
{ACAD_REACTORS
330
C
102
}
100
AcDbDictionary
280
0
281
1
  0
ACDBDICTIONARYWDFLT
  5
E
102
{ACAD_REACTORS
330
C
102
}
100
AcDbDictionary
281
1
  3
Normal
350
F
100
AcDbDictionaryWithDefault
340
F
  0
DICTIONARY
  5
17
102
{ACAD_REACTORS
330
C
102
}
100
AcDbDictionary
280
0
281
1
  3
Standard
350
18
  0
DICTIONARY
  5
19
102
{ACAD_REACTORS
330
C
102
}
100
AcDbDictionary
281
1
  0
DICTIONARY
  5
1A
102
{ACAD_REACTORS
330
C
102
}
100
AcDbDictionary
281
1
  3
Model
350
44A
  3
Layout1
350
44B
  0
ACDBPLACEHOLDER
  5
F
102
{ACAD_REACTORS
330
E
102
}
  0
MLINESTYLE
  5
18
102
{ACAD_REACTORS
330
17
102
}
100
AcDbMlineStyle
  2
STANDARD
 70
0
  3

 62
256
 51
90.0
 52
90.0
 71
2
 49
0.5
 62
256
  6
BYLAYER
 49
-0.5
 62
256
  6
BYLAYER
  0
LAYOUT
  5
44A
102
{ACAD_REACTORS
330
1A
102
}
100
AcDbPlotSettings
  1

  2
none_device
  4
ISO_A4_(297.00_x_210.00_MM)
  6

 40
0.0
 41
0.0
 42
0.0
 43
0.0
 44
297.0
 45
210.0
 46
0.0
 47
0.0
 48
0.0
 49
0.0
140
0.0
141
0.0
142
1.0
143
1.0
 70
1024
 72
1
 73
0
 74
0
  7

 75
0
147
1.0
148
0.0
149
0.0
100
AcDbLayout
  1
Model
 70
0
 71
0
 10
0.0
 20
0.0
 11
297.0
 21
210.0
 12
0.0
 22
0.0
 32
0.0
 14
0.0
 24
0.0
 34
0.0
 15
0.0
 25
0.0
 35
0.0
146
0.0
 13
0.0
 23
0.0
 33
0.0
 16
1.0
 26
0.0
 36
0.0
 17
0.0
 27
1.0
 37
0.0
 76
0
330
22D
345
0
346
0
  0
LAYOUT
  5
44B
102
{ACAD_REACTORS
330
1A
102
}
100
AcDbPlotSettings
  1

  2
none_device
  4
ISO_A4_(297.00_x_210.00_MM)
  6

 40
0.0
 41
0.0
 42
0.0
 43
0.0
 44
297.0
 45
210.0
 46
0.0
 47
0.0
 48
0.0
 49
0.0
140
0.0
141
0.0
142
1.0
143
1.0
 70
0
 72
1
 73
0
 74
0
  7

 75
0
147
1.0
148
0.0
149
0.0
100
AcDbLayout
  1
Layout1
 70
0
 71
1
 10
0.0
 20
0.0
 11
297.0
 21
210.0
 12
0.0
 22
0.0
 32
0.0
 14
0.0
 24
0.0
 34
0.0
 15
0.0
 25
0.0
 35
0.0
146
0.0
 13
0.0
 23
0.0
 33
0.0
 16
1.0
 26
0.0
 36
0.0
 17
0.0
 27
1.0
 37
0.0
 76
0
330
22E
345
0
346
0
  0
ENDSEC
  0
EOF
