  0
SECTION
  2
HEADER
  9
$ACADVER
  1
AC1015
  9
$DWGCODEPAGE
  3
ANSI_1252
  9
$EXTMAX
 10
297.0
 20
210.0
 30
0.0
  9
$EXTMIN
 10
0.0
 20
0.0
 30
0.0
  9
$LIMMIN
 10
0.0
 20
0.0
  9
$LIMMAX
 10
297.0
 20
210.0
  9
$VIEWCTR
 10
148.5
 20
105.0
  9
$VIEWSIZE
 40
210.0
  9
$CLAYER
  8
0
  9
$LTSCALE
 40
16.335
  9
$CELTYPE
  6
BYLAYER
  9
$DIMSCALE
 40
1.0
  9
$DIMASZ
 40
3.0
  9
$DIMEXO
 40
0.5
  9
$DIMDLI
 40
11.286
  9
$DIMEXE
 40
1.5
  9
$DIMCEN
 40
2.673
  9
$DIMLFAC
 40
1.0
  9
$DIMBLK
  1
_FILLED
  9
$DIMTXT
 40
3.0
  9
$DIMTOL
 70
1
  9
$DIMLIM
 70
0
  9
$DIMTFAC
 40
1.0
  9
$DIMTP
 40
0.01
  9
$DIMTM
 40
0.01
  9
$DIMGAP
 40
0.625
  9
$DIMDSEP
 70
44
  9
$PDMODE
 70
3
  9
$PDSIZE
 40
3.0
  9
$HANDSEED
  5
3C0
  9
$TILEMODE
 70
1
  9
$MEASUREMENT
 70
1
  9
$INSUNITS
 70
4
  0
ENDSEC
  0
SECTION
  2
CLASSES
  0
CLASS
  1
ACDBDICTIONARYWDFLT
  2
AcDbDictionaryWithDefault
  3
AutoCAD 2000
 90
0
280
0
281
0
  0
CLASS
  1
ACDBPLACEHOLDER
  2
AcDbPlaceHolder
  3
AutoCAD 2000
 90
0
280
0
281
0
  0
CLASS
  1
LAYOUT
  2
AcDbLayout
  3
AutoCAD 2000
 90
0
280
0
281
0
  0
ENDSEC
  0
SECTION
  2
TABLES
  0
TABLE
  2
VPORT
  5
8
100
AcDbSymbolTable
 70
2
  0
VPORT
  5
1F4
100
AcDbSymbolTableRecord
100
AcDbViewportTableRecord
  2
*ACTIVE
 70
0
 10
0.0
 20
0.0
 11
1.0
 21
1.0
 12
148.5
 22
105.0
 13
0.0
 23
0.0
 14
1.0
 24
1.0
 15
0.0
 25
0.0
 16
0.0
 26
0.0
 36
1.0
 17
0.0
 27
0.0
 37
0.0
 40
210.0
 41
1.4142857143
 42
50.0
 43
0.0
 44
0.0
 50
0.0
 51
0.0
 71
0
 72
100
 73
1
 74
1
 75
0
 76
0
 77
0
 78
0
  0
ENDTAB
  0
TABLE
  2
LTYPE
  5
5
100
AcDbSymbolTable
 70
6
  0
LTYPE
  5
14
100
AcDbSymbolTableRecord
100
AcDbLinetypeTableRecord
  2
BYBLOCK
 70
0
  3

 72
65
 73
0
 40
0.0
  0
LTYPE
  5
15
100
AcDbSymbolTableRecord
100
AcDbLinetypeTableRecord
  2
BYLAYER
 70
0
  3

 72
65
 73
0
 40
0.0
  0
LTYPE
  5
16
100
AcDbSymbolTableRecord
100
AcDbLinetypeTableRecord
  2
CONTINUOUS
 70
64
  3
Solid line
 72
65
 73
0
 40
0.0
  0
LTYPE
  5
1F5
100
AcDbSymbolTableRecord
100
AcDbLinetypeTableRecord
  2
CENTER
 70
64
  3
____ _ ____ _ ____ _ ____ _ ____ _ ____ _ ____
 72
65
 73
4
 40
0.6
 49
0.375
 74
0
 49
-0.075
 74
0
 49
0.075
 74
0
 49
-0.075
 74
0
  0
LTYPE
  5
1F6
100
AcDbSymbolTableRecord
100
AcDbLinetypeTableRecord
  2
HIDDEN
 70
64
  3
- - - - - - - - - - - - - - - - - - - -
 72
65
 73
2
 40
0.2
 49
0.1
 74
0
 49
-0.1
 74
0
  0
LTYPE
  5
1F7
100
AcDbSymbolTableRecord
100
AcDbLinetypeTableRecord
  2
PHANTOM
 70
64
  3
_____ _ _ _____ _ _ _____ _ _ _____
 72
65
 73
6
 40
0.8
 49
0.45
 74
0
 49
-0.05
 74
0
 49
0.1
 74
0
 49
-0.05
 74
0
 49
0.1
 74
0
 49
-0.05
 74
0
  0
LTYPE
  5
1F8
100
AcDbSymbolTableRecord
100
AcDbLinetypeTableRecord
  2
DOT
 70
64
  3
. . . . . . . . . . . . . . . . . . . .
 72
65
 73
2
 40
0.2
 49
0.1
 74
0
 49
-0.1
 74
0
  0
LTYPE
  5
1F9
100
AcDbSymbolTableRecord
100
AcDbLinetypeTableRecord
  2
DASHED
 70
64
  3
- - - - - - - - - - - - - - - - - - - -
 72
65
 73
2
 40
0.2
 49
0.1
 74
0
 49
-0.1
 74
0
  0
ENDTAB
  0
TABLE
  2
LAYER
  5
2
100
AcDbSymbolTable
 70
36
  0
LAYER
  5
10
100
AcDbSymbolTableRecord
100
AcDbLayerTableRecord
  2
0
 70
0
 62
7
  6
CONTINUOUS
370
-3
390
F
  0
LAYER
  5
1FA
100
AcDbSymbolTableRecord
100
AcDbLayerTableRecord
  2
DEFAULT_1
 70
0
 62
7
  6
CENTER
370
-3
390
F
  0
LAYER
  5
1FB
100
AcDbSymbolTableRecord
100
AcDbLayerTableRecord
  2
DEFAULT_2
 70
0
 62
7
  6
HIDDEN
370
-3
390
F
  0
LAYER
  5
1FC
100
AcDbSymbolTableRecord
100
AcDbLayerTableRecord
  2
DEFAULT_3
 70
0
 62
7
  6
PHANTOM
370
-3
390
F
  0
LAYER
  5
1FD
100
AcDbSymbolTableRecord
100
AcDbLayerTableRecord
  2
21814000
 70
0
 62
7
  6
CONTINUOUS
370
-3
390
F
  0
LAYER
  5
1FE
100
AcDbSymbolTableRecord
100
AcDbLayerTableRecord
  2
218140001
 70
0
 62
7
  6
CONTINUOUS
370
-3
390
F
  0
LAYER
  5
1FF
100
AcDbSymbolTableRecord
100
AcDbLayerTableRecord
  2
260140000
 70
0
 62
7
  6
CONTINUOUS
370
-3
390
F
  0
LAYER
  5
200
100
AcDbSymbolTableRecord
100
AcDbLayerTableRecord
  2
26814000
 70
0
 62
7
  6
CONTINUOUS
370
-3
390
F
  0
LAYER
  5
201
100
AcDbSymbolTableRecord
100
AcDbLayerTableRecord
  2
28414000
 70
0
 62
7
  6
CONTINUOUS
370
-3
390
F
  0
LAYER
  5
202
100
AcDbSymbolTableRecord
100
AcDbLayerTableRecord
  2
290140000
 70
0
 62
7
  6
CONTINUOUS
370
-3
390
F
  0
LAYER
  5
203
100
AcDbSymbolTableRecord
100
AcDbLayerTableRecord
  2
340000230
 70
0
 62
7
  6
CONTINUOUS
370
-3
390
F
  0
LAYER
  5
204
100
AcDbSymbolTableRecord
100
AcDbLayerTableRecord
  2
712140000
 70
0
 62
7
  6
CONTINUOUS
370
-3
390
F
  0
LAYER
  5
205
100
AcDbSymbolTableRecord
100
AcDbLayerTableRecord
  2
715140000
 70
0
 62
7
  6
CONTINUOUS
370
-3
390
F
  0
LAYER
  5
206
100
AcDbSymbolTableRecord
100
AcDbLayerTableRecord
  2
ASSI
 70
0
 62
7
  6
CONTINUOUS
370
-3
390
F
  0
LAYER
  5
207
100
AcDbSymbolTableRecord
100
AcDbLayerTableRecord
  2
COLORE_TOP
 70
0
 62
7
  6
CONTINUOUS
370
-3
390
F
  0
LAYER
  5
208
100
AcDbSymbolTableRecord
100
AcDbLayerTableRecord
  2
COORDINATE
 70
0
 62
7
  6
CONTINUOUS
370
-3
390
F
  0
LAYER
  5
209
100
AcDbSymbolTableRecord
100
AcDbLayerTableRecord
  2
COORD_ORIGINE
 70
0
 62
7
  6
CONTINUOUS
370
-3
390
F
  0
LAYER
  5
20A
100
AcDbSymbolTableRecord
100
AcDbLayerTableRecord
  2
COPY_PUBLISH
 70
0
 62
7
  6
CONTINUOUS
370
-3
390
F
  0
LAYER
  5
20B
100
AcDbSymbolTableRecord
100
AcDbLayerTableRecord
  2
COSMETICHE
 70
0
 62
7
  6
CONTINUOUS
370
-3
390
F
  0
LAYER
  5
20C
100
AcDbSymbolTableRecord
100
AcDbLayerTableRecord
  2
COSMETICI
 70
0
 62
7
  6
CONTINUOUS
370
-3
390
F
  0
LAYER
  5
20D
100
AcDbSymbolTableRecord
100
AcDbLayerTableRecord
  2
CURVE
 70
0
 62
7
  6
CONTINUOUS
370
-3
390
F
  0
LAYER
  5
20E
100
AcDbSymbolTableRecord
100
AcDbLayerTableRecord
  2
DRAFT
 70
0
 62
7
  6
CONTINUOUS
370
-3
390
F
  0
LAYER
  5
20F
100
AcDbSymbolTableRecord
100
AcDbLayerTableRecord
  2
IMPORT
 70
0
 62
7
  6
CONTINUOUS
370
-3
390
F
  0
LAYER
  5
210
100
AcDbSymbolTableRecord
100
AcDbLayerTableRecord
  2
IMPORTED
 70
0
 62
7
  6
CONTINUOUS
370
-3
390
F
  0
LAYER
  5
211
100
AcDbSymbolTableRecord
100
AcDbLayerTableRecord
  2
IMPORT_IGES
 70
0
 62
7
  6
CONTINUOUS
370
-3
390
F
  0
LAYER
  5
212
100
AcDbSymbolTableRecord
100
AcDbLayerTableRecord
  2
INCISIONI_LASER
 70
0
 62
7
  6
CONTINUOUS
370
-3
390
F
  0
LAYER
  5
213
100
AcDbSymbolTableRecord
100
AcDbLayerTableRecord
  2
INTF_11
 70
0
 62
7
  6
CONTINUOUS
370
-3
390
F
  0
LAYER
  5
214
100
AcDbSymbolTableRecord
100
AcDbLayerTableRecord
  2
INTF_12
 70
0
 62
7
  6
CONTINUOUS
370
-3
390
F
  0
LAYER
  5
215
100
AcDbSymbolTableRecord
100
AcDbLayerTableRecord
  2
INTF_13
 70
0
 62
7
  6
CONTINUOUS
370
-3
390
F
  0
LAYER
  5
216
100
AcDbSymbolTableRecord
100
AcDbLayerTableRecord
  2
INTF_6
 70
0
 62
7
  6
CONTINUOUS
370
-3
390
F
  0
LAYER
  5
217
100
AcDbSymbolTableRecord
100
AcDbLayerTableRecord
  2
NOTE
 70
0
 62
7
  6
CONTINUOUS
370
-3
390
F
  0
LAYER
  5
218
100
AcDbSymbolTableRecord
100
AcDbLayerTableRecord
  2
PIANI
 70
0
 62
7
  6
CONTINUOUS
370
-3
390
F
  0
LAYER
  5
219
100
AcDbSymbolTableRecord
100
AcDbLayerTableRecord
  2
PIANI_DI_RIFERIMENTO
 70
0
 62
7
  6
CONTINUOUS
370
-3
390
F
  0
LAYER
  5
21A
100
AcDbSymbolTableRecord
100
AcDbLayerTableRecord
  2
PIANI_ORIGINE
 70
0
 62
7
  6
CONTINUOUS
370
-3
390
F
  0
LAYER
  5
21B
100
AcDbSymbolTableRecord
100
AcDbLayerTableRecord
  2
PIANI_RIFERIMENTO
 70
0
 62
7
  6
CONTINUOUS
370
-3
390
F
  0
LAYER
  5
21C
100
AcDbSymbolTableRecord
100
AcDbLayerTableRecord
  2
PIANI_SFORMO
 70
0
 62
7
  6
CONTINUOUS
370
-3
390
F
  0
LAYER
  5
21D
100
AcDbSymbolTableRecord
100
AcDbLayerTableRecord
  2
PUNTI
 70
0
 62
7
  6
CONTINUOUS
370
-3
390
F
  0
LAYER
  5
21E
100
AcDbSymbolTableRecord
100
AcDbLayerTableRecord
  2
RACCORDO
 70
0
 62
7
  6
CONTINUOUS
370
-3
390
F
  0
LAYER
  5
21F
100
AcDbSymbolTableRecord
100
AcDbLayerTableRecord
  2
RINTRACCIABILITA
 70
0
 62
7
  6
CONTINUOUS
370
-3
390
F
  0
LAYER
  5
220
100
AcDbSymbolTableRecord
100
AcDbLayerTableRecord
  2
SIMBOLI
 70
0
 62
7
  6
CONTINUOUS
370
-3
390
F
  0
LAYER
  5
221
100
AcDbSymbolTableRecord
100
AcDbLayerTableRecord
  2
SMUSSO
 70
0
 62
7
  6
CONTINUOUS
370
-3
390
F
  0
LAYER
  5
222
100
AcDbSymbolTableRecord
100
AcDbLayerTableRecord
  2
SNAPLINE
 70
0
 62
7
  6
CONTINUOUS
370
-3
390
F
  0
LAYER
  5
223
100
AcDbSymbolTableRecord
100
AcDbLayerTableRecord
  2
SUPERFICI
 70
0
 62
7
  6
CONTINUOUS
370
-3
390
F
  0
LAYER
  5
224
100
AcDbSymbolTableRecord
100
AcDbLayerTableRecord
  2
TRASH
 70
0
 62
7
  6
CONTINUOUS
370
-3
390
F
  0
LAYER
  5
225
100
AcDbSymbolTableRecord
100
AcDbLayerTableRecord
  2
WHITE
 70
0
 62
7
  6
CONTINUOUS
370
-3
390
F
  0
LAYER
  5
226
100
AcDbSymbolTableRecord
100
AcDbLayerTableRecord
  2
XSEC_DATUMS
 70
0
 62
7
  6
CONTINUOUS
370
-3
390
F
  0
ENDTAB
  0
TABLE
  2
STYLE
  5
3
100
AcDbSymbolTable
 70
1
  0
STYLE
  5
11
100
AcDbSymbolTableRecord
100
AcDbTextStyleTableRecord
  2
STANDARD
 70
0
 40
0.0
 41
0.8
 50
0.0
 71
0
 42
0.2
  3
txt
  4

  0
STYLE
  5
227
100
AcDbSymbolTableRecord
100
AcDbTextStyleTableRecord
  2
TEXTSTYLE_1
 70
0
 40
0.0
 41
0.8
 50
0.0
 71
0
 42
0.2
  3
gdt
  4

  0
ENDTAB
  0
TABLE
  2
VIEW
  5
6
100
AcDbSymbolTable
 70
0
  0
ENDTAB
  0
TABLE
  2
UCS
  5
7
100
AcDbSymbolTable
 70
0
  0
ENDTAB
  0
TABLE
  2
APPID
  5
9
100
AcDbSymbolTable
 70
1
  0
APPID
  5
228
100
AcDbSymbolTableRecord
100
AcDbRegAppTableRecord
  2
ACAD
 70
0
  0
ENDTAB
  0
TABLE
  2
BLOCK_RECORD
  5
1
100
AcDbSymbolTable
 70
0
  0
BLOCK_RECORD
  5
229
100
AcDbSymbolTableRecord
100
AcDbBlockTableRecord
  2
*Model_Space
  0
BLOCK_RECORD
  5
22A
100
AcDbSymbolTableRecord
100
AcDbBlockTableRecord
  2
*Paper_Space
  0
ENDTAB
  0
TABLE
  2
DIMSTYLE
  5
A
100
AcDbSymbolTable
 70
1
100
AcDbDimStyleTable
 71
0
  0
DIMSTYLE
105
22B
100
AcDbSymbolTableRecord
100
AcDbDimStyleTableRecord
  2
STANDARD
 70
0
  3

  4

 40
1.0
 41
3.0
 42
0.5
 43
0.38
 44
1.5
 45
0.0
 46
0.0
 47
0.01
 48
0.01
140
3.0
141
0.09
142
0.0
143
25.4
144
1.0
145
0.0
146
1.0
147
0.625
 71
1.0
 72
0.0
 73
0
 74
0
 75
0
 76
0
 77
1
 78
8
170
0
171
2
172
0
173
0
174
0
175
0
176
0
177
0
178
0
270
2
271
2
272
2
273
2
274
2
275
0
280
0
281
0
282
0
283
1
284
8
285
0
286
0
287
3
288
0
340
11
278
44
  0
ENDTAB
  0
ENDSEC
  0
SECTION
  2
BLOCKS
  0
BLOCK
  5
20
100
AcDbEntity
  8
0
100
AcDbBlockBegin
  2
*Model_Space
 70
0
 10
0.0
 20
0.0
 30
0.0
  3
*Model_Space
  1

  0
ENDBLK
  5
21
100
AcDbEntity
  8
0
100
AcDbBlockEnd
  0
BLOCK
  5
1C
100
AcDbEntity
  8
0
100
AcDbBlockBegin
  2
*Paper_Space
 70
0
 10
0.0
 20
0.0
 30
0.0
  3
*Paper_Space
  1

  0
ENDBLK
  5
1D
100
AcDbEntity
  8
0
100
AcDbBlockEnd
  0
ENDSEC
  0
SECTION
  2
ENTITIES
  0
LINE
  5
22C
100
AcDbEntity
  8
26814000
100
AcDbLine
 62
7
  6
CONTINUOUS
 10
136.3819736852
 20
132.5508078285
 11
137.4963571997
 21
133.5403345423
  0
LINE
  5
22D
100
AcDbEntity
  8
26814000
100
AcDbLine
 62
7
  6
CONTINUOUS
 10
137.4963571997
 20
133.5403345423
 11
137.8758705354
 21
133.8608447788
  0
LWPOLYLINE
  5
22E
100
AcDbEntity
  8
290140000
100
AcDbPolyline
 62
253
  6
CONTINUOUS
 90
16
 70
0
 10
131.5471690809
 20
88.5976436812
 10
131.5259369694
 20
88.6047416214
 10
131.4851665098
 20
88.6242355751
 10
131.4467268364
 20
88.650733309
 10
131.4108174998
 20
88.6840911669
 10
131.377611219
 20
88.7241438818
 10
131.3472524512
 20
88.7707098178
 10
131.3198904218
 20
88.8235724987
 10
131.2956726072
 20
88.882463704
 10
131.2747189728
 20
88.9470802143
 10
131.2571360223
 20
89.0170914724
 10
131.2430104625
 20
89.0921569612
 10
131.2324060734
 20
89.1719165047
 10
131.2253752878
 20
89.255980437
 10
131.2219573434
 20
89.3439294004
 10
131.2221706712
 20
89.4353288263
  0
LINE
  5
22F
100
AcDbEntity
  8
26814000
100
AcDbLine
 62
7
  6
CONTINUOUS
 10
135.8427528449
 20
130.7172101174
 11
136.7539147823
 21
131.5200720597
  0
LINE
  5
230
100
AcDbEntity
  8
26814000
100
AcDbLine
 62
253
  6
CONTINUOUS
 10
136.0731521189
 20
130.756857757
 11
136.7539147823
 21
131.3567055027
  0
LINE
  5
231
100
AcDbEntity
  8
26814000
100
AcDbLine
 62
7
  6
CONTINUOUS
 10
139.4882156284
 20
132.9653345423
 11
139.8601567255
 21
133.2880306958
  0
LINE
  5
232
100
AcDbEntity
  8
26814000
100
AcDbLine
 62
7
  6
CONTINUOUS
 10
138.35114471
 20
131.9823571179
 11
139.4882156284
 21
132.9653345423
  0
LWPOLYLINE
  5
233
100
AcDbEntity
  8
290140000
100
AcDbPolyline
 62
7
  6
CONTINUOUS
 90
16
 70
0
 10
133.6032832075
 20
127.9238640563
 10
133.5575860376
 20
127.8863929743
 10
133.4826908924
 20
127.8163482762
 10
133.4106348517
 20
127.7374706799
 10
133.3397068315
 20
127.6469549577
 10
133.271873476
 20
127.5461425429
 10
133.2117326643
 20
127.4425719116
 10
133.1598556761
 20
127.3398573478
 10
133.1138647998
 20
127.2355254075
 10
133.0733188051
 20
127.129830127
 10
133.0381939084
 20
127.0238193793
 10
133.0080971122
 20
126.9172396279
 10
132.982630511
 20
126.8087712058
 10
132.9619207727
 20
126.6980371621
 10
132.9464364985
 20
126.5857388739
 10
132.9415675813
 20
126.5379231972
  0
LINE
  5
234
100
AcDbEntity
  8
290140000
100
AcDbLine
 62
7
  6
CONTINUOUS
 10
133.6032774402
 20
127.9238714685
 11
136.3470061942
 21
130.0591324169
  0
LINE
  5
235
100
AcDbEntity
  8
290140000
100
AcDbLine
 62
253
  6
CONTINUOUS
 10
134.1265348148
 20
128.0108151557
 11
136.8656423811
 21
130.1424791556
  0
LWPOLYLINE
  5
236
100
AcDbEntity
  8
290140000
100
AcDbPolyline
 62
253
  6
CONTINUOUS
 90
9
 70
0
 10
133.6038196182
 20
127.9242939969
 10
133.6482367071
 20
127.9552212558
 10
133.707478423
 20
127.986829507
 10
133.7709638612
 20
128.0108421113
 10
133.837998068
 20
128.0269962107
 10
133.9078472428
 20
128.0351149718
 10
133.9797467701
 20
128.0351095211
 10
134.0529095903
 20
128.0269799184
 10
134.1265348148
 20
128.0108151557
  0
LWPOLYLINE
  5
237
100
AcDbEntity
  8
290140000
100
AcDbPolyline
 62
7
  6
CONTINUOUS
 90
12
 70
0
 10
149.1123773746
 20
83.5270140828
 10
149.1604062048
 20
83.5144766169
 10
149.2396401912
 20
83.4995346498
 10
149.3202359169
 20
83.4913605711
 10
149.4017645281
 20
83.4900653186
 10
149.4841313967
 20
83.4957797376
 10
149.5668538589
 20
83.5086570162
 10
149.6492489992
 20
83.5287602534
 10
149.7310385873
 20
83.5561914757
 10
149.8118482311
 20
83.5910128132
 10
149.8911071216
 20
83.6331549219
 10
149.8993957602
 20
83.6380461177
  0
LINE
  5
238
100
AcDbEntity
  8
290140000
100
AcDbLine
 62
7
  6
CONTINUOUS
 10
149.1128519226
 20
83.5268678226
 11
131.5471454675
 21
88.5976504978
  0
LINE
  5
239
100
AcDbEntity
  8
290140000
100
AcDbLine
 62
253
  6
CONTINUOUS
 10
148.7709034759
 20
84.369446022
 11
131.2221706712
 21
89.4353288263
  0
LINE
  5
23A
100
AcDbEntity
  8
26814000
100
AcDbLine
 62
7
  6
CONTINUOUS
 10
139.4882156284
 20
131.2332837347
 11
138.7306580458
 21
130.5746098342
  0
LINE
  5
23B
100
AcDbEntity
  8
26814000
100
AcDbLine
 62
253
  6
CONTINUOUS
 10
140.8796531293
 20
131.4014029068
 11
145.4516308623
 21
135.3717067635
  0
LINE
  5
23C
100
AcDbEntity
  8
26814000
100
AcDbLine
 62
253
  6
CONTINUOUS
 10
140.9976103461
 20
131.3673515914
 11
145.4338884586
 21
135.2198139452
  0
LINE
  5
23D
100
AcDbEntity
  8
26814000
100
AcDbLine
 62
7
  6
CONTINUOUS
 10
140.787009214
 20
131.4281469015
 11
145.1950003411
 21
135.22556772
  0
LINE
  5
23E
100
AcDbEntity
  8
26814000
100
AcDbLine
 62
253
  6
CONTINUOUS
 10
140.7878462147
 20
131.4279052803
 11
145.2154621963
 21
135.242232628
  0
LINE
  5
23F
100
AcDbEntity
  8
21814000
100
AcDbLine
 62
7
  6
CONTINUOUS
 10
144.1994154363
 20
134.367885675
 11
143.6959594234
 21
133.954102798
  0
LINE
  5
240
100
AcDbEntity
  8
21814000
100
AcDbLine
 62
7
  6
CONTINUOUS
 10
141.6257086667
 20
132.1506743909
 11
140.7571025875
 21
131.436780201
  0
LINE
  5
241
100
AcDbEntity
  8
21814000
100
AcDbLine
 62
253
  6
CONTINUOUS
 10
143.7550874476
 20
134.064207919
 11
140.6072262754
 21
131.4800457656
  0
LINE
  5
242
100
AcDbEntity
  8
21814000
100
AcDbLine
 62
7
  6
CONTINUOUS
 10
143.7076628735
 20
134.0283651882
 11
140.6042273216
 21
131.4809114889
  0
LWPOLYLINE
  5
243
100
AcDbEntity
  8
26814000
100
AcDbPolyline
 62
7
  6
CONTINUOUS
 90
3
 70
0
 10
145.2154621963
 20
135.242232628
 10
145.1989534675
 20
135.2288426361
 10
145.1950709965
 20
135.2255255506
  0
LINE
  5
244
100
AcDbEntity
  8
21814000
100
AcDbLine
 62
253
  6
CONTINUOUS
 10
143.7550874476
 20
134.064207919
 11
143.6992792398
 21
134.0215370155
  0
LINE
  5
245
100
AcDbEntity
  8
21814000
100
AcDbLine
 62
253
  6
CONTINUOUS
 10
143.7550874476
 20
134.064207919
 11
143.7766095984
 21
134.080666218
  0
LINE
  5
246
100
AcDbEntity
  8
26814000
100
AcDbLine
 62
7
  6
CONTINUOUS
 10
145.2154621963
 20
135.242232628
 11
145.2376074392
 21
135.2591514538
  0
LWPOLYLINE
  5
247
100
AcDbEntity
  8
21814000
100
AcDbPolyline
 62
7
  6
CONTINUOUS
 90
8
 70
0
 10
143.7678119648
 20
134.0743572976
 10
143.7590646857
 20
134.067982326
 10
143.7503682619
 20
134.0615416971
 10
143.7417234129
 20
134.0550359795
 10
143.7331304028
 20
134.0484654106
 10
143.7245890537
 20
134.0418298802
 10
143.7160996398
 20
134.0351296136
 10
143.7076628735
 20
134.0283651882
  0
LINE
  5
248
100
AcDbEntity
  8
21814000
100
AcDbLine
 62
7
  6
CONTINUOUS
 10
144.2895378648
 20
134.4455248481
 11
143.7678119648
 21
134.0743572976
  0
LINE
  5
249
100
AcDbEntity
  8
21814000
100
AcDbLine
 62
253
  6
CONTINUOUS
 10
144.2818856772
 20
134.4389325988
 11
143.7550874476
 21
134.064207919
  0
LINE
  5
24A
100
AcDbEntity
  8
21814000
100
AcDbLine
 62
7
  6
CONTINUOUS
 10
143.6959594234
 20
133.954102798
 11
143.8287319694
 21
134.0485472114
  0
LWPOLYLINE
  5
24B
100
AcDbEntity
  8
21814000
100
AcDbPolyline
 62
7
  6
CONTINUOUS
 90
9
 70
0
 10
146.7550814746
 20
131.5581797402
 10
146.7644487742
 20
131.5616030663
 10
146.7746810963
 20
131.5643452345
 10
146.7858272336
 20
131.5663169171
 10
146.7978607221
 20
131.5674088213
 10
146.8107481674
 20
131.5674876129
 10
146.8244544397
 20
131.5664446753
 10
146.8389402515
 20
131.5641988774
 10
146.8541382356
 20
131.5606636787
  0
LINE
  5
24C
100
AcDbEntity
  8
26814000
100
AcDbLine
 62
7
  6
CONTINUOUS
 10
155.9179659613
 20
87.0763210152
 11
156.28918717
 21
87.0271713847
  0
LINE
  5
24D
100
AcDbEntity
  8
26814000
100
AcDbLine
 62
7
  6
CONTINUOUS
 10
152.9661020652
 20
85.4811641897
 11
154.6497248348
 21
84.9951441601
  0
LINE
  5
24E
100
AcDbEntity
  8
26814000
100
AcDbLine
 62
253
  6
CONTINUOUS
 10
153.0480819899
 20
85.5733693065
 11
154.5934997889
 21
85.1272456154
  0
LINE
  5
24F
100
AcDbEntity
  8
26814000
100
AcDbLine
 62
253
  6
CONTINUOUS
 10
154.5934997889
 20
85.3806170091
 11
153.1432067483
 21
85.7992805478
  0
LINE
  5
250
100
AcDbEntity
  8
26814000
100
AcDbLine
 62
253
  6
CONTINUOUS
 10
154.6566295874
 20
85.6220617897
 11
153.1653845865
 21
86.052547141
  0
LINE
  5
251
100
AcDbEntity
  8
26814000
100
AcDbLine
 62
7
  6
CONTINUOUS
 10
139.9213070385
 20
132.676775524
 11
139.5500858298
 21
131.9759251545
  0
LINE
  5
252
100
AcDbEntity
  8
26814000
100
AcDbLine
 62
7
  6
CONTINUOUS
 10
142.5183777089
 20
131.162298339
 11
142.8657147031
 21
131.4707193
  0
LINE
  5
253
100
AcDbEntity
  8
26814000
100
AcDbLine
 62
7
  6
CONTINUOUS
 10
147.4951375665
 20
134.5411215138
 11
144.1451375665
 21
131.6736936135
  0
LINE
  5
254
100
AcDbEntity
  8
26814000
100
AcDbLine
 62
7
  6
CONTINUOUS
 10
147.1951375665
 20
133.0540143248
 11
147.4951375665
 21
133.3092873324
  0
LINE
  5
255
100
AcDbEntity
  8
26814000
100
AcDbLine
 62
7
  6
CONTINUOUS
 10
142.8657147031
 20
131.4707193
 11
146.7553917472
 21
134.7556666048
  0
LINE
  5
256
100
AcDbEntity
  8
21814000
100
AcDbLine
 62
7
  6
CONTINUOUS
 10
146.8277515126
 20
131.6232817151
 11
146.8338623025
 21
131.6279218378
  0
LINE
  5
257
100
AcDbEntity
  8
21814000
100
AcDbLine
 62
7
  6
CONTINUOUS
 10
146.8927579741
 20
131.6656109354
 11
146.8338622103
 21
131.6279217627
  0
LWPOLYLINE
  5
258
100
AcDbEntity
  8
21814000
100
AcDbPolyline
 62
7
  6
CONTINUOUS
 90
3
 70
0
 10
146.8338623025
 20
131.6279218378
 10
146.8502289779
 20
131.6374153944
 10
146.8685490229
 20
131.6441342126
  0
LWPOLYLINE
  5
259
100
AcDbEntity
  8
21814000
100
AcDbPolyline
 62
7
  6
CONTINUOUS
 90
3
 70
0
 10
147.0263787981
 20
131.7300783225
 10
146.9575539071
 20
131.6999260089
 10
146.8927579741
 20
131.6656109354
  0
LINE
  5
25A
100
AcDbEntity
  8
26814000
100
AcDbLine
 62
7
  6
CONTINUOUS
 10
155.0985381773
 20
86.4371752536
 11
153.2188425716
 21
86.9797966356
  0
LINE
  5
25B
100
AcDbEntity
  8
26814000
100
AcDbLine
 62
7
  6
CONTINUOUS
 10
153.2226634141
 20
87.0460706321
 11
154.7793008407
 21
86.5967081134
  0
LINE
  5
25C
100
AcDbEntity
  8
26814000
100
AcDbLine
 62
7
  6
CONTINUOUS
 10
153.2412363281
 20
87.3682250321
 11
155.082409732
 21
86.8367240519
  0
LINE
  5
25D
100
AcDbEntity
  8
26814000
100
AcDbLine
 62
253
  6
CONTINUOUS
 10
155.8615769617
 20
87.1506118191
 11
156.28918717
 21
87.0271713847
  0
LINE
  5
25E
100
AcDbEntity
  8
26814000
100
AcDbLine
 62
7
  6
CONTINUOUS
 10
155.8614703039
 20
87.1511820749
 11
156.2893309213
 21
87.0276693535
  0
LINE
  5
25F
100
AcDbEntity
  8
26814000
100
AcDbLine
 62
7
  6
CONTINUOUS
 10
153.285822623
 20
88.1415916183
 11
155.657409732
 21
87.4569733904
  0
LWPOLYLINE
  5
260
100
AcDbEntity
  8
290140000
100
AcDbPolyline
 62
253
  6
CONTINUOUS
 90
12
 70
0
 10
130.8221036218
 20
89.7740581305
 10
130.8221826277
 20
89.7633012068
 10
130.8278738128
 20
89.7243623415
 10
130.8419778225
 20
89.6857573647
 10
130.8643452219
 20
89.6478953036
 10
130.8947390244
 20
89.6111773137
 10
130.9328372018
 20
89.5759924291
 10
130.9782360969
 20
89.5427134402
 10
131.0304546998
 20
89.511692944
 10
131.0889397446
 20
89.4832596085
 10
131.1530715713
 20
89.4577146901
 10
131.2221706911
 20
89.4353288422
  0
LWPOLYLINE
  5
261
100
AcDbEntity
  8
290140000
100
AcDbPolyline
 62
7
  6
CONTINUOUS
 90
18
 70
0
 10
130.8221122138
 20
89.7741824715
 10
130.8216323808
 20
89.72121805
 10
130.8254291915
 20
89.6120551637
 10
130.8357378405
 20
89.5071028169
 10
130.8527133245
 20
89.4054796948
 10
130.8765186296
 20
89.3074781089
 10
130.9068404086
 20
89.2146062384
 10
130.9434117497
 20
89.1271957954
 10
130.986273691
 20
89.0448872646
 10
131.0349001868
 20
88.9684235073
 10
131.0886281816
 20
88.8983274526
 10
131.1471354552
 20
88.8345352248
 10
131.2099959763
 20
88.7771596467
 10
131.2763671759
 20
88.726599234
 10
131.345776599
 20
88.6828216207
 10
131.4183448186
 20
88.6455367611
 10
131.4937366981
 20
88.6148660027
 10
131.5478888705
 20
88.5974451297
  0
LWPOLYLINE
  5
262
100
AcDbEntity
  8
290140000
100
AcDbPolyline
 62
253
  6
CONTINUOUS
 90
13
 70
0
 10
131.2221706712
 20
89.4353288263
 10
131.2990937034
 20
92.426262547
 10
131.3942403332
 20
95.4323782096
 10
131.5075989323
 20
98.4532926959
 10
131.6391556054
 20
101.4886209493
 10
131.788893702
 20
104.5379762784
 10
131.95679382
 20
107.6009704079
 10
132.1428342944
 20
110.6772131978
 10
132.346991699
 20
113.7663126609
 10
132.569240363
 20
116.8678752711
 10
132.8095518673
 20
119.9815059665
 10
133.0678950459
 20
123.1068081986
 10
133.3442364931
 20
126.2433839539
  0
LWPOLYLINE
  5
263
100
AcDbEntity
  8
290140000
100
AcDbPolyline
 62
7
  6
CONTINUOUS
 90
13
 70
0
 10
132.9415818899
 20
126.5381220894
 10
132.6704640988
 20
123.4624070968
 10
132.4111903627
 20
120.3290817284
 10
132.1700519543
 20
117.2074076406
 10
131.947086118
 20
114.0978321297
 10
131.7423204283
 20
111.0007473399
 10
131.5557797777
 20
107.9165240854
 10
131.3874892994
 20
104.8455477062
 10
131.2374704297
 20
101.7882009787
 10
131.1057430891
 20
98.7448511067
 10
130.9923268678
 20
95.7158840412
 10
130.8972374806
 20
92.7017310813
 10
130.8221036218
 20
89.7740581305
  0
LWPOLYLINE
  5
264
100
AcDbEntity
  8
290140000
100
AcDbPolyline
 62
253
  6
CONTINUOUS
 90
22
 70
0
 10
133.3442364931
 20
126.2433839539
 10
133.3549913255
 20
126.3422257679
 10
133.3692702434
 20
126.4426556126
 10
133.3870009244
 20
126.5441768645
 10
133.4080903415
 20
126.6462826009
 10
133.4324347292
 20
126.7484736692
 10
133.4599219666
 20
126.850261079
 10
133.490418299
 20
126.9511573575
 10
133.5237683106
 20
127.0506485057
 10
133.5598038715
 20
127.1482135251
 10
133.5983328417
 20
127.2433526354
 10
133.6391678928
 20
127.3356187187
 10
133.6821295049
 20
127.4245863892
 10
133.7270106158
 20
127.5098323065
 10
133.7735782404
 20
127.5909157186
 10
133.8216004301
 20
127.6674122368
 10
133.8708279381
 20
127.7389374141
 10
133.921018377
 20
127.8051499195
 10
133.971940156
 20
127.8657281046
 10
134.0233436537
 20
127.9203737237
 10
134.0749621121
 20
127.9688157799
 10
134.1265348148
 20
128.0108151557
  0
LWPOLYLINE
  5
265
100
AcDbEntity
  8
26814000
100
AcDbPolyline
 62
7
  6
CONTINUOUS
 90
7
 70
0
 10
145.4516308623
 20
135.3717067635
 10
145.4538479901
 20
135.3752067172
 10
145.455260078
 20
135.3781290685
 10
145.455867126
 20
135.3804738172
 10
145.4556997521
 20
135.3822664023
 10
145.4547273384
 20
135.3834813849
 10
145.4538586466
 20
135.3838637482
  0
LINE
  5
266
100
AcDbEntity
  8
26814000
100
AcDbLine
 62
7
  6
CONTINUOUS
 10
148.6165331716
 20
133.2324208383
 11
147.6281502684
 21
132.3764561355
  0
LINE
  5
267
100
AcDbEntity
  8
26814000
100
AcDbLine
 62
7
  6
CONTINUOUS
 10
149.0825135362
 20
134.1665466099
 11
147.6281502684
 21
132.9290143248
  0
LINE
  5
268
100
AcDbEntity
  8
21814000
100
AcDbLine
 62
7
  6
CONTINUOUS
 10
146.8277277034
 20
131.6232622518
 11
146.7294455424
 21
131.5429197365
  0
LINE
  5
269
100
AcDbEntity
  8
21814000
100
AcDbLine
 62
253
  6
CONTINUOUS
 10
146.9525172645
 20
131.6401927749
 11
146.8549451887
 21
131.5604307314
  0
LWPOLYLINE
  5
26A
100
AcDbEntity
  8
21814000
100
AcDbPolyline
 62
7
  6
CONTINUOUS
 90
5
 70
0
 10
146.7292430684
 20
131.5427531437
 10
146.7315387786
 20
131.5445828175
 10
146.7386477899
 20
131.5495987415
 10
146.7464958759
 20
131.5541581252
 10
146.7550814746
 20
131.5581797402
  0
LWPOLYLINE
  5
26B
100
AcDbEntity
  8
21814000
100
AcDbPolyline
 62
253
  6
CONTINUOUS
 90
9
 70
0
 10
147.7270929362
 20
131.7998641073
 10
147.7335222767
 20
131.8049763003
 10
147.7399277267
 20
131.8093510308
 10
147.7462825813
 20
131.8129679076
 10
147.7525625294
 20
131.8158105125
 10
147.7587387284
 20
131.8178631712
 10
147.7647783737
 20
131.8191139974
 10
147.7706592573
 20
131.8195580852
 10
147.7763537466
 20
131.8191930332
  0
LINE
  5
26C
100
AcDbEntity
  8
28414000
100
AcDbLine
 62
7
  6
CONTINUOUS
 10
143.6952275202
 20
128.2290381761
 11
143.6589940729
 21
128.2042552399
  0
LWPOLYLINE
  5
26D
100
AcDbEntity
  8
21814000
100
AcDbPolyline
 62
253
  6
CONTINUOUS
 90
10
 70
0
 10
157.5144067803
 20
135.8214336868
 10
157.56448563
 20
135.8528579139
 10
157.6182905838
 20
135.8785683412
 10
157.6754123121
 20
135.8983693726
 10
157.7354162525
 20
135.9121103687
 10
157.7978459158
 20
135.9196867928
 10
157.8622263587
 20
135.9210410061
 10
157.928067797
 20
135.9161627061
 10
157.9948693318
 20
135.9050890054
 10
158.0621227601
 20
135.8879041487
  0
LINE
  5
26E
100
AcDbEntity
  8
26814000
100
AcDbLine
 62
7
  6
CONTINUOUS
 10
153.3793862799
 20
89.7644895546
 11
155.657409732
 21
89.1068808279
  0
LWPOLYLINE
  5
26F
100
AcDbEntity
  8
290140000
100
AcDbPolyline
 62
253
  6
CONTINUOUS
 90
12
 70
0
 10
132.9415675813
 20
126.5379231972
 10
132.9413811638
 20
126.5215542973
 10
132.9475645939
 20
126.4911442751
 10
132.9621260073
 20
126.4604654902
 10
132.9849111246
 20
126.4298429872
 10
133.0156785353
 20
126.399601214
 10
133.0541022562
 20
126.370060585
 10
133.0997751844
 20
126.3415340858
 10
133.1522134114
 20
126.3143239573
 10
133.2108613495
 20
126.2887184932
 10
133.2750976186
 20
126.2649889857
 10
133.3442416298
 20
126.2433868511
  0
LWPOLYLINE
  5
270
100
AcDbEntity
  8
26814000
100
AcDbPolyline
 62
7
  6
CONTINUOUS
 90
13
 70
0
 10
145.4516308623
 20
135.3717067635
 10
145.4484451066
 20
135.3659708982
 10
145.4458053284
 20
135.3588813928
 10
145.4436134353
 20
135.3504525031
 10
145.4417357382
 20
135.3406891733
 10
145.4401161746
 20
135.3296407411
 10
145.4387863825
 20
135.3173788697
 10
145.4376748486
 20
135.3039250375
 10
145.4366991929
 20
135.2893027864
 10
145.4358904911
 20
135.2735595118
 10
145.4352150293
 20
135.2567180844
 10
145.4345699898
 20
135.2387939165
 10
145.4338884586
 20
135.2198139452
  0
LINE
  5
271
100
AcDbEntity
  8
21814000
100
AcDbLine
 62
7
  6
CONTINUOUS
 10
146.7111712598
 20
131.5232828318
 11
146.3644920202
 21
131.0330211679
  0
LINE
  5
272
100
AcDbEntity
  8
21814000
100
AcDbLine
 62
253
  6
CONTINUOUS
 10
146.8541382356
 20
131.5606636787
 11
146.4612703644
 21
131.0050836663
  0
LWPOLYLINE
  5
273
100
AcDbEntity
  8
21814000
100
AcDbPolyline
 62
7
  6
CONTINUOUS
 90
5
 70
0
 10
146.7111506153
 20
131.5232535945
 10
146.7144840381
 20
131.5277122149
 10
146.719500393
 20
131.5335722073
 10
146.7251568884
 20
131.5392045313
 10
146.7292430684
 20
131.5427531437
  0
LINE
  5
274
100
AcDbEntity
  8
21814000
100
AcDbLine
 62
253
  6
CONTINUOUS
 10
147.1081405475
 20
130.8183483292
 11
147.1524652112
 21
130.8726575116
  0
LWPOLYLINE
  5
275
100
AcDbEntity
  8
21814000
100
AcDbPolyline
 62
253
  6
CONTINUOUS
 90
16
 70
0
 10
147.1524652112
 20
130.8726575116
 10
147.1836920401
 20
130.9069698403
 10
147.2181270331
 20
130.9386900922
 10
147.2557701904
 20
130.9678182672
 10
147.2971283385
 20
130.9945806656
 10
147.3416946508
 20
131.0187509871
 10
147.3879486472
 20
131.0396503315
 10
147.4359098593
 20
131.0571505431
 10
147.4855587556
 20
131.0713797774
 10
147.5353162613
 20
131.0820436016
 10
147.5850702202
 20
131.0890399388
 10
147.6349327887
 20
131.0924708657
 10
147.683661361
 20
131.0923481792
 10
147.7308417352
 20
131.0886758115
 10
147.7768881133
 20
131.0814498303
 10
147.8218004952
 20
131.0706702357
  0
LWPOLYLINE
  5
276
100
AcDbEntity
  8
21814000
100
AcDbPolyline
 62
253
  6
CONTINUOUS
 90
14
 70
0
 10
147.3967746651
 20
130.7350268364
 10
147.4098095023
 20
130.7477576322
 10
147.4347043817
 20
130.7685209032
 10
147.4612442356
 20
130.7874262469
 10
147.48910688
 20
130.8040689197
 10
147.5179828971
 20
130.8183658171
 10
147.5475623838
 20
130.830322974
 10
147.5775107368
 20
130.8397009866
 10
147.6074651841
 20
130.8464659854
 10
147.6371787908
 20
130.8506831712
 10
147.666497005
 20
130.852267438
 10
147.6951758971
 20
130.851205514
 10
147.7228884984
 20
130.8475784787
 10
147.7493642308
 20
130.8414431809
  0
LINE
  5
277
100
AcDbEntity
  8
26814000
100
AcDbLine
 62
7
  6
CONTINUOUS
 10
153.557315393
 20
132.7911215138
 11
150.207315393
 21
129.9236936135
  0
LINE
  5
278
100
AcDbEntity
  8
21814000
100
AcDbLine
 62
7
  6
CONTINUOUS
 10
157.4908488232
 20
135.8036230044
 11
153.8298738025
 21
132.8646146024
  0
LINE
  5
279
100
AcDbEntity
  8
21814000
100
AcDbLine
 62
253
  6
CONTINUOUS
 10
158.0621227601
 20
135.8879041487
 11
154.1895109512
 21
132.7789950248
  0
LWPOLYLINE
  5
27A
100
AcDbEntity
  8
21814000
100
AcDbPolyline
 62
253
  6
CONTINUOUS
 90
8
 70
0
 10
158.0621227601
 20
135.8879041487
 10
158.1003110529
 20
135.9170044955
 10
158.1382968809
 20
135.9402827876
 10
158.1757988861
 20
135.9575073262
 10
158.2125584864
 20
135.9684930278
 10
158.2482682626
 20
135.9730798372
 10
158.2825828368
 20
135.9711776669
 10
158.3037815632
 20
135.9665202358
  0
LINE
  5
27B
100
AcDbEntity
  8
21814000
100
AcDbLine
 62
253
  6
CONTINUOUS
 10
157.4908488232
 20
135.8036230044
 11
157.5144067803
 21
135.8214336868
  0
LWPOLYLINE
  5
27C
100
AcDbEntity
  8
21814000
100
AcDbPolyline
 62
7
  6
CONTINUOUS
 90
13
 70
0
 10
157.4908488232
 20
135.8036230044
 10
157.5507893351
 20
135.8477928923
 10
157.6147926519
 20
135.8872029597
 10
157.6823870571
 20
135.9213739029
 10
157.7528434568
 20
135.9498213098
 10
157.825730225
 20
135.9722983752
 10
157.900986349
 20
135.9886494115
 10
157.9781482704
 20
135.9985736957
 10
158.056252997
 20
136.0017963594
 10
158.1345411382
 20
135.9982116741
 10
158.2124449517
 20
135.9877897598
 10
158.2890185939
 20
135.9706441972
 10
158.3037815632
 20
135.9665202358
  0
LWPOLYLINE
  5
27D
100
AcDbEntity
  8
26814000
100
AcDbPolyline
 62
7
  6
CONTINUOUS
 90
14
 70
0
 10
154.3217730038
 20
132.6999075499
 10
154.3385602763
 20
132.7112681075
 10
154.358362316
 20
132.723267155
 10
154.378065312
 20
132.7338028975
 10
154.3975632015
 20
132.7428198609
 10
154.4168453872
 20
132.7503075806
 10
154.4359224664
 20
132.7562765211
 10
154.4547201666
 20
132.7607026016
 10
154.4732498707
 20
132.7635801801
 10
154.4915001959
 20
132.7649148987
 10
154.5093627217
 20
132.7646996033
 10
154.5268210138
 20
132.7629282666
 10
154.5438915063
 20
132.7596069159
 10
154.5516592324
 20
132.7575437774
  0
LINE
  5
27E
100
AcDbEntity
  8
0
100
AcDbLine
 62
7
  6
CONTINUOUS
 10
157.8576967796
 20
131.8031717099
 11
158.0192318748
 21
131.8883523597
  0
LINE
  5
27F
100
AcDbEntity
  8
26814000
100
AcDbLine
 62
7
  6
CONTINUOUS
 10
135.7700432276
 20
130.5412373237
 11
135.7700432276
 21
130.5168418185
  0
LINE
  5
280
100
AcDbEntity
  8
26814000
100
AcDbLine
 62
7
  6
CONTINUOUS
 10
136.2589531707
 20
131.9729488613
 11
136.2589531707
 21
132.226320255
  0
LINE
  5
281
100
AcDbEntity
  8
26814000
100
AcDbLine
 62
7
  6
CONTINUOUS
 10
136.3450432276
 20
130.3508536161
 11
136.3450432276
 21
130.0592003382
  0
LINE
  5
282
100
AcDbEntity
  8
26814000
100
AcDbLine
 62
7
  6
CONTINUOUS
 10
136.7539147823
 20
131.1452464619
 11
136.7539147823
 21
131.7141950688
  0
LWPOLYLINE
  5
283
100
AcDbEntity
  8
21814000
100
AcDbPolyline
 62
253
  6
CONTINUOUS
 90
10
 70
0
 10
147.8218004952
 20
131.0706702357
 10
147.8083365538
 20
131.0504709995
 10
147.7957160727
 20
131.0277549048
 10
147.7841985079
 20
131.0029889562
 10
147.7740206412
 20
130.9766823004
 10
147.7653917124
 20
130.9493757579
 10
147.7584891179
 20
130.9216307056
 10
147.7534547635
 20
130.8940175353
 10
147.750392147
 20
130.8671039275
 10
147.7493642308
 20
130.8414431809
  0
LINE
  5
284
100
AcDbEntity
  8
21814000
100
AcDbLine
 62
253
  6
CONTINUOUS
 10
149.5330116781
 20
130.1183483292
 11
149.5773363418
 21
130.1726575116
  0
LWPOLYLINE
  5
285
100
AcDbEntity
  8
21814000
100
AcDbPolyline
 62
253
  6
CONTINUOUS
 90
16
 70
0
 10
149.5773363418
 20
130.1726575116
 10
149.6085631707
 20
130.2069698403
 10
149.6429981637
 20
130.2386900922
 10
149.680641321
 20
130.2678182672
 10
149.7219994691
 20
130.2945806656
 10
149.7665657814
 20
130.3187509871
 10
149.8128197778
 20
130.3396503315
 10
149.8607809899
 20
130.3571505431
 10
149.9104298862
 20
130.3713797774
 10
149.9601873919
 20
130.3820436016
 10
150.0099413508
 20
130.3890399388
 10
150.0598039193
 20
130.3924708657
 10
150.1085324916
 20
130.3923481792
 10
150.1557128658
 20
130.3886758115
 10
150.2017592439
 20
130.3814498303
 10
150.2466716258
 20
130.3706702357
  0
LWPOLYLINE
  5
286
100
AcDbEntity
  8
21814000
100
AcDbPolyline
 62
253
  6
CONTINUOUS
 90
14
 70
0
 10
149.8216457956
 20
130.0350268364
 10
149.8346806328
 20
130.0477576322
 10
149.8595755123
 20
130.0685209032
 10
149.8861153662
 20
130.0874262469
 10
149.9139780106
 20
130.1040689197
 10
149.9428540277
 20
130.1183658171
 10
149.9724335144
 20
130.130322974
 10
150.0023818674
 20
130.1397009866
 10
150.0323363147
 20
130.1464659854
 10
150.0620499214
 20
130.1506831712
 10
150.0913681356
 20
130.152267438
 10
150.1200470277
 20
130.151205514
 10
150.147759629
 20
130.1475784787
 10
150.1742353614
 20
130.1414431809
  0
LINE
  5
287
100
AcDbEntity
  8
26814000
100
AcDbLine
 62
7
  6
CONTINUOUS
 10
150.1323299312
 20
127.7501361836
 11
150.4867382564
 21
128.0582837347
  0
LINE
  5
288
100
AcDbEntity
  8
26814000
100
AcDbLine
 62
7
  6
CONTINUOUS
 10
150.4867382564
 20
129.2707193
 11
154.2988065318
 21
132.5780703266
  0
LINE
  5
289
100
AcDbEntity
  8
26814000
100
AcDbLine
 62
7
  6
CONTINUOUS
 10
150.1323299312
 20
128.9643396564
 11
150.4867382564
 21
129.2707193
  0
LINE
  5
28A
100
AcDbEntity
  8
26814000
100
AcDbLine
 62
7
  6
CONTINUOUS
 10
150.4867382564
 20
128.0582837347
 11
154.2988065318
 21
131.3462317482
  0
LINE
  5
28B
100
AcDbEntity
  8
21814000
100
AcDbLine
 62
7
  6
CONTINUOUS
 10
159.251544561
 20
135.5445476502
 11
156.8234865979
 21
133.5215702691
  0
LINE
  5
28C
100
AcDbEntity
  8
28414000
100
AcDbLine
 62
7
  6
CONTINUOUS
 10
148.8913799429
 20
126.7290381761
 11
148.8551464956
 21
126.7042552399
  0
LWPOLYLINE
  5
28D
100
AcDbEntity
  8
RACCORDO
100
AcDbPolyline
 62
253
  6
CONTINUOUS
 90
36
 70
0
 10
157.9368242878
 20
131.7803295658
 10
157.9926185633
 20
131.8164145003
 10
158.0736401756
 20
131.8636544022
 10
158.159597626
 20
131.9086903991
 10
158.25008559
 20
131.9514956981
 10
158.3429510985
 20
131.9913798406
 10
158.4382609311
 20
132.0281667163
 10
158.5359483082
 20
132.0620324356
 10
158.6336599219
 20
132.0928148707
 10
158.7311236746
 20
132.1203393792
 10
158.828611664
 20
132.1447806034
 10
158.9245868746
 20
132.166500343
 10
159.0188278888
 20
132.1854440897
 10
159.1115561243
 20
132.2016663518
 10
159.2018988189
 20
132.2156924534
 10
159.2896883796
 20
132.2275222168
 10
159.3750923993
 20
132.2371558197
 10
159.4577408946
 20
132.2451191195
 10
159.5374924849
 20
132.2514361829
 10
159.6144885508
 20
132.256082943
 10
159.68878325
 20
132.2595130572
 10
159.7603235106
 20
132.2617616328
 10
159.8291624045
 20
132.2627935624
 10
159.8955133051
 20
132.2629571818
 10
159.9593445281
 20
132.2622839702
 10
160.0206877578
 20
132.2607424484
 10
160.0798514208
 20
132.2585865143
 10
160.1368169938
 20
132.2558434112
 10
160.1916030002
 20
132.2524858958
 10
160.2445734366
 20
132.2486861363
 10
160.295719529
 20
132.2444666118
 10
160.3450500514
 20
132.2398048431
 10
160.3929553225
 20
132.2348055613
 10
160.4395654485
 20
132.2295036768
 10
160.4847503232
 20
132.2238642792
 10
160.5285099465
 20
132.2178873686
  0
LWPOLYLINE
  5
28E
100
AcDbEntity
  8
RACCORDO
100
AcDbPolyline
 62
253
  6
CONTINUOUS
 90
4
 70
0
 10
157.8678806972
 20
131.8002318661
 10
157.908218881
 20
131.8258364331
 10
157.9959701188
 20
131.8759210834
 10
158.0192318748
 20
131.8883523597
  0
LINE
  5
28F
100
AcDbEntity
  8
26814000
100
AcDbLine
 62
7
  6
CONTINUOUS
 10
138.2256196573
 20
131.6585925423
 11
138.2256196573
 21
131.4052211485
  0
LINE
  5
290
100
AcDbEntity
  8
26814000
100
AcDbLine
 62
7
  6
CONTINUOUS
 10
138.7306580458
 20
130.5746098342
 11
138.7306580458
 21
131.211779393
  0
LINE
  5
291
100
AcDbEntity
  8
21814000
100
AcDbLine
 62
253
  6
CONTINUOUS
 10
148.9461571247
 20
130.354863257
 11
148.9092097615
 21
130.2984244314
  0
LWPOLYLINE
  5
292
100
AcDbEntity
  8
21814000
100
AcDbPolyline
 62
253
  6
CONTINUOUS
 90
10
 70
0
 10
148.7506538626
 20
130.8025333648
 10
148.7371895346
 20
130.7823334369
 10
148.7245688248
 20
130.7596167099
 10
148.7130511816
 20
130.7348502813
 10
148.7028733719
 20
130.7085433889
 10
148.6942445906
 20
130.6812368781
 10
148.6873421747
 20
130.6534920749
 10
148.682307987
 20
130.6258793371
 10
148.6792454891
 20
130.5989663335
 10
148.6782176008
 20
130.5733063093
  0
LWPOLYLINE
  5
293
100
AcDbEntity
  8
21814000
100
AcDbPolyline
 62
253
  6
CONTINUOUS
 90
10
 70
0
 10
150.2466716258
 20
130.3706702357
 10
150.2332076844
 20
130.3504709995
 10
150.2205872033
 20
130.3277549048
 10
150.2090696385
 20
130.3029889562
 10
150.1988917718
 20
130.2766823004
 10
150.190262843
 20
130.2493757579
 10
150.1833602485
 20
130.2216307056
 10
150.1783258941
 20
130.1940175353
 10
150.1752632776
 20
130.1671039275
 10
150.1742353614
 20
130.1414431809
  0
LWPOLYLINE
  5
294
100
AcDbEntity
  8
21814000
100
AcDbPolyline
 62
7
  6
CONTINUOUS
 90
7
 70
0
 10
157.3293816858
 20
132.5065829873
 10
157.2412096832
 20
132.4219346499
 10
157.1649941206
 20
132.3344320013
 10
157.1011021998
 20
132.2444966238
 10
157.0498417482
 20
132.1525618206
 10
157.0114597356
 20
132.0590705279
 10
157.0085749206
 20
132.0482920768
  0
LINE
  5
295
100
AcDbEntity
  8
26814000
100
AcDbLine
 62
7
  6
CONTINUOUS
 10
152.7498538167
 20
127.8258078285
 11
153.8642373312
 21
128.8153345423
  0
LINE
  5
296
100
AcDbEntity
  8
21814000
100
AcDbLine
 62
7
  6
CONTINUOUS
 10
160.1481204745
 20
134.9976349584
 11
157.3293816858
 21
132.5065829873
  0
LINE
  5
297
100
AcDbEntity
  8
0
100
AcDbLine
 62
7
  6
CONTINUOUS
 10
158.2112745074
 20
131.7011026117
 11
158.2378667557
 21
131.7241321744
  0
LINE
  5
298
100
AcDbEntity
  8
21814000
100
AcDbLine
 62
7
  6
CONTINUOUS
 10
160.1481204745
 20
134.5897836911
 11
157.3293816858
 21
132.185258705
  0
LINE
  5
299
100
AcDbEntity
  8
26814000
100
AcDbLine
 62
7
  6
CONTINUOUS
 10
153.8642373312
 20
128.8153345423
 11
154.2437506669
 21
129.1358447788
  0
LINE
  5
29A
100
AcDbEntity
  8
26814000
100
AcDbLine
 62
253
  6
CONTINUOUS
 10
154.8114313377
 20
129.0148353305
 11
157.9272910365
 21
131.6132792745
  0
LINE
  5
29B
100
AcDbEntity
  8
26814000
100
AcDbLine
 62
253
  6
CONTINUOUS
 10
155.0629560775
 20
128.9422263924
 11
158.3186806585
 21
131.6573094317
  0
LWPOLYLINE
  5
29C
100
AcDbEntity
  8
21814000
100
AcDbPolyline
 62
7
  6
CONTINUOUS
 90
7
 70
0
 10
167.0007898932
 20
127.8327362537
 10
166.9861533443
 20
127.827502548
 10
166.9723588927
 20
127.8247310145
 10
166.9594065385
 20
127.8244216534
 10
166.9472962817
 20
127.8265744645
 10
166.9360281223
 20
127.831189448
 10
166.9256020603
 20
127.8382666037
  0
LINE
  5
29D
100
AcDbEntity
  8
26814000
100
AcDbLine
 62
7
  6
CONTINUOUS
 10
139.4882156284
 20
131.2332837347
 11
139.4882156284
 21
132.9653345423
  0
LINE
  5
29E
100
AcDbEntity
  8
26814000
100
AcDbLine
 62
7
  6
CONTINUOUS
 10
139.98317724
 20
133.1795128953
 11
139.98317724
 21
132.918583919
  0
LINE
  5
29F
100
AcDbEntity
  8
28414000
100
AcDbLine
 62
7
  6
CONTINUOUS
 10
143.6589940729
 20
128.2042552399
 11
143.6541389659
 21
128.1828089903
  0
LWPOLYLINE
  5
2A0
100
AcDbEntity
  8
21814000
100
AcDbPolyline
 62
253
  6
CONTINUOUS
 90
9
 70
0
 10
147.7270929362
 20
131.7998641073
 10
147.7290697977
 20
131.8058677991
 10
147.7310363841
 20
131.8111047752
 10
147.7329841986
 20
131.815550207
 10
147.7349055374
 20
131.8191838392
 10
147.7367912316
 20
131.8219856147
 10
147.7386308485
 20
131.8239391098
 10
147.740417265
 20
131.8250366908
 10
147.7420223149
 20
131.8252846435
  0
LWPOLYLINE
  5
2A1
100
AcDbEntity
  8
26814000
100
AcDbPolyline
 62
7
  6
CONTINUOUS
 90
8
 70
0
 10
159.0589349526
 20
130.6687437199
 10
159.0595659256
 20
130.6693346002
 10
159.0612885286
 20
130.6712989678
 10
159.0626284644
 20
130.6734260687
 10
159.0635965421
 20
130.6756832804
 10
159.0642010431
 20
130.6780756869
 10
159.0644504306
 20
130.6806112362
 10
159.064458518
 20
130.681194502
  0
LINE
  5
2A2
100
AcDbEntity
  8
26814000
100
AcDbLine
 62
253
  6
CONTINUOUS
 10
156.2233363717
 20
128.6072534548
 11
159.0528244384
 21
131.2477302204
  0
LINE
  5
2A3
100
AcDbEntity
  8
26814000
100
AcDbLine
 62
253
  6
CONTINUOUS
 10
156.3510573715
 20
128.4496237545
 11
159.0268444384
 21
130.9466668285
  0
LINE
  5
2A4
100
AcDbEntity
  8
26814000
100
AcDbLine
 62
253
  6
CONTINUOUS
 10
156.3510573715
 20
128.3207838486
 11
159.0268444384
 21
130.7344076744
  0
LINE
  5
2A5
100
AcDbEntity
  8
26814000
100
AcDbLine
 62
7
  6
CONTINUOUS
 10
156.3510573715
 20
128.2261685052
 11
159.058872255
 21
130.6686821864
  0
LINE
  5
2A6
100
AcDbEntity
  8
26814000
100
AcDbLine
 62
7
  6
CONTINUOUS
 10
155.8560957599
 20
126.5082837347
 11
155.0985381773
 21
125.8496098342
  0
LINE
  5
2A7
100
AcDbEntity
  8
26814000
100
AcDbLine
 62
7
  6
CONTINUOUS
 10
155.8560957599
 20
128.2403345423
 11
156.228036857
 21
128.5630306958
  0
LINE
  5
2A8
100
AcDbEntity
  8
RACCORDO
100
AcDbLine
 62
7
  6
CONTINUOUS
 10
160.5285099465
 20
132.2178873686
 11
159.6011646389
 21
131.4147827741
  0
LINE
  5
2A9
100
AcDbEntity
  8
0
100
AcDbLine
 62
7
  6
CONTINUOUS
 10
161.2040890093
 20
131.6771229743
 11
160.5514389973
 21
131.1119114841
  0
LINE
  5
2AA
100
AcDbEntity
  8
RACCORDO
100
AcDbLine
 62
7
  6
CONTINUOUS
 10
161.5677422485
 20
131.9178889425
 11
160.6528001127
 21
131.1255258099
  0
LINE
  5
2AB
100
AcDbEntity
  8
26814000
100
AcDbLine
 62
7
  6
CONTINUOUS
 10
154.7190248416
 20
127.2573571179
 11
155.8560957599
 21
128.2403345423
  0
LINE
  5
2AC
100
AcDbEntity
  8
26814000
100
AcDbLine
 62
253
  6
CONTINUOUS
 10
156.5293008407
 20
126.8837387474
 11
156.0293008407
 21
126.4582837347
  0
LINE
  5
2AD
100
AcDbEntity
  8
21814000
100
AcDbLine
 62
7
  6
CONTINUOUS
 10
159.7346353171
 20
130.2459940947
 11
155.969419363
 21
127.0453626083
  0
LINE
  5
2AE
100
AcDbEntity
  8
21814000
100
AcDbLine
 62
7
  6
CONTINUOUS
 10
165.0098823041
 20
133.8822587272
 11
162.5931628216
 21
131.8560082086
  0
LWPOLYLINE
  5
2AF
100
AcDbEntity
  8
RACCORDO
100
AcDbPolyline
 62
7
  6
CONTINUOUS
 90
10
 70
0
 10
161.567721816
 20
131.9178712475
 10
161.5757803332
 20
131.9243205512
 10
161.5837143559
 20
131.9296333115
 10
161.5915238841
 20
131.9338095285
 10
161.5992760788
 20
131.936860028
 10
161.6069037791
 20
131.9387739841
 10
161.6142055019
 20
131.9395189194
 10
161.6211140863
 20
131.9390840083
 10
161.6276966932
 20
131.9374800764
 10
161.6319635089
 20
131.9357327962
  0
LWPOLYLINE
  5
2B0
100
AcDbEntity
  8
290140000
100
AcDbPolyline
 62
253
  6
CONTINUOUS
 90
22
 70
0
 10
151.7061124988
 20
122.9360282017
 10
151.6522934058
 20
122.8946773028
 10
151.5984655292
 20
122.8468730508
 10
151.5448895853
 20
122.7928545629
 10
151.4918222215
 20
122.7328957548
 10
151.4395231697
 20
122.6672919535
 10
151.3882543524
 20
122.5963560515
 10
151.3382586109
 20
122.5204292486
 10
151.2897847378
 20
122.439896123
 10
151.2430936504
 20
122.3551727008
 10
151.1984203475
 20
122.2666991529
 10
151.1559698773
 20
122.1748994009
 10
151.1159446868
 20
122.0801922122
 10
151.0785333537
 20
121.9830243441
 10
151.0439267686
 20
121.8838959374
 10
151.0123122393
 20
121.7833224546
 10
150.983847595
 20
121.6818171979
 10
150.958664177
 20
121.5798683367
 10
150.9368860448
 20
121.4779614152
 10
150.9186209434
 20
121.3765944372
 10
150.9039579202
 20
121.2762754742
 10
150.8929692978
 20
121.1775011495
  0
LINE
  5
2B1
100
AcDbEntity
  8
290140000
100
AcDbLine
 62
253
  6
CONTINUOUS
 10
154.7062405235
 20
124.9923420856
 11
151.7061124988
 21
122.9360282017
  0
LINE
  5
2B2
100
AcDbEntity
  8
290140000
100
AcDbLine
 62
253
  6
CONTINUOUS
 10
155.3570263768
 20
124.0674244378
 11
152.356898352
 21
122.0111105538
  0
LINE
  5
2B3
100
AcDbEntity
  8
26814000
100
AcDbLine
 62
7
  6
CONTINUOUS
 10
155.082409732
 20
124.9418418185
 11
155.657409732
 21
125.3175216944
  0
LWPOLYLINE
  5
2B4
100
AcDbEntity
  8
290140000
100
AcDbPolyline
 62
253
  6
CONTINUOUS
 90
16
 70
0
 10
151.9692062237
 20
121.1928390361
 10
151.9232377166
 20
121.1716230843
 10
151.8705285406
 20
121.1528256959
 10
151.8116371594
 20
121.1366460328
 10
151.7471875381
 20
121.1232555216
 10
151.6778625327
 20
121.1127960372
 10
151.6043966545
 20
121.1053784
 10
151.5275682885
 20
121.1010812011
 10
151.4481914455
 20
121.0999499701
 10
151.3671071383
 20
121.1019966927
 10
151.2851744701
 20
121.1071996835
 10
151.2032615331
 20
121.1155038158
 10
151.1222362103
 20
121.1268211058
 10
151.0429569801
 20
121.1410316448
 10
150.966263821
 20
121.1579848695
 10
150.8929693113
 20
121.1775011572
  0
LINE
  5
2B5
100
AcDbEntity
  8
26814000
100
AcDbLine
 62
7
  6
CONTINUOUS
 10
142.479053593
 20
131.0873104303
 11
142.479053593
 21
129.8727344798
  0
LINE
  5
2B6
100
AcDbEntity
  8
26814000
100
AcDbLine
 62
253
  6
CONTINUOUS
 10
142.629053593
 20
130.9566488202
 11
142.629053593
 21
129.7416939541
  0
LINE
  5
2B7
100
AcDbEntity
  8
26814000
100
AcDbLine
 62
7
  6
CONTINUOUS
 10
142.9701375665
 20
128.4383536161
 11
142.9701375665
 21
128.3802631864
  0
LINE
  5
2B8
100
AcDbEntity
  8
26814000
100
AcDbLine
 62
253
  6
CONTINUOUS
 10
156.0293008407
 20
126.4582837347
 11
154.7793008407
 21
125.356857757
  0
LINE
  5
2B9
100
AcDbEntity
  8
26814000
100
AcDbLine
 62
253
  6
CONTINUOUS
 10
156.332409732
 20
126.0676633015
 11
155.082409732
 21
124.9662373237
  0
LINE
  5
2BA
100
AcDbEntity
  8
21814000
100
AcDbLine
 62
253
  6
CONTINUOUS
 10
166.5104582718
 20
132.9352463618
 11
156.832409732
 21
124.5211041425
  0
LINE
  5
2BB
100
AcDbEntity
  8
26814000
100
AcDbLine
 62
253
  6
CONTINUOUS
 10
156.832409732
 20
126.4931183142
 11
156.332409732
 21
126.0676633015
  0
LINE
  5
2BC
100
AcDbEntity
  8
21814000
100
AcDbLine
 62
7
  6
CONTINUOUS
 10
165.9966248758
 20
133.5974106825
 11
160.6564935362
 21
129.0580183302
  0
LWPOLYLINE
  5
2BD
100
AcDbEntity
  8
21814000
100
AcDbPolyline
 62
7
  6
CONTINUOUS
 90
8
 70
0
 10
165.9966248758
 20
133.5974106825
 10
166.0354699949
 20
133.6289266218
 10
166.0712348356
 20
133.6542374892
 10
166.1036018479
 20
133.6732804846
 10
166.1321339375
 20
133.6860924158
 10
166.1566908052
 20
133.6926928883
 10
166.177429336
 20
133.6930756139
 10
166.1843252973
 20
133.6916032099
  0
LWPOLYLINE
  5
2BE
100
AcDbEntity
  8
290140000
100
AcDbPolyline
 62
253
  6
CONTINUOUS
 90
22
 70
0
 10
152.356898352
 20
122.0111105538
 10
152.3311069965
 20
121.9918995759
 10
152.3055254797
 20
121.9698885993
 10
152.2801538017
 20
121.945077624
 10
152.2548580497
 20
121.9173101107
 10
152.2297721364
 20
121.8867425987
 10
152.2052978003
 20
121.8538447061
 10
152.1814529281
 20
121.8185858404
 10
152.158219633
 20
121.7809965941
 10
152.1359459939
 20
121.7416383625
 10
152.1146497354
 20
121.7004914156
 10
152.0943131329
 20
121.6575754833
 10
152.0752310907
 20
121.6135111511
 10
152.0574184624
 20
121.5682713626
 10
152.0408603943
 20
121.5218831742
 10
152.0258072293
 20
121.4750483409
 10
152.0122826251
 20
121.4277498283
 10
152.000262924
 20
121.3800046708
 10
151.9899274963
 20
121.332565727
 10
151.9813361321
 20
121.2856839497
 10
151.9744290412
 20
121.2391083861
 10
151.9692062237
 20
121.1928390361
  0
LINE
  5
2BF
100
AcDbEntity
  8
28414000
100
AcDbLine
 62
7
  6
CONTINUOUS
 10
148.8551464956
 20
126.7042552399
 11
148.8502913886
 21
126.6828089903
  0
LINE
  5
2C0
100
AcDbEntity
  8
21814000
100
AcDbLine
 62
253
  6
CONTINUOUS
 10
166.9256020603
 20
131.8131589083
 11
156.832409732
 21
122.7088584266
  0
LINE
  5
2C1
100
AcDbEntity
  8
26814000
100
AcDbLine
 62
7
  6
CONTINUOUS
 10
147.1951375665
 20
131.7832330147
 11
147.1951375665
 21
133.0540143248
  0
LINE
  5
2C2
100
AcDbEntity
  8
26814000
100
AcDbLine
 62
253
  6
CONTINUOUS
 10
147.4951375665
 20
134.5411215138
 11
147.4951375665
 21
133.3092873324
  0
LINE
  5
2C3
100
AcDbEntity
  8
26814000
100
AcDbLine
 62
7
  6
CONTINUOUS
 10
147.5353299454
 20
134.6153678886
 11
147.5353299454
 21
133.3831568785
  0
LINE
  5
2C4
100
AcDbEntity
  8
26814000
100
AcDbLine
 62
7
  6
CONTINUOUS
 10
147.6281502684
 20
132.3764561355
 11
147.6281502684
 21
132.9290143248
  0
LINE
  5
2C5
100
AcDbEntity
  8
26814000
100
AcDbLine
 62
7
  6
CONTINUOUS
 10
156.28918717
 20
127.951775524
 11
155.9179659613
 21
127.2509251545
  0
LWPOLYLINE
  5
2C6
100
AcDbEntity
  8
21814000
100
AcDbPolyline
 62
253
  6
CONTINUOUS
 90
24
 70
0
 10
167.000738648
 20
126.2788945533
 10
167.012744967
 20
126.2869540917
 10
167.023906859
 20
126.2928116934
 10
167.0341963077
 20
126.2964910213
 10
167.0435480957
 20
126.2978875064
 10
167.0519513996
 20
126.2971662425
 10
167.0594615288
 20
126.2947529392
 10
167.066026186
 20
126.2907138819
 10
167.0716185975
 20
126.2850436308
 10
167.0763438444
 20
126.2780519449
 10
167.0801847046
 20
126.269833708
 10
167.0830748399
 20
126.26036186
 10
167.0850483001
 20
126.2497632097
 10
167.0860841989
 20
126.2381124031
 10
167.0861063741
 20
126.2254197673
 10
167.0850621808
 20
126.2117210076
 10
167.08291563
 20
126.1970899884
 10
167.0795926841
 20
126.1815572054
 10
167.0749779443
 20
126.1651004338
 10
167.0690411864
 20
126.1478330209
 10
167.0616903998
 20
126.1297681392
 10
167.0527022615
 20
126.1107497462
 10
167.042055265
 20
126.0909368499
 10
167.0384443238
 20
126.0849569161
  0
LINE
  5
2C7
100
AcDbEntity
  8
26814000
100
AcDbLine
 62
7
  6
CONTINUOUS
 10
154.2791141758
 20
105.3706190381
 11
154.432409732
 21
105.3263664227
  0
LWPOLYLINE
  5
2C8
100
AcDbEntity
  8
290140000
100
AcDbPolyline
 62
253
  6
CONTINUOUS
 90
22
 70
0
 10
149.852799244
 20
84.4829387222
 10
149.8528813843
 20
84.4401053744
 10
149.8547395743
 20
84.3991796519
 10
149.858373814
 20
84.3601615546
 10
149.8638186043
 20
84.3228586373
 10
149.8710394443
 20
84.2874633453
 10
149.8799328311
 20
84.2545530142
 10
149.890525116
 20
84.2241804263
 10
149.9027899477
 20
84.1962927994
 10
149.9165447693
 20
84.1713091229
 10
149.9318093263
 20
84.1492762064
 10
149.9485638732
 20
84.1301472403
 10
149.9665666169
 20
84.1142007855
 10
149.9858404292
 20
84.1014816086
 10
150.0063624383
 20
84.0919449429
 10
150.0278222362
 20
84.0857350495
 10
150.0502406411
 20
84.0829095175
 10
150.0735968348
 20
84.0834107577
 10
150.0975179546
 20
84.0872102649
 10
150.121879713
 20
84.094298537
 10
150.1468063977
 20
84.1046850761
 10
150.1722980085
 20
84.1183698819
  0
LINE
  5
2C9
100
AcDbEntity
  8
21814000
100
AcDbLine
 62
7
  6
CONTINUOUS
 10
148.8282173547
 20
130.3816286316
 11
148.8282175608
 21
130.3814284541
  0
LWPOLYLINE
  5
2CA
100
AcDbEntity
  8
290140000
100
AcDbPolyline
 62
253
  6
CONTINUOUS
 90
16
 70
0
 10
148.7709034759
 20
84.369446022
 10
148.770923863
 20
84.2779791283
 10
148.7747258656
 20
84.1899192969
 10
148.7822910528
 20
84.1057010962
 10
148.7935842207
 20
84.0257427193
 10
148.8085489026
 20
83.9504349969
 10
148.8271092166
 20
83.8801415982
 10
148.8491807391
 20
83.8152023814
 10
148.8746546831
 20
83.7559485628
 10
148.903392132
 20
83.7026888325
 10
148.9352469247
 20
83.6556910313
 10
148.9700685204
 20
83.6151720151
 10
149.0076895645
 20
83.5813200299
 10
149.0479394374
 20
83.5542997363
 10
149.0906164892
 20
83.5342553969
 10
149.1122985837
 20
83.5270280984
  0
LINE
  5
2CB
100
AcDbEntity
  8
21814000
100
AcDbLine
 62
253
  6
CONTINUOUS
 10
147.7493642308
 20
130.8414431809
 11
147.7493642308
 21
130.6332429961
  0
LINE
  5
2CC
100
AcDbEntity
  8
21814000
100
AcDbLine
 62
253
  6
CONTINUOUS
 10
148.6782175982
 20
130.57330631
 11
148.6782175982
 21
130.3651061252
  0
LINE
  5
2CD
100
AcDbEntity
  8
26814000
100
AcDbLine
 62
7
  6
CONTINUOUS
 10
149.032315393
 20
126.6883536161
 11
149.032315393
 21
126.6302631864
  0
LINE
  5
2CE
100
AcDbEntity
  8
26814000
100
AcDbLine
 62
7
  6
CONTINUOUS
 10
149.5781502684
 20
133.7297881829
 11
149.5781502684
 21
133.4589878902
  0
LINE
  5
2CF
100
AcDbEntity
  8
26814000
100
AcDbLine
 62
253
  6
CONTINUOUS
 10
149.7233993666
 20
127.6937327331
 11
149.7233993666
 21
128.9086875992
  0
LWPOLYLINE
  5
2D0
100
AcDbEntity
  8
21814000
100
AcDbPolyline
 62
7
  6
CONTINUOUS
 90
7
 70
0
 10
148.8282123806
 20
130.3816694168
 10
148.828075987
 20
130.3773686484
 10
148.8268295606
 20
130.3681286721
 10
148.8240008846
 20
130.3573535102
 10
148.8193121022
 20
130.34520531
 10
148.8126082057
 20
130.331969413
 10
148.8096727362
 20
130.3271582955
  0
LWPOLYLINE
  5
2D1
100
AcDbEntity
  8
290140000
100
AcDbPolyline
 62
253
  6
CONTINUOUS
 90
5
 70
0
 10
150.8929692978
 20
121.1775011495
 10
150.6071240391
 20
118.0436689083
 10
150.3410047445
 20
114.9206114475
 10
150.0946448199
 20
111.8087267807
 10
149.8680751011
 20
108.7084115516
  0
LWPOLYLINE
  5
2D2
100
AcDbEntity
  8
26814000
100
AcDbPolyline
 62
7
  6
CONTINUOUS
 90
26
 70
0
 10
149.5781502684
 20
133.7297881829
 10
149.5777449658
 20
133.7641961789
 10
149.5765435115
 20
133.7977551664
 10
149.5745459055
 20
133.8304651454
 10
149.5717454553
 20
133.8623816591
 10
149.5681488535
 20
133.8934491643
 10
149.563776177
 20
133.9235010311
 10
149.5586265903
 20
133.9525181933
 10
149.5527009289
 20
133.9805197171
 10
149.546021777
 20
134.0073961714
 10
149.5385802853
 20
134.0331597426
 10
149.530385303
 20
134.0577982443
 10
149.521485962
 20
134.0811656862
 10
149.511886856
 20
134.1032375108
 10
149.5015833913
 20
134.1240382757
 10
149.4906109184
 20
134.1434956627
 10
149.4789554741
 20
134.1616204855
 10
149.4666310216
 20
134.1784019303
 10
149.4537148008
 20
134.1937352378
 10
149.4402170828
 20
134.2075991254
 10
149.4261275964
 20
134.2200148757
 10
149.4114927682
 20
134.2309415774
 10
149.3962952654
 20
134.2403822724
 10
149.3805524208
 20
134.2483339188
 10
149.3643626594
 20
134.2547464789
 10
149.3555068097
 20
134.2575437774
  0
LINE
  5
2D3
100
AcDbEntity
  8
26814000
100
AcDbLine
 62
253
  6
CONTINUOUS
 10
150.1323299312
 20
127.7501361836
 11
150.1323299312
 21
128.9643396564
  0
LINE
  5
2D4
100
AcDbEntity
  8
21814000
100
AcDbLine
 62
253
  6
CONTINUOUS
 10
150.1742353614
 20
130.1414431809
 11
150.1742353614
 21
129.9332429961
  0
LINE
  5
2D5
100
AcDbEntity
  8
26814000
100
AcDbLine
 62
7
  6
CONTINUOUS
 10
150.4867382564
 20
129.2707193
 11
150.4867382564
 21
128.0582837347
  0
LWPOLYLINE
  5
2D6
100
AcDbEntity
  8
290140000
100
AcDbPolyline
 62
253
  6
CONTINUOUS
 90
9
 70
0
 10
149.8680751011
 20
108.7084115516
 10
149.6613243375
 20
105.6200607267
 10
149.4744191899
 20
102.5440675465
 10
149.3073837448
 20
99.4808238074
 10
149.1602390072
 20
96.4307198401
 10
149.0330033887
 20
93.3941442056
 10
148.92569321
 20
90.3714836907
 10
148.8383226963
 20
87.3631232568
 10
148.7709034759
 20
84.369446022
  0
LWPOLYLINE
  5
2D7
100
AcDbEntity
  8
290140000
100
AcDbPolyline
 62
253
  6
CONTINUOUS
 90
13
 70
0
 10
151.9692062237
 20
121.1928390361
 10
151.6840597505
 20
118.0667180112
 10
151.418651249
 20
114.9521293438
 10
151.1729807192
 20
111.8490730338
 10
150.9470217564
 20
108.7571552498
 10
150.7408007654
 20
105.6767698233
 10
150.5543969603
 20
102.6090982488
 10
150.3878180133
 20
99.5541448749
 10
150.2410562522
 20
96.511905353
 10
150.114167875
 20
93.4835481319
 10
150.0071716142
 20
90.4694626945
 10
149.9200487372
 20
87.469259558
 10
149.852799244
 20
84.4829387222
  0
LINE
  5
2D8
100
AcDbEntity
  8
21814000
100
AcDbLine
 62
7
  6
CONTINUOUS
 10
167.0384443238
 20
126.0697978517
 11
167.8193203017
 21
126.9513354081
  0
LINE
  5
2D9
100
AcDbEntity
  8
26814000
100
AcDbLine
 62
7
  6
CONTINUOUS
 10
154.432409732
 20
105.3263664227
 11
155.657409732
 21
89.1068808279
  0
LWPOLYLINE
  5
2DA
100
AcDbEntity
  8
290140000
100
AcDbPolyline
 62
253
  6
CONTINUOUS
 90
16
 70
0
 10
152.356898352
 20
122.0111105538
 10
152.3563948752
 20
122.0872624124
 10
152.3484295717
 20
122.1648473132
 10
152.3330895959
 20
122.2430159811
 10
152.3105428295
 20
122.320912746
 10
152.2810360462
 20
122.397684902
 10
152.244892214
 20
122.4724920416
 10
152.2025069526
 20
122.5445152726
 10
152.1543442116
 20
122.6129661634
 10
152.1009312015
 20
122.6770953696
 10
152.0428525967
 20
122.7362008715
 10
151.9807441533
 20
122.7896356324
 10
151.9152857692
 20
122.8368146739
 10
151.8471940039
 20
122.8772215141
 10
151.7772142301
 20
122.910413814
 10
151.7061125001
 20
122.9360282025
  0
LINE
  5
2DB
100
AcDbEntity
  8
26814000
100
AcDbLine
 62
7
  6
CONTINUOUS
 10
152.6268333022
 20
127.2479488613
 11
152.6268333022
 21
127.501320255
  0
LINE
  5
2DC
100
AcDbEntity
  8
26814000
100
AcDbLine
 62
7
  6
CONTINUOUS
 10
153.1217949138
 20
126.4202464619
 11
153.1217949138
 21
126.9891950688
  0
LWPOLYLINE
  5
2DD
100
AcDbEntity
  8
290140000
100
AcDbPolyline
 62
253
  6
CONTINUOUS
 90
10
 70
0
 10
150.1722980085
 20
84.1183698819
 10
150.1630603191
 20
84.043025022
 10
150.1464562733
 20
83.970771487
 10
150.12266763
 20
83.902400212
 10
150.0919547953
 20
83.838659634
 10
150.0546539723
 20
83.7802474997
 10
150.0111734805
 20
83.7278032269
 10
149.9619892859
 20
83.6819009052
 10
149.9076397915
 20
83.6430430119
 10
149.9004479219
 20
83.6386648675
  0
LWPOLYLINE
  5
2DE
100
AcDbEntity
  8
21814000
100
AcDbPolyline
 62
7
  6
CONTINUOUS
 90
76
 70
0
 10
167.000738648
 20
126.2788945533
 10
167.044018493
 20
126.3374438201
 10
167.0861094222
 20
126.3948151227
 10
167.1270114357
 20
126.4510084609
 10
167.166697152
 20
126.5059884985
 10
167.2051939525
 20
126.5597905719
 10
167.2425839813
 20
126.6125206899
 10
167.2788720126
 20
126.6641825609
 10
167.3140532721
 20
126.7147724767
 10
167.3481955812
 20
126.764385321
 10
167.3813023343
 20
126.8130221685
 10
167.413370137
 20
126.8606819446
 10
167.4444566275
 20
126.9074563089
 10
167.4745658206
 20
126.9533459502
 10
167.5036937013
 20
126.9983501797
 10
167.5318858633
 20
127.0425585905
 10
167.5591475324
 20
127.0859715405
 10
167.5854734827
 20
127.1285886717
 10
167.6108936301
 20
127.1704985035
 10
167.6354154434
 20
127.2117011489
 10
167.6590314539
 20
127.2521964949
 10
167.6817491714
 20
127.2920727212
 10
167.7035812736
 20
127.3313320587
 10
167.7245150829
 20
127.3699722766
 10
167.7445200765
 20
127.4080748628
 10
167.7636177167
 20
127.44564584
 10
167.7817865413
 20
127.4826791854
 10
167.7989316408
 20
127.5192383191
 10
167.8151011556
 20
127.5553761556
 10
167.8302469454
 20
127.5910397804
 10
167.8441296797
 20
127.6261338706
 10
167.8568025013
 20
127.6607840031
 10
167.8682122674
 20
127.694864601
 10
167.8779602198
 20
127.7279036108
 10
167.8860137248
 20
127.7599091989
 10
167.8924054162
 20
127.7908731989
 10
167.8968344367
 20
127.820299058
 10
167.899224541
 20
127.8481341982
 10
167.8996519746
 20
127.8744311975
 10
167.8980446163
 20
127.8988512373
 10
167.894286976
 20
127.9213380873
 10
167.8884945439
 20
127.9419479777
 10
167.8809416698
 20
127.9605107802
 10
167.871575164
 20
127.976888985
 10
167.8604482161
 20
127.9912201019
 10
167.8479947449
 20
128.0037465324
 10
167.8342706955
 20
128.0144267524
 10
167.8192201227
 20
128.023302286
 10
167.803109109
 20
128.0307401063
 10
167.7859895105
 20
128.0367769445
 10
167.767809471
 20
128.0413760694
 10
167.748679505
 20
128.0447942601
 10
167.7286242652
 20
128.0470670816
 10
167.7076190988
 20
128.0481589689
 10
167.6857005616
 20
128.0482200068
 10
167.6628821797
 20
128.0472727429
 10
167.639150427
 20
128.0452946295
 10
167.61450128
 20
128.042368108
 10
167.5889432671
 20
128.0385077066
 10
167.5624678599
 20
128.033698897
 10
167.5350454504
 20
128.0279805363
 10
167.5066799133
 20
128.0213618333
 10
167.4773673738
 20
128.0138335791
 10
167.4470665998
 20
128.0054070054
 10
167.4157804791
 20
127.9960882931
 10
167.3835061237
 20
127.9858712612
 10
167.3501936382
 20
127.9747485974
 10
167.3158504271
 20
127.9627269016
 10
167.2804690857
 20
127.9497995739
 10
167.2439775051
 20
127.9359395025
 10
167.2063804965
 20
127.9211525011
 10
167.1676732485
 20
127.905432756
 10
167.1277692185
 20
127.8887357141
 10
167.0866395588
 20
127.8710465242
 10
167.0443131171
 20
127.8523800374
 10
167.0007898932
 20
127.8327362537
  0
LINE
  5
2DF
100
AcDbEntity
  8
26814000
100
AcDbLine
 62
253
  6
CONTINUOUS
 10
154.2988065318
 20
132.5780703266
 11
154.2988065318
 21
131.3462317482
  0
LINE
  5
2E0
100
AcDbEntity
  8
26814000
100
AcDbLine
 62
7
  6
CONTINUOUS
 10
154.3381306477
 20
132.6515683884
 11
154.3381306477
 21
131.4193573324
  0
LINE
  5
2E1
100
AcDbEntity
  8
26814000
100
AcDbLine
 62
7
  6
CONTINUOUS
 10
154.5934997889
 20
126.9335925423
 11
154.5934997889
 21
126.6802211485
  0
LINE
  5
2E2
100
AcDbEntity
  8
26814000
100
AcDbLine
 62
7
  6
CONTINUOUS
 10
154.5934997889
 20
85.3806170091
 11
154.5934997889
 21
85.1272456154
  0
LINE
  5
2E3
100
AcDbEntity
  8
26814000
100
AcDbLine
 62
7
  6
CONTINUOUS
 10
155.082409732
 20
124.9662373237
 11
155.082409732
 21
124.9418418185
  0
LINE
  5
2E4
100
AcDbEntity
  8
26814000
100
AcDbLine
 62
7
  6
CONTINUOUS
 10
155.082409732
 20
86.8367240519
 11
155.082409732
 21
86.8123285467
  0
LINE
  5
2E5
100
AcDbEntity
  8
26814000
100
AcDbLine
 62
7
  6
CONTINUOUS
 10
155.0985381773
 20
86.4371752536
 11
155.0985381773
 21
86.7119102848
  0
LINE
  5
2E6
100
AcDbEntity
  8
26814000
100
AcDbLine
 62
7
  6
CONTINUOUS
 10
155.0985381773
 20
125.8496098342
 11
155.0985381773
 21
126.486779393
  0
LINE
  5
2E7
100
AcDbEntity
  8
26814000
100
AcDbLine
 62
7
  6
CONTINUOUS
 10
155.657409732
 20
125.3175216944
 11
155.657409732
 21
123.6676142568
  0
LINE
  5
2E8
100
AcDbEntity
  8
26814000
100
AcDbLine
 62
7
  6
CONTINUOUS
 10
155.657409732
 20
89.1068808279
 11
155.657409732
 21
87.4569733904
  0
LINE
  5
2E9
100
AcDbEntity
  8
26814000
100
AcDbLine
 62
7
  6
CONTINUOUS
 10
155.8560957599
 20
85.9782948376
 11
155.8560957599
 21
87.3565236267
  0
LINE
  5
2EA
100
AcDbEntity
  8
26814000
100
AcDbLine
 62
7
  6
CONTINUOUS
 10
155.8560957599
 20
126.5082837347
 11
155.8560957599
 21
128.2403345423
  0
LINE
  5
2EB
100
AcDbEntity
  8
290140000
100
AcDbLine
 62
7
  6
CONTINUOUS
 10
153.1566735695
 20
85.9014511712
 11
155.3570263768
 21
124.0674244378
  0
LINE
  5
2EC
100
AcDbEntity
  8
26814000
100
AcDbLine
 62
7
  6
CONTINUOUS
 10
155.657409732
 20
123.6676142568
 11
154.432409732
 21
105.3263664227
  0
LWPOLYLINE
  5
2ED
100
AcDbEntity
  8
21814000
100
AcDbPolyline
 62
253
  6
CONTINUOUS
 90
18
 70
0
 10
166.9256020603
 20
126.1378039149
 10
166.9368461246
 20
126.1540815093
 10
166.9476917977
 20
126.1680064672
 10
166.9581053572
 20
126.1795775732
 10
166.9680718972
 20
126.1888435074
 10
166.9775343608
 20
126.1957514908
 10
166.9864066435
 20
126.2001446117
 10
166.9946786929
 20
126.2018480781
 10
167.0023104792
 20
126.2010236176
 10
167.0092062824
 20
126.1980122801
 10
167.0153441402
 20
126.1927342399
 10
167.0207532326
 20
126.1852465437
 10
167.0254378334
 20
126.1760922171
 10
167.0293897066
 20
126.1653270626
 10
167.0326239676
 20
126.1528739549
 10
167.0351615203
 20
126.1390779637
 10
167.0369868837
 20
126.1239842609
 10
167.0380858506
 20
126.1075281774
  0
LWPOLYLINE
  5
2EE
100
AcDbEntity
  8
26814000
100
AcDbPolyline
 62
7
  6
CONTINUOUS
 90
31
 70
0
 10
156.332409732
 20
126.0676633015
 10
156.3319939907
 20
126.0836466078
 10
156.3307490608
 20
126.0998263197
 10
156.3286781324
 20
126.1161579068
 10
156.3257864491
 20
126.1325962417
 10
156.3220819301
 20
126.1490962691
 10
156.3175751482
 20
126.16561313
 10
156.3122782521
 20
126.1821013849
 10
156.3062055389
 20
126.198515657
 10
156.2993740512
 20
126.2148113016
 10
156.2918023266
 20
126.2309434993
 10
156.2835109065
 20
126.2468678553
 10
156.2745228842
 20
126.2625410387
 10
156.2648627305
 20
126.2779199535
 10
156.2545567255
 20
126.2929622803
 10
156.2436334456
 20
126.3076270692
 10
156.2321226923
 20
126.3218740086
 10
156.2200558381
 20
126.335663897
 10
156.2074662386
 20
126.3489591744
 10
156.194388293
 20
126.3617233065
 10
156.1808576933
 20
126.3739211751
 10
156.1669117534
 20
126.385519536
 10
156.1525886231
 20
126.3964865319
 10
156.1379274351
 20
126.406791993
 10
156.122968542
 20
126.4164078102
 10
156.1077529048
 20
126.425307588
 10
156.0923221335
 20
126.433466848
 10
156.0767186249
 20
126.4408633086
 10
156.0609851589
 20
126.4474767013
 10
156.0451647818
 20
126.4532888267
 10
156.0293008407
 20
126.4582837347
  0
LINE
  5
2EF
100
AcDbEntity
  8
26814000
100
AcDbLine
 62
7
  6
CONTINUOUS
 10
156.3510573715
 20
128.4545128953
 11
156.3510573715
 21
128.193583919
  0
LINE
  5
2F0
100
AcDbEntity
  8
26814000
100
AcDbLine
 62
7
  6
CONTINUOUS
 10
156.3510573715
 20
86.8939797796
 11
156.3510573715
 21
86.6330508032
  0
LINE
  5
2F1
100
AcDbEntity
  8
21814000
100
AcDbLine
 62
7
  6
CONTINUOUS
 10
156.832409732
 20
92.100796357
 11
156.832409732
 21
122.7088584266
  0
LINE
  5
2F2
100
AcDbEntity
  8
26814000
100
AcDbLine
 62
7
  6
CONTINUOUS
 10
156.832409732
 20
88.3165364695
 11
156.832409732
 21
126.4931183142
  0
LINE
  5
2F3
100
AcDbEntity
  8
21814000
100
AcDbLine
 62
253
  6
CONTINUOUS
 10
157.3293816858
 20
132.5065829873
 11
157.3293816858
 21
132.185258705
  0
LINE
  5
2F4
100
AcDbEntity
  8
21814000
100
AcDbLine
 62
7
  6
CONTINUOUS
 10
157.8090194982
 20
132.1614010156
 11
157.8090194982
 21
132.5944137175
  0
LINE
  5
2F5
100
AcDbEntity
  8
21814000
100
AcDbLine
 62
253
  6
CONTINUOUS
 10
158.2420439338
 20
131.9925250545
 11
158.2420439338
 21
132.4333577442
  0
LINE
  5
2F6
100
AcDbEntity
  8
21814000
100
AcDbLine
 62
253
  6
CONTINUOUS
 10
158.3783570601
 20
132.0454665195
 11
158.3783570601
 21
132.4946924161
  0
LWPOLYLINE
  5
2F7
100
AcDbEntity
  8
26814000
100
AcDbPolyline
 62
7
  6
CONTINUOUS
 90
15
 70
0
 10
156.332409732
 20
87.8759660784
 10
156.3319947141
 20
87.8602225916
 10
156.3307496385
 20
87.8447616823
 10
156.3286781324
 20
87.8296259131
 10
156.3257862988
 20
87.8148571357
 10
156.3220820627
 20
87.8004958316
 10
156.3175751482
 20
87.7865810009
 10
156.312278103
 20
87.7731509533
 10
156.3062056587
 20
87.7602426862
 10
156.2993740512
 20
87.7478912375
 10
156.2918021826
 20
87.7361306186
 10
156.2835110106
 20
87.7249932446
 10
156.2745228842
 20
87.7145093283
 10
156.264862595
 20
87.704707745
 10
156.2596970654
 20
87.6999905982
  0
LWPOLYLINE
  5
2F8
100
AcDbEntity
  8
26814000
100
AcDbPolyline
 62
7
  6
CONTINUOUS
 90
17
 70
0
 10
159.064458518
 20
130.681194502
 10
159.064353346
 20
130.683261008
 10
159.063917734
 20
130.6860297398
 10
159.0631519284
 20
130.6889239634
 10
159.062063515
 20
130.6919170615
 10
159.0606603979
 20
130.6950132859
 10
159.0589510006
 20
130.6982181789
 10
159.0569427508
 20
130.7015067662
 10
159.054643519
 20
130.7048830256
 10
159.0520620645
 20
130.7083514465
 10
159.0492069192
 20
130.7118875257
 10
159.0460862912
 20
130.7154946734
 10
159.0427094906
 20
130.7191765986
 10
159.0390872449
 20
130.7229088388
 10
159.0352296052
 20
130.7266850709
 10
159.0311455016
 20
130.7305171963
 10
159.0268444384
 20
130.7344076744
  0
LINE
  5
2F9
100
AcDbEntity
  8
26814000
100
AcDbLine
 62
253
  6
CONTINUOUS
 10
159.0268444384
 20
130.9466668285
 11
159.0268444384
 21
130.7344076744
  0
LINE
  5
2FA
100
AcDbEntity
  8
26814000
100
AcDbLine
 62
7
  6
CONTINUOUS
 10
159.0644585263
 20
131.1471960998
 11
159.0644585263
 21
130.6813020424
  0
LINE
  5
2FB
100
AcDbEntity
  8
0
100
AcDbLine
 62
7
  6
CONTINUOUS
 10
159.1037233394
 20
131.4741809085
 11
159.1037233394
 21
131.0968025206
  0
LINE
  5
2FC
100
AcDbEntity
  8
0
100
AcDbLine
 62
7
  6
CONTINUOUS
 10
159.6011646389
 20
131.4147827741
 11
159.6011646389
 21
131.0674060454
  0
LINE
  5
2FD
100
AcDbEntity
  8
21814000
100
AcDbLine
 62
7
  6
CONTINUOUS
 10
160.1481204745
 20
134.9976349584
 11
160.1481204745
 21
134.5897836911
  0
LWPOLYLINE
  5
2FE
100
AcDbEntity
  8
26814000
100
AcDbPolyline
 62
7
  6
CONTINUOUS
 90
11
 70
0
 10
159.0644584568
 20
131.1472920755
 10
159.0640845063
 20
131.1283723423
 10
159.0628941592
 20
131.1080314422
 10
159.0609183391
 20
131.0876463968
 10
159.0581770263
 20
131.0672738649
 10
159.0546941579
 20
131.0469331307
 10
159.0504968519
 20
131.0266402998
 10
159.0455938235
 20
131.0064474366
 10
159.0399992255
 20
130.9863831539
 10
159.0337413842
 20
130.9664513094
 10
159.0268444384
 20
130.9466668285
  0
LWPOLYLINE
  5
2FF
100
AcDbEntity
  8
21814000
100
AcDbPolyline
 62
7
  6
CONTINUOUS
 90
7
 70
0
 10
166.9256020603
 20
126.1378039149
 10
166.9360694079
 20
126.1637643311
 10
166.9473589224
 20
126.1887466234
 10
166.9594706036
 20
126.2127507918
 10
166.9724044516
 20
126.2357768362
 10
166.9861604664
 20
126.2578247567
 10
167.000738648
 20
126.2788945533
  0
LWPOLYLINE
  5
300
100
AcDbEntity
  8
RACCORDO
100
AcDbPolyline
 62
7
  6
CONTINUOUS
 90
13
 70
0
 10
161.2040890093
 20
131.8128624696
 10
161.2038290795
 20
131.8251634202
 10
161.2030427542
 20
131.8368690929
 10
161.2017300333
 20
131.8479794879
 10
161.199879212
 20
131.858565759
 10
161.1975019951
 20
131.8685567522
 10
161.1946334972
 20
131.8777390056
 10
161.1912588863
 20
131.8860867003
 10
161.1873929943
 20
131.8936256552
 10
161.1831154317
 20
131.9002198647
 10
161.1784527354
 20
131.9058239939
 10
161.1733783684
 20
131.9104833777
 10
161.1678923309
 20
131.9141980163
  0
LINE
  5
301
100
AcDbEntity
  8
RACCORDO
100
AcDbLine
 62
7
  6
CONTINUOUS
 10
161.2040890093
 20
131.8128624696
 11
161.2040890093
 21
131.6771229743
  0
LINE
  5
302
100
AcDbEntity
  8
290140000
100
AcDbLine
 62
253
  6
CONTINUOUS
 10
150.8929692978
 20
121.1775011495
 11
133.3442364931
 21
126.2433839539
  0
LINE
  5
303
100
AcDbEntity
  8
290140000
100
AcDbLine
 62
253
  6
CONTINUOUS
 10
151.7061124988
 20
122.9360282017
 11
134.1265348148
 21
128.0108151557
  0
LINE
  5
304
100
AcDbEntity
  8
26814000
100
AcDbLine
 62
7
  6
CONTINUOUS
 10
155.3392711395
 20
123.7594529578
 11
155.657409732
 21
123.6676142568
  0
LWPOLYLINE
  5
305
100
AcDbEntity
  8
26814000
100
AcDbPolyline
 62
7
  6
CONTINUOUS
 90
7
 70
0
 10
159.0528244384
 20
131.2477302204
 10
159.0517466952
 20
131.2519610476
 10
159.0506289657
 20
131.2561896412
 10
159.0494712499
 20
131.2604160012
 10
159.0482735477
 20
131.2646401274
 10
159.0470358591
 20
131.26886202
 10
159.0457581841
 20
131.273081679
  0
LWPOLYLINE
  5
306
100
AcDbEntity
  8
26814000
100
AcDbPolyline
 62
7
  6
CONTINUOUS
 90
6
 70
0
 10
159.0528244384
 20
131.2477302204
 10
159.0570793514
 20
131.2283462813
 10
159.0603341384
 20
131.2087202475
 10
159.0626233238
 20
131.1888827148
 10
159.0639828014
 20
131.1688461056
 10
159.0644584568
 20
131.1472920755
  0
LINE
  5
307
100
AcDbEntity
  8
21814000
100
AcDbLine
 62
253
  6
CONTINUOUS
 10
166.9256020603
 20
131.8131589083
 11
166.9256020603
 21
127.8382666037
  0
LINE
  5
308
100
AcDbEntity
  8
21814000
100
AcDbLine
 62
253
  6
CONTINUOUS
 10
166.9256020603
 20
126.1378039149
 11
166.9256020603
 21
101.2050968387
  0
LINE
  5
309
100
AcDbEntity
  8
21814000
100
AcDbLine
 62
7
  6
CONTINUOUS
 10
167.0384443238
 20
132.0313232374
 11
167.0384443238
 21
128.3227008971
  0
LINE
  5
30A
100
AcDbEntity
  8
21814000
100
AcDbLine
 62
7
  6
CONTINUOUS
 10
167.0384443238
 20
126.0904011074
 11
167.0384443238
 21
101.4232611678
  0
LINE
  5
30B
100
AcDbEntity
  8
21814000
100
AcDbLine
 62
7
  6
CONTINUOUS
 10
167.0384443151
 20
128.3217007359
 11
167.0384442746
 21
128.321409189
  0
LWPOLYLINE
  5
30C
100
AcDbEntity
  8
21814000
100
AcDbPolyline
 62
253
  6
CONTINUOUS
 90
20
 70
0
 10
167.0384442746
 20
128.321409189
 10
167.038137931
 20
128.2826327265
 10
167.0371846692
 20
128.2431135953
 10
167.035605077
 20
128.2049214309
 10
167.0334042202
 20
128.1681154846
 10
167.0305897392
 20
128.1326508952
 10
167.0271725129
 20
128.0985881525
 10
167.0231421625
 20
128.0661452288
 10
167.0184990017
 20
128.0352913514
 10
167.0132464987
 20
128.0060734864
 10
167.0073640649
 20
127.9788276124
 10
167.0008407757
 20
127.9535351801
 10
166.9936794406
 20
127.9302330827
 10
166.9858729299
 20
127.9093416338
 10
166.9774092492
 20
127.8909226243
 10
166.9682935126
 20
127.8749339688
 10
166.9585486172
 20
127.8616396528
 10
166.9481864548
 20
127.8511333181
 10
166.9372028785
 20
127.8433392732
 10
166.9256020603
 20
127.8382666037
  0
LWPOLYLINE
  5
30D
100
AcDbEntity
  8
21814000
100
AcDbPolyline
 62
7
  6
CONTINUOUS
 90
5
 70
0
 10
167.03844455
 20
126.089994561
 10
167.0385379828
 20
126.0949051885
 10
167.03895737
 20
126.1003199684
 10
167.0391925073
 20
126.1019376178
 10
167.03918397
 20
126.101890886
  0
LWPOLYLINE
  5
30E
100
AcDbEntity
  8
21814000
100
AcDbPolyline
 62
253
  6
CONTINUOUS
 90
15
 70
0
 10
167.0860692119
 20
128.3114454899
 10
167.0851359862
 20
128.2680588536
 10
167.083357372
 20
128.2259294075
 10
167.080787314
 20
128.1850250681
 10
167.0774440293
 20
128.1453979864
 10
167.0732908974
 20
128.1071087433
 10
167.0683749635
 20
128.0701120674
 10
167.0627165072
 20
128.0344682849
 10
167.0562436054
 20
128.0003961629
 10
167.0489986211
 20
127.9678634599
 10
167.0410036917
 20
127.9369150073
 10
167.0321634592
 20
127.9078860916
 10
167.0224672532
 20
127.8808929079
 10
167.0119826079
 20
127.8558315736
 10
167.0007310334
 20
127.8327078161
  0
LWPOLYLINE
  5
30F
100
AcDbEntity
  8
21814000
100
AcDbPolyline
 62
253
  6
CONTINUOUS
 90
7
 70
0
 10
167.0384443238
 20
132.0313232374
 10
167.035937049
 20
131.9977568545
 10
167.0268110865
 20
131.9592044206
 10
167.0110734337
 20
131.9211887326
 10
166.9888412185
 20
131.8839927233
 10
166.9602799046
 20
131.8478932247
 10
166.9256020603
 20
131.8131589083
  0
LINE
  5
310
100
AcDbEntity
  8
26814000
100
AcDbLine
 62
7
  6
CONTINUOUS
 10
154.6566295874
 20
85.6220617897
 11
155.0985381773
 21
86.4371752536
  0
LINE
  5
311
100
AcDbEntity
  8
26814000
100
AcDbLine
 62
7
  6
CONTINUOUS
 10
155.0985381773
 20
126.486779393
 11
154.6566295874
 21
126.5466659291
  0
LINE
  5
312
100
AcDbEntity
  8
290140000
100
AcDbLine
 62
7
  6
CONTINUOUS
 10
136.8656423811
 20
130.1424791556
 11
154.7062405235
 21
124.9923420856
  0
LINE
  5
313
100
AcDbEntity
  8
28414000
100
AcDbLine
 62
7
  6
CONTINUOUS
 10
143.6589940729
 20
128.2042552399
 11
148.8551464956
 21
126.7042552399
  0
LINE
  5
314
100
AcDbEntity
  8
26814000
100
AcDbLine
 62
7
  6
CONTINUOUS
 10
135.7700432276
 20
130.5168418185
 11
155.082409732
 21
124.9418418185
  0
LINE
  5
315
100
AcDbEntity
  8
26814000
100
AcDbLine
 62
7
  6
CONTINUOUS
 10
154.7793008407
 20
125.356857757
 11
136.0731521189
 21
130.756857757
  0
LINE
  5
316
100
AcDbEntity
  8
26814000
100
AcDbLine
 62
7
  6
CONTINUOUS
 10
155.0985381773
 20
125.8496098342
 11
153.1217949138
 21
126.4202464619
  0
LINE
  5
317
100
AcDbEntity
  8
26814000
100
AcDbLine
 62
7
  6
CONTINUOUS
 10
138.7306580458
 20
130.5746098342
 11
136.7539147823
 21
131.1452464619
  0
LINE
  5
318
100
AcDbEntity
  8
26814000
100
AcDbLine
 62
7
  6
CONTINUOUS
 10
142.629053593
 20
129.7416939541
 11
149.7233993666
 21
127.6937327331
  0
LINE
  5
319
100
AcDbEntity
  8
21814000
100
AcDbLine
 62
253
  6
CONTINUOUS
 10
156.8234865979
 20
133.5215702691
 11
157.3293816858
 21
132.5065829873
  0
LINE
  5
31A
100
AcDbEntity
  8
0
100
AcDbLine
 62
7
  6
CONTINUOUS
 10
158.2531762442
 20
131.6890066222
 11
158.2378667557
 21
131.7241321744
  0
LWPOLYLINE
  5
31B
100
AcDbEntity
  8
21814000
100
AcDbPolyline
 62
7
  6
CONTINUOUS
 90
10
 70
0
 10
167.0384443238
 20
132.0313232374
 10
167.0336091801
 20
132.153771919
 10
167.0191675877
 20
132.2764420671
 10
166.995210254
 20
132.3988194578
 10
166.9616576862
 20
132.5209065137
 10
166.9186468886
 20
132.6417025438
 10
166.8668825826
 20
132.7593146905
 10
166.8069091058
 20
132.8729374386
 10
166.7387557693
 20
132.9826987729
 10
166.6625857566
 20
133.0882230136
  0
LINE
  5
31C
100
AcDbEntity
  8
21814000
100
AcDbLine
 62
253
  6
CONTINUOUS
 10
167.0380858506
 20
126.1075281774
 11
167.0384443237
 21
126.0904562809
  0
LWPOLYLINE
  5
31D
100
AcDbEntity
  8
21814000
100
AcDbPolyline
 62
253
  6
CONTINUOUS
 90
3
 70
0
 10
167.0853215212
 20
128.4021768105
 10
167.0861392572
 20
128.3561532725
 10
167.0860692119
 20
128.3114454899
  0
LINE
  5
31E
100
AcDbEntity
  8
21814000
100
AcDbLine
 62
253
  6
CONTINUOUS
 10
167.0384443238
 20
101.4232611678
 11
167.0382197532
 21
101.4132090941
  0
LWPOLYLINE
  5
31F
100
AcDbEntity
  8
21814000
100
AcDbPolyline
 62
7
  6
CONTINUOUS
 90
3
 70
0
 10
167.0248516418
 20
101.220822303
 10
167.0350234333
 20
101.321141528
 10
167.0384443238
 20
101.4232611678
  0
LWPOLYLINE
  5
320
100
AcDbEntity
  8
21814000
100
AcDbPolyline
 62
253
  6
CONTINUOUS
 90
7
 70
0
 10
167.0382197532
 20
101.4132090941
 10
167.0336768912
 20
101.3770046809
 10
167.0233164812
 20
101.3411008592
 10
167.0072058488
 20
101.3057309454
 10
166.9854496869
 20
101.2711247862
 10
166.9581893749
 20
101.2375072649
 10
166.9256020603
 20
101.2050968405
  0
LWPOLYLINE
  5
321
100
AcDbEntity
  8
21814000
100
AcDbPolyline
 62
253
  6
CONTINUOUS
 90
11
 70
0
 10
166.6327049817
 20
100.4267991176
 10
166.6867308191
 20
100.4865965301
 10
166.7357097079
 20
100.5512224507
 10
166.7794320324
 20
100.620400105
 10
166.8177107259
 20
100.6938333501
 10
166.8503818635
 20
100.7712075228
 10
166.8773056919
 20
100.8521914242
 10
166.8983671365
 20
100.9364389901
 10
166.9134759499
 20
101.0235897728
 10
166.9225672673
 20
101.1132703859
 10
166.9256020603
 20
101.2050968387
  0
LINE
  5
322
100
AcDbEntity
  8
26814000
100
AcDbLine
 62
7
  6
CONTINUOUS
 10
155.657409732
 20
87.4569733904
 11
155.082409732
 21
86.8367240519
  0
LWPOLYLINE
  5
323
100
AcDbEntity
  8
21814000
100
AcDbPolyline
 62
7
  6
CONTINUOUS
 90
11
 70
0
 10
166.5978135711
 20
100.3932099637
 10
166.6632672966
 20
100.4573100446
 10
166.7245237006
 20
100.526308024
 10
166.7811952525
 20
100.5999355247
 10
166.8328686654
 20
100.6777963846
 10
166.8792852479
 20
100.759627791
 10
166.9202915039
 20
100.8453618172
 10
166.9556074126
 20
100.9347084342
 10
166.9849368322
 20
101.0272318565
 10
167.0080879747
 20
101.12270561
 10
167.0248516418
 20
101.220822303
  0
LINE
  5
324
100
AcDbEntity
  8
21814000
100
AcDbLine
 62
253
  6
CONTINUOUS
 10
166.597813923
 20
100.3932102852
 11
166.6327049817
 21
100.4267991176
  0
LINE
  5
325
100
AcDbEntity
  8
21814000
100
AcDbLine
 62
7
  6
CONTINUOUS
 10
166.5978135711
 20
100.3932099637
 11
156.832409732
 21
91.4744982163
  0
LINE
  5
326
100
AcDbEntity
  8
21814000
100
AcDbLine
 62
253
  6
CONTINUOUS
 10
166.9256020603
 20
101.2050968387
 11
156.832409732
 21
92.100796357
  0
LINE
  5
327
100
AcDbEntity
  8
26814000
100
AcDbLine
 62
7
  6
CONTINUOUS
 10
136.3140528135
 20
131.8411722818
 11
138.2818449655
 21
131.2731196175
  0
LINE
  5
328
100
AcDbEntity
  8
26814000
100
AcDbLine
 62
7
  6
CONTINUOUS
 10
152.681932945
 20
127.1161722818
 11
154.6497250971
 21
126.5481196175
  0
LINE
  5
329
100
AcDbEntity
  8
26814000
100
AcDbLine
 62
253
  6
CONTINUOUS
 10
136.2589531707
 20
131.9729488613
 11
138.2256196573
 21
131.4052211485
  0
LINE
  5
32A
100
AcDbEntity
  8
26814000
100
AcDbLine
 62
253
  6
CONTINUOUS
 10
152.6268333022
 20
127.2479488613
 11
154.5934997889
 21
126.6802211485
  0
LINE
  5
32B
100
AcDbEntity
  8
26814000
100
AcDbLine
 62
7
  6
CONTINUOUS
 10
139.4882156284
 20
131.2332837347
 11
142.479053593
 21
130.3699031827
  0
LINE
  5
32C
100
AcDbEntity
  8
26814000
100
AcDbLine
 62
7
  6
CONTINUOUS
 10
150.4867382564
 20
128.0582837347
 11
152.6268333022
 21
127.4404915093
  0
LINE
  5
32D
100
AcDbEntity
  8
26814000
100
AcDbLine
 62
7
  6
CONTINUOUS
 10
155.8560957599
 20
126.5082837347
 11
156.0293008407
 21
126.4582837347
  0
LINE
  5
32E
100
AcDbEntity
  8
26814000
100
AcDbLine
 62
253
  6
CONTINUOUS
 10
154.5934997889
 20
126.9335925423
 11
152.6268333022
 21
127.501320255
  0
LINE
  5
32F
100
AcDbEntity
  8
26814000
100
AcDbLine
 62
253
  6
CONTINUOUS
 10
138.2256196573
 20
131.6585925423
 11
136.2589531707
 21
132.226320255
  0
LINE
  5
330
100
AcDbEntity
  8
26814000
100
AcDbLine
 62
253
  6
CONTINUOUS
 10
154.7190248416
 20
127.2573571179
 11
152.7498538167
 21
127.8258078285
  0
LINE
  5
331
100
AcDbEntity
  8
26814000
100
AcDbLine
 62
253
  6
CONTINUOUS
 10
138.35114471
 20
131.9823571179
 11
136.3819736852
 21
132.5508078285
  0
LINE
  5
332
100
AcDbEntity
  8
26814000
100
AcDbLine
 62
7
  6
CONTINUOUS
 10
156.5293008407
 20
126.8837387474
 11
155.8614218903
 21
127.0765387933
  0
LINE
  5
333
100
AcDbEntity
  8
26814000
100
AcDbLine
 62
7
  6
CONTINUOUS
 10
140.9976103461
 20
131.3673515914
 11
139.4935417588
 21
131.8015387933
  0
LINE
  5
334
100
AcDbEntity
  8
26814000
100
AcDbLine
 62
7
  6
CONTINUOUS
 10
142.629053593
 20
130.9566488202
 11
149.7233993666
 21
128.9086875992
  0
LINE
  5
335
100
AcDbEntity
  8
26814000
100
AcDbLine
 62
7
  6
CONTINUOUS
 10
142.8657147031
 20
131.4707193
 11
150.4867382564
 21
129.2707193
  0
LINE
  5
336
100
AcDbEntity
  8
26814000
100
AcDbLine
 62
7
  6
CONTINUOUS
 10
137.4963571997
 20
133.5403345423
 11
139.4882156284
 21
132.9653345423
  0
LINE
  5
337
100
AcDbEntity
  8
26814000
100
AcDbLine
 62
7
  6
CONTINUOUS
 10
153.8642373312
 20
128.8153345423
 11
155.8560957599
 21
128.2403345423
  0
LINE
  5
338
100
AcDbEntity
  8
26814000
100
AcDbLine
 62
7
  6
CONTINUOUS
 10
144.1451375665
 20
131.6736936135
 11
150.207315393
 21
129.9236936135
  0
LWPOLYLINE
  5
339
100
AcDbEntity
  8
21814000
100
AcDbPolyline
 62
253
  6
CONTINUOUS
 90
12
 70
0
 10
148.6782175982
 20
130.57330631
 10
148.7031019663
 20
130.5646390671
 10
148.726338227
 20
130.5535867465
 10
148.7476850773
 20
130.5402311981
 10
148.7669046611
 20
130.5246362509
 10
148.7838054469
 20
130.5069390373
 10
148.7982279237
 20
130.4873433911
 10
148.8099982045
 20
130.4659284892
 10
148.8189501259
 20
130.4428692239
 10
148.824954117
 20
130.4185227995
 10
148.8279062941
 20
130.3929980289
 10
148.8282173547
 20
130.3816286316
  0
LWPOLYLINE
  5
33A
100
AcDbEntity
  8
21814000
100
AcDbPolyline
 62
253
  6
CONTINUOUS
 90
9
 70
0
 10
147.1524652112
 20
130.8726575116
 10
147.174445033
 20
130.8641483293
 10
147.1965184873
 20
130.85338621
 10
147.2183147658
 20
130.8405519968
 10
147.2394677255
 20
130.8258613373
 10
147.2596220555
 20
130.8095610489
 10
147.2784392419
 20
130.7919249671
 10
147.2956032161
 20
130.7732493793
 10
147.3047495443
 20
130.7615922005
  0
LWPOLYLINE
  5
33B
100
AcDbEntity
  8
21814000
100
AcDbPolyline
 62
253
  6
CONTINUOUS
 90
9
 70
0
 10
149.5773363418
 20
130.1726575116
 10
149.5993161636
 20
130.1641483293
 10
149.6213896179
 20
130.15338621
 10
149.6431858964
 20
130.1405519968
 10
149.6643388561
 20
130.1258613373
 10
149.6844931861
 20
130.1095610489
 10
149.7033103725
 20
130.0919249671
 10
149.7204743467
 20
130.0732493793
 10
149.7296206749
 20
130.0615922005
  0
LINE
  5
33C
100
AcDbEntity
  8
26814000
100
AcDbLine
 62
253
  6
CONTINUOUS
 10
156.332409732
 20
87.8759660784
 11
156.832409732
 21
88.3165364695
  0
LINE
  5
33D
100
AcDbEntity
  8
26814000
100
AcDbLine
 62
7
  6
CONTINUOUS
 10
156.2597001144
 20
87.6999932844
 11
156.7597001147
 21
88.1405636758
  0
LINE
  5
33E
100
AcDbEntity
  8
26814000
100
AcDbLine
 62
7
  6
CONTINUOUS
 10
156.2596970654
 20
87.6999905982
 11
156.2571259075
 21
87.6977641998
  0
LINE
  5
33F
100
AcDbEntity
  8
26814000
100
AcDbLine
 62
253
  6
CONTINUOUS
 10
155.082409732
 20
86.8123285467
 11
156.332409732
 21
87.8759660784
  0
LINE
  5
340
100
AcDbEntity
  8
26814000
100
AcDbLine
 62
7
  6
CONTINUOUS
 10
155.0071228847
 20
86.6341240959
 11
156.2571228852
 21
87.697761628
  0
LWPOLYLINE
  5
341
100
AcDbEntity
  8
290140000
100
AcDbPolyline
 62
253
  6
CONTINUOUS
 90
16
 70
0
 10
149.852799244
 20
84.4829387222
 10
149.8062487981
 20
84.4516301048
 10
149.7529639911
 20
84.4228469874
 10
149.6935093778
 20
84.3968943283
 10
149.6285148823
 20
84.374047097
 10
149.5586691241
 20
84.354547361
 10
149.4847121218
 20
84.3386017208
 10
149.4074274531
 20
84.3263791211
 10
149.3276339523
 20
84.3180090608
 10
149.2461770349
 20
84.313580221
 10
149.1639197404
 20
84.3131395257
 10
149.0817335883
 20
84.3166916438
 10
149.0004893443
 20
84.3241989404
 10
148.9210477947
 20
84.3355818753
 10
148.844250626
 20
84.3507198459
 10
148.7709115074
 20
84.3694524647
  0
LINE
  5
342
100
AcDbEntity
  8
26814000
100
AcDbLine
 62
7
  6
CONTINUOUS
 10
138.7306580458
 20
131.211779393
 11
138.2887494559
 21
131.2716659291
  0
LWPOLYLINE
  5
343
100
AcDbEntity
  8
21814000
100
AcDbPolyline
 62
253
  6
CONTINUOUS
 90
9
 70
0
 10
148.9461571247
 20
130.354863257
 10
148.9233901419
 20
130.3592714949
 10
148.9014686084
 20
130.3612098948
 10
148.8807607593
 20
130.3606458957
 10
148.8616144425
 20
130.3575889717
 10
148.8443512755
 20
130.3520904724
 10
148.8292612427
 20
130.3442427611
 10
148.8165978247
 20
130.3341776626
 10
148.8105910822
 20
130.3268931919
  0
LINE
  5
344
100
AcDbEntity
  8
21814000
100
AcDbLine
 62
253
  6
CONTINUOUS
 10
147.7763537466
 20
131.8191930332
 11
147.781690849
 21
131.8180635083
  0
LINE
  5
345
100
AcDbEntity
  8
21814000
100
AcDbLine
 62
7
  6
CONTINUOUS
 10
147.7737152837
 20
131.8201886114
 11
147.7816954558
 21
131.818062178
  0
LINE
  5
346
100
AcDbEntity
  8
21814000
100
AcDbLine
 62
253
  6
CONTINUOUS
 10
147.7493642308
 20
130.8414431809
 11
148.6782175982
 21
130.57330631
  0
LINE
  5
347
100
AcDbEntity
  8
21814000
100
AcDbLine
 62
253
  6
CONTINUOUS
 10
150.1742353614
 20
130.1414431809
 11
150.3892093846
 21
130.0793855258
  0
LINE
  5
348
100
AcDbEntity
  8
26814000
100
AcDbLine
 62
253
  6
CONTINUOUS
 10
137.8758705354
 20
133.8608447788
 11
139.8601567255
 21
133.2880306958
  0
LINE
  5
349
100
AcDbEntity
  8
26814000
100
AcDbLine
 62
253
  6
CONTINUOUS
 10
154.2437506669
 20
129.1358447788
 11
156.228036857
 21
128.5630306958
  0
LINE
  5
34A
100
AcDbEntity
  8
26814000
100
AcDbLine
 62
7
  6
CONTINUOUS
 10
137.9451705422
 20
133.8837054358
 11
139.9280773349
 21
133.3112895505
  0
LINE
  5
34B
100
AcDbEntity
  8
26814000
100
AcDbLine
 62
7
  6
CONTINUOUS
 10
154.3130506737
 20
129.1587054358
 11
156.2959574664
 21
128.5862895505
  0
LINE
  5
34C
100
AcDbEntity
  8
21814000
100
AcDbLine
 62
253
  6
CONTINUOUS
 10
147.8218004952
 20
131.0706702357
 11
148.7506538626
 21
130.8025333648
  0
LINE
  5
34D
100
AcDbEntity
  8
21814000
100
AcDbLine
 62
253
  6
CONTINUOUS
 10
150.2466716258
 20
130.3706702357
 11
150.6077419816
 21
130.2664382021
  0
LINE
  5
34E
100
AcDbEntity
  8
21814000
100
AcDbLine
 62
7
  6
CONTINUOUS
 10
146.8549451887
 20
131.5604307314
 11
150.7917792321
 21
130.423964634
  0
LINE
  5
34F
100
AcDbEntity
  8
21814000
100
AcDbLine
 62
253
  6
CONTINUOUS
 10
151.2209165267
 20
130.7912841121
 11
147.7270929362
 21
131.7998641073
  0
LINE
  5
350
100
AcDbEntity
  8
21814000
100
AcDbLine
 62
7
  6
CONTINUOUS
 10
151.2505860669
 20
130.8166797143
 11
147.7816903023
 21
131.8180636661
  0
LINE
  5
351
100
AcDbEntity
  8
26814000
100
AcDbLine
 62
7
  6
CONTINUOUS
 10
151.6997024462
 20
131.2011002626
 11
147.6281502684
 21
132.3764561355
  0
LINE
  5
352
100
AcDbEntity
  8
26814000
100
AcDbLine
 62
7
  6
CONTINUOUS
 10
147.1951375665
 20
133.0540143248
 11
147.6281502684
 21
132.9290143248
  0
LWPOLYLINE
  5
353
100
AcDbEntity
  8
21814000
100
AcDbPolyline
 62
253
  6
CONTINUOUS
 90
16
 70
0
 10
148.7506538626
 20
130.8025333648
 10
148.7927226249
 20
130.7882700432
 10
148.8312962847
 20
130.7711156007
 10
148.8663748419
 20
130.7510700373
 10
148.8982635871
 20
130.7279184449
 10
148.9266572297
 20
130.7018757315
 10
148.950639898
 20
130.6735866216
 10
148.9701213385
 20
130.6429604211
 10
148.9851918045
 20
130.6100878239
 10
148.9952061844
 20
130.5758856361
 10
149.0000111928
 20
130.5402787727
 10
148.999760115
 20
130.5033423187
 10
148.9942676949
 20
130.466218334
 10
148.9834721805
 20
130.4292875056
 10
148.9674353237
 20
130.3921691466
 10
148.9461571247
 20
130.354863257
  0
LINE
  5
354
100
AcDbEntity
  8
21814000
100
AcDbLine
 62
7
  6
CONTINUOUS
 10
160.6564935362
 20
129.0580183302
 11
159.7346353171
 21
130.2459940947
  0
LINE
  5
355
100
AcDbEntity
  8
21814000
100
AcDbLine
 62
7
  6
CONTINUOUS
 10
160.1369563632
 20
135.0201938314
 11
160.1481204745
 21
134.9976349584
  0
LWPOLYLINE
  5
356
100
AcDbEntity
  8
21814000
100
AcDbPolyline
 62
253
  6
CONTINUOUS
 90
10
 70
0
 10
167.0384443238
 20
128.820617525
 10
167.0392178357
 20
128.8168753116
 10
167.0495463222
 20
128.760598698
 10
167.0583392692
 20
128.7056266654
 10
167.0657927641
 20
128.6518792582
 10
167.071981007
 20
128.5993508419
 10
167.0769344529
 20
128.5480996627
 10
167.0807729892
 20
128.4981359086
 10
167.0835573661
 20
128.4494929355
 10
167.0853215212
 20
128.4021768105
  0
LINE
  5
357
100
AcDbEntity
  8
26814000
100
AcDbLine
 62
7
  6
CONTINUOUS
 10
155.8560957599
 20
85.9782948376
 11
156.228036857
 21
86.3085632297
  0
LINE
  5
358
100
AcDbEntity
  8
26814000
100
AcDbLine
 62
7
  6
CONTINUOUS
 10
154.7190248416
 20
85.018004817
 11
155.8560957599
 21
85.9782948376
  0
LINE
  5
359
100
AcDbEntity
  8
290140000
100
AcDbLine
 62
253
  6
CONTINUOUS
 10
150.1722980085
 20
84.1183698819
 11
153.1566735695
 21
85.9014511712
  0
LINE
  5
35A
100
AcDbEntity
  8
290140000
100
AcDbLine
 62
7
  6
CONTINUOUS
 10
152.8892180105
 20
85.4243717646
 11
149.8993993468
 21
83.6380400797
  0
LINE
  5
35B
100
AcDbEntity
  8
26814000
100
AcDbLine
 62
7
  6
CONTINUOUS
 10
148.6165331716
 20
133.2324208383
 11
149.5781502684
 21
133.4589878902
  0
LWPOLYLINE
  5
35C
100
AcDbEntity
  8
21814000
100
AcDbPolyline
 62
7
  6
CONTINUOUS
 90
5
 70
0
 10
146.8685490229
 20
131.6441342126
 10
146.8882903343
 20
131.647811321
 10
146.9091126797
 20
131.648383326
 10
146.9306471154
 20
131.6458311093
 10
146.9525172645
 20
131.6401927749
  0
LWPOLYLINE
  5
35D
100
AcDbEntity
  8
21814000
100
AcDbPolyline
 62
253
  6
CONTINUOUS
 90
12
 70
0
 10
147.6528386703
 20
131.8039614194
 10
147.5793349709
 20
131.8047297805
 10
147.5065818379
 20
131.8021691905
 10
147.4339402111
 20
131.7962036007
 10
147.3620491507
 20
131.7869090598
 10
147.2928258379
 20
131.7745137145
 10
147.226347324
 20
131.7589191052
 10
147.1625365578
 20
131.7402236914
 10
147.103079566
 20
131.718950999
 10
147.0485383576
 20
131.6952755363
 10
146.9983509238
 20
131.669022795
 10
146.9525172645
 20
131.6401927749
  0
LWPOLYLINE
  5
35E
100
AcDbEntity
  8
21814000
100
AcDbPolyline
 62
7
  6
CONTINUOUS
 90
9
 70
0
 10
147.6597181555
 20
131.8299092361
 10
147.5769599222
 20
131.8307831061
 10
147.4942655408
 20
131.8278873586
 10
147.4122512805
 20
131.8212193331
 10
147.3313623046
 20
131.8107742216
 10
147.2518274764
 20
131.7964931387
 10
147.1740329983
 20
131.7782965244
 10
147.0986932359
 20
131.7561704851
 10
147.0263787981
 20
131.7300783225
  0
LINE
  5
35F
100
AcDbEntity
  8
21814000
100
AcDbLine
 62
253
  6
CONTINUOUS
 10
147.7270929362
 20
131.7998641073
 11
147.6528386703
 21
131.8039614194
  0
LINE
  5
360
100
AcDbEntity
  8
21814000
100
AcDbLine
 62
7
  6
CONTINUOUS
 10
147.7420234573
 20
131.8252845531
 11
147.6597181555
 21
131.8299092361
  0
LWPOLYLINE
  5
361
100
AcDbEntity
  8
RACCORDO
100
AcDbPolyline
 62
7
  6
CONTINUOUS
 90
8
 70
0
 10
160.5816213428
 20
132.2391227229
 10
160.5749750174
 20
132.2395189194
 10
160.5676732945
 20
132.2387739841
 10
160.5600455943
 20
132.236860028
 10
160.5522933996
 20
132.2338095285
 10
160.5444838713
 20
132.2296333115
 10
160.5365498487
 20
132.2243205512
 10
160.5284913315
 20
132.2178712475
  0
LWPOLYLINE
  5
362
100
AcDbEntity
  8
26814000
100
AcDbPolyline
 62
7
  6
CONTINUOUS
 90
13
 70
0
 10
158.3186806585
 20
131.6573094317
 10
158.2884130226
 20
131.6594657751
 10
158.2575682538
 20
131.6605011705
 10
158.2261730693
 20
131.6604453803
 10
158.1942106167
 20
131.6593507583
 10
158.1617495142
 20
131.6572300158
 10
158.1289424546
 20
131.6540463576
 10
158.0958199081
 20
131.6498216938
 10
158.0623970306
 20
131.6445858694
 10
158.028801021
 20
131.6382993697
 10
157.9950881636
 20
131.6309602637
 10
157.9612445351
 20
131.6226124308
 10
157.9272910365
 20
131.6132792745
  0
LWPOLYLINE
  5
363
100
AcDbEntity
  8
21814000
100
AcDbPolyline
 62
7
  6
CONTINUOUS
 90
5
 70
0
 10
147.7420223149
 20
131.8252846435
 10
147.7482458263
 20
131.8246933703
 10
147.7567941023
 20
131.8235591708
 10
147.765288277
 20
131.8220569993
 10
147.7737152837
 20
131.8201886114
  0
LINE
  5
364
100
AcDbEntity
  8
0
100
AcDbLine
 62
7
  6
CONTINUOUS
 10
159.6011646389
 20
131.4147827741
 11
159.1037233394
 21
131.4741809085
  0
LWPOLYLINE
  5
365
100
AcDbEntity
  8
RACCORDO
100
AcDbPolyline
 62
7
  6
CONTINUOUS
 90
22
 70
0
 10
160.5816152053
 20
132.2390991798
 10
160.459757765
 20
132.2552544944
 10
160.3305682325
 20
132.2689020297
 10
160.2002929847
 20
132.279149923
 10
160.0692722489
 20
132.285981092
 10
159.937813933
 20
132.2893873383
 10
159.8061937366
 20
132.289365028
 10
159.6747400268
 20
132.2859142203
 10
159.5437754173
 20
132.2790417326
 10
159.413566108
 20
132.2687557853
 10
159.284436481
 20
132.2550721935
 10
159.1567070916
 20
132.2380132113
 10
159.0306330217
 20
132.2175963853
 10
158.9065311047
 20
132.1938513813
 10
158.7847165151
 20
132.166814215
 10
158.6654317206
 20
132.1365082145
 10
158.5489745543
 20
132.1029710945
 10
158.4356612468
 20
132.0662517652
 10
158.325743768
 20
132.0263827446
 10
158.2194965109
 20
131.9834043237
 10
158.1172284149
 20
131.9373747813
 10
158.0192318748
 20
131.8883523597
  0
LINE
  5
366
100
AcDbEntity
  8
0
100
AcDbLine
 62
7
  6
CONTINUOUS
 10
161.2040890093
 20
131.6771229743
 11
161.2736470724
 21
131.6631950489
  0
LWPOLYLINE
  5
367
100
AcDbEntity
  8
26814000
100
AcDbPolyline
 62
7
  6
CONTINUOUS
 90
16
 70
0
 10
149.3555068097
 20
134.2575437774
 10
149.3477390836
 20
134.2596069159
 10
149.330668591
 20
134.2629282666
 10
149.313210299
 20
134.2646996033
 10
149.2953477732
 20
134.2649148987
 10
149.277097448
 20
134.2635801801
 10
149.2585677439
 20
134.2607026016
 10
149.2397700436
 20
134.2562765211
 10
149.2206929645
 20
134.2503075806
 10
149.2014107787
 20
134.2428198609
 10
149.1819128893
 20
134.2338028975
 10
149.1622098933
 20
134.223267155
 10
149.1424078536
 20
134.2112681075
 10
149.1225421247
 20
134.1978242466
 10
149.1025773522
 20
134.1829170807
 10
149.0825135362
 20
134.1665466099
  0
LWPOLYLINE
  5
368
100
AcDbEntity
  8
26814000
100
AcDbPolyline
 62
7
  6
CONTINUOUS
 90
7
 70
0
 10
158.4531338006
 20
131.6312962435
 10
158.4393332151
 20
131.6351485357
 10
158.4137107945
 20
131.6416108206
 10
158.3888293211
 20
131.6470492148
 10
158.3647054863
 20
131.6514931777
 10
158.3413225987
 20
131.65491325
 10
158.3186806585
 20
131.6573094317
  0
LINE
  5
369
100
AcDbEntity
  8
26814000
100
AcDbLine
 62
7
  6
CONTINUOUS
 10
152.6967866487
 20
132.0545531166
 11
148.6165331716
 21
133.2324208383
  0
LINE
  5
36A
100
AcDbEntity
  8
21814000
100
AcDbLine
 62
7
  6
CONTINUOUS
 10
159.7346353171
 20
130.2459940947
 11
158.8677138712
 21
130.4962527598
  0
LINE
  5
36B
100
AcDbEntity
  8
26814000
100
AcDbLine
 62
7
  6
CONTINUOUS
 10
149.5781502684
 20
133.4589878902
 11
153.1372475352
 21
132.4315650077
  0
LINE
  5
36C
100
AcDbEntity
  8
26814000
100
AcDbLine
 62
253
  6
CONTINUOUS
 10
145.4338884586
 20
135.2198139452
 11
146.8606295189
 21
134.8079492776
  0
LINE
  5
36D
100
AcDbEntity
  8
26814000
100
AcDbLine
 62
253
  6
CONTINUOUS
 10
147.5347463401
 20
134.6133485135
 11
149.0825135362
 21
134.1665466099
  0
LINE
  5
36E
100
AcDbEntity
  8
26814000
100
AcDbLine
 62
253
  6
CONTINUOUS
 10
154.337547496
 20
132.6495489742
 11
157.9272910365
 21
131.6132792745
  0
LINE
  5
36F
100
AcDbEntity
  8
26814000
100
AcDbLine
 62
7
  6
CONTINUOUS
 10
147.1643223119
 20
134.8083132162
 11
147.3853299454
 21
134.7445138078
  0
LINE
  5
370
100
AcDbEntity
  8
26814000
100
AcDbLine
 62
7
  6
CONTINUOUS
 10
153.9671230142
 20
132.8445138078
 11
154.1881306477
 21
132.7807143995
  0
LINE
  5
371
100
AcDbEntity
  8
26814000
100
AcDbLine
 62
7
  6
CONTINUOUS
 10
145.4550383911
 20
135.3835107895
 11
149.3555003665
 21
134.2575444038
  0
LINE
  5
372
100
AcDbEntity
  8
26814000
100
AcDbLine
 62
7
  6
CONTINUOUS
 10
154.5516527892
 20
132.7575444038
 11
158.4536861362
 21
131.6311244022
  0
LINE
  5
373
100
AcDbEntity
  8
0
100
AcDbLine
 62
7
  6
CONTINUOUS
 10
159.1037233394
 20
131.4741809085
 11
158.2378667557
 21
131.7241321744
  0
LINE
  5
374
100
AcDbEntity
  8
21814000
100
AcDbLine
 62
7
  6
CONTINUOUS
 10
157.8090194982
 20
132.1614010156
 11
157.4297577063
 21
132.2708844644
  0
LWPOLYLINE
  5
375
100
AcDbEntity
  8
26814000
100
AcDbPolyline
 62
7
  6
CONTINUOUS
 90
20
 70
0
 10
159.0457581841
 20
131.273081679
 10
159.0096690912
 20
131.304554003
 10
158.9738730854
 20
131.3346190816
 10
158.9383701668
 20
131.3632769148
 10
158.9031001085
 20
131.3905346402
 10
158.8681231373
 20
131.4163851203
 10
158.8336199342
 20
131.440806942
 10
158.7996122314
 20
131.463778929
 10
158.7660782967
 20
131.4853222577
 10
158.7331336146
 20
131.5054790448
 10
158.7007940589
 20
131.5242373398
 10
158.6690437558
 20
131.5416090933
 10
158.6379505683
 20
131.5576722731
 10
158.6075252691
 20
131.5724215078
 10
158.5777570856
 20
131.5858621689
 10
158.5486815633
 20
131.5980883387
 10
158.5203111466
 20
131.6090973037
 10
158.4926333911
 20
131.6188917773
 10
158.4656465096
 20
131.6275739829
 10
158.4531338006
 20
131.6312962435
  0
LWPOLYLINE
  5
376
100
AcDbEntity
  8
26814000
100
AcDbPolyline
 62
7
  6
CONTINUOUS
 90
20
 70
0
 10
145.4538586466
 20
135.3838637482
 10
145.4528580304
 20
135.3840424486
 10
145.4500927213
 20
135.3839489606
 10
145.446430518
 20
135.3832015538
 10
145.4417768872
 20
135.3817258102
 10
145.436131751
 20
135.3795226311
 10
145.4294951873
 20
135.3765911154
 10
145.4217728961
 20
135.3728541414
 10
145.4129620048
 20
135.3683102769
 10
145.403065386
 20
135.3629609543
 10
145.3919973582
 20
135.3567333493
 10
145.3797499425
 20
135.3496223971
 10
145.3663311177
 20
135.3416331625
 10
145.3516791385
 20
135.3327080158
 10
145.3357786115
 20
135.3228364976
 10
145.3186449301
 20
135.3120290673
 10
145.3002625287
 20
135.3002594729
 10
145.2806262189
 20
135.2875189639
 10
145.259741189
 20
135.2738162908
 10
145.2376074392
 20
135.2591514538
  0
LINE
  5
377
100
AcDbEntity
  8
21814000
100
AcDbLine
 62
7
  6
CONTINUOUS
 10
162.43479588
 20
132.2406388938
 11
160.4769316599
 21
132.805825611
  0
LINE
  5
378
100
AcDbEntity
  8
21814000
100
AcDbLine
 62
7
  6
CONTINUOUS
 10
161.7590941775
 20
132.5551622358
 11
161.3866255218
 21
132.6626846752
  0
LWPOLYLINE
  5
379
100
AcDbEntity
  8
21814000
100
AcDbPolyline
 62
7
  6
CONTINUOUS
 90
10
 70
0
 10
161.7590941775
 20
132.5551622358
 10
161.7194043555
 20
132.5685344545
 10
161.6792812978
 20
132.581553049
 10
161.6387250043
 20
132.5942180194
 10
161.5977230223
 20
132.6065329606
 10
161.5562878046
 20
132.6184942776
 10
161.5144567098
 20
132.6300911861
 10
161.4722421909
 20
132.641320091
 10
161.4296317949
 20
132.6521845874
 10
161.3866255218
 20
132.6626846752
  0
LWPOLYLINE
  5
37A
100
AcDbEntity
  8
RACCORDO
100
AcDbPolyline
 62
7
  6
CONTINUOUS
 90
3
 70
0
 10
160.5947228382
 20
132.2347071237
 10
160.5884662087
 20
132.2374800764
 10
160.5816213428
 20
132.2391227229
  0
LWPOLYLINE
  5
37B
100
AcDbEntity
  8
RACCORDO
100
AcDbPolyline
 62
253
  6
CONTINUOUS
 90
18
 70
0
 10
161.5677422485
 20
131.9178889425
 10
161.5999584259
 20
131.9019356955
 10
161.6323021654
 20
131.8851979107
 10
161.6647734669
 20
131.867675588
 10
161.6973677641
 20
131.8494424339
 10
161.7300896234
 20
131.8304247419
 10
161.7629527444
 20
131.8104013932
 10
161.7959999866
 20
131.7893799847
 10
161.8291884906
 20
131.7673529196
 10
161.8624033773
 20
131.7440762881
 10
161.8957011545
 20
131.7195556632
 10
161.9290253144
 20
131.693785472
 10
161.9620914549
 20
131.6665050865
 10
161.9949698505
 20
131.6377166451
 10
162.0275902266
 20
131.6074180093
 10
162.0594573568
 20
131.5753421364
 10
162.0906583884
 20
131.5414841714
 10
162.0932520171
 20
131.5384486639
  0
LWPOLYLINE
  5
37C
100
AcDbEntity
  8
RACCORDO
100
AcDbPolyline
 62
7
  6
CONTINUOUS
 90
9
 70
0
 10
161.7264878245
 20
131.8883523597
 10
161.7161147538
 20
131.893791163
 10
161.7056890221
 20
131.8991955668
 10
161.6952109763
 20
131.9045655018
 10
161.6846809129
 20
131.9099009244
 10
161.6740992273
 20
131.9152017411
 10
161.6634664203
 20
131.9204678078
 10
161.6527828961
 20
131.9256990319
 10
161.6319611006
 20
131.9357253454
  0
LINE
  5
37D
100
AcDbEntity
  8
0
100
AcDbLine
 62
7
  6
CONTINUOUS
 10
162.2416359862
 20
131.6167045479
 11
161.7264878245
 21
131.8883523597
  0
LWPOLYLINE
  5
37E
100
AcDbEntity
  8
RACCORDO
100
AcDbPolyline
 62
253
  6
CONTINUOUS
 90
15
 70
0
 10
161.7264878245
 20
131.8883523597
 10
161.7375391038
 20
131.8824878619
 10
161.7722903225
 20
131.8635514372
 10
161.8070934368
 20
131.8437935962
 10
161.8421635537
 20
131.8230226636
 10
161.8774014117
 20
131.8012128629
 10
161.9127024546
 20
131.7783393698
 10
161.9482205818
 20
131.7541947163
 10
161.9838141409
 20
131.7287467839
 10
162.019332344
 20
131.7019658327
 10
162.0548505983
 20
131.6736317064
 10
162.0901705497
 20
131.6437096085
 10
162.1250827612
 20
131.6121674079
 10
162.159566993
 20
131.57877491
 10
162.1636125967
 20
131.574550945
  0
LWPOLYLINE
  5
37F
100
AcDbEntity
  8
RACCORDO
100
AcDbPolyline
 62
7
  6
CONTINUOUS
 90
10
 70
0
 10
161.1678923309
 20
131.9141980163
 10
161.0989656453
 20
131.953299714
 10
161.0313569019
 20
131.9915313013
 10
160.9650661008
 20
132.0288927781
 10
160.9001034362
 20
132.0653871887
 10
160.8364587139
 20
132.1010114888
 10
160.7741013513
 20
132.1357565457
 10
160.713021154
 20
132.169619315
 10
160.6532283163
 20
132.202602841
 10
160.5947228382
 20
132.2347071237
  0
LINE
  5
380
100
AcDbEntity
  8
21814000
100
AcDbLine
 62
253
  6
CONTINUOUS
 10
158.3037815632
 20
135.9665202358
 11
158.3038591276
 21
135.966497878
  0
LINE
  5
381
100
AcDbEntity
  8
21814000
100
AcDbLine
 62
7
  6
CONTINUOUS
 10
164.3924202215
 20
133.3645598904
 11
160.1481204745
 21
134.5897836911
  0
LINE
  5
382
100
AcDbEntity
  8
21814000
100
AcDbLine
 62
253
  6
CONTINUOUS
 10
165.9966248758
 20
133.5974106825
 11
165.0098823041
 21
133.8822587272
  0
LINE
  5
383
100
AcDbEntity
  8
21814000
100
AcDbLine
 62
253
  6
CONTINUOUS
 10
159.251544561
 20
135.5445476502
 11
158.0621227601
 21
135.8879041487
  0
LINE
  5
384
100
AcDbEntity
  8
21814000
100
AcDbLine
 62
7
  6
CONTINUOUS
 10
166.1832443241
 20
133.691915298
 11
165.1770885532
 21
133.9823674506
  0
LINE
  5
385
100
AcDbEntity
  8
21814000
100
AcDbLine
 62
7
  6
CONTINUOUS
 10
159.5678613227
 20
135.6016118763
 11
158.3038842655
 21
135.9664906234
  0
LWPOLYLINE
  5
386
100
AcDbEntity
  8
21814000
100
AcDbPolyline
 62
253
  6
CONTINUOUS
 90
26
 70
0
 10
167.0384443238
 20
130.8140677536
 10
167.0657164656
 20
130.7908680099
 10
167.21028314
 20
130.6543538246
 10
167.3480432937
 20
130.5101580589
 10
167.4783543778
 20
130.3589532791
 10
167.6006085861
 20
130.2014447451
 10
167.7142356894
 20
130.0383671216
 10
167.8187056985
 20
129.8704810494
 10
167.913531336
 20
129.6985695963
 10
167.9982703091
 20
129.5234346048
 10
168.0725273717
 20
129.3458929531
 10
168.1359561682
 20
129.1667727446
 10
168.1882608489
 20
128.9869094462
 10
168.2291974503
 20
128.8071419905
 10
168.2585750326
 20
128.628308863
 10
168.2762565706
 20
128.4512441912
 10
168.2821595926
 20
128.2767738542
 10
168.2762565653
 20
128.1057116302
 10
168.2585750221
 20
127.9388554011
 10
168.2291974346
 20
127.7769834308
 10
168.1882608279
 20
127.6208507354
 10
168.135956142
 20
127.4711855613
 10
168.0725273404
 20
127.3286859887
 10
167.9982702728
 20
127.1940166755
 10
167.9135312949
 20
127.0678057567
 10
167.8193203008
 20
126.9513354071
  0
LWPOLYLINE
  5
387
100
AcDbEntity
  8
21814000
100
AcDbPolyline
 62
7
  6
CONTINUOUS
 90
25
 70
0
 10
167.0384443238
 20
130.8896778849
 10
167.1775103297
 20
130.7664791136
 10
167.3230744866
 20
130.6226421821
 10
167.4608054506
 20
130.4709748534
 10
167.5900816994
 20
130.3121928104
 10
167.7103092586
 20
130.1470402039
 10
167.8208975697
 20
129.9763329418
 10
167.9213561405
 20
129.8008131788
 10
168.0111795025
 20
129.6213232436
 10
168.0898560389
 20
129.4388591566
 10
168.1570428762
 20
129.2541812959
 10
168.212383687
 20
129.0681912423
 10
168.2555195488
 20
128.8821040648
 10
168.2862728652
 20
128.6968377304
 10
168.3045438085
 20
128.5131303893
 10
168.3102539749
 20
128.3319038632
 10
168.3033819648
 20
128.1538349259
 10
168.2839529933
 20
127.9798476925
 10
168.2521535679
 20
127.8111862037
 10
168.2082687624
 20
127.6487432727
 10
168.1525624897
 20
127.493064057
 10
168.0853754066
 20
127.3448288424
 10
168.0071151735
 20
127.2047109845
 10
167.9182532726
 20
127.0733492765
 10
167.8193203008
 20
126.9513354071
  0
LINE
  5
388
100
AcDbEntity
  8
21814000
100
AcDbLine
 62
253
  6
CONTINUOUS
 10
165.9966248758
 20
133.5974106825
 11
166.5104582718
 21
132.9352463618
  0
LINE
  5
389
100
AcDbEntity
  8
21814000
100
AcDbLine
 62
7
  6
CONTINUOUS
 10
166.2069676158
 20
133.6753667825
 11
166.6625857566
 21
133.0882230136
  0
LWPOLYLINE
  5
38A
100
AcDbEntity
  8
21814000
100
AcDbPolyline
 62
253
  6
CONTINUOUS
 90
13
 70
0
 10
166.5104582718
 20
132.9352463618
 10
166.5738623945
 20
132.8492472754
 10
166.6327032416
 20
132.7605636066
 10
166.6867288474
 20
132.6695751124
 10
166.735707866
 20
132.576671419
 10
166.7794305613
 20
132.4822503547
 10
166.8177097055
 20
132.386716246
 10
166.8503813813
 20
132.2904781847
 10
166.8773056838
 20
132.1939482769
 10
166.8983673186
 20
132.0975398796
 10
166.9134760968
 20
132.0016658287
 10
166.9225673206
 20
131.9067366712
 10
166.9256020603
 20
131.8131589083
  0
LWPOLYLINE
  5
38B
100
AcDbEntity
  8
21814000
100
AcDbPolyline
 62
253
  6
CONTINUOUS
 90
10
 70
0
 10
166.6625857566
 20
133.0882230136
 10
166.66287594
 20
133.0877126757
 10
166.6616459444
 20
133.082110567
 10
166.6551310687
 20
133.0724475046
 10
166.6433798001
 20
133.0587954059
 10
166.6264795978
 20
133.041255877
 10
166.6045562417
 20
133.0199594565
 10
166.5777728968
 20
132.9950646436
 10
166.5463288988
 20
132.9667567185
 10
166.5104582705
 20
132.9352463634
  0
LWPOLYLINE
  5
38C
100
AcDbEntity
  8
21814000
100
AcDbPolyline
 62
7
  6
CONTINUOUS
 90
3
 70
0
 10
166.1843252973
 20
133.6916032099
 10
166.1940819947
 20
133.6874097151
 10
166.2056060773
 20
133.677058775
  0
ELLIPSE
  5
38D
100
AcDbEntity
  8
290140000
100
AcDbEllipse
 62
7
  6
CONTINUOUS
 10
136.824291569
 20
129.4168587545
 30
0.0
 11
-0.4519856963
 21
0.6607468411
 31
0.0
 40
0.7976092186
 41
-0.7685000914
 42
0.0488663888
  0
ELLIPSE
  5
38E
100
AcDbEntity
  8
290140000
100
AcDbEllipse
 62
7
  6
CONTINUOUS
 10
154.6639398998
 20
124.2669958715
 30
0.0
 11
-0.4516101732
 21
0.6603396808
 31
0.0
 40
0.7987024602
 41
-2.339193784
 42
-0.7690826899
  0
ELLIPSE
  5
38F
100
AcDbEntity
  8
290140000
100
AcDbEllipse
 62
7
  6
CONTINUOUS
 10
152.4636444133
 20
86.1020168545
 30
0.0
 11
-0.4519856963
 21
0.6607468411
 31
0.0
 40
0.7976092186
 41
-3.1904824265
 42
-2.3399816509
  0
ELLIPSE
  5
390
100
AcDbEntity
  8
21814000
100
AcDbEllipse
 62
7
  6
CONTINUOUS
 10
159.7060739697
 20
132.6869080876
 30
0.0
 11
3.3311309222
 21
-0.0329078462
 31
0.0
 40
0.4868848129
 41
-1.7598262536
 42
-0.5174596551
  0
ELLIPSE
  5
391
100
AcDbEntity
  8
21814000
100
AcDbEllipse
 62
7
  6
CONTINUOUS
 10
160.1978598497
 20
131.4718022056
 30
0.0
 11
2.758363154
 21
-0.0273265302
 31
0.0
 40
0.4868722452
 41
0.4057530735
 42
0.9162345548
  0
ELLIPSE
  5
392
100
AcDbEntity
  8
21814000
100
AcDbEllipse
 62
7
  6
CONTINUOUS
 10
159.7228598497
 20
131.5078135438
 30
0.0
 11
2.7499680117
 21
-0.0272433613
 31
0.0
 40
0.4868722452
 41
2.6315438289
 42
2.7807299778
  0
ELLIPSE
  5
393
100
AcDbEntity
  8
21814000
100
AcDbEllipse
 62
7
  6
CONTINUOUS
 10
160.1978598497
 20
131.4718022056
 30
0.0
 11
2.758363154
 21
-0.0273265302
 31
0.0
 40
0.4868722452
 41
1.187807157
 42
2.6228171827
  0
ELLIPSE
  5
394
100
AcDbEntity
  8
21814000
100
AcDbEllipse
 62
7
  6
CONTINUOUS
 10
164.5519614159
 20
133.2260764113
 30
0.0
 11
0.634164835
 21
0.7522013705
 31
0.0
 40
0.1262496287
 41
0.0574439813
 42
0.6267828571
  0
ELLIPSE
  5
395
100
AcDbEntity
  8
21814000
100
AcDbEllipse
 62
7
  6
CONTINUOUS
 10
159.6937582834
 20
134.6285188545
 30
0.0
 11
-0.3445326374
 21
0.9721604164
 31
0.0
 40
0.5445339671
 41
4.9284629066
 42
6.4818059409
  0
ELLIPSE
  5
396
100
AcDbEntity
  8
21814000
100
AcDbEllipse
 62
7
  6
CONTINUOUS
 10
160.1978598497
 20
133.4165129168
 30
0.0
 11
2.7559589574
 21
-1.0163420204
 31
0.0
 40
0.114043695
 41
-1.1409516105
 42
-1.0832046369
  0
ELLIPSE
  5
397
100
AcDbEntity
  8
21814000
100
AcDbEllipse
 62
7
  6
CONTINUOUS
 10
160.1978598497
 20
133.4165129168
 30
0.0
 11
2.7559589574
 21
-1.0163420204
 31
0.0
 40
0.114043695
 41
-0.927125982
 42
-0.8693790084
  0
ELLIPSE
  5
398
100
AcDbEntity
  8
21814000
100
AcDbEllipse
 62
7
  6
CONTINUOUS
 10
159.7060739697
 20
132.6869080876
 30
0.0
 11
3.3311309222
 21
-0.0329078462
 31
0.0
 40
0.4868848129
 41
2.6214304582
 42
3.4795946281
  0
ELLIPSE
  5
399
100
AcDbEntity
  8
21814000
100
AcDbEllipse
 62
7
  6
CONTINUOUS
 10
160.1978598497
 20
131.9048149075
 30
0.0
 11
2.758363154
 21
-0.0273265302
 31
0.0
 40
0.4868722452
 41
0.1836028841
 42
2.6228171827
  0
ELLIPSE
  5
39A
100
AcDbEntity
  8
26814000
100
AcDbEllipse
 62
7
  6
CONTINUOUS
 10
136.3826935736
 20
132.0815656511
 30
0.0
 11
0.0684814706
 21
0.2404390486
 31
0.0
 40
0.428644886
 41
-4.1259139391
 42
-3.1433005452
  0
ELLIPSE
  5
39B
100
AcDbEntity
  8
26814000
100
AcDbEllipse
 62
7
  6
CONTINUOUS
 10
152.7505737051
 20
127.3565656511
 30
0.0
 11
0.0684814706
 21
0.2404390486
 31
0.0
 40
0.428644886
 41
-4.1259139391
 42
-3.1433005452
  0
ELLIPSE
  5
39C
100
AcDbEntity
  8
26814000
100
AcDbEllipse
 62
7
  6
CONTINUOUS
 10
156.5293008407
 20
126.5806183142
 30
0.0
 11
-0.2291154299
 21
0.2645942523
 31
0.0
 40
0.7500040779
 41
-2.427800975
 42
-0.8570046482
  0
ELLIPSE
  5
39D
100
AcDbEntity
  8
26814000
100
AcDbEllipse
 62
7
  6
CONTINUOUS
 10
156.5293008407
 20
88.4040364695
 30
0.0
 11
-0.2291154299
 21
0.2645942523
 31
0.0
 40
0.7500040779
 41
-3.135114881
 42
-2.427800975
  0
ELLIPSE
  5
39E
100
AcDbEntity
  8
26814000
100
AcDbEllipse
 62
7
  6
CONTINUOUS
 10
147.0143223119
 20
134.6799209222
 30
0.0
 11
0.299999589
 21
-0.0010018703
 31
0.0
 40
0.4956324579
 41
1.04885275
 42
2.6138313126
  0
ELLIPSE
  5
39F
100
AcDbEntity
  8
26814000
100
AcDbEllipse
 62
7
  6
CONTINUOUS
 10
153.8171230142
 20
132.7161215138
 30
0.0
 11
0.299999589
 21
-0.0010018703
 31
0.0
 40
0.4956324579
 41
1.04885275
 42
2.6196490768
  0
ELLIPSE
  5
3A0
100
AcDbEntity
  8
26814000
100
AcDbEllipse
 62
7
  6
CONTINUOUS
 10
155.9798361628
 20
127.1177335495
 30
0.0
 11
0.0684814706
 21
0.2404390486
 31
0.0
 40
0.428644886
 41
1.1100738169
 42
2.1572634867
  0
ELLIPSE
  5
3A1
100
AcDbEntity
  8
26814000
100
AcDbEllipse
 62
7
  6
CONTINUOUS
 10
139.6119560313
 20
131.8427335495
 30
0.0
 11
0.0684814706
 21
0.2404390486
 31
0.0
 40
0.428644886
 41
1.1100738169
 42
2.1572634867
  0
ELLIPSE
  5
3A2
100
AcDbEntity
  8
26814000
100
AcDbEllipse
 62
7
  6
CONTINUOUS
 10
156.2273169686
 20
128.0849671291
 30
0.0
 11
0.0684814706
 21
0.2404390486
 31
0.0
 40
0.428644886
 41
-2.0315188367
 42
-0.9843212855
  0
ELLIPSE
  5
3A3
100
AcDbEntity
  8
26814000
100
AcDbEllipse
 62
7
  6
CONTINUOUS
 10
154.2430161225
 20
128.9187144193
 30
0.0
 11
0.0702014109
 21
0.2399425262
 31
0.0
 40
0.4373714979
 41
0.0015045097
 42
0.5837580666
  0
ELLIPSE
  5
3A4
100
AcDbEntity
  8
26814000
100
AcDbEllipse
 62
7
  6
CONTINUOUS
 10
152.7505737051
 20
127.6099370448
 30
0.0
 11
0.0684814706
 21
0.2404390486
 31
0.0
 40
0.428644886
 41
0.5922928054
 42
2.157271368
  0
ELLIPSE
  5
3A5
100
AcDbEntity
  8
26814000
100
AcDbEllipse
 62
7
  6
CONTINUOUS
 10
139.8594368371
 20
132.8099671291
 30
0.0
 11
0.0684814706
 21
0.2404390486
 31
0.0
 40
0.428644886
 41
-2.0315188367
 42
-0.9843212855
  0
ELLIPSE
  5
3A6
100
AcDbEntity
  8
26814000
100
AcDbEllipse
 62
7
  6
CONTINUOUS
 10
137.875135991
 20
133.6437144193
 30
0.0
 11
0.0702014109
 21
0.2399425262
 31
0.0
 40
0.4373714979
 41
0.0015045097
 42
0.5837580666
  0
ELLIPSE
  5
3A7
100
AcDbEntity
  8
26814000
100
AcDbEllipse
 62
7
  6
CONTINUOUS
 10
136.3826935736
 20
132.3349370448
 30
0.0
 11
0.0684814706
 21
0.2404390486
 31
0.0
 40
0.428644886
 41
0.5922928054
 42
2.157271368
  0
ELLIPSE
  5
3A8
100
AcDbEntity
  8
26814000
100
AcDbEllipse
 62
7
  6
CONTINUOUS
 10
156.2273169686
 20
86.5244340134
 30
0.0
 11
0.0684814706
 21
0.2404390486
 31
0.0
 40
0.428644886
 41
-2.5492998482
 42
-0.9843212855
  0
ELLIPSE
  5
3A9
100
AcDbEntity
  8
26814000
100
AcDbEllipse
 62
7
  6
CONTINUOUS
 10
156.2273169686
 20
86.7853629897
 30
0.0
 11
0.0684814706
 21
0.2404390486
 31
0.0
 40
0.428644886
 41
5.2988640216
 42
6.3460615728
  0
ELLIPSE
  5
3AA
100
AcDbEntity
  8
26814000
100
AcDbEllipse
 62
7
  6
CONTINUOUS
 10
139.8594368371
 20
133.0708961055
 30
0.0
 11
0.0684814706
 21
0.2404390486
 31
0.0
 40
0.428644886
 41
5.2988640216
 42
6.8638425843
  0
ELLIPSE
  5
3AB
100
AcDbEntity
  8
26814000
100
AcDbEllipse
 62
7
  6
CONTINUOUS
 10
156.2273169686
 20
128.3458961055
 30
0.0
 11
0.0684814706
 21
0.2404390486
 31
0.0
 40
0.428644886
 41
5.2988640216
 42
6.8638425843
  0
ELLIPSE
  5
3AC
100
AcDbEntity
  8
26814000
100
AcDbEllipse
 62
7
  6
CONTINUOUS
 10
147.2353299454
 20
133.3842873324
 30
0.0
 11
0.2999990887
 21
-0.0014985322
 31
0.0
 40
0.493445535
 41
-0.5211339597
 42
0.0024169535
  0
ELLIPSE
  5
3AD
100
AcDbEntity
  8
26814000
100
AcDbEllipse
 62
7
  6
CONTINUOUS
 10
154.0381306477
 20
131.4204879241
 30
0.0
 11
0.2999990887
 21
-0.0014985322
 31
0.0
 40
0.493445535
 41
-0.5153161956
 42
0.0024126457
  0
ELLIPSE
  5
3AE
100
AcDbEntity
  8
26814000
100
AcDbEllipse
 62
7
  6
CONTINUOUS
 10
142.779053593
 20
131.0880641473
 30
0.0
 11
0.2999995644
 21
0.001013596
 31
0.0
 40
0.5043590795
 41
8.9052928941
 42
10.4702714567
  0
ELLIPSE
  5
3AF
100
AcDbEntity
  8
26814000
100
AcDbEllipse
 62
7
  6
CONTINUOUS
 10
136.0731521189
 20
130.4537373237
 30
0.0
 11
-0.2291154299
 21
0.2645942523
 31
0.0
 40
0.7500040779
 41
-0.8570046482
 42
0.7137916786
  0
ELLIPSE
  5
3B0
100
AcDbEntity
  8
26814000
100
AcDbEllipse
 62
7
  6
CONTINUOUS
 10
154.7793008407
 20
125.0537373237
 30
0.0
 11
-0.2291154299
 21
0.2645942523
 31
0.0
 40
0.7500040779
 41
-2.427800975
 42
-0.8570046482
  0
ELLIPSE
  5
3B1
100
AcDbEntity
  8
26814000
100
AcDbEllipse
 62
7
  6
CONTINUOUS
 10
149.8733993666
 20
129.0401029263
 30
0.0
 11
0.2999995644
 21
0.001013596
 31
0.0
 40
0.5043590795
 41
-2.0960991576
 42
-0.531120595
  0
ELLIPSE
  5
3B2
100
AcDbEntity
  8
26814000
100
AcDbEllipse
 62
7
  6
CONTINUOUS
 10
149.8733993666
 20
127.8259038504
 30
0.0
 11
0.2999990056
 21
0.0015249177
 31
0.0
 40
0.5065354212
 41
-2.0969698546
 42
-0.531991292
  0
ELLIPSE
  5
3B3
100
AcDbEntity
  8
26814000
100
AcDbEllipse
 62
7
  6
CONTINUOUS
 10
142.779053593
 20
129.8738650715
 30
0.0
 11
0.2999990056
 21
0.0015249177
 31
0.0
 40
0.5065354212
 41
3.1389657313
 42
4.1862154526
  0
ELLIPSE
  5
3B4
100
AcDbEntity
  8
26814000
100
AcDbEllipse
 62
7
  6
CONTINUOUS
 10
154.7793008407
 20
86.8998285467
 30
0.0
 11
-0.2291154299
 21
0.2645942523
 31
0.0
 40
0.7500040779
 41
2.2845880054
 42
3.8553843322
  0
ELLIPSE
  5
3B5
100
AcDbEntity
  8
26814000
100
AcDbEllipse
 62
7
  6
CONTINUOUS
 10
154.0381306477
 20
132.6523221054
 30
0.0
 11
0.299999589
 21
-0.0010018703
 31
0.0
 40
0.4956324579
 41
-0.5161258126
 42
1.04885275
  0
ELLIPSE
  5
3B6
100
AcDbEntity
  8
26814000
100
AcDbEllipse
 62
7
  6
CONTINUOUS
 10
147.2353299454
 20
134.6161215138
 30
0.0
 11
0.299999589
 21
-0.0010018703
 31
0.0
 40
0.4956324579
 41
-0.5219435768
 42
1.04885275
  0
ELLIPSE
  5
3B7
100
AcDbEntity
  8
26814000
100
AcDbEllipse
 62
7
  6
CONTINUOUS
 10
155.9798361628
 20
87.3181294101
 30
0.0
 11
0.0684814706
 21
0.2404390486
 31
0.0
 40
0.428644886
 41
2.1572792494
 42
3.2044689192
  0
ELLIPSE
  5
3B8
100
AcDbEntity
  8
26814000
100
AcDbEllipse
 62
7
  6
CONTINUOUS
 10
154.719759386
 20
127.0414821034
 30
0.0
 11
0.0702014109
 21
0.2399425262
 31
0.0
 40
0.4373714979
 41
0.5953935949
 42
2.1603721576
  0
ELLIPSE
  5
3B9
100
AcDbEntity
  8
26814000
100
AcDbEllipse
 62
7
  6
CONTINUOUS
 10
154.719759386
 20
126.7881107096
 30
0.0
 11
0.0702014109
 21
0.2399425262
 31
0.0
 40
0.4373714979
 41
-4.1228131496
 42
-3.0756155984
  0
ELLIPSE
  5
3BA
100
AcDbEntity
  8
26814000
100
AcDbEllipse
 62
7
  6
CONTINUOUS
 10
138.3518792544
 20
131.7664821034
 30
0.0
 11
0.0702014109
 21
0.2399425262
 31
0.0
 40
0.4373714979
 41
0.5953935949
 42
2.1603721576
  0
ELLIPSE
  5
3BB
100
AcDbEntity
  8
26814000
100
AcDbEllipse
 62
7
  6
CONTINUOUS
 10
138.3518792544
 20
131.5131107096
 30
0.0
 11
0.0702014109
 21
0.2399425262
 31
0.0
 40
0.4373714979
 41
-4.1228131496
 42
-3.0756155984
  0
ELLIPSE
  5
3BC
100
AcDbEntity
  8
26814000
100
AcDbEllipse
 62
7
  6
CONTINUOUS
 10
154.719759386
 20
85.2351351765
 30
0.0
 11
0.0702014109
 21
0.2399425262
 31
0.0
 40
0.4373714979
 41
-4.1228131496
 42
-2.557834587
  0
ELLIPSE
  5
3BD
100
AcDbEntity
  8
26814000
100
AcDbEllipse
 62
7
  6
CONTINUOUS
 10
154.719759386
 20
85.4885065702
 30
0.0
 11
0.0702014109
 21
0.2399425262
 31
0.0
 40
0.4373714979
 41
1.1131746064
 42
2.1603721576
  0
ENDSEC
  0
SECTION
  2
OBJECTS
  0
DICTIONARY
  5
C
100
AcDbDictionary
280
0
281
1
  3
ACAD_GROUP
350
D
  3
ACAD_MLINESTYLE
350
17
  3
ACAD_LAYOUT
350
1A
  3
ACAD_PLOTSETTINGS
350
19
  3
ACAD_PLOTSTYLENAME
350
E
  0
DICTIONARY
  5
D
102
{ACAD_REACTORS
330
C
102
}
100
AcDbDictionary
280
0
281
1
  0
ACDBDICTIONARYWDFLT
  5
E
102
{ACAD_REACTORS
330
C
102
}
100
AcDbDictionary
281
1
  3
Normal
350
F
100
AcDbDictionaryWithDefault
340
F
  0
DICTIONARY
  5
17
102
{ACAD_REACTORS
330
C
102
}
100
AcDbDictionary
280
0
281
1
  3
Standard
350
18
  0
DICTIONARY
  5
19
102
{ACAD_REACTORS
330
C
102
}
100
AcDbDictionary
281
1
  0
DICTIONARY
  5
1A
102
{ACAD_REACTORS
330
C
102
}
100
AcDbDictionary
281
1
  3
Model
350
3BE
  3
Layout1
350
3BF
  0
ACDBPLACEHOLDER
  5
F
102
{ACAD_REACTORS
330
E
102
}
  0
MLINESTYLE
  5
18
102
{ACAD_REACTORS
330
17
102
}
100
AcDbMlineStyle
  2
STANDARD
 70
0
  3

 62
256
 51
90.0
 52
90.0
 71
2
 49
0.5
 62
256
  6
BYLAYER
 49
-0.5
 62
256
  6
BYLAYER
  0
LAYOUT
  5
3BE
102
{ACAD_REACTORS
330
1A
102
}
100
AcDbPlotSettings
  1

  2
none_device
  4
ISO_A4_(297.00_x_210.00_MM)
  6

 40
0.0
 41
0.0
 42
0.0
 43
0.0
 44
297.0
 45
210.0
 46
0.0
 47
0.0
 48
0.0
 49
0.0
140
0.0
141
0.0
142
1.0
143
1.0
 70
1024
 72
1
 73
0
 74
0
  7

 75
0
147
1.0
148
0.0
149
0.0
100
AcDbLayout
  1
Model
 70
0
 71
0
 10
0.0
 20
0.0
 11
297.0
 21
210.0
 12
0.0
 22
0.0
 32
0.0
 14
0.0
 24
0.0
 34
0.0
 15
0.0
 25
0.0
 35
0.0
146
0.0
 13
0.0
 23
0.0
 33
0.0
 16
1.0
 26
0.0
 36
0.0
 17
0.0
 27
1.0
 37
0.0
 76
0
330
229
345
0
346
0
  0
LAYOUT
  5
3BF
102
{ACAD_REACTORS
330
1A
102
}
100
AcDbPlotSettings
  1

  2
none_device
  4
ISO_A4_(297.00_x_210.00_MM)
  6

 40
0.0
 41
0.0
 42
0.0
 43
0.0
 44
297.0
 45
210.0
 46
0.0
 47
0.0
 48
0.0
 49
0.0
140
0.0
141
0.0
142
1.0
143
1.0
 70
0
 72
1
 73
0
 74
0
  7

 75
0
147
1.0
148
0.0
149
0.0
100
AcDbLayout
  1
Layout1
 70
0
 71
1
 10
0.0
 20
0.0
 11
297.0
 21
210.0
 12
0.0
 22
0.0
 32
0.0
 14
0.0
 24
0.0
 34
0.0
 15
0.0
 25
0.0
 35
0.0
146
0.0
 13
0.0
 23
0.0
 33
0.0
 16
1.0
 26
0.0
 36
0.0
 17
0.0
 27
1.0
 37
0.0
 76
0
330
22A
345
0
346
0
  0
ENDSEC
  0
EOF
