  0
SECTION
  2
HEADER
  9
$ACADVER
  1
AC1015
  9
$DWGCODEPAGE
  3
ANSI_1252
  9
$EXTMAX
 10
297.0
 20
210.0
 30
0.0
  9
$EXTMIN
 10
0.0
 20
0.0
 30
0.0
  9
$LIMMIN
 10
0.0
 20
0.0
  9
$LIMMAX
 10
297.0
 20
210.0
  9
$VIEWCTR
 10
148.5
 20
105.0
  9
$VIEWSIZE
 40
210.0
  9
$CLAYER
  8
0
  9
$LTSCALE
 40
16.335
  9
$CELTYPE
  6
BYLAYER
  9
$DIMSCALE
 40
1.0
  9
$DIMASZ
 40
3.0
  9
$DIMEXO
 40
0.5
  9
$DIMDLI
 40
11.286
  9
$DIMEXE
 40
1.5
  9
$DIMCEN
 40
2.673
  9
$DIMLFAC
 40
1.0
  9
$DIMBLK
  1
_FILLED
  9
$DIMTXT
 40
3.0
  9
$DIMTOL
 70
1
  9
$DIMLIM
 70
0
  9
$DIMTFAC
 40
1.0
  9
$DIMTP
 40
0.01
  9
$DIMTM
 40
0.01
  9
$DIMGAP
 40
0.625
  9
$DIMDSEP
 70
44
  9
$PDMODE
 70
3
  9
$PDSIZE
 40
3.0
  9
$HANDSEED
  5
4FE
  9
$TILEMODE
 70
1
  9
$MEASUREMENT
 70
1
  9
$INSUNITS
 70
4
  0
ENDSEC
  0
SECTION
  2
CLASSES
  0
CLASS
  1
ACDBDICTIONARYWDFLT
  2
AcDbDictionaryWithDefault
  3
AutoCAD 2000
 90
0
280
0
281
0
  0
CLASS
  1
ACDBPLACEHOLDER
  2
AcDbPlaceHolder
  3
AutoCAD 2000
 90
0
280
0
281
0
  0
CLASS
  1
LAYOUT
  2
AcDbLayout
  3
AutoCAD 2000
 90
0
280
0
281
0
  0
ENDSEC
  0
SECTION
  2
TABLES
  0
TABLE
  2
VPORT
  5
8
100
AcDbSymbolTable
 70
2
  0
VPORT
  5
1F4
100
AcDbSymbolTableRecord
100
AcDbViewportTableRecord
  2
*ACTIVE
 70
0
 10
0.0
 20
0.0
 11
1.0
 21
1.0
 12
148.5
 22
105.0
 13
0.0
 23
0.0
 14
1.0
 24
1.0
 15
0.0
 25
0.0
 16
0.0
 26
0.0
 36
1.0
 17
0.0
 27
0.0
 37
0.0
 40
210.0
 41
1.4142857143
 42
50.0
 43
0.0
 44
0.0
 50
0.0
 51
0.0
 71
0
 72
100
 73
1
 74
1
 75
0
 76
0
 77
0
 78
0
  0
ENDTAB
  0
TABLE
  2
LTYPE
  5
5
100
AcDbSymbolTable
 70
6
  0
LTYPE
  5
14
100
AcDbSymbolTableRecord
100
AcDbLinetypeTableRecord
  2
BYBLOCK
 70
0
  3

 72
65
 73
0
 40
0.0
  0
LTYPE
  5
15
100
AcDbSymbolTableRecord
100
AcDbLinetypeTableRecord
  2
BYLAYER
 70
0
  3

 72
65
 73
0
 40
0.0
  0
LTYPE
  5
16
100
AcDbSymbolTableRecord
100
AcDbLinetypeTableRecord
  2
CONTINUOUS
 70
64
  3
Solid line
 72
65
 73
0
 40
0.0
  0
LTYPE
  5
1F5
100
AcDbSymbolTableRecord
100
AcDbLinetypeTableRecord
  2
CENTER
 70
64
  3
____ _ ____ _ ____ _ ____ _ ____ _ ____ _ ____
 72
65
 73
4
 40
0.6
 49
0.375
 74
0
 49
-0.075
 74
0
 49
0.075
 74
0
 49
-0.075
 74
0
  0
LTYPE
  5
1F6
100
AcDbSymbolTableRecord
100
AcDbLinetypeTableRecord
  2
HIDDEN
 70
64
  3
- - - - - - - - - - - - - - - - - - - -
 72
65
 73
2
 40
0.2
 49
0.1
 74
0
 49
-0.1
 74
0
  0
LTYPE
  5
1F7
100
AcDbSymbolTableRecord
100
AcDbLinetypeTableRecord
  2
PHANTOM
 70
64
  3
_____ _ _ _____ _ _ _____ _ _ _____
 72
65
 73
6
 40
0.8
 49
0.45
 74
0
 49
-0.05
 74
0
 49
0.1
 74
0
 49
-0.05
 74
0
 49
0.1
 74
0
 49
-0.05
 74
0
  0
LTYPE
  5
1F8
100
AcDbSymbolTableRecord
100
AcDbLinetypeTableRecord
  2
DOT
 70
64
  3
. . . . . . . . . . . . . . . . . . . .
 72
65
 73
2
 40
0.2
 49
0.1
 74
0
 49
-0.1
 74
0
  0
LTYPE
  5
1F9
100
AcDbSymbolTableRecord
100
AcDbLinetypeTableRecord
  2
DASHED
 70
64
  3
- - - - - - - - - - - - - - - - - - - -
 72
65
 73
2
 40
0.2
 49
0.1
 74
0
 49
-0.1
 74
0
  0
ENDTAB
  0
TABLE
  2
LAYER
  5
2
100
AcDbSymbolTable
 70
36
  0
LAYER
  5
10
100
AcDbSymbolTableRecord
100
AcDbLayerTableRecord
  2
0
 70
0
 62
7
  6
CONTINUOUS
370
-3
390
F
  0
LAYER
  5
1FA
100
AcDbSymbolTableRecord
100
AcDbLayerTableRecord
  2
DEFAULT_1
 70
0
 62
7
  6
CENTER
370
-3
390
F
  0
LAYER
  5
1FB
100
AcDbSymbolTableRecord
100
AcDbLayerTableRecord
  2
DEFAULT_2
 70
0
 62
7
  6
HIDDEN
370
-3
390
F
  0
LAYER
  5
1FC
100
AcDbSymbolTableRecord
100
AcDbLayerTableRecord
  2
DEFAULT_3
 70
0
 62
7
  6
PHANTOM
370
-3
390
F
  0
LAYER
  5
1FD
100
AcDbSymbolTableRecord
100
AcDbLayerTableRecord
  2
21814000
 70
0
 62
7
  6
CONTINUOUS
370
-3
390
F
  0
LAYER
  5
1FE
100
AcDbSymbolTableRecord
100
AcDbLayerTableRecord
  2
260140000
 70
0
 62
7
  6
CONTINUOUS
370
-3
390
F
  0
LAYER
  5
1FF
100
AcDbSymbolTableRecord
100
AcDbLayerTableRecord
  2
26814000
 70
0
 62
7
  6
CONTINUOUS
370
-3
390
F
  0
LAYER
  5
200
100
AcDbSymbolTableRecord
100
AcDbLayerTableRecord
  2
28414000
 70
0
 62
7
  6
CONTINUOUS
370
-3
390
F
  0
LAYER
  5
201
100
AcDbSymbolTableRecord
100
AcDbLayerTableRecord
  2
290140000
 70
0
 62
7
  6
CONTINUOUS
370
-3
390
F
  0
LAYER
  5
202
100
AcDbSymbolTableRecord
100
AcDbLayerTableRecord
  2
340000230
 70
0
 62
7
  6
CONTINUOUS
370
-3
390
F
  0
LAYER
  5
203
100
AcDbSymbolTableRecord
100
AcDbLayerTableRecord
  2
712140000
 70
0
 62
7
  6
CONTINUOUS
370
-3
390
F
  0
LAYER
  5
204
100
AcDbSymbolTableRecord
100
AcDbLayerTableRecord
  2
715140000
 70
0
 62
7
  6
CONTINUOUS
370
-3
390
F
  0
LAYER
  5
205
100
AcDbSymbolTableRecord
100
AcDbLayerTableRecord
  2
ASSI
 70
0
 62
7
  6
CONTINUOUS
370
-3
390
F
  0
LAYER
  5
206
100
AcDbSymbolTableRecord
100
AcDbLayerTableRecord
  2
COLORE_TOP
 70
0
 62
7
  6
CONTINUOUS
370
-3
390
F
  0
LAYER
  5
207
100
AcDbSymbolTableRecord
100
AcDbLayerTableRecord
  2
COORDINATE
 70
0
 62
7
  6
CONTINUOUS
370
-3
390
F
  0
LAYER
  5
208
100
AcDbSymbolTableRecord
100
AcDbLayerTableRecord
  2
COORD_ORIGINE
 70
0
 62
7
  6
CONTINUOUS
370
-3
390
F
  0
LAYER
  5
209
100
AcDbSymbolTableRecord
100
AcDbLayerTableRecord
  2
COPY_PUBLISH
 70
0
 62
7
  6
CONTINUOUS
370
-3
390
F
  0
LAYER
  5
20A
100
AcDbSymbolTableRecord
100
AcDbLayerTableRecord
  2
COSMETICHE
 70
0
 62
7
  6
CONTINUOUS
370
-3
390
F
  0
LAYER
  5
20B
100
AcDbSymbolTableRecord
100
AcDbLayerTableRecord
  2
COSMETICI
 70
0
 62
7
  6
CONTINUOUS
370
-3
390
F
  0
LAYER
  5
20C
100
AcDbSymbolTableRecord
100
AcDbLayerTableRecord
  2
CURVE
 70
0
 62
7
  6
CONTINUOUS
370
-3
390
F
  0
LAYER
  5
20D
100
AcDbSymbolTableRecord
100
AcDbLayerTableRecord
  2
DRAFT
 70
0
 62
7
  6
CONTINUOUS
370
-3
390
F
  0
LAYER
  5
20E
100
AcDbSymbolTableRecord
100
AcDbLayerTableRecord
  2
IMPORT
 70
0
 62
7
  6
CONTINUOUS
370
-3
390
F
  0
LAYER
  5
20F
100
AcDbSymbolTableRecord
100
AcDbLayerTableRecord
  2
IMPORTED
 70
0
 62
7
  6
CONTINUOUS
370
-3
390
F
  0
LAYER
  5
210
100
AcDbSymbolTableRecord
100
AcDbLayerTableRecord
  2
IMPORT_IGES
 70
0
 62
7
  6
CONTINUOUS
370
-3
390
F
  0
LAYER
  5
211
100
AcDbSymbolTableRecord
100
AcDbLayerTableRecord
  2
INCISIONI_LASER
 70
0
 62
7
  6
CONTINUOUS
370
-3
390
F
  0
LAYER
  5
212
100
AcDbSymbolTableRecord
100
AcDbLayerTableRecord
  2
INTF_11
 70
0
 62
7
  6
CONTINUOUS
370
-3
390
F
  0
LAYER
  5
213
100
AcDbSymbolTableRecord
100
AcDbLayerTableRecord
  2
INTF_12
 70
0
 62
7
  6
CONTINUOUS
370
-3
390
F
  0
LAYER
  5
214
100
AcDbSymbolTableRecord
100
AcDbLayerTableRecord
  2
INTF_13
 70
0
 62
7
  6
CONTINUOUS
370
-3
390
F
  0
LAYER
  5
215
100
AcDbSymbolTableRecord
100
AcDbLayerTableRecord
  2
INTF_6
 70
0
 62
7
  6
CONTINUOUS
370
-3
390
F
  0
LAYER
  5
216
100
AcDbSymbolTableRecord
100
AcDbLayerTableRecord
  2
NOTE
 70
0
 62
7
  6
CONTINUOUS
370
-3
390
F
  0
LAYER
  5
217
100
AcDbSymbolTableRecord
100
AcDbLayerTableRecord
  2
PIANI
 70
0
 62
7
  6
CONTINUOUS
370
-3
390
F
  0
LAYER
  5
218
100
AcDbSymbolTableRecord
100
AcDbLayerTableRecord
  2
PIANI_DI_RIFERIMENTO
 70
0
 62
7
  6
CONTINUOUS
370
-3
390
F
  0
LAYER
  5
219
100
AcDbSymbolTableRecord
100
AcDbLayerTableRecord
  2
PIANI_ORIGINE
 70
0
 62
7
  6
CONTINUOUS
370
-3
390
F
  0
LAYER
  5
21A
100
AcDbSymbolTableRecord
100
AcDbLayerTableRecord
  2
PIANI_RIFERIMENTO
 70
0
 62
7
  6
CONTINUOUS
370
-3
390
F
  0
LAYER
  5
21B
100
AcDbSymbolTableRecord
100
AcDbLayerTableRecord
  2
PIANI_SFORMO
 70
0
 62
7
  6
CONTINUOUS
370
-3
390
F
  0
LAYER
  5
21C
100
AcDbSymbolTableRecord
100
AcDbLayerTableRecord
  2
PUNTI
 70
0
 62
7
  6
CONTINUOUS
370
-3
390
F
  0
LAYER
  5
21D
100
AcDbSymbolTableRecord
100
AcDbLayerTableRecord
  2
RACCORDO
 70
0
 62
7
  6
CONTINUOUS
370
-3
390
F
  0
LAYER
  5
21E
100
AcDbSymbolTableRecord
100
AcDbLayerTableRecord
  2
RINTRACCIABILITA
 70
0
 62
7
  6
CONTINUOUS
370
-3
390
F
  0
LAYER
  5
21F
100
AcDbSymbolTableRecord
100
AcDbLayerTableRecord
  2
SIMBOLI
 70
0
 62
7
  6
CONTINUOUS
370
-3
390
F
  0
LAYER
  5
220
100
AcDbSymbolTableRecord
100
AcDbLayerTableRecord
  2
SMUSSO
 70
0
 62
7
  6
CONTINUOUS
370
-3
390
F
  0
LAYER
  5
221
100
AcDbSymbolTableRecord
100
AcDbLayerTableRecord
  2
SNAPLINE
 70
0
 62
7
  6
CONTINUOUS
370
-3
390
F
  0
LAYER
  5
222
100
AcDbSymbolTableRecord
100
AcDbLayerTableRecord
  2
SUPERFICI
 70
0
 62
7
  6
CONTINUOUS
370
-3
390
F
  0
LAYER
  5
223
100
AcDbSymbolTableRecord
100
AcDbLayerTableRecord
  2
TRASH
 70
0
 62
7
  6
CONTINUOUS
370
-3
390
F
  0
LAYER
  5
224
100
AcDbSymbolTableRecord
100
AcDbLayerTableRecord
  2
WHITE
 70
0
 62
7
  6
CONTINUOUS
370
-3
390
F
  0
LAYER
  5
225
100
AcDbSymbolTableRecord
100
AcDbLayerTableRecord
  2
XSEC_DATUMS
 70
0
 62
7
  6
CONTINUOUS
370
-3
390
F
  0
ENDTAB
  0
TABLE
  2
STYLE
  5
3
100
AcDbSymbolTable
 70
1
  0
STYLE
  5
11
100
AcDbSymbolTableRecord
100
AcDbTextStyleTableRecord
  2
STANDARD
 70
0
 40
0.0
 41
0.8
 50
0.0
 71
0
 42
0.2
  3
txt
  4

  0
STYLE
  5
226
100
AcDbSymbolTableRecord
100
AcDbTextStyleTableRecord
  2
TEXTSTYLE_1
 70
0
 40
0.0
 41
0.8
 50
0.0
 71
0
 42
0.2
  3
gdt
  4

  0
ENDTAB
  0
TABLE
  2
VIEW
  5
6
100
AcDbSymbolTable
 70
0
  0
ENDTAB
  0
TABLE
  2
UCS
  5
7
100
AcDbSymbolTable
 70
0
  0
ENDTAB
  0
TABLE
  2
APPID
  5
9
100
AcDbSymbolTable
 70
1
  0
APPID
  5
227
100
AcDbSymbolTableRecord
100
AcDbRegAppTableRecord
  2
ACAD
 70
0
  0
ENDTAB
  0
TABLE
  2
BLOCK_RECORD
  5
1
100
AcDbSymbolTable
 70
0
  0
BLOCK_RECORD
  5
228
100
AcDbSymbolTableRecord
100
AcDbBlockTableRecord
  2
*Model_Space
  0
BLOCK_RECORD
  5
229
100
AcDbSymbolTableRecord
100
AcDbBlockTableRecord
  2
*Paper_Space
  0
ENDTAB
  0
TABLE
  2
DIMSTYLE
  5
A
100
AcDbSymbolTable
 70
1
100
AcDbDimStyleTable
 71
0
  0
DIMSTYLE
105
22A
100
AcDbSymbolTableRecord
100
AcDbDimStyleTableRecord
  2
STANDARD
 70
0
  3

  4

 40
1.0
 41
3.0
 42
0.5
 43
0.38
 44
1.5
 45
0.0
 46
0.0
 47
0.01
 48
0.01
140
3.0
141
0.09
142
0.0
143
25.4
144
1.0
145
0.0
146
1.0
147
0.625
 71
1.0
 72
0.0
 73
0
 74
0
 75
0
 76
0
 77
1
 78
8
170
0
171
2
172
0
173
0
174
0
175
0
176
0
177
0
178
0
270
2
271
2
272
2
273
2
274
2
275
0
280
0
281
0
282
0
283
1
284
8
285
0
286
0
287
3
288
0
340
11
278
44
  0
ENDTAB
  0
ENDSEC
  0
SECTION
  2
BLOCKS
  0
BLOCK
  5
20
100
AcDbEntity
  8
0
100
AcDbBlockBegin
  2
*Model_Space
 70
0
 10
0.0
 20
0.0
 30
0.0
  3
*Model_Space
  1

  0
ENDBLK
  5
21
100
AcDbEntity
  8
0
100
AcDbBlockEnd
  0
BLOCK
  5
1C
100
AcDbEntity
  8
0
100
AcDbBlockBegin
  2
*Paper_Space
 70
0
 10
0.0
 20
0.0
 30
0.0
  3
*Paper_Space
  1

  0
ENDBLK
  5
1D
100
AcDbEntity
  8
0
100
AcDbBlockEnd
  0
ENDSEC
  0
SECTION
  2
ENTITIES
  0
LINE
  5
22B
100
AcDbEntity
  8
26814000
100
AcDbLine
 62
7
  6
CONTINUOUS
 10
128.1710505677
 20
132.7125017097
 11
129.7538071708
 21
133.5244858071
  0
LINE
  5
22C
100
AcDbEntity
  8
26814000
100
AcDbLine
 62
7
  6
CONTINUOUS
 10
127.6870954553
 20
130.9698013077
 11
128.6993177394
 21
131.4867312704
  0
LINE
  5
22D
100
AcDbEntity
  8
26814000
100
AcDbLine
 62
253
  6
CONTINUOUS
 10
127.8446188616
 20
130.9603679781
 11
128.6993177394
 21
131.3968525981
  0
LINE
  5
22E
100
AcDbEntity
  8
26814000
100
AcDbLine
 62
7
  6
CONTINUOUS
 10
129.7788719767
 20
131.9085910052
 11
131.3801527676
 21
132.7113130087
  0
LINE
  5
22F
100
AcDbEntity
  8
26814000
100
AcDbLine
 62
7
  6
CONTINUOUS
 10
131.3801527676
 20
132.7113130087
 11
131.9084199393
 21
132.9747518288
  0
LINE
  5
230
100
AcDbEntity
  8
26814000
100
AcDbLine
 62
7
  6
CONTINUOUS
 10
129.7538071708
 20
133.5244858071
 11
130.2882570495
 21
133.7848332736
  0
LWPOLYLINE
  5
231
100
AcDbEntity
  8
RACCORDO
100
AcDbPolyline
 62
253
  6
CONTINUOUS
 90
19
 70
0
 10
152.3376494327
 20
74.8792984872
 10
152.2964349246
 20
74.8676263481
 10
152.2563692831
 20
74.8603719386
 10
152.2174525082
 20
74.8575352586
 10
152.1794098893
 20
74.8591478597
 10
152.1425161371
 20
74.8651781903
 10
152.1075953828
 20
74.8755315964
 10
152.0747124631
 20
74.8903048045
 10
152.0438025414
 20
74.909401088
 10
152.0154952389
 20
74.9324356137
 10
151.9898441772
 20
74.9594913264
 10
151.9667957348
 20
74.9904852812
 10
151.946818668
 20
75.0247838101
 10
151.9299777193
 20
75.0624834345
 10
151.9162081464
 20
75.103487633
 10
151.905784479
 20
75.1468731732
 10
151.8987982271
 20
75.1923323112
 10
151.8951578807
 20
75.2401727909
 10
151.8948634398
 20
75.2903946124
  0
LWPOLYLINE
  5
232
100
AcDbEntity
  8
26814000
100
AcDbPolyline
 62
7
  6
CONTINUOUS
 90
12
 70
0
 10
139.3442786645
 20
134.1922157542
 10
139.3379918731
 20
134.1888593806
 10
139.3261374465
 20
134.1813551075
 10
139.3144822665
 20
134.1724825962
 10
139.3029866717
 20
134.1622974856
 10
139.291695374
 20
134.1508664133
 10
139.2805503076
 20
134.1382193871
 10
139.2694834282
 20
134.1243898509
 10
139.258537309
 20
134.1094203521
 10
139.2476900079
 20
134.0933374249
 10
139.2368515791
 20
134.0761691706
 10
139.2259672112
 20
134.0579505392
  0
LINE
  5
233
100
AcDbEntity
  8
26814000
100
AcDbLine
 62
7
  6
CONTINUOUS
 10
133.6445471989
 20
130.5597560112
 11
134.1378692142
 21
130.8128395431
  0
LINE
  5
234
100
AcDbEntity
  8
26814000
100
AcDbLine
 62
7
  6
CONTINUOUS
 10
131.3801527676
 20
130.9792622011
 11
130.3133218554
 21
130.4406809516
  0
LINE
  5
235
100
AcDbEntity
  8
26814000
100
AcDbLine
 62
7
  6
CONTINUOUS
 10
132.8359337441
 20
130.9509208049
 11
139.3439703708
 21
134.1920624104
  0
LINE
  5
236
100
AcDbEntity
  8
26814000
100
AcDbLine
 62
253
  6
CONTINUOUS
 10
132.9114268846
 20
130.9131742346
 11
139.2259672112
 21
134.0579505392
  0
LINE
  5
237
100
AcDbEntity
  8
26814000
100
AcDbLine
 62
7
  6
CONTINUOUS
 10
134.1378692142
 20
130.8128395431
 11
139.6155092037
 21
133.4811715064
  0
LWPOLYLINE
  5
238
100
AcDbEntity
  8
RACCORDO
100
AcDbPolyline
 62
253
  6
CONTINUOUS
 90
19
 70
0
 10
124.8761348961
 20
128.5426433632
 10
124.789430618
 20
128.5035004458
 10
124.7026782598
 20
128.4555051363
 10
124.6164732
 20
128.398982223
 10
124.531410273
 20
128.3343115076
 10
124.4480697842
 20
128.2619341928
 10
124.3670132832
 20
128.1823508336
 10
124.2887982233
 20
128.0961050381
 10
124.213958479
 20
128.0037802063
 10
124.1429912129
 20
127.9060041669
 10
124.076382078
 20
127.8034408459
 10
124.0145885486
 20
127.6967861054
 10
123.9580221742
 20
127.5867630243
 10
123.907068995
 20
127.4741156539
 10
123.8620819179
 20
127.3596118826
 10
123.8233654374
 20
127.244037305
 10
123.7911833694
 20
127.1281802637
 10
123.7657578196
 20
127.012826313
 10
123.7472630385
 20
126.8987602823
  0
LWPOLYLINE
  5
239
100
AcDbEntity
  8
RACCORDO
100
AcDbPolyline
 62
7
  6
CONTINUOUS
 90
18
 70
0
 10
124.5239855627
 20
128.5682508999
 10
124.4414051369
 20
128.531072781
 10
124.3492161614
 20
128.4812501788
 10
124.2594241722
 20
128.4236341662
 10
124.1725415437
 20
128.3585170653
 10
124.0894268275
 20
128.2866626311
 10
124.0100493729
 20
128.2081288245
 10
123.9346253484
 20
128.1230914589
 10
123.8641800058
 20
128.0327998366
 10
123.7987825362
 20
127.9374099905
 10
123.7386151543
 20
127.8371173865
 10
123.6846206033
 20
127.7335707984
 10
123.6369011637
 20
127.627031971
 10
123.5955807529
 20
127.5176704958
 10
123.5613097656
 20
127.4071488645
 10
123.5342672451
 20
127.2961566055
 10
123.5143958663
 20
127.184474105
 10
123.5114124435
 20
127.1629316716
  0
LINE
  5
23A
100
AcDbEntity
  8
RACCORDO
100
AcDbLine
 62
7
  6
CONTINUOUS
 10
128.5000190733
 20
130.1935513107
 11
124.5239788652
 21
128.5682672773
  0
LINE
  5
23B
100
AcDbEntity
  8
RACCORDO
100
AcDbLine
 62
253
  6
CONTINUOUS
 10
128.8094212075
 20
130.1504508667
 11
124.8761348961
 21
128.5426433632
  0
LWPOLYLINE
  5
23C
100
AcDbEntity
  8
26814000
100
AcDbPolyline
 62
7
  6
CONTINUOUS
 90
3
 70
0
 10
139.3627264029
 20
134.1996730969
 10
139.3501613832
 20
134.1949740461
 10
139.3442786645
 20
134.1922157542
  0
LWPOLYLINE
  5
23D
100
AcDbEntity
  8
26814000
100
AcDbPolyline
 62
7
  6
CONTINUOUS
 90
10
 70
0
 10
139.3627264029
 20
134.1996730969
 10
139.3719660237
 20
134.2024188959
 10
139.3805291776
 20
134.2046846144
 10
139.3884158645
 20
134.2064702524
 10
139.3956652228
 20
134.207796657
 10
139.4022381141
 20
134.2086429812
 10
139.4080171235
 20
134.2089466839
 10
139.4129980807
 20
134.2087073481
 10
139.4171851559
 20
134.207925391
 10
139.419774837
 20
134.2069289578
  0
LWPOLYLINE
  5
23E
100
AcDbEntity
  8
RACCORDO
100
AcDbPolyline
 62
253
  6
CONTINUOUS
 90
6
 70
0
 10
159.7178979487
 20
76.8612279179
 10
159.6930181666
 20
76.8565926495
 10
159.6675038675
 20
76.8533275487
 10
159.6416591987
 20
76.8514541198
 10
159.6157434951
 20
76.8509719641
 10
159.5899407959
 20
76.8518921363
  0
LINE
  5
23F
100
AcDbEntity
  8
26814000
100
AcDbLine
 62
7
  6
CONTINUOUS
 10
131.9952716025
 20
132.3537542421
 11
131.4680268868
 21
131.7120465141
  0
LINE
  5
240
100
AcDbEntity
  8
26814000
100
AcDbLine
 62
7
  6
CONTINUOUS
 10
141.5460613608
 20
131.7083327748
 11
140.1482768543
 21
131.0094405216
  0
LINE
  5
241
100
AcDbEntity
  8
26814000
100
AcDbLine
 62
7
  6
CONTINUOUS
 10
140.2189875324
 20
133.1782070084
 11
135.4813720984
 21
130.8431564938
  0
LINE
  5
242
100
AcDbEntity
  8
26814000
100
AcDbLine
 62
7
  6
CONTINUOUS
 10
139.7947234637
 20
131.7387754062
 11
140.2189875324
 21
131.946372827
  0
LINE
  5
243
100
AcDbEntity
  8
26814000
100
AcDbLine
 62
7
  6
CONTINUOUS
 10
142.2050571121
 20
132.5684055887
 11
140.1482768543
 21
131.5619987109
  0
LINE
  5
244
100
AcDbEntity
  8
21814000
100
AcDbLine
 62
7
  6
CONTINUOUS
 10
139.211069644
 20
130.3823447386
 11
139.0729548418
 21
130.3171076533
  0
LINE
  5
245
100
AcDbEntity
  8
21814000
100
AcDbLine
 62
253
  6
CONTINUOUS
 10
139.2946036505
 20
130.3738456519
 11
139.1583273614
 21
130.3094769691
  0
LWPOLYLINE
  5
246
100
AcDbEntity
  8
21814000
100
AcDbPolyline
 62
253
  6
CONTINUOUS
 90
11
 70
0
 10
140.1280697735
 20
130.427665625
 10
140.137162234
 20
130.4317560762
 10
140.1462209082
 20
130.4351128613
 10
140.1552080298
 20
130.4377198334
 10
140.1640892175
 20
130.4395644376
 10
140.1728236819
 20
130.4406355832
 10
140.1813650303
 20
130.4409265973
 10
140.1896818556
 20
130.4404361032
 10
140.1977350796
 20
130.4391660908
 10
140.2054710599
 20
130.4371285746
 10
140.2128447027
 20
130.4343452058
  0
LINE
  5
247
100
AcDbEntity
  8
21814000
100
AcDbLine
 62
7
  6
CONTINUOUS
 10
139.2111231595
 20
130.382370016
 11
139.2143311996
 21
130.3837856457
  0
LWPOLYLINE
  5
248
100
AcDbEntity
  8
21814000
100
AcDbPolyline
 62
7
  6
CONTINUOUS
 90
5
 70
0
 10
139.0728363732
 20
130.317050751
 10
139.0776795379
 20
130.3191083752
 10
139.0851058978
 20
130.3214262377
 10
139.093252316
 20
130.3229586024
 10
139.1021706509
 20
130.323609516
  0
LINE
  5
249
100
AcDbEntity
  8
21814000
100
AcDbLine
 62
7
  6
CONTINUOUS
 10
139.2841717894
 20
130.4098867829
 11
139.2143308383
 21
130.3837854755
  0
LINE
  5
24A
100
AcDbEntity
  8
21814000
100
AcDbLine
 62
7
  6
CONTINUOUS
 10
139.3592108996
 20
130.432814348
 11
139.2841717894
 21
130.4098867829
  0
LWPOLYLINE
  5
24B
100
AcDbEntity
  8
21814000
100
AcDbPolyline
 62
7
  6
CONTINUOUS
 90
6
 70
0
 10
139.2143311996
 20
130.3837856457
 10
139.2275594742
 20
130.3877276706
 10
139.2433430943
 20
130.389066306
 10
139.2599804269
 20
130.3871724809
 10
139.277169028
 20
130.382071272
 10
139.2946036505
 20
130.3738456519
  0
LWPOLYLINE
  5
24C
100
AcDbEntity
  8
RACCORDO
100
AcDbPolyline
 62
253
  6
CONTINUOUS
 90
12
 70
0
 10
120.7387434175
 20
90.337216938
 10
120.7390519232
 20
90.2302711828
 10
120.7465176174
 20
90.1273649519
 10
120.7610884991
 20
90.029199073
 10
120.7826621185
 20
89.9364421325
 10
120.8110915609
 20
89.8497264485
 10
120.846185603
 20
89.7696429759
 10
120.8876996055
 20
89.6967395614
 10
120.9353493526
 20
89.6315095957
 10
120.9888187448
 20
89.5743899731
 10
121.0477397299
 20
89.5257715458
 10
121.1117086268
 20
89.4859865662
  0
LWPOLYLINE
  5
24D
100
AcDbEntity
  8
RACCORDO
100
AcDbPolyline
 62
7
  6
CONTINUOUS
 90
13
 70
0
 10
123.511413531
 20
127.1630317854
 10
123.1252013446
 20
124.1445685527
 10
122.753057129
 20
121.0397556865
 10
122.4075260052
 20
117.9436289151
 10
122.0886613946
 20
114.8566341524
 10
121.7965025879
 20
111.7791631543
 10
121.5310849913
 20
108.7115866232
 10
121.2924443199
 20
105.6542899931
 10
121.0806108279
 20
102.6076565669
 10
120.8956125873
 20
99.5720540415
 10
120.7374771181
 20
96.547869468
 10
120.6062261047
 20
93.5355365488
 10
120.5044197038
 20
90.6188313424
  0
LINE
  5
24E
100
AcDbEntity
  8
21814000
100
AcDbLine
 62
7
  6
CONTINUOUS
 10
139.0582236433
 20
130.3074312221
 11
138.1472972849
 21
129.5101939006
  0
LINE
  5
24F
100
AcDbEntity
  8
21814000
100
AcDbLine
 62
253
  6
CONTINUOUS
 10
139.157668487
 20
130.3098064063
 11
138.2088583068
 21
129.4794133896
  0
LWPOLYLINE
  5
250
100
AcDbEntity
  8
21814000
100
AcDbPolyline
 62
7
  6
CONTINUOUS
 90
5
 70
0
 10
139.0581264044
 20
130.3073456236
 10
139.0592072078
 20
130.3082771441
 10
139.0647555725
 20
130.3124598805
 10
139.0709100324
 20
130.3160975291
 10
139.0728363732
 20
130.317050751
  0
LINE
  5
251
100
AcDbEntity
  8
21814000
100
AcDbLine
 62
253
  6
CONTINUOUS
 10
138.7095872651
 20
129.2290489104
 11
139.1833957087
 21
129.6004689669
  0
LWPOLYLINE
  5
252
100
AcDbEntity
  8
21814000
100
AcDbPolyline
 62
253
  6
CONTINUOUS
 90
13
 70
0
 10
139.1833957087
 20
129.6004689669
 10
139.224574628
 20
129.6300150968
 10
139.2677700003
 20
129.656625233
 10
139.3129818257
 20
129.6802993753
 10
139.3607587937
 20
129.7011943434
 10
139.4105522148
 20
129.7191533176
 10
139.46071602
 20
129.7337058398
 10
139.511221811
 20
129.7447243379
 10
139.5620979861
 20
129.7523363839
 10
139.6117836714
 20
129.7564542358
 10
139.6601386258
 20
129.7569924313
 10
139.7073030904
 20
129.7540364326
 10
139.7521369154
 20
129.7477548844
  0
LINE
  5
253
100
AcDbEntity
  8
26814000
100
AcDbLine
 62
7
  6
CONTINUOUS
 10
139.8613131558
 20
127.4513730328
 11
140.3604088886
 21
127.7015697059
  0
LINE
  5
254
100
AcDbEntity
  8
26814000
100
AcDbLine
 62
7
  6
CONTINUOUS
 10
140.3604088886
 20
127.7015697059
 11
145.7746815838
 21
130.4015853163
  0
LINE
  5
255
100
AcDbEntity
  8
26814000
100
AcDbLine
 62
7
  6
CONTINUOUS
 10
145.1687350007
 20
130.7033332742
 11
140.4311195667
 21
128.3682827596
  0
LWPOLYLINE
  5
256
100
AcDbEntity
  8
26814000
100
AcDbPolyline
 62
7
  6
CONTINUOUS
 90
18
 70
0
 10
146.4476977993
 20
130.4470852451
 10
146.47607232
 20
130.4602672019
 10
146.504306772
 20
130.4720015937
 10
146.5324011552
 20
130.4822884204
 10
146.5604054683
 20
130.491140555
 10
146.5882697126
 20
130.4985451245
 10
146.6158438922
 20
130.5044635101
 10
146.6431130209
 20
130.5088869314
 10
146.6700920849
 20
130.5118241688
 10
146.6966760475
 20
130.5132629447
 10
146.7228810064
 20
130.5131958081
 10
146.7486908638
 20
130.5116302102
 10
146.7739522901
 20
130.5085762267
 10
146.7986420434
 20
130.5040304423
 10
146.8227833655
 20
130.4979962725
 10
146.8462926518
 20
130.4904940397
 10
146.869188432
 20
130.4815086251
 10
146.8887505163
 20
130.472418892
  0
LWPOLYLINE
  5
257
100
AcDbEntity
  8
21814000
100
AcDbPolyline
 62
253
  6
CONTINUOUS
 90
9
 70
0
 10
153.0654937527
 20
132.9837673323
 10
153.1195001542
 20
133.0067988483
 10
153.1732202274
 20
133.0240404849
 10
153.2262560718
 20
133.0353052565
 10
153.2782419971
 20
133.040449173
 10
153.3287432469
 20
133.039361034
 10
153.3772713831
 20
133.0320056388
 10
153.4234536758
 20
133.0184114893
 10
153.4568647662
 20
133.0039016181
  0
LWPOLYLINE
  5
258
100
AcDbEntity
  8
21814000
100
AcDbPolyline
 62
7
  6
CONTINUOUS
 90
12
 70
0
 10
152.6770362702
 20
133.015981668
 10
152.7426637462
 20
133.0432013176
 10
152.8113625768
 20
133.065477087
 10
152.8826700594
 20
133.0823764692
 10
152.9562267089
 20
133.0935407937
 10
153.0312546912
 20
133.0986125165
 10
153.1066406486
 20
133.0973916697
 10
153.1818261573
 20
133.0898415347
 10
153.2561835889
 20
133.0759949032
 10
153.3287049603
 20
133.0560852864
 10
153.3990569919
 20
133.0302958356
 10
153.4568971208
 20
133.0038854405
  0
LWPOLYLINE
  5
259
100
AcDbEntity
  8
21814000
100
AcDbPolyline
 62
253
  6
CONTINUOUS
 90
9
 70
0
 10
152.6770362702
 20
133.015981668
 10
152.7049488957
 20
133.0273806475
 10
152.7514633087
 20
133.0403597005
 10
152.8002822613
 20
133.0469372938
 10
152.8510343558
 20
133.0470633874
 10
152.9033334878
 20
133.0407370219
 10
152.9567817836
 20
133.0280063263
 10
153.010972627
 20
133.0089681511
 10
153.0654937527
 20
132.9837673323
  0
LINE
  5
25A
100
AcDbEntity
  8
RACCORDO
100
AcDbLine
 62
253
  6
CONTINUOUS
 10
161.2200589336
 20
76.5408680895
 11
160.6897288477
 21
76.6507030466
  0
LINE
  5
25B
100
AcDbEntity
  8
RACCORDO
100
AcDbLine
 62
253
  6
CONTINUOUS
 10
161.131670586
 20
76.860950611
 11
160.6013405001
 21
76.9707855681
  0
LWPOLYLINE
  5
25C
100
AcDbEntity
  8
RACCORDO
100
AcDbPolyline
 62
7
  6
CONTINUOUS
 90
10
 70
0
 10
151.1663159905
 20
74.4585151627
 10
151.253745982
 20
74.419505771
 10
151.3447875835
 20
74.3882897863
 10
151.4387482983
 20
74.3652002254
 10
151.53548787
 20
74.3503884273
 10
151.6343299332
 20
74.3441345789
 10
151.7345161153
 20
74.3466455725
 10
151.8359310693
 20
74.3581263051
 10
151.9381128834
 20
74.3787640159
 10
152.0353288012
 20
74.4069761503
  0
LWPOLYLINE
  5
25D
100
AcDbEntity
  8
RACCORDO
100
AcDbPolyline
 62
253
  6
CONTINUOUS
 90
16
 70
0
 10
150.7737808408
 20
75.3196982495
 10
150.8352890105
 20
75.291923365
 10
150.9021952593
 20
75.267201318
 10
150.973782696
 20
75.2457970018
 10
151.0492842711
 20
75.2279397605
 10
151.1278909958
 20
75.2138209321
 10
151.20876061
 20
75.2035917982
 10
151.2910266071
 20
75.1973619628
 10
151.3738075183
 20
75.1951981774
 10
151.4562163578
 20
75.1971236268
 10
151.5373701263
 20
75.2031176801
 10
151.6163992726
 20
75.2131161118
 10
151.6924570102
 20
75.2270117902
 10
151.7647283912
 20
75.2446558249
 10
151.8324390378
 20
75.2658591625
 10
151.8948634398
 20
75.2903946124
  0
LINE
  5
25E
100
AcDbEntity
  8
RACCORDO
100
AcDbLine
 62
7
  6
CONTINUOUS
 10
151.1668173915
 20
74.4582394947
 11
121.1239479709
 21
89.4796742051
  0
LWPOLYLINE
  5
25F
100
AcDbEntity
  8
RACCORDO
100
AcDbPolyline
 62
253
  6
CONTINUOUS
 90
13
 70
0
 10
151.1662090017
 20
74.4585441006
 10
151.1543028307
 20
74.4646894642
 10
151.0891818336
 20
74.5050504939
 10
151.0291894693
 20
74.5542046109
 10
150.9747311253
 20
74.6118187094
 10
150.9261731474
 20
74.6775027904
 10
150.8838500307
 20
74.750810762
 10
150.8480480704
 20
74.8312481938
 10
150.8190098264
 20
74.9182682786
 10
150.7969386794
 20
75.0112739829
 10
150.7819855966
 20
75.1096309622
 10
150.7742489753
 20
75.2126726567
 10
150.7737808165
 20
75.3196982385
  0
LWPOLYLINE
  5
260
100
AcDbEntity
  8
RACCORDO
100
AcDbPolyline
 62
253
  6
CONTINUOUS
 90
9
 70
0
 10
120.7387586259
 20
90.3372238615
 10
120.683313124
 20
90.3679256786
 10
120.6345186438
 20
90.4010536867
 10
120.5928980012
 20
90.4362529306
 10
120.5588971468
 20
90.4731462627
 10
120.5328803879
 20
90.5113383842
 10
120.5151264851
 20
90.55042008
 10
120.5058256651
 20
90.5899726035
 10
120.5044255789
 20
90.6186009417
  0
LWPOLYLINE
  5
261
100
AcDbEntity
  8
RACCORDO
100
AcDbPolyline
 62
7
  6
CONTINUOUS
 90
15
 70
0
 10
120.5044255789
 20
90.6186009417
 10
120.5038404881
 20
90.5916959256
 10
120.5071413008
 20
90.4683391992
 10
120.5201449829
 20
90.3493327281
 10
120.5425259015
 20
90.235268568
 10
120.5739631142
 20
90.1262774353
 10
120.6142584075
 20
90.0224672824
 10
120.6630828168
 20
89.9244648949
 10
120.7200169863
 20
89.8328207113
 10
120.7846720298
 20
89.7479545192
 10
120.8564242321
 20
89.6705513546
 10
120.9345511409
 20
89.6012262837
 10
121.0183123728
 20
89.5403997817
 10
121.1068057227
 20
89.4884699231
 10
121.1252874049
 20
89.4790304177
  0
LINE
  5
262
100
AcDbEntity
  8
RACCORDO
100
AcDbLine
 62
7
  6
CONTINUOUS
 10
120.5044255789
 20
90.6186009417
 11
120.5044324629
 21
90.6188309604
  0
LWPOLYLINE
  5
263
100
AcDbEntity
  8
RACCORDO
100
AcDbPolyline
 62
253
  6
CONTINUOUS
 90
13
 70
0
 10
123.7472630385
 20
126.8987602823
 10
123.3509797107
 20
123.7991204586
 10
122.9810314082
 20
120.7077786206
 10
122.6374657661
 20
117.6251304272
 10
122.3203270758
 20
114.5515704473
 10
122.0296559947
 20
111.4874921302
 10
121.7654895448
 20
108.433287757
 10
121.527861397
 20
105.3893484441
 10
121.3168021271
 20
102.3560638427
 10
121.1323389326
 20
99.333822112
 10
120.9744953719
 20
96.3230101948
 10
120.8432913571
 20
93.3240137667
 10
120.7387434175
 20
90.337216938
  0
LWPOLYLINE
  5
264
100
AcDbEntity
  8
21814000
100
AcDbPolyline
 62
253
  6
CONTINUOUS
 90
10
 70
0
 10
140.1280697735
 20
130.427665625
 10
140.1333269009
 20
130.4331931305
 10
140.138561369
 20
130.4379560882
 10
140.1437505753
 20
130.4419317166
 10
140.1488740133
 20
130.4451016177
 10
140.1539072499
 20
130.4474479459
 10
140.158822445
 20
130.448956797
 10
140.1636005665
 20
130.4496222592
 10
140.1682187702
 20
130.4494410794
 10
140.1702580851
 20
130.4490794125
  0
LWPOLYLINE
  5
265
100
AcDbEntity
  8
21814000
100
AcDbPolyline
 62
253
  6
CONTINUOUS
 90
10
 70
0
 10
139.8715144025
 20
129.7091255878
 10
139.852473514
 20
129.6910660226
 10
139.8346254585
 20
129.6703555573
 10
139.8183371621
 20
129.6474199643
 10
139.8039434849
 20
129.622730761
 10
139.7917403368
 20
129.5967955161
 10
139.781978594
 20
129.5701474146
 10
139.7748589417
 20
129.5433342969
 10
139.770527748
 20
129.5169073959
 10
139.7690740549
 20
129.4914100043
  0
LWPOLYLINE
  5
266
100
AcDbEntity
  8
21814000
100
AcDbPolyline
 62
253
  6
CONTINUOUS
 90
10
 70
0
 10
140.6299200011
 20
129.3299227884
 10
140.6108785486
 20
129.3118625941
 10
140.5930301568
 20
129.2911515337
 10
140.576741741
 20
129.2682154737
 10
140.5623481402
 20
129.2435260251
 10
140.5501452008
 20
129.2175907883
 10
140.5403837147
 20
129.1909429073
 10
140.5332643064
 20
129.1641301951
 10
140.5289332928
 20
129.1377038786
 10
140.5274796558
 20
129.112207204
  0
LWPOLYLINE
  5
267
100
AcDbEntity
  8
21814000
100
AcDbPolyline
 62
253
  6
CONTINUOUS
 90
16
 70
0
 10
139.3562028387
 20
129.379149579
 10
139.3804321741
 20
129.4020125815
 10
139.4064735023
 20
129.4230318934
 10
139.4340287397
 20
129.442130846
 10
139.462797667
 20
129.4593616299
 10
139.4924553493
 20
129.4745677006
 10
139.522653186
 20
129.4873884697
 10
139.5530679191
 20
129.4977824795
 10
139.5833846943
 20
129.50579689
 10
139.6132725966
 20
129.5112361065
 10
139.6423843404
 20
129.5141129994
 10
139.6704944979
 20
129.5145238638
 10
139.6974639674
 20
129.5124029235
 10
139.7230683405
 20
129.5077677358
 10
139.7470156802
 20
129.5007401204
 10
139.7690740549
 20
129.4914100043
  0
LINE
  5
268
100
AcDbEntity
  8
21814000
100
AcDbLine
 62
253
  6
CONTINUOUS
 10
140.6479390233
 20
128.8681973096
 11
140.2213199844
 21
128.4731825508
  0
LINE
  5
269
100
AcDbEntity
  8
21814000
100
AcDbLine
 62
7
  6
CONTINUOUS
 10
140.5511386523
 20
128.8680370698
 11
140.1585749472
 21
128.5045550694
  0
LINE
  5
26A
100
AcDbEntity
  8
21814000
100
AcDbLine
 62
253
  6
CONTINUOUS
 10
138.9874769281
 20
129.0901040789
 11
139.3562028387
 21
129.379149579
  0
LINE
  5
26B
100
AcDbEntity
  8
26814000
100
AcDbLine
 62
7
  6
CONTINUOUS
 10
141.5353687321
 20
126.0303426275
 11
143.1181253353
 21
126.8423267249
  0
LINE
  5
26C
100
AcDbEntity
  8
26814000
100
AcDbLine
 62
7
  6
CONTINUOUS
 10
139.8613131558
 20
126.23716956
 11
140.3604088886
 21
126.4891341406
  0
LINE
  5
26D
100
AcDbEntity
  8
26814000
100
AcDbLine
 62
7
  6
CONTINUOUS
 10
140.3604088886
 20
126.4891341406
 11
145.7746815838
 21
129.1697467379
  0
LINE
  5
26E
100
AcDbEntity
  8
26814000
100
AcDbLine
 62
7
  6
CONTINUOUS
 10
146.4476977993
 20
130.4470852451
 11
145.8613190122
 21
130.1601631775
  0
LINE
  5
26F
100
AcDbEntity
  8
26814000
100
AcDbLine
 62
7
  6
CONTINUOUS
 10
143.1181253353
 20
126.8423267249
 11
143.6525752139
 21
127.1026741914
  0
LINE
  5
270
100
AcDbEntity
  8
21814000
100
AcDbLine
 62
7
  6
CONTINUOUS
 10
154.0366525864
 20
132.4981879155
 11
150.6062486859
 21
130.8608511025
  0
LINE
  5
271
100
AcDbEntity
  8
21814000
100
AcDbLine
 62
7
  6
CONTINUOUS
 10
152.6770362702
 20
133.015981668
 11
147.0235663797
 21
130.405021923
  0
LINE
  5
272
100
AcDbEntity
  8
21814000
100
AcDbLine
 62
253
  6
CONTINUOUS
 10
153.0654937527
 20
132.9837673323
 11
147.2435805023
 21
130.2950148617
  0
LINE
  5
273
100
AcDbEntity
  8
RACCORDO
100
AcDbLine
 62
253
  6
CONTINUOUS
 10
160.5841651253
 20
76.9760331152
 11
160.6013405001
 21
76.9707855681
  0
LINE
  5
274
100
AcDbEntity
  8
RACCORDO
100
AcDbLine
 62
253
  6
CONTINUOUS
 10
150.7737808165
 20
75.3196982385
 11
120.7387434175
 21
90.337216938
  0
LINE
  5
275
100
AcDbEntity
  8
21814000
100
AcDbLine
 62
253
  6
CONTINUOUS
 10
140.6810389481
 20
128.9019236913
 11
140.6479390233
 21
128.8681973096
  0
LWPOLYLINE
  5
276
100
AcDbEntity
  8
RACCORDO
100
AcDbPolyline
 62
7
  6
CONTINUOUS
 90
10
 70
0
 10
144.1023374472
 20
124.797031699
 10
144.0740026769
 20
124.7804533322
 10
144.0476712479
 20
124.7599390502
 10
144.024038444
 20
124.735785847
 10
144.0037657121
 20
124.7084889201
 10
143.987336881
 20
124.6785910628
 10
143.9750745546
 20
124.6465501927
 10
143.9672486245
 20
124.6127207031
 10
143.9641850413
 20
124.5781255
 10
143.9641408498
 20
124.5734464575
  0
LWPOLYLINE
  5
277
100
AcDbEntity
  8
RACCORDO
100
AcDbPolyline
 62
253
  6
CONTINUOUS
 90
13
 70
0
 10
144.2141408461
 20
124.7899312522
 10
144.1915800798
 20
124.7768804437
 10
144.1692322255
 20
124.7603740859
 10
144.1474798775
 20
124.7406174153
 10
144.1266619318
 20
124.7178241145
 10
144.1072148837
 20
124.6923720644
 10
144.0896263882
 20
124.6648531455
 10
144.0742333179
 20
124.6358109471
 10
144.0612611634
 20
124.6056897237
 10
144.0509373763
 20
124.5750213705
 10
144.0434381981
 20
124.5443399879
 10
144.0388886905
 20
124.5141717492
 10
144.0373641508
 20
124.4850365536
  0
LWPOLYLINE
  5
278
100
AcDbEntity
  8
21814000
100
AcDbPolyline
 62
7
  6
CONTINUOUS
 90
13
 70
0
 10
151.0208261976
 20
129.7852725623
 10
150.8918413795
 20
129.714918844
 10
150.7729280952
 20
129.6402607953
 10
150.6646592618
 20
129.5616581145
 10
150.5675565118
 20
129.4794895042
 10
150.4820876804
 20
129.3941508481
 10
150.4086645514
 20
129.3060533025
 10
150.3476408727
 20
129.215621316
 10
150.299310653
 20
129.1232905845
 10
150.2639067441
 20
129.0295059518
 10
150.24159972
 20
128.9347192666
 10
150.2324970546
 20
128.8393872054
 10
150.2322649328
 20
128.8215223239
  0
LINE
  5
279
100
AcDbEntity
  8
26814000
100
AcDbLine
 62
253
  6
CONTINUOUS
 10
145.2585517651
 20
125.5486221557
 11
150.6168785452
 21
128.4395623827
  0
LINE
  5
27A
100
AcDbEntity
  8
26814000
100
AcDbLine
 62
253
  6
CONTINUOUS
 10
146.3401902948
 20
125.8837788145
 11
150.5327269776
 21
128.1457485388
  0
LINE
  5
27B
100
AcDbEntity
  8
0
100
AcDbLine
 62
7
  6
CONTINUOUS
 10
150.6899953375
 20
128.513370482
 11
151.3407689923
 21
128.8565362981
  0
LINE
  5
27C
100
AcDbEntity
  8
RACCORDO
100
AcDbLine
 62
253
  6
CONTINUOUS
 10
151.3406412103
 20
128.8564689112
 11
151.3407689923
 21
128.8565362981
  0
LINE
  5
27D
100
AcDbEntity
  8
26814000
100
AcDbLine
 62
253
  6
CONTINUOUS
 10
146.4860874551
 20
125.8382804375
 11
150.5327269776
 21
127.9334893847
  0
LINE
  5
27E
100
AcDbEntity
  8
26814000
100
AcDbLine
 62
7
  6
CONTINUOUS
 10
146.6058535857
 20
125.7783973721
 11
150.61493669
 21
127.8541609146
  0
LINE
  5
27F
100
AcDbEntity
  8
21814000
100
AcDbLine
 62
7
  6
CONTINUOUS
 10
155.0329821761
 20
131.8266723551
 11
151.0208261976
 21
129.7852725623
  0
LINE
  5
280
100
AcDbEntity
  8
26814000
100
AcDbLine
 62
7
  6
CONTINUOUS
 10
144.1277912795
 20
123.9857772153
 11
143.6776400198
 21
123.7585218694
  0
LINE
  5
281
100
AcDbEntity
  8
26814000
100
AcDbLine
 62
7
  6
CONTINUOUS
 10
143.1431901412
 20
125.226431923
 11
144.744470932
 21
126.0291539265
  0
LINE
  5
282
100
AcDbEntity
  8
0
100
AcDbLine
 62
7
  6
CONTINUOUS
 10
151.4690564211
 20
128.6334445668
 11
151.9640311679
 21
128.8809319402
  0
LINE
  5
283
100
AcDbEntity
  8
RACCORDO
100
AcDbLine
 62
7
  6
CONTINUOUS
 10
144.1023374472
 20
124.797031699
 11
146.2236577908
 21
125.8576918707
  0
LINE
  5
284
100
AcDbEntity
  8
RACCORDO
100
AcDbLine
 62
253
  6
CONTINUOUS
 10
144.2141408461
 20
124.7899312522
 11
146.3354611897
 21
125.8505914239
  0
LINE
  5
285
100
AcDbEntity
  8
RACCORDO
100
AcDbLine
 62
7
  6
CONTINUOUS
 10
154.4322090804
 20
129.0614317925
 11
153.1207447694
 21
128.405699637
  0
LINE
  5
286
100
AcDbEntity
  8
26814000
100
AcDbLine
 62
7
  6
CONTINUOUS
 10
144.744470932
 20
126.0291539265
 11
145.2727381037
 21
126.2925927465
  0
LINE
  5
287
100
AcDbEntity
  8
21814000
100
AcDbLine
 62
7
  6
CONTINUOUS
 10
155.0329821761
 20
131.4188210878
 11
151.0208261976
 21
129.4639482801
  0
LINE
  5
288
100
AcDbEntity
  8
21814000
100
AcDbLine
 62
7
  6
CONTINUOUS
 10
151.1987286174
 20
127.3546441969
 11
147.2700571231
 21
125.4462956035
  0
LINE
  5
289
100
AcDbEntity
  8
26814000
100
AcDbLine
 62
253
  6
CONTINUOUS
 10
144.654948722
 20
126.6634648083
 11
149.4267877002
 21
128.9575402947
  0
LINE
  5
28A
100
AcDbEntity
  8
26814000
100
AcDbLine
 62
253
  6
CONTINUOUS
 10
144.8825642219
 20
126.5496570583
 11
149.8686285681
 21
128.9467220143
  0
LWPOLYLINE
  5
28B
100
AcDbEntity
  8
RACCORDO
100
AcDbPolyline
 62
253
  6
CONTINUOUS
 90
7
 70
0
 10
146.2236577908
 20
125.8576918707
 10
146.227846356
 20
125.8596585265
 10
146.247072842
 20
125.8657792468
 10
146.2678116771
 20
125.8679356155
 10
146.2897080142
 20
125.8660907367
 10
146.3123872007
 20
125.8602761765
 10
146.3354611897
 20
125.8505914239
  0
LWPOLYLINE
  5
28C
100
AcDbEntity
  8
RACCORDO
100
AcDbPolyline
 62
253
  6
CONTINUOUS
 90
7
 70
0
 10
144.1023374472
 20
124.797031699
 10
144.1065260124
 20
124.7989983548
 10
144.1257524984
 20
124.805119075
 10
144.1464913336
 20
124.8072754438
 10
144.1683876706
 20
124.8054305649
 10
144.1910668572
 20
124.7996160048
 10
144.2141408461
 20
124.7899312522
  0
LWPOLYLINE
  5
28D
100
AcDbEntity
  8
RACCORDO
100
AcDbPolyline
 62
7
  6
CONTINUOUS
 90
10
 70
0
 10
155.2807108922
 20
128.637154561
 10
155.2921073565
 20
128.6423232162
 10
155.303327759
 20
128.6463751126
 10
155.3143720997
 20
128.6493102501
 10
155.3253353586
 20
128.6511287815
 10
155.3361225558
 20
128.6518305539
 10
155.3464487512
 20
128.6514151096
 10
155.356218965
 20
128.6498822957
 10
155.365528177
 20
128.647232265
 10
155.3743763873
 20
128.6434650174
  0
LWPOLYLINE
  5
28E
100
AcDbEntity
  8
RACCORDO
100
AcDbPolyline
 62
7
  6
CONTINUOUS
 90
8
 70
0
 10
146.2236577908
 20
125.8576918707
 10
146.251944386
 20
125.8697214359
 10
146.281931587
 20
125.8782864048
 10
146.3131061699
 20
125.8830835732
 10
146.3450108138
 20
125.8839025558
 10
146.3768957021
 20
125.8806275161
 10
146.4079032328
 20
125.8733592889
 10
146.4378632833
 20
125.8621503039
  0
LINE
  5
28F
100
AcDbEntity
  8
26814000
100
AcDbLine
 62
7
  6
CONTINUOUS
 10
143.3656127087
 20
122.8723551161
 11
143.9310913711
 21
123.0700579011
  0
LINE
  5
290
100
AcDbEntity
  8
RACCORDO
100
AcDbLine
 62
253
  6
CONTINUOUS
 10
161.7503890195
 20
85.3196817103
 11
165.9489991022
 21
85.6158896331
  0
LINE
  5
291
100
AcDbEntity
  8
RACCORDO
100
AcDbLine
 62
7
  6
CONTINUOUS
 10
165.4813288735
 20
86.2515131299
 11
161.7503890195
 21
86.052861648
  0
LINE
  5
292
100
AcDbEntity
  8
RACCORDO
100
AcDbLine
 62
7
  6
CONTINUOUS
 10
158.8101584959
 20
74.9936754956
 11
157.4666556116
 21
75.6654269377
  0
LINE
  5
293
100
AcDbEntity
  8
RACCORDO
100
AcDbLine
 62
253
  6
CONTINUOUS
 10
158.7451851995
 20
75.1288939457
 11
157.4016823152
 21
75.8006453878
  0
LINE
  5
294
100
AcDbEntity
  8
RACCORDO
100
AcDbLine
 62
253
  6
CONTINUOUS
 10
158.7451851995
 20
75.4802079178
 11
157.4016823152
 21
76.1519593599
  0
LINE
  5
295
100
AcDbEntity
  8
RACCORDO
100
AcDbLine
 62
253
  6
CONTINUOUS
 10
158.8335735471
 20
75.7119020916
 11
157.4900706629
 21
76.3836535337
  0
LINE
  5
296
100
AcDbEntity
  8
RACCORDO
100
AcDbLine
 62
253
  6
CONTINUOUS
 10
158.0204007488
 20
77.0238185767
 11
159.363903633
 21
76.3520671345
  0
LWPOLYLINE
  5
297
100
AcDbEntity
  8
RACCORDO
100
AcDbPolyline
 62
7
  6
CONTINUOUS
 90
7
 70
0
 10
157.4668401138
 20
75.6653349401
 10
157.4554473814
 20
75.6713916131
 10
157.4283617405
 20
75.6891067249
 10
157.4037308074
 20
75.7102320341
 10
157.3819793076
 20
75.7344513098
 10
157.3634714318
 20
75.761439296
 10
157.3485672538
 20
75.7908004407
  0
LINE
  5
298
100
AcDbEntity
  8
26814000
100
AcDbLine
 62
7
  6
CONTINUOUS
 10
127.5971314882
 20
130.7809912316
 11
127.5971314882
 21
130.7565957263
  0
LINE
  5
299
100
AcDbEntity
  8
26814000
100
AcDbLine
 62
7
  6
CONTINUOUS
 10
127.9963247851
 20
132.1542422643
 11
127.9963247851
 21
132.4076136581
  0
LINE
  5
29A
100
AcDbEntity
  8
26814000
100
AcDbLine
 62
7
  6
CONTINUOUS
 10
128.4103042866
 20
130.3500093272
 11
128.4103042866
 21
130.1568786416
  0
LWPOLYLINE
  5
29B
100
AcDbEntity
  8
RACCORDO
100
AcDbPolyline
 62
7
  6
CONTINUOUS
 90
8
 70
0
 10
144.3678553498
 20
123.3589446791
 10
144.3462432153
 20
123.3437480069
 10
144.3259147017
 20
123.3296071419
 10
144.3078119545
 20
123.3173777124
 10
144.2920059875
 20
123.307191626
 10
144.2782474979
 20
123.2989020625
 10
144.2671771427
 20
123.2927868409
 10
144.2626620979
 20
123.2904825044
  0
LWPOLYLINE
  5
29C
100
AcDbEntity
  8
RACCORDO
100
AcDbPolyline
 62
7
  6
CONTINUOUS
 90
4
 70
0
 10
144.4423180193
 20
123.4092514909
 10
144.4159086282
 20
123.3920056606
 10
144.3909115339
 20
123.3750188237
 10
144.3678553498
 20
123.3589446791
  0
LWPOLYLINE
  5
29D
100
AcDbEntity
  8
RACCORDO
100
AcDbPolyline
 62
253
  6
CONTINUOUS
 90
13
 70
0
 10
145.5576437303
 20
124.11817981
 10
145.5350829641
 20
124.1051290016
 10
145.5127351098
 20
124.0886226437
 10
145.4909827617
 20
124.0688659732
 10
145.470164816
 20
124.0460726724
 10
145.450717768
 20
124.0206206222
 10
145.4331292725
 20
123.9931017034
 10
145.4177362021
 20
123.964059505
 10
145.4047640477
 20
123.9339382815
 10
145.3944402606
 20
123.9032699284
 10
145.3869410824
 20
123.8725885457
 10
145.3823915747
 20
123.8424203071
 10
145.3808670351
 20
123.8132851114
  0
LWPOLYLINE
  5
29E
100
AcDbEntity
  8
RACCORDO
100
AcDbPolyline
 62
253
  6
CONTINUOUS
 90
7
 70
0
 10
147.148633988
 20
123.4190779205
 10
147.1701956278
 20
123.4313710896
 10
147.1883636437
 20
123.4449662682
 10
147.2028271758
 20
123.4596308391
 10
147.2133387493
 20
123.4751138876
 10
147.2197185081
 20
123.4911504942
 10
147.2218572927
 20
123.5074662682
  0
LWPOLYLINE
  5
29F
100
AcDbEntity
  8
26814000
100
AcDbPolyline
 62
7
  6
CONTINUOUS
 90
5
 70
0
 10
150.6151451837
 20
127.8542592259
 10
150.6153796206
 20
127.8543922276
 10
150.6163068565
 20
127.8552198991
 10
150.616813274
 20
127.8562709704
 10
150.6169250193
 20
127.8572152147
  0
LINE
  5
2A0
100
AcDbEntity
  8
RACCORDO
100
AcDbLine
 62
253
  6
CONTINUOUS
 10
147.166306897
 20
123.1043496275
 11
147.148633988
 21
123.0952554928
  0
LINE
  5
2A1
100
AcDbEntity
  8
26814000
100
AcDbLine
 62
253
  6
CONTINUOUS
 10
144.2727796209
 20
123.9132830446
 11
143.1181253353
 21
123.3236147413
  0
LINE
  5
2A2
100
AcDbEntity
  8
26814000
100
AcDbLine
 62
253
  6
CONTINUOUS
 10
144.6712476273
 20
123.5635229503
 11
143.3656127087
 21
122.8967506214
  0
LINE
  5
2A3
100
AcDbEntity
  8
RACCORDO
100
AcDbLine
 62
253
  6
CONTINUOUS
 10
145.5576437303
 20
124.11817981
 11
147.6789640739
 21
125.1788399818
  0
LINE
  5
2A4
100
AcDbEntity
  8
RACCORDO
100
AcDbLine
 62
7
  6
CONTINUOUS
 10
155.2807397881
 20
128.6371690089
 11
154.401847137
 21
128.1977226833
  0
LINE
  5
2A5
100
AcDbEntity
  8
RACCORDO
100
AcDbLine
 62
253
  6
CONTINUOUS
 10
145.7344204256
 20
123.8132851114
 11
147.8557407692
 21
124.8739452832
  0
LWPOLYLINE
  5
2A6
100
AcDbEntity
  8
RACCORDO
100
AcDbPolyline
 62
7
  6
CONTINUOUS
 90
5
 70
0
 10
144.544710113
 20
123.466969053
 10
144.5304281697
 20
123.4598401131
 10
144.4993794101
 20
123.4433000739
 10
144.4700299857
 20
123.4263711529
 10
144.4423180193
 20
123.4092514909
  0
LINE
  5
2A7
100
AcDbEntity
  8
21814000
100
AcDbLine
 62
253
  6
CONTINUOUS
 10
159.9635308125
 20
129.0209154065
 11
148.2893908433
 21
123.2166334148
  0
LINE
  5
2A8
100
AcDbEntity
  8
RACCORDO
100
AcDbLine
 62
7
  6
CONTINUOUS
 10
144.0281730634
 20
123.1741610903
 11
144.2627711729
 21
123.2905234821
  0
LINE
  5
2A9
100
AcDbEntity
  8
RACCORDO
100
AcDbLine
 62
253
  6
CONTINUOUS
 10
144.2513301905
 20
123.1596929866
 11
144.4911201054
 21
123.2786278226
  0
LINE
  5
2AA
100
AcDbEntity
  8
RACCORDO
100
AcDbLine
 62
7
  6
CONTINUOUS
 10
144.6612401282
 20
123.5238487806
 11
144.5447113035
 21
123.4669665208
  0
LINE
  5
2AB
100
AcDbEntity
  8
RACCORDO
100
AcDbLine
 62
7
  6
CONTINUOUS
 10
144.6712476273
 20
123.5287347764
 11
144.6612401282
 21
123.5238487806
  0
LINE
  5
2AC
100
AcDbEntity
  8
21814000
100
AcDbLine
 62
7
  6
CONTINUOUS
 10
159.5439876016
 20
129.7445204079
 11
151.9514227013
 21
126.0564389359
  0
LINE
  5
2AD
100
AcDbEntity
  8
RACCORDO
100
AcDbLine
 62
253
  6
CONTINUOUS
 10
144.6491269499
 20
123.487977172
 11
144.6677556339
 21
123.4969431749
  0
LINE
  5
2AE
100
AcDbEntity
  8
21814000
100
AcDbLine
 62
7
  6
CONTINUOUS
 10
158.7383156655
 20
130.147356376
 11
155.3171695957
 21
128.5053906476
  0
LINE
  5
2AF
100
AcDbEntity
  8
RACCORDO
100
AcDbLine
 62
253
  6
CONTINUOUS
 10
147.148633988
 20
123.0952554928
 11
146.4415272068
 21
122.7568186318
  0
LINE
  5
2B0
100
AcDbEntity
  8
RACCORDO
100
AcDbLine
 62
253
  6
CONTINUOUS
 10
147.2875872013
 20
122.8501320424
 11
146.5804804201
 21
122.5116951814
  0
LWPOLYLINE
  5
2B1
100
AcDbEntity
  8
RACCORDO
100
AcDbPolyline
 62
253
  6
CONTINUOUS
 90
5
 70
0
 10
144.5450080495
 20
123.4671116586
 10
144.5519594931
 20
123.4703422545
 10
144.5825781896
 20
123.4810399169
 10
144.6150795701
 20
123.486938591
 10
144.6491269499
 20
123.487977172
  0
LWPOLYLINE
  5
2B2
100
AcDbEntity
  8
RACCORDO
100
AcDbPolyline
 62
253
  6
CONTINUOUS
 90
4
 70
0
 10
144.6893936716
 20
123.4956559587
 10
144.6872004465
 20
123.4946480982
 10
144.6752123221
 20
123.4904956756
 10
144.6624772042
 20
123.4882643473
  0
LWPOLYLINE
  5
2B3
100
AcDbEntity
  8
21814000
100
AcDbPolyline
 62
7
  6
CONTINUOUS
 90
9
 70
0
 10
159.5439876016
 20
129.7445204079
 10
159.6001334792
 20
129.7697834463
 10
159.6533661902
 20
129.7892359387
 10
159.7032366506
 20
129.8028655497
 10
159.7492074204
 20
129.8107732372
 10
159.7909993819
 20
129.8130062151
 10
159.828592292
 20
129.8095492008
 10
159.8616265806
 20
129.8006125966
 10
159.876188531
 20
129.7942395387
  0
LWPOLYLINE
  5
2B4
100
AcDbEntity
  8
RACCORDO
100
AcDbPolyline
 62
253
  6
CONTINUOUS
 90
8
 70
0
 10
144.2627712023
 20
123.2905234967
 10
144.2785011326
 20
123.2974980799
 10
144.3104305449
 20
123.3071047575
 10
144.3442726545
 20
123.3116202715
 10
144.3796562703
 20
123.3109951909
 10
144.4161934565
 20
123.3052365346
 10
144.4534838264
 20
123.2944075669
 10
144.4911186755
 20
123.2786271133
  0
LWPOLYLINE
  5
2B5
100
AcDbEntity
  8
RACCORDO
100
AcDbPolyline
 62
253
  6
CONTINUOUS
 90
13
 70
0
 10
145.7344204256
 20
123.8132851114
 10
145.7104141132
 20
123.8027275014
 10
145.6837123474
 20
123.79373053
 10
145.6547091043
 20
123.7864798035
 10
145.6237793972
 20
123.7811267113
 10
145.5914900614
 20
123.7778243312
 10
145.5586129359
 20
123.7766743984
 10
145.5257912046
 20
123.7776921938
 10
145.493521034
 20
123.7808551246
 10
145.4623713098
 20
123.7861061996
 10
145.4328824143
 20
123.7933514691
 10
145.4055579716
 20
123.8024641828
 10
145.3808670351
 20
123.8132851114
  0
LWPOLYLINE
  5
2B6
100
AcDbEntity
  8
RACCORDO
100
AcDbPolyline
 62
253
  6
CONTINUOUS
 90
13
 70
0
 10
145.7344204256
 20
123.4619711394
 10
145.7098340876
 20
123.4511903195
 10
145.6826437303
 20
123.4421063115
 10
145.6533145884
 20
123.4348745454
 10
145.6223484916
 20
123.4296187587
 10
145.5902752784
 20
123.4264288793
 10
145.5576437303
 20
123.425359487
 10
145.5250121823
 20
123.4264288793
 10
145.4929389691
 20
123.4296187587
 10
145.4619728723
 20
123.4348745454
 10
145.4326437303
 20
123.4421063115
 10
145.4054533731
 20
123.4511903195
 10
145.3808670351
 20
123.4619711394
  0
LWPOLYLINE
  5
2B7
100
AcDbEntity
  8
RACCORDO
100
AcDbPolyline
 62
253
  6
CONTINUOUS
 90
13
 70
0
 10
146.4415272068
 20
123.0655245299
 10
146.4169408688
 20
123.0547437101
 10
146.3897505115
 20
123.0456597021
 10
146.3604213696
 20
123.038427936
 10
146.3294552728
 20
123.0331721493
 10
146.2973820596
 20
123.0299822699
 10
146.2647505115
 20
123.0289128776
 10
146.2321189635
 20
123.0299822699
 10
146.2000457503
 20
123.0331721493
 10
146.1690796534
 20
123.038427936
 10
146.1397505115
 20
123.0456597021
 10
146.1125601543
 20
123.0547437101
 10
146.0879738162
 20
123.0655245299
  0
LWPOLYLINE
  5
2B8
100
AcDbEntity
  8
RACCORDO
100
AcDbPolyline
 62
253
  6
CONTINUOUS
 90
16
 70
0
 10
146.5804804201
 20
122.5116951814
 10
146.544330126
 20
122.4963417782
 10
146.5060893001
 20
122.4831855441
 10
146.4657579425
 20
122.4722264792
 10
146.4228651214
 20
122.4634129515
 10
146.3778817685
 20
122.456796593
 10
146.3322206791
 20
122.4525322993
 10
146.2859055113
 20
122.4506756059
 10
146.2389126069
 20
122.4511709773
 10
146.1925837861
 20
122.4540067024
 10
146.1468906162
 20
122.4592398937
 10
146.1018615299
 20
122.4668134389
 10
146.058923645
 20
122.4765442889
 10
146.0185526676
 20
122.4883714276
 10
145.9802728916
 20
122.5023558712
 10
145.944084317
 20
122.5184976198
  0
LWPOLYLINE
  5
2B9
100
AcDbEntity
  8
RACCORDO
100
AcDbPolyline
 62
253
  6
CONTINUOUS
 90
16
 70
0
 10
146.4415272068
 20
122.7568186318
 10
146.4218789667
 20
122.748712163
 10
146.4005467526
 20
122.7416902733
 10
146.3777831991
 20
122.7358278433
 10
146.3538655315
 20
122.7311941756
 10
146.3290549467
 20
122.7278249587
 10
146.3035890083
 20
122.7257288639
 10
146.277764419
 20
122.7249271267
 10
146.2518439389
 20
122.7254267003
 10
146.2260128583
 20
122.727213749
 10
146.2005327249
 20
122.7302831217
 10
146.1757026189
 20
122.7346136704
 10
146.15176553
 20
122.7401656977
 10
146.1289846637
 20
122.7468928447
 10
146.1076363451
 20
122.7547362903
 10
146.0879738162
 20
122.7636210702
  0
LINE
  5
2BA
100
AcDbEntity
  8
RACCORDO
100
AcDbLine
 62
253
  6
CONTINUOUS
 10
147.2693554777
 20
123.1542508515
 11
147.2875872013
 21
123.1615276556
  0
LWPOLYLINE
  5
2BB
100
AcDbEntity
  8
RACCORDO
100
AcDbPolyline
 62
7
  6
CONTINUOUS
 90
18
 70
0
 10
165.4813148573
 20
86.2515582114
 10
165.5182567104
 20
86.2502665752
 10
165.5552763753
 20
86.2429541764
 10
165.5934355707
 20
86.2294099746
 10
165.6324840528
 20
86.2098857336
 10
165.6706432482
 20
86.1852707399
 10
165.7076629131
 20
86.1555634739
 10
165.7437932915
 20
86.1207654551
 10
165.7780065425
 20
86.0817705295
 10
165.8104567265
 20
86.0381865132
 10
165.8409897831
 20
85.9904055901
 10
165.8681156904
 20
85.9404981567
 10
165.891609695
 20
85.8885857528
 10
165.9116965502
 20
85.8345468386
 10
165.9275604947
 20
85.7800871918
 10
165.9389296079
 20
85.7257754049
 10
165.9460758104
 20
85.6710428853
 10
165.9489991022
 20
85.6158896331
  0
LWPOLYLINE
  5
2BC
100
AcDbEntity
  8
RACCORDO
100
AcDbPolyline
 62
253
  6
CONTINUOUS
 90
3
 70
0
 10
161.1547670985
 20
76.8530217494
 10
161.1489301986
 20
76.855668328
 10
161.131670586
 20
76.860950611
  0
LINE
  5
2BD
100
AcDbEntity
  8
RACCORDO
100
AcDbLine
 62
253
  6
CONTINUOUS
 10
160.5779254489
 20
76.9788729441
 11
160.5841651253
 21
76.9760331152
  0
LINE
  5
2BE
100
AcDbEntity
  8
RACCORDO
100
AcDbLine
 62
253
  6
CONTINUOUS
 10
158.1087890964
 20
77.2555127505
 11
159.4522919807
 21
76.5837613084
  0
LINE
  5
2BF
100
AcDbEntity
  8
RACCORDO
100
AcDbLine
 62
7
  6
CONTINUOUS
 10
156.5912138583
 20
78.1313469446
 11
159.2383259409
 21
76.8077909032
  0
LINE
  5
2C0
100
AcDbEntity
  8
DRAFT
100
AcDbLine
 62
7
  6
CONTINUOUS
 10
156.6274971284
 20
78.5722855192
 11
159.5920408916
 21
77.0900136376
  0
LINE
  5
2C1
100
AcDbEntity
  8
RACCORDO
100
AcDbLine
 62
253
  6
CONTINUOUS
 10
160.5950680346
 20
76.9739218008
 11
160.6013405001
 21
76.9707855681
  0
LINE
  5
2C2
100
AcDbEntity
  8
DRAFT
100
AcDbLine
 62
7
  6
CONTINUOUS
 10
156.6692856919
 20
79.080128102
 11
160.059682986
 21
77.384929455
  0
LINE
  5
2C3
100
AcDbEntity
  8
RACCORDO
100
AcDbLine
 62
253
  6
CONTINUOUS
 10
160.5861754571
 20
77.1336981754
 11
161.131670586
 21
76.860950611
  0
LINE
  5
2C4
100
AcDbEntity
  8
RACCORDO
100
AcDbLine
 62
7
  6
CONTINUOUS
 10
160.5861754571
 20
77.137318325
 11
161.1550856372
 21
76.8528632349
  0
LWPOLYLINE
  5
2C5
100
AcDbEntity
  8
RACCORDO
100
AcDbPolyline
 62
253
  6
CONTINUOUS
 90
8
 70
0
 10
157.4666809716
 20
75.6654142625
 10
157.4539445527
 20
75.6730910333
 10
157.4385514823
 20
75.6867401613
 10
157.4255793278
 20
75.7038892303
 10
157.4152555407
 20
75.7242337964
 10
157.4077563626
 20
75.7474160008
 10
157.4032068549
 20
75.7730347318
 10
157.4016823152
 20
75.8006453878
  0
LWPOLYLINE
  5
2C6
100
AcDbEntity
  8
RACCORDO
100
AcDbPolyline
 62
253
  6
CONTINUOUS
 90
8
 70
0
 10
158.8099968657
 20
74.9937565056
 10
158.7974474369
 20
75.0013395912
 10
158.7820543666
 20
75.0149887192
 10
158.7690822121
 20
75.0321377882
 10
158.758758425
 20
75.0524823542
 10
158.7512592468
 20
75.0756645587
 10
158.7467097391
 20
75.1012832897
 10
158.7451851995
 20
75.1288939457
  0
LINE
  5
2C7
100
AcDbEntity
  8
26814000
100
AcDbLine
 62
7
  6
CONTINUOUS
 10
128.6993177394
 20
131.2476830096
 11
128.6993177394
 21
131.7000139853
  0
LINE
  5
2C8
100
AcDbEntity
  8
26814000
100
AcDbLine
 62
7
  6
CONTINUOUS
 10
129.6021012473
 20
131.604725427
 11
129.6021012473
 21
131.3513540332
  0
LINE
  5
2C9
100
AcDbEntity
  8
26814000
100
AcDbLine
 62
7
  6
CONTINUOUS
 10
130.3133218554
 20
130.4406809516
 11
130.3133218554
 21
131.0778505104
  0
LWPOLYLINE
  5
2CA
100
AcDbEntity
  8
RACCORDO
100
AcDbPolyline
 62
7
  6
CONTINUOUS
 90
13
 70
0
 10
149.6942300949
 20
122.6831420222
 10
149.6715085179
 20
122.6711260755
 10
149.6505690579
 20
122.6585082249
 10
149.6314117151
 20
122.6452884705
 10
149.6139694202
 20
122.6314047737
 10
149.5983092423
 20
122.616919173
 10
149.5846323892
 20
122.6020177847
 10
149.5729644527
 20
122.5866952435
 10
149.5632798408
 20
122.5709569148
 10
149.555702985
 20
122.55500501
 10
149.5502610828
 20
122.5388367733
 10
149.5469269365
 20
122.5224549606
 10
149.5457413696
 20
122.5053545546
  0
LINE
  5
2CB
100
AcDbEntity
  8
21814000
100
AcDbLine
 62
253
  6
CONTINUOUS
 10
160.3024942964
 20
127.8491879001
 11
156.2157781667
 21
125.733228682
  0
LINE
  5
2CC
100
AcDbEntity
  8
RACCORDO
100
AcDbLine
 62
7
  6
CONTINUOUS
 10
155.9874687528
 20
125.1913406327
 11
151.3912746751
 21
122.8932435938
  0
LINE
  5
2CD
100
AcDbEntity
  8
RACCORDO
100
AcDbLine
 62
7
  6
CONTINUOUS
 10
148.6919263119
 20
123.0153656805
 11
154.9569292965
 21
126.1228533471
  0
LINE
  5
2CE
100
AcDbEntity
  8
RACCORDO
100
AcDbLine
 62
7
  6
CONTINUOUS
 10
149.6942300949
 20
122.6831420222
 11
155.3816178077
 21
125.4942661053
  0
LINE
  5
2CF
100
AcDbEntity
  8
DRAFT
100
AcDbLine
 62
7
  6
CONTINUOUS
 10
152.6456426502
 20
122.2660596063
 11
156.3410221434
 21
124.0347495255
  0
LINE
  5
2D0
100
AcDbEntity
  8
DRAFT
100
AcDbLine
 62
7
  6
CONTINUOUS
 10
156.7973723204
 20
80.6367225109
 11
160.059682986
 21
79.0055671781
  0
LINE
  5
2D1
100
AcDbEntity
  8
RACCORDO
100
AcDbLine
 62
253
  6
CONTINUOUS
 10
161.154021196
 20
76.8474078238
 11
161.131670586
 21
76.860950611
  0
LINE
  5
2D2
100
AcDbEntity
  8
26814000
100
AcDbLine
 62
7
  6
CONTINUOUS
 10
131.3801527676
 20
130.9792622011
 11
131.3801527676
 21
132.7113130087
  0
LINE
  5
2D3
100
AcDbEntity
  8
26814000
100
AcDbLine
 62
7
  6
CONTINUOUS
 10
132.0831457218
 20
132.8466345065
 11
132.0831457218
 21
132.5857055301
  0
LINE
  5
2D4
100
AcDbEntity
  8
26814000
100
AcDbLine
 62
7
  6
CONTINUOUS
 10
145.359589767
 20
125.6715951599
 11
145.0166271649
 21
125.2541765578
  0
LINE
  5
2D5
100
AcDbEntity
  8
0
100
AcDbLine
 62
7
  6
CONTINUOUS
 10
156.968624974
 20
123.5097120047
 11
153.5634814137
 21
121.8071402246
  0
LINE
  5
2D6
100
AcDbEntity
  8
RACCORDO
100
AcDbLine
 62
7
  6
CONTINUOUS
 10
158.1211298113
 20
124.5407530897
 11
152.9991960408
 21
122.089282911
  0
LINE
  5
2D7
100
AcDbEntity
  8
26814000
100
AcDbLine
 62
7
  6
CONTINUOUS
 10
133.5579097705
 20
130.4532490693
 11
133.5579097705
 21
129.2385156831
  0
LINE
  5
2D8
100
AcDbEntity
  8
26814000
100
AcDbLine
 62
253
  6
CONTINUOUS
 10
133.6457777362
 20
130.3467401125
 11
133.6457777362
 21
129.1317852464
  0
LWPOLYLINE
  5
2D9
100
AcDbEntity
  8
21814000
100
AcDbPolyline
 62
7
  6
CONTINUOUS
 90
9
 70
0
 10
140.6150000682
 20
128.9649188031
 10
140.6134170741
 20
128.9571017255
 10
140.6099947137
 20
128.9468301183
 10
140.6042309751
 20
128.9342737692
 10
140.5959122196
 20
128.9200323498
 10
140.5852336054
 20
128.9049730962
 10
140.5724190511
 20
128.8896037231
 10
140.5575757673
 20
128.87415322
 10
140.5511388303
 20
128.8680368766
  0
LWPOLYLINE
  5
2DA
100
AcDbEntity
  8
RACCORDO
100
AcDbPolyline
 62
253
  6
CONTINUOUS
 90
5
 70
0
 10
147.2990322508
 20
123.8485564172
 10
147.2745819153
 20
123.8133411614
 10
147.2520596768
 20
123.7768205007
 10
147.2313413588
 20
123.7387227347
 10
147.2125511377
 20
123.6993195638
  0
LINE
  5
2DB
100
AcDbEntity
  8
RACCORDO
100
AcDbLine
 62
7
  6
CONTINUOUS
 10
147.892790068
 20
124.4814880964
 11
147.8715003822
 21
124.4515525419
  0
LWPOLYLINE
  5
2DC
100
AcDbEntity
  8
RACCORDO
100
AcDbPolyline
 62
253
  6
CONTINUOUS
 90
47
 70
0
 10
150.905987741
 20
128.4202778025
 10
150.9449205152
 20
128.4723197973
 10
150.9942037336
 20
128.5291004747
 10
151.0493374082
 20
128.5846910891
 10
151.1098408865
 20
128.6386336114
 10
151.1757132381
 20
128.6908865109
 10
151.2469553934
 20
128.7414913183
 10
151.3230894911
 20
128.7901145968
 10
151.4041061201
 20
128.8367423394
 10
151.4900146915
 20
128.881388553
 10
151.5803655772
 20
128.9237618221
 10
151.6754158574
 20
128.9639210201
 10
151.7749084519
 20
129.0018072736
 10
151.8776224923
 20
129.0369525467
 10
151.983963361
 20
129.0693302666
 10
152.0935256756
 20
129.0989670062
 10
152.20387242
 20
129.1254744484
 10
152.314976937
 20
129.1486738418
 10
152.4268658837
 20
129.1687439379
 10
152.5371822158
 20
129.1858326736
 10
152.6455727057
 20
129.1998065695
 10
152.752390581
 20
129.2107991051
 10
152.8563384801
 20
129.2193586563
 10
152.9571743145
 20
129.2254612258
 10
153.0551401728
 20
129.229130811
 10
153.1496649591
 20
129.2309877798
 10
153.2405866992
 20
129.2310536487
 10
153.3280673674
 20
129.2293069012
 10
153.4120217908
 20
129.2263033558
 10
153.4923258641
 20
129.2220845552
 10
153.5691036927
 20
129.2166089567
 10
153.6426424192
 20
129.2103077511
 10
153.7129089529
 20
129.2032217173
 10
153.7799363844
 20
129.1953100764
 10
153.8441111286
 20
129.1868816822
 10
153.9054188754
 20
129.1779710417
 10
153.9638739348
 20
129.1685436479
 10
154.0199056513
 20
129.1588048341
 10
154.0735102349
 20
129.1487833123
 10
154.1246914755
 20
129.1384503706
 10
154.1738900878
 20
129.1279252059
 10
154.2211092328
 20
129.1172306667
 10
154.2663457493
 20
129.1063439046
 10
154.3100308692
 20
129.0953155709
 10
154.3523083363
 20
129.0841625496
 10
154.3930344067
 20
129.0728679568
 10
154.4322090804
 20
129.0614317925
  0
LWPOLYLINE
  5
2DD
100
AcDbEntity
  8
RACCORDO
100
AcDbPolyline
 62
253
  6
CONTINUOUS
 90
10
 70
0
 10
150.8243338714
 20
128.4539354446
 10
150.8266285595
 20
128.4569954553
 10
150.8794912106
 20
128.5177125533
 10
150.9385700811
 20
128.5769717705
 10
151.0036628605
 20
128.6345797037
 10
151.0745386923
 20
128.6903531713
 10
151.1510318301
 20
128.7441811069
 10
151.2330232339
 20
128.7959822906
 10
151.3202718309
 20
128.8455999299
 10
151.3406412103
 20
128.8564689112
  0
LINE
  5
2DE
100
AcDbEntity
  8
RACCORDO
100
AcDbLine
 62
253
  6
CONTINUOUS
 10
147.3254106833
 20
123.8824662682
 11
147.2990322508
 21
123.8485564172
  0
LWPOLYLINE
  5
2DF
100
AcDbEntity
  8
RACCORDO
100
AcDbPolyline
 62
7
  6
CONTINUOUS
 90
13
 70
0
 10
147.3411530261
 20
123.8113666227
 10
147.3238056537
 20
123.7891440706
 10
147.3070735782
 20
123.7650188117
 10
147.2912548493
 20
123.7392849132
 10
147.2765800517
 20
123.7121981191
 10
147.2633401473
 20
123.684211083
 10
147.2518352416
 20
123.6559874732
 10
147.2421781012
 20
123.6279581754
 10
147.2344272454
 20
123.6005411701
 10
147.2286400023
 20
123.5744041085
 10
147.2247336407
 20
123.5500127885
 10
147.222538219
 20
123.5276091351
 10
147.2218572927
 20
123.5074662682
  0
LINE
  5
2E0
100
AcDbEntity
  8
RACCORDO
100
AcDbLine
 62
253
  6
CONTINUOUS
 10
147.3254106833
 20
123.8824662682
 11
147.8557407692
 21
124.5226313111
  0
LINE
  5
2E1
100
AcDbEntity
  8
RACCORDO
100
AcDbLine
 62
7
  6
CONTINUOUS
 10
147.3411530261
 20
123.8113666227
 11
147.871483112
 21
124.4515316656
  0
LINE
  5
2E2
100
AcDbEntity
  8
RACCORDO
100
AcDbLine
 62
7
  6
CONTINUOUS
 10
155.9208190002
 20
119.5698475696
 11
161.5430671663
 21
122.413541426
  0
LINE
  5
2E3
100
AcDbEntity
  8
RACCORDO
100
AcDbLine
 62
7
  6
CONTINUOUS
 10
160.9372162212
 20
122.7164668985
 11
156.3410221434
 21
120.4183698597
  0
LINE
  5
2E4
100
AcDbEntity
  8
RACCORDO
100
AcDbLine
 62
7
  6
CONTINUOUS
 10
161.894584213
 20
121.2579684907
 11
155.9208190002
 21
118.3649267369
  0
LINE
  5
2E5
100
AcDbEntity
  8
RACCORDO
100
AcDbLine
 62
7
  6
CONTINUOUS
 10
161.8931600262
 20
122.1941882213
 11
162.3637704985
 21
122.4194327462
  0
LWPOLYLINE
  5
2E6
100
AcDbEntity
  8
RACCORDO
100
AcDbPolyline
 62
7
  6
CONTINUOUS
 90
12
 70
0
 10
160.9372162212
 20
122.7164668985
 10
160.9605023544
 20
122.7271499697
 10
160.9834939693
 20
122.7358723713
 10
161.006191066
 20
122.7426341033
 10
161.0286880444
 20
122.747447294
 10
161.0508905045
 20
122.7502998151
 10
161.0725152462
 20
122.7511552818
 10
161.093554869
 20
122.749988112
 10
161.1140167735
 20
122.7468238878
 10
161.1336399608
 20
122.7417029698
 10
161.1524136871
 20
122.7346002933
 10
161.1608130541
 20
122.7306533883
  0
LWPOLYLINE
  5
2E7
100
AcDbEntity
  8
RACCORDO
100
AcDbPolyline
 62
7
  6
CONTINUOUS
 90
12
 70
0
 10
162.3637704985
 20
122.4194327462
 10
162.4097852699
 20
122.4395799782
 10
162.4551798223
 20
122.4558813638
 10
162.4999541556
 20
122.468336903
 10
162.5442900619
 20
122.4769664891
 10
162.5880057492
 20
122.4817502288
 10
162.6305558412
 20
122.4826284424
 10
162.6719257358
 20
122.4795522029
 10
162.7121300352
 20
122.4725704375
 10
162.7506671696
 20
122.4617702471
 10
162.7875162533
 20
122.4471037961
 10
162.7986080644
 20
122.4417777918
  0
LINE
  5
2E8
100
AcDbEntity
  8
DRAFT
100
AcDbLine
 62
7
  6
CONTINUOUS
 10
165.9489991022
 20
83.974113643
 11
166.6827765572
 21
83.6072249155
  0
LWPOLYLINE
  5
2E9
100
AcDbEntity
  8
RACCORDO
100
AcDbPolyline
 62
253
  6
CONTINUOUS
 90
18
 70
0
 10
144.5087522052
 20
123.336727616
 10
144.5122398247
 20
123.3469450351
 10
144.5162092946
 20
123.35735645
 10
144.5207306832
 20
123.3677947151
 10
144.5258867407
 20
123.3782027711
 10
144.5317341359
 20
123.3885279033
 10
144.5382938359
 20
123.3987020146
 10
144.545577528
 20
123.4086756149
 10
144.5535908042
 20
123.4184169475
 10
144.5622881354
 20
123.4278451421
 10
144.5716015989
 20
123.4368785223
 10
144.5814872326
 20
123.4454955838
 10
144.5918746054
 20
123.4536792461
 10
144.6027058688
 20
123.4614232832
 10
144.6139450978
 20
123.4687424354
 10
144.6255008178
 20
123.475622434
 10
144.6372557354
 20
123.4820361449
 10
144.6491247891
 20
123.4879793853
  0
LWPOLYLINE
  5
2EA
100
AcDbEntity
  8
RACCORDO
100
AcDbPolyline
 62
253
  6
CONTINUOUS
 90
5
 70
0
 10
144.4911216845
 20
123.2786399843
 10
144.4934166364
 20
123.2852430502
 10
144.4956796246
 20
123.2924049853
 10
144.497967462
 20
123.3001388762
 10
144.5029056531
 20
123.3174909814
  0
LWPOLYLINE
  5
2EB
100
AcDbEntity
  8
RACCORDO
100
AcDbPolyline
 62
253
  6
CONTINUOUS
 90
12
 70
0
 10
145.7344204256
 20
123.4619711394
 10
145.7214754912
 20
123.432691117
 10
145.7057293703
 20
123.4053368269
 10
145.6874311004
 20
123.380386585
 10
145.6668601891
 20
123.3582676004
 10
145.6443678838
 20
123.3393987768
 10
145.6203845122
 20
123.3241573083
 10
145.595341043
 20
123.3128120334
 10
145.5696504449
 20
123.3055452122
 10
145.5437547906
 20
123.3024815986
 10
145.5180989626
 20
123.3036732134
 10
145.5081597959
 20
123.3053077575
  0
LWPOLYLINE
  5
2EC
100
AcDbEntity
  8
RACCORDO
100
AcDbPolyline
 62
253
  6
CONTINUOUS
 90
12
 70
0
 10
146.2647505115
 20
123.3521361823
 10
146.2517011679
 20
123.3226501986
 10
146.235850404
 20
123.2951810774
 10
146.2174694306
 20
123.2701988229
 10
146.1968727513
 20
123.2481308886
 10
146.1744127811
 20
123.2293548627
 10
146.1504738162
 20
123.2141920085
 10
146.125465459
 20
123.2029017664
 10
146.0998156094
 20
123.1956773157
 10
146.0739631435
 20
123.1926422687
 10
146.048350404
 20
123.1938485559
 10
146.0372730637
 20
123.1957196409
  0
LINE
  5
2ED
100
AcDbEntity
  8
21814000
100
AcDbLine
 62
7
  6
CONTINUOUS
 10
161.5607713281
 20
122.5306936376
 11
161.62581157
 21
122.572761117
  0
LWPOLYLINE
  5
2EE
100
AcDbEntity
  8
RACCORDO
100
AcDbPolyline
 62
253
  6
CONTINUOUS
 90
13
 70
0
 10
157.5784590105
 20
118.1077721699
 10
157.5553850216
 20
118.0943829336
 10
157.532705835
 20
118.0775183072
 10
157.510809498
 20
118.057466849
 10
157.4900706629
 20
118.0345716452
 10
157.4708441769
 20
118.0092244389
 10
157.4534590105
 20
117.9818589279
 10
157.4382126288
 20
117.9529433437
 10
157.4253659016
 20
117.92297244
 10
157.4151386399
 20
117.8924590272
 10
157.407705835
 20
117.8619251983
 10
157.4031946644
 20
117.8318933955
 10
157.4016823152
 20
117.8028774714
  0
LWPOLYLINE
  5
2EF
100
AcDbEntity
  8
RACCORDO
100
AcDbPolyline
 62
7
  6
CONTINUOUS
 90
10
 70
0
 10
157.4668401138
 20
118.1149646144
 10
157.4554473814
 20
118.1089079413
 10
157.4283617405
 20
118.0911928295
 10
157.4037308074
 20
118.0700675204
 10
157.3819793076
 20
118.0458482446
 10
157.3634714318
 20
118.0188602585
 10
157.3485672538
 20
117.9894991138
 10
157.3376069784
 20
117.9582754454
 10
157.3308490507
 20
117.925752161
 10
157.3284591689
 20
117.8914065116
  0
LINE
  5
2F0
100
AcDbEntity
  8
RACCORDO
100
AcDbLine
 62
7
  6
CONTINUOUS
 10
157.4666556116
 20
118.1148726167
 11
159.5879759552
 21
119.1755327885
  0
LINE
  5
2F1
100
AcDbEntity
  8
RACCORDO
100
AcDbLine
 62
253
  6
CONTINUOUS
 10
157.5784590105
 20
118.1077721699
 11
159.6997793541
 21
119.1684323417
  0
LINE
  5
2F2
100
AcDbEntity
  8
RACCORDO
100
AcDbLine
 62
253
  6
CONTINUOUS
 10
158.9219618948
 20
117.4360207278
 11
161.0432822383
 21
118.4966808996
  0
LINE
  5
2F3
100
AcDbEntity
  8
RACCORDO
100
AcDbLine
 62
253
  6
CONTINUOUS
 10
159.0987385901
 20
117.1311260292
 11
161.2200589336
 21
118.191786201
  0
LINE
  5
2F4
100
AcDbEntity
  8
RACCORDO
100
AcDbLine
 62
253
  6
CONTINUOUS
 10
158.030286446
 20
116.8507811772
 11
157.9648995972
 21
116.8194855929
  0
LINE
  5
2F5
100
AcDbEntity
  8
RACCORDO
100
AcDbLine
 62
7
  6
CONTINUOUS
 10
159.5973772604
 20
119.1799912217
 11
159.587814325
 21
119.1754517785
  0
LWPOLYLINE
  5
2F6
100
AcDbEntity
  8
RACCORDO
100
AcDbPolyline
 62
253
  6
CONTINUOUS
 90
7
 70
0
 10
159.5880013152
 20
119.1755454637
 10
159.5928533917
 20
119.1777991163
 10
159.6123004398
 20
119.1838041184
 10
159.6331183855
 20
119.1857794735
 10
159.6548707335
 20
119.183783796
 10
159.6772185878
 20
119.1779422995
 10
159.6997793541
 20
119.1684323417
  0
LWPOLYLINE
  5
2F7
100
AcDbEntity
  8
RACCORDO
100
AcDbPolyline
 62
253
  6
CONTINUOUS
 90
7
 70
0
 10
157.4668401138
 20
118.1149646144
 10
157.4715330482
 20
118.1171389445
 10
157.4909800962
 20
118.1231439466
 10
157.5117980419
 20
118.1251193017
 10
157.5335503899
 20
118.1231236242
 10
157.5558982443
 20
118.1172821277
 10
157.5784590105
 20
118.1077721699
  0
LINE
  5
2F8
100
AcDbEntity
  8
RACCORDO
100
AcDbLine
 62
7
  6
CONTINUOUS
 10
160.8286176143
 20
118.6670153579
 11
165.5279710133
 21
120.8373324887
  0
LWPOLYLINE
  5
2F9
100
AcDbEntity
  8
RACCORDO
100
AcDbPolyline
 62
253
  6
CONTINUOUS
 90
13
 70
0
 10
159.0987385901
 20
116.7798120571
 10
159.074152252
 20
116.7690312373
 10
159.0469618948
 20
116.7599472293
 10
159.0176327529
 20
116.7527154632
 10
158.986666656
 20
116.7474596765
 10
158.9545934428
 20
116.7442697971
 10
158.9219618948
 20
116.7432004048
 10
158.8893303467
 20
116.7442697971
 10
158.8572571335
 20
116.7474596765
 10
158.8262910367
 20
116.7527154632
 10
158.7969618948
 20
116.7599472293
 10
158.7697715375
 20
116.7690312373
 10
158.7451851995
 20
116.7798120571
  0
LWPOLYLINE
  5
2FA
100
AcDbEntity
  8
RACCORDO
100
AcDbPolyline
 62
253
  6
CONTINUOUS
 90
13
 70
0
 10
159.8058453713
 20
116.3833654477
 10
159.7812590332
 20
116.3725846278
 10
159.754068676
 20
116.3635006199
 10
159.7247395341
 20
116.3562688538
 10
159.6937734372
 20
116.3510130671
 10
159.661700224
 20
116.3478231877
 10
159.629068676
 20
116.3467537954
 10
159.5964371279
 20
116.3478231877
 10
159.5643639147
 20
116.3510130671
 10
159.5333978179
 20
116.3562688538
 10
159.504068676
 20
116.3635006199
 10
159.4768783187
 20
116.3725846278
 10
159.4522919807
 20
116.3833654477
  0
LWPOLYLINE
  5
2FB
100
AcDbEntity
  8
RACCORDO
100
AcDbPolyline
 62
253
  6
CONTINUOUS
 90
13
 70
0
 10
159.0987385901
 20
117.1311260292
 10
159.0740476535
 20
117.1203051006
 10
159.0467232108
 20
117.1111923869
 10
159.0172343153
 20
117.1039471174
 10
158.9860845911
 20
117.0986960424
 10
158.9538144206
 20
117.0955331116
 10
158.9209926892
 20
117.0945153162
 10
158.8881155638
 20
117.095665249
 10
158.8558262279
 20
117.0989676291
 10
158.8248965208
 20
117.1043207213
 10
158.7958932777
 20
117.1115714477
 10
158.769191512
 20
117.1205684192
 10
158.7451851995
 20
117.1311260292
  0
LWPOLYLINE
  5
2FC
100
AcDbEntity
  8
RACCORDO
100
AcDbPolyline
 62
253
  6
CONTINUOUS
 90
4
 70
0
 10
160.6519053657
 20
116.4793685734
 10
160.633673553
 20
116.4720917409
 10
160.6157881063
 20
116.4678550642
 10
160.5985482971
 20
116.4667294341
  0
LINE
  5
2FD
100
AcDbEntity
  8
RACCORDO
100
AcDbLine
 62
253
  6
CONTINUOUS
 10
154.9281105487
 20
113.5166555369
 11
159.0418531145
 21
115.0694952038
  0
LINE
  5
2FE
100
AcDbEntity
  8
DRAFT
100
AcDbLine
 62
7
  6
CONTINUOUS
 10
159.5920408916
 20
115.0302574264
 11
160.059682986
 21
115.1869383301
  0
LWPOLYLINE
  5
2FF
100
AcDbEntity
  8
RACCORDO
100
AcDbPolyline
 62
253
  6
CONTINUOUS
 90
13
 70
0
 10
160.9309179565
 20
115.696009854
 10
160.9607303032
 20
115.7045877231
 10
160.9716429781
 20
115.7077011407
 10
160.983114157
 20
115.7110603518
 10
160.995166795
 20
115.7146573883
 10
161.007777937
 20
115.7185002183
 10
161.0209524979
 20
115.7227275695
 10
161.0346756021
 20
115.7273196429
 10
161.0489621252
 20
115.7322962375
 10
161.0638616101
 20
115.7378554781
 10
161.0793905709
 20
115.7440634064
 10
161.0955324933
 20
115.7508539807
 10
161.1122873774
 20
115.758227201
  0
LINE
  5
300
100
AcDbEntity
  8
DRAFT
100
AcDbLine
 62
7
  6
CONTINUOUS
 10
161.7503890195
 20
86.7772646557
 11
163.059761637
 21
86.122578347
  0
LINE
  5
301
100
AcDbEntity
  8
21814000
100
AcDbLine
 62
7
  6
CONTINUOUS
 10
140.6153475829
 20
128.9698462831
 11
140.6153476184
 21
128.9697473068
  0
LINE
  5
302
100
AcDbEntity
  8
21814000
100
AcDbLine
 62
253
  6
CONTINUOUS
 10
139.3562028387
 20
129.379149579
 11
139.3562028387
 21
128.9057411237
  0
LINE
  5
303
100
AcDbEntity
  8
26814000
100
AcDbLine
 62
253
  6
CONTINUOUS
 10
139.4382868042
 20
126.2355307124
 11
139.4382868042
 21
127.4504855785
  0
LINE
  5
304
100
AcDbEntity
  8
21814000
100
AcDbLine
 62
253
  6
CONTINUOUS
 10
139.7690740549
 20
129.4914100043
 11
139.7690740549
 21
128.6993055155
  0
LINE
  5
305
100
AcDbEntity
  8
26814000
100
AcDbLine
 62
7
  6
CONTINUOUS
 10
139.7947234637
 20
130.4885045469
 11
139.7947234637
 21
131.7387754062
  0
LINE
  5
306
100
AcDbEntity
  8
26814000
100
AcDbLine
 62
253
  6
CONTINUOUS
 10
139.8613131558
 20
126.23716956
 11
139.8613131558
 21
127.4513730328
  0
LINE
  5
307
100
AcDbEntity
  8
26814000
100
AcDbLine
 62
7
  6
CONTINUOUS
 10
140.1482768543
 20
131.0094405216
 11
140.1482768543
 21
131.5619987109
  0
LINE
  5
308
100
AcDbEntity
  8
26814000
100
AcDbLine
 62
253
  6
CONTINUOUS
 10
140.2189875324
 20
133.1782070084
 11
140.2189875324
 21
131.946372827
  0
LINE
  5
309
100
AcDbEntity
  8
26814000
100
AcDbLine
 62
7
  6
CONTINUOUS
 10
140.306855498
 20
133.2832042224
 11
140.306855498
 21
132.0508356175
  0
LINE
  5
30A
100
AcDbEntity
  8
26814000
100
AcDbLine
 62
7
  6
CONTINUOUS
 10
140.3604088886
 20
127.7015697059
 11
140.3604088886
 21
126.4891341406
  0
LINE
  5
30B
100
AcDbEntity
  8
21814000
100
AcDbLine
 62
253
  6
CONTINUOUS
 10
140.5274796536
 20
129.112207205
 11
140.5274796536
 21
128.8461310197
  0
LINE
  5
30C
100
AcDbEntity
  8
21814000
100
AcDbLine
 62
7
  6
CONTINUOUS
 10
140.6153426542
 20
128.9697891558
 11
140.6150000682
 21
128.9649188031
  0
LWPOLYLINE
  5
30D
100
AcDbEntity
  8
RACCORDO
100
AcDbPolyline
 62
253
  6
CONTINUOUS
 90
3
 70
0
 10
144.5029056531
 20
123.3174909814
 10
144.5056742652
 20
123.3269106707
 10
144.5087522052
 20
123.336727616
  0
LWPOLYLINE
  5
30E
100
AcDbEntity
  8
RACCORDO
100
AcDbPolyline
 62
253
  6
CONTINUOUS
 90
3
 70
0
 10
147.2125511377
 20
123.6993195638
 10
147.1960615434
 20
123.6594260896
 10
147.1819059452
 20
123.6190296109
  0
LWPOLYLINE
  5
30F
100
AcDbEntity
  8
RACCORDO
100
AcDbPolyline
 62
253
  6
CONTINUOUS
 90
13
 70
0
 10
158.9219618948
 20
117.4360207278
 10
158.8988879059
 20
117.4226314915
 10
158.8762087193
 20
117.4057668651
 10
158.8543123823
 20
117.3857154069
 10
158.8335735471
 20
117.362820203
 10
158.8143470611
 20
117.3374729968
 10
158.7969618948
 20
117.3101074858
 10
158.7817155131
 20
117.2811919016
 10
158.7688687858
 20
117.2512209979
 10
158.7586415242
 20
117.2207075851
 10
158.7512087193
 20
117.1901737561
 10
158.7466975486
 20
117.1601419534
 10
158.7451851995
 20
117.1311260292
  0
LWPOLYLINE
  5
310
100
AcDbEntity
  8
RACCORDO
100
AcDbPolyline
 62
253
  6
CONTINUOUS
 90
7
 70
0
 10
160.5129521524
 20
116.7369188383
 10
160.5345137922
 20
116.7492120074
 10
160.5526818081
 20
116.762807186
 10
160.5671453403
 20
116.7774717569
 10
160.5776569137
 20
116.7929548053
 10
160.5840366725
 20
116.808991412
 10
160.5861754571
 20
116.825307186
  0
LWPOLYLINE
  5
311
100
AcDbEntity
  8
RACCORDO
100
AcDbPolyline
 62
253
  6
CONTINUOUS
 90
13
 70
0
 10
157.9648995972
 20
116.5080899797
 10
157.983581442
 20
116.5185466092
 10
158.0019796759
 20
116.5318711693
 10
158.0197724756
 20
116.547830586
 10
158.0366486086
 20
116.5661456964
 10
158.0523128764
 20
116.5864961313
 10
158.0664912789
 20
116.6085259197
 10
158.0789358066
 20
116.6318497153
 10
158.0894287789
 20
116.6560595369
 10
158.0977866523
 20
116.6807319047
 10
158.1038632303
 20
116.7054352483
 10
158.107552221
 20
116.7297374553
 10
158.1087890964
 20
116.7532134301
  0
LWPOLYLINE
  5
312
100
AcDbEntity
  8
RACCORDO
100
AcDbPolyline
 62
253
  6
CONTINUOUS
 90
13
 70
0
 10
159.3084024814
 20
115.8363385376
 10
159.327084574
 20
115.8467953267
 10
159.3454829958
 20
115.8601200814
 10
159.3632759171
 20
115.8760796973
 10
159.3801521024
 20
115.8943949818
 10
159.3958163596
 20
115.9147455435
 10
159.4099947017
 20
115.9367753995
 10
159.4224391302
 20
115.9600991888
 10
159.4329319819
 20
115.9843089268
 10
159.441289736
 20
116.008981151
 10
159.4473662122
 20
116.0336843028
 10
159.4510551316
 20
116.0579862754
 10
159.4522919807
 20
116.081461988
  0
LWPOLYLINE
  5
313
100
AcDbEntity
  8
RACCORDO
100
AcDbPolyline
 62
253
  6
CONTINUOUS
 90
16
 70
0
 10
157.9648995972
 20
116.8194855929
 10
157.932588036
 20
116.8020435409
 10
157.9047690173
 20
116.7835376327
 10
157.8814425411
 20
116.7639678684
 10
157.8625028025
 20
116.7430985983
 10
157.8480556065
 20
116.721165472
 10
157.8384183677
 20
116.6988754385
 10
157.8337085252
 20
116.6762460438
 10
157.8338086399
 20
116.653259742
 10
157.8386838087
 20
116.6305708435
 10
157.8484424546
 20
116.608171584
 10
157.8629761545
 20
116.5860697279
 10
157.8819247359
 20
116.5649428791
 10
157.9051681414
 20
116.5450169054
 10
157.9328264285
 20
116.5260659389
 10
157.9648995972
 20
116.5080899797
  0
LINE
  5
314
100
AcDbEntity
  8
RACCORDO
100
AcDbLine
 62
7
  6
CONTINUOUS
 10
160.7611404183
 20
117.1964062428
 11
166.639308325
 21
120.3678126836
  0
LINE
  5
315
100
AcDbEntity
  8
DRAFT
100
AcDbLine
 62
7
  6
CONTINUOUS
 10
160.9966453347
 20
116.8630061691
 11
166.6827765572
 21
119.8070867937
  0
LWPOLYLINE
  5
316
100
AcDbEntity
  8
RACCORDO
100
AcDbPolyline
 62
253
  6
CONTINUOUS
 90
8
 70
0
 10
160.5129521524
 20
116.4130964106
 10
160.5306792943
 20
116.4222213816
 10
160.5461684673
 20
116.4322160923
 10
160.5592704266
 20
116.4429524197
 10
160.5698619144
 20
116.4542857143
 10
160.577858023
 20
116.4660883913
 10
160.5832032614
 20
116.4782530592
 10
160.5858582133
 20
116.4906294406
  0
LWPOLYLINE
  5
317
100
AcDbEntity
  8
RACCORDO
100
AcDbPolyline
 62
253
  6
CONTINUOUS
 90
24
 70
0
 10
160.6071626827
 20
116.1994207424
 10
160.6168601442
 20
116.2041089732
 10
160.6264665924
 20
116.209081115
 10
160.6359773697
 20
116.2143228367
 10
160.6453698053
 20
116.2198033326
 10
160.6545925841
 20
116.2255066376
 10
160.6635768244
 20
116.2314329141
 10
160.6722604596
 20
116.2375631779
 10
160.6806269679
 20
116.2438802515
 10
160.6886698101
 20
116.2503848203
 10
160.696336698
 20
116.257079659
 10
160.7036022673
 20
116.2639360198
 10
160.7104908736
 20
116.2709065534
 10
160.7169280068
 20
116.2780017122
 10
160.7228888275
 20
116.2851891252
 10
160.7284645089
 20
116.2923654045
 10
160.7335976484
 20
116.2995207539
 10
160.7382525614
 20
116.3066692511
 10
160.7425673647
 20
116.3137585758
 10
160.7465444336
 20
116.3208235185
 10
160.7501817185
 20
116.3278638128
 10
160.7536029437
 20
116.3347820455
 10
160.7567928747
 20
116.341580049
 10
160.7626348284
 20
116.3548734085
  0
LWPOLYLINE
  5
318
100
AcDbEntity
  8
RACCORDO
100
AcDbPolyline
 62
253
  6
CONTINUOUS
 90
10
 70
0
 10
159.8277870283
 20
115.1650063453
 10
159.8447845649
 20
115.1731782221
 10
159.8617576591
 20
115.1817897232
 10
159.8787063111
 20
115.1908408485
 10
159.8957693424
 20
115.2004696279
 10
159.9128079315
 20
115.2105380315
 10
159.9294056128
 20
115.22063197
 10
159.9455784312
 20
115.2307898824
 10
159.9613103419
 20
115.2409733298
 10
159.9898682798
 20
115.2596809866
  0
LINE
  5
319
100
AcDbEntity
  8
RACCORDO
100
AcDbLine
 62
253
  6
CONTINUOUS
 10
159.8058453713
 20
116.0746595496
 11
160.5129521524
 21
116.4130964106
  0
LINE
  5
31A
100
AcDbEntity
  8
RACCORDO
100
AcDbLine
 62
253
  6
CONTINUOUS
 10
159.8965511119
 20
115.864265091
 11
160.6071624769
 21
116.1994198448
  0
LINE
  5
31B
100
AcDbEntity
  8
RACCORDO
100
AcDbLine
 62
253
  6
CONTINUOUS
 10
160.7711290576
 20
116.3740934045
 11
161.3966740688
 21
116.662991802
  0
LINE
  5
31C
100
AcDbEntity
  8
RACCORDO
100
AcDbLine
 62
253
  6
CONTINUOUS
 10
161.1122873774
 20
115.758227201
 11
161.7503890195
 21
116.0529237549
  0
LINE
  5
31D
100
AcDbEntity
  8
RACCORDO
100
AcDbLine
 62
253
  6
CONTINUOUS
 10
159.5920408916
 20
115.0561270643
 11
159.8277870283
 21
115.1650063453
  0
LINE
  5
31E
100
AcDbEntity
  8
RACCORDO
100
AcDbLine
 62
253
  6
CONTINUOUS
 10
159.2383259409
 20
115.6661951114
 11
159.4866907094
 21
115.7808607162
  0
LWPOLYLINE
  5
31F
100
AcDbEntity
  8
RACCORDO
100
AcDbPolyline
 62
253
  6
CONTINUOUS
 90
4
 70
0
 10
160.1171627498
 20
115.3352531673
 10
160.1970609074
 20
115.3715441056
 10
160.2769671044
 20
115.4078442524
 10
160.8363860108
 20
115.6621346764
  0
LWPOLYLINE
  5
320
100
AcDbEntity
  8
RACCORDO
100
AcDbPolyline
 62
253
  6
CONTINUOUS
 90
14
 70
0
 10
160.8363860108
 20
115.6621346764
 10
160.8423130855
 20
115.6647980067
 10
160.8484212927
 20
115.6674415345
 10
160.8547106325
 20
115.6700652599
 10
160.8611582256
 20
115.6726646462
 10
160.8677869514
 20
115.67524423
 10
160.8746654475
 20
115.677817621
 10
160.8817968087
 20
115.680382919
 10
160.8891779404
 20
115.6829420242
 10
160.8968681957
 20
115.6855142464
 10
160.9048620882
 20
115.6880932957
 10
160.9131651045
 20
115.6906854619
 10
160.9218530576
 20
115.693328925
 10
160.9309179565
 20
115.696009854
  0
LINE
  5
321
100
AcDbEntity
  8
RACCORDO
100
AcDbLine
 62
253
  6
CONTINUOUS
 10
155.4345885947
 20
112.5153752526
 11
159.5483311605
 21
114.0682149195
  0
LWPOLYLINE
  5
322
100
AcDbEntity
  8
RACCORDO
100
AcDbPolyline
 62
253
  6
CONTINUOUS
 90
13
 70
0
 10
159.0987385901
 20
75.4802079178
 10
159.0856892465
 20
75.4996692561
 10
159.0698384825
 20
75.5203099548
 10
159.0514575091
 20
75.5417768455
 10
159.0308608299
 20
75.563702624
 10
159.0084008597
 20
75.5857121341
 10
158.9844618948
 20
75.6074287869
 10
158.9594535376
 20
75.6284810045
 10
158.933803688
 20
75.6485085776
 10
158.907951222
 20
75.6671688288
 10
158.8823384825
 20
75.6841424762
 10
158.8574037106
 20
75.6991390959
 10
158.8335735471
 20
75.7119020916
  0
LWPOLYLINE
  5
323
100
AcDbEntity
  8
26814000
100
AcDbPolyline
 62
7
  6
CONTINUOUS
 90
24
 70
0
 10
142.9059933009
 20
132.0528812549
 10
142.9054201165
 20
132.087353661
 10
142.9037210035
 20
132.121103582
 10
142.9008959619
 20
132.1541310178
 10
142.8969355274
 20
132.1864925752
 10
142.8918491643
 20
132.2181316474
 10
142.8856652659
 20
132.2488784139
 10
142.8783826505
 20
132.2787139413
 10
142.8700024998
 20
132.3076571631
 10
142.8605567525
 20
132.335595059
 10
142.850032894
 20
132.3625412218
 10
142.838443439
 20
132.3884820588
 10
142.8258578702
 20
132.4132637717
 10
142.8122826844
 20
132.4368610731
 10
142.7977113848
 20
132.4592992504
 10
142.7821939648
 20
132.4805003676
 10
142.7657106774
 20
132.5004774576
 10
142.7482812696
 20
132.5192174874
 10
142.7300149749
 20
132.536603423
 10
142.710926319
 20
132.5526123493
 10
142.6910007763
 20
132.5672671814
 10
142.6703040038
 20
132.5805196297
 10
142.6488114892
 20
132.592375491
 10
139.4196102231
 20
134.2070000014
  0
LINE
  5
324
100
AcDbEntity
  8
26814000
100
AcDbLine
 62
7
  6
CONTINUOUS
 10
141.3606429496
 20
125.4720831821
 11
141.3606429496
 21
125.7254545758
  0
LINE
  5
325
100
AcDbEntity
  8
26814000
100
AcDbLine
 62
7
  6
CONTINUOUS
 10
142.0636359038
 20
124.5655239274
 11
142.0636359038
 21
125.0178549031
  0
LINE
  5
326
100
AcDbEntity
  8
26814000
100
AcDbLine
 62
7
  6
CONTINUOUS
 10
142.9059933009
 20
132.0528812549
 11
142.9059933009
 21
131.7820809622
  0
LINE
  5
327
100
AcDbEntity
  8
26814000
100
AcDbLine
 62
7
  6
CONTINUOUS
 10
142.9664194117
 20
124.9225663448
 11
142.9664194117
 21
124.669194951
  0
LINE
  5
328
100
AcDbEntity
  8
26814000
100
AcDbLine
 62
7
  6
CONTINUOUS
 10
143.3656127087
 20
122.8967506214
 11
143.3656127087
 21
122.8723551161
  0
LINE
  5
329
100
AcDbEntity
  8
26814000
100
AcDbLine
 62
7
  6
CONTINUOUS
 10
143.6776400198
 20
123.7585218694
 11
143.6776400198
 21
124.3956914281
  0
LWPOLYLINE
  5
32A
100
AcDbEntity
  8
RACCORDO
100
AcDbPolyline
 62
253
  6
CONTINUOUS
 90
6
 70
0
 10
147.1819059452
 20
123.6190296109
 10
147.1700509737
 20
123.5781428289
 10
147.1607690501
 20
123.5376189483
 10
147.1541509815
 20
123.4977423709
 10
147.1501059608
 20
123.458228695
 10
147.148633988
 20
123.4190779205
  0
LWPOLYLINE
  5
32B
100
AcDbEntity
  8
21814000
100
AcDbPolyline
 62
7
  6
CONTINUOUS
 90
66
 70
0
 10
160.9554434058
 20
122.7760729302
 10
161.0013916846
 20
122.8185972002
 10
161.0459338923
 20
122.860393211
 10
161.0890757817
 20
122.9014610083
 10
161.1308115999
 20
122.9418005464
 10
161.1712066756
 20
122.9814941166
 10
161.2102684966
 20
123.02054124
 10
161.2479895751
 20
123.0589423956
 10
161.284412776
 20
123.0967813117
 10
161.3195488008
 20
123.1340569054
 10
161.3533869481
 20
123.1707702597
 10
161.3859379785
 20
123.2070083518
 10
161.4172200568
 20
123.242771382
 10
161.4472150182
 20
123.27805915
 10
161.4758791282
 20
123.3129580317
 10
161.5032431389
 20
123.3474706126
 10
161.5292762982
 20
123.3815943072
 10
161.5538426153
 20
123.4154077349
 10
161.5770110681
 20
123.4489561005
 10
161.5987126788
 20
123.4821941991
 10
161.6186045234
 20
123.5150650355
 10
161.6367627472
 20
123.5476856759
 10
161.6531112048
 20
123.5799390541
 10
161.6670785364
 20
123.6114169757
 10
161.6786179829
 20
123.6421328333
 10
161.6877763034
 20
123.6720732344
 10
161.6941224155
 20
123.700789807
 10
161.6975470711
 20
123.7282421833
 10
161.6981595183
 20
123.7544707312
 10
161.6958564187
 20
123.7791481817
 10
161.6904722922
 20
123.8022367999
 10
161.682172619
 20
123.8237743207
 10
161.6713505003
 20
123.8435466801
 10
161.6579297236
 20
123.8614248862
 10
161.6419865015
 20
123.8775379309
 10
161.6241425733
 20
123.8920587255
 10
161.6044781001
 20
123.9049367868
 10
161.5829129209
 20
123.916222598
 10
161.5598282912
 20
123.9262405204
 10
161.5352985131
 20
123.9350189808
 10
161.5092492846
 20
123.9425295525
 10
161.4818389559
 20
123.9490113163
 10
161.4531028508
 20
123.9544958889
 10
161.4230056456
 20
123.9589516537
 10
161.3915997189
 20
123.962522841
 10
161.358904452
 20
123.9652298323
 10
161.3249004637
 20
123.9670522462
 10
161.289581989
 20
123.9680731683
 10
161.2529612478
 20
123.968305761
 10
161.2150260204
 20
123.9677368619
 10
161.1757338828
 20
123.9664100696
 10
161.1350903869
 20
123.9643339723
 10
161.093089981
 20
123.9614999819
 10
161.0496735853
 20
123.9579259328
 10
161.0048453377
 20
123.9536175439
 10
160.9586011005
 20
123.9485690964
 10
160.9108693808
 20
123.9427812687
 10
160.8616607882
 20
123.9362594747
 10
160.8109647131
 20
123.9289983004
 10
160.7586778342
 20
123.9209821819
 10
160.7048070452
 20
123.9122161626
 10
160.6493454523
 20
123.9026951991
 10
160.592169053
 20
123.8923885976
 10
160.5332365129
 20
123.8812861269
 10
160.4725891663
 20
123.8693980184
 10
160.4102270132
 20
123.8567242719
  0
LINE
  5
32C
100
AcDbEntity
  8
21814000
100
AcDbLine
 62
7
  6
CONTINUOUS
 10
160.9422020526
 20
122.7639765864
 11
160.9554434058
 21
122.7760729302
  0
LWPOLYLINE
  5
32D
100
AcDbEntity
  8
RACCORDO
100
AcDbPolyline
 62
253
  6
CONTINUOUS
 90
14
 70
0
 10
159.9898682798
 20
115.2596809866
 10
160.014718307
 20
115.2761390019
 10
160.0258874423
 20
115.2834140942
 10
160.0362545501
 20
115.2900987829
 10
160.0460816224
 20
115.2963114653
 10
160.0553983263
 20
115.3020553278
 10
160.0641749947
 20
115.307327184
 10
160.0725846174
 20
115.312235873
 10
160.0806299553
 20
115.3167816005
 10
160.0883082475
 20
115.3209641606
 10
160.0957842023
 20
115.3248917752
 10
160.1031127223
 20
115.3286005181
 10
160.1102389048
 20
115.3320543155
 10
160.1171627498
 20
115.3352531673
  0
LINE
  5
32E
100
AcDbEntity
  8
DRAFT
100
AcDbLine
 62
7
  6
CONTINUOUS
 10
158.0262004052
 20
95.570263569
 11
158.2970320149
 21
95.4348477642
  0
LWPOLYLINE
  5
32F
100
AcDbEntity
  8
RACCORDO
100
AcDbPolyline
 62
7
  6
CONTINUOUS
 90
6
 70
0
 10
161.2571082325
 20
76.7587879996
 10
161.2373764777
 20
76.7868236283
 10
161.2140363147
 20
76.8118572187
 10
161.1874981536
 20
76.8334661727
 10
161.1582045222
 20
76.8512758914
 10
161.1547670985
 20
76.8530217494
  0
LWPOLYLINE
  5
330
100
AcDbEntity
  8
RACCORDO
100
AcDbPolyline
 62
253
  6
CONTINUOUS
 90
13
 70
0
 10
159.629068676
 20
76.1203729607
 10
159.6160193324
 20
76.1398342991
 10
159.6001685684
 20
76.1604749977
 10
159.581787595
 20
76.1819418885
 10
159.5611909158
 20
76.203867667
 10
159.5387309455
 20
76.225877177
 10
159.5147919807
 20
76.2475938298
 10
159.4897836235
 20
76.2686460474
 10
159.4641337738
 20
76.2886736205
 10
159.4382813079
 20
76.3073338718
 10
159.4126685684
 20
76.3243075192
 10
159.3877337965
 20
76.3393041389
 10
159.363903633
 20
76.3520671345
  0
LWPOLYLINE
  5
331
100
AcDbEntity
  8
RACCORDO
100
AcDbPolyline
 62
7
  6
CONTINUOUS
 90
10
 70
0
 10
143.9641408461
 20
124.2221109291
 10
143.9664080964
 20
124.1885231425
 10
143.9732456324
 20
124.1552582916
 10
143.9846062828
 20
124.1230458785
 10
144.000314852
 20
124.0925793668
 10
144.0200466067
 20
124.064543738
 10
144.0433867698
 20
124.0395101476
 10
144.0699249308
 20
124.0179011937
 10
144.0992185622
 20
124.0000914749
 10
144.1026559859
 20
123.9983456169
  0
LINE
  5
332
100
AcDbEntity
  8
RACCORDO
100
AcDbLine
 62
253
  6
CONTINUOUS
 10
144.6715810088
 20
123.5155581655
 11
144.6712476273
 21
123.5217692149
  0
LINE
  5
333
100
AcDbEntity
  8
RACCORDO
100
AcDbLine
 62
7
  6
CONTINUOUS
 10
143.8976152398
 20
122.9033398902
 11
143.8976152398
 21
122.8774702523
  0
LINE
  5
334
100
AcDbEntity
  8
RACCORDO
100
AcDbLine
 62
7
  6
CONTINUOUS
 10
143.9641408461
 20
124.2221109291
 11
143.9641408461
 21
124.5734249012
  0
LINE
  5
335
100
AcDbEntity
  8
RACCORDO
100
AcDbLine
 62
253
  6
CONTINUOUS
 10
144.0373641508
 20
124.1337225815
 11
144.0373641508
 21
124.4850365536
  0
LINE
  5
336
100
AcDbEntity
  8
26814000
100
AcDbLine
 62
7
  6
CONTINUOUS
 10
144.178785507
 20
122.7368851187
 11
144.178785507
 21
122.5010290075
  0
LINE
  5
337
100
AcDbEntity
  8
DRAFT
100
AcDbLine
 62
7
  6
CONTINUOUS
 10
144.349211961
 20
122.6516718917
 11
144.349211961
 21
122.4158157806
  0
LINE
  5
338
100
AcDbEntity
  8
RACCORDO
100
AcDbLine
 62
7
  6
CONTINUOUS
 10
144.6712476273
 20
123.5217100446
 11
144.6712476273
 21
123.7140490414
  0
LINE
  5
339
100
AcDbEntity
  8
RACCORDO
100
AcDbLine
 62
253
  6
CONTINUOUS
 10
144.744470932
 20
123.4353725123
 11
144.744470932
 21
123.677437389
  0
LINE
  5
33A
100
AcDbEntity
  8
26814000
100
AcDbLine
 62
7
  6
CONTINUOUS
 10
144.744470932
 20
125.1180984413
 11
144.744470932
 21
126.0291539265
  0
LINE
  5
33B
100
AcDbEntity
  8
RACCORDO
100
AcDbLine
 62
253
  6
CONTINUOUS
 10
145.3808670351
 20
123.8132851114
 11
145.3808670351
 21
123.4619711394
  0
LINE
  5
33C
100
AcDbEntity
  8
26814000
100
AcDbLine
 62
7
  6
CONTINUOUS
 10
145.4474638863
 20
126.1644754243
 11
145.4474638863
 21
125.9035464479
  0
LINE
  5
33D
100
AcDbEntity
  8
RACCORDO
100
AcDbLine
 62
253
  6
CONTINUOUS
 10
145.7344204256
 20
123.8132851114
 11
145.7344204256
 21
123.4619711394
  0
LINE
  5
33E
100
AcDbEntity
  8
26814000
100
AcDbLine
 62
253
  6
CONTINUOUS
 10
145.7746815838
 20
130.4015853163
 11
145.7746815838
 21
129.1697467379
  0
LINE
  5
33F
100
AcDbEntity
  8
26814000
100
AcDbLine
 62
7
  6
CONTINUOUS
 10
145.8613190122
 20
130.5059726916
 11
145.8613190122
 21
129.2736041999
  0
LINE
  5
340
100
AcDbEntity
  8
RACCORDO
100
AcDbLine
 62
253
  6
CONTINUOUS
 10
146.0879738162
 20
123.0655245299
 11
146.0879738162
 21
122.7636210702
  0
LWPOLYLINE
  5
341
100
AcDbEntity
  8
RACCORDO
100
AcDbPolyline
 62
7
  6
CONTINUOUS
 90
6
 70
0
 10
144.6712532321
 20
123.5219096345
 10
144.6712335529
 20
123.5198546842
 10
144.6701076418
 20
123.5073129927
 10
144.6676215917
 20
123.4963521935
 10
144.664402277
 20
123.4874802456
 10
144.6619364738
 20
123.4824070763
  0
LWPOLYLINE
  5
342
100
AcDbEntity
  8
RACCORDO
100
AcDbPolyline
 62
253
  6
CONTINUOUS
 90
13
 70
0
 10
144.744470932
 20
123.4353725123
 10
144.7432340475
 20
123.4118964482
 10
144.7395450321
 20
123.3875941602
 10
144.7334684187
 20
123.3628907491
 10
144.7251105028
 20
123.3382183284
 10
144.7146174863
 20
123.3140084739
 10
144.7021729217
 20
123.2906846729
 10
144.6879944958
 20
123.2686549059
 10
144.6723302218
 20
123.248304514
 10
144.6554541063
 20
123.2299894654
 10
144.6376613505
 20
123.214030121
 10
144.6192631857
 20
123.2007056324
 10
144.6005814328
 20
123.1902490619
  0
LWPOLYLINE
  5
343
100
AcDbEntity
  8
RACCORDO
100
AcDbPolyline
 62
253
  6
CONTINUOUS
 90
13
 70
0
 10
146.0879738162
 20
122.7636210702
 10
146.0867369408
 20
122.7401450954
 10
146.0830479501
 20
122.7158428884
 10
146.0769713721
 20
122.6911395448
 10
146.0686134987
 20
122.666467177
 10
146.0581205264
 20
122.6422573554
 10
146.0456759988
 20
122.6189335598
 10
146.0314975963
 20
122.5969037714
 10
146.0158333283
 20
122.5765533365
 10
145.9989571954
 20
122.5582382262
 10
145.9811643956
 20
122.5422788094
 10
145.9627661618
 20
122.5289542493
 10
145.944084317
 20
122.5184976198
  0
LWPOLYLINE
  5
344
100
AcDbEntity
  8
RACCORDO
100
AcDbPolyline
 62
253
  6
CONTINUOUS
 90
8
 70
0
 10
147.2218572927
 20
123.1788330471
 10
147.2215183394
 20
123.172586216
 10
147.2188220092
 20
123.1602203493
 10
147.2134456608
 20
123.1480794597
 10
147.2054349312
 20
123.1363103154
 10
147.1948452107
 20
123.1250126744
 10
147.1817605583
 20
123.1143107937
 10
147.166306897
 20
123.1043496275
  0
LWPOLYLINE
  5
345
100
AcDbEntity
  8
RACCORDO
100
AcDbPolyline
 62
253
  6
CONTINUOUS
 90
7
 70
0
 10
147.9289640739
 20
124.6110196588
 10
147.9268252893
 20
124.5947038848
 10
147.9204455305
 20
124.5786672781
 10
147.909933957
 20
124.5631842297
 10
147.8954704249
 20
124.5485196588
 10
147.877302409
 20
124.5349244802
 10
147.8557407692
 20
124.5226313111
  0
LWPOLYLINE
  5
346
100
AcDbEntity
  8
RACCORDO
100
AcDbPolyline
 62
253
  6
CONTINUOUS
 90
7
 70
0
 10
147.9289640739
 20
124.9623336431
 10
147.9266623296
 20
124.9454104654
 10
147.9200575694
 20
124.9292657974
 10
147.9093513851
 20
124.9138009439
 10
147.8948499322
 20
124.8992993223
 10
147.8768559892
 20
124.8859484395
 10
147.8557407692
 20
124.8739452832
  0
LWPOLYLINE
  5
347
100
AcDbEntity
  8
RACCORDO
100
AcDbPolyline
 62
253
  6
CONTINUOUS
 90
8
 70
0
 10
146.0879738162
 20
123.0655245299
 10
146.0867785155
 20
123.0900617328
 10
146.0832087775
 20
123.1130718112
 10
146.077312877
 20
123.1342435935
 10
146.0691705459
 20
123.1532907676
 10
146.0588918952
 20
123.1699557531
 10
146.046615926
 20
123.1840131847
 10
146.0325086499
 20
123.1952729597
  0
LWPOLYLINE
  5
348
100
AcDbEntity
  8
RACCORDO
100
AcDbPolyline
 62
253
  6
CONTINUOUS
 90
13
 70
0
 10
146.4415272068
 20
123.0655245299
 10
146.4400647218
 20
123.1031321575
 10
146.4360334423
 20
123.1385450589
 10
146.4294333686
 20
123.1717632341
 10
146.4201783705
 20
123.2029801333
 10
146.408354578
 20
123.2320023063
 10
146.394220381
 20
123.2582494023
 10
146.3777383158
 20
123.2816819887
 10
146.3589458461
 20
123.3023394981
 10
146.3382137527
 20
123.3197598775
 10
146.3156656293
 20
123.3337891091
 10
146.2911778823
 20
123.3445812107
 10
146.2647505115
 20
123.3521361823
  0
LWPOLYLINE
  5
349
100
AcDbEntity
  8
RACCORDO
100
AcDbPolyline
 62
253
  6
CONTINUOUS
 90
13
 70
0
 10
146.4415272068
 20
122.7568186318
 10
146.4424149447
 20
122.733448077
 10
146.4457072832
 20
122.7092675333
 10
146.4513478814
 20
122.6846907436
 10
146.4592402205
 20
122.6601382238
 10
146.4692492515
 20
122.6360300824
 10
146.481203701
 20
122.6127788319
 10
146.4948990138
 20
122.5907823055
 10
146.510100852
 20
122.5704168606
 10
146.5265490952
 20
122.5520309518
 10
146.5439623024
 20
122.5359391534
 10
146.5620425294
 20
122.5224167796
 10
146.5804804201
 20
122.5116951814
  0
LWPOLYLINE
  5
34A
100
AcDbEntity
  8
RACCORDO
100
AcDbPolyline
 62
253
  6
CONTINUOUS
 90
13
 70
0
 10
147.148633988
 20
123.0952554928
 10
147.14952171
 20
123.0718851181
 10
147.1528140015
 20
123.0477047377
 10
147.1584545303
 20
123.0231280846
 10
147.1663467856
 20
122.9985756721
 10
147.1763557286
 20
122.9744675988
 10
147.1883101036
 20
122.9512163607
 10
147.2020053679
 20
122.9292197926
 10
147.2172071916
 20
122.9088542622
 10
147.2336554675
 20
122.8904682292
 10
147.2510687608
 20
122.8743762837
 10
147.2691491254
 20
122.8608537634
 10
147.2875872013
 20
122.8501320424
  0
LINE
  5
34B
100
AcDbEntity
  8
RACCORDO
100
AcDbLine
 62
253
  6
CONTINUOUS
 10
146.4415272068
 20
123.0655245299
 11
146.4415272068
 21
122.7568186318
  0
LINE
  5
34C
100
AcDbEntity
  8
RACCORDO
100
AcDbLine
 62
253
  6
CONTINUOUS
 10
147.148633988
 20
123.0952554928
 11
147.148633988
 21
123.4190779205
  0
LINE
  5
34D
100
AcDbEntity
  8
RACCORDO
100
AcDbLine
 62
7
  6
CONTINUOUS
 10
147.2218572927
 20
123.1788330471
 11
147.2218572927
 21
123.5074662682
  0
LINE
  5
34E
100
AcDbEntity
  8
RACCORDO
100
AcDbLine
 62
253
  6
CONTINUOUS
 10
147.8557407692
 20
124.8739452832
 11
147.8557407692
 21
124.5226313111
  0
LINE
  5
34F
100
AcDbEntity
  8
RACCORDO
100
AcDbLine
 62
7
  6
CONTINUOUS
 10
147.9289640739
 20
124.9623336309
 11
147.9289640739
 21
124.6110196588
  0
LWPOLYLINE
  5
350
100
AcDbEntity
  8
RACCORDO
100
AcDbPolyline
 62
7
  6
CONTINUOUS
 90
5
 70
0
 10
147.9289640739
 20
124.6110196588
 10
147.9266968236
 20
124.5774318721
 10
147.9198592876
 20
124.5441670213
 10
147.9084986372
 20
124.5119546081
 10
147.892790068
 20
124.4814880964
  0
LINE
  5
351
100
AcDbEntity
  8
RACCORDO
100
AcDbLine
 62
253
  6
CONTINUOUS
 10
160.6897288477
 20
117.200307186
 11
161.2200589336
 21
117.8404722289
  0
LINE
  5
352
100
AcDbEntity
  8
RACCORDO
100
AcDbLine
 62
7
  6
CONTINUOUS
 10
160.7054711905
 20
117.1292075404
 11
161.2358012764
 21
117.7693725834
  0
LINE
  5
353
100
AcDbEntity
  8
RACCORDO
100
AcDbLine
 62
7
  6
CONTINUOUS
 10
161.7503890195
 20
114.3705858443
 11
165.8633167474
 21
118.2837548005
  0
LINE
  5
354
100
AcDbEntity
  8
RACCORDO
100
AcDbLine
 62
253
  6
CONTINUOUS
 10
165.9489991022
 20
118.5321995311
 11
161.7503890195
 21
114.5558707935
  0
LWPOLYLINE
  5
355
100
AcDbEntity
  8
RACCORDO
100
AcDbPolyline
 62
253
  6
CONTINUOUS
 90
5
 70
0
 10
161.2211117856
 20
76.7590404608
 10
161.2083081187
 20
76.7855544145
 10
161.1926718668
 20
76.8093839813
 10
161.1744720496
 20
76.8301201891
 10
161.154021196
 20
76.8474078238
  0
LWPOLYLINE
  5
356
100
AcDbEntity
  8
RACCORDO
100
AcDbPolyline
 62
7
  6
CONTINUOUS
 90
4
 70
0
 10
157.3485672538
 20
75.7908004407
 10
157.3376069784
 20
75.822024109
 10
157.3308490507
 20
75.8545473935
 10
157.3284591689
 20
75.8888930429
  0
LWPOLYLINE
  5
357
100
AcDbEntity
  8
RACCORDO
100
AcDbPolyline
 62
253
  6
CONTINUOUS
 90
7
 70
0
 10
143.9641408461
 20
124.2221109291
 10
143.9662796307
 20
124.2057951551
 10
143.9726593895
 20
124.1897585485
 10
143.983170963
 20
124.1742755001
 10
143.9976344951
 20
124.1596109291
 10
144.015802511
 20
124.1460157505
 10
144.0373641508
 20
124.1337225815
  0
LWPOLYLINE
  5
358
100
AcDbEntity
  8
RACCORDO
100
AcDbPolyline
 62
253
  6
CONTINUOUS
 90
7
 70
0
 10
143.9641408461
 20
124.573424889
 10
143.9661783155
 20
124.5574986383
 10
143.9725041771
 20
124.541363553
 10
143.9830063271
 20
124.525788691
 10
143.9974968662
 20
124.5110442432
 10
144.0157222936
 20
124.4973820218
 10
144.0373641508
 20
124.4850365536
  0
LWPOLYLINE
  5
359
100
AcDbEntity
  8
RACCORDO
100
AcDbPolyline
 62
7
  6
CONTINUOUS
 90
13
 70
0
 10
149.5457413696
 20
122.5053545546
 10
149.5467381773
 20
122.4896820054
 10
149.5498835644
 20
122.4732908628
 10
149.5551391326
 20
122.4571072229
 10
149.5625321111
 20
122.441133763
 10
149.5720352708
 20
122.4253678058
 10
149.5835265117
 20
122.4100119177
 10
149.5970314873
 20
122.3950713903
 10
149.6125245442
 20
122.380540932
 10
149.629806622
 20
122.3666072355
 10
149.6488113673
 20
122.3533325315
 10
149.6696051335
 20
122.3406545893
 10
149.6921879207
 20
122.3285734087
  0
LWPOLYLINE
  5
35A
100
AcDbEntity
  8
26814000
100
AcDbPolyline
 62
7
  6
CONTINUOUS
 90
7
 70
0
 10
150.6168785452
 20
128.4395623827
 10
150.6167869372
 20
128.443870184
 10
150.6166477664
 20
128.4481815146
 10
150.616461033
 20
128.4524963746
 10
150.6162267369
 20
128.456814764
 10
150.6159448781
 20
128.4611366827
 10
150.6156154566
 20
128.4654621307
  0
LINE
  5
35B
100
AcDbEntity
  8
26814000
100
AcDbLine
 62
7
  6
CONTINUOUS
 10
150.6168785452
 20
128.4395623827
 11
150.6169250159
 21
128.4334250446
  0
LINE
  5
35C
100
AcDbEntity
  8
RACCORDO
100
AcDbLine
 62
7
  6
CONTINUOUS
 10
149.5457413113
 20
121.3058156964
 11
149.5457413113
 21
122.505350104
  0
LINE
  5
35D
100
AcDbEntity
  8
RACCORDO
100
AcDbLine
 62
253
  6
CONTINUOUS
 10
149.6921879207
 20
121.131254373
 11
149.6921879207
 21
122.3285734087
  0
LINE
  5
35E
100
AcDbEntity
  8
26814000
100
AcDbLine
 62
253
  6
CONTINUOUS
 10
150.5327269776
 20
128.1457485388
 11
150.5327269776
 21
127.9334893847
  0
LINE
  5
35F
100
AcDbEntity
  8
26814000
100
AcDbLine
 62
7
  6
CONTINUOUS
 10
150.6169250375
 20
128.4333694171
 11
150.6169250375
 21
127.8574062276
  0
LINE
  5
360
100
AcDbEntity
  8
21814000
100
AcDbLine
 62
253
  6
CONTINUOUS
 10
151.0208261976
 20
129.7852725623
 11
151.0208261976
 21
129.4639482801
  0
LWPOLYLINE
  5
361
100
AcDbEntity
  8
26814000
100
AcDbPolyline
 62
7
  6
CONTINUOUS
 90
16
 70
0
 10
150.6169250159
 20
128.4334250446
 10
150.6166905103
 20
128.4199107363
 10
150.6155497342
 20
128.4001455452
 10
150.6135054026
 20
128.3802918946
 10
150.6106142376
 20
128.3603561107
 10
150.6069254734
 20
128.3403738743
 10
150.6024655095
 20
128.3204120527
 10
150.5972726512
 20
128.3004913351
 10
150.591389994
 20
128.2806235837
 10
150.5848294598
 20
128.2608633575
 10
150.5776225567
 20
128.2412262909
 10
150.569805411
 20
128.2217243263
 10
150.5613814716
 20
128.2024087274
 10
150.5523685802
 20
128.1833060009
 10
150.5428067348
 20
128.1644155071
 10
150.5327269776
 20
128.1457485388
  0
LWPOLYLINE
  5
362
100
AcDbEntity
  8
RACCORDO
100
AcDbPolyline
 62
253
  6
CONTINUOUS
 90
5
 70
0
 10
160.6633504152
 20
117.166397335
 10
160.6389000797
 20
117.1311820792
 10
160.6163778412
 20
117.0946614185
 10
160.5956595232
 20
117.0565636525
 10
160.5768693022
 20
117.0171604816
  0
LWPOLYLINE
  5
363
100
AcDbEntity
  8
RACCORDO
100
AcDbPolyline
 62
7
  6
CONTINUOUS
 90
5
 70
0
 10
161.2358012764
 20
117.7693725834
 10
161.2548868469
 20
117.7957311853
 10
161.2703929192
 20
117.8243583997
 10
161.2820501859
 20
117.8547669383
 10
161.2896675668
 20
117.8865018103
  0
LINE
  5
364
100
AcDbEntity
  8
RACCORDO
100
AcDbLine
 62
253
  6
CONTINUOUS
 10
160.6897288477
 20
117.200307186
 11
160.6633504152
 21
117.166397335
  0
LWPOLYLINE
  5
365
100
AcDbEntity
  8
RACCORDO
100
AcDbPolyline
 62
7
  6
CONTINUOUS
 90
13
 70
0
 10
160.7054711905
 20
117.1292075404
 10
160.6881238181
 20
117.1069849884
 10
160.6713917426
 20
117.0828597295
 10
160.6555730137
 20
117.057125831
 10
160.6408982162
 20
117.0300390369
 10
160.6276583117
 20
117.0020520007
 10
160.616153406
 20
116.973828391
 10
160.6064962656
 20
116.9457990932
 10
160.5987454098
 20
116.9183820879
 10
160.5929581668
 20
116.8922450262
 10
160.5890518051
 20
116.8678537063
 10
160.5868563834
 20
116.8454500528
 10
160.5861754571
 20
116.825307186
  0
LINE
  5
366
100
AcDbEntity
  8
21814000
100
AcDbLine
 62
7
  6
CONTINUOUS
 10
150.2322649328
 20
128.8215223239
 11
150.2339443612
 21
128.7917701735
  0
LWPOLYLINE
  5
367
100
AcDbEntity
  8
26814000
100
AcDbPolyline
 62
7
  6
CONTINUOUS
 90
5
 70
0
 10
150.6169250193
 20
127.8572152147
 10
150.616912369
 20
127.8575501504
 10
150.6166179658
 20
127.8590679392
 10
150.6159426309
 20
127.8607846034
 10
150.6148985379
 20
127.8627043073
  0
LINE
  5
368
100
AcDbEntity
  8
21814000
100
AcDbLine
 62
7
  6
CONTINUOUS
 10
151.7035363956
 20
129.3635775814
 11
151.7035363956
 21
129.7965902832
  0
LINE
  5
369
100
AcDbEntity
  8
0
100
AcDbLine
 62
7
  6
CONTINUOUS
 10
152.671000108
 20
128.5274474701
 11
152.671000108
 21
128.0615727037
  0
LINE
  5
36A
100
AcDbEntity
  8
21814000
100
AcDbLine
 62
253
  6
CONTINUOUS
 10
153.0883332889
 20
129.2565626939
 11
153.0883332889
 21
129.7152942601
  0
LINE
  5
36B
100
AcDbEntity
  8
0
100
AcDbLine
 62
7
  6
CONTINUOUS
 10
153.1207447694
 20
128.405699637
 11
153.1207447694
 21
128.0525140832
  0
LINE
  5
36C
100
AcDbEntity
  8
21814000
100
AcDbLine
 62
253
  6
CONTINUOUS
 10
153.2293462103
 20
129.257492972
 11
153.2293462103
 21
129.7262901572
  0
LWPOLYLINE
  5
36D
100
AcDbEntity
  8
RACCORDO
100
AcDbPolyline
 62
253
  6
CONTINUOUS
 90
13
 70
0
 10
150.7737808165
 20
75.3196982385
 10
150.8731304003
 20
78.3090942451
 10
151.0000810665
 20
81.3102173475
 10
151.1546162857
 20
84.3226834354
 10
151.3367159643
 20
87.3461069241
 10
151.5463567256
 20
90.3801007798
 10
151.7835119161
 20
93.4242765713
 10
152.0481513232
 20
96.478244466
 10
152.3402409129
 20
99.5416135287
 10
152.6597431191
 20
102.6139917507
 10
153.0066171027
 20
105.6949857734
 10
153.3808187539
 20
108.7842009371
 10
153.7823004375
 20
111.8812415828
  0
LWPOLYLINE
  5
36E
100
AcDbEntity
  8
RACCORDO
100
AcDbPolyline
 62
253
  6
CONTINUOUS
 90
13
 70
0
 10
151.8948634398
 20
75.2903946124
 10
151.993973664
 20
78.2724502219
 10
152.1205741969
 20
81.2654377865
 10
152.2746650386
 20
84.2693573064
 10
152.4562730065
 20
87.2845978844
 10
152.6653712831
 20
90.3107704176
 10
152.9018794162
 20
93.3467075971
 10
153.1658081418
 20
96.3924133983
 10
153.4571467238
 20
99.4478838458
 10
153.7757825009
 20
102.5119397041
 10
154.1216779194
 20
105.5841878946
 10
154.4948705331
 20
108.6650214959
 10
154.8953603419
 20
111.7544405078
  0
LWPOLYLINE
  5
36F
100
AcDbEntity
  8
RACCORDO
100
AcDbPolyline
 62
253
  6
CONTINUOUS
 90
19
 70
0
 10
153.7823004375
 20
111.8812415828
 10
153.8009548717
 20
111.995227787
 10
153.8266513486
 20
112.110446274
 10
153.8592156177
 20
112.2261122148
 10
153.8984296258
 20
112.3414380286
 10
153.9440255045
 20
112.4556373991
 10
153.9956866019
 20
112.5679308105
 10
154.0530620905
 20
112.6775493344
 10
154.1157638508
 20
112.7837499596
 10
154.1833619374
 20
112.8858188047
 10
154.2554005827
 20
112.9830591545
 10
154.3313924272
 20
113.0748079361
 10
154.4108167926
 20
113.160449079
 10
154.4931407791
 20
113.2393986953
 10
154.5778059587
 20
113.3111136648
 10
154.6642243409
 20
113.3751066525
 10
154.7518068069
 20
113.4309408628
 10
154.8399673356
 20
113.478232087
 10
154.9281105487
 20
113.5166555369
  0
LWPOLYLINE
  5
370
100
AcDbEntity
  8
RACCORDO
100
AcDbPolyline
 62
253
  6
CONTINUOUS
 90
19
 70
0
 10
154.8953603419
 20
111.7544405078
 10
154.9041873208
 20
111.8079117984
 10
154.916158555
 20
111.8613138408
 10
154.9312740444
 20
111.9146466351
 10
154.9496830018
 20
111.9683036818
 10
154.9712362144
 20
112.0218914804
 10
154.9954860436
 20
112.0742295289
 10
155.0224847775
 20
112.1252629975
 10
155.052180128
 20
112.1750467161
 10
155.0839675922
 20
112.2225646723
 10
155.1178899676
 20
112.2677682701
 10
155.1539044568
 20
112.3107061054
 10
155.1912781641
 20
112.3505079538
 10
155.2300634431
 20
112.3871188375
 10
155.2702079402
 20
112.4205937342
 10
155.3108216996
 20
112.4502273531
 10
155.3516080691
 20
112.4757845974
 10
155.3928637008
 20
112.4975005639
 10
155.4345885947
 20
112.5153752526
  0
LWPOLYLINE
  5
371
100
AcDbEntity
  8
RACCORDO
100
AcDbPolyline
 62
253
  6
CONTINUOUS
 90
12
 70
0
 10
159.0987385901
 20
116.7798120571
 10
159.0857936556
 20
116.7505320348
 10
159.0700475347
 20
116.7231777447
 10
159.0517492648
 20
116.6982275027
 10
159.0311783536
 20
116.6761085182
 10
159.0086860482
 20
116.6572396946
 10
158.9847026766
 20
116.641998226
 10
158.9596592074
 20
116.6306529512
 10
158.9339686093
 20
116.62338613
 10
158.908072955
 20
116.6203225163
 10
158.882417127
 20
116.6215141311
 10
158.8724779604
 20
116.6231486753
  0
LWPOLYLINE
  5
372
100
AcDbEntity
  8
RACCORDO
100
AcDbPolyline
 62
253
  6
CONTINUOUS
 90
12
 70
0
 10
159.629068676
 20
116.6699771001
 10
159.6160193324
 20
116.6404911164
 10
159.6001685684
 20
116.6130219952
 10
159.581787595
 20
116.5880397407
 10
159.5611909158
 20
116.5659718064
 10
159.5387309455
 20
116.5471957805
 10
159.5147919807
 20
116.5320329263
 10
159.4897836235
 20
116.5207426842
 10
159.4641337738
 20
116.5135182335
 10
159.4382813079
 20
116.5104831865
 10
159.4126685684
 20
116.5116894737
 10
159.4015912281
 20
116.5135605587
  0
LWPOLYLINE
  5
373
100
AcDbEntity
  8
RACCORDO
100
AcDbPolyline
 62
253
  6
CONTINUOUS
 90
20
 70
0
 10
159.5602536611
 20
115.7875115815
 10
159.5783654547
 20
115.7893618739
 10
159.5975746711
 20
115.7914530112
 10
159.6177532655
 20
115.7938254217
 10
159.6382133961
 20
115.796439674
 10
159.6586032541
 20
115.7992825101
 10
159.6790066319
 20
115.8023989212
 10
159.6993116846
 20
115.8058041808
 10
159.719247419
 20
115.8094816433
 10
159.7386448477
 20
115.8134118777
 10
159.7575116886
 20
115.8176014087
 10
159.7757383838
 20
115.8220243727
 10
159.7932421649
 20
115.8266571429
 10
159.8101252314
 20
115.831525395
 10
159.8263274396
 20
115.8366038637
 10
159.8417720732
 20
115.8418444394
 10
159.8565386719
 20
115.8472546942
 10
159.8706245074
 20
115.8528209057
 10
159.8839651356
 20
115.8584994924
 10
159.8965516441
 20
115.8642643977
  0
LWPOLYLINE
  5
374
100
AcDbEntity
  8
RACCORDO
100
AcDbPolyline
 62
253
  6
CONTINUOUS
 90
5
 70
0
 10
159.4867467707
 20
115.7808563524
 10
159.4994162772
 20
115.7818783565
 10
159.5129594777
 20
115.7830414892
 10
159.5274793762
 20
115.7843555999
 10
159.5602536611
 20
115.7875115815
  0
LINE
  5
375
100
AcDbEntity
  8
RACCORDO
100
AcDbLine
 62
253
  6
CONTINUOUS
 10
161.2308623615
 20
76.7302981634
 11
161.2211117856
 21
76.7590404608
  0
LWPOLYLINE
  5
376
100
AcDbEntity
  8
RACCORDO
100
AcDbPolyline
 62
253
  6
CONTINUOUS
 90
7
 70
0
 10
157.3284590105
 20
76.2403477075
 10
157.3305977952
 20
76.2240319335
 10
157.3369775539
 20
76.2079953269
 10
157.3474891274
 20
76.1925122785
 10
157.3619526596
 20
76.1778477075
 10
157.3801206754
 20
76.1642525289
 10
157.4016823152
 20
76.1519593599
  0
LWPOLYLINE
  5
377
100
AcDbEntity
  8
RACCORDO
100
AcDbPolyline
 62
253
  6
CONTINUOUS
 90
7
 70
0
 10
157.3284591689
 20
75.8888930429
 10
157.3304964799
 20
75.8731074726
 10
157.3368223415
 20
75.8569723873
 10
157.3473244915
 20
75.8413975252
 10
157.3618150306
 20
75.8266530774
 10
157.380040458
 20
75.8129908561
 10
157.4016823152
 20
75.8006453878
  0
LINE
  5
378
100
AcDbEntity
  8
RACCORDO
100
AcDbLine
 62
7
  6
CONTINUOUS
 10
157.2736689336
 20
86.4249976305
 11
157.7750798972
 21
81.7514567289
  0
LINE
  5
379
100
AcDbEntity
  8
21814000
100
AcDbLine
 62
7
  6
CONTINUOUS
 10
155.0329821761
 20
131.8266723551
 11
155.0329821761
 21
131.4188210878
  0
LINE
  5
37A
100
AcDbEntity
  8
RACCORDO
100
AcDbLine
 62
253
  6
CONTINUOUS
 10
155.2116817731
 20
119.5688264825
 11
155.2116817731
 21
118.3715074468
  0
LINE
  5
37B
100
AcDbEntity
  8
RACCORDO
100
AcDbLine
 62
253
  6
CONTINUOUS
 10
155.9208190002
 20
119.5698475696
 11
155.9208190002
 21
118.3649267369
  0
LINE
  5
37C
100
AcDbEntity
  8
RACCORDO
100
AcDbLine
 62
7
  6
CONTINUOUS
 10
156.3410221434
 20
124.9351046261
 11
156.3410221434
 21
124.0347495255
  0
LWPOLYLINE
  5
37D
100
AcDbEntity
  8
RACCORDO
100
AcDbPolyline
 62
253
  6
CONTINUOUS
 90
6
 70
0
 10
160.5462241096
 20
116.9368705287
 10
160.5343691381
 20
116.8959837467
 10
160.5250872146
 20
116.8554598661
 10
160.5184691459
 20
116.8155832887
 10
160.5144241252
 20
116.7760696128
 10
160.5129521524
 20
116.7369188383
  0
LWPOLYLINE
  5
37E
100
AcDbEntity
  8
RACCORDO
100
AcDbPolyline
 62
253
  6
CONTINUOUS
 90
3
 70
0
 10
160.5768693022
 20
117.0171604816
 10
160.5603797078
 20
116.9772670074
 10
160.5462241096
 20
116.9368705287
  0
LINE
  5
37F
100
AcDbEntity
  8
RACCORDO
100
AcDbLine
 62
253
  6
CONTINUOUS
 10
160.7626348284
 20
116.3548734085
 11
160.7711295167
 21
116.3740924309
  0
LWPOLYLINE
  5
380
100
AcDbEntity
  8
RACCORDO
100
AcDbPolyline
 62
253
  6
CONTINUOUS
 90
4
 70
0
 10
158.0192070137
 20
116.8057021689
 10
158.035940868
 20
116.8074971187
 10
158.0515014237
 20
116.8124814437
 10
158.0537118525
 20
116.8134968844
  0
LWPOLYLINE
  5
381
100
AcDbEntity
  8
RACCORDO
100
AcDbPolyline
 62
253
  6
CONTINUOUS
 90
16
 70
0
 10
153.7823154292
 20
111.8812458718
 10
153.8437654757
 20
111.8527733867
 10
153.9105280925
 20
111.826316483
 10
153.9818879416
 20
111.802158637
 10
154.0570804271
 20
111.7805586917
 10
154.1352998876
 20
111.7617480827
 10
154.215708229
 20
111.7459283589
 10
154.2974439039
 20
111.7332690229
 10
154.3796311432
 20
111.723905715
 10
154.4613893391
 20
111.7179387599
 10
154.5418424813
 20
111.7154320913
 10
154.6201285423
 20
111.7164125674
 10
154.6954087144
 20
111.7208696826
 10
154.7668763968
 20
111.7287556805
 10
154.8337658383
 20
111.7399860655
 10
154.8953603418
 20
111.7544405079
  0
LINE
  5
382
100
AcDbEntity
  8
RACCORDO
100
AcDbLine
 62
253
  6
CONTINUOUS
 10
123.7472630385
 20
126.8987602823
 11
153.7823004375
 21
111.8812415828
  0
LWPOLYLINE
  5
383
100
AcDbEntity
  8
RACCORDO
100
AcDbPolyline
 62
253
  6
CONTINUOUS
 90
10
 70
0
 10
123.7472630647
 20
126.8987602898
 10
123.6917597005
 20
126.9287646032
 10
123.6428222154
 20
126.9601579871
 10
123.6009749675
 20
126.9926040659
 10
123.5666663445
 20
127.0257551844
 10
123.5402639583
 20
127.0592561329
 10
123.5220507067
 20
127.092747953
 10
123.5122217423
 20
127.1258717845
 10
123.5108823811
 20
127.1582727102
 10
123.511400572
 20
127.1629332334
  0
LWPOLYLINE
  5
384
100
AcDbEntity
  8
RACCORDO
100
AcDbPolyline
 62
7
  6
CONTINUOUS
 90
6
 70
0
 10
147.2319394778
 20
123.1384716434
 10
147.2288408362
 20
123.1444453449
 10
147.2257144216
 20
123.1527615717
 10
147.2231597581
 20
123.1634430607
 10
147.2218967078
 20
123.1759630102
 10
147.2218517205
 20
123.1789911298
  0
LWPOLYLINE
  5
385
100
AcDbEntity
  8
RACCORDO
100
AcDbPolyline
 62
253
  6
CONTINUOUS
 90
7
 70
0
 10
158.0355657917
 20
77.3439010981
 10
158.0377045764
 20
77.3275853241
 10
158.0440843351
 20
77.3115487175
 10
158.0545959086
 20
77.2960656691
 10
158.0690594408
 20
77.2814010981
 10
158.0872274566
 20
77.2678059195
 10
158.1087890964
 20
77.2555127505
  0
LINE
  5
386
100
AcDbEntity
  8
DRAFT
100
AcDbLine
 62
7
  6
CONTINUOUS
 10
158.2970320149
 20
95.4348477642
 11
160.059682986
 21
79.0055671781
  0
LWPOLYLINE
  5
387
100
AcDbEntity
  8
RACCORDO
100
AcDbPolyline
 62
253
  6
CONTINUOUS
 90
3
 70
0
 10
161.2405919667
 20
76.6680852302
 10
161.2373959673
 20
76.6997982062
 10
161.2308623615
 20
76.7302981634
  0
LWPOLYLINE
  5
388
100
AcDbEntity
  8
RACCORDO
100
AcDbPolyline
 62
7
  6
CONTINUOUS
 90
10
 70
0
 10
157.3284590105
 20
117.5399518469
 10
157.3307262609
 20
117.5063640603
 10
157.3375637969
 20
117.4730992094
 10
157.3489244473
 20
117.4408867962
 10
157.3646330164
 20
117.4104202845
 10
157.3843647711
 20
117.3823846558
 10
157.4077049342
 20
117.3573510654
 10
157.4342430952
 20
117.3357421114
 10
157.4635367266
 20
117.3179323927
 10
157.4669741503
 20
117.3161865347
  0
LWPOLYLINE
  5
389
100
AcDbEntity
  8
RACCORDO
100
AcDbPolyline
 62
253
  6
CONTINUOUS
 90
8
 70
0
 10
158.0355657925
 20
116.8395997462
 10
158.0359211652
 20
116.8331980257
 10
158.0386467584
 20
116.8207393005
 10
158.0440435281
 20
116.8084101759
 10
158.0520616837
 20
116.7963570345
 10
158.062647522
 20
116.784680683
 10
158.075719195
 20
116.7735054035
 10
158.0911494883
 20
116.7629745073
  0
LWPOLYLINE
  5
38A
100
AcDbEntity
  8
RACCORDO
100
AcDbPolyline
 62
7
  6
CONTINUOUS
 90
15
 70
0
 10
156.3410221434
 20
124.9351046261
 10
156.3402383104
 20
124.9632322819
 10
156.337973834
 20
124.9902589061
 10
156.3342287142
 20
125.0161844989
 10
156.328974315
 20
125.0411103582
 10
156.3222392723
 20
125.0649351861
 10
156.3141094941
 20
125.0873550884
 10
156.3045671139
 20
125.1083520685
 10
156.2936299981
 20
125.1279441231
 10
156.2814376535
 20
125.1458813488
 10
156.2679740007
 20
125.1621425475
 10
156.253255119
 20
125.1767489172
 10
156.2374687528
 20
125.1895141487
 10
156.220601228
 20
125.2004146572
 10
156.2110655858
 20
125.2055271224
  0
LINE
  5
38B
100
AcDbEntity
  8
RACCORDO
100
AcDbLine
 62
253
  6
CONTINUOUS
 10
157.3284590105
 20
75.8890337232
 11
157.3284591689
 21
75.8888930429
  0
LINE
  5
38C
100
AcDbEntity
  8
RACCORDO
100
AcDbLine
 62
7
  6
CONTINUOUS
 10
157.3284590105
 20
75.8890337355
 11
157.3284590105
 21
76.2403477075
  0
LINE
  5
38D
100
AcDbEntity
  8
RACCORDO
100
AcDbLine
 62
7
  6
CONTINUOUS
 10
157.3284590105
 20
117.5399518469
 11
157.3284590105
 21
117.891265819
  0
LINE
  5
38E
100
AcDbEntity
  8
RACCORDO
100
AcDbLine
 62
253
  6
CONTINUOUS
 10
157.4016823152
 20
75.8006453878
 11
157.4016823152
 21
76.1519593599
  0
LINE
  5
38F
100
AcDbEntity
  8
RACCORDO
100
AcDbLine
 62
253
  6
CONTINUOUS
 10
157.4016823152
 20
117.4515634993
 11
157.4016823152
 21
117.8028774714
  0
LINE
  5
390
100
AcDbEntity
  8
RACCORDO
100
AcDbLine
 62
7
  6
CONTINUOUS
 10
158.0355657917
 20
77.3439010981
 11
158.0355657917
 21
77.4091709779
  0
LINE
  5
391
100
AcDbEntity
  8
RACCORDO
100
AcDbLine
 62
7
  6
CONTINUOUS
 10
158.0355657917
 20
116.8395516349
 11
158.0355657917
 21
117.0318899591
  0
LINE
  5
392
100
AcDbEntity
  8
RACCORDO
100
AcDbLine
 62
253
  6
CONTINUOUS
 10
158.1087890964
 20
77.2555127505
 11
158.1087890964
 21
77.3725593255
  0
LINE
  5
393
100
AcDbEntity
  8
RACCORDO
100
AcDbLine
 62
253
  6
CONTINUOUS
 10
158.1087890964
 20
116.7532134301
 11
158.1087890964
 21
116.9952783068
  0
LINE
  5
394
100
AcDbEntity
  8
RACCORDO
100
AcDbLine
 62
253
  6
CONTINUOUS
 10
158.7451851995
 20
117.1311260292
 11
158.7451851995
 21
116.7798120571
  0
LINE
  5
395
100
AcDbEntity
  8
RACCORDO
100
AcDbLine
 62
253
  6
CONTINUOUS
 10
158.7451851995
 20
75.4802079178
 11
158.7451851995
 21
75.1288939457
  0
LINE
  5
396
100
AcDbEntity
  8
RACCORDO
100
AcDbLine
 62
7
  6
CONTINUOUS
 10
158.8158958776
 20
124.0222426189
 11
158.8158958776
 21
123.8271296739
  0
LWPOLYLINE
  5
397
100
AcDbEntity
  8
RACCORDO
100
AcDbPolyline
 62
7
  6
CONTINUOUS
 90
6
 70
0
 10
158.0355702059
 20
116.8397831773
 10
158.0353607309
 20
116.8334279459
 10
158.0336922567
 20
116.8211733447
 10
158.0308483432
 20
116.8107784927
 10
158.0275344132
 20
116.8027286438
 10
158.0251800109
 20
116.7983480496
  0
LWPOLYLINE
  5
398
100
AcDbEntity
  8
RACCORDO
100
AcDbPolyline
 62
253
  6
CONTINUOUS
 90
10
 70
0
 10
157.4016823152
 20
76.1519593599
 10
157.4028412805
 20
76.1772899913
 10
157.4063268926
 20
76.2035848021
 10
157.412128582
 20
76.2305056328
 10
157.4202191506
 20
76.2577431654
 10
157.4305144655
 20
76.2848812045
 10
157.4428377974
 20
76.3114087318
 10
157.4569947336
 20
76.3369198734
 10
157.4728110502
 20
76.3611116381
 10
157.4900706629
 20
76.3836535337
  0
LWPOLYLINE
  5
399
100
AcDbEntity
  8
21814000
100
AcDbPolyline
 62
253
  6
CONTINUOUS
 90
10
 70
0
 10
160.5550884761
 20
128.1617841668
 10
160.5523821232
 20
128.1269125775
 10
160.5430319106
 20
128.0883735798
 10
160.5270731584
 20
128.0503809421
 10
160.5046246399
 20
128.0132174256
 10
160.4758534288
 20
127.9771596204
 10
160.4409736554
 20
127.9424758878
 10
160.4002449133
 20
127.9094243621
 10
160.3539703271
 20
127.8782510301
 10
160.3024942964
 20
127.8491879001
  0
LINE
  5
39A
100
AcDbEntity
  8
RACCORDO
100
AcDbLine
 62
7
  6
CONTINUOUS
 10
159.5483311605
 20
114.0682149195
 11
156.4365848918
 21
76.2521922865
  0
LWPOLYLINE
  5
39B
100
AcDbEntity
  8
RACCORDO
100
AcDbPolyline
 62
253
  6
CONTINUOUS
 90
4
 70
0
 10
160.5985482971
 20
116.4667294341
 10
160.5822425939
 20
116.4687336856
 10
160.5671438348
 20
116.4738342822
 10
160.5649307896
 20
116.4748959074
  0
LINE
  5
39C
100
AcDbEntity
  8
RACCORDO
100
AcDbLine
 62
7
  6
CONTINUOUS
 10
158.8712611422
 20
116.6233955158
 11
159.4015912281
 21
116.5135605587
  0
LWPOLYLINE
  5
39D
100
AcDbEntity
  8
RACCORDO
100
AcDbPolyline
 62
253
  6
CONTINUOUS
 90
7
 70
0
 10
124.8761348961
 20
128.5426433632
 10
124.815726662
 20
128.5678803832
 10
124.755440141
 20
128.5850119341
 10
124.6959356021
 20
128.5938504218
 10
124.6378647334
 20
128.5942990793
 10
124.581863541
 20
128.5863530253
 10
124.5241297531
 20
128.5683289963
  0
LINE
  5
39E
100
AcDbEntity
  8
RACCORDO
100
AcDbLine
 62
253
  6
CONTINUOUS
 10
124.8761348961
 20
128.5426433632
 11
154.9281105487
 21
113.5166555369
  0
LWPOLYLINE
  5
39F
100
AcDbEntity
  8
RACCORDO
100
AcDbPolyline
 62
253
  6
CONTINUOUS
 90
16
 70
0
 10
154.9281105487
 20
113.5166555369
 10
154.9859226893
 20
113.4827824865
 10
155.0425617112
 20
113.4414515614
 10
155.097407306
 20
113.3931154167
 10
155.1498588064
 20
113.3383034279
 10
155.1993417656
 20
113.2776158941
 10
155.2453142484
 20
113.2117174631
 10
155.2872727658
 20
113.1413298523
 10
155.3247577895
 20
113.0672239442
 10
155.3573587849
 20
112.9902113441
 10
155.3847187071
 20
112.9111354913
 10
155.4065379111
 20
112.8308624217
 10
155.4225774339
 20
112.7502712831
 10
155.432661611
 20
112.6702447069
 10
155.4366800011
 20
112.5916591413
 10
155.4345885947
 20
112.5153752526
  0
LWPOLYLINE
  5
3A0
100
AcDbEntity
  8
RACCORDO
100
AcDbPolyline
 62
253
  6
CONTINUOUS
 90
6
 70
0
 10
147.8557407692
 20
124.5226313111
 10
147.8657044027
 20
124.5048055728
 10
147.8725303645
 20
124.488737324
 10
147.8760814232
 20
124.4747117464
 10
147.8762738023
 20
124.4629744069
 10
147.8730778029
 20
124.4537537364
  0
LWPOLYLINE
  5
3A1
100
AcDbEntity
  8
RACCORDO
100
AcDbPolyline
 62
253
  6
CONTINUOUS
 90
7
 70
0
 10
147.3254106833
 20
123.8824662682
 10
147.3354353286
 20
123.8645172789
 10
147.3422637512
 20
123.848387751
 10
147.3457791149
 20
123.8343536651
 10
147.3459212708
 20
123.8226551483
 10
147.3426877865
 20
123.8134923655
 10
147.3411530261
 20
123.8113666227
  0
LWPOLYLINE
  5
3A2
100
AcDbEntity
  8
RACCORDO
100
AcDbPolyline
 62
253
  6
CONTINUOUS
 90
7
 70
0
 10
157.3284590105
 20
117.5399518469
 10
157.3305977952
 20
117.5236360729
 10
157.3369775539
 20
117.5075994663
 10
157.3474891274
 20
117.4921164179
 10
157.3619526596
 20
117.4774518469
 10
157.3801206754
 20
117.4638566683
 10
157.4016823152
 20
117.4515634993
  0
LWPOLYLINE
  5
3A3
100
AcDbEntity
  8
RACCORDO
100
AcDbPolyline
 62
7
  6
CONTINUOUS
 90
5
 70
0
 10
161.2932822383
 20
76.6292564372
 10
161.291014988
 20
76.6628442238
 10
161.284177452
 20
76.6961090747
 10
161.2728168016
 20
76.7283214879
 10
161.2571082325
 20
76.7587879996
  0
LWPOLYLINE
  5
3A4
100
AcDbEntity
  8
RACCORDO
100
AcDbPolyline
 62
253
  6
CONTINUOUS
 90
8
 70
0
 10
159.4522919807
 20
116.3833654477
 10
159.4510966799
 20
116.4079026506
 10
159.447526942
 20
116.430912729
 10
159.4416310415
 20
116.4520845113
 10
159.4334887103
 20
116.4711316854
 10
159.4232100596
 20
116.4877966709
 10
159.4109340905
 20
116.5018541024
 10
159.3968268143
 20
116.5131138775
  0
LWPOLYLINE
  5
3A5
100
AcDbEntity
  8
RACCORDO
100
AcDbPolyline
 62
253
  6
CONTINUOUS
 90
13
 70
0
 10
160.5129521524
 20
76.9373146989
 10
160.5144146375
 20
76.8997070714
 10
160.5184459169
 20
76.86429417
 10
160.5250459907
 20
76.8310759948
 10
160.5343009888
 20
76.7998590956
 10
160.5461247813
 20
76.7708369226
 10
160.5602589783
 20
76.7445898266
 10
160.5767410435
 20
76.7211572402
 10
160.5955335132
 20
76.7004997308
 10
160.6162656065
 20
76.6830793514
 10
160.63881373
 20
76.6690501198
 10
160.663301477
 20
76.6582580182
 10
160.6897288477
 20
76.6507030466
  0
LWPOLYLINE
  5
3A6
100
AcDbEntity
  8
RACCORDO
100
AcDbPolyline
 62
253
  6
CONTINUOUS
 90
13
 70
0
 10
159.8058453713
 20
116.3833654477
 10
159.8043828862
 20
116.4209730753
 10
159.8003516068
 20
116.4563859767
 10
159.793751533
 20
116.4896041519
 10
159.7844965349
 20
116.5208210511
 10
159.7726727424
 20
116.5498432241
 10
159.7585385454
 20
116.5760903201
 10
159.7420564802
 20
116.5995229065
 10
159.7232640105
 20
116.6201804159
 10
159.7025319172
 20
116.6376007952
 10
159.6799837937
 20
116.6516300269
 10
159.6554960467
 20
116.6624221285
 10
159.629068676
 20
116.6699771001
  0
LWPOLYLINE
  5
3A7
100
AcDbEntity
  8
21814000
100
AcDbPolyline
 62
7
  6
CONTINUOUS
 90
10
 70
0
 10
160.5550884761
 20
128.1617841668
 10
160.55128358
 20
128.2757218631
 10
160.540137491
 20
128.3889860601
 10
160.5219991658
 20
128.5013733335
 10
160.4970440647
 20
128.6131101103
 10
160.4654970652
 20
128.7237422778
 10
160.427875799
 20
128.8320486669
 10
160.3845745636
 20
128.9375326379
 10
160.3356217819
 20
129.0404595185
 10
160.2810897364
 20
129.1407039282
  0
LWPOLYLINE
  5
3A8
100
AcDbEntity
  8
RACCORDO
100
AcDbPolyline
 62
7
  6
CONTINUOUS
 90
6
 70
0
 10
160.5861754571
 20
77.0257030466
 10
160.5866488012
 20
77.0098853965
 10
160.5879218383
 20
76.9962657507
 10
160.5897427572
 20
76.9849933267
 10
160.591832595
 20
76.9761218355
 10
160.5934914287
 20
76.9707685891
  0
LWPOLYLINE
  5
3A9
100
AcDbEntity
  8
RACCORDO
100
AcDbPolyline
 62
7
  6
CONTINUOUS
 90
15
 70
0
 10
158.8158958776
 20
124.0222426189
 10
158.8143639961
 20
124.0778743667
 10
158.8099348128
 20
124.1313596763
 10
158.8026083279
 20
124.1826985478
 10
158.7923297493
 20
124.2320874393
 10
158.779153869
 20
124.2793298926
 10
158.7632450631
 20
124.3238365334
 10
158.7445690944
 20
124.3655730883
 10
158.7231602001
 20
124.4045738306
 10
158.6992854674
 20
124.4403522056
 10
158.6729140051
 20
124.4728678446
 10
158.6440767044
 20
124.5021611163
 10
158.6131333257
 20
124.5278665716
 10
158.5800574849
 20
124.5499392638
 10
158.5559673773
 20
124.5630981353
  0
LINE
  5
3AA
100
AcDbEntity
  8
RACCORDO
100
AcDbLine
 62
7
  6
CONTINUOUS
 10
160.5863113745
 20
116.4915603095
 11
160.5861709311
 21
116.4967705996
  0
LINE
  5
3AB
100
AcDbEntity
  8
RACCORDO
100
AcDbLine
 62
253
  6
CONTINUOUS
 10
159.0987385901
 20
117.1311260292
 11
159.0987385901
 21
116.7798120571
  0
LINE
  5
3AC
100
AcDbEntity
  8
RACCORDO
100
AcDbLine
 62
253
  6
CONTINUOUS
 10
159.0987385901
 20
75.4802079178
 11
159.0987385901
 21
75.1288939457
  0
LINE
  5
3AD
100
AcDbEntity
  8
RACCORDO
100
AcDbLine
 62
253
  6
CONTINUOUS
 10
159.4522919807
 20
116.3833654477
 11
159.4522919807
 21
116.081461988
  0
LINE
  5
3AE
100
AcDbEntity
  8
RACCORDO
100
AcDbLine
 62
253
  6
CONTINUOUS
 10
159.4522919807
 20
76.7938537096
 11
159.4522919807
 21
76.5837613084
  0
LINE
  5
3AF
100
AcDbEntity
  8
RACCORDO
100
AcDbLine
 62
7
  6
CONTINUOUS
 10
159.5920408916
 20
115.0561270643
 11
159.5920408916
 21
115.0302574264
  0
LINE
  5
3B0
100
AcDbEntity
  8
RACCORDO
100
AcDbLine
 62
7
  6
CONTINUOUS
 10
159.5920408916
 20
77.0641439997
 11
159.5920408916
 21
77.0900136376
  0
LINE
  5
3B1
100
AcDbEntity
  8
RACCORDO
100
AcDbLine
 62
253
  6
CONTINUOUS
 10
159.8058453713
 20
116.3833654477
 11
159.8058453713
 21
116.0746595496
  0
LINE
  5
3B2
100
AcDbEntity
  8
RACCORDO
100
AcDbLine
 62
253
  6
CONTINUOUS
 10
159.8058453713
 20
76.8924672065
 11
159.8058453713
 21
76.5837613084
  0
LINE
  5
3B3
100
AcDbEntity
  8
DRAFT
100
AcDbLine
 62
7
  6
CONTINUOUS
 10
160.059682986
 20
115.1869383301
 11
160.059682986
 21
113.566300607
  0
LINE
  5
3B4
100
AcDbEntity
  8
DRAFT
100
AcDbLine
 62
7
  6
CONTINUOUS
 10
160.059682986
 20
79.0055671781
 11
160.059682986
 21
77.384929455
  0
LINE
  5
3B5
100
AcDbEntity
  8
21814000
100
AcDbLine
 62
253
  6
CONTINUOUS
 10
160.3024942964
 20
127.8491879001
 11
160.3024942964
 21
123.8742955955
  0
LINE
  5
3B6
100
AcDbEntity
  8
RACCORDO
100
AcDbLine
 62
253
  6
CONTINUOUS
 10
160.5129521524
 20
76.9373146989
 11
160.5129521524
 21
77.2611371267
  0
LINE
  5
3B7
100
AcDbEntity
  8
RACCORDO
100
AcDbLine
 62
253
  6
CONTINUOUS
 10
160.5129521524
 20
116.4130964106
 11
160.5129521524
 21
116.7369188383
  0
LINE
  5
3B8
100
AcDbEntity
  8
21814000
100
AcDbLine
 62
7
  6
CONTINUOUS
 10
160.5550884761
 20
128.1617841668
 11
160.5550884761
 21
124.7560987201
  0
LINE
  5
3B9
100
AcDbEntity
  8
RACCORDO
100
AcDbLine
 62
7
  6
CONTINUOUS
 10
160.5861754571
 20
77.0257030466
 11
160.5861754571
 21
77.327758306
  0
LINE
  5
3BA
100
AcDbEntity
  8
RACCORDO
100
AcDbLine
 62
7
  6
CONTINUOUS
 10
160.5861754564
 20
116.4966843515
 11
160.5861754571
 21
116.825307186
  0
LINE
  5
3BB
100
AcDbEntity
  8
RACCORDO
100
AcDbLine
 62
253
  6
CONTINUOUS
 10
161.2200589336
 20
118.191786201
 11
161.2200589336
 21
117.8404722289
  0
LINE
  5
3BC
100
AcDbEntity
  8
RACCORDO
100
AcDbLine
 62
253
  6
CONTINUOUS
 10
161.2200589336
 20
76.5408680895
 11
161.2200589336
 21
76.1895541175
  0
LINE
  5
3BD
100
AcDbEntity
  8
RACCORDO
100
AcDbLine
 62
7
  6
CONTINUOUS
 10
161.2932822383
 20
118.2801745487
 11
161.2932822383
 21
117.9288605766
  0
LINE
  5
3BE
100
AcDbEntity
  8
RACCORDO
100
AcDbLine
 62
7
  6
CONTINUOUS
 10
161.2932822383
 20
76.6292564372
 11
161.2932822383
 21
76.2779424651
  0
LINE
  5
3BF
100
AcDbEntity
  8
21814000
100
AcDbLine
 62
7
  6
CONTINUOUS
 10
160.5550883259
 20
124.7550802174
 11
160.5550882381
 21
124.7548326373
  0
LINE
  5
3C0
100
AcDbEntity
  8
RACCORDO
100
AcDbLine
 62
253
  6
CONTINUOUS
 10
161.2932822383
 20
76.2779424529
 11
161.29328208
 21
76.2778017726
  0
LWPOLYLINE
  5
3C1
100
AcDbEntity
  8
21814000
100
AcDbPolyline
 62
253
  6
CONTINUOUS
 90
29
 70
0
 10
160.5550882381
 20
124.7548326373
 10
160.5547598673
 20
124.71137833
 10
160.5535535514
 20
124.6596523806
 10
160.5515225927
 20
124.60933527
 10
160.5487162386
 20
124.5604357565
 10
160.5451870349
 20
124.5129702021
 10
160.5409860952
 20
124.4669398522
 10
160.5361368341
 20
124.4223299835
 10
160.5306807778
 20
124.3791557729
 10
160.5246543848
 20
124.3374142896
 10
160.5180481292
 20
124.2970648038
 10
160.5108851142
 20
124.2580799367
 10
160.5031911609
 20
124.220498215
 10
160.4949358878
 20
124.1843805565
 10
160.4861272733
 20
124.1496810718
 10
160.4767833171
 20
124.1164583499
 10
160.466869419
 20
124.0849333238
 10
160.4563881882
 20
124.0550750283
 10
160.4453490509
 20
124.0269295809
 10
160.4337139226
 20
124.0008368224
 10
160.4214706113
 20
123.9767797249
 10
160.4086329662
 20
123.9547940854
 10
160.3951956719
 20
123.9353010365
 10
160.3811462126
 20
123.9183639825
 10
160.3665006587
 20
123.9039394437
 10
160.3513005225
 20
123.8922871655
 10
160.335566679
 20
123.883498633
 10
160.3192950259
 20
123.8774986976
 10
160.3024942964
 20
123.8742955955
  0
LWPOLYLINE
  5
3C2
100
AcDbEntity
  8
RACCORDO
100
AcDbPolyline
 62
253
  6
CONTINUOUS
 90
10
 70
0
 10
160.1170912583
 20
77.2920856194
 10
160.1161624755
 20
77.2494349725
 10
160.1116452993
 20
77.2090890743
 10
160.1035865235
 20
77.1714658715
 10
160.0920696297
 20
77.1369551064
 10
160.0772139225
 20
77.1059142791
 10
160.0591732934
 20
77.0786649445
 10
160.0381346271
 20
77.0554893809
 10
160.0143158649
 20
77.0366276659
 10
159.9974580833
 20
77.0267750575
  0
LWPOLYLINE
  5
3C3
100
AcDbEntity
  8
RACCORDO
100
AcDbPolyline
 62
253
  6
CONTINUOUS
 90
10
 70
0
 10
160.8363942438
 20
77.6597908931
 10
160.8353921504
 20
77.6162352297
 10
160.8306460907
 20
77.5750948328
 10
160.8222073898
 20
77.5368144893
 10
160.810167292
 20
77.5018080635
 10
160.7946559749
 20
77.4704540236
 10
160.7758411417
 20
77.4430913496
 10
160.7539262086
 20
77.4200158683
 10
160.7291481054
 20
77.4014770559
 10
160.7166842558
 20
77.3944389202
  0
LWPOLYLINE
  5
3C4
100
AcDbEntity
  8
RACCORDO
100
AcDbPolyline
 62
253
  6
CONTINUOUS
 90
10
 70
0
 10
159.8277870316
 20
77.1829221164
 10
159.8265444623
 20
77.1389687774
 10
159.8215095528
 20
77.0974676572
 10
159.8127375423
 20
77.0588735126
 10
159.8003246607
 20
77.0236092666
 10
159.7844069424
 20
76.9920613013
 10
159.7651587307
 20
76.9645752274
 10
159.742790982
 20
76.9414522149
 10
159.7175488455
 20
76.9229456298
 10
159.7054738925
 20
76.9162547781
  0
LWPOLYLINE
  5
3C5
100
AcDbEntity
  8
RACCORDO
100
AcDbPolyline
 62
253
  6
CONTINUOUS
 90
10
 70
0
 10
158.7451851995
 20
75.4802079178
 10
158.7463927259
 20
75.5060743093
 10
158.749998816
 20
75.5327948947
 10
158.7559542164
 20
75.56000463
 10
158.7641933891
 20
75.5873780144
 10
158.7745952796
 20
75.6144939809
 10
158.7869493913
 20
75.6408485048
 10
158.8010332416
 20
75.6660540438
 10
158.8166513246
 20
75.6898361376
 10
158.8335735471
 20
75.7119020916
  0
LINE
  5
3C6
100
AcDbEntity
  8
RACCORDO
100
AcDbLine
 62
253
  6
CONTINUOUS
 10
160.5858582133
 20
116.4906294406
 11
160.5861754564
 21
116.4966843515
  0
LWPOLYLINE
  5
3C7
100
AcDbEntity
  8
RACCORDO
100
AcDbPolyline
 62
253
  6
CONTINUOUS
 90
8
 70
0
 10
159.0987385901
 20
75.1288939457
 10
159.0972262409
 20
75.1013903707
 10
159.0927150702
 20
75.0758697386
 10
159.0852822654
 20
75.0527687145
 10
159.0750550037
 20
75.0324825634
 10
159.0622082765
 20
75.0153583869
 10
159.0469618948
 20
75.0016891844
 10
159.0337652936
 20
74.9936754956
  0
LWPOLYLINE
  5
3C8
100
AcDbEntity
  8
RACCORDO
100
AcDbPolyline
 62
7
  6
CONTINUOUS
 90
6
 70
0
 10
157.3284590105
 20
76.2403477075
 10
157.3307262609
 20
76.2739354942
 10
157.3375637969
 20
76.307200345
 10
157.3489244473
 20
76.3394127582
 10
157.3646330164
 20
76.3698792699
 10
157.3859227022
 20
76.3998148245
  0
LINE
  5
3C9
100
AcDbEntity
  8
DRAFT
100
AcDbLine
 62
7
  6
CONTINUOUS
 10
160.059682986
 20
113.566300607
 11
158.2970320149
 21
95.4348477642
  0
LWPOLYLINE
  5
3CA
100
AcDbEntity
  8
RACCORDO
100
AcDbPolyline
 62
7
  6
CONTINUOUS
 90
3
 70
0
 10
161.2896675668
 20
117.8865018103
 10
161.2930869132
 20
117.918980071
 10
161.2932822373
 20
117.9288494724
  0
LWPOLYLINE
  5
3CB
100
AcDbEntity
  8
RACCORDO
100
AcDbPolyline
 62
253
  6
CONTINUOUS
 90
7
 70
0
 10
161.2932822383
 20
118.2801745364
 10
161.291244769
 20
118.2642482858
 10
161.2849189073
 20
118.2481132005
 10
161.2744167574
 20
118.2325383384
 10
161.2599262182
 20
118.2177938906
 10
161.2417007909
 20
118.2041316693
 10
161.2200589336
 20
118.191786201
  0
LWPOLYLINE
  5
3CC
100
AcDbEntity
  8
RACCORDO
100
AcDbPolyline
 62
253
  6
CONTINUOUS
 90
7
 70
0
 10
161.2932822373
 20
117.9288494724
 10
161.2910907552
 20
117.9123458938
 10
161.2846386015
 20
117.8962756646
 10
161.2740645773
 20
117.8807993864
 10
161.2595888543
 20
117.8661879193
 10
161.2414768511
 20
117.8526718381
 10
161.2200589336
 20
117.8404722289
  0
LINE
  5
3CD
100
AcDbEntity
  8
0
100
AcDbLine
 62
7
  6
CONTINUOUS
 10
158.8158958776
 20
123.8271296739
 11
156.968624974
 21
123.5097120047
  0
LWPOLYLINE
  5
3CE
100
AcDbEntity
  8
21814000
100
AcDbPolyline
 62
7
  6
CONTINUOUS
 90
7
 70
0
 10
160.4102270132
 20
123.8567242719
 10
160.3892550671
 20
123.8538345398
 10
160.3694897183
 20
123.8532721221
 10
160.3509309668
 20
123.8550370188
 10
160.3335788127
 20
123.85912923
 10
160.3174332559
 20
123.8655487555
 10
160.3024942964
 20
123.8742955955
  0
LINE
  5
3CF
100
AcDbEntity
  8
RACCORDO
100
AcDbLine
 62
253
  6
CONTINUOUS
 10
159.0987385901
 20
116.7798120571
 11
159.629068676
 21
116.6699771001
  0
LWPOLYLINE
  5
3D0
100
AcDbEntity
  8
RACCORDO
100
AcDbPolyline
 62
253
  6
CONTINUOUS
 90
4
 70
0
 10
157.9648995972
 20
116.8194855929
 10
157.9833798724
 20
116.8117481333
 10
158.0015861828
 20
116.8071273031
 10
158.0192070137
 20
116.8057021689
  0
LWPOLYLINE
  5
3D1
100
AcDbEntity
  8
RACCORDO
100
AcDbPolyline
 62
253
  6
CONTINUOUS
 90
16
 70
0
 10
159.4522919807
 20
116.081461988
 10
159.4718990193
 20
116.0725997418
 10
159.4931848805
 20
116.0647725608
 10
159.515898693
 20
116.0580550976
 10
159.5397611648
 20
116.052507294
 10
159.5645164012
 20
116.0481737394
 10
159.5899407959
 20
116.0450922818
 10
159.6157434952
 20
116.0432868608
 10
159.6416591987
 20
116.0427665756
 10
159.6675038675
 20
116.0435480987
 10
159.6930181666
 20
116.0456282359
 10
159.7178979487
 20
116.0489890757
 10
159.7418899266
 20
116.0536221249
 10
159.7647260963
 20
116.0594913472
 10
159.786129993
 20
116.0665286963
 10
159.8058453713
 20
116.0746595496
  0
LWPOLYLINE
  5
3D2
100
AcDbEntity
  8
RACCORDO
100
AcDbPolyline
 62
253
  6
CONTINUOUS
 90
7
 70
0
 10
159.3084024814
 20
115.8363385376
 10
159.3349868585
 20
115.8241333145
 10
159.3628233665
 20
115.8131116593
 10
159.3919120057
 20
115.8032735719
 10
159.4222527758
 20
115.7946190522
 10
159.4538456771
 20
115.7871481003
 10
159.4866907094
 20
115.7808607162
  0
LINE
  5
3D3
100
AcDbEntity
  8
DRAFT
100
AcDbLine
 62
7
  6
CONTINUOUS
 10
159.5288697806
 20
113.8317072097
 11
160.059682986
 21
113.566300607
  0
LINE
  5
3D4
100
AcDbEntity
  8
26814000
100
AcDbLine
 62
7
  6
CONTINUOUS
 10
127.5971314882
 20
130.7565957263
 11
143.3656127087
 21
122.8723551161
  0
LINE
  5
3D5
100
AcDbEntity
  8
RACCORDO
100
AcDbLine
 62
7
  6
CONTINUOUS
 10
143.4071139453
 20
122.8868647884
 11
159.0418531145
 21
115.0694952038
  0
LINE
  5
3D6
100
AcDbEntity
  8
DRAFT
100
AcDbLine
 62
7
  6
CONTINUOUS
 10
143.8976152398
 20
122.8774702523
 11
159.5920408916
 21
115.0302574264
  0
LINE
  5
3D7
100
AcDbEntity
  8
26814000
100
AcDbLine
 62
7
  6
CONTINUOUS
 10
143.1181253353
 20
123.3236147413
 11
127.8446188616
 21
130.9603679781
  0
LINE
  5
3D8
100
AcDbEntity
  8
RACCORDO
100
AcDbLine
 62
7
  6
CONTINUOUS
 10
159.2383259409
 20
115.6661951114
 11
144.2513301905
 21
123.1596929866
  0
LINE
  5
3D9
100
AcDbEntity
  8
RACCORDO
100
AcDbLine
 62
253
  6
CONTINUOUS
 10
145.944084317
 20
122.5184976198
 11
144.6005814328
 21
123.1902490619
  0
LINE
  5
3DA
100
AcDbEntity
  8
RACCORDO
100
AcDbLine
 62
253
  6
CONTINUOUS
 10
157.9648995972
 20
116.5080899797
 11
159.3084024814
 21
115.8363385376
  0
LINE
  5
3DB
100
AcDbEntity
  8
26814000
100
AcDbLine
 62
7
  6
CONTINUOUS
 10
143.6776400198
 20
123.7585218694
 11
142.0636359038
 21
124.5655239274
  0
LINE
  5
3DC
100
AcDbEntity
  8
26814000
100
AcDbLine
 62
7
  6
CONTINUOUS
 10
130.3133218554
 20
130.4406809516
 11
128.6993177394
 21
131.2476830096
  0
LINE
  5
3DD
100
AcDbEntity
  8
RACCORDO
100
AcDbLine
 62
253
  6
CONTINUOUS
 10
146.0879738162
 20
122.7636210702
 11
144.744470932
 21
123.4353725123
  0
LINE
  5
3DE
100
AcDbEntity
  8
RACCORDO
100
AcDbLine
 62
253
  6
CONTINUOUS
 10
158.1087890964
 20
116.7532134301
 11
159.4522919807
 21
116.081461988
  0
LWPOLYLINE
  5
3DF
100
AcDbEntity
  8
RACCORDO
100
AcDbPolyline
 62
253
  6
CONTINUOUS
 90
7
 70
0
 10
144.6005814328
 20
123.1902490619
 10
144.5762177041
 20
123.2035170263
 10
144.5543020451
 20
123.2173697222
 10
144.5348344557
 20
123.2318071499
 10
144.517814936
 20
123.2468293091
 10
144.5032434859
 20
123.2624362
 10
144.4911201054
 20
123.2786278226
  0
LWPOLYLINE
  5
3E0
100
AcDbEntity
  8
RACCORDO
100
AcDbPolyline
 62
253
  6
CONTINUOUS
 90
8
 70
0
 10
144.744470932
 20
123.4353725123
 10
144.7267864777
 20
123.4451612239
 10
144.711324702
 20
123.4557228254
 10
144.6982355335
 20
123.4669306958
 10
144.6876443892
 20
123.4786427851
 10
144.6796362122
 20
123.490731378
 10
144.6742670729
 20
123.5030866418
 10
144.6715810088
 20
123.5155581655
  0
LWPOLYLINE
  5
3E1
100
AcDbEntity
  8
RACCORDO
100
AcDbPolyline
 62
253
  6
CONTINUOUS
 90
9
 70
0
 10
144.1023374762
 20
123.9985041169
 10
144.0926765692
 20
124.0040744864
 10
144.078519633
 20
124.0154286918
 10
144.0661963011
 20
124.0296328872
 10
144.0559009861
 20
124.0464756113
 10
144.0478104175
 20
124.0656225753
 10
144.0420087281
 20
124.0867417166
 10
144.0385231161
 20
124.1095509153
 10
144.0373641508
 20
124.1337225815
  0
LWPOLYLINE
  5
3E2
100
AcDbEntity
  8
RACCORDO
100
AcDbPolyline
 62
253
  6
CONTINUOUS
 90
9
 70
0
 10
145.4458403604
 20
123.3267526748
 10
145.4361794534
 20
123.3323230443
 10
145.4220225173
 20
123.3436772497
 10
145.4096991853
 20
123.357881445
 10
145.3994038704
 20
123.3747241692
 10
145.3913133018
 20
123.3938711331
 10
145.3855116124
 20
123.4149902745
 10
145.3820260004
 20
123.4377994732
 10
145.3808670351
 20
123.4619711394
  0
LWPOLYLINE
  5
3E3
100
AcDbEntity
  8
RACCORDO
100
AcDbPolyline
 62
7
  6
CONTINUOUS
 90
4
 70
0
 10
147.2337495452
 20
123.1355756771
 10
147.2341397998
 20
123.1351776595
 10
147.2340112267
 20
123.135380216
 10
147.2319394778
 20
123.1384716434
  0
LINE
  5
3E4
100
AcDbEntity
  8
21814000
100
AcDbLine
 62
253
  6
CONTINUOUS
 10
150.6062486859
 20
130.8608511025
 11
151.0208261976
 21
129.7852725623
  0
LINE
  5
3E5
100
AcDbEntity
  8
0
100
AcDbLine
 62
7
  6
CONTINUOUS
 10
152.1655305258
 20
128.2852075144
 11
151.9640311679
 21
128.8809319402
  0
LWPOLYLINE
  5
3E6
100
AcDbEntity
  8
RACCORDO
100
AcDbPolyline
 62
253
  6
CONTINUOUS
 90
7
 70
0
 10
157.3284590105
 20
117.8912658312
 10
157.3307607548
 20
117.8743426535
 10
157.337365515
 20
117.8581979856
 10
157.3480716993
 20
117.842733132
 10
157.3625731523
 20
117.8282315105
 10
157.3805670952
 20
117.8148806276
 10
157.4016823152
 20
117.8028774714
  0
LINE
  5
3E7
100
AcDbEntity
  8
RACCORDO
100
AcDbLine
 62
7
  6
CONTINUOUS
 10
161.7503890195
 20
78.1516398682
 11
161.7503890195
 21
116.0529237549
  0
LINE
  5
3E8
100
AcDbEntity
  8
RACCORDO
100
AcDbLine
 62
7
  6
CONTINUOUS
 10
161.894584213
 20
122.1583235913
 11
161.894584213
 21
121.2579684907
  0
LWPOLYLINE
  5
3E9
100
AcDbEntity
  8
RACCORDO
100
AcDbPolyline
 62
253
  6
CONTINUOUS
 90
10
 70
0
 10
161.1122873774
 20
77.830128829
 10
161.1110400692
 20
77.7861672365
 10
161.105999559
 20
77.7446585465
 10
161.0972210922
 20
77.7060577113
 10
161.0848008843
 20
77.6707878119
 10
161.0688750653
 20
77.6392354209
 10
161.0496181884
 20
77.6117463655
 10
161.0272413167
 20
77.588621937
 10
161.0019897096
 20
77.5701155885
 10
160.9899409006
 20
77.5634407193
  0
LWPOLYLINE
  5
3EA
100
AcDbEntity
  8
RACCORDO
100
AcDbPolyline
 62
253
  6
CONTINUOUS
 90
8
 70
0
 10
161.2200589336
 20
76.1895541175
 10
161.218534394
 20
76.1619434615
 10
161.2139848863
 20
76.1363247305
 10
161.2064857081
 20
76.113142526
 10
161.196161921
 20
76.09279796
 10
161.1831897665
 20
76.075648891
 10
161.1677966962
 20
76.061999763
 10
161.1550602772
 20
76.0543229922
  0
LWPOLYLINE
  5
3EB
100
AcDbEntity
  8
RACCORDO
100
AcDbPolyline
 62
253
  6
CONTINUOUS
 90
3
 70
0
 10
160.5150334686
 20
77.291402131
 10
160.5134599771
 20
77.2786041733
 10
160.5129521524
 20
77.2611371267
  0
LINE
  5
3EC
100
AcDbEntity
  8
RACCORDO
100
AcDbLine
 62
253
  6
CONTINUOUS
 10
160.5840366725
 20
77.0093872726
 11
160.5861754571
 21
77.0257030466
  0
LINE
  5
3ED
100
AcDbEntity
  8
RACCORDO
100
AcDbLine
 62
253
  6
CONTINUOUS
 10
144.6624772042
 20
123.4882643473
 11
144.6491269499
 21
123.487977172
  0
LWPOLYLINE
  5
3EE
100
AcDbEntity
  8
RACCORDO
100
AcDbPolyline
 62
253
  6
CONTINUOUS
 90
4
 70
0
 10
147.2179246433
 20
123.1508927195
 10
147.2342303302
 20
123.1488885112
 10
147.2514700974
 20
123.1500141701
 10
147.2693554777
 20
123.1542508515
  0
LINE
  5
3EF
100
AcDbEntity
  8
RACCORDO
100
AcDbLine
 62
7
  6
CONTINUOUS
 10
145.5069429778
 20
123.305554598
 11
146.0372730637
 21
123.1957196409
  0
LINE
  5
3F0
100
AcDbEntity
  8
RACCORDO
100
AcDbLine
 62
253
  6
CONTINUOUS
 10
145.7344204256
 20
123.4619711394
 11
146.2647505115
 21
123.3521361823
  0
LINE
  5
3F1
100
AcDbEntity
  8
26814000
100
AcDbLine
 62
7
  6
CONTINUOUS
 10
143.6776400198
 20
124.3956914281
 11
143.0553219878
 21
124.5256320107
  0
LWPOLYLINE
  5
3F2
100
AcDbEntity
  8
RACCORDO
100
AcDbPolyline
 62
7
  6
CONTINUOUS
 90
8
 70
0
 10
159.811582753
 20
119.1755327885
 10
159.7832961578
 20
119.1875623537
 10
159.7533089567
 20
119.1961273226
 10
159.7221343738
 20
119.200924491
 10
159.6902297299
 20
119.2017434736
 10
159.6583448417
 20
119.1984684339
 10
159.627337311
 20
119.1912002067
 10
159.5973772604
 20
119.1799912217
  0
LWPOLYLINE
  5
3F3
100
AcDbEntity
  8
RACCORDO
100
AcDbPolyline
 62
7
  6
CONTINUOUS
 90
25
 70
0
 10
155.2116817731
 20
119.5688264825
 10
155.2358441343
 20
119.5575350889
 10
155.2612000188
 20
119.5471382058
 10
155.2877494268
 20
119.5376358331
 10
155.3156168198
 20
119.5289947942
 10
155.3446777363
 20
119.5212482658
 10
155.3745587912
 20
119.514495778
 10
155.4052705673
 20
119.5087501575
 10
155.4368024818
 20
119.5039985777
 10
155.4687494015
 20
119.5003020884
 10
155.5011166814
 20
119.4976743043
 10
155.5338989665
 20
119.4961016108
 10
155.5666750584
 20
119.4956042144
 10
155.599444877
 20
119.4961959904
 10
155.6322085024
 20
119.4978630635
 10
155.6645449757
 20
119.5005840146
 10
155.6964487853
 20
119.5043724425
 10
155.7279254428
 20
119.5092147485
 10
155.7585705251
 20
119.5150487167
 10
155.7883733017
 20
119.5218871433
 10
155.8173445031
 20
119.5297172322
 10
155.8451118968
 20
119.5384383797
 10
155.8715514055
 20
119.5480170511
 10
155.8967871067
 20
119.5584867811
 10
155.9208190002
 20
119.5698475696
  0
LWPOLYLINE
  5
3F4
100
AcDbEntity
  8
RACCORDO
100
AcDbPolyline
 62
253
  6
CONTINUOUS
 90
3
 70
0
 10
147.2006126365
 20
123.157054984
 10
147.2028258782
 20
123.1559932688
 10
147.2179246433
 20
123.1508927195
  0
LINE
  5
3F5
100
AcDbEntity
  8
26814000
100
AcDbLine
 62
7
  6
CONTINUOUS
 10
133.6457777362
 20
129.1317852464
 11
139.4382868042
 21
126.2355307124
  0
LINE
  5
3F6
100
AcDbEntity
  8
RACCORDO
100
AcDbLine
 62
7
  6
CONTINUOUS
 10
155.2116817731
 20
118.3715074468
 11
149.6921879207
 21
121.131254373
  0
LINE
  5
3F7
100
AcDbEntity
  8
RACCORDO
100
AcDbLine
 62
7
  6
CONTINUOUS
 10
158.8101584959
 20
116.644593607
 11
157.4666556116
 21
117.3163450492
  0
LINE
  5
3F8
100
AcDbEntity
  8
RACCORDO
100
AcDbLine
 62
7
  6
CONTINUOUS
 10
145.4458403315
 20
123.3267526893
 11
144.1023374472
 21
123.9985041314
  0
LINE
  5
3F9
100
AcDbEntity
  8
26814000
100
AcDbLine
 62
7
  6
CONTINUOUS
 10
128.0609195311
 20
132.0192130894
 11
129.6674530942
 21
131.2159463079
  0
LINE
  5
3FA
100
AcDbEntity
  8
26814000
100
AcDbLine
 62
7
  6
CONTINUOUS
 10
141.4252376955
 20
125.3370540072
 11
143.0317712586
 21
124.5337872257
  0
LINE
  5
3FB
100
AcDbEntity
  8
RACCORDO
100
AcDbLine
 62
253
  6
CONTINUOUS
 10
145.6793107485
 20
123.2698560638
 11
146.0879738162
 21
123.0655245299
  0
LINE
  5
3FC
100
AcDbEntity
  8
RACCORDO
100
AcDbLine
 62
253
  6
CONTINUOUS
 10
159.043628913
 20
116.5876969816
 11
159.4522919807
 21
116.3833654477
  0
LINE
  5
3FD
100
AcDbEntity
  8
RACCORDO
100
AcDbLine
 62
253
  6
CONTINUOUS
 10
158.7451851995
 20
116.7798120571
 11
157.4016823152
 21
117.4515634993
  0
LINE
  5
3FE
100
AcDbEntity
  8
RACCORDO
100
AcDbLine
 62
253
  6
CONTINUOUS
 10
145.3808670351
 20
123.4619711394
 11
144.0373641508
 21
124.1337225815
  0
LINE
  5
3FF
100
AcDbEntity
  8
26814000
100
AcDbLine
 62
253
  6
CONTINUOUS
 10
127.9963247851
 20
132.1542422643
 11
129.6021012473
 21
131.3513540332
  0
LINE
  5
400
100
AcDbEntity
  8
26814000
100
AcDbLine
 62
253
  6
CONTINUOUS
 10
141.3606429496
 20
125.4720831821
 11
142.9664194117
 21
124.669194951
  0
LINE
  5
401
100
AcDbEntity
  8
26814000
100
AcDbLine
 62
253
  6
CONTINUOUS
 10
142.9664194117
 20
124.9225663448
 11
141.3606429496
 21
125.7254545758
  0
LINE
  5
402
100
AcDbEntity
  8
26814000
100
AcDbLine
 62
253
  6
CONTINUOUS
 10
129.6021012473
 20
131.604725427
 11
127.9963247851
 21
132.4076136581
  0
LINE
  5
403
100
AcDbEntity
  8
RACCORDO
100
AcDbLine
 62
253
  6
CONTINUOUS
 10
144.0373641508
 20
124.4850365536
 11
145.3808670351
 21
123.8132851114
  0
LINE
  5
404
100
AcDbEntity
  8
RACCORDO
100
AcDbLine
 62
253
  6
CONTINUOUS
 10
157.4016823152
 20
117.8028774714
 11
158.7451851995
 21
117.1311260292
  0
LINE
  5
405
100
AcDbEntity
  8
26814000
100
AcDbLine
 62
7
  6
CONTINUOUS
 10
131.3801527676
 20
130.9792622011
 11
133.5579097705
 21
129.8903836997
  0
LINE
  5
406
100
AcDbEntity
  8
26814000
100
AcDbLine
 62
7
  6
CONTINUOUS
 10
140.3604088886
 20
126.4891341406
 11
141.4415308398
 21
125.948573165
  0
LINE
  5
407
100
AcDbEntity
  8
26814000
100
AcDbLine
 62
253
  6
CONTINUOUS
 10
143.1431901412
 20
125.226431923
 11
141.5353687321
 21
126.0303426275
  0
LINE
  5
408
100
AcDbEntity
  8
26814000
100
AcDbLine
 62
253
  6
CONTINUOUS
 10
129.7788719767
 20
131.9085910052
 11
128.1710505677
 21
132.7125017097
  0
LINE
  5
409
100
AcDbEntity
  8
RACCORDO
100
AcDbLine
 62
253
  6
CONTINUOUS
 10
160.6519053657
 20
116.4793685734
 11
160.5923570076
 21
116.5091427524
  0
LINE
  5
40A
100
AcDbEntity
  8
RACCORDO
100
AcDbLine
 62
253
  6
CONTINUOUS
 10
147.2280206416
 20
123.1913109354
 11
147.2875872013
 21
123.1615276556
  0
LINE
  5
40B
100
AcDbEntity
  8
RACCORDO
100
AcDbLine
 62
253
  6
CONTINUOUS
 10
144.2141408461
 20
124.7899312522
 11
145.5576437303
 21
124.11817981
  0
LINE
  5
40C
100
AcDbEntity
  8
RACCORDO
100
AcDbLine
 62
253
  6
CONTINUOUS
 10
157.5784590105
 20
118.1077721699
 11
158.9219618948
 21
117.4360207278
  0
LINE
  5
40D
100
AcDbEntity
  8
26814000
100
AcDbLine
 62
7
  6
CONTINUOUS
 10
133.6457777362
 20
130.3467401125
 11
139.4382868042
 21
127.4504855785
  0
LINE
  5
40E
100
AcDbEntity
  8
RACCORDO
100
AcDbLine
 62
7
  6
CONTINUOUS
 10
155.2116817731
 20
119.5688264825
 11
149.6921879207
 21
122.3285734087
  0
LINE
  5
40F
100
AcDbEntity
  8
RACCORDO
100
AcDbLine
 62
7
  6
CONTINUOUS
 10
147.2812013642
 20
123.7207281543
 11
148.6919263119
 21
123.0153656805
  0
LINE
  5
410
100
AcDbEntity
  8
RACCORDO
100
AcDbLine
 62
7
  6
CONTINUOUS
 10
160.6455195287
 20
117.0385690721
 11
161.3966740688
 21
116.662991802
  0
LINE
  5
411
100
AcDbEntity
  8
26814000
100
AcDbLine
 62
7
  6
CONTINUOUS
 10
132.9114268846
 20
130.9131742346
 11
131.4289488812
 21
131.6544132363
  0
LINE
  5
412
100
AcDbEntity
  8
26814000
100
AcDbLine
 62
7
  6
CONTINUOUS
 10
134.1378692142
 20
130.8128395431
 11
140.3604088886
 21
127.7015697059
  0
LINE
  5
413
100
AcDbEntity
  8
26814000
100
AcDbLine
 62
7
  6
CONTINUOUS
 10
129.7538071708
 20
133.5244858071
 11
131.3801527676
 21
132.7113130087
  0
LINE
  5
414
100
AcDbEntity
  8
26814000
100
AcDbLine
 62
7
  6
CONTINUOUS
 10
143.1181253353
 20
126.8423267249
 11
144.744470932
 21
126.0291539265
  0
LINE
  5
415
100
AcDbEntity
  8
26814000
100
AcDbLine
 62
7
  6
CONTINUOUS
 10
135.4813720984
 20
130.8431564938
 11
140.4311195667
 21
128.3682827596
  0
LINE
  5
416
100
AcDbEntity
  8
0
100
AcDbLine
 62
7
  6
CONTINUOUS
 10
156.3410221434
 20
120.4183698597
 11
151.3912746751
 21
122.8932435938
  0
LINE
  5
417
100
AcDbEntity
  8
RACCORDO
100
AcDbLine
 62
253
  6
CONTINUOUS
 10
158.0911494883
 20
116.7629745073
 11
158.1087890964
 21
116.7532134301
  0
LWPOLYLINE
  5
418
100
AcDbEntity
  8
RACCORDO
100
AcDbPolyline
 62
253
  6
CONTINUOUS
 90
16
 70
0
 10
147.2875872013
 20
123.1615276556
 10
147.3197853922
 20
123.1434760214
 10
147.3475290375
 20
123.124448754
 10
147.3708181372
 20
123.1044458533
 10
147.3897669969
 20
123.0832333293
 10
147.4042613109
 20
123.0610451721
 10
147.4139581626
 20
123.0385833518
 10
147.4187414558
 20
123.0158630216
 10
147.4187272867
 20
122.9928690282
 10
147.4139210273
 20
122.9702578821
 10
147.4042086581
 20
122.9480192266
 10
147.3897041986
 20
122.9261634185
 10
147.3707550801
 20
122.9053780379
 10
147.3474771129
 20
122.8858922784
 10
147.3197544866
 20
122.8674769466
 10
147.2875872013
 20
122.8501320424
  0
LWPOLYLINE
  5
419
100
AcDbEntity
  8
21814000
100
AcDbPolyline
 62
253
  6
CONTINUOUS
 90
15
 70
0
 10
140.6299200011
 20
129.3299227884
 10
140.6635019776
 20
129.3106796625
 10
140.6928185656
 20
129.2890562596
 10
140.7178697653
 20
129.2650525799
 10
140.7388589574
 20
129.2384202312
 10
140.7555827611
 20
129.2094076056
 10
140.7674310342
 20
129.1787598792
 10
140.7742878278
 20
129.1463999315
 10
140.7762690909
 20
129.112404883
 10
140.773112528
 20
129.0777512708
 10
140.7646497888
 20
129.0423851822
 10
140.7510492236
 20
129.0063605298
 10
140.7325535889
 20
128.9708155888
 10
140.7092438033
 20
128.9361297843
 10
140.6810389481
 20
128.9019236913
  0
LWPOLYLINE
  5
41A
100
AcDbEntity
  8
RACCORDO
100
AcDbPolyline
 62
253
  6
CONTINUOUS
 90
9
 70
0
 10
157.4666556406
 20
117.3163450347
 10
157.4569947336
 20
117.3219154042
 10
157.4428377974
 20
117.3332696096
 10
157.4305144655
 20
117.347473805
 10
157.4202191506
 20
117.3643165291
 10
157.412128582
 20
117.3834634931
 10
157.4063268926
 20
117.4045826344
 10
157.4028412805
 20
117.4273918331
 10
157.4016823152
 20
117.4515634993
  0
LWPOLYLINE
  5
41B
100
AcDbEntity
  8
RACCORDO
100
AcDbPolyline
 62
253
  6
CONTINUOUS
 90
9
 70
0
 10
158.8101585249
 20
116.6445935926
 10
158.8004976179
 20
116.650163962
 10
158.7863406817
 20
116.6615181675
 10
158.7740173497
 20
116.6757223628
 10
158.7637220348
 20
116.692565087
 10
158.7556314662
 20
116.7117120509
 10
158.7498297768
 20
116.7328311922
 10
158.7463441648
 20
116.755640391
 10
158.7451851995
 20
116.7798120571
  0
LWPOLYLINE
  5
41C
100
AcDbEntity
  8
RACCORDO
100
AcDbPolyline
 62
253
  6
CONTINUOUS
 90
13
 70
0
 10
158.9219618948
 20
117.4360207278
 10
158.944522661
 20
117.4229699193
 10
158.9668705154
 20
117.4064635615
 10
158.9886228634
 20
117.386706891
 10
159.0094408091
 20
117.3639135902
 10
159.0288878571
 20
117.33846154
 10
159.0464763526
 20
117.3109426212
 10
159.061869423
 20
117.2819004228
 10
159.0748415775
 20
117.2517791993
 10
159.0851653645
 20
117.2211108462
 10
159.0926645427
 20
117.1904294635
 10
159.0972140504
 20
117.1602612248
 10
159.0987385901
 20
117.1311260292
  0
LWPOLYLINE
  5
41D
100
AcDbEntity
  8
RACCORDO
100
AcDbPolyline
 62
253
  6
CONTINUOUS
 90
13
 70
0
 10
145.5576437303
 20
124.11817981
 10
145.5807177193
 20
124.1047905737
 10
145.6033969058
 20
124.0879259473
 10
145.6252932429
 20
124.0678744891
 10
145.646032078
 20
124.0449792853
 10
145.665258564
 20
124.019632079
 10
145.6826437303
 20
123.992266568
 10
145.697890112
 20
123.9633509838
 10
145.7107368393
 20
123.9333800801
 10
145.720964101
 20
123.9028666673
 10
145.7283969058
 20
123.8723328384
 10
145.7329080765
 20
123.8423010356
 10
145.7344204256
 20
123.8132851114
  0
LWPOLYLINE
  5
41E
100
AcDbEntity
  8
RACCORDO
100
AcDbPolyline
 62
253
  6
CONTINUOUS
 90
13
 70
0
 10
147.6789640739
 20
125.1788399818
 10
147.7020380628
 20
125.1654507455
 10
147.7247172494
 20
125.1485861191
 10
147.7466135864
 20
125.1285346609
 10
147.7673524216
 20
125.105639457
 10
147.7865789076
 20
125.0802922508
 10
147.8039640739
 20
125.0529267398
 10
147.8192104556
 20
125.0240111556
 10
147.8320571828
 20
124.9940402519
 10
147.8422844445
 20
124.9635268391
 10
147.8497172494
 20
124.9329930101
 10
147.8542284201
 20
124.9029612074
 10
147.8557407692
 20
124.8739452832
  0
LWPOLYLINE
  5
41F
100
AcDbEntity
  8
RACCORDO
100
AcDbPolyline
 62
253
  6
CONTINUOUS
 90
16
 70
0
 10
159.4866874057
 20
115.7808591884
 10
159.5229868775
 20
115.7596739499
 10
159.5588133422
 20
115.7339411674
 10
159.5937742707
 20
115.7039445633
 10
159.6274847294
 20
115.6700154462
 10
159.6595779733
 20
115.632526223
 10
159.6897087773
 20
115.5918849594
 10
159.7175487793
 20
115.5485355249
 10
159.7427909122
 20
115.5029540596
 10
159.7651586588
 20
115.4556400147
 10
159.7844068706
 20
115.4071117921
 10
159.8003245924
 20
115.3579011132
 10
159.8127374815
 20
115.3085472199
 10
159.8215095047
 20
115.2595908962
 10
159.826544433
 20
115.2115685426
 10
159.8277870283
 20
115.1650063453
  0
LWPOLYLINE
  5
420
100
AcDbEntity
  8
RACCORDO
100
AcDbPolyline
 62
253
  6
CONTINUOUS
 90
16
 70
0
 10
160.7711289561
 20
116.3740933576
 10
160.8074081092
 20
116.3529161154
 10
160.8432219875
 20
116.3271918989
 10
160.8781780563
 20
116.2972026563
 10
160.9118931829
 20
116.2632770824
 10
160.9439978361
 20
116.2257870159
 10
160.9741401358
 20
116.1851433637
 10
161.0019897103
 20
116.1417915974
 10
161.0272413171
 20
116.0962068706
 10
161.0496181885
 20
116.0488888112
 10
161.0688750651
 20
116.0003560449
 10
161.0848008839
 20
115.9511405114
 10
161.0972210919
 20
115.9017816335
 10
161.1059995586
 20
115.8528204054
 10
161.1110400691
 20
115.8047934628
 10
161.1122873774
 20
115.758227201
  0
LWPOLYLINE
  5
421
100
AcDbEntity
  8
21814000
100
AcDbPolyline
 62
253
  6
CONTINUOUS
 90
9
 70
0
 10
140.5274796536
 20
129.112207205
 10
140.54736083
 20
129.1005932142
 10
140.5650225618
 20
129.0868487321
 10
140.5802741367
 20
129.0710840468
 10
140.5929387205
 20
129.0533902843
 10
140.6028824163
 20
129.0339259993
 10
140.6099970294
 20
129.0129126473
 10
140.6141734461
 20
128.9904480341
 10
140.6153475829
 20
128.9698462831
  0
LWPOLYLINE
  5
422
100
AcDbEntity
  8
21814000
100
AcDbPolyline
 62
253
  6
CONTINUOUS
 90
13
 70
0
 10
139.1833957087
 20
129.6004689669
 10
139.2011066444
 20
129.5893470909
 10
139.2191747578
 20
129.5759426029
 10
139.2372965191
 20
129.5604807349
 10
139.2551675045
 20
129.5432212754
 10
139.2724875241
 20
129.5244541912
 10
139.2889656626
 20
129.5044947505
 10
139.3043251327
 20
129.4836782664
 10
139.3183079696
 20
129.4623544076
 10
139.3306793623
 20
129.4408813059
 10
139.3412315362
 20
129.4196196299
 10
139.3497872568
 20
129.3989265306
 10
139.3562028403
 20
129.3791495803
  0
LWPOLYLINE
  5
423
100
AcDbEntity
  8
RACCORDO
100
AcDbPolyline
 62
253
  6
CONTINUOUS
 90
13
 70
0
 10
159.8965511119
 20
115.864265091
 10
159.8834027311
 20
115.8777978171
 10
159.8709129755
 20
115.8926376703
 10
159.8592113996
 20
115.9086316949
 10
159.8484189647
 20
115.9256157735
 10
159.838648489
 20
115.9434136827
 10
159.8300029166
 20
115.9618385237
 10
159.8225721384
 20
115.9806984922
 10
159.816432624
 20
115.999799228
 10
159.8116479506
 20
116.018942935
 10
159.8082676654
 20
116.0379313723
 10
159.8063267727
 20
116.0565679069
 10
159.8058453713
 20
116.0746595496
  0
LWPOLYLINE
  5
424
100
AcDbEntity
  8
RACCORDO
100
AcDbPolyline
 62
253
  6
CONTINUOUS
 90
13
 70
0
 10
159.8965511119
 20
115.864265091
 10
159.9287747993
 20
115.8300909764
 10
159.9593512594
 20
115.792653382
 10
159.9879637477
 20
115.7523401272
 10
160.0143158649
 20
115.7095688207
 10
160.0381346271
 20
115.6647825344
 10
160.0591732934
 20
115.6184452135
 10
160.0772139224
 20
115.5710368705
 10
160.0920696297
 20
115.5230486129
 10
160.1035865234
 20
115.4749775553
 10
160.1116452992
 20
115.4273216703
 10
160.1161624754
 20
115.3805746294
 10
160.1170912582
 20
115.3352206897
  0
LWPOLYLINE
  5
425
100
AcDbEntity
  8
26814000
100
AcDbPolyline
 62
7
  6
CONTINUOUS
 90
20
 70
0
 10
150.6148985379
 20
127.8627043073
 10
150.6134983863
 20
127.864835372
 10
150.61175196
 20
127.8671438194
 10
150.6096703501
 20
127.8696334585
 10
150.6072653856
 20
127.8723109013
 10
150.6045452938
 20
127.8751461173
 10
150.6015203625
 20
127.8781426436
 10
150.5982018612
 20
127.8813057218
 10
150.5945977042
 20
127.8846077143
 10
150.5907178474
 20
127.888051697
 10
150.5865731759
 20
127.8916419414
 10
150.5821719431
 20
127.895352441
 10
150.5775236046
 20
127.8991860328
 10
150.5726391507
 20
127.9031459065
 10
150.5675287623
 20
127.9072063268
 10
150.5622018872
 20
127.911369542
 10
150.5566696839
 20
127.9156379135
 10
150.5509452127
 20
127.919985413
 10
150.5450400293
 20
127.9244042952
 10
150.5327269776
 20
127.9334893847
  0
LINE
  5
426
100
AcDbEntity
  8
21814000
100
AcDbLine
 62
7
  6
CONTINUOUS
 10
151.9514227013
 20
126.0564389359
 11
151.1987286174
 21
127.3546441969
  0
LINE
  5
427
100
AcDbEntity
  8
RACCORDO
100
AcDbLine
 62
7
  6
CONTINUOUS
 10
165.9489991022
 20
119.4271623946
 11
165.9489991022
 21
118.5321995311
  0
LINE
  5
428
100
AcDbEntity
  8
RACCORDO
100
AcDbLine
 62
7
  6
CONTINUOUS
 10
165.9489991022
 20
85.6158896331
 11
165.9489991022
 21
83.974113643
  0
LWPOLYLINE
  5
429
100
AcDbEntity
  8
RACCORDO
100
AcDbPolyline
 62
7
  6
CONTINUOUS
 90
8
 70
0
 10
165.9489991022
 20
118.5321995311
 10
165.9460758104
 20
118.4799695707
 10
165.9389296079
 20
118.4323832536
 10
165.9275604947
 20
118.38944058
 10
165.9116965502
 20
118.3508448776
 10
165.891609695
 20
118.3168928187
 10
165.8681156904
 20
118.2884744193
 10
165.8633108753
 20
118.2837638319
  0
LWPOLYLINE
  5
42A
100
AcDbEntity
  8
RACCORDO
100
AcDbPolyline
 62
253
  6
CONTINUOUS
 90
7
 70
0
 10
161.29328208
 20
76.2778017726
 10
161.291244769
 20
76.2620162022
 10
161.2849189073
 20
76.2458811169
 10
161.2744167574
 20
76.2303062549
 10
161.2599262182
 20
76.2155618071
 10
161.2417007909
 20
76.2018995857
 10
161.2200589336
 20
76.1895541175
  0
LWPOLYLINE
  5
42B
100
AcDbEntity
  8
RACCORDO
100
AcDbPolyline
 62
253
  6
CONTINUOUS
 90
7
 70
0
 10
161.2932822383
 20
76.6292564372
 10
161.2911434537
 20
76.6129406632
 10
161.2847636949
 20
76.5969040566
 10
161.2742521215
 20
76.5814210081
 10
161.2597885893
 20
76.5667564372
 10
161.2416205734
 20
76.5531612586
 10
161.2200589336
 20
76.5408680895
  0
LWPOLYLINE
  5
42C
100
AcDbEntity
  8
21814000
100
AcDbPolyline
 62
253
  6
CONTINUOUS
 90
8
 70
0
 10
140.6479390233
 20
128.8681973096
 10
140.6291143502
 20
128.8753433702
 10
140.6112606899
 20
128.8799000219
 10
140.5946779458
 20
128.8817907227
 10
140.579644673
 20
128.8809837128
 10
140.5664133984
 20
128.8774925483
 10
140.5552063793
 20
128.8713758732
 10
140.5511386523
 20
128.8680370698
  0
LWPOLYLINE
  5
42D
100
AcDbEntity
  8
RACCORDO
100
AcDbPolyline
 62
253
  6
CONTINUOUS
 90
7
 70
0
 10
147.7905829707
 20
125.1860324262
 10
147.7858900363
 20
125.1882067564
 10
147.7664429882
 20
125.1942117585
 10
147.7456250425
 20
125.1961871136
 10
147.7238726945
 20
125.1941914361
 10
147.7015248402
 20
125.1883499396
 10
147.6789640739
 20
125.1788399818
  0
LWPOLYLINE
  5
42E
100
AcDbEntity
  8
RACCORDO
100
AcDbPolyline
 62
253
  6
CONTINUOUS
 90
7
 70
0
 10
146.4472392285
 20
125.8577045459
 10
146.442387152
 20
125.8599581985
 10
146.422940104
 20
125.8659632006
 10
146.4021221583
 20
125.8679385557
 10
146.3803698102
 20
125.8659428782
 10
146.3580219559
 20
125.8601013817
 10
146.3354611897
 20
125.8505914239
  0
LINE
  5
42F
100
AcDbEntity
  8
21814000
100
AcDbLine
 62
253
  6
CONTINUOUS
 10
140.2128447027
 20
130.4343452058
 11
140.2162855321
 21
130.4327319389
  0
LWPOLYLINE
  5
430
100
AcDbEntity
  8
RACCORDO
100
AcDbPolyline
 62
253
  6
CONTINUOUS
 90
7
 70
0
 10
161.1550856372
 20
118.5037813464
 10
161.150897072
 20
118.5057480022
 10
161.131670586
 20
118.5118687225
 10
161.1109317509
 20
118.5140250912
 10
161.0890354138
 20
118.5121802123
 10
161.0663562272
 20
118.5063656522
 10
161.0432822383
 20
118.4966808996
  0
LWPOLYLINE
  5
431
100
AcDbEntity
  8
RACCORDO
100
AcDbPolyline
 62
253
  6
CONTINUOUS
 90
7
 70
0
 10
159.811582753
 20
119.1755327885
 10
159.8073941877
 20
119.1774994443
 10
159.7881677017
 20
119.1836201646
 10
159.7674288666
 20
119.1857765333
 10
159.7455325296
 20
119.1839316545
 10
159.722853343
 20
119.1781170943
 10
159.6997793541
 20
119.1684323417
  0
LINE
  5
432
100
AcDbEntity
  8
RACCORDO
100
AcDbLine
 62
7
  6
CONTINUOUS
 10
146.4378632833
 20
125.8621503039
 11
146.4474262187
 21
125.8576108607
  0
LINE
  5
433
100
AcDbEntity
  8
26814000
100
AcDbLine
 62
253
  6
CONTINUOUS
 10
130.2882570495
 20
133.7848332736
 11
131.9084199393
 21
132.9747518288
  0
LINE
  5
434
100
AcDbEntity
  8
26814000
100
AcDbLine
 62
253
  6
CONTINUOUS
 10
143.6525752139
 20
127.1026741914
 11
145.2727381037
 21
126.2925927465
  0
LINE
  5
435
100
AcDbEntity
  8
26814000
100
AcDbLine
 62
7
  6
CONTINUOUS
 10
130.3996746649
 20
133.7911018369
 11
132.0185522431
 21
132.9816630478
  0
LINE
  5
436
100
AcDbEntity
  8
26814000
100
AcDbLine
 62
7
  6
CONTINUOUS
 10
143.7639928293
 20
127.1089427546
 11
145.3828704075
 21
126.2995039655
  0
LINE
  5
437
100
AcDbEntity
  8
RACCORDO
100
AcDbLine
 62
253
  6
CONTINUOUS
 10
146.3354611897
 20
125.8505914239
 11
147.6789640739
 21
125.1788399818
  0
LINE
  5
438
100
AcDbEntity
  8
RACCORDO
100
AcDbLine
 62
253
  6
CONTINUOUS
 10
159.6997793541
 20
119.1684323417
 11
161.0432822383
 21
118.4966808996
  0
LINE
  5
439
100
AcDbEntity
  8
RACCORDO
100
AcDbLine
 62
7
  6
CONTINUOUS
 10
146.4472645885
 20
125.8576918707
 11
147.7907674728
 21
125.1859404286
  0
LINE
  5
43A
100
AcDbEntity
  8
RACCORDO
100
AcDbLine
 62
7
  6
CONTINUOUS
 10
159.811582753
 20
119.1755327885
 11
161.1550856372
 21
118.5037813464
  0
LINE
  5
43B
100
AcDbEntity
  8
21814000
100
AcDbLine
 62
253
  6
CONTINUOUS
 10
139.7690740549
 20
129.4914100043
 11
140.5274796536
 21
129.112207205
  0
LINE
  5
43C
100
AcDbEntity
  8
21814000
100
AcDbLine
 62
253
  6
CONTINUOUS
 10
139.8715144025
 20
129.7091255878
 11
140.6299200011
 21
129.3299227884
  0
LINE
  5
43D
100
AcDbEntity
  8
21814000
100
AcDbLine
 62
7
  6
CONTINUOUS
 10
139.1583273614
 20
130.3094769691
 11
141.7452815471
 21
129.0159998762
  0
LINE
  5
43E
100
AcDbEntity
  8
21814000
100
AcDbLine
 62
253
  6
CONTINUOUS
 10
142.3526692635
 20
129.31536588
 11
140.1280697735
 21
130.427665625
  0
LINE
  5
43F
100
AcDbEntity
  8
21814000
100
AcDbLine
 62
7
  6
CONTINUOUS
 10
142.4021963554
 20
129.3397765277
 11
140.2162783741
 21
130.4327355184
  0
LINE
  5
440
100
AcDbEntity
  8
26814000
100
AcDbLine
 62
7
  6
CONTINUOUS
 10
142.9487953115
 20
129.609181293
 11
140.1482768543
 21
131.0094405216
  0
LINE
  5
441
100
AcDbEntity
  8
26814000
100
AcDbLine
 62
7
  6
CONTINUOUS
 10
139.7947234637
 20
131.7387754062
 11
140.1482768543
 21
131.5619987109
  0
LWPOLYLINE
  5
442
100
AcDbEntity
  8
RACCORDO
100
AcDbPolyline
 62
7
  6
CONTINUOUS
 90
10
 70
0
 10
147.7905829707
 20
125.1860324262
 10
147.801975703
 20
125.1799757532
 10
147.8290613439
 20
125.1622606414
 10
147.853692277
 20
125.1411353322
 10
147.8754437768
 20
125.1169160565
 10
147.8939516527
 20
125.0899280703
 10
147.9088558306
 20
125.0605669256
 10
147.919816106
 20
125.0293432573
 10
147.9265740338
 20
124.9968199728
 10
147.9289639156
 20
124.9624743234
  0
LWPOLYLINE
  5
443
100
AcDbEntity
  8
RACCORDO
100
AcDbPolyline
 62
253
  6
CONTINUOUS
 90
13
 70
0
 10
161.0432822383
 20
118.4966808996
 10
161.0658430046
 20
118.4836300911
 10
161.0881908589
 20
118.4671237333
 10
161.1099432069
 20
118.4473670628
 10
161.1307611526
 20
118.424573762
 10
161.1502082007
 20
118.3991217118
 10
161.1677966962
 20
118.3716027929
 10
161.1831897665
 20
118.3425605946
 10
161.196161921
 20
118.3124393711
 10
161.2064857081
 20
118.281771018
 10
161.2139848863
 20
118.2510896353
 10
161.218534394
 20
118.2209213966
 10
161.2200589336
 20
118.191786201
  0
LWPOLYLINE
  5
444
100
AcDbEntity
  8
RACCORDO
100
AcDbPolyline
 62
7
  6
CONTINUOUS
 90
10
 70
0
 10
161.1550856372
 20
118.5037813464
 10
161.1834204075
 20
118.4872029797
 10
161.2097518365
 20
118.4666886976
 10
161.2333846405
 20
118.4425354944
 10
161.2536573723
 20
118.4152385676
 10
161.2700862035
 20
118.3853407102
 10
161.2823485299
 20
118.3532998401
 10
161.2901744599
 20
118.3194703505
 10
161.2932380432
 20
118.2848751474
 10
161.2932822346
 20
118.280196105
  0
LWPOLYLINE
  5
445
100
AcDbEntity
  8
RACCORDO
100
AcDbPolyline
 62
253
  6
CONTINUOUS
 90
13
 70
0
 10
160.6071624769
 20
116.1994198448
 10
160.5935767919
 20
116.2128977302
 10
160.5806480269
 20
116.2277747467
 10
160.5685158782
 20
116.2438901449
 10
160.5573114361
 20
116.2610697926
 10
160.5471557631
 20
116.2791280632
 10
160.5381585876
 20
116.2978698435
 10
160.5304171246
 20
116.31709263
 10
160.524015024
 20
116.3365887153
 10
160.5190214622
 20
116.3561474407
 10
160.5154903961
 20
116.3755574714
 10
160.5134599796
 20
116.3946090798
 10
160.5129521524
 20
116.4130964106
  0
LWPOLYLINE
  5
446
100
AcDbEntity
  8
RACCORDO
100
AcDbPolyline
 62
253
  6
CONTINUOUS
 90
13
 70
0
 10
160.6071626827
 20
116.1994207424
 10
160.6404543214
 20
116.1653976521
 10
160.6721089464
 20
116.1278777961
 10
160.7017843261
 20
116.0872668093
 10
160.7291596284
 20
116.0440037465
 10
160.7539388897
 20
115.9985563355
 10
160.7758542144
 20
115.9514159203
 10
160.7946686722
 20
115.9030921498
 10
160.8101788589
 20
115.854107467
 10
160.8222170963
 20
115.8049914616
 10
160.8306532447
 20
115.756275144
 10
160.8353961102
 20
115.7084852048
 10
160.8363944306
 20
115.6621383203
  0
LWPOLYLINE
  5
447
100
AcDbEntity
  8
RACCORDO
100
AcDbPolyline
 62
7
  6
CONTINUOUS
 90
4
 70
0
 10
160.5981833639
 20
116.453295369
 10
160.5985275313
 20
116.452939523
 10
160.5983495582
 20
116.4531933695
 10
160.5963547846
 20
116.4561599405
  0
LWPOLYLINE
  5
448
100
AcDbEntity
  8
26814000
100
AcDbPolyline
 62
7
  6
CONTINUOUS
 90
17
 70
0
 10
150.6156154566
 20
128.4654621307
 10
150.5819781628
 20
128.5015242812
 10
150.5482945747
 20
128.5361629409
 10
150.5145646923
 20
128.5693781097
 10
150.4807197906
 20
128.6011854136
 10
150.4468285946
 20
128.6315692268
 10
150.4130972796
 20
128.6604826709
 10
150.3795454842
 20
128.6879018462
 10
150.3461535697
 20
128.7138506525
 10
150.3130687957
 20
128.738353911
 10
150.2803064823
 20
128.7613976179
 10
150.2478513092
 20
128.782995777
 10
150.2158045745
 20
128.803215221
 10
150.184177435
 20
128.822049135
 10
150.152958734
 20
128.8395043339
 10
150.1222162996
 20
128.8556680955
 10
150.1149436677
 20
128.8593445424
  0
LWPOLYLINE
  5
449
100
AcDbEntity
  8
RACCORDO
100
AcDbPolyline
 62
253
  6
CONTINUOUS
 90
7
 70
0
 10
160.7711290576
 20
116.3740934045
 10
160.7595897395
 20
116.3936161512
 10
160.7447179025
 20
116.4123481439
 10
160.7265135466
 20
116.4302893824
 10
160.7049766718
 20
116.4474398668
 10
160.6801072782
 20
116.4637995971
 10
160.6519053657
 20
116.4793685734
  0
LWPOLYLINE
  5
44A
100
AcDbEntity
  8
RACCORDO
100
AcDbPolyline
 62
253
  6
CONTINUOUS
 90
7
 70
0
 10
160.6897288477
 20
117.200307186
 10
160.6997534931
 20
117.1823581967
 10
160.7065819157
 20
117.1662286688
 10
160.7100972793
 20
117.1521945829
 10
160.7102394352
 20
117.1404960661
 10
160.707005951
 20
117.1313332832
 10
160.7054711905
 20
117.1292075404
  0
LWPOLYLINE
  5
44B
100
AcDbEntity
  8
RACCORDO
100
AcDbPolyline
 62
253
  6
CONTINUOUS
 90
6
 70
0
 10
161.2200589336
 20
117.8404722289
 10
161.230083579
 20
117.8225232397
 10
161.2369120015
 20
117.8063937117
 10
161.2404273652
 20
117.7923596258
 10
161.2405695211
 20
117.780661109
 10
161.2373360369
 20
117.7714983262
  0
LWPOLYLINE
  5
44C
100
AcDbEntity
  8
RACCORDO
100
AcDbPolyline
 62
7
  6
CONTINUOUS
 90
5
 70
0
 10
160.5963547846
 20
116.4561599405
 10
160.5933706489
 20
116.4618300772
 10
160.5903174026
 20
116.469694195
 10
160.5877521434
 20
116.4797440774
 10
160.5863113745
 20
116.4915603095
  0
LINE
  5
44D
100
AcDbEntity
  8
21814000
100
AcDbLine
 62
7
  6
CONTINUOUS
 10
155.0238667174
 20
131.8505661561
 11
155.0329821761
 21
131.8266723551
  0
LWPOLYLINE
  5
44E
100
AcDbEntity
  8
21814000
100
AcDbPolyline
 62
253
  6
CONTINUOUS
 90
35
 70
0
 10
160.5550884761
 20
125.4471037218
 10
160.5666860024
 20
125.4102288013
 10
160.5866235099
 20
125.3373149297
 10
160.6029375069
 20
125.2663431794
 10
160.6165332672
 20
125.1972768444
 10
160.6275910241
 20
125.1302979751
 10
160.6361183991
 20
125.0653744736
 10
160.6427180805
 20
125.0021229105
 10
160.6475304944
 20
124.9405642221
 10
160.6505500339
 20
124.8807694164
 10
160.652122172
 20
124.8224107115
 10
160.6523383509
 20
124.7654399822
 10
160.6512074039
 20
124.7099635888
 10
160.6489295758
 20
124.655875487
 10
160.6455684302
 20
124.6031609734
 10
160.6411458541
 20
124.5518748491
 10
160.6357909371
 20
124.5020109125
 10
160.6295621976
 20
124.4535946689
 10
160.6224784294
 20
124.4066287141
 10
160.6146043458
 20
124.361069669
 10
160.6059976616
 20
124.316933043
 10
160.596668626
 20
124.2742219328
 10
160.5866067075
 20
124.2328719046
 10
160.5758571158
 20
124.1928443478
 10
160.564433561
 20
124.1541893118
 10
160.5522775917
 20
124.1169736356
 10
160.5394251482
 20
124.0811465853
 10
160.5258952605
 20
124.0467658995
 10
160.511608068
 20
124.0140603366
 10
160.4965966101
 20
123.9829926918
 10
160.4808805118
 20
123.9536050471
 10
160.4643654275
 20
123.9262451769
 10
160.4470371495
 20
123.9010309136
 10
160.4289563145
 20
123.8778499377
 10
160.4101404856
 20
123.8567054046
  0
LINE
  5
44F
100
AcDbEntity
  8
RACCORDO
100
AcDbLine
 62
7
  6
CONTINUOUS
 10
166.6827765572
 20
120.0888022791
 11
166.6827765572
 21
119.8070867937
  0
LINE
  5
450
100
AcDbEntity
  8
RACCORDO
100
AcDbLine
 62
7
  6
CONTINUOUS
 10
166.6827765572
 20
83.6072249155
 11
166.6827765572
 21
83.3255094301
  0
LWPOLYLINE
  5
451
100
AcDbEntity
  8
RACCORDO
100
AcDbPolyline
 62
253
  6
CONTINUOUS
 90
13
 70
0
 10
160.6897288477
 20
76.6507030466
 10
160.6997534931
 20
76.6817013794
 10
160.7065819157
 20
76.7136816713
 10
160.7100972793
 20
76.7460967306
 10
160.7102394352
 20
76.7783919267
 10
160.707005951
 20
76.8100146797
 10
160.7004521524
 20
76.8404239157
 10
160.6906901769
 20
76.8690993242
 10
160.6778870546
 20
76.8955502609
 10
160.6622618503
 20
76.919324143
 10
160.6440819157
 20
76.9400141928
 10
160.6236583144
 20
76.9572663978
 10
160.6013405001
 20
76.9707855681
  0
LWPOLYLINE
  5
452
100
AcDbEntity
  8
RACCORDO
100
AcDbPolyline
 62
253
  6
CONTINUOUS
 90
5
 70
0
 10
161.2200589336
 20
76.5408680895
 10
161.2300225671
 20
76.5716387623
 10
161.236848529
 20
76.603453132
 10
161.2403995877
 20
76.6357769795
 10
161.2405919667
 20
76.6680852302
  0
LWPOLYLINE
  5
453
100
AcDbEntity
  8
RACCORDO
100
AcDbPolyline
 62
7
  6
CONTINUOUS
 90
9
 70
0
 10
157.9808430327
 20
77.1391692472
 10
157.9940829372
 20
77.1671562834
 10
158.0055878428
 20
77.1953798931
 10
158.0152449832
 20
77.2234091909
 10
158.022995839
 20
77.2508261962
 10
158.0287830821
 20
77.2769632579
 10
158.0326894438
 20
77.3013545779
 10
158.0348848654
 20
77.3237582313
 10
158.0355657917
 20
77.3439010981
  0
LWPOLYLINE
  5
454
100
AcDbEntity
  8
21814000
100
AcDbPolyline
 62
7
  6
CONTINUOUS
 90
10
 70
0
 10
140.0908412506
 20
130.4646122752
 10
140.0097187923
 20
130.47633263
 10
139.9274451731
 20
130.4842358812
 10
139.8446521116
 20
130.4883248447
 10
139.7617729409
 20
130.4886231418
 10
139.6790431109
 20
130.4851311465
 10
139.5969923646
 20
130.4778355488
 10
139.516159933
 20
130.4667312499
 10
139.4367617298
 20
130.451751197
 10
139.3592108996
 20
130.432814348
  0
LWPOLYLINE
  5
455
100
AcDbEntity
  8
26814000
100
AcDbPolyline
 62
7
  6
CONTINUOUS
 90
13
 70
0
 10
149.8686285681
 20
128.9467220143
 10
149.8339777581
 20
128.9531516955
 10
149.7987735351
 20
128.9585348483
 10
149.7630536832
 20
128.9628969891
 10
149.7268283663
 20
128.9662909122
 10
149.6901606282
 20
128.968720662
 10
149.6531644183
 20
128.9701318911
 10
149.6158773834
 20
128.970542026
 10
149.5783264015
 20
128.9699781445
 10
149.5406057006
 20
128.9683861563
 10
149.5027663259
 20
128.9657570654
 10
149.4648171397
 20
128.9621350841
 10
149.4267877002
 20
128.9575402947
  0
LWPOLYLINE
  5
456
100
AcDbEntity
  8
21814000
100
AcDbPolyline
 62
253
  6
CONTINUOUS
 90
13
 70
0
 10
140.1280697735
 20
130.427665625
 10
140.0583475435
 20
130.4412403698
 10
139.9876057446
 20
130.4515038709
 10
139.9158443767
 20
130.4584561284
 10
139.8424050005
 20
130.4621065031
 10
139.7679460552
 20
130.4624456341
 10
139.6944428594
 20
130.4594454395
 10
139.6219183492
 20
130.4530008778
 10
139.5503495885
 20
130.4432169904
 10
139.4816430873
 20
130.4303808199
 10
139.4164343488
 20
130.4145880471
 10
139.3540878699
 20
130.3957429911
 10
139.2946036505
 20
130.3738456519
  0
LINE
  5
457
100
AcDbEntity
  8
21814000
100
AcDbLine
 62
7
  6
CONTINUOUS
 10
140.1702649427
 20
130.449077888
 11
140.0908412506
 21
130.4646122752
  0
LINE
  5
458
100
AcDbEntity
  8
26814000
100
AcDbLine
 62
7
  6
CONTINUOUS
 10
130.3133218554
 20
131.0778505104
 11
129.6910038233
 21
131.2077910929
  0
LWPOLYLINE
  5
459
100
AcDbEntity
  8
21814000
100
AcDbPolyline
 62
253
  6
CONTINUOUS
 90
4
 70
0
 10
139.7521369154
 20
129.7477548844
 10
139.7942600507
 20
129.7382040017
 10
139.8340525464
 20
129.7253275695
 10
139.8715144025
 20
129.7091255878
  0
LWPOLYLINE
  5
45A
100
AcDbEntity
  8
21814000
100
AcDbPolyline
 62
7
  6
CONTINUOUS
 90
7
 70
0
 10
140.1702580851
 20
130.4490794125
 10
140.1781187678
 20
130.447163407
 10
140.1872148208
 20
130.444518264
 10
140.1961782044
 20
130.4414443519
 10
140.2049984875
 20
130.4379440008
 10
140.2136559488
 20
130.4340228753
 10
140.216296507
 20
130.4327264488
  0
LWPOLYLINE
  5
45B
100
AcDbEntity
  8
26814000
100
AcDbPolyline
 62
7
  6
CONTINUOUS
 90
18
 70
0
 10
142.6461098292
 20
132.5937392356
 10
142.6265477449
 20
132.6028289686
 10
142.6036519647
 20
132.6118143833
 10
142.5801426784
 20
132.6193166161
 10
142.5560013563
 20
132.6253507859
 10
142.531311603
 20
132.6298965703
 10
142.5060501767
 20
132.6329505537
 10
142.4802403192
 20
132.6345161517
 10
142.4540353604
 20
132.6345832883
 10
142.4274513978
 20
132.6331445123
 10
142.4004723338
 20
132.630207275
 10
142.3732032051
 20
132.6257838537
 10
142.3456290255
 20
132.6198654681
 10
142.3177647812
 20
132.6124608985
 10
142.2897604681
 20
132.6036087639
 10
142.2616660849
 20
132.5933219372
 10
142.2334316329
 20
132.5815875455
 10
142.2050571121
 20
132.5684055887
  0
LWPOLYLINE
  5
45C
100
AcDbEntity
  8
RACCORDO
100
AcDbPolyline
 62
7
  6
CONTINUOUS
 90
12
 70
0
 10
156.2110655858
 20
125.2055271224
 10
156.2026662188
 20
125.2094740274
 10
156.1838924924
 20
125.216576704
 10
156.1642693051
 20
125.2216976219
 10
156.1438074007
 20
125.2248618462
 10
156.1227677779
 20
125.2260290159
 10
156.1011430362
 20
125.2251735493
 10
156.0789405761
 20
125.2223210282
 10
156.0564435977
 20
125.2175078375
 10
156.033746501
 20
125.2107461055
 10
156.0107548861
 20
125.2020237039
 10
155.9874687528
 20
125.1913406327
  0
LWPOLYLINE
  5
45D
100
AcDbEntity
  8
RACCORDO
100
AcDbPolyline
 62
7
  6
CONTINUOUS
 90
12
 70
0
 10
158.5559673773
 20
124.5630981353
 10
158.5448755662
 20
124.5684241397
 10
158.5080264825
 20
124.5830905907
 10
158.4694893481
 20
124.593890781
 10
158.4292850487
 20
124.6008725465
 10
158.3879151541
 20
124.6039487859
 10
158.3453650621
 20
124.6030705723
 10
158.3016493748
 20
124.5982868327
 10
158.2573134685
 20
124.5896572466
 10
158.2125391352
 20
124.5772017074
 10
158.1671445828
 20
124.5609003217
 10
158.1211298113
 20
124.5407530897
  0
LWPOLYLINE
  5
45E
100
AcDbEntity
  8
26814000
100
AcDbPolyline
 62
7
  6
CONTINUOUS
 90
10
 70
0
 10
150.1149436677
 20
128.8593445424
 10
150.0919639886
 20
128.8705359746
 10
150.0621879442
 20
128.8841124164
 10
150.0329144251
 20
128.8964980331
 10
150.0041244172
 20
128.9076998297
 10
149.9758369345
 20
128.9177108012
 10
149.9481352781
 20
128.9266105456
 10
149.9210472151
 20
128.9344255956
 10
149.8945449785
 20
128.9411294185
 10
149.8686285681
 20
128.9467220143
  0
LINE
  5
45F
100
AcDbEntity
  8
0
100
AcDbLine
 62
7
  6
CONTINUOUS
 10
156.968624974
 20
123.5097120047
 11
159.7461657037
 21
122.1209416398
  0
LINE
  5
460
100
AcDbEntity
  8
26814000
100
AcDbLine
 62
7
  6
CONTINUOUS
 10
144.3566110078
 20
130.3030579513
 11
141.5460613608
 21
131.7083327748
  0
LINE
  5
461
100
AcDbEntity
  8
21814000
100
AcDbLine
 62
7
  6
CONTINUOUS
 10
151.1987286174
 20
127.3546441969
 11
150.4109399697
 21
127.7485385207
  0
LINE
  5
462
100
AcDbEntity
  8
RACCORDO
100
AcDbLine
 62
253
  6
CONTINUOUS
 10
155.3816178077
 20
125.4942661053
 11
155.9874687528
 21
125.1913406327
  0
LINE
  5
463
100
AcDbEntity
  8
RACCORDO
100
AcDbLine
 62
253
  6
CONTINUOUS
 10
160.9372162212
 20
122.7164668985
 11
161.5430671663
 21
122.413541426
  0
LINE
  5
464
100
AcDbEntity
  8
0
100
AcDbLine
 62
7
  6
CONTINUOUS
 10
161.9895295932
 20
122.2403128161
 11
161.8719361738
 21
122.2991095258
  0
LINE
  5
465
100
AcDbEntity
  8
0
100
AcDbLine
 62
7
  6
CONTINUOUS
 10
160.9928411893
 20
122.738657018
 11
158.8158958776
 21
123.8271296739
  0
LINE
  5
466
100
AcDbEntity
  8
26814000
100
AcDbLine
 62
7
  6
CONTINUOUS
 10
142.9059933009
 20
131.7820809622
 11
145.1157341891
 21
130.6772105181
  0
LINE
  5
467
100
AcDbEntity
  8
26814000
100
AcDbLine
 62
7
  6
CONTINUOUS
 10
145.8613190122
 20
130.3044181066
 11
146.0071324222
 21
130.2315114016
  0
LINE
  5
468
100
AcDbEntity
  8
RACCORDO
100
AcDbLine
 62
7
  6
CONTINUOUS
 10
155.6065062923
 20
125.5078261555
 11
156.2110755506
 21
125.2055415263
  0
LINE
  5
469
100
AcDbEntity
  8
RACCORDO
100
AcDbLine
 62
7
  6
CONTINUOUS
 10
161.1608230189
 20
122.7306677922
 11
161.7653922772
 21
122.428383163
  0
LINE
  5
46A
100
AcDbEntity
  8
26814000
100
AcDbLine
 62
7
  6
CONTINUOUS
 10
140.0385355552
 20
133.4790535148
 11
140.2189875324
 21
133.3888275262
  0
LINE
  5
46B
100
AcDbEntity
  8
26814000
100
AcDbLine
 62
7
  6
CONTINUOUS
 10
145.5929990694
 20
130.7018217577
 11
145.7734510465
 21
130.6115957692
  0
LINE
  5
46C
100
AcDbEntity
  8
RACCORDO
100
AcDbLine
 62
253
  6
CONTINUOUS
 10
154.9569292965
 20
126.1228533471
 11
158.1211298113
 21
124.5407530897
  0
LINE
  5
46D
100
AcDbEntity
  8
RACCORDO
100
AcDbLine
 62
253
  6
CONTINUOUS
 10
162.3637704985
 20
122.4194327462
 11
165.5279710133
 21
120.8373324887
  0
LINE
  5
46E
100
AcDbEntity
  8
26814000
100
AcDbLine
 62
253
  6
CONTINUOUS
 10
139.2259672112
 20
134.0579505392
 11
142.2050571121
 21
132.5684055887
  0
LINE
  5
46F
100
AcDbEntity
  8
26814000
100
AcDbLine
 62
253
  6
CONTINUOUS
 10
146.4476977993
 20
130.4470852451
 11
149.4267877002
 21
128.9575402947
  0
LINE
  5
470
100
AcDbEntity
  8
RACCORDO
100
AcDbLine
 62
7
  6
CONTINUOUS
 10
155.2310954335
 20
126.2255700485
 11
158.5560026919
 21
124.5631164193
  0
LINE
  5
471
100
AcDbEntity
  8
RACCORDO
100
AcDbLine
 62
7
  6
CONTINUOUS
 10
162.798643379
 20
122.4417960758
 11
166.1235506374
 21
120.7793424466
  0
LINE
  5
472
100
AcDbEntity
  8
26814000
100
AcDbLine
 62
7
  6
CONTINUOUS
 10
146.8887408023
 20
130.4724347117
 11
150.1152306945
 21
128.8591897656
  0
LINE
  5
473
100
AcDbEntity
  8
0
100
AcDbLine
 62
7
  6
CONTINUOUS
 10
152.1760253612
 20
128.2799600967
 11
151.4690564211
 21
128.6334445668
  0
LINE
  5
474
100
AcDbEntity
  8
0
100
AcDbLine
 62
7
  6
CONTINUOUS
 10
152.1760253612
 20
128.2799600967
 11
152.3899178151
 21
128.082426829
  0
LINE
  5
475
100
AcDbEntity
  8
RACCORDO
100
AcDbLine
 62
253
  6
CONTINUOUS
 10
155.3705179014
 20
128.5542799824
 11
155.3858509405
 21
128.5383539915
  0
LWPOLYLINE
  5
476
100
AcDbEntity
  8
RACCORDO
100
AcDbPolyline
 62
7
  6
CONTINUOUS
 90
4
 70
0
 10
161.273173995
 20
76.1797091704
 10
161.2841342704
 20
76.2109328387
 10
161.2908921982
 20
76.2434561231
 10
161.29328208
 20
76.2778017726
  0
LWPOLYLINE
  5
477
100
AcDbEntity
  8
RACCORDO
100
AcDbPolyline
 62
253
  6
CONTINUOUS
 90
7
 70
0
 10
160.5791343943
 20
77.3241600637
 10
160.577858023
 20
77.3209723506
 10
160.5698619144
 20
77.307895245
 10
160.5592704266
 20
77.2952365614
 10
160.5461684673
 20
77.2831367192
 10
160.5306792943
 20
77.2717275334
 10
160.5129521524
 20
77.2611371267
  0
LWPOLYLINE
  5
478
100
AcDbEntity
  8
RACCORDO
100
AcDbPolyline
 62
253
  6
CONTINUOUS
 90
6
 70
0
 10
159.8164849811
 20
76.9548909621
 10
159.8164301
 20
76.9547791097
 10
159.8116465365
 20
76.940891923
 10
159.8082670514
 20
76.9257713232
 10
159.8063266331
 20
76.9095738535
 10
159.8058453713
 20
76.8924672065
  0
LWPOLYLINE
  5
479
100
AcDbEntity
  8
RACCORDO
100
AcDbPolyline
 62
253
  6
CONTINUOUS
 90
10
 70
0
 10
158.0204007488
 20
77.0238185767
 10
158.0375761235
 20
77.0462414986
 10
158.05332393
 20
77.0702991544
 10
158.0674312062
 20
77.0956662056
 10
158.0797071754
 20
77.1219996063
 10
158.0899858261
 20
77.1489432425
 10
158.0981281572
 20
77.1761327477
 10
158.1040240577
 20
77.2032004305
 10
158.1075937956
 20
77.2297802469
 10
158.1087890964
 20
77.2555127505
  0
LWPOLYLINE
  5
47A
100
AcDbEntity
  8
RACCORDO
100
AcDbPolyline
 62
7
  6
CONTINUOUS
 90
5
 70
0
 10
157.9162700583
 20
77.0400007437
 10
157.9336174308
 20
77.0622232957
 10
157.9503495062
 20
77.0863485546
 10
157.9661682351
 20
77.1120824532
 10
157.9808430327
 20
77.1391692472
  0
LINE
  5
47B
100
AcDbEntity
  8
DRAFT
100
AcDbLine
 62
7
  6
CONTINUOUS
 10
161.7503890195
 20
81.8378453128
 11
165.9489991022
 21
83.974113643
  0
LINE
  5
47C
100
AcDbEntity
  8
RACCORDO
100
AcDbLine
 62
253
  6
CONTINUOUS
 10
156.8541002108
 20
81.3261177895
 11
157.7750798972
 21
81.7514567289
  0
LINE
  5
47D
100
AcDbEntity
  8
RACCORDO
100
AcDbLine
 62
7
  6
CONTINUOUS
 10
156.8360943035
 20
81.1072979575
 11
157.6745360908
 21
81.4945181599
  0
LINE
  5
47E
100
AcDbEntity
  8
26814000
100
AcDbLine
 62
7
  6
CONTINUOUS
 10
141.5460613608
 20
131.7083327748
 11
142.9059933009
 21
131.7820809622
  0
LWPOLYLINE
  5
47F
100
AcDbEntity
  8
21814000
100
AcDbPolyline
 62
7
  6
CONTINUOUS
 90
6
 70
0
 10
139.1021706509
 20
130.323609516
 10
139.1118506612
 20
130.3232721021
 10
139.1222618577
 20
130.3218172315
 10
139.1333828974
 20
130.319140005
 10
139.1451993383
 20
130.3151628285
 10
139.157668487
 20
130.3098064063
  0
LWPOLYLINE
  5
480
100
AcDbEntity
  8
RACCORDO
100
AcDbPolyline
 62
7
  6
CONTINUOUS
 90
9
 70
0
 10
154.5138075681
 20
129.0725468667
 10
154.5076908276
 20
129.0741463644
 10
154.4979206138
 20
129.0756791783
 10
154.4875944184
 20
129.0760946227
 10
154.4768072212
 20
129.0753928502
 10
154.4658439623
 20
129.0735743188
 10
154.4547996216
 20
129.0706391813
 10
154.4435792191
 20
129.0665872849
 10
154.4321827548
 20
129.0614186297
  0
LINE
  5
481
100
AcDbEntity
  8
0
100
AcDbLine
 62
7
  6
CONTINUOUS
 10
153.1207447694
 20
128.405699637
 11
152.671000108
 21
128.5274474701
  0
LWPOLYLINE
  5
482
100
AcDbEntity
  8
RACCORDO
100
AcDbPolyline
 62
7
  6
CONTINUOUS
 90
28
 70
0
 10
154.5137974319
 20
129.0725229143
 10
154.4050820853
 20
129.10380876
 10
154.2902270424
 20
129.1331624371
 10
154.1729656184
 20
129.1594895072
 10
154.0535924536
 20
129.182751599
 10
153.9323720819
 20
129.2029221518
 10
153.8095427125
 20
129.2199814271
 10
153.6853939151
 20
129.2339052686
 10
153.560210452
 20
129.2446759376
 10
153.4342299345
 20
129.2522833373
 10
153.3077435483
 20
129.256716716
 10
153.1810408254
 20
129.2579712707
 10
153.05435908
 20
129.2560464976
 10
152.9279878102
 20
129.2509451626
 10
152.8022182196
 20
129.2426759505
 10
152.6772886202
 20
129.231248075
 10
152.5534897456
 20
129.2166782428
 10
152.4311049933
 20
129.1989882212
 10
152.3103565571
 20
129.1781940458
 10
152.191521636
 20
129.1543224458
 10
152.0748858126
 20
129.1274073941
 10
151.9606742395
 20
129.0974726267
 10
151.8491590613
 20
129.0645555228
 10
151.7406128649
 20
129.028698888
 10
151.6352459733
 20
128.9899272705
 10
151.5332991909
 20
128.9482744621
 10
151.4350530535
 20
128.9037936876
 10
151.3407689923
 20
128.8565362981
  0
LWPOLYLINE
  5
483
100
AcDbEntity
  8
RACCORDO
100
AcDbPolyline
 62
7
  6
CONTINUOUS
 90
3
 70
0
 10
154.5258482499
 20
129.0677290861
 10
154.5170000396
 20
129.0714963337
 10
154.5138075681
 20
129.0725468667
  0
LINE
  5
484
100
AcDbEntity
  8
0
100
AcDbLine
 62
7
  6
CONTINUOUS
 10
152.671000108
 20
128.5274474701
 11
151.9640311679
 21
128.8809319402
  0
LINE
  5
485
100
AcDbEntity
  8
21814000
100
AcDbLine
 62
7
  6
CONTINUOUS
 10
151.7035363956
 20
129.3635775814
 11
151.264925923
 21
129.5828828176
  0
LINE
  5
486
100
AcDbEntity
  8
21814000
100
AcDbLine
 62
7
  6
CONTINUOUS
 10
155.9334493755
 20
129.1238412068
 11
155.2069519868
 21
129.4870899011
  0
LINE
  5
487
100
AcDbEntity
  8
21814000
100
AcDbLine
 62
7
  6
CONTINUOUS
 10
155.7506197152
 20
129.2309158896
 11
155.4465003312
 21
129.3829755815
  0
LINE
  5
488
100
AcDbEntity
  8
RACCORDO
100
AcDbLine
 62
7
  6
CONTINUOUS
 10
155.3743763873
 20
128.6434650174
 11
155.4871512725
 21
128.5869726912
  0
LWPOLYLINE
  5
489
100
AcDbEntity
  8
RACCORDO
100
AcDbPolyline
 62
7
  6
CONTINUOUS
 90
10
 70
0
 10
155.33643232
 20
128.6561326723
 10
155.2389552663
 20
128.706188104
 10
155.1433420645
 20
128.7551639797
 10
155.0495927145
 20
128.8030602993
 10
154.9577216333
 20
128.849878487
 10
154.8677144038
 20
128.8956171188
 10
154.7795277758
 20
128.9402719218
 10
154.6931473324
 20
128.9838414719
 10
154.6085874904
 20
129.0263271934
 10
154.5258482499
 20
129.0677290861
  0
LWPOLYLINE
  5
48A
100
AcDbEntity
  8
21814000
100
AcDbPolyline
 62
7
  6
CONTINUOUS
 90
10
 70
0
 10
155.7506197152
 20
129.2309158896
 10
155.7192042607
 20
129.2489687018
 10
155.6871872835
 20
129.2667360042
 10
155.6545687833
 20
129.2842177968
 10
155.6213385926
 20
129.3014191634
 10
155.587506879
 20
129.3183350202
 10
155.5531041457
 20
129.3349501156
 10
155.5181405606
 20
129.3512593657
 10
155.4826059557
 20
129.3672678543
 10
155.4465003312
 20
129.3829755815
  0
LINE
  5
48B
100
AcDbEntity
  8
RACCORDO
100
AcDbLine
 62
7
  6
CONTINUOUS
 10
155.3441907487
 20
128.6515462003
 11
155.33643232
 21
128.6561326723
  0
LWPOLYLINE
  5
48C
100
AcDbEntity
  8
RACCORDO
100
AcDbPolyline
 62
253
  6
CONTINUOUS
 90
5
 70
0
 10
155.3743763873
 20
128.6434650174
 10
155.3988993776
 20
128.622960639
 10
155.4232651393
 20
128.6016823746
 10
155.4474018895
 20
128.5796200973
 10
155.4555507169
 20
128.5718061277
  0
LWPOLYLINE
  5
48D
100
AcDbEntity
  8
RACCORDO
100
AcDbPolyline
 62
253
  6
CONTINUOUS
 90
4
 70
0
 10
155.2807397881
 20
128.6371690089
 10
155.3036002176
 20
128.6175902755
 10
155.3261777559
 20
128.5972372289
 10
155.348472403
 20
128.5761098693
  0
LINE
  5
48E
100
AcDbEntity
  8
RACCORDO
100
AcDbLine
 62
253
  6
CONTINUOUS
 10
155.348472403
 20
128.5761098693
 11
155.3705179014
 21
128.5542799824
  0
LINE
  5
48F
100
AcDbEntity
  8
21814000
100
AcDbLine
 62
253
  6
CONTINUOUS
 10
159.5439876016
 20
129.7445204079
 11
159.9635308125
 21
129.0209154065
  0
LINE
  5
490
100
AcDbEntity
  8
21814000
100
AcDbLine
 62
7
  6
CONTINUOUS
 10
159.9342519659
 20
129.7389105941
 11
160.2810897364
 21
129.1407039282
  0
LWPOLYLINE
  5
491
100
AcDbEntity
  8
21814000
100
AcDbPolyline
 62
253
  6
CONTINUOUS
 90
13
 70
0
 10
159.9635308125
 20
129.0209154065
 10
160.0153000619
 20
128.927334889
 10
160.0633434124
 20
128.8316154345
 10
160.1074551348
 20
128.7341669281
 10
160.147446336
 20
128.6354066589
 10
160.1831457673
 20
128.5357575339
 10
160.2144005576
 20
128.4356462671
 10
160.2410768692
 20
128.3355015504
 10
160.2630604701
 20
128.2357522188
 10
160.2802572229
 20
128.1368254154
 10
160.2925934887
 20
128.0391447602
 10
160.3000164419
 20
127.9431285364
 10
160.3024942964
 20
127.8491879001
  0
LWPOLYLINE
  5
492
100
AcDbEntity
  8
RACCORDO
100
AcDbPolyline
 62
253
  6
CONTINUOUS
 90
10
 70
0
 10
159.363903633
 20
76.3520671345
 10
159.3810790078
 20
76.3744900564
 10
159.3968268143
 20
76.3985477123
 10
159.4109340905
 20
76.4239147635
 10
159.4232100596
 20
76.4502481642
 10
159.4334887103
 20
76.4771918004
 10
159.4416310415
 20
76.5043813056
 10
159.447526942
 20
76.5314489884
 10
159.4510966799
 20
76.5580288048
 10
159.4522919807
 20
76.5837613084
  0
LWPOLYLINE
  5
493
100
AcDbEntity
  8
RACCORDO
100
AcDbPolyline
 62
253
  6
CONTINUOUS
 90
13
 70
0
 10
159.629068676
 20
76.1203729607
 10
159.6554471085
 20
76.1542828117
 10
159.679897444
 20
76.1894980675
 10
159.7024196825
 20
76.2260187282
 10
159.7231380005
 20
76.2641164942
 10
159.7419282215
 20
76.3035196651
 10
159.7584178159
 20
76.3434131393
 10
159.7725734141
 20
76.383809618
 10
159.7844283856
 20
76.4246964
 10
159.7937103091
 20
76.4652202806
 10
159.8003283778
 20
76.505096858
 10
159.8043733985
 20
76.5446105339
 10
159.8058453713
 20
76.5837613084
  0
LINE
  5
494
100
AcDbEntity
  8
RACCORDO
100
AcDbLine
 62
7
  6
CONTINUOUS
 10
157.3859399724
 20
76.3998357007
 11
157.9162700583
 21
77.0400007437
  0
LINE
  5
495
100
AcDbEntity
  8
RACCORDO
100
AcDbLine
 62
253
  6
CONTINUOUS
 10
157.4900706629
 20
76.3836535337
 11
158.0204007488
 21
77.0238185767
  0
LINE
  5
496
100
AcDbEntity
  8
RACCORDO
100
AcDbLine
 62
253
  6
CONTINUOUS
 10
159.363903633
 20
76.3520671345
 11
158.8335735471
 21
75.7119020916
  0
LINE
  5
497
100
AcDbEntity
  8
RACCORDO
100
AcDbLine
 62
253
  6
CONTINUOUS
 10
159.629068676
 20
76.1203729607
 11
159.0987385901
 21
75.4802079178
  0
LWPOLYLINE
  5
498
100
AcDbEntity
  8
RACCORDO
100
AcDbPolyline
 62
253
  6
CONTINUOUS
 90
8
 70
0
 10
157.3859375123
 20
76.3998327306
 10
157.3908788874
 20
76.4041302156
 10
157.4006294633
 20
76.4078290439
 10
157.4134331302
 20
76.4086523995
 10
157.4290693821
 20
76.4065863119
 10
157.4472691992
 20
76.4016666916
 10
157.4677200528
 20
76.3939783314
 10
157.4900706629
 20
76.3836535337
  0
LWPOLYLINE
  5
499
100
AcDbEntity
  8
RACCORDO
100
AcDbPolyline
 62
253
  6
CONTINUOUS
 90
8
 70
0
 10
157.9162700583
 20
77.0400007437
 10
157.9212890964
 20
77.044345272
 10
157.9310510719
 20
77.0480123232
 10
157.9438541943
 20
77.0488134103
 10
157.9594793986
 20
77.0467348264
 10
157.9776593332
 20
77.0418121368
 10
157.9980829344
 20
77.0341295699
 10
158.0204007488
 20
77.0238185767
  0
LINE
  5
49A
100
AcDbEntity
  8
DRAFT
100
AcDbLine
 62
7
  6
CONTINUOUS
 10
161.7503890195
 20
81.0534065082
 11
166.6827765572
 21
83.6072249155
  0
LINE
  5
49B
100
AcDbEntity
  8
RACCORDO
100
AcDbLine
 62
7
  6
CONTINUOUS
 10
161.7503890195
 20
80.438896654
 11
165.5279710133
 21
82.3422526319
  0
LINE
  5
49C
100
AcDbEntity
  8
RACCORDO
100
AcDbLine
 62
7
  6
CONTINUOUS
 10
161.7503890195
 20
80.5765463363
 11
166.639308325
 21
83.0014863534
  0
LWPOLYLINE
  5
49D
100
AcDbEntity
  8
RACCORDO
100
AcDbPolyline
 62
253
  6
CONTINUOUS
 90
11
 70
0
 10
152.0359469302
 20
74.4071630684
 10
152.0527304491
 20
74.4132700147
 10
152.1024779816
 20
74.4375405384
 10
152.1487141021
 20
74.4697862958
 10
152.1909324391
 20
74.5096540681
 10
152.2286706475
 20
74.5567071693
 10
152.2615154595
 20
74.6104302325
 10
152.2891071961
 20
74.6702348359
 10
152.3111437187
 20
74.7354659652
 10
152.3273837344
 20
74.8054091916
 10
152.3376494327
 20
74.8792984872
  0
LINE
  5
49E
100
AcDbEntity
  8
RACCORDO
100
AcDbLine
 62
253
  6
CONTINUOUS
 10
156.4365848918
 20
76.2521922865
 11
152.3376494327
 21
74.8792984872
  0
LINE
  5
49F
100
AcDbEntity
  8
RACCORDO
100
AcDbLine
 62
7
  6
CONTINUOUS
 10
152.0353346576
 20
74.4069586287
 11
156.1387475881
 21
75.7813514739
  0
LWPOLYLINE
  5
4A0
100
AcDbEntity
  8
RACCORDO
100
AcDbPolyline
 62
7
  6
CONTINUOUS
 90
7
 70
0
 10
159.8187214735
 20
76.9555750778
 10
159.8457016813
 20
76.9641853608
 10
159.8743695487
 20
76.9739734928
 10
159.9041376147
 20
76.9850124921
 10
159.9344816042
 20
76.997329711
 10
159.9651609574
 20
77.0109973763
 10
159.9974081826
 20
77.0267474992
  0
LWPOLYLINE
  5
4A1
100
AcDbEntity
  8
RACCORDO
100
AcDbPolyline
 62
253
  6
CONTINUOUS
 90
17
 70
0
 10
159.9511815542
 20
77.2327278953
 10
159.9789914478
 20
77.2414117611
 10
159.991797986
 20
77.245343257
 10
160.0038810625
 20
77.2489851382
 10
160.0153514225
 20
77.2525015543
 10
160.0261991442
 20
77.2559146182
 10
160.0364341493
 20
77.2592022171
 10
160.0461969478
 20
77.2624621622
 10
160.0554962689
 20
77.2657132012
 10
160.0643233834
 20
77.2689365863
 10
160.0727926138
 20
77.2721738857
 10
160.0809108978
 20
77.2754334327
 10
160.0886712977
 20
77.2787068939
 10
160.0961673233
 20
77.2820108381
 10
160.1034301444
 20
77.285350788
 10
160.1104285912
 20
77.2887212208
 10
160.1171626636
 20
77.2921221364
  0
LINE
  5
4A2
100
AcDbEntity
  8
21814000
100
AcDbLine
 62
7
  6
CONTINUOUS
 10
158.1452197489
 20
129.8627023013
 11
155.0329821761
 21
131.4188210878
  0
LINE
  5
4A3
100
AcDbEntity
  8
21814000
100
AcDbLine
 62
253
  6
CONTINUOUS
 10
159.5439876016
 20
129.7445204079
 11
158.7383156655
 21
130.147356376
  0
LINE
  5
4A4
100
AcDbEntity
  8
21814000
100
AcDbLine
 62
253
  6
CONTINUOUS
 10
154.0366525864
 20
132.4981879155
 11
153.0654937527
 21
132.9837673323
  0
LINE
  5
4A5
100
AcDbEntity
  8
21814000
100
AcDbLine
 62
7
  6
CONTINUOUS
 10
159.8742629791
 20
129.795202512
 11
159.048504079
 21
130.2080819621
  0
LINE
  5
4A6
100
AcDbEntity
  8
21814000
100
AcDbLine
 62
7
  6
CONTINUOUS
 10
154.5092353579
 20
132.4777163226
 11
153.4568793452
 21
133.003894329
  0
LWPOLYLINE
  5
4A7
100
AcDbEntity
  8
21814000
100
AcDbPolyline
 62
7
  6
CONTINUOUS
 90
4
 70
0
 10
159.876188531
 20
129.7942395387
 10
159.8898320071
 20
129.7864247969
 10
159.9133677036
 20
129.7670525184
 10
159.9335458464
 20
129.7401746869
  0
LWPOLYLINE
  5
4A8
100
AcDbEntity
  8
21814000
100
AcDbPolyline
 62
7
  6
CONTINUOUS
 90
35
 70
0
 10
160.5550884761
 20
127.5291917935
 10
160.6718620048
 20
127.4520896873
 10
160.8116586783
 20
127.347576041
 10
160.9483965341
 20
127.233047444
 10
161.0812619776
 20
127.1093309395
 10
161.2096474308
 20
126.9771841644
 10
161.333229031
 20
126.8371167584
 10
161.4516091923
 20
126.6897112547
 10
161.5643635754
 20
126.5356003652
 10
161.6710391415
 20
126.3754935811
 10
161.7711961535
 20
126.210137824
 10
161.8644120973
 20
126.0403200623
 10
161.9503652199
 20
125.8667020317
 10
162.0287806016
 20
125.689864073
 10
162.0993472766
 20
125.5104735092
 10
162.1617218589
 20
125.3293389491
 10
162.215606595
 20
125.1472436541
 10
162.2607433181
 20
124.9649390711
 10
162.2969022208
 20
124.7831622341
 10
162.3238779648
 20
124.6026387742
 10
162.3414977701
 20
124.423936322
 10
162.3495706712
 20
124.2479398062
 10
162.3479706095
 20
124.0757595654
 10
162.3366232373
 20
123.90784359
 10
162.3154886351
 20
123.7450666537
 10
162.2847592811
 20
123.5889730134
 10
162.2446547887
 20
123.4402310486
 10
162.1953284405
 20
123.2991381182
 10
162.1371333208
 20
123.1664720283
 10
162.0703249371
 20
123.0425746775
 10
161.9952562235
 20
122.9279155793
 10
161.9126665181
 20
122.8233179412
 10
161.823227347
 20
122.7291906018
 10
161.7274030387
 20
122.6456100419
 10
161.6258115692
 20
122.5727611164
  0
LWPOLYLINE
  5
4A9
100
AcDbEntity
  8
21814000
100
AcDbPolyline
 62
253
  6
CONTINUOUS
 90
34
 70
0
 10
160.5550884761
 20
127.4505812726
 10
160.6331835669
 20
127.3950694691
 10
160.7703244368
 20
127.2856138598
 10
160.9048669284
 20
127.1660883864
 10
161.0361835073
 20
127.0370505376
 10
161.1636616658
 20
126.8991021892
 10
161.2867068026
 20
126.7528867787
 10
161.404744998
 20
126.5990862999
 10
161.5172256925
 20
126.4384181178
 10
161.6236242472
 20
126.2716316305
 10
161.7234443902
 20
126.0995047749
 10
161.8162205315
 20
125.9228404002
 10
161.9015199368
 20
125.7424625192
 10
161.9789447456
 20
125.5592124654
 10
162.0481338274
 20
125.3739449675
 10
162.1087644651
 20
125.1875241644
 10
162.1605538606
 20
125.0008195746
 10
162.2032604536
 20
124.8147020405
 10
162.2366850487
 20
124.6300396661
 10
162.2606717442
 20
124.4476937684
 10
162.2751086595
 20
124.2685148593
 10
162.2799284567
 20
124.0933386793
 10
162.2751086552
 20
123.9229822989
 10
162.2606717356
 20
123.7582403077
 10
162.2366850358
 20
123.5998811083
 10
162.2032604365
 20
123.4486433322
 10
162.1605538392
 20
123.3052323944
 10
162.1087644396
 20
123.1703172038
 10
162.0481337978
 20
123.0445270425
 10
161.978944712
 20
122.9284486307
 10
161.9015198993
 20
122.8226233902
 10
161.8162204903
 20
122.7275449193
 10
161.7234443452
 20
122.6436566909
 10
161.6258115692
 20
122.5727611164
  0
LWPOLYLINE
  5
4AA
100
AcDbEntity
  8
21814000
100
AcDbPolyline
 62
253
  6
CONTINUOUS
 90
12
 70
0
 10
160.2810897364
 20
129.1407039282
 10
160.2797305998
 20
129.1423010422
 10
160.2718116816
 20
129.1448226453
 10
160.2581670892
 20
129.1439538362
 10
160.2388983725
 20
129.1397010808
 10
160.2141489395
 20
129.1320960305
 10
160.1841029885
 20
129.121195286
 10
160.1489841371
 20
129.1070799763
 10
160.1090537581
 20
129.0898551552
 10
160.0646090341
 20
129.0696490189
 10
160.0159807462
 20
129.046611952
 10
159.9635308115
 20
129.0209154083
  0
LINE
  5
4AB
100
AcDbEntity
  8
RACCORDO
100
AcDbLine
 62
253
  6
CONTINUOUS
 10
160.9375366359
 20
77.7216632339
 11
160.9721712959
 21
77.7451756951
  0
LWPOLYLINE
  5
4AC
100
AcDbEntity
  8
RACCORDO
100
AcDbPolyline
 62
253
  6
CONTINUOUS
 90
9
 70
0
 10
160.9721712959
 20
77.7451756951
 10
160.9983723783
 20
77.7627578227
 10
161.0124667637
 20
77.7719601119
 10
161.0272244407
 20
77.7814062348
 10
161.0426614725
 20
77.7910818077
 10
161.0588764255
 20
77.8008095788
 10
161.075902155
 20
77.8105304641
 10
161.0937058056
 20
77.8203035475
 10
161.1122873774
 20
77.830128829
  0
LINE
  5
4AD
100
AcDbEntity
  8
DRAFT
100
AcDbLine
 62
7
  6
CONTINUOUS
 10
160.059682986
 20
77.384929455
 11
159.5920408916
 21
77.0900136376
  0
LWPOLYLINE
  5
4AE
100
AcDbEntity
  8
RACCORDO
100
AcDbPolyline
 62
253
  6
CONTINUOUS
 90
6
 70
0
 10
160.5129521524
 20
76.9373146989
 10
160.5345137922
 20
76.949607868
 10
160.5526818081
 20
76.9632030466
 10
160.5671453403
 20
76.9778676175
 10
160.5776569137
 20
76.993350666
 10
160.5840366725
 20
77.0093872726
  0
LWPOLYLINE
  5
4AF
100
AcDbEntity
  8
RACCORDO
100
AcDbPolyline
 62
7
  6
CONTINUOUS
 90
11
 70
0
 10
160.7228567218
 20
77.3976195262
 10
160.7571347012
 20
77.416190512
 10
160.7895318769
 20
77.4351368047
 10
160.8207623564
 20
77.454596407
 10
160.8508974449
 20
77.474287026
 10
160.8794195555
 20
77.49349401
 10
160.9061746391
 20
77.5116656861
 10
160.9314123625
 20
77.528517108
 10
160.9545479854
 20
77.5432991017
 10
160.9741210297
 20
77.5549378783
 10
160.9898817303
 20
77.5634109994
  0
LWPOLYLINE
  5
4B0
100
AcDbEntity
  8
RACCORDO
100
AcDbPolyline
 62
7
  6
CONTINUOUS
 90
7
 70
0
 10
161.1549011351
 20
76.0542436697
 10
161.1662938674
 20
76.0603003428
 10
161.1933795083
 20
76.0780154546
 10
161.2180104414
 20
76.0991407637
 10
161.2397619413
 20
76.1233600395
 10
161.2582698171
 20
76.1503480256
 10
161.273173995
 20
76.1797091704
  0
LINE
  5
4B1
100
AcDbEntity
  8
RACCORDO
100
AcDbLine
 62
253
  6
CONTINUOUS
 10
160.5129521524
 20
77.2611371267
 11
159.8058453713
 21
76.8924672065
  0
LWPOLYLINE
  5
4B2
100
AcDbEntity
  8
RACCORDO
100
AcDbPolyline
 62
253
  6
CONTINUOUS
 90
12
 70
0
 10
160.8363869847
 20
77.6597869988
 10
160.8432574078
 20
77.6633399194
 10
160.8503667712
 20
77.6671538973
 10
160.8577150748
 20
77.6712289323
 10
160.8652758692
 20
77.675545416
 10
160.8730756039
 20
77.6801229568
 10
160.8811936269
 20
77.685020381
 10
160.8896270494
 20
77.6902416268
 10
160.8983787601
 20
77.6957827559
 10
160.9075367728
 20
77.70169078
 10
160.9170942001
 20
77.7079725566
 10
160.9375366359
 20
77.7216632339
  0
LINE
  5
4B3
100
AcDbEntity
  8
RACCORDO
100
AcDbLine
 62
253
  6
CONTINUOUS
 10
160.1171626636
 20
77.2921221364
 11
160.6765856565
 21
77.5781357668
  0
LINE
  5
4B4
100
AcDbEntity
  8
RACCORDO
100
AcDbLine
 62
7
  6
CONTINUOUS
 10
159.9974073951
 20
77.0267491405
 11
160.7228567218
 21
77.3976195262
  0
LINE
  5
4B5
100
AcDbEntity
  8
RACCORDO
100
AcDbLine
 62
253
  6
CONTINUOUS
 10
160.6765856565
 20
77.5781357668
 11
160.8363869847
 21
77.6597869988
  0
LINE
  5
4B6
100
AcDbEntity
  8
RACCORDO
100
AcDbLine
 62
253
  6
CONTINUOUS
 10
159.5920408916
 20
77.0641439997
 11
159.8277870316
 21
77.1829221164
  0
LINE
  5
4B7
100
AcDbEntity
  8
RACCORDO
100
AcDbLine
 62
253
  6
CONTINUOUS
 10
161.1122873774
 20
77.830128829
 11
161.7503890195
 21
78.1516398682
  0
LINE
  5
4B8
100
AcDbEntity
  8
RACCORDO
100
AcDbLine
 62
7
  6
CONTINUOUS
 10
159.4625450459
 20
76.7938537096
 11
159.7054736629
 21
76.9162546624
  0
LINE
  5
4B9
100
AcDbEntity
  8
RACCORDO
100
AcDbLine
 62
7
  6
CONTINUOUS
 10
160.9899409006
 20
77.5634407193
 11
161.6208931738
 21
77.8813495782
  0
LINE
  5
4BA
100
AcDbEntity
  8
RACCORDO
100
AcDbLine
 62
253
  6
CONTINUOUS
 10
159.0987385901
 20
75.1288939457
 11
161.2200589336
 21
76.1895541175
  0
LINE
  5
4BB
100
AcDbEntity
  8
RACCORDO
100
AcDbLine
 62
7
  6
CONTINUOUS
 10
159.0337652936
 20
74.9936754956
 11
161.1550856372
 21
76.0543356674
  0
LWPOLYLINE
  5
4BC
100
AcDbEntity
  8
RACCORDO
100
AcDbPolyline
 62
253
  6
CONTINUOUS
 90
5
 70
0
 10
159.8058453713
 20
76.8924672065
 10
159.786129993
 20
76.8828709175
 10
159.7647260963
 20
76.8744190933
 10
159.7418899266
 20
76.8671863562
 10
159.7178979487
 20
76.8612279179
  0
LWPOLYLINE
  5
4BD
100
AcDbEntity
  8
RACCORDO
100
AcDbPolyline
 62
7
  6
CONTINUOUS
 90
7
 70
0
 10
159.7051353006
 20
76.9160765568
 10
159.7124292219
 20
76.9196221231
 10
159.7243328843
 20
76.9248272689
 10
159.7371429366
 20
76.9297659375
 10
159.7525226418
 20
76.9350869942
 10
159.7715152948
 20
76.9411414126
 10
159.8187214735
 20
76.9555750778
  0
LWPOLYLINE
  5
4BE
100
AcDbEntity
  8
RACCORDO
100
AcDbPolyline
 62
253
  6
CONTINUOUS
 90
8
 70
0
 10
159.8277870316
 20
77.1829221164
 10
159.8481450759
 20
77.1925925891
 10
159.8675821216
 20
77.201381094
 10
159.8860981687
 20
77.209287631
 10
159.9036510704
 20
77.2161934509
 10
159.9202829735
 20
77.222217303
 10
159.9361203188
 20
77.2277154353
 10
159.9511815542
 20
77.2327278953
  0
LWPOLYLINE
  5
4BF
100
AcDbEntity
  8
RACCORDO
100
AcDbPolyline
 62
253
  6
CONTINUOUS
 90
13
 70
0
 10
159.0987385901
 20
75.1288939457
 10
159.0747322776
 20
75.1183363357
 10
159.0480305118
 20
75.1093393642
 10
159.0190272688
 20
75.1020886377
 10
158.9880975616
 20
75.0967355456
 10
158.9558082258
 20
75.0934331655
 10
158.9229311003
 20
75.0922832327
 10
158.890109369
 20
75.093301028
 10
158.8578391984
 20
75.0964639588
 10
158.8266894743
 20
75.1017150338
 10
158.7972005787
 20
75.1089603034
 10
158.769876136
 20
75.1180730171
 10
158.7451851995
 20
75.1288939457
  0
LWPOLYLINE
  5
4C0
100
AcDbEntity
  8
RACCORDO
100
AcDbPolyline
 62
253
  6
CONTINUOUS
 90
13
 70
0
 10
159.0987385901
 20
75.4802079178
 10
159.0743393717
 20
75.469498959
 10
159.0473072093
 20
75.4604429574
 10
159.0180842752
 20
75.4532050959
 10
158.9871317188
 20
75.4479180838
 10
158.9549912604
 20
75.444692007
 10
158.922283006
 20
75.4435963685
 10
158.8895930902
 20
75.4446484331
 10
158.8574590265
 20
75.4478285338
 10
158.8264336709
 20
75.4530818091
 10
158.7970498374
 20
75.460317715
 10
158.7698112718
 20
75.4694118565
 10
158.7451851995
 20
75.4802079178
  0
LWPOLYLINE
  5
4C1
100
AcDbEntity
  8
RACCORDO
100
AcDbPolyline
 62
253
  6
CONTINUOUS
 90
13
 70
0
 10
159.8058453713
 20
76.5837613084
 10
159.7812590332
 20
76.5729804885
 10
159.754068676
 20
76.5638964805
 10
159.7247395341
 20
76.5566647144
 10
159.6937734372
 20
76.5514089277
 10
159.661700224
 20
76.5482190483
 10
159.629068676
 20
76.547149656
 10
159.5964371279
 20
76.5482190483
 10
159.5643639147
 20
76.5514089277
 10
159.5333978179
 20
76.5566647144
 10
159.504068676
 20
76.5638964805
 10
159.4768783187
 20
76.5729804885
 10
159.4522919807
 20
76.5837613084
  0
LWPOLYLINE
  5
4C2
100
AcDbEntity
  8
RACCORDO
100
AcDbPolyline
 62
7
  6
CONTINUOUS
 90
9
 70
0
 10
159.0337652936
 20
74.9936754956
 10
159.0054786985
 20
74.9816459304
 10
158.9754914974
 20
74.9730809616
 10
158.9443169145
 20
74.9682837931
 10
158.9124122706
 20
74.9674648105
 10
158.8805273824
 20
74.9707398502
 10
158.8495198517
 20
74.9780080774
 10
158.8195598011
 20
74.9892170624
 10
158.8099968657
 20
74.9937565056
  0
ARC
  5
4C3
100
AcDbEntity
  8
RACCORDO
100
AcDbCircle
 62
7
  6
CONTINUOUS
 10
158.9219618948
 20
116.8682004048
 40
0.25
100
AcDbArc
 50
244.0406531095
 51
258.6758098606
  0
ARC
  5
4C4
100
AcDbEntity
  8
RACCORDO
100
AcDbCircle
 62
7
  6
CONTINUOUS
 10
145.5576437303
 20
123.550359487
 40
0.25
100
AcDbArc
 50
244.0406531095
 51
258.6758098606
  0
ELLIPSE
  5
4C5
100
AcDbEntity
  8
21814000
100
AcDbEllipse
 62
7
  6
CONTINUOUS
 10
152.9585261138
 20
129.6815974083
 30
0.0
 11
3.3311333813
 21
-0.0467042088
 31
0.0
 40
0.4892378494
 41
3.8528301344
 42
5.5059722822
  0
ELLIPSE
  5
4C6
100
AcDbEntity
  8
21814000
100
AcDbEllipse
 62
7
  6
CONTINUOUS
 10
153.6540163749
 20
128.3883375917
 30
0.0
 11
2.7583300471
 21
-0.038763314
 31
0.0
 40
0.4892375088
 41
0.4291477653
 42
0.6564870977
  0
ELLIPSE
  5
4C7
100
AcDbEntity
  8
21814000
100
AcDbEllipse
 62
7
  6
CONTINUOUS
 10
152.9822649328
 20
128.4998352757
 30
0.0
 11
2.7499350056
 21
-0.0386453369
 31
0.0
 40
0.4892375088
 41
8.654981679
 42
9.2557277435
  0
ELLIPSE
  5
4C8
100
AcDbEntity
  8
21814000
100
AcDbEllipse
 62
7
  6
CONTINUOUS
 10
153.6540163749
 20
128.3883375917
 30
0.0
 11
2.7583300471
 21
-0.038763314
 31
0.0
 40
0.4892375088
 41
0.9280596999
 42
2.3630697256
  0
ELLIPSE
  5
4C9
100
AcDbEntity
  8
21814000
100
AcDbEllipse
 62
7
  6
CONTINUOUS
 10
158.359730606
 20
129.5462381087
 30
0.0
 11
0.716172246
 21
0.6416715914
 31
0.0
 40
0.2882345029
 41
0.1142323894
 42
0.7807533904
  0
ELLIPSE
  5
4CA
100
AcDbEntity
  8
21814000
100
AcDbEllipse
 62
7
  6
CONTINUOUS
 10
153.6540163749
 20
130.3330483029
 30
0.0
 11
2.7583515655
 21
-1.4175703156
 31
0.0
 40
0.0109499087
 41
-0.9155571536
 42
-0.85781018
  0
ELLIPSE
  5
4CB
100
AcDbEntity
  8
21814000
100
AcDbEllipse
 62
7
  6
CONTINUOUS
 10
153.6540163749
 20
130.3330483029
 30
0.0
 11
2.7583515655
 21
-1.4175703156
 31
0.0
 40
0.0109499087
 41
-0.7017315251
 42
-0.6439845515
  0
ELLIPSE
  5
4CC
100
AcDbEntity
  8
21814000
100
AcDbEllipse
 62
7
  6
CONTINUOUS
 10
154.393024359
 20
131.5295912323
 30
0.0
 11
-0.2796057293
 21
0.9974617846
 31
0.0
 40
0.6760995073
 41
4.8467711056
 42
6.4001141399
  0
ELLIPSE
  5
4CD
100
AcDbEntity
  8
21814000
100
AcDbEllipse
 62
7
  6
CONTINUOUS
 10
152.9585261138
 20
129.6815974083
 30
0.0
 11
3.3311333813
 21
-0.0467042088
 31
0.0
 40
0.4892378494
 41
2.3616770883
 42
3.7058786528
  0
ELLIPSE
  5
4CE
100
AcDbEntity
  8
21814000
100
AcDbEllipse
 62
7
  6
CONTINUOUS
 10
153.6540163749
 20
128.8213502936
 30
0.0
 11
2.7583300471
 21
-0.038763314
 31
0.0
 40
0.4892375088
 41
0.1708839954
 42
2.3630697256
  0
ELLIPSE
  5
4CF
100
AcDbEntity
  8
26814000
100
AcDbEllipse
 62
7
  6
CONTINUOUS
 10
128.1720730237
 20
132.2431448403
 30
0.0
 11
0.110769438
 21
0.2241226716
 31
0.0
 40
0.6088015717
 41
-4.0304836828
 42
-3.1443650652
  0
ELLIPSE
  5
4D0
100
AcDbEntity
  8
26814000
100
AcDbEllipse
 62
7
  6
CONTINUOUS
 10
141.5363911881
 20
125.5609857581
 30
0.0
 11
0.110769438
 21
0.2241226716
 31
0.0
 40
0.6088015717
 41
-4.0304836828
 42
-3.1443650652
  0
ELLIPSE
  5
4D1
100
AcDbEntity
  8
26814000
100
AcDbEllipse
 62
7
  6
CONTINUOUS
 10
139.8264035209
 20
133.3744990141
 30
0.0
 11
0.2999991737
 21
-0.0014183462
 31
0.0
 40
0.4964289597
 41
0.7877451926
 42
2.3527237553
  0
ELLIPSE
  5
4D2
100
AcDbEntity
  8
26814000
100
AcDbEllipse
 62
7
  6
CONTINUOUS
 10
145.3808670351
 20
130.5972672571
 30
0.0
 11
0.2999991737
 21
-0.0014183462
 31
0.0
 40
0.4964289597
 41
0.7877451926
 42
2.3585415194
  0
ELLIPSE
  5
4D3
100
AcDbEntity
  8
26814000
100
AcDbEllipse
 62
7
  6
CONTINUOUS
 10
131.5559010061
 20
131.5689978021
 30
0.0
 11
0.110769438
 21
0.2241226716
 31
0.0
 40
0.6088015717
 41
1.2055040732
 42
2.2526937431
  0
ELLIPSE
  5
4D4
100
AcDbEntity
  8
26814000
100
AcDbEllipse
 62
7
  6
CONTINUOUS
 10
145.2717156477
 20
125.8146438719
 30
0.0
 11
0.110769438
 21
0.2241226716
 31
0.0
 40
0.6088015717
 41
-1.9360885804
 42
-0.8888910292
  0
ELLIPSE
  5
4D5
100
AcDbEntity
  8
26814000
100
AcDbEllipse
 62
7
  6
CONTINUOUS
 10
143.6515407913
 20
126.8856602764
 30
0.0
 11
0.1128509832
 21
0.2230818409
 31
0.0
 40
0.6159267166
 41
0.0028979148
 42
0.6817883054
  0
ELLIPSE
  5
4D6
100
AcDbEntity
  8
26814000
100
AcDbEllipse
 62
7
  6
CONTINUOUS
 10
141.5363911881
 20
125.8143571519
 30
0.0
 11
0.110769438
 21
0.2241226716
 31
0.0
 40
0.6088015717
 41
0.6877230618
 42
2.2527016244
  0
ELLIPSE
  5
4D7
100
AcDbEntity
  8
26814000
100
AcDbEllipse
 62
7
  6
CONTINUOUS
 10
131.9073974833
 20
132.4968029541
 30
0.0
 11
0.110769438
 21
0.2241226716
 31
0.0
 40
0.6088015717
 41
-1.9360885804
 42
-0.8888910292
  0
ELLIPSE
  5
4D8
100
AcDbEntity
  8
26814000
100
AcDbEllipse
 62
7
  6
CONTINUOUS
 10
130.2872226269
 20
133.5678193587
 30
0.0
 11
0.1128509832
 21
0.2230818409
 31
0.0
 40
0.6159267166
 41
0.0028979148
 42
0.6817883054
  0
ELLIPSE
  5
4D9
100
AcDbEntity
  8
26814000
100
AcDbEllipse
 62
7
  6
CONTINUOUS
 10
128.1720730237
 20
132.4965162341
 30
0.0
 11
0.110769438
 21
0.2241226716
 31
0.0
 40
0.6088015717
 41
0.6877230618
 42
2.2527016244
  0
ELLIPSE
  5
4DA
100
AcDbEntity
  8
26814000
100
AcDbEllipse
 62
7
  6
CONTINUOUS
 10
131.9073974833
 20
132.7577319305
 30
0.0
 11
0.110769438
 21
0.2241226716
 31
0.0
 40
0.6088015717
 41
5.394294278
 42
6.9592728406
  0
ELLIPSE
  5
4DB
100
AcDbEntity
  8
26814000
100
AcDbEllipse
 62
7
  6
CONTINUOUS
 10
145.2717156477
 20
126.0755728483
 30
0.0
 11
0.110769438
 21
0.2241226716
 31
0.0
 40
0.6088015717
 41
5.394294278
 42
6.9592728406
  0
ELLIPSE
  5
4DC
100
AcDbEntity
  8
26814000
100
AcDbEllipse
 62
7
  6
CONTINUOUS
 10
140.006855498
 20
132.0524388442
 30
0.0
 11
0.2999981629
 21
-0.0021225547
 31
0.0
 40
0.4946372042
 41
-0.7818985079
 42
0.0034997008
  0
ELLIPSE
  5
4DD
100
AcDbEntity
  8
26814000
100
AcDbEllipse
 62
7
  6
CONTINUOUS
 10
145.5613190122
 20
129.2752070871
 30
0.0
 11
0.2999981629
 21
-0.0021225547
 31
0.0
 40
0.4946372042
 41
-0.7760807437
 42
0.0035109161
  0
ELLIPSE
  5
4DE
100
AcDbEntity
  8
26814000
100
AcDbEllipse
 62
7
  6
CONTINUOUS
 10
133.8579097705
 20
130.4543176462
 30
0.0
 11
0.2999991335
 21
0.0014318851
 31
0.0
 40
0.5035541159
 41
8.6427941204
 42
10.207772683
  0
ELLIPSE
  5
4DF
100
AcDbEntity
  8
26814000
100
AcDbEllipse
 62
7
  6
CONTINUOUS
 10
127.8446188616
 20
130.6572475449
 30
0.0
 11
-0.1565168911
 21
0.3130623908
 31
0.0
 40
0.6123677712
 41
-0.6846781644
 42
0.8861181623
  0
ELLIPSE
  5
4E0
100
AcDbEntity
  8
26814000
100
AcDbEllipse
 62
7
  6
CONTINUOUS
 10
143.1181253353
 20
123.0204943081
 30
0.0
 11
-0.1565168911
 21
0.3130623908
 31
0.0
 40
0.6123677712
 41
-2.2554744912
 42
-0.6846781644
  0
ELLIPSE
  5
4E1
100
AcDbEntity
  8
26814000
100
AcDbEllipse
 62
7
  6
CONTINUOUS
 10
139.6504188386
 20
127.5580631122
 30
0.0
 11
0.2999991335
 21
0.0014318851
 31
0.0
 40
0.5035541159
 41
-2.3585979313
 42
-0.7936193687
  0
ELLIPSE
  5
4E2
100
AcDbEntity
  8
26814000
100
AcDbEllipse
 62
7
  6
CONTINUOUS
 10
139.6504188386
 20
126.3438640364
 30
0.0
 11
0.2999980272
 21
0.0021530184
 31
0.0
 40
0.5053247124
 41
-2.3598210761
 42
-0.7948425135
  0
ELLIPSE
  5
4E3
100
AcDbEntity
  8
26814000
100
AcDbEllipse
 62
7
  6
CONTINUOUS
 10
133.8579097705
 20
129.2401185704
 30
0.0
 11
0.2999980272
 21
0.0021530184
 31
0.0
 40
0.5053247124
 41
3.1379773283
 42
3.9233642311
  0
ELLIPSE
  5
4E4
100
AcDbEntity
  8
26814000
100
AcDbEllipse
 62
7
  6
CONTINUOUS
 10
145.5613190122
 20
130.5070412685
 30
0.0
 11
0.2999991737
 21
-0.0014183462
 31
0.0
 40
0.4964289597
 41
-0.77723337
 42
0.7877451926
  0
ELLIPSE
  5
4E5
100
AcDbEntity
  8
26814000
100
AcDbEllipse
 62
7
  6
CONTINUOUS
 10
140.006855498
 20
133.2842730256
 30
0.0
 11
0.2999991737
 21
-0.0014183462
 31
0.0
 40
0.4964289597
 41
-0.7830511342
 42
0.7877451926
  0
ELLIPSE
  5
4E6
100
AcDbEntity
  8
26814000
100
AcDbEllipse
 62
7
  6
CONTINUOUS
 10
143.1442245638
 20
125.010440464
 30
0.0
 11
0.1128509832
 21
0.2230818409
 31
0.0
 40
0.6159267166
 41
0.6934238338
 42
2.2584023964
  0
ELLIPSE
  5
4E7
100
AcDbEntity
  8
26814000
100
AcDbEllipse
 62
7
  6
CONTINUOUS
 10
143.1442245638
 20
124.7570690703
 30
0.0
 11
0.1128509832
 21
0.2230818409
 31
0.0
 40
0.6159267166
 41
-4.0247829108
 42
-2.9775853596
  0
ELLIPSE
  5
4E8
100
AcDbEntity
  8
26814000
100
AcDbEllipse
 62
7
  6
CONTINUOUS
 10
129.7799063993
 20
131.6925995463
 30
0.0
 11
0.1128509832
 21
0.2230818409
 31
0.0
 40
0.6159267166
 41
0.6934238338
 42
2.2584023964
  0
ELLIPSE
  5
4E9
100
AcDbEntity
  8
26814000
100
AcDbEllipse
 62
7
  6
CONTINUOUS
 10
129.7799063993
 20
131.4392281525
 30
0.0
 11
0.1128509832
 21
0.2230818409
 31
0.0
 40
0.6159267166
 41
-4.0247829108
 42
-2.9775853596
  0
ELLIPSE
  5
4EA
100
AcDbEntity
  8
RACCORDO
100
AcDbEllipse
 62
7
  6
CONTINUOUS
 10
161.3967817728
 20
78.3283115817
 30
0.0
 11
-0.2235807756
 21
0.4472283268
 31
0.0
 40
0.6125552124
 41
-3.139671321
 42
-2.255296188
  0
ELLIPSE
  5
4EB
100
AcDbEntity
  8
RACCORDO
100
AcDbEllipse
 62
7
  6
CONTINUOUS
 10
161.3967817728
 20
116.2298592882
 30
0.0
 11
-0.2237009107
 21
0.4473351135
 31
0.0
 40
0.6121897086
 41
-2.2557347926
 42
-0.6846338794
  0
ELLIPSE
  5
4EC
100
AcDbEntity
  8
RACCORDO
100
AcDbEllipse
 62
7
  6
CONTINUOUS
 10
154.2375894962
 20
125.6042890284
 30
0.0
 11
0.9987332359
 21
0.6172510855
 31
0.0
 40
0.0815198604
 41
0.0505521044
 42
0.7176053907
  0
ELLIPSE
  5
4ED
100
AcDbEntity
  8
RACCORDO
100
AcDbEllipse
 62
7
  6
CONTINUOUS
 10
165.9880123708
 20
119.7290775911
 30
0.0
 11
0.4349639225
 21
0.9005141702
 31
0.0
 40
0.6016116119
 41
-0.8943064336
 42
-0.538697204
  0
ELLIPSE
  5
4EE
100
AcDbEntity
  8
RACCORDO
100
AcDbEllipse
 62
7
  6
CONTINUOUS
 10
166.2226293838
 20
82.8484762356
 30
0.0
 11
0.9987332359
 21
0.6172510855
 31
0.0
 40
0.0815198604
 41
-2.3890806779
 42
-1.1913468732
  0
ELLIPSE
  5
4EF
100
AcDbEntity
  8
RACCORDO
100
AcDbEllipse
 62
7
  6
CONTINUOUS
 10
165.9880123708
 20
82.9657847421
 30
0.0
 11
0.4349639225
 21
0.9005141702
 31
0.0
 40
0.6016116119
 41
-1.2499156631
 42
-0.8943064336
  0
ELLIPSE
  5
4F0
100
AcDbEntity
  8
RACCORDO
100
AcDbEllipse
 62
7
  6
CONTINUOUS
 10
155.3816178077
 20
125.0612534034
 30
0.0
 11
0.2256808774
 21
0.4461742732
 31
0.0
 40
0.6158912572
 41
0.0028657685
 42
0.6875768343
  0
ELLIPSE
  5
4F1
100
AcDbEntity
  8
RACCORDO
100
AcDbEllipse
 62
7
  6
CONTINUOUS
 10
159.2384336449
 20
77.2408157131
 30
0.0
 11
-0.2235807756
 21
0.4472283268
 31
0.0
 40
0.6125552124
 41
2.4567882058
 42
4.0278891191
  0
ELLIPSE
  5
4F2
100
AcDbEntity
  8
RACCORDO
100
AcDbEllipse
 62
7
  6
CONTINUOUS
 10
159.2384336449
 20
115.2330625975
 30
0.0
 11
-0.2237009107
 21
0.4473351135
 31
0.0
 40
0.6121897086
 41
4.0274505145
 42
5.5985514278
  0
ELLIPSE
  5
4F3
100
AcDbEntity
  8
RACCORDO
100
AcDbEllipse
 62
7
  6
CONTINUOUS
 10
161.5430671663
 20
121.9805287241
 30
0.0
 11
0.2215594226
 21
0.4482351134
 31
0.0
 40
0.6088373611
 41
5.3943220613
 42
6.9651183881
  0
ELLIPSE
  5
4F4
100
AcDbEntity
  8
RACCORDO
100
AcDbEllipse
 62
7
  6
CONTINUOUS
 10
144.2512224865
 20
122.7266681767
 30
0.0
 11
-0.2235807756
 21
0.4472283268
 31
0.0
 40
0.6125552124
 41
-0.6848044477
 42
0.8862964655
  0
ELLIPSE
  5
4F5
100
AcDbEntity
  8
RACCORDO
100
AcDbEllipse
 62
7
  6
CONTINUOUS
 10
166.2226293838
 20
119.6117690846
 30
0.0
 11
-0.7417913999
 21
1.2002436976
 31
0.0
 40
0.5587454355
 41
5.0176587298
 42
6.2153925345
  0
ELLIPSE
  5
4F6
100
AcDbEntity
  8
RACCORDO
100
AcDbEllipse
 62
7
  6
CONTINUOUS
 10
155.5652351637
 20
118.5407258773
 30
0.0
 11
0.4999881828
 21
-0.0070264249
 31
0.0
 40
0.4892375088
 41
-2.3493192548
 42
-0.7727633415
  0
ELLIPSE
  5
4F7
100
AcDbEntity
  8
RACCORDO
100
AcDbEllipse
 62
7
  6
CONTINUOUS
 10
150.0457413113
 20
121.3004728035
 30
0.0
 11
0.4999881828
 21
-0.0070264249
 31
0.0
 40
0.4892375088
 41
-3.1347355197
 42
-2.3493192548
  0
ELLIPSE
  5
4F8
100
AcDbEntity
  8
RACCORDO
100
AcDbEllipse
 62
7
  6
CONTINUOUS
 10
157.4214591663
 20
81.9283860347
 30
0.0
 11
-0.2713091605
 21
0.4239062184
 31
0.0
 40
0.5451249042
 41
-3.2164578779
 42
-2.3115524019
  0
ELLIPSE
  5
4F9
100
AcDbEntity
  8
RACCORDO
100
AcDbEllipse
 62
7
  6
CONTINUOUS
 10
128.7892543356
 20
129.4475254192
 30
0.0
 11
-0.2786191524
 21
0.7501668109
 31
0.0
 40
0.6610921126
 41
-0.3090511146
 42
0.0213201203
  0
ELLIPSE
  5
4FA
100
AcDbEntity
  8
RACCORDO
100
AcDbEllipse
 62
7
  6
CONTINUOUS
 10
155.8708313101
 20
76.53529699
 30
0.0
 11
-0.2786191524
 21
0.7501668109
 31
0.0
 40
0.6610921126
 41
-3.1630638698
 42
-2.1868166574
  0
ELLIPSE
  5
4FB
100
AcDbEntity
  8
RACCORDO
100
AcDbEllipse
 62
7
  6
CONTINUOUS
 10
158.9825415528
 20
114.3508818107
 30
0.0
 11
-0.2783604326
 21
0.7500177284
 31
0.0
 40
0.6614719787
 41
-2.1862531203
 42
-0.61576138
  0
ENDSEC
  0
SECTION
  2
OBJECTS
  0
DICTIONARY
  5
C
100
AcDbDictionary
280
0
281
1
  3
ACAD_GROUP
350
D
  3
ACAD_MLINESTYLE
350
17
  3
ACAD_LAYOUT
350
1A
  3
ACAD_PLOTSETTINGS
350
19
  3
ACAD_PLOTSTYLENAME
350
E
  0
DICTIONARY
  5
D
102
{ACAD_REACTORS
330
C
102
}
100
AcDbDictionary
280
0
281
1
  0
ACDBDICTIONARYWDFLT
  5
E
102
{ACAD_REACTORS
330
C
102
}
100
AcDbDictionary
281
1
  3
Normal
350
F
100
AcDbDictionaryWithDefault
340
F
  0
DICTIONARY
  5
17
102
{ACAD_REACTORS
330
C
102
}
100
AcDbDictionary
280
0
281
1
  3
Standard
350
18
  0
DICTIONARY
  5
19
102
{ACAD_REACTORS
330
C
102
}
100
AcDbDictionary
281
1
  0
DICTIONARY
  5
1A
102
{ACAD_REACTORS
330
C
102
}
100
AcDbDictionary
281
1
  3
Model
350
4FC
  3
Layout1
350
4FD
  0
ACDBPLACEHOLDER
  5
F
102
{ACAD_REACTORS
330
E
102
}
  0
MLINESTYLE
  5
18
102
{ACAD_REACTORS
330
17
102
}
100
AcDbMlineStyle
  2
STANDARD
 70
0
  3

 62
256
 51
90.0
 52
90.0
 71
2
 49
0.5
 62
256
  6
BYLAYER
 49
-0.5
 62
256
  6
BYLAYER
  0
LAYOUT
  5
4FC
102
{ACAD_REACTORS
330
1A
102
}
100
AcDbPlotSettings
  1

  2
none_device
  4
ISO_A4_(297.00_x_210.00_MM)
  6

 40
0.0
 41
0.0
 42
0.0
 43
0.0
 44
297.0
 45
210.0
 46
0.0
 47
0.0
 48
0.0
 49
0.0
140
0.0
141
0.0
142
1.0
143
1.0
 70
1024
 72
1
 73
0
 74
0
  7

 75
0
147
1.0
148
0.0
149
0.0
100
AcDbLayout
  1
Model
 70
0
 71
0
 10
0.0
 20
0.0
 11
297.0
 21
210.0
 12
0.0
 22
0.0
 32
0.0
 14
0.0
 24
0.0
 34
0.0
 15
0.0
 25
0.0
 35
0.0
146
0.0
 13
0.0
 23
0.0
 33
0.0
 16
1.0
 26
0.0
 36
0.0
 17
0.0
 27
1.0
 37
0.0
 76
0
330
228
345
0
346
0
  0
LAYOUT
  5
4FD
102
{ACAD_REACTORS
330
1A
102
}
100
AcDbPlotSettings
  1

  2
none_device
  4
ISO_A4_(297.00_x_210.00_MM)
  6

 40
0.0
 41
0.0
 42
0.0
 43
0.0
 44
297.0
 45
210.0
 46
0.0
 47
0.0
 48
0.0
 49
0.0
140
0.0
141
0.0
142
1.0
143
1.0
 70
0
 72
1
 73
0
 74
0
  7

 75
0
147
1.0
148
0.0
149
0.0
100
AcDbLayout
  1
Layout1
 70
0
 71
1
 10
0.0
 20
0.0
 11
297.0
 21
210.0
 12
0.0
 22
0.0
 32
0.0
 14
0.0
 24
0.0
 34
0.0
 15
0.0
 25
0.0
 35
0.0
146
0.0
 13
0.0
 23
0.0
 33
0.0
 16
1.0
 26
0.0
 36
0.0
 17
0.0
 27
1.0
 37
0.0
 76
0
330
229
345
0
346
0
  0
ENDSEC
  0
EOF
