  0
SECTION
  2
HEADER
  9
$ACADVER
  1
AC1015
  9
$DWGCODEPAGE
  3
ANSI_1252
  9
$EXTMAX
 10
297.0
 20
210.0
 30
0.0
  9
$EXTMIN
 10
0.0
 20
0.0
 30
0.0
  9
$LIMMIN
 10
0.0
 20
0.0
  9
$LIMMAX
 10
297.0
 20
210.0
  9
$VIEWCTR
 10
148.5
 20
105.0
  9
$VIEWSIZE
 40
210.0
  9
$CLAYER
  8
0
  9
$LTSCALE
 40
16.335
  9
$CELTYPE
  6
BYLAYER
  9
$DIMSCALE
 40
1.0
  9
$DIMASZ
 40
3.0
  9
$DIMEXO
 40
0.5
  9
$DIMDLI
 40
11.286
  9
$DIMEXE
 40
1.5
  9
$DIMCEN
 40
2.673
  9
$DIMLFAC
 40
1.0
  9
$DIMBLK
  1
_FILLED
  9
$DIMTXT
 40
3.0
  9
$DIMTOL
 70
1
  9
$DIMLIM
 70
0
  9
$DIMTFAC
 40
1.0
  9
$DIMTP
 40
0.01
  9
$DIMTM
 40
0.01
  9
$DIMGAP
 40
0.625
  9
$DIMDSEP
 70
44
  9
$PDMODE
 70
3
  9
$PDSIZE
 40
3.0
  9
$HANDSEED
  5
598
  9
$TILEMODE
 70
1
  9
$MEASUREMENT
 70
1
  9
$INSUNITS
 70
4
  0
ENDSEC
  0
SECTION
  2
CLASSES
  0
CLASS
  1
ACDBDICTIONARYWDFLT
  2
AcDbDictionaryWithDefault
  3
AutoCAD 2000
 90
0
280
0
281
0
  0
CLASS
  1
ACDBPLACEHOLDER
  2
AcDbPlaceHolder
  3
AutoCAD 2000
 90
0
280
0
281
0
  0
CLASS
  1
LAYOUT
  2
AcDbLayout
  3
AutoCAD 2000
 90
0
280
0
281
0
  0
ENDSEC
  0
SECTION
  2
TABLES
  0
TABLE
  2
VPORT
  5
8
100
AcDbSymbolTable
 70
2
  0
VPORT
  5
1F4
100
AcDbSymbolTableRecord
100
AcDbViewportTableRecord
  2
*ACTIVE
 70
0
 10
0.0
 20
0.0
 11
1.0
 21
1.0
 12
148.5
 22
105.0
 13
0.0
 23
0.0
 14
1.0
 24
1.0
 15
0.0
 25
0.0
 16
0.0
 26
0.0
 36
1.0
 17
0.0
 27
0.0
 37
0.0
 40
210.0
 41
1.4142857143
 42
50.0
 43
0.0
 44
0.0
 50
0.0
 51
0.0
 71
0
 72
100
 73
1
 74
1
 75
0
 76
0
 77
0
 78
0
  0
ENDTAB
  0
TABLE
  2
LTYPE
  5
5
100
AcDbSymbolTable
 70
6
  0
LTYPE
  5
14
100
AcDbSymbolTableRecord
100
AcDbLinetypeTableRecord
  2
BYBLOCK
 70
0
  3

 72
65
 73
0
 40
0.0
  0
LTYPE
  5
15
100
AcDbSymbolTableRecord
100
AcDbLinetypeTableRecord
  2
BYLAYER
 70
0
  3

 72
65
 73
0
 40
0.0
  0
LTYPE
  5
16
100
AcDbSymbolTableRecord
100
AcDbLinetypeTableRecord
  2
CONTINUOUS
 70
64
  3
Solid line
 72
65
 73
0
 40
0.0
  0
LTYPE
  5
1F5
100
AcDbSymbolTableRecord
100
AcDbLinetypeTableRecord
  2
CENTER
 70
64
  3
____ _ ____ _ ____ _ ____ _ ____ _ ____ _ ____
 72
65
 73
4
 40
0.6
 49
0.375
 74
0
 49
-0.075
 74
0
 49
0.075
 74
0
 49
-0.075
 74
0
  0
LTYPE
  5
1F6
100
AcDbSymbolTableRecord
100
AcDbLinetypeTableRecord
  2
HIDDEN
 70
64
  3
- - - - - - - - - - - - - - - - - - - -
 72
65
 73
2
 40
0.2
 49
0.1
 74
0
 49
-0.1
 74
0
  0
LTYPE
  5
1F7
100
AcDbSymbolTableRecord
100
AcDbLinetypeTableRecord
  2
PHANTOM
 70
64
  3
_____ _ _ _____ _ _ _____ _ _ _____
 72
65
 73
6
 40
0.8
 49
0.45
 74
0
 49
-0.05
 74
0
 49
0.1
 74
0
 49
-0.05
 74
0
 49
0.1
 74
0
 49
-0.05
 74
0
  0
LTYPE
  5
1F8
100
AcDbSymbolTableRecord
100
AcDbLinetypeTableRecord
  2
DOT
 70
64
  3
. . . . . . . . . . . . . . . . . . . .
 72
65
 73
2
 40
0.2
 49
0.1
 74
0
 49
-0.1
 74
0
  0
LTYPE
  5
1F9
100
AcDbSymbolTableRecord
100
AcDbLinetypeTableRecord
  2
DASHED
 70
64
  3
- - - - - - - - - - - - - - - - - - - -
 72
65
 73
2
 40
0.2
 49
0.1
 74
0
 49
-0.1
 74
0
  0
ENDTAB
  0
TABLE
  2
LAYER
  5
2
100
AcDbSymbolTable
 70
36
  0
LAYER
  5
10
100
AcDbSymbolTableRecord
100
AcDbLayerTableRecord
  2
0
 70
0
 62
7
  6
CONTINUOUS
370
-3
390
F
  0
LAYER
  5
1FA
100
AcDbSymbolTableRecord
100
AcDbLayerTableRecord
  2
DEFAULT_1
 70
0
 62
7
  6
CENTER
370
-3
390
F
  0
LAYER
  5
1FB
100
AcDbSymbolTableRecord
100
AcDbLayerTableRecord
  2
DEFAULT_2
 70
0
 62
7
  6
HIDDEN
370
-3
390
F
  0
LAYER
  5
1FC
100
AcDbSymbolTableRecord
100
AcDbLayerTableRecord
  2
DEFAULT_3
 70
0
 62
7
  6
PHANTOM
370
-3
390
F
  0
LAYER
  5
1FD
100
AcDbSymbolTableRecord
100
AcDbLayerTableRecord
  2
21814000
 70
0
 62
7
  6
CONTINUOUS
370
-3
390
F
  0
LAYER
  5
1FE
100
AcDbSymbolTableRecord
100
AcDbLayerTableRecord
  2
260140000
 70
0
 62
7
  6
CONTINUOUS
370
-3
390
F
  0
LAYER
  5
1FF
100
AcDbSymbolTableRecord
100
AcDbLayerTableRecord
  2
26814000
 70
0
 62
7
  6
CONTINUOUS
370
-3
390
F
  0
LAYER
  5
200
100
AcDbSymbolTableRecord
100
AcDbLayerTableRecord
  2
28414000
 70
0
 62
7
  6
CONTINUOUS
370
-3
390
F
  0
LAYER
  5
201
100
AcDbSymbolTableRecord
100
AcDbLayerTableRecord
  2
290140000
 70
0
 62
7
  6
CONTINUOUS
370
-3
390
F
  0
LAYER
  5
202
100
AcDbSymbolTableRecord
100
AcDbLayerTableRecord
  2
340000230
 70
0
 62
7
  6
CONTINUOUS
370
-3
390
F
  0
LAYER
  5
203
100
AcDbSymbolTableRecord
100
AcDbLayerTableRecord
  2
712140000
 70
0
 62
7
  6
CONTINUOUS
370
-3
390
F
  0
LAYER
  5
204
100
AcDbSymbolTableRecord
100
AcDbLayerTableRecord
  2
715140000
 70
0
 62
7
  6
CONTINUOUS
370
-3
390
F
  0
LAYER
  5
205
100
AcDbSymbolTableRecord
100
AcDbLayerTableRecord
  2
ASSI
 70
0
 62
7
  6
CONTINUOUS
370
-3
390
F
  0
LAYER
  5
206
100
AcDbSymbolTableRecord
100
AcDbLayerTableRecord
  2
COLORE_TOP
 70
0
 62
7
  6
CONTINUOUS
370
-3
390
F
  0
LAYER
  5
207
100
AcDbSymbolTableRecord
100
AcDbLayerTableRecord
  2
COORDINATE
 70
0
 62
7
  6
CONTINUOUS
370
-3
390
F
  0
LAYER
  5
208
100
AcDbSymbolTableRecord
100
AcDbLayerTableRecord
  2
COORD_ORIGINE
 70
0
 62
7
  6
CONTINUOUS
370
-3
390
F
  0
LAYER
  5
209
100
AcDbSymbolTableRecord
100
AcDbLayerTableRecord
  2
COPY_PUBLISH
 70
0
 62
7
  6
CONTINUOUS
370
-3
390
F
  0
LAYER
  5
20A
100
AcDbSymbolTableRecord
100
AcDbLayerTableRecord
  2
COSMETIC
 70
0
 62
7
  6
CONTINUOUS
370
-3
390
F
  0
LAYER
  5
20B
100
AcDbSymbolTableRecord
100
AcDbLayerTableRecord
  2
COSMETICHE
 70
0
 62
7
  6
CONTINUOUS
370
-3
390
F
  0
LAYER
  5
20C
100
AcDbSymbolTableRecord
100
AcDbLayerTableRecord
  2
COSMETICI
 70
0
 62
7
  6
CONTINUOUS
370
-3
390
F
  0
LAYER
  5
20D
100
AcDbSymbolTableRecord
100
AcDbLayerTableRecord
  2
CURVE
 70
0
 62
7
  6
CONTINUOUS
370
-3
390
F
  0
LAYER
  5
20E
100
AcDbSymbolTableRecord
100
AcDbLayerTableRecord
  2
DRAFT
 70
0
 62
7
  6
CONTINUOUS
370
-3
390
F
  0
LAYER
  5
20F
100
AcDbSymbolTableRecord
100
AcDbLayerTableRecord
  2
IMPORT
 70
0
 62
7
  6
CONTINUOUS
370
-3
390
F
  0
LAYER
  5
210
100
AcDbSymbolTableRecord
100
AcDbLayerTableRecord
  2
IMPORTED
 70
0
 62
7
  6
CONTINUOUS
370
-3
390
F
  0
LAYER
  5
211
100
AcDbSymbolTableRecord
100
AcDbLayerTableRecord
  2
IMPORT_IGES
 70
0
 62
7
  6
CONTINUOUS
370
-3
390
F
  0
LAYER
  5
212
100
AcDbSymbolTableRecord
100
AcDbLayerTableRecord
  2
INCISIONI_LASER
 70
0
 62
7
  6
CONTINUOUS
370
-3
390
F
  0
LAYER
  5
213
100
AcDbSymbolTableRecord
100
AcDbLayerTableRecord
  2
INTF_11
 70
0
 62
7
  6
CONTINUOUS
370
-3
390
F
  0
LAYER
  5
214
100
AcDbSymbolTableRecord
100
AcDbLayerTableRecord
  2
INTF_12
 70
0
 62
7
  6
CONTINUOUS
370
-3
390
F
  0
LAYER
  5
215
100
AcDbSymbolTableRecord
100
AcDbLayerTableRecord
  2
INTF_13
 70
0
 62
7
  6
CONTINUOUS
370
-3
390
F
  0
LAYER
  5
216
100
AcDbSymbolTableRecord
100
AcDbLayerTableRecord
  2
INTF_6
 70
0
 62
7
  6
CONTINUOUS
370
-3
390
F
  0
LAYER
  5
217
100
AcDbSymbolTableRecord
100
AcDbLayerTableRecord
  2
NOTE
 70
0
 62
7
  6
CONTINUOUS
370
-3
390
F
  0
LAYER
  5
218
100
AcDbSymbolTableRecord
100
AcDbLayerTableRecord
  2
PIANI
 70
0
 62
7
  6
CONTINUOUS
370
-3
390
F
  0
LAYER
  5
219
100
AcDbSymbolTableRecord
100
AcDbLayerTableRecord
  2
PIANI_DI_RIFERIMENTO
 70
0
 62
7
  6
CONTINUOUS
370
-3
390
F
  0
LAYER
  5
21A
100
AcDbSymbolTableRecord
100
AcDbLayerTableRecord
  2
PIANI_ORIGINE
 70
0
 62
7
  6
CONTINUOUS
370
-3
390
F
  0
LAYER
  5
21B
100
AcDbSymbolTableRecord
100
AcDbLayerTableRecord
  2
PIANI_RIFERIMENTO
 70
0
 62
7
  6
CONTINUOUS
370
-3
390
F
  0
LAYER
  5
21C
100
AcDbSymbolTableRecord
100
AcDbLayerTableRecord
  2
PIANI_SFORMO
 70
0
 62
7
  6
CONTINUOUS
370
-3
390
F
  0
LAYER
  5
21D
100
AcDbSymbolTableRecord
100
AcDbLayerTableRecord
  2
PUNTI
 70
0
 62
7
  6
CONTINUOUS
370
-3
390
F
  0
LAYER
  5
21E
100
AcDbSymbolTableRecord
100
AcDbLayerTableRecord
  2
RACCORDO
 70
0
 62
7
  6
CONTINUOUS
370
-3
390
F
  0
LAYER
  5
21F
100
AcDbSymbolTableRecord
100
AcDbLayerTableRecord
  2
RINTRACCIABILITA
 70
0
 62
7
  6
CONTINUOUS
370
-3
390
F
  0
LAYER
  5
220
100
AcDbSymbolTableRecord
100
AcDbLayerTableRecord
  2
SIMBOLI
 70
0
 62
7
  6
CONTINUOUS
370
-3
390
F
  0
LAYER
  5
221
100
AcDbSymbolTableRecord
100
AcDbLayerTableRecord
  2
SMUSSO
 70
0
 62
7
  6
CONTINUOUS
370
-3
390
F
  0
LAYER
  5
222
100
AcDbSymbolTableRecord
100
AcDbLayerTableRecord
  2
SNAPLINE
 70
0
 62
7
  6
CONTINUOUS
370
-3
390
F
  0
LAYER
  5
223
100
AcDbSymbolTableRecord
100
AcDbLayerTableRecord
  2
SUPERFICI
 70
0
 62
7
  6
CONTINUOUS
370
-3
390
F
  0
LAYER
  5
224
100
AcDbSymbolTableRecord
100
AcDbLayerTableRecord
  2
TRASH
 70
0
 62
7
  6
CONTINUOUS
370
-3
390
F
  0
LAYER
  5
225
100
AcDbSymbolTableRecord
100
AcDbLayerTableRecord
  2
WHITE
 70
0
 62
7
  6
CONTINUOUS
370
-3
390
F
  0
LAYER
  5
226
100
AcDbSymbolTableRecord
100
AcDbLayerTableRecord
  2
XSEC_DATUMS
 70
0
 62
7
  6
CONTINUOUS
370
-3
390
F
  0
ENDTAB
  0
TABLE
  2
STYLE
  5
3
100
AcDbSymbolTable
 70
1
  0
STYLE
  5
11
100
AcDbSymbolTableRecord
100
AcDbTextStyleTableRecord
  2
STANDARD
 70
0
 40
0.0
 41
0.8
 50
0.0
 71
0
 42
0.2
  3
txt
  4

  0
STYLE
  5
227
100
AcDbSymbolTableRecord
100
AcDbTextStyleTableRecord
  2
TEXTSTYLE_1
 70
0
 40
0.0
 41
0.8
 50
0.0
 71
0
 42
0.2
  3
gdt
  4

  0
ENDTAB
  0
TABLE
  2
VIEW
  5
6
100
AcDbSymbolTable
 70
0
  0
ENDTAB
  0
TABLE
  2
UCS
  5
7
100
AcDbSymbolTable
 70
0
  0
ENDTAB
  0
TABLE
  2
APPID
  5
9
100
AcDbSymbolTable
 70
1
  0
APPID
  5
228
100
AcDbSymbolTableRecord
100
AcDbRegAppTableRecord
  2
ACAD
 70
0
  0
ENDTAB
  0
TABLE
  2
BLOCK_RECORD
  5
1
100
AcDbSymbolTable
 70
0
  0
BLOCK_RECORD
  5
229
100
AcDbSymbolTableRecord
100
AcDbBlockTableRecord
  2
*Model_Space
  0
BLOCK_RECORD
  5
22A
100
AcDbSymbolTableRecord
100
AcDbBlockTableRecord
  2
*Paper_Space
  0
ENDTAB
  0
TABLE
  2
DIMSTYLE
  5
A
100
AcDbSymbolTable
 70
1
100
AcDbDimStyleTable
 71
0
  0
DIMSTYLE
105
22B
100
AcDbSymbolTableRecord
100
AcDbDimStyleTableRecord
  2
STANDARD
 70
0
  3

  4

 40
1.0
 41
3.0
 42
0.5
 43
0.38
 44
1.5
 45
0.0
 46
0.0
 47
0.01
 48
0.01
140
3.0
141
0.09
142
0.0
143
25.4
144
1.0
145
0.0
146
1.0
147
0.625
 71
1.0
 72
0.0
 73
0
 74
0
 75
0
 76
0
 77
1
 78
8
170
0
171
2
172
0
173
0
174
0
175
0
176
0
177
0
178
0
270
2
271
2
272
2
273
2
274
2
275
0
280
0
281
0
282
0
283
1
284
8
285
0
286
0
287
3
288
0
340
11
278
44
  0
ENDTAB
  0
ENDSEC
  0
SECTION
  2
BLOCKS
  0
BLOCK
  5
20
100
AcDbEntity
  8
0
100
AcDbBlockBegin
  2
*Model_Space
 70
0
 10
0.0
 20
0.0
 30
0.0
  3
*Model_Space
  1

  0
ENDBLK
  5
21
100
AcDbEntity
  8
0
100
AcDbBlockEnd
  0
BLOCK
  5
1C
100
AcDbEntity
  8
0
100
AcDbBlockBegin
  2
*Paper_Space
 70
0
 10
0.0
 20
0.0
 30
0.0
  3
*Paper_Space
  1

  0
ENDBLK
  5
1D
100
AcDbEntity
  8
0
100
AcDbBlockEnd
  0
ENDSEC
  0
SECTION
  2
ENTITIES
  0
LWPOLYLINE
  5
22C
100
AcDbEntity
  8
RACCORDO
100
AcDbPolyline
 62
253
  6
CONTINUOUS
 90
13
 70
0
 10
122.8624161345
 20
132.6060848232
 10
122.7838461273
 20
132.5204617124
 10
122.7086003702
 20
132.4286919986
 10
122.6371792464
 20
132.3314003565
 10
122.5700719364
 20
132.2292480106
 10
122.5077397196
 20
132.1229286492
 10
122.4505981724
 20
132.0131637654
 10
122.3990375758
 20
131.9006963326
 10
122.3534152888
 20
131.7862936689
 10
122.3140404209
 20
131.6707413621
 10
122.2811815119
 20
131.5548283049
 10
122.2550654625
 20
131.4393411408
 10
122.2358713761
 20
131.3250663071
  0
LWPOLYLINE
  5
22D
100
AcDbEntity
  8
ASSI
100
AcDbPolyline
 62
253
  6
CONTINUOUS
 90
3
 70
0
 10
122.8624161345
 20
132.6060848232
 10
122.7838461273
 20
132.5204617124
 10
122.7086003702
 20
132.4286919986
  0
LWPOLYLINE
  5
22E
100
AcDbEntity
  8
ASSI
100
AcDbPolyline
 62
253
  6
CONTINUOUS
 90
3
 70
0
 10
123.0273585197
 20
132.7566126909
 10
122.9437736048
 20
132.6849816138
 10
122.8624161345
 20
132.6060848232
  0
LWPOLYLINE
  5
22F
100
AcDbEntity
  8
ASSI
100
AcDbPolyline
 62
7
  6
CONTINUOUS
 90
10
 70
0
 10
122.9920210892
 20
132.975445145
 10
122.8162277602
 20
132.8843303437
 10
122.6466815351
 20
132.7631036182
 10
122.4912627332
 20
132.6170156603
 10
122.3491809256
 20
132.4450600016
 10
122.2239882059
 20
132.2491577946
 10
122.124626759
 20
132.0436798959
 10
122.0521295512
 20
131.8355413015
 10
122.0047978674
 20
131.6214513148
 10
121.9997825513
 20
131.5875230067
  0
LINE
  5
230
100
AcDbEntity
  8
26814000
100
AcDbLine
 62
7
  6
CONTINUOUS
 10
126.4173111344
 20
137.2499023968
 11
128.0000677376
 21
138.0618864941
  0
LINE
  5
231
100
AcDbEntity
  8
26814000
100
AcDbLine
 62
7
  6
CONTINUOUS
 10
125.9333560221
 20
135.5072019947
 11
126.9455783062
 21
136.0241319574
  0
LINE
  5
232
100
AcDbEntity
  8
26814000
100
AcDbLine
 62
253
  6
CONTINUOUS
 10
126.0908794284
 20
135.4977686652
 11
126.9455783062
 21
135.9342532851
  0
LINE
  5
233
100
AcDbEntity
  8
26814000
100
AcDbLine
 62
7
  6
CONTINUOUS
 10
128.0251325435
 20
136.4459916922
 11
129.6264133343
 21
137.2487136957
  0
LINE
  5
234
100
AcDbEntity
  8
26814000
100
AcDbLine
 62
7
  6
CONTINUOUS
 10
129.6264133343
 20
137.2487136957
 11
130.1546805061
 21
137.5121525158
  0
LINE
  5
235
100
AcDbEntity
  8
26814000
100
AcDbLine
 62
7
  6
CONTINUOUS
 10
128.0000677376
 20
138.0618864941
 11
128.5345176163
 21
138.3222339607
  0
LINE
  5
236
100
AcDbEntity
  8
RACCORDO
100
AcDbLine
 62
7
  6
CONTINUOUS
 10
150.0586140676
 20
79.1275948152
 11
150.1549127435
 21
79.1545696987
  0
LWPOLYLINE
  5
237
100
AcDbEntity
  8
RACCORDO
100
AcDbPolyline
 62
253
  6
CONTINUOUS
 90
19
 70
0
 10
150.4645452395
 20
79.629402749
 10
150.4233677725
 20
79.6181889028
 10
150.3833694447
 20
79.6113984158
 10
150.3445502564
 20
79.609031288
 10
150.306636773
 20
79.611122861
 10
150.2699024289
 20
79.6176377931
 10
150.2351675272
 20
79.6284700594
 10
150.2024971624
 20
79.6437159022
 10
150.1718262399
 20
79.6632790792
 10
150.1437797798
 20
79.6867648381
 10
150.1184118652
 20
79.7142556999
 10
150.0956684129
 20
79.7456691437
 10
150.076012193
 20
79.7803628542
 10
150.0595084069
 20
79.8184325903
 10
150.0460918532
 20
79.8597825931
 10
150.0360296978
 20
79.9034832705
 10
150.0294109959
 20
79.9492247586
 10
150.0261466922
 20
79.9973169213
 10
150.0262367867
 20
80.0477597588
  0
LWPOLYLINE
  5
238
100
AcDbEntity
  8
ASSI
100
AcDbPolyline
 62
253
  6
CONTINUOUS
 90
19
 70
0
 10
150.4645452395
 20
79.629402749
 10
150.4233677725
 20
79.6181889028
 10
150.3833694447
 20
79.6113984158
 10
150.3445502564
 20
79.609031288
 10
150.306636773
 20
79.611122861
 10
150.2699024289
 20
79.6176377931
 10
150.2351675272
 20
79.6284700594
 10
150.2024971624
 20
79.6437159022
 10
150.1718262399
 20
79.6632790792
 10
150.1437797798
 20
79.6867648381
 10
150.1184118652
 20
79.7142556999
 10
150.0956684129
 20
79.7456691437
 10
150.076012193
 20
79.7803628542
 10
150.0595084069
 20
79.8184325903
 10
150.0460918532
 20
79.8597825931
 10
150.0360296978
 20
79.9034832705
 10
150.0294109959
 20
79.9492247586
 10
150.0261466922
 20
79.9973169213
 10
150.0262367867
 20
80.0477597588
  0
LWPOLYLINE
  5
239
100
AcDbEntity
  8
ASSI
100
AcDbPolyline
 62
7
  6
CONTINUOUS
 90
3
 70
0
 10
149.898759989
 20
79.1008335096
 10
150.0671234397
 20
79.1296455701
 10
150.1548451155
 20
79.1545479123
  0
LWPOLYLINE
  5
23A
100
AcDbEntity
  8
RACCORDO
100
AcDbPolyline
 62
7
  6
CONTINUOUS
 90
3
 70
0
 10
149.8583554809
 20
79.0975930213
 10
149.9581026262
 20
79.10817038
 10
150.0586140676
 20
79.1275948152
  0
LINE
  5
23B
100
AcDbEntity
  8
ASSI
100
AcDbLine
 62
7
  6
CONTINUOUS
 10
149.7304329266
 20
79.0967862709
 11
149.898759989
 21
79.1008335096
  0
LWPOLYLINE
  5
23C
100
AcDbEntity
  8
ASSI
100
AcDbPolyline
 62
253
  6
CONTINUOUS
 90
4
 70
0
 10
122.5077397196
 20
132.1229286492
 10
122.4505981724
 20
132.0131637654
 10
122.3990375758
 20
131.9006963326
 10
122.3534152888
 20
131.7862936689
  0
LWPOLYLINE
  5
23D
100
AcDbEntity
  8
ASSI
100
AcDbPolyline
 62
253
  6
CONTINUOUS
 90
4
 70
0
 10
122.7086003702
 20
132.4286919986
 10
122.6371792464
 20
132.3314003565
 10
122.5700719364
 20
132.2292480106
 10
122.5077397196
 20
132.1229286492
  0
LWPOLYLINE
  5
23E
100
AcDbEntity
  8
26814000
100
AcDbPolyline
 62
7
  6
CONTINUOUS
 90
12
 70
0
 10
137.5905392313
 20
138.7296164412
 10
137.5842524399
 20
138.7262600676
 10
137.5723980133
 20
138.7187557945
 10
137.5607428333
 20
138.7098832832
 10
137.5492472385
 20
138.6996981727
 10
137.5379559408
 20
138.6882671003
 10
137.5268108744
 20
138.6756200741
 10
137.515743995
 20
138.661790538
 10
137.5047978758
 20
138.6468210391
 10
137.4939505747
 20
138.630738112
 10
137.4831121459
 20
138.6135698576
 10
137.472227778
 20
138.5953512262
  0
LINE
  5
23F
100
AcDbEntity
  8
26814000
100
AcDbLine
 62
7
  6
CONTINUOUS
 10
131.8908077657
 20
135.0971566983
 11
132.384129781
 21
135.3502402302
  0
LINE
  5
240
100
AcDbEntity
  8
26814000
100
AcDbLine
 62
7
  6
CONTINUOUS
 10
129.6264133343
 20
135.5166628882
 11
128.5595824222
 21
134.9780816387
  0
LINE
  5
241
100
AcDbEntity
  8
26814000
100
AcDbLine
 62
7
  6
CONTINUOUS
 10
131.0821943109
 20
135.4883214919
 11
137.5902309375
 21
138.7294630974
  0
LINE
  5
242
100
AcDbEntity
  8
26814000
100
AcDbLine
 62
253
  6
CONTINUOUS
 10
131.1576874513
 20
135.4505749216
 11
137.472227778
 21
138.5953512262
  0
LINE
  5
243
100
AcDbEntity
  8
26814000
100
AcDbLine
 62
7
  6
CONTINUOUS
 10
138.4652480992
 20
137.7156076954
 11
133.7276326652
 21
135.3805571808
  0
LINE
  5
244
100
AcDbEntity
  8
26814000
100
AcDbLine
 62
7
  6
CONTINUOUS
 10
132.384129781
 20
135.3502402302
 11
137.8617697704
 21
138.0185721934
  0
LWPOLYLINE
  5
245
100
AcDbEntity
  8
RACCORDO
100
AcDbPolyline
 62
253
  6
CONTINUOUS
 90
7
 70
0
 10
123.3724577118
 20
132.9614622188
 10
123.285753031
 20
132.923253587
 10
123.1989373937
 20
132.8761539123
 10
123.112607148
 20
132.8204821647
 10
123.0273585197
 20
132.7566126909
 10
122.9437736048
 20
132.6849816138
 10
122.8624161345
 20
132.6060848232
  0
LWPOLYLINE
  5
246
100
AcDbEntity
  8
ASSI
100
AcDbPolyline
 62
253
  6
CONTINUOUS
 90
5
 70
0
 10
123.3724577118
 20
132.9614622188
 10
123.285753031
 20
132.923253587
 10
123.1989373937
 20
132.8761539123
 10
123.112607148
 20
132.8204821647
 10
123.0273585197
 20
132.7566126909
  0
LWPOLYLINE
  5
247
100
AcDbEntity
  8
RACCORDO
100
AcDbPolyline
 62
7
  6
CONTINUOUS
 90
16
 70
0
 10
123.022365197
 20
132.9879794237
 10
122.9374421682
 20
132.9505989064
 10
122.8451732991
 20
132.9016008757
 10
122.7552220399
 20
132.8447883774
 10
122.6681116752
 20
132.7804466723
 10
122.5847114274
 20
132.7093316292
 10
122.5049922176
 20
132.6314997874
 10
122.4291725869
 20
132.5471237459
 10
122.3582839471
 20
132.4574442365
 10
122.2923927802
 20
132.3626147875
 10
122.2316815334
 20
132.2628282931
 10
122.1771025051
 20
132.1597318934
 10
122.1287554597
 20
132.0535866931
 10
122.0867632561
 20
131.944563437
 10
122.0517866408
 20
131.8343356842
 10
122.0240048379
 20
131.7235998935
  0
LINE
  5
248
100
AcDbEntity
  8
ASSI
100
AcDbLine
 62
7
  6
CONTINUOUS
 10
123.0221327535
 20
132.9878867308
 11
122.9920210892
 21
132.975445145
  0
LINE
  5
249
100
AcDbEntity
  8
RACCORDO
100
AcDbLine
 62
7
  6
CONTINUOUS
 10
126.9352935113
 20
134.5446074054
 11
123.0223588864
 21
132.9879952746
  0
LINE
  5
24A
100
AcDbEntity
  8
ASSI
100
AcDbLine
 62
7
  6
CONTINUOUS
 10
126.9352935113
 20
134.5446074054
 11
123.022126441
 21
132.9879025723
  0
LINE
  5
24B
100
AcDbEntity
  8
RACCORDO
100
AcDbLine
 62
253
  6
CONTINUOUS
 10
127.2814302734
 20
134.5164981429
 11
123.3724577118
 21
132.9614622188
  0
LINE
  5
24C
100
AcDbEntity
  8
ASSI
100
AcDbLine
 62
253
  6
CONTINUOUS
 10
127.2814302734
 20
134.5164981429
 11
123.3724577118
 21
132.9614622188
  0
LWPOLYLINE
  5
24D
100
AcDbEntity
  8
26814000
100
AcDbPolyline
 62
7
  6
CONTINUOUS
 90
3
 70
0
 10
137.6089869697
 20
138.737073784
 10
137.5964219499
 20
138.7323747331
 10
137.5905392313
 20
138.7296164412
  0
LWPOLYLINE
  5
24E
100
AcDbEntity
  8
26814000
100
AcDbPolyline
 62
7
  6
CONTINUOUS
 90
10
 70
0
 10
137.6089869697
 20
138.737073784
 10
137.6182265905
 20
138.7398195829
 10
137.6267897444
 20
138.7420853014
 10
137.6346764313
 20
138.7438709395
 10
137.6419257896
 20
138.7451973441
 10
137.6484986809
 20
138.7460436682
 10
137.6542776903
 20
138.7463473709
 10
137.6592586474
 20
138.7461080352
 10
137.6634457227
 20
138.745326078
 10
137.6660354038
 20
138.7443296448
  0
LWPOLYLINE
  5
24F
100
AcDbEntity
  8
RACCORDO
100
AcDbPolyline
 62
7
  6
CONTINUOUS
 90
3
 70
0
 10
149.6626322337
 20
79.1022723265
 10
149.7598234045
 20
79.0956910356
 10
149.8583554809
 20
79.0975930213
  0
LINE
  5
250
100
AcDbEntity
  8
ASSI
100
AcDbLine
 62
7
  6
CONTINUOUS
 10
149.5663898282
 20
79.1173587438
 11
149.7304329266
 21
79.0967862709
  0
LWPOLYLINE
  5
251
100
AcDbEntity
  8
ASSI
100
AcDbPolyline
 62
253
  6
CONTINUOUS
 90
4
 70
0
 10
122.3534152888
 20
131.7862936689
 10
122.3140404209
 20
131.6707413621
 10
122.2811815119
 20
131.5548283049
 10
122.2550654625
 20
131.4393411408
  0
LINE
  5
252
100
AcDbEntity
  8
26814000
100
AcDbLine
 62
7
  6
CONTINUOUS
 10
130.2415321693
 20
136.8911549291
 11
129.7142874536
 21
136.2494472011
  0
LINE
  5
253
100
AcDbEntity
  8
26814000
100
AcDbLine
 62
7
  6
CONTINUOUS
 10
139.7923219275
 20
136.2457334618
 11
138.394537421
 21
135.5468412086
  0
LINE
  5
254
100
AcDbEntity
  8
26814000
100
AcDbLine
 62
7
  6
CONTINUOUS
 10
138.0409840304
 20
136.2761760932
 11
138.4652480992
 21
136.483773514
  0
LINE
  5
255
100
AcDbEntity
  8
26814000
100
AcDbLine
 62
7
  6
CONTINUOUS
 10
140.4513176789
 20
137.1058062757
 11
138.394537421
 21
136.0993993979
  0
LINE
  5
256
100
AcDbEntity
  8
21814000
100
AcDbLine
 62
7
  6
CONTINUOUS
 10
137.4573302108
 20
134.9197454256
 11
137.3192154086
 21
134.8545083403
  0
LINE
  5
257
100
AcDbEntity
  8
21814000
100
AcDbLine
 62
253
  6
CONTINUOUS
 10
137.5408642172
 20
134.9112463389
 11
137.4045879282
 21
134.8468776561
  0
LWPOLYLINE
  5
258
100
AcDbEntity
  8
21814000
100
AcDbPolyline
 62
253
  6
CONTINUOUS
 90
11
 70
0
 10
138.3743303402
 20
134.9650663121
 10
138.3834228007
 20
134.9691567632
 10
138.392481475
 20
134.9725135484
 10
138.4014685966
 20
134.9751205204
 10
138.4103497843
 20
134.9769651246
 10
138.4190842486
 20
134.9780362703
 10
138.427625597
 20
134.9783272843
 10
138.4359424224
 20
134.9778367903
 10
138.4439956464
 20
134.9765667778
 10
138.4517316267
 20
134.9745292617
 10
138.4591052695
 20
134.9717458928
  0
LINE
  5
259
100
AcDbEntity
  8
21814000
100
AcDbLine
 62
7
  6
CONTINUOUS
 10
137.4573837262
 20
134.9197707031
 11
137.4605917664
 21
134.9211863327
  0
LWPOLYLINE
  5
25A
100
AcDbEntity
  8
21814000
100
AcDbPolyline
 62
7
  6
CONTINUOUS
 90
5
 70
0
 10
137.31909694
 20
134.854451438
 10
137.3239401047
 20
134.8565090623
 10
137.3313664645
 20
134.8588269247
 10
137.3395128827
 20
134.8603592894
 10
137.3484312177
 20
134.861010203
  0
LINE
  5
25B
100
AcDbEntity
  8
21814000
100
AcDbLine
 62
7
  6
CONTINUOUS
 10
137.5304323562
 20
134.9472874699
 11
137.460591405
 21
134.9211861625
  0
LINE
  5
25C
100
AcDbEntity
  8
21814000
100
AcDbLine
 62
7
  6
CONTINUOUS
 10
137.6054714663
 20
134.970215035
 11
137.5304323562
 21
134.9472874699
  0
LWPOLYLINE
  5
25D
100
AcDbEntity
  8
21814000
100
AcDbPolyline
 62
7
  6
CONTINUOUS
 90
6
 70
0
 10
137.4605917664
 20
134.9211863327
 10
137.473820041
 20
134.9251283576
 10
137.4896036611
 20
134.9264669931
 10
137.5062409936
 20
134.9245731679
 10
137.5234295947
 20
134.919471959
 10
137.5408642172
 20
134.9112463389
  0
LWPOLYLINE
  5
25E
100
AcDbEntity
  8
RACCORDO
100
AcDbPolyline
 62
253
  6
CONTINUOUS
 90
9
 70
0
 10
157.8365915895
 20
81.3892689172
 10
157.8624226701
 20
81.3883699017
 10
157.8883431502
 20
81.3888750471
 10
157.9141677395
 20
81.3907696401
 10
157.9396336779
 20
81.3940498939
 10
157.9644442627
 20
81.3986914068
 10
157.9883619303
 20
81.4046474598
 10
158.0111254838
 20
81.4118696821
 10
158.0324576979
 20
81.4203014536
  0
LWPOLYLINE
  5
25F
100
AcDbEntity
  8
RACCORDO
100
AcDbPolyline
 62
7
  6
CONTINUOUS
 90
3
 70
0
 10
149.4750756118
 20
79.1400055668
 10
149.5675000524
 20
79.1171344441
 10
149.6626322337
 20
79.1022723265
  0
LINE
  5
260
100
AcDbEntity
  8
ASSI
100
AcDbLine
 62
7
  6
CONTINUOUS
 10
149.4105051215
 20
79.1612731378
 11
149.5663898282
 21
79.1173587438
  0
LINE
  5
261
100
AcDbEntity
  8
RACCORDO
100
AcDbLine
 62
7
  6
CONTINUOUS
 10
149.3855145815
 20
79.1707305838
 11
149.4750756118
 21
79.1400055668
  0
LWPOLYLINE
  5
262
100
AcDbEntity
  8
ASSI
100
AcDbPolyline
 62
7
  6
CONTINUOUS
 90
4
 70
0
 10
119.040374421
 20
94.4476668898
 10
119.1808594322
 20
94.303033021
 10
119.3424224552
 20
94.1893658633
 10
119.3924119412
 20
94.1625256214
  0
LWPOLYLINE
  5
263
100
AcDbEntity
  8
ASSI
100
AcDbPolyline
 62
7
  6
CONTINUOUS
 90
3
 70
0
 10
118.840023991
 20
94.8213033351
 10
118.9243833277
 20
94.6229865618
 10
119.040374421
 20
94.4476668898
  0
LWPOLYLINE
  5
264
100
AcDbEntity
  8
RACCORDO
100
AcDbPolyline
 62
7
  6
CONTINUOUS
 90
14
 70
0
 10
118.77442537
 20
95.2819603792
 10
118.7770526763
 20
95.1583234969
 10
118.7894199736
 20
95.0389285443
 10
118.8112338577
 20
94.9243217794
 10
118.8421930592
 20
94.8146826116
 10
118.8820717291
 20
94.7102526108
 10
118.9305166474
 20
94.6116905288
 10
118.9871137004
 20
94.5195053067
 10
119.0514571032
 20
94.4341311705
 10
119.1228987849
 20
94.3562669152
 10
119.200721383
 20
94.2865001901
 10
119.2842158227
 20
94.2252132404
 10
119.3724961792
 20
94.1728025374
 10
119.39575969
 20
94.1608473109
  0
LWPOLYLINE
  5
265
100
AcDbEntity
  8
RACCORDO
100
AcDbPolyline
 62
253
  6
CONTINUOUS
 90
11
 70
0
 10
119.009613102
 20
95.0314423377
 10
119.0091014394
 20
94.9240383771
 10
119.0157561464
 20
94.8205961861
 10
119.0295307082
 20
94.7218208762
 10
119.0503280065
 20
94.6283857835
 10
119.0780062995
 20
94.5409284236
 10
119.1123793422
 20
94.4600453658
 10
119.1532072155
 20
94.3862904272
 10
119.2002100981
 20
94.320163245
 10
119.2530759632
 20
94.2621071998
 10
119.3114405378
 20
94.2125198741
  0
LWPOLYLINE
  5
266
100
AcDbEntity
  8
ASSI
100
AcDbPolyline
 62
253
  6
CONTINUOUS
 90
13
 70
0
 10
119.009613102
 20
95.0314423377
 10
119.0091014394
 20
94.9240383771
 10
119.0157561464
 20
94.8205961861
 10
119.0295307082
 20
94.7218208762
 10
119.0503280065
 20
94.6283857835
 10
119.0780062995
 20
94.5409284236
 10
119.1123793422
 20
94.4600453658
 10
119.1532072155
 20
94.3862904272
 10
119.2002100981
 20
94.320163245
 10
119.2530759632
 20
94.2621071998
 10
119.3114405378
 20
94.2125198741
 10
119.3749035681
 20
94.1717404178
 10
119.3922905403
 20
94.1625635889
  0
LWPOLYLINE
  5
267
100
AcDbEntity
  8
ASSI
100
AcDbPolyline
 62
7
  6
CONTINUOUS
 90
4
 70
0
 10
118.7752883281
 20
95.3124748441
 10
118.7741523376
 20
95.2512248077
 10
118.7903902868
 20
95.0324120094
 10
118.840023991
 20
94.8213033351
  0
LINE
  5
268
100
AcDbEntity
  8
RACCORDO
100
AcDbLine
 62
7
  6
CONTINUOUS
 10
118.7752764441
 20
95.3121595196
 11
118.77442537
 21
95.2819603792
  0
LINE
  5
269
100
AcDbEntity
  8
RACCORDO
100
AcDbLine
 62
7
  6
CONTINUOUS
 10
118.7752764441
 20
95.3121595196
 11
118.7752842722
 21
95.3123688832
  0
LINE
  5
26A
100
AcDbEntity
  8
ASSI
100
AcDbLine
 62
7
  6
CONTINUOUS
 10
118.7752842615
 20
95.3123685993
 11
118.7752883281
 21
95.3124748441
  0
LINE
  5
26B
100
AcDbEntity
  8
ASSI
100
AcDbLine
 62
7
  6
CONTINUOUS
 10
118.9357428519
 20
99.0087884702
 11
118.7752721117
 21
95.3123690535
  0
LWPOLYLINE
  5
26C
100
AcDbEntity
  8
RACCORDO
100
AcDbPolyline
 62
7
  6
CONTINUOUS
 90
3
 70
0
 10
119.0496967632
 20
101.2031527305
 10
118.8977659045
 20
98.2113015081
 10
118.7752721225
 20
95.3123693374
  0
LWPOLYLINE
  5
26D
100
AcDbEntity
  8
RACCORDO
100
AcDbPolyline
 62
7
  6
CONTINUOUS
 90
10
 70
0
 10
121.598697225
 20
128.5924007184
 10
121.210860493
 20
125.5125669268
 10
120.8490769796
 20
122.4409626977
 10
120.5134012593
 20
119.3780216429
 10
120.2038739656
 20
116.3241248515
 10
119.9205318532
 20
113.2796329878
 10
119.6634120813
 20
110.2449210249
 10
119.4325465665
 20
107.2203619483
 10
119.2279650179
 20
104.2063136175
 10
119.0496967632
 20
101.2031527305
  0
LWPOLYLINE
  5
26E
100
AcDbEntity
  8
ASSI
100
AcDbPolyline
 62
7
  6
CONTINUOUS
 90
9
 70
0
 10
121.9998411467
 20
131.588040534
 10
121.4956988381
 20
127.793553417
 10
120.9861561481
 20
123.6300634481
 10
120.5243957411
 20
119.4821164247
 10
120.1105295734
 20
115.3507060266
 10
119.7446513052
 20
111.2367547957
 10
119.4268443297
 20
107.1411640567
 10
119.1571848874
 20
103.0648494919
 10
118.9357428519
 20
99.0087884702
  0
LWPOLYLINE
  5
26F
100
AcDbEntity
  8
RACCORDO
100
AcDbPolyline
 62
253
  6
CONTINUOUS
 90
13
 70
0
 10
122.2358713761
 20
131.3250663071
 10
121.8244453646
 20
128.2503837248
 10
121.4388040444
 20
125.1835562373
 10
121.0789960846
 20
122.1249686987
 10
120.7450669448
 20
119.0750049509
 10
120.4370585946
 20
116.034047796
 10
120.1550095123
 20
113.0024789499
 10
119.8989549587
 20
109.9806790451
 10
119.6689272223
 20
106.9690273423
 10
119.4649553466
 20
103.9679017063
 10
119.2870648793
 20
100.9776788698
 10
119.135277866
 20
97.9987343849
 10
119.009613102
 20
95.0314423377
  0
LWPOLYLINE
  5
270
100
AcDbEntity
  8
ASSI
100
AcDbPolyline
 62
253
  6
CONTINUOUS
 90
12
 70
0
 10
122.2358713761
 20
131.3250663071
 10
121.8244453646
 20
128.2503837248
 10
121.4388040444
 20
125.1835562373
 10
121.0789960846
 20
122.1249686987
 10
120.7450669448
 20
119.0750049509
 10
120.4370585946
 20
116.034047796
 10
120.1550095123
 20
113.0024789499
 10
119.8989549587
 20
109.9806790451
 10
119.6689272223
 20
106.9690273423
 10
119.4649553466
 20
103.9679017063
 10
119.2870648793
 20
100.9776788698
 10
119.135277866
 20
97.9987343849
  0
LINE
  5
271
100
AcDbEntity
  8
RACCORDO
100
AcDbLine
 62
7
  6
CONTINUOUS
 10
121.9998411175
 20
131.5880403217
 11
121.598697225
 21
128.5924007184
  0
LINE
  5
272
100
AcDbEntity
  8
ASSI
100
AcDbLine
 62
253
  6
CONTINUOUS
 10
122.2550654625
 20
131.4393411408
 11
122.2358713761
 21
131.3250663071
  0
LWPOLYLINE
  5
273
100
AcDbEntity
  8
RACCORDO
100
AcDbPolyline
 62
7
  6
CONTINUOUS
 90
3
 70
0
 10
122.0240048379
 20
131.7235998935
 10
122.0033511675
 20
131.6121331476
 10
121.9998397971
 20
131.5879468017
  0
LINE
  5
274
100
AcDbEntity
  8
21814000
100
AcDbLine
 62
7
  6
CONTINUOUS
 10
137.3044842101
 20
134.8448319091
 11
136.3935578516
 21
134.0475945876
  0
LINE
  5
275
100
AcDbEntity
  8
21814000
100
AcDbLine
 62
253
  6
CONTINUOUS
 10
137.4039290538
 20
134.8472070933
 11
136.4551188735
 21
134.0168140766
  0
LWPOLYLINE
  5
276
100
AcDbEntity
  8
21814000
100
AcDbPolyline
 62
7
  6
CONTINUOUS
 90
5
 70
0
 10
137.3043869712
 20
134.8447463106
 10
137.3054677745
 20
134.8456778311
 10
137.3110161392
 20
134.8498605675
 10
137.3171705992
 20
134.8534982161
 10
137.31909694
 20
134.854451438
  0
LINE
  5
277
100
AcDbEntity
  8
21814000
100
AcDbLine
 62
253
  6
CONTINUOUS
 10
136.9558478319
 20
133.7664495975
 11
137.4296562755
 21
134.1378696539
  0
LINE
  5
278
100
AcDbEntity
  8
21814000
100
AcDbLine
 62
253
  6
CONTINUOUS
 10
137.2337374949
 20
133.627504766
 11
137.6024634054
 21
133.916550266
  0
LWPOLYLINE
  5
279
100
AcDbEntity
  8
21814000
100
AcDbPolyline
 62
253
  6
CONTINUOUS
 90
13
 70
0
 10
137.4296562755
 20
134.1378696539
 10
137.4708351948
 20
134.1674157838
 10
137.5140305671
 20
134.19402592
 10
137.5592423925
 20
134.2177000624
 10
137.6070193605
 20
134.2385950304
 10
137.6568127816
 20
134.2565540047
 10
137.7069765868
 20
134.2711065269
 10
137.7574823778
 20
134.2821250249
 10
137.8083585528
 20
134.289737071
 10
137.8580442382
 20
134.2938549228
 10
137.9063991926
 20
134.2943931183
 10
137.9535636572
 20
134.2914371196
 10
137.9983974822
 20
134.2851555714
  0
LINE
  5
27A
100
AcDbEntity
  8
26814000
100
AcDbLine
 62
7
  6
CONTINUOUS
 10
138.1075737226
 20
131.9887737198
 11
138.6066694554
 21
132.2389703929
  0
LINE
  5
27B
100
AcDbEntity
  8
26814000
100
AcDbLine
 62
7
  6
CONTINUOUS
 10
138.6066694554
 20
132.2389703929
 11
144.0209421506
 21
134.9389860033
  0
LINE
  5
27C
100
AcDbEntity
  8
26814000
100
AcDbLine
 62
7
  6
CONTINUOUS
 10
143.4149955675
 20
135.2407339613
 11
138.6773801335
 21
132.9056834466
  0
LWPOLYLINE
  5
27D
100
AcDbEntity
  8
26814000
100
AcDbPolyline
 62
7
  6
CONTINUOUS
 90
18
 70
0
 10
144.693958366
 20
134.9844859321
 10
144.7223328868
 20
134.9976678889
 10
144.7505673388
 20
135.0094022807
 10
144.778661722
 20
135.0196891074
 10
144.8066660351
 20
135.028541242
 10
144.8345302794
 20
135.0359458115
 10
144.862104459
 20
135.0418641972
 10
144.8893735876
 20
135.0462876184
 10
144.9163526517
 20
135.0492248558
 10
144.9429366143
 20
135.0506636317
 10
144.9691415731
 20
135.0505964951
 10
144.9949514306
 20
135.0490308972
 10
145.0202128569
 20
135.0459769138
 10
145.0449026102
 20
135.0414311294
 10
145.0690439323
 20
135.0353969595
 10
145.0925532186
 20
135.0278947267
 10
145.1154489988
 20
135.0189093121
 10
145.1350110831
 20
135.009819579
  0
LWPOLYLINE
  5
27E
100
AcDbEntity
  8
21814000
100
AcDbPolyline
 62
253
  6
CONTINUOUS
 90
9
 70
0
 10
151.3117543195
 20
137.5211680194
 10
151.365760721
 20
137.5441995353
 10
151.4194807941
 20
137.5614411719
 10
151.4725166386
 20
137.5727059435
 10
151.5245025639
 20
137.57784986
 10
151.5750038137
 20
137.5767617211
 10
151.6235319499
 20
137.5694063258
 10
151.6697142426
 20
137.5558121763
 10
151.703125333
 20
137.5413023051
  0
LWPOLYLINE
  5
27F
100
AcDbEntity
  8
21814000
100
AcDbPolyline
 62
7
  6
CONTINUOUS
 90
12
 70
0
 10
150.9232968369
 20
137.553382355
 10
150.988924313
 20
137.5806020046
 10
151.0576231436
 20
137.602877774
 10
151.1289306261
 20
137.6197771563
 10
151.2024872756
 20
137.6309414807
 10
151.2775152579
 20
137.6360132036
 10
151.3529012154
 20
137.6347923567
 10
151.4280867241
 20
137.6272422218
 10
151.5024441556
 20
137.6133955902
 10
151.5749655271
 20
137.5934859734
 10
151.6453175586
 20
137.5676965227
 10
151.7031576876
 20
137.5412861276
  0
LWPOLYLINE
  5
280
100
AcDbEntity
  8
21814000
100
AcDbPolyline
 62
253
  6
CONTINUOUS
 90
9
 70
0
 10
150.9232968369
 20
137.553382355
 10
150.9512094624
 20
137.5647813346
 10
150.9977238755
 20
137.5777603876
 10
151.0465428281
 20
137.5843379809
 10
151.0972949226
 20
137.5844640744
 10
151.1495940546
 20
137.578137709
 10
151.2030423504
 20
137.5654070133
 10
151.2572331937
 20
137.5463688381
 10
151.3117543195
 20
137.5211680194
  0
LINE
  5
281
100
AcDbEntity
  8
RACCORDO
100
AcDbLine
 62
253
  6
CONTINUOUS
 10
159.4663195004
 20
81.0782687766
 11
158.9359894145
 21
81.1881037336
  0
LINE
  5
282
100
AcDbEntity
  8
RACCORDO
100
AcDbLine
 62
253
  6
CONTINUOUS
 10
159.3779311528
 20
81.398351298
 11
158.8476010669
 21
81.5081862551
  0
LINE
  5
283
100
AcDbEntity
  8
ASSI
100
AcDbLine
 62
7
  6
CONTINUOUS
 10
149.2931415272
 20
79.2121867494
 11
149.4105051215
 21
79.1612731378
  0
LINE
  5
284
100
AcDbEntity
  8
RACCORDO
100
AcDbLine
 62
7
  6
CONTINUOUS
 10
149.297607101
 20
79.2099224916
 11
149.3855145815
 21
79.1707305838
  0
LWPOLYLINE
  5
285
100
AcDbEntity
  8
RACCORDO
100
AcDbPolyline
 62
253
  6
CONTINUOUS
 90
16
 70
0
 10
148.9053653867
 20
80.0835662169
 10
148.9668729616
 20
80.0557553655
 10
149.033776253
 20
80.0309268831
 10
149.1053584021
 20
80.0093468031
 10
149.180852417
 20
79.9912463526
 10
149.2594493906
 20
79.9768194755
 10
149.3403071681
 20
79.9662207539
 10
149.4225593707
 20
79.9595637515
 10
149.5053246783
 20
79.9569197972
 10
149.587716273
 20
79.9583172204
 10
149.6688513414
 20
79.963741048
 10
149.7478605333
 20
79.9731331644
 10
149.8238972771
 20
79.9863929347
 10
149.8961468505
 20
80.0033782823
 10
149.9638351103
 20
80.0239072118
 10
150.0262367867
 20
80.0477597588
  0
LWPOLYLINE
  5
286
100
AcDbEntity
  8
ASSI
100
AcDbPolyline
 62
253
  6
CONTINUOUS
 90
16
 70
0
 10
148.9053653867
 20
80.0835662169
 10
148.9668729616
 20
80.0557553655
 10
149.033776253
 20
80.0309268831
 10
149.1053584021
 20
80.0093468031
 10
149.180852417
 20
79.9912463526
 10
149.2594493906
 20
79.9768194755
 10
149.3403071681
 20
79.9662207539
 10
149.4225593707
 20
79.9595637515
 10
149.5053246783
 20
79.9569197972
 10
149.587716273
 20
79.9583172204
 10
149.6688513414
 20
79.963741048
 10
149.7478605333
 20
79.9731331644
 10
149.8238972771
 20
79.9863929347
 10
149.8961468505
 20
80.0033782823
 10
149.9638351103
 20
80.0239072118
 10
150.0262367867
 20
80.0477597588
  0
LINE
  5
287
100
AcDbEntity
  8
RACCORDO
100
AcDbLine
 62
7
  6
CONTINUOUS
 10
149.298049189
 20
79.2096787919
 11
119.3943432311
 21
94.1615317708
  0
LINE
  5
288
100
AcDbEntity
  8
RACCORDO
100
AcDbLine
 62
253
  6
CONTINUOUS
 10
148.9053653639
 20
80.0835662068
 11
119.009613102
 21
95.0314423377
  0
LINE
  5
289
100
AcDbEntity
  8
ASSI
100
AcDbLine
 62
253
  6
CONTINUOUS
 10
148.9053653639
 20
80.0835662068
 11
119.009613102
 21
95.0314423377
  0
LINE
  5
28A
100
AcDbEntity
  8
ASSI
100
AcDbLine
 62
7
  6
CONTINUOUS
 10
119.3922905403
 20
94.1625635889
 11
149.298049189
 21
79.2096787919
  0
LINE
  5
28B
100
AcDbEntity
  8
ASSI
100
AcDbLine
 62
253
  6
CONTINUOUS
 10
149.2980213998
 20
79.2096926865
 11
149.2930282449
 21
79.2122198734
  0
LWPOLYLINE
  5
28C
100
AcDbEntity
  8
RACCORDO
100
AcDbPolyline
 62
253
  6
CONTINUOUS
 90
13
 70
0
 10
149.2974811003
 20
79.2099631959
 10
149.2782096902
 20
79.2200873567
 10
149.2135942821
 20
79.2614430019
 10
149.1541581503
 20
79.3115661062
 10
149.1003032582
 20
79.3701166649
 10
149.0523921691
 20
79.4366979504
 10
149.0107553208
 20
79.5108573765
 10
148.9756746181
 20
79.5920942643
 10
148.9473878966
 20
79.6798558385
 10
148.9260935623
 20
79.7735394492
 10
148.9119374105
 20
79.872505554
 10
148.9050125062
 20
79.9760828438
 10
148.9053653639
 20
80.0835662068
  0
LWPOLYLINE
  5
28D
100
AcDbEntity
  8
ASSI
100
AcDbPolyline
 62
253
  6
CONTINUOUS
 90
13
 70
0
 10
149.2930282449
 20
79.2122198734
 10
149.2782096902
 20
79.2200873567
 10
149.2135942821
 20
79.2614430019
 10
149.1541581503
 20
79.3115661062
 10
149.1003032582
 20
79.3701166649
 10
149.0523921691
 20
79.4366979504
 10
149.0107553208
 20
79.5108573765
 10
148.9756746181
 20
79.5920942643
 10
148.9473878966
 20
79.6798558385
 10
148.9260935623
 20
79.7735394492
 10
148.9119374105
 20
79.872505554
 10
148.9050125062
 20
79.9760828438
 10
148.9053653639
 20
80.0835662068
  0
LWPOLYLINE
  5
28E
100
AcDbEntity
  8
RACCORDO
100
AcDbPolyline
 62
253
  6
CONTINUOUS
 90
9
 70
0
 10
119.0096276392
 20
95.0314487881
 10
118.9541815831
 20
95.0621146247
 10
118.9053841931
 20
95.0951361899
 10
118.8637583161
 20
95.1301596693
 10
118.8297499587
 20
95.1668097985
 10
118.8037235085
 20
95.2046938846
 10
118.7859578299
 20
95.2434060132
 10
118.7766432757
 20
95.2825313975
 10
118.7752764441
 20
95.3121595196
  0
LWPOLYLINE
  5
28F
100
AcDbEntity
  8
ASSI
100
AcDbPolyline
 62
253
  6
CONTINUOUS
 90
9
 70
0
 10
119.0096276392
 20
95.0314487881
 10
118.9541815831
 20
95.0621146247
 10
118.9053841931
 20
95.0951361899
 10
118.8637583161
 20
95.1301596693
 10
118.8297499587
 20
95.1668097985
 10
118.8037235085
 20
95.2046938846
 10
118.7859578299
 20
95.2434060132
 10
118.7766432757
 20
95.2825313975
 10
118.7752842615
 20
95.3123685993
  0
LWPOLYLINE
  5
290
100
AcDbEntity
  8
RACCORDO
100
AcDbPolyline
 62
253
  6
CONTINUOUS
 90
3
 70
0
 10
119.3114405378
 20
94.2125198741
 10
119.3749035681
 20
94.1717404178
 10
119.3943664002
 20
94.1615201863
  0
LINE
  5
291
100
AcDbEntity
  8
ASSI
100
AcDbLine
 62
253
  6
CONTINUOUS
 10
119.135277866
 20
97.9987343849
 11
119.009613102
 21
95.0314423377
  0
LWPOLYLINE
  5
292
100
AcDbEntity
  8
21814000
100
AcDbPolyline
 62
253
  6
CONTINUOUS
 90
10
 70
0
 10
138.3743303402
 20
134.9650663121
 10
138.3795874677
 20
134.9705938175
 10
138.3848219357
 20
134.9753567752
 10
138.3900111421
 20
134.9793324037
 10
138.3951345801
 20
134.9825023047
 10
138.4001678167
 20
134.9848486329
 10
138.4050830118
 20
134.986357484
 10
138.4098611333
 20
134.9870229462
 10
138.414479337
 20
134.9868417665
 10
138.4165186518
 20
134.9864800995
  0
LWPOLYLINE
  5
293
100
AcDbEntity
  8
21814000
100
AcDbPolyline
 62
253
  6
CONTINUOUS
 90
10
 70
0
 10
138.1177749693
 20
134.2465262748
 10
138.0987340808
 20
134.2284667097
 10
138.0808860252
 20
134.2077562444
 10
138.0645977288
 20
134.1848206514
 10
138.0502040517
 20
134.1601314481
 10
138.0380009035
 20
134.1341962031
 10
138.0282391608
 20
134.1075481016
 10
138.0211195085
 20
134.080734984
 10
138.0167883148
 20
134.0543080829
 10
138.0153346217
 20
134.0288106913
  0
LWPOLYLINE
  5
294
100
AcDbEntity
  8
21814000
100
AcDbPolyline
 62
253
  6
CONTINUOUS
 90
10
 70
0
 10
138.8761805679
 20
133.8673234755
 10
138.8571391154
 20
133.8492632811
 10
138.8392907236
 20
133.8285522208
 10
138.8230023078
 20
133.8056161607
 10
138.808608707
 20
133.7809267122
 10
138.7964057676
 20
133.7549914753
 10
138.7866442814
 20
133.7283435943
 10
138.7795248732
 20
133.7015308821
 10
138.7751938596
 20
133.6751045657
 10
138.7737402225
 20
133.649607891
  0
LWPOLYLINE
  5
295
100
AcDbEntity
  8
21814000
100
AcDbPolyline
 62
253
  6
CONTINUOUS
 90
16
 70
0
 10
137.6024634054
 20
133.916550266
 10
137.6266927409
 20
133.9394132686
 10
137.6527340691
 20
133.9604325804
 10
137.6802893065
 20
133.979531533
 10
137.7090582338
 20
133.9967623169
 10
137.7387159161
 20
134.0119683876
 10
137.7689137528
 20
134.0247891567
 10
137.7993284859
 20
134.0351831665
 10
137.8296452611
 20
134.0431975771
 10
137.8595331633
 20
134.0486367935
 10
137.8886449072
 20
134.0515136865
 10
137.9167550647
 20
134.0519245508
 10
137.9437245342
 20
134.0498036105
 10
137.9693289073
 20
134.0451684228
 10
137.9932762469
 20
134.0381408074
 10
138.0153346217
 20
134.0288106913
  0
LINE
  5
296
100
AcDbEntity
  8
21814000
100
AcDbLine
 62
253
  6
CONTINUOUS
 10
138.8941995901
 20
133.4055979966
 11
138.4675805512
 21
133.0105832378
  0
LINE
  5
297
100
AcDbEntity
  8
21814000
100
AcDbLine
 62
7
  6
CONTINUOUS
 10
138.797399219
 20
133.4054377568
 11
138.404835514
 21
133.0419557564
  0
LINE
  5
298
100
AcDbEntity
  8
26814000
100
AcDbLine
 62
7
  6
CONTINUOUS
 10
139.7816292989
 20
130.5677433146
 11
141.364385902
 21
131.3797274119
  0
LINE
  5
299
100
AcDbEntity
  8
26814000
100
AcDbLine
 62
7
  6
CONTINUOUS
 10
138.1075737226
 20
130.774570247
 11
138.6066694554
 21
131.0265348276
  0
LINE
  5
29A
100
AcDbEntity
  8
26814000
100
AcDbLine
 62
7
  6
CONTINUOUS
 10
138.6066694554
 20
131.0265348276
 11
144.0209421506
 21
133.7071474249
  0
LINE
  5
29B
100
AcDbEntity
  8
26814000
100
AcDbLine
 62
7
  6
CONTINUOUS
 10
144.693958366
 20
134.9844859321
 11
144.107579579
 21
134.6975638645
  0
LINE
  5
29C
100
AcDbEntity
  8
26814000
100
AcDbLine
 62
7
  6
CONTINUOUS
 10
141.364385902
 20
131.3797274119
 11
141.8988357807
 21
131.6400748785
  0
LINE
  5
29D
100
AcDbEntity
  8
21814000
100
AcDbLine
 62
7
  6
CONTINUOUS
 10
152.2829131532
 20
137.0355886025
 11
148.8525092527
 21
135.3982517896
  0
LINE
  5
29E
100
AcDbEntity
  8
21814000
100
AcDbLine
 62
7
  6
CONTINUOUS
 10
150.9232968369
 20
137.553382355
 11
145.2698269464
 21
134.9424226101
  0
LINE
  5
29F
100
AcDbEntity
  8
21814000
100
AcDbLine
 62
253
  6
CONTINUOUS
 10
151.3117543195
 20
137.5211680194
 11
145.4898410691
 21
134.8324155488
  0
LINE
  5
2A0
100
AcDbEntity
  8
RACCORDO
100
AcDbLine
 62
253
  6
CONTINUOUS
 10
159.9966495863
 20
89.8570823973
 11
164.195259669
 21
90.1532903201
  0
LINE
  5
2A1
100
AcDbEntity
  8
RACCORDO
100
AcDbLine
 62
253
  6
CONTINUOUS
 10
158.8476010669
 20
81.5081862551
 11
158.8304256921
 21
81.5134338022
  0
LINE
  5
2A2
100
AcDbEntity
  8
21814000
100
AcDbLine
 62
253
  6
CONTINUOUS
 10
138.9272995149
 20
133.4393243783
 11
138.8941995901
 21
133.4055979966
  0
LWPOLYLINE
  5
2A3
100
AcDbEntity
  8
RACCORDO
100
AcDbPolyline
 62
7
  6
CONTINUOUS
 90
10
 70
0
 10
142.348598014
 20
129.334432386
 10
142.3202632437
 20
129.3178540193
 10
142.2939318147
 20
129.2973397372
 10
142.2702990107
 20
129.273186534
 10
142.2500262789
 20
129.2458896072
 10
142.2335974477
 20
129.2159917498
 10
142.2213351213
 20
129.1839508797
 10
142.2135091913
 20
129.1501213901
 10
142.210445608
 20
129.115526187
 10
142.2104014166
 20
129.1108471446
  0
LWPOLYLINE
  5
2A4
100
AcDbEntity
  8
RACCORDO
100
AcDbPolyline
 62
253
  6
CONTINUOUS
 90
13
 70
0
 10
142.4604014129
 20
129.3273319392
 10
142.4378406466
 20
129.3142811307
 10
142.4154927923
 20
129.2977747729
 10
142.3937404442
 20
129.2780181023
 10
142.3729224985
 20
129.2552248015
 10
142.3534754505
 20
129.2297727514
 10
142.335886955
 20
129.2022538325
 10
142.3204938846
 20
129.1732116342
 10
142.3075217302
 20
129.1430904107
 10
142.2971979431
 20
129.1124220575
 10
142.2896987649
 20
129.0817406749
 10
142.2851492572
 20
129.0515724362
 10
142.2836247176
 20
129.0224372406
  0
LWPOLYLINE
  5
2A5
100
AcDbEntity
  8
21814000
100
AcDbPolyline
 62
7
  6
CONTINUOUS
 90
13
 70
0
 10
149.2670867644
 20
134.3226732494
 10
149.1381019463
 20
134.252319531
 10
149.019188662
 20
134.1776614824
 10
148.9109198285
 20
134.0990588015
 10
148.8138170786
 20
134.0168901913
 10
148.7283482472
 20
133.9315515351
 10
148.6549251181
 20
133.8434539895
 10
148.5939014395
 20
133.753022003
 10
148.5455712197
 20
133.6606912715
 10
148.5101673109
 20
133.5669066388
 10
148.4878602868
 20
133.4721199536
 10
148.4787576214
 20
133.3767878924
 10
148.4785254996
 20
133.358923011
  0
LINE
  5
2A6
100
AcDbEntity
  8
26814000
100
AcDbLine
 62
253
  6
CONTINUOUS
 10
143.5048123319
 20
130.0860228428
 11
148.863139112
 21
132.9769630697
  0
LINE
  5
2A7
100
AcDbEntity
  8
26814000
100
AcDbLine
 62
253
  6
CONTINUOUS
 10
144.5860212922
 20
130.4209477391
 11
148.7789875444
 21
132.6831492259
  0
LINE
  5
2A8
100
AcDbEntity
  8
0
100
AcDbLine
 62
7
  6
CONTINUOUS
 10
148.9362559043
 20
133.0507711691
 11
149.5870295591
 21
133.3939369851
  0
LINE
  5
2A9
100
AcDbEntity
  8
RACCORDO
100
AcDbLine
 62
253
  6
CONTINUOUS
 10
149.586901777
 20
133.3938695982
 11
149.5870295591
 21
133.3939369851
  0
LINE
  5
2AA
100
AcDbEntity
  8
26814000
100
AcDbLine
 62
253
  6
CONTINUOUS
 10
144.7323480219
 20
130.3756811245
 11
148.7789875444
 21
132.4708900718
  0
LINE
  5
2AB
100
AcDbEntity
  8
26814000
100
AcDbLine
 62
7
  6
CONTINUOUS
 10
144.8521141525
 20
130.3157980592
 11
148.8611972568
 21
132.3915616016
  0
LINE
  5
2AC
100
AcDbEntity
  8
21814000
100
AcDbLine
 62
7
  6
CONTINUOUS
 10
153.2792427429
 20
136.3640730421
 11
149.2670867644
 21
134.3226732494
  0
LINE
  5
2AD
100
AcDbEntity
  8
26814000
100
AcDbLine
 62
7
  6
CONTINUOUS
 10
142.3740518462
 20
128.5231779023
 11
141.9239005866
 21
128.2959225564
  0
LINE
  5
2AE
100
AcDbEntity
  8
26814000
100
AcDbLine
 62
7
  6
CONTINUOUS
 10
141.3894507079
 20
129.76383261
 11
142.9907314988
 21
130.5665546135
  0
LINE
  5
2AF
100
AcDbEntity
  8
0
100
AcDbLine
 62
7
  6
CONTINUOUS
 10
149.7153169878
 20
133.1708452538
 11
150.2102917347
 21
133.4183326272
  0
LINE
  5
2B0
100
AcDbEntity
  8
RACCORDO
100
AcDbLine
 62
7
  6
CONTINUOUS
 10
142.348598014
 20
129.334432386
 11
144.4699183575
 21
130.3950925578
  0
LINE
  5
2B1
100
AcDbEntity
  8
RACCORDO
100
AcDbLine
 62
253
  6
CONTINUOUS
 10
142.4604014129
 20
129.3273319392
 11
144.5817217564
 21
130.387992111
  0
LINE
  5
2B2
100
AcDbEntity
  8
26814000
100
AcDbLine
 62
7
  6
CONTINUOUS
 10
142.9907314988
 20
130.5665546135
 11
143.5189986705
 21
130.8299934336
  0
LINE
  5
2B3
100
AcDbEntity
  8
21814000
100
AcDbLine
 62
7
  6
CONTINUOUS
 10
153.2792427429
 20
135.9562217748
 11
149.2670867644
 21
134.0013489672
  0
LINE
  5
2B4
100
AcDbEntity
  8
21814000
100
AcDbLine
 62
7
  6
CONTINUOUS
 10
149.4449891842
 20
131.8920448839
 11
145.5163176899
 21
129.9836962905
  0
LINE
  5
2B5
100
AcDbEntity
  8
26814000
100
AcDbLine
 62
253
  6
CONTINUOUS
 10
142.9012092888
 20
131.2008654953
 11
147.673048267
 21
133.4949409817
  0
LINE
  5
2B6
100
AcDbEntity
  8
26814000
100
AcDbLine
 62
253
  6
CONTINUOUS
 10
143.1288247887
 20
131.0870577454
 11
148.1148891349
 21
133.4841227014
  0
LINE
  5
2B7
100
AcDbEntity
  8
RACCORDO
100
AcDbLine
 62
7
  6
CONTINUOUS
 10
144.4793196627
 20
130.3995509909
 11
144.4697567274
 21
130.3950115478
  0
LWPOLYLINE
  5
2B8
100
AcDbEntity
  8
RACCORDO
100
AcDbPolyline
 62
253
  6
CONTINUOUS
 90
7
 70
0
 10
142.348598014
 20
129.334432386
 10
142.3527865792
 20
129.3363990418
 10
142.3720130652
 20
129.3425197621
 10
142.3927519003
 20
129.3446761308
 10
142.4146482374
 20
129.3428312519
 10
142.437327424
 20
129.3370166918
 10
142.4604014129
 20
129.3273319392
  0
LWPOLYLINE
  5
2B9
100
AcDbEntity
  8
RACCORDO
100
AcDbPolyline
 62
253
  6
CONTINUOUS
 90
7
 70
0
 10
144.4699437175
 20
130.395105233
 10
144.4747957941
 20
130.3973588855
 10
144.4942428421
 20
130.4033638876
 10
144.5150607878
 20
130.4053392427
 10
144.5368131358
 20
130.4033435653
 10
144.5591609902
 20
130.3975020687
 10
144.5817217564
 20
130.387992111
  0
LWPOLYLINE
  5
2BA
100
AcDbEntity
  8
RACCORDO
100
AcDbPolyline
 62
7
  6
CONTINUOUS
 90
10
 70
0
 10
153.526971459
 20
133.174555248
 10
153.5383679233
 20
133.1797239032
 10
153.5495883258
 20
133.1837757996
 10
153.5606326665
 20
133.1867109371
 10
153.5715959254
 20
133.1885294685
 10
153.5823831226
 20
133.189231241
 10
153.592709318
 20
133.1888157966
 10
153.6024795317
 20
133.1872829827
 10
153.6117887438
 20
133.184632952
 10
153.6206369541
 20
133.1808657044
  0
LINE
  5
2BB
100
AcDbEntity
  8
26814000
100
AcDbLine
 62
7
  6
CONTINUOUS
 10
141.6118732754
 20
127.4097558031
 11
142.1773519379
 21
127.6074585881
  0
LINE
  5
2BC
100
AcDbEntity
  8
RACCORDO
100
AcDbLine
 62
7
  6
CONTINUOUS
 10
163.7275894403
 20
90.7889138169
 11
159.9966495863
 21
90.590262335
  0
LWPOLYLINE
  5
2BD
100
AcDbEntity
  8
RACCORDO
100
AcDbPolyline
 62
7
  6
CONTINUOUS
 90
18
 70
0
 10
163.727575424
 20
90.7889588984
 10
163.7645172771
 20
90.7876672623
 10
163.801536942
 20
90.7803548634
 10
163.8396961375
 20
90.7668106616
 10
163.8787446195
 20
90.7472864206
 10
163.916903815
 20
90.7226714269
 10
163.9539234799
 20
90.6929641609
 10
163.9900538583
 20
90.6581661422
 10
164.0242671092
 20
90.6191712165
 10
164.0567172932
 20
90.5755872003
 10
164.0872503499
 20
90.5278062771
 10
164.1143762572
 20
90.4778988437
 10
164.1378702617
 20
90.4259864398
 10
164.1579571169
 20
90.3719475256
 10
164.1738210614
 20
90.3174878788
 10
164.1851901747
 20
90.2631760919
 10
164.1923363772
 20
90.2084435723
 10
164.195259669
 20
90.1532903201
  0
LINE
  5
2BE
100
AcDbEntity
  8
ASSI
100
AcDbLine
 62
253
  6
CONTINUOUS
 10
126.3867512448
 20
96.802220021
 11
126.3128459143
 21
96.8350569919
  0
LWPOLYLINE
  5
2BF
100
AcDbEntity
  8
RACCORDO
100
AcDbPolyline
 62
253
  6
CONTINUOUS
 90
3
 70
0
 10
159.4010276653
 20
81.3904224364
 10
159.3951907654
 20
81.393069015
 10
159.3779311528
 20
81.398351298
  0
LINE
  5
2C0
100
AcDbEntity
  8
RACCORDO
100
AcDbLine
 62
253
  6
CONTINUOUS
 10
158.8304256921
 20
81.5134338022
 11
158.8241860156
 21
81.5162736312
  0
LINE
  5
2C1
100
AcDbEntity
  8
RACCORDO
100
AcDbLine
 62
7
  6
CONTINUOUS
 10
157.0564190627
 20
79.5310761826
 11
155.7129161784
 21
80.2028276247
  0
LINE
  5
2C2
100
AcDbEntity
  8
RACCORDO
100
AcDbLine
 62
253
  6
CONTINUOUS
 10
156.9914457662
 20
79.6662946327
 11
155.647942882
 21
80.3380460748
  0
LINE
  5
2C3
100
AcDbEntity
  8
RACCORDO
100
AcDbLine
 62
253
  6
CONTINUOUS
 10
155.647942882
 20
80.6893600469
 11
156.9914457662
 21
80.0176086048
  0
LINE
  5
2C4
100
AcDbEntity
  8
RACCORDO
100
AcDbLine
 62
253
  6
CONTINUOUS
 10
155.7363312296
 20
80.9210542207
 11
157.0798341139
 21
80.2493027786
  0
LINE
  5
2C5
100
AcDbEntity
  8
RACCORDO
100
AcDbLine
 62
253
  6
CONTINUOUS
 10
157.6101641998
 20
80.8894678215
 11
156.2666613155
 21
81.5612192637
  0
LINE
  5
2C6
100
AcDbEntity
  8
RACCORDO
100
AcDbLine
 62
253
  6
CONTINUOUS
 10
157.6985525474
 20
81.1211619954
 11
156.3550496632
 21
81.7929134375
  0
LINE
  5
2C7
100
AcDbEntity
  8
RACCORDO
100
AcDbLine
 62
7
  6
CONTINUOUS
 10
154.6591108887
 20
82.7579293998
 11
157.4845865077
 21
81.3451915903
  0
LINE
  5
2C8
100
AcDbEntity
  8
DRAFT
100
AcDbLine
 62
7
  6
CONTINUOUS
 10
157.8383014584
 20
81.6274143246
 11
154.6981833812
 21
83.1974733632
  0
LWPOLYLINE
  5
2C9
100
AcDbEntity
  8
RACCORDO
100
AcDbPolyline
 62
7
  6
CONTINUOUS
 90
7
 70
0
 10
155.7131006805
 20
80.2027356271
 10
155.7017079482
 20
80.2087923002
 10
155.6746223073
 20
80.2265074119
 10
155.6499913742
 20
80.2476327211
 10
155.6282398743
 20
80.2718519968
 10
155.6097319985
 20
80.298839983
 10
155.5948278206
 20
80.3282011277
  0
LWPOLYLINE
  5
2CA
100
AcDbEntity
  8
RACCORDO
100
AcDbPolyline
 62
253
  6
CONTINUOUS
 90
6
 70
0
 10
126.3128459143
 20
96.8350569919
 10
126.2399612056
 20
96.8755451472
 10
126.167826203
 20
96.923786247
 10
126.0969883329
 20
96.9794794085
 10
126.0279415007
 20
97.0422934635
 10
126.0120526933
 20
97.0588536262
  0
LWPOLYLINE
  5
2CB
100
AcDbEntity
  8
ASSI
100
AcDbPolyline
 62
253
  6
CONTINUOUS
 90
6
 70
0
 10
126.3128459143
 20
96.8350569919
 10
126.2399612056
 20
96.8755451472
 10
126.167826203
 20
96.923786247
 10
126.0969883329
 20
96.9794794085
 10
126.0279415007
 20
97.0422934635
 10
126.0120526933
 20
97.0588536262
  0
LWPOLYLINE
  5
2CC
100
AcDbEntity
  8
RACCORDO
100
AcDbPolyline
 62
253
  6
CONTINUOUS
 90
33
 70
0
 10
126.2342833287
 20
96.7154195006
 10
126.1544441462
 20
96.7598858306
 10
126.0765990302
 20
96.8120042604
 10
126.0007489519
 20
96.8717751969
 10
125.9262978712
 20
96.9397686079
 10
125.85384574
 20
97.0154161649
 10
125.7851882011
 20
97.0970111167
 10
125.7204364247
 20
97.1847202926
 10
125.6594861435
 20
97.2783797494
 10
125.6038095704
 20
97.3757864609
 10
125.5535666347
 20
97.4769833283
 10
125.5086053398
 20
97.5819307548
 10
125.4699284652
 20
97.6883013177
 10
125.4376711017
 20
97.796147868
 10
125.4117051115
 20
97.9054204338
 10
125.3926356434
 20
98.0136361933
 10
125.3806240554
 20
98.1207720778
 10
125.3755130255
 20
98.2268528072
 10
125.377425926
 20
98.3294656801
 10
125.3865253108
 20
98.4285314014
 10
125.4026486544
 20
98.5241292497
 10
125.4254275999
 20
98.6140826821
 10
125.4550146566
 20
98.69825845
 10
125.4912533192
 20
98.7767881276
 10
125.5333079367
 20
98.8478908522
 10
125.5813043542
 20
98.9113893049
 10
125.6351097926
 20
98.9674579338
 10
125.6934978443
 20
99.0148423699
 10
125.7565636195
 20
99.0533429221
 10
125.8242040366
 20
99.083156001
 10
125.8948938635
 20
99.103620764
 10
125.9687392105
 20
99.1145095693
 10
126.0456270925
 20
99.1160472404
  0
LWPOLYLINE
  5
2CD
100
AcDbEntity
  8
ASSI
100
AcDbPolyline
 62
253
  6
CONTINUOUS
 90
30
 70
0
 10
126.2342833287
 20
96.7154195006
 10
126.1544441462
 20
96.7598858306
 10
126.0765990302
 20
96.8120042604
 10
126.0007489519
 20
96.8717751969
 10
125.9262978712
 20
96.9397686079
 10
125.85384574
 20
97.0154161649
 10
125.7851882011
 20
97.0970111167
 10
125.7204364247
 20
97.1847202926
 10
125.6594861435
 20
97.2783797494
 10
125.6038095704
 20
97.3757864609
 10
125.5535666347
 20
97.4769833283
 10
125.5086053398
 20
97.5819307548
 10
125.4699284652
 20
97.6883013177
 10
125.4376711017
 20
97.796147868
 10
125.4117051115
 20
97.9054204338
 10
125.3926356434
 20
98.0136361933
 10
125.3806240554
 20
98.1207720778
 10
125.3755130255
 20
98.2268528072
 10
125.377425926
 20
98.3294656801
 10
125.3865253108
 20
98.4285314014
 10
125.4026486544
 20
98.5241292497
 10
125.4254275999
 20
98.6140826821
 10
125.4550146566
 20
98.69825845
 10
125.4912533192
 20
98.7767881276
 10
125.5333079367
 20
98.8478908522
 10
125.5813043542
 20
98.9113893049
 10
125.6351097926
 20
98.9674579338
 10
125.6934978443
 20
99.0148423699
 10
125.7565636195
 20
99.0533429221
 10
125.8242040366
 20
99.083156001
  0
LWPOLYLINE
  5
2CE
100
AcDbEntity
  8
RACCORDO
100
AcDbPolyline
 62
253
  6
CONTINUOUS
 90
8
 70
0
 10
155.7129415384
 20
80.2028149495
 10
155.7002051194
 20
80.2104917203
 10
155.6848120491
 20
80.2241408483
 10
155.6718398946
 20
80.2412899173
 10
155.6615161075
 20
80.2616344834
 10
155.6540169293
 20
80.2848166879
 10
155.6494674217
 20
80.3104354189
 10
155.647942882
 20
80.3380460748
  0
LWPOLYLINE
  5
2CF
100
AcDbEntity
  8
RACCORDO
100
AcDbPolyline
 62
253
  6
CONTINUOUS
 90
8
 70
0
 10
157.0562574325
 20
79.5311571926
 10
157.0437080037
 20
79.5387402782
 10
157.0283149333
 20
79.5523894062
 10
157.0153427789
 20
79.5695384752
 10
157.0050189918
 20
79.5898830413
 10
156.9975198136
 20
79.6130652457
 10
156.9929703059
 20
79.6386839767
 10
156.9914457662
 20
79.6662946327
  0
LINE
  5
2D0
100
AcDbEntity
  8
RACCORDO
100
AcDbLine
 62
253
  6
CONTINUOUS
 10
126.5208009781
 20
98.9322144971
 11
126.5965241895
 21
98.8723742235
  0
LINE
  5
2D1
100
AcDbEntity
  8
ASSI
100
AcDbLine
 62
253
  6
CONTINUOUS
 10
126.5208009781
 20
98.9322144971
 11
126.5965241895
 21
98.8723742235
  0
LWPOLYLINE
  5
2D2
100
AcDbEntity
  8
ASSI
100
AcDbPolyline
 62
7
  6
CONTINUOUS
 90
4
 70
0
 10
126.5336756214
 20
98.8792722377
 10
126.6700176727
 20
98.7631513656
 10
126.7974313233
 20
98.6213266682
 10
126.9122904092
 20
98.4574035432
  0
LWPOLYLINE
  5
2D3
100
AcDbEntity
  8
RACCORDO
100
AcDbPolyline
 62
253
  6
CONTINUOUS
 90
3
 70
0
 10
126.5965241895
 20
98.8723742235
 10
126.6707909734
 20
98.8042901092
 10
126.7430074674
 20
98.7285342717
  0
LINE
  5
2D4
100
AcDbEntity
  8
ASSI
100
AcDbLine
 62
253
  6
CONTINUOUS
 10
126.5965241895
 20
98.8723742235
 11
126.6707909734
 21
98.8042901092
  0
LINE
  5
2D5
100
AcDbEntity
  8
ASSI
100
AcDbLine
 62
253
  6
CONTINUOUS
 10
126.6707909734
 20
98.8042901092
 11
126.7430074674
 21
98.7285342717
  0
LWPOLYLINE
  5
2D6
100
AcDbEntity
  8
RACCORDO
100
AcDbPolyline
 62
253
  6
CONTINUOUS
 90
14
 70
0
 10
126.7430074674
 20
98.7285342717
 10
126.8113878712
 20
98.6468213415
 10
126.8758250581
 20
98.5589879398
 10
126.9364330508
 20
98.4652002723
 10
126.9917574983
 20
98.3676672353
 10
127.0416453444
 20
98.2663502225
 10
127.0862575685
 20
98.1612911007
 10
127.124609331
 20
98.054818847
 10
127.1565726692
 20
97.946883561
 10
127.1822824953
 20
97.83753802
 10
127.2011455032
 20
97.7292640779
 10
127.2130050523
 20
97.6220851095
 10
127.2180218288
 20
97.5159794345
 10
127.2160747695
 20
97.4133597804
  0
LWPOLYLINE
  5
2D7
100
AcDbEntity
  8
ASSI
100
AcDbPolyline
 62
253
  6
CONTINUOUS
 90
5
 70
0
 10
126.7430074674
 20
98.7285342717
 10
126.8113878712
 20
98.6468213415
 10
126.8758250581
 20
98.5589879398
 10
126.9364330508
 20
98.4652002723
 10
126.9917574983
 20
98.3676672353
  0
LWPOLYLINE
  5
2D8
100
AcDbEntity
  8
ASSI
100
AcDbPolyline
 62
7
  6
CONTINUOUS
 90
8
 70
0
 10
126.9122904092
 20
98.4574035432
 10
127.0107957856
 20
98.2762199399
 10
127.0897672923
 20
98.0833324887
 10
127.1469167031
 20
97.8836960621
 10
127.1801992296
 20
97.6835646387
 10
127.1883851266
 20
97.4893930898
 10
127.1710786372
 20
97.3072095481
 10
127.1289652705
 20
97.1435960428
  0
LWPOLYLINE
  5
2D9
100
AcDbEntity
  8
ASSI
100
AcDbPolyline
 62
253
  6
CONTINUOUS
 90
8
 70
0
 10
126.9917574983
 20
98.3676672353
 10
127.0416453444
 20
98.2663502225
 10
127.0862575685
 20
98.1612911007
 10
127.124609331
 20
98.054818847
 10
127.1565726692
 20
97.946883561
 10
127.1822824953
 20
97.83753802
 10
127.2011455032
 20
97.7292640779
 10
127.2130050523
 20
97.6220851095
  0
LINE
  5
2DA
100
AcDbEntity
  8
RACCORDO
100
AcDbLine
 62
253
  6
CONTINUOUS
 10
125.5328773373
 20
98.0378370739
 11
125.5220630844
 21
98.1316240809
  0
LWPOLYLINE
  5
2DB
100
AcDbEntity
  8
ASSI
100
AcDbPolyline
 62
253
  6
CONTINUOUS
 90
6
 70
0
 10
125.5328773373
 20
98.0378370739
 10
125.5220630844
 20
98.1316240809
 10
125.5171032746
 20
98.228875074
 10
125.5186941223
 20
98.3236365022
 10
125.5267989966
 20
98.4151748294
 10
125.541326579
 20
98.5027821345
  0
LWPOLYLINE
  5
2DC
100
AcDbEntity
  8
RACCORDO
100
AcDbPolyline
 62
253
  6
CONTINUOUS
 90
13
 70
0
 10
125.5220630844
 20
98.1316240809
 10
125.5171032746
 20
98.228875074
 10
125.5186941223
 20
98.3236365022
 10
125.5267989966
 20
98.4151748294
 10
125.541326579
 20
98.5027821345
 10
125.5622121909
 20
98.5858025045
 10
125.5892736512
 20
98.6635952658
 10
125.6222744551
 20
98.7355578328
 10
125.6609976113
 20
98.8011533253
 10
125.7051267521
 20
98.8598757815
 10
125.7542984749
 20
98.9112724097
 10
125.8081656813
 20
98.9549654404
 10
125.8663006363
 20
98.99061762
  0
LWPOLYLINE
  5
2DD
100
AcDbEntity
  8
ASSI
100
AcDbPolyline
 62
253
  6
CONTINUOUS
 90
4
 70
0
 10
127.2130050523
 20
97.6220851095
 10
127.2180218288
 20
97.5159794345
 10
127.2160747695
 20
97.4133597804
 10
127.2070012812
 20
97.3143037943
  0
LINE
  5
2DE
100
AcDbEntity
  8
26814000
100
AcDbLine
 62
7
  6
CONTINUOUS
 10
125.843392055
 20
135.3183919186
 11
125.843392055
 21
135.2939964134
  0
LINE
  5
2DF
100
AcDbEntity
  8
26814000
100
AcDbLine
 62
7
  6
CONTINUOUS
 10
126.2425853519
 20
136.6916429513
 11
126.2425853519
 21
136.9450143451
  0
LINE
  5
2E0
100
AcDbEntity
  8
26814000
100
AcDbLine
 62
7
  6
CONTINUOUS
 10
126.6565648533
 20
134.8874100142
 11
126.6565648533
 21
134.4337258197
  0
LINE
  5
2E1
100
AcDbEntity
  8
26814000
100
AcDbLine
 62
7
  6
CONTINUOUS
 10
126.9455783062
 20
135.7850836967
 11
126.9455783062
 21
136.2374146723
  0
LWPOLYLINE
  5
2E2
100
AcDbEntity
  8
RACCORDO
100
AcDbPolyline
 62
253
  6
CONTINUOUS
 90
55
 70
0
 10
125.5594540556
 20
98.1588359871
 10
125.5563372585
 20
98.1111562523
 10
125.5553792029
 20
98.0625589952
 10
125.5565836149
 20
98.0132075749
 10
125.5599448111
 20
97.9632927524
 10
125.5654519808
 20
97.9129580735
 10
125.5730998041
 20
97.8622976066
 10
125.5828836804
 20
97.8114280251
 10
125.5947734071
 20
97.7605751415
 10
125.6087132949
 20
97.7099971046
 10
125.6246527932
 20
97.6598730787
 10
125.6425388264
 20
97.6103658894
 10
125.6622842655
 20
97.5617032825
 10
125.6837927336
 20
97.5140927368
 10
125.7070028186
 20
97.4676428093
 10
125.7318730172
 20
97.4224295134
 10
125.7583396523
 20
97.3785771659
 10
125.7862986301
 20
97.3362662716
 10
125.8156467733
 20
97.2956547817
 10
125.846284167
 20
97.2568806955
 10
125.878108107
 20
97.2200737479
 10
125.9110023638
 20
97.1853669449
 10
125.9448335299
 20
97.1528953487
 10
125.9795073307
 20
97.1227439107
 10
126.0149646145
 20
97.094969007
 10
126.0511239772
 20
97.0696509434
 10
126.0878308029
 20
97.0469142645
 10
126.1249137075
 20
97.0268712473
 10
126.1622324276
 20
97.0095964664
 10
126.1996742551
 20
96.9951408646
 10
126.2371060924
 20
96.9835555618
 10
126.2743964887
 20
96.9748798006
 10
126.3114232428
 20
96.9691405649
 10
126.3480677207
 20
96.9663561202
 10
126.3842101659
 20
96.9665368632
 10
126.4197227706
 20
96.9696834697
 10
126.4544775733
 20
96.9757843939
 10
126.4883520703
 20
96.9848162938
 10
126.5212366488
 20
96.9967480625
 10
126.5530269857
 20
97.0115416888
 10
126.5836196685
 20
97.0291508155
 10
126.6129052449
 20
97.0495142643
 10
126.6407767519
 20
97.0725572289
 10
126.6671352466
 20
97.0981947951
 10
126.6918977146
 20
97.1263429875
 10
126.7149883068
 20
97.1569156126
 10
126.7363412983
 20
97.1898325936
 10
126.7558674708
 20
97.2249636975
 10
126.7734721499
 20
97.2621273896
 10
126.789089134
 20
97.3011470969
 10
126.802693733
 20
97.3419203589
 10
126.8142645007
 20
97.3843656757
 10
126.823766798
 20
97.4283620093
 10
126.8311627515
 20
97.473740791
 10
126.8364276763
 20
97.5203491768
  0
LWPOLYLINE
  5
2E3
100
AcDbEntity
  8
RACCORDO
100
AcDbPolyline
 62
7
  6
CONTINUOUS
 90
19
 70
0
 10
125.5362008415
 20
98.1897188967
 10
125.5417333951
 20
98.2390262978
 10
125.5494601013
 20
98.2871812523
 10
125.5593638366
 20
98.3340589217
 10
125.5714364551
 20
98.3795784561
 10
125.5856451257
 20
98.4235726336
 10
125.6019129112
 20
98.4658053632
 10
125.6201918436
 20
98.5061775826
 10
125.6404285429
 20
98.544589136
 10
125.6624970154
 20
98.5808388892
 10
125.6863052279
 20
98.6148348994
 10
125.7117815685
 20
98.6465275969
 10
125.7387957731
 20
98.6758089641
 10
125.7672082391
 20
98.7025948124
 10
125.7969444023
 20
98.7268785902
 10
125.8279595997
 20
98.7486668567
 10
125.8601648117
 20
98.7679251611
 10
125.8934207396
 20
98.7845992612
 10
125.9276053318
 20
98.7986613325
  0
LINE
  5
2E4
100
AcDbEntity
  8
28414000
100
AcDbLine
 62
7
  6
CONTINUOUS
 10
132.8334632269
 20
131.7989608274
 11
132.8165444163
 21
131.7489410714
  0
LWPOLYLINE
  5
2E5
100
AcDbEntity
  8
RACCORDO
100
AcDbPolyline
 62
7
  6
CONTINUOUS
 90
11
 70
0
 10
142.6989118128
 20
127.953152943
 10
142.6706831081
 20
127.9350597321
 10
142.6439260009
 20
127.9170693033
 10
142.6186997435
 20
127.8995585754
 10
142.5947919013
 20
127.8827548504
 10
142.572607598
 20
127.8673096029
 10
142.5529616172
 20
127.8540486837
 10
142.5359501657
 20
127.8431518293
 10
142.5217115377
 20
127.8346963169
 10
142.5108260472
 20
127.8288319419
 10
142.5090693903
 20
127.8279509225
  0
LWPOLYLINE
  5
2E6
100
AcDbEntity
  8
RACCORDO
100
AcDbPolyline
 62
253
  6
CONTINUOUS
 90
13
 70
0
 10
143.8039042971
 20
128.6555804971
 10
143.7813435309
 20
128.6425296886
 10
143.7589956765
 20
128.6260233308
 10
143.7372433285
 20
128.6062666602
 10
143.7164253828
 20
128.5834733594
 10
143.6969783348
 20
128.5580213092
 10
143.6793898393
 20
128.5305023904
 10
143.6639967689
 20
128.501460192
 10
143.6510246144
 20
128.4713389686
 10
143.6407008273
 20
128.4406706154
 10
143.6332016492
 20
128.4099892328
 10
143.6286521415
 20
128.3798209941
 10
143.6271276018
 20
128.3506857985
  0
LWPOLYLINE
  5
2E7
100
AcDbEntity
  8
RACCORDO
100
AcDbPolyline
 62
253
  6
CONTINUOUS
 90
7
 70
0
 10
145.3948945548
 20
127.9564786076
 10
145.4164561946
 20
127.9687717766
 10
145.4346242104
 20
127.9823669552
 10
145.4490877426
 20
127.9970315262
 10
145.4595993161
 20
128.0125145746
 10
145.4659790748
 20
128.0285511812
 10
145.4681178595
 20
128.0448669552
  0
LWPOLYLINE
  5
2E8
100
AcDbEntity
  8
26814000
100
AcDbPolyline
 62
7
  6
CONTINUOUS
 90
5
 70
0
 10
148.8614057505
 20
132.3916599129
 10
148.8616401874
 20
132.3917929147
 10
148.8625674233
 20
132.3926205861
 10
148.8630738408
 20
132.3936716575
 10
148.8631855861
 20
132.3946159017
  0
LWPOLYLINE
  5
2E9
100
AcDbEntity
  8
RACCORDO
100
AcDbPolyline
 62
253
  6
CONTINUOUS
 90
13
 70
0
 10
142.8468419995
 20
127.7276497489
 10
142.8655238444
 20
127.7381063784
 10
142.8839220782
 20
127.7514309385
 10
142.901714878
 20
127.7673903553
 10
142.9185910109
 20
127.7857054656
 10
142.9342552788
 20
127.8060559005
 10
142.9484336813
 20
127.828085689
 10
142.9608782089
 20
127.8514094845
 10
142.9713711813
 20
127.8756193061
 10
142.9797290547
 20
127.9002916739
 10
142.9858056327
 20
127.9249950175
 10
142.9894946234
 20
127.9492972246
 10
142.9907314988
 20
127.9727731993
  0
LWPOLYLINE
  5
2EA
100
AcDbEntity
  8
RACCORDO
100
AcDbPolyline
 62
253
  6
CONTINUOUS
 90
8
 70
0
 10
145.3948945548
 20
127.6326561798
 10
145.4126216967
 20
127.6417811509
 10
145.4281108696
 20
127.6517758615
 10
145.441212829
 20
127.662512189
 10
145.4518043168
 20
127.6738454835
 10
145.4598004254
 20
127.6856481605
 10
145.4651456637
 20
127.6978128284
 10
145.4678006157
 20
127.7101892099
  0
LWPOLYLINE
  5
2EB
100
AcDbEntity
  8
RACCORDO
100
AcDbPolyline
 62
7
  6
CONTINUOUS
 90
4
 70
0
 10
142.7912186253
 20
128.004490001
 10
142.7588166078
 20
127.9878942502
 10
142.7282902733
 20
127.970846725
 10
142.6989118128
 20
127.953152943
  0
LINE
  5
2EC
100
AcDbEntity
  8
26814000
100
AcDbLine
 62
253
  6
CONTINUOUS
 10
142.5190401876
 20
128.4506837316
 11
141.364385902
 21
127.8610154283
  0
LINE
  5
2ED
100
AcDbEntity
  8
26814000
100
AcDbLine
 62
253
  6
CONTINUOUS
 10
142.917508194
 20
128.1009236373
 11
141.6118732754
 21
127.4341513084
  0
LINE
  5
2EE
100
AcDbEntity
  8
RACCORDO
100
AcDbLine
 62
7
  6
CONTINUOUS
 10
152.6784696472
 20
133.5988324795
 11
151.3670053362
 21
132.943100324
  0
LINE
  5
2EF
100
AcDbEntity
  8
RACCORDO
100
AcDbLine
 62
253
  6
CONTINUOUS
 10
143.8039042971
 20
128.6555804971
 11
145.9252246407
 21
129.7162406688
  0
LINE
  5
2F0
100
AcDbEntity
  8
RACCORDO
100
AcDbLine
 62
7
  6
CONTINUOUS
 10
153.5270003549
 20
133.1745696959
 11
152.6481077037
 21
132.7351233703
  0
LINE
  5
2F1
100
AcDbEntity
  8
RACCORDO
100
AcDbLine
 62
253
  6
CONTINUOUS
 10
143.9806809924
 20
128.3506857985
 11
146.102001336
 21
129.4113459702
  0
LINE
  5
2F2
100
AcDbEntity
  8
21814000
100
AcDbLine
 62
253
  6
CONTINUOUS
 10
158.2097913793
 20
133.5583160935
 11
146.5356514101
 21
127.7540341018
  0
LINE
  5
2F3
100
AcDbEntity
  8
RACCORDO
100
AcDbLine
 62
253
  6
CONTINUOUS
 10
142.4975907573
 20
127.6970936736
 11
142.7373573933
 21
127.8160585152
  0
LINE
  5
2F4
100
AcDbEntity
  8
RACCORDO
100
AcDbLine
 62
7
  6
CONTINUOUS
 10
142.2744336302
 20
127.7115617774
 11
142.5090599389
 21
127.8279381562
  0
LINE
  5
2F5
100
AcDbEntity
  8
RACCORDO
100
AcDbLine
 62
7
  6
CONTINUOUS
 10
142.9074985308
 20
128.0612484111
 11
142.7912686163
 21
128.0045123456
  0
LINE
  5
2F6
100
AcDbEntity
  8
RACCORDO
100
AcDbLine
 62
7
  6
CONTINUOUS
 10
142.917508194
 20
128.0661354635
 11
142.9074985308
 21
128.0612484111
  0
LINE
  5
2F7
100
AcDbEntity
  8
RACCORDO
100
AcDbLine
 62
7
  6
CONTINUOUS
 10
142.7912194365
 20
128.0044883336
 11
142.7912686163
 21
128.0045123456
  0
LINE
  5
2F8
100
AcDbEntity
  8
21814000
100
AcDbLine
 62
7
  6
CONTINUOUS
 10
157.7902481683
 20
134.281921095
 11
150.1976832681
 21
130.5938396229
  0
LINE
  5
2F9
100
AcDbEntity
  8
RACCORDO
100
AcDbLine
 62
253
  6
CONTINUOUS
 10
142.8953875167
 20
128.0253778591
 11
142.9138669835
 21
128.0342720436
  0
LINE
  5
2FA
100
AcDbEntity
  8
21814000
100
AcDbLine
 62
7
  6
CONTINUOUS
 10
156.9845762323
 20
134.684757063
 11
153.5634301625
 21
133.0427913347
  0
LINE
  5
2FB
100
AcDbEntity
  8
RACCORDO
100
AcDbLine
 62
253
  6
CONTINUOUS
 10
144.6877877736
 20
127.2942193189
 11
145.3948945548
 21
127.6326561798
  0
LINE
  5
2FC
100
AcDbEntity
  8
RACCORDO
100
AcDbLine
 62
253
  6
CONTINUOUS
 10
144.8267409868
 20
127.0490958685
 11
145.533847768
 21
127.3875327294
  0
LWPOLYLINE
  5
2FD
100
AcDbEntity
  8
RACCORDO
100
AcDbPolyline
 62
253
  6
CONTINUOUS
 90
5
 70
0
 10
142.7912686163
 20
128.0045123456
 10
142.7982200599
 20
128.0077429415
 10
142.8288387564
 20
128.0184406039
 10
142.8613401369
 20
128.024339278
 10
142.8953875167
 20
128.0253778591
  0
LWPOLYLINE
  5
2FE
100
AcDbEntity
  8
21814000
100
AcDbPolyline
 62
7
  6
CONTINUOUS
 90
9
 70
0
 10
157.7902481683
 20
134.281921095
 10
157.846394046
 20
134.3071841333
 10
157.8996267569
 20
134.3266366257
 10
157.9494972174
 20
134.3402662367
 10
157.9954679871
 20
134.3481739242
 10
158.0372599487
 20
134.3504069021
 10
158.0748528588
 20
134.3469498878
 10
158.1078871473
 20
134.3380132837
 10
158.1224490978
 20
134.3316402258
  0
LWPOLYLINE
  5
2FF
100
AcDbEntity
  8
RACCORDO
100
AcDbPolyline
 62
253
  6
CONTINUOUS
 90
8
 70
0
 10
142.5090726751
 20
127.8279444729
 10
142.5247480337
 20
127.834896472
 10
142.5566708389
 20
127.8445101625
 10
142.590505847
 20
127.8490344871
 10
142.6258865361
 20
127.8484194993
 10
142.6624270877
 20
127.8426698232
 10
142.6997259412
 20
127.8318466499
 10
142.7373743198
 20
127.816066911
  0
LWPOLYLINE
  5
300
100
AcDbEntity
  8
RACCORDO
100
AcDbPolyline
 62
253
  6
CONTINUOUS
 90
13
 70
0
 10
143.9806809924
 20
128.3506857985
 10
143.9566746799
 20
128.3401281885
 10
143.9299729142
 20
128.331131217
 10
143.9009696711
 20
128.3238804905
 10
143.870039964
 20
128.3185273984
 10
143.8377506281
 20
128.3152250183
 10
143.8048735027
 20
128.3140750855
 10
143.7720517713
 20
128.3150928808
 10
143.7397816007
 20
128.3182558116
 10
143.7086318766
 20
128.3235068866
 10
143.6791429811
 20
128.3307521562
 10
143.6518185384
 20
128.3398648698
 10
143.6271276018
 20
128.3506857985
  0
LWPOLYLINE
  5
301
100
AcDbEntity
  8
RACCORDO
100
AcDbPolyline
 62
253
  6
CONTINUOUS
 90
13
 70
0
 10
143.9806809924
 20
127.9993718264
 10
143.9560946544
 20
127.9885910065
 10
143.9289042971
 20
127.9795069985
 10
143.8995751552
 20
127.9722752325
 10
143.8686090584
 20
127.9670194457
 10
143.8365358452
 20
127.9638295664
 10
143.8039042971
 20
127.962760174
 10
143.7712727491
 20
127.9638295664
 10
143.7391995358
 20
127.9670194457
 10
143.708233439
 20
127.9722752325
 10
143.6789042971
 20
127.9795069985
 10
143.6517139399
 20
127.9885910065
 10
143.6271276018
 20
127.9993718264
  0
LWPOLYLINE
  5
302
100
AcDbEntity
  8
RACCORDO
100
AcDbPolyline
 62
253
  6
CONTINUOUS
 90
13
 70
0
 10
144.6877877736
 20
127.602925217
 10
144.6632014356
 20
127.5921443971
 10
144.6360110783
 20
127.5830603891
 10
144.6066819364
 20
127.5758286231
 10
144.5757158396
 20
127.5705728363
 10
144.5436426264
 20
127.5673829569
 10
144.5110110783
 20
127.5663135646
 10
144.4783795302
 20
127.5673829569
 10
144.446306317
 20
127.5705728363
 10
144.4153402202
 20
127.5758286231
 10
144.3860110783
 20
127.5830603891
 10
144.3588207211
 20
127.5921443971
 10
144.334234383
 20
127.602925217
  0
LWPOLYLINE
  5
303
100
AcDbEntity
  8
RACCORDO
100
AcDbPolyline
 62
253
  6
CONTINUOUS
 90
4
 70
0
 10
145.533847768
 20
127.6989283426
 10
145.5156159554
 20
127.6916515101
 10
145.4977305086
 20
127.6874148334
 10
145.4804906994
 20
127.6862892034
  0
LWPOLYLINE
  5
304
100
AcDbEntity
  8
RACCORDO
100
AcDbPolyline
 62
253
  6
CONTINUOUS
 90
4
 70
0
 10
126.4734447159
 20
96.6359573789
 10
126.3949608233
 20
96.6531345214
 10
126.3152406906
 20
96.6796220335
 10
126.2342833287
 20
96.7154195006
  0
LWPOLYLINE
  5
305
100
AcDbEntity
  8
RACCORDO
100
AcDbPolyline
 62
253
  6
CONTINUOUS
 90
3
 70
0
 10
126.4605837085
 20
96.7776674636
 10
126.3867512448
 20
96.802220021
 10
126.3128459143
 20
96.8350569919
  0
LWPOLYLINE
  5
306
100
AcDbEntity
  8
0
100
AcDbPolyline
 62
7
  6
CONTINUOUS
 90
3
 70
0
 10
127.0036891523
 20
97.0703408241
 10
127.0617714226
 20
97.0448222343
 10
127.0799798257
 20
97.0388596439
  0
LWPOLYLINE
  5
307
100
AcDbEntity
  8
ASSI
100
AcDbPolyline
 62
7
  6
CONTINUOUS
 90
3
 70
0
 10
126.9865149529
 20
97.0778863512
 10
127.0617714226
 20
97.0448222343
 10
127.0799798257
 20
97.0388596439
  0
LINE
  5
308
100
AcDbEntity
  8
RACCORDO
100
AcDbLine
 62
253
  6
CONTINUOUS
 10
126.2821780291
 20
99.0646689141
 11
126.3631909848
 21
99.0288746803
  0
LINE
  5
309
100
AcDbEntity
  8
ASSI
100
AcDbLine
 62
253
  6
CONTINUOUS
 10
126.2821780291
 20
99.0646689141
 11
126.3631909848
 21
99.0288746803
  0
LINE
  5
30A
100
AcDbEntity
  8
RACCORDO
100
AcDbLine
 62
7
  6
CONTINUOUS
 10
126.3265940796
 20
98.9963552229
 11
126.3889534567
 21
98.9682390876
  0
LINE
  5
30B
100
AcDbEntity
  8
ASSI
100
AcDbLine
 62
7
  6
CONTINUOUS
 10
126.3399917403
 20
98.9908264374
 11
126.388899587
 21
98.9682661398
  0
LINE
  5
30C
100
AcDbEntity
  8
RACCORDO
100
AcDbLine
 62
253
  6
CONTINUOUS
 10
158.8476010669
 20
81.5081862551
 11
158.8383228943
 21
81.5128253414
  0
LINE
  5
30D
100
AcDbEntity
  8
DRAFT
100
AcDbLine
 62
7
  6
CONTINUOUS
 10
158.3059435528
 20
81.922330142
 11
154.7431843782
 21
83.7037097293
  0
LINE
  5
30E
100
AcDbEntity
  8
RACCORDO
100
AcDbLine
 62
253
  6
CONTINUOUS
 10
158.8324360239
 20
81.6710988624
 11
159.3779311528
 21
81.398351298
  0
LINE
  5
30F
100
AcDbEntity
  8
RACCORDO
100
AcDbLine
 62
7
  6
CONTINUOUS
 10
158.8324360239
 20
81.674719012
 11
159.401346204
 21
81.390263922
  0
LINE
  5
310
100
AcDbEntity
  8
DRAFT
100
AcDbLine
 62
7
  6
CONTINUOUS
 10
158.3059435528
 20
83.5429678651
 11
154.8811174755
 21
85.2553809038
  0
LINE
  5
311
100
AcDbEntity
  8
RACCORDO
100
AcDbLine
 62
253
  6
CONTINUOUS
 10
126.3631909848
 20
99.0288746803
 11
126.4430235668
 21
98.9843814483
  0
LINE
  5
312
100
AcDbEntity
  8
ASSI
100
AcDbLine
 62
253
  6
CONTINUOUS
 10
126.3631909848
 20
99.0288746803
 11
126.4430235668
 21
98.9843814483
  0
LINE
  5
313
100
AcDbEntity
  8
RACCORDO
100
AcDbLine
 62
7
  6
CONTINUOUS
 10
126.3890379218
 20
98.9681894421
 11
126.4654965753
 21
98.9253570391
  0
LINE
  5
314
100
AcDbEntity
  8
ASSI
100
AcDbLine
 62
7
  6
CONTINUOUS
 10
126.3894242506
 20
98.9679997956
 11
126.5336756214
 21
98.8792722377
  0
LINE
  5
315
100
AcDbEntity
  8
RACCORDO
100
AcDbLine
 62
253
  6
CONTINUOUS
 10
126.4430235668
 20
98.9843814483
 11
126.5208009781
 21
98.9322144971
  0
LINE
  5
316
100
AcDbEntity
  8
ASSI
100
AcDbLine
 62
253
  6
CONTINUOUS
 10
126.4430235668
 20
98.9843814483
 11
126.5208009781
 21
98.9322144971
  0
LWPOLYLINE
  5
317
100
AcDbEntity
  8
RACCORDO
100
AcDbPolyline
 62
7
  6
CONTINUOUS
 90
22
 70
0
 10
126.4654965753
 20
98.9253570391
 10
126.5366656391
 20
98.8770752253
 10
126.6064800418
 20
98.8214177453
 10
126.6743733932
 20
98.7588745324
 10
126.7398782475
 20
98.6898753741
 10
126.8024594798
 20
98.6149511734
 10
126.8616265685
 20
98.5347333848
 10
126.9170104732
 20
98.4497315433
 10
126.9681555361
 20
98.3605871031
 10
127.0146702613
 20
98.26800411
 10
127.0562856418
 20
98.1725479357
 10
127.0926530968
 20
98.0749521921
 10
127.1234843465
 20
97.9759618801
 10
127.1486054157
 20
97.8761660871
 10
127.1677876819
 20
97.7763528322
 10
127.1808439329
 20
97.6773163092
 10
127.1876928796
 20
97.5796880933
 10
127.1882518813
 20
97.4842681609
 10
127.1824704633
 20
97.3918952193
 10
127.1703983528
 20
97.3032951181
 10
127.1521409835
 20
97.2192203029
 10
127.1278514491
 20
97.1404874042
  0
LINE
  5
318
100
AcDbEntity
  8
26814000
100
AcDbLine
 62
7
  6
CONTINUOUS
 10
127.8483618141
 20
136.142126114
 11
127.8483618141
 21
135.8887547202
  0
LINE
  5
319
100
AcDbEntity
  8
26814000
100
AcDbLine
 62
7
  6
CONTINUOUS
 10
128.5595824222
 20
134.9780816387
 11
128.5595824222
 21
135.6152511974
  0
LWPOLYLINE
  5
31A
100
AcDbEntity
  8
RACCORDO
100
AcDbPolyline
 62
253
  6
CONTINUOUS
 90
55
 70
0
 10
126.8364276763
 20
97.5203491768
 10
126.8395445118
 20
97.5680289255
 10
126.8405025864
 20
97.6166261894
 10
126.8392981739
 20
97.6659776095
 10
126.835936945
 20
97.7158924202
 10
126.8304297232
 20
97.7662270804
 10
126.8227818668
 20
97.8168875353
 10
126.8129979982
 20
97.8677571196
 10
126.8011082982
 20
97.9186100129
 10
126.7871684301
 20
97.9691880568
 10
126.7712289326
 20
98.019312083
 10
126.7533428931
 20
98.06881927
 10
126.7335974496
 20
98.1174818753
 10
126.7120889827
 20
98.1650924215
 10
126.6888789007
 20
98.2115423501
 10
126.6640087047
 20
98.2567556469
 10
126.6375420707
 20
98.3006079948
 10
126.6095830936
 20
98.3429188894
 10
126.5802349512
 20
98.3835303795
 10
126.5495975586
 20
98.4223044661
 10
126.5177736199
 20
98.4591114142
 10
126.4848793641
 20
98.4938182176
 10
126.4510481986
 20
98.526289814
 10
126.416374398
 20
98.5564412521
 10
126.3809171145
 20
98.5842161559
 10
126.3447577525
 20
98.6095342197
 10
126.3080509276
 20
98.6322708989
 10
126.2709680237
 20
98.6523139163
 10
126.2336493039
 20
98.6695886973
 10
126.1962074766
 20
98.6840442992
 10
126.1587756394
 20
98.695629602
 10
126.1214852432
 20
98.7043053633
 10
126.0844584891
 20
98.710044599
 10
126.0478140112
 20
98.7128290437
 10
126.0116715658
 20
98.7126483006
 10
125.9761589608
 20
98.709501694
 10
125.9414041577
 20
98.7034007697
 10
125.9075296606
 20
98.6943688698
 10
125.8746450821
 20
98.682437101
 10
125.8428547446
 20
98.6676434746
 10
125.8122620601
 20
98.6500343472
 10
125.7829764815
 20
98.6296708976
 10
125.7551049736
 20
98.6066279327
 10
125.7287464821
 20
98.5809903677
 10
125.7039840187
 20
98.5528421769
 10
125.6808934263
 20
98.5222695517
 10
125.6595404216
 20
98.489352566
 10
125.6400142311
 20
98.4542214556
 10
125.622409547
 20
98.4170577617
 10
125.6067925858
 20
98.3780380626
 10
125.5931880227
 20
98.3372648135
 10
125.5816172768
 20
98.2948195046
 10
125.5721149784
 20
98.2508231706
 10
125.5647190096
 20
98.2054443834
 10
125.5594540556
 20
98.1588359871
  0
LWPOLYLINE
  5
31B
100
AcDbEntity
  8
RACCORDO
100
AcDbPolyline
 62
253
  6
CONTINUOUS
 90
39
 70
0
 10
126.9703538019
 20
97.5132750928
 10
126.973784393
 20
97.5657584678
 10
126.9748388642
 20
97.6192517197
 10
126.9735131158
 20
97.6735750585
 10
126.9698134728
 20
97.7285185139
 10
126.963751761
 20
97.7839241376
 10
126.9553336251
 20
97.8396884302
 10
126.9445640192
 20
97.8956829361
 10
126.9314763105
 20
97.9516590446
 10
126.9161319371
 20
98.0073325977
 10
126.8985865969
 20
98.0625064089
 10
126.8788986497
 20
98.1170012529
 10
126.8571639586
 20
98.1705664277
 10
126.8334885952
 20
98.2229735385
 10
126.8079401768
 20
98.2741030963
 10
126.7805643985
 20
98.3238714361
 10
126.7514313554
 20
98.3721417213
 10
126.7206556246
 20
98.4187152594
 10
126.6883507757
 20
98.4634181842
 10
126.654626789
 20
98.5060985917
 10
126.6195967169
 20
98.5466136783
 10
126.5833884995
 20
98.5848170402
 10
126.5461489846
 20
98.6205600102
 10
126.5079819438
 20
98.6537490772
 10
126.4689524874
 20
98.6843221832
 10
126.4291502207
 20
98.7121909302
 10
126.3887453367
 20
98.7372182279
 10
126.3479264862
 20
98.7592804896
 10
126.3068480629
 20
98.7782956289
 10
126.26563413
 20
98.79420757
 10
126.2244311937
 20
98.8069600419
 10
126.1833839481
 20
98.8165098486
 10
126.1426269054
 20
98.8228272877
 10
126.1022906515
 20
98.825892254
 10
126.0625070075
 20
98.8256933036
 10
126.0234166574
 20
98.8222296924
 10
125.9851604544
 20
98.8155141284
 10
125.9478732448
 20
98.8055723035
 10
125.9276053316
 20
98.7986613325
  0
LWPOLYLINE
  5
31C
100
AcDbEntity
  8
RACCORDO
100
AcDbPolyline
 62
253
  6
CONTINUOUS
 90
4
 70
0
 10
127.2160747695
 20
97.4133597804
 10
127.2070012812
 20
97.3143037943
 10
127.1909640022
 20
97.2187338759
 10
127.1683256054
 20
97.1288281793
  0
LWPOLYLINE
  5
31D
100
AcDbEntity
  8
ASSI
100
AcDbPolyline
 62
253
  6
CONTINUOUS
 90
3
 70
0
 10
127.2070012812
 20
97.3143037943
 10
127.1909640022
 20
97.2187338759
 10
127.1683256054
 20
97.1288281793
  0
LWPOLYLINE
  5
31E
100
AcDbEntity
  8
ASSI
100
AcDbPolyline
 62
253
  6
CONTINUOUS
 90
4
 70
0
 10
125.541326579
 20
98.5027821345
 10
125.5622121909
 20
98.5858025045
 10
125.5892736512
 20
98.6635952658
 10
125.6222744551
 20
98.7355578328
  0
LWPOLYLINE
  5
31F
100
AcDbEntity
  8
RACCORDO
100
AcDbPolyline
 62
253
  6
CONTINUOUS
 90
13
 70
0
 10
144.1903448838
 20
127.0558983068
 10
144.2090269764
 20
127.066355096
 10
144.2274253982
 20
127.0796798506
 10
144.2452183194
 20
127.0956394665
 10
144.2620945047
 20
127.113954751
 10
144.2777587619
 20
127.1343053127
 10
144.2919371041
 20
127.1563351688
 10
144.3043815325
 20
127.179658958
 10
144.3148743842
 20
127.203868696
 10
144.3232321384
 20
127.2285409202
 10
144.3293086146
 20
127.2532440721
 10
144.332997534
 20
127.2775460446
 10
144.334234383
 20
127.3010217572
  0
LWPOLYLINE
  5
320
100
AcDbEntity
  8
RACCORDO
100
AcDbPolyline
 62
253
  6
CONTINUOUS
 90
16
 70
0
 10
145.533847768
 20
127.3875327294
 10
145.5661593469
 20
127.4049747787
 10
145.5939783671
 20
127.4234806861
 10
145.6173048288
 20
127.4430504514
 10
145.6362445275
 20
127.4639197263
 10
145.6506916676
 20
127.4858528593
 10
145.6603288624
 20
127.5081428954
 10
145.665038697
 20
127.5307722884
 10
145.6649385862
 20
127.5537585846
 10
145.6600633883
 20
127.576447468
 10
145.6503046236
 20
127.59884669
 10
145.6357707719
 20
127.6209484993
 10
145.6168221307
 20
127.6420753261
 10
145.5935787992
 20
127.662001314
 10
145.5659206783
 20
127.6809523195
 10
145.533847768
 20
127.6989283426
  0
LWPOLYLINE
  5
321
100
AcDbEntity
  8
RACCORDO
100
AcDbPolyline
 62
7
  6
CONTINUOUS
 90
13
 70
0
 10
147.9404906617
 20
127.2205427093
 10
147.9177690847
 20
127.2085267625
 10
147.8968296247
 20
127.1959089119
 10
147.8776722819
 20
127.1826891575
 10
147.8602299869
 20
127.1688054607
 10
147.8445698091
 20
127.15431986
 10
147.8308929559
 20
127.1394184717
 10
147.8192250195
 20
127.1240959305
 10
147.8095404076
 20
127.1083576018
 10
147.8019635518
 20
127.092405697
 10
147.7965216495
 20
127.0762374603
 10
147.7931875033
 20
127.0598556476
 10
147.7920019364
 20
127.0427552416
  0
LINE
  5
322
100
AcDbEntity
  8
21814000
100
AcDbLine
 62
253
  6
CONTINUOUS
 10
158.5487548632
 20
132.3865885871
 11
154.4620387334
 21
130.270629369
  0
LINE
  5
323
100
AcDbEntity
  8
RACCORDO
100
AcDbLine
 62
7
  6
CONTINUOUS
 10
154.2337293196
 20
129.7287413197
 11
149.6375352419
 21
127.4306442809
  0
LINE
  5
324
100
AcDbEntity
  8
RACCORDO
100
AcDbLine
 62
7
  6
CONTINUOUS
 10
146.9381868786
 20
127.5527663676
 11
153.2031898633
 21
130.6602540342
  0
LINE
  5
325
100
AcDbEntity
  8
RACCORDO
100
AcDbLine
 62
7
  6
CONTINUOUS
 10
153.6278783745
 20
130.0316667923
 11
147.9404906617
 21
127.2205427093
  0
LWPOLYLINE
  5
326
100
AcDbEntity
  8
ASSI
100
AcDbPolyline
 62
7
  6
CONTINUOUS
 90
3
 70
0
 10
126.1340582273
 20
99.0437405673
 10
126.2359911816
 20
99.0262926587
 10
126.3399917403
 20
98.9908264374
  0
LINE
  5
327
100
AcDbEntity
  8
RACCORDO
100
AcDbLine
 62
7
  6
CONTINUOUS
 10
126.2031979921
 20
99.0338381295
 11
126.2645420158
 21
99.0182766272
  0
LINE
  5
328
100
AcDbEntity
  8
ASSI
100
AcDbLine
 62
253
  6
CONTINUOUS
 10
126.2023484874
 20
99.0911277249
 11
126.2821780291
 21
99.0646689141
  0
LINE
  5
329
100
AcDbEntity
  8
RACCORDO
100
AcDbLine
 62
7
  6
CONTINUOUS
 10
126.2645420158
 20
99.0182766272
 11
126.3265940796
 21
98.9963552229
  0
LINE
  5
32A
100
AcDbEntity
  8
RACCORDO
100
AcDbLine
 62
253
  6
CONTINUOUS
 10
159.4002817628
 20
81.3848085108
 11
159.3779311528
 21
81.398351298
  0
LINE
  5
32B
100
AcDbEntity
  8
26814000
100
AcDbLine
 62
7
  6
CONTINUOUS
 10
129.6264133343
 20
135.5166628882
 11
129.6264133343
 21
137.2487136957
  0
LINE
  5
32C
100
AcDbEntity
  8
26814000
100
AcDbLine
 62
7
  6
CONTINUOUS
 10
130.3294062886
 20
137.3840351935
 11
130.3294062886
 21
137.1231062171
  0
LINE
  5
32D
100
AcDbEntity
  8
26814000
100
AcDbLine
 62
7
  6
CONTINUOUS
 10
131.8041703373
 20
134.9906497564
 11
131.8041703373
 21
133.7759163702
  0
LINE
  5
32E
100
AcDbEntity
  8
26814000
100
AcDbLine
 62
253
  6
CONTINUOUS
 10
131.892038303
 20
134.8841407996
 11
131.892038303
 21
133.6691859335
  0
LINE
  5
32F
100
AcDbEntity
  8
26814000
100
AcDbLine
 62
7
  6
CONTINUOUS
 10
132.0659317294
 20
132.1827265761
 11
132.0659317294
 21
132.1242474149
  0
LWPOLYLINE
  5
330
100
AcDbEntity
  8
RACCORDO
100
AcDbPolyline
 62
253
  6
CONTINUOUS
 90
6
 70
0
 10
127.1683256054
 20
97.1288281793
 10
127.1389285356
 20
97.0447177549
 10
127.1029263619
 20
96.966269922
 10
127.061144664
 20
96.8952656655
 10
127.0134493774
 20
96.8318801939
 10
126.9599676293
 20
96.7759354264
  0
LWPOLYLINE
  5
331
100
AcDbEntity
  8
ASSI
100
AcDbPolyline
 62
253
  6
CONTINUOUS
 90
3
 70
0
 10
127.1683256054
 20
97.1288281793
 10
127.1389285356
 20
97.0447177549
 10
127.1029263619
 20
96.966269922
  0
LINE
  5
332
100
AcDbEntity
  8
26814000
100
AcDbLine
 62
7
  6
CONTINUOUS
 10
143.6058503337
 20
130.2089958469
 11
143.2628877316
 21
129.7915772448
  0
LINE
  5
333
100
AcDbEntity
  8
0
100
AcDbLine
 62
7
  6
CONTINUOUS
 10
151.8097419804
 20
126.3445409116
 11
155.2148855407
 21
128.0471126917
  0
LINE
  5
334
100
AcDbEntity
  8
DRAFT
100
AcDbLine
 62
7
  6
CONTINUOUS
 10
154.5872827102
 20
128.5721502125
 11
150.891903217
 21
126.8034602933
  0
LINE
  5
335
100
AcDbEntity
  8
RACCORDO
100
AcDbLine
 62
7
  6
CONTINUOUS
 10
156.3673903781
 20
129.0781537767
 11
151.2454566076
 21
126.626683598
  0
LWPOLYLINE
  5
336
100
AcDbEntity
  8
ASSI
100
AcDbPolyline
 62
253
  6
CONTINUOUS
 90
6
 70
0
 10
126.7439319218
 20
96.7655499573
 10
126.676032604
 20
96.7554992933
 10
126.605787176
 20
96.7541902559
 10
126.5337797291
 20
96.7616105714
 10
126.4605837085
 20
96.7776674636
 10
126.3867512448
 20
96.802220021
  0
LWPOLYLINE
  5
337
100
AcDbEntity
  8
RACCORDO
100
AcDbPolyline
 62
7
  6
CONTINUOUS
 90
3
 70
0
 10
126.0842071849
 20
99.0455590146
 10
126.1429831152
 20
99.0429318063
 10
126.2031979921
 20
99.0338381295
  0
LWPOLYLINE
  5
338
100
AcDbEntity
  8
RACCORDO
100
AcDbPolyline
 62
253
  6
CONTINUOUS
 90
4
 70
0
 10
126.0456270925
 20
99.1160472404
 10
126.1237033481
 20
99.1082515169
 10
126.2023484874
 20
99.0911277249
 10
126.2821780291
 20
99.0646689141
  0
LWPOLYLINE
  5
339
100
AcDbEntity
  8
ASSI
100
AcDbPolyline
 62
253
  6
CONTINUOUS
 90
3
 70
0
 10
126.0456270925
 20
99.1160472404
 10
126.1237033481
 20
99.1082515169
 10
126.2023484874
 20
99.0911277249
  0
LWPOLYLINE
  5
33A
100
AcDbEntity
  8
21814000
100
AcDbPolyline
 62
7
  6
CONTINUOUS
 90
9
 70
0
 10
138.8612606349
 20
133.5023194902
 10
138.8596776408
 20
133.4945024125
 10
138.8562552805
 20
133.4842308054
 10
138.8504915419
 20
133.4716744563
 10
138.8421727864
 20
133.4574330368
 10
138.8314941722
 20
133.4423737832
 10
138.8186796179
 20
133.4270044101
 10
138.8038363341
 20
133.411553907
 10
138.7973993971
 20
133.4054375636
  0
LWPOLYLINE
  5
33B
100
AcDbEntity
  8
RACCORDO
100
AcDbPolyline
 62
7
  6
CONTINUOUS
 90
7
 70
0
 10
127.1278514491
 20
97.1404874042
 10
127.0978206928
 20
97.0678746678
 10
127.0624434399
 20
97.0020447717
 10
127.0220669903
 20
96.9434758006
 10
126.9770295347
 20
96.892491904
 10
126.9278492843
 20
96.8494579581
 10
126.8748003506
 20
96.8145059441
  0
LWPOLYLINE
  5
33C
100
AcDbEntity
  8
ASSI
100
AcDbPolyline
 62
7
  6
CONTINUOUS
 90
4
 70
0
 10
127.1289652705
 20
97.1435960428
 10
127.0638087094
 20
97.0042839754
 10
126.9779642487
 20
96.8934263325
 10
126.8741866807
 20
96.8141361107
  0
LINE
  5
33D
100
AcDbEntity
  8
0
100
AcDbLine
 62
7
  6
CONTINUOUS
 10
126.3480465769
 20
98.9871108882
 11
126.3277505081
 21
98.9460749255
  0
LINE
  5
33E
100
AcDbEntity
  8
ASSI
100
AcDbLine
 62
7
  6
CONTINUOUS
 10
126.3480465769
 20
98.9871108882
 11
126.3180499033
 21
98.9264615875
  0
LWPOLYLINE
  5
33F
100
AcDbEntity
  8
ASSI
100
AcDbPolyline
 62
253
  6
CONTINUOUS
 90
6
 70
0
 10
125.6222744551
 20
98.7355578328
 10
125.6609976113
 20
98.8011533253
 10
125.7051267521
 20
98.8598757815
 10
125.7542984749
 20
98.9112724097
 10
125.8081656813
 20
98.9549654404
 10
125.8663006363
 20
98.99061762
  0
LWPOLYLINE
  5
340
100
AcDbEntity
  8
RACCORDO
100
AcDbPolyline
 62
253
  6
CONTINUOUS
 90
5
 70
0
 10
145.5452438794
 20
128.3858846129
 10
145.5207561323
 20
128.3506047642
 10
145.4982080089
 20
128.3140274092
 10
145.4774759155
 20
128.2758749365
 10
145.4586834458
 20
128.2364249574
  0
LWPOLYLINE
  5
341
100
AcDbEntity
  8
RACCORDO
100
AcDbPolyline
 62
7
  6
CONTINUOUS
 90
7
 70
0
 10
146.1177436788
 20
128.9889323526
 10
146.1368292492
 20
129.0152909545
 10
146.1523353215
 20
129.0439181689
 10
146.1639925882
 20
129.0743267075
 10
146.1716099692
 20
129.1060615795
 10
146.1750293156
 20
129.1385398402
 10
146.1752246397
 20
129.1484092416
  0
LWPOLYLINE
  5
342
100
AcDbEntity
  8
RACCORDO
100
AcDbPolyline
 62
253
  6
CONTINUOUS
 90
47
 70
0
 10
149.1522483077
 20
132.9576784895
 10
149.191181082
 20
133.0097204843
 10
149.2404643003
 20
133.0665011618
 10
149.295597975
 20
133.1220917761
 10
149.3561014533
 20
133.1760342984
 10
149.4219738049
 20
133.2282871979
 10
149.4932159602
 20
133.2788920053
 10
149.5693500579
 20
133.3275152839
 10
149.6503666869
 20
133.3741430264
 10
149.7362752583
 20
133.41878924
 10
149.826626144
 20
133.4611625091
 10
149.9216764242
 20
133.5013217071
 10
150.0211690187
 20
133.5392079606
 10
150.1238830591
 20
133.5743532337
 10
150.2302239278
 20
133.6067309536
 10
150.3397862424
 20
133.6363676932
 10
150.4501329868
 20
133.6628751354
 10
150.5612375037
 20
133.6860745288
 10
150.6731264504
 20
133.7061446249
 10
150.7834427826
 20
133.7232333606
 10
150.8918332724
 20
133.7372072565
 10
150.9986511477
 20
133.7481997921
 10
151.1025990469
 20
133.7567593433
 10
151.2034348813
 20
133.7628619129
 10
151.3014007396
 20
133.7665314981
 10
151.3959255259
 20
133.7683884669
 10
151.486847266
 20
133.7684543357
 10
151.5743279342
 20
133.7667075882
 10
151.6582823575
 20
133.7637040428
 10
151.7385864309
 20
133.7594852422
 10
151.8153642595
 20
133.7540096437
 10
151.888902986
 20
133.7477084381
 10
151.9591695196
 20
133.7406224043
 10
152.0261969512
 20
133.7327107634
 10
152.0903716954
 20
133.7242823692
 10
152.1516794422
 20
133.7153717287
 10
152.2101345016
 20
133.7059443349
 10
152.2661662181
 20
133.6962055211
 10
152.3197708017
 20
133.6861839993
 10
152.3709520423
 20
133.6758510576
 10
152.4201506546
 20
133.6653258929
 10
152.4673697995
 20
133.6546313537
 10
152.5126063161
 20
133.6437445916
 10
152.556291436
 20
133.632716258
 10
152.5985689031
 20
133.6215632366
 10
152.6392949735
 20
133.6102686438
 10
152.6784696472
 20
133.5988324795
  0
LWPOLYLINE
  5
343
100
AcDbEntity
  8
RACCORDO
100
AcDbPolyline
 62
253
  6
CONTINUOUS
 90
10
 70
0
 10
149.0705944382
 20
132.9913361316
 10
149.0728891263
 20
132.9943961423
 10
149.1257517774
 20
133.0551132403
 10
149.1848306479
 20
133.1143724576
 10
149.2499234273
 20
133.1719803907
 10
149.3207992591
 20
133.2277538584
 10
149.3972923969
 20
133.2815817939
 10
149.4792838006
 20
133.3333829776
 10
149.5665323976
 20
133.3830006169
 10
149.586901777
 20
133.3938695982
  0
LINE
  5
344
100
AcDbEntity
  8
RACCORDO
100
AcDbLine
 62
253
  6
CONTINUOUS
 10
145.5716712501
 20
128.4198669552
 11
145.5452438794
 21
128.3858846129
  0
LINE
  5
345
100
AcDbEntity
  8
RACCORDO
100
AcDbLine
 62
253
  6
CONTINUOUS
 10
145.5716712501
 20
128.4198669552
 11
146.102001336
 21
129.0600319982
  0
LINE
  5
346
100
AcDbEntity
  8
RACCORDO
100
AcDbLine
 62
7
  6
CONTINUOUS
 10
145.5874135929
 20
128.3487673097
 11
146.1177436788
 21
128.9889323526
  0
LINE
  5
347
100
AcDbEntity
  8
RACCORDO
100
AcDbLine
 62
7
  6
CONTINUOUS
 10
159.789327733
 20
126.950942113
 11
154.167079567
 21
124.1072482566
  0
LINE
  5
348
100
AcDbEntity
  8
RACCORDO
100
AcDbLine
 62
7
  6
CONTINUOUS
 10
159.1834767879
 20
127.2538675856
 11
154.5872827102
 21
124.9557705467
  0
LINE
  5
349
100
AcDbEntity
  8
RACCORDO
100
AcDbLine
 62
7
  6
CONTINUOUS
 10
160.1408447798
 20
125.7953691777
 11
154.167079567
 21
122.9023274239
  0
LINE
  5
34A
100
AcDbEntity
  8
RACCORDO
100
AcDbLine
 62
7
  6
CONTINUOUS
 10
160.139420593
 20
126.7315889083
 11
160.6100310652
 21
126.9568334332
  0
LWPOLYLINE
  5
34B
100
AcDbEntity
  8
RACCORDO
100
AcDbPolyline
 62
7
  6
CONTINUOUS
 90
12
 70
0
 10
159.1834767879
 20
127.2538675856
 10
159.2067629212
 20
127.2645506567
 10
159.2297545361
 20
127.2732730583
 10
159.2524516327
 20
127.2800347903
 10
159.2749486111
 20
127.284847981
 10
159.2971510713
 20
127.2877005022
 10
159.318775813
 20
127.2885559688
 10
159.3398154358
 20
127.287388799
 10
159.3602773402
 20
127.2842245748
 10
159.3799005275
 20
127.2791036568
 10
159.3986742539
 20
127.2720009803
 10
159.4070736208
 20
127.2680540753
  0
LWPOLYLINE
  5
34C
100
AcDbEntity
  8
RACCORDO
100
AcDbPolyline
 62
7
  6
CONTINUOUS
 90
12
 70
0
 10
160.6100310652
 20
126.9568334332
 10
160.6560458367
 20
126.9769806652
 10
160.7014403891
 20
126.9932820508
 10
160.7462147224
 20
127.0057375901
 10
160.7905506287
 20
127.0143671761
 10
160.834266316
 20
127.0191509158
 10
160.876816408
 20
127.0200291294
 10
160.9181863026
 20
127.01695289
 10
160.958390602
 20
127.0099711245
 10
160.9969277364
 20
126.9991709341
 10
161.0337768201
 20
126.9845044831
 10
161.0448686311
 20
126.9791784788
  0
LWPOLYLINE
  5
34D
100
AcDbEntity
  8
RACCORDO
100
AcDbPolyline
 62
7
  6
CONTINUOUS
 90
6
 70
0
 10
157.834236522
 20
123.7129334755
 10
157.8625231172
 20
123.7249630407
 10
157.8925103182
 20
123.7335280096
 10
157.9236849011
 20
123.738325178
 10
157.955589545
 20
123.7391441606
 10
157.9874744332
 20
123.7358691209
  0
LWPOLYLINE
  5
34E
100
AcDbEntity
  8
RACCORDO
100
AcDbPolyline
 62
253
  6
CONTINUOUS
 90
6
 70
0
 10
157.8384250872
 20
123.7149001313
 10
157.8576515732
 20
123.7210208516
 10
157.8783904083
 20
123.7231772204
 10
157.9002867454
 20
123.7213323415
 10
157.9229659319
 20
123.7155177814
 10
157.9460399208
 20
123.7058330287
  0
LINE
  5
34F
100
AcDbEntity
  8
ASSI
100
AcDbLine
 62
253
  6
CONTINUOUS
 10
126.7905520186
 20
96.7779908218
 11
126.7439319218
 21
96.7655499573
  0
LINE
  5
350
100
AcDbEntity
  8
RACCORDO
100
AcDbLine
 62
7
  6
CONTINUOUS
 10
126.027290234
 20
99.0417268009
 11
126.0842071849
 21
99.0455590146
  0
LINE
  5
351
100
AcDbEntity
  8
ASSI
100
AcDbLine
 62
7
  6
CONTINUOUS
 10
126.0355118873
 20
99.0426924023
 11
126.1340582273
 21
99.0437405673
  0
LINE
  5
352
100
AcDbEntity
  8
DRAFT
100
AcDbLine
 62
7
  6
CONTINUOUS
 10
164.195259669
 20
88.51151433
 11
164.929037124
 21
88.1446256025
  0
LINE
  5
353
100
AcDbEntity
  8
DRAFT
100
AcDbLine
 62
7
  6
CONTINUOUS
 10
159.9966495863
 20
91.3146653428
 11
161.3060222038
 21
90.659979034
  0
LINE
  5
354
100
AcDbEntity
  8
26814000
100
AcDbLine
 62
7
  6
CONTINUOUS
 10
137.0156791977
 20
129.707852842
 11
137.0156791977
 21
129.6493736807
  0
LINE
  5
355
100
AcDbEntity
  8
21814000
100
AcDbLine
 62
7
  6
CONTINUOUS
 10
138.861603221
 20
133.5071898428
 11
138.8612606349
 21
133.5023194902
  0
LWPOLYLINE
  5
356
100
AcDbEntity
  8
RACCORDO
100
AcDbPolyline
 62
253
  6
CONTINUOUS
 90
19
 70
0
 10
142.7528489929
 20
127.8673367245
 10
142.7559574673
 20
127.877038804
 10
142.7593658637
 20
127.8869605227
 10
142.7633566602
 20
127.8970004835
 10
142.7679273312
 20
127.9071226061
 10
142.7730406684
 20
127.9172834136
 10
142.778901909
 20
127.9273831019
 10
142.7854673378
 20
127.9373581866
 10
142.7926623406
 20
127.9471566528
 10
142.8006137025
 20
127.9567082268
 10
142.8092765167
 20
127.9659533147
 10
142.8185145038
 20
127.9748461433
 10
142.8283159957
 20
127.9833557793
 10
142.8386442165
 20
127.9914515827
 10
142.8494159608
 20
127.9991187478
 10
142.8605496043
 20
128.0063585759
 10
142.8719602889
 20
128.0131592056
 10
142.883587643
 20
128.019500969
 10
142.89538628
 20
128.0253804539
  0
LWPOLYLINE
  5
357
100
AcDbEntity
  8
RACCORDO
100
AcDbPolyline
 62
253
  6
CONTINUOUS
 90
7
 70
0
 10
142.7373347928
 20
127.8160943112
 10
142.7399478179
 20
127.823665844
 10
142.7424932019
 20
127.831647578
 10
142.7450261716
 20
127.8400326629
 10
142.7475059052
 20
127.8488062757
 10
142.750029675
 20
127.8579231609
 10
142.7528489929
 20
127.8673367245
  0
LWPOLYLINE
  5
358
100
AcDbEntity
  8
RACCORDO
100
AcDbPolyline
 62
253
  6
CONTINUOUS
 90
12
 70
0
 10
143.9806809924
 20
127.9993718264
 10
143.967736058
 20
127.970091804
 10
143.951989937
 20
127.9427375139
 10
143.9336916672
 20
127.917787272
 10
143.9131207559
 20
127.8956682874
 10
143.8906284505
 20
127.8767994638
 10
143.866645079
 20
127.8615579953
 10
143.8416016098
 20
127.8502127204
 10
143.8159110117
 20
127.8429458992
 10
143.7900153573
 20
127.8398822856
 10
143.7643595293
 20
127.8410739004
 10
143.7544203627
 20
127.8427084445
  0
LWPOLYLINE
  5
359
100
AcDbEntity
  8
RACCORDO
100
AcDbPolyline
 62
253
  6
CONTINUOUS
 90
12
 70
0
 10
144.5110110783
 20
127.8895368693
 10
144.4979617347
 20
127.8600508856
 10
144.4821109707
 20
127.8325817644
 10
144.4637299974
 20
127.80759951
 10
144.4431333181
 20
127.7855315756
 10
144.4206733479
 20
127.7667555498
 10
144.396734383
 20
127.7515926955
 10
144.3717260258
 20
127.7403024534
 10
144.3460761762
 20
127.7330780027
 10
144.3202237102
 20
127.7300429557
 10
144.2946109707
 20
127.7312492429
 10
144.2835336304
 20
127.7331203279
  0
LWPOLYLINE
  5
35A
100
AcDbEntity
  8
ASSI
100
AcDbPolyline
 62
253
  6
CONTINUOUS
 90
4
 70
0
 10
127.1029263619
 20
96.966269922
 10
127.061144664
 20
96.8952656655
 10
127.0134493774
 20
96.8318801939
 10
126.9599676293
 20
96.7759354264
  0
LINE
  5
35B
100
AcDbEntity
  8
21814000
100
AcDbLine
 62
7
  6
CONTINUOUS
 10
159.8070318948
 20
127.0680943246
 11
159.8720721368
 21
127.110161804
  0
LWPOLYLINE
  5
35C
100
AcDbEntity
  8
RACCORDO
100
AcDbPolyline
 62
253
  6
CONTINUOUS
 90
13
 70
0
 10
155.8247195773
 20
122.645172857
 10
155.8016455884
 20
122.6317836207
 10
155.7789664018
 20
122.6149189942
 10
155.7570700648
 20
122.5948675361
 10
155.7363312296
 20
122.5719723322
 10
155.7171047436
 20
122.5466251259
 10
155.6997195773
 20
122.5192596149
 10
155.6844731956
 20
122.4903440308
 10
155.6716264684
 20
122.460373127
 10
155.6613992067
 20
122.4298597142
 10
155.6539664018
 20
122.3993258853
 10
155.6494552311
 20
122.3692940825
 10
155.647942882
 20
122.3402781584
  0
LWPOLYLINE
  5
35D
100
AcDbEntity
  8
RACCORDO
100
AcDbPolyline
 62
7
  6
CONTINUOUS
 90
10
 70
0
 10
155.7131006805
 20
122.6523653014
 10
155.7017079482
 20
122.6463086283
 10
155.6746223073
 20
122.6285935166
 10
155.6499913742
 20
122.6074682074
 10
155.6282398743
 20
122.5832489317
 10
155.6097319985
 20
122.5562609455
 10
155.5948278206
 20
122.5268998008
 10
155.5838675452
 20
122.4956761325
 10
155.5771096174
 20
122.463152848
 10
155.5747197356
 20
122.4288071986
  0
LINE
  5
35E
100
AcDbEntity
  8
RACCORDO
100
AcDbLine
 62
7
  6
CONTINUOUS
 10
155.7129161784
 20
122.6522733038
 11
157.834236522
 21
123.7129334755
  0
LINE
  5
35F
100
AcDbEntity
  8
RACCORDO
100
AcDbLine
 62
253
  6
CONTINUOUS
 10
155.8247195773
 20
122.645172857
 11
157.9460399208
 21
123.7058330287
  0
LINE
  5
360
100
AcDbEntity
  8
RACCORDO
100
AcDbLine
 62
253
  6
CONTINUOUS
 10
157.1682224615
 20
121.9734214148
 11
159.2895428051
 21
123.0340815866
  0
LINE
  5
361
100
AcDbEntity
  8
RACCORDO
100
AcDbLine
 62
253
  6
CONTINUOUS
 10
156.281087261
 20
121.3903549269
 11
156.211160164
 21
121.3568862799
  0
LINE
  5
362
100
AcDbEntity
  8
RACCORDO
100
AcDbLine
 62
253
  6
CONTINUOUS
 10
157.834236522
 20
123.7129334755
 11
157.8384250872
 21
123.7149001313
  0
LWPOLYLINE
  5
363
100
AcDbEntity
  8
RACCORDO
100
AcDbPolyline
 62
253
  6
CONTINUOUS
 90
7
 70
0
 10
155.7131006805
 20
122.6523653014
 10
155.7177936149
 20
122.6545396315
 10
155.737240663
 20
122.6605446336
 10
155.7580586087
 20
122.6625199887
 10
155.7798109567
 20
122.6605243113
 10
155.802158811
 20
122.6546828147
 10
155.8247195773
 20
122.645172857
  0
LINE
  5
364
100
AcDbEntity
  8
RACCORDO
100
AcDbLine
 62
7
  6
CONTINUOUS
 10
159.0748781811
 20
123.2044160449
 11
163.7742315801
 21
125.3747331757
  0
LWPOLYLINE
  5
365
100
AcDbEntity
  8
RACCORDO
100
AcDbPolyline
 62
253
  6
CONTINUOUS
 90
13
 70
0
 10
157.3449991568
 20
121.3172127442
 10
157.3205999385
 20
121.3065037854
 10
157.2935677761
 20
121.2974477838
 10
157.264344842
 20
121.2902099223
 10
157.2333922855
 20
121.2849229102
 10
157.2012518271
 20
121.2816968334
 10
157.1685435727
 20
121.2806011949
 10
157.1358536569
 20
121.2816532596
 10
157.1037195932
 20
121.2848333602
 10
157.0726942376
 20
121.2900866355
 10
157.0433104042
 20
121.2973225414
 10
157.0160718385
 20
121.3064166829
 10
156.9914457662
 20
121.3172127442
  0
LWPOLYLINE
  5
366
100
AcDbEntity
  8
RACCORDO
100
AcDbPolyline
 62
253
  6
CONTINUOUS
 90
13
 70
0
 10
157.3449991568
 20
121.6685267162
 10
157.3204128188
 20
121.6577458964
 10
157.2932224615
 20
121.6486618884
 10
157.2638933196
 20
121.6414301223
 10
157.2329272228
 20
121.6361743356
 10
157.2008540096
 20
121.6329844562
 10
157.1682224615
 20
121.6319150639
 10
157.1355909135
 20
121.6329844562
 10
157.1035177003
 20
121.6361743356
 10
157.0725516035
 20
121.6414301223
 10
157.0432224615
 20
121.6486618884
 10
157.0160321043
 20
121.6577458964
 10
156.9914457662
 20
121.6685267162
  0
LWPOLYLINE
  5
367
100
AcDbEntity
  8
RACCORDO
100
AcDbPolyline
 62
253
  6
CONTINUOUS
 90
4
 70
0
 10
158.8981659325
 20
121.0167692604
 10
158.8799341198
 20
121.0094924279
 10
158.862048673
 20
121.0052557512
 10
158.8448088639
 20
121.0041301212
  0
LINE
  5
368
100
AcDbEntity
  8
DRAFT
100
AcDbLine
 62
7
  6
CONTINUOUS
 10
158.3059435528
 20
119.7243390172
 11
157.8383014584
 21
119.5676581134
  0
LWPOLYLINE
  5
369
100
AcDbEntity
  8
RACCORDO
100
AcDbPolyline
 62
253
  6
CONTINUOUS
 90
13
 70
0
 10
159.1771785233
 20
120.233410541
 10
159.2069908699
 20
120.2419884101
 10
159.2179035449
 20
120.2451018277
 10
159.2293747238
 20
120.2484610388
 10
159.2414273618
 20
120.2520580753
 10
159.2540385037
 20
120.2559009053
 10
159.2672130647
 20
120.2601282565
 10
159.2809361689
 20
120.2647203299
 10
159.295222692
 20
120.2696969245
 10
159.3101221769
 20
120.2752561651
 10
159.3256511376
 20
120.2814640934
 10
159.3417930601
 20
120.2882546677
 10
159.3585479442
 20
120.295627888
  0
LINE
  5
36A
100
AcDbEntity
  8
ASSI
100
AcDbLine
 62
7
  6
CONTINUOUS
 10
125.9417829313
 20
99.0226065332
 11
126.0355118873
 21
99.0426924023
  0
LINE
  5
36B
100
AcDbEntity
  8
21814000
100
AcDbLine
 62
7
  6
CONTINUOUS
 10
138.8616081496
 20
133.5072469701
 11
138.8616081851
 21
133.5071479938
  0
LINE
  5
36C
100
AcDbEntity
  8
21814000
100
AcDbLine
 62
253
  6
CONTINUOUS
 10
137.6024634054
 20
133.916550266
 11
137.6024634054
 21
133.4431418107
  0
LINE
  5
36D
100
AcDbEntity
  8
26814000
100
AcDbLine
 62
253
  6
CONTINUOUS
 10
137.684547371
 20
130.7729313994
 11
137.684547371
 21
131.9878862655
  0
LINE
  5
36E
100
AcDbEntity
  8
21814000
100
AcDbLine
 62
253
  6
CONTINUOUS
 10
138.0153346217
 20
134.0288106913
 11
138.0153346217
 21
133.2367062025
  0
LINE
  5
36F
100
AcDbEntity
  8
26814000
100
AcDbLine
 62
7
  6
CONTINUOUS
 10
138.0409840304
 20
135.025905234
 11
138.0409840304
 21
136.2761760932
  0
LINE
  5
370
100
AcDbEntity
  8
26814000
100
AcDbLine
 62
253
  6
CONTINUOUS
 10
138.1075737226
 20
130.774570247
 11
138.1075737226
 21
131.9887737198
  0
LINE
  5
371
100
AcDbEntity
  8
26814000
100
AcDbLine
 62
7
  6
CONTINUOUS
 10
138.394537421
 20
135.5468412086
 11
138.394537421
 21
136.0993993979
  0
LINE
  5
372
100
AcDbEntity
  8
26814000
100
AcDbLine
 62
253
  6
CONTINUOUS
 10
138.4652480992
 20
137.7156076954
 11
138.4652480992
 21
136.483773514
  0
LINE
  5
373
100
AcDbEntity
  8
26814000
100
AcDbLine
 62
7
  6
CONTINUOUS
 10
138.5531160648
 20
137.8206049094
 11
138.5531160648
 21
136.5882363045
  0
LINE
  5
374
100
AcDbEntity
  8
26814000
100
AcDbLine
 62
7
  6
CONTINUOUS
 10
138.6066694554
 20
132.2389703929
 11
138.6066694554
 21
131.0265348276
  0
LINE
  5
375
100
AcDbEntity
  8
21814000
100
AcDbLine
 62
253
  6
CONTINUOUS
 10
138.7737402204
 20
133.649607892
 11
138.7737402204
 21
133.3835317067
  0
LINE
  5
376
100
AcDbEntity
  8
26814000
100
AcDbLine
 62
7
  6
CONTINUOUS
 10
139.6069035163
 20
130.0094838691
 11
139.6069035163
 21
130.2628552629
  0
LWPOLYLINE
  5
377
100
AcDbEntity
  8
RACCORDO
100
AcDbPolyline
 62
253
  6
CONTINUOUS
 90
3
 70
0
 10
145.4586834458
 20
128.2364249574
 10
145.4422013806
 20
128.1965103058
 10
145.4280671836
 20
128.1561290128
  0
LWPOLYLINE
  5
378
100
AcDbEntity
  8
RACCORDO
100
AcDbPolyline
 62
253
  6
CONTINUOUS
 90
13
 70
0
 10
157.1682224615
 20
121.9734214148
 10
157.1450560646
 20
121.9599710443
 10
157.1222811296
 20
121.9430115906
 10
157.1002914123
 20
121.9228321519
 10
157.0794654752
 20
121.899775178
 10
157.0601674591
 20
121.8742385903
 10
157.0427387981
 20
121.8466716759
 10
157.0274501682
 20
121.8174859412
 10
157.0146078804
 20
121.787247125
 10
157.0044961189
 20
121.756694572
 10
156.9972452239
 20
121.7264280478
 10
156.9928913125
 20
121.6968806721
 10
156.9914457662
 20
121.6685267162
  0
LWPOLYLINE
  5
379
100
AcDbEntity
  8
RACCORDO
100
AcDbPolyline
 62
253
  6
CONTINUOUS
 90
7
 70
0
 10
158.7592127192
 20
121.2743195253
 10
158.780774359
 20
121.2866126944
 10
158.7989423749
 20
121.300207873
 10
158.813405907
 20
121.314872444
 10
158.8239174805
 20
121.3303554924
 10
158.8302972393
 20
121.346392099
 10
158.8324360239
 20
121.362707873
  0
LWPOLYLINE
  5
37A
100
AcDbEntity
  8
RACCORDO
100
AcDbPolyline
 62
253
  6
CONTINUOUS
 90
13
 70
0
 10
156.211160164
 20
121.0454906667
 10
156.2298420088
 20
121.0559472962
 10
156.2482402426
 20
121.0692718563
 10
156.2660330424
 20
121.0852312731
 10
156.2829091753
 20
121.1035463834
 10
156.2985734432
 20
121.1238968183
 10
156.3127518457
 20
121.1459266067
 10
156.3251963733
 20
121.1692504023
 10
156.3356893457
 20
121.1934602239
 10
156.3440472191
 20
121.2181325917
 10
156.3501237971
 20
121.2428359353
 10
156.3538127878
 20
121.2671381423
 10
156.3550496632
 20
121.2906141171
  0
LWPOLYLINE
  5
37B
100
AcDbEntity
  8
RACCORDO
100
AcDbPolyline
 62
253
  6
CONTINUOUS
 90
13
 70
0
 10
157.5546630482
 20
120.3737392246
 10
157.5733451408
 20
120.3841960138
 10
157.5917435626
 20
120.3975207684
 10
157.6095364839
 20
120.4134803843
 10
157.6264126692
 20
120.4317956688
 10
157.6420769263
 20
120.4521462305
 10
157.6562552685
 20
120.4741760865
 10
157.668699697
 20
120.4974998758
 10
157.6791925486
 20
120.5217096138
 10
157.6875503028
 20
120.546381838
 10
157.693626779
 20
120.5710849898
 10
157.6973156984
 20
120.5953869624
 10
157.6985525474
 20
120.618862675
  0
LWPOLYLINE
  5
37C
100
AcDbEntity
  8
RACCORDO
100
AcDbPolyline
 62
253
  6
CONTINUOUS
 90
16
 70
0
 10
156.211160164
 20
121.3568862799
 10
156.1788486027
 20
121.3394442279
 10
156.151029584
 20
121.3209383197
 10
156.1277031079
 20
121.3013685554
 10
156.1087633693
 20
121.2804992853
 10
156.0943161733
 20
121.258566159
 10
156.0846789344
 20
121.2362761255
 10
156.079969092
 20
121.2136467309
 10
156.0800692067
 20
121.190660429
 10
156.0849443755
 20
121.1679715305
 10
156.0947030213
 20
121.145572271
 10
156.1092367212
 20
121.123470415
 10
156.1281853027
 20
121.1023435661
 10
156.1514287082
 20
121.0824175924
 10
156.1790869953
 20
121.063466626
 10
156.211160164
 20
121.0454906667
  0
LINE
  5
37D
100
AcDbEntity
  8
RACCORDO
100
AcDbLine
 62
7
  6
CONTINUOUS
 10
159.0074009851
 20
121.7338069298
 11
164.8855688918
 21
124.9052133706
  0
LINE
  5
37E
100
AcDbEntity
  8
DRAFT
100
AcDbLine
 62
7
  6
CONTINUOUS
 10
159.2429059015
 20
121.4004068561
 11
164.929037124
 21
124.3444874807
  0
LWPOLYLINE
  5
37F
100
AcDbEntity
  8
RACCORDO
100
AcDbPolyline
 62
253
  6
CONTINUOUS
 90
8
 70
0
 10
158.7592127192
 20
120.9504970976
 10
158.7769398611
 20
120.9596220686
 10
158.7924290341
 20
120.9696167793
 10
158.8055309934
 20
120.9803531068
 10
158.8161224812
 20
120.9916864013
 10
158.8241185898
 20
121.0034890783
 10
158.8294638281
 20
121.0156537462
 10
158.8321187801
 20
121.0280301277
  0
LINE
  5
380
100
AcDbEntity
  8
RACCORDO
100
AcDbLine
 62
253
  6
CONTINUOUS
 10
157.3449991568
 20
121.6685267162
 11
159.4663195004
 21
122.729186888
  0
LWPOLYLINE
  5
381
100
AcDbEntity
  8
RACCORDO
100
AcDbPolyline
 62
253
  6
CONTINUOUS
 90
24
 70
0
 10
158.8534232495
 20
120.7368214294
 10
158.863120711
 20
120.7415096602
 10
158.8727271592
 20
120.746481802
 10
158.8822379365
 20
120.7517235237
 10
158.891630372
 20
120.7572040196
 10
158.9008531508
 20
120.7629073246
 10
158.9098373912
 20
120.7688336011
 10
158.9185210264
 20
120.7749638649
 10
158.9268875347
 20
120.7812809385
 10
158.9349303768
 20
120.7877855074
 10
158.9425972648
 20
120.794480346
 10
158.9498628341
 20
120.8013367068
 10
158.9567514404
 20
120.8083072404
 10
158.9631885736
 20
120.8154023992
 10
158.9691493943
 20
120.8225898123
 10
158.9747250757
 20
120.8297660915
 10
158.9798582152
 20
120.8369214409
 10
158.9845131282
 20
120.8440699381
 10
158.9888279315
 20
120.8511592629
 10
158.9928050003
 20
120.8582242055
 10
158.9964422853
 20
120.8652644998
 10
158.9998635104
 20
120.8721827325
 10
159.0030534414
 20
120.878980736
 10
159.0088953951
 20
120.8922740955
  0
LWPOLYLINE
  5
382
100
AcDbEntity
  8
RACCORDO
100
AcDbPolyline
 62
253
  6
CONTINUOUS
 90
10
 70
0
 10
158.0740475951
 20
119.7024070323
 10
158.0910451317
 20
119.7105789091
 10
158.1080182259
 20
119.7191904102
 10
158.1249668778
 20
119.7282415355
 10
158.1420299092
 20
119.7378703149
 10
158.1590684982
 20
119.7479387185
 10
158.1756661795
 20
119.758032657
 10
158.1918389979
 20
119.7681905694
 10
158.2075709086
 20
119.7783740168
 10
158.2361288466
 20
119.7970816736
  0
LINE
  5
383
100
AcDbEntity
  8
RACCORDO
100
AcDbLine
 62
253
  6
CONTINUOUS
 10
158.052105938
 20
120.6120602366
 11
158.7592127192
 21
120.9504970976
  0
LINE
  5
384
100
AcDbEntity
  8
RACCORDO
100
AcDbLine
 62
253
  6
CONTINUOUS
 10
158.1428116787
 20
120.401665778
 11
158.8534230436
 21
120.7368205318
  0
LINE
  5
385
100
AcDbEntity
  8
RACCORDO
100
AcDbLine
 62
253
  6
CONTINUOUS
 10
159.0173896244
 20
120.9114940916
 11
159.6429346356
 21
121.2003924891
  0
LINE
  5
386
100
AcDbEntity
  8
RACCORDO
100
AcDbLine
 62
253
  6
CONTINUOUS
 10
159.3585479442
 20
120.295627888
 11
159.9966495863
 21
120.5903244419
  0
LINE
  5
387
100
AcDbEntity
  8
RACCORDO
100
AcDbLine
 62
253
  6
CONTINUOUS
 10
157.8383014584
 20
119.5935277513
 11
158.0740475951
 21
119.7024070323
  0
LINE
  5
388
100
AcDbEntity
  8
RACCORDO
100
AcDbLine
 62
253
  6
CONTINUOUS
 10
157.4845865077
 20
120.2035957984
 11
157.7329512761
 21
120.3182614033
  0
LWPOLYLINE
  5
389
100
AcDbEntity
  8
RACCORDO
100
AcDbPolyline
 62
253
  6
CONTINUOUS
 90
4
 70
0
 10
158.3634233166
 20
119.8726538543
 10
158.4433214742
 20
119.9089447927
 10
158.5232276711
 20
119.9452449395
 10
159.0826465776
 20
120.1995353634
  0
LWPOLYLINE
  5
38A
100
AcDbEntity
  8
RACCORDO
100
AcDbPolyline
 62
253
  6
CONTINUOUS
 90
14
 70
0
 10
159.0826465776
 20
120.1995353634
 10
159.0885736522
 20
120.2021986937
 10
159.0946818595
 20
120.2048422216
 10
159.1009711993
 20
120.2074659469
 10
159.1074187924
 20
120.2100653332
 10
159.1140475182
 20
120.212644917
 10
159.1209260143
 20
120.215218308
 10
159.1280573755
 20
120.2177836061
 10
159.1354385071
 20
120.2203427112
 10
159.1431287625
 20
120.2229149334
 10
159.151122655
 20
120.2254939827
 10
159.1594256712
 20
120.228086149
 10
159.1681136244
 20
120.230729612
 10
159.1771785233
 20
120.233410541
  0
LWPOLYLINE
  5
38B
100
AcDbEntity
  8
RACCORDO
100
AcDbPolyline
 62
253
  6
CONTINUOUS
 90
13
 70
0
 10
158.052105938
 20
120.9207661348
 10
158.0275196
 20
120.9099853149
 10
158.0003292427
 20
120.9009013069
 10
157.9710001008
 20
120.8936695408
 10
157.940034004
 20
120.8884137541
 10
157.9079607908
 20
120.8852238747
 10
157.8753292427
 20
120.8841544824
 10
157.8426976947
 20
120.8852238747
 10
157.8106244815
 20
120.8884137541
 10
157.7796583846
 20
120.8936695408
 10
157.7503292427
 20
120.9009013069
 10
157.7231388855
 20
120.9099853149
 10
157.6985525474
 20
120.9207661348
  0
LINE
  5
38C
100
AcDbEntity
  8
RACCORDO
100
AcDbLine
 62
253
  6
CONTINUOUS
 10
153.2851490048
 20
118.0051165723
 11
157.3336407871
 21
119.490392886
  0
LINE
  5
38D
100
AcDbEntity
  8
ASSI
100
AcDbLine
 62
253
  6
CONTINUOUS
 10
153.2851490048
 20
118.0051165723
 11
157.3336407871
 21
119.490392886
  0
LINE
  5
38E
100
AcDbEntity
  8
RACCORDO
100
AcDbLine
 62
253
  6
CONTINUOUS
 10
153.7867206182
 20
117.0020411783
 11
157.8352124006
 21
118.487317492
  0
LINE
  5
38F
100
AcDbEntity
  8
ASSI
100
AcDbLine
 62
253
  6
CONTINUOUS
 10
153.7867206182
 20
117.0020411783
 11
157.8352124006
 21
118.487317492
  0
LWPOLYLINE
  5
390
100
AcDbEntity
  8
RACCORDO
100
AcDbPolyline
 62
253
  6
CONTINUOUS
 90
13
 70
0
 10
157.8753292427
 20
80.6577736477
 10
157.8622798991
 20
80.6772349861
 10
157.8464291352
 20
80.6978756847
 10
157.8280481618
 20
80.7193425755
 10
157.8074514825
 20
80.741268354
 10
157.7849915123
 20
80.7632778641
 10
157.7610525474
 20
80.7849945168
 10
157.7360441902
 20
80.8060467344
 10
157.7103943406
 20
80.8260743075
 10
157.6845418746
 20
80.8447345588
 10
157.6589291352
 20
80.8617082062
 10
157.6339943633
 20
80.8767048259
 10
157.6101641998
 20
80.8894678215
  0
LWPOLYLINE
  5
391
100
AcDbEntity
  8
RACCORDO
100
AcDbPolyline
 62
253
  6
CONTINUOUS
 90
13
 70
0
 10
157.3449991568
 20
80.0176086048
 10
157.3320542224
 20
80.0369249936
 10
157.3163081015
 20
80.0574533219
 10
157.2980098316
 20
80.0788525051
 10
157.2774389203
 20
80.1007791107
 10
157.2549466149
 20
80.1228439336
 10
157.2309632434
 20
80.144619008
 10
157.2059197742
 20
80.1657148588
 10
157.1802291761
 20
80.1857853469
 10
157.1543335218
 20
80.2044852124
 10
157.1286776938
 20
80.2214934148
 10
157.1037016988
 20
80.2365184788
 10
157.0798341139
 20
80.2493027786
  0
LWPOLYLINE
  5
392
100
AcDbEntity
  8
26814000
100
AcDbPolyline
 62
7
  6
CONTINUOUS
 90
24
 70
0
 10
141.1522538677
 20
136.5902819419
 10
141.1516806832
 20
136.6247543481
 10
141.1499815702
 20
136.658504269
 10
141.1471565287
 20
136.6915317048
 10
141.1431960941
 20
136.7238932622
 10
141.138109731
 20
136.7555323344
 10
141.1319258326
 20
136.7862791009
 10
141.1246432172
 20
136.8161146284
 10
141.1162630665
 20
136.8450578501
 10
141.1068173193
 20
136.8729957461
 10
141.0962934608
 20
136.8999419089
 10
141.0847040057
 20
136.9258827458
 10
141.072118437
 20
136.9506644587
 10
141.0585432511
 20
136.9742617601
 10
141.0439719516
 20
136.9966999374
 10
141.0284545316
 20
137.0179010547
 10
141.0119712442
 20
137.0378781446
 10
140.9945418363
 20
137.0566181744
 10
140.9762755417
 20
137.07400411
 10
140.9571868858
 20
137.0900130363
 10
140.9372613431
 20
137.1046678684
 10
140.9165645706
 20
137.1179203168
 10
140.895072056
 20
137.1297761781
 10
137.6658707898
 20
138.7444006884
  0
LINE
  5
393
100
AcDbEntity
  8
26814000
100
AcDbLine
 62
7
  6
CONTINUOUS
 10
140.3098964706
 20
129.1029246144
 11
140.3098964706
 21
129.5552555901
  0
LINE
  5
394
100
AcDbEntity
  8
26814000
100
AcDbLine
 62
7
  6
CONTINUOUS
 10
141.1522538677
 20
136.5902819419
 11
141.1522538677
 21
136.3194816493
  0
LINE
  5
395
100
AcDbEntity
  8
26814000
100
AcDbLine
 62
7
  6
CONTINUOUS
 10
141.2126799785
 20
129.4599670318
 11
141.2126799785
 21
129.206595638
  0
LINE
  5
396
100
AcDbEntity
  8
26814000
100
AcDbLine
 62
7
  6
CONTINUOUS
 10
141.6118732754
 20
127.4341513084
 11
141.6118732754
 21
127.4097558031
  0
LINE
  5
397
100
AcDbEntity
  8
26814000
100
AcDbLine
 62
7
  6
CONTINUOUS
 10
141.9239005866
 20
128.2959225564
 11
141.9239005866
 21
128.9330921152
  0
LINE
  5
398
100
AcDbEntity
  8
RACCORDO
100
AcDbLine
 62
7
  6
CONTINUOUS
 10
142.1438758066
 20
127.4407405772
 11
142.1438758066
 21
127.4148709393
  0
LWPOLYLINE
  5
399
100
AcDbEntity
  8
RACCORDO
100
AcDbPolyline
 62
253
  6
CONTINUOUS
 90
6
 70
0
 10
145.4280671836
 20
128.1561290128
 10
145.4162433912
 20
128.1152830473
 10
145.4069883931
 20
128.07481115
 10
145.4003883193
 20
128.034992901
 10
145.3963570398
 20
127.9955487202
 10
145.3948945548
 20
127.9564786076
  0
LWPOLYLINE
  5
39A
100
AcDbEntity
  8
21814000
100
AcDbPolyline
 62
7
  6
CONTINUOUS
 90
66
 70
0
 10
159.2017039726
 20
127.3134736172
 10
159.2476522514
 20
127.3559978872
 10
159.2921944591
 20
127.397793898
 10
159.3353363484
 20
127.4388616953
 10
159.3770721667
 20
127.4792012334
 10
159.4174672424
 20
127.5188948036
 10
159.4565290634
 20
127.557941927
 10
159.4942501418
 20
127.5963430826
 10
159.5306733428
 20
127.6341819987
 10
159.5658093676
 20
127.6714575925
 10
159.5996475149
 20
127.7081709467
 10
159.6321985452
 20
127.7444090388
 10
159.6634806236
 20
127.780172069
 10
159.693475585
 20
127.815459837
 10
159.722139695
 20
127.8503587187
 10
159.7495037056
 20
127.8848712996
 10
159.7755368649
 20
127.9189949942
 10
159.8001031821
 20
127.9528084219
 10
159.8232716349
 20
127.9863567875
 10
159.8449732456
 20
128.0195948861
 10
159.8648650902
 20
128.0524657225
 10
159.8830233139
 20
128.0850863629
 10
159.8993717716
 20
128.1173397411
 10
159.9133391032
 20
128.1488176627
 10
159.9248785497
 20
128.1795335204
 10
159.9340368702
 20
128.2094739214
 10
159.9403829822
 20
128.238190494
 10
159.9438076379
 20
128.2656428703
 10
159.9444200851
 20
128.2918714182
 10
159.9421169854
 20
128.3165488687
 10
159.936732859
 20
128.3396374869
 10
159.9284331858
 20
128.3611750077
 10
159.9176110671
 20
128.3809473671
 10
159.9041902904
 20
128.3988255732
 10
159.8882470683
 20
128.4149386179
 10
159.87040314
 20
128.4294594125
 10
159.8507386669
 20
128.4423374738
 10
159.8291734876
 20
128.453623285
 10
159.806088858
 20
128.4636412074
 10
159.7815590799
 20
128.4724196679
 10
159.7555098513
 20
128.4799302395
 10
159.7280995226
 20
128.4864120033
 10
159.6993634176
 20
128.4918965759
 10
159.6692662124
 20
128.4963523407
 10
159.6378602857
 20
128.499923528
 10
159.6051650188
 20
128.5026305193
 10
159.5711610304
 20
128.5044529332
 10
159.5358425558
 20
128.5054738553
 10
159.4992218146
 20
128.505706448
 10
159.4612865872
 20
128.5051375489
 10
159.4219944496
 20
128.5038107566
 10
159.3813509537
 20
128.5017346593
 10
159.3393505477
 20
128.4989006689
 10
159.2959341521
 20
128.4953266199
 10
159.2511059045
 20
128.491018231
 10
159.2048616673
 20
128.4859697835
 10
159.1571299476
 20
128.4801819557
 10
159.107921355
 20
128.4736601617
 10
159.0572252799
 20
128.4663989874
 10
159.004938401
 20
128.458382869
 10
158.9510676119
 20
128.4496168496
 10
158.8956060191
 20
128.4400958861
 10
158.8384296197
 20
128.4297892846
 10
158.7794970796
 20
128.418686814
 10
158.718849733
 20
128.4067987054
 10
158.65648758
 20
128.3941249589
  0
LINE
  5
39B
100
AcDbEntity
  8
21814000
100
AcDbLine
 62
7
  6
CONTINUOUS
 10
159.1884626194
 20
127.3013772734
 11
159.2017039726
 21
127.3134736172
  0
LINE
  5
39C
100
AcDbEntity
  8
RACCORDO
100
AcDbLine
 62
253
  6
CONTINUOUS
 10
126.9599676293
 20
96.7759354264
 11
126.9019139573
 21
96.7286812322
  0
LWPOLYLINE
  5
39D
100
AcDbEntity
  8
ASSI
100
AcDbPolyline
 62
253
  6
CONTINUOUS
 90
11
 70
0
 10
126.9599676293
 20
96.7759354264
 10
126.9019139573
 20
96.7286812322
 10
126.8391845518
 20
96.6903148109
 10
126.7718752412
 20
96.6606356385
 10
126.7014984819
 20
96.6402963522
 10
126.6279408692
 20
96.6295213437
 10
126.5513089261
 20
96.6280833441
 10
126.4734447159
 20
96.6359573789
 10
126.3949608233
 20
96.6531345214
 10
126.3152406906
 20
96.6796220335
 10
126.2342833287
 20
96.7154195006
  0
LWPOLYLINE
  5
39E
100
AcDbEntity
  8
RACCORDO
100
AcDbPolyline
 62
253
  6
CONTINUOUS
 90
14
 70
0
 10
158.2361288466
 20
119.7970816736
 10
158.2609788738
 20
119.8135396889
 10
158.272148009
 20
119.8208147812
 10
158.2825151169
 20
119.8274994699
 10
158.2923421891
 20
119.8337121524
 10
158.3016588931
 20
119.8394560148
 10
158.3104355614
 20
119.8447278711
 10
158.3188451842
 20
119.84963656
 10
158.326890522
 20
119.8541822875
 10
158.3345688143
 20
119.8583648477
 10
158.3420447691
 20
119.8622924622
 10
158.3493732891
 20
119.8660012052
 10
158.3564994716
 20
119.8694550025
 10
158.3634233166
 20
119.8726538543
  0
LINE
  5
39F
100
AcDbEntity
  8
DRAFT
100
AcDbLine
 62
7
  6
CONTINUOUS
 10
156.5432925817
 20
99.9722484512
 11
156.2044098885
 21
100.1416897978
  0
LWPOLYLINE
  5
3A0
100
AcDbEntity
  8
RACCORDO
100
AcDbPolyline
 62
7
  6
CONTINUOUS
 90
6
 70
0
 10
159.5033687992
 20
81.2961886866
 10
159.4836370445
 20
81.3242243153
 10
159.4602968814
 20
81.3492579057
 10
159.4337587204
 20
81.3708668597
 10
159.404465089
 20
81.3886765784
 10
159.4010276653
 20
81.3904224364
  0
LINE
  5
3A1
100
AcDbEntity
  8
RACCORDO
100
AcDbLine
 62
7
  6
CONTINUOUS
 10
142.2122436763
 20
128.7292174286
 11
142.2104014168
 21
128.7595338634
  0
LWPOLYLINE
  5
3A2
100
AcDbEntity
  8
RACCORDO
100
AcDbPolyline
 62
253
  6
CONTINUOUS
 90
8
 70
0
 10
142.9175081948
 20
128.0591595154
 10
142.9178635675
 20
128.0527577949
 10
142.9205891608
 20
128.0402990698
 10
142.9259859304
 20
128.0279699451
 10
142.9340040861
 20
128.0159168037
 10
142.9445899244
 20
128.0042404522
 10
142.9576615974
 20
127.9930651727
 10
142.9730918906
 20
127.9825342765
  0
LWPOLYLINE
  5
3A3
100
AcDbEntity
  8
RACCORDO
100
AcDbPolyline
 62
253
  6
CONTINUOUS
 90
9
 70
0
 10
142.2836247176
 20
128.6711232685
 10
142.284832244
 20
128.6464644033
 10
142.2884383341
 20
128.6233499081
 10
142.2943937345
 20
128.6020955732
 10
142.3026329072
 20
128.5829613615
 10
142.3130347977
 20
128.5662472854
 10
142.3253889094
 20
128.5522468733
 10
142.3394727597
 20
128.5411251845
 10
142.3486892469
 20
128.535859264
  0
LWPOLYLINE
  5
3A4
100
AcDbEntity
  8
RACCORDO
100
AcDbPolyline
 62
253
  6
CONTINUOUS
 90
9
 70
0
 10
143.6271276018
 20
127.9993718264
 10
143.6282865671
 20
127.9752001602
 10
143.6317721792
 20
127.9523909615
 10
143.6375738685
 20
127.9312718202
 10
143.6456644372
 20
127.9121248562
 10
143.6559597521
 20
127.8952821321
 10
143.668283084
 20
127.8810779367
 10
143.6824400202
 20
127.8697237313
 10
143.6921009272
 20
127.8641533618
  0
LINE
  5
3A5
100
AcDbEntity
  8
RACCORDO
100
AcDbLine
 62
7
  6
CONTINUOUS
 10
142.2104014129
 20
128.7595116162
 11
142.2104014129
 21
129.1108255882
  0
LINE
  5
3A6
100
AcDbEntity
  8
RACCORDO
100
AcDbLine
 62
253
  6
CONTINUOUS
 10
142.2836247176
 20
128.6711232685
 11
142.2836247176
 21
129.0224372406
  0
LINE
  5
3A7
100
AcDbEntity
  8
26814000
100
AcDbLine
 62
7
  6
CONTINUOUS
 10
142.4250460738
 20
127.2742858057
 11
142.4250460738
 21
126.9446902427
  0
LINE
  5
3A8
100
AcDbEntity
  8
DRAFT
100
AcDbLine
 62
7
  6
CONTINUOUS
 10
142.5954725278
 20
126.8594770157
 11
142.5954725278
 21
127.1890725787
  0
LINE
  5
3A9
100
AcDbEntity
  8
RACCORDO
100
AcDbLine
 62
7
  6
CONTINUOUS
 10
142.917508194
 20
128.0591114041
 11
142.917508194
 21
128.2514497284
  0
LINE
  5
3AA
100
AcDbEntity
  8
RACCORDO
100
AcDbLine
 62
253
  6
CONTINUOUS
 10
142.9907314988
 20
127.9727731993
 11
142.9907314988
 21
128.214838076
  0
LINE
  5
3AB
100
AcDbEntity
  8
26814000
100
AcDbLine
 62
7
  6
CONTINUOUS
 10
142.9907314988
 20
129.6554991284
 11
142.9907314988
 21
130.5665546135
  0
LINE
  5
3AC
100
AcDbEntity
  8
RACCORDO
100
AcDbLine
 62
253
  6
CONTINUOUS
 10
143.6271276018
 20
128.3506857985
 11
143.6271276018
 21
127.9993718264
  0
LINE
  5
3AD
100
AcDbEntity
  8
26814000
100
AcDbLine
 62
7
  6
CONTINUOUS
 10
143.693724453
 20
130.7018761113
 11
143.693724453
 21
130.4409471349
  0
LINE
  5
3AE
100
AcDbEntity
  8
RACCORDO
100
AcDbLine
 62
253
  6
CONTINUOUS
 10
143.9806809924
 20
128.3506857985
 11
143.9806809924
 21
127.9993718264
  0
LINE
  5
3AF
100
AcDbEntity
  8
26814000
100
AcDbLine
 62
253
  6
CONTINUOUS
 10
144.0209421506
 20
134.9389860033
 11
144.0209421506
 21
133.7071474249
  0
LINE
  5
3B0
100
AcDbEntity
  8
26814000
100
AcDbLine
 62
7
  6
CONTINUOUS
 10
144.107579579
 20
135.0433733786
 11
144.107579579
 21
133.8110048869
  0
LINE
  5
3B1
100
AcDbEntity
  8
RACCORDO
100
AcDbLine
 62
253
  6
CONTINUOUS
 10
144.334234383
 20
127.602925217
 11
144.334234383
 21
127.3010217572
  0
LINE
  5
3B2
100
AcDbEntity
  8
RACCORDO
100
AcDbLine
 62
253
  6
CONTINUOUS
 10
144.6877877736
 20
127.602925217
 11
144.6877877736
 21
127.2942193189
  0
LWPOLYLINE
  5
3B3
100
AcDbEntity
  8
RACCORDO
100
AcDbPolyline
 62
7
  6
CONTINUOUS
 90
6
 70
0
 10
142.9175126083
 20
128.0593429465
 10
142.9173031332
 20
128.0529877151
 10
142.9156346591
 20
128.0407331139
 10
142.9127907455
 20
128.0303382619
 10
142.9094768155
 20
128.022288413
 10
142.9071224132
 20
128.0179078188
  0
LINE
  5
3B4
100
AcDbEntity
  8
RACCORDO
100
AcDbLine
 62
253
  6
CONTINUOUS
 10
145.4678006157
 20
127.7101892099
 11
145.4681178587
 21
127.7162441207
  0
LWPOLYLINE
  5
3B5
100
AcDbEntity
  8
RACCORDO
100
AcDbPolyline
 62
253
  6
CONTINUOUS
 90
7
 70
0
 10
146.1752246407
 20
129.4997343179
 10
146.173085856
 20
129.4834185439
 10
146.1667060972
 20
129.4673819372
 10
146.1561945238
 20
129.4518988888
 10
146.1417309916
 20
129.4372343179
 10
146.1235629757
 20
129.4236391393
 10
146.102001336
 20
129.4113459702
  0
LWPOLYLINE
  5
3B6
100
AcDbEntity
  8
RACCORDO
100
AcDbPolyline
 62
253
  6
CONTINUOUS
 90
7
 70
0
 10
146.1752246397
 20
129.1484092416
 10
146.1730331575
 20
129.131905663
 10
146.1665810038
 20
129.1158354338
 10
146.1560069796
 20
129.1003591556
 10
146.1415312567
 20
129.0857476885
 10
146.1234192534
 20
129.0722316073
 10
146.102001336
 20
129.0600319982
  0
LWPOLYLINE
  5
3B7
100
AcDbEntity
  8
RACCORDO
100
AcDbPolyline
 62
253
  6
CONTINUOUS
 90
7
 70
0
 10
126.9019139573
 20
96.7286812322
 10
126.8391845518
 20
96.6903148109
 10
126.7718752412
 20
96.6606356385
 10
126.7014984819
 20
96.6402963522
 10
126.6279408692
 20
96.6295213437
 10
126.5513089261
 20
96.6280833441
 10
126.4734447159
 20
96.6359573789
  0
LINE
  5
3B8
100
AcDbEntity
  8
ASSI
100
AcDbLine
 62
253
  6
CONTINUOUS
 10
125.8663006363
 20
98.99061762
 11
125.9219891037
 21
99.0156387804
  0
LINE
  5
3B9
100
AcDbEntity
  8
RACCORDO
100
AcDbLine
 62
253
  6
CONTINUOUS
 10
125.8663006363
 20
98.99061762
 11
125.9292052626
 21
99.0183026462
  0
LWPOLYLINE
  5
3BA
100
AcDbEntity
  8
RACCORDO
100
AcDbPolyline
 62
253
  6
CONTINUOUS
 90
13
 70
0
 10
144.6877877736
 20
127.602925217
 10
144.6863158008
 20
127.6406040186
 10
144.6822707801
 20
127.6760726738
 10
144.6756527115
 20
127.7093311827
 10
144.6663707879
 20
127.7405731396
 10
144.6545158164
 20
127.7696049501
 10
144.6403602182
 20
127.7958458306
 10
144.6238706239
 20
127.8192497105
 10
144.6050804028
 20
127.8398626604
 10
144.5843620848
 20
127.8572421084
 10
144.5618398463
 20
127.8712405305
 10
144.5373895108
 20
127.8820054509
 10
144.5110110783
 20
127.8895368693
  0
LINE
  5
3BB
100
AcDbEntity
  8
RACCORDO
100
AcDbLine
 62
7
  6
CONTINUOUS
 10
145.4682510253
 20
127.7111700218
 11
145.4681133336
 21
127.7163303386
  0
LINE
  5
3BC
100
AcDbEntity
  8
RACCORDO
100
AcDbLine
 62
253
  6
CONTINUOUS
 10
145.3948945548
 20
127.6326561798
 11
145.3948945548
 21
127.9564786076
  0
LINE
  5
3BD
100
AcDbEntity
  8
RACCORDO
100
AcDbLine
 62
7
  6
CONTINUOUS
 10
145.4681178587
 20
127.7162441207
 11
145.4681178595
 21
128.0448669552
  0
LINE
  5
3BE
100
AcDbEntity
  8
RACCORDO
100
AcDbLine
 62
253
  6
CONTINUOUS
 10
146.102001336
 20
129.4113459702
 11
146.102001336
 21
129.0600319982
  0
LINE
  5
3BF
100
AcDbEntity
  8
RACCORDO
100
AcDbLine
 62
7
  6
CONTINUOUS
 10
146.1752246407
 20
129.4997343179
 11
146.1752246407
 21
129.1484203458
  0
LWPOLYLINE
  5
3C0
100
AcDbEntity
  8
RACCORDO
100
AcDbPolyline
 62
7
  6
CONTINUOUS
 90
13
 70
0
 10
145.4681178595
 20
128.0448669552
 10
145.4687958766
 20
128.0649655435
 10
145.4709812075
 20
128.0873125029
 10
145.4748684965
 20
128.1116362441
 10
145.480622903
 20
128.1376837306
 10
145.4883279182
 20
128.1650050161
 10
145.4979411381
 20
128.1929760258
 10
145.5094180344
 20
128.2211960508
 10
145.5226482881
 20
128.2492191072
 10
145.5373346781
 20
128.2763725263
 10
145.5531879962
 20
128.3021956989
 10
145.5699802568
 20
128.3264279401
 10
145.5874135929
 20
128.3487673097
  0
LINE
  5
3C1
100
AcDbEntity
  8
RACCORDO
100
AcDbLine
 62
253
  6
CONTINUOUS
 10
158.9359894145
 20
121.737707873
 11
159.4663195004
 21
122.3778729159
  0
LINE
  5
3C2
100
AcDbEntity
  8
RACCORDO
100
AcDbLine
 62
7
  6
CONTINUOUS
 10
158.9517317573
 20
121.6666082275
 11
159.4820618432
 21
122.3067732704
  0
LINE
  5
3C3
100
AcDbEntity
  8
RACCORDO
100
AcDbLine
 62
7
  6
CONTINUOUS
 10
159.9966495863
 20
118.9079865313
 11
164.1095773142
 21
122.8211554875
  0
LINE
  5
3C4
100
AcDbEntity
  8
RACCORDO
100
AcDbLine
 62
253
  6
CONTINUOUS
 10
159.9966495863
 20
119.0932714806
 11
164.195259669
 21
123.0696002181
  0
LWPOLYLINE
  5
3C5
100
AcDbEntity
  8
RACCORDO
100
AcDbPolyline
 62
7
  6
CONTINUOUS
 90
3
 70
0
 10
126.8748003506
 20
96.8145059441
 10
126.8177090488
 20
96.7875701277
 10
126.8075889475
 20
96.7837940755
  0
LINE
  5
3C6
100
AcDbEntity
  8
ASSI
100
AcDbLine
 62
7
  6
CONTINUOUS
 10
126.8741866807
 20
96.8141361107
 11
126.7904641294
 21
96.7779843014
  0
LINE
  5
3C7
100
AcDbEntity
  8
ASSI
100
AcDbLine
 62
253
  6
CONTINUOUS
 10
125.9219891037
 20
99.0156387804
 11
125.9292052626
 21
99.0183026462
  0
LINE
  5
3C8
100
AcDbEntity
  8
DRAFT
100
AcDbLine
 62
7
  6
CONTINUOUS
 10
125.9276053303
 20
98.798661332
 11
126.3887905566
 21
98.9685620962
  0
LINE
  5
3C9
100
AcDbEntity
  8
RACCORDO
100
AcDbLine
 62
7
  6
CONTINUOUS
 10
125.9292052626
 20
99.0183026462
 11
125.9294529098
 21
99.01839184
  0
LINE
  5
3CA
100
AcDbEntity
  8
ASSI
100
AcDbLine
 62
7
  6
CONTINUOUS
 10
125.9219735435
 20
99.0156065702
 11
125.9417829313
 21
99.0226065332
  0
LWPOLYLINE
  5
3CB
100
AcDbEntity
  8
RACCORDO
100
AcDbPolyline
 62
7
  6
CONTINUOUS
 90
3
 70
0
 10
125.9294690408
 20
99.0183708963
 10
125.9724262665
 20
99.0314451428
 10
126.027290234
 20
99.0417268009
  0
LWPOLYLINE
  5
3CC
100
AcDbEntity
  8
ASSI
100
AcDbPolyline
 62
253
  6
CONTINUOUS
 90
4
 70
0
 10
125.8242040366
 20
99.083156001
 10
125.8948938635
 20
99.103620764
 10
125.9687392105
 20
99.1145095693
 10
126.0456270925
 20
99.1160472404
  0
LWPOLYLINE
  5
3CD
100
AcDbEntity
  8
RACCORDO
100
AcDbPolyline
 62
253
  6
CONTINUOUS
 90
5
 70
0
 10
159.4673723523
 20
81.2964411479
 10
159.4545686854
 20
81.3229551015
 10
159.4389324335
 20
81.3467846683
 10
159.4207326164
 20
81.3675208761
 10
159.4002817628
 20
81.3848085108
  0
LWPOLYLINE
  5
3CE
100
AcDbEntity
  8
RACCORDO
100
AcDbPolyline
 62
7
  6
CONTINUOUS
 90
8
 70
0
 10
158.8425086696
 20
81.5016451651
 10
158.842495807
 20
81.501672229
 10
158.841731864
 20
81.5031896811
 10
158.8400855522
 20
81.5072296448
 10
158.8380218282
 20
81.5137810995
 10
158.8359391987
 20
81.5227184136
 10
158.8341432733
 20
81.5339747028
 10
158.832896688
 20
81.5474922154
  0
LWPOLYLINE
  5
3CF
100
AcDbEntity
  8
RACCORDO
100
AcDbPolyline
 62
7
  6
CONTINUOUS
 90
4
 70
0
 10
155.5948278206
 20
80.3282011277
 10
155.5838675452
 20
80.359424796
 10
155.5771096174
 20
80.3919480805
 10
155.5747197356
 20
80.4262937299
  0
LWPOLYLINE
  5
3D0
100
AcDbEntity
  8
RACCORDO
100
AcDbPolyline
 62
253
  6
CONTINUOUS
 90
7
 70
0
 10
142.2104014129
 20
128.7595116153
 10
142.2125057483
 20
128.7433272138
 10
142.2188659497
 20
128.727260182
 10
142.2293725003
 20
128.7117475042
 10
142.243844312
 20
128.6970555875
 10
142.2620325949
 20
128.6834363047
 10
142.2836247176
 20
128.6711232685
  0
LWPOLYLINE
  5
3D1
100
AcDbEntity
  8
RACCORDO
100
AcDbPolyline
 62
253
  6
CONTINUOUS
 90
7
 70
0
 10
142.2104014129
 20
129.110825576
 10
142.2124388822
 20
129.0948993253
 10
142.2187647439
 20
129.07876424
 10
142.2292668938
 20
129.063189378
 10
142.243757433
 20
129.0484449302
 10
142.2619828603
 20
129.0347827089
 10
142.2836247176
 20
129.0224372406
  0
LWPOLYLINE
  5
3D2
100
AcDbEntity
  8
RACCORDO
100
AcDbPolyline
 62
7
  6
CONTINUOUS
 90
10
 70
0
 10
146.1752246407
 20
129.4997343179
 10
146.1731636729
 20
129.5317649568
 10
146.1669285569
 20
129.563601681
 10
146.156526341
 20
129.5946001359
 10
146.1420649998
 20
129.6241539449
 10
146.1238002638
 20
129.6516149178
 10
146.1021124296
 20
129.6763998497
 10
146.0772362469
 20
129.6982096176
 10
146.0496975302
 20
129.7165441395
 10
146.0370440914
 20
129.7233330878
  0
LWPOLYLINE
  5
3D3
100
AcDbEntity
  8
RACCORDO
100
AcDbPolyline
 62
7
  6
CONTINUOUS
 90
13
 70
0
 10
147.7920019364
 20
127.0427552416
 10
147.7929987441
 20
127.0270826924
 10
147.7961441312
 20
127.0106915499
 10
147.8013996994
 20
126.9945079099
 10
147.8087926779
 20
126.97853445
 10
147.8182958375
 20
126.9627684928
 10
147.8297870785
 20
126.9474126047
 10
147.8432920541
 20
126.9324720773
 10
147.8587851109
 20
126.917941619
 10
147.8760671887
 20
126.9040079225
 10
147.895071934
 20
126.8907332185
 10
147.9158657003
 20
126.8780552763
 10
147.9384484875
 20
126.8659740957
  0
LWPOLYLINE
  5
3D4
100
AcDbEntity
  8
26814000
100
AcDbPolyline
 62
7
  6
CONTINUOUS
 90
7
 70
0
 10
148.863139112
 20
132.9769630697
 10
148.8630475039
 20
132.981270871
 10
148.8629083332
 20
132.9855822016
 10
148.8627215998
 20
132.9898970616
 10
148.8624873037
 20
132.994215451
 10
148.8622054449
 20
132.9985373697
 10
148.8618760234
 20
133.0028628178
  0
LINE
  5
3D5
100
AcDbEntity
  8
26814000
100
AcDbLine
 62
7
  6
CONTINUOUS
 10
148.863139112
 20
132.9769630697
 11
148.8631855827
 21
132.9708257317
  0
LINE
  5
3D6
100
AcDbEntity
  8
RACCORDO
100
AcDbLine
 62
7
  6
CONTINUOUS
 10
147.7920018781
 20
125.8432163834
 11
147.7920018781
 21
127.042750791
  0
LINE
  5
3D7
100
AcDbEntity
  8
RACCORDO
100
AcDbLine
 62
253
  6
CONTINUOUS
 10
147.9384484875
 20
125.6686550601
 11
147.9384484875
 21
126.8659740957
  0
LINE
  5
3D8
100
AcDbEntity
  8
26814000
100
AcDbLine
 62
253
  6
CONTINUOUS
 10
148.7789875444
 20
132.6831492259
 11
148.7789875444
 21
132.4708900718
  0
LINE
  5
3D9
100
AcDbEntity
  8
26814000
100
AcDbLine
 62
7
  6
CONTINUOUS
 10
148.8631856043
 20
132.9707701041
 11
148.8631856043
 21
132.3948069146
  0
LINE
  5
3DA
100
AcDbEntity
  8
21814000
100
AcDbLine
 62
253
  6
CONTINUOUS
 10
149.2670867644
 20
134.3226732494
 11
149.2670867644
 21
134.0013489672
  0
LWPOLYLINE
  5
3DB
100
AcDbEntity
  8
26814000
100
AcDbPolyline
 62
7
  6
CONTINUOUS
 90
16
 70
0
 10
148.8631855827
 20
132.9708257317
 10
148.862951077
 20
132.9573114234
 10
148.861810301
 20
132.9375462322
 10
148.8597659694
 20
132.9176925816
 10
148.8568748043
 20
132.8977567977
 10
148.8531860402
 20
132.8777745613
 10
148.8487260762
 20
132.8578127397
 10
148.843533218
 20
132.8378920221
 10
148.8376505608
 20
132.8180242707
 10
148.8310900266
 20
132.7982640445
 10
148.8238831234
 20
132.7786269779
 10
148.8160659777
 20
132.7591250133
 10
148.8076420383
 20
132.7398094144
 10
148.7986291469
 20
132.7207066879
 10
148.7890673016
 20
132.7018161941
 10
148.7789875444
 20
132.6831492259
  0
LWPOLYLINE
  5
3DC
100
AcDbEntity
  8
RACCORDO
100
AcDbPolyline
 62
253
  6
CONTINUOUS
 90
5
 70
0
 10
158.9095620438
 20
121.7037255307
 10
158.8850742967
 20
121.668445682
 10
158.8625261733
 20
121.631868327
 10
158.8417940799
 20
121.5937158542
 10
158.8230016102
 20
121.5542658751
  0
LINE
  5
3DD
100
AcDbEntity
  8
RACCORDO
100
AcDbLine
 62
253
  6
CONTINUOUS
 10
158.9359894145
 20
121.737707873
 11
158.9095620438
 21
121.7037255307
  0
LWPOLYLINE
  5
3DE
100
AcDbEntity
  8
RACCORDO
100
AcDbPolyline
 62
253
  6
CONTINUOUS
 90
18
 70
0
 10
126.6016810937
 20
96.9286106057
 10
126.6234086176
 20
96.9369233765
 10
126.6584016987
 20
96.9532073939
 10
126.6920764723
 20
96.9725905523
 10
126.7243124572
 20
96.9950055163
 10
126.7549919059
 20
97.020369957
 10
126.7840058931
 20
97.0485904233
 10
126.811263052
 20
97.0795744584
 10
126.8366799245
 20
97.113227144
 10
126.8601842125
 20
97.1494602913
 10
126.8816776699
 20
97.1881306059
 10
126.9010559805
 20
97.2290383662
 10
126.9182461756
 20
97.2719892712
 10
126.9332211589
 20
97.3168704366
 10
126.9459574916
 20
97.3635920214
 10
126.9564171086
 20
97.4120207756
 10
126.9645582687
 20
97.4619712073
 10
126.9703538019
 20
97.5132750928
  0
LINE
  5
3DF
100
AcDbEntity
  8
RACCORDO
100
AcDbLine
 62
7
  6
CONTINUOUS
 10
126.8080406744
 20
96.7839299586
 11
126.8076085684
 21
96.78377443
  0
LINE
  5
3E0
100
AcDbEntity
  8
DRAFT
100
AcDbLine
 62
7
  6
CONTINUOUS
 10
126.6016801037
 20
96.9286102567
 11
127.1126743237
 21
97.1087641636
  0
LINE
  5
3E1
100
AcDbEntity
  8
ASSI
100
AcDbLine
 62
253
  6
CONTINUOUS
 10
126.8080406744
 20
96.7839299586
 11
126.7905520186
 21
96.7779908218
  0
LWPOLYLINE
  5
3E2
100
AcDbEntity
  8
RACCORDO
100
AcDbPolyline
 62
7
  6
CONTINUOUS
 90
40
 70
0
 10
126.6016801052
 20
96.9286102572
 10
126.5657994438
 20
96.9174696876
 10
126.5288735931
 20
96.9090076986
 10
126.4910165257
 20
96.9032977253
 10
126.4523333013
 20
96.9004017255
 10
126.4129592314
 20
96.9003733907
 10
126.3730545244
 20
96.9032487513
 10
126.3327617088
 20
96.9090457731
 10
126.2921777636
 20
96.9177782787
 10
126.2513852834
 20
96.9294623715
 10
126.2104220365
 20
96.9441338351
 10
126.1694805103
 20
96.9617718505
 10
126.1288660521
 20
96.9822655318
 10
126.088711485
 20
97.005546776
 10
126.0490986293
 20
97.0315696252
 10
126.0102451998
 20
97.060184829
 10
125.9722743657
 20
97.0912817372
 10
125.9352588143
 20
97.1247836412
 10
125.8993337969
 20
97.1605515703
 10
125.8645880918
 20
97.198478365
 10
125.8311152346
 20
97.2384458399
 10
125.799050429
 20
97.2802707833
 10
125.768488916
 20
97.3237985737
 10
125.7394903602
 20
97.3689158745
 10
125.712129199
 20
97.415483413
 10
125.6864781331
 20
97.4633551742
 10
125.6626000492
 20
97.5123936856
 10
125.6405519845
 20
97.5624666432
 10
125.6203914815
 20
97.6134337742
 10
125.6021768816
 20
97.6651413973
 10
125.5859614108
 20
97.7174341302
 10
125.5717923519
 20
97.7701581227
 10
125.5597106771
 20
97.8231654402
 10
125.5497531311
 20
97.8763095987
 10
125.5419534629
 20
97.9294387459
 10
125.5363407854
 20
97.9824024385
 10
125.5329394808
 20
98.0350600135
 10
125.5317712352
 20
98.0872664164
 10
125.5328539358
 20
98.1388691673
 10
125.5362008415
 20
98.1897188967
  0
LWPOLYLINE
  5
3E3
100
AcDbEntity
  8
RACCORDO
100
AcDbPolyline
 62
253
  6
CONTINUOUS
 90
6
 70
0
 10
126.8076085684
 20
96.78377443
 10
126.7439319218
 20
96.7655499573
 10
126.676032604
 20
96.7554992933
 10
126.605787176
 20
96.7541902559
 10
126.5337797291
 20
96.7616105714
 10
126.4605837085
 20
96.7776674636
  0
LINE
  5
3E4
100
AcDbEntity
  8
RACCORDO
100
AcDbLine
 62
253
  6
CONTINUOUS
 10
159.4771229282
 20
81.2676988505
 11
159.4673723523
 21
81.2964411479
  0
LINE
  5
3E5
100
AcDbEntity
  8
21814000
100
AcDbLine
 62
7
  6
CONTINUOUS
 10
148.4785254996
 20
133.358923011
 11
148.4802049279
 21
133.3291708605
  0
LWPOLYLINE
  5
3E6
100
AcDbEntity
  8
26814000
100
AcDbPolyline
 62
7
  6
CONTINUOUS
 90
5
 70
0
 10
148.8631855861
 20
132.3946159017
 10
148.8631729358
 20
132.3949508374
 10
148.8628785326
 20
132.3964686262
 10
148.8622031977
 20
132.3981852905
 10
148.8611591047
 20
132.4001049943
  0
LINE
  5
3E7
100
AcDbEntity
  8
21814000
100
AcDbLine
 62
7
  6
CONTINUOUS
 10
149.9497969623
 20
133.9009782684
 11
149.9497969623
 21
134.3339909703
  0
LINE
  5
3E8
100
AcDbEntity
  8
0
100
AcDbLine
 62
7
  6
CONTINUOUS
 10
150.9172606748
 20
133.0648481571
 11
150.9172606748
 21
132.5989733907
  0
LINE
  5
3E9
100
AcDbEntity
  8
21814000
100
AcDbLine
 62
253
  6
CONTINUOUS
 10
151.3345938557
 20
133.7939633809
 11
151.3345938557
 21
134.2526949471
  0
LINE
  5
3EA
100
AcDbEntity
  8
0
100
AcDbLine
 62
7
  6
CONTINUOUS
 10
151.3670053362
 20
132.943100324
 11
151.3670053362
 21
132.5899147702
  0
LINE
  5
3EB
100
AcDbEntity
  8
21814000
100
AcDbLine
 62
253
  6
CONTINUOUS
 10
151.4756067771
 20
133.794893659
 11
151.4756067771
 21
134.2636908442
  0
LWPOLYLINE
  5
3EC
100
AcDbEntity
  8
RACCORDO
100
AcDbPolyline
 62
253
  6
CONTINUOUS
 90
13
 70
0
 10
148.9053653639
 20
80.0835662068
 10
149.0259332818
 20
83.053406677
 10
149.1735500056
 20
86.0344363066
 10
149.34819674
 20
89.0262810096
 10
149.549851265
 20
92.028565321
 10
149.7784882071
 20
95.0409124209
 10
150.0340790463
 20
98.0629441829
 10
150.316591843
 20
101.0942811718
 10
150.6259909874
 20
104.1345429296
 10
150.962237478
 20
107.183348002
 10
151.3252891707
 20
110.2403136741
 10
151.7151007804
 20
113.305056017
 10
152.1316236379
 20
116.3771901762
  0
LWPOLYLINE
  5
3ED
100
AcDbEntity
  8
ASSI
100
AcDbPolyline
 62
253
  6
CONTINUOUS
 90
13
 70
0
 10
148.9053653639
 20
80.0835662068
 10
149.0259332818
 20
83.053406677
 10
149.1735500056
 20
86.0344363066
 10
149.34819674
 20
89.0262810096
 10
149.549851265
 20
92.028565321
 10
149.7784882071
 20
95.0409124209
 10
150.0340790463
 20
98.0629441829
 10
150.316591843
 20
101.0942811718
 10
150.6259909874
 20
104.1345429296
 10
150.962237478
 20
107.183348002
 10
151.3252891707
 20
110.2403136741
 10
151.7151007804
 20
113.305056017
 10
152.1316236379
 20
116.3771901762
  0
LWPOLYLINE
  5
3EE
100
AcDbEntity
  8
RACCORDO
100
AcDbPolyline
 62
253
  6
CONTINUOUS
 90
13
 70
0
 10
150.0262367867
 20
80.0477597588
 10
150.1465123845
 20
83.0102956826
 10
150.2937231912
 20
85.9832469818
 10
150.4678692069
 20
88.9666136565
 10
150.6689791141
 20
91.960774455
 10
150.8970242303
 20
94.965350629
 10
151.1519185077
 20
97.9792059334
 10
151.4336722548
 20
101.0023440747
 10
151.7422751632
 20
104.0347613465
 10
152.0776102598
 20
107.0753103845
 10
152.4396385535
 20
110.1236087338
 10
152.8283990354
 20
113.1800388493
 10
153.2438917054
 20
116.2446007309
  0
LWPOLYLINE
  5
3EF
100
AcDbEntity
  8
ASSI
100
AcDbPolyline
 62
253
  6
CONTINUOUS
 90
13
 70
0
 10
150.0262367867
 20
80.0477597588
 10
150.1465123845
 20
83.0102956826
 10
150.2937231912
 20
85.9832469818
 10
150.4678692069
 20
88.9666136565
 10
150.6689791141
 20
91.960774455
 10
150.8970242303
 20
94.965350629
 10
151.1519185077
 20
97.9792059334
 10
151.4336722548
 20
101.0023440747
 10
151.7422751632
 20
104.0347613465
 10
152.0776102598
 20
107.0753103845
 10
152.4396385535
 20
110.1236087338
 10
152.8283990354
 20
113.1800388493
 10
153.2438917054
 20
116.2446007309
  0
LWPOLYLINE
  5
3F0
100
AcDbEntity
  8
RACCORDO
100
AcDbPolyline
 62
253
  6
CONTINUOUS
 90
19
 70
0
 10
152.1316236379
 20
116.3771901762
 10
152.1509765293
 20
116.4913856074
 10
152.177362776
 20
116.6067376729
 10
152.2106032749
 20
116.722459935
 10
152.2504751789
 20
116.8377637239
 10
152.2967058944
 20
116.9518621733
 10
152.3489741511
 20
117.0639757761
 10
152.4069246732
 20
117.1733361724
 10
152.4701650965
 20
117.2792014305
 10
152.5382614335
 20
117.3808592629
 10
152.6107541145
 20
117.4776151264
 10
152.6871522493
 20
117.5688086513
 10
152.7669319147
 20
117.6538269331
 10
152.8495573009
 20
117.7320897658
 10
152.934467412
 20
117.8030582447
 10
153.0210720453
 20
117.866249716
 10
153.1087802809
 20
117.9212324687
 10
153.1970047167
 20
117.9676277442
 10
153.2851490048
 20
118.0051165723
  0
LWPOLYLINE
  5
3F1
100
AcDbEntity
  8
ASSI
100
AcDbPolyline
 62
253
  6
CONTINUOUS
 90
19
 70
0
 10
152.1316236379
 20
116.3771901762
 10
152.1509765293
 20
116.4913856074
 10
152.177362776
 20
116.6067376729
 10
152.2106032749
 20
116.722459935
 10
152.2504751789
 20
116.8377637239
 10
152.2967058944
 20
116.9518621733
 10
152.3489741511
 20
117.0639757761
 10
152.4069246732
 20
117.1733361724
 10
152.4701650965
 20
117.2792014305
 10
152.5382614335
 20
117.3808592629
 10
152.6107541145
 20
117.4776151264
 10
152.6871522493
 20
117.5688086513
 10
152.7669319147
 20
117.6538269331
 10
152.8495573009
 20
117.7320897658
 10
152.934467412
 20
117.8030582447
 10
153.0210720453
 20
117.866249716
 10
153.1087802809
 20
117.9212324687
 10
153.1970047167
 20
117.9676277442
 10
153.2851490048
 20
118.0051165723
  0
LWPOLYLINE
  5
3F2
100
AcDbEntity
  8
RACCORDO
100
AcDbPolyline
 62
253
  6
CONTINUOUS
 90
19
 70
0
 10
153.2438917054
 20
116.2446007309
 10
153.2530482021
 20
116.2981769388
 10
153.2653405711
 20
116.3516455251
 10
153.2807688124
 20
116.4050064899
 10
153.2994844622
 20
116.4586528461
 10
153.3213359844
 20
116.5121915809
 10
153.3458687699
 20
116.564443655
 10
153.3731345892
 20
116.6153537353
 10
153.4030816718
 20
116.6649771549
 10
153.4351000979
 20
116.7123008744
 10
153.4692322429
 20
116.757275709
 10
153.5054357312
 20
116.7999508435
 10
153.5429735165
 20
116.8394607922
 10
153.5818971665
 20
116.8757496314
 10
153.6221551133
 20
116.9088732848
 10
153.6628556069
 20
116.9381340377
 10
153.7037013973
 20
116.9632993185
 10
153.7449897344
 20
116.9846016987
 10
153.7867206182
 20
117.0020411783
  0
LWPOLYLINE
  5
3F3
100
AcDbEntity
  8
ASSI
100
AcDbPolyline
 62
253
  6
CONTINUOUS
 90
19
 70
0
 10
153.2438917054
 20
116.2446007309
 10
153.2530482021
 20
116.2981769388
 10
153.2653405711
 20
116.3516455251
 10
153.2807688124
 20
116.4050064899
 10
153.2994844622
 20
116.4586528461
 10
153.3213359844
 20
116.5121915809
 10
153.3458687699
 20
116.564443655
 10
153.3731345892
 20
116.6153537353
 10
153.4030816718
 20
116.6649771549
 10
153.4351000979
 20
116.7123008744
 10
153.4692322429
 20
116.757275709
 10
153.5054357312
 20
116.7999508435
 10
153.5429735165
 20
116.8394607922
 10
153.5818971665
 20
116.8757496314
 10
153.6221551133
 20
116.9088732848
 10
153.6628556069
 20
116.9381340377
 10
153.7037013973
 20
116.9632993185
 10
153.7449897344
 20
116.9846016987
 10
153.7867206182
 20
117.0020411783
  0
LWPOLYLINE
  5
3F4
100
AcDbEntity
  8
RACCORDO
100
AcDbPolyline
 62
253
  6
CONTINUOUS
 90
12
 70
0
 10
157.3449991568
 20
121.3172127442
 10
157.3319498132
 20
121.2877267605
 10
157.3160990493
 20
121.2602576392
 10
157.2977180759
 20
121.2352753848
 10
157.2771213966
 20
121.2132074504
 10
157.2546614264
 20
121.1944314246
 10
157.2307224615
 20
121.1792685703
 10
157.2057141043
 20
121.1679783283
 10
157.1800642547
 20
121.1607538775
 10
157.1542117888
 20
121.1577188306
 10
157.1285990493
 20
121.1589251178
 10
157.117521709
 20
121.1607962028
  0
LWPOLYLINE
  5
3F5
100
AcDbEntity
  8
RACCORDO
100
AcDbPolyline
 62
253
  6
CONTINUOUS
 90
12
 70
0
 10
157.8753292427
 20
121.2073777871
 10
157.8622798991
 20
121.1778918034
 10
157.8464291352
 20
121.1504226822
 10
157.8280481618
 20
121.1254404278
 10
157.8074514825
 20
121.1033724934
 10
157.7849915123
 20
121.0845964676
 10
157.7610525474
 20
121.0694336133
 10
157.7360441902
 20
121.0581433712
 10
157.7103943406
 20
121.0509189205
 10
157.6845418746
 20
121.0478838735
 10
157.6589291352
 20
121.0490901607
 10
157.6478517948
 20
121.0509612457
  0
LWPOLYLINE
  5
3F6
100
AcDbEntity
  8
RACCORDO
100
AcDbPolyline
 62
253
  6
CONTINUOUS
 90
20
 70
0
 10
157.8065142279
 20
120.3249122686
 10
157.8246260215
 20
120.3267625609
 10
157.8438352379
 20
120.3288536982
 10
157.8640138323
 20
120.3312261087
 10
157.8844739629
 20
120.333840361
 10
157.9048638209
 20
120.3366831971
 10
157.9252671987
 20
120.3397996082
 10
157.9455722514
 20
120.3432048678
 10
157.9655079857
 20
120.3468823303
 10
157.9849054145
 20
120.3508125647
 10
158.0037722554
 20
120.3550020958
 10
158.0219989506
 20
120.3594250597
 10
158.0395027317
 20
120.3640578299
 10
158.0563857982
 20
120.3689260821
 10
158.0725880063
 20
120.3740045508
 10
158.0880326399
 20
120.3792451264
 10
158.1027992387
 20
120.3846553812
 10
158.1168850742
 20
120.3902215927
 10
158.1302257024
 20
120.3959001795
 10
158.1428122109
 20
120.4016650847
  0
LWPOLYLINE
  5
3F7
100
AcDbEntity
  8
RACCORDO
100
AcDbPolyline
 62
253
  6
CONTINUOUS
 90
5
 70
0
 10
157.7330073375
 20
120.3182570394
 10
157.745676844
 20
120.3192790435
 10
157.7592200445
 20
120.3204421762
 10
157.7737399429
 20
120.321756287
 10
157.8065142279
 20
120.3249122686
  0
LWPOLYLINE
  5
3F8
100
AcDbEntity
  8
RACCORDO
100
AcDbPolyline
 62
253
  6
CONTINUOUS
 90
10
 70
0
 10
122.2358714007
 20
131.3250663139
 10
122.1803633422
 20
131.3550397385
 10
122.1314126214
 20
131.3863393676
 10
122.0895437381
 20
131.4186298304
 10
122.0552053109
 20
131.4515651394
 10
122.028765271
 20
131.4847923977
 10
122.0105069194
 20
131.5179555799
 10
122.0006258915
 20
131.5506993474
 10
121.9992280612
 20
131.5826728556
 10
121.9998284799
 20
131.5879483577
  0
LWPOLYLINE
  5
3F9
100
AcDbEntity
  8
ASSI
100
AcDbPolyline
 62
253
  6
CONTINUOUS
 90
10
 70
0
 10
122.2358714007
 20
131.3250663139
 10
122.1803633422
 20
131.3550397385
 10
122.1314126214
 20
131.3863393676
 10
122.0895437381
 20
131.4186298304
 10
122.0552053109
 20
131.4515651394
 10
122.028765271
 20
131.4847923977
 10
122.0105069194
 20
131.5179555799
 10
122.0006258915
 20
131.5506993474
 10
121.9992280612
 20
131.5826728556
 10
121.9997712089
 20
131.5875245599
  0
LWPOLYLINE
  5
3FA
100
AcDbEntity
  8
RACCORDO
100
AcDbPolyline
 62
7
  6
CONTINUOUS
 90
4
 70
0
 10
142.2365976391
 20
128.64810304
 10
142.2254993132
 20
128.6739487816
 10
142.2173308362
 20
128.7010592017
 10
142.2122436763
 20
128.7292174286
  0
LWPOLYLINE
  5
3FB
100
AcDbEntity
  8
RACCORDO
100
AcDbPolyline
 62
253
  6
CONTINUOUS
 90
5
 70
0
 10
144.3154311127
 20
127.6906914546
 10
144.3235734438
 20
127.6716442805
 10
144.3294693443
 20
127.6504724983
 10
144.3330390822
 20
127.6274624198
 10
144.334234383
 20
127.602925217
  0
LWPOLYLINE
  5
3FC
100
AcDbEntity
  8
RACCORDO
100
AcDbPolyline
 62
253
  6
CONTINUOUS
 90
7
 70
0
 10
155.5747195773
 20
80.7777483946
 10
155.5768583619
 20
80.7614326205
 10
155.5832381207
 20
80.7453960139
 10
155.5937496942
 20
80.7299129655
 10
155.6082132263
 20
80.7152483946
 10
155.6263812422
 20
80.7016532159
 10
155.647942882
 20
80.6893600469
  0
LWPOLYLINE
  5
3FD
100
AcDbEntity
  8
RACCORDO
100
AcDbPolyline
 62
253
  6
CONTINUOUS
 90
7
 70
0
 10
155.5747197356
 20
80.4262937299
 10
155.5767570466
 20
80.4105081596
 10
155.5830829083
 20
80.3943730743
 10
155.5935850582
 20
80.3787982122
 10
155.6080755974
 20
80.3640537644
 10
155.6263010248
 20
80.3503915431
 10
155.647942882
 20
80.3380460748
  0
LINE
  5
3FE
100
AcDbEntity
  8
RACCORDO
100
AcDbLine
 62
7
  6
CONTINUOUS
 10
155.4480165799
 20
91.632682774
 11
156.0213404639
 21
86.2888574159
  0
LINE
  5
3FF
100
AcDbEntity
  8
21814000
100
AcDbLine
 62
7
  6
CONTINUOUS
 10
153.2792427429
 20
136.3640730421
 11
153.2792427429
 21
135.9562217748
  0
LINE
  5
400
100
AcDbEntity
  8
RACCORDO
100
AcDbLine
 62
253
  6
CONTINUOUS
 10
153.4579423399
 20
124.1062271695
 11
153.4579423399
 21
122.9089081338
  0
LINE
  5
401
100
AcDbEntity
  8
RACCORDO
100
AcDbLine
 62
253
  6
CONTINUOUS
 10
154.167079567
 20
124.1072482566
 11
154.167079567
 21
122.9023274239
  0
LINE
  5
402
100
AcDbEntity
  8
RACCORDO
100
AcDbLine
 62
7
  6
CONTINUOUS
 10
154.5872827102
 20
128.5721502125
 11
154.5872827102
 21
129.4725053131
  0
LWPOLYLINE
  5
403
100
AcDbEntity
  8
RACCORDO
100
AcDbPolyline
 62
253
  6
CONTINUOUS
 90
6
 70
0
 10
158.792385348
 20
121.4739699306
 10
158.7805615556
 20
121.4331239651
 10
158.7713065575
 20
121.3926520677
 10
158.7647064837
 20
121.3528338188
 10
158.7606752043
 20
121.313389638
 10
158.7592127192
 20
121.2743195253
  0
LWPOLYLINE
  5
404
100
AcDbEntity
  8
RACCORDO
100
AcDbPolyline
 62
253
  6
CONTINUOUS
 90
3
 70
0
 10
158.8230016102
 20
121.5542658751
 10
158.806519545
 20
121.5143512236
 10
158.792385348
 20
121.4739699306
  0
LINE
  5
405
100
AcDbEntity
  8
RACCORDO
100
AcDbLine
 62
253
  6
CONTINUOUS
 10
159.0088953951
 20
120.8922740955
 11
159.0173900834
 21
120.9114931179
  0
LWPOLYLINE
  5
406
100
AcDbEntity
  8
RACCORDO
100
AcDbPolyline
 62
253
  6
CONTINUOUS
 90
4
 70
0
 10
156.2654675805
 20
121.343102856
 10
156.2822014348
 20
121.3448978057
 10
156.2977619904
 20
121.3498821307
 10
156.2999724193
 20
121.3508975714
  0
LWPOLYLINE
  5
407
100
AcDbEntity
  8
RACCORDO
100
AcDbPolyline
 62
253
  6
CONTINUOUS
 90
16
 70
0
 10
152.1316379528
 20
116.3771941257
 10
152.193083276
 20
116.3486907726
 10
152.2598326375
 20
116.3221401382
 10
152.3311708414
 20
116.2978267032
 10
152.4063335239
 20
116.2760109776
 10
152.4845153432
 20
116.2569267089
 10
152.5648786087
 20
116.240778378
 10
152.6465622561
 20
116.2277390085
 10
152.728691074
 20
116.2179483127
 10
152.8103850809
 20
116.2115111944
 10
152.8907689543
 20
116.208496625
 10
152.9689814093
 20
116.2089369046
 10
153.0441844268
 20
116.2128273157
 10
153.1155722332
 20
116.220126174
 10
153.182379933
 20
116.2307552748
 10
153.2438917053
 20
116.244600731
  0
LWPOLYLINE
  5
408
100
AcDbEntity
  8
ASSI
100
AcDbPolyline
 62
253
  6
CONTINUOUS
 90
16
 70
0
 10
152.1316379528
 20
116.3771941257
 10
152.193083276
 20
116.3486907726
 10
152.2598326375
 20
116.3221401382
 10
152.3311708414
 20
116.2978267032
 10
152.4063335239
 20
116.2760109776
 10
152.4845153432
 20
116.2569267089
 10
152.5648786087
 20
116.240778378
 10
152.6465622561
 20
116.2277390085
 10
152.728691074
 20
116.2179483127
 10
152.8103850809
 20
116.2115111944
 10
152.8907689543
 20
116.208496625
 10
152.9689814093
 20
116.2089369046
 10
153.0441844268
 20
116.2128273157
 10
153.1155722332
 20
116.220126174
 10
153.182379933
 20
116.2307552748
 10
153.2438917053
 20
116.244600731
  0
LINE
  5
409
100
AcDbEntity
  8
RACCORDO
100
AcDbLine
 62
253
  6
CONTINUOUS
 10
122.2358713761
 20
131.3250663071
 11
152.1316236379
 21
116.3771901762
  0
LINE
  5
40A
100
AcDbEntity
  8
ASSI
100
AcDbLine
 62
253
  6
CONTINUOUS
 10
122.2358713761
 20
131.3250663071
 11
152.1316236379
 21
116.3771901762
  0
LWPOLYLINE
  5
40B
100
AcDbEntity
  8
RACCORDO
100
AcDbPolyline
 62
253
  6
CONTINUOUS
 90
7
 70
0
 10
142.7373573933
 20
127.8160585152
 10
142.7494890215
 20
127.799857579
 10
142.7640669722
 20
127.7842430995
 10
142.7810912453
 20
127.7692150767
 10
142.8005618409
 20
127.7547735107
 10
142.822478759
 20
127.7409184014
 10
142.8468419995
 20
127.7276497489
  0
LWPOLYLINE
  5
40C
100
AcDbEntity
  8
RACCORDO
100
AcDbPolyline
 62
253
  6
CONTINUOUS
 90
7
 70
0
 10
145.5716712501
 20
128.4198669552
 10
145.5816958954
 20
128.401917966
 10
145.588524318
 20
128.385788438
 10
145.5920396817
 20
128.3717543521
 10
145.5921818375
 20
128.3600558353
 10
145.5889483533
 20
128.3508930525
 10
145.5874135929
 20
128.3487673097
  0
LWPOLYLINE
  5
40D
100
AcDbEntity
  8
RACCORDO
100
AcDbPolyline
 62
7
  6
CONTINUOUS
 90
5
 70
0
 10
145.4782812736
 20
127.6757459859
 10
145.4752936565
 20
127.6814321076
 10
145.4722425931
 20
127.6893071008
 10
145.4696840197
 20
127.6993591498
 10
145.4682510253
 20
127.7111700218
  0
LWPOLYLINE
  5
40E
100
AcDbEntity
  8
RACCORDO
100
AcDbPolyline
 62
253
  6
CONTINUOUS
 90
7
 70
0
 10
156.2818263585
 20
81.8813017851
 10
156.2839651431
 20
81.8649860111
 10
156.2903449019
 20
81.8489494045
 10
156.3008564753
 20
81.8334663561
 10
156.3153200075
 20
81.8188017851
 10
156.3334880234
 20
81.8052066065
 10
156.3550496632
 20
81.7929134375
  0
LINE
  5
40F
100
AcDbEntity
  8
DRAFT
100
AcDbLine
 62
7
  6
CONTINUOUS
 10
158.3059435528
 20
83.5429678651
 11
156.5432925817
 21
99.9722484512
  0
LWPOLYLINE
  5
410
100
AcDbEntity
  8
RACCORDO
100
AcDbPolyline
 62
253
  6
CONTINUOUS
 90
3
 70
0
 10
159.4868525335
 20
81.2054859173
 10
159.4836565341
 20
81.2371988932
 10
159.4771229282
 20
81.2676988505
  0
LWPOLYLINE
  5
411
100
AcDbEntity
  8
RACCORDO
100
AcDbPolyline
 62
7
  6
CONTINUOUS
 90
10
 70
0
 10
155.5747195773
 20
122.0773525339
 10
155.5769868276
 20
122.0437647473
 10
155.5838243636
 20
122.0104998964
 10
155.595185014
 20
121.9782874833
 10
155.6108935832
 20
121.9478209716
 10
155.6306253379
 20
121.9197853429
 10
155.653965501
 20
121.8947517524
 10
155.680503662
 20
121.8731427985
 10
155.7097972934
 20
121.8553330797
 10
155.7132347171
 20
121.8535872217
  0
LWPOLYLINE
  5
412
100
AcDbEntity
  8
RACCORDO
100
AcDbPolyline
 62
253
  6
CONTINUOUS
 90
8
 70
0
 10
156.2818263593
 20
121.3770004332
 10
156.2821817319
 20
121.3705987127
 10
156.2849073252
 20
121.3581399875
 10
156.2903040949
 20
121.3458108629
 10
156.2983222505
 20
121.3337577215
 10
156.3089080888
 20
121.32208137
 10
156.3219797618
 20
121.3109060905
 10
156.337410055
 20
121.3003751943
  0
LWPOLYLINE
  5
413
100
AcDbEntity
  8
RACCORDO
100
AcDbPolyline
 62
253
  6
CONTINUOUS
 90
9
 70
0
 10
155.647942882
 20
121.9889641863
 10
155.6491018473
 20
121.9647925201
 10
155.6525874593
 20
121.9419833214
 10
155.6583891487
 20
121.9208641801
 10
155.6664797173
 20
121.9017172161
 10
155.6767750323
 20
121.884874492
 10
155.6890983642
 20
121.8706702966
 10
155.7032553004
 20
121.8593160912
 10
155.7129162074
 20
121.8537457217
  0
LWPOLYLINE
  5
414
100
AcDbEntity
  8
RACCORDO
100
AcDbPolyline
 62
7
  6
CONTINUOUS
 90
15
 70
0
 10
154.5872827102
 20
129.4725053131
 10
154.5864988772
 20
129.5006329689
 10
154.5842344008
 20
129.5276595931
 10
154.5804892809
 20
129.5535851859
 10
154.5752348817
 20
129.5785110453
 10
154.5684998391
 20
129.6023358731
 10
154.5603700608
 20
129.6247557755
 10
154.5508276807
 20
129.6457527555
 10
154.5398905649
 20
129.6653448101
 10
154.5276982202
 20
129.6832820358
 10
154.5142345674
 20
129.6995432345
 10
154.4995156857
 20
129.7141496042
 10
154.4837293196
 20
129.7269148357
 10
154.4668617948
 20
129.7378153442
 10
154.4573261525
 20
129.7429278095
  0
LINE
  5
415
100
AcDbEntity
  8
RACCORDO
100
AcDbLine
 62
253
  6
CONTINUOUS
 10
155.5747195773
 20
80.4264344103
 11
155.5747197356
 21
80.4262937299
  0
LINE
  5
416
100
AcDbEntity
  8
RACCORDO
100
AcDbLine
 62
7
  6
CONTINUOUS
 10
155.5747195773
 20
80.4264344225
 11
155.5747195773
 21
80.7777483946
  0
LINE
  5
417
100
AcDbEntity
  8
RACCORDO
100
AcDbLine
 62
7
  6
CONTINUOUS
 10
155.5747195773
 20
122.0773525339
 11
155.5747195773
 21
122.428666506
  0
LINE
  5
418
100
AcDbEntity
  8
RACCORDO
100
AcDbLine
 62
253
  6
CONTINUOUS
 10
155.647942882
 20
80.3380460748
 11
155.647942882
 21
80.6893600469
  0
LINE
  5
419
100
AcDbEntity
  8
RACCORDO
100
AcDbLine
 62
253
  6
CONTINUOUS
 10
155.647942882
 20
121.9889641863
 11
155.647942882
 21
122.3402781584
  0
LINE
  5
41A
100
AcDbEntity
  8
RACCORDO
100
AcDbLine
 62
7
  6
CONTINUOUS
 10
156.2818263585
 20
81.8813017851
 11
156.2818263585
 21
81.9465716649
  0
LINE
  5
41B
100
AcDbEntity
  8
RACCORDO
100
AcDbLine
 62
7
  6
CONTINUOUS
 10
156.2818263585
 20
121.3769523219
 11
156.2818263585
 21
121.5692906462
  0
LINE
  5
41C
100
AcDbEntity
  8
RACCORDO
100
AcDbLine
 62
253
  6
CONTINUOUS
 10
156.3550496632
 20
81.7929134375
 11
156.3550496632
 21
81.9099600125
  0
LINE
  5
41D
100
AcDbEntity
  8
RACCORDO
100
AcDbLine
 62
253
  6
CONTINUOUS
 10
156.3550496632
 20
121.2906141171
 11
156.3550496632
 21
121.5326789938
  0
LINE
  5
41E
100
AcDbEntity
  8
RACCORDO
100
AcDbLine
 62
253
  6
CONTINUOUS
 10
156.9914457662
 20
121.6685267162
 11
156.9914457662
 21
121.3172127442
  0
LINE
  5
41F
100
AcDbEntity
  8
RACCORDO
100
AcDbLine
 62
253
  6
CONTINUOUS
 10
156.9914457662
 20
80.0176086048
 11
156.9914457662
 21
79.6662946327
  0
LINE
  5
420
100
AcDbEntity
  8
RACCORDO
100
AcDbLine
 62
7
  6
CONTINUOUS
 10
157.0621564444
 20
128.3645303609
 11
157.0621564444
 21
128.5596433059
  0
LWPOLYLINE
  5
421
100
AcDbEntity
  8
RACCORDO
100
AcDbPolyline
 62
7
  6
CONTINUOUS
 90
6
 70
0
 10
156.2818307727
 20
121.3771838643
 10
156.2816212976
 20
121.3708286329
 10
156.2799528235
 20
121.3585740317
 10
156.2771089099
 20
121.3481791797
 10
156.2737949799
 20
121.3401293308
 10
156.2714405776
 20
121.3357487366
  0
LWPOLYLINE
  5
422
100
AcDbEntity
  8
RACCORDO
100
AcDbPolyline
 62
7
  6
CONTINUOUS
 90
9
 70
0
 10
156.2818263585
 20
81.8813017851
 10
156.2811483414
 20
81.8612031968
 10
156.2789630104
 20
81.8388562374
 10
156.2750757215
 20
81.8145324963
 10
156.2693213149
 20
81.7884850098
 10
156.2616162997
 20
81.7611637242
 10
156.2520030799
 20
81.7331927145
 10
156.2405261836
 20
81.7049726896
 10
156.2272959299
 20
81.6769496332
  0
LWPOLYLINE
  5
423
100
AcDbEntity
  8
21814000
100
AcDbPolyline
 62
253
  6
CONTINUOUS
 90
10
 70
0
 10
158.8013490429
 20
132.6991848538
 10
158.7986426899
 20
132.6643132645
 10
158.7892924774
 20
132.6257742668
 10
158.7733337252
 20
132.5877816292
 10
158.7508852067
 20
132.5506181126
 10
158.7221139956
 20
132.5145603074
 10
158.6872342222
 20
132.4798765748
 10
158.6465054801
 20
132.4468250491
 10
158.6002308938
 20
132.4156517171
 10
158.5487548632
 20
132.3865885871
  0
LINE
  5
424
100
AcDbEntity
  8
RACCORDO
100
AcDbLine
 62
7
  6
CONTINUOUS
 10
157.8352124006
 20
118.487317492
 11
154.4972429977
 21
80.9370050126
  0
LINE
  5
425
100
AcDbEntity
  8
ASSI
100
AcDbLine
 62
7
  6
CONTINUOUS
 10
157.8352124006
 20
118.487317492
 11
154.4972429977
 21
80.9370050126
  0
LWPOLYLINE
  5
426
100
AcDbEntity
  8
RACCORDO
100
AcDbPolyline
 62
253
  6
CONTINUOUS
 90
4
 70
0
 10
158.8448088639
 20
121.0041301212
 10
158.8285031606
 20
121.0061343727
 10
158.8134044016
 20
121.0112349692
 10
158.8111913563
 20
121.0122965945
  0
LINE
  5
427
100
AcDbEntity
  8
RACCORDO
100
AcDbLine
 62
7
  6
CONTINUOUS
 10
157.117521709
 20
121.1607962028
 11
157.6478517948
 21
121.0509612457
  0
LINE
  5
428
100
AcDbEntity
  8
RACCORDO
100
AcDbLine
 62
253
  6
CONTINUOUS
 10
157.3449991568
 20
121.3172127442
 11
157.8753292427
 21
121.2073777871
  0
LWPOLYLINE
  5
429
100
AcDbEntity
  8
RACCORDO
100
AcDbPolyline
 62
7
  6
CONTINUOUS
 90
10
 70
0
 10
157.117521709
 20
121.1607962028
 10
157.1099239519
 20
121.1624935371
 10
157.1023685081
 20
121.1644304957
 10
157.0948661359
 20
121.1666055908
 10
157.0874016905
 20
121.1690255164
 10
157.0800135028
 20
121.1716797811
 10
157.0727873358
 20
121.174533706
 10
157.065752602
 20
121.1775661652
 10
157.0588884034
 20
121.1807765746
 10
157.0564113798
 20
121.1819981359
  0
LWPOLYLINE
  5
42A
100
AcDbEntity
  8
RACCORDO
100
AcDbPolyline
 62
253
  6
CONTINUOUS
 90
7
 70
0
 10
123.3724577118
 20
132.9614622188
 10
123.3120234142
 20
132.9867001882
 10
123.2516572724
 20
133.0038118274
 10
123.1920204272
 20
133.0126097587
 10
123.133766016
 20
133.0129976581
 10
123.0775320545
 20
133.0049713084
 10
123.0225292719
 20
132.9880631066
  0
LWPOLYLINE
  5
42B
100
AcDbEntity
  8
ASSI
100
AcDbPolyline
 62
253
  6
CONTINUOUS
 90
7
 70
0
 10
123.3724577118
 20
132.9614622188
 10
123.3120234142
 20
132.9867001882
 10
123.2516572724
 20
133.0038118274
 10
123.1920204272
 20
133.0126097587
 10
123.133766016
 20
133.0129976581
 10
123.0775320545
 20
133.0049713084
 10
123.0225292719
 20
132.9880631066
  0
LINE
  5
42C
100
AcDbEntity
  8
RACCORDO
100
AcDbLine
 62
253
  6
CONTINUOUS
 10
123.3724577118
 20
132.9614622188
 11
153.2851490048
 21
118.0051165723
  0
LINE
  5
42D
100
AcDbEntity
  8
ASSI
100
AcDbLine
 62
253
  6
CONTINUOUS
 10
123.3724577118
 20
132.9614622188
 11
153.2851490048
 21
118.0051165723
  0
LWPOLYLINE
  5
42E
100
AcDbEntity
  8
RACCORDO
100
AcDbPolyline
 62
253
  6
CONTINUOUS
 90
16
 70
0
 10
153.2851490048
 20
118.0051165723
 10
153.3429350501
 20
117.9712444832
 10
153.3994944249
 20
117.9298936488
 10
153.4542076927
 20
117.8815169421
 10
153.5064756358
 20
117.8266441831
 10
153.5557258175
 20
117.7658763363
 10
153.601418852
 20
117.6998789291
 10
153.6430543109
 20
117.6293747628
 10
153.6801762039
 20
117.5551359966
 10
153.7123779734
 20
117.4779756907
 10
153.7393069468
 20
117.3987389021
 10
153.760668199
 20
117.3182934294
 10
153.7762277822
 20
117.2375203084
 10
153.7858152886
 20
117.1573041636
 10
153.7893257159
 20
117.0785235193
 10
153.7867206182
 20
117.0020411783
  0
LWPOLYLINE
  5
42F
100
AcDbEntity
  8
ASSI
100
AcDbPolyline
 62
253
  6
CONTINUOUS
 90
16
 70
0
 10
153.2851490048
 20
118.0051165723
 10
153.3429350501
 20
117.9712444832
 10
153.3994944249
 20
117.9298936488
 10
153.4542076927
 20
117.8815169421
 10
153.5064756358
 20
117.8266441831
 10
153.5557258175
 20
117.7658763363
 10
153.601418852
 20
117.6998789291
 10
153.6430543109
 20
117.6293747628
 10
153.6801762039
 20
117.5551359966
 10
153.7123779734
 20
117.4779756907
 10
153.7393069468
 20
117.3987389021
 10
153.760668199
 20
117.3182934294
 10
153.7762277822
 20
117.2375203084
 10
153.7858152886
 20
117.1573041636
 10
153.7893257159
 20
117.0785235193
 10
153.7867206182
 20
117.0020411783
  0
LWPOLYLINE
  5
430
100
AcDbEntity
  8
RACCORDO
100
AcDbPolyline
 62
253
  6
CONTINUOUS
 90
6
 70
0
 10
146.102001336
 20
129.0600319982
 10
146.1120259813
 20
129.0420830089
 10
146.1188544039
 20
129.025953481
 10
146.1223697675
 20
129.0119193951
 10
146.1225119234
 20
129.0002208783
 10
146.1192784392
 20
128.9910580954
  0
LWPOLYLINE
  5
431
100
AcDbEntity
  8
RACCORDO
100
AcDbPolyline
 62
253
  6
CONTINUOUS
 90
7
 70
0
 10
155.5747195773
 20
122.4286665182
 10
155.5770213216
 20
122.4117433405
 10
155.5836260818
 20
122.3955986726
 10
155.5943322661
 20
122.380133819
 10
155.608833719
 20
122.3656321975
 10
155.626827662
 20
122.3522813146
 10
155.647942882
 20
122.3402781584
  0
LWPOLYLINE
  5
432
100
AcDbEntity
  8
RACCORDO
100
AcDbPolyline
 62
253
  6
CONTINUOUS
 90
7
 70
0
 10
155.5747195773
 20
122.0773525339
 10
155.5768583619
 20
122.0610367599
 10
155.5832381207
 20
122.0450001533
 10
155.5937496942
 20
122.0295171049
 10
155.6082132263
 20
122.0148525339
 10
155.6263812422
 20
122.0012573553
 10
155.647942882
 20
121.9889641863
  0
LWPOLYLINE
  5
433
100
AcDbEntity
  8
RACCORDO
100
AcDbPolyline
 62
7
  6
CONTINUOUS
 90
5
 70
0
 10
159.5395428051
 20
81.1666571242
 10
159.5372755547
 20
81.2002449109
 10
159.5304380188
 20
81.2335097617
 10
159.5190773684
 20
81.2657221749
 10
159.5033687992
 20
81.2961886866
  0
LWPOLYLINE
  5
434
100
AcDbEntity
  8
RACCORDO
100
AcDbPolyline
 62
253
  6
CONTINUOUS
 90
9
 70
0
 10
156.9914457662
 20
121.3172127442
 10
156.9926532926
 20
121.292553879
 10
156.9962593828
 20
121.2694393838
 10
157.0022147832
 20
121.2481850488
 10
157.0104539558
 20
121.2290508371
 10
157.0208558464
 20
121.2123367611
 10
157.033209958
 20
121.1983363489
 10
157.0472938083
 20
121.1872146602
 10
157.0564113798
 20
121.1819981359
  0
LWPOLYLINE
  5
435
100
AcDbEntity
  8
RACCORDO
100
AcDbPolyline
 62
253
  6
CONTINUOUS
 90
13
 70
0
 10
158.7592127192
 20
81.474715386
 10
158.760684692
 20
81.4370365843
 10
158.7647297127
 20
81.4015679291
 10
158.7713477813
 20
81.3683094203
 10
158.7806297049
 20
81.3370674633
 10
158.7924846764
 20
81.3080356528
 10
158.8066402746
 20
81.2817947723
 10
158.8231298689
 20
81.2583908924
 10
158.84192009
 20
81.2377779426
 10
158.862638408
 20
81.2203984946
 10
158.8851606465
 20
81.2064000724
 10
158.909610982
 20
81.1956351521
 10
158.9359894145
 20
81.1881037336
  0
LWPOLYLINE
  5
436
100
AcDbEntity
  8
RACCORDO
100
AcDbPolyline
 62
253
  6
CONTINUOUS
 90
13
 70
0
 10
158.052105938
 20
120.9207661348
 10
158.0506339652
 20
120.9584449364
 10
158.0465889445
 20
120.9939135916
 10
158.0399708759
 20
121.0271721004
 10
158.0306889523
 20
121.0584140574
 10
158.0188339808
 20
121.0874458679
 10
158.0046783827
 20
121.1136867484
 10
157.9881887883
 20
121.1370906283
 10
157.9693985673
 20
121.1577035782
 10
157.9486802492
 20
121.1750830261
 10
157.9261580107
 20
121.1890814483
 10
157.9017076752
 20
121.1998463687
 10
157.8753292427
 20
121.2073777871
  0
LWPOLYLINE
  5
437
100
AcDbEntity
  8
21814000
100
AcDbPolyline
 62
7
  6
CONTINUOUS
 90
10
 70
0
 10
158.8013490429
 20
132.6991848538
 10
158.7975441468
 20
132.8131225501
 10
158.7863980577
 20
132.9263867471
 10
158.7682597326
 20
133.0387740205
 10
158.7433046314
 20
133.1505107973
 10
158.711757632
 20
133.2611429648
 10
158.6741363658
 20
133.3694493539
 10
158.6308351304
 20
133.4749333249
 10
158.5818823487
 20
133.5778602055
 10
158.5273503032
 20
133.6781046152
  0
LINE
  5
438
100
AcDbEntity
  8
RACCORDO
100
AcDbLine
 62
7
  6
CONTINUOUS
 10
158.832896688
 20
81.5474922154
 11
158.8324360239
 21
81.5631037336
  0
LWPOLYLINE
  5
439
100
AcDbEntity
  8
RACCORDO
100
AcDbPolyline
 62
7
  6
CONTINUOUS
 90
15
 70
0
 10
157.0621564444
 20
128.5596433059
 10
157.0606245628
 20
128.6152750537
 10
157.0561953796
 20
128.6687603634
 10
157.0488688947
 20
128.7200992348
 10
157.0385903161
 20
128.7694881263
 10
157.0254144358
 20
128.8167305797
 10
157.0095056298
 20
128.8612372204
 10
156.9908296612
 20
128.9029737753
 10
156.9694207669
 20
128.9419745177
 10
156.9455460341
 20
128.9777528926
 10
156.9191745718
 20
129.0102685316
 10
156.8903372711
 20
129.0395618033
 10
156.8593938925
 20
129.0652672586
 10
156.8263180517
 20
129.0873399508
 10
156.802227944
 20
129.1004988224
  0
LINE
  5
43A
100
AcDbEntity
  8
RACCORDO
100
AcDbLine
 62
7
  6
CONTINUOUS
 10
158.8325719412
 20
121.0289609965
 11
158.8324314979
 21
121.0341712866
  0
LINE
  5
43B
100
AcDbEntity
  8
RACCORDO
100
AcDbLine
 62
253
  6
CONTINUOUS
 10
157.3449991568
 20
121.6685267162
 11
157.3449991568
 21
121.3172127442
  0
LINE
  5
43C
100
AcDbEntity
  8
RACCORDO
100
AcDbLine
 62
253
  6
CONTINUOUS
 10
157.3449991568
 20
80.0176086048
 11
157.3449991568
 21
79.6662946327
  0
LINE
  5
43D
100
AcDbEntity
  8
RACCORDO
100
AcDbLine
 62
253
  6
CONTINUOUS
 10
157.6985525474
 20
120.9207661348
 11
157.6985525474
 21
120.618862675
  0
LINE
  5
43E
100
AcDbEntity
  8
RACCORDO
100
AcDbLine
 62
253
  6
CONTINUOUS
 10
157.6985525474
 20
81.3312543966
 11
157.6985525474
 21
81.1211619954
  0
LINE
  5
43F
100
AcDbEntity
  8
RACCORDO
100
AcDbLine
 62
7
  6
CONTINUOUS
 10
157.8383014584
 20
119.5935277513
 11
157.8383014584
 21
119.5676581134
  0
LINE
  5
440
100
AcDbEntity
  8
RACCORDO
100
AcDbLine
 62
7
  6
CONTINUOUS
 10
157.8383014584
 20
81.6015446867
 11
157.8383014584
 21
81.6274143246
  0
LINE
  5
441
100
AcDbEntity
  8
RACCORDO
100
AcDbLine
 62
253
  6
CONTINUOUS
 10
158.052105938
 20
120.9207661348
 11
158.052105938
 21
120.6120602366
  0
LINE
  5
442
100
AcDbEntity
  8
RACCORDO
100
AcDbLine
 62
253
  6
CONTINUOUS
 10
158.052105938
 20
81.4298678935
 11
158.052105938
 21
81.1211619954
  0
LINE
  5
443
100
AcDbEntity
  8
DRAFT
100
AcDbLine
 62
7
  6
CONTINUOUS
 10
158.3059435528
 20
81.922330142
 11
158.3059435528
 21
83.5429678651
  0
LINE
  5
444
100
AcDbEntity
  8
DRAFT
100
AcDbLine
 62
7
  6
CONTINUOUS
 10
158.3059435528
 20
118.103701294
 11
158.3059435528
 21
119.7243390172
  0
LINE
  5
445
100
AcDbEntity
  8
21814000
100
AcDbLine
 62
253
  6
CONTINUOUS
 10
158.5487548632
 20
132.3865885871
 11
158.5487548632
 21
128.4116962825
  0
LINE
  5
446
100
AcDbEntity
  8
RACCORDO
100
AcDbLine
 62
253
  6
CONTINUOUS
 10
158.7592127192
 20
81.474715386
 11
158.7592127192
 21
81.7985378137
  0
LINE
  5
447
100
AcDbEntity
  8
RACCORDO
100
AcDbLine
 62
253
  6
CONTINUOUS
 10
158.7592127192
 20
120.9504970976
 11
158.7592127192
 21
121.2743195253
  0
LINE
  5
448
100
AcDbEntity
  8
21814000
100
AcDbLine
 62
7
  6
CONTINUOUS
 10
158.8013490429
 20
132.6991848538
 11
158.8013490429
 21
129.2934994071
  0
LINE
  5
449
100
AcDbEntity
  8
RACCORDO
100
AcDbLine
 62
7
  6
CONTINUOUS
 10
158.8324360239
 20
81.5631037336
 11
158.8324360239
 21
81.8651589928
  0
LINE
  5
44A
100
AcDbEntity
  8
RACCORDO
100
AcDbLine
 62
7
  6
CONTINUOUS
 10
158.8324360231
 20
121.0340850385
 11
158.8324360239
 21
121.362707873
  0
LINE
  5
44B
100
AcDbEntity
  8
RACCORDO
100
AcDbLine
 62
253
  6
CONTINUOUS
 10
159.4663195004
 20
122.729186888
 11
159.4663195004
 21
122.3778729159
  0
LINE
  5
44C
100
AcDbEntity
  8
RACCORDO
100
AcDbLine
 62
253
  6
CONTINUOUS
 10
159.4663195004
 20
81.0782687766
 11
159.4663195004
 21
80.7269548045
  0
LINE
  5
44D
100
AcDbEntity
  8
RACCORDO
100
AcDbLine
 62
7
  6
CONTINUOUS
 10
159.5395428051
 20
122.8175752357
 11
159.5395428051
 21
122.4662612636
  0
LINE
  5
44E
100
AcDbEntity
  8
RACCORDO
100
AcDbLine
 62
7
  6
CONTINUOUS
 10
159.5395428051
 20
81.1666571242
 11
159.5395428051
 21
80.8153431521
  0
LINE
  5
44F
100
AcDbEntity
  8
21814000
100
AcDbLine
 62
7
  6
CONTINUOUS
 10
158.8013488927
 20
129.2924809044
 11
158.8013488049
 21
129.2922333243
  0
LWPOLYLINE
  5
450
100
AcDbEntity
  8
21814000
100
AcDbPolyline
 62
253
  6
CONTINUOUS
 90
29
 70
0
 10
158.8013488049
 20
129.2922333243
 10
158.8010204341
 20
129.248779017
 10
158.7998141181
 20
129.1970530676
 10
158.7977831595
 20
129.146735957
 10
158.7949768054
 20
129.0978364436
 10
158.7914476017
 20
129.0503708891
 10
158.7872466619
 20
129.0043405392
 10
158.7823974009
 20
128.9597306705
 10
158.7769413446
 20
128.91655646
 10
158.7709149516
 20
128.8748149766
 10
158.764308696
 20
128.8344654908
 10
158.757145681
 20
128.7954806237
 10
158.7494517277
 20
128.757898902
 10
158.7411964546
 20
128.7217812435
 10
158.73238784
 20
128.6870817589
 10
158.7230438839
 20
128.6538590369
 10
158.7131299857
 20
128.6223340108
 10
158.702648755
 20
128.5924757154
 10
158.6916096177
 20
128.564330268
 10
158.6799744894
 20
128.5382375094
 10
158.6677311781
 20
128.514180412
 10
158.654893533
 20
128.4921947724
 10
158.6414562387
 20
128.4727017236
 10
158.6274067794
 20
128.4557646695
 10
158.6127612254
 20
128.4413401307
 10
158.5975610893
 20
128.4296878525
 10
158.5818272457
 20
128.42089932
 10
158.5655555927
 20
128.4148993847
 10
158.5487548632
 20
128.4116962825
  0
LWPOLYLINE
  5
451
100
AcDbEntity
  8
RACCORDO
100
AcDbPolyline
 62
253
  6
CONTINUOUS
 90
10
 70
0
 10
158.3633518249
 20
81.8294863064
 10
158.3624230421
 20
81.7868356594
 10
158.3579058658
 20
81.7464897611
 10
158.34984709
 20
81.7088665583
 10
158.3383301962
 20
81.6743557933
 10
158.323474489
 20
81.6433149661
 10
158.30543386
 20
81.6160656315
 10
158.2843951937
 20
81.5928900678
 10
158.2605764316
 20
81.5740283529
 10
158.2438075401
 20
81.5642212448
  0
LWPOLYLINE
  5
452
100
AcDbEntity
  8
RACCORDO
100
AcDbPolyline
 62
253
  6
CONTINUOUS
 90
10
 70
0
 10
159.0827304123
 20
82.1972310203
 10
159.0817220449
 20
82.1536724704
 10
159.0769695191
 20
82.1125290618
 10
159.0685242143
 20
82.0742456033
 10
159.0564774336
 20
82.0392359845
 10
159.0409594166
 20
82.0078787007
 10
159.0221379311
 20
81.9805127616
 10
159.0002164597
 20
81.9574340253
 10
158.9754319993
 20
81.9388920006
 10
158.9629541768
 20
81.9318467176
  0
LWPOLYLINE
  5
453
100
AcDbEntity
  8
RACCORDO
100
AcDbPolyline
 62
253
  6
CONTINUOUS
 90
6
 70
0
 10
158.052105938
 20
81.4298678935
 10
158.0525872042
 20
81.446974601
 10
158.0545276378
 20
81.463172126
 10
158.0579071493
 20
81.4782927738
 10
158.0626907503
 20
81.4921799987
 10
158.0627542618
 20
81.4923094399
  0
LWPOLYLINE
  5
454
100
AcDbEntity
  8
RACCORDO
100
AcDbPolyline
 62
253
  6
CONTINUOUS
 90
10
 70
0
 10
158.0740537761
 20
81.7203230727
 10
158.0728055218
 20
81.676360671
 10
158.0677639341
 20
81.6348515176
 10
158.05898431
 20
81.596250557
 10
158.0465629162
 20
81.5609808538
 10
158.0306359369
 20
81.5294289436
 10
158.0113779746
 20
81.5019406037
 10
157.9890001372
 20
81.4788170828
 10
157.963747719
 20
81.4603117786
 10
157.9517050841
 20
81.4536406643
  0
LWPOLYLINE
  5
455
100
AcDbEntity
  8
RACCORDO
100
AcDbPolyline
 62
253
  6
CONTINUOUS
 90
3
 70
0
 10
158.7592127192
 20
81.7985378137
 10
158.7597193282
 20
81.8159885756
 10
158.7612929226
 20
81.8288022494
  0
LWPOLYLINE
  5
456
100
AcDbEntity
  8
RACCORDO
100
AcDbPolyline
 62
7
  6
CONTINUOUS
 90
13
 70
0
 10
158.8324360239
 20
121.362707873
 10
158.833114041
 20
121.3828064613
 10
158.835299372
 20
121.4051534207
 10
158.8391866609
 20
121.4294771619
 10
158.8449410675
 20
121.4555246484
 10
158.8526460827
 20
121.4828459339
 10
158.8622593025
 20
121.5108169436
 10
158.8737361988
 20
121.5390369686
 10
158.8869664525
 20
121.567060025
 10
158.9016528425
 20
121.5942134441
 10
158.9175061606
 20
121.6200366167
 10
158.9342984212
 20
121.6442688579
 10
158.9517317573
 20
121.6666082275
  0
LWPOLYLINE
  5
457
100
AcDbEntity
  8
RACCORDO
100
AcDbPolyline
 62
253
  6
CONTINUOUS
 90
10
 70
0
 10
156.3550496632
 20
81.7929134375
 10
156.3538543624
 20
81.7671809339
 10
156.3502846245
 20
81.7406011175
 10
156.344388724
 20
81.7135334347
 10
156.3362463928
 20
81.6863439295
 10
156.3259677421
 20
81.6594002933
 10
156.313691773
 20
81.6330668926
 10
156.2995844968
 20
81.6076998414
 10
156.2838366903
 20
81.5836421856
 10
156.2666613155
 20
81.5612192637
  0
LWPOLYLINE
  5
458
100
AcDbEntity
  8
RACCORDO
100
AcDbPolyline
 62
253
  6
CONTINUOUS
 90
10
 70
0
 10
157.6985525474
 20
81.1211619954
 10
157.6973572467
 20
81.0954294918
 10
157.6937875087
 20
81.0688496754
 10
157.6878916082
 20
81.0417819926
 10
157.6797492771
 20
81.0145924874
 10
157.6694706264
 20
80.9876488512
 10
157.6571946572
 20
80.9613154505
 10
157.6430873811
 20
80.9359483993
 10
157.6273395745
 20
80.9118907435
 10
157.6101641998
 20
80.8894678215
  0
LINE
  5
459
100
AcDbEntity
  8
RACCORDO
100
AcDbLine
 62
253
  6
CONTINUOUS
 10
158.8321187801
 20
121.0280301277
 11
158.8324360231
 21
121.0340850385
  0
LWPOLYLINE
  5
45A
100
AcDbEntity
  8
RACCORDO
100
AcDbPolyline
 62
253
  6
CONTINUOUS
 90
8
 70
0
 10
157.3449991568
 20
79.6662946327
 10
157.3434868077
 20
79.6387910577
 10
157.338975637
 20
79.6132704256
 10
157.3315428322
 20
79.5901694015
 10
157.3213155705
 20
79.5698832504
 10
157.3084688432
 20
79.5527590739
 10
157.2932224615
 20
79.5390898714
 10
157.2800258604
 20
79.5310761826
  0
LWPOLYLINE
  5
45B
100
AcDbEntity
  8
RACCORDO
100
AcDbPolyline
 62
7
  6
CONTINUOUS
 90
6
 70
0
 10
155.5747195773
 20
80.7777483946
 10
155.5769868276
 20
80.8113361812
 10
155.5838243636
 20
80.844601032
 10
155.595185014
 20
80.8768134452
 10
155.6108935832
 20
80.9072799569
 10
155.632183269
 20
80.9372155115
  0
LWPOLYLINE
  5
45C
100
AcDbEntity
  8
RACCORDO
100
AcDbPolyline
 62
7
  6
CONTINUOUS
 90
6
 70
0
 10
159.5395428051
 20
122.4662612636
 10
159.5372755547
 20
122.4326734769
 10
159.5304380188
 20
122.3994086261
 10
159.5190773684
 20
122.3671962129
 10
159.5033687992
 20
122.3367297012
 10
159.4820791134
 20
122.3067941467
  0
LINE
  5
45D
100
AcDbEntity
  8
DRAFT
100
AcDbLine
 62
7
  6
CONTINUOUS
 10
156.5432925817
 20
99.9722484512
 11
158.3059435528
 21
118.103701294
  0
LWPOLYLINE
  5
45E
100
AcDbEntity
  8
RACCORDO
100
AcDbPolyline
 62
253
  6
CONTINUOUS
 90
7
 70
0
 10
159.5395428051
 20
122.8175752357
 10
159.5374040204
 20
122.8012594616
 10
159.5310242617
 20
122.785222855
 10
159.5205126882
 20
122.7697398066
 10
159.506049156
 20
122.7550752357
 10
159.4878811402
 20
122.741480057
 10
159.4663195004
 20
122.729186888
  0
LWPOLYLINE
  5
45F
100
AcDbEntity
  8
RACCORDO
100
AcDbPolyline
 62
253
  6
CONTINUOUS
 90
7
 70
0
 10
159.5395428051
 20
122.4662612636
 10
159.5374040204
 20
122.4499454896
 10
159.5310242617
 20
122.433908883
 10
159.5205126882
 20
122.4184258345
 10
159.506049156
 20
122.4037612636
 10
159.4878811402
 20
122.390166085
 10
159.4663195004
 20
122.3778729159
  0
LINE
  5
460
100
AcDbEntity
  8
0
100
AcDbLine
 62
7
  6
CONTINUOUS
 10
155.2148855407
 20
128.0471126917
 11
157.0621564444
 21
128.3645303609
  0
LWPOLYLINE
  5
461
100
AcDbEntity
  8
21814000
100
AcDbPolyline
 62
7
  6
CONTINUOUS
 90
7
 70
0
 10
158.65648758
 20
128.3941249589
 10
158.6355156338
 20
128.3912352268
 10
158.6157502851
 20
128.3906728091
 10
158.5971915336
 20
128.3924377058
 10
158.5798393795
 20
128.396529917
 10
158.5636938227
 20
128.4029494425
 10
158.5487548632
 20
128.4116962825
  0
LWPOLYLINE
  5
462
100
AcDbEntity
  8
RACCORDO
100
AcDbPolyline
 62
253
  6
CONTINUOUS
 90
4
 70
0
 10
156.211160164
 20
121.3568862799
 10
156.2296404392
 20
121.3491488203
 10
156.2478467496
 20
121.3445279901
 10
156.2654675805
 20
121.343102856
  0
LWPOLYLINE
  5
463
100
AcDbEntity
  8
RACCORDO
100
AcDbPolyline
 62
253
  6
CONTINUOUS
 90
16
 70
0
 10
144.1903448838
 20
127.0558983068
 10
144.2263815311
 20
127.0398193545
 10
144.2645072351
 20
127.0258783233
 10
144.3047219957
 20
127.0140752133
 10
144.3474847948
 20
127.0043463735
 10
144.3923366505
 20
126.9967554548
 10
144.437900617
 20
126.9914934104
 10
144.4841631941
 20
126.9886134368
 10
144.531137882
 20
126.9880623374
 10
144.577488236
 20
126.989871476
 10
144.6232526811
 20
126.9940979058
 10
144.6683927922
 20
127.0006845735
 10
144.7114568503
 20
127.0094916832
 10
144.7519609489
 20
127.0204726363
 10
144.7903889944
 20
127.0336740314
 10
144.8267409868
 20
127.0490958685
  0
LWPOLYLINE
  5
464
100
AcDbEntity
  8
RACCORDO
100
AcDbPolyline
 62
253
  6
CONTINUOUS
 90
16
 70
0
 10
157.6985525474
 20
120.618862675
 10
157.7181595861
 20
120.6100004289
 10
157.7394454473
 20
120.6021732479
 10
157.7621592597
 20
120.5954557846
 10
157.7860217316
 20
120.589907981
 10
157.8107769679
 20
120.5855744264
 10
157.8362013626
 20
120.5824929688
 10
157.8620040619
 20
120.5806875478
 10
157.8879197655
 20
120.5801672627
 10
157.9137644342
 20
120.5809487857
 10
157.9392787333
 20
120.5830289229
 10
157.9641585154
 20
120.5863897627
 10
157.9881504933
 20
120.5910228119
 10
158.010986663
 20
120.5968920342
 10
158.0323905598
 20
120.6039293833
 10
158.052105938
 20
120.6120602366
  0
LWPOLYLINE
  5
465
100
AcDbEntity
  8
RACCORDO
100
AcDbPolyline
 62
253
  6
CONTINUOUS
 90
16
 70
0
 10
144.334234383
 20
127.3010217572
 10
144.3538414217
 20
127.2921595111
 10
144.3751272828
 20
127.2843323301
 10
144.3978410953
 20
127.2776148669
 10
144.4217035671
 20
127.2720670632
 10
144.4464588035
 20
127.2677335086
 10
144.4718831982
 20
127.264652051
 10
144.4976858975
 20
127.26284663
 10
144.523601601
 20
127.2623263449
 10
144.5494462698
 20
127.2631078679
 10
144.5749605689
 20
127.2651880051
 10
144.599840351
 20
127.2685488449
 10
144.6238323289
 20
127.2731818941
 10
144.6466684986
 20
127.2790511165
 10
144.6680723954
 20
127.2860884655
 10
144.6877877736
 20
127.2942193189
  0
LWPOLYLINE
  5
466
100
AcDbEntity
  8
RACCORDO
100
AcDbPolyline
 62
253
  6
CONTINUOUS
 90
7
 70
0
 10
157.5546630482
 20
120.3737392246
 10
157.5812474252
 20
120.3615340016
 10
157.6090839333
 20
120.3505123463
 10
157.6381725724
 20
120.3406742589
 10
157.6685133426
 20
120.3320197392
 10
157.7001062438
 20
120.3245487873
 10
157.7329512761
 20
120.3182614033
  0
LINE
  5
467
100
AcDbEntity
  8
DRAFT
100
AcDbLine
 62
7
  6
CONTINUOUS
 10
158.3059435528
 20
118.103701294
 11
157.8225947334
 21
118.3453757037
  0
LINE
  5
468
100
AcDbEntity
  8
RACCORDO
100
AcDbLine
 62
7
  6
CONTINUOUS
 10
127.2814302734
 20
134.5164981429
 11
157.3336407871
 21
119.490392886
  0
LINE
  5
469
100
AcDbEntity
  8
ASSI
100
AcDbLine
 62
7
  6
CONTINUOUS
 10
127.2814302734
 20
134.5164981429
 11
157.3336407871
 21
119.490392886
  0
LINE
  5
46A
100
AcDbEntity
  8
26814000
100
AcDbLine
 62
7
  6
CONTINUOUS
 10
125.843392055
 20
135.2939964134
 11
141.6118732754
 21
127.4097558031
  0
LINE
  5
46B
100
AcDbEntity
  8
DRAFT
100
AcDbLine
 62
7
  6
CONTINUOUS
 10
157.8383014584
 20
119.5676581134
 11
142.1438758066
 21
127.4148709393
  0
LINE
  5
46C
100
AcDbEntity
  8
26814000
100
AcDbLine
 62
7
  6
CONTINUOUS
 10
141.364385902
 20
127.8610154283
 11
126.0908794284
 21
135.4977686652
  0
LINE
  5
46D
100
AcDbEntity
  8
RACCORDO
100
AcDbLine
 62
7
  6
CONTINUOUS
 10
157.4845865077
 20
120.2035957984
 11
142.4975907573
 21
127.6970936736
  0
LINE
  5
46E
100
AcDbEntity
  8
RACCORDO
100
AcDbLine
 62
253
  6
CONTINUOUS
 10
142.8468419995
 20
127.7276497489
 11
144.1903448838
 21
127.0558983068
  0
LINE
  5
46F
100
AcDbEntity
  8
RACCORDO
100
AcDbLine
 62
253
  6
CONTINUOUS
 10
156.211160164
 20
121.0454906667
 11
157.5546630482
 21
120.3737392246
  0
LINE
  5
470
100
AcDbEntity
  8
26814000
100
AcDbLine
 62
7
  6
CONTINUOUS
 10
141.9239005866
 20
128.2959225564
 11
140.3098964706
 21
129.1029246144
  0
LINE
  5
471
100
AcDbEntity
  8
26814000
100
AcDbLine
 62
7
  6
CONTINUOUS
 10
128.5595824222
 20
134.9780816387
 11
126.9455783062
 21
135.7850836967
  0
LINE
  5
472
100
AcDbEntity
  8
RACCORDO
100
AcDbLine
 62
253
  6
CONTINUOUS
 10
142.9907314988
 20
127.9727731993
 11
144.334234383
 21
127.3010217572
  0
LINE
  5
473
100
AcDbEntity
  8
RACCORDO
100
AcDbLine
 62
253
  6
CONTINUOUS
 10
156.3550496632
 20
121.2906141171
 11
157.6985525474
 21
120.618862675
  0
LINE
  5
474
100
AcDbEntity
  8
26814000
100
AcDbLine
 62
7
  6
CONTINUOUS
 10
131.892038303
 20
133.6691859335
 11
137.684547371
 21
130.7729313994
  0
LINE
  5
475
100
AcDbEntity
  8
RACCORDO
100
AcDbLine
 62
7
  6
CONTINUOUS
 10
147.9384484875
 20
125.6686550601
 11
153.4579423399
 21
122.9089081338
  0
LINE
  5
476
100
AcDbEntity
  8
26814000
100
AcDbLine
 62
7
  6
CONTINUOUS
 10
126.3071800979
 20
136.5566137764
 11
127.9137136609
 21
135.7533469949
  0
LINE
  5
477
100
AcDbEntity
  8
26814000
100
AcDbLine
 62
7
  6
CONTINUOUS
 10
139.6714982623
 20
129.8744546942
 11
141.2780318254
 21
129.0711879127
  0
LINE
  5
478
100
AcDbEntity
  8
RACCORDO
100
AcDbLine
 62
7
  6
CONTINUOUS
 10
142.348598014
 20
128.5359048184
 11
143.6921008982
 21
127.8641533763
  0
LINE
  5
479
100
AcDbEntity
  8
RACCORDO
100
AcDbLine
 62
7
  6
CONTINUOUS
 10
155.7129161784
 20
121.8537457362
 11
157.0565102955
 21
121.1819487396
  0
LINE
  5
47A
100
AcDbEntity
  8
RACCORDO
100
AcDbLine
 62
253
  6
CONTINUOUS
 10
157.6985525474
 20
120.9207661348
 11
157.2898894797
 21
121.1250976686
  0
LINE
  5
47B
100
AcDbEntity
  8
RACCORDO
100
AcDbLine
 62
253
  6
CONTINUOUS
 10
144.334234383
 20
127.602925217
 11
143.9255713153
 21
127.8072567508
  0
LINE
  5
47C
100
AcDbEntity
  8
26814000
100
AcDbLine
 62
253
  6
CONTINUOUS
 10
126.2425853519
 20
136.6916429513
 11
127.8483618141
 21
135.8887547202
  0
LINE
  5
47D
100
AcDbEntity
  8
26814000
100
AcDbLine
 62
253
  6
CONTINUOUS
 10
139.6069035163
 20
130.0094838691
 11
141.2126799785
 21
129.206595638
  0
LINE
  5
47E
100
AcDbEntity
  8
RACCORDO
100
AcDbLine
 62
253
  6
CONTINUOUS
 10
142.2836247176
 20
128.6711232685
 11
143.6271276018
 21
127.9993718264
  0
LINE
  5
47F
100
AcDbEntity
  8
RACCORDO
100
AcDbLine
 62
253
  6
CONTINUOUS
 10
155.647942882
 20
121.9889641863
 11
156.9914457662
 21
121.3172127442
  0
LINE
  5
480
100
AcDbEntity
  8
RACCORDO
100
AcDbLine
 62
253
  6
CONTINUOUS
 10
142.9730918906
 20
127.9825342765
 11
142.9907314988
 21
127.9727731993
  0
LINE
  5
481
100
AcDbEntity
  8
RACCORDO
100
AcDbLine
 62
253
  6
CONTINUOUS
 10
156.337410055
 20
121.3003751943
 11
156.3550496632
 21
121.2906141171
  0
LWPOLYLINE
  5
482
100
AcDbEntity
  8
RACCORDO
100
AcDbPolyline
 62
7
  6
CONTINUOUS
 90
7
 70
0
 10
142.3487055735
 20
128.5358511248
 10
142.3282189643
 20
128.5473151997
 10
142.3058387493
 20
128.5630171336
 10
142.2851692358
 20
128.5812037808
 10
142.2666137018
 20
128.6015677203
 10
142.250385651
 20
128.6238894212
 10
142.2365976391
 20
128.64810304
  0
LWPOLYLINE
  5
483
100
AcDbEntity
  8
RACCORDO
100
AcDbPolyline
 62
253
  6
CONTINUOUS
 90
5
 70
0
 10
144.2748760801
 20
127.7349133653
 10
144.2787692166
 20
127.7326736467
 10
144.2928764928
 20
127.7214138717
 10
144.305152462
 20
127.7073564401
 10
144.3154311127
 20
127.6906914546
  0
LWPOLYLINE
  5
484
100
AcDbEntity
  8
RACCORDO
100
AcDbPolyline
 62
253
  6
CONTINUOUS
 90
13
 70
0
 10
144.8267409868
 20
127.0490958685
 10
144.808302911
 20
127.0598175895
 10
144.7902225464
 20
127.0733401098
 10
144.772809253
 20
127.0894320552
 10
144.7563609772
 20
127.1078180883
 10
144.7411591534
 20
127.1281836187
 10
144.7274638892
 20
127.1501801867
 10
144.7155095142
 20
127.1734314249
 10
144.7055005712
 20
127.1975394982
 10
144.6976083159
 20
127.2220919107
 10
144.6919677871
 20
127.2466685638
 10
144.6886754956
 20
127.2708489442
 10
144.6877877736
 20
127.2942193189
  0
LWPOLYLINE
  5
485
100
AcDbEntity
  8
RACCORDO
100
AcDbPolyline
 62
253
  6
CONTINUOUS
 90
13
 70
0
 10
145.533847768
 20
127.3875327294
 10
145.5154097232
 20
127.3982544298
 10
145.4973293817
 20
127.4117769254
 10
145.4799161029
 20
127.4278688461
 10
145.4634678326
 20
127.4462548581
 10
145.4482660066
 20
127.466620374
 10
145.4345707343
 20
127.4886169348
 10
145.4226163468
 20
127.5118681749
 10
145.412607389
 20
127.5359762594
 10
145.4047151195
 20
127.5605286899
 10
145.3990745789
 20
127.5851053662
 10
145.3957822794
 20
127.6092857744
 10
145.3948945548
 20
127.6326561798
  0
LWPOLYLINE
  5
486
100
AcDbEntity
  8
RACCORDO
100
AcDbPolyline
 62
253
  6
CONTINUOUS
 90
16
 70
0
 10
157.7329479725
 20
120.3182598754
 10
157.7692474443
 20
120.2970746369
 10
157.805073909
 20
120.2713418544
 10
157.8400348375
 20
120.2413452503
 10
157.8737452961
 20
120.2074161332
 10
157.9058385401
 20
120.1699269101
 10
157.9359693441
 20
120.1292856464
 10
157.9638093461
 20
120.085936212
 10
157.989051479
 20
120.0403547467
 10
158.0114192256
 20
119.9930407018
 10
158.0306674373
 20
119.9445124791
 10
158.0465851591
 20
119.8953018002
 10
158.0589980482
 20
119.845947907
 10
158.0677700715
 20
119.7969915832
 10
158.0728049998
 20
119.7489692296
 10
158.0740475951
 20
119.7024070323
  0
LWPOLYLINE
  5
487
100
AcDbEntity
  8
RACCORDO
100
AcDbPolyline
 62
7
  6
CONTINUOUS
 90
4
 70
0
 10
145.4801347784
 20
127.6728460347
 10
145.4804746907
 20
127.6724942429
 10
145.4802843907
 20
127.6727630322
 10
145.4782812736
 20
127.6757459859
  0
LINE
  5
488
100
AcDbEntity
  8
21814000
100
AcDbLine
 62
253
  6
CONTINUOUS
 10
148.8525092527
 20
135.3982517896
 11
149.2670867644
 21
134.3226732494
  0
LINE
  5
489
100
AcDbEntity
  8
0
100
AcDbLine
 62
7
  6
CONTINUOUS
 10
150.4117910926
 20
132.8226082014
 11
150.2102917347
 21
133.4183326272
  0
LWPOLYLINE
  5
48A
100
AcDbEntity
  8
RACCORDO
100
AcDbPolyline
 62
7
  6
CONTINUOUS
 90
10
 70
0
 10
159.5395428051
 20
122.8175752357
 10
159.5374818373
 20
122.8496058746
 10
159.5312467213
 20
122.8814425988
 10
159.5208445054
 20
122.9124410536
 10
159.5063831642
 20
122.9419948627
 10
159.4881184282
 20
122.9694558356
 10
159.466430594
 20
122.9942407675
 10
159.4415544113
 20
123.0160505354
 10
159.4140156947
 20
123.0343850573
 10
159.4013622558
 20
123.0411740056
  0
LINE
  5
48B
100
AcDbEntity
  8
RACCORDO
100
AcDbLine
 62
7
  6
CONTINUOUS
 10
159.9966495863
 20
82.6890405553
 11
159.9966495863
 21
120.5903244419
  0
LINE
  5
48C
100
AcDbEntity
  8
RACCORDO
100
AcDbLine
 62
7
  6
CONTINUOUS
 10
160.1408447798
 20
125.7953691777
 11
160.1408447798
 21
126.6957242783
  0
LWPOLYLINE
  5
48D
100
AcDbEntity
  8
RACCORDO
100
AcDbPolyline
 62
253
  6
CONTINUOUS
 90
10
 70
0
 10
159.3585378689
 20
82.3675198742
 10
159.357289249
 20
82.3235603717
 10
159.3522478578
 20
82.2820535148
 10
159.3434689321
 20
82.243454178
 10
159.3310486692
 20
82.2081853721
 10
159.3151231724
 20
82.1766336077
 10
159.2958669595
 20
82.1491446598
 10
159.2734910501
 20
82.1260197785
 10
159.2482406532
 20
82.107512387
 10
159.2361819784
 20
82.1008315867
  0
LWPOLYLINE
  5
48E
100
AcDbEntity
  8
RACCORDO
100
AcDbPolyline
 62
253
  6
CONTINUOUS
 90
8
 70
0
 10
159.4663195004
 20
80.7269548045
 10
159.4648071513
 20
80.6994512295
 10
159.4602959806
 20
80.6739305974
 10
159.4528631757
 20
80.6508295733
 10
159.442635914
 20
80.6305434222
 10
159.4297891868
 20
80.6134192457
 10
159.4145428051
 20
80.5997500432
 10
159.401346204
 20
80.5917363544
  0
LINE
  5
48F
100
AcDbEntity
  8
RACCORDO
100
AcDbLine
 62
253
  6
CONTINUOUS
 10
158.8302972393
 20
81.5467879596
 11
158.8324360239
 21
81.5631037336
  0
LWPOLYLINE
  5
490
100
AcDbEntity
  8
RACCORDO
100
AcDbPolyline
 62
7
  6
CONTINUOUS
 90
3
 70
0
 10
144.540287244
 20
130.4180282031
 10
144.5092797133
 20
130.4107599759
 10
144.4793196627
 20
130.3995509909
  0
LWPOLYLINE
  5
491
100
AcDbEntity
  8
RACCORDO
100
AcDbPolyline
 62
253
  6
CONTINUOUS
 90
4
 70
0
 10
142.9087380118
 20
128.0256650576
 10
142.9214732736
 20
128.027896462
 10
142.9334614522
 20
128.0320489787
 10
142.935654255
 20
128.0330566537
  0
LINE
  5
492
100
AcDbEntity
  8
RACCORDO
100
AcDbLine
 62
253
  6
CONTINUOUS
 10
142.8953875167
 20
128.0253778591
 11
142.9087380118
 21
128.0256650576
  0
LWPOLYLINE
  5
493
100
AcDbEntity
  8
RACCORDO
100
AcDbPolyline
 62
253
  6
CONTINUOUS
 90
4
 70
0
 10
145.4804906994
 20
127.6862892034
 10
145.4641849962
 20
127.6882934549
 10
145.4490862372
 20
127.6933940514
 10
145.4468731919
 20
127.6944556767
  0
LINE
  5
494
100
AcDbEntity
  8
RACCORDO
100
AcDbLine
 62
7
  6
CONTINUOUS
 10
143.7532035445
 20
127.842955285
 11
144.2835336304
 21
127.7331203279
  0
LINE
  5
495
100
AcDbEntity
  8
RACCORDO
100
AcDbLine
 62
253
  6
CONTINUOUS
 10
143.9806809924
 20
127.9993718264
 11
144.5110110783
 21
127.8895368693
  0
LINE
  5
496
100
AcDbEntity
  8
26814000
100
AcDbLine
 62
7
  6
CONTINUOUS
 10
141.9239005866
 20
128.9330921152
 11
141.3015825545
 21
129.0630326977
  0
LWPOLYLINE
  5
497
100
AcDbEntity
  8
RACCORDO
100
AcDbPolyline
 62
7
  6
CONTINUOUS
 90
3
 70
0
 10
157.9874744332
 20
123.7358691209
 10
158.018481964
 20
123.7286008937
 10
158.0484420145
 20
123.7173919087
  0
LWPOLYLINE
  5
498
100
AcDbEntity
  8
RACCORDO
100
AcDbPolyline
 62
253
  6
CONTINUOUS
 90
7
 70
0
 10
158.0578179597
 20
123.7129461507
 10
158.0529658832
 20
123.7151998033
 10
158.0335188352
 20
123.7212048054
 10
158.0127008895
 20
123.7231801605
 10
157.9909485414
 20
123.721184483
 10
157.9686006871
 20
123.7153429865
 10
157.9460399208
 20
123.7058330287
  0
LWPOLYLINE
  5
499
100
AcDbEntity
  8
RACCORDO
100
AcDbPolyline
 62
7
  6
CONTINUOUS
 90
25
 70
0
 10
153.4579423399
 20
124.1062271695
 10
153.482104701
 20
124.0949357759
 10
153.5074605856
 20
124.0845388928
 10
153.5340099935
 20
124.0750365201
 10
153.5618773866
 20
124.0663954812
 10
153.5909383031
 20
124.0586489528
 10
153.620819358
 20
124.051896465
 10
153.651531134
 20
124.0461508445
 10
153.6830630486
 20
124.0413992647
 10
153.7150099683
 20
124.0377027755
 10
153.7473772482
 20
124.0350749913
 10
153.7801595333
 20
124.0335022978
 10
153.8129356251
 20
124.0330049014
 10
153.8457054438
 20
124.0335966774
 10
153.8784690691
 20
124.0352637505
 10
153.9108055425
 20
124.0379847016
 10
153.942709352
 20
124.0417731296
 10
153.9741860096
 20
124.0466154355
 10
154.0048310918
 20
124.0524494037
 10
154.0346338685
 20
124.0592878303
 10
154.0636050698
 20
124.0671179192
 10
154.0913724636
 20
124.0758390667
 10
154.1178119723
 20
124.0854177381
 10
154.1430476735
 20
124.0958874681
 10
154.167079567
 20
124.1072482566
  0
LWPOLYLINE
  5
49A
100
AcDbEntity
  8
RACCORDO
100
AcDbPolyline
 62
253
  6
CONTINUOUS
 90
7
 70
0
 10
159.4013445364
 20
123.0411828672
 10
159.3975978075
 20
123.0429537645
 10
159.3782997914
 20
123.0491923361
 10
159.3574738544
 20
123.0514233729
 10
159.335484137
 20
123.0496130943
 10
159.312709202
 20
123.0437976129
 10
159.2895428051
 20
123.0340815866
  0
LINE
  5
49B
100
AcDbEntity
  8
RACCORDO
100
AcDbLine
 62
7
  6
CONTINUOUS
 10
158.0484420145
 20
123.7173919087
 11
158.0580049499
 21
123.7128524655
  0
LINE
  5
49C
100
AcDbEntity
  8
26814000
100
AcDbLine
 62
253
  6
CONTINUOUS
 10
141.2126799785
 20
129.4599670318
 11
139.6069035163
 21
130.2628552629
  0
LINE
  5
49D
100
AcDbEntity
  8
26814000
100
AcDbLine
 62
253
  6
CONTINUOUS
 10
127.8483618141
 20
136.142126114
 11
126.2425853519
 21
136.9450143451
  0
LINE
  5
49E
100
AcDbEntity
  8
RACCORDO
100
AcDbLine
 62
253
  6
CONTINUOUS
 10
142.2836247176
 20
129.0224372406
 11
143.6271276018
 21
128.3506857985
  0
LINE
  5
49F
100
AcDbEntity
  8
RACCORDO
100
AcDbLine
 62
253
  6
CONTINUOUS
 10
155.647942882
 20
122.3402781584
 11
156.9914457662
 21
121.6685267162
  0
LINE
  5
4A0
100
AcDbEntity
  8
26814000
100
AcDbLine
 62
7
  6
CONTINUOUS
 10
129.6264133343
 20
135.5166628882
 11
131.8041703373
 21
134.4277843867
  0
LINE
  5
4A1
100
AcDbEntity
  8
26814000
100
AcDbLine
 62
7
  6
CONTINUOUS
 10
138.6066694554
 20
131.0265348276
 11
139.6877914065
 21
130.4859738521
  0
LINE
  5
4A2
100
AcDbEntity
  8
26814000
100
AcDbLine
 62
253
  6
CONTINUOUS
 10
141.3894507079
 20
129.76383261
 11
139.7816292989
 21
130.5677433146
  0
LINE
  5
4A3
100
AcDbEntity
  8
26814000
100
AcDbLine
 62
253
  6
CONTINUOUS
 10
128.0251325435
 20
136.4459916922
 11
126.4173111344
 21
137.2499023968
  0
LINE
  5
4A4
100
AcDbEntity
  8
RACCORDO
100
AcDbLine
 62
253
  6
CONTINUOUS
 10
158.8981659325
 20
121.0167692604
 11
158.8386175743
 21
121.0465434394
  0
LINE
  5
4A5
100
AcDbEntity
  8
RACCORDO
100
AcDbLine
 62
253
  6
CONTINUOUS
 10
145.533847768
 20
127.6989283426
 11
145.4742994221
 21
127.7287025156
  0
LINE
  5
4A6
100
AcDbEntity
  8
RACCORDO
100
AcDbLine
 62
253
  6
CONTINUOUS
 10
142.4604014129
 20
129.3273319392
 11
143.8039042971
 21
128.6555804971
  0
LINE
  5
4A7
100
AcDbEntity
  8
RACCORDO
100
AcDbLine
 62
253
  6
CONTINUOUS
 10
155.8247195773
 20
122.645172857
 11
157.1682224615
 21
121.9734214148
  0
LINE
  5
4A8
100
AcDbEntity
  8
26814000
100
AcDbLine
 62
7
  6
CONTINUOUS
 10
131.892038303
 20
134.8841407996
 11
137.684547371
 21
131.9878862655
  0
LINE
  5
4A9
100
AcDbEntity
  8
RACCORDO
100
AcDbLine
 62
7
  6
CONTINUOUS
 10
147.9384484875
 20
126.8659740957
 11
153.4579423399
 21
124.1062271695
  0
LINE
  5
4AA
100
AcDbEntity
  8
RACCORDO
100
AcDbLine
 62
7
  6
CONTINUOUS
 10
145.5274661333
 20
128.2581267402
 11
146.9381868786
 21
127.5527663676
  0
LINE
  5
4AB
100
AcDbEntity
  8
RACCORDO
100
AcDbLine
 62
7
  6
CONTINUOUS
 10
158.8917842978
 20
121.575967658
 11
159.6429346356
 21
121.2003924891
  0
LINE
  5
4AC
100
AcDbEntity
  8
26814000
100
AcDbLine
 62
7
  6
CONTINUOUS
 10
131.1576874513
 20
135.4505749216
 11
129.6752094479
 21
136.1918139234
  0
LINE
  5
4AD
100
AcDbEntity
  8
26814000
100
AcDbLine
 62
7
  6
CONTINUOUS
 10
132.384129781
 20
135.3502402302
 11
138.6066694554
 21
132.2389703929
  0
LINE
  5
4AE
100
AcDbEntity
  8
26814000
100
AcDbLine
 62
7
  6
CONTINUOUS
 10
128.0000677376
 20
138.0618864941
 11
129.6264133343
 21
137.2487136957
  0
LINE
  5
4AF
100
AcDbEntity
  8
26814000
100
AcDbLine
 62
7
  6
CONTINUOUS
 10
141.364385902
 20
131.3797274119
 11
142.9907314988
 21
130.5665546135
  0
LINE
  5
4B0
100
AcDbEntity
  8
26814000
100
AcDbLine
 62
7
  6
CONTINUOUS
 10
133.7276326652
 20
135.3805571808
 11
138.6773801335
 21
132.9056834466
  0
LINE
  5
4B1
100
AcDbEntity
  8
0
100
AcDbLine
 62
7
  6
CONTINUOUS
 10
149.6375352419
 20
127.4306442809
 11
154.5872827102
 21
124.9557705467
  0
LINE
  5
4B2
100
AcDbEntity
  8
26814000
100
AcDbLine
 62
253
  6
CONTINUOUS
 10
128.5345176163
 20
138.3222339607
 11
130.1546805061
 21
137.5121525158
  0
LINE
  5
4B3
100
AcDbEntity
  8
26814000
100
AcDbLine
 62
253
  6
CONTINUOUS
 10
141.8988357807
 20
131.6400748785
 11
143.5189986705
 21
130.8299934336
  0
LINE
  5
4B4
100
AcDbEntity
  8
26814000
100
AcDbLine
 62
7
  6
CONTINUOUS
 10
128.6459352316
 20
138.3285025239
 11
130.2648128098
 21
137.5190637348
  0
LINE
  5
4B5
100
AcDbEntity
  8
26814000
100
AcDbLine
 62
7
  6
CONTINUOUS
 10
142.0102533961
 20
131.6463434417
 11
143.6291309742
 21
130.8369046526
  0
LINE
  5
4B6
100
AcDbEntity
  8
RACCORDO
100
AcDbLine
 62
253
  6
CONTINUOUS
 10
144.5817217564
 20
130.387992111
 11
145.9252246407
 21
129.7162406688
  0
LINE
  5
4B7
100
AcDbEntity
  8
RACCORDO
100
AcDbLine
 62
253
  6
CONTINUOUS
 10
157.9460399208
 20
123.7058330287
 11
159.2895428051
 21
123.0340815866
  0
LWPOLYLINE
  5
4B8
100
AcDbEntity
  8
21814000
100
AcDbPolyline
 62
253
  6
CONTINUOUS
 90
15
 70
0
 10
138.8761805679
 20
133.8673234755
 10
138.9097625443
 20
133.8480803495
 10
138.9390791324
 20
133.8264569466
 10
138.9641303321
 20
133.8024532669
 10
138.9851195242
 20
133.7758209182
 10
139.0018433278
 20
133.7468082926
 10
139.013691601
 20
133.7161605662
 10
139.0205483946
 20
133.6838006186
 10
139.0225296577
 20
133.6498055701
 10
139.0193730948
 20
133.6151519578
 10
139.0109103556
 20
133.5797858692
 10
138.9973097904
 20
133.5437612168
 10
138.9788141557
 20
133.5082162759
 10
138.9555043701
 20
133.4735304714
 10
138.9272995149
 20
133.4393243783
  0
LWPOLYLINE
  5
4B9
100
AcDbEntity
  8
RACCORDO
100
AcDbPolyline
 62
253
  6
CONTINUOUS
 90
5
 70
0
 10
157.6391942445
 20
121.0527542831
 10
157.6430873811
 20
121.0505145645
 10
157.6571946572
 20
121.0392547895
 10
157.6694706264
 20
121.0251973579
 10
157.6797492771
 20
121.0085323724
  0
LWPOLYLINE
  5
4BA
100
AcDbEntity
  8
RACCORDO
100
AcDbPolyline
 62
253
  6
CONTINUOUS
 90
13
 70
0
 10
143.8039042971
 20
128.6555804971
 10
143.826978286
 20
128.6421912607
 10
143.8496574726
 20
128.6253266343
 10
143.8715538096
 20
128.6052751761
 10
143.8922926448
 20
128.5823799723
 10
143.9115191308
 20
128.557032766
 10
143.9289042971
 20
128.529667255
 10
143.9441506788
 20
128.5007516708
 10
143.956997406
 20
128.4707807671
 10
143.9672246677
 20
128.4402673543
 10
143.9746574726
 20
128.4097335254
 10
143.9791686433
 20
128.3797017226
 10
143.9806809924
 20
128.3506857985
  0
LWPOLYLINE
  5
4BB
100
AcDbEntity
  8
RACCORDO
100
AcDbPolyline
 62
253
  6
CONTINUOUS
 90
13
 70
0
 10
157.1682224615
 20
121.9734214148
 10
157.1913888584
 20
121.9599710443
 10
157.2141637934
 20
121.9430115906
 10
157.2361535108
 20
121.9228321519
 10
157.2569794479
 20
121.899775178
 10
157.276277464
 20
121.8742385903
 10
157.293706125
 20
121.8466716759
 10
157.3089947549
 20
121.8174859412
 10
157.3218370427
 20
121.787247125
 10
157.3319488041
 20
121.756694572
 10
157.3391996992
 20
121.7264280478
 10
157.3435536106
 20
121.6968806721
 10
157.3449991568
 20
121.6685267162
  0
LWPOLYLINE
  5
4BC
100
AcDbEntity
  8
RACCORDO
100
AcDbPolyline
 62
253
  6
CONTINUOUS
 90
13
 70
0
 10
145.9252246407
 20
129.7162406688
 10
145.9483910376
 20
129.7027902983
 10
145.9711659726
 20
129.6858308446
 10
145.9931556899
 20
129.6656514058
 10
146.013981627
 20
129.642594432
 10
146.0332796431
 20
129.6170578443
 10
146.0507083041
 20
129.5894909298
 10
146.065996934
 20
129.5603051952
 10
146.0788392219
 20
129.530066379
 10
146.0889509833
 20
129.499513826
 10
146.0962018783
 20
129.4692473018
 10
146.1005557897
 20
129.4396999261
 10
146.102001336
 20
129.4113459702
  0
LWPOLYLINE
  5
4BD
100
AcDbEntity
  8
RACCORDO
100
AcDbPolyline
 62
253
  6
CONTINUOUS
 90
16
 70
0
 10
159.0173895228
 20
120.9114940446
 10
159.053668676
 20
120.8903168025
 10
159.0894825542
 20
120.8645925859
 10
159.124438623
 20
120.8346033433
 10
159.1581537497
 20
120.8006777694
 10
159.1902584029
 20
120.7631877029
 10
159.2204007026
 20
120.7225440507
 10
159.2482502771
 20
120.6791922844
 10
159.2735018839
 20
120.6336075577
 10
159.2958787553
 20
120.5862894982
 10
159.3151356319
 20
120.5377567319
 10
159.3310614507
 20
120.4885411984
 10
159.3434816586
 20
120.4391823206
 10
159.3522601254
 20
120.3902210925
 10
159.3573006358
 20
120.3421941498
 10
159.3585479442
 20
120.295627888
  0
LWPOLYLINE
  5
4BE
100
AcDbEntity
  8
21814000
100
AcDbPolyline
 62
253
  6
CONTINUOUS
 90
9
 70
0
 10
138.7737402204
 20
133.649607892
 10
138.7936213968
 20
133.6379939012
 10
138.8112831285
 20
133.6242494192
 10
138.8265347035
 20
133.6084847338
 10
138.8391992872
 20
133.5907909714
 10
138.849142983
 20
133.5713266863
 10
138.8562575962
 20
133.5503133343
 10
138.8604340129
 20
133.5278487211
 10
138.8616081496
 20
133.5072469701
  0
LWPOLYLINE
  5
4BF
100
AcDbEntity
  8
21814000
100
AcDbPolyline
 62
253
  6
CONTINUOUS
 90
13
 70
0
 10
137.4296562755
 20
134.1378696539
 10
137.4473672112
 20
134.126747778
 10
137.4654353246
 20
134.1133432899
 10
137.4835570858
 20
134.0978814219
 10
137.5014280712
 20
134.0806219625
 10
137.5187480909
 20
134.0618548782
 10
137.5352262294
 20
134.0418954375
 10
137.5505856994
 20
134.0210789534
 10
137.5645685364
 20
133.9997550947
 10
137.5769399291
 20
133.9782819929
 10
137.5874921029
 20
133.957020317
 10
137.5960478236
 20
133.9363272176
 10
137.6024634071
 20
133.9165502674
  0
LWPOLYLINE
  5
4C0
100
AcDbEntity
  8
RACCORDO
100
AcDbPolyline
 62
253
  6
CONTINUOUS
 90
13
 70
0
 10
158.8534230436
 20
120.7368205318
 10
158.8398373587
 20
120.7502984173
 10
158.8269085937
 20
120.7651754337
 10
158.814776445
 20
120.7812908319
 10
158.8035720028
 20
120.7984704796
 10
158.7934163298
 20
120.8165287503
 10
158.7844191544
 20
120.8352705305
 10
158.7766776914
 20
120.854493317
 10
158.7702755907
 20
120.8739894023
 10
158.765282029
 20
120.8935481277
 10
158.7617509628
 20
120.9129581585
 10
158.7597205464
 20
120.9320097669
 10
158.7592127192
 20
120.9504970976
  0
LWPOLYLINE
  5
4C1
100
AcDbEntity
  8
RACCORDO
100
AcDbPolyline
 62
253
  6
CONTINUOUS
 90
13
 70
0
 10
158.8534232495
 20
120.7368214294
 10
158.8867148882
 20
120.7027983392
 10
158.9183695132
 20
120.6652784831
 10
158.9480448929
 20
120.6246674963
 10
158.9754201952
 20
120.5814044335
 10
159.0001994564
 20
120.5359570225
 10
159.0221147812
 20
120.4888166074
 10
159.040929239
 20
120.4404928368
 10
159.0564394257
 20
120.391508154
 10
159.068477663
 20
120.3423921486
 10
159.0769138114
 20
120.293675831
 10
159.0816566769
 20
120.2458858918
 10
159.0826549974
 20
120.1995390073
  0
LWPOLYLINE
  5
4C2
100
AcDbEntity
  8
RACCORDO
100
AcDbPolyline
 62
253
  6
CONTINUOUS
 90
13
 70
0
 10
158.1428116787
 20
120.401665778
 10
158.1296632979
 20
120.4151985042
 10
158.1171735423
 20
120.4300383573
 10
158.1054719664
 20
120.4460323819
 10
158.0946795314
 20
120.4630164605
 10
158.0849090557
 20
120.4808143697
 10
158.0762634834
 20
120.4992392107
 10
158.0688327052
 20
120.5180991792
 10
158.0626931908
 20
120.537199915
 10
158.0579085174
 20
120.556343622
 10
158.0545282322
 20
120.5753320593
 10
158.0525873395
 20
120.5939685939
 10
158.052105938
 20
120.6120602366
  0
LWPOLYLINE
  5
4C3
100
AcDbEntity
  8
RACCORDO
100
AcDbPolyline
 62
253
  6
CONTINUOUS
 90
13
 70
0
 10
158.1428116787
 20
120.401665778
 10
158.1750353661
 20
120.3674916635
 10
158.2056118261
 20
120.3300540691
 10
158.2342243145
 20
120.2897408143
 10
158.2605764317
 20
120.2469695078
 10
158.2843951938
 20
120.2021832214
 10
158.3054338602
 20
120.1558459005
 10
158.3234744892
 20
120.1084375576
 10
158.3383301964
 20
120.0604492999
 10
158.3498470902
 20
120.0123782423
 10
158.357905866
 20
119.9647223573
 10
158.3624230422
 20
119.9179753164
 10
158.3633518249
 20
119.8726213767
  0
LWPOLYLINE
  5
4C4
100
AcDbEntity
  8
26814000
100
AcDbPolyline
 62
7
  6
CONTINUOUS
 90
20
 70
0
 10
148.8611591047
 20
132.4001049943
 10
148.859758953
 20
132.402236059
 10
148.8580125267
 20
132.4045445065
 10
148.8559309169
 20
132.4070341455
 10
148.8535259524
 20
132.4097115883
 10
148.8508058605
 20
132.4125468043
 10
148.8477809293
 20
132.4155433307
 10
148.8444624279
 20
132.4187064089
 10
148.840858271
 20
132.4220084013
 10
148.8369784141
 20
132.4254523841
 10
148.8328337426
 20
132.4290426284
 10
148.8284325099
 20
132.432753128
 10
148.8237841714
 20
132.4365867199
 10
148.8188997175
 20
132.4405465935
 10
148.8137893291
 20
132.4446070138
 10
148.808462454
 20
132.448770229
 10
148.8029302507
 20
132.4530386005
 10
148.7972057795
 20
132.4573861
 10
148.7913005961
 20
132.4618049822
 10
148.7789875444
 20
132.4708900718
  0
LINE
  5
4C5
100
AcDbEntity
  8
21814000
100
AcDbLine
 62
7
  6
CONTINUOUS
 10
150.1976832681
 20
130.5938396229
 11
149.4449891842
 21
131.8920448839
  0
LWPOLYLINE
  5
4C6
100
AcDbEntity
  8
RACCORDO
100
AcDbPolyline
 62
253
  6
CONTINUOUS
 90
5
 70
0
 10
157.6797492771
 20
121.0085323724
 10
157.6878916082
 20
120.9894851983
 10
157.6937875087
 20
120.968313416
 10
157.6973572467
 20
120.9453033376
 10
157.6985525474
 20
120.9207661348
  0
LINE
  5
4C7
100
AcDbEntity
  8
RACCORDO
100
AcDbLine
 62
7
  6
CONTINUOUS
 10
164.195259669
 20
123.9645630816
 11
164.195259669
 21
123.0696002181
  0
LINE
  5
4C8
100
AcDbEntity
  8
RACCORDO
100
AcDbLine
 62
7
  6
CONTINUOUS
 10
164.195259669
 20
90.1532903201
 11
164.195259669
 21
88.51151433
  0
LWPOLYLINE
  5
4C9
100
AcDbEntity
  8
RACCORDO
100
AcDbPolyline
 62
7
  6
CONTINUOUS
 90
8
 70
0
 10
164.195259669
 20
123.0696002181
 10
164.1923363772
 20
123.0173702577
 10
164.1851901747
 20
122.9697839406
 10
164.1738210614
 20
122.926841267
 10
164.1579571169
 20
122.8882455647
 10
164.1378702617
 20
122.8542935057
 10
164.1143762572
 20
122.8258751063
 10
164.1095714421
 20
122.8211645189
  0
LWPOLYLINE
  5
4CA
100
AcDbEntity
  8
RACCORDO
100
AcDbPolyline
 62
253
  6
CONTINUOUS
 90
7
 70
0
 10
159.5395428051
 20
81.1666571242
 10
159.5374040204
 20
81.1503413502
 10
159.5310242617
 20
81.1343047436
 10
159.5205126882
 20
81.1188216952
 10
159.506049156
 20
81.1041571242
 10
159.4878811402
 20
81.0905619456
 10
159.4663195004
 20
81.0782687766
  0
LWPOLYLINE
  5
4CB
100
AcDbEntity
  8
RACCORDO
100
AcDbPolyline
 62
253
  6
CONTINUOUS
 90
7
 70
0
 10
159.5395428014
 20
80.8153215958
 10
159.5372410608
 20
80.7984199866
 10
159.5306363006
 20
80.7822753187
 10
159.5199301163
 20
80.7668104651
 10
159.5054286634
 20
80.7523088436
 10
159.4874347204
 20
80.7389579607
 10
159.4663195004
 20
80.7269548045
  0
LWPOLYLINE
  5
4CC
100
AcDbEntity
  8
RACCORDO
100
AcDbPolyline
 62
253
  6
CONTINUOUS
 90
6
 70
0
 10
144.6893365901
 20
130.3970592136
 10
144.6701101041
 20
130.4031799338
 10
144.6493712689
 20
130.4053363026
 10
144.6274749319
 20
130.4034914237
 10
144.6047957453
 20
130.3976768636
 10
144.5817217564
 20
130.387992111
  0
LWPOLYLINE
  5
4CD
100
AcDbEntity
  8
21814000
100
AcDbPolyline
 62
253
  6
CONTINUOUS
 90
8
 70
0
 10
138.8941995901
 20
133.4055979966
 10
138.875374917
 20
133.4127440572
 10
138.8575212567
 20
133.4173007089
 10
138.8409385126
 20
133.4191914097
 10
138.8259052398
 20
133.4183843998
 10
138.8126739652
 20
133.4148932353
 10
138.8014669461
 20
133.4087765602
 10
138.797399219
 20
133.4054377568
  0
LWPOLYLINE
  5
4CE
100
AcDbEntity
  8
RACCORDO
100
AcDbPolyline
 62
7
  6
CONTINUOUS
 90
6
 70
0
 10
144.6935251553
 20
130.3950925578
 10
144.6652385601
 20
130.4071221229
 10
144.635251359
 20
130.4156870918
 10
144.6040767762
 20
130.4204842602
 10
144.5721721323
 20
130.4213032428
 10
144.540287244
 20
130.4180282031
  0
LINE
  5
4CF
100
AcDbEntity
  8
21814000
100
AcDbLine
 62
253
  6
CONTINUOUS
 10
138.4591052695
 20
134.9717458928
 11
138.4625460989
 21
134.9701326259
  0
LINE
  5
4D0
100
AcDbEntity
  8
RACCORDO
100
AcDbLine
 62
253
  6
CONTINUOUS
 10
144.6935251553
 20
130.3950925578
 11
144.6893365901
 21
130.3970592136
  0
LWPOLYLINE
  5
4D1
100
AcDbEntity
  8
RACCORDO
100
AcDbPolyline
 62
253
  6
CONTINUOUS
 90
7
 70
0
 10
146.037026372
 20
129.7233419494
 10
146.0332796431
 20
129.7251128467
 10
146.013981627
 20
129.7313514184
 10
145.9931556899
 20
129.7335824551
 10
145.9711659726
 20
129.7317721765
 10
145.9483910376
 20
129.7259566951
 10
145.9252246407
 20
129.7162406688
  0
LINE
  5
4D2
100
AcDbEntity
  8
RACCORDO
100
AcDbLine
 62
7
  6
CONTINUOUS
 10
144.6935251553
 20
130.3950925578
 11
146.0370280396
 21
129.7233411156
  0
LINE
  5
4D3
100
AcDbEntity
  8
RACCORDO
100
AcDbLine
 62
7
  6
CONTINUOUS
 10
158.0578433197
 20
123.7129334755
 11
159.401346204
 21
123.0411820334
  0
LINE
  5
4D4
100
AcDbEntity
  8
21814000
100
AcDbLine
 62
253
  6
CONTINUOUS
 10
138.0153346217
 20
134.0288106913
 11
138.7737402204
 21
133.649607892
  0
LINE
  5
4D5
100
AcDbEntity
  8
21814000
100
AcDbLine
 62
253
  6
CONTINUOUS
 10
138.1177749693
 20
134.2465262748
 11
138.8761805679
 21
133.8673234755
  0
LINE
  5
4D6
100
AcDbEntity
  8
21814000
100
AcDbLine
 62
7
  6
CONTINUOUS
 10
137.4045879282
 20
134.8468776561
 11
139.9915421138
 21
133.5534005632
  0
LINE
  5
4D7
100
AcDbEntity
  8
21814000
100
AcDbLine
 62
253
  6
CONTINUOUS
 10
140.5989298303
 20
133.852766567
 11
138.3743303402
 21
134.9650663121
  0
LINE
  5
4D8
100
AcDbEntity
  8
21814000
100
AcDbLine
 62
7
  6
CONTINUOUS
 10
140.6484569221
 20
133.8771772147
 11
138.4625389408
 21
134.9701362054
  0
LINE
  5
4D9
100
AcDbEntity
  8
26814000
100
AcDbLine
 62
7
  6
CONTINUOUS
 10
141.1950558783
 20
134.14658198
 11
138.394537421
 21
135.5468412086
  0
LINE
  5
4DA
100
AcDbEntity
  8
26814000
100
AcDbLine
 62
7
  6
CONTINUOUS
 10
138.0409840304
 20
136.2761760932
 11
138.394537421
 21
136.0993993979
  0
LWPOLYLINE
  5
4DB
100
AcDbEntity
  8
RACCORDO
100
AcDbPolyline
 62
253
  6
CONTINUOUS
 90
13
 70
0
 10
159.2895428051
 20
123.0340815866
 10
159.312709202
 20
123.020631216
 10
159.335484137
 20
123.0036717623
 10
159.3574738544
 20
122.9834923236
 10
159.3782997914
 20
122.9604353498
 10
159.3975978075
 20
122.9348987621
 10
159.4150264685
 20
122.9073318476
 10
159.4303150985
 20
122.878146113
 10
159.4431573863
 20
122.8479072967
 10
159.4532691477
 20
122.8173547438
 10
159.4605200428
 20
122.7870882196
 10
159.4648739542
 20
122.7575408439
 10
159.4663195004
 20
122.729186888
  0
LWPOLYLINE
  5
4DC
100
AcDbEntity
  8
RACCORDO
100
AcDbPolyline
 62
7
  6
CONTINUOUS
 90
4
 70
0
 10
158.8444439307
 20
120.990696056
 10
158.8447880981
 20
120.99034021
 10
158.8446101249
 20
120.9905940565
 10
158.8426153514
 20
120.9935606276
  0
LWPOLYLINE
  5
4DD
100
AcDbEntity
  8
26814000
100
AcDbPolyline
 62
7
  6
CONTINUOUS
 90
17
 70
0
 10
148.8618760234
 20
133.0028628178
 10
148.8282387296
 20
133.0389249683
 10
148.7945551415
 20
133.0735636279
 10
148.7608252591
 20
133.1067787967
 10
148.7269803574
 20
133.1385861007
 10
148.6930891614
 20
133.1689699138
 10
148.6593578463
 20
133.1978833579
 10
148.6258060509
 20
133.2253025332
 10
148.5924141365
 20
133.2512513395
 10
148.5593293624
 20
133.275754598
 10
148.526567049
 20
133.2987983049
 10
148.4941118759
 20
133.320396464
 10
148.4620651413
 20
133.340615908
 10
148.4304380018
 20
133.359449822
 10
148.3992193007
 20
133.376905021
 10
148.3684768664
 20
133.3930687825
 10
148.3612042345
 20
133.3967452295
  0
LWPOLYLINE
  5
4DE
100
AcDbEntity
  8
RACCORDO
100
AcDbPolyline
 62
253
  6
CONTINUOUS
 90
7
 70
0
 10
159.0173896244
 20
120.9114940916
 10
159.0058503063
 20
120.9310168383
 10
158.9909784692
 20
120.9497488309
 10
158.9727741133
 20
120.9676900694
 10
158.9512372386
 20
120.9848405538
 10
158.926367845
 20
121.0012002841
 10
158.8981659325
 20
121.0167692604
  0
LWPOLYLINE
  5
4DF
100
AcDbEntity
  8
RACCORDO
100
AcDbPolyline
 62
253
  6
CONTINUOUS
 90
6
 70
0
 10
159.4663195004
 20
122.3778729159
 10
159.4762831339
 20
122.3600471776
 10
159.4831090957
 20
122.3439789288
 10
159.4866601544
 20
122.3299533512
 10
159.4868525335
 20
122.3182160117
 10
159.4836565341
 20
122.3089953412
  0
LWPOLYLINE
  5
4E0
100
AcDbEntity
  8
RACCORDO
100
AcDbPolyline
 62
253
  6
CONTINUOUS
 90
7
 70
0
 10
158.9359894145
 20
121.737707873
 10
158.9460140598
 20
121.7197588837
 10
158.9528424824
 20
121.7036293558
 10
158.9563578461
 20
121.6895952699
 10
158.956500002
 20
121.6778967531
 10
158.9532665177
 20
121.6687339703
 10
158.9517317573
 20
121.6666082275
  0
LWPOLYLINE
  5
4E1
100
AcDbEntity
  8
RACCORDO
100
AcDbPolyline
 62
7
  6
CONTINUOUS
 90
5
 70
0
 10
158.8426153514
 20
120.9935606276
 10
158.8396312157
 20
120.9992307642
 10
158.8365779694
 20
121.007094882
 10
158.8340127102
 20
121.0171447644
 10
158.8325719412
 20
121.0289609965
  0
LINE
  5
4E2
100
AcDbEntity
  8
21814000
100
AcDbLine
 62
7
  6
CONTINUOUS
 10
153.2701272841
 20
136.3879668431
 11
153.2792427429
 21
136.3640730421
  0
LWPOLYLINE
  5
4E3
100
AcDbEntity
  8
21814000
100
AcDbPolyline
 62
253
  6
CONTINUOUS
 90
35
 70
0
 10
158.8013490429
 20
129.9845044088
 10
158.8129465692
 20
129.9476294883
 10
158.8328840767
 20
129.8747156168
 10
158.8491980737
 20
129.8037438664
 10
158.862793834
 20
129.7346775314
 10
158.8738515909
 20
129.6676986621
 10
158.8823789658
 20
129.6027751607
 10
158.8889786473
 20
129.5395235975
 10
158.8937910612
 20
129.4779649091
 10
158.8968106007
 20
129.4181701034
 10
158.8983827388
 20
129.3598113985
 10
158.8985989177
 20
129.3028406692
 10
158.8974679706
 20
129.2473642758
 10
158.8951901426
 20
129.193276174
 10
158.891828997
 20
129.1405616605
 10
158.8874064209
 20
129.0892755361
 10
158.8820515039
 20
129.0394115996
 10
158.8758227644
 20
128.990995356
 10
158.8687389962
 20
128.9440294012
 10
158.8608649126
 20
128.898470356
 10
158.8522582283
 20
128.85433373
 10
158.8429291928
 20
128.8116226199
 10
158.8328672743
 20
128.7702725916
 10
158.8221176826
 20
128.7302450348
 10
158.8106941278
 20
128.6915899988
 10
158.7985381585
 20
128.6543743226
 10
158.785685715
 20
128.6185472723
 10
158.7721558273
 20
128.5841665865
 10
158.7578686348
 20
128.5514610236
 10
158.7428571769
 20
128.5203933788
 10
158.7271410786
 20
128.4910057341
 10
158.7106259943
 20
128.4636458639
 10
158.6932977162
 20
128.4384316006
 10
158.6752168813
 20
128.4152506247
 10
158.6564010524
 20
128.3941060916
  0
LINE
  5
4E4
100
AcDbEntity
  8
RACCORDO
100
AcDbLine
 62
7
  6
CONTINUOUS
 10
164.929037124
 20
124.6262029661
 11
164.929037124
 21
124.3444874807
  0
LINE
  5
4E5
100
AcDbEntity
  8
RACCORDO
100
AcDbLine
 62
7
  6
CONTINUOUS
 10
164.929037124
 20
88.1446256025
 11
164.929037124
 21
87.8629101171
  0
LWPOLYLINE
  5
4E6
100
AcDbEntity
  8
RACCORDO
100
AcDbPolyline
 62
253
  6
CONTINUOUS
 90
13
 70
0
 10
158.9359894145
 20
81.1881037336
 10
158.9460140598
 20
81.2191020665
 10
158.9528424824
 20
81.2510823584
 10
158.9563578461
 20
81.2834974177
 10
158.956500002
 20
81.3157926137
 10
158.9532665177
 20
81.3474153668
 10
158.9467127192
 20
81.3778246027
 10
158.9369507437
 20
81.4065000112
 10
158.9241476213
 20
81.4329509479
 10
158.908522417
 20
81.45672483
 10
158.8903424824
 20
81.4774148798
 10
158.8699188812
 20
81.4946670849
 10
158.8476010669
 20
81.5081862551
  0
LWPOLYLINE
  5
4E7
100
AcDbEntity
  8
RACCORDO
100
AcDbPolyline
 62
253
  6
CONTINUOUS
 90
5
 70
0
 10
159.4663195004
 20
81.0782687766
 10
159.4762831339
 20
81.1090394494
 10
159.4831090957
 20
81.140853819
 10
159.4866601544
 20
81.1731776666
 10
159.4868525335
 20
81.2054859173
  0
LWPOLYLINE
  5
4E8
100
AcDbEntity
  8
21814000
100
AcDbPolyline
 62
7
  6
CONTINUOUS
 90
10
 70
0
 10
138.3371018174
 20
135.0020129622
 10
138.2559793591
 20
135.013733317
 10
138.1737057399
 20
135.0216365682
 10
138.0909126784
 20
135.0257255317
 10
138.0080335076
 20
135.0260238289
 10
137.9253036777
 20
135.0225318335
 10
137.8432529314
 20
135.0152362358
 10
137.7624204998
 20
135.0041319369
 10
137.6830222965
 20
134.9891518841
 10
137.6054714663
 20
134.970215035
  0
LWPOLYLINE
  5
4E9
100
AcDbEntity
  8
26814000
100
AcDbPolyline
 62
7
  6
CONTINUOUS
 90
13
 70
0
 10
148.1148891349
 20
133.4841227014
 10
148.0802383249
 20
133.4905523825
 10
148.0450341019
 20
133.4959355353
 10
148.00931425
 20
133.5002976761
 10
147.9730889331
 20
133.5036915993
 10
147.936421195
 20
133.506121349
 10
147.8994249851
 20
133.5075325781
 10
147.8621379501
 20
133.507942713
 10
147.8245869683
 20
133.5073788315
 10
147.7868662674
 20
133.5057868434
 10
147.7490268926
 20
133.5031577524
 10
147.7110777064
 20
133.4995357711
 10
147.673048267
 20
133.4949409817
  0
LWPOLYLINE
  5
4EA
100
AcDbEntity
  8
21814000
100
AcDbPolyline
 62
253
  6
CONTINUOUS
 90
13
 70
0
 10
138.3743303402
 20
134.9650663121
 10
138.3046081103
 20
134.9786410568
 10
138.2338663114
 20
134.9889045579
 10
138.1621049435
 20
134.9958568155
 10
138.0886655672
 20
134.9995071901
 10
138.014206622
 20
134.9998463211
 10
137.9407034262
 20
134.9968461265
 10
137.868178916
 20
134.9904015648
 10
137.7966101553
 20
134.9806176775
 10
137.727903654
 20
134.967781507
 10
137.6626949156
 20
134.9519887341
 10
137.6003484367
 20
134.9331436781
 10
137.5408642172
 20
134.9112463389
  0
LINE
  5
4EB
100
AcDbEntity
  8
21814000
100
AcDbLine
 62
7
  6
CONTINUOUS
 10
138.4165255095
 20
134.9864785751
 11
138.3371018174
 21
135.0020129622
  0
LINE
  5
4EC
100
AcDbEntity
  8
26814000
100
AcDbLine
 62
7
  6
CONTINUOUS
 10
128.5595824222
 20
135.6152511974
 11
127.9372643901
 21
135.7451917799
  0
LWPOLYLINE
  5
4ED
100
AcDbEntity
  8
21814000
100
AcDbPolyline
 62
253
  6
CONTINUOUS
 90
4
 70
0
 10
137.9983974822
 20
134.2851555714
 10
138.0405206175
 20
134.2756046887
 10
138.0803131132
 20
134.2627282565
 10
138.1177749693
 20
134.2465262748
  0
LWPOLYLINE
  5
4EE
100
AcDbEntity
  8
21814000
100
AcDbPolyline
 62
7
  6
CONTINUOUS
 90
7
 70
0
 10
138.4165186518
 20
134.9864800995
 10
138.4243793346
 20
134.984564094
 10
138.4334753875
 20
134.981918951
 10
138.4424387712
 20
134.978845039
 10
138.4512590542
 20
134.9753446878
 10
138.4599165156
 20
134.9714235623
 10
138.4625570738
 20
134.9701271358
  0
LWPOLYLINE
  5
4EF
100
AcDbEntity
  8
26814000
100
AcDbPolyline
 62
7
  6
CONTINUOUS
 90
18
 70
0
 10
140.892370396
 20
137.1311399226
 10
140.8728083117
 20
137.1402296557
 10
140.8499125315
 20
137.1492150703
 10
140.8264032452
 20
137.1567173031
 10
140.8022619231
 20
137.1627514729
 10
140.7775721697
 20
137.1672972573
 10
140.7523107435
 20
137.1703512407
 10
140.726500886
 20
137.1719168387
 10
140.7002959271
 20
137.1719839753
 10
140.6737119645
 20
137.1705451993
 10
140.6467329005
 20
137.167607962
 10
140.6194637719
 20
137.1631845407
 10
140.5918895922
 20
137.1572661551
 10
140.564025348
 20
137.1498615855
 10
140.5360210349
 20
137.1410094509
 10
140.5079266517
 20
137.1307226242
 10
140.4796921997
 20
137.1189882325
 10
140.4513176789
 20
137.1058062757
  0
LWPOLYLINE
  5
4F0
100
AcDbEntity
  8
RACCORDO
100
AcDbPolyline
 62
7
  6
CONTINUOUS
 90
12
 70
0
 10
154.4573261525
 20
129.7429278095
 10
154.4489267856
 20
129.7468747145
 10
154.4301530592
 20
129.753977391
 10
154.4105298719
 20
129.7590983089
 10
154.3900679675
 20
129.7622625332
 10
154.3690283447
 20
129.7634297029
 10
154.347403603
 20
129.7625742363
 10
154.3252011428
 20
129.7597217152
 10
154.3027041644
 20
129.7549085245
 10
154.2800070678
 20
129.7481467925
 10
154.2570154528
 20
129.7394243909
 10
154.2337293196
 20
129.7287413197
  0
LWPOLYLINE
  5
4F1
100
AcDbEntity
  8
RACCORDO
100
AcDbPolyline
 62
7
  6
CONTINUOUS
 90
12
 70
0
 10
156.802227944
 20
129.1004988224
 10
156.791136133
 20
129.1058248267
 10
156.7542870492
 20
129.1204912777
 10
156.7157499149
 20
129.131291468
 10
156.6755456155
 20
129.1382732335
 10
156.6341757209
 20
129.1413494729
 10
156.5916256288
 20
129.1404712593
 10
156.5479099416
 20
129.1356875197
 10
156.5035740353
 20
129.1270579336
 10
156.4587997019
 20
129.1146023944
 10
156.4134051496
 20
129.0983010088
 10
156.3673903781
 20
129.0781537767
  0
LWPOLYLINE
  5
4F2
100
AcDbEntity
  8
26814000
100
AcDbPolyline
 62
7
  6
CONTINUOUS
 90
10
 70
0
 10
148.3612042345
 20
133.3967452295
 10
148.3382245553
 20
133.4079366617
 10
148.308448511
 20
133.4215131034
 10
148.2791749919
 20
133.4338987202
 10
148.2503849839
 20
133.4451005167
 10
148.2220975012
 20
133.4551114882
 10
148.1943958449
 20
133.4640112326
 10
148.1673077819
 20
133.4718262826
 10
148.1408055452
 20
133.4785301055
 10
148.1148891349
 20
133.4841227014
  0
LINE
  5
4F3
100
AcDbEntity
  8
0
100
AcDbLine
 62
7
  6
CONTINUOUS
 10
157.9924262705
 20
126.6583423269
 11
155.2148855407
 21
128.0471126917
  0
LINE
  5
4F4
100
AcDbEntity
  8
26814000
100
AcDbLine
 62
7
  6
CONTINUOUS
 10
142.6028715745
 20
134.8404586384
 11
139.7923219275
 21
136.2457334618
  0
LINE
  5
4F5
100
AcDbEntity
  8
21814000
100
AcDbLine
 62
7
  6
CONTINUOUS
 10
149.4449891842
 20
131.8920448839
 11
148.6572005365
 21
132.2859392078
  0
LINE
  5
4F6
100
AcDbEntity
  8
RACCORDO
100
AcDbLine
 62
253
  6
CONTINUOUS
 10
159.789327733
 20
126.950942113
 11
159.1834767879
 21
127.2538675856
  0
LINE
  5
4F7
100
AcDbEntity
  8
RACCORDO
100
AcDbLine
 62
253
  6
CONTINUOUS
 10
154.2337293196
 20
129.7287413197
 11
153.6278783745
 21
130.0316667923
  0
LINE
  5
4F8
100
AcDbEntity
  8
26814000
100
AcDbLine
 62
7
  6
CONTINUOUS
 10
141.1522538677
 20
136.3194816493
 11
143.3619947558
 21
135.2146112052
  0
LINE
  5
4F9
100
AcDbEntity
  8
26814000
100
AcDbLine
 62
7
  6
CONTINUOUS
 10
144.107579579
 20
134.8418187936
 11
144.253392989
 21
134.7689120886
  0
LINE
  5
4FA
100
AcDbEntity
  8
0
100
AcDbLine
 62
7
  6
CONTINUOUS
 10
157.0621564444
 20
128.3645303609
 11
159.239101756
 21
127.2760577051
  0
LINE
  5
4FB
100
AcDbEntity
  8
0
100
AcDbLine
 62
7
  6
CONTINUOUS
 10
160.1181967406
 20
126.8365102128
 11
160.23579016
 21
126.7777135031
  0
LINE
  5
4FC
100
AcDbEntity
  8
RACCORDO
100
AcDbLine
 62
7
  6
CONTINUOUS
 10
160.011652844
 20
126.96578385
 11
159.4070835857
 21
127.2680684792
  0
LINE
  5
4FD
100
AcDbEntity
  8
RACCORDO
100
AcDbLine
 62
7
  6
CONTINUOUS
 10
154.4573361174
 20
129.7429422133
 11
153.852766859
 21
130.0452268425
  0
LINE
  5
4FE
100
AcDbEntity
  8
26814000
100
AcDbLine
 62
7
  6
CONTINUOUS
 10
138.284796122
 20
138.0164542018
 11
138.4652480992
 21
137.9262282133
  0
LINE
  5
4FF
100
AcDbEntity
  8
26814000
100
AcDbLine
 62
7
  6
CONTINUOUS
 10
143.8392596362
 20
135.2392224447
 11
144.0197116133
 21
135.1489964562
  0
LINE
  5
500
100
AcDbEntity
  8
RACCORDO
100
AcDbLine
 62
253
  6
CONTINUOUS
 10
153.2031898633
 20
130.6602540342
 11
156.3673903781
 21
129.0781537767
  0
LINE
  5
501
100
AcDbEntity
  8
RACCORDO
100
AcDbLine
 62
253
  6
CONTINUOUS
 10
160.6100310652
 20
126.9568334332
 11
163.7742315801
 21
125.3747331757
  0
LINE
  5
502
100
AcDbEntity
  8
26814000
100
AcDbLine
 62
253
  6
CONTINUOUS
 10
137.472227778
 20
138.5953512262
 11
140.4513176789
 21
137.1058062757
  0
LINE
  5
503
100
AcDbEntity
  8
26814000
100
AcDbLine
 62
253
  6
CONTINUOUS
 10
144.693958366
 20
134.9844859321
 11
147.673048267
 21
133.4949409817
  0
LINE
  5
504
100
AcDbEntity
  8
RACCORDO
100
AcDbLine
 62
7
  6
CONTINUOUS
 10
153.4773560003
 20
130.7629707355
 11
156.8022632587
 21
129.1005171063
  0
LINE
  5
505
100
AcDbEntity
  8
RACCORDO
100
AcDbLine
 62
7
  6
CONTINUOUS
 10
161.0449039458
 20
126.9791967628
 11
164.3698112042
 21
125.3167431336
  0
LINE
  5
506
100
AcDbEntity
  8
26814000
100
AcDbLine
 62
7
  6
CONTINUOUS
 10
145.1350013691
 20
135.0098353987
 11
148.3614912613
 21
133.3965904527
  0
LINE
  5
507
100
AcDbEntity
  8
0
100
AcDbLine
 62
7
  6
CONTINUOUS
 10
150.422285928
 20
132.8173607837
 11
149.7153169878
 21
133.1708452538
  0
LINE
  5
508
100
AcDbEntity
  8
0
100
AcDbLine
 62
7
  6
CONTINUOUS
 10
150.422285928
 20
132.8173607837
 11
150.6361783819
 21
132.619827516
  0
LINE
  5
509
100
AcDbEntity
  8
RACCORDO
100
AcDbLine
 62
253
  6
CONTINUOUS
 10
153.5947329698
 20
133.1135105563
 11
153.6167784681
 21
133.0916806694
  0
LINE
  5
50A
100
AcDbEntity
  8
RACCORDO
100
AcDbLine
 62
253
  6
CONTINUOUS
 10
153.6167784681
 20
133.0916806694
 11
153.6321115073
 21
133.0757546785
  0
LWPOLYLINE
  5
50B
100
AcDbEntity
  8
RACCORDO
100
AcDbPolyline
 62
7
  6
CONTINUOUS
 90
5
 70
0
 10
159.5163467702
 20
80.7101769906
 10
159.5286090966
 20
80.7422178607
 10
159.5364350266
 20
80.7760473503
 10
159.5394986099
 20
80.8106425534
 10
159.5395428014
 20
80.8153215958
  0
LWPOLYLINE
  5
50C
100
AcDbEntity
  8
RACCORDO
100
AcDbPolyline
 62
7
  6
CONTINUOUS
 90
4
 70
0
 10
156.2272959299
 20
81.6769496332
 10
156.2126095399
 20
81.649796214
 10
156.1967562218
 20
81.6239730414
 10
156.1799639612
 20
81.5997408003
  0
LINE
  5
50D
100
AcDbEntity
  8
RACCORDO
100
AcDbLine
 62
253
  6
CONTINUOUS
 10
154.9281050411
 20
85.783965069
 11
156.0213404639
 21
86.2888574159
  0
LINE
  5
50E
100
AcDbEntity
  8
RACCORDO
100
AcDbLine
 62
7
  6
CONTINUOUS
 10
154.9085915421
 20
85.5644489812
 11
155.9207966576
 21
86.0319188469
  0
LINE
  5
50F
100
AcDbEntity
  8
26814000
100
AcDbLine
 62
7
  6
CONTINUOUS
 10
139.7923219275
 20
136.2457334618
 11
141.1522538677
 21
136.3194816493
  0
LWPOLYLINE
  5
510
100
AcDbEntity
  8
21814000
100
AcDbPolyline
 62
7
  6
CONTINUOUS
 90
6
 70
0
 10
137.3484312177
 20
134.861010203
 10
137.358111228
 20
134.8606727891
 10
137.3685224244
 20
134.8592179185
 10
137.3796434641
 20
134.856540692
 10
137.3914599051
 20
134.8525635155
 10
137.4039290538
 20
134.8472070933
  0
LWPOLYLINE
  5
511
100
AcDbEntity
  8
RACCORDO
100
AcDbPolyline
 62
7
  6
CONTINUOUS
 90
9
 70
0
 10
152.7600681349
 20
133.6099475537
 10
152.7539513943
 20
133.6115470514
 10
152.7441811806
 20
133.6130798653
 10
152.7338549851
 20
133.6134953097
 10
152.723067788
 20
133.6127935372
 10
152.7121045291
 20
133.6109750059
 10
152.7010601883
 20
133.6080398683
 10
152.6898397859
 20
133.6039879719
 10
152.6784433216
 20
133.5988193167
  0
LINE
  5
512
100
AcDbEntity
  8
0
100
AcDbLine
 62
7
  6
CONTINUOUS
 10
151.3670053362
 20
132.943100324
 11
150.9172606748
 21
133.0648481571
  0
LWPOLYLINE
  5
513
100
AcDbEntity
  8
RACCORDO
100
AcDbPolyline
 62
7
  6
CONTINUOUS
 90
28
 70
0
 10
152.7600579987
 20
133.6099236013
 10
152.6513426521
 20
133.6412094471
 10
152.5364876091
 20
133.6705631241
 10
152.4192261852
 20
133.6968901943
 10
152.2998530204
 20
133.720152286
 10
152.1786326487
 20
133.7403228388
 10
152.0558032792
 20
133.7573821141
 10
151.9316544818
 20
133.7713059557
 10
151.8064710188
 20
133.7820766246
 10
151.6804905013
 20
133.7896840243
 10
151.5540041151
 20
133.794117403
 10
151.4273013922
 20
133.7953719577
 10
151.3006196467
 20
133.7934471847
 10
151.174248377
 20
133.7883458497
 10
151.0484787864
 20
133.7800766375
 10
150.923549187
 20
133.7686487621
 10
150.7997503124
 20
133.7540789298
 10
150.67736556
 20
133.7363889082
 10
150.5566171239
 20
133.7155947329
 10
150.4377822027
 20
133.6917231328
 10
150.3211463793
 20
133.6648080811
 10
150.2069348063
 20
133.6348733138
 10
150.0954196281
 20
133.6019562099
 10
149.9868734317
 20
133.5660995751
 10
149.8815065401
 20
133.5273279575
 10
149.7795597577
 20
133.4856751491
 10
149.6813136202
 20
133.4411943746
 10
149.5870295591
 20
133.3939369851
  0
LWPOLYLINE
  5
514
100
AcDbEntity
  8
RACCORDO
100
AcDbPolyline
 62
7
  6
CONTINUOUS
 90
3
 70
0
 10
152.7721088166
 20
133.6051297731
 10
152.7632606063
 20
133.6088970207
 10
152.7600681349
 20
133.6099475537
  0
LINE
  5
515
100
AcDbEntity
  8
0
100
AcDbLine
 62
7
  6
CONTINUOUS
 10
150.9172606748
 20
133.0648481571
 11
150.2102917347
 21
133.4183326272
  0
LINE
  5
516
100
AcDbEntity
  8
21814000
100
AcDbLine
 62
7
  6
CONTINUOUS
 10
149.9497969623
 20
133.9009782684
 11
149.5111864898
 21
134.1202835046
  0
LINE
  5
517
100
AcDbEntity
  8
21814000
100
AcDbLine
 62
7
  6
CONTINUOUS
 10
154.1797099423
 20
133.6612418938
 11
153.4532125536
 21
134.0244905882
  0
LINE
  5
518
100
AcDbEntity
  8
21814000
100
AcDbLine
 62
7
  6
CONTINUOUS
 10
153.9968802819
 20
133.7683165766
 11
153.692760898
 21
133.9203762685
  0
LINE
  5
519
100
AcDbEntity
  8
RACCORDO
100
AcDbLine
 62
7
  6
CONTINUOUS
 10
153.6206369541
 20
133.1808657044
 11
153.7334118393
 21
133.1243733782
  0
LWPOLYLINE
  5
51A
100
AcDbEntity
  8
RACCORDO
100
AcDbPolyline
 62
7
  6
CONTINUOUS
 90
10
 70
0
 10
153.5826928868
 20
133.1935333594
 10
153.4852158331
 20
133.243588791
 10
153.3896026313
 20
133.2925646667
 10
153.2958532813
 20
133.3404609863
 10
153.2039822
 20
133.387279174
 10
153.1139749706
 20
133.4330178058
 10
153.0257883426
 20
133.4776726088
 10
152.9394078992
 20
133.5212421589
 10
152.8548480572
 20
133.5637278804
 10
152.7721088166
 20
133.6051297731
  0
LWPOLYLINE
  5
51B
100
AcDbEntity
  8
21814000
100
AcDbPolyline
 62
7
  6
CONTINUOUS
 90
10
 70
0
 10
153.9968802819
 20
133.7683165766
 10
153.9654648275
 20
133.7863693888
 10
153.9334478502
 20
133.8041366912
 10
153.9008293501
 20
133.8216184838
 10
153.8675991593
 20
133.8388198504
 10
153.8337674457
 20
133.8557357072
 10
153.7993647125
 20
133.8723508026
 10
153.7644011273
 20
133.8886600527
 10
153.7288665225
 20
133.9046685413
 10
153.692760898
 20
133.9203762685
  0
LINE
  5
51C
100
AcDbEntity
  8
RACCORDO
100
AcDbLine
 62
7
  6
CONTINUOUS
 10
153.5904513155
 20
133.1889468873
 11
153.5826928868
 21
133.1935333594
  0
LWPOLYLINE
  5
51D
100
AcDbEntity
  8
RACCORDO
100
AcDbPolyline
 62
253
  6
CONTINUOUS
 90
5
 70
0
 10
153.6206369541
 20
133.1808657044
 10
153.6451599444
 20
133.160361326
 10
153.6695257061
 20
133.1390830616
 10
153.6936624562
 20
133.1170207843
 10
153.7018112836
 20
133.1092068147
  0
LWPOLYLINE
  5
51E
100
AcDbEntity
  8
RACCORDO
100
AcDbPolyline
 62
253
  6
CONTINUOUS
 90
4
 70
0
 10
153.5270003549
 20
133.1745696959
 10
153.5498607843
 20
133.1549909625
 10
153.5724383226
 20
133.134637916
 10
153.5947329698
 20
133.1135105563
  0
LINE
  5
51F
100
AcDbEntity
  8
21814000
100
AcDbLine
 62
253
  6
CONTINUOUS
 10
157.7902481683
 20
134.281921095
 11
158.2097913793
 21
133.5583160935
  0
LINE
  5
520
100
AcDbEntity
  8
21814000
100
AcDbLine
 62
7
  6
CONTINUOUS
 10
158.1805125327
 20
134.2763112811
 11
158.5273503032
 21
133.6781046152
  0
LWPOLYLINE
  5
521
100
AcDbEntity
  8
21814000
100
AcDbPolyline
 62
253
  6
CONTINUOUS
 90
13
 70
0
 10
158.2097913793
 20
133.5583160935
 10
158.2615606287
 20
133.4647355761
 10
158.3096039792
 20
133.3690161215
 10
158.3537157016
 20
133.2715676151
 10
158.3937069028
 20
133.1728073459
 10
158.4294063341
 20
133.0731582209
 10
158.4606611244
 20
132.9730469541
 10
158.487337436
 20
132.8729022375
 10
158.5093210369
 20
132.7731529059
 10
158.5265177897
 20
132.6742261024
 10
158.5388540555
 20
132.5765454472
 10
158.5462770086
 20
132.4805292234
 10
158.5487548632
 20
132.3865885871
  0
LWPOLYLINE
  5
522
100
AcDbEntity
  8
RACCORDO
100
AcDbPolyline
 62
253
  6
CONTINUOUS
 90
10
 70
0
 10
155.7363312296
 20
80.9210542207
 10
155.719071617
 20
80.8985123251
 10
155.7032553004
 20
80.8743205604
 10
155.6890983642
 20
80.8488094188
 10
155.6767750323
 20
80.8222818915
 10
155.6664797173
 20
80.7951438524
 10
155.6583891487
 20
80.7679063199
 10
155.6525874593
 20
80.7409854892
 10
155.6491018473
 20
80.7146906784
 10
155.647942882
 20
80.6893600469
  0
LWPOLYLINE
  5
523
100
AcDbEntity
  8
RACCORDO
100
AcDbPolyline
 62
253
  6
CONTINUOUS
 90
10
 70
0
 10
157.0798341139
 20
80.2493027786
 10
157.0625745012
 20
80.2267608829
 10
157.0467581846
 20
80.2025691183
 10
157.0326012484
 20
80.1770579767
 10
157.0202779165
 20
80.1505304494
 10
157.0099826016
 20
80.1233924103
 10
157.001892033
 20
80.0961548777
 10
156.9960903436
 20
80.069234047
 10
156.9926047315
 20
80.0429392362
 10
156.9914457662
 20
80.0176086048
  0
LWPOLYLINE
  5
524
100
AcDbEntity
  8
RACCORDO
100
AcDbPolyline
 62
253
  6
CONTINUOUS
 90
13
 70
0
 10
157.8753292427
 20
80.6577736477
 10
157.9017566134
 20
80.69175599
 10
157.9262443605
 20
80.7270358387
 10
157.9487924839
 20
80.7636131938
 10
157.9695245773
 20
80.8017656665
 10
157.988317047
 20
80.8412156456
 10
158.0047991122
 20
80.8811302972
 10
158.0189333092
 20
80.9215115902
 10
158.0307571017
 20
80.9623575556
 10
158.0400120998
 20
81.002829453
 10
158.0466121735
 20
81.0426477019
 10
158.050643453
 20
81.0820918827
 10
158.052105938
 20
81.1211619954
  0
LINE
  5
525
100
AcDbEntity
  8
RACCORDO
100
AcDbLine
 62
7
  6
CONTINUOUS
 10
156.1799639612
 20
81.5997408003
 11
156.1625306251
 21
81.5774014307
  0
LINE
  5
526
100
AcDbEntity
  8
RACCORDO
100
AcDbLine
 62
7
  6
CONTINUOUS
 10
155.6322005392
 20
80.9372363877
 11
156.1625306251
 21
81.5774014307
  0
LINE
  5
527
100
AcDbEntity
  8
RACCORDO
100
AcDbLine
 62
253
  6
CONTINUOUS
 10
155.7363312296
 20
80.9210542207
 11
156.2666613155
 21
81.5612192637
  0
LINE
  5
528
100
AcDbEntity
  8
RACCORDO
100
AcDbLine
 62
253
  6
CONTINUOUS
 10
157.6101641998
 20
80.8894678215
 11
157.0798341139
 21
80.2493027786
  0
LINE
  5
529
100
AcDbEntity
  8
RACCORDO
100
AcDbLine
 62
253
  6
CONTINUOUS
 10
157.8753292427
 20
80.6577736477
 11
157.3449991568
 21
80.0176086048
  0
LWPOLYLINE
  5
52A
100
AcDbEntity
  8
RACCORDO
100
AcDbPolyline
 62
253
  6
CONTINUOUS
 90
8
 70
0
 10
155.6321980791
 20
80.9372334176
 10
155.6371394542
 20
80.9415309027
 10
155.6468900301
 20
80.9452297309
 10
155.659693697
 20
80.9460530865
 10
155.6753299488
 20
80.9439869989
 10
155.693529766
 20
80.9390673787
 10
155.7139806196
 20
80.9313790184
 10
155.7363312296
 20
80.9210542207
  0
LWPOLYLINE
  5
52B
100
AcDbEntity
  8
RACCORDO
100
AcDbPolyline
 62
253
  6
CONTINUOUS
 90
8
 70
0
 10
156.1625306251
 20
81.5774014307
 10
156.1675496632
 20
81.581745959
 10
156.1773116387
 20
81.5854130102
 10
156.1901147611
 20
81.5862140973
 10
156.2057399654
 20
81.5841355135
 10
156.2239199
 20
81.5792128238
 10
156.2443435012
 20
81.5715302569
 10
156.2666613155
 20
81.5612192637
  0
LINE
  5
52C
100
AcDbEntity
  8
DRAFT
100
AcDbLine
 62
7
  6
CONTINUOUS
 10
159.9966495863
 20
85.5908071952
 11
164.929037124
 21
88.1446256025
  0
LINE
  5
52D
100
AcDbEntity
  8
DRAFT
100
AcDbLine
 62
7
  6
CONTINUOUS
 10
159.9966495863
 20
86.3752459998
 11
164.195259669
 21
88.51151433
  0
LINE
  5
52E
100
AcDbEntity
  8
RACCORDO
100
AcDbLine
 62
7
  6
CONTINUOUS
 10
159.9966495863
 20
84.9762973411
 11
163.7742315801
 21
86.8796533189
  0
LINE
  5
52F
100
AcDbEntity
  8
RACCORDO
100
AcDbLine
 62
7
  6
CONTINUOUS
 10
159.9966495863
 20
85.1139470233
 11
164.8855688918
 21
87.5388870405
  0
LINE
  5
530
100
AcDbEntity
  8
21814000
100
AcDbLine
 62
7
  6
CONTINUOUS
 10
156.3914803157
 20
134.4001029884
 11
153.2792427429
 21
135.9562217748
  0
LINE
  5
531
100
AcDbEntity
  8
21814000
100
AcDbLine
 62
253
  6
CONTINUOUS
 10
157.7902481683
 20
134.281921095
 11
156.9845762323
 21
134.684757063
  0
LINE
  5
532
100
AcDbEntity
  8
21814000
100
AcDbLine
 62
253
  6
CONTINUOUS
 10
152.2829131532
 20
137.0355886025
 11
151.3117543195
 21
137.5211680194
  0
LINE
  5
533
100
AcDbEntity
  8
21814000
100
AcDbLine
 62
7
  6
CONTINUOUS
 10
158.1205235459
 20
134.3326031991
 11
157.2947646457
 21
134.7454826491
  0
LINE
  5
534
100
AcDbEntity
  8
21814000
100
AcDbLine
 62
7
  6
CONTINUOUS
 10
152.7554959247
 20
137.0151170097
 11
151.703139912
 21
137.541295016
  0
LWPOLYLINE
  5
535
100
AcDbEntity
  8
21814000
100
AcDbPolyline
 62
7
  6
CONTINUOUS
 90
4
 70
0
 10
158.1224490978
 20
134.3316402258
 10
158.1360925739
 20
134.3238254839
 10
158.1596282704
 20
134.3044532054
 10
158.1798064131
 20
134.2775753739
  0
LWPOLYLINE
  5
536
100
AcDbEntity
  8
21814000
100
AcDbPolyline
 62
7
  6
CONTINUOUS
 90
35
 70
0
 10
158.8013490429
 20
132.0665924805
 10
158.9181225716
 20
131.9894903743
 10
159.0579192451
 20
131.884976728
 10
159.1946571009
 20
131.770448131
 10
159.3275225444
 20
131.6467316265
 10
159.4559079976
 20
131.5145848514
 10
159.5794895978
 20
131.3745174454
 10
159.6978697591
 20
131.2271119418
 10
159.8106241422
 20
131.0730010522
 10
159.9172997082
 20
130.9128942681
 10
160.0174567203
 20
130.747538511
 10
160.1106726641
 20
130.5777207493
 10
160.1966257867
 20
130.4041027187
 10
160.2750411684
 20
130.22726476
 10
160.3456078433
 20
130.0478741962
 10
160.4079824257
 20
129.8667396361
 10
160.4618671618
 20
129.6846443411
 10
160.5070038848
 20
129.5023397581
 10
160.5431627876
 20
129.3205629211
 10
160.5701385316
 20
129.1400394613
 10
160.5877583369
 20
128.961337009
 10
160.595831238
 20
128.7853404932
 10
160.5942311762
 20
128.6131602525
 10
160.5828838041
 20
128.4452442771
 10
160.5617492019
 20
128.2824673408
 10
160.5310198478
 20
128.1263737004
 10
160.4909153555
 20
127.9776317356
 10
160.4415890073
 20
127.8365388052
 10
160.3833938876
 20
127.7038727153
 10
160.3165855039
 20
127.5799753645
 10
160.2415167903
 20
127.4653162663
 10
160.1589270848
 20
127.3607186282
 10
160.0694879138
 20
127.2665912888
 10
159.9736636054
 20
127.1830107289
 10
159.872072136
 20
127.1101618034
  0
LWPOLYLINE
  5
537
100
AcDbEntity
  8
21814000
100
AcDbPolyline
 62
253
  6
CONTINUOUS
 90
34
 70
0
 10
158.8013490429
 20
131.9879819596
 10
158.8794441336
 20
131.9324701561
 10
159.0165850035
 20
131.8230145469
 10
159.1511274952
 20
131.7034890734
 10
159.282444074
 20
131.5744512246
 10
159.4099222326
 20
131.4365028763
 10
159.5329673694
 20
131.2902874657
 10
159.6510055648
 20
131.1364869869
 10
159.7634862593
 20
130.9758188048
 10
159.8698848139
 20
130.8090323175
 10
159.969704957
 20
130.6369054619
 10
160.0624810983
 20
130.4602410872
 10
160.1477805036
 20
130.2798632062
 10
160.2252053124
 20
130.0966131524
 10
160.2943943942
 20
129.9113456545
 10
160.3550250319
 20
129.7249248515
 10
160.4068144273
 20
129.5382202616
 10
160.4495210204
 20
129.3521027275
 10
160.4829456154
 20
129.1674403531
 10
160.5069323109
 20
128.9850944554
 10
160.5213692262
 20
128.8059155464
 10
160.5261890235
 20
128.6307393663
 10
160.5213692219
 20
128.4603829859
 10
160.5069323023
 20
128.2956409947
 10
160.4829456026
 20
128.1372817953
 10
160.4495210032
 20
127.9860440192
 10
160.406814406
 20
127.8426330814
 10
160.3550250063
 20
127.7077178908
 10
160.2943943645
 20
127.5819277295
 10
160.2252052788
 20
127.4658493177
 10
160.1477804661
 20
127.3600240773
 10
160.062481057
 20
127.2649456064
 10
159.969704912
 20
127.181057378
 10
159.872072136
 20
127.1101618034
  0
LWPOLYLINE
  5
538
100
AcDbEntity
  8
21814000
100
AcDbPolyline
 62
253
  6
CONTINUOUS
 90
12
 70
0
 10
158.5273503032
 20
133.6781046152
 10
158.5259911665
 20
133.6797017292
 10
158.5180722484
 20
133.6822233324
 10
158.5044276559
 20
133.6813545232
 10
158.4851589393
 20
133.6771017679
 10
158.4604095063
 20
133.6694967176
 10
158.4303635553
 20
133.658595973
 10
158.3952447039
 20
133.6444806633
 10
158.3553143248
 20
133.6272558422
 10
158.3108696009
 20
133.6070497059
 10
158.262241313
 20
133.584012639
 10
158.2097913783
 20
133.5583160953
  0
LINE
  5
539
100
AcDbEntity
  8
RACCORDO
100
AcDbLine
 62
253
  6
CONTINUOUS
 10
159.1817039348
 20
82.2576562617
 11
159.2161881953
 21
82.2810557029
  0
LWPOLYLINE
  5
53A
100
AcDbEntity
  8
RACCORDO
100
AcDbPolyline
 62
253
  6
CONTINUOUS
 90
9
 70
0
 10
159.2161881953
 20
82.2810557029
 10
159.2423987358
 20
82.2986842204
 10
159.2566057705
 20
82.307984667
 10
159.2716133348
 20
82.3176210287
 10
159.2873930349
 20
82.3275474936
 10
159.3039725686
 20
82.3375245607
 10
159.3213611684
 20
82.3474723963
 10
159.3395496019
 20
82.3574708342
 10
159.3585378689
 20
82.3675198742
  0
LINE
  5
53B
100
AcDbEntity
  8
DRAFT
100
AcDbLine
 62
7
  6
CONTINUOUS
 10
157.8383014584
 20
81.6274143246
 11
158.3059435528
 21
81.922330142
  0
LWPOLYLINE
  5
53C
100
AcDbEntity
  8
RACCORDO
100
AcDbPolyline
 62
253
  6
CONTINUOUS
 90
7
 70
0
 10
158.7592127192
 20
81.7985378137
 10
158.7768856282
 20
81.8090919195
 10
158.7923392895
 20
81.8204629674
 10
158.8054239419
 20
81.8325246403
 10
158.8160136624
 20
81.8451446667
 10
158.824024392
 20
81.858186107
 10
158.8253836503
 20
81.8615549703
  0
LWPOLYLINE
  5
53D
100
AcDbEntity
  8
RACCORDO
100
AcDbPolyline
 62
253
  6
CONTINUOUS
 90
6
 70
0
 10
158.7592127192
 20
81.474715386
 10
158.780774359
 20
81.487008555
 10
158.7989423749
 20
81.5006037336
 10
158.813405907
 20
81.5152683046
 10
158.8239174805
 20
81.530751353
 10
158.8302972393
 20
81.5467879596
  0
LWPOLYLINE
  5
53E
100
AcDbEntity
  8
RACCORDO
100
AcDbPolyline
 62
7
  6
CONTINUOUS
 90
11
 70
0
 10
158.9687647358
 20
81.9348387329
 10
159.003089325
 20
81.9534153845
 10
159.0355434046
 20
81.9723892329
 10
159.0668603938
 20
81.9918892076
 10
159.0971074364
 20
82.0116556631
 10
159.1257219747
 20
82.0309308852
 10
159.1524944295
 20
82.0491040803
 10
159.1777930714
 20
82.0659952151
 10
159.2009004084
 20
82.0807641697
 10
159.2203927524
 20
82.0923468913
 10
159.2361002404
 20
82.1007814005
  0
LINE
  5
53F
100
AcDbEntity
  8
RACCORDO
100
AcDbLine
 62
253
  6
CONTINUOUS
 10
158.052105938
 20
81.4298678935
 11
158.7592127192
 21
81.7985378137
  0
LWPOLYLINE
  5
540
100
AcDbEntity
  8
RACCORDO
100
AcDbPolyline
 62
253
  6
CONTINUOUS
 90
12
 70
0
 10
159.0826903273
 20
82.1972095438
 10
159.0893381525
 20
82.2006446868
 10
159.096230988
 20
82.204337699
 10
159.1033688336
 20
82.2082885803
 10
159.1107240473
 20
82.2124763716
 10
159.1183242712
 20
82.2169220321
 10
159.1262524317
 20
82.2216884385
 10
159.1345054296
 20
82.2267777365
 10
159.143086364
 20
82.2321877804
 10
159.1520874593
 20
82.2379750108
 10
159.1614992222
 20
82.2441462593
 10
159.1817039348
 20
82.2576562617
  0
LINE
  5
541
100
AcDbEntity
  8
RACCORDO
100
AcDbLine
 62
7
  6
CONTINUOUS
 10
158.24371865
 20
81.5641757445
 11
158.6459166097
 21
81.7698330458
  0
LINE
  5
542
100
AcDbEntity
  8
RACCORDO
100
AcDbLine
 62
253
  6
CONTINUOUS
 10
158.3633769626
 20
81.8294991619
 11
158.9228557294
 21
82.1155413113
  0
LINE
  5
543
100
AcDbEntity
  8
RACCORDO
100
AcDbLine
 62
253
  6
CONTINUOUS
 10
158.9228557294
 20
82.1155413113
 11
159.0826903273
 21
82.1972095438
  0
LINE
  5
544
100
AcDbEntity
  8
RACCORDO
100
AcDbLine
 62
7
  6
CONTINUOUS
 10
158.6459166097
 20
81.7698330458
 11
158.9687647358
 21
81.9348387329
  0
LINE
  5
545
100
AcDbEntity
  8
RACCORDO
100
AcDbLine
 62
253
  6
CONTINUOUS
 10
157.8383014584
 20
81.6015446867
 11
158.0740537762
 21
81.7203230726
  0
LINE
  5
546
100
AcDbEntity
  8
RACCORDO
100
AcDbLine
 62
253
  6
CONTINUOUS
 10
159.3585378689
 20
82.3675198742
 11
159.9966495863
 21
82.6890405553
  0
LWPOLYLINE
  5
547
100
AcDbEntity
  8
RACCORDO
100
AcDbPolyline
 62
7
  6
CONTINUOUS
 90
7
 70
0
 10
157.7088056127
 20
81.3312543966
 10
157.9534938241
 20
81.4545377042
 10
157.9682361828
 20
81.4612534426
 10
157.9847117311
 20
81.4676432368
 10
158.0023429557
 20
81.473660705
 10
158.0215677966
 20
81.4797162126
 10
158.068588446
 20
81.494102776
  0
LINE
  5
548
100
AcDbEntity
  8
RACCORDO
100
AcDbLine
 62
7
  6
CONTINUOUS
 10
159.8671537406
 20
82.4187502652
 11
159.2360965179
 21
82.1007885561
  0
LINE
  5
549
100
AcDbEntity
  8
RACCORDO
100
AcDbLine
 62
253
  6
CONTINUOUS
 10
158.0324576979
 20
81.4203014536
 11
158.052105938
 21
81.4298678935
  0
LWPOLYLINE
  5
54A
100
AcDbEntity
  8
RACCORDO
100
AcDbPolyline
 62
253
  6
CONTINUOUS
 90
9
 70
0
 10
158.0740537762
 20
81.7203230726
 10
158.0918349459
 20
81.7289033626
 10
158.1093921275
 20
81.7369245178
 10
158.1267253209
 20
81.7443865383
 10
158.1439758989
 20
81.7512723976
 10
158.1610024888
 20
81.7575991222
 10
158.1773809724
 20
81.7634177915
 10
158.1930168305
 20
81.7686852138
 10
158.2080045824
 20
81.7734445809
  0
LWPOLYLINE
  5
54B
100
AcDbEntity
  8
RACCORDO
100
AcDbPolyline
 62
253
  6
CONTINUOUS
 90
13
 70
0
 10
157.3449991568
 20
79.6662946327
 10
157.3209928443
 20
79.6557370227
 10
157.2942910786
 20
79.6467400512
 10
157.2652878355
 20
79.6394893247
 10
157.2343581284
 20
79.6341362326
 10
157.2020687925
 20
79.6308338525
 10
157.1691916671
 20
79.6296839197
 10
157.1363699357
 20
79.630701715
 10
157.1040997652
 20
79.6338646458
 10
157.072950041
 20
79.6391157208
 10
157.0434611455
 20
79.6463609904
 10
157.0161367028
 20
79.6554737041
 10
156.9914457662
 20
79.6662946327
  0
LWPOLYLINE
  5
54C
100
AcDbEntity
  8
RACCORDO
100
AcDbPolyline
 62
253
  6
CONTINUOUS
 90
13
 70
0
 10
158.052105938
 20
81.1211619954
 10
158.0275196
 20
81.1103811755
 10
158.0003292427
 20
81.1012971675
 10
157.9710001008
 20
81.0940654015
 10
157.940034004
 20
81.0888096147
 10
157.9079607908
 20
81.0856197353
 10
157.8753292427
 20
81.084550343
 10
157.8426976947
 20
81.0856197353
 10
157.8106244815
 20
81.0888096147
 10
157.7796583846
 20
81.0940654015
 10
157.7503292427
 20
81.1012971675
 10
157.7231388855
 20
81.1103811755
 10
157.6985525474
 20
81.1211619954
  0
LWPOLYLINE
  5
54D
100
AcDbEntity
  8
RACCORDO
100
AcDbPolyline
 62
253
  6
CONTINUOUS
 90
13
 70
0
 10
157.3449991568
 20
80.0176086048
 10
157.3204128188
 20
80.0068277849
 10
157.2932224615
 20
79.997743777
 10
157.2638933196
 20
79.9905120109
 10
157.2329272228
 20
79.9852562241
 10
157.2008540096
 20
79.9820663448
 10
157.1682224615
 20
79.9809969524
 10
157.1355909135
 20
79.9820663448
 10
157.1035177003
 20
79.9852562241
 10
157.0725516035
 20
79.9905120109
 10
157.0432224615
 20
79.997743777
 10
157.0160321043
 20
80.0068277849
 10
156.9914457662
 20
80.0176086048
  0
LWPOLYLINE
  5
54E
100
AcDbEntity
  8
RACCORDO
100
AcDbPolyline
 62
253
  6
CONTINUOUS
 90
11
 70
0
 10
150.1555076951
 20
79.1547433141
 10
150.1756610097
 20
79.1619656123
 10
150.2257318953
 20
79.186356059
 10
150.2723311562
 20
79.2187346543
 10
150.3149484433
 20
79.2587467271
 10
150.3531170407
 20
79.3059540133
 10
150.3864189652
 20
79.3598394591
 10
150.4144895297
 20
79.4198128661
 10
150.4370213496
 20
79.4852173726
 10
150.4537677054
 20
79.5553366521
 10
150.4645452395
 20
79.629402749
  0
LWPOLYLINE
  5
54F
100
AcDbEntity
  8
ASSI
100
AcDbPolyline
 62
253
  6
CONTINUOUS
 90
11
 70
0
 10
150.1555076951
 20
79.1547433141
 10
150.1756610097
 20
79.1619656123
 10
150.2257318953
 20
79.186356059
 10
150.2723311562
 20
79.2187346543
 10
150.3149484433
 20
79.2587467271
 10
150.3531170407
 20
79.3059540133
 10
150.3864189652
 20
79.3598394591
 10
150.4144895297
 20
79.4198128661
 10
150.4370213496
 20
79.4852173726
 10
150.4537677054
 20
79.5553366521
 10
150.4645452395
 20
79.629402749
  0
LINE
  5
550
100
AcDbEntity
  8
RACCORDO
100
AcDbLine
 62
253
  6
CONTINUOUS
 10
154.4972429977
 20
80.9370050126
 11
150.4645452395
 21
79.629402749
  0
LINE
  5
551
100
AcDbEntity
  8
ASSI
100
AcDbLine
 62
253
  6
CONTINUOUS
 10
154.4972429977
 20
80.9370050126
 11
150.4645452395
 21
79.629402749
  0
LINE
  5
552
100
AcDbEntity
  8
RACCORDO
100
AcDbLine
 62
7
  6
CONTINUOUS
 10
150.1549182266
 20
79.154552755
 11
154.1920543165
 21
80.4635935716
  0
LINE
  5
553
100
AcDbEntity
  8
ASSI
100
AcDbLine
 62
7
  6
CONTINUOUS
 10
150.1548505978
 20
79.154530966
 11
154.1920543165
 21
80.4635935716
  0
LWPOLYLINE
  5
554
100
AcDbEntity
  8
RACCORDO
100
AcDbPolyline
 62
7
  6
CONTINUOUS
 90
7
 70
0
 10
158.068588446
 20
81.494102776
 10
158.0948401584
 20
81.5025435332
 10
158.1231973934
 20
81.5122878723
 10
158.1521937714
 20
81.523105187
 10
158.1819219392
 20
81.5352350009
 10
158.2148697507
 20
81.5500136916
 10
158.2438087636
 20
81.5642186963
  0
LWPOLYLINE
  5
555
100
AcDbEntity
  8
RACCORDO
100
AcDbPolyline
 62
253
  6
CONTINUOUS
 90
13
 70
0
 10
158.259928372
 20
81.7893886993
 10
158.2710845459
 20
81.7928861792
 10
158.281559779
 20
81.7962327843
 10
158.2915246075
 20
81.7995429768
 10
158.3009907386
 20
81.8028394981
 10
158.3099464653
 20
81.8060996068
 10
158.3185272031
 20
81.8093695415
 10
158.3267421918
 20
81.8126568933
 10
158.3345821917
 20
81.8159540711
 10
158.342154899
 20
81.8192845404
 10
158.3494962127
 20
81.8226561228
 10
158.3565702339
 20
81.8260609967
 10
158.3633769626
 20
81.8294991619
  0
LWPOLYLINE
  5
556
100
AcDbEntity
  8
RACCORDO
100
AcDbPolyline
 62
253
  6
CONTINUOUS
 90
3
 70
0
 10
158.2080045824
 20
81.7734445809
 10
158.2355313272
 20
81.78198249
 10
158.259928372
 20
81.7893886993
  0
LWPOLYLINE
  5
557
100
AcDbEntity
  8
RACCORDO
100
AcDbPolyline
 62
7
  6
CONTINUOUS
 90
6
 70
0
 10
159.401346204
 20
80.5917363544
 10
159.4296809743
 20
80.6083147211
 10
159.4560124033
 20
80.6288290032
 10
159.4796452072
 20
80.6529822064
 10
159.4999179391
 20
80.6802791332
 10
159.5163467702
 20
80.7101769906
  0
LINE
  5
558
100
AcDbEntity
  8
RACCORDO
100
AcDbLine
 62
253
  6
CONTINUOUS
 10
157.3449991568
 20
79.6662946327
 11
159.4663195004
 21
80.7269548045
  0
LINE
  5
559
100
AcDbEntity
  8
RACCORDO
100
AcDbLine
 62
7
  6
CONTINUOUS
 10
157.2800258604
 20
79.5310761826
 11
159.401346204
 21
80.5917363544
  0
LWPOLYLINE
  5
55A
100
AcDbEntity
  8
RACCORDO
100
AcDbPolyline
 62
7
  6
CONTINUOUS
 90
9
 70
0
 10
157.2800258604
 20
79.5310761826
 10
157.2517392652
 20
79.5190466174
 10
157.2217520642
 20
79.5104816486
 10
157.1905774813
 20
79.5056844802
 10
157.1586728374
 20
79.5048654975
 10
157.1267879491
 20
79.5081405372
 10
157.0957804184
 20
79.5154087645
 10
157.0658203679
 20
79.5266177495
 10
157.0562574325
 20
79.5311571926
  0
ARC
  5
55B
100
AcDbEntity
  8
RACCORDO
100
AcDbCircle
 62
7
  6
CONTINUOUS
 10
143.8039042971
 20
128.087760174
 40
0.25
100
AcDbArc
 50
244.0406531095
 51
258.6758098606
  0
ELLIPSE
  5
55C
100
AcDbEntity
  8
21814000
100
AcDbEllipse
 62
7
  6
CONTINUOUS
 10
151.2047866805
 20
134.2189980953
 30
0.0
 11
3.3311333813
 21
-0.0467042088
 31
0.0
 40
0.4892378494
 41
3.8528301344
 42
5.5059722822
  0
ELLIPSE
  5
55D
100
AcDbEntity
  8
21814000
100
AcDbEllipse
 62
7
  6
CONTINUOUS
 10
151.9002769417
 20
132.9257382787
 30
0.0
 11
2.7583300471
 21
-0.038763314
 31
0.0
 40
0.4892375088
 41
0.4291477653
 42
0.6564870977
  0
ELLIPSE
  5
55E
100
AcDbEntity
  8
21814000
100
AcDbEllipse
 62
7
  6
CONTINUOUS
 10
151.2285254996
 20
133.0372359627
 30
0.0
 11
2.7499350056
 21
-0.0386453369
 31
0.0
 40
0.4892375088
 41
8.654981679
 42
9.2557277435
  0
ELLIPSE
  5
55F
100
AcDbEntity
  8
21814000
100
AcDbEllipse
 62
7
  6
CONTINUOUS
 10
151.9002769417
 20
132.9257382787
 30
0.0
 11
2.7583300471
 21
-0.038763314
 31
0.0
 40
0.4892375088
 41
0.9280596999
 42
2.3630697256
  0
ELLIPSE
  5
560
100
AcDbEntity
  8
21814000
100
AcDbEllipse
 62
7
  6
CONTINUOUS
 10
156.6059911728
 20
134.0836387957
 30
0.0
 11
0.716172246
 21
0.6416715914
 31
0.0
 40
0.2882345029
 41
0.1142323894
 42
0.7807533904
  0
ELLIPSE
  5
561
100
AcDbEntity
  8
21814000
100
AcDbEllipse
 62
7
  6
CONTINUOUS
 10
151.9002769417
 20
134.8704489899
 30
0.0
 11
2.7583515655
 21
-1.4175703156
 31
0.0
 40
0.0109499087
 41
-0.9155571536
 42
-0.85781018
  0
ELLIPSE
  5
562
100
AcDbEntity
  8
21814000
100
AcDbEllipse
 62
7
  6
CONTINUOUS
 10
151.9002769417
 20
134.8704489899
 30
0.0
 11
2.7583515655
 21
-1.4175703156
 31
0.0
 40
0.0109499087
 41
-0.7017315251
 42
-0.6439845515
  0
ELLIPSE
  5
563
100
AcDbEntity
  8
21814000
100
AcDbEllipse
 62
7
  6
CONTINUOUS
 10
152.6392849257
 20
136.0669919193
 30
0.0
 11
-0.2796057293
 21
0.9974617846
 31
0.0
 40
0.6760995073
 41
4.8467711056
 42
6.4001141399
  0
ELLIPSE
  5
564
100
AcDbEntity
  8
21814000
100
AcDbEllipse
 62
7
  6
CONTINUOUS
 10
151.2047866805
 20
134.2189980953
 30
0.0
 11
3.3311333813
 21
-0.0467042088
 31
0.0
 40
0.4892378494
 41
2.3616770883
 42
3.7058786528
  0
ELLIPSE
  5
565
100
AcDbEntity
  8
21814000
100
AcDbEllipse
 62
7
  6
CONTINUOUS
 10
151.9002769417
 20
133.3587509806
 30
0.0
 11
2.7583300471
 21
-0.038763314
 31
0.0
 40
0.4892375088
 41
0.1708839954
 42
2.3630697256
  0
ELLIPSE
  5
566
100
AcDbEntity
  8
26814000
100
AcDbEllipse
 62
7
  6
CONTINUOUS
 10
126.4183335905
 20
136.7805455273
 30
0.0
 11
0.110769438
 21
0.2241226716
 31
0.0
 40
0.6088015717
 41
-4.0304836828
 42
-3.1443650652
  0
ELLIPSE
  5
567
100
AcDbEntity
  8
26814000
100
AcDbEllipse
 62
7
  6
CONTINUOUS
 10
139.7826517549
 20
130.0983864451
 30
0.0
 11
0.110769438
 21
0.2241226716
 31
0.0
 40
0.6088015717
 41
-4.0304836828
 42
-3.1443650652
  0
ELLIPSE
  5
568
100
AcDbEntity
  8
26814000
100
AcDbEllipse
 62
7
  6
CONTINUOUS
 10
138.0726640877
 20
137.9118997012
 30
0.0
 11
0.2999991737
 21
-0.0014183462
 31
0.0
 40
0.4964289597
 41
0.7877451926
 42
2.3527237553
  0
ELLIPSE
  5
569
100
AcDbEntity
  8
26814000
100
AcDbEllipse
 62
7
  6
CONTINUOUS
 10
143.6271276018
 20
135.1346679441
 30
0.0
 11
0.2999991737
 21
-0.0014183462
 31
0.0
 40
0.4964289597
 41
0.7877451926
 42
2.3585415194
  0
ELLIPSE
  5
56A
100
AcDbEntity
  8
26814000
100
AcDbEllipse
 62
7
  6
CONTINUOUS
 10
129.8021615729
 20
136.1063984891
 30
0.0
 11
0.110769438
 21
0.2241226716
 31
0.0
 40
0.6088015717
 41
1.2055040732
 42
2.2526937431
  0
ELLIPSE
  5
56B
100
AcDbEntity
  8
26814000
100
AcDbEllipse
 62
7
  6
CONTINUOUS
 10
143.5179762145
 20
130.3520445589
 30
0.0
 11
0.110769438
 21
0.2241226716
 31
0.0
 40
0.6088015717
 41
-1.9360885804
 42
-0.8888910292
  0
ELLIPSE
  5
56C
100
AcDbEntity
  8
26814000
100
AcDbEllipse
 62
7
  6
CONTINUOUS
 10
141.8978013581
 20
131.4230609635
 30
0.0
 11
0.1128509832
 21
0.2230818409
 31
0.0
 40
0.6159267166
 41
0.0028979148
 42
0.6817883054
  0
ELLIPSE
  5
56D
100
AcDbEntity
  8
26814000
100
AcDbEllipse
 62
7
  6
CONTINUOUS
 10
139.7826517549
 20
130.3517578389
 30
0.0
 11
0.110769438
 21
0.2241226716
 31
0.0
 40
0.6088015717
 41
0.6877230618
 42
2.2527016244
  0
ELLIPSE
  5
56E
100
AcDbEntity
  8
26814000
100
AcDbEllipse
 62
7
  6
CONTINUOUS
 10
130.15365805
 20
137.0342036411
 30
0.0
 11
0.110769438
 21
0.2241226716
 31
0.0
 40
0.6088015717
 41
-1.9360885804
 42
-0.8888910292
  0
ELLIPSE
  5
56F
100
AcDbEntity
  8
26814000
100
AcDbEllipse
 62
7
  6
CONTINUOUS
 10
128.5334831937
 20
138.1052200457
 30
0.0
 11
0.1128509832
 21
0.2230818409
 31
0.0
 40
0.6159267166
 41
0.0028979148
 42
0.6817883054
  0
ELLIPSE
  5
570
100
AcDbEntity
  8
26814000
100
AcDbEllipse
 62
7
  6
CONTINUOUS
 10
126.4183335905
 20
137.0339169211
 30
0.0
 11
0.110769438
 21
0.2241226716
 31
0.0
 40
0.6088015717
 41
0.6877230618
 42
2.2527016244
  0
ELLIPSE
  5
571
100
AcDbEntity
  8
26814000
100
AcDbEllipse
 62
7
  6
CONTINUOUS
 10
130.15365805
 20
137.2951326175
 30
0.0
 11
0.110769438
 21
0.2241226716
 31
0.0
 40
0.6088015717
 41
5.394294278
 42
6.9592728406
  0
ELLIPSE
  5
572
100
AcDbEntity
  8
26814000
100
AcDbEllipse
 62
7
  6
CONTINUOUS
 10
143.5179762145
 20
130.6129735353
 30
0.0
 11
0.110769438
 21
0.2241226716
 31
0.0
 40
0.6088015717
 41
5.394294278
 42
6.9592728406
  0
ELLIPSE
  5
573
100
AcDbEntity
  8
26814000
100
AcDbEllipse
 62
7
  6
CONTINUOUS
 10
138.2531160648
 20
136.5898395312
 30
0.0
 11
0.2999981629
 21
-0.0021225547
 31
0.0
 40
0.4946372042
 41
-0.7818985079
 42
0.0034997008
  0
ELLIPSE
  5
574
100
AcDbEntity
  8
26814000
100
AcDbEllipse
 62
7
  6
CONTINUOUS
 10
143.807579579
 20
133.8126077741
 30
0.0
 11
0.2999981629
 21
-0.0021225547
 31
0.0
 40
0.4946372042
 41
-0.7760807437
 42
0.0035109161
  0
ELLIPSE
  5
575
100
AcDbEntity
  8
26814000
100
AcDbEllipse
 62
7
  6
CONTINUOUS
 10
132.1041703373
 20
134.9917183333
 30
0.0
 11
0.2999991335
 21
0.0014318851
 31
0.0
 40
0.5035541159
 41
8.6427941204
 42
10.207772683
  0
ELLIPSE
  5
576
100
AcDbEntity
  8
26814000
100
AcDbEllipse
 62
7
  6
CONTINUOUS
 10
126.0908794284
 20
135.1946482319
 30
0.0
 11
-0.1565168911
 21
0.3130623908
 31
0.0
 40
0.6123677712
 41
-0.6846781644
 42
0.8861181623
  0
ELLIPSE
  5
577
100
AcDbEntity
  8
26814000
100
AcDbEllipse
 62
7
  6
CONTINUOUS
 10
141.364385902
 20
127.5578949951
 30
0.0
 11
-0.1565168911
 21
0.3130623908
 31
0.0
 40
0.6123677712
 41
-2.2554744912
 42
-0.6846781644
  0
ELLIPSE
  5
578
100
AcDbEntity
  8
26814000
100
AcDbEllipse
 62
7
  6
CONTINUOUS
 10
137.8966794054
 20
132.0954637992
 30
0.0
 11
0.2999991335
 21
0.0014318851
 31
0.0
 40
0.5035541159
 41
-2.3585979313
 42
-0.7936193687
  0
ELLIPSE
  5
579
100
AcDbEntity
  8
26814000
100
AcDbEllipse
 62
7
  6
CONTINUOUS
 10
137.8966794054
 20
130.8812647234
 30
0.0
 11
0.2999980272
 21
0.0021530184
 31
0.0
 40
0.5053247124
 41
-2.3598210761
 42
-0.7948425135
  0
ELLIPSE
  5
57A
100
AcDbEntity
  8
26814000
100
AcDbEllipse
 62
7
  6
CONTINUOUS
 10
132.1041703373
 20
133.7775192574
 30
0.0
 11
0.2999980272
 21
0.0021530184
 31
0.0
 40
0.5053247124
 41
3.1379773283
 42
3.9233642311
  0
ELLIPSE
  5
57B
100
AcDbEntity
  8
26814000
100
AcDbEllipse
 62
7
  6
CONTINUOUS
 10
143.807579579
 20
135.0444419555
 30
0.0
 11
0.2999991737
 21
-0.0014183462
 31
0.0
 40
0.4964289597
 41
-0.77723337
 42
0.7877451926
  0
ELLIPSE
  5
57C
100
AcDbEntity
  8
26814000
100
AcDbEllipse
 62
7
  6
CONTINUOUS
 10
138.2531160648
 20
137.8216737126
 30
0.0
 11
0.2999991737
 21
-0.0014183462
 31
0.0
 40
0.4964289597
 41
-0.7830511342
 42
0.7877451926
  0
ELLIPSE
  5
57D
100
AcDbEntity
  8
26814000
100
AcDbEllipse
 62
7
  6
CONTINUOUS
 10
141.3904851305
 20
129.5478411511
 30
0.0
 11
0.1128509832
 21
0.2230818409
 31
0.0
 40
0.6159267166
 41
0.6934238338
 42
2.2584023964
  0
ELLIPSE
  5
57E
100
AcDbEntity
  8
26814000
100
AcDbEllipse
 62
7
  6
CONTINUOUS
 10
141.3904851305
 20
129.2944697573
 30
0.0
 11
0.1128509832
 21
0.2230818409
 31
0.0
 40
0.6159267166
 41
-4.0247829108
 42
-2.9775853596
  0
ELLIPSE
  5
57F
100
AcDbEntity
  8
26814000
100
AcDbEllipse
 62
7
  6
CONTINUOUS
 10
128.0261669661
 20
136.2300002333
 30
0.0
 11
0.1128509832
 21
0.2230818409
 31
0.0
 40
0.6159267166
 41
0.6934238338
 42
2.2584023964
  0
ELLIPSE
  5
580
100
AcDbEntity
  8
26814000
100
AcDbEllipse
 62
7
  6
CONTINUOUS
 10
128.0261669661
 20
135.9766288395
 30
0.0
 11
0.1128509832
 21
0.2230818409
 31
0.0
 40
0.6159267166
 41
-4.0247829108
 42
-2.9775853596
  0
ELLIPSE
  5
581
100
AcDbEntity
  8
RACCORDO
100
AcDbEllipse
 62
7
  6
CONTINUOUS
 10
159.6430423396
 20
120.7672599752
 30
0.0
 11
-0.2237009107
 21
0.4473351135
 31
0.0
 40
0.6121897086
 41
-2.2557347926
 42
-0.6846338794
  0
ELLIPSE
  5
582
100
AcDbEntity
  8
RACCORDO
100
AcDbEllipse
 62
7
  6
CONTINUOUS
 10
159.6430423396
 20
82.8657122687
 30
0.0
 11
-0.2235807756
 21
0.4472283268
 31
0.0
 40
0.6125552124
 41
-3.139671321
 42
-2.255296188
  0
ELLIPSE
  5
583
100
AcDbEntity
  8
RACCORDO
100
AcDbEllipse
 62
7
  6
CONTINUOUS
 10
164.4688899505
 20
87.3858769226
 30
0.0
 11
0.9987332359
 21
0.6172510855
 31
0.0
 40
0.0815198604
 41
-2.3890806779
 42
-1.1913468732
  0
ELLIPSE
  5
584
100
AcDbEntity
  8
RACCORDO
100
AcDbEllipse
 62
7
  6
CONTINUOUS
 10
164.2342729376
 20
87.5031854291
 30
0.0
 11
0.4349639225
 21
0.9005141702
 31
0.0
 40
0.6016116119
 41
-1.2499156631
 42
-0.8943064336
  0
ELLIPSE
  5
585
100
AcDbEntity
  8
RACCORDO
100
AcDbEllipse
 62
7
  6
CONTINUOUS
 10
164.2342729376
 20
124.2664782781
 30
0.0
 11
0.4349639225
 21
0.9005141702
 31
0.0
 40
0.6016116119
 41
-0.8943064336
 42
-0.538697204
  0
ELLIPSE
  5
586
100
AcDbEntity
  8
RACCORDO
100
AcDbEllipse
 62
7
  6
CONTINUOUS
 10
152.4838500629
 20
130.1416897155
 30
0.0
 11
0.9987332359
 21
0.6172510855
 31
0.0
 40
0.0815198604
 41
0.0505521044
 42
0.7176053907
  0
ELLIPSE
  5
587
100
AcDbEntity
  8
RACCORDO
100
AcDbEllipse
 62
7
  6
CONTINUOUS
 10
153.6278783745
 20
129.5986540904
 30
0.0
 11
0.2256808774
 21
0.4461742732
 31
0.0
 40
0.6158912572
 41
0.0028657685
 42
0.6875768343
  0
ELLIPSE
  5
588
100
AcDbEntity
  8
RACCORDO
100
AcDbEllipse
 62
7
  6
CONTINUOUS
 10
157.4846942117
 20
81.7782164001
 30
0.0
 11
-0.2235807756
 21
0.4472283268
 31
0.0
 40
0.6125552124
 41
2.4567882058
 42
4.0278891191
  0
ELLIPSE
  5
589
100
AcDbEntity
  8
RACCORDO
100
AcDbEllipse
 62
7
  6
CONTINUOUS
 10
142.4974830533
 20
127.2640688637
 30
0.0
 11
-0.2235807756
 21
0.4472283268
 31
0.0
 40
0.6125552124
 41
-0.6848044477
 42
0.8862964655
  0
ELLIPSE
  5
58A
100
AcDbEntity
  8
RACCORDO
100
AcDbEllipse
 62
7
  6
CONTINUOUS
 10
159.789327733
 20
126.5179294111
 30
0.0
 11
0.2215594226
 21
0.4482351134
 31
0.0
 40
0.6088373611
 41
5.3943220613
 42
6.9651183881
  0
ELLIPSE
  5
58B
100
AcDbEntity
  8
RACCORDO
100
AcDbEllipse
 62
7
  6
CONTINUOUS
 10
157.4846942117
 20
119.7704632845
 30
0.0
 11
-0.2237009107
 21
0.4473351135
 31
0.0
 40
0.6121897086
 41
4.0274505145
 42
5.5985514278
  0
ELLIPSE
  5
58C
100
AcDbEntity
  8
RACCORDO
100
AcDbEllipse
 62
7
  6
CONTINUOUS
 10
164.4688899505
 20
124.1491697717
 30
0.0
 11
-0.7417913999
 21
1.2002436976
 31
0.0
 40
0.5587454355
 41
5.0176587298
 42
6.2153925345
  0
ELLIPSE
  5
58D
100
AcDbEntity
  8
RACCORDO
100
AcDbEllipse
 62
7
  6
CONTINUOUS
 10
153.8114957305
 20
123.0781265643
 30
0.0
 11
0.4999881828
 21
-0.0070264249
 31
0.0
 40
0.4892375088
 41
-2.3493192548
 42
-0.7727633415
  0
ELLIPSE
  5
58E
100
AcDbEntity
  8
RACCORDO
100
AcDbEllipse
 62
7
  6
CONTINUOUS
 10
148.2920018781
 20
125.8378734905
 30
0.0
 11
0.4999881828
 21
-0.0070264249
 31
0.0
 40
0.4892375088
 41
-3.1347355197
 42
-2.3493192548
  0
ELLIPSE
  5
58F
100
AcDbEntity
  8
RACCORDO
100
AcDbEllipse
 62
7
  6
CONTINUOUS
 10
155.6677197331
 20
86.4657867217
 30
0.0
 11
-0.2713091605
 21
0.4239062184
 31
0.0
 40
0.5451249042
 41
-3.2164578779
 42
-2.3115524019
  0
ELLIPSE
  5
590
100
AcDbEntity
  8
RACCORDO
100
AcDbEllipse
 62
7
  6
CONTINUOUS
 10
127.217555437
 20
133.7959167667
 30
0.0
 11
-0.2714549605
 21
0.7527883138
 31
0.0
 40
0.6648474984
 41
-0.6093959365
 42
0.0215116483
  0
ELLIPSE
  5
591
100
AcDbEntity
  8
RACCORDO
100
AcDbEllipse
 62
7
  6
CONTINUOUS
 10
153.9314909109
 20
81.2201102631
 30
0.0
 11
-0.2714549605
 21
0.7527883138
 31
0.0
 40
0.6648474984
 41
-3.1632188559
 42
-2.1804968498
  0
ELLIPSE
  5
592
100
AcDbEntity
  8
RACCORDO
100
AcDbEllipse
 62
7
  6
CONTINUOUS
 10
157.269421298
 20
118.7699838363
 30
0.0
 11
-0.2711888907
 21
0.7526410468
 31
0.0
 40
0.6652277853
 41
-2.1799207184
 42
-0.6094289781
  0
ELLIPSE
  5
593
100
AcDbEntity
  8
ASSI
100
AcDbEllipse
 62
7
  6
CONTINUOUS
 10
127.217555437
 20
133.7959167667
 30
0.0
 11
-0.2714549605
 21
0.7527883138
 31
0.0
 40
0.6648474984
 41
-0.6093959365
 42
0.0215116483
  0
ELLIPSE
  5
594
100
AcDbEntity
  8
ASSI
100
AcDbEllipse
 62
7
  6
CONTINUOUS
 10
153.9314909109
 20
81.2201102631
 30
0.0
 11
-0.2714549605
 21
0.7527883138
 31
0.0
 40
0.6648474984
 41
-3.1632188559
 42
-2.1804968498
  0
ELLIPSE
  5
595
100
AcDbEntity
  8
ASSI
100
AcDbEllipse
 62
7
  6
CONTINUOUS
 10
157.269421298
 20
118.7699838363
 30
0.0
 11
-0.2711888907
 21
0.7526410468
 31
0.0
 40
0.6652277853
 41
-2.1799207184
 42
-0.6094289781
  0
ENDSEC
  0
SECTION
  2
OBJECTS
  0
DICTIONARY
  5
C
100
AcDbDictionary
280
0
281
1
  3
ACAD_GROUP
350
D
  3
ACAD_MLINESTYLE
350
17
  3
ACAD_LAYOUT
350
1A
  3
ACAD_PLOTSETTINGS
350
19
  3
ACAD_PLOTSTYLENAME
350
E
  0
DICTIONARY
  5
D
102
{ACAD_REACTORS
330
C
102
}
100
AcDbDictionary
280
0
281
1
  0
ACDBDICTIONARYWDFLT
  5
E
102
{ACAD_REACTORS
330
C
102
}
100
AcDbDictionary
281
1
  3
Normal
350
F
100
AcDbDictionaryWithDefault
340
F
  0
DICTIONARY
  5
17
102
{ACAD_REACTORS
330
C
102
}
100
AcDbDictionary
280
0
281
1
  3
Standard
350
18
  0
DICTIONARY
  5
19
102
{ACAD_REACTORS
330
C
102
}
100
AcDbDictionary
281
1
  0
DICTIONARY
  5
1A
102
{ACAD_REACTORS
330
C
102
}
100
AcDbDictionary
281
1
  3
Model
350
596
  3
Layout1
350
597
  0
ACDBPLACEHOLDER
  5
F
102
{ACAD_REACTORS
330
E
102
}
  0
MLINESTYLE
  5
18
102
{ACAD_REACTORS
330
17
102
}
100
AcDbMlineStyle
  2
STANDARD
 70
0
  3

 62
256
 51
90.0
 52
90.0
 71
2
 49
0.5
 62
256
  6
BYLAYER
 49
-0.5
 62
256
  6
BYLAYER
  0
LAYOUT
  5
596
102
{ACAD_REACTORS
330
1A
102
}
100
AcDbPlotSettings
  1

  2
none_device
  4
ISO_A4_(297.00_x_210.00_MM)
  6

 40
0.0
 41
0.0
 42
0.0
 43
0.0
 44
297.0
 45
210.0
 46
0.0
 47
0.0
 48
0.0
 49
0.0
140
0.0
141
0.0
142
1.0
143
1.0
 70
1024
 72
1
 73
0
 74
0
  7

 75
0
147
1.0
148
0.0
149
0.0
100
AcDbLayout
  1
Model
 70
0
 71
0
 10
0.0
 20
0.0
 11
297.0
 21
210.0
 12
0.0
 22
0.0
 32
0.0
 14
0.0
 24
0.0
 34
0.0
 15
0.0
 25
0.0
 35
0.0
146
0.0
 13
0.0
 23
0.0
 33
0.0
 16
1.0
 26
0.0
 36
0.0
 17
0.0
 27
1.0
 37
0.0
 76
0
330
229
345
0
346
0
  0
LAYOUT
  5
597
102
{ACAD_REACTORS
330
1A
102
}
100
AcDbPlotSettings
  1

  2
none_device
  4
ISO_A4_(297.00_x_210.00_MM)
  6

 40
0.0
 41
0.0
 42
0.0
 43
0.0
 44
297.0
 45
210.0
 46
0.0
 47
0.0
 48
0.0
 49
0.0
140
0.0
141
0.0
142
1.0
143
1.0
 70
0
 72
1
 73
0
 74
0
  7

 75
0
147
1.0
148
0.0
149
0.0
100
AcDbLayout
  1
Layout1
 70
0
 71
1
 10
0.0
 20
0.0
 11
297.0
 21
210.0
 12
0.0
 22
0.0
 32
0.0
 14
0.0
 24
0.0
 34
0.0
 15
0.0
 25
0.0
 35
0.0
146
0.0
 13
0.0
 23
0.0
 33
0.0
 16
1.0
 26
0.0
 36
0.0
 17
0.0
 27
1.0
 37
0.0
 76
0
330
22A
345
0
346
0
  0
ENDSEC
  0
EOF
