  0
SECTION
  2
HEADER
  9
$ACADVER
  1
AC1015
  9
$DWGCODEPAGE
  3
ANSI_1252
  9
$EXTMAX
 10
297.0
 20
210.0
 30
0.0
  9
$EXTMIN
 10
0.0
 20
0.0
 30
0.0
  9
$LIMMIN
 10
0.0
 20
0.0
  9
$LIMMAX
 10
297.0
 20
210.0
  9
$VIEWCTR
 10
148.5
 20
105.0
  9
$VIEWSIZE
 40
210.0
  9
$CLAYER
  8
0
  9
$LTSCALE
 40
16.335
  9
$CELTYPE
  6
BYLAYER
  9
$DIMSCALE
 40
1.0
  9
$DIMASZ
 40
3.0
  9
$DIMEXO
 40
0.5
  9
$DIMDLI
 40
11.286
  9
$DIMEXE
 40
1.5
  9
$DIMCEN
 40
2.673
  9
$DIMLFAC
 40
1.0
  9
$DIMBLK
  1
_FILLED
  9
$DIMTXT
 40
3.0
  9
$DIMTOL
 70
1
  9
$DIMLIM
 70
0
  9
$DIMTFAC
 40
1.0
  9
$DIMTP
 40
0.01
  9
$DIMTM
 40
0.01
  9
$DIMGAP
 40
0.625
  9
$DIMDSEP
 70
44
  9
$PDMODE
 70
3
  9
$PDSIZE
 40
3.0
  9
$HANDSEED
  5
445
  9
$TILEMODE
 70
1
  9
$MEASUREMENT
 70
1
  9
$INSUNITS
 70
4
  0
ENDSEC
  0
SECTION
  2
CLASSES
  0
CLASS
  1
ACDBDICTIONARYWDFLT
  2
AcDbDictionaryWithDefault
  3
AutoCAD 2000
 90
0
280
0
281
0
  0
CLASS
  1
ACDBPLACEHOLDER
  2
AcDbPlaceHolder
  3
AutoCAD 2000
 90
0
280
0
281
0
  0
CLASS
  1
LAYOUT
  2
AcDbLayout
  3
AutoCAD 2000
 90
0
280
0
281
0
  0
ENDSEC
  0
SECTION
  2
TABLES
  0
TABLE
  2
VPORT
  5
8
100
AcDbSymbolTable
 70
2
  0
VPORT
  5
1F4
100
AcDbSymbolTableRecord
100
AcDbViewportTableRecord
  2
*ACTIVE
 70
0
 10
0.0
 20
0.0
 11
1.0
 21
1.0
 12
148.5
 22
105.0
 13
0.0
 23
0.0
 14
1.0
 24
1.0
 15
0.0
 25
0.0
 16
0.0
 26
0.0
 36
1.0
 17
0.0
 27
0.0
 37
0.0
 40
210.0
 41
1.4142857143
 42
50.0
 43
0.0
 44
0.0
 50
0.0
 51
0.0
 71
0
 72
100
 73
1
 74
1
 75
0
 76
0
 77
0
 78
0
  0
ENDTAB
  0
TABLE
  2
LTYPE
  5
5
100
AcDbSymbolTable
 70
6
  0
LTYPE
  5
14
100
AcDbSymbolTableRecord
100
AcDbLinetypeTableRecord
  2
BYBLOCK
 70
0
  3

 72
65
 73
0
 40
0.0
  0
LTYPE
  5
15
100
AcDbSymbolTableRecord
100
AcDbLinetypeTableRecord
  2
BYLAYER
 70
0
  3

 72
65
 73
0
 40
0.0
  0
LTYPE
  5
16
100
AcDbSymbolTableRecord
100
AcDbLinetypeTableRecord
  2
CONTINUOUS
 70
64
  3
Solid line
 72
65
 73
0
 40
0.0
  0
LTYPE
  5
1F5
100
AcDbSymbolTableRecord
100
AcDbLinetypeTableRecord
  2
CENTER
 70
64
  3
____ _ ____ _ ____ _ ____ _ ____ _ ____ _ ____
 72
65
 73
4
 40
0.6
 49
0.375
 74
0
 49
-0.075
 74
0
 49
0.075
 74
0
 49
-0.075
 74
0
  0
LTYPE
  5
1F6
100
AcDbSymbolTableRecord
100
AcDbLinetypeTableRecord
  2
HIDDEN
 70
64
  3
- - - - - - - - - - - - - - - - - - - -
 72
65
 73
2
 40
0.2
 49
0.1
 74
0
 49
-0.1
 74
0
  0
LTYPE
  5
1F7
100
AcDbSymbolTableRecord
100
AcDbLinetypeTableRecord
  2
PHANTOM
 70
64
  3
_____ _ _ _____ _ _ _____ _ _ _____
 72
65
 73
6
 40
0.8
 49
0.45
 74
0
 49
-0.05
 74
0
 49
0.1
 74
0
 49
-0.05
 74
0
 49
0.1
 74
0
 49
-0.05
 74
0
  0
LTYPE
  5
1F8
100
AcDbSymbolTableRecord
100
AcDbLinetypeTableRecord
  2
DOT
 70
64
  3
. . . . . . . . . . . . . . . . . . . .
 72
65
 73
2
 40
0.2
 49
0.1
 74
0
 49
-0.1
 74
0
  0
LTYPE
  5
1F9
100
AcDbSymbolTableRecord
100
AcDbLinetypeTableRecord
  2
DASHED
 70
64
  3
- - - - - - - - - - - - - - - - - - - -
 72
65
 73
2
 40
0.2
 49
0.1
 74
0
 49
-0.1
 74
0
  0
ENDTAB
  0
TABLE
  2
LAYER
  5
2
100
AcDbSymbolTable
 70
36
  0
LAYER
  5
10
100
AcDbSymbolTableRecord
100
AcDbLayerTableRecord
  2
0
 70
0
 62
7
  6
CONTINUOUS
370
-3
390
F
  0
LAYER
  5
1FA
100
AcDbSymbolTableRecord
100
AcDbLayerTableRecord
  2
DEFAULT_1
 70
0
 62
7
  6
CENTER
370
-3
390
F
  0
LAYER
  5
1FB
100
AcDbSymbolTableRecord
100
AcDbLayerTableRecord
  2
DEFAULT_2
 70
0
 62
7
  6
HIDDEN
370
-3
390
F
  0
LAYER
  5
1FC
100
AcDbSymbolTableRecord
100
AcDbLayerTableRecord
  2
DEFAULT_3
 70
0
 62
7
  6
PHANTOM
370
-3
390
F
  0
LAYER
  5
1FD
100
AcDbSymbolTableRecord
100
AcDbLayerTableRecord
  2
21814000
 70
0
 62
7
  6
CONTINUOUS
370
-3
390
F
  0
LAYER
  5
1FE
100
AcDbSymbolTableRecord
100
AcDbLayerTableRecord
  2
218140001
 70
0
 62
7
  6
CONTINUOUS
370
-3
390
F
  0
LAYER
  5
1FF
100
AcDbSymbolTableRecord
100
AcDbLayerTableRecord
  2
260140000
 70
0
 62
7
  6
CONTINUOUS
370
-3
390
F
  0
LAYER
  5
200
100
AcDbSymbolTableRecord
100
AcDbLayerTableRecord
  2
26814000
 70
0
 62
7
  6
CONTINUOUS
370
-3
390
F
  0
LAYER
  5
201
100
AcDbSymbolTableRecord
100
AcDbLayerTableRecord
  2
28414000
 70
0
 62
7
  6
CONTINUOUS
370
-3
390
F
  0
LAYER
  5
202
100
AcDbSymbolTableRecord
100
AcDbLayerTableRecord
  2
290140000
 70
0
 62
7
  6
CONTINUOUS
370
-3
390
F
  0
LAYER
  5
203
100
AcDbSymbolTableRecord
100
AcDbLayerTableRecord
  2
340000230
 70
0
 62
7
  6
CONTINUOUS
370
-3
390
F
  0
LAYER
  5
204
100
AcDbSymbolTableRecord
100
AcDbLayerTableRecord
  2
712140000
 70
0
 62
7
  6
CONTINUOUS
370
-3
390
F
  0
LAYER
  5
205
100
AcDbSymbolTableRecord
100
AcDbLayerTableRecord
  2
715140000
 70
0
 62
7
  6
CONTINUOUS
370
-3
390
F
  0
LAYER
  5
206
100
AcDbSymbolTableRecord
100
AcDbLayerTableRecord
  2
ASSI
 70
0
 62
7
  6
CONTINUOUS
370
-3
390
F
  0
LAYER
  5
207
100
AcDbSymbolTableRecord
100
AcDbLayerTableRecord
  2
COLORE_TOP
 70
0
 62
7
  6
CONTINUOUS
370
-3
390
F
  0
LAYER
  5
208
100
AcDbSymbolTableRecord
100
AcDbLayerTableRecord
  2
COORDINATE
 70
0
 62
7
  6
CONTINUOUS
370
-3
390
F
  0
LAYER
  5
209
100
AcDbSymbolTableRecord
100
AcDbLayerTableRecord
  2
COORD_ORIGINE
 70
0
 62
7
  6
CONTINUOUS
370
-3
390
F
  0
LAYER
  5
20A
100
AcDbSymbolTableRecord
100
AcDbLayerTableRecord
  2
COPY_PUBLISH
 70
0
 62
7
  6
CONTINUOUS
370
-3
390
F
  0
LAYER
  5
20B
100
AcDbSymbolTableRecord
100
AcDbLayerTableRecord
  2
COSMETIC
 70
0
 62
7
  6
CONTINUOUS
370
-3
390
F
  0
LAYER
  5
20C
100
AcDbSymbolTableRecord
100
AcDbLayerTableRecord
  2
COSMETICHE
 70
0
 62
7
  6
CONTINUOUS
370
-3
390
F
  0
LAYER
  5
20D
100
AcDbSymbolTableRecord
100
AcDbLayerTableRecord
  2
COSMETICI
 70
0
 62
7
  6
CONTINUOUS
370
-3
390
F
  0
LAYER
  5
20E
100
AcDbSymbolTableRecord
100
AcDbLayerTableRecord
  2
CURVE
 70
0
 62
7
  6
CONTINUOUS
370
-3
390
F
  0
LAYER
  5
20F
100
AcDbSymbolTableRecord
100
AcDbLayerTableRecord
  2
DRAFT
 70
0
 62
7
  6
CONTINUOUS
370
-3
390
F
  0
LAYER
  5
210
100
AcDbSymbolTableRecord
100
AcDbLayerTableRecord
  2
IMPORT
 70
0
 62
7
  6
CONTINUOUS
370
-3
390
F
  0
LAYER
  5
211
100
AcDbSymbolTableRecord
100
AcDbLayerTableRecord
  2
IMPORTED
 70
0
 62
7
  6
CONTINUOUS
370
-3
390
F
  0
LAYER
  5
212
100
AcDbSymbolTableRecord
100
AcDbLayerTableRecord
  2
IMPORT_IGES
 70
0
 62
7
  6
CONTINUOUS
370
-3
390
F
  0
LAYER
  5
213
100
AcDbSymbolTableRecord
100
AcDbLayerTableRecord
  2
INCISIONI_LASER
 70
0
 62
7
  6
CONTINUOUS
370
-3
390
F
  0
LAYER
  5
214
100
AcDbSymbolTableRecord
100
AcDbLayerTableRecord
  2
INTF_11
 70
0
 62
7
  6
CONTINUOUS
370
-3
390
F
  0
LAYER
  5
215
100
AcDbSymbolTableRecord
100
AcDbLayerTableRecord
  2
INTF_12
 70
0
 62
7
  6
CONTINUOUS
370
-3
390
F
  0
LAYER
  5
216
100
AcDbSymbolTableRecord
100
AcDbLayerTableRecord
  2
INTF_13
 70
0
 62
7
  6
CONTINUOUS
370
-3
390
F
  0
LAYER
  5
217
100
AcDbSymbolTableRecord
100
AcDbLayerTableRecord
  2
INTF_6
 70
0
 62
7
  6
CONTINUOUS
370
-3
390
F
  0
LAYER
  5
218
100
AcDbSymbolTableRecord
100
AcDbLayerTableRecord
  2
NOTE
 70
0
 62
7
  6
CONTINUOUS
370
-3
390
F
  0
LAYER
  5
219
100
AcDbSymbolTableRecord
100
AcDbLayerTableRecord
  2
PIANI
 70
0
 62
7
  6
CONTINUOUS
370
-3
390
F
  0
LAYER
  5
21A
100
AcDbSymbolTableRecord
100
AcDbLayerTableRecord
  2
PIANI_DI_RIFERIMENTO
 70
0
 62
7
  6
CONTINUOUS
370
-3
390
F
  0
LAYER
  5
21B
100
AcDbSymbolTableRecord
100
AcDbLayerTableRecord
  2
PIANI_ORIGINE
 70
0
 62
7
  6
CONTINUOUS
370
-3
390
F
  0
LAYER
  5
21C
100
AcDbSymbolTableRecord
100
AcDbLayerTableRecord
  2
PIANI_RIFERIMENTO
 70
0
 62
7
  6
CONTINUOUS
370
-3
390
F
  0
LAYER
  5
21D
100
AcDbSymbolTableRecord
100
AcDbLayerTableRecord
  2
PIANI_SFORMO
 70
0
 62
7
  6
CONTINUOUS
370
-3
390
F
  0
LAYER
  5
21E
100
AcDbSymbolTableRecord
100
AcDbLayerTableRecord
  2
PUNTI
 70
0
 62
7
  6
CONTINUOUS
370
-3
390
F
  0
LAYER
  5
21F
100
AcDbSymbolTableRecord
100
AcDbLayerTableRecord
  2
RACCORDO
 70
0
 62
7
  6
CONTINUOUS
370
-3
390
F
  0
LAYER
  5
220
100
AcDbSymbolTableRecord
100
AcDbLayerTableRecord
  2
RINTRACCIABILITA
 70
0
 62
7
  6
CONTINUOUS
370
-3
390
F
  0
LAYER
  5
221
100
AcDbSymbolTableRecord
100
AcDbLayerTableRecord
  2
SIMBOLI
 70
0
 62
7
  6
CONTINUOUS
370
-3
390
F
  0
LAYER
  5
222
100
AcDbSymbolTableRecord
100
AcDbLayerTableRecord
  2
SMUSSO
 70
0
 62
7
  6
CONTINUOUS
370
-3
390
F
  0
LAYER
  5
223
100
AcDbSymbolTableRecord
100
AcDbLayerTableRecord
  2
SNAPLINE
 70
0
 62
7
  6
CONTINUOUS
370
-3
390
F
  0
LAYER
  5
224
100
AcDbSymbolTableRecord
100
AcDbLayerTableRecord
  2
SUPERFICI
 70
0
 62
7
  6
CONTINUOUS
370
-3
390
F
  0
LAYER
  5
225
100
AcDbSymbolTableRecord
100
AcDbLayerTableRecord
  2
TRASH
 70
0
 62
7
  6
CONTINUOUS
370
-3
390
F
  0
LAYER
  5
226
100
AcDbSymbolTableRecord
100
AcDbLayerTableRecord
  2
WHITE
 70
0
 62
7
  6
CONTINUOUS
370
-3
390
F
  0
LAYER
  5
227
100
AcDbSymbolTableRecord
100
AcDbLayerTableRecord
  2
XSEC_DATUMS
 70
0
 62
7
  6
CONTINUOUS
370
-3
390
F
  0
ENDTAB
  0
TABLE
  2
STYLE
  5
3
100
AcDbSymbolTable
 70
1
  0
STYLE
  5
11
100
AcDbSymbolTableRecord
100
AcDbTextStyleTableRecord
  2
STANDARD
 70
0
 40
0.0
 41
0.8
 50
0.0
 71
0
 42
0.2
  3
txt
  4

  0
STYLE
  5
228
100
AcDbSymbolTableRecord
100
AcDbTextStyleTableRecord
  2
TEXTSTYLE_1
 70
0
 40
0.0
 41
0.8
 50
0.0
 71
0
 42
0.2
  3
gdt
  4

  0
ENDTAB
  0
TABLE
  2
VIEW
  5
6
100
AcDbSymbolTable
 70
0
  0
ENDTAB
  0
TABLE
  2
UCS
  5
7
100
AcDbSymbolTable
 70
0
  0
ENDTAB
  0
TABLE
  2
APPID
  5
9
100
AcDbSymbolTable
 70
1
  0
APPID
  5
229
100
AcDbSymbolTableRecord
100
AcDbRegAppTableRecord
  2
ACAD
 70
0
  0
ENDTAB
  0
TABLE
  2
BLOCK_RECORD
  5
1
100
AcDbSymbolTable
 70
0
  0
BLOCK_RECORD
  5
22A
100
AcDbSymbolTableRecord
100
AcDbBlockTableRecord
  2
*Model_Space
  0
BLOCK_RECORD
  5
22B
100
AcDbSymbolTableRecord
100
AcDbBlockTableRecord
  2
*Paper_Space
  0
ENDTAB
  0
TABLE
  2
DIMSTYLE
  5
A
100
AcDbSymbolTable
 70
1
100
AcDbDimStyleTable
 71
0
  0
DIMSTYLE
105
22C
100
AcDbSymbolTableRecord
100
AcDbDimStyleTableRecord
  2
STANDARD
 70
0
  3

  4

 40
1.0
 41
3.0
 42
0.5
 43
0.38
 44
1.5
 45
0.0
 46
0.0
 47
0.01
 48
0.01
140
3.0
141
0.09
142
0.0
143
25.4
144
1.0
145
0.0
146
1.0
147
0.625
 71
1.0
 72
0.0
 73
0
 74
0
 75
0
 76
0
 77
1
 78
8
170
0
171
2
172
0
173
0
174
0
175
0
176
0
177
0
178
0
270
2
271
2
272
2
273
2
274
2
275
0
280
0
281
0
282
0
283
1
284
8
285
0
286
0
287
3
288
0
340
11
278
44
  0
ENDTAB
  0
ENDSEC
  0
SECTION
  2
BLOCKS
  0
BLOCK
  5
20
100
AcDbEntity
  8
0
100
AcDbBlockBegin
  2
*Model_Space
 70
0
 10
0.0
 20
0.0
 30
0.0
  3
*Model_Space
  1

  0
ENDBLK
  5
21
100
AcDbEntity
  8
0
100
AcDbBlockEnd
  0
BLOCK
  5
1C
100
AcDbEntity
  8
0
100
AcDbBlockBegin
  2
*Paper_Space
 70
0
 10
0.0
 20
0.0
 30
0.0
  3
*Paper_Space
  1

  0
ENDBLK
  5
1D
100
AcDbEntity
  8
0
100
AcDbBlockEnd
  0
ENDSEC
  0
SECTION
  2
ENTITIES
  0
LINE
  5
22D
100
AcDbEntity
  8
26814000
100
AcDbLine
 62
7
  6
CONTINUOUS
 10
130.5505654182
 20
127.4965064575
 11
132.1333220213
 21
128.3084905548
  0
LINE
  5
22E
100
AcDbEntity
  8
26814000
100
AcDbLine
 62
7
  6
CONTINUOUS
 10
130.0666103058
 20
125.7538060555
 11
131.0788325899
 21
126.2707360181
  0
LINE
  5
22F
100
AcDbEntity
  8
26814000
100
AcDbLine
 62
253
  6
CONTINUOUS
 10
130.2241337121
 20
125.7443727259
 11
131.0788325899
 21
126.1808573459
  0
LINE
  5
230
100
AcDbEntity
  8
26814000
100
AcDbLine
 62
7
  6
CONTINUOUS
 10
132.1583868272
 20
126.692595753
 11
133.759667618
 21
127.4953177565
  0
LINE
  5
231
100
AcDbEntity
  8
26814000
100
AcDbLine
 62
7
  6
CONTINUOUS
 10
133.759667618
 20
127.4953177565
 11
134.2879347898
 21
127.7587565765
  0
LINE
  5
232
100
AcDbEntity
  8
26814000
100
AcDbLine
 62
7
  6
CONTINUOUS
 10
132.1333220213
 20
128.3084905548
 11
132.6677719
 21
128.5688380214
  0
LINE
  5
233
100
AcDbEntity
  8
RACCORDO
100
AcDbLine
 62
253
  6
CONTINUOUS
 10
123.5779701672
 20
84.4650931232
 11
123.5192746017
 21
84.4990820925
  0
LWPOLYLINE
  5
234
100
AcDbEntity
  8
ASSI
100
AcDbPolyline
 62
253
  6
CONTINUOUS
 90
14
 70
0
 10
123.577251093
 20
84.4654533243
 10
123.5192746017
 20
84.4990820925
 10
123.4671824075
 20
84.5381248764
 10
123.4189878734
 20
84.583515798
 10
123.3749101978
 20
84.6350462909
 10
123.3351660362
 20
84.6924732701
 10
123.2999685506
 20
84.7555010762
 10
123.2695000878
 20
84.8238006968
 10
123.2439160021
 20
84.8970186764
 10
123.2233408638
 20
84.9747949542
 10
123.2078724619
 20
85.0567517359
 10
123.1975885722
 20
85.1424835209
 10
123.1925442499
 20
85.2315571833
 10
123.1927661767
 20
85.3235270166
  0
LWPOLYLINE
  5
235
100
AcDbEntity
  8
RACCORDO
100
AcDbPolyline
 62
253
  6
CONTINUOUS
 90
13
 70
0
 10
123.5192746017
 20
84.4990820925
 10
123.4671824075
 20
84.5381248764
 10
123.4189878734
 20
84.583515798
 10
123.3749101978
 20
84.6350462909
 10
123.3351660362
 20
84.6924732701
 10
123.2999685506
 20
84.7555010762
 10
123.2695000878
 20
84.8238006968
 10
123.2439160021
 20
84.8970186764
 10
123.2233408638
 20
84.9747949542
 10
123.2078724619
 20
85.0567517359
 10
123.1975885722
 20
85.1424835209
 10
123.1925442499
 20
85.2315571833
 10
123.1927661767
 20
85.3235270166
  0
LWPOLYLINE
  5
236
100
AcDbEntity
  8
ASSI
100
AcDbPolyline
 62
253
  6
CONTINUOUS
 90
4
 70
0
 10
126.7241892705
 20
122.7373809631
 10
126.7914656231
 20
122.8109932489
 10
126.8608268002
 20
122.8796923212
 10
126.931912881
 20
122.9431289277
  0
LWPOLYLINE
  5
237
100
AcDbEntity
  8
RACCORDO
100
AcDbPolyline
 62
253
  6
CONTINUOUS
 90
6
 70
0
 10
126.931912881
 20
122.9431289277
 10
127.0043738737
 20
123.0009972024
 10
127.077862341
 20
123.053012536
 10
127.1520137947
 20
123.0989154546
 10
127.2264480076
 20
123.1384754847
 10
127.3007892659
 20
123.1714949048
  0
LWPOLYLINE
  5
238
100
AcDbEntity
  8
ASSI
100
AcDbPolyline
 62
253
  6
CONTINUOUS
 90
4
 70
0
 10
126.931912881
 20
122.9431289277
 10
127.0043738737
 20
123.0009972024
 10
127.077862341
 20
123.053012536
 10
127.1520137947
 20
123.0989154546
  0
LINE
  5
239
100
AcDbEntity
  8
ASSI
100
AcDbLine
 62
253
  6
CONTINUOUS
 10
127.1520137947
 20
123.0989154546
 11
127.2264480076
 21
123.1384754847
  0
LINE
  5
23A
100
AcDbEntity
  8
26814000
100
AcDbLine
 62
7
  6
CONTINUOUS
 10
133.759667618
 20
125.7632669489
 11
132.6928367059
 21
125.2246856994
  0
LWPOLYLINE
  5
23B
100
AcDbEntity
  8
ASSI
100
AcDbPolyline
 62
7
  6
CONTINUOUS
 90
10
 70
0
 10
126.9478602536
 20
123.1967884526
 10
126.8094328295
 20
123.1304158094
 10
126.6516562171
 20
123.0293069777
 10
126.5009739765
 20
122.9032474282
 10
126.3641189219
 20
122.7577534554
 10
126.240940244
 20
122.5930358567
 10
126.1332774271
 20
122.4103198199
 10
126.0472123071
 20
122.2201267406
 10
125.9836098926
 20
122.0274176267
 10
125.9415165787
 20
121.8298395836
  0
LINE
  5
23C
100
AcDbEntity
  8
ASSI
100
AcDbLine
 62
253
  6
CONTINUOUS
 10
127.2264480076
 20
123.1384754847
 11
127.3007892659
 21
123.1714949048
  0
LWPOLYLINE
  5
23D
100
AcDbEntity
  8
RACCORDO
100
AcDbPolyline
 62
7
  6
CONTINUOUS
 90
17
 70
0
 10
126.9486476928
 20
123.1971118184
 10
126.9310267641
 20
123.1897517064
 10
126.838645027
 20
123.1460681001
 10
126.7488766509
 20
123.0950101972
 10
126.6617147916
 20
123.036637555
 10
126.577551526
 20
122.9712743586
 10
126.4971505229
 20
122.8996199989
 10
126.4204832158
 20
122.8217691555
 10
126.3477309409
 20
122.7379340099
 10
126.2798228201
 20
122.6492278906
 10
126.2167902756
 20
122.5558363455
 10
126.1587888754
 20
122.4579401133
 10
126.1066662678
 20
122.3570027663
 10
126.0604859108
 20
122.2532903086
 10
126.0203903121
 20
122.1469741615
 10
125.9869492391
 20
122.0395485487
 10
125.9603174053
 20
121.931618576
  0
LINE
  5
23E
100
AcDbEntity
  8
RACCORDO
100
AcDbLine
 62
7
  6
CONTINUOUS
 10
126.948643168
 20
123.1971228844
 11
130.8647513668
 21
124.7979085348
  0
LINE
  5
23F
100
AcDbEntity
  8
ASSI
100
AcDbLine
 62
7
  6
CONTINUOUS
 10
126.9478557247
 20
123.1967994956
 11
130.8647513668
 21
124.7979085348
  0
LINE
  5
240
100
AcDbEntity
  8
RACCORDO
100
AcDbLine
 62
253
  6
CONTINUOUS
 10
127.3007892659
 20
123.1714949048
 11
131.2129535381
 21
124.7706683628
  0
LINE
  5
241
100
AcDbEntity
  8
ASSI
100
AcDbLine
 62
253
  6
CONTINUOUS
 10
127.3007892659
 20
123.1714949048
 11
131.2129535381
 21
124.7706683628
  0
LWPOLYLINE
  5
242
100
AcDbEntity
  8
26814000
100
AcDbPolyline
 62
7
  6
CONTINUOUS
 90
3
 70
0
 10
141.7422412534
 20
128.9836778447
 10
141.7296762337
 20
128.9789787939
 10
141.723793515
 20
128.976220502
  0
LWPOLYLINE
  5
243
100
AcDbEntity
  8
RACCORDO
100
AcDbPolyline
 62
253
  6
CONTINUOUS
 90
7
 70
0
 10
126.9487841524
 20
123.19718055
 10
127.0065206522
 20
123.2152051764
 10
127.0625215427
 20
123.2231507851
 10
127.120591971
 20
123.2227018095
 10
127.1800959518
 20
123.2138631667
 10
127.2403817996
 20
123.1967316572
 10
127.3007892659
 20
123.1714949048
  0
LWPOLYLINE
  5
244
100
AcDbEntity
  8
ASSI
100
AcDbPolyline
 62
253
  6
CONTINUOUS
 90
7
 70
0
 10
126.9487841524
 20
123.19718055
 10
127.0065206522
 20
123.2152051764
 10
127.0625215427
 20
123.2231507851
 10
127.120591971
 20
123.2227018095
 10
127.1800959518
 20
123.2138631667
 10
127.2403817996
 20
123.1967316572
 10
127.3007892659
 20
123.1714949048
  0
LWPOLYLINE
  5
245
100
AcDbEntity
  8
26814000
100
AcDbPolyline
 62
7
  6
CONTINUOUS
 90
10
 70
0
 10
141.7422412534
 20
128.9836778447
 10
141.7514808742
 20
128.9864236436
 10
141.7600440281
 20
128.9886893621
 10
141.767930715
 20
128.9904750002
 10
141.7751800733
 20
128.9918014048
 10
141.7817529646
 20
128.9926477289
 10
141.787531974
 20
128.9929514317
 10
141.7925129312
 20
128.9927120959
 10
141.7967000064
 20
128.9919301387
 10
141.7992896875
 20
128.9909337055
  0
LWPOLYLINE
  5
246
100
AcDbEntity
  8
RACCORDO
100
AcDbPolyline
 62
7
  6
CONTINUOUS
 90
12
 70
0
 10
137.7120907514
 20
77.3980467487
 10
137.7458274898
 20
77.3818700531
 10
137.8284621873
 20
77.3480788293
 10
137.9141126613
 20
77.3211049354
 10
138.002328203
 20
77.3012013419
 10
138.0929176286
 20
77.2885477737
 10
138.185331812
 20
77.2833703897
 10
138.2789515471
 20
77.2858378888
 10
138.3735866255
 20
77.2961116868
 10
138.4688397679
 20
77.314341798
 10
138.5640076861
 20
77.3405548502
 10
138.5817012044
 20
77.3463272652
  0
LWPOLYLINE
  5
247
100
AcDbEntity
  8
ASSI
100
AcDbPolyline
 62
7
  6
CONTINUOUS
 90
8
 70
0
 10
137.7085559763
 20
77.3998359815
 10
137.7451812481
 20
77.3821736246
 10
137.8960268109
 20
77.3261538647
 10
138.0553407159
 20
77.2928679833
 10
138.2198610175
 20
77.2833858078
 10
138.3871410492
 20
77.2982221204
 10
138.5547011848
 20
77.3376358309
 10
138.5804019637
 20
77.3458970524
  0
LINE
  5
248
100
AcDbEntity
  8
RACCORDO
100
AcDbLine
 62
7
  6
CONTINUOUS
 10
137.7130405638
 20
77.3975579248
 11
123.5779514323
 21
84.4651024906
  0
LINE
  5
249
100
AcDbEntity
  8
RACCORDO
100
AcDbLine
 62
253
  6
CONTINUOUS
 10
137.3200372181
 20
78.2598914959
 11
123.1927661767
 21
85.3235270166
  0
LINE
  5
24A
100
AcDbEntity
  8
ASSI
100
AcDbLine
 62
253
  6
CONTINUOUS
 10
137.3200372181
 20
78.2598914959
 11
123.1927661767
 21
85.3235270166
  0
LINE
  5
24B
100
AcDbEntity
  8
ASSI
100
AcDbLine
 62
7
  6
CONTINUOUS
 10
137.7130405638
 20
77.3975579248
 11
123.577251093
 21
84.4654533243
  0
LINE
  5
24C
100
AcDbEntity
  8
26814000
100
AcDbLine
 62
7
  6
CONTINUOUS
 10
134.374786453
 20
127.1377589899
 11
133.8475417373
 21
126.4960512618
  0
LWPOLYLINE
  5
24D
100
AcDbEntity
  8
26814000
100
AcDbPolyline
 62
7
  6
CONTINUOUS
 90
12
 70
0
 10
141.723793515
 20
128.976220502
 10
141.7175067236
 20
128.9728641284
 10
141.705652297
 20
128.9653598552
 10
141.693997117
 20
128.9564873439
 10
141.6825015222
 20
128.9463022334
 10
141.6712102245
 20
128.934871161
 10
141.6600651581
 20
128.9222241349
 10
141.6489982787
 20
128.9083945987
 10
141.6380521595
 20
128.8934250999
 10
141.6272048584
 20
128.8773421727
 10
141.6163664296
 20
128.8601739184
 10
141.6054820617
 20
128.8419552869
  0
LINE
  5
24E
100
AcDbEntity
  8
26814000
100
AcDbLine
 62
7
  6
CONTINUOUS
 10
136.0240620494
 20
125.343760759
 11
136.5173840647
 21
125.5968442909
  0
LINE
  5
24F
100
AcDbEntity
  8
26814000
100
AcDbLine
 62
7
  6
CONTINUOUS
 10
135.2154485946
 20
125.7349255526
 11
141.7234852213
 21
128.9760671582
  0
LINE
  5
250
100
AcDbEntity
  8
26814000
100
AcDbLine
 62
253
  6
CONTINUOUS
 10
135.2909417351
 20
125.6971789824
 11
141.6054820617
 21
128.8419552869
  0
LINE
  5
251
100
AcDbEntity
  8
26814000
100
AcDbLine
 62
7
  6
CONTINUOUS
 10
142.5985023829
 20
127.9622117562
 11
137.8608869489
 21
125.6271612415
  0
LINE
  5
252
100
AcDbEntity
  8
26814000
100
AcDbLine
 62
7
  6
CONTINUOUS
 10
136.5173840647
 20
125.5968442909
 11
141.9950240542
 21
128.2651762541
  0
LINE
  5
253
100
AcDbEntity
  8
26814000
100
AcDbLine
 62
7
  6
CONTINUOUS
 10
147.2118599018
 20
79.6392880402
 11
147.7391046175
 21
79.5309957683
  0
LINE
  5
254
100
AcDbEntity
  8
26814000
100
AcDbLine
 62
7
  6
CONTINUOUS
 10
143.8047512788
 20
78.5680838554
 11
145.4112873763
 21
77.7648158067
  0
LINE
  5
255
100
AcDbEntity
  8
26814000
100
AcDbLine
 62
253
  6
CONTINUOUS
 10
143.7401578001
 20
78.7031123967
 11
145.3459342622
 21
77.9002241656
  0
LWPOLYLINE
  5
256
100
AcDbEntity
  8
ASSI
100
AcDbPolyline
 62
253
  6
CONTINUOUS
 90
9
 70
0
 10
122.9584261131
 20
85.6045781667
 10
122.9598313968
 20
85.5761561422
 10
122.9691322293
 20
85.5366339129
 10
122.9868862405
 20
85.4975784871
 10
123.0129031988
 20
85.4594083381
 10
123.0469043363
 20
85.4225324529
 10
123.0885253361
 20
85.3873459511
 10
123.1373202354
 20
85.3542258509
 10
123.1927662041
 20
85.3235270291
  0
LWPOLYLINE
  5
257
100
AcDbEntity
  8
RACCORDO
100
AcDbPolyline
 62
253
  6
CONTINUOUS
 90
9
 70
0
 10
122.9584346189
 20
85.6048701822
 10
122.9598313968
 20
85.5761561422
 10
122.9691322293
 20
85.5366339129
 10
122.9868862405
 20
85.4975784871
 10
123.0129031988
 20
85.4594083381
 10
123.0469043363
 20
85.4225324529
 10
123.0885253361
 20
85.3873459511
 10
123.1373202354
 20
85.3542258509
 10
123.1927662041
 20
85.3235270291
  0
LWPOLYLINE
  5
258
100
AcDbEntity
  8
ASSI
100
AcDbPolyline
 62
7
  6
CONTINUOUS
 90
9
 70
0
 10
122.9584357055
 20
85.6045778807
 10
122.9590627878
 20
85.4912135167
 10
122.9801939851
 20
85.2983214403
 10
123.0268701169
 20
85.1149403197
 10
123.0990541578
 20
84.943504237
 10
123.1950641609
 20
84.788693586
 10
123.3114055442
 20
84.6550320934
 10
123.4456105888
 20
84.5438585535
 10
123.5771707137
 20
84.4655065772
  0
LWPOLYLINE
  5
259
100
AcDbEntity
  8
RACCORDO
100
AcDbPolyline
 62
7
  6
CONTINUOUS
 90
15
 70
0
 10
122.9584442006
 20
85.604869893
 10
122.957691242
 20
85.55527117
 10
122.962328948
 20
85.4372880347
 10
122.9758901144
 20
85.3235956942
 10
122.9980144665
 20
85.2145856309
 10
123.0283930424
 20
85.1104122333
 10
123.0667750872
 20
85.0112867517
 10
123.1127001388
 20
84.9178204542
 10
123.1657830146
 20
84.830329863
 10
123.2258243939
 20
84.7489233579
 10
123.2922494147
 20
84.6742001951
 10
123.3644608057
 20
84.6066020014
 10
123.442213179
 20
84.5462411655
 10
123.5249662295
 20
84.4935231375
 10
123.5790156302
 20
84.4645853852
  0
LINE
  5
25A
100
AcDbEntity
  8
ASSI
100
AcDbLine
 62
7
  6
CONTINUOUS
 10
122.9584412559
 20
85.6050876028
 11
122.9584261131
 21
85.6045781667
  0
LINE
  5
25B
100
AcDbEntity
  8
RACCORDO
100
AcDbLine
 62
7
  6
CONTINUOUS
 10
122.9584412639
 20
85.6050878583
 11
122.9584346189
 21
85.6048701822
  0
LWPOLYLINE
  5
25C
100
AcDbEntity
  8
RACCORDO
100
AcDbPolyline
 62
253
  6
CONTINUOUS
 90
13
 70
0
 10
123.1927661767
 20
85.3235270166
 10
123.2977132783
 20
88.281665384
 10
123.4287949551
 20
91.2517465633
 10
123.5859950109
 20
94.2333975811
 10
123.7692939976
 20
97.2262439613
 10
123.9786689624
 20
100.2299100105
 10
124.2140934537
 20
103.2440188661
 10
124.4755377727
 20
106.2681922329
 10
124.7629692451
 20
109.3020504065
 10
125.076351975
 20
112.3452125622
 10
125.4156465717
 20
115.3972967512
 10
125.7808101512
 20
118.4579199484
 10
126.1717966146
 20
121.5266980784
  0
LWPOLYLINE
  5
25D
100
AcDbEntity
  8
ASSI
100
AcDbPolyline
 62
253
  6
CONTINUOUS
 90
13
 70
0
 10
123.1927661767
 20
85.3235270166
 10
123.2977132783
 20
88.281665384
 10
123.4287949551
 20
91.2517465633
 10
123.5859950109
 20
94.2333975811
 10
123.7692939976
 20
97.2262439613
 10
123.9786689624
 20
100.2299100105
 10
124.2140934537
 20
103.2440188661
 10
124.4755377727
 20
106.2681922329
 10
124.7629692451
 20
109.3020504065
 10
125.076351975
 20
112.3452125622
 10
125.4156465717
 20
115.3972967512
 10
125.7808101512
 20
118.4579199484
 10
126.1717966146
 20
121.5266980784
  0
LINE
  5
25E
100
AcDbEntity
  8
ASSI
100
AcDbLine
 62
7
  6
CONTINUOUS
 10
123.0942155954
 20
89.3163155917
 11
122.9584412559
 21
85.6050876028
  0
LWPOLYLINE
  5
25F
100
AcDbEntity
  8
RACCORDO
100
AcDbPolyline
 62
7
  6
CONTINUOUS
 90
3
 70
0
 10
123.1920458285
 20
91.4825621934
 10
123.0609791504
 20
88.5022857316
 10
122.9584412639
 20
85.6050878583
  0
LWPOLYLINE
  5
260
100
AcDbEntity
  8
ASSI
100
AcDbPolyline
 62
253
  6
CONTINUOUS
 90
10
 70
0
 10
125.9359058964
 20
121.7905993856
 10
125.9354441281
 20
121.7863751735
 10
125.9367792578
 20
121.7539384628
 10
125.9466043812
 20
121.7207827066
 10
125.9648142248
 20
121.6872631605
 10
125.9912136746
 20
121.653738978
 10
126.0255198672
 20
121.6205693622
 10
126.0673652205
 20
121.5881097173
 10
126.1163013722
 20
121.5567078402
 10
126.1718039839
 20
121.526700194
  0
LWPOLYLINE
  5
261
100
AcDbEntity
  8
RACCORDO
100
AcDbPolyline
 62
253
  6
CONTINUOUS
 90
10
 70
0
 10
125.9359569113
 20
121.7909949479
 10
125.9354441281
 20
121.7863751735
 10
125.9367792578
 20
121.7539384628
 10
125.9466043812
 20
121.7207827066
 10
125.9648142248
 20
121.6872631605
 10
125.9912136746
 20
121.653738978
 10
126.0255198672
 20
121.6205693622
 10
126.0673652205
 20
121.5881097173
 10
126.1163013722
 20
121.5567078402
 10
126.1718039839
 20
121.526700194
  0
LWPOLYLINE
  5
262
100
AcDbEntity
  8
RACCORDO
100
AcDbPolyline
 62
7
  6
CONTINUOUS
 90
10
 70
0
 10
125.5521229521
 20
118.7800777174
 10
125.1853478579
 20
115.7093066726
 10
124.8446148464
 20
112.6470522015
 10
124.5299754697
 20
109.5937458992
 10
124.2414676987
 20
106.5497669423
 10
123.9791257513
 20
103.5154740615
 10
123.7429841667
 20
100.4912402248
 10
123.5330722645
 20
97.4774365085
 10
123.3494172493
 20
94.4744189874
 10
123.1920458285
 20
91.4825621934
  0
LWPOLYLINE
  5
263
100
AcDbEntity
  8
ASSI
100
AcDbPolyline
 62
7
  6
CONTINUOUS
 90
9
 70
0
 10
125.9359625694
 20
121.791083464
 10
125.4468715878
 20
117.9199860115
 10
124.9678716175
 20
113.781100369
 10
124.5363571563
 20
109.6582022202
 10
124.1524319085
 20
105.5522703814
 10
123.8161822939
 20
101.4642148966
 10
123.5276847041
 20
97.3949252553
 10
123.2870083102
 20
93.3453045392
 10
123.0942155954
 20
89.3163155917
  0
LINE
  5
264
100
AcDbEntity
  8
RACCORDO
100
AcDbLine
 62
7
  6
CONTINUOUS
 10
125.9359625479
 20
121.7910833008
 11
125.5521229521
 21
118.7800777174
  0
LINE
  5
265
100
AcDbEntity
  8
ASSI
100
AcDbLine
 62
7
  6
CONTINUOUS
 10
125.9415165787
 20
121.8298395836
 11
125.9359058964
 21
121.7905993856
  0
LWPOLYLINE
  5
266
100
AcDbEntity
  8
RACCORDO
100
AcDbPolyline
 62
253
  6
CONTINUOUS
 90
17
 70
0
 10
126.1717966146
 20
121.5266980784
 10
126.1871838331
 20
121.6244146773
 10
126.2076838051
 20
121.7231588301
 10
126.2331921927
 20
121.8224362046
 10
126.2635764116
 20
121.9217449385
 10
126.2986847762
 20
122.0205936678
 10
126.3383499833
 20
122.1185035967
 10
126.3823798138
 20
122.2149997671
 10
126.430548453
 20
122.3095840169
 10
126.4826041543
 20
122.4017546942
 10
126.5382695223
 20
122.4910341045
 10
126.597273262
 20
122.5769981996
 10
126.6593459138
 20
122.6592460169
 10
126.7241892705
 20
122.7373809631
 10
126.7914656231
 20
122.8109932489
 10
126.8608268002
 20
122.8796923212
 10
126.931912881
 20
122.9431289277
  0
LWPOLYLINE
  5
267
100
AcDbEntity
  8
ASSI
100
AcDbPolyline
 62
253
  6
CONTINUOUS
 90
14
 70
0
 10
126.1717966146
 20
121.5266980784
 10
126.1871838331
 20
121.6244146773
 10
126.2076838051
 20
121.7231588301
 10
126.2331921927
 20
121.8224362046
 10
126.2635764116
 20
121.9217449385
 10
126.2986847762
 20
122.0205936678
 10
126.3383499833
 20
122.1185035967
 10
126.3823798138
 20
122.2149997671
 10
126.430548453
 20
122.3095840169
 10
126.4826041543
 20
122.4017546942
 10
126.5382695223
 20
122.4910341045
 10
126.597273262
 20
122.5769981996
 10
126.6593459138
 20
122.6592460169
 10
126.7241892705
 20
122.7373809631
  0
LWPOLYLINE
  5
268
100
AcDbEntity
  8
RACCORDO
100
AcDbPolyline
 62
7
  6
CONTINUOUS
 90
3
 70
0
 10
125.9603174053
 20
121.931618576
 10
125.9404663943
 20
121.8229645224
 10
125.9359569113
 20
121.7909949479
  0
LINE
  5
269
100
AcDbEntity
  8
26814000
100
AcDbLine
 62
7
  6
CONTINUOUS
 10
143.9255762113
 20
126.4923375226
 11
142.5277917048
 21
125.7934452693
  0
LINE
  5
26A
100
AcDbEntity
  8
26814000
100
AcDbLine
 62
7
  6
CONTINUOUS
 10
142.1742383142
 20
126.5227801539
 11
142.5985023829
 21
126.7303775748
  0
LINE
  5
26B
100
AcDbEntity
  8
26814000
100
AcDbLine
 62
7
  6
CONTINUOUS
 10
144.5845719626
 20
127.3524103364
 11
142.5277917048
 21
126.3460034586
  0
LINE
  5
26C
100
AcDbEntity
  8
21814000
100
AcDbLine
 62
7
  6
CONTINUOUS
 10
141.5905844945
 20
125.1663494864
 11
141.4524696923
 21
125.101112401
  0
LINE
  5
26D
100
AcDbEntity
  8
21814000
100
AcDbLine
 62
253
  6
CONTINUOUS
 10
141.674118501
 20
125.1578503997
 11
141.5378422119
 21
125.0934817168
  0
LWPOLYLINE
  5
26E
100
AcDbEntity
  8
21814000
100
AcDbPolyline
 62
253
  6
CONTINUOUS
 90
11
 70
0
 10
142.5075846239
 20
125.2116703728
 10
142.5166770844
 20
125.2157608239
 10
142.5257357587
 20
125.2191176091
 10
142.5347228803
 20
125.2217245812
 10
142.543604068
 20
125.2235691854
 10
142.5523385324
 20
125.224640331
 10
142.5608798807
 20
125.2249313451
 10
142.5691967061
 20
125.224440851
 10
142.5772499301
 20
125.2231708386
 10
142.5849859104
 20
125.2211333224
 10
142.5923595532
 20
125.2183499535
  0
LINE
  5
26F
100
AcDbEntity
  8
21814000
100
AcDbLine
 62
7
  6
CONTINUOUS
 10
141.5906380099
 20
125.1663747638
 11
141.5938460501
 21
125.1677903934
  0
LWPOLYLINE
  5
270
100
AcDbEntity
  8
21814000
100
AcDbPolyline
 62
7
  6
CONTINUOUS
 90
5
 70
0
 10
141.4523512237
 20
125.1010554987
 10
141.4571943884
 20
125.103113123
 10
141.4646207483
 20
125.1054309855
 10
141.4727671664
 20
125.1069633501
 10
141.4816855014
 20
125.1076142638
  0
LINE
  5
271
100
AcDbEntity
  8
21814000
100
AcDbLine
 62
7
  6
CONTINUOUS
 10
141.6636866399
 20
125.1938915306
 11
141.5938456888
 21
125.1677902232
  0
LINE
  5
272
100
AcDbEntity
  8
21814000
100
AcDbLine
 62
7
  6
CONTINUOUS
 10
141.73872575
 20
125.2168190957
 11
141.6636866399
 21
125.1938915306
  0
LWPOLYLINE
  5
273
100
AcDbEntity
  8
21814000
100
AcDbPolyline
 62
7
  6
CONTINUOUS
 90
6
 70
0
 10
141.5938460501
 20
125.1677903934
 10
141.6070743247
 20
125.1717324184
 10
141.6228579448
 20
125.1730710538
 10
141.6394952774
 20
125.1711772286
 10
141.6566838784
 20
125.1660760198
 10
141.674118501
 20
125.1578503997
  0
LINE
  5
274
100
AcDbEntity
  8
ASSI
100
AcDbLine
 62
253
  6
CONTINUOUS
 10
130.5267840299
 20
86.922987043
 11
130.4520522742
 21
86.9563854373
  0
LWPOLYLINE
  5
275
100
AcDbEntity
  8
RACCORDO
100
AcDbPolyline
 62
253
  6
CONTINUOUS
 90
55
 70
0
 10
130.340831734
 20
87.2649879034
 10
130.3779630732
 20
87.2478425011
 10
130.4151969237
 20
87.2334827023
 10
130.4524079849
 20
87.2219574872
 10
130.4894526963
 20
87.2133099685
 10
130.5262248498
 20
87.2075634007
 10
130.5626543815
 20
87.2047354838
 10
130.5986538201
 20
87.2048509906
 10
130.6340596965
 20
87.2079279962
 10
130.6686909692
 20
87.2139574494
 10
130.7024252767
 20
87.2229163542
 10
130.7351534012
 20
87.2347737804
 10
130.7667261296
 20
87.2494683673
 10
130.7970122131
 20
87.2669203435
 10
130.8259460054
 20
87.2870725482
 10
130.8534811271
 20
87.3098870603
 10
130.8795405702
 20
87.3353077573
 10
130.9040157323
 20
87.3632368095
 10
130.9268149153
 20
87.3935716349
 10
130.9478606991
 20
87.4262088893
 10
130.9670827196
 20
87.4610390988
 10
130.9844118549
 20
87.4979346734
 10
130.9997821573
 20
87.5367444523
 10
131.0131550062
 20
87.5773588051
 10
131.0245038309
 20
87.6197097685
 10
131.0337899948
 20
87.6637045405
 10
131.0409614013
 20
87.709159363
 10
131.0459799117
 20
87.7558636463
 10
131.0488274845
 20
87.803640404
 10
131.0494964552
 20
87.8523450134
 10
131.0479846485
 20
87.9018042691
 10
131.0442984706
 20
87.9518440967
 10
131.0384511015
 20
88.0023001277
 10
131.03046137
 20
88.0530106676
 10
131.0203544002
 20
88.1038103383
 10
131.0081649324
 20
88.154519853
 10
130.9939370468
 20
88.204956436
 10
130.9777222915
 20
88.2549418162
 10
130.9595745661
 20
88.3043137448
 10
130.9395515629
 20
88.352915552
 10
130.9177170717
 20
88.4005896114
 10
130.894147825
 20
88.4471658462
 10
130.868930236
 20
88.4924740242
 10
130.8421561964
 20
88.5363524678
 10
130.8139124854
 20
88.5786621209
 10
130.7842855907
 20
88.6192733967
 10
130.7533545525
 20
88.658072564
 10
130.7212430596
 20
88.6948994608
 10
130.6881153402
 20
88.7295725198
 10
130.6541239916
 20
88.7619514856
 10
130.6193537582
 20
88.7919742572
 10
130.5838725342
 20
88.8195889094
 10
130.5477819452
 20
88.8447143926
 10
130.511220681
 20
88.8672523768
 10
130.4743118242
 20
88.887127267
  0
LINE
  5
276
100
AcDbEntity
  8
26814000
100
AcDbLine
 62
253
  6
CONTINUOUS
 10
145.3459342622
 20
78.1535955594
 11
143.7401578001
 21
78.9564837905
  0
LINE
  5
277
100
AcDbEntity
  8
26814000
100
AcDbLine
 62
253
  6
CONTINUOUS
 10
145.4348368382
 20
78.385032619
 11
143.8280319193
 21
79.1884350785
  0
LINE
  5
278
100
AcDbEntity
  8
26814000
100
AcDbLine
 62
7
  6
CONTINUOUS
 10
143.0367659036
 20
80.5779069866
 11
145.4976401857
 21
79.3474698456
  0
LINE
  5
279
100
AcDbEntity
  8
26814000
100
AcDbLine
 62
7
  6
CONTINUOUS
 10
146.0571548703
 20
79.1300920365
 11
145.647889874
 21
79.3347245347
  0
LINE
  5
27A
100
AcDbEntity
  8
26814000
100
AcDbLine
 62
7
  6
CONTINUOUS
 10
143.06265103
 20
80.8924803619
 11
145.7451275592
 21
79.5512420974
  0
LWPOLYLINE
  5
27B
100
AcDbEntity
  8
RACCORDO
100
AcDbPolyline
 62
7
  6
CONTINUOUS
 90
46
 70
0
 10
130.3668138223
 20
87.2096584532
 10
130.3262634277
 20
87.2314444992
 10
130.286257911
 20
87.2559661839
 10
130.2469023346
 20
87.2831463692
 10
130.2082883291
 20
87.3129128886
 10
130.1705274672
 20
87.3451738623
 10
130.1337528146
 20
87.3798072869
 10
130.0980469813
 20
87.4167278191
 10
130.06352291
 20
87.4558141785
 10
130.0303513426
 20
87.4968574078
 10
129.9986344664
 20
87.5397026612
 10
129.9684350077
 20
87.5842390453
 10
129.939851895
 20
87.6302958253
 10
129.9129698585
 20
87.6777063687
 10
129.8878426814
 20
87.7263475392
 10
129.864519406
 20
87.7761060156
 10
129.8430579852
 20
87.8268494441
 10
129.8235253138
 20
87.8784143462
 10
129.8059806806
 20
87.9306384125
 10
129.7904768685
 20
87.9833590943
 10
129.777055876
 20
88.0364331319
 10
129.7657548988
 20
88.0897267911
 10
129.7566090807
 20
88.143110998
 10
129.7496584633
 20
88.1964076892
 10
129.7449363356
 20
88.2494136351
 10
129.7424622536
 20
88.3019579676
 10
129.7422486184
 20
88.353911448
 10
129.7443066482
 20
88.4051412382
 10
129.7486503241
 20
88.4555547036
 10
129.7552828158
 20
88.5049521393
 10
129.764176387
 20
88.5530583369
 10
129.7753094341
 20
88.5997472659
 10
129.7886555916
 20
88.6448905043
 10
129.8041376306
 20
88.6882431597
 10
129.8216935474
 20
88.729678657
 10
129.8412762483
 20
88.7691215927
 10
129.8627996336
 20
88.8064318251
 10
129.8861939028
 20
88.841524582
 10
129.9113817062
 20
88.8743146943
 10
129.9382401052
 20
88.9046796132
 10
129.9666525607
 20
88.9325355607
 10
129.9965308737
 20
88.9578415549
 10
130.0277720955
 20
88.9805491634
 10
130.0602588966
 20
89.0006097599
 10
130.0938630441
 20
89.0179815486
 10
130.1284540843
 20
89.032635674
  0
LWPOLYLINE
  5
27C
100
AcDbEntity
  8
RACCORDO
100
AcDbPolyline
 62
253
  6
CONTINUOUS
 90
3
 70
0
 10
130.5300393155
 20
87.0765717563
 10
130.4623180754
 20
87.113898429
 10
130.3952321389
 20
87.1578576161
  0
LWPOLYLINE
  5
27D
100
AcDbEntity
  8
ASSI
100
AcDbPolyline
 62
253
  6
CONTINUOUS
 90
3
 70
0
 10
130.5300393155
 20
87.0765717563
 10
130.4623180754
 20
87.113898429
 10
130.3952321389
 20
87.1578576161
  0
LWPOLYLINE
  5
27E
100
AcDbEntity
  8
RACCORDO
100
AcDbPolyline
 62
253
  6
CONTINUOUS
 90
37
 70
0
 10
130.4520522742
 20
86.9563854373
 10
130.3780117616
 20
86.9973091996
 10
130.3055883365
 20
87.0448055828
 10
130.2347827171
 20
87.0988748957
 10
130.1651248756
 20
87.1599636689
 10
130.0970877252
 20
87.2276266119
 10
130.0320869178
 20
87.3005265264
 10
129.9702089862
 20
87.3787641662
 10
129.9113725343
 20
87.4622409812
 10
129.856741237
 20
87.5493207787
 10
129.8064152493
 20
87.6400469006
 10
129.7603005946
 20
87.7343786474
 10
129.7192688661
 20
87.8305533836
 10
129.6834068728
 20
87.9286398016
 10
129.652633709
 20
88.028571722
 10
129.6275676282
 20
88.1283834429
 10
129.6083282279
 20
88.2280561722
 10
129.594800062
 20
88.3276104551
 10
129.5872463012
 20
88.4251385196
 10
129.5857830853
 20
88.5206105984
 10
129.5902958043
 20
88.6140570879
 10
129.6006985844
 20
88.7036592194
 10
129.6171058856
 20
88.7893360441
 10
129.6394017432
 20
88.871167851
 10
129.6671517152
 20
88.9475764851
 10
129.7004629848
 20
89.0184569877
 10
129.7392242115
 20
89.0839125414
 10
129.7826706519
 20
89.1426761423
 10
129.830883188
 20
89.1946087072
 10
129.8837750598
 20
89.2398468279
 10
129.9403282871
 20
89.2775362681
 10
130.0006018716
 20
89.3075348918
 10
130.0645306116
 20
89.3299822196
 10
130.1309093361
 20
89.3444461297
 10
130.1998220826
 20
89.3507648789
 10
130.2711796886
 20
89.3490980554
 10
130.3435170951
 20
89.3394954988
  0
LWPOLYLINE
  5
27F
100
AcDbEntity
  8
ASSI
100
AcDbPolyline
 62
253
  6
CONTINUOUS
 90
5
 70
0
 10
130.4520522742
 20
86.9563854373
 10
130.3780117616
 20
86.9973091996
 10
130.3055883365
 20
87.0448055828
 10
130.2347827171
 20
87.0988748957
 10
130.1651248756
 20
87.1599636689
  0
LINE
  5
280
100
AcDbEntity
  8
RACCORDO
100
AcDbLine
 62
253
  6
CONTINUOUS
 10
130.3952321389
 20
87.1578576161
 11
130.3292150263
 21
87.2081940559
  0
LWPOLYLINE
  5
281
100
AcDbEntity
  8
ASSI
100
AcDbPolyline
 62
253
  6
CONTINUOUS
 90
4
 70
0
 10
130.3952321389
 20
87.1578576161
 10
130.3292150263
 20
87.2081940559
 10
130.264660712
 20
87.2646281866
 10
130.2428870408
 20
87.2862416534
  0
LWPOLYLINE
  5
282
100
AcDbEntity
  8
RACCORDO
100
AcDbPolyline
 62
253
  6
CONTINUOUS
 90
3
 70
0
 10
130.3292150263
 20
87.2081940559
 10
130.264660712
 20
87.2646281866
 10
130.2428870408
 20
87.2862416534
  0
LWPOLYLINE
  5
283
100
AcDbEntity
  8
ASSI
100
AcDbPolyline
 62
253
  6
CONTINUOUS
 90
30
 70
0
 10
130.1651248756
 20
87.1599636689
 10
130.0970877252
 20
87.2276266119
 10
130.0320869178
 20
87.3005265264
 10
129.9702089862
 20
87.3787641662
 10
129.9113725343
 20
87.4622409812
 10
129.856741237
 20
87.5493207787
 10
129.8064152493
 20
87.6400469006
 10
129.7603005946
 20
87.7343786474
 10
129.7192688661
 20
87.8305533836
 10
129.6834068728
 20
87.9286398016
 10
129.652633709
 20
88.028571722
 10
129.6275676282
 20
88.1283834429
 10
129.6083282279
 20
88.2280561722
 10
129.594800062
 20
88.3276104551
 10
129.5872463012
 20
88.4251385196
 10
129.5857830853
 20
88.5206105984
 10
129.5902958043
 20
88.6140570879
 10
129.6006985844
 20
88.7036592194
 10
129.6171058856
 20
88.7893360441
 10
129.6394017432
 20
88.871167851
 10
129.6671517152
 20
88.9475764851
 10
129.7004629848
 20
89.0184569877
 10
129.7392242115
 20
89.0839125414
 10
129.7826706519
 20
89.1426761423
 10
129.830883188
 20
89.1946087072
 10
129.8837750598
 20
89.2398468279
 10
129.9403282871
 20
89.2775362681
 10
130.0006018716
 20
89.3075348918
 10
130.0645306116
 20
89.3299822196
 10
130.1309093361
 20
89.3444461297
  0
LINE
  5
284
100
AcDbEntity
  8
21814000
100
AcDbLine
 62
7
  6
CONTINUOUS
 10
141.4377384938
 20
125.0914359698
 11
140.5268121353
 21
124.2941986483
  0
LINE
  5
285
100
AcDbEntity
  8
21814000
100
AcDbLine
 62
253
  6
CONTINUOUS
 10
141.5371833375
 20
125.093811154
 11
140.5883731572
 21
124.2634181374
  0
LWPOLYLINE
  5
286
100
AcDbEntity
  8
21814000
100
AcDbPolyline
 62
7
  6
CONTINUOUS
 90
5
 70
0
 10
141.4376412549
 20
125.0913503714
 10
141.4387220582
 20
125.0922818919
 10
141.4442704229
 20
125.0964646282
 10
141.4504248829
 20
125.1001022769
 10
141.4523512237
 20
125.1010554987
  0
LINE
  5
287
100
AcDbEntity
  8
21814000
100
AcDbLine
 62
253
  6
CONTINUOUS
 10
141.0891021156
 20
124.0130536582
 11
141.5629105592
 21
124.3844737147
  0
LINE
  5
288
100
AcDbEntity
  8
21814000
100
AcDbLine
 62
253
  6
CONTINUOUS
 10
141.3669917786
 20
123.8741088267
 11
141.7357176892
 21
124.1631543268
  0
LWPOLYLINE
  5
289
100
AcDbEntity
  8
21814000
100
AcDbPolyline
 62
253
  6
CONTINUOUS
 90
13
 70
0
 10
141.5629105592
 20
124.3844737147
 10
141.6040894785
 20
124.4140198446
 10
141.6472848508
 20
124.4406299807
 10
141.6924966762
 20
124.4643041231
 10
141.7402736442
 20
124.4851990911
 10
141.7900670653
 20
124.5031580654
 10
141.8402308705
 20
124.5177105876
 10
141.8907366615
 20
124.5287290857
 10
141.9416128366
 20
124.5363411317
 10
141.9912985219
 20
124.5404589836
 10
142.0396534763
 20
124.540997179
 10
142.0868179409
 20
124.5380411803
 10
142.1316517659
 20
124.5317596322
  0
LINE
  5
28A
100
AcDbEntity
  8
26814000
100
AcDbLine
 62
7
  6
CONTINUOUS
 10
142.2408280063
 20
122.2353777806
 11
142.7399237391
 21
122.4855744537
  0
LINE
  5
28B
100
AcDbEntity
  8
26814000
100
AcDbLine
 62
7
  6
CONTINUOUS
 10
142.7399237391
 20
122.4855744537
 11
148.1541964343
 21
125.185590064
  0
LINE
  5
28C
100
AcDbEntity
  8
26814000
100
AcDbLine
 62
7
  6
CONTINUOUS
 10
147.5482498512
 20
125.487338022
 11
142.8106344172
 21
123.1522875074
  0
LINE
  5
28D
100
AcDbEntity
  8
26814000
100
AcDbLine
 62
7
  6
CONTINUOUS
 10
148.8272126497
 20
125.2310899929
 11
148.2408338627
 21
124.9441679252
  0
LWPOLYLINE
  5
28E
100
AcDbEntity
  8
26814000
100
AcDbPolyline
 62
7
  6
CONTINUOUS
 90
18
 70
0
 10
148.8272126497
 20
125.2310899929
 10
148.8555871705
 20
125.2442719497
 10
148.8838216225
 20
125.2560063414
 10
148.9119160057
 20
125.2662931681
 10
148.9399203188
 20
125.2751453027
 10
148.9677845631
 20
125.2825498723
 10
148.9953587427
 20
125.2884682579
 10
149.0226278714
 20
125.2928916792
 10
149.0496069354
 20
125.2958289165
 10
149.076190898
 20
125.2972676925
 10
149.1023958569
 20
125.2972005559
 10
149.1282057143
 20
125.2956349579
 10
149.1534671406
 20
125.2925809745
 10
149.1781568939
 20
125.2880351901
 10
149.202298216
 20
125.2820010203
 10
149.2258075023
 20
125.2744987875
 10
149.2487032825
 20
125.2655133728
 10
149.2682653668
 20
125.2564236398
  0
LINE
  5
28F
100
AcDbEntity
  8
21814000
100
AcDbLine
 62
7
  6
CONTINUOUS
 10
155.0565511206
 20
127.7999864158
 11
149.4030812302
 21
125.1890266708
  0
LINE
  5
290
100
AcDbEntity
  8
21814000
100
AcDbLine
 62
253
  6
CONTINUOUS
 10
155.4450086032
 20
127.7677720801
 11
149.6230953528
 21
125.0790196095
  0
LWPOLYLINE
  5
291
100
AcDbEntity
  8
21814000
100
AcDbPolyline
 62
253
  6
CONTINUOUS
 90
9
 70
0
 10
155.4450086032
 20
127.7677720801
 10
155.4990150047
 20
127.7908035961
 10
155.5527350779
 20
127.8080452326
 10
155.6057709223
 20
127.8193100042
 10
155.6577568476
 20
127.8244539208
 10
155.7082580974
 20
127.8233657818
 10
155.7567862336
 20
127.8160103866
 10
155.8029685263
 20
127.8024162371
 10
155.8363796167
 20
127.7879063658
  0
LWPOLYLINE
  5
292
100
AcDbEntity
  8
21814000
100
AcDbPolyline
 62
7
  6
CONTINUOUS
 90
12
 70
0
 10
155.0565511206
 20
127.7999864158
 10
155.1221785967
 20
127.8272060653
 10
155.1908774273
 20
127.8494818347
 10
155.2621849099
 20
127.866381217
 10
155.3357415593
 20
127.8775455415
 10
155.4107695416
 20
127.8826172643
 10
155.4861554991
 20
127.8813964175
 10
155.5613410078
 20
127.8738462825
 10
155.6356984394
 20
127.859999651
 10
155.7082198108
 20
127.8400900342
 10
155.7785718424
 20
127.8143005834
 10
155.8364119713
 20
127.7878901883
  0
LWPOLYLINE
  5
293
100
AcDbEntity
  8
21814000
100
AcDbPolyline
 62
253
  6
CONTINUOUS
 90
9
 70
0
 10
155.0565511206
 20
127.7999864158
 10
155.0844637462
 20
127.8113853953
 10
155.1309781592
 20
127.8243644483
 10
155.1797971118
 20
127.8309420416
 10
155.2305492063
 20
127.8310681352
 10
155.2828483383
 20
127.8247417697
 10
155.3362966341
 20
127.812011074
 10
155.3904874775
 20
127.7929728989
 10
155.4450086032
 20
127.7677720801
  0
LWPOLYLINE
  5
294
100
AcDbEntity
  8
RACCORDO
100
AcDbPolyline
 62
253
  6
CONTINUOUS
 90
5
 70
0
 10
130.7453329374
 20
86.8702633227
 10
130.673180473
 20
86.8799346579
 10
130.6004931875
 20
86.8975033458
 10
130.5267840299
 20
86.922987043
 10
130.4520522742
 20
86.9563854373
  0
LWPOLYLINE
  5
295
100
AcDbEntity
  8
RACCORDO
100
AcDbPolyline
 62
253
  6
CONTINUOUS
 90
4
 70
0
 10
130.7342785851
 20
87.0059159701
 10
130.6665985428
 20
87.0222990976
 10
130.5983705322
 20
87.0459056334
 10
130.5300393155
 20
87.0765717563
  0
LWPOLYLINE
  5
296
100
AcDbEntity
  8
RACCORDO
100
AcDbPolyline
 62
7
  6
CONTINUOUS
 90
4
 70
0
 10
130.4571305724
 20
89.2561012706
 10
130.518164509
 20
89.235435298
 10
130.5794918144
 20
89.2087879186
 10
130.5907398688
 20
89.2032664904
  0
LINE
  5
297
100
AcDbEntity
  8
RACCORDO
100
AcDbLine
 62
253
  6
CONTINUOUS
 10
130.4163449055
 20
89.3219733847
 11
130.490149605
 21
89.2965143157
  0
LINE
  5
298
100
AcDbEntity
  8
ASSI
100
AcDbLine
 62
253
  6
CONTINUOUS
 10
130.4163449055
 20
89.3219733847
 11
130.490149605
 21
89.2965143157
  0
LINE
  5
299
100
AcDbEntity
  8
ASSI
100
AcDbLine
 62
7
  6
CONTINUOUS
 10
130.505080377
 20
89.2403617326
 11
130.5906414985
 21
89.2033159579
  0
LWPOLYLINE
  5
29A
100
AcDbEntity
  8
0
100
AcDbPolyline
 62
7
  6
CONTINUOUS
 90
3
 70
0
 10
131.2271345517
 20
87.3169101909
 10
131.2795792096
 20
87.29385179
 10
131.2973941559
 20
87.2880041276
  0
LWPOLYLINE
  5
29B
100
AcDbEntity
  8
ASSI
100
AcDbPolyline
 62
7
  6
CONTINUOUS
 90
3
 70
0
 10
131.2271345517
 20
87.3169101909
 10
131.2795792096
 20
87.29385179
 10
131.2973941559
 20
87.2880041276
  0
LINE
  5
29C
100
AcDbEntity
  8
RACCORDO
100
AcDbLine
 62
253
  6
CONTINUOUS
 10
130.490149605
 20
89.2965143157
 11
130.5649304681
 21
89.2631179874
  0
LINE
  5
29D
100
AcDbEntity
  8
ASSI
100
AcDbLine
 62
253
  6
CONTINUOUS
 10
130.490149605
 20
89.2965143157
 11
130.5649304681
 21
89.2631179874
  0
LWPOLYLINE
  5
29E
100
AcDbEntity
  8
RACCORDO
100
AcDbPolyline
 62
253
  6
CONTINUOUS
 90
55
 70
0
 10
130.4743118242
 20
88.887127267
 10
130.4371805234
 20
88.9042726836
 10
130.3999466919
 20
88.9186324895
 10
130.3627356302
 20
88.9301577045
 10
130.3256908861
 20
88.9388052109
 10
130.2889186804
 20
88.9445517594
 10
130.2524891156
 20
88.947379664
 10
130.2164896847
 20
88.94726416
 10
130.1810838351
 20
88.9441871644
 10
130.1464525821
 20
88.9381577185
 10
130.1127182754
 20
88.929198814
 10
130.0799901446
 20
88.9173413855
 10
130.0484174118
 20
88.902646797
 10
130.0181313295
 20
88.8851948212
 10
129.9891975402
 20
88.8650426176
 10
129.961662421
 20
88.8422281064
 10
129.9356029791
 20
88.8168074099
 10
129.9111278176
 20
88.7888783579
 10
129.8883286354
 20
88.7585435328
 10
129.8672828528
 20
88.7259062788
 10
129.8480608336
 20
88.6910760698
 10
129.8307316993
 20
88.6541804956
 10
129.8153613974
 20
88.6153707169
 10
129.8019885488
 20
88.5747563642
 10
129.7906397244
 20
88.5324054009
 10
129.7813535612
 20
88.4884106291
 10
129.7741821555
 20
88.442955807
 10
129.7691636457
 20
88.3962515239
 10
129.7663160732
 20
88.3484747663
 10
129.7656471027
 20
88.299770157
 10
129.7671589096
 20
88.2503109013
 10
129.7708450876
 20
88.2002710737
 10
129.7766924567
 20
88.1498150427
 10
129.7846821882
 20
88.0991045029
 10
129.7947891577
 20
88.0483048321
 10
129.8069786252
 20
87.9975953173
 10
129.8212065105
 20
87.9471587341
 10
129.8374212657
 20
87.8971733539
 10
129.855568991
 20
87.8478014253
 10
129.8755919937
 20
87.7991996179
 10
129.8974264831
 20
87.7515255578
 10
129.9209957276
 20
87.7049493222
 10
129.9462133157
 20
87.6596411439
 10
129.9729873586
 20
87.6157627014
 10
130.0012310741
 20
87.57345305
 10
130.0308579686
 20
87.5328417742
 10
130.0617889936
 20
87.494042602
 10
130.0939004685
 20
87.4572156985
 10
130.1270281829
 20
87.4225426376
 10
130.1610195544
 20
87.3901636803
 10
130.1957898238
 20
87.360140922
 10
130.2312710696
 20
87.332526278
 10
130.2673616574
 20
87.3074007943
 10
130.3039229064
 20
87.2848628046
 10
130.340831734
 20
87.2649879034
  0
LWPOLYLINE
  5
29F
100
AcDbEntity
  8
RACCORDO
100
AcDbPolyline
 62
253
  6
CONTINUOUS
 90
12
 70
0
 10
130.5507034376
 20
88.994704966
 10
130.509831288
 20
89.0135774003
 10
130.4688463124
 20
89.0293837346
 10
130.4278864141
 20
89.0420700635
 10
130.3871095774
 20
89.0515890403
 10
130.3466326994
 20
89.0579149695
 10
130.3065329657
 20
89.061028055
 10
130.2669067346
 20
89.0609008494
 10
130.2279339244
 20
89.0575136312
 10
130.1898137515
 20
89.0508765774
 10
130.1526808561
 20
89.0410150937
 10
130.1284540827
 20
89.0326356734
  0
LINE
  5
2A0
100
AcDbEntity
  8
26814000
100
AcDbLine
 62
253
  6
CONTINUOUS
 10
147.2118599018
 20
79.6392880402
 11
147.1684375758
 21
79.6609992032
  0
LINE
  5
2A1
100
AcDbEntity
  8
26814000
100
AcDbLine
 62
7
  6
CONTINUOUS
 10
143.1365846423
 20
81.7909710854
 11
146.5583003575
 21
80.0801132278
  0
LINE
  5
2A2
100
AcDbEntity
  8
26814000
100
AcDbLine
 62
253
  6
CONTINUOUS
 10
147.1239857825
 20
79.8385551858
 11
147.7391046175
 21
79.5309957683
  0
LINE
  5
2A3
100
AcDbEntity
  8
26814000
100
AcDbLine
 62
7
  6
CONTINUOUS
 10
147.1239857825
 20
79.8421753353
 11
147.7623839908
 21
79.5229762312
  0
LINE
  5
2A4
100
AcDbEntity
  8
26814000
100
AcDbLine
 62
7
  6
CONTINUOUS
 10
143.2669845942
 20
83.375678547
 11
146.5583003575
 21
81.7300206654
  0
LWPOLYLINE
  5
2A5
100
AcDbEntity
  8
RACCORDO
100
AcDbPolyline
 62
7
  6
CONTINUOUS
 90
25
 70
0
 10
130.5908149807
 20
89.2032229597
 10
130.6075991968
 20
89.1946072544
 10
130.678572035
 20
89.153316829
 10
130.7488925095
 20
89.1044711963
 10
130.8178933067
 20
89.048477251
 10
130.8850265452
 20
88.9857998821
 10
130.9498325323
 20
88.9168438051
 10
131.0117931567
 20
88.8421406409
 10
131.0704248377
 20
88.762300512
 10
131.1253529134
 20
88.6778016317
 10
131.1761443662
 20
88.5892745434
 10
131.222420473
 20
88.4974115463
 10
131.2638897244
 20
88.402752021
 10
131.3002151299
 20
88.3060082389
 10
131.3311297218
 20
88.2079184148
 10
131.3564233855
 20
88.1090646579
 10
131.3758655565
 20
88.010211901
 10
131.3893062279
 20
87.912133322
 10
131.3966256749
 20
87.8154711017
 10
131.3977246997
 20
87.721008231
 10
131.3925951371
 20
87.6295431264
 10
131.3812559388
 20
87.5418231473
 10
131.3637848299
 20
87.4585946636
 10
131.3403741133
 20
87.3806182339
 10
131.3112957192
 20
87.3086971388
  0
LINE
  5
2A6
100
AcDbEntity
  8
ASSI
100
AcDbLine
 62
7
  6
CONTINUOUS
 10
130.5912304016
 20
89.2030191688
 11
130.6411708208
 21
89.1760623282
  0
LINE
  5
2A7
100
AcDbEntity
  8
RACCORDO
100
AcDbLine
 62
253
  6
CONTINUOUS
 10
130.5649304681
 20
89.2631179874
 11
130.6389677719
 21
89.2221694036
  0
LINE
  5
2A8
100
AcDbEntity
  8
ASSI
100
AcDbLine
 62
253
  6
CONTINUOUS
 10
130.5649304681
 20
89.2631179874
 11
130.6389677719
 21
89.2221694036
  0
LWPOLYLINE
  5
2A9
100
AcDbEntity
  8
RACCORDO
100
AcDbPolyline
 62
253
  6
CONTINUOUS
 90
3
 70
0
 10
130.6389677719
 20
89.2221694036
 10
130.711335328
 20
89.1746287968
 10
130.7820338543
 20
89.1204964682
  0
LINE
  5
2AA
100
AcDbEntity
  8
ASSI
100
AcDbLine
 62
253
  6
CONTINUOUS
 10
130.6389677719
 20
89.2221694036
 11
130.711335328
 21
89.1746287968
  0
LWPOLYLINE
  5
2AB
100
AcDbEntity
  8
ASSI
100
AcDbPolyline
 62
7
  6
CONTINUOUS
 90
4
 70
0
 10
130.6411708208
 20
89.1760623282
 10
130.7777510083
 20
89.0820505721
 10
130.9089984086
 20
88.9613131527
 10
131.0308628815
 20
88.8172239462
  0
LINE
  5
2AC
100
AcDbEntity
  8
ASSI
100
AcDbLine
 62
253
  6
CONTINUOUS
 10
130.711335328
 20
89.1746287968
 11
130.7820338543
 21
89.1204964682
  0
LINE
  5
2AD
100
AcDbEntity
  8
RACCORDO
100
AcDbLine
 62
253
  6
CONTINUOUS
 10
130.7820338543
 20
89.1204964682
 11
130.8515347165
 21
89.0593252215
  0
LINE
  5
2AE
100
AcDbEntity
  8
ASSI
100
AcDbLine
 62
253
  6
CONTINUOUS
 10
130.7820338543
 20
89.1204964682
 11
130.8515347165
 21
89.0593252215
  0
LWPOLYLINE
  5
2AF
100
AcDbEntity
  8
RACCORDO
100
AcDbPolyline
 62
253
  6
CONTINUOUS
 90
17
 70
0
 10
130.8515347165
 20
89.0593252215
 10
130.9193694335
 20
88.9915634636
 10
130.9841294736
 20
88.9185551192
 10
131.0457312174
 20
88.8402022031
 10
131.1042634166
 20
88.7566048585
 10
131.1585760112
 20
88.6694041676
 10
131.2085741435
 20
88.5785600236
 10
131.2543588424
 20
88.4841151365
 10
131.2950729943
 20
88.387834445
 10
131.3306354511
 20
88.289652191
 10
131.3611332588
 20
88.1896366323
 10
131.3859598337
 20
88.0897529914
 10
131.4050003015
 20
87.9900210992
 10
131.4183736912
 20
87.8904228999
 10
131.4258217638
 20
87.7928657264
 10
131.4272301825
 20
87.6973787586
 10
131.4227148251
 20
87.6039334919
  0
LWPOLYLINE
  5
2B0
100
AcDbEntity
  8
ASSI
100
AcDbPolyline
 62
253
  6
CONTINUOUS
 90
4
 70
0
 10
130.8515347165
 20
89.0593252215
 10
130.9193694335
 20
88.9915634636
 10
130.9841294736
 20
88.9185551192
 10
131.0457312174
 20
88.8402022031
  0
LWPOLYLINE
  5
2B1
100
AcDbEntity
  8
ASSI
100
AcDbPolyline
 62
253
  6
CONTINUOUS
 90
12
 70
0
 10
131.0457312174
 20
88.8402022031
 10
131.1042634166
 20
88.7566048585
 10
131.1585760112
 20
88.6694041676
 10
131.2085741435
 20
88.5785600236
 10
131.2543588424
 20
88.4841151365
 10
131.2950729943
 20
88.387834445
 10
131.3306354511
 20
88.289652191
 10
131.3611332588
 20
88.1896366323
 10
131.3859598337
 20
88.0897529914
 10
131.4050003015
 20
87.9900210992
 10
131.4183736912
 20
87.8904228999
 10
131.4258217638
 20
87.7928657264
  0
LWPOLYLINE
  5
2B2
100
AcDbEntity
  8
ASSI
100
AcDbPolyline
 62
7
  6
CONTINUOUS
 90
12
 70
0
 10
131.0308628815
 20
88.8172239462
 10
131.1400942623
 20
88.6532449443
 10
131.2332687052
 20
88.4739474836
 10
131.3074804606
 20
88.2845457551
 10
131.3607010641
 20
88.089662109
 10
131.3910323774
 20
87.8950999214
 10
131.3973482195
 20
87.7069431946
 10
131.3793536729
 20
87.5308761597
 10
131.3376936074
 20
87.3730666073
 10
131.2740881839
 20
87.2388108089
 10
131.1907977198
 20
87.1319211387
 10
131.0903758199
 20
87.0552330298
  0
LWPOLYLINE
  5
2B3
100
AcDbEntity
  8
21814000
100
AcDbPolyline
 62
253
  6
CONTINUOUS
 90
10
 70
0
 10
142.5075846239
 20
125.2116703728
 10
142.5128417514
 20
125.2171978783
 10
142.5180762194
 20
125.2219608359
 10
142.5232654258
 20
125.2259364644
 10
142.5283888638
 20
125.2291063654
 10
142.5334221004
 20
125.2314526936
 10
142.5383372955
 20
125.2329615448
 10
142.543115417
 20
125.2336270069
 10
142.5477336207
 20
125.2334458272
 10
142.5497729356
 20
125.2330841603
  0
LWPOLYLINE
  5
2B4
100
AcDbEntity
  8
21814000
100
AcDbPolyline
 62
253
  6
CONTINUOUS
 90
10
 70
0
 10
142.251029253
 20
124.4931303355
 10
142.2319883645
 20
124.4750707704
 10
142.214140309
 20
124.4543603051
 10
142.1978520126
 20
124.4314247121
 10
142.1834583354
 20
124.4067355088
 10
142.1712551873
 20
124.3808002638
 10
142.1614934445
 20
124.3541521623
 10
142.1543737922
 20
124.3273390447
 10
142.1500425985
 20
124.3009121437
 10
142.1485889054
 20
124.2754147521
  0
LWPOLYLINE
  5
2B5
100
AcDbEntity
  8
21814000
100
AcDbPolyline
 62
253
  6
CONTINUOUS
 90
10
 70
0
 10
143.0094348516
 20
124.1139275362
 10
142.9903933991
 20
124.0958673419
 10
142.9725450073
 20
124.0751562815
 10
142.9562565915
 20
124.0522202215
 10
142.9418629907
 20
124.0275307729
 10
142.9296600513
 20
124.0015955361
 10
142.9198985651
 20
123.974947655
 10
142.9127791569
 20
123.9481349429
 10
142.9084481433
 20
123.9217086264
 10
142.9069945062
 20
123.8962119517
  0
LWPOLYLINE
  5
2B6
100
AcDbEntity
  8
21814000
100
AcDbPolyline
 62
253
  6
CONTINUOUS
 90
16
 70
0
 10
141.7357176892
 20
124.1631543268
 10
141.7599470246
 20
124.1860173293
 10
141.7859883528
 20
124.2070366412
 10
141.8135435902
 20
124.2261355937
 10
141.8423125175
 20
124.2433663777
 10
141.8719701998
 20
124.2585724484
 10
141.9021680365
 20
124.2713932175
 10
141.9325827696
 20
124.2817872272
 10
141.9628995448
 20
124.2898016378
 10
141.9927874471
 20
124.2952408543
 10
142.0218991909
 20
124.2981177472
 10
142.0500093484
 20
124.2985286115
 10
142.0769788179
 20
124.2964076712
 10
142.102583191
 20
124.2917724835
 10
142.1265305307
 20
124.2847448681
 10
142.1485889054
 20
124.2754147521
  0
LINE
  5
2B7
100
AcDbEntity
  8
21814000
100
AcDbLine
 62
253
  6
CONTINUOUS
 10
143.0274538738
 20
123.6522020574
 11
142.6008348349
 21
123.2571872985
  0
LINE
  5
2B8
100
AcDbEntity
  8
21814000
100
AcDbLine
 62
7
  6
CONTINUOUS
 10
142.9306535028
 20
123.6520418175
 11
142.5380897977
 21
123.2885598171
  0
LINE
  5
2B9
100
AcDbEntity
  8
26814000
100
AcDbLine
 62
7
  6
CONTINUOUS
 10
143.9148835826
 20
120.8143473753
 11
145.4976401857
 21
121.6263314726
  0
LINE
  5
2BA
100
AcDbEntity
  8
26814000
100
AcDbLine
 62
7
  6
CONTINUOUS
 10
142.2408280063
 20
121.0211743077
 11
142.7399237391
 21
121.2731388884
  0
LINE
  5
2BB
100
AcDbEntity
  8
26814000
100
AcDbLine
 62
7
  6
CONTINUOUS
 10
142.7399237391
 20
121.2731388884
 11
148.1541964343
 21
123.9537514857
  0
LINE
  5
2BC
100
AcDbEntity
  8
26814000
100
AcDbLine
 62
7
  6
CONTINUOUS
 10
145.4976401857
 20
121.6263314726
 11
146.0320900644
 21
121.8866789392
  0
LINE
  5
2BD
100
AcDbEntity
  8
21814000
100
AcDbLine
 62
7
  6
CONTINUOUS
 10
156.4161674369
 20
127.2821926633
 11
152.9857635364
 21
125.6448558503
  0
LINE
  5
2BE
100
AcDbEntity
  8
ASSI
100
AcDbLine
 62
7
  6
CONTINUOUS
 10
130.3115995257
 20
89.2804452666
 11
130.4070214364
 21
89.2685666978
  0
LINE
  5
2BF
100
AcDbEntity
  8
RACCORDO
100
AcDbLine
 62
7
  6
CONTINUOUS
 10
130.3968676039
 20
89.2705822331
 11
130.4571305724
 21
89.2561012706
  0
LINE
  5
2C0
100
AcDbEntity
  8
RACCORDO
100
AcDbLine
 62
253
  6
CONTINUOUS
 10
130.3435170951
 20
89.3394954988
 11
130.4163449055
 21
89.3219733847
  0
LINE
  5
2C1
100
AcDbEntity
  8
ASSI
100
AcDbLine
 62
7
  6
CONTINUOUS
 10
130.4070214364
 20
89.2685666978
 11
130.505080377
 21
89.2403617326
  0
LWPOLYLINE
  5
2C2
100
AcDbEntity
  8
RACCORDO
100
AcDbPolyline
 62
253
  6
CONTINUOUS
 90
16
 70
0
 10
129.7429553545
 20
88.2914855346
 10
129.7360704879
 20
88.3410990483
 10
129.7289011827
 20
88.4311648241
 10
129.727268317
 20
88.5193573517
 10
129.7311626086
 20
88.6050858915
 10
129.7405990652
 20
88.6877947387
 10
129.7554956425
 20
88.7669349344
 10
129.7757320444
 20
88.8419911471
 10
129.8012117636
 20
88.9124938203
 10
129.8317557894
 20
88.9779847548
 10
129.8671418327
 20
89.0380250462
 10
129.9071588212
 20
89.0922256953
 10
129.9515252612
 20
89.1402282875
 10
129.9999363684
 20
89.1817256503
 10
130.0521054582
 20
89.2164661725
 10
130.1076794726
 20
89.2442195402
  0
LWPOLYLINE
  5
2C3
100
AcDbEntity
  8
ASSI
100
AcDbPolyline
 62
253
  6
CONTINUOUS
 90
12
 70
0
 10
129.7429553545
 20
88.2914855346
 10
129.7360704879
 20
88.3410990483
 10
129.7289011827
 20
88.4311648241
 10
129.727268317
 20
88.5193573517
 10
129.7311626086
 20
88.6050858915
 10
129.7405990652
 20
88.6877947387
 10
129.7554956425
 20
88.7669349344
 10
129.7757320444
 20
88.8419911471
 10
129.8012117636
 20
88.9124938203
 10
129.8317557894
 20
88.9779847548
 10
129.8671418327
 20
89.0380250462
 10
129.9071588212
 20
89.0922256953
  0
LINE
  5
2C4
100
AcDbEntity
  8
26814000
100
AcDbLine
 62
7
  6
CONTINUOUS
 10
129.9766463387
 20
125.5649959794
 11
129.9766463387
 21
125.5406004741
  0
LINE
  5
2C5
100
AcDbEntity
  8
26814000
100
AcDbLine
 62
7
  6
CONTINUOUS
 10
130.3758396356
 20
126.9382470121
 11
130.3758396356
 21
127.1916184058
  0
LINE
  5
2C6
100
AcDbEntity
  8
26814000
100
AcDbLine
 62
7
  6
CONTINUOUS
 10
130.7898191371
 20
125.1340140749
 11
130.7898191371
 21
124.7672785242
  0
LINE
  5
2C7
100
AcDbEntity
  8
21814000
100
AcDbLine
 62
253
  6
CONTINUOUS
 10
143.0605537986
 20
123.685928439
 11
143.0274538738
 21
123.6522020574
  0
LWPOLYLINE
  5
2C8
100
AcDbEntity
  8
21814000
100
AcDbPolyline
 62
7
  6
CONTINUOUS
 90
13
 70
0
 10
153.4003410481
 20
124.5692773101
 10
153.27135623
 20
124.4989235917
 10
153.1524429457
 20
124.4242655431
 10
153.0441741123
 20
124.3456628622
 10
152.9470713623
 20
124.263494252
 10
152.8616025309
 20
124.1781555958
 10
152.7881794018
 20
124.0900580502
 10
152.7271557232
 20
123.9996260637
 10
152.6788255034
 20
123.9072953322
 10
152.6434215946
 20
123.8135106995
 10
152.6211145705
 20
123.7187240144
 10
152.6120119051
 20
123.6233919532
 10
152.6117797833
 20
123.6055270717
  0
LINE
  5
2C9
100
AcDbEntity
  8
26814000
100
AcDbLine
 62
253
  6
CONTINUOUS
 10
147.6380666156
 20
120.3326269035
 11
152.9963933957
 21
123.2235671305
  0
LINE
  5
2CA
100
AcDbEntity
  8
26814000
100
AcDbLine
 62
253
  6
CONTINUOUS
 10
147.2714464624
 20
119.8864147774
 11
152.9122418281
 21
122.9297532866
  0
LINE
  5
2CB
100
AcDbEntity
  8
0
100
AcDbLine
 62
7
  6
CONTINUOUS
 10
153.069510188
 20
123.2973752298
 11
153.7202838428
 21
123.6405410459
  0
LINE
  5
2CC
100
AcDbEntity
  8
RACCORDO
100
AcDbLine
 62
253
  6
CONTINUOUS
 10
153.7201560607
 20
123.640473659
 11
153.7202838428
 21
123.6405410459
  0
LINE
  5
2CD
100
AcDbEntity
  8
26814000
100
AcDbLine
 62
253
  6
CONTINUOUS
 10
147.1830565076
 20
119.7511215961
 11
152.9122418281
 21
122.7174941325
  0
LINE
  5
2CE
100
AcDbEntity
  8
26814000
100
AcDbLine
 62
7
  6
CONTINUOUS
 10
147.3028226382
 20
119.6912385308
 11
152.9944515405
 21
122.6381656624
  0
LINE
  5
2CF
100
AcDbEntity
  8
21814000
100
AcDbLine
 62
7
  6
CONTINUOUS
 10
157.4124970266
 20
126.6106771028
 11
153.4003410481
 21
124.5692773101
  0
LINE
  5
2D0
100
AcDbEntity
  8
26814000
100
AcDbLine
 62
7
  6
CONTINUOUS
 10
145.5227049916
 20
120.0104366708
 11
147.1239857825
 21
120.8131586743
  0
LINE
  5
2D1
100
AcDbEntity
  8
0
100
AcDbLine
 62
7
  6
CONTINUOUS
 10
153.8485712716
 20
123.4174493145
 11
154.3435460184
 21
123.6649366879
  0
LINE
  5
2D2
100
AcDbEntity
  8
26814000
100
AcDbLine
 62
7
  6
CONTINUOUS
 10
147.1239857825
 20
120.8131586743
 11
147.6522529542
 21
121.0765974943
  0
LINE
  5
2D3
100
AcDbEntity
  8
21814000
100
AcDbLine
 62
7
  6
CONTINUOUS
 10
157.4124970266
 20
126.2028258355
 11
153.4003410481
 21
124.2479530279
  0
LINE
  5
2D4
100
AcDbEntity
  8
26814000
100
AcDbLine
 62
253
  6
CONTINUOUS
 10
147.0344635725
 20
121.447469556
 11
151.8063025507
 21
123.7415450424
  0
LINE
  5
2D5
100
AcDbEntity
  8
26814000
100
AcDbLine
 62
253
  6
CONTINUOUS
 10
147.2620790724
 20
121.3336618061
 11
152.2481434186
 21
123.7307267621
  0
LINE
  5
2D6
100
AcDbEntity
  8
26814000
100
AcDbLine
 62
7
  6
CONTINUOUS
 10
145.7451275592
 20
117.6563598639
 11
146.5583003575
 21
117.9406615318
  0
LINE
  5
2D7
100
AcDbEntity
  8
ASSI
100
AcDbLine
 62
7
  6
CONTINUOUS
 10
130.2197753135
 20
89.2757137745
 11
130.3115995257
 21
89.2804452666
  0
LWPOLYLINE
  5
2D8
100
AcDbEntity
  8
RACCORDO
100
AcDbPolyline
 62
7
  6
CONTINUOUS
 90
3
 70
0
 10
130.280136863
 20
89.2807262564
 10
130.3377690455
 20
89.2787947149
 10
130.3968676039
 20
89.2705822331
  0
LWPOLYLINE
  5
2D9
100
AcDbEntity
  8
ASSI
100
AcDbPolyline
 62
253
  6
CONTINUOUS
 90
4
 70
0
 10
131.4258217638
 20
87.7928657264
 10
131.4272301825
 20
87.6973787586
 10
131.4227148251
 20
87.6039334919
 10
131.4123598586
 20
87.5143494969
  0
LINE
  5
2DA
100
AcDbEntity
  8
26814000
100
AcDbLine
 62
7
  6
CONTINUOUS
 10
131.0788325899
 20
126.0316877574
 11
131.0788325899
 21
126.484018733
  0
LINE
  5
2DB
100
AcDbEntity
  8
26814000
100
AcDbLine
 62
7
  6
CONTINUOUS
 10
131.9816160978
 20
126.3887301747
 11
131.9816160978
 21
126.135358781
  0
LINE
  5
2DC
100
AcDbEntity
  8
26814000
100
AcDbLine
 62
7
  6
CONTINUOUS
 10
132.6928367059
 20
125.2246856994
 11
132.6928367059
 21
125.8618552581
  0
LINE
  5
2DD
100
AcDbEntity
  8
28414000
100
AcDbLine
 62
7
  6
CONTINUOUS
 10
136.8631851895
 20
122.0973310487
 11
136.8199569847
 21
121.9671666395
  0
LWPOLYLINE
  5
2DE
100
AcDbEntity
  8
26814000
100
AcDbPolyline
 62
7
  6
CONTINUOUS
 90
5
 70
0
 10
152.9946600342
 20
122.6382639736
 10
152.9948944711
 20
122.6383969754
 10
152.995821707
 20
122.6392246468
 10
152.9963281245
 20
122.6402757182
 10
152.9964398698
 20
122.6412199625
  0
LINE
  5
2DF
100
AcDbEntity
  8
26814000
100
AcDbLine
 62
253
  6
CONTINUOUS
 10
147.2654071387
 20
119.0103971886
 11
145.4976401857
 21
118.1076194891
  0
LINE
  5
2E0
100
AcDbEntity
  8
26814000
100
AcDbLine
 62
253
  6
CONTINUOUS
 10
147.5128945121
 20
118.5835330686
 11
145.7451275592
 21
117.6807553692
  0
LINE
  5
2E1
100
AcDbEntity
  8
26814000
100
AcDbLine
 62
7
  6
CONTINUOUS
 10
147.1239857825
 20
119.0811078667
 11
146.0571548703
 21
118.5425266172
  0
LINE
  5
2E2
100
AcDbEntity
  8
RACCORDO
100
AcDbLine
 62
7
  6
CONTINUOUS
 10
156.8117239309
 20
123.8454365402
 11
155.5002596199
 21
123.1897043847
  0
LINE
  5
2E3
100
AcDbEntity
  8
RACCORDO
100
AcDbLine
 62
7
  6
CONTINUOUS
 10
157.6602546386
 20
123.4211737567
 11
156.7813619874
 21
122.9817274311
  0
LINE
  5
2E4
100
AcDbEntity
  8
26814000
100
AcDbLine
 62
253
  6
CONTINUOUS
 10
147.9725139199
 20
119.35639289
 11
147.2654071387
 21
119.0103971886
  0
LINE
  5
2E5
100
AcDbEntity
  8
26814000
100
AcDbLine
 62
253
  6
CONTINUOUS
 10
148.2200012933
 20
118.92952877
 11
147.5128945121
 21
118.5835330686
  0
LINE
  5
2E6
100
AcDbEntity
  8
21814000
100
AcDbLine
 62
7
  6
CONTINUOUS
 10
153.5782434679
 20
122.1386489447
 11
147.912378899
 21
119.3864604004
  0
LINE
  5
2E7
100
AcDbEntity
  8
21814000
100
AcDbLine
 62
7
  6
CONTINUOUS
 10
161.923502452
 20
124.5285251557
 11
154.3309375518
 21
120.8404436836
  0
LINE
  5
2E8
100
AcDbEntity
  8
21814000
100
AcDbLine
 62
7
  6
CONTINUOUS
 10
161.117830516
 20
124.9313611237
 11
157.6966844462
 21
123.2893953954
  0
LWPOLYLINE
  5
2E9
100
AcDbEntity
  8
RACCORDO
100
AcDbPolyline
 62
7
  6
CONTINUOUS
 90
10
 70
0
 10
157.6602257427
 20
123.4211593087
 10
157.671622207
 20
123.426327964
 10
157.6828426095
 20
123.4303798604
 10
157.6938869502
 20
123.4333149979
 10
157.7048502091
 20
123.4351335292
 10
157.7156374063
 20
123.4358353017
 10
157.7259636017
 20
123.4354198573
 10
157.7357338155
 20
123.4338870435
 10
157.7450430275
 20
123.4312370127
 10
157.7538912378
 20
123.4274697651
  0
LWPOLYLINE
  5
2EA
100
AcDbEntity
  8
21814000
100
AcDbPolyline
 62
7
  6
CONTINUOUS
 90
9
 70
0
 10
161.923502452
 20
124.5285251557
 10
161.9796483297
 20
124.553788194
 10
162.0328810406
 20
124.5732406865
 10
162.0827515011
 20
124.5868702975
 10
162.1287222709
 20
124.5947779849
 10
162.1705142324
 20
124.5970109629
 10
162.2081071425
 20
124.5935539485
 10
162.241141431
 20
124.5846173444
 10
162.2557033815
 20
124.5782442865
  0
LWPOLYLINE
  5
2EB
100
AcDbEntity
  8
RACCORDO
100
AcDbPolyline
 62
253
  6
CONTINUOUS
 90
22
 70
0
 10
141.4449993384
 20
116.0993898686
 10
141.3694271147
 20
116.0669859312
 10
141.2937816875
 20
116.0280315082
 10
141.2184387709
 20
115.982724321
 10
141.1437729736
 20
115.9312976524
 10
141.0701544022
 20
115.8740081671
 10
140.9979473486
 20
115.8111320469
 10
140.9275020496
 20
115.7429750356
 10
140.8591781811
 20
115.6698865078
 10
140.7933400345
 20
115.5922489566
 10
140.7303264388
 20
115.5104716112
 10
140.6704344812
 20
115.424951625
 10
140.613946382
 20
115.3360835803
 10
140.5611341291
 20
115.2442911788
 10
140.512274425
 20
115.1500524615
 10
140.4676296977
 20
115.0538637395
 10
140.4274271072
 20
114.9562225023
 10
140.3918575273
 20
114.8576043807
 10
140.3610949073
 20
114.7584848474
 10
140.3352931478
 20
114.6593541587
 10
140.3145826181
 20
114.5607152848
 10
140.299067656
 20
114.4630625577
  0
LWPOLYLINE
  5
2EC
100
AcDbEntity
  8
ASSI
100
AcDbPolyline
 62
253
  6
CONTINUOUS
 90
22
 70
0
 10
141.4449993384
 20
116.0993898686
 10
141.3694271147
 20
116.0669859312
 10
141.2937816875
 20
116.0280315082
 10
141.2184387709
 20
115.982724321
 10
141.1437729736
 20
115.9312976524
 10
141.0701544022
 20
115.8740081671
 10
140.9979473486
 20
115.8111320469
 10
140.9275020496
 20
115.7429750356
 10
140.8591781811
 20
115.6698865078
 10
140.7933400345
 20
115.5922489566
 10
140.7303264388
 20
115.5104716112
 10
140.6704344812
 20
115.424951625
 10
140.613946382
 20
115.3360835803
 10
140.5611341291
 20
115.2442911788
 10
140.512274425
 20
115.1500524615
 10
140.4676296977
 20
115.0538637395
 10
140.4274271072
 20
114.9562225023
 10
140.3918575273
 20
114.8576043807
 10
140.3610949073
 20
114.7584848474
 10
140.3352931478
 20
114.6593541587
 10
140.3145826181
 20
114.5607152848
 10
140.299067656
 20
114.4630625577
  0
LWPOLYLINE
  5
2ED
100
AcDbEntity
  8
RACCORDO
100
AcDbPolyline
 62
253
  6
CONTINUOUS
 90
22
 70
0
 10
141.9514773844
 20
115.0981095843
 10
141.9157664055
 20
115.0830776231
 10
141.8803223594
 20
115.0651686091
 10
141.845145246
 20
115.0443825423
 10
141.810046939
 20
115.0205821142
 10
141.7752155646
 20
114.9939046333
 10
141.7412155018
 20
114.9647620253
 10
141.7080714676
 20
114.9331197234
 10
141.6757587448
 20
114.8990122945
 10
141.6447675612
 20
114.8629553648
 10
141.6151227525
 20
114.8249258243
 10
141.586799483
 20
114.784946783
 10
141.5602134735
 20
114.743603197
 10
141.5353854483
 20
114.7008648797
 10
141.5122946831
 20
114.6567620176
 10
141.4912947255
 20
114.6119701265
 10
141.4724188635
 20
114.5664681372
 10
141.455633809
 20
114.5202771188
 10
141.4411932462
 20
114.4741357946
 10
141.4291817362
 20
114.4282904056
 10
141.4195147178
 20
114.3824947107
 10
141.412192191
 20
114.33674871
  0
LWPOLYLINE
  5
2EE
100
AcDbEntity
  8
ASSI
100
AcDbPolyline
 62
253
  6
CONTINUOUS
 90
22
 70
0
 10
141.9514773844
 20
115.0981095843
 10
141.9157664055
 20
115.0830776231
 10
141.8803223594
 20
115.0651686091
 10
141.845145246
 20
115.0443825423
 10
141.810046939
 20
115.0205821142
 10
141.7752155646
 20
114.9939046333
 10
141.7412155018
 20
114.9647620253
 10
141.7080714676
 20
114.9331197234
 10
141.6757587448
 20
114.8990122945
 10
141.6447675612
 20
114.8629553648
 10
141.6151227525
 20
114.8249258243
 10
141.586799483
 20
114.784946783
 10
141.5602134735
 20
114.743603197
 10
141.5353854483
 20
114.7008648797
 10
141.5122946831
 20
114.6567620176
 10
141.4912947255
 20
114.6119701265
 10
141.4724188635
 20
114.5664681372
 10
141.455633809
 20
114.5202771188
 10
141.4411932462
 20
114.4741357946
 10
141.4291817362
 20
114.4282904056
 10
141.4195147178
 20
114.3824947107
 10
141.412192191
 20
114.33674871
  0
LINE
  5
2EF
100
AcDbEntity
  8
RACCORDO
100
AcDbLine
 62
253
  6
CONTINUOUS
 10
145.4966828313
 20
117.6288037162
 11
141.4449993384
 21
116.0993898686
  0
LINE
  5
2F0
100
AcDbEntity
  8
ASSI
100
AcDbLine
 62
253
  6
CONTINUOUS
 10
145.4966828313
 20
117.6288037162
 11
141.4449993384
 21
116.0993898686
  0
LINE
  5
2F1
100
AcDbEntity
  8
RACCORDO
100
AcDbLine
 62
253
  6
CONTINUOUS
 10
146.0031608773
 20
116.6275234319
 11
141.9514773844
 21
115.0981095843
  0
LINE
  5
2F2
100
AcDbEntity
  8
ASSI
100
AcDbLine
 62
253
  6
CONTINUOUS
 10
146.0031608773
 20
116.6275234319
 11
141.9514773844
 21
115.0981095843
  0
LWPOLYLINE
  5
2F3
100
AcDbEntity
  8
RACCORDO
100
AcDbPolyline
 62
7
  6
CONTINUOUS
 90
3
 70
0
 10
130.1706807185
 20
89.2657463031
 10
130.2243814276
 20
89.2763678915
 10
130.280136863
 20
89.2807262564
  0
LWPOLYLINE
  5
2F4
100
AcDbEntity
  8
ASSI
100
AcDbPolyline
 62
253
  6
CONTINUOUS
 90
5
 70
0
 10
130.1309093361
 20
89.3444461297
 10
130.1998220826
 20
89.3507648789
 10
130.2711796886
 20
89.3490980554
 10
130.3435170951
 20
89.3394954988
 10
130.4163449055
 20
89.3219733847
  0
LINE
  5
2F5
100
AcDbEntity
  8
26814000
100
AcDbLine
 62
7
  6
CONTINUOUS
 10
133.759667618
 20
125.7632669489
 11
133.759667618
 21
127.4953177565
  0
LINE
  5
2F6
100
AcDbEntity
  8
26814000
100
AcDbLine
 62
7
  6
CONTINUOUS
 10
134.4626605723
 20
127.6306392542
 11
134.4626605723
 21
127.3697102779
  0
LWPOLYLINE
  5
2F7
100
AcDbEntity
  8
RACCORDO
100
AcDbPolyline
 62
253
  6
CONTINUOUS
 90
6
 70
0
 10
131.4227148251
 20
87.6039334919
 10
131.4123598586
 20
87.5143494969
 10
131.3960489035
 20
87.4287061415
 10
131.373896846
 20
87.3469234442
 10
131.3463318164
 20
87.2705807022
 10
131.3132415541
 20
87.1997811314
  0
LWPOLYLINE
  5
2F8
100
AcDbEntity
  8
ASSI
100
AcDbPolyline
 62
253
  6
CONTINUOUS
 90
5
 70
0
 10
131.4123598586
 20
87.5143494969
 10
131.3960489035
 20
87.4287061415
 10
131.373896846
 20
87.3469234442
 10
131.3463318164
 20
87.2705807022
 10
131.3132415541
 20
87.1997811314
  0
LINE
  5
2F9
100
AcDbEntity
  8
21814000
100
AcDbLine
 62
253
  6
CONTINUOUS
 10
162.6820091469
 20
122.6331926478
 11
148.2200012933
 21
115.1452688825
  0
LINE
  5
2FA
100
AcDbEntity
  8
21814000
100
AcDbLine
 62
253
  6
CONTINUOUS
 10
162.343045663
 20
123.8049201542
 11
148.2200012933
 21
116.7830639559
  0
LINE
  5
2FB
100
AcDbEntity
  8
ASSI
100
AcDbLine
 62
7
  6
CONTINUOUS
 10
130.1326713856
 20
89.2539959359
 11
130.2197753135
 21
89.2757137745
  0
LINE
  5
2FC
100
AcDbEntity
  8
26814000
100
AcDbLine
 62
7
  6
CONTINUOUS
 10
135.937424621
 20
125.2372538171
 11
135.937424621
 21
124.0225204309
  0
LINE
  5
2FD
100
AcDbEntity
  8
26814000
100
AcDbLine
 62
253
  6
CONTINUOUS
 10
136.0252925867
 20
125.1307448603
 11
136.0252925867
 21
123.9157899942
  0
LINE
  5
2FE
100
AcDbEntity
  8
26814000
100
AcDbLine
 62
7
  6
CONTINUOUS
 10
136.1991860131
 20
122.4293306369
 11
136.1991860131
 21
122.2775521252
  0
LWPOLYLINE
  5
2FF
100
AcDbEntity
  8
RACCORDO
100
AcDbPolyline
 62
253
  6
CONTINUOUS
 90
14
 70
0
 10
137.3200372181
 20
78.2598914959
 10
137.3199429925
 20
78.167857812
 10
137.3251978459
 20
78.0786788841
 10
137.3357750964
 20
77.9928004187
 10
137.3516219344
 20
77.9106544189
 10
137.3726583387
 20
77.8326475081
 10
137.3987797838
 20
77.7591608488
 10
137.4298629726
 20
77.6905538652
 10
137.4657512775
 20
77.6271806494
 10
137.5062517957
 20
77.569375492
 10
137.5511520944
 20
77.5174336875
 10
137.6002347888
 20
77.4715986858
 10
137.6532679361
 20
77.4320854254
 10
137.7121684564
 20
77.3979948571
  0
LWPOLYLINE
  5
300
100
AcDbEntity
  8
ASSI
100
AcDbPolyline
 62
253
  6
CONTINUOUS
 90
14
 70
0
 10
137.3200372181
 20
78.2598914959
 10
137.3199429925
 20
78.167857812
 10
137.3251978459
 20
78.0786788841
 10
137.3357750964
 20
77.9928004187
 10
137.3516219344
 20
77.9106544189
 10
137.3726583387
 20
77.8326475081
 10
137.3987797838
 20
77.7591608488
 10
137.4298629726
 20
77.6905538652
 10
137.4657512775
 20
77.6271806494
 10
137.5062517957
 20
77.569375492
 10
137.5511520944
 20
77.5174336875
 10
137.6002347888
 20
77.4715986858
 10
137.6532679361
 20
77.4320854254
 10
137.7086414118
 20
77.3997809663
  0
LINE
  5
301
100
AcDbEntity
  8
28414000
100
AcDbLine
 62
7
  6
CONTINUOUS
 10
141.1058258766
 20
119.9760107051
 11
141.0625976718
 21
119.8458462959
  0
LINE
  5
302
100
AcDbEntity
  8
26814000
100
AcDbLine
 62
7
  6
CONTINUOUS
 10
147.7391046175
 20
120.4555999077
 11
147.2118599018
 21
119.8138921796
  0
LWPOLYLINE
  5
303
100
AcDbEntity
  8
21814000
100
AcDbPolyline
 62
253
  6
CONTINUOUS
 90
32
 70
0
 10
162.7896684371
 20
117.0868955259
 10
162.809759542
 20
117.0928422113
 10
162.8290793417
 20
117.0966933175
 10
162.8476049609
 20
117.0984758576
 10
162.8652999608
 20
117.0980919541
 10
162.8821386932
 20
117.0957091017
 10
162.8981158855
 20
117.0917497161
 10
162.9131556297
 20
117.0862885221
 10
162.9272692727
 20
117.0793210954
 10
162.940591803
 20
117.0711413919
 10
162.9531069205
 20
117.0618465024
 10
162.9647626986
 20
117.0514171515
 10
162.975642844
 20
117.0399723966
 10
162.9857465029
 20
117.0275883147
 10
162.9949952892
 20
117.0142854062
 10
163.0033535238
 20
117.0001051907
 10
163.0108020418
 20
116.9851251628
 10
163.0172701715
 20
116.9693853442
 10
163.022640335
 20
116.9528788459
 10
163.0268878471
 20
116.9357226297
 10
163.0299375885
 20
116.9179408697
 10
163.0315838826
 20
116.8994057628
 10
163.0318173336
 20
116.8802783511
 10
163.030523085
 20
116.8605865688
 10
163.027306854
 20
116.8400465518
 10
163.0221653257
 20
116.8188536788
 10
163.0149279695
 20
116.7970950685
 10
163.0049031919
 20
116.7743935994
 10
162.992096448
 20
116.7510266868
 10
162.9762691396
 20
116.7271277377
 10
162.9563078158
 20
116.7021911559
 10
162.9346033266
 20
116.6791514252
  0
LWPOLYLINE
  5
304
100
AcDbEntity
  8
RACCORDO
100
AcDbPolyline
 62
253
  6
CONTINUOUS
 90
22
 70
0
 10
138.4411058342
 20
78.2301194378
 10
138.4411120737
 20
78.1870177938
 10
138.4435946569
 20
78.1455774665
 10
138.4485535836
 20
78.1057984559
 10
138.4560369967
 20
78.067479741
 10
138.4659967534
 20
78.0308223428
 10
138.4782884254
 20
77.9964293237
 10
138.4929492715
 20
77.9643506223
 10
138.5099420329
 20
77.9345363
 10
138.5290105052
 20
77.9074396043
 10
138.5501824943
 20
77.8831055474
 10
138.5734301943
 20
77.861489117
 10
138.5984139837
 20
77.8429085231
 10
138.625166097
 20
77.8274062058
 10
138.6536542997
 20
77.8149397251
 10
138.6834422669
 20
77.8056999706
 10
138.7145590948
 20
77.7997428403
 10
138.7469756872
 20
77.7970124363
 10
138.7801684312
 20
77.7975319547
 10
138.813962789
 20
77.8013091275
 10
138.8485332985
 20
77.8083362226
 10
138.8838799595
 20
77.8186132401
  0
LWPOLYLINE
  5
305
100
AcDbEntity
  8
ASSI
100
AcDbPolyline
 62
253
  6
CONTINUOUS
 90
22
 70
0
 10
138.4411058342
 20
78.2301194378
 10
138.4411120737
 20
78.1870177938
 10
138.4435946569
 20
78.1455774665
 10
138.4485535836
 20
78.1057984559
 10
138.4560369967
 20
78.067479741
 10
138.4659967534
 20
78.0308223428
 10
138.4782884254
 20
77.9964293237
 10
138.4929492715
 20
77.9643506223
 10
138.5099420329
 20
77.9345363
 10
138.5290105052
 20
77.9074396043
 10
138.5501824943
 20
77.8831055474
 10
138.5734301943
 20
77.861489117
 10
138.5984139837
 20
77.8429085231
 10
138.625166097
 20
77.8274062058
 10
138.6536542997
 20
77.8149397251
 10
138.6834422669
 20
77.8056999706
 10
138.7145590948
 20
77.7997428403
 10
138.7469756872
 20
77.7970124363
 10
138.7801684312
 20
77.7975319547
 10
138.813962789
 20
77.8013091275
 10
138.8485332985
 20
77.8083362226
 10
138.8838799595
 20
77.8186132401
  0
LWPOLYLINE
  5
306
100
AcDbEntity
  8
RACCORDO
100
AcDbPolyline
 62
253
  6
CONTINUOUS
 90
13
 70
0
 10
140.299067656
 20
114.4630625577
 10
139.9029843466
 20
111.3968328507
 10
139.5336504777
 20
108.3382947982
 10
139.1911121481
 20
105.2878324756
 10
138.8754120673
 20
102.2458289954
 10
138.5865898007
 20
99.2126662189
 10
138.3246817672
 20
96.1887247094
 10
138.0897209903
 20
93.1743839966
 10
137.8817368197
 20
90.1700225503
 10
137.7007551837
 20
87.1760174947
 10
137.5467988609
 20
84.1927446104
 10
137.4198874736
 20
81.2205782864
 10
137.3200372181
 20
78.2598914959
  0
LWPOLYLINE
  5
307
100
AcDbEntity
  8
ASSI
100
AcDbPolyline
 62
253
  6
CONTINUOUS
 90
13
 70
0
 10
140.299067656
 20
114.4630625577
 10
139.9029843466
 20
111.3968328507
 10
139.5336504777
 20
108.3382947982
 10
139.1911121481
 20
105.2878324756
 10
138.8754120673
 20
102.2458289954
 10
138.5865898007
 20
99.2126662189
 10
138.3246817672
 20
96.1887247094
 10
138.0897209903
 20
93.1743839966
 10
137.8817368197
 20
90.1700225503
 10
137.7007551837
 20
87.1760174947
 10
137.5467988609
 20
84.1927446104
 10
137.4198874736
 20
81.2205782864
 10
137.3200372181
 20
78.2598914959
  0
LWPOLYLINE
  5
308
100
AcDbEntity
  8
21814000
100
AcDbPolyline
 62
7
  6
CONTINUOUS
 90
9
 70
0
 10
142.9945149187
 20
123.7489235509
 10
142.9929319246
 20
123.7411064733
 10
142.9895095642
 20
123.7308348661
 10
142.9837458256
 20
123.718278517
 10
142.9754270701
 20
123.7040370975
 10
142.9647484559
 20
123.688977844
 10
142.9519339016
 20
123.6736084708
 10
142.9370906178
 20
123.6581579678
 10
142.9306536808
 20
123.6520416244
  0
LINE
  5
309
100
AcDbEntity
  8
0
100
AcDbLine
 62
7
  6
CONTINUOUS
 10
130.5499424351
 20
89.2209376102
 11
130.5329050681
 21
89.1860184999
  0
LINE
  5
30A
100
AcDbEntity
  8
ASSI
100
AcDbLine
 62
7
  6
CONTINUOUS
 10
130.5499424351
 20
89.2209376102
 11
130.5260109147
 21
89.171888517
  0
LWPOLYLINE
  5
30B
100
AcDbEntity
  8
RACCORDO
100
AcDbPolyline
 62
253
  6
CONTINUOUS
 90
47
 70
0
 10
153.2855025914
 20
123.2042825503
 10
153.3244353657
 20
123.2563245451
 10
153.373718584
 20
123.3131052225
 10
153.4288522587
 20
123.3686958369
 10
153.489355737
 20
123.4226383592
 10
153.5552280886
 20
123.4748912587
 10
153.6264702439
 20
123.5254960661
 10
153.7026043416
 20
123.5741193446
 10
153.7836209706
 20
123.6207470871
 10
153.869529542
 20
123.6653933007
 10
153.9598804277
 20
123.7077665698
 10
154.0549307079
 20
123.7479257678
 10
154.1544233024
 20
123.7858120213
 10
154.2571373428
 20
123.8209572945
 10
154.3634782115
 20
123.8533350144
 10
154.4730405261
 20
123.8829717539
 10
154.5833872705
 20
123.9094791961
 10
154.6944917874
 20
123.9326785896
 10
154.8063807342
 20
123.9527486856
 10
154.9166970663
 20
123.9698374214
 10
155.0250875562
 20
123.9838113172
 10
155.1319054314
 20
123.9948038528
 10
155.2358533306
 20
124.0033634041
 10
155.336689165
 20
124.0094659736
 10
155.4346550233
 20
124.0131355588
 10
155.5291798096
 20
124.0149925276
 10
155.6201015497
 20
124.0150583965
 10
155.7075822179
 20
124.0133116489
 10
155.7915366412
 20
124.0103081036
 10
155.8718407146
 20
124.0060893029
 10
155.9486185432
 20
124.0006137044
 10
156.0221572697
 20
123.9943124988
 10
156.0924238034
 20
123.987226465
 10
156.1594512349
 20
123.9793148241
 10
156.2236259791
 20
123.97088643
 10
156.2849337259
 20
123.9619757894
 10
156.3433887853
 20
123.9525483956
 10
156.3994205018
 20
123.9428095818
 10
156.4530250854
 20
123.9327880601
 10
156.504206326
 20
123.9224551183
 10
156.5534049383
 20
123.9119299536
 10
156.6006240832
 20
123.9012354145
 10
156.6458605998
 20
123.8903486523
 10
156.6895457197
 20
123.8793203187
 10
156.7318231868
 20
123.8681672974
 10
156.7725492572
 20
123.8568727046
 10
156.8117239309
 20
123.8454365402
  0
LWPOLYLINE
  5
30C
100
AcDbEntity
  8
RACCORDO
100
AcDbPolyline
 62
253
  6
CONTINUOUS
 90
10
 70
0
 10
153.2038487219
 20
123.2379401923
 10
153.20614341
 20
123.241000203
 10
153.2590060611
 20
123.301717301
 10
153.3180849316
 20
123.3609765183
 10
153.383177711
 20
123.4185844515
 10
153.4540535428
 20
123.4743579191
 10
153.5305466806
 20
123.5281858546
 10
153.6125380844
 20
123.5799870383
 10
153.6997866813
 20
123.6296046777
 10
153.7201560607
 20
123.640473659
  0
LINE
  5
30D
100
AcDbEntity
  8
26814000
100
AcDbLine
 62
7
  6
CONTINUOUS
 10
141.1489334814
 20
119.9544569027
 11
141.1489334814
 21
119.8026783911
  0
LINE
  5
30E
100
AcDbEntity
  8
21814000
100
AcDbLine
 62
253
  6
CONTINUOUS
 10
141.7357176892
 20
124.1631543268
 11
141.7357176892
 21
123.6897458714
  0
LINE
  5
30F
100
AcDbEntity
  8
26814000
100
AcDbLine
 62
253
  6
CONTINUOUS
 10
141.8178016547
 20
121.0195354602
 11
141.8178016547
 21
122.2344903263
  0
LWPOLYLINE
  5
310
100
AcDbEntity
  8
RACCORDO
100
AcDbPolyline
 62
253
  6
CONTINUOUS
 90
16
 70
0
 10
141.9514773844
 20
115.0981095843
 10
141.9535687992
 20
115.1743926264
 10
141.9495505388
 20
115.2529774407
 10
141.939466579
 20
115.3330033944
 10
141.9234273258
 20
115.4135940672
 10
141.9016084087
 20
115.4938668407
 10
141.87424876
 20
115.5729425656
 10
141.8416479922
 20
115.6499552075
 10
141.8041631242
 20
115.7240613119
 10
141.7622046786
 20
115.7944492362
 10
141.7162321657
 20
115.8603480771
 10
141.666749065
 20
115.9210360849
 10
141.6142973268
 20
115.9758485575
 10
141.5594514073
 20
116.02418516
 10
141.5028119723
 20
116.0655164929
 10
141.4449993403
 20
116.0993898693
  0
LWPOLYLINE
  5
311
100
AcDbEntity
  8
ASSI
100
AcDbPolyline
 62
253
  6
CONTINUOUS
 90
16
 70
0
 10
141.9514773844
 20
115.0981095843
 10
141.9535687992
 20
115.1743926264
 10
141.9495505388
 20
115.2529774407
 10
141.939466579
 20
115.3330033944
 10
141.9234273258
 20
115.4135940672
 10
141.9016084087
 20
115.4938668407
 10
141.87424876
 20
115.5729425656
 10
141.8416479922
 20
115.6499552075
 10
141.8041631242
 20
115.7240613119
 10
141.7622046786
 20
115.7944492362
 10
141.7162321657
 20
115.8603480771
 10
141.666749065
 20
115.9210360849
 10
141.6142973268
 20
115.9758485575
 10
141.5594514073
 20
116.02418516
 10
141.5028119723
 20
116.0655164929
 10
141.4449993403
 20
116.0993898693
  0
LINE
  5
312
100
AcDbEntity
  8
21814000
100
AcDbLine
 62
7
  6
CONTINUOUS
 10
142.9948575047
 20
123.7537939036
 11
142.9945149187
 21
123.7489235509
  0
LWPOLYLINE
  5
313
100
AcDbEntity
  8
RACCORDO
100
AcDbPolyline
 62
253
  6
CONTINUOUS
 90
7
 70
0
 10
139.4430484196
 20
96.1111454333
 10
139.2087284997
 20
93.1049604044
 10
139.0012829678
 20
90.1083492824
 10
138.8207901071
 20
87.1224462104
 10
138.6672760117
 20
84.1476292362
 10
138.5407145874
 20
81.183520312
 10
138.4411058342
 20
78.2301194378
  0
LWPOLYLINE
  5
314
100
AcDbEntity
  8
ASSI
100
AcDbPolyline
 62
253
  6
CONTINUOUS
 90
7
 70
0
 10
139.4430484196
 20
96.1111454333
 10
139.2087284997
 20
93.1049604044
 10
139.0012829678
 20
90.1083492824
 10
138.8207901071
 20
87.1224462104
 10
138.6672760117
 20
84.1476292362
 10
138.5407145874
 20
81.183520312
 10
138.4411058342
 20
78.2301194378
  0
LWPOLYLINE
  5
315
100
AcDbEntity
  8
RACCORDO
100
AcDbPolyline
 62
253
  6
CONTINUOUS
 90
7
 70
0
 10
141.412192191
 20
114.33674871
 10
141.0170881847
 20
111.278071912
 10
140.6487495295
 20
108.2278256148
 10
140.3071762254
 20
105.1860098183
 10
139.9923319267
 20
102.1522433871
 10
139.7042529791
 20
99.1269074568
 10
139.4430484196
 20
96.1111454333
  0
LWPOLYLINE
  5
316
100
AcDbEntity
  8
ASSI
100
AcDbPolyline
 62
253
  6
CONTINUOUS
 90
7
 70
0
 10
141.412192191
 20
114.33674871
 10
141.0170881847
 20
111.278071912
 10
140.6487495295
 20
108.2278256148
 10
140.3071762254
 20
105.1860098183
 10
139.9923319267
 20
102.1522433871
 10
139.7042529791
 20
99.1269074568
 10
139.4430484196
 20
96.1111454333
  0
LWPOLYLINE
  5
317
100
AcDbEntity
  8
RACCORDO
100
AcDbPolyline
 62
7
  6
CONTINUOUS
 90
6
 70
0
 10
131.3112957192
 20
87.3086971388
 10
131.2769130174
 20
87.2435002378
 10
131.2376055428
 20
87.1854364941
 10
131.1937037354
 20
87.1348454881
 10
131.1457000686
 20
87.0920996395
 10
131.0938889509
 20
87.0572564428
  0
LWPOLYLINE
  5
318
100
AcDbEntity
  8
RACCORDO
100
AcDbPolyline
 62
253
  6
CONTINUOUS
 90
3
 70
0
 10
131.3132415541
 20
87.1997811314
 10
131.274734166
 20
87.1344197619
 10
131.23156581
 20
87.0757625331
  0
LWPOLYLINE
  5
319
100
AcDbEntity
  8
ASSI
100
AcDbPolyline
 62
253
  6
CONTINUOUS
 90
3
 70
0
 10
131.3132415541
 20
87.1997811314
 10
131.274734166
 20
87.1344197619
 10
131.23156581
 20
87.0757625331
  0
LINE
  5
31A
100
AcDbEntity
  8
26814000
100
AcDbLine
 62
7
  6
CONTINUOUS
 10
144.495812679
 20
98.3092196052
 11
144.8258887436
 21
98.1441815728
  0
LWPOLYLINE
  5
31B
100
AcDbEntity
  8
26814000
100
AcDbPolyline
 62
7
  6
CONTINUOUS
 90
13
 70
0
 10
152.9930202531
 20
85.7144446905
 10
152.9901290881
 20
85.7183378815
 10
152.9864403239
 20
85.7227202217
 10
152.98198036
 20
85.7274775145
 10
152.9767875017
 20
85.7326173692
 10
152.9709048445
 20
85.7381647279
 10
152.9643443103
 20
85.7440323265
 10
152.9571374071
 20
85.7502296345
 10
152.9493202615
 20
85.7567747591
 10
152.940896322
 20
85.7635956352
 10
152.9318834306
 20
85.77067766
 10
152.9223215853
 20
85.7780613033
 10
152.9122418281
 20
85.7857578579
  0
LINE
  5
31C
100
AcDbEntity
  8
26814000
100
AcDbLine
 62
7
  6
CONTINUOUS
 10
143.8885124886
 20
90.928901365
 11
144.5526753412
 21
84.7383860339
  0
LINE
  5
31D
100
AcDbEntity
  8
26814000
100
AcDbLine
 62
7
  6
CONTINUOUS
 10
144.2218112831
 20
94.9793713158
 11
144.2525323326
 21
94.6906824593
  0
LINE
  5
31E
100
AcDbEntity
  8
21814000
100
AcDbLine
 62
7
  6
CONTINUOUS
 10
142.9948624333
 20
123.7538510309
 11
142.9948624688
 21
123.7537520546
  0
LINE
  5
31F
100
AcDbEntity
  8
21814000
100
AcDbLine
 62
253
  6
CONTINUOUS
 10
142.1485889054
 20
124.2754147521
 11
142.1485889054
 21
123.4833102633
  0
LINE
  5
320
100
AcDbEntity
  8
26814000
100
AcDbLine
 62
7
  6
CONTINUOUS
 10
142.1742383142
 20
125.2725092947
 11
142.1742383142
 21
126.5227801539
  0
LINE
  5
321
100
AcDbEntity
  8
26814000
100
AcDbLine
 62
253
  6
CONTINUOUS
 10
142.2408280063
 20
121.0211743077
 11
142.2408280063
 21
122.2353777806
  0
LINE
  5
322
100
AcDbEntity
  8
26814000
100
AcDbLine
 62
7
  6
CONTINUOUS
 10
142.5277917048
 20
125.7934452693
 11
142.5277917048
 21
126.3460034586
  0
LINE
  5
323
100
AcDbEntity
  8
26814000
100
AcDbLine
 62
253
  6
CONTINUOUS
 10
142.5985023829
 20
127.9622117562
 11
142.5985023829
 21
126.7303775748
  0
LINE
  5
324
100
AcDbEntity
  8
26814000
100
AcDbLine
 62
7
  6
CONTINUOUS
 10
142.6863703485
 20
128.0672089701
 11
142.6863703485
 21
126.8348403653
  0
LINE
  5
325
100
AcDbEntity
  8
26814000
100
AcDbLine
 62
7
  6
CONTINUOUS
 10
142.7399237391
 20
122.4855744537
 11
142.7399237391
 21
121.2731388884
  0
LINE
  5
326
100
AcDbEntity
  8
21814000
100
AcDbLine
 62
253
  6
CONTINUOUS
 10
142.9069945041
 20
123.8962119528
 11
142.9069945041
 21
123.6301357675
  0
LINE
  5
327
100
AcDbEntity
  8
26814000
100
AcDbLine
 62
7
  6
CONTINUOUS
 10
143.7401578001
 20
78.7031123967
 11
143.7401578001
 21
78.9564837905
  0
LINE
  5
328
100
AcDbEntity
  8
26814000
100
AcDbLine
 62
7
  6
CONTINUOUS
 10
143.7401578001
 20
120.2560879299
 11
143.7401578001
 21
120.5094593236
  0
LWPOLYLINE
  5
329
100
AcDbEntity
  8
RACCORDO
100
AcDbPolyline
 62
253
  6
CONTINUOUS
 90
11
 70
0
 10
138.8838799595
 20
77.8186132401
 10
138.8736140521
 20
77.7447227842
 10
138.8573736851
 20
77.6747787092
 10
138.8353367225
 20
77.6095470403
 10
138.8077445122
 20
77.5497421924
 10
138.7748992433
 20
77.496019146
 10
138.7371606359
 20
77.4489662741
 10
138.694942002
 20
77.409098898
 10
138.6487057184
 20
77.3768536438
 10
138.5989581634
 20
77.3525836604
 10
138.5821774299
 20
77.3464778122
  0
LWPOLYLINE
  5
32A
100
AcDbEntity
  8
ASSI
100
AcDbPolyline
 62
253
  6
CONTINUOUS
 90
11
 70
0
 10
138.8838799595
 20
77.8186132401
 10
138.8736140521
 20
77.7447227842
 10
138.8573736851
 20
77.6747787092
 10
138.8353367225
 20
77.6095470403
 10
138.8077445122
 20
77.5497421924
 10
138.7748992433
 20
77.496019146
 10
138.7371606359
 20
77.4489662741
 10
138.694942002
 20
77.409098898
 10
138.6487057184
 20
77.3768536438
 10
138.5989581634
 20
77.3525836604
 10
138.5821774299
 20
77.3464778122
  0
LWPOLYLINE
  5
32B
100
AcDbEntity
  8
ASSI
100
AcDbPolyline
 62
253
  6
CONTINUOUS
 90
5
 70
0
 10
129.9071588212
 20
89.0922256953
 10
129.9515252612
 20
89.1402282875
 10
129.9999363684
 20
89.1817256503
 10
130.0521054582
 20
89.2164661725
 10
130.1076794726
 20
89.2442195402
  0
LINE
  5
32C
100
AcDbEntity
  8
21814000
100
AcDbLine
 62
7
  6
CONTINUOUS
 10
162.9346033266
 20
116.6642312076
 11
164.0053264205
 21
117.3567658647
  0
LINE
  5
32D
100
AcDbEntity
  8
26814000
100
AcDbLine
 62
7
  6
CONTINUOUS
 10
144.8258887436
 20
98.1441815728
 11
146.5583003575
 21
81.7300206654
  0
LWPOLYLINE
  5
32E
100
AcDbEntity
  8
26814000
100
AcDbPolyline
 62
7
  6
CONTINUOUS
 90
24
 70
0
 10
145.2855081514
 20
126.8368860026
 10
145.284934967
 20
126.8713584088
 10
145.283235854
 20
126.9051083298
 10
145.2804108124
 20
126.9381357655
 10
145.2764503779
 20
126.9704973229
 10
145.2713640147
 20
127.0021363951
 10
145.2651801164
 20
127.0328831617
 10
145.2578975009
 20
127.0627186891
 10
145.2495173503
 20
127.0916619109
 10
145.240071603
 20
127.1195998068
 10
145.2295477445
 20
127.1465459696
 10
145.2179582895
 20
127.1724868066
 10
145.2053727207
 20
127.1972685195
 10
145.1917975349
 20
127.2208658208
 10
145.1772262353
 20
127.2433039982
 10
145.1617088153
 20
127.2645051154
 10
145.1452255279
 20
127.2844822053
 10
145.1277961201
 20
127.3032222352
 10
145.1095298254
 20
127.3206081707
 10
145.0904411695
 20
127.3366170971
 10
145.0705156268
 20
127.3512719291
 10
145.0498188543
 20
127.3645243775
 10
145.0283263397
 20
127.3763802388
 10
141.7991250735
 20
128.9910047491
  0
LINE
  5
32F
100
AcDbEntity
  8
26814000
100
AcDbLine
 62
7
  6
CONTINUOUS
 10
144.4431507543
 20
119.3495286752
 11
144.4431507543
 21
119.8018596508
  0
LINE
  5
330
100
AcDbEntity
  8
26814000
100
AcDbLine
 62
7
  6
CONTINUOUS
 10
145.2855081514
 20
126.8368860026
 11
145.2855081514
 21
126.56608571
  0
LINE
  5
331
100
AcDbEntity
  8
26814000
100
AcDbLine
 62
7
  6
CONTINUOUS
 10
145.3459342622
 20
119.7065710925
 11
145.3459342622
 21
119.4531996988
  0
LINE
  5
332
100
AcDbEntity
  8
26814000
100
AcDbLine
 62
7
  6
CONTINUOUS
 10
145.3459342622
 20
78.1535955594
 11
145.3459342622
 21
77.9002241656
  0
LINE
  5
333
100
AcDbEntity
  8
26814000
100
AcDbLine
 62
7
  6
CONTINUOUS
 10
145.7451275592
 20
117.6807553692
 11
145.7451275592
 21
117.6563598639
  0
LINE
  5
334
100
AcDbEntity
  8
26814000
100
AcDbLine
 62
7
  6
CONTINUOUS
 10
145.7451275592
 20
79.5512420974
 11
145.7451275592
 21
79.5268465921
  0
LINE
  5
335
100
AcDbEntity
  8
26814000
100
AcDbLine
 62
7
  6
CONTINUOUS
 10
146.0571548703
 20
79.1300920365
 11
146.0571548703
 21
79.5347141276
  0
LINE
  5
336
100
AcDbEntity
  8
26814000
100
AcDbLine
 62
7
  6
CONTINUOUS
 10
146.0571548703
 20
118.5425266172
 11
146.0571548703
 21
119.1796961759
  0
LINE
  5
337
100
AcDbEntity
  8
RACCORDO
100
AcDbLine
 62
7
  6
CONTINUOUS
 10
142.9209797226
 20
79.1707958463
 11
146.0031608773
 21
116.6275234319
  0
LINE
  5
338
100
AcDbEntity
  8
ASSI
100
AcDbLine
 62
7
  6
CONTINUOUS
 10
142.9209797226
 20
79.1707958463
 11
146.0031608773
 21
116.6275234319
  0
LINE
  5
339
100
AcDbEntity
  8
26814000
100
AcDbLine
 62
7
  6
CONTINUOUS
 10
146.5583003575
 20
116.2907540942
 11
144.8258887436
 21
98.1441815728
  0
LWPOLYLINE
  5
33A
100
AcDbEntity
  8
RACCORDO
100
AcDbPolyline
 62
253
  6
CONTINUOUS
 90
3
 70
0
 10
131.23156581
 20
87.0757625331
 10
131.1836488543
 20
87.0239467418
 10
131.1310650477
 20
86.978832587
  0
LWPOLYLINE
  5
33B
100
AcDbEntity
  8
ASSI
100
AcDbPolyline
 62
253
  6
CONTINUOUS
 90
12
 70
0
 10
131.23156581
 20
87.0757625331
 10
131.1836488543
 20
87.0239467418
 10
131.1310650477
 20
86.978832587
 10
131.0748228399
 20
86.9412695969
 10
131.0148565714
 20
86.9113977158
 10
130.9512256943
 20
86.8890743447
 10
130.8851254398
 20
86.8747248143
 10
130.816466442
 20
86.8685082483
 10
130.7453329374
 20
86.8702633227
 10
130.673180473
 20
86.8799346579
 10
130.6004931875
 20
86.8975033458
 10
130.5267840299
 20
86.922987043
  0
LWPOLYLINE
  5
33C
100
AcDbEntity
  8
21814000
100
AcDbPolyline
 62
253
  6
CONTINUOUS
 90
28
 70
0
 10
162.6820091469
 20
116.9578376544
 10
162.6982876229
 20
116.9723035432
 10
162.7143402494
 20
116.9844578869
 10
162.7301338239
 20
116.9943038756
 10
162.7456649276
 20
117.0018913956
 10
162.760865347
 20
117.0071759139
 10
162.7756133463
 20
117.0100142003
 10
162.7899069039
 20
117.0102322574
 10
162.8036929033
 20
117.0079979444
 10
162.8168035832
 20
117.0036696552
 10
162.8291867984
 20
116.9971724423
 10
162.8408898745
 20
116.9885583162
 10
162.8519150187
 20
116.978369876
 10
162.8622316013
 20
116.9666654825
 10
162.8718658593
 20
116.9533652886
 10
162.880888273
 20
116.9388083482
 10
162.8892776904
 20
116.9230422446
 10
162.8970164945
 20
116.9060044038
 10
162.9041449756
 20
116.8878744211
 10
162.9106300748
 20
116.8686563771
 10
162.9164261604
 20
116.8483331323
 10
162.9215211883
 20
116.8270554829
 10
162.9258611715
 20
116.8048213535
 10
162.9293914689
 20
116.7816151688
 10
162.9320688583
 20
116.7575676597
 10
162.9338200816
 20
116.7326947681
 10
162.9345773548
 20
116.7069534411
 10
162.9346029628
 20
116.7018928187
  0
LWPOLYLINE
  5
33D
100
AcDbEntity
  8
21814000
100
AcDbPolyline
 62
7
  6
CONTINUOUS
 90
76
 70
0
 10
162.7896684371
 20
117.0868955259
 10
162.8516818654
 20
117.1385137315
 10
162.9119917583
 20
117.1891443721
 10
162.970598116
 20
117.2387874475
 10
163.0274617051
 20
117.2874120065
 10
163.0826217589
 20
117.3350490004
 10
163.1361959772
 20
117.3817912833
 10
163.1881912009
 20
117.4276417989
 10
163.2386005892
 20
117.4725976034
 10
163.2875213198
 20
117.5167427193
 10
163.3349582563
 20
117.5600776779
 10
163.3809065351
 20
117.602601948
 10
163.4254487428
 20
117.6443979587
 10
163.4685906322
 20
117.6854657561
 10
163.5103264504
 20
117.7258052941
 10
163.5507215261
 20
117.7654988643
 10
163.5897833471
 20
117.8045459877
 10
163.6275044256
 20
117.8429471433
 10
163.6639276265
 20
117.8807860595
 10
163.6990636513
 20
117.9180616532
 10
163.7329017986
 20
117.9547750075
 10
163.7654528289
 20
117.9910130995
 10
163.7967349073
 20
118.0267761297
 10
163.8267298687
 20
118.0620638977
 10
163.8553939787
 20
118.0969627794
 10
163.8827579894
 20
118.1314753603
 10
163.9087911486
 20
118.165599055
 10
163.9333574658
 20
118.1994124826
 10
163.9565259186
 20
118.2329608482
 10
163.9782275293
 20
118.2661989469
 10
163.9981193739
 20
118.2990697832
 10
164.0162775977
 20
118.3316904237
 10
164.0326260553
 20
118.3639438019
 10
164.0465933869
 20
118.3954217235
 10
164.0581328334
 20
118.4261375811
 10
164.0672911539
 20
118.4560779822
 10
164.073637266
 20
118.4847945547
 10
164.0770619216
 20
118.5122469311
 10
164.0776743688
 20
118.5384754789
 10
164.0753712691
 20
118.5631529294
 10
164.0699871427
 20
118.5862415476
 10
164.0616874695
 20
118.6077790685
 10
164.0508653508
 20
118.6275514279
 10
164.0374445741
 20
118.645429634
 10
164.021501352
 20
118.6615426786
 10
164.0036574238
 20
118.6760634732
 10
163.9839929506
 20
118.6889415345
 10
163.9624277714
 20
118.7002273457
 10
163.9393431417
 20
118.7102452681
 10
163.9148133636
 20
118.7190237286
 10
163.888764135
 20
118.7265343003
 10
163.8613538064
 20
118.733016064
 10
163.8326177013
 20
118.7385006367
 10
163.8025204961
 20
118.7429564014
 10
163.7711145694
 20
118.7465275887
 10
163.7384193025
 20
118.7492345801
 10
163.7044153141
 20
118.751056994
 10
163.6690968395
 20
118.7520779161
 10
163.6324760983
 20
118.7523105087
 10
163.5945408709
 20
118.7517416096
 10
163.5552487333
 20
118.7504148174
 10
163.5146052374
 20
118.7483387201
 10
163.4726048314
 20
118.7455047296
 10
163.4291884358
 20
118.7419306806
 10
163.3843601882
 20
118.7376222917
 10
163.338115951
 20
118.7325738442
 10
163.2903842313
 20
118.7267860164
 10
163.2411756387
 20
118.7202642224
 10
163.1904795636
 20
118.7130030481
 10
163.1381926847
 20
118.7049869297
 10
163.0843218957
 20
118.6962209103
 10
163.0288603028
 20
118.6866999468
 10
162.9716839034
 20
118.6763933454
 10
162.9127513634
 20
118.6652908747
 10
162.8521040168
 20
118.6534027661
 10
162.7897418637
 20
118.6407290196
  0
LWPOLYLINE
  5
33E
100
AcDbEntity
  8
26814000
100
AcDbPolyline
 62
7
  6
CONTINUOUS
 90
31
 70
0
 10
147.5128945121
 20
118.5835330686
 10
147.5125548446
 20
118.5995661007
 10
147.5115384071
 20
118.6158946699
 10
147.5098476738
 20
118.6324738731
 10
147.5074866693
 20
118.6492579728
 10
147.5044618576
 20
118.6662009668
 10
147.5007821252
 20
118.6832567151
 10
147.4964572721
 20
118.7003783338
 10
147.4914988423
 20
118.7175187446
 10
147.4859209917
 20
118.7346312494
 10
147.4797387475
 20
118.7516688192
 10
147.4729687572
 20
118.7685846113
 10
147.4656300988
 20
118.7853325189
 10
147.4577426568
 20
118.8018665261
 10
147.4493277729
 20
118.8181411788
 10
147.4404089778
 20
118.8341120971
 10
147.4310105241
 20
118.8497354112
 10
147.4211579223
 20
118.8649681751
 10
147.410878577
 20
118.8797688294
 10
147.4002005115
 20
118.8940967306
 10
147.3891527777
 20
118.9079124987
 10
147.3777659785
 20
118.9211784187
 10
147.3660712187
 20
118.9338580748
 10
147.3541003756
 20
118.9459166226
 10
147.3418864966
 20
118.9573211214
 10
147.3294630021
 20
118.9680402796
 10
147.3168638098
 20
118.9780446469
 10
147.3041235974
 20
118.9873068683
 10
147.2912773013
 20
118.9958015596
 10
147.2783600209
 20
119.0035053772
 10
147.2654071387
 20
119.0103971886
  0
LINE
  5
33F
100
AcDbEntity
  8
26814000
100
AcDbLine
 62
7
  6
CONTINUOUS
 10
146.5583003575
 20
117.9406615318
 11
146.5583003575
 21
116.2907540942
  0
LINE
  5
340
100
AcDbEntity
  8
26814000
100
AcDbLine
 62
7
  6
CONTINUOUS
 10
146.5583003575
 20
81.7300206654
 11
146.5583003575
 21
80.0801132278
  0
LINE
  5
341
100
AcDbEntity
  8
26814000
100
AcDbLine
 62
7
  6
CONTINUOUS
 10
147.1239857825
 20
78.5511189696
 11
147.1239857825
 21
80.0567270958
  0
LINE
  5
342
100
AcDbEntity
  8
26814000
100
AcDbLine
 62
7
  6
CONTINUOUS
 10
147.1239857825
 20
119.0811078667
 11
147.1239857825
 21
120.8131586743
  0
LINE
  5
343
100
AcDbEntity
  8
26814000
100
AcDbLine
 62
7
  6
CONTINUOUS
 10
147.8269787367
 20
120.948480172
 11
147.8269787367
 21
120.6875511957
  0
LINE
  5
344
100
AcDbEntity
  8
26814000
100
AcDbLine
 62
7
  6
CONTINUOUS
 10
147.8269787367
 20
79.3879470563
 11
147.8269787367
 21
79.1270180799
  0
LINE
  5
345
100
AcDbEntity
  8
26814000
100
AcDbLine
 62
253
  6
CONTINUOUS
 10
148.1541964343
 20
125.185590064
 11
148.1541964343
 21
123.9537514857
  0
LINE
  5
346
100
AcDbEntity
  8
21814000
100
AcDbLine
 62
7
  6
CONTINUOUS
 10
148.2200012933
 20
84.5372068129
 11
148.2200012933
 21
115.1452688825
  0
LINE
  5
347
100
AcDbEntity
  8
26814000
100
AcDbLine
 62
7
  6
CONTINUOUS
 10
148.2200012933
 20
80.7529469253
 11
148.2200012933
 21
118.92952877
  0
LINE
  5
348
100
AcDbEntity
  8
26814000
100
AcDbLine
 62
7
  6
CONTINUOUS
 10
148.2408338627
 20
125.2899774394
 11
148.2408338627
 21
124.0576089476
  0
LWPOLYLINE
  5
349
100
AcDbEntity
  8
26814000
100
AcDbPolyline
 62
7
  6
CONTINUOUS
 90
18
 70
0
 10
147.5128945121
 20
80.3918358455
 10
147.5125558676
 20
80.3761419695
 10
147.5115392242
 20
80.3608299407
 10
147.5098476738
 20
80.3459418794
 10
147.5074864566
 20
80.3315188906
 10
147.5044620451
 20
80.3176005082
 10
147.5007821252
 20
80.304224586
 10
147.4964570614
 20
80.2914279258
 10
147.4914990117
 20
80.2792457547
 10
147.4859209917
 20
80.2677111853
 10
147.4797385438
 20
80.2568559614
 10
147.4729689044
 20
80.2467099842
 10
147.4656300988
 20
80.2373008085
 10
147.4577424653
 20
80.2286543392
 10
147.4493278943
 20
80.2207944139
 10
147.4404089778
 20
80.2137423514
 10
147.4310103494
 20
80.2075175784
 10
147.422925738
 20
80.2030233141
  0
LWPOLYLINE
  5
34A
100
AcDbEntity
  8
RACCORDO
100
AcDbPolyline
 62
253
  6
CONTINUOUS
 90
7
 70
0
 10
131.1310650477
 20
86.978832587
 10
131.0748228399
 20
86.9412695969
 10
131.0148565714
 20
86.9113977158
 10
130.9512256943
 20
86.8890743447
 10
130.8851254398
 20
86.8747248143
 10
130.816466442
 20
86.8685082483
 10
130.7453329374
 20
86.8702633227
  0
LWPOLYLINE
  5
34B
100
AcDbEntity
  8
26814000
100
AcDbPolyline
 62
7
  6
CONTINUOUS
 90
4
 70
0
 10
152.9964398664
 20
85.7063648829
 10
152.9962053607
 20
85.7081330969
 10
152.9950645847
 20
85.7110653226
 10
152.9930202531
 20
85.7144446905
  0
LINE
  5
34C
100
AcDbEntity
  8
26814000
100
AcDbLine
 62
253
  6
CONTINUOUS
 10
152.9122418281
 20
122.9297532866
 11
152.9122418281
 21
122.7174941325
  0
LINE
  5
34D
100
AcDbEntity
  8
26814000
100
AcDbLine
 62
253
  6
CONTINUOUS
 10
152.9122418281
 20
85.975527562
 11
152.9122418281
 21
85.7857578579
  0
LINE
  5
34E
100
AcDbEntity
  8
26814000
100
AcDbLine
 62
7
  6
CONTINUOUS
 10
152.996439888
 20
123.2173741649
 11
152.996439888
 21
122.6414109753
  0
LINE
  5
34F
100
AcDbEntity
  8
26814000
100
AcDbLine
 62
7
  6
CONTINUOUS
 10
152.996439888
 20
86.0200528831
 11
152.996439888
 21
85.7065344908
  0
LWPOLYLINE
  5
350
100
AcDbEntity
  8
26814000
100
AcDbPolyline
 62
7
  6
CONTINUOUS
 90
16
 70
0
 10
152.9964398664
 20
123.2174297924
 10
152.9962053607
 20
123.2039154841
 10
152.9950645847
 20
123.1841502929
 10
152.9930202531
 20
123.1642966423
 10
152.9901290881
 20
123.1443608584
 10
152.9864403239
 20
123.1243786221
 10
152.98198036
 20
123.1044168005
 10
152.9767875017
 20
123.0844960829
 10
152.9709048445
 20
123.0646283315
 10
152.9643443103
 20
123.0448681053
 10
152.9571374071
 20
123.0252310387
 10
152.9493202615
 20
123.0057290741
 10
152.940896322
 20
122.9864134751
 10
152.9318834306
 20
122.9673107487
 10
152.9223215853
 20
122.9484202549
 10
152.9122418281
 20
122.9297532866
  0
LWPOLYLINE
  5
351
100
AcDbEntity
  8
21814000
100
AcDbPolyline
 62
7
  6
CONTINUOUS
 90
7
 70
0
 10
162.6820091469
 20
116.9578376544
 10
162.6970072624
 20
116.9821217747
 10
162.7131834177
 20
117.005296105
 10
162.7305376128
 20
117.0273606453
 10
162.7490698478
 20
117.0483153955
 10
162.7687801225
 20
117.0681603557
 10
162.7896684371
 20
117.0868955259
  0
LINE
  5
352
100
AcDbEntity
  8
26814000
100
AcDbLine
 62
253
  6
CONTINUOUS
 10
144.195760751
 20
94.6627878204
 11
144.2525323326
 21
94.6906824593
  0
LINE
  5
353
100
AcDbEntity
  8
26814000
100
AcDbLine
 62
7
  6
CONTINUOUS
 10
144.1886744897
 20
94.5766708321
 11
144.2136828357
 21
94.5889586487
  0
LWPOLYLINE
  5
354
100
AcDbEntity
  8
RACCORDO
100
AcDbPolyline
 62
7
  6
CONTINUOUS
 90
3
 70
0
 10
131.0938889509
 20
87.0572564428
 10
131.0380847256
 20
87.0302551459
 10
131.0272209836
 20
87.0260961086
  0
LINE
  5
355
100
AcDbEntity
  8
ASSI
100
AcDbLine
 62
253
  6
CONTINUOUS
 10
130.1076794726
 20
89.2442195402
 11
130.1231400493
 21
89.2504594856
  0
LINE
  5
356
100
AcDbEntity
  8
RACCORDO
100
AcDbLine
 62
253
  6
CONTINUOUS
 10
130.1076794726
 20
89.2442195402
 11
130.1283451499
 21
89.2524254801
  0
LINE
  5
357
100
AcDbEntity
  8
DRAFT
100
AcDbLine
 62
7
  6
CONTINUOUS
 10
130.1284540811
 20
89.0326356728
 11
130.5849799936
 21
89.2057672446
  0
LINE
  5
358
100
AcDbEntity
  8
ASSI
100
AcDbLine
 62
253
  6
CONTINUOUS
 10
130.1231400493
 20
89.2504594856
 11
130.1283451499
 21
89.2524254801
  0
LINE
  5
359
100
AcDbEntity
  8
ASSI
100
AcDbLine
 62
7
  6
CONTINUOUS
 10
130.1230246683
 20
89.2504041436
 11
130.1326713856
 21
89.2539959359
  0
LINE
  5
35A
100
AcDbEntity
  8
RACCORDO
100
AcDbLine
 62
7
  6
CONTINUOUS
 10
130.1283451499
 20
89.2524254801
 11
130.1294726201
 21
89.2528425542
  0
LINE
  5
35B
100
AcDbEntity
  8
RACCORDO
100
AcDbLine
 62
7
  6
CONTINUOUS
 10
130.1293727254
 20
89.2527913676
 11
130.1706807185
 21
89.2657463031
  0
LINE
  5
35C
100
AcDbEntity
  8
RACCORDO
100
AcDbLine
 62
253
  6
CONTINUOUS
 10
140.299067656
 20
114.4630625577
 11
126.1717966146
 21
121.5266980784
  0
LINE
  5
35D
100
AcDbEntity
  8
ASSI
100
AcDbLine
 62
253
  6
CONTINUOUS
 10
140.299067656
 20
114.4630625577
 11
126.1717966146
 21
121.5266980784
  0
LINE
  5
35E
100
AcDbEntity
  8
21814000
100
AcDbLine
 62
7
  6
CONTINUOUS
 10
152.6117797833
 20
123.6055270717
 11
152.6134592117
 21
123.5757749212
  0
LWPOLYLINE
  5
35F
100
AcDbEntity
  8
26814000
100
AcDbPolyline
 62
7
  6
CONTINUOUS
 90
5
 70
0
 10
152.9964398698
 20
122.6412199625
 10
152.9964272195
 20
122.6415548982
 10
152.9961328163
 20
122.6430726869
 10
152.9954574814
 20
122.6447893512
 10
152.9944133884
 20
122.646709055
  0
LWPOLYLINE
  5
360
100
AcDbEntity
  8
26814000
100
AcDbPolyline
 62
7
  6
CONTINUOUS
 90
7
 70
0
 10
152.9963933957
 20
123.2235671305
 10
152.9963017877
 20
123.2278749317
 10
152.9961626169
 20
123.2321862624
 10
152.9959758835
 20
123.2365011224
 10
152.9957415874
 20
123.2408195117
 10
152.9954597286
 20
123.2451414304
 10
152.9951303071
 20
123.2494668785
  0
LINE
  5
361
100
AcDbEntity
  8
26814000
100
AcDbLine
 62
7
  6
CONTINUOUS
 10
152.9963933957
 20
123.2235671305
 11
152.9964398664
 21
123.2174297924
  0
LINE
  5
362
100
AcDbEntity
  8
21814000
100
AcDbLine
 62
253
  6
CONTINUOUS
 10
153.4003410481
 20
124.5692773101
 11
153.4003410481
 21
124.2479530279
  0
LINE
  5
363
100
AcDbEntity
  8
21814000
100
AcDbLine
 62
7
  6
CONTINUOUS
 10
154.083051246
 20
124.1475823291
 11
154.083051246
 21
124.580595031
  0
LINE
  5
364
100
AcDbEntity
  8
0
100
AcDbLine
 62
7
  6
CONTINUOUS
 10
155.0505149585
 20
123.3114522179
 11
155.0505149585
 21
122.8455774514
  0
LINE
  5
365
100
AcDbEntity
  8
26814000
100
AcDbLine
 62
7
  6
CONTINUOUS
 10
152.9963933957
 20
85.7056229281
 11
152.9964398664
 21
85.7063648829
  0
LINE
  5
366
100
AcDbEntity
  8
ASSI
100
AcDbLine
 62
7
  6
CONTINUOUS
 10
131.0903758199
 20
87.0552330298
 11
131.0106856886
 21
87.0203451663
  0
LWPOLYLINE
  5
367
100
AcDbEntity
  8
RACCORDO
100
AcDbPolyline
 62
253
  6
CONTINUOUS
 90
45
 70
0
 10
130.8203670419
 20
87.1691102814
 10
130.8378237421
 20
87.1758837692
 10
130.8725773099
 20
87.1920587407
 10
130.905914588
 20
87.2112689413
 10
130.9377633283
 20
87.2334514206
 10
130.9680724883
 20
87.2585644193
 10
130.9967573067
 20
87.2865461541
 10
131.0236982363
 20
87.3172889468
 10
131.048794338
 20
87.3506798848
 10
131.0719603902
 20
87.3866052138
 10
131.0931189416
 20
87.4249444288
 10
131.1121939086
 20
87.4655570835
 10
131.1291127014
 20
87.5082767871
 10
131.1438328071
 20
87.5529828663
 10
131.1563249759
 20
87.5996005127
 10
131.1665466774
 20
87.6480275753
 10
131.1744405678
 20
87.6980617822
 10
131.1799646678
 20
87.7494713266
 10
131.1830991192
 20
87.8020613915
 10
131.1838354847
 20
87.8556727845
 10
131.182171369
 20
87.9101148509
 10
131.1781138236
 20
87.9651959793
 10
131.1716773567
 20
88.0207352417
 10
131.162882694
 20
88.0765546535
 10
131.1517574912
 20
88.1324721759
 10
131.1383399881
 20
88.1882904598
 10
131.122678705
 20
88.2438083155
 10
131.1048303823
 20
88.2988295116
 10
131.0848543506
 20
88.3531754534
 10
131.0628141174
 20
88.4066736887
 10
131.0387799029
 20
88.4591507142
 10
131.0128361649
 20
88.510419317
 10
130.9850780135
 20
88.5602921079
 10
130.9556065865
 20
88.6085911069
 10
130.9245174206
 20
88.6551632567
 10
130.8919057432
 20
88.6998659473
 10
130.8578585833
 20
88.7425740411
 10
130.8225120514
 20
88.7831112053
 10
130.7860468605
 20
88.8212774702
 10
130.7486309524
 20
88.8569183366
 10
130.7103576732
 20
88.8899655273
 10
130.6713018281
 20
88.9203620735
 10
130.6315752831
 20
88.9480188406
 10
130.5913306637
 20
88.972827539
 10
130.5507034376
 20
88.994704966
  0
LINE
  5
368
100
AcDbEntity
  8
RACCORDO
100
AcDbLine
 62
7
  6
CONTINUOUS
 10
131.0284612913
 20
87.0265402789
 11
131.0271180234
 21
87.0260437638
  0
LINE
  5
369
100
AcDbEntity
  8
RACCORDO
100
AcDbLine
 62
253
  6
CONTINUOUS
 10
130.8203369109
 20
87.169099332
 11
130.8203670419
 21
87.1691102814
  0
LINE
  5
36A
100
AcDbEntity
  8
DRAFT
100
AcDbLine
 62
7
  6
CONTINUOUS
 10
130.8203369093
 20
87.1690993314
 11
131.3285460416
 21
87.3537582891
  0
LINE
  5
36B
100
AcDbEntity
  8
ASSI
100
AcDbLine
 62
253
  6
CONTINUOUS
 10
131.0284612913
 20
87.0265402789
 11
131.0106323454
 21
87.0203081087
  0
LWPOLYLINE
  5
36C
100
AcDbEntity
  8
RACCORDO
100
AcDbPolyline
 62
253
  6
CONTINUOUS
 90
6
 70
0
 10
131.0271180234
 20
87.0260437638
 10
130.9906317848
 20
87.0142110849
 10
130.9296091994
 20
87.0010333643
 10
130.8662402042
 20
86.9952326751
 10
130.800976261
 20
86.9968676709
 10
130.7342785851
 20
87.0059159701
  0
LWPOLYLINE
  5
36D
100
AcDbEntity
  8
RACCORDO
100
AcDbPolyline
 62
7
  6
CONTINUOUS
 90
13
 70
0
 10
130.8203369123
 20
87.1690993325
 10
130.7860390052
 20
87.1580431548
 10
130.7507734839
 20
87.1494684209
 10
130.7146430972
 20
87.1434357968
 10
130.6777755137
 20
87.1399975683
 10
130.6402587414
 20
87.1391907387
 10
130.6021328216
 20
87.1410526739
 10
130.5634581983
 20
87.1456274938
 10
130.5243841614
 20
87.1529440136
 10
130.4850747765
 20
87.1630071856
 10
130.4456512487
 20
87.1758141507
 10
130.4061966547
 20
87.1913672038
 10
130.3668138223
 20
87.2096584532
  0
LINE
  5
36E
100
AcDbEntity
  8
RACCORDO
100
AcDbLine
 62
253
  6
CONTINUOUS
 10
141.4449993384
 20
116.0993898686
 11
127.3007892659
 21
123.1714949048
  0
LINE
  5
36F
100
AcDbEntity
  8
ASSI
100
AcDbLine
 62
253
  6
CONTINUOUS
 10
141.4449993384
 20
116.0993898686
 11
127.3007892659
 21
123.1714949048
  0
LINE
  5
370
100
AcDbEntity
  8
21814000
100
AcDbLine
 62
253
  6
CONTINUOUS
 10
155.4678481394
 20
124.0405674416
 11
155.4678481394
 21
124.4992990078
  0
LINE
  5
371
100
AcDbEntity
  8
0
100
AcDbLine
 62
7
  6
CONTINUOUS
 10
155.5002596199
 20
123.1897043847
 11
155.5002596199
 21
122.8365188309
  0
LINE
  5
372
100
AcDbEntity
  8
21814000
100
AcDbLine
 62
253
  6
CONTINUOUS
 10
155.6088610608
 20
124.0414977198
 11
155.6088610608
 21
124.5102949049
  0
LINE
  5
373
100
AcDbEntity
  8
21814000
100
AcDbLine
 62
7
  6
CONTINUOUS
 10
157.4124970266
 20
126.6106771028
 11
157.4124970266
 21
126.2028258355
  0
LWPOLYLINE
  5
374
100
AcDbEntity
  8
26814000
100
AcDbPolyline
 62
7
  6
CONTINUOUS
 90
7
 70
0
 10
152.9963933957
 20
85.7056229281
 10
152.9963017877
 20
85.7051373206
 10
152.9961626169
 20
85.7046251729
 10
152.9959758835
 20
85.7040864848
 10
152.9957415874
 20
85.7035212565
 10
152.9954597286
 20
85.7029294879
 10
152.9951303071
 20
85.702311179
  0
LWPOLYLINE
  5
375
100
AcDbEntity
  8
ASSI
100
AcDbPolyline
 62
253
  6
CONTINUOUS
 90
9
 70
0
 10
131.0106323454
 20
87.0203081087
 10
130.9906317848
 20
87.0142110849
 10
130.9296091994
 20
87.0010333643
 10
130.8662402042
 20
86.9952326751
 10
130.800976261
 20
86.9968676709
 10
130.7342785851
 20
87.0059159701
 10
130.6665985428
 20
87.0222990976
 10
130.5983705322
 20
87.0459056334
 10
130.5300393155
 20
87.0765717563
  0
LWPOLYLINE
  5
376
100
AcDbEntity
  8
RACCORDO
100
AcDbPolyline
 62
253
  6
CONTINUOUS
 90
16
 70
0
 10
141.412192191
 20
114.33674871
 10
141.3505905589
 20
114.3222431327
 10
141.2836938716
 20
114.3109621954
 10
141.212218917
 20
114.3030267719
 10
141.1369315387
 20
114.298521889
 10
141.0586384294
 20
114.2974958158
 10
140.9781784882
 20
114.2999595465
 10
140.8964138313
 20
114.3058866827
 10
140.8142205547
 20
114.3152137159
 10
140.7324793469
 20
114.3278407084
 10
140.6520660528
 20
114.3436323639
 10
140.5738422888
 20
114.3624194772
 10
140.4986462107
 20
114.3840007473
 10
140.4272835333
 20
114.4081449341
 10
140.360518897
 20
114.4345933362
 10
140.2990676747
 20
114.4630625631
  0
LWPOLYLINE
  5
377
100
AcDbEntity
  8
ASSI
100
AcDbPolyline
 62
253
  6
CONTINUOUS
 90
16
 70
0
 10
141.412192191
 20
114.33674871
 10
141.3505905589
 20
114.3222431327
 10
141.2836938716
 20
114.3109621954
 10
141.212218917
 20
114.3030267719
 10
141.1369315387
 20
114.298521889
 10
141.0586384294
 20
114.2974958158
 10
140.9781784882
 20
114.2999595465
 10
140.8964138313
 20
114.3058866827
 10
140.8142205547
 20
114.3152137159
 10
140.7324793469
 20
114.3278407084
 10
140.6520660528
 20
114.3436323639
 10
140.5738422888
 20
114.3624194772
 10
140.4986462107
 20
114.3840007473
 10
140.4272835333
 20
114.4081449341
 10
140.360518897
 20
114.4345933362
 10
140.2990676747
 20
114.4630625631
  0
LWPOLYLINE
  5
378
100
AcDbEntity
  8
21814000
100
AcDbPolyline
 62
7
  6
CONTINUOUS
 90
7
 70
0
 10
162.7897418637
 20
118.6407290196
 10
162.7687699176
 20
118.6378392875
 10
162.7490045688
 20
118.6372768698
 10
162.7304458173
 20
118.6390417666
 10
162.7130936632
 20
118.6431339777
 10
162.6969481064
 20
118.6495535033
 10
162.6820091469
 20
118.6583003432
  0
LINE
  5
379
100
AcDbEntity
  8
26814000
100
AcDbLine
 62
7
  6
CONTINUOUS
 10
145.9984820544
 20
116.5706632458
 11
146.5583003575
 21
116.2907540942
  0
LINE
  5
37A
100
AcDbEntity
  8
26814000
100
AcDbLine
 62
7
  6
CONTINUOUS
 10
143.8280319193
 20
79.1884350785
 11
144.4068222596
 21
79.8928788086
  0
LINE
  5
37B
100
AcDbEntity
  8
RACCORDO
100
AcDbLine
 62
7
  6
CONTINUOUS
 10
131.2129535381
 20
124.7706683628
 11
145.4966828313
 21
117.6288037162
  0
LINE
  5
37C
100
AcDbEntity
  8
ASSI
100
AcDbLine
 62
7
  6
CONTINUOUS
 10
131.2129535381
 20
124.7706683628
 11
145.4966828313
 21
117.6288037162
  0
LINE
  5
37D
100
AcDbEntity
  8
26814000
100
AcDbLine
 62
7
  6
CONTINUOUS
 10
129.9766463387
 20
125.5406004741
 11
145.7451275592
 21
117.6563598639
  0
LINE
  5
37E
100
AcDbEntity
  8
26814000
100
AcDbLine
 62
7
  6
CONTINUOUS
 10
145.4976401857
 20
118.1076194891
 11
130.2241337121
 21
125.7443727259
  0
LINE
  5
37F
100
AcDbEntity
  8
26814000
100
AcDbLine
 62
7
  6
CONTINUOUS
 10
146.0571548703
 20
118.5425266172
 11
144.4431507543
 21
119.3495286752
  0
LINE
  5
380
100
AcDbEntity
  8
26814000
100
AcDbLine
 62
7
  6
CONTINUOUS
 10
132.6928367059
 20
125.2246856994
 11
131.0788325899
 21
126.0316877574
  0
LINE
  5
381
100
AcDbEntity
  8
26814000
100
AcDbLine
 62
7
  6
CONTINUOUS
 10
136.0252925867
 20
123.9157899942
 11
141.8178016547
 21
121.0195354602
  0
LINE
  5
382
100
AcDbEntity
  8
26814000
100
AcDbLine
 62
7
  6
CONTINUOUS
 10
130.4404343816
 20
126.8032178372
 11
132.0469679447
 21
125.9999510557
  0
LINE
  5
383
100
AcDbEntity
  8
26814000
100
AcDbLine
 62
7
  6
CONTINUOUS
 10
143.804752546
 20
120.121058755
 11
145.4112861091
 21
119.3177919734
  0
LINE
  5
384
100
AcDbEntity
  8
26814000
100
AcDbLine
 62
253
  6
CONTINUOUS
 10
130.3758396356
 20
126.9382470121
 11
131.9816160978
 21
126.135358781
  0
LINE
  5
385
100
AcDbEntity
  8
26814000
100
AcDbLine
 62
253
  6
CONTINUOUS
 10
143.7401578001
 20
120.2560879299
 11
145.3459342622
 21
119.4531996988
  0
LINE
  5
386
100
AcDbEntity
  8
26814000
100
AcDbLine
 62
253
  6
CONTINUOUS
 10
145.3459342622
 20
119.7065710925
 11
143.7401578001
 21
120.5094593236
  0
LINE
  5
387
100
AcDbEntity
  8
26814000
100
AcDbLine
 62
253
  6
CONTINUOUS
 10
131.9816160978
 20
126.3887301747
 11
130.3758396356
 21
127.1916184058
  0
LINE
  5
388
100
AcDbEntity
  8
26814000
100
AcDbLine
 62
7
  6
CONTINUOUS
 10
133.759667618
 20
125.7632669489
 11
135.937424621
 21
124.6743884474
  0
LINE
  5
389
100
AcDbEntity
  8
26814000
100
AcDbLine
 62
7
  6
CONTINUOUS
 10
142.7399237391
 20
121.2731388884
 11
143.8210456903
 21
120.7325779128
  0
LINE
  5
38A
100
AcDbEntity
  8
26814000
100
AcDbLine
 62
7
  6
CONTINUOUS
 10
147.1239857825
 20
119.0811078667
 11
147.2654071387
 21
119.0103971886
  0
LWPOLYLINE
  5
38B
100
AcDbEntity
  8
21814000
100
AcDbPolyline
 62
253
  6
CONTINUOUS
 90
10
 70
0
 10
162.9346033266
 20
122.9457889145
 10
162.9318969736
 20
122.9109173252
 10
162.9225467611
 20
122.8723783276
 10
162.9065880089
 20
122.8343856899
 10
162.8841394904
 20
122.7972221733
 10
162.8553682793
 20
122.7611643682
 10
162.8204885059
 20
122.7264806355
 10
162.7797597638
 20
122.6934291098
 10
162.7334851775
 20
122.6622557778
 10
162.6820091469
 20
122.6331926478
  0
LINE
  5
38C
100
AcDbEntity
  8
26814000
100
AcDbLine
 62
7
  6
CONTINUOUS
 10
145.4348368382
 20
78.385032619
 11
146.0571548703
 21
79.1300920365
  0
LINE
  5
38D
100
AcDbEntity
  8
26814000
100
AcDbLine
 62
253
  6
CONTINUOUS
 10
144.5526753412
 20
84.7383860339
 11
143.3327568707
 21
84.1749872576
  0
LINE
  5
38E
100
AcDbEntity
  8
26814000
100
AcDbLine
 62
7
  6
CONTINUOUS
 10
144.3518217552
 20
84.2246169773
 11
143.2967450562
 21
83.7373475936
  0
LINE
  5
38F
100
AcDbEntity
  8
26814000
100
AcDbLine
 62
7
  6
CONTINUOUS
 10
146.0571548703
 20
119.1796961759
 11
145.4348368382
 21
119.3096367584
  0
LINE
  5
390
100
AcDbEntity
  8
26814000
100
AcDbLine
 62
253
  6
CONTINUOUS
 10
145.5227049916
 20
120.0104366708
 11
143.9148835826
 21
120.8143473753
  0
LINE
  5
391
100
AcDbEntity
  8
26814000
100
AcDbLine
 62
253
  6
CONTINUOUS
 10
132.1583868272
 20
126.692595753
 11
130.5505654182
 21
127.4965064575
  0
LINE
  5
392
100
AcDbEntity
  8
26814000
100
AcDbLine
 62
7
  6
CONTINUOUS
 10
136.0252925867
 20
125.1307448603
 11
141.8178016547
 21
122.2344903263
  0
LINE
  5
393
100
AcDbEntity
  8
26814000
100
AcDbLine
 62
7
  6
CONTINUOUS
 10
147.9725139199
 20
119.35639289
 11
147.1727818961
 21
119.7562589019
  0
LINE
  5
394
100
AcDbEntity
  8
26814000
100
AcDbLine
 62
7
  6
CONTINUOUS
 10
135.2909417351
 20
125.6971789824
 11
133.8084637316
 21
126.4384179841
  0
LINE
  5
395
100
AcDbEntity
  8
26814000
100
AcDbLine
 62
7
  6
CONTINUOUS
 10
136.5173840647
 20
125.5968442909
 11
142.7399237391
 21
122.4855744537
  0
LINE
  5
396
100
AcDbEntity
  8
26814000
100
AcDbLine
 62
7
  6
CONTINUOUS
 10
132.1333220213
 20
128.3084905548
 11
133.759667618
 21
127.4953177565
  0
LINE
  5
397
100
AcDbEntity
  8
26814000
100
AcDbLine
 62
7
  6
CONTINUOUS
 10
145.4976401857
 20
121.6263314726
 11
147.1239857825
 21
120.8131586743
  0
LINE
  5
398
100
AcDbEntity
  8
26814000
100
AcDbLine
 62
7
  6
CONTINUOUS
 10
137.8608869489
 20
125.6271612415
 11
142.8106344172
 21
123.1522875074
  0
LINE
  5
399
100
AcDbEntity
  8
26814000
100
AcDbLine
 62
253
  6
CONTINUOUS
 10
132.6677719
 20
128.5688380214
 11
134.2879347898
 21
127.7587565765
  0
LINE
  5
39A
100
AcDbEntity
  8
26814000
100
AcDbLine
 62
253
  6
CONTINUOUS
 10
146.0320900644
 20
121.8866789392
 11
147.6522529542
 21
121.0765974943
  0
LINE
  5
39B
100
AcDbEntity
  8
26814000
100
AcDbLine
 62
7
  6
CONTINUOUS
 10
132.7791895153
 20
128.5751065846
 11
134.3980670935
 21
127.7656677955
  0
LINE
  5
39C
100
AcDbEntity
  8
26814000
100
AcDbLine
 62
7
  6
CONTINUOUS
 10
146.1435076798
 20
121.8929475024
 11
147.762385258
 21
121.0835087133
  0
LWPOLYLINE
  5
39D
100
AcDbEntity
  8
21814000
100
AcDbPolyline
 62
253
  6
CONTINUOUS
 90
15
 70
0
 10
143.0094348516
 20
124.1139275362
 10
143.0430168281
 20
124.0946844102
 10
143.0723334161
 20
124.0730610074
 10
143.0973846158
 20
124.0490573276
 10
143.1183738079
 20
124.0224249789
 10
143.1350976116
 20
123.9934123534
 10
143.1469458847
 20
123.9627646269
 10
143.1538026783
 20
123.9304046793
 10
143.1557839414
 20
123.8964096308
 10
143.1526273785
 20
123.8617560186
 10
143.1441646393
 20
123.8263899299
 10
143.1305640741
 20
123.7903652775
 10
143.1120684394
 20
123.7548203366
 10
143.0887586538
 20
123.7201345321
 10
143.0605537986
 20
123.685928439
  0
LWPOLYLINE
  5
39E
100
AcDbEntity
  8
21814000
100
AcDbPolyline
 62
253
  6
CONTINUOUS
 90
9
 70
0
 10
142.9069945041
 20
123.8962119528
 10
142.9268756805
 20
123.884597962
 10
142.9445374123
 20
123.8708534799
 10
142.9597889872
 20
123.8550887945
 10
142.972453571
 20
123.8373950321
 10
142.9823972668
 20
123.817930747
 10
142.9895118799
 20
123.796917395
 10
142.9936882966
 20
123.7744527818
 10
142.9948624333
 20
123.7538510309
  0
LWPOLYLINE
  5
39F
100
AcDbEntity
  8
21814000
100
AcDbPolyline
 62
253
  6
CONTINUOUS
 90
13
 70
0
 10
141.5629105592
 20
124.3844737147
 10
141.5806214949
 20
124.3733518387
 10
141.5986896083
 20
124.3599473506
 10
141.6168113696
 20
124.3444854826
 10
141.6346823549
 20
124.3272260232
 10
141.6520023746
 20
124.3084589389
 10
141.6684805131
 20
124.2884994982
 10
141.6838399832
 20
124.2676830141
 10
141.6978228201
 20
124.2463591554
 10
141.7101942128
 20
124.2248860536
 10
141.7207463866
 20
124.2036243777
 10
141.7293021073
 20
124.1829312784
 10
141.7357176908
 20
124.1631543281
  0
LINE
  5
3A0
100
AcDbEntity
  8
21814000
100
AcDbLine
 62
7
  6
CONTINUOUS
 10
154.3309375518
 20
120.8404436836
 11
153.5782434679
 21
122.1386489447
  0
LINE
  5
3A1
100
AcDbEntity
  8
21814000
100
AcDbLine
 62
253
  6
CONTINUOUS
 10
152.9857635364
 20
125.6448558503
 11
153.4003410481
 21
124.5692773101
  0
LINE
  5
3A2
100
AcDbEntity
  8
0
100
AcDbLine
 62
7
  6
CONTINUOUS
 10
154.5450453763
 20
123.0692122621
 11
154.3435460184
 21
123.6649366879
  0
LWPOLYLINE
  5
3A3
100
AcDbEntity
  8
21814000
100
AcDbPolyline
 62
7
  6
CONTINUOUS
 90
10
 70
0
 10
162.9346033266
 20
122.9457889145
 10
162.9307984305
 20
123.0597266109
 10
162.9196523415
 20
123.1729908079
 10
162.9015140163
 20
123.2853780813
 10
162.8765589152
 20
123.3971148581
 10
162.8450119157
 20
123.5077470256
 10
162.8073906495
 20
123.6160534147
 10
162.7640894141
 20
123.7215373857
 10
162.7151366324
 20
123.8244642663
 10
162.6606045869
 20
123.924708676
  0
LINE
  5
3A4
100
AcDbEntity
  8
21814000
100
AcDbLine
 62
7
  6
CONTINUOUS
 10
162.9346029628
 20
116.7018928187
 11
162.9346032884
 21
116.701433751
  0
LINE
  5
3A5
100
AcDbEntity
  8
21814000
100
AcDbLine
 62
253
  6
CONTINUOUS
 10
162.6820091469
 20
122.6331926478
 11
162.6820091469
 21
118.6583003432
  0
LINE
  5
3A6
100
AcDbEntity
  8
21814000
100
AcDbLine
 62
253
  6
CONTINUOUS
 10
162.6820091469
 20
116.9578376544
 11
162.6820091469
 21
92.0251305782
  0
LINE
  5
3A7
100
AcDbEntity
  8
21814000
100
AcDbLine
 62
7
  6
CONTINUOUS
 10
162.9346033266
 20
122.9457889145
 11
162.9346033266
 21
119.5401034679
  0
LINE
  5
3A8
100
AcDbEntity
  8
21814000
100
AcDbLine
 62
7
  6
CONTINUOUS
 10
162.9346033266
 20
116.7011427984
 11
162.9346033266
 21
92.3377268449
  0
LINE
  5
3A9
100
AcDbEntity
  8
21814000
100
AcDbLine
 62
7
  6
CONTINUOUS
 10
162.9346031764
 20
119.5390849652
 11
162.9346030886
 21
119.538837385
  0
LWPOLYLINE
  5
3AA
100
AcDbEntity
  8
21814000
100
AcDbPolyline
 62
253
  6
CONTINUOUS
 90
29
 70
0
 10
162.9346030886
 20
119.538837385
 10
162.9342747178
 20
119.4953830777
 10
162.9330684018
 20
119.4436571283
 10
162.9310374432
 20
119.3933400178
 10
162.9282310891
 20
119.3444405043
 10
162.9247018854
 20
119.2969749499
 10
162.9205009457
 20
119.2509446
 10
162.9156516846
 20
119.2063347312
 10
162.9101956283
 20
119.1631605207
 10
162.9041692353
 20
119.1214190374
 10
162.8975629797
 20
119.0810695516
 10
162.8903999647
 20
119.0420846845
 10
162.8827060114
 20
119.0045029628
 10
162.8744507383
 20
118.9683853042
 10
162.8656421238
 20
118.9336858196
 10
162.8562981676
 20
118.9004630977
 10
162.8463842695
 20
118.8689380716
 10
162.8359030387
 20
118.8390797761
 10
162.8248639014
 20
118.8109343287
 10
162.8132287731
 20
118.7848415701
 10
162.8009854618
 20
118.7607844727
 10
162.7881478167
 20
118.7387988331
 10
162.7747105224
 20
118.7193057843
 10
162.7606610631
 20
118.7023687303
 10
162.7460155092
 20
118.6879441914
 10
162.730815373
 20
118.6762919133
 10
162.7150815294
 20
118.6675033807
 10
162.6988098764
 20
118.6615034454
 10
162.6820091469
 20
118.6583003432
  0
LWPOLYLINE
  5
3AB
100
AcDbEntity
  8
21814000
100
AcDbPolyline
 62
253
  6
CONTINUOUS
 90
11
 70
0
 10
162.9346033266
 20
92.3377268449
 10
162.9338006869
 20
92.3187261397
 10
162.9278181336
 20
92.2825740832
 10
162.9160311444
 20
92.2467804294
 10
162.8985163154
 20
92.2115777786
 10
162.8753874645
 20
92.1771948905
 10
162.8467948912
 20
92.1438551976
 10
162.8129244006
 20
92.1117753536
 10
162.7739960955
 20
92.0811638252
 10
162.7302629463
 20
92.0522195371
 10
162.6820091469
 20
92.02513058
  0
LINE
  5
3AC
100
AcDbEntity
  8
21814000
100
AcDbLine
 62
7
  6
CONTINUOUS
 10
154.3309375518
 20
86.873231377
 11
153.5782434679
 21
86.3277201999
  0
LWPOLYLINE
  5
3AD
100
AcDbEntity
  8
21814000
100
AcDbPolyline
 62
7
  6
CONTINUOUS
 90
3
 70
0
 10
161.923502452
 20
90.8883047652
 10
161.9798942974
 20
90.9224967771
 10
161.992628639
 20
90.9314915348
  0
LWPOLYLINE
  5
3AE
100
AcDbEntity
  8
26814000
100
AcDbPolyline
 62
7
  6
CONTINUOUS
 90
25
 70
0
 10
152.2481434186
 20
85.2424701138
 10
152.2740598289
 20
85.2573023305
 10
152.3005620656
 20
85.2725693072
 10
152.3276501286
 20
85.2882710441
 10
152.355351785
 20
85.3044201469
 10
152.3836392676
 20
85.3210040097
 10
152.4124292756
 20
85.3379848157
 10
152.4417027947
 20
85.3553513895
 10
152.471478839
 20
85.3731149065
 10
152.5017311501
 20
85.3912710749
 10
152.5324735845
 20
85.4098279718
 10
152.5636922855
 20
85.4287775201
 10
152.595319425
 20
85.4480911965
 10
152.6273661596
 20
85.4677758313
 10
152.6598213327
 20
85.4878245941
 10
152.6925836461
 20
85.5081884708
 10
152.7256684202
 20
85.5288773101
 10
152.7590603346
 20
85.5498812632
 10
152.79261213
 20
85.5711217699
 10
152.8263434451
 20
85.5926120559
 10
152.8602346411
 20
85.6143388953
 10
152.8940795428
 20
85.6361840511
 10
152.9278094252
 20
85.6581081108
 10
152.9614930133
 20
85.6801504867
 10
152.9951303071
 20
85.702311179
  0
LWPOLYLINE
  5
3AF
100
AcDbEntity
  8
26814000
100
AcDbPolyline
 62
7
  6
CONTINUOUS
 90
3
 70
0
 10
152.2481434186
 20
85.2424701138
 10
152.2135589415
 20
85.2235944162
 10
152.1977220358
 20
85.2154934979
  0
LINE
  5
3B0
100
AcDbEntity
  8
21814000
100
AcDbLine
 62
7
  6
CONTINUOUS
 10
161.923502452
 20
90.8883047652
 11
154.3309375518
 21
86.873231377
  0
LINE
  5
3B1
100
AcDbEntity
  8
21814000
100
AcDbLine
 62
7
  6
CONTINUOUS
 10
153.5782434679
 20
86.3277201999
 11
148.2200012933
 21
83.494193474
  0
LINE
  5
3B2
100
AcDbEntity
  8
21814000
100
AcDbLine
 62
253
  6
CONTINUOUS
 10
162.343045663
 20
91.1923665557
 11
148.2200012933
 21
83.7381915839
  0
LINE
  5
3B3
100
AcDbEntity
  8
21814000
100
AcDbLine
 62
253
  6
CONTINUOUS
 10
162.6820091469
 20
92.0251305782
 11
148.2200012933
 21
84.5372068129
  0
LINE
  5
3B4
100
AcDbEntity
  8
26814000
100
AcDbLine
 62
253
  6
CONTINUOUS
 10
148.2200012933
 20
83.2205669303
 11
152.2481434186
 21
85.2424701138
  0
LINE
  5
3B5
100
AcDbEntity
  8
26814000
100
AcDbLine
 62
7
  6
CONTINUOUS
 10
148.2200012933
 20
83.2188988495
 11
152.1977643643
 21
85.2155145514
  0
LINE
  5
3B6
100
AcDbEntity
  8
26814000
100
AcDbLine
 62
253
  6
CONTINUOUS
 10
148.2200012933
 20
83.458371961
 11
152.9122418281
 21
85.7857578579
  0
LINE
  5
3B7
100
AcDbEntity
  8
26814000
100
AcDbLine
 62
253
  6
CONTINUOUS
 10
148.2200012933
 20
83.3364972333
 11
152.9963933957
 21
85.7056229281
  0
LINE
  5
3B8
100
AcDbEntity
  8
26814000
100
AcDbLine
 62
7
  6
CONTINUOUS
 10
132.6928367059
 20
125.8618552581
 11
132.0705186738
 21
125.9917958406
  0
LWPOLYLINE
  5
3B9
100
AcDbEntity
  8
21814000
100
AcDbPolyline
 62
253
  6
CONTINUOUS
 90
8
 70
0
 10
143.0274538738
 20
123.6522020574
 10
143.0086292007
 20
123.659348118
 10
142.9907755404
 20
123.6639047697
 10
142.9741927963
 20
123.6657954705
 10
142.9591595235
 20
123.6649884606
 10
142.9459282489
 20
123.661497296
 10
142.9347212298
 20
123.655380621
 10
142.9306535028
 20
123.6520418175
  0
LINE
  5
3BA
100
AcDbEntity
  8
21814000
100
AcDbLine
 62
253
  6
CONTINUOUS
 10
142.5923595532
 20
125.2183499535
 11
142.5958003826
 21
125.2167366866
  0
LINE
  5
3BB
100
AcDbEntity
  8
21814000
100
AcDbLine
 62
253
  6
CONTINUOUS
 10
142.1485889054
 20
124.2754147521
 11
142.9069945041
 21
123.8962119528
  0
LINE
  5
3BC
100
AcDbEntity
  8
21814000
100
AcDbLine
 62
253
  6
CONTINUOUS
 10
142.251029253
 20
124.4931303355
 11
143.0094348516
 21
124.1139275362
  0
LINE
  5
3BD
100
AcDbEntity
  8
21814000
100
AcDbLine
 62
7
  6
CONTINUOUS
 10
141.5378422119
 20
125.0934817168
 11
144.1247963976
 21
123.800004624
  0
LINE
  5
3BE
100
AcDbEntity
  8
21814000
100
AcDbLine
 62
253
  6
CONTINUOUS
 10
144.732184114
 20
124.0993706278
 11
142.5075846239
 21
125.2116703728
  0
LINE
  5
3BF
100
AcDbEntity
  8
21814000
100
AcDbLine
 62
7
  6
CONTINUOUS
 10
144.7817112059
 20
124.1237812755
 11
142.5957932246
 21
125.2167402661
  0
LINE
  5
3C0
100
AcDbEntity
  8
26814000
100
AcDbLine
 62
7
  6
CONTINUOUS
 10
145.328310162
 20
124.3931860407
 11
142.5277917048
 21
125.7934452693
  0
LINE
  5
3C1
100
AcDbEntity
  8
26814000
100
AcDbLine
 62
7
  6
CONTINUOUS
 10
142.1742383142
 20
126.5227801539
 11
142.5277917048
 21
126.3460034586
  0
LWPOLYLINE
  5
3C2
100
AcDbEntity
  8
26814000
100
AcDbPolyline
 62
7
  6
CONTINUOUS
 90
20
 70
0
 10
152.9944133884
 20
122.646709055
 10
152.9930132367
 20
122.6488401198
 10
152.9912668104
 20
122.6511485672
 10
152.9891852006
 20
122.6536382063
 10
152.9867802361
 20
122.6563156491
 10
152.9840601442
 20
122.6591508651
 10
152.981035213
 20
122.6621473914
 10
152.9777167116
 20
122.6653104696
 10
152.9741125547
 20
122.668612462
 10
152.9702326979
 20
122.6720564448
 10
152.9660880264
 20
122.6756466892
 10
152.9616867936
 20
122.6793571887
 10
152.9570384551
 20
122.6831907806
 10
152.9521540012
 20
122.6871506542
 10
152.9470436128
 20
122.6912110746
 10
152.9417167377
 20
122.6953742898
 10
152.9361845344
 20
122.6996426612
 10
152.9304600632
 20
122.7039901607
 10
152.9245548798
 20
122.7084090429
 10
152.9122418281
 20
122.7174941325
  0
LWPOLYLINE
  5
3C3
100
AcDbEntity
  8
21814000
100
AcDbPolyline
 62
253
  6
CONTINUOUS
 90
11
 70
0
 10
162.4428596837
 20
91.2818554852
 10
162.4869715952
 20
91.3351928578
 10
162.5269626904
 20
91.3939622181
 10
162.5626618189
 20
91.4579118561
 10
162.5939162413
 20
91.526767997
 10
162.6205921134
 20
91.6002355786
 10
162.6425753273
 20
91.6780001129
 10
162.6597719248
 20
91.7597292954
 10
162.6721082192
 20
91.8450734696
 10
162.6795312488
 20
91.9336670052
 10
162.6820091469
 20
92.0251305782
  0
LWPOLYLINE
  5
3C4
100
AcDbEntity
  8
21814000
100
AcDbPolyline
 62
253
  6
CONTINUOUS
 90
3
 70
0
 10
162.343045663
 20
91.1923665557
 10
162.3948158144
 20
91.2341786324
 10
162.4428596837
 20
91.2818554852
  0
LWPOLYLINE
  5
3C5
100
AcDbEntity
  8
21814000
100
AcDbPolyline
 62
7
  6
CONTINUOUS
 90
13
 70
0
 10
162.4101564977
 20
91.2340924752
 10
162.4847112219
 20
91.2928160538
 10
162.5555040707
 20
91.3584304494
 10
162.621879512
 20
91.4307520173
 10
162.6831401424
 20
91.5094263139
 10
162.7387684177
 20
91.594186766
 10
162.7884115294
 20
91.6849974174
 10
162.8316126994
 20
91.7816945718
 10
162.867792021
 20
91.8837223465
 10
162.8965213754
 20
91.9906458547
 10
162.9174572095
 20
92.1021723661
 10
162.9302620253
 20
92.217985435
 10
162.9346033266
 20
92.3377268449
  0
LINE
  5
3C6
100
AcDbEntity
  8
21814000
100
AcDbLine
 62
253
  6
CONTINUOUS
 10
162.343045663
 20
91.1923665557
 11
161.923502452
 21
90.8883047652
  0
LINE
  5
3C7
100
AcDbEntity
  8
21814000
100
AcDbLine
 62
7
  6
CONTINUOUS
 10
162.4101564976
 20
91.2340924752
 11
161.9937756581
 21
90.9323225972
  0
LWPOLYLINE
  5
3C8
100
AcDbEntity
  8
21814000
100
AcDbPolyline
 62
253
  6
CONTINUOUS
 90
3
 70
0
 10
162.4101564976
 20
91.2340924752
 10
162.3918680372
 20
91.2213878452
 10
162.343045663
 20
91.1923665557
  0
LINE
  5
3C9
100
AcDbEntity
  8
26814000
100
AcDbLine
 62
7
  6
CONTINUOUS
 10
146.5583003575
 20
80.0801132278
 11
145.7451275592
 21
79.5512420974
  0
LINE
  5
3CA
100
AcDbEntity
  8
26814000
100
AcDbLine
 62
253
  6
CONTINUOUS
 10
147.5128945121
 20
80.3918358455
 11
148.2200012933
 21
80.7529469253
  0
LINE
  5
3CB
100
AcDbEntity
  8
26814000
100
AcDbLine
 62
7
  6
CONTINUOUS
 10
147.422930544
 20
80.203025769
 11
148.1300373262
 21
80.5641368493
  0
LINE
  5
3CC
100
AcDbEntity
  8
26814000
100
AcDbLine
 62
7
  6
CONTINUOUS
 10
147.422925738
 20
80.2030233141
 11
147.4209181411
 21
80.2020196067
  0
LINE
  5
3CD
100
AcDbEntity
  8
26814000
100
AcDbLine
 62
253
  6
CONTINUOUS
 10
145.7451275592
 20
79.5268465921
 11
147.5128945121
 21
80.3918358455
  0
LINE
  5
3CE
100
AcDbEntity
  8
26814000
100
AcDbLine
 62
7
  6
CONTINUOUS
 10
145.6531466402
 20
79.3370281278
 11
147.4209135945
 21
80.202017382
  0
LWPOLYLINE
  5
3CF
100
AcDbEntity
  8
RACCORDO
100
AcDbPolyline
 62
253
  6
CONTINUOUS
 90
16
 70
0
 10
138.4411058341
 20
78.2301194378
 10
138.3786832483
 20
78.205633199
 10
138.3109745484
 20
78.1844785255
 10
138.2387052128
 20
78.1668820833
 10
138.1626495856
 20
78.1530324129
 10
138.0836225799
 20
78.1430779093
 10
138.0024709462
 20
78.137125232
 10
137.9200641998
 20
78.1352381623
 10
137.8372853042
 20
78.1374369194
 10
137.7550212101
 20
78.1436979443
 10
137.6741533526
 20
78.1539541521
 10
137.5955482064
 20
78.1680956506
 10
137.5200480019
 20
78.1859709176
 10
137.4484617009
 20
78.2073884251
 10
137.3815563292
 20
78.232118691
 10
137.3200487576
 20
78.2598967378
  0
LWPOLYLINE
  5
3D0
100
AcDbEntity
  8
ASSI
100
AcDbPolyline
 62
253
  6
CONTINUOUS
 90
16
 70
0
 10
138.4411058341
 20
78.2301194378
 10
138.3786832483
 20
78.205633199
 10
138.3109745484
 20
78.1844785255
 10
138.2387052128
 20
78.1668820833
 10
138.1626495856
 20
78.1530324129
 10
138.0836225799
 20
78.1430779093
 10
138.0024709462
 20
78.137125232
 10
137.9200641998
 20
78.1352381623
 10
137.8372853042
 20
78.1374369194
 10
137.7550212101
 20
78.1436979443
 10
137.6741533526
 20
78.1539541521
 10
137.5955482064
 20
78.1680956506
 10
137.5200480019
 20
78.1859709176
 10
137.4484617009
 20
78.2073884251
 10
137.3815563292
 20
78.232118691
 10
137.3200487576
 20
78.2598967378
  0
LINE
  5
3D1
100
AcDbEntity
  8
RACCORDO
100
AcDbLine
 62
253
  6
CONTINUOUS
 10
138.8838799595
 20
77.8186132401
 11
142.9209797226
 21
79.1707958463
  0
LINE
  5
3D2
100
AcDbEntity
  8
ASSI
100
AcDbLine
 62
253
  6
CONTINUOUS
 10
138.8838799595
 20
77.8186132401
 11
142.9209797226
 21
79.1707958463
  0
LWPOLYLINE
  5
3D3
100
AcDbEntity
  8
21814000
100
AcDbPolyline
 62
7
  6
CONTINUOUS
 90
6
 70
0
 10
141.4816855014
 20
125.1076142638
 10
141.4913655117
 20
125.1072768498
 10
141.5017767082
 20
125.1058219792
 10
141.5128977479
 20
125.1031447528
 10
141.5247141888
 20
125.0991675763
 10
141.5371833375
 20
125.093811154
  0
LWPOLYLINE
  5
3D4
100
AcDbEntity
  8
21814000
100
AcDbPolyline
 62
7
  6
CONTINUOUS
 90
10
 70
0
 10
142.4703561011
 20
125.248617023
 10
142.3892336428
 20
125.2603373777
 10
142.3069600236
 20
125.2682406289
 10
142.2241669621
 20
125.2723295924
 10
142.1412877913
 20
125.2726278896
 10
142.0585579614
 20
125.2691358942
 10
141.9765072151
 20
125.2618402966
 10
141.8956747835
 20
125.2507359976
 10
141.8162765803
 20
125.2357559448
 10
141.73872575
 20
125.2168190957
  0
LWPOLYLINE
  5
3D5
100
AcDbEntity
  8
26814000
100
AcDbPolyline
 62
7
  6
CONTINUOUS
 90
13
 70
0
 10
152.2481434186
 20
123.7307267621
 10
152.2134926086
 20
123.7371564432
 10
152.1782883856
 20
123.742539596
 10
152.1425685337
 20
123.7469017369
 10
152.1063432168
 20
123.75029566
 10
152.0696754787
 20
123.7527254097
 10
152.0326792688
 20
123.7541366389
 10
151.9953922338
 20
123.7545467738
 10
151.957841252
 20
123.7539828923
 10
151.9201205511
 20
123.7523909041
 10
151.8822811764
 20
123.7497618131
 10
151.8443319901
 20
123.7461398319
 10
151.8063025507
 20
123.7415450424
  0
LWPOLYLINE
  5
3D6
100
AcDbEntity
  8
21814000
100
AcDbPolyline
 62
253
  6
CONTINUOUS
 90
13
 70
0
 10
142.5075846239
 20
125.2116703728
 10
142.437862394
 20
125.2252451175
 10
142.3671205951
 20
125.2355086187
 10
142.2953592272
 20
125.2424608762
 10
142.2219198509
 20
125.2461112508
 10
142.1474609057
 20
125.2464503818
 10
142.0739577099
 20
125.2434501872
 10
142.0014331997
 20
125.2370056255
 10
141.929864439
 20
125.2272217382
 10
141.8611579377
 20
125.2143855677
 10
141.7959491993
 20
125.1985927949
 10
141.7336027204
 20
125.1797477388
 10
141.674118501
 20
125.1578503997
  0
LINE
  5
3D7
100
AcDbEntity
  8
21814000
100
AcDbLine
 62
7
  6
CONTINUOUS
 10
142.5497797932
 20
125.2330826358
 11
142.4703561011
 21
125.248617023
  0
LWPOLYLINE
  5
3D8
100
AcDbEntity
  8
21814000
100
AcDbPolyline
 62
253
  6
CONTINUOUS
 90
4
 70
0
 10
142.1316517659
 20
124.5317596322
 10
142.1737749012
 20
124.5222087494
 10
142.2135673969
 20
124.5093323172
 10
142.251029253
 20
124.4931303355
  0
LWPOLYLINE
  5
3D9
100
AcDbEntity
  8
21814000
100
AcDbPolyline
 62
7
  6
CONTINUOUS
 90
7
 70
0
 10
142.5497729356
 20
125.2330841603
 10
142.5576336183
 20
125.2311681548
 10
142.5667296712
 20
125.2285230117
 10
142.5756930549
 20
125.2254490997
 10
142.584513338
 20
125.2219487486
 10
142.5931707993
 20
125.218027623
 10
142.5958113575
 20
125.2167311966
  0
LINE
  5
3DA
100
AcDbEntity
  8
0
100
AcDbLine
 62
7
  6
CONTINUOUS
 10
155.5002596199
 20
123.1897043847
 11
155.0505149585
 21
123.3114522179
  0
LWPOLYLINE
  5
3DB
100
AcDbEntity
  8
26814000
100
AcDbPolyline
 62
7
  6
CONTINUOUS
 90
10
 70
0
 10
152.4944585182
 20
123.6433492902
 10
152.471478839
 20
123.6545407224
 10
152.4417027947
 20
123.6681171642
 10
152.4124292756
 20
123.6805027809
 10
152.3836392676
 20
123.6917045774
 10
152.355351785
 20
123.701715549
 10
152.3276501286
 20
123.7106152934
 10
152.3005620656
 20
123.7184303434
 10
152.2740598289
 20
123.7251341663
 10
152.2481434186
 20
123.7307267621
  0
LINE
  5
3DC
100
AcDbEntity
  8
26814000
100
AcDbLine
 62
7
  6
CONTINUOUS
 10
146.7361258582
 20
125.0870626991
 11
143.9255762113
 21
126.4923375226
  0
LINE
  5
3DD
100
AcDbEntity
  8
21814000
100
AcDbLine
 62
7
  6
CONTINUOUS
 10
153.5782434679
 20
122.1386489447
 11
152.7904548202
 21
122.5325432685
  0
LINE
  5
3DE
100
AcDbEntity
  8
26814000
100
AcDbLine
 62
7
  6
CONTINUOUS
 10
145.2855081514
 20
126.56608571
 11
147.4952490396
 21
125.4612152659
  0
LINE
  5
3DF
100
AcDbEntity
  8
26814000
100
AcDbLine
 62
7
  6
CONTINUOUS
 10
148.2408338627
 20
125.0884228543
 11
148.3866472727
 21
125.0155161493
  0
LINE
  5
3E0
100
AcDbEntity
  8
26814000
100
AcDbLine
 62
7
  6
CONTINUOUS
 10
142.4180504057
 20
128.2630582626
 11
142.5985023829
 21
128.172832274
  0
LINE
  5
3E1
100
AcDbEntity
  8
26814000
100
AcDbLine
 62
7
  6
CONTINUOUS
 10
147.9725139199
 20
125.4858265055
 11
148.152965897
 21
125.3956005169
  0
LINE
  5
3E2
100
AcDbEntity
  8
26814000
100
AcDbLine
 62
253
  6
CONTINUOUS
 10
141.6054820617
 20
128.8419552869
 11
144.5845719626
 21
127.3524103364
  0
LINE
  5
3E3
100
AcDbEntity
  8
26814000
100
AcDbLine
 62
253
  6
CONTINUOUS
 10
148.8272126497
 20
125.2310899929
 11
151.8063025507
 21
123.7415450424
  0
LINE
  5
3E4
100
AcDbEntity
  8
26814000
100
AcDbLine
 62
7
  6
CONTINUOUS
 10
149.2682556528
 20
125.2564394595
 11
152.494745545
 21
123.6431945134
  0
LINE
  5
3E5
100
AcDbEntity
  8
0
100
AcDbLine
 62
7
  6
CONTINUOUS
 10
154.5555402117
 20
123.0639648445
 11
154.7694326656
 21
122.8664315768
  0
LWPOLYLINE
  5
3E6
100
AcDbEntity
  8
26814000
100
AcDbPolyline
 62
7
  6
CONTINUOUS
 90
17
 70
0
 10
152.9951303071
 20
123.2494668785
 10
152.9614930133
 20
123.285529029
 10
152.9278094252
 20
123.3201676886
 10
152.8940795428
 20
123.3533828574
 10
152.8602346411
 20
123.3851901614
 10
152.8263434451
 20
123.4155739745
 10
152.79261213
 20
123.4444874186
 10
152.7590603346
 20
123.4719065939
 10
152.7256684202
 20
123.4978554003
 10
152.6925836461
 20
123.5223586588
 10
152.6598213327
 20
123.5454023656
 10
152.6273661596
 20
123.5670005247
 10
152.595319425
 20
123.5872199687
 10
152.5636922855
 20
123.6060538827
 10
152.5324735845
 20
123.6235090817
 10
152.5017311501
 20
123.6396728432
 10
152.4944585182
 20
123.6433492902
  0
LINE
  5
3E7
100
AcDbEntity
  8
21814000
100
AcDbLine
 62
7
  6
CONTINUOUS
 10
157.4033815679
 20
126.6345709039
 11
157.4124970266
 21
126.6106771028
  0
LINE
  5
3E8
100
AcDbEntity
  8
26814000
100
AcDbLine
 62
7
  6
CONTINUOUS
 10
147.1239857825
 20
78.5511189696
 11
147.6522529542
 21
78.8221300282
  0
LINE
  5
3E9
100
AcDbEntity
  8
26814000
100
AcDbLine
 62
7
  6
CONTINUOUS
 10
145.5227049916
 20
77.7710843699
 11
147.1239857825
 21
78.5511189696
  0
LINE
  5
3EA
100
AcDbEntity
  8
RACCORDO
100
AcDbLine
 62
7
  6
CONTINUOUS
 10
142.623142419
 20
78.6999550337
 11
138.5817037851
 21
77.3463195497
  0
LINE
  5
3EB
100
AcDbEntity
  8
ASSI
100
AcDbLine
 62
7
  6
CONTINUOUS
 10
142.623142419
 20
78.6999550337
 11
138.5804045374
 21
77.3458893141
  0
LINE
  5
3EC
100
AcDbEntity
  8
26814000
100
AcDbLine
 62
7
  6
CONTINUOUS
 10
143.9255762113
 20
126.4923375226
 11
145.2855081514
 21
126.56608571
  0
LWPOLYLINE
  5
3ED
100
AcDbEntity
  8
RACCORDO
100
AcDbPolyline
 62
7
  6
CONTINUOUS
 90
9
 70
0
 10
156.8933224186
 20
123.8565516145
 10
156.887205678
 20
123.8581511122
 10
156.8774354643
 20
123.859683926
 10
156.8671092689
 20
123.8600993704
 10
156.8563220717
 20
123.8593975979
 10
156.8453588128
 20
123.8575790666
 10
156.8343144721
 20
123.8546439291
 10
156.8230940696
 20
123.8505920327
 10
156.8116976053
 20
123.8454233774
  0
LWPOLYLINE
  5
3EE
100
AcDbEntity
  8
RACCORDO
100
AcDbPolyline
 62
7
  6
CONTINUOUS
 90
28
 70
0
 10
156.8933122824
 20
123.856527662
 10
156.7845969358
 20
123.8878135078
 10
156.6697418928
 20
123.9171671848
 10
156.5524804689
 20
123.943494255
 10
156.4331073041
 20
123.9667563467
 10
156.3118869324
 20
123.9869268995
 10
156.1890575629
 20
124.0039861748
 10
156.0649087656
 20
124.0179100164
 10
155.9397253025
 20
124.0286806854
 10
155.813744785
 20
124.0362880851
 10
155.6872583988
 20
124.0407214638
 10
155.5605556759
 20
124.0419760185
 10
155.4338739305
 20
124.0400512454
 10
155.3075026607
 20
124.0349499104
 10
155.1817330701
 20
124.0266806983
 10
155.0568034707
 20
124.0152528228
 10
154.9330045961
 20
124.0006829906
 10
154.8106198438
 20
123.982992969
 10
154.6898714076
 20
123.9621987936
 10
154.5710364865
 20
123.9383271936
 10
154.454400663
 20
123.9114121418
 10
154.34018909
 20
123.8814773745
 10
154.2286739118
 20
123.8485602706
 10
154.1201277154
 20
123.8127036358
 10
154.0147608238
 20
123.7739320182
 10
153.9128140414
 20
123.7322792099
 10
153.814567904
 20
123.6877984353
 10
153.7202838428
 20
123.6405410459
  0
LWPOLYLINE
  5
3EF
100
AcDbEntity
  8
RACCORDO
100
AcDbPolyline
 62
7
  6
CONTINUOUS
 90
3
 70
0
 10
156.9053631004
 20
123.8517338338
 10
156.8965148901
 20
123.8555010814
 10
156.8933224186
 20
123.8565516145
  0
LWPOLYLINE
  5
3F0
100
AcDbEntity
  8
26814000
100
AcDbPolyline
 62
7
  6
CONTINUOUS
 90
18
 70
0
 10
145.0256246797
 20
127.3777439833
 10
145.0060625954
 20
127.3868337164
 10
144.9831668152
 20
127.395819131
 10
144.9596575289
 20
127.4033213638
 10
144.9355162068
 20
127.4093555337
 10
144.9108264535
 20
127.4139013181
 10
144.8855650272
 20
127.4169553015
 10
144.8597551697
 20
127.4185208994
 10
144.8335502109
 20
127.418588036
 10
144.8069662483
 20
127.4171492601
 10
144.7799871842
 20
127.4142120227
 10
144.7527180556
 20
127.4097886015
 10
144.725143876
 20
127.4038702158
 10
144.6972796317
 20
127.3964656463
 10
144.6692753186
 20
127.3876135117
 10
144.6411809354
 20
127.377326685
 10
144.6129464834
 20
127.3655922932
 10
144.5845719626
 20
127.3524103364
  0
LINE
  5
3F1
100
AcDbEntity
  8
0
100
AcDbLine
 62
7
  6
CONTINUOUS
 10
154.5555402117
 20
123.0639648445
 11
153.8485712716
 21
123.4174493145
  0
LINE
  5
3F2
100
AcDbEntity
  8
0
100
AcDbLine
 62
7
  6
CONTINUOUS
 10
155.0505149585
 20
123.3114522179
 11
154.3435460184
 21
123.6649366879
  0
LINE
  5
3F3
100
AcDbEntity
  8
21814000
100
AcDbLine
 62
7
  6
CONTINUOUS
 10
154.083051246
 20
124.1475823291
 11
153.6444407735
 21
124.3668875654
  0
LINE
  5
3F4
100
AcDbEntity
  8
RACCORDO
100
AcDbLine
 62
7
  6
CONTINUOUS
 10
157.7538912378
 20
123.4274697651
 11
157.866666123
 21
123.370977439
  0
LWPOLYLINE
  5
3F5
100
AcDbEntity
  8
RACCORDO
100
AcDbPolyline
 62
7
  6
CONTINUOUS
 90
10
 70
0
 10
157.7159471705
 20
123.4401374201
 10
157.6184701168
 20
123.4901928518
 10
157.522856915
 20
123.5391687274
 10
157.429107565
 20
123.587065047
 10
157.3372364837
 20
123.6338832348
 10
157.2472292543
 20
123.6796218665
 10
157.1590426263
 20
123.7242766696
 10
157.0726621829
 20
123.7678462197
 10
156.9881023409
 20
123.8103319411
 10
156.9053631004
 20
123.8517338338
  0
LINE
  5
3F6
100
AcDbEntity
  8
RACCORDO
100
AcDbLine
 62
7
  6
CONTINUOUS
 10
157.7237055992
 20
123.435550948
 11
157.7159471705
 21
123.4401374201
  0
LWPOLYLINE
  5
3F7
100
AcDbEntity
  8
RACCORDO
100
AcDbPolyline
 62
253
  6
CONTINUOUS
 90
5
 70
0
 10
157.7538912378
 20
123.4274697651
 10
157.7784142281
 20
123.4069653867
 10
157.8027799898
 20
123.3856871223
 10
157.82691674
 20
123.363624845
 10
157.8350655674
 20
123.3558108754
  0
LWPOLYLINE
  5
3F8
100
AcDbEntity
  8
RACCORDO
100
AcDbPolyline
 62
253
  6
CONTINUOUS
 90
4
 70
0
 10
157.6602546386
 20
123.4211737567
 10
157.683115068
 20
123.4015950232
 10
157.7056926063
 20
123.3812419767
 10
157.7279872535
 20
123.3601146171
  0
LINE
  5
3F9
100
AcDbEntity
  8
RACCORDO
100
AcDbLine
 62
253
  6
CONTINUOUS
 10
157.7279872535
 20
123.3601146171
 11
157.7500327519
 21
123.3382847301
  0
LINE
  5
3FA
100
AcDbEntity
  8
RACCORDO
100
AcDbLine
 62
253
  6
CONTINUOUS
 10
157.7500327519
 20
123.3382847301
 11
157.765365791
 21
123.3223587393
  0
LWPOLYLINE
  5
3FB
100
AcDbEntity
  8
21814000
100
AcDbPolyline
 62
253
  6
CONTINUOUS
 90
35
 70
0
 10
162.9346033266
 20
120.2311084695
 10
162.9462008529
 20
120.194233549
 10
162.9661383604
 20
120.1213196775
 10
162.9824523574
 20
120.0503479271
 10
162.9960481177
 20
119.9812815921
 10
163.0071058746
 20
119.9143027228
 10
163.0156332496
 20
119.8493792214
 10
163.022232931
 20
119.7861276582
 10
163.0270453449
 20
119.7245689699
 10
163.0300648844
 20
119.6647741642
 10
163.0316370225
 20
119.6064154593
 10
163.0318532014
 20
119.5494447299
 10
163.0307222543
 20
119.4939683366
 10
163.0284444263
 20
119.4398802347
 10
163.0250832807
 20
119.3871657212
 10
163.0206607046
 20
119.3358795968
 10
163.0153057876
 20
119.2860156603
 10
163.0090770481
 20
119.2375994167
 10
163.0019932799
 20
119.1906334619
 10
162.9941191963
 20
119.1450744168
 10
162.9855125121
 20
119.1009377908
 10
162.9761834765
 20
119.0582266806
 10
162.966121558
 20
119.0168766524
 10
162.9553719663
 20
118.9768490955
 10
162.9439484115
 20
118.9381940595
 10
162.9317924422
 20
118.9009783834
 10
162.9189399987
 20
118.8651513331
 10
162.905410111
 20
118.8307706472
 10
162.8911229185
 20
118.7980650844
 10
162.8761114606
 20
118.7669974396
 10
162.8603953623
 20
118.7376097949
 10
162.843880278
 20
118.7102499246
 10
162.826552
 20
118.6850356613
 10
162.808471165
 20
118.6618546855
 10
162.7896553361
 20
118.6407101523
  0
LINE
  5
3FC
100
AcDbEntity
  8
21814000
100
AcDbLine
 62
7
  6
CONTINUOUS
 10
158.312964226
 20
123.9078459545
 11
157.5864668373
 21
124.2710946489
  0
LINE
  5
3FD
100
AcDbEntity
  8
21814000
100
AcDbLine
 62
7
  6
CONTINUOUS
 10
158.1301345657
 20
124.0149206373
 11
157.8260151817
 21
124.1669803293
  0
LINE
  5
3FE
100
AcDbEntity
  8
21814000
100
AcDbLine
 62
7
  6
CONTINUOUS
 10
160.5247345994
 20
124.6467070491
 11
157.4124970266
 21
126.2028258355
  0
LWPOLYLINE
  5
3FF
100
AcDbEntity
  8
21814000
100
AcDbPolyline
 62
7
  6
CONTINUOUS
 90
10
 70
0
 10
158.1301345657
 20
124.0149206373
 10
158.0987191112
 20
124.0329734496
 10
158.0667021339
 20
124.050740752
 10
158.0340836338
 20
124.0682225446
 10
158.0008534431
 20
124.0854239112
 10
157.9670217295
 20
124.102339768
 10
157.9326189962
 20
124.1189548634
 10
157.897655411
 20
124.1352641134
 10
157.8621208062
 20
124.1512726021
 10
157.8260151817
 20
124.1669803293
  0
LWPOLYLINE
  5
400
100
AcDbEntity
  8
21814000
100
AcDbPolyline
 62
7
  6
CONTINUOUS
 90
35
 70
0
 10
162.9346033266
 20
122.3131965413
 10
163.0513768553
 20
122.236094435
 10
163.1911735288
 20
122.1315807888
 10
163.3279113846
 20
122.0170521917
 10
163.4607768281
 20
121.8933356873
 10
163.5891622813
 20
121.7611889122
 10
163.7127438815
 20
121.6211215062
 10
163.8311240428
 20
121.4737160025
 10
163.9438784259
 20
121.319605113
 10
164.0505539919
 20
121.1594983289
 10
164.150711004
 20
120.9941425718
 10
164.2439269478
 20
120.82432481
 10
164.3298800704
 20
120.6507067794
 10
164.4082954521
 20
120.4738688207
 10
164.4788621271
 20
120.294478257
 10
164.5412367094
 20
120.1133436969
 10
164.5951214455
 20
119.9312484019
 10
164.6402581686
 20
119.7489438189
 10
164.6764170713
 20
119.5671669818
 10
164.7033928153
 20
119.386643522
 10
164.7210126206
 20
119.2079410697
 10
164.7290855217
 20
119.031944554
 10
164.72748546
 20
118.8597643132
 10
164.7161380878
 20
118.6918483378
 10
164.6950034856
 20
118.5290714015
 10
164.6642741315
 20
118.3729777611
 10
164.6241696392
 20
118.2242357964
 10
164.574843291
 20
118.0831428659
 10
164.5166481713
 20
117.950476776
 10
164.4498397876
 20
117.8265794252
 10
164.374771074
 20
117.711920327
 10
164.2921813685
 20
117.607322689
 10
164.2027421975
 20
117.5131953496
 10
164.1069178891
 20
117.4296147896
 10
164.0053264197
 20
117.3567658642
  0
LWPOLYLINE
  5
401
100
AcDbEntity
  8
21814000
100
AcDbPolyline
 62
253
  6
CONTINUOUS
 90
34
 70
0
 10
162.9346033266
 20
122.2345860203
 10
163.0126984173
 20
122.1790742168
 10
163.1498392873
 20
122.0696186076
 10
163.2843817789
 20
121.9500931341
 10
163.4156983577
 20
121.8210552853
 10
163.5431765163
 20
121.683106937
 10
163.6662216531
 20
121.5368915264
 10
163.7842598485
 20
121.3830910477
 10
163.896740543
 20
121.2224228656
 10
164.0031390977
 20
121.0556363782
 10
164.1029592407
 20
120.8835095227
 10
164.195735382
 20
120.7068451479
 10
164.2810347873
 20
120.526467267
 10
164.3584595961
 20
120.3432172132
 10
164.4276486779
 20
120.1579497153
 10
164.4882793156
 20
119.9715289122
 10
164.5400687111
 20
119.7848243224
 10
164.5827753041
 20
119.5987067882
 10
164.6161998991
 20
119.4140444139
 10
164.6401865946
 20
119.2316985161
 10
164.6546235099
 20
119.0525196071
 10
164.6594433072
 20
118.8773434271
 10
164.6546235056
 20
118.7069870467
 10
164.640186586
 20
118.5422450555
 10
164.6161998863
 20
118.3838858561
 10
164.5827752869
 20
118.2326480799
 10
164.5400686897
 20
118.0892371422
 10
164.48827929
 20
117.9543219515
 10
164.4276486483
 20
117.8285317902
 10
164.3584595625
 20
117.7124533784
 10
164.2810347498
 20
117.606628138
 10
164.1957353407
 20
117.5115496671
 10
164.1029591957
 20
117.4276614387
 10
164.0053264197
 20
117.3567658642
  0
LINE
  5
402
100
AcDbEntity
  8
21814000
100
AcDbLine
 62
253
  6
CONTINUOUS
 10
161.923502452
 20
124.5285251557
 11
162.343045663
 21
123.8049201542
  0
LINE
  5
403
100
AcDbEntity
  8
21814000
100
AcDbLine
 62
7
  6
CONTINUOUS
 10
162.3137668164
 20
124.5229153419
 11
162.6606045869
 21
123.924708676
  0
LWPOLYLINE
  5
404
100
AcDbEntity
  8
21814000
100
AcDbPolyline
 62
253
  6
CONTINUOUS
 90
13
 70
0
 10
162.343045663
 20
123.8049201542
 10
162.3948149124
 20
123.7113396368
 10
162.4428582629
 20
123.6156201822
 10
162.4869699853
 20
123.5181716758
 10
162.5269611865
 20
123.4194114066
 10
162.5626606178
 20
123.3197622817
 10
162.5939154081
 20
123.2196510149
 10
162.6205917197
 20
123.1195062982
 10
162.6425753206
 20
123.0197569666
 10
162.6597720734
 20
122.9208301632
 10
162.6721083392
 20
122.823149508
 10
162.6795312924
 20
122.7271332841
 10
162.6820091469
 20
122.6331926478
  0
LINE
  5
405
100
AcDbEntity
  8
21814000
100
AcDbLine
 62
253
  6
CONTINUOUS
 10
161.923502452
 20
124.5285251557
 11
161.117830516
 21
124.9313611237
  0
LINE
  5
406
100
AcDbEntity
  8
21814000
100
AcDbLine
 62
253
  6
CONTINUOUS
 10
156.4161674369
 20
127.2821926633
 11
155.4450086032
 21
127.7677720801
  0
LINE
  5
407
100
AcDbEntity
  8
21814000
100
AcDbLine
 62
7
  6
CONTINUOUS
 10
162.2537778296
 20
124.5792072598
 11
161.4280189295
 21
124.9920867099
  0
LINE
  5
408
100
AcDbEntity
  8
21814000
100
AcDbLine
 62
7
  6
CONTINUOUS
 10
156.8887502084
 20
127.2617210704
 11
155.8363941957
 21
127.7878990768
  0
LWPOLYLINE
  5
409
100
AcDbEntity
  8
21814000
100
AcDbPolyline
 62
7
  6
CONTINUOUS
 90
4
 70
0
 10
162.2557033815
 20
124.5782442865
 10
162.2693468576
 20
124.5704295447
 10
162.2928825541
 20
124.5510572662
 10
162.3130606969
 20
124.5241794347
  0
LWPOLYLINE
  5
40A
100
AcDbEntity
  8
21814000
100
AcDbPolyline
 62
253
  6
CONTINUOUS
 90
12
 70
0
 10
162.6606045869
 20
123.924708676
 10
162.6592454502
 20
123.92630579
 10
162.6513265321
 20
123.9288273931
 10
162.6376819397
 20
123.9279585839
 10
162.618413223
 20
123.9237058286
 10
162.59366379
 20
123.9161007783
 10
162.563617839
 20
123.9052000338
 10
162.5284989876
 20
123.8910847241
 10
162.4885686085
 20
123.873859903
 10
162.4441238846
 20
123.8536537667
 10
162.3954955967
 20
123.8306166997
 10
162.343045662
 20
123.804920156
  0
ELLIPSE
  5
40B
100
AcDbEntity
  8
RACCORDO
100
AcDbEllipse
 62
7
  6
CONTINUOUS
 10
131.1539866291
 20
124.0518826433
 30
0.0
 11
-0.2786191524
 21
0.7501668109
 31
0.0
 40
0.6610921126
 41
-0.6157157441
 42
0.0213201202
  0
ELLIPSE
  5
40C
100
AcDbEntity
  8
RACCORDO
100
AcDbEllipse
 62
7
  6
CONTINUOUS
 10
145.4373712695
 20
116.9101903231
 30
0.0
 11
-0.2783604326
 21
0.7500177284
 31
0.0
 40
0.6614719787
 41
-2.1862531203
 42
-0.61576138
  0
ELLIPSE
  5
40D
100
AcDbEntity
  8
RACCORDO
100
AcDbEllipse
 62
7
  6
CONTINUOUS
 10
142.3552261409
 20
79.4539005498
 30
0.0
 11
-0.2786191524
 21
0.7501668109
 31
0.0
 40
0.6610921126
 41
-3.1630638698
 42
-2.1868166574
  0
ELLIPSE
  5
40E
100
AcDbEntity
  8
ASSI
100
AcDbEllipse
 62
7
  6
CONTINUOUS
 10
131.1539866291
 20
124.0518826433
 30
0.0
 11
-0.2786191524
 21
0.7501668109
 31
0.0
 40
0.6610921126
 41
-0.6157157441
 42
0.0213201202
  0
ELLIPSE
  5
40F
100
AcDbEntity
  8
ASSI
100
AcDbEllipse
 62
7
  6
CONTINUOUS
 10
145.4373712695
 20
116.9101903231
 30
0.0
 11
-0.2783604326
 21
0.7500177284
 31
0.0
 40
0.6614719787
 41
-2.1862531203
 42
-0.61576138
  0
ELLIPSE
  5
410
100
AcDbEntity
  8
ASSI
100
AcDbEllipse
 62
7
  6
CONTINUOUS
 10
142.3552261409
 20
79.4539005498
 30
0.0
 11
-0.2786191524
 21
0.7501668109
 31
0.0
 40
0.6610921126
 41
-3.1630638698
 42
-2.1868166574
  0
ELLIPSE
  5
411
100
AcDbEntity
  8
21814000
100
AcDbEllipse
 62
7
  6
CONTINUOUS
 10
155.3380409643
 20
124.4656021561
 30
0.0
 11
3.3311333813
 21
-0.0467042088
 31
0.0
 40
0.4892378494
 41
3.8528301344
 42
5.5059722822
  0
ELLIPSE
  5
412
100
AcDbEntity
  8
21814000
100
AcDbEllipse
 62
7
  6
CONTINUOUS
 10
156.0335312254
 20
123.1723423394
 30
0.0
 11
2.7583300471
 21
-0.038763314
 31
0.0
 40
0.4892375088
 41
0.4291477653
 42
0.6564870977
  0
ELLIPSE
  5
413
100
AcDbEntity
  8
21814000
100
AcDbEllipse
 62
7
  6
CONTINUOUS
 10
155.3617797833
 20
123.2838400234
 30
0.0
 11
2.7499350056
 21
-0.0386453369
 31
0.0
 40
0.4892375088
 41
8.654981679
 42
9.2557277435
  0
ELLIPSE
  5
414
100
AcDbEntity
  8
21814000
100
AcDbEllipse
 62
7
  6
CONTINUOUS
 10
156.0335312254
 20
123.1723423394
 30
0.0
 11
2.7583300471
 21
-0.038763314
 31
0.0
 40
0.4892375088
 41
0.9280596999
 42
2.3630697256
  0
ELLIPSE
  5
415
100
AcDbEntity
  8
21814000
100
AcDbEllipse
 62
7
  6
CONTINUOUS
 10
160.7392454565
 20
124.3302428565
 30
0.0
 11
0.716172246
 21
0.6416715914
 31
0.0
 40
0.2882345029
 41
0.1142323894
 42
0.7807533904
  0
ELLIPSE
  5
416
100
AcDbEntity
  8
21814000
100
AcDbEllipse
 62
7
  6
CONTINUOUS
 10
156.0335312254
 20
125.1170530507
 30
0.0
 11
2.7583515655
 21
-1.4175703156
 31
0.0
 40
0.0109499087
 41
-0.9155571536
 42
-0.85781018
  0
ELLIPSE
  5
417
100
AcDbEntity
  8
21814000
100
AcDbEllipse
 62
7
  6
CONTINUOUS
 10
156.0335312254
 20
125.1170530507
 30
0.0
 11
2.7583515655
 21
-1.4175703156
 31
0.0
 40
0.0109499087
 41
-0.7017315251
 42
-0.6439845515
  0
ELLIPSE
  5
418
100
AcDbEntity
  8
21814000
100
AcDbEllipse
 62
7
  6
CONTINUOUS
 10
156.7725392095
 20
126.31359598
 30
0.0
 11
-0.2796057293
 21
0.9974617846
 31
0.0
 40
0.6760995073
 41
4.8467711056
 42
6.4001141399
  0
ELLIPSE
  5
419
100
AcDbEntity
  8
21814000
100
AcDbEllipse
 62
7
  6
CONTINUOUS
 10
155.3380409643
 20
124.4656021561
 30
0.0
 11
3.3311333813
 21
-0.0467042088
 31
0.0
 40
0.4892378494
 41
2.3616770883
 42
3.7058786528
  0
ELLIPSE
  5
41A
100
AcDbEntity
  8
21814000
100
AcDbEllipse
 62
7
  6
CONTINUOUS
 10
156.0335312254
 20
123.6053550413
 30
0.0
 11
2.7583300471
 21
-0.038763314
 31
0.0
 40
0.4892375088
 41
0.1708839954
 42
2.3630697256
  0
ELLIPSE
  5
41B
100
AcDbEntity
  8
26814000
100
AcDbEllipse
 62
7
  6
CONTINUOUS
 10
143.9159060386
 20
78.7920149727
 30
0.0
 11
0.110769438
 21
0.2241226716
 31
0.0
 40
0.6088015717
 41
-4.0304836828
 42
-3.1443955108
  0
ELLIPSE
  5
41C
100
AcDbEntity
  8
26814000
100
AcDbEllipse
 62
7
  6
CONTINUOUS
 10
130.5515878742
 20
127.0271495881
 30
0.0
 11
0.110769438
 21
0.2241226716
 31
0.0
 40
0.6088015717
 41
-4.0304836828
 42
-3.1443650652
  0
ELLIPSE
  5
41D
100
AcDbEntity
  8
26814000
100
AcDbEllipse
 62
7
  6
CONTINUOUS
 10
143.9159060386
 20
120.3449905059
 30
0.0
 11
0.110769438
 21
0.2241226716
 31
0.0
 40
0.6088015717
 41
-4.0304836828
 42
-3.1443650652
  0
ELLIPSE
  5
41E
100
AcDbEntity
  8
26814000
100
AcDbEllipse
 62
7
  6
CONTINUOUS
 10
147.9725139199
 20
119.0532724567
 30
0.0
 11
-0.1565168911
 21
0.3130623908
 31
0.0
 40
0.6123677712
 41
-2.2554744912
 42
-0.6846781644
  0
ELLIPSE
  5
41F
100
AcDbEntity
  8
26814000
100
AcDbEllipse
 62
7
  6
CONTINUOUS
 10
147.9725139199
 20
80.876690612
 30
0.0
 11
-0.1565168911
 21
0.3130623908
 31
0.0
 40
0.6123677712
 41
-3.1363904945
 42
-2.2554744912
  0
ELLIPSE
  5
420
100
AcDbEntity
  8
26814000
100
AcDbEllipse
 62
7
  6
CONTINUOUS
 10
142.2059183714
 20
128.1585037619
 30
0.0
 11
0.2999991737
 21
-0.0014183462
 31
0.0
 40
0.4964289597
 41
0.7877451926
 42
2.3527237553
  0
ELLIPSE
  5
421
100
AcDbEntity
  8
26814000
100
AcDbEllipse
 62
7
  6
CONTINUOUS
 10
147.7603818855
 20
125.3812720048
 30
0.0
 11
0.2999991737
 21
-0.0014183462
 31
0.0
 40
0.4964289597
 41
0.7877451926
 42
2.3585415194
  0
ELLIPSE
  5
422
100
AcDbEntity
  8
26814000
100
AcDbEllipse
 62
7
  6
CONTINUOUS
 10
147.299734021
 20
119.6708434676
 30
0.0
 11
0.110769438
 21
0.2241226716
 31
0.0
 40
0.6088015717
 41
1.2055040732
 42
2.2526937431
  0
ELLIPSE
  5
423
100
AcDbEntity
  8
26814000
100
AcDbEllipse
 62
7
  6
CONTINUOUS
 10
133.9354158566
 20
126.3530025498
 30
0.0
 11
0.110769438
 21
0.2241226716
 31
0.0
 40
0.6088015717
 41
1.2055040732
 42
2.2526937431
  0
ELLIPSE
  5
424
100
AcDbEntity
  8
26814000
100
AcDbEllipse
 62
7
  6
CONTINUOUS
 10
147.6512304982
 20
120.5986486197
 30
0.0
 11
0.110769438
 21
0.2241226716
 31
0.0
 40
0.6088015717
 41
-1.9360885804
 42
-0.8888910292
  0
ELLIPSE
  5
425
100
AcDbEntity
  8
26814000
100
AcDbEllipse
 62
7
  6
CONTINUOUS
 10
146.0310556418
 20
121.6696650242
 30
0.0
 11
0.1128509832
 21
0.2230818409
 31
0.0
 40
0.6159267166
 41
0.0028979148
 42
0.6817883054
  0
ELLIPSE
  5
426
100
AcDbEntity
  8
26814000
100
AcDbEllipse
 62
7
  6
CONTINUOUS
 10
143.9159060386
 20
120.5983618996
 30
0.0
 11
0.110769438
 21
0.2241226716
 31
0.0
 40
0.6088015717
 41
0.6877230618
 42
2.2527016244
  0
ELLIPSE
  5
427
100
AcDbEntity
  8
26814000
100
AcDbEllipse
 62
7
  6
CONTINUOUS
 10
134.2869123337
 20
127.2808077019
 30
0.0
 11
0.110769438
 21
0.2241226716
 31
0.0
 40
0.6088015717
 41
-1.9360885804
 42
-0.8888910292
  0
ELLIPSE
  5
428
100
AcDbEntity
  8
26814000
100
AcDbEllipse
 62
7
  6
CONTINUOUS
 10
132.6667374774
 20
128.3518241064
 30
0.0
 11
0.1128509832
 21
0.2230818409
 31
0.0
 40
0.6159267166
 41
0.0028979148
 42
0.6817883054
  0
ELLIPSE
  5
429
100
AcDbEntity
  8
26814000
100
AcDbEllipse
 62
7
  6
CONTINUOUS
 10
130.5515878742
 20
127.2805209818
 30
0.0
 11
0.110769438
 21
0.2241226716
 31
0.0
 40
0.6088015717
 41
0.6877230618
 42
2.2527016244
  0
ELLIPSE
  5
42A
100
AcDbEntity
  8
26814000
100
AcDbEllipse
 62
7
  6
CONTINUOUS
 10
147.6512304982
 20
79.0381155039
 30
0.0
 11
0.110769438
 21
0.2241226716
 31
0.0
 40
0.6088015717
 41
-2.4538695918
 42
-0.8888910292
  0
ELLIPSE
  5
42B
100
AcDbEntity
  8
26814000
100
AcDbEllipse
 62
7
  6
CONTINUOUS
 10
143.9159060386
 20
79.0453863665
 30
0.0
 11
0.110769438
 21
0.2241226716
 31
0.0
 40
0.6088015717
 41
1.2055040732
 42
2.2527016244
  0
ELLIPSE
  5
42C
100
AcDbEntity
  8
26814000
100
AcDbEllipse
 62
7
  6
CONTINUOUS
 10
147.6512304982
 20
79.2990444803
 30
0.0
 11
0.110769438
 21
0.2241226716
 31
0.0
 40
0.6088015717
 41
5.394294278
 42
6.4414918292
  0
ELLIPSE
  5
42D
100
AcDbEntity
  8
26814000
100
AcDbEllipse
 62
7
  6
CONTINUOUS
 10
134.2869123337
 20
127.5417366782
 30
0.0
 11
0.110769438
 21
0.2241226716
 31
0.0
 40
0.6088015717
 41
5.394294278
 42
6.9592728406
  0
ELLIPSE
  5
42E
100
AcDbEntity
  8
26814000
100
AcDbEllipse
 62
7
  6
CONTINUOUS
 10
147.6512304982
 20
120.859577596
 30
0.0
 11
0.110769438
 21
0.2241226716
 31
0.0
 40
0.6088015717
 41
5.394294278
 42
6.9592728406
  0
ELLIPSE
  5
42F
100
AcDbEntity
  8
26814000
100
AcDbEllipse
 62
7
  6
CONTINUOUS
 10
142.3863703485
 20
126.8364435919
 30
0.0
 11
0.2999981629
 21
-0.0021225547
 31
0.0
 40
0.4946372042
 41
-0.7818985079
 42
0.0034997008
  0
ELLIPSE
  5
430
100
AcDbEntity
  8
26814000
100
AcDbEllipse
 62
7
  6
CONTINUOUS
 10
147.9408338627
 20
124.0592118349
 30
0.0
 11
0.2999981629
 21
-0.0021225547
 31
0.0
 40
0.4946372042
 41
-0.7760807437
 42
0.0035109161
  0
ELLIPSE
  5
431
100
AcDbEntity
  8
26814000
100
AcDbEllipse
 62
7
  6
CONTINUOUS
 10
136.237424621
 20
125.238322394
 30
0.0
 11
0.2999991335
 21
0.0014318851
 31
0.0
 40
0.5035541159
 41
8.6427941204
 42
10.207772683
  0
ELLIPSE
  5
432
100
AcDbEntity
  8
26814000
100
AcDbEllipse
 62
7
  6
CONTINUOUS
 10
130.2241337121
 20
125.4412522927
 30
0.0
 11
-0.1565168911
 21
0.3130623908
 31
0.0
 40
0.6123677712
 41
-0.6846781644
 42
0.8861181623
  0
ELLIPSE
  5
433
100
AcDbEntity
  8
26814000
100
AcDbEllipse
 62
7
  6
CONTINUOUS
 10
145.4976401857
 20
117.8044990559
 30
0.0
 11
-0.1565168911
 21
0.3130623908
 31
0.0
 40
0.6123677712
 41
-2.2554744912
 42
-0.6846781644
  0
ELLIPSE
  5
434
100
AcDbEntity
  8
26814000
100
AcDbEllipse
 62
7
  6
CONTINUOUS
 10
144.1111055912
 20
94.7613958299
 30
0.0
 11
-0.1085782352
 21
0.1690527654
 31
0.0
 40
0.5459771812
 41
-3.2040641194
 42
-2.3138348679
  0
ELLIPSE
  5
435
100
AcDbEntity
  8
26814000
100
AcDbEllipse
 62
7
  6
CONTINUOUS
 10
142.0299336891
 20
122.34206786
 30
0.0
 11
0.2999991335
 21
0.0014318851
 31
0.0
 40
0.5035541159
 41
-2.3585979313
 42
-0.7936193687
  0
ELLIPSE
  5
436
100
AcDbEntity
  8
26814000
100
AcDbEllipse
 62
7
  6
CONTINUOUS
 10
142.0299336891
 20
121.1278687841
 30
0.0
 11
0.2999980272
 21
0.0021530184
 31
0.0
 40
0.5053247124
 41
-2.3598210761
 42
-0.7948425135
  0
ELLIPSE
  5
437
100
AcDbEntity
  8
26814000
100
AcDbEllipse
 62
7
  6
CONTINUOUS
 10
136.237424621
 20
124.0241233181
 30
0.0
 11
0.2999980272
 21
0.0021530184
 31
0.0
 40
0.5053247124
 41
3.1379773283
 42
3.9233642311
  0
ELLIPSE
  5
438
100
AcDbEntity
  8
26814000
100
AcDbEllipse
 62
7
  6
CONTINUOUS
 10
147.9408338627
 20
125.2910460163
 30
0.0
 11
0.2999991737
 21
-0.0014183462
 31
0.0
 40
0.4964289597
 41
-0.77723337
 42
0.7877451926
  0
ELLIPSE
  5
439
100
AcDbEntity
  8
26814000
100
AcDbEllipse
 62
7
  6
CONTINUOUS
 10
142.3863703485
 20
128.0682777733
 30
0.0
 11
0.2999991737
 21
-0.0014183462
 31
0.0
 40
0.4964289597
 41
-0.7830511342
 42
0.7877451926
  0
ELLIPSE
  5
43A
100
AcDbEntity
  8
26814000
100
AcDbEllipse
 62
7
  6
CONTINUOUS
 10
145.4976401857
 20
79.6505902788
 30
0.0
 11
-0.1565168911
 21
0.3130623908
 31
0.0
 40
0.6123677712
 41
2.4569144891
 42
4.0277108159
  0
ELLIPSE
  5
43B
100
AcDbEntity
  8
26814000
100
AcDbEllipse
 62
7
  6
CONTINUOUS
 10
147.299734021
 20
79.8712393282
 30
0.0
 11
0.110769438
 21
0.2241226716
 31
0.0
 40
0.6088015717
 41
2.2527095058
 42
3.2998991756
  0
ELLIPSE
  5
43C
100
AcDbEntity
  8
26814000
100
AcDbEllipse
 62
7
  6
CONTINUOUS
 10
145.5237394142
 20
119.7944452118
 30
0.0
 11
0.1128509832
 21
0.2230818409
 31
0.0
 40
0.6159267166
 41
0.6934238338
 42
2.2584023964
  0
ELLIPSE
  5
43D
100
AcDbEntity
  8
26814000
100
AcDbEllipse
 62
7
  6
CONTINUOUS
 10
145.5237394142
 20
119.5410738181
 30
0.0
 11
0.1128509832
 21
0.2230818409
 31
0.0
 40
0.6159267166
 41
-4.0247829108
 42
-2.9775853596
  0
ELLIPSE
  5
43E
100
AcDbEntity
  8
26814000
100
AcDbEllipse
 62
7
  6
CONTINUOUS
 10
132.1594212498
 20
126.476604294
 30
0.0
 11
0.1128509832
 21
0.2230818409
 31
0.0
 40
0.6159267166
 41
0.6934238338
 42
2.2584023964
  0
ELLIPSE
  5
43F
100
AcDbEntity
  8
26814000
100
AcDbEllipse
 62
7
  6
CONTINUOUS
 10
132.1594212498
 20
126.2232329003
 30
0.0
 11
0.1128509832
 21
0.2230818409
 31
0.0
 40
0.6159267166
 41
-4.0247829108
 42
-2.9775853596
  0
ELLIPSE
  5
440
100
AcDbEntity
  8
26814000
100
AcDbEllipse
 62
7
  6
CONTINUOUS
 10
145.5237394142
 20
77.9880982849
 30
0.0
 11
0.1128509832
 21
0.2230818409
 31
0.0
 40
0.6159267166
 41
-4.0247829108
 42
-2.4598043482
  0
ELLIPSE
  5
441
100
AcDbEntity
  8
26814000
100
AcDbEllipse
 62
7
  6
CONTINUOUS
 10
145.5237394142
 20
78.2414696787
 30
0.0
 11
0.1128509832
 21
0.2230818409
 31
0.0
 40
0.6159267166
 41
1.2112048452
 42
2.2584023964
  0
ELLIPSE
  5
442
100
AcDbEntity
  8
26814000
100
AcDbEllipse
 62
7
  6
CONTINUOUS
 10
143.8454338795
 20
85.0922446456
 30
0.0
 11
-0.542618321
 21
0.8478124368
 31
0.0
 40
0.5451249042
 41
-3.2164376038
 42
-2.3115524019
  0
ENDSEC
  0
SECTION
  2
OBJECTS
  0
DICTIONARY
  5
C
100
AcDbDictionary
280
0
281
1
  3
ACAD_GROUP
350
D
  3
ACAD_MLINESTYLE
350
17
  3
ACAD_LAYOUT
350
1A
  3
ACAD_PLOTSETTINGS
350
19
  3
ACAD_PLOTSTYLENAME
350
E
  0
DICTIONARY
  5
D
102
{ACAD_REACTORS
330
C
102
}
100
AcDbDictionary
280
0
281
1
  0
ACDBDICTIONARYWDFLT
  5
E
102
{ACAD_REACTORS
330
C
102
}
100
AcDbDictionary
281
1
  3
Normal
350
F
100
AcDbDictionaryWithDefault
340
F
  0
DICTIONARY
  5
17
102
{ACAD_REACTORS
330
C
102
}
100
AcDbDictionary
280
0
281
1
  3
Standard
350
18
  0
DICTIONARY
  5
19
102
{ACAD_REACTORS
330
C
102
}
100
AcDbDictionary
281
1
  0
DICTIONARY
  5
1A
102
{ACAD_REACTORS
330
C
102
}
100
AcDbDictionary
281
1
  3
Model
350
443
  3
Layout1
350
444
  0
ACDBPLACEHOLDER
  5
F
102
{ACAD_REACTORS
330
E
102
}
  0
MLINESTYLE
  5
18
102
{ACAD_REACTORS
330
17
102
}
100
AcDbMlineStyle
  2
STANDARD
 70
0
  3

 62
256
 51
90.0
 52
90.0
 71
2
 49
0.5
 62
256
  6
BYLAYER
 49
-0.5
 62
256
  6
BYLAYER
  0
LAYOUT
  5
443
102
{ACAD_REACTORS
330
1A
102
}
100
AcDbPlotSettings
  1

  2
none_device
  4
ISO_A4_(297.00_x_210.00_MM)
  6

 40
0.0
 41
0.0
 42
0.0
 43
0.0
 44
297.0
 45
210.0
 46
0.0
 47
0.0
 48
0.0
 49
0.0
140
0.0
141
0.0
142
1.0
143
1.0
 70
1024
 72
1
 73
0
 74
0
  7

 75
0
147
1.0
148
0.0
149
0.0
100
AcDbLayout
  1
Model
 70
0
 71
0
 10
0.0
 20
0.0
 11
297.0
 21
210.0
 12
0.0
 22
0.0
 32
0.0
 14
0.0
 24
0.0
 34
0.0
 15
0.0
 25
0.0
 35
0.0
146
0.0
 13
0.0
 23
0.0
 33
0.0
 16
1.0
 26
0.0
 36
0.0
 17
0.0
 27
1.0
 37
0.0
 76
0
330
22A
345
0
346
0
  0
LAYOUT
  5
444
102
{ACAD_REACTORS
330
1A
102
}
100
AcDbPlotSettings
  1

  2
none_device
  4
ISO_A4_(297.00_x_210.00_MM)
  6

 40
0.0
 41
0.0
 42
0.0
 43
0.0
 44
297.0
 45
210.0
 46
0.0
 47
0.0
 48
0.0
 49
0.0
140
0.0
141
0.0
142
1.0
143
1.0
 70
0
 72
1
 73
0
 74
0
  7

 75
0
147
1.0
148
0.0
149
0.0
100
AcDbLayout
  1
Layout1
 70
0
 71
1
 10
0.0
 20
0.0
 11
297.0
 21
210.0
 12
0.0
 22
0.0
 32
0.0
 14
0.0
 24
0.0
 34
0.0
 15
0.0
 25
0.0
 35
0.0
146
0.0
 13
0.0
 23
0.0
 33
0.0
 16
1.0
 26
0.0
 36
0.0
 17
0.0
 27
1.0
 37
0.0
 76
0
330
22B
345
0
346
0
  0
ENDSEC
  0
EOF
