  0
SECTION
  2
HEADER
  9
$ACADVER
  1
AC1024
  9
$DWGCODEPAGE
  3
ANSI_1252
  9
$EXTMAX
 10
297.0
 20
210.0
 30
0.0
  9
$EXTMIN
 10
0.0
 20
0.0
 30
0.0
  9
$LIMMIN
 10
0.0
 20
0.0
  9
$LIMMAX
 10
297.0
 20
210.0
  9
$VIEWCTR
 10
148.5
 20
105.0
  9
$VIEWSIZE
 40
210.0
  9
$CLAYER
  8
0
  9
$LTSCALE
 40
16.335
  9
$CELTYPE
  6
BYLAYER
  9
$DIMSCALE
 40
1.0
  9
$DIMASZ
 40
3.0
  9
$DIMEXO
 40
0.5
  9
$DIMDLI
 40
11.286
  9
$DIMEXE
 40
1.5
  9
$DIMCEN
 40
2.673
  9
$DIMLFAC
 40
1.0
  9
$DIMBLK
  1
_FILLED
  9
$DIMALT
 70
0
  9
$DIMALTF
 40
0.0393700787
  9
$DIMTXT
 40
3.0
  9
$DIMTOL
 70
1
  9
$DIMLIM
 70
0
  9
$DIMTFAC
 40
1.0
  9
$DIMTP
 40
0.01
  9
$DIMTM
 40
0.01
  9
$DIMGAP
 40
0.625
  9
$DIMDSEP
 70
44
  9
$AUNITS
 70
0
  9
$PDMODE
 70
3
  9
$PDSIZE
 40
3.0
  9
$HANDSEED
  5
3C4
  9
$TILEMODE
 70
1
  9
$MEASUREMENT
 70
1
  9
$INSUNITS
 70
4
  0
ENDSEC
  0
SECTION
  2
CLASSES
  0
CLASS
  1
ACDBDICTIONARYWDFLT
  2
AcDbDictionaryWithDefault
  3
AutoCAD 2000
 90
0
 91
1
280
0
281
0
  0
CLASS
  1
ACDBPLACEHOLDER
  2
AcDbPlaceHolder
  3
AutoCAD 2000
 90
0
 91
1
280
0
281
0
  0
CLASS
  1
LAYOUT
  2
AcDbLayout
  3
AutoCAD 2000
 90
0
 91
0
280
0
281
0
  0
ENDSEC
  0
SECTION
  2
TABLES
  0
TABLE
  2
VPORT
  5
8
100
AcDbSymbolTable
 70
2
  0
VPORT
  5
1F4
100
AcDbSymbolTableRecord
100
AcDbViewportTableRecord
  2
*ACTIVE
 70
0
 10
0.0
 20
0.0
 11
1.0
 21
1.0
 12
148.5
 22
105.0
 13
0.0
 23
0.0
 14
1.0
 24
1.0
 15
0.0
 25
0.0
 16
0.0
 26
0.0
 36
1.0
 17
0.0
 27
0.0
 37
0.0
 40
210.0
 41
1.4142857143
 42
50.0
 43
0.0
 44
0.0
 50
0.0
 51
0.0
 71
0
 72
100
 73
1
 74
1
 75
0
 76
0
 77
0
 78
0
  0
ENDTAB
  0
TABLE
  2
LTYPE
  5
5
100
AcDbSymbolTable
 70
6
  0
LTYPE
  5
14
100
AcDbSymbolTableRecord
100
AcDbLinetypeTableRecord
  2
BYBLOCK
 70
0
  3

 72
65
 73
0
 40
0.0
  0
LTYPE
  5
15
100
AcDbSymbolTableRecord
100
AcDbLinetypeTableRecord
  2
BYLAYER
 70
0
  3

 72
65
 73
0
 40
0.0
  0
LTYPE
  5
16
100
AcDbSymbolTableRecord
100
AcDbLinetypeTableRecord
  2
CONTINUOUS
 70
64
  3
Solid line
 72
65
 73
0
 40
0.0
  0
LTYPE
  5
1F5
100
AcDbSymbolTableRecord
100
AcDbLinetypeTableRecord
  2
CENTER
 70
64
  3
____ _ ____ _ ____ _ ____ _ ____ _ ____ _ ____
 72
65
 73
4
 40
0.6
 49
0.375
 74
0
 49
-0.075
 74
0
 49
0.075
 74
0
 49
-0.075
 74
0
  0
LTYPE
  5
1F6
100
AcDbSymbolTableRecord
100
AcDbLinetypeTableRecord
  2
HIDDEN
 70
64
  3
- - - - - - - - - - - - - - - - - - - -
 72
65
 73
2
 40
0.2
 49
0.1
 74
0
 49
-0.1
 74
0
  0
LTYPE
  5
1F7
100
AcDbSymbolTableRecord
100
AcDbLinetypeTableRecord
  2
PHANTOM
 70
64
  3
_____ _ _ _____ _ _ _____ _ _ _____
 72
65
 73
6
 40
0.8
 49
0.45
 74
0
 49
-0.05
 74
0
 49
0.1
 74
0
 49
-0.05
 74
0
 49
0.1
 74
0
 49
-0.05
 74
0
  0
LTYPE
  5
1F8
100
AcDbSymbolTableRecord
100
AcDbLinetypeTableRecord
  2
DOT
 70
64
  3
. . . . . . . . . . . . . . . . . . . .
 72
65
 73
2
 40
0.2
 49
0.1
 74
0
 49
-0.1
 74
0
  0
LTYPE
  5
1F9
100
AcDbSymbolTableRecord
100
AcDbLinetypeTableRecord
  2
DASHED
 70
64
  3
- - - - - - - - - - - - - - - - - - - -
 72
65
 73
2
 40
0.2
 49
0.1
 74
0
 49
-0.1
 74
0
  0
ENDTAB
  0
TABLE
  2
LAYER
  5
2
100
AcDbSymbolTable
 70
36
  0
LAYER
  5
10
100
AcDbSymbolTableRecord
100
AcDbLayerTableRecord
  2
0
 70
0
 62
7
  6
CONTINUOUS
370
-3
390
F
  0
LAYER
  5
1FA
100
AcDbSymbolTableRecord
100
AcDbLayerTableRecord
  2
DEFAULT_1
 70
0
 62
7
  6
CENTER
370
-3
390
F
  0
LAYER
  5
1FB
100
AcDbSymbolTableRecord
100
AcDbLayerTableRecord
  2
DEFAULT_2
 70
0
 62
7
  6
HIDDEN
370
-3
390
F
  0
LAYER
  5
1FC
100
AcDbSymbolTableRecord
100
AcDbLayerTableRecord
  2
DEFAULT_3
 70
0
 62
7
  6
PHANTOM
370
-3
390
F
  0
LAYER
  5
1FD
100
AcDbSymbolTableRecord
100
AcDbLayerTableRecord
  2
21814000
 70
0
 62
7
  6
CONTINUOUS
370
-3
390
F
  0
LAYER
  5
1FE
100
AcDbSymbolTableRecord
100
AcDbLayerTableRecord
  2
260140000
 70
0
 62
7
  6
CONTINUOUS
370
-3
390
F
  0
LAYER
  5
1FF
100
AcDbSymbolTableRecord
100
AcDbLayerTableRecord
  2
26814000
 70
0
 62
7
  6
CONTINUOUS
370
-3
390
F
  0
LAYER
  5
200
100
AcDbSymbolTableRecord
100
AcDbLayerTableRecord
  2
28414000
 70
0
 62
7
  6
CONTINUOUS
370
-3
390
F
  0
LAYER
  5
201
100
AcDbSymbolTableRecord
100
AcDbLayerTableRecord
  2
290140000
 70
0
 62
7
  6
CONTINUOUS
370
-3
390
F
  0
LAYER
  5
202
100
AcDbSymbolTableRecord
100
AcDbLayerTableRecord
  2
340000230
 70
0
 62
7
  6
CONTINUOUS
370
-3
390
F
  0
LAYER
  5
203
100
AcDbSymbolTableRecord
100
AcDbLayerTableRecord
  2
712140000
 70
0
 62
7
  6
CONTINUOUS
370
-3
390
F
  0
LAYER
  5
204
100
AcDbSymbolTableRecord
100
AcDbLayerTableRecord
  2
715140000
 70
0
 62
7
  6
CONTINUOUS
370
-3
390
F
  0
LAYER
  5
205
100
AcDbSymbolTableRecord
100
AcDbLayerTableRecord
  2
ASSI
 70
0
 62
7
  6
CONTINUOUS
370
-3
390
F
  0
LAYER
  5
206
100
AcDbSymbolTableRecord
100
AcDbLayerTableRecord
  2
COLORE_TOP
 70
0
 62
7
  6
CONTINUOUS
370
-3
390
F
  0
LAYER
  5
207
100
AcDbSymbolTableRecord
100
AcDbLayerTableRecord
  2
COORDINATE
 70
0
 62
7
  6
CONTINUOUS
370
-3
390
F
  0
LAYER
  5
208
100
AcDbSymbolTableRecord
100
AcDbLayerTableRecord
  2
COORD_ORIGINE
 70
0
 62
7
  6
CONTINUOUS
370
-3
390
F
  0
LAYER
  5
209
100
AcDbSymbolTableRecord
100
AcDbLayerTableRecord
  2
COPY_PUBLISH
 70
0
 62
7
  6
CONTINUOUS
370
-3
390
F
  0
LAYER
  5
20A
100
AcDbSymbolTableRecord
100
AcDbLayerTableRecord
  2
COSMETICHE
 70
0
 62
7
  6
CONTINUOUS
370
-3
390
F
  0
LAYER
  5
20B
100
AcDbSymbolTableRecord
100
AcDbLayerTableRecord
  2
COSMETICI
 70
0
 62
7
  6
CONTINUOUS
370
-3
390
F
  0
LAYER
  5
20C
100
AcDbSymbolTableRecord
100
AcDbLayerTableRecord
  2
CURVE
 70
0
 62
7
  6
CONTINUOUS
370
-3
390
F
  0
LAYER
  5
20D
100
AcDbSymbolTableRecord
100
AcDbLayerTableRecord
  2
DRAFT
 70
0
 62
7
  6
CONTINUOUS
370
-3
390
F
  0
LAYER
  5
20E
100
AcDbSymbolTableRecord
100
AcDbLayerTableRecord
  2
IGES
 70
0
 62
7
  6
CONTINUOUS
370
-3
390
F
  0
LAYER
  5
20F
100
AcDbSymbolTableRecord
100
AcDbLayerTableRecord
  2
IMPORT
 70
0
 62
7
  6
CONTINUOUS
370
-3
390
F
  0
LAYER
  5
210
100
AcDbSymbolTableRecord
100
AcDbLayerTableRecord
  2
IMPORTED
 70
0
 62
7
  6
CONTINUOUS
370
-3
390
F
  0
LAYER
  5
211
100
AcDbSymbolTableRecord
100
AcDbLayerTableRecord
  2
IMPORT_IGES
 70
0
 62
7
  6
CONTINUOUS
370
-3
390
F
  0
LAYER
  5
212
100
AcDbSymbolTableRecord
100
AcDbLayerTableRecord
  2
INCISIONI_LASER
 70
0
 62
7
  6
CONTINUOUS
370
-3
390
F
  0
LAYER
  5
213
100
AcDbSymbolTableRecord
100
AcDbLayerTableRecord
  2
INTF_1
 70
0
 62
7
  6
CONTINUOUS
370
-3
390
F
  0
LAYER
  5
214
100
AcDbSymbolTableRecord
100
AcDbLayerTableRecord
  2
INTF_11
 70
0
 62
7
  6
CONTINUOUS
370
-3
390
F
  0
LAYER
  5
215
100
AcDbSymbolTableRecord
100
AcDbLayerTableRecord
  2
INTF_16
 70
0
 62
7
  6
CONTINUOUS
370
-3
390
F
  0
LAYER
  5
216
100
AcDbSymbolTableRecord
100
AcDbLayerTableRecord
  2
INTF_2
 70
0
 62
7
  6
CONTINUOUS
370
-3
390
F
  0
LAYER
  5
217
100
AcDbSymbolTableRecord
100
AcDbLayerTableRecord
  2
NOTE
 70
0
 62
7
  6
CONTINUOUS
370
-3
390
F
  0
LAYER
  5
218
100
AcDbSymbolTableRecord
100
AcDbLayerTableRecord
  2
PIANI
 70
0
 62
7
  6
CONTINUOUS
370
-3
390
F
  0
LAYER
  5
219
100
AcDbSymbolTableRecord
100
AcDbLayerTableRecord
  2
PIANI_DI_RIFERIMENTO
 70
0
 62
7
  6
CONTINUOUS
370
-3
390
F
  0
LAYER
  5
21A
100
AcDbSymbolTableRecord
100
AcDbLayerTableRecord
  2
PIANI_ORIGINE
 70
0
 62
7
  6
CONTINUOUS
370
-3
390
F
  0
LAYER
  5
21B
100
AcDbSymbolTableRecord
100
AcDbLayerTableRecord
  2
PIANI_RIFERIMENTO
 70
0
 62
7
  6
CONTINUOUS
370
-3
390
F
  0
LAYER
  5
21C
100
AcDbSymbolTableRecord
100
AcDbLayerTableRecord
  2
PIANI_SFORMO
 70
0
 62
7
  6
CONTINUOUS
370
-3
390
F
  0
LAYER
  5
21D
100
AcDbSymbolTableRecord
100
AcDbLayerTableRecord
  2
PUNTI
 70
0
 62
7
  6
CONTINUOUS
370
-3
390
F
  0
LAYER
  5
21E
100
AcDbSymbolTableRecord
100
AcDbLayerTableRecord
  2
RACCORDO
 70
0
 62
7
  6
CONTINUOUS
370
-3
390
F
  0
LAYER
  5
21F
100
AcDbSymbolTableRecord
100
AcDbLayerTableRecord
  2
RGB__255__255__255__
 70
0
 62
7
  6
CONTINUOUS
370
-3
390
F
  0
LAYER
  5
220
100
AcDbSymbolTableRecord
100
AcDbLayerTableRecord
  2
RGB____0____0____0__
 70
0
 62
7
  6
CONTINUOUS
370
-3
390
F
  0
LAYER
  5
221
100
AcDbSymbolTableRecord
100
AcDbLayerTableRecord
  2
RINTRACCIABILITA
 70
0
 62
7
  6
CONTINUOUS
370
-3
390
F
  0
LAYER
  5
222
100
AcDbSymbolTableRecord
100
AcDbLayerTableRecord
  2
SIMBOLI
 70
0
 62
7
  6
CONTINUOUS
370
-3
390
F
  0
LAYER
  5
223
100
AcDbSymbolTableRecord
100
AcDbLayerTableRecord
  2
SMUSSO
 70
0
 62
7
  6
CONTINUOUS
370
-3
390
F
  0
LAYER
  5
224
100
AcDbSymbolTableRecord
100
AcDbLayerTableRecord
  2
SNAPLINE
 70
0
 62
7
  6
CONTINUOUS
370
-3
390
F
  0
LAYER
  5
225
100
AcDbSymbolTableRecord
100
AcDbLayerTableRecord
  2
SUPERFICI
 70
0
 62
7
  6
CONTINUOUS
370
-3
390
F
  0
LAYER
  5
226
100
AcDbSymbolTableRecord
100
AcDbLayerTableRecord
  2
TRASH
 70
0
 62
7
  6
CONTINUOUS
370
-3
390
F
  0
LAYER
  5
227
100
AcDbSymbolTableRecord
100
AcDbLayerTableRecord
  2
WHITE
 70
0
 62
7
  6
CONTINUOUS
370
-3
390
F
  0
LAYER
  5
228
100
AcDbSymbolTableRecord
100
AcDbLayerTableRecord
  2
XSEC_DATUMS
 70
0
 62
7
  6
CONTINUOUS
370
-3
390
F
  0
ENDTAB
  0
TABLE
  2
STYLE
  5
3
100
AcDbSymbolTable
 70
1
  0
STYLE
  5
11
100
AcDbSymbolTableRecord
100
AcDbTextStyleTableRecord
  2
STANDARD
 70
0
 40
0.0
 41
0.8
 50
0.0
 71
0
 42
0.2
  3
txt
  4

  0
STYLE
  5
229
100
AcDbSymbolTableRecord
100
AcDbTextStyleTableRecord
  2
TEXTSTYLE_1
 70
0
 40
0.0
 41
0.8
 50
0.0
 71
0
 42
0.2
  3
gdt
  4

  0
ENDTAB
  0
TABLE
  2
VIEW
  5
6
100
AcDbSymbolTable
 70
0
  0
ENDTAB
  0
TABLE
  2
UCS
  5
7
100
AcDbSymbolTable
 70
0
  0
ENDTAB
  0
TABLE
  2
APPID
  5
9
100
AcDbSymbolTable
 70
1
  0
APPID
  5
22A
100
AcDbSymbolTableRecord
100
AcDbRegAppTableRecord
  2
ACAD
 70
0
  0
ENDTAB
  0
TABLE
  2
BLOCK_RECORD
  5
1
100
AcDbSymbolTable
 70
0
  0
BLOCK_RECORD
  5
22B
100
AcDbSymbolTableRecord
100
AcDbBlockTableRecord
  2
*Model_Space
  0
BLOCK_RECORD
  5
22C
100
AcDbSymbolTableRecord
100
AcDbBlockTableRecord
  2
*Paper_Space
  0
BLOCK_RECORD
  5
22D
100
AcDbSymbolTableRecord
100
AcDbBlockTableRecord
  2
_FILLED
  0
ENDTAB
  0
TABLE
  2
DIMSTYLE
  5
A
100
AcDbSymbolTable
 70
1
100
AcDbDimStyleTable
 71
0
  0
DIMSTYLE
105
22E
100
AcDbSymbolTableRecord
100
AcDbDimStyleTableRecord
  2
STANDARD
 70
0
  3

  4

 40
1.0
 41
3.0
 42
0.5
 43
0.38
 44
1.5
 45
0.0
 46
0.0
 47
0.01
 48
0.01
140
3.0
141
0.09
142
0.0
143
25.4
144
1.0
145
0.0
146
1.0
147
0.625
 71
1
 72
0
 73
0
 74
0
 75
0
 76
0
 77
1
 78
8
 79
2
170
0
171
1
172
0
173
0
174
0
175
0
176
0
177
0
178
0
270
2
179
2
271
2
272
2
273
2
274
2
275
0
280
0
281
0
282
0
283
1
284
8
285
0
286
0
287
3
288
0
340
11
278
44
341
22D
342
22D
343
22D
344
22D
  0
ENDTAB
  0
ENDSEC
  0
SECTION
  2
BLOCKS
  0
BLOCK
  5
20
100
AcDbEntity
  8
0
100
AcDbBlockBegin
  2
*Model_Space
 70
0
 10
0.0
 20
0.0
 30
0.0
  3
*Model_Space
  1

  0
ENDBLK
  5
21
100
AcDbEntity
  8
0
100
AcDbBlockEnd
  0
BLOCK
  5
1C
100
AcDbEntity
  8
0
100
AcDbBlockBegin
  2
*Paper_Space
 70
0
 10
0.0
 20
0.0
 30
0.0
  3
*Paper_Space
  1

  0
ENDBLK
  5
1D
100
AcDbEntity
  8
0
100
AcDbBlockEnd
  0
BLOCK
  5
22F
100
AcDbEntity
  8
0
100
AcDbBlockBegin
  2
_FILLED
 70
64
 10
0.0
 20
0.0
  3
_FILLED
  1

  0
SOLID
  5
230
100
AcDbEntity
  8
0
  6
BYBLOCK
 62
0
100
AcDbTrace
 10
0.0
 20
0.0
 11
-1.0
 21
0.3166666667
 12
-1.0
 22
-0.3166666667
 13
-1.0
 23
-0.3166666667
  0
ENDBLK
  5
231
100
AcDbEntity
  8
0
  6
BYBLOCK
 62
0
100
AcDbBlockEnd
  0
ENDSEC
  0
SECTION
  2
ENTITIES
  0
LINE
  5
232
100
AcDbEntity
  8
26814000
100
AcDbLine
 62
7
  6
CONTINUOUS
 10
137.6573062567
 20
131.2804373049
 11
139.2400628599
 21
132.0924214022
  0
LINE
  5
233
100
AcDbEntity
  8
26814000
100
AcDbLine
 62
7
  6
CONTINUOUS
 10
137.1733511444
 20
129.5377369028
 11
138.1855734285
 21
130.0546668655
  0
LINE
  5
234
100
AcDbEntity
  8
26814000
100
AcDbLine
 62
7
  6
CONTINUOUS
 10
139.2400628599
 20
132.0924214022
 11
139.7745127386
 21
132.3527688688
  0
LINE
  5
235
100
AcDbEntity
  8
26814000
100
AcDbLine
 62
250
  6
CONTINUOUS
 10
137.3308745507
 20
129.5283035733
 11
138.1855734285
 21
129.9647881932
  0
LINE
  5
236
100
AcDbEntity
  8
26814000
100
AcDbLine
 62
7
  6
CONTINUOUS
 10
140.8664084566
 20
129.5471977963
 11
139.7995775445
 21
129.0086165468
  0
LINE
  5
237
100
AcDbEntity
  8
26814000
100
AcDbLine
 62
7
  6
CONTINUOUS
 10
139.2651276658
 20
130.4765266003
 11
140.8664084566
 21
131.2792486038
  0
LINE
  5
238
100
AcDbEntity
  8
26814000
100
AcDbLine
 62
7
  6
CONTINUOUS
 10
140.8664084566
 20
131.2792486038
 11
141.3946756284
 21
131.5426874239
  0
LWPOLYLINE
  5
239
100
AcDbEntity
  8
RACCORDO
100
AcDbPolyline
 62
7
  6
CONTINUOUS
 90
19
 70
0
 10
133.916299494
 20
127.2375256169
 10
133.899128576
 20
127.2304053076
 10
133.8066606476
 20
127.1869498169
 10
133.7167935678
 20
127.1360447619
 10
133.6295173993
 20
127.0777445828
 10
133.5452309084
 20
127.0123753595
 10
133.4647081854
 20
126.9406472211
 10
133.387911262
 20
126.8626487728
 10
133.3150162469
 20
126.7785900149
 10
133.2469648066
 20
126.6896032104
 10
133.1837823227
 20
126.5958702598
 10
133.1256214956
 20
126.4975713309
 10
133.0733487715
 20
126.3962062723
 10
133.0270234469
 20
126.2920435913
 10
132.9867875606
 20
126.1852566723
 10
132.9532245475
 20
126.0773869322
 10
132.9264872699
 20
125.9690550087
 10
132.9065391662
 20
125.8600239623
 10
132.901937177
 20
125.8274523535
  0
LINE
  5
23A
100
AcDbEntity
  8
RACCORDO
100
AcDbLine
 62
7
  6
CONTINUOUS
 10
133.9162949205
 20
127.2375368796
 11
137.8456502907
 21
128.8324667767
  0
LINE
  5
23B
100
AcDbEntity
  8
RACCORDO
100
AcDbLine
 62
250
  6
CONTINUOUS
 10
134.2715559675
 20
127.2130796102
 11
138.1542834907
 21
128.7890831647
  0
LWPOLYLINE
  5
23C
100
AcDbEntity
  8
26814000
100
AcDbPolyline
 62
7
  6
CONTINUOUS
 90
3
 70
0
 10
148.848982092
 20
132.7676086921
 10
148.8364170722
 20
132.7629096412
 10
148.8305343536
 20
132.7601513493
  0
LWPOLYLINE
  5
23D
100
AcDbEntity
  8
RACCORDO
100
AcDbPolyline
 62
250
  6
CONTINUOUS
 90
7
 70
0
 10
133.9164577588
 20
127.2376030219
 10
133.9742169987
 20
127.2556208666
 10
134.0309010431
 20
127.2638290951
 10
134.0896271298
 20
127.2636309916
 10
134.1497520305
 20
127.2550287259
 10
134.2106171957
 20
127.2381165188
 10
134.2715559675
 20
127.2130796102
  0
LWPOLYLINE
  5
23E
100
AcDbEntity
  8
26814000
100
AcDbPolyline
 62
7
  6
CONTINUOUS
 90
10
 70
0
 10
148.848982092
 20
132.7676086921
 10
148.8582217128
 20
132.770354491
 10
148.8667848667
 20
132.7726202095
 10
148.8746715536
 20
132.7744058476
 10
148.8819209118
 20
132.7757322522
 10
148.8884938032
 20
132.7765785763
 10
148.8942728126
 20
132.776882279
 10
148.8992537697
 20
132.7766429433
 10
148.9034408449
 20
132.7758609861
 10
148.9060305261
 20
132.7748645529
  0
LWPOLYLINE
  5
23F
100
AcDbEntity
  8
RACCORDO
100
AcDbPolyline
 62
7
  6
CONTINUOUS
 90
12
 70
0
 10
144.8446202364
 20
80.885687532
 10
144.8733204118
 20
80.8718315165
 10
144.9570816685
 20
80.8371029232
 10
145.0439444202
 20
80.8093657462
 10
145.1334434624
 20
80.7888756931
 10
145.2253926409
 20
80.7758158114
 10
145.3192271081
 20
80.7704184801
 10
145.4143038417
 20
80.7728560717
 10
145.510431639
 20
80.7832943309
 10
145.6072046205
 20
80.8018919461
 10
145.703894334
 20
80.8286760224
 10
145.7232994583
 20
80.8350592475
  0
LINE
  5
240
100
AcDbEntity
  8
RACCORDO
100
AcDbLine
 62
7
  6
CONTINUOUS
 10
144.8456128187
 20
80.8851780569
 11
130.5051546152
 21
88.0554071586
  0
LINE
  5
241
100
AcDbEntity
  8
RACCORDO
100
AcDbLine
 62
250
  6
CONTINUOUS
 10
144.4506233571
 20
81.7473884843
 11
130.1218898493
 21
88.9117552382
  0
LWPOLYLINE
  5
242
100
AcDbEntity
  8
RACCORDO
100
AcDbPolyline
 62
250
  6
CONTINUOUS
 90
14
 70
0
 10
130.5051839068
 20
88.0553925129
 10
130.4508095567
 20
88.0865797139
 10
130.3984043534
 20
88.1252379002
 10
130.3499075131
 20
88.1703330967
 10
130.3055395485
 20
88.2216571244
 10
130.2655215983
 20
88.2789650763
 10
130.2300718675
 20
88.3419581108
 10
130.1993742635
 20
88.4103045668
 10
130.173587439
 20
88.4836465008
 10
130.1528391532
 20
88.5616189492
 10
130.1372278134
 20
88.643839888
 10
130.1268326214
 20
88.7298983078
 10
130.1217107611
 20
88.819354262
 10
130.1218898493
 20
88.9117552382
  0
LINE
  5
243
100
AcDbEntity
  8
26814000
100
AcDbLine
 62
7
  6
CONTINUOUS
 10
141.4815272916
 20
130.9216898372
 11
140.9542825759
 21
130.2799821092
  0
LWPOLYLINE
  5
244
100
AcDbEntity
  8
26814000
100
AcDbPolyline
 62
7
  6
CONTINUOUS
 90
12
 70
0
 10
148.8305343536
 20
132.7601513493
 10
148.8242475622
 20
132.7567949757
 10
148.8123931356
 20
132.7492907026
 10
148.8007379556
 20
132.7404181913
 10
148.7892423608
 20
132.7302330808
 10
148.7779510631
 20
132.7188020084
 10
148.7668059966
 20
132.7061549822
 10
148.7557391173
 20
132.6923254461
 10
148.7447929981
 20
132.6773559472
 10
148.7339456969
 20
132.6612730201
 10
148.7231072682
 20
132.6441047657
 10
148.7122229003
 20
132.6258861343
  0
LINE
  5
245
100
AcDbEntity
  8
26814000
100
AcDbLine
 62
7
  6
CONTINUOUS
 10
143.130802888
 20
129.1276916064
 11
143.6241249032
 21
129.3807751383
  0
LINE
  5
246
100
AcDbEntity
  8
26814000
100
AcDbLine
 62
7
  6
CONTINUOUS
 10
142.3221894331
 20
129.5188564
 11
148.8302260598
 21
132.7599980056
  0
LINE
  5
247
100
AcDbEntity
  8
26814000
100
AcDbLine
 62
250
  6
CONTINUOUS
 10
142.3976825736
 20
129.4811098297
 11
148.7122229003
 21
132.6258861343
  0
LINE
  5
248
100
AcDbEntity
  8
26814000
100
AcDbLine
 62
7
  6
CONTINUOUS
 10
149.7052432214
 20
131.7461426035
 11
144.9676277875
 21
129.4110920889
  0
LINE
  5
249
100
AcDbEntity
  8
26814000
100
AcDbLine
 62
7
  6
CONTINUOUS
 10
143.6241249032
 20
129.3807751383
 11
149.1017648927
 21
132.0491071015
  0
LINE
  5
24A
100
AcDbEntity
  8
26814000
100
AcDbLine
 62
7
  6
CONTINUOUS
 10
154.3186007403
 20
83.4232188876
 11
154.845845456
 21
83.3149266156
  0
LWPOLYLINE
  5
24B
100
AcDbEntity
  8
RACCORDO
100
AcDbPolyline
 62
250
  6
CONTINUOUS
 90
9
 70
0
 10
129.8875716582
 20
89.193550519
 10
129.8891717616
 20
89.163258054
 10
129.898726876
 20
89.1238947268
 10
129.916635967
 20
89.085009455
 10
129.9427092842
 20
89.0470142357
 10
129.9766705758
 20
89.0103116354
 10
130.0181600152
 20
88.9752905254
 10
130.0667380137
 20
88.9423219612
 10
130.1218898778
 20
88.9117552512
  0
LWPOLYLINE
  5
24C
100
AcDbEntity
  8
RACCORDO
100
AcDbPolyline
 62
7
  6
CONTINUOUS
 90
15
 70
0
 10
129.8875812907
 20
89.1935502297
 10
129.8868343763
 20
89.1431601717
 10
129.8915620251
 20
89.0247147964
 10
129.9052532963
 20
88.9106672935
 10
129.9275410046
 20
88.8013953838
 10
129.95811331
 20
88.6970399233
 10
129.9967159027
 20
88.5978078105
 10
130.0428818474
 20
88.5043093194
 10
130.0962224038
 20
88.4168554219
 10
130.1565325544
 20
88.3355547868
 10
130.2232249734
 20
88.2610107528
 10
130.2956955842
 20
88.1936598467
 10
130.3736988261
 20
88.133607618
 10
130.4566881945
 20
88.0812585394
 10
130.5062181683
 20
88.0548896578
  0
LINE
  5
24D
100
AcDbEntity
  8
RACCORDO
100
AcDbLine
 62
7
  6
CONTINUOUS
 10
129.8875783537
 20
89.1937710804
 11
129.8875716582
 21
89.193550519
  0
LWPOLYLINE
  5
24E
100
AcDbEntity
  8
RACCORDO
100
AcDbPolyline
 62
250
  6
CONTINUOUS
 90
13
 70
0
 10
130.1218898493
 20
88.9117552382
 10
130.2276391732
 20
91.9051245062
 10
130.3599394016
 20
94.910877381
 10
130.5187739212
 20
97.9286269094
 10
130.7041227477
 20
100.9579845337
 10
130.915962123
 20
103.9985604617
 10
131.1542645217
 20
107.0499637183
 10
131.4189990528
 20
110.1118017987
 10
131.7101318822
 20
113.1836806263
 10
132.0276258378
 20
116.2652049258
 10
132.3714399838
 20
119.3559782876
 10
132.7415296229
 20
122.4556032184
 10
133.1378467269
 20
125.5636811013
  0
LWPOLYLINE
  5
24F
100
AcDbEntity
  8
RACCORDO
100
AcDbPolyline
 62
250
  6
CONTINUOUS
 90
10
 70
0
 10
132.901937177
 20
125.8274523535
 10
132.9013024127
 20
125.8214020054
 10
132.9029960318
 20
125.7891864838
 10
132.9130822122
 20
125.7562718649
 10
132.93145409
 20
125.7230068824
 10
132.9579170133
 20
125.6897439817
 10
132.992190605
 20
125.6568355866
 10
133.0339117334
 20
125.6246303647
 10
133.0826383591
 20
125.5934695332
 10
133.137854219
 20
125.5636832442
  0
LWPOLYLINE
  5
250
100
AcDbEntity
  8
RACCORDO
100
AcDbPolyline
 62
7
  6
CONTINUOUS
 90
13
 70
0
 10
132.9019430211
 20
125.8275423699
 10
132.5128079224
 20
122.7774439406
 10
132.1411156503
 20
119.667739841
 10
131.7958709937
 20
116.5668627143
 10
131.4771275409
 20
113.4752606751
 10
131.1849247444
 20
110.3933273474
 10
130.9192981519
 20
107.3214351114
 10
130.6802836406
 20
104.2599711183
 10
130.4679116439
 20
101.2093205004
 10
130.282210395
 20
98.1698528011
 10
130.1232076025
 20
95.1419567039
 10
129.9909251642
 20
92.1260675765
 10
129.8875783537
 20
89.1937710804
  0
LWPOLYLINE
  5
251
100
AcDbEntity
  8
RACCORDO
100
AcDbPolyline
 62
250
  6
CONTINUOUS
 90
22
 70
0
 10
133.1378467269
 20
125.5636811013
 10
133.1533576259
 20
125.6619489818
 10
133.1740130327
 20
125.7612573764
 10
133.1997064524
 20
125.8611039999
 10
133.2303019574
 20
125.9609791518
 10
133.2656453163
 20
126.0603834795
 10
133.3055675987
 20
126.158830088
 10
133.349872429
 20
126.2558370247
 10
133.3983296771
 20
126.3508981604
 10
133.4506850714
 20
126.4435027087
 10
133.5066553388
 20
126.5331660552
 10
133.5659640798
 20
126.6194584597
 10
133.6283399988
 20
126.7019722795
 10
133.6934789506
 20
126.7803061722
 10
133.7610369318
 20
126.8540451847
 10
133.8306631664
 20
126.9227923144
 10
133.901990957
 20
126.986195032
 10
133.9746641114
 20
127.0439451319
 10
134.0483333852
 20
127.095754098
 10
134.1226294471
 20
127.141360692
 10
134.1971642443
 20
127.1805349171
 10
134.2715559675
 20
127.2130796102
  0
LINE
  5
252
100
AcDbEntity
  8
26814000
100
AcDbLine
 62
7
  6
CONTINUOUS
 10
151.0323170498
 20
130.2762683699
 11
149.6345325433
 21
129.5773761167
  0
LINE
  5
253
100
AcDbEntity
  8
26814000
100
AcDbLine
 62
7
  6
CONTINUOUS
 10
149.2809791527
 20
130.3067110013
 11
149.7052432214
 21
130.5143084221
  0
LINE
  5
254
100
AcDbEntity
  8
26814000
100
AcDbLine
 62
7
  6
CONTINUOUS
 10
151.6913128012
 20
131.1363411838
 11
149.6345325433
 21
130.129934306
  0
LINE
  5
255
100
AcDbEntity
  8
21814000
100
AcDbLine
 62
7
  6
CONTINUOUS
 10
148.6973253331
 20
128.9502803337
 11
148.5592105309
 21
128.8850432484
  0
LINE
  5
256
100
AcDbEntity
  8
21814000
100
AcDbLine
 62
250
  6
CONTINUOUS
 10
148.7808593395
 20
128.941781247
 11
148.6445830505
 21
128.8774125642
  0
LWPOLYLINE
  5
257
100
AcDbEntity
  8
21814000
100
AcDbPolyline
 62
250
  6
CONTINUOUS
 90
11
 70
0
 10
149.6143254625
 20
128.9956012202
 10
149.623417923
 20
128.9996916713
 10
149.6324765973
 20
129.0030484565
 10
149.6414637188
 20
129.0056554285
 10
149.6503449065
 20
129.0075000327
 10
149.6590793709
 20
129.0085711784
 10
149.6676207193
 20
129.0088621924
 10
149.6759375447
 20
129.0083716984
 10
149.6839907687
 20
129.0071016859
 10
149.691726749
 20
129.0050641698
 10
149.6991003917
 20
129.0022808009
  0
LINE
  5
258
100
AcDbEntity
  8
21814000
100
AcDbLine
 62
7
  6
CONTINUOUS
 10
148.6973788485
 20
128.9503056112
 11
148.7005868887
 21
128.9517212408
  0
LWPOLYLINE
  5
259
100
AcDbEntity
  8
21814000
100
AcDbPolyline
 62
7
  6
CONTINUOUS
 90
5
 70
0
 10
148.5590920622
 20
128.8849863461
 10
148.563935227
 20
128.8870439704
 10
148.5713615868
 20
128.8893618328
 10
148.579508005
 20
128.8908941975
 10
148.58842634
 20
128.8915451111
  0
LINE
  5
25A
100
AcDbEntity
  8
21814000
100
AcDbLine
 62
7
  6
CONTINUOUS
 10
148.7704274785
 20
128.977822378
 11
148.7005865273
 21
128.9517210706
  0
LINE
  5
25B
100
AcDbEntity
  8
21814000
100
AcDbLine
 62
7
  6
CONTINUOUS
 10
148.8454665886
 20
129.0007499431
 11
148.7704274785
 21
128.977822378
  0
LWPOLYLINE
  5
25C
100
AcDbEntity
  8
21814000
100
AcDbPolyline
 62
7
  6
CONTINUOUS
 90
6
 70
0
 10
148.7005868887
 20
128.9517212408
 10
148.7138151632
 20
128.9556632657
 10
148.7295987834
 20
128.9570019012
 10
148.7462361159
 20
128.955108076
 10
148.763424717
 20
128.9500068671
 10
148.7808593395
 20
128.941781247
  0
LINE
  5
25D
100
AcDbEntity
  8
26814000
100
AcDbLine
 62
7
  6
CONTINUOUS
 10
150.9114921174
 20
82.3520147028
 11
152.5180282149
 21
81.5487466541
  0
LINE
  5
25E
100
AcDbEntity
  8
26814000
100
AcDbLine
 62
250
  6
CONTINUOUS
 10
150.8468986386
 20
82.4870432441
 11
152.4526751008
 21
81.684155013
  0
LINE
  5
25F
100
AcDbEntity
  8
26814000
100
AcDbLine
 62
250
  6
CONTINUOUS
 10
152.4526751008
 20
81.9375264068
 11
150.8468986386
 21
82.7404146378
  0
LINE
  5
260
100
AcDbEntity
  8
26814000
100
AcDbLine
 62
250
  6
CONTINUOUS
 10
152.5415776768
 20
82.1689634664
 11
150.9347727579
 21
82.9723659258
  0
LINE
  5
261
100
AcDbEntity
  8
26814000
100
AcDbLine
 62
7
  6
CONTINUOUS
 10
150.2849280984
 20
84.2911271559
 11
152.6043810243
 21
83.1314006929
  0
LINE
  5
262
100
AcDbEntity
  8
26814000
100
AcDbLine
 62
7
  6
CONTINUOUS
 10
153.1638957089
 20
82.9140228839
 11
152.7546307126
 21
83.118655382
  0
LINE
  5
263
100
AcDbEntity
  8
26814000
100
AcDbLine
 62
7
  6
CONTINUOUS
 10
150.3108132248
 20
84.6057005312
 11
152.8518683977
 21
83.3351729447
  0
LINE
  5
264
100
AcDbEntity
  8
21814000
100
AcDbLine
 62
7
  6
CONTINUOUS
 10
148.5444793324
 20
128.8753668172
 11
147.6335529739
 21
128.0781294957
  0
LINE
  5
265
100
AcDbEntity
  8
21814000
100
AcDbLine
 62
250
  6
CONTINUOUS
 10
148.6439241761
 20
128.8777420014
 11
147.6951139958
 21
128.0473489847
  0
LWPOLYLINE
  5
266
100
AcDbEntity
  8
21814000
100
AcDbPolyline
 62
7
  6
CONTINUOUS
 90
5
 70
0
 10
148.5443820935
 20
128.8752812187
 10
148.5454628968
 20
128.8762127392
 10
148.5510112615
 20
128.8803954756
 10
148.5571657215
 20
128.8840331242
 10
148.5590920622
 20
128.8849863461
  0
LINE
  5
267
100
AcDbEntity
  8
21814000
100
AcDbLine
 62
250
  6
CONTINUOUS
 10
148.1958429542
 20
127.7969845056
 11
148.6696513978
 21
128.168404562
  0
LINE
  5
268
100
AcDbEntity
  8
21814000
100
AcDbLine
 62
250
  6
CONTINUOUS
 10
148.4737326172
 20
127.6580396741
 11
148.8424585277
 21
127.9470851741
  0
LWPOLYLINE
  5
269
100
AcDbEntity
  8
21814000
100
AcDbPolyline
 62
250
  6
CONTINUOUS
 90
13
 70
0
 10
148.6696513978
 20
128.168404562
 10
148.7108303171
 20
128.1979506919
 10
148.7540256894
 20
128.2245608281
 10
148.7992375148
 20
128.2482349705
 10
148.8470144828
 20
128.2691299385
 10
148.8968079039
 20
128.2870889128
 10
148.9469717091
 20
128.301641435
 10
148.9974775
 20
128.312659933
 10
149.0483536751
 20
128.3202719791
 10
149.0980393605
 20
128.3243898309
 10
149.1463943148
 20
128.3249280264
 10
149.1935587795
 20
128.3219720277
 10
149.2383926044
 20
128.3156904796
  0
LINE
  5
26A
100
AcDbEntity
  8
26814000
100
AcDbLine
 62
7
  6
CONTINUOUS
 10
149.3475688449
 20
126.0193086279
 11
149.8466645777
 21
126.269505301
  0
LINE
  5
26B
100
AcDbEntity
  8
26814000
100
AcDbLine
 62
7
  6
CONTINUOUS
 10
149.8466645777
 20
126.269505301
 11
155.2609372728
 21
128.9695209114
  0
LINE
  5
26C
100
AcDbEntity
  8
26814000
100
AcDbLine
 62
7
  6
CONTINUOUS
 10
154.6549906897
 20
129.2712688694
 11
149.9173752558
 21
126.9362183548
  0
LINE
  5
26D
100
AcDbEntity
  8
26814000
100
AcDbLine
 62
7
  6
CONTINUOUS
 10
155.9339534883
 20
129.0150208402
 11
155.3475747012
 21
128.7280987726
  0
LWPOLYLINE
  5
26E
100
AcDbEntity
  8
26814000
100
AcDbPolyline
 62
7
  6
CONTINUOUS
 90
18
 70
0
 10
155.9339534883
 20
129.0150208402
 10
155.9623280091
 20
129.028202797
 10
155.9905624611
 20
129.0399371888
 10
156.0186568443
 20
129.0502240155
 10
156.0466611574
 20
129.0590761501
 10
156.0745254016
 20
129.0664807196
 10
156.1020995813
 20
129.0723991053
 10
156.1293687099
 20
129.0768225265
 10
156.1563477739
 20
129.0797597639
 10
156.1829317365
 20
129.0811985398
 10
156.2091366954
 20
129.0811314032
 10
156.2349465529
 20
129.0795658053
 10
156.2602079791
 20
129.0765118219
 10
156.2848977325
 20
129.0719660375
 10
156.3090390546
 20
129.0659318676
 10
156.3325483409
 20
129.0584296348
 10
156.3554441211
 20
129.0494442202
 10
156.3750062054
 20
129.0403544871
  0
LINE
  5
26F
100
AcDbEntity
  8
21814000
100
AcDbLine
 62
7
  6
CONTINUOUS
 10
162.1632919592
 20
131.5839172631
 11
156.5098220687
 21
128.9729575182
  0
LINE
  5
270
100
AcDbEntity
  8
21814000
100
AcDbLine
 62
250
  6
CONTINUOUS
 10
162.5517494418
 20
131.5517029275
 11
156.7298361914
 21
128.8629504569
  0
LWPOLYLINE
  5
271
100
AcDbEntity
  8
21814000
100
AcDbPolyline
 62
250
  6
CONTINUOUS
 90
9
 70
0
 10
162.5517494418
 20
131.5517029275
 10
162.6057558433
 20
131.5747344434
 10
162.6594759164
 20
131.59197608
 10
162.7125117609
 20
131.6032408516
 10
162.7644976861
 20
131.6083847682
 10
162.814998936
 20
131.6072966292
 10
162.8635270722
 20
131.5999412339
 10
162.9097093649
 20
131.5863470844
 10
162.9431204553
 20
131.5718372132
  0
LWPOLYLINE
  5
272
100
AcDbEntity
  8
21814000
100
AcDbPolyline
 62
7
  6
CONTINUOUS
 90
12
 70
0
 10
162.1632919592
 20
131.5839172631
 10
162.2289194353
 20
131.6111369127
 10
162.2976182659
 20
131.6334126821
 10
162.3689257484
 20
131.6503120644
 10
162.4424823979
 20
131.6614763888
 10
162.5175103802
 20
131.6665481117
 10
162.5928963377
 20
131.6653272648
 10
162.6680818464
 20
131.6577771299
 10
162.7424392779
 20
131.6439304983
 10
162.8149606493
 20
131.6240208815
 10
162.8853126809
 20
131.5982314308
 10
162.9431528099
 20
131.5718210357
  0
LWPOLYLINE
  5
273
100
AcDbEntity
  8
21814000
100
AcDbPolyline
 62
250
  6
CONTINUOUS
 90
9
 70
0
 10
162.1632919592
 20
131.5839172631
 10
162.1912045847
 20
131.5953162427
 10
162.2377189977
 20
131.6082952957
 10
162.2865379504
 20
131.614872889
 10
162.3372900449
 20
131.6149989825
 10
162.3895891769
 20
131.6086726171
 10
162.4430374727
 20
131.5959419214
 10
162.497228316
 20
131.5769037462
 10
162.5517494418
 20
131.5517029275
  0
LINE
  5
274
100
AcDbEntity
  8
26814000
100
AcDbLine
 62
250
  6
CONTINUOUS
 10
154.3186007403
 20
83.4232188876
 11
154.2751784144
 21
83.4449300506
  0
LINE
  5
275
100
AcDbEntity
  8
26814000
100
AcDbLine
 62
7
  6
CONTINUOUS
 10
150.3847468371
 20
85.5041912546
 11
153.6650411961
 21
83.8640440752
  0
LINE
  5
276
100
AcDbEntity
  8
26814000
100
AcDbLine
 62
250
  6
CONTINUOUS
 10
154.230726621
 20
83.6224860331
 11
154.845845456
 21
83.3149266156
  0
LINE
  5
277
100
AcDbEntity
  8
26814000
100
AcDbLine
 62
7
  6
CONTINUOUS
 10
154.230726621
 20
83.6261061827
 11
154.8691248293
 21
83.3069070785
  0
LINE
  5
278
100
AcDbEntity
  8
26814000
100
AcDbLine
 62
7
  6
CONTINUOUS
 10
150.515146789
 20
87.0888987163
 11
153.6650411961
 21
85.5139515127
  0
LWPOLYLINE
  5
279
100
AcDbEntity
  8
21814000
100
AcDbPolyline
 62
250
  6
CONTINUOUS
 90
10
 70
0
 10
149.6143254625
 20
128.9956012202
 10
149.61958259
 20
129.0011287257
 10
149.624817058
 20
129.0058916833
 10
149.6300062644
 20
129.0098673118
 10
149.6351297024
 20
129.0130372128
 10
149.640162939
 20
129.015383541
 10
149.6450781341
 20
129.0168923921
 10
149.6498562556
 20
129.0175578543
 10
149.6544744592
 20
129.0173766746
 10
149.6565137741
 20
129.0170150076
  0
LWPOLYLINE
  5
27A
100
AcDbEntity
  8
21814000
100
AcDbPolyline
 62
250
  6
CONTINUOUS
 90
10
 70
0
 10
149.3577700915
 20
128.2770611829
 10
149.338729203
 20
128.2590016178
 10
149.3208811475
 20
128.2382911525
 10
149.3045928511
 20
128.2153555595
 10
149.2901991739
 20
128.1906663562
 10
149.2779960258
 20
128.1647311112
 10
149.2682342831
 20
128.1380830097
 10
149.2611146308
 20
128.1112698921
 10
149.2567834371
 20
128.084842991
 10
149.255329744
 20
128.0593455994
  0
LWPOLYLINE
  5
27B
100
AcDbEntity
  8
21814000
100
AcDbPolyline
 62
250
  6
CONTINUOUS
 90
10
 70
0
 10
150.1161756902
 20
127.8978583836
 10
150.0971342377
 20
127.8797981892
 10
150.0792858459
 20
127.8590871289
 10
150.0629974301
 20
127.8361510688
 10
150.0486038293
 20
127.8114616203
 10
150.0364008898
 20
127.7855263834
 10
150.0266394037
 20
127.7588785024
 10
150.0195199954
 20
127.7320657902
 10
150.0151889818
 20
127.7056394738
 10
150.0137353448
 20
127.6801427991
  0
LWPOLYLINE
  5
27C
100
AcDbEntity
  8
21814000
100
AcDbPolyline
 62
250
  6
CONTINUOUS
 90
16
 70
0
 10
148.8424585277
 20
127.9470851741
 10
148.8666878632
 20
127.9699481767
 10
148.8927291913
 20
127.9909674885
 10
148.9202844288
 20
128.0100664411
 10
148.9490533561
 20
128.027297225
 10
148.9787110384
 20
128.0425032957
 10
149.0089088751
 20
128.0553240648
 10
149.0393236082
 20
128.0657180746
 10
149.0696403834
 20
128.0737324852
 10
149.0995282856
 20
128.0791717016
 10
149.1286400295
 20
128.0820485946
 10
149.156750187
 20
128.0824594589
 10
149.1837196565
 20
128.0803385186
 10
149.2093240296
 20
128.0757033309
 10
149.2332713692
 20
128.0686757155
 10
149.255329744
 20
128.0593455994
  0
LINE
  5
27D
100
AcDbEntity
  8
21814000
100
AcDbLine
 62
250
  6
CONTINUOUS
 10
150.1341947123
 20
127.4361329047
 11
149.7075756735
 21
127.0411181459
  0
LINE
  5
27E
100
AcDbEntity
  8
21814000
100
AcDbLine
 62
7
  6
CONTINUOUS
 10
150.0373943413
 20
127.4359726649
 11
149.6448306363
 21
127.0724906645
  0
LINE
  5
27F
100
AcDbEntity
  8
26814000
100
AcDbLine
 62
7
  6
CONTINUOUS
 10
151.0216244211
 20
124.5982782227
 11
152.6043810243
 21
125.41026232
  0
LINE
  5
280
100
AcDbEntity
  8
26814000
100
AcDbLine
 62
7
  6
CONTINUOUS
 10
149.3475688449
 20
124.8051051551
 11
149.8466645777
 21
125.0570697357
  0
LINE
  5
281
100
AcDbEntity
  8
26814000
100
AcDbLine
 62
7
  6
CONTINUOUS
 10
149.8466645777
 20
125.0570697357
 11
155.2609372728
 21
127.737682333
  0
LINE
  5
282
100
AcDbEntity
  8
26814000
100
AcDbLine
 62
7
  6
CONTINUOUS
 10
152.6043810243
 20
125.41026232
 11
153.138830903
 21
125.6706097866
  0
LINE
  5
283
100
AcDbEntity
  8
21814000
100
AcDbLine
 62
7
  6
CONTINUOUS
 10
163.5229082754
 20
131.0661235106
 11
160.092504375
 21
129.4287866977
  0
LINE
  5
284
100
AcDbEntity
  8
26814000
100
AcDbLine
 62
7
  6
CONTINUOUS
 10
137.0833871773
 20
129.3489268268
 11
137.0833871773
 21
129.3245313215
  0
LINE
  5
285
100
AcDbEntity
  8
26814000
100
AcDbLine
 62
7
  6
CONTINUOUS
 10
137.4825804742
 20
130.7221778594
 11
137.4825804742
 21
130.9755492532
  0
LINE
  5
286
100
AcDbEntity
  8
21814000
100
AcDbLine
 62
250
  6
CONTINUOUS
 10
150.1672946371
 20
127.4698592864
 11
150.1341947123
 21
127.4361329047
  0
LWPOLYLINE
  5
287
100
AcDbEntity
  8
21814000
100
AcDbPolyline
 62
7
  6
CONTINUOUS
 90
13
 70
0
 10
160.5070818867
 20
128.3532081575
 10
160.3780970686
 20
128.2828544391
 10
160.2591837843
 20
128.2081963905
 10
160.1509149508
 20
128.1295937096
 10
160.0538122008
 20
128.0474250994
 10
159.9683433695
 20
127.9620864432
 10
159.8949202404
 20
127.8739888976
 10
159.8338965618
 20
127.7835569111
 10
159.785566342
 20
127.6912261796
 10
159.7501624331
 20
127.5974415469
 10
159.7278554091
 20
127.5026548617
 10
159.7187527436
 20
127.4073228005
 10
159.7185206219
 20
127.3894579191
  0
LINE
  5
288
100
AcDbEntity
  8
26814000
100
AcDbLine
 62
250
  6
CONTINUOUS
 10
154.7448074542
 20
124.1165577509
 11
160.1031342343
 21
127.0074979778
  0
LINE
  5
289
100
AcDbEntity
  8
26814000
100
AcDbLine
 62
250
  6
CONTINUOUS
 10
154.3781873009
 20
123.6703456247
 11
160.0189826667
 21
126.713684134
  0
LINE
  5
28A
100
AcDbEntity
  8
0
100
AcDbLine
 62
7
  6
CONTINUOUS
 10
160.1762510266
 20
127.0813060772
 11
160.8270246813
 21
127.4244718933
  0
LINE
  5
28B
100
AcDbEntity
  8
RACCORDO
100
AcDbLine
 62
250
  6
CONTINUOUS
 10
160.8268968993
 20
127.4244045064
 11
160.8270246813
 21
127.4244718933
  0
LINE
  5
28C
100
AcDbEntity
  8
26814000
100
AcDbLine
 62
250
  6
CONTINUOUS
 10
154.2897973461
 20
123.5350524435
 11
160.0189826667
 21
126.5014249799
  0
LINE
  5
28D
100
AcDbEntity
  8
26814000
100
AcDbLine
 62
7
  6
CONTINUOUS
 10
154.4095634768
 20
123.4751693782
 11
160.1011923791
 21
126.4220965098
  0
LINE
  5
28E
100
AcDbEntity
  8
21814000
100
AcDbLine
 62
7
  6
CONTINUOUS
 10
164.5192378651
 20
130.3946079502
 11
160.5070818867
 21
128.3532081575
  0
LINE
  5
28F
100
AcDbEntity
  8
26814000
100
AcDbLine
 62
7
  6
CONTINUOUS
 10
152.6294458302
 20
123.7943675181
 11
154.230726621
 21
124.5970895216
  0
LINE
  5
290
100
AcDbEntity
  8
0
100
AcDbLine
 62
7
  6
CONTINUOUS
 10
160.9553121101
 20
127.2013801619
 11
161.4502868569
 21
127.4488675353
  0
LINE
  5
291
100
AcDbEntity
  8
26814000
100
AcDbLine
 62
7
  6
CONTINUOUS
 10
154.230726621
 20
124.5970895216
 11
154.7589937928
 21
124.8605283417
  0
LINE
  5
292
100
AcDbEntity
  8
21814000
100
AcDbLine
 62
7
  6
CONTINUOUS
 10
164.5192378651
 20
129.9867566829
 11
160.5070818867
 21
128.0318838753
  0
LINE
  5
293
100
AcDbEntity
  8
26814000
100
AcDbLine
 62
250
  6
CONTINUOUS
 10
154.1412044111
 20
125.2314004034
 11
158.9130433892
 21
127.5254758898
  0
LINE
  5
294
100
AcDbEntity
  8
26814000
100
AcDbLine
 62
250
  6
CONTINUOUS
 10
154.3688199109
 20
125.1175926535
 11
159.3548842572
 21
127.5146576095
  0
LWPOLYLINE
  5
295
100
AcDbEntity
  8
RACCORDO
100
AcDbPolyline
 62
250
  6
CONTINUOUS
 90
22
 70
0
 10
148.625925984
 20
120.035894602
 10
148.5496767778
 20
120.0042786503
 10
148.4733134823
 20
119.9660186744
 10
148.3972179068
 20
119.9213118372
 10
148.3217695208
 20
119.8703924272
 10
148.247346239
 20
119.813517391
 10
148.1743230558
 20
119.7509623697
 10
148.1030565273
 20
119.683035387
 10
148.0339129872
 20
119.6100891539
 10
147.9672678703
 20
119.5325083438
 10
147.9034668894
 20
119.4507070549
 10
147.8428124805
 20
119.3650874844
 10
147.7855954696
 20
119.2760475096
 10
147.7320933106
 20
119.1840163437
 10
147.6825882223
 20
119.0894791281
 10
147.6373508441
 20
118.9929384653
 10
147.5966133661
 20
118.8948994545
 10
147.5605701039
 20
118.7958450785
 10
147.5294001744
 20
118.6962571389
 10
147.5032612045
 20
118.5966332905
 10
147.4822857263
 20
118.4974849316
 10
147.4665802347
 20
118.3993143474
  0
LINE
  5
296
100
AcDbEntity
  8
RACCORDO
100
AcDbLine
 62
250
  6
CONTINUOUS
 10
152.7184507512
 20
121.5069995345
 11
148.625925984
 21
120.035894602
  0
LINE
  5
297
100
AcDbEntity
  8
26814000
100
AcDbLine
 62
7
  6
CONTINUOUS
 10
152.8518683977
 20
121.4402907112
 11
153.6650411961
 21
121.7245923791
  0
LINE
  5
298
100
AcDbEntity
  8
26814000
100
AcDbLine
 62
7
  6
CONTINUOUS
 10
137.8965599756
 20
128.9179449223
 11
137.8965599756
 21
128.8484687383
  0
LINE
  5
299
100
AcDbEntity
  8
26814000
100
AcDbLine
 62
7
  6
CONTINUOUS
 10
138.1855734285
 20
129.8156186048
 11
138.1855734285
 21
130.2679495804
  0
LINE
  5
29A
100
AcDbEntity
  8
26814000
100
AcDbLine
 62
7
  6
CONTINUOUS
 10
139.0883569364
 20
130.1726610221
 11
139.0883569364
 21
129.9192896283
  0
LINE
  5
29B
100
AcDbEntity
  8
26814000
100
AcDbLine
 62
7
  6
CONTINUOUS
 10
139.7995775445
 20
129.0086165468
 11
139.7995775445
 21
129.6457861055
  0
LWPOLYLINE
  5
29C
100
AcDbEntity
  8
26814000
100
AcDbPolyline
 62
7
  6
CONTINUOUS
 90
5
 70
0
 10
160.1014008728
 20
126.422194821
 10
160.1016353097
 20
126.4223278228
 10
160.1025625456
 20
126.4231554942
 10
160.1030689631
 20
126.4242065656
 10
160.1031807084
 20
126.4251508098
  0
LINE
  5
29D
100
AcDbEntity
  8
26814000
100
AcDbLine
 62
250
  6
CONTINUOUS
 10
154.3721479773
 20
122.7943280359
 11
152.6043810243
 21
121.8915503365
  0
LINE
  5
29E
100
AcDbEntity
  8
26814000
100
AcDbLine
 62
250
  6
CONTINUOUS
 10
154.6196353507
 20
122.367463916
 11
152.8518683977
 21
121.4646862165
  0
LINE
  5
29F
100
AcDbEntity
  8
26814000
100
AcDbLine
 62
7
  6
CONTINUOUS
 10
154.230726621
 20
122.8650387141
 11
153.1638957089
 21
122.3264574645
  0
LINE
  5
2A0
100
AcDbEntity
  8
RACCORDO
100
AcDbLine
 62
7
  6
CONTINUOUS
 10
163.9184647695
 20
127.6293673876
 11
162.6070004584
 21
126.9736352321
  0
LINE
  5
2A1
100
AcDbEntity
  8
RACCORDO
100
AcDbLine
 62
7
  6
CONTINUOUS
 10
164.7669954772
 20
127.205104604
 11
163.888102826
 21
126.7656582784
  0
LINE
  5
2A2
100
AcDbEntity
  8
26814000
100
AcDbLine
 62
250
  6
CONTINUOUS
 10
155.0792547585
 20
123.1403237373
 11
154.3721479773
 21
122.7943280359
  0
LINE
  5
2A3
100
AcDbEntity
  8
26814000
100
AcDbLine
 62
250
  6
CONTINUOUS
 10
155.3267421319
 20
122.7134596174
 11
154.6196353507
 21
122.367463916
  0
LINE
  5
2A4
100
AcDbEntity
  8
21814000
100
AcDbLine
 62
7
  6
CONTINUOUS
 10
160.6849843064
 20
125.922579792
 11
155.0191197376
 21
123.1703912478
  0
LINE
  5
2A5
100
AcDbEntity
  8
21814000
100
AcDbLine
 62
7
  6
CONTINUOUS
 10
169.0302432906
 20
128.3124560031
 11
161.4376783904
 21
124.624374531
  0
LINE
  5
2A6
100
AcDbEntity
  8
21814000
100
AcDbLine
 62
7
  6
CONTINUOUS
 10
168.2245713546
 20
128.7152919711
 11
164.8034252848
 21
127.0733262428
  0
LWPOLYLINE
  5
2A7
100
AcDbEntity
  8
RACCORDO
100
AcDbPolyline
 62
7
  6
CONTINUOUS
 90
10
 70
0
 10
164.7669665813
 20
127.2050901561
 10
164.7783630456
 20
127.2102588113
 10
164.7895834481
 20
127.2143107077
 10
164.8006277888
 20
127.2172458452
 10
164.8115910477
 20
127.2190643766
 10
164.8223782448
 20
127.2197661491
 10
164.8327044403
 20
127.2193507047
 10
164.842474654
 20
127.2178178908
 10
164.851783866
 20
127.2151678601
 10
164.8606320764
 20
127.2114006125
  0
LWPOLYLINE
  5
2A8
100
AcDbEntity
  8
21814000
100
AcDbPolyline
 62
7
  6
CONTINUOUS
 90
9
 70
0
 10
169.0302432906
 20
128.3124560031
 10
169.0863891683
 20
128.3377190414
 10
169.1396218792
 20
128.3571715338
 10
169.1894923397
 20
128.3708011448
 10
169.2354631094
 20
128.3787088323
 10
169.277255071
 20
128.3809418102
 10
169.3148479811
 20
128.3774847959
 10
169.3478822696
 20
128.3685481918
 10
169.3624442201
 20
128.3621751339
  0
LWPOLYLINE
  5
2A9
100
AcDbEntity
  8
RACCORDO
100
AcDbPolyline
 62
250
  6
CONTINUOUS
 90
22
 70
0
 10
149.1224722187
 20
119.030941145
 10
149.0862775099
 20
119.0163594303
 10
149.0503376686
 20
118.9988562477
 10
149.0146526949
 20
118.9784315972
 10
148.979029605
 20
118.9549482906
 10
148.9436613826
 20
118.9285435161
 10
148.9091269793
 20
118.8996288378
 10
148.8754515217
 20
118.868168403
 10
148.8426098832
 20
118.8341980645
 10
148.811105635
 20
118.798236944
 10
148.7809642657
 20
118.7602611336
 10
148.7521602867
 20
118.7202945413
 10
148.725120803
 20
118.6789280134
 10
148.6998670293
 20
118.6361304189
 10
148.6763777508
 20
118.5919328888
 10
148.6550164284
 20
118.5470196629
 10
148.6358173527
 20
118.5013690909
 10
148.618746233
 20
118.4550028231
 10
148.604063659
 20
118.4086700504
 10
148.5918564937
 20
118.3626205031
 10
148.5820378741
 20
118.316604451
 10
148.5746078
 20
118.270621894
  0
LINE
  5
2AA
100
AcDbEntity
  8
RACCORDO
100
AcDbLine
 62
250
  6
CONTINUOUS
 10
153.2661078796
 20
120.520418474
 11
149.1224722187
 21
119.030941145
  0
LINE
  5
2AB
100
AcDbEntity
  8
26814000
100
AcDbLine
 62
7
  6
CONTINUOUS
 10
140.8664084566
 20
129.5471977963
 11
140.8664084566
 21
131.2792486038
  0
LINE
  5
2AC
100
AcDbEntity
  8
26814000
100
AcDbLine
 62
7
  6
CONTINUOUS
 10
141.5694014109
 20
131.4145701016
 11
141.5694014109
 21
131.1536411252
  0
LINE
  5
2AD
100
AcDbEntity
  8
21814000
100
AcDbLine
 62
250
  6
CONTINUOUS
 10
169.7887499855
 20
126.4171234952
 11
155.3267421319
 21
118.9291997299
  0
LINE
  5
2AE
100
AcDbEntity
  8
21814000
100
AcDbLine
 62
250
  6
CONTINUOUS
 10
169.4497865016
 20
127.5888510016
 11
155.3267421319
 21
120.5669948033
  0
LWPOLYLINE
  5
2AF
100
AcDbEntity
  8
RACCORDO
100
AcDbPolyline
 62
250
  6
CONTINUOUS
 90
14
 70
0
 10
144.4506233571
 20
81.7473884843
 10
144.4506387961
 20
81.6548902446
 10
144.4560806865
 20
81.5652742753
 10
144.4669214116
 20
81.4789930889
 10
144.483107229
 20
81.3964849113
 10
144.5045554954
 20
81.3181624726
 10
144.5311574787
 20
81.2444129592
 10
144.5627873701
 20
81.1756003594
 10
144.5992845666
 20
81.1120835922
 10
144.6404489841
 20
81.0542024066
 10
144.6860635277
 20
81.0022550893
 10
144.7359059487
 20
80.9564871026
 10
144.7897362281
 20
80.9171163783
 10
144.8447072273
 20
80.8856317703
  0
LINE
  5
2B0
100
AcDbEntity
  8
26814000
100
AcDbLine
 62
7
  6
CONTINUOUS
 10
143.0441654596
 20
129.0211846645
 11
143.0441654596
 21
127.8064512783
  0
LINE
  5
2B1
100
AcDbEntity
  8
26814000
100
AcDbLine
 62
250
  6
CONTINUOUS
 10
143.1320334252
 20
128.9146757077
 11
143.1320334252
 21
127.6997208416
  0
LINE
  5
2B2
100
AcDbEntity
  8
26814000
100
AcDbLine
 62
7
  6
CONTINUOUS
 10
154.845845456
 20
124.239530755
 11
154.3186007403
 21
123.597823027
  0
LWPOLYLINE
  5
2B3
100
AcDbEntity
  8
21814000
100
AcDbPolyline
 62
250
  6
CONTINUOUS
 90
32
 70
0
 10
169.8964092756
 20
120.8708263732
 10
169.9165003806
 20
120.8767730586
 10
169.9358201803
 20
120.8806241649
 10
169.9543457995
 20
120.8824067049
 10
169.9720407994
 20
120.8820228015
 10
169.9888795318
 20
120.879639949
 10
170.004856724
 20
120.8756805635
 10
170.0198964682
 20
120.8702193695
 10
170.0340101113
 20
120.8632519427
 10
170.0473326415
 20
120.8550722393
 10
170.059847759
 20
120.8457773498
 10
170.0715035372
 20
120.8353479989
 10
170.0823836825
 20
120.823903244
 10
170.0924873415
 20
120.8115191621
 10
170.1017361278
 20
120.7982162536
 10
170.1100943623
 20
120.7840360381
 10
170.1175428804
 20
120.7690560102
 10
170.1240110101
 20
120.7533161915
 10
170.1293811735
 20
120.7368096933
 10
170.1336286856
 20
120.7196534771
 10
170.1366784271
 20
120.7018717171
 10
170.1383247211
 20
120.6833366101
 10
170.1385581721
 20
120.6642091985
 10
170.1372639235
 20
120.6445174161
 10
170.1340476926
 20
120.6239773991
 10
170.1289061643
 20
120.6027845261
 10
170.1216688081
 20
120.5810259158
 10
170.1116440304
 20
120.5583244468
 10
170.0988372866
 20
120.5349575342
 10
170.0830099782
 20
120.5110585851
 10
170.0630486544
 20
120.4861220033
 10
170.0413441652
 20
120.4630822725
  0
LWPOLYLINE
  5
2B4
100
AcDbEntity
  8
RACCORDO
100
AcDbPolyline
 62
250
  6
CONTINUOUS
 90
22
 70
0
 10
145.566693474
 20
81.7164344999
 10
145.5667688241
 20
81.6731050163
 10
145.5693669084
 20
81.6314491098
 10
145.5744877271
 20
81.5914667802
 10
145.5821811952
 20
81.5529539105
 10
145.5923973976
 20
81.5161146179
 10
145.6049865889
 20
81.4815612535
 10
145.6199871001
 20
81.4493446114
 10
145.6373606003
 20
81.4194138975
 10
145.6568423516
 20
81.3922290811
 10
145.6784608311
 20
81.367836144
 10
145.7021875617
 20
81.3461891043
 10
145.7276723748
 20
81.3276099849
 10
145.7549483448
 20
81.3121421292
 10
145.7839823972
 20
81.2997421939
 10
145.8143251397
 20
81.2906021722
 10
145.8460061873
 20
81.2847791761
 10
145.8789959249
 20
81.2822160936
 10
145.9127561154
 20
81.2829335819
 10
145.9471073462
 20
81.2869385266
 10
145.9822290298
 20
81.294224042
 10
146.0181211663
 20
81.3047901282
  0
LWPOLYLINE
  5
2B5
100
AcDbEntity
  8
RACCORDO
100
AcDbPolyline
 62
250
  6
CONTINUOUS
 90
13
 70
0
 10
147.4665802347
 20
118.3993143474
 10
147.0624259629
 20
115.2951550484
 10
146.6859238705
 20
112.1987363442
 10
146.337121986
 20
109.1104568517
 10
146.0160647316
 20
106.0307142017
 10
145.722793318
 20
102.9599046661
 10
145.4573457422
 20
99.8984231081
 10
145.219756388
 20
96.8466633292
 10
145.0100555967
 20
93.8050181092
 10
144.828270069
 20
90.7738788355
 10
144.674423288
 20
87.7536354378
 10
144.5485355129
 20
84.7446763363
 10
144.4506233571
 20
81.7473884843
  0
LWPOLYLINE
  5
2B6
100
AcDbEntity
  8
21814000
100
AcDbPolyline
 62
7
  6
CONTINUOUS
 90
9
 70
0
 10
150.1012557572
 20
127.5328543983
 10
150.0996727631
 20
127.5250373207
 10
150.0962504028
 20
127.5147657135
 10
150.0904866642
 20
127.5022093644
 10
150.0821679086
 20
127.4879679449
 10
150.0714892945
 20
127.4729086913
 10
150.0586747402
 20
127.4575393182
 10
150.0438314564
 20
127.4420888151
 10
150.0373945194
 20
127.4359724717
  0
LWPOLYLINE
  5
2B7
100
AcDbEntity
  8
RACCORDO
100
AcDbPolyline
 62
250
  6
CONTINUOUS
 90
47
 70
0
 10
160.39224343
 20
126.9882133976
 10
160.4311762043
 20
127.0402553924
 10
160.4804594226
 20
127.0970360699
 10
160.5355930972
 20
127.1526266842
 10
160.5960965756
 20
127.2065692065
 10
160.6619689272
 20
127.258822106
 10
160.7332110825
 20
127.3094269134
 10
160.8093451802
 20
127.358050192
 10
160.8903618092
 20
127.4046779345
 10
160.9762703806
 20
127.4493241481
 10
161.0666212663
 20
127.4916974172
 10
161.1616715465
 20
127.5318566152
 10
161.261164141
 20
127.5697428687
 10
161.3638781813
 20
127.6048881418
 10
161.4702190501
 20
127.6372658617
 10
161.5797813647
 20
127.6669026013
 10
161.6901281091
 20
127.6934100435
 10
161.801232626
 20
127.7166094369
 10
161.9131215727
 20
127.736679533
 10
162.0234379048
 20
127.7537682687
 10
162.1318283947
 20
127.7677421646
 10
162.23864627
 20
127.7787347002
 10
162.3425941691
 20
127.7872942514
 10
162.4434300036
 20
127.793396821
 10
162.5413958618
 20
127.7970664062
 10
162.6359206482
 20
127.798923375
 10
162.7268423883
 20
127.7989892438
 10
162.8143230564
 20
127.7972424963
 10
162.8982774798
 20
127.7942389509
 10
162.9785815532
 20
127.7900201503
 10
163.0553593818
 20
127.7845445518
 10
163.1288981083
 20
127.7782433462
 10
163.1991646419
 20
127.7711573124
 10
163.2661920735
 20
127.7632456715
 10
163.3303668176
 20
127.7548172773
 10
163.3916745645
 20
127.7459066368
 10
163.4501296239
 20
127.736479243
 10
163.5061613404
 20
127.7267404292
 10
163.5597659239
 20
127.7167189074
 10
163.6109471646
 20
127.7063859657
 10
163.6601457769
 20
127.695860801
 10
163.7073649218
 20
127.6851662618
 10
163.7526014384
 20
127.6742794997
 10
163.7962865583
 20
127.6632511661
 10
163.8385640253
 20
127.6520981447
 10
163.8792900958
 20
127.6408035519
 10
163.9184647695
 20
127.6293673876
  0
LWPOLYLINE
  5
2B8
100
AcDbEntity
  8
RACCORDO
100
AcDbPolyline
 62
250
  6
CONTINUOUS
 90
10
 70
0
 10
160.3105895605
 20
127.0218710397
 10
160.3128842485
 20
127.0249310504
 10
160.3657468996
 20
127.0856481484
 10
160.4248257701
 20
127.1449073657
 10
160.4899185496
 20
127.2025152988
 10
160.5607943814
 20
127.2582887665
 10
160.6372875192
 20
127.312116702
 10
160.7192789229
 20
127.3639178857
 10
160.8065275199
 20
127.413535525
 10
160.8268968993
 20
127.4244045064
  0
LINE
  5
2B9
100
AcDbEntity
  8
21814000
100
AcDbLine
 62
250
  6
CONTINUOUS
 10
148.8424585277
 20
127.9470851741
 11
148.8424585277
 21
127.4736767188
  0
LINE
  5
2BA
100
AcDbEntity
  8
26814000
100
AcDbLine
 62
250
  6
CONTINUOUS
 10
148.9245424933
 20
124.8034663075
 11
148.9245424933
 21
126.0184211736
  0
LWPOLYLINE
  5
2BB
100
AcDbEntity
  8
RACCORDO
100
AcDbPolyline
 62
250
  6
CONTINUOUS
 90
16
 70
0
 10
149.1224722187
 20
119.030941145
 10
149.1251093615
 20
119.1074344448
 10
149.121685202
 20
119.1862468085
 10
149.1122372128
 20
119.2665150281
 10
149.0968688447
 20
119.3473599451
 10
149.0757483958
 20
119.4278960713
 10
149.0491071708
 20
119.5072412874
 10
149.0172369421
 20
119.5845265235
 10
148.9804867611
 20
119.6589052574
 10
148.939259143
 20
119.7295627811
 10
148.8940056375
 20
119.7957251634
 10
148.8452218971
 20
119.8566676976
 10
148.7934422646
 20
119.9117228284
 10
148.7392338898
 20
119.9602875044
 10
148.6831905137
 20
120.0018297764
 10
148.625925986
 20
120.0358946027
  0
LINE
  5
2BC
100
AcDbEntity
  8
21814000
100
AcDbLine
 62
7
  6
CONTINUOUS
 10
150.1015983432
 20
127.5377247509
 11
150.1012557572
 21
127.5328543983
  0
LWPOLYLINE
  5
2BD
100
AcDbEntity
  8
RACCORDO
100
AcDbPolyline
 62
250
  6
CONTINUOUS
 90
7
 70
0
 10
146.5706963772
 20
99.8190751317
 10
146.3337557993
 20
96.7755752232
 10
146.1245986047
 20
93.7417695593
 10
145.9433056857
 20
90.7188349719
 10
145.7899040062
 20
87.7071637381
 10
145.6643666024
 20
84.7063635808
 10
145.566693474
 20
81.7164344999
  0
LWPOLYLINE
  5
2BE
100
AcDbEntity
  8
RACCORDO
100
AcDbPolyline
 62
250
  6
CONTINUOUS
 90
7
 70
0
 10
148.5746078
 20
118.270621894
 10
148.171447802
 20
115.1740946446
 10
147.7959577083
 20
112.0860751775
 10
147.448137519
 20
109.0065634926
 10
147.1279494078
 20
105.9351641026
 10
146.8354312008
 20
102.8722724948
 10
146.5706963772
 20
99.8190751317
  0
LINE
  5
2BF
100
AcDbEntity
  8
26814000
100
AcDbLine
 62
7
  6
CONTINUOUS
 10
151.7439748738
 20
102.0224397744
 11
151.9326295822
 21
101.9281124202
  0
LWPOLYLINE
  5
2C0
100
AcDbEntity
  8
26814000
100
AcDbPolyline
 62
7
  6
CONTINUOUS
 90
13
 70
0
 10
160.0997610917
 20
89.4983755379
 10
160.0968699266
 20
89.5022687289
 10
160.0931811624
 20
89.506651069
 10
160.0887211985
 20
89.5114083619
 10
160.0835283402
 20
89.5165482165
 10
160.0776456831
 20
89.5220955753
 10
160.0710851489
 20
89.5279631739
 10
160.0638782457
 20
89.5341604818
 10
160.0560611
 20
89.5407056064
 10
160.0476371606
 20
89.5475264826
 10
160.0386242692
 20
89.5546085074
 10
160.0290624238
 20
89.5619921506
 10
160.0189826667
 20
89.5696887053
  0
LINE
  5
2C1
100
AcDbEntity
  8
26814000
100
AcDbLine
 62
7
  6
CONTINUOUS
 10
151.0785821709
 20
93.9361424549
 11
151.6594161797
 21
88.5223168813
  0
LINE
  5
2C2
100
AcDbEntity
  8
21814000
100
AcDbLine
 62
7
  6
CONTINUOUS
 10
150.1016032719
 20
127.5377818782
 11
150.1016033074
 21
127.5376829019
  0
LINE
  5
2C3
100
AcDbEntity
  8
21814000
100
AcDbLine
 62
250
  6
CONTINUOUS
 10
149.255329744
 20
128.0593455994
 11
149.255329744
 21
127.2672411107
  0
LINE
  5
2C4
100
AcDbEntity
  8
26814000
100
AcDbLine
 62
7
  6
CONTINUOUS
 10
149.2809791527
 20
129.0564401421
 11
149.2809791527
 21
130.3067110013
  0
LINE
  5
2C5
100
AcDbEntity
  8
26814000
100
AcDbLine
 62
250
  6
CONTINUOUS
 10
149.3475688449
 20
124.8051051551
 11
149.3475688449
 21
126.0193086279
  0
LINE
  5
2C6
100
AcDbEntity
  8
26814000
100
AcDbLine
 62
7
  6
CONTINUOUS
 10
149.6345325433
 20
129.5773761167
 11
149.6345325433
 21
130.129934306
  0
LINE
  5
2C7
100
AcDbEntity
  8
26814000
100
AcDbLine
 62
250
  6
CONTINUOUS
 10
149.7052432214
 20
131.7461426035
 11
149.7052432214
 21
130.5143084221
  0
LINE
  5
2C8
100
AcDbEntity
  8
26814000
100
AcDbLine
 62
7
  6
CONTINUOUS
 10
149.7931111871
 20
131.8511398175
 11
149.7931111871
 21
130.6187712126
  0
LINE
  5
2C9
100
AcDbEntity
  8
26814000
100
AcDbLine
 62
7
  6
CONTINUOUS
 10
149.8466645777
 20
126.269505301
 11
149.8466645777
 21
125.0570697357
  0
LINE
  5
2CA
100
AcDbEntity
  8
21814000
100
AcDbLine
 62
250
  6
CONTINUOUS
 10
150.0137353426
 20
127.6801428001
 11
150.0137353426
 21
127.4140666148
  0
LINE
  5
2CB
100
AcDbEntity
  8
26814000
100
AcDbLine
 62
7
  6
CONTINUOUS
 10
150.8468986386
 20
82.4870432441
 11
150.8468986386
 21
82.7404146378
  0
LINE
  5
2CC
100
AcDbEntity
  8
26814000
100
AcDbLine
 62
7
  6
CONTINUOUS
 10
150.8468986386
 20
124.0400187772
 11
150.8468986386
 21
124.293390171
  0
LWPOLYLINE
  5
2CD
100
AcDbEntity
  8
RACCORDO
100
AcDbPolyline
 62
250
  6
CONTINUOUS
 90
11
 70
0
 10
146.0181211663
 20
81.3047901282
 10
146.0083989845
 20
81.2310855355
 10
145.9927507493
 20
81.1613450408
 10
145.971347856
 20
81.0963325133
 10
145.9444247312
 20
81.036760037
 10
145.9122762646
 20
80.9832801108
 10
145.875254579
 20
80.9364785016
 10
145.8337651741
 20
80.8968678288
 10
145.7882624843
 20
80.8648819489
 10
145.7392449017
 20
80.8408712043
 10
145.7237666261
 20
80.8352082492
  0
LINE
  5
2CE
100
AcDbEntity
  8
21814000
100
AcDbLine
 62
7
  6
CONTINUOUS
 10
170.0413441652
 20
120.4481620549
 11
171.1120672591
 21
121.1406967121
  0
LINE
  5
2CF
100
AcDbEntity
  8
26814000
100
AcDbLine
 62
7
  6
CONTINUOUS
 10
151.9326295822
 20
101.9281124202
 11
153.6650411961
 21
85.5139515127
  0
LWPOLYLINE
  5
2D0
100
AcDbEntity
  8
26814000
100
AcDbPolyline
 62
7
  6
CONTINUOUS
 90
24
 70
0
 10
152.3922489899
 20
130.62081685
 10
152.3916758055
 20
130.6552892562
 10
152.3899766925
 20
130.6890391771
 10
152.387151651
 20
130.7220666129
 10
152.3831912164
 20
130.7544281703
 10
152.3781048533
 20
130.7860672425
 10
152.3719209549
 20
130.816814009
 10
152.3646383395
 20
130.8466495365
 10
152.3562581888
 20
130.8755927582
 10
152.3468124416
 20
130.9035306542
 10
152.3362885831
 20
130.930476817
 10
152.324699128
 20
130.9564176539
 10
152.3121135593
 20
130.9811993668
 10
152.2985383734
 20
131.0047966682
 10
152.2839670739
 20
131.0272348455
 10
152.2684496538
 20
131.0484359628
 10
152.2519663665
 20
131.0684130527
 10
152.2345369586
 20
131.0871530825
 10
152.216270664
 20
131.1045390181
 10
152.1971820081
 20
131.1205479444
 10
152.1772564654
 20
131.1352027765
 10
152.1565596929
 20
131.1484552249
 10
152.1350671783
 20
131.1603110862
 10
148.9058659121
 20
132.7749355965
  0
LINE
  5
2D1
100
AcDbEntity
  8
26814000
100
AcDbLine
 62
7
  6
CONTINUOUS
 10
151.5498915929
 20
123.1334595225
 11
151.5498915929
 21
123.5857904982
  0
LINE
  5
2D2
100
AcDbEntity
  8
26814000
100
AcDbLine
 62
7
  6
CONTINUOUS
 10
152.3922489899
 20
130.62081685
 11
152.3922489899
 21
130.3500165574
  0
LINE
  5
2D3
100
AcDbEntity
  8
26814000
100
AcDbLine
 62
7
  6
CONTINUOUS
 10
152.4526751008
 20
123.4905019399
 11
152.4526751008
 21
123.2371305461
  0
LINE
  5
2D4
100
AcDbEntity
  8
26814000
100
AcDbLine
 62
7
  6
CONTINUOUS
 10
152.4526751008
 20
81.9375264068
 11
152.4526751008
 21
81.684155013
  0
LINE
  5
2D5
100
AcDbEntity
  8
26814000
100
AcDbLine
 62
7
  6
CONTINUOUS
 10
152.8518683977
 20
121.4646862165
 11
152.8518683977
 21
121.4402907112
  0
LINE
  5
2D6
100
AcDbEntity
  8
26814000
100
AcDbLine
 62
7
  6
CONTINUOUS
 10
152.8518683977
 20
83.3351729447
 11
152.8518683977
 21
83.3107774394
  0
LINE
  5
2D7
100
AcDbEntity
  8
26814000
100
AcDbLine
 62
7
  6
CONTINUOUS
 10
153.1638957089
 20
82.9140228839
 11
153.1638957089
 21
83.3186449749
  0
LINE
  5
2D8
100
AcDbEntity
  8
26814000
100
AcDbLine
 62
7
  6
CONTINUOUS
 10
153.1638957089
 20
122.3264574645
 11
153.1638957089
 21
122.9636270233
  0
LINE
  5
2D9
100
AcDbEntity
  8
RACCORDO
100
AcDbLine
 62
7
  6
CONTINUOUS
 10
150.1543571099
 20
82.7043411426
 11
153.2661078796
 21
120.520418474
  0
LINE
  5
2DA
100
AcDbEntity
  8
26814000
100
AcDbLine
 62
7
  6
CONTINUOUS
 10
153.6650411961
 20
120.0746849416
 11
151.9326295822
 21
101.9281124202
  0
LWPOLYLINE
  5
2DB
100
AcDbEntity
  8
21814000
100
AcDbPolyline
 62
250
  6
CONTINUOUS
 90
28
 70
0
 10
169.7887499855
 20
120.7417685017
 10
169.8050284614
 20
120.7562343906
 10
169.8210810879
 20
120.7683887343
 10
169.8368746624
 20
120.778234723
 10
169.8524057662
 20
120.7858222429
 10
169.8676061856
 20
120.7911067613
 10
169.8823541849
 20
120.7939450476
 10
169.8966477425
 20
120.7941631047
 10
169.9104337419
 20
120.7919287918
 10
169.9235444217
 20
120.7876005026
 10
169.9359276369
 20
120.7811032896
 10
169.9476307131
 20
120.7724891635
 10
169.9586558573
 20
120.7623007233
 10
169.9689724398
 20
120.7505963299
 10
169.9786066978
 20
120.7372961359
 10
169.9876291116
 20
120.7227391955
 10
169.996018529
 20
120.706973092
 10
170.003757333
 20
120.6899352512
 10
170.0108858141
 20
120.6718052685
 10
170.0173709134
 20
120.6525872245
 10
170.023166999
 20
120.6322639797
 10
170.0282620269
 20
120.6109863303
 10
170.03260201
 20
120.5887522008
 10
170.0361323074
 20
120.5655460162
 10
170.0388096969
 20
120.541498507
 10
170.0405609202
 20
120.5166256155
 10
170.0413181933
 20
120.4908842885
 10
170.0413438014
 20
120.4858236661
  0
LWPOLYLINE
  5
2DC
100
AcDbEntity
  8
21814000
100
AcDbPolyline
 62
7
  6
CONTINUOUS
 90
76
 70
0
 10
169.8964092756
 20
120.8708263732
 10
169.9584227039
 20
120.9224445789
 10
170.0187325969
 20
120.9730752194
 10
170.0773389546
 20
121.0227182949
 10
170.1342025437
 20
121.0713428539
 10
170.1893625974
 20
121.1189798478
 10
170.2429368158
 20
121.1657221306
 10
170.2949320395
 20
121.2115726462
 10
170.3453414278
 20
121.2565284507
 10
170.3942621584
 20
121.3006735667
 10
170.4416990949
 20
121.3440085253
 10
170.4876473737
 20
121.3865327953
 10
170.5321895814
 20
121.4283288061
 10
170.5753314707
 20
121.4693966034
 10
170.617067289
 20
121.5097361415
 10
170.6574623647
 20
121.5494297117
 10
170.6965241857
 20
121.5884768351
 10
170.7342452641
 20
121.6268779907
 10
170.770668465
 20
121.6647169068
 10
170.8058044899
 20
121.7019925006
 10
170.8396426372
 20
121.7387058549
 10
170.8721936675
 20
121.7749439469
 10
170.9034757459
 20
121.8107069771
 10
170.9334707073
 20
121.8459947451
 10
170.9621348172
 20
121.8808936268
 10
170.9894988279
 20
121.9154062077
 10
171.0155319872
 20
121.9495299023
 10
171.0400983044
 20
121.98334333
 10
171.0632667572
 20
122.0168916956
 10
171.0849683679
 20
122.0501297942
 10
171.1048602125
 20
122.0830006306
 10
171.1230184362
 20
122.115621271
 10
171.1393668939
 20
122.1478746492
 10
171.1533342255
 20
122.1793525708
 10
171.164873672
 20
122.2100684285
 10
171.1740319925
 20
122.2400088295
 10
171.1803781045
 20
122.2687254021
 10
171.1838027602
 20
122.2961777784
 10
171.1844152074
 20
122.3224063263
 10
171.1821121077
 20
122.3470837768
 10
171.1767279813
 20
122.370172395
 10
171.168428308
 20
122.3917099158
 10
171.1576061894
 20
122.4114822752
 10
171.1441854127
 20
122.4293604814
 10
171.1282421906
 20
122.445473526
 10
171.1103982623
 20
122.4599943206
 10
171.0907337892
 20
122.4728723819
 10
171.0691686099
 20
122.4841581931
 10
171.0460839803
 20
122.4941761155
 10
171.0215542021
 20
122.502954576
 10
170.9955049736
 20
122.5104651476
 10
170.9680946449
 20
122.5169469114
 10
170.9393585399
 20
122.522431484
 10
170.9092613346
 20
122.5268872488
 10
170.877855408
 20
122.5304584361
 10
170.8451601411
 20
122.5331654275
 10
170.8111561527
 20
122.5349878413
 10
170.7758376781
 20
122.5360087634
 10
170.7392169369
 20
122.5362413561
 10
170.7012817094
 20
122.535672457
 10
170.6619895719
 20
122.5343456647
 10
170.621346076
 20
122.5322695674
 10
170.57934567
 20
122.529435577
 10
170.5359292743
 20
122.525861528
 10
170.4911010268
 20
122.5215531391
 10
170.4448567896
 20
122.5165046916
 10
170.3971250699
 20
122.5107168638
 10
170.3479164773
 20
122.5041950698
 10
170.2972204022
 20
122.4969338955
 10
170.2449335232
 20
122.4889177771
 10
170.1910627342
 20
122.4801517577
 10
170.1356011414
 20
122.4706307942
 10
170.078424742
 20
122.4603241927
 10
170.0194922019
 20
122.4492217221
 10
169.9588448553
 20
122.4373336135
 10
169.8964827022
 20
122.424659867
  0
LWPOLYLINE
  5
2DD
100
AcDbEntity
  8
26814000
100
AcDbPolyline
 62
7
  6
CONTINUOUS
 90
31
 70
0
 10
154.6196353507
 20
122.367463916
 10
154.6192956832
 20
122.3834969481
 10
154.6182792457
 20
122.3998255173
 10
154.6165885124
 20
122.4164047205
 10
154.6142275078
 20
122.4331888201
 10
154.6112026962
 20
122.4501318141
 10
154.6075229637
 20
122.4671875625
 10
154.6031981107
 20
122.4843091811
 10
154.5982396808
 20
122.501449592
 10
154.5926618303
 20
122.5185620967
 10
154.586479586
 20
122.5355996666
 10
154.5797095958
 20
122.5525154587
 10
154.5723709374
 20
122.5692633663
 10
154.5644834954
 20
122.5857973735
 10
154.5560686115
 20
122.6020720262
 10
154.5471498164
 20
122.6180429445
 10
154.5377513626
 20
122.6336662585
 10
154.5278987609
 20
122.6488990225
 10
154.5176194155
 20
122.6636996767
 10
154.5069413501
 20
122.6780275779
 10
154.4958936163
 20
122.6918433461
 10
154.484506817
 20
122.7051092661
 10
154.4728120573
 20
122.7177889221
 10
154.4608412141
 20
122.72984747
 10
154.4486273351
 20
122.7412519687
 10
154.4362038406
 20
122.7519711269
 10
154.4236046484
 20
122.7619754943
 10
154.410864436
 20
122.7712377157
 10
154.3980181398
 20
122.7797324069
 10
154.3851008595
 20
122.7874362245
 10
154.3721479773
 20
122.7943280359
  0
LINE
  5
2DE
100
AcDbEntity
  8
26814000
100
AcDbLine
 62
7
  6
CONTINUOUS
 10
153.6650411961
 20
121.7245923791
 11
153.6650411961
 21
120.0746849416
  0
LINE
  5
2DF
100
AcDbEntity
  8
26814000
100
AcDbLine
 62
7
  6
CONTINUOUS
 10
153.6650411961
 20
85.5139515127
 11
153.6650411961
 21
83.8640440752
  0
LINE
  5
2E0
100
AcDbEntity
  8
26814000
100
AcDbLine
 62
7
  6
CONTINUOUS
 10
154.230726621
 20
82.3350498169
 11
154.230726621
 21
83.8406579432
  0
LINE
  5
2E1
100
AcDbEntity
  8
26814000
100
AcDbLine
 62
7
  6
CONTINUOUS
 10
154.230726621
 20
122.8650387141
 11
154.230726621
 21
124.5970895216
  0
LINE
  5
2E2
100
AcDbEntity
  8
26814000
100
AcDbLine
 62
7
  6
CONTINUOUS
 10
154.9337195753
 20
124.7324110194
 11
154.9337195753
 21
124.471482043
  0
LINE
  5
2E3
100
AcDbEntity
  8
26814000
100
AcDbLine
 62
7
  6
CONTINUOUS
 10
154.9337195753
 20
83.1718779036
 11
154.9337195753
 21
82.9109489273
  0
LINE
  5
2E4
100
AcDbEntity
  8
26814000
100
AcDbLine
 62
250
  6
CONTINUOUS
 10
155.2609372728
 20
128.9695209114
 11
155.2609372728
 21
127.737682333
  0
LINE
  5
2E5
100
AcDbEntity
  8
21814000
100
AcDbLine
 62
7
  6
CONTINUOUS
 10
155.3267421319
 20
88.3211376603
 11
155.3267421319
 21
118.9291997299
  0
LINE
  5
2E6
100
AcDbEntity
  8
26814000
100
AcDbLine
 62
7
  6
CONTINUOUS
 10
155.3267421319
 20
84.5368777727
 11
155.3267421319
 21
122.7134596174
  0
LINE
  5
2E7
100
AcDbEntity
  8
26814000
100
AcDbLine
 62
7
  6
CONTINUOUS
 10
155.3475747012
 20
129.0739082867
 11
155.3475747012
 21
127.841539795
  0
LWPOLYLINE
  5
2E8
100
AcDbEntity
  8
26814000
100
AcDbPolyline
 62
7
  6
CONTINUOUS
 90
18
 70
0
 10
154.6196353507
 20
84.1757666929
 10
154.6192967062
 20
84.1600728169
 10
154.6182800627
 20
84.1447607881
 10
154.6165885124
 20
84.1298727267
 10
154.6142272952
 20
84.115449738
 10
154.6112028836
 20
84.1015313555
 10
154.6075229637
 20
84.0881554334
 10
154.6031979
 20
84.0753587732
 10
154.5982398503
 20
84.0631766021
 10
154.5926618303
 20
84.0516420326
 10
154.5864793824
 20
84.0407868088
 10
154.579709743
 20
84.0306408315
 10
154.5723709374
 20
84.0212316559
 10
154.5644833039
 20
84.0125851865
 10
154.5560687329
 20
84.0047252613
 10
154.5471498164
 20
83.9976731988
 10
154.5377511879
 20
83.9914484258
 10
154.5296665766
 20
83.9869541614
  0
LWPOLYLINE
  5
2E9
100
AcDbEntity
  8
26814000
100
AcDbPolyline
 62
7
  6
CONTINUOUS
 90
4
 70
0
 10
160.1031807049
 20
89.4902957303
 10
160.1029461993
 20
89.4920639443
 10
160.1018054232
 20
89.4949961699
 10
160.0997610917
 20
89.4983755379
  0
LINE
  5
2EA
100
AcDbEntity
  8
26814000
100
AcDbLine
 62
250
  6
CONTINUOUS
 10
160.0189826667
 20
126.713684134
 11
160.0189826667
 21
126.5014249799
  0
LINE
  5
2EB
100
AcDbEntity
  8
26814000
100
AcDbLine
 62
250
  6
CONTINUOUS
 10
160.0189826667
 20
89.7594584094
 11
160.0189826667
 21
89.5696887053
  0
LWPOLYLINE
  5
2EC
100
AcDbEntity
  8
26814000
100
AcDbPolyline
 62
7
  6
CONTINUOUS
 90
16
 70
0
 10
160.1031807049
 20
127.0013606398
 10
160.1029461993
 20
126.9878463315
 10
160.1018054232
 20
126.9680811403
 10
160.0997610917
 20
126.9482274897
 10
160.0968699266
 20
126.9282917058
 10
160.0931811624
 20
126.9083094694
 10
160.0887211985
 20
126.8883476478
 10
160.0835283402
 20
126.8684269302
 10
160.0776456831
 20
126.8485591788
 10
160.0710851489
 20
126.8287989526
 10
160.0638782457
 20
126.809161886
 10
160.0560611
 20
126.7896599214
 10
160.0476371606
 20
126.7703443225
 10
160.0386242692
 20
126.751241596
 10
160.0290624238
 20
126.7323511022
 10
160.0189826667
 20
126.713684134
  0
LWPOLYLINE
  5
2ED
100
AcDbEntity
  8
21814000
100
AcDbPolyline
 62
7
  6
CONTINUOUS
 90
7
 70
0
 10
169.7887499855
 20
120.7417685017
 10
169.803748101
 20
120.7660526221
 10
169.8199242563
 20
120.7892269524
 10
169.8372784514
 20
120.8112914926
 10
169.8558106863
 20
120.8322462429
 10
169.8755209611
 20
120.8520912031
 10
169.8964092756
 20
120.8708263732
  0
LINE
  5
2EE
100
AcDbEntity
  8
RACCORDO
100
AcDbLine
 62
250
  6
CONTINUOUS
 10
147.4665802347
 20
118.3993143474
 11
133.1378467269
 21
125.5636811013
  0
LINE
  5
2EF
100
AcDbEntity
  8
21814000
100
AcDbLine
 62
7
  6
CONTINUOUS
 10
159.7185206219
 20
127.3894579191
 11
159.7202000502
 21
127.3597057686
  0
LWPOLYLINE
  5
2F0
100
AcDbEntity
  8
26814000
100
AcDbPolyline
 62
7
  6
CONTINUOUS
 90
5
 70
0
 10
160.1031807084
 20
126.4251508098
 10
160.103168058
 20
126.4254857455
 10
160.1028736549
 20
126.4270035343
 10
160.1021983199
 20
126.4287201986
 10
160.101154227
 20
126.4306399024
  0
LWPOLYLINE
  5
2F1
100
AcDbEntity
  8
26814000
100
AcDbPolyline
 62
7
  6
CONTINUOUS
 90
7
 70
0
 10
160.1031342343
 20
127.0074979778
 10
160.1030426262
 20
127.0118057791
 10
160.1029034555
 20
127.0161171097
 10
160.1027167221
 20
127.0204319697
 10
160.1024824259
 20
127.0247503591
 10
160.1022005671
 20
127.0290722778
 10
160.1018711457
 20
127.0333977259
  0
LINE
  5
2F2
100
AcDbEntity
  8
26814000
100
AcDbLine
 62
7
  6
CONTINUOUS
 10
160.1031342343
 20
127.0074979778
 11
160.1031807049
 21
127.0013606398
  0
LINE
  5
2F3
100
AcDbEntity
  8
26814000
100
AcDbLine
 62
7
  6
CONTINUOUS
 10
160.1031807266
 20
127.0013050122
 11
160.1031807266
 21
126.4253418227
  0
LINE
  5
2F4
100
AcDbEntity
  8
26814000
100
AcDbLine
 62
7
  6
CONTINUOUS
 10
160.1031807266
 20
89.8039837304
 11
160.1031807266
 21
89.4904653382
  0
LINE
  5
2F5
100
AcDbEntity
  8
21814000
100
AcDbLine
 62
250
  6
CONTINUOUS
 10
160.5070818867
 20
128.3532081575
 11
160.5070818867
 21
128.0318838753
  0
LINE
  5
2F6
100
AcDbEntity
  8
21814000
100
AcDbLine
 62
7
  6
CONTINUOUS
 10
161.1897920846
 20
127.9315131765
 11
161.1897920846
 21
128.3645258784
  0
LINE
  5
2F7
100
AcDbEntity
  8
0
100
AcDbLine
 62
7
  6
CONTINUOUS
 10
162.1572557971
 20
127.0953830652
 11
162.1572557971
 21
126.6295082988
  0
LINE
  5
2F8
100
AcDbEntity
  8
26814000
100
AcDbLine
 62
7
  6
CONTINUOUS
 10
160.1031342343
 20
89.4895537755
 11
160.1031807049
 21
89.4902957303
  0
LINE
  5
2F9
100
AcDbEntity
  8
RACCORDO
100
AcDbLine
 62
250
  6
CONTINUOUS
 10
148.625925984
 20
120.035894602
 11
134.2715559675
 21
127.2130796102
  0
LINE
  5
2FA
100
AcDbEntity
  8
21814000
100
AcDbLine
 62
250
  6
CONTINUOUS
 10
162.574588978
 20
127.824498289
 11
162.574588978
 21
128.2832298552
  0
LINE
  5
2FB
100
AcDbEntity
  8
0
100
AcDbLine
 62
7
  6
CONTINUOUS
 10
162.6070004584
 20
126.9736352321
 11
162.6070004584
 21
126.6204496783
  0
LINE
  5
2FC
100
AcDbEntity
  8
21814000
100
AcDbLine
 62
250
  6
CONTINUOUS
 10
162.7156018994
 20
127.8254285671
 11
162.7156018994
 21
128.2942257523
  0
LINE
  5
2FD
100
AcDbEntity
  8
21814000
100
AcDbLine
 62
7
  6
CONTINUOUS
 10
164.5192378651
 20
130.3946079502
 11
164.5192378651
 21
129.9867566829
  0
LWPOLYLINE
  5
2FE
100
AcDbEntity
  8
26814000
100
AcDbPolyline
 62
7
  6
CONTINUOUS
 90
7
 70
0
 10
160.1031342343
 20
89.4895537755
 10
160.1030426262
 20
89.489068168
 10
160.1029034555
 20
89.4885560202
 10
160.1027167221
 20
89.4880173322
 10
160.1024824259
 20
89.4874521039
 10
160.1022005671
 20
89.4868603352
 10
160.1018711457
 20
89.4862420264
  0
LWPOLYLINE
  5
2FF
100
AcDbEntity
  8
RACCORDO
100
AcDbPolyline
 62
250
  6
CONTINUOUS
 90
16
 70
0
 10
148.5746078
 20
118.270621894
 10
148.512906701
 20
118.2565189503
 10
148.4460238766
 20
118.2456191084
 10
148.3746679634
 20
118.2380378542
 10
148.2995949912
 20
118.2338555127
 10
148.221600373
 20
118.2331163964
 10
148.1415104771
 20
118.2358283365
 10
148.0601738716
 20
118.2419625995
 10
147.9784523338
 20
118.2514541916
 10
147.8972117195
 20
118.2642025476
 10
147.8173127888
 20
118.2800725961
 10
147.7396020866
 20
118.2988961909
 10
147.6649029732
 20
118.3204738924
 10
147.5940069002
 20
118.3445770806
 10
147.5276650255
 20
118.3709503776
 10
147.4665802542
 20
118.3993143529
  0
LWPOLYLINE
  5
300
100
AcDbEntity
  8
21814000
100
AcDbPolyline
 62
7
  6
CONTINUOUS
 90
7
 70
0
 10
169.8964827022
 20
122.424659867
 10
169.8755107561
 20
122.4217701349
 10
169.8557454073
 20
122.4212077172
 10
169.8371866559
 20
122.4229726139
 10
169.8198345018
 20
122.4270648251
 10
169.8036889449
 20
122.4334843506
 10
169.7887499855
 20
122.4422311906
  0
LINE
  5
301
100
AcDbEntity
  8
26814000
100
AcDbLine
 62
7
  6
CONTINUOUS
 10
153.2466442492
 20
120.283883415
 11
153.6650411961
 21
120.0746849416
  0
LINE
  5
302
100
AcDbEntity
  8
26814000
100
AcDbLine
 62
7
  6
CONTINUOUS
 10
150.9347727579
 20
82.9723659258
 11
151.5135630981
 21
83.676809656
  0
LINE
  5
303
100
AcDbEntity
  8
26814000
100
AcDbLine
 62
7
  6
CONTINUOUS
 10
137.0833871773
 20
129.3245313215
 11
152.8518683977
 21
121.4402907112
  0
LINE
  5
304
100
AcDbEntity
  8
26814000
100
AcDbLine
 62
7
  6
CONTINUOUS
 10
152.6043810243
 20
121.8915503365
 11
137.3308745507
 21
129.5283035733
  0
LINE
  5
305
100
AcDbEntity
  8
26814000
100
AcDbLine
 62
7
  6
CONTINUOUS
 10
153.1638957089
 20
122.3264574645
 11
151.5498915929
 21
123.1334595225
  0
LINE
  5
306
100
AcDbEntity
  8
26814000
100
AcDbLine
 62
7
  6
CONTINUOUS
 10
139.7995775445
 20
129.0086165468
 11
138.1855734285
 21
129.8156186048
  0
LINE
  5
307
100
AcDbEntity
  8
26814000
100
AcDbLine
 62
7
  6
CONTINUOUS
 10
143.1320334252
 20
127.6997208416
 11
148.9245424933
 21
124.8034663075
  0
LINE
  5
308
100
AcDbEntity
  8
26814000
100
AcDbLine
 62
7
  6
CONTINUOUS
 10
137.5471752202
 20
130.5871486846
 11
139.1537087832
 21
129.783881903
  0
LINE
  5
309
100
AcDbEntity
  8
26814000
100
AcDbLine
 62
7
  6
CONTINUOUS
 10
150.9114933846
 20
123.9049896023
 11
152.5180269477
 21
123.1017228208
  0
LINE
  5
30A
100
AcDbEntity
  8
26814000
100
AcDbLine
 62
250
  6
CONTINUOUS
 10
137.4825804742
 20
130.7221778594
 11
139.0883569364
 21
129.9192896283
  0
LINE
  5
30B
100
AcDbEntity
  8
26814000
100
AcDbLine
 62
250
  6
CONTINUOUS
 10
150.8468986386
 20
124.0400187772
 11
152.4526751008
 21
123.2371305461
  0
LINE
  5
30C
100
AcDbEntity
  8
26814000
100
AcDbLine
 62
250
  6
CONTINUOUS
 10
152.4526751008
 20
123.4905019399
 11
150.8468986386
 21
124.293390171
  0
LINE
  5
30D
100
AcDbEntity
  8
26814000
100
AcDbLine
 62
250
  6
CONTINUOUS
 10
139.0883569364
 20
130.1726610221
 11
137.4825804742
 21
130.9755492532
  0
LWPOLYLINE
  5
30E
100
AcDbEntity
  8
21814000
100
AcDbPolyline
 62
250
  6
CONTINUOUS
 90
10
 70
0
 10
170.0413441652
 20
126.7297197619
 10
170.0386378122
 20
126.6948481726
 10
170.0292875997
 20
126.6563091749
 10
170.0133288475
 20
126.6183165373
 10
169.990880329
 20
126.5811530207
 10
169.9621091178
 20
126.5450952155
 10
169.9272293444
 20
126.5104114829
 10
169.8865006023
 20
126.4773599572
 10
169.8402260161
 20
126.4461866252
 10
169.7887499855
 20
126.4171234952
  0
LINE
  5
30F
100
AcDbEntity
  8
26814000
100
AcDbLine
 62
7
  6
CONTINUOUS
 10
152.5415776768
 20
82.1689634664
 11
153.1638957089
 21
82.9140228839
  0
LINE
  5
310
100
AcDbEntity
  8
26814000
100
AcDbLine
 62
250
  6
CONTINUOUS
 10
151.6594161797
 20
88.5223168813
 11
150.59255414
 21
88.0296046368
  0
LINE
  5
311
100
AcDbEntity
  8
26814000
100
AcDbLine
 62
7
  6
CONTINUOUS
 10
151.4585625938
 20
88.0085478246
 11
150.5565423255
 21
87.5919649728
  0
LINE
  5
312
100
AcDbEntity
  8
26814000
100
AcDbLine
 62
7
  6
CONTINUOUS
 10
153.1638957089
 20
122.9636270233
 11
152.5415776768
 21
123.0935676058
  0
LINE
  5
313
100
AcDbEntity
  8
26814000
100
AcDbLine
 62
7
  6
CONTINUOUS
 10
140.8664084566
 20
129.5471977963
 11
143.0441654596
 21
128.4583192948
  0
LINE
  5
314
100
AcDbEntity
  8
26814000
100
AcDbLine
 62
7
  6
CONTINUOUS
 10
149.8466645777
 20
125.0570697357
 11
150.9277865288
 21
124.5165087602
  0
LINE
  5
315
100
AcDbEntity
  8
26814000
100
AcDbLine
 62
7
  6
CONTINUOUS
 10
154.230726621
 20
122.8650387141
 11
154.3721479773
 21
122.7943280359
  0
LINE
  5
316
100
AcDbEntity
  8
26814000
100
AcDbLine
 62
250
  6
CONTINUOUS
 10
152.6294458302
 20
123.7943675181
 11
151.0216244211
 21
124.5982782227
  0
LINE
  5
317
100
AcDbEntity
  8
26814000
100
AcDbLine
 62
250
  6
CONTINUOUS
 10
139.2651276658
 20
130.4765266003
 11
137.6573062567
 21
131.2804373049
  0
LINE
  5
318
100
AcDbEntity
  8
26814000
100
AcDbLine
 62
7
  6
CONTINUOUS
 10
143.1320334252
 20
128.9146757077
 11
148.9245424933
 21
126.0184211736
  0
LINE
  5
319
100
AcDbEntity
  8
26814000
100
AcDbLine
 62
7
  6
CONTINUOUS
 10
155.0792547585
 20
123.1403237373
 11
154.2795227346
 21
123.5401897492
  0
LINE
  5
31A
100
AcDbEntity
  8
26814000
100
AcDbLine
 62
7
  6
CONTINUOUS
 10
142.3976825736
 20
129.4811098297
 11
140.9152045702
 21
130.2223488315
  0
LINE
  5
31B
100
AcDbEntity
  8
26814000
100
AcDbLine
 62
7
  6
CONTINUOUS
 10
143.6241249032
 20
129.3807751383
 11
149.8466645777
 21
126.269505301
  0
LINE
  5
31C
100
AcDbEntity
  8
26814000
100
AcDbLine
 62
7
  6
CONTINUOUS
 10
139.2400628599
 20
132.0924214022
 11
140.8664084566
 21
131.2792486038
  0
LINE
  5
31D
100
AcDbEntity
  8
26814000
100
AcDbLine
 62
7
  6
CONTINUOUS
 10
152.6043810243
 20
125.41026232
 11
154.230726621
 21
124.5970895216
  0
LINE
  5
31E
100
AcDbEntity
  8
26814000
100
AcDbLine
 62
7
  6
CONTINUOUS
 10
144.9676277875
 20
129.4110920889
 11
149.9173752558
 21
126.9362183548
  0
LINE
  5
31F
100
AcDbEntity
  8
26814000
100
AcDbLine
 62
250
  6
CONTINUOUS
 10
139.7745127386
 20
132.3527688688
 11
141.3946756284
 21
131.5426874239
  0
LINE
  5
320
100
AcDbEntity
  8
26814000
100
AcDbLine
 62
250
  6
CONTINUOUS
 10
153.138830903
 20
125.6706097866
 11
154.7589937928
 21
124.8605283417
  0
LINE
  5
321
100
AcDbEntity
  8
26814000
100
AcDbLine
 62
7
  6
CONTINUOUS
 10
139.8859303539
 20
132.359037432
 11
141.5048079321
 21
131.5495986429
  0
LINE
  5
322
100
AcDbEntity
  8
26814000
100
AcDbLine
 62
7
  6
CONTINUOUS
 10
153.2502485183
 20
125.6768783498
 11
154.8691260965
 21
124.8674395607
  0
LWPOLYLINE
  5
323
100
AcDbEntity
  8
21814000
100
AcDbPolyline
 62
250
  6
CONTINUOUS
 90
15
 70
0
 10
150.1161756902
 20
127.8978583836
 10
150.1497576666
 20
127.8786152576
 10
150.1790742547
 20
127.8569918547
 10
150.2041254544
 20
127.832988175
 10
150.2251146464
 20
127.8063558263
 10
150.2418384501
 20
127.7773432007
 10
150.2536867233
 20
127.7466954743
 10
150.2605435169
 20
127.7143355267
 10
150.2625247799
 20
127.6803404782
 10
150.2593682171
 20
127.6456868659
 10
150.2509054778
 20
127.6103207773
 10
150.2373049127
 20
127.5742961249
 10
150.2188092779
 20
127.538751184
 10
150.1954994923
 20
127.5040653795
 10
150.1672946371
 20
127.4698592864
  0
LWPOLYLINE
  5
324
100
AcDbEntity
  8
21814000
100
AcDbPolyline
 62
250
  6
CONTINUOUS
 90
9
 70
0
 10
150.0137353426
 20
127.6801428001
 10
150.0336165191
 20
127.6685288093
 10
150.0512782508
 20
127.6547843273
 10
150.0665298258
 20
127.6390196419
 10
150.0791944095
 20
127.6213258795
 10
150.0891381053
 20
127.6018615944
 10
150.0962527185
 20
127.5808482424
 10
150.1004291351
 20
127.5583836292
 10
150.1016032719
 20
127.5377818782
  0
LWPOLYLINE
  5
325
100
AcDbEntity
  8
21814000
100
AcDbPolyline
 62
250
  6
CONTINUOUS
 90
13
 70
0
 10
148.6696513978
 20
128.168404562
 10
148.6873623335
 20
128.1572826861
 10
148.7054304469
 20
128.143878198
 10
148.7235522081
 20
128.12841633
 10
148.7414231935
 20
128.1111568706
 10
148.7587432131
 20
128.0923897863
 10
148.7752213516
 20
128.0724303456
 10
148.7905808217
 20
128.0516138615
 10
148.8045636587
 20
128.0302900028
 10
148.8169350513
 20
128.008816901
 10
148.8274872252
 20
127.9875552251
 10
148.8360429459
 20
127.9668621257
 10
148.8424585294
 20
127.9470851755
  0
LINE
  5
326
100
AcDbEntity
  8
21814000
100
AcDbLine
 62
7
  6
CONTINUOUS
 10
161.4376783904
 20
124.624374531
 11
160.6849843064
 21
125.922579792
  0
LINE
  5
327
100
AcDbEntity
  8
21814000
100
AcDbLine
 62
250
  6
CONTINUOUS
 10
160.092504375
 20
129.4287866977
 11
160.5070818867
 21
128.3532081575
  0
LINE
  5
328
100
AcDbEntity
  8
0
100
AcDbLine
 62
7
  6
CONTINUOUS
 10
161.6517862149
 20
126.8531431095
 11
161.4502868569
 21
127.4488675353
  0
LWPOLYLINE
  5
329
100
AcDbEntity
  8
21814000
100
AcDbPolyline
 62
7
  6
CONTINUOUS
 90
10
 70
0
 10
170.0413441652
 20
126.7297197619
 10
170.0375392691
 20
126.8436574582
 10
170.02639318
 20
126.9569216552
 10
170.0082548549
 20
127.0693089286
 10
169.9832997537
 20
127.1810457054
 10
169.9517527543
 20
127.2916778729
 10
169.9141314881
 20
127.399984262
 10
169.8708302526
 20
127.505468233
 10
169.821877471
 20
127.6083951136
 10
169.7673454255
 20
127.7086395233
  0
LINE
  5
32A
100
AcDbEntity
  8
21814000
100
AcDbLine
 62
7
  6
CONTINUOUS
 10
170.0413438014
 20
120.4858236661
 11
170.0413441269
 21
120.4853645984
  0
LINE
  5
32B
100
AcDbEntity
  8
21814000
100
AcDbLine
 62
250
  6
CONTINUOUS
 10
169.7887499855
 20
126.4171234952
 11
169.7887499855
 21
122.4422311906
  0
LINE
  5
32C
100
AcDbEntity
  8
21814000
100
AcDbLine
 62
250
  6
CONTINUOUS
 10
169.7887499855
 20
120.7417685017
 11
169.7887499855
 21
95.8090614256
  0
LINE
  5
32D
100
AcDbEntity
  8
21814000
100
AcDbLine
 62
7
  6
CONTINUOUS
 10
170.0413441652
 20
126.7297197619
 11
170.0413441652
 21
123.3240343152
  0
LINE
  5
32E
100
AcDbEntity
  8
21814000
100
AcDbLine
 62
7
  6
CONTINUOUS
 10
170.0413441652
 20
120.4850736458
 11
170.0413441652
 21
96.1216576923
  0
LINE
  5
32F
100
AcDbEntity
  8
21814000
100
AcDbLine
 62
7
  6
CONTINUOUS
 10
170.041344015
 20
123.3230158125
 11
170.0413439272
 21
123.3227682324
  0
LWPOLYLINE
  5
330
100
AcDbEntity
  8
21814000
100
AcDbPolyline
 62
250
  6
CONTINUOUS
 90
29
 70
0
 10
170.0413439272
 20
123.3227682324
 10
170.0410155564
 20
123.2793139251
 10
170.0398092404
 20
123.2275879757
 10
170.0377782818
 20
123.1772708651
 10
170.0349719277
 20
123.1283713517
 10
170.031442724
 20
123.0809057972
 10
170.0272417842
 20
123.0348754473
 10
170.0223925232
 20
122.9902655786
 10
170.0169364668
 20
122.9470913681
 10
170.0109100739
 20
122.9053498847
 10
170.0043038182
 20
122.865000399
 10
169.9971408033
 20
122.8260155318
 10
169.98944685
 20
122.7884338101
 10
169.9811915768
 20
122.7523161516
 10
169.9723829623
 20
122.717616667
 10
169.9630390062
 20
122.684393945
 10
169.953125108
 20
122.6528689189
 10
169.9426438773
 20
122.6230106235
 10
169.93160474
 20
122.5948651761
 10
169.9199696117
 20
122.5687724175
 10
169.9077263004
 20
122.5447153201
 10
169.8948886553
 20
122.5227296805
 10
169.881451361
 20
122.5032366317
 10
169.8674019016
 20
122.4862995776
 10
169.8527563477
 20
122.4718750388
 10
169.8375562116
 20
122.4602227606
 10
169.821822368
 20
122.4514342281
 10
169.805550715
 20
122.4454342928
 10
169.7887499855
 20
122.4422311906
  0
LWPOLYLINE
  5
331
100
AcDbEntity
  8
21814000
100
AcDbPolyline
 62
250
  6
CONTINUOUS
 90
11
 70
0
 10
170.0413441652
 20
96.1216576923
 10
170.0405415255
 20
96.1026569871
 10
170.0345589722
 20
96.0665049306
 10
170.022771983
 20
96.0307112768
 10
170.005257154
 20
95.995508626
 10
169.982128303
 20
95.9611257378
 10
169.9535357297
 20
95.9277860449
 10
169.9196652392
 20
95.895706201
 10
169.8807369341
 20
95.8650946725
 10
169.8370037849
 20
95.8361503845
 10
169.7887499855
 20
95.8090614274
  0
LINE
  5
332
100
AcDbEntity
  8
21814000
100
AcDbLine
 62
7
  6
CONTINUOUS
 10
161.4376783904
 20
90.6571622243
 11
160.6849843064
 21
90.1116510473
  0
LWPOLYLINE
  5
333
100
AcDbEntity
  8
21814000
100
AcDbPolyline
 62
250
  6
CONTINUOUS
 90
3
 70
0
 10
169.5168973362
 20
95.0180233226
 10
169.4986088757
 20
95.0053186926
 10
169.4497865016
 20
94.9762974031
  0
LWPOLYLINE
  5
334
100
AcDbEntity
  8
21814000
100
AcDbPolyline
 62
7
  6
CONTINUOUS
 90
3
 70
0
 10
169.0302432906
 20
94.6722356126
 10
169.086635136
 20
94.7064276245
 10
169.0993694776
 20
94.7154223821
  0
LWPOLYLINE
  5
335
100
AcDbEntity
  8
26814000
100
AcDbPolyline
 62
7
  6
CONTINUOUS
 90
25
 70
0
 10
159.3548842572
 20
89.0264009612
 10
159.3808006675
 20
89.0412331778
 10
159.4073029042
 20
89.0565001546
 10
159.4343909672
 20
89.0722018915
 10
159.4620926235
 20
89.0883509942
 10
159.4903801062
 20
89.1049348571
 10
159.5191701142
 20
89.121915663
 10
159.5484436332
 20
89.1392822369
 10
159.5782196776
 20
89.1570457539
 10
159.6084719887
 20
89.1752019222
 10
159.639214423
 20
89.1937588192
 10
159.6704331241
 20
89.2127083675
 10
159.7020602636
 20
89.2320220439
 10
159.7341069982
 20
89.2517066786
 10
159.7665621713
 20
89.2717554415
 10
159.7993244847
 20
89.2921193182
 10
159.8324092588
 20
89.3128081575
 10
159.8658011732
 20
89.3338121106
 10
159.8993529686
 20
89.3550526173
 10
159.9330842836
 20
89.3765429032
 10
159.9669754797
 20
89.3982697427
 10
160.0008203814
 20
89.4201148985
 10
160.0345502638
 20
89.4420389581
 10
160.0682338519
 20
89.4640813341
 10
160.1018711457
 20
89.4862420264
  0
LWPOLYLINE
  5
336
100
AcDbEntity
  8
26814000
100
AcDbPolyline
 62
7
  6
CONTINUOUS
 90
3
 70
0
 10
159.3548842572
 20
89.0264009612
 10
159.32029978
 20
89.0075252636
 10
159.3044628744
 20
88.9994243453
  0
LINE
  5
337
100
AcDbEntity
  8
21814000
100
AcDbLine
 62
7
  6
CONTINUOUS
 10
169.0302432906
 20
94.6722356126
 11
161.4376783904
 21
90.6571622243
  0
LINE
  5
338
100
AcDbEntity
  8
21814000
100
AcDbLine
 62
7
  6
CONTINUOUS
 10
160.6849843064
 20
90.1116510473
 11
155.3267421319
 21
87.2781243214
  0
LINE
  5
339
100
AcDbEntity
  8
21814000
100
AcDbLine
 62
250
  6
CONTINUOUS
 10
169.4497865016
 20
94.9762974031
 11
155.3267421319
 21
87.5221224313
  0
LINE
  5
33A
100
AcDbEntity
  8
21814000
100
AcDbLine
 62
250
  6
CONTINUOUS
 10
169.7887499855
 20
95.8090614256
 11
155.3267421319
 21
88.3211376603
  0
LINE
  5
33B
100
AcDbEntity
  8
26814000
100
AcDbLine
 62
250
  6
CONTINUOUS
 10
155.3267421319
 20
87.0044977776
 11
159.3548842572
 21
89.0264009612
  0
LINE
  5
33C
100
AcDbEntity
  8
26814000
100
AcDbLine
 62
7
  6
CONTINUOUS
 10
155.3267421319
 20
87.0028296969
 11
159.3045052029
 21
88.9994453987
  0
LINE
  5
33D
100
AcDbEntity
  8
26814000
100
AcDbLine
 62
250
  6
CONTINUOUS
 10
155.3267421319
 20
87.2423028084
 11
160.0189826667
 21
89.5696887053
  0
LINE
  5
33E
100
AcDbEntity
  8
26814000
100
AcDbLine
 62
250
  6
CONTINUOUS
 10
155.3267421319
 20
87.1204280806
 11
160.1031342343
 21
89.4895537755
  0
LINE
  5
33F
100
AcDbEntity
  8
26814000
100
AcDbLine
 62
7
  6
CONTINUOUS
 10
139.7995775445
 20
129.6457861055
 11
139.1772595124
 21
129.775726688
  0
LWPOLYLINE
  5
340
100
AcDbEntity
  8
21814000
100
AcDbPolyline
 62
250
  6
CONTINUOUS
 90
8
 70
0
 10
150.1341947123
 20
127.4361329047
 10
150.1153700393
 20
127.4432789653
 10
150.0975163789
 20
127.447835617
 10
150.0809336349
 20
127.4497263178
 10
150.065900362
 20
127.4489193079
 10
150.0526690874
 20
127.4454281434
 10
150.0414620684
 20
127.4393114683
 10
150.0373943413
 20
127.4359726649
  0
LINE
  5
341
100
AcDbEntity
  8
21814000
100
AcDbLine
 62
250
  6
CONTINUOUS
 10
149.6991003917
 20
129.0022808009
 11
149.7025412212
 21
129.000667534
  0
LINE
  5
342
100
AcDbEntity
  8
21814000
100
AcDbLine
 62
250
  6
CONTINUOUS
 10
149.255329744
 20
128.0593455994
 11
150.0137353426
 21
127.6801428001
  0
LINE
  5
343
100
AcDbEntity
  8
21814000
100
AcDbLine
 62
250
  6
CONTINUOUS
 10
149.3577700915
 20
128.2770611829
 11
150.1161756902
 21
127.8978583836
  0
LINE
  5
344
100
AcDbEntity
  8
21814000
100
AcDbLine
 62
7
  6
CONTINUOUS
 10
148.6445830505
 20
128.8774125642
 11
151.2315372361
 21
127.5839354714
  0
LINE
  5
345
100
AcDbEntity
  8
21814000
100
AcDbLine
 62
250
  6
CONTINUOUS
 10
151.8389249526
 20
127.8833014751
 11
149.6143254625
 21
128.9956012202
  0
LINE
  5
346
100
AcDbEntity
  8
21814000
100
AcDbLine
 62
7
  6
CONTINUOUS
 10
151.8884520444
 20
127.9077121228
 11
149.7025340631
 21
129.0006711135
  0
LINE
  5
347
100
AcDbEntity
  8
26814000
100
AcDbLine
 62
7
  6
CONTINUOUS
 10
152.4350510006
 20
128.1771168881
 11
149.6345325433
 21
129.5773761167
  0
LINE
  5
348
100
AcDbEntity
  8
26814000
100
AcDbLine
 62
7
  6
CONTINUOUS
 10
149.2809791527
 20
130.3067110013
 11
149.6345325433
 21
130.129934306
  0
LWPOLYLINE
  5
349
100
AcDbEntity
  8
26814000
100
AcDbPolyline
 62
7
  6
CONTINUOUS
 90
20
 70
0
 10
160.101154227
 20
126.4306399024
 10
160.0997540753
 20
126.4327709671
 10
160.098007649
 20
126.4350794146
 10
160.0959260391
 20
126.4375690536
 10
160.0935210747
 20
126.4402464964
 10
160.0908009828
 20
126.4430817124
 10
160.0877760516
 20
126.4460782388
 10
160.0844575502
 20
126.449241317
 10
160.0808533933
 20
126.4525433094
 10
160.0769735364
 20
126.4559872922
 10
160.0728288649
 20
126.4595775365
 10
160.0684276322
 20
126.4632880361
 10
160.0637792937
 20
126.467121628
 10
160.0588948397
 20
126.4710815016
 10
160.0537844514
 20
126.4751419219
 10
160.0484575763
 20
126.4793051371
 10
160.042925373
 20
126.4835735086
 10
160.0372009017
 20
126.4879210081
 10
160.0312957183
 20
126.4923398903
 10
160.0189826667
 20
126.5014249799
  0
LWPOLYLINE
  5
34A
100
AcDbEntity
  8
21814000
100
AcDbPolyline
 62
250
  6
CONTINUOUS
 90
11
 70
0
 10
169.5496005222
 20
95.0657863325
 10
169.5937124338
 20
95.1191237051
 10
169.633703529
 20
95.1778930654
 10
169.6694026575
 20
95.2418427034
 10
169.7006570799
 20
95.3106988443
 10
169.727332952
 20
95.384166426
 10
169.7493161658
 20
95.4619309602
 10
169.7665127633
 20
95.5436601427
 10
169.7788490578
 20
95.6290043169
 10
169.7862720874
 20
95.7175978525
 10
169.7887499855
 20
95.8090614256
  0
LWPOLYLINE
  5
34B
100
AcDbEntity
  8
21814000
100
AcDbPolyline
 62
250
  6
CONTINUOUS
 90
3
 70
0
 10
169.4497865016
 20
94.9762974031
 10
169.5015566529
 20
95.0181094797
 10
169.5496005222
 20
95.0657863325
  0
LWPOLYLINE
  5
34C
100
AcDbEntity
  8
21814000
100
AcDbPolyline
 62
7
  6
CONTINUOUS
 90
13
 70
0
 10
169.5168973363
 20
95.0180233226
 10
169.5914520604
 20
95.0767469011
 10
169.6622449093
 20
95.1423612968
 10
169.7286203506
 20
95.2146828646
 10
169.7898809809
 20
95.2933571612
 10
169.8455092562
 20
95.3781176134
 10
169.895152368
 20
95.4689282647
 10
169.938353538
 20
95.5656254191
 10
169.9745328596
 20
95.6676531939
 10
170.003262214
 20
95.7745767021
 10
170.024198048
 20
95.8861032135
 10
170.0370028639
 20
96.0019162824
 10
170.0413441652
 20
96.1216576923
  0
LINE
  5
34D
100
AcDbEntity
  8
21814000
100
AcDbLine
 62
250
  6
CONTINUOUS
 10
169.4497865016
 20
94.9762974031
 11
169.0302432906
 21
94.6722356126
  0
LINE
  5
34E
100
AcDbEntity
  8
21814000
100
AcDbLine
 62
7
  6
CONTINUOUS
 10
169.5168973362
 20
95.0180233226
 11
169.1005164967
 21
94.7162534446
  0
LINE
  5
34F
100
AcDbEntity
  8
26814000
100
AcDbLine
 62
7
  6
CONTINUOUS
 10
153.6650411961
 20
83.8640440752
 11
152.8518683977
 21
83.3351729447
  0
LINE
  5
350
100
AcDbEntity
  8
26814000
100
AcDbLine
 62
250
  6
CONTINUOUS
 10
154.6196353507
 20
84.1757666929
 11
155.3267421319
 21
84.5368777727
  0
LINE
  5
351
100
AcDbEntity
  8
26814000
100
AcDbLine
 62
7
  6
CONTINUOUS
 10
154.5296713826
 20
83.9869566163
 11
155.2367781648
 21
84.3480676966
  0
LINE
  5
352
100
AcDbEntity
  8
26814000
100
AcDbLine
 62
7
  6
CONTINUOUS
 10
154.5296665766
 20
83.9869541614
 11
154.5276589797
 21
83.9859504541
  0
LINE
  5
353
100
AcDbEntity
  8
26814000
100
AcDbLine
 62
250
  6
CONTINUOUS
 10
152.8518683977
 20
83.3107774394
 11
154.6196353507
 21
84.1757666929
  0
LINE
  5
354
100
AcDbEntity
  8
26814000
100
AcDbLine
 62
7
  6
CONTINUOUS
 10
152.7598874787
 20
83.1209589752
 11
154.5276544331
 21
83.9859482293
  0
LWPOLYLINE
  5
355
100
AcDbEntity
  8
RACCORDO
100
AcDbPolyline
 62
250
  6
CONTINUOUS
 90
16
 70
0
 10
145.566693474
 20
81.7164344999
 10
145.5041657411
 20
81.6922817026
 10
145.4364651857
 20
81.671438471
 10
145.3643090984
 20
81.6541256401
 10
145.2884619762
 20
81.6405266401
 10
145.2097274226
 20
81.630785553
 10
145.128939634
 20
81.6250055862
 10
145.0469545606
 20
81.6232479786
 10
144.9646408379
 20
81.625531352
 10
144.8828705836
 20
81.6318315142
 10
144.8025101572
 20
81.6420817146
 10
144.724410981
 20
81.6561733518
 10
144.6494005195
 20
81.6739571241
 10
144.5782735117
 20
81.6952446115
 10
144.5117835516
 20
81.7198102724
 10
144.4506351033
 20
81.7473938322
  0
LWPOLYLINE
  5
356
100
AcDbEntity
  8
21814000
100
AcDbPolyline
 62
7
  6
CONTINUOUS
 90
6
 70
0
 10
148.58842634
 20
128.8915451111
 10
148.5981063503
 20
128.8912076972
 10
148.6085175467
 20
128.8897528266
 10
148.6196385864
 20
128.8870756001
 10
148.6314550274
 20
128.8830984236
 10
148.6439241761
 20
128.8777420014
  0
LWPOLYLINE
  5
357
100
AcDbEntity
  8
21814000
100
AcDbPolyline
 62
7
  6
CONTINUOUS
 90
10
 70
0
 10
149.5770969397
 20
129.0325478704
 10
149.4959744813
 20
129.0442682251
 10
149.4137008622
 20
129.0521714763
 10
149.3309078007
 20
129.0562604398
 10
149.2480286299
 20
129.056558737
 10
149.1652987999
 20
129.0530667416
 10
149.0832480536
 20
129.0457711439
 10
149.0024156221
 20
129.034666845
 10
148.9230174188
 20
129.0196867922
 10
148.8454665886
 20
129.0007499431
  0
LWPOLYLINE
  5
358
100
AcDbEntity
  8
26814000
100
AcDbPolyline
 62
7
  6
CONTINUOUS
 90
13
 70
0
 10
159.3548842572
 20
127.5146576095
 10
159.3202334472
 20
127.5210872906
 10
159.2850292242
 20
127.5264704434
 10
159.2493093723
 20
127.5308325842
 10
159.2130840554
 20
127.5342265074
 10
159.1764163173
 20
127.5366562571
 10
159.1394201074
 20
127.5380674862
 10
159.1021330724
 20
127.5384776212
 10
159.0645820905
 20
127.5379137396
 10
159.0268613897
 20
127.5363217515
 10
158.9890220149
 20
127.5336926605
 10
158.9510728287
 20
127.5300706792
 10
158.9130433892
 20
127.5254758898
  0
LWPOLYLINE
  5
359
100
AcDbEntity
  8
21814000
100
AcDbPolyline
 62
250
  6
CONTINUOUS
 90
13
 70
0
 10
149.6143254625
 20
128.9956012202
 10
149.5446032326
 20
129.0091759649
 10
149.4738614337
 20
129.019439466
 10
149.4021000658
 20
129.0263917236
 10
149.3286606895
 20
129.0300420982
 10
149.2542017443
 20
129.0303812292
 10
149.1806985485
 20
129.0273810346
 10
149.1081740383
 20
129.0209364729
 10
149.0366052776
 20
129.0111525856
 10
148.9678987763
 20
128.9983164151
 10
148.9026900379
 20
128.9825236422
 10
148.840343559
 20
128.9636785862
 10
148.7808593395
 20
128.941781247
  0
LINE
  5
35A
100
AcDbEntity
  8
21814000
100
AcDbLine
 62
7
  6
CONTINUOUS
 10
149.6565206317
 20
129.0170134832
 11
149.5770969397
 21
129.0325478704
  0
LWPOLYLINE
  5
35B
100
AcDbEntity
  8
21814000
100
AcDbPolyline
 62
250
  6
CONTINUOUS
 90
4
 70
0
 10
149.2383926044
 20
128.3156904796
 10
149.2805157398
 20
128.3061395968
 10
149.3203082355
 20
128.2932631646
 10
149.3577700915
 20
128.2770611829
  0
LWPOLYLINE
  5
35C
100
AcDbEntity
  8
21814000
100
AcDbPolyline
 62
7
  6
CONTINUOUS
 90
7
 70
0
 10
149.6565137741
 20
129.0170150076
 10
149.6643744569
 20
129.0150990021
 10
149.6734705098
 20
129.0124538591
 10
149.6824338935
 20
129.0093799471
 10
149.6912541765
 20
129.0058795959
 10
149.6999116379
 20
129.0019584704
 10
149.7025521961
 20
129.0006620439
  0
LINE
  5
35D
100
AcDbEntity
  8
0
100
AcDbLine
 62
7
  6
CONTINUOUS
 10
162.6070004584
 20
126.9736352321
 11
162.1572557971
 21
127.0953830652
  0
LWPOLYLINE
  5
35E
100
AcDbEntity
  8
26814000
100
AcDbPolyline
 62
7
  6
CONTINUOUS
 90
10
 70
0
 10
159.6011993567
 20
127.4272801376
 10
159.5782196776
 20
127.4384715698
 10
159.5484436332
 20
127.4520480115
 10
159.5191701142
 20
127.4644336283
 10
159.4903801062
 20
127.4756354248
 10
159.4620926235
 20
127.4856463963
 10
159.4343909672
 20
127.4945461408
 10
159.4073029042
 20
127.5023611907
 10
159.3808006675
 20
127.5090650136
 10
159.3548842572
 20
127.5146576095
  0
LINE
  5
35F
100
AcDbEntity
  8
26814000
100
AcDbLine
 62
7
  6
CONTINUOUS
 10
153.8428666968
 20
128.8709935465
 11
151.0323170498
 21
130.2762683699
  0
LINE
  5
360
100
AcDbEntity
  8
21814000
100
AcDbLine
 62
7
  6
CONTINUOUS
 10
160.6849843064
 20
125.922579792
 11
159.8971956588
 21
126.3164741159
  0
LINE
  5
361
100
AcDbEntity
  8
26814000
100
AcDbLine
 62
7
  6
CONTINUOUS
 10
152.3922489899
 20
130.3500165574
 11
154.6019898781
 21
129.2451461133
  0
LINE
  5
362
100
AcDbEntity
  8
26814000
100
AcDbLine
 62
7
  6
CONTINUOUS
 10
155.3475747012
 20
128.8723537017
 11
155.4933881113
 21
128.7994469967
  0
LINE
  5
363
100
AcDbEntity
  8
26814000
100
AcDbLine
 62
7
  6
CONTINUOUS
 10
149.5247912443
 20
132.0469891099
 11
149.7052432214
 21
131.9567631214
  0
LINE
  5
364
100
AcDbEntity
  8
26814000
100
AcDbLine
 62
7
  6
CONTINUOUS
 10
155.0792547585
 20
129.2697573528
 11
155.2597067356
 21
129.1795313643
  0
LINE
  5
365
100
AcDbEntity
  8
26814000
100
AcDbLine
 62
250
  6
CONTINUOUS
 10
148.7122229003
 20
132.6258861343
 11
151.6913128012
 21
131.1363411838
  0
LINE
  5
366
100
AcDbEntity
  8
26814000
100
AcDbLine
 62
250
  6
CONTINUOUS
 10
155.9339534883
 20
129.0150208402
 11
158.9130433892
 21
127.5254758898
  0
LINE
  5
367
100
AcDbEntity
  8
26814000
100
AcDbLine
 62
7
  6
CONTINUOUS
 10
156.3749964914
 20
129.0403703068
 11
159.6014863835
 21
127.4271253608
  0
LINE
  5
368
100
AcDbEntity
  8
0
100
AcDbLine
 62
7
  6
CONTINUOUS
 10
161.6622810502
 20
126.8478956918
 11
161.8761735042
 21
126.6503624242
  0
LWPOLYLINE
  5
369
100
AcDbEntity
  8
26814000
100
AcDbPolyline
 62
7
  6
CONTINUOUS
 90
17
 70
0
 10
160.1018711457
 20
127.0333977259
 10
160.0682338519
 20
127.0694598764
 10
160.0345502638
 20
127.104098536
 10
160.0008203814
 20
127.1373137048
 10
159.9669754797
 20
127.1691210088
 10
159.9330842836
 20
127.1995048219
 10
159.8993529686
 20
127.228418266
 10
159.8658011732
 20
127.2558374413
 10
159.8324092588
 20
127.2817862476
 10
159.7993244847
 20
127.3062895061
 10
159.7665621713
 20
127.329333213
 10
159.7341069982
 20
127.3509313721
 10
159.7020602636
 20
127.3711508161
 10
159.6704331241
 20
127.3899847301
 10
159.639214423
 20
127.4074399291
 10
159.6084719887
 20
127.4236036906
 10
159.6011993567
 20
127.4272801376
  0
LINE
  5
36A
100
AcDbEntity
  8
21814000
100
AcDbLine
 62
7
  6
CONTINUOUS
 10
164.5101224064
 20
130.4185017512
 11
164.5192378651
 21
130.3946079502
  0
LINE
  5
36B
100
AcDbEntity
  8
26814000
100
AcDbLine
 62
7
  6
CONTINUOUS
 10
154.230726621
 20
82.3350498169
 11
154.7589937928
 21
82.6060608756
  0
LINE
  5
36C
100
AcDbEntity
  8
26814000
100
AcDbLine
 62
7
  6
CONTINUOUS
 10
152.6294458302
 20
81.5550152173
 11
154.230726621
 21
82.3350498169
  0
LINE
  5
36D
100
AcDbEntity
  8
RACCORDO
100
AcDbLine
 62
250
  6
CONTINUOUS
 10
146.0181211663
 20
81.3047901282
 11
150.1543571099
 21
82.7043411426
  0
LINE
  5
36E
100
AcDbEntity
  8
RACCORDO
100
AcDbLine
 62
7
  6
CONTINUOUS
 10
149.8575390292
 20
82.2339256916
 11
145.7233020946
 21
80.8350514455
  0
LINE
  5
36F
100
AcDbEntity
  8
26814000
100
AcDbLine
 62
7
  6
CONTINUOUS
 10
151.0323170498
 20
130.2762683699
 11
152.3922489899
 21
130.3500165574
  0
LWPOLYLINE
  5
370
100
AcDbEntity
  8
RACCORDO
100
AcDbPolyline
 62
7
  6
CONTINUOUS
 90
9
 70
0
 10
164.0000632572
 20
127.6404824618
 10
163.9939465166
 20
127.6420819595
 10
163.9841763029
 20
127.6436147734
 10
163.9738501074
 20
127.6440302178
 10
163.9630629103
 20
127.6433284453
 10
163.9520996513
 20
127.641509914
 10
163.9410553106
 20
127.6385747764
 10
163.9298349081
 20
127.63452288
 10
163.9184384439
 20
127.6293542248
  0
LWPOLYLINE
  5
371
100
AcDbEntity
  8
RACCORDO
100
AcDbPolyline
 62
7
  6
CONTINUOUS
 90
28
 70
0
 10
164.0000531209
 20
127.6404585094
 10
163.8913377744
 20
127.6717443552
 10
163.7764827314
 20
127.7010980322
 10
163.6592213074
 20
127.7274251024
 10
163.5398481426
 20
127.7506871941
 10
163.418627771
 20
127.7708577469
 10
163.2957984015
 20
127.7879170222
 10
163.1716496041
 20
127.8018408638
 10
163.046466141
 20
127.8126115327
 10
162.9204856235
 20
127.8202189325
 10
162.7939992374
 20
127.8246523111
 10
162.6672965145
 20
127.8259068658
 10
162.540614769
 20
127.8239820928
 10
162.4142434992
 20
127.8188807578
 10
162.2884739087
 20
127.8106115456
 10
162.1635443093
 20
127.7991836702
 10
162.0397454347
 20
127.7846138379
 10
161.9173606823
 20
127.7669238163
 10
161.7966122461
 20
127.746129641
 10
161.677777325
 20
127.7222580409
 10
161.5611415016
 20
127.6953429892
 10
161.4469299286
 20
127.6654082219
 10
161.3354147504
 20
127.632491118
 10
161.226868554
 20
127.5966344832
 10
161.1215016624
 20
127.5578628656
 10
161.0195548799
 20
127.5162100572
 10
160.9213087425
 20
127.4717292827
 10
160.8270246813
 20
127.4244718933
  0
LWPOLYLINE
  5
372
100
AcDbEntity
  8
RACCORDO
100
AcDbPolyline
 62
7
  6
CONTINUOUS
 90
3
 70
0
 10
164.0121039389
 20
127.6356646812
 10
164.0032557286
 20
127.6394319288
 10
164.0000632572
 20
127.6404824618
  0
LWPOLYLINE
  5
373
100
AcDbEntity
  8
26814000
100
AcDbPolyline
 62
7
  6
CONTINUOUS
 90
18
 70
0
 10
152.1323655182
 20
131.1616748307
 10
152.1128034339
 20
131.1707645638
 10
152.0899076537
 20
131.1797499784
 10
152.0663983675
 20
131.1872522112
 10
152.0422570454
 20
131.193286381
 10
152.017567292
 20
131.1978321654
 10
151.9923058658
 20
131.2008861488
 10
151.9664960083
 20
131.2024517468
 10
151.9402910494
 20
131.2025188834
 10
151.9137070868
 20
131.2010801074
 10
151.8867280228
 20
131.1981428701
 10
151.8594588942
 20
131.1937194488
 10
151.8318847145
 20
131.1878010632
 10
151.8040204702
 20
131.1803964936
 10
151.7760161572
 20
131.171544359
 10
151.747921774
 20
131.1612575323
 10
151.719687322
 20
131.1495231406
 10
151.6913128012
 20
131.1363411838
  0
LINE
  5
374
100
AcDbEntity
  8
0
100
AcDbLine
 62
7
  6
CONTINUOUS
 10
161.6622810502
 20
126.8478956918
 11
160.9553121101
 21
127.2013801619
  0
LINE
  5
375
100
AcDbEntity
  8
0
100
AcDbLine
 62
7
  6
CONTINUOUS
 10
162.1572557971
 20
127.0953830652
 11
161.4502868569
 21
127.4488675353
  0
LINE
  5
376
100
AcDbEntity
  8
21814000
100
AcDbLine
 62
7
  6
CONTINUOUS
 10
161.1897920846
 20
127.9315131765
 11
160.7511816121
 21
128.1508184127
  0
LINE
  5
377
100
AcDbEntity
  8
RACCORDO
100
AcDbLine
 62
7
  6
CONTINUOUS
 10
164.8606320764
 20
127.2114006125
 11
164.9734069616
 21
127.1549082864
  0
LWPOLYLINE
  5
378
100
AcDbEntity
  8
RACCORDO
100
AcDbPolyline
 62
7
  6
CONTINUOUS
 90
10
 70
0
 10
164.8226880091
 20
127.2240682675
 10
164.7252109554
 20
127.2741236991
 10
164.6295977536
 20
127.3230995748
 10
164.5358484036
 20
127.3709958944
 10
164.4439773223
 20
127.4178140822
 10
164.3539700929
 20
127.4635527139
 10
164.2657834649
 20
127.5082075169
 10
164.1794030215
 20
127.5517770671
 10
164.0948431795
 20
127.5942627885
 10
164.0121039389
 20
127.6356646812
  0
LINE
  5
379
100
AcDbEntity
  8
RACCORDO
100
AcDbLine
 62
7
  6
CONTINUOUS
 10
164.8304464377
 20
127.2194817954
 11
164.8226880091
 21
127.2240682675
  0
LWPOLYLINE
  5
37A
100
AcDbEntity
  8
RACCORDO
100
AcDbPolyline
 62
250
  6
CONTINUOUS
 90
5
 70
0
 10
164.8606320764
 20
127.2114006125
 10
164.8851550667
 20
127.1908962341
 10
164.9095208283
 20
127.1696179697
 10
164.9336575785
 20
127.1475556924
 10
164.9418064059
 20
127.1397417228
  0
LWPOLYLINE
  5
37B
100
AcDbEntity
  8
RACCORDO
100
AcDbPolyline
 62
250
  6
CONTINUOUS
 90
4
 70
0
 10
164.7669954772
 20
127.205104604
 10
164.7898559066
 20
127.1855258706
 10
164.8124334449
 20
127.1651728241
 10
164.8347280921
 20
127.1440454644
  0
LINE
  5
37C
100
AcDbEntity
  8
RACCORDO
100
AcDbLine
 62
250
  6
CONTINUOUS
 10
164.8347280921
 20
127.1440454644
 11
164.8567735904
 21
127.1222155775
  0
LINE
  5
37D
100
AcDbEntity
  8
RACCORDO
100
AcDbLine
 62
250
  6
CONTINUOUS
 10
164.8567735904
 20
127.1222155775
 11
164.8721066296
 21
127.1062895866
  0
LWPOLYLINE
  5
37E
100
AcDbEntity
  8
21814000
100
AcDbPolyline
 62
250
  6
CONTINUOUS
 90
35
 70
0
 10
170.0413441652
 20
124.0150393169
 10
170.0529416915
 20
123.9781643964
 10
170.0728791989
 20
123.9052505249
 10
170.089193196
 20
123.8342787745
 10
170.1027889563
 20
123.7652124395
 10
170.1138467131
 20
123.6982335702
 10
170.1223740881
 20
123.6333100688
 10
170.1289737696
 20
123.5700585056
 10
170.1337861835
 20
123.5084998172
 10
170.1368057229
 20
123.4487050116
 10
170.138377861
 20
123.3903463066
 10
170.1385940399
 20
123.3333755773
 10
170.1374630929
 20
123.2778991839
 10
170.1351852649
 20
123.2238110821
 10
170.1318241193
 20
123.1710965686
 10
170.1274015432
 20
123.1198104442
 10
170.1220466261
 20
123.0699465077
 10
170.1158178866
 20
123.0215302641
 10
170.1087341185
 20
122.9745643093
 10
170.1008600348
 20
122.9290052641
 10
170.0922533506
 20
122.8848686381
 10
170.082924315
 20
122.842157528
 10
170.0728623965
 20
122.8008074997
 10
170.0621128049
 20
122.7607799429
 10
170.0506892501
 20
122.7221249069
 10
170.0385332808
 20
122.6849092307
 10
170.0256808373
 20
122.6490821804
 10
170.0121509496
 20
122.6147014946
 10
169.997863757
 20
122.5819959317
 10
169.9828522992
 20
122.5509282869
 10
169.9671362009
 20
122.5215406422
 10
169.9506211165
 20
122.494180772
 10
169.9332928385
 20
122.4689665087
 10
169.9152120036
 20
122.4457855328
 10
169.8963961747
 20
122.4246409997
  0
LINE
  5
37F
100
AcDbEntity
  8
21814000
100
AcDbLine
 62
7
  6
CONTINUOUS
 10
165.4197050646
 20
127.6917768019
 11
164.6932076759
 21
128.0550254963
  0
LINE
  5
380
100
AcDbEntity
  8
21814000
100
AcDbLine
 62
7
  6
CONTINUOUS
 10
165.2368754042
 20
127.7988514847
 11
164.9327560203
 21
127.9509111766
  0
LINE
  5
381
100
AcDbEntity
  8
21814000
100
AcDbLine
 62
7
  6
CONTINUOUS
 10
167.631475438
 20
128.4306378965
 11
164.5192378651
 21
129.9867566829
  0
LWPOLYLINE
  5
382
100
AcDbEntity
  8
21814000
100
AcDbPolyline
 62
7
  6
CONTINUOUS
 90
10
 70
0
 10
165.2368754042
 20
127.7988514847
 10
165.2054599498
 20
127.8169042969
 10
165.1734429725
 20
127.8346715993
 10
165.1408244724
 20
127.8521533919
 10
165.1075942816
 20
127.8693547585
 10
165.073762568
 20
127.8862706153
 10
165.0393598348
 20
127.9028857107
 10
165.0043962496
 20
127.9191949608
 10
164.9688616448
 20
127.9352034494
 10
164.9327560203
 20
127.9509111766
  0
LWPOLYLINE
  5
383
100
AcDbEntity
  8
21814000
100
AcDbPolyline
 62
7
  6
CONTINUOUS
 90
35
 70
0
 10
170.0413441652
 20
126.0971273886
 10
170.1581176939
 20
126.0200252824
 10
170.2979143674
 20
125.9155116361
 10
170.4346522231
 20
125.8009830391
 10
170.5675176667
 20
125.6772665346
 10
170.6959031199
 20
125.5451197595
 10
170.81948472
 20
125.4050523535
 10
170.9378648814
 20
125.2576468499
 10
171.0506192645
 20
125.1035359603
 10
171.1572948305
 20
124.9434291763
 10
171.2574518426
 20
124.7780734191
 10
171.3506677864
 20
124.6082556574
 10
171.436620909
 20
124.4346376268
 10
171.5150362906
 20
124.2577996681
 10
171.5856029656
 20
124.0784091043
 10
171.647977548
 20
123.8972745442
 10
171.701862284
 20
123.7151792492
 10
171.7469990071
 20
123.5328746662
 10
171.7831579099
 20
123.3510978292
 10
171.8101336538
 20
123.1705743694
 10
171.8277534592
 20
122.9918719171
 10
171.8358263603
 20
122.8158754013
 10
171.8342262985
 20
122.6436951606
 10
171.8228789264
 20
122.4757791852
 10
171.8017443241
 20
122.3130022489
 10
171.7710149701
 20
122.1569086085
 10
171.7309104777
 20
122.0081666437
 10
171.6815841296
 20
121.8670737133
 10
171.6233890099
 20
121.7344076234
 10
171.5565806262
 20
121.6105102726
 10
171.4815119125
 20
121.4958511744
 10
171.3989222071
 20
121.3912535363
 10
171.3094830361
 20
121.2971261969
 10
171.2136587277
 20
121.213545637
 10
171.1120672582
 20
121.1406967115
  0
LWPOLYLINE
  5
384
100
AcDbEntity
  8
21814000
100
AcDbPolyline
 62
250
  6
CONTINUOUS
 90
34
 70
0
 10
170.0413441652
 20
126.0185168677
 10
170.1194392559
 20
125.9630050642
 10
170.2565801258
 20
125.853549455
 10
170.3911226174
 20
125.7340239815
 10
170.5224391963
 20
125.6049861327
 10
170.6499173548
 20
125.4670377844
 10
170.7729624917
 20
125.3208223738
 10
170.8910006871
 20
125.167021895
 10
171.0034813816
 20
125.0063537129
 10
171.1098799362
 20
124.8395672256
 10
171.2097000792
 20
124.66744037
 10
171.3024762206
 20
124.4907759953
 10
171.3877756259
 20
124.3103981144
 10
171.4652004347
 20
124.1271480605
 10
171.5343895164
 20
123.9418805626
 10
171.5950201541
 20
123.7554597596
 10
171.6468095496
 20
123.5687551697
 10
171.6895161426
 20
123.3826376356
 10
171.7229407377
 20
123.1979752612
 10
171.7469274332
 20
123.0156293635
 10
171.7613643485
 20
122.8364504545
 10
171.7661841458
 20
122.6612742745
 10
171.7613643442
 20
122.490917894
 10
171.7469274246
 20
122.3261759028
 10
171.7229407248
 20
122.1678167034
 10
171.6895161255
 20
122.0165789273
 10
171.6468095283
 20
121.8731679895
 10
171.5950201286
 20
121.7382527989
 10
171.5343894868
 20
121.6124626376
 10
171.4652004011
 20
121.4963842258
 10
171.3877755884
 20
121.3905589854
 10
171.3024761793
 20
121.2954805145
 10
171.2097000342
 20
121.2115922861
 10
171.1120672582
 20
121.1406967115
  0
LINE
  5
385
100
AcDbEntity
  8
21814000
100
AcDbLine
 62
250
  6
CONTINUOUS
 10
169.0302432906
 20
128.3124560031
 11
169.4497865016
 21
127.5888510016
  0
LINE
  5
386
100
AcDbEntity
  8
21814000
100
AcDbLine
 62
7
  6
CONTINUOUS
 10
169.420507655
 20
128.3068461892
 11
169.7673454255
 21
127.7086395233
  0
LWPOLYLINE
  5
387
100
AcDbEntity
  8
21814000
100
AcDbPolyline
 62
250
  6
CONTINUOUS
 90
13
 70
0
 10
169.4497865016
 20
127.5888510016
 10
169.501555751
 20
127.4952704842
 10
169.5495991015
 20
127.3995510296
 10
169.5937108239
 20
127.3021025232
 10
169.6337020251
 20
127.203342254
 10
169.6694014563
 20
127.103693129
 10
169.7006562467
 20
127.0035818623
 10
169.7273325583
 20
126.9034371456
 10
169.7493161592
 20
126.803687814
 10
169.766512912
 20
126.7047610105
 10
169.7788491778
 20
126.6070803553
 10
169.7862721309
 20
126.5110641315
 10
169.7887499855
 20
126.4171234952
  0
LINE
  5
388
100
AcDbEntity
  8
21814000
100
AcDbLine
 62
250
  6
CONTINUOUS
 10
169.0302432906
 20
128.3124560031
 11
168.2245713546
 21
128.7152919711
  0
LINE
  5
389
100
AcDbEntity
  8
21814000
100
AcDbLine
 62
250
  6
CONTINUOUS
 10
163.5229082754
 20
131.0661235106
 11
162.5517494418
 21
131.5517029275
  0
LINE
  5
38A
100
AcDbEntity
  8
21814000
100
AcDbLine
 62
7
  6
CONTINUOUS
 10
169.3605186682
 20
128.3631381072
 11
168.534759768
 21
128.7760175572
  0
LINE
  5
38B
100
AcDbEntity
  8
21814000
100
AcDbLine
 62
7
  6
CONTINUOUS
 10
163.995491047
 20
131.0456519178
 11
162.9431350343
 21
131.5718299241
  0
LWPOLYLINE
  5
38C
100
AcDbEntity
  8
21814000
100
AcDbPolyline
 62
7
  6
CONTINUOUS
 90
4
 70
0
 10
169.3624442201
 20
128.3621751339
 10
169.3760876961
 20
128.354360392
 10
169.3996233927
 20
128.3349881135
 10
169.4198015354
 20
128.308110282
  0
LWPOLYLINE
  5
38D
100
AcDbEntity
  8
21814000
100
AcDbPolyline
 62
250
  6
CONTINUOUS
 90
12
 70
0
 10
169.7673454255
 20
127.7086395233
 10
169.7659862888
 20
127.7102366373
 10
169.7580673707
 20
127.7127582405
 10
169.7444227782
 20
127.7118894313
 10
169.7251540616
 20
127.707636676
 10
169.7004046286
 20
127.7000316257
 10
169.6703586776
 20
127.6891308811
 10
169.6352398262
 20
127.6750155715
 10
169.5953094471
 20
127.6577907504
 10
169.5508647232
 20
127.637584614
 10
169.5022364353
 20
127.6145475471
 10
169.4497865005
 20
127.5888510034
  0
ELLIPSE
  5
38E
100
AcDbEntity
  8
RACCORDO
100
AcDbEllipse
 62
7
  6
CONTINUOUS
 10
138.134203167
 20
128.0861999197
 30
0.0
 11
-0.2788365272
 21
0.7500446945
 31
0.0
 40
0.6612065299
 41
-0.3094034508
 42
0.0194907506
  0
ELLIPSE
  5
38F
100
AcDbEntity
  8
RACCORDO
100
AcDbEllipse
 62
7
  6
CONTINUOUS
 10
152.700215034
 20
120.8031939862
 30
0.0
 11
-0.2786426855
 21
0.7499328199
 31
0.0
 40
0.6614915248
 41
-2.1866907741
 42
-0.8229222114
  0
ELLIPSE
  5
390
100
AcDbEntity
  8
RACCORDO
100
AcDbEllipse
 62
7
  6
CONTINUOUS
 10
149.5884912801
 20
82.9874449682
 30
0.0
 11
-0.2788365272
 21
0.7500446945
 31
0.0
 40
0.6612065299
 41
-3.1612482642
 42
-2.1871130547
  0
ELLIPSE
  5
391
100
AcDbEntity
  8
21814000
100
AcDbEllipse
 62
7
  6
CONTINUOUS
 10
162.4447818028
 20
128.2495330034
 30
0.0
 11
3.3311333813
 21
-0.0467042088
 31
0.0
 40
0.4892378494
 41
3.8528301344
 42
5.5059722822
  0
ELLIPSE
  5
392
100
AcDbEntity
  8
21814000
100
AcDbEllipse
 62
7
  6
CONTINUOUS
 10
163.140272064
 20
126.9562731868
 30
0.0
 11
2.7583300471
 21
-0.038763314
 31
0.0
 40
0.4892375088
 41
0.4291477653
 42
0.6564870977
  0
ELLIPSE
  5
393
100
AcDbEntity
  8
21814000
100
AcDbEllipse
 62
7
  6
CONTINUOUS
 10
162.4685206219
 20
127.0677708708
 30
0.0
 11
2.7499350056
 21
-0.0386453369
 31
0.0
 40
0.4892375088
 41
8.654981679
 42
9.2557277435
  0
ELLIPSE
  5
394
100
AcDbEntity
  8
21814000
100
AcDbEllipse
 62
7
  6
CONTINUOUS
 10
163.140272064
 20
126.9562731868
 30
0.0
 11
2.7583300471
 21
-0.038763314
 31
0.0
 40
0.4892375088
 41
0.9280596999
 42
2.3630697256
  0
ELLIPSE
  5
395
100
AcDbEntity
  8
21814000
100
AcDbEllipse
 62
7
  6
CONTINUOUS
 10
167.8459862951
 20
128.1141737038
 30
0.0
 11
0.716172246
 21
0.6416715914
 31
0.0
 40
0.2882345029
 41
0.1142323894
 42
0.7807533904
  0
ELLIPSE
  5
396
100
AcDbEntity
  8
21814000
100
AcDbEllipse
 62
7
  6
CONTINUOUS
 10
163.140272064
 20
128.900983898
 30
0.0
 11
2.7583515655
 21
-1.4175703156
 31
0.0
 40
0.0109499087
 41
-0.9155571536
 42
-0.85781018
  0
ELLIPSE
  5
397
100
AcDbEntity
  8
21814000
100
AcDbEllipse
 62
7
  6
CONTINUOUS
 10
163.140272064
 20
128.900983898
 30
0.0
 11
2.7583515655
 21
-1.4175703156
 31
0.0
 40
0.0109499087
 41
-0.7017315251
 42
-0.6439845515
  0
ELLIPSE
  5
398
100
AcDbEntity
  8
21814000
100
AcDbEllipse
 62
7
  6
CONTINUOUS
 10
163.140272064
 20
127.3892858887
 30
0.0
 11
2.7583300471
 21
-0.038763314
 31
0.0
 40
0.4892375088
 41
0.1708839954
 42
2.3630697256
  0
ELLIPSE
  5
399
100
AcDbEntity
  8
21814000
100
AcDbEllipse
 62
7
  6
CONTINUOUS
 10
163.879280048
 20
130.0975268274
 30
0.0
 11
-0.2796057293
 21
0.9974617846
 31
0.0
 40
0.6760995073
 41
4.8467711056
 42
6.4001141399
  0
ELLIPSE
  5
39A
100
AcDbEntity
  8
21814000
100
AcDbEllipse
 62
7
  6
CONTINUOUS
 10
162.4447818028
 20
128.2495330034
 30
0.0
 11
3.3311333813
 21
-0.0467042088
 31
0.0
 40
0.4892378494
 41
2.3616770883
 42
3.7058786528
  0
ELLIPSE
  5
39B
100
AcDbEntity
  8
26814000
100
AcDbEllipse
 62
7
  6
CONTINUOUS
 10
151.0226468772
 20
82.5759458201
 30
0.0
 11
0.110769438
 21
0.2241226716
 31
0.0
 40
0.6088015717
 41
-4.0304836828
 42
-3.1443955108
  0
ELLIPSE
  5
39C
100
AcDbEntity
  8
26814000
100
AcDbEllipse
 62
7
  6
CONTINUOUS
 10
137.6583287128
 20
130.8110804354
 30
0.0
 11
0.110769438
 21
0.2241226716
 31
0.0
 40
0.6088015717
 41
-4.0304836828
 42
-3.1443650652
  0
ELLIPSE
  5
39D
100
AcDbEntity
  8
26814000
100
AcDbEllipse
 62
7
  6
CONTINUOUS
 10
151.0226468772
 20
124.1289213532
 30
0.0
 11
0.110769438
 21
0.2241226716
 31
0.0
 40
0.6088015717
 41
-4.0304836828
 42
-3.1443650652
  0
ELLIPSE
  5
39E
100
AcDbEntity
  8
26814000
100
AcDbEllipse
 62
7
  6
CONTINUOUS
 10
155.0792547585
 20
122.8372033041
 30
0.0
 11
-0.1565168911
 21
0.3130623908
 31
0.0
 40
0.6123677712
 41
-2.2554744912
 42
-0.6846781644
  0
ELLIPSE
  5
39F
100
AcDbEntity
  8
26814000
100
AcDbEllipse
 62
7
  6
CONTINUOUS
 10
155.0792547585
 20
84.6606214594
 30
0.0
 11
-0.1565168911
 21
0.3130623908
 31
0.0
 40
0.6123677712
 41
-3.1363904945
 42
-2.2554744912
  0
ELLIPSE
  5
3A0
100
AcDbEntity
  8
26814000
100
AcDbEllipse
 62
7
  6
CONTINUOUS
 10
149.3126592099
 20
131.9424346093
 30
0.0
 11
0.2999991737
 21
-0.0014183462
 31
0.0
 40
0.4964289597
 41
0.7877451926
 42
2.3527237553
  0
ELLIPSE
  5
3A1
100
AcDbEntity
  8
26814000
100
AcDbEllipse
 62
7
  6
CONTINUOUS
 10
154.8671227241
 20
129.1652028522
 30
0.0
 11
0.2999991737
 21
-0.0014183462
 31
0.0
 40
0.4964289597
 41
0.7877451926
 42
2.3585415194
  0
ELLIPSE
  5
3A2
100
AcDbEntity
  8
26814000
100
AcDbEllipse
 62
7
  6
CONTINUOUS
 10
154.4064748596
 20
123.454774315
 30
0.0
 11
0.110769438
 21
0.2241226716
 31
0.0
 40
0.6088015717
 41
1.2055040732
 42
2.2526937431
  0
ELLIPSE
  5
3A3
100
AcDbEntity
  8
26814000
100
AcDbEllipse
 62
7
  6
CONTINUOUS
 10
141.0421566952
 20
130.1369333972
 30
0.0
 11
0.110769438
 21
0.2241226716
 31
0.0
 40
0.6088015717
 41
1.2055040732
 42
2.2526937431
  0
ELLIPSE
  5
3A4
100
AcDbEntity
  8
26814000
100
AcDbEllipse
 62
7
  6
CONTINUOUS
 10
154.7579713367
 20
124.382579467
 30
0.0
 11
0.110769438
 21
0.2241226716
 31
0.0
 40
0.6088015717
 41
-1.9360885804
 42
-0.8888910292
  0
ELLIPSE
  5
3A5
100
AcDbEntity
  8
26814000
100
AcDbEllipse
 62
7
  6
CONTINUOUS
 10
153.1377964804
 20
125.4535958716
 30
0.0
 11
0.1128509832
 21
0.2230818409
 31
0.0
 40
0.6159267166
 41
0.0028979148
 42
0.6817883054
  0
ELLIPSE
  5
3A6
100
AcDbEntity
  8
26814000
100
AcDbEllipse
 62
7
  6
CONTINUOUS
 10
151.0226468772
 20
124.382292747
 30
0.0
 11
0.110769438
 21
0.2241226716
 31
0.0
 40
0.6088015717
 41
0.6877230618
 42
2.2527016244
  0
ELLIPSE
  5
3A7
100
AcDbEntity
  8
26814000
100
AcDbEllipse
 62
7
  6
CONTINUOUS
 10
141.3936531723
 20
131.0647385492
 30
0.0
 11
0.110769438
 21
0.2241226716
 31
0.0
 40
0.6088015717
 41
-1.9360885804
 42
-0.8888910292
  0
ELLIPSE
  5
3A8
100
AcDbEntity
  8
26814000
100
AcDbEllipse
 62
7
  6
CONTINUOUS
 10
139.773478316
 20
132.1357549538
 30
0.0
 11
0.1128509832
 21
0.2230818409
 31
0.0
 40
0.6159267166
 41
0.0028979148
 42
0.6817883054
  0
ELLIPSE
  5
3A9
100
AcDbEntity
  8
26814000
100
AcDbEllipse
 62
7
  6
CONTINUOUS
 10
137.6583287128
 20
131.0644518292
 30
0.0
 11
0.110769438
 21
0.2241226716
 31
0.0
 40
0.6088015717
 41
0.6877230618
 42
2.2527016244
  0
ELLIPSE
  5
3AA
100
AcDbEntity
  8
26814000
100
AcDbEllipse
 62
7
  6
CONTINUOUS
 10
154.7579713367
 20
82.8220463513
 30
0.0
 11
0.110769438
 21
0.2241226716
 31
0.0
 40
0.6088015717
 41
-2.4538695918
 42
-0.8888910292
  0
ELLIPSE
  5
3AB
100
AcDbEntity
  8
26814000
100
AcDbEllipse
 62
7
  6
CONTINUOUS
 10
151.0226468772
 20
82.8293172139
 30
0.0
 11
0.110769438
 21
0.2241226716
 31
0.0
 40
0.6088015717
 41
1.2055040732
 42
2.2527016244
  0
ELLIPSE
  5
3AC
100
AcDbEntity
  8
26814000
100
AcDbEllipse
 62
7
  6
CONTINUOUS
 10
154.7579713367
 20
83.0829753276
 30
0.0
 11
0.110769438
 21
0.2241226716
 31
0.0
 40
0.6088015717
 41
5.394294278
 42
6.4414918292
  0
ELLIPSE
  5
3AD
100
AcDbEntity
  8
26814000
100
AcDbEllipse
 62
7
  6
CONTINUOUS
 10
141.3936531723
 20
131.3256675256
 30
0.0
 11
0.110769438
 21
0.2241226716
 31
0.0
 40
0.6088015717
 41
5.394294278
 42
6.9592728406
  0
ELLIPSE
  5
3AE
100
AcDbEntity
  8
26814000
100
AcDbEllipse
 62
7
  6
CONTINUOUS
 10
154.7579713367
 20
124.6435084434
 30
0.0
 11
0.110769438
 21
0.2241226716
 31
0.0
 40
0.6088015717
 41
5.394294278
 42
6.9592728406
  0
ELLIPSE
  5
3AF
100
AcDbEntity
  8
26814000
100
AcDbEllipse
 62
7
  6
CONTINUOUS
 10
149.4931111871
 20
130.6203744393
 30
0.0
 11
0.2999981629
 21
-0.0021225547
 31
0.0
 40
0.4946372042
 41
-0.7818985079
 42
0.0034997008
  0
ELLIPSE
  5
3B0
100
AcDbEntity
  8
26814000
100
AcDbEllipse
 62
7
  6
CONTINUOUS
 10
155.0475747012
 20
127.8431426822
 30
0.0
 11
0.2999981629
 21
-0.0021225547
 31
0.0
 40
0.4946372042
 41
-0.7760807437
 42
0.0035109161
  0
ELLIPSE
  5
3B1
100
AcDbEntity
  8
26814000
100
AcDbEllipse
 62
7
  6
CONTINUOUS
 10
143.3441654596
 20
129.0222532414
 30
0.0
 11
0.2999991335
 21
0.0014318851
 31
0.0
 40
0.5035541159
 41
8.6427941204
 42
10.207772683
  0
ELLIPSE
  5
3B2
100
AcDbEntity
  8
26814000
100
AcDbEllipse
 62
7
  6
CONTINUOUS
 10
137.3308745507
 20
129.22518314
 30
0.0
 11
-0.1565168911
 21
0.3130623908
 31
0.0
 40
0.6123677712
 41
-0.6846781644
 42
0.8861181623
  0
ELLIPSE
  5
3B3
100
AcDbEntity
  8
26814000
100
AcDbEllipse
 62
7
  6
CONTINUOUS
 10
152.6043810243
 20
121.5884299032
 30
0.0
 11
-0.1565168911
 21
0.3130623908
 31
0.0
 40
0.6123677712
 41
-2.2554744912
 42
-0.6846781644
  0
ELLIPSE
  5
3B4
100
AcDbEntity
  8
26814000
100
AcDbEllipse
 62
7
  6
CONTINUOUS
 10
149.1366745277
 20
126.1259987073
 30
0.0
 11
0.2999991335
 21
0.0014318851
 31
0.0
 40
0.5035541159
 41
-2.3585979313
 42
-0.7936193687
  0
ELLIPSE
  5
3B5
100
AcDbEntity
  8
26814000
100
AcDbEllipse
 62
7
  6
CONTINUOUS
 10
149.1366745277
 20
124.9117996315
 30
0.0
 11
0.2999980272
 21
0.0021530184
 31
0.0
 40
0.5053247124
 41
-2.3598210761
 42
-0.7948425135
  0
ELLIPSE
  5
3B6
100
AcDbEntity
  8
26814000
100
AcDbEllipse
 62
7
  6
CONTINUOUS
 10
143.3441654596
 20
127.8080541655
 30
0.0
 11
0.2999980272
 21
0.0021530184
 31
0.0
 40
0.5053247124
 41
3.1379773283
 42
3.9233642311
  0
ELLIPSE
  5
3B7
100
AcDbEntity
  8
26814000
100
AcDbEllipse
 62
7
  6
CONTINUOUS
 10
155.0475747012
 20
129.0749768636
 30
0.0
 11
0.2999991737
 21
-0.0014183462
 31
0.0
 40
0.4964289597
 41
-0.77723337
 42
0.7877451926
  0
ELLIPSE
  5
3B8
100
AcDbEntity
  8
26814000
100
AcDbEllipse
 62
7
  6
CONTINUOUS
 10
149.4931111871
 20
131.8522086207
 30
0.0
 11
0.2999991737
 21
-0.0014183462
 31
0.0
 40
0.4964289597
 41
-0.7830511342
 42
0.7877451926
  0
ELLIPSE
  5
3B9
100
AcDbEntity
  8
26814000
100
AcDbEllipse
 62
7
  6
CONTINUOUS
 10
152.6043810243
 20
83.4345211261
 30
0.0
 11
-0.1565168911
 21
0.3130623908
 31
0.0
 40
0.6123677712
 41
2.4569144891
 42
4.0277108159
  0
ELLIPSE
  5
3BA
100
AcDbEntity
  8
26814000
100
AcDbEllipse
 62
7
  6
CONTINUOUS
 10
154.4064748596
 20
83.6551701756
 30
0.0
 11
0.110769438
 21
0.2241226716
 31
0.0
 40
0.6088015717
 41
2.2527095058
 42
3.2998991756
  0
ELLIPSE
  5
3BB
100
AcDbEntity
  8
26814000
100
AcDbEllipse
 62
7
  6
CONTINUOUS
 10
152.6304802528
 20
123.5783760592
 30
0.0
 11
0.1128509832
 21
0.2230818409
 31
0.0
 40
0.6159267166
 41
0.6934238338
 42
2.2584023964
  0
ELLIPSE
  5
3BC
100
AcDbEntity
  8
26814000
100
AcDbEllipse
 62
7
  6
CONTINUOUS
 10
152.6304802528
 20
123.3250046654
 30
0.0
 11
0.1128509832
 21
0.2230818409
 31
0.0
 40
0.6159267166
 41
-4.0247829108
 42
-2.9775853596
  0
ELLIPSE
  5
3BD
100
AcDbEntity
  8
26814000
100
AcDbEllipse
 62
7
  6
CONTINUOUS
 10
139.2661620884
 20
130.2605351414
 30
0.0
 11
0.1128509832
 21
0.2230818409
 31
0.0
 40
0.6159267166
 41
0.6934238338
 42
2.2584023964
  0
ELLIPSE
  5
3BE
100
AcDbEntity
  8
26814000
100
AcDbEllipse
 62
7
  6
CONTINUOUS
 10
139.2661620884
 20
130.0071637476
 30
0.0
 11
0.1128509832
 21
0.2230818409
 31
0.0
 40
0.6159267166
 41
-4.0247829108
 42
-2.9775853596
  0
ELLIPSE
  5
3BF
100
AcDbEntity
  8
26814000
100
AcDbEllipse
 62
7
  6
CONTINUOUS
 10
152.6304802528
 20
81.7720291323
 30
0.0
 11
0.1128509832
 21
0.2230818409
 31
0.0
 40
0.6159267166
 41
-4.0247829108
 42
-2.4598043482
  0
ELLIPSE
  5
3C0
100
AcDbEntity
  8
26814000
100
AcDbEllipse
 62
7
  6
CONTINUOUS
 10
152.6304802528
 20
82.025400526
 30
0.0
 11
0.1128509832
 21
0.2230818409
 31
0.0
 40
0.6159267166
 41
1.2112048452
 42
2.2584023964
  0
ELLIPSE
  5
3C1
100
AcDbEntity
  8
26814000
100
AcDbEllipse
 62
7
  6
CONTINUOUS
 10
150.9521747181
 20
88.876175493
 30
0.0
 11
-0.542618321
 21
0.8478124368
 31
0.0
 40
0.5451249042
 41
-3.2164376038
 42
-2.3115524019
  0
ENDSEC
  0
SECTION
  2
OBJECTS
  0
DICTIONARY
  5
C
100
AcDbDictionary
280
0
281
1
  3
ACAD_GROUP
350
D
  3
ACAD_MLINESTYLE
350
17
  3
ACAD_LAYOUT
350
1A
  3
ACAD_PLOTSETTINGS
350
19
  3
ACAD_PLOTSTYLENAME
350
E
  0
DICTIONARY
  5
D
102
{ACAD_REACTORS
330
C
102
}
100
AcDbDictionary
280
0
281
1
  0
ACDBDICTIONARYWDFLT
  5
E
102
{ACAD_REACTORS
330
C
102
}
100
AcDbDictionary
281
1
  3
Normal
350
F
100
AcDbDictionaryWithDefault
340
F
  0
DICTIONARY
  5
17
102
{ACAD_REACTORS
330
C
102
}
100
AcDbDictionary
280
0
281
1
  3
Standard
350
18
  0
DICTIONARY
  5
19
102
{ACAD_REACTORS
330
C
102
}
100
AcDbDictionary
281
1
  0
DICTIONARY
  5
1A
102
{ACAD_REACTORS
330
C
102
}
100
AcDbDictionary
281
1
  3
Model
350
3C2
  3
Layout1
350
3C3
  0
ACDBPLACEHOLDER
  5
F
102
{ACAD_REACTORS
330
E
102
}
  0
MLINESTYLE
  5
18
102
{ACAD_REACTORS
330
17
102
}
100
AcDbMlineStyle
  2
STANDARD
 70
0
  3

 62
256
 51
90.0
 52
90.0
 71
2
 49
0.5
 62
256
  6
BYLAYER
 49
-0.5
 62
256
  6
BYLAYER
  0
LAYOUT
  5
3C2
102
{ACAD_REACTORS
330
1A
102
}
100
AcDbPlotSettings
  1

  2
none_device
  4
ISO_A4_(297.00_x_210.00_MM)
  6

 40
0.0
 41
0.0
 42
0.0
 43
0.0
 44
297.0
 45
210.0
 46
0.0
 47
0.0
 48
0.0
 49
0.0
140
0.0
141
0.0
142
1.0
143
1.0
 70
1024
 72
1
 73
0
 74
0
  7

 75
0
147
1.0
148
0.0
149
0.0
100
AcDbLayout
  1
Model
 70
0
 71
0
 10
0.0
 20
0.0
 11
297.0
 21
210.0
 12
0.0
 22
0.0
 32
0.0
 14
0.0
 24
0.0
 34
0.0
 15
0.0
 25
0.0
 35
0.0
146
0.0
 13
0.0
 23
0.0
 33
0.0
 16
1.0
 26
0.0
 36
0.0
 17
0.0
 27
1.0
 37
0.0
 76
0
330
22B
345
0
346
0
  0
LAYOUT
  5
3C3
102
{ACAD_REACTORS
330
1A
102
}
100
AcDbPlotSettings
  1

  2
none_device
  4
ISO_A4_(297.00_x_210.00_MM)
  6

 40
0.0
 41
0.0
 42
0.0
 43
0.0
 44
297.0
 45
210.0
 46
0.0
 47
0.0
 48
0.0
 49
0.0
140
0.0
141
0.0
142
1.0
143
1.0
 70
0
 72
1
 73
0
 74
0
  7

 75
0
147
1.0
148
0.0
149
0.0
100
AcDbLayout
  1
Layout1
 70
0
 71
1
 10
0.0
 20
0.0
 11
297.0
 21
210.0
 12
0.0
 22
0.0
 32
0.0
 14
0.0
 24
0.0
 34
0.0
 15
0.0
 25
0.0
 35
0.0
146
0.0
 13
0.0
 23
0.0
 33
0.0
 16
1.0
 26
0.0
 36
0.0
 17
0.0
 27
1.0
 37
0.0
 76
0
330
22C
345
0
346
0
  0
ENDSEC
  0
EOF
