  0
SECTION
  2
HEADER
  9
$ACADVER
  1
AC1024
  9
$DWGCODEPAGE
  3
ANSI_1252
  9
$EXTMAX
 10
297.0
 20
210.0
 30
0.0
  9
$EXTMIN
 10
0.0
 20
0.0
 30
0.0
  9
$LIMMIN
 10
0.0
 20
0.0
  9
$LIMMAX
 10
297.0
 20
210.0
  9
$VIEWCTR
 10
148.5
 20
105.0
  9
$VIEWSIZE
 40
210.0
  9
$CLAYER
  8
0
  9
$LTSCALE
 40
16.335
  9
$CELTYPE
  6
BYLAYER
  9
$DIMSCALE
 40
1.0
  9
$DIMASZ
 40
3.0
  9
$DIMEXO
 40
0.5
  9
$DIMDLI
 40
11.286
  9
$DIMEXE
 40
1.5
  9
$DIMCEN
 40
2.673
  9
$DIMLFAC
 40
1.0
  9
$DIMBLK
  1
_FILLED
  9
$DIMALT
 70
0
  9
$DIMALTF
 40
0.0393700787
  9
$DIMTXT
 40
3.0
  9
$DIMTOL
 70
1
  9
$DIMLIM
 70
0
  9
$DIMTFAC
 40
1.0
  9
$DIMTP
 40
0.01
  9
$DIMTM
 40
0.01
  9
$DIMGAP
 40
0.625
  9
$DIMDSEP
 70
44
  9
$AUNITS
 70
0
  9
$PDMODE
 70
3
  9
$PDSIZE
 40
3.0
  9
$HANDSEED
  5
59E
  9
$TILEMODE
 70
1
  9
$MEASUREMENT
 70
1
  9
$INSUNITS
 70
4
  0
ENDSEC
  0
SECTION
  2
CLASSES
  0
CLASS
  1
ACDBDICTIONARYWDFLT
  2
AcDbDictionaryWithDefault
  3
AutoCAD 2000
 90
0
 91
1
280
0
281
0
  0
CLASS
  1
ACDBPLACEHOLDER
  2
AcDbPlaceHolder
  3
AutoCAD 2000
 90
0
 91
1
280
0
281
0
  0
CLASS
  1
LAYOUT
  2
AcDbLayout
  3
AutoCAD 2000
 90
0
 91
0
280
0
281
0
  0
ENDSEC
  0
SECTION
  2
TABLES
  0
TABLE
  2
VPORT
  5
8
100
AcDbSymbolTable
 70
2
  0
VPORT
  5
1F4
100
AcDbSymbolTableRecord
100
AcDbViewportTableRecord
  2
*ACTIVE
 70
0
 10
0.0
 20
0.0
 11
1.0
 21
1.0
 12
148.5
 22
105.0
 13
0.0
 23
0.0
 14
1.0
 24
1.0
 15
0.0
 25
0.0
 16
0.0
 26
0.0
 36
1.0
 17
0.0
 27
0.0
 37
0.0
 40
210.0
 41
1.4142857143
 42
50.0
 43
0.0
 44
0.0
 50
0.0
 51
0.0
 71
0
 72
100
 73
1
 74
1
 75
0
 76
0
 77
0
 78
0
  0
ENDTAB
  0
TABLE
  2
LTYPE
  5
5
100
AcDbSymbolTable
 70
6
  0
LTYPE
  5
14
100
AcDbSymbolTableRecord
100
AcDbLinetypeTableRecord
  2
BYBLOCK
 70
0
  3

 72
65
 73
0
 40
0.0
  0
LTYPE
  5
15
100
AcDbSymbolTableRecord
100
AcDbLinetypeTableRecord
  2
BYLAYER
 70
0
  3

 72
65
 73
0
 40
0.0
  0
LTYPE
  5
16
100
AcDbSymbolTableRecord
100
AcDbLinetypeTableRecord
  2
CONTINUOUS
 70
64
  3
Solid line
 72
65
 73
0
 40
0.0
  0
LTYPE
  5
1F5
100
AcDbSymbolTableRecord
100
AcDbLinetypeTableRecord
  2
CENTER
 70
64
  3
____ _ ____ _ ____ _ ____ _ ____ _ ____ _ ____
 72
65
 73
4
 40
0.6
 49
0.375
 74
0
 49
-0.075
 74
0
 49
0.075
 74
0
 49
-0.075
 74
0
  0
LTYPE
  5
1F6
100
AcDbSymbolTableRecord
100
AcDbLinetypeTableRecord
  2
HIDDEN
 70
64
  3
- - - - - - - - - - - - - - - - - - - -
 72
65
 73
2
 40
0.2
 49
0.1
 74
0
 49
-0.1
 74
0
  0
LTYPE
  5
1F7
100
AcDbSymbolTableRecord
100
AcDbLinetypeTableRecord
  2
PHANTOM
 70
64
  3
_____ _ _ _____ _ _ _____ _ _ _____
 72
65
 73
6
 40
0.8
 49
0.45
 74
0
 49
-0.05
 74
0
 49
0.1
 74
0
 49
-0.05
 74
0
 49
0.1
 74
0
 49
-0.05
 74
0
  0
LTYPE
  5
1F8
100
AcDbSymbolTableRecord
100
AcDbLinetypeTableRecord
  2
DOT
 70
64
  3
. . . . . . . . . . . . . . . . . . . .
 72
65
 73
2
 40
0.2
 49
0.1
 74
0
 49
-0.1
 74
0
  0
LTYPE
  5
1F9
100
AcDbSymbolTableRecord
100
AcDbLinetypeTableRecord
  2
DASHED
 70
64
  3
- - - - - - - - - - - - - - - - - - - -
 72
65
 73
2
 40
0.2
 49
0.1
 74
0
 49
-0.1
 74
0
  0
ENDTAB
  0
TABLE
  2
LAYER
  5
2
100
AcDbSymbolTable
 70
36
  0
LAYER
  5
10
100
AcDbSymbolTableRecord
100
AcDbLayerTableRecord
  2
0
 70
0
 62
7
  6
CONTINUOUS
370
-3
390
F
  0
LAYER
  5
1FA
100
AcDbSymbolTableRecord
100
AcDbLayerTableRecord
  2
DEFAULT_1
 70
0
 62
7
  6
CENTER
370
-3
390
F
  0
LAYER
  5
1FB
100
AcDbSymbolTableRecord
100
AcDbLayerTableRecord
  2
DEFAULT_2
 70
0
 62
7
  6
HIDDEN
370
-3
390
F
  0
LAYER
  5
1FC
100
AcDbSymbolTableRecord
100
AcDbLayerTableRecord
  2
DEFAULT_3
 70
0
 62
7
  6
PHANTOM
370
-3
390
F
  0
LAYER
  5
1FD
100
AcDbSymbolTableRecord
100
AcDbLayerTableRecord
  2
21814000
 70
0
 62
7
  6
CONTINUOUS
370
-3
390
F
  0
LAYER
  5
1FE
100
AcDbSymbolTableRecord
100
AcDbLayerTableRecord
  2
260140000
 70
0
 62
7
  6
CONTINUOUS
370
-3
390
F
  0
LAYER
  5
1FF
100
AcDbSymbolTableRecord
100
AcDbLayerTableRecord
  2
26814000
 70
0
 62
7
  6
CONTINUOUS
370
-3
390
F
  0
LAYER
  5
200
100
AcDbSymbolTableRecord
100
AcDbLayerTableRecord
  2
28414000
 70
0
 62
7
  6
CONTINUOUS
370
-3
390
F
  0
LAYER
  5
201
100
AcDbSymbolTableRecord
100
AcDbLayerTableRecord
  2
290140000
 70
0
 62
7
  6
CONTINUOUS
370
-3
390
F
  0
LAYER
  5
202
100
AcDbSymbolTableRecord
100
AcDbLayerTableRecord
  2
340000230
 70
0
 62
7
  6
CONTINUOUS
370
-3
390
F
  0
LAYER
  5
203
100
AcDbSymbolTableRecord
100
AcDbLayerTableRecord
  2
712140000
 70
0
 62
7
  6
CONTINUOUS
370
-3
390
F
  0
LAYER
  5
204
100
AcDbSymbolTableRecord
100
AcDbLayerTableRecord
  2
715140000
 70
0
 62
7
  6
CONTINUOUS
370
-3
390
F
  0
LAYER
  5
205
100
AcDbSymbolTableRecord
100
AcDbLayerTableRecord
  2
ASSI
 70
0
 62
7
  6
CONTINUOUS
370
-3
390
F
  0
LAYER
  5
206
100
AcDbSymbolTableRecord
100
AcDbLayerTableRecord
  2
COLORE_TOP
 70
0
 62
7
  6
CONTINUOUS
370
-3
390
F
  0
LAYER
  5
207
100
AcDbSymbolTableRecord
100
AcDbLayerTableRecord
  2
COORDINATE
 70
0
 62
7
  6
CONTINUOUS
370
-3
390
F
  0
LAYER
  5
208
100
AcDbSymbolTableRecord
100
AcDbLayerTableRecord
  2
COORD_ORIGINE
 70
0
 62
7
  6
CONTINUOUS
370
-3
390
F
  0
LAYER
  5
209
100
AcDbSymbolTableRecord
100
AcDbLayerTableRecord
  2
COPY_PUBLISH
 70
0
 62
7
  6
CONTINUOUS
370
-3
390
F
  0
LAYER
  5
20A
100
AcDbSymbolTableRecord
100
AcDbLayerTableRecord
  2
COSMETIC
 70
0
 62
7
  6
CONTINUOUS
370
-3
390
F
  0
LAYER
  5
20B
100
AcDbSymbolTableRecord
100
AcDbLayerTableRecord
  2
COSMETICHE
 70
0
 62
7
  6
CONTINUOUS
370
-3
390
F
  0
LAYER
  5
20C
100
AcDbSymbolTableRecord
100
AcDbLayerTableRecord
  2
COSMETICI
 70
0
 62
7
  6
CONTINUOUS
370
-3
390
F
  0
LAYER
  5
20D
100
AcDbSymbolTableRecord
100
AcDbLayerTableRecord
  2
CURVE
 70
0
 62
7
  6
CONTINUOUS
370
-3
390
F
  0
LAYER
  5
20E
100
AcDbSymbolTableRecord
100
AcDbLayerTableRecord
  2
DRAFT
 70
0
 62
7
  6
CONTINUOUS
370
-3
390
F
  0
LAYER
  5
20F
100
AcDbSymbolTableRecord
100
AcDbLayerTableRecord
  2
IMPORT
 70
0
 62
7
  6
CONTINUOUS
370
-3
390
F
  0
LAYER
  5
210
100
AcDbSymbolTableRecord
100
AcDbLayerTableRecord
  2
IMPORTED
 70
0
 62
7
  6
CONTINUOUS
370
-3
390
F
  0
LAYER
  5
211
100
AcDbSymbolTableRecord
100
AcDbLayerTableRecord
  2
IMPORT_IGES
 70
0
 62
7
  6
CONTINUOUS
370
-3
390
F
  0
LAYER
  5
212
100
AcDbSymbolTableRecord
100
AcDbLayerTableRecord
  2
INCISIONI_LASER
 70
0
 62
7
  6
CONTINUOUS
370
-3
390
F
  0
LAYER
  5
213
100
AcDbSymbolTableRecord
100
AcDbLayerTableRecord
  2
INTF_1
 70
0
 62
7
  6
CONTINUOUS
370
-3
390
F
  0
LAYER
  5
214
100
AcDbSymbolTableRecord
100
AcDbLayerTableRecord
  2
INTF_11
 70
0
 62
7
  6
CONTINUOUS
370
-3
390
F
  0
LAYER
  5
215
100
AcDbSymbolTableRecord
100
AcDbLayerTableRecord
  2
INTF_16
 70
0
 62
7
  6
CONTINUOUS
370
-3
390
F
  0
LAYER
  5
216
100
AcDbSymbolTableRecord
100
AcDbLayerTableRecord
  2
INTF_2
 70
0
 62
7
  6
CONTINUOUS
370
-3
390
F
  0
LAYER
  5
217
100
AcDbSymbolTableRecord
100
AcDbLayerTableRecord
  2
NOTE
 70
0
 62
7
  6
CONTINUOUS
370
-3
390
F
  0
LAYER
  5
218
100
AcDbSymbolTableRecord
100
AcDbLayerTableRecord
  2
PIANI
 70
0
 62
7
  6
CONTINUOUS
370
-3
390
F
  0
LAYER
  5
219
100
AcDbSymbolTableRecord
100
AcDbLayerTableRecord
  2
PIANI_DI_RIFERIMENTO
 70
0
 62
7
  6
CONTINUOUS
370
-3
390
F
  0
LAYER
  5
21A
100
AcDbSymbolTableRecord
100
AcDbLayerTableRecord
  2
PIANI_ORIGINE
 70
0
 62
7
  6
CONTINUOUS
370
-3
390
F
  0
LAYER
  5
21B
100
AcDbSymbolTableRecord
100
AcDbLayerTableRecord
  2
PIANI_RIFERIMENTO
 70
0
 62
7
  6
CONTINUOUS
370
-3
390
F
  0
LAYER
  5
21C
100
AcDbSymbolTableRecord
100
AcDbLayerTableRecord
  2
PIANI_SFORMO
 70
0
 62
7
  6
CONTINUOUS
370
-3
390
F
  0
LAYER
  5
21D
100
AcDbSymbolTableRecord
100
AcDbLayerTableRecord
  2
PUNTI
 70
0
 62
7
  6
CONTINUOUS
370
-3
390
F
  0
LAYER
  5
21E
100
AcDbSymbolTableRecord
100
AcDbLayerTableRecord
  2
RACCORDO
 70
0
 62
7
  6
CONTINUOUS
370
-3
390
F
  0
LAYER
  5
21F
100
AcDbSymbolTableRecord
100
AcDbLayerTableRecord
  2
RGB__255__255__255__
 70
0
 62
7
  6
CONTINUOUS
370
-3
390
F
  0
LAYER
  5
220
100
AcDbSymbolTableRecord
100
AcDbLayerTableRecord
  2
RINTRACCIABILITA
 70
0
 62
7
  6
CONTINUOUS
370
-3
390
F
  0
LAYER
  5
221
100
AcDbSymbolTableRecord
100
AcDbLayerTableRecord
  2
SIMBOLI
 70
0
 62
7
  6
CONTINUOUS
370
-3
390
F
  0
LAYER
  5
222
100
AcDbSymbolTableRecord
100
AcDbLayerTableRecord
  2
SMUSSO
 70
0
 62
7
  6
CONTINUOUS
370
-3
390
F
  0
LAYER
  5
223
100
AcDbSymbolTableRecord
100
AcDbLayerTableRecord
  2
SNAPLINE
 70
0
 62
7
  6
CONTINUOUS
370
-3
390
F
  0
LAYER
  5
224
100
AcDbSymbolTableRecord
100
AcDbLayerTableRecord
  2
SUPERFICI
 70
0
 62
7
  6
CONTINUOUS
370
-3
390
F
  0
LAYER
  5
225
100
AcDbSymbolTableRecord
100
AcDbLayerTableRecord
  2
TRASH
 70
0
 62
7
  6
CONTINUOUS
370
-3
390
F
  0
LAYER
  5
226
100
AcDbSymbolTableRecord
100
AcDbLayerTableRecord
  2
WHITE
 70
0
 62
7
  6
CONTINUOUS
370
-3
390
F
  0
LAYER
  5
227
100
AcDbSymbolTableRecord
100
AcDbLayerTableRecord
  2
XSEC_DATUMS
 70
0
 62
7
  6
CONTINUOUS
370
-3
390
F
  0
ENDTAB
  0
TABLE
  2
STYLE
  5
3
100
AcDbSymbolTable
 70
1
  0
STYLE
  5
11
100
AcDbSymbolTableRecord
100
AcDbTextStyleTableRecord
  2
STANDARD
 70
0
 40
0.0
 41
0.8
 50
0.0
 71
0
 42
0.2
  3
txt
  4

  0
STYLE
  5
228
100
AcDbSymbolTableRecord
100
AcDbTextStyleTableRecord
  2
TEXTSTYLE_1
 70
0
 40
0.0
 41
0.8
 50
0.0
 71
0
 42
0.2
  3
gdt
  4

  0
ENDTAB
  0
TABLE
  2
VIEW
  5
6
100
AcDbSymbolTable
 70
0
  0
ENDTAB
  0
TABLE
  2
UCS
  5
7
100
AcDbSymbolTable
 70
0
  0
ENDTAB
  0
TABLE
  2
APPID
  5
9
100
AcDbSymbolTable
 70
1
  0
APPID
  5
229
100
AcDbSymbolTableRecord
100
AcDbRegAppTableRecord
  2
ACAD
 70
0
  0
ENDTAB
  0
TABLE
  2
BLOCK_RECORD
  5
1
100
AcDbSymbolTable
 70
0
  0
BLOCK_RECORD
  5
22A
100
AcDbSymbolTableRecord
100
AcDbBlockTableRecord
  2
*Model_Space
  0
BLOCK_RECORD
  5
22B
100
AcDbSymbolTableRecord
100
AcDbBlockTableRecord
  2
*Paper_Space
  0
BLOCK_RECORD
  5
22C
100
AcDbSymbolTableRecord
100
AcDbBlockTableRecord
  2
_FILLED
  0
ENDTAB
  0
TABLE
  2
DIMSTYLE
  5
A
100
AcDbSymbolTable
 70
1
100
AcDbDimStyleTable
 71
0
  0
DIMSTYLE
105
22D
100
AcDbSymbolTableRecord
100
AcDbDimStyleTableRecord
  2
STANDARD
 70
0
  3

  4

 40
1.0
 41
3.0
 42
0.5
 43
0.38
 44
1.5
 45
0.0
 46
0.0
 47
0.01
 48
0.01
140
3.0
141
0.09
142
0.0
143
25.4
144
1.0
145
0.0
146
1.0
147
0.625
 71
1
 72
0
 73
0
 74
0
 75
0
 76
0
 77
1
 78
8
 79
2
170
0
171
1
172
0
173
0
174
0
175
0
176
0
177
0
178
0
270
2
179
2
271
2
272
2
273
2
274
2
275
0
280
0
281
0
282
0
283
1
284
8
285
0
286
0
287
3
288
0
340
11
278
44
341
22C
342
22C
343
22C
344
22C
  0
ENDTAB
  0
ENDSEC
  0
SECTION
  2
BLOCKS
  0
BLOCK
  5
20
100
AcDbEntity
  8
0
100
AcDbBlockBegin
  2
*Model_Space
 70
0
 10
0.0
 20
0.0
 30
0.0
  3
*Model_Space
  1

  0
ENDBLK
  5
21
100
AcDbEntity
  8
0
100
AcDbBlockEnd
  0
BLOCK
  5
1C
100
AcDbEntity
  8
0
100
AcDbBlockBegin
  2
*Paper_Space
 70
0
 10
0.0
 20
0.0
 30
0.0
  3
*Paper_Space
  1

  0
ENDBLK
  5
1D
100
AcDbEntity
  8
0
100
AcDbBlockEnd
  0
BLOCK
  5
22E
100
AcDbEntity
  8
0
100
AcDbBlockBegin
  2
_FILLED
 70
64
 10
0.0
 20
0.0
  3
_FILLED
  1

  0
SOLID
  5
22F
100
AcDbEntity
  8
0
  6
BYBLOCK
 62
0
100
AcDbTrace
 10
0.0
 20
0.0
 11
-1.0
 21
0.3166666667
 12
-1.0
 22
-0.3166666667
 13
-1.0
 23
-0.3166666667
  0
ENDBLK
  5
230
100
AcDbEntity
  8
0
  6
BYBLOCK
 62
0
100
AcDbBlockEnd
  0
ENDSEC
  0
SECTION
  2
ENTITIES
  0
LWPOLYLINE
  5
231
100
AcDbEntity
  8
RACCORDO
100
AcDbPolyline
 62
250
  6
CONTINUOUS
 90
13
 70
0
 10
126.6120833236
 20
134.6539829979
 10
126.5338421893
 20
134.5676798616
 10
126.4589810201
 20
134.4752941134
 10
126.3879975954
 20
134.3774545857
 10
126.3213781144
 20
134.2748262341
 10
126.2595805337
 20
134.1681059888
 10
126.2030168188
 20
134.058018058
 10
126.1520733398
 20
133.9453076214
 10
126.1071032406
 20
133.8307436752
 10
126.0684111657
 20
133.7151129196
 10
126.0362609949
 20
133.5992047844
 10
126.0108748092
 20
133.4838058807
 10
125.9924267397
 20
133.3697020474
  0
LWPOLYLINE
  5
232
100
AcDbEntity
  8
ASSI
100
AcDbPolyline
 62
250
  6
CONTINUOUS
 90
3
 70
0
 10
126.6120833236
 20
134.6539829979
 10
126.5338421893
 20
134.5676798616
 10
126.4589810201
 20
134.4752941134
  0
LWPOLYLINE
  5
233
100
AcDbEntity
  8
ASSI
100
AcDbPolyline
 62
250
  6
CONTINUOUS
 90
3
 70
0
 10
126.7765437007
 20
134.8060440446
 10
126.6931698783
 20
134.7336192058
 10
126.6120833236
 20
134.6539829979
  0
LWPOLYLINE
  5
234
100
AcDbEntity
  8
ASSI
100
AcDbPolyline
 62
7
  6
CONTINUOUS
 90
10
 70
0
 10
126.7372638265
 20
135.0265068082
 10
126.5625458255
 20
134.9336700945
 10
126.3942266971
 20
134.8109678725
 10
126.2401120153
 20
134.6636926621
 10
126.0994277999
 20
134.4908057413
 10
125.9757373197
 20
134.2942459156
 10
125.877915113
 20
134.0884503932
 10
125.8069569141
 20
133.8803121634
 10
125.7611887775
 20
133.6665203296
 10
125.7565344697
 20
133.6335467766
  0
LINE
  5
235
100
AcDbEntity
  8
26814000
100
AcDbLine
 62
7
  6
CONTINUOUS
 10
130.2719423745
 20
139.3642686773
 11
131.8546989777
 21
140.1762527747
  0
LINE
  5
236
100
AcDbEntity
  8
26814000
100
AcDbLine
 62
7
  6
CONTINUOUS
 10
129.7879872622
 20
137.6215682753
 11
130.8002095463
 21
138.138498238
  0
LINE
  5
237
100
AcDbEntity
  8
26814000
100
AcDbLine
 62
250
  6
CONTINUOUS
 10
129.9455106685
 20
137.6121349457
 11
130.8002095463
 21
138.0486195657
  0
LINE
  5
238
100
AcDbEntity
  8
26814000
100
AcDbLine
 62
7
  6
CONTINUOUS
 10
131.8797637836
 20
138.5603579728
 11
133.4810445744
 21
139.3630799763
  0
LINE
  5
239
100
AcDbEntity
  8
26814000
100
AcDbLine
 62
7
  6
CONTINUOUS
 10
133.4810445744
 20
139.3630799763
 11
134.0093117462
 21
139.6265187963
  0
LINE
  5
23A
100
AcDbEntity
  8
26814000
100
AcDbLine
 62
7
  6
CONTINUOUS
 10
131.8546989777
 20
140.1762527747
 11
132.3891488564
 21
140.4366002412
  0
LWPOLYLINE
  5
23B
100
AcDbEntity
  8
26814000
100
AcDbPolyline
 62
7
  6
CONTINUOUS
 90
10
 70
0
 10
141.4636182098
 20
140.8514400645
 10
141.4728578306
 20
140.8541858635
 10
141.4814209845
 20
140.856451582
 10
141.4893076714
 20
140.85823722
 10
141.4965570297
 20
140.8595636246
 10
141.503129921
 20
140.8604099488
 10
141.5089089304
 20
140.8607136515
 10
141.5138898876
 20
140.8604743157
 10
141.5180769628
 20
140.8596923585
 10
141.5206666439
 20
140.8586959254
  0
LWPOLYLINE
  5
23C
100
AcDbEntity
  8
RACCORDO
100
AcDbPolyline
 62
250
  6
CONTINUOUS
 90
19
 70
0
 10
154.472991305
 20
81.7773765989
 10
154.4317536803
 20
81.7656998976
 10
154.3916677343
 20
81.7584451315
 10
154.352733467
 20
81.7556123005
 10
154.3146762636
 20
81.7572332799
 10
154.2777707389
 20
81.7632761943
 10
154.2428407379
 20
81.7736454182
 10
154.2099508915
 20
81.7884376446
 10
154.1790365689
 20
81.8075561805
 10
154.1507277221
 20
81.8306153205
 10
154.1250780312
 20
81.8576979511
 10
154.1020338161
 20
81.888721186
 10
154.082063989
 20
81.9230506607
 10
154.0652332916
 20
81.9607825881
 10
154.0514769823
 20
82.0018207554
 10
154.0410697477
 20
82.0452421601
 10
154.0341031502
 20
82.0907391348
 10
154.0304856276
 20
82.138619347
 10
154.0302171797
 20
82.1888827965
  0
LWPOLYLINE
  5
23D
100
AcDbEntity
  8
ASSI
100
AcDbPolyline
 62
250
  6
CONTINUOUS
 90
19
 70
0
 10
154.472991305
 20
81.7773765989
 10
154.4317536803
 20
81.7656998976
 10
154.3916677343
 20
81.7584451315
 10
154.352733467
 20
81.7556123005
 10
154.3146762636
 20
81.7572332799
 10
154.2777707389
 20
81.7632761943
 10
154.2428407379
 20
81.7736454182
 10
154.2099508915
 20
81.7884376446
 10
154.1790365689
 20
81.8075561805
 10
154.1507277221
 20
81.8306153205
 10
154.1250780312
 20
81.8576979511
 10
154.1020338161
 20
81.888721186
 10
154.082063989
 20
81.9230506607
 10
154.0652332916
 20
81.9607825881
 10
154.0514769823
 20
82.0018207554
 10
154.0410697477
 20
82.0452421601
 10
154.0341031502
 20
82.0907391348
 10
154.0304856276
 20
82.138619347
 10
154.0302171797
 20
82.1888827965
  0
LWPOLYLINE
  5
23E
100
AcDbEntity
  8
RACCORDO
100
AcDbPolyline
 62
250
  6
CONTINUOUS
 90
6
 70
0
 10
161.8187897555
 20
83.5129948855
 10
161.7939099734
 20
83.5083596171
 10
161.7683956743
 20
83.5050945163
 10
161.7425510056
 20
83.5032210874
 10
161.716635302
 20
83.5027389317
 10
161.6908326027
 20
83.5036591039
  0
LWPOLYLINE
  5
23F
100
AcDbEntity
  8
ASSI
100
AcDbPolyline
 62
7
  6
CONTINUOUS
 90
3
 70
0
 10
153.9082603683
 20
81.2480172521
 10
154.0777633886
 20
81.2779131726
 10
154.1706078586
 20
81.3050325489
  0
LWPOLYLINE
  5
240
100
AcDbEntity
  8
RACCORDO
100
AcDbPolyline
 62
7
  6
CONTINUOUS
 90
3
 70
0
 10
153.8696727091
 20
81.2447111435
 10
153.9703870531
 20
81.2560658037
 10
154.0718581951
 20
81.2764489244
  0
LINE
  5
241
100
AcDbEntity
  8
ASSI
100
AcDbLine
 62
7
  6
CONTINUOUS
 10
153.7386589187
 20
81.2432317052
 11
153.9082603683
 21
81.2480172521
  0
LWPOLYLINE
  5
242
100
AcDbEntity
  8
ASSI
100
AcDbPolyline
 62
250
  6
CONTINUOUS
 90
4
 70
0
 10
126.2595805337
 20
134.1681059888
 10
126.2030168188
 20
134.058018058
 10
126.1520733398
 20
133.9453076214
 10
126.1071032406
 20
133.8307436752
  0
LWPOLYLINE
  5
243
100
AcDbEntity
  8
ASSI
100
AcDbPolyline
 62
250
  6
CONTINUOUS
 90
4
 70
0
 10
126.4589810201
 20
134.4752941134
 10
126.3879975954
 20
134.3774545857
 10
126.3213781144
 20
134.2748262341
 10
126.2595805337
 20
134.1681059888
  0
LWPOLYLINE
  5
244
100
AcDbEntity
  8
26814000
100
AcDbPolyline
 62
7
  6
CONTINUOUS
 90
12
 70
0
 10
141.4451704714
 20
140.8439827218
 10
141.43888368
 20
140.8406263482
 10
141.4270292534
 20
140.833122075
 10
141.4153740734
 20
140.8242495638
 10
141.4038784786
 20
140.8140644532
 10
141.3925871809
 20
140.8026333808
 10
141.3814421145
 20
140.7899863547
 10
141.3703752351
 20
140.7761568185
 10
141.3594291159
 20
140.7611873197
 10
141.3485818148
 20
140.7451043925
 10
141.337743386
 20
140.7279361382
 10
141.3268590181
 20
140.7097175067
  0
LINE
  5
245
100
AcDbEntity
  8
26814000
100
AcDbLine
 62
7
  6
CONTINUOUS
 10
135.7454390058
 20
137.2115229788
 11
136.2387610211
 21
137.4646065107
  0
LINE
  5
246
100
AcDbEntity
  8
26814000
100
AcDbLine
 62
7
  6
CONTINUOUS
 10
133.4810445744
 20
137.6310291687
 11
132.4142136623
 21
137.0924479192
  0
LINE
  5
247
100
AcDbEntity
  8
26814000
100
AcDbLine
 62
7
  6
CONTINUOUS
 10
134.936825551
 20
137.6026877724
 11
141.4448621776
 21
140.843829378
  0
LINE
  5
248
100
AcDbEntity
  8
26814000
100
AcDbLine
 62
250
  6
CONTINUOUS
 10
135.0123186915
 20
137.5649412022
 11
141.3268590181
 21
140.7097175067
  0
LINE
  5
249
100
AcDbEntity
  8
26814000
100
AcDbLine
 62
7
  6
CONTINUOUS
 10
142.3198793393
 20
139.829973976
 11
137.5822639053
 21
137.4949234614
  0
LINE
  5
24A
100
AcDbEntity
  8
26814000
100
AcDbLine
 62
7
  6
CONTINUOUS
 10
136.2387610211
 20
137.4646065107
 11
141.7164010105
 21
140.1329384739
  0
LWPOLYLINE
  5
24B
100
AcDbEntity
  8
RACCORDO
100
AcDbPolyline
 62
7
  6
CONTINUOUS
 90
16
 70
0
 10
126.7692753166
 20
135.0401093596
 10
126.6839787609
 20
135.0015912928
 10
126.5920904966
 20
134.9516795059
 10
126.5026084635
 20
134.8940278079
 10
126.4160371394
 20
134.828928496
 10
126.3332249609
 20
134.7571408101
 10
126.2541413068
 20
134.6787232075
 10
126.1789989206
 20
134.5938509707
 10
126.1088120081
 20
134.5037629651
 10
126.0436493996
 20
134.4086145641
 10
125.9836907776
 20
134.3085999156
 10
125.9298687496
 20
134.2053512998
 10
125.8822849043
 20
134.0991280101
 10
125.8410619805
 20
133.9900981901
 10
125.806844323
 20
133.8799069619
 10
125.7798103301
 20
133.7692367147
  0
LWPOLYLINE
  5
24C
100
AcDbEntity
  8
RACCORDO
100
AcDbPolyline
 62
250
  6
CONTINUOUS
 90
7
 70
0
 10
127.121419391
 20
135.0144988739
 10
127.0346762604
 20
134.9753364203
 10
126.9478852418
 20
134.9273137738
 10
126.8616425123
 20
134.8707561918
 10
126.7765437007
 20
134.8060440446
 10
126.6931698783
 20
134.7336192058
 10
126.6120833236
 20
134.6539829979
  0
LWPOLYLINE
  5
24D
100
AcDbEntity
  8
ASSI
100
AcDbPolyline
 62
250
  6
CONTINUOUS
 90
5
 70
0
 10
127.121419391
 20
135.0144988739
 10
127.0346762604
 20
134.9753364203
 10
126.9478852418
 20
134.9273137738
 10
126.8616425123
 20
134.8707561918
 10
126.7765437007
 20
134.8060440446
  0
LINE
  5
24E
100
AcDbEntity
  8
ASSI
100
AcDbLine
 62
7
  6
CONTINUOUS
 10
126.7690251512
 20
135.0400068672
 11
126.7372638265
 21
135.0265068082
  0
LINE
  5
24F
100
AcDbEntity
  8
RACCORDO
100
AcDbLine
 62
7
  6
CONTINUOUS
 10
130.6853814918
 20
136.6409125038
 11
126.7692688982
 21
135.0401250546
  0
LINE
  5
250
100
AcDbEntity
  8
ASSI
100
AcDbLine
 62
7
  6
CONTINUOUS
 10
130.6853814918
 20
136.6409125038
 11
126.7690187309
 21
135.040022552
  0
LINE
  5
251
100
AcDbEntity
  8
RACCORDO
100
AcDbLine
 62
250
  6
CONTINUOUS
 10
131.0335836631
 20
136.6136723318
 11
127.121419391
 21
135.0144988739
  0
LINE
  5
252
100
AcDbEntity
  8
ASSI
100
AcDbLine
 62
250
  6
CONTINUOUS
 10
131.0335836631
 20
136.6136723318
 11
127.121419391
 21
135.0144988739
  0
LWPOLYLINE
  5
253
100
AcDbEntity
  8
26814000
100
AcDbPolyline
 62
7
  6
CONTINUOUS
 90
3
 70
0
 10
141.4636182098
 20
140.8514400645
 10
141.4510531901
 20
140.8467410137
 10
141.4451704714
 20
140.8439827218
  0
LWPOLYLINE
  5
254
100
AcDbEntity
  8
RACCORDO
100
AcDbPolyline
 62
7
  6
CONTINUOUS
 90
3
 70
0
 10
153.6719962819
 20
81.24834108
 10
153.7701700991
 20
81.2422031552
 10
153.8696727091
 20
81.2447111435
  0
LINE
  5
255
100
AcDbEntity
  8
ASSI
100
AcDbLine
 62
7
  6
CONTINUOUS
 10
153.5733494061
 20
81.2634261308
 11
153.7386589187
 21
81.2432317052
  0
LWPOLYLINE
  5
256
100
AcDbEntity
  8
ASSI
100
AcDbPolyline
 62
250
  6
CONTINUOUS
 90
4
 70
0
 10
126.1071032406
 20
133.8307436752
 10
126.0684111657
 20
133.7151129196
 10
126.0362609949
 20
133.5992047844
 10
126.0108748092
 20
133.4838058807
  0
LINE
  5
257
100
AcDbEntity
  8
26814000
100
AcDbLine
 62
7
  6
CONTINUOUS
 10
134.0961634094
 20
139.0055212097
 11
133.5689186937
 21
138.3638134816
  0
LINE
  5
258
100
AcDbEntity
  8
26814000
100
AcDbLine
 62
7
  6
CONTINUOUS
 10
143.6469531677
 20
138.3600997424
 11
142.2491686611
 21
137.6612074891
  0
LINE
  5
259
100
AcDbEntity
  8
26814000
100
AcDbLine
 62
7
  6
CONTINUOUS
 10
141.8956152706
 20
138.3905423737
 11
142.3198793393
 21
138.5981397946
  0
LINE
  5
25A
100
AcDbEntity
  8
26814000
100
AcDbLine
 62
7
  6
CONTINUOUS
 10
144.305948919
 20
139.2201725563
 11
142.2491686611
 21
138.2137656785
  0
LINE
  5
25B
100
AcDbEntity
  8
21814000
100
AcDbLine
 62
7
  6
CONTINUOUS
 10
141.3119614509
 20
137.0341117062
 11
141.1738466487
 21
136.9688746208
  0
LINE
  5
25C
100
AcDbEntity
  8
21814000
100
AcDbLine
 62
250
  6
CONTINUOUS
 10
141.3954954573
 20
137.0256126195
 11
141.2592191683
 21
136.9612439366
  0
LWPOLYLINE
  5
25D
100
AcDbEntity
  8
21814000
100
AcDbPolyline
 62
250
  6
CONTINUOUS
 90
11
 70
0
 10
142.2289615803
 20
137.0794325926
 10
142.2380540408
 20
137.0835230437
 10
142.2471127151
 20
137.0868798289
 10
142.2560998367
 20
137.089486801
 10
142.2649810244
 20
137.0913314052
 10
142.2737154887
 20
137.0924025508
 10
142.2822568371
 20
137.0926935649
 10
142.2905736625
 20
137.0922030708
 10
142.2986268865
 20
137.0909330584
 10
142.3063628668
 20
137.0888955422
 10
142.3137365096
 20
137.0861121733
  0
LINE
  5
25E
100
AcDbEntity
  8
21814000
100
AcDbLine
 62
7
  6
CONTINUOUS
 10
141.3120149663
 20
137.0341369836
 11
141.3152230065
 21
137.0355526132
  0
LWPOLYLINE
  5
25F
100
AcDbEntity
  8
21814000
100
AcDbPolyline
 62
7
  6
CONTINUOUS
 90
5
 70
0
 10
141.1737281801
 20
136.9688177186
 10
141.1785713448
 20
136.9708753428
 10
141.1859977047
 20
136.9731932053
 10
141.1941441228
 20
136.9747255699
 10
141.2030624578
 20
136.9753764836
  0
LINE
  5
260
100
AcDbEntity
  8
21814000
100
AcDbLine
 62
7
  6
CONTINUOUS
 10
141.3850635963
 20
137.0616537505
 11
141.3152226452
 21
137.035552443
  0
LINE
  5
261
100
AcDbEntity
  8
21814000
100
AcDbLine
 62
7
  6
CONTINUOUS
 10
141.4601027064
 20
137.0845813155
 11
141.3850635963
 21
137.0616537505
  0
LWPOLYLINE
  5
262
100
AcDbEntity
  8
21814000
100
AcDbPolyline
 62
7
  6
CONTINUOUS
 90
6
 70
0
 10
141.3152230065
 20
137.0355526132
 10
141.3284512811
 20
137.0394946382
 10
141.3442349012
 20
137.0408332736
 10
141.3608722338
 20
137.0389394485
 10
141.3780608348
 20
137.0338382396
 10
141.3954954573
 20
137.0256126195
  0
LWPOLYLINE
  5
263
100
AcDbEntity
  8
RACCORDO
100
AcDbPolyline
 62
7
  6
CONTINUOUS
 90
3
 70
0
 10
153.4825221793
 20
81.2856683373
 10
153.5758925294
 20
81.2629211909
 10
153.6719962819
 20
81.24834108
  0
LINE
  5
264
100
AcDbEntity
  8
ASSI
100
AcDbLine
 62
7
  6
CONTINUOUS
 10
153.416313662
 20
81.3072973373
 11
153.5733494061
 21
81.2634261308
  0
LINE
  5
265
100
AcDbEntity
  8
RACCORDO
100
AcDbLine
 62
7
  6
CONTINUOUS
 10
153.3920285995
 20
81.316430705
 11
153.4825221793
 21
81.2856683373
  0
LWPOLYLINE
  5
266
100
AcDbEntity
  8
ASSI
100
AcDbPolyline
 62
7
  6
CONTINUOUS
 90
4
 70
0
 10
123.0470677606
 20
96.5911953701
 10
123.1876003332
 20
96.4474732322
 10
123.3490966513
 20
96.3345512692
 10
123.3966604515
 20
96.3090968768
  0
LWPOLYLINE
  5
267
100
AcDbEntity
  8
ASSI
100
AcDbPolyline
 62
7
  6
CONTINUOUS
 90
3
 70
0
 10
122.8460879018
 20
96.9622157864
 10
122.9309029763
 20
96.7652921476
 10
123.0470677606
 20
96.5911953701
  0
LWPOLYLINE
  5
268
100
AcDbEntity
  8
RACCORDO
100
AcDbPolyline
 62
7
  6
CONTINUOUS
 90
14
 70
0
 10
122.7784468439
 20
97.4186003314
 10
122.7818350216
 20
97.2957820849
 10
122.7948431433
 20
97.177297376
 10
122.817144205
 20
97.06373708
 10
122.8484176524
 20
96.9552228071
 10
122.888471083
 20
96.8518404678
 10
122.9369840588
 20
96.754201975
 10
122.993542368
 20
96.6628570095
 10
123.0577634512
 20
96.5782194669
 10
123.1290365527
 20
96.5009630787
 10
123.2066494103
 20
96.4316997195
 10
123.2898645475
 20
96.3708539654
 10
123.3777879896
 20
96.3188212237
 10
123.3999258771
 20
96.307459912
  0
LWPOLYLINE
  5
269
100
AcDbEntity
  8
RACCORDO
100
AcDbPolyline
 62
250
  6
CONTINUOUS
 90
11
 70
0
 10
123.0133963017
 20
97.1665309857
 10
123.0136486718
 20
97.0595085044
 10
123.0210648357
 20
96.9565236804
 10
123.0355930909
 20
96.8582785064
 10
123.0571311933
 20
96.765442712
 10
123.0855323448
 20
96.6786497209
 10
123.1206053504
 20
96.5984915453
 10
123.1621055065
 20
96.5255170316
 10
123.2097484384
 20
96.4602205138
 10
123.2632177949
 20
96.4030397542
 10
123.3221451924
 20
96.3543663737
  0
LWPOLYLINE
  5
26A
100
AcDbEntity
  8
ASSI
100
AcDbPolyline
 62
250
  6
CONTINUOUS
 90
13
 70
0
 10
123.0133963017
 20
97.1665309857
 10
123.0136486718
 20
97.0595085044
 10
123.0210648357
 20
96.9565236804
 10
123.0355930909
 20
96.8582785064
 10
123.0571311933
 20
96.765442712
 10
123.0855323448
 20
96.6786497209
 10
123.1206053504
 20
96.5984915453
 10
123.1621055065
 20
96.5255170316
 10
123.2097484384
 20
96.4602205138
 10
123.2632177949
 20
96.4030397542
 10
123.3221451924
 20
96.3543663737
 10
123.386126544
 20
96.314533298
 10
123.396556826
 20
96.3091241278
  0
LWPOLYLINE
  5
26B
100
AcDbEntity
  8
ASSI
100
AcDbPolyline
 62
7
  6
CONTINUOUS
 90
4
 70
0
 10
122.7790860425
 20
97.4481697119
 10
122.7783594348
 20
97.389714324
 10
122.7956583713
 20
97.1720238547
 10
122.8460879018
 20
96.9622157864
  0
LINE
  5
26C
100
AcDbEntity
  8
RACCORDO
100
AcDbLine
 62
7
  6
CONTINUOUS
 10
122.7790767034
 20
97.4478652438
 11
122.7784468439
 21
97.4186003314
  0
LINE
  5
26D
100
AcDbEntity
  8
RACCORDO
100
AcDbLine
 62
7
  6
CONTINUOUS
 10
122.7790767034
 20
97.4478652438
 11
122.7790835923
 21
97.4480914152
  0
LINE
  5
26E
100
AcDbEntity
  8
ASSI
100
AcDbLine
 62
7
  6
CONTINUOUS
 10
122.7790835832
 20
97.4480911229
 11
122.7790860425
 21
97.4481697119
  0
LINE
  5
26F
100
AcDbEntity
  8
ASSI
100
AcDbLine
 62
250
  6
CONTINUOUS
 10
123.1183434033
 20
100.1246693521
 11
123.0133963017
 21
97.1665309857
  0
LINE
  5
270
100
AcDbEntity
  8
ASSI
100
AcDbLine
 62
7
  6
CONTINUOUS
 10
122.9137510205
 20
101.1332417389
 11
122.7790713742
 21
97.4480914949
  0
LWPOLYLINE
  5
271
100
AcDbEntity
  8
RACCORDO
100
AcDbPolyline
 62
7
  6
CONTINUOUS
 90
3
 70
0
 10
123.0124628701
 20
103.3211535277
 10
122.8813260682
 20
100.3381437564
 10
122.7790713833
 20
97.4480917872
  0
LWPOLYLINE
  5
272
100
AcDbEntity
  8
RACCORDO
100
AcDbPolyline
 62
7
  6
CONTINUOUS
 90
10
 70
0
 10
125.3753549356
 20
130.6441428945
 10
125.008074015
 20
127.5704762802
 10
124.6668831728
 20
124.5053400349
 10
124.3518341059
 20
121.4491668972
 10
124.062964892
 20
118.4023370698
 10
123.8003098596
 20
115.3652103286
 10
123.5639036463
 20
112.3381607512
 10
123.3537756422
 20
109.3215603679
 10
123.1699531279
 20
106.3157660661
 10
123.0124628701
 20
103.3211535277
  0
LWPOLYLINE
  5
273
100
AcDbEntity
  8
ASSI
100
AcDbPolyline
 62
7
  6
CONTINUOUS
 90
9
 70
0
 10
125.7565927057
 20
133.6340874757
 10
125.2776794871
 20
129.8468646262
 10
124.7959794229
 20
125.6918989446
 10
124.3621260491
 20
121.5530262319
 10
123.9762246844
 20
117.4312380013
 10
123.6383627867
 20
113.3274545869
 10
123.3486176597
 20
109.2425749798
 10
123.1070593349
 20
105.1775124538
 10
122.9137510205
 20
101.1332417389
  0
LWPOLYLINE
  5
274
100
AcDbEntity
  8
RACCORDO
100
AcDbPolyline
 62
250
  6
CONTINUOUS
 90
13
 70
0
 10
125.9924267397
 20
133.3697020474
 10
125.6014402762
 20
130.3009239161
 10
125.2362766966
 20
127.2403007179
 10
124.8969820999
 20
124.1882165282
 10
124.5835993699
 20
121.1450543722
 10
124.2961678975
 20
118.1111961985
 10
124.0347235785
 20
115.0870228319
 10
123.7992990872
 20
112.0729139764
 10
123.5899241225
 20
109.0692479275
 10
123.4066251358
 20
106.0764015477
 10
123.24942508
 20
103.0947505305
 10
123.1183434033
 20
100.1246693521
 10
123.0133963017
 20
97.1665309857
  0
LWPOLYLINE
  5
275
100
AcDbEntity
  8
ASSI
100
AcDbPolyline
 62
250
  6
CONTINUOUS
 90
12
 70
0
 10
125.9924267397
 20
133.3697020474
 10
125.6014402762
 20
130.3009239161
 10
125.2362766966
 20
127.2403007179
 10
124.8969820999
 20
124.1882165282
 10
124.5835993699
 20
121.1450543722
 10
124.2961678975
 20
118.1111961985
 10
124.0347235785
 20
115.0870228319
 10
123.7992990872
 20
112.0729139764
 10
123.5899241225
 20
109.0692479275
 10
123.4066251358
 20
106.0764015477
 10
123.24942508
 20
103.0947505305
 10
123.1183434033
 20
100.1246693521
  0
LINE
  5
276
100
AcDbEntity
  8
RACCORDO
100
AcDbLine
 62
7
  6
CONTINUOUS
 10
125.7565926768
 20
133.6340872557
 11
125.3753549356
 21
130.6441428945
  0
LINE
  5
277
100
AcDbEntity
  8
ASSI
100
AcDbLine
 62
250
  6
CONTINUOUS
 10
126.0108748092
 20
133.4838058807
 11
125.9924267397
 21
133.3697020474
  0
LWPOLYLINE
  5
278
100
AcDbEntity
  8
RACCORDO
100
AcDbPolyline
 62
7
  6
CONTINUOUS
 90
3
 70
0
 10
125.7798103301
 20
133.7692367147
 10
125.759904045
 20
133.6578707518
 10
125.7565913631
 20
133.6339889688
  0
LINE
  5
279
100
AcDbEntity
  8
21814000
100
AcDbLine
 62
7
  6
CONTINUOUS
 10
141.1591154502
 20
136.9591981897
 11
140.2481890917
 21
136.1619608681
  0
LINE
  5
27A
100
AcDbEntity
  8
21814000
100
AcDbLine
 62
250
  6
CONTINUOUS
 10
141.2585602939
 20
136.9615733738
 11
140.3097501136
 21
136.1311803572
  0
LWPOLYLINE
  5
27B
100
AcDbEntity
  8
21814000
100
AcDbPolyline
 62
7
  6
CONTINUOUS
 90
5
 70
0
 10
141.1590182113
 20
136.9591125912
 10
141.1600990146
 20
136.9600441117
 10
141.1656473793
 20
136.9642268481
 10
141.1718018393
 20
136.9678644967
 10
141.1737281801
 20
136.9688177186
  0
LINE
  5
27C
100
AcDbEntity
  8
21814000
100
AcDbLine
 62
250
  6
CONTINUOUS
 10
140.810479072
 20
135.880815878
 11
141.2842875156
 21
136.2522359345
  0
LINE
  5
27D
100
AcDbEntity
  8
21814000
100
AcDbLine
 62
250
  6
CONTINUOUS
 10
141.088368735
 20
135.7418710465
 11
141.4570946456
 21
136.0309165466
  0
LWPOLYLINE
  5
27E
100
AcDbEntity
  8
21814000
100
AcDbPolyline
 62
250
  6
CONTINUOUS
 90
13
 70
0
 10
141.2842875156
 20
136.2522359345
 10
141.3254664349
 20
136.2817820644
 10
141.3686618072
 20
136.3083922005
 10
141.4138736326
 20
136.3320663429
 10
141.4616506006
 20
136.3529613109
 10
141.5114440217
 20
136.3709202852
 10
141.5616078269
 20
136.3854728074
 10
141.6121136179
 20
136.3964913055
 10
141.662989793
 20
136.4041033515
 10
141.7126754783
 20
136.4082212034
 10
141.7610304327
 20
136.4087593989
 10
141.8081948973
 20
136.4058034002
 10
141.8530287223
 20
136.399521852
  0
LINE
  5
27F
100
AcDbEntity
  8
26814000
100
AcDbLine
 62
7
  6
CONTINUOUS
 10
141.9622049627
 20
134.1031400004
 11
142.4613006955
 21
134.3533366735
  0
LINE
  5
280
100
AcDbEntity
  8
26814000
100
AcDbLine
 62
7
  6
CONTINUOUS
 10
142.4613006955
 20
134.3533366735
 11
147.8755733907
 21
137.0533522839
  0
LINE
  5
281
100
AcDbEntity
  8
26814000
100
AcDbLine
 62
7
  6
CONTINUOUS
 10
147.2696268076
 20
137.3551002418
 11
142.5320113736
 21
135.0200497272
  0
LWPOLYLINE
  5
282
100
AcDbEntity
  8
26814000
100
AcDbPolyline
 62
7
  6
CONTINUOUS
 90
18
 70
0
 10
148.5485896061
 20
137.0988522127
 10
148.5769641269
 20
137.1120341695
 10
148.6051985789
 20
137.1237685612
 10
148.6332929621
 20
137.1340553879
 10
148.6612972752
 20
137.1429075225
 10
148.6891615195
 20
137.1503120921
 10
148.7167356991
 20
137.1562304777
 10
148.7440048278
 20
137.160653899
 10
148.7709838918
 20
137.1635911363
 10
148.7975678544
 20
137.1650299123
 10
148.8237728132
 20
137.1649627757
 10
148.8495826707
 20
137.1633971777
 10
148.874844097
 20
137.1603431943
 10
148.8995338503
 20
137.1557974099
 10
148.9236751724
 20
137.1497632401
 10
148.9471844587
 20
137.1422610073
 10
148.9700802389
 20
137.1332755926
 10
148.9896423232
 20
137.1241858596
  0
LWPOLYLINE
  5
283
100
AcDbEntity
  8
21814000
100
AcDbPolyline
 62
250
  6
CONTINUOUS
 90
9
 70
0
 10
155.1663855596
 20
139.6355342999
 10
155.2203919611
 20
139.6585658159
 10
155.2741120343
 20
139.6758074525
 10
155.3271478787
 20
139.687072224
 10
155.379133804
 20
139.6922161406
 10
155.4296350538
 20
139.6911280016
 10
155.47816319
 20
139.6837726064
 10
155.5243454827
 20
139.6701784569
 10
155.5577565731
 20
139.6556685856
  0
LWPOLYLINE
  5
284
100
AcDbEntity
  8
21814000
100
AcDbPolyline
 62
7
  6
CONTINUOUS
 90
12
 70
0
 10
154.777928077
 20
139.6677486356
 10
154.8435555531
 20
139.6949682851
 10
154.9122543837
 20
139.7172440546
 10
154.9835618662
 20
139.7341434368
 10
155.0571185157
 20
139.7453077613
 10
155.132146498
 20
139.7503794841
 10
155.2075324555
 20
139.7491586373
 10
155.2827179642
 20
139.7416085023
 10
155.3570753958
 20
139.7277618708
 10
155.4295967672
 20
139.707852254
 10
155.4999487987
 20
139.6820628032
 10
155.5577889277
 20
139.6556524081
  0
LWPOLYLINE
  5
285
100
AcDbEntity
  8
21814000
100
AcDbPolyline
 62
250
  6
CONTINUOUS
 90
9
 70
0
 10
154.777928077
 20
139.6677486356
 10
154.8058407025
 20
139.6791476151
 10
154.8523551156
 20
139.6921266681
 10
154.9011740682
 20
139.6987042614
 10
154.9519261627
 20
139.698830355
 10
155.0042252947
 20
139.6925039895
 10
155.0576735905
 20
139.6797732938
 10
155.1118644339
 20
139.6607351187
 10
155.1663855596
 20
139.6355342999
  0
LINE
  5
286
100
AcDbEntity
  8
RACCORDO
100
AcDbLine
 62
250
  6
CONTINUOUS
 10
163.3209507405
 20
83.1926350571
 11
162.7906206546
 21
83.3024700142
  0
LINE
  5
287
100
AcDbEntity
  8
RACCORDO
100
AcDbLine
 62
250
  6
CONTINUOUS
 10
163.2325623929
 20
83.5127175786
 11
162.702232307
 21
83.6225525356
  0
LINE
  5
288
100
AcDbEntity
  8
ASSI
100
AcDbLine
 62
7
  6
CONTINUOUS
 10
153.2970963013
 20
81.3589065948
 11
153.416313662
 21
81.3072973373
  0
LINE
  5
289
100
AcDbEntity
  8
RACCORDO
100
AcDbLine
 62
7
  6
CONTINUOUS
 10
153.3016475015
 20
81.3565981298
 11
153.3920285995
 21
81.316430705
  0
LWPOLYLINE
  5
28A
100
AcDbEntity
  8
RACCORDO
100
AcDbPolyline
 62
250
  6
CONTINUOUS
 90
16
 70
0
 10
152.9091485864
 20
82.2186548651
 10
152.9706566702
 20
82.1908766614
 10
153.0375626784
 20
82.1661463084
 10
153.1091497232
 20
82.1447287883
 10
153.18465076
 20
82.1268535865
 10
153.2632568068
 20
82.1127122331
 10
153.3441256114
 20
82.102456251
 10
153.4263906768
 20
82.0961955316
 10
153.5091705452
 20
82.0939971574
 10
153.5915782426
 20
82.0958846838
 10
153.6727307831
 20
82.1018378861
 10
153.7517586293
 20
82.1117929767
 10
153.8278150096
 20
82.1256432884
 10
153.9000849915
 20
82.143240417
 10
153.9677942129
 20
82.164395812
 10
154.0302171797
 20
82.1888827965
  0
LWPOLYLINE
  5
28B
100
AcDbEntity
  8
ASSI
100
AcDbPolyline
 62
250
  6
CONTINUOUS
 90
16
 70
0
 10
152.9091485864
 20
82.2186548651
 10
152.9706566702
 20
82.1908766614
 10
153.0375626784
 20
82.1661463084
 10
153.1091497232
 20
82.1447287883
 10
153.18465076
 20
82.1268535865
 10
153.2632568068
 20
82.1127122331
 10
153.3441256114
 20
82.102456251
 10
153.4263906768
 20
82.0961955316
 10
153.5091705452
 20
82.0939971574
 10
153.5915782426
 20
82.0958846838
 10
153.6727307831
 20
82.1018378861
 10
153.7517586293
 20
82.1117929767
 10
153.8278150096
 20
82.1256432884
 10
153.9000849915
 20
82.143240417
 10
153.9677942129
 20
82.164395812
 10
154.0302171797
 20
82.1888827965
  0
LINE
  5
28C
100
AcDbEntity
  8
RACCORDO
100
AcDbLine
 62
7
  6
CONTINUOUS
 10
153.302159218
 20
81.3563176293
 11
123.3985742487
 21
96.3081101139
  0
LINE
  5
28D
100
AcDbEntity
  8
RACCORDO
100
AcDbLine
 62
250
  6
CONTINUOUS
 10
152.9091485636
 20
82.2186548547
 11
123.0133963017
 21
97.1665309857
  0
LINE
  5
28E
100
AcDbEntity
  8
ASSI
100
AcDbLine
 62
250
  6
CONTINUOUS
 10
152.9091485636
 20
82.2186548547
 11
123.0133963017
 21
97.1665309857
  0
LINE
  5
28F
100
AcDbEntity
  8
ASSI
100
AcDbLine
 62
7
  6
CONTINUOUS
 10
123.396556826
 20
96.3091241278
 11
153.302159218
 21
81.3563176293
  0
LINE
  5
290
100
AcDbEntity
  8
ASSI
100
AcDbLine
 62
250
  6
CONTINUOUS
 10
153.3021284928
 20
81.3563329919
 11
153.2970026465
 21
81.3589281805
  0
LWPOLYLINE
  5
291
100
AcDbEntity
  8
RACCORDO
100
AcDbPolyline
 62
250
  6
CONTINUOUS
 90
13
 70
0
 10
153.301539565
 20
81.3566278829
 10
153.289432666
 20
81.362880237
 10
153.2242989367
 20
81.4032895015
 10
153.164299982
 20
81.4524986606
 10
153.1098415985
 20
81.5101739338
 10
153.0612904601
 20
81.5759245548
 10
153.0189813291
 20
81.649303556
 10
152.9832006634
 20
81.7298155616
 10
152.9541910834
 20
81.816912767
 10
152.9321559449
 20
81.9099970794
 10
152.9172460998
 20
82.0084330483
 10
152.9095597385
 20
82.111552971
 10
152.9091485636
 20
82.2186548547
  0
LWPOLYLINE
  5
292
100
AcDbEntity
  8
ASSI
100
AcDbPolyline
 62
250
  6
CONTINUOUS
 90
13
 70
0
 10
153.2970026465
 20
81.3589281805
 10
153.289432666
 20
81.362880237
 10
153.2242989367
 20
81.4032895015
 10
153.164299982
 20
81.4524986606
 10
153.1098415985
 20
81.5101739338
 10
153.0612904601
 20
81.5759245548
 10
153.0189813291
 20
81.649303556
 10
152.9832006634
 20
81.7298155616
 10
152.9541910834
 20
81.816912767
 10
152.9321559449
 20
81.9099970794
 10
152.9172460998
 20
82.0084330483
 10
152.9095597385
 20
82.111552971
 10
152.9091485636
 20
82.2186548547
  0
LWPOLYLINE
  5
293
100
AcDbEntity
  8
RACCORDO
100
AcDbPolyline
 62
250
  6
CONTINUOUS
 90
9
 70
0
 10
123.0134108442
 20
97.1665375941
 10
122.9579652969
 20
97.197236077
 10
122.9091706237
 20
97.2303557684
 10
122.8675496422
 20
97.2655418026
 10
122.8335483066
 20
97.3024171736
 10
122.8075309294
 20
97.3405867748
 10
122.7897762775
 20
97.3796416328
 10
122.7804745858
 20
97.4191632887
 10
122.7790767034
 20
97.4478652438
  0
LWPOLYLINE
  5
294
100
AcDbEntity
  8
ASSI
100
AcDbPolyline
 62
250
  6
CONTINUOUS
 90
9
 70
0
 10
123.0134108442
 20
97.1665375941
 10
122.9579652969
 20
97.197236077
 10
122.9091706237
 20
97.2303557684
 10
122.8675496422
 20
97.2655418026
 10
122.8335483066
 20
97.3024171736
 10
122.8075309294
 20
97.3405867748
 10
122.7897762775
 20
97.3796416328
 10
122.7804745858
 20
97.4191632887
 10
122.7790835832
 20
97.4480911229
  0
LINE
  5
295
100
AcDbEntity
  8
RACCORDO
100
AcDbLine
 62
250
  6
CONTINUOUS
 10
123.3221451924
 20
96.3543663737
 11
123.386126544
 21
96.314533298
  0
LWPOLYLINE
  5
296
100
AcDbEntity
  8
21814000
100
AcDbPolyline
 62
250
  6
CONTINUOUS
 90
10
 70
0
 10
142.2289615803
 20
137.0794325926
 10
142.2342187078
 20
137.0849600981
 10
142.2394531758
 20
137.0897230557
 10
142.2446423822
 20
137.0936986842
 10
142.2497658202
 20
137.0968685853
 10
142.2547990568
 20
137.0992149135
 10
142.2597142519
 20
137.1007237646
 10
142.2644923734
 20
137.1013892268
 10
142.2691105771
 20
137.101208047
 10
142.271149892
 20
137.1008463801
  0
LWPOLYLINE
  5
297
100
AcDbEntity
  8
21814000
100
AcDbPolyline
 62
250
  6
CONTINUOUS
 90
10
 70
0
 10
141.9724062094
 20
136.3608925553
 10
141.9533653209
 20
136.3428329902
 10
141.9355172653
 20
136.3221225249
 10
141.919228969
 20
136.2991869319
 10
141.9048352918
 20
136.2744977286
 10
141.8926321437
 20
136.2485624836
 10
141.8828704009
 20
136.2219143822
 10
141.8757507486
 20
136.1951012645
 10
141.8714195549
 20
136.1686743635
 10
141.8699658618
 20
136.1431769719
  0
LWPOLYLINE
  5
298
100
AcDbEntity
  8
21814000
100
AcDbPolyline
 62
250
  6
CONTINUOUS
 90
10
 70
0
 10
142.730811808
 20
135.981689756
 10
142.7117703555
 20
135.9636295617
 10
142.6939219637
 20
135.9429185013
 10
142.6776335479
 20
135.9199824413
 10
142.6632399471
 20
135.8952929927
 10
142.6510370077
 20
135.8693577559
 10
142.6412755215
 20
135.8427098748
 10
142.6341561133
 20
135.8158971627
 10
142.6298250997
 20
135.7894708462
 10
142.6283714626
 20
135.7639741715
  0
LWPOLYLINE
  5
299
100
AcDbEntity
  8
21814000
100
AcDbPolyline
 62
250
  6
CONTINUOUS
 90
16
 70
0
 10
141.4570946456
 20
136.0309165466
 10
141.481323981
 20
136.0537795491
 10
141.5073653092
 20
136.074798861
 10
141.5349205466
 20
136.0938978135
 10
141.5636894739
 20
136.1111285975
 10
141.5933471562
 20
136.1263346682
 10
141.6235449929
 20
136.1391554373
 10
141.653959726
 20
136.149549447
 10
141.6842765012
 20
136.1575638576
 10
141.7141644035
 20
136.1630030741
 10
141.7432761473
 20
136.165879967
 10
141.7713863048
 20
136.1662908313
 10
141.7983557743
 20
136.1641698911
 10
141.8239601474
 20
136.1595347033
 10
141.847907487
 20
136.152507088
 10
141.8699658618
 20
136.1431769719
  0
LINE
  5
29A
100
AcDbEntity
  8
21814000
100
AcDbLine
 62
250
  6
CONTINUOUS
 10
142.7488308302
 20
135.5199642772
 11
142.3222117913
 21
135.1249495183
  0
LINE
  5
29B
100
AcDbEntity
  8
21814000
100
AcDbLine
 62
7
  6
CONTINUOUS
 10
142.6520304591
 20
135.5198040374
 11
142.2594667541
 21
135.156322037
  0
LINE
  5
29C
100
AcDbEntity
  8
26814000
100
AcDbLine
 62
7
  6
CONTINUOUS
 10
143.636260539
 20
132.6821095951
 11
145.2190171421
 21
133.4940936924
  0
LINE
  5
29D
100
AcDbEntity
  8
26814000
100
AcDbLine
 62
7
  6
CONTINUOUS
 10
141.9622049627
 20
132.8889365275
 11
142.4613006955
 21
133.1409011082
  0
LINE
  5
29E
100
AcDbEntity
  8
26814000
100
AcDbLine
 62
7
  6
CONTINUOUS
 10
142.4613006955
 20
133.1409011082
 11
147.8755733907
 21
135.8215137055
  0
LINE
  5
29F
100
AcDbEntity
  8
26814000
100
AcDbLine
 62
7
  6
CONTINUOUS
 10
148.5485896061
 20
137.0988522127
 11
147.9622108191
 21
136.811930145
  0
LINE
  5
2A0
100
AcDbEntity
  8
26814000
100
AcDbLine
 62
7
  6
CONTINUOUS
 10
145.2190171421
 20
133.4940936924
 11
145.7534670208
 21
133.754441159
  0
LINE
  5
2A1
100
AcDbEntity
  8
21814000
100
AcDbLine
 62
7
  6
CONTINUOUS
 10
156.1375443933
 20
139.1499548831
 11
152.7071404928
 21
137.5126180701
  0
LINE
  5
2A2
100
AcDbEntity
  8
21814000
100
AcDbLine
 62
7
  6
CONTINUOUS
 10
154.777928077
 20
139.6677486356
 11
149.1244581865
 21
137.0567888906
  0
LINE
  5
2A3
100
AcDbEntity
  8
21814000
100
AcDbLine
 62
250
  6
CONTINUOUS
 10
155.1663855596
 20
139.6355342999
 11
149.3444723092
 21
136.9467818293
  0
LINE
  5
2A4
100
AcDbEntity
  8
RACCORDO
100
AcDbLine
 62
250
  6
CONTINUOUS
 10
163.8512808264
 20
91.9714486778
 11
168.0498909091
 21
92.2676566007
  0
LINE
  5
2A5
100
AcDbEntity
  8
RACCORDO
100
AcDbLine
 62
250
  6
CONTINUOUS
 10
162.6850569322
 20
83.6278000828
 11
162.702232307
 21
83.6225525356
  0
LINE
  5
2A6
100
AcDbEntity
  8
21814000
100
AcDbLine
 62
250
  6
CONTINUOUS
 10
142.781930755
 20
135.5536906588
 11
142.7488308302
 21
135.5199642772
  0
LWPOLYLINE
  5
2A7
100
AcDbEntity
  8
RACCORDO
100
AcDbPolyline
 62
7
  6
CONTINUOUS
 90
10
 70
0
 10
146.2032292541
 20
131.4487986665
 10
146.1748944838
 20
131.4322202998
 10
146.1485630548
 20
131.4117060177
 10
146.1249302508
 20
131.3875528145
 10
146.104657519
 20
131.3602558877
 10
146.0882286878
 20
131.3303580303
 10
146.0759663614
 20
131.2983171602
 10
146.0681404314
 20
131.2644876706
 10
146.0650768481
 20
131.2298924675
 10
146.0650326567
 20
131.2252134251
  0
LWPOLYLINE
  5
2A8
100
AcDbEntity
  8
RACCORDO
100
AcDbPolyline
 62
250
  6
CONTINUOUS
 90
13
 70
0
 10
146.315032653
 20
131.4416982197
 10
146.2924718867
 20
131.4286474113
 10
146.2701240324
 20
131.4121410534
 10
146.2483716844
 20
131.3923843829
 10
146.2275537387
 20
131.3695910821
 10
146.2081066906
 20
131.3441390319
 10
146.1905181951
 20
131.3166201131
 10
146.1751251248
 20
131.2875779147
 10
146.1621529703
 20
131.2574566912
 10
146.1518291832
 20
131.2267883381
 10
146.144330005
 20
131.1961069554
 10
146.1397804973
 20
131.1659387168
 10
146.1382559577
 20
131.1368035211
  0
LWPOLYLINE
  5
2A9
100
AcDbEntity
  8
21814000
100
AcDbPolyline
 62
7
  6
CONTINUOUS
 90
13
 70
0
 10
153.1217180045
 20
136.4370395299
 10
152.9927331864
 20
136.3666858115
 10
152.8738199021
 20
136.2920277629
 10
152.7655510687
 20
136.213425082
 10
152.6684483187
 20
136.1312564718
 10
152.5829794873
 20
136.0459178157
 10
152.5095563582
 20
135.95782027
 10
152.4485326796
 20
135.8673882835
 10
152.4002024598
 20
135.775057552
 10
152.364798551
 20
135.6812729193
 10
152.3424915269
 20
135.5864862342
 10
152.3333888615
 20
135.491154173
 10
152.3331567397
 20
135.4732892915
  0
LINE
  5
2AA
100
AcDbEntity
  8
26814000
100
AcDbLine
 62
250
  6
CONTINUOUS
 10
147.359443572
 20
132.2003891233
 11
152.7177703521
 21
135.0913293503
  0
LINE
  5
2AB
100
AcDbEntity
  8
26814000
100
AcDbLine
 62
250
  6
CONTINUOUS
 10
148.4410821017
 20
132.5355457821
 11
152.6336187845
 21
134.7975155064
  0
LINE
  5
2AC
100
AcDbEntity
  8
0
100
AcDbLine
 62
7
  6
CONTINUOUS
 10
152.7908871444
 20
135.1651374496
 11
153.4416607992
 21
135.5083032657
  0
LINE
  5
2AD
100
AcDbEntity
  8
RACCORDO
100
AcDbLine
 62
250
  6
CONTINUOUS
 10
153.4415330171
 20
135.5082358788
 11
153.4416607992
 21
135.5083032657
  0
LINE
  5
2AE
100
AcDbEntity
  8
26814000
100
AcDbLine
 62
250
  6
CONTINUOUS
 10
148.586979262
 20
132.490047405
 11
152.6336187845
 21
134.5852563523
  0
LINE
  5
2AF
100
AcDbEntity
  8
26814000
100
AcDbLine
 62
7
  6
CONTINUOUS
 10
148.7067453926
 20
132.4301643397
 11
152.7158284969
 21
134.5059278822
  0
LINE
  5
2B0
100
AcDbEntity
  8
21814000
100
AcDbLine
 62
7
  6
CONTINUOUS
 10
157.133873983
 20
138.4784393226
 11
153.1217180045
 21
136.4370395299
  0
LINE
  5
2B1
100
AcDbEntity
  8
26814000
100
AcDbLine
 62
7
  6
CONTINUOUS
 10
146.2286830863
 20
130.6375441828
 11
145.7785318267
 21
130.410288837
  0
LINE
  5
2B2
100
AcDbEntity
  8
26814000
100
AcDbLine
 62
7
  6
CONTINUOUS
 10
145.244081948
 20
131.8781988906
 11
146.8453627389
 21
132.6809208941
  0
LINE
  5
2B3
100
AcDbEntity
  8
0
100
AcDbLine
 62
7
  6
CONTINUOUS
 10
153.5699482279
 20
135.2852115343
 11
154.0649229748
 21
135.5326989078
  0
LINE
  5
2B4
100
AcDbEntity
  8
RACCORDO
100
AcDbLine
 62
7
  6
CONTINUOUS
 10
146.2032292541
 20
131.4487986665
 11
148.3245495977
 21
132.5094588383
  0
LINE
  5
2B5
100
AcDbEntity
  8
RACCORDO
100
AcDbLine
 62
250
  6
CONTINUOUS
 10
146.315032653
 20
131.4416982197
 11
148.4363529965
 21
132.5023583915
  0
LINE
  5
2B6
100
AcDbEntity
  8
RACCORDO
100
AcDbLine
 62
7
  6
CONTINUOUS
 10
156.5331008873
 20
135.7131987601
 11
155.2216365763
 21
135.0574666045
  0
LINE
  5
2B7
100
AcDbEntity
  8
26814000
100
AcDbLine
 62
7
  6
CONTINUOUS
 10
146.8453627389
 20
132.6809208941
 11
147.3736299106
 21
132.9443597141
  0
LINE
  5
2B8
100
AcDbEntity
  8
21814000
100
AcDbLine
 62
7
  6
CONTINUOUS
 10
157.133873983
 20
138.0705880553
 11
153.1217180045
 21
136.1157152477
  0
LINE
  5
2B9
100
AcDbEntity
  8
21814000
100
AcDbLine
 62
7
  6
CONTINUOUS
 10
153.2996204243
 20
134.0064111645
 11
149.37094893
 21
132.098062571
  0
LINE
  5
2BA
100
AcDbEntity
  8
26814000
100
AcDbLine
 62
250
  6
CONTINUOUS
 10
146.7558405289
 20
133.3152317758
 11
151.5276795071
 21
135.6093072622
  0
LINE
  5
2BB
100
AcDbEntity
  8
26814000
100
AcDbLine
 62
250
  6
CONTINUOUS
 10
146.9834560288
 20
133.2014240259
 11
151.969520375
 21
135.5984889819
  0
LWPOLYLINE
  5
2BC
100
AcDbEntity
  8
RACCORDO
100
AcDbPolyline
 62
250
  6
CONTINUOUS
 90
7
 70
0
 10
148.3245495977
 20
132.5094588383
 10
148.3287381629
 20
132.5114254941
 10
148.3479646489
 20
132.5175462144
 10
148.368703484
 20
132.5197025831
 10
148.3905998211
 20
132.5178577042
 10
148.4132790076
 20
132.5120431441
 10
148.4363529965
 20
132.5023583915
  0
LWPOLYLINE
  5
2BD
100
AcDbEntity
  8
RACCORDO
100
AcDbPolyline
 62
250
  6
CONTINUOUS
 90
7
 70
0
 10
146.2032292541
 20
131.4487986665
 10
146.2074178193
 20
131.4507653223
 10
146.2266443053
 20
131.4568860426
 10
146.2473831405
 20
131.4590424113
 10
146.2692794775
 20
131.4571975325
 10
146.2919586641
 20
131.4513829723
 10
146.315032653
 20
131.4416982197
  0
LWPOLYLINE
  5
2BE
100
AcDbEntity
  8
RACCORDO
100
AcDbPolyline
 62
7
  6
CONTINUOUS
 90
10
 70
0
 10
157.3816026991
 20
135.2889215285
 10
157.3929991634
 20
135.2940901838
 10
157.4042195659
 20
135.2981420802
 10
157.4152639066
 20
135.3010772177
 10
157.4262271655
 20
135.302895749
 10
157.4370143627
 20
135.3035975215
 10
157.4473405581
 20
135.3031820771
 10
157.4571107719
 20
135.3016492633
 10
157.4664199839
 20
135.2989992325
 10
157.4752681942
 20
135.2952319849
  0
LWPOLYLINE
  5
2BF
100
AcDbEntity
  8
RACCORDO
100
AcDbPolyline
 62
7
  6
CONTINUOUS
 90
8
 70
0
 10
148.3245495977
 20
132.5094588383
 10
148.3528361928
 20
132.5214884035
 10
148.3828233939
 20
132.5300533723
 10
148.4139979768
 20
132.5348505407
 10
148.4459026207
 20
132.5356695234
 10
148.4777875089
 20
132.5323944837
 10
148.5087950397
 20
132.5251262565
 10
148.5387550902
 20
132.5139172715
  0
LINE
  5
2C0
100
AcDbEntity
  8
26814000
100
AcDbLine
 62
7
  6
CONTINUOUS
 10
145.4665045155
 20
129.5241220837
 11
146.031983178
 21
129.7218248687
  0
LINE
  5
2C1
100
AcDbEntity
  8
RACCORDO
100
AcDbLine
 62
7
  6
CONTINUOUS
 10
167.5822206804
 20
92.9032800974
 11
163.8512808264
 21
92.7046286156
  0
LWPOLYLINE
  5
2C2
100
AcDbEntity
  8
RACCORDO
100
AcDbPolyline
 62
7
  6
CONTINUOUS
 90
18
 70
0
 10
167.5822066641
 20
92.9033251789
 10
167.6191485173
 20
92.9020335428
 10
167.6561681821
 20
92.894721144
 10
167.6943273776
 20
92.8811769422
 10
167.7333758596
 20
92.8616527012
 10
167.7715350551
 20
92.8370377075
 10
167.80855472
 20
92.8073304414
 10
167.8446850984
 20
92.7725324227
 10
167.8788983493
 20
92.7335374971
 10
167.9113485333
 20
92.6899534808
 10
167.94188159
 20
92.6421725577
 10
167.9690074973
 20
92.5922651243
 10
167.9925015018
 20
92.5403527203
 10
168.012588357
 20
92.4863138062
 10
168.0284523015
 20
92.4318541594
 10
168.0398214148
 20
92.3775423724
 10
168.0469676173
 20
92.3228098529
 10
168.0498909091
 20
92.2676566007
  0
LINE
  5
2C3
100
AcDbEntity
  8
ASSI
100
AcDbLine
 62
250
  6
CONTINUOUS
 10
130.3538360931
 20
98.9220819426
 11
130.2799587624
 21
98.9549310644
  0
LWPOLYLINE
  5
2C4
100
AcDbEntity
  8
RACCORDO
100
AcDbPolyline
 62
250
  6
CONTINUOUS
 90
3
 70
0
 10
163.2556589054
 20
83.504788717
 10
163.2498220055
 20
83.5074352956
 10
163.2325623929
 20
83.5127175786
  0
LINE
  5
2C5
100
AcDbEntity
  8
RACCORDO
100
AcDbLine
 62
250
  6
CONTINUOUS
 10
162.6788172557
 20
83.6306399117
 11
162.6850569322
 21
83.6278000828
  0
LINE
  5
2C6
100
AcDbEntity
  8
RACCORDO
100
AcDbLine
 62
7
  6
CONTINUOUS
 10
160.9110503028
 20
81.6454424631
 11
159.5675474185
 21
82.3171939053
  0
LINE
  5
2C7
100
AcDbEntity
  8
RACCORDO
100
AcDbLine
 62
250
  6
CONTINUOUS
 10
160.8460770064
 20
81.7806609133
 11
159.5025741221
 21
82.4524123554
  0
LINE
  5
2C8
100
AcDbEntity
  8
RACCORDO
100
AcDbLine
 62
250
  6
CONTINUOUS
 10
160.8460770064
 20
82.1319748853
 11
159.5025741221
 21
82.8037263275
  0
LINE
  5
2C9
100
AcDbEntity
  8
RACCORDO
100
AcDbLine
 62
250
  6
CONTINUOUS
 10
160.934465354
 20
82.3636690592
 11
159.5909624697
 21
83.0354205013
  0
LINE
  5
2CA
100
AcDbEntity
  8
RACCORDO
100
AcDbLine
 62
250
  6
CONTINUOUS
 10
160.1212925556
 20
83.6755855442
 11
161.4647954399
 21
83.0038341021
  0
LINE
  5
2CB
100
AcDbEntity
  8
RACCORDO
100
AcDbLine
 62
250
  6
CONTINUOUS
 10
160.2096809033
 20
83.9072797181
 11
161.5531837875
 21
83.2355282759
  0
LINE
  5
2CC
100
AcDbEntity
  8
RACCORDO
100
AcDbLine
 62
7
  6
CONTINUOUS
 10
158.6479720161
 20
84.8051807367
 11
161.3392177478
 21
83.4595578708
  0
LINE
  5
2CD
100
AcDbEntity
  8
DRAFT
100
AcDbLine
 62
7
  6
CONTINUOUS
 10
158.6842552862
 20
85.2461193113
 11
161.6929326985
 21
83.7417806051
  0
LWPOLYLINE
  5
2CE
100
AcDbEntity
  8
RACCORDO
100
AcDbPolyline
 62
7
  6
CONTINUOUS
 90
7
 70
0
 10
159.5677319206
 20
82.3171019077
 10
159.5563391883
 20
82.3231585807
 10
159.5292535474
 20
82.3408736925
 10
159.5046226143
 20
82.3619990017
 10
159.4828711145
 20
82.3862182774
 10
159.4643632387
 20
82.4132062635
 10
159.4494590607
 20
82.4425674083
  0
LWPOLYLINE
  5
2CF
100
AcDbEntity
  8
RACCORDO
100
AcDbPolyline
 62
250
  6
CONTINUOUS
 90
6
 70
0
 10
130.2799587624
 20
98.9549310644
 10
130.2070465469
 20
98.9954073103
 10
130.1348289601
 20
99.0436129426
 10
130.0638536054
 20
99.0992471432
 10
129.9946148549
 20
99.1619787782
 10
129.9896602028
 20
99.1671160538
  0
LWPOLYLINE
  5
2D0
100
AcDbEntity
  8
ASSI
100
AcDbPolyline
 62
250
  6
CONTINUOUS
 90
6
 70
0
 10
130.2799587624
 20
98.9549310644
 10
130.2070465469
 20
98.9954073103
 10
130.1348289601
 20
99.0436129426
 10
130.0638536054
 20
99.0992471432
 10
129.9946148549
 20
99.1619787782
 10
129.9896602028
 20
99.1671160538
  0
LWPOLYLINE
  5
2D1
100
AcDbEntity
  8
RACCORDO
100
AcDbPolyline
 62
250
  6
CONTINUOUS
 90
33
 70
0
 10
130.2019717212
 20
98.8347447454
 10
130.1221017863
 20
98.8791980144
 10
130.0441674212
 20
98.931278542
 10
129.9681695973
 20
98.990986746
 10
129.8935104465
 20
99.0588918353
 10
129.8207917509
 20
99.1344262831
 10
129.7518146419
 20
99.2158856964
 10
129.6866888073
 20
99.3034363103
 10
129.6253114658
 20
99.3969148515
 10
129.5691647708
 20
99.4941225457
 10
129.5184078469
 20
99.595101994
 10
129.4728895066
 20
99.6998139865
 10
129.4336248893
 20
99.8059363654
 10
129.4007482959
 20
99.9135216842
 10
129.3741323826
 20
100.0225203448
 10
129.354397033
 20
100.1304557652
 10
129.34170323
 20
100.2373047402
 10
129.3358940292
 20
100.3430921706
 10
129.3371086651
 20
100.4454120298
 10
129.3455096782
 20
100.5441850172
 10
129.3609345567
 20
100.6394904173
 10
129.3830308434
 20
100.7291583336
 10
129.411951418
 20
100.8130556505
 10
129.4475394027
 20
100.8913137655
 10
129.4889739302
 20
100.9621579559
 10
129.5363815917
 20
101.0254111755
 10
129.5896288579
 20
101.0812475236
 10
129.6475018594
 20
101.1284178081
 10
129.7100967017
 20
101.1667227068
 10
129.7773093032
 20
101.1963581739
 10
129.8476239766
 20
101.2166672886
 10
129.9211479808
 20
101.2274228458
 10
129.9977671778
 20
101.2288491567
  0
LWPOLYLINE
  5
2D2
100
AcDbEntity
  8
ASSI
100
AcDbPolyline
 62
250
  6
CONTINUOUS
 90
30
 70
0
 10
130.2019717212
 20
98.8347447454
 10
130.1221017863
 20
98.8791980144
 10
130.0441674212
 20
98.931278542
 10
129.9681695973
 20
98.990986746
 10
129.8935104465
 20
99.0588918353
 10
129.8207917509
 20
99.1344262831
 10
129.7518146419
 20
99.2158856964
 10
129.6866888073
 20
99.3034363103
 10
129.6253114658
 20
99.3969148515
 10
129.5691647708
 20
99.4941225457
 10
129.5184078469
 20
99.595101994
 10
129.4728895066
 20
99.6998139865
 10
129.4336248893
 20
99.8059363654
 10
129.4007482959
 20
99.9135216842
 10
129.3741323826
 20
100.0225203448
 10
129.354397033
 20
100.1304557652
 10
129.34170323
 20
100.2373047402
 10
129.3358940292
 20
100.3430921706
 10
129.3371086651
 20
100.4454120298
 10
129.3455096782
 20
100.5441850172
 10
129.3609345567
 20
100.6394904173
 10
129.3830308434
 20
100.7291583336
 10
129.411951418
 20
100.8130556505
 10
129.4475394027
 20
100.8913137655
 10
129.4889739302
 20
100.9621579559
 10
129.5363815917
 20
101.0254111755
 10
129.5896288579
 20
101.0812475236
 10
129.6475018594
 20
101.1284178081
 10
129.7100967017
 20
101.1667227068
 10
129.7773093032
 20
101.1963581739
  0
LWPOLYLINE
  5
2D3
100
AcDbEntity
  8
RACCORDO
100
AcDbPolyline
 62
250
  6
CONTINUOUS
 90
8
 70
0
 10
159.5675727785
 20
82.3171812301
 10
159.5548363595
 20
82.3248580009
 10
159.5394432892
 20
82.3385071289
 10
159.5264711347
 20
82.3556561979
 10
159.5161473476
 20
82.3760007639
 10
159.5086481694
 20
82.3991829684
 10
159.5040986618
 20
82.4248016994
 10
159.5025741221
 20
82.4524123554
  0
LWPOLYLINE
  5
2D4
100
AcDbEntity
  8
RACCORDO
100
AcDbPolyline
 62
250
  6
CONTINUOUS
 90
8
 70
0
 10
160.9108886726
 20
81.6455234732
 10
160.8983392438
 20
81.6531065588
 10
160.8829461734
 20
81.6667556867
 10
160.869974019
 20
81.6839047558
 10
160.8596502319
 20
81.7042493218
 10
160.8521510537
 20
81.7274315263
 10
160.847601546
 20
81.7530502573
 10
160.8460770064
 20
81.7806609133
  0
LINE
  5
2D5
100
AcDbEntity
  8
RACCORDO
100
AcDbLine
 62
250
  6
CONTINUOUS
 10
130.4725798712
 20
101.0448667881
 11
130.5484507579
 21
100.9850876791
  0
LWPOLYLINE
  5
2D6
100
AcDbEntity
  8
ASSI
100
AcDbPolyline
 62
7
  6
CONTINUOUS
 90
4
 70
0
 10
130.4840998105
 20
100.9937219771
 10
130.6204638317
 20
100.878399454
 10
130.7482169398
 20
100.7375629848
 10
130.8637478117
 20
100.5747645225
  0
LWPOLYLINE
  5
2D7
100
AcDbEntity
  8
RACCORDO
100
AcDbPolyline
 62
250
  6
CONTINUOUS
 90
3
 70
0
 10
130.5484507579
 20
100.9850876791
 10
130.6229255162
 20
100.9170897287
 10
130.6954084496
 20
100.8414443196
  0
LINE
  5
2D8
100
AcDbEntity
  8
ASSI
100
AcDbLine
 62
250
  6
CONTINUOUS
 10
130.5484507579
 20
100.9850876791
 11
130.6229255162
 21
100.9170897287
  0
LINE
  5
2D9
100
AcDbEntity
  8
ASSI
100
AcDbLine
 62
250
  6
CONTINUOUS
 10
130.6229255162
 20
100.9170897287
 11
130.6954084496
 21
100.8414443196
  0
LWPOLYLINE
  5
2DA
100
AcDbEntity
  8
RACCORDO
100
AcDbPolyline
 62
250
  6
CONTINUOUS
 90
14
 70
0
 10
130.6954084496
 20
100.8414443196
 10
130.7641082544
 20
100.7598638305
 10
130.8289192833
 20
100.6721855304
 10
130.8899540836
 20
100.578575053
 10
130.9457483681
 20
100.4812372101
 10
130.99614988
 20
100.3801337686
 10
131.0413188039
 20
100.2753063093
 10
131.0802579707
 20
100.1690787191
 10
131.1128402069
 20
100.0614014629
 10
131.1391996394
 20
99.9523270291
 10
131.1587282696
 20
99.8443311697
 10
131.1712698402
 20
99.7374374414
 10
131.1769846563
 20
99.6316240266
 10
131.1757358125
 20
99.5292970309
  0
LWPOLYLINE
  5
2DB
100
AcDbEntity
  8
ASSI
100
AcDbPolyline
 62
250
  6
CONTINUOUS
 90
5
 70
0
 10
130.6954084496
 20
100.8414443196
 10
130.7641082544
 20
100.7598638305
 10
130.8289192833
 20
100.6721855304
 10
130.8899540836
 20
100.578575053
 10
130.9457483681
 20
100.4812372101
  0
LWPOLYLINE
  5
2DC
100
AcDbEntity
  8
ASSI
100
AcDbPolyline
 62
7
  6
CONTINUOUS
 90
8
 70
0
 10
130.8637478117
 20
100.5747645225
 10
130.9632654703
 20
100.3947751542
 10
131.0435753576
 20
100.2030780896
 10
131.1023666366
 20
100.0045691704
 10
131.1375591924
 20
99.8054355826
 10
131.14786744
 20
99.612055552
 10
131.1328353375
 20
99.4303938347
 10
131.0930634075
 20
99.2669964064
  0
LWPOLYLINE
  5
2DD
100
AcDbEntity
  8
ASSI
100
AcDbPolyline
 62
250
  6
CONTINUOUS
 90
8
 70
0
 10
130.9457483681
 20
100.4812372101
 10
130.99614988
 20
100.3801337686
 10
131.0413188039
 20
100.2753063093
 10
131.0802579707
 20
100.1690787191
 10
131.1128402069
 20
100.0614014629
 10
131.1391996394
 20
99.9523270291
 10
131.1587282696
 20
99.8443311697
 10
131.1712698402
 20
99.7374374414
  0
LINE
  5
2DE
100
AcDbEntity
  8
RACCORDO
100
AcDbLine
 62
250
  6
CONTINUOUS
 10
129.4930369834
 20
100.1672110267
 11
129.483071193
 21
100.248890176
  0
LWPOLYLINE
  5
2DF
100
AcDbEntity
  8
ASSI
100
AcDbPolyline
 62
250
  6
CONTINUOUS
 90
6
 70
0
 10
129.4930369834
 20
100.1672110267
 10
129.483071193
 20
100.248890176
 10
129.477470319
 20
100.3458687837
 10
129.4784151706
 20
100.4403563401
 10
129.4858740385
 20
100.5316211391
 10
129.4997605011
 20
100.6189570217
  0
LWPOLYLINE
  5
2E0
100
AcDbEntity
  8
RACCORDO
100
AcDbPolyline
 62
250
  6
CONTINUOUS
 90
13
 70
0
 10
129.483071193
 20
100.248890176
 10
129.477470319
 20
100.3458687837
 10
129.4784151706
 20
100.4403563401
 10
129.4858740385
 20
100.5316211391
 10
129.4997605011
 20
100.6189570217
 10
129.5200148565
 20
100.7017106997
 10
129.5464597233
 20
100.7792433002
 10
129.5788632709
 20
100.8509539029
 10
129.6170131234
 20
100.9163079858
 10
129.6605972767
 20
100.974801236
 10
129.7092564341
 20
101.0259823118
 10
129.7626474039
 20
101.0694753844
 10
129.8203460775
 20
101.1049445802
  0
LWPOLYLINE
  5
2E1
100
AcDbEntity
  8
ASSI
100
AcDbPolyline
 62
250
  6
CONTINUOUS
 90
4
 70
0
 10
131.1712698402
 20
99.7374374414
 10
131.1769846563
 20
99.6316240266
 10
131.1757358125
 20
99.5292970309
 10
131.1673607404
 20
99.4305341121
  0
LINE
  5
2E2
100
AcDbEntity
  8
26814000
100
AcDbLine
 62
7
  6
CONTINUOUS
 10
129.6980232951
 20
137.4327581992
 11
129.6980232951
 21
137.4083626939
  0
LINE
  5
2E3
100
AcDbEntity
  8
26814000
100
AcDbLine
 62
7
  6
CONTINUOUS
 10
130.097216592
 20
138.8060092319
 11
130.097216592
 21
139.0593806256
  0
LINE
  5
2E4
100
AcDbEntity
  8
26814000
100
AcDbLine
 62
7
  6
CONTINUOUS
 10
130.5111960934
 20
137.0017762947
 11
130.5111960934
 21
136.5697108245
  0
LINE
  5
2E5
100
AcDbEntity
  8
26814000
100
AcDbLine
 62
7
  6
CONTINUOUS
 10
130.8002095463
 20
137.8994499772
 11
130.8002095463
 21
138.3517809529
  0
LWPOLYLINE
  5
2E6
100
AcDbEntity
  8
RACCORDO
100
AcDbPolyline
 62
250
  6
CONTINUOUS
 90
55
 70
0
 10
129.5190044157
 20
100.2736602985
 10
129.5162087498
 20
100.2260980557
 10
129.5155707698
 20
100.1776179043
 10
129.5170931242
 20
100.1283828091
 10
129.5207689039
 20
100.0785830827
 10
129.5265863972
 20
100.0283619412
 10
129.5345396885
 20
99.9778132353
 10
129.544623431
 20
99.9270533654
 10
129.5568060479
 20
99.8763076413
 10
129.5710303477
 20
99.825833662
 10
129.5872447762
 20
99.7758102244
 10
129.6053953689
 20
99.7263998291
 10
129.6253937956
 20
99.6778297824
 10
129.6471426406
 20
99.630307183
 10
129.6705799839
 20
99.5839404022
 10
129.6956639619
 20
99.5388053216
 10
129.7223302943
 20
99.495026037
 10
129.7504740495
 20
99.452782747
 10
129.7799913566
 20
99.4122331489
 10
129.8107817264
 20
99.3735150318
 10
129.8427419434
 20
99.3367579437
 10
129.8757552898
 20
99.3020947118
 10
129.9096879121
 20
99.2696602353
 10
129.9444452893
 20
99.2395393753
 10
129.9799680949
 20
99.211788444
 10
130.0161746663
 20
99.1864876526
 10
130.0529100797
 20
99.163761433
 10
130.0900027775
 20
99.1437219988
 10
130.1273124674
 20
99.1264439141
 10
130.1647264765
 20
99.1119781344
 10
130.2021118079
 20
99.1003758166
 10
130.2393371836
 20
99.0916762663
 10
130.2762806248
 20
99.085906549
 10
130.3128237652
 20
99.0830850281
 10
130.348847171
 20
99.0832222184
 10
130.3842234469
 20
99.0863189465
 10
130.418825124
 20
99.0923638468
 10
130.4525302503
 20
99.1013337792
 10
130.4852297731
 20
99.1131978419
 10
130.5168199578
 20
99.1279182387
 10
130.547198031
 20
99.1454488466
 10
130.5762552968
 20
99.1657287636
 10
130.6038856286
 20
99.1886834898
 10
130.6299909601
 20
99.2142284315
 10
130.6544890952
 20
99.2422799128
 10
130.6773049943
 20
99.2727520364
 10
130.6983736691
 20
99.3055649947
 10
130.7176070416
 20
99.3405889722
 10
130.7349119302
 20
99.3776429803
 10
130.750223501
 20
99.4165509466
 10
130.7635178123
 20
99.4572106843
 10
130.7747740194
 20
99.4995409134
 10
130.7839583856
 20
99.543420926
 10
130.7910342605
 20
99.5886826008
 10
130.7959780364
 20
99.6351734882
  0
LWPOLYLINE
  5
2E7
100
AcDbEntity
  8
RACCORDO
100
AcDbPolyline
 62
7
  6
CONTINUOUS
 90
19
 70
0
 10
129.4957621742
 20
100.3046713635
 10
129.5009212896
 20
100.3535961722
 10
129.5082513166
 20
100.4013851571
 10
129.5177365498
 20
100.4479163229
 10
129.5293702025
 20
100.4931120692
 10
129.5431213737
 20
100.5368072942
 10
129.5589154069
 20
100.5787669616
 10
129.5767061072
 20
100.6188945542
 10
129.5964419499
 20
100.6570921372
 10
129.6179990751
 20
100.693159041
 10
129.6412871219
 20
100.7270048304
 10
129.6662364996
 20
100.7585823461
 10
129.6927194796
 20
100.7877850172
 10
129.7205987114
 20
100.8145295508
 10
129.7498014941
 20
100.8388108451
 10
129.7802853746
 20
100.860637222
 10
129.8119637438
 20
100.8799751045
 10
129.8446996853
 20
100.8967702715
 10
129.8783735312
 20
100.9109949821
  0
LINE
  5
2E8
100
AcDbEntity
  8
28414000
100
AcDbLine
 62
7
  6
CONTINUOUS
 10
136.5845621459
 20
133.9650932685
 11
136.5484167185
 21
133.8562558041
  0
LWPOLYLINE
  5
2E9
100
AcDbEntity
  8
RACCORDO
100
AcDbPolyline
 62
7
  6
CONTINUOUS
 90
8
 70
0
 10
146.4687471566
 20
130.0107116467
 10
146.4471350222
 20
129.9955149745
 10
146.4268065086
 20
129.9813741095
 10
146.4087037614
 20
129.96914468
 10
146.3928977944
 20
129.9589585935
 10
146.3791393048
 20
129.9506690301
 10
146.3680689496
 20
129.9445538085
 10
146.3635539047
 20
129.9422494719
  0
LWPOLYLINE
  5
2EA
100
AcDbEntity
  8
RACCORDO
100
AcDbPolyline
 62
7
  6
CONTINUOUS
 90
4
 70
0
 10
146.5432098261
 20
130.0610184584
 10
146.5168004351
 20
130.0437726282
 10
146.4918033408
 20
130.0267857913
 10
146.4687471566
 20
130.0107116467
  0
LWPOLYLINE
  5
2EB
100
AcDbEntity
  8
RACCORDO
100
AcDbPolyline
 62
250
  6
CONTINUOUS
 90
13
 70
0
 10
147.6585355372
 20
130.7699467776
 10
147.635974771
 20
130.7568959691
 10
147.6136269166
 20
130.7403896113
 10
147.5918745686
 20
130.7206329408
 10
147.5710566229
 20
130.69783964
 10
147.5516095749
 20
130.6723875898
 10
147.5340210794
 20
130.6448686709
 10
147.518628009
 20
130.6158264726
 10
147.5056558545
 20
130.5857052491
 10
147.4953320675
 20
130.555036896
 10
147.4878328893
 20
130.5243555133
 10
147.4832833816
 20
130.4941872746
 10
147.4817588419
 20
130.465052079
  0
LWPOLYLINE
  5
2EC
100
AcDbEntity
  8
RACCORDO
100
AcDbPolyline
 62
250
  6
CONTINUOUS
 90
7
 70
0
 10
149.2495257949
 20
130.0708448881
 10
149.2710874347
 20
130.0831380571
 10
149.2892554505
 20
130.0967332358
 10
149.3037189827
 20
130.1113978067
 10
149.3142305562
 20
130.1268808551
 10
149.3206103149
 20
130.1429174617
 10
149.3227490996
 20
130.1592332358
  0
LWPOLYLINE
  5
2ED
100
AcDbEntity
  8
26814000
100
AcDbPolyline
 62
7
  6
CONTINUOUS
 90
5
 70
0
 10
152.7160369906
 20
134.5060261934
 10
152.7162714275
 20
134.5061591952
 10
152.7171986634
 20
134.5069868666
 10
152.7177050809
 20
134.508037938
 10
152.7178168262
 20
134.5089821823
  0
LINE
  5
2EE
100
AcDbEntity
  8
RACCORDO
100
AcDbLine
 62
250
  6
CONTINUOUS
 10
149.2671987038
 20
129.756116595
 11
149.2495257949
 21
129.7470224604
  0
LINE
  5
2EF
100
AcDbEntity
  8
26814000
100
AcDbLine
 62
250
  6
CONTINUOUS
 10
146.3736714277
 20
130.5650500121
 11
145.2190171421
 21
129.9753817089
  0
LINE
  5
2F0
100
AcDbEntity
  8
26814000
100
AcDbLine
 62
250
  6
CONTINUOUS
 10
146.7721394342
 20
130.2152899179
 11
145.4665045155
 21
129.548517589
  0
LINE
  5
2F1
100
AcDbEntity
  8
RACCORDO
100
AcDbLine
 62
250
  6
CONTINUOUS
 10
147.6585355372
 20
130.7699467776
 11
149.7798558808
 21
131.8306069494
  0
LINE
  5
2F2
100
AcDbEntity
  8
RACCORDO
100
AcDbLine
 62
7
  6
CONTINUOUS
 10
157.381631595
 20
135.2889359765
 11
156.5027389438
 21
134.8494896509
  0
LINE
  5
2F3
100
AcDbEntity
  8
RACCORDO
100
AcDbLine
 62
250
  6
CONTINUOUS
 10
147.8353122325
 20
130.465052079
 11
149.9566325761
 21
131.5257122508
  0
LWPOLYLINE
  5
2F4
100
AcDbEntity
  8
RACCORDO
100
AcDbPolyline
 62
7
  6
CONTINUOUS
 90
5
 70
0
 10
146.6456019199
 20
130.1187360205
 10
146.6313199766
 20
130.1116070806
 10
146.600271217
 20
130.0950670414
 10
146.5709217925
 20
130.0781381205
 10
146.5432098261
 20
130.0610184584
  0
LINE
  5
2F5
100
AcDbEntity
  8
21814000
100
AcDbLine
 62
250
  6
CONTINUOUS
 10
162.0644226194
 20
135.6726823741
 11
150.3902826502
 21
129.8684003824
  0
LINE
  5
2F6
100
AcDbEntity
  8
RACCORDO
100
AcDbLine
 62
7
  6
CONTINUOUS
 10
146.1290648703
 20
129.8259280579
 11
146.3636629797
 21
129.9422904497
  0
LINE
  5
2F7
100
AcDbEntity
  8
RACCORDO
100
AcDbLine
 62
250
  6
CONTINUOUS
 10
146.3522219974
 20
129.8114599542
 11
146.5920119123
 21
129.9303947901
  0
LINE
  5
2F8
100
AcDbEntity
  8
RACCORDO
100
AcDbLine
 62
7
  6
CONTINUOUS
 10
146.7621319351
 20
130.1756157482
 11
146.6456031104
 21
130.1187334884
  0
LINE
  5
2F9
100
AcDbEntity
  8
RACCORDO
100
AcDbLine
 62
7
  6
CONTINUOUS
 10
146.7721394342
 20
130.180501744
 11
146.7621319351
 21
130.1756157482
  0
LINE
  5
2FA
100
AcDbEntity
  8
21814000
100
AcDbLine
 62
7
  6
CONTINUOUS
 10
161.6448794084
 20
136.3962873755
 11
154.0523145082
 21
132.7082059034
  0
LINE
  5
2FB
100
AcDbEntity
  8
RACCORDO
100
AcDbLine
 62
250
  6
CONTINUOUS
 10
146.7500187567
 20
130.1397441396
 11
146.7686474408
 21
130.1487101425
  0
LINE
  5
2FC
100
AcDbEntity
  8
21814000
100
AcDbLine
 62
7
  6
CONTINUOUS
 10
160.8392074724
 20
136.7991233435
 11
157.4180614026
 21
135.1571576152
  0
LINE
  5
2FD
100
AcDbEntity
  8
RACCORDO
100
AcDbLine
 62
250
  6
CONTINUOUS
 10
149.2495257949
 20
129.7470224604
 11
148.5424190137
 21
129.4085855994
  0
LINE
  5
2FE
100
AcDbEntity
  8
RACCORDO
100
AcDbLine
 62
250
  6
CONTINUOUS
 10
149.3884790081
 20
129.50189901
 11
148.681372227
 21
129.163462149
  0
LWPOLYLINE
  5
2FF
100
AcDbEntity
  8
RACCORDO
100
AcDbPolyline
 62
250
  6
CONTINUOUS
 90
5
 70
0
 10
146.6458998564
 20
130.1188786262
 10
146.6528513
 20
130.122109222
 10
146.6834699965
 20
130.1328068844
 10
146.715971377
 20
130.1387055586
 10
146.7500187567
 20
130.1397441396
  0
LWPOLYLINE
  5
300
100
AcDbEntity
  8
RACCORDO
100
AcDbPolyline
 62
250
  6
CONTINUOUS
 90
4
 70
0
 10
146.7902854785
 20
130.1474229263
 10
146.7880922534
 20
130.1464150658
 10
146.7761041289
 20
130.1422626431
 10
146.7633690111
 20
130.1400313148
  0
LWPOLYLINE
  5
301
100
AcDbEntity
  8
21814000
100
AcDbPolyline
 62
7
  6
CONTINUOUS
 90
9
 70
0
 10
161.6448794084
 20
136.3962873755
 10
161.7010252861
 20
136.4215504138
 10
161.754257997
 20
136.4410029063
 10
161.8041284575
 20
136.4546325173
 10
161.8500992273
 20
136.4625402048
 10
161.8918911888
 20
136.4647731827
 10
161.9294840989
 20
136.4613161684
 10
161.9625183874
 20
136.4523795642
 10
161.9770803379
 20
136.4460065063
  0
LWPOLYLINE
  5
302
100
AcDbEntity
  8
RACCORDO
100
AcDbPolyline
 62
250
  6
CONTINUOUS
 90
8
 70
0
 10
146.3636630092
 20
129.9422904643
 10
146.3793929395
 20
129.9492650475
 10
146.4113223518
 20
129.9588717251
 10
146.4451644614
 20
129.9633872391
 10
146.4805480772
 20
129.9627621584
 10
146.5170852634
 20
129.9570035021
 10
146.5543756332
 20
129.9461745345
 10
146.5920104824
 20
129.9303940809
  0
LWPOLYLINE
  5
303
100
AcDbEntity
  8
RACCORDO
100
AcDbPolyline
 62
250
  6
CONTINUOUS
 90
13
 70
0
 10
147.8353122325
 20
130.465052079
 10
147.81130592
 20
130.454494469
 10
147.7846041543
 20
130.4454974975
 10
147.7556009112
 20
130.438246771
 10
147.7246712041
 20
130.4328936789
 10
147.6923818682
 20
130.4295912988
 10
147.6595047428
 20
130.428441366
 10
147.6266830114
 20
130.4294591613
 10
147.5944128409
 20
130.4326220922
 10
147.5632631167
 20
130.4378731671
 10
147.5337742212
 20
130.4451184367
 10
147.5064497785
 20
130.4542311504
 10
147.4817588419
 20
130.465052079
  0
LWPOLYLINE
  5
304
100
AcDbEntity
  8
RACCORDO
100
AcDbPolyline
 62
250
  6
CONTINUOUS
 90
13
 70
0
 10
147.8353122325
 20
130.1137381069
 10
147.8107258945
 20
130.102957287
 10
147.7835355372
 20
130.0938732791
 10
147.7542063953
 20
130.086641513
 10
147.7232402985
 20
130.0813857263
 10
147.6911670853
 20
130.0781958469
 10
147.6585355372
 20
130.0771264546
 10
147.6259039892
 20
130.0781958469
 10
147.5938307759
 20
130.0813857263
 10
147.5628646791
 20
130.086641513
 10
147.5335355372
 20
130.0938732791
 10
147.50634518
 20
130.102957287
 10
147.4817588419
 20
130.1137381069
  0
LWPOLYLINE
  5
305
100
AcDbEntity
  8
RACCORDO
100
AcDbPolyline
 62
250
  6
CONTINUOUS
 90
13
 70
0
 10
148.5424190137
 20
129.7172914975
 10
148.5178326757
 20
129.7065106776
 10
148.4906423184
 20
129.6974266697
 10
148.4613131765
 20
129.6901949036
 10
148.4303470797
 20
129.6849391169
 10
148.3982738665
 20
129.6817492375
 10
148.3656423184
 20
129.6806798452
 10
148.3330107704
 20
129.6817492375
 10
148.3009375571
 20
129.6849391169
 10
148.2699714603
 20
129.6901949036
 10
148.2406423184
 20
129.6974266697
 10
148.2134519612
 20
129.7065106776
 10
148.1888656231
 20
129.7172914975
  0
LWPOLYLINE
  5
306
100
AcDbEntity
  8
RACCORDO
100
AcDbPolyline
 62
250
  6
CONTINUOUS
 90
16
 70
0
 10
148.681372227
 20
129.163462149
 10
148.6452219328
 20
129.1481087458
 10
148.606981107
 20
129.1349525117
 10
148.5666497494
 20
129.1239934468
 10
148.5237569283
 20
129.1151799191
 10
148.4787735754
 20
129.1085635606
 10
148.4331124859
 20
129.1042992669
 10
148.3867973182
 20
129.1024425735
 10
148.3398044138
 20
129.1029379448
 10
148.2934755929
 20
129.1057736699
 10
148.2477824231
 20
129.1110068613
 10
148.2027533368
 20
129.1185804064
 10
148.1598154519
 20
129.1283112565
 10
148.1194444744
 20
129.1401383952
 10
148.0811646984
 20
129.1541228388
 10
148.0449761239
 20
129.1702645874
  0
LWPOLYLINE
  5
307
100
AcDbEntity
  8
RACCORDO
100
AcDbPolyline
 62
250
  6
CONTINUOUS
 90
16
 70
0
 10
148.5424190137
 20
129.4085855994
 10
148.5227707735
 20
129.4004791306
 10
148.5014385595
 20
129.3934572409
 10
148.478675006
 20
129.3875948108
 10
148.4547573384
 20
129.3829611432
 10
148.4299467536
 20
129.3795919262
 10
148.4044808152
 20
129.3774958315
 10
148.3786562259
 20
129.3766940943
 10
148.3527357458
 20
129.3771936679
 10
148.3269046652
 20
129.3789807166
 10
148.3014245318
 20
129.3820500892
 10
148.2765944258
 20
129.3863806379
 10
148.2526573369
 20
129.3919326653
 10
148.2298764706
 20
129.3986598123
 10
148.2085281519
 20
129.4065032579
 10
148.1888656231
 20
129.4153880378
  0
LINE
  5
308
100
AcDbEntity
  8
RACCORDO
100
AcDbLine
 62
250
  6
CONTINUOUS
 10
149.3702472846
 20
129.8060178191
 11
149.3884790081
 21
129.8132946231
  0
LWPOLYLINE
  5
309
100
AcDbEntity
  8
RACCORDO
100
AcDbPolyline
 62
250
  6
CONTINUOUS
 90
4
 70
0
 10
130.4408617766
 20
98.7551674061
 10
130.3625271099
 20
98.7724079093
 10
130.2828974212
 20
98.7989338309
 10
130.2019717212
 20
98.8347447454
  0
LWPOLYLINE
  5
30A
100
AcDbEntity
  8
RACCORDO
100
AcDbPolyline
 62
250
  6
CONTINUOUS
 90
3
 70
0
 10
130.4275846874
 20
98.8974933725
 10
130.3538360931
 20
98.9220819426
 10
130.2799587624
 20
98.9549310644
  0
LWPOLYLINE
  5
30B
100
AcDbEntity
  8
0
100
AcDbPolyline
 62
7
  6
CONTINUOUS
 90
3
 70
0
 10
130.9770539987
 20
99.195269499
 10
131.0294986566
 20
99.1722110981
 10
131.0476565367
 20
99.1662508695
  0
LWPOLYLINE
  5
30C
100
AcDbEntity
  8
ASSI
100
AcDbPolyline
 62
7
  6
CONTINUOUS
 90
3
 70
0
 10
130.9770539987
 20
99.195269499
 10
131.0294986566
 20
99.1722110981
 10
131.0476565367
 20
99.1662508695
  0
LINE
  5
30D
100
AcDbEntity
  8
RACCORDO
100
AcDbLine
 62
250
  6
CONTINUOUS
 10
130.2338686187
 20
101.1772846382
 11
130.314849915
 21
101.1414772954
  0
LINE
  5
30E
100
AcDbEntity
  8
ASSI
100
AcDbLine
 62
250
  6
CONTINUOUS
 10
130.2338686187
 20
101.1772846382
 11
130.314849915
 21
101.1414772954
  0
LINE
  5
30F
100
AcDbEntity
  8
RACCORDO
100
AcDbLine
 62
7
  6
CONTINUOUS
 10
130.2779797695
 20
101.1098797182
 11
130.3406522457
 21
101.0816190643
  0
LINE
  5
310
100
AcDbEntity
  8
ASSI
100
AcDbLine
 62
7
  6
CONTINUOUS
 10
130.2910186328
 20
101.104502325
 11
130.3405954021
 21
101.0816476208
  0
LINE
  5
311
100
AcDbEntity
  8
RACCORDO
100
AcDbLine
 62
250
  6
CONTINUOUS
 10
162.6959598415
 20
83.6256887684
 11
162.702232307
 21
83.6225525356
  0
LINE
  5
312
100
AcDbEntity
  8
DRAFT
100
AcDbLine
 62
7
  6
CONTINUOUS
 10
158.7260438497
 20
85.7539618941
 11
162.1605747929
 21
84.0366964225
  0
LINE
  5
313
100
AcDbEntity
  8
RACCORDO
100
AcDbLine
 62
250
  6
CONTINUOUS
 10
162.687067264
 20
83.785465143
 11
163.2325623929
 21
83.5127175786
  0
LINE
  5
314
100
AcDbEntity
  8
RACCORDO
100
AcDbLine
 62
7
  6
CONTINUOUS
 10
162.687067264
 20
83.7890852925
 11
163.2559774441
 21
83.5046302025
  0
LINE
  5
315
100
AcDbEntity
  8
DRAFT
100
AcDbLine
 62
7
  6
CONTINUOUS
 10
158.8541304783
 20
87.310556303
 11
162.1605747929
 21
85.6573341457
  0
LINE
  5
316
100
AcDbEntity
  8
RACCORDO
100
AcDbLine
 62
250
  6
CONTINUOUS
 10
130.314849915
 20
101.1414772954
 11
130.3947132473
 21
101.096996796
  0
LINE
  5
317
100
AcDbEntity
  8
ASSI
100
AcDbLine
 62
250
  6
CONTINUOUS
 10
130.314849915
 20
101.1414772954
 11
130.3947132473
 21
101.096996796
  0
LINE
  5
318
100
AcDbEntity
  8
RACCORDO
100
AcDbLine
 62
7
  6
CONTINUOUS
 10
130.3407416206
 20
101.0815670198
 11
130.4167317147
 21
101.0390598207
  0
LINE
  5
319
100
AcDbEntity
  8
ASSI
100
AcDbLine
 62
7
  6
CONTINUOUS
 10
130.3411333386
 20
101.0813747853
 11
130.4840998105
 21
100.9937219771
  0
LINE
  5
31A
100
AcDbEntity
  8
RACCORDO
100
AcDbLine
 62
250
  6
CONTINUOUS
 10
130.3947132473
 20
101.096996796
 11
130.4725798712
 21
101.0448667881
  0
LWPOLYLINE
  5
31B
100
AcDbEntity
  8
ASSI
100
AcDbPolyline
 62
250
  6
CONTINUOUS
 90
3
 70
0
 10
130.3947132473
 20
101.096996796
 10
130.4725798712
 20
101.0448667881
 10
130.5484507579
 20
100.9850876791
  0
LWPOLYLINE
  5
31C
100
AcDbEntity
  8
RACCORDO
100
AcDbPolyline
 62
7
  6
CONTINUOUS
 90
22
 70
0
 10
130.4167317147
 20
101.0390598207
 10
130.4877686554
 20
100.991039879
 10
130.557518477
 20
100.9357158293
 10
130.6254183951
 20
100.8735723347
 10
130.6910056487
 20
100.8050337431
 10
130.7537485021
 20
100.7306236435
 10
130.8131587162
 20
100.6509639266
 10
130.8688709082
 20
100.5665554742
 10
130.9204308842
 20
100.4780304299
 10
130.9674449077
 20
100.3860818682
 10
131.0096443851
 20
100.2912660468
 10
131.0466797657
 20
100.194306971
 10
131.0782574485
 20
100.0959386609
 10
131.1042010165
 20
99.996740193
 10
131.1242786602
 20
99.8974893352
 10
131.1382952413
 20
99.7989711901
 10
131.1461623485
 20
99.7018088107
 10
131.1477917542
 20
99.6067941251
 10
131.143123985
 20
99.5147563923
 10
131.1321951641
 20
99.4264131083
 10
131.1151018013
 20
99.3425084678
 10
131.0919863781
 20
99.2638564852
  0
LINE
  5
31D
100
AcDbEntity
  8
26814000
100
AcDbLine
 62
7
  6
CONTINUOUS
 10
131.7029930542
 20
138.2564923945
 11
131.7029930542
 21
138.0031210008
  0
LINE
  5
31E
100
AcDbEntity
  8
26814000
100
AcDbLine
 62
7
  6
CONTINUOUS
 10
132.4142136623
 20
137.0924479192
 11
132.4142136623
 21
137.7296174779
  0
LINE
  5
31F
100
AcDbEntity
  8
26814000
100
AcDbLine
 62
7
  6
CONTINUOUS
 10
133.4810445744
 20
137.6310291687
 11
133.4810445744
 21
139.3630799763
  0
LWPOLYLINE
  5
320
100
AcDbEntity
  8
RACCORDO
100
AcDbPolyline
 62
250
  6
CONTINUOUS
 90
55
 70
0
 10
130.7959780364
 20
99.6351734882
 10
130.7987737407
 20
99.6827357452
 10
130.7994117397
 20
99.7312159036
 10
130.7978893848
 20
99.7804509986
 10
130.7942135724
 20
99.8302507129
 10
130.7883960268
 20
99.880471835
 10
130.7804427025
 20
99.9310205287
 10
130.7703589677
 20
99.9817804013
 10
130.7581763776
 20
100.0325261354
 10
130.7439520975
 20
100.0830001221
 10
130.7277376698
 20
100.13302356
 10
130.7095870708
 20
100.1824339529
 10
130.6895886396
 20
100.2310039979
 10
130.6678397959
 20
100.2785265978
 10
130.6444024556
 20
100.3248933797
 10
130.6193184801
 20
100.3700284613
 10
130.5926521488
 20
100.4138077463
 10
130.5645083943
 20
100.4560510366
 10
130.534991088
 20
100.496600635
 10
130.5042007194
 20
100.5353187525
 10
130.4722405037
 20
100.5720758411
 10
130.4392271583
 20
100.6067390733
 10
130.4052945365
 20
100.63917355
 10
130.3705371595
 20
100.6692944102
 10
130.3350143543
 20
100.6970453416
 10
130.2988077836
 20
100.7223461332
 10
130.262072371
 20
100.7450723531
 10
130.2249796739
 20
100.7651117875
 10
130.1876699842
 20
100.7823898724
 10
130.1502559754
 20
100.7968556522
 10
130.112870644
 20
100.80845797
 10
130.0756452685
 20
100.8171575203
 10
130.0387018274
 20
100.8229272376
 10
130.0021586869
 20
100.8257487585
 10
129.9661352808
 20
100.8256115681
 10
129.9307590046
 20
100.8225148399
 10
129.8961573272
 20
100.8164699395
 10
129.8624522009
 20
100.8075000071
 10
129.8297526779
 20
100.7956359443
 10
129.7981624927
 20
100.7809155473
 10
129.7677844177
 20
100.7633849388
 10
129.7387271497
 20
100.743105021
 10
129.711096817
 20
100.7201502945
 10
129.6849914888
 20
100.6946053539
 10
129.6604933583
 20
100.6665538743
 10
129.637677459
 20
100.6360817507
 10
129.6166087709
 20
100.6032687874
 10
129.5973753804
 20
100.5682448033
 10
129.5800704868
 20
100.5311907933
 10
129.564758939
 20
100.4922828355
 10
129.5514646636
 20
100.4516231111
 10
129.5402084783
 20
100.4092928902
 10
129.5310241109
 20
100.3654128772
 10
129.5239482208
 20
100.3201511967
 10
129.5190044157
 20
100.2736602985
  0
LWPOLYLINE
  5
321
100
AcDbEntity
  8
RACCORDO
100
AcDbPolyline
 62
250
  6
CONTINUOUS
 90
39
 70
0
 10
130.9299707138
 20
99.628876933
 10
130.9330478212
 20
99.6812309795
 10
130.9337499708
 20
99.734595328
 10
130.9320742488
 20
99.7887906224
 10
130.9280283292
 20
99.8436073861
 10
130.921625029
 20
99.8988880332
 10
130.91287065
 20
99.954529305
 10
130.9017709677
 20
100.0104030463
 10
130.8883608618
 20
100.0662611998
 10
130.8727034235
 20
100.1218202123
 10
130.854855455
 20
100.1768833014
 10
130.8348762949
 20
100.2312715996
 10
130.8128631286
 20
100.2847348891
 10
130.7889231713
 20
100.3370451933
 10
130.7631245994
 20
100.3880832278
 10
130.7355135044
 20
100.4377654726
 10
130.7061606454
 20
100.485955334
 10
130.6751815216
 20
100.5324544571
 10
130.6426904663
 20
100.5770892547
 10
130.6087980919
 20
100.6197080545
 10
130.5736180135
 20
100.6601682585
 10
130.5372787088
 20
100.6983236597
 10
130.4999275164
 20
100.7340257703
 10
130.4616684792
 20
100.7671811788
 10
130.4225669
 20
100.7977278973
 10
130.3827126685
 20
100.8255776321
 10
130.3422763169
 20
100.8505934166
 10
130.3014466865
 20
100.8726517344
 10
130.2603782032
 20
100.8916705105
 10
130.2191948913
 20
100.9075936548
 10
130.1780431462
 20
100.920364856
 10
130.1370674718
 20
100.9299408483
 10
130.0964021355
 20
100.9362918398
 10
130.0561774284
 20
100.9393976176
 10
130.0165248164
 20
100.9392466078
 10
129.9775845296
 20
100.9358379
 10
129.939496879
 20
100.9291840041
 10
129.9023961035
 20
100.9193103895
 10
129.878373531
 20
100.910994982
  0
LWPOLYLINE
  5
322
100
AcDbEntity
  8
RACCORDO
100
AcDbPolyline
 62
250
  6
CONTINUOUS
 90
4
 70
0
 10
131.1757358125
 20
99.5292970309
 10
131.1673607404
 20
99.4305341121
 10
131.1520220532
 20
99.3352576596
 10
131.1300665051
 20
99.2456391296
  0
LWPOLYLINE
  5
323
100
AcDbEntity
  8
ASSI
100
AcDbPolyline
 62
250
  6
CONTINUOUS
 90
3
 70
0
 10
131.1673607404
 20
99.4305341121
 10
131.1520220532
 20
99.3352576596
 10
131.1300665051
 20
99.2456391296
  0
LWPOLYLINE
  5
324
100
AcDbEntity
  8
ASSI
100
AcDbPolyline
 62
250
  6
CONTINUOUS
 90
4
 70
0
 10
129.4997605011
 20
100.6189570217
 10
129.5200148565
 20
100.7017106997
 10
129.5464597233
 20
100.7792433002
 10
129.5788632709
 20
100.8509539029
  0
LWPOLYLINE
  5
325
100
AcDbEntity
  8
RACCORDO
100
AcDbPolyline
 62
7
  6
CONTINUOUS
 90
13
 70
0
 10
151.7951219018
 20
129.3349089898
 10
151.7724003248
 20
129.322893043
 10
151.7514608648
 20
129.3102751925
 10
151.732303522
 20
129.2970554381
 10
151.714861227
 20
129.2831717412
 10
151.6992010492
 20
129.2686861405
 10
151.685524196
 20
129.2537847522
 10
151.6738562596
 20
129.2384622111
 10
151.6641716477
 20
129.2227238823
 10
151.6565947919
 20
129.2067719775
 10
151.6511528896
 20
129.1906037409
 10
151.6478187434
 20
129.1742219282
 10
151.6466331765
 20
129.1571215221
  0
LINE
  5
326
100
AcDbEntity
  8
21814000
100
AcDbLine
 62
250
  6
CONTINUOUS
 10
162.4033861033
 20
134.5009548676
 11
158.3166699735
 21
132.3849956495
  0
LINE
  5
327
100
AcDbEntity
  8
RACCORDO
100
AcDbLine
 62
7
  6
CONTINUOUS
 10
158.0883605597
 20
131.8431076003
 11
153.492166482
 21
129.5450105614
  0
LINE
  5
328
100
AcDbEntity
  8
RACCORDO
100
AcDbLine
 62
7
  6
CONTINUOUS
 10
150.7928181187
 20
129.6671326481
 11
157.0578211034
 21
132.7746203147
  0
LINE
  5
329
100
AcDbEntity
  8
RACCORDO
100
AcDbLine
 62
7
  6
CONTINUOUS
 10
151.7951219018
 20
129.3349089898
 11
157.4825096146
 21
132.1460330728
  0
LINE
  5
32A
100
AcDbEntity
  8
DRAFT
100
AcDbLine
 62
7
  6
CONTINUOUS
 10
154.7465344571
 20
128.9178265739
 11
158.4419139503
 21
130.6865164931
  0
LWPOLYLINE
  5
32B
100
AcDbEntity
  8
ASSI
100
AcDbPolyline
 62
7
  6
CONTINUOUS
 90
3
 70
0
 10
130.0848757354
 20
101.1573924047
 10
130.1868313542
 20
101.1399875837
 10
130.2910186328
 20
101.104502325
  0
LINE
  5
32C
100
AcDbEntity
  8
RACCORDO
100
AcDbLine
 62
7
  6
CONTINUOUS
 10
130.1543590686
 20
101.1474555677
 11
130.2157926275
 21
101.1318587408
  0
LINE
  5
32D
100
AcDbEntity
  8
ASSI
100
AcDbLine
 62
250
  6
CONTINUOUS
 10
130.1541294836
 20
101.2037808869
 11
130.2338686187
 21
101.1772846382
  0
LINE
  5
32E
100
AcDbEntity
  8
RACCORDO
100
AcDbLine
 62
7
  6
CONTINUOUS
 10
130.2157926275
 20
101.1318587408
 11
130.2779797695
 21
101.1098797182
  0
LINE
  5
32F
100
AcDbEntity
  8
RACCORDO
100
AcDbLine
 62
250
  6
CONTINUOUS
 10
163.2549130029
 20
83.4991747914
 11
163.2325623929
 21
83.5127175786
  0
LINE
  5
330
100
AcDbEntity
  8
26814000
100
AcDbLine
 62
7
  6
CONTINUOUS
 10
134.1840375287
 20
139.4984014741
 11
134.1840375287
 21
139.2374724977
  0
LINE
  5
331
100
AcDbEntity
  8
26814000
100
AcDbLine
 62
7
  6
CONTINUOUS
 10
135.6588015774
 20
137.1050160369
 11
135.6588015774
 21
135.8902826507
  0
LINE
  5
332
100
AcDbEntity
  8
26814000
100
AcDbLine
 62
250
  6
CONTINUOUS
 10
135.7466695431
 20
136.9985070801
 11
135.7466695431
 21
135.783552214
  0
LINE
  5
333
100
AcDbEntity
  8
26814000
100
AcDbLine
 62
7
  6
CONTINUOUS
 10
135.9205629695
 20
134.2970928567
 11
135.9205629695
 21
134.1701826786
  0
LINE
  5
334
100
AcDbEntity
  8
28414000
100
AcDbLine
 62
7
  6
CONTINUOUS
 10
140.827202833
 20
131.8437729249
 11
140.7910574056
 21
131.7349354605
  0
LWPOLYLINE
  5
335
100
AcDbEntity
  8
RACCORDO
100
AcDbPolyline
 62
250
  6
CONTINUOUS
 90
6
 70
0
 10
131.1300665051
 20
99.2456391296
 10
131.1013361744
 20
99.1618093965
 10
131.0659849942
 20
99.0836359116
 10
131.0248237181
 20
99.0128933819
 10
130.9777175274
 20
98.9497566592
 10
130.9247942995
 20
98.8940479433
  0
LINE
  5
336
100
AcDbEntity
  8
ASSI
100
AcDbLine
 62
250
  6
CONTINUOUS
 10
131.1300665051
 20
99.2456391296
 11
131.1013361744
 21
99.1618093965
  0
LINE
  5
337
100
AcDbEntity
  8
26814000
100
AcDbLine
 62
7
  6
CONTINUOUS
 10
147.4604815738
 20
132.3233621275
 11
147.1175189717
 21
131.9059435254
  0
LINE
  5
338
100
AcDbEntity
  8
21814000
100
AcDbLine
 62
250
  6
CONTINUOUS
 10
161.8366619779
 20
132.3473292494
 11
161.4872777255
 21
132.1664302572
  0
LINE
  5
339
100
AcDbEntity
  8
21814000
100
AcDbLine
 62
250
  6
CONTINUOUS
 10
160.9337436361
 20
130.6806563403
 11
161.8366619779
 21
131.1481559972
  0
LINE
  5
33A
100
AcDbEntity
  8
0
100
AcDbLine
 62
7
  6
CONTINUOUS
 10
159.0695167808
 20
130.1614789723
 11
155.6643732206
 21
128.4589071921
  0
LINE
  5
33B
100
AcDbEntity
  8
RACCORDO
100
AcDbLine
 62
7
  6
CONTINUOUS
 10
160.2220216182
 20
131.1925200573
 11
155.1000878477
 21
128.7410498786
  0
LWPOLYLINE
  5
33C
100
AcDbEntity
  8
ASSI
100
AcDbPolyline
 62
250
  6
CONTINUOUS
 90
6
 70
0
 10
130.7100542348
 20
98.8849988707
 10
130.6424532464
 20
98.8750760712
 10
130.5724549787
 20
98.8738732003
 10
130.5006414289
 20
98.881376774
 10
130.4275846874
 20
98.8974933725
 10
130.3538360931
 20
98.9220819426
  0
LINE
  5
33D
100
AcDbEntity
  8
ASSI
100
AcDbLine
 62
7
  6
CONTINUOUS
 10
129.9865095722
 20
101.1562403029
 11
130.0848757354
 21
101.1573924047
  0
LWPOLYLINE
  5
33E
100
AcDbEntity
  8
RACCORDO
100
AcDbPolyline
 62
7
  6
CONTINUOUS
 90
3
 70
0
 10
130.0353659658
 20
101.1591691058
 10
130.0941092768
 20
101.1565590913
 10
130.1543590686
 20
101.1474555677
  0
LWPOLYLINE
  5
33F
100
AcDbEntity
  8
RACCORDO
100
AcDbPolyline
 62
250
  6
CONTINUOUS
 90
4
 70
0
 10
129.9977671778
 20
101.2288491567
 10
130.0756334988
 20
101.2209664564
 10
130.1541294836
 20
101.2037808869
 10
130.2338686187
 20
101.1772846382
  0
LWPOLYLINE
  5
340
100
AcDbEntity
  8
ASSI
100
AcDbPolyline
 62
250
  6
CONTINUOUS
 90
3
 70
0
 10
129.9977671778
 20
101.2288491567
 10
130.0756334988
 20
101.2209664564
 10
130.1541294836
 20
101.2037808869
  0
LWPOLYLINE
  5
341
100
AcDbEntity
  8
21814000
100
AcDbPolyline
 62
7
  6
CONTINUOUS
 90
9
 70
0
 10
142.715891875
 20
135.6166857707
 10
142.714308881
 20
135.6088686931
 10
142.7108865206
 20
135.5985970859
 10
142.705122782
 20
135.5860407368
 10
142.6968040265
 20
135.5717993174
 10
142.6861254123
 20
135.5567400638
 10
142.673310858
 20
135.5413706907
 10
142.6584675742
 20
135.5259201876
 10
142.6520306372
 20
135.5198038442
  0
LWPOLYLINE
  5
342
100
AcDbEntity
  8
RACCORDO
100
AcDbPolyline
 62
7
  6
CONTINUOUS
 90
7
 70
0
 10
131.0919863781
 20
99.2638564852
 10
131.0631229249
 20
99.1912417854
 10
131.0288969495
 20
99.1253256999
 10
130.9896504007
 20
99.0665851733
 10
130.9457137939
 20
99.0153559137
 10
130.8976052561
 20
98.972005308
 10
130.8455949003
 20
98.9366522598
  0
LWPOLYLINE
  5
343
100
AcDbEntity
  8
ASSI
100
AcDbPolyline
 62
7
  6
CONTINUOUS
 90
4
 70
0
 10
131.0930634075
 20
99.2669964064
 10
131.0302269588
 20
99.1275793611
 10
130.9466208386
 20
99.0162895519
 10
130.8449428593
 20
98.9362484828
  0
LINE
  5
344
100
AcDbEntity
  8
ASSI
100
AcDbLine
 62
250
  6
CONTINUOUS
 10
131.1013361744
 20
99.1618093965
 11
131.0659849942
 21
99.0836359116
  0
LINE
  5
345
100
AcDbEntity
  8
0
100
AcDbLine
 62
7
  6
CONTINUOUS
 10
130.3003114645
 20
101.1002183646
 11
130.282824515
 21
101.0643778079
  0
LINE
  5
346
100
AcDbEntity
  8
ASSI
100
AcDbLine
 62
7
  6
CONTINUOUS
 10
130.3003114645
 20
101.1002183646
 11
130.2759303616
 21
101.050247825
  0
LWPOLYLINE
  5
347
100
AcDbEntity
  8
ASSI
100
AcDbPolyline
 62
250
  6
CONTINUOUS
 90
6
 70
0
 10
129.5788632709
 20
100.8509539029
 10
129.6170131234
 20
100.9163079858
 10
129.6605972767
 20
100.974801236
 10
129.7092564341
 20
101.0259823118
 10
129.7626474039
 20
101.0694753844
 10
129.8203460775
 20
101.1049445802
  0
LWPOLYLINE
  5
348
100
AcDbEntity
  8
RACCORDO
100
AcDbPolyline
 62
250
  6
CONTINUOUS
 90
5
 70
0
 10
149.3999240577
 20
130.5003233848
 10
149.3754737222
 20
130.465108129
 10
149.3529514837
 20
130.4285874683
 10
149.3322331656
 20
130.3904897023
 10
149.3134429446
 20
130.3510865314
  0
LINE
  5
349
100
AcDbEntity
  8
RACCORDO
100
AcDbLine
 62
7
  6
CONTINUOUS
 10
149.9936818749
 20
131.133255064
 11
149.9723921891
 21
131.1033195094
  0
LWPOLYLINE
  5
34A
100
AcDbEntity
  8
RACCORDO
100
AcDbPolyline
 62
250
  6
CONTINUOUS
 90
47
 70
0
 10
153.0068795478
 20
135.0720447701
 10
153.0458123221
 20
135.1240867649
 10
153.0950955404
 20
135.1808674423
 10
153.1502292151
 20
135.2364580567
 10
153.2107326934
 20
135.290400579
 10
153.276605045
 20
135.3426534785
 10
153.3478472003
 20
135.3932582859
 10
153.423981298
 20
135.4418815644
 10
153.504997927
 20
135.4885093069
 10
153.5909064984
 20
135.5331555206
 10
153.6812573841
 20
135.5755287897
 10
153.7763076643
 20
135.6156879877
 10
153.8758002588
 20
135.6535742411
 10
153.9785142992
 20
135.6887195143
 10
154.0848551679
 20
135.7210972342
 10
154.1944174825
 20
135.7507339737
 10
154.3047642269
 20
135.7772414159
 10
154.4158687438
 20
135.8004408094
 10
154.5277576906
 20
135.8205109054
 10
154.6380740227
 20
135.8375996412
 10
154.7464645126
 20
135.8515735371
 10
154.8532823878
 20
135.8625660726
 10
154.957230287
 20
135.8711256239
 10
155.0580661214
 20
135.8772281934
 10
155.1560319797
 20
135.8808977786
 10
155.250556766
 20
135.8827547474
 10
155.3414785061
 20
135.8828206163
 10
155.4289591743
 20
135.8810738688
 10
155.5129135976
 20
135.8780703234
 10
155.593217671
 20
135.8738515228
 10
155.6699954996
 20
135.8683759243
 10
155.7435342261
 20
135.8620747186
 10
155.8138007598
 20
135.8549886849
 10
155.8808281913
 20
135.847077044
 10
155.9450029355
 20
135.8386486498
 10
156.0063106823
 20
135.8297380092
 10
156.0647657417
 20
135.8203106154
 10
156.1207974582
 20
135.8105718016
 10
156.1744020418
 20
135.8005502799
 10
156.2255832824
 20
135.7902173382
 10
156.2747818947
 20
135.7796921734
 10
156.3220010396
 20
135.7689976343
 10
156.3672375562
 20
135.7581108721
 10
156.4109226761
 20
135.7470825385
 10
156.4532001432
 20
135.7359295172
 10
156.4939262136
 20
135.7246349244
 10
156.5331008873
 20
135.7131987601
  0
LWPOLYLINE
  5
34B
100
AcDbEntity
  8
RACCORDO
100
AcDbPolyline
 62
250
  6
CONTINUOUS
 90
10
 70
0
 10
152.9252256783
 20
135.1057024121
 10
152.9275203664
 20
135.1087624229
 10
152.9803830175
 20
135.1694795209
 10
153.039461888
 20
135.2287387381
 10
153.1045546674
 20
135.2863466713
 10
153.1754304992
 20
135.3421201389
 10
153.251923637
 20
135.3959480745
 10
153.3339150408
 20
135.4477492581
 10
153.4211636377
 20
135.4973668975
 10
153.4415330171
 20
135.5082358788
  0
LINE
  5
34C
100
AcDbEntity
  8
RACCORDO
100
AcDbLine
 62
250
  6
CONTINUOUS
 10
149.4263024902
 20
130.5342332358
 11
149.3999240577
 21
130.5003233848
  0
LWPOLYLINE
  5
34D
100
AcDbEntity
  8
RACCORDO
100
AcDbPolyline
 62
7
  6
CONTINUOUS
 90
13
 70
0
 10
149.442044833
 20
130.4631335902
 10
149.4246974605
 20
130.4409110382
 10
149.4079653851
 20
130.4167857793
 10
149.3921466562
 20
130.3910518807
 10
149.3774718586
 20
130.3639650867
 10
149.3642319541
 20
130.3359780505
 10
149.3527270485
 20
130.3077544408
 10
149.3430699081
 20
130.279725143
 10
149.3353190523
 20
130.2523081377
 10
149.3295318092
 20
130.226171076
 10
149.3256254476
 20
130.201779756
 10
149.3234300259
 20
130.1793761026
 10
149.3227490996
 20
130.1592332358
  0
LINE
  5
34E
100
AcDbEntity
  8
RACCORDO
100
AcDbLine
 62
250
  6
CONTINUOUS
 10
149.4263024902
 20
130.5342332358
 11
149.9566325761
 21
131.1743982787
  0
LINE
  5
34F
100
AcDbEntity
  8
RACCORDO
100
AcDbLine
 62
7
  6
CONTINUOUS
 10
149.442044833
 20
130.4631335902
 11
149.9723749189
 21
131.1032986332
  0
LINE
  5
350
100
AcDbEntity
  8
RACCORDO
100
AcDbLine
 62
7
  6
CONTINUOUS
 10
158.0217108071
 20
126.2216145372
 11
163.6439589731
 21
129.0653083936
  0
LINE
  5
351
100
AcDbEntity
  8
RACCORDO
100
AcDbLine
 62
7
  6
CONTINUOUS
 10
163.038108028
 20
129.3682338661
 11
158.4419139503
 21
127.0701368273
  0
LINE
  5
352
100
AcDbEntity
  8
RACCORDO
100
AcDbLine
 62
7
  6
CONTINUOUS
 10
163.9954760199
 20
127.9097354583
 11
158.0217108071
 21
125.0166937045
  0
LINE
  5
353
100
AcDbEntity
  8
RACCORDO
100
AcDbLine
 62
7
  6
CONTINUOUS
 10
163.9940518331
 20
128.8459551889
 11
164.4646623053
 21
129.0711997137
  0
LWPOLYLINE
  5
354
100
AcDbEntity
  8
RACCORDO
100
AcDbPolyline
 62
7
  6
CONTINUOUS
 90
12
 70
0
 10
163.038108028
 20
129.3682338661
 10
163.0613941613
 20
129.3789169373
 10
163.0843857762
 20
129.3876393389
 10
163.1070828729
 20
129.3944010709
 10
163.1295798513
 20
129.3992142616
 10
163.1517823114
 20
129.4020667827
 10
163.1734070531
 20
129.4029222493
 10
163.1944466759
 20
129.4017550796
 10
163.2149085803
 20
129.3985908553
 10
163.2345317676
 20
129.3934699374
 10
163.253305494
 20
129.3863672609
 10
163.2617048609
 20
129.3824203559
  0
LWPOLYLINE
  5
355
100
AcDbEntity
  8
RACCORDO
100
AcDbPolyline
 62
7
  6
CONTINUOUS
 90
12
 70
0
 10
164.4646623053
 20
129.0711997137
 10
164.5106770768
 20
129.0913469458
 10
164.5560716292
 20
129.1076483314
 10
164.6008459625
 20
129.1201038706
 10
164.6451818688
 20
129.1287334567
 10
164.6888975561
 20
129.1335171963
 10
164.7314476481
 20
129.1343954099
 10
164.7728175427
 20
129.1313191705
 10
164.8130218421
 20
129.124337405
 10
164.8515589765
 20
129.1135372147
 10
164.8884080602
 20
129.0988707637
 10
164.8994998713
 20
129.0935447593
  0
LINE
  5
356
100
AcDbEntity
  8
ASSI
100
AcDbLine
 62
250
  6
CONTINUOUS
 10
130.7609561367
 20
98.898800568
 11
130.7100542348
 21
98.8849988707
  0
LINE
  5
357
100
AcDbEntity
  8
RACCORDO
100
AcDbLine
 62
7
  6
CONTINUOUS
 10
129.9785599526
 20
101.1552947178
 11
130.0353659658
 21
101.1591691058
  0
LINE
  5
358
100
AcDbEntity
  8
DRAFT
100
AcDbLine
 62
7
  6
CONTINUOUS
 10
168.0498909091
 20
90.6258806106
 11
168.7836683641
 21
90.2589918831
  0
LINE
  5
359
100
AcDbEntity
  8
DRAFT
100
AcDbLine
 62
7
  6
CONTINUOUS
 10
163.8512808264
 20
93.4290316233
 11
165.1606534439
 21
92.7743453146
  0
LINE
  5
35A
100
AcDbEntity
  8
26814000
100
AcDbLine
 62
7
  6
CONTINUOUS
 10
140.8703104378
 20
131.8222191225
 11
140.8703104378
 21
131.6953089445
  0
LINE
  5
35B
100
AcDbEntity
  8
21814000
100
AcDbLine
 62
7
  6
CONTINUOUS
 10
142.7162344611
 20
135.6215561234
 11
142.715891875
 21
135.6166857707
  0
LWPOLYLINE
  5
35C
100
AcDbEntity
  8
RACCORDO
100
AcDbPolyline
 62
250
  6
CONTINUOUS
 90
18
 70
0
 10
146.609644012
 20
129.9884945835
 10
146.6131316316
 20
129.9987120027
 10
146.6171011015
 20
130.0091234176
 10
146.6216224901
 20
130.0195616827
 10
146.6267785476
 20
130.0299697387
 10
146.6326259428
 20
130.0402948708
 10
146.6391856428
 20
130.0504689822
 10
146.6464693348
 20
130.0604425824
 10
146.6544826111
 20
130.0701839151
 10
146.6631799423
 20
130.0796121096
 10
146.6724934057
 20
130.0886454899
 10
146.6823790395
 20
130.0972625513
 10
146.6927664122
 20
130.1054462137
 10
146.7035976757
 20
130.1131902508
 10
146.7148369047
 20
130.1205094029
 10
146.7263926246
 20
130.1273894016
 10
146.7381475423
 20
130.1338031125
 10
146.750016596
 20
130.1397463529
  0
LWPOLYLINE
  5
35D
100
AcDbEntity
  8
RACCORDO
100
AcDbPolyline
 62
250
  6
CONTINUOUS
 90
5
 70
0
 10
146.5920134914
 20
129.9304069518
 10
146.5943084433
 20
129.9370100177
 10
146.5965714315
 20
129.9441719528
 10
146.5988592689
 20
129.9519058438
 10
146.60379746
 20
129.969257949
  0
LWPOLYLINE
  5
35E
100
AcDbEntity
  8
RACCORDO
100
AcDbPolyline
 62
250
  6
CONTINUOUS
 90
12
 70
0
 10
147.8353122325
 20
130.1137381069
 10
147.8223672981
 20
130.0844580846
 10
147.8066211771
 20
130.0571037945
 10
147.7883229073
 20
130.0321535525
 10
147.767751996
 20
130.0100345679
 10
147.7452596906
 20
129.9911657444
 10
147.7212763191
 20
129.9759242758
 10
147.6962328499
 20
129.964579001
 10
147.6705422518
 20
129.9573121798
 10
147.6446465974
 20
129.9542485661
 10
147.6189907694
 20
129.9554401809
 10
147.6090516028
 20
129.957074725
  0
LWPOLYLINE
  5
35F
100
AcDbEntity
  8
RACCORDO
100
AcDbPolyline
 62
250
  6
CONTINUOUS
 90
12
 70
0
 10
148.3656423184
 20
130.0039031499
 10
148.3525929748
 20
129.9744171662
 10
148.3367422108
 20
129.946948045
 10
148.3183612375
 20
129.9219657905
 10
148.2977645582
 20
129.8998978561
 10
148.275304588
 20
129.8811218303
 10
148.2513656231
 20
129.865958976
 10
148.2263572659
 20
129.854668734
 10
148.2007074163
 20
129.8474442833
 10
148.1748549503
 20
129.8444092363
 10
148.1492422108
 20
129.8456155235
 10
148.1381648705
 20
129.8474866085
  0
LWPOLYLINE
  5
360
100
AcDbEntity
  8
ASSI
100
AcDbPolyline
 62
250
  6
CONTINUOUS
 90
4
 70
0
 10
131.0659849942
 20
99.0836359116
 10
131.0248237181
 20
99.0128933819
 10
130.9777175274
 20
98.9497566592
 10
130.9247942995
 20
98.8940479433
  0
LINE
  5
361
100
AcDbEntity
  8
21814000
100
AcDbLine
 62
7
  6
CONTINUOUS
 10
163.6616631349
 20
129.1824606051
 11
163.7267033769
 21
129.2245280845
  0
LWPOLYLINE
  5
362
100
AcDbEntity
  8
RACCORDO
100
AcDbPolyline
 62
250
  6
CONTINUOUS
 90
13
 70
0
 10
159.6793508174
 20
124.7595391375
 10
159.6562768285
 20
124.7461499012
 10
159.6335976419
 20
124.7292852748
 10
159.6117013049
 20
124.7092338166
 10
159.5909624697
 20
124.6863386127
 10
159.5717359838
 20
124.6609914065
 10
159.5543508174
 20
124.6336258955
 10
159.5391044357
 20
124.6047103113
 10
159.5262577085
 20
124.5747394076
 10
159.5160304468
 20
124.5442259948
 10
159.5085976419
 20
124.5136921658
 10
159.5040864712
 20
124.4836603631
 10
159.5025741221
 20
124.4546444389
  0
LWPOLYLINE
  5
363
100
AcDbEntity
  8
RACCORDO
100
AcDbPolyline
 62
7
  6
CONTINUOUS
 90
10
 70
0
 10
159.5677319206
 20
124.7667315819
 10
159.5563391883
 20
124.7606749089
 10
159.5292535474
 20
124.7429597971
 10
159.5046226143
 20
124.7218344879
 10
159.4828711145
 20
124.6976152122
 10
159.4643632387
 20
124.6706272261
 10
159.4494590607
 20
124.6412660813
 10
159.4384987853
 20
124.610042413
 10
159.4317408575
 20
124.5775191285
 10
159.4293509757
 20
124.5431734791
  0
LINE
  5
364
100
AcDbEntity
  8
RACCORDO
100
AcDbLine
 62
7
  6
CONTINUOUS
 10
159.5675474185
 20
124.7666395843
 11
161.6888677621
 21
125.8272997561
  0
LINE
  5
365
100
AcDbEntity
  8
RACCORDO
100
AcDbLine
 62
250
  6
CONTINUOUS
 10
159.6793508174
 20
124.7595391375
 11
161.800671161
 21
125.8201993093
  0
LINE
  5
366
100
AcDbEntity
  8
RACCORDO
100
AcDbLine
 62
250
  6
CONTINUOUS
 10
161.0228537016
 20
124.0877876954
 11
163.1441740452
 21
125.1484478672
  0
LINE
  5
367
100
AcDbEntity
  8
RACCORDO
100
AcDbLine
 62
250
  6
CONTINUOUS
 10
160.1311782529
 20
123.5025481447
 11
160.0657914041
 21
123.4712525605
  0
LINE
  5
368
100
AcDbEntity
  8
RACCORDO
100
AcDbLine
 62
7
  6
CONTINUOUS
 10
161.6982690673
 20
125.8317581892
 11
161.6887061319
 21
125.8272187461
  0
LWPOLYLINE
  5
369
100
AcDbEntity
  8
RACCORDO
100
AcDbPolyline
 62
250
  6
CONTINUOUS
 90
7
 70
0
 10
161.6888931221
 20
125.8273124313
 10
161.6937451986
 20
125.8295660838
 10
161.7131922466
 20
125.835571086
 10
161.7340101923
 20
125.8375464411
 10
161.7557625404
 20
125.8355507636
 10
161.7781103947
 20
125.8297092671
 10
161.800671161
 20
125.8201993093
  0
LWPOLYLINE
  5
36A
100
AcDbEntity
  8
RACCORDO
100
AcDbPolyline
 62
250
  6
CONTINUOUS
 90
7
 70
0
 10
159.5677319206
 20
124.7667315819
 10
159.572424855
 20
124.7689059121
 10
159.5918719031
 20
124.7749109142
 10
159.6126898488
 20
124.7768862693
 10
159.6344421968
 20
124.7748905918
 10
159.6567900512
 20
124.7690490953
 10
159.6793508174
 20
124.7595391375
  0
LINE
  5
36B
100
AcDbEntity
  8
RACCORDO
100
AcDbLine
 62
7
  6
CONTINUOUS
 10
162.9295094212
 20
125.3187823254
 11
167.6288628202
 21
127.4890994563
  0
LWPOLYLINE
  5
36C
100
AcDbEntity
  8
RACCORDO
100
AcDbPolyline
 62
250
  6
CONTINUOUS
 90
13
 70
0
 10
161.1996303969
 20
123.4315790247
 10
161.1750440589
 20
123.4207982048
 10
161.1478537016
 20
123.4117141969
 10
161.1185245597
 20
123.4044824308
 10
161.0875584629
 20
123.3992266441
 10
161.0554852497
 20
123.3960367647
 10
161.0228537016
 20
123.3949673724
 10
160.9902221536
 20
123.3960367647
 10
160.9581489404
 20
123.3992266441
 10
160.9271828436
 20
123.4044824308
 10
160.8978537016
 20
123.4117141969
 10
160.8706633444
 20
123.4207982048
 10
160.8460770064
 20
123.4315790247
  0
LWPOLYLINE
  5
36D
100
AcDbEntity
  8
RACCORDO
100
AcDbPolyline
 62
250
  6
CONTINUOUS
 90
13
 70
0
 10
161.1996303969
 20
123.7828929968
 10
161.1749394604
 20
123.7720720682
 10
161.1476150177
 20
123.7629593545
 10
161.1181261222
 20
123.7557140849
 10
161.086976398
 20
123.7504630099
 10
161.0547062274
 20
123.7473000791
 10
161.0218844961
 20
123.7462822838
 10
160.9890073706
 20
123.7474322166
 10
160.9567180348
 20
123.7507345967
 10
160.9257883277
 20
123.7560876888
 10
160.8967850846
 20
123.7633384153
 10
160.8700833188
 20
123.7723353868
 10
160.8460770064
 20
123.7828929968
  0
LWPOLYLINE
  5
36E
100
AcDbEntity
  8
RACCORDO
100
AcDbPolyline
 62
250
  6
CONTINUOUS
 90
4
 70
0
 10
162.7527971726
 20
123.1311355409
 10
162.7345653599
 20
123.1238587085
 10
162.7166799131
 20
123.1196220317
 10
162.699440104
 20
123.1184964017
  0
LINE
  5
36F
100
AcDbEntity
  8
DRAFT
100
AcDbLine
 62
7
  6
CONTINUOUS
 10
161.6929326985
 20
121.6820243939
 11
162.1605747929
 21
121.8387052977
  0
LWPOLYLINE
  5
370
100
AcDbEntity
  8
RACCORDO
100
AcDbPolyline
 62
250
  6
CONTINUOUS
 90
13
 70
0
 10
163.0318097634
 20
122.3477768215
 10
163.06162211
 20
122.3563546907
 10
163.072534785
 20
122.3594681083
 10
163.0840059639
 20
122.3628273193
 10
163.0960586019
 20
122.3664243559
 10
163.1086697438
 20
122.3702671858
 10
163.1218443048
 20
122.374494537
 10
163.135567409
 20
122.3790866104
 10
163.1498539321
 20
122.3840632051
 10
163.164753417
 20
122.3896224457
 10
163.1802823777
 20
122.395830374
 10
163.1964243002
 20
122.4026209483
 10
163.2131791843
 20
122.4099941686
  0
LINE
  5
371
100
AcDbEntity
  8
ASSI
100
AcDbLine
 62
7
  6
CONTINUOUS
 10
129.8931861679
 20
101.136002503
 11
129.9865095722
 21
101.1562403029
  0
LINE
  5
372
100
AcDbEntity
  8
21814000
100
AcDbLine
 62
7
  6
CONTINUOUS
 10
142.7162393897
 20
135.6216132507
 11
142.7162394252
 21
135.6215142744
  0
LINE
  5
373
100
AcDbEntity
  8
21814000
100
AcDbLine
 62
250
  6
CONTINUOUS
 10
141.4570946456
 20
136.0309165466
 11
141.4570946456
 21
135.5575080912
  0
LINE
  5
374
100
AcDbEntity
  8
26814000
100
AcDbLine
 62
250
  6
CONTINUOUS
 10
141.5391786111
 20
132.88729768
 11
141.5391786111
 21
134.1022525461
  0
LINE
  5
375
100
AcDbEntity
  8
21814000
100
AcDbLine
 62
250
  6
CONTINUOUS
 10
141.8699658618
 20
136.1431769719
 11
141.8699658618
 21
135.3510724831
  0
LINE
  5
376
100
AcDbEntity
  8
26814000
100
AcDbLine
 62
7
  6
CONTINUOUS
 10
141.8956152706
 20
137.1402715145
 11
141.8956152706
 21
138.3905423737
  0
LINE
  5
377
100
AcDbEntity
  8
26814000
100
AcDbLine
 62
250
  6
CONTINUOUS
 10
141.9622049627
 20
132.8889365275
 11
141.9622049627
 21
134.1031400004
  0
LINE
  5
378
100
AcDbEntity
  8
26814000
100
AcDbLine
 62
7
  6
CONTINUOUS
 10
142.2491686611
 20
137.6612074891
 11
142.2491686611
 21
138.2137656785
  0
LINE
  5
379
100
AcDbEntity
  8
26814000
100
AcDbLine
 62
250
  6
CONTINUOUS
 10
142.3198793393
 20
139.829973976
 11
142.3198793393
 21
138.5981397946
  0
LINE
  5
37A
100
AcDbEntity
  8
26814000
100
AcDbLine
 62
7
  6
CONTINUOUS
 10
142.4077473049
 20
139.93497119
 11
142.4077473049
 21
138.7026025851
  0
LINE
  5
37B
100
AcDbEntity
  8
26814000
100
AcDbLine
 62
7
  6
CONTINUOUS
 10
142.4613006955
 20
134.3533366735
 11
142.4613006955
 21
133.1409011082
  0
LINE
  5
37C
100
AcDbEntity
  8
21814000
100
AcDbLine
 62
250
  6
CONTINUOUS
 10
142.6283714605
 20
135.7639741726
 11
142.6283714605
 21
135.4978979873
  0
LINE
  5
37D
100
AcDbEntity
  8
26814000
100
AcDbLine
 62
7
  6
CONTINUOUS
 10
143.4615347564
 20
132.1238501497
 11
143.4615347564
 21
132.3772215434
  0
LWPOLYLINE
  5
37E
100
AcDbEntity
  8
RACCORDO
100
AcDbPolyline
 62
250
  6
CONTINUOUS
 90
3
 70
0
 10
146.60379746
 20
129.969257949
 10
146.6065660721
 20
129.9786776382
 10
146.609644012
 20
129.9884945835
  0
LWPOLYLINE
  5
37F
100
AcDbEntity
  8
RACCORDO
100
AcDbPolyline
 62
250
  6
CONTINUOUS
 90
3
 70
0
 10
149.3134429446
 20
130.3510865314
 10
149.2969533503
 20
130.3111930572
 10
149.2827977521
 20
130.2707965785
  0
LWPOLYLINE
  5
380
100
AcDbEntity
  8
RACCORDO
100
AcDbPolyline
 62
250
  6
CONTINUOUS
 90
13
 70
0
 10
161.0228537016
 20
124.0877876954
 10
160.9997797127
 20
124.0743984591
 10
160.9771005262
 20
124.0575338326
 10
160.9552041891
 20
124.0374823745
 10
160.934465354
 20
124.0145871706
 10
160.915238868
 20
123.9892399643
 10
160.8978537016
 20
123.9618744534
 10
160.8826073199
 20
123.9329588692
 10
160.8697605927
 20
123.9029879655
 10
160.859533331
 20
123.8724745526
 10
160.8521005262
 20
123.8419407237
 10
160.8475893555
 20
123.8119089209
 10
160.8460770064
 20
123.7828929968
  0
LWPOLYLINE
  5
381
100
AcDbEntity
  8
RACCORDO
100
AcDbPolyline
 62
250
  6
CONTINUOUS
 90
7
 70
0
 10
162.6138439593
 20
123.3886858059
 10
162.6354055991
 20
123.4009789749
 10
162.653573615
 20
123.4145741535
 10
162.6680371471
 20
123.4292387245
 10
162.6785487206
 20
123.4447217729
 10
162.6849284794
 20
123.4607583795
 10
162.687067264
 20
123.4770741535
  0
LWPOLYLINE
  5
382
100
AcDbEntity
  8
RACCORDO
100
AcDbPolyline
 62
250
  6
CONTINUOUS
 90
13
 70
0
 10
160.0657914041
 20
123.1598569473
 10
160.0844732489
 20
123.1703135767
 10
160.1028714827
 20
123.1836381369
 10
160.1206642825
 20
123.1995975536
 10
160.1375404155
 20
123.217912664
 10
160.1532046833
 20
123.2382630989
 10
160.1673830858
 20
123.2602928873
 10
160.1798276134
 20
123.2836166829
 10
160.1903205858
 20
123.3078265044
 10
160.1986784592
 20
123.3324988723
 10
160.2047550372
 20
123.3572022159
 10
160.2084440279
 20
123.3815044229
 10
160.2096809033
 20
123.4049803977
  0
LWPOLYLINE
  5
383
100
AcDbEntity
  8
RACCORDO
100
AcDbPolyline
 62
250
  6
CONTINUOUS
 90
13
 70
0
 10
161.4092942883
 20
122.4881055051
 10
161.4279763809
 20
122.4985622943
 10
161.4463748027
 20
122.5118870489
 10
161.464167724
 20
122.5278466649
 10
161.4810439093
 20
122.5461619494
 10
161.4967081665
 20
122.5665125111
 10
161.5108865086
 20
122.5885423671
 10
161.5233309371
 20
122.6118661563
 10
161.5338237888
 20
122.6360758943
 10
161.5421815429
 20
122.6607481185
 10
161.5482580191
 20
122.6854512704
 10
161.5519469385
 20
122.7097532429
 10
161.5531837875
 20
122.7332289555
  0
LWPOLYLINE
  5
384
100
AcDbEntity
  8
RACCORDO
100
AcDbPolyline
 62
250
  6
CONTINUOUS
 90
16
 70
0
 10
160.0657914041
 20
123.4712525605
 10
160.0334798428
 20
123.4538105085
 10
160.0056608241
 20
123.4353046003
 10
159.982334348
 20
123.415734836
 10
159.9633946094
 20
123.3948655658
 10
159.9489474134
 20
123.3729324396
 10
159.9393101745
 20
123.350642406
 10
159.9346003321
 20
123.3280130114
 10
159.9347004468
 20
123.3050267095
 10
159.9395756156
 20
123.2823378111
 10
159.9493342614
 20
123.2599385516
 10
159.9638679613
 20
123.2378366955
 10
159.9828165428
 20
123.2167098467
 10
160.0060599483
 20
123.196783873
 10
160.0337182354
 20
123.1778329065
 10
160.0657914041
 20
123.1598569473
  0
LINE
  5
385
100
AcDbEntity
  8
RACCORDO
100
AcDbLine
 62
7
  6
CONTINUOUS
 10
162.8620322252
 20
123.8481732104
 11
168.7402001319
 21
127.0195796512
  0
LINE
  5
386
100
AcDbEntity
  8
DRAFT
100
AcDbLine
 62
7
  6
CONTINUOUS
 10
163.0975371416
 20
123.5147731367
 11
168.7836683641
 21
126.4588537613
  0
LWPOLYLINE
  5
387
100
AcDbEntity
  8
RACCORDO
100
AcDbPolyline
 62
250
  6
CONTINUOUS
 90
8
 70
0
 10
162.6138439593
 20
123.0648633781
 10
162.6315711012
 20
123.0739883492
 10
162.6470602742
 20
123.0839830598
 10
162.6601622335
 20
123.0947193873
 10
162.6707537213
 20
123.1060526819
 10
162.6787498299
 20
123.1178553588
 10
162.6840950682
 20
123.1300200268
 10
162.6867500202
 20
123.1423964082
  0
LINE
  5
388
100
AcDbEntity
  8
RACCORDO
100
AcDbLine
 62
250
  6
CONTINUOUS
 10
161.1996303969
 20
123.7828929968
 11
163.3209507405
 21
124.8435531686
  0
LWPOLYLINE
  5
389
100
AcDbEntity
  8
RACCORDO
100
AcDbPolyline
 62
250
  6
CONTINUOUS
 90
24
 70
0
 10
162.7080544896
 20
122.85118771
 10
162.7177519511
 20
122.8558759408
 10
162.7273583993
 20
122.8608480825
 10
162.7368691766
 20
122.8660898042
 10
162.7462616121
 20
122.8715703001
 10
162.755484391
 20
122.8772736052
 10
162.7644686313
 20
122.8831998817
 10
162.7731522665
 20
122.8893301455
 10
162.7815187748
 20
122.895647219
 10
162.7895616169
 20
122.9021517879
 10
162.7972285049
 20
122.9088466265
 10
162.8044940742
 20
122.9157029873
 10
162.8113826805
 20
122.922673521
 10
162.8178198137
 20
122.9297686798
 10
162.8237806344
 20
122.9369560928
 10
162.8293563158
 20
122.9441323721
 10
162.8344894553
 20
122.9512877215
 10
162.8391443683
 20
122.9584362186
 10
162.8434591716
 20
122.9655255434
 10
162.8474362404
 20
122.9725904861
 10
162.8510735254
 20
122.9796307803
 10
162.8544947506
 20
122.986549013
 10
162.8576846815
 20
122.9933470166
 10
162.8635266352
 20
123.0066403761
  0
LWPOLYLINE
  5
38A
100
AcDbEntity
  8
RACCORDO
100
AcDbPolyline
 62
250
  6
CONTINUOUS
 90
10
 70
0
 10
161.9286788352
 20
121.8167733128
 10
161.9456763718
 20
121.8249451897
 10
161.962649466
 20
121.8335566908
 10
161.9795981179
 20
121.8426078161
 10
161.9966611493
 20
121.8522365954
 10
162.0136997383
 20
121.862304999
 10
162.0302974196
 20
121.8723989376
 10
162.0464702381
 20
121.88255685
 10
162.0622021487
 20
121.8927402973
 10
162.0907600867
 20
121.9114479542
  0
LINE
  5
38B
100
AcDbEntity
  8
RACCORDO
100
AcDbLine
 62
250
  6
CONTINUOUS
 10
161.9067371781
 20
122.7264265172
 11
162.6138439593
 21
123.0648633781
  0
LINE
  5
38C
100
AcDbEntity
  8
RACCORDO
100
AcDbLine
 62
250
  6
CONTINUOUS
 10
161.9974429188
 20
122.5160320586
 11
162.7080542837
 21
122.8511868124
  0
LINE
  5
38D
100
AcDbEntity
  8
RACCORDO
100
AcDbLine
 62
250
  6
CONTINUOUS
 10
162.8720208645
 20
123.0258603721
 11
163.4975658757
 21
123.3147587696
  0
LINE
  5
38E
100
AcDbEntity
  8
RACCORDO
100
AcDbLine
 62
250
  6
CONTINUOUS
 10
163.2131791843
 20
122.4099941686
 11
163.8512808264
 21
122.7046907225
  0
LINE
  5
38F
100
AcDbEntity
  8
RACCORDO
100
AcDbLine
 62
250
  6
CONTINUOUS
 10
161.6929326985
 20
121.7078940318
 11
161.9286788352
 21
121.8167733128
  0
LINE
  5
390
100
AcDbEntity
  8
RACCORDO
100
AcDbLine
 62
250
  6
CONTINUOUS
 10
161.3392177478
 20
122.317962079
 11
161.5875825162
 21
122.4326276838
  0
LWPOLYLINE
  5
391
100
AcDbEntity
  8
RACCORDO
100
AcDbPolyline
 62
250
  6
CONTINUOUS
 90
4
 70
0
 10
162.2180545567
 20
121.9870201348
 10
162.2979527143
 20
122.0233110732
 10
162.3778589112
 20
122.05961122
 10
162.9372778177
 20
122.313901644
  0
LWPOLYLINE
  5
392
100
AcDbEntity
  8
RACCORDO
100
AcDbPolyline
 62
250
  6
CONTINUOUS
 90
14
 70
0
 10
162.9372778177
 20
122.313901644
 10
162.9432048923
 20
122.3165649743
 10
162.9493130996
 20
122.3192085021
 10
162.9556024394
 20
122.3218322275
 10
162.9620500325
 20
122.3244316138
 10
162.9686787583
 20
122.3270111976
 10
162.9755572544
 20
122.3295845886
 10
162.9826886156
 20
122.3321498866
 10
162.9900697472
 20
122.3347089918
 10
162.9977600026
 20
122.337281214
 10
163.0057538951
 20
122.3398602632
 10
163.0140569113
 20
122.3424524295
 10
163.0227448645
 20
122.3450958926
 10
163.0318097634
 20
122.3477768215
  0
LWPOLYLINE
  5
393
100
AcDbEntity
  8
RACCORDO
100
AcDbPolyline
 62
250
  6
CONTINUOUS
 90
13
 70
0
 10
161.9067371781
 20
123.0351324153
 10
161.8821508401
 20
123.0243515954
 10
161.8549604828
 20
123.0152675875
 10
161.8256313409
 20
123.0080358214
 10
161.7946652441
 20
123.0027800347
 10
161.7625920309
 20
122.9995901553
 10
161.7299604828
 20
122.998520763
 10
161.6973289348
 20
122.9995901553
 10
161.6652557216
 20
123.0027800347
 10
161.6342896247
 20
123.0080358214
 10
161.6049604828
 20
123.0152675875
 10
161.5777701256
 20
123.0243515954
 10
161.5531837875
 20
123.0351324153
  0
LINE
  5
394
100
AcDbEntity
  8
RACCORDO
100
AcDbLine
 62
250
  6
CONTINUOUS
 10
157.0341106839
 20
120.0581532274
 11
161.0857941768
 21
121.587567075
  0
LINE
  5
395
100
AcDbEntity
  8
ASSI
100
AcDbLine
 62
250
  6
CONTINUOUS
 10
157.0341106839
 20
120.0581532274
 11
161.0857941768
 21
121.587567075
  0
LINE
  5
396
100
AcDbEntity
  8
RACCORDO
100
AcDbLine
 62
250
  6
CONTINUOUS
 10
157.5405887299
 20
119.0568729431
 11
161.5922722228
 21
120.5862867907
  0
LINE
  5
397
100
AcDbEntity
  8
ASSI
100
AcDbLine
 62
250
  6
CONTINUOUS
 10
157.5405887299
 20
119.0568729431
 11
161.5922722228
 21
120.5862867907
  0
LWPOLYLINE
  5
398
100
AcDbEntity
  8
RACCORDO
100
AcDbPolyline
 62
250
  6
CONTINUOUS
 90
13
 70
0
 10
161.1996303969
 20
82.1319748853
 10
161.1865810534
 20
82.1514362237
 10
161.1707302894
 20
82.1720769223
 10
161.152349316
 20
82.1935438131
 10
161.1317526367
 20
82.2154695916
 10
161.1092926665
 20
82.2374791017
 10
161.0853537016
 20
82.2591957545
 10
161.0603453444
 20
82.280247972
 10
161.0346954948
 20
82.3002755451
 10
161.0088430289
 20
82.3189357964
 10
160.9832302894
 20
82.3359094438
 10
160.9582955175
 20
82.3509060635
 10
160.934465354
 20
82.3636690592
  0
LWPOLYLINE
  5
399
100
AcDbEntity
  8
RACCORDO
100
AcDbPolyline
 62
250
  6
CONTINUOUS
 90
13
 70
0
 10
161.7299604828
 20
82.7721399283
 10
161.7169111392
 20
82.7916012667
 10
161.7010603753
 20
82.8122419653
 10
161.6826794019
 20
82.8337088561
 10
161.6620827226
 20
82.8556346346
 10
161.6396227524
 20
82.8776441446
 10
161.6156837875
 20
82.8993607974
 10
161.5906754303
 20
82.920413015
 10
161.5650255807
 20
82.9404405881
 10
161.5391731148
 20
82.9591008394
 10
161.5135603753
 20
82.9760744868
 10
161.4886256034
 20
82.9910711064
 10
161.4647954399
 20
83.0038341021
  0
LWPOLYLINE
  5
39A
100
AcDbEntity
  8
26814000
100
AcDbPolyline
 62
7
  6
CONTINUOUS
 90
24
 70
0
 10
145.0068851078
 20
138.7046482224
 10
145.0063119233
 20
138.7391206286
 10
145.0046128104
 20
138.7728705496
 10
145.0017877688
 20
138.8058979854
 10
144.9978273342
 20
138.8382595428
 10
144.9927409711
 20
138.869898615
 10
144.9865570728
 20
138.9006453815
 10
144.9792744573
 20
138.9304809089
 10
144.9708943066
 20
138.9594241307
 10
144.9614485594
 20
138.9873620266
 10
144.9509247009
 20
139.0143081894
 10
144.9393352459
 20
139.0402490264
 10
144.9267496771
 20
139.0650307393
 10
144.9131744912
 20
139.0886280407
 10
144.8986031917
 20
139.111066218
 10
144.8830857717
 20
139.1322673352
 10
144.8666024843
 20
139.1522444251
 10
144.8491730764
 20
139.170984455
 10
144.8309067818
 20
139.1883703906
 10
144.8118181259
 20
139.2043793169
 10
144.7918925832
 20
139.219034149
 10
144.7711958107
 20
139.2322865973
 10
144.7497032961
 20
139.2441424586
 10
141.5205020299
 20
140.8587669689
  0
LINE
  5
39B
100
AcDbEntity
  8
26814000
100
AcDbLine
 62
7
  6
CONTINUOUS
 10
144.1645277107
 20
131.217290895
 11
144.1645277107
 21
131.6696218706
  0
LINE
  5
39C
100
AcDbEntity
  8
26814000
100
AcDbLine
 62
7
  6
CONTINUOUS
 10
145.0068851078
 20
138.7046482224
 11
145.0068851078
 21
138.4338479298
  0
LINE
  5
39D
100
AcDbEntity
  8
26814000
100
AcDbLine
 62
7
  6
CONTINUOUS
 10
145.0673112186
 20
131.5743333123
 11
145.0673112186
 21
131.3209619186
  0
LINE
  5
39E
100
AcDbEntity
  8
26814000
100
AcDbLine
 62
7
  6
CONTINUOUS
 10
145.4665045155
 20
129.548517589
 11
145.4665045155
 21
129.5241220837
  0
LINE
  5
39F
100
AcDbEntity
  8
26814000
100
AcDbLine
 62
7
  6
CONTINUOUS
 10
145.7785318267
 20
130.410288837
 11
145.7785318267
 21
131.0474583957
  0
LINE
  5
3A0
100
AcDbEntity
  8
RACCORDO
100
AcDbLine
 62
7
  6
CONTINUOUS
 10
145.9985070467
 20
129.5551068577
 11
145.9985070467
 21
129.5292372198
  0
LINE
  5
3A1
100
AcDbEntity
  8
RACCORDO
100
AcDbLine
 62
7
  6
CONTINUOUS
 10
146.065032653
 20
130.8738778967
 11
146.065032653
 21
131.2251918688
  0
LWPOLYLINE
  5
3A2
100
AcDbEntity
  8
RACCORDO
100
AcDbPolyline
 62
250
  6
CONTINUOUS
 90
13
 70
0
 10
146.8453627389
 20
130.0871394799
 10
146.8441258544
 20
130.0636634158
 10
146.840436839
 20
130.0393611277
 10
146.8343602255
 20
130.0146577166
 10
146.8260023096
 20
129.989985296
 10
146.8155092932
 20
129.9657754414
 10
146.8030647286
 20
129.9424516405
 10
146.7888863027
 20
129.9204218735
 10
146.7732220287
 20
129.9000714816
 10
146.7563459132
 20
129.881756433
 10
146.7385531573
 20
129.8657970886
 10
146.7201549926
 20
129.8524725999
 10
146.7014732396
 20
129.8420160295
  0
LWPOLYLINE
  5
3A3
100
AcDbEntity
  8
RACCORDO
100
AcDbPolyline
 62
250
  6
CONTINUOUS
 90
6
 70
0
 10
149.2827977521
 20
130.2707965785
 10
149.2709427806
 20
130.2299097964
 10
149.261660857
 20
130.1893859159
 10
149.2550427884
 20
130.1495093385
 10
149.2509977677
 20
130.1099956626
 10
149.2495257949
 20
130.0708448881
  0
LINE
  5
3A4
100
AcDbEntity
  8
21814000
100
AcDbLine
 62
250
  6
CONTINUOUS
 10
160.9337436361
 20
131.467828399
 11
161.4872777255
 21
132.1664302572
  0
LINE
  5
3A5
100
AcDbEntity
  8
21814000
100
AcDbLine
 62
250
  6
CONTINUOUS
 10
161.8366619779
 20
130.9325399203
 11
161.2528278705
 21
130.3108765485
  0
LWPOLYLINE
  5
3A6
100
AcDbEntity
  8
21814000
100
AcDbPolyline
 62
7
  6
CONTINUOUS
 90
66
 70
0
 10
163.0563352127
 20
129.4278398977
 10
163.1022834915
 20
129.4703641678
 10
163.1468256992
 20
129.5121601786
 10
163.1899675885
 20
129.5532279759
 10
163.2317034068
 20
129.5935675139
 10
163.2720984825
 20
129.6332610841
 10
163.3111603035
 20
129.6723082076
 10
163.348881382
 20
129.7107093632
 10
163.3853045829
 20
129.7485482793
 10
163.4204406077
 20
129.785823873
 10
163.454278755
 20
129.8225372273
 10
163.4868297853
 20
129.8587753193
 10
163.5181118637
 20
129.8945383496
 10
163.5481068251
 20
129.9298261175
 10
163.5767709351
 20
129.9647249992
 10
163.6041349458
 20
129.9992375802
 10
163.630168105
 20
130.0333612748
 10
163.6547344222
 20
130.0671747025
 10
163.677902875
 20
130.100723068
 10
163.6996044857
 20
130.1339611667
 10
163.7194963303
 20
130.166832003
 10
163.737654554
 20
130.1994526435
 10
163.7540030117
 20
130.2317060217
 10
163.7679703433
 20
130.2631839433
 10
163.7795097898
 20
130.2938998009
 10
163.7886681103
 20
130.323840202
 10
163.7950142224
 20
130.3525567745
 10
163.798438878
 20
130.3800091509
 10
163.7990513252
 20
130.4062376987
 10
163.7967482255
 20
130.4309151492
 10
163.7913640991
 20
130.4540037674
 10
163.7830644259
 20
130.4755412883
 10
163.7722423072
 20
130.4953136477
 10
163.7588215305
 20
130.5131918538
 10
163.7428783084
 20
130.5293048985
 10
163.7250343802
 20
130.5438256931
 10
163.705369907
 20
130.5567037543
 10
163.6838047277
 20
130.5679895655
 10
163.6607200981
 20
130.578007488
 10
163.63619032
 20
130.5867859484
 10
163.6101410914
 20
130.5942965201
 10
163.5827307627
 20
130.6007782838
 10
163.5539946577
 20
130.6062628565
 10
163.5238974525
 20
130.6107186213
 10
163.4924915258
 20
130.6142898085
 10
163.4597962589
 20
130.6169967999
 10
163.4257922705
 20
130.6188192138
 10
163.3904737959
 20
130.6198401359
 10
163.3538530547
 20
130.6200727286
 10
163.3159178273
 20
130.6195038294
 10
163.2766256897
 20
130.6181770372
 10
163.2359821938
 20
130.6161009399
 10
163.1939817878
 20
130.6132669494
 10
163.1505653922
 20
130.6096929004
 10
163.1057371446
 20
130.6053845115
 10
163.0594929074
 20
130.600336064
 10
163.0117611877
 20
130.5945482362
 10
162.9625525951
 20
130.5880264422
 10
162.91185652
 20
130.580765268
 10
162.8595696411
 20
130.5727491495
 10
162.8056988521
 20
130.5639831302
 10
162.7502372592
 20
130.5544621666
 10
162.6930608598
 20
130.5441555652
 10
162.6341283197
 20
130.5330530945
 10
162.5734809732
 20
130.5211649859
 10
162.5111188201
 20
130.5084912394
  0
LINE
  5
3A7
100
AcDbEntity
  8
21814000
100
AcDbLine
 62
7
  6
CONTINUOUS
 10
163.0430938595
 20
129.4157435539
 11
163.0563352127
 21
129.4278398977
  0
LWPOLYLINE
  5
3A8
100
AcDbEntity
  8
RACCORDO
100
AcDbPolyline
 62
250
  6
CONTINUOUS
 90
8
 70
0
 10
130.9247942995
 20
98.8940479433
 10
130.867256002
 20
98.8470117499
 10
130.8049978154
 20
98.8088448064
 10
130.7381165735
 20
98.7793469735
 10
130.6681151849
 20
98.7591668029
 10
130.5948790858
 20
98.7485281553
 10
130.5185159546
 20
98.7472042173
 10
130.4408617766
 20
98.7551674061
  0
LWPOLYLINE
  5
3A9
100
AcDbEntity
  8
ASSI
100
AcDbPolyline
 62
250
  6
CONTINUOUS
 90
11
 70
0
 10
130.9247942995
 20
98.8940479433
 10
130.867256002
 20
98.8470117499
 10
130.8049978154
 20
98.8088448064
 10
130.7381165735
 20
98.7793469735
 10
130.6681151849
 20
98.7591668029
 10
130.5948790858
 20
98.7485281553
 10
130.5185159546
 20
98.7472042173
 10
130.4408617766
 20
98.7551674061
 10
130.3625271099
 20
98.7724079093
 10
130.2828974212
 20
98.7989338309
 10
130.2019717212
 20
98.8347447454
  0
LWPOLYLINE
  5
3AA
100
AcDbEntity
  8
RACCORDO
100
AcDbPolyline
 62
250
  6
CONTINUOUS
 90
14
 70
0
 10
162.0907600867
 20
121.9114479542
 10
162.1156101139
 20
121.9279059695
 10
162.1267792492
 20
121.9351810618
 10
162.137146357
 20
121.9418657504
 10
162.1469734292
 20
121.9480784329
 10
162.1562901332
 20
121.9538222954
 10
162.1650668015
 20
121.9590941516
 10
162.1734764243
 20
121.9640028406
 10
162.1815217621
 20
121.968548568
 10
162.1892000544
 20
121.9727311282
 10
162.1966760092
 20
121.9766587428
 10
162.2040045292
 20
121.9803674857
 10
162.2111307117
 20
121.9838212831
 10
162.2180545567
 20
121.9870201348
  0
LINE
  5
3AB
100
AcDbEntity
  8
DRAFT
100
AcDbLine
 62
7
  6
CONTINUOUS
 10
160.082958563
 20
102.2440973611
 11
160.3979238218
 21
102.0866147318
  0
LWPOLYLINE
  5
3AC
100
AcDbEntity
  8
RACCORDO
100
AcDbPolyline
 62
7
  6
CONTINUOUS
 90
6
 70
0
 10
163.3580000393
 20
83.4105549671
 10
163.3382682846
 20
83.4385905958
 10
163.3149281215
 20
83.4636241863
 10
163.2883899605
 20
83.4852331402
 10
163.2590963291
 20
83.503042859
 10
163.2556589054
 20
83.504788717
  0
LWPOLYLINE
  5
3AD
100
AcDbEntity
  8
RACCORDO
100
AcDbPolyline
 62
7
  6
CONTINUOUS
 90
10
 70
0
 10
146.065032653
 20
130.8738778967
 10
146.0672999033
 20
130.84029011
 10
146.0741374393
 20
130.8070252592
 10
146.0854980897
 20
130.774812846
 10
146.1012066588
 20
130.7443463343
 10
146.1209384136
 20
130.7163107056
 10
146.1442785766
 20
130.6912771152
 10
146.1708167377
 20
130.6696681612
 10
146.2001103691
 20
130.6518584425
 10
146.2035477928
 20
130.6501125845
  0
LINE
  5
3AE
100
AcDbEntity
  8
RACCORDO
100
AcDbLine
 62
250
  6
CONTINUOUS
 10
146.7724728157
 20
130.1673251331
 11
146.7721394342
 21
130.1735361825
  0
LINE
  5
3AF
100
AcDbEntity
  8
RACCORDO
100
AcDbLine
 62
250
  6
CONTINUOUS
 10
146.1382559577
 20
130.7854895491
 11
146.1382559577
 21
131.1368035211
  0
LINE
  5
3B0
100
AcDbEntity
  8
26814000
100
AcDbLine
 62
7
  6
CONTINUOUS
 10
146.2796773139
 20
129.3886520862
 11
146.2796773139
 21
128.9906255064
  0
LINE
  5
3B1
100
AcDbEntity
  8
DRAFT
100
AcDbLine
 62
7
  6
CONTINUOUS
 10
146.4501037679
 20
129.3034388593
 11
146.4501037679
 21
128.9054122794
  0
LINE
  5
3B2
100
AcDbEntity
  8
RACCORDO
100
AcDbLine
 62
7
  6
CONTINUOUS
 10
146.7721394342
 20
130.1734770122
 11
146.7721394342
 21
130.3658160089
  0
LINE
  5
3B3
100
AcDbEntity
  8
RACCORDO
100
AcDbLine
 62
250
  6
CONTINUOUS
 10
146.8453627389
 20
130.0871394799
 11
146.8453627389
 21
130.3292043566
  0
LINE
  5
3B4
100
AcDbEntity
  8
26814000
100
AcDbLine
 62
7
  6
CONTINUOUS
 10
146.8453627389
 20
131.7698654089
 11
146.8453627389
 21
132.6809208941
  0
LINE
  5
3B5
100
AcDbEntity
  8
RACCORDO
100
AcDbLine
 62
250
  6
CONTINUOUS
 10
147.4817588419
 20
130.465052079
 11
147.4817588419
 21
130.1137381069
  0
LINE
  5
3B6
100
AcDbEntity
  8
26814000
100
AcDbLine
 62
7
  6
CONTINUOUS
 10
147.5483556931
 20
132.8162423918
 11
147.5483556931
 21
132.5553134155
  0
LINE
  5
3B7
100
AcDbEntity
  8
RACCORDO
100
AcDbLine
 62
250
  6
CONTINUOUS
 10
147.8353122325
 20
130.465052079
 11
147.8353122325
 21
130.1137381069
  0
LINE
  5
3B8
100
AcDbEntity
  8
26814000
100
AcDbLine
 62
250
  6
CONTINUOUS
 10
147.8755733907
 20
137.0533522839
 11
147.8755733907
 21
135.8215137055
  0
LINE
  5
3B9
100
AcDbEntity
  8
26814000
100
AcDbLine
 62
7
  6
CONTINUOUS
 10
147.9622108191
 20
137.1577396592
 11
147.9622108191
 21
135.9253711674
  0
LINE
  5
3BA
100
AcDbEntity
  8
RACCORDO
100
AcDbLine
 62
250
  6
CONTINUOUS
 10
148.1888656231
 20
129.7172914975
 11
148.1888656231
 21
129.4153880378
  0
LINE
  5
3BB
100
AcDbEntity
  8
RACCORDO
100
AcDbLine
 62
250
  6
CONTINUOUS
 10
148.5424190137
 20
129.7172914975
 11
148.5424190137
 21
129.4085855994
  0
LWPOLYLINE
  5
3BC
100
AcDbEntity
  8
RACCORDO
100
AcDbPolyline
 62
7
  6
CONTINUOUS
 90
6
 70
0
 10
146.7721450389
 20
130.1736766021
 10
146.7721253597
 20
130.1716216518
 10
146.7709994487
 20
130.1590799603
 10
146.7685133986
 20
130.148119161
 10
146.7652940839
 20
130.1392472131
 10
146.7628282806
 20
130.1341740439
  0
LWPOLYLINE
  5
3BD
100
AcDbEntity
  8
RACCORDO
100
AcDbPolyline
 62
250
  6
CONTINUOUS
 90
13
 70
0
 10
148.1888656231
 20
129.4153880378
 10
148.1876287477
 20
129.391912063
 10
148.183939757
 20
129.367609856
 10
148.177863179
 20
129.3429065124
 10
148.1695053056
 20
129.3182341445
 10
148.1590123333
 20
129.294024323
 10
148.1465678056
 20
129.2707005274
 10
148.1323894031
 20
129.2486707389
 10
148.1167251352
 20
129.228320304
 10
148.0998490022
 20
129.2100051937
 10
148.0820562025
 20
129.194045777
 10
148.0636579687
 20
129.1807212168
 10
148.0449761239
 20
129.1702645874
  0
LWPOLYLINE
  5
3BE
100
AcDbEntity
  8
RACCORDO
100
AcDbPolyline
 62
250
  6
CONTINUOUS
 90
8
 70
0
 10
149.3227490996
 20
129.8306000147
 10
149.3224101462
 20
129.8243531835
 10
149.319713816
 20
129.8119873168
 10
149.3143374677
 20
129.7998464272
 10
149.3063267381
 20
129.7880772829
 10
149.2957370175
 20
129.7767796419
 10
149.2826523652
 20
129.7660777613
 10
149.2671987038
 20
129.756116595
  0
LWPOLYLINE
  5
3BF
100
AcDbEntity
  8
RACCORDO
100
AcDbPolyline
 62
250
  6
CONTINUOUS
 90
7
 70
0
 10
150.0298558808
 20
131.2627866264
 10
150.0277170961
 20
131.2464708523
 10
150.0213373374
 20
131.2304342457
 10
150.0108257639
 20
131.2149511973
 10
149.9963622317
 20
131.2002866264
 10
149.9781942159
 20
131.1866914477
 10
149.9566325761
 20
131.1743982787
  0
LWPOLYLINE
  5
3C0
100
AcDbEntity
  8
RACCORDO
100
AcDbPolyline
 62
250
  6
CONTINUOUS
 90
7
 70
0
 10
150.0298558808
 20
131.6141006106
 10
150.0275541365
 20
131.5971774329
 10
150.0209493763
 20
131.581032765
 10
150.010243192
 20
131.5655679114
 10
149.995741739
 20
131.5510662899
 10
149.9777477961
 20
131.537715407
 10
149.9566325761
 20
131.5257122508
  0
LINE
  5
3C1
100
AcDbEntity
  8
ASSI
100
AcDbLine
 62
250
  6
CONTINUOUS
 10
129.8203460775
 20
101.1049445802
 11
129.8710909336
 21
101.1280578262
  0
LINE
  5
3C2
100
AcDbEntity
  8
RACCORDO
100
AcDbLine
 62
250
  6
CONTINUOUS
 10
129.8203460775
 20
101.1049445802
 11
129.8782707793
 21
101.1307870837
  0
LWPOLYLINE
  5
3C3
100
AcDbEntity
  8
RACCORDO
100
AcDbPolyline
 62
250
  6
CONTINUOUS
 90
7
 70
0
 10
146.065032653
 20
131.2251918566
 10
146.0670701223
 20
131.2092656059
 10
146.073395984
 20
131.1931305206
 10
146.0838981339
 20
131.1775556585
 10
146.0983886731
 20
131.1628112108
 10
146.1166141004
 20
131.1491489894
 10
146.1382559577
 20
131.1368035211
  0
LWPOLYLINE
  5
3C4
100
AcDbEntity
  8
RACCORDO
100
AcDbPolyline
 62
250
  6
CONTINUOUS
 90
8
 70
0
 10
148.1888656231
 20
129.7172914975
 10
148.1876703223
 20
129.7418287003
 10
148.1841005844
 20
129.7648387788
 10
148.1782046839
 20
129.7860105611
 10
148.1700623528
 20
129.8050577352
 10
148.1597837021
 20
129.8217227207
 10
148.1475077329
 20
129.8357801522
 10
148.1334004567
 20
129.8470399272
  0
LWPOLYLINE
  5
3C5
100
AcDbEntity
  8
RACCORDO
100
AcDbPolyline
 62
250
  6
CONTINUOUS
 90
13
 70
0
 10
148.5424190137
 20
129.7172914975
 10
148.5409565286
 20
129.7548991251
 10
148.5369252492
 20
129.7903120265
 10
148.5303251754
 20
129.8235302016
 10
148.5210701773
 20
129.8547471009
 10
148.5092463849
 20
129.8837692739
 10
148.4951121879
 20
129.9100163699
 10
148.4786301227
 20
129.9334489563
 10
148.459837653
 20
129.9541064657
 10
148.4391055596
 20
129.971526845
 10
148.4165574362
 20
129.9855560767
 10
148.3920696891
 20
129.9963481783
 10
148.3656423184
 20
130.0039031499
  0
LWPOLYLINE
  5
3C6
100
AcDbEntity
  8
RACCORDO
100
AcDbPolyline
 62
250
  6
CONTINUOUS
 90
13
 70
0
 10
148.5424190137
 20
129.4085855994
 10
148.5433067515
 20
129.3852150446
 10
148.5465990901
 20
129.3610345008
 10
148.5522396883
 20
129.3364577112
 10
148.5601320274
 20
129.3119051913
 10
148.5701410583
 20
129.28779705
 10
148.5820955079
 20
129.2645457995
 10
148.5957908207
 20
129.2425492731
 10
148.6109926588
 20
129.2221838282
 10
148.6274409021
 20
129.2037979194
 10
148.6448541093
 20
129.187706121
 10
148.6629343362
 20
129.1741837471
 10
148.681372227
 20
129.163462149
  0
LWPOLYLINE
  5
3C7
100
AcDbEntity
  8
RACCORDO
100
AcDbPolyline
 62
250
  6
CONTINUOUS
 90
13
 70
0
 10
149.2495257949
 20
129.7470224604
 10
149.2504135169
 20
129.7236520857
 10
149.2537058083
 20
129.6994717052
 10
149.2593463372
 20
129.6748950521
 10
149.2672385925
 20
129.6503426397
 10
149.2772475355
 20
129.6262345664
 10
149.2892019105
 20
129.6029833282
 10
149.3028971747
 20
129.5809867602
 10
149.3180989985
 20
129.5606212298
 10
149.3345472743
 20
129.5422351967
 10
149.3519605677
 20
129.5261432513
 10
149.3700409323
 20
129.512620731
 10
149.3884790081
 20
129.50189901
  0
LINE
  5
3C8
100
AcDbEntity
  8
RACCORDO
100
AcDbLine
 62
250
  6
CONTINUOUS
 10
149.2495257949
 20
129.7470224604
 11
149.2495257949
 21
130.0708448881
  0
LINE
  5
3C9
100
AcDbEntity
  8
RACCORDO
100
AcDbLine
 62
7
  6
CONTINUOUS
 10
149.3227490996
 20
129.8306000147
 11
149.3227490996
 21
130.1592332358
  0
LINE
  5
3CA
100
AcDbEntity
  8
RACCORDO
100
AcDbLine
 62
250
  6
CONTINUOUS
 10
149.9566325761
 20
131.5257122508
 11
149.9566325761
 21
131.1743982787
  0
LINE
  5
3CB
100
AcDbEntity
  8
RACCORDO
100
AcDbLine
 62
7
  6
CONTINUOUS
 10
150.0298558808
 20
131.6141005984
 11
150.0298558808
 21
131.2627866264
  0
LWPOLYLINE
  5
3CC
100
AcDbEntity
  8
RACCORDO
100
AcDbPolyline
 62
7
  6
CONTINUOUS
 90
5
 70
0
 10
150.0298558808
 20
131.2627866264
 10
150.0275886304
 20
131.2291988397
 10
150.0207510944
 20
131.1959339889
 10
150.009390444
 20
131.1637215757
 10
149.9936818749
 20
131.133255064
  0
LINE
  5
3CD
100
AcDbEntity
  8
RACCORDO
100
AcDbLine
 62
250
  6
CONTINUOUS
 10
162.7906206546
 20
123.8520741535
 11
163.3209507405
 21
124.4922391965
  0
LINE
  5
3CE
100
AcDbEntity
  8
RACCORDO
100
AcDbLine
 62
7
  6
CONTINUOUS
 10
162.8063629974
 20
123.780974508
 11
163.3366930833
 21
124.421139551
  0
LINE
  5
3CF
100
AcDbEntity
  8
RACCORDO
100
AcDbLine
 62
7
  6
CONTINUOUS
 10
163.8512808264
 20
121.0223528118
 11
167.9642085543
 21
124.9355217681
  0
LINE
  5
3D0
100
AcDbEntity
  8
RACCORDO
100
AcDbLine
 62
250
  6
CONTINUOUS
 10
168.0498909091
 20
125.1839664987
 11
163.8512808264
 21
121.2076377611
  0
LWPOLYLINE
  5
3D1
100
AcDbEntity
  8
RACCORDO
100
AcDbPolyline
 62
7
  6
CONTINUOUS
 90
3
 70
0
 10
130.8455949003
 20
98.9366522598
 10
130.7894888632
 20
98.9092241999
 10
130.7777183775
 20
98.9046809955
  0
LINE
  5
3D2
100
AcDbEntity
  8
ASSI
100
AcDbLine
 62
7
  6
CONTINUOUS
 10
130.8449428593
 20
98.9362484828
 11
130.7608859882
 21
98.8988004513
  0
LINE
  5
3D3
100
AcDbEntity
  8
ASSI
100
AcDbLine
 62
250
  6
CONTINUOUS
 10
129.8710909336
 20
101.1280578262
 11
129.8782707793
 21
101.1307870837
  0
LINE
  5
3D4
100
AcDbEntity
  8
DRAFT
100
AcDbLine
 62
7
  6
CONTINUOUS
 10
129.8783735298
 20
100.9109949815
 11
130.335074255
 21
101.0841928488
  0
LINE
  5
3D5
100
AcDbEntity
  8
RACCORDO
100
AcDbLine
 62
7
  6
CONTINUOUS
 10
129.8782707793
 20
101.1307870837
 11
129.8786010243
 21
101.1309095624
  0
LINE
  5
3D6
100
AcDbEntity
  8
ASSI
100
AcDbLine
 62
7
  6
CONTINUOUS
 10
129.8710563811
 20
101.128018669
 11
129.8931861679
 21
101.136002503
  0
LWPOLYLINE
  5
3D7
100
AcDbEntity
  8
RACCORDO
100
AcDbPolyline
 62
7
  6
CONTINUOUS
 90
3
 70
0
 10
129.8785984646
 20
101.1308817957
 10
129.9238830986
 20
101.1449498329
 10
129.9785599526
 20
101.1552947178
  0
LWPOLYLINE
  5
3D8
100
AcDbEntity
  8
ASSI
100
AcDbPolyline
 62
250
  6
CONTINUOUS
 90
4
 70
0
 10
129.7773093032
 20
101.1963581739
 10
129.8476239766
 20
101.2166672886
 10
129.9211479808
 20
101.2274228458
 10
129.9977671778
 20
101.2288491567
  0
LWPOLYLINE
  5
3D9
100
AcDbEntity
  8
RACCORDO
100
AcDbPolyline
 62
250
  6
CONTINUOUS
 90
5
 70
0
 10
163.3220035924
 20
83.4108074284
 10
163.3091999255
 20
83.4373213821
 10
163.2935636737
 20
83.4611509489
 10
163.2753638565
 20
83.4818871566
 10
163.2549130029
 20
83.4991747914
  0
LWPOLYLINE
  5
3DA
100
AcDbEntity
  8
RACCORDO
100
AcDbPolyline
 62
7
  6
CONTINUOUS
 90
4
 70
0
 10
159.4494590607
 20
82.4425674083
 10
159.4384987853
 20
82.4737910766
 10
159.4317408575
 20
82.506314361
 10
159.4293509757
 20
82.5406600105
  0
LWPOLYLINE
  5
3DB
100
AcDbEntity
  8
RACCORDO
100
AcDbPolyline
 62
250
  6
CONTINUOUS
 90
7
 70
0
 10
146.065032653
 20
130.8738778967
 10
146.0671714376
 20
130.8575621227
 10
146.0735511964
 20
130.8415255161
 10
146.0840627698
 20
130.8260424677
 10
146.098526302
 20
130.8113778967
 10
146.1166943179
 20
130.7977827181
 10
146.1382559577
 20
130.7854895491
  0
LWPOLYLINE
  5
3DC
100
AcDbEntity
  8
RACCORDO
100
AcDbPolyline
 62
7
  6
CONTINUOUS
 90
13
 70
0
 10
151.6466331765
 20
129.1571215221
 10
151.6476299842
 20
129.141448973
 10
151.6507753713
 20
129.1250578304
 10
151.6560309395
 20
129.1088741904
 10
151.663423918
 20
129.0929007306
 10
151.6729270777
 20
129.0771347733
 10
151.6844183186
 20
129.0617788853
 10
151.6979232942
 20
129.0468383578
 10
151.713416351
 20
129.0323078996
 10
151.7306984288
 20
129.0183742031
 10
151.7497031741
 20
129.0050994991
 10
151.7704969404
 20
128.9924215568
 10
151.7930797276
 20
128.9803403763
  0
LWPOLYLINE
  5
3DD
100
AcDbEntity
  8
26814000
100
AcDbPolyline
 62
7
  6
CONTINUOUS
 90
5
 70
0
 10
152.7178168262
 20
134.5089821823
 10
152.7178041759
 20
134.509317118
 10
152.7175097727
 20
134.5108349067
 10
152.7168344378
 20
134.512551571
 10
152.7157903448
 20
134.5144712748
  0
LWPOLYLINE
  5
3DE
100
AcDbEntity
  8
26814000
100
AcDbPolyline
 62
7
  6
CONTINUOUS
 90
7
 70
0
 10
152.7177703521
 20
135.0913293503
 10
152.7176787441
 20
135.0956371516
 10
152.7175395733
 20
135.0999484822
 10
152.7173528399
 20
135.1042633422
 10
152.7171185438
 20
135.1085817315
 10
152.716836685
 20
135.1129036502
 10
152.7165072635
 20
135.1172290983
  0
LINE
  5
3DF
100
AcDbEntity
  8
26814000
100
AcDbLine
 62
7
  6
CONTINUOUS
 10
152.7177703521
 20
135.0913293503
 11
152.7178168228
 21
135.0851920122
  0
LINE
  5
3E0
100
AcDbEntity
  8
RACCORDO
100
AcDbLine
 62
7
  6
CONTINUOUS
 10
151.6466331182
 20
127.9575826639
 11
151.6466331182
 21
129.1571170716
  0
LINE
  5
3E1
100
AcDbEntity
  8
RACCORDO
100
AcDbLine
 62
250
  6
CONTINUOUS
 10
151.7930797276
 20
127.7830213406
 11
151.7930797276
 21
128.9803403763
  0
LINE
  5
3E2
100
AcDbEntity
  8
26814000
100
AcDbLine
 62
250
  6
CONTINUOUS
 10
152.6336187845
 20
134.7975155064
 11
152.6336187845
 21
134.5852563523
  0
LINE
  5
3E3
100
AcDbEntity
  8
26814000
100
AcDbLine
 62
7
  6
CONTINUOUS
 10
152.7178168444
 20
135.0851363847
 11
152.7178168444
 21
134.5091731951
  0
LINE
  5
3E4
100
AcDbEntity
  8
21814000
100
AcDbLine
 62
250
  6
CONTINUOUS
 10
153.1217180045
 20
136.4370395299
 11
153.1217180045
 21
136.1157152477
  0
LWPOLYLINE
  5
3E5
100
AcDbEntity
  8
26814000
100
AcDbPolyline
 62
7
  6
CONTINUOUS
 90
16
 70
0
 10
152.7178168228
 20
135.0851920122
 10
152.7175823171
 20
135.0716777039
 10
152.7164415411
 20
135.0519125127
 10
152.7143972095
 20
135.0320588621
 10
152.7115060444
 20
135.0121230782
 10
152.7078172803
 20
134.9921408419
 10
152.7033573164
 20
134.9721790203
 10
152.6981644581
 20
134.9522583027
 10
152.6922818009
 20
134.9323905513
 10
152.6857212667
 20
134.9126303251
 10
152.6785143635
 20
134.8929932585
 10
152.6706972178
 20
134.8734912939
 10
152.6622732784
 20
134.854175695
 10
152.653260387
 20
134.8350729685
 10
152.6436985417
 20
134.8161824747
 10
152.6336187845
 20
134.7975155064
  0
LWPOLYLINE
  5
3E6
100
AcDbEntity
  8
RACCORDO
100
AcDbPolyline
 62
250
  6
CONTINUOUS
 90
5
 70
0
 10
162.7642422221
 20
123.8181643026
 10
162.7397918866
 20
123.7829490468
 10
162.7172696481
 20
123.7464283861
 10
162.6965513301
 20
123.7083306201
 10
162.677761109
 20
123.6689274492
  0
LWPOLYLINE
  5
3E7
100
AcDbEntity
  8
RACCORDO
100
AcDbPolyline
 62
7
  6
CONTINUOUS
 90
5
 70
0
 10
163.3366930833
 20
124.421139551
 10
163.3557786538
 20
124.4474981528
 10
163.3712847261
 20
124.4761253673
 10
163.3829419927
 20
124.5065339059
 10
163.3905593737
 20
124.5382687779
  0
LINE
  5
3E8
100
AcDbEntity
  8
RACCORDO
100
AcDbLine
 62
250
  6
CONTINUOUS
 10
162.7906206546
 20
123.8520741535
 11
162.7642422221
 21
123.8181643026
  0
LWPOLYLINE
  5
3E9
100
AcDbEntity
  8
RACCORDO
100
AcDbPolyline
 62
7
  6
CONTINUOUS
 90
13
 70
0
 10
162.8063629974
 20
123.780974508
 10
162.789015625
 20
123.758751956
 10
162.7722835495
 20
123.7346266971
 10
162.7564648206
 20
123.7088927985
 10
162.741790023
 20
123.6818060044
 10
162.7285501186
 20
123.6538189683
 10
162.7170452129
 20
123.6255953586
 10
162.7073880725
 20
123.5975660608
 10
162.6996372167
 20
123.5701490555
 10
162.6938499736
 20
123.5440119938
 10
162.689943612
 20
123.5196206738
 10
162.6877481903
 20
123.4972170204
 10
162.687067264
 20
123.4770741535
  0
LWPOLYLINE
  5
3EA
100
AcDbEntity
  8
RACCORDO
100
AcDbPolyline
 62
250
  6
CONTINUOUS
 90
18
 70
0
 10
130.570257018
 20
99.0474588799
 10
130.5879158835
 20
99.0543144438
 10
130.6226886477
 20
99.0705178542
 10
130.6561271909
 20
99.0898145834
 10
130.6881118639
 20
99.1121376002
 10
130.7185258401
 20
99.1374049128
 10
130.7472611588
 20
99.165523423
 10
130.7742273542
 20
99.1964010038
 10
130.7993418595
 20
99.2299430626
 10
130.8225331874
 20
99.2660617076
 10
130.8437043469
 20
99.3046141035
 10
130.8627526644
 20
99.3454011297
 10
130.8796066765
 20
99.388229036
 10
130.8942401115
 20
99.4329852396
 10
130.9066301929
 20
99.4795801419
 10
130.9167398487
 20
99.5278808563
 10
130.9245286837
 20
99.5777023833
 10
130.9299707138
 20
99.628876933
  0
LINE
  5
3EB
100
AcDbEntity
  8
RACCORDO
100
AcDbLine
 62
7
  6
CONTINUOUS
 10
130.7783781841
 20
98.9048986387
 11
130.7777192382
 21
98.9046545294
  0
LINE
  5
3EC
100
AcDbEntity
  8
DRAFT
100
AcDbLine
 62
7
  6
CONTINUOUS
 10
130.5702563579
 20
99.04745864
 11
131.0771234514
 21
99.2316299649
  0
LINE
  5
3ED
100
AcDbEntity
  8
ASSI
100
AcDbLine
 62
250
  6
CONTINUOUS
 10
130.7783781841
 20
98.9048986387
 11
130.7609561367
 21
98.898800568
  0
LWPOLYLINE
  5
3EE
100
AcDbEntity
  8
RACCORDO
100
AcDbPolyline
 62
7
  6
CONTINUOUS
 90
40
 70
0
 10
130.5702563594
 20
99.0474586406
 10
130.5345615923
 20
99.036010244
 10
130.4977867682
 20
99.0272416661
 10
130.4600455657
 20
99.0212290432
 10
130.4214420107
 20
99.0180367864
 10
130.3821123524
 20
99.0177213518
 10
130.3422196485
 20
99.0203210795
 10
130.3019068629
 20
99.0258556149
 10
130.2612708323
 20
99.0343401685
 10
130.2203959249
 20
99.0457916149
 10
130.1793184052
 20
99.0602470306
 10
130.1382322041
 20
99.0776869774
 10
130.0974490955
 20
99.0979997324
 10
130.057103368
 20
99.121116632
 10
130.0172763298
 20
99.1469919601
 10
129.978189808
 20
99.1754746227
 10
129.939968929
 20
99.2064523927
 10
129.9026860006
 20
99.2398484442
 10
129.8664774229
 20
99.2755232031
 10
129.8314332279
 20
99.3133683981
 10
129.797647794
 20
99.3532652571
 10
129.765257369
 20
99.3950305535
 10
129.7343587871
 20
99.4385086544
 10
129.7050126965
 20
99.4835855091
 10
129.6772940803
 20
99.5301223125
 10
129.6512770417
 20
99.5779724263
 10
129.6270259447
 20
99.6269974424
 10
129.6045987579
 20
99.6770651796
 10
129.5840544464
 20
99.728034719
 10
129.565452956
 20
99.7797514681
 10
129.5488488645
 20
99.8320598542
 10
129.5342910177
 20
99.8848052499
 10
129.5218218987
 20
99.9378388872
 10
129.5114796116
 20
99.991014119
 10
129.5032994642
 20
100.0441783722
 10
129.4973121344
 20
100.097180307
 10
129.4935434444
 20
100.1498790115
 10
129.4920166444
 20
100.2021288795
 10
129.4927512664
 20
100.2537764159
 10
129.4957621742
 20
100.3046713635
  0
LWPOLYLINE
  5
3EF
100
AcDbEntity
  8
RACCORDO
100
AcDbPolyline
 62
250
  6
CONTINUOUS
 90
6
 70
0
 10
130.7777192382
 20
98.9046545294
 10
130.7100542348
 20
98.8849988707
 10
130.6424532464
 20
98.8750760712
 10
130.5724549787
 20
98.8738732003
 10
130.5006414289
 20
98.881376774
 10
130.4275846874
 20
98.8974933725
  0
LINE
  5
3F0
100
AcDbEntity
  8
RACCORDO
100
AcDbLine
 62
250
  6
CONTINUOUS
 10
163.3317541683
 20
83.382065131
 11
163.3220035924
 21
83.4108074284
  0
LINE
  5
3F1
100
AcDbEntity
  8
21814000
100
AcDbLine
 62
7
  6
CONTINUOUS
 10
152.3331567397
 20
135.4732892915
 11
152.3348361681
 21
135.443537141
  0
LINE
  5
3F2
100
AcDbEntity
  8
21814000
100
AcDbLine
 62
7
  6
CONTINUOUS
 10
153.8044282024
 20
136.0153445489
 11
153.8044282024
 21
136.4483572508
  0
LINE
  5
3F3
100
AcDbEntity
  8
0
100
AcDbLine
 62
7
  6
CONTINUOUS
 10
154.7718919149
 20
135.1792144377
 11
154.7718919149
 21
134.7133396713
  0
LINE
  5
3F4
100
AcDbEntity
  8
21814000
100
AcDbLine
 62
250
  6
CONTINUOUS
 10
155.1892250958
 20
135.9083296615
 11
155.1892250958
 21
136.3670612276
  0
LINE
  5
3F5
100
AcDbEntity
  8
0
100
AcDbLine
 62
7
  6
CONTINUOUS
 10
155.2216365763
 20
135.0574666045
 11
155.2216365763
 21
134.7042810507
  0
LINE
  5
3F6
100
AcDbEntity
  8
21814000
100
AcDbLine
 62
250
  6
CONTINUOUS
 10
155.3302380172
 20
135.9092599396
 11
155.3302380172
 21
136.3780571248
  0
LWPOLYLINE
  5
3F7
100
AcDbEntity
  8
RACCORDO
100
AcDbPolyline
 62
250
  6
CONTINUOUS
 90
13
 70
0
 10
152.9091485636
 20
82.2186548547
 10
153.0089988191
 20
85.1793416442
 10
153.1359102064
 20
88.1515079673
 10
153.2898665292
 20
91.1347808509
 10
153.4708481651
 20
94.1287859062
 10
153.6788323356
 20
97.1331473522
 10
153.9137931125
 20
100.1474880648
 10
154.1757011459
 20
103.1714295743
 10
154.4645234125
 20
106.2045923509
 10
154.7802234932
 20
109.2465958315
 10
155.1227618229
 20
112.2970581548
 10
155.492095692
 20
115.3555962082
 10
155.8881790016
 20
118.4218259165
  0
LWPOLYLINE
  5
3F8
100
AcDbEntity
  8
ASSI
100
AcDbPolyline
 62
250
  6
CONTINUOUS
 90
13
 70
0
 10
152.9091485636
 20
82.2186548547
 10
153.0089988191
 20
85.1793416442
 10
153.1359102064
 20
88.1515079673
 10
153.2898665292
 20
91.1347808509
 10
153.4708481651
 20
94.1287859062
 10
153.6788323356
 20
97.1331473522
 10
153.9137931125
 20
100.1474880648
 10
154.1757011459
 20
103.1714295743
 10
154.4645234125
 20
106.2045923509
 10
154.7802234932
 20
109.2465958315
 10
155.1227618229
 20
112.2970581548
 10
155.492095692
 20
115.3555962082
 10
155.8881790016
 20
118.4218259165
  0
LWPOLYLINE
  5
3F9
100
AcDbEntity
  8
RACCORDO
100
AcDbPolyline
 62
250
  6
CONTINUOUS
 90
13
 70
0
 10
154.0302171797
 20
82.1888827965
 10
154.129826131
 20
85.1422876957
 10
154.2563877301
 20
88.1063997145
 10
154.4099019769
 20
91.081218853
 10
154.5903949571
 20
94.0671228545
 10
154.7978405851
 20
97.0637339757
 10
155.032160604
 20
100.069918986
 10
155.2933653308
 20
103.0856817045
 10
155.5814444485
 20
106.1110183122
 10
155.8962887487
 20
109.1447841213
 10
156.2378618288
 20
112.1865975691
 10
156.6062000914
 20
115.2368402183
 10
157.0013035365
 20
118.2955120688
  0
LWPOLYLINE
  5
3FA
100
AcDbEntity
  8
ASSI
100
AcDbPolyline
 62
250
  6
CONTINUOUS
 90
13
 70
0
 10
154.0302171797
 20
82.1888827965
 10
154.129826131
 20
85.1422876957
 10
154.2563877301
 20
88.1063997145
 10
154.4099019769
 20
91.081218853
 10
154.5903949571
 20
94.0671228545
 10
154.7978405851
 20
97.0637339757
 10
155.032160604
 20
100.069918986
 10
155.2933653308
 20
103.0856817045
 10
155.5814444485
 20
106.1110183122
 10
155.8962887487
 20
109.1447841213
 10
156.2378618288
 20
112.1865975691
 10
156.6062000914
 20
115.2368402183
 10
157.0013035365
 20
118.2955120688
  0
LWPOLYLINE
  5
3FB
100
AcDbEntity
  8
RACCORDO
100
AcDbPolyline
 62
250
  6
CONTINUOUS
 90
19
 70
0
 10
155.8881790016
 20
118.4218259165
 10
155.906785876
 20
118.5358503473
 10
155.9324422591
 20
118.6511141524
 10
155.9649740198
 20
118.7668314926
 10
156.0041631307
 20
118.8822137301
 10
156.0497416584
 20
118.9964734621
 10
156.1013927975
 20
119.1088300687
 10
156.1587654873
 20
119.218513512
 10
156.2214712745
 20
119.3247796541
 10
156.2890797825
 20
119.4269134921
 10
156.3611347644
 20
119.5242172412
 10
156.4371483113
 20
119.6160268006
 10
156.5165991039
 20
119.7017251078
 10
156.5989535743
 20
119.7807273578
 10
156.683652593
 20
119.8524895984
 10
156.7701074096
 20
119.9165237432
 10
156.8577281289
 20
119.9723923302
 10
156.9459279461
 20
120.0197105775
 10
157.0341106839
 20
120.0581532274
  0
LWPOLYLINE
  5
3FC
100
AcDbEntity
  8
ASSI
100
AcDbPolyline
 62
250
  6
CONTINUOUS
 90
19
 70
0
 10
155.8881790016
 20
118.4218259165
 10
155.906785876
 20
118.5358503473
 10
155.9324422591
 20
118.6511141524
 10
155.9649740198
 20
118.7668314926
 10
156.0041631307
 20
118.8822137301
 10
156.0497416584
 20
118.9964734621
 10
156.1013927975
 20
119.1088300687
 10
156.1587654873
 20
119.218513512
 10
156.2214712745
 20
119.3247796541
 10
156.2890797825
 20
119.4269134921
 10
156.3611347644
 20
119.5242172412
 10
156.4371483113
 20
119.6160268006
 10
156.5165991039
 20
119.7017251078
 10
156.5989535743
 20
119.7807273578
 10
156.683652593
 20
119.8524895984
 10
156.7701074096
 20
119.9165237432
 10
156.8577281289
 20
119.9723923302
 10
156.9459279461
 20
120.0197105775
 10
157.0341106839
 20
120.0581532274
  0
LWPOLYLINE
  5
3FD
100
AcDbEntity
  8
RACCORDO
100
AcDbPolyline
 62
250
  6
CONTINUOUS
 90
19
 70
0
 10
157.0013035365
 20
118.2955120688
 10
157.0101100103
 20
118.3490084227
 10
157.0220637786
 20
118.4024358445
 10
157.0371648413
 20
118.4557943342
 10
157.0555624539
 20
118.5094773497
 10
157.077107361
 20
118.5630914332
 10
157.1013517964
 20
118.6154562112
 10
157.1283481001
 20
118.6665171809
 10
157.1580439321
 20
118.716328845
 10
157.1898345065
 20
118.7638743388
 10
157.2237626927
 20
118.8091051712
 10
157.2597856213
 20
118.8520698331
 10
157.2971698981
 20
118.8918969329
 10
157.3359676641
 20
118.9285313768
 10
157.3761267782
 20
118.9620282585
 10
157.4167574236
 20
118.9916814671
 10
157.4575629945
 20
119.0172556322
 10
157.4988400966
 20
119.0389861242
 10
157.5405887299
 20
119.0568729431
  0
LWPOLYLINE
  5
3FE
100
AcDbEntity
  8
ASSI
100
AcDbPolyline
 62
250
  6
CONTINUOUS
 90
19
 70
0
 10
157.0013035365
 20
118.2955120688
 10
157.0101100103
 20
118.3490084227
 10
157.0220637786
 20
118.4024358445
 10
157.0371648413
 20
118.4557943342
 10
157.0555624539
 20
118.5094773497
 10
157.077107361
 20
118.5630914332
 10
157.1013517964
 20
118.6154562112
 10
157.1283481001
 20
118.6665171809
 10
157.1580439321
 20
118.716328845
 10
157.1898345065
 20
118.7638743388
 10
157.2237626927
 20
118.8091051712
 10
157.2597856213
 20
118.8520698331
 10
157.2971698981
 20
118.8918969329
 10
157.3359676641
 20
118.9285313768
 10
157.3761267782
 20
118.9620282585
 10
157.4167574236
 20
118.9916814671
 10
157.4575629945
 20
119.0172556322
 10
157.4988400966
 20
119.0389861242
 10
157.5405887299
 20
119.0568729431
  0
LWPOLYLINE
  5
3FF
100
AcDbEntity
  8
RACCORDO
100
AcDbPolyline
 62
250
  6
CONTINUOUS
 90
12
 70
0
 10
161.1996303969
 20
123.4315790247
 10
161.1866854625
 20
123.4022990024
 10
161.1709393416
 20
123.3749447123
 10
161.1526410717
 20
123.3499944703
 10
161.1320701604
 20
123.3278754857
 10
161.1095778551
 20
123.3090066621
 10
161.0855944835
 20
123.2937651936
 10
161.0605510143
 20
123.2824199188
 10
161.0348604162
 20
123.2751530976
 10
161.0089647619
 20
123.2720894839
 10
160.9833089339
 20
123.2732810987
 10
160.9733697672
 20
123.2749156428
  0
LWPOLYLINE
  5
400
100
AcDbEntity
  8
RACCORDO
100
AcDbPolyline
 62
250
  6
CONTINUOUS
 90
12
 70
0
 10
161.7299604828
 20
123.3217440677
 10
161.7169111392
 20
123.292258084
 10
161.7010603753
 20
123.2647889627
 10
161.6826794019
 20
123.2398067083
 10
161.6620827226
 20
123.2177387739
 10
161.6396227524
 20
123.1989627481
 10
161.6156837875
 20
123.1837998938
 10
161.5906754303
 20
123.1725096518
 10
161.5650255807
 20
123.165285201
 10
161.5391731148
 20
123.1622501541
 10
161.5135603753
 20
123.1634564413
 10
161.502483035
 20
123.1653275263
  0
LWPOLYLINE
  5
401
100
AcDbEntity
  8
RACCORDO
100
AcDbPolyline
 62
250
  6
CONTINUOUS
 90
20
 70
0
 10
161.661145468
 20
122.4392785491
 10
161.6792572616
 20
122.4411288414
 10
161.698466478
 20
122.4432199787
 10
161.7186450724
 20
122.4455923892
 10
161.739105203
 20
122.4482066416
 10
161.759495061
 20
122.4510494777
 10
161.7798984388
 20
122.4541658888
 10
161.8002034915
 20
122.4575711483
 10
161.8201392258
 20
122.4612486109
 10
161.8395366546
 20
122.4651788452
 10
161.8584034955
 20
122.4693683763
 10
161.8766301907
 20
122.4737913402
 10
161.8941339718
 20
122.4784241104
 10
161.9110170383
 20
122.4832923626
 10
161.9272192464
 20
122.4883708313
 10
161.94266388
 20
122.4936114069
 10
161.9574304788
 20
122.4990216618
 10
161.9715163143
 20
122.5045878733
 10
161.9848569425
 20
122.51026646
 10
161.997443451
 20
122.5160313653
  0
LWPOLYLINE
  5
402
100
AcDbEntity
  8
RACCORDO
100
AcDbPolyline
 62
250
  6
CONTINUOUS
 90
5
 70
0
 10
161.5876385776
 20
122.43262332
 10
161.6003080841
 20
122.4336453241
 10
161.6138512846
 20
122.4348084568
 10
161.628371183
 20
122.4361225675
 10
161.661145468
 20
122.4392785491
  0
LWPOLYLINE
  5
403
100
AcDbEntity
  8
RACCORDO
100
AcDbPolyline
 62
250
  6
CONTINUOUS
 90
10
 70
0
 10
125.9924267644
 20
133.3697020545
 10
125.9369239336
 20
133.3997098532
 10
125.8879876621
 20
133.4311119043
 10
125.8461422945
 20
133.4635717396
 10
125.8118361977
 20
133.4967415567
 10
125.7854369564
 20
133.5302659461
 10
125.7672274344
 20
133.5637856986
 10
125.757402744
 20
133.596941655
 10
125.7560681554
 20
133.6293785543
 10
125.7565799941
 20
133.6339904591
  0
LWPOLYLINE
  5
404
100
AcDbEntity
  8
ASSI
100
AcDbPolyline
 62
250
  6
CONTINUOUS
 90
10
 70
0
 10
125.9924267644
 20
133.3697020545
 10
125.9369239336
 20
133.3997098532
 10
125.8879876621
 20
133.4311119043
 10
125.8461422945
 20
133.4635717396
 10
125.8118361977
 20
133.4967415567
 10
125.7854369564
 20
133.5302659461
 10
125.7672274344
 20
133.5637856986
 10
125.757402744
 20
133.596941655
 10
125.7560681554
 20
133.6293785543
 10
125.7565230748
 20
133.6335482638
  0
LWPOLYLINE
  5
405
100
AcDbEntity
  8
RACCORDO
100
AcDbPolyline
 62
250
  6
CONTINUOUS
 90
7
 70
0
 10
159.4293508174
 20
82.8921146751
 10
159.4314896021
 20
82.8757989011
 10
159.4378693608
 20
82.8597622945
 10
159.4483809343
 20
82.8442792461
 10
159.4628444664
 20
82.8296146751
 10
159.4810124823
 20
82.8160194965
 10
159.5025741221
 20
82.8037263275
  0
LWPOLYLINE
  5
406
100
AcDbEntity
  8
RACCORDO
100
AcDbPolyline
 62
250
  6
CONTINUOUS
 90
7
 70
0
 10
159.4293509757
 20
82.5406600105
 10
159.4313882868
 20
82.5248744401
 10
159.4377141484
 20
82.5087393548
 10
159.4482162984
 20
82.4931644928
 10
159.4627068375
 20
82.478420045
 10
159.4809322649
 20
82.4647578237
 10
159.5025741221
 20
82.4524123554
  0
LINE
  5
407
100
AcDbEntity
  8
RACCORDO
100
AcDbLine
 62
7
  6
CONTINUOUS
 10
159.3485561395
 20
93.3191477435
 11
159.875971704
 21
88.4032236964
  0
LINE
  5
408
100
AcDbEntity
  8
21814000
100
AcDbLine
 62
7
  6
CONTINUOUS
 10
157.133873983
 20
138.4784393226
 11
157.133873983
 21
138.0705880553
  0
LINE
  5
409
100
AcDbEntity
  8
RACCORDO
100
AcDbLine
 62
250
  6
CONTINUOUS
 10
157.31257358
 20
126.22059345
 11
157.31257358
 21
125.0232744144
  0
LINE
  5
40A
100
AcDbEntity
  8
RACCORDO
100
AcDbLine
 62
250
  6
CONTINUOUS
 10
158.0217108071
 20
126.2216145372
 11
158.0217108071
 21
125.0166937045
  0
LINE
  5
40B
100
AcDbEntity
  8
RACCORDO
100
AcDbLine
 62
7
  6
CONTINUOUS
 10
158.4419139503
 20
131.5868715937
 11
158.4419139503
 21
130.6865164931
  0
LWPOLYLINE
  5
40C
100
AcDbEntity
  8
RACCORDO
100
AcDbPolyline
 62
250
  6
CONTINUOUS
 90
6
 70
0
 10
162.6471159165
 20
123.5886374963
 10
162.635260945
 20
123.5477507142
 10
162.6259790214
 20
123.5072268337
 10
162.6193609528
 20
123.4673502563
 10
162.6153159321
 20
123.4278365803
 10
162.6138439593
 20
123.3886858059
  0
LWPOLYLINE
  5
40D
100
AcDbEntity
  8
RACCORDO
100
AcDbPolyline
 62
250
  6
CONTINUOUS
 90
3
 70
0
 10
162.677761109
 20
123.6689274492
 10
162.6612715147
 20
123.6290339749
 10
162.6471159165
 20
123.5886374963
  0
LINE
  5
40E
100
AcDbEntity
  8
RACCORDO
100
AcDbLine
 62
250
  6
CONTINUOUS
 10
162.8635266352
 20
123.0066403761
 11
162.8720213235
 21
123.0258593984
  0
LWPOLYLINE
  5
40F
100
AcDbEntity
  8
RACCORDO
100
AcDbPolyline
 62
250
  6
CONTINUOUS
 90
4
 70
0
 10
160.1200988206
 20
123.4574691365
 10
160.1368326749
 20
123.4592640863
 10
160.1523932305
 20
123.4642484113
 10
160.1546036594
 20
123.465263852
  0
LWPOLYLINE
  5
410
100
AcDbEntity
  8
RACCORDO
100
AcDbPolyline
 62
250
  6
CONTINUOUS
 90
16
 70
0
 10
155.8881933388
 20
118.4218300303
 10
155.9496438895
 20
118.3933610499
 10
156.0164076997
 20
118.3669128341
 10
156.0877694186
 20
118.3427687662
 10
156.1629644304
 20
118.3211875414
 10
156.2411870471
 20
118.3024003949
 10
156.3215991407
 20
118.2866086238
 10
156.403339124
 20
118.2739814314
 10
156.4855311818
 20
118.2646541136
 10
156.5672946551
 20
118.2587266093
 10
156.647753477
 20
118.2562624296
 10
156.7260455596
 20
118.2572879772
 10
156.8013320307
 20
118.2617922639
 10
156.8728062223
 20
118.2697270278
 10
156.9397023136
 20
118.2810072506
 10
157.0013035365
 20
118.2955120689
  0
LWPOLYLINE
  5
411
100
AcDbEntity
  8
ASSI
100
AcDbPolyline
 62
250
  6
CONTINUOUS
 90
16
 70
0
 10
155.8881933388
 20
118.4218300303
 10
155.9496438895
 20
118.3933610499
 10
156.0164076997
 20
118.3669128341
 10
156.0877694186
 20
118.3427687662
 10
156.1629644304
 20
118.3211875414
 10
156.2411870471
 20
118.3024003949
 10
156.3215991407
 20
118.2866086238
 10
156.403339124
 20
118.2739814314
 10
156.4855311818
 20
118.2646541136
 10
156.5672946551
 20
118.2587266093
 10
156.647753477
 20
118.2562624296
 10
156.7260455596
 20
118.2572879772
 10
156.8013320307
 20
118.2617922639
 10
156.8728062223
 20
118.2697270278
 10
156.9397023136
 20
118.2810072506
 10
157.0013035365
 20
118.2955120689
  0
LINE
  5
412
100
AcDbEntity
  8
RACCORDO
100
AcDbLine
 62
250
  6
CONTINUOUS
 10
125.9924267397
 20
133.3697020474
 11
155.8881790016
 21
118.4218259165
  0
LINE
  5
413
100
AcDbEntity
  8
ASSI
100
AcDbLine
 62
250
  6
CONTINUOUS
 10
125.9924267397
 20
133.3697020474
 11
155.8881790016
 21
118.4218259165
  0
LWPOLYLINE
  5
414
100
AcDbEntity
  8
RACCORDO
100
AcDbPolyline
 62
250
  6
CONTINUOUS
 90
7
 70
0
 10
149.4263024902
 20
130.5342332358
 10
149.4363271355
 20
130.5162842465
 10
149.4431555581
 20
130.5001547186
 10
149.4466709218
 20
130.4861206327
 10
149.4468130776
 20
130.4744221159
 10
149.4435795934
 20
130.465259333
 10
149.442044833
 20
130.4631335902
  0
LWPOLYLINE
  5
415
100
AcDbEntity
  8
RACCORDO
100
AcDbPolyline
 62
7
  6
CONTINUOUS
 90
6
 70
0
 10
149.3328312847
 20
129.790238611
 10
149.3297326431
 20
129.7962123124
 10
149.3266062285
 20
129.8045285393
 10
149.324051565
 20
129.8152100283
 10
149.3227885147
 20
129.8277299777
 10
149.3227435274
 20
129.8307580974
  0
LWPOLYLINE
  5
416
100
AcDbEntity
  8
RACCORDO
100
AcDbPolyline
 62
250
  6
CONTINUOUS
 90
7
 70
0
 10
160.1364575986
 20
83.9956680657
 10
160.1385963832
 20
83.9793522917
 10
160.144976142
 20
83.9633156851
 10
160.1554877155
 20
83.9478326367
 10
160.1699512476
 20
83.9331680657
 10
160.1881192635
 20
83.9195728871
 10
160.2096809033
 20
83.9072797181
  0
LINE
  5
417
100
AcDbEntity
  8
DRAFT
100
AcDbLine
 62
7
  6
CONTINUOUS
 10
160.3979238218
 20
102.0866147318
 11
162.1605747929
 21
85.6573341457
  0
LWPOLYLINE
  5
418
100
AcDbEntity
  8
RACCORDO
100
AcDbPolyline
 62
250
  6
CONTINUOUS
 90
3
 70
0
 10
163.3414837736
 20
83.3198521978
 10
163.3382877742
 20
83.3515651738
 10
163.3317541683
 20
83.382065131
  0
LWPOLYLINE
  5
419
100
AcDbEntity
  8
RACCORDO
100
AcDbPolyline
 62
7
  6
CONTINUOUS
 90
10
 70
0
 10
159.4293508174
 20
124.1917188145
 10
159.4316180677
 20
124.1581310278
 10
159.4384556037
 20
124.124866177
 10
159.4498162541
 20
124.0926537638
 10
159.4655248233
 20
124.0621872521
 10
159.485256578
 20
124.0341516234
 10
159.5085967411
 20
124.009118033
 10
159.5351349021
 20
123.987509079
 10
159.5644285335
 20
123.9696993603
 10
159.5678659572
 20
123.9679535023
  0
LWPOLYLINE
  5
41A
100
AcDbEntity
  8
RACCORDO
100
AcDbPolyline
 62
250
  6
CONTINUOUS
 90
8
 70
0
 10
160.1364575994
 20
123.4913667137
 10
160.136812972
 20
123.4849649933
 10
160.1395385653
 20
123.4725062681
 10
160.144935335
 20
123.4601771435
 10
160.1529534906
 20
123.448124002
 10
160.1635393289
 20
123.4364476505
 10
160.1766110019
 20
123.425272371
 10
160.1920412952
 20
123.4147414749
  0
LWPOLYLINE
  5
41B
100
AcDbEntity
  8
RACCORDO
100
AcDbPolyline
 62
7
  6
CONTINUOUS
 90
15
 70
0
 10
158.4419139503
 20
131.5868715937
 10
158.4411301173
 20
131.6149992494
 10
158.4388656409
 20
131.6420258737
 10
158.4351205211
 20
131.6679514665
 10
158.4298661218
 20
131.6928773258
 10
158.4231310792
 20
131.7167021536
 10
158.4150013009
 20
131.739122056
 10
158.4054589208
 20
131.7601190361
 10
158.394521805
 20
131.7797110907
 10
158.3823294603
 20
131.7976483164
 10
158.3688658075
 20
131.813909515
 10
158.3541469258
 20
131.8285158848
 10
158.3383605597
 20
131.8412811162
 10
158.3214930349
 20
131.8521816248
 10
158.3119573926
 20
131.85729409
  0
LINE
  5
41C
100
AcDbEntity
  8
RACCORDO
100
AcDbLine
 62
250
  6
CONTINUOUS
 10
159.4293508174
 20
82.5408006908
 11
159.4293509757
 21
82.5406600105
  0
LINE
  5
41D
100
AcDbEntity
  8
RACCORDO
100
AcDbLine
 62
7
  6
CONTINUOUS
 10
159.4293508174
 20
82.540800703
 11
159.4293508174
 21
82.8921146751
  0
LINE
  5
41E
100
AcDbEntity
  8
RACCORDO
100
AcDbLine
 62
7
  6
CONTINUOUS
 10
159.4293508174
 20
124.1917188145
 11
159.4293508174
 21
124.5430327866
  0
LINE
  5
41F
100
AcDbEntity
  8
RACCORDO
100
AcDbLine
 62
250
  6
CONTINUOUS
 10
159.5025741221
 20
82.4524123554
 11
159.5025741221
 21
82.8037263275
  0
LINE
  5
420
100
AcDbEntity
  8
RACCORDO
100
AcDbLine
 62
250
  6
CONTINUOUS
 10
159.5025741221
 20
124.1033304668
 11
159.5025741221
 21
124.4546444389
  0
LINE
  5
421
100
AcDbEntity
  8
RACCORDO
100
AcDbLine
 62
7
  6
CONTINUOUS
 10
160.1364575986
 20
83.9956680657
 11
160.1364575986
 21
84.0609379454
  0
LINE
  5
422
100
AcDbEntity
  8
RACCORDO
100
AcDbLine
 62
7
  6
CONTINUOUS
 10
160.1364575986
 20
123.4913186024
 11
160.1364575986
 21
123.6836569267
  0
LINE
  5
423
100
AcDbEntity
  8
RACCORDO
100
AcDbLine
 62
250
  6
CONTINUOUS
 10
160.2096809033
 20
83.9072797181
 11
160.2096809033
 21
84.0243262931
  0
LINE
  5
424
100
AcDbEntity
  8
RACCORDO
100
AcDbLine
 62
250
  6
CONTINUOUS
 10
160.2096809033
 20
123.4049803977
 11
160.2096809033
 21
123.6470452744
  0
LINE
  5
425
100
AcDbEntity
  8
RACCORDO
100
AcDbLine
 62
250
  6
CONTINUOUS
 10
160.8460770064
 20
123.7828929968
 11
160.8460770064
 21
123.4315790247
  0
LINE
  5
426
100
AcDbEntity
  8
RACCORDO
100
AcDbLine
 62
250
  6
CONTINUOUS
 10
160.8460770064
 20
82.1319748853
 11
160.8460770064
 21
81.7806609133
  0
LINE
  5
427
100
AcDbEntity
  8
RACCORDO
100
AcDbLine
 62
7
  6
CONTINUOUS
 10
160.9167876845
 20
130.6740095865
 11
160.9167876845
 21
130.4788966415
  0
LWPOLYLINE
  5
428
100
AcDbEntity
  8
RACCORDO
100
AcDbPolyline
 62
7
  6
CONTINUOUS
 90
6
 70
0
 10
160.1364620128
 20
123.4915501448
 10
160.1362525377
 20
123.4851949134
 10
160.1345840636
 20
123.4729403122
 10
160.13174015
 20
123.4625454602
 10
160.12842622
 20
123.4544956114
 10
160.1260718178
 20
123.4501150172
  0
LWPOLYLINE
  5
429
100
AcDbEntity
  8
RACCORDO
100
AcDbPolyline
 62
250
  6
CONTINUOUS
 90
10
 70
0
 10
159.5025741221
 20
82.8037263275
 10
159.5037330874
 20
82.8290569589
 10
159.5072186994
 20
82.8553517697
 10
159.5130203888
 20
82.8822726004
 10
159.5211109574
 20
82.909510133
 10
159.5314062724
 20
82.936648172
 10
159.5437296043
 20
82.9631756993
 10
159.5578865405
 20
82.9886868409
 10
159.5737028571
 20
83.0128786056
 10
159.5909624697
 20
83.0354205013
  0
LWPOLYLINE
  5
42A
100
AcDbEntity
  8
21814000
100
AcDbPolyline
 62
250
  6
CONTINUOUS
 90
10
 70
0
 10
162.655980283
 20
134.8135511343
 10
162.65327393
 20
134.778679545
 10
162.6439237175
 20
134.7401405474
 10
162.6279649653
 20
134.7021479097
 10
162.6055164468
 20
134.6649843931
 10
162.5767452357
 20
134.628926588
 10
162.5418654623
 20
134.5942428553
 10
162.5011367202
 20
134.5611913296
 10
162.4548621339
 20
134.5300179977
 10
162.4033861033
 20
134.5009548676
  0
LINE
  5
42B
100
AcDbEntity
  8
RACCORDO
100
AcDbLine
 62
7
  6
CONTINUOUS
 10
161.5922722228
 20
120.5862867907
 11
158.5100910682
 21
83.1295592051
  0
LINE
  5
42C
100
AcDbEntity
  8
ASSI
100
AcDbLine
 62
7
  6
CONTINUOUS
 10
161.5922722228
 20
120.5862867907
 11
158.5100910682
 21
83.1295592051
  0
LWPOLYLINE
  5
42D
100
AcDbEntity
  8
RACCORDO
100
AcDbPolyline
 62
250
  6
CONTINUOUS
 90
4
 70
0
 10
162.699440104
 20
123.1184964017
 10
162.6831344007
 20
123.1205006532
 10
162.6680356417
 20
123.1256012497
 10
162.6658225964
 20
123.126662875
  0
LINE
  5
42E
100
AcDbEntity
  8
RACCORDO
100
AcDbLine
 62
7
  6
CONTINUOUS
 10
160.9721529491
 20
123.2751624833
 11
161.502483035
 21
123.1653275263
  0
LINE
  5
42F
100
AcDbEntity
  8
RACCORDO
100
AcDbLine
 62
250
  6
CONTINUOUS
 10
161.1996303969
 20
123.4315790247
 11
161.7299604828
 21
123.3217440677
  0
LWPOLYLINE
  5
430
100
AcDbEntity
  8
RACCORDO
100
AcDbPolyline
 62
250
  6
CONTINUOUS
 90
7
 70
0
 10
127.121419391
 20
135.0144988739
 10
127.0610111891
 20
135.0397358821
 10
127.0007246963
 20
135.0568674311
 10
126.9412201807
 20
135.0657059252
 10
126.8831493301
 20
135.0661545961
 10
126.82714815
 20
135.0582085608
 10
126.7694142468
 20
135.0401845065
  0
LWPOLYLINE
  5
431
100
AcDbEntity
  8
ASSI
100
AcDbPolyline
 62
250
  6
CONTINUOUS
 90
7
 70
0
 10
127.121419391
 20
135.0144988739
 10
127.0610111891
 20
135.0397358821
 10
127.0007246963
 20
135.0568674311
 10
126.9412201807
 20
135.0657059252
 10
126.8831493301
 20
135.0661545961
 10
126.82714815
 20
135.0582085608
 10
126.7694142468
 20
135.0401845065
  0
LINE
  5
432
100
AcDbEntity
  8
RACCORDO
100
AcDbLine
 62
250
  6
CONTINUOUS
 10
127.121419391
 20
135.0144988739
 11
157.0341106839
 21
120.0581532274
  0
LINE
  5
433
100
AcDbEntity
  8
ASSI
100
AcDbLine
 62
250
  6
CONTINUOUS
 10
127.121419391
 20
135.0144988739
 11
157.0341106839
 21
120.0581532274
  0
LWPOLYLINE
  5
434
100
AcDbEntity
  8
RACCORDO
100
AcDbPolyline
 62
250
  6
CONTINUOUS
 90
16
 70
0
 10
157.0341106839
 20
120.0581532274
 10
157.0919228244
 20
120.0242801769
 10
157.1485618463
 20
119.9829492519
 10
157.203407441
 20
119.9346131072
 10
157.2558589415
 20
119.8798011184
 10
157.3053419007
 20
119.8191135846
 10
157.3513143835
 20
119.7532151536
 10
157.3932729009
 20
119.6828275428
 10
157.4307579247
 20
119.6087216347
 10
157.4633589201
 20
119.5317090346
 10
157.4907188423
 20
119.4526331818
 10
157.5125380463
 20
119.3723601122
 10
157.528577569
 20
119.2917689736
 10
157.5386617462
 20
119.2117423974
 10
157.5426801363
 20
119.1331568318
 10
157.5405887299
 20
119.0568729431
  0
LWPOLYLINE
  5
435
100
AcDbEntity
  8
ASSI
100
AcDbPolyline
 62
250
  6
CONTINUOUS
 90
16
 70
0
 10
157.0341106839
 20
120.0581532274
 10
157.0919228244
 20
120.0242801769
 10
157.1485618463
 20
119.9829492519
 10
157.203407441
 20
119.9346131072
 10
157.2558589415
 20
119.8798011184
 10
157.3053419007
 20
119.8191135846
 10
157.3513143835
 20
119.7532151536
 10
157.3932729009
 20
119.6828275428
 10
157.4307579247
 20
119.6087216347
 10
157.4633589201
 20
119.5317090346
 10
157.4907188423
 20
119.4526331818
 10
157.5125380463
 20
119.3723601122
 10
157.528577569
 20
119.2917689736
 10
157.5386617462
 20
119.2117423974
 10
157.5426801363
 20
119.1331568318
 10
157.5405887299
 20
119.0568729431
  0
LWPOLYLINE
  5
436
100
AcDbEntity
  8
RACCORDO
100
AcDbPolyline
 62
250
  6
CONTINUOUS
 90
6
 70
0
 10
149.9566325761
 20
131.1743982787
 10
149.9665962096
 20
131.1565725403
 10
149.9734221714
 20
131.1405042916
 10
149.9769732301
 20
131.1264787139
 10
149.9771656092
 20
131.1147413745
 10
149.9739696098
 20
131.1055207039
  0
LWPOLYLINE
  5
437
100
AcDbEntity
  8
RACCORDO
100
AcDbPolyline
 62
250
  6
CONTINUOUS
 90
7
 70
0
 10
159.4293508174
 20
124.5430327988
 10
159.4316525617
 20
124.5261096211
 10
159.4382573219
 20
124.5099649531
 10
159.4489635062
 20
124.4945000996
 10
159.4634649591
 20
124.479998478
 10
159.4814589021
 20
124.4666475952
 10
159.5025741221
 20
124.4546444389
  0
LWPOLYLINE
  5
438
100
AcDbEntity
  8
RACCORDO
100
AcDbPolyline
 62
250
  6
CONTINUOUS
 90
7
 70
0
 10
159.4293508174
 20
124.1917188145
 10
159.4314896021
 20
124.1754030405
 10
159.4378693608
 20
124.1593664339
 10
159.4483809343
 20
124.1438833854
 10
159.4628444664
 20
124.1292188145
 10
159.4810124823
 20
124.1156236359
 10
159.5025741221
 20
124.1033304668
  0
LWPOLYLINE
  5
439
100
AcDbEntity
  8
RACCORDO
100
AcDbPolyline
 62
7
  6
CONTINUOUS
 90
5
 70
0
 10
163.3941740452
 20
83.2810234048
 10
163.3919067949
 20
83.3146111914
 10
163.3850692589
 20
83.3478760423
 10
163.3737086085
 20
83.3800884554
 10
163.3580000393
 20
83.4105549671
  0
LWPOLYLINE
  5
43A
100
AcDbEntity
  8
RACCORDO
100
AcDbPolyline
 62
250
  6
CONTINUOUS
 90
8
 70
0
 10
161.5531837875
 20
123.0351324153
 10
161.5519884868
 20
123.0596696181
 10
161.5484187488
 20
123.0826796966
 10
161.5425228483
 20
123.1038514789
 10
161.5343805172
 20
123.122898653
 10
161.5241018665
 20
123.1395636384
 10
161.5118258973
 20
123.15362107
 10
161.4977186212
 20
123.164880845
  0
LWPOLYLINE
  5
43B
100
AcDbEntity
  8
RACCORDO
100
AcDbPolyline
 62
250
  6
CONTINUOUS
 90
13
 70
0
 10
162.6138439593
 20
83.5890816665
 10
162.6153064444
 20
83.5514740389
 10
162.6193377238
 20
83.5160611376
 10
162.6259377976
 20
83.4828429624
 10
162.6351927957
 20
83.4516260632
 10
162.6470165881
 20
83.4226038901
 10
162.6611507851
 20
83.3963567941
 10
162.6776328503
 20
83.3729242077
 10
162.69642532
 20
83.3522666984
 10
162.7171574134
 20
83.334846319
 10
162.7397055368
 20
83.3208170874
 10
162.7641932839
 20
83.3100249857
 10
162.7906206546
 20
83.3024700142
  0
LWPOLYLINE
  5
43C
100
AcDbEntity
  8
RACCORDO
100
AcDbPolyline
 62
250
  6
CONTINUOUS
 90
13
 70
0
 10
161.9067371781
 20
123.0351324153
 10
161.9052746931
 20
123.0727400429
 10
161.9012434136
 20
123.1081529443
 10
161.8946433399
 20
123.1413711194
 10
161.8853883418
 20
123.1725880187
 10
161.8735645493
 20
123.2016101917
 10
161.8594303523
 20
123.2278572877
 10
161.8429482871
 20
123.2512898741
 10
161.8241558174
 20
123.2719473835
 10
161.803423724
 20
123.2893677628
 10
161.7808756006
 20
123.3033969945
 10
161.7563878536
 20
123.3141890961
 10
161.7299604828
 20
123.3217440677
  0
LWPOLYLINE
  5
43D
100
AcDbEntity
  8
21814000
100
AcDbPolyline
 62
7
  6
CONTINUOUS
 90
10
 70
0
 10
162.655980283
 20
134.8135511343
 10
162.6521753869
 20
134.9274888307
 10
162.6410292978
 20
135.0407530277
 10
162.6228909727
 20
135.1531403011
 10
162.5979358716
 20
135.2648770779
 10
162.5663888721
 20
135.3755092454
 10
162.5287676059
 20
135.4838156345
 10
162.4854663705
 20
135.5892996055
 10
162.4365135888
 20
135.6922264861
 10
162.3819815433
 20
135.7924708958
  0
LWPOLYLINE
  5
43E
100
AcDbEntity
  8
RACCORDO
100
AcDbPolyline
 62
7
  6
CONTINUOUS
 90
6
 70
0
 10
162.687067264
 20
83.6774700142
 10
162.6875406081
 20
83.6616523641
 10
162.6888136452
 20
83.6480327183
 10
162.690634564
 20
83.6367602943
 10
162.6927244019
 20
83.627888803
 10
162.6943832356
 20
83.6225355567
  0
LWPOLYLINE
  5
43F
100
AcDbEntity
  8
RACCORDO
100
AcDbPolyline
 62
7
  6
CONTINUOUS
 90
15
 70
0
 10
160.9167876845
 20
130.6740095865
 10
160.9152558029
 20
130.7296413343
 10
160.9108266197
 20
130.7831266439
 10
160.9035001348
 20
130.8344655154
 10
160.8932215562
 20
130.8838544069
 10
160.8800456759
 20
130.9310968602
 10
160.8641368699
 20
130.975603501
 10
160.8454609013
 20
131.0173400559
 10
160.824052007
 20
131.0563407982
 10
160.8001772742
 20
131.0921191732
 10
160.7738058119
 20
131.1246348122
 10
160.7449685112
 20
131.1539280838
 10
160.7140251326
 20
131.1796335392
 10
160.6809492918
 20
131.2017062314
 10
160.6568591841
 20
131.2148651029
  0
LINE
  5
440
100
AcDbEntity
  8
RACCORDO
100
AcDbLine
 62
7
  6
CONTINUOUS
 10
162.6872031813
 20
123.1433272771
 11
162.687062738
 21
123.1485375672
  0
LINE
  5
441
100
AcDbEntity
  8
RACCORDO
100
AcDbLine
 62
250
  6
CONTINUOUS
 10
161.1996303969
 20
123.7828929968
 11
161.1996303969
 21
123.4315790247
  0
LINE
  5
442
100
AcDbEntity
  8
RACCORDO
100
AcDbLine
 62
250
  6
CONTINUOUS
 10
161.1996303969
 20
82.1319748853
 11
161.1996303969
 21
81.7806609133
  0
LINE
  5
443
100
AcDbEntity
  8
21814000
100
AcDbLine
 62
250
  6
CONTINUOUS
 10
161.5089435984
 20
130.1828186845
 11
161.5089435984
 21
130.5835871735
  0
LINE
  5
444
100
AcDbEntity
  8
RACCORDO
100
AcDbLine
 62
250
  6
CONTINUOUS
 10
161.5531837875
 20
123.0351324153
 11
161.5531837875
 21
122.7332289555
  0
LINE
  5
445
100
AcDbEntity
  8
RACCORDO
100
AcDbLine
 62
250
  6
CONTINUOUS
 10
161.5531837875
 20
83.4456206772
 11
161.5531837875
 21
83.2355282759
  0
LINE
  5
446
100
AcDbEntity
  8
RACCORDO
100
AcDbLine
 62
7
  6
CONTINUOUS
 10
161.6929326985
 20
121.7078940318
 11
161.6929326985
 21
121.6820243939
  0
LINE
  5
447
100
AcDbEntity
  8
RACCORDO
100
AcDbLine
 62
7
  6
CONTINUOUS
 10
161.6929326985
 20
83.7159109672
 11
161.6929326985
 21
83.7417806051
  0
LINE
  5
448
100
AcDbEntity
  8
21814000
100
AcDbLine
 62
250
  6
CONTINUOUS
 10
161.8366619779
 20
131.1481559972
 11
161.8366619779
 21
131.7950198161
  0
LINE
  5
449
100
AcDbEntity
  8
RACCORDO
100
AcDbLine
 62
250
  6
CONTINUOUS
 10
161.9067371781
 20
123.0351324153
 11
161.9067371781
 21
122.7264265172
  0
LINE
  5
44A
100
AcDbEntity
  8
RACCORDO
100
AcDbLine
 62
250
  6
CONTINUOUS
 10
161.9067371781
 20
83.544234174
 11
161.9067371781
 21
83.2355282759
  0
LINE
  5
44B
100
AcDbEntity
  8
DRAFT
100
AcDbLine
 62
7
  6
CONTINUOUS
 10
162.1605747929
 20
121.8387052977
 11
162.1605747929
 21
120.2180675745
  0
LINE
  5
44C
100
AcDbEntity
  8
DRAFT
100
AcDbLine
 62
7
  6
CONTINUOUS
 10
162.1605747929
 20
85.6573341457
 11
162.1605747929
 21
84.0366964225
  0
LINE
  5
44D
100
AcDbEntity
  8
21814000
100
AcDbLine
 62
250
  6
CONTINUOUS
 10
162.4033861033
 20
134.5009548676
 11
162.4033861033
 21
130.5260625631
  0
LINE
  5
44E
100
AcDbEntity
  8
RACCORDO
100
AcDbLine
 62
250
  6
CONTINUOUS
 10
162.6138439593
 20
83.5890816665
 11
162.6138439593
 21
83.9129040943
  0
LINE
  5
44F
100
AcDbEntity
  8
RACCORDO
100
AcDbLine
 62
250
  6
CONTINUOUS
 10
162.6138439593
 20
123.0648633781
 11
162.6138439593
 21
123.3886858059
  0
LINE
  5
450
100
AcDbEntity
  8
21814000
100
AcDbLine
 62
7
  6
CONTINUOUS
 10
162.655980283
 20
134.8135511343
 11
162.655980283
 21
131.4078656877
  0
LINE
  5
451
100
AcDbEntity
  8
RACCORDO
100
AcDbLine
 62
7
  6
CONTINUOUS
 10
162.687067264
 20
83.6774700142
 11
162.687067264
 21
83.9795252736
  0
LINE
  5
452
100
AcDbEntity
  8
RACCORDO
100
AcDbLine
 62
7
  6
CONTINUOUS
 10
162.6870672632
 20
123.148451319
 11
162.687067264
 21
123.4770741535
  0
LINE
  5
453
100
AcDbEntity
  8
RACCORDO
100
AcDbLine
 62
250
  6
CONTINUOUS
 10
163.3209507405
 20
124.8435531686
 11
163.3209507405
 21
124.4922391965
  0
LINE
  5
454
100
AcDbEntity
  8
RACCORDO
100
AcDbLine
 62
250
  6
CONTINUOUS
 10
163.3209507405
 20
83.1926350571
 11
163.3209507405
 21
82.841321085
  0
LINE
  5
455
100
AcDbEntity
  8
RACCORDO
100
AcDbLine
 62
7
  6
CONTINUOUS
 10
163.3941740452
 20
124.9319415162
 11
163.3941740452
 21
124.5806275441
  0
LINE
  5
456
100
AcDbEntity
  8
RACCORDO
100
AcDbLine
 62
7
  6
CONTINUOUS
 10
163.3941740452
 20
83.2810234048
 11
163.3941740452
 21
82.9297094327
  0
LINE
  5
457
100
AcDbEntity
  8
21814000
100
AcDbLine
 62
7
  6
CONTINUOUS
 10
162.6559801328
 20
131.406847185
 11
162.655980045
 21
131.4065996049
  0
LINE
  5
458
100
AcDbEntity
  8
RACCORDO
100
AcDbLine
 62
250
  6
CONTINUOUS
 10
163.3941740452
 20
82.9297094205
 11
163.3941738869
 21
82.9295687401
  0
LWPOLYLINE
  5
459
100
AcDbEntity
  8
21814000
100
AcDbPolyline
 62
250
  6
CONTINUOUS
 90
29
 70
0
 10
162.655980045
 20
131.4065996049
 10
162.6556516742
 20
131.3631452975
 10
162.6544453582
 20
131.3114193481
 10
162.6524143996
 20
131.2611022376
 10
162.6496080455
 20
131.2122027241
 10
162.6460788418
 20
131.1647371697
 10
162.6418779021
 20
131.1187068198
 10
162.637028641
 20
131.074096951
 10
162.6315725847
 20
131.0309227405
 10
162.6255461917
 20
130.9891812572
 10
162.6189399361
 20
130.9488317714
 10
162.6117769211
 20
130.9098469043
 10
162.6040829678
 20
130.8722651826
 10
162.5958276947
 20
130.8361475241
 10
162.5870190802
 20
130.8014480394
 10
162.577675124
 20
130.7682253175
 10
162.5677612258
 20
130.7367002914
 10
162.5572799951
 20
130.7068419959
 10
162.5462408578
 20
130.6786965485
 10
162.5346057295
 20
130.6526037899
 10
162.5223624182
 20
130.6285466925
 10
162.5095247731
 20
130.6065610529
 10
162.4960874788
 20
130.5870680041
 10
162.4820380195
 20
130.5701309501
 10
162.4673924655
 20
130.5557064112
 10
162.4521923294
 20
130.5440541331
 10
162.4364584858
 20
130.5352656005
 10
162.4201868328
 20
130.5292656652
 10
162.4033861033
 20
130.5260625631
  0
LWPOLYLINE
  5
45A
100
AcDbEntity
  8
RACCORDO
100
AcDbPolyline
 62
250
  6
CONTINUOUS
 90
10
 70
0
 10
162.2179830651
 20
83.943852587
 10
162.2170542824
 20
83.9012019401
 10
162.2125371062
 20
83.8608560418
 10
162.2044783304
 20
83.8232328391
 10
162.1929614366
 20
83.788722074
 10
162.1781057294
 20
83.7576812467
 10
162.1600651003
 20
83.7304319121
 10
162.1390264339
 20
83.7072563484
 10
162.1152076717
 20
83.6883946335
 10
162.0983498902
 20
83.6785420251
  0
LWPOLYLINE
  5
45B
100
AcDbEntity
  8
RACCORDO
100
AcDbPolyline
 62
250
  6
CONTINUOUS
 90
10
 70
0
 10
162.9372860507
 20
84.3115578607
 10
162.9362839573
 20
84.2680021972
 10
162.9315378976
 20
84.2268618004
 10
162.9230991967
 20
84.1885814568
 10
162.9110590989
 20
84.1535750311
 10
162.8955477818
 20
84.1222209912
 10
162.8767329486
 20
84.0948583171
 10
162.8548180154
 20
84.0717828359
 10
162.8300399123
 20
84.0532440235
 10
162.8175760627
 20
84.0462058878
  0
LWPOLYLINE
  5
45C
100
AcDbEntity
  8
RACCORDO
100
AcDbPolyline
 62
250
  6
CONTINUOUS
 90
10
 70
0
 10
161.9286788385
 20
83.834689084
 10
161.9274362692
 20
83.7907357449
 10
161.9224013597
 20
83.7492346248
 10
161.9136293491
 20
83.7106404802
 10
161.9012164676
 20
83.6753762342
 10
161.8852987492
 20
83.6438282689
 10
161.8660505376
 20
83.616342195
 10
161.8436827888
 20
83.5932191825
 10
161.8184406524
 20
83.5747125974
 10
161.8063656994
 20
83.5680217457
  0
LWPOLYLINE
  5
45D
100
AcDbEntity
  8
RACCORDO
100
AcDbPolyline
 62
250
  6
CONTINUOUS
 90
10
 70
0
 10
160.8460770064
 20
82.1319748853
 10
160.8472845327
 20
82.1578412769
 10
160.8508906229
 20
82.1845618623
 10
160.8568460233
 20
82.2117715976
 10
160.8650851959
 20
82.239144982
 10
160.8754870865
 20
82.2662609485
 10
160.8878411981
 20
82.2926154724
 10
160.9019250484
 20
82.3178210114
 10
160.9175431315
 20
82.3416031052
 10
160.934465354
 20
82.3636690592
  0
LINE
  5
45E
100
AcDbEntity
  8
RACCORDO
100
AcDbLine
 62
250
  6
CONTINUOUS
 10
162.6867500202
 20
123.1423964082
 11
162.6870672632
 21
123.148451319
  0
LWPOLYLINE
  5
45F
100
AcDbEntity
  8
RACCORDO
100
AcDbPolyline
 62
250
  6
CONTINUOUS
 90
8
 70
0
 10
161.1996303969
 20
81.7806609133
 10
161.1981180478
 20
81.7531573382
 10
161.1936068771
 20
81.7276367062
 10
161.1861740723
 20
81.7045356821
 10
161.1759468106
 20
81.684249531
 10
161.1631000833
 20
81.6671253545
 10
161.1478537016
 20
81.653456152
 10
161.1346571005
 20
81.6454424631
  0
LWPOLYLINE
  5
460
100
AcDbEntity
  8
RACCORDO
100
AcDbPolyline
 62
7
  6
CONTINUOUS
 90
6
 70
0
 10
159.4293508174
 20
82.8921146751
 10
159.4316180677
 20
82.9257024618
 10
159.4384556037
 20
82.9589673126
 10
159.4498162541
 20
82.9911797258
 10
159.4655248233
 20
83.0216462375
 10
159.4868145091
 20
83.051581792
  0
LINE
  5
461
100
AcDbEntity
  8
DRAFT
100
AcDbLine
 62
7
  6
CONTINUOUS
 10
162.1605747929
 20
120.2180675745
 11
160.3979238218
 21
102.0866147318
  0
LWPOLYLINE
  5
462
100
AcDbEntity
  8
RACCORDO
100
AcDbPolyline
 62
7
  6
CONTINUOUS
 90
3
 70
0
 10
163.3905593737
 20
124.5382687779
 10
163.3939787201
 20
124.5707470385
 10
163.3941740442
 20
124.5806164399
  0
LWPOLYLINE
  5
463
100
AcDbEntity
  8
RACCORDO
100
AcDbPolyline
 62
250
  6
CONTINUOUS
 90
7
 70
0
 10
163.3941740452
 20
124.931941504
 10
163.3921365758
 20
124.9160152533
 10
163.3858107142
 20
124.899880168
 10
163.3753085642
 20
124.884305306
 10
163.3608180251
 20
124.8695608582
 10
163.3425925977
 20
124.8558986369
 10
163.3209507405
 20
124.8435531686
  0
LWPOLYLINE
  5
464
100
AcDbEntity
  8
RACCORDO
100
AcDbPolyline
 62
250
  6
CONTINUOUS
 90
7
 70
0
 10
163.3941740442
 20
124.5806164399
 10
163.391982562
 20
124.5641128613
 10
163.3855304084
 20
124.5480426321
 10
163.3749563842
 20
124.5325663539
 10
163.3604806612
 20
124.5179548869
 10
163.342368658
 20
124.5044388057
 10
163.3209507405
 20
124.4922391965
  0
LINE
  5
465
100
AcDbEntity
  8
0
100
AcDbLine
 62
7
  6
CONTINUOUS
 10
160.9167876845
 20
130.4788966415
 11
159.0695167808
 21
130.1614789723
  0
LWPOLYLINE
  5
466
100
AcDbEntity
  8
21814000
100
AcDbPolyline
 62
7
  6
CONTINUOUS
 90
7
 70
0
 10
162.5111188201
 20
130.5084912394
 10
162.490146874
 20
130.5056015073
 10
162.4703815252
 20
130.5050390897
 10
162.4518227737
 20
130.5068039864
 10
162.4344706196
 20
130.5108961975
 10
162.4183250628
 20
130.5173157231
 10
162.4033861033
 20
130.5260625631
  0
LWPOLYLINE
  5
467
100
AcDbEntity
  8
RACCORDO
100
AcDbPolyline
 62
250
  6
CONTINUOUS
 90
4
 70
0
 10
160.0657914041
 20
123.4712525605
 10
160.0842716793
 20
123.4635151009
 10
160.1024779897
 20
123.4588942706
 10
160.1200988206
 20
123.4574691365
  0
LWPOLYLINE
  5
468
100
AcDbEntity
  8
RACCORDO
100
AcDbPolyline
 62
250
  6
CONTINUOUS
 90
16
 70
0
 10
161.5531837875
 20
122.7332289555
 10
161.5727908262
 20
122.7243667094
 10
161.5940766874
 20
122.7165395284
 10
161.6167904998
 20
122.7098220652
 10
161.6406529717
 20
122.7042742615
 10
161.665408208
 20
122.6999407069
 10
161.6908326027
 20
122.6968592493
 10
161.716635302
 20
122.6950538284
 10
161.7425510056
 20
122.6945335432
 10
161.7683956743
 20
122.6953150663
 10
161.7939099734
 20
122.6973952035
 10
161.8187897555
 20
122.7007560432
 10
161.8427817334
 20
122.7053890925
 10
161.8656179031
 20
122.7112583148
 10
161.8870217999
 20
122.7182956638
 10
161.9067371781
 20
122.7264265172
  0
LWPOLYLINE
  5
469
100
AcDbEntity
  8
RACCORDO
100
AcDbPolyline
 62
250
  6
CONTINUOUS
 90
7
 70
0
 10
161.4092942883
 20
122.4881055051
 10
161.4358786653
 20
122.4759002821
 10
161.4637151734
 20
122.4648786269
 10
161.4928038125
 20
122.4550405394
 10
161.5231445827
 20
122.4463860198
 10
161.554737484
 20
122.4389150679
 10
161.5875825162
 20
122.4326276838
  0
LINE
  5
46A
100
AcDbEntity
  8
DRAFT
100
AcDbLine
 62
7
  6
CONTINUOUS
 10
161.5856279384
 20
120.5055410018
 11
162.1605747929
 21
120.2180675745
  0
LINE
  5
46B
100
AcDbEntity
  8
RACCORDO
100
AcDbLine
 62
7
  6
CONTINUOUS
 10
131.0335836631
 20
136.6136723318
 11
161.0857941768
 21
121.587567075
  0
LINE
  5
46C
100
AcDbEntity
  8
ASSI
100
AcDbLine
 62
7
  6
CONTINUOUS
 10
131.0335836631
 20
136.6136723318
 11
161.0857941768
 21
121.587567075
  0
LINE
  5
46D
100
AcDbEntity
  8
26814000
100
AcDbLine
 62
7
  6
CONTINUOUS
 10
129.6980232951
 20
137.4083626939
 11
145.4665045155
 21
129.5241220837
  0
LINE
  5
46E
100
AcDbEntity
  8
DRAFT
100
AcDbLine
 62
7
  6
CONTINUOUS
 10
145.9985070467
 20
129.5292372198
 11
161.6929326985
 21
121.6820243939
  0
LINE
  5
46F
100
AcDbEntity
  8
26814000
100
AcDbLine
 62
7
  6
CONTINUOUS
 10
145.2190171421
 20
129.9753817089
 11
129.9455106685
 21
137.6121349457
  0
LINE
  5
470
100
AcDbEntity
  8
RACCORDO
100
AcDbLine
 62
7
  6
CONTINUOUS
 10
161.3392177478
 20
122.317962079
 11
146.3522219974
 21
129.8114599542
  0
LINE
  5
471
100
AcDbEntity
  8
RACCORDO
100
AcDbLine
 62
250
  6
CONTINUOUS
 10
148.0449761239
 20
129.1702645874
 11
146.7014732396
 21
129.8420160295
  0
LINE
  5
472
100
AcDbEntity
  8
RACCORDO
100
AcDbLine
 62
250
  6
CONTINUOUS
 10
160.0657914041
 20
123.1598569473
 11
161.4092942883
 21
122.4881055051
  0
LINE
  5
473
100
AcDbEntity
  8
26814000
100
AcDbLine
 62
7
  6
CONTINUOUS
 10
145.7785318267
 20
130.410288837
 11
144.1645277107
 21
131.217290895
  0
LINE
  5
474
100
AcDbEntity
  8
26814000
100
AcDbLine
 62
7
  6
CONTINUOUS
 10
132.4142136623
 20
137.0924479192
 11
130.8002095463
 21
137.8994499772
  0
LINE
  5
475
100
AcDbEntity
  8
RACCORDO
100
AcDbLine
 62
250
  6
CONTINUOUS
 10
148.1888656231
 20
129.4153880378
 11
146.8453627389
 21
130.0871394799
  0
LINE
  5
476
100
AcDbEntity
  8
RACCORDO
100
AcDbLine
 62
250
  6
CONTINUOUS
 10
160.2096809033
 20
123.4049803977
 11
161.5531837875
 21
122.7332289555
  0
LINE
  5
477
100
AcDbEntity
  8
26814000
100
AcDbLine
 62
7
  6
CONTINUOUS
 10
135.7466695431
 20
135.783552214
 11
141.5391786111
 21
132.88729768
  0
LINE
  5
478
100
AcDbEntity
  8
RACCORDO
100
AcDbLine
 62
7
  6
CONTINUOUS
 10
157.31257358
 20
125.0232744144
 11
151.7930797276
 21
127.7830213406
  0
LINE
  5
479
100
AcDbEntity
  8
RACCORDO
100
AcDbLine
 62
7
  6
CONTINUOUS
 10
160.9110503028
 20
123.2963605746
 11
159.5675474185
 21
123.9681120167
  0
LINE
  5
47A
100
AcDbEntity
  8
RACCORDO
100
AcDbLine
 62
7
  6
CONTINUOUS
 10
147.5467321383
 20
129.9785196568
 11
146.2032292541
 21
130.650271099
  0
LINE
  5
47B
100
AcDbEntity
  8
26814000
100
AcDbLine
 62
7
  6
CONTINUOUS
 10
130.161811338
 20
138.670980057
 11
131.7683449011
 21
137.8677132755
  0
LINE
  5
47C
100
AcDbEntity
  8
26814000
100
AcDbLine
 62
7
  6
CONTINUOUS
 10
143.5261295024
 20
131.9888209748
 11
145.1326630655
 21
131.1855541933
  0
LINE
  5
47D
100
AcDbEntity
  8
RACCORDO
100
AcDbLine
 62
250
  6
CONTINUOUS
 10
147.7802025554
 20
129.9216230314
 11
148.1888656231
 21
129.7172914975
  0
LINE
  5
47E
100
AcDbEntity
  8
RACCORDO
100
AcDbLine
 62
250
  6
CONTINUOUS
 10
161.1445207198
 20
123.2394639492
 11
161.5531837875
 21
123.0351324153
  0
LINE
  5
47F
100
AcDbEntity
  8
RACCORDO
100
AcDbLine
 62
250
  6
CONTINUOUS
 10
160.8460770064
 20
123.4315790247
 11
159.5025741221
 21
124.1033304668
  0
LINE
  5
480
100
AcDbEntity
  8
RACCORDO
100
AcDbLine
 62
250
  6
CONTINUOUS
 10
147.4817588419
 20
130.1137381069
 11
146.1382559577
 21
130.7854895491
  0
LINE
  5
481
100
AcDbEntity
  8
26814000
100
AcDbLine
 62
250
  6
CONTINUOUS
 10
130.097216592
 20
138.8060092319
 11
131.7029930542
 21
138.0031210008
  0
LINE
  5
482
100
AcDbEntity
  8
26814000
100
AcDbLine
 62
250
  6
CONTINUOUS
 10
143.4615347564
 20
132.1238501497
 11
145.0673112186
 21
131.3209619186
  0
LWPOLYLINE
  5
483
100
AcDbEntity
  8
RACCORDO
100
AcDbPolyline
 62
250
  6
CONTINUOUS
 90
7
 70
0
 10
146.7014732396
 20
129.8420160295
 10
146.677109511
 20
129.8552839938
 10
146.655193852
 20
129.8691366898
 10
146.6357262626
 20
129.8835741174
 10
146.6187067429
 20
129.8985962767
 10
146.6041352927
 20
129.9142031676
 10
146.5920119123
 20
129.9303947901
  0
LINE
  5
484
100
AcDbEntity
  8
RACCORDO
100
AcDbLine
 62
250
  6
CONTINUOUS
 10
160.1920412952
 20
123.4147414749
 11
160.2096809033
 21
123.4049803977
  0
LWPOLYLINE
  5
485
100
AcDbEntity
  8
RACCORDO
100
AcDbPolyline
 62
250
  6
CONTINUOUS
 90
8
 70
0
 10
146.8453627389
 20
130.0871394799
 10
146.8276782846
 20
130.0969281915
 10
146.8122165089
 20
130.107489793
 10
146.7991273404
 20
130.1186976634
 10
146.7885361961
 20
130.1304097527
 10
146.7805280191
 20
130.1424983456
 10
146.7751588798
 20
130.1548536094
 10
146.7724728157
 20
130.1673251331
  0
LWPOLYLINE
  5
486
100
AcDbEntity
  8
RACCORDO
100
AcDbPolyline
 62
250
  6
CONTINUOUS
 90
9
 70
0
 10
146.2032292831
 20
130.6502710845
 10
146.193568376
 20
130.655841454
 10
146.1794114399
 20
130.6671956594
 10
146.1670881079
 20
130.6813998547
 10
146.156792793
 20
130.6982425789
 10
146.1487022244
 20
130.7173895428
 10
146.142900535
 20
130.7385086842
 10
146.139414923
 20
130.7613178829
 10
146.1382559577
 20
130.7854895491
  0
LWPOLYLINE
  5
487
100
AcDbEntity
  8
RACCORDO
100
AcDbPolyline
 62
250
  6
CONTINUOUS
 90
9
 70
0
 10
147.5467321673
 20
129.9785196423
 10
147.5370712603
 20
129.9840900118
 10
147.5229143241
 20
129.9954442172
 10
147.5105909922
 20
130.0096484126
 10
147.5002956773
 20
130.0264911368
 10
147.4922051087
 20
130.0456381007
 10
147.4864034193
 20
130.066757242
 10
147.4829178072
 20
130.0895664408
 10
147.4817588419
 20
130.1137381069
  0
LWPOLYLINE
  5
488
100
AcDbEntity
  8
RACCORDO
100
AcDbPolyline
 62
250
  6
CONTINUOUS
 90
16
 70
0
 10
161.5875792126
 20
122.432626156
 10
161.6238786844
 20
122.4114409175
 10
161.6597051491
 20
122.385708135
 10
161.6946660776
 20
122.3557115309
 10
161.7283765362
 20
122.3217824138
 10
161.7604697802
 20
122.2842931906
 10
161.7906005842
 20
122.243651927
 10
161.8184405862
 20
122.2003024925
 10
161.8436827191
 20
122.1547210272
 10
161.8660504657
 20
122.1074069823
 10
161.8852986774
 20
122.0588787596
 10
161.9012163993
 20
122.0096680807
 10
161.9136292884
 20
121.9603141875
 10
161.9224013116
 20
121.9113578638
 10
161.9274362399
 20
121.8633355102
 10
161.9286788352
 20
121.8167733129
  0
LWPOLYLINE
  5
489
100
AcDbEntity
  8
RACCORDO
100
AcDbPolyline
 62
7
  6
CONTINUOUS
 90
4
 70
0
 10
149.3346413521
 20
129.7873426447
 10
149.3350316067
 20
129.7869446271
 10
149.3349030336
 20
129.7871471836
 10
149.3328312847
 20
129.790238611
  0
LINE
  5
48A
100
AcDbEntity
  8
21814000
100
AcDbLine
 62
250
  6
CONTINUOUS
 10
152.7071404928
 20
137.5126180701
 11
153.1217180045
 21
136.4370395299
  0
LINE
  5
48B
100
AcDbEntity
  8
0
100
AcDbLine
 62
7
  6
CONTINUOUS
 10
154.2664223327
 20
134.936974482
 11
154.0649229748
 21
135.5326989078
  0
LINE
  5
48C
100
AcDbEntity
  8
RACCORDO
100
AcDbLine
 62
7
  6
CONTINUOUS
 10
163.8512808264
 20
84.8034068358
 11
163.8512808264
 21
122.7046907225
  0
LINE
  5
48D
100
AcDbEntity
  8
RACCORDO
100
AcDbLine
 62
7
  6
CONTINUOUS
 10
163.9954760199
 20
128.8100905589
 11
163.9954760199
 21
127.9097354583
  0
LWPOLYLINE
  5
48E
100
AcDbEntity
  8
RACCORDO
100
AcDbPolyline
 62
250
  6
CONTINUOUS
 90
10
 70
0
 10
163.2131791842
 20
84.4818957966
 10
163.2119318761
 20
84.4379342041
 10
163.2068913658
 20
84.3964255141
 10
163.1981128991
 20
84.3578246788
 10
163.1856926911
 20
84.3225547794
 10
163.1697668721
 20
84.2910023885
 10
163.1505099953
 20
84.2635133331
 10
163.1281331236
 20
84.2403889046
 10
163.1028815165
 20
84.2218825561
 10
163.0908327075
 20
84.2152076869
  0
LWPOLYLINE
  5
48F
100
AcDbEntity
  8
RACCORDO
100
AcDbPolyline
 62
250
  6
CONTINUOUS
 90
8
 70
0
 10
163.3209507405
 20
82.841321085
 10
163.3194262008
 20
82.8137104291
 10
163.3148766932
 20
82.7880916981
 10
163.307377515
 20
82.7649094936
 10
163.2970537279
 20
82.7445649275
 10
163.2840815734
 20
82.7274158585
 10
163.2686885031
 20
82.7137667305
 10
163.2559520841
 20
82.7060899597
  0
LWPOLYLINE
  5
490
100
AcDbEntity
  8
RACCORDO
100
AcDbPolyline
 62
250
  6
CONTINUOUS
 90
3
 70
0
 10
162.6159252755
 20
83.9431690985
 10
162.6143517839
 20
83.9303711409
 10
162.6138439593
 20
83.9129040943
  0
LINE
  5
491
100
AcDbEntity
  8
RACCORDO
100
AcDbLine
 62
250
  6
CONTINUOUS
 10
162.6849284794
 20
83.6611542401
 11
162.687067264
 21
83.6774700142
  0
LINE
  5
492
100
AcDbEntity
  8
RACCORDO
100
AcDbLine
 62
250
  6
CONTINUOUS
 10
146.7633690111
 20
130.1400313148
 11
146.7500187567
 21
130.1397441396
  0
LWPOLYLINE
  5
493
100
AcDbEntity
  8
RACCORDO
100
AcDbPolyline
 62
250
  6
CONTINUOUS
 90
4
 70
0
 10
149.3188164502
 20
129.802659687
 10
149.335122137
 20
129.8006554788
 10
149.3523619043
 20
129.8017811377
 10
149.3702472846
 20
129.8060178191
  0
LINE
  5
494
100
AcDbEntity
  8
RACCORDO
100
AcDbLine
 62
7
  6
CONTINUOUS
 10
147.6078347846
 20
129.9573215656
 11
148.1381648705
 21
129.8474866085
  0
LINE
  5
495
100
AcDbEntity
  8
RACCORDO
100
AcDbLine
 62
250
  6
CONTINUOUS
 10
147.8353122325
 20
130.1137381069
 11
148.3656423184
 21
130.0039031499
  0
LINE
  5
496
100
AcDbEntity
  8
26814000
100
AcDbLine
 62
7
  6
CONTINUOUS
 10
145.7785318267
 20
131.0474583957
 11
145.1562137946
 21
131.1773989782
  0
LWPOLYLINE
  5
497
100
AcDbEntity
  8
RACCORDO
100
AcDbPolyline
 62
7
  6
CONTINUOUS
 90
8
 70
0
 10
161.9124745598
 20
125.8272997561
 10
161.8841879646
 20
125.8393293213
 10
161.8542007636
 20
125.8478942901
 10
161.8230261807
 20
125.8526914585
 10
161.7911215368
 20
125.8535104412
 10
161.7592366486
 20
125.8502354015
 10
161.7282291178
 20
125.8429671742
 10
161.6982690673
 20
125.8317581892
  0
LWPOLYLINE
  5
498
100
AcDbEntity
  8
RACCORDO
100
AcDbPolyline
 62
7
  6
CONTINUOUS
 90
25
 70
0
 10
157.31257358
 20
126.22059345
 10
157.3367359411
 20
126.2093020564
 10
157.3620918257
 20
126.1989051733
 10
157.3886412336
 20
126.1894028007
 10
157.4165086267
 20
126.1807617618
 10
157.4455695432
 20
126.1730152334
 10
157.4754505981
 20
126.1662627455
 10
157.5061623742
 20
126.1605171251
 10
157.5376942887
 20
126.1557655452
 10
157.5696412084
 20
126.152069056
 10
157.6020084883
 20
126.1494412719
 10
157.6347907734
 20
126.1478685784
 10
157.6675668653
 20
126.147371182
 10
157.7003366839
 20
126.147962958
 10
157.7331003092
 20
126.1496300311
 10
157.7654367826
 20
126.1523509822
 10
157.7973405921
 20
126.1561394101
 10
157.8288172497
 20
126.160981716
 10
157.8594623319
 20
126.1668156843
 10
157.8892651086
 20
126.1736541109
 10
157.9182363099
 20
126.1814841998
 10
157.9460037037
 20
126.1902053472
 10
157.9724432124
 20
126.1997840187
 10
157.9976789136
 20
126.2102537486
 10
158.0217108071
 20
126.2216145372
  0
LWPOLYLINE
  5
499
100
AcDbEntity
  8
RACCORDO
100
AcDbPolyline
 62
250
  6
CONTINUOUS
 90
7
 70
0
 10
163.2559774441
 20
125.155548314
 10
163.2517888789
 20
125.1575149698
 10
163.2325623929
 20
125.16363569
 10
163.2118235577
 20
125.1657920588
 10
163.1899272207
 20
125.1639471799
 10
163.1672480341
 20
125.1581326198
 10
163.1441740452
 20
125.1484478672
  0
LWPOLYLINE
  5
49A
100
AcDbEntity
  8
RACCORDO
100
AcDbPolyline
 62
250
  6
CONTINUOUS
 90
7
 70
0
 10
161.9124745598
 20
125.8272997561
 10
161.9082859946
 20
125.8292664119
 10
161.8890595086
 20
125.8353871322
 10
161.8683206735
 20
125.8375435009
 10
161.8464243364
 20
125.835698622
 10
161.8237451499
 20
125.8298840619
 10
161.800671161
 20
125.8201993093
  0
LWPOLYLINE
  5
49B
100
AcDbEntity
  8
RACCORDO
100
AcDbPolyline
 62
250
  6
CONTINUOUS
 90
3
 70
0
 10
149.3015044434
 20
129.8088219515
 10
149.3037176851
 20
129.8077602364
 10
149.3188164502
 20
129.802659687
  0
LINE
  5
49C
100
AcDbEntity
  8
26814000
100
AcDbLine
 62
250
  6
CONTINUOUS
 10
145.0673112186
 20
131.5743333123
 11
143.4615347564
 21
132.3772215434
  0
LINE
  5
49D
100
AcDbEntity
  8
26814000
100
AcDbLine
 62
250
  6
CONTINUOUS
 10
131.7029930542
 20
138.2564923945
 11
130.097216592
 21
139.0593806256
  0
LINE
  5
49E
100
AcDbEntity
  8
RACCORDO
100
AcDbLine
 62
250
  6
CONTINUOUS
 10
146.1382559577
 20
131.1368035211
 11
147.4817588419
 21
130.465052079
  0
LINE
  5
49F
100
AcDbEntity
  8
RACCORDO
100
AcDbLine
 62
250
  6
CONTINUOUS
 10
159.5025741221
 20
124.4546444389
 11
160.8460770064
 21
123.7828929968
  0
LINE
  5
4A0
100
AcDbEntity
  8
26814000
100
AcDbLine
 62
7
  6
CONTINUOUS
 10
133.4810445744
 20
137.6310291687
 11
135.6588015774
 21
136.5421506672
  0
LINE
  5
4A1
100
AcDbEntity
  8
26814000
100
AcDbLine
 62
7
  6
CONTINUOUS
 10
142.4613006955
 20
133.1409011082
 11
143.5424226467
 21
132.6003401326
  0
LINE
  5
4A2
100
AcDbEntity
  8
26814000
100
AcDbLine
 62
250
  6
CONTINUOUS
 10
145.244081948
 20
131.8781988906
 11
143.636260539
 21
132.6821095951
  0
LINE
  5
4A3
100
AcDbEntity
  8
26814000
100
AcDbLine
 62
250
  6
CONTINUOUS
 10
131.8797637836
 20
138.5603579728
 11
130.2719423745
 21
139.3642686773
  0
LINE
  5
4A4
100
AcDbEntity
  8
RACCORDO
100
AcDbLine
 62
250
  6
CONTINUOUS
 10
162.7527971726
 20
123.1311355409
 11
162.6932488144
 21
123.16090972
  0
LINE
  5
4A5
100
AcDbEntity
  8
RACCORDO
100
AcDbLine
 62
250
  6
CONTINUOUS
 10
149.3289124485
 20
129.843077903
 11
149.3884790081
 21
129.8132946231
  0
LINE
  5
4A6
100
AcDbEntity
  8
RACCORDO
100
AcDbLine
 62
250
  6
CONTINUOUS
 10
146.315032653
 20
131.4416982197
 11
147.6585355372
 21
130.7699467776
  0
LINE
  5
4A7
100
AcDbEntity
  8
RACCORDO
100
AcDbLine
 62
250
  6
CONTINUOUS
 10
159.6793508174
 20
124.7595391375
 11
161.0228537016
 21
124.0877876954
  0
LINE
  5
4A8
100
AcDbEntity
  8
26814000
100
AcDbLine
 62
7
  6
CONTINUOUS
 10
135.7466695431
 20
136.9985070801
 11
141.5391786111
 21
134.1022525461
  0
LINE
  5
4A9
100
AcDbEntity
  8
RACCORDO
100
AcDbLine
 62
7
  6
CONTINUOUS
 10
157.31257358
 20
126.22059345
 11
151.7930797276
 21
128.9803403763
  0
LINE
  5
4AA
100
AcDbEntity
  8
RACCORDO
100
AcDbLine
 62
7
  6
CONTINUOUS
 10
149.3820931711
 20
130.3724951219
 11
150.7928181187
 21
129.6671326481
  0
LINE
  5
4AB
100
AcDbEntity
  8
RACCORDO
100
AcDbLine
 62
7
  6
CONTINUOUS
 10
162.7464113355
 20
123.6903360397
 11
163.4975658757
 21
123.3147587696
  0
LINE
  5
4AC
100
AcDbEntity
  8
26814000
100
AcDbLine
 62
7
  6
CONTINUOUS
 10
135.0123186915
 20
137.5649412022
 11
133.529840688
 21
138.3061802039
  0
LINE
  5
4AD
100
AcDbEntity
  8
26814000
100
AcDbLine
 62
7
  6
CONTINUOUS
 10
136.2387610211
 20
137.4646065107
 11
142.4613006955
 21
134.3533366735
  0
LINE
  5
4AE
100
AcDbEntity
  8
26814000
100
AcDbLine
 62
7
  6
CONTINUOUS
 10
131.8546989777
 20
140.1762527747
 11
133.4810445744
 21
139.3630799763
  0
LINE
  5
4AF
100
AcDbEntity
  8
26814000
100
AcDbLine
 62
7
  6
CONTINUOUS
 10
145.2190171421
 20
133.4940936924
 11
146.8453627389
 21
132.6809208941
  0
LINE
  5
4B0
100
AcDbEntity
  8
26814000
100
AcDbLine
 62
7
  6
CONTINUOUS
 10
137.5822639053
 20
137.4949234614
 11
142.5320113736
 21
135.0200497272
  0
LINE
  5
4B1
100
AcDbEntity
  8
0
100
AcDbLine
 62
7
  6
CONTINUOUS
 10
158.4419139503
 20
127.0701368273
 11
153.492166482
 21
129.5450105614
  0
LINE
  5
4B2
100
AcDbEntity
  8
26814000
100
AcDbLine
 62
250
  6
CONTINUOUS
 10
132.3891488564
 20
140.4366002412
 11
134.0093117462
 21
139.6265187963
  0
LINE
  5
4B3
100
AcDbEntity
  8
26814000
100
AcDbLine
 62
250
  6
CONTINUOUS
 10
145.7534670208
 20
133.754441159
 11
147.3736299106
 21
132.9443597141
  0
LINE
  5
4B4
100
AcDbEntity
  8
26814000
100
AcDbLine
 62
7
  6
CONTINUOUS
 10
132.5005664717
 20
140.4428688044
 11
134.1194440499
 21
139.6334300153
  0
LINE
  5
4B5
100
AcDbEntity
  8
26814000
100
AcDbLine
 62
7
  6
CONTINUOUS
 10
145.8648846362
 20
133.7607097222
 11
147.4837622144
 21
132.9512709331
  0
LINE
  5
4B6
100
AcDbEntity
  8
RACCORDO
100
AcDbLine
 62
250
  6
CONTINUOUS
 10
148.4363529965
 20
132.5023583915
 11
149.7798558808
 21
131.8306069494
  0
LINE
  5
4B7
100
AcDbEntity
  8
RACCORDO
100
AcDbLine
 62
250
  6
CONTINUOUS
 10
161.800671161
 20
125.8201993093
 11
163.1441740452
 21
125.1484478672
  0
LWPOLYLINE
  5
4B8
100
AcDbEntity
  8
RACCORDO
100
AcDbPolyline
 62
7
  6
CONTINUOUS
 90
10
 70
0
 10
149.8914747775
 20
131.8377993938
 10
149.9028675099
 20
131.8317427207
 10
149.9299531508
 20
131.814027609
 10
149.9545840839
 20
131.7929022998
 10
149.9763355837
 20
131.7686830241
 10
149.9948434595
 20
131.7416950379
 10
150.0097476375
 20
131.7123338932
 10
150.0207079129
 20
131.6811102249
 10
150.0274658406
 20
131.6485869404
 10
150.0298557224
 20
131.614241291
  0
LWPOLYLINE
  5
4B9
100
AcDbEntity
  8
RACCORDO
100
AcDbPolyline
 62
250
  6
CONTINUOUS
 90
16
 70
0
 10
149.3884790081
 20
129.8132946231
 10
149.4206771991
 20
129.795242989
 10
149.4484208444
 20
129.7762157215
 10
149.4717099441
 20
129.7562128209
 10
149.4906588037
 20
129.7350002969
 10
149.5051531178
 20
129.7128121397
 10
149.5148499695
 20
129.6903503194
 10
149.5196332627
 20
129.6676299891
 10
149.5196190935
 20
129.6446359958
 10
149.5148128342
 20
129.6220248497
 10
149.505100465
 20
129.5997861942
 10
149.4905960055
 20
129.577930386
 10
149.471646887
 20
129.5571450055
 10
149.4483689198
 20
129.537659246
 10
149.4206462935
 20
129.5192439142
 10
149.3884790081
 20
129.50189901
  0
LWPOLYLINE
  5
4BA
100
AcDbEntity
  8
21814000
100
AcDbPolyline
 62
250
  6
CONTINUOUS
 90
15
 70
0
 10
142.730811808
 20
135.981689756
 10
142.7643937844
 20
135.9624466301
 10
142.7937103725
 20
135.9408232272
 10
142.8187615722
 20
135.9168195474
 10
142.8397507643
 20
135.8901871988
 10
142.856474568
 20
135.8611745732
 10
142.8683228411
 20
135.8305268468
 10
142.8751796347
 20
135.7981668991
 10
142.8771608978
 20
135.7641718506
 10
142.8740043349
 20
135.7295182384
 10
142.8655415957
 20
135.6941521497
 10
142.8519410305
 20
135.6581274974
 10
142.8334453958
 20
135.6225825564
 10
142.8101356102
 20
135.5878967519
 10
142.781930755
 20
135.5536906588
  0
LWPOLYLINE
  5
4BB
100
AcDbEntity
  8
RACCORDO
100
AcDbPolyline
 62
250
  6
CONTINUOUS
 90
9
 70
0
 10
159.5675474475
 20
123.9681120023
 10
159.5578865405
 20
123.9736823717
 10
159.5437296043
 20
123.9850365772
 10
159.5314062724
 20
123.9992407725
 10
159.5211109574
 20
124.0160834967
 10
159.5130203888
 20
124.0352304606
 10
159.5072186994
 20
124.0563496019
 10
159.5037330874
 20
124.0791588007
 10
159.5025741221
 20
124.1033304668
  0
LWPOLYLINE
  5
4BC
100
AcDbEntity
  8
RACCORDO
100
AcDbPolyline
 62
250
  6
CONTINUOUS
 90
9
 70
0
 10
160.9110503317
 20
123.2963605601
 10
160.9013894247
 20
123.3019309296
 10
160.8872324886
 20
123.313285135
 10
160.8749091566
 20
123.3274893304
 10
160.8646138417
 20
123.3443320546
 10
160.8565232731
 20
123.3634790185
 10
160.8507215837
 20
123.3845981598
 10
160.8472359717
 20
123.4074073586
 10
160.8460770064
 20
123.4315790247
  0
LWPOLYLINE
  5
4BD
100
AcDbEntity
  8
RACCORDO
100
AcDbPolyline
 62
250
  6
CONTINUOUS
 90
13
 70
0
 10
161.0228537016
 20
124.0877876954
 10
161.0454144679
 20
124.0747368869
 10
161.0677623222
 20
124.0582305291
 10
161.0895146703
 20
124.0384738586
 10
161.110332616
 20
124.0156805578
 10
161.129779664
 20
123.9902285076
 10
161.1473681595
 20
123.9627095887
 10
161.1627612299
 20
123.9336673904
 10
161.1757333843
 20
123.9035461669
 10
161.1860571714
 20
123.8728778138
 10
161.1935563496
 20
123.8421964311
 10
161.1981058573
 20
123.8120281924
 10
161.1996303969
 20
123.7828929968
  0
LWPOLYLINE
  5
4BE
100
AcDbEntity
  8
RACCORDO
100
AcDbPolyline
 62
250
  6
CONTINUOUS
 90
13
 70
0
 10
147.6585355372
 20
130.7699467776
 10
147.6816095261
 20
130.7565575413
 10
147.7042887127
 20
130.7396929149
 10
147.7261850497
 20
130.7196414567
 10
147.7469238849
 20
130.6967462528
 10
147.7661503709
 20
130.6713990466
 10
147.7835355372
 20
130.6440335356
 10
147.7987819189
 20
130.6151179514
 10
147.8116286461
 20
130.5851470477
 10
147.8218559078
 20
130.5546336349
 10
147.8292887127
 20
130.5240998059
 10
147.8337998834
 20
130.4940680032
 10
147.8353122325
 20
130.465052079
  0
LWPOLYLINE
  5
4BF
100
AcDbEntity
  8
RACCORDO
100
AcDbPolyline
 62
250
  6
CONTINUOUS
 90
13
 70
0
 10
149.7798558808
 20
131.8306069494
 10
149.8029298697
 20
131.8172177131
 10
149.8256090563
 20
131.8003530866
 10
149.8475053933
 20
131.7803016285
 10
149.8682442284
 20
131.7574064246
 10
149.8874707144
 20
131.7320592183
 10
149.9048558808
 20
131.7046937074
 10
149.9201022625
 20
131.6757781232
 10
149.9329489897
 20
131.6458072194
 10
149.9431762514
 20
131.6152938066
 10
149.9506090563
 20
131.5847599777
 10
149.9551202269
 20
131.5547281749
 10
149.9566325761
 20
131.5257122508
  0
LWPOLYLINE
  5
4C0
100
AcDbEntity
  8
RACCORDO
100
AcDbPolyline
 62
250
  6
CONTINUOUS
 90
16
 70
0
 10
162.8720207629
 20
123.0258603252
 10
162.9082999161
 20
123.004683083
 10
162.9441137943
 20
122.9789588664
 10
162.9790698631
 20
122.9489696238
 10
163.0127849898
 20
122.9150440499
 10
163.044889643
 20
122.8775539834
 10
163.0750319427
 20
122.8369103313
 10
163.1028815172
 20
122.793558565
 10
163.128133124
 20
122.7479738382
 10
163.1505099954
 20
122.7006557788
 10
163.169766872
 20
122.6521230125
 10
163.1856926908
 20
122.602907479
 10
163.1981128987
 20
122.5535486011
 10
163.2068913655
 20
122.504587373
 10
163.2119318759
 20
122.4565604303
 10
163.2131791843
 20
122.4099941686
  0
LWPOLYLINE
  5
4C1
100
AcDbEntity
  8
21814000
100
AcDbPolyline
 62
250
  6
CONTINUOUS
 90
9
 70
0
 10
142.6283714605
 20
135.7639741726
 10
142.6482526369
 20
135.7523601818
 10
142.6659143687
 20
135.7386156997
 10
142.6811659436
 20
135.7228510143
 10
142.6938305273
 20
135.7051572519
 10
142.7037742231
 20
135.6856929668
 10
142.7108888363
 20
135.6646796148
 10
142.715065253
 20
135.6422150016
 10
142.7162393897
 20
135.6216132507
  0
LWPOLYLINE
  5
4C2
100
AcDbEntity
  8
21814000
100
AcDbPolyline
 62
250
  6
CONTINUOUS
 90
13
 70
0
 10
141.2842875156
 20
136.2522359345
 10
141.3019984513
 20
136.2411140585
 10
141.3200665647
 20
136.2277095705
 10
141.3381883259
 20
136.2122477024
 10
141.3560593113
 20
136.194988243
 10
141.373379331
 20
136.1762211588
 10
141.3898574695
 20
136.1562617181
 10
141.4052169395
 20
136.135445234
 10
141.4191997765
 20
136.1141213752
 10
141.4315711692
 20
136.0926482734
 10
141.442123343
 20
136.0713865975
 10
141.4506790637
 20
136.0506934982
 10
141.4570946472
 20
136.0309165479
  0
LWPOLYLINE
  5
4C3
100
AcDbEntity
  8
RACCORDO
100
AcDbPolyline
 62
250
  6
CONTINUOUS
 90
13
 70
0
 10
162.7080542837
 20
122.8511868124
 10
162.6944685988
 20
122.8646646978
 10
162.6815398338
 20
122.8795417142
 10
162.6694076851
 20
122.8956571125
 10
162.658203243
 20
122.9128367601
 10
162.6480475699
 20
122.9308950308
 10
162.6390503945
 20
122.949636811
 10
162.6313089315
 20
122.9688595975
 10
162.6249068308
 20
122.9883556828
 10
162.6199132691
 20
123.0079144083
 10
162.6163822029
 20
123.027324439
 10
162.6143517865
 20
123.0463760474
 10
162.6138439593
 20
123.0648633781
  0
LWPOLYLINE
  5
4C4
100
AcDbEntity
  8
RACCORDO
100
AcDbPolyline
 62
250
  6
CONTINUOUS
 90
13
 70
0
 10
162.7080544896
 20
122.85118771
 10
162.7413461283
 20
122.8171646197
 10
162.7730007533
 20
122.7796447637
 10
162.802676133
 20
122.7390337769
 10
162.8300514353
 20
122.6957707141
 10
162.8548306965
 20
122.650323303
 10
162.8767460213
 20
122.6031828879
 10
162.8955604791
 20
122.5548591174
 10
162.9110706658
 20
122.5058744346
 10
162.9231089032
 20
122.4567584292
 10
162.9315450515
 20
122.4080421116
 10
162.936287917
 20
122.3602521724
 10
162.9372862375
 20
122.3139052879
  0
LWPOLYLINE
  5
4C5
100
AcDbEntity
  8
RACCORDO
100
AcDbPolyline
 62
250
  6
CONTINUOUS
 90
13
 70
0
 10
161.9974429188
 20
122.5160320586
 10
161.984294538
 20
122.5295647847
 10
161.9718047824
 20
122.5444046379
 10
161.9601032065
 20
122.5603986624
 10
161.9493107715
 20
122.5773827411
 10
161.9395402958
 20
122.5951806502
 10
161.9308947235
 20
122.6136054913
 10
161.9234639453
 20
122.6324654598
 10
161.9173244309
 20
122.6515661955
 10
161.9125397575
 20
122.6707099026
 10
161.9091594723
 20
122.6896983399
 10
161.9072185796
 20
122.7083348744
 10
161.9067371781
 20
122.7264265172
  0
LWPOLYLINE
  5
4C6
100
AcDbEntity
  8
RACCORDO
100
AcDbPolyline
 62
250
  6
CONTINUOUS
 90
13
 70
0
 10
161.9974429188
 20
122.5160320586
 10
162.0296666062
 20
122.481857944
 10
162.0602430662
 20
122.4444203496
 10
162.0888555546
 20
122.4041070948
 10
162.1152076718
 20
122.3613357883
 10
162.139026434
 20
122.316549502
 10
162.1600651003
 20
122.2702121811
 10
162.1781057293
 20
122.2228038381
 10
162.1929614365
 20
122.1748155805
 10
162.2044783303
 20
122.1267445229
 10
162.2125371061
 20
122.0790886378
 10
162.2170542823
 20
122.032341597
 10
162.217983065
 20
121.9869876572
  0
LWPOLYLINE
  5
4C7
100
AcDbEntity
  8
26814000
100
AcDbPolyline
 62
7
  6
CONTINUOUS
 90
20
 70
0
 10
152.7157903448
 20
134.5144712748
 10
152.7143901931
 20
134.5166023396
 10
152.7126437668
 20
134.518910787
 10
152.710562157
 20
134.5214004261
 10
152.7081571925
 20
134.5240778689
 10
152.7054371006
 20
134.5269130849
 10
152.7024121694
 20
134.5299096112
 10
152.699093668
 20
134.5330726894
 10
152.6954895111
 20
134.5363746818
 10
152.6916096543
 20
134.5398186646
 10
152.6874649828
 20
134.543408909
 10
152.68306375
 20
134.5471194085
 10
152.6784154115
 20
134.5509530004
 10
152.6735309576
 20
134.554912874
 10
152.6684205692
 20
134.5589732944
 10
152.6630936941
 20
134.5631365096
 10
152.6575614908
 20
134.567404881
 10
152.6518370196
 20
134.5717523805
 10
152.6459318362
 20
134.5761712627
 10
152.6336187845
 20
134.5852563523
  0
LINE
  5
4C8
100
AcDbEntity
  8
21814000
100
AcDbLine
 62
7
  6
CONTINUOUS
 10
154.0523145082
 20
132.7082059034
 11
153.2996204243
 21
134.0064111645
  0
LINE
  5
4C9
100
AcDbEntity
  8
21814000
100
AcDbLine
 62
7
  6
CONTINUOUS
 10
157.1247585243
 20
138.5023331237
 11
157.133873983
 21
138.4784393226
  0
LINE
  5
4CA
100
AcDbEntity
  8
RACCORDO
100
AcDbLine
 62
7
  6
CONTINUOUS
 10
168.0498909091
 20
126.0789293621
 11
168.0498909091
 21
125.1839664987
  0
LINE
  5
4CB
100
AcDbEntity
  8
RACCORDO
100
AcDbLine
 62
7
  6
CONTINUOUS
 10
168.0498909091
 20
92.2676566007
 11
168.0498909091
 21
90.6258806106
  0
LWPOLYLINE
  5
4CC
100
AcDbEntity
  8
RACCORDO
100
AcDbPolyline
 62
7
  6
CONTINUOUS
 90
8
 70
0
 10
168.0498909091
 20
125.1839664987
 10
168.0469676173
 20
125.1317365382
 10
168.0398214148
 20
125.0841502212
 10
168.0284523015
 20
125.0412075475
 10
168.012588357
 20
125.0026118452
 10
167.9925015018
 20
124.9686597863
 10
167.9690074973
 20
124.9402413869
 10
167.9642026822
 20
124.9355307995
  0
LWPOLYLINE
  5
4CD
100
AcDbEntity
  8
RACCORDO
100
AcDbPolyline
 62
250
  6
CONTINUOUS
 90
7
 70
0
 10
163.3941738869
 20
82.9295687401
 10
163.3921365758
 20
82.9137831698
 10
163.3858107142
 20
82.8976480845
 10
163.3753085642
 20
82.8820732224
 10
163.3608180251
 20
82.8673287746
 10
163.3425925977
 20
82.8536665533
 10
163.3209507405
 20
82.841321085
  0
LWPOLYLINE
  5
4CE
100
AcDbEntity
  8
RACCORDO
100
AcDbPolyline
 62
250
  6
CONTINUOUS
 90
7
 70
0
 10
163.3941740452
 20
83.2810234048
 10
163.3920352606
 20
83.2647076307
 10
163.3856555018
 20
83.2486710241
 10
163.3751439283
 20
83.2331879757
 10
163.3606803962
 20
83.2185234048
 10
163.3425123803
 20
83.2049282261
 10
163.3209507405
 20
83.1926350571
  0
LWPOLYLINE
  5
4CF
100
AcDbEntity
  8
21814000
100
AcDbPolyline
 62
250
  6
CONTINUOUS
 90
8
 70
0
 10
142.7488308302
 20
135.5199642772
 10
142.7300061571
 20
135.5271103378
 10
142.7121524968
 20
135.5316669895
 10
142.6955697527
 20
135.5335576903
 10
142.6805364799
 20
135.5327506804
 10
142.6673052053
 20
135.5292595158
 10
142.6560981862
 20
135.5231428408
 10
142.6520304591
 20
135.5198040374
  0
LWPOLYLINE
  5
4D0
100
AcDbEntity
  8
RACCORDO
100
AcDbPolyline
 62
250
  6
CONTINUOUS
 90
7
 70
0
 10
149.8914747775
 20
131.8377993938
 10
149.8867818431
 20
131.8399737239
 10
149.8673347951
 20
131.8459787261
 10
149.8465168494
 20
131.8479540812
 10
149.8247645014
 20
131.8459584037
 10
149.802416647
 20
131.8401169072
 10
149.7798558808
 20
131.8306069494
  0
LWPOLYLINE
  5
4D1
100
AcDbEntity
  8
RACCORDO
100
AcDbPolyline
 62
250
  6
CONTINUOUS
 90
7
 70
0
 10
148.5481310354
 20
132.5094715135
 10
148.5432789589
 20
132.5117251661
 10
148.5238319108
 20
132.5177301682
 10
148.5030139651
 20
132.5197055233
 10
148.4812616171
 20
132.5177098458
 10
148.4589137628
 20
132.5118683493
 10
148.4363529965
 20
132.5023583915
  0
LINE
  5
4D2
100
AcDbEntity
  8
21814000
100
AcDbLine
 62
250
  6
CONTINUOUS
 10
142.3137365096
 20
137.0861121733
 11
142.317177339
 21
137.0844989064
  0
LINE
  5
4D3
100
AcDbEntity
  8
RACCORDO
100
AcDbLine
 62
7
  6
CONTINUOUS
 10
148.5387550902
 20
132.5139172715
 11
148.5483180256
 21
132.5093778283
  0
LINE
  5
4D4
100
AcDbEntity
  8
RACCORDO
100
AcDbLine
 62
7
  6
CONTINUOUS
 10
148.5481563954
 20
132.5094588383
 11
149.8916592797
 21
131.8377073962
  0
LINE
  5
4D5
100
AcDbEntity
  8
RACCORDO
100
AcDbLine
 62
7
  6
CONTINUOUS
 10
161.9124745598
 20
125.8272997561
 11
163.2559774441
 21
125.155548314
  0
LINE
  5
4D6
100
AcDbEntity
  8
21814000
100
AcDbLine
 62
250
  6
CONTINUOUS
 10
141.8699658618
 20
136.1431769719
 11
142.6283714605
 21
135.7639741726
  0
LINE
  5
4D7
100
AcDbEntity
  8
21814000
100
AcDbLine
 62
250
  6
CONTINUOUS
 10
141.9724062094
 20
136.3608925553
 11
142.730811808
 21
135.981689756
  0
LINE
  5
4D8
100
AcDbEntity
  8
21814000
100
AcDbLine
 62
7
  6
CONTINUOUS
 10
141.2592191683
 20
136.9612439366
 11
143.8461733539
 21
135.6677668438
  0
LINE
  5
4D9
100
AcDbEntity
  8
21814000
100
AcDbLine
 62
250
  6
CONTINUOUS
 10
144.4535610704
 20
135.9671328476
 11
142.2289615803
 21
137.0794325926
  0
LINE
  5
4DA
100
AcDbEntity
  8
21814000
100
AcDbLine
 62
7
  6
CONTINUOUS
 10
144.5030881623
 20
135.9915434953
 11
142.317170181
 21
137.0845024859
  0
LINE
  5
4DB
100
AcDbEntity
  8
26814000
100
AcDbLine
 62
7
  6
CONTINUOUS
 10
145.0496871184
 20
136.2609482605
 11
142.2491686611
 21
137.6612074891
  0
LINE
  5
4DC
100
AcDbEntity
  8
26814000
100
AcDbLine
 62
7
  6
CONTINUOUS
 10
141.8956152706
 20
138.3905423737
 11
142.2491686611
 21
138.2137656785
  0
LWPOLYLINE
  5
4DD
100
AcDbEntity
  8
RACCORDO
100
AcDbPolyline
 62
250
  6
CONTINUOUS
 90
13
 70
0
 10
163.1441740452
 20
125.1484478672
 10
163.1667348115
 20
125.1353970587
 10
163.1890826658
 20
125.1188907009
 10
163.2108350138
 20
125.0991340303
 10
163.2316529595
 20
125.0763407295
 10
163.2511000076
 20
125.0508886794
 10
163.2686885031
 20
125.0233697605
 10
163.2840815734
 20
124.9943275622
 10
163.2970537279
 20
124.9642063387
 10
163.307377515
 20
124.9335379855
 10
163.3148766932
 20
124.9028566029
 10
163.3194262008
 20
124.8726883642
 10
163.3209507405
 20
124.8435531686
  0
LWPOLYLINE
  5
4DE
100
AcDbEntity
  8
RACCORDO
100
AcDbPolyline
 62
7
  6
CONTINUOUS
 90
10
 70
0
 10
163.2559774441
 20
125.155548314
 10
163.2843122144
 20
125.1389699473
 10
163.3106436434
 20
125.1184556652
 10
163.3342764473
 20
125.094302462
 10
163.3545491792
 20
125.0670055352
 10
163.3709780103
 20
125.0371076778
 10
163.3832403367
 20
125.0050668077
 10
163.3910662668
 20
124.9712373181
 10
163.39412985
 20
124.936642115
 10
163.3941740415
 20
124.9319630726
  0
LWPOLYLINE
  5
4DF
100
AcDbEntity
  8
RACCORDO
100
AcDbPolyline
 62
7
  6
CONTINUOUS
 90
4
 70
0
 10
162.6990751708
 20
123.1050623365
 10
162.6994193382
 20
123.1047064905
 10
162.699241365
 20
123.1049603371
 10
162.6972465915
 20
123.1079269081
  0
LWPOLYLINE
  5
4E0
100
AcDbEntity
  8
26814000
100
AcDbPolyline
 62
7
  6
CONTINUOUS
 90
17
 70
0
 10
152.7165072635
 20
135.1172290983
 10
152.6828699697
 20
135.1532912488
 10
152.6491863816
 20
135.1879299085
 10
152.6154564992
 20
135.2211450772
 10
152.5816115975
 20
135.2529523812
 10
152.5477204015
 20
135.2833361943
 10
152.5139890864
 20
135.3122496384
 10
152.480437291
 20
135.3396688138
 10
152.4470453766
 20
135.3656176201
 10
152.4139606025
 20
135.3901208786
 10
152.3811982891
 20
135.4131645855
 10
152.348743116
 20
135.4347627445
 10
152.3166963814
 20
135.4549821886
 10
152.2850692419
 20
135.4738161026
 10
152.2538505408
 20
135.4912713015
 10
152.2231081065
 20
135.507435063
 10
152.2158354746
 20
135.51111151
  0
LWPOLYLINE
  5
4E1
100
AcDbEntity
  8
RACCORDO
100
AcDbPolyline
 62
250
  6
CONTINUOUS
 90
7
 70
0
 10
162.8720208645
 20
123.0258603721
 10
162.8604815464
 20
123.0453831188
 10
162.8456097093
 20
123.0641151114
 10
162.8274053535
 20
123.0820563499
 10
162.8058684787
 20
123.0992068344
 10
162.7809990851
 20
123.1155665647
 10
162.7527971726
 20
123.1311355409
  0
LWPOLYLINE
  5
4E2
100
AcDbEntity
  8
RACCORDO
100
AcDbPolyline
 62
250
  6
CONTINUOUS
 90
7
 70
0
 10
162.7906206546
 20
123.8520741535
 10
162.8006452999
 20
123.8341251643
 10
162.8074737225
 20
123.8179956364
 10
162.8109890862
 20
123.8039615505
 10
162.8111312421
 20
123.7922630336
 10
162.8078977578
 20
123.7831002508
 10
162.8063629974
 20
123.780974508
  0
LWPOLYLINE
  5
4E3
100
AcDbEntity
  8
RACCORDO
100
AcDbPolyline
 62
250
  6
CONTINUOUS
 90
6
 70
0
 10
163.3209507405
 20
124.4922391965
 10
163.3309753858
 20
124.4742902072
 10
163.3378038084
 20
124.4581606793
 10
163.3413191721
 20
124.4441265934
 10
163.341461328
 20
124.4324280766
 10
163.3382278437
 20
124.4232652938
  0
LWPOLYLINE
  5
4E4
100
AcDbEntity
  8
RACCORDO
100
AcDbPolyline
 62
7
  6
CONTINUOUS
 90
5
 70
0
 10
162.6972465915
 20
123.1079269081
 10
162.6942624558
 20
123.1135970447
 10
162.6912092095
 20
123.1214611626
 10
162.6886439503
 20
123.131511045
 10
162.6872031813
 20
123.1433272771
  0
LWPOLYLINE
  5
4E5
100
AcDbEntity
  8
21814000
100
AcDbPolyline
 62
250
  6
CONTINUOUS
 90
35
 70
0
 10
162.655980283
 20
132.0988706893
 10
162.6675778093
 20
132.0619957688
 10
162.6875153168
 20
131.9890818973
 10
162.7038293138
 20
131.9181101469
 10
162.7174250741
 20
131.8490438119
 10
162.728482831
 20
131.7820649427
 10
162.7370102059
 20
131.7171414412
 10
162.7436098874
 20
131.6538898781
 10
162.7484223013
 20
131.5923311897
 10
162.7514418408
 20
131.532536384
 10
162.7530139789
 20
131.4741776791
 10
162.7532301578
 20
131.4172069497
 10
162.7520992107
 20
131.3617305564
 10
162.7498213827
 20
131.3076424545
 10
162.7464602371
 20
131.254927941
 10
162.742037661
 20
131.2036418166
 10
162.736682744
 20
131.1537778801
 10
162.7304540045
 20
131.1053616365
 10
162.7233702363
 20
131.0583956817
 10
162.7154961527
 20
131.0128366366
 10
162.7068894685
 20
130.9687000106
 10
162.6975604329
 20
130.9259889004
 10
162.6874985144
 20
130.8846388722
 10
162.6767489227
 20
130.8446113154
 10
162.6653253679
 20
130.8059562793
 10
162.6531693986
 20
130.7687406032
 10
162.6403169551
 20
130.7329135529
 10
162.6267870674
 20
130.698532867
 10
162.6124998749
 20
130.6658273042
 10
162.597488417
 20
130.6347596594
 10
162.5817723187
 20
130.6053720147
 10
162.5652572344
 20
130.5780121444
 10
162.5479289564
 20
130.5527978811
 10
162.5298481214
 20
130.5296169053
 10
162.5110322925
 20
130.5084723721
  0
LINE
  5
4E6
100
AcDbEntity
  8
RACCORDO
100
AcDbLine
 62
7
  6
CONTINUOUS
 10
168.7836683641
 20
126.7405692467
 11
168.7836683641
 21
126.4588537613
  0
LINE
  5
4E7
100
AcDbEntity
  8
RACCORDO
100
AcDbLine
 62
7
  6
CONTINUOUS
 10
168.7836683641
 20
90.2589918831
 11
168.7836683641
 21
89.9772763977
  0
LWPOLYLINE
  5
4E8
100
AcDbEntity
  8
RACCORDO
100
AcDbPolyline
 62
250
  6
CONTINUOUS
 90
13
 70
0
 10
162.7906206546
 20
83.3024700142
 10
162.8006452999
 20
83.333468347
 10
162.8074737225
 20
83.3654486389
 10
162.8109890862
 20
83.3978636982
 10
162.8111312421
 20
83.4301588943
 10
162.8078977578
 20
83.4617816473
 10
162.8013439593
 20
83.4921908833
 10
162.7915819838
 20
83.5208662917
 10
162.7787788614
 20
83.5473172284
 10
162.7631536571
 20
83.5710911106
 10
162.7449737225
 20
83.5917811604
 10
162.7245501213
 20
83.6090333654
 10
162.702232307
 20
83.6225525356
  0
LWPOLYLINE
  5
4E9
100
AcDbEntity
  8
RACCORDO
100
AcDbPolyline
 62
250
  6
CONTINUOUS
 90
5
 70
0
 10
163.3209507405
 20
83.1926350571
 10
163.330914374
 20
83.2234057299
 10
163.3377403358
 20
83.2552200996
 10
163.3412913945
 20
83.2875439471
 10
163.3414837736
 20
83.3198521978
  0
LWPOLYLINE
  5
4EA
100
AcDbEntity
  8
RACCORDO
100
AcDbPolyline
 62
7
  6
CONTINUOUS
 90
9
 70
0
 10
160.0817348396
 20
83.7909362148
 10
160.094974744
 20
83.8189232509
 10
160.1064796497
 20
83.8471468607
 10
160.1161367901
 20
83.8751761585
 10
160.1238876459
 20
83.9025931638
 10
160.129674889
 20
83.9287302254
 10
160.1335812506
 20
83.9531215454
 10
160.1357766723
 20
83.9755251988
 10
160.1364575986
 20
83.9956680657
  0
LWPOLYLINE
  5
4EB
100
AcDbEntity
  8
21814000
100
AcDbPolyline
 62
7
  6
CONTINUOUS
 90
10
 70
0
 10
142.1917330575
 20
137.1163792428
 10
142.1106105992
 20
137.1280995975
 10
142.02833698
 20
137.1360028488
 10
141.9455439185
 20
137.1400918122
 10
141.8626647477
 20
137.1403901094
 10
141.7799349178
 20
137.1368981141
 10
141.6978841715
 20
137.1296025164
 10
141.6170517399
 20
137.1184982174
 10
141.5376535367
 20
137.1035181646
 10
141.4601027064
 20
137.0845813155
  0
LWPOLYLINE
  5
4EC
100
AcDbEntity
  8
26814000
100
AcDbPolyline
 62
7
  6
CONTINUOUS
 90
13
 70
0
 10
151.969520375
 20
135.5984889819
 10
151.934869565
 20
135.604918663
 10
151.899665342
 20
135.6103018158
 10
151.8639454901
 20
135.6146639567
 10
151.8277201732
 20
135.6180578798
 10
151.7910524351
 20
135.6204876295
 10
151.7540562252
 20
135.6218988587
 10
151.7167691902
 20
135.6223089936
 10
151.6792182084
 20
135.6217451121
 10
151.6414975075
 20
135.6201531239
 10
151.6036581327
 20
135.6175240329
 10
151.5657089465
 20
135.6139020517
 10
151.5276795071
 20
135.6093072622
  0
LWPOLYLINE
  5
4ED
100
AcDbEntity
  8
21814000
100
AcDbPolyline
 62
250
  6
CONTINUOUS
 90
13
 70
0
 10
142.2289615803
 20
137.0794325926
 10
142.1592393504
 20
137.0930073373
 10
142.0884975515
 20
137.1032708385
 10
142.0167361836
 20
137.110223096
 10
141.9432968073
 20
137.1138734706
 10
141.8688378621
 20
137.1142126016
 10
141.7953346663
 20
137.111212407
 10
141.7228101561
 20
137.1047678453
 10
141.6512413954
 20
137.094983958
 10
141.5825348941
 20
137.0821477875
 10
141.5173261557
 20
137.0663550147
 10
141.4549796768
 20
137.0475099587
 10
141.3954954573
 20
137.0256126195
  0
LINE
  5
4EE
100
AcDbEntity
  8
21814000
100
AcDbLine
 62
7
  6
CONTINUOUS
 10
142.2711567496
 20
137.1008448556
 11
142.1917330575
 21
137.1163792428
  0
LINE
  5
4EF
100
AcDbEntity
  8
26814000
100
AcDbLine
 62
7
  6
CONTINUOUS
 10
132.4142136623
 20
137.7296174779
 11
131.7918956302
 21
137.8595580604
  0
LINE
  5
4F0
100
AcDbEntity
  8
21814000
100
AcDbLine
 62
250
  6
CONTINUOUS
 10
161.4872777255
 20
132.1664302572
 11
160.9337436361
 21
132.2918316521
  0
LWPOLYLINE
  5
4F1
100
AcDbEntity
  8
21814000
100
AcDbPolyline
 62
250
  6
CONTINUOUS
 90
4
 70
0
 10
141.8530287223
 20
136.399521852
 10
141.8951518576
 20
136.3899709693
 10
141.9349443533
 20
136.377094537
 10
141.9724062094
 20
136.3608925553
  0
LWPOLYLINE
  5
4F2
100
AcDbEntity
  8
21814000
100
AcDbPolyline
 62
7
  6
CONTINUOUS
 90
4
 70
0
 10
141.2231536646
 20
136.9735841991
 10
141.2342747042
 20
136.9709069726
 10
141.2460911452
 20
136.9669297961
 10
141.2585602939
 20
136.9615733738
  0
LWPOLYLINE
  5
4F3
100
AcDbEntity
  8
21814000
100
AcDbPolyline
 62
7
  6
CONTINUOUS
 90
7
 70
0
 10
142.271149892
 20
137.1008463801
 10
142.2790105747
 20
137.0989303746
 10
142.2881066276
 20
137.0962852315
 10
142.2970700113
 20
137.0932113195
 10
142.3058902943
 20
137.0897109684
 10
142.3145477557
 20
137.0857898428
 10
142.3171883139
 20
137.0844934164
  0
LWPOLYLINE
  5
4F4
100
AcDbEntity
  8
26814000
100
AcDbPolyline
 62
7
  6
CONTINUOUS
 90
18
 70
0
 10
144.7470016361
 20
139.2455062031
 10
144.7274395518
 20
139.2545959362
 10
144.7045437716
 20
139.2635813509
 10
144.6810344853
 20
139.2710835836
 10
144.6568931632
 20
139.2771177535
 10
144.6322034099
 20
139.2816635379
 10
144.6069419836
 20
139.2847175213
 10
144.5811321261
 20
139.2862831193
 10
144.5549271672
 20
139.2863502558
 10
144.5283432046
 20
139.2849114799
 10
144.5013641406
 20
139.2819742425
 10
144.474095012
 20
139.2775508213
 10
144.4465208323
 20
139.2716324356
 10
144.4186565881
 20
139.2642278661
 10
144.390652275
 20
139.2553757315
 10
144.3625578918
 20
139.2450889048
 10
144.3343234398
 20
139.2333545131
 10
144.305948919
 20
139.2201725563
  0
LWPOLYLINE
  5
4F5
100
AcDbEntity
  8
RACCORDO
100
AcDbPolyline
 62
7
  6
CONTINUOUS
 90
12
 70
0
 10
158.3119573926
 20
131.85729409
 10
158.3035580257
 20
131.861240995
 10
158.2847842993
 20
131.8683436715
 10
158.265161112
 20
131.8734645895
 10
158.2446992076
 20
131.8766288137
 10
158.2236595848
 20
131.8777959835
 10
158.2020348431
 20
131.8769405169
 10
158.1798323829
 20
131.8740879957
 10
158.1573354045
 20
131.869274805
 10
158.1346383079
 20
131.862513073
 10
158.111646693
 20
131.8537906714
 10
158.0883605597
 20
131.8431076003
  0
LWPOLYLINE
  5
4F6
100
AcDbEntity
  8
RACCORDO
100
AcDbPolyline
 62
7
  6
CONTINUOUS
 90
12
 70
0
 10
160.6568591841
 20
131.2148651029
 10
160.6457673731
 20
131.2201911072
 10
160.6089182893
 20
131.2348575582
 10
160.570381155
 20
131.2456577486
 10
160.5301768556
 20
131.2526395141
 10
160.488806961
 20
131.2557157535
 10
160.446256869
 20
131.2548375399
 10
160.4025411817
 20
131.2500538002
 10
160.3582052754
 20
131.2414242142
 10
160.3134309421
 20
131.2289686749
 10
160.2680363897
 20
131.2126672893
 10
160.2220216182
 20
131.1925200573
  0
LWPOLYLINE
  5
4F7
100
AcDbEntity
  8
26814000
100
AcDbPolyline
 62
7
  6
CONTINUOUS
 90
10
 70
0
 10
152.2158354746
 20
135.51111151
 10
152.1928557954
 20
135.5223029422
 10
152.1630797511
 20
135.535879384
 10
152.133806232
 20
135.5482650007
 10
152.105016224
 20
135.5594667972
 10
152.0767287414
 20
135.5694777688
 10
152.049027085
 20
135.5783775132
 10
152.021939022
 20
135.5861925632
 10
151.9954367853
 20
135.5928963861
 10
151.969520375
 20
135.5984889819
  0
LINE
  5
4F8
100
AcDbEntity
  8
0
100
AcDbLine
 62
7
  6
CONTINUOUS
 10
159.0695167808
 20
130.1614789723
 11
161.8470575106
 21
128.7727086074
  0
LINE
  5
4F9
100
AcDbEntity
  8
26814000
100
AcDbLine
 62
7
  6
CONTINUOUS
 10
146.4575028146
 20
136.9548249189
 11
143.6469531677
 21
138.3600997424
  0
LINE
  5
4FA
100
AcDbEntity
  8
21814000
100
AcDbLine
 62
7
  6
CONTINUOUS
 10
153.2996204243
 20
134.0064111645
 11
152.5118317766
 21
134.4003054883
  0
LINE
  5
4FB
100
AcDbEntity
  8
RACCORDO
100
AcDbLine
 62
250
  6
CONTINUOUS
 10
157.4825096146
 20
132.1460330728
 11
158.0883605597
 21
131.8431076003
  0
LINE
  5
4FC
100
AcDbEntity
  8
RACCORDO
100
AcDbLine
 62
250
  6
CONTINUOUS
 10
163.038108028
 20
129.3682338661
 11
163.6439589731
 21
129.0653083936
  0
LINE
  5
4FD
100
AcDbEntity
  8
0
100
AcDbLine
 62
7
  6
CONTINUOUS
 10
164.0904214001
 20
128.8920797836
 11
163.9728279807
 21
128.9508764933
  0
LINE
  5
4FE
100
AcDbEntity
  8
0
100
AcDbLine
 62
7
  6
CONTINUOUS
 10
163.0937329961
 20
129.3904239856
 11
160.9167876845
 21
130.4788966415
  0
LINE
  5
4FF
100
AcDbEntity
  8
26814000
100
AcDbLine
 62
7
  6
CONTINUOUS
 10
145.0068851078
 20
138.4338479298
 11
147.2166259959
 21
137.3289774857
  0
LINE
  5
500
100
AcDbEntity
  8
26814000
100
AcDbLine
 62
7
  6
CONTINUOUS
 10
147.9622108191
 20
136.9561850742
 11
148.1080242291
 21
136.8832783691
  0
LINE
  5
501
100
AcDbEntity
  8
RACCORDO
100
AcDbLine
 62
7
  6
CONTINUOUS
 10
157.7073980991
 20
132.159593123
 11
158.3119673575
 21
131.8573084939
  0
LINE
  5
502
100
AcDbEntity
  8
RACCORDO
100
AcDbLine
 62
7
  6
CONTINUOUS
 10
163.2617148258
 20
129.3824347597
 11
163.8662840841
 21
129.0801501306
  0
LINE
  5
503
100
AcDbEntity
  8
26814000
100
AcDbLine
 62
7
  6
CONTINUOUS
 10
142.1394273621
 20
140.1308204824
 11
142.3198793393
 21
140.0405944938
  0
LINE
  5
504
100
AcDbEntity
  8
26814000
100
AcDbLine
 62
7
  6
CONTINUOUS
 10
147.6938908763
 20
137.3535887253
 11
147.8743428534
 21
137.2633627367
  0
LINE
  5
505
100
AcDbEntity
  8
RACCORDO
100
AcDbLine
 62
250
  6
CONTINUOUS
 10
157.0578211034
 20
132.7746203147
 11
160.2220216182
 21
131.1925200573
  0
LINE
  5
506
100
AcDbEntity
  8
RACCORDO
100
AcDbLine
 62
250
  6
CONTINUOUS
 10
164.4646623053
 20
129.0711997137
 11
167.6288628202
 21
127.4890994563
  0
LINE
  5
507
100
AcDbEntity
  8
26814000
100
AcDbLine
 62
250
  6
CONTINUOUS
 10
141.3268590181
 20
140.7097175067
 11
144.305948919
 21
139.2201725563
  0
LINE
  5
508
100
AcDbEntity
  8
26814000
100
AcDbLine
 62
250
  6
CONTINUOUS
 10
148.5485896061
 20
137.0988522127
 11
151.5276795071
 21
135.6093072622
  0
LINE
  5
509
100
AcDbEntity
  8
RACCORDO
100
AcDbLine
 62
7
  6
CONTINUOUS
 10
157.3319872404
 20
132.8773370161
 11
160.6568944988
 21
131.2148833869
  0
LINE
  5
50A
100
AcDbEntity
  8
RACCORDO
100
AcDbLine
 62
7
  6
CONTINUOUS
 10
164.8995351859
 20
129.0935630433
 11
168.2244424443
 21
127.4311094141
  0
LINE
  5
50B
100
AcDbEntity
  8
26814000
100
AcDbLine
 62
7
  6
CONTINUOUS
 10
148.9896326092
 20
137.1242016793
 11
152.2161225014
 21
135.5109567332
  0
LINE
  5
50C
100
AcDbEntity
  8
0
100
AcDbLine
 62
7
  6
CONTINUOUS
 10
154.2769171681
 20
134.9317270643
 11
153.5699482279
 21
135.2852115343
  0
LINE
  5
50D
100
AcDbEntity
  8
0
100
AcDbLine
 62
7
  6
CONTINUOUS
 10
154.2769171681
 20
134.9317270643
 11
154.490809622
 21
134.7341937966
  0
LINE
  5
50E
100
AcDbEntity
  8
RACCORDO
100
AcDbLine
 62
250
  6
CONTINUOUS
 10
157.4493642099
 20
135.2278768369
 11
157.4714097083
 21
135.20604695
  0
LINE
  5
50F
100
AcDbEntity
  8
RACCORDO
100
AcDbLine
 62
250
  6
CONTINUOUS
 10
157.4714097083
 20
135.20604695
 11
157.4867427474
 21
135.1901209591
  0
LWPOLYLINE
  5
510
100
AcDbEntity
  8
RACCORDO
100
AcDbPolyline
 62
7
  6
CONTINUOUS
 90
4
 70
0
 10
163.3740658019
 20
82.8314761379
 10
163.3850260773
 20
82.8626998062
 10
163.3917840051
 20
82.8952230907
 10
163.3941738869
 20
82.9295687401
  0
LWPOLYLINE
  5
511
100
AcDbEntity
  8
RACCORDO
100
AcDbPolyline
 62
250
  6
CONTINUOUS
 90
7
 70
0
 10
162.6800262012
 20
83.9759270313
 10
162.6787498299
 20
83.9727393182
 10
162.6707537213
 20
83.9596622126
 10
162.6601622335
 20
83.947003529
 10
162.6470602742
 20
83.9349036868
 10
162.6315711012
 20
83.923494501
 10
162.6138439593
 20
83.9129040943
  0
LWPOLYLINE
  5
512
100
AcDbEntity
  8
RACCORDO
100
AcDbPolyline
 62
250
  6
CONTINUOUS
 90
6
 70
0
 10
161.917376788
 20
83.6066579296
 10
161.9173219069
 20
83.6065460772
 10
161.9125383434
 20
83.5926588905
 10
161.9091588583
 20
83.5775382907
 10
161.90721844
 20
83.5613408211
 10
161.9067371781
 20
83.544234174
  0
LINE
  5
513
100
AcDbEntity
  8
RACCORDO
100
AcDbLine
 62
250
  6
CONTINUOUS
 10
158.9072273874
 20
87.9558254679
 11
159.875971704
 21
88.4032236964
  0
LINE
  5
514
100
AcDbEntity
  8
RACCORDO
100
AcDbLine
 62
7
  6
CONTINUOUS
 10
158.8892214801
 20
87.7370056359
 11
159.7754278977
 21
88.1462851275
  0
LINE
  5
515
100
AcDbEntity
  8
26814000
100
AcDbLine
 62
7
  6
CONTINUOUS
 10
143.6469531677
 20
138.3600997424
 11
145.0068851078
 21
138.4338479298
  0
LWPOLYLINE
  5
516
100
AcDbEntity
  8
21814000
100
AcDbPolyline
 62
7
  6
CONTINUOUS
 90
3
 70
0
 10
141.2030624578
 20
136.9753764836
 10
141.2127424681
 20
136.9750390696
 10
141.2231536646
 20
136.9735841991
  0
LWPOLYLINE
  5
517
100
AcDbEntity
  8
RACCORDO
100
AcDbPolyline
 62
7
  6
CONTINUOUS
 90
9
 70
0
 10
156.614699375
 20
135.7243138343
 10
156.6085826344
 20
135.725913332
 10
156.5988124207
 20
135.7274461459
 10
156.5884862253
 20
135.7278615902
 10
156.5776990281
 20
135.7271598177
 10
156.5667357692
 20
135.7253412864
 10
156.5556914285
 20
135.7224061489
 10
156.544471026
 20
135.7183542525
 10
156.5330745617
 20
135.7131855973
  0
LINE
  5
518
100
AcDbEntity
  8
0
100
AcDbLine
 62
7
  6
CONTINUOUS
 10
155.2216365763
 20
135.0574666045
 11
154.7718919149
 21
135.1792144377
  0
LWPOLYLINE
  5
519
100
AcDbEntity
  8
RACCORDO
100
AcDbPolyline
 62
7
  6
CONTINUOUS
 90
28
 70
0
 10
156.6146892388
 20
135.7242898818
 10
156.5059738922
 20
135.7555757276
 10
156.3911188492
 20
135.7849294046
 10
156.2738574253
 20
135.8112564748
 10
156.1544842605
 20
135.8345185666
 10
156.0332638888
 20
135.8546891194
 10
155.9104345193
 20
135.8717483947
 10
155.786285722
 20
135.8856722362
 10
155.6611022589
 20
135.8964429052
 10
155.5351217414
 20
135.9040503049
 10
155.4086353552
 20
135.9084836836
 10
155.2819326323
 20
135.9097382383
 10
155.1552508868
 20
135.9078134652
 10
155.0288796171
 20
135.9027121302
 10
154.9031100265
 20
135.8944429181
 10
154.7781804271
 20
135.8830150426
 10
154.6543815525
 20
135.8684452104
 10
154.5319968001
 20
135.8507551888
 10
154.411248364
 20
135.8299610134
 10
154.2924134429
 20
135.8060894134
 10
154.1757776194
 20
135.7791743616
 10
154.0615660464
 20
135.7492395943
 10
153.9500508682
 20
135.7163224904
 10
153.8415046718
 20
135.6804658556
 10
153.7361377802
 20
135.641694238
 10
153.6341909978
 20
135.6000414297
 10
153.5359448603
 20
135.5555606551
 10
153.4416607992
 20
135.5083032657
  0
LWPOLYLINE
  5
51A
100
AcDbEntity
  8
RACCORDO
100
AcDbPolyline
 62
7
  6
CONTINUOUS
 90
3
 70
0
 10
156.6267400568
 20
135.7194960537
 10
156.6178918464
 20
135.7232633012
 10
156.614699375
 20
135.7243138343
  0
LINE
  5
51B
100
AcDbEntity
  8
0
100
AcDbLine
 62
7
  6
CONTINUOUS
 10
154.7718919149
 20
135.1792144377
 11
154.0649229748
 21
135.5326989078
  0
LINE
  5
51C
100
AcDbEntity
  8
21814000
100
AcDbLine
 62
7
  6
CONTINUOUS
 10
153.8044282024
 20
136.0153445489
 11
153.3658177299
 21
136.2346497852
  0
LINE
  5
51D
100
AcDbEntity
  8
21814000
100
AcDbLine
 62
7
  6
CONTINUOUS
 10
158.0343411824
 20
135.7756081744
 11
157.3078437937
 21
136.1388568687
  0
LINE
  5
51E
100
AcDbEntity
  8
21814000
100
AcDbLine
 62
7
  6
CONTINUOUS
 10
157.851511522
 20
135.8826828571
 11
157.5473921381
 21
136.0347425491
  0
LINE
  5
51F
100
AcDbEntity
  8
RACCORDO
100
AcDbLine
 62
7
  6
CONTINUOUS
 10
157.4752681942
 20
135.2952319849
 11
157.5880430794
 21
135.2387396588
  0
LWPOLYLINE
  5
520
100
AcDbEntity
  8
RACCORDO
100
AcDbPolyline
 62
7
  6
CONTINUOUS
 90
10
 70
0
 10
157.4373241269
 20
135.3078996399
 10
157.3398470732
 20
135.3579550716
 10
157.2442338714
 20
135.4069309472
 10
157.1504845214
 20
135.4548272668
 10
157.0586134401
 20
135.5016454546
 10
156.9686062107
 20
135.5473840863
 10
156.8804195827
 20
135.5920388894
 10
156.7940391393
 20
135.6356084395
 10
156.7094792973
 20
135.6780941609
 10
156.6267400568
 20
135.7194960537
  0
LWPOLYLINE
  5
521
100
AcDbEntity
  8
21814000
100
AcDbPolyline
 62
7
  6
CONTINUOUS
 90
10
 70
0
 10
157.851511522
 20
135.8826828571
 10
157.8200960676
 20
135.9007356694
 10
157.7880790903
 20
135.9185029718
 10
157.7554605902
 20
135.9359847644
 10
157.7222303995
 20
135.953186131
 10
157.6883986859
 20
135.9701019878
 10
157.6539959526
 20
135.9867170832
 10
157.6190323674
 20
136.0030263332
 10
157.5834977626
 20
136.0190348219
 10
157.5473921381
 20
136.0347425491
  0
LINE
  5
522
100
AcDbEntity
  8
RACCORDO
100
AcDbLine
 62
7
  6
CONTINUOUS
 10
157.4450825556
 20
135.3033131678
 11
157.4373241269
 21
135.3078996399
  0
LWPOLYLINE
  5
523
100
AcDbEntity
  8
RACCORDO
100
AcDbPolyline
 62
250
  6
CONTINUOUS
 90
5
 70
0
 10
157.4752681942
 20
135.2952319849
 10
157.4997911845
 20
135.2747276066
 10
157.5241569462
 20
135.2534493421
 10
157.5482936963
 20
135.2313870649
 10
157.5564425237
 20
135.2235730952
  0
LWPOLYLINE
  5
524
100
AcDbEntity
  8
RACCORDO
100
AcDbPolyline
 62
250
  6
CONTINUOUS
 90
4
 70
0
 10
157.381631595
 20
135.2889359765
 10
157.4044920244
 20
135.269357243
 10
157.4270695627
 20
135.2490041965
 10
157.4493642099
 20
135.2278768369
  0
LINE
  5
525
100
AcDbEntity
  8
21814000
100
AcDbLine
 62
250
  6
CONTINUOUS
 10
161.6448794084
 20
136.3962873755
 11
162.0644226194
 21
135.6726823741
  0
LINE
  5
526
100
AcDbEntity
  8
21814000
100
AcDbLine
 62
7
  6
CONTINUOUS
 10
162.0351437728
 20
136.3906775617
 11
162.3819815433
 21
135.7924708958
  0
LWPOLYLINE
  5
527
100
AcDbEntity
  8
21814000
100
AcDbPolyline
 62
250
  6
CONTINUOUS
 90
13
 70
0
 10
162.0644226194
 20
135.6726823741
 10
162.1161918688
 20
135.5791018566
 10
162.1642352193
 20
135.483382402
 10
162.2083469417
 20
135.3859338956
 10
162.2483381429
 20
135.2871736264
 10
162.2840375742
 20
135.1875245015
 10
162.3152923645
 20
135.0874132347
 10
162.3419686761
 20
134.987268518
 10
162.363952277
 20
134.8875191864
 10
162.3811490298
 20
134.788592383
 10
162.3934852956
 20
134.6909117278
 10
162.4009082487
 20
134.594895504
 10
162.4033861033
 20
134.5009548676
  0
LWPOLYLINE
  5
528
100
AcDbEntity
  8
RACCORDO
100
AcDbPolyline
 62
250
  6
CONTINUOUS
 90
10
 70
0
 10
160.1212925556
 20
83.6755855442
 10
160.1384679304
 20
83.6980084661
 10
160.1542157369
 20
83.722066122
 10
160.1683230131
 20
83.7474331732
 10
160.1805989823
 20
83.7737665739
 10
160.190877633
 20
83.8007102101
 10
160.1990199641
 20
83.8278997153
 10
160.2049158646
 20
83.8549673981
 10
160.2084856025
 20
83.8815472145
 10
160.2096809033
 20
83.9072797181
  0
LWPOLYLINE
  5
529
100
AcDbEntity
  8
RACCORDO
100
AcDbPolyline
 62
250
  6
CONTINUOUS
 90
10
 70
0
 10
161.4647954399
 20
83.0038341021
 10
161.4819708147
 20
83.026257024
 10
161.4977186212
 20
83.0503146798
 10
161.5118258973
 20
83.075681731
 10
161.5241018665
 20
83.1020151318
 10
161.5343805172
 20
83.1289587679
 10
161.5425228483
 20
83.1561482731
 10
161.5484187488
 20
83.1832159559
 10
161.5519884868
 20
83.2097957723
 10
161.5531837875
 20
83.2355282759
  0
LWPOLYLINE
  5
52A
100
AcDbEntity
  8
RACCORDO
100
AcDbPolyline
 62
250
  6
CONTINUOUS
 90
13
 70
0
 10
161.7299604828
 20
82.7721399283
 10
161.7563389153
 20
82.8060497792
 10
161.7807892508
 20
82.8412650351
 10
161.8033114893
 20
82.8777856957
 10
161.8240298074
 20
82.9158834618
 10
161.8428200284
 20
82.9552866327
 10
161.8593096228
 20
82.9951801069
 10
161.8734652209
 20
83.0355765856
 10
161.8853201924
 20
83.0764633676
 10
161.894602116
 20
83.1169872481
 10
161.9012201846
 20
83.1568638256
 10
161.9052652053
 20
83.1963775015
 10
161.9067371781
 20
83.2355282759
  0
LWPOLYLINE
  5
52B
100
AcDbEntity
  8
RACCORDO
100
AcDbPolyline
 62
7
  6
CONTINUOUS
 90
5
 70
0
 10
160.0171618652
 20
83.6917677112
 10
160.0345092376
 20
83.7139902633
 10
160.0512413131
 20
83.7381155222
 10
160.067060042
 20
83.7638494207
 10
160.0817348396
 20
83.7909362148
  0
LINE
  5
52C
100
AcDbEntity
  8
RACCORDO
100
AcDbLine
 62
7
  6
CONTINUOUS
 10
159.4868317793
 20
83.0516026683
 11
160.0171618652
 21
83.6917677112
  0
LINE
  5
52D
100
AcDbEntity
  8
RACCORDO
100
AcDbLine
 62
250
  6
CONTINUOUS
 10
159.5909624697
 20
83.0354205013
 11
160.1212925556
 21
83.6755855442
  0
LINE
  5
52E
100
AcDbEntity
  8
RACCORDO
100
AcDbLine
 62
250
  6
CONTINUOUS
 10
161.4647954399
 20
83.0038341021
 11
160.934465354
 21
82.3636690592
  0
LINE
  5
52F
100
AcDbEntity
  8
RACCORDO
100
AcDbLine
 62
250
  6
CONTINUOUS
 10
161.7299604828
 20
82.7721399283
 11
161.1996303969
 21
82.1319748853
  0
LWPOLYLINE
  5
530
100
AcDbEntity
  8
RACCORDO
100
AcDbPolyline
 62
250
  6
CONTINUOUS
 90
8
 70
0
 10
159.4868293192
 20
83.0515996981
 10
159.4917706943
 20
83.0558971832
 10
159.5015212702
 20
83.0595960114
 10
159.5143249371
 20
83.060419367
 10
159.529961189
 20
83.0583532794
 10
159.5481610061
 20
83.0534336592
 10
159.5686118597
 20
83.0457452989
 10
159.5909624697
 20
83.0354205013
  0
LWPOLYLINE
  5
531
100
AcDbEntity
  8
RACCORDO
100
AcDbPolyline
 62
250
  6
CONTINUOUS
 90
8
 70
0
 10
160.0171618652
 20
83.6917677112
 10
160.0221809033
 20
83.6961122395
 10
160.0319428788
 20
83.6997792908
 10
160.0447460012
 20
83.7005803779
 10
160.0603712055
 20
83.698501794
 10
160.0785511401
 20
83.6935791044
 10
160.0989747413
 20
83.6858965375
 10
160.1212925556
 20
83.6755855442
  0
LINE
  5
532
100
AcDbEntity
  8
DRAFT
100
AcDbLine
 62
7
  6
CONTINUOUS
 10
163.8512808264
 20
87.7051734757
 11
168.7836683641
 21
90.2589918831
  0
LINE
  5
533
100
AcDbEntity
  8
DRAFT
100
AcDbLine
 62
7
  6
CONTINUOUS
 10
163.8512808264
 20
88.4896122804
 11
168.0498909091
 21
90.6258806106
  0
LINE
  5
534
100
AcDbEntity
  8
RACCORDO
100
AcDbLine
 62
7
  6
CONTINUOUS
 10
163.8512808264
 20
87.0906636216
 11
167.6288628202
 21
88.9940195994
  0
LINE
  5
535
100
AcDbEntity
  8
RACCORDO
100
AcDbLine
 62
7
  6
CONTINUOUS
 10
163.8512808264
 20
87.2283133039
 11
168.7402001319
 21
89.653253321
  0
LINE
  5
536
100
AcDbEntity
  8
21814000
100
AcDbLine
 62
7
  6
CONTINUOUS
 10
160.2461115558
 20
136.5144692689
 11
157.133873983
 21
138.0705880553
  0
LINE
  5
537
100
AcDbEntity
  8
21814000
100
AcDbLine
 62
250
  6
CONTINUOUS
 10
161.6448794084
 20
136.3962873755
 11
160.8392074724
 21
136.7991233435
  0
LINE
  5
538
100
AcDbEntity
  8
21814000
100
AcDbLine
 62
250
  6
CONTINUOUS
 10
156.1375443933
 20
139.1499548831
 11
155.1663855596
 21
139.6355342999
  0
LINE
  5
539
100
AcDbEntity
  8
21814000
100
AcDbLine
 62
7
  6
CONTINUOUS
 10
161.975154786
 20
136.4469694796
 11
161.1493958858
 21
136.8598489297
  0
LINE
  5
53A
100
AcDbEntity
  8
21814000
100
AcDbLine
 62
7
  6
CONTINUOUS
 10
156.6101271648
 20
139.1294832902
 11
155.5577711521
 21
139.6556612966
  0
LWPOLYLINE
  5
53B
100
AcDbEntity
  8
21814000
100
AcDbPolyline
 62
7
  6
CONTINUOUS
 90
4
 70
0
 10
161.9770803379
 20
136.4460065063
 10
161.990723814
 20
136.4381917645
 10
162.0142595105
 20
136.418819486
 10
162.0344376532
 20
136.3919416545
  0
LWPOLYLINE
  5
53C
100
AcDbEntity
  8
21814000
100
AcDbPolyline
 62
7
  6
CONTINUOUS
 90
35
 70
0
 10
162.655980283
 20
134.1809587611
 10
162.7727538117
 20
134.1038566548
 10
162.9125504852
 20
133.9993430086
 10
163.049288341
 20
133.8848144116
 10
163.1821537845
 20
133.7610979071
 10
163.3105392377
 20
133.628951132
 10
163.4341208379
 20
133.488883726
 10
163.5525009992
 20
133.3414782223
 10
163.6652553823
 20
133.1873673328
 10
163.7719309483
 20
133.0272605487
 10
163.8720879604
 20
132.8619047916
 10
163.9653039042
 20
132.6920870298
 10
164.0512570268
 20
132.5184689993
 10
164.1296724085
 20
132.3416310405
 10
164.2002390835
 20
132.1622404768
 10
164.2626136658
 20
131.9811059167
 10
164.3164984019
 20
131.7990106217
 10
164.361635125
 20
131.6167060387
 10
164.3977940277
 20
131.4349292017
 10
164.4247697717
 20
131.2544057418
 10
164.442389577
 20
131.0757032895
 10
164.4504624781
 20
130.8997067738
 10
164.4488624163
 20
130.727526533
 10
164.4375150442
 20
130.5596105576
 10
164.416380442
 20
130.3968336213
 10
164.3856510879
 20
130.240739981
 10
164.3455465956
 20
130.0919980162
 10
164.2962202474
 20
129.9509050858
 10
164.2380251277
 20
129.8182389958
 10
164.171216744
 20
129.694341645
 10
164.0961480304
 20
129.5796825469
 10
164.0135583249
 20
129.4750849088
 10
163.9241191539
 20
129.3809575694
 10
163.8282948455
 20
129.2973770095
 10
163.7267033761
 20
129.224528084
  0
LWPOLYLINE
  5
53D
100
AcDbEntity
  8
21814000
100
AcDbPolyline
 62
250
  6
CONTINUOUS
 90
34
 70
0
 10
162.655980283
 20
134.1023482401
 10
162.7340753737
 20
134.0468364367
 10
162.8712162437
 20
133.9373808274
 10
163.0057587353
 20
133.8178553539
 10
163.1370753141
 20
133.6888175052
 10
163.2645534727
 20
133.5508691568
 10
163.3875986095
 20
133.4046537462
 10
163.5056368049
 20
133.2508532675
 10
163.6181174994
 20
133.0901850854
 10
163.724516054
 20
132.9233985981
 10
163.8243361971
 20
132.7512717425
 10
163.9171123384
 20
132.5746073677
 10
164.0024117437
 20
132.3942294868
 10
164.0798365525
 20
132.210979433
 10
164.1490256343
 20
132.0257119351
 10
164.209656272
 20
131.839291132
 10
164.2614456675
 20
131.6525865422
 10
164.3041522605
 20
131.4664690081
 10
164.3375768555
 20
131.2818066337
 10
164.361563551
 20
131.099460736
 10
164.3760004663
 20
130.9202818269
 10
164.3808202636
 20
130.7451056469
 10
164.376000462
 20
130.5747492665
 10
164.3615635424
 20
130.4100072753
 10
164.3375768427
 20
130.2516480759
 10
164.3041522433
 20
130.1004102997
 10
164.2614456461
 20
129.956999362
 10
164.2096562464
 20
129.8220841714
 10
164.1490256047
 20
129.69629401
 10
164.0798365189
 20
129.5802155982
 10
164.0024117062
 20
129.4743903578
 10
163.9171122971
 20
129.3793118869
 10
163.8243361521
 20
129.2954236585
 10
163.7267033761
 20
129.224528084
  0
LWPOLYLINE
  5
53E
100
AcDbEntity
  8
21814000
100
AcDbPolyline
 62
250
  6
CONTINUOUS
 90
12
 70
0
 10
162.3819815433
 20
135.7924708958
 10
162.3806224066
 20
135.7940680098
 10
162.3727034885
 20
135.7965896129
 10
162.359058896
 20
135.7957208038
 10
162.3397901794
 20
135.7914680484
 10
162.3150407464
 20
135.7838629981
 10
162.2849947954
 20
135.7729622536
 10
162.249875944
 20
135.7588469439
 10
162.2099455649
 20
135.7416221228
 10
162.165500841
 20
135.7214159865
 10
162.1168725531
 20
135.6983789195
 10
162.0644226184
 20
135.6726823758
  0
LINE
  5
53F
100
AcDbEntity
  8
RACCORDO
100
AcDbLine
 62
250
  6
CONTINUOUS
 10
163.0384284428
 20
84.3734302015
 11
163.0730631028
 21
84.3969426626
  0
LWPOLYLINE
  5
540
100
AcDbEntity
  8
RACCORDO
100
AcDbPolyline
 62
250
  6
CONTINUOUS
 90
9
 70
0
 10
163.0730631028
 20
84.3969426626
 10
163.0992641852
 20
84.4145247903
 10
163.1133585706
 20
84.4237270795
 10
163.1281162475
 20
84.4331732024
 10
163.1435532794
 20
84.4428487753
 10
163.1597682324
 20
84.4525765464
 10
163.1767939619
 20
84.4622974317
 10
163.1945976125
 20
84.4720705151
 10
163.2131791842
 20
84.4818957966
  0
LINE
  5
541
100
AcDbEntity
  8
DRAFT
100
AcDbLine
 62
7
  6
CONTINUOUS
 10
162.1605747929
 20
84.0366964225
 11
161.6929326985
 21
83.7417806051
  0
LWPOLYLINE
  5
542
100
AcDbEntity
  8
RACCORDO
100
AcDbPolyline
 62
250
  6
CONTINUOUS
 90
6
 70
0
 10
162.6138439593
 20
83.5890816665
 10
162.6354055991
 20
83.6013748355
 10
162.653573615
 20
83.6149700142
 10
162.6680371471
 20
83.6296345851
 10
162.6785487206
 20
83.6451176335
 10
162.6849284794
 20
83.6611542401
  0
LWPOLYLINE
  5
543
100
AcDbEntity
  8
RACCORDO
100
AcDbPolyline
 62
7
  6
CONTINUOUS
 90
11
 70
0
 10
162.8237485287
 20
84.0493864938
 10
162.8580265081
 20
84.0679574796
 10
162.8904236838
 20
84.0869037723
 10
162.9216541633
 20
84.1063633746
 10
162.9517892517
 20
84.1260539936
 10
162.9803113624
 20
84.1452609776
 10
163.007066446
 20
84.1634326536
 10
163.0323041693
 20
84.1802840756
 10
163.0554397923
 20
84.1950660693
 10
163.0750128366
 20
84.2067048459
 10
163.0907735372
 20
84.2151779669
  0
LINE
  5
544
100
AcDbEntity
  8
RACCORDO
100
AcDbLine
 62
250
  6
CONTINUOUS
 10
162.6138439593
 20
83.9129040943
 11
161.9067371781
 21
83.544234174
  0
LWPOLYLINE
  5
545
100
AcDbEntity
  8
RACCORDO
100
AcDbPolyline
 62
250
  6
CONTINUOUS
 90
12
 70
0
 10
162.9372787916
 20
84.3115539664
 10
162.9441492147
 20
84.315106887
 10
162.9512585781
 20
84.3189208648
 10
162.9586068816
 20
84.3229958999
 10
162.9661676761
 20
84.3273123835
 10
162.9739674108
 20
84.3318899244
 10
162.9820854337
 20
84.3367873486
 10
162.9905188563
 20
84.3420085943
 10
162.999270567
 20
84.3475497235
 10
163.0084285797
 20
84.3534577476
 10
163.017986007
 20
84.3597395242
 10
163.0384284428
 20
84.3734302015
  0
LINE
  5
546
100
AcDbEntity
  8
RACCORDO
100
AcDbLine
 62
250
  6
CONTINUOUS
 10
162.2180544705
 20
83.943889104
 11
162.7774774634
 21
84.2299027343
  0
LINE
  5
547
100
AcDbEntity
  8
RACCORDO
100
AcDbLine
 62
250
  6
CONTINUOUS
 10
162.7774774634
 20
84.2299027343
 11
162.9372787916
 21
84.3115539664
  0
LINE
  5
548
100
AcDbEntity
  8
RACCORDO
100
AcDbLine
 62
7
  6
CONTINUOUS
 10
162.098299202
 20
83.6785161081
 11
162.8237485287
 21
84.0493864938
  0
LINE
  5
549
100
AcDbEntity
  8
RACCORDO
100
AcDbLine
 62
250
  6
CONTINUOUS
 10
161.6929326985
 20
83.7159109672
 11
161.9286788385
 21
83.834689084
  0
LINE
  5
54A
100
AcDbEntity
  8
RACCORDO
100
AcDbLine
 62
250
  6
CONTINUOUS
 10
163.2131791842
 20
84.4818957966
 11
163.8512808264
 21
84.8034068358
  0
LINE
  5
54B
100
AcDbEntity
  8
RACCORDO
100
AcDbLine
 62
7
  6
CONTINUOUS
 10
161.5634368528
 20
83.4456206772
 11
161.8063654697
 21
83.5680216299
  0
LINE
  5
54C
100
AcDbEntity
  8
RACCORDO
100
AcDbLine
 62
7
  6
CONTINUOUS
 10
163.0908327075
 20
84.2152076869
 11
163.7217849807
 21
84.5331165457
  0
LWPOLYLINE
  5
54D
100
AcDbEntity
  8
RACCORDO
100
AcDbPolyline
 62
250
  6
CONTINUOUS
 90
5
 70
0
 10
161.9067371781
 20
83.544234174
 10
161.8870217999
 20
83.534637885
 10
161.8656179032
 20
83.5261860608
 10
161.8427817335
 20
83.5189533238
 10
161.8187897555
 20
83.5129948855
  0
LWPOLYLINE
  5
54E
100
AcDbEntity
  8
RACCORDO
100
AcDbPolyline
 62
7
  6
CONTINUOUS
 90
7
 70
0
 10
161.8060271075
 20
83.5678435243
 10
161.8133210288
 20
83.5713890907
 10
161.8252246911
 20
83.5765942365
 10
161.8380347435
 20
83.581532905
 10
161.8534144487
 20
83.5868539618
 10
161.8724071016
 20
83.5929083802
 10
161.9196132804
 20
83.6073420454
  0
LWPOLYLINE
  5
54F
100
AcDbEntity
  8
RACCORDO
100
AcDbPolyline
 62
250
  6
CONTINUOUS
 90
8
 70
0
 10
161.9286788385
 20
83.834689084
 10
161.9490368828
 20
83.8443595567
 10
161.9684739285
 20
83.8531480616
 10
161.9869899756
 20
83.8610545986
 10
162.0045428773
 20
83.8679604185
 10
162.0211747804
 20
83.8739842706
 10
162.0370121256
 20
83.8794824028
 10
162.0520733611
 20
83.8844948629
  0
LWPOLYLINE
  5
550
100
AcDbEntity
  8
RACCORDO
100
AcDbPolyline
 62
250
  6
CONTINUOUS
 90
13
 70
0
 10
161.1996303969
 20
82.1319748853
 10
161.1752311786
 20
82.1212659266
 10
161.1481990162
 20
82.112209925
 10
161.1189760821
 20
82.1049720635
 10
161.0880235257
 20
82.0996850514
 10
161.0558830673
 20
82.0964589746
 10
161.0231748128
 20
82.0953633361
 10
160.990484897
 20
82.0964154007
 10
160.9583508334
 20
82.0995955014
 10
160.9273254777
 20
82.1048487767
 10
160.8979416443
 20
82.1120846825
 10
160.8707030787
 20
82.121178824
 10
160.8460770064
 20
82.1319748853
  0
LWPOLYLINE
  5
551
100
AcDbEntity
  8
RACCORDO
100
AcDbPolyline
 62
250
  6
CONTINUOUS
 90
13
 70
0
 10
161.9067371781
 20
83.2355282759
 10
161.8821508401
 20
83.224747456
 10
161.8549604828
 20
83.2156634481
 10
161.8256313409
 20
83.208431682
 10
161.7946652441
 20
83.2031758953
 10
161.7625920309
 20
83.1999860159
 10
161.7299604828
 20
83.1989166236
 10
161.6973289348
 20
83.1999860159
 10
161.6652557216
 20
83.2031758953
 10
161.6342896247
 20
83.208431682
 10
161.6049604828
 20
83.2156634481
 10
161.5777701256
 20
83.224747456
 10
161.5531837875
 20
83.2355282759
  0
LWPOLYLINE
  5
552
100
AcDbEntity
  8
RACCORDO
100
AcDbPolyline
 62
250
  6
CONTINUOUS
 90
11
 70
0
 10
154.1712887989
 20
81.3052411788
 10
154.1880721998
 20
81.3113480787
 10
154.2378197335
 20
81.3356185795
 10
154.284055861
 20
81.3678643159
 10
154.3262742108
 20
81.4077320717
 10
154.3640124364
 20
81.4547851635
 10
154.396857268
 20
81.5085082264
 10
154.4244490249
 20
81.5683128404
 10
154.4464855664
 20
81.6335439925
 10
154.4627255973
 20
81.7034872546
 10
154.472991305
 20
81.7773765989
  0
LWPOLYLINE
  5
553
100
AcDbEntity
  8
ASSI
100
AcDbPolyline
 62
250
  6
CONTINUOUS
 90
11
 70
0
 10
154.1712887989
 20
81.3052411788
 10
154.1880721998
 20
81.3113480787
 10
154.2378197335
 20
81.3356185795
 10
154.284055861
 20
81.3678643159
 10
154.3262742108
 20
81.4077320717
 10
154.3640124364
 20
81.4547851635
 10
154.396857268
 20
81.5085082264
 10
154.4244490249
 20
81.5683128404
 10
154.4464855664
 20
81.6335439925
 10
154.4627255973
 20
81.7034872546
 10
154.472991305
 20
81.7773765989
  0
LINE
  5
554
100
AcDbEntity
  8
RACCORDO
100
AcDbLine
 62
250
  6
CONTINUOUS
 10
158.5100910682
 20
83.1295592051
 11
154.472991305
 21
81.7773765989
  0
LINE
  5
555
100
AcDbEntity
  8
ASSI
100
AcDbLine
 62
250
  6
CONTINUOUS
 10
158.5100910682
 20
83.1295592051
 11
154.472991305
 21
81.7773765989
  0
LINE
  5
556
100
AcDbEntity
  8
RACCORDO
100
AcDbLine
 62
7
  6
CONTINUOUS
 10
154.170692065
 20
81.3050419119
 11
158.2122537645
 21
82.6587183925
  0
LINE
  5
557
100
AcDbEntity
  8
ASSI
100
AcDbLine
 62
7
  6
CONTINUOUS
 10
154.1706134698
 20
81.3050157564
 11
158.2122537645
 21
82.6587183925
  0
LWPOLYLINE
  5
558
100
AcDbEntity
  8
RACCORDO
100
AcDbPolyline
 62
7
  6
CONTINUOUS
 90
7
 70
0
 10
161.9196132804
 20
83.6073420454
 10
161.9465934881
 20
83.6159523284
 10
161.9752613556
 20
83.6257404604
 10
162.0050294216
 20
83.6367794597
 10
162.0353734111
 20
83.6490966786
 10
162.0660527643
 20
83.6627643438
 10
162.0982999895
 20
83.6785144668
  0
LWPOLYLINE
  5
559
100
AcDbEntity
  8
RACCORDO
100
AcDbPolyline
 62
250
  6
CONTINUOUS
 90
17
 70
0
 10
162.0520733611
 20
83.8844948629
 10
162.0798832547
 20
83.8931787287
 10
162.0926897929
 20
83.8971102246
 10
162.1047728694
 20
83.9007521057
 10
162.1162432293
 20
83.9042685219
 10
162.127090951
 20
83.9076815858
 10
162.1373259562
 20
83.9109691847
 10
162.1470887547
 20
83.9142291298
 10
162.1563880758
 20
83.9174801687
 10
162.1652151902
 20
83.9207035538
 10
162.1736844207
 20
83.9239408533
 10
162.1818027047
 20
83.9272004002
 10
162.1895631046
 20
83.9304738615
 10
162.1970591302
 20
83.9337778057
 10
162.2043219513
 20
83.9371177556
 10
162.2113203981
 20
83.9404881883
 10
162.2180544705
 20
83.943889104
  0
LINE
  5
55A
100
AcDbEntity
  8
RACCORDO
100
AcDbLine
 62
7
  6
CONTINUOUS
 10
154.0718581951
 20
81.2764489244
 11
154.1706864529
 21
81.3050587014
  0
LWPOLYLINE
  5
55B
100
AcDbEntity
  8
RACCORDO
100
AcDbPolyline
 62
7
  6
CONTINUOUS
 90
7
 70
0
 10
163.255792942
 20
82.7060106373
 10
163.2671856743
 20
82.7120673104
 10
163.2942713152
 20
82.7297824221
 10
163.3189022483
 20
82.7509077313
 10
163.3406537481
 20
82.775127007
 10
163.359161624
 20
82.8021149932
 10
163.3740658019
 20
82.8314761379
  0
LINE
  5
55C
100
AcDbEntity
  8
RACCORDO
100
AcDbLine
 62
250
  6
CONTINUOUS
 10
161.1996303969
 20
81.7806609133
 11
163.3209507405
 21
82.841321085
  0
LINE
  5
55D
100
AcDbEntity
  8
RACCORDO
100
AcDbLine
 62
7
  6
CONTINUOUS
 10
161.1346571005
 20
81.6454424631
 11
163.2559774441
 21
82.7061026349
  0
LWPOLYLINE
  5
55E
100
AcDbEntity
  8
RACCORDO
100
AcDbPolyline
 62
250
  6
CONTINUOUS
 90
13
 70
0
 10
161.1996303969
 20
81.7806609133
 10
161.1756240845
 20
81.7701033033
 10
161.1489223187
 20
81.7611063318
 10
161.1199190756
 20
81.7538556053
 10
161.0889893685
 20
81.7485025132
 10
161.0567000327
 20
81.745200133
 10
161.0238229072
 20
81.7440502003
 10
160.9910011759
 20
81.7450679956
 10
160.9587310053
 20
81.7482309264
 10
160.9275812811
 20
81.7534820014
 10
160.8980923856
 20
81.760727271
 10
160.8707679429
 20
81.7698399846
 10
160.8460770064
 20
81.7806609133
  0
LWPOLYLINE
  5
55F
100
AcDbEntity
  8
RACCORDO
100
AcDbPolyline
 62
7
  6
CONTINUOUS
 90
9
 70
0
 10
161.1346571005
 20
81.6454424631
 10
161.1063705053
 20
81.633412898
 10
161.0763833043
 20
81.6248479291
 10
161.0452087214
 20
81.6200507607
 10
161.0133040775
 20
81.6192317781
 10
160.9814191893
 20
81.6225068178
 10
160.9504116585
 20
81.629775045
 10
160.920451608
 20
81.64098403
 10
160.9108886726
 20
81.6455234732
  0
ARC
  5
560
100
AcDbEntity
  8
RACCORDO
100
AcDbCircle
 62
7
  6
CONTINUOUS
 10
161.0228537016
 20
123.5199673724
 40
0.25
100
AcDbArc
 50
244.0406531095
 51
258.6758098606
  0
ARC
  5
561
100
AcDbEntity
  8
RACCORDO
100
AcDbCircle
 62
7
  6
CONTINUOUS
 10
147.6585355372
 20
130.2021264546
 40
0.25
100
AcDbArc
 50
244.0406531095
 51
258.6758098606
  0
ELLIPSE
  5
562
100
AcDbEntity
  8
21814000
100
AcDbEllipse
 62
7
  6
CONTINUOUS
 10
155.0831567397
 20
135.1516022432
 30
0.0
 11
2.7499350056
 21
-0.0386453369
 31
0.0
 40
0.4892375088
 41
8.654981679
 42
9.2557277435
  0
ELLIPSE
  5
563
100
AcDbEntity
  8
21814000
100
AcDbEllipse
 62
7
  6
CONTINUOUS
 10
155.7549081818
 20
135.0401045592
 30
0.0
 11
2.7583300471
 21
-0.038763314
 31
0.0
 40
0.4892375088
 41
0.9280596999
 42
2.3630697256
  0
ELLIPSE
  5
564
100
AcDbEntity
  8
21814000
100
AcDbEllipse
 62
7
  6
CONTINUOUS
 10
160.4606224129
 20
136.1980050763
 30
0.0
 11
0.716172246
 21
0.6416715914
 31
0.0
 40
0.2882345029
 41
0.1142323894
 42
0.7807533904
  0
ELLIPSE
  5
565
100
AcDbEntity
  8
21814000
100
AcDbEllipse
 62
7
  6
CONTINUOUS
 10
155.0594179207
 20
136.3333643759
 30
0.0
 11
3.3311333813
 21
-0.0467042088
 31
0.0
 40
0.4892378494
 41
3.8528301344
 42
5.5059722822
  0
ELLIPSE
  5
566
100
AcDbEntity
  8
21814000
100
AcDbEllipse
 62
7
  6
CONTINUOUS
 10
155.7549081818
 20
135.0401045592
 30
0.0
 11
2.7583300471
 21
-0.038763314
 31
0.0
 40
0.4892375088
 41
0.4291477653
 42
0.6564870977
  0
ELLIPSE
  5
567
100
AcDbEntity
  8
21814000
100
AcDbEllipse
 62
7
  6
CONTINUOUS
 10
155.0594179207
 20
136.3333643759
 30
0.0
 11
3.3311333813
 21
-0.0467042088
 31
0.0
 40
0.4892378494
 41
2.3616770883
 42
3.7058786528
  0
ELLIPSE
  5
568
100
AcDbEntity
  8
21814000
100
AcDbEllipse
 62
7
  6
CONTINUOUS
 10
155.7549081818
 20
136.9848152705
 30
0.0
 11
2.7583515655
 21
-1.4175703156
 31
0.0
 40
0.0109499087
 41
-0.9155571536
 42
-0.85781018
  0
ELLIPSE
  5
569
100
AcDbEntity
  8
21814000
100
AcDbEllipse
 62
7
  6
CONTINUOUS
 10
156.4939161658
 20
138.1813581998
 30
0.0
 11
-0.2796057293
 21
0.9974617846
 31
0.0
 40
0.6760995073
 41
4.8467711056
 42
6.4001141399
  0
ELLIPSE
  5
56A
100
AcDbEntity
  8
21814000
100
AcDbEllipse
 62
7
  6
CONTINUOUS
 10
155.7549081818
 20
135.4731172611
 30
0.0
 11
2.7583300471
 21
-0.038763314
 31
0.0
 40
0.4892375088
 41
0.1708839954
 42
2.3630697256
  0
ELLIPSE
  5
56B
100
AcDbEntity
  8
21814000
100
AcDbEllipse
 62
7
  6
CONTINUOUS
 10
155.7549081818
 20
136.9848152705
 30
0.0
 11
2.7583515655
 21
-1.4175703156
 31
0.0
 40
0.0109499087
 41
-0.7017315251
 42
-0.6439845515
  0
ELLIPSE
  5
56C
100
AcDbEntity
  8
26814000
100
AcDbEllipse
 62
7
  6
CONTINUOUS
 10
130.2729648306
 20
138.8949118079
 30
0.0
 11
0.110769438
 21
0.2241226716
 31
0.0
 40
0.6088015717
 41
-4.0304836828
 42
-3.1443650652
  0
ELLIPSE
  5
56D
100
AcDbEntity
  8
26814000
100
AcDbEllipse
 62
7
  6
CONTINUOUS
 10
143.637282995
 20
132.2127527257
 30
0.0
 11
0.110769438
 21
0.2241226716
 31
0.0
 40
0.6088015717
 41
-4.0304836828
 42
-3.1443650652
  0
ELLIPSE
  5
56E
100
AcDbEntity
  8
26814000
100
AcDbEllipse
 62
7
  6
CONTINUOUS
 10
141.9272953278
 20
140.0262659817
 30
0.0
 11
0.2999991737
 21
-0.0014183462
 31
0.0
 40
0.4964289597
 41
0.7877451926
 42
2.3527237553
  0
ELLIPSE
  5
56F
100
AcDbEntity
  8
26814000
100
AcDbEllipse
 62
7
  6
CONTINUOUS
 10
147.4817588419
 20
137.2490342246
 30
0.0
 11
0.2999991737
 21
-0.0014183462
 31
0.0
 40
0.4964289597
 41
0.7877451926
 42
2.3585415194
  0
ELLIPSE
  5
570
100
AcDbEntity
  8
26814000
100
AcDbEllipse
 62
7
  6
CONTINUOUS
 10
133.656792813
 20
138.2207647697
 30
0.0
 11
0.110769438
 21
0.2241226716
 31
0.0
 40
0.6088015717
 41
1.2055040732
 42
2.2526937431
  0
ELLIPSE
  5
571
100
AcDbEntity
  8
26814000
100
AcDbEllipse
 62
7
  6
CONTINUOUS
 10
147.3726074546
 20
132.4664108395
 30
0.0
 11
0.110769438
 21
0.2241226716
 31
0.0
 40
0.6088015717
 41
-1.9360885804
 42
-0.8888910292
  0
ELLIPSE
  5
572
100
AcDbEntity
  8
26814000
100
AcDbEllipse
 62
7
  6
CONTINUOUS
 10
145.7524325982
 20
133.537427244
 30
0.0
 11
0.1128509832
 21
0.2230818409
 31
0.0
 40
0.6159267166
 41
0.0028979148
 42
0.6817883054
  0
ELLIPSE
  5
573
100
AcDbEntity
  8
26814000
100
AcDbEllipse
 62
7
  6
CONTINUOUS
 10
143.637282995
 20
132.4661241194
 30
0.0
 11
0.110769438
 21
0.2241226716
 31
0.0
 40
0.6088015717
 41
0.6877230618
 42
2.2527016244
  0
ELLIPSE
  5
574
100
AcDbEntity
  8
26814000
100
AcDbEllipse
 62
7
  6
CONTINUOUS
 10
134.0082892901
 20
139.1485699217
 30
0.0
 11
0.110769438
 21
0.2241226716
 31
0.0
 40
0.6088015717
 41
-1.9360885804
 42
-0.8888910292
  0
ELLIPSE
  5
575
100
AcDbEntity
  8
26814000
100
AcDbEllipse
 62
7
  6
CONTINUOUS
 10
132.3881144338
 20
140.2195863262
 30
0.0
 11
0.1128509832
 21
0.2230818409
 31
0.0
 40
0.6159267166
 41
0.0028979148
 42
0.6817883054
  0
ELLIPSE
  5
576
100
AcDbEntity
  8
26814000
100
AcDbEllipse
 62
7
  6
CONTINUOUS
 10
130.2729648306
 20
139.1482832016
 30
0.0
 11
0.110769438
 21
0.2241226716
 31
0.0
 40
0.6088015717
 41
0.6877230618
 42
2.2527016244
  0
ELLIPSE
  5
577
100
AcDbEntity
  8
26814000
100
AcDbEllipse
 62
7
  6
CONTINUOUS
 10
134.0082892901
 20
139.409498898
 30
0.0
 11
0.110769438
 21
0.2241226716
 31
0.0
 40
0.6088015717
 41
5.394294278
 42
6.9592728406
  0
ELLIPSE
  5
578
100
AcDbEntity
  8
26814000
100
AcDbEllipse
 62
7
  6
CONTINUOUS
 10
147.3726074546
 20
132.7273398158
 30
0.0
 11
0.110769438
 21
0.2241226716
 31
0.0
 40
0.6088015717
 41
5.394294278
 42
6.9592728406
  0
ELLIPSE
  5
579
100
AcDbEntity
  8
26814000
100
AcDbEllipse
 62
7
  6
CONTINUOUS
 10
142.1077473049
 20
138.7042058118
 30
0.0
 11
0.2999981629
 21
-0.0021225547
 31
0.0
 40
0.4946372042
 41
-0.7818985079
 42
0.0034997008
  0
ELLIPSE
  5
57A
100
AcDbEntity
  8
26814000
100
AcDbEllipse
 62
7
  6
CONTINUOUS
 10
147.6622108191
 20
135.9269740547
 30
0.0
 11
0.2999981629
 21
-0.0021225547
 31
0.0
 40
0.4946372042
 41
-0.7760807437
 42
0.0035109161
  0
ELLIPSE
  5
57B
100
AcDbEntity
  8
26814000
100
AcDbEllipse
 62
7
  6
CONTINUOUS
 10
135.9588015774
 20
137.1060846138
 30
0.0
 11
0.2999991335
 21
0.0014318851
 31
0.0
 40
0.5035541159
 41
8.6427941204
 42
10.207772683
  0
ELLIPSE
  5
57C
100
AcDbEntity
  8
26814000
100
AcDbEllipse
 62
7
  6
CONTINUOUS
 10
129.9455106685
 20
137.3090145125
 30
0.0
 11
-0.1565168911
 21
0.3130623908
 31
0.0
 40
0.6123677712
 41
-0.6846781644
 42
0.8861181623
  0
ELLIPSE
  5
57D
100
AcDbEntity
  8
26814000
100
AcDbEllipse
 62
7
  6
CONTINUOUS
 10
145.2190171421
 20
129.6722612757
 30
0.0
 11
-0.1565168911
 21
0.3130623908
 31
0.0
 40
0.6123677712
 41
-2.2554744912
 42
-0.6846781644
  0
ELLIPSE
  5
57E
100
AcDbEntity
  8
26814000
100
AcDbEllipse
 62
7
  6
CONTINUOUS
 10
141.7513106455
 20
134.2098300798
 30
0.0
 11
0.2999991335
 21
0.0014318851
 31
0.0
 40
0.5035541159
 41
-2.3585979313
 42
-0.7936193687
  0
ELLIPSE
  5
57F
100
AcDbEntity
  8
26814000
100
AcDbEllipse
 62
7
  6
CONTINUOUS
 10
141.7513106455
 20
132.9956310039
 30
0.0
 11
0.2999980272
 21
0.0021530184
 31
0.0
 40
0.5053247124
 41
-2.3598210761
 42
-0.7948425135
  0
ELLIPSE
  5
580
100
AcDbEntity
  8
26814000
100
AcDbEllipse
 62
7
  6
CONTINUOUS
 10
135.9588015774
 20
135.891885538
 30
0.0
 11
0.2999980272
 21
0.0021530184
 31
0.0
 40
0.5053247124
 41
3.1379773283
 42
3.9233642311
  0
ELLIPSE
  5
581
100
AcDbEntity
  8
26814000
100
AcDbEllipse
 62
7
  6
CONTINUOUS
 10
147.6622108191
 20
137.1588082361
 30
0.0
 11
0.2999991737
 21
-0.0014183462
 31
0.0
 40
0.4964289597
 41
-0.77723337
 42
0.7877451926
  0
ELLIPSE
  5
582
100
AcDbEntity
  8
26814000
100
AcDbEllipse
 62
7
  6
CONTINUOUS
 10
142.1077473049
 20
139.9360399932
 30
0.0
 11
0.2999991737
 21
-0.0014183462
 31
0.0
 40
0.4964289597
 41
-0.7830511342
 42
0.7877451926
  0
ELLIPSE
  5
583
100
AcDbEntity
  8
26814000
100
AcDbEllipse
 62
7
  6
CONTINUOUS
 10
145.2451163706
 20
131.6622074316
 30
0.0
 11
0.1128509832
 21
0.2230818409
 31
0.0
 40
0.6159267166
 41
0.6934238338
 42
2.2584023964
  0
ELLIPSE
  5
584
100
AcDbEntity
  8
26814000
100
AcDbEllipse
 62
7
  6
CONTINUOUS
 10
145.2451163706
 20
131.4088360379
 30
0.0
 11
0.1128509832
 21
0.2230818409
 31
0.0
 40
0.6159267166
 41
-4.0247829108
 42
-2.9775853596
  0
ELLIPSE
  5
585
100
AcDbEntity
  8
26814000
100
AcDbEllipse
 62
7
  6
CONTINUOUS
 10
131.8807982062
 20
138.3443665138
 30
0.0
 11
0.1128509832
 21
0.2230818409
 31
0.0
 40
0.6159267166
 41
0.6934238338
 42
2.2584023964
  0
ELLIPSE
  5
586
100
AcDbEntity
  8
26814000
100
AcDbEllipse
 62
7
  6
CONTINUOUS
 10
131.8807982062
 20
138.0909951201
 30
0.0
 11
0.1128509832
 21
0.2230818409
 31
0.0
 40
0.6159267166
 41
-4.0247829108
 42
-2.9775853596
  0
ELLIPSE
  5
587
100
AcDbEntity
  8
RACCORDO
100
AcDbEllipse
 62
7
  6
CONTINUOUS
 10
163.4976735797
 20
84.9800785493
 30
0.0
 11
-0.2235807756
 21
0.4472283268
 31
0.0
 40
0.6125552124
 41
-3.139671321
 42
-2.255296188
  0
ELLIPSE
  5
588
100
AcDbEntity
  8
RACCORDO
100
AcDbEllipse
 62
7
  6
CONTINUOUS
 10
163.4976735797
 20
122.8816262557
 30
0.0
 11
-0.2237009107
 21
0.4473351135
 31
0.0
 40
0.6121897086
 41
-2.2557347926
 42
-0.6846338794
  0
ELLIPSE
  5
589
100
AcDbEntity
  8
RACCORDO
100
AcDbEllipse
 62
7
  6
CONTINUOUS
 10
156.338481303
 20
132.256055996
 30
0.0
 11
0.9987332359
 21
0.6172510855
 31
0.0
 40
0.0815198604
 41
0.0505521044
 42
0.7176053907
  0
ELLIPSE
  5
58A
100
AcDbEntity
  8
RACCORDO
100
AcDbEllipse
 62
7
  6
CONTINUOUS
 10
168.0889041777
 20
126.3808445587
 30
0.0
 11
0.4349639225
 21
0.9005141702
 31
0.0
 40
0.6016116119
 41
-0.8943064336
 42
-0.538697204
  0
ELLIPSE
  5
58B
100
AcDbEntity
  8
RACCORDO
100
AcDbEllipse
 62
7
  6
CONTINUOUS
 10
168.3235211907
 20
89.5002432032
 30
0.0
 11
0.9987332359
 21
0.6172510855
 31
0.0
 40
0.0815198604
 41
-2.3890806779
 42
-1.1913468732
  0
ELLIPSE
  5
58C
100
AcDbEntity
  8
RACCORDO
100
AcDbEllipse
 62
7
  6
CONTINUOUS
 10
168.0889041777
 20
89.6175517097
 30
0.0
 11
0.4349639225
 21
0.9005141702
 31
0.0
 40
0.6016116119
 41
-1.2499156631
 42
-0.8943064336
  0
ELLIPSE
  5
58D
100
AcDbEntity
  8
RACCORDO
100
AcDbEllipse
 62
7
  6
CONTINUOUS
 10
157.4825096146
 20
131.7130203709
 30
0.0
 11
0.2256808774
 21
0.4461742732
 31
0.0
 40
0.6158912572
 41
0.0028657685
 42
0.6875768343
  0
ELLIPSE
  5
58E
100
AcDbEntity
  8
RACCORDO
100
AcDbEllipse
 62
7
  6
CONTINUOUS
 10
161.3393254518
 20
83.8925826807
 30
0.0
 11
-0.2235807756
 21
0.4472283268
 31
0.0
 40
0.6125552124
 41
2.4567882058
 42
4.0278891191
  0
ELLIPSE
  5
58F
100
AcDbEntity
  8
RACCORDO
100
AcDbEllipse
 62
7
  6
CONTINUOUS
 10
161.3393254518
 20
121.8848295651
 30
0.0
 11
-0.2237009107
 21
0.4473351135
 31
0.0
 40
0.6121897086
 41
4.0274505145
 42
5.5985514278
  0
ELLIPSE
  5
590
100
AcDbEntity
  8
RACCORDO
100
AcDbEllipse
 62
7
  6
CONTINUOUS
 10
163.6439589731
 20
128.6322956917
 30
0.0
 11
0.2215594226
 21
0.4482351134
 31
0.0
 40
0.6088373611
 41
5.3943220613
 42
6.9651183881
  0
ELLIPSE
  5
591
100
AcDbEntity
  8
RACCORDO
100
AcDbEllipse
 62
7
  6
CONTINUOUS
 10
146.3521142934
 20
129.3784351443
 30
0.0
 11
-0.2235807756
 21
0.4472283268
 31
0.0
 40
0.6125552124
 41
-0.6848044477
 42
0.8862964655
  0
ELLIPSE
  5
592
100
AcDbEntity
  8
RACCORDO
100
AcDbEllipse
 62
7
  6
CONTINUOUS
 10
168.3235211907
 20
126.2635360522
 30
0.0
 11
-0.7417913999
 21
1.2002436976
 31
0.0
 40
0.5587454355
 41
5.0176587298
 42
6.2153925345
  0
ELLIPSE
  5
593
100
AcDbEntity
  8
RACCORDO
100
AcDbEllipse
 62
7
  6
CONTINUOUS
 10
157.6661269706
 20
125.1924928449
 30
0.0
 11
0.4999881828
 21
-0.0070264249
 31
0.0
 40
0.4892375088
 41
-2.3493192548
 42
-0.7727633415
  0
ELLIPSE
  5
594
100
AcDbEntity
  8
RACCORDO
100
AcDbEllipse
 62
7
  6
CONTINUOUS
 10
152.1466331182
 20
127.9522397711
 30
0.0
 11
0.4999881828
 21
-0.0070264249
 31
0.0
 40
0.4892375088
 41
-3.1347355197
 42
-2.3493192548
  0
ELLIPSE
  5
595
100
AcDbEntity
  8
RACCORDO
100
AcDbEllipse
 62
7
  6
CONTINUOUS
 10
159.5223509732
 20
88.5801530023
 30
0.0
 11
-0.2713091605
 21
0.4239062184
 31
0.0
 40
0.5451249042
 41
-3.2164578779
 42
-2.3115524019
  0
ELLIPSE
  5
596
100
AcDbEntity
  8
RACCORDO
100
AcDbEllipse
 62
7
  6
CONTINUOUS
 10
130.9746167542
 20
135.8948866123
 30
0.0
 11
-0.2786191524
 21
0.7501668109
 31
0.0
 40
0.6610921126
 41
-0.6157157441
 42
0.0213201203
  0
ELLIPSE
  5
597
100
AcDbEntity
  8
RACCORDO
100
AcDbEllipse
 62
7
  6
CONTINUOUS
 10
157.9443374865
 20
83.4126639086
 30
0.0
 11
-0.2786191524
 21
0.7501668109
 31
0.0
 40
0.6610921126
 41
-3.1630638698
 42
-2.1868166574
  0
ELLIPSE
  5
598
100
AcDbEntity
  8
RACCORDO
100
AcDbEllipse
 62
7
  6
CONTINUOUS
 10
161.0264826151
 20
120.8689536818
 30
0.0
 11
-0.2783604326
 21
0.7500177284
 31
0.0
 40
0.6614719787
 41
-2.1862531203
 42
-0.61576138
  0
ELLIPSE
  5
599
100
AcDbEntity
  8
ASSI
100
AcDbEllipse
 62
7
  6
CONTINUOUS
 10
130.9746167542
 20
135.8948866123
 30
0.0
 11
-0.2786191524
 21
0.7501668109
 31
0.0
 40
0.6610921126
 41
-0.6157157441
 42
0.0213201203
  0
ELLIPSE
  5
59A
100
AcDbEntity
  8
ASSI
100
AcDbEllipse
 62
7
  6
CONTINUOUS
 10
157.9443374865
 20
83.4126639086
 30
0.0
 11
-0.2786191524
 21
0.7501668109
 31
0.0
 40
0.6610921126
 41
-3.1630638698
 42
-2.1868166574
  0
ELLIPSE
  5
59B
100
AcDbEntity
  8
ASSI
100
AcDbEllipse
 62
7
  6
CONTINUOUS
 10
161.0264826151
 20
120.8689536818
 30
0.0
 11
-0.2783604326
 21
0.7500177284
 31
0.0
 40
0.6614719787
 41
-2.1862531203
 42
-0.61576138
  0
ENDSEC
  0
SECTION
  2
OBJECTS
  0
DICTIONARY
  5
C
100
AcDbDictionary
280
0
281
1
  3
ACAD_GROUP
350
D
  3
ACAD_MLINESTYLE
350
17
  3
ACAD_LAYOUT
350
1A
  3
ACAD_PLOTSETTINGS
350
19
  3
ACAD_PLOTSTYLENAME
350
E
  0
DICTIONARY
  5
D
102
{ACAD_REACTORS
330
C
102
}
100
AcDbDictionary
280
0
281
1
  0
ACDBDICTIONARYWDFLT
  5
E
102
{ACAD_REACTORS
330
C
102
}
100
AcDbDictionary
281
1
  3
Normal
350
F
100
AcDbDictionaryWithDefault
340
F
  0
DICTIONARY
  5
17
102
{ACAD_REACTORS
330
C
102
}
100
AcDbDictionary
280
0
281
1
  3
Standard
350
18
  0
DICTIONARY
  5
19
102
{ACAD_REACTORS
330
C
102
}
100
AcDbDictionary
281
1
  0
DICTIONARY
  5
1A
102
{ACAD_REACTORS
330
C
102
}
100
AcDbDictionary
281
1
  3
Model
350
59C
  3
Layout1
350
59D
  0
ACDBPLACEHOLDER
  5
F
102
{ACAD_REACTORS
330
E
102
}
  0
MLINESTYLE
  5
18
102
{ACAD_REACTORS
330
17
102
}
100
AcDbMlineStyle
  2
STANDARD
 70
0
  3

 62
256
 51
90.0
 52
90.0
 71
2
 49
0.5
 62
256
  6
BYLAYER
 49
-0.5
 62
256
  6
BYLAYER
  0
LAYOUT
  5
59C
102
{ACAD_REACTORS
330
1A
102
}
100
AcDbPlotSettings
  1

  2
none_device
  4
ISO_A4_(297.00_x_210.00_MM)
  6

 40
0.0
 41
0.0
 42
0.0
 43
0.0
 44
297.0
 45
210.0
 46
0.0
 47
0.0
 48
0.0
 49
0.0
140
0.0
141
0.0
142
1.0
143
1.0
 70
1024
 72
1
 73
0
 74
0
  7

 75
0
147
1.0
148
0.0
149
0.0
100
AcDbLayout
  1
Model
 70
0
 71
0
 10
0.0
 20
0.0
 11
297.0
 21
210.0
 12
0.0
 22
0.0
 32
0.0
 14
0.0
 24
0.0
 34
0.0
 15
0.0
 25
0.0
 35
0.0
146
0.0
 13
0.0
 23
0.0
 33
0.0
 16
1.0
 26
0.0
 36
0.0
 17
0.0
 27
1.0
 37
0.0
 76
0
330
22A
345
0
346
0
  0
LAYOUT
  5
59D
102
{ACAD_REACTORS
330
1A
102
}
100
AcDbPlotSettings
  1

  2
none_device
  4
ISO_A4_(297.00_x_210.00_MM)
  6

 40
0.0
 41
0.0
 42
0.0
 43
0.0
 44
297.0
 45
210.0
 46
0.0
 47
0.0
 48
0.0
 49
0.0
140
0.0
141
0.0
142
1.0
143
1.0
 70
0
 72
1
 73
0
 74
0
  7

 75
0
147
1.0
148
0.0
149
0.0
100
AcDbLayout
  1
Layout1
 70
0
 71
1
 10
0.0
 20
0.0
 11
297.0
 21
210.0
 12
0.0
 22
0.0
 32
0.0
 14
0.0
 24
0.0
 34
0.0
 15
0.0
 25
0.0
 35
0.0
146
0.0
 13
0.0
 23
0.0
 33
0.0
 16
1.0
 26
0.0
 36
0.0
 17
0.0
 27
1.0
 37
0.0
 76
0
330
22B
345
0
346
0
  0
ENDSEC
  0
EOF
