  0
SECTION
  2
HEADER
  9
$ACADVER
  1
AC1015
  9
$DWGCODEPAGE
  3
ANSI_1252
  9
$EXTMAX
 10
297.0
 20
210.0
 30
0.0
  9
$EXTMIN
 10
0.0
 20
0.0
 30
0.0
  9
$LIMMIN
 10
0.0
 20
0.0
  9
$LIMMAX
 10
297.0
 20
210.0
  9
$VIEWCTR
 10
148.5
 20
105.0
  9
$VIEWSIZE
 40
210.0
  9
$CLAYER
  8
0
  9
$LTSCALE
 40
16.335
  9
$CELTYPE
  6
BYLAYER
  9
$DIMSCALE
 40
1.0
  9
$DIMASZ
 40
3.0
  9
$DIMEXO
 40
0.5
  9
$DIMDLI
 40
11.286
  9
$DIMEXE
 40
1.5
  9
$DIMCEN
 40
2.673
  9
$DIMLFAC
 40
1.0
  9
$DIMBLK
  1
_FILLED
  9
$DIMTXT
 40
3.0
  9
$DIMTOL
 70
1
  9
$DIMLIM
 70
0
  9
$DIMTFAC
 40
1.0
  9
$DIMTP
 40
0.01
  9
$DIMTM
 40
0.01
  9
$DIMGAP
 40
0.625
  9
$DIMDSEP
 70
44
  9
$PDMODE
 70
3
  9
$PDSIZE
 40
3.0
  9
$HANDSEED
  5
3BA
  9
$TILEMODE
 70
1
  9
$MEASUREMENT
 70
1
  9
$INSUNITS
 70
4
  0
ENDSEC
  0
SECTION
  2
CLASSES
  0
CLASS
  1
ACDBDICTIONARYWDFLT
  2
AcDbDictionaryWithDefault
  3
AutoCAD 2000
 90
0
280
0
281
0
  0
CLASS
  1
ACDBPLACEHOLDER
  2
AcDbPlaceHolder
  3
AutoCAD 2000
 90
0
280
0
281
0
  0
CLASS
  1
LAYOUT
  2
AcDbLayout
  3
AutoCAD 2000
 90
0
280
0
281
0
  0
ENDSEC
  0
SECTION
  2
TABLES
  0
TABLE
  2
VPORT
  5
8
100
AcDbSymbolTable
 70
2
  0
VPORT
  5
1F4
100
AcDbSymbolTableRecord
100
AcDbViewportTableRecord
  2
*ACTIVE
 70
0
 10
0.0
 20
0.0
 11
1.0
 21
1.0
 12
148.5
 22
105.0
 13
0.0
 23
0.0
 14
1.0
 24
1.0
 15
0.0
 25
0.0
 16
0.0
 26
0.0
 36
1.0
 17
0.0
 27
0.0
 37
0.0
 40
210.0
 41
1.4142857143
 42
50.0
 43
0.0
 44
0.0
 50
0.0
 51
0.0
 71
0
 72
100
 73
1
 74
1
 75
0
 76
0
 77
0
 78
0
  0
ENDTAB
  0
TABLE
  2
LTYPE
  5
5
100
AcDbSymbolTable
 70
6
  0
LTYPE
  5
14
100
AcDbSymbolTableRecord
100
AcDbLinetypeTableRecord
  2
BYBLOCK
 70
0
  3

 72
65
 73
0
 40
0.0
  0
LTYPE
  5
15
100
AcDbSymbolTableRecord
100
AcDbLinetypeTableRecord
  2
BYLAYER
 70
0
  3

 72
65
 73
0
 40
0.0
  0
LTYPE
  5
16
100
AcDbSymbolTableRecord
100
AcDbLinetypeTableRecord
  2
CONTINUOUS
 70
64
  3
Solid line
 72
65
 73
0
 40
0.0
  0
LTYPE
  5
1F5
100
AcDbSymbolTableRecord
100
AcDbLinetypeTableRecord
  2
CENTER
 70
64
  3
____ _ ____ _ ____ _ ____ _ ____ _ ____ _ ____
 72
65
 73
4
 40
0.6
 49
0.375
 74
0
 49
-0.075
 74
0
 49
0.075
 74
0
 49
-0.075
 74
0
  0
LTYPE
  5
1F6
100
AcDbSymbolTableRecord
100
AcDbLinetypeTableRecord
  2
HIDDEN
 70
64
  3
- - - - - - - - - - - - - - - - - - - -
 72
65
 73
2
 40
0.2
 49
0.1
 74
0
 49
-0.1
 74
0
  0
LTYPE
  5
1F7
100
AcDbSymbolTableRecord
100
AcDbLinetypeTableRecord
  2
PHANTOM
 70
64
  3
_____ _ _ _____ _ _ _____ _ _ _____
 72
65
 73
6
 40
0.8
 49
0.45
 74
0
 49
-0.05
 74
0
 49
0.1
 74
0
 49
-0.05
 74
0
 49
0.1
 74
0
 49
-0.05
 74
0
  0
LTYPE
  5
1F8
100
AcDbSymbolTableRecord
100
AcDbLinetypeTableRecord
  2
DOT
 70
64
  3
. . . . . . . . . . . . . . . . . . . .
 72
65
 73
2
 40
0.2
 49
0.1
 74
0
 49
-0.1
 74
0
  0
LTYPE
  5
1F9
100
AcDbSymbolTableRecord
100
AcDbLinetypeTableRecord
  2
DASHED
 70
64
  3
- - - - - - - - - - - - - - - - - - - -
 72
65
 73
2
 40
0.2
 49
0.1
 74
0
 49
-0.1
 74
0
  0
ENDTAB
  0
TABLE
  2
LAYER
  5
2
100
AcDbSymbolTable
 70
36
  0
LAYER
  5
10
100
AcDbSymbolTableRecord
100
AcDbLayerTableRecord
  2
0
 70
0
 62
7
  6
CONTINUOUS
370
-3
390
F
  0
LAYER
  5
1FA
100
AcDbSymbolTableRecord
100
AcDbLayerTableRecord
  2
DEFAULT_1
 70
0
 62
7
  6
CENTER
370
-3
390
F
  0
LAYER
  5
1FB
100
AcDbSymbolTableRecord
100
AcDbLayerTableRecord
  2
DEFAULT_2
 70
0
 62
7
  6
HIDDEN
370
-3
390
F
  0
LAYER
  5
1FC
100
AcDbSymbolTableRecord
100
AcDbLayerTableRecord
  2
DEFAULT_3
 70
0
 62
7
  6
PHANTOM
370
-3
390
F
  0
LAYER
  5
1FD
100
AcDbSymbolTableRecord
100
AcDbLayerTableRecord
  2
21814000
 70
0
 62
7
  6
CONTINUOUS
370
-3
390
F
  0
LAYER
  5
1FE
100
AcDbSymbolTableRecord
100
AcDbLayerTableRecord
  2
260140000
 70
0
 62
7
  6
CONTINUOUS
370
-3
390
F
  0
LAYER
  5
1FF
100
AcDbSymbolTableRecord
100
AcDbLayerTableRecord
  2
26814000
 70
0
 62
7
  6
CONTINUOUS
370
-3
390
F
  0
LAYER
  5
200
100
AcDbSymbolTableRecord
100
AcDbLayerTableRecord
  2
28414000
 70
0
 62
7
  6
CONTINUOUS
370
-3
390
F
  0
LAYER
  5
201
100
AcDbSymbolTableRecord
100
AcDbLayerTableRecord
  2
290140000
 70
0
 62
7
  6
CONTINUOUS
370
-3
390
F
  0
LAYER
  5
202
100
AcDbSymbolTableRecord
100
AcDbLayerTableRecord
  2
340000230
 70
0
 62
7
  6
CONTINUOUS
370
-3
390
F
  0
LAYER
  5
203
100
AcDbSymbolTableRecord
100
AcDbLayerTableRecord
  2
712140000
 70
0
 62
7
  6
CONTINUOUS
370
-3
390
F
  0
LAYER
  5
204
100
AcDbSymbolTableRecord
100
AcDbLayerTableRecord
  2
715140000
 70
0
 62
7
  6
CONTINUOUS
370
-3
390
F
  0
LAYER
  5
205
100
AcDbSymbolTableRecord
100
AcDbLayerTableRecord
  2
ASSI
 70
0
 62
7
  6
CONTINUOUS
370
-3
390
F
  0
LAYER
  5
206
100
AcDbSymbolTableRecord
100
AcDbLayerTableRecord
  2
COLORE_TOP
 70
0
 62
7
  6
CONTINUOUS
370
-3
390
F
  0
LAYER
  5
207
100
AcDbSymbolTableRecord
100
AcDbLayerTableRecord
  2
COORDINATE
 70
0
 62
7
  6
CONTINUOUS
370
-3
390
F
  0
LAYER
  5
208
100
AcDbSymbolTableRecord
100
AcDbLayerTableRecord
  2
COORD_ORIGINE
 70
0
 62
7
  6
CONTINUOUS
370
-3
390
F
  0
LAYER
  5
209
100
AcDbSymbolTableRecord
100
AcDbLayerTableRecord
  2
COPY_PUBLISH
 70
0
 62
7
  6
CONTINUOUS
370
-3
390
F
  0
LAYER
  5
20A
100
AcDbSymbolTableRecord
100
AcDbLayerTableRecord
  2
COSMETICHE
 70
0
 62
7
  6
CONTINUOUS
370
-3
390
F
  0
LAYER
  5
20B
100
AcDbSymbolTableRecord
100
AcDbLayerTableRecord
  2
COSMETICI
 70
0
 62
7
  6
CONTINUOUS
370
-3
390
F
  0
LAYER
  5
20C
100
AcDbSymbolTableRecord
100
AcDbLayerTableRecord
  2
CURVE
 70
0
 62
7
  6
CONTINUOUS
370
-3
390
F
  0
LAYER
  5
20D
100
AcDbSymbolTableRecord
100
AcDbLayerTableRecord
  2
DRAFT
 70
0
 62
7
  6
CONTINUOUS
370
-3
390
F
  0
LAYER
  5
20E
100
AcDbSymbolTableRecord
100
AcDbLayerTableRecord
  2
IMPORT
 70
0
 62
7
  6
CONTINUOUS
370
-3
390
F
  0
LAYER
  5
20F
100
AcDbSymbolTableRecord
100
AcDbLayerTableRecord
  2
IMPORTED
 70
0
 62
7
  6
CONTINUOUS
370
-3
390
F
  0
LAYER
  5
210
100
AcDbSymbolTableRecord
100
AcDbLayerTableRecord
  2
IMPORT_IGES
 70
0
 62
7
  6
CONTINUOUS
370
-3
390
F
  0
LAYER
  5
211
100
AcDbSymbolTableRecord
100
AcDbLayerTableRecord
  2
INCISIONI_LASER
 70
0
 62
7
  6
CONTINUOUS
370
-3
390
F
  0
LAYER
  5
212
100
AcDbSymbolTableRecord
100
AcDbLayerTableRecord
  2
INTF_11
 70
0
 62
7
  6
CONTINUOUS
370
-3
390
F
  0
LAYER
  5
213
100
AcDbSymbolTableRecord
100
AcDbLayerTableRecord
  2
NOTE
 70
0
 62
7
  6
CONTINUOUS
370
-3
390
F
  0
LAYER
  5
214
100
AcDbSymbolTableRecord
100
AcDbLayerTableRecord
  2
PIANI
 70
0
 62
7
  6
CONTINUOUS
370
-3
390
F
  0
LAYER
  5
215
100
AcDbSymbolTableRecord
100
AcDbLayerTableRecord
  2
PIANI_DI_RIFERIMENTO
 70
0
 62
7
  6
CONTINUOUS
370
-3
390
F
  0
LAYER
  5
216
100
AcDbSymbolTableRecord
100
AcDbLayerTableRecord
  2
PIANI_ORIGINE
 70
0
 62
7
  6
CONTINUOUS
370
-3
390
F
  0
LAYER
  5
217
100
AcDbSymbolTableRecord
100
AcDbLayerTableRecord
  2
PIANI_RIFERIMENTO
 70
0
 62
7
  6
CONTINUOUS
370
-3
390
F
  0
LAYER
  5
218
100
AcDbSymbolTableRecord
100
AcDbLayerTableRecord
  2
PIANI_SFORMO
 70
0
 62
7
  6
CONTINUOUS
370
-3
390
F
  0
LAYER
  5
219
100
AcDbSymbolTableRecord
100
AcDbLayerTableRecord
  2
PUNTI
 70
0
 62
7
  6
CONTINUOUS
370
-3
390
F
  0
LAYER
  5
21A
100
AcDbSymbolTableRecord
100
AcDbLayerTableRecord
  2
RACCORDO
 70
0
 62
7
  6
CONTINUOUS
370
-3
390
F
  0
LAYER
  5
21B
100
AcDbSymbolTableRecord
100
AcDbLayerTableRecord
  2
RINTRACCIABILITA
 70
0
 62
7
  6
CONTINUOUS
370
-3
390
F
  0
LAYER
  5
21C
100
AcDbSymbolTableRecord
100
AcDbLayerTableRecord
  2
SIMBOLI
 70
0
 62
7
  6
CONTINUOUS
370
-3
390
F
  0
LAYER
  5
21D
100
AcDbSymbolTableRecord
100
AcDbLayerTableRecord
  2
SMUSSO
 70
0
 62
7
  6
CONTINUOUS
370
-3
390
F
  0
LAYER
  5
21E
100
AcDbSymbolTableRecord
100
AcDbLayerTableRecord
  2
SNAPLINE
 70
0
 62
7
  6
CONTINUOUS
370
-3
390
F
  0
LAYER
  5
21F
100
AcDbSymbolTableRecord
100
AcDbLayerTableRecord
  2
SUPERFICI
 70
0
 62
7
  6
CONTINUOUS
370
-3
390
F
  0
LAYER
  5
220
100
AcDbSymbolTableRecord
100
AcDbLayerTableRecord
  2
TRASH
 70
0
 62
7
  6
CONTINUOUS
370
-3
390
F
  0
LAYER
  5
221
100
AcDbSymbolTableRecord
100
AcDbLayerTableRecord
  2
XSEC_DATUMS
 70
0
 62
7
  6
CONTINUOUS
370
-3
390
F
  0
ENDTAB
  0
TABLE
  2
STYLE
  5
3
100
AcDbSymbolTable
 70
1
  0
STYLE
  5
11
100
AcDbSymbolTableRecord
100
AcDbTextStyleTableRecord
  2
STANDARD
 70
0
 40
0.0
 41
0.8
 50
0.0
 71
0
 42
0.2
  3
txt
  4

  0
STYLE
  5
222
100
AcDbSymbolTableRecord
100
AcDbTextStyleTableRecord
  2
TEXTSTYLE_1
 70
0
 40
0.0
 41
0.8
 50
0.0
 71
0
 42
0.2
  3
gdt
  4

  0
ENDTAB
  0
TABLE
  2
VIEW
  5
6
100
AcDbSymbolTable
 70
0
  0
ENDTAB
  0
TABLE
  2
UCS
  5
7
100
AcDbSymbolTable
 70
0
  0
ENDTAB
  0
TABLE
  2
APPID
  5
9
100
AcDbSymbolTable
 70
1
  0
APPID
  5
223
100
AcDbSymbolTableRecord
100
AcDbRegAppTableRecord
  2
ACAD
 70
0
  0
ENDTAB
  0
TABLE
  2
BLOCK_RECORD
  5
1
100
AcDbSymbolTable
 70
0
  0
BLOCK_RECORD
  5
224
100
AcDbSymbolTableRecord
100
AcDbBlockTableRecord
  2
*Model_Space
  0
BLOCK_RECORD
  5
225
100
AcDbSymbolTableRecord
100
AcDbBlockTableRecord
  2
*Paper_Space
  0
ENDTAB
  0
TABLE
  2
DIMSTYLE
  5
A
100
AcDbSymbolTable
 70
1
100
AcDbDimStyleTable
 71
0
  0
DIMSTYLE
105
226
100
AcDbSymbolTableRecord
100
AcDbDimStyleTableRecord
  2
STANDARD
 70
0
  3

  4

 40
1.0
 41
3.0
 42
0.5
 43
0.38
 44
1.5
 45
0.0
 46
0.0
 47
0.01
 48
0.01
140
3.0
141
0.09
142
0.0
143
25.4
144
1.0
145
0.0
146
1.0
147
0.625
 71
1.0
 72
0.0
 73
0
 74
0
 75
0
 76
0
 77
1
 78
8
170
0
171
2
172
0
173
0
174
0
175
0
176
0
177
0
178
0
270
2
271
2
272
2
273
2
274
2
275
0
280
0
281
0
282
0
283
1
284
8
285
0
286
0
287
3
288
0
340
11
278
44
  0
ENDTAB
  0
ENDSEC
  0
SECTION
  2
BLOCKS
  0
BLOCK
  5
20
100
AcDbEntity
  8
0
100
AcDbBlockBegin
  2
*Model_Space
 70
0
 10
0.0
 20
0.0
 30
0.0
  3
*Model_Space
  1

  0
ENDBLK
  5
21
100
AcDbEntity
  8
0
100
AcDbBlockEnd
  0
BLOCK
  5
1C
100
AcDbEntity
  8
0
100
AcDbBlockBegin
  2
*Paper_Space
 70
0
 10
0.0
 20
0.0
 30
0.0
  3
*Paper_Space
  1

  0
ENDBLK
  5
1D
100
AcDbEntity
  8
0
100
AcDbBlockEnd
  0
ENDSEC
  0
SECTION
  2
ENTITIES
  0
LINE
  5
227
100
AcDbEntity
  8
26814000
100
AcDbLine
 62
7
  6
CONTINUOUS
 10
137.6559345613
 20
131.2362463439
 11
139.2386911645
 21
132.0482304412
  0
LINE
  5
228
100
AcDbEntity
  8
26814000
100
AcDbLine
 62
7
  6
CONTINUOUS
 10
137.171979449
 20
129.4935459419
 11
138.1842017331
 21
130.0104759045
  0
LINE
  5
229
100
AcDbEntity
  8
26814000
100
AcDbLine
 62
7
  6
CONTINUOUS
 10
139.2386911645
 20
132.0482304412
 11
139.7731410432
 21
132.3085779078
  0
LWPOLYLINE
  5
22A
100
AcDbEntity
  8
290140000
100
AcDbPolyline
 62
253
  6
CONTINUOUS
 90
14
 70
0
 10
130.4994038187
 20
88.103100111
 10
130.4445009178
 20
88.1357422365
 10
130.3932058886
 20
88.1748404307
 10
130.3457623654
 20
88.2202020196
 10
130.3023814845
 20
88.2716219601
 10
130.2632746756
 20
88.3288600353
 10
130.2286501088
 20
88.3916246138
 10
130.1986831046
 20
88.4595930387
 10
130.1735249641
 20
88.5324177825
 10
130.1532976271
 20
88.6097445936
 10
130.1380949088
 20
88.6912029222
 10
130.1279921659
 20
88.7763946905
 10
130.1230436836
 20
88.8648943843
 10
130.123275527
 20
88.9562645063
  0
LINE
  5
22B
100
AcDbEntity
  8
26814000
100
AcDbLine
 62
253
  6
CONTINUOUS
 10
137.3295028553
 20
129.4841126123
 11
138.1842017331
 21
129.9205972322
  0
LINE
  5
22C
100
AcDbEntity
  8
26814000
100
AcDbLine
 62
7
  6
CONTINUOUS
 10
140.8650367612
 20
129.5030068353
 11
139.7982058491
 21
128.9644255858
  0
LINE
  5
22D
100
AcDbEntity
  8
26814000
100
AcDbLine
 62
7
  6
CONTINUOUS
 10
139.2637559704
 20
130.4323356393
 11
140.8650367612
 21
131.2350576428
  0
LINE
  5
22E
100
AcDbEntity
  8
26814000
100
AcDbLine
 62
7
  6
CONTINUOUS
 10
140.8650367612
 20
131.2350576428
 11
141.393303933
 21
131.4984964629
  0
LWPOLYLINE
  5
22F
100
AcDbEntity
  8
290140000
100
AcDbPolyline
 62
7
  6
CONTINUOUS
 90
19
 70
0
 10
133.880621853
 20
127.0921231546
 10
133.8634729626
 20
127.0846324797
 10
133.7725523282
 20
127.0398931814
 10
133.6843355888
 20
126.9879848577
 10
133.5987965104
 20
126.928974497
 10
133.5162908858
 20
126.863185304
 10
133.4375376775
 20
126.7913080858
 10
133.3624986651
 20
126.7134379593
 10
133.2913339082
 20
126.6297788683
 10
133.2249263406
 20
126.541417886
 10
133.1633013209
 20
126.4485354836
 10
133.1066025689
 20
126.3513044659
 10
133.0556390915
 20
126.2511468991
 10
133.0104706306
 20
126.1483183684
 10
132.9712336518
 20
126.0429836208
 10
132.9384751117
 20
125.936589705
 10
132.9123456545
 20
125.8297177054
 10
132.8928215354
 20
125.7221501958
 10
132.8884282891
 20
125.6909148216
  0
LINE
  5
230
100
AcDbEntity
  8
290140000
100
AcDbLine
 62
7
  6
CONTINUOUS
 10
133.880617289
 20
127.0921338206
 11
137.8381031897
 21
128.7858476373
  0
LINE
  5
231
100
AcDbEntity
  8
290140000
100
AcDbLine
 62
253
  6
CONTINUOUS
 10
134.239884943
 20
127.0695864833
 11
138.1535792566
 21
128.7445584731
  0
LWPOLYLINE
  5
232
100
AcDbEntity
  8
290140000
100
AcDbPolyline
 62
253
  6
CONTINUOUS
 90
8
 70
0
 10
133.8807355919
 20
127.092184477
 10
133.890482581
 20
127.0961855918
 10
133.9439341177
 20
127.1125006737
 10
134.0001394803
 20
127.1205423745
 10
134.0584834077
 20
127.1202226645
 10
134.1183272285
 20
127.1115450434
 10
134.1790158529
 20
127.0946045023
 10
134.239884943
 20
127.0695864833
  0
LWPOLYLINE
  5
233
100
AcDbEntity
  8
26814000
100
AcDbPolyline
 62
7
  6
CONTINUOUS
 90
3
 70
0
 10
148.8476103966
 20
132.7234177311
 10
148.8350453768
 20
132.7187186802
 10
148.8291626582
 20
132.7159603883
  0
LWPOLYLINE
  5
234
100
AcDbEntity
  8
26814000
100
AcDbPolyline
 62
7
  6
CONTINUOUS
 90
10
 70
0
 10
148.8476103966
 20
132.7234177311
 10
148.8568500174
 20
132.72616353
 10
148.8654131712
 20
132.7284292485
 10
148.8732998582
 20
132.7302148866
 10
148.8805492164
 20
132.7315412912
 10
148.8871221078
 20
132.7323876153
 10
148.8929011172
 20
132.7326913181
 10
148.8978820743
 20
132.7324519823
 10
148.9020691495
 20
132.7316700251
 10
148.9046588307
 20
132.7306735919
  0
LWPOLYLINE
  5
235
100
AcDbEntity
  8
290140000
100
AcDbPolyline
 62
7
  6
CONTINUOUS
 90
12
 70
0
 10
144.8458391957
 20
80.9298308877
 10
144.8717096644
 20
80.9172973804
 10
144.9535811208
 20
80.8829972162
 10
145.038501706
 20
80.8553730904
 10
145.1260291133
 20
80.8346830854
 10
145.2159566997
 20
80.8211103337
 10
145.3077475022
 20
80.814879677
 10
145.4008009202
 20
80.8161610701
 10
145.4949139016
 20
80.8251104361
 10
145.5896895889
 20
80.8418701699
 10
145.6844448577
 20
80.8664692946
 10
145.7010893096
 20
80.8716141751
  0
LINE
  5
236
100
AcDbEntity
  8
290140000
100
AcDbLine
 62
7
  6
CONTINUOUS
 10
144.8467345353
 20
80.9293689109
 11
130.506524773
 21
88.0994737921
  0
LINE
  5
237
100
AcDbEntity
  8
290140000
100
AcDbLine
 62
253
  6
CONTINUOUS
 10
144.4517558617
 20
81.792024339
 11
130.123275527
 21
88.9562645063
  0
LINE
  5
238
100
AcDbEntity
  8
290140000
100
AcDbLine
 62
253
  6
CONTINUOUS
 10
130.5065564286
 20
88.0994579643
 11
130.4994038187
 21
88.103100111
  0
LINE
  5
239
100
AcDbEntity
  8
26814000
100
AcDbLine
 62
7
  6
CONTINUOUS
 10
141.4801555962
 20
130.8774988762
 11
140.9529108805
 21
130.2357911482
  0
LWPOLYLINE
  5
23A
100
AcDbEntity
  8
26814000
100
AcDbPolyline
 62
7
  6
CONTINUOUS
 90
12
 70
0
 10
148.8291626582
 20
132.7159603883
 10
148.8228758668
 20
132.7126040148
 10
148.8110214402
 20
132.7050997416
 10
148.7993662602
 20
132.6962272303
 10
148.7878706654
 20
132.6860421198
 10
148.7765793677
 20
132.6746110474
 10
148.7654343012
 20
132.6619640212
 10
148.7543674219
 20
132.6481344851
 10
148.7434213027
 20
132.6331649863
 10
148.7325740015
 20
132.6170820591
 10
148.7217355728
 20
132.5999138048
 10
148.7108512048
 20
132.5816951733
  0
LINE
  5
23B
100
AcDbEntity
  8
26814000
100
AcDbLine
 62
7
  6
CONTINUOUS
 10
143.1294311926
 20
129.0835006454
 11
143.6227532078
 21
129.3365841773
  0
LINE
  5
23C
100
AcDbEntity
  8
26814000
100
AcDbLine
 62
7
  6
CONTINUOUS
 10
142.3208177377
 20
129.474665439
 11
148.8288543644
 21
132.7158070446
  0
LINE
  5
23D
100
AcDbEntity
  8
26814000
100
AcDbLine
 62
253
  6
CONTINUOUS
 10
142.3963108782
 20
129.4369188688
 11
148.7108512048
 21
132.5816951733
  0
LINE
  5
23E
100
AcDbEntity
  8
26814000
100
AcDbLine
 62
7
  6
CONTINUOUS
 10
149.703871526
 20
131.7019516425
 11
144.9662560921
 21
129.3669011279
  0
LINE
  5
23F
100
AcDbEntity
  8
26814000
100
AcDbLine
 62
7
  6
CONTINUOUS
 10
143.6227532078
 20
129.3365841773
 11
149.1003931973
 21
132.0049161405
  0
LINE
  5
240
100
AcDbEntity
  8
26814000
100
AcDbLine
 62
7
  6
CONTINUOUS
 10
154.3172290449
 20
83.3790279266
 11
154.8444737606
 21
83.2707356546
  0
LWPOLYLINE
  5
241
100
AcDbEntity
  8
290140000
100
AcDbPolyline
 62
253
  6
CONTINUOUS
 90
9
 70
0
 10
129.8889576151
 20
89.238060517
 10
129.8905558047
 20
89.207704357
 10
129.9001113728
 20
89.1683566499
 10
129.9180208493
 20
89.1294849915
 10
129.9440944797
 20
89.0915012344
 10
129.9780560092
 20
89.0548078233
 10
130.019545609
 20
89.0197935319
 10
130.0681236889
 20
88.9868293433
 10
130.1232755551
 20
88.956264519
  0
LWPOLYLINE
  5
242
100
AcDbEntity
  8
290140000
100
AcDbPolyline
 62
7
  6
CONTINUOUS
 90
15
 70
0
 10
129.8889669241
 20
89.2380602346
 10
129.8882061178
 20
89.1871385147
 10
129.8929948233
 20
89.0680149885
 10
129.9069081443
 20
88.952992242
 10
129.9297303924
 20
88.8421804648
 10
129.9612137692
 20
88.7360602021
 10
130.0008219776
 20
88.6357114966
 10
130.0477935561
 20
88.5419880358
 10
130.1017070382
 20
88.45485712
 10
130.1622472206
 20
88.3743296416
 10
130.2285559944
 20
88.3010628013
 10
130.3000588735
 20
88.2352009161
 10
130.3769927416
 20
88.1763345256
 10
130.4590577945
 20
88.1247610038
 10
130.5075627064
 20
88.0989701451
  0
LINE
  5
243
100
AcDbEntity
  8
290140000
100
AcDbLine
 62
7
  6
CONTINUOUS
 10
129.8889634754
 20
89.23825142
 11
129.8889576151
 21
89.238060517
  0
LWPOLYLINE
  5
244
100
AcDbEntity
  8
290140000
100
AcDbPolyline
 62
253
  6
CONTINUOUS
 90
13
 70
0
 10
130.123275527
 20
88.9562645063
 10
130.2292208276
 20
91.9351606906
 10
130.3614545235
 20
94.9263087593
 10
130.5199601699
 20
97.9293274421
 10
130.7047180175
 20
100.9438338972
 10
130.915704617
 20
103.9694440727
 10
131.1528928263
 20
107.0057727572
 10
131.4162522032
 20
110.0524332406
 10
131.705749421
 20
113.1090372718
 10
132.0213478797
 20
116.1751954235
 10
132.3630072902
 20
119.2505171566
 10
132.7306836754
 20
122.3346108691
 10
133.1243297926
 20
125.4270838564
  0
LWPOLYLINE
  5
245
100
AcDbEntity
  8
290140000
100
AcDbPolyline
 62
253
  6
CONTINUOUS
 90
10
 70
0
 10
132.8884282891
 20
125.6909148216
 10
132.8877966373
 20
125.6848883829
 10
132.889487826
 20
125.6526546965
 10
132.8995718249
 20
125.6197238283
 10
132.9179417932
 20
125.5864446838
 10
132.9444030995
 20
125.5531698585
 10
132.9786753839
 20
125.5202519023
 10
133.0203955286
 20
125.4880395838
 10
133.069121505
 20
125.4568741954
 10
133.124337057
 20
125.4270859373
  0
LWPOLYLINE
  5
246
100
AcDbEntity
  8
290140000
100
AcDbPolyline
 62
7
  6
CONTINUOUS
 90
13
 70
0
 10
132.8884342528
 20
125.6910045148
 10
132.5019443239
 20
122.6563977997
 10
132.1326711123
 20
119.5622364585
 10
131.7895859765
 20
116.4768230267
 10
131.4727416387
 20
113.4005989902
 10
131.1821769413
 20
110.3339521614
 10
130.9179268906
 20
107.2772494256
 10
130.6800268216
 20
104.230872223
 10
130.4685067328
 20
101.195200016
 10
130.2833944591
 20
98.1705969104
 10
130.1247173295
 20
95.1574458738
 10
129.9924969963
 20
92.1561758925
 10
129.8889634754
 20
89.23825142
  0
LWPOLYLINE
  5
247
100
AcDbEntity
  8
290140000
100
AcDbPolyline
 62
253
  6
CONTINUOUS
 90
22
 70
0
 10
133.1243297926
 20
125.4270838564
 10
133.1396092925
 20
125.524211928
 10
133.159917525
 20
125.6223650303
 10
133.1851522106
 20
125.7210580333
 10
133.2151829787
 20
125.8197987196
 10
133.2498618933
 20
125.9181045054
 10
133.2890268235
 20
126.015504453
 10
133.3324893331
 20
126.1115322984
 10
133.3800289094
 20
126.2056987884
 10
133.4314020495
 20
126.2975100209
 10
133.4863373999
 20
126.3864967256
 10
133.5445696648
 20
126.4722415791
 10
133.6058381125
 20
126.5543481757
 10
133.6698505151
 20
126.6324260416
 10
133.73627678
 20
126.7060714898
 10
133.8047802246
 20
126.7748975626
 10
133.8750084967
 20
126.838559414
 10
133.946618673
 20
126.8967542418
 10
134.0192741697
 20
126.9491977983
 10
134.0926189473
 20
126.9956317065
 10
134.1662787745
 20
127.0358271631
 10
134.239884943
 20
127.0695864833
  0
LINE
  5
248
100
AcDbEntity
  8
26814000
100
AcDbLine
 62
7
  6
CONTINUOUS
 10
151.0309453544
 20
130.232077409
 11
149.6331608479
 21
129.5331851557
  0
LINE
  5
249
100
AcDbEntity
  8
26814000
100
AcDbLine
 62
7
  6
CONTINUOUS
 10
149.2796074573
 20
130.2625200403
 11
149.703871526
 21
130.4701174611
  0
LINE
  5
24A
100
AcDbEntity
  8
26814000
100
AcDbLine
 62
7
  6
CONTINUOUS
 10
151.6899411058
 20
131.0921502228
 11
149.6331608479
 21
130.085743345
  0
LINE
  5
24B
100
AcDbEntity
  8
21814000
100
AcDbLine
 62
7
  6
CONTINUOUS
 10
148.6959536376
 20
128.9060893727
 11
148.5578388355
 21
128.8408522874
  0
LINE
  5
24C
100
AcDbEntity
  8
21814000
100
AcDbLine
 62
253
  6
CONTINUOUS
 10
148.7794876441
 20
128.897590286
 11
148.6432113551
 21
128.8332216032
  0
LWPOLYLINE
  5
24D
100
AcDbEntity
  8
21814000
100
AcDbPolyline
 62
253
  6
CONTINUOUS
 90
11
 70
0
 10
149.6129537671
 20
128.9514102592
 10
149.6220462276
 20
128.9555007103
 10
149.6311049019
 20
128.9588574955
 10
149.6400920234
 20
128.9614644676
 10
149.6489732111
 20
128.9633090717
 10
149.6577076755
 20
128.9643802174
 10
149.6662490239
 20
128.9646712314
 10
149.6745658493
 20
128.9641807374
 10
149.6826190733
 20
128.962910725
 10
149.6903550536
 20
128.9608732088
 10
149.6977286963
 20
128.9580898399
  0
LINE
  5
24E
100
AcDbEntity
  8
21814000
100
AcDbLine
 62
7
  6
CONTINUOUS
 10
148.6960071531
 20
128.9061146502
 11
148.6992151933
 21
128.9075302798
  0
LWPOLYLINE
  5
24F
100
AcDbEntity
  8
21814000
100
AcDbPolyline
 62
7
  6
CONTINUOUS
 90
5
 70
0
 10
148.5577203668
 20
128.8407953851
 10
148.5625635316
 20
128.8428530094
 10
148.5699898914
 20
128.8451708719
 10
148.5781363096
 20
128.8467032365
 10
148.5870546446
 20
128.8473541501
  0
LINE
  5
250
100
AcDbEntity
  8
21814000
100
AcDbLine
 62
7
  6
CONTINUOUS
 10
148.7690557831
 20
128.933631417
 11
148.6992148319
 21
128.9075301096
  0
LINE
  5
251
100
AcDbEntity
  8
21814000
100
AcDbLine
 62
7
  6
CONTINUOUS
 10
148.8440948932
 20
128.9565589821
 11
148.7690557831
 21
128.933631417
  0
LWPOLYLINE
  5
252
100
AcDbEntity
  8
21814000
100
AcDbPolyline
 62
7
  6
CONTINUOUS
 90
6
 70
0
 10
148.6992151933
 20
128.9075302798
 10
148.7124434678
 20
128.9114723048
 10
148.728227088
 20
128.9128109402
 10
148.7448644205
 20
128.910917115
 10
148.7620530216
 20
128.9058159061
 10
148.7794876441
 20
128.897590286
  0
LINE
  5
253
100
AcDbEntity
  8
26814000
100
AcDbLine
 62
7
  6
CONTINUOUS
 10
150.910120422
 20
82.3078237418
 11
152.5166565195
 21
81.5045556931
  0
LINE
  5
254
100
AcDbEntity
  8
26814000
100
AcDbLine
 62
253
  6
CONTINUOUS
 10
150.8455269432
 20
82.4428522831
 11
152.4513034054
 21
81.639964052
  0
LINE
  5
255
100
AcDbEntity
  8
26814000
100
AcDbLine
 62
253
  6
CONTINUOUS
 10
152.4513034054
 20
81.8933354458
 11
150.8455269432
 21
82.6962236768
  0
LINE
  5
256
100
AcDbEntity
  8
26814000
100
AcDbLine
 62
253
  6
CONTINUOUS
 10
152.5402059814
 20
82.1247725054
 11
150.9334010625
 21
82.9281749649
  0
LINE
  5
257
100
AcDbEntity
  8
26814000
100
AcDbLine
 62
7
  6
CONTINUOUS
 10
150.283556403
 20
84.2469361949
 11
152.6030093289
 21
83.0872097319
  0
LINE
  5
258
100
AcDbEntity
  8
26814000
100
AcDbLine
 62
7
  6
CONTINUOUS
 10
153.1625240135
 20
82.8698319229
 11
152.7532590172
 21
83.074464421
  0
LINE
  5
259
100
AcDbEntity
  8
26814000
100
AcDbLine
 62
7
  6
CONTINUOUS
 10
150.3094415294
 20
84.5615095702
 11
152.8504967023
 21
83.2909819837
  0
LINE
  5
25A
100
AcDbEntity
  8
21814000
100
AcDbLine
 62
7
  6
CONTINUOUS
 10
148.543107637
 20
128.8311758562
 11
147.6321812785
 21
128.0339385347
  0
LINE
  5
25B
100
AcDbEntity
  8
21814000
100
AcDbLine
 62
253
  6
CONTINUOUS
 10
148.6425524807
 20
128.8335510404
 11
147.6937423004
 21
128.0031580238
  0
LWPOLYLINE
  5
25C
100
AcDbEntity
  8
21814000
100
AcDbPolyline
 62
7
  6
CONTINUOUS
 90
5
 70
0
 10
148.5430103981
 20
128.8310902577
 10
148.5440912014
 20
128.8320217783
 10
148.5496395661
 20
128.8362045146
 10
148.5557940261
 20
128.8398421632
 10
148.5577203668
 20
128.8407953851
  0
LINE
  5
25D
100
AcDbEntity
  8
21814000
100
AcDbLine
 62
253
  6
CONTINUOUS
 10
148.1944712588
 20
127.7527935446
 11
148.6682797024
 21
128.124213601
  0
LINE
  5
25E
100
AcDbEntity
  8
21814000
100
AcDbLine
 62
253
  6
CONTINUOUS
 10
148.4723609218
 20
127.6138487131
 11
148.8410868323
 21
127.9028942132
  0
LWPOLYLINE
  5
25F
100
AcDbEntity
  8
21814000
100
AcDbPolyline
 62
253
  6
CONTINUOUS
 90
13
 70
0
 10
148.6682797024
 20
128.124213601
 10
148.7094586217
 20
128.153759731
 10
148.752653994
 20
128.1803698671
 10
148.7978658194
 20
128.2040440095
 10
148.8456427874
 20
128.2249389775
 10
148.8954362085
 20
128.2428979518
 10
148.9456000137
 20
128.257450474
 10
148.9961058046
 20
128.268468972
 10
149.0469819797
 20
128.2760810181
 10
149.0966676651
 20
128.2801988699
 10
149.1450226194
 20
128.2807370654
 10
149.1921870841
 20
128.2777810667
 10
149.237020909
 20
128.2714995186
  0
LINE
  5
260
100
AcDbEntity
  8
26814000
100
AcDbLine
 62
7
  6
CONTINUOUS
 10
149.3461971495
 20
125.9751176669
 11
149.8452928823
 21
126.22531434
  0
LINE
  5
261
100
AcDbEntity
  8
26814000
100
AcDbLine
 62
7
  6
CONTINUOUS
 10
149.8452928823
 20
126.22531434
 11
155.2595655774
 21
128.9253299504
  0
LINE
  5
262
100
AcDbEntity
  8
26814000
100
AcDbLine
 62
7
  6
CONTINUOUS
 10
154.6536189943
 20
129.2270779084
 11
149.9160035604
 21
126.8920273938
  0
LINE
  5
263
100
AcDbEntity
  8
26814000
100
AcDbLine
 62
7
  6
CONTINUOUS
 10
155.9325817929
 20
128.9708298793
 11
155.3462030058
 21
128.6839078116
  0
LWPOLYLINE
  5
264
100
AcDbEntity
  8
26814000
100
AcDbPolyline
 62
7
  6
CONTINUOUS
 90
18
 70
0
 10
155.9325817929
 20
128.9708298793
 10
155.9609563137
 20
128.9840118361
 10
155.9891907657
 20
128.9957462278
 10
156.0172851489
 20
129.0060330545
 10
156.045289462
 20
129.0148851891
 10
156.0731537062
 20
129.0222897586
 10
156.1007278859
 20
129.0282081443
 10
156.1279970145
 20
129.0326315655
 10
156.1549760785
 20
129.0355688029
 10
156.1815600411
 20
129.0370075788
 10
156.207765
 20
129.0369404423
 10
156.2335748575
 20
129.0353748443
 10
156.2588362837
 20
129.0323208609
 10
156.2835260371
 20
129.0277750765
 10
156.3076673592
 20
129.0217409066
 10
156.3311766455
 20
129.0142386739
 10
156.3540724257
 20
129.0052532592
 10
156.37363451
 20
128.9961635261
  0
LINE
  5
265
100
AcDbEntity
  8
21814000
100
AcDbLine
 62
7
  6
CONTINUOUS
 10
162.1619202638
 20
131.5397263022
 11
156.5084503733
 21
128.9287665572
  0
LINE
  5
266
100
AcDbEntity
  8
21814000
100
AcDbLine
 62
253
  6
CONTINUOUS
 10
162.5503777464
 20
131.5075119665
 11
156.728464496
 21
128.8187594959
  0
LWPOLYLINE
  5
267
100
AcDbEntity
  8
21814000
100
AcDbPolyline
 62
253
  6
CONTINUOUS
 90
9
 70
0
 10
162.5503777464
 20
131.5075119665
 10
162.6043841479
 20
131.5305434824
 10
162.658104221
 20
131.547785119
 10
162.7111400655
 20
131.5590498906
 10
162.7631259907
 20
131.5641938072
 10
162.8136272406
 20
131.5631056682
 10
162.8621553768
 20
131.5557502729
 10
162.9083376695
 20
131.5421561235
 10
162.9417487599
 20
131.5276462522
  0
LWPOLYLINE
  5
268
100
AcDbEntity
  8
21814000
100
AcDbPolyline
 62
7
  6
CONTINUOUS
 90
12
 70
0
 10
162.1619202638
 20
131.5397263022
 10
162.2275477399
 20
131.5669459517
 10
162.2962465705
 20
131.5892217211
 10
162.367554053
 20
131.6061211034
 10
162.4411107025
 20
131.6172854279
 10
162.5161386848
 20
131.6223571507
 10
162.5915246422
 20
131.6211363039
 10
162.666710151
 20
131.6135861689
 10
162.7410675825
 20
131.5997395374
 10
162.8135889539
 20
131.5798299205
 10
162.8839409855
 20
131.5540404698
 10
162.9417811145
 20
131.5276300747
  0
LWPOLYLINE
  5
269
100
AcDbEntity
  8
21814000
100
AcDbPolyline
 62
253
  6
CONTINUOUS
 90
9
 70
0
 10
162.1619202638
 20
131.5397263022
 10
162.1898328893
 20
131.5511252817
 10
162.2363473023
 20
131.5641043347
 10
162.285166255
 20
131.570681928
 10
162.3359183495
 20
131.5708080215
 10
162.3882174815
 20
131.5644816561
 10
162.4416657773
 20
131.5517509604
 10
162.4958566206
 20
131.5327127853
 10
162.5503777464
 20
131.5075119665
  0
LINE
  5
26A
100
AcDbEntity
  8
26814000
100
AcDbLine
 62
253
  6
CONTINUOUS
 10
154.3172290449
 20
83.3790279266
 11
154.273806719
 21
83.4007390896
  0
LINE
  5
26B
100
AcDbEntity
  8
26814000
100
AcDbLine
 62
7
  6
CONTINUOUS
 10
150.3833751417
 20
85.4600002937
 11
153.6636695007
 21
83.8198531142
  0
LINE
  5
26C
100
AcDbEntity
  8
26814000
100
AcDbLine
 62
253
  6
CONTINUOUS
 10
154.2293549256
 20
83.5782950721
 11
154.8444737606
 21
83.2707356546
  0
LINE
  5
26D
100
AcDbEntity
  8
26814000
100
AcDbLine
 62
7
  6
CONTINUOUS
 10
154.2293549256
 20
83.5819152217
 11
154.8677531339
 21
83.2627161175
  0
LINE
  5
26E
100
AcDbEntity
  8
26814000
100
AcDbLine
 62
7
  6
CONTINUOUS
 10
150.5137750936
 20
87.0447077553
 11
153.6636695007
 21
85.4697605517
  0
LWPOLYLINE
  5
26F
100
AcDbEntity
  8
21814000
100
AcDbPolyline
 62
253
  6
CONTINUOUS
 90
10
 70
0
 10
149.6129537671
 20
128.9514102592
 10
149.6182108946
 20
128.9569377647
 10
149.6234453626
 20
128.9617007223
 10
149.628634569
 20
128.9656763508
 10
149.633758007
 20
128.9688462518
 10
149.6387912436
 20
128.97119258
 10
149.6437064387
 20
128.9727014311
 10
149.6484845602
 20
128.9733668933
 10
149.6531027638
 20
128.9731857136
 10
149.6551420787
 20
128.9728240466
  0
LWPOLYLINE
  5
270
100
AcDbEntity
  8
21814000
100
AcDbPolyline
 62
253
  6
CONTINUOUS
 90
10
 70
0
 10
149.3563983961
 20
128.2328702219
 10
149.3373575076
 20
128.2148106568
 10
149.3195094521
 20
128.1941001915
 10
149.3032211557
 20
128.1711645985
 10
149.2888274785
 20
128.1464753952
 10
149.2766243304
 20
128.1205401502
 10
149.2668625877
 20
128.0938920487
 10
149.2597429354
 20
128.0670789311
 10
149.2554117417
 20
128.0406520301
 10
149.2539580486
 20
128.0151546385
  0
LWPOLYLINE
  5
271
100
AcDbEntity
  8
21814000
100
AcDbPolyline
 62
253
  6
CONTINUOUS
 90
10
 70
0
 10
150.1148039948
 20
127.8536674226
 10
150.0957625423
 20
127.8356072282
 10
150.0779141505
 20
127.8148961679
 10
150.0616257347
 20
127.7919601079
 10
150.0472321339
 20
127.7672706593
 10
150.0350291944
 20
127.7413354224
 10
150.0252677083
 20
127.7146875414
 10
150.0181483
 20
127.6878748292
 10
150.0138172864
 20
127.6614485128
 10
150.0123636494
 20
127.6359518381
  0
LWPOLYLINE
  5
272
100
AcDbEntity
  8
21814000
100
AcDbPolyline
 62
253
  6
CONTINUOUS
 90
16
 70
0
 10
148.8410868323
 20
127.9028942132
 10
148.8653161678
 20
127.9257572157
 10
148.8913574959
 20
127.9467765275
 10
148.9189127334
 20
127.9658754801
 10
148.9476816607
 20
127.983106264
 10
148.977339343
 20
127.9983123347
 10
149.0075371797
 20
128.0111331038
 10
149.0379519128
 20
128.0215271136
 10
149.068268688
 20
128.0295415242
 10
149.0981565902
 20
128.0349807406
 10
149.1272683341
 20
128.0378576336
 10
149.1553784916
 20
128.0382684979
 10
149.1823479611
 20
128.0361475576
 10
149.2079523342
 20
128.0315123699
 10
149.2318996738
 20
128.0244847545
 10
149.2539580486
 20
128.0151546385
  0
LINE
  5
273
100
AcDbEntity
  8
21814000
100
AcDbLine
 62
253
  6
CONTINUOUS
 10
150.1328230169
 20
127.3919419437
 11
149.7062039781
 21
126.9969271849
  0
LINE
  5
274
100
AcDbEntity
  8
21814000
100
AcDbLine
 62
7
  6
CONTINUOUS
 10
150.0360226459
 20
127.3917817039
 11
149.6434589409
 21
127.0282997035
  0
LINE
  5
275
100
AcDbEntity
  8
26814000
100
AcDbLine
 62
7
  6
CONTINUOUS
 10
151.0202527257
 20
124.5540872617
 11
152.6030093289
 21
125.366071359
  0
LINE
  5
276
100
AcDbEntity
  8
26814000
100
AcDbLine
 62
7
  6
CONTINUOUS
 10
149.3461971495
 20
124.7609141941
 11
149.8452928823
 21
125.0128787747
  0
LINE
  5
277
100
AcDbEntity
  8
26814000
100
AcDbLine
 62
7
  6
CONTINUOUS
 10
149.8452928823
 20
125.0128787747
 11
155.2595655774
 21
127.693491372
  0
LINE
  5
278
100
AcDbEntity
  8
26814000
100
AcDbLine
 62
7
  6
CONTINUOUS
 10
152.6030093289
 20
125.366071359
 11
153.1374592076
 21
125.6264188256
  0
LINE
  5
279
100
AcDbEntity
  8
21814000
100
AcDbLine
 62
7
  6
CONTINUOUS
 10
163.52153658
 20
131.0219325496
 11
160.0911326796
 21
129.3845957367
  0
LINE
  5
27A
100
AcDbEntity
  8
26814000
100
AcDbLine
 62
7
  6
CONTINUOUS
 10
137.0820154819
 20
129.3047358658
 11
137.0820154819
 21
129.2803403605
  0
LINE
  5
27B
100
AcDbEntity
  8
26814000
100
AcDbLine
 62
7
  6
CONTINUOUS
 10
137.4812087788
 20
130.6779868984
 11
137.4812087788
 21
130.9313582922
  0
LINE
  5
27C
100
AcDbEntity
  8
21814000
100
AcDbLine
 62
253
  6
CONTINUOUS
 10
150.1659229417
 20
127.4256683254
 11
150.1328230169
 21
127.3919419437
  0
LWPOLYLINE
  5
27D
100
AcDbEntity
  8
21814000
100
AcDbPolyline
 62
7
  6
CONTINUOUS
 90
13
 70
0
 10
160.5057101913
 20
128.3090171965
 10
160.3767253732
 20
128.2386634781
 10
160.2578120889
 20
128.1640054295
 10
160.1495432554
 20
128.0854027486
 10
160.0524405054
 20
128.0032341384
 10
159.9669716741
 20
127.9178954822
 10
159.893548545
 20
127.8297979366
 10
159.8325248664
 20
127.7393659501
 10
159.7841946466
 20
127.6470352186
 10
159.7487907377
 20
127.5532505859
 10
159.7264837136
 20
127.4584639007
 10
159.7173810482
 20
127.3631318396
 10
159.7171489265
 20
127.3452669581
  0
LINE
  5
27E
100
AcDbEntity
  8
26814000
100
AcDbLine
 62
253
  6
CONTINUOUS
 10
154.7434357588
 20
124.0723667899
 11
160.1017625389
 21
126.9633070168
  0
LINE
  5
27F
100
AcDbEntity
  8
26814000
100
AcDbLine
 62
253
  6
CONTINUOUS
 10
154.3768156055
 20
123.6261546637
 11
160.0176109713
 21
126.669493173
  0
LINE
  5
280
100
AcDbEntity
  8
0
100
AcDbLine
 62
7
  6
CONTINUOUS
 10
160.1748793312
 20
127.0371151162
 11
160.8256529859
 21
127.3802809323
  0
LINE
  5
281
100
AcDbEntity
  8
RACCORDO
100
AcDbLine
 62
253
  6
CONTINUOUS
 10
160.8255252039
 20
127.3802135454
 11
160.8256529859
 21
127.3802809323
  0
LINE
  5
282
100
AcDbEntity
  8
26814000
100
AcDbLine
 62
253
  6
CONTINUOUS
 10
154.2884256507
 20
123.4908614825
 11
160.0176109713
 21
126.4572340189
  0
LINE
  5
283
100
AcDbEntity
  8
26814000
100
AcDbLine
 62
7
  6
CONTINUOUS
 10
154.4081917814
 20
123.4309784172
 11
160.0998206837
 21
126.3779055488
  0
LINE
  5
284
100
AcDbEntity
  8
21814000
100
AcDbLine
 62
7
  6
CONTINUOUS
 10
164.5178661697
 20
130.3504169892
 11
160.5057101913
 21
128.3090171965
  0
LINE
  5
285
100
AcDbEntity
  8
26814000
100
AcDbLine
 62
7
  6
CONTINUOUS
 10
152.6280741348
 20
123.7501765571
 11
154.2293549256
 21
124.5528985606
  0
LINE
  5
286
100
AcDbEntity
  8
0
100
AcDbLine
 62
7
  6
CONTINUOUS
 10
160.9539404147
 20
127.1571892009
 11
161.4489151615
 21
127.4046765743
  0
LINE
  5
287
100
AcDbEntity
  8
26814000
100
AcDbLine
 62
7
  6
CONTINUOUS
 10
154.2293549256
 20
124.5528985606
 11
154.7576220974
 21
124.8163373807
  0
LINE
  5
288
100
AcDbEntity
  8
21814000
100
AcDbLine
 62
7
  6
CONTINUOUS
 10
164.5178661697
 20
129.9425657219
 11
160.5057101913
 21
127.9876929143
  0
LINE
  5
289
100
AcDbEntity
  8
26814000
100
AcDbLine
 62
253
  6
CONTINUOUS
 10
154.1398327157
 20
125.1872094424
 11
158.9116716938
 21
127.4812849288
  0
LINE
  5
28A
100
AcDbEntity
  8
26814000
100
AcDbLine
 62
253
  6
CONTINUOUS
 10
154.3674482155
 20
125.0734016925
 11
159.3535125618
 21
127.4704666485
  0
LINE
  5
28B
100
AcDbEntity
  8
290140000
100
AcDbLine
 62
253
  6
CONTINUOUS
 10
152.7183173937
 20
121.4621894045
 11
148.5935500162
 21
119.8927539468
  0
LINE
  5
28C
100
AcDbEntity
  8
26814000
100
AcDbLine
 62
7
  6
CONTINUOUS
 10
152.8504967023
 20
121.3960997502
 11
153.6636695007
 21
121.6804014182
  0
LINE
  5
28D
100
AcDbEntity
  8
26814000
100
AcDbLine
 62
7
  6
CONTINUOUS
 10
137.8951882802
 20
128.8737539613
 11
137.8951882802
 21
128.8044174679
  0
LINE
  5
28E
100
AcDbEntity
  8
26814000
100
AcDbLine
 62
7
  6
CONTINUOUS
 10
138.1842017331
 20
129.7714276438
 11
138.1842017331
 21
130.2237586194
  0
LINE
  5
28F
100
AcDbEntity
  8
26814000
100
AcDbLine
 62
7
  6
CONTINUOUS
 10
139.086985241
 20
130.1284700611
 11
139.086985241
 21
129.8750986674
  0
LINE
  5
290
100
AcDbEntity
  8
26814000
100
AcDbLine
 62
7
  6
CONTINUOUS
 10
139.7982058491
 20
128.9644255858
 11
139.7982058491
 21
129.6015951445
  0
LWPOLYLINE
  5
291
100
AcDbEntity
  8
26814000
100
AcDbPolyline
 62
7
  6
CONTINUOUS
 90
5
 70
0
 10
160.1000291774
 20
126.37800386
 10
160.1002636143
 20
126.3781368618
 10
160.1011908502
 20
126.3789645332
 10
160.1016972677
 20
126.3800156046
 10
160.101809013
 20
126.3809598489
  0
LINE
  5
292
100
AcDbEntity
  8
26814000
100
AcDbLine
 62
253
  6
CONTINUOUS
 10
154.3707762819
 20
122.7501370749
 11
152.6030093289
 21
121.8473593755
  0
LINE
  5
293
100
AcDbEntity
  8
26814000
100
AcDbLine
 62
253
  6
CONTINUOUS
 10
154.6182636553
 20
122.323272955
 11
152.8504967023
 21
121.4204952555
  0
LINE
  5
294
100
AcDbEntity
  8
26814000
100
AcDbLine
 62
7
  6
CONTINUOUS
 10
154.2293549256
 20
122.8208477531
 11
153.1625240135
 21
122.2822665036
  0
LINE
  5
295
100
AcDbEntity
  8
RACCORDO
100
AcDbLine
 62
7
  6
CONTINUOUS
 10
163.9170930741
 20
127.5851764266
 11
162.605628763
 21
126.9294442711
  0
LINE
  5
296
100
AcDbEntity
  8
RACCORDO
100
AcDbLine
 62
7
  6
CONTINUOUS
 10
164.7656237818
 20
127.1609136431
 11
163.8867311306
 21
126.7214673175
  0
LINE
  5
297
100
AcDbEntity
  8
26814000
100
AcDbLine
 62
253
  6
CONTINUOUS
 10
155.0778830631
 20
123.0961327763
 11
154.3707762819
 21
122.7501370749
  0
LINE
  5
298
100
AcDbEntity
  8
26814000
100
AcDbLine
 62
253
  6
CONTINUOUS
 10
155.3253704365
 20
122.6692686564
 11
154.6182636553
 21
122.323272955
  0
LINE
  5
299
100
AcDbEntity
  8
21814000
100
AcDbLine
 62
7
  6
CONTINUOUS
 10
160.683612611
 20
125.878388831
 11
155.0177480422
 21
123.1262002868
  0
LINE
  5
29A
100
AcDbEntity
  8
21814000
100
AcDbLine
 62
7
  6
CONTINUOUS
 10
169.0288715952
 20
128.2682650421
 11
161.436306695
 21
124.58018357
  0
LINE
  5
29B
100
AcDbEntity
  8
21814000
100
AcDbLine
 62
7
  6
CONTINUOUS
 10
168.2231996591
 20
128.6711010101
 11
164.8020535894
 21
127.0291352818
  0
LWPOLYLINE
  5
29C
100
AcDbEntity
  8
RACCORDO
100
AcDbPolyline
 62
7
  6
CONTINUOUS
 90
10
 70
0
 10
164.7655948859
 20
127.1608991951
 10
164.7769913502
 20
127.1660678503
 10
164.7882117526
 20
127.1701197467
 10
164.7992560934
 20
127.1730548843
 10
164.8102193523
 20
127.1748734156
 10
164.8210065494
 20
127.1755751881
 10
164.8313327449
 20
127.1751597437
 10
164.8411029586
 20
127.1736269298
 10
164.8504121706
 20
127.1709768991
 10
164.8592603809
 20
127.1672096515
  0
LWPOLYLINE
  5
29D
100
AcDbEntity
  8
21814000
100
AcDbPolyline
 62
7
  6
CONTINUOUS
 90
9
 70
0
 10
169.0288715952
 20
128.2682650421
 10
169.0850174729
 20
128.2935280804
 10
169.1382501838
 20
128.3129805728
 10
169.1881206443
 20
128.3266101838
 10
169.234091414
 20
128.3345178713
 10
169.2758833756
 20
128.3367508492
 10
169.3134762857
 20
128.3332938349
 10
169.3465105742
 20
128.3243572308
 10
169.3610725247
 20
128.3179841729
  0
LWPOLYLINE
  5
29E
100
AcDbEntity
  8
290140000
100
AcDbPolyline
 62
253
  6
CONTINUOUS
 90
22
 70
0
 10
148.5935500162
 20
119.8927539468
 10
148.5181096778
 20
119.8599117114
 10
148.442645868
 20
119.8206182461
 10
148.3675272955
 20
119.7750712354
 10
148.2931199361
 20
119.7235036102
 10
148.2197880847
 20
119.66616962
 10
148.1478930905
 20
119.6033411297
 10
148.0777782476
 20
119.535320756
 10
148.0097955374
 20
119.4624535304
 10
147.9443052951
 20
119.3851145844
 10
147.8816392576
 20
119.3037067826
 10
147.8220880087
 20
119.2186214212
 10
147.7659309995
 20
119.1302455459
 10
147.7134345461
 20
119.03899597
 10
147.6648689818
 20
118.945342474
 10
147.6204934683
 20
118.8497711306
 10
147.5805304886
 20
118.7527702077
 10
147.5451665087
 20
118.6548069546
 10
147.5145734071
 20
118.556347435
 10
147.4889023691
 20
118.4578726082
 10
147.468280516
 20
118.3598763163
 10
147.4528101272
 20
118.2628436891
  0
LWPOLYLINE
  5
29F
100
AcDbEntity
  8
290140000
100
AcDbPolyline
 62
253
  6
CONTINUOUS
 90
22
 70
0
 10
149.0999316292
 20
118.8916643054
 10
149.0641253682
 20
118.8765080675
 10
149.0286058134
 20
118.8585191453
 10
148.9933729648
 20
118.8376975386
 10
148.9582408219
 20
118.8139077669
 10
148.9233953852
 20
118.7872853109
 10
148.8893946561
 20
118.7582366125
 10
148.8562633979
 20
118.7267282717
 10
148.8239768471
 20
118.6927936887
 10
148.7930187148
 20
118.6569395049
 10
148.7634135568
 20
118.6191432072
 10
148.7351368171
 20
118.5794273089
 10
148.7085985385
 20
118.5383659914
 10
148.6838192831
 20
118.4959298667
 10
148.6607784888
 20
118.4521483229
 10
148.6398245121
 20
118.4076837047
 10
148.6209901428
 20
118.3625152619
 10
148.6042425911
 20
118.3166637448
 10
148.589831844
 20
118.2708537489
 10
148.5778412305
 20
118.2253268059
 10
148.5681874216
 20
118.1798413842
 10
148.5608704174
 20
118.1343974836
  0
LINE
  5
2A0
100
AcDbEntity
  8
290140000
100
AcDbLine
 62
253
  6
CONTINUOUS
 10
153.2647451903
 20
120.476336962
 11
149.0999316292
 21
118.8916643054
  0
LINE
  5
2A1
100
AcDbEntity
  8
26814000
100
AcDbLine
 62
7
  6
CONTINUOUS
 10
140.8650367612
 20
129.5030068353
 11
140.8650367612
 21
131.2350576428
  0
LINE
  5
2A2
100
AcDbEntity
  8
26814000
100
AcDbLine
 62
7
  6
CONTINUOUS
 10
141.5680297155
 20
131.3703791406
 11
141.5680297155
 21
131.1094501642
  0
LINE
  5
2A3
100
AcDbEntity
  8
21814000
100
AcDbLine
 62
253
  6
CONTINUOUS
 10
169.7873782901
 20
126.3729325342
 11
155.3253704365
 21
118.8850087689
  0
LINE
  5
2A4
100
AcDbEntity
  8
21814000
100
AcDbLine
 62
253
  6
CONTINUOUS
 10
169.4484148062
 20
127.5446600406
 11
155.3253704365
 21
120.5228038423
  0
LINE
  5
2A5
100
AcDbEntity
  8
26814000
100
AcDbLine
 62
7
  6
CONTINUOUS
 10
143.0427937642
 20
128.9769937035
 11
143.0427937642
 21
127.7622603173
  0
LINE
  5
2A6
100
AcDbEntity
  8
26814000
100
AcDbLine
 62
253
  6
CONTINUOUS
 10
143.1306617298
 20
128.8704847467
 11
143.1306617298
 21
127.6555298806
  0
LWPOLYLINE
  5
2A7
100
AcDbEntity
  8
290140000
100
AcDbPolyline
 62
253
  6
CONTINUOUS
 90
15
 70
0
 10
144.4517558617
 20
81.792024339
 10
144.4517148457
 20
81.7005588033
 10
144.4569769103
 20
81.6119023183
 10
144.4675159901
 20
81.5264923816
 10
144.483281094
 20
81.4447528602
 10
144.5041935713
 20
81.3670834789
 10
144.5301497257
 20
81.2938597281
 10
144.5610294818
 20
81.2254349273
 10
144.596679674
 20
81.1621575361
 10
144.6369095082
 20
81.1043579483
 10
144.6815118883
 20
81.0523272581
 10
144.7302743106
 20
81.0063062196
 10
144.782966943
 20
80.9665092239
 10
144.8393478658
 20
80.9331280875
 10
144.8459076833
 20
80.9297830929
  0
LINE
  5
2A8
100
AcDbEntity
  8
26814000
100
AcDbLine
 62
7
  6
CONTINUOUS
 10
154.8444737606
 20
124.195339794
 11
154.3172290449
 21
123.553632066
  0
LWPOLYLINE
  5
2A9
100
AcDbEntity
  8
21814000
100
AcDbPolyline
 62
253
  6
CONTINUOUS
 90
32
 70
0
 10
169.8950375802
 20
120.8266354123
 10
169.9151286852
 20
120.8325820977
 10
169.9344484849
 20
120.8364332039
 10
169.9529741041
 20
120.8382157439
 10
169.970669104
 20
120.8378318405
 10
169.9875078363
 20
120.8354489881
 10
170.0034850286
 20
120.8314896025
 10
170.0185247728
 20
120.8260284085
 10
170.0326384158
 20
120.8190609817
 10
170.0459609461
 20
120.8108812783
 10
170.0584760636
 20
120.8015863888
 10
170.0701318418
 20
120.7911570379
 10
170.0810119871
 20
120.779712283
 10
170.0911156461
 20
120.7673282011
 10
170.1003644324
 20
120.7540252926
 10
170.1087226669
 20
120.7398450771
 10
170.116171185
 20
120.7248650492
 10
170.1226393147
 20
120.7091252305
 10
170.1280094781
 20
120.6926187323
 10
170.1322569902
 20
120.6754625161
 10
170.1353067317
 20
120.6576807561
 10
170.1369530257
 20
120.6391456491
 10
170.1371864767
 20
120.6200182375
 10
170.1358922281
 20
120.6003264552
 10
170.1326759972
 20
120.5797864381
 10
170.1275344688
 20
120.5585935651
 10
170.1202971127
 20
120.5368349548
 10
170.110272335
 20
120.5141334858
 10
170.0974655912
 20
120.4907665732
 10
170.0816382828
 20
120.4668676241
 10
170.061676959
 20
120.4419310423
 10
170.0399724698
 20
120.4188913116
  0
LWPOLYLINE
  5
2AA
100
AcDbEntity
  8
290140000
100
AcDbPolyline
 62
253
  6
CONTINUOUS
 90
22
 70
0
 10
145.5678189632
 20
81.7608336518
 10
145.5678660525
 20
81.7179917973
 10
145.5703797525
 20
81.6767782897
 10
145.5753600633
 20
81.6371931289
 10
145.5828545422
 20
81.599038468
 10
145.5928156319
 20
81.562512154
 10
145.6051006602
 20
81.5282077273
 10
145.6197462625
 20
81.4961738239
 10
145.6367158035
 20
81.4663618079
 10
145.6557567046
 20
81.439219312
 10
145.6768964286
 20
81.4147900383
 10
145.7001075128
 20
81.3930302847
 10
145.7250549906
 20
81.3742565779
 10
145.751770658
 20
81.358510086
 10
145.7802227191
 20
81.345749641
 10
145.8099808187
 20
81.3361682656
 10
145.8410739245
 20
81.3298202715
 10
145.873473069
 20
81.326651347
 10
145.906660994
 20
81.3266915799
 10
145.9404652804
 20
81.3299509996
 10
145.9750583473
 20
81.3364195766
 10
146.0104401949
 20
81.346097311
  0
LWPOLYLINE
  5
2AB
100
AcDbEntity
  8
290140000
100
AcDbPolyline
 62
253
  6
CONTINUOUS
 90
13
 70
0
 10
147.4528101272
 20
118.2628436891
 10
147.0514041804
 20
115.1742506166
 10
146.6773786231
 20
112.0933314902
 10
146.3307806982
 20
109.0204790142
 10
146.011654113
 20
105.9560849258
 10
145.7200394264
 20
102.900539629
 10
145.4559740468
 20
99.854232147
 10
145.2194918401
 20
96.8175504612
 10
145.0106227091
 20
93.7908815514
 10
144.829392988
 20
90.7746110331
 10
144.6758258561
 20
87.769123093
 10
144.5499413323
 20
84.7748004382
 10
144.4517558617
 20
81.792024339
  0
LWPOLYLINE
  5
2AC
100
AcDbEntity
  8
21814000
100
AcDbPolyline
 62
7
  6
CONTINUOUS
 90
9
 70
0
 10
150.0998840618
 20
127.4886634373
 10
150.0983010677
 20
127.4808463597
 10
150.0948787074
 20
127.4705747525
 10
150.0891149687
 20
127.4580184034
 10
150.0807962132
 20
127.4437769839
 10
150.0701175991
 20
127.4287177304
 10
150.0573030448
 20
127.4133483572
 10
150.042459761
 20
127.3978978541
 10
150.036022824
 20
127.3917815108
  0
LWPOLYLINE
  5
2AD
100
AcDbEntity
  8
RACCORDO
100
AcDbPolyline
 62
253
  6
CONTINUOUS
 90
47
 70
0
 10
160.3908717346
 20
126.9440224367
 10
160.4298045089
 20
126.9960644314
 10
160.4790877272
 20
127.0528451089
 10
160.5342214018
 20
127.1084357232
 10
160.5947248802
 20
127.1623782455
 10
160.6605972318
 20
127.214631145
 10
160.7318393871
 20
127.2652359525
 10
160.8079734848
 20
127.313859231
 10
160.8889901138
 20
127.3604869735
 10
160.9748986852
 20
127.4051331871
 10
161.0652495709
 20
127.4475064562
 10
161.1602998511
 20
127.4876656542
 10
161.2597924456
 20
127.5255519077
 10
161.3625064859
 20
127.5606971808
 10
161.4688473547
 20
127.5930749007
 10
161.5784096693
 20
127.6227116403
 10
161.6887564137
 20
127.6492190825
 10
161.7998609306
 20
127.6724184759
 10
161.9117498773
 20
127.692488572
 10
162.0220662094
 20
127.7095773078
 10
162.1304566993
 20
127.7235512036
 10
162.2372745746
 20
127.7345437392
 10
162.3412224737
 20
127.7431032904
 10
162.4420583082
 20
127.74920586
 10
162.5400241664
 20
127.7528754452
 10
162.6345489528
 20
127.754732414
 10
162.7254706929
 20
127.7547982828
 10
162.812951361
 20
127.7530515353
 10
162.8969057844
 20
127.7500479899
 10
162.9772098578
 20
127.7458291893
 10
163.0539876864
 20
127.7403535908
 10
163.1275264129
 20
127.7340523852
 10
163.1977929465
 20
127.7269663514
 10
163.2648203781
 20
127.7190547105
 10
163.3289951222
 20
127.7106263164
 10
163.3903028691
 20
127.7017156758
 10
163.4487579285
 20
127.692288282
 10
163.504789645
 20
127.6825494682
 10
163.5583942285
 20
127.6725279465
 10
163.6095754692
 20
127.6621950047
 10
163.6587740815
 20
127.65166984
 10
163.7059932264
 20
127.6409753008
 10
163.751229743
 20
127.6300885387
 10
163.7949148629
 20
127.6190602051
 10
163.8371923299
 20
127.6079071838
 10
163.8779184004
 20
127.5966125909
 10
163.9170930741
 20
127.5851764266
  0
LWPOLYLINE
  5
2AE
100
AcDbEntity
  8
RACCORDO
100
AcDbPolyline
 62
253
  6
CONTINUOUS
 90
10
 70
0
 10
160.3092178651
 20
126.9776800787
 10
160.3115125531
 20
126.9807400894
 10
160.3643752042
 20
127.0414571874
 10
160.4234540747
 20
127.1007164047
 10
160.4885468541
 20
127.1583243379
 10
160.559422686
 20
127.2140978055
 10
160.6359158238
 20
127.267925741
 10
160.7179072275
 20
127.3197269247
 10
160.8051558245
 20
127.369344564
 10
160.8255252039
 20
127.3802135454
  0
LINE
  5
2AF
100
AcDbEntity
  8
21814000
100
AcDbLine
 62
253
  6
CONTINUOUS
 10
148.8410868323
 20
127.9028942132
 11
148.8410868323
 21
127.4294857578
  0
LINE
  5
2B0
100
AcDbEntity
  8
26814000
100
AcDbLine
 62
253
  6
CONTINUOUS
 10
148.9231707979
 20
124.7592753465
 11
148.9231707979
 21
125.9742302126
  0
LWPOLYLINE
  5
2B1
100
AcDbEntity
  8
290140000
100
AcDbPolyline
 62
253
  6
CONTINUOUS
 90
16
 70
0
 10
149.0999316292
 20
118.8916643054
 10
149.1015149817
 20
118.9677450798
 10
149.0970520833
 20
119.0461480826
 10
149.0865917568
 20
119.1260150876
 10
149.0702484755
 20
119.2064718385
 10
149.0482011129
 20
119.2866376105
 10
149.020690987
 20
119.3656348513
 10
148.9880192136
 20
119.4425988054
 10
148.9505434167
 20
119.5166869599
 10
148.9086738213
 20
119.5870882626
 10
148.8628687433
 20
119.6530320376
 10
148.8136295858
 20
119.7137963934
 10
148.7614953664
 20
119.7687161149
 10
148.7070367871
 20
119.8171899845
 10
148.6508499832
 20
119.8586873569
 10
148.593550018
 20
119.8927539475
  0
LINE
  5
2B2
100
AcDbEntity
  8
21814000
100
AcDbLine
 62
7
  6
CONTINUOUS
 10
150.1002266478
 20
127.49353379
 11
150.0998840618
 21
127.4886634373
  0
LWPOLYLINE
  5
2B3
100
AcDbEntity
  8
290140000
100
AcDbPolyline
 62
253
  6
CONTINUOUS
 90
7
 70
0
 10
146.5693246898
 20
99.7748842675
 10
146.333488064
 20
96.7464204012
 10
146.1251605362
 20
93.7275550751
 10
145.9444218845
 20
90.7194477874
 10
145.7912987014
 20
87.7224850372
 10
145.6657643943
 20
84.7362803254
 10
145.5678189632
 20
81.7608336518
  0
LWPOLYLINE
  5
2B4
100
AcDbEntity
  8
290140000
100
AcDbPolyline
 62
253
  6
CONTINUOUS
 90
7
 70
0
 10
148.5608704174
 20
118.1343974836
 10
148.160452698
 20
115.0534045778
 10
147.7874323511
 20
111.9808412866
 10
147.4418093769
 20
108.91670761
 10
147.1235465335
 20
105.860613906
 10
146.8326810627
 20
102.8129498166
 10
146.5693246898
 20
99.7748842675
  0
LINE
  5
2B5
100
AcDbEntity
  8
26814000
100
AcDbLine
 62
7
  6
CONTINUOUS
 10
151.7426031784
 20
101.9782488134
 11
151.9312578868
 21
101.8839214592
  0
LWPOLYLINE
  5
2B6
100
AcDbEntity
  8
26814000
100
AcDbPolyline
 62
7
  6
CONTINUOUS
 90
13
 70
0
 10
160.0983893963
 20
89.4541845769
 10
160.0954982312
 20
89.4580777679
 10
160.091809467
 20
89.4624601081
 10
160.0873495031
 20
89.4672174009
 10
160.0821566448
 20
89.4723572555
 10
160.0762739877
 20
89.4779046143
 10
160.0697134535
 20
89.4837722129
 10
160.0625065503
 20
89.4899695208
 10
160.0546894046
 20
89.4965146455
 10
160.0462654652
 20
89.5033355216
 10
160.0372525738
 20
89.5104175464
 10
160.0276907284
 20
89.5178011896
 10
160.0176109713
 20
89.5254977443
  0
LINE
  5
2B7
100
AcDbEntity
  8
26814000
100
AcDbLine
 62
7
  6
CONTINUOUS
 10
151.0772104755
 20
93.8919514939
 11
151.6580444843
 21
88.4781259203
  0
LINE
  5
2B8
100
AcDbEntity
  8
21814000
100
AcDbLine
 62
7
  6
CONTINUOUS
 10
150.1002315765
 20
127.4935909172
 11
150.100231612
 21
127.493491941
  0
LINE
  5
2B9
100
AcDbEntity
  8
21814000
100
AcDbLine
 62
253
  6
CONTINUOUS
 10
149.2539580486
 20
128.0151546385
 11
149.2539580486
 21
127.2230501497
  0
LINE
  5
2BA
100
AcDbEntity
  8
26814000
100
AcDbLine
 62
7
  6
CONTINUOUS
 10
149.2796074573
 20
129.0122491811
 11
149.2796074573
 21
130.2625200403
  0
LINE
  5
2BB
100
AcDbEntity
  8
26814000
100
AcDbLine
 62
253
  6
CONTINUOUS
 10
149.3461971495
 20
124.7609141941
 11
149.3461971495
 21
125.9751176669
  0
LINE
  5
2BC
100
AcDbEntity
  8
26814000
100
AcDbLine
 62
7
  6
CONTINUOUS
 10
149.6331608479
 20
129.5331851557
 11
149.6331608479
 21
130.085743345
  0
LINE
  5
2BD
100
AcDbEntity
  8
26814000
100
AcDbLine
 62
253
  6
CONTINUOUS
 10
149.703871526
 20
131.7019516425
 11
149.703871526
 21
130.4701174611
  0
LINE
  5
2BE
100
AcDbEntity
  8
26814000
100
AcDbLine
 62
7
  6
CONTINUOUS
 10
149.7917394917
 20
131.8069488565
 11
149.7917394917
 21
130.5745802516
  0
LINE
  5
2BF
100
AcDbEntity
  8
26814000
100
AcDbLine
 62
7
  6
CONTINUOUS
 10
149.8452928823
 20
126.22531434
 11
149.8452928823
 21
125.0128787747
  0
LINE
  5
2C0
100
AcDbEntity
  8
21814000
100
AcDbLine
 62
253
  6
CONTINUOUS
 10
150.0123636472
 20
127.6359518391
 11
150.0123636472
 21
127.3698756538
  0
LINE
  5
2C1
100
AcDbEntity
  8
26814000
100
AcDbLine
 62
7
  6
CONTINUOUS
 10
150.8455269432
 20
82.4428522831
 11
150.8455269432
 21
82.6962236768
  0
LINE
  5
2C2
100
AcDbEntity
  8
26814000
100
AcDbLine
 62
7
  6
CONTINUOUS
 10
150.8455269432
 20
123.9958278162
 11
150.8455269432
 21
124.24919921
  0
LWPOLYLINE
  5
2C3
100
AcDbEntity
  8
290140000
100
AcDbPolyline
 62
253
  6
CONTINUOUS
 90
11
 70
0
 10
146.0104401949
 20
81.346097311
 10
145.9996715543
 20
81.2720693927
 10
145.982991759
 20
81.2020068082
 10
145.9605833969
 20
81.1366765087
 10
145.9326917649
 20
81.076793643
 10
145.8996221833
 20
81.0230137285
 10
145.8617366534
 20
80.9759254756
 10
145.8194498954
 20
80.9360443436
 10
145.7732248081
 20
80.9038068977
 10
145.7235674018
 20
80.8795660303
 10
145.7015468306
 20
80.871750475
  0
LINE
  5
2C4
100
AcDbEntity
  8
21814000
100
AcDbLine
 62
7
  6
CONTINUOUS
 10
170.0399724698
 20
120.4039710939
 11
171.1106955637
 21
121.0965057511
  0
LINE
  5
2C5
100
AcDbEntity
  8
26814000
100
AcDbLine
 62
7
  6
CONTINUOUS
 10
151.9312578868
 20
101.8839214592
 11
153.6636695007
 21
85.4697605517
  0
LWPOLYLINE
  5
2C6
100
AcDbEntity
  8
26814000
100
AcDbPolyline
 62
7
  6
CONTINUOUS
 90
24
 70
0
 10
152.3908772945
 20
130.576625889
 10
152.3903041101
 20
130.6110982952
 10
152.3886049971
 20
130.6448482161
 10
152.3857799556
 20
130.6778756519
 10
152.381819521
 20
130.7102372093
 10
152.3767331579
 20
130.7418762815
 10
152.3705492595
 20
130.7726230481
 10
152.3632666441
 20
130.8024585755
 10
152.3548864934
 20
130.8314017972
 10
152.3454407462
 20
130.8593396932
 10
152.3349168877
 20
130.886285856
 10
152.3233274326
 20
130.9122266929
 10
152.3107418639
 20
130.9370084058
 10
152.297166678
 20
130.9606057072
 10
152.2825953785
 20
130.9830438845
 10
152.2670779584
 20
131.0042450018
 10
152.2505946711
 20
131.0242220917
 10
152.2331652632
 20
131.0429621215
 10
152.2148989686
 20
131.0603480571
 10
152.1958103127
 20
131.0763569835
 10
152.17588477
 20
131.0910118155
 10
152.1551879975
 20
131.1042642639
 10
152.1336954829
 20
131.1161201252
 10
148.9044942167
 20
132.7307446355
  0
LINE
  5
2C7
100
AcDbEntity
  8
26814000
100
AcDbLine
 62
7
  6
CONTINUOUS
 10
151.5485198975
 20
123.0892685616
 11
151.5485198975
 21
123.5415995372
  0
LINE
  5
2C8
100
AcDbEntity
  8
26814000
100
AcDbLine
 62
7
  6
CONTINUOUS
 10
152.3908772945
 20
130.576625889
 11
152.3908772945
 21
130.3058255964
  0
LINE
  5
2C9
100
AcDbEntity
  8
26814000
100
AcDbLine
 62
7
  6
CONTINUOUS
 10
152.4513034054
 20
123.4463109789
 11
152.4513034054
 21
123.1929395851
  0
LINE
  5
2CA
100
AcDbEntity
  8
26814000
100
AcDbLine
 62
7
  6
CONTINUOUS
 10
152.4513034054
 20
81.8933354458
 11
152.4513034054
 21
81.639964052
  0
LINE
  5
2CB
100
AcDbEntity
  8
26814000
100
AcDbLine
 62
7
  6
CONTINUOUS
 10
152.8504967023
 20
121.4204952555
 11
152.8504967023
 21
121.3960997502
  0
LINE
  5
2CC
100
AcDbEntity
  8
26814000
100
AcDbLine
 62
7
  6
CONTINUOUS
 10
152.8504967023
 20
83.2909819837
 11
152.8504967023
 21
83.2665864784
  0
LINE
  5
2CD
100
AcDbEntity
  8
26814000
100
AcDbLine
 62
7
  6
CONTINUOUS
 10
153.1625240135
 20
82.8698319229
 11
153.1625240135
 21
83.2744540139
  0
LINE
  5
2CE
100
AcDbEntity
  8
26814000
100
AcDbLine
 62
7
  6
CONTINUOUS
 10
153.1625240135
 20
122.2822665036
 11
153.1625240135
 21
122.9194360623
  0
LINE
  5
2CF
100
AcDbEntity
  8
290140000
100
AcDbLine
 62
7
  6
CONTINUOUS
 10
150.1529764084
 20
82.6600407327
 11
153.2647451903
 21
120.476336962
  0
LINE
  5
2D0
100
AcDbEntity
  8
26814000
100
AcDbLine
 62
7
  6
CONTINUOUS
 10
153.6636695007
 20
120.0304939806
 11
151.9312578868
 21
101.8839214592
  0
LWPOLYLINE
  5
2D1
100
AcDbEntity
  8
21814000
100
AcDbPolyline
 62
253
  6
CONTINUOUS
 90
28
 70
0
 10
169.7873782901
 20
120.6975775408
 10
169.803656766
 20
120.7120434296
 10
169.8197093925
 20
120.7241977733
 10
169.835502967
 20
120.734043762
 10
169.8510340708
 20
120.7416312819
 10
169.8662344902
 20
120.7469158003
 10
169.8809824895
 20
120.7497540866
 10
169.8952760471
 20
120.7499721438
 10
169.9090620465
 20
120.7477378308
 10
169.9221727263
 20
120.7434095416
 10
169.9345559415
 20
120.7369123286
 10
169.9462590177
 20
120.7282982025
 10
169.9572841619
 20
120.7181097624
 10
169.9676007444
 20
120.7064053689
 10
169.9772350024
 20
120.6931051749
 10
169.9862574162
 20
120.6785482345
 10
169.9946468336
 20
120.662782131
 10
170.0023856376
 20
120.6457442902
 10
170.0095141187
 20
120.6276143075
 10
170.015999218
 20
120.6083962635
 10
170.0217953036
 20
120.5880730187
 10
170.0268903315
 20
120.5667953693
 10
170.0312303146
 20
120.5445612398
 10
170.034760612
 20
120.5213550552
 10
170.0374380015
 20
120.497307546
 10
170.0391892248
 20
120.4724346545
 10
170.0399464979
 20
120.4466933275
 10
170.039972106
 20
120.4416327051
  0
LWPOLYLINE
  5
2D2
100
AcDbEntity
  8
21814000
100
AcDbPolyline
 62
7
  6
CONTINUOUS
 90
76
 70
0
 10
169.8950375802
 20
120.8266354122
 10
169.9570510085
 20
120.8782536179
 10
170.0173609015
 20
120.9288842584
 10
170.0759672592
 20
120.9785273339
 10
170.1328308483
 20
121.0271518929
 10
170.187990902
 20
121.0747888868
 10
170.2415651204
 20
121.1215311697
 10
170.2935603441
 20
121.1673816852
 10
170.3439697324
 20
121.2123374897
 10
170.392890463
 20
121.2564826057
 10
170.4403273995
 20
121.2998175643
 10
170.4862756783
 20
121.3423418344
 10
170.530817886
 20
121.3841378451
 10
170.5739597753
 20
121.4252056425
 10
170.6156955936
 20
121.4655451805
 10
170.6560906693
 20
121.5052387507
 10
170.6951524903
 20
121.5442858741
 10
170.7328735687
 20
121.5826870297
 10
170.7692967696
 20
121.6205259458
 10
170.8044327945
 20
121.6578015396
 10
170.8382709418
 20
121.6945148939
 10
170.8708219721
 20
121.7307529859
 10
170.9021040505
 20
121.7665160161
 10
170.9320990118
 20
121.8018037841
 10
170.9607631218
 20
121.8367026658
 10
170.9881271325
 20
121.8712152467
 10
171.0141602918
 20
121.9053389413
 10
171.038726609
 20
121.939152369
 10
171.0618950618
 20
121.9727007346
 10
171.0835966725
 20
122.0059388332
 10
171.1034885171
 20
122.0388096696
 10
171.1216467408
 20
122.07143031
 10
171.1379951985
 20
122.1036836882
 10
171.1519625301
 20
122.1351616098
 10
171.1635019766
 20
122.1658774675
 10
171.1726602971
 20
122.1958178685
 10
171.1790064091
 20
122.2245344411
 10
171.1824310648
 20
122.2519868174
 10
171.1830435119
 20
122.2782153653
 10
171.1807404123
 20
122.3028928158
 10
171.1753562859
 20
122.325981434
 10
171.1670566126
 20
122.3475189549
 10
171.156234494
 20
122.3672913142
 10
171.1428137173
 20
122.3851695204
 10
171.1268704952
 20
122.401282565
 10
171.1090265669
 20
122.4158033596
 10
171.0893620938
 20
122.4286814209
 10
171.0677969145
 20
122.4399672321
 10
171.0447122849
 20
122.4499851545
 10
171.0201825067
 20
122.458763615
 10
170.9941332782
 20
122.4662741866
 10
170.9667229495
 20
122.4727559504
 10
170.9379868445
 20
122.4782405231
 10
170.9078896392
 20
122.4826962878
 10
170.8764837126
 20
122.4862674751
 10
170.8437884457
 20
122.4889744665
 10
170.8097844573
 20
122.4907968804
 10
170.7744659827
 20
122.4918178025
 10
170.7378452415
 20
122.4920503951
 10
170.699910014
 20
122.491481496
 10
170.6606178764
 20
122.4901547037
 10
170.6199743806
 20
122.4880786064
 10
170.5779739746
 20
122.485244616
 10
170.5345575789
 20
122.481670567
 10
170.4897293314
 20
122.4773621781
 10
170.4434850942
 20
122.4723137306
 10
170.3957533745
 20
122.4665259028
 10
170.3465447819
 20
122.4600041088
 10
170.2958487068
 20
122.4527429345
 10
170.2435618278
 20
122.4447268161
 10
170.1896910388
 20
122.4359607967
 10
170.134229446
 20
122.4264398332
 10
170.0770530466
 20
122.4161332317
 10
170.0181205065
 20
122.4050307611
 10
169.9574731599
 20
122.3931426525
 10
169.8951110068
 20
122.380468906
  0
LWPOLYLINE
  5
2D3
100
AcDbEntity
  8
26814000
100
AcDbPolyline
 62
7
  6
CONTINUOUS
 90
31
 70
0
 10
154.6182636553
 20
122.323272955
 10
154.6179239878
 20
122.3393059871
 10
154.6169075502
 20
122.3556345563
 10
154.615216817
 20
122.3722137595
 10
154.6128558124
 20
122.3889978591
 10
154.6098310008
 20
122.4059408532
 10
154.6061512683
 20
122.4229966015
 10
154.6018264153
 20
122.4401182201
 10
154.5968679854
 20
122.457258631
 10
154.5912901349
 20
122.4743711357
 10
154.5851078906
 20
122.4914087056
 10
154.5783379003
 20
122.5083244977
 10
154.570999242
 20
122.5250724053
 10
154.5631118
 20
122.5416064125
 10
154.5546969161
 20
122.5578810652
 10
154.545778121
 20
122.5738519835
 10
154.5363796672
 20
122.5894752975
 10
154.5265270655
 20
122.6047080615
 10
154.5162477201
 20
122.6195087158
 10
154.5055696547
 20
122.633836617
 10
154.4945219209
 20
122.6476523851
 10
154.4831351216
 20
122.6609183051
 10
154.4714403619
 20
122.6735979611
 10
154.4594695187
 20
122.685656509
 10
154.4472556397
 20
122.6970610078
 10
154.4348321452
 20
122.7077801659
 10
154.422232953
 20
122.7177845333
 10
154.4094927406
 20
122.7270467547
 10
154.3966464444
 20
122.735541446
 10
154.3837291641
 20
122.7432452636
 10
154.3707762819
 20
122.7501370749
  0
LINE
  5
2D4
100
AcDbEntity
  8
26814000
100
AcDbLine
 62
7
  6
CONTINUOUS
 10
153.6636695007
 20
121.6804014182
 11
153.6636695007
 21
120.0304939806
  0
LINE
  5
2D5
100
AcDbEntity
  8
26814000
100
AcDbLine
 62
7
  6
CONTINUOUS
 10
153.6636695007
 20
85.4697605517
 11
153.6636695007
 21
83.8198531142
  0
LINE
  5
2D6
100
AcDbEntity
  8
26814000
100
AcDbLine
 62
7
  6
CONTINUOUS
 10
154.2293549256
 20
82.290858856
 11
154.2293549256
 21
83.7964669822
  0
LINE
  5
2D7
100
AcDbEntity
  8
26814000
100
AcDbLine
 62
7
  6
CONTINUOUS
 10
154.2293549256
 20
122.8208477531
 11
154.2293549256
 21
124.5528985606
  0
LINE
  5
2D8
100
AcDbEntity
  8
26814000
100
AcDbLine
 62
7
  6
CONTINUOUS
 10
154.9323478799
 20
124.6882200584
 11
154.9323478799
 21
124.427291082
  0
LINE
  5
2D9
100
AcDbEntity
  8
26814000
100
AcDbLine
 62
7
  6
CONTINUOUS
 10
154.9323478799
 20
83.1276869427
 11
154.9323478799
 21
82.8667579663
  0
LINE
  5
2DA
100
AcDbEntity
  8
26814000
100
AcDbLine
 62
253
  6
CONTINUOUS
 10
155.2595655774
 20
128.9253299504
 11
155.2595655774
 21
127.693491372
  0
LINE
  5
2DB
100
AcDbEntity
  8
21814000
100
AcDbLine
 62
7
  6
CONTINUOUS
 10
155.3253704365
 20
88.2769466993
 11
155.3253704365
 21
118.8850087689
  0
LINE
  5
2DC
100
AcDbEntity
  8
26814000
100
AcDbLine
 62
7
  6
CONTINUOUS
 10
155.3253704365
 20
84.4926868117
 11
155.3253704365
 21
122.6692686564
  0
LINE
  5
2DD
100
AcDbEntity
  8
26814000
100
AcDbLine
 62
7
  6
CONTINUOUS
 10
155.3462030058
 20
129.0297173257
 11
155.3462030058
 21
127.797348834
  0
LWPOLYLINE
  5
2DE
100
AcDbEntity
  8
26814000
100
AcDbPolyline
 62
7
  6
CONTINUOUS
 90
18
 70
0
 10
154.6182636553
 20
84.1315757319
 10
154.6179250108
 20
84.1158818559
 10
154.6169083673
 20
84.1005698271
 10
154.615216817
 20
84.0856817658
 10
154.6128555998
 20
84.071258777
 10
154.6098311882
 20
84.0573403946
 10
154.6061512683
 20
84.0439644724
 10
154.6018262045
 20
84.0311678122
 10
154.5968681549
 20
84.0189856411
 10
154.5912901349
 20
84.0074510716
 10
154.585107687
 20
83.9965958478
 10
154.5783380476
 20
83.9864498705
 10
154.570999242
 20
83.9770406949
 10
154.5631116084
 20
83.9683942255
 10
154.5546970375
 20
83.9605343003
 10
154.545778121
 20
83.9534822378
 10
154.5363794925
 20
83.9472574648
 10
154.5282948812
 20
83.9427632004
  0
LWPOLYLINE
  5
2DF
100
AcDbEntity
  8
26814000
100
AcDbPolyline
 62
7
  6
CONTINUOUS
 90
4
 70
0
 10
160.1018090095
 20
89.4461047693
 10
160.1015745039
 20
89.4478729833
 10
160.1004337278
 20
89.450805209
 10
160.0983893963
 20
89.4541845769
  0
LINE
  5
2E0
100
AcDbEntity
  8
26814000
100
AcDbLine
 62
253
  6
CONTINUOUS
 10
160.0176109713
 20
126.669493173
 11
160.0176109713
 21
126.4572340189
  0
LINE
  5
2E1
100
AcDbEntity
  8
26814000
100
AcDbLine
 62
253
  6
CONTINUOUS
 10
160.0176109713
 20
89.7152674484
 11
160.0176109713
 21
89.5254977443
  0
LWPOLYLINE
  5
2E2
100
AcDbEntity
  8
26814000
100
AcDbPolyline
 62
7
  6
CONTINUOUS
 90
16
 70
0
 10
160.1018090095
 20
126.9571696788
 10
160.1015745039
 20
126.9436553705
 10
160.1004337278
 20
126.9238901793
 10
160.0983893963
 20
126.9040365287
 10
160.0954982312
 20
126.8841007448
 10
160.091809467
 20
126.8641185085
 10
160.0873495031
 20
126.8441566869
 10
160.0821566448
 20
126.8242359692
 10
160.0762739877
 20
126.8043682178
 10
160.0697134535
 20
126.7846079917
 10
160.0625065503
 20
126.764970925
 10
160.0546894046
 20
126.7454689604
 10
160.0462654652
 20
126.7261533615
 10
160.0372525738
 20
126.7070506351
 10
160.0276907284
 20
126.6881601412
 10
160.0176109713
 20
126.669493173
  0
LWPOLYLINE
  5
2E3
100
AcDbEntity
  8
21814000
100
AcDbPolyline
 62
7
  6
CONTINUOUS
 90
7
 70
0
 10
169.7873782901
 20
120.6975775408
 10
169.8023764056
 20
120.7218616611
 10
169.8185525609
 20
120.7450359914
 10
169.835906756
 20
120.7671005316
 10
169.8544389909
 20
120.7880552819
 10
169.8741492657
 20
120.8079002421
 10
169.8950375802
 20
120.8266354122
  0
LINE
  5
2E4
100
AcDbEntity
  8
290140000
100
AcDbLine
 62
253
  6
CONTINUOUS
 10
147.4528101272
 20
118.2628436891
 11
133.1243297926
 21
125.4270838564
  0
LINE
  5
2E5
100
AcDbEntity
  8
21814000
100
AcDbLine
 62
7
  6
CONTINUOUS
 10
159.7171489265
 20
127.3452669581
 11
159.7188283548
 21
127.3155148076
  0
LWPOLYLINE
  5
2E6
100
AcDbEntity
  8
26814000
100
AcDbPolyline
 62
7
  6
CONTINUOUS
 90
5
 70
0
 10
160.101809013
 20
126.3809598489
 10
160.1017963626
 20
126.3812947845
 10
160.1015019595
 20
126.3828125733
 10
160.1008266245
 20
126.3845292376
 10
160.0997825316
 20
126.3864489414
  0
LWPOLYLINE
  5
2E7
100
AcDbEntity
  8
26814000
100
AcDbPolyline
 62
7
  6
CONTINUOUS
 90
7
 70
0
 10
160.1017625389
 20
126.9633070168
 10
160.1016709308
 20
126.9676148181
 10
160.1015317601
 20
126.9719261487
 10
160.1013450267
 20
126.9762410087
 10
160.1011107305
 20
126.9805593981
 10
160.1008288717
 20
126.9848813168
 10
160.1004994503
 20
126.9892067649
  0
LINE
  5
2E8
100
AcDbEntity
  8
26814000
100
AcDbLine
 62
7
  6
CONTINUOUS
 10
160.1017625389
 20
126.9633070168
 11
160.1018090095
 21
126.9571696788
  0
LINE
  5
2E9
100
AcDbEntity
  8
26814000
100
AcDbLine
 62
7
  6
CONTINUOUS
 10
160.1018090312
 20
126.9571140512
 11
160.1018090312
 21
126.3811508617
  0
LINE
  5
2EA
100
AcDbEntity
  8
26814000
100
AcDbLine
 62
7
  6
CONTINUOUS
 10
160.1018090312
 20
89.7597927694
 11
160.1018090312
 21
89.4462743772
  0
LINE
  5
2EB
100
AcDbEntity
  8
21814000
100
AcDbLine
 62
253
  6
CONTINUOUS
 10
160.5057101913
 20
128.3090171965
 11
160.5057101913
 21
127.9876929143
  0
LINE
  5
2EC
100
AcDbEntity
  8
21814000
100
AcDbLine
 62
7
  6
CONTINUOUS
 10
161.1884203892
 20
127.8873222155
 11
161.1884203892
 21
128.3203349174
  0
LINE
  5
2ED
100
AcDbEntity
  8
0
100
AcDbLine
 62
7
  6
CONTINUOUS
 10
162.1558841017
 20
127.0511921043
 11
162.1558841017
 21
126.5853173378
  0
LINE
  5
2EE
100
AcDbEntity
  8
26814000
100
AcDbLine
 62
7
  6
CONTINUOUS
 10
160.1017625389
 20
89.4453628145
 11
160.1018090095
 21
89.4461047693
  0
LINE
  5
2EF
100
AcDbEntity
  8
290140000
100
AcDbLine
 62
253
  6
CONTINUOUS
 10
148.5935500162
 20
119.8927539468
 11
134.239884943
 21
127.0695864833
  0
LINE
  5
2F0
100
AcDbEntity
  8
21814000
100
AcDbLine
 62
253
  6
CONTINUOUS
 10
162.5732172826
 20
127.780307328
 11
162.5732172826
 21
128.2390388942
  0
LINE
  5
2F1
100
AcDbEntity
  8
0
100
AcDbLine
 62
7
  6
CONTINUOUS
 10
162.605628763
 20
126.9294442711
 11
162.605628763
 21
126.5762587173
  0
LINE
  5
2F2
100
AcDbEntity
  8
21814000
100
AcDbLine
 62
253
  6
CONTINUOUS
 10
162.714230204
 20
127.7812376062
 11
162.714230204
 21
128.2500347913
  0
LWPOLYLINE
  5
2F3
100
AcDbEntity
  8
26814000
100
AcDbPolyline
 62
7
  6
CONTINUOUS
 90
7
 70
0
 10
160.1017625389
 20
89.4453628145
 10
160.1016709308
 20
89.444877207
 10
160.1015317601
 20
89.4443650592
 10
160.1013450267
 20
89.4438263712
 10
160.1011107305
 20
89.4432611429
 10
160.1008288717
 20
89.4426693743
 10
160.1004994503
 20
89.4420510654
  0
LWPOLYLINE
  5
2F4
100
AcDbEntity
  8
290140000
100
AcDbPolyline
 62
253
  6
CONTINUOUS
 90
16
 70
0
 10
148.5608704174
 20
118.1343974836
 10
148.4991659434
 20
118.1202692402
 10
148.4322797837
 20
118.1093443641
 10
148.3609206098
 20
118.1017386065
 10
148.2858444855
 20
118.0975325518
 10
148.2078468565
 20
118.0967707638
 10
148.1277541223
 20
118.099461314
 10
148.0464148804
 20
118.1055756954
 10
147.9646909355
 20
118.115049125
 10
147.8834481682
 20
118.12778123
 10
147.8035473607
 20
118.1436371114
 10
147.7258350772
 20
118.1624487731
 10
147.651134694
 20
118.1840169022
 10
147.5802376756
 20
118.2081129804
 10
147.5138951894
 20
118.234481705
 10
147.4528101463
 20
118.2628436945
  0
LWPOLYLINE
  5
2F5
100
AcDbEntity
  8
21814000
100
AcDbPolyline
 62
7
  6
CONTINUOUS
 90
7
 70
0
 10
169.8951110068
 20
122.380468906
 10
169.8741390607
 20
122.3775791739
 10
169.8543737119
 20
122.3770167562
 10
169.8358149605
 20
122.378781653
 10
169.8184628064
 20
122.3828738641
 10
169.8023172495
 20
122.3892933897
 10
169.7873782901
 20
122.3980402296
  0
LINE
  5
2F6
100
AcDbEntity
  8
26814000
100
AcDbLine
 62
7
  6
CONTINUOUS
 10
153.2452725538
 20
120.239692454
 11
153.6636695007
 21
120.0304939806
  0
LINE
  5
2F7
100
AcDbEntity
  8
21814000
100
AcDbLine
 62
7
  6
CONTINUOUS
 10
164.5178661697
 20
130.3504169892
 11
164.5178661697
 21
129.9425657219
  0
LINE
  5
2F8
100
AcDbEntity
  8
26814000
100
AcDbLine
 62
7
  6
CONTINUOUS
 10
150.9334010625
 20
82.9281749649
 11
151.5121914027
 21
83.632618695
  0
LINE
  5
2F9
100
AcDbEntity
  8
26814000
100
AcDbLine
 62
7
  6
CONTINUOUS
 10
137.0820154819
 20
129.2803403605
 11
152.8504967023
 21
121.3960997502
  0
LINE
  5
2FA
100
AcDbEntity
  8
26814000
100
AcDbLine
 62
7
  6
CONTINUOUS
 10
152.6030093289
 20
121.8473593755
 11
137.3295028553
 21
129.4841126123
  0
LINE
  5
2FB
100
AcDbEntity
  8
26814000
100
AcDbLine
 62
7
  6
CONTINUOUS
 10
153.1625240135
 20
122.2822665036
 11
151.5485198975
 21
123.0892685616
  0
LINE
  5
2FC
100
AcDbEntity
  8
26814000
100
AcDbLine
 62
7
  6
CONTINUOUS
 10
139.7982058491
 20
128.9644255858
 11
138.1842017331
 21
129.7714276438
  0
LINE
  5
2FD
100
AcDbEntity
  8
26814000
100
AcDbLine
 62
7
  6
CONTINUOUS
 10
143.1306617298
 20
127.6555298806
 11
148.9231707979
 21
124.7592753465
  0
LINE
  5
2FE
100
AcDbEntity
  8
26814000
100
AcDbLine
 62
7
  6
CONTINUOUS
 10
137.5458035248
 20
130.5429577236
 11
139.1523370878
 21
129.739690942
  0
LINE
  5
2FF
100
AcDbEntity
  8
26814000
100
AcDbLine
 62
7
  6
CONTINUOUS
 10
150.9101216892
 20
123.8607986413
 11
152.5166552522
 21
123.0575318598
  0
LINE
  5
300
100
AcDbEntity
  8
26814000
100
AcDbLine
 62
253
  6
CONTINUOUS
 10
137.4812087788
 20
130.6779868984
 11
139.086985241
 21
129.8750986674
  0
LINE
  5
301
100
AcDbEntity
  8
26814000
100
AcDbLine
 62
253
  6
CONTINUOUS
 10
150.8455269432
 20
123.9958278162
 11
152.4513034054
 21
123.1929395851
  0
LINE
  5
302
100
AcDbEntity
  8
26814000
100
AcDbLine
 62
253
  6
CONTINUOUS
 10
152.4513034054
 20
123.4463109789
 11
150.8455269432
 21
124.24919921
  0
LINE
  5
303
100
AcDbEntity
  8
26814000
100
AcDbLine
 62
253
  6
CONTINUOUS
 10
139.086985241
 20
130.1284700611
 11
137.4812087788
 21
130.9313582922
  0
LINE
  5
304
100
AcDbEntity
  8
26814000
100
AcDbLine
 62
7
  6
CONTINUOUS
 10
140.8650367612
 20
129.5030068353
 11
143.0427937642
 21
128.4141283338
  0
LINE
  5
305
100
AcDbEntity
  8
26814000
100
AcDbLine
 62
7
  6
CONTINUOUS
 10
149.8452928823
 20
125.0128787747
 11
150.9264148334
 21
124.4723177992
  0
LINE
  5
306
100
AcDbEntity
  8
26814000
100
AcDbLine
 62
7
  6
CONTINUOUS
 10
154.2293549256
 20
122.8208477531
 11
154.3707762819
 21
122.7501370749
  0
LWPOLYLINE
  5
307
100
AcDbEntity
  8
21814000
100
AcDbPolyline
 62
253
  6
CONTINUOUS
 90
10
 70
0
 10
170.0399724698
 20
126.6855288009
 10
170.0372661168
 20
126.6506572116
 10
170.0279159043
 20
126.6121182139
 10
170.0119571521
 20
126.5741255763
 10
169.9895086336
 20
126.5369620597
 10
169.9607374224
 20
126.5009042546
 10
169.925857649
 20
126.4662205219
 10
169.8851289069
 20
126.4331689962
 10
169.8388543207
 20
126.4019956642
 10
169.7873782901
 20
126.3729325342
  0
LINE
  5
308
100
AcDbEntity
  8
26814000
100
AcDbLine
 62
7
  6
CONTINUOUS
 10
152.5402059814
 20
82.1247725054
 11
153.1625240135
 21
82.8698319229
  0
LINE
  5
309
100
AcDbEntity
  8
26814000
100
AcDbLine
 62
253
  6
CONTINUOUS
 10
151.6580444843
 20
88.4781259203
 11
150.5911824446
 21
87.9854136758
  0
LINE
  5
30A
100
AcDbEntity
  8
26814000
100
AcDbLine
 62
7
  6
CONTINUOUS
 10
151.4571908984
 20
87.9643568636
 11
150.5551706301
 21
87.5477740118
  0
LINE
  5
30B
100
AcDbEntity
  8
26814000
100
AcDbLine
 62
7
  6
CONTINUOUS
 10
153.1625240135
 20
122.9194360623
 11
152.5402059814
 21
123.0493766448
  0
LINE
  5
30C
100
AcDbEntity
  8
26814000
100
AcDbLine
 62
253
  6
CONTINUOUS
 10
152.6280741348
 20
123.7501765571
 11
151.0202527257
 21
124.5540872617
  0
LINE
  5
30D
100
AcDbEntity
  8
26814000
100
AcDbLine
 62
253
  6
CONTINUOUS
 10
139.2637559704
 20
130.4323356393
 11
137.6559345613
 21
131.2362463439
  0
LINE
  5
30E
100
AcDbEntity
  8
26814000
100
AcDbLine
 62
7
  6
CONTINUOUS
 10
143.1306617298
 20
128.8704847467
 11
148.9231707979
 21
125.9742302126
  0
LINE
  5
30F
100
AcDbEntity
  8
26814000
100
AcDbLine
 62
7
  6
CONTINUOUS
 10
155.0778830631
 20
123.0961327763
 11
154.2781510392
 21
123.4959987883
  0
LINE
  5
310
100
AcDbEntity
  8
26814000
100
AcDbLine
 62
7
  6
CONTINUOUS
 10
142.3963108782
 20
129.4369188688
 11
140.9138328748
 21
130.1781578705
  0
LINE
  5
311
100
AcDbEntity
  8
26814000
100
AcDbLine
 62
7
  6
CONTINUOUS
 10
143.6227532078
 20
129.3365841773
 11
149.8452928823
 21
126.22531434
  0
LINE
  5
312
100
AcDbEntity
  8
26814000
100
AcDbLine
 62
7
  6
CONTINUOUS
 10
139.2386911645
 20
132.0482304412
 11
140.8650367612
 21
131.2350576428
  0
LINE
  5
313
100
AcDbEntity
  8
26814000
100
AcDbLine
 62
7
  6
CONTINUOUS
 10
152.6030093289
 20
125.366071359
 11
154.2293549256
 21
124.5528985606
  0
LINE
  5
314
100
AcDbEntity
  8
26814000
100
AcDbLine
 62
7
  6
CONTINUOUS
 10
144.9662560921
 20
129.3669011279
 11
149.9160035604
 21
126.8920273938
  0
LINE
  5
315
100
AcDbEntity
  8
26814000
100
AcDbLine
 62
253
  6
CONTINUOUS
 10
139.7731410432
 20
132.3085779078
 11
141.393303933
 21
131.4984964629
  0
LINE
  5
316
100
AcDbEntity
  8
26814000
100
AcDbLine
 62
253
  6
CONTINUOUS
 10
153.1374592076
 20
125.6264188256
 11
154.7576220974
 21
124.8163373807
  0
LINE
  5
317
100
AcDbEntity
  8
26814000
100
AcDbLine
 62
7
  6
CONTINUOUS
 10
139.8845586585
 20
132.314846471
 11
141.5034362367
 21
131.5054076819
  0
LINE
  5
318
100
AcDbEntity
  8
26814000
100
AcDbLine
 62
7
  6
CONTINUOUS
 10
153.2488768229
 20
125.6326873888
 11
154.8677544011
 21
124.8232485997
  0
LWPOLYLINE
  5
319
100
AcDbEntity
  8
21814000
100
AcDbPolyline
 62
253
  6
CONTINUOUS
 90
15
 70
0
 10
150.1148039948
 20
127.8536674226
 10
150.1483859712
 20
127.8344242966
 10
150.1777025593
 20
127.8128008938
 10
150.202753759
 20
127.788797214
 10
150.223742951
 20
127.7621648653
 10
150.2404667547
 20
127.7331522397
 10
150.2523150279
 20
127.7025045133
 10
150.2591718215
 20
127.6701445657
 10
150.2611530845
 20
127.6361495172
 10
150.2579965217
 20
127.6014959049
 10
150.2495337824
 20
127.5661298163
 10
150.2359332173
 20
127.5301051639
 10
150.2174375825
 20
127.494560223
 10
150.1941277969
 20
127.4598744185
 10
150.1659229417
 20
127.4256683254
  0
LWPOLYLINE
  5
31A
100
AcDbEntity
  8
21814000
100
AcDbPolyline
 62
253
  6
CONTINUOUS
 90
9
 70
0
 10
150.0123636472
 20
127.6359518391
 10
150.0322448237
 20
127.6243378483
 10
150.0499065554
 20
127.6105933663
 10
150.0651581304
 20
127.5948286809
 10
150.0778227141
 20
127.5771349185
 10
150.0877664099
 20
127.5576706334
 10
150.0948810231
 20
127.5366572814
 10
150.0990574397
 20
127.5141926682
 10
150.1002315765
 20
127.4935909172
  0
LWPOLYLINE
  5
31B
100
AcDbEntity
  8
21814000
100
AcDbPolyline
 62
253
  6
CONTINUOUS
 90
13
 70
0
 10
148.6682797024
 20
128.124213601
 10
148.685990638
 20
128.1130917251
 10
148.7040587515
 20
128.099687237
 10
148.7221805127
 20
128.084225369
 10
148.7400514981
 20
128.0669659096
 10
148.7573715177
 20
128.0481988253
 10
148.7738496562
 20
128.0282393846
 10
148.7892091263
 20
128.0074229005
 10
148.8031919633
 20
127.9860990418
 10
148.8155633559
 20
127.96462594
 10
148.8261155298
 20
127.9433642641
 10
148.8346712505
 20
127.9226711647
 10
148.841086834
 20
127.9028942145
  0
LINE
  5
31C
100
AcDbEntity
  8
21814000
100
AcDbLine
 62
7
  6
CONTINUOUS
 10
161.436306695
 20
124.58018357
 11
160.683612611
 21
125.878388831
  0
LINE
  5
31D
100
AcDbEntity
  8
21814000
100
AcDbLine
 62
253
  6
CONTINUOUS
 10
160.0911326796
 20
129.3845957367
 11
160.5057101913
 21
128.3090171965
  0
LINE
  5
31E
100
AcDbEntity
  8
0
100
AcDbLine
 62
7
  6
CONTINUOUS
 10
161.6504145195
 20
126.8089521485
 11
161.4489151615
 21
127.4046765743
  0
LWPOLYLINE
  5
31F
100
AcDbEntity
  8
21814000
100
AcDbPolyline
 62
7
  6
CONTINUOUS
 90
10
 70
0
 10
170.0399724698
 20
126.6855288009
 10
170.0361675737
 20
126.7994664972
 10
170.0250214846
 20
126.9127306942
 10
170.0068831595
 20
127.0251179677
 10
169.9819280583
 20
127.1368547445
 10
169.9503810589
 20
127.2474869119
 10
169.9127597927
 20
127.3557933011
 10
169.8694585572
 20
127.4612772721
 10
169.8205057756
 20
127.5642041526
 10
169.7659737301
 20
127.6644485623
  0
LINE
  5
320
100
AcDbEntity
  8
21814000
100
AcDbLine
 62
7
  6
CONTINUOUS
 10
170.039972106
 20
120.4416327051
 11
170.0399724315
 21
120.4411736374
  0
LINE
  5
321
100
AcDbEntity
  8
21814000
100
AcDbLine
 62
253
  6
CONTINUOUS
 10
169.7873782901
 20
126.3729325342
 11
169.7873782901
 21
122.3980402296
  0
LINE
  5
322
100
AcDbEntity
  8
21814000
100
AcDbLine
 62
253
  6
CONTINUOUS
 10
169.7873782901
 20
120.6975775408
 11
169.7873782901
 21
95.7648704646
  0
LINE
  5
323
100
AcDbEntity
  8
21814000
100
AcDbLine
 62
7
  6
CONTINUOUS
 10
170.0399724698
 20
126.6855288009
 11
170.0399724698
 21
123.2798433543
  0
LINE
  5
324
100
AcDbEntity
  8
21814000
100
AcDbLine
 62
7
  6
CONTINUOUS
 10
170.0399724698
 20
120.4408826848
 11
170.0399724698
 21
96.0774667313
  0
LINE
  5
325
100
AcDbEntity
  8
21814000
100
AcDbLine
 62
7
  6
CONTINUOUS
 10
170.0399723196
 20
123.2788248515
 11
170.0399722318
 21
123.2785772714
  0
LWPOLYLINE
  5
326
100
AcDbEntity
  8
21814000
100
AcDbPolyline
 62
253
  6
CONTINUOUS
 90
29
 70
0
 10
170.0399722318
 20
123.2785772714
 10
170.039643861
 20
123.2351229641
 10
170.038437545
 20
123.1833970147
 10
170.0364065864
 20
123.1330799041
 10
170.0336002323
 20
123.0841803907
 10
170.0300710286
 20
123.0367148362
 10
170.0258700888
 20
122.9906844863
 10
170.0210208278
 20
122.9460746176
 10
170.0155647714
 20
122.9029004071
 10
170.0095383784
 20
122.8611589237
 10
170.0029321228
 20
122.820809438
 10
169.9957691079
 20
122.7818245708
 10
169.9880751546
 20
122.7442428491
 10
169.9798198814
 20
122.7081251906
 10
169.9710112669
 20
122.673425706
 10
169.9616673108
 20
122.640202984
 10
169.9517534126
 20
122.6086779579
 10
169.9412721819
 20
122.5788196625
 10
169.9302330446
 20
122.5506742151
 10
169.9185979163
 20
122.5245814565
 10
169.906354605
 20
122.5005243591
 10
169.8935169599
 20
122.4785387195
 10
169.8800796656
 20
122.4590456707
 10
169.8660302062
 20
122.4421086167
 10
169.8513846523
 20
122.4276840778
 10
169.8361845162
 20
122.4160317996
 10
169.8204506726
 20
122.4072432671
 10
169.8041790196
 20
122.4012433318
 10
169.7873782901
 20
122.3980402296
  0
LWPOLYLINE
  5
327
100
AcDbEntity
  8
21814000
100
AcDbPolyline
 62
253
  6
CONTINUOUS
 90
11
 70
0
 10
170.0399724698
 20
96.0774667313
 10
170.0391698301
 20
96.0584660261
 10
170.0331872768
 20
96.0223139696
 10
170.0214002876
 20
95.9865203158
 10
170.0038854586
 20
95.951317665
 10
169.9807566076
 20
95.9169347769
 10
169.9521640343
 20
95.8835950839
 10
169.9182935438
 20
95.85151524
 10
169.8793652387
 20
95.8209037115
 10
169.8356320895
 20
95.7919594235
 10
169.7873782901
 20
95.7648704664
  0
LINE
  5
328
100
AcDbEntity
  8
21814000
100
AcDbLine
 62
7
  6
CONTINUOUS
 10
161.436306695
 20
90.6129712633
 11
160.683612611
 21
90.0674600863
  0
LWPOLYLINE
  5
329
100
AcDbEntity
  8
21814000
100
AcDbPolyline
 62
7
  6
CONTINUOUS
 90
3
 70
0
 10
169.0288715952
 20
94.6280446516
 10
169.0852634406
 20
94.6622366635
 10
169.0979977822
 20
94.6712314211
  0
LWPOLYLINE
  5
32A
100
AcDbEntity
  8
26814000
100
AcDbPolyline
 62
7
  6
CONTINUOUS
 90
25
 70
0
 10
159.3535125618
 20
88.9822100002
 10
159.3794289721
 20
88.9970422168
 10
159.4059312088
 20
89.0123091936
 10
159.4330192718
 20
89.0280109305
 10
159.4607209281
 20
89.0441600332
 10
159.4890084108
 20
89.0607438961
 10
159.5177984188
 20
89.077724702
 10
159.5470719378
 20
89.0950912759
 10
159.5768479822
 20
89.1128547929
 10
159.6071002933
 20
89.1310109612
 10
159.6378427276
 20
89.1495678582
 10
159.6690614287
 20
89.1685174065
 10
159.7006885682
 20
89.1878310829
 10
159.7327353028
 20
89.2075157177
 10
159.7651904759
 20
89.2275644805
 10
159.7979527893
 20
89.2479283572
 10
159.8310375634
 20
89.2686171965
 10
159.8644294778
 20
89.2896211496
 10
159.8979812732
 20
89.3108616563
 10
159.9317125882
 20
89.3323519422
 10
159.9656037842
 20
89.3540787817
 10
159.999448686
 20
89.3759239375
 10
160.0331785684
 20
89.3978479971
 10
160.0668621565
 20
89.4198903731
 10
160.1004994503
 20
89.4420510654
  0
LWPOLYLINE
  5
32B
100
AcDbEntity
  8
26814000
100
AcDbPolyline
 62
7
  6
CONTINUOUS
 90
3
 70
0
 10
159.3535125618
 20
88.9822100002
 10
159.3189280846
 20
88.9633343026
 10
159.303091179
 20
88.9552333843
  0
LINE
  5
32C
100
AcDbEntity
  8
21814000
100
AcDbLine
 62
7
  6
CONTINUOUS
 10
169.0288715952
 20
94.6280446516
 11
161.436306695
 21
90.6129712633
  0
LINE
  5
32D
100
AcDbEntity
  8
21814000
100
AcDbLine
 62
7
  6
CONTINUOUS
 10
160.683612611
 20
90.0674600863
 11
155.3253704365
 21
87.2339333604
  0
LINE
  5
32E
100
AcDbEntity
  8
21814000
100
AcDbLine
 62
253
  6
CONTINUOUS
 10
169.4484148062
 20
94.9321064421
 11
155.3253704365
 21
87.4779314703
  0
LINE
  5
32F
100
AcDbEntity
  8
21814000
100
AcDbLine
 62
253
  6
CONTINUOUS
 10
169.7873782901
 20
95.7648704646
 11
155.3253704365
 21
88.2769466993
  0
LINE
  5
330
100
AcDbEntity
  8
26814000
100
AcDbLine
 62
253
  6
CONTINUOUS
 10
155.3253704365
 20
86.9603068167
 11
159.3535125618
 21
88.9822100002
  0
LINE
  5
331
100
AcDbEntity
  8
26814000
100
AcDbLine
 62
7
  6
CONTINUOUS
 10
155.3253704365
 20
86.9586387359
 11
159.3031335075
 21
88.9552544378
  0
LINE
  5
332
100
AcDbEntity
  8
26814000
100
AcDbLine
 62
253
  6
CONTINUOUS
 10
155.3253704365
 20
87.1981118474
 11
160.0176109713
 21
89.5254977443
  0
LINE
  5
333
100
AcDbEntity
  8
26814000
100
AcDbLine
 62
253
  6
CONTINUOUS
 10
155.3253704365
 20
87.0762371196
 11
160.1017625389
 21
89.4453628145
  0
LINE
  5
334
100
AcDbEntity
  8
26814000
100
AcDbLine
 62
7
  6
CONTINUOUS
 10
139.7982058491
 20
129.6015951445
 11
139.175887817
 21
129.731535727
  0
LWPOLYLINE
  5
335
100
AcDbEntity
  8
21814000
100
AcDbPolyline
 62
253
  6
CONTINUOUS
 90
8
 70
0
 10
150.1328230169
 20
127.3919419437
 10
150.1139983439
 20
127.3990880043
 10
150.0961446835
 20
127.403644656
 10
150.0795619395
 20
127.4055353568
 10
150.0645286666
 20
127.4047283469
 10
150.051297392
 20
127.4012371824
 10
150.040090373
 20
127.3951205074
 10
150.0360226459
 20
127.3917817039
  0
LINE
  5
336
100
AcDbEntity
  8
21814000
100
AcDbLine
 62
253
  6
CONTINUOUS
 10
149.6977286963
 20
128.9580898399
 11
149.7011695258
 21
128.956476573
  0
LINE
  5
337
100
AcDbEntity
  8
21814000
100
AcDbLine
 62
253
  6
CONTINUOUS
 10
149.2539580486
 20
128.0151546385
 11
150.0123636472
 21
127.6359518391
  0
LINE
  5
338
100
AcDbEntity
  8
21814000
100
AcDbLine
 62
253
  6
CONTINUOUS
 10
149.3563983961
 20
128.2328702219
 11
150.1148039948
 21
127.8536674226
  0
LINE
  5
339
100
AcDbEntity
  8
21814000
100
AcDbLine
 62
7
  6
CONTINUOUS
 10
148.6432113551
 20
128.8332216032
 11
151.2301655407
 21
127.5397445104
  0
LINE
  5
33A
100
AcDbEntity
  8
21814000
100
AcDbLine
 62
253
  6
CONTINUOUS
 10
151.8375532572
 20
127.8391105141
 11
149.6129537671
 21
128.9514102592
  0
LINE
  5
33B
100
AcDbEntity
  8
21814000
100
AcDbLine
 62
7
  6
CONTINUOUS
 10
151.887080349
 20
127.8635211618
 11
149.7011623677
 21
128.9564801525
  0
LINE
  5
33C
100
AcDbEntity
  8
26814000
100
AcDbLine
 62
7
  6
CONTINUOUS
 10
152.4336793051
 20
128.1329259271
 11
149.6331608479
 21
129.5331851557
  0
LINE
  5
33D
100
AcDbEntity
  8
26814000
100
AcDbLine
 62
7
  6
CONTINUOUS
 10
149.2796074573
 20
130.2625200403
 11
149.6331608479
 21
130.085743345
  0
LWPOLYLINE
  5
33E
100
AcDbEntity
  8
26814000
100
AcDbPolyline
 62
7
  6
CONTINUOUS
 90
20
 70
0
 10
160.0997825316
 20
126.3864489414
 10
160.0983823799
 20
126.3885800062
 10
160.0966359536
 20
126.3908884536
 10
160.0945543437
 20
126.3933780926
 10
160.0921493793
 20
126.3960555354
 10
160.0894292874
 20
126.3988907514
 10
160.0864043562
 20
126.4018872778
 10
160.0830858548
 20
126.405050356
 10
160.0794816979
 20
126.4083523484
 10
160.075601841
 20
126.4117963312
 10
160.0714571695
 20
126.4153865755
 10
160.0670559368
 20
126.4190970751
 10
160.0624075983
 20
126.422930667
 10
160.0575231443
 20
126.4268905406
 10
160.052412756
 20
126.4309509609
 10
160.0470858809
 20
126.4351141762
 10
160.0415536776
 20
126.4393825476
 10
160.0358292063
 20
126.4437300471
 10
160.0299240229
 20
126.4481489293
 10
160.0176109713
 20
126.4572340189
  0
LWPOLYLINE
  5
33F
100
AcDbEntity
  8
21814000
100
AcDbPolyline
 62
253
  6
CONTINUOUS
 90
11
 70
0
 10
169.5482288268
 20
95.0215953715
 10
169.5923407384
 20
95.0749327441
 10
169.6323318336
 20
95.1337021045
 10
169.6680309621
 20
95.1976517424
 10
169.6992853845
 20
95.2665078833
 10
169.7259612566
 20
95.339975465
 10
169.7479444704
 20
95.4177399993
 10
169.7651410679
 20
95.4994691817
 10
169.7774773624
 20
95.5848133559
 10
169.784900392
 20
95.6734068916
 10
169.7873782901
 20
95.7648704646
  0
LWPOLYLINE
  5
340
100
AcDbEntity
  8
21814000
100
AcDbPolyline
 62
253
  6
CONTINUOUS
 90
3
 70
0
 10
169.4484148062
 20
94.9321064421
 10
169.5001849575
 20
94.9739185187
 10
169.5482288268
 20
95.0215953715
  0
LWPOLYLINE
  5
341
100
AcDbEntity
  8
21814000
100
AcDbPolyline
 62
7
  6
CONTINUOUS
 90
13
 70
0
 10
169.5155256409
 20
94.9738323616
 10
169.590080365
 20
95.0325559402
 10
169.6608732139
 20
95.0981703358
 10
169.7272486552
 20
95.1704919036
 10
169.7885092855
 20
95.2491662002
 10
169.8441375608
 20
95.3339266524
 10
169.8937806726
 20
95.4247373037
 10
169.9369818426
 20
95.5214344582
 10
169.9731611642
 20
95.6234622329
 10
170.0018905185
 20
95.7303857411
 10
170.0228263526
 20
95.8419122525
 10
170.0356311685
 20
95.9577253214
 10
170.0399724698
 20
96.0774667313
  0
LINE
  5
342
100
AcDbEntity
  8
21814000
100
AcDbLine
 62
253
  6
CONTINUOUS
 10
169.4484148062
 20
94.9321064421
 11
169.0288715952
 21
94.6280446516
  0
LINE
  5
343
100
AcDbEntity
  8
21814000
100
AcDbLine
 62
7
  6
CONTINUOUS
 10
169.5155256408
 20
94.9738323616
 11
169.0991448013
 21
94.6720624836
  0
LWPOLYLINE
  5
344
100
AcDbEntity
  8
21814000
100
AcDbPolyline
 62
253
  6
CONTINUOUS
 90
3
 70
0
 10
169.5155256408
 20
94.9738323616
 10
169.4972371803
 20
94.9611277316
 10
169.4484148062
 20
94.9321064421
  0
LINE
  5
345
100
AcDbEntity
  8
26814000
100
AcDbLine
 62
7
  6
CONTINUOUS
 10
153.6636695007
 20
83.8198531142
 11
152.8504967023
 21
83.2909819837
  0
LINE
  5
346
100
AcDbEntity
  8
26814000
100
AcDbLine
 62
253
  6
CONTINUOUS
 10
154.6182636553
 20
84.1315757319
 11
155.3253704365
 21
84.4926868117
  0
LINE
  5
347
100
AcDbEntity
  8
26814000
100
AcDbLine
 62
7
  6
CONTINUOUS
 10
154.5282996872
 20
83.9427656553
 11
155.2354064694
 21
84.3038767356
  0
LINE
  5
348
100
AcDbEntity
  8
26814000
100
AcDbLine
 62
7
  6
CONTINUOUS
 10
154.5282948812
 20
83.9427632004
 11
154.5262872843
 21
83.9417594931
  0
LINE
  5
349
100
AcDbEntity
  8
26814000
100
AcDbLine
 62
253
  6
CONTINUOUS
 10
152.8504967023
 20
83.2665864784
 11
154.6182636553
 21
84.1315757319
  0
LINE
  5
34A
100
AcDbEntity
  8
26814000
100
AcDbLine
 62
7
  6
CONTINUOUS
 10
152.7585157833
 20
83.0767680142
 11
154.5262827377
 21
83.9417572683
  0
LWPOLYLINE
  5
34B
100
AcDbEntity
  8
290140000
100
AcDbPolyline
 62
253
  6
CONTINUOUS
 90
16
 70
0
 10
145.5678189631
 20
81.7608336518
 10
145.50529193
 20
81.7367051957
 10
145.437592066
 20
81.7158860453
 10
145.3654366542
 20
81.6985967805
 10
145.2895901842
 20
81.6850205817
 10
145.2108562525
 20
81.6753012893
 10
145.1300690484
 20
81.6695418797
 10
145.0480845159
 20
81.667803374
 10
144.9657712844
 20
81.6701041918
 10
144.8840014662
 20
81.6764199558
 10
144.8036414159
 20
81.6866837502
 10
144.7255425517
 20
81.7007868297
 10
144.6505323343
 20
81.7185797714
 10
144.5794055002
 20
81.7398740582
 10
144.5129156411
 20
81.7644440763
 10
144.45176722
 20
81.7920295054
  0
LWPOLYLINE
  5
34C
100
AcDbEntity
  8
21814000
100
AcDbPolyline
 62
7
  6
CONTINUOUS
 90
6
 70
0
 10
148.5870546446
 20
128.8473541501
 10
148.5967346549
 20
128.8470167362
 10
148.6071458513
 20
128.8455618656
 10
148.618266891
 20
128.8428846392
 10
148.630083332
 20
128.8389074627
 10
148.6425524807
 20
128.8335510404
  0
LWPOLYLINE
  5
34D
100
AcDbEntity
  8
21814000
100
AcDbPolyline
 62
7
  6
CONTINUOUS
 90
10
 70
0
 10
149.5757252443
 20
128.9883569094
 10
149.4946027859
 20
129.0000772641
 10
149.4123291668
 20
129.0079805153
 10
149.3295361053
 20
129.0120694788
 10
149.2466569345
 20
129.012367776
 10
149.1639271045
 20
129.0088757806
 10
149.0818763582
 20
129.0015801829
 10
149.0010439267
 20
128.990475884
 10
148.9216457234
 20
128.9754958312
 10
148.8440948932
 20
128.9565589821
  0
LWPOLYLINE
  5
34E
100
AcDbEntity
  8
26814000
100
AcDbPolyline
 62
7
  6
CONTINUOUS
 90
13
 70
0
 10
159.3535125618
 20
127.4704666485
 10
159.3188617518
 20
127.4768963296
 10
159.2836575287
 20
127.4822794824
 10
159.2479376769
 20
127.4866416233
 10
159.21171236
 20
127.4900355464
 10
159.1750446219
 20
127.4924652961
 10
159.138048412
 20
127.4938765252
 10
159.100761377
 20
127.4942866602
 10
159.0632103951
 20
127.4937227786
 10
159.0254896943
 20
127.4921307905
 10
158.9876503195
 20
127.4895016995
 10
158.9497011333
 20
127.4858797182
 10
158.9116716938
 20
127.4812849288
  0
LWPOLYLINE
  5
34F
100
AcDbEntity
  8
21814000
100
AcDbPolyline
 62
253
  6
CONTINUOUS
 90
13
 70
0
 10
149.6129537671
 20
128.9514102592
 10
149.5432315372
 20
128.9649850039
 10
149.4724897383
 20
128.975248505
 10
149.4007283704
 20
128.9822007626
 10
149.3272889941
 20
128.9858511372
 10
149.2528300488
 20
128.9861902682
 10
149.1793268531
 20
128.9831900736
 10
149.1068023429
 20
128.9767455119
 10
149.0352335822
 20
128.9669616246
 10
148.9665270809
 20
128.9541254541
 10
148.9013183425
 20
128.9383326812
 10
148.8389718636
 20
128.9194876252
 10
148.7794876441
 20
128.897590286
  0
LINE
  5
350
100
AcDbEntity
  8
21814000
100
AcDbLine
 62
7
  6
CONTINUOUS
 10
149.6551489363
 20
128.9728225222
 11
149.5757252443
 21
128.9883569094
  0
LWPOLYLINE
  5
351
100
AcDbEntity
  8
21814000
100
AcDbPolyline
 62
253
  6
CONTINUOUS
 90
4
 70
0
 10
149.237020909
 20
128.2714995186
 10
149.2791440444
 20
128.2619486358
 10
149.3189365401
 20
128.2490722036
 10
149.3563983961
 20
128.2328702219
  0
LWPOLYLINE
  5
352
100
AcDbEntity
  8
21814000
100
AcDbPolyline
 62
7
  6
CONTINUOUS
 90
7
 70
0
 10
149.6551420787
 20
128.9728240466
 10
149.6630027615
 20
128.9709080411
 10
149.6720988144
 20
128.9682628981
 10
149.6810621981
 20
128.9651889861
 10
149.6898824811
 20
128.9616886349
 10
149.6985399425
 20
128.9577675094
 10
149.7011805007
 20
128.9564710829
  0
LINE
  5
353
100
AcDbEntity
  8
0
100
AcDbLine
 62
7
  6
CONTINUOUS
 10
162.605628763
 20
126.9294442711
 11
162.1558841017
 21
127.0511921043
  0
LWPOLYLINE
  5
354
100
AcDbEntity
  8
26814000
100
AcDbPolyline
 62
7
  6
CONTINUOUS
 90
10
 70
0
 10
159.5998276613
 20
127.3830891766
 10
159.5768479822
 20
127.3942806088
 10
159.5470719378
 20
127.4078570505
 10
159.5177984188
 20
127.4202426673
 10
159.4890084108
 20
127.4314444638
 10
159.4607209281
 20
127.4414554353
 10
159.4330192718
 20
127.4503551798
 10
159.4059312088
 20
127.4581702298
 10
159.3794289721
 20
127.4648740527
 10
159.3535125618
 20
127.4704666485
  0
LINE
  5
355
100
AcDbEntity
  8
26814000
100
AcDbLine
 62
7
  6
CONTINUOUS
 10
153.8414950014
 20
128.8268025855
 11
151.0309453544
 21
130.232077409
  0
LINE
  5
356
100
AcDbEntity
  8
21814000
100
AcDbLine
 62
7
  6
CONTINUOUS
 10
160.683612611
 20
125.878388831
 11
159.8958239634
 21
126.2722831549
  0
LINE
  5
357
100
AcDbEntity
  8
26814000
100
AcDbLine
 62
7
  6
CONTINUOUS
 10
152.3908772945
 20
130.3058255964
 11
154.6006181827
 21
129.2009551523
  0
LINE
  5
358
100
AcDbEntity
  8
26814000
100
AcDbLine
 62
7
  6
CONTINUOUS
 10
155.3462030058
 20
128.8281627407
 11
155.4920164159
 21
128.7552560357
  0
LINE
  5
359
100
AcDbEntity
  8
26814000
100
AcDbLine
 62
7
  6
CONTINUOUS
 10
149.5234195489
 20
132.0027981489
 11
149.703871526
 21
131.9125721604
  0
LINE
  5
35A
100
AcDbEntity
  8
26814000
100
AcDbLine
 62
7
  6
CONTINUOUS
 10
155.0778830631
 20
129.2255663919
 11
155.2583350402
 21
129.1353404033
  0
LINE
  5
35B
100
AcDbEntity
  8
26814000
100
AcDbLine
 62
253
  6
CONTINUOUS
 10
148.7108512048
 20
132.5816951733
 11
151.6899411058
 21
131.0921502228
  0
LINE
  5
35C
100
AcDbEntity
  8
26814000
100
AcDbLine
 62
253
  6
CONTINUOUS
 10
155.9325817929
 20
128.9708298793
 11
158.9116716938
 21
127.4812849288
  0
LINE
  5
35D
100
AcDbEntity
  8
26814000
100
AcDbLine
 62
7
  6
CONTINUOUS
 10
156.373624796
 20
128.9961793459
 11
159.6001146881
 21
127.3829343998
  0
LINE
  5
35E
100
AcDbEntity
  8
0
100
AcDbLine
 62
7
  6
CONTINUOUS
 10
161.6609093548
 20
126.8037047308
 11
161.8748018088
 21
126.6061714632
  0
LWPOLYLINE
  5
35F
100
AcDbEntity
  8
26814000
100
AcDbPolyline
 62
7
  6
CONTINUOUS
 90
17
 70
0
 10
160.1004994503
 20
126.9892067649
 10
160.0668621565
 20
127.0252689154
 10
160.0331785684
 20
127.059907575
 10
159.999448686
 20
127.0931227438
 10
159.9656037842
 20
127.1249300478
 10
159.9317125882
 20
127.1553138609
 10
159.8979812732
 20
127.184227305
 10
159.8644294778
 20
127.2116464803
 10
159.8310375634
 20
127.2375952866
 10
159.7979527893
 20
127.2620985451
 10
159.7651904759
 20
127.285142252
 10
159.7327353028
 20
127.3067404111
 10
159.7006885682
 20
127.3269598551
 10
159.6690614287
 20
127.3457937691
 10
159.6378427276
 20
127.3632489681
 10
159.6071002933
 20
127.3794127296
 10
159.5998276613
 20
127.3830891766
  0
LINE
  5
360
100
AcDbEntity
  8
21814000
100
AcDbLine
 62
7
  6
CONTINUOUS
 10
164.508750711
 20
130.3743107902
 11
164.5178661697
 21
130.3504169892
  0
LINE
  5
361
100
AcDbEntity
  8
26814000
100
AcDbLine
 62
7
  6
CONTINUOUS
 10
154.2293549256
 20
82.290858856
 11
154.7576220974
 21
82.5618699146
  0
LINE
  5
362
100
AcDbEntity
  8
26814000
100
AcDbLine
 62
7
  6
CONTINUOUS
 10
152.6280741348
 20
81.5108242563
 11
154.2293549256
 21
82.290858856
  0
LINE
  5
363
100
AcDbEntity
  8
290140000
100
AcDbLine
 62
253
  6
CONTINUOUS
 10
146.0104401949
 20
81.346097311
 11
150.1529764084
 21
82.6600407327
  0
LINE
  5
364
100
AcDbEntity
  8
290140000
100
AcDbLine
 62
7
  6
CONTINUOUS
 10
149.8498781153
 20
82.1875319967
 11
145.701091748
 21
80.8716064774
  0
LINE
  5
365
100
AcDbEntity
  8
26814000
100
AcDbLine
 62
7
  6
CONTINUOUS
 10
151.0309453544
 20
130.232077409
 11
152.3908772945
 21
130.3058255964
  0
LWPOLYLINE
  5
366
100
AcDbEntity
  8
RACCORDO
100
AcDbPolyline
 62
7
  6
CONTINUOUS
 90
9
 70
0
 10
163.9986915618
 20
127.5962915008
 10
163.9925748212
 20
127.5978909985
 10
163.9828046075
 20
127.5994238124
 10
163.972478412
 20
127.5998392568
 10
163.9616912149
 20
127.5991374843
 10
163.9507279559
 20
127.597318953
 10
163.9396836152
 20
127.5943838154
 10
163.9284632127
 20
127.5903319191
 10
163.9170667485
 20
127.5851632638
  0
LWPOLYLINE
  5
367
100
AcDbEntity
  8
RACCORDO
100
AcDbPolyline
 62
7
  6
CONTINUOUS
 90
28
 70
0
 10
163.9986814255
 20
127.5962675484
 10
163.8899660789
 20
127.6275533942
 10
163.775111036
 20
127.6569070712
 10
163.657849612
 20
127.6832341414
 10
163.5384764472
 20
127.7064962331
 10
163.4172560756
 20
127.7266667859
 10
163.2944267061
 20
127.7437260612
 10
163.1702779087
 20
127.7576499028
 10
163.0450944456
 20
127.7684205718
 10
162.9191139281
 20
127.7760279715
 10
162.792627542
 20
127.7804613502
 10
162.6659248191
 20
127.7817159048
 10
162.5392430736
 20
127.7797911318
 10
162.4128718038
 20
127.7746897968
 10
162.2871022132
 20
127.7664205846
 10
162.1621726139
 20
127.7549927092
 10
162.0383737393
 20
127.7404228769
 10
161.9159889869
 20
127.7227328553
 10
161.7952405507
 20
127.70193868
 10
161.6764056296
 20
127.67806708
 10
161.5597698062
 20
127.6511520282
 10
161.4455582332
 20
127.6212172609
 10
161.334043055
 20
127.588300157
 10
161.2254968586
 20
127.5524435222
 10
161.120129967
 20
127.5136719046
 10
161.0181831845
 20
127.4720190962
 10
160.9199370471
 20
127.4275383217
 10
160.8256529859
 20
127.3802809323
  0
LWPOLYLINE
  5
368
100
AcDbEntity
  8
RACCORDO
100
AcDbPolyline
 62
7
  6
CONTINUOUS
 90
3
 70
0
 10
164.0107322435
 20
127.5914737202
 10
164.0018840332
 20
127.5952409678
 10
163.9986915618
 20
127.5962915008
  0
LWPOLYLINE
  5
369
100
AcDbEntity
  8
26814000
100
AcDbPolyline
 62
7
  6
CONTINUOUS
 90
18
 70
0
 10
152.1309938228
 20
131.1174838697
 10
152.1114317385
 20
131.1265736028
 10
152.0885359583
 20
131.1355590174
 10
152.0650266721
 20
131.1430612502
 10
152.04088535
 20
131.14909542
 10
152.0161955966
 20
131.1536412044
 10
151.9909341704
 20
131.1566951878
 10
151.9651243129
 20
131.1582607858
 10
151.938919354
 20
131.1583279224
 10
151.9123353914
 20
131.1568891464
 10
151.8853563274
 20
131.1539519091
 10
151.8580871988
 20
131.1495284878
 10
151.8305130191
 20
131.1436101022
 10
151.8026487748
 20
131.1362055326
 10
151.7746444618
 20
131.1273533981
 10
151.7465500786
 20
131.1170665714
 10
151.7183156266
 20
131.1053321796
 10
151.6899411058
 20
131.0921502228
  0
LINE
  5
36A
100
AcDbEntity
  8
0
100
AcDbLine
 62
7
  6
CONTINUOUS
 10
161.6609093548
 20
126.8037047308
 11
160.9539404147
 21
127.1571892009
  0
LINE
  5
36B
100
AcDbEntity
  8
0
100
AcDbLine
 62
7
  6
CONTINUOUS
 10
162.1558841017
 20
127.0511921043
 11
161.4489151615
 21
127.4046765743
  0
LINE
  5
36C
100
AcDbEntity
  8
21814000
100
AcDbLine
 62
7
  6
CONTINUOUS
 10
161.1884203892
 20
127.8873222155
 11
160.7498099167
 21
128.1066274517
  0
LINE
  5
36D
100
AcDbEntity
  8
RACCORDO
100
AcDbLine
 62
7
  6
CONTINUOUS
 10
164.8592603809
 20
127.1672096515
 11
164.9720352662
 21
127.1107173254
  0
LWPOLYLINE
  5
36E
100
AcDbEntity
  8
RACCORDO
100
AcDbPolyline
 62
7
  6
CONTINUOUS
 90
10
 70
0
 10
164.8213163137
 20
127.1798773065
 10
164.72383926
 20
127.2299327382
 10
164.6282260582
 20
127.2789086138
 10
164.5344767082
 20
127.3268049334
 10
164.4426056269
 20
127.3736231212
 10
164.3525983975
 20
127.4193617529
 10
164.2644117695
 20
127.4640165559
 10
164.1780313261
 20
127.5075861061
 10
164.0934714841
 20
127.5500718275
 10
164.0107322435
 20
127.5914737202
  0
LINE
  5
36F
100
AcDbEntity
  8
RACCORDO
100
AcDbLine
 62
7
  6
CONTINUOUS
 10
164.8290747423
 20
127.1752908344
 11
164.8213163137
 21
127.1798773065
  0
LWPOLYLINE
  5
370
100
AcDbEntity
  8
RACCORDO
100
AcDbPolyline
 62
253
  6
CONTINUOUS
 90
5
 70
0
 10
164.8592603809
 20
127.1672096515
 10
164.8837833713
 20
127.1467052731
 10
164.9081491329
 20
127.1254270087
 10
164.9322858831
 20
127.1033647314
 10
164.9404347105
 20
127.0955507618
  0
LWPOLYLINE
  5
371
100
AcDbEntity
  8
RACCORDO
100
AcDbPolyline
 62
253
  6
CONTINUOUS
 90
4
 70
0
 10
164.7656237818
 20
127.1609136431
 10
164.7884842112
 20
127.1413349096
 10
164.8110617495
 20
127.1209818631
 10
164.8333563967
 20
127.0998545034
  0
LINE
  5
372
100
AcDbEntity
  8
RACCORDO
100
AcDbLine
 62
253
  6
CONTINUOUS
 10
164.8333563967
 20
127.0998545034
 11
164.855401895
 21
127.0780246165
  0
LINE
  5
373
100
AcDbEntity
  8
RACCORDO
100
AcDbLine
 62
253
  6
CONTINUOUS
 10
164.855401895
 20
127.0780246165
 11
164.8707349342
 21
127.0620986257
  0
LWPOLYLINE
  5
374
100
AcDbEntity
  8
21814000
100
AcDbPolyline
 62
253
  6
CONTINUOUS
 90
35
 70
0
 10
170.0399724698
 20
123.9708483559
 10
170.0515699961
 20
123.9339734354
 10
170.0715075035
 20
123.8610595639
 10
170.0878215006
 20
123.7900878135
 10
170.1014172609
 20
123.7210214785
 10
170.1124750177
 20
123.6540426092
 10
170.1210023927
 20
123.5891191078
 10
170.1276020742
 20
123.5258675446
 10
170.1324144881
 20
123.4643088563
 10
170.1354340275
 20
123.4045140506
 10
170.1370061656
 20
123.3461553456
 10
170.1372223445
 20
123.2891846163
 10
170.1360913975
 20
123.2337082229
 10
170.1338135695
 20
123.1796201211
 10
170.1304524239
 20
123.1269056076
 10
170.1260298478
 20
123.0756194832
 10
170.1206749307
 20
123.0257555467
 10
170.1144461912
 20
122.9773393031
 10
170.1073624231
 20
122.9303733483
 10
170.0994883394
 20
122.8848143031
 10
170.0908816552
 20
122.8406776771
 10
170.0815526196
 20
122.797966567
 10
170.0714907011
 20
122.7566165387
 10
170.0607411095
 20
122.7165889819
 10
170.0493175547
 20
122.6779339459
 10
170.0371615854
 20
122.6407182697
 10
170.0243091419
 20
122.6048912195
 10
170.0107792542
 20
122.5705105336
 10
169.9964920616
 20
122.5378049708
 10
169.9814806038
 20
122.5067373259
 10
169.9657645055
 20
122.4773496812
 10
169.9492494211
 20
122.449989811
 10
169.9319211431
 20
122.4247755477
 10
169.9138403082
 20
122.4015945718
 10
169.8950244793
 20
122.3804500387
  0
LINE
  5
375
100
AcDbEntity
  8
21814000
100
AcDbLine
 62
7
  6
CONTINUOUS
 10
165.4183333692
 20
127.6475858409
 11
164.6918359805
 21
128.0108345353
  0
LINE
  5
376
100
AcDbEntity
  8
21814000
100
AcDbLine
 62
7
  6
CONTINUOUS
 10
165.2355037088
 20
127.7546605237
 11
164.9313843249
 21
127.9067202157
  0
LINE
  5
377
100
AcDbEntity
  8
21814000
100
AcDbLine
 62
7
  6
CONTINUOUS
 10
167.6301037426
 20
128.3864469355
 11
164.5178661697
 21
129.9425657219
  0
LWPOLYLINE
  5
378
100
AcDbEntity
  8
21814000
100
AcDbPolyline
 62
7
  6
CONTINUOUS
 90
10
 70
0
 10
165.2355037088
 20
127.7546605237
 10
165.2040882544
 20
127.7727133359
 10
165.1720712771
 20
127.7904806383
 10
165.139452777
 20
127.8079624309
 10
165.1062225862
 20
127.8251637976
 10
165.0723908726
 20
127.8420796544
 10
165.0379881394
 20
127.8586947497
 10
165.0030245542
 20
127.8750039998
 10
164.9674899494
 20
127.8910124884
 10
164.9313843249
 20
127.9067202157
  0
LWPOLYLINE
  5
379
100
AcDbEntity
  8
21814000
100
AcDbPolyline
 62
7
  6
CONTINUOUS
 90
35
 70
0
 10
170.0399724698
 20
126.0529364277
 10
170.1567459985
 20
125.9758343214
 10
170.296542672
 20
125.8713206752
 10
170.4332805277
 20
125.7567920781
 10
170.5661459713
 20
125.6330755736
 10
170.6945314245
 20
125.5009287985
 10
170.8181130246
 20
125.3608613926
 10
170.936493186
 20
125.2134558889
 10
171.0492475691
 20
125.0593449993
 10
171.1559231351
 20
124.8992382153
 10
171.2560801472
 20
124.7338824581
 10
171.349296091
 20
124.5640646964
 10
171.4352492136
 20
124.3904466658
 10
171.5136645952
 20
124.2136087071
 10
171.5842312702
 20
124.0342181433
 10
171.6466058526
 20
123.8530835832
 10
171.7004905886
 20
123.6709882882
 10
171.7456273117
 20
123.4886837052
 10
171.7817862145
 20
123.3069068682
 10
171.8087619584
 20
123.1263834084
 10
171.8263817637
 20
122.9476809561
 10
171.8344546649
 20
122.7716844403
 10
171.8328546031
 20
122.5995041996
 10
171.821507231
 20
122.4315882242
 10
171.8003726287
 20
122.2688112879
 10
171.7696432747
 20
122.1127176475
 10
171.7295387823
 20
121.9639756827
 10
171.6802124342
 20
121.8228827523
 10
171.6220173145
 20
121.6902166624
 10
171.5552089308
 20
121.5663193116
 10
171.4801402171
 20
121.4516602134
 10
171.3975505117
 20
121.3470625753
 10
171.3081113407
 20
121.2529352359
 10
171.2122870323
 20
121.169354676
 10
171.1106955628
 20
121.0965057505
  0
LWPOLYLINE
  5
37A
100
AcDbEntity
  8
21814000
100
AcDbPolyline
 62
253
  6
CONTINUOUS
 90
34
 70
0
 10
170.0399724698
 20
125.9743259067
 10
170.1180675605
 20
125.9188141032
 10
170.2552084304
 20
125.809358494
 10
170.389750922
 20
125.6898330205
 10
170.5210675009
 20
125.5607951717
 10
170.6485456594
 20
125.4228468234
 10
170.7715907963
 20
125.2766314128
 10
170.8896289917
 20
125.122830934
 10
171.0021096862
 20
124.962162752
 10
171.1085082408
 20
124.7953762646
 10
171.2083283838
 20
124.6232494091
 10
171.3011045252
 20
124.4465850343
 10
171.3864039305
 20
124.2662071534
 10
171.4638287393
 20
124.0829570995
 10
171.533017821
 20
123.8976896016
 10
171.5936484587
 20
123.7112687986
 10
171.6454378542
 20
123.5245642088
 10
171.6881444472
 20
123.3384466746
 10
171.7215690423
 20
123.1537843003
 10
171.7455557378
 20
122.9714384025
 10
171.7599926531
 20
122.7922594935
 10
171.7648124504
 20
122.6170833135
 10
171.7599926488
 20
122.446726933
 10
171.7455557292
 20
122.2819849418
 10
171.7215690294
 20
122.1236257425
 10
171.6881444301
 20
121.9723879663
 10
171.6454378329
 20
121.8289770285
 10
171.5936484332
 20
121.6940618379
 10
171.5330177914
 20
121.5682716766
 10
171.4638287057
 20
121.4521932648
 10
171.386403893
 20
121.3463680244
 10
171.3011044839
 20
121.2512895535
 10
171.2083283388
 20
121.1674013251
 10
171.1106955628
 20
121.0965057505
  0
LINE
  5
37B
100
AcDbEntity
  8
21814000
100
AcDbLine
 62
253
  6
CONTINUOUS
 10
169.0288715952
 20
128.2682650421
 11
169.4484148062
 21
127.5446600406
  0
LINE
  5
37C
100
AcDbEntity
  8
21814000
100
AcDbLine
 62
7
  6
CONTINUOUS
 10
169.4191359596
 20
128.2626552282
 11
169.7659737301
 21
127.6644485623
  0
LWPOLYLINE
  5
37D
100
AcDbEntity
  8
21814000
100
AcDbPolyline
 62
253
  6
CONTINUOUS
 90
13
 70
0
 10
169.4484148062
 20
127.5446600406
 10
169.5001840556
 20
127.4510795232
 10
169.5482274061
 20
127.3553600686
 10
169.5923391285
 20
127.2579115622
 10
169.6323303297
 20
127.159151293
 10
169.6680297609
 20
127.059502168
 10
169.6992845513
 20
126.9593909013
 10
169.7259608629
 20
126.8592461846
 10
169.7479444638
 20
126.759496853
 10
169.7651412166
 20
126.6605700495
 10
169.7774774823
 20
126.5628893943
 10
169.7849004355
 20
126.4668731705
 10
169.7873782901
 20
126.3729325342
  0
LINE
  5
37E
100
AcDbEntity
  8
21814000
100
AcDbLine
 62
253
  6
CONTINUOUS
 10
169.0288715952
 20
128.2682650421
 11
168.2231996591
 21
128.6711010101
  0
LINE
  5
37F
100
AcDbEntity
  8
21814000
100
AcDbLine
 62
253
  6
CONTINUOUS
 10
163.52153658
 20
131.0219325496
 11
162.5503777464
 21
131.5075119665
  0
LINE
  5
380
100
AcDbEntity
  8
21814000
100
AcDbLine
 62
7
  6
CONTINUOUS
 10
169.3591469728
 20
128.3189471462
 11
168.5333880726
 21
128.7318265963
  0
LINE
  5
381
100
AcDbEntity
  8
21814000
100
AcDbLine
 62
7
  6
CONTINUOUS
 10
163.9941193516
 20
131.0014609568
 11
162.9417633389
 21
131.5276389631
  0
LWPOLYLINE
  5
382
100
AcDbEntity
  8
21814000
100
AcDbPolyline
 62
7
  6
CONTINUOUS
 90
4
 70
0
 10
169.3610725247
 20
128.3179841729
 10
169.3747160007
 20
128.310169431
 10
169.3982516973
 20
128.2907971526
 10
169.41842984
 20
128.263919321
  0
LWPOLYLINE
  5
383
100
AcDbEntity
  8
21814000
100
AcDbPolyline
 62
253
  6
CONTINUOUS
 90
12
 70
0
 10
169.7659737301
 20
127.6644485623
 10
169.7646145934
 20
127.6660456764
 10
169.7566956753
 20
127.6685672795
 10
169.7430510828
 20
127.6676984703
 10
169.7237823662
 20
127.663445715
 10
169.6990329332
 20
127.6558406647
 10
169.6689869822
 20
127.6449399201
 10
169.6338681308
 20
127.6308246105
 10
169.5939377517
 20
127.6135997894
 10
169.5494930278
 20
127.593393653
 10
169.5008647399
 20
127.5703565861
 10
169.4484148051
 20
127.5446600424
  0
ELLIPSE
  5
384
100
AcDbEntity
  8
290140000
100
AcDbEllipse
 62
7
  6
CONTINUOUS
 10
138.1328134538
 20
128.0417899942
 30
0.0
 11
-0.2788336762
 21
0.7504028808
 31
0.0
 40
0.660854826
 41
-0.3090486207
 42
0.0320396926
  0
ELLIPSE
  5
385
100
AcDbEntity
  8
290140000
100
AcDbEllipse
 62
7
  6
CONTINUOUS
 10
152.6988253208
 20
120.7587840606
 30
0.0
 11
-0.2782515188
 21
0.7500674241
 31
0.0
 40
0.6617094163
 41
-2.1859006333
 42
-0.8222376794
  0
ELLIPSE
  5
386
100
AcDbEntity
  8
290140000
100
AcDbEllipse
 62
7
  6
CONTINUOUS
 10
149.5871376025
 20
82.9434729717
 30
0.0
 11
-0.2788336762
 21
0.7504028808
 31
0.0
 40
0.660854826
 41
-3.1737081954
 42
-2.187168432
  0
ELLIPSE
  5
387
100
AcDbEntity
  8
21814000
100
AcDbEllipse
 62
7
  6
CONTINUOUS
 10
162.4434101074
 20
128.2053420425
 30
0.0
 11
3.3311333813
 21
-0.0467042088
 31
0.0
 40
0.4892378494
 41
3.8528301344
 42
5.5059722822
  0
ELLIPSE
  5
388
100
AcDbEntity
  8
21814000
100
AcDbEllipse
 62
7
  6
CONTINUOUS
 10
163.1389003686
 20
126.9120822258
 30
0.0
 11
2.7583300471
 21
-0.038763314
 31
0.0
 40
0.4892375088
 41
0.4291477653
 42
0.6564870977
  0
ELLIPSE
  5
389
100
AcDbEntity
  8
21814000
100
AcDbEllipse
 62
7
  6
CONTINUOUS
 10
162.4671489265
 20
127.0235799098
 30
0.0
 11
2.7499350056
 21
-0.0386453369
 31
0.0
 40
0.4892375088
 41
8.654981679
 42
9.2557277435
  0
ELLIPSE
  5
38A
100
AcDbEntity
  8
21814000
100
AcDbEllipse
 62
7
  6
CONTINUOUS
 10
163.1389003686
 20
126.9120822258
 30
0.0
 11
2.7583300471
 21
-0.038763314
 31
0.0
 40
0.4892375088
 41
0.9280596999
 42
2.3630697256
  0
ELLIPSE
  5
38B
100
AcDbEntity
  8
21814000
100
AcDbEllipse
 62
7
  6
CONTINUOUS
 10
167.8446145997
 20
128.0699827428
 30
0.0
 11
0.716172246
 21
0.6416715914
 31
0.0
 40
0.2882345029
 41
0.1142323894
 42
0.7807533904
  0
ELLIPSE
  5
38C
100
AcDbEntity
  8
21814000
100
AcDbEllipse
 62
7
  6
CONTINUOUS
 10
163.1389003686
 20
128.856792937
 30
0.0
 11
2.7583515655
 21
-1.4175703156
 31
0.0
 40
0.0109499087
 41
-0.9155571536
 42
-0.85781018
  0
ELLIPSE
  5
38D
100
AcDbEntity
  8
21814000
100
AcDbEllipse
 62
7
  6
CONTINUOUS
 10
163.1389003686
 20
128.856792937
 30
0.0
 11
2.7583515655
 21
-1.4175703156
 31
0.0
 40
0.0109499087
 41
-0.7017315251
 42
-0.6439845515
  0
ELLIPSE
  5
38E
100
AcDbEntity
  8
21814000
100
AcDbEllipse
 62
7
  6
CONTINUOUS
 10
163.8779083526
 20
130.0533358664
 30
0.0
 11
-0.2796057293
 21
0.9974617846
 31
0.0
 40
0.6760995073
 41
4.8467711056
 42
6.4001141399
  0
ELLIPSE
  5
38F
100
AcDbEntity
  8
21814000
100
AcDbEllipse
 62
7
  6
CONTINUOUS
 10
162.4434101074
 20
128.2053420425
 30
0.0
 11
3.3311333813
 21
-0.0467042088
 31
0.0
 40
0.4892378494
 41
2.3616770883
 42
3.7058786528
  0
ELLIPSE
  5
390
100
AcDbEntity
  8
21814000
100
AcDbEllipse
 62
7
  6
CONTINUOUS
 10
163.1389003686
 20
127.3450949277
 30
0.0
 11
2.7583300471
 21
-0.038763314
 31
0.0
 40
0.4892375088
 41
0.1708839954
 42
2.3630697256
  0
ELLIPSE
  5
391
100
AcDbEntity
  8
26814000
100
AcDbEllipse
 62
7
  6
CONTINUOUS
 10
151.0212751818
 20
82.5317548591
 30
0.0
 11
0.110769438
 21
0.2241226716
 31
0.0
 40
0.6088015717
 41
-4.0304836828
 42
-3.1443955108
  0
ELLIPSE
  5
392
100
AcDbEntity
  8
26814000
100
AcDbEllipse
 62
7
  6
CONTINUOUS
 10
137.6569570174
 20
130.7668894745
 30
0.0
 11
0.110769438
 21
0.2241226716
 31
0.0
 40
0.6088015717
 41
-4.0304836828
 42
-3.1443650652
  0
ELLIPSE
  5
393
100
AcDbEntity
  8
26814000
100
AcDbEllipse
 62
7
  6
CONTINUOUS
 10
151.0212751818
 20
124.0847303922
 30
0.0
 11
0.110769438
 21
0.2241226716
 31
0.0
 40
0.6088015717
 41
-4.0304836828
 42
-3.1443650652
  0
ELLIPSE
  5
394
100
AcDbEntity
  8
26814000
100
AcDbEllipse
 62
7
  6
CONTINUOUS
 10
155.0778830631
 20
122.7930123431
 30
0.0
 11
-0.1565168911
 21
0.3130623908
 31
0.0
 40
0.6123677712
 41
-2.2554744912
 42
-0.6846781644
  0
ELLIPSE
  5
395
100
AcDbEntity
  8
26814000
100
AcDbEllipse
 62
7
  6
CONTINUOUS
 10
155.0778830631
 20
84.6164304984
 30
0.0
 11
-0.1565168911
 21
0.3130623908
 31
0.0
 40
0.6123677712
 41
-3.1363904945
 42
-2.2554744912
  0
ELLIPSE
  5
396
100
AcDbEntity
  8
26814000
100
AcDbEllipse
 62
7
  6
CONTINUOUS
 10
149.3112875145
 20
131.8982436483
 30
0.0
 11
0.2999991737
 21
-0.0014183462
 31
0.0
 40
0.4964289597
 41
0.7877451926
 42
2.3527237553
  0
ELLIPSE
  5
397
100
AcDbEntity
  8
26814000
100
AcDbEllipse
 62
7
  6
CONTINUOUS
 10
154.8657510287
 20
129.1210118912
 30
0.0
 11
0.2999991737
 21
-0.0014183462
 31
0.0
 40
0.4964289597
 41
0.7877451926
 42
2.3585415194
  0
ELLIPSE
  5
398
100
AcDbEntity
  8
26814000
100
AcDbEllipse
 62
7
  6
CONTINUOUS
 10
154.4051031642
 20
123.410583354
 30
0.0
 11
0.110769438
 21
0.2241226716
 31
0.0
 40
0.6088015717
 41
1.2055040732
 42
2.2526937431
  0
ELLIPSE
  5
399
100
AcDbEntity
  8
26814000
100
AcDbEllipse
 62
7
  6
CONTINUOUS
 10
141.0407849998
 20
130.0927424362
 30
0.0
 11
0.110769438
 21
0.2241226716
 31
0.0
 40
0.6088015717
 41
1.2055040732
 42
2.2526937431
  0
ELLIPSE
  5
39A
100
AcDbEntity
  8
26814000
100
AcDbEllipse
 62
7
  6
CONTINUOUS
 10
154.7565996413
 20
124.338388506
 30
0.0
 11
0.110769438
 21
0.2241226716
 31
0.0
 40
0.6088015717
 41
-1.9360885804
 42
-0.8888910292
  0
ELLIPSE
  5
39B
100
AcDbEntity
  8
26814000
100
AcDbEllipse
 62
7
  6
CONTINUOUS
 10
153.136424785
 20
125.4094049106
 30
0.0
 11
0.1128509832
 21
0.2230818409
 31
0.0
 40
0.6159267166
 41
0.0028979148
 42
0.6817883054
  0
ELLIPSE
  5
39C
100
AcDbEntity
  8
26814000
100
AcDbEllipse
 62
7
  6
CONTINUOUS
 10
151.0212751818
 20
124.338101786
 30
0.0
 11
0.110769438
 21
0.2241226716
 31
0.0
 40
0.6088015717
 41
0.6877230618
 42
2.2527016244
  0
ELLIPSE
  5
39D
100
AcDbEntity
  8
26814000
100
AcDbEllipse
 62
7
  6
CONTINUOUS
 10
141.3922814769
 20
131.0205475882
 30
0.0
 11
0.110769438
 21
0.2241226716
 31
0.0
 40
0.6088015717
 41
-1.9360885804
 42
-0.8888910292
  0
ELLIPSE
  5
39E
100
AcDbEntity
  8
26814000
100
AcDbEllipse
 62
7
  6
CONTINUOUS
 10
139.7721066205
 20
132.0915639928
 30
0.0
 11
0.1128509832
 21
0.2230818409
 31
0.0
 40
0.6159267166
 41
0.0028979148
 42
0.6817883054
  0
ELLIPSE
  5
39F
100
AcDbEntity
  8
26814000
100
AcDbEllipse
 62
7
  6
CONTINUOUS
 10
137.6569570174
 20
131.0202608682
 30
0.0
 11
0.110769438
 21
0.2241226716
 31
0.0
 40
0.6088015717
 41
0.6877230618
 42
2.2527016244
  0
ELLIPSE
  5
3A0
100
AcDbEntity
  8
26814000
100
AcDbEllipse
 62
7
  6
CONTINUOUS
 10
154.7565996413
 20
82.7778553903
 30
0.0
 11
0.110769438
 21
0.2241226716
 31
0.0
 40
0.6088015717
 41
-2.4538695918
 42
-0.8888910292
  0
ELLIPSE
  5
3A1
100
AcDbEntity
  8
26814000
100
AcDbEllipse
 62
7
  6
CONTINUOUS
 10
151.0212751818
 20
82.7851262529
 30
0.0
 11
0.110769438
 21
0.2241226716
 31
0.0
 40
0.6088015717
 41
1.2055040732
 42
2.2527016244
  0
ELLIPSE
  5
3A2
100
AcDbEntity
  8
26814000
100
AcDbEllipse
 62
7
  6
CONTINUOUS
 10
154.7565996413
 20
83.0387843666
 30
0.0
 11
0.110769438
 21
0.2241226716
 31
0.0
 40
0.6088015717
 41
5.394294278
 42
6.4414918292
  0
ELLIPSE
  5
3A3
100
AcDbEntity
  8
26814000
100
AcDbEllipse
 62
7
  6
CONTINUOUS
 10
141.3922814769
 20
131.2814765646
 30
0.0
 11
0.110769438
 21
0.2241226716
 31
0.0
 40
0.6088015717
 41
5.394294278
 42
6.9592728406
  0
ELLIPSE
  5
3A4
100
AcDbEntity
  8
26814000
100
AcDbEllipse
 62
7
  6
CONTINUOUS
 10
154.7565996413
 20
124.5993174824
 30
0.0
 11
0.110769438
 21
0.2241226716
 31
0.0
 40
0.6088015717
 41
5.394294278
 42
6.9592728406
  0
ELLIPSE
  5
3A5
100
AcDbEntity
  8
26814000
100
AcDbEllipse
 62
7
  6
CONTINUOUS
 10
149.4917394917
 20
130.5761834783
 30
0.0
 11
0.2999981629
 21
-0.0021225547
 31
0.0
 40
0.4946372042
 41
-0.7818985079
 42
0.0034997008
  0
ELLIPSE
  5
3A6
100
AcDbEntity
  8
26814000
100
AcDbEllipse
 62
7
  6
CONTINUOUS
 10
155.0462030058
 20
127.7989517212
 30
0.0
 11
0.2999981629
 21
-0.0021225547
 31
0.0
 40
0.4946372042
 41
-0.7760807437
 42
0.0035109161
  0
ELLIPSE
  5
3A7
100
AcDbEntity
  8
26814000
100
AcDbEllipse
 62
7
  6
CONTINUOUS
 10
143.3427937642
 20
128.9780622804
 30
0.0
 11
0.2999991335
 21
0.0014318851
 31
0.0
 40
0.5035541159
 41
8.6427941204
 42
10.207772683
  0
ELLIPSE
  5
3A8
100
AcDbEntity
  8
26814000
100
AcDbEllipse
 62
7
  6
CONTINUOUS
 10
137.3295028553
 20
129.1809921791
 30
0.0
 11
-0.1565168911
 21
0.3130623908
 31
0.0
 40
0.6123677712
 41
-0.6846781644
 42
0.8861181623
  0
ELLIPSE
  5
3A9
100
AcDbEntity
  8
26814000
100
AcDbEllipse
 62
7
  6
CONTINUOUS
 10
152.6030093289
 20
121.5442389422
 30
0.0
 11
-0.1565168911
 21
0.3130623908
 31
0.0
 40
0.6123677712
 41
-2.2554744912
 42
-0.6846781644
  0
ELLIPSE
  5
3AA
100
AcDbEntity
  8
26814000
100
AcDbEllipse
 62
7
  6
CONTINUOUS
 10
149.1353028322
 20
126.0818077463
 30
0.0
 11
0.2999991335
 21
0.0014318851
 31
0.0
 40
0.5035541159
 41
-2.3585979313
 42
-0.7936193687
  0
ELLIPSE
  5
3AB
100
AcDbEntity
  8
26814000
100
AcDbEllipse
 62
7
  6
CONTINUOUS
 10
149.1353028322
 20
124.8676086705
 30
0.0
 11
0.2999980272
 21
0.0021530184
 31
0.0
 40
0.5053247124
 41
-2.3598210761
 42
-0.7948425135
  0
ELLIPSE
  5
3AC
100
AcDbEntity
  8
26814000
100
AcDbEllipse
 62
7
  6
CONTINUOUS
 10
143.3427937642
 20
127.7638632045
 30
0.0
 11
0.2999980272
 21
0.0021530184
 31
0.0
 40
0.5053247124
 41
3.1379773283
 42
3.9233642311
  0
ELLIPSE
  5
3AD
100
AcDbEntity
  8
26814000
100
AcDbEllipse
 62
7
  6
CONTINUOUS
 10
155.0462030058
 20
129.0307859026
 30
0.0
 11
0.2999991737
 21
-0.0014183462
 31
0.0
 40
0.4964289597
 41
-0.77723337
 42
0.7877451926
  0
ELLIPSE
  5
3AE
100
AcDbEntity
  8
26814000
100
AcDbEllipse
 62
7
  6
CONTINUOUS
 10
149.4917394917
 20
131.8080176597
 30
0.0
 11
0.2999991737
 21
-0.0014183462
 31
0.0
 40
0.4964289597
 41
-0.7830511342
 42
0.7877451926
  0
ELLIPSE
  5
3AF
100
AcDbEntity
  8
26814000
100
AcDbEllipse
 62
7
  6
CONTINUOUS
 10
152.6030093289
 20
83.3903301652
 30
0.0
 11
-0.1565168911
 21
0.3130623908
 31
0.0
 40
0.6123677712
 41
2.4569144891
 42
4.0277108159
  0
ELLIPSE
  5
3B0
100
AcDbEntity
  8
26814000
100
AcDbEllipse
 62
7
  6
CONTINUOUS
 10
154.4051031642
 20
83.6109792146
 30
0.0
 11
0.110769438
 21
0.2241226716
 31
0.0
 40
0.6088015717
 41
2.2527095058
 42
3.2998991756
  0
ELLIPSE
  5
3B1
100
AcDbEntity
  8
26814000
100
AcDbEllipse
 62
7
  6
CONTINUOUS
 10
152.6291085574
 20
123.5341850982
 30
0.0
 11
0.1128509832
 21
0.2230818409
 31
0.0
 40
0.6159267166
 41
0.6934238338
 42
2.2584023964
  0
ELLIPSE
  5
3B2
100
AcDbEntity
  8
26814000
100
AcDbEllipse
 62
7
  6
CONTINUOUS
 10
152.6291085574
 20
123.2808137044
 30
0.0
 11
0.1128509832
 21
0.2230818409
 31
0.0
 40
0.6159267166
 41
-4.0247829108
 42
-2.9775853596
  0
ELLIPSE
  5
3B3
100
AcDbEntity
  8
26814000
100
AcDbEllipse
 62
7
  6
CONTINUOUS
 10
139.264790393
 20
130.2163441804
 30
0.0
 11
0.1128509832
 21
0.2230818409
 31
0.0
 40
0.6159267166
 41
0.6934238338
 42
2.2584023964
  0
ELLIPSE
  5
3B4
100
AcDbEntity
  8
26814000
100
AcDbEllipse
 62
7
  6
CONTINUOUS
 10
139.264790393
 20
129.9629727866
 30
0.0
 11
0.1128509832
 21
0.2230818409
 31
0.0
 40
0.6159267166
 41
-4.0247829108
 42
-2.9775853596
  0
ELLIPSE
  5
3B5
100
AcDbEntity
  8
26814000
100
AcDbEllipse
 62
7
  6
CONTINUOUS
 10
152.6291085574
 20
81.7278381713
 30
0.0
 11
0.1128509832
 21
0.2230818409
 31
0.0
 40
0.6159267166
 41
-4.0247829108
 42
-2.4598043482
  0
ELLIPSE
  5
3B6
100
AcDbEntity
  8
26814000
100
AcDbEllipse
 62
7
  6
CONTINUOUS
 10
152.6291085574
 20
81.981209565
 30
0.0
 11
0.1128509832
 21
0.2230818409
 31
0.0
 40
0.6159267166
 41
1.2112048452
 42
2.2584023964
  0
ELLIPSE
  5
3B7
100
AcDbEntity
  8
26814000
100
AcDbEllipse
 62
7
  6
CONTINUOUS
 10
150.9508030227
 20
88.831984532
 30
0.0
 11
-0.542618321
 21
0.8478124368
 31
0.0
 40
0.5451249042
 41
-3.2164376038
 42
-2.3115524019
  0
ENDSEC
  0
SECTION
  2
OBJECTS
  0
DICTIONARY
  5
C
100
AcDbDictionary
280
0
281
1
  3
ACAD_GROUP
350
D
  3
ACAD_MLINESTYLE
350
17
  3
ACAD_LAYOUT
350
1A
  3
ACAD_PLOTSETTINGS
350
19
  3
ACAD_PLOTSTYLENAME
350
E
  0
DICTIONARY
  5
D
102
{ACAD_REACTORS
330
C
102
}
100
AcDbDictionary
280
0
281
1
  0
ACDBDICTIONARYWDFLT
  5
E
102
{ACAD_REACTORS
330
C
102
}
100
AcDbDictionary
281
1
  3
Normal
350
F
100
AcDbDictionaryWithDefault
340
F
  0
DICTIONARY
  5
17
102
{ACAD_REACTORS
330
C
102
}
100
AcDbDictionary
280
0
281
1
  3
Standard
350
18
  0
DICTIONARY
  5
19
102
{ACAD_REACTORS
330
C
102
}
100
AcDbDictionary
281
1
  0
DICTIONARY
  5
1A
102
{ACAD_REACTORS
330
C
102
}
100
AcDbDictionary
281
1
  3
Model
350
3B8
  3
Layout1
350
3B9
  0
ACDBPLACEHOLDER
  5
F
102
{ACAD_REACTORS
330
E
102
}
  0
MLINESTYLE
  5
18
102
{ACAD_REACTORS
330
17
102
}
100
AcDbMlineStyle
  2
STANDARD
 70
0
  3

 62
256
 51
90.0
 52
90.0
 71
2
 49
0.5
 62
256
  6
BYLAYER
 49
-0.5
 62
256
  6
BYLAYER
  0
LAYOUT
  5
3B8
102
{ACAD_REACTORS
330
1A
102
}
100
AcDbPlotSettings
  1

  2
none_device
  4
ISO_A4_(297.00_x_210.00_MM)
  6

 40
0.0
 41
0.0
 42
0.0
 43
0.0
 44
297.0
 45
210.0
 46
0.0
 47
0.0
 48
0.0
 49
0.0
140
0.0
141
0.0
142
1.0
143
1.0
 70
1024
 72
1
 73
0
 74
0
  7

 75
0
147
1.0
148
0.0
149
0.0
100
AcDbLayout
  1
Model
 70
0
 71
0
 10
0.0
 20
0.0
 11
297.0
 21
210.0
 12
0.0
 22
0.0
 32
0.0
 14
0.0
 24
0.0
 34
0.0
 15
0.0
 25
0.0
 35
0.0
146
0.0
 13
0.0
 23
0.0
 33
0.0
 16
1.0
 26
0.0
 36
0.0
 17
0.0
 27
1.0
 37
0.0
 76
0
330
224
345
0
346
0
  0
LAYOUT
  5
3B9
102
{ACAD_REACTORS
330
1A
102
}
100
AcDbPlotSettings
  1

  2
none_device
  4
ISO_A4_(297.00_x_210.00_MM)
  6

 40
0.0
 41
0.0
 42
0.0
 43
0.0
 44
297.0
 45
210.0
 46
0.0
 47
0.0
 48
0.0
 49
0.0
140
0.0
141
0.0
142
1.0
143
1.0
 70
0
 72
1
 73
0
 74
0
  7

 75
0
147
1.0
148
0.0
149
0.0
100
AcDbLayout
  1
Layout1
 70
0
 71
1
 10
0.0
 20
0.0
 11
297.0
 21
210.0
 12
0.0
 22
0.0
 32
0.0
 14
0.0
 24
0.0
 34
0.0
 15
0.0
 25
0.0
 35
0.0
146
0.0
 13
0.0
 23
0.0
 33
0.0
 16
1.0
 26
0.0
 36
0.0
 17
0.0
 27
1.0
 37
0.0
 76
0
330
225
345
0
346
0
  0
ENDSEC
  0
EOF
