  0
SECTION
  2
HEADER
  9
$ACADVER
  1
AC1015
  9
$DWGCODEPAGE
  3
ANSI_1252
  9
$EXTMAX
 10
297.0
 20
210.0
 30
0.0
  9
$EXTMIN
 10
0.0
 20
0.0
 30
0.0
  9
$LIMMIN
 10
0.0
 20
0.0
  9
$LIMMAX
 10
297.0
 20
210.0
  9
$VIEWCTR
 10
148.5
 20
105.0
  9
$VIEWSIZE
 40
210.0
  9
$CLAYER
  8
0
  9
$LTSCALE
 40
16.335
  9
$CELTYPE
  6
BYLAYER
  9
$DIMSCALE
 40
1.0
  9
$DIMASZ
 40
3.0
  9
$DIMEXO
 40
0.5
  9
$DIMDLI
 40
11.286
  9
$DIMEXE
 40
1.5
  9
$DIMCEN
 40
2.673
  9
$DIMLFAC
 40
1.0
  9
$DIMBLK
  1
_FILLED
  9
$DIMTXT
 40
3.0
  9
$DIMTOL
 70
1
  9
$DIMLIM
 70
0
  9
$DIMTFAC
 40
1.0
  9
$DIMTP
 40
0.01
  9
$DIMTM
 40
0.01
  9
$DIMGAP
 40
0.625
  9
$DIMDSEP
 70
44
  9
$PDMODE
 70
3
  9
$PDSIZE
 40
3.0
  9
$HANDSEED
  5
504
  9
$TILEMODE
 70
1
  9
$MEASUREMENT
 70
1
  9
$INSUNITS
 70
4
  0
ENDSEC
  0
SECTION
  2
CLASSES
  0
CLASS
  1
ACDBDICTIONARYWDFLT
  2
AcDbDictionaryWithDefault
  3
AutoCAD 2000
 90
0
280
0
281
0
  0
CLASS
  1
ACDBPLACEHOLDER
  2
AcDbPlaceHolder
  3
AutoCAD 2000
 90
0
280
0
281
0
  0
CLASS
  1
LAYOUT
  2
AcDbLayout
  3
AutoCAD 2000
 90
0
280
0
281
0
  0
ENDSEC
  0
SECTION
  2
TABLES
  0
TABLE
  2
VPORT
  5
8
100
AcDbSymbolTable
 70
2
  0
VPORT
  5
1F4
100
AcDbSymbolTableRecord
100
AcDbViewportTableRecord
  2
*ACTIVE
 70
0
 10
0.0
 20
0.0
 11
1.0
 21
1.0
 12
148.5
 22
105.0
 13
0.0
 23
0.0
 14
1.0
 24
1.0
 15
0.0
 25
0.0
 16
0.0
 26
0.0
 36
1.0
 17
0.0
 27
0.0
 37
0.0
 40
210.0
 41
1.4142857143
 42
50.0
 43
0.0
 44
0.0
 50
0.0
 51
0.0
 71
0
 72
100
 73
1
 74
1
 75
0
 76
0
 77
0
 78
0
  0
ENDTAB
  0
TABLE
  2
LTYPE
  5
5
100
AcDbSymbolTable
 70
6
  0
LTYPE
  5
14
100
AcDbSymbolTableRecord
100
AcDbLinetypeTableRecord
  2
BYBLOCK
 70
0
  3

 72
65
 73
0
 40
0.0
  0
LTYPE
  5
15
100
AcDbSymbolTableRecord
100
AcDbLinetypeTableRecord
  2
BYLAYER
 70
0
  3

 72
65
 73
0
 40
0.0
  0
LTYPE
  5
16
100
AcDbSymbolTableRecord
100
AcDbLinetypeTableRecord
  2
CONTINUOUS
 70
64
  3
Solid line
 72
65
 73
0
 40
0.0
  0
LTYPE
  5
1F5
100
AcDbSymbolTableRecord
100
AcDbLinetypeTableRecord
  2
CENTER
 70
64
  3
____ _ ____ _ ____ _ ____ _ ____ _ ____ _ ____
 72
65
 73
4
 40
0.6
 49
0.375
 74
0
 49
-0.075
 74
0
 49
0.075
 74
0
 49
-0.075
 74
0
  0
LTYPE
  5
1F6
100
AcDbSymbolTableRecord
100
AcDbLinetypeTableRecord
  2
HIDDEN
 70
64
  3
- - - - - - - - - - - - - - - - - - - -
 72
65
 73
2
 40
0.2
 49
0.1
 74
0
 49
-0.1
 74
0
  0
LTYPE
  5
1F7
100
AcDbSymbolTableRecord
100
AcDbLinetypeTableRecord
  2
PHANTOM
 70
64
  3
_____ _ _ _____ _ _ _____ _ _ _____
 72
65
 73
6
 40
0.8
 49
0.45
 74
0
 49
-0.05
 74
0
 49
0.1
 74
0
 49
-0.05
 74
0
 49
0.1
 74
0
 49
-0.05
 74
0
  0
LTYPE
  5
1F8
100
AcDbSymbolTableRecord
100
AcDbLinetypeTableRecord
  2
DOT
 70
64
  3
. . . . . . . . . . . . . . . . . . . .
 72
65
 73
2
 40
0.2
 49
0.1
 74
0
 49
-0.1
 74
0
  0
LTYPE
  5
1F9
100
AcDbSymbolTableRecord
100
AcDbLinetypeTableRecord
  2
DASHED
 70
64
  3
- - - - - - - - - - - - - - - - - - - -
 72
65
 73
2
 40
0.2
 49
0.1
 74
0
 49
-0.1
 74
0
  0
ENDTAB
  0
TABLE
  2
LAYER
  5
2
100
AcDbSymbolTable
 70
36
  0
LAYER
  5
10
100
AcDbSymbolTableRecord
100
AcDbLayerTableRecord
  2
0
 70
0
 62
7
  6
CONTINUOUS
370
-3
390
F
  0
LAYER
  5
1FA
100
AcDbSymbolTableRecord
100
AcDbLayerTableRecord
  2
DEFAULT_1
 70
0
 62
7
  6
CENTER
370
-3
390
F
  0
LAYER
  5
1FB
100
AcDbSymbolTableRecord
100
AcDbLayerTableRecord
  2
DEFAULT_2
 70
0
 62
7
  6
HIDDEN
370
-3
390
F
  0
LAYER
  5
1FC
100
AcDbSymbolTableRecord
100
AcDbLayerTableRecord
  2
DEFAULT_3
 70
0
 62
7
  6
PHANTOM
370
-3
390
F
  0
LAYER
  5
1FD
100
AcDbSymbolTableRecord
100
AcDbLayerTableRecord
  2
21814000
 70
0
 62
7
  6
CONTINUOUS
370
-3
390
F
  0
LAYER
  5
1FE
100
AcDbSymbolTableRecord
100
AcDbLayerTableRecord
  2
260140000
 70
0
 62
7
  6
CONTINUOUS
370
-3
390
F
  0
LAYER
  5
1FF
100
AcDbSymbolTableRecord
100
AcDbLayerTableRecord
  2
26814000
 70
0
 62
7
  6
CONTINUOUS
370
-3
390
F
  0
LAYER
  5
200
100
AcDbSymbolTableRecord
100
AcDbLayerTableRecord
  2
28414000
 70
0
 62
7
  6
CONTINUOUS
370
-3
390
F
  0
LAYER
  5
201
100
AcDbSymbolTableRecord
100
AcDbLayerTableRecord
  2
290140000
 70
0
 62
7
  6
CONTINUOUS
370
-3
390
F
  0
LAYER
  5
202
100
AcDbSymbolTableRecord
100
AcDbLayerTableRecord
  2
340000230
 70
0
 62
7
  6
CONTINUOUS
370
-3
390
F
  0
LAYER
  5
203
100
AcDbSymbolTableRecord
100
AcDbLayerTableRecord
  2
712140000
 70
0
 62
7
  6
CONTINUOUS
370
-3
390
F
  0
LAYER
  5
204
100
AcDbSymbolTableRecord
100
AcDbLayerTableRecord
  2
715140000
 70
0
 62
7
  6
CONTINUOUS
370
-3
390
F
  0
LAYER
  5
205
100
AcDbSymbolTableRecord
100
AcDbLayerTableRecord
  2
ASSI
 70
0
 62
7
  6
CONTINUOUS
370
-3
390
F
  0
LAYER
  5
206
100
AcDbSymbolTableRecord
100
AcDbLayerTableRecord
  2
COLORE_TOP
 70
0
 62
7
  6
CONTINUOUS
370
-3
390
F
  0
LAYER
  5
207
100
AcDbSymbolTableRecord
100
AcDbLayerTableRecord
  2
COORDINATE
 70
0
 62
7
  6
CONTINUOUS
370
-3
390
F
  0
LAYER
  5
208
100
AcDbSymbolTableRecord
100
AcDbLayerTableRecord
  2
COORD_ORIGINE
 70
0
 62
7
  6
CONTINUOUS
370
-3
390
F
  0
LAYER
  5
209
100
AcDbSymbolTableRecord
100
AcDbLayerTableRecord
  2
COPY_PUBLISH
 70
0
 62
7
  6
CONTINUOUS
370
-3
390
F
  0
LAYER
  5
20A
100
AcDbSymbolTableRecord
100
AcDbLayerTableRecord
  2
COSMETICHE
 70
0
 62
7
  6
CONTINUOUS
370
-3
390
F
  0
LAYER
  5
20B
100
AcDbSymbolTableRecord
100
AcDbLayerTableRecord
  2
COSMETICI
 70
0
 62
7
  6
CONTINUOUS
370
-3
390
F
  0
LAYER
  5
20C
100
AcDbSymbolTableRecord
100
AcDbLayerTableRecord
  2
CURVE
 70
0
 62
7
  6
CONTINUOUS
370
-3
390
F
  0
LAYER
  5
20D
100
AcDbSymbolTableRecord
100
AcDbLayerTableRecord
  2
DRAFT
 70
0
 62
7
  6
CONTINUOUS
370
-3
390
F
  0
LAYER
  5
20E
100
AcDbSymbolTableRecord
100
AcDbLayerTableRecord
  2
IMPORT
 70
0
 62
7
  6
CONTINUOUS
370
-3
390
F
  0
LAYER
  5
20F
100
AcDbSymbolTableRecord
100
AcDbLayerTableRecord
  2
IMPORTED
 70
0
 62
7
  6
CONTINUOUS
370
-3
390
F
  0
LAYER
  5
210
100
AcDbSymbolTableRecord
100
AcDbLayerTableRecord
  2
IMPORT_IGES
 70
0
 62
7
  6
CONTINUOUS
370
-3
390
F
  0
LAYER
  5
211
100
AcDbSymbolTableRecord
100
AcDbLayerTableRecord
  2
INCISIONI_LASER
 70
0
 62
7
  6
CONTINUOUS
370
-3
390
F
  0
LAYER
  5
212
100
AcDbSymbolTableRecord
100
AcDbLayerTableRecord
  2
INTF_11
 70
0
 62
7
  6
CONTINUOUS
370
-3
390
F
  0
LAYER
  5
213
100
AcDbSymbolTableRecord
100
AcDbLayerTableRecord
  2
NOTE
 70
0
 62
7
  6
CONTINUOUS
370
-3
390
F
  0
LAYER
  5
214
100
AcDbSymbolTableRecord
100
AcDbLayerTableRecord
  2
PIANI
 70
0
 62
7
  6
CONTINUOUS
370
-3
390
F
  0
LAYER
  5
215
100
AcDbSymbolTableRecord
100
AcDbLayerTableRecord
  2
PIANI_DI_RIFERIMENTO
 70
0
 62
7
  6
CONTINUOUS
370
-3
390
F
  0
LAYER
  5
216
100
AcDbSymbolTableRecord
100
AcDbLayerTableRecord
  2
PIANI_ORIGINE
 70
0
 62
7
  6
CONTINUOUS
370
-3
390
F
  0
LAYER
  5
217
100
AcDbSymbolTableRecord
100
AcDbLayerTableRecord
  2
PIANI_RIFERIMENTO
 70
0
 62
7
  6
CONTINUOUS
370
-3
390
F
  0
LAYER
  5
218
100
AcDbSymbolTableRecord
100
AcDbLayerTableRecord
  2
PIANI_SFORMO
 70
0
 62
7
  6
CONTINUOUS
370
-3
390
F
  0
LAYER
  5
219
100
AcDbSymbolTableRecord
100
AcDbLayerTableRecord
  2
PUNTI
 70
0
 62
7
  6
CONTINUOUS
370
-3
390
F
  0
LAYER
  5
21A
100
AcDbSymbolTableRecord
100
AcDbLayerTableRecord
  2
RACCORDO
 70
0
 62
7
  6
CONTINUOUS
370
-3
390
F
  0
LAYER
  5
21B
100
AcDbSymbolTableRecord
100
AcDbLayerTableRecord
  2
RINTRACCIABILITA
 70
0
 62
7
  6
CONTINUOUS
370
-3
390
F
  0
LAYER
  5
21C
100
AcDbSymbolTableRecord
100
AcDbLayerTableRecord
  2
SIMBOLI
 70
0
 62
7
  6
CONTINUOUS
370
-3
390
F
  0
LAYER
  5
21D
100
AcDbSymbolTableRecord
100
AcDbLayerTableRecord
  2
SMUSSO
 70
0
 62
7
  6
CONTINUOUS
370
-3
390
F
  0
LAYER
  5
21E
100
AcDbSymbolTableRecord
100
AcDbLayerTableRecord
  2
SNAPLINE
 70
0
 62
7
  6
CONTINUOUS
370
-3
390
F
  0
LAYER
  5
21F
100
AcDbSymbolTableRecord
100
AcDbLayerTableRecord
  2
SUPERFICI
 70
0
 62
7
  6
CONTINUOUS
370
-3
390
F
  0
LAYER
  5
220
100
AcDbSymbolTableRecord
100
AcDbLayerTableRecord
  2
TRASH
 70
0
 62
7
  6
CONTINUOUS
370
-3
390
F
  0
LAYER
  5
221
100
AcDbSymbolTableRecord
100
AcDbLayerTableRecord
  2
XSEC_DATUMS
 70
0
 62
7
  6
CONTINUOUS
370
-3
390
F
  0
ENDTAB
  0
TABLE
  2
STYLE
  5
3
100
AcDbSymbolTable
 70
1
  0
STYLE
  5
11
100
AcDbSymbolTableRecord
100
AcDbTextStyleTableRecord
  2
STANDARD
 70
0
 40
0.0
 41
0.8
 50
0.0
 71
0
 42
0.2
  3
txt
  4

  0
STYLE
  5
222
100
AcDbSymbolTableRecord
100
AcDbTextStyleTableRecord
  2
TEXTSTYLE_1
 70
0
 40
0.0
 41
0.8
 50
0.0
 71
0
 42
0.2
  3
gdt
  4

  0
ENDTAB
  0
TABLE
  2
VIEW
  5
6
100
AcDbSymbolTable
 70
0
  0
ENDTAB
  0
TABLE
  2
UCS
  5
7
100
AcDbSymbolTable
 70
0
  0
ENDTAB
  0
TABLE
  2
APPID
  5
9
100
AcDbSymbolTable
 70
1
  0
APPID
  5
223
100
AcDbSymbolTableRecord
100
AcDbRegAppTableRecord
  2
ACAD
 70
0
  0
ENDTAB
  0
TABLE
  2
BLOCK_RECORD
  5
1
100
AcDbSymbolTable
 70
0
  0
BLOCK_RECORD
  5
224
100
AcDbSymbolTableRecord
100
AcDbBlockTableRecord
  2
*Model_Space
  0
BLOCK_RECORD
  5
225
100
AcDbSymbolTableRecord
100
AcDbBlockTableRecord
  2
*Paper_Space
  0
ENDTAB
  0
TABLE
  2
DIMSTYLE
  5
A
100
AcDbSymbolTable
 70
1
100
AcDbDimStyleTable
 71
0
  0
DIMSTYLE
105
226
100
AcDbSymbolTableRecord
100
AcDbDimStyleTableRecord
  2
STANDARD
 70
0
  3

  4

 40
1.0
 41
3.0
 42
0.5
 43
0.38
 44
1.5
 45
0.0
 46
0.0
 47
0.01
 48
0.01
140
3.0
141
0.09
142
0.0
143
25.4
144
1.0
145
0.0
146
1.0
147
0.625
 71
1.0
 72
0.0
 73
0
 74
0
 75
0
 76
0
 77
1
 78
8
170
0
171
2
172
0
173
0
174
0
175
0
176
0
177
0
178
0
270
2
271
2
272
2
273
2
274
2
275
0
280
0
281
0
282
0
283
1
284
8
285
0
286
0
287
3
288
0
340
11
278
44
  0
ENDTAB
  0
ENDSEC
  0
SECTION
  2
BLOCKS
  0
BLOCK
  5
20
100
AcDbEntity
  8
0
100
AcDbBlockBegin
  2
*Model_Space
 70
0
 10
0.0
 20
0.0
 30
0.0
  3
*Model_Space
  1

  0
ENDBLK
  5
21
100
AcDbEntity
  8
0
100
AcDbBlockEnd
  0
BLOCK
  5
1C
100
AcDbEntity
  8
0
100
AcDbBlockBegin
  2
*Paper_Space
 70
0
 10
0.0
 20
0.0
 30
0.0
  3
*Paper_Space
  1

  0
ENDBLK
  5
1D
100
AcDbEntity
  8
0
100
AcDbBlockEnd
  0
ENDSEC
  0
SECTION
  2
ENTITIES
  0
LINE
  5
227
100
AcDbEntity
  8
26814000
100
AcDbLine
 62
7
  6
CONTINUOUS
 10
129.1872478013
 20
130.5117825147
 11
130.7700044045
 21
131.3237666121
  0
LINE
  5
228
100
AcDbEntity
  8
26814000
100
AcDbLine
 62
7
  6
CONTINUOUS
 10
128.703292689
 20
128.7690821127
 11
129.7155149731
 21
129.2860120754
  0
LINE
  5
229
100
AcDbEntity
  8
26814000
100
AcDbLine
 62
253
  6
CONTINUOUS
 10
128.8608160953
 20
128.7596487831
 11
129.7155149731
 21
129.1961334031
  0
LINE
  5
22A
100
AcDbEntity
  8
26814000
100
AcDbLine
 62
7
  6
CONTINUOUS
 10
130.7950692104
 20
129.7078718102
 11
132.3963500012
 21
130.5105938137
  0
LINE
  5
22B
100
AcDbEntity
  8
26814000
100
AcDbLine
 62
7
  6
CONTINUOUS
 10
132.3963500012
 20
130.5105938137
 11
132.924617173
 21
130.7740326337
  0
LINE
  5
22C
100
AcDbEntity
  8
26814000
100
AcDbLine
 62
7
  6
CONTINUOUS
 10
130.7700044045
 20
131.3237666121
 11
131.3044542832
 21
131.5841140786
  0
LWPOLYLINE
  5
22D
100
AcDbEntity
  8
RACCORDO
100
AcDbPolyline
 62
253
  6
CONTINUOUS
 90
19
 70
0
 10
153.3538466664
 20
72.6785792922
 10
153.3126321583
 20
72.6669071531
 10
153.2725665168
 20
72.6596527436
 10
153.2336497418
 20
72.6568160636
 10
153.195607123
 20
72.6584286647
 10
153.1587133707
 20
72.6644589953
 10
153.1237926164
 20
72.6748124014
 10
153.0909096968
 20
72.6895856095
 10
153.0599997751
 20
72.708681893
 10
153.0316924726
 20
72.7317164187
 10
153.0060414109
 20
72.7587721314
 10
152.9829929684
 20
72.7897660862
 10
152.9630159017
 20
72.8240646151
 10
152.946174953
 20
72.8617642395
 10
152.93240538
 20
72.902768438
 10
152.9219817126
 20
72.9461539782
 10
152.9149954607
 20
72.9916131162
 10
152.9113551143
 20
73.0394535959
 10
152.9110606735
 20
73.0896754174
  0
LWPOLYLINE
  5
22E
100
AcDbEntity
  8
26814000
100
AcDbPolyline
 62
7
  6
CONTINUOUS
 90
12
 70
0
 10
140.3604758982
 20
131.9914965592
 10
140.3541891068
 20
131.9881401856
 10
140.3423346802
 20
131.9806359124
 10
140.3306795002
 20
131.9717634012
 10
140.3191839054
 20
131.9615782906
 10
140.3078926077
 20
131.9501472183
 10
140.2967475413
 20
131.9375001921
 10
140.2856806619
 20
131.9236706559
 10
140.2747345427
 20
131.9087011571
 10
140.2638872416
 20
131.8926182299
 10
140.2530488128
 20
131.8754499756
 10
140.2421644449
 20
131.8572313441
  0
LINE
  5
22F
100
AcDbEntity
  8
26814000
100
AcDbLine
 62
7
  6
CONTINUOUS
 10
134.6607444326
 20
128.3590368162
 11
135.1540664478
 21
128.6121203481
  0
LINE
  5
230
100
AcDbEntity
  8
26814000
100
AcDbLine
 62
7
  6
CONTINUOUS
 10
132.3963500012
 20
128.7785430061
 11
131.3295190891
 21
128.2399617566
  0
LINE
  5
231
100
AcDbEntity
  8
26814000
100
AcDbLine
 62
7
  6
CONTINUOUS
 10
133.8521309777
 20
128.7502016099
 11
140.3601676044
 21
131.9913432154
  0
LINE
  5
232
100
AcDbEntity
  8
26814000
100
AcDbLine
 62
253
  6
CONTINUOUS
 10
133.9276241182
 20
128.7124550396
 11
140.2421644449
 21
131.8572313441
  0
LINE
  5
233
100
AcDbEntity
  8
26814000
100
AcDbLine
 62
7
  6
CONTINUOUS
 10
135.1540664478
 20
128.6121203481
 11
140.6317064373
 21
131.2804523113
  0
LWPOLYLINE
  5
234
100
AcDbEntity
  8
RACCORDO
100
AcDbPolyline
 62
253
  6
CONTINUOUS
 90
19
 70
0
 10
125.8923321298
 20
126.3419241682
 10
125.8056278517
 20
126.3027812508
 10
125.7188754935
 20
126.2547859413
 10
125.6326704336
 20
126.198263028
 10
125.5476075066
 20
126.1335923126
 10
125.4642670179
 20
126.0612149978
 10
125.3832105169
 20
125.9816316386
 10
125.304995457
 20
125.8953858431
 10
125.2301557126
 20
125.8030610113
 10
125.1591884466
 20
125.7052849719
 10
125.0925793117
 20
125.6027216509
 10
125.0307857822
 20
125.4960669104
 10
124.9742194078
 20
125.3860438293
 10
124.9232662287
 20
125.2733964589
 10
124.8782791516
 20
125.1588926876
 10
124.8395626711
 20
125.04331811
 10
124.807380603
 20
124.9274610686
 10
124.7819550532
 20
124.812107118
 10
124.7634602721
 20
124.6980410873
  0
LWPOLYLINE
  5
235
100
AcDbEntity
  8
RACCORDO
100
AcDbPolyline
 62
7
  6
CONTINUOUS
 90
18
 70
0
 10
125.5401827964
 20
126.3675317049
 10
125.4576023706
 20
126.330353586
 10
125.3654133951
 20
126.2805309838
 10
125.2756214059
 20
126.2229149712
 10
125.1887387773
 20
126.1577978703
 10
125.1056240611
 20
126.0859434361
 10
125.0262466066
 20
126.0074096295
 10
124.9508225821
 20
125.9223722639
 10
124.8803772394
 20
125.8320806416
 10
124.8149797699
 20
125.7366907955
 10
124.754812388
 20
125.6363981915
 10
124.7008178369
 20
125.5328516034
 10
124.6530983974
 20
125.426312776
 10
124.6117779866
 20
125.3169513008
 10
124.5775069992
 20
125.2064296695
 10
124.5504644788
 20
125.0954374105
 10
124.5305931
 20
124.98375491
 10
124.5276096771
 20
124.9622124766
  0
LINE
  5
236
100
AcDbEntity
  8
RACCORDO
100
AcDbLine
 62
7
  6
CONTINUOUS
 10
129.516216307
 20
127.9928321157
 11
125.5401760988
 21
126.3675480823
  0
LINE
  5
237
100
AcDbEntity
  8
RACCORDO
100
AcDbLine
 62
253
  6
CONTINUOUS
 10
129.8256184411
 20
127.9497316717
 11
125.8923321298
 21
126.3419241682
  0
LWPOLYLINE
  5
238
100
AcDbEntity
  8
26814000
100
AcDbPolyline
 62
7
  6
CONTINUOUS
 90
3
 70
0
 10
140.3789236366
 20
131.9989539019
 10
140.3663586168
 20
131.9942548511
 10
140.3604758982
 20
131.9914965592
  0
LWPOLYLINE
  5
239
100
AcDbEntity
  8
26814000
100
AcDbPolyline
 62
7
  6
CONTINUOUS
 90
10
 70
0
 10
140.3789236366
 20
131.9989539019
 10
140.3881632574
 20
132.0016997009
 10
140.3967264113
 20
132.0039654194
 10
140.4046130982
 20
132.0057510574
 10
140.4118624565
 20
132.007077462
 10
140.4184353478
 20
132.0079237862
 10
140.4242143572
 20
132.0082274889
 10
140.4291953143
 20
132.0079881531
 10
140.4333823896
 20
132.007206196
 10
140.4359720707
 20
132.0062097628
  0
LWPOLYLINE
  5
23A
100
AcDbEntity
  8
RACCORDO
100
AcDbPolyline
 62
253
  6
CONTINUOUS
 90
6
 70
0
 10
160.7340951823
 20
74.6605087229
 10
160.7092154002
 20
74.6558734545
 10
160.6837011011
 20
74.6526083537
 10
160.6578564324
 20
74.6507349248
 10
160.6319407288
 20
74.6502527691
 10
160.6061380295
 20
74.6511729413
  0
LINE
  5
23B
100
AcDbEntity
  8
26814000
100
AcDbLine
 62
7
  6
CONTINUOUS
 10
133.0114688362
 20
130.1530350471
 11
132.4842241205
 21
129.5113273191
  0
LINE
  5
23C
100
AcDbEntity
  8
26814000
100
AcDbLine
 62
7
  6
CONTINUOUS
 10
142.5622585944
 20
129.5076135798
 11
141.1644740879
 21
128.8087213266
  0
LINE
  5
23D
100
AcDbEntity
  8
26814000
100
AcDbLine
 62
7
  6
CONTINUOUS
 10
141.235184766
 20
130.9774878134
 11
136.4975693321
 21
128.6424372988
  0
LINE
  5
23E
100
AcDbEntity
  8
26814000
100
AcDbLine
 62
7
  6
CONTINUOUS
 10
140.8109206973
 20
129.5380562112
 11
141.235184766
 21
129.745653632
  0
LINE
  5
23F
100
AcDbEntity
  8
26814000
100
AcDbLine
 62
7
  6
CONTINUOUS
 10
143.2212543458
 20
130.3676863937
 11
141.1644740879
 21
129.3612795159
  0
LINE
  5
240
100
AcDbEntity
  8
21814000
100
AcDbLine
 62
7
  6
CONTINUOUS
 10
140.2272668777
 20
128.1816255436
 11
140.0891520755
 21
128.1163884583
  0
LINE
  5
241
100
AcDbEntity
  8
21814000
100
AcDbLine
 62
253
  6
CONTINUOUS
 10
140.3108008841
 20
128.1731264569
 11
140.1745245951
 21
128.108757774
  0
LWPOLYLINE
  5
242
100
AcDbEntity
  8
21814000
100
AcDbPolyline
 62
253
  6
CONTINUOUS
 90
11
 70
0
 10
141.1442670071
 20
128.22694643
 10
141.1533594676
 20
128.2310368811
 10
141.1624181419
 20
128.2343936663
 10
141.1714052635
 20
128.2370006384
 10
141.1802864511
 20
128.2388452426
 10
141.1890209155
 20
128.2399163882
 10
141.1975622639
 20
128.2402074023
 10
141.2058790893
 20
128.2397169082
 10
141.2139323133
 20
128.2384468958
 10
141.2216682936
 20
128.2364093796
 10
141.2290419363
 20
128.2336260108
  0
LINE
  5
243
100
AcDbEntity
  8
21814000
100
AcDbLine
 62
7
  6
CONTINUOUS
 10
140.2273203931
 20
128.181650821
 11
140.2305284333
 21
128.1830664507
  0
LWPOLYLINE
  5
244
100
AcDbEntity
  8
21814000
100
AcDbPolyline
 62
7
  6
CONTINUOUS
 90
5
 70
0
 10
140.0890336068
 20
128.116331556
 10
140.0938767716
 20
128.1183891802
 10
140.1013031314
 20
128.1207070427
 10
140.1094495496
 20
128.1222394074
 10
140.1183678846
 20
128.122890321
  0
LINE
  5
245
100
AcDbEntity
  8
21814000
100
AcDbLine
 62
7
  6
CONTINUOUS
 10
140.3003690231
 20
128.2091675879
 11
140.2305280719
 21
128.1830662804
  0
LINE
  5
246
100
AcDbEntity
  8
21814000
100
AcDbLine
 62
7
  6
CONTINUOUS
 10
140.3754081332
 20
128.232095153
 11
140.3003690231
 21
128.2091675879
  0
LWPOLYLINE
  5
247
100
AcDbEntity
  8
21814000
100
AcDbPolyline
 62
7
  6
CONTINUOUS
 90
6
 70
0
 10
140.2305284333
 20
128.1830664507
 10
140.2437567078
 20
128.1870084756
 10
140.259540328
 20
128.188347111
 10
140.2761776605
 20
128.1864532859
 10
140.2933662616
 20
128.181352077
 10
140.3108008841
 20
128.1731264569
  0
LWPOLYLINE
  5
248
100
AcDbEntity
  8
RACCORDO
100
AcDbPolyline
 62
253
  6
CONTINUOUS
 90
12
 70
0
 10
121.7549406511
 20
88.136497743
 10
121.7552491569
 20
88.0295519878
 10
121.7627148511
 20
87.9266457568
 10
121.7772857327
 20
87.828479878
 10
121.7988593521
 20
87.7357229375
 10
121.8272887945
 20
87.6490072535
 10
121.8623828367
 20
87.5689237808
 10
121.9038968391
 20
87.4960203664
 10
121.9515465862
 20
87.4307904007
 10
122.0050159785
 20
87.3736707781
 10
122.0639369635
 20
87.3250523508
 10
122.1279058604
 20
87.2852673712
  0
LWPOLYLINE
  5
249
100
AcDbEntity
  8
RACCORDO
100
AcDbPolyline
 62
7
  6
CONTINUOUS
 90
13
 70
0
 10
124.5276107647
 20
124.9623125904
 10
124.1413985783
 20
121.9438493577
 10
123.7692543626
 20
118.8390364915
 10
123.4237232389
 20
115.7429097201
 10
123.1048586283
 20
112.6559149574
 10
122.8126998215
 20
109.5784439593
 10
122.5472822249
 20
106.5108674282
 10
122.3086415535
 20
103.4535707981
 10
122.0968080616
 20
100.4069373719
 10
121.9118098209
 20
97.3713348465
 10
121.7536743517
 20
94.347150273
 10
121.6224233384
 20
91.3348173538
 10
121.5206169374
 20
88.4181121474
  0
LINE
  5
24A
100
AcDbEntity
  8
21814000
100
AcDbLine
 62
7
  6
CONTINUOUS
 10
140.074420877
 20
128.1067120271
 11
139.1634945185
 21
127.3094747056
  0
LINE
  5
24B
100
AcDbEntity
  8
21814000
100
AcDbLine
 62
253
  6
CONTINUOUS
 10
140.1738657207
 20
128.1090872113
 11
139.2250555404
 21
127.2786941946
  0
LWPOLYLINE
  5
24C
100
AcDbEntity
  8
21814000
100
AcDbPolyline
 62
7
  6
CONTINUOUS
 90
5
 70
0
 10
140.0743236381
 20
128.1066264286
 10
140.0754044414
 20
128.1075579491
 10
140.0809528061
 20
128.1117406855
 10
140.0871072661
 20
128.1153783341
 10
140.0890336068
 20
128.116331556
  0
LINE
  5
24D
100
AcDbEntity
  8
21814000
100
AcDbLine
 62
253
  6
CONTINUOUS
 10
139.7257844988
 20
127.0283297154
 11
140.1995929424
 21
127.3997497719
  0
LWPOLYLINE
  5
24E
100
AcDbEntity
  8
21814000
100
AcDbPolyline
 62
253
  6
CONTINUOUS
 90
13
 70
0
 10
140.1995929424
 20
127.3997497719
 10
140.2407718617
 20
127.4292959018
 10
140.283967234
 20
127.455906038
 10
140.3291790594
 20
127.4795801803
 10
140.3769560274
 20
127.5004751484
 10
140.4267494485
 20
127.5184341226
 10
140.4769132537
 20
127.5329866448
 10
140.5274190447
 20
127.5440051429
 10
140.5782952197
 20
127.5516171889
 10
140.6279809051
 20
127.5557350408
 10
140.6763358594
 20
127.5562732363
 10
140.7235003241
 20
127.5533172376
 10
140.7683341491
 20
127.5470356894
  0
LINE
  5
24F
100
AcDbEntity
  8
26814000
100
AcDbLine
 62
7
  6
CONTINUOUS
 10
140.8775103895
 20
125.2506538378
 11
141.3766061223
 21
125.5008505109
  0
LINE
  5
250
100
AcDbEntity
  8
26814000
100
AcDbLine
 62
7
  6
CONTINUOUS
 10
141.3766061223
 20
125.5008505109
 11
146.7908788175
 21
128.2008661213
  0
LINE
  5
251
100
AcDbEntity
  8
26814000
100
AcDbLine
 62
7
  6
CONTINUOUS
 10
146.1849322344
 20
128.5026140792
 11
141.4473168004
 21
126.1675635646
  0
LWPOLYLINE
  5
252
100
AcDbEntity
  8
26814000
100
AcDbPolyline
 62
7
  6
CONTINUOUS
 90
18
 70
0
 10
147.4638950329
 20
128.2463660501
 10
147.4922695537
 20
128.2595480069
 10
147.5205040057
 20
128.2712823987
 10
147.5485983889
 20
128.2815692254
 10
147.576602702
 20
128.29042136
 10
147.6044669462
 20
128.2978259295
 10
147.6320411259
 20
128.3037443151
 10
147.6593102545
 20
128.3081677364
 10
147.6862893185
 20
128.3111049737
 10
147.7128732811
 20
128.3125437497
 10
147.73907824
 20
128.3124766131
 10
147.7648880975
 20
128.3109110151
 10
147.7901495238
 20
128.3078570317
 10
147.8148392771
 20
128.3033112473
 10
147.8389805992
 20
128.2972770775
 10
147.8624898855
 20
128.2897748447
 10
147.8853856657
 20
128.2807894301
 10
147.90494775
 20
128.271699697
  0
LWPOLYLINE
  5
253
100
AcDbEntity
  8
21814000
100
AcDbPolyline
 62
253
  6
CONTINUOUS
 90
9
 70
0
 10
154.0816909864
 20
130.7830481373
 10
154.1356973879
 20
130.8060796533
 10
154.189417461
 20
130.8233212899
 10
154.2424533055
 20
130.8345860614
 10
154.2944392308
 20
130.839729978
 10
154.3449404806
 20
130.838641839
 10
154.3934686168
 20
130.8312864438
 10
154.4396509095
 20
130.8176922943
 10
154.4730619999
 20
130.803182423
  0
LWPOLYLINE
  5
254
100
AcDbEntity
  8
21814000
100
AcDbPolyline
 62
7
  6
CONTINUOUS
 90
12
 70
0
 10
153.6932335038
 20
130.815262473
 10
153.7588609799
 20
130.8424821226
 10
153.8275598105
 20
130.864757892
 10
153.898867293
 20
130.8816572742
 10
153.9724239425
 20
130.8928215987
 10
154.0474519248
 20
130.8978933215
 10
154.1228378823
 20
130.8966724747
 10
154.198023391
 20
130.8891223397
 10
154.2723808225
 20
130.8752757082
 10
154.3449021939
 20
130.8553660914
 10
154.4152542255
 20
130.8295766406
 10
154.4730943545
 20
130.8031662455
  0
LWPOLYLINE
  5
255
100
AcDbEntity
  8
21814000
100
AcDbPolyline
 62
253
  6
CONTINUOUS
 90
9
 70
0
 10
153.6932335038
 20
130.815262473
 10
153.7211461293
 20
130.8266614525
 10
153.7676605423
 20
130.8396405055
 10
153.816479495
 20
130.8462180988
 10
153.8672315895
 20
130.8463441924
 10
153.9195307215
 20
130.8400178269
 10
153.9729790173
 20
130.8272871313
 10
154.0271698606
 20
130.8082489561
 10
154.0816909864
 20
130.7830481373
  0
LINE
  5
256
100
AcDbEntity
  8
RACCORDO
100
AcDbLine
 62
253
  6
CONTINUOUS
 10
162.2362561673
 20
74.3401488945
 11
161.7059260814
 21
74.4499838516
  0
LINE
  5
257
100
AcDbEntity
  8
RACCORDO
100
AcDbLine
 62
253
  6
CONTINUOUS
 10
162.1478678196
 20
74.660231416
 11
161.6175377337
 21
74.7700663731
  0
LWPOLYLINE
  5
258
100
AcDbEntity
  8
RACCORDO
100
AcDbPolyline
 62
7
  6
CONTINUOUS
 90
10
 70
0
 10
152.1825132242
 20
72.2577959677
 10
152.2699432157
 20
72.218786576
 10
152.3609848172
 20
72.1875705913
 10
152.454945532
 20
72.1644810304
 10
152.5516851036
 20
72.1496692323
 10
152.6505271669
 20
72.1434153839
 10
152.7507133489
 20
72.1459263775
 10
152.852128303
 20
72.1574071101
 10
152.9543101171
 20
72.1780448209
 10
153.0515260348
 20
72.2062569553
  0
LWPOLYLINE
  5
259
100
AcDbEntity
  8
RACCORDO
100
AcDbPolyline
 62
253
  6
CONTINUOUS
 90
16
 70
0
 10
151.7899780744
 20
73.1189790545
 10
151.8514862442
 20
73.09120417
 10
151.918392493
 20
73.066482123
 10
151.9899799296
 20
73.0450778067
 10
152.0654815047
 20
73.0272205655
 10
152.1440882294
 20
73.0131017371
 10
152.2249578436
 20
73.0028726032
 10
152.3072238407
 20
72.9966427678
 10
152.390004752
 20
72.9944789824
 10
152.4724135915
 20
72.9964044318
 10
152.55356736
 20
73.0023984851
 10
152.6325965062
 20
73.0123969168
 10
152.7086542439
 20
73.0262925952
 10
152.7809256249
 20
73.0439366299
 10
152.8486362715
 20
73.0651399675
 10
152.9110606735
 20
73.0896754174
  0
LINE
  5
25A
100
AcDbEntity
  8
RACCORDO
100
AcDbLine
 62
7
  6
CONTINUOUS
 10
152.1830146252
 20
72.2575202997
 11
122.1401452045
 21
87.2789550101
  0
LWPOLYLINE
  5
25B
100
AcDbEntity
  8
RACCORDO
100
AcDbPolyline
 62
253
  6
CONTINUOUS
 90
13
 70
0
 10
152.1824062354
 20
72.2578249056
 10
152.1705000644
 20
72.2639702692
 10
152.1053790673
 20
72.3043312989
 10
152.0453867029
 20
72.3534854159
 10
151.990928359
 20
72.4110995144
 10
151.942370381
 20
72.4767835954
 10
151.9000472644
 20
72.550091567
 10
151.864245304
 20
72.6305289988
 10
151.83520706
 20
72.7175490836
 10
151.813135913
 20
72.8105547879
 10
151.7981828303
 20
72.9089117672
 10
151.790446209
 20
73.0119534617
 10
151.7899780502
 20
73.1189790435
  0
LWPOLYLINE
  5
25C
100
AcDbEntity
  8
RACCORDO
100
AcDbPolyline
 62
253
  6
CONTINUOUS
 90
9
 70
0
 10
121.7549558595
 20
88.1365046665
 10
121.6995103576
 20
88.1672064836
 10
121.6507158774
 20
88.2003344916
 10
121.6090952348
 20
88.2355337356
 10
121.5750943805
 20
88.2724270677
 10
121.5490776216
 20
88.3106191892
 10
121.5313237187
 20
88.349700885
 10
121.5220228988
 20
88.3892534085
 10
121.5206228126
 20
88.4178817467
  0
LWPOLYLINE
  5
25D
100
AcDbEntity
  8
RACCORDO
100
AcDbPolyline
 62
7
  6
CONTINUOUS
 90
15
 70
0
 10
121.5206228126
 20
88.4178817467
 10
121.5200377218
 20
88.3909767306
 10
121.5233385344
 20
88.2676200042
 10
121.5363422165
 20
88.1486135331
 10
121.5587231351
 20
88.034549373
 10
121.5901603479
 20
87.9255582403
 10
121.6304556412
 20
87.8217480874
 10
121.6792800505
 20
87.7237456999
 10
121.73621422
 20
87.6321015163
 10
121.8008692635
 20
87.5472353242
 10
121.8726214658
 20
87.4698321596
 10
121.9507483746
 20
87.4005070887
 10
122.0345096065
 20
87.3396805867
 10
122.1230029564
 20
87.2877507281
 10
122.1414846385
 20
87.2783112227
  0
LINE
  5
25E
100
AcDbEntity
  8
RACCORDO
100
AcDbLine
 62
7
  6
CONTINUOUS
 10
121.5206228126
 20
88.4178817467
 11
121.5206296965
 21
88.4181117654
  0
LWPOLYLINE
  5
25F
100
AcDbEntity
  8
RACCORDO
100
AcDbPolyline
 62
253
  6
CONTINUOUS
 90
13
 70
0
 10
124.7634602721
 20
124.6980410873
 10
124.3671769443
 20
121.5984012636
 10
123.9972286418
 20
118.5070594256
 10
123.6536629998
 20
115.4244112322
 10
123.3365243094
 20
112.3508512523
 10
123.0458532283
 20
109.2867729352
 10
122.7816867784
 20
106.232568562
 10
122.5440586307
 20
103.188629249
 10
122.3329993607
 20
100.1553446477
 10
122.1485361663
 20
97.133102917
 10
121.9906926055
 20
94.1222909998
 10
121.8594885907
 20
91.1232945717
 10
121.7549406511
 20
88.136497743
  0
LWPOLYLINE
  5
260
100
AcDbEntity
  8
21814000
100
AcDbPolyline
 62
253
  6
CONTINUOUS
 90
10
 70
0
 10
141.1442670071
 20
128.22694643
 10
141.1495241346
 20
128.2324739355
 10
141.1547586026
 20
128.2372368932
 10
141.159947809
 20
128.2412125216
 10
141.165071247
 20
128.2443824227
 10
141.1701044836
 20
128.2467287509
 10
141.1750196787
 20
128.248237602
 10
141.1797978002
 20
128.2489030642
 10
141.1844160038
 20
128.2487218844
 10
141.1864553187
 20
128.2483602175
  0
LWPOLYLINE
  5
261
100
AcDbEntity
  8
21814000
100
AcDbPolyline
 62
253
  6
CONTINUOUS
 90
10
 70
0
 10
140.8877116361
 20
127.5084063928
 10
140.8686707476
 20
127.4903468276
 10
140.8508226921
 20
127.4696363623
 10
140.8345343957
 20
127.4467007693
 10
140.8201407185
 20
127.422011566
 10
140.8079375704
 20
127.396076321
 10
140.7981758277
 20
127.3694282196
 10
140.7910561754
 20
127.3426151019
 10
140.7867249817
 20
127.3161882009
 10
140.7852712886
 20
127.2906908093
  0
LWPOLYLINE
  5
262
100
AcDbEntity
  8
21814000
100
AcDbPolyline
 62
253
  6
CONTINUOUS
 90
10
 70
0
 10
141.6461172348
 20
127.1292035934
 10
141.6270757823
 20
127.1111433991
 10
141.6092273905
 20
127.0904323387
 10
141.5929389747
 20
127.0674962787
 10
141.5785453739
 20
127.0428068301
 10
141.5663424344
 20
127.0168715933
 10
141.5565809483
 20
126.9902237123
 10
141.5494615401
 20
126.9634110001
 10
141.5451305265
 20
126.9369846836
 10
141.5436768894
 20
126.911488009
  0
LWPOLYLINE
  5
263
100
AcDbEntity
  8
21814000
100
AcDbPolyline
 62
253
  6
CONTINUOUS
 90
16
 70
0
 10
140.3724000723
 20
127.178430384
 10
140.3966294078
 20
127.2012933865
 10
140.4226707359
 20
127.2223126984
 10
140.4502259734
 20
127.241411651
 10
140.4789949007
 20
127.2586424349
 10
140.508652583
 20
127.2738485056
 10
140.5388504197
 20
127.2866692747
 10
140.5692651528
 20
127.2970632844
 10
140.599581928
 20
127.305077695
 10
140.6294698302
 20
127.3105169115
 10
140.6585815741
 20
127.3133938044
 10
140.6866917316
 20
127.3138046688
 10
140.7136612011
 20
127.3116837285
 10
140.7392655742
 20
127.3070485408
 10
140.7632129138
 20
127.3000209254
 10
140.7852712886
 20
127.2906908093
  0
LINE
  5
264
100
AcDbEntity
  8
21814000
100
AcDbLine
 62
253
  6
CONTINUOUS
 10
141.6641362569
 20
126.6674781146
 11
141.2375172181
 21
126.2724633558
  0
LINE
  5
265
100
AcDbEntity
  8
21814000
100
AcDbLine
 62
7
  6
CONTINUOUS
 10
141.5673358859
 20
126.6673178748
 11
141.1747721809
 21
126.3038358744
  0
LINE
  5
266
100
AcDbEntity
  8
21814000
100
AcDbLine
 62
253
  6
CONTINUOUS
 10
140.0036741618
 20
126.8893848839
 11
140.3724000723
 21
127.178430384
  0
LINE
  5
267
100
AcDbEntity
  8
26814000
100
AcDbLine
 62
7
  6
CONTINUOUS
 10
142.5515659658
 20
123.8296234325
 11
144.1343225689
 21
124.6416075299
  0
LINE
  5
268
100
AcDbEntity
  8
26814000
100
AcDbLine
 62
7
  6
CONTINUOUS
 10
140.8775103895
 20
124.036450365
 11
141.3766061223
 21
124.2884149456
  0
LINE
  5
269
100
AcDbEntity
  8
26814000
100
AcDbLine
 62
7
  6
CONTINUOUS
 10
141.3766061223
 20
124.2884149456
 11
146.7908788175
 21
126.9690275429
  0
LINE
  5
26A
100
AcDbEntity
  8
26814000
100
AcDbLine
 62
7
  6
CONTINUOUS
 10
147.4638950329
 20
128.2463660501
 11
146.8775162458
 21
127.9594439825
  0
LINE
  5
26B
100
AcDbEntity
  8
26814000
100
AcDbLine
 62
7
  6
CONTINUOUS
 10
144.1343225689
 20
124.6416075299
 11
144.6687724476
 21
124.9019549964
  0
LINE
  5
26C
100
AcDbEntity
  8
21814000
100
AcDbLine
 62
7
  6
CONTINUOUS
 10
155.0528498201
 20
130.2974687205
 11
151.6224459196
 21
128.6601319075
  0
LINE
  5
26D
100
AcDbEntity
  8
21814000
100
AcDbLine
 62
7
  6
CONTINUOUS
 10
153.6932335038
 20
130.815262473
 11
148.0397636133
 21
128.204302728
  0
LINE
  5
26E
100
AcDbEntity
  8
21814000
100
AcDbLine
 62
253
  6
CONTINUOUS
 10
154.0816909864
 20
130.7830481373
 11
148.259777736
 21
128.0942956667
  0
LINE
  5
26F
100
AcDbEntity
  8
RACCORDO
100
AcDbLine
 62
253
  6
CONTINUOUS
 10
161.600362359
 20
74.7753139202
 11
161.6175377337
 21
74.7700663731
  0
LINE
  5
270
100
AcDbEntity
  8
RACCORDO
100
AcDbLine
 62
253
  6
CONTINUOUS
 10
151.7899780502
 20
73.1189790435
 11
121.7549406511
 21
88.136497743
  0
LINE
  5
271
100
AcDbEntity
  8
21814000
100
AcDbLine
 62
253
  6
CONTINUOUS
 10
141.6972361818
 20
126.7012044963
 11
141.6641362569
 21
126.6674781146
  0
LWPOLYLINE
  5
272
100
AcDbEntity
  8
RACCORDO
100
AcDbPolyline
 62
7
  6
CONTINUOUS
 90
10
 70
0
 10
145.1185346809
 20
122.596312504
 10
145.0901999106
 20
122.5797341372
 10
145.0638684816
 20
122.5592198552
 10
145.0402356776
 20
122.535066652
 10
145.0199629458
 20
122.5077697251
 10
145.0035341146
 20
122.4778718678
 10
144.9912717882
 20
122.4458309977
 10
144.9834458582
 20
122.4120015081
 10
144.9803822749
 20
122.3774063049
 10
144.9803380835
 20
122.3727272625
  0
LWPOLYLINE
  5
273
100
AcDbEntity
  8
RACCORDO
100
AcDbPolyline
 62
253
  6
CONTINUOUS
 90
13
 70
0
 10
145.2303380798
 20
122.5892120572
 10
145.2077773135
 20
122.5761612487
 10
145.1854294592
 20
122.5596548909
 10
145.1636771111
 20
122.5398982203
 10
145.1428591654
 20
122.5171049195
 10
145.1234121174
 20
122.4916528693
 10
145.1058236219
 20
122.4641339505
 10
145.0904305515
 20
122.4350917521
 10
145.0774583971
 20
122.4049705287
 10
145.06713461
 20
122.3743021755
 10
145.0596354318
 20
122.3436207929
 10
145.0550859241
 20
122.3134525542
 10
145.0535613845
 20
122.2843173586
  0
LWPOLYLINE
  5
274
100
AcDbEntity
  8
21814000
100
AcDbPolyline
 62
7
  6
CONTINUOUS
 90
13
 70
0
 10
152.0370234313
 20
127.5845533673
 10
151.9080386132
 20
127.5141996489
 10
151.7891253289
 20
127.4395416003
 10
151.6808564954
 20
127.3609389194
 10
151.5837537454
 20
127.2787703092
 10
151.4982849141
 20
127.1934316531
 10
151.424861785
 20
127.1053341074
 10
151.3638381064
 20
127.014902121
 10
151.3155078866
 20
126.9225713894
 10
151.2801039777
 20
126.8287867568
 10
151.2577969537
 20
126.7340000716
 10
151.2486942883
 20
126.6386680104
 10
151.2484621665
 20
126.6208031289
  0
LINE
  5
275
100
AcDbEntity
  8
26814000
100
AcDbLine
 62
253
  6
CONTINUOUS
 10
146.2747489988
 20
123.3479029607
 11
151.6330757789
 21
126.2388431877
  0
LINE
  5
276
100
AcDbEntity
  8
26814000
100
AcDbLine
 62
253
  6
CONTINUOUS
 10
147.3563875284
 20
123.6830596195
 11
151.5489242113
 21
125.9450293438
  0
LINE
  5
277
100
AcDbEntity
  8
0
100
AcDbLine
 62
7
  6
CONTINUOUS
 10
151.7061925712
 20
126.312651287
 11
152.3569662259
 21
126.6558171031
  0
LINE
  5
278
100
AcDbEntity
  8
RACCORDO
100
AcDbLine
 62
253
  6
CONTINUOUS
 10
152.3568384439
 20
126.6557497162
 11
152.3569662259
 21
126.6558171031
  0
LINE
  5
279
100
AcDbEntity
  8
26814000
100
AcDbLine
 62
253
  6
CONTINUOUS
 10
147.5022846888
 20
123.6375612424
 11
151.5489242113
 21
125.7327701897
  0
LINE
  5
27A
100
AcDbEntity
  8
26814000
100
AcDbLine
 62
7
  6
CONTINUOUS
 10
147.6220508194
 20
123.5776781771
 11
151.6311339237
 21
125.6534417196
  0
LINE
  5
27B
100
AcDbEntity
  8
21814000
100
AcDbLine
 62
7
  6
CONTINUOUS
 10
156.0491794097
 20
129.6259531601
 11
152.0370234313
 21
127.5845533673
  0
LINE
  5
27C
100
AcDbEntity
  8
26814000
100
AcDbLine
 62
7
  6
CONTINUOUS
 10
145.1439885131
 20
121.7850580202
 11
144.6938372535
 21
121.5578026744
  0
LINE
  5
27D
100
AcDbEntity
  8
26814000
100
AcDbLine
 62
7
  6
CONTINUOUS
 10
144.1593873748
 20
123.025712728
 11
145.7606681656
 21
123.8284347315
  0
LINE
  5
27E
100
AcDbEntity
  8
0
100
AcDbLine
 62
7
  6
CONTINUOUS
 10
152.4852536547
 20
126.4327253718
 11
152.9802284016
 21
126.6802127452
  0
LINE
  5
27F
100
AcDbEntity
  8
RACCORDO
100
AcDbLine
 62
7
  6
CONTINUOUS
 10
145.1185346809
 20
122.596312504
 11
147.2398550244
 21
123.6569726757
  0
LINE
  5
280
100
AcDbEntity
  8
RACCORDO
100
AcDbLine
 62
253
  6
CONTINUOUS
 10
145.2303380798
 20
122.5892120572
 11
147.3516584233
 21
123.6498722289
  0
LINE
  5
281
100
AcDbEntity
  8
RACCORDO
100
AcDbLine
 62
7
  6
CONTINUOUS
 10
155.4484063141
 20
126.8607125975
 11
154.136942003
 21
126.204980442
  0
LINE
  5
282
100
AcDbEntity
  8
26814000
100
AcDbLine
 62
7
  6
CONTINUOUS
 10
145.7606681656
 20
123.8284347315
 11
146.2889353374
 21
124.0918735515
  0
LINE
  5
283
100
AcDbEntity
  8
21814000
100
AcDbLine
 62
7
  6
CONTINUOUS
 10
156.0491794097
 20
129.2181018928
 11
152.0370234313
 21
127.2632290851
  0
LINE
  5
284
100
AcDbEntity
  8
21814000
100
AcDbLine
 62
7
  6
CONTINUOUS
 10
152.214925851
 20
125.1539250019
 11
148.2862543568
 21
123.2455764084
  0
LINE
  5
285
100
AcDbEntity
  8
26814000
100
AcDbLine
 62
253
  6
CONTINUOUS
 10
145.6711459557
 20
124.4627456133
 11
150.4429849339
 21
126.7568210996
  0
LINE
  5
286
100
AcDbEntity
  8
26814000
100
AcDbLine
 62
253
  6
CONTINUOUS
 10
145.8987614555
 20
124.3489378633
 11
150.8848258018
 21
126.7460028193
  0
LWPOLYLINE
  5
287
100
AcDbEntity
  8
RACCORDO
100
AcDbPolyline
 62
253
  6
CONTINUOUS
 90
7
 70
0
 10
147.2398550244
 20
123.6569726757
 10
147.2440435897
 20
123.6589393315
 10
147.2632700757
 20
123.6650600518
 10
147.2840089108
 20
123.6672164205
 10
147.3059052478
 20
123.6653715417
 10
147.3285844344
 20
123.6595569815
 10
147.3516584233
 20
123.6498722289
  0
LWPOLYLINE
  5
288
100
AcDbEntity
  8
RACCORDO
100
AcDbPolyline
 62
253
  6
CONTINUOUS
 90
7
 70
0
 10
145.1185346809
 20
122.596312504
 10
145.1227232461
 20
122.5982791597
 10
145.1419497321
 20
122.60439988
 10
145.1626885672
 20
122.6065562488
 10
145.1845849043
 20
122.6047113699
 10
145.2072640908
 20
122.5988968098
 10
145.2303380798
 20
122.5892120572
  0
LWPOLYLINE
  5
289
100
AcDbEntity
  8
RACCORDO
100
AcDbPolyline
 62
7
  6
CONTINUOUS
 90
10
 70
0
 10
156.2969081259
 20
126.436435366
 10
156.3083045902
 20
126.4416040212
 10
156.3195249927
 20
126.4456559176
 10
156.3305693334
 20
126.4485910551
 10
156.3415325923
 20
126.4504095865
 10
156.3523197895
 20
126.4511113589
 10
156.3626459849
 20
126.4506959146
 10
156.3724161986
 20
126.4491631007
 10
156.3817254107
 20
126.44651307
 10
156.390573621
 20
126.4427458224
  0
LWPOLYLINE
  5
28A
100
AcDbEntity
  8
RACCORDO
100
AcDbPolyline
 62
7
  6
CONTINUOUS
 90
8
 70
0
 10
147.2398550244
 20
123.6569726757
 10
147.2681416196
 20
123.6690022409
 10
147.2981288207
 20
123.6775672098
 10
147.3293034036
 20
123.6823643782
 10
147.3612080475
 20
123.6831833608
 10
147.3930929357
 20
123.6799083211
 10
147.4241004664
 20
123.6726400939
 10
147.454060517
 20
123.6614311089
  0
LINE
  5
28B
100
AcDbEntity
  8
26814000
100
AcDbLine
 62
7
  6
CONTINUOUS
 10
144.3818099423
 20
120.6716359211
 11
144.9472886048
 21
120.8693387061
  0
LINE
  5
28C
100
AcDbEntity
  8
RACCORDO
100
AcDbLine
 62
253
  6
CONTINUOUS
 10
162.7665862532
 20
83.1189625153
 11
166.9651963359
 21
83.4151704381
  0
LINE
  5
28D
100
AcDbEntity
  8
RACCORDO
100
AcDbLine
 62
7
  6
CONTINUOUS
 10
166.4975261072
 20
84.0507939348
 11
162.7665862532
 21
83.852142453
  0
LINE
  5
28E
100
AcDbEntity
  8
RACCORDO
100
AcDbLine
 62
7
  6
CONTINUOUS
 10
159.8263557296
 20
72.7929563006
 11
158.4828528453
 21
73.4647077427
  0
LINE
  5
28F
100
AcDbEntity
  8
RACCORDO
100
AcDbLine
 62
253
  6
CONTINUOUS
 10
159.7613824331
 20
72.9281747507
 11
158.4178795489
 21
73.5999261928
  0
LINE
  5
290
100
AcDbEntity
  8
RACCORDO
100
AcDbLine
 62
253
  6
CONTINUOUS
 10
159.7613824331
 20
73.2794887228
 11
158.4178795489
 21
73.9512401649
  0
LINE
  5
291
100
AcDbEntity
  8
RACCORDO
100
AcDbLine
 62
253
  6
CONTINUOUS
 10
159.8497707808
 20
73.5111828966
 11
158.5062678965
 21
74.1829343387
  0
LINE
  5
292
100
AcDbEntity
  8
RACCORDO
100
AcDbLine
 62
253
  6
CONTINUOUS
 10
159.0365979824
 20
74.8230993816
 11
160.3801008667
 21
74.1513479395
  0
LWPOLYLINE
  5
293
100
AcDbEntity
  8
RACCORDO
100
AcDbPolyline
 62
7
  6
CONTINUOUS
 90
7
 70
0
 10
158.4830373474
 20
73.4646157451
 10
158.4716446151
 20
73.4706724181
 10
158.4445589742
 20
73.4883875299
 10
158.4199280411
 20
73.5095128391
 10
158.3981765412
 20
73.5337321148
 10
158.3796686654
 20
73.560720101
 10
158.3647644875
 20
73.5900812457
  0
LINE
  5
294
100
AcDbEntity
  8
26814000
100
AcDbLine
 62
7
  6
CONTINUOUS
 10
128.6133287219
 20
128.5802720366
 11
128.6133287219
 21
128.5558765313
  0
LINE
  5
295
100
AcDbEntity
  8
26814000
100
AcDbLine
 62
7
  6
CONTINUOUS
 10
129.0125220188
 20
129.9535230693
 11
129.0125220188
 21
130.2068944631
  0
LINE
  5
296
100
AcDbEntity
  8
26814000
100
AcDbLine
 62
7
  6
CONTINUOUS
 10
129.4265015202
 20
128.1492901322
 11
129.4265015202
 21
127.9561594466
  0
LWPOLYLINE
  5
297
100
AcDbEntity
  8
RACCORDO
100
AcDbPolyline
 62
7
  6
CONTINUOUS
 90
8
 70
0
 10
145.3840525834
 20
121.1582254841
 10
145.362440449
 20
121.1430288119
 10
145.3421119354
 20
121.1288879469
 10
145.3240091881
 20
121.1166585174
 10
145.3082032212
 20
121.1064724309
 10
145.2944447316
 20
121.0981828675
 10
145.2833743763
 20
121.0920676459
 10
145.2788593315
 20
121.0897633094
  0
LWPOLYLINE
  5
298
100
AcDbEntity
  8
RACCORDO
100
AcDbPolyline
 62
7
  6
CONTINUOUS
 90
4
 70
0
 10
145.4585152529
 20
121.2085322959
 10
145.4321058619
 20
121.1912864656
 10
145.4071087676
 20
121.1742996287
 10
145.3840525834
 20
121.1582254841
  0
LWPOLYLINE
  5
299
100
AcDbEntity
  8
RACCORDO
100
AcDbPolyline
 62
253
  6
CONTINUOUS
 90
13
 70
0
 10
146.573840964
 20
121.917460615
 10
146.5512801978
 20
121.9044098065
 10
146.5289323434
 20
121.8879034487
 10
146.5071799954
 20
121.8681467782
 10
146.4863620497
 20
121.8453534774
 10
146.4669150017
 20
121.8199014272
 10
146.4493265062
 20
121.7923825084
 10
146.4339334358
 20
121.76334031
 10
146.4209612813
 20
121.7332190865
 10
146.4106374942
 20
121.7025507334
 10
146.403138316
 20
121.6718693507
 10
146.3985888084
 20
121.641701112
 10
146.3970642687
 20
121.6125659164
  0
LWPOLYLINE
  5
29A
100
AcDbEntity
  8
RACCORDO
100
AcDbPolyline
 62
253
  6
CONTINUOUS
 90
7
 70
0
 10
148.1648312217
 20
121.2183587255
 10
148.1863928615
 20
121.2306518946
 10
148.2045608773
 20
121.2442470732
 10
148.2190244095
 20
121.2589116441
 10
148.229535983
 20
121.2743946925
 10
148.2359157417
 20
121.2904312992
 10
148.2380545264
 20
121.3067470732
  0
LWPOLYLINE
  5
29B
100
AcDbEntity
  8
26814000
100
AcDbPolyline
 62
7
  6
CONTINUOUS
 90
5
 70
0
 10
151.6313424174
 20
125.6535400308
 10
151.6315768543
 20
125.6536730326
 10
151.6325040902
 20
125.6545007041
 10
151.6330105077
 20
125.6555517754
 10
151.633122253
 20
125.6564960197
  0
LINE
  5
29C
100
AcDbEntity
  8
RACCORDO
100
AcDbLine
 62
253
  6
CONTINUOUS
 10
148.1825041306
 20
120.9036304324
 11
148.1648312217
 21
120.8945362978
  0
LINE
  5
29D
100
AcDbEntity
  8
26814000
100
AcDbLine
 62
253
  6
CONTINUOUS
 10
145.2889768545
 20
121.7125638496
 11
144.1343225689
 21
121.1228955463
  0
LINE
  5
29E
100
AcDbEntity
  8
26814000
100
AcDbLine
 62
253
  6
CONTINUOUS
 10
145.6874448609
 20
121.3628037553
 11
144.3818099423
 21
120.6960314264
  0
LINE
  5
29F
100
AcDbEntity
  8
RACCORDO
100
AcDbLine
 62
253
  6
CONTINUOUS
 10
146.573840964
 20
121.917460615
 11
148.6951613076
 21
122.9781207868
  0
LINE
  5
2A0
100
AcDbEntity
  8
RACCORDO
100
AcDbLine
 62
7
  6
CONTINUOUS
 10
156.2969370218
 20
126.4364498139
 11
155.4180443706
 21
125.9970034883
  0
LINE
  5
2A1
100
AcDbEntity
  8
RACCORDO
100
AcDbLine
 62
253
  6
CONTINUOUS
 10
146.7506176593
 20
121.6125659164
 11
148.8719380029
 21
122.6732260882
  0
LWPOLYLINE
  5
2A2
100
AcDbEntity
  8
RACCORDO
100
AcDbPolyline
 62
7
  6
CONTINUOUS
 90
5
 70
0
 10
145.5609073467
 20
121.266249858
 10
145.5466254034
 20
121.259120918
 10
145.5155766437
 20
121.2425808788
 10
145.4862272193
 20
121.2256519579
 10
145.4585152529
 20
121.2085322959
  0
LINE
  5
2A3
100
AcDbEntity
  8
21814000
100
AcDbLine
 62
253
  6
CONTINUOUS
 10
160.9797280462
 20
126.8201962115
 11
149.305588077
 21
121.0159142198
  0
LINE
  5
2A4
100
AcDbEntity
  8
RACCORDO
100
AcDbLine
 62
7
  6
CONTINUOUS
 10
145.0443702971
 20
120.9734418953
 11
145.2789684065
 21
121.0898042871
  0
LINE
  5
2A5
100
AcDbEntity
  8
RACCORDO
100
AcDbLine
 62
253
  6
CONTINUOUS
 10
145.2675274242
 20
120.9589737916
 11
145.507317339
 21
121.0779086276
  0
LINE
  5
2A6
100
AcDbEntity
  8
RACCORDO
100
AcDbLine
 62
7
  6
CONTINUOUS
 10
145.6774373618
 20
121.3231295856
 11
145.5609085371
 21
121.2662473258
  0
LINE
  5
2A7
100
AcDbEntity
  8
RACCORDO
100
AcDbLine
 62
7
  6
CONTINUOUS
 10
145.6874448609
 20
121.3280155814
 11
145.6774373618
 21
121.3231295856
  0
LINE
  5
2A8
100
AcDbEntity
  8
21814000
100
AcDbLine
 62
7
  6
CONTINUOUS
 10
160.5601848352
 20
127.5438012129
 11
152.967619935
 21
123.8557197409
  0
LINE
  5
2A9
100
AcDbEntity
  8
RACCORDO
100
AcDbLine
 62
253
  6
CONTINUOUS
 10
145.6653241835
 20
121.287257977
 11
145.6839528675
 21
121.2962239799
  0
LINE
  5
2AA
100
AcDbEntity
  8
21814000
100
AcDbLine
 62
7
  6
CONTINUOUS
 10
159.7545128992
 20
127.946637181
 11
156.3333668294
 21
126.3046714526
  0
LINE
  5
2AB
100
AcDbEntity
  8
RACCORDO
100
AcDbLine
 62
253
  6
CONTINUOUS
 10
148.1648312217
 20
120.8945362978
 11
147.4577244405
 21
120.5560994368
  0
LINE
  5
2AC
100
AcDbEntity
  8
RACCORDO
100
AcDbLine
 62
253
  6
CONTINUOUS
 10
148.3037844349
 20
120.6494128474
 11
147.5966776537
 21
120.3109759864
  0
LWPOLYLINE
  5
2AD
100
AcDbEntity
  8
RACCORDO
100
AcDbPolyline
 62
253
  6
CONTINUOUS
 90
5
 70
0
 10
145.5612052832
 20
121.2663924636
 10
145.5681567268
 20
121.2696230594
 10
145.5987754232
 20
121.2803207219
 10
145.6312768038
 20
121.286219396
 10
145.6653241835
 20
121.287257977
  0
LWPOLYLINE
  5
2AE
100
AcDbEntity
  8
RACCORDO
100
AcDbPolyline
 62
253
  6
CONTINUOUS
 90
4
 70
0
 10
145.7055909053
 20
121.2949367637
 10
145.7033976802
 20
121.2939289032
 10
145.6914095557
 20
121.2897764806
 10
145.6786744378
 20
121.2875451523
  0
LWPOLYLINE
  5
2AF
100
AcDbEntity
  8
21814000
100
AcDbPolyline
 62
7
  6
CONTINUOUS
 90
9
 70
0
 10
160.5601848352
 20
127.5438012129
 10
160.6163307129
 20
127.5690642513
 10
160.6695634238
 20
127.5885167437
 10
160.7194338843
 20
127.6021463547
 10
160.765404654
 20
127.6100540422
 10
160.8071966156
 20
127.6122870201
 10
160.8447895257
 20
127.6088300058
 10
160.8778238142
 20
127.5998934016
 10
160.8923857647
 20
127.5935203437
  0
LWPOLYLINE
  5
2B0
100
AcDbEntity
  8
RACCORDO
100
AcDbPolyline
 62
253
  6
CONTINUOUS
 90
8
 70
0
 10
145.2789684359
 20
121.0898043017
 10
145.2946983663
 20
121.0967788849
 10
145.3266277786
 20
121.1063855625
 10
145.3604698881
 20
121.1109010765
 10
145.3958535039
 20
121.1102759959
 10
145.4323906902
 20
121.1045173396
 10
145.46968106
 20
121.0936883719
 10
145.5073159092
 20
121.0779079183
  0
LWPOLYLINE
  5
2B1
100
AcDbEntity
  8
RACCORDO
100
AcDbPolyline
 62
253
  6
CONTINUOUS
 90
13
 70
0
 10
146.7506176593
 20
121.6125659164
 10
146.7266113468
 20
121.6020083064
 10
146.6999095811
 20
121.593011335
 10
146.670906338
 20
121.5857606085
 10
146.6399766309
 20
121.5804075163
 10
146.607687295
 20
121.5771051362
 10
146.5748101696
 20
121.5759552034
 10
146.5419884382
 20
121.5769729988
 10
146.5097182676
 20
121.5801359296
 10
146.4785685435
 20
121.5853870046
 10
146.4490796479
 20
121.5926322741
 10
146.4217552053
 20
121.6017449878
 10
146.3970642687
 20
121.6125659164
  0
LWPOLYLINE
  5
2B2
100
AcDbEntity
  8
RACCORDO
100
AcDbPolyline
 62
253
  6
CONTINUOUS
 90
13
 70
0
 10
146.7506176593
 20
121.2612519443
 10
146.7260313213
 20
121.2504711245
 10
146.698840964
 20
121.2413871165
 10
146.6695118221
 20
121.2341553504
 10
146.6385457253
 20
121.2288995637
 10
146.6064725121
 20
121.2257096843
 10
146.573840964
 20
121.224640292
 10
146.541209416
 20
121.2257096843
 10
146.5091362027
 20
121.2288995637
 10
146.4781701059
 20
121.2341553504
 10
146.448840964
 20
121.2413871165
 10
146.4216506068
 20
121.2504711245
 10
146.3970642687
 20
121.2612519443
  0
LWPOLYLINE
  5
2B3
100
AcDbEntity
  8
RACCORDO
100
AcDbPolyline
 62
253
  6
CONTINUOUS
 90
13
 70
0
 10
147.4577244405
 20
120.8648053349
 10
147.4331381024
 20
120.8540245151
 10
147.4059477452
 20
120.8449405071
 10
147.3766186033
 20
120.837708741
 10
147.3456525065
 20
120.8324529543
 10
147.3135792932
 20
120.8292630749
 10
147.2809477452
 20
120.8281936826
 10
147.2483161971
 20
120.8292630749
 10
147.2162429839
 20
120.8324529543
 10
147.1852768871
 20
120.837708741
 10
147.1559477452
 20
120.8449405071
 10
147.1287573879
 20
120.8540245151
 10
147.1041710499
 20
120.8648053349
  0
LWPOLYLINE
  5
2B4
100
AcDbEntity
  8
RACCORDO
100
AcDbPolyline
 62
253
  6
CONTINUOUS
 90
16
 70
0
 10
147.5966776537
 20
120.3109759864
 10
147.5605273596
 20
120.2956225832
 10
147.5222865338
 20
120.2824663491
 10
147.4819551761
 20
120.2715072842
 10
147.439062355
 20
120.2626937565
 10
147.3940790022
 20
120.256077398
 10
147.3484179127
 20
120.2518131043
 10
147.302102745
 20
120.2499564109
 10
147.2551098406
 20
120.2504517823
 10
147.2087810197
 20
120.2532875074
 10
147.1630878499
 20
120.2585206987
 10
147.1180587635
 20
120.2660942438
 10
147.0751208787
 20
120.2758250939
 10
147.0347499012
 20
120.2876522326
 10
146.9964701252
 20
120.3016366762
 10
146.9602815507
 20
120.3177784248
  0
LWPOLYLINE
  5
2B5
100
AcDbEntity
  8
RACCORDO
100
AcDbPolyline
 62
253
  6
CONTINUOUS
 90
16
 70
0
 10
147.4577244405
 20
120.5560994368
 10
147.4380762003
 20
120.547992968
 10
147.4167439863
 20
120.5409710783
 10
147.3939804327
 20
120.5351086482
 10
147.3700627652
 20
120.5304749806
 10
147.3452521804
 20
120.5271057637
 10
147.319786242
 20
120.5250096689
 10
147.2939616527
 20
120.5242079317
 10
147.2680411726
 20
120.5247075053
 10
147.242210092
 20
120.526494554
 10
147.2167299586
 20
120.5295639267
 10
147.1918998526
 20
120.5338944754
 10
147.1679627637
 20
120.5394465027
 10
147.1451818974
 20
120.5461736497
 10
147.1238335787
 20
120.5540170953
 10
147.1041710499
 20
120.5629018752
  0
LINE
  5
2B6
100
AcDbEntity
  8
RACCORDO
100
AcDbLine
 62
253
  6
CONTINUOUS
 10
148.2855527113
 20
120.9535316565
 11
148.3037844349
 21
120.9608084606
  0
LWPOLYLINE
  5
2B7
100
AcDbEntity
  8
RACCORDO
100
AcDbPolyline
 62
7
  6
CONTINUOUS
 90
18
 70
0
 10
166.4975120909
 20
84.0508390163
 10
166.534453944
 20
84.0495473802
 10
166.5714736089
 20
84.0422349814
 10
166.6096328044
 20
84.0286907796
 10
166.6486812864
 20
84.0091665386
 10
166.6868404819
 20
83.9845515449
 10
166.7238601468
 20
83.9548442789
 10
166.7599905251
 20
83.9200462601
 10
166.7942037761
 20
83.8810513345
 10
166.8266539601
 20
83.8374673182
 10
166.8571870168
 20
83.7896863951
 10
166.8843129241
 20
83.7397789617
 10
166.9078069286
 20
83.6878665578
 10
166.9278937838
 20
83.6338276436
 10
166.9437577283
 20
83.5793679968
 10
166.9551268416
 20
83.5250562099
 10
166.9622730441
 20
83.4703236903
 10
166.9651963359
 20
83.4151704381
  0
LWPOLYLINE
  5
2B8
100
AcDbEntity
  8
RACCORDO
100
AcDbPolyline
 62
253
  6
CONTINUOUS
 90
3
 70
0
 10
162.1709643322
 20
74.6523025544
 10
162.1651274323
 20
74.654949133
 10
162.1478678196
 20
74.660231416
  0
LINE
  5
2B9
100
AcDbEntity
  8
RACCORDO
100
AcDbLine
 62
253
  6
CONTINUOUS
 10
161.5941226825
 20
74.7781537491
 11
161.600362359
 21
74.7753139202
  0
LINE
  5
2BA
100
AcDbEntity
  8
RACCORDO
100
AcDbLine
 62
253
  6
CONTINUOUS
 10
159.1249863301
 20
75.0547935555
 11
160.4684892143
 21
74.3830421133
  0
LINE
  5
2BB
100
AcDbEntity
  8
RACCORDO
100
AcDbLine
 62
7
  6
CONTINUOUS
 10
157.6074110919
 20
75.9306277496
 11
160.2545231746
 21
74.6070717082
  0
LINE
  5
2BC
100
AcDbEntity
  8
DRAFT
100
AcDbLine
 62
7
  6
CONTINUOUS
 10
157.6436943621
 20
76.3715663242
 11
160.6082381253
 21
74.8892944426
  0
LINE
  5
2BD
100
AcDbEntity
  8
RACCORDO
100
AcDbLine
 62
253
  6
CONTINUOUS
 10
161.6112652683
 20
74.7732026058
 11
161.6175377337
 21
74.7700663731
  0
LINE
  5
2BE
100
AcDbEntity
  8
DRAFT
100
AcDbLine
 62
7
  6
CONTINUOUS
 10
157.6854829255
 20
76.879408907
 11
161.0758802197
 21
75.1842102599
  0
LINE
  5
2BF
100
AcDbEntity
  8
RACCORDO
100
AcDbLine
 62
253
  6
CONTINUOUS
 10
161.6023726908
 20
74.9329789804
 11
162.1478678196
 21
74.660231416
  0
LINE
  5
2C0
100
AcDbEntity
  8
RACCORDO
100
AcDbLine
 62
7
  6
CONTINUOUS
 10
161.6023726908
 20
74.93659913
 11
162.1712828709
 21
74.6521440399
  0
LWPOLYLINE
  5
2C1
100
AcDbEntity
  8
RACCORDO
100
AcDbPolyline
 62
253
  6
CONTINUOUS
 90
8
 70
0
 10
158.4828782053
 20
73.4646950675
 10
158.4701417863
 20
73.4723718383
 10
158.454748716
 20
73.4860209663
 10
158.4417765615
 20
73.5031700353
 10
158.4314527744
 20
73.5235146014
 10
158.4239535962
 20
73.5466968058
 10
158.4194040885
 20
73.5723155368
 10
158.4178795489
 20
73.5999261928
  0
LWPOLYLINE
  5
2C2
100
AcDbEntity
  8
RACCORDO
100
AcDbPolyline
 62
253
  6
CONTINUOUS
 90
8
 70
0
 10
159.8261940994
 20
72.7930373106
 10
159.8136446706
 20
72.8006203962
 10
159.7982516002
 20
72.8142695242
 10
159.7852794457
 20
72.8314185932
 10
159.7749556587
 20
72.8517631592
 10
159.7674564805
 20
72.8749453637
 10
159.7629069728
 20
72.9005640947
 10
159.7613824331
 20
72.9281747507
  0
LINE
  5
2C3
100
AcDbEntity
  8
26814000
100
AcDbLine
 62
7
  6
CONTINUOUS
 10
129.7155149731
 20
129.0469638146
 11
129.7155149731
 21
129.4992947903
  0
LINE
  5
2C4
100
AcDbEntity
  8
26814000
100
AcDbLine
 62
7
  6
CONTINUOUS
 10
130.618298481
 20
129.404006232
 11
130.618298481
 21
129.1506348382
  0
LINE
  5
2C5
100
AcDbEntity
  8
26814000
100
AcDbLine
 62
7
  6
CONTINUOUS
 10
131.3295190891
 20
128.2399617566
 11
131.3295190891
 21
128.8771313154
  0
LWPOLYLINE
  5
2C6
100
AcDbEntity
  8
RACCORDO
100
AcDbPolyline
 62
7
  6
CONTINUOUS
 90
13
 70
0
 10
150.7104273286
 20
120.4824228272
 10
150.6877057515
 20
120.4704068805
 10
150.6667662916
 20
120.4577890299
 10
150.6476089487
 20
120.4445692755
 10
150.6301666538
 20
120.4306855786
 10
150.614506476
 20
120.416199978
 10
150.6008296228
 20
120.4012985896
 10
150.5891616863
 20
120.3859760485
 10
150.5794770745
 20
120.3702377197
 10
150.5719002186
 20
120.354285815
 10
150.5664583164
 20
120.3381175783
 10
150.5631241702
 20
120.3217357656
 10
150.5619386033
 20
120.3046353596
  0
LINE
  5
2C7
100
AcDbEntity
  8
21814000
100
AcDbLine
 62
253
  6
CONTINUOUS
 10
161.3186915301
 20
125.6484687051
 11
157.2319754003
 21
123.5325094869
  0
LINE
  5
2C8
100
AcDbEntity
  8
RACCORDO
100
AcDbLine
 62
7
  6
CONTINUOUS
 10
157.0036659865
 20
122.9906214377
 11
152.4074719088
 21
120.6925243988
  0
LINE
  5
2C9
100
AcDbEntity
  8
RACCORDO
100
AcDbLine
 62
7
  6
CONTINUOUS
 10
149.7081235455
 20
120.8146464855
 11
155.9731265302
 21
123.9221341521
  0
LINE
  5
2CA
100
AcDbEntity
  8
RACCORDO
100
AcDbLine
 62
7
  6
CONTINUOUS
 10
150.7104273286
 20
120.4824228272
 11
156.3978150414
 21
123.2935469102
  0
LINE
  5
2CB
100
AcDbEntity
  8
DRAFT
100
AcDbLine
 62
7
  6
CONTINUOUS
 10
153.6618398839
 20
120.0653404113
 11
157.3572193771
 21
121.8340303305
  0
LINE
  5
2CC
100
AcDbEntity
  8
DRAFT
100
AcDbLine
 62
7
  6
CONTINUOUS
 10
157.8135695541
 20
78.4360033159
 11
161.0758802197
 21
76.8048479831
  0
LINE
  5
2CD
100
AcDbEntity
  8
RACCORDO
100
AcDbLine
 62
253
  6
CONTINUOUS
 10
162.1702184297
 20
74.6466886288
 11
162.1478678196
 21
74.660231416
  0
LINE
  5
2CE
100
AcDbEntity
  8
26814000
100
AcDbLine
 62
7
  6
CONTINUOUS
 10
132.3963500012
 20
128.7785430061
 11
132.3963500012
 21
130.5105938137
  0
LINE
  5
2CF
100
AcDbEntity
  8
26814000
100
AcDbLine
 62
7
  6
CONTINUOUS
 10
133.0993429555
 20
130.6459153115
 11
133.0993429555
 21
130.3849863351
  0
LINE
  5
2D0
100
AcDbEntity
  8
26814000
100
AcDbLine
 62
7
  6
CONTINUOUS
 10
146.3757870006
 20
123.4708759649
 11
146.0328243985
 21
123.0534573628
  0
LINE
  5
2D1
100
AcDbEntity
  8
21814000
100
AcDbLine
 62
253
  6
CONTINUOUS
 10
158.6543315936
 20
122.8213313903
 11
158.6676748454
 21
122.8282400612
  0
LINE
  5
2D2
100
AcDbEntity
  8
21814000
100
AcDbLine
 62
253
  6
CONTINUOUS
 10
160.7519674047
 20
123.4948430868
 11
160.4025831523
 21
123.3139440946
  0
LINE
  5
2D3
100
AcDbEntity
  8
21814000
100
AcDbLine
 62
253
  6
CONTINUOUS
 10
159.8490490629
 20
121.8281701777
 11
160.7519674047
 21
122.2956698346
  0
LINE
  5
2D4
100
AcDbEntity
  8
0
100
AcDbLine
 62
7
  6
CONTINUOUS
 10
157.9848222076
 20
121.3089928097
 11
154.5796786473
 21
119.6064210296
  0
LINE
  5
2D5
100
AcDbEntity
  8
RACCORDO
100
AcDbLine
 62
7
  6
CONTINUOUS
 10
159.137327045
 20
122.3400338947
 11
154.0153932745
 21
119.888563716
  0
LINE
  5
2D6
100
AcDbEntity
  8
26814000
100
AcDbLine
 62
7
  6
CONTINUOUS
 10
134.5741070042
 20
128.2525298743
 11
134.5741070042
 21
127.0377964881
  0
LINE
  5
2D7
100
AcDbEntity
  8
26814000
100
AcDbLine
 62
253
  6
CONTINUOUS
 10
134.6619749699
 20
128.1460209175
 11
134.6619749699
 21
126.9310660514
  0
LWPOLYLINE
  5
2D8
100
AcDbEntity
  8
21814000
100
AcDbPolyline
 62
7
  6
CONTINUOUS
 90
9
 70
0
 10
141.6311973018
 20
126.7641996081
 10
141.6296143077
 20
126.7563825305
 10
141.6261919474
 20
126.7461109233
 10
141.6204282088
 20
126.7335545742
 10
141.6121094532
 20
126.7193131548
 10
141.6014308391
 20
126.7042539012
 10
141.5886162848
 20
126.6888845281
 10
141.573773001
 20
126.673434025
 10
141.567336064
 20
126.6673176816
  0
LWPOLYLINE
  5
2D9
100
AcDbEntity
  8
RACCORDO
100
AcDbPolyline
 62
253
  6
CONTINUOUS
 90
5
 70
0
 10
148.3152294845
 20
121.6478372222
 10
148.290779149
 20
121.6126219664
 10
148.2682569105
 20
121.5761013057
 10
148.2475385924
 20
121.5380035397
 10
148.2287483714
 20
121.4986003688
  0
LINE
  5
2DA
100
AcDbEntity
  8
RACCORDO
100
AcDbLine
 62
7
  6
CONTINUOUS
 10
148.9089873017
 20
122.2807689014
 11
148.8876976159
 21
122.2508333469
  0
LWPOLYLINE
  5
2DB
100
AcDbEntity
  8
RACCORDO
100
AcDbPolyline
 62
253
  6
CONTINUOUS
 90
47
 70
0
 10
151.9221849746
 20
126.2195586075
 10
151.9611177489
 20
126.2716006023
 10
152.0104009672
 20
126.3283812797
 10
152.0655346419
 20
126.3839718941
 10
152.1260381202
 20
126.4379144164
 10
152.1919104718
 20
126.4901673159
 10
152.2631526271
 20
126.5407721233
 10
152.3392867248
 20
126.5893954018
 10
152.4203033538
 20
126.6360231444
 10
152.5062119252
 20
126.680669358
 10
152.5965628109
 20
126.7230426271
 10
152.6916130911
 20
126.7632018251
 10
152.7911056856
 20
126.8010880786
 10
152.8938197259
 20
126.8362333517
 10
153.0001605947
 20
126.8686110716
 10
153.1097229093
 20
126.8982478112
 10
153.2200696537
 20
126.9247552534
 10
153.3311741706
 20
126.9479546468
 10
153.4430631173
 20
126.9680247428
 10
153.5533794494
 20
126.9851134786
 10
153.6617699393
 20
126.9990873745
 10
153.7685878146
 20
127.0100799101
 10
153.8725357137
 20
127.0186394613
 10
153.9733715482
 20
127.0247420308
 10
154.0713374064
 20
127.028411616
 10
154.1658621928
 20
127.0302685848
 10
154.2567839329
 20
127.0303344537
 10
154.3442646011
 20
127.0285877062
 10
154.4282190244
 20
127.0255841608
 10
154.5085230978
 20
127.0213653602
 10
154.5853009264
 20
127.0158897617
 10
154.6588396529
 20
127.0095885561
 10
154.7291061865
 20
127.0025025223
 10
154.7961336181
 20
126.9945908814
 10
154.8603083623
 20
126.9861624872
 10
154.9216161091
 20
126.9772518467
 10
154.9800711685
 20
126.9678244529
 10
155.036102885
 20
126.9580856391
 10
155.0897074686
 20
126.9480641173
 10
155.1408887092
 20
126.9377311756
 10
155.1900873215
 20
126.9272060109
 10
155.2373064664
 20
126.9165114717
 10
155.282542983
 20
126.9056247096
 10
155.3262281029
 20
126.8945963759
 10
155.36850557
 20
126.8834433546
 10
155.4092316404
 20
126.8721487618
 10
155.4484063141
 20
126.8607125975
  0
LWPOLYLINE
  5
2DC
100
AcDbEntity
  8
RACCORDO
100
AcDbPolyline
 62
253
  6
CONTINUOUS
 90
10
 70
0
 10
151.8405311051
 20
126.2532162496
 10
151.8428257931
 20
126.2562762603
 10
151.8956884443
 20
126.3169933583
 10
151.9547673147
 20
126.3762525755
 10
152.0198600942
 20
126.4338605087
 10
152.090735926
 20
126.4896339763
 10
152.1672290638
 20
126.5434619119
 10
152.2492204675
 20
126.5952630956
 10
152.3364690645
 20
126.6448807349
 10
152.3568384439
 20
126.6557497162
  0
LINE
  5
2DD
100
AcDbEntity
  8
RACCORDO
100
AcDbLine
 62
253
  6
CONTINUOUS
 10
148.341607917
 20
121.6817470732
 11
148.3152294845
 21
121.6478372222
  0
LWPOLYLINE
  5
2DE
100
AcDbEntity
  8
RACCORDO
100
AcDbPolyline
 62
7
  6
CONTINUOUS
 90
13
 70
0
 10
148.3573502598
 20
121.6106474276
 10
148.3400028873
 20
121.5884248756
 10
148.3232708119
 20
121.5642996167
 10
148.307452083
 20
121.5385657182
 10
148.2927772854
 20
121.5114789241
 10
148.2795373809
 20
121.483491888
 10
148.2680324753
 20
121.4552682782
 10
148.2583753349
 20
121.4272389804
 10
148.250624479
 20
121.3998219751
 10
148.244837236
 20
121.3736849135
 10
148.2409308743
 20
121.3492935935
 10
148.2387354526
 20
121.3268899401
 10
148.2380545264
 20
121.3067470732
  0
LINE
  5
2DF
100
AcDbEntity
  8
RACCORDO
100
AcDbLine
 62
253
  6
CONTINUOUS
 10
148.341607917
 20
121.6817470732
 11
148.8719380029
 21
122.3219121161
  0
LINE
  5
2E0
100
AcDbEntity
  8
RACCORDO
100
AcDbLine
 62
7
  6
CONTINUOUS
 10
148.3573502598
 20
121.6106474276
 11
148.8876803457
 21
122.2508124706
  0
LINE
  5
2E1
100
AcDbEntity
  8
RACCORDO
100
AcDbLine
 62
7
  6
CONTINUOUS
 10
156.9370162339
 20
117.3691283746
 11
162.5592643999
 21
120.212822231
  0
LINE
  5
2E2
100
AcDbEntity
  8
RACCORDO
100
AcDbLine
 62
7
  6
CONTINUOUS
 10
161.9534134548
 20
120.5157477035
 11
157.3572193771
 21
118.2176506647
  0
LINE
  5
2E3
100
AcDbEntity
  8
RACCORDO
100
AcDbLine
 62
7
  6
CONTINUOUS
 10
162.9107814467
 20
119.0572492957
 11
156.9370162339
 21
116.1642075419
  0
LINE
  5
2E4
100
AcDbEntity
  8
RACCORDO
100
AcDbLine
 62
7
  6
CONTINUOUS
 10
162.9093572599
 20
119.9934690263
 11
163.3799677321
 21
120.2187135511
  0
LWPOLYLINE
  5
2E5
100
AcDbEntity
  8
RACCORDO
100
AcDbPolyline
 62
7
  6
CONTINUOUS
 90
12
 70
0
 10
161.9534134548
 20
120.5157477035
 10
161.976699588
 20
120.5264307747
 10
161.999691203
 20
120.5351531763
 10
162.0223882996
 20
120.5419149083
 10
162.044885278
 20
120.546728099
 10
162.0670877381
 20
120.5495806201
 10
162.0887124798
 20
120.5504360868
 10
162.1097521027
 20
120.549268917
 10
162.1302140071
 20
120.5461046928
 10
162.1498371944
 20
120.5409837748
 10
162.1686109208
 20
120.5338810983
 10
162.1770102877
 20
120.5299341933
  0
LWPOLYLINE
  5
2E6
100
AcDbEntity
  8
RACCORDO
100
AcDbPolyline
 62
7
  6
CONTINUOUS
 90
12
 70
0
 10
163.3799677321
 20
120.2187135511
 10
163.4259825036
 20
120.2388607832
 10
163.471377056
 20
120.2551621688
 10
163.5161513893
 20
120.267617708
 10
163.5604872956
 20
120.2762472941
 10
163.6042029829
 20
120.2810310338
 10
163.6467530749
 20
120.2819092474
 10
163.6881229695
 20
120.2788330079
 10
163.7283272689
 20
120.2718512425
 10
163.7668644032
 20
120.2610510521
 10
163.803713487
 20
120.2463846011
 10
163.814805298
 20
120.2410585968
  0
LINE
  5
2E7
100
AcDbEntity
  8
DRAFT
100
AcDbLine
 62
7
  6
CONTINUOUS
 10
166.9651963359
 20
81.773394448
 11
167.6989737909
 21
81.4065057205
  0
LWPOLYLINE
  5
2E8
100
AcDbEntity
  8
RACCORDO
100
AcDbPolyline
 62
253
  6
CONTINUOUS
 90
18
 70
0
 10
145.5249494388
 20
121.136008421
 10
145.5284370583
 20
121.1462258401
 10
145.5324065282
 20
121.156637255
 10
145.5369279169
 20
121.1670755201
 10
145.5420839743
 20
121.1774835761
 10
145.5479313695
 20
121.1878087083
 10
145.5544910695
 20
121.1979828196
 10
145.5617747616
 20
121.2079564198
 10
145.5697880378
 20
121.2176977525
 10
145.5784853691
 20
121.2271259471
 10
145.5877988325
 20
121.2361593273
 10
145.5976844663
 20
121.2447763888
 10
145.608071839
 20
121.2529600511
 10
145.6189031025
 20
121.2607040882
 10
145.6301423315
 20
121.2680232404
 10
145.6416980514
 20
121.274903239
 10
145.6534529691
 20
121.2813169499
 10
145.6653220228
 20
121.2872601903
  0
LWPOLYLINE
  5
2E9
100
AcDbEntity
  8
RACCORDO
100
AcDbPolyline
 62
253
  6
CONTINUOUS
 90
5
 70
0
 10
145.5073189181
 20
121.0779207893
 10
145.5096138701
 20
121.0845238551
 10
145.5118768583
 20
121.0916857903
 10
145.5141646956
 20
121.0994196812
 10
145.5191028868
 20
121.1167717864
  0
LWPOLYLINE
  5
2EA
100
AcDbEntity
  8
RACCORDO
100
AcDbPolyline
 62
253
  6
CONTINUOUS
 90
12
 70
0
 10
146.7506176593
 20
121.2612519443
 10
146.7376727249
 20
121.231971922
 10
146.7219266039
 20
121.2046176319
 10
146.7036283341
 20
121.1796673899
 10
146.6830574228
 20
121.1575484054
 10
146.6605651174
 20
121.1386795818
 10
146.6365817458
 20
121.1234381133
 10
146.6115382767
 20
121.1120928384
 10
146.5858476786
 20
121.1048260172
 10
146.5599520242
 20
121.1017624035
 10
146.5342961962
 20
121.1029540183
 10
146.5243570296
 20
121.1045885625
  0
LWPOLYLINE
  5
2EB
100
AcDbEntity
  8
RACCORDO
100
AcDbPolyline
 62
253
  6
CONTINUOUS
 90
12
 70
0
 10
147.2809477452
 20
121.1514169873
 10
147.2678984016
 20
121.1219310036
 10
147.2520476376
 20
121.0944618824
 10
147.2336666642
 20
121.0694796279
 10
147.213069985
 20
121.0474116936
 10
147.1906100148
 20
121.0286356677
 10
147.1666710499
 20
121.0134728135
 10
147.1416626927
 20
121.0021825714
 10
147.1160128431
 20
120.9949581207
 10
147.0901603771
 20
120.9919230737
 10
147.0645476376
 20
120.9931293609
 10
147.0534702973
 20
120.9950004459
  0
LINE
  5
2EC
100
AcDbEntity
  8
21814000
100
AcDbLine
 62
7
  6
CONTINUOUS
 10
162.5769685617
 20
120.3299744426
 11
162.6420088037
 21
120.372041922
  0
LWPOLYLINE
  5
2ED
100
AcDbEntity
  8
RACCORDO
100
AcDbPolyline
 62
253
  6
CONTINUOUS
 90
13
 70
0
 10
158.5946562442
 20
115.9070529749
 10
158.5715822553
 20
115.8936637386
 10
158.5489030687
 20
115.8767991122
 10
158.5270067317
 20
115.856747654
 10
158.5062678965
 20
115.8338524502
 10
158.4870414105
 20
115.8085052439
 10
158.4696562442
 20
115.7811397329
 10
158.4544098625
 20
115.7522241487
 10
158.4415631353
 20
115.722253245
 10
158.4313358736
 20
115.6917398322
 10
158.4239030687
 20
115.6612060033
 10
158.419391898
 20
115.6311742005
 10
158.4178795489
 20
115.6021582763
  0
LWPOLYLINE
  5
2EE
100
AcDbEntity
  8
RACCORDO
100
AcDbPolyline
 62
7
  6
CONTINUOUS
 90
10
 70
0
 10
158.4830373474
 20
115.9142454194
 10
158.4716446151
 20
115.9081887463
 10
158.4445589742
 20
115.8904736345
 10
158.4199280411
 20
115.8693483254
 10
158.3981765412
 20
115.8451290496
 10
158.3796686654
 20
115.8181410635
 10
158.3647644875
 20
115.7887799187
 10
158.3538042121
 20
115.7575562504
 10
158.3470462843
 20
115.725032966
 10
158.3446564025
 20
115.6906873165
  0
LINE
  5
2EF
100
AcDbEntity
  8
RACCORDO
100
AcDbLine
 62
7
  6
CONTINUOUS
 10
158.4828528453
 20
115.9141534217
 11
160.6041731889
 21
116.9748135935
  0
LINE
  5
2F0
100
AcDbEntity
  8
RACCORDO
100
AcDbLine
 62
253
  6
CONTINUOUS
 10
158.5946562442
 20
115.9070529749
 11
160.7159765877
 21
116.9677131467
  0
LINE
  5
2F1
100
AcDbEntity
  8
RACCORDO
100
AcDbLine
 62
253
  6
CONTINUOUS
 10
159.9381591284
 20
115.2353015328
 11
162.059479472
 21
116.2959617046
  0
LINE
  5
2F2
100
AcDbEntity
  8
RACCORDO
100
AcDbLine
 62
253
  6
CONTINUOUS
 10
160.1149358237
 20
114.9304068342
 11
162.2362561673
 21
115.991067006
  0
LINE
  5
2F3
100
AcDbEntity
  8
RACCORDO
100
AcDbLine
 62
253
  6
CONTINUOUS
 10
159.0464836797
 20
114.6500619822
 11
158.9810968308
 21
114.6187663979
  0
LINE
  5
2F4
100
AcDbEntity
  8
RACCORDO
100
AcDbLine
 62
7
  6
CONTINUOUS
 10
160.6135744941
 20
116.9792720267
 11
160.6040115587
 21
116.9747325835
  0
LWPOLYLINE
  5
2F5
100
AcDbEntity
  8
RACCORDO
100
AcDbPolyline
 62
253
  6
CONTINUOUS
 90
7
 70
0
 10
160.6041985488
 20
116.9748262687
 10
160.6090506254
 20
116.9770799213
 10
160.6284976734
 20
116.9830849234
 10
160.6493156191
 20
116.9850602785
 10
160.6710679671
 20
116.983064601
 10
160.6934158215
 20
116.9772231045
 10
160.7159765877
 20
116.9677131467
  0
LWPOLYLINE
  5
2F6
100
AcDbEntity
  8
RACCORDO
100
AcDbPolyline
 62
253
  6
CONTINUOUS
 90
7
 70
0
 10
158.4830373474
 20
115.9142454194
 10
158.4877302818
 20
115.9164197495
 10
158.5071773299
 20
115.9224247516
 10
158.5279952756
 20
115.9244001067
 10
158.5497476236
 20
115.9224044292
 10
158.5720954779
 20
115.9165629327
 10
158.5946562442
 20
115.9070529749
  0
LINE
  5
2F7
100
AcDbEntity
  8
RACCORDO
100
AcDbLine
 62
7
  6
CONTINUOUS
 10
161.844814848
 20
116.4662961628
 11
166.544168247
 21
118.6366132937
  0
LWPOLYLINE
  5
2F8
100
AcDbEntity
  8
RACCORDO
100
AcDbPolyline
 62
253
  6
CONTINUOUS
 90
13
 70
0
 10
160.1149358237
 20
114.5790928621
 10
160.0903494857
 20
114.5683120422
 10
160.0631591284
 20
114.5592280343
 10
160.0338299865
 20
114.5519962682
 10
160.0028638897
 20
114.5467404815
 10
159.9707906765
 20
114.5435506021
 10
159.9381591284
 20
114.5424812098
 10
159.9055275804
 20
114.5435506021
 10
159.8734543672
 20
114.5467404815
 10
159.8424882703
 20
114.5519962682
 10
159.8131591284
 20
114.5592280343
 10
159.7859687712
 20
114.5683120422
 10
159.7613824331
 20
114.5790928621
  0
LWPOLYLINE
  5
2F9
100
AcDbEntity
  8
RACCORDO
100
AcDbPolyline
 62
253
  6
CONTINUOUS
 90
13
 70
0
 10
160.8220426049
 20
114.1826462527
 10
160.7974562669
 20
114.1718654328
 10
160.7702659096
 20
114.1627814249
 10
160.7409367677
 20
114.1555496588
 10
160.7099706709
 20
114.1502938721
 10
160.6778974577
 20
114.1471039927
 10
160.6452659096
 20
114.1460346004
 10
160.6126343616
 20
114.1471039927
 10
160.5805611483
 20
114.1502938721
 10
160.5495950515
 20
114.1555496588
 10
160.5202659096
 20
114.1627814249
 10
160.4930755524
 20
114.1718654328
 10
160.4684892143
 20
114.1826462527
  0
LWPOLYLINE
  5
2FA
100
AcDbEntity
  8
RACCORDO
100
AcDbPolyline
 62
253
  6
CONTINUOUS
 90
13
 70
0
 10
160.1149358237
 20
114.9304068342
 10
160.0902448872
 20
114.9195859056
 10
160.0629204445
 20
114.9104731919
 10
160.0334315489
 20
114.9032279223
 10
160.0022818248
 20
114.8979768474
 10
159.9700116542
 20
114.8948139165
 10
159.9371899229
 20
114.8937961212
 10
159.9043127974
 20
114.894946054
 10
159.8720234616
 20
114.8982484341
 10
159.8410937544
 20
114.9036015263
 10
159.8120905114
 20
114.9108522527
 10
159.7853887456
 20
114.9198492242
 10
159.7613824331
 20
114.9304068342
  0
LWPOLYLINE
  5
2FB
100
AcDbEntity
  8
RACCORDO
100
AcDbPolyline
 62
253
  6
CONTINUOUS
 90
4
 70
0
 10
161.6681025994
 20
114.2786493784
 10
161.6498707867
 20
114.2713725459
 10
161.6319853399
 20
114.2671358692
 10
161.6147455307
 20
114.2660102391
  0
LINE
  5
2FC
100
AcDbEntity
  8
RACCORDO
100
AcDbLine
 62
253
  6
CONTINUOUS
 10
155.9443077824
 20
111.3159363419
 11
160.0580503482
 21
112.8687760088
  0
LINE
  5
2FD
100
AcDbEntity
  8
DRAFT
100
AcDbLine
 62
7
  6
CONTINUOUS
 10
160.6082381253
 20
112.8295382314
 11
161.0758802197
 21
112.9862191351
  0
LWPOLYLINE
  5
2FE
100
AcDbEntity
  8
RACCORDO
100
AcDbPolyline
 62
253
  6
CONTINUOUS
 90
13
 70
0
 10
161.9471151902
 20
113.495290659
 10
161.9769275368
 20
113.5038685281
 10
161.9878402118
 20
113.5069819457
 10
161.9993113907
 20
113.5103411567
 10
162.0113640287
 20
113.5139381933
 10
162.0239751706
 20
113.5177810233
 10
162.0371497316
 20
113.5220083745
 10
162.0508728357
 20
113.5266004479
 10
162.0651593589
 20
113.5315770425
 10
162.0800588438
 20
113.5371362831
 10
162.0955878045
 20
113.5433442114
 10
162.111729727
 20
113.5501347857
 10
162.1284846111
 20
113.557508006
  0
LINE
  5
2FF
100
AcDbEntity
  8
DRAFT
100
AcDbLine
 62
7
  6
CONTINUOUS
 10
162.7665862532
 20
84.5765454607
 11
164.0759588706
 21
83.921859152
  0
LINE
  5
300
100
AcDbEntity
  8
21814000
100
AcDbLine
 62
7
  6
CONTINUOUS
 10
141.6315448165
 20
126.7691270881
 11
141.631544852
 21
126.7690281118
  0
LINE
  5
301
100
AcDbEntity
  8
21814000
100
AcDbLine
 62
253
  6
CONTINUOUS
 10
140.3724000723
 20
127.178430384
 11
140.3724000723
 21
126.7050219287
  0
LINE
  5
302
100
AcDbEntity
  8
26814000
100
AcDbLine
 62
253
  6
CONTINUOUS
 10
140.4544840379
 20
124.0348115174
 11
140.4544840379
 21
125.2497663835
  0
LINE
  5
303
100
AcDbEntity
  8
21814000
100
AcDbLine
 62
253
  6
CONTINUOUS
 10
140.7852712886
 20
127.2906908093
 11
140.7852712886
 21
126.4985863205
  0
LINE
  5
304
100
AcDbEntity
  8
26814000
100
AcDbLine
 62
7
  6
CONTINUOUS
 10
140.8109206973
 20
128.2877853519
 11
140.8109206973
 21
129.5380562112
  0
LINE
  5
305
100
AcDbEntity
  8
26814000
100
AcDbLine
 62
253
  6
CONTINUOUS
 10
140.8775103895
 20
124.036450365
 11
140.8775103895
 21
125.2506538378
  0
LINE
  5
306
100
AcDbEntity
  8
26814000
100
AcDbLine
 62
7
  6
CONTINUOUS
 10
141.1644740879
 20
128.8087213266
 11
141.1644740879
 21
129.3612795159
  0
LINE
  5
307
100
AcDbEntity
  8
26814000
100
AcDbLine
 62
253
  6
CONTINUOUS
 10
141.235184766
 20
130.9774878134
 11
141.235184766
 21
129.745653632
  0
LINE
  5
308
100
AcDbEntity
  8
26814000
100
AcDbLine
 62
7
  6
CONTINUOUS
 10
141.3230527317
 20
131.0824850274
 11
141.3230527317
 21
129.8501164225
  0
LINE
  5
309
100
AcDbEntity
  8
26814000
100
AcDbLine
 62
7
  6
CONTINUOUS
 10
141.3766061223
 20
125.5008505109
 11
141.3766061223
 21
124.2884149456
  0
LINE
  5
30A
100
AcDbEntity
  8
21814000
100
AcDbLine
 62
253
  6
CONTINUOUS
 10
141.5436768873
 20
126.91148801
 11
141.5436768873
 21
126.6454118247
  0
LINE
  5
30B
100
AcDbEntity
  8
21814000
100
AcDbLine
 62
7
  6
CONTINUOUS
 10
141.6315398879
 20
126.7690699608
 11
141.6311973018
 21
126.7641996081
  0
LWPOLYLINE
  5
30C
100
AcDbEntity
  8
RACCORDO
100
AcDbPolyline
 62
253
  6
CONTINUOUS
 90
3
 70
0
 10
145.5191028868
 20
121.1167717864
 10
145.5218714989
 20
121.1261914756
 10
145.5249494388
 20
121.136008421
  0
LWPOLYLINE
  5
30D
100
AcDbEntity
  8
RACCORDO
100
AcDbPolyline
 62
253
  6
CONTINUOUS
 90
3
 70
0
 10
148.2287483714
 20
121.4986003688
 10
148.212258777
 20
121.4587068946
 10
148.1981031789
 20
121.4183104159
  0
LWPOLYLINE
  5
30E
100
AcDbEntity
  8
RACCORDO
100
AcDbPolyline
 62
253
  6
CONTINUOUS
 90
13
 70
0
 10
159.9381591284
 20
115.2353015328
 10
159.9150851395
 20
115.2219122965
 10
159.892405953
 20
115.2050476701
 10
159.8705096159
 20
115.1849962119
 10
159.8497707808
 20
115.162101008
 10
159.8305442948
 20
115.1367538018
 10
159.8131591284
 20
115.1093882908
 10
159.7979127467
 20
115.0804727066
 10
159.7850660195
 20
115.0505018029
 10
159.7748387578
 20
115.0199883901
 10
159.767405953
 20
114.9894545611
 10
159.7628947823
 20
114.9594227584
 10
159.7613824331
 20
114.9304068342
  0
LWPOLYLINE
  5
30F
100
AcDbEntity
  8
RACCORDO
100
AcDbPolyline
 62
253
  6
CONTINUOUS
 90
7
 70
0
 10
161.5291493861
 20
114.5361996433
 10
161.5507110259
 20
114.5484928123
 10
161.5688790418
 20
114.562087991
 10
161.5833425739
 20
114.5767525619
 10
161.5938541474
 20
114.5922356103
 10
161.6002339061
 20
114.6082722169
 10
161.6023726908
 20
114.624587991
  0
LWPOLYLINE
  5
310
100
AcDbEntity
  8
RACCORDO
100
AcDbPolyline
 62
253
  6
CONTINUOUS
 90
13
 70
0
 10
158.9810968308
 20
114.3073707847
 10
158.9997786757
 20
114.3178274142
 10
159.0181769095
 20
114.3311519743
 10
159.0359697093
 20
114.347111391
 10
159.0528458422
 20
114.3654265014
 10
159.0685101101
 20
114.3857769363
 10
159.0826885126
 20
114.4078067247
 10
159.0951330402
 20
114.4311305203
 10
159.1056260126
 20
114.4553403418
 10
159.113983886
 20
114.4800127097
 10
159.120060464
 20
114.5047160533
 10
159.1237494547
 20
114.5290182603
 10
159.1249863301
 20
114.5524942351
  0
LWPOLYLINE
  5
311
100
AcDbEntity
  8
RACCORDO
100
AcDbPolyline
 62
253
  6
CONTINUOUS
 90
13
 70
0
 10
160.3245997151
 20
113.6356193426
 10
160.3432818077
 20
113.6460761317
 10
160.3616802295
 20
113.6594008864
 10
160.3794731508
 20
113.6753605023
 10
160.3963493361
 20
113.6936757868
 10
160.4120135932
 20
113.7140263485
 10
160.4261919354
 20
113.7360562045
 10
160.4386363639
 20
113.7593799938
 10
160.4491292155
 20
113.7835897318
 10
160.4574869697
 20
113.808261956
 10
160.4635634459
 20
113.8329651078
 10
160.4672523653
 20
113.8572670804
 10
160.4684892143
 20
113.880742793
  0
LWPOLYLINE
  5
312
100
AcDbEntity
  8
RACCORDO
100
AcDbPolyline
 62
253
  6
CONTINUOUS
 90
16
 70
0
 10
158.9810968308
 20
114.6187663979
 10
158.9487852696
 20
114.6013243459
 10
158.9209662509
 20
114.5828184377
 10
158.8976397747
 20
114.5632486734
 10
158.8787000362
 20
114.5423794033
 10
158.8642528402
 20
114.520446277
 10
158.8546156013
 20
114.4981562435
 10
158.8499057589
 20
114.4755268488
 10
158.8500058736
 20
114.452540547
 10
158.8548810423
 20
114.4298516485
 10
158.8646396882
 20
114.407452389
 10
158.8791733881
 20
114.3853505329
 10
158.8981219696
 20
114.3642236841
 10
158.9213653751
 20
114.3442977104
 10
158.9490236622
 20
114.3253467439
 10
158.9810968308
 20
114.3073707847
  0
LINE
  5
313
100
AcDbEntity
  8
RACCORDO
100
AcDbLine
 62
7
  6
CONTINUOUS
 10
161.777337652
 20
114.9956870478
 11
167.6555055587
 21
118.1670934886
  0
LINE
  5
314
100
AcDbEntity
  8
DRAFT
100
AcDbLine
 62
7
  6
CONTINUOUS
 10
162.0128425683
 20
114.6622869741
 11
167.6989737909
 21
117.6063675987
  0
LWPOLYLINE
  5
315
100
AcDbEntity
  8
RACCORDO
100
AcDbPolyline
 62
253
  6
CONTINUOUS
 90
8
 70
0
 10
161.5291493861
 20
114.2123772156
 10
161.546876528
 20
114.2215021866
 10
161.5623657009
 20
114.2314968973
 10
161.5754676603
 20
114.2422332247
 10
161.5860591481
 20
114.2535665193
 10
161.5940552567
 20
114.2653691963
 10
161.599400495
 20
114.2775338642
 10
161.602055447
 20
114.2899102456
  0
LWPOLYLINE
  5
316
100
AcDbEntity
  8
RACCORDO
100
AcDbPolyline
 62
253
  6
CONTINUOUS
 90
24
 70
0
 10
161.6233599164
 20
113.9987015474
 10
161.6330573779
 20
114.0033897782
 10
161.6426638261
 20
114.00836192
 10
161.6521746034
 20
114.0136036416
 10
161.6615670389
 20
114.0190841376
 10
161.6707898177
 20
114.0247874426
 10
161.6797740581
 20
114.0307137191
 10
161.6884576933
 20
114.0368439829
 10
161.6968242015
 20
114.0431610565
 10
161.7048670437
 20
114.0496656253
 10
161.7125339317
 20
114.056360464
 10
161.719799501
 20
114.0632168248
 10
161.7266881073
 20
114.0701873584
 10
161.7331252405
 20
114.0772825172
 10
161.7390860612
 20
114.0844699302
 10
161.7446617426
 20
114.0916462095
 10
161.7497948821
 20
114.0988015589
 10
161.7544497951
 20
114.1059500561
 10
161.7587645984
 20
114.1130393808
 10
161.7627416672
 20
114.1201043235
 10
161.7663789521
 20
114.1271446178
 10
161.7698001773
 20
114.1340628505
 10
161.7729901083
 20
114.140860854
 10
161.778832062
 20
114.1541542135
  0
LWPOLYLINE
  5
317
100
AcDbEntity
  8
RACCORDO
100
AcDbPolyline
 62
253
  6
CONTINUOUS
 90
10
 70
0
 10
160.843984262
 20
112.9642871503
 10
160.8609817986
 20
112.9724590271
 10
160.8779548928
 20
112.9810705282
 10
160.8949035447
 20
112.9901216535
 10
160.9119665761
 20
112.9997504329
 10
160.9290051651
 20
113.0098188365
 10
160.9456028464
 20
113.019912775
 10
160.9617756648
 20
113.0300706874
 10
160.9775075755
 20
113.0402541348
 10
161.0060655135
 20
113.0589617916
  0
LINE
  5
318
100
AcDbEntity
  8
RACCORDO
100
AcDbLine
 62
253
  6
CONTINUOUS
 10
160.8220426049
 20
113.8739403546
 11
161.5291493861
 21
114.2123772156
  0
LINE
  5
319
100
AcDbEntity
  8
RACCORDO
100
AcDbLine
 62
253
  6
CONTINUOUS
 10
160.9127483456
 20
113.663545896
 11
161.6233597105
 21
113.9987006498
  0
LINE
  5
31A
100
AcDbEntity
  8
RACCORDO
100
AcDbLine
 62
253
  6
CONTINUOUS
 10
161.7873262913
 20
114.1733742095
 11
162.4128713025
 21
114.462272607
  0
LINE
  5
31B
100
AcDbEntity
  8
RACCORDO
100
AcDbLine
 62
253
  6
CONTINUOUS
 10
162.1284846111
 20
113.557508006
 11
162.7665862532
 21
113.8522045599
  0
LINE
  5
31C
100
AcDbEntity
  8
RACCORDO
100
AcDbLine
 62
253
  6
CONTINUOUS
 10
160.6082381253
 20
112.8554078693
 11
160.843984262
 21
112.9642871503
  0
LINE
  5
31D
100
AcDbEntity
  8
RACCORDO
100
AcDbLine
 62
253
  6
CONTINUOUS
 10
160.2545231746
 20
113.4654759164
 11
160.502887943
 21
113.5801415212
  0
LWPOLYLINE
  5
31E
100
AcDbEntity
  8
RACCORDO
100
AcDbPolyline
 62
253
  6
CONTINUOUS
 90
4
 70
0
 10
161.1333599835
 20
113.1345339723
 10
161.2132581411
 20
113.1708249106
 10
161.293164338
 20
113.2071250574
 10
161.8525832445
 20
113.4614154814
  0
LWPOLYLINE
  5
31F
100
AcDbEntity
  8
RACCORDO
100
AcDbPolyline
 62
253
  6
CONTINUOUS
 90
14
 70
0
 10
161.8525832445
 20
113.4614154814
 10
161.8585103191
 20
113.4640788117
 10
161.8646185263
 20
113.4667223395
 10
161.8709078662
 20
113.4693460649
 10
161.8773554593
 20
113.4719454512
 10
161.883984185
 20
113.474525035
 10
161.8908626811
 20
113.477098426
 10
161.8979940424
 20
113.479663724
 10
161.905375174
 20
113.4822228292
 10
161.9130654294
 20
113.4847950514
 10
161.9210593219
 20
113.4873741007
 10
161.9293623381
 20
113.4899662669
 10
161.9380502913
 20
113.49260973
 10
161.9471151902
 20
113.495290659
  0
LINE
  5
320
100
AcDbEntity
  8
RACCORDO
100
AcDbLine
 62
253
  6
CONTINUOUS
 10
156.4507858284
 20
110.3146560576
 11
160.5645283942
 21
111.8674957245
  0
LWPOLYLINE
  5
321
100
AcDbEntity
  8
RACCORDO
100
AcDbPolyline
 62
253
  6
CONTINUOUS
 90
13
 70
0
 10
160.1149358237
 20
73.2794887228
 10
160.1018864801
 20
73.2989500611
 10
160.0860357162
 20
73.3195907598
 10
160.0676547428
 20
73.3410576505
 10
160.0470580635
 20
73.362983429
 10
160.0245980933
 20
73.3849929391
 10
160.0006591284
 20
73.4067095919
 10
159.9756507712
 20
73.4277618095
 10
159.9500009216
 20
73.4477893826
 10
159.9241484556
 20
73.4664496338
 10
159.8985357162
 20
73.4834232812
 10
159.8736009443
 20
73.4984199009
 10
159.8497707808
 20
73.5111828966
  0
LWPOLYLINE
  5
322
100
AcDbEntity
  8
26814000
100
AcDbPolyline
 62
7
  6
CONTINUOUS
 90
24
 70
0
 10
143.9221905346
 20
129.8521620599
 10
143.9216173501
 20
129.886634466
 10
143.9199182371
 20
129.920384387
 10
143.9170931956
 20
129.9534118228
 10
143.913132761
 20
129.9857733802
 10
143.9080463979
 20
130.0174124524
 10
143.9018624995
 20
130.0481592189
 10
143.8945798841
 20
130.0779947463
 10
143.8861997334
 20
130.1069379681
 10
143.8767539862
 20
130.134875864
 10
143.8662301277
 20
130.1618220268
 10
143.8546406726
 20
130.1877628638
 10
143.8420551039
 20
130.2125445767
 10
143.828479918
 20
130.2361418781
 10
143.8139086185
 20
130.2585800554
 10
143.7983911984
 20
130.2797811726
 10
143.7819079111
 20
130.2997582626
 10
143.7644785032
 20
130.3184982924
 10
143.7462122086
 20
130.335884228
 10
143.7271235527
 20
130.3518931543
 10
143.70719801
 20
130.3665479864
 10
143.6865012375
 20
130.3798004347
 10
143.6650087229
 20
130.391656296
 10
140.4358074567
 20
132.0062808064
  0
LINE
  5
323
100
AcDbEntity
  8
26814000
100
AcDbLine
 62
7
  6
CONTINUOUS
 10
142.3768401832
 20
123.2713639871
 11
142.3768401832
 21
123.5247353808
  0
LINE
  5
324
100
AcDbEntity
  8
26814000
100
AcDbLine
 62
7
  6
CONTINUOUS
 10
143.0798331375
 20
122.3648047324
 11
143.0798331375
 21
122.8171357081
  0
LINE
  5
325
100
AcDbEntity
  8
26814000
100
AcDbLine
 62
7
  6
CONTINUOUS
 10
143.9221905346
 20
129.8521620599
 11
143.9221905346
 21
129.5813617672
  0
LINE
  5
326
100
AcDbEntity
  8
26814000
100
AcDbLine
 62
7
  6
CONTINUOUS
 10
143.9826166454
 20
122.7218471498
 11
143.9826166454
 21
122.468475756
  0
LINE
  5
327
100
AcDbEntity
  8
26814000
100
AcDbLine
 62
7
  6
CONTINUOUS
 10
144.3818099423
 20
120.6960314264
 11
144.3818099423
 21
120.6716359211
  0
LINE
  5
328
100
AcDbEntity
  8
26814000
100
AcDbLine
 62
7
  6
CONTINUOUS
 10
144.6938372535
 20
121.5578026744
 11
144.6938372535
 21
122.1949722331
  0
LWPOLYLINE
  5
329
100
AcDbEntity
  8
RACCORDO
100
AcDbPolyline
 62
253
  6
CONTINUOUS
 90
6
 70
0
 10
148.1981031789
 20
121.4183104159
 10
148.1862482074
 20
121.3774236339
 10
148.1769662838
 20
121.3368997533
 10
148.1703482152
 20
121.2970231759
 10
148.1663031945
 20
121.2575095
 10
148.1648312217
 20
121.2183587255
  0
LINE
  5
32A
100
AcDbEntity
  8
21814000
100
AcDbLine
 62
253
  6
CONTINUOUS
 10
159.8490490629
 20
122.6153422364
 11
160.4025831523
 21
123.3139440946
  0
LINE
  5
32B
100
AcDbEntity
  8
21814000
100
AcDbLine
 62
253
  6
CONTINUOUS
 10
160.7519674047
 20
122.0800537578
 11
160.1681332972
 21
121.4583903859
  0
LWPOLYLINE
  5
32C
100
AcDbEntity
  8
21814000
100
AcDbPolyline
 62
7
  6
CONTINUOUS
 90
66
 70
0
 10
161.9716406395
 20
120.5753537352
 10
162.0175889183
 20
120.6178780052
 10
162.062131126
 20
120.659674016
 10
162.1052730153
 20
120.7007418133
 10
162.1470088336
 20
120.7410813514
 10
162.1874039093
 20
120.7807749216
 10
162.2264657303
 20
120.819822045
 10
162.2641868087
 20
120.8582232006
 10
162.3006100097
 20
120.8960621167
 10
162.3357460345
 20
120.9333377104
 10
162.3695841818
 20
120.9700510647
 10
162.4021352121
 20
121.0062891568
 10
162.4334172905
 20
121.042052187
 10
162.4634122519
 20
121.077339955
 10
162.4920763618
 20
121.1122388366
 10
162.5194403725
 20
121.1467514176
 10
162.5454735318
 20
121.1808751122
 10
162.570039849
 20
121.2146885399
 10
162.5932083018
 20
121.2482369055
 10
162.6149099125
 20
121.2814750041
 10
162.6348017571
 20
121.3143458405
 10
162.6529599808
 20
121.3469664809
 10
162.6693084385
 20
121.3792198591
 10
162.6832757701
 20
121.4106977807
 10
162.6948152166
 20
121.4414136383
 10
162.7039735371
 20
121.4713540394
 10
162.7103196491
 20
121.500070612
 10
162.7137443048
 20
121.5275229883
 10
162.714356752
 20
121.5537515362
 10
162.7120536523
 20
121.5784289867
 10
162.7066695259
 20
121.6015176049
 10
162.6983698526
 20
121.6230551257
 10
162.687547734
 20
121.6428274851
 10
162.6741269573
 20
121.6607056912
 10
162.6581837352
 20
121.6768187359
 10
162.6403398069
 20
121.6913395305
 10
162.6206753338
 20
121.7042175917
 10
162.5991101545
 20
121.715503403
 10
162.5760255249
 20
121.7255213254
 10
162.5514957467
 20
121.7342997858
 10
162.5254465182
 20
121.7418103575
 10
162.4980361895
 20
121.7482921212
 10
162.4693000845
 20
121.7537766939
 10
162.4392028792
 20
121.7582324587
 10
162.4077969526
 20
121.761803646
 10
162.3751016857
 20
121.7645106373
 10
162.3410976973
 20
121.7663330512
 10
162.3057792227
 20
121.7673539733
 10
162.2691584815
 20
121.767586566
 10
162.2312232541
 20
121.7670176668
 10
162.1919311165
 20
121.7656908746
 10
162.1512876206
 20
121.7636147773
 10
162.1092872146
 20
121.7607807869
 10
162.065870819
 20
121.7572067378
 10
162.0210425714
 20
121.7528983489
 10
161.9747983342
 20
121.7478499014
 10
161.9270666145
 20
121.7420620737
 10
161.8778580219
 20
121.7355402797
 10
161.8271619468
 20
121.7282791054
 10
161.7748750679
 20
121.7202629869
 10
161.7210042788
 20
121.7114969676
 10
161.665542686
 20
121.701976004
 10
161.6083662866
 20
121.6916694026
 10
161.5494337465
 20
121.6805669319
 10
161.4887863999
 20
121.6686788234
 10
161.4264242468
 20
121.6560050768
  0
LINE
  5
32D
100
AcDbEntity
  8
21814000
100
AcDbLine
 62
7
  6
CONTINUOUS
 10
161.9583992863
 20
120.5632573914
 11
161.9716406395
 21
120.5753537352
  0
LWPOLYLINE
  5
32E
100
AcDbEntity
  8
RACCORDO
100
AcDbPolyline
 62
253
  6
CONTINUOUS
 90
14
 70
0
 10
161.0060655135
 20
113.0589617916
 10
161.0309155407
 20
113.0754198069
 10
161.0420846759
 20
113.0826948992
 10
161.0524517838
 20
113.0893795879
 10
161.062278856
 20
113.0955922703
 10
161.07159556
 20
113.1013361328
 10
161.0803722283
 20
113.106607989
 10
161.0887818511
 20
113.111516678
 10
161.0968271889
 20
113.1160624055
 10
161.1045054812
 20
113.1202449656
 10
161.111981436
 20
113.1241725802
 10
161.1193099559
 20
113.1278813231
 10
161.1264361385
 20
113.1313351205
 10
161.1333599835
 20
113.1345339723
  0
LINE
  5
32F
100
AcDbEntity
  8
DRAFT
100
AcDbLine
 62
7
  6
CONTINUOUS
 10
159.0423976389
 20
93.369544374
 11
159.3132292486
 21
93.2341285692
  0
LWPOLYLINE
  5
330
100
AcDbEntity
  8
RACCORDO
100
AcDbPolyline
 62
7
  6
CONTINUOUS
 90
6
 70
0
 10
162.2733054661
 20
74.5580688046
 10
162.2535737114
 20
74.5861044333
 10
162.2302335483
 20
74.6111380237
 10
162.2036953873
 20
74.6327469777
 10
162.1744017559
 20
74.6505566964
 10
162.1709643322
 20
74.6523025544
  0
LWPOLYLINE
  5
331
100
AcDbEntity
  8
RACCORDO
100
AcDbPolyline
 62
253
  6
CONTINUOUS
 90
13
 70
0
 10
160.6452659096
 20
73.9196537657
 10
160.632216566
 20
73.9391151041
 10
160.6163658021
 20
73.9597558027
 10
160.5979848287
 20
73.9812226935
 10
160.5773881494
 20
74.003148472
 10
160.5549281792
 20
74.025157982
 10
160.5309892143
 20
74.0468746348
 10
160.5059808571
 20
74.0679268524
 10
160.4803310075
 20
74.0879544255
 10
160.4544785415
 20
74.1066146768
 10
160.4288658021
 20
74.1235883242
 10
160.4039310302
 20
74.1385849439
 10
160.3801008667
 20
74.1513479395
  0
LWPOLYLINE
  5
332
100
AcDbEntity
  8
RACCORDO
100
AcDbPolyline
 62
7
  6
CONTINUOUS
 90
10
 70
0
 10
144.9803380798
 20
122.0213917341
 10
144.9826053301
 20
121.9878039475
 10
144.9894428661
 20
121.9545390966
 10
145.0008035165
 20
121.9223266834
 10
145.0165120856
 20
121.8918601717
 10
145.0362438404
 20
121.863824543
 10
145.0595840034
 20
121.8387909526
 10
145.0861221645
 20
121.8171819986
 10
145.1154157959
 20
121.7993722799
 10
145.1188532195
 20
121.7976264219
  0
LINE
  5
333
100
AcDbEntity
  8
RACCORDO
100
AcDbLine
 62
253
  6
CONTINUOUS
 10
145.6877782425
 20
121.3148389705
 11
145.687444861
 21
121.3210500199
  0
LINE
  5
334
100
AcDbEntity
  8
RACCORDO
100
AcDbLine
 62
7
  6
CONTINUOUS
 10
144.9138124735
 20
120.7026206952
 11
144.9138124735
 21
120.6767510573
  0
LINE
  5
335
100
AcDbEntity
  8
RACCORDO
100
AcDbLine
 62
7
  6
CONTINUOUS
 10
144.9803380798
 20
122.0213917341
 11
144.9803380798
 21
122.3727057062
  0
LINE
  5
336
100
AcDbEntity
  8
RACCORDO
100
AcDbLine
 62
253
  6
CONTINUOUS
 10
145.0535613845
 20
121.9330033865
 11
145.0535613845
 21
122.2843173586
  0
LINE
  5
337
100
AcDbEntity
  8
26814000
100
AcDbLine
 62
7
  6
CONTINUOUS
 10
145.1949827407
 20
120.5361659237
 11
145.1949827407
 21
120.3003098125
  0
LINE
  5
338
100
AcDbEntity
  8
DRAFT
100
AcDbLine
 62
7
  6
CONTINUOUS
 10
145.3654091947
 20
120.4509526967
 11
145.3654091947
 21
120.2150965856
  0
LINE
  5
339
100
AcDbEntity
  8
RACCORDO
100
AcDbLine
 62
7
  6
CONTINUOUS
 10
145.6874448609
 20
121.3209908496
 11
145.6874448609
 21
121.5133298463
  0
LINE
  5
33A
100
AcDbEntity
  8
RACCORDO
100
AcDbLine
 62
253
  6
CONTINUOUS
 10
145.7606681656
 20
121.2346533173
 11
145.7606681656
 21
121.476718194
  0
LINE
  5
33B
100
AcDbEntity
  8
26814000
100
AcDbLine
 62
7
  6
CONTINUOUS
 10
145.7606681656
 20
122.9173792463
 11
145.7606681656
 21
123.8284347315
  0
LINE
  5
33C
100
AcDbEntity
  8
RACCORDO
100
AcDbLine
 62
253
  6
CONTINUOUS
 10
146.3970642687
 20
121.6125659164
 11
146.3970642687
 21
121.2612519443
  0
LINE
  5
33D
100
AcDbEntity
  8
26814000
100
AcDbLine
 62
7
  6
CONTINUOUS
 10
146.4636611199
 20
123.9637562293
 11
146.4636611199
 21
123.7028272529
  0
LINE
  5
33E
100
AcDbEntity
  8
RACCORDO
100
AcDbLine
 62
253
  6
CONTINUOUS
 10
146.7506176593
 20
121.6125659164
 11
146.7506176593
 21
121.2612519443
  0
LINE
  5
33F
100
AcDbEntity
  8
26814000
100
AcDbLine
 62
253
  6
CONTINUOUS
 10
146.7908788175
 20
128.2008661213
 11
146.7908788175
 21
126.9690275429
  0
LINE
  5
340
100
AcDbEntity
  8
26814000
100
AcDbLine
 62
7
  6
CONTINUOUS
 10
146.8775162458
 20
128.3052534966
 11
146.8775162458
 21
127.0728850049
  0
LINE
  5
341
100
AcDbEntity
  8
RACCORDO
100
AcDbLine
 62
253
  6
CONTINUOUS
 10
147.1041710499
 20
120.8648053349
 11
147.1041710499
 21
120.5629018752
  0
LWPOLYLINE
  5
342
100
AcDbEntity
  8
RACCORDO
100
AcDbPolyline
 62
7
  6
CONTINUOUS
 90
6
 70
0
 10
145.6874504657
 20
121.3211904395
 10
145.6874307865
 20
121.3191354892
 10
145.6863048754
 20
121.3065937977
 10
145.6838188254
 20
121.2956329985
 10
145.6805995107
 20
121.2867610506
 10
145.6781337074
 20
121.2816878813
  0
LWPOLYLINE
  5
343
100
AcDbEntity
  8
RACCORDO
100
AcDbPolyline
 62
253
  6
CONTINUOUS
 90
13
 70
0
 10
145.7606681656
 20
121.2346533173
 10
145.7594312812
 20
121.2111772532
 10
145.7557422658
 20
121.1868749652
 10
145.7496656523
 20
121.162171554
 10
145.7413077364
 20
121.1374991334
 10
145.73081472
 20
121.1132892788
 10
145.7183701554
 20
121.0899654779
 10
145.7041917294
 20
121.0679357109
 10
145.6885274555
 20
121.047585319
 10
145.67165134
 20
121.0292702704
 10
145.6538585841
 20
121.013310926
 10
145.6354604194
 20
120.9999864373
 10
145.6167786664
 20
120.9895298669
  0
LWPOLYLINE
  5
344
100
AcDbEntity
  8
RACCORDO
100
AcDbPolyline
 62
253
  6
CONTINUOUS
 90
13
 70
0
 10
147.1041710499
 20
120.5629018752
 10
147.1029341745
 20
120.5394259004
 10
147.0992451837
 20
120.5151236934
 10
147.0931686058
 20
120.4904203498
 10
147.0848107324
 20
120.465747982
 10
147.07431776
 20
120.4415381604
 10
147.0618732324
 20
120.4182143648
 10
147.0476948299
 20
120.3961845764
 10
147.032030562
 20
120.3758341415
 10
147.015154429
 20
120.3575190311
 10
146.9973616293
 20
120.3415596144
 10
146.9789633955
 20
120.3282350543
 10
146.9602815507
 20
120.3177784248
  0
LWPOLYLINE
  5
345
100
AcDbEntity
  8
RACCORDO
100
AcDbPolyline
 62
253
  6
CONTINUOUS
 90
8
 70
0
 10
148.2380545264
 20
120.9781138521
 10
148.237715573
 20
120.971867021
 10
148.2350192428
 20
120.9595011543
 10
148.2296428945
 20
120.9473602647
 10
148.2216321649
 20
120.9355911204
 10
148.2110424443
 20
120.9242934793
 10
148.197957792
 20
120.9135915987
 10
148.1825041306
 20
120.9036304324
  0
LWPOLYLINE
  5
346
100
AcDbEntity
  8
RACCORDO
100
AcDbPolyline
 62
253
  6
CONTINUOUS
 90
7
 70
0
 10
148.9451613076
 20
122.4103004638
 10
148.9430225229
 20
122.3939846897
 10
148.9366427641
 20
122.3779480831
 10
148.9261311907
 20
122.3624650347
 10
148.9116676585
 20
122.3478004638
 10
148.8934996426
 20
122.3342052852
 10
148.8719380029
 20
122.3219121161
  0
LWPOLYLINE
  5
347
100
AcDbEntity
  8
RACCORDO
100
AcDbPolyline
 62
253
  6
CONTINUOUS
 90
7
 70
0
 10
148.9451613076
 20
122.7616144481
 10
148.9428595633
 20
122.7446912704
 10
148.9362548031
 20
122.7285466024
 10
148.9255486188
 20
122.7130817489
 10
148.9110471658
 20
122.6985801273
 10
148.8930532229
 20
122.6852292445
 10
148.8719380029
 20
122.6732260882
  0
LWPOLYLINE
  5
348
100
AcDbEntity
  8
RACCORDO
100
AcDbPolyline
 62
253
  6
CONTINUOUS
 90
8
 70
0
 10
147.1041710499
 20
120.8648053349
 10
147.1029757491
 20
120.8893425378
 10
147.0994060112
 20
120.9123526162
 10
147.0935101107
 20
120.9335243985
 10
147.0853677796
 20
120.9525715726
 10
147.0750891289
 20
120.9692365581
 10
147.0628131597
 20
120.9832939897
 10
147.0487058835
 20
120.9945537647
  0
LWPOLYLINE
  5
349
100
AcDbEntity
  8
RACCORDO
100
AcDbPolyline
 62
253
  6
CONTINUOUS
 90
13
 70
0
 10
147.4577244405
 20
120.8648053349
 10
147.4562619554
 20
120.9024129625
 10
147.452230676
 20
120.9378258639
 10
147.4456306022
 20
120.9710440391
 10
147.4363756041
 20
121.0022609383
 10
147.4245518117
 20
121.0312831113
 10
147.4104176147
 20
121.0575302073
 10
147.3939355495
 20
121.0809627937
 10
147.3751430798
 20
121.1016203031
 10
147.3544109864
 20
121.1190406825
 10
147.331862863
 20
121.1330699141
 10
147.3073751159
 20
121.1438620157
 10
147.2809477452
 20
121.1514169873
  0
LWPOLYLINE
  5
34A
100
AcDbEntity
  8
RACCORDO
100
AcDbPolyline
 62
253
  6
CONTINUOUS
 90
13
 70
0
 10
147.4577244405
 20
120.5560994368
 10
147.4586121783
 20
120.532728882
 10
147.4619045169
 20
120.5085483383
 10
147.467545115
 20
120.4839715486
 10
147.4754374542
 20
120.4594190288
 10
147.4854464851
 20
120.4353108874
 10
147.4974009347
 20
120.4120596369
 10
147.5110962475
 20
120.3900631105
 10
147.5262980856
 20
120.3696976656
 10
147.5427463288
 20
120.3513117568
 10
147.5601595361
 20
120.3352199584
 10
147.578239763
 20
120.3216975845
 10
147.5966776537
 20
120.3109759864
  0
LWPOLYLINE
  5
34B
100
AcDbEntity
  8
RACCORDO
100
AcDbPolyline
 62
253
  6
CONTINUOUS
 90
13
 70
0
 10
148.1648312217
 20
120.8945362978
 10
148.1657189437
 20
120.8711659231
 10
148.1690112351
 20
120.8469855427
 10
148.174651764
 20
120.8224088896
 10
148.1825440193
 20
120.7978564771
 10
148.1925529623
 20
120.7737484038
 10
148.2045073373
 20
120.7504971657
 10
148.2182026015
 20
120.7285005976
 10
148.2334044253
 20
120.7081350672
 10
148.2498527011
 20
120.6897490342
 10
148.2672659945
 20
120.6736570887
 10
148.2853463591
 20
120.6601345684
 10
148.3037844349
 20
120.6494128474
  0
LINE
  5
34C
100
AcDbEntity
  8
RACCORDO
100
AcDbLine
 62
253
  6
CONTINUOUS
 10
147.4577244405
 20
120.8648053349
 11
147.4577244405
 21
120.5560994368
  0
LINE
  5
34D
100
AcDbEntity
  8
RACCORDO
100
AcDbLine
 62
253
  6
CONTINUOUS
 10
148.1648312217
 20
120.8945362978
 11
148.1648312217
 21
121.2183587255
  0
LINE
  5
34E
100
AcDbEntity
  8
RACCORDO
100
AcDbLine
 62
7
  6
CONTINUOUS
 10
148.2380545264
 20
120.9781138521
 11
148.2380545264
 21
121.3067470732
  0
LINE
  5
34F
100
AcDbEntity
  8
RACCORDO
100
AcDbLine
 62
253
  6
CONTINUOUS
 10
148.8719380029
 20
122.6732260882
 11
148.8719380029
 21
122.3219121161
  0
LINE
  5
350
100
AcDbEntity
  8
RACCORDO
100
AcDbLine
 62
7
  6
CONTINUOUS
 10
148.9451613076
 20
122.7616144359
 11
148.9451613076
 21
122.4103004638
  0
LWPOLYLINE
  5
351
100
AcDbEntity
  8
RACCORDO
100
AcDbPolyline
 62
7
  6
CONTINUOUS
 90
5
 70
0
 10
148.9451613076
 20
122.4103004638
 10
148.9428940572
 20
122.3767126771
 10
148.9360565212
 20
122.3434478263
 10
148.9246958708
 20
122.3112354131
 10
148.9089873017
 20
122.2807689014
  0
LINE
  5
352
100
AcDbEntity
  8
RACCORDO
100
AcDbLine
 62
253
  6
CONTINUOUS
 10
161.7059260814
 20
114.999587991
 11
162.2362561673
 21
115.6397530339
  0
LINE
  5
353
100
AcDbEntity
  8
RACCORDO
100
AcDbLine
 62
7
  6
CONTINUOUS
 10
161.7216684242
 20
114.9284883454
 11
162.2519985101
 21
115.5686533884
  0
LINE
  5
354
100
AcDbEntity
  8
RACCORDO
100
AcDbLine
 62
7
  6
CONTINUOUS
 10
162.7665862532
 20
112.1698666493
 11
166.879513981
 21
116.0830356055
  0
LINE
  5
355
100
AcDbEntity
  8
RACCORDO
100
AcDbLine
 62
253
  6
CONTINUOUS
 10
166.9651963359
 20
116.3314803361
 11
162.7665862532
 21
112.3551515985
  0
LWPOLYLINE
  5
356
100
AcDbEntity
  8
RACCORDO
100
AcDbPolyline
 62
253
  6
CONTINUOUS
 90
5
 70
0
 10
162.2373090192
 20
74.5583212658
 10
162.2245053523
 20
74.5848352195
 10
162.2088691004
 20
74.6086647863
 10
162.1906692833
 20
74.6294009941
 10
162.1702184297
 20
74.6466886288
  0
LWPOLYLINE
  5
357
100
AcDbEntity
  8
RACCORDO
100
AcDbPolyline
 62
7
  6
CONTINUOUS
 90
4
 70
0
 10
158.3647644875
 20
73.5900812457
 10
158.3538042121
 20
73.621304914
 10
158.3470462843
 20
73.6538281985
 10
158.3446564025
 20
73.6881738479
  0
LWPOLYLINE
  5
358
100
AcDbEntity
  8
RACCORDO
100
AcDbPolyline
 62
253
  6
CONTINUOUS
 90
7
 70
0
 10
144.9803380798
 20
122.0213917341
 10
144.9824768644
 20
122.0050759601
 10
144.9888566232
 20
121.9890393535
 10
144.9993681966
 20
121.9735563051
 10
145.0138317288
 20
121.9588917341
 10
145.0319997447
 20
121.9452965555
 10
145.0535613845
 20
121.9330033865
  0
LWPOLYLINE
  5
359
100
AcDbEntity
  8
RACCORDO
100
AcDbPolyline
 62
253
  6
CONTINUOUS
 90
7
 70
0
 10
144.9803380798
 20
122.372705694
 10
144.9823755491
 20
122.3567794433
 10
144.9887014107
 20
122.340644358
 10
144.9992035607
 20
122.325069496
 10
145.0136940999
 20
122.3103250482
 10
145.0319195272
 20
122.2966628268
 10
145.0535613845
 20
122.2843173586
  0
LWPOLYLINE
  5
35A
100
AcDbEntity
  8
RACCORDO
100
AcDbPolyline
 62
7
  6
CONTINUOUS
 90
13
 70
0
 10
150.5619386033
 20
120.3046353596
 10
150.562935411
 20
120.2889628104
 10
150.566080798
 20
120.2725716678
 10
150.5713363663
 20
120.2563880279
 10
150.5787293448
 20
120.240414568
 10
150.5882325044
 20
120.2246486108
 10
150.5997237454
 20
120.2092927227
 10
150.613228721
 20
120.1943521953
 10
150.6287217778
 20
120.179821737
 10
150.6460038556
 20
120.1658880405
 10
150.6650086009
 20
120.1526133365
 10
150.6858023672
 20
120.1399353942
 10
150.7083851543
 20
120.1278542137
  0
LWPOLYLINE
  5
35B
100
AcDbEntity
  8
26814000
100
AcDbPolyline
 62
7
  6
CONTINUOUS
 90
7
 70
0
 10
151.6330757789
 20
126.2388431877
 10
151.6329841708
 20
126.243150989
 10
151.6328450001
 20
126.2474623196
 10
151.6326582667
 20
126.2517771796
 10
151.6324239705
 20
126.2560955689
 10
151.6321421118
 20
126.2604174877
 10
151.6318126903
 20
126.2647429357
  0
LINE
  5
35C
100
AcDbEntity
  8
26814000
100
AcDbLine
 62
7
  6
CONTINUOUS
 10
151.6330757789
 20
126.2388431877
 11
151.6331222495
 21
126.2327058496
  0
LINE
  5
35D
100
AcDbEntity
  8
RACCORDO
100
AcDbLine
 62
7
  6
CONTINUOUS
 10
150.5619385449
 20
119.1050965014
 11
150.5619385449
 21
120.304630909
  0
LINE
  5
35E
100
AcDbEntity
  8
RACCORDO
100
AcDbLine
 62
253
  6
CONTINUOUS
 10
150.7083851543
 20
118.930535178
 11
150.7083851543
 21
120.1278542137
  0
LINE
  5
35F
100
AcDbEntity
  8
26814000
100
AcDbLine
 62
253
  6
CONTINUOUS
 10
151.5489242113
 20
125.9450293438
 11
151.5489242113
 21
125.7327701897
  0
LINE
  5
360
100
AcDbEntity
  8
26814000
100
AcDbLine
 62
7
  6
CONTINUOUS
 10
151.6331222712
 20
126.2326502221
 11
151.6331222712
 21
125.6566870326
  0
LINE
  5
361
100
AcDbEntity
  8
21814000
100
AcDbLine
 62
253
  6
CONTINUOUS
 10
152.0370234313
 20
127.5845533673
 11
152.0370234313
 21
127.2632290851
  0
LWPOLYLINE
  5
362
100
AcDbEntity
  8
26814000
100
AcDbPolyline
 62
7
  6
CONTINUOUS
 90
16
 70
0
 10
151.6331222495
 20
126.2327058496
 10
151.6328877439
 20
126.2191915413
 10
151.6317469678
 20
126.1994263502
 10
151.6297026363
 20
126.1795726996
 10
151.6268114712
 20
126.1596369157
 10
151.623122707
 20
126.1396546793
 10
151.6186627431
 20
126.1196928577
 10
151.6134698848
 20
126.0997721401
 10
151.6075872277
 20
126.0799043887
 10
151.6010266935
 20
126.0601441625
 10
151.5938197903
 20
126.0405070959
 10
151.5860026446
 20
126.0210051313
 10
151.5775787052
 20
126.0016895324
 10
151.5685658138
 20
125.9825868059
 10
151.5590039685
 20
125.9636963121
 10
151.5489242113
 20
125.9450293438
  0
LWPOLYLINE
  5
363
100
AcDbEntity
  8
RACCORDO
100
AcDbPolyline
 62
253
  6
CONTINUOUS
 90
5
 70
0
 10
161.6795476489
 20
114.96567814
 10
161.6550973134
 20
114.9304628842
 10
161.6325750749
 20
114.8939422235
 10
161.6118567569
 20
114.8558444575
 10
161.5930665358
 20
114.8164412866
  0
LWPOLYLINE
  5
364
100
AcDbEntity
  8
RACCORDO
100
AcDbPolyline
 62
7
  6
CONTINUOUS
 90
5
 70
0
 10
162.2519985101
 20
115.5686533884
 10
162.2710840806
 20
115.5950119903
 10
162.2865901529
 20
115.6236392047
 10
162.2982474195
 20
115.6540477433
 10
162.3058648005
 20
115.6857826153
  0
LINE
  5
365
100
AcDbEntity
  8
RACCORDO
100
AcDbLine
 62
253
  6
CONTINUOUS
 10
161.7059260814
 20
114.999587991
 11
161.6795476489
 21
114.96567814
  0
LWPOLYLINE
  5
366
100
AcDbEntity
  8
RACCORDO
100
AcDbPolyline
 62
7
  6
CONTINUOUS
 90
13
 70
0
 10
161.7216684242
 20
114.9284883454
 10
161.7043210517
 20
114.9062657934
 10
161.6875889763
 20
114.8821405345
 10
161.6717702474
 20
114.8564066359
 10
161.6570954498
 20
114.8293198419
 10
161.6438555453
 20
114.8013328057
 10
161.6323506397
 20
114.773109196
 10
161.6226934993
 20
114.7450798982
 10
161.6149426435
 20
114.7176628929
 10
161.6091554004
 20
114.6915258312
 10
161.6052490388
 20
114.6671345112
 10
161.6030536171
 20
114.6447308578
 10
161.6023726908
 20
114.624587991
  0
LINE
  5
367
100
AcDbEntity
  8
21814000
100
AcDbLine
 62
7
  6
CONTINUOUS
 10
151.2484621665
 20
126.6208031289
 11
151.2501415948
 21
126.5910509785
  0
LWPOLYLINE
  5
368
100
AcDbEntity
  8
26814000
100
AcDbPolyline
 62
7
  6
CONTINUOUS
 90
5
 70
0
 10
151.633122253
 20
125.6564960197
 10
151.6331096026
 20
125.6568309554
 10
151.6328151995
 20
125.6583487442
 10
151.6321398645
 20
125.6600654084
 10
151.6310957716
 20
125.6619851123
  0
LINE
  5
369
100
AcDbEntity
  8
21814000
100
AcDbLine
 62
7
  6
CONTINUOUS
 10
152.7197336292
 20
127.1628583863
 11
152.7197336292
 21
127.5958710882
  0
LINE
  5
36A
100
AcDbEntity
  8
0
100
AcDbLine
 62
7
  6
CONTINUOUS
 10
153.6871973417
 20
126.3267282751
 11
153.6871973417
 21
125.8608535087
  0
LINE
  5
36B
100
AcDbEntity
  8
21814000
100
AcDbLine
 62
253
  6
CONTINUOUS
 10
154.1045305226
 20
127.0558434989
 11
154.1045305226
 21
127.5145750651
  0
LINE
  5
36C
100
AcDbEntity
  8
0
100
AcDbLine
 62
7
  6
CONTINUOUS
 10
154.136942003
 20
126.204980442
 11
154.136942003
 21
125.8517948882
  0
LINE
  5
36D
100
AcDbEntity
  8
21814000
100
AcDbLine
 62
253
  6
CONTINUOUS
 10
154.245543444
 20
127.056773777
 11
154.245543444
 21
127.5255709622
  0
LWPOLYLINE
  5
36E
100
AcDbEntity
  8
RACCORDO
100
AcDbPolyline
 62
253
  6
CONTINUOUS
 90
13
 70
0
 10
151.7899780502
 20
73.1189790435
 10
151.8893276339
 20
76.1083750501
 10
152.0162783001
 20
79.1094981525
 10
152.1708135194
 20
82.1219642404
 10
152.352913198
 20
85.1453877291
 10
152.5625539592
 20
88.1793815848
 10
152.7997091497
 20
91.2235573763
 10
153.0643485568
 20
94.277525271
 10
153.3564381466
 20
97.3408943337
 10
153.6759403528
 20
100.4132725557
 10
154.0228143363
 20
103.4942665784
 10
154.3970159875
 20
106.583481742
 10
154.7984976712
 20
109.6805223878
  0
LWPOLYLINE
  5
36F
100
AcDbEntity
  8
RACCORDO
100
AcDbPolyline
 62
253
  6
CONTINUOUS
 90
13
 70
0
 10
152.9110606735
 20
73.0896754174
 10
153.0101708977
 20
76.0717310269
 10
153.1367714306
 20
79.0647185915
 10
153.2908622723
 20
82.0686381114
 10
153.4724702401
 20
85.0838786894
 10
153.6815685168
 20
88.1100512226
 10
153.9180766498
 20
91.1459884021
 10
154.1820053754
 20
94.1916942033
 10
154.4733439574
 20
97.2471646508
 10
154.7919797346
 20
100.3112205091
 10
155.1378751531
 20
103.3834686996
 10
155.5110677667
 20
106.4643023008
 10
155.9115575755
 20
109.5537213128
  0
LWPOLYLINE
  5
370
100
AcDbEntity
  8
RACCORDO
100
AcDbPolyline
 62
253
  6
CONTINUOUS
 90
19
 70
0
 10
154.7984976712
 20
109.6805223878
 10
154.8171521053
 20
109.794508592
 10
154.8428485822
 20
109.909727079
 10
154.8754128514
 20
110.0253930198
 10
154.9146268595
 20
110.1407188336
 10
154.9602227382
 20
110.2549182041
 10
155.0118838355
 20
110.3672116155
 10
155.0692593242
 20
110.4768301394
 10
155.1319610844
 20
110.5830307646
 10
155.199559171
 20
110.6850996097
 10
155.2715978164
 20
110.7823399594
 10
155.3475896609
 20
110.8740887411
 10
155.4270140262
 20
110.959729884
 10
155.5093380128
 20
111.0386795003
 10
155.5940031923
 20
111.1103944698
 10
155.6804215745
 20
111.1743874575
 10
155.7680040405
 20
111.2302216678
 10
155.8561645693
 20
111.277512892
 10
155.9443077824
 20
111.3159363419
  0
LWPOLYLINE
  5
371
100
AcDbEntity
  8
RACCORDO
100
AcDbPolyline
 62
253
  6
CONTINUOUS
 90
19
 70
0
 10
155.9115575755
 20
109.5537213128
 10
155.9203845545
 20
109.6071926034
 10
155.9323557887
 20
109.6605946458
 10
155.947471278
 20
109.7139274401
 10
155.9658802354
 20
109.7675844868
 10
155.987433448
 20
109.8211722854
 10
156.0116832772
 20
109.8735103339
 10
156.0386820111
 20
109.9245438025
 10
156.0683773616
 20
109.9743275211
 10
156.1001648258
 20
110.0218454773
 10
156.1340872013
 20
110.0670490751
 10
156.1701016904
 20
110.1099869104
 10
156.2074753977
 20
110.1497887588
 10
156.2462606767
 20
110.1863996425
 10
156.2864051739
 20
110.2198745392
 10
156.3270189332
 20
110.2495081581
 10
156.3678053028
 20
110.2750654024
 10
156.4090609345
 20
110.2967813689
 10
156.4507858284
 20
110.3146560576
  0
LWPOLYLINE
  5
372
100
AcDbEntity
  8
RACCORDO
100
AcDbPolyline
 62
253
  6
CONTINUOUS
 90
12
 70
0
 10
160.1149358237
 20
114.5790928621
 10
160.1019908893
 20
114.5498128398
 10
160.0862447683
 20
114.5224585497
 10
160.0679464985
 20
114.4975083077
 10
160.0473755872
 20
114.4753893232
 10
160.0248832818
 20
114.4565204996
 10
160.0008999103
 20
114.441279031
 10
159.9758564411
 20
114.4299337562
 10
159.950165843
 20
114.422666935
 10
159.9242701886
 20
114.4196033213
 10
159.8986143607
 20
114.4207949361
 10
159.888675194
 20
114.4224294802
  0
LWPOLYLINE
  5
373
100
AcDbEntity
  8
RACCORDO
100
AcDbPolyline
 62
253
  6
CONTINUOUS
 90
12
 70
0
 10
160.6452659096
 20
114.4692579051
 10
160.632216566
 20
114.4397719214
 10
160.6163658021
 20
114.4123028002
 10
160.5979848287
 20
114.3873205457
 10
160.5773881494
 20
114.3652526114
 10
160.5549281792
 20
114.3464765855
 10
160.5309892143
 20
114.3313137313
 10
160.5059808571
 20
114.3200234892
 10
160.4803310075
 20
114.3127990385
 10
160.4544785415
 20
114.3097639915
 10
160.4288658021
 20
114.3109702787
 10
160.4177884617
 20
114.3128413637
  0
LWPOLYLINE
  5
374
100
AcDbEntity
  8
RACCORDO
100
AcDbPolyline
 62
253
  6
CONTINUOUS
 90
20
 70
0
 10
160.5764508948
 20
113.5867923865
 10
160.5945626884
 20
113.5886426789
 10
160.6137719048
 20
113.5907338161
 10
160.6339504992
 20
113.5931062267
 10
160.6544106297
 20
113.595720479
 10
160.6748004877
 20
113.5985633151
 10
160.6952038656
 20
113.6016797262
 10
160.7155089183
 20
113.6050849858
 10
160.7354446526
 20
113.6087624483
 10
160.7548420814
 20
113.6126926826
 10
160.7737089223
 20
113.6168822137
 10
160.7919356174
 20
113.6213051777
 10
160.8094393986
 20
113.6259379478
 10
160.8263224651
 20
113.6308062
 10
160.8425246732
 20
113.6358846687
 10
160.8579693068
 20
113.6411252444
 10
160.8727359056
 20
113.6465354992
 10
160.886821741
 20
113.6521017107
 10
160.9001623693
 20
113.6577802974
 10
160.9127488778
 20
113.6635452027
  0
LWPOLYLINE
  5
375
100
AcDbEntity
  8
RACCORDO
100
AcDbPolyline
 62
253
  6
CONTINUOUS
 90
5
 70
0
 10
160.5029440044
 20
113.5801371574
 10
160.5156135109
 20
113.5811591615
 10
160.5291567114
 20
113.5823222942
 10
160.5436766098
 20
113.5836364049
 10
160.5764508948
 20
113.5867923865
  0
LINE
  5
376
100
AcDbEntity
  8
RACCORDO
100
AcDbLine
 62
253
  6
CONTINUOUS
 10
162.2470595951
 20
74.5295789684
 11
162.2373090192
 21
74.5583212658
  0
LWPOLYLINE
  5
377
100
AcDbEntity
  8
RACCORDO
100
AcDbPolyline
 62
253
  6
CONTINUOUS
 90
7
 70
0
 10
158.3446562442
 20
74.0396285125
 10
158.3467950288
 20
74.0233127385
 10
158.3531747876
 20
74.0072761319
 10
158.363686361
 20
73.9917930835
 10
158.3781498932
 20
73.9771285125
 10
158.3963179091
 20
73.9635333339
 10
158.4178795489
 20
73.9512401649
  0
LWPOLYLINE
  5
378
100
AcDbEntity
  8
RACCORDO
100
AcDbPolyline
 62
253
  6
CONTINUOUS
 90
7
 70
0
 10
158.3446564025
 20
73.6881738479
 10
158.3466937135
 20
73.6723882776
 10
158.3530195752
 20
73.6562531923
 10
158.3635217251
 20
73.6406783302
 10
158.3780122643
 20
73.6259338824
 10
158.3962376916
 20
73.6122716611
 10
158.4178795489
 20
73.5999261928
  0
LINE
  5
379
100
AcDbEntity
  8
RACCORDO
100
AcDbLine
 62
7
  6
CONTINUOUS
 10
158.2898661673
 20
84.2242784354
 11
158.7912771308
 21
79.5507375339
  0
LINE
  5
37A
100
AcDbEntity
  8
21814000
100
AcDbLine
 62
7
  6
CONTINUOUS
 10
156.0491794097
 20
129.6259531601
 11
156.0491794097
 21
129.2181018928
  0
LINE
  5
37B
100
AcDbEntity
  8
RACCORDO
100
AcDbLine
 62
253
  6
CONTINUOUS
 10
156.2278790068
 20
117.3681072875
 11
156.2278790068
 21
116.1707882518
  0
LINE
  5
37C
100
AcDbEntity
  8
RACCORDO
100
AcDbLine
 62
253
  6
CONTINUOUS
 10
156.9370162339
 20
117.3691283746
 11
156.9370162339
 21
116.1642075419
  0
LINE
  5
37D
100
AcDbEntity
  8
RACCORDO
100
AcDbLine
 62
7
  6
CONTINUOUS
 10
157.3572193771
 20
122.7343854311
 11
157.3572193771
 21
121.8340303305
  0
LWPOLYLINE
  5
37E
100
AcDbEntity
  8
RACCORDO
100
AcDbPolyline
 62
253
  6
CONTINUOUS
 90
6
 70
0
 10
161.5624213433
 20
114.7361513337
 10
161.5505663718
 20
114.6952645517
 10
161.5412844482
 20
114.6547406711
 10
161.5346663796
 20
114.6148640937
 10
161.5306213589
 20
114.5753504178
 10
161.5291493861
 20
114.5361996433
  0
LWPOLYLINE
  5
37F
100
AcDbEntity
  8
RACCORDO
100
AcDbPolyline
 62
253
  6
CONTINUOUS
 90
3
 70
0
 10
161.5930665358
 20
114.8164412866
 10
161.5765769415
 20
114.7765478124
 10
161.5624213433
 20
114.7361513337
  0
LINE
  5
380
100
AcDbEntity
  8
RACCORDO
100
AcDbLine
 62
253
  6
CONTINUOUS
 10
161.778832062
 20
114.1541542135
 11
161.7873267503
 21
114.1733732359
  0
LWPOLYLINE
  5
381
100
AcDbEntity
  8
RACCORDO
100
AcDbPolyline
 62
253
  6
CONTINUOUS
 90
4
 70
0
 10
159.0354042474
 20
114.6049829739
 10
159.0521381016
 20
114.6067779237
 10
159.0676986573
 20
114.6117622487
 10
159.0699090862
 20
114.6127776894
  0
LWPOLYLINE
  5
382
100
AcDbEntity
  8
RACCORDO
100
AcDbPolyline
 62
253
  6
CONTINUOUS
 90
16
 70
0
 10
154.7985126628
 20
109.6805266768
 10
154.8599627093
 20
109.6520541917
 10
154.9267253262
 20
109.625597288
 10
154.9980851753
 20
109.601439442
 10
155.0732776607
 20
109.5798394967
 10
155.1514971213
 20
109.5610288877
 10
155.2319054627
 20
109.5452091639
 10
155.3136411376
 20
109.5325498279
 10
155.3958283768
 20
109.52318652
 10
155.4775865728
 20
109.5172195649
 10
155.5580397149
 20
109.5147128963
 10
155.636325776
 20
109.5156933724
 10
155.7116059481
 20
109.5201504876
 10
155.7830736305
 20
109.5280364855
 10
155.8499630719
 20
109.5392668705
 10
155.9115575754
 20
109.5537213129
  0
LINE
  5
383
100
AcDbEntity
  8
RACCORDO
100
AcDbLine
 62
253
  6
CONTINUOUS
 10
124.7634602721
 20
124.6980410873
 11
154.7984976712
 21
109.6805223878
  0
LWPOLYLINE
  5
384
100
AcDbEntity
  8
RACCORDO
100
AcDbPolyline
 62
253
  6
CONTINUOUS
 90
10
 70
0
 10
124.7634602984
 20
124.6980410948
 10
124.7079569342
 20
124.7280454082
 10
124.659019449
 20
124.7594387921
 10
124.6171722012
 20
124.7918848709
 10
124.5828635781
 20
124.8250359894
 10
124.5564611919
 20
124.8585369378
 10
124.5382479404
 20
124.892028758
 10
124.528418976
 20
124.9251525895
 10
124.5270796147
 20
124.9575535152
 10
124.5275978056
 20
124.9622140384
  0
LWPOLYLINE
  5
385
100
AcDbEntity
  8
RACCORDO
100
AcDbPolyline
 62
7
  6
CONTINUOUS
 90
6
 70
0
 10
148.2481367115
 20
120.9377524484
 10
148.2450380699
 20
120.9437261499
 10
148.2419116552
 20
120.9520423767
 10
148.2393569918
 20
120.9627238657
 10
148.2380939415
 20
120.9752438152
 10
148.2380489542
 20
120.9782719348
  0
LWPOLYLINE
  5
386
100
AcDbEntity
  8
RACCORDO
100
AcDbPolyline
 62
253
  6
CONTINUOUS
 90
7
 70
0
 10
159.0517630254
 20
75.1431819031
 10
159.05390181
 20
75.1268661291
 10
159.0602815688
 20
75.1108295225
 10
159.0707931422
 20
75.0953464741
 10
159.0852566744
 20
75.0806819031
 10
159.1034246903
 20
75.0670867245
 10
159.1249863301
 20
75.0547935555
  0
LINE
  5
387
100
AcDbEntity
  8
DRAFT
100
AcDbLine
 62
7
  6
CONTINUOUS
 10
159.3132292486
 20
93.2341285692
 11
161.0758802197
 21
76.8048479831
  0
LWPOLYLINE
  5
388
100
AcDbEntity
  8
RACCORDO
100
AcDbPolyline
 62
253
  6
CONTINUOUS
 90
3
 70
0
 10
162.2567892004
 20
74.4673660352
 10
162.253593201
 20
74.4990790112
 10
162.2470595951
 20
74.5295789684
  0
LWPOLYLINE
  5
389
100
AcDbEntity
  8
RACCORDO
100
AcDbPolyline
 62
7
  6
CONTINUOUS
 90
10
 70
0
 10
158.3446562442
 20
115.3392326519
 10
158.3469234945
 20
115.3056448653
 10
158.3537610305
 20
115.2723800144
 10
158.3651216809
 20
115.2401676012
 10
158.38083025
 20
115.2097010895
 10
158.4005620048
 20
115.1816654608
 10
158.4239021678
 20
115.1566318704
 10
158.4504403289
 20
115.1350229164
 10
158.4797339603
 20
115.1172131977
 10
158.483171384
 20
115.1154673397
  0
LWPOLYLINE
  5
38A
100
AcDbEntity
  8
RACCORDO
100
AcDbPolyline
 62
253
  6
CONTINUOUS
 90
8
 70
0
 10
159.0517630262
 20
114.6388805512
 10
159.0521183988
 20
114.6324788307
 10
159.0548439921
 20
114.6200201055
 10
159.0602407618
 20
114.6076909809
 10
159.0682589174
 20
114.5956378395
 10
159.0788447557
 20
114.583961488
 10
159.0919164287
 20
114.5727862084
 10
159.1073467219
 20
114.5622553123
  0
LINE
  5
38B
100
AcDbEntity
  8
21814000
100
AcDbLine
 62
253
  6
CONTINUOUS
 10
158.6680720237
 20
122.81465457
 11
158.6676728466
 21
122.8282389284
  0
LWPOLYLINE
  5
38C
100
AcDbEntity
  8
RACCORDO
100
AcDbPolyline
 62
7
  6
CONTINUOUS
 90
15
 70
0
 10
157.3572193771
 20
122.7343854311
 10
157.3564355441
 20
122.7625130868
 10
157.3541710677
 20
122.7895397111
 10
157.3504259478
 20
122.8154653039
 10
157.3451715486
 20
122.8403911632
 10
157.338436506
 20
122.8642159911
 10
157.3303067277
 20
122.8866358934
 10
157.3207643476
 20
122.9076328735
 10
157.3098272318
 20
122.9272249281
 10
157.2976348871
 20
122.9451621538
 10
157.2841712343
 20
122.9614233525
 10
157.2694523526
 20
122.9760297222
 10
157.2536659865
 20
122.9887949536
 10
157.2367984617
 20
122.9996954622
 10
157.2272628194
 20
123.0048079274
  0
LINE
  5
38D
100
AcDbEntity
  8
RACCORDO
100
AcDbLine
 62
253
  6
CONTINUOUS
 10
158.3446562442
 20
73.6883145282
 11
158.3446564025
 21
73.6881738479
  0
LINE
  5
38E
100
AcDbEntity
  8
RACCORDO
100
AcDbLine
 62
7
  6
CONTINUOUS
 10
158.3446562442
 20
73.6883145404
 11
158.3446562442
 21
74.0396285125
  0
LINE
  5
38F
100
AcDbEntity
  8
RACCORDO
100
AcDbLine
 62
7
  6
CONTINUOUS
 10
158.3446562442
 20
115.3392326519
 11
158.3446562442
 21
115.690546624
  0
LINE
  5
390
100
AcDbEntity
  8
RACCORDO
100
AcDbLine
 62
253
  6
CONTINUOUS
 10
158.4178795489
 20
73.5999261928
 11
158.4178795489
 21
73.9512401649
  0
LINE
  5
391
100
AcDbEntity
  8
RACCORDO
100
AcDbLine
 62
253
  6
CONTINUOUS
 10
158.4178795489
 20
115.2508443043
 11
158.4178795489
 21
115.6021582763
  0
LINE
  5
392
100
AcDbEntity
  8
RACCORDO
100
AcDbLine
 62
7
  6
CONTINUOUS
 10
159.0517630254
 20
75.1431819031
 11
159.0517630254
 21
75.2084517828
  0
LINE
  5
393
100
AcDbEntity
  8
RACCORDO
100
AcDbLine
 62
7
  6
CONTINUOUS
 10
159.0517630254
 20
114.6388324399
 11
159.0517630254
 21
114.8311707641
  0
LINE
  5
394
100
AcDbEntity
  8
RACCORDO
100
AcDbLine
 62
253
  6
CONTINUOUS
 10
159.1249863301
 20
75.0547935555
 11
159.1249863301
 21
75.1718401305
  0
LINE
  5
395
100
AcDbEntity
  8
RACCORDO
100
AcDbLine
 62
253
  6
CONTINUOUS
 10
159.1249863301
 20
114.5524942351
 11
159.1249863301
 21
114.7945591118
  0
LINE
  5
396
100
AcDbEntity
  8
RACCORDO
100
AcDbLine
 62
253
  6
CONTINUOUS
 10
159.7613824331
 20
114.9304068342
 11
159.7613824331
 21
114.5790928621
  0
LINE
  5
397
100
AcDbEntity
  8
RACCORDO
100
AcDbLine
 62
253
  6
CONTINUOUS
 10
159.7613824331
 20
73.2794887228
 11
159.7613824331
 21
72.9281747507
  0
LINE
  5
398
100
AcDbEntity
  8
RACCORDO
100
AcDbLine
 62
7
  6
CONTINUOUS
 10
159.8320931113
 20
121.8215234239
 11
159.8320931113
 21
121.6264104789
  0
LWPOLYLINE
  5
399
100
AcDbEntity
  8
RACCORDO
100
AcDbPolyline
 62
7
  6
CONTINUOUS
 90
6
 70
0
 10
159.0517674396
 20
114.6390639823
 10
159.0515579645
 20
114.6327087509
 10
159.0498894904
 20
114.6204541496
 10
159.0470455768
 20
114.6100592977
 10
159.0437316468
 20
114.6020094488
 10
159.0413772445
 20
114.5976288546
  0
LWPOLYLINE
  5
39A
100
AcDbEntity
  8
RACCORDO
100
AcDbPolyline
 62
253
  6
CONTINUOUS
 90
10
 70
0
 10
158.4178795489
 20
73.9512401649
 10
158.4190385142
 20
73.9765707963
 10
158.4225241262
 20
74.0028656071
 10
158.4283258156
 20
74.0297864378
 10
158.4364163842
 20
74.0570239704
 10
158.4467116991
 20
74.0841620095
 10
158.4590350311
 20
74.1106895368
 10
158.4731919673
 20
74.1362006784
 10
158.4890082839
 20
74.160392443
 10
158.5062678965
 20
74.1829343387
  0
LWPOLYLINE
  5
39B
100
AcDbEntity
  8
21814000
100
AcDbPolyline
 62
253
  6
CONTINUOUS
 90
10
 70
0
 10
161.5712857098
 20
125.9610649718
 10
161.5685793568
 20
125.9261933825
 10
161.5592291443
 20
125.8876543848
 10
161.5432703921
 20
125.8496617471
 10
161.5208218736
 20
125.8124982306
 10
161.4920506624
 20
125.7764404254
 10
161.4571708891
 20
125.7417566928
 10
161.4164421469
 20
125.7087051671
 10
161.3701675607
 20
125.6775318351
 10
161.3186915301
 20
125.6484687051
  0
LINE
  5
39C
100
AcDbEntity
  8
RACCORDO
100
AcDbLine
 62
7
  6
CONTINUOUS
 10
160.5645283942
 20
111.8674957245
 11
157.4527821255
 21
74.0514730915
  0
LWPOLYLINE
  5
39D
100
AcDbEntity
  8
RACCORDO
100
AcDbPolyline
 62
253
  6
CONTINUOUS
 90
4
 70
0
 10
161.6147455307
 20
114.2660102391
 10
161.5984398275
 20
114.2680144906
 10
161.5833410685
 20
114.2731150871
 10
161.5811280232
 20
114.2741767124
  0
LINE
  5
39E
100
AcDbEntity
  8
RACCORDO
100
AcDbLine
 62
7
  6
CONTINUOUS
 10
159.8874583758
 20
114.4226763208
 11
160.4177884617
 21
114.3128413637
  0
LWPOLYLINE
  5
39F
100
AcDbEntity
  8
RACCORDO
100
AcDbPolyline
 62
253
  6
CONTINUOUS
 90
7
 70
0
 10
125.8923321298
 20
126.3419241682
 10
125.8319238956
 20
126.3671611882
 10
125.7716373747
 20
126.3842927391
 10
125.7121328357
 20
126.3931312268
 10
125.6540619671
 20
126.3935798843
 10
125.5980607746
 20
126.3856338302
 10
125.5403269867
 20
126.3676098013
  0
LINE
  5
3A0
100
AcDbEntity
  8
RACCORDO
100
AcDbLine
 62
253
  6
CONTINUOUS
 10
125.8923321298
 20
126.3419241682
 11
155.9443077824
 21
111.3159363419
  0
LWPOLYLINE
  5
3A1
100
AcDbEntity
  8
RACCORDO
100
AcDbPolyline
 62
253
  6
CONTINUOUS
 90
16
 70
0
 10
155.9443077824
 20
111.3159363419
 10
156.002119923
 20
111.2820632914
 10
156.0587589449
 20
111.2407323664
 10
156.1136045396
 20
111.1923962217
 10
156.16605604
 20
111.1375842329
 10
156.2155389993
 20
111.0768966991
 10
156.2615114821
 20
111.0109982681
 10
156.3034699995
 20
110.9406106573
 10
156.3409550232
 20
110.8665047492
 10
156.3735560186
 20
110.7894921491
 10
156.4009159408
 20
110.7104162963
 10
156.4227351448
 20
110.6301432267
 10
156.4387746675
 20
110.5495520881
 10
156.4488588447
 20
110.4695255119
 10
156.4528772347
 20
110.3909399463
 10
156.4507858284
 20
110.3146560576
  0
LWPOLYLINE
  5
3A2
100
AcDbEntity
  8
RACCORDO
100
AcDbPolyline
 62
253
  6
CONTINUOUS
 90
6
 70
0
 10
148.8719380029
 20
122.3219121161
 10
148.8819016364
 20
122.3040863777
 10
148.8887275982
 20
122.288018129
 10
148.8922786569
 20
122.2739925514
 10
148.8924710359
 20
122.2622552119
 10
148.8892750366
 20
122.2530345414
  0
LWPOLYLINE
  5
3A3
100
AcDbEntity
  8
RACCORDO
100
AcDbPolyline
 62
253
  6
CONTINUOUS
 90
7
 70
0
 10
148.341607917
 20
121.6817470732
 10
148.3516325623
 20
121.6637980839
 10
148.3584609849
 20
121.647668556
 10
148.3619763485
 20
121.6336344701
 10
148.3621185044
 20
121.6219359533
 10
148.3588850202
 20
121.6127731705
 10
148.3573502598
 20
121.6106474276
  0
LWPOLYLINE
  5
3A4
100
AcDbEntity
  8
RACCORDO
100
AcDbPolyline
 62
253
  6
CONTINUOUS
 90
7
 70
0
 10
158.3446562442
 20
115.3392326519
 10
158.3467950288
 20
115.3229168779
 10
158.3531747876
 20
115.3068802713
 10
158.363686361
 20
115.2913972229
 10
158.3781498932
 20
115.2767326519
 10
158.3963179091
 20
115.2631374733
 10
158.4178795489
 20
115.2508443043
  0
LWPOLYLINE
  5
3A5
100
AcDbEntity
  8
RACCORDO
100
AcDbPolyline
 62
7
  6
CONTINUOUS
 90
5
 70
0
 10
162.309479472
 20
74.4285372422
 10
162.3072122216
 20
74.4621250288
 10
162.3003746857
 20
74.4953898797
 10
162.2890140353
 20
74.5276022929
 10
162.2733054661
 20
74.5580688046
  0
LWPOLYLINE
  5
3A6
100
AcDbEntity
  8
RACCORDO
100
AcDbPolyline
 62
253
  6
CONTINUOUS
 90
8
 70
0
 10
160.4684892143
 20
114.1826462527
 10
160.4672939135
 20
114.2071834556
 10
160.4637241756
 20
114.230193534
 10
160.4578282751
 20
114.2513653163
 10
160.449685944
 20
114.2704124904
 10
160.4394072933
 20
114.2870774759
 10
160.4271313241
 20
114.3011349074
 10
160.4130240479
 20
114.3123946825
  0
LWPOLYLINE
  5
3A7
100
AcDbEntity
  8
RACCORDO
100
AcDbPolyline
 62
253
  6
CONTINUOUS
 90
13
 70
0
 10
161.5291493861
 20
74.7365955039
 10
161.5306118712
 20
74.6989878764
 10
161.5346431506
 20
74.663574975
 10
161.5412432244
 20
74.6303567998
 10
161.5504982225
 20
74.5991399006
 10
161.5623220149
 20
74.5701177276
 10
161.5764562119
 20
74.5438706316
 10
161.5929382771
 20
74.5204380452
 10
161.6117307468
 20
74.4997805358
 10
161.6324628402
 20
74.4823601564
 10
161.6550109636
 20
74.4683309248
 10
161.6794987107
 20
74.4575388232
 10
161.7059260814
 20
74.4499838516
  0
LWPOLYLINE
  5
3A8
100
AcDbEntity
  8
RACCORDO
100
AcDbPolyline
 62
253
  6
CONTINUOUS
 90
13
 70
0
 10
160.8220426049
 20
114.1826462527
 10
160.8205801199
 20
114.2202538803
 10
160.8165488404
 20
114.2556667817
 10
160.8099487666
 20
114.2888849569
 10
160.8006937685
 20
114.3201018561
 10
160.7888699761
 20
114.3491240291
 10
160.7747357791
 20
114.3753711251
 10
160.7582537139
 20
114.3988037115
 10
160.7394612442
 20
114.4194612209
 10
160.7187291508
 20
114.4368816002
 10
160.6961810274
 20
114.4509108319
 10
160.6716932803
 20
114.4617029335
 10
160.6452659096
 20
114.4692579051
  0
LWPOLYLINE
  5
3A9
100
AcDbEntity
  8
21814000
100
AcDbPolyline
 62
7
  6
CONTINUOUS
 90
10
 70
0
 10
161.5712857098
 20
125.9610649718
 10
161.5674808137
 20
126.0750026681
 10
161.5563347246
 20
126.1882668651
 10
161.5381963995
 20
126.3006541385
 10
161.5132412983
 20
126.4123909153
 10
161.4816942989
 20
126.5230230828
 10
161.4440730327
 20
126.6313294719
 10
161.4007717972
 20
126.7368134429
 10
161.3518190156
 20
126.8397403235
 10
161.2972869701
 20
126.9399847332
  0
LWPOLYLINE
  5
3AA
100
AcDbEntity
  8
RACCORDO
100
AcDbPolyline
 62
7
  6
CONTINUOUS
 90
6
 70
0
 10
161.6023726908
 20
74.8249838516
 10
161.6028460349
 20
74.8091662015
 10
161.6041190719
 20
74.7955465557
 10
161.6059399908
 20
74.7842741317
 10
161.6080298287
 20
74.7754026405
 10
161.6096886624
 20
74.7700493941
  0
LWPOLYLINE
  5
3AB
100
AcDbEntity
  8
RACCORDO
100
AcDbPolyline
 62
7
  6
CONTINUOUS
 90
15
 70
0
 10
159.8320931113
 20
121.8215234239
 10
159.8305612297
 20
121.8771551717
 10
159.8261320465
 20
121.9306404813
 10
159.8188055616
 20
121.9819793528
 10
159.808526983
 20
122.0313682443
 10
159.7953511027
 20
122.0786106976
 10
159.7794422967
 20
122.1231173384
 10
159.7607663281
 20
122.1648538933
 10
159.7393574338
 20
122.2038546356
 10
159.715482701
 20
122.2396330106
 10
159.6891112387
 20
122.2721486496
 10
159.660273938
 20
122.3014419213
 10
159.6293305593
 20
122.3271473766
 10
159.5962547186
 20
122.3492200688
 10
159.5721646109
 20
122.3623789403
  0
LINE
  5
3AC
100
AcDbEntity
  8
RACCORDO
100
AcDbLine
 62
7
  6
CONTINUOUS
 10
161.6025086081
 20
114.2908411145
 11
161.6023681648
 21
114.2960514046
  0
LINE
  5
3AD
100
AcDbEntity
  8
RACCORDO
100
AcDbLine
 62
253
  6
CONTINUOUS
 10
160.1149358237
 20
114.9304068342
 11
160.1149358237
 21
114.5790928621
  0
LINE
  5
3AE
100
AcDbEntity
  8
RACCORDO
100
AcDbLine
 62
253
  6
CONTINUOUS
 10
160.1149358237
 20
73.2794887228
 11
160.1149358237
 21
72.9281747507
  0
LINE
  5
3AF
100
AcDbEntity
  8
21814000
100
AcDbLine
 62
253
  6
CONTINUOUS
 10
160.4242490252
 20
121.3303325219
 11
160.4242490252
 21
121.7311010109
  0
LINE
  5
3B0
100
AcDbEntity
  8
RACCORDO
100
AcDbLine
 62
253
  6
CONTINUOUS
 10
160.4684892143
 20
114.1826462527
 11
160.4684892143
 21
113.880742793
  0
LINE
  5
3B1
100
AcDbEntity
  8
RACCORDO
100
AcDbLine
 62
253
  6
CONTINUOUS
 10
160.4684892143
 20
74.5931345146
 11
160.4684892143
 21
74.3830421133
  0
LINE
  5
3B2
100
AcDbEntity
  8
RACCORDO
100
AcDbLine
 62
7
  6
CONTINUOUS
 10
160.6082381253
 20
112.8554078693
 11
160.6082381253
 21
112.8295382314
  0
LINE
  5
3B3
100
AcDbEntity
  8
RACCORDO
100
AcDbLine
 62
7
  6
CONTINUOUS
 10
160.6082381253
 20
74.8634248047
 11
160.6082381253
 21
74.8892944426
  0
LINE
  5
3B4
100
AcDbEntity
  8
21814000
100
AcDbLine
 62
253
  6
CONTINUOUS
 10
160.7519674047
 20
122.2956698346
 11
160.7519674047
 21
122.9425336535
  0
LINE
  5
3B5
100
AcDbEntity
  8
RACCORDO
100
AcDbLine
 62
253
  6
CONTINUOUS
 10
160.8220426049
 20
114.1826462527
 11
160.8220426049
 21
113.8739403546
  0
LINE
  5
3B6
100
AcDbEntity
  8
RACCORDO
100
AcDbLine
 62
253
  6
CONTINUOUS
 10
160.8220426049
 20
74.6917480115
 11
160.8220426049
 21
74.3830421133
  0
LINE
  5
3B7
100
AcDbEntity
  8
DRAFT
100
AcDbLine
 62
7
  6
CONTINUOUS
 10
161.0758802197
 20
112.9862191351
 11
161.0758802197
 21
111.365581412
  0
LINE
  5
3B8
100
AcDbEntity
  8
DRAFT
100
AcDbLine
 62
7
  6
CONTINUOUS
 10
161.0758802197
 20
76.8048479831
 11
161.0758802197
 21
75.1842102599
  0
LINE
  5
3B9
100
AcDbEntity
  8
21814000
100
AcDbLine
 62
253
  6
CONTINUOUS
 10
161.3186915301
 20
125.6484687051
 11
161.3186915301
 21
121.6735764005
  0
LINE
  5
3BA
100
AcDbEntity
  8
RACCORDO
100
AcDbLine
 62
253
  6
CONTINUOUS
 10
161.5291493861
 20
74.7365955039
 11
161.5291493861
 21
75.0604179317
  0
LINE
  5
3BB
100
AcDbEntity
  8
RACCORDO
100
AcDbLine
 62
253
  6
CONTINUOUS
 10
161.5291493861
 20
114.2123772156
 11
161.5291493861
 21
114.5361996433
  0
LINE
  5
3BC
100
AcDbEntity
  8
21814000
100
AcDbLine
 62
7
  6
CONTINUOUS
 10
161.5712857098
 20
125.9610649718
 11
161.5712857098
 21
122.5553795251
  0
LINE
  5
3BD
100
AcDbEntity
  8
RACCORDO
100
AcDbLine
 62
7
  6
CONTINUOUS
 10
161.6023726908
 20
74.8249838516
 11
161.6023726908
 21
75.127039111
  0
LINE
  5
3BE
100
AcDbEntity
  8
RACCORDO
100
AcDbLine
 62
7
  6
CONTINUOUS
 10
161.60237269
 20
114.2959651565
 11
161.6023726908
 21
114.624587991
  0
LINE
  5
3BF
100
AcDbEntity
  8
RACCORDO
100
AcDbLine
 62
253
  6
CONTINUOUS
 10
162.2362561673
 20
115.991067006
 11
162.2362561673
 21
115.6397530339
  0
LINE
  5
3C0
100
AcDbEntity
  8
RACCORDO
100
AcDbLine
 62
253
  6
CONTINUOUS
 10
162.2362561673
 20
74.3401488945
 11
162.2362561673
 21
73.9888349225
  0
LINE
  5
3C1
100
AcDbEntity
  8
RACCORDO
100
AcDbLine
 62
7
  6
CONTINUOUS
 10
162.309479472
 20
116.0794553536
 11
162.309479472
 21
115.7281413816
  0
LINE
  5
3C2
100
AcDbEntity
  8
RACCORDO
100
AcDbLine
 62
7
  6
CONTINUOUS
 10
162.309479472
 20
74.4285372422
 11
162.309479472
 21
74.0772232701
  0
LINE
  5
3C3
100
AcDbEntity
  8
21814000
100
AcDbLine
 62
7
  6
CONTINUOUS
 10
161.5712855596
 20
122.5543610224
 11
161.5712854718
 21
122.5541134423
  0
LINE
  5
3C4
100
AcDbEntity
  8
RACCORDO
100
AcDbLine
 62
253
  6
CONTINUOUS
 10
162.309479472
 20
74.0772232579
 11
162.3094793136
 21
74.0770825775
  0
LWPOLYLINE
  5
3C5
100
AcDbEntity
  8
21814000
100
AcDbPolyline
 62
253
  6
CONTINUOUS
 90
29
 70
0
 10
161.5712854718
 20
122.5541134423
 10
161.570957101
 20
122.510659135
 10
161.569750785
 20
122.4589331856
 10
161.5677198264
 20
122.408616075
 10
161.5649134723
 20
122.3597165615
 10
161.5613842686
 20
122.3122510071
 10
161.5571833288
 20
122.2662206572
 10
161.5523340678
 20
122.2216107885
 10
161.5468780115
 20
122.1784365779
 10
161.5408516185
 20
122.1366950946
 10
161.5342453628
 20
122.0963456088
 10
161.5270823479
 20
122.0573607417
 10
161.5193883946
 20
122.01977902
 10
161.5111331214
 20
121.9836613615
 10
161.5023245069
 20
121.9489618768
 10
161.4929805508
 20
121.9157391549
 10
161.4830666526
 20
121.8842141288
 10
161.4725854219
 20
121.8543558333
 10
161.4615462846
 20
121.8262103859
 10
161.4499111563
 20
121.8001176273
 10
161.437667845
 20
121.7760605299
 10
161.4248301999
 20
121.7540748904
 10
161.4113929056
 20
121.7345818415
 10
161.3973434463
 20
121.7176447875
 10
161.3826978923
 20
121.7032202487
 10
161.3674977562
 20
121.6915679705
 10
161.3517639126
 20
121.682779438
 10
161.3354922596
 20
121.6767795026
 10
161.3186915301
 20
121.6735764005
  0
LWPOLYLINE
  5
3C6
100
AcDbEntity
  8
RACCORDO
100
AcDbPolyline
 62
253
  6
CONTINUOUS
 90
10
 70
0
 10
161.1332884919
 20
75.0913664244
 10
161.1323597092
 20
75.0487157775
 10
161.127842533
 20
75.0083698793
 10
161.1197837572
 20
74.9707466765
 10
161.1082668634
 20
74.9362359114
 10
161.0934111561
 20
74.9051950841
 10
161.0753705271
 20
74.8779457495
 10
161.0543318607
 20
74.8547701859
 10
161.0305130985
 20
74.8359084709
 10
161.013655317
 20
74.8260558625
  0
LWPOLYLINE
  5
3C7
100
AcDbEntity
  8
RACCORDO
100
AcDbPolyline
 62
253
  6
CONTINUOUS
 90
10
 70
0
 10
161.8525914775
 20
75.4590716981
 10
161.851589384
 20
75.4155160347
 10
161.8468433244
 20
75.3743756378
 10
161.8384046235
 20
75.3360952942
 10
161.8263645257
 20
75.3010888685
 10
161.8108532086
 20
75.2697348286
 10
161.7920383754
 20
75.2423721545
 10
161.7701234422
 20
75.2192966733
 10
161.7453453391
 20
75.2007578609
 10
161.7328814895
 20
75.1937197252
  0
LWPOLYLINE
  5
3C8
100
AcDbEntity
  8
RACCORDO
100
AcDbPolyline
 62
253
  6
CONTINUOUS
 90
10
 70
0
 10
160.8439842652
 20
74.9822029214
 10
160.842741696
 20
74.9382495824
 10
160.8377067865
 20
74.8967484622
 10
160.8289347759
 20
74.8581543176
 10
160.8165218944
 20
74.8228900716
 10
160.800604176
 20
74.7913421063
 10
160.7813559644
 20
74.7638560324
 10
160.7589882156
 20
74.7407330199
 10
160.7337460792
 20
74.7222264348
 10
160.7216711262
 20
74.7155355831
  0
LWPOLYLINE
  5
3C9
100
AcDbEntity
  8
RACCORDO
100
AcDbPolyline
 62
253
  6
CONTINUOUS
 90
10
 70
0
 10
159.7613824331
 20
73.2794887228
 10
159.7625899595
 20
73.3053551143
 10
159.7661960497
 20
73.3320756997
 10
159.77215145
 20
73.359285435
 10
159.7803906227
 20
73.3866588194
 10
159.7907925132
 20
73.4137747859
 10
159.8031466249
 20
73.4401293098
 10
159.8172304752
 20
73.4653348488
 10
159.8328485583
 20
73.4891169426
 10
159.8497707808
 20
73.5111828966
  0
LINE
  5
3CA
100
AcDbEntity
  8
RACCORDO
100
AcDbLine
 62
253
  6
CONTINUOUS
 10
161.602055447
 20
114.2899102456
 11
161.60237269
 21
114.2959651565
  0
LWPOLYLINE
  5
3CB
100
AcDbEntity
  8
RACCORDO
100
AcDbPolyline
 62
253
  6
CONTINUOUS
 90
8
 70
0
 10
160.1149358237
 20
72.9281747507
 10
160.1134234746
 20
72.9006711757
 10
160.1089123039
 20
72.8751505436
 10
160.101479499
 20
72.8520495195
 10
160.0912522374
 20
72.8317633684
 10
160.0784055101
 20
72.8146391919
 10
160.0631591284
 20
72.8009699894
 10
160.0499625273
 20
72.7929563006
  0
LWPOLYLINE
  5
3CC
100
AcDbEntity
  8
RACCORDO
100
AcDbPolyline
 62
7
  6
CONTINUOUS
 90
6
 70
0
 10
158.3446562442
 20
74.0396285125
 10
158.3469234945
 20
74.0732162992
 10
158.3537610305
 20
74.10648115
 10
158.3651216809
 20
74.1386935632
 10
158.38083025
 20
74.1691600749
 10
158.4021199359
 20
74.1990956294
  0
LINE
  5
3CD
100
AcDbEntity
  8
DRAFT
100
AcDbLine
 62
7
  6
CONTINUOUS
 10
161.0758802197
 20
111.365581412
 11
159.3132292486
 21
93.2341285692
  0
LWPOLYLINE
  5
3CE
100
AcDbEntity
  8
RACCORDO
100
AcDbPolyline
 62
7
  6
CONTINUOUS
 90
3
 70
0
 10
162.3058648005
 20
115.6857826153
 10
162.3092841469
 20
115.718260876
 10
162.309479471
 20
115.7281302774
  0
LWPOLYLINE
  5
3CF
100
AcDbEntity
  8
RACCORDO
100
AcDbPolyline
 62
253
  6
CONTINUOUS
 90
7
 70
0
 10
162.309479472
 20
116.0794553414
 10
162.3074420026
 20
116.0635290907
 10
162.301116141
 20
116.0473940055
 10
162.290613991
 20
116.0318191434
 10
162.2761234519
 20
116.0170746956
 10
162.2578980245
 20
116.0034124743
 10
162.2362561673
 20
115.991067006
  0
LWPOLYLINE
  5
3D0
100
AcDbEntity
  8
RACCORDO
100
AcDbPolyline
 62
253
  6
CONTINUOUS
 90
7
 70
0
 10
162.309479471
 20
115.7281302774
 10
162.3072879888
 20
115.7116266988
 10
162.3008358352
 20
115.6955564696
 10
162.290261811
 20
115.6800801914
 10
162.275786088
 20
115.6654687243
 10
162.2576740848
 20
115.6519526431
 10
162.2362561673
 20
115.6397530339
  0
LINE
  5
3D1
100
AcDbEntity
  8
0
100
AcDbLine
 62
7
  6
CONTINUOUS
 10
159.8320931113
 20
121.6264104789
 11
157.9848222076
 21
121.3089928097
  0
LWPOLYLINE
  5
3D2
100
AcDbEntity
  8
21814000
100
AcDbPolyline
 62
7
  6
CONTINUOUS
 90
7
 70
0
 10
161.4264242468
 20
121.6560050768
 10
161.4054523007
 20
121.6531153448
 10
161.385686952
 20
121.6525529271
 10
161.3671282005
 20
121.6543178238
 10
161.3497760464
 20
121.658410035
 10
161.3336304896
 20
121.6648295605
 10
161.3186915301
 20
121.6735764005
  0
LINE
  5
3D3
100
AcDbEntity
  8
RACCORDO
100
AcDbLine
 62
253
  6
CONTINUOUS
 10
160.1149358237
 20
114.5790928621
 11
160.6452659096
 21
114.4692579051
  0
LWPOLYLINE
  5
3D4
100
AcDbEntity
  8
RACCORDO
100
AcDbPolyline
 62
253
  6
CONTINUOUS
 90
4
 70
0
 10
158.9810968308
 20
114.6187663979
 10
158.9995771061
 20
114.6110289383
 10
159.0177834165
 20
114.6064081081
 10
159.0354042474
 20
114.6049829739
  0
LWPOLYLINE
  5
3D5
100
AcDbEntity
  8
RACCORDO
100
AcDbPolyline
 62
253
  6
CONTINUOUS
 90
16
 70
0
 10
160.4684892143
 20
113.880742793
 10
160.488096253
 20
113.8718805468
 10
160.5093821141
 20
113.8640533658
 10
160.5320959266
 20
113.8573359026
 10
160.5559583985
 20
113.851788099
 10
160.5807136348
 20
113.8474545444
 10
160.6061380295
 20
113.8443730868
 10
160.6319407288
 20
113.8425676658
 10
160.6578564324
 20
113.8420473806
 10
160.6837011011
 20
113.8428289037
 10
160.7092154002
 20
113.8449090409
 10
160.7340951823
 20
113.8482698807
 10
160.7580871602
 20
113.8529029299
 10
160.7809233299
 20
113.8587721522
 10
160.8023272267
 20
113.8658095013
 10
160.8220426049
 20
113.8739403546
  0
LWPOLYLINE
  5
3D6
100
AcDbEntity
  8
RACCORDO
100
AcDbPolyline
 62
253
  6
CONTINUOUS
 90
7
 70
0
 10
160.3245997151
 20
113.6356193426
 10
160.3511840921
 20
113.6234141195
 10
160.3790206002
 20
113.6123924643
 10
160.4081092393
 20
113.6025543768
 10
160.4384500095
 20
113.5938998572
 10
160.4700429107
 20
113.5864289053
 10
160.502887943
 20
113.5801415212
  0
LINE
  5
3D7
100
AcDbEntity
  8
DRAFT
100
AcDbLine
 62
7
  6
CONTINUOUS
 10
160.5450670143
 20
111.6309880147
 11
161.0758802197
 21
111.365581412
  0
LINE
  5
3D8
100
AcDbEntity
  8
26814000
100
AcDbLine
 62
7
  6
CONTINUOUS
 10
128.6133287219
 20
128.5558765313
 11
144.3818099423
 21
120.6716359211
  0
LINE
  5
3D9
100
AcDbEntity
  8
RACCORDO
100
AcDbLine
 62
7
  6
CONTINUOUS
 10
144.423311179
 20
120.6861455934
 11
160.0580503482
 21
112.8687760088
  0
LINE
  5
3DA
100
AcDbEntity
  8
DRAFT
100
AcDbLine
 62
7
  6
CONTINUOUS
 10
144.9138124735
 20
120.6767510573
 11
160.6082381253
 21
112.8295382314
  0
LINE
  5
3DB
100
AcDbEntity
  8
26814000
100
AcDbLine
 62
7
  6
CONTINUOUS
 10
144.1343225689
 20
121.1228955463
 11
128.8608160953
 21
128.7596487831
  0
LINE
  5
3DC
100
AcDbEntity
  8
RACCORDO
100
AcDbLine
 62
7
  6
CONTINUOUS
 10
160.2545231746
 20
113.4654759164
 11
145.2675274242
 21
120.9589737916
  0
LINE
  5
3DD
100
AcDbEntity
  8
RACCORDO
100
AcDbLine
 62
253
  6
CONTINUOUS
 10
146.9602815507
 20
120.3177784248
 11
145.6167786664
 21
120.9895298669
  0
LINE
  5
3DE
100
AcDbEntity
  8
RACCORDO
100
AcDbLine
 62
253
  6
CONTINUOUS
 10
158.9810968308
 20
114.3073707847
 11
160.3245997151
 21
113.6356193426
  0
LINE
  5
3DF
100
AcDbEntity
  8
26814000
100
AcDbLine
 62
7
  6
CONTINUOUS
 10
144.6938372535
 20
121.5578026744
 11
143.0798331375
 21
122.3648047324
  0
LINE
  5
3E0
100
AcDbEntity
  8
26814000
100
AcDbLine
 62
7
  6
CONTINUOUS
 10
131.3295190891
 20
128.2399617566
 11
129.7155149731
 21
129.0469638146
  0
LINE
  5
3E1
100
AcDbEntity
  8
RACCORDO
100
AcDbLine
 62
253
  6
CONTINUOUS
 10
147.1041710499
 20
120.5629018752
 11
145.7606681656
 21
121.2346533173
  0
LINE
  5
3E2
100
AcDbEntity
  8
RACCORDO
100
AcDbLine
 62
253
  6
CONTINUOUS
 10
159.1249863301
 20
114.5524942351
 11
160.4684892143
 21
113.880742793
  0
LWPOLYLINE
  5
3E3
100
AcDbEntity
  8
RACCORDO
100
AcDbPolyline
 62
253
  6
CONTINUOUS
 90
7
 70
0
 10
145.6167786664
 20
120.9895298669
 10
145.5924149378
 20
121.0027978313
 10
145.5704992788
 20
121.0166505272
 10
145.5510316894
 20
121.0310879549
 10
145.5340121696
 20
121.0461101141
 10
145.5194407195
 20
121.061717005
 10
145.507317339
 20
121.0779086276
  0
LWPOLYLINE
  5
3E4
100
AcDbEntity
  8
RACCORDO
100
AcDbPolyline
 62
253
  6
CONTINUOUS
 90
8
 70
0
 10
145.7606681656
 20
121.2346533173
 10
145.7429837114
 20
121.2444420289
 10
145.7275219356
 20
121.2550036304
 10
145.7144327672
 20
121.2662115008
 10
145.7038416229
 20
121.2779235901
 10
145.6958334459
 20
121.290012183
 10
145.6904643066
 20
121.3023674468
 10
145.6877782425
 20
121.3148389705
  0
LWPOLYLINE
  5
3E5
100
AcDbEntity
  8
RACCORDO
100
AcDbPolyline
 62
253
  6
CONTINUOUS
 90
9
 70
0
 10
145.1185347099
 20
121.7977849219
 10
145.1088738028
 20
121.8033552914
 10
145.0947168667
 20
121.8147094968
 10
145.0823935347
 20
121.8289136922
 10
145.0720982198
 20
121.8457564163
 10
145.0640076512
 20
121.8649033803
 10
145.0582059618
 20
121.8860225216
 10
145.0547203498
 20
121.9088317203
 10
145.0535613845
 20
121.9330033865
  0
LWPOLYLINE
  5
3E6
100
AcDbEntity
  8
RACCORDO
100
AcDbPolyline
 62
253
  6
CONTINUOUS
 90
9
 70
0
 10
146.4620375941
 20
121.1260334798
 10
146.4523766871
 20
121.1316038492
 10
146.4382197509
 20
121.1429580547
 10
146.425896419
 20
121.15716225
 10
146.4156011041
 20
121.1740049742
 10
146.4075105354
 20
121.1931519381
 10
146.4017088461
 20
121.2142710794
 10
146.398223234
 20
121.2370802782
 10
146.3970642687
 20
121.2612519443
  0
LWPOLYLINE
  5
3E7
100
AcDbEntity
  8
RACCORDO
100
AcDbPolyline
 62
7
  6
CONTINUOUS
 90
4
 70
0
 10
148.2499467789
 20
120.9348564821
 10
148.2503370334
 20
120.9344584645
 10
148.2502084604
 20
120.934661021
 10
148.2481367115
 20
120.9377524484
  0
LINE
  5
3E8
100
AcDbEntity
  8
21814000
100
AcDbLine
 62
253
  6
CONTINUOUS
 10
151.6224459196
 20
128.6601319075
 11
152.0370234313
 21
127.5845533673
  0
LINE
  5
3E9
100
AcDbEntity
  8
0
100
AcDbLine
 62
7
  6
CONTINUOUS
 10
153.1817277595
 20
126.0844883194
 11
152.9802284016
 21
126.6802127452
  0
LWPOLYLINE
  5
3EA
100
AcDbEntity
  8
RACCORDO
100
AcDbPolyline
 62
253
  6
CONTINUOUS
 90
7
 70
0
 10
158.3446562442
 20
115.6905466362
 10
158.3469579885
 20
115.6736234585
 10
158.3535627487
 20
115.6574787906
 10
158.364268933
 20
115.642013937
 10
158.3787703859
 20
115.6275123155
 10
158.3967643289
 20
115.6141614326
 10
158.4178795489
 20
115.6021582763
  0
LINE
  5
3EB
100
AcDbEntity
  8
RACCORDO
100
AcDbLine
 62
7
  6
CONTINUOUS
 10
162.7665862532
 20
75.9509206732
 11
162.7665862532
 21
113.8522045599
  0
LINE
  5
3EC
100
AcDbEntity
  8
RACCORDO
100
AcDbLine
 62
7
  6
CONTINUOUS
 10
162.9107814467
 20
119.9576043963
 11
162.9107814467
 21
119.0572492957
  0
LWPOLYLINE
  5
3ED
100
AcDbEntity
  8
RACCORDO
100
AcDbPolyline
 62
253
  6
CONTINUOUS
 90
10
 70
0
 10
162.128484611
 20
75.629409634
 10
162.1272373029
 20
75.5854480415
 10
162.1221967926
 20
75.5439393515
 10
162.1134183259
 20
75.5053385162
 10
162.1009981179
 20
75.4700686169
 10
162.0850722989
 20
75.4385162259
 10
162.0658154221
 20
75.4110271705
 10
162.0434385504
 20
75.387902742
 10
162.0181869432
 20
75.3693963935
 10
162.0061381343
 20
75.3627215243
  0
LWPOLYLINE
  5
3EE
100
AcDbEntity
  8
RACCORDO
100
AcDbPolyline
 62
253
  6
CONTINUOUS
 90
8
 70
0
 10
162.2362561673
 20
73.9888349225
 10
162.2347316276
 20
73.9612242665
 10
162.23018212
 20
73.9356055355
 10
162.2226829418
 20
73.912423331
 10
162.2123591547
 20
73.892078765
 10
162.1993870002
 20
73.8749296959
 10
162.1839939298
 20
73.861280568
 10
162.1712575109
 20
73.8536037972
  0
LWPOLYLINE
  5
3EF
100
AcDbEntity
  8
RACCORDO
100
AcDbPolyline
 62
253
  6
CONTINUOUS
 90
3
 70
0
 10
161.5312307022
 20
75.090682936
 10
161.5296572107
 20
75.0778849783
 10
161.5291493861
 20
75.0604179317
  0
LINE
  5
3F0
100
AcDbEntity
  8
RACCORDO
100
AcDbLine
 62
253
  6
CONTINUOUS
 10
161.6002339061
 20
74.8086680776
 11
161.6023726908
 21
74.8249838516
  0
LINE
  5
3F1
100
AcDbEntity
  8
RACCORDO
100
AcDbLine
 62
253
  6
CONTINUOUS
 10
145.6786744378
 20
121.2875451523
 11
145.6653241835
 21
121.287257977
  0
LWPOLYLINE
  5
3F2
100
AcDbEntity
  8
RACCORDO
100
AcDbPolyline
 62
253
  6
CONTINUOUS
 90
4
 70
0
 10
148.234121877
 20
120.9501735245
 10
148.2504275638
 20
120.9481693162
 10
148.2676673311
 20
120.9492949751
 10
148.2855527113
 20
120.9535316565
  0
LINE
  5
3F3
100
AcDbEntity
  8
RACCORDO
100
AcDbLine
 62
7
  6
CONTINUOUS
 10
146.5231402114
 20
121.104835403
 11
147.0534702973
 21
120.9950004459
  0
LINE
  5
3F4
100
AcDbEntity
  8
RACCORDO
100
AcDbLine
 62
253
  6
CONTINUOUS
 10
146.7506176593
 20
121.2612519443
 11
147.2809477452
 21
121.1514169873
  0
LINE
  5
3F5
100
AcDbEntity
  8
26814000
100
AcDbLine
 62
7
  6
CONTINUOUS
 10
144.6938372535
 20
122.1949722331
 11
144.0715192214
 21
122.3249128156
  0
LWPOLYLINE
  5
3F6
100
AcDbEntity
  8
RACCORDO
100
AcDbPolyline
 62
7
  6
CONTINUOUS
 90
8
 70
0
 10
160.8277799866
 20
116.9748135935
 10
160.7994933914
 20
116.9868431587
 10
160.7695061904
 20
116.9954081275
 10
160.7383316075
 20
117.000205296
 10
160.7064269636
 20
117.0010242786
 10
160.6745420753
 20
116.9977492389
 10
160.6435345446
 20
116.9904810117
 10
160.6135744941
 20
116.9792720267
  0
LWPOLYLINE
  5
3F7
100
AcDbEntity
  8
RACCORDO
100
AcDbPolyline
 62
7
  6
CONTINUOUS
 90
25
 70
0
 10
156.2278790068
 20
117.3681072875
 10
156.2520413679
 20
117.3568158939
 10
156.2773972525
 20
117.3464190107
 10
156.3039466604
 20
117.3369166381
 10
156.3318140535
 20
117.3282755992
 10
156.3608749699
 20
117.3205290708
 10
156.3907560248
 20
117.313776583
 10
156.4214678009
 20
117.3080309625
 10
156.4529997155
 20
117.3032793827
 10
156.4849466351
 20
117.2995828934
 10
156.5173139151
 20
117.2969551093
 10
156.5500962002
 20
117.2953824158
 10
156.582872292
 20
117.2948850194
 10
156.6156421107
 20
117.2954767954
 10
156.648405736
 20
117.2971438685
 10
156.6807422094
 20
117.2998648196
 10
156.7126460189
 20
117.3036532475
 10
156.7441226765
 20
117.3084955535
 10
156.7747677587
 20
117.3143295217
 10
156.8045705354
 20
117.3211679483
 10
156.8335417367
 20
117.3289980372
 10
156.8613091305
 20
117.3377191847
 10
156.8877486392
 20
117.3472978561
 10
156.9129843404
 20
117.3577675861
 10
156.9370162339
 20
117.3691283746
  0
LWPOLYLINE
  5
3F8
100
AcDbEntity
  8
RACCORDO
100
AcDbPolyline
 62
253
  6
CONTINUOUS
 90
3
 70
0
 10
148.2168098702
 20
120.956335789
 10
148.2190231119
 20
120.9552740738
 10
148.234121877
 20
120.9501735245
  0
LINE
  5
3F9
100
AcDbEntity
  8
26814000
100
AcDbLine
 62
7
  6
CONTINUOUS
 10
134.6619749699
 20
126.9310660514
 11
140.4544840379
 21
124.0348115174
  0
LINE
  5
3FA
100
AcDbEntity
  8
RACCORDO
100
AcDbLine
 62
7
  6
CONTINUOUS
 10
156.2278790068
 20
116.1707882518
 11
150.7083851543
 21
118.930535178
  0
LINE
  5
3FB
100
AcDbEntity
  8
RACCORDO
100
AcDbLine
 62
7
  6
CONTINUOUS
 10
159.8263557296
 20
114.443874412
 11
158.4828528453
 21
115.1156258542
  0
LINE
  5
3FC
100
AcDbEntity
  8
RACCORDO
100
AcDbLine
 62
7
  6
CONTINUOUS
 10
146.4620375651
 20
121.1260334942
 11
145.1185346809
 21
121.7977849364
  0
LINE
  5
3FD
100
AcDbEntity
  8
26814000
100
AcDbLine
 62
7
  6
CONTINUOUS
 10
129.0771167648
 20
129.8184938944
 11
130.6836503278
 21
129.0152271129
  0
LINE
  5
3FE
100
AcDbEntity
  8
26814000
100
AcDbLine
 62
7
  6
CONTINUOUS
 10
142.4414349292
 20
123.1363348122
 11
144.0479684923
 21
122.3330680307
  0
LINE
  5
3FF
100
AcDbEntity
  8
RACCORDO
100
AcDbLine
 62
253
  6
CONTINUOUS
 10
146.6955079822
 20
121.0691368688
 11
147.1041710499
 21
120.8648053349
  0
LINE
  5
400
100
AcDbEntity
  8
RACCORDO
100
AcDbLine
 62
253
  6
CONTINUOUS
 10
160.0598261466
 20
114.3869777866
 11
160.4684892143
 21
114.1826462527
  0
LINE
  5
401
100
AcDbEntity
  8
RACCORDO
100
AcDbLine
 62
253
  6
CONTINUOUS
 10
159.7613824331
 20
114.5790928621
 11
158.4178795489
 21
115.2508443043
  0
LINE
  5
402
100
AcDbEntity
  8
RACCORDO
100
AcDbLine
 62
253
  6
CONTINUOUS
 10
146.3970642687
 20
121.2612519443
 11
145.0535613845
 21
121.9330033865
  0
LINE
  5
403
100
AcDbEntity
  8
26814000
100
AcDbLine
 62
253
  6
CONTINUOUS
 10
129.0125220188
 20
129.9535230693
 11
130.618298481
 21
129.1506348382
  0
LINE
  5
404
100
AcDbEntity
  8
26814000
100
AcDbLine
 62
253
  6
CONTINUOUS
 10
142.3768401832
 20
123.2713639871
 11
143.9826166454
 21
122.468475756
  0
LINE
  5
405
100
AcDbEntity
  8
26814000
100
AcDbLine
 62
253
  6
CONTINUOUS
 10
143.9826166454
 20
122.7218471498
 11
142.3768401832
 21
123.5247353808
  0
LINE
  5
406
100
AcDbEntity
  8
26814000
100
AcDbLine
 62
253
  6
CONTINUOUS
 10
130.618298481
 20
129.404006232
 11
129.0125220188
 21
130.2068944631
  0
LINE
  5
407
100
AcDbEntity
  8
RACCORDO
100
AcDbLine
 62
253
  6
CONTINUOUS
 10
145.0535613845
 20
122.2843173586
 11
146.3970642687
 21
121.6125659164
  0
LINE
  5
408
100
AcDbEntity
  8
RACCORDO
100
AcDbLine
 62
253
  6
CONTINUOUS
 10
158.4178795489
 20
115.6021582763
 11
159.7613824331
 21
114.9304068342
  0
LINE
  5
409
100
AcDbEntity
  8
26814000
100
AcDbLine
 62
7
  6
CONTINUOUS
 10
132.3963500012
 20
128.7785430061
 11
134.5741070042
 21
127.6896645046
  0
LINE
  5
40A
100
AcDbEntity
  8
26814000
100
AcDbLine
 62
7
  6
CONTINUOUS
 10
141.3766061223
 20
124.2884149456
 11
142.4577280734
 21
123.74785397
  0
LINE
  5
40B
100
AcDbEntity
  8
26814000
100
AcDbLine
 62
253
  6
CONTINUOUS
 10
144.1593873748
 20
123.025712728
 11
142.5515659658
 21
123.8296234325
  0
LINE
  5
40C
100
AcDbEntity
  8
26814000
100
AcDbLine
 62
253
  6
CONTINUOUS
 10
130.7950692104
 20
129.7078718102
 11
129.1872478013
 21
130.5117825147
  0
LINE
  5
40D
100
AcDbEntity
  8
RACCORDO
100
AcDbLine
 62
253
  6
CONTINUOUS
 10
161.6681025994
 20
114.2786493784
 11
161.6085542412
 21
114.3084235574
  0
LINE
  5
40E
100
AcDbEntity
  8
RACCORDO
100
AcDbLine
 62
253
  6
CONTINUOUS
 10
148.2442178753
 20
120.9905917404
 11
148.3037844349
 21
120.9608084606
  0
LINE
  5
40F
100
AcDbEntity
  8
RACCORDO
100
AcDbLine
 62
253
  6
CONTINUOUS
 10
145.2303380798
 20
122.5892120572
 11
146.573840964
 21
121.917460615
  0
LINE
  5
410
100
AcDbEntity
  8
RACCORDO
100
AcDbLine
 62
253
  6
CONTINUOUS
 10
158.5946562442
 20
115.9070529749
 11
159.9381591284
 21
115.2353015328
  0
LINE
  5
411
100
AcDbEntity
  8
26814000
100
AcDbLine
 62
7
  6
CONTINUOUS
 10
134.6619749699
 20
128.1460209175
 11
140.4544840379
 21
125.2497663835
  0
LINE
  5
412
100
AcDbEntity
  8
RACCORDO
100
AcDbLine
 62
7
  6
CONTINUOUS
 10
156.2278790068
 20
117.3681072875
 11
150.7083851543
 21
120.1278542137
  0
LINE
  5
413
100
AcDbEntity
  8
RACCORDO
100
AcDbLine
 62
7
  6
CONTINUOUS
 10
148.2973985979
 20
121.5200089593
 11
149.7081235455
 21
120.8146464855
  0
LINE
  5
414
100
AcDbEntity
  8
RACCORDO
100
AcDbLine
 62
7
  6
CONTINUOUS
 10
161.6617167623
 20
114.8378498771
 11
162.4128713025
 21
114.462272607
  0
LINE
  5
415
100
AcDbEntity
  8
26814000
100
AcDbLine
 62
7
  6
CONTINUOUS
 10
133.9276241182
 20
128.7124550396
 11
132.4451461148
 21
129.4536940413
  0
LINE
  5
416
100
AcDbEntity
  8
26814000
100
AcDbLine
 62
7
  6
CONTINUOUS
 10
135.1540664478
 20
128.6121203481
 11
141.3766061223
 21
125.5008505109
  0
LINE
  5
417
100
AcDbEntity
  8
26814000
100
AcDbLine
 62
7
  6
CONTINUOUS
 10
130.7700044045
 20
131.3237666121
 11
132.3963500012
 21
130.5105938137
  0
LINE
  5
418
100
AcDbEntity
  8
26814000
100
AcDbLine
 62
7
  6
CONTINUOUS
 10
144.1343225689
 20
124.6416075299
 11
145.7606681656
 21
123.8284347315
  0
LINE
  5
419
100
AcDbEntity
  8
26814000
100
AcDbLine
 62
7
  6
CONTINUOUS
 10
136.4975693321
 20
128.6424372988
 11
141.4473168004
 21
126.1675635646
  0
LINE
  5
41A
100
AcDbEntity
  8
0
100
AcDbLine
 62
7
  6
CONTINUOUS
 10
157.3572193771
 20
118.2176506647
 11
152.4074719088
 21
120.6925243988
  0
LINE
  5
41B
100
AcDbEntity
  8
RACCORDO
100
AcDbLine
 62
253
  6
CONTINUOUS
 10
159.1073467219
 20
114.5622553123
 11
159.1249863301
 21
114.5524942351
  0
LWPOLYLINE
  5
41C
100
AcDbEntity
  8
RACCORDO
100
AcDbPolyline
 62
253
  6
CONTINUOUS
 90
16
 70
0
 10
148.3037844349
 20
120.9608084606
 10
148.3359826259
 20
120.9427568264
 10
148.3637262712
 20
120.923729559
 10
148.3870153709
 20
120.9037266583
 10
148.4059642305
 20
120.8825141343
 10
148.4204585446
 20
120.8603259771
 10
148.4301553963
 20
120.8378641568
 10
148.4349386895
 20
120.8151438265
 10
148.4349245203
 20
120.7921498332
 10
148.430118261
 20
120.7695386871
 10
148.4204058917
 20
120.7473000316
 10
148.4059014323
 20
120.7254442234
 10
148.3869523137
 20
120.7046588429
 10
148.3636743465
 20
120.6851730834
 10
148.3359517203
 20
120.6667577516
 10
148.3037844349
 20
120.6494128474
  0
LWPOLYLINE
  5
41D
100
AcDbEntity
  8
21814000
100
AcDbPolyline
 62
253
  6
CONTINUOUS
 90
15
 70
0
 10
141.6461172348
 20
127.1292035934
 10
141.6796992112
 20
127.1099604675
 10
141.7090157993
 20
127.0883370646
 10
141.734066999
 20
127.0643333849
 10
141.755056191
 20
127.0377010362
 10
141.7717799947
 20
127.0086884106
 10
141.7836282679
 20
126.9780406842
 10
141.7904850615
 20
126.9456807365
 10
141.7924663245
 20
126.911685688
 10
141.7893097617
 20
126.8770320758
 10
141.7808470224
 20
126.8416659872
 10
141.7672464573
 20
126.8056413348
 10
141.7487508225
 20
126.7700963938
 10
141.725441037
 20
126.7354105893
 10
141.6972361818
 20
126.7012044963
  0
LWPOLYLINE
  5
41E
100
AcDbEntity
  8
RACCORDO
100
AcDbPolyline
 62
253
  6
CONTINUOUS
 90
9
 70
0
 10
158.4828528743
 20
115.1156258397
 10
158.4731919673
 20
115.1211962092
 10
158.4590350311
 20
115.1325504146
 10
158.4467116991
 20
115.1467546099
 10
158.4364163842
 20
115.1635973341
 10
158.4283258156
 20
115.182744298
 10
158.4225241262
 20
115.2038634394
 10
158.4190385142
 20
115.2266726381
 10
158.4178795489
 20
115.2508443043
  0
LWPOLYLINE
  5
41F
100
AcDbEntity
  8
RACCORDO
100
AcDbPolyline
 62
253
  6
CONTINUOUS
 90
9
 70
0
 10
159.8263557585
 20
114.4438743975
 10
159.8166948515
 20
114.449444767
 10
159.8025379153
 20
114.4607989724
 10
159.7902145834
 20
114.4750031678
 10
159.7799192685
 20
114.491845892
 10
159.7718286999
 20
114.5109928559
 10
159.7660270105
 20
114.5321119972
 10
159.7625413984
 20
114.554921196
 10
159.7613824331
 20
114.5790928621
  0
LWPOLYLINE
  5
420
100
AcDbEntity
  8
RACCORDO
100
AcDbPolyline
 62
253
  6
CONTINUOUS
 90
13
 70
0
 10
159.9381591284
 20
115.2353015328
 10
159.9607198947
 20
115.2222507243
 10
159.983067749
 20
115.2057443665
 10
160.004820097
 20
115.185987696
 10
160.0256380427
 20
115.1631943952
 10
160.0450850908
 20
115.137742345
 10
160.0626735863
 20
115.1102234262
 10
160.0780666566
 20
115.0811812278
 10
160.0910388111
 20
115.0510600043
 10
160.1013625982
 20
115.0203916512
 10
160.1088617764
 20
114.9897102685
 10
160.1134112841
 20
114.9595420298
 10
160.1149358237
 20
114.9304068342
  0
LWPOLYLINE
  5
421
100
AcDbEntity
  8
RACCORDO
100
AcDbPolyline
 62
253
  6
CONTINUOUS
 90
13
 70
0
 10
146.573840964
 20
121.917460615
 10
146.5969149529
 20
121.9040713787
 10
146.6195941395
 20
121.8872067523
 10
146.6414904765
 20
121.8671552941
 10
146.6622293117
 20
121.8442600903
 10
146.6814557976
 20
121.818912884
 10
146.698840964
 20
121.791547373
 10
146.7140873457
 20
121.7626317888
 10
146.7269340729
 20
121.7326608851
 10
146.7371613346
 20
121.7021474723
 10
146.7445941395
 20
121.6716136434
 10
146.7491053102
 20
121.6415818406
 10
146.7506176593
 20
121.6125659164
  0
LWPOLYLINE
  5
422
100
AcDbEntity
  8
RACCORDO
100
AcDbPolyline
 62
253
  6
CONTINUOUS
 90
13
 70
0
 10
148.6951613076
 20
122.9781207868
 10
148.7182352965
 20
122.9647315505
 10
148.740914483
 20
122.9478669241
 10
148.7628108201
 20
122.9278154659
 10
148.7835496552
 20
122.904920262
 10
148.8027761412
 20
122.8795730558
 10
148.8201613076
 20
122.8522075448
 10
148.8354076893
 20
122.8232919606
 10
148.8482544165
 20
122.7933210569
 10
148.8584816782
 20
122.7628076441
 10
148.865914483
 20
122.7322738151
 10
148.8704256537
 20
122.7022420124
 10
148.8719380029
 20
122.6732260882
  0
LWPOLYLINE
  5
423
100
AcDbEntity
  8
RACCORDO
100
AcDbPolyline
 62
253
  6
CONTINUOUS
 90
16
 70
0
 10
160.5028846394
 20
113.5801399934
 10
160.5391841112
 20
113.5589547549
 10
160.5750105759
 20
113.5332219724
 10
160.6099715044
 20
113.5032253683
 10
160.643681963
 20
113.4692962512
 10
160.675775207
 20
113.431807028
 10
160.7059060109
 20
113.3911657644
 10
160.733746013
 20
113.3478163299
 10
160.7589881459
 20
113.3022348646
 10
160.7813558925
 20
113.2549208197
 10
160.8006041042
 20
113.2063925971
 10
160.816521826
 20
113.1571819182
 10
160.8289347151
 20
113.1078280249
 10
160.8377067384
 20
113.0588717012
 10
160.8427416667
 20
113.0108493476
 10
160.843984262
 20
112.9642871503
  0
LWPOLYLINE
  5
424
100
AcDbEntity
  8
RACCORDO
100
AcDbPolyline
 62
253
  6
CONTINUOUS
 90
16
 70
0
 10
161.7873261897
 20
114.1733741626
 10
161.8236053429
 20
114.1521969204
 10
161.8594192211
 20
114.1264727039
 10
161.8943752899
 20
114.0964834612
 10
161.9280904166
 20
114.0625578874
 10
161.9601950697
 20
114.0250678209
 10
161.9903373694
 20
113.9844241687
 10
162.0181869439
 20
113.9410724024
 10
162.0434385507
 20
113.8954876756
 10
162.0658154221
 20
113.8481696162
 10
162.0850722988
 20
113.7996368499
 10
162.1009981176
 20
113.7504213164
 10
162.1134183255
 20
113.7010624385
 10
162.1221967923
 20
113.6521012104
 10
162.1272373027
 20
113.6040742678
 10
162.1284846111
 20
113.557508006
  0
LWPOLYLINE
  5
425
100
AcDbEntity
  8
21814000
100
AcDbPolyline
 62
253
  6
CONTINUOUS
 90
9
 70
0
 10
141.5436768873
 20
126.91148801
 10
141.5635580637
 20
126.8998740192
 10
141.5812197954
 20
126.8861295371
 10
141.5964713704
 20
126.8703648518
 10
141.6091359541
 20
126.8526710893
 10
141.6190796499
 20
126.8332068043
 10
141.6261942631
 20
126.8121934523
 10
141.6303706797
 20
126.7897288391
 10
141.6315448165
 20
126.7691270881
  0
LWPOLYLINE
  5
426
100
AcDbEntity
  8
21814000
100
AcDbPolyline
 62
253
  6
CONTINUOUS
 90
13
 70
0
 10
140.1995929424
 20
127.3997497719
 10
140.2173038781
 20
127.3886278959
 10
140.2353719915
 20
127.3752234079
 10
140.2534937527
 20
127.3597615398
 10
140.2713647381
 20
127.3425020804
 10
140.2886847577
 20
127.3237349962
 10
140.3051628963
 20
127.3037755555
 10
140.3205223663
 20
127.2829590714
 10
140.3345052033
 20
127.2616352126
 10
140.3468765959
 20
127.2401621108
 10
140.3574287698
 20
127.2189004349
 10
140.3659844905
 20
127.1982073356
 10
140.372400074
 20
127.1784303853
  0
LWPOLYLINE
  5
427
100
AcDbEntity
  8
RACCORDO
100
AcDbPolyline
 62
253
  6
CONTINUOUS
 90
13
 70
0
 10
160.9127483456
 20
113.663545896
 10
160.8995999648
 20
113.6770786221
 10
160.8871102092
 20
113.6919184753
 10
160.8754086333
 20
113.7079124999
 10
160.8646161983
 20
113.7248965785
 10
160.8548457226
 20
113.7426944877
 10
160.8462001503
 20
113.7611193287
 10
160.8387693721
 20
113.7799792972
 10
160.8326298577
 20
113.799080033
 10
160.8278451843
 20
113.81822374
 10
160.8244648991
 20
113.8372121773
 10
160.8225240064
 20
113.8558487119
 10
160.8220426049
 20
113.8739403546
  0
LWPOLYLINE
  5
428
100
AcDbEntity
  8
RACCORDO
100
AcDbPolyline
 62
253
  6
CONTINUOUS
 90
13
 70
0
 10
160.9127483456
 20
113.663545896
 10
160.944972033
 20
113.6293717814
 10
160.975548493
 20
113.591934187
 10
161.0041609814
 20
113.5516209322
 10
161.0305130986
 20
113.5088496257
 10
161.0543318607
 20
113.4640633394
 10
161.0753705271
 20
113.4177260185
 10
161.0934111561
 20
113.3703176755
 10
161.1082668633
 20
113.3223294179
 10
161.1197837571
 20
113.2742583603
 10
161.1278425329
 20
113.2266024753
 10
161.1323597091
 20
113.1798554344
 10
161.1332884918
 20
113.1345014947
  0
LWPOLYLINE
  5
429
100
AcDbEntity
  8
26814000
100
AcDbPolyline
 62
7
  6
CONTINUOUS
 90
20
 70
0
 10
151.6310957716
 20
125.6619851123
 10
151.6296956199
 20
125.664116177
 10
151.6279491936
 20
125.6664246244
 10
151.6258675837
 20
125.6689142635
 10
151.6234626193
 20
125.6715917063
 10
151.6207425274
 20
125.6744269223
 10
151.6177175962
 20
125.6774234486
 10
151.6143990948
 20
125.6805865268
 10
151.6107949379
 20
125.6838885193
 10
151.606915081
 20
125.687332502
 10
151.6027704095
 20
125.6909227464
 10
151.5983691768
 20
125.694633246
 10
151.5937208383
 20
125.6984668378
 10
151.5888363843
 20
125.7024267115
 10
151.583725996
 20
125.7064871318
 10
151.5783991209
 20
125.710650347
 10
151.5728669176
 20
125.7149187185
 10
151.5671424464
 20
125.719266218
 10
151.561237263
 20
125.7236851001
 10
151.5489242113
 20
125.7327701897
  0
LINE
  5
42A
100
AcDbEntity
  8
21814000
100
AcDbLine
 62
7
  6
CONTINUOUS
 10
152.967619935
 20
123.8557197409
 11
152.214925851
 21
125.1539250019
  0
LINE
  5
42B
100
AcDbEntity
  8
RACCORDO
100
AcDbLine
 62
7
  6
CONTINUOUS
 10
166.9651963359
 20
117.2264431996
 11
166.9651963359
 21
116.3314803361
  0
LINE
  5
42C
100
AcDbEntity
  8
RACCORDO
100
AcDbLine
 62
7
  6
CONTINUOUS
 10
166.9651963359
 20
83.4151704381
 11
166.9651963359
 21
81.773394448
  0
LWPOLYLINE
  5
42D
100
AcDbEntity
  8
RACCORDO
100
AcDbPolyline
 62
7
  6
CONTINUOUS
 90
8
 70
0
 10
166.9651963359
 20
116.3314803361
 10
166.9622730441
 20
116.2792503757
 10
166.9551268416
 20
116.2316640586
 10
166.9437577283
 20
116.188721385
 10
166.9278937838
 20
116.1501256826
 10
166.9078069286
 20
116.1161736237
 10
166.8843129241
 20
116.0877552243
 10
166.879508109
 20
116.0830446369
  0
LWPOLYLINE
  5
42E
100
AcDbEntity
  8
RACCORDO
100
AcDbPolyline
 62
253
  6
CONTINUOUS
 90
7
 70
0
 10
162.3094793136
 20
74.0770825775
 10
162.3074420026
 20
74.0612970072
 10
162.301116141
 20
74.0451619219
 10
162.290613991
 20
74.0295870598
 10
162.2761234519
 20
74.0148426121
 10
162.2578980245
 20
74.0011803907
 10
162.2362561673
 20
73.9888349225
  0
LWPOLYLINE
  5
42F
100
AcDbEntity
  8
RACCORDO
100
AcDbPolyline
 62
253
  6
CONTINUOUS
 90
7
 70
0
 10
162.309479472
 20
74.4285372422
 10
162.3073406873
 20
74.4122214682
 10
162.3009609286
 20
74.3961848615
 10
162.2904493551
 20
74.3807018131
 10
162.2759858229
 20
74.3660372422
 10
162.2578178071
 20
74.3524420636
 10
162.2362561673
 20
74.3401488945
  0
LWPOLYLINE
  5
430
100
AcDbEntity
  8
21814000
100
AcDbPolyline
 62
253
  6
CONTINUOUS
 90
8
 70
0
 10
141.6641362569
 20
126.6674781146
 10
141.6453115839
 20
126.6746241752
 10
141.6274579235
 20
126.6791808269
 10
141.6108751795
 20
126.6810715277
 10
141.5958419067
 20
126.6802645178
 10
141.582610632
 20
126.6767733533
 10
141.571403613
 20
126.6706566782
 10
141.5673358859
 20
126.6673178748
  0
LWPOLYLINE
  5
431
100
AcDbEntity
  8
RACCORDO
100
AcDbPolyline
 62
253
  6
CONTINUOUS
 90
7
 70
0
 10
148.8067802043
 20
122.9853132312
 10
148.8020872699
 20
122.9874875614
 10
148.7826402219
 20
122.9934925635
 10
148.7618222762
 20
122.9954679186
 10
148.7400699282
 20
122.9934722411
 10
148.7177220738
 20
122.9876307446
 10
148.6951613076
 20
122.9781207868
  0
LWPOLYLINE
  5
432
100
AcDbEntity
  8
RACCORDO
100
AcDbPolyline
 62
253
  6
CONTINUOUS
 90
7
 70
0
 10
147.4634364622
 20
123.6569853509
 10
147.4585843857
 20
123.6592390035
 10
147.4391373376
 20
123.6652440056
 10
147.4183193919
 20
123.6672193607
 10
147.3965670439
 20
123.6652236832
 10
147.3742191896
 20
123.6593821867
 10
147.3516584233
 20
123.6498722289
  0
LINE
  5
433
100
AcDbEntity
  8
21814000
100
AcDbLine
 62
253
  6
CONTINUOUS
 10
141.2290419363
 20
128.2336260108
 11
141.2324827658
 21
128.2320127439
  0
LWPOLYLINE
  5
434
100
AcDbEntity
  8
RACCORDO
100
AcDbPolyline
 62
253
  6
CONTINUOUS
 90
7
 70
0
 10
162.1712828709
 20
116.3030621514
 10
162.1670943056
 20
116.3050288072
 10
162.1478678196
 20
116.3111495275
 10
162.1271289845
 20
116.3133058962
 10
162.1052326475
 20
116.3114610173
 10
162.0825534609
 20
116.3056464572
 10
162.059479472
 20
116.2959617046
  0
LWPOLYLINE
  5
435
100
AcDbEntity
  8
RACCORDO
100
AcDbPolyline
 62
253
  6
CONTINUOUS
 90
7
 70
0
 10
160.8277799866
 20
116.9748135935
 10
160.8235914214
 20
116.9767802493
 10
160.8043649354
 20
116.9829009696
 10
160.7836261003
 20
116.9850573383
 10
160.7617297632
 20
116.9832124594
 10
160.7390505766
 20
116.9773978993
 10
160.7159765877
 20
116.9677131467
  0
LINE
  5
436
100
AcDbEntity
  8
RACCORDO
100
AcDbLine
 62
7
  6
CONTINUOUS
 10
147.454060517
 20
123.6614311089
 11
147.4636234524
 21
123.6568916657
  0
LINE
  5
437
100
AcDbEntity
  8
26814000
100
AcDbLine
 62
253
  6
CONTINUOUS
 10
131.3044542832
 20
131.5841140786
 11
132.924617173
 21
130.7740326337
  0
LINE
  5
438
100
AcDbEntity
  8
26814000
100
AcDbLine
 62
253
  6
CONTINUOUS
 10
144.6687724476
 20
124.9019549964
 11
146.2889353374
 21
124.0918735515
  0
LINE
  5
439
100
AcDbEntity
  8
26814000
100
AcDbLine
 62
7
  6
CONTINUOUS
 10
131.4158718985
 20
131.5903826419
 11
133.0347494767
 21
130.7809438528
  0
LINE
  5
43A
100
AcDbEntity
  8
26814000
100
AcDbLine
 62
7
  6
CONTINUOUS
 10
144.7801900629
 20
124.9082235596
 11
146.3990676411
 21
124.0987847705
  0
LINE
  5
43B
100
AcDbEntity
  8
RACCORDO
100
AcDbLine
 62
253
  6
CONTINUOUS
 10
147.3516584233
 20
123.6498722289
 11
148.6951613076
 21
122.9781207868
  0
LINE
  5
43C
100
AcDbEntity
  8
RACCORDO
100
AcDbLine
 62
253
  6
CONTINUOUS
 10
160.7159765877
 20
116.9677131467
 11
162.059479472
 21
116.2959617046
  0
LINE
  5
43D
100
AcDbEntity
  8
RACCORDO
100
AcDbLine
 62
7
  6
CONTINUOUS
 10
147.4634618222
 20
123.6569726757
 11
148.8069647064
 21
122.9852212336
  0
LINE
  5
43E
100
AcDbEntity
  8
RACCORDO
100
AcDbLine
 62
7
  6
CONTINUOUS
 10
160.8277799866
 20
116.9748135935
 11
162.1712828709
 21
116.3030621514
  0
LINE
  5
43F
100
AcDbEntity
  8
21814000
100
AcDbLine
 62
253
  6
CONTINUOUS
 10
140.7852712886
 20
127.2906908093
 11
141.5436768873
 21
126.91148801
  0
LINE
  5
440
100
AcDbEntity
  8
21814000
100
AcDbLine
 62
253
  6
CONTINUOUS
 10
140.8877116361
 20
127.5084063928
 11
141.6461172348
 21
127.1292035934
  0
LINE
  5
441
100
AcDbEntity
  8
21814000
100
AcDbLine
 62
7
  6
CONTINUOUS
 10
140.1745245951
 20
128.108757774
 11
142.7614787807
 21
126.8152806812
  0
LINE
  5
442
100
AcDbEntity
  8
21814000
100
AcDbLine
 62
253
  6
CONTINUOUS
 10
143.3688664972
 20
127.114646685
 11
141.1442670071
 21
128.22694643
  0
LINE
  5
443
100
AcDbEntity
  8
21814000
100
AcDbLine
 62
7
  6
CONTINUOUS
 10
143.418393589
 20
127.1390573327
 11
141.2324756077
 21
128.2320163234
  0
LINE
  5
444
100
AcDbEntity
  8
26814000
100
AcDbLine
 62
7
  6
CONTINUOUS
 10
143.9649925452
 20
127.4084620979
 11
141.1644740879
 21
128.8087213266
  0
LINE
  5
445
100
AcDbEntity
  8
26814000
100
AcDbLine
 62
7
  6
CONTINUOUS
 10
140.8109206973
 20
129.5380562112
 11
141.1644740879
 21
129.3612795159
  0
LWPOLYLINE
  5
446
100
AcDbEntity
  8
RACCORDO
100
AcDbPolyline
 62
7
  6
CONTINUOUS
 90
10
 70
0
 10
148.8067802043
 20
122.9853132312
 10
148.8181729367
 20
122.9792565582
 10
148.8452585775
 20
122.9615414464
 10
148.8698895107
 20
122.9404161372
 10
148.8916410105
 20
122.9161968615
 10
148.9101488863
 20
122.8892088753
 10
148.9250530643
 20
122.8598477306
 10
148.9360133396
 20
122.8286240623
 10
148.9427712674
 20
122.7961007778
 10
148.9451611492
 20
122.7617551284
  0
LWPOLYLINE
  5
447
100
AcDbEntity
  8
RACCORDO
100
AcDbPolyline
 62
253
  6
CONTINUOUS
 90
13
 70
0
 10
162.059479472
 20
116.2959617046
 10
162.0820402382
 20
116.2829108961
 10
162.1043880926
 20
116.2664045383
 10
162.1261404406
 20
116.2466478678
 10
162.1469583863
 20
116.223854567
 10
162.1664054343
 20
116.1984025168
 10
162.1839939298
 20
116.1708835979
 10
162.1993870002
 20
116.1418413996
 10
162.2123591547
 20
116.1117201761
 10
162.2226829418
 20
116.081051823
 10
162.23018212
 20
116.0503704403
 10
162.2347316276
 20
116.0202022016
 10
162.2362561673
 20
115.991067006
  0
LWPOLYLINE
  5
448
100
AcDbEntity
  8
RACCORDO
100
AcDbPolyline
 62
7
  6
CONTINUOUS
 90
10
 70
0
 10
162.1712828709
 20
116.3030621514
 10
162.1996176412
 20
116.2864837847
 10
162.2259490702
 20
116.2659695026
 10
162.2495818741
 20
116.2418162994
 10
162.269854606
 20
116.2145193726
 10
162.2862834371
 20
116.1846215152
 10
162.2985457635
 20
116.1525806451
 10
162.3063716935
 20
116.1187511555
 10
162.3094352768
 20
116.0841559524
 10
162.3094794683
 20
116.07947691
  0
LWPOLYLINE
  5
449
100
AcDbEntity
  8
RACCORDO
100
AcDbPolyline
 62
253
  6
CONTINUOUS
 90
13
 70
0
 10
161.6233597105
 20
113.9987006498
 10
161.6097740256
 20
114.0121785352
 10
161.5968452606
 20
114.0270555516
 10
161.5847131119
 20
114.0431709499
 10
161.5735086697
 20
114.0603505976
 10
161.5633529967
 20
114.0784088682
 10
161.5543558212
 20
114.0971506485
 10
161.5466143583
 20
114.116373435
 10
161.5402122576
 20
114.1358695203
 10
161.5352186959
 20
114.1554282457
 10
161.5316876297
 20
114.1748382764
 10
161.5296572133
 20
114.1938898848
 10
161.5291493861
 20
114.2123772156
  0
LWPOLYLINE
  5
44A
100
AcDbEntity
  8
RACCORDO
100
AcDbPolyline
 62
253
  6
CONTINUOUS
 90
13
 70
0
 10
161.6233599164
 20
113.9987015474
 10
161.6566515551
 20
113.9646784571
 10
161.6883061801
 20
113.9271586011
 10
161.7179815598
 20
113.8865476143
 10
161.7453568621
 20
113.8432845515
 10
161.7701361233
 20
113.7978371405
 10
161.7920514481
 20
113.7506967253
 10
161.8108659059
 20
113.7023729548
 10
161.8263760926
 20
113.653388272
 10
161.8384143299
 20
113.6042722666
 10
161.8468504783
 20
113.555555949
 10
161.8515933438
 20
113.5077660098
 10
161.8525916643
 20
113.4614191253
  0
LWPOLYLINE
  5
44B
100
AcDbEntity
  8
RACCORDO
100
AcDbPolyline
 62
7
  6
CONTINUOUS
 90
4
 70
0
 10
161.6143805976
 20
114.252576174
 10
161.6147247649
 20
114.252220328
 10
161.6145467918
 20
114.2524741745
 10
161.6125520183
 20
114.2554407455
  0
LWPOLYLINE
  5
44C
100
AcDbEntity
  8
26814000
100
AcDbPolyline
 62
7
  6
CONTINUOUS
 90
17
 70
0
 10
151.6318126903
 20
126.2647429357
 10
151.5981753965
 20
126.3008050862
 10
151.5644918084
 20
126.3354437459
 10
151.530761926
 20
126.3686589147
 10
151.4969170243
 20
126.4004662186
 10
151.4630258282
 20
126.4308500318
 10
151.4292945132
 20
126.4597634759
 10
151.3957427178
 20
126.4871826512
 10
151.3623508034
 20
126.5131314575
 10
151.3292660293
 20
126.537634716
 10
151.2965037159
 20
126.5606784229
 10
151.2640485428
 20
126.582276582
 10
151.2320018082
 20
126.602496026
 10
151.2003746687
 20
126.62132994
 10
151.1691559676
 20
126.6387851389
 10
151.1384135333
 20
126.6549489005
 10
151.1311409014
 20
126.6586253474
  0
LWPOLYLINE
  5
44D
100
AcDbEntity
  8
RACCORDO
100
AcDbPolyline
 62
253
  6
CONTINUOUS
 90
7
 70
0
 10
161.7873262913
 20
114.1733742095
 10
161.7757869731
 20
114.1928969562
 10
161.7609151361
 20
114.2116289488
 10
161.7427107802
 20
114.2295701874
 10
161.7211739055
 20
114.2467206718
 10
161.6963045118
 20
114.2630804021
 10
161.6681025994
 20
114.2786493784
  0
LWPOLYLINE
  5
44E
100
AcDbEntity
  8
RACCORDO
100
AcDbPolyline
 62
253
  6
CONTINUOUS
 90
7
 70
0
 10
161.7059260814
 20
114.999587991
 10
161.7159507267
 20
114.9816390017
 10
161.7227791493
 20
114.9655094738
 10
161.726294513
 20
114.9514753879
 10
161.7264366688
 20
114.9397768711
 10
161.7232031846
 20
114.9306140882
 10
161.7216684242
 20
114.9284883454
  0
LWPOLYLINE
  5
44F
100
AcDbEntity
  8
RACCORDO
100
AcDbPolyline
 62
253
  6
CONTINUOUS
 90
6
 70
0
 10
162.2362561673
 20
115.6397530339
 10
162.2462808126
 20
115.6218040447
 10
162.2531092352
 20
115.6056745167
 10
162.2566245989
 20
115.5916404308
 10
162.2567667547
 20
115.579941914
 10
162.2535332705
 20
115.5707791312
  0
LWPOLYLINE
  5
450
100
AcDbEntity
  8
RACCORDO
100
AcDbPolyline
 62
7
  6
CONTINUOUS
 90
5
 70
0
 10
161.6125520183
 20
114.2554407455
 10
161.6095678826
 20
114.2611108822
 10
161.6065146362
 20
114.268975
 10
161.6039493771
 20
114.2790248824
 10
161.6025086081
 20
114.2908411145
  0
LINE
  5
451
100
AcDbEntity
  8
21814000
100
AcDbLine
 62
7
  6
CONTINUOUS
 10
156.040063951
 20
129.6498469611
 11
156.0491794097
 21
129.6259531601
  0
LWPOLYLINE
  5
452
100
AcDbEntity
  8
21814000
100
AcDbPolyline
 62
253
  6
CONTINUOUS
 90
35
 70
0
 10
161.5712857098
 20
123.2463845267
 10
161.5828832361
 20
123.2095096062
 10
161.6028207435
 20
123.1365957347
 10
161.6191347406
 20
123.0656239844
 10
161.6327305009
 20
122.9965576494
 10
161.6437882577
 20
122.9295787801
 10
161.6523156327
 20
122.8646552786
 10
161.6589153142
 20
122.8014037155
 10
161.6637277281
 20
122.7398450271
 10
161.6667472675
 20
122.6800502214
 10
161.6683194056
 20
122.6216915165
 10
161.6685355846
 20
122.5647207872
 10
161.6674046375
 20
122.5092443938
 10
161.6651268095
 20
122.455156292
 10
161.6617656639
 20
122.4024417784
 10
161.6573430878
 20
122.3511556541
 10
161.6519881707
 20
122.3012917175
 10
161.6457594313
 20
122.2528754739
 10
161.6386756631
 20
122.2059095191
 10
161.6308015795
 20
122.160350474
 10
161.6221948952
 20
122.116213848
 10
161.6128658596
 20
122.0735027378
 10
161.6028039412
 20
122.0321527096
 10
161.5920543495
 20
121.9921251528
 10
161.5806307947
 20
121.9534701168
 10
161.5684748254
 20
121.9162544406
 10
161.5556223819
 20
121.8804273903
 10
161.5420924942
 20
121.8460467045
 10
161.5278053017
 20
121.8133411416
 10
161.5127938438
 20
121.7822734968
 10
161.4970777455
 20
121.7528858521
 10
161.4805626611
 20
121.7255259819
 10
161.4632343831
 20
121.7003117186
 10
161.4451535482
 20
121.6771307427
 10
161.4263377193
 20
121.6559862096
  0
LINE
  5
453
100
AcDbEntity
  8
RACCORDO
100
AcDbLine
 62
7
  6
CONTINUOUS
 10
167.6989737909
 20
117.8880830841
 11
167.6989737909
 21
117.6063675987
  0
LINE
  5
454
100
AcDbEntity
  8
RACCORDO
100
AcDbLine
 62
7
  6
CONTINUOUS
 10
167.6989737909
 20
81.4065057205
 11
167.6989737909
 21
81.1247902351
  0
LWPOLYLINE
  5
455
100
AcDbEntity
  8
RACCORDO
100
AcDbPolyline
 62
253
  6
CONTINUOUS
 90
13
 70
0
 10
161.7059260814
 20
74.4499838516
 10
161.7159507267
 20
74.4809821844
 10
161.7227791493
 20
74.5129624763
 10
161.726294513
 20
74.5453775356
 10
161.7264366688
 20
74.5776727317
 10
161.7232031846
 20
74.6092954847
 10
161.7166493861
 20
74.6397047207
 10
161.7068874106
 20
74.6683801291
 10
161.6940842882
 20
74.6948310659
 10
161.6784590839
 20
74.718604948
 10
161.6602791493
 20
74.7392949978
 10
161.6398555481
 20
74.7565472028
 10
161.6175377337
 20
74.7700663731
  0
LWPOLYLINE
  5
456
100
AcDbEntity
  8
RACCORDO
100
AcDbPolyline
 62
253
  6
CONTINUOUS
 90
5
 70
0
 10
162.2362561673
 20
74.3401488945
 10
162.2462198008
 20
74.3709195673
 10
162.2530457626
 20
74.402733937
 10
162.2565968213
 20
74.4350577845
 10
162.2567892004
 20
74.4673660352
  0
LWPOLYLINE
  5
457
100
AcDbEntity
  8
RACCORDO
100
AcDbPolyline
 62
7
  6
CONTINUOUS
 90
9
 70
0
 10
158.9970402664
 20
74.9384500522
 10
159.0102801708
 20
74.9664370884
 10
159.0217850765
 20
74.9946606981
 10
159.0314422169
 20
75.0226899959
 10
159.0391930727
 20
75.0501070012
 10
159.0449803158
 20
75.0762440629
 10
159.0488866774
 20
75.1006353828
 10
159.0510820991
 20
75.1230390363
 10
159.0517630254
 20
75.1431819031
  0
LWPOLYLINE
  5
458
100
AcDbEntity
  8
21814000
100
AcDbPolyline
 62
7
  6
CONTINUOUS
 90
10
 70
0
 10
141.1070384843
 20
128.2638930802
 10
141.0259160259
 20
128.2756134349
 10
140.9436424068
 20
128.2835166862
 10
140.8608493453
 20
128.2876056497
 10
140.7779701745
 20
128.2879039468
 10
140.6952403445
 20
128.2844119515
 10
140.6131895983
 20
128.2771163538
 10
140.5323571667
 20
128.2660120548
 10
140.4529589634
 20
128.251032002
 10
140.3754081332
 20
128.232095153
  0
LWPOLYLINE
  5
459
100
AcDbEntity
  8
26814000
100
AcDbPolyline
 62
7
  6
CONTINUOUS
 90
13
 70
0
 10
150.8848258018
 20
126.7460028193
 10
150.8501749918
 20
126.7524325005
 10
150.8149707688
 20
126.7578156533
 10
150.7792509169
 20
126.7621777941
 10
150.7430256
 20
126.7655717172
 10
150.7063578619
 20
126.768001467
 10
150.669361652
 20
126.7694126961
 10
150.632074617
 20
126.769822831
 10
150.5945236352
 20
126.7692589495
 10
150.5568029343
 20
126.7676669613
 10
150.5189635595
 20
126.7650378704
 10
150.4810143733
 20
126.7614158891
 10
150.4429849339
 20
126.7568210996
  0
LWPOLYLINE
  5
45A
100
AcDbEntity
  8
21814000
100
AcDbPolyline
 62
253
  6
CONTINUOUS
 90
13
 70
0
 10
141.1442670071
 20
128.22694643
 10
141.0745447772
 20
128.2405211748
 10
141.0038029783
 20
128.2507846759
 10
140.9320416104
 20
128.2577369334
 10
140.8586022341
 20
128.261387308
 10
140.7841432889
 20
128.2617264391
 10
140.7106400931
 20
128.2587262445
 10
140.6381155829
 20
128.2522816828
 10
140.5665468222
 20
128.2424977954
 10
140.4978403209
 20
128.2296616249
 10
140.4326315825
 20
128.2138688521
 10
140.3702851036
 20
128.1950237961
 10
140.3108008841
 20
128.1731264569
  0
LINE
  5
45B
100
AcDbEntity
  8
21814000
100
AcDbLine
 62
7
  6
CONTINUOUS
 10
141.1864621764
 20
128.248358693
 11
141.1070384843
 21
128.2638930802
  0
LINE
  5
45C
100
AcDbEntity
  8
26814000
100
AcDbLine
 62
7
  6
CONTINUOUS
 10
131.3295190891
 20
128.8771313154
 11
130.707201057
 21
129.0070718979
  0
LINE
  5
45D
100
AcDbEntity
  8
21814000
100
AcDbLine
 62
253
  6
CONTINUOUS
 10
160.4025831523
 20
123.3139440946
 11
159.8490490629
 21
123.4393454895
  0
LWPOLYLINE
  5
45E
100
AcDbEntity
  8
21814000
100
AcDbPolyline
 62
253
  6
CONTINUOUS
 90
4
 70
0
 10
140.7683341491
 20
127.5470356894
 10
140.8104572844
 20
127.5374848067
 10
140.8502497801
 20
127.5246083745
 10
140.8877116361
 20
127.5084063928
  0
LWPOLYLINE
  5
45F
100
AcDbEntity
  8
21814000
100
AcDbPolyline
 62
7
  6
CONTINUOUS
 90
4
 70
0
 10
140.1384590913
 20
128.1210980365
 10
140.149580131
 20
128.11842081
 10
140.161396572
 20
128.1144436335
 10
140.1738657207
 20
128.1090872113
  0
LWPOLYLINE
  5
460
100
AcDbEntity
  8
21814000
100
AcDbPolyline
 62
7
  6
CONTINUOUS
 90
7
 70
0
 10
141.1864553187
 20
128.2483602175
 10
141.1943160015
 20
128.246444212
 10
141.2034120544
 20
128.243799069
 10
141.2123754381
 20
128.2407251569
 10
141.2211957211
 20
128.2372248058
 10
141.2298531825
 20
128.2333036802
 10
141.2324937407
 20
128.2320072538
  0
LWPOLYLINE
  5
461
100
AcDbEntity
  8
26814000
100
AcDbPolyline
 62
7
  6
CONTINUOUS
 90
18
 70
0
 10
143.6623070629
 20
130.3930200406
 10
143.6427449785
 20
130.4021097736
 10
143.6198491983
 20
130.4110951883
 10
143.5963399121
 20
130.4185974211
 10
143.57219859
 20
130.4246315909
 10
143.5475088366
 20
130.4291773753
 10
143.5222474104
 20
130.4322313587
 10
143.4964375529
 20
130.4337969567
 10
143.470232594
 20
130.4338640933
 10
143.4436486314
 20
130.4324253173
 10
143.4166695674
 20
130.42948808
 10
143.3894004388
 20
130.4250646587
 10
143.3618262591
 20
130.4191462731
 10
143.3339620148
 20
130.4117417035
 10
143.3059577018
 20
130.4028895689
 10
143.2778633186
 20
130.3926027422
 10
143.2496288666
 20
130.3808683505
 10
143.2212543458
 20
130.3676863937
  0
LWPOLYLINE
  5
462
100
AcDbEntity
  8
RACCORDO
100
AcDbPolyline
 62
7
  6
CONTINUOUS
 90
12
 70
0
 10
157.2272628194
 20
123.0048079274
 10
157.2188634525
 20
123.0087548324
 10
157.2000897261
 20
123.015857509
 10
157.1804665388
 20
123.0209784269
 10
157.1600046344
 20
123.0241426512
 10
157.1389650115
 20
123.0253098209
 10
157.1173402698
 20
123.0244543543
 10
157.0951378097
 20
123.0216018332
 10
157.0726408313
 20
123.0167886425
 10
157.0499437347
 20
123.0100269105
 10
157.0269521197
 20
123.0013045089
 10
157.0036659865
 20
122.9906214377
  0
LWPOLYLINE
  5
463
100
AcDbEntity
  8
RACCORDO
100
AcDbPolyline
 62
7
  6
CONTINUOUS
 90
12
 70
0
 10
159.5721646109
 20
122.3623789403
 10
159.5610727999
 20
122.3677049447
 10
159.5242237161
 20
122.3823713957
 10
159.4856865818
 20
122.393171586
 10
159.4454822824
 20
122.4001533515
 10
159.4041123877
 20
122.4032295909
 10
159.3615622957
 20
122.4023513773
 10
159.3178466085
 20
122.3975676377
 10
159.2735107022
 20
122.3889380516
 10
159.2287363688
 20
122.3764825124
 10
159.1833418165
 20
122.3601811267
 10
159.137327045
 20
122.3400338947
  0
LWPOLYLINE
  5
464
100
AcDbEntity
  8
26814000
100
AcDbPolyline
 62
7
  6
CONTINUOUS
 90
10
 70
0
 10
151.1311409014
 20
126.6586253474
 10
151.1081612222
 20
126.6698167796
 10
151.0783851778
 20
126.6833932214
 10
151.0491116588
 20
126.6957788381
 10
151.0203216508
 20
126.7069806347
 10
150.9920341681
 20
126.7169916062
 10
150.9643325118
 20
126.7258913506
 10
150.9372444488
 20
126.7337064006
 10
150.9107422121
 20
126.7404102235
 10
150.8848258018
 20
126.7460028193
  0
LINE
  5
465
100
AcDbEntity
  8
0
100
AcDbLine
 62
7
  6
CONTINUOUS
 10
157.9848222076
 20
121.3089928097
 11
160.7623629374
 21
119.9202224448
  0
LINE
  5
466
100
AcDbEntity
  8
26814000
100
AcDbLine
 62
7
  6
CONTINUOUS
 10
145.3728082414
 20
128.1023387563
 11
142.5622585944
 21
129.5076135798
  0
LINE
  5
467
100
AcDbEntity
  8
21814000
100
AcDbLine
 62
7
  6
CONTINUOUS
 10
152.214925851
 20
125.1539250019
 11
151.4271372034
 21
125.5478193257
  0
LINE
  5
468
100
AcDbEntity
  8
RACCORDO
100
AcDbLine
 62
253
  6
CONTINUOUS
 10
156.3978150414
 20
123.2935469102
 11
157.0036659865
 21
122.9906214377
  0
LINE
  5
469
100
AcDbEntity
  8
RACCORDO
100
AcDbLine
 62
253
  6
CONTINUOUS
 10
161.9534134548
 20
120.5157477035
 11
162.5592643999
 21
120.212822231
  0
LINE
  5
46A
100
AcDbEntity
  8
0
100
AcDbLine
 62
7
  6
CONTINUOUS
 10
163.0057268269
 20
120.0395936211
 11
162.8881334075
 21
120.0983903308
  0
LINE
  5
46B
100
AcDbEntity
  8
0
100
AcDbLine
 62
7
  6
CONTINUOUS
 10
162.0090384229
 20
120.537937823
 11
159.8320931113
 21
121.6264104789
  0
LINE
  5
46C
100
AcDbEntity
  8
26814000
100
AcDbLine
 62
7
  6
CONTINUOUS
 10
143.9221905346
 20
129.5813617672
 11
146.1319314227
 21
128.4764913231
  0
LINE
  5
46D
100
AcDbEntity
  8
26814000
100
AcDbLine
 62
7
  6
CONTINUOUS
 10
146.8775162458
 20
128.1036989116
 11
147.0233296559
 21
128.0307922066
  0
LINE
  5
46E
100
AcDbEntity
  8
RACCORDO
100
AcDbLine
 62
7
  6
CONTINUOUS
 10
156.6227035259
 20
123.3071069605
 11
157.2272727843
 21
123.0048223313
  0
LINE
  5
46F
100
AcDbEntity
  8
RACCORDO
100
AcDbLine
 62
7
  6
CONTINUOUS
 10
162.1770202526
 20
120.5299485971
 11
162.7815895109
 21
120.227663968
  0
LINE
  5
470
100
AcDbEntity
  8
26814000
100
AcDbLine
 62
7
  6
CONTINUOUS
 10
141.0547327889
 20
131.2783343198
 11
141.235184766
 21
131.1881083312
  0
LINE
  5
471
100
AcDbEntity
  8
26814000
100
AcDbLine
 62
7
  6
CONTINUOUS
 10
146.6091963031
 20
128.5011025627
 11
146.7896482802
 21
128.4108765741
  0
LINE
  5
472
100
AcDbEntity
  8
RACCORDO
100
AcDbLine
 62
253
  6
CONTINUOUS
 10
155.9731265302
 20
123.9221341521
 11
159.137327045
 21
122.3400338947
  0
LINE
  5
473
100
AcDbEntity
  8
RACCORDO
100
AcDbLine
 62
253
  6
CONTINUOUS
 10
163.3799677321
 20
120.2187135511
 11
166.544168247
 21
118.6366132937
  0
LINE
  5
474
100
AcDbEntity
  8
26814000
100
AcDbLine
 62
253
  6
CONTINUOUS
 10
140.2421644449
 20
131.8572313441
 11
143.2212543458
 21
130.3676863937
  0
LINE
  5
475
100
AcDbEntity
  8
26814000
100
AcDbLine
 62
253
  6
CONTINUOUS
 10
147.4638950329
 20
128.2463660501
 11
150.4429849339
 21
126.7568210996
  0
LINE
  5
476
100
AcDbEntity
  8
RACCORDO
100
AcDbLine
 62
7
  6
CONTINUOUS
 10
156.2472926672
 20
124.0248508535
 11
159.5721999256
 21
122.3623972243
  0
LINE
  5
477
100
AcDbEntity
  8
RACCORDO
100
AcDbLine
 62
7
  6
CONTINUOUS
 10
163.8148406127
 20
120.2410768808
 11
167.1397478711
 21
118.5786232516
  0
LINE
  5
478
100
AcDbEntity
  8
26814000
100
AcDbLine
 62
7
  6
CONTINUOUS
 10
147.904938036
 20
128.2717155167
 11
151.1314279281
 21
126.6584705706
  0
LINE
  5
479
100
AcDbEntity
  8
0
100
AcDbLine
 62
7
  6
CONTINUOUS
 10
153.1922225949
 20
126.0792409017
 11
152.4852536547
 21
126.4327253718
  0
LINE
  5
47A
100
AcDbEntity
  8
0
100
AcDbLine
 62
7
  6
CONTINUOUS
 10
153.1922225949
 20
126.0792409017
 11
153.4061150488
 21
125.881707634
  0
LINE
  5
47B
100
AcDbEntity
  8
RACCORDO
100
AcDbLine
 62
253
  6
CONTINUOUS
 10
156.386715135
 20
126.3535607874
 11
156.4020481742
 21
126.3376347965
  0
LWPOLYLINE
  5
47C
100
AcDbEntity
  8
RACCORDO
100
AcDbPolyline
 62
7
  6
CONTINUOUS
 90
4
 70
0
 10
162.2893712287
 20
73.9789899753
 10
162.3003315041
 20
74.0102136437
 10
162.3070894318
 20
74.0427369281
 10
162.3094793136
 20
74.0770825775
  0
LWPOLYLINE
  5
47D
100
AcDbEntity
  8
RACCORDO
100
AcDbPolyline
 62
253
  6
CONTINUOUS
 90
7
 70
0
 10
161.595331628
 20
75.1234408687
 10
161.5940552567
 20
75.1202531556
 10
161.5860591481
 20
75.10717605
 10
161.5754676603
 20
75.0945173664
 10
161.562365701
 20
75.0824175242
 10
161.546876528
 20
75.0710083384
 10
161.5291493861
 20
75.0604179317
  0
LWPOLYLINE
  5
47E
100
AcDbEntity
  8
RACCORDO
100
AcDbPolyline
 62
253
  6
CONTINUOUS
 90
6
 70
0
 10
160.8326822148
 20
74.7541717671
 10
160.8326273336
 20
74.7540599147
 10
160.8278437702
 20
74.740172728
 10
160.8244642851
 20
74.7250521282
 10
160.8225238667
 20
74.7088546585
 10
160.8220426049
 20
74.6917480115
  0
LWPOLYLINE
  5
47F
100
AcDbEntity
  8
RACCORDO
100
AcDbPolyline
 62
253
  6
CONTINUOUS
 90
10
 70
0
 10
159.0365979824
 20
74.8230993816
 10
159.0537733572
 20
74.8455223036
 10
159.0695211637
 20
74.8695799594
 10
159.0836284399
 20
74.8949470106
 10
159.095904409
 20
74.9212804113
 10
159.1061830597
 20
74.9482240475
 10
159.1143253909
 20
74.9754135527
 10
159.1202212914
 20
75.0024812355
 10
159.1237910293
 20
75.0290610519
 10
159.1249863301
 20
75.0547935555
  0
LWPOLYLINE
  5
480
100
AcDbEntity
  8
RACCORDO
100
AcDbPolyline
 62
7
  6
CONTINUOUS
 90
5
 70
0
 10
158.932467292
 20
74.8392815487
 10
158.9498146644
 20
74.8615041007
 10
158.9665467399
 20
74.8856293596
 10
158.9823654688
 20
74.9113632581
 10
158.9970402664
 20
74.9384500522
  0
LINE
  5
481
100
AcDbEntity
  8
DRAFT
100
AcDbLine
 62
7
  6
CONTINUOUS
 10
162.7665862532
 20
79.6371261178
 11
166.9651963359
 21
81.773394448
  0
LINE
  5
482
100
AcDbEntity
  8
RACCORDO
100
AcDbLine
 62
253
  6
CONTINUOUS
 10
157.8702974444
 20
79.1253985945
 11
158.7912771308
 21
79.5507375339
  0
LINE
  5
483
100
AcDbEntity
  8
RACCORDO
100
AcDbLine
 62
7
  6
CONTINUOUS
 10
157.8522915372
 20
78.9065787625
 11
158.6907333245
 21
79.2937989649
  0
LINE
  5
484
100
AcDbEntity
  8
26814000
100
AcDbLine
 62
7
  6
CONTINUOUS
 10
142.5622585944
 20
129.5076135798
 11
143.9221905346
 21
129.5813617672
  0
LWPOLYLINE
  5
485
100
AcDbEntity
  8
21814000
100
AcDbPolyline
 62
7
  6
CONTINUOUS
 90
3
 70
0
 10
140.1183678846
 20
128.122890321
 10
140.1280478949
 20
128.1225529071
 10
140.1384590913
 20
128.1210980365
  0
LWPOLYLINE
  5
486
100
AcDbEntity
  8
RACCORDO
100
AcDbPolyline
 62
7
  6
CONTINUOUS
 90
9
 70
0
 10
155.5300048018
 20
126.8718276717
 10
155.5238880612
 20
126.8734271694
 10
155.5141178475
 20
126.8749599833
 10
155.503791652
 20
126.8753754277
 10
155.4930044549
 20
126.8746736552
 10
155.4820411959
 20
126.8728551238
 10
155.4709968552
 20
126.8699199863
 10
155.4597764527
 20
126.8658680899
 10
155.4483799885
 20
126.8606994347
  0
LINE
  5
487
100
AcDbEntity
  8
0
100
AcDbLine
 62
7
  6
CONTINUOUS
 10
154.136942003
 20
126.204980442
 11
153.6871973417
 21
126.3267282751
  0
LWPOLYLINE
  5
488
100
AcDbEntity
  8
RACCORDO
100
AcDbPolyline
 62
7
  6
CONTINUOUS
 90
28
 70
0
 10
155.5299946656
 20
126.8718037193
 10
155.421279319
 20
126.903089565
 10
155.306424276
 20
126.9324432421
 10
155.1891628521
 20
126.9587703122
 10
155.0697896873
 20
126.982032404
 10
154.9485693156
 20
127.0022029568
 10
154.8257399461
 20
127.0192622321
 10
154.7015911487
 20
127.0331860736
 10
154.5764076856
 20
127.0439567426
 10
154.4504271681
 20
127.0515641423
 10
154.323940782
 20
127.055997521
 10
154.1972380591
 20
127.0572520757
 10
154.0705563136
 20
127.0553273026
 10
153.9441850438
 20
127.0502259676
 10
153.8184154533
 20
127.0419567555
 10
153.6934858539
 20
127.03052888
 10
153.5696869793
 20
127.0159590478
 10
153.4473022269
 20
126.9982690262
 10
153.3265537907
 20
126.9774748508
 10
153.2077188696
 20
126.9536032508
 10
153.0910830462
 20
126.926688199
 10
152.9768714732
 20
126.8967534317
 10
152.865356295
 20
126.8638363278
 10
152.7568100986
 20
126.827979693
 10
152.651443207
 20
126.7892080754
 10
152.5494964246
 20
126.7475552671
 10
152.4512502871
 20
126.7030744926
 10
152.3569662259
 20
126.6558171031
  0
LWPOLYLINE
  5
489
100
AcDbEntity
  8
RACCORDO
100
AcDbPolyline
 62
7
  6
CONTINUOUS
 90
3
 70
0
 10
155.5420454835
 20
126.8670098911
 10
155.5331972732
 20
126.8707771387
 10
155.5300048018
 20
126.8718276717
  0
LINE
  5
48A
100
AcDbEntity
  8
0
100
AcDbLine
 62
7
  6
CONTINUOUS
 10
153.6871973417
 20
126.3267282751
 11
152.9802284016
 21
126.6802127452
  0
LINE
  5
48B
100
AcDbEntity
  8
21814000
100
AcDbLine
 62
7
  6
CONTINUOUS
 10
152.7197336292
 20
127.1628583863
 11
152.2811231567
 21
127.3821636226
  0
LINE
  5
48C
100
AcDbEntity
  8
21814000
100
AcDbLine
 62
7
  6
CONTINUOUS
 10
156.9496466092
 20
126.9231220118
 11
156.2231492205
 21
127.2863707061
  0
LINE
  5
48D
100
AcDbEntity
  8
21814000
100
AcDbLine
 62
7
  6
CONTINUOUS
 10
156.7668169488
 20
127.0301966945
 11
156.4626975649
 21
127.1822563865
  0
LINE
  5
48E
100
AcDbEntity
  8
RACCORDO
100
AcDbLine
 62
7
  6
CONTINUOUS
 10
156.390573621
 20
126.4427458224
 11
156.5033485062
 21
126.3862534962
  0
LWPOLYLINE
  5
48F
100
AcDbEntity
  8
RACCORDO
100
AcDbPolyline
 62
7
  6
CONTINUOUS
 90
10
 70
0
 10
156.3526295537
 20
126.4554134773
 10
156.2551525
 20
126.505468909
 10
156.1595392982
 20
126.5544447846
 10
156.0657899482
 20
126.6023411042
 10
155.9739188669
 20
126.649159292
 10
155.8839116375
 20
126.6948979238
 10
155.7957250095
 20
126.7395527268
 10
155.7093445661
 20
126.7831222769
 10
155.6247847241
 20
126.8256079984
 10
155.5420454835
 20
126.8670098911
  0
LWPOLYLINE
  5
490
100
AcDbEntity
  8
21814000
100
AcDbPolyline
 62
7
  6
CONTINUOUS
 90
10
 70
0
 10
156.7668169488
 20
127.0301966945
 10
156.7354014944
 20
127.0482495068
 10
156.7033845171
 20
127.0660168092
 10
156.670766017
 20
127.0834986018
 10
156.6375358262
 20
127.1006999684
 10
156.6037041126
 20
127.1176158252
 10
156.5693013794
 20
127.1342309206
 10
156.5343377942
 20
127.1505401707
 10
156.4988031894
 20
127.1665486593
 10
156.4626975649
 20
127.1822563865
  0
LINE
  5
491
100
AcDbEntity
  8
RACCORDO
100
AcDbLine
 62
7
  6
CONTINUOUS
 10
156.3603879823
 20
126.4508270053
 11
156.3526295537
 21
126.4554134773
  0
LWPOLYLINE
  5
492
100
AcDbEntity
  8
RACCORDO
100
AcDbPolyline
 62
253
  6
CONTINUOUS
 90
5
 70
0
 10
156.390573621
 20
126.4427458224
 10
156.4150966113
 20
126.422241444
 10
156.439462373
 20
126.4009631796
 10
156.4635991231
 20
126.3789009023
 10
156.4717479505
 20
126.3710869326
  0
LWPOLYLINE
  5
493
100
AcDbEntity
  8
RACCORDO
100
AcDbPolyline
 62
253
  6
CONTINUOUS
 90
4
 70
0
 10
156.2969370218
 20
126.4364498139
 10
156.3197974512
 20
126.4168710805
 10
156.3423749895
 20
126.3965180339
 10
156.3646696367
 20
126.3753906743
  0
LINE
  5
494
100
AcDbEntity
  8
RACCORDO
100
AcDbLine
 62
253
  6
CONTINUOUS
 10
156.3646696367
 20
126.3753906743
 11
156.386715135
 21
126.3535607874
  0
LINE
  5
495
100
AcDbEntity
  8
21814000
100
AcDbLine
 62
253
  6
CONTINUOUS
 10
160.5601848352
 20
127.5438012129
 11
160.9797280462
 21
126.8201962115
  0
LINE
  5
496
100
AcDbEntity
  8
21814000
100
AcDbLine
 62
7
  6
CONTINUOUS
 10
160.9504491996
 20
127.5381913991
 11
161.2972869701
 21
126.9399847332
  0
LWPOLYLINE
  5
497
100
AcDbEntity
  8
21814000
100
AcDbPolyline
 62
253
  6
CONTINUOUS
 90
13
 70
0
 10
160.9797280462
 20
126.8201962115
 10
161.0314972956
 20
126.726615694
 10
161.0795406461
 20
126.6308962394
 10
161.1236523685
 20
126.533447733
 10
161.1636435697
 20
126.4346874639
 10
161.1993430009
 20
126.3350383389
 10
161.2305977913
 20
126.2349270721
 10
161.2572741029
 20
126.1347823554
 10
161.2792577038
 20
126.0350330238
 10
161.2964544566
 20
125.9361062204
 10
161.3087907224
 20
125.8384255652
 10
161.3162136755
 20
125.7424093414
 10
161.3186915301
 20
125.6484687051
  0
LWPOLYLINE
  5
498
100
AcDbEntity
  8
RACCORDO
100
AcDbPolyline
 62
253
  6
CONTINUOUS
 90
10
 70
0
 10
160.3801008667
 20
74.1513479395
 10
160.3972762414
 20
74.1737708614
 10
160.4130240479
 20
74.1978285172
 10
160.4271313241
 20
74.2231955684
 10
160.4394072933
 20
74.2495289692
 10
160.449685944
 20
74.2764726054
 10
160.4578282751
 20
74.3036621106
 10
160.4637241756
 20
74.3307297934
 10
160.4672939135
 20
74.3573096098
 10
160.4684892143
 20
74.3830421133
  0
LWPOLYLINE
  5
499
100
AcDbEntity
  8
RACCORDO
100
AcDbPolyline
 62
253
  6
CONTINUOUS
 90
13
 70
0
 10
160.6452659096
 20
73.9196537657
 10
160.6716443421
 20
73.9535636167
 10
160.6960946776
 20
73.9887788725
 10
160.7186169161
 20
74.0252995332
 10
160.7393352342
 20
74.0633972992
 10
160.7581254552
 20
74.1028004701
 10
160.7746150495
 20
74.1426939443
 10
160.7887706477
 20
74.183090423
 10
160.8006256192
 20
74.223977205
 10
160.8099075428
 20
74.2645010855
 10
160.8165256114
 20
74.304377663
 10
160.8205706321
 20
74.3438913389
 10
160.8220426049
 20
74.3830421133
  0
LINE
  5
49A
100
AcDbEntity
  8
RACCORDO
100
AcDbLine
 62
7
  6
CONTINUOUS
 10
158.4021372061
 20
74.1991165057
 11
158.932467292
 21
74.8392815487
  0
LINE
  5
49B
100
AcDbEntity
  8
RACCORDO
100
AcDbLine
 62
253
  6
CONTINUOUS
 10
158.5062678965
 20
74.1829343387
 11
159.0365979824
 21
74.8230993816
  0
LINE
  5
49C
100
AcDbEntity
  8
RACCORDO
100
AcDbLine
 62
253
  6
CONTINUOUS
 10
160.3801008667
 20
74.1513479395
 11
159.8497707808
 21
73.5111828966
  0
LINE
  5
49D
100
AcDbEntity
  8
RACCORDO
100
AcDbLine
 62
253
  6
CONTINUOUS
 10
160.6452659096
 20
73.9196537657
 11
160.1149358237
 21
73.2794887228
  0
LWPOLYLINE
  5
49E
100
AcDbEntity
  8
RACCORDO
100
AcDbPolyline
 62
253
  6
CONTINUOUS
 90
8
 70
0
 10
158.402134746
 20
74.1991135355
 10
158.407076121
 20
74.2034110206
 10
158.4168266969
 20
74.2071098489
 10
158.4296303639
 20
74.2079332044
 10
158.4452666157
 20
74.2058671169
 10
158.4634664329
 20
74.2009474966
 10
158.4839172865
 20
74.1932591364
 10
158.5062678965
 20
74.1829343387
  0
LWPOLYLINE
  5
49F
100
AcDbEntity
  8
RACCORDO
100
AcDbPolyline
 62
253
  6
CONTINUOUS
 90
8
 70
0
 10
158.932467292
 20
74.8392815487
 10
158.9374863301
 20
74.8436260769
 10
158.9472483056
 20
74.8472931282
 10
158.960051428
 20
74.8480942153
 10
158.9756766322
 20
74.8460156314
 10
158.9938565669
 20
74.8410929418
 10
159.0142801681
 20
74.8334103749
 10
159.0365979824
 20
74.8230993816
  0
LINE
  5
4A0
100
AcDbEntity
  8
DRAFT
100
AcDbLine
 62
7
  6
CONTINUOUS
 10
162.7665862532
 20
78.8526873132
 11
167.6989737909
 21
81.4065057205
  0
LINE
  5
4A1
100
AcDbEntity
  8
RACCORDO
100
AcDbLine
 62
7
  6
CONTINUOUS
 10
162.7665862532
 20
78.238177459
 11
166.544168247
 21
80.1415334369
  0
LINE
  5
4A2
100
AcDbEntity
  8
RACCORDO
100
AcDbLine
 62
7
  6
CONTINUOUS
 10
162.7665862532
 20
78.3758271413
 11
167.6555055587
 21
80.8007671584
  0
LWPOLYLINE
  5
4A3
100
AcDbEntity
  8
RACCORDO
100
AcDbPolyline
 62
253
  6
CONTINUOUS
 90
11
 70
0
 10
153.0521441639
 20
72.2064438734
 10
153.0689276828
 20
72.2125508197
 10
153.1186752153
 20
72.2368213434
 10
153.1649113357
 20
72.2690671007
 10
153.2071296727
 20
72.3089348731
 10
153.2448678812
 20
72.3559879743
 10
153.2777126932
 20
72.4097110375
 10
153.3053044297
 20
72.4695156409
 10
153.3273409524
 20
72.5347467702
 10
153.343580968
 20
72.6046899966
 10
153.3538466664
 20
72.6785792922
  0
LINE
  5
4A4
100
AcDbEntity
  8
RACCORDO
100
AcDbLine
 62
253
  6
CONTINUOUS
 10
157.4527821255
 20
74.0514730915
 11
153.3538466664
 21
72.6785792922
  0
LINE
  5
4A5
100
AcDbEntity
  8
RACCORDO
100
AcDbLine
 62
7
  6
CONTINUOUS
 10
153.0515318913
 20
72.2062394336
 11
157.1549448218
 21
73.5806322789
  0
LWPOLYLINE
  5
4A6
100
AcDbEntity
  8
RACCORDO
100
AcDbPolyline
 62
7
  6
CONTINUOUS
 90
7
 70
0
 10
160.8349187072
 20
74.7548558828
 10
160.8618989149
 20
74.7634661658
 10
160.8905667824
 20
74.7732542978
 10
160.9203348484
 20
74.7842932971
 10
160.9506788378
 20
74.796610516
 10
160.9813581911
 20
74.8102781813
 10
161.0136054163
 20
74.8260283042
  0
LWPOLYLINE
  5
4A7
100
AcDbEntity
  8
RACCORDO
100
AcDbPolyline
 62
253
  6
CONTINUOUS
 90
17
 70
0
 10
160.9673787879
 20
75.0320087003
 10
160.9951886815
 20
75.0406925661
 10
161.0079952196
 20
75.044624062
 10
161.0200782962
 20
75.0482659432
 10
161.0315486561
 20
75.0517823593
 10
161.0423963778
 20
75.0551954232
 10
161.0526313829
 20
75.0584830221
 10
161.0623941815
 20
75.0617429672
 10
161.0716935025
 20
75.0649940062
 10
161.080520617
 20
75.0682173913
 10
161.0889898474
 20
75.0714546907
 10
161.0971081314
 20
75.0747142376
 10
161.1048685314
 20
75.0779876989
 10
161.112364557
 20
75.0812916431
 10
161.1196273781
 20
75.084631593
 10
161.1266258248
 20
75.0880020258
 10
161.1333598972
 20
75.0914029414
  0
LINE
  5
4A8
100
AcDbEntity
  8
21814000
100
AcDbLine
 62
7
  6
CONTINUOUS
 10
159.1614169826
 20
127.6619831063
 11
156.0491794097
 21
129.2181018928
  0
LINE
  5
4A9
100
AcDbEntity
  8
21814000
100
AcDbLine
 62
253
  6
CONTINUOUS
 10
160.5601848352
 20
127.5438012129
 11
159.7545128992
 21
127.946637181
  0
LINE
  5
4AA
100
AcDbEntity
  8
21814000
100
AcDbLine
 62
253
  6
CONTINUOUS
 10
155.0528498201
 20
130.2974687205
 11
154.0816909864
 21
130.7830481373
  0
LINE
  5
4AB
100
AcDbEntity
  8
21814000
100
AcDbLine
 62
7
  6
CONTINUOUS
 10
160.8904602128
 20
127.594483317
 11
160.0647013126
 21
128.0073627671
  0
LINE
  5
4AC
100
AcDbEntity
  8
21814000
100
AcDbLine
 62
7
  6
CONTINUOUS
 10
155.5254325916
 20
130.2769971276
 11
154.4730765789
 21
130.803175134
  0
LWPOLYLINE
  5
4AD
100
AcDbEntity
  8
21814000
100
AcDbPolyline
 62
7
  6
CONTINUOUS
 90
4
 70
0
 10
160.8923857647
 20
127.5935203437
 10
160.9060292407
 20
127.5857056019
 10
160.9295649373
 20
127.5663333234
 10
160.94974308
 20
127.5394554919
  0
LWPOLYLINE
  5
4AE
100
AcDbEntity
  8
21814000
100
AcDbPolyline
 62
7
  6
CONTINUOUS
 90
35
 70
0
 10
161.5712857098
 20
125.3284725985
 10
161.6880592385
 20
125.2513704923
 10
161.827855912
 20
125.146856846
 10
161.9645937677
 20
125.032328249
 10
162.0974592113
 20
124.9086117445
 10
162.2258446645
 20
124.7764649694
 10
162.3494262647
 20
124.6363975634
 10
162.467806426
 20
124.4889920597
 10
162.5805608091
 20
124.3348811702
 10
162.6872363751
 20
124.1747743861
 10
162.7873933872
 20
124.009418629
 10
162.880609331
 20
123.8396008673
 10
162.9665624536
 20
123.6659828367
 10
163.0449778352
 20
123.489144878
 10
163.1155445102
 20
123.3097543142
 10
163.1779190926
 20
123.1286197541
 10
163.2318038286
 20
122.9465244591
 10
163.2769405517
 20
122.7642198761
 10
163.3130994545
 20
122.5824430391
 10
163.3400751984
 20
122.4019195792
 10
163.3576950038
 20
122.223217127
 10
163.3657679049
 20
122.0472206112
 10
163.3641678431
 20
121.8750403704
 10
163.352820471
 20
121.707124395
 10
163.3316858688
 20
121.5443474587
 10
163.3009565147
 20
121.3882538184
 10
163.2608520223
 20
121.2395118536
 10
163.2115256742
 20
121.0984189232
 10
163.1533305545
 20
120.9657528333
 10
163.0865221708
 20
120.8418554825
 10
163.0114534572
 20
120.7271963843
 10
162.9288637517
 20
120.6225987462
 10
162.8394245807
 20
120.5284714068
 10
162.7436002723
 20
120.4448908469
 10
162.6420088028
 20
120.3720419214
  0
LWPOLYLINE
  5
4AF
100
AcDbEntity
  8
21814000
100
AcDbPolyline
 62
253
  6
CONTINUOUS
 90
34
 70
0
 10
161.5712857098
 20
125.2498620776
 10
161.6493808005
 20
125.1943502741
 10
161.7865216704
 20
125.0848946648
 10
161.9210641621
 20
124.9653691913
 10
162.0523807409
 20
124.8363313426
 10
162.1798588995
 20
124.6983829942
 10
162.3029040363
 20
124.5521675837
 10
162.4209422317
 20
124.3983671049
 10
162.5334229262
 20
124.2376989228
 10
162.6398214808
 20
124.0709124355
 10
162.7396416238
 20
123.8987855799
 10
162.8324177652
 20
123.7221212052
 10
162.9177171705
 20
123.5417433242
 10
162.9951419793
 20
123.3584932704
 10
163.0643310611
 20
123.1732257725
 10
163.1249616988
 20
122.9868049694
 10
163.1767510942
 20
122.8001003796
 10
163.2194576872
 20
122.6139828455
 10
163.2528822823
 20
122.4293204711
 10
163.2768689778
 20
122.2469745734
 10
163.2913058931
 20
122.0677956643
 10
163.2961256904
 20
121.8926194843
 10
163.2913058888
 20
121.7222631039
 10
163.2768689692
 20
121.5575211127
 10
163.2528822694
 20
121.3991619133
 10
163.2194576701
 20
121.2479241371
 10
163.1767510729
 20
121.1045131994
 10
163.1249616732
 20
120.9695980088
 10
163.0643310314
 20
120.8438078475
 10
162.9951419457
 20
120.7277294357
 10
162.917717133
 20
120.6219041952
 10
162.8324177239
 20
120.5268257243
 10
162.7396415788
 20
120.4429374959
 10
162.6420088028
 20
120.3720419214
  0
LWPOLYLINE
  5
4B0
100
AcDbEntity
  8
21814000
100
AcDbPolyline
 62
253
  6
CONTINUOUS
 90
12
 70
0
 10
161.2972869701
 20
126.9399847332
 10
161.2959278334
 20
126.9415818472
 10
161.2880089153
 20
126.9441034503
 10
161.2743643228
 20
126.9432346412
 10
161.2550956062
 20
126.9389818858
 10
161.2303461732
 20
126.9313768355
 10
161.2003002222
 20
126.920476091
 10
161.1651813708
 20
126.9063607813
 10
161.1252509917
 20
126.8891359602
 10
161.0808062678
 20
126.8689298239
 10
161.0321779799
 20
126.8458927569
 10
160.9797280452
 20
126.8201962133
  0
LINE
  5
4B1
100
AcDbEntity
  8
RACCORDO
100
AcDbLine
 62
253
  6
CONTINUOUS
 10
161.9537338696
 20
75.5209440389
 11
161.9883685296
 21
75.5444565001
  0
LWPOLYLINE
  5
4B2
100
AcDbEntity
  8
RACCORDO
100
AcDbPolyline
 62
253
  6
CONTINUOUS
 90
9
 70
0
 10
161.9883685296
 20
75.5444565001
 10
162.014569612
 20
75.5620386277
 10
162.0286639974
 20
75.5712409169
 10
162.0434216743
 20
75.5806870398
 10
162.0588587062
 20
75.5903626127
 10
162.0750736592
 20
75.6000903838
 10
162.0920993887
 20
75.6098112691
 10
162.1099030393
 20
75.6195843525
 10
162.128484611
 20
75.629409634
  0
LINE
  5
4B3
100
AcDbEntity
  8
DRAFT
100
AcDbLine
 62
7
  6
CONTINUOUS
 10
161.0758802197
 20
75.1842102599
 11
160.6082381253
 21
74.8892944426
  0
LWPOLYLINE
  5
4B4
100
AcDbEntity
  8
RACCORDO
100
AcDbPolyline
 62
253
  6
CONTINUOUS
 90
6
 70
0
 10
161.5291493861
 20
74.7365955039
 10
161.5507110259
 20
74.748888673
 10
161.5688790418
 20
74.7624838516
 10
161.5833425739
 20
74.7771484225
 10
161.5938541474
 20
74.792631471
 10
161.6002339061
 20
74.8086680776
  0
LWPOLYLINE
  5
4B5
100
AcDbEntity
  8
RACCORDO
100
AcDbPolyline
 62
7
  6
CONTINUOUS
 90
11
 70
0
 10
161.7390539555
 20
75.1969003312
 10
161.7733319349
 20
75.215471317
 10
161.8057291106
 20
75.2344176097
 10
161.8369595901
 20
75.253877212
 10
161.8670946785
 20
75.273567831
 10
161.8956167892
 20
75.292774815
 10
161.9223718727
 20
75.3109464911
 10
161.9476095961
 20
75.327797913
 10
161.970745219
 20
75.3425799067
 10
161.9903182633
 20
75.3542186833
 10
162.006078964
 20
75.3626918043
  0
LWPOLYLINE
  5
4B6
100
AcDbEntity
  8
RACCORDO
100
AcDbPolyline
 62
7
  6
CONTINUOUS
 90
7
 70
0
 10
162.1710983687
 20
73.8535244747
 10
162.1824911011
 20
73.8595811478
 10
162.209576742
 20
73.8772962596
 10
162.2342076751
 20
73.8984215687
 10
162.2559591749
 20
73.9226408445
 10
162.2744670507
 20
73.9496288306
 10
162.2893712287
 20
73.9789899753
  0
LINE
  5
4B7
100
AcDbEntity
  8
RACCORDO
100
AcDbLine
 62
253
  6
CONTINUOUS
 10
161.5291493861
 20
75.0604179317
 11
160.8220426049
 21
74.6917480115
  0
LWPOLYLINE
  5
4B8
100
AcDbEntity
  8
RACCORDO
100
AcDbPolyline
 62
253
  6
CONTINUOUS
 90
12
 70
0
 10
161.8525842184
 20
75.4590678038
 10
161.8594546415
 20
75.4626207244
 10
161.8665640048
 20
75.4664347023
 10
161.8739123084
 20
75.4705097373
 10
161.8814731029
 20
75.474826221
 10
161.8892728376
 20
75.4794037618
 10
161.8973908605
 20
75.484301186
 10
161.9058242831
 20
75.4895224318
 10
161.9145759938
 20
75.4950635609
 10
161.9237340065
 20
75.500971585
 10
161.9332914338
 20
75.5072533616
 10
161.9537338696
 20
75.5209440389
  0
LINE
  5
4B9
100
AcDbEntity
  8
RACCORDO
100
AcDbLine
 62
253
  6
CONTINUOUS
 10
161.1333598972
 20
75.0914029414
 11
161.6927828902
 21
75.3774165718
  0
LINE
  5
4BA
100
AcDbEntity
  8
RACCORDO
100
AcDbLine
 62
7
  6
CONTINUOUS
 10
161.0136046288
 20
74.8260299455
 11
161.7390539555
 21
75.1969003312
  0
LINE
  5
4BB
100
AcDbEntity
  8
RACCORDO
100
AcDbLine
 62
253
  6
CONTINUOUS
 10
161.6927828902
 20
75.3774165718
 11
161.8525842184
 21
75.4590678038
  0
LINE
  5
4BC
100
AcDbEntity
  8
RACCORDO
100
AcDbLine
 62
253
  6
CONTINUOUS
 10
160.6082381253
 20
74.8634248047
 11
160.8439842653
 21
74.9822029214
  0
LINE
  5
4BD
100
AcDbEntity
  8
RACCORDO
100
AcDbLine
 62
253
  6
CONTINUOUS
 10
162.128484611
 20
75.629409634
 11
162.7665862532
 21
75.9509206732
  0
LINE
  5
4BE
100
AcDbEntity
  8
RACCORDO
100
AcDbLine
 62
7
  6
CONTINUOUS
 10
160.4787422796
 20
74.5931345146
 11
160.7216708965
 21
74.7155354674
  0
LINE
  5
4BF
100
AcDbEntity
  8
RACCORDO
100
AcDbLine
 62
7
  6
CONTINUOUS
 10
162.0061381343
 20
75.3627215243
 11
162.6370904075
 21
75.6806303832
  0
LINE
  5
4C0
100
AcDbEntity
  8
RACCORDO
100
AcDbLine
 62
253
  6
CONTINUOUS
 10
160.1149358237
 20
72.9281747507
 11
162.2362561673
 21
73.9888349225
  0
LINE
  5
4C1
100
AcDbEntity
  8
RACCORDO
100
AcDbLine
 62
7
  6
CONTINUOUS
 10
160.0499625273
 20
72.7929563006
 11
162.1712828709
 21
73.8536164724
  0
LWPOLYLINE
  5
4C2
100
AcDbEntity
  8
RACCORDO
100
AcDbPolyline
 62
253
  6
CONTINUOUS
 90
5
 70
0
 10
160.8220426049
 20
74.6917480115
 10
160.8023272267
 20
74.6821517224
 10
160.78092333
 20
74.6736998982
 10
160.7580871603
 20
74.6664671612
 10
160.7340951823
 20
74.6605087229
  0
LWPOLYLINE
  5
4C3
100
AcDbEntity
  8
RACCORDO
100
AcDbPolyline
 62
7
  6
CONTINUOUS
 90
7
 70
0
 10
160.7213325343
 20
74.7153573618
 10
160.7286264556
 20
74.7189029281
 10
160.7405301179
 20
74.7241080739
 10
160.7533401703
 20
74.7290467425
 10
160.7687198755
 20
74.7343677992
 10
160.7877125284
 20
74.7404222176
 10
160.8349187072
 20
74.7548558828
  0
LWPOLYLINE
  5
4C4
100
AcDbEntity
  8
RACCORDO
100
AcDbPolyline
 62
253
  6
CONTINUOUS
 90
8
 70
0
 10
160.8439842653
 20
74.9822029214
 10
160.8643423095
 20
74.9918733941
 10
160.8837793553
 20
75.000661899
 10
160.9022954024
 20
75.008568436
 10
160.9198483041
 20
75.0154742559
 10
160.9364802072
 20
75.021498108
 10
160.9523175524
 20
75.0269962403
 10
160.9673787879
 20
75.0320087003
  0
LWPOLYLINE
  5
4C5
100
AcDbEntity
  8
RACCORDO
100
AcDbPolyline
 62
253
  6
CONTINUOUS
 90
13
 70
0
 10
160.1149358237
 20
72.9281747507
 10
160.0909295112
 20
72.9176171407
 10
160.0642277455
 20
72.9086201692
 10
160.0352245024
 20
72.9013694427
 10
160.0042947953
 20
72.8960163506
 10
159.9720054594
 20
72.8927139705
 10
159.939128334
 20
72.8915640377
 10
159.9063066026
 20
72.892581833
 10
159.8740364321
 20
72.8957447638
 10
159.8428867079
 20
72.9009958388
 10
159.8133978124
 20
72.9082411084
 10
159.7860733697
 20
72.9173538221
 10
159.7613824331
 20
72.9281747507
  0
LWPOLYLINE
  5
4C6
100
AcDbEntity
  8
RACCORDO
100
AcDbPolyline
 62
253
  6
CONTINUOUS
 90
13
 70
0
 10
160.1149358237
 20
73.2794887228
 10
160.0905366053
 20
73.268779764
 10
160.063504443
 20
73.2597237624
 10
160.0342815089
 20
73.2524859009
 10
160.0033289524
 20
73.2471988888
 10
159.971188494
 20
73.243972812
 10
159.9384802396
 20
73.2428771735
 10
159.9057903238
 20
73.2439292381
 10
159.8736562601
 20
73.2471093388
 10
159.8426309045
 20
73.2523626141
 10
159.8132470711
 20
73.25959852
 10
159.7860085054
 20
73.2686926614
 10
159.7613824331
 20
73.2794887228
  0
LWPOLYLINE
  5
4C7
100
AcDbEntity
  8
RACCORDO
100
AcDbPolyline
 62
253
  6
CONTINUOUS
 90
13
 70
0
 10
160.8220426049
 20
74.3830421133
 10
160.7974562669
 20
74.3722612935
 10
160.7702659096
 20
74.3631772855
 10
160.7409367677
 20
74.3559455194
 10
160.7099706709
 20
74.3506897327
 10
160.6778974577
 20
74.3474998533
 10
160.6452659096
 20
74.346430461
 10
160.6126343616
 20
74.3474998533
 10
160.5805611483
 20
74.3506897327
 10
160.5495950515
 20
74.3559455194
 10
160.5202659096
 20
74.3631772855
 10
160.4930755524
 20
74.3722612935
 10
160.4684892143
 20
74.3830421133
  0
LWPOLYLINE
  5
4C8
100
AcDbEntity
  8
RACCORDO
100
AcDbPolyline
 62
7
  6
CONTINUOUS
 90
9
 70
0
 10
160.0499625273
 20
72.7929563006
 10
160.0216759321
 20
72.7809267354
 10
159.9916887311
 20
72.7723617665
 10
159.9605141482
 20
72.7675645981
 10
159.9286095043
 20
72.7667456155
 10
159.896724616
 20
72.7700206552
 10
159.8657170853
 20
72.7772888824
 10
159.8357570348
 20
72.7884978674
 10
159.8261940994
 20
72.7930373106
  0
ARC
  5
4C9
100
AcDbEntity
  8
RACCORDO
100
AcDbCircle
 62
7
  6
CONTINUOUS
 10
159.9381591284
 20
114.6674812098
 40
0.25
100
AcDbArc
 50
244.0406531095
 51
258.6758098606
  0
ARC
  5
4CA
100
AcDbEntity
  8
RACCORDO
100
AcDbCircle
 62
7
  6
CONTINUOUS
 10
146.573840964
 20
121.349640292
 40
0.25
100
AcDbArc
 50
244.0406531095
 51
258.6758098606
  0
ELLIPSE
  5
4CB
100
AcDbEntity
  8
21814000
100
AcDbEllipse
 62
7
  6
CONTINUOUS
 10
153.9984621665
 20
126.2991160807
 30
0.0
 11
2.7499350056
 21
-0.0386453369
 31
0.0
 40
0.4892375088
 41
8.654981679
 42
9.2557277435
  0
ELLIPSE
  5
4CC
100
AcDbEntity
  8
21814000
100
AcDbEllipse
 62
7
  6
CONTINUOUS
 10
154.6702136086
 20
126.1876183967
 30
0.0
 11
2.7583300471
 21
-0.038763314
 31
0.0
 40
0.4892375088
 41
0.9280596999
 42
2.3630697256
  0
ELLIPSE
  5
4CD
100
AcDbEntity
  8
21814000
100
AcDbEllipse
 62
7
  6
CONTINUOUS
 10
159.3759278397
 20
127.3455189137
 30
0.0
 11
0.716172246
 21
0.6416715914
 31
0.0
 40
0.2882345029
 41
0.1142323894
 42
0.7807533904
  0
ELLIPSE
  5
4CE
100
AcDbEntity
  8
21814000
100
AcDbEllipse
 62
7
  6
CONTINUOUS
 10
153.9747233474
 20
127.4808782133
 30
0.0
 11
3.3311333813
 21
-0.0467042088
 31
0.0
 40
0.4892378494
 41
3.8528301344
 42
5.5059722822
  0
ELLIPSE
  5
4CF
100
AcDbEntity
  8
21814000
100
AcDbEllipse
 62
7
  6
CONTINUOUS
 10
154.6702136086
 20
126.1876183967
 30
0.0
 11
2.7583300471
 21
-0.038763314
 31
0.0
 40
0.4892375088
 41
0.4291477653
 42
0.6564870977
  0
ELLIPSE
  5
4D0
100
AcDbEntity
  8
21814000
100
AcDbEllipse
 62
7
  6
CONTINUOUS
 10
153.9747233474
 20
127.4808782133
 30
0.0
 11
3.3311333813
 21
-0.0467042088
 31
0.0
 40
0.4892378494
 41
2.3616770883
 42
3.7058786528
  0
ELLIPSE
  5
4D1
100
AcDbEntity
  8
21814000
100
AcDbEllipse
 62
7
  6
CONTINUOUS
 10
154.6702136086
 20
128.1323291079
 30
0.0
 11
2.7583515655
 21
-1.4175703156
 31
0.0
 40
0.0109499087
 41
-0.7017315251
 42
-0.6439845515
  0
ELLIPSE
  5
4D2
100
AcDbEntity
  8
21814000
100
AcDbEllipse
 62
7
  6
CONTINUOUS
 10
155.4092215926
 20
129.3288720372
 30
0.0
 11
-0.2796057293
 21
0.9974617846
 31
0.0
 40
0.6760995073
 41
4.8467711056
 42
6.4001141399
  0
ELLIPSE
  5
4D3
100
AcDbEntity
  8
21814000
100
AcDbEllipse
 62
7
  6
CONTINUOUS
 10
154.6702136086
 20
128.1323291079
 30
0.0
 11
2.7583515655
 21
-1.4175703156
 31
0.0
 40
0.0109499087
 41
-0.9155571536
 42
-0.85781018
  0
ELLIPSE
  5
4D4
100
AcDbEntity
  8
21814000
100
AcDbEllipse
 62
7
  6
CONTINUOUS
 10
154.6702136086
 20
126.6206310986
 30
0.0
 11
2.7583300471
 21
-0.038763314
 31
0.0
 40
0.4892375088
 41
0.1708839954
 42
2.3630697256
  0
ELLIPSE
  5
4D5
100
AcDbEntity
  8
26814000
100
AcDbEllipse
 62
7
  6
CONTINUOUS
 10
129.1882702574
 20
130.0424256453
 30
0.0
 11
0.110769438
 21
0.2241226716
 31
0.0
 40
0.6088015717
 41
-4.0304836828
 42
-3.1443650652
  0
ELLIPSE
  5
4D6
100
AcDbEntity
  8
26814000
100
AcDbEllipse
 62
7
  6
CONTINUOUS
 10
142.5525884218
 20
123.3602665631
 30
0.0
 11
0.110769438
 21
0.2241226716
 31
0.0
 40
0.6088015717
 41
-4.0304836828
 42
-3.1443650652
  0
ELLIPSE
  5
4D7
100
AcDbEntity
  8
26814000
100
AcDbEllipse
 62
7
  6
CONTINUOUS
 10
140.8426007546
 20
131.1737798191
 30
0.0
 11
0.2999991737
 21
-0.0014183462
 31
0.0
 40
0.4964289597
 41
0.7877451926
 42
2.3527237553
  0
ELLIPSE
  5
4D8
100
AcDbEntity
  8
26814000
100
AcDbEllipse
 62
7
  6
CONTINUOUS
 10
146.3970642687
 20
128.3965480621
 30
0.0
 11
0.2999991737
 21
-0.0014183462
 31
0.0
 40
0.4964289597
 41
0.7877451926
 42
2.3585415194
  0
ELLIPSE
  5
4D9
100
AcDbEntity
  8
26814000
100
AcDbEllipse
 62
7
  6
CONTINUOUS
 10
132.5720982398
 20
129.3682786071
 30
0.0
 11
0.110769438
 21
0.2241226716
 31
0.0
 40
0.6088015717
 41
1.2055040732
 42
2.2526937431
  0
ELLIPSE
  5
4DA
100
AcDbEntity
  8
26814000
100
AcDbEllipse
 62
7
  6
CONTINUOUS
 10
146.2879128813
 20
123.6139246769
 30
0.0
 11
0.110769438
 21
0.2241226716
 31
0.0
 40
0.6088015717
 41
-1.9360885804
 42
-0.8888910292
  0
ELLIPSE
  5
4DB
100
AcDbEntity
  8
26814000
100
AcDbEllipse
 62
7
  6
CONTINUOUS
 10
144.667738025
 20
124.6849410814
 30
0.0
 11
0.1128509832
 21
0.2230818409
 31
0.0
 40
0.6159267166
 41
0.0028979148
 42
0.6817883054
  0
ELLIPSE
  5
4DC
100
AcDbEntity
  8
26814000
100
AcDbEllipse
 62
7
  6
CONTINUOUS
 10
142.5525884218
 20
123.6136379569
 30
0.0
 11
0.110769438
 21
0.2241226716
 31
0.0
 40
0.6088015717
 41
0.6877230618
 42
2.2527016244
  0
ELLIPSE
  5
4DD
100
AcDbEntity
  8
26814000
100
AcDbEllipse
 62
7
  6
CONTINUOUS
 10
132.9235947169
 20
130.2960837591
 30
0.0
 11
0.110769438
 21
0.2241226716
 31
0.0
 40
0.6088015717
 41
-1.9360885804
 42
-0.8888910292
  0
ELLIPSE
  5
4DE
100
AcDbEntity
  8
26814000
100
AcDbEllipse
 62
7
  6
CONTINUOUS
 10
131.3034198606
 20
131.3671001636
 30
0.0
 11
0.1128509832
 21
0.2230818409
 31
0.0
 40
0.6159267166
 41
0.0028979148
 42
0.6817883054
  0
ELLIPSE
  5
4DF
100
AcDbEntity
  8
26814000
100
AcDbEllipse
 62
7
  6
CONTINUOUS
 10
129.1882702574
 20
130.2957970391
 30
0.0
 11
0.110769438
 21
0.2241226716
 31
0.0
 40
0.6088015717
 41
0.6877230618
 42
2.2527016244
  0
ELLIPSE
  5
4E0
100
AcDbEntity
  8
26814000
100
AcDbEllipse
 62
7
  6
CONTINUOUS
 10
132.9235947169
 20
130.5570127355
 30
0.0
 11
0.110769438
 21
0.2241226716
 31
0.0
 40
0.6088015717
 41
5.394294278
 42
6.9592728406
  0
ELLIPSE
  5
4E1
100
AcDbEntity
  8
26814000
100
AcDbEllipse
 62
7
  6
CONTINUOUS
 10
146.2879128813
 20
123.8748536533
 30
0.0
 11
0.110769438
 21
0.2241226716
 31
0.0
 40
0.6088015717
 41
5.394294278
 42
6.9592728406
  0
ELLIPSE
  5
4E2
100
AcDbEntity
  8
26814000
100
AcDbEllipse
 62
7
  6
CONTINUOUS
 10
141.0230527317
 20
129.8517196492
 30
0.0
 11
0.2999981629
 21
-0.0021225547
 31
0.0
 40
0.4946372042
 41
-0.7818985079
 42
0.0034997008
  0
ELLIPSE
  5
4E3
100
AcDbEntity
  8
26814000
100
AcDbEllipse
 62
7
  6
CONTINUOUS
 10
146.5775162458
 20
127.0744878921
 30
0.0
 11
0.2999981629
 21
-0.0021225547
 31
0.0
 40
0.4946372042
 41
-0.7760807437
 42
0.0035109161
  0
ELLIPSE
  5
4E4
100
AcDbEntity
  8
26814000
100
AcDbEllipse
 62
7
  6
CONTINUOUS
 10
134.8741070042
 20
128.2535984512
 30
0.0
 11
0.2999991335
 21
0.0014318851
 31
0.0
 40
0.5035541159
 41
8.6427941204
 42
10.207772683
  0
ELLIPSE
  5
4E5
100
AcDbEntity
  8
26814000
100
AcDbEllipse
 62
7
  6
CONTINUOUS
 10
128.8608160953
 20
128.4565283499
 30
0.0
 11
-0.1565168911
 21
0.3130623908
 31
0.0
 40
0.6123677712
 41
-0.6846781644
 42
0.8861181623
  0
ELLIPSE
  5
4E6
100
AcDbEntity
  8
26814000
100
AcDbEllipse
 62
7
  6
CONTINUOUS
 10
144.1343225689
 20
120.8197751131
 30
0.0
 11
-0.1565168911
 21
0.3130623908
 31
0.0
 40
0.6123677712
 41
-2.2554744912
 42
-0.6846781644
  0
ELLIPSE
  5
4E7
100
AcDbEntity
  8
26814000
100
AcDbEllipse
 62
7
  6
CONTINUOUS
 10
140.6666160723
 20
125.3573439172
 30
0.0
 11
0.2999991335
 21
0.0014318851
 31
0.0
 40
0.5035541159
 41
-2.3585979313
 42
-0.7936193687
  0
ELLIPSE
  5
4E8
100
AcDbEntity
  8
26814000
100
AcDbEllipse
 62
7
  6
CONTINUOUS
 10
140.6666160723
 20
124.1431448413
 30
0.0
 11
0.2999980272
 21
0.0021530184
 31
0.0
 40
0.5053247124
 41
-2.3598210761
 42
-0.7948425135
  0
ELLIPSE
  5
4E9
100
AcDbEntity
  8
26814000
100
AcDbEllipse
 62
7
  6
CONTINUOUS
 10
134.8741070042
 20
127.0393993754
 30
0.0
 11
0.2999980272
 21
0.0021530184
 31
0.0
 40
0.5053247124
 41
3.1379773283
 42
3.9233642311
  0
ELLIPSE
  5
4EA
100
AcDbEntity
  8
26814000
100
AcDbEllipse
 62
7
  6
CONTINUOUS
 10
146.5775162458
 20
128.3063220735
 30
0.0
 11
0.2999991737
 21
-0.0014183462
 31
0.0
 40
0.4964289597
 41
-0.77723337
 42
0.7877451926
  0
ELLIPSE
  5
4EB
100
AcDbEntity
  8
26814000
100
AcDbEllipse
 62
7
  6
CONTINUOUS
 10
141.0230527317
 20
131.0835538306
 30
0.0
 11
0.2999991737
 21
-0.0014183462
 31
0.0
 40
0.4964289597
 41
-0.7830511342
 42
0.7877451926
  0
ELLIPSE
  5
4EC
100
AcDbEntity
  8
26814000
100
AcDbEllipse
 62
7
  6
CONTINUOUS
 10
144.1604217974
 20
122.809721269
 30
0.0
 11
0.1128509832
 21
0.2230818409
 31
0.0
 40
0.6159267166
 41
0.6934238338
 42
2.2584023964
  0
ELLIPSE
  5
4ED
100
AcDbEntity
  8
26814000
100
AcDbEllipse
 62
7
  6
CONTINUOUS
 10
144.1604217974
 20
122.5563498753
 30
0.0
 11
0.1128509832
 21
0.2230818409
 31
0.0
 40
0.6159267166
 41
-4.0247829108
 42
-2.9775853596
  0
ELLIPSE
  5
4EE
100
AcDbEntity
  8
26814000
100
AcDbEllipse
 62
7
  6
CONTINUOUS
 10
130.796103633
 20
129.4918803513
 30
0.0
 11
0.1128509832
 21
0.2230818409
 31
0.0
 40
0.6159267166
 41
0.6934238338
 42
2.2584023964
  0
ELLIPSE
  5
4EF
100
AcDbEntity
  8
26814000
100
AcDbEllipse
 62
7
  6
CONTINUOUS
 10
130.796103633
 20
129.2385089575
 30
0.0
 11
0.1128509832
 21
0.2230818409
 31
0.0
 40
0.6159267166
 41
-4.0247829108
 42
-2.9775853596
  0
ELLIPSE
  5
4F0
100
AcDbEntity
  8
RACCORDO
100
AcDbEllipse
 62
7
  6
CONTINUOUS
 10
162.4129790065
 20
76.1275923867
 30
0.0
 11
-0.2235807756
 21
0.4472283268
 31
0.0
 40
0.6125552124
 41
-3.139671321
 42
-2.255296188
  0
ELLIPSE
  5
4F1
100
AcDbEntity
  8
RACCORDO
100
AcDbEllipse
 62
7
  6
CONTINUOUS
 10
162.4129790065
 20
114.0291400932
 30
0.0
 11
-0.2237009107
 21
0.4473351135
 31
0.0
 40
0.6121897086
 41
-2.2557347926
 42
-0.6846338794
  0
ELLIPSE
  5
4F2
100
AcDbEntity
  8
RACCORDO
100
AcDbEllipse
 62
7
  6
CONTINUOUS
 10
155.2537867298
 20
123.4035698334
 30
0.0
 11
0.9987332359
 21
0.6172510855
 31
0.0
 40
0.0815198604
 41
0.0505521044
 42
0.7176053907
  0
ELLIPSE
  5
4F3
100
AcDbEntity
  8
RACCORDO
100
AcDbEllipse
 62
7
  6
CONTINUOUS
 10
167.0042096045
 20
117.5283583961
 30
0.0
 11
0.4349639225
 21
0.9005141702
 31
0.0
 40
0.6016116119
 41
-0.8943064336
 42
-0.538697204
  0
ELLIPSE
  5
4F4
100
AcDbEntity
  8
RACCORDO
100
AcDbEllipse
 62
7
  6
CONTINUOUS
 10
167.2388266174
 20
80.6477570406
 30
0.0
 11
0.9987332359
 21
0.6172510855
 31
0.0
 40
0.0815198604
 41
-2.3890806779
 42
-1.1913468732
  0
ELLIPSE
  5
4F5
100
AcDbEntity
  8
RACCORDO
100
AcDbEllipse
 62
7
  6
CONTINUOUS
 10
167.0042096045
 20
80.7650655471
 30
0.0
 11
0.4349639225
 21
0.9005141702
 31
0.0
 40
0.6016116119
 41
-1.2499156631
 42
-0.8943064336
  0
ELLIPSE
  5
4F6
100
AcDbEntity
  8
RACCORDO
100
AcDbEllipse
 62
7
  6
CONTINUOUS
 10
156.3978150414
 20
122.8605342084
 30
0.0
 11
0.2256808774
 21
0.4461742732
 31
0.0
 40
0.6158912572
 41
0.0028657685
 42
0.6875768343
  0
ELLIPSE
  5
4F7
100
AcDbEntity
  8
RACCORDO
100
AcDbEllipse
 62
7
  6
CONTINUOUS
 10
160.2546308786
 20
75.0400965181
 30
0.0
 11
-0.2235807756
 21
0.4472283268
 31
0.0
 40
0.6125552124
 41
2.4567882058
 42
4.0278891191
  0
ELLIPSE
  5
4F8
100
AcDbEntity
  8
RACCORDO
100
AcDbEllipse
 62
7
  6
CONTINUOUS
 10
160.2546308786
 20
113.0323434025
 30
0.0
 11
-0.2237009107
 21
0.4473351135
 31
0.0
 40
0.6121897086
 41
4.0274505145
 42
5.5985514278
  0
ELLIPSE
  5
4F9
100
AcDbEntity
  8
RACCORDO
100
AcDbEllipse
 62
7
  6
CONTINUOUS
 10
162.5592643999
 20
119.7798095291
 30
0.0
 11
0.2215594226
 21
0.4482351134
 31
0.0
 40
0.6088373611
 41
5.3943220613
 42
6.9651183881
  0
ELLIPSE
  5
4FA
100
AcDbEntity
  8
RACCORDO
100
AcDbEllipse
 62
7
  6
CONTINUOUS
 10
145.2674197202
 20
120.5259489817
 30
0.0
 11
-0.2235807756
 21
0.4472283268
 31
0.0
 40
0.6125552124
 41
-0.6848044477
 42
0.8862964655
  0
ELLIPSE
  5
4FB
100
AcDbEntity
  8
RACCORDO
100
AcDbEllipse
 62
7
  6
CONTINUOUS
 10
167.2388266174
 20
117.4110498896
 30
0.0
 11
-0.7417913999
 21
1.2002436976
 31
0.0
 40
0.5587454355
 41
5.0176587298
 42
6.2153925345
  0
ELLIPSE
  5
4FC
100
AcDbEntity
  8
RACCORDO
100
AcDbEllipse
 62
7
  6
CONTINUOUS
 10
156.5814323974
 20
116.3400066823
 30
0.0
 11
0.4999881828
 21
-0.0070264249
 31
0.0
 40
0.4892375088
 41
-2.3493192548
 42
-0.7727633415
  0
ELLIPSE
  5
4FD
100
AcDbEntity
  8
RACCORDO
100
AcDbEllipse
 62
7
  6
CONTINUOUS
 10
151.0619385449
 20
119.0997536085
 30
0.0
 11
0.4999881828
 21
-0.0070264249
 31
0.0
 40
0.4892375088
 41
-3.1347355197
 42
-2.3493192548
  0
ELLIPSE
  5
4FE
100
AcDbEntity
  8
RACCORDO
100
AcDbEllipse
 62
7
  6
CONTINUOUS
 10
158.4376564
 20
79.7276668397
 30
0.0
 11
-0.2713091605
 21
0.4239062184
 31
0.0
 40
0.5451249042
 41
-3.2164578779
 42
-2.3115524019
  0
ELLIPSE
  5
4FF
100
AcDbEntity
  8
RACCORDO
100
AcDbEllipse
 62
7
  6
CONTINUOUS
 10
129.8054515693
 20
127.2468062242
 30
0.0
 11
-0.2786191524
 21
0.7501668109
 31
0.0
 40
0.6610921126
 41
-0.3090511146
 42
0.0213201203
  0
ELLIPSE
  5
500
100
AcDbEntity
  8
RACCORDO
100
AcDbEllipse
 62
7
  6
CONTINUOUS
 10
156.8870285438
 20
74.334577795
 30
0.0
 11
-0.2786191524
 21
0.7501668109
 31
0.0
 40
0.6610921126
 41
-3.1630638698
 42
-2.1868166574
  0
ELLIPSE
  5
501
100
AcDbEntity
  8
RACCORDO
100
AcDbEllipse
 62
7
  6
CONTINUOUS
 10
159.9987387865
 20
112.1501626157
 30
0.0
 11
-0.2783604326
 21
0.7500177284
 31
0.0
 40
0.6614719787
 41
-2.1862531203
 42
-0.61576138
  0
ENDSEC
  0
SECTION
  2
OBJECTS
  0
DICTIONARY
  5
C
100
AcDbDictionary
280
0
281
1
  3
ACAD_GROUP
350
D
  3
ACAD_MLINESTYLE
350
17
  3
ACAD_LAYOUT
350
1A
  3
ACAD_PLOTSETTINGS
350
19
  3
ACAD_PLOTSTYLENAME
350
E
  0
DICTIONARY
  5
D
102
{ACAD_REACTORS
330
C
102
}
100
AcDbDictionary
280
0
281
1
  0
ACDBDICTIONARYWDFLT
  5
E
102
{ACAD_REACTORS
330
C
102
}
100
AcDbDictionary
281
1
  3
Normal
350
F
100
AcDbDictionaryWithDefault
340
F
  0
DICTIONARY
  5
17
102
{ACAD_REACTORS
330
C
102
}
100
AcDbDictionary
280
0
281
1
  3
Standard
350
18
  0
DICTIONARY
  5
19
102
{ACAD_REACTORS
330
C
102
}
100
AcDbDictionary
281
1
  0
DICTIONARY
  5
1A
102
{ACAD_REACTORS
330
C
102
}
100
AcDbDictionary
281
1
  3
Model
350
502
  3
Layout1
350
503
  0
ACDBPLACEHOLDER
  5
F
102
{ACAD_REACTORS
330
E
102
}
  0
MLINESTYLE
  5
18
102
{ACAD_REACTORS
330
17
102
}
100
AcDbMlineStyle
  2
STANDARD
 70
0
  3

 62
256
 51
90.0
 52
90.0
 71
2
 49
0.5
 62
256
  6
BYLAYER
 49
-0.5
 62
256
  6
BYLAYER
  0
LAYOUT
  5
502
102
{ACAD_REACTORS
330
1A
102
}
100
AcDbPlotSettings
  1

  2
none_device
  4
ISO_A4_(297.00_x_210.00_MM)
  6

 40
0.0
 41
0.0
 42
0.0
 43
0.0
 44
297.0
 45
210.0
 46
0.0
 47
0.0
 48
0.0
 49
0.0
140
0.0
141
0.0
142
1.0
143
1.0
 70
1024
 72
1
 73
0
 74
0
  7

 75
0
147
1.0
148
0.0
149
0.0
100
AcDbLayout
  1
Model
 70
0
 71
0
 10
0.0
 20
0.0
 11
297.0
 21
210.0
 12
0.0
 22
0.0
 32
0.0
 14
0.0
 24
0.0
 34
0.0
 15
0.0
 25
0.0
 35
0.0
146
0.0
 13
0.0
 23
0.0
 33
0.0
 16
1.0
 26
0.0
 36
0.0
 17
0.0
 27
1.0
 37
0.0
 76
0
330
224
345
0
346
0
  0
LAYOUT
  5
503
102
{ACAD_REACTORS
330
1A
102
}
100
AcDbPlotSettings
  1

  2
none_device
  4
ISO_A4_(297.00_x_210.00_MM)
  6

 40
0.0
 41
0.0
 42
0.0
 43
0.0
 44
297.0
 45
210.0
 46
0.0
 47
0.0
 48
0.0
 49
0.0
140
0.0
141
0.0
142
1.0
143
1.0
 70
0
 72
1
 73
0
 74
0
  7

 75
0
147
1.0
148
0.0
149
0.0
100
AcDbLayout
  1
Layout1
 70
0
 71
1
 10
0.0
 20
0.0
 11
297.0
 21
210.0
 12
0.0
 22
0.0
 32
0.0
 14
0.0
 24
0.0
 34
0.0
 15
0.0
 25
0.0
 35
0.0
146
0.0
 13
0.0
 23
0.0
 33
0.0
 16
1.0
 26
0.0
 36
0.0
 17
0.0
 27
1.0
 37
0.0
 76
0
330
225
345
0
346
0
  0
ENDSEC
  0
EOF
