  0
SECTION
  2
HEADER
  9
$ACADVER
  1
AC1015
  9
$DWGCODEPAGE
  3
ANSI_1252
  9
$EXTMAX
 10
297.0
 20
210.0
 30
0.0
  9
$EXTMIN
 10
0.0
 20
0.0
 30
0.0
  9
$LIMMIN
 10
0.0
 20
0.0
  9
$LIMMAX
 10
297.0
 20
210.0
  9
$VIEWCTR
 10
148.5
 20
105.0
  9
$VIEWSIZE
 40
210.0
  9
$CLAYER
  8
0
  9
$LTSCALE
 40
16.335
  9
$CELTYPE
  6
BYLAYER
  9
$DIMSCALE
 40
1.0
  9
$DIMASZ
 40
3.0
  9
$DIMEXO
 40
0.5
  9
$DIMDLI
 40
11.286
  9
$DIMEXE
 40
1.5
  9
$DIMCEN
 40
2.673
  9
$DIMLFAC
 40
1.0
  9
$DIMBLK
  1
_FILLED
  9
$DIMTXT
 40
3.0
  9
$DIMTOL
 70
1
  9
$DIMLIM
 70
0
  9
$DIMTFAC
 40
1.0
  9
$DIMTP
 40
0.01
  9
$DIMTM
 40
0.01
  9
$DIMGAP
 40
0.625
  9
$DIMDSEP
 70
44
  9
$PDMODE
 70
3
  9
$PDSIZE
 40
3.0
  9
$HANDSEED
  5
504
  9
$TILEMODE
 70
1
  9
$MEASUREMENT
 70
1
  9
$INSUNITS
 70
4
  0
ENDSEC
  0
SECTION
  2
CLASSES
  0
CLASS
  1
ACDBDICTIONARYWDFLT
  2
AcDbDictionaryWithDefault
  3
AutoCAD 2000
 90
0
280
0
281
0
  0
CLASS
  1
ACDBPLACEHOLDER
  2
AcDbPlaceHolder
  3
AutoCAD 2000
 90
0
280
0
281
0
  0
CLASS
  1
LAYOUT
  2
AcDbLayout
  3
AutoCAD 2000
 90
0
280
0
281
0
  0
ENDSEC
  0
SECTION
  2
TABLES
  0
TABLE
  2
VPORT
  5
8
100
AcDbSymbolTable
 70
2
  0
VPORT
  5
1F4
100
AcDbSymbolTableRecord
100
AcDbViewportTableRecord
  2
*ACTIVE
 70
0
 10
0.0
 20
0.0
 11
1.0
 21
1.0
 12
148.5
 22
105.0
 13
0.0
 23
0.0
 14
1.0
 24
1.0
 15
0.0
 25
0.0
 16
0.0
 26
0.0
 36
1.0
 17
0.0
 27
0.0
 37
0.0
 40
210.0
 41
1.4142857143
 42
50.0
 43
0.0
 44
0.0
 50
0.0
 51
0.0
 71
0
 72
100
 73
1
 74
1
 75
0
 76
0
 77
0
 78
0
  0
ENDTAB
  0
TABLE
  2
LTYPE
  5
5
100
AcDbSymbolTable
 70
6
  0
LTYPE
  5
14
100
AcDbSymbolTableRecord
100
AcDbLinetypeTableRecord
  2
BYBLOCK
 70
0
  3

 72
65
 73
0
 40
0.0
  0
LTYPE
  5
15
100
AcDbSymbolTableRecord
100
AcDbLinetypeTableRecord
  2
BYLAYER
 70
0
  3

 72
65
 73
0
 40
0.0
  0
LTYPE
  5
16
100
AcDbSymbolTableRecord
100
AcDbLinetypeTableRecord
  2
CONTINUOUS
 70
64
  3
Solid line
 72
65
 73
0
 40
0.0
  0
LTYPE
  5
1F5
100
AcDbSymbolTableRecord
100
AcDbLinetypeTableRecord
  2
CENTER
 70
64
  3
____ _ ____ _ ____ _ ____ _ ____ _ ____ _ ____
 72
65
 73
4
 40
0.6
 49
0.375
 74
0
 49
-0.075
 74
0
 49
0.075
 74
0
 49
-0.075
 74
0
  0
LTYPE
  5
1F6
100
AcDbSymbolTableRecord
100
AcDbLinetypeTableRecord
  2
HIDDEN
 70
64
  3
- - - - - - - - - - - - - - - - - - - -
 72
65
 73
2
 40
0.2
 49
0.1
 74
0
 49
-0.1
 74
0
  0
LTYPE
  5
1F7
100
AcDbSymbolTableRecord
100
AcDbLinetypeTableRecord
  2
PHANTOM
 70
64
  3
_____ _ _ _____ _ _ _____ _ _ _____
 72
65
 73
6
 40
0.8
 49
0.45
 74
0
 49
-0.05
 74
0
 49
0.1
 74
0
 49
-0.05
 74
0
 49
0.1
 74
0
 49
-0.05
 74
0
  0
LTYPE
  5
1F8
100
AcDbSymbolTableRecord
100
AcDbLinetypeTableRecord
  2
DOT
 70
64
  3
. . . . . . . . . . . . . . . . . . . .
 72
65
 73
2
 40
0.2
 49
0.1
 74
0
 49
-0.1
 74
0
  0
LTYPE
  5
1F9
100
AcDbSymbolTableRecord
100
AcDbLinetypeTableRecord
  2
DASHED
 70
64
  3
- - - - - - - - - - - - - - - - - - - -
 72
65
 73
2
 40
0.2
 49
0.1
 74
0
 49
-0.1
 74
0
  0
ENDTAB
  0
TABLE
  2
LAYER
  5
2
100
AcDbSymbolTable
 70
36
  0
LAYER
  5
10
100
AcDbSymbolTableRecord
100
AcDbLayerTableRecord
  2
0
 70
0
 62
7
  6
CONTINUOUS
370
-3
390
F
  0
LAYER
  5
1FA
100
AcDbSymbolTableRecord
100
AcDbLayerTableRecord
  2
DEFAULT_1
 70
0
 62
7
  6
CENTER
370
-3
390
F
  0
LAYER
  5
1FB
100
AcDbSymbolTableRecord
100
AcDbLayerTableRecord
  2
DEFAULT_2
 70
0
 62
7
  6
HIDDEN
370
-3
390
F
  0
LAYER
  5
1FC
100
AcDbSymbolTableRecord
100
AcDbLayerTableRecord
  2
DEFAULT_3
 70
0
 62
7
  6
PHANTOM
370
-3
390
F
  0
LAYER
  5
1FD
100
AcDbSymbolTableRecord
100
AcDbLayerTableRecord
  2
21814000
 70
0
 62
7
  6
CONTINUOUS
370
-3
390
F
  0
LAYER
  5
1FE
100
AcDbSymbolTableRecord
100
AcDbLayerTableRecord
  2
260140000
 70
0
 62
7
  6
CONTINUOUS
370
-3
390
F
  0
LAYER
  5
1FF
100
AcDbSymbolTableRecord
100
AcDbLayerTableRecord
  2
26814000
 70
0
 62
7
  6
CONTINUOUS
370
-3
390
F
  0
LAYER
  5
200
100
AcDbSymbolTableRecord
100
AcDbLayerTableRecord
  2
28414000
 70
0
 62
7
  6
CONTINUOUS
370
-3
390
F
  0
LAYER
  5
201
100
AcDbSymbolTableRecord
100
AcDbLayerTableRecord
  2
290140000
 70
0
 62
7
  6
CONTINUOUS
370
-3
390
F
  0
LAYER
  5
202
100
AcDbSymbolTableRecord
100
AcDbLayerTableRecord
  2
340000230
 70
0
 62
7
  6
CONTINUOUS
370
-3
390
F
  0
LAYER
  5
203
100
AcDbSymbolTableRecord
100
AcDbLayerTableRecord
  2
712140000
 70
0
 62
7
  6
CONTINUOUS
370
-3
390
F
  0
LAYER
  5
204
100
AcDbSymbolTableRecord
100
AcDbLayerTableRecord
  2
715140000
 70
0
 62
7
  6
CONTINUOUS
370
-3
390
F
  0
LAYER
  5
205
100
AcDbSymbolTableRecord
100
AcDbLayerTableRecord
  2
ASSI
 70
0
 62
7
  6
CONTINUOUS
370
-3
390
F
  0
LAYER
  5
206
100
AcDbSymbolTableRecord
100
AcDbLayerTableRecord
  2
COLORE_TOP
 70
0
 62
7
  6
CONTINUOUS
370
-3
390
F
  0
LAYER
  5
207
100
AcDbSymbolTableRecord
100
AcDbLayerTableRecord
  2
COORDINATE
 70
0
 62
7
  6
CONTINUOUS
370
-3
390
F
  0
LAYER
  5
208
100
AcDbSymbolTableRecord
100
AcDbLayerTableRecord
  2
COORD_ORIGINE
 70
0
 62
7
  6
CONTINUOUS
370
-3
390
F
  0
LAYER
  5
209
100
AcDbSymbolTableRecord
100
AcDbLayerTableRecord
  2
COPY_PUBLISH
 70
0
 62
7
  6
CONTINUOUS
370
-3
390
F
  0
LAYER
  5
20A
100
AcDbSymbolTableRecord
100
AcDbLayerTableRecord
  2
COSMETICHE
 70
0
 62
7
  6
CONTINUOUS
370
-3
390
F
  0
LAYER
  5
20B
100
AcDbSymbolTableRecord
100
AcDbLayerTableRecord
  2
COSMETICI
 70
0
 62
7
  6
CONTINUOUS
370
-3
390
F
  0
LAYER
  5
20C
100
AcDbSymbolTableRecord
100
AcDbLayerTableRecord
  2
CURVE
 70
0
 62
7
  6
CONTINUOUS
370
-3
390
F
  0
LAYER
  5
20D
100
AcDbSymbolTableRecord
100
AcDbLayerTableRecord
  2
DRAFT
 70
0
 62
7
  6
CONTINUOUS
370
-3
390
F
  0
LAYER
  5
20E
100
AcDbSymbolTableRecord
100
AcDbLayerTableRecord
  2
IMPORT
 70
0
 62
7
  6
CONTINUOUS
370
-3
390
F
  0
LAYER
  5
20F
100
AcDbSymbolTableRecord
100
AcDbLayerTableRecord
  2
IMPORTED
 70
0
 62
7
  6
CONTINUOUS
370
-3
390
F
  0
LAYER
  5
210
100
AcDbSymbolTableRecord
100
AcDbLayerTableRecord
  2
IMPORT_IGES
 70
0
 62
7
  6
CONTINUOUS
370
-3
390
F
  0
LAYER
  5
211
100
AcDbSymbolTableRecord
100
AcDbLayerTableRecord
  2
INCISIONI_LASER
 70
0
 62
7
  6
CONTINUOUS
370
-3
390
F
  0
LAYER
  5
212
100
AcDbSymbolTableRecord
100
AcDbLayerTableRecord
  2
INTF_11
 70
0
 62
7
  6
CONTINUOUS
370
-3
390
F
  0
LAYER
  5
213
100
AcDbSymbolTableRecord
100
AcDbLayerTableRecord
  2
NOTE
 70
0
 62
7
  6
CONTINUOUS
370
-3
390
F
  0
LAYER
  5
214
100
AcDbSymbolTableRecord
100
AcDbLayerTableRecord
  2
PIANI
 70
0
 62
7
  6
CONTINUOUS
370
-3
390
F
  0
LAYER
  5
215
100
AcDbSymbolTableRecord
100
AcDbLayerTableRecord
  2
PIANI_DI_RIFERIMENTO
 70
0
 62
7
  6
CONTINUOUS
370
-3
390
F
  0
LAYER
  5
216
100
AcDbSymbolTableRecord
100
AcDbLayerTableRecord
  2
PIANI_ORIGINE
 70
0
 62
7
  6
CONTINUOUS
370
-3
390
F
  0
LAYER
  5
217
100
AcDbSymbolTableRecord
100
AcDbLayerTableRecord
  2
PIANI_RIFERIMENTO
 70
0
 62
7
  6
CONTINUOUS
370
-3
390
F
  0
LAYER
  5
218
100
AcDbSymbolTableRecord
100
AcDbLayerTableRecord
  2
PIANI_SFORMO
 70
0
 62
7
  6
CONTINUOUS
370
-3
390
F
  0
LAYER
  5
219
100
AcDbSymbolTableRecord
100
AcDbLayerTableRecord
  2
PUNTI
 70
0
 62
7
  6
CONTINUOUS
370
-3
390
F
  0
LAYER
  5
21A
100
AcDbSymbolTableRecord
100
AcDbLayerTableRecord
  2
RACCORDO
 70
0
 62
7
  6
CONTINUOUS
370
-3
390
F
  0
LAYER
  5
21B
100
AcDbSymbolTableRecord
100
AcDbLayerTableRecord
  2
RINTRACCIABILITA
 70
0
 62
7
  6
CONTINUOUS
370
-3
390
F
  0
LAYER
  5
21C
100
AcDbSymbolTableRecord
100
AcDbLayerTableRecord
  2
SIMBOLI
 70
0
 62
7
  6
CONTINUOUS
370
-3
390
F
  0
LAYER
  5
21D
100
AcDbSymbolTableRecord
100
AcDbLayerTableRecord
  2
SMUSSO
 70
0
 62
7
  6
CONTINUOUS
370
-3
390
F
  0
LAYER
  5
21E
100
AcDbSymbolTableRecord
100
AcDbLayerTableRecord
  2
SNAPLINE
 70
0
 62
7
  6
CONTINUOUS
370
-3
390
F
  0
LAYER
  5
21F
100
AcDbSymbolTableRecord
100
AcDbLayerTableRecord
  2
SUPERFICI
 70
0
 62
7
  6
CONTINUOUS
370
-3
390
F
  0
LAYER
  5
220
100
AcDbSymbolTableRecord
100
AcDbLayerTableRecord
  2
TRASH
 70
0
 62
7
  6
CONTINUOUS
370
-3
390
F
  0
LAYER
  5
221
100
AcDbSymbolTableRecord
100
AcDbLayerTableRecord
  2
XSEC_DATUMS
 70
0
 62
7
  6
CONTINUOUS
370
-3
390
F
  0
ENDTAB
  0
TABLE
  2
STYLE
  5
3
100
AcDbSymbolTable
 70
1
  0
STYLE
  5
11
100
AcDbSymbolTableRecord
100
AcDbTextStyleTableRecord
  2
STANDARD
 70
0
 40
0.0
 41
0.8
 50
0.0
 71
0
 42
0.2
  3
txt
  4

  0
STYLE
  5
222
100
AcDbSymbolTableRecord
100
AcDbTextStyleTableRecord
  2
TEXTSTYLE_1
 70
0
 40
0.0
 41
0.8
 50
0.0
 71
0
 42
0.2
  3
gdt
  4

  0
ENDTAB
  0
TABLE
  2
VIEW
  5
6
100
AcDbSymbolTable
 70
0
  0
ENDTAB
  0
TABLE
  2
UCS
  5
7
100
AcDbSymbolTable
 70
0
  0
ENDTAB
  0
TABLE
  2
APPID
  5
9
100
AcDbSymbolTable
 70
1
  0
APPID
  5
223
100
AcDbSymbolTableRecord
100
AcDbRegAppTableRecord
  2
ACAD
 70
0
  0
ENDTAB
  0
TABLE
  2
BLOCK_RECORD
  5
1
100
AcDbSymbolTable
 70
0
  0
BLOCK_RECORD
  5
224
100
AcDbSymbolTableRecord
100
AcDbBlockTableRecord
  2
*Model_Space
  0
BLOCK_RECORD
  5
225
100
AcDbSymbolTableRecord
100
AcDbBlockTableRecord
  2
*Paper_Space
  0
ENDTAB
  0
TABLE
  2
DIMSTYLE
  5
A
100
AcDbSymbolTable
 70
1
100
AcDbDimStyleTable
 71
0
  0
DIMSTYLE
105
226
100
AcDbSymbolTableRecord
100
AcDbDimStyleTableRecord
  2
STANDARD
 70
0
  3

  4

 40
1.0
 41
3.0
 42
0.5
 43
0.38
 44
1.5
 45
0.0
 46
0.0
 47
0.01
 48
0.01
140
3.0
141
0.09
142
0.0
143
25.4
144
1.0
145
0.0
146
1.0
147
0.625
 71
1.0
 72
0.0
 73
0
 74
0
 75
0
 76
0
 77
1
 78
8
170
0
171
2
172
0
173
0
174
0
175
0
176
0
177
0
178
0
270
2
271
2
272
2
273
2
274
2
275
0
280
0
281
0
282
0
283
1
284
8
285
0
286
0
287
3
288
0
340
11
278
44
  0
ENDTAB
  0
ENDSEC
  0
SECTION
  2
BLOCKS
  0
BLOCK
  5
20
100
AcDbEntity
  8
0
100
AcDbBlockBegin
  2
*Model_Space
 70
0
 10
0.0
 20
0.0
 30
0.0
  3
*Model_Space
  1

  0
ENDBLK
  5
21
100
AcDbEntity
  8
0
100
AcDbBlockEnd
  0
BLOCK
  5
1C
100
AcDbEntity
  8
0
100
AcDbBlockBegin
  2
*Paper_Space
 70
0
 10
0.0
 20
0.0
 30
0.0
  3
*Paper_Space
  1

  0
ENDBLK
  5
1D
100
AcDbEntity
  8
0
100
AcDbBlockEnd
  0
ENDSEC
  0
SECTION
  2
ENTITIES
  0
LINE
  5
227
100
AcDbEntity
  8
26814000
100
AcDbLine
 62
7
  6
CONTINUOUS
 10
130.5819606416
 20
139.8198333832
 11
132.1647172448
 21
140.6318174805
  0
LINE
  5
228
100
AcDbEntity
  8
26814000
100
AcDbLine
 62
7
  6
CONTINUOUS
 10
130.0980055293
 20
138.0771329812
 11
131.1102278133
 21
138.5940629438
  0
LINE
  5
229
100
AcDbEntity
  8
26814000
100
AcDbLine
 62
253
  6
CONTINUOUS
 10
130.2555289356
 20
138.0676996516
 11
131.1102278133
 21
138.5041842715
  0
LINE
  5
22A
100
AcDbEntity
  8
26814000
100
AcDbLine
 62
7
  6
CONTINUOUS
 10
132.1897820507
 20
139.0159226787
 11
133.7910628415
 21
139.8186446822
  0
LINE
  5
22B
100
AcDbEntity
  8
26814000
100
AcDbLine
 62
7
  6
CONTINUOUS
 10
133.7910628415
 20
139.8186446822
 11
134.3193300132
 21
140.0820835022
  0
LINE
  5
22C
100
AcDbEntity
  8
26814000
100
AcDbLine
 62
7
  6
CONTINUOUS
 10
132.1647172448
 20
140.6318174805
 11
132.6991671234
 21
140.8921649471
  0
LWPOLYLINE
  5
22D
100
AcDbEntity
  8
290140000
100
AcDbPolyline
 62
253
  6
CONTINUOUS
 90
19
 70
0
 10
154.7485595066
 20
81.9866301607
 10
154.7073449986
 20
81.9749580215
 10
154.667279357
 20
81.967703612
 10
154.6283625821
 20
81.9648669321
 10
154.5903199633
 20
81.9664795331
 10
154.553426211
 20
81.9725098638
 10
154.5185054567
 20
81.9828632699
 10
154.4856225371
 20
81.9976364779
 10
154.4547126154
 20
82.0167327615
 10
154.4264053129
 20
82.0397672871
 10
154.4007542512
 20
82.0668229998
 10
154.3777058087
 20
82.0978169546
 10
154.357728742
 20
82.1321154835
 10
154.3408877933
 20
82.1698151079
 10
154.3271182203
 20
82.2108193064
 10
154.3166945529
 20
82.2542048467
 10
154.309708301
 20
82.2996639846
 10
154.3060679546
 20
82.3475044643
 10
154.3057735138
 20
82.3977262859
  0
LWPOLYLINE
  5
22E
100
AcDbEntity
  8
26814000
100
AcDbPolyline
 62
7
  6
CONTINUOUS
 90
12
 70
0
 10
141.7551887385
 20
141.2995474277
 10
141.748901947
 20
141.2961910541
 10
141.7370475205
 20
141.2886867809
 10
141.7253923405
 20
141.2798142696
 10
141.7138967456
 20
141.2696291591
 10
141.7026054479
 20
141.2581980867
 10
141.6914603815
 20
141.2455510606
 10
141.6803935021
 20
141.2317215244
 10
141.669447383
 20
141.2167520256
 10
141.6586000818
 20
141.2006690984
 10
141.6477616531
 20
141.1835008441
 10
141.6368772851
 20
141.1652822126
  0
LINE
  5
22F
100
AcDbEntity
  8
26814000
100
AcDbLine
 62
7
  6
CONTINUOUS
 10
136.0554572729
 20
137.6670876847
 11
136.5487792881
 21
137.9201712166
  0
LINE
  5
230
100
AcDbEntity
  8
26814000
100
AcDbLine
 62
7
  6
CONTINUOUS
 10
133.7910628415
 20
138.0865938746
 11
132.7242319293
 21
137.5480126251
  0
LINE
  5
231
100
AcDbEntity
  8
26814000
100
AcDbLine
 62
7
  6
CONTINUOUS
 10
135.246843818
 20
138.0582524783
 11
141.7548804447
 21
141.2993940839
  0
LINE
  5
232
100
AcDbEntity
  8
26814000
100
AcDbLine
 62
253
  6
CONTINUOUS
 10
135.3223369585
 20
138.0205059081
 11
141.6368772851
 21
141.1652822126
  0
LINE
  5
233
100
AcDbEntity
  8
26814000
100
AcDbLine
 62
7
  6
CONTINUOUS
 10
136.5487792881
 20
137.9201712166
 11
142.0264192776
 21
140.5885031798
  0
LWPOLYLINE
  5
234
100
AcDbEntity
  8
290140000
100
AcDbPolyline
 62
253
  6
CONTINUOUS
 90
19
 70
0
 10
127.28704497
 20
135.6499750367
 10
127.2003406919
 20
135.6108321192
 10
127.1135883338
 20
135.5628368097
 10
127.0273832739
 20
135.5063138964
 10
126.9423203469
 20
135.4416431811
 10
126.8589798582
 20
135.3692658662
 10
126.7779233571
 20
135.2896825071
 10
126.6997082972
 20
135.2034367115
 10
126.6248685529
 20
135.1111118798
 10
126.5539012868
 20
135.0133358404
 10
126.487292152
 20
134.9107725194
 10
126.4254986225
 20
134.8041177788
 10
126.3689322481
 20
134.6940946978
 10
126.317979069
 20
134.5814473273
 10
126.2729919919
 20
134.466943556
 10
126.2342755113
 20
134.3513689784
 10
126.2020934433
 20
134.2355119371
 10
126.1766678935
 20
134.1201579865
 10
126.1581731124
 20
134.0060919558
  0
LWPOLYLINE
  5
235
100
AcDbEntity
  8
290140000
100
AcDbPolyline
 62
7
  6
CONTINUOUS
 90
18
 70
0
 10
126.9348956367
 20
135.6755825734
 10
126.8523152109
 20
135.6384044545
 10
126.7601262354
 20
135.5885818522
 10
126.6703342462
 20
135.5309658396
 10
126.5834516176
 20
135.4658487387
 10
126.5003369014
 20
135.3939943045
 10
126.4209594469
 20
135.3154604979
 10
126.3455354223
 20
135.2304231323
 10
126.2750900797
 20
135.14013151
 10
126.2096926102
 20
135.044741664
 10
126.1495252283
 20
134.9444490599
 10
126.0955306772
 20
134.8409024719
 10
126.0478112376
 20
134.7343636444
 10
126.0064908269
 20
134.6250021693
 10
125.9722198395
 20
134.514480538
 10
125.945177319
 20
134.403488279
 10
125.9253059402
 20
134.2918057784
 10
125.9223225174
 20
134.270263345
  0
LINE
  5
236
100
AcDbEntity
  8
290140000
100
AcDbLine
 62
7
  6
CONTINUOUS
 10
130.9109291472
 20
137.3008829842
 11
126.9348889391
 21
135.6755989507
  0
LINE
  5
237
100
AcDbEntity
  8
290140000
100
AcDbLine
 62
253
  6
CONTINUOUS
 10
131.2203312814
 20
137.2577825402
 11
127.28704497
 21
135.6499750367
  0
LWPOLYLINE
  5
238
100
AcDbEntity
  8
26814000
100
AcDbPolyline
 62
7
  6
CONTINUOUS
 90
3
 70
0
 10
141.7736364769
 20
141.3070047704
 10
141.7610714571
 20
141.3023057195
 10
141.7551887385
 20
141.2995474277
  0
LWPOLYLINE
  5
239
100
AcDbEntity
  8
26814000
100
AcDbPolyline
 62
7
  6
CONTINUOUS
 90
10
 70
0
 10
141.7736364769
 20
141.3070047704
 10
141.7828760977
 20
141.3097505693
 10
141.7914392515
 20
141.3120162878
 10
141.7993259384
 20
141.3138019259
 10
141.8065752967
 20
141.3151283305
 10
141.8131481881
 20
141.3159746546
 10
141.8189271975
 20
141.3162783574
 10
141.8239081546
 20
141.3160390216
 10
141.8280952298
 20
141.3152570644
 10
141.8306849109
 20
141.3142606312
  0
LWPOLYLINE
  5
23A
100
AcDbEntity
  8
RACCORDO
100
AcDbPolyline
 62
253
  6
CONTINUOUS
 90
6
 70
0
 10
162.1288080226
 20
83.9685595913
 10
162.1039282405
 20
83.963924323
 10
162.0784139414
 20
83.9606592222
 10
162.0525692726
 20
83.9587857932
 10
162.0266535691
 20
83.9583036376
 10
162.0008508698
 20
83.9592238097
  0
LINE
  5
23B
100
AcDbEntity
  8
26814000
100
AcDbLine
 62
7
  6
CONTINUOUS
 10
134.4061816765
 20
139.4610859156
 11
133.8789369608
 21
138.8193781875
  0
LINE
  5
23C
100
AcDbEntity
  8
26814000
100
AcDbLine
 62
7
  6
CONTINUOUS
 10
143.9569714347
 20
138.8156644483
 11
142.5591869282
 21
138.116772195
  0
LINE
  5
23D
100
AcDbEntity
  8
26814000
100
AcDbLine
 62
7
  6
CONTINUOUS
 10
142.6298976063
 20
140.2855386818
 11
137.8922821724
 21
137.9504881672
  0
LINE
  5
23E
100
AcDbEntity
  8
26814000
100
AcDbLine
 62
7
  6
CONTINUOUS
 10
142.2056335376
 20
138.8461070796
 11
142.6298976063
 21
139.0537045005
  0
LINE
  5
23F
100
AcDbEntity
  8
26814000
100
AcDbLine
 62
7
  6
CONTINUOUS
 10
144.6159671861
 20
139.6757372621
 11
142.5591869282
 21
138.6693303843
  0
LINE
  5
240
100
AcDbEntity
  8
21814000
100
AcDbLine
 62
7
  6
CONTINUOUS
 10
141.6219797179
 20
137.489676412
 11
141.4838649158
 21
137.4244393267
  0
LINE
  5
241
100
AcDbEntity
  8
21814000
100
AcDbLine
 62
253
  6
CONTINUOUS
 10
141.7055137244
 20
137.4811773253
 11
141.5692374354
 21
137.4168086425
  0
LWPOLYLINE
  5
242
100
AcDbEntity
  8
21814000
100
AcDbPolyline
 62
253
  6
CONTINUOUS
 90
11
 70
0
 10
142.5389798474
 20
137.5349972985
 10
142.5480723079
 20
137.5390877496
 10
142.5571309821
 20
137.5424445348
 10
142.5661181037
 20
137.5450515069
 10
142.5749992914
 20
137.5468961111
 10
142.5837337558
 20
137.5479672567
 10
142.5922751042
 20
137.5482582707
 10
142.6005919295
 20
137.5477677767
 10
142.6086451536
 20
137.5464977643
 10
142.6163811339
 20
137.5444602481
 10
142.6237547766
 20
137.5416768792
  0
LINE
  5
243
100
AcDbEntity
  8
21814000
100
AcDbLine
 62
7
  6
CONTINUOUS
 10
141.6220332334
 20
137.4897016895
 11
141.6252412736
 21
137.4911173191
  0
LWPOLYLINE
  5
244
100
AcDbEntity
  8
21814000
100
AcDbPolyline
 62
7
  6
CONTINUOUS
 90
5
 70
0
 10
141.4837464471
 20
137.4243824244
 10
141.4885896119
 20
137.4264400487
 10
141.4960159717
 20
137.4287579112
 10
141.5041623899
 20
137.4302902758
 10
141.5130807249
 20
137.4309411895
  0
LINE
  5
245
100
AcDbEntity
  8
21814000
100
AcDbLine
 62
7
  6
CONTINUOUS
 10
141.6950818633
 20
137.5172184563
 11
141.6252409122
 21
137.4911171489
  0
LINE
  5
246
100
AcDbEntity
  8
21814000
100
AcDbLine
 62
7
  6
CONTINUOUS
 10
141.7701209735
 20
137.5401460214
 11
141.6950818633
 21
137.5172184563
  0
LWPOLYLINE
  5
247
100
AcDbEntity
  8
21814000
100
AcDbPolyline
 62
7
  6
CONTINUOUS
 90
6
 70
0
 10
141.6252412736
 20
137.4911173191
 10
141.6384695481
 20
137.4950593441
 10
141.6542531683
 20
137.4963979795
 10
141.6708905008
 20
137.4945041543
 10
141.6880791019
 20
137.4894029454
 10
141.7055137244
 20
137.4811773253
  0
LWPOLYLINE
  5
248
100
AcDbEntity
  8
290140000
100
AcDbPolyline
 62
253
  6
CONTINUOUS
 90
12
 70
0
 10
123.1496534914
 20
97.4445486114
 10
123.1499619971
 20
97.3376028562
 10
123.1574276914
 20
97.2346966253
 10
123.171998573
 20
97.1365307465
 10
123.1935721924
 20
97.043773806
 10
123.2220016348
 20
96.957058122
 10
123.257095677
 20
96.8769746493
 10
123.2986096794
 20
96.8040712348
 10
123.3462594265
 20
96.7388412692
 10
123.3997288188
 20
96.6817216466
 10
123.4586498038
 20
96.6331032193
 10
123.5226187007
 20
96.5933182396
  0
LWPOLYLINE
  5
249
100
AcDbEntity
  8
290140000
100
AcDbPolyline
 62
7
  6
CONTINUOUS
 90
13
 70
0
 10
125.922323605
 20
134.2703634588
 10
125.5361114185
 20
131.2519002261
 10
125.1639672029
 20
128.14708736
 10
124.8184360791
 20
125.0509605886
 10
124.4995714685
 20
121.9639658258
 10
124.2074126618
 20
118.8864948278
 10
123.9419950652
 20
115.8189182967
 10
123.7033543938
 20
112.7616216665
 10
123.4915209018
 20
109.7149882404
 10
123.3065226612
 20
106.679385715
 10
123.148387192
 20
103.6552011415
 10
123.0171361787
 20
100.6428682223
 10
122.9153297777
 20
97.7261630159
  0
LINE
  5
24A
100
AcDbEntity
  8
21814000
100
AcDbLine
 62
7
  6
CONTINUOUS
 10
141.4691337172
 20
137.4147628955
 11
140.5582073588
 21
136.617525574
  0
LINE
  5
24B
100
AcDbEntity
  8
21814000
100
AcDbLine
 62
253
  6
CONTINUOUS
 10
141.5685785609
 20
137.4171380797
 11
140.6197683807
 21
136.5867450631
  0
LWPOLYLINE
  5
24C
100
AcDbEntity
  8
21814000
100
AcDbPolyline
 62
7
  6
CONTINUOUS
 90
5
 70
0
 10
141.4690364783
 20
137.414677297
 10
141.4701172817
 20
137.4156088176
 10
141.4756656464
 20
137.4197915539
 10
141.4818201063
 20
137.4234292026
 10
141.4837464471
 20
137.4243824244
  0
LINE
  5
24D
100
AcDbEntity
  8
21814000
100
AcDbLine
 62
253
  6
CONTINUOUS
 10
141.120497339
 20
136.3363805839
 11
141.5943057826
 21
136.7078006403
  0
LWPOLYLINE
  5
24E
100
AcDbEntity
  8
21814000
100
AcDbPolyline
 62
253
  6
CONTINUOUS
 90
13
 70
0
 10
141.5943057826
 20
136.7078006403
 10
141.6354847019
 20
136.7373467703
 10
141.6786800743
 20
136.7639569064
 10
141.7238918996
 20
136.7876310488
 10
141.7716688677
 20
136.8085260168
 10
141.8214622888
 20
136.8264849911
 10
141.871626094
 20
136.8410375133
 10
141.9221318849
 20
136.8520560114
 10
141.97300806
 20
136.8596680574
 10
142.0226937454
 20
136.8637859093
 10
142.0710486997
 20
136.8643241047
 10
142.1182131643
 20
136.861368106
 10
142.1630469893
 20
136.8550865579
  0
LINE
  5
24F
100
AcDbEntity
  8
26814000
100
AcDbLine
 62
7
  6
CONTINUOUS
 10
142.2722232298
 20
134.5587047063
 11
142.7713189626
 21
134.8089013794
  0
LINE
  5
250
100
AcDbEntity
  8
26814000
100
AcDbLine
 62
7
  6
CONTINUOUS
 10
142.7713189626
 20
134.8089013794
 11
148.1855916577
 21
137.5089169897
  0
LINE
  5
251
100
AcDbEntity
  8
26814000
100
AcDbLine
 62
7
  6
CONTINUOUS
 10
147.5796450746
 20
137.8106649477
 11
142.8420296407
 21
135.4756144331
  0
LWPOLYLINE
  5
252
100
AcDbEntity
  8
26814000
100
AcDbPolyline
 62
7
  6
CONTINUOUS
 90
18
 70
0
 10
148.8586078732
 20
137.5544169186
 10
148.886982394
 20
137.5675988754
 10
148.915216846
 20
137.5793332671
 10
148.9433112292
 20
137.5896200938
 10
148.9713155422
 20
137.5984722284
 10
148.9991797865
 20
137.6058767979
 10
149.0267539662
 20
137.6117951836
 10
149.0540230948
 20
137.6162186048
 10
149.0810021588
 20
137.6191558422
 10
149.1075861214
 20
137.6205946181
 10
149.1337910803
 20
137.6205274816
 10
149.1596009378
 20
137.6189618836
 10
149.184862364
 20
137.6159079002
 10
149.2095521174
 20
137.6113621158
 10
149.2336934395
 20
137.605327946
 10
149.2572027257
 20
137.5978257132
 10
149.2800985059
 20
137.5888402985
 10
149.2996605902
 20
137.5797505655
  0
LWPOLYLINE
  5
253
100
AcDbEntity
  8
21814000
100
AcDbPolyline
 62
253
  6
CONTINUOUS
 90
9
 70
0
 10
155.4764038267
 20
140.0910990058
 10
155.5304102282
 20
140.1141305217
 10
155.5841303013
 20
140.1313721583
 10
155.6371661458
 20
140.1426369299
 10
155.689152071
 20
140.1477808465
 10
155.7396533209
 20
140.1466927075
 10
155.7881814571
 20
140.1393373122
 10
155.8343637498
 20
140.1257431628
 10
155.8677748402
 20
140.1112332915
  0
LWPOLYLINE
  5
254
100
AcDbEntity
  8
21814000
100
AcDbPolyline
 62
7
  6
CONTINUOUS
 90
12
 70
0
 10
155.0879463441
 20
140.1233133415
 10
155.1535738202
 20
140.150532991
 10
155.2222726507
 20
140.1728087604
 10
155.2935801333
 20
140.1897081427
 10
155.3671367828
 20
140.2008724672
 10
155.4421647651
 20
140.20594419
 10
155.5175507225
 20
140.2047233432
 10
155.5927362312
 20
140.1971732082
 10
155.6670936628
 20
140.1833265767
 10
155.7396150342
 20
140.1634169599
 10
155.8099670658
 20
140.1376275091
 10
155.8678071947
 20
140.111217114
  0
LWPOLYLINE
  5
255
100
AcDbEntity
  8
21814000
100
AcDbPolyline
 62
253
  6
CONTINUOUS
 90
9
 70
0
 10
155.0879463441
 20
140.1233133415
 10
155.1158589696
 20
140.134712321
 10
155.1623733826
 20
140.147691374
 10
155.2111923352
 20
140.1542689673
 10
155.2619444298
 20
140.1543950608
 10
155.3142435618
 20
140.1480686954
 10
155.3676918575
 20
140.1353379997
 10
155.4218827009
 20
140.1162998246
 10
155.4764038267
 20
140.0910990058
  0
LINE
  5
256
100
AcDbEntity
  8
RACCORDO
100
AcDbLine
 62
253
  6
CONTINUOUS
 10
163.6309690076
 20
83.648199763
 11
163.1006389217
 21
83.75803472
  0
LINE
  5
257
100
AcDbEntity
  8
RACCORDO
100
AcDbLine
 62
253
  6
CONTINUOUS
 10
163.5425806599
 20
83.9682822845
 11
163.012250574
 21
84.0781172415
  0
LWPOLYLINE
  5
258
100
AcDbEntity
  8
290140000
100
AcDbPolyline
 62
7
  6
CONTINUOUS
 90
10
 70
0
 10
153.5772260644
 20
81.5658468361
 10
153.664656056
 20
81.5268374444
 10
153.7556976574
 20
81.4956214597
 10
153.8496583722
 20
81.4725318989
 10
153.9463979439
 20
81.4577201007
 10
154.0452400072
 20
81.4514662523
 10
154.1454261892
 20
81.453977246
 10
154.2468411433
 20
81.4654579786
 10
154.3490229574
 20
81.4860956894
 10
154.4462388751
 20
81.5143078237
  0
LWPOLYLINE
  5
259
100
AcDbEntity
  8
290140000
100
AcDbPolyline
 62
253
  6
CONTINUOUS
 90
16
 70
0
 10
153.1846909147
 20
82.427029923
 10
153.2461990845
 20
82.3992550384
 10
153.3131053332
 20
82.3745329914
 10
153.3846927699
 20
82.3531286752
 10
153.460194345
 20
82.3352714339
 10
153.5388010697
 20
82.3211526055
 10
153.6196706839
 20
82.3109234717
 10
153.701936681
 20
82.3046936362
 10
153.7847175922
 20
82.3025298509
 10
153.8671264317
 20
82.3044553003
 10
153.9482802003
 20
82.3104493536
 10
154.0273093465
 20
82.3204477853
 10
154.1033670841
 20
82.3343434636
 10
154.1756384651
 20
82.3519874983
 10
154.2433491117
 20
82.373190836
 10
154.3057735138
 20
82.3977262859
  0
LINE
  5
25A
100
AcDbEntity
  8
290140000
100
AcDbLine
 62
7
  6
CONTINUOUS
 10
153.5777274654
 20
81.5655711682
 11
123.5348580448
 21
96.5870058785
  0
LWPOLYLINE
  5
25B
100
AcDbEntity
  8
290140000
100
AcDbPolyline
 62
253
  6
CONTINUOUS
 90
13
 70
0
 10
153.5771190757
 20
81.565875774
 10
153.5652129046
 20
81.5720211377
 10
153.5000919076
 20
81.6123821674
 10
153.4400995432
 20
81.6615362844
 10
153.3856411992
 20
81.7191503828
 10
153.3370832213
 20
81.7848344638
 10
153.2947601047
 20
81.8581424354
 10
153.2589581443
 20
81.9385798672
 10
153.2299199003
 20
82.025599952
 10
153.2078487533
 20
82.1186056563
 10
153.1928956706
 20
82.2169626357
 10
153.1851590493
 20
82.3200043302
 10
153.1846908904
 20
82.4270299119
  0
LWPOLYLINE
  5
25C
100
AcDbEntity
  8
290140000
100
AcDbPolyline
 62
253
  6
CONTINUOUS
 90
9
 70
0
 10
123.1496686998
 20
97.444555535
 10
123.0942231979
 20
97.4752573521
 10
123.0454287177
 20
97.5083853601
 10
123.0038080751
 20
97.543584604
 10
122.9698072207
 20
97.5804779362
 10
122.9437904619
 20
97.6186700576
 10
122.926036559
 20
97.6577517534
 10
122.9167357391
 20
97.697304277
 10
122.9153356528
 20
97.7259326151
  0
LWPOLYLINE
  5
25D
100
AcDbEntity
  8
290140000
100
AcDbPolyline
 62
7
  6
CONTINUOUS
 90
15
 70
0
 10
122.9153356528
 20
97.7259326151
 10
122.9147505621
 20
97.6990275991
 10
122.9180513747
 20
97.5756708727
 10
122.9310550568
 20
97.4566644015
 10
122.9534359754
 20
97.3426002415
 10
122.9848731882
 20
97.2336091088
 10
123.0251684815
 20
97.1297989559
 10
123.0739928907
 20
97.0317965684
 10
123.1309270602
 20
96.9401523847
 10
123.1955821038
 20
96.8552861927
 10
123.2673343061
 20
96.7778830281
 10
123.3454612149
 20
96.7085579572
 10
123.4292224468
 20
96.6477314551
 10
123.5177157966
 20
96.5958015966
 10
123.5361974788
 20
96.5863620912
  0
LINE
  5
25E
100
AcDbEntity
  8
290140000
100
AcDbLine
 62
7
  6
CONTINUOUS
 10
122.9153356528
 20
97.7259326151
 11
122.9153425368
 21
97.7261626338
  0
LWPOLYLINE
  5
25F
100
AcDbEntity
  8
290140000
100
AcDbPolyline
 62
253
  6
CONTINUOUS
 90
13
 70
0
 10
126.1581731124
 20
134.0060919558
 10
125.7618897846
 20
130.9064521321
 10
125.3919414821
 20
127.8151102941
 10
125.04837584
 20
124.7324621007
 10
124.7312371497
 20
121.6589021207
 10
124.4405660686
 20
118.5948238037
 10
124.1763996187
 20
115.5406194304
 10
123.938771471
 20
112.4966801175
 10
123.727712201
 20
109.4633955161
 10
123.5432490066
 20
106.4411537854
 10
123.3854054458
 20
103.4303418682
 10
123.254201431
 20
100.4313454402
 10
123.1496534914
 20
97.4445486114
  0
LWPOLYLINE
  5
260
100
AcDbEntity
  8
21814000
100
AcDbPolyline
 62
253
  6
CONTINUOUS
 90
10
 70
0
 10
142.5389798474
 20
137.5349972985
 10
142.5442369748
 20
137.540524804
 10
142.5494714429
 20
137.5452877616
 10
142.5546606493
 20
137.5492633901
 10
142.5597840873
 20
137.5524332911
 10
142.5648173239
 20
137.5547796193
 10
142.569732519
 20
137.5562884704
 10
142.5745106405
 20
137.5569539326
 10
142.5791288441
 20
137.5567727529
 10
142.581168159
 20
137.5564110859
  0
LWPOLYLINE
  5
261
100
AcDbEntity
  8
21814000
100
AcDbPolyline
 62
253
  6
CONTINUOUS
 90
10
 70
0
 10
142.2824244764
 20
136.8164572612
 10
142.2633835879
 20
136.7983976961
 10
142.2455355324
 20
136.7776872308
 10
142.229247236
 20
136.7547516378
 10
142.2148535588
 20
136.7300624345
 10
142.2026504107
 20
136.7041271895
 10
142.192888668
 20
136.677479088
 10
142.1857690157
 20
136.6506659704
 10
142.1814378219
 20
136.6242390694
 10
142.1799841289
 20
136.5987416778
  0
LWPOLYLINE
  5
262
100
AcDbEntity
  8
21814000
100
AcDbPolyline
 62
253
  6
CONTINUOUS
 90
10
 70
0
 10
143.0408300751
 20
136.4372544619
 10
143.0217886226
 20
136.4191942675
 10
143.0039402307
 20
136.3984832072
 10
142.987651815
 20
136.3755471472
 10
142.9732582142
 20
136.3508576986
 10
142.9610552747
 20
136.3249224617
 10
142.9512937886
 20
136.2982745807
 10
142.9441743803
 20
136.2714618686
 10
142.9398433667
 20
136.2450355521
 10
142.9383897297
 20
136.2195388774
  0
LWPOLYLINE
  5
263
100
AcDbEntity
  8
21814000
100
AcDbPolyline
 62
253
  6
CONTINUOUS
 90
16
 70
0
 10
141.7671129126
 20
136.4864812525
 10
141.7913422481
 20
136.509344255
 10
141.8173835762
 20
136.5303635668
 10
141.8449388137
 20
136.5494625194
 10
141.873707741
 20
136.5666933033
 10
141.9033654233
 20
136.5818993741
 10
141.9335632599
 20
136.5947201432
 10
141.963977993
 20
136.6051141529
 10
141.9942947682
 20
136.6131285635
 10
142.0241826705
 20
136.6185677799
 10
142.0532944144
 20
136.6214446729
 10
142.0814045719
 20
136.6218555372
 10
142.1083740413
 20
136.6197345969
 10
142.1339784145
 20
136.6150994092
 10
142.1579257541
 20
136.6080717938
 10
142.1799841289
 20
136.5987416778
  0
LINE
  5
264
100
AcDbEntity
  8
21814000
100
AcDbLine
 62
253
  6
CONTINUOUS
 10
143.0588490972
 20
135.9755289831
 11
142.6322300584
 21
135.5805142242
  0
LINE
  5
265
100
AcDbEntity
  8
21814000
100
AcDbLine
 62
7
  6
CONTINUOUS
 10
142.9620487262
 20
135.9753687432
 11
142.5694850212
 21
135.6118867428
  0
LINE
  5
266
100
AcDbEntity
  8
21814000
100
AcDbLine
 62
253
  6
CONTINUOUS
 10
141.398387002
 20
136.1974357524
 11
141.7671129126
 21
136.4864812525
  0
LINE
  5
267
100
AcDbEntity
  8
26814000
100
AcDbLine
 62
7
  6
CONTINUOUS
 10
143.946278806
 20
133.137674301
 11
145.5290354092
 21
133.9496583983
  0
LINE
  5
268
100
AcDbEntity
  8
26814000
100
AcDbLine
 62
7
  6
CONTINUOUS
 10
142.2722232298
 20
133.3445012334
 11
142.7713189626
 21
133.5964658141
  0
LINE
  5
269
100
AcDbEntity
  8
26814000
100
AcDbLine
 62
7
  6
CONTINUOUS
 10
142.7713189626
 20
133.5964658141
 11
148.1855916577
 21
136.2770784114
  0
LINE
  5
26A
100
AcDbEntity
  8
26814000
100
AcDbLine
 62
7
  6
CONTINUOUS
 10
148.8586078732
 20
137.5544169186
 11
148.2722290861
 21
137.2674948509
  0
LINE
  5
26B
100
AcDbEntity
  8
26814000
100
AcDbLine
 62
7
  6
CONTINUOUS
 10
145.5290354092
 20
133.9496583983
 11
146.0634852879
 21
134.2100058649
  0
LINE
  5
26C
100
AcDbEntity
  8
21814000
100
AcDbLine
 62
7
  6
CONTINUOUS
 10
156.4475626603
 20
139.605519589
 11
153.0171587599
 21
137.968182776
  0
LINE
  5
26D
100
AcDbEntity
  8
21814000
100
AcDbLine
 62
7
  6
CONTINUOUS
 10
155.0879463441
 20
140.1233133415
 11
149.4344764536
 21
137.5123535965
  0
LINE
  5
26E
100
AcDbEntity
  8
21814000
100
AcDbLine
 62
253
  6
CONTINUOUS
 10
155.4764038267
 20
140.0910990058
 11
149.6544905762
 21
137.4023465352
  0
LINE
  5
26F
100
AcDbEntity
  8
RACCORDO
100
AcDbLine
 62
253
  6
CONTINUOUS
 10
162.9950751993
 20
84.0833647887
 11
163.012250574
 21
84.0781172415
  0
LINE
  5
270
100
AcDbEntity
  8
290140000
100
AcDbLine
 62
253
  6
CONTINUOUS
 10
153.1846908904
 20
82.4270299119
 11
123.1496534914
 21
97.4445486114
  0
LINE
  5
271
100
AcDbEntity
  8
21814000
100
AcDbLine
 62
253
  6
CONTINUOUS
 10
143.091949022
 20
136.0092553647
 11
143.0588490972
 21
135.9755289831
  0
LWPOLYLINE
  5
272
100
AcDbEntity
  8
RACCORDO
100
AcDbPolyline
 62
7
  6
CONTINUOUS
 90
10
 70
0
 10
146.5132475211
 20
131.9043633724
 10
146.4849127508
 20
131.8877850057
 10
146.4585813219
 20
131.8672707236
 10
146.4349485179
 20
131.8431175204
 10
146.4146757861
 20
131.8158205936
 10
146.3982469549
 20
131.7859227362
 10
146.3859846285
 20
131.7538818661
 10
146.3781586985
 20
131.7200523765
 10
146.3750951152
 20
131.6854571734
 10
146.3750509237
 20
131.680778131
  0
LWPOLYLINE
  5
273
100
AcDbEntity
  8
RACCORDO
100
AcDbPolyline
 62
253
  6
CONTINUOUS
 90
13
 70
0
 10
146.62505092
 20
131.8972629256
 10
146.6024901538
 20
131.8842121171
 10
146.5801422994
 20
131.8677057593
 10
146.5583899514
 20
131.8479490888
 10
146.5375720057
 20
131.825155788
 10
146.5181249577
 20
131.7997037378
 10
146.5005364622
 20
131.7721848189
 10
146.4851433918
 20
131.7431426206
 10
146.4721712373
 20
131.7130213971
 10
146.4618474503
 20
131.682353044
 10
146.4543482721
 20
131.6516716613
 10
146.4497987644
 20
131.6215034226
 10
146.4482742247
 20
131.592368227
  0
LWPOLYLINE
  5
274
100
AcDbEntity
  8
21814000
100
AcDbPolyline
 62
7
  6
CONTINUOUS
 90
13
 70
0
 10
153.4317362716
 20
136.8926042358
 10
153.3027514535
 20
136.8222505174
 10
153.1838381692
 20
136.7475924688
 10
153.0755693357
 20
136.6689897879
 10
152.9784665857
 20
136.5868211777
 10
152.8929977544
 20
136.5014825215
 10
152.8195746253
 20
136.4133849759
 10
152.7585509467
 20
136.3229529894
 10
152.7102207269
 20
136.2306222579
 10
152.674816818
 20
136.1368376252
 10
152.6525097939
 20
136.04205094
 10
152.6434071285
 20
135.9467188789
 10
152.6431750067
 20
135.9288539974
  0
LINE
  5
275
100
AcDbEntity
  8
26814000
100
AcDbLine
 62
253
  6
CONTINUOUS
 10
147.669461839
 20
132.6559538292
 11
153.0277886192
 21
135.5468940561
  0
LINE
  5
276
100
AcDbEntity
  8
26814000
100
AcDbLine
 62
253
  6
CONTINUOUS
 10
148.7511003687
 20
132.991110488
 11
152.9436370516
 21
135.2530802123
  0
LINE
  5
277
100
AcDbEntity
  8
0
100
AcDbLine
 62
7
  6
CONTINUOUS
 10
153.1009054114
 20
135.6207021555
 11
153.7516790662
 21
135.9638679716
  0
LINE
  5
278
100
AcDbEntity
  8
RACCORDO
100
AcDbLine
 62
253
  6
CONTINUOUS
 10
153.7515512842
 20
135.9638005847
 11
153.7516790662
 21
135.9638679716
  0
LINE
  5
279
100
AcDbEntity
  8
26814000
100
AcDbLine
 62
253
  6
CONTINUOUS
 10
148.896997529
 20
132.9456121109
 11
152.9436370516
 21
135.0408210582
  0
LINE
  5
27A
100
AcDbEntity
  8
26814000
100
AcDbLine
 62
7
  6
CONTINUOUS
 10
149.0167636597
 20
132.8857290456
 11
153.0258467639
 21
134.9614925881
  0
LINE
  5
27B
100
AcDbEntity
  8
21814000
100
AcDbLine
 62
7
  6
CONTINUOUS
 10
157.44389225
 20
138.9340040285
 11
153.4317362716
 21
136.8926042358
  0
LINE
  5
27C
100
AcDbEntity
  8
26814000
100
AcDbLine
 62
7
  6
CONTINUOUS
 10
146.5387013534
 20
131.0931088887
 11
146.0885500938
 21
130.8658535429
  0
LINE
  5
27D
100
AcDbEntity
  8
26814000
100
AcDbLine
 62
7
  6
CONTINUOUS
 10
145.5541002151
 20
132.3337635964
 11
147.1553810059
 21
133.1364855999
  0
LINE
  5
27E
100
AcDbEntity
  8
0
100
AcDbLine
 62
7
  6
CONTINUOUS
 10
153.879966495
 20
135.7407762402
 11
154.3749412418
 21
135.9882636136
  0
LINE
  5
27F
100
AcDbEntity
  8
RACCORDO
100
AcDbLine
 62
7
  6
CONTINUOUS
 10
146.5132475211
 20
131.9043633724
 11
148.6345678647
 21
132.9650235442
  0
LINE
  5
280
100
AcDbEntity
  8
RACCORDO
100
AcDbLine
 62
253
  6
CONTINUOUS
 10
146.62505092
 20
131.8972629256
 11
148.7463712636
 21
132.9579230974
  0
LINE
  5
281
100
AcDbEntity
  8
RACCORDO
100
AcDbLine
 62
7
  6
CONTINUOUS
 10
156.8431191544
 20
136.1687634659
 11
155.5316548433
 21
135.5130313104
  0
LINE
  5
282
100
AcDbEntity
  8
26814000
100
AcDbLine
 62
7
  6
CONTINUOUS
 10
147.1553810059
 20
133.1364855999
 11
147.6836481777
 21
133.39992442
  0
LINE
  5
283
100
AcDbEntity
  8
21814000
100
AcDbLine
 62
7
  6
CONTINUOUS
 10
157.44389225
 20
138.5261527612
 11
153.4317362716
 21
136.5712799536
  0
LINE
  5
284
100
AcDbEntity
  8
21814000
100
AcDbLine
 62
7
  6
CONTINUOUS
 10
153.6096386913
 20
134.4619758703
 11
149.680967197
 21
132.5536272769
  0
LINE
  5
285
100
AcDbEntity
  8
26814000
100
AcDbLine
 62
253
  6
CONTINUOUS
 10
147.065858796
 20
133.7707964817
 11
151.8376977741
 21
136.0648719681
  0
LINE
  5
286
100
AcDbEntity
  8
26814000
100
AcDbLine
 62
253
  6
CONTINUOUS
 10
147.2934742958
 20
133.6569887318
 11
152.279538642
 21
136.0540536878
  0
LWPOLYLINE
  5
287
100
AcDbEntity
  8
RACCORDO
100
AcDbPolyline
 62
253
  6
CONTINUOUS
 90
7
 70
0
 10
148.6345678647
 20
132.9650235442
 10
148.6387564299
 20
132.9669902
 10
148.6579829159
 20
132.9731109203
 10
148.6787217511
 20
132.975267289
 10
148.7006180881
 20
132.9734224101
 10
148.7232972747
 20
132.96760785
 10
148.7463712636
 20
132.9579230974
  0
LWPOLYLINE
  5
288
100
AcDbEntity
  8
RACCORDO
100
AcDbPolyline
 62
253
  6
CONTINUOUS
 90
7
 70
0
 10
146.5132475211
 20
131.9043633724
 10
146.5174360864
 20
131.9063300282
 10
146.5366625724
 20
131.9124507485
 10
146.5574014075
 20
131.9146071172
 10
146.5792977445
 20
131.9127622383
 10
146.6019769311
 20
131.9069476782
 10
146.62505092
 20
131.8972629256
  0
LWPOLYLINE
  5
289
100
AcDbEntity
  8
RACCORDO
100
AcDbPolyline
 62
7
  6
CONTINUOUS
 90
10
 70
0
 10
157.6916209662
 20
135.7444862344
 10
157.7030174304
 20
135.7496548897
 10
157.7142378329
 20
135.753706786
 10
157.7252821736
 20
135.7566419236
 10
157.7362454326
 20
135.7584604549
 10
157.7470326297
 20
135.7591622274
 10
157.7573588252
 20
135.758746783
 10
157.7671290389
 20
135.7572139691
 10
157.7764382509
 20
135.7545639384
 10
157.7852864612
 20
135.7507966908
  0
LWPOLYLINE
  5
28A
100
AcDbEntity
  8
RACCORDO
100
AcDbPolyline
 62
7
  6
CONTINUOUS
 90
8
 70
0
 10
148.6345678647
 20
132.9650235442
 10
148.6628544599
 20
132.9770531093
 10
148.692841661
 20
132.9856180782
 10
148.7240162438
 20
132.9904152466
 10
148.7559208877
 20
132.9912342293
 10
148.787805776
 20
132.9879591896
 10
148.8188133067
 20
132.9806909623
 10
148.8487733573
 20
132.9694819773
  0
LINE
  5
28B
100
AcDbEntity
  8
26814000
100
AcDbLine
 62
7
  6
CONTINUOUS
 10
145.7765227826
 20
129.9796867896
 11
146.3420014451
 21
130.1773895745
  0
LINE
  5
28C
100
AcDbEntity
  8
RACCORDO
100
AcDbLine
 62
253
  6
CONTINUOUS
 10
164.1612990934
 20
92.4270133837
 11
168.3599091762
 21
92.7232213065
  0
LINE
  5
28D
100
AcDbEntity
  8
RACCORDO
100
AcDbLine
 62
7
  6
CONTINUOUS
 10
167.8922389474
 20
93.3588448033
 11
164.1612990934
 21
93.1601933215
  0
LINE
  5
28E
100
AcDbEntity
  8
RACCORDO
100
AcDbLine
 62
7
  6
CONTINUOUS
 10
161.2210685698
 20
82.101007169
 11
159.8775656856
 21
82.7727586111
  0
LINE
  5
28F
100
AcDbEntity
  8
RACCORDO
100
AcDbLine
 62
253
  6
CONTINUOUS
 10
161.1560952734
 20
82.2362256191
 11
159.8125923892
 21
82.9079770612
  0
LINE
  5
290
100
AcDbEntity
  8
RACCORDO
100
AcDbLine
 62
253
  6
CONTINUOUS
 10
161.1560952734
 20
82.5875395912
 11
159.8125923892
 21
83.2592910333
  0
LINE
  5
291
100
AcDbEntity
  8
RACCORDO
100
AcDbLine
 62
253
  6
CONTINUOUS
 10
161.2444836211
 20
82.819233765
 11
159.9009807368
 21
83.4909852072
  0
LINE
  5
292
100
AcDbEntity
  8
RACCORDO
100
AcDbLine
 62
253
  6
CONTINUOUS
 10
160.4313108227
 20
84.1311502501
 11
161.7748137069
 21
83.459398808
  0
LWPOLYLINE
  5
293
100
AcDbEntity
  8
RACCORDO
100
AcDbPolyline
 62
7
  6
CONTINUOUS
 90
7
 70
0
 10
159.8777501877
 20
82.7726666135
 10
159.8663574553
 20
82.7787232866
 10
159.8392718145
 20
82.7964383984
 10
159.8146408813
 20
82.8175637075
 10
159.7928893815
 20
82.8417829833
 10
159.7743815057
 20
82.8687709694
 10
159.7594773277
 20
82.8981321141
  0
LINE
  5
294
100
AcDbEntity
  8
26814000
100
AcDbLine
 62
7
  6
CONTINUOUS
 10
130.0080415621
 20
137.8883229051
 11
130.0080415621
 21
137.8639273998
  0
LINE
  5
295
100
AcDbEntity
  8
26814000
100
AcDbLine
 62
7
  6
CONTINUOUS
 10
130.4072348591
 20
139.2615739378
 11
130.4072348591
 21
139.5149453315
  0
LINE
  5
296
100
AcDbEntity
  8
26814000
100
AcDbLine
 62
7
  6
CONTINUOUS
 10
130.8212143605
 20
137.4573410006
 11
130.8212143605
 21
137.2642103151
  0
LWPOLYLINE
  5
297
100
AcDbEntity
  8
RACCORDO
100
AcDbPolyline
 62
7
  6
CONTINUOUS
 90
8
 70
0
 10
146.7787654237
 20
130.4662763525
 10
146.7571532892
 20
130.4510796803
 10
146.7368247756
 20
130.4369388153
 10
146.7187220284
 20
130.4247093859
 10
146.7029160614
 20
130.4145232994
 10
146.6891575718
 20
130.4062337359
 10
146.6780872166
 20
130.4001185144
 10
146.6735721718
 20
130.3978141778
  0
LWPOLYLINE
  5
298
100
AcDbEntity
  8
RACCORDO
100
AcDbPolyline
 62
7
  6
CONTINUOUS
 90
4
 70
0
 10
146.8532280932
 20
130.5165831643
 10
146.8268187022
 20
130.4993373341
 10
146.8018216079
 20
130.4823504972
 10
146.7787654237
 20
130.4662763525
  0
LWPOLYLINE
  5
299
100
AcDbEntity
  8
RACCORDO
100
AcDbPolyline
 62
253
  6
CONTINUOUS
 90
13
 70
0
 10
147.9685538043
 20
131.2255114835
 10
147.945993038
 20
131.212460675
 10
147.9236451837
 20
131.1959543172
 10
147.9018928357
 20
131.1761976466
 10
147.88107489
 20
131.1534043458
 10
147.8616278419
 20
131.1279522957
 10
147.8440393464
 20
131.1004333768
 10
147.8286462761
 20
131.0713911785
 10
147.8156741216
 20
131.041269955
 10
147.8053503345
 20
131.0106016018
 10
147.7978511563
 20
130.9799202192
 10
147.7933016486
 20
130.9497519805
 10
147.791777109
 20
130.9206167849
  0
LWPOLYLINE
  5
29A
100
AcDbEntity
  8
RACCORDO
100
AcDbPolyline
 62
253
  6
CONTINUOUS
 90
7
 70
0
 10
149.5595440619
 20
130.526409594
 10
149.5811057017
 20
130.538702763
 10
149.5992737176
 20
130.5522979416
 10
149.6137372498
 20
130.5669625126
 10
149.6242488232
 20
130.582445561
 10
149.630628582
 20
130.5984821676
 10
149.6327673667
 20
130.6147979416
  0
LWPOLYLINE
  5
29B
100
AcDbEntity
  8
26814000
100
AcDbPolyline
 62
7
  6
CONTINUOUS
 90
5
 70
0
 10
153.0260552577
 20
134.9615908993
 10
153.0262896945
 20
134.9617239011
 10
153.0272169305
 20
134.9625515725
 10
153.0277233479
 20
134.9636026439
 10
153.0278350933
 20
134.9645468882
  0
LINE
  5
29C
100
AcDbEntity
  8
RACCORDO
100
AcDbLine
 62
253
  6
CONTINUOUS
 10
149.5772169709
 20
130.2116813009
 11
149.5595440619
 21
130.2025871662
  0
LINE
  5
29D
100
AcDbEntity
  8
26814000
100
AcDbLine
 62
253
  6
CONTINUOUS
 10
146.6836896948
 20
131.020614718
 11
145.5290354092
 21
130.4309464148
  0
LINE
  5
29E
100
AcDbEntity
  8
26814000
100
AcDbLine
 62
253
  6
CONTINUOUS
 10
147.0821577012
 20
130.6708546237
 11
145.7765227826
 21
130.0040822948
  0
LINE
  5
29F
100
AcDbEntity
  8
RACCORDO
100
AcDbLine
 62
253
  6
CONTINUOUS
 10
147.9685538043
 20
131.2255114835
 11
150.0898741478
 21
132.2861716553
  0
LINE
  5
2A0
100
AcDbEntity
  8
RACCORDO
100
AcDbLine
 62
7
  6
CONTINUOUS
 10
157.6916498621
 20
135.7445006824
 11
156.8127572109
 21
135.3050543568
  0
LINE
  5
2A1
100
AcDbEntity
  8
RACCORDO
100
AcDbLine
 62
253
  6
CONTINUOUS
 10
148.1453304996
 20
130.9206167849
 11
150.2666508431
 21
131.9812769567
  0
LWPOLYLINE
  5
2A2
100
AcDbEntity
  8
RACCORDO
100
AcDbPolyline
 62
7
  6
CONTINUOUS
 90
5
 70
0
 10
146.955620187
 20
130.5743007264
 10
146.9413382437
 20
130.5671717865
 10
146.910289484
 20
130.5506317473
 10
146.8809400596
 20
130.5337028264
 10
146.8532280932
 20
130.5165831643
  0
LINE
  5
2A3
100
AcDbEntity
  8
21814000
100
AcDbLine
 62
253
  6
CONTINUOUS
 10
162.3744408865
 20
136.1282470799
 11
150.7003009173
 21
130.3239650882
  0
LINE
  5
2A4
100
AcDbEntity
  8
RACCORDO
100
AcDbLine
 62
7
  6
CONTINUOUS
 10
146.4390831373
 20
130.2814927638
 11
146.6736812468
 21
130.3978551556
  0
LINE
  5
2A5
100
AcDbEntity
  8
RACCORDO
100
AcDbLine
 62
253
  6
CONTINUOUS
 10
146.6622402644
 20
130.26702466
 11
146.9020301793
 21
130.385959496
  0
LINE
  5
2A6
100
AcDbEntity
  8
RACCORDO
100
AcDbLine
 62
7
  6
CONTINUOUS
 10
147.0721502021
 20
130.6311804541
 11
146.9556213774
 21
130.5742981943
  0
LINE
  5
2A7
100
AcDbEntity
  8
RACCORDO
100
AcDbLine
 62
7
  6
CONTINUOUS
 10
147.0821577012
 20
130.6360664498
 11
147.0721502021
 21
130.6311804541
  0
LINE
  5
2A8
100
AcDbEntity
  8
21814000
100
AcDbLine
 62
7
  6
CONTINUOUS
 10
161.9548976755
 20
136.8518520814
 11
154.3623327753
 21
133.1637706093
  0
LINE
  5
2A9
100
AcDbEntity
  8
RACCORDO
100
AcDbLine
 62
253
  6
CONTINUOUS
 10
147.0600370238
 20
130.5953088455
 11
147.0786657078
 21
130.6042748484
  0
LINE
  5
2AA
100
AcDbEntity
  8
21814000
100
AcDbLine
 62
7
  6
CONTINUOUS
 10
161.1492257394
 20
137.2546880494
 11
157.7280796696
 21
135.6127223211
  0
LINE
  5
2AB
100
AcDbEntity
  8
RACCORDO
100
AcDbLine
 62
253
  6
CONTINUOUS
 10
149.5595440619
 20
130.2025871662
 11
148.8524372808
 21
129.8641503053
  0
LINE
  5
2AC
100
AcDbEntity
  8
RACCORDO
100
AcDbLine
 62
253
  6
CONTINUOUS
 10
149.6984972752
 20
129.9574637158
 11
148.991390494
 21
129.6190268549
  0
LWPOLYLINE
  5
2AD
100
AcDbEntity
  8
RACCORDO
100
AcDbPolyline
 62
253
  6
CONTINUOUS
 90
5
 70
0
 10
146.9559181235
 20
130.574443332
 10
146.962869567
 20
130.5776739279
 10
146.9934882635
 20
130.5883715903
 10
147.025989644
 20
130.5942702645
 10
147.0600370238
 20
130.5953088455
  0
LWPOLYLINE
  5
2AE
100
AcDbEntity
  8
RACCORDO
100
AcDbPolyline
 62
253
  6
CONTINUOUS
 90
4
 70
0
 10
147.1003037455
 20
130.6029876322
 10
147.0981105205
 20
130.6019797717
 10
147.086122396
 20
130.597827349
 10
147.0733872781
 20
130.5955960207
  0
LWPOLYLINE
  5
2AF
100
AcDbEntity
  8
21814000
100
AcDbPolyline
 62
7
  6
CONTINUOUS
 90
9
 70
0
 10
161.9548976755
 20
136.8518520814
 10
162.0110435532
 20
136.8771151197
 10
162.0642762641
 20
136.8965676122
 10
162.1141467246
 20
136.9101972231
 10
162.1601174943
 20
136.9181049106
 10
162.2019094559
 20
136.9203378885
 10
162.239502366
 20
136.9168808742
 10
162.2725366545
 20
136.9079442701
 10
162.287098605
 20
136.9015712122
  0
LWPOLYLINE
  5
2B0
100
AcDbEntity
  8
RACCORDO
100
AcDbPolyline
 62
253
  6
CONTINUOUS
 90
8
 70
0
 10
146.6736812762
 20
130.3978551701
 10
146.6894112066
 20
130.4048297533
 10
146.7213406188
 20
130.4144364309
 10
146.7551827284
 20
130.4189519449
 10
146.7905663442
 20
130.4183268643
 10
146.8271035304
 20
130.412568208
 10
146.8643939003
 20
130.4017392404
 10
146.9020287494
 20
130.3859587868
  0
LWPOLYLINE
  5
2B1
100
AcDbEntity
  8
RACCORDO
100
AcDbPolyline
 62
253
  6
CONTINUOUS
 90
13
 70
0
 10
148.1453304996
 20
130.9206167849
 10
148.1213241871
 20
130.9100591749
 10
148.0946224213
 20
130.9010622034
 10
148.0656191783
 20
130.8938114769
 10
148.0346894711
 20
130.8884583848
 10
148.0024001353
 20
130.8851560047
 10
147.9695230098
 20
130.8840060719
 10
147.9367012785
 20
130.8850238672
 10
147.9044311079
 20
130.888186798
 10
147.8732813838
 20
130.893437873
 10
147.8437924882
 20
130.9006831426
 10
147.8164680455
 20
130.9097958563
 10
147.791777109
 20
130.9206167849
  0
LWPOLYLINE
  5
2B2
100
AcDbEntity
  8
RACCORDO
100
AcDbPolyline
 62
253
  6
CONTINUOUS
 90
13
 70
0
 10
148.1453304996
 20
130.5693028128
 10
148.1207441615
 20
130.5585219929
 10
148.0935538043
 20
130.549437985
 10
148.0642246624
 20
130.5422062189
 10
148.0332585656
 20
130.5369504322
 10
148.0011853523
 20
130.5337605528
 10
147.9685538043
 20
130.5326911604
 10
147.9359222562
 20
130.5337605528
 10
147.903849043
 20
130.5369504322
 10
147.8728829462
 20
130.5422062189
 10
147.8435538043
 20
130.549437985
 10
147.816363447
 20
130.5585219929
 10
147.791777109
 20
130.5693028128
  0
LWPOLYLINE
  5
2B3
100
AcDbEntity
  8
RACCORDO
100
AcDbPolyline
 62
253
  6
CONTINUOUS
 90
13
 70
0
 10
148.8524372808
 20
130.1728562034
 10
148.8278509427
 20
130.1620753835
 10
148.8006605855
 20
130.1529913756
 10
148.7713314436
 20
130.1457596095
 10
148.7403653467
 20
130.1405038228
 10
148.7082921335
 20
130.1373139434
 10
148.6756605855
 20
130.136244551
 10
148.6430290374
 20
130.1373139434
 10
148.6109558242
 20
130.1405038228
 10
148.5799897274
 20
130.1457596095
 10
148.5506605855
 20
130.1529913756
 10
148.5234702282
 20
130.1620753835
 10
148.4988838902
 20
130.1728562034
  0
LWPOLYLINE
  5
2B4
100
AcDbEntity
  8
RACCORDO
100
AcDbPolyline
 62
253
  6
CONTINUOUS
 90
16
 70
0
 10
148.991390494
 20
129.6190268549
 10
148.9552401999
 20
129.6036734517
 10
148.916999374
 20
129.5905172176
 10
148.8766680164
 20
129.5795581527
 10
148.8337751953
 20
129.570744625
 10
148.7887918425
 20
129.5641282665
 10
148.743130753
 20
129.5598639727
 10
148.6968155852
 20
129.5580072793
 10
148.6498226808
 20
129.5585026507
 10
148.60349386
 20
129.5613383758
 10
148.5578006901
 20
129.5665715672
 10
148.5127716038
 20
129.5741451123
 10
148.4698337189
 20
129.5838759623
 10
148.4294627415
 20
129.595703101
 10
148.3911829655
 20
129.6096875447
 10
148.3549943909
 20
129.6258292932
  0
LWPOLYLINE
  5
2B5
100
AcDbEntity
  8
RACCORDO
100
AcDbPolyline
 62
253
  6
CONTINUOUS
 90
16
 70
0
 10
148.8524372808
 20
129.8641503053
 10
148.8327890406
 20
129.8560438365
 10
148.8114568266
 20
129.8490219467
 10
148.788693273
 20
129.8431595167
 10
148.7647756055
 20
129.838525849
 10
148.7399650207
 20
129.8351566321
 10
148.7144990823
 20
129.8330605374
 10
148.688674493
 20
129.8322588002
 10
148.6627540129
 20
129.8327583737
 10
148.6369229322
 20
129.8345454224
 10
148.6114427988
 20
129.8376147951
 10
148.5866126928
 20
129.8419453438
 10
148.562675604
 20
129.8474973711
 10
148.5398947377
 20
129.8542245181
 10
148.518546419
 20
129.8620679638
 10
148.4988838902
 20
129.8709527436
  0
LINE
  5
2B6
100
AcDbEntity
  8
RACCORDO
100
AcDbLine
 62
253
  6
CONTINUOUS
 10
149.6802655516
 20
130.261582525
 11
149.6984972752
 21
130.268859329
  0
LWPOLYLINE
  5
2B7
100
AcDbEntity
  8
RACCORDO
100
AcDbPolyline
 62
7
  6
CONTINUOUS
 90
18
 70
0
 10
167.8922249312
 20
93.3588898848
 10
167.9291667843
 20
93.3575982487
 10
167.9661864492
 20
93.3502858499
 10
168.0043456447
 20
93.3367416481
 10
168.0433941267
 20
93.317217407
 10
168.0815533222
 20
93.2926024134
 10
168.1185729871
 20
93.2628951473
 10
168.1547033654
 20
93.2280971286
 10
168.1889166164
 20
93.1891022029
 10
168.2213668004
 20
93.1455181867
 10
168.251899857
 20
93.0977372635
 10
168.2790257644
 20
93.0478298301
 10
168.3025197689
 20
92.9959174262
 10
168.3226066241
 20
92.9418785121
 10
168.3384705686
 20
92.8874188652
 10
168.3498396818
 20
92.8331070783
 10
168.3569858844
 20
92.7783745587
 10
168.3599091762
 20
92.7232213065
  0
LWPOLYLINE
  5
2B8
100
AcDbEntity
  8
RACCORDO
100
AcDbPolyline
 62
253
  6
CONTINUOUS
 90
3
 70
0
 10
163.5656771725
 20
83.9603534229
 10
163.5598402726
 20
83.9630000014
 10
163.5425806599
 20
83.9682822845
  0
LINE
  5
2B9
100
AcDbEntity
  8
RACCORDO
100
AcDbLine
 62
253
  6
CONTINUOUS
 10
162.9888355228
 20
84.0862046176
 11
162.9950751993
 21
84.0833647887
  0
LINE
  5
2BA
100
AcDbEntity
  8
RACCORDO
100
AcDbLine
 62
253
  6
CONTINUOUS
 10
160.5196991703
 20
84.3628444239
 11
161.8632020546
 21
83.6910929818
  0
LINE
  5
2BB
100
AcDbEntity
  8
RACCORDO
100
AcDbLine
 62
7
  6
CONTINUOUS
 10
159.0021239322
 20
85.238678618
 11
161.6492360149
 21
83.9151225767
  0
LINE
  5
2BC
100
AcDbEntity
  8
DRAFT
100
AcDbLine
 62
7
  6
CONTINUOUS
 10
159.0384072023
 20
85.6796171926
 11
162.0029509656
 21
84.197345311
  0
LINE
  5
2BD
100
AcDbEntity
  8
RACCORDO
100
AcDbLine
 62
253
  6
CONTINUOUS
 10
163.0059781085
 20
84.0812534743
 11
163.012250574
 21
84.0781172415
  0
LINE
  5
2BE
100
AcDbEntity
  8
DRAFT
100
AcDbLine
 62
7
  6
CONTINUOUS
 10
159.0801957658
 20
86.1874597755
 11
162.4705930599
 21
84.4922611284
  0
LINE
  5
2BF
100
AcDbEntity
  8
RACCORDO
100
AcDbLine
 62
253
  6
CONTINUOUS
 10
162.9970855311
 20
84.2410298489
 11
163.5425806599
 21
83.9682822845
  0
LINE
  5
2C0
100
AcDbEntity
  8
RACCORDO
100
AcDbLine
 62
7
  6
CONTINUOUS
 10
162.9970855311
 20
84.2446499984
 11
163.5659957111
 21
83.9601949084
  0
LWPOLYLINE
  5
2C1
100
AcDbEntity
  8
RACCORDO
100
AcDbPolyline
 62
253
  6
CONTINUOUS
 90
8
 70
0
 10
159.8775910456
 20
82.7727459359
 10
159.8648546266
 20
82.7804227068
 10
159.8494615562
 20
82.7940718347
 10
159.8364894018
 20
82.8112209038
 10
159.8261656147
 20
82.8315654698
 10
159.8186664365
 20
82.8547476743
 10
159.8141169288
 20
82.8803664053
 10
159.8125923892
 20
82.9079770612
  0
LWPOLYLINE
  5
2C2
100
AcDbEntity
  8
RACCORDO
100
AcDbPolyline
 62
253
  6
CONTINUOUS
 90
8
 70
0
 10
161.2209069396
 20
82.101088179
 10
161.2083575108
 20
82.1086712646
 10
161.1929644405
 20
82.1223203926
 10
161.179992286
 20
82.1394694616
 10
161.1696684989
 20
82.1598140277
 10
161.1621693207
 20
82.1829962321
 10
161.1576198131
 20
82.2086149632
 10
161.1560952734
 20
82.2362256191
  0
LINE
  5
2C3
100
AcDbEntity
  8
26814000
100
AcDbLine
 62
7
  6
CONTINUOUS
 10
131.1102278133
 20
138.3550146831
 11
131.1102278133
 21
138.8073456587
  0
LINE
  5
2C4
100
AcDbEntity
  8
26814000
100
AcDbLine
 62
7
  6
CONTINUOUS
 10
132.0130113212
 20
138.7120571004
 11
132.0130113212
 21
138.4586857067
  0
LINE
  5
2C5
100
AcDbEntity
  8
26814000
100
AcDbLine
 62
7
  6
CONTINUOUS
 10
132.7242319293
 20
137.5480126251
 11
132.7242319293
 21
138.1851821838
  0
LWPOLYLINE
  5
2C6
100
AcDbEntity
  8
RACCORDO
100
AcDbPolyline
 62
7
  6
CONTINUOUS
 90
13
 70
0
 10
152.1051401689
 20
129.7904736957
 10
152.0824185918
 20
129.7784577489
 10
152.0614791319
 20
129.7658398983
 10
152.042321789
 20
129.752620144
 10
152.0248794941
 20
129.7387364471
 10
152.0092193163
 20
129.7242508464
 10
151.9955424631
 20
129.7093494581
 10
151.9838745266
 20
129.694026917
 10
151.9741899148
 20
129.6782885882
 10
151.9666130589
 20
129.6623366834
 10
151.9611711567
 20
129.6461684467
 10
151.9578370105
 20
129.6297866341
 10
151.9566514436
 20
129.612686228
  0
LINE
  5
2C7
100
AcDbEntity
  8
21814000
100
AcDbLine
 62
253
  6
CONTINUOUS
 10
162.7134043703
 20
134.9565195735
 11
158.6266882406
 21
132.8405603554
  0
LINE
  5
2C8
100
AcDbEntity
  8
RACCORDO
100
AcDbLine
 62
7
  6
CONTINUOUS
 10
158.3983788268
 20
132.2986723061
 11
153.8021847491
 21
130.0005752673
  0
LINE
  5
2C9
100
AcDbEntity
  8
RACCORDO
100
AcDbLine
 62
7
  6
CONTINUOUS
 10
151.1028363858
 20
130.122697354
 11
157.3678393704
 21
133.2301850206
  0
LINE
  5
2CA
100
AcDbEntity
  8
RACCORDO
100
AcDbLine
 62
7
  6
CONTINUOUS
 10
152.1051401689
 20
129.7904736957
 11
157.7925278817
 21
132.6015977787
  0
LINE
  5
2CB
100
AcDbEntity
  8
DRAFT
100
AcDbLine
 62
7
  6
CONTINUOUS
 10
155.0565527242
 20
129.3733912797
 11
158.7519322174
 21
131.1420811989
  0
LINE
  5
2CC
100
AcDbEntity
  8
DRAFT
100
AcDbLine
 62
7
  6
CONTINUOUS
 10
159.2082823943
 20
87.7440541844
 11
162.4705930599
 21
86.1128988516
  0
LINE
  5
2CD
100
AcDbEntity
  8
RACCORDO
100
AcDbLine
 62
253
  6
CONTINUOUS
 10
163.5649312699
 20
83.9547394972
 11
163.5425806599
 21
83.9682822845
  0
LINE
  5
2CE
100
AcDbEntity
  8
26814000
100
AcDbLine
 62
7
  6
CONTINUOUS
 10
133.7910628415
 20
138.0865938746
 11
133.7910628415
 21
139.8186446822
  0
LINE
  5
2CF
100
AcDbEntity
  8
26814000
100
AcDbLine
 62
7
  6
CONTINUOUS
 10
134.4940557958
 20
139.9539661799
 11
134.4940557958
 21
139.6930372036
  0
LINE
  5
2D0
100
AcDbEntity
  8
26814000
100
AcDbLine
 62
7
  6
CONTINUOUS
 10
147.7704998409
 20
132.7789268333
 11
147.4275372388
 21
132.3615082312
  0
LINE
  5
2D1
100
AcDbEntity
  8
21814000
100
AcDbLine
 62
253
  6
CONTINUOUS
 10
160.0490444339
 20
132.1293822587
 11
160.0623876857
 21
132.1362909296
  0
LINE
  5
2D2
100
AcDbEntity
  8
21814000
100
AcDbLine
 62
253
  6
CONTINUOUS
 10
162.1466802449
 20
132.8028939553
 11
161.7972959926
 21
132.6219949631
  0
LINE
  5
2D3
100
AcDbEntity
  8
21814000
100
AcDbLine
 62
253
  6
CONTINUOUS
 10
161.2437619031
 20
131.1362210461
 11
162.1466802449
 21
131.603720703
  0
LINE
  5
2D4
100
AcDbEntity
  8
0
100
AcDbLine
 62
7
  6
CONTINUOUS
 10
159.3795350479
 20
130.6170436782
 11
155.9743914876
 21
128.914471898
  0
LINE
  5
2D5
100
AcDbEntity
  8
RACCORDO
100
AcDbLine
 62
7
  6
CONTINUOUS
 10
160.5320398853
 20
131.6480847632
 11
155.4101061148
 21
129.1966145844
  0
LINE
  5
2D6
100
AcDbEntity
  8
26814000
100
AcDbLine
 62
7
  6
CONTINUOUS
 10
135.9688198445
 20
137.5605807428
 11
135.9688198445
 21
136.3458473566
  0
LINE
  5
2D7
100
AcDbEntity
  8
26814000
100
AcDbLine
 62
253
  6
CONTINUOUS
 10
136.0566878101
 20
137.454071786
 11
136.0566878101
 21
136.2391169199
  0
LWPOLYLINE
  5
2D8
100
AcDbEntity
  8
21814000
100
AcDbPolyline
 62
7
  6
CONTINUOUS
 90
9
 70
0
 10
143.0259101421
 20
136.0722504766
 10
143.024327148
 20
136.064433399
 10
143.0209047877
 20
136.0541617918
 10
143.015141049
 20
136.0416054427
 10
143.0068222935
 20
136.0273640232
 10
142.9961436793
 20
136.0123047697
 10
142.983329125
 20
135.9969353965
 10
142.9684858412
 20
135.9814848934
 10
142.9620489043
 20
135.9753685501
  0
LWPOLYLINE
  5
2D9
100
AcDbEntity
  8
RACCORDO
100
AcDbPolyline
 62
253
  6
CONTINUOUS
 90
5
 70
0
 10
149.7099423247
 20
130.9558880907
 10
149.6854919892
 20
130.9206728348
 10
149.6629697507
 20
130.8841521742
 10
149.6422514327
 20
130.8460544081
 10
149.6234612117
 20
130.8066512373
  0
LINE
  5
2DA
100
AcDbEntity
  8
RACCORDO
100
AcDbLine
 62
7
  6
CONTINUOUS
 10
150.303700142
 20
131.5888197698
 11
150.2824104561
 21
131.5588842153
  0
LWPOLYLINE
  5
2DB
100
AcDbEntity
  8
RACCORDO
100
AcDbPolyline
 62
253
  6
CONTINUOUS
 90
47
 70
0
 10
153.3168978149
 20
135.527609476
 10
153.3558305891
 20
135.5796514708
 10
153.4051138075
 20
135.6364321482
 10
153.4602474821
 20
135.6920227625
 10
153.5207509605
 20
135.7459652848
 10
153.5866233121
 20
135.7982181843
 10
153.6578654674
 20
135.8488229918
 10
153.7339995651
 20
135.8974462703
 10
153.8150161941
 20
135.9440740128
 10
153.9009247654
 20
135.9887202264
 10
153.9912756512
 20
136.0310934955
 10
154.0863259313
 20
136.0712526935
 10
154.1858185259
 20
136.109138947
 10
154.2885325662
 20
136.1442842202
 10
154.394873435
 20
136.1766619401
 10
154.5044357496
 20
136.2062986796
 10
154.6147824939
 20
136.2328061218
 10
154.7258870109
 20
136.2560055152
 10
154.8377759576
 20
136.2760756113
 10
154.9480922897
 20
136.2931643471
 10
155.0564827796
 20
136.3071382429
 10
155.1633006549
 20
136.3181307785
 10
155.267248554
 20
136.3266903297
 10
155.3680843884
 20
136.3327928993
 10
155.4660502467
 20
136.3364624845
 10
155.5605750331
 20
136.3383194533
 10
155.6514967732
 20
136.3383853222
 10
155.7389774413
 20
136.3366385746
 10
155.8229318647
 20
136.3336350293
 10
155.9032359381
 20
136.3294162286
 10
155.9800137667
 20
136.3239406301
 10
156.0535524931
 20
136.3176394245
 10
156.1238190268
 20
136.3105533907
 10
156.1908464584
 20
136.3026417498
 10
156.2550212025
 20
136.2942133557
 10
156.3163289493
 20
136.2853027151
 10
156.3747840088
 20
136.2758753213
 10
156.4308157253
 20
136.2661365075
 10
156.4844203088
 20
136.2561149858
 10
156.5356015495
 20
136.245782044
 10
156.5848001618
 20
136.2352568793
 10
156.6320193067
 20
136.2245623401
 10
156.6772558233
 20
136.213675578
 10
156.7209409431
 20
136.2026472444
 10
156.7632184102
 20
136.1914942231
 10
156.8039444806
 20
136.1801996302
 10
156.8431191544
 20
136.1687634659
  0
LWPOLYLINE
  5
2DC
100
AcDbEntity
  8
RACCORDO
100
AcDbPolyline
 62
253
  6
CONTINUOUS
 90
10
 70
0
 10
153.2352439453
 20
135.561267118
 10
153.2375386334
 20
135.5643271287
 10
153.2904012845
 20
135.6250442267
 10
153.349480155
 20
135.684303444
 10
153.4145729344
 20
135.7419113772
 10
153.4854487663
 20
135.7976848448
 10
153.5619419041
 20
135.8515127803
 10
153.6439333078
 20
135.903313964
 10
153.7311819048
 20
135.9529316033
 10
153.7515512842
 20
135.9638005847
  0
LINE
  5
2DD
100
AcDbEntity
  8
RACCORDO
100
AcDbLine
 62
253
  6
CONTINUOUS
 10
149.7363207572
 20
130.9897979416
 11
149.7099423247
 21
130.9558880907
  0
LWPOLYLINE
  5
2DE
100
AcDbEntity
  8
RACCORDO
100
AcDbPolyline
 62
7
  6
CONTINUOUS
 90
13
 70
0
 10
149.7520631
 20
130.9186982961
 10
149.7347157276
 20
130.8964757441
 10
149.7179836521
 20
130.8723504852
 10
149.7021649232
 20
130.8466165866
 10
149.6874901257
 20
130.8195297925
 10
149.6742502212
 20
130.7915427564
 10
149.6627453155
 20
130.7633191467
 10
149.6530881751
 20
130.7352898489
 10
149.6453373193
 20
130.7078728436
 10
149.6395500763
 20
130.6817357819
 10
149.6356437146
 20
130.6573444619
 10
149.6334482929
 20
130.6349408085
 10
149.6327673667
 20
130.6147979416
  0
LINE
  5
2DF
100
AcDbEntity
  8
RACCORDO
100
AcDbLine
 62
253
  6
CONTINUOUS
 10
149.7363207572
 20
130.9897979416
 11
150.2666508431
 21
131.6299629846
  0
LINE
  5
2E0
100
AcDbEntity
  8
RACCORDO
100
AcDbLine
 62
7
  6
CONTINUOUS
 10
149.7520631
 20
130.9186982961
 11
150.2823931859
 21
131.558863339
  0
LINE
  5
2E1
100
AcDbEntity
  8
RACCORDO
100
AcDbLine
 62
7
  6
CONTINUOUS
 10
158.3317290742
 20
126.677179243
 11
163.9539772402
 21
129.5208730994
  0
LINE
  5
2E2
100
AcDbEntity
  8
RACCORDO
100
AcDbLine
 62
7
  6
CONTINUOUS
 10
163.3481262951
 20
129.823798572
 11
158.7519322174
 21
127.5257015331
  0
LINE
  5
2E3
100
AcDbEntity
  8
RACCORDO
100
AcDbLine
 62
7
  6
CONTINUOUS
 10
164.3054942869
 20
128.3653001641
 11
158.3317290742
 21
125.4722584103
  0
LINE
  5
2E4
100
AcDbEntity
  8
RACCORDO
100
AcDbLine
 62
7
  6
CONTINUOUS
 10
164.3040701001
 20
129.3015198947
 11
164.7746805724
 21
129.5267644196
  0
LWPOLYLINE
  5
2E5
100
AcDbEntity
  8
RACCORDO
100
AcDbPolyline
 62
7
  6
CONTINUOUS
 90
12
 70
0
 10
163.3481262951
 20
129.823798572
 10
163.3714124283
 20
129.8344816432
 10
163.3944040433
 20
129.8432040448
 10
163.4171011399
 20
129.8499657768
 10
163.4395981183
 20
129.8547789675
 10
163.4618005784
 20
129.8576314886
 10
163.4834253201
 20
129.8584869552
 10
163.504464943
 20
129.8573197855
 10
163.5249268474
 20
129.8541555612
 10
163.5445500347
 20
129.8490346433
 10
163.563323761
 20
129.8419319667
 10
163.571723128
 20
129.8379850617
  0
LWPOLYLINE
  5
2E6
100
AcDbEntity
  8
RACCORDO
100
AcDbPolyline
 62
7
  6
CONTINUOUS
 90
12
 70
0
 10
164.7746805724
 20
129.5267644196
 10
164.8206953438
 20
129.5469116516
 10
164.8660898962
 20
129.5632130373
 10
164.9108642296
 20
129.5756685765
 10
164.9552001359
 20
129.5842981625
 10
164.9989158231
 20
129.5890819022
 10
165.0414659151
 20
129.5899601158
 10
165.0828358098
 20
129.5868838764
 10
165.1230401092
 20
129.5799021109
 10
165.1615772435
 20
129.5691019206
 10
165.1984263273
 20
129.5544354695
 10
165.2095181383
 20
129.5491094652
  0
LINE
  5
2E7
100
AcDbEntity
  8
DRAFT
100
AcDbLine
 62
7
  6
CONTINUOUS
 10
168.3599091762
 20
91.0814453164
 11
169.0936866312
 21
90.7145565889
  0
LWPOLYLINE
  5
2E8
100
AcDbEntity
  8
RACCORDO
100
AcDbPolyline
 62
253
  6
CONTINUOUS
 90
18
 70
0
 10
146.9196622791
 20
130.4440592894
 10
146.9231498986
 20
130.4542767086
 10
146.9271193685
 20
130.4646881235
 10
146.9316407572
 20
130.4751263886
 10
146.9367968146
 20
130.4855344446
 10
146.9426442098
 20
130.4958595767
 10
146.9492039098
 20
130.5060336881
 10
146.9564876019
 20
130.5160072883
 10
146.9645008781
 20
130.525748621
 10
146.9731982093
 20
130.5351768155
 10
146.9825116728
 20
130.5442101958
 10
146.9923973066
 20
130.5528272572
 10
147.0027846793
 20
130.5610109196
 10
147.0136159427
 20
130.5687549567
 10
147.0248551718
 20
130.5760741088
 10
147.0364108917
 20
130.5829541075
 10
147.0481658094
 20
130.5893678183
 10
147.0600348631
 20
130.5953110588
  0
LWPOLYLINE
  5
2E9
100
AcDbEntity
  8
RACCORDO
100
AcDbPolyline
 62
253
  6
CONTINUOUS
 90
5
 70
0
 10
146.9020317584
 20
130.3859716577
 10
146.9043267103
 20
130.3925747236
 10
146.9065896985
 20
130.3997366587
 10
146.9088775359
 20
130.4074705497
 10
146.9138157271
 20
130.4248226548
  0
LWPOLYLINE
  5
2EA
100
AcDbEntity
  8
RACCORDO
100
AcDbPolyline
 62
253
  6
CONTINUOUS
 90
12
 70
0
 10
148.1453304996
 20
130.5693028128
 10
148.1323855652
 20
130.5400227904
 10
148.1166394442
 20
130.5126685003
 10
148.0983411743
 20
130.4877182584
 10
148.0777702631
 20
130.4655992738
 10
148.0552779577
 20
130.4467304502
 10
148.0312945861
 20
130.4314889817
 10
148.0062511169
 20
130.4201437068
 10
147.9805605189
 20
130.4128768857
 10
147.9546648645
 20
130.409813272
 10
147.9290090365
 20
130.4110048868
 10
147.9190698699
 20
130.4126394309
  0
LWPOLYLINE
  5
2EB
100
AcDbEntity
  8
RACCORDO
100
AcDbPolyline
 62
253
  6
CONTINUOUS
 90
12
 70
0
 10
148.6756605855
 20
130.4594678557
 10
148.6626112419
 20
130.429981872
 10
148.6467604779
 20
130.4025127508
 10
148.6283795045
 20
130.3775304964
 10
148.6077828253
 20
130.355462562
 10
148.585322855
 20
130.3366865362
 10
148.5613838902
 20
130.3215236819
 10
148.536375533
 20
130.3102334398
 10
148.5107256834
 20
130.3030089891
 10
148.4848732174
 20
130.2999739421
 10
148.4592604779
 20
130.3011802294
 10
148.4481831376
 20
130.3030513144
  0
LINE
  5
2EC
100
AcDbEntity
  8
21814000
100
AcDbLine
 62
7
  6
CONTINUOUS
 10
163.971681402
 20
129.638025311
 11
164.036721644
 21
129.6800927904
  0
LWPOLYLINE
  5
2ED
100
AcDbEntity
  8
RACCORDO
100
AcDbPolyline
 62
253
  6
CONTINUOUS
 90
13
 70
0
 10
159.9893690844
 20
125.2151038434
 10
159.9662950955
 20
125.2017146071
 10
159.943615909
 20
125.1848499806
 10
159.9217195719
 20
125.1647985225
 10
159.9009807368
 20
125.1419033186
 10
159.8817542508
 20
125.1165561123
 10
159.8643690844
 20
125.0891906014
 10
159.8491227027
 20
125.0602750172
 10
159.8362759755
 20
125.0303041135
 10
159.8260487138
 20
124.9997907006
 10
159.818615909
 20
124.9692568717
 10
159.8141047383
 20
124.9392250689
 10
159.8125923892
 20
124.9102091448
  0
LWPOLYLINE
  5
2EE
100
AcDbEntity
  8
RACCORDO
100
AcDbPolyline
 62
7
  6
CONTINUOUS
 90
10
 70
0
 10
159.8777501877
 20
125.2222962878
 10
159.8663574553
 20
125.2162396147
 10
159.8392718145
 20
125.198524503
 10
159.8146408813
 20
125.1773991938
 10
159.7928893815
 20
125.1531799181
 10
159.7743815057
 20
125.1261919319
 10
159.7594773277
 20
125.0968307872
 10
159.7485170524
 20
125.0656071189
 10
159.7417591246
 20
125.0330838344
 10
159.7393692428
 20
124.998738185
  0
LINE
  5
2EF
100
AcDbEntity
  8
RACCORDO
100
AcDbLine
 62
7
  6
CONTINUOUS
 10
159.8775656856
 20
125.2222042902
 11
161.9988860291
 21
126.282864462
  0
LINE
  5
2F0
100
AcDbEntity
  8
RACCORDO
100
AcDbLine
 62
253
  6
CONTINUOUS
 10
159.9893690844
 20
125.2151038434
 11
162.110689428
 21
126.2757640152
  0
LINE
  5
2F1
100
AcDbEntity
  8
RACCORDO
100
AcDbLine
 62
253
  6
CONTINUOUS
 10
161.3328719687
 20
124.5433524013
 11
163.4541923123
 21
125.604012573
  0
LINE
  5
2F2
100
AcDbEntity
  8
RACCORDO
100
AcDbLine
 62
253
  6
CONTINUOUS
 10
161.509648664
 20
124.2384577027
 11
163.6309690076
 21
125.2991178744
  0
LINE
  5
2F3
100
AcDbEntity
  8
RACCORDO
100
AcDbLine
 62
253
  6
CONTINUOUS
 10
160.4411965199
 20
123.9581128506
 11
160.3758096711
 21
123.9268172663
  0
LINE
  5
2F4
100
AcDbEntity
  8
RACCORDO
100
AcDbLine
 62
7
  6
CONTINUOUS
 10
162.0082873343
 20
126.2873228951
 11
161.9987243989
 21
126.282783452
  0
LWPOLYLINE
  5
2F5
100
AcDbEntity
  8
RACCORDO
100
AcDbPolyline
 62
253
  6
CONTINUOUS
 90
7
 70
0
 10
161.9989113891
 20
126.2828771372
 10
162.0037634657
 20
126.2851307897
 10
162.0232105137
 20
126.2911357918
 10
162.0440284594
 20
126.2931111469
 10
162.0657808074
 20
126.2911154695
 10
162.0881286618
 20
126.2852739729
 10
162.110689428
 20
126.2757640152
  0
LWPOLYLINE
  5
2F6
100
AcDbEntity
  8
RACCORDO
100
AcDbPolyline
 62
253
  6
CONTINUOUS
 90
7
 70
0
 10
159.8777501877
 20
125.2222962878
 10
159.8824431221
 20
125.2244706179
 10
159.9018901701
 20
125.2304756201
 10
159.9227081158
 20
125.2324509752
 10
159.9444604639
 20
125.2304552977
 10
159.9668083182
 20
125.2246138012
 10
159.9893690844
 20
125.2151038434
  0
LINE
  5
2F7
100
AcDbEntity
  8
RACCORDO
100
AcDbLine
 62
7
  6
CONTINUOUS
 10
163.2395276882
 20
125.7743470313
 11
167.9388810872
 21
127.9446641622
  0
LWPOLYLINE
  5
2F8
100
AcDbEntity
  8
RACCORDO
100
AcDbPolyline
 62
253
  6
CONTINUOUS
 90
13
 70
0
 10
161.509648664
 20
123.8871437306
 10
161.485062326
 20
123.8763629107
 10
161.4578719687
 20
123.8672789028
 10
161.4285428268
 20
123.8600471367
 10
161.39757673
 20
123.8547913499
 10
161.3655035168
 20
123.8516014706
 10
161.3328719687
 20
123.8505320782
 10
161.3002404206
 20
123.8516014706
 10
161.2681672074
 20
123.8547913499
 10
161.2372011106
 20
123.8600471367
 10
161.2078719687
 20
123.8672789028
 10
161.1806816115
 20
123.8763629107
 10
161.1560952734
 20
123.8871437306
  0
LWPOLYLINE
  5
2F9
100
AcDbEntity
  8
RACCORDO
100
AcDbPolyline
 62
253
  6
CONTINUOUS
 90
13
 70
0
 10
162.2167554452
 20
123.4906971212
 10
162.1921691071
 20
123.4799163013
 10
162.1649787499
 20
123.4708322934
 10
162.135649608
 20
123.4636005273
 10
162.1046835112
 20
123.4583447405
 10
162.0726102979
 20
123.4551548612
 10
162.0399787499
 20
123.4540854688
 10
162.0073472018
 20
123.4551548612
 10
161.9752739886
 20
123.4583447405
 10
161.9443078918
 20
123.4636005273
 10
161.9149787499
 20
123.4708322934
 10
161.8877883926
 20
123.4799163013
 10
161.8632020546
 20
123.4906971212
  0
LWPOLYLINE
  5
2FA
100
AcDbEntity
  8
RACCORDO
100
AcDbPolyline
 62
253
  6
CONTINUOUS
 90
13
 70
0
 10
161.509648664
 20
124.2384577027
 10
161.4849577274
 20
124.227636774
 10
161.4576332848
 20
124.2185240604
 10
161.4281443892
 20
124.2112787908
 10
161.3969946651
 20
124.2060277158
 10
161.3647244945
 20
124.202864785
 10
161.3319027631
 20
124.2018469897
 10
161.2990256377
 20
124.2029969225
 10
161.2667363018
 20
124.2062993026
 10
161.2358065947
 20
124.2116523947
 10
161.2068033516
 20
124.2189031212
 10
161.1801015859
 20
124.2279000927
 10
161.1560952734
 20
124.2384577027
  0
LWPOLYLINE
  5
2FB
100
AcDbEntity
  8
RACCORDO
100
AcDbPolyline
 62
253
  6
CONTINUOUS
 90
4
 70
0
 10
163.0628154396
 20
123.5867002468
 10
163.0445836269
 20
123.5794234143
 10
163.0266981802
 20
123.5751867376
 10
163.009458371
 20
123.5740611076
  0
LINE
  5
2FC
100
AcDbEntity
  8
290140000
100
AcDbLine
 62
253
  6
CONTINUOUS
 10
157.3390206227
 20
120.6239872103
 11
161.4527631885
 21
122.1768268772
  0
LINE
  5
2FD
100
AcDbEntity
  8
DRAFT
100
AcDbLine
 62
7
  6
CONTINUOUS
 10
162.0029509656
 20
122.1375890998
 11
162.4705930599
 21
122.2942700036
  0
LWPOLYLINE
  5
2FE
100
AcDbEntity
  8
RACCORDO
100
AcDbPolyline
 62
253
  6
CONTINUOUS
 90
13
 70
0
 10
163.3418280305
 20
122.8033415274
 10
163.3716403771
 20
122.8119193966
 10
163.382553052
 20
122.8150328141
 10
163.3940242309
 20
122.8183920252
 10
163.4060768689
 20
122.8219890617
 10
163.4186880109
 20
122.8258318917
 10
163.4318625719
 20
122.8300592429
 10
163.445585676
 20
122.8346513163
 10
163.4598721992
 20
122.8396279109
 10
163.474771684
 20
122.8451871516
 10
163.4903006448
 20
122.8513950798
 10
163.5064425672
 20
122.8581856541
 10
163.5231974514
 20
122.8655588745
  0
LINE
  5
2FF
100
AcDbEntity
  8
DRAFT
100
AcDbLine
 62
7
  6
CONTINUOUS
 10
164.1612990934
 20
93.8845963292
 11
165.4706717109
 21
93.2299100204
  0
LINE
  5
300
100
AcDbEntity
  8
21814000
100
AcDbLine
 62
7
  6
CONTINUOUS
 10
143.0262576568
 20
136.0771779565
 11
143.0262576923
 21
136.0770789803
  0
LINE
  5
301
100
AcDbEntity
  8
21814000
100
AcDbLine
 62
253
  6
CONTINUOUS
 10
141.7671129126
 20
136.4864812525
 11
141.7671129126
 21
136.0130727971
  0
LINE
  5
302
100
AcDbEntity
  8
26814000
100
AcDbLine
 62
253
  6
CONTINUOUS
 10
141.8491968782
 20
133.3428623859
 11
141.8491968782
 21
134.5578172519
  0
LINE
  5
303
100
AcDbEntity
  8
21814000
100
AcDbLine
 62
253
  6
CONTINUOUS
 10
142.1799841289
 20
136.5987416778
 11
142.1799841289
 21
135.806637189
  0
LINE
  5
304
100
AcDbEntity
  8
26814000
100
AcDbLine
 62
7
  6
CONTINUOUS
 10
142.2056335376
 20
137.5958362204
 11
142.2056335376
 21
138.8461070796
  0
LINE
  5
305
100
AcDbEntity
  8
26814000
100
AcDbLine
 62
253
  6
CONTINUOUS
 10
142.2722232298
 20
133.3445012334
 11
142.2722232298
 21
134.5587047063
  0
LINE
  5
306
100
AcDbEntity
  8
26814000
100
AcDbLine
 62
7
  6
CONTINUOUS
 10
142.5591869282
 20
138.116772195
 11
142.5591869282
 21
138.6693303843
  0
LINE
  5
307
100
AcDbEntity
  8
26814000
100
AcDbLine
 62
253
  6
CONTINUOUS
 10
142.6298976063
 20
140.2855386818
 11
142.6298976063
 21
139.0537045005
  0
LINE
  5
308
100
AcDbEntity
  8
26814000
100
AcDbLine
 62
7
  6
CONTINUOUS
 10
142.717765572
 20
140.3905358958
 11
142.717765572
 21
139.158167291
  0
LINE
  5
309
100
AcDbEntity
  8
26814000
100
AcDbLine
 62
7
  6
CONTINUOUS
 10
142.7713189626
 20
134.8089013794
 11
142.7713189626
 21
133.5964658141
  0
LINE
  5
30A
100
AcDbEntity
  8
21814000
100
AcDbLine
 62
253
  6
CONTINUOUS
 10
142.9383897275
 20
136.2195388784
 11
142.9383897275
 21
135.9534626932
  0
LINE
  5
30B
100
AcDbEntity
  8
21814000
100
AcDbLine
 62
7
  6
CONTINUOUS
 10
143.0262527281
 20
136.0771208293
 11
143.0259101421
 21
136.0722504766
  0
LWPOLYLINE
  5
30C
100
AcDbEntity
  8
RACCORDO
100
AcDbPolyline
 62
253
  6
CONTINUOUS
 90
3
 70
0
 10
146.9138157271
 20
130.4248226548
 10
146.9165843391
 20
130.4342423441
 10
146.9196622791
 20
130.4440592894
  0
LWPOLYLINE
  5
30D
100
AcDbEntity
  8
RACCORDO
100
AcDbPolyline
 62
253
  6
CONTINUOUS
 90
3
 70
0
 10
149.6234612117
 20
130.8066512373
 10
149.6069716173
 20
130.766757763
 10
149.5928160191
 20
130.7263612843
  0
LWPOLYLINE
  5
30E
100
AcDbEntity
  8
RACCORDO
100
AcDbPolyline
 62
253
  6
CONTINUOUS
 90
13
 70
0
 10
161.3328719687
 20
124.5433524013
 10
161.3097979798
 20
124.529963165
 10
161.2871187932
 20
124.5130985385
 10
161.2652224562
 20
124.4930470804
 10
161.2444836211
 20
124.4701518765
 10
161.2252571351
 20
124.4448046702
 10
161.2078719687
 20
124.4174391592
 10
161.192625587
 20
124.3885235751
 10
161.1797788598
 20
124.3585526713
 10
161.1695515981
 20
124.3280392585
 10
161.1621187932
 20
124.2975054296
 10
161.1576076225
 20
124.2674736268
 10
161.1560952734
 20
124.2384577027
  0
LWPOLYLINE
  5
30F
100
AcDbEntity
  8
RACCORDO
100
AcDbPolyline
 62
253
  6
CONTINUOUS
 90
7
 70
0
 10
162.9238622264
 20
123.8442505118
 10
162.9454238661
 20
123.8565436808
 10
162.963591882
 20
123.8701388594
 10
162.9780554142
 20
123.8848034304
 10
162.9885669876
 20
123.9002864788
 10
162.9949467464
 20
123.9163230854
 10
162.9970855311
 20
123.9326388594
  0
LWPOLYLINE
  5
310
100
AcDbEntity
  8
RACCORDO
100
AcDbPolyline
 62
253
  6
CONTINUOUS
 90
13
 70
0
 10
160.3758096711
 20
123.6154216531
 10
160.394491516
 20
123.6258782826
 10
160.4128897498
 20
123.6392028427
 10
160.4306825495
 20
123.6551622595
 10
160.4475586825
 20
123.6734773698
 10
160.4632229504
 20
123.6938278047
 10
160.4774013529
 20
123.7158575932
 10
160.4898458805
 20
123.7391813888
 10
160.5003388529
 20
123.7633912103
 10
160.5086967263
 20
123.7880635781
 10
160.5147733042
 20
123.8127669217
 10
160.518462295
 20
123.8370691288
 10
160.5196991703
 20
123.8605451035
  0
LWPOLYLINE
  5
311
100
AcDbEntity
  8
RACCORDO
100
AcDbPolyline
 62
253
  6
CONTINUOUS
 90
13
 70
0
 10
161.7193125554
 20
122.943670211
 10
161.737994648
 20
122.9541270002
 10
161.7563930697
 20
122.9674517548
 10
161.774185991
 20
122.9834113708
 10
161.7910621763
 20
123.0017266552
 10
161.8067264335
 20
123.0220772169
 10
161.8209047757
 20
123.044107073
 10
161.8333492041
 20
123.0674308622
 10
161.8438420558
 20
123.0916406002
 10
161.85219981
 20
123.1163128244
 10
161.8582762862
 20
123.1410159763
 10
161.8619652056
 20
123.1653179488
 10
161.8632020546
 20
123.1887936614
  0
LWPOLYLINE
  5
312
100
AcDbEntity
  8
RACCORDO
100
AcDbPolyline
 62
253
  6
CONTINUOUS
 90
16
 70
0
 10
160.3758096711
 20
123.9268172663
 10
160.3434981099
 20
123.9093752143
 10
160.3156790912
 20
123.8908693062
 10
160.292352615
 20
123.8712995418
 10
160.2734128765
 20
123.8504302717
 10
160.2589656804
 20
123.8284971454
 10
160.2493284416
 20
123.8062071119
 10
160.2446185991
 20
123.7835777173
 10
160.2447187139
 20
123.7605914154
 10
160.2495938826
 20
123.7379025169
 10
160.2593525285
 20
123.7155032575
 10
160.2738862284
 20
123.6934014014
 10
160.2928348098
 20
123.6722745525
 10
160.3160782154
 20
123.6523485788
 10
160.3437365025
 20
123.6333976124
 10
160.3758096711
 20
123.6154216531
  0
LINE
  5
313
100
AcDbEntity
  8
RACCORDO
100
AcDbLine
 62
7
  6
CONTINUOUS
 10
163.1720504923
 20
124.3037379163
 11
169.0502183989
 21
127.475144357
  0
LINE
  5
314
100
AcDbEntity
  8
DRAFT
100
AcDbLine
 62
7
  6
CONTINUOUS
 10
163.4075554086
 20
123.9703378426
 11
169.0936866312
 21
126.9144184671
  0
LWPOLYLINE
  5
315
100
AcDbEntity
  8
RACCORDO
100
AcDbPolyline
 62
253
  6
CONTINUOUS
 90
8
 70
0
 10
162.9238622264
 20
123.520428084
 10
162.9415893683
 20
123.5295530551
 10
162.9570785412
 20
123.5395477657
 10
162.9701805006
 20
123.5502840932
 10
162.9807719883
 20
123.5616173877
 10
162.988768097
 20
123.5734200647
 10
162.9941133353
 20
123.5855847327
 10
162.9967682873
 20
123.5979611141
  0
LWPOLYLINE
  5
316
100
AcDbEntity
  8
RACCORDO
100
AcDbPolyline
 62
253
  6
CONTINUOUS
 90
24
 70
0
 10
163.0180727566
 20
123.3067524158
 10
163.0277702182
 20
123.3114406467
 10
163.0373766663
 20
123.3164127884
 10
163.0468874437
 20
123.3216545101
 10
163.0562798792
 20
123.327135006
 10
163.065502658
 20
123.332838311
 10
163.0744868984
 20
123.3387645875
 10
163.0831705336
 20
123.3448948514
 10
163.0915370418
 20
123.3512119249
 10
163.099579884
 20
123.3577164938
 10
163.107246772
 20
123.3644113324
 10
163.1145123412
 20
123.3712676932
 10
163.1214009475
 20
123.3782382268
 10
163.1278380807
 20
123.3853333857
 10
163.1337989015
 20
123.3925207987
 10
163.1393745829
 20
123.3996970779
 10
163.1445077223
 20
123.4068524274
 10
163.1491626353
 20
123.4140009245
 10
163.1534774387
 20
123.4210902493
 10
163.1574545075
 20
123.4281551919
 10
163.1610917924
 20
123.4351954862
 10
163.1645130176
 20
123.4421137189
 10
163.1677029486
 20
123.4489117225
 10
163.1735449023
 20
123.4622050819
  0
LWPOLYLINE
  5
317
100
AcDbEntity
  8
RACCORDO
100
AcDbPolyline
 62
253
  6
CONTINUOUS
 90
10
 70
0
 10
162.2386971022
 20
122.2723380187
 10
162.2556946388
 20
122.2805098956
 10
162.2726677331
 20
122.2891213966
 10
162.289616385
 20
122.298172522
 10
162.3066794164
 20
122.3078013013
 10
162.3237180054
 20
122.3178697049
 10
162.3403156867
 20
122.3279636435
 10
162.3564885051
 20
122.3381215559
 10
162.3722204158
 20
122.3483050032
 10
162.4007783538
 20
122.36701266
  0
LINE
  5
318
100
AcDbEntity
  8
RACCORDO
100
AcDbLine
 62
253
  6
CONTINUOUS
 10
162.2167554452
 20
123.1819912231
 11
162.9238622264
 21
123.520428084
  0
LINE
  5
319
100
AcDbEntity
  8
RACCORDO
100
AcDbLine
 62
253
  6
CONTINUOUS
 10
162.3074611858
 20
122.9715967645
 11
163.0180725508
 21
123.3067515182
  0
LINE
  5
31A
100
AcDbEntity
  8
RACCORDO
100
AcDbLine
 62
253
  6
CONTINUOUS
 10
163.1820391316
 20
123.481425078
 11
163.8075841428
 21
123.7703234755
  0
LINE
  5
31B
100
AcDbEntity
  8
RACCORDO
100
AcDbLine
 62
253
  6
CONTINUOUS
 10
163.5231974514
 20
122.8655588745
 11
164.1612990934
 21
123.1602554284
  0
LINE
  5
31C
100
AcDbEntity
  8
RACCORDO
100
AcDbLine
 62
253
  6
CONTINUOUS
 10
162.0029509656
 20
122.1634587377
 11
162.2386971022
 21
122.2723380187
  0
LINE
  5
31D
100
AcDbEntity
  8
RACCORDO
100
AcDbLine
 62
253
  6
CONTINUOUS
 10
161.6492360149
 20
122.7735267848
 11
161.8976007833
 21
122.8881923897
  0
LWPOLYLINE
  5
31E
100
AcDbEntity
  8
RACCORDO
100
AcDbPolyline
 62
253
  6
CONTINUOUS
 90
4
 70
0
 10
162.5280728238
 20
122.4425848407
 10
162.6079709814
 20
122.4788757791
 10
162.6878771783
 20
122.5151759259
 10
163.2472960848
 20
122.7694663498
  0
LWPOLYLINE
  5
31F
100
AcDbEntity
  8
RACCORDO
100
AcDbPolyline
 62
253
  6
CONTINUOUS
 90
14
 70
0
 10
163.2472960848
 20
122.7694663498
 10
163.2532231594
 20
122.7721296802
 10
163.2593313666
 20
122.774773208
 10
163.2656207064
 20
122.7773969333
 10
163.2720682996
 20
122.7799963196
 10
163.2786970253
 20
122.7825759035
 10
163.2855755214
 20
122.7851492944
 10
163.2927068827
 20
122.7877145925
 10
163.3000880143
 20
122.7902736977
 10
163.3077782696
 20
122.7928459199
 10
163.3157721621
 20
122.7954249691
 10
163.3240751784
 20
122.7980171354
 10
163.3327631315
 20
122.8006605985
 10
163.3418280305
 20
122.8033415274
  0
LINE
  5
320
100
AcDbEntity
  8
290140000
100
AcDbLine
 62
253
  6
CONTINUOUS
 10
157.8454986687
 20
119.622706926
 11
161.9592412344
 21
121.1755465929
  0
LWPOLYLINE
  5
321
100
AcDbEntity
  8
RACCORDO
100
AcDbPolyline
 62
253
  6
CONTINUOUS
 90
13
 70
0
 10
161.509648664
 20
82.5875395912
 10
161.4965993204
 20
82.6070009296
 10
161.4807485564
 20
82.6276416282
 10
161.4623675831
 20
82.649108519
 10
161.4417709038
 20
82.6710342975
 10
161.4193109336
 20
82.6930438075
 10
161.3953719687
 20
82.7147604603
 10
161.3703636115
 20
82.7358126779
 10
161.3447137619
 20
82.755840251
 10
161.3188612959
 20
82.7745005023
 10
161.2932485564
 20
82.7914741497
 10
161.2683137845
 20
82.8064707694
 10
161.2444836211
 20
82.819233765
  0
LWPOLYLINE
  5
322
100
AcDbEntity
  8
26814000
100
AcDbPolyline
 62
7
  6
CONTINUOUS
 90
24
 70
0
 10
145.3169033748
 20
139.1602129283
 10
145.3163301904
 20
139.1946853345
 10
145.3146310774
 20
139.2284352555
 10
145.3118060359
 20
139.2614626912
 10
145.3078456013
 20
139.2938242486
 10
145.3027592382
 20
139.3254633208
 10
145.2965753398
 20
139.3562100874
 10
145.2892927244
 20
139.3860456148
 10
145.2809125737
 20
139.4149888365
 10
145.2714668265
 20
139.4429267325
 10
145.260942968
 20
139.4698728953
 10
145.2493535129
 20
139.4958137323
 10
145.2367679442
 20
139.5205954451
 10
145.2231927583
 20
139.5441927465
 10
145.2086214588
 20
139.5666309238
 10
145.1931040387
 20
139.5878320411
 10
145.1766207514
 20
139.607809131
 10
145.1591913435
 20
139.6265491609
 10
145.1409250488
 20
139.6439350964
 10
145.1218363929
 20
139.6599440228
 10
145.1019108502
 20
139.6745988548
 10
145.0812140778
 20
139.6878513032
 10
145.0597215632
 20
139.6997071645
 10
141.830520297
 20
141.3143316748
  0
LINE
  5
323
100
AcDbEntity
  8
26814000
100
AcDbLine
 62
7
  6
CONTINUOUS
 10
143.7715530235
 20
132.5794148555
 11
143.7715530235
 21
132.8327862493
  0
LINE
  5
324
100
AcDbEntity
  8
26814000
100
AcDbLine
 62
7
  6
CONTINUOUS
 10
144.4745459778
 20
131.6728556009
 11
144.4745459778
 21
132.1251865765
  0
LINE
  5
325
100
AcDbEntity
  8
26814000
100
AcDbLine
 62
7
  6
CONTINUOUS
 10
145.3169033748
 20
139.1602129283
 11
145.3169033748
 21
138.8894126357
  0
LINE
  5
326
100
AcDbEntity
  8
26814000
100
AcDbLine
 62
7
  6
CONTINUOUS
 10
145.3773294857
 20
132.0298980182
 11
145.3773294857
 21
131.7765266245
  0
LINE
  5
327
100
AcDbEntity
  8
26814000
100
AcDbLine
 62
7
  6
CONTINUOUS
 10
145.7765227826
 20
130.0040822948
 11
145.7765227826
 21
129.9796867896
  0
LINE
  5
328
100
AcDbEntity
  8
26814000
100
AcDbLine
 62
7
  6
CONTINUOUS
 10
146.0885500938
 20
130.8658535429
 11
146.0885500938
 21
131.5030231016
  0
LWPOLYLINE
  5
329
100
AcDbEntity
  8
RACCORDO
100
AcDbPolyline
 62
253
  6
CONTINUOUS
 90
6
 70
0
 10
149.5928160191
 20
130.7263612843
 10
149.5809610477
 20
130.6854745023
 10
149.5716791241
 20
130.6449506218
 10
149.5650610555
 20
130.6050740444
 10
149.5610160347
 20
130.5655603684
 10
149.5595440619
 20
130.526409594
  0
LINE
  5
32A
100
AcDbEntity
  8
21814000
100
AcDbLine
 62
253
  6
CONTINUOUS
 10
161.2437619031
 20
131.9233931048
 11
161.7972959926
 21
132.6219949631
  0
LINE
  5
32B
100
AcDbEntity
  8
21814000
100
AcDbLine
 62
253
  6
CONTINUOUS
 10
162.1466802449
 20
131.3881046262
 11
161.5628461375
 21
130.7664412543
  0
LWPOLYLINE
  5
32C
100
AcDbEntity
  8
21814000
100
AcDbPolyline
 62
7
  6
CONTINUOUS
 90
66
 70
0
 10
163.3663534798
 20
129.8834046036
 10
163.4123017586
 20
129.9259288737
 10
163.4568439663
 20
129.9677248844
 10
163.4999858556
 20
130.0087926818
 10
163.5417216738
 20
130.0491322198
 10
163.5821167495
 20
130.08882579
 10
163.6211785705
 20
130.1278729134
 10
163.658899649
 20
130.166274069
 10
163.6953228499
 20
130.2041129852
 10
163.7304588748
 20
130.2413885789
 10
163.7642970221
 20
130.2781019332
 10
163.7968480524
 20
130.3143400252
 10
163.8281301307
 20
130.3501030554
 10
163.8581250921
 20
130.3853908234
 10
163.8867892021
 20
130.4202897051
 10
163.9141532128
 20
130.454802286
 10
163.9401863721
 20
130.4889259807
 10
163.9647526893
 20
130.5227394083
 10
163.9879211421
 20
130.5562877739
 10
164.0096227528
 20
130.5895258725
 10
164.0295145973
 20
130.6223967089
 10
164.0476728211
 20
130.6550173494
 10
164.0640212787
 20
130.6872707275
 10
164.0779886104
 20
130.7187486492
 10
164.0895280569
 20
130.7494645068
 10
164.0986863773
 20
130.7794049078
 10
164.1050324894
 20
130.8081214804
 10
164.108457145
 20
130.8355738568
 10
164.1090695922
 20
130.8618024046
 10
164.1067664926
 20
130.8864798551
 10
164.1013823662
 20
130.9095684733
 10
164.0930826929
 20
130.9311059942
 10
164.0822605743
 20
130.9508783536
 10
164.0688397975
 20
130.9687565597
 10
164.0528965754
 20
130.9848696043
 10
164.0350526472
 20
130.9993903989
 10
164.0153881741
 20
131.0122684602
 10
163.9938229948
 20
131.0235542714
 10
163.9707383652
 20
131.0335721938
 10
163.946208587
 20
131.0423506543
 10
163.9201593585
 20
131.0498612259
 10
163.8927490298
 20
131.0563429897
 10
163.8640129247
 20
131.0618275624
 10
163.8339157195
 20
131.0662833271
 10
163.8025097929
 20
131.0698545144
 10
163.7698145259
 20
131.0725615058
 10
163.7358105376
 20
131.0743839197
 10
163.700492063
 20
131.0754048418
 10
163.6638713218
 20
131.0756374344
 10
163.6259360943
 20
131.0750685353
 10
163.5866439567
 20
131.0737417431
 10
163.5460004609
 20
131.0716656457
 10
163.5040000549
 20
131.0688316553
 10
163.4605836592
 20
131.0652576063
 10
163.4157554117
 20
131.0609492174
 10
163.3695111745
 20
131.0559007699
 10
163.3217794548
 20
131.0501129421
 10
163.2725708621
 20
131.0435911481
 10
163.2218747871
 20
131.0363299738
 10
163.1695879081
 20
131.0283138554
 10
163.1157171191
 20
131.019547836
 10
163.0602555262
 20
131.0100268725
 10
163.0030791269
 20
130.999720271
 10
162.9441465868
 20
130.9886178004
 10
162.8834992402
 20
130.9767296918
 10
162.8211370871
 20
130.9640559453
  0
LINE
  5
32D
100
AcDbEntity
  8
21814000
100
AcDbLine
 62
7
  6
CONTINUOUS
 10
163.3531121266
 20
129.8713082598
 11
163.3663534798
 21
129.8834046036
  0
LWPOLYLINE
  5
32E
100
AcDbEntity
  8
RACCORDO
100
AcDbPolyline
 62
253
  6
CONTINUOUS
 90
14
 70
0
 10
162.4007783538
 20
122.36701266
 10
162.4256283809
 20
122.3834706754
 10
162.4367975162
 20
122.3907457676
 10
162.447164624
 20
122.3974304563
 10
162.4569916963
 20
122.4036431388
 10
162.4663084002
 20
122.4093870012
 10
162.4750850686
 20
122.4146588575
 10
162.4834946914
 20
122.4195675465
 10
162.4915400292
 20
122.4241132739
 10
162.4992183215
 20
122.4282958341
 10
162.5066942762
 20
122.4322234487
 10
162.5140227962
 20
122.4359321916
 10
162.5211489787
 20
122.4393859889
 10
162.5280728238
 20
122.4425848407
  0
LINE
  5
32F
100
AcDbEntity
  8
DRAFT
100
AcDbLine
 62
7
  6
CONTINUOUS
 10
160.4371104791
 20
102.6775952425
 11
160.7079420888
 21
102.5421794376
  0
LWPOLYLINE
  5
330
100
AcDbEntity
  8
RACCORDO
100
AcDbPolyline
 62
7
  6
CONTINUOUS
 90
6
 70
0
 10
163.6680183064
 20
83.866119673
 10
163.6482865516
 20
83.8941553017
 10
163.6249463886
 20
83.9191888922
 10
163.5984082275
 20
83.9407978461
 10
163.5691145961
 20
83.9586075649
 10
163.5656771725
 20
83.9603534229
  0
LWPOLYLINE
  5
331
100
AcDbEntity
  8
RACCORDO
100
AcDbPolyline
 62
253
  6
CONTINUOUS
 90
13
 70
0
 10
162.0399787499
 20
83.2277046341
 10
162.0269294063
 20
83.2471659725
 10
162.0110786423
 20
83.2678066711
 10
161.9926976689
 20
83.2892735619
 10
161.9721009897
 20
83.3111993404
 10
161.9496410195
 20
83.3332088505
 10
161.9257020546
 20
83.3549255033
 10
161.9006936974
 20
83.3759777209
 10
161.8750438478
 20
83.396005294
 10
161.8491913818
 20
83.4146655452
 10
161.8235786423
 20
83.4316391926
 10
161.7986438704
 20
83.4466358123
 10
161.7748137069
 20
83.459398808
  0
LWPOLYLINE
  5
332
100
AcDbEntity
  8
RACCORDO
100
AcDbPolyline
 62
7
  6
CONTINUOUS
 90
10
 70
0
 10
146.37505092
 20
131.3294426026
 10
146.3773181704
 20
131.2958548159
 10
146.3841557064
 20
131.2625899651
 10
146.3955163568
 20
131.2303775519
 10
146.4112249259
 20
131.1999110402
 10
146.4309566806
 20
131.1718754115
 10
146.4542968437
 20
131.146841821
 10
146.4808350047
 20
131.1252328671
 10
146.5101286361
 20
131.1074231484
 10
146.5135660598
 20
131.1056772903
  0
LINE
  5
333
100
AcDbEntity
  8
RACCORDO
100
AcDbLine
 62
253
  6
CONTINUOUS
 10
147.0824910827
 20
130.622889839
 11
147.0821577012
 21
130.6291008883
  0
LINE
  5
334
100
AcDbEntity
  8
RACCORDO
100
AcDbLine
 62
7
  6
CONTINUOUS
 10
146.3085253138
 20
130.0106715636
 11
146.3085253138
 21
129.9848019257
  0
LINE
  5
335
100
AcDbEntity
  8
RACCORDO
100
AcDbLine
 62
7
  6
CONTINUOUS
 10
146.37505092
 20
131.3294426026
 11
146.37505092
 21
131.6807565747
  0
LINE
  5
336
100
AcDbEntity
  8
RACCORDO
100
AcDbLine
 62
253
  6
CONTINUOUS
 10
146.4482742247
 20
131.2410542549
 11
146.4482742247
 21
131.592368227
  0
LINE
  5
337
100
AcDbEntity
  8
26814000
100
AcDbLine
 62
7
  6
CONTINUOUS
 10
146.589695581
 20
129.8442167921
 11
146.589695581
 21
129.608360681
  0
LINE
  5
338
100
AcDbEntity
  8
DRAFT
100
AcDbLine
 62
7
  6
CONTINUOUS
 10
146.7601220349
 20
129.7590035651
 11
146.7601220349
 21
129.523147454
  0
LINE
  5
339
100
AcDbEntity
  8
RACCORDO
100
AcDbLine
 62
7
  6
CONTINUOUS
 10
147.0821577012
 20
130.629041718
 11
147.0821577012
 21
130.8213807148
  0
LINE
  5
33A
100
AcDbEntity
  8
RACCORDO
100
AcDbLine
 62
253
  6
CONTINUOUS
 10
147.1553810059
 20
130.5427041858
 11
147.1553810059
 21
130.7847690624
  0
LINE
  5
33B
100
AcDbEntity
  8
26814000
100
AcDbLine
 62
7
  6
CONTINUOUS
 10
147.1553810059
 20
132.2254301148
 11
147.1553810059
 21
133.1364855999
  0
LINE
  5
33C
100
AcDbEntity
  8
RACCORDO
100
AcDbLine
 62
253
  6
CONTINUOUS
 10
147.791777109
 20
130.9206167849
 11
147.791777109
 21
130.5693028128
  0
LINE
  5
33D
100
AcDbEntity
  8
26814000
100
AcDbLine
 62
7
  6
CONTINUOUS
 10
147.8583739602
 20
133.2718070977
 11
147.8583739602
 21
133.0108781213
  0
LINE
  5
33E
100
AcDbEntity
  8
RACCORDO
100
AcDbLine
 62
253
  6
CONTINUOUS
 10
148.1453304996
 20
130.9206167849
 11
148.1453304996
 21
130.5693028128
  0
LINE
  5
33F
100
AcDbEntity
  8
26814000
100
AcDbLine
 62
253
  6
CONTINUOUS
 10
148.1855916577
 20
137.5089169897
 11
148.1855916577
 21
136.2770784114
  0
LINE
  5
340
100
AcDbEntity
  8
26814000
100
AcDbLine
 62
7
  6
CONTINUOUS
 10
148.2722290861
 20
137.6133043651
 11
148.2722290861
 21
136.3809358733
  0
LINE
  5
341
100
AcDbEntity
  8
RACCORDO
100
AcDbLine
 62
253
  6
CONTINUOUS
 10
148.4988838902
 20
130.1728562034
 11
148.4988838902
 21
129.8709527436
  0
LWPOLYLINE
  5
342
100
AcDbEntity
  8
RACCORDO
100
AcDbPolyline
 62
7
  6
CONTINUOUS
 90
6
 70
0
 10
147.082163306
 20
130.629241308
 10
147.0821436268
 20
130.6271863577
 10
147.0810177157
 20
130.6146446662
 10
147.0785316656
 20
130.6036838669
 10
147.0753123509
 20
130.594811919
 10
147.0728465477
 20
130.5897387498
  0
LWPOLYLINE
  5
343
100
AcDbEntity
  8
RACCORDO
100
AcDbPolyline
 62
253
  6
CONTINUOUS
 90
13
 70
0
 10
147.1553810059
 20
130.5427041858
 10
147.1541441214
 20
130.5192281216
 10
147.1504551061
 20
130.4949258336
 10
147.1443784926
 20
130.4702224225
 10
147.1360205767
 20
130.4455500019
 10
147.1255275602
 20
130.4213401473
 10
147.1130829957
 20
130.3980163464
 10
147.0989045697
 20
130.3759865793
 10
147.0832402958
 20
130.3556361875
 10
147.0663641802
 20
130.3373211389
 10
147.0485714244
 20
130.3213617945
 10
147.0301732597
 20
130.3080373058
 10
147.0114915067
 20
130.2975807354
  0
LWPOLYLINE
  5
344
100
AcDbEntity
  8
RACCORDO
100
AcDbPolyline
 62
253
  6
CONTINUOUS
 90
13
 70
0
 10
148.4988838902
 20
129.8709527436
 10
148.4976470147
 20
129.8474767689
 10
148.493958024
 20
129.8231745619
 10
148.487881446
 20
129.7984712183
 10
148.4795235727
 20
129.7737988504
 10
148.4690306003
 20
129.7495890289
 10
148.4565860727
 20
129.7262652332
 10
148.4424076702
 20
129.7042354448
 10
148.4267434023
 20
129.6838850099
 10
148.4098672693
 20
129.6655698996
 10
148.3920744695
 20
129.6496104828
 10
148.3736762358
 20
129.6362859227
 10
148.3549943909
 20
129.6258292932
  0
LWPOLYLINE
  5
345
100
AcDbEntity
  8
RACCORDO
100
AcDbPolyline
 62
253
  6
CONTINUOUS
 90
8
 70
0
 10
149.6327673666
 20
130.2861647206
 10
149.6324284133
 20
130.2799178894
 10
149.6297320831
 20
130.2675520227
 10
149.6243557348
 20
130.2554111331
 10
149.6163450052
 20
130.2436419888
 10
149.6057552846
 20
130.2323443478
 10
149.5926706322
 20
130.2216424671
 10
149.5772169709
 20
130.2116813009
  0
LWPOLYLINE
  5
346
100
AcDbEntity
  8
RACCORDO
100
AcDbPolyline
 62
253
  6
CONTINUOUS
 90
7
 70
0
 10
150.3398741478
 20
131.7183513322
 10
150.3377353632
 20
131.7020355582
 10
150.3313556044
 20
131.6859989516
 10
150.320844031
 20
131.6705159032
 10
150.3063804988
 20
131.6558513322
 10
150.2882124829
 20
131.6422561536
 10
150.2666508431
 20
131.6299629846
  0
LWPOLYLINE
  5
347
100
AcDbEntity
  8
RACCORDO
100
AcDbPolyline
 62
253
  6
CONTINUOUS
 90
7
 70
0
 10
150.3398741478
 20
132.0696653165
 10
150.3375724035
 20
132.0527421388
 10
150.3309676433
 20
132.0365974709
 10
150.3202614591
 20
132.0211326173
 10
150.3057600061
 20
132.0066309958
 10
150.2877660631
 20
131.9932801129
 10
150.2666508431
 20
131.9812769567
  0
LWPOLYLINE
  5
348
100
AcDbEntity
  8
RACCORDO
100
AcDbPolyline
 62
253
  6
CONTINUOUS
 90
8
 70
0
 10
148.4988838902
 20
130.1728562034
 10
148.4976885894
 20
130.1973934062
 10
148.4941188515
 20
130.2204034847
 10
148.488222951
 20
130.241575267
 10
148.4800806198
 20
130.260622441
 10
148.4698019691
 20
130.2772874265
 10
148.457526
 20
130.2913448581
 10
148.4434187238
 20
130.3026046331
  0
LWPOLYLINE
  5
349
100
AcDbEntity
  8
RACCORDO
100
AcDbPolyline
 62
253
  6
CONTINUOUS
 90
13
 70
0
 10
148.8524372808
 20
130.1728562034
 10
148.8509747957
 20
130.210463831
 10
148.8469435163
 20
130.2458767323
 10
148.8403434425
 20
130.2790949075
 10
148.8310884444
 20
130.3103118067
 10
148.8192646519
 20
130.3393339798
 10
148.8051304549
 20
130.3655810758
 10
148.7886483897
 20
130.3890136622
 10
148.76985592
 20
130.4096711716
 10
148.7491238267
 20
130.4270915509
 10
148.7265757032
 20
130.4411207825
 10
148.7020879562
 20
130.4519128842
 10
148.6756605855
 20
130.4594678557
  0
LWPOLYLINE
  5
34A
100
AcDbEntity
  8
RACCORDO
100
AcDbPolyline
 62
253
  6
CONTINUOUS
 90
13
 70
0
 10
148.8524372808
 20
129.8641503053
 10
148.8533250186
 20
129.8407797505
 10
148.8566173571
 20
129.8165992067
 10
148.8622579553
 20
129.7920224171
 10
148.8701502945
 20
129.7674698972
 10
148.8801593254
 20
129.7433617558
 10
148.8921137749
 20
129.7201105053
 10
148.9058090877
 20
129.698113979
 10
148.9210109259
 20
129.6777485341
 10
148.9374591691
 20
129.6593626253
 10
148.9548723764
 20
129.6432708268
 10
148.9729526033
 20
129.629748453
 10
148.991390494
 20
129.6190268549
  0
LWPOLYLINE
  5
34B
100
AcDbEntity
  8
RACCORDO
100
AcDbPolyline
 62
253
  6
CONTINUOUS
 90
13
 70
0
 10
149.5595440619
 20
130.2025871662
 10
149.5604317839
 20
130.1792167915
 10
149.5637240754
 20
130.1550364111
 10
149.5693646043
 20
130.130459758
 10
149.5772568595
 20
130.1059073455
 10
149.5872658026
 20
130.0817992723
 10
149.5992201775
 20
130.0585480341
 10
149.6129154418
 20
130.0365514661
 10
149.6281172655
 20
130.0161859356
 10
149.6445655414
 20
129.9977999026
 10
149.6619788348
 20
129.9817079571
 10
149.6800591994
 20
129.9681854368
 10
149.6984972752
 20
129.9574637158
  0
LINE
  5
34C
100
AcDbEntity
  8
RACCORDO
100
AcDbLine
 62
253
  6
CONTINUOUS
 10
148.8524372808
 20
130.1728562034
 11
148.8524372808
 21
129.8641503053
  0
LINE
  5
34D
100
AcDbEntity
  8
RACCORDO
100
AcDbLine
 62
253
  6
CONTINUOUS
 10
149.5595440619
 20
130.2025871662
 11
149.5595440619
 21
130.526409594
  0
LINE
  5
34E
100
AcDbEntity
  8
RACCORDO
100
AcDbLine
 62
7
  6
CONTINUOUS
 10
149.6327673666
 20
130.2861647206
 11
149.6327673667
 21
130.6147979416
  0
LINE
  5
34F
100
AcDbEntity
  8
RACCORDO
100
AcDbLine
 62
253
  6
CONTINUOUS
 10
150.2666508431
 20
131.9812769567
 11
150.2666508431
 21
131.6299629846
  0
LINE
  5
350
100
AcDbEntity
  8
RACCORDO
100
AcDbLine
 62
7
  6
CONTINUOUS
 10
150.3398741478
 20
132.0696653043
 11
150.3398741478
 21
131.7183513322
  0
LWPOLYLINE
  5
351
100
AcDbEntity
  8
RACCORDO
100
AcDbPolyline
 62
7
  6
CONTINUOUS
 90
5
 70
0
 10
150.3398741478
 20
131.7183513322
 10
150.3376068975
 20
131.6847635456
 10
150.3307693615
 20
131.6514986947
 10
150.3194087111
 20
131.6192862815
 10
150.303700142
 20
131.5888197698
  0
LINE
  5
352
100
AcDbEntity
  8
RACCORDO
100
AcDbLine
 62
253
  6
CONTINUOUS
 10
163.1006389217
 20
124.3076388594
 11
163.6309690076
 21
124.9478039024
  0
LINE
  5
353
100
AcDbEntity
  8
RACCORDO
100
AcDbLine
 62
7
  6
CONTINUOUS
 10
163.1163812645
 20
124.2365392139
 11
163.6467113504
 21
124.8767042568
  0
LINE
  5
354
100
AcDbEntity
  8
RACCORDO
100
AcDbLine
 62
7
  6
CONTINUOUS
 10
164.1612990934
 20
121.4779175177
 11
168.2742268213
 21
125.3910864739
  0
LINE
  5
355
100
AcDbEntity
  8
RACCORDO
100
AcDbLine
 62
253
  6
CONTINUOUS
 10
168.3599091762
 20
125.6395312045
 11
164.1612990934
 21
121.663202467
  0
LWPOLYLINE
  5
356
100
AcDbEntity
  8
RACCORDO
100
AcDbPolyline
 62
253
  6
CONTINUOUS
 90
5
 70
0
 10
163.6320218595
 20
83.8663721343
 10
163.6192181926
 20
83.892886088
 10
163.6035819407
 20
83.9167156548
 10
163.5853821236
 20
83.9374518625
 10
163.5649312699
 20
83.9547394972
  0
LWPOLYLINE
  5
357
100
AcDbEntity
  8
RACCORDO
100
AcDbPolyline
 62
7
  6
CONTINUOUS
 90
4
 70
0
 10
159.7594773277
 20
82.8981321141
 10
159.7485170524
 20
82.9293557825
 10
159.7417591246
 20
82.9618790669
 10
159.7393692428
 20
82.9962247163
  0
LWPOLYLINE
  5
358
100
AcDbEntity
  8
RACCORDO
100
AcDbPolyline
 62
253
  6
CONTINUOUS
 90
7
 70
0
 10
146.37505092
 20
131.3294426026
 10
146.3771897047
 20
131.3131268285
 10
146.3835694635
 20
131.2970902219
 10
146.3940810369
 20
131.2816071735
 10
146.4085445691
 20
131.2669426026
 10
146.426712585
 20
131.2533474239
 10
146.4482742247
 20
131.2410542549
  0
LWPOLYLINE
  5
359
100
AcDbEntity
  8
RACCORDO
100
AcDbPolyline
 62
253
  6
CONTINUOUS
 90
7
 70
0
 10
146.37505092
 20
131.6807565625
 10
146.3770883894
 20
131.6648303118
 10
146.383414251
 20
131.6486952265
 10
146.393916401
 20
131.6331203644
 10
146.4084069402
 20
131.6183759166
 10
146.4266323675
 20
131.6047136953
 10
146.4482742247
 20
131.592368227
  0
LWPOLYLINE
  5
35A
100
AcDbEntity
  8
RACCORDO
100
AcDbPolyline
 62
7
  6
CONTINUOUS
 90
13
 70
0
 10
151.9566514436
 20
129.612686228
 10
151.9576482513
 20
129.5970136788
 10
151.9607936383
 20
129.5806225363
 10
151.9660492066
 20
129.5644388963
 10
151.973442185
 20
129.5484654365
 10
151.9829453447
 20
129.5326994792
 10
151.9944365856
 20
129.5173435912
 10
152.0079415612
 20
129.5024030637
 10
152.0234346181
 20
129.4878726055
 10
152.0407166959
 20
129.4739389089
 10
152.0597214412
 20
129.460664205
 10
152.0805152074
 20
129.4479862627
 10
152.1030979946
 20
129.4359050821
  0
LWPOLYLINE
  5
35B
100
AcDbEntity
  8
26814000
100
AcDbPolyline
 62
7
  6
CONTINUOUS
 90
7
 70
0
 10
153.0277886192
 20
135.5468940561
 10
153.0276970111
 20
135.5512018574
 10
153.0275578404
 20
135.5555131881
 10
153.0273711069
 20
135.559828048
 10
153.0271368108
 20
135.5641464374
 10
153.026854952
 20
135.5684683561
 10
153.0265255305
 20
135.5727938042
  0
LINE
  5
35C
100
AcDbEntity
  8
26814000
100
AcDbLine
 62
7
  6
CONTINUOUS
 10
153.0277886192
 20
135.5468940561
 11
153.0278350898
 21
135.5407567181
  0
LINE
  5
35D
100
AcDbEntity
  8
RACCORDO
100
AcDbLine
 62
7
  6
CONTINUOUS
 10
151.9566513852
 20
128.4131473698
 11
151.9566513852
 21
129.6126817774
  0
LINE
  5
35E
100
AcDbEntity
  8
RACCORDO
100
AcDbLine
 62
253
  6
CONTINUOUS
 10
152.1030979946
 20
128.2385860465
 11
152.1030979946
 21
129.4359050821
  0
LINE
  5
35F
100
AcDbEntity
  8
26814000
100
AcDbLine
 62
253
  6
CONTINUOUS
 10
152.9436370516
 20
135.2530802123
 11
152.9436370516
 21
135.0408210582
  0
LINE
  5
360
100
AcDbEntity
  8
26814000
100
AcDbLine
 62
7
  6
CONTINUOUS
 10
153.0278351115
 20
135.5407010905
 11
153.0278351115
 21
134.964737901
  0
LINE
  5
361
100
AcDbEntity
  8
21814000
100
AcDbLine
 62
253
  6
CONTINUOUS
 10
153.4317362716
 20
136.8926042358
 11
153.4317362716
 21
136.5712799536
  0
LWPOLYLINE
  5
362
100
AcDbEntity
  8
26814000
100
AcDbPolyline
 62
7
  6
CONTINUOUS
 90
16
 70
0
 10
153.0278350898
 20
135.5407567181
 10
153.0276005842
 20
135.5272424098
 10
153.0264598081
 20
135.5074772186
 10
153.0244154766
 20
135.487623568
 10
153.0215243115
 20
135.4676877841
 10
153.0178355473
 20
135.4477055478
 10
153.0133755834
 20
135.4277437262
 10
153.0081827251
 20
135.4078230085
 10
153.0023000679
 20
135.3879552571
 10
152.9957395338
 20
135.368195031
 10
152.9885326306
 20
135.3485579643
 10
152.9807154849
 20
135.3290559998
 10
152.9722915455
 20
135.3097404008
 10
152.9632786541
 20
135.2906376744
 10
152.9537168087
 20
135.2717471805
 10
152.9436370516
 20
135.2530802123
  0
LWPOLYLINE
  5
363
100
AcDbEntity
  8
RACCORDO
100
AcDbPolyline
 62
253
  6
CONTINUOUS
 90
5
 70
0
 10
163.0742604892
 20
124.2737290085
 10
163.0498101537
 20
124.2385137526
 10
163.0272879152
 20
124.201993092
 10
163.0065695971
 20
124.1638953259
 10
162.9877793761
 20
124.124492155
  0
LWPOLYLINE
  5
364
100
AcDbEntity
  8
RACCORDO
100
AcDbPolyline
 62
7
  6
CONTINUOUS
 90
5
 70
0
 10
163.6467113504
 20
124.8767042568
 10
163.6657969208
 20
124.9030628587
 10
163.6813029931
 20
124.9316900732
 10
163.6929602598
 20
124.9620986118
 10
163.7005776408
 20
124.9938334837
  0
LINE
  5
365
100
AcDbEntity
  8
RACCORDO
100
AcDbLine
 62
253
  6
CONTINUOUS
 10
163.1006389217
 20
124.3076388594
 11
163.0742604892
 21
124.2737290085
  0
LWPOLYLINE
  5
366
100
AcDbEntity
  8
RACCORDO
100
AcDbPolyline
 62
7
  6
CONTINUOUS
 90
13
 70
0
 10
163.1163812645
 20
124.2365392139
 10
163.099033892
 20
124.2143166618
 10
163.0823018165
 20
124.1901914029
 10
163.0664830876
 20
124.1644575044
 10
163.0518082901
 20
124.1373707103
 10
163.0385683856
 20
124.1093836742
 10
163.02706348
 20
124.0811600644
 10
163.0174063396
 20
124.0531307666
 10
163.0096554837
 20
124.0257137613
 10
163.0038682407
 20
123.9995766997
 10
162.999961879
 20
123.9751853797
 10
162.9977664573
 20
123.9527817263
 10
162.9970855311
 20
123.9326388594
  0
LINE
  5
367
100
AcDbEntity
  8
21814000
100
AcDbLine
 62
7
  6
CONTINUOUS
 10
152.6431750067
 20
135.9288539974
 11
152.6448544351
 21
135.8991018469
  0
LWPOLYLINE
  5
368
100
AcDbEntity
  8
26814000
100
AcDbPolyline
 62
7
  6
CONTINUOUS
 90
5
 70
0
 10
153.0278350933
 20
134.9645468882
 10
153.0278224429
 20
134.9648818238
 10
153.0275280398
 20
134.9663996126
 10
153.0268527048
 20
134.9681162769
 10
153.0258086118
 20
134.9700359807
  0
LINE
  5
369
100
AcDbEntity
  8
21814000
100
AcDbLine
 62
7
  6
CONTINUOUS
 10
154.1144464695
 20
136.4709092548
 11
154.1144464695
 21
136.9039219567
  0
LINE
  5
36A
100
AcDbEntity
  8
0
100
AcDbLine
 62
7
  6
CONTINUOUS
 10
155.081910182
 20
135.6347791436
 11
155.081910182
 21
135.1689043771
  0
LINE
  5
36B
100
AcDbEntity
  8
21814000
100
AcDbLine
 62
253
  6
CONTINUOUS
 10
155.4992433628
 20
136.3638943673
 11
155.4992433628
 21
136.8226259335
  0
LINE
  5
36C
100
AcDbEntity
  8
0
100
AcDbLine
 62
7
  6
CONTINUOUS
 10
155.5316548433
 20
135.5130313104
 11
155.5316548433
 21
135.1598457566
  0
LINE
  5
36D
100
AcDbEntity
  8
21814000
100
AcDbLine
 62
253
  6
CONTINUOUS
 10
155.6402562842
 20
136.3648246455
 11
155.6402562842
 21
136.8336218306
  0
LWPOLYLINE
  5
36E
100
AcDbEntity
  8
290140000
100
AcDbPolyline
 62
253
  6
CONTINUOUS
 90
13
 70
0
 10
153.1846908904
 20
82.4270299119
 10
153.2840404742
 20
85.4164259186
 10
153.4109911404
 20
88.4175490209
 10
153.5655263596
 20
91.4300151089
 10
153.7476260382
 20
94.4534385975
 10
153.9572667995
 20
97.4874324532
 10
154.19442199
 20
100.5316082447
 10
154.4590613971
 20
103.5855761394
 10
154.7511509869
 20
106.6489452021
 10
155.070653193
 20
109.7213234242
 10
155.4175271766
 20
112.8023174468
 10
155.7917288278
 20
115.8915326105
 10
156.1932105114
 20
118.9885732563
  0
LWPOLYLINE
  5
36F
100
AcDbEntity
  8
290140000
100
AcDbPolyline
 62
253
  6
CONTINUOUS
 90
13
 70
0
 10
154.3057735138
 20
82.3977262859
 10
154.4048837379
 20
85.3797818953
 10
154.5314842708
 20
88.37276946
 10
154.6855751125
 20
91.3766889798
 10
154.8671830804
 20
94.3919295578
 10
155.0762813571
 20
97.4181020911
 10
155.3127894901
 20
100.4540392705
 10
155.5767182157
 20
103.4997450718
 10
155.8680567977
 20
106.5552155193
 10
156.1866925748
 20
109.6192713775
 10
156.5325879933
 20
112.691519568
 10
156.905780607
 20
115.7723531693
 10
157.3062704158
 20
118.8617721813
  0
LWPOLYLINE
  5
370
100
AcDbEntity
  8
290140000
100
AcDbPolyline
 62
253
  6
CONTINUOUS
 90
19
 70
0
 10
156.1932105114
 20
118.9885732563
 10
156.2118649456
 20
119.1025594604
 10
156.2375614225
 20
119.2177779475
 10
156.2701256916
 20
119.3334438883
 10
156.3093396998
 20
119.4487697021
 10
156.3549355785
 20
119.5629690726
 10
156.4065966758
 20
119.6752624839
 10
156.4639721644
 20
119.7848810078
 10
156.5266739247
 20
119.891081633
 10
156.5942720113
 20
119.9931504781
 10
156.6663106567
 20
120.0903908279
 10
156.7423025012
 20
120.1821396096
 10
156.8217268665
 20
120.2677807524
 10
156.9040508531
 20
120.3467303688
 10
156.9887160326
 20
120.4184453382
 10
157.0751344148
 20
120.482438326
 10
157.1627168808
 20
120.5382725362
 10
157.2508774095
 20
120.5855637604
 10
157.3390206227
 20
120.6239872103
  0
LWPOLYLINE
  5
371
100
AcDbEntity
  8
290140000
100
AcDbPolyline
 62
253
  6
CONTINUOUS
 90
19
 70
0
 10
157.3062704158
 20
118.8617721813
 10
157.3150973948
 20
118.9152434719
 10
157.3270686289
 20
118.9686455143
 10
157.3421841183
 20
119.0219783085
 10
157.3605930757
 20
119.0756353553
 10
157.3821462883
 20
119.1292231538
 10
157.4063961175
 20
119.1815612023
 10
157.4333948514
 20
119.232594671
 10
157.4630902019
 20
119.2823783896
 10
157.4948776661
 20
119.3298963458
 10
157.5288000415
 20
119.3750999435
 10
157.5648145307
 20
119.4180377789
 10
157.602188238
 20
119.4578396273
 10
157.640973517
 20
119.4944505109
 10
157.6811180142
 20
119.5279254076
 10
157.7217317735
 20
119.5575590266
 10
157.762518143
 20
119.5831162708
 10
157.8037737748
 20
119.6048322373
 10
157.8454986687
 20
119.622706926
  0
LWPOLYLINE
  5
372
100
AcDbEntity
  8
RACCORDO
100
AcDbPolyline
 62
253
  6
CONTINUOUS
 90
12
 70
0
 10
161.509648664
 20
123.8871437306
 10
161.4967037296
 20
123.8578637082
 10
161.4809576086
 20
123.8305094181
 10
161.4626593388
 20
123.8055591762
 10
161.4420884275
 20
123.7834401916
 10
161.4195961221
 20
123.764571368
 10
161.3956127505
 20
123.7493298995
 10
161.3705692814
 20
123.7379846246
 10
161.3448786833
 20
123.7307178034
 10
161.3189830289
 20
123.7276541898
 10
161.2933272009
 20
123.7288458046
 10
161.2833880343
 20
123.7304803487
  0
LWPOLYLINE
  5
373
100
AcDbEntity
  8
RACCORDO
100
AcDbPolyline
 62
253
  6
CONTINUOUS
 90
12
 70
0
 10
162.0399787499
 20
123.7773087735
 10
162.0269294063
 20
123.7478227898
 10
162.0110786423
 20
123.7203536686
 10
161.9926976689
 20
123.6953714142
 10
161.9721009897
 20
123.6733034798
 10
161.9496410195
 20
123.654527454
 10
161.9257020546
 20
123.6393645997
 10
161.9006936974
 20
123.6280743576
 10
161.8750438478
 20
123.6208499069
 10
161.8491913818
 20
123.6178148599
 10
161.8235786423
 20
123.6190211471
 10
161.812501302
 20
123.6208922322
  0
LWPOLYLINE
  5
374
100
AcDbEntity
  8
RACCORDO
100
AcDbPolyline
 62
253
  6
CONTINUOUS
 90
20
 70
0
 10
161.9711637351
 20
122.894843255
 10
161.9892755287
 20
122.8966935473
 10
162.008484745
 20
122.8987846846
 10
162.0286633395
 20
122.9011570951
 10
162.04912347
 20
122.9037713475
 10
162.069513328
 20
122.9066141836
 10
162.0899167058
 20
122.9097305947
 10
162.1102217586
 20
122.9131358542
 10
162.1301574929
 20
122.9168133167
 10
162.1495549216
 20
122.9207435511
 10
162.1684217626
 20
122.9249330822
 10
162.1866484577
 20
122.9293560461
 10
162.2041522389
 20
122.9339888163
 10
162.2210353053
 20
122.9388570685
 10
162.2372375135
 20
122.9439355372
 10
162.2526821471
 20
122.9491761128
 10
162.2674487458
 20
122.9545863677
 10
162.2815345813
 20
122.9601525791
 10
162.2948752095
 20
122.9658311659
 10
162.3074617181
 20
122.9715960712
  0
LWPOLYLINE
  5
375
100
AcDbEntity
  8
RACCORDO
100
AcDbPolyline
 62
253
  6
CONTINUOUS
 90
5
 70
0
 10
161.8976568447
 20
122.8881880259
 10
161.9103263512
 20
122.88921003
 10
161.9238695517
 20
122.8903731627
 10
161.9383894501
 20
122.8916872734
 10
161.9711637351
 20
122.894843255
  0
LINE
  5
376
100
AcDbEntity
  8
RACCORDO
100
AcDbLine
 62
253
  6
CONTINUOUS
 10
163.6417724354
 20
83.8376298369
 11
163.6320218595
 21
83.8663721343
  0
LWPOLYLINE
  5
377
100
AcDbEntity
  8
RACCORDO
100
AcDbPolyline
 62
253
  6
CONTINUOUS
 90
7
 70
0
 10
159.7393690844
 20
83.347679381
 10
159.7415078691
 20
83.331363607
 10
159.7478876279
 20
83.3153270003
 10
159.7583992013
 20
83.2998439519
 10
159.7728627335
 20
83.285179381
 10
159.7910307494
 20
83.2715842024
 10
159.8125923892
 20
83.2592910333
  0
LWPOLYLINE
  5
378
100
AcDbEntity
  8
RACCORDO
100
AcDbPolyline
 62
253
  6
CONTINUOUS
 90
7
 70
0
 10
159.7393692428
 20
82.9962247163
 10
159.7414065538
 20
82.980439146
 10
159.7477324154
 20
82.9643040607
 10
159.7582345654
 20
82.9487291986
 10
159.7727251046
 20
82.9339847509
 10
159.7909505319
 20
82.9203225295
 10
159.8125923892
 20
82.9079770612
  0
LINE
  5
379
100
AcDbEntity
  8
RACCORDO
100
AcDbLine
 62
7
  6
CONTINUOUS
 10
159.6845790076
 20
93.5323293039
 11
160.1859899711
 21
88.8587884023
  0
LINE
  5
37A
100
AcDbEntity
  8
21814000
100
AcDbLine
 62
7
  6
CONTINUOUS
 10
157.44389225
 20
138.9340040285
 11
157.44389225
 21
138.5261527612
  0
LINE
  5
37B
100
AcDbEntity
  8
RACCORDO
100
AcDbLine
 62
253
  6
CONTINUOUS
 10
157.6225918471
 20
126.6761581559
 11
157.6225918471
 21
125.4788391203
  0
LINE
  5
37C
100
AcDbEntity
  8
RACCORDO
100
AcDbLine
 62
253
  6
CONTINUOUS
 10
158.3317290742
 20
126.677179243
 11
158.3317290742
 21
125.4722584103
  0
LINE
  5
37D
100
AcDbEntity
  8
RACCORDO
100
AcDbLine
 62
7
  6
CONTINUOUS
 10
158.7519322174
 20
132.0424362995
 11
158.7519322174
 21
131.1420811989
  0
LWPOLYLINE
  5
37E
100
AcDbEntity
  8
RACCORDO
100
AcDbPolyline
 62
253
  6
CONTINUOUS
 90
6
 70
0
 10
162.9571341836
 20
124.0442022021
 10
162.9452792121
 20
124.0033154201
 10
162.9359972885
 20
123.9627915396
 10
162.9293792199
 20
123.9229149621
 10
162.9253341992
 20
123.8834012862
 10
162.9238622264
 20
123.8442505118
  0
LWPOLYLINE
  5
37F
100
AcDbEntity
  8
RACCORDO
100
AcDbPolyline
 62
253
  6
CONTINUOUS
 90
3
 70
0
 10
162.9877793761
 20
124.124492155
 10
162.9712897817
 20
124.0845986808
 10
162.9571341836
 20
124.0442022021
  0
LINE
  5
380
100
AcDbEntity
  8
RACCORDO
100
AcDbLine
 62
253
  6
CONTINUOUS
 10
163.1735449023
 20
123.4622050819
 11
163.1820395906
 21
123.4814241043
  0
LWPOLYLINE
  5
381
100
AcDbEntity
  8
RACCORDO
100
AcDbPolyline
 62
253
  6
CONTINUOUS
 90
4
 70
0
 10
160.4301170877
 20
123.9130338424
 10
160.4468509419
 20
123.9148287921
 10
160.4624114976
 20
123.9198131171
 10
160.4646219265
 20
123.9208285579
  0
LWPOLYLINE
  5
382
100
AcDbEntity
  8
290140000
100
AcDbPolyline
 62
253
  6
CONTINUOUS
 90
16
 70
0
 10
156.1932255031
 20
118.9885775452
 10
156.2546755496
 20
118.9601050602
 10
156.3214381664
 20
118.9336481564
 10
156.3927980155
 20
118.9094903104
 10
156.467990501
 20
118.8878903651
 10
156.5462099615
 20
118.8690797562
 10
156.6266183029
 20
118.8532600324
 10
156.7083539779
 20
118.8406006963
 10
156.7905412171
 20
118.8312373885
 10
156.872299413
 20
118.8252704333
 10
156.9527525552
 20
118.8227637648
 10
157.0310386162
 20
118.8237442408
 10
157.1063187883
 20
118.8282013561
 10
157.1777864708
 20
118.836087354
 10
157.2446759122
 20
118.8473177389
 10
157.3062704157
 20
118.8617721813
  0
LINE
  5
383
100
AcDbEntity
  8
290140000
100
AcDbLine
 62
253
  6
CONTINUOUS
 10
126.1581731124
 20
134.0060919558
 11
156.1932105114
 21
118.9885732563
  0
LWPOLYLINE
  5
384
100
AcDbEntity
  8
290140000
100
AcDbPolyline
 62
253
  6
CONTINUOUS
 90
10
 70
0
 10
126.1581731386
 20
134.0060919633
 10
126.1026697745
 20
134.0360962766
 10
126.0537322893
 20
134.0674896606
 10
126.0118850415
 20
134.0999357393
 10
125.9775764184
 20
134.1330868578
 10
125.9511740322
 20
134.1665878063
 10
125.9329607807
 20
134.2000796264
 10
125.9231318163
 20
134.2332034579
 10
125.921792455
 20
134.2656043837
 10
125.9223106459
 20
134.2702649068
  0
LWPOLYLINE
  5
385
100
AcDbEntity
  8
RACCORDO
100
AcDbPolyline
 62
7
  6
CONTINUOUS
 90
6
 70
0
 10
149.6428495517
 20
130.2458033169
 10
149.6397509102
 20
130.2517770183
 10
149.6366244955
 20
130.2600932451
 10
149.6340698321
 20
130.2707747341
 10
149.6328067817
 20
130.2832946836
 10
149.6327617944
 20
130.2863228032
  0
LWPOLYLINE
  5
386
100
AcDbEntity
  8
RACCORDO
100
AcDbPolyline
 62
253
  6
CONTINUOUS
 90
7
 70
0
 10
160.4464758656
 20
84.4512327716
 10
160.4486146503
 20
84.4349169975
 10
160.4549944091
 20
84.4188803909
 10
160.4655059825
 20
84.4033973425
 10
160.4799695147
 20
84.3887327716
 10
160.4981375306
 20
84.3751375929
 10
160.5196991703
 20
84.3628444239
  0
LINE
  5
387
100
AcDbEntity
  8
DRAFT
100
AcDbLine
 62
7
  6
CONTINUOUS
 10
160.7079420888
 20
102.5421794376
 11
162.4705930599
 21
86.1128988516
  0
LWPOLYLINE
  5
388
100
AcDbEntity
  8
RACCORDO
100
AcDbPolyline
 62
253
  6
CONTINUOUS
 90
3
 70
0
 10
163.6515020406
 20
83.7754169037
 10
163.6483060413
 20
83.8071298796
 10
163.6417724354
 20
83.8376298369
  0
LWPOLYLINE
  5
389
100
AcDbEntity
  8
RACCORDO
100
AcDbPolyline
 62
7
  6
CONTINUOUS
 90
10
 70
0
 10
159.7393690844
 20
124.6472835204
 10
159.7416363348
 20
124.6136957337
 10
159.7484738708
 20
124.5804308829
 10
159.7598345212
 20
124.5482184697
 10
159.7755430903
 20
124.517751958
 10
159.7952748451
 20
124.4897163293
 10
159.8186150081
 20
124.4646827388
 10
159.8451531692
 20
124.4430737849
 10
159.8744468006
 20
124.4252640661
 10
159.8778842242
 20
124.4235182081
  0
LWPOLYLINE
  5
38A
100
AcDbEntity
  8
RACCORDO
100
AcDbPolyline
 62
253
  6
CONTINUOUS
 90
8
 70
0
 10
160.4464758664
 20
123.9469314196
 10
160.4468312391
 20
123.9405296991
 10
160.4495568324
 20
123.928070974
 10
160.454953602
 20
123.9157418494
 10
160.4629717576
 20
123.9036887079
 10
160.473557596
 20
123.8920123564
 10
160.486629269
 20
123.8808370769
 10
160.5020595622
 20
123.8703061807
  0
LINE
  5
38B
100
AcDbEntity
  8
21814000
100
AcDbLine
 62
253
  6
CONTINUOUS
 10
160.062784864
 20
132.1227054384
 11
160.0623856869
 21
132.1362897969
  0
LWPOLYLINE
  5
38C
100
AcDbEntity
  8
RACCORDO
100
AcDbPolyline
 62
7
  6
CONTINUOUS
 90
15
 70
0
 10
158.7519322174
 20
132.0424362995
 10
158.7511483844
 20
132.0705639553
 10
158.748883908
 20
132.0975905796
 10
158.7451387881
 20
132.1235161724
 10
158.7398843889
 20
132.1484420317
 10
158.7331493463
 20
132.1722668595
 10
158.725019568
 20
132.1946867619
 10
158.7154771878
 20
132.215683742
 10
158.7045400721
 20
132.2352757966
 10
158.6923477274
 20
132.2532130222
 10
158.6788840746
 20
132.2694742209
 10
158.6641651929
 20
132.2840805907
 10
158.6483788268
 20
132.2968458221
 10
158.631511302
 20
132.3077463306
 10
158.6219756597
 20
132.3128587959
  0
LINE
  5
38D
100
AcDbEntity
  8
RACCORDO
100
AcDbLine
 62
253
  6
CONTINUOUS
 10
159.7393690844
 20
82.9963653967
 11
159.7393692428
 21
82.9962247163
  0
LINE
  5
38E
100
AcDbEntity
  8
RACCORDO
100
AcDbLine
 62
7
  6
CONTINUOUS
 10
159.7393690844
 20
82.9963654089
 11
159.7393690844
 21
83.347679381
  0
LINE
  5
38F
100
AcDbEntity
  8
RACCORDO
100
AcDbLine
 62
7
  6
CONTINUOUS
 10
159.7393690844
 20
124.6472835204
 11
159.7393690844
 21
124.9985974924
  0
LINE
  5
390
100
AcDbEntity
  8
RACCORDO
100
AcDbLine
 62
253
  6
CONTINUOUS
 10
159.8125923892
 20
82.9079770612
 11
159.8125923892
 21
83.2592910333
  0
LINE
  5
391
100
AcDbEntity
  8
RACCORDO
100
AcDbLine
 62
253
  6
CONTINUOUS
 10
159.8125923892
 20
124.5588951727
 11
159.8125923892
 21
124.9102091448
  0
LINE
  5
392
100
AcDbEntity
  8
RACCORDO
100
AcDbLine
 62
7
  6
CONTINUOUS
 10
160.4464758656
 20
84.4512327716
 11
160.4464758656
 21
84.5165026513
  0
LINE
  5
393
100
AcDbEntity
  8
RACCORDO
100
AcDbLine
 62
7
  6
CONTINUOUS
 10
160.4464758656
 20
123.9468833083
 11
160.4464758656
 21
124.1392216326
  0
LINE
  5
394
100
AcDbEntity
  8
RACCORDO
100
AcDbLine
 62
253
  6
CONTINUOUS
 10
160.5196991703
 20
84.3628444239
 11
160.5196991703
 21
84.4798909989
  0
LINE
  5
395
100
AcDbEntity
  8
RACCORDO
100
AcDbLine
 62
253
  6
CONTINUOUS
 10
160.5196991703
 20
123.8605451035
 11
160.5196991703
 21
124.1026099802
  0
LINE
  5
396
100
AcDbEntity
  8
RACCORDO
100
AcDbLine
 62
253
  6
CONTINUOUS
 10
161.1560952734
 20
124.2384577027
 11
161.1560952734
 21
123.8871437306
  0
LINE
  5
397
100
AcDbEntity
  8
RACCORDO
100
AcDbLine
 62
253
  6
CONTINUOUS
 10
161.1560952734
 20
82.5875395912
 11
161.1560952734
 21
82.2362256191
  0
LINE
  5
398
100
AcDbEntity
  8
RACCORDO
100
AcDbLine
 62
7
  6
CONTINUOUS
 10
161.2268059515
 20
131.1295742924
 11
161.2268059515
 21
130.9344613473
  0
LWPOLYLINE
  5
399
100
AcDbEntity
  8
RACCORDO
100
AcDbPolyline
 62
7
  6
CONTINUOUS
 90
6
 70
0
 10
160.4464802799
 20
123.9471148507
 10
160.4462708048
 20
123.9407596193
 10
160.4446023306
 20
123.9285050181
 10
160.4417584171
 20
123.9181101661
 10
160.4384444871
 20
123.9100603173
 10
160.4360900848
 20
123.905679723
  0
LWPOLYLINE
  5
39A
100
AcDbEntity
  8
RACCORDO
100
AcDbPolyline
 62
253
  6
CONTINUOUS
 90
10
 70
0
 10
159.8125923892
 20
83.2592910333
 10
159.8137513545
 20
83.2846216648
 10
159.8172369665
 20
83.3109164756
 10
159.8230386559
 20
83.3378373063
 10
159.8311292245
 20
83.3650748388
 10
159.8414245394
 20
83.3922128779
 10
159.8537478714
 20
83.4187404052
 10
159.8679048075
 20
83.4442515468
 10
159.8837211242
 20
83.4684433115
 10
159.9009807368
 20
83.4909852072
  0
LWPOLYLINE
  5
39B
100
AcDbEntity
  8
21814000
100
AcDbPolyline
 62
253
  6
CONTINUOUS
 90
10
 70
0
 10
162.96599855
 20
135.2691158402
 10
162.9632921971
 20
135.2342442509
 10
162.9539419845
 20
135.1957052532
 10
162.9379832323
 20
135.1577126156
 10
162.9155347139
 20
135.120549099
 10
162.8867635027
 20
135.0844912939
 10
162.8518837293
 20
135.0498075612
 10
162.8111549872
 20
135.0167560355
 10
162.764880401
 20
134.9855827035
 10
162.7134043703
 20
134.9565195735
  0
LINE
  5
39C
100
AcDbEntity
  8
290140000
100
AcDbLine
 62
7
  6
CONTINUOUS
 10
161.9592412344
 20
121.1755465929
 11
158.8474949657
 21
83.3595239599
  0
LWPOLYLINE
  5
39D
100
AcDbEntity
  8
RACCORDO
100
AcDbPolyline
 62
253
  6
CONTINUOUS
 90
4
 70
0
 10
163.009458371
 20
123.5740611076
 10
162.9931526678
 20
123.5760653591
 10
162.9780539088
 20
123.5811659556
 10
162.9758408635
 20
123.5822275809
  0
LINE
  5
39E
100
AcDbEntity
  8
RACCORDO
100
AcDbLine
 62
7
  6
CONTINUOUS
 10
161.2821712161
 20
123.7307271892
 11
161.812501302
 21
123.6208922322
  0
LWPOLYLINE
  5
39F
100
AcDbEntity
  8
290140000
100
AcDbPolyline
 62
253
  6
CONTINUOUS
 90
7
 70
0
 10
127.28704497
 20
135.6499750367
 10
127.2266367359
 20
135.6752120566
 10
127.166350215
 20
135.6923436076
 10
127.106845676
 20
135.7011820953
 10
127.0487748073
 20
135.7016307528
 10
126.9927736149
 20
135.6936846987
 10
126.935039827
 20
135.6756606697
  0
LINE
  5
3A0
100
AcDbEntity
  8
290140000
100
AcDbLine
 62
253
  6
CONTINUOUS
 10
127.28704497
 20
135.6499750367
 11
157.3390206227
 21
120.6239872103
  0
LWPOLYLINE
  5
3A1
100
AcDbEntity
  8
290140000
100
AcDbPolyline
 62
253
  6
CONTINUOUS
 90
16
 70
0
 10
157.3390206227
 20
120.6239872103
 10
157.3968327632
 20
120.5901141599
 10
157.4534717852
 20
120.5487832349
 10
157.5083173799
 20
120.5004470901
 10
157.5607688803
 20
120.4456351014
 10
157.6102518396
 20
120.3849475676
 10
157.6562243224
 20
120.3190491366
 10
157.6981828397
 20
120.2486615257
 10
157.7356678634
 20
120.1745556176
 10
157.7682688589
 20
120.0975430175
 10
157.795628781
 20
120.0184671647
 10
157.817447985
 20
119.9381940951
 10
157.8334875078
 20
119.8576029566
 10
157.843571685
 20
119.7775763804
 10
157.847590075
 20
119.6989908148
 10
157.8454986687
 20
119.622706926
  0
LWPOLYLINE
  5
3A2
100
AcDbEntity
  8
RACCORDO
100
AcDbPolyline
 62
253
  6
CONTINUOUS
 90
6
 70
0
 10
150.2666508431
 20
131.6299629846
 10
150.2766144766
 20
131.6121372462
 10
150.2834404385
 20
131.5960689975
 10
150.2869914972
 20
131.5820434198
 10
150.2871838762
 20
131.5703060804
 10
150.2839878769
 20
131.5610854098
  0
LWPOLYLINE
  5
3A3
100
AcDbEntity
  8
RACCORDO
100
AcDbPolyline
 62
253
  6
CONTINUOUS
 90
7
 70
0
 10
149.7363207572
 20
130.9897979416
 10
149.7463454026
 20
130.9718489524
 10
149.7531738252
 20
130.9557194245
 10
149.7566891888
 20
130.9416853385
 10
149.7568313447
 20
130.9299868217
 10
149.7535978605
 20
130.9208240389
 10
149.7520631
 20
130.9186982961
  0
LWPOLYLINE
  5
3A4
100
AcDbEntity
  8
RACCORDO
100
AcDbPolyline
 62
253
  6
CONTINUOUS
 90
7
 70
0
 10
159.7393690844
 20
124.6472835204
 10
159.7415078691
 20
124.6309677463
 10
159.7478876279
 20
124.6149311397
 10
159.7583992013
 20
124.5994480913
 10
159.7728627335
 20
124.5847835204
 10
159.7910307494
 20
124.5711883417
 10
159.8125923892
 20
124.5588951727
  0
LWPOLYLINE
  5
3A5
100
AcDbEntity
  8
RACCORDO
100
AcDbPolyline
 62
7
  6
CONTINUOUS
 90
5
 70
0
 10
163.7041923123
 20
83.7365881106
 10
163.7019250619
 20
83.7701758973
 10
163.6950875259
 20
83.8034407481
 10
163.6837268755
 20
83.8356531613
 10
163.6680183064
 20
83.866119673
  0
LWPOLYLINE
  5
3A6
100
AcDbEntity
  8
RACCORDO
100
AcDbPolyline
 62
253
  6
CONTINUOUS
 90
8
 70
0
 10
161.8632020546
 20
123.4906971212
 10
161.8620067538
 20
123.515234324
 10
161.8584370159
 20
123.5382444025
 10
161.8525411154
 20
123.5594161848
 10
161.8443987843
 20
123.5784633588
 10
161.8341201336
 20
123.5951283443
 10
161.8218441644
 20
123.6091857759
 10
161.8077368882
 20
123.6204455509
  0
LWPOLYLINE
  5
3A7
100
AcDbEntity
  8
RACCORDO
100
AcDbPolyline
 62
253
  6
CONTINUOUS
 90
13
 70
0
 10
162.9238622264
 20
84.0446463724
 10
162.9253247114
 20
84.0070387448
 10
162.9293559909
 20
83.9716258434
 10
162.9359560646
 20
83.9384076683
 10
162.9452110627
 20
83.907190769
 10
162.9570348552
 20
83.878168596
 10
162.9711690522
 20
83.8519215
 10
162.9876511174
 20
83.8284889136
 10
163.0064435871
 20
83.8078314042
 10
163.0271756805
 20
83.7904110249
 10
163.0497238039
 20
83.7763817932
 10
163.0742115509
 20
83.7655896916
 10
163.1006389217
 20
83.75803472
  0
LWPOLYLINE
  5
3A8
100
AcDbEntity
  8
RACCORDO
100
AcDbPolyline
 62
253
  6
CONTINUOUS
 90
13
 70
0
 10
162.2167554452
 20
123.4906971212
 10
162.2152929601
 20
123.5283047488
 10
162.2112616807
 20
123.5637176501
 10
162.2046616069
 20
123.5969358253
 10
162.1954066088
 20
123.6281527245
 10
162.1835828164
 20
123.6571748976
 10
162.1694486194
 20
123.6834219936
 10
162.1529665542
 20
123.70685458
 10
162.1341740845
 20
123.7275120893
 10
162.1134419911
 20
123.7449324687
 10
162.0908938677
 20
123.7589617003
 10
162.0664061206
 20
123.7697538019
 10
162.0399787499
 20
123.7773087735
  0
LWPOLYLINE
  5
3A9
100
AcDbEntity
  8
21814000
100
AcDbPolyline
 62
7
  6
CONTINUOUS
 90
10
 70
0
 10
162.96599855
 20
135.2691158402
 10
162.962193654
 20
135.3830535365
 10
162.9510475649
 20
135.4963177335
 10
162.9329092398
 20
135.608705007
 10
162.9079541386
 20
135.7204417838
 10
162.8764071391
 20
135.8310739512
 10
162.838785873
 20
135.9393803404
 10
162.7954846375
 20
136.0448643114
 10
162.7465318559
 20
136.1477911919
 10
162.6919998104
 20
136.2480356016
  0
LWPOLYLINE
  5
3AA
100
AcDbEntity
  8
RACCORDO
100
AcDbPolyline
 62
7
  6
CONTINUOUS
 90
6
 70
0
 10
162.9970855311
 20
84.13303472
 10
162.9975588752
 20
84.11721707
 10
162.9988319122
 20
84.1035974241
 10
163.0006528311
 20
84.0923250002
 10
163.002742669
 20
84.0834535089
 10
163.0044015027
 20
84.0781002625
  0
LWPOLYLINE
  5
3AB
100
AcDbEntity
  8
RACCORDO
100
AcDbPolyline
 62
7
  6
CONTINUOUS
 90
15
 70
0
 10
161.2268059515
 20
131.1295742924
 10
161.22527407
 20
131.1852060401
 10
161.2208448868
 20
131.2386913498
 10
161.2135184018
 20
131.2900302213
 10
161.2032398232
 20
131.3394191128
 10
161.1900639429
 20
131.3866615661
 10
161.174155137
 20
131.4311682068
 10
161.1554791683
 20
131.4729047617
 10
161.134070274
 20
131.5119055041
 10
161.1101955413
 20
131.547683879
 10
161.083824079
 20
131.5801995181
 10
161.0549867783
 20
131.6094927897
 10
161.0240433996
 20
131.635198245
 10
160.9909675589
 20
131.6572709372
 10
160.9668774512
 20
131.6704298088
  0
LINE
  5
3AC
100
AcDbEntity
  8
RACCORDO
100
AcDbLine
 62
7
  6
CONTINUOUS
 10
162.9972214484
 20
123.5988919829
 11
162.9970810051
 21
123.604102273
  0
LINE
  5
3AD
100
AcDbEntity
  8
RACCORDO
100
AcDbLine
 62
253
  6
CONTINUOUS
 10
161.509648664
 20
124.2384577027
 11
161.509648664
 21
123.8871437306
  0
LINE
  5
3AE
100
AcDbEntity
  8
RACCORDO
100
AcDbLine
 62
253
  6
CONTINUOUS
 10
161.509648664
 20
82.5875395912
 11
161.509648664
 21
82.2362256191
  0
LINE
  5
3AF
100
AcDbEntity
  8
21814000
100
AcDbLine
 62
253
  6
CONTINUOUS
 10
161.8189618655
 20
130.6383833904
 11
161.8189618655
 21
131.0391518793
  0
LINE
  5
3B0
100
AcDbEntity
  8
RACCORDO
100
AcDbLine
 62
253
  6
CONTINUOUS
 10
161.8632020546
 20
123.4906971212
 11
161.8632020546
 21
123.1887936614
  0
LINE
  5
3B1
100
AcDbEntity
  8
RACCORDO
100
AcDbLine
 62
253
  6
CONTINUOUS
 10
161.8632020546
 20
83.901185383
 11
161.8632020546
 21
83.6910929818
  0
LINE
  5
3B2
100
AcDbEntity
  8
RACCORDO
100
AcDbLine
 62
7
  6
CONTINUOUS
 10
162.0029509656
 20
122.1634587377
 11
162.0029509656
 21
122.1375890998
  0
LINE
  5
3B3
100
AcDbEntity
  8
RACCORDO
100
AcDbLine
 62
7
  6
CONTINUOUS
 10
162.0029509656
 20
84.1714756731
 11
162.0029509656
 21
84.197345311
  0
LINE
  5
3B4
100
AcDbEntity
  8
21814000
100
AcDbLine
 62
253
  6
CONTINUOUS
 10
162.1466802449
 20
131.603720703
 11
162.1466802449
 21
132.250584522
  0
LINE
  5
3B5
100
AcDbEntity
  8
RACCORDO
100
AcDbLine
 62
253
  6
CONTINUOUS
 10
162.2167554452
 20
123.4906971212
 11
162.2167554452
 21
123.1819912231
  0
LINE
  5
3B6
100
AcDbEntity
  8
RACCORDO
100
AcDbLine
 62
253
  6
CONTINUOUS
 10
162.2167554452
 20
83.9997988799
 11
162.2167554452
 21
83.6910929818
  0
LINE
  5
3B7
100
AcDbEntity
  8
DRAFT
100
AcDbLine
 62
7
  6
CONTINUOUS
 10
162.4705930599
 20
122.2942700036
 11
162.4705930599
 21
120.6736322804
  0
LINE
  5
3B8
100
AcDbEntity
  8
DRAFT
100
AcDbLine
 62
7
  6
CONTINUOUS
 10
162.4705930599
 20
86.1128988516
 11
162.4705930599
 21
84.4922611284
  0
LINE
  5
3B9
100
AcDbEntity
  8
21814000
100
AcDbLine
 62
253
  6
CONTINUOUS
 10
162.7134043703
 20
134.9565195735
 11
162.7134043703
 21
130.9816272689
  0
LINE
  5
3BA
100
AcDbEntity
  8
RACCORDO
100
AcDbLine
 62
253
  6
CONTINUOUS
 10
162.9238622264
 20
84.0446463724
 11
162.9238622264
 21
84.3684688001
  0
LINE
  5
3BB
100
AcDbEntity
  8
RACCORDO
100
AcDbLine
 62
253
  6
CONTINUOUS
 10
162.9238622264
 20
123.520428084
 11
162.9238622264
 21
123.8442505118
  0
LINE
  5
3BC
100
AcDbEntity
  8
21814000
100
AcDbLine
 62
7
  6
CONTINUOUS
 10
162.96599855
 20
135.2691158402
 11
162.96599855
 21
131.8634303936
  0
LINE
  5
3BD
100
AcDbEntity
  8
RACCORDO
100
AcDbLine
 62
7
  6
CONTINUOUS
 10
162.9970855311
 20
84.13303472
 11
162.9970855311
 21
84.4350899795
  0
LINE
  5
3BE
100
AcDbEntity
  8
RACCORDO
100
AcDbLine
 62
7
  6
CONTINUOUS
 10
162.9970855303
 20
123.6040160249
 11
162.9970855311
 21
123.9326388594
  0
LINE
  5
3BF
100
AcDbEntity
  8
RACCORDO
100
AcDbLine
 62
253
  6
CONTINUOUS
 10
163.6309690076
 20
125.2991178744
 11
163.6309690076
 21
124.9478039024
  0
LINE
  5
3C0
100
AcDbEntity
  8
RACCORDO
100
AcDbLine
 62
253
  6
CONTINUOUS
 10
163.6309690076
 20
83.648199763
 11
163.6309690076
 21
83.2968857909
  0
LINE
  5
3C1
100
AcDbEntity
  8
RACCORDO
100
AcDbLine
 62
7
  6
CONTINUOUS
 10
163.7041923123
 20
125.3875062221
 11
163.7041923123
 21
125.03619225
  0
LINE
  5
3C2
100
AcDbEntity
  8
RACCORDO
100
AcDbLine
 62
7
  6
CONTINUOUS
 10
163.7041923123
 20
83.7365881106
 11
163.7041923123
 21
83.3852741385
  0
LINE
  5
3C3
100
AcDbEntity
  8
21814000
100
AcDbLine
 62
7
  6
CONTINUOUS
 10
162.9659983999
 20
131.8624118908
 11
162.9659983121
 21
131.8621643107
  0
LINE
  5
3C4
100
AcDbEntity
  8
RACCORDO
100
AcDbLine
 62
253
  6
CONTINUOUS
 10
163.7041923123
 20
83.3852741263
 11
163.7041921539
 21
83.385133446
  0
LWPOLYLINE
  5
3C5
100
AcDbEntity
  8
21814000
100
AcDbPolyline
 62
253
  6
CONTINUOUS
 90
29
 70
0
 10
162.9659983121
 20
131.8621643107
 10
162.9656699413
 20
131.8187100034
 10
162.9644636253
 20
131.766984054
 10
162.9624326667
 20
131.7166669434
 10
162.9596263126
 20
131.66776743
 10
162.9560971088
 20
131.6203018756
 10
162.9518961691
 20
131.5742715256
 10
162.947046908
 20
131.5296616569
 10
162.9415908517
 20
131.4864874464
 10
162.9355644587
 20
131.444745963
 10
162.9289582031
 20
131.4043964773
 10
162.9217951881
 20
131.3654116101
 10
162.9141012349
 20
131.3278298884
 10
162.9058459617
 20
131.2917122299
 10
162.8970373472
 20
131.2570127453
 10
162.8876933911
 20
131.2237900233
 10
162.8777794929
 20
131.1922649972
 10
162.8672982622
 20
131.1624067018
 10
162.8562591248
 20
131.1342612544
 10
162.8446239966
 20
131.1081684958
 10
162.8323806853
 20
131.0841113984
 10
162.8195430401
 20
131.0621257588
 10
162.8061057458
 20
131.04263271
 10
162.7920562865
 20
131.025695656
 10
162.7774107326
 20
131.0112711171
 10
162.7622105965
 20
130.9996188389
 10
162.7464767529
 20
130.9908303064
 10
162.7302050999
 20
130.9848303711
 10
162.7134043703
 20
130.9816272689
  0
LWPOLYLINE
  5
3C6
100
AcDbEntity
  8
RACCORDO
100
AcDbPolyline
 62
253
  6
CONTINUOUS
 90
10
 70
0
 10
162.5280013322
 20
84.3994172929
 10
162.5270725494
 20
84.356766646
 10
162.5225553732
 20
84.3164207477
 10
162.5144965974
 20
84.2787975449
 10
162.5029797037
 20
84.2442867798
 10
162.4881239964
 20
84.2132459526
 10
162.4700833674
 20
84.185996618
 10
162.449044701
 20
84.1628210543
 10
162.4252259388
 20
84.1439593394
 10
162.4083681572
 20
84.1341067309
  0
LWPOLYLINE
  5
3C7
100
AcDbEntity
  8
RACCORDO
100
AcDbPolyline
 62
253
  6
CONTINUOUS
 90
10
 70
0
 10
163.2473043178
 20
84.7671225666
 10
163.2463022243
 20
84.7235669031
 10
163.2415561647
 20
84.6824265063
 10
163.2331174637
 20
84.6441461627
 10
163.221077366
 20
84.6091397369
 10
163.2055660488
 20
84.5777856971
 10
163.1867512156
 20
84.550423023
 10
163.1648362825
 20
84.5273475418
 10
163.1400581793
 20
84.5088087294
 10
163.1275943297
 20
84.5017705936
  0
LWPOLYLINE
  5
3C8
100
AcDbEntity
  8
RACCORDO
100
AcDbPolyline
 62
253
  6
CONTINUOUS
 90
10
 70
0
 10
162.2386971055
 20
84.2902537899
 10
162.2374545363
 20
84.2463004508
 10
162.2324196268
 20
84.2047993307
 10
162.2236476162
 20
84.166205186
 10
162.2112347347
 20
84.13094094
 10
162.1953170163
 20
84.0993929747
 10
162.1760688047
 20
84.0719069008
 10
162.1537010559
 20
84.0487838884
 10
162.1284589194
 20
84.0302773032
 10
162.1163839665
 20
84.0235864515
  0
LWPOLYLINE
  5
3C9
100
AcDbEntity
  8
RACCORDO
100
AcDbPolyline
 62
253
  6
CONTINUOUS
 90
10
 70
0
 10
161.1560952734
 20
82.5875395912
 10
161.1573027998
 20
82.6134059828
 10
161.16090889
 20
82.6401265682
 10
161.1668642903
 20
82.6673363034
 10
161.175103463
 20
82.6947096878
 10
161.1855053535
 20
82.7218256544
 10
161.1978594652
 20
82.7481801782
 10
161.2119433155
 20
82.7733857173
 10
161.2275613985
 20
82.797167811
 10
161.2444836211
 20
82.819233765
  0
LINE
  5
3CA
100
AcDbEntity
  8
RACCORDO
100
AcDbLine
 62
253
  6
CONTINUOUS
 10
162.9967682873
 20
123.5979611141
 11
162.9970855303
 21
123.6040160249
  0
LWPOLYLINE
  5
3CB
100
AcDbEntity
  8
RACCORDO
100
AcDbPolyline
 62
253
  6
CONTINUOUS
 90
8
 70
0
 10
161.509648664
 20
82.2362256191
 10
161.5081363149
 20
82.2087220441
 10
161.5036251442
 20
82.183201412
 10
161.4961923393
 20
82.160100388
 10
161.4859650776
 20
82.1398142368
 10
161.4731183504
 20
82.1226900603
 10
161.4578719687
 20
82.1090208578
 10
161.4446753676
 20
82.101007169
  0
LWPOLYLINE
  5
3CC
100
AcDbEntity
  8
RACCORDO
100
AcDbPolyline
 62
7
  6
CONTINUOUS
 90
6
 70
0
 10
159.7393690844
 20
83.347679381
 10
159.7416363348
 20
83.3812671676
 10
159.7484738708
 20
83.4145320185
 10
159.7598345212
 20
83.4467444317
 10
159.7755430903
 20
83.4772109434
 10
159.7968327761
 20
83.5071464979
  0
LINE
  5
3CD
100
AcDbEntity
  8
DRAFT
100
AcDbLine
 62
7
  6
CONTINUOUS
 10
162.4705930599
 20
120.6736322804
 11
160.7079420888
 21
102.5421794376
  0
LWPOLYLINE
  5
3CE
100
AcDbEntity
  8
RACCORDO
100
AcDbPolyline
 62
7
  6
CONTINUOUS
 90
3
 70
0
 10
163.7005776408
 20
124.9938334837
 10
163.7039969872
 20
125.0263117444
 10
163.7041923113
 20
125.0361811458
  0
LWPOLYLINE
  5
3CF
100
AcDbEntity
  8
RACCORDO
100
AcDbPolyline
 62
253
  6
CONTINUOUS
 90
7
 70
0
 10
163.7041923123
 20
125.3875062099
 10
163.7021548429
 20
125.3715799592
 10
163.6958289813
 20
125.3554448739
 10
163.6853268313
 20
125.3398700118
 10
163.6708362921
 20
125.3251255641
 10
163.6526108648
 20
125.3114633427
 10
163.6309690076
 20
125.2991178744
  0
LWPOLYLINE
  5
3D0
100
AcDbEntity
  8
RACCORDO
100
AcDbPolyline
 62
253
  6
CONTINUOUS
 90
7
 70
0
 10
163.7041923113
 20
125.0361811458
 10
163.7020008291
 20
125.0196775672
 10
163.6955486754
 20
125.003607338
 10
163.6849746512
 20
124.9881310598
 10
163.6704989282
 20
124.9735195927
 10
163.652386925
 20
124.9600035116
 10
163.6309690076
 20
124.9478039024
  0
LINE
  5
3D1
100
AcDbEntity
  8
0
100
AcDbLine
 62
7
  6
CONTINUOUS
 10
161.2268059515
 20
130.9344613473
 11
159.3795350479
 21
130.6170436782
  0
LWPOLYLINE
  5
3D2
100
AcDbEntity
  8
21814000
100
AcDbPolyline
 62
7
  6
CONTINUOUS
 90
7
 70
0
 10
162.8211370871
 20
130.9640559453
 10
162.800165141
 20
130.9611662132
 10
162.7803997922
 20
130.9606037955
 10
162.7618410408
 20
130.9623686923
 10
162.7444888866
 20
130.9664609034
 10
162.7283433298
 20
130.972880429
 10
162.7134043703
 20
130.9816272689
  0
LINE
  5
3D3
100
AcDbEntity
  8
RACCORDO
100
AcDbLine
 62
253
  6
CONTINUOUS
 10
161.509648664
 20
123.8871437306
 11
162.0399787499
 21
123.7773087735
  0
LWPOLYLINE
  5
3D4
100
AcDbEntity
  8
RACCORDO
100
AcDbPolyline
 62
253
  6
CONTINUOUS
 90
4
 70
0
 10
160.3758096711
 20
123.9268172663
 10
160.3942899464
 20
123.9190798068
 10
160.4124962568
 20
123.9144589765
 10
160.4301170877
 20
123.9130338424
  0
LWPOLYLINE
  5
3D5
100
AcDbEntity
  8
RACCORDO
100
AcDbPolyline
 62
253
  6
CONTINUOUS
 90
16
 70
0
 10
161.8632020546
 20
123.1887936614
 10
161.8828090933
 20
123.1799314153
 10
161.9040949544
 20
123.1721042343
 10
161.9268087669
 20
123.1653867711
 10
161.9506712387
 20
123.1598389674
 10
161.9754264751
 20
123.1555054128
 10
162.0008508698
 20
123.1524239552
 10
162.0266535691
 20
123.1506185342
 10
162.0525692726
 20
123.1500982491
 10
162.0784139414
 20
123.1508797721
 10
162.1039282405
 20
123.1529599094
 10
162.1288080226
 20
123.1563207491
 10
162.1528000005
 20
123.1609537983
 10
162.1756361702
 20
123.1668230207
 10
162.1970400669
 20
123.1738603697
 10
162.2167554452
 20
123.1819912231
  0
LWPOLYLINE
  5
3D6
100
AcDbEntity
  8
RACCORDO
100
AcDbPolyline
 62
253
  6
CONTINUOUS
 90
7
 70
0
 10
161.7193125554
 20
122.943670211
 10
161.7458969324
 20
122.931464988
 10
161.7737334405
 20
122.9204433327
 10
161.8028220796
 20
122.9106052453
 10
161.8331628498
 20
122.9019507256
 10
161.864755751
 20
122.8944797738
 10
161.8976007833
 20
122.8881923897
  0
LINE
  5
3D7
100
AcDbEntity
  8
DRAFT
100
AcDbLine
 62
7
  6
CONTINUOUS
 10
161.9397798545
 20
120.9390388831
 11
162.4705930599
 21
120.6736322804
  0
LINE
  5
3D8
100
AcDbEntity
  8
26814000
100
AcDbLine
 62
7
  6
CONTINUOUS
 10
130.0080415621
 20
137.8639273998
 11
145.7765227826
 21
129.9796867896
  0
LINE
  5
3D9
100
AcDbEntity
  8
290140000
100
AcDbLine
 62
7
  6
CONTINUOUS
 10
145.8180240193
 20
129.9941964618
 11
161.4527631885
 21
122.1768268772
  0
LINE
  5
3DA
100
AcDbEntity
  8
DRAFT
100
AcDbLine
 62
7
  6
CONTINUOUS
 10
146.3085253138
 20
129.9848019257
 11
162.0029509656
 21
122.1375890998
  0
LINE
  5
3DB
100
AcDbEntity
  8
26814000
100
AcDbLine
 62
7
  6
CONTINUOUS
 10
145.5290354092
 20
130.4309464148
 11
130.2555289356
 21
138.0676996516
  0
LINE
  5
3DC
100
AcDbEntity
  8
RACCORDO
100
AcDbLine
 62
7
  6
CONTINUOUS
 10
161.6492360149
 20
122.7735267848
 11
146.6622402644
 21
130.26702466
  0
LINE
  5
3DD
100
AcDbEntity
  8
RACCORDO
100
AcDbLine
 62
253
  6
CONTINUOUS
 10
148.3549943909
 20
129.6258292932
 11
147.0114915067
 21
130.2975807354
  0
LINE
  5
3DE
100
AcDbEntity
  8
RACCORDO
100
AcDbLine
 62
253
  6
CONTINUOUS
 10
160.3758096711
 20
123.6154216531
 11
161.7193125554
 21
122.943670211
  0
LINE
  5
3DF
100
AcDbEntity
  8
26814000
100
AcDbLine
 62
7
  6
CONTINUOUS
 10
146.0885500938
 20
130.8658535429
 11
144.4745459778
 21
131.6728556009
  0
LINE
  5
3E0
100
AcDbEntity
  8
26814000
100
AcDbLine
 62
7
  6
CONTINUOUS
 10
132.7242319293
 20
137.5480126251
 11
131.1102278133
 21
138.3550146831
  0
LINE
  5
3E1
100
AcDbEntity
  8
RACCORDO
100
AcDbLine
 62
253
  6
CONTINUOUS
 10
148.4988838902
 20
129.8709527436
 11
147.1553810059
 21
130.5427041858
  0
LINE
  5
3E2
100
AcDbEntity
  8
RACCORDO
100
AcDbLine
 62
253
  6
CONTINUOUS
 10
160.5196991703
 20
123.8605451035
 11
161.8632020546
 21
123.1887936614
  0
LWPOLYLINE
  5
3E3
100
AcDbEntity
  8
RACCORDO
100
AcDbPolyline
 62
253
  6
CONTINUOUS
 90
7
 70
0
 10
147.0114915067
 20
130.2975807354
 10
146.987127778
 20
130.3108486997
 10
146.965212119
 20
130.3247013957
 10
146.9457445297
 20
130.3391388233
 10
146.9287250099
 20
130.3541609826
 10
146.9141535598
 20
130.3697678735
 10
146.9020301793
 20
130.385959496
  0
LWPOLYLINE
  5
3E4
100
AcDbEntity
  8
RACCORDO
100
AcDbPolyline
 62
253
  6
CONTINUOUS
 90
8
 70
0
 10
147.1553810059
 20
130.5427041858
 10
147.1376965516
 20
130.5524928973
 10
147.1222347759
 20
130.5630544988
 10
147.1091456075
 20
130.5742623692
 10
147.0985544632
 20
130.5859744586
 10
147.0905462862
 20
130.5980630515
 10
147.0851771469
 20
130.6104183152
 10
147.0824910827
 20
130.622889839
  0
LWPOLYLINE
  5
3E5
100
AcDbEntity
  8
RACCORDO
100
AcDbPolyline
 62
253
  6
CONTINUOUS
 90
9
 70
0
 10
146.5132475501
 20
131.1058357903
 10
146.5035866431
 20
131.1114061598
 10
146.4894297069
 20
131.1227603652
 10
146.477106375
 20
131.1369645606
 10
146.4668110601
 20
131.1538072848
 10
146.4587204915
 20
131.1729542487
 10
146.4529188021
 20
131.19407339
 10
146.44943319
 20
131.2168825888
 10
146.4482742247
 20
131.2410542549
  0
LWPOLYLINE
  5
3E6
100
AcDbEntity
  8
RACCORDO
100
AcDbPolyline
 62
253
  6
CONTINUOUS
 90
9
 70
0
 10
147.8567504344
 20
130.4340843482
 10
147.8470895274
 20
130.4396547177
 10
147.8329325912
 20
130.4510089231
 10
147.8206092592
 20
130.4652131185
 10
147.8103139443
 20
130.4820558427
 10
147.8022233757
 20
130.5012028066
 10
147.7964216863
 20
130.5223219479
 10
147.7929360743
 20
130.5451311466
 10
147.791777109
 20
130.5693028128
  0
LWPOLYLINE
  5
3E7
100
AcDbEntity
  8
RACCORDO
100
AcDbPolyline
 62
7
  6
CONTINUOUS
 90
4
 70
0
 10
149.6446596192
 20
130.2429073506
 10
149.6450498737
 20
130.2425093329
 10
149.6449213006
 20
130.2427118894
 10
149.6428495517
 20
130.2458033169
  0
LINE
  5
3E8
100
AcDbEntity
  8
21814000
100
AcDbLine
 62
253
  6
CONTINUOUS
 10
153.0171587599
 20
137.968182776
 11
153.4317362716
 21
136.8926042358
  0
LINE
  5
3E9
100
AcDbEntity
  8
0
100
AcDbLine
 62
7
  6
CONTINUOUS
 10
154.5764405998
 20
135.3925391878
 11
154.3749412418
 21
135.9882636136
  0
LWPOLYLINE
  5
3EA
100
AcDbEntity
  8
RACCORDO
100
AcDbPolyline
 62
253
  6
CONTINUOUS
 90
7
 70
0
 10
159.7393690844
 20
124.9985975046
 10
159.7416708287
 20
124.9816743269
 10
159.748275589
 20
124.965529659
 10
159.7589817732
 20
124.9500648054
 10
159.7734832262
 20
124.9355631839
 10
159.7914771692
 20
124.922212301
 10
159.8125923892
 20
124.9102091448
  0
LINE
  5
3EB
100
AcDbEntity
  8
RACCORDO
100
AcDbLine
 62
7
  6
CONTINUOUS
 10
164.1612990934
 20
85.2589715417
 11
164.1612990934
 21
123.1602554284
  0
LINE
  5
3EC
100
AcDbEntity
  8
RACCORDO
100
AcDbLine
 62
7
  6
CONTINUOUS
 10
164.3054942869
 20
129.2656552648
 11
164.3054942869
 21
128.3653001641
  0
LWPOLYLINE
  5
3ED
100
AcDbEntity
  8
RACCORDO
100
AcDbPolyline
 62
253
  6
CONTINUOUS
 90
10
 70
0
 10
163.5231974513
 20
84.9374605025
 10
163.5219501432
 20
84.89349891
 10
163.5169096329
 20
84.8519902199
 10
163.5081311662
 20
84.8133893847
 10
163.4957109582
 20
84.7781194853
 10
163.4797851392
 20
84.7465670943
 10
163.4605282624
 20
84.719078039
 10
163.4381513907
 20
84.6959536104
 10
163.4128997835
 20
84.677447262
 10
163.4008509746
 20
84.6707723928
  0
LWPOLYLINE
  5
3EE
100
AcDbEntity
  8
RACCORDO
100
AcDbPolyline
 62
253
  6
CONTINUOUS
 90
8
 70
0
 10
163.6309690076
 20
83.2968857909
 10
163.6294444679
 20
83.2692751349
 10
163.6248949602
 20
83.2436564039
 10
163.617395782
 20
83.2204741995
 10
163.607071995
 20
83.2001296334
 10
163.5940998405
 20
83.1829805644
 10
163.5787067701
 20
83.1693314364
 10
163.5659703512
 20
83.1616546656
  0
LWPOLYLINE
  5
3EF
100
AcDbEntity
  8
RACCORDO
100
AcDbPolyline
 62
253
  6
CONTINUOUS
 90
3
 70
0
 10
162.9259435425
 20
84.3987338044
 10
162.924370051
 20
84.3859358467
 10
162.9238622264
 20
84.3684688001
  0
LINE
  5
3F0
100
AcDbEntity
  8
RACCORDO
100
AcDbLine
 62
253
  6
CONTINUOUS
 10
162.9949467464
 20
84.116718946
 11
162.9970855311
 21
84.13303472
  0
LINE
  5
3F1
100
AcDbEntity
  8
RACCORDO
100
AcDbLine
 62
253
  6
CONTINUOUS
 10
147.0733872781
 20
130.5955960207
 11
147.0600370238
 21
130.5953088455
  0
LWPOLYLINE
  5
3F2
100
AcDbEntity
  8
RACCORDO
100
AcDbPolyline
 62
253
  6
CONTINUOUS
 90
4
 70
0
 10
149.6288347173
 20
130.2582243929
 10
149.6451404041
 20
130.2562201846
 10
149.6623801714
 20
130.2573458436
 10
149.6802655516
 20
130.261582525
  0
LINE
  5
3F3
100
AcDbEntity
  8
RACCORDO
100
AcDbLine
 62
7
  6
CONTINUOUS
 10
147.9178530517
 20
130.4128862714
 11
148.4481831376
 21
130.3030513144
  0
LINE
  5
3F4
100
AcDbEntity
  8
RACCORDO
100
AcDbLine
 62
253
  6
CONTINUOUS
 10
148.1453304996
 20
130.5693028128
 11
148.6756605855
 21
130.4594678557
  0
LINE
  5
3F5
100
AcDbEntity
  8
26814000
100
AcDbLine
 62
7
  6
CONTINUOUS
 10
146.0885500938
 20
131.5030231016
 11
145.4662320617
 21
131.6329636841
  0
LWPOLYLINE
  5
3F6
100
AcDbEntity
  8
RACCORDO
100
AcDbPolyline
 62
7
  6
CONTINUOUS
 90
8
 70
0
 10
162.2224928269
 20
126.282864462
 10
162.1942062317
 20
126.2948940271
 10
162.1642190306
 20
126.303458996
 10
162.1330444477
 20
126.3082561644
 10
162.1011398039
 20
126.3090751471
 10
162.0692549156
 20
126.3058001074
 10
162.0382473849
 20
126.2985318801
 10
162.0082873343
 20
126.2873228951
  0
LWPOLYLINE
  5
3F7
100
AcDbEntity
  8
RACCORDO
100
AcDbPolyline
 62
7
  6
CONTINUOUS
 90
25
 70
0
 10
157.6225918471
 20
126.6761581559
 10
157.6467542082
 20
126.6648667623
 10
157.6721100927
 20
126.6544698792
 10
157.6986595007
 20
126.6449675065
 10
157.7265268937
 20
126.6363264677
 10
157.7555878102
 20
126.6285799392
 10
157.7854688651
 20
126.6218274514
 10
157.8161806412
 20
126.616081831
 10
157.8477125557
 20
126.6113302511
 10
157.8796594754
 20
126.6076337619
 10
157.9120267554
 20
126.6050059778
 10
157.9448090405
 20
126.6034332842
 10
157.9775851323
 20
126.6029358879
 10
158.0103549509
 20
126.6035276638
 10
158.0431185763
 20
126.605194737
 10
158.0754550496
 20
126.6079156881
 10
158.1073588592
 20
126.611704116
 10
158.1388355167
 20
126.6165464219
 10
158.169480599
 20
126.6223803901
 10
158.1992833756
 20
126.6292188167
 10
158.228254577
 20
126.6370489056
 10
158.2560219707
 20
126.6457700531
 10
158.2824614795
 20
126.6553487245
 10
158.3076971806
 20
126.6658184545
 10
158.3317290742
 20
126.677179243
  0
LWPOLYLINE
  5
3F8
100
AcDbEntity
  8
RACCORDO
100
AcDbPolyline
 62
253
  6
CONTINUOUS
 90
3
 70
0
 10
149.6115227105
 20
130.2643866574
 10
149.6137359521
 20
130.2633249423
 10
149.6288347173
 20
130.2582243929
  0
LINE
  5
3F9
100
AcDbEntity
  8
26814000
100
AcDbLine
 62
7
  6
CONTINUOUS
 10
136.0566878101
 20
136.2391169199
 11
141.8491968782
 21
133.3428623859
  0
LINE
  5
3FA
100
AcDbEntity
  8
RACCORDO
100
AcDbLine
 62
7
  6
CONTINUOUS
 10
157.6225918471
 20
125.4788391203
 11
152.1030979946
 21
128.2385860465
  0
LINE
  5
3FB
100
AcDbEntity
  8
RACCORDO
100
AcDbLine
 62
7
  6
CONTINUOUS
 10
161.2210685698
 20
123.7519252805
 11
159.8775656856
 21
124.4236767226
  0
LINE
  5
3FC
100
AcDbEntity
  8
RACCORDO
100
AcDbLine
 62
7
  6
CONTINUOUS
 10
147.8567504054
 20
130.4340843627
 11
146.5132475211
 21
131.1058358048
  0
LINE
  5
3FD
100
AcDbEntity
  8
26814000
100
AcDbLine
 62
7
  6
CONTINUOUS
 10
130.4718296051
 20
139.1265447629
 11
132.0783631681
 21
138.3232779813
  0
LINE
  5
3FE
100
AcDbEntity
  8
26814000
100
AcDbLine
 62
7
  6
CONTINUOUS
 10
143.8361477695
 20
132.4443856807
 11
145.4426813325
 21
131.6411188991
  0
LINE
  5
3FF
100
AcDbEntity
  8
RACCORDO
100
AcDbLine
 62
253
  6
CONTINUOUS
 10
148.0902208225
 20
130.3771877372
 11
148.4988838902
 21
130.1728562034
  0
LINE
  5
400
100
AcDbEntity
  8
RACCORDO
100
AcDbLine
 62
253
  6
CONTINUOUS
 10
161.4545389869
 20
123.695028655
 11
161.8632020546
 21
123.4906971212
  0
LINE
  5
401
100
AcDbEntity
  8
RACCORDO
100
AcDbLine
 62
253
  6
CONTINUOUS
 10
161.1560952734
 20
123.8871437306
 11
159.8125923892
 21
124.5588951727
  0
LINE
  5
402
100
AcDbEntity
  8
RACCORDO
100
AcDbLine
 62
253
  6
CONTINUOUS
 10
147.791777109
 20
130.5693028128
 11
146.4482742247
 21
131.2410542549
  0
LINE
  5
403
100
AcDbEntity
  8
26814000
100
AcDbLine
 62
253
  6
CONTINUOUS
 10
130.4072348591
 20
139.2615739378
 11
132.0130113212
 21
138.4586857067
  0
LINE
  5
404
100
AcDbEntity
  8
26814000
100
AcDbLine
 62
253
  6
CONTINUOUS
 10
143.7715530235
 20
132.5794148555
 11
145.3773294857
 21
131.7765266245
  0
LINE
  5
405
100
AcDbEntity
  8
26814000
100
AcDbLine
 62
253
  6
CONTINUOUS
 10
145.3773294857
 20
132.0298980182
 11
143.7715530235
 21
132.8327862493
  0
LINE
  5
406
100
AcDbEntity
  8
26814000
100
AcDbLine
 62
253
  6
CONTINUOUS
 10
132.0130113212
 20
138.7120571004
 11
130.4072348591
 21
139.5149453315
  0
LINE
  5
407
100
AcDbEntity
  8
RACCORDO
100
AcDbLine
 62
253
  6
CONTINUOUS
 10
146.4482742247
 20
131.592368227
 11
147.791777109
 21
130.9206167849
  0
LINE
  5
408
100
AcDbEntity
  8
RACCORDO
100
AcDbLine
 62
253
  6
CONTINUOUS
 10
159.8125923892
 20
124.9102091448
 11
161.1560952734
 21
124.2384577027
  0
LINE
  5
409
100
AcDbEntity
  8
26814000
100
AcDbLine
 62
7
  6
CONTINUOUS
 10
133.7910628415
 20
138.0865938746
 11
135.9688198445
 21
136.9977153731
  0
LINE
  5
40A
100
AcDbEntity
  8
26814000
100
AcDbLine
 62
7
  6
CONTINUOUS
 10
142.7713189626
 20
133.5964658141
 11
143.8524409137
 21
133.0559048385
  0
LINE
  5
40B
100
AcDbEntity
  8
26814000
100
AcDbLine
 62
253
  6
CONTINUOUS
 10
145.5541002151
 20
132.3337635964
 11
143.946278806
 21
133.137674301
  0
LINE
  5
40C
100
AcDbEntity
  8
26814000
100
AcDbLine
 62
253
  6
CONTINUOUS
 10
132.1897820507
 20
139.0159226787
 11
130.5819606416
 21
139.8198333832
  0
LINE
  5
40D
100
AcDbEntity
  8
RACCORDO
100
AcDbLine
 62
253
  6
CONTINUOUS
 10
163.0628154396
 20
123.5867002468
 11
163.0032670815
 21
123.6164744259
  0
LINE
  5
40E
100
AcDbEntity
  8
RACCORDO
100
AcDbLine
 62
253
  6
CONTINUOUS
 10
149.6389307156
 20
130.2986426088
 11
149.6984972752
 21
130.268859329
  0
LINE
  5
40F
100
AcDbEntity
  8
RACCORDO
100
AcDbLine
 62
253
  6
CONTINUOUS
 10
146.62505092
 20
131.8972629256
 11
147.9685538043
 21
131.2255114835
  0
LINE
  5
410
100
AcDbEntity
  8
RACCORDO
100
AcDbLine
 62
253
  6
CONTINUOUS
 10
159.9893690844
 20
125.2151038434
 11
161.3328719687
 21
124.5433524013
  0
LINE
  5
411
100
AcDbEntity
  8
26814000
100
AcDbLine
 62
7
  6
CONTINUOUS
 10
136.0566878101
 20
137.454071786
 11
141.8491968782
 21
134.5578172519
  0
LINE
  5
412
100
AcDbEntity
  8
RACCORDO
100
AcDbLine
 62
7
  6
CONTINUOUS
 10
157.6225918471
 20
126.6761581559
 11
152.1030979946
 21
129.4359050821
  0
LINE
  5
413
100
AcDbEntity
  8
RACCORDO
100
AcDbLine
 62
7
  6
CONTINUOUS
 10
149.6921114382
 20
130.8280598278
 11
151.1028363858
 21
130.122697354
  0
LINE
  5
414
100
AcDbEntity
  8
RACCORDO
100
AcDbLine
 62
7
  6
CONTINUOUS
 10
163.0564296026
 20
124.1459007456
 11
163.8075841428
 21
123.7703234755
  0
LINE
  5
415
100
AcDbEntity
  8
26814000
100
AcDbLine
 62
7
  6
CONTINUOUS
 10
135.3223369585
 20
138.0205059081
 11
133.8398589551
 21
138.7617449098
  0
LINE
  5
416
100
AcDbEntity
  8
26814000
100
AcDbLine
 62
7
  6
CONTINUOUS
 10
136.5487792881
 20
137.9201712166
 11
142.7713189626
 21
134.8089013794
  0
LINE
  5
417
100
AcDbEntity
  8
26814000
100
AcDbLine
 62
7
  6
CONTINUOUS
 10
132.1647172448
 20
140.6318174805
 11
133.7910628415
 21
139.8186446822
  0
LINE
  5
418
100
AcDbEntity
  8
26814000
100
AcDbLine
 62
7
  6
CONTINUOUS
 10
145.5290354092
 20
133.9496583983
 11
147.1553810059
 21
133.1364855999
  0
LINE
  5
419
100
AcDbEntity
  8
26814000
100
AcDbLine
 62
7
  6
CONTINUOUS
 10
137.8922821724
 20
137.9504881672
 11
142.8420296407
 21
135.4756144331
  0
LINE
  5
41A
100
AcDbEntity
  8
0
100
AcDbLine
 62
7
  6
CONTINUOUS
 10
158.7519322174
 20
127.5257015331
 11
153.8021847491
 21
130.0005752673
  0
LINE
  5
41B
100
AcDbEntity
  8
RACCORDO
100
AcDbLine
 62
253
  6
CONTINUOUS
 10
160.5020595622
 20
123.8703061807
 11
160.5196991703
 21
123.8605451035
  0
LWPOLYLINE
  5
41C
100
AcDbEntity
  8
RACCORDO
100
AcDbPolyline
 62
253
  6
CONTINUOUS
 90
16
 70
0
 10
149.6984972752
 20
130.268859329
 10
149.7306954661
 20
130.2508076948
 10
149.7584391115
 20
130.2317804274
 10
149.7817282112
 20
130.2117775267
 10
149.8006770708
 20
130.1905650028
 10
149.8151713848
 20
130.1683768456
 10
149.8248682366
 20
130.1459150252
 10
149.8296515297
 20
130.123194695
 10
149.8296373606
 20
130.1002007016
 10
149.8248311013
 20
130.0775895556
 10
149.815118732
 20
130.0553509001
 10
149.8006142725
 20
130.0334950919
 10
149.781665154
 20
130.0127097113
 10
149.7583871868
 20
129.9932239519
 10
149.7306645605
 20
129.97480862
 10
149.6984972752
 20
129.9574637158
  0
LWPOLYLINE
  5
41D
100
AcDbEntity
  8
21814000
100
AcDbPolyline
 62
253
  6
CONTINUOUS
 90
15
 70
0
 10
143.0408300751
 20
136.4372544619
 10
143.0744120515
 20
136.4180113359
 10
143.1037286396
 20
136.3963879331
 10
143.1287798392
 20
136.3723842533
 10
143.1497690313
 20
136.3457519046
 10
143.166492835
 20
136.3167392791
 10
143.1783411081
 20
136.2860915526
 10
143.1851979018
 20
136.253731605
 10
143.1871791648
 20
136.2197365565
 10
143.184022602
 20
136.1850829443
 10
143.1755598627
 20
136.1497168556
 10
143.1619592976
 20
136.1136922032
 10
143.1434636628
 20
136.0781472623
 10
143.1201538772
 20
136.0434614578
 10
143.091949022
 20
136.0092553647
  0
LWPOLYLINE
  5
41E
100
AcDbEntity
  8
RACCORDO
100
AcDbPolyline
 62
253
  6
CONTINUOUS
 90
9
 70
0
 10
159.8775657145
 20
124.4236767081
 10
159.8679048075
 20
124.4292470776
 10
159.8537478714
 20
124.440601283
 10
159.8414245394
 20
124.4548054784
 10
159.8311292245
 20
124.4716482026
 10
159.8230386559
 20
124.4907951665
 10
159.8172369665
 20
124.5119143078
 10
159.8137513545
 20
124.5347235066
 10
159.8125923892
 20
124.5588951727
  0
LWPOLYLINE
  5
41F
100
AcDbEntity
  8
RACCORDO
100
AcDbPolyline
 62
253
  6
CONTINUOUS
 90
9
 70
0
 10
161.2210685988
 20
123.751925266
 10
161.2114076918
 20
123.7574956355
 10
161.1972507556
 20
123.7688498409
 10
161.1849274237
 20
123.7830540363
 10
161.1746321088
 20
123.7998967604
 10
161.1665415401
 20
123.8190437244
 10
161.1607398507
 20
123.8401628657
 10
161.1572542387
 20
123.8629720644
 10
161.1560952734
 20
123.8871437306
  0
LWPOLYLINE
  5
420
100
AcDbEntity
  8
RACCORDO
100
AcDbPolyline
 62
253
  6
CONTINUOUS
 90
13
 70
0
 10
161.3328719687
 20
124.5433524013
 10
161.3554327349
 20
124.5303015928
 10
161.3777805893
 20
124.513795235
 10
161.3995329373
 20
124.4940385644
 10
161.420350883
 20
124.4712452636
 10
161.4397979311
 20
124.4457932135
 10
161.4573864266
 20
124.4182742946
 10
161.4727794969
 20
124.3892320963
 10
161.4857516514
 20
124.3591108728
 10
161.4960754385
 20
124.3284425196
 10
161.5035746167
 20
124.297761137
 10
161.5081241243
 20
124.2675928983
 10
161.509648664
 20
124.2384577027
  0
LWPOLYLINE
  5
421
100
AcDbEntity
  8
RACCORDO
100
AcDbPolyline
 62
253
  6
CONTINUOUS
 90
13
 70
0
 10
147.9685538043
 20
131.2255114835
 10
147.9916277932
 20
131.2121222472
 10
148.0143069798
 20
131.1952576207
 10
148.0362033168
 20
131.1752061626
 10
148.0569421519
 20
131.1523109587
 10
148.0761686379
 20
131.1269637524
 10
148.0935538043
 20
131.0995982415
 10
148.108800186
 20
131.0706826573
 10
148.1216469132
 20
131.0407117535
 10
148.1318741749
 20
131.0101983407
 10
148.1393069798
 20
130.9796645118
 10
148.1438181504
 20
130.949632709
 10
148.1453304996
 20
130.9206167849
  0
LWPOLYLINE
  5
422
100
AcDbEntity
  8
RACCORDO
100
AcDbPolyline
 62
253
  6
CONTINUOUS
 90
13
 70
0
 10
150.0898741478
 20
132.2861716553
 10
150.1129481367
 20
132.272782419
 10
150.1356273233
 20
132.2559177925
 10
150.1575236604
 20
132.2358663343
 10
150.1782624955
 20
132.2129711305
 10
150.1974889815
 20
132.1876239242
 10
150.2148741478
 20
132.1602584132
 10
150.2301205295
 20
132.131342829
 10
150.2429672568
 20
132.1013719253
 10
150.2531945184
 20
132.0708585125
 10
150.2606273233
 20
132.0403246836
 10
150.265138494
 20
132.0102928808
 10
150.2666508431
 20
131.9812769567
  0
LWPOLYLINE
  5
423
100
AcDbEntity
  8
RACCORDO
100
AcDbPolyline
 62
253
  6
CONTINUOUS
 90
16
 70
0
 10
161.8975974797
 20
122.8881908618
 10
161.9338969514
 20
122.8670056233
 10
161.9697234161
 20
122.8412728408
 10
162.0046843447
 20
122.8112762367
 10
162.0383948033
 20
122.7773471196
 10
162.0704880473
 20
122.7398578965
 10
162.1006188512
 20
122.6992166329
 10
162.1284588532
 20
122.6558671984
 10
162.1537009862
 20
122.6102857331
 10
162.1760687327
 20
122.5629716882
 10
162.1953169445
 20
122.5144434655
 10
162.2112346663
 20
122.4652327866
 10
162.2236475554
 20
122.4158788934
 10
162.2324195786
 20
122.3669225697
 10
162.237454507
 20
122.3189002161
 10
162.2386971022
 20
122.2723380187
  0
LWPOLYLINE
  5
424
100
AcDbEntity
  8
RACCORDO
100
AcDbPolyline
 62
253
  6
CONTINUOUS
 90
16
 70
0
 10
163.18203903
 20
123.4814250311
 10
163.2183181831
 20
123.4602477889
 10
163.2541320614
 20
123.4345235723
 10
163.2890881302
 20
123.4045343297
 10
163.3228032569
 20
123.3706087558
 10
163.35490791
 20
123.3331186893
 10
163.3850502097
 20
123.2924750371
 10
163.4128997842
 20
123.2491232708
 10
163.438151391
 20
123.2035385441
 10
163.4605282624
 20
123.1562204846
 10
163.479785139
 20
123.1076877184
 10
163.4957109579
 20
123.0584721848
 10
163.5081311658
 20
123.009113307
 10
163.5169096326
 20
122.9601520789
 10
163.521950143
 20
122.9121251362
 10
163.5231974514
 20
122.8655588745
  0
LWPOLYLINE
  5
425
100
AcDbEntity
  8
21814000
100
AcDbPolyline
 62
253
  6
CONTINUOUS
 90
9
 70
0
 10
142.9383897275
 20
136.2195388784
 10
142.9582709039
 20
136.2079248876
 10
142.9759326357
 20
136.1941804056
 10
142.9911842107
 20
136.1784157202
 10
143.0038487944
 20
136.1607219578
 10
143.0137924902
 20
136.1412576727
 10
143.0209071034
 20
136.1202443207
 10
143.02508352
 20
136.0977797075
 10
143.0262576568
 20
136.0771779565
  0
LWPOLYLINE
  5
426
100
AcDbEntity
  8
21814000
100
AcDbPolyline
 62
253
  6
CONTINUOUS
 90
13
 70
0
 10
141.5943057826
 20
136.7078006403
 10
141.6120167183
 20
136.6966787644
 10
141.6300848317
 20
136.6832742763
 10
141.648206593
 20
136.6678124083
 10
141.6660775784
 20
136.6505529489
 10
141.683397598
 20
136.6317858646
 10
141.6998757365
 20
136.6118264239
 10
141.7152352066
 20
136.5910099398
 10
141.7292180436
 20
136.5696860811
 10
141.7415894362
 20
136.5482129793
 10
141.7521416101
 20
136.5269513034
 10
141.7606973308
 20
136.506258204
 10
141.7671129143
 20
136.4864812538
  0
LWPOLYLINE
  5
427
100
AcDbEntity
  8
RACCORDO
100
AcDbPolyline
 62
253
  6
CONTINUOUS
 90
13
 70
0
 10
162.3074611858
 20
122.9715967645
 10
162.294312805
 20
122.9851294906
 10
162.2818230494
 20
122.9999693437
 10
162.2701214735
 20
123.0159633683
 10
162.2593290386
 20
123.032947447
 10
162.2495585629
 20
123.0507453561
 10
162.2409129905
 20
123.0691701971
 10
162.2334822124
 20
123.0880301656
 10
162.227342698
 20
123.1071309014
 10
162.2225580245
 20
123.1262746084
 10
162.2191777394
 20
123.1452630458
 10
162.2172368467
 20
123.1638995803
 10
162.2167554452
 20
123.1819912231
  0
LWPOLYLINE
  5
428
100
AcDbEntity
  8
RACCORDO
100
AcDbPolyline
 62
253
  6
CONTINUOUS
 90
13
 70
0
 10
162.3074611858
 20
122.9715967644
 10
162.3396848732
 20
122.9374226499
 10
162.3702613333
 20
122.8999850555
 10
162.3988738216
 20
122.8596718007
 10
162.4252259389
 20
122.8169004942
 10
162.449044701
 20
122.7721142079
 10
162.4700833673
 20
122.7257768869
 10
162.4881239964
 20
122.678368544
 10
162.5029797036
 20
122.6303802863
 10
162.5144965974
 20
122.5823092288
 10
162.5225553732
 20
122.5346533437
 10
162.5270725493
 20
122.4879063029
 10
162.5280013321
 20
122.4425523631
  0
LWPOLYLINE
  5
429
100
AcDbEntity
  8
26814000
100
AcDbPolyline
 62
7
  6
CONTINUOUS
 90
20
 70
0
 10
153.0258086118
 20
134.9700359807
 10
153.0244084602
 20
134.9721670455
 10
153.0226620339
 20
134.9744754929
 10
153.020580424
 20
134.9769651319
 10
153.0181754596
 20
134.9796425748
 10
153.0154553677
 20
134.9824777907
 10
153.0124304364
 20
134.9854743171
 10
153.0091119351
 20
134.9886373953
 10
153.0055077782
 20
134.9919393877
 10
153.0016279213
 20
134.9953833705
 10
152.9974832498
 20
134.9989736148
 10
152.9930820171
 20
135.0026841144
 10
152.9884336785
 20
135.0065177063
 10
152.9835492246
 20
135.0104775799
 10
152.9784388362
 20
135.0145380002
 10
152.9731119612
 20
135.0187012155
 10
152.9675797579
 20
135.0229695869
 10
152.9618552866
 20
135.0273170864
 10
152.9559501032
 20
135.0317359686
 10
152.9436370516
 20
135.0408210582
  0
LINE
  5
42A
100
AcDbEntity
  8
21814000
100
AcDbLine
 62
7
  6
CONTINUOUS
 10
154.3623327753
 20
133.1637706093
 11
153.6096386913
 21
134.4619758703
  0
LINE
  5
42B
100
AcDbEntity
  8
RACCORDO
100
AcDbLine
 62
7
  6
CONTINUOUS
 10
168.3599091762
 20
126.534494068
 11
168.3599091762
 21
125.6395312045
  0
LINE
  5
42C
100
AcDbEntity
  8
RACCORDO
100
AcDbLine
 62
7
  6
CONTINUOUS
 10
168.3599091762
 20
92.7232213065
 11
168.3599091762
 21
91.0814453164
  0
LWPOLYLINE
  5
42D
100
AcDbEntity
  8
RACCORDO
100
AcDbPolyline
 62
7
  6
CONTINUOUS
 90
8
 70
0
 10
168.3599091762
 20
125.6395312045
 10
168.3569858844
 20
125.5873012441
 10
168.3498396818
 20
125.5397149271
 10
168.3384705686
 20
125.4967722534
 10
168.3226066241
 20
125.4581765511
 10
168.3025197689
 20
125.4242244921
 10
168.2790257644
 20
125.3958060927
 10
168.2742209492
 20
125.3910955054
  0
LWPOLYLINE
  5
42E
100
AcDbEntity
  8
RACCORDO
100
AcDbPolyline
 62
253
  6
CONTINUOUS
 90
7
 70
0
 10
163.7041921539
 20
83.385133446
 10
163.7021548429
 20
83.3693478757
 10
163.6958289813
 20
83.3532127904
 10
163.6853268313
 20
83.3376379283
 10
163.6708362921
 20
83.3228934805
 10
163.6526108648
 20
83.3092312592
 10
163.6309690076
 20
83.2968857909
  0
LWPOLYLINE
  5
42F
100
AcDbEntity
  8
RACCORDO
100
AcDbPolyline
 62
253
  6
CONTINUOUS
 90
7
 70
0
 10
163.7041923123
 20
83.7365881106
 10
163.7020535276
 20
83.7202723366
 10
163.6956737688
 20
83.70423573
 10
163.6851621954
 20
83.6887526816
 10
163.6706986632
 20
83.6740881106
 10
163.6525306473
 20
83.660492932
 10
163.6309690076
 20
83.648199763
  0
LWPOLYLINE
  5
430
100
AcDbEntity
  8
21814000
100
AcDbPolyline
 62
253
  6
CONTINUOUS
 90
8
 70
0
 10
143.0588490972
 20
135.9755289831
 10
143.0400244242
 20
135.9826750436
 10
143.0221707638
 20
135.9872316954
 10
143.0055880198
 20
135.9891223961
 10
142.9905547469
 20
135.9883153862
 10
142.9773234723
 20
135.9848242217
 10
142.9661164532
 20
135.9787075467
 10
142.9620487262
 20
135.9753687432
  0
LWPOLYLINE
  5
431
100
AcDbEntity
  8
RACCORDO
100
AcDbPolyline
 62
253
  6
CONTINUOUS
 90
7
 70
0
 10
150.2014930446
 20
132.2933640997
 10
150.1968001102
 20
132.2955384298
 10
150.1773530622
 20
132.3015434319
 10
150.1565351165
 20
132.303518787
 10
150.1347827684
 20
132.3015231095
 10
150.1124349141
 20
132.295681613
 10
150.0898741478
 20
132.2861716553
  0
LWPOLYLINE
  5
432
100
AcDbEntity
  8
RACCORDO
100
AcDbPolyline
 62
253
  6
CONTINUOUS
 90
7
 70
0
 10
148.8581493025
 20
132.9650362194
 10
148.8532972259
 20
132.9672898719
 10
148.8338501779
 20
132.9732948741
 10
148.8130322322
 20
132.9752702292
 10
148.7912798842
 20
132.9732745517
 10
148.7689320298
 20
132.9674330551
 10
148.7463712636
 20
132.9579230974
  0
LINE
  5
433
100
AcDbEntity
  8
21814000
100
AcDbLine
 62
253
  6
CONTINUOUS
 10
142.6237547766
 20
137.5416768792
 11
142.6271956061
 21
137.5400636123
  0
LWPOLYLINE
  5
434
100
AcDbEntity
  8
RACCORDO
100
AcDbPolyline
 62
253
  6
CONTINUOUS
 90
7
 70
0
 10
163.5659957111
 20
125.6111130198
 10
163.5618071459
 20
125.6130796756
 10
163.5425806599
 20
125.6192003959
 10
163.5218418248
 20
125.6213567647
 10
163.4999454877
 20
125.6195118858
 10
163.4772663012
 20
125.6136973257
 10
163.4541923123
 20
125.604012573
  0
LWPOLYLINE
  5
435
100
AcDbEntity
  8
RACCORDO
100
AcDbPolyline
 62
253
  6
CONTINUOUS
 90
7
 70
0
 10
162.2224928269
 20
126.282864462
 10
162.2183042617
 20
126.2848311178
 10
162.1990777757
 20
126.290951838
 10
162.1783389405
 20
126.2931082068
 10
162.1564426035
 20
126.2912633279
 10
162.1337634169
 20
126.2854487678
 10
162.110689428
 20
126.2757640152
  0
LINE
  5
436
100
AcDbEntity
  8
RACCORDO
100
AcDbLine
 62
7
  6
CONTINUOUS
 10
148.8487733573
 20
132.9694819773
 11
148.8583362926
 21
132.9649425342
  0
LINE
  5
437
100
AcDbEntity
  8
26814000
100
AcDbLine
 62
253
  6
CONTINUOUS
 10
132.6991671234
 20
140.8921649471
 11
134.3193300132
 21
140.0820835022
  0
LINE
  5
438
100
AcDbEntity
  8
26814000
100
AcDbLine
 62
253
  6
CONTINUOUS
 10
146.0634852879
 20
134.2100058649
 11
147.6836481777
 21
133.39992442
  0
LINE
  5
439
100
AcDbEntity
  8
26814000
100
AcDbLine
 62
7
  6
CONTINUOUS
 10
132.8105847388
 20
140.8984335103
 11
134.429462317
 21
140.0889947212
  0
LINE
  5
43A
100
AcDbEntity
  8
26814000
100
AcDbLine
 62
7
  6
CONTINUOUS
 10
146.1749029032
 20
134.2162744281
 11
147.7937804814
 21
133.406835639
  0
LINE
  5
43B
100
AcDbEntity
  8
RACCORDO
100
AcDbLine
 62
253
  6
CONTINUOUS
 10
148.7463712636
 20
132.9579230974
 11
150.0898741478
 21
132.2861716553
  0
LINE
  5
43C
100
AcDbEntity
  8
RACCORDO
100
AcDbLine
 62
253
  6
CONTINUOUS
 10
162.110689428
 20
126.2757640152
 11
163.4541923123
 21
125.604012573
  0
LINE
  5
43D
100
AcDbEntity
  8
RACCORDO
100
AcDbLine
 62
7
  6
CONTINUOUS
 10
148.8581746625
 20
132.9650235442
 11
150.2016775467
 21
132.2932721021
  0
LINE
  5
43E
100
AcDbEntity
  8
RACCORDO
100
AcDbLine
 62
7
  6
CONTINUOUS
 10
162.2224928269
 20
126.282864462
 11
163.5659957111
 21
125.6111130198
  0
LINE
  5
43F
100
AcDbEntity
  8
21814000
100
AcDbLine
 62
253
  6
CONTINUOUS
 10
142.1799841289
 20
136.5987416778
 11
142.9383897275
 21
136.2195388784
  0
LINE
  5
440
100
AcDbEntity
  8
21814000
100
AcDbLine
 62
253
  6
CONTINUOUS
 10
142.2824244764
 20
136.8164572612
 11
143.0408300751
 21
136.4372544619
  0
LINE
  5
441
100
AcDbEntity
  8
21814000
100
AcDbLine
 62
7
  6
CONTINUOUS
 10
141.5692374354
 20
137.4168086425
 11
144.156191621
 21
136.1233315497
  0
LINE
  5
442
100
AcDbEntity
  8
21814000
100
AcDbLine
 62
253
  6
CONTINUOUS
 10
144.7635793375
 20
136.4226975535
 11
142.5389798474
 21
137.5349972985
  0
LINE
  5
443
100
AcDbEntity
  8
21814000
100
AcDbLine
 62
7
  6
CONTINUOUS
 10
144.8131064293
 20
136.4471082012
 11
142.627188448
 21
137.5400671918
  0
LINE
  5
444
100
AcDbEntity
  8
26814000
100
AcDbLine
 62
7
  6
CONTINUOUS
 10
145.3597053854
 20
136.7165129664
 11
142.5591869282
 21
138.116772195
  0
LINE
  5
445
100
AcDbEntity
  8
26814000
100
AcDbLine
 62
7
  6
CONTINUOUS
 10
142.2056335376
 20
138.8461070796
 11
142.5591869282
 21
138.6693303843
  0
LWPOLYLINE
  5
446
100
AcDbEntity
  8
RACCORDO
100
AcDbPolyline
 62
7
  6
CONTINUOUS
 90
10
 70
0
 10
150.2014930446
 20
132.2933640997
 10
150.2128857769
 20
132.2873074266
 10
150.2399714178
 20
132.2695923149
 10
150.2646023509
 20
132.2484670057
 10
150.2863538508
 20
132.2242477299
 10
150.3048617266
 20
132.1972597438
 10
150.3197659045
 20
132.1678985991
 10
150.3307261799
 20
132.1366749307
 10
150.3374841077
 20
132.1041516463
 10
150.3398739895
 20
132.0698059969
  0
LWPOLYLINE
  5
447
100
AcDbEntity
  8
RACCORDO
100
AcDbPolyline
 62
253
  6
CONTINUOUS
 90
13
 70
0
 10
163.4541923123
 20
125.604012573
 10
163.4767530785
 20
125.5909617646
 10
163.4991009329
 20
125.5744554067
 10
163.5208532809
 20
125.5546987362
 10
163.5416712266
 20
125.5319054354
 10
163.5611182746
 20
125.5064533852
 10
163.5787067701
 20
125.4789344664
 10
163.5940998405
 20
125.449892268
 10
163.607071995
 20
125.4197710445
 10
163.617395782
 20
125.3891026914
 10
163.6248949602
 20
125.3584213087
 10
163.6294444679
 20
125.3282530701
 10
163.6309690076
 20
125.2991178744
  0
LWPOLYLINE
  5
448
100
AcDbEntity
  8
RACCORDO
100
AcDbPolyline
 62
7
  6
CONTINUOUS
 90
10
 70
0
 10
163.5659957111
 20
125.6111130198
 10
163.5943304815
 20
125.5945346531
 10
163.6206619104
 20
125.5740203711
 10
163.6442947144
 20
125.5498671678
 10
163.6645674462
 20
125.522570241
 10
163.6809962774
 20
125.4926723836
 10
163.6932586038
 20
125.4606315135
 10
163.7010845338
 20
125.4268020239
 10
163.7041481171
 20
125.3922068208
 10
163.7041923085
 20
125.3875277784
  0
LWPOLYLINE
  5
449
100
AcDbEntity
  8
RACCORDO
100
AcDbPolyline
 62
253
  6
CONTINUOUS
 90
13
 70
0
 10
163.0180725508
 20
123.3067515182
 10
163.0044868659
 20
123.3202294037
 10
162.9915581009
 20
123.3351064201
 10
162.9794259522
 20
123.3512218184
 10
162.96822151
 20
123.368401466
 10
162.958065837
 20
123.3864597367
 10
162.9490686615
 20
123.4052015169
 10
162.9413271985
 20
123.4244243034
 10
162.9349250979
 20
123.4439203887
 10
162.9299315361
 20
123.4634791142
 10
162.92640047
 20
123.4828891449
 10
162.9243700536
 20
123.5019407533
 10
162.9238622264
 20
123.520428084
  0
LWPOLYLINE
  5
44A
100
AcDbEntity
  8
RACCORDO
100
AcDbPolyline
 62
253
  6
CONTINUOUS
 90
13
 70
0
 10
163.0180727566
 20
123.3067524158
 10
163.0513643954
 20
123.2727293256
 10
163.0830190204
 20
123.2352094695
 10
163.1126944001
 20
123.1945984828
 10
163.1400697024
 20
123.15133542
 10
163.1648489636
 20
123.1058880089
 10
163.1867642884
 20
123.0587475938
 10
163.2055787461
 20
123.0104238232
 10
163.2210889328
 20
122.9614391405
 10
163.2331271702
 20
122.9123231351
 10
163.2415633186
 20
122.8636068175
 10
163.2463061841
 20
122.8158168782
 10
163.2473045046
 20
122.7694699938
  0
LWPOLYLINE
  5
44B
100
AcDbEntity
  8
RACCORDO
100
AcDbPolyline
 62
7
  6
CONTINUOUS
 90
4
 70
0
 10
163.0090934378
 20
123.5606270424
 10
163.0094376052
 20
123.5602711964
 10
163.0092596321
 20
123.5605250429
 10
163.0072648586
 20
123.563491614
  0
LWPOLYLINE
  5
44C
100
AcDbEntity
  8
26814000
100
AcDbPolyline
 62
7
  6
CONTINUOUS
 90
17
 70
0
 10
153.0265255305
 20
135.5727938042
 10
152.9928882367
 20
135.6088559547
 10
152.9592046486
 20
135.6434946143
 10
152.9254747663
 20
135.6767097831
 10
152.8916298645
 20
135.7085170871
 10
152.8577386685
 20
135.7389009002
 10
152.8240073535
 20
135.7678143443
 10
152.7904555581
 20
135.7952335196
 10
152.7570636437
 20
135.8211823259
 10
152.7239788696
 20
135.8456855845
 10
152.6912165562
 20
135.8687292913
 10
152.6587613831
 20
135.8903274504
 10
152.6267146485
 20
135.9105468944
 10
152.595087509
 20
135.9293808084
 10
152.5638688079
 20
135.9468360074
 10
152.5331263736
 20
135.9629997689
 10
152.5258537416
 20
135.9666762159
  0
LWPOLYLINE
  5
44D
100
AcDbEntity
  8
RACCORDO
100
AcDbPolyline
 62
253
  6
CONTINUOUS
 90
7
 70
0
 10
163.1820391316
 20
123.481425078
 10
163.1704998134
 20
123.5009478247
 10
163.1556279764
 20
123.5196798173
 10
163.1374236205
 20
123.5376210558
 10
163.1158867457
 20
123.5547715402
 10
163.0910173521
 20
123.5711312706
 10
163.0628154396
 20
123.5867002468
  0
LWPOLYLINE
  5
44E
100
AcDbEntity
  8
RACCORDO
100
AcDbPolyline
 62
253
  6
CONTINUOUS
 90
7
 70
0
 10
163.1006389217
 20
124.3076388594
 10
163.110663567
 20
124.2896898702
 10
163.1174919896
 20
124.2735603422
 10
163.1210073532
 20
124.2595262563
 10
163.1211495091
 20
124.2478277395
 10
163.1179160249
 20
124.2386649567
 10
163.1163812645
 20
124.2365392139
  0
LWPOLYLINE
  5
44F
100
AcDbEntity
  8
RACCORDO
100
AcDbPolyline
 62
253
  6
CONTINUOUS
 90
6
 70
0
 10
163.6309690076
 20
124.9478039024
 10
163.6409936529
 20
124.9298549131
 10
163.6478220755
 20
124.9137253852
 10
163.6513374391
 20
124.8996912993
 10
163.651479595
 20
124.8879927825
 10
163.6482461108
 20
124.8788299996
  0
LWPOLYLINE
  5
450
100
AcDbEntity
  8
RACCORDO
100
AcDbPolyline
 62
7
  6
CONTINUOUS
 90
5
 70
0
 10
163.0072648586
 20
123.563491614
 10
163.0042807228
 20
123.5691617506
 10
163.0012274765
 20
123.5770258685
 10
162.9986622173
 20
123.5870757509
 10
162.9972214484
 20
123.5988919829
  0
LINE
  5
451
100
AcDbEntity
  8
21814000
100
AcDbLine
 62
7
  6
CONTINUOUS
 10
157.4347767913
 20
138.9578978296
 11
157.44389225
 21
138.9340040285
  0
LWPOLYLINE
  5
452
100
AcDbEntity
  8
21814000
100
AcDbPolyline
 62
253
  6
CONTINUOUS
 90
35
 70
0
 10
162.96599855
 20
132.5544353952
 10
162.9775960764
 20
132.5175604747
 10
162.9975335838
 20
132.4446466032
 10
163.0138475809
 20
132.3736748528
 10
163.0274433412
 20
132.3046085178
 10
163.038501098
 20
132.2376296485
 10
163.047028473
 20
132.1727061471
 10
163.0536281544
 20
132.1094545839
 10
163.0584405684
 20
132.0478958956
 10
163.0614601078
 20
131.9881010899
 10
163.0630322459
 20
131.929742385
 10
163.0632484248
 20
131.8727716556
 10
163.0621174778
 20
131.8172952623
 10
163.0598396498
 20
131.7632071604
 10
163.0564785042
 20
131.7104926469
 10
163.0520559281
 20
131.6592065225
 10
163.046701011
 20
131.609342586
 10
163.0404722715
 20
131.5609263424
 10
163.0333885034
 20
131.5139603876
 10
163.0255144197
 20
131.4684013425
 10
163.0169077355
 20
131.4242647164
 10
163.0075786999
 20
131.3815536063
 10
162.9975167814
 20
131.3402035781
 10
162.9867671897
 20
131.3001760212
 10
162.975343635
 20
131.2615209852
 10
162.9631876657
 20
131.2243053091
 10
162.9503352221
 20
131.1884782588
 10
162.9368053344
 20
131.1540975729
 10
162.9225181419
 20
131.1213920101
 10
162.907506684
 20
131.0903243652
 10
162.8917905857
 20
131.0609367206
 10
162.8752755014
 20
131.0335768503
 10
162.8579472234
 20
131.008362587
 10
162.8398663885
 20
130.9851816111
 10
162.8210505596
 20
130.964037078
  0
LINE
  5
453
100
AcDbEntity
  8
RACCORDO
100
AcDbLine
 62
7
  6
CONTINUOUS
 10
169.0936866312
 20
127.1961339525
 11
169.0936866312
 21
126.9144184671
  0
LINE
  5
454
100
AcDbEntity
  8
RACCORDO
100
AcDbLine
 62
7
  6
CONTINUOUS
 10
169.0936866312
 20
90.7145565889
 11
169.0936866312
 21
90.4328411035
  0
LWPOLYLINE
  5
455
100
AcDbEntity
  8
RACCORDO
100
AcDbPolyline
 62
253
  6
CONTINUOUS
 90
13
 70
0
 10
163.1006389217
 20
83.75803472
 10
163.110663567
 20
83.7890330529
 10
163.1174919896
 20
83.8210133448
 10
163.1210073532
 20
83.8534284041
 10
163.1211495091
 20
83.8857236001
 10
163.1179160249
 20
83.9173463532
 10
163.1113622264
 20
83.9477555892
 10
163.1016002509
 20
83.9764309976
 10
163.0887971285
 20
84.0028819343
 10
163.0731719242
 20
84.0266558164
 10
163.0549919896
 20
84.0473458662
 10
163.0345683884
 20
84.0645980713
 10
163.012250574
 20
84.0781172415
  0
LWPOLYLINE
  5
456
100
AcDbEntity
  8
RACCORDO
100
AcDbPolyline
 62
253
  6
CONTINUOUS
 90
5
 70
0
 10
163.6309690076
 20
83.648199763
 10
163.6409326411
 20
83.6789704358
 10
163.6477586029
 20
83.7107848055
 10
163.6513096616
 20
83.743108653
 10
163.6515020406
 20
83.7754169037
  0
LWPOLYLINE
  5
457
100
AcDbEntity
  8
RACCORDO
100
AcDbPolyline
 62
7
  6
CONTINUOUS
 90
9
 70
0
 10
160.3917531066
 20
84.2465009207
 10
160.4049930111
 20
84.2744879568
 10
160.4164979167
 20
84.3027115666
 10
160.4261550572
 20
84.3307408643
 10
160.433905913
 20
84.3581578696
 10
160.439693156
 20
84.3842949313
 10
160.4435995177
 20
84.4086862513
 10
160.4457949394
 20
84.4310899047
 10
160.4464758656
 20
84.4512327716
  0
LWPOLYLINE
  5
458
100
AcDbEntity
  8
21814000
100
AcDbPolyline
 62
7
  6
CONTINUOUS
 90
10
 70
0
 10
142.5017513246
 20
137.5719439487
 10
142.4206288662
 20
137.5836643034
 10
142.3383552471
 20
137.5915675546
 10
142.2555621856
 20
137.5956565181
 10
142.1726830148
 20
137.5959548153
 10
142.0899531848
 20
137.5924628199
 10
142.0079024385
 20
137.5851672223
 10
141.9270700069
 20
137.5740629233
 10
141.8476718037
 20
137.5590828705
 10
141.7701209735
 20
137.5401460214
  0
LWPOLYLINE
  5
459
100
AcDbEntity
  8
26814000
100
AcDbPolyline
 62
7
  6
CONTINUOUS
 90
13
 70
0
 10
152.279538642
 20
136.0540536878
 10
152.2448878321
 20
136.0604833689
 10
152.209683609
 20
136.0658665217
 10
152.1739637571
 20
136.0702286626
 10
152.1377384403
 20
136.0736225857
 10
152.1010707022
 20
136.0760523354
 10
152.0640744922
 20
136.0774635645
 10
152.0267874573
 20
136.0778736995
 10
151.9892364754
 20
136.0773098179
 10
151.9515157745
 20
136.0757178298
 10
151.9136763998
 20
136.0730887388
 10
151.8757272136
 20
136.0694667576
 10
151.8376977741
 20
136.0648719681
  0
LWPOLYLINE
  5
45A
100
AcDbEntity
  8
21814000
100
AcDbPolyline
 62
253
  6
CONTINUOUS
 90
13
 70
0
 10
142.5389798474
 20
137.5349972985
 10
142.4692576174
 20
137.5485720432
 10
142.3985158185
 20
137.5588355444
 10
142.3267544507
 20
137.5657878019
 10
142.2533150744
 20
137.5694381765
 10
142.1788561291
 20
137.5697773075
 10
142.1053529333
 20
137.5667771129
 10
142.0328284232
 20
137.5603325512
 10
141.9612596624
 20
137.5505486639
 10
141.8925531612
 20
137.5377124934
 10
141.8273444228
 20
137.5219197205
 10
141.7649979438
 20
137.5030746645
 10
141.7055137244
 20
137.4811773253
  0
LINE
  5
45B
100
AcDbEntity
  8
21814000
100
AcDbLine
 62
7
  6
CONTINUOUS
 10
142.5811750166
 20
137.5564095615
 11
142.5017513246
 21
137.5719439487
  0
LINE
  5
45C
100
AcDbEntity
  8
26814000
100
AcDbLine
 62
7
  6
CONTINUOUS
 10
132.7242319293
 20
138.1851821838
 11
132.1019138973
 21
138.3151227663
  0
LINE
  5
45D
100
AcDbEntity
  8
21814000
100
AcDbLine
 62
253
  6
CONTINUOUS
 10
161.7972959926
 20
132.6219949631
 11
161.2437619031
 21
132.747396358
  0
LWPOLYLINE
  5
45E
100
AcDbEntity
  8
21814000
100
AcDbPolyline
 62
253
  6
CONTINUOUS
 90
4
 70
0
 10
142.1630469893
 20
136.8550865579
 10
142.2051701247
 20
136.8455356751
 10
142.2449626204
 20
136.8326592429
 10
142.2824244764
 20
136.8164572612
  0
LWPOLYLINE
  5
45F
100
AcDbEntity
  8
21814000
100
AcDbPolyline
 62
7
  6
CONTINUOUS
 90
4
 70
0
 10
141.5331719316
 20
137.4291489049
 10
141.5442929713
 20
137.4264716785
 10
141.5561094123
 20
137.422494502
 10
141.5685785609
 20
137.4171380797
  0
LWPOLYLINE
  5
460
100
AcDbEntity
  8
21814000
100
AcDbPolyline
 62
7
  6
CONTINUOUS
 90
7
 70
0
 10
142.581168159
 20
137.5564110859
 10
142.5890288418
 20
137.5544950804
 10
142.5981248947
 20
137.5518499374
 10
142.6070882784
 20
137.5487760254
 10
142.6159085614
 20
137.5452756742
 10
142.6245660228
 20
137.5413545487
 10
142.627206581
 20
137.5400581223
  0
LWPOLYLINE
  5
461
100
AcDbEntity
  8
26814000
100
AcDbPolyline
 62
7
  6
CONTINUOUS
 90
18
 70
0
 10
145.0570199031
 20
139.701070909
 10
145.0374578188
 20
139.7101606421
 10
145.0145620386
 20
139.7191460567
 10
144.9910527523
 20
139.7266482895
 10
144.9669114302
 20
139.7326824593
 10
144.9422216769
 20
139.7372282437
 10
144.9169602506
 20
139.7402822272
 10
144.8911503932
 20
139.7418478251
 10
144.8649454343
 20
139.7419149617
 10
144.8383614717
 20
139.7404761858
 10
144.8113824077
 20
139.7375389484
 10
144.784113279
 20
139.7331155271
 10
144.7565390994
 20
139.7271971415
 10
144.7286748551
 20
139.719792572
 10
144.7006705421
 20
139.7109404374
 10
144.6725761588
 20
139.7006536107
 10
144.6443417068
 20
139.6889192189
 10
144.6159671861
 20
139.6757372621
  0
LWPOLYLINE
  5
462
100
AcDbEntity
  8
RACCORDO
100
AcDbPolyline
 62
7
  6
CONTINUOUS
 90
12
 70
0
 10
158.6219756597
 20
132.3128587959
 10
158.6135762927
 20
132.3168057009
 10
158.5948025664
 20
132.3239083774
 10
158.5751793791
 20
132.3290292954
 10
158.5547174746
 20
132.3321935196
 10
158.5336778518
 20
132.3333606894
 10
158.5120531101
 20
132.3325052227
 10
158.48985065
 20
132.3296527016
 10
158.4673536716
 20
132.3248395109
 10
158.4446565749
 20
132.3180777789
 10
158.42166496
 20
132.3093553773
 10
158.3983788268
 20
132.2986723061
  0
LWPOLYLINE
  5
463
100
AcDbEntity
  8
RACCORDO
100
AcDbPolyline
 62
7
  6
CONTINUOUS
 90
12
 70
0
 10
160.9668774512
 20
131.6704298088
 10
160.9557856401
 20
131.6757558131
 10
160.9189365564
 20
131.6904222641
 10
160.880399422
 20
131.7012224545
 10
160.8401951226
 20
131.7082042199
 10
160.798825228
 20
131.7112804594
 10
160.756275136
 20
131.7104022458
 10
160.7125594488
 20
131.7056185061
 10
160.6682235424
 20
131.69698892
 10
160.6234492091
 20
131.6845333808
 10
160.5780546567
 20
131.6682319952
 10
160.5320398853
 20
131.6480847632
  0
LWPOLYLINE
  5
464
100
AcDbEntity
  8
26814000
100
AcDbPolyline
 62
7
  6
CONTINUOUS
 90
10
 70
0
 10
152.5258537416
 20
135.9666762159
 10
152.5028740625
 20
135.9778676481
 10
152.4730980181
 20
135.9914440898
 10
152.443824499
 20
136.0038297066
 10
152.4150344911
 20
136.0150315031
 10
152.3867470084
 20
136.0250424746
 10
152.3590453521
 20
136.0339422191
 10
152.3319572891
 20
136.0417572691
 10
152.3054550524
 20
136.048461092
 10
152.279538642
 20
136.0540536878
  0
LINE
  5
465
100
AcDbEntity
  8
0
100
AcDbLine
 62
7
  6
CONTINUOUS
 10
159.3795350479
 20
130.6170436782
 11
162.1570757777
 21
129.2282733133
  0
LINE
  5
466
100
AcDbEntity
  8
26814000
100
AcDbLine
 62
7
  6
CONTINUOUS
 10
146.7675210817
 20
137.4103896248
 11
143.9569714347
 21
138.8156644483
  0
LINE
  5
467
100
AcDbEntity
  8
21814000
100
AcDbLine
 62
7
  6
CONTINUOUS
 10
153.6096386913
 20
134.4619758703
 11
152.8218500436
 21
134.8558701942
  0
LINE
  5
468
100
AcDbEntity
  8
RACCORDO
100
AcDbLine
 62
253
  6
CONTINUOUS
 10
157.7925278817
 20
132.6015977787
 11
158.3983788268
 21
132.2986723061
  0
LINE
  5
469
100
AcDbEntity
  8
RACCORDO
100
AcDbLine
 62
253
  6
CONTINUOUS
 10
163.3481262951
 20
129.823798572
 11
163.9539772402
 21
129.5208730994
  0
LINE
  5
46A
100
AcDbEntity
  8
0
100
AcDbLine
 62
7
  6
CONTINUOUS
 10
164.4004396672
 20
129.3476444895
 11
164.2828462477
 21
129.4064411992
  0
LINE
  5
46B
100
AcDbEntity
  8
0
100
AcDbLine
 62
7
  6
CONTINUOUS
 10
163.4037512632
 20
129.8459886915
 11
161.2268059515
 21
130.9344613473
  0
LINE
  5
46C
100
AcDbEntity
  8
26814000
100
AcDbLine
 62
7
  6
CONTINUOUS
 10
145.3169033748
 20
138.8894126357
 11
147.526644263
 21
137.7845421916
  0
LINE
  5
46D
100
AcDbEntity
  8
26814000
100
AcDbLine
 62
7
  6
CONTINUOUS
 10
148.2722290861
 20
137.41174978
 11
148.4180424962
 21
137.338843075
  0
LINE
  5
46E
100
AcDbEntity
  8
RACCORDO
100
AcDbLine
 62
7
  6
CONTINUOUS
 10
158.0174163662
 20
132.6151578289
 11
158.6219856245
 21
132.3128731998
  0
LINE
  5
46F
100
AcDbEntity
  8
RACCORDO
100
AcDbLine
 62
7
  6
CONTINUOUS
 10
163.5717330928
 20
129.8379994656
 11
164.1763023512
 21
129.5357148364
  0
LINE
  5
470
100
AcDbEntity
  8
26814000
100
AcDbLine
 62
7
  6
CONTINUOUS
 10
142.4494456292
 20
140.5863851882
 11
142.6298976063
 21
140.4961591997
  0
LINE
  5
471
100
AcDbEntity
  8
26814000
100
AcDbLine
 62
7
  6
CONTINUOUS
 10
148.0039091433
 20
137.8091534312
 11
148.1843611205
 21
137.7189274426
  0
LINE
  5
472
100
AcDbEntity
  8
RACCORDO
100
AcDbLine
 62
253
  6
CONTINUOUS
 10
157.3678393704
 20
133.2301850206
 11
160.5320398853
 21
131.6480847632
  0
LINE
  5
473
100
AcDbEntity
  8
RACCORDO
100
AcDbLine
 62
253
  6
CONTINUOUS
 10
164.7746805724
 20
129.5267644196
 11
167.9388810872
 21
127.9446641622
  0
LINE
  5
474
100
AcDbEntity
  8
26814000
100
AcDbLine
 62
253
  6
CONTINUOUS
 10
141.6368772851
 20
141.1652822126
 11
144.6159671861
 21
139.6757372621
  0
LINE
  5
475
100
AcDbEntity
  8
26814000
100
AcDbLine
 62
253
  6
CONTINUOUS
 10
148.8586078732
 20
137.5544169186
 11
151.8376977741
 21
136.0648719681
  0
LINE
  5
476
100
AcDbEntity
  8
RACCORDO
100
AcDbLine
 62
7
  6
CONTINUOUS
 10
157.6420055075
 20
133.332901722
 11
160.9669127658
 21
131.6704480928
  0
LINE
  5
477
100
AcDbEntity
  8
RACCORDO
100
AcDbLine
 62
7
  6
CONTINUOUS
 10
165.209553453
 20
129.5491277492
 11
168.5344607113
 21
127.88667412
  0
LINE
  5
478
100
AcDbEntity
  8
26814000
100
AcDbLine
 62
7
  6
CONTINUOUS
 10
149.2996508763
 20
137.5797663852
 11
152.5261407684
 21
135.9665214391
  0
LINE
  5
479
100
AcDbEntity
  8
0
100
AcDbLine
 62
7
  6
CONTINUOUS
 10
154.5869354351
 20
135.3872917702
 11
153.879966495
 21
135.7407762402
  0
LINE
  5
47A
100
AcDbEntity
  8
0
100
AcDbLine
 62
7
  6
CONTINUOUS
 10
154.5869354351
 20
135.3872917702
 11
154.8008278891
 21
135.1897585025
  0
LINE
  5
47B
100
AcDbEntity
  8
RACCORDO
100
AcDbLine
 62
253
  6
CONTINUOUS
 10
157.7814279753
 20
135.6616116558
 11
157.7967610144
 21
135.645685665
  0
LWPOLYLINE
  5
47C
100
AcDbEntity
  8
RACCORDO
100
AcDbPolyline
 62
7
  6
CONTINUOUS
 90
4
 70
0
 10
163.684084069
 20
83.2870408438
 10
163.6950443443
 20
83.3182645121
 10
163.7018022721
 20
83.3507877966
 10
163.7041921539
 20
83.385133446
  0
LWPOLYLINE
  5
47D
100
AcDbEntity
  8
RACCORDO
100
AcDbPolyline
 62
253
  6
CONTINUOUS
 90
7
 70
0
 10
162.9900444682
 20
84.4314917371
 10
162.988768097
 20
84.4283040241
 10
162.9807719883
 20
84.4152269185
 10
162.9701805006
 20
84.4025682348
 10
162.9570785412
 20
84.3904683927
 10
162.9415893683
 20
84.3790592068
 10
162.9238622264
 20
84.3684688001
  0
LWPOLYLINE
  5
47E
100
AcDbEntity
  8
RACCORDO
100
AcDbPolyline
 62
253
  6
CONTINUOUS
 90
6
 70
0
 10
162.2273950551
 20
84.0622226355
 10
162.2273401739
 20
84.0621107831
 10
162.2225566104
 20
84.0482235964
 10
162.2191771254
 20
84.0331029966
 10
162.217236707
 20
84.016905527
 10
162.2167554452
 20
83.9997988799
  0
LWPOLYLINE
  5
47F
100
AcDbEntity
  8
RACCORDO
100
AcDbPolyline
 62
253
  6
CONTINUOUS
 90
10
 70
0
 10
160.4313108227
 20
84.1311502501
 10
160.4484861975
 20
84.153573172
 10
160.464234004
 20
84.1776308278
 10
160.4783412801
 20
84.202997879
 10
160.4906172493
 20
84.2293312798
 10
160.5008959
 20
84.2562749159
 10
160.5090382311
 20
84.2834644211
 10
160.5149341316
 20
84.3105321039
 10
160.5185038696
 20
84.3371119203
 10
160.5196991703
 20
84.3628444239
  0
LWPOLYLINE
  5
480
100
AcDbEntity
  8
RACCORDO
100
AcDbPolyline
 62
7
  6
CONTINUOUS
 90
5
 70
0
 10
160.3271801322
 20
84.1473324171
 10
160.3445275047
 20
84.1695549691
 10
160.3612595802
 20
84.193680228
 10
160.3770783091
 20
84.2194141266
 10
160.3917531066
 20
84.2465009207
  0
LINE
  5
481
100
AcDbEntity
  8
DRAFT
100
AcDbLine
 62
7
  6
CONTINUOUS
 10
164.1612990934
 20
88.9451769862
 11
168.3599091762
 21
91.0814453164
  0
LINE
  5
482
100
AcDbEntity
  8
RACCORDO
100
AcDbLine
 62
253
  6
CONTINUOUS
 10
159.2650102847
 20
88.4334494629
 11
160.1859899711
 21
88.8587884023
  0
LINE
  5
483
100
AcDbEntity
  8
RACCORDO
100
AcDbLine
 62
7
  6
CONTINUOUS
 10
159.2470043775
 20
88.2146296309
 11
160.0854461648
 21
88.6018498333
  0
LINE
  5
484
100
AcDbEntity
  8
26814000
100
AcDbLine
 62
7
  6
CONTINUOUS
 10
143.9569714347
 20
138.8156644483
 11
145.3169033748
 21
138.8894126357
  0
LWPOLYLINE
  5
485
100
AcDbEntity
  8
21814000
100
AcDbPolyline
 62
7
  6
CONTINUOUS
 90
3
 70
0
 10
141.5130807249
 20
137.4309411895
 10
141.5227607352
 20
137.4306037755
 10
141.5331719316
 20
137.4291489049
  0
LWPOLYLINE
  5
486
100
AcDbEntity
  8
RACCORDO
100
AcDbPolyline
 62
7
  6
CONTINUOUS
 90
9
 70
0
 10
156.9247176421
 20
136.1798785401
 10
156.9186009015
 20
136.1814780378
 10
156.9088306877
 20
136.1830108517
 10
156.8985044923
 20
136.1834262961
 10
156.8877172951
 20
136.1827245236
 10
156.8767540362
 20
136.1809059923
 10
156.8657096955
 20
136.1779708548
 10
156.854489293
 20
136.1739189584
 10
156.8430928288
 20
136.1687503031
  0
LINE
  5
487
100
AcDbEntity
  8
0
100
AcDbLine
 62
7
  6
CONTINUOUS
 10
155.5316548433
 20
135.5130313104
 11
155.081910182
 21
135.6347791436
  0
LWPOLYLINE
  5
488
100
AcDbEntity
  8
RACCORDO
100
AcDbPolyline
 62
7
  6
CONTINUOUS
 90
28
 70
0
 10
156.9247075058
 20
136.1798545877
 10
156.8159921592
 20
136.2111404335
 10
156.7011371163
 20
136.2404941105
 10
156.5838756923
 20
136.2668211807
 10
156.4645025275
 20
136.2900832724
 10
156.3432821559
 20
136.3102538252
 10
156.2204527864
 20
136.3273131005
 10
156.096303989
 20
136.3412369421
 10
155.9711205259
 20
136.3520076111
 10
155.8451400084
 20
136.3596150108
 10
155.7186536223
 20
136.3640483895
 10
155.5919508993
 20
136.3653029442
 10
155.4652691539
 20
136.3633781711
 10
155.3388978841
 20
136.3582768361
 10
155.2131282935
 20
136.350007624
 10
155.0881986942
 20
136.3385797485
 10
154.9643998196
 20
136.3240099162
 10
154.8420150672
 20
136.3063198947
 10
154.721266631
 20
136.2855257193
 10
154.6024317099
 20
136.2616541193
 10
154.4857958865
 20
136.2347390675
 10
154.3715843134
 20
136.2048043002
 10
154.2600691353
 20
136.1718871963
 10
154.1515229388
 20
136.1360305615
 10
154.0461560473
 20
136.0972589439
 10
153.9442092648
 20
136.0556061355
 10
153.8459631274
 20
136.011125361
 10
153.7516790662
 20
135.9638679716
  0
LWPOLYLINE
  5
489
100
AcDbEntity
  8
RACCORDO
100
AcDbPolyline
 62
7
  6
CONTINUOUS
 90
3
 70
0
 10
156.9367583238
 20
136.1750607595
 10
156.9279101135
 20
136.1788280071
 10
156.9247176421
 20
136.1798785401
  0
LINE
  5
48A
100
AcDbEntity
  8
0
100
AcDbLine
 62
7
  6
CONTINUOUS
 10
155.081910182
 20
135.6347791436
 11
154.3749412418
 21
135.9882636136
  0
LINE
  5
48B
100
AcDbEntity
  8
21814000
100
AcDbLine
 62
7
  6
CONTINUOUS
 10
154.1144464695
 20
136.4709092548
 11
153.675835997
 21
136.6902144911
  0
LINE
  5
48C
100
AcDbEntity
  8
21814000
100
AcDbLine
 62
7
  6
CONTINUOUS
 10
158.3443594495
 20
136.2311728802
 11
157.6178620607
 21
136.5944215746
  0
LINE
  5
48D
100
AcDbEntity
  8
21814000
100
AcDbLine
 62
7
  6
CONTINUOUS
 10
158.1615297891
 20
136.338247563
 11
157.8574104052
 21
136.490307255
  0
LINE
  5
48E
100
AcDbEntity
  8
RACCORDO
100
AcDbLine
 62
7
  6
CONTINUOUS
 10
157.7852864612
 20
135.7507966908
 11
157.8980613465
 21
135.6943043647
  0
LWPOLYLINE
  5
48F
100
AcDbEntity
  8
RACCORDO
100
AcDbPolyline
 62
7
  6
CONTINUOUS
 90
10
 70
0
 10
157.7473423939
 20
135.7634643458
 10
157.6498653403
 20
135.8135197775
 10
157.5542521384
 20
135.8624956531
 10
157.4605027885
 20
135.9103919727
 10
157.3686317072
 20
135.9572101605
 10
157.2786244778
 20
136.0029487922
 10
157.1904378498
 20
136.0476035952
 10
157.1040574064
 20
136.0911731454
 10
157.0194975644
 20
136.1336588668
 10
156.9367583238
 20
136.1750607595
  0
LWPOLYLINE
  5
490
100
AcDbEntity
  8
21814000
100
AcDbPolyline
 62
7
  6
CONTINUOUS
 90
10
 70
0
 10
158.1615297891
 20
136.338247563
 10
158.1301143347
 20
136.3563003752
 10
158.0980973574
 20
136.3740676777
 10
158.0654788572
 20
136.3915494702
 10
158.0322486665
 20
136.4087508369
 10
157.9984169529
 20
136.4256666937
 10
157.9640142197
 20
136.442281789
 10
157.9290506345
 20
136.4585910391
 10
157.8935160296
 20
136.4745995278
 10
157.8574104052
 20
136.490307255
  0
LINE
  5
491
100
AcDbEntity
  8
RACCORDO
100
AcDbLine
 62
7
  6
CONTINUOUS
 10
157.7551008226
 20
135.7588778737
 11
157.7473423939
 21
135.7634643458
  0
LWPOLYLINE
  5
492
100
AcDbEntity
  8
RACCORDO
100
AcDbPolyline
 62
253
  6
CONTINUOUS
 90
5
 70
0
 10
157.7852864612
 20
135.7507966908
 10
157.8098094516
 20
135.7302923124
 10
157.8341752132
 20
135.709014048
 10
157.8583119634
 20
135.6869517707
 10
157.8664607908
 20
135.6791378011
  0
LWPOLYLINE
  5
493
100
AcDbEntity
  8
RACCORDO
100
AcDbPolyline
 62
253
  6
CONTINUOUS
 90
4
 70
0
 10
157.6916498621
 20
135.7445006824
 10
157.7145102915
 20
135.7249219489
 10
157.7370878298
 20
135.7045689024
 10
157.759382477
 20
135.6834415428
  0
LINE
  5
494
100
AcDbEntity
  8
RACCORDO
100
AcDbLine
 62
253
  6
CONTINUOUS
 10
157.759382477
 20
135.6834415428
 11
157.7814279753
 21
135.6616116558
  0
LINE
  5
495
100
AcDbEntity
  8
21814000
100
AcDbLine
 62
253
  6
CONTINUOUS
 10
161.9548976755
 20
136.8518520814
 11
162.3744408865
 21
136.1282470799
  0
LINE
  5
496
100
AcDbEntity
  8
21814000
100
AcDbLine
 62
7
  6
CONTINUOUS
 10
162.3451620398
 20
136.8462422675
 11
162.6919998104
 21
136.2480356016
  0
LWPOLYLINE
  5
497
100
AcDbEntity
  8
21814000
100
AcDbPolyline
 62
253
  6
CONTINUOUS
 90
13
 70
0
 10
162.3744408865
 20
136.1282470799
 10
162.4262101359
 20
136.0346665625
 10
162.4742534863
 20
135.9389471079
 10
162.5183652088
 20
135.8414986015
 10
162.55835641
 20
135.7427383323
 10
162.5940558412
 20
135.6430892073
 10
162.6253106315
 20
135.5429779406
 10
162.6519869432
 20
135.4428332239
 10
162.6739705441
 20
135.3430838923
 10
162.6911672969
 20
135.2441570889
 10
162.7035035626
 20
135.1464764337
 10
162.7109265158
 20
135.0504602098
 10
162.7134043703
 20
134.9565195735
  0
LWPOLYLINE
  5
498
100
AcDbEntity
  8
RACCORDO
100
AcDbPolyline
 62
253
  6
CONTINUOUS
 90
10
 70
0
 10
161.7748137069
 20
83.459398808
 10
161.7919890817
 20
83.4818217299
 10
161.8077368882
 20
83.5058793857
 10
161.8218441644
 20
83.5312464369
 10
161.8341201336
 20
83.5575798376
 10
161.8443987843
 20
83.5845234738
 10
161.8525411154
 20
83.611712979
 10
161.8584370159
 20
83.6387806618
 10
161.8620067538
 20
83.6653604782
 10
161.8632020546
 20
83.6910929818
  0
LWPOLYLINE
  5
499
100
AcDbEntity
  8
RACCORDO
100
AcDbPolyline
 62
253
  6
CONTINUOUS
 90
13
 70
0
 10
162.0399787499
 20
83.2277046341
 10
162.0663571824
 20
83.2616144851
 10
162.0908075179
 20
83.2968297409
 10
162.1133297564
 20
83.3333504016
 10
162.1340480744
 20
83.3714481676
 10
162.1528382955
 20
83.4108513385
 10
162.1693278898
 20
83.4507448128
 10
162.183483488
 20
83.4911412914
 10
162.1953384595
 20
83.5320280735
 10
162.2046203831
 20
83.572551954
 10
162.2112384517
 20
83.6124285314
 10
162.2152834724
 20
83.6519422074
 10
162.2167554452
 20
83.6910929818
  0
LINE
  5
49A
100
AcDbEntity
  8
RACCORDO
100
AcDbLine
 62
7
  6
CONTINUOUS
 10
159.7968500464
 20
83.5071673742
 11
160.3271801322
 21
84.1473324171
  0
LINE
  5
49B
100
AcDbEntity
  8
RACCORDO
100
AcDbLine
 62
253
  6
CONTINUOUS
 10
159.9009807368
 20
83.4909852072
 11
160.4313108227
 21
84.1311502501
  0
LINE
  5
49C
100
AcDbEntity
  8
RACCORDO
100
AcDbLine
 62
253
  6
CONTINUOUS
 10
161.7748137069
 20
83.459398808
 11
161.2444836211
 21
82.819233765
  0
LINE
  5
49D
100
AcDbEntity
  8
RACCORDO
100
AcDbLine
 62
253
  6
CONTINUOUS
 10
162.0399787499
 20
83.2277046341
 11
161.509648664
 21
82.5875395912
  0
LWPOLYLINE
  5
49E
100
AcDbEntity
  8
RACCORDO
100
AcDbPolyline
 62
253
  6
CONTINUOUS
 90
8
 70
0
 10
159.7968475863
 20
83.507164404
 10
159.8017889613
 20
83.5114618891
 10
159.8115395372
 20
83.5151607173
 10
159.8243432041
 20
83.5159840729
 10
159.839979456
 20
83.5139179853
 10
159.8581792731
 20
83.5089983651
 10
159.8786301268
 20
83.5013100048
 10
159.9009807368
 20
83.4909852072
  0
LWPOLYLINE
  5
49F
100
AcDbEntity
  8
RACCORDO
100
AcDbPolyline
 62
253
  6
CONTINUOUS
 90
8
 70
0
 10
160.3271801322
 20
84.1473324171
 10
160.3321991703
 20
84.1516769454
 10
160.3419611458
 20
84.1553439966
 10
160.3547642682
 20
84.1561450837
 10
160.3703894725
 20
84.1540664999
 10
160.3885694071
 20
84.1491438102
 10
160.4089930083
 20
84.1414612433
 10
160.4313108227
 20
84.1311502501
  0
LINE
  5
4A0
100
AcDbEntity
  8
DRAFT
100
AcDbLine
 62
7
  6
CONTINUOUS
 10
164.1612990934
 20
88.1607381816
 11
169.0936866312
 21
90.7145565889
  0
LINE
  5
4A1
100
AcDbEntity
  8
RACCORDO
100
AcDbLine
 62
7
  6
CONTINUOUS
 10
164.1612990934
 20
87.5462283275
 11
167.9388810872
 21
89.4495843053
  0
LINE
  5
4A2
100
AcDbEntity
  8
RACCORDO
100
AcDbLine
 62
7
  6
CONTINUOUS
 10
164.1612990934
 20
87.6838780098
 11
169.0502183989
 21
90.1088180269
  0
LWPOLYLINE
  5
4A3
100
AcDbEntity
  8
290140000
100
AcDbPolyline
 62
253
  6
CONTINUOUS
 90
11
 70
0
 10
154.4468570041
 20
81.5144947418
 10
154.463640523
 20
81.5206016882
 10
154.5133880556
 20
81.5448722118
 10
154.559624176
 20
81.5771179692
 10
154.601842513
 20
81.6169857415
 10
154.6395807214
 20
81.6640388427
 10
154.6724255334
 20
81.7177619059
 10
154.70001727
 20
81.7775665094
 10
154.7220537926
 20
81.8427976386
 10
154.7382938083
 20
81.912740865
 10
154.7485595066
 20
81.9866301607
  0
LINE
  5
4A4
100
AcDbEntity
  8
290140000
100
AcDbLine
 62
253
  6
CONTINUOUS
 10
158.8474949657
 20
83.3595239599
 11
154.7485595066
 21
81.9866301607
  0
LINE
  5
4A5
100
AcDbEntity
  8
290140000
100
AcDbLine
 62
7
  6
CONTINUOUS
 10
154.4462447315
 20
81.5142903021
 11
158.5496576621
 21
82.8886831473
  0
LWPOLYLINE
  5
4A6
100
AcDbEntity
  8
RACCORDO
100
AcDbPolyline
 62
7
  6
CONTINUOUS
 90
7
 70
0
 10
162.2296315474
 20
84.0629067513
 10
162.2566117552
 20
84.0715170343
 10
162.2852796227
 20
84.0813051663
 10
162.3150476887
 20
84.0923441656
 10
162.3453916781
 20
84.1046613844
 10
162.3760710313
 20
84.1183290497
 10
162.4083182566
 20
84.1340791726
  0
LWPOLYLINE
  5
4A7
100
AcDbEntity
  8
RACCORDO
100
AcDbPolyline
 62
253
  6
CONTINUOUS
 90
17
 70
0
 10
162.3620916282
 20
84.3400595688
 10
162.3899015218
 20
84.3487434346
 10
162.4027080599
 20
84.3526749305
 10
162.4147911364
 20
84.3563168116
 10
162.4262614964
 20
84.3598332277
 10
162.4371092181
 20
84.3632462917
 10
162.4473442232
 20
84.3665338906
 10
162.4571070217
 20
84.3697938357
 10
162.4664063428
 20
84.3730448746
 10
162.4752334573
 20
84.3762682597
 10
162.4837026877
 20
84.3795055591
 10
162.4918209717
 20
84.3827651061
 10
162.4995813717
 20
84.3860385674
 10
162.5070773972
 20
84.3893425115
 10
162.5143402184
 20
84.3926824614
 10
162.5213386651
 20
84.3960528942
 10
162.5280727375
 20
84.3994538099
  0
LINE
  5
4A8
100
AcDbEntity
  8
21814000
100
AcDbLine
 62
7
  6
CONTINUOUS
 10
160.5561298229
 20
136.9700339748
 11
157.44389225
 21
138.5261527612
  0
LINE
  5
4A9
100
AcDbEntity
  8
21814000
100
AcDbLine
 62
253
  6
CONTINUOUS
 10
161.9548976755
 20
136.8518520814
 11
161.1492257394
 21
137.2546880494
  0
LINE
  5
4AA
100
AcDbEntity
  8
21814000
100
AcDbLine
 62
253
  6
CONTINUOUS
 10
156.4475626603
 20
139.605519589
 11
155.4764038267
 21
140.0910990058
  0
LINE
  5
4AB
100
AcDbEntity
  8
21814000
100
AcDbLine
 62
7
  6
CONTINUOUS
 10
162.2851730531
 20
136.9025341855
 11
161.4594141529
 21
137.3154136356
  0
LINE
  5
4AC
100
AcDbEntity
  8
21814000
100
AcDbLine
 62
7
  6
CONTINUOUS
 10
156.9201454319
 20
139.5850479961
 11
155.8677894192
 21
140.1112260024
  0
LWPOLYLINE
  5
4AD
100
AcDbEntity
  8
21814000
100
AcDbPolyline
 62
7
  6
CONTINUOUS
 90
4
 70
0
 10
162.287098605
 20
136.9015712122
 10
162.300742081
 20
136.8937564704
 10
162.3242777775
 20
136.8743841919
 10
162.3444559203
 20
136.8475063603
  0
LWPOLYLINE
  5
4AE
100
AcDbEntity
  8
21814000
100
AcDbPolyline
 62
7
  6
CONTINUOUS
 90
35
 70
0
 10
162.96599855
 20
134.636523467
 10
163.0827720788
 20
134.5594213607
 10
163.2225687523
 20
134.4549077145
 10
163.359306608
 20
134.3403791174
 10
163.4921720515
 20
134.2166626129
 10
163.6205575048
 20
134.0845158379
 10
163.7441391049
 20
133.9444484319
 10
163.8625192663
 20
133.7970429282
 10
163.9752736493
 20
133.6429320387
 10
164.0819492154
 20
133.4828252546
 10
164.1821062275
 20
133.3174694975
 10
164.2753221713
 20
133.1476517357
 10
164.3612752939
 20
132.9740337051
 10
164.4396906755
 20
132.7971957464
 10
164.5102573505
 20
132.6178051826
 10
164.5726319329
 20
132.4366706226
 10
164.6265166689
 20
132.2545753276
 10
164.671653392
 20
132.0722707446
 10
164.7078122947
 20
131.8904939075
 10
164.7347880387
 20
131.7099704477
 10
164.752407844
 20
131.5312679954
 10
164.7604807452
 20
131.3552714797
 10
164.7588806834
 20
131.1830912389
 10
164.7475333113
 20
131.0151752635
 10
164.726398709
 20
130.8523983272
 10
164.695669355
 20
130.6963046868
 10
164.6555648626
 20
130.5475627221
 10
164.6062385144
 20
130.4064697916
 10
164.5480433948
 20
130.2738037017
 10
164.4812350111
 20
130.1499063509
 10
164.4061662974
 20
130.0352472527
 10
164.323576592
 20
129.9306496146
 10
164.234137421
 20
129.8365222752
 10
164.1383131126
 20
129.7529417153
 10
164.0367216431
 20
129.6800927898
  0
LWPOLYLINE
  5
4AF
100
AcDbEntity
  8
21814000
100
AcDbPolyline
 62
253
  6
CONTINUOUS
 90
34
 70
0
 10
162.96599855
 20
134.557912946
 10
163.0440936408
 20
134.5024011425
 10
163.1812345107
 20
134.3929455333
 10
163.3157770023
 20
134.2734200598
 10
163.4470935812
 20
134.144382211
 10
163.5745717397
 20
134.0064338627
 10
163.6976168766
 20
133.8602184521
 10
163.815655072
 20
133.7064179733
 10
163.9281357665
 20
133.5457497913
 10
164.0345343211
 20
133.3789633039
 10
164.1343544641
 20
133.2068364484
 10
164.2271306055
 20
133.0301720736
 10
164.3124300107
 20
132.8497941927
 10
164.3898548196
 20
132.6665441388
 10
164.4590439013
 20
132.481276641
 10
164.519674539
 20
132.2948558379
 10
164.5714639345
 20
132.1081512481
 10
164.6141705275
 20
131.9220337139
 10
164.6475951226
 20
131.7373713396
 10
164.6715818181
 20
131.5550254418
 10
164.6860187334
 20
131.3758465328
 10
164.6908385307
 20
131.2006703528
 10
164.6860187291
 20
131.0303139723
 10
164.6715818095
 20
130.8655719812
 10
164.6475951097
 20
130.7072127818
 10
164.6141705104
 20
130.5559750056
 10
164.5714639131
 20
130.4125640678
 10
164.5196745135
 20
130.2776488772
 10
164.4590438717
 20
130.1518587159
 10
164.389854786
 20
130.0357803041
 10
164.3124299733
 20
129.9299550637
 10
164.2271305642
 20
129.8348765928
 10
164.1343544191
 20
129.7509883644
 10
164.0367216431
 20
129.6800927898
  0
LWPOLYLINE
  5
4B0
100
AcDbEntity
  8
21814000
100
AcDbPolyline
 62
253
  6
CONTINUOUS
 90
12
 70
0
 10
162.6919998104
 20
136.2480356016
 10
162.6906406737
 20
136.2496327157
 10
162.6827217556
 20
136.2521543188
 10
162.6690771631
 20
136.2512855096
 10
162.6498084464
 20
136.2470327543
 10
162.6250590135
 20
136.239427704
 10
162.5950130625
 20
136.2285269595
 10
162.559894211
 20
136.2144116498
 10
162.519963832
 20
136.1971868287
 10
162.475519108
 20
136.1769806924
 10
162.4268908201
 20
136.1539436254
 10
162.3744408854
 20
136.1282470817
  0
LINE
  5
4B1
100
AcDbEntity
  8
RACCORDO
100
AcDbLine
 62
253
  6
CONTINUOUS
 10
163.3484467099
 20
84.8289949074
 11
163.3830813699
 21
84.8525073685
  0
LWPOLYLINE
  5
4B2
100
AcDbEntity
  8
RACCORDO
100
AcDbPolyline
 62
253
  6
CONTINUOUS
 90
9
 70
0
 10
163.3830813699
 20
84.8525073685
 10
163.4092824522
 20
84.8700894962
 10
163.4233768376
 20
84.8792917853
 10
163.4381345146
 20
84.8887379083
 10
163.4535715465
 20
84.8984134812
 10
163.4697864994
 20
84.9081412523
 10
163.4868122289
 20
84.9178621375
 10
163.5046158796
 20
84.9276352209
 10
163.5231974513
 20
84.9374605025
  0
LINE
  5
4B3
100
AcDbEntity
  8
DRAFT
100
AcDbLine
 62
7
  6
CONTINUOUS
 10
162.4705930599
 20
84.4922611284
 11
162.0029509656
 21
84.197345311
  0
LWPOLYLINE
  5
4B4
100
AcDbEntity
  8
RACCORDO
100
AcDbPolyline
 62
253
  6
CONTINUOUS
 90
6
 70
0
 10
162.9238622264
 20
84.0446463724
 10
162.9454238661
 20
84.0569395414
 10
162.963591882
 20
84.07053472
 10
162.9780554142
 20
84.085199291
 10
162.9885669876
 20
84.1006823394
 10
162.9949467464
 20
84.116718946
  0
LWPOLYLINE
  5
4B5
100
AcDbEntity
  8
RACCORDO
100
AcDbPolyline
 62
7
  6
CONTINUOUS
 90
11
 70
0
 10
163.1337667957
 20
84.5049511997
 10
163.1680447751
 20
84.5235221854
 10
163.2004419509
 20
84.5424684781
 10
163.2316724303
 20
84.5619280804
 10
163.2618075188
 20
84.5816186995
 10
163.2903296294
 20
84.6008256834
 10
163.317084713
 20
84.6189973595
 10
163.3423224364
 20
84.6358487814
 10
163.3654580593
 20
84.6506307752
 10
163.3850311036
 20
84.6622695517
 10
163.4007918043
 20
84.6707426728
  0
LWPOLYLINE
  5
4B6
100
AcDbEntity
  8
RACCORDO
100
AcDbPolyline
 62
7
  6
CONTINUOUS
 90
7
 70
0
 10
163.565811209
 20
83.1615753432
 10
163.5772039414
 20
83.1676320162
 10
163.6042895822
 20
83.185347128
 10
163.6289205154
 20
83.2064724372
 10
163.6506720152
 20
83.2306917129
 10
163.669179891
 20
83.2576796991
 10
163.684084069
 20
83.2870408438
  0
LINE
  5
4B7
100
AcDbEntity
  8
RACCORDO
100
AcDbLine
 62
253
  6
CONTINUOUS
 10
162.9238622264
 20
84.3684688001
 11
162.2167554452
 21
83.9997988799
  0
LWPOLYLINE
  5
4B8
100
AcDbEntity
  8
RACCORDO
100
AcDbPolyline
 62
253
  6
CONTINUOUS
 90
12
 70
0
 10
163.2472970587
 20
84.7671186723
 10
163.2541674818
 20
84.7706715929
 10
163.2612768451
 20
84.7744855707
 10
163.2686251487
 20
84.7785606058
 10
163.2761859432
 20
84.7828770894
 10
163.2839856779
 20
84.7874546302
 10
163.2921037008
 20
84.7923520545
 10
163.3005371233
 20
84.7975733002
 10
163.3092888341
 20
84.8031144293
 10
163.3184468467
 20
84.8090224535
 10
163.328004274
 20
84.8153042301
 10
163.3484467099
 20
84.8289949074
  0
LINE
  5
4B9
100
AcDbEntity
  8
RACCORDO
100
AcDbLine
 62
253
  6
CONTINUOUS
 10
162.5280727375
 20
84.3994538099
 11
163.0874957305
 21
84.6854674402
  0
LINE
  5
4BA
100
AcDbEntity
  8
RACCORDO
100
AcDbLine
 62
7
  6
CONTINUOUS
 10
162.408317469
 20
84.1340808139
 11
163.1337667957
 21
84.5049511997
  0
LINE
  5
4BB
100
AcDbEntity
  8
RACCORDO
100
AcDbLine
 62
253
  6
CONTINUOUS
 10
163.0874957305
 20
84.6854674402
 11
163.2472970587
 21
84.7671186723
  0
LINE
  5
4BC
100
AcDbEntity
  8
RACCORDO
100
AcDbLine
 62
253
  6
CONTINUOUS
 10
162.0029509656
 20
84.1714756731
 11
162.2386971055
 21
84.2902537899
  0
LINE
  5
4BD
100
AcDbEntity
  8
RACCORDO
100
AcDbLine
 62
253
  6
CONTINUOUS
 10
163.5231974513
 20
84.9374605025
 11
164.1612990934
 21
85.2589715417
  0
LINE
  5
4BE
100
AcDbEntity
  8
RACCORDO
100
AcDbLine
 62
7
  6
CONTINUOUS
 10
161.8734551199
 20
83.901185383
 11
162.1163837368
 21
84.0235863358
  0
LINE
  5
4BF
100
AcDbEntity
  8
RACCORDO
100
AcDbLine
 62
7
  6
CONTINUOUS
 10
163.4008509746
 20
84.6707723928
 11
164.0318032478
 21
84.9886812516
  0
LINE
  5
4C0
100
AcDbEntity
  8
RACCORDO
100
AcDbLine
 62
253
  6
CONTINUOUS
 10
161.509648664
 20
82.2362256191
 11
163.6309690076
 21
83.2968857909
  0
LINE
  5
4C1
100
AcDbEntity
  8
RACCORDO
100
AcDbLine
 62
7
  6
CONTINUOUS
 10
161.4446753676
 20
82.101007169
 11
163.5659957111
 21
83.1616673408
  0
LWPOLYLINE
  5
4C2
100
AcDbEntity
  8
RACCORDO
100
AcDbPolyline
 62
253
  6
CONTINUOUS
 90
5
 70
0
 10
162.2167554452
 20
83.9997988799
 10
162.197040067
 20
83.9902025909
 10
162.1756361702
 20
83.9817507667
 10
162.1528000005
 20
83.9745180297
 10
162.1288080226
 20
83.9685595913
  0
LWPOLYLINE
  5
4C3
100
AcDbEntity
  8
RACCORDO
100
AcDbPolyline
 62
7
  6
CONTINUOUS
 90
7
 70
0
 10
162.1160453746
 20
84.0234082302
 10
162.1233392959
 20
84.0269537966
 10
162.1352429582
 20
84.0321589423
 10
162.1480530105
 20
84.0370976109
 10
162.1634327158
 20
84.0424186677
 10
162.1824253687
 20
84.0484730861
 10
162.2296315474
 20
84.0629067513
  0
LWPOLYLINE
  5
4C4
100
AcDbEntity
  8
RACCORDO
100
AcDbPolyline
 62
253
  6
CONTINUOUS
 90
8
 70
0
 10
162.2386971055
 20
84.2902537899
 10
162.2590551498
 20
84.2999242626
 10
162.2784921955
 20
84.3087127674
 10
162.2970082427
 20
84.3166193045
 10
162.3145611444
 20
84.3235251244
 10
162.3311930475
 20
84.3295489765
 10
162.3470303927
 20
84.3350471087
 10
162.3620916282
 20
84.3400595688
  0
LWPOLYLINE
  5
4C5
100
AcDbEntity
  8
RACCORDO
100
AcDbPolyline
 62
253
  6
CONTINUOUS
 90
13
 70
0
 10
161.509648664
 20
82.2362256191
 10
161.4856423515
 20
82.2256680091
 10
161.4589405858
 20
82.2166710376
 10
161.4299373427
 20
82.2094203112
 10
161.3990076356
 20
82.204067219
 10
161.3667182997
 20
82.2007648389
 10
161.3338411743
 20
82.1996149061
 10
161.3010194429
 20
82.2006327015
 10
161.2687492723
 20
82.2037956323
 10
161.2375995482
 20
82.2090467072
 10
161.2081106526
 20
82.2162919768
 10
161.18078621
 20
82.2254046905
 10
161.1560952734
 20
82.2362256191
  0
LWPOLYLINE
  5
4C6
100
AcDbEntity
  8
RACCORDO
100
AcDbPolyline
 62
253
  6
CONTINUOUS
 90
13
 70
0
 10
161.509648664
 20
82.5875395912
 10
161.4852494456
 20
82.5768306325
 10
161.4582172833
 20
82.5677746309
 10
161.4289943491
 20
82.5605367694
 10
161.3980417927
 20
82.5552497573
 10
161.3659013343
 20
82.5520236804
 10
161.3331930799
 20
82.550928042
 10
161.3005031641
 20
82.5519801066
 10
161.2683691004
 20
82.5551602073
 10
161.2373437448
 20
82.5604134826
 10
161.2079599114
 20
82.5676493884
 10
161.1807213457
 20
82.5767435299
 10
161.1560952734
 20
82.5875395912
  0
LWPOLYLINE
  5
4C7
100
AcDbEntity
  8
RACCORDO
100
AcDbPolyline
 62
253
  6
CONTINUOUS
 90
13
 70
0
 10
162.2167554452
 20
83.6910929818
 10
162.1921691071
 20
83.6803121619
 10
162.1649787499
 20
83.671228154
 10
162.135649608
 20
83.6639963879
 10
162.1046835112
 20
83.6587406012
 10
162.0726102979
 20
83.6555507218
 10
162.0399787499
 20
83.6544813294
 10
162.0073472018
 20
83.6555507218
 10
161.9752739886
 20
83.6587406012
 10
161.9443078918
 20
83.6639963879
 10
161.9149787499
 20
83.671228154
 10
161.8877883926
 20
83.6803121619
 10
161.8632020546
 20
83.6910929818
  0
LWPOLYLINE
  5
4C8
100
AcDbEntity
  8
RACCORDO
100
AcDbPolyline
 62
7
  6
CONTINUOUS
 90
9
 70
0
 10
161.4446753676
 20
82.101007169
 10
161.4163887724
 20
82.0889776039
 10
161.3864015713
 20
82.080412635
 10
161.3552269884
 20
82.0756154666
 10
161.3233223446
 20
82.0747964839
 10
161.2914374563
 20
82.0780715236
 10
161.2604299256
 20
82.0853397509
 10
161.230469875
 20
82.0965487359
 10
161.2209069396
 20
82.101088179
  0
ARC
  5
4C9
100
AcDbEntity
  8
RACCORDO
100
AcDbCircle
 62
7
  6
CONTINUOUS
 10
161.3328719687
 20
123.9755320782
 40
0.25
100
AcDbArc
 50
244.0406531095
 51
258.6758098606
  0
ARC
  5
4CA
100
AcDbEntity
  8
RACCORDO
100
AcDbCircle
 62
7
  6
CONTINUOUS
 10
147.9685538043
 20
130.6576911604
 40
0.25
100
AcDbArc
 50
244.0406531095
 51
258.6758098606
  0
ELLIPSE
  5
4CB
100
AcDbEntity
  8
21814000
100
AcDbEllipse
 62
7
  6
CONTINUOUS
 10
155.3931750067
 20
135.6071669491
 30
0.0
 11
2.7499350056
 21
-0.0386453369
 31
0.0
 40
0.4892375088
 41
8.654981679
 42
9.2557277435
  0
ELLIPSE
  5
4CC
100
AcDbEntity
  8
21814000
100
AcDbEllipse
 62
7
  6
CONTINUOUS
 10
156.0649264489
 20
135.4956692651
 30
0.0
 11
2.7583300471
 21
-0.038763314
 31
0.0
 40
0.4892375088
 41
0.9280596999
 42
2.3630697256
  0
ELLIPSE
  5
4CD
100
AcDbEntity
  8
21814000
100
AcDbEllipse
 62
7
  6
CONTINUOUS
 10
160.77064068
 20
136.6535697822
 30
0.0
 11
0.716172246
 21
0.6416715914
 31
0.0
 40
0.2882345029
 41
0.1142323894
 42
0.7807533904
  0
ELLIPSE
  5
4CE
100
AcDbEntity
  8
21814000
100
AcDbEllipse
 62
7
  6
CONTINUOUS
 10
155.3694361877
 20
136.7889290818
 30
0.0
 11
3.3311333813
 21
-0.0467042088
 31
0.0
 40
0.4892378494
 41
3.8528301344
 42
5.5059722822
  0
ELLIPSE
  5
4CF
100
AcDbEntity
  8
21814000
100
AcDbEllipse
 62
7
  6
CONTINUOUS
 10
156.0649264489
 20
135.4956692651
 30
0.0
 11
2.7583300471
 21
-0.038763314
 31
0.0
 40
0.4892375088
 41
0.4291477653
 42
0.6564870977
  0
ELLIPSE
  5
4D0
100
AcDbEntity
  8
21814000
100
AcDbEllipse
 62
7
  6
CONTINUOUS
 10
155.3694361877
 20
136.7889290818
 30
0.0
 11
3.3311333813
 21
-0.0467042088
 31
0.0
 40
0.4892378494
 41
2.3616770883
 42
3.7058786528
  0
ELLIPSE
  5
4D1
100
AcDbEntity
  8
21814000
100
AcDbEllipse
 62
7
  6
CONTINUOUS
 10
156.0649264489
 20
137.4403799763
 30
0.0
 11
2.7583515655
 21
-1.4175703156
 31
0.0
 40
0.0109499087
 41
-0.7017315251
 42
-0.6439845515
  0
ELLIPSE
  5
4D2
100
AcDbEntity
  8
21814000
100
AcDbEllipse
 62
7
  6
CONTINUOUS
 10
156.8039344329
 20
138.6369229057
 30
0.0
 11
-0.2796057293
 21
0.9974617846
 31
0.0
 40
0.6760995073
 41
4.8467711056
 42
6.4001141399
  0
ELLIPSE
  5
4D3
100
AcDbEntity
  8
21814000
100
AcDbEllipse
 62
7
  6
CONTINUOUS
 10
156.0649264489
 20
137.4403799763
 30
0.0
 11
2.7583515655
 21
-1.4175703156
 31
0.0
 40
0.0109499087
 41
-0.9155571536
 42
-0.85781018
  0
ELLIPSE
  5
4D4
100
AcDbEntity
  8
21814000
100
AcDbEllipse
 62
7
  6
CONTINUOUS
 10
156.0649264489
 20
135.928681967
 30
0.0
 11
2.7583300471
 21
-0.038763314
 31
0.0
 40
0.4892375088
 41
0.1708839954
 42
2.3630697256
  0
ELLIPSE
  5
4D5
100
AcDbEntity
  8
26814000
100
AcDbEllipse
 62
7
  6
CONTINUOUS
 10
130.5829830976
 20
139.3504765138
 30
0.0
 11
0.110769438
 21
0.2241226716
 31
0.0
 40
0.6088015717
 41
-4.0304836828
 42
-3.1443650652
  0
ELLIPSE
  5
4D6
100
AcDbEntity
  8
26814000
100
AcDbEllipse
 62
7
  6
CONTINUOUS
 10
143.9473012621
 20
132.6683174316
 30
0.0
 11
0.110769438
 21
0.2241226716
 31
0.0
 40
0.6088015717
 41
-4.0304836828
 42
-3.1443650652
  0
ELLIPSE
  5
4D7
100
AcDbEntity
  8
26814000
100
AcDbEllipse
 62
7
  6
CONTINUOUS
 10
142.2373135948
 20
140.4818306876
 30
0.0
 11
0.2999991737
 21
-0.0014183462
 31
0.0
 40
0.4964289597
 41
0.7877451926
 42
2.3527237553
  0
ELLIPSE
  5
4D8
100
AcDbEntity
  8
26814000
100
AcDbEllipse
 62
7
  6
CONTINUOUS
 10
147.791777109
 20
137.7045989305
 30
0.0
 11
0.2999991737
 21
-0.0014183462
 31
0.0
 40
0.4964289597
 41
0.7877451926
 42
2.3585415194
  0
ELLIPSE
  5
4D9
100
AcDbEntity
  8
26814000
100
AcDbEllipse
 62
7
  6
CONTINUOUS
 10
133.9668110801
 20
138.6763294755
 30
0.0
 11
0.110769438
 21
0.2241226716
 31
0.0
 40
0.6088015717
 41
1.2055040732
 42
2.2526937431
  0
ELLIPSE
  5
4DA
100
AcDbEntity
  8
26814000
100
AcDbEllipse
 62
7
  6
CONTINUOUS
 10
147.6826257216
 20
132.9219755453
 30
0.0
 11
0.110769438
 21
0.2241226716
 31
0.0
 40
0.6088015717
 41
-1.9360885804
 42
-0.8888910292
  0
ELLIPSE
  5
4DB
100
AcDbEntity
  8
26814000
100
AcDbEllipse
 62
7
  6
CONTINUOUS
 10
146.0624508653
 20
133.9929919499
 30
0.0
 11
0.1128509832
 21
0.2230818409
 31
0.0
 40
0.6159267166
 41
0.0028979148
 42
0.6817883054
  0
ELLIPSE
  5
4DC
100
AcDbEntity
  8
26814000
100
AcDbEllipse
 62
7
  6
CONTINUOUS
 10
143.9473012621
 20
132.9216888253
 30
0.0
 11
0.110769438
 21
0.2241226716
 31
0.0
 40
0.6088015717
 41
0.6877230618
 42
2.2527016244
  0
ELLIPSE
  5
4DD
100
AcDbEntity
  8
26814000
100
AcDbEllipse
 62
7
  6
CONTINUOUS
 10
134.3183075572
 20
139.6041346275
 30
0.0
 11
0.110769438
 21
0.2241226716
 31
0.0
 40
0.6088015717
 41
-1.9360885804
 42
-0.8888910292
  0
ELLIPSE
  5
4DE
100
AcDbEntity
  8
26814000
100
AcDbEllipse
 62
7
  6
CONTINUOUS
 10
132.6981327008
 20
140.6751510321
 30
0.0
 11
0.1128509832
 21
0.2230818409
 31
0.0
 40
0.6159267166
 41
0.0028979148
 42
0.6817883054
  0
ELLIPSE
  5
4DF
100
AcDbEntity
  8
26814000
100
AcDbEllipse
 62
7
  6
CONTINUOUS
 10
130.5829830976
 20
139.6038479075
 30
0.0
 11
0.110769438
 21
0.2241226716
 31
0.0
 40
0.6088015717
 41
0.6877230618
 42
2.2527016244
  0
ELLIPSE
  5
4E0
100
AcDbEntity
  8
26814000
100
AcDbEllipse
 62
7
  6
CONTINUOUS
 10
134.3183075572
 20
139.8650636039
 30
0.0
 11
0.110769438
 21
0.2241226716
 31
0.0
 40
0.6088015717
 41
5.394294278
 42
6.9592728406
  0
ELLIPSE
  5
4E1
100
AcDbEntity
  8
26814000
100
AcDbEllipse
 62
7
  6
CONTINUOUS
 10
147.6826257216
 20
133.1829045217
 30
0.0
 11
0.110769438
 21
0.2241226716
 31
0.0
 40
0.6088015717
 41
5.394294278
 42
6.9592728406
  0
ELLIPSE
  5
4E2
100
AcDbEntity
  8
26814000
100
AcDbEllipse
 62
7
  6
CONTINUOUS
 10
142.417765572
 20
139.1597705176
 30
0.0
 11
0.2999981629
 21
-0.0021225547
 31
0.0
 40
0.4946372042
 41
-0.7818985079
 42
0.0034997008
  0
ELLIPSE
  5
4E3
100
AcDbEntity
  8
26814000
100
AcDbEllipse
 62
7
  6
CONTINUOUS
 10
147.9722290861
 20
136.3825387606
 30
0.0
 11
0.2999981629
 21
-0.0021225547
 31
0.0
 40
0.4946372042
 41
-0.7760807437
 42
0.0035109161
  0
ELLIPSE
  5
4E4
100
AcDbEntity
  8
26814000
100
AcDbEllipse
 62
7
  6
CONTINUOUS
 10
136.2688198445
 20
137.5616493197
 30
0.0
 11
0.2999991335
 21
0.0014318851
 31
0.0
 40
0.5035541159
 41
8.6427941204
 42
10.207772683
  0
ELLIPSE
  5
4E5
100
AcDbEntity
  8
26814000
100
AcDbEllipse
 62
7
  6
CONTINUOUS
 10
130.2555289356
 20
137.7645792184
 30
0.0
 11
-0.1565168911
 21
0.3130623908
 31
0.0
 40
0.6123677712
 41
-0.6846781644
 42
0.8861181623
  0
ELLIPSE
  5
4E6
100
AcDbEntity
  8
26814000
100
AcDbEllipse
 62
7
  6
CONTINUOUS
 10
145.5290354092
 20
130.1278259815
 30
0.0
 11
-0.1565168911
 21
0.3130623908
 31
0.0
 40
0.6123677712
 41
-2.2554744912
 42
-0.6846781644
  0
ELLIPSE
  5
4E7
100
AcDbEntity
  8
26814000
100
AcDbEllipse
 62
7
  6
CONTINUOUS
 10
142.0613289125
 20
134.6653947856
 30
0.0
 11
0.2999991335
 21
0.0014318851
 31
0.0
 40
0.5035541159
 41
-2.3585979313
 42
-0.7936193687
  0
ELLIPSE
  5
4E8
100
AcDbEntity
  8
26814000
100
AcDbEllipse
 62
7
  6
CONTINUOUS
 10
142.0613289125
 20
133.4511957098
 30
0.0
 11
0.2999980272
 21
0.0021530184
 31
0.0
 40
0.5053247124
 41
-2.3598210761
 42
-0.7948425135
  0
ELLIPSE
  5
4E9
100
AcDbEntity
  8
26814000
100
AcDbEllipse
 62
7
  6
CONTINUOUS
 10
136.2688198445
 20
136.3474502438
 30
0.0
 11
0.2999980272
 21
0.0021530184
 31
0.0
 40
0.5053247124
 41
3.1379773283
 42
3.9233642311
  0
ELLIPSE
  5
4EA
100
AcDbEntity
  8
26814000
100
AcDbEllipse
 62
7
  6
CONTINUOUS
 10
147.9722290861
 20
137.6143729419
 30
0.0
 11
0.2999991737
 21
-0.0014183462
 31
0.0
 40
0.4964289597
 41
-0.77723337
 42
0.7877451926
  0
ELLIPSE
  5
4EB
100
AcDbEntity
  8
26814000
100
AcDbEllipse
 62
7
  6
CONTINUOUS
 10
142.417765572
 20
140.391604699
 30
0.0
 11
0.2999991737
 21
-0.0014183462
 31
0.0
 40
0.4964289597
 41
-0.7830511342
 42
0.7877451926
  0
ELLIPSE
  5
4EC
100
AcDbEntity
  8
26814000
100
AcDbEllipse
 62
7
  6
CONTINUOUS
 10
145.5551346377
 20
132.1177721375
 30
0.0
 11
0.1128509832
 21
0.2230818409
 31
0.0
 40
0.6159267166
 41
0.6934238338
 42
2.2584023964
  0
ELLIPSE
  5
4ED
100
AcDbEntity
  8
26814000
100
AcDbEllipse
 62
7
  6
CONTINUOUS
 10
145.5551346377
 20
131.8644007437
 30
0.0
 11
0.1128509832
 21
0.2230818409
 31
0.0
 40
0.6159267166
 41
-4.0247829108
 42
-2.9775853596
  0
ELLIPSE
  5
4EE
100
AcDbEntity
  8
26814000
100
AcDbEllipse
 62
7
  6
CONTINUOUS
 10
132.1908164733
 20
138.7999312197
 30
0.0
 11
0.1128509832
 21
0.2230818409
 31
0.0
 40
0.6159267166
 41
0.6934238338
 42
2.2584023964
  0
ELLIPSE
  5
4EF
100
AcDbEntity
  8
26814000
100
AcDbEllipse
 62
7
  6
CONTINUOUS
 10
132.1908164733
 20
138.546559826
 30
0.0
 11
0.1128509832
 21
0.2230818409
 31
0.0
 40
0.6159267166
 41
-4.0247829108
 42
-2.9775853596
  0
ELLIPSE
  5
4F0
100
AcDbEntity
  8
RACCORDO
100
AcDbEllipse
 62
7
  6
CONTINUOUS
 10
163.8076918468
 20
85.4356432551
 30
0.0
 11
-0.2235807756
 21
0.4472283268
 31
0.0
 40
0.6125552124
 41
-3.139671321
 42
-2.255296188
  0
ELLIPSE
  5
4F1
100
AcDbEntity
  8
RACCORDO
100
AcDbEllipse
 62
7
  6
CONTINUOUS
 10
163.8076918468
 20
123.3371909616
 30
0.0
 11
-0.2237009107
 21
0.4473351135
 31
0.0
 40
0.6121897086
 41
-2.2557347926
 42
-0.6846338794
  0
ELLIPSE
  5
4F2
100
AcDbEntity
  8
RACCORDO
100
AcDbEllipse
 62
7
  6
CONTINUOUS
 10
156.6484995701
 20
132.7116207019
 30
0.0
 11
0.9987332359
 21
0.6172510855
 31
0.0
 40
0.0815198604
 41
0.0505521044
 42
0.7176053907
  0
ELLIPSE
  5
4F3
100
AcDbEntity
  8
RACCORDO
100
AcDbEllipse
 62
7
  6
CONTINUOUS
 10
168.3989224448
 20
126.8364092646
 30
0.0
 11
0.4349639225
 21
0.9005141702
 31
0.0
 40
0.6016116119
 41
-0.8943064336
 42
-0.538697204
  0
ELLIPSE
  5
4F4
100
AcDbEntity
  8
RACCORDO
100
AcDbEllipse
 62
7
  6
CONTINUOUS
 10
168.6335394577
 20
89.9558079091
 30
0.0
 11
0.9987332359
 21
0.6172510855
 31
0.0
 40
0.0815198604
 41
-2.3890806779
 42
-1.1913468732
  0
ELLIPSE
  5
4F5
100
AcDbEntity
  8
RACCORDO
100
AcDbEllipse
 62
7
  6
CONTINUOUS
 10
168.3989224448
 20
90.0731164155
 30
0.0
 11
0.4349639225
 21
0.9005141702
 31
0.0
 40
0.6016116119
 41
-1.2499156631
 42
-0.8943064336
  0
ELLIPSE
  5
4F6
100
AcDbEntity
  8
RACCORDO
100
AcDbEllipse
 62
7
  6
CONTINUOUS
 10
157.7925278817
 20
132.1685850768
 30
0.0
 11
0.2256808774
 21
0.4461742732
 31
0.0
 40
0.6158912572
 41
0.0028657685
 42
0.6875768343
  0
ELLIPSE
  5
4F7
100
AcDbEntity
  8
RACCORDO
100
AcDbEllipse
 62
7
  6
CONTINUOUS
 10
161.6493437189
 20
84.3481473865
 30
0.0
 11
-0.2235807756
 21
0.4472283268
 31
0.0
 40
0.6125552124
 41
2.4567882058
 42
4.0278891191
  0
ELLIPSE
  5
4F8
100
AcDbEntity
  8
RACCORDO
100
AcDbEllipse
 62
7
  6
CONTINUOUS
 10
161.6493437189
 20
122.340394271
 30
0.0
 11
-0.2237009107
 21
0.4473351135
 31
0.0
 40
0.6121897086
 41
4.0274505145
 42
5.5985514278
  0
ELLIPSE
  5
4F9
100
AcDbEntity
  8
RACCORDO
100
AcDbEllipse
 62
7
  6
CONTINUOUS
 10
163.9539772402
 20
129.0878603975
 30
0.0
 11
0.2215594226
 21
0.4482351134
 31
0.0
 40
0.6088373611
 41
5.3943220613
 42
6.9651183881
  0
ELLIPSE
  5
4FA
100
AcDbEntity
  8
RACCORDO
100
AcDbEllipse
 62
7
  6
CONTINUOUS
 10
146.6621325604
 20
129.8339998502
 30
0.0
 11
-0.2235807756
 21
0.4472283268
 31
0.0
 40
0.6125552124
 41
-0.6848044477
 42
0.8862964655
  0
ELLIPSE
  5
4FB
100
AcDbEntity
  8
RACCORDO
100
AcDbEllipse
 62
7
  6
CONTINUOUS
 10
168.6335394577
 20
126.7191007581
 30
0.0
 11
-0.7417913999
 21
1.2002436976
 31
0.0
 40
0.5587454355
 41
5.0176587298
 42
6.2153925345
  0
ELLIPSE
  5
4FC
100
AcDbEntity
  8
RACCORDO
100
AcDbEllipse
 62
7
  6
CONTINUOUS
 10
157.9761452377
 20
125.6480575507
 30
0.0
 11
0.4999881828
 21
-0.0070264249
 31
0.0
 40
0.4892375088
 41
-2.3493192548
 42
-0.7727633415
  0
ELLIPSE
  5
4FD
100
AcDbEntity
  8
RACCORDO
100
AcDbEllipse
 62
7
  6
CONTINUOUS
 10
152.4566513852
 20
128.407804477
 30
0.0
 11
0.4999881828
 21
-0.0070264249
 31
0.0
 40
0.4892375088
 41
-3.1347355197
 42
-2.3493192548
  0
ELLIPSE
  5
4FE
100
AcDbEntity
  8
RACCORDO
100
AcDbEllipse
 62
7
  6
CONTINUOUS
 10
159.8323692403
 20
89.0357177081
 30
0.0
 11
-0.2713091605
 21
0.4239062184
 31
0.0
 40
0.5451249042
 41
-3.2164578779
 42
-2.3115524019
  0
ELLIPSE
  5
4FF
100
AcDbEntity
  8
290140000
100
AcDbEllipse
 62
7
  6
CONTINUOUS
 10
131.2001644096
 20
136.5548570927
 30
0.0
 11
-0.2786191524
 21
0.7501668109
 31
0.0
 40
0.6610921126
 41
-0.3090511146
 42
0.0213201203
  0
ELLIPSE
  5
500
100
AcDbEntity
  8
290140000
100
AcDbEllipse
 62
7
  6
CONTINUOUS
 10
158.281741384
 20
83.6426286635
 30
0.0
 11
-0.2786191524
 21
0.7501668109
 31
0.0
 40
0.6610921126
 41
-3.1630638698
 42
-2.1868166574
  0
ELLIPSE
  5
501
100
AcDbEntity
  8
290140000
100
AcDbEllipse
 62
7
  6
CONTINUOUS
 10
161.3934516267
 20
121.4582134841
 30
0.0
 11
-0.2783604326
 21
0.7500177284
 31
0.0
 40
0.6614719787
 41
-2.1862531203
 42
-0.61576138
  0
ENDSEC
  0
SECTION
  2
OBJECTS
  0
DICTIONARY
  5
C
100
AcDbDictionary
280
0
281
1
  3
ACAD_GROUP
350
D
  3
ACAD_MLINESTYLE
350
17
  3
ACAD_LAYOUT
350
1A
  3
ACAD_PLOTSETTINGS
350
19
  3
ACAD_PLOTSTYLENAME
350
E
  0
DICTIONARY
  5
D
102
{ACAD_REACTORS
330
C
102
}
100
AcDbDictionary
280
0
281
1
  0
ACDBDICTIONARYWDFLT
  5
E
102
{ACAD_REACTORS
330
C
102
}
100
AcDbDictionary
281
1
  3
Normal
350
F
100
AcDbDictionaryWithDefault
340
F
  0
DICTIONARY
  5
17
102
{ACAD_REACTORS
330
C
102
}
100
AcDbDictionary
280
0
281
1
  3
Standard
350
18
  0
DICTIONARY
  5
19
102
{ACAD_REACTORS
330
C
102
}
100
AcDbDictionary
281
1
  0
DICTIONARY
  5
1A
102
{ACAD_REACTORS
330
C
102
}
100
AcDbDictionary
281
1
  3
Model
350
502
  3
Layout1
350
503
  0
ACDBPLACEHOLDER
  5
F
102
{ACAD_REACTORS
330
E
102
}
  0
MLINESTYLE
  5
18
102
{ACAD_REACTORS
330
17
102
}
100
AcDbMlineStyle
  2
STANDARD
 70
0
  3

 62
256
 51
90.0
 52
90.0
 71
2
 49
0.5
 62
256
  6
BYLAYER
 49
-0.5
 62
256
  6
BYLAYER
  0
LAYOUT
  5
502
102
{ACAD_REACTORS
330
1A
102
}
100
AcDbPlotSettings
  1

  2
none_device
  4
ISO_A4_(297.00_x_210.00_MM)
  6

 40
0.0
 41
0.0
 42
0.0
 43
0.0
 44
297.0
 45
210.0
 46
0.0
 47
0.0
 48
0.0
 49
0.0
140
0.0
141
0.0
142
1.0
143
1.0
 70
1024
 72
1
 73
0
 74
0
  7

 75
0
147
1.0
148
0.0
149
0.0
100
AcDbLayout
  1
Model
 70
0
 71
0
 10
0.0
 20
0.0
 11
297.0
 21
210.0
 12
0.0
 22
0.0
 32
0.0
 14
0.0
 24
0.0
 34
0.0
 15
0.0
 25
0.0
 35
0.0
146
0.0
 13
0.0
 23
0.0
 33
0.0
 16
1.0
 26
0.0
 36
0.0
 17
0.0
 27
1.0
 37
0.0
 76
0
330
224
345
0
346
0
  0
LAYOUT
  5
503
102
{ACAD_REACTORS
330
1A
102
}
100
AcDbPlotSettings
  1

  2
none_device
  4
ISO_A4_(297.00_x_210.00_MM)
  6

 40
0.0
 41
0.0
 42
0.0
 43
0.0
 44
297.0
 45
210.0
 46
0.0
 47
0.0
 48
0.0
 49
0.0
140
0.0
141
0.0
142
1.0
143
1.0
 70
0
 72
1
 73
0
 74
0
  7

 75
0
147
1.0
148
0.0
149
0.0
100
AcDbLayout
  1
Layout1
 70
0
 71
1
 10
0.0
 20
0.0
 11
297.0
 21
210.0
 12
0.0
 22
0.0
 32
0.0
 14
0.0
 24
0.0
 34
0.0
 15
0.0
 25
0.0
 35
0.0
146
0.0
 13
0.0
 23
0.0
 33
0.0
 16
1.0
 26
0.0
 36
0.0
 17
0.0
 27
1.0
 37
0.0
 76
0
330
225
345
0
346
0
  0
ENDSEC
  0
EOF
