  0
SECTION
  2
HEADER
  9
$ACADVER
  1
AC1015
  9
$DWGCODEPAGE
  3
ANSI_1252
  9
$EXTMAX
 10
297.0
 20
210.0
 30
0.0
  9
$EXTMIN
 10
0.0
 20
0.0
 30
0.0
  9
$LIMMIN
 10
0.0
 20
0.0
  9
$LIMMAX
 10
297.0
 20
210.0
  9
$VIEWCTR
 10
148.5
 20
105.0
  9
$VIEWSIZE
 40
210.0
  9
$CLAYER
  8
0
  9
$LTSCALE
 40
16.335
  9
$CELTYPE
  6
BYLAYER
  9
$DIMSCALE
 40
1.0
  9
$DIMASZ
 40
3.0
  9
$DIMEXO
 40
0.5
  9
$DIMDLI
 40
11.286
  9
$DIMEXE
 40
1.5
  9
$DIMCEN
 40
2.673
  9
$DIMLFAC
 40
1.0
  9
$DIMBLK
  1
_FILLED
  9
$DIMTXT
 40
3.0
  9
$DIMTOL
 70
1
  9
$DIMLIM
 70
0
  9
$DIMTFAC
 40
1.0
  9
$DIMTP
 40
0.01
  9
$DIMTM
 40
0.01
  9
$DIMGAP
 40
0.625
  9
$DIMDSEP
 70
44
  9
$PDMODE
 70
3
  9
$PDSIZE
 40
3.0
  9
$HANDSEED
  5
3BA
  9
$TILEMODE
 70
1
  9
$MEASUREMENT
 70
1
  9
$INSUNITS
 70
4
  0
ENDSEC
  0
SECTION
  2
CLASSES
  0
CLASS
  1
ACDBDICTIONARYWDFLT
  2
AcDbDictionaryWithDefault
  3
AutoCAD 2000
 90
0
280
0
281
0
  0
CLASS
  1
ACDBPLACEHOLDER
  2
AcDbPlaceHolder
  3
AutoCAD 2000
 90
0
280
0
281
0
  0
CLASS
  1
LAYOUT
  2
AcDbLayout
  3
AutoCAD 2000
 90
0
280
0
281
0
  0
ENDSEC
  0
SECTION
  2
TABLES
  0
TABLE
  2
VPORT
  5
8
100
AcDbSymbolTable
 70
2
  0
VPORT
  5
1F4
100
AcDbSymbolTableRecord
100
AcDbViewportTableRecord
  2
*ACTIVE
 70
0
 10
0.0
 20
0.0
 11
1.0
 21
1.0
 12
148.5
 22
105.0
 13
0.0
 23
0.0
 14
1.0
 24
1.0
 15
0.0
 25
0.0
 16
0.0
 26
0.0
 36
1.0
 17
0.0
 27
0.0
 37
0.0
 40
210.0
 41
1.4142857143
 42
50.0
 43
0.0
 44
0.0
 50
0.0
 51
0.0
 71
0
 72
100
 73
1
 74
1
 75
0
 76
0
 77
0
 78
0
  0
ENDTAB
  0
TABLE
  2
LTYPE
  5
5
100
AcDbSymbolTable
 70
6
  0
LTYPE
  5
14
100
AcDbSymbolTableRecord
100
AcDbLinetypeTableRecord
  2
BYBLOCK
 70
0
  3

 72
65
 73
0
 40
0.0
  0
LTYPE
  5
15
100
AcDbSymbolTableRecord
100
AcDbLinetypeTableRecord
  2
BYLAYER
 70
0
  3

 72
65
 73
0
 40
0.0
  0
LTYPE
  5
16
100
AcDbSymbolTableRecord
100
AcDbLinetypeTableRecord
  2
CONTINUOUS
 70
64
  3
Solid line
 72
65
 73
0
 40
0.0
  0
LTYPE
  5
1F5
100
AcDbSymbolTableRecord
100
AcDbLinetypeTableRecord
  2
CENTER
 70
64
  3
____ _ ____ _ ____ _ ____ _ ____ _ ____ _ ____
 72
65
 73
4
 40
0.6
 49
0.375
 74
0
 49
-0.075
 74
0
 49
0.075
 74
0
 49
-0.075
 74
0
  0
LTYPE
  5
1F6
100
AcDbSymbolTableRecord
100
AcDbLinetypeTableRecord
  2
HIDDEN
 70
64
  3
- - - - - - - - - - - - - - - - - - - -
 72
65
 73
2
 40
0.2
 49
0.1
 74
0
 49
-0.1
 74
0
  0
LTYPE
  5
1F7
100
AcDbSymbolTableRecord
100
AcDbLinetypeTableRecord
  2
PHANTOM
 70
64
  3
_____ _ _ _____ _ _ _____ _ _ _____
 72
65
 73
6
 40
0.8
 49
0.45
 74
0
 49
-0.05
 74
0
 49
0.1
 74
0
 49
-0.05
 74
0
 49
0.1
 74
0
 49
-0.05
 74
0
  0
LTYPE
  5
1F8
100
AcDbSymbolTableRecord
100
AcDbLinetypeTableRecord
  2
DOT
 70
64
  3
. . . . . . . . . . . . . . . . . . . .
 72
65
 73
2
 40
0.2
 49
0.1
 74
0
 49
-0.1
 74
0
  0
LTYPE
  5
1F9
100
AcDbSymbolTableRecord
100
AcDbLinetypeTableRecord
  2
DASHED
 70
64
  3
- - - - - - - - - - - - - - - - - - - -
 72
65
 73
2
 40
0.2
 49
0.1
 74
0
 49
-0.1
 74
0
  0
ENDTAB
  0
TABLE
  2
LAYER
  5
2
100
AcDbSymbolTable
 70
36
  0
LAYER
  5
10
100
AcDbSymbolTableRecord
100
AcDbLayerTableRecord
  2
0
 70
0
 62
7
  6
CONTINUOUS
370
-3
390
F
  0
LAYER
  5
1FA
100
AcDbSymbolTableRecord
100
AcDbLayerTableRecord
  2
DEFAULT_1
 70
0
 62
7
  6
CENTER
370
-3
390
F
  0
LAYER
  5
1FB
100
AcDbSymbolTableRecord
100
AcDbLayerTableRecord
  2
DEFAULT_2
 70
0
 62
7
  6
HIDDEN
370
-3
390
F
  0
LAYER
  5
1FC
100
AcDbSymbolTableRecord
100
AcDbLayerTableRecord
  2
DEFAULT_3
 70
0
 62
7
  6
PHANTOM
370
-3
390
F
  0
LAYER
  5
1FD
100
AcDbSymbolTableRecord
100
AcDbLayerTableRecord
  2
21814000
 70
0
 62
7
  6
CONTINUOUS
370
-3
390
F
  0
LAYER
  5
1FE
100
AcDbSymbolTableRecord
100
AcDbLayerTableRecord
  2
260140000
 70
0
 62
7
  6
CONTINUOUS
370
-3
390
F
  0
LAYER
  5
1FF
100
AcDbSymbolTableRecord
100
AcDbLayerTableRecord
  2
26814000
 70
0
 62
7
  6
CONTINUOUS
370
-3
390
F
  0
LAYER
  5
200
100
AcDbSymbolTableRecord
100
AcDbLayerTableRecord
  2
28414000
 70
0
 62
7
  6
CONTINUOUS
370
-3
390
F
  0
LAYER
  5
201
100
AcDbSymbolTableRecord
100
AcDbLayerTableRecord
  2
290140000
 70
0
 62
7
  6
CONTINUOUS
370
-3
390
F
  0
LAYER
  5
202
100
AcDbSymbolTableRecord
100
AcDbLayerTableRecord
  2
340000230
 70
0
 62
7
  6
CONTINUOUS
370
-3
390
F
  0
LAYER
  5
203
100
AcDbSymbolTableRecord
100
AcDbLayerTableRecord
  2
712140000
 70
0
 62
7
  6
CONTINUOUS
370
-3
390
F
  0
LAYER
  5
204
100
AcDbSymbolTableRecord
100
AcDbLayerTableRecord
  2
715140000
 70
0
 62
7
  6
CONTINUOUS
370
-3
390
F
  0
LAYER
  5
205
100
AcDbSymbolTableRecord
100
AcDbLayerTableRecord
  2
ASSI
 70
0
 62
7
  6
CONTINUOUS
370
-3
390
F
  0
LAYER
  5
206
100
AcDbSymbolTableRecord
100
AcDbLayerTableRecord
  2
COLORE_TOP
 70
0
 62
7
  6
CONTINUOUS
370
-3
390
F
  0
LAYER
  5
207
100
AcDbSymbolTableRecord
100
AcDbLayerTableRecord
  2
COORDINATE
 70
0
 62
7
  6
CONTINUOUS
370
-3
390
F
  0
LAYER
  5
208
100
AcDbSymbolTableRecord
100
AcDbLayerTableRecord
  2
COORD_ORIGINE
 70
0
 62
7
  6
CONTINUOUS
370
-3
390
F
  0
LAYER
  5
209
100
AcDbSymbolTableRecord
100
AcDbLayerTableRecord
  2
COPY_PUBLISH
 70
0
 62
7
  6
CONTINUOUS
370
-3
390
F
  0
LAYER
  5
20A
100
AcDbSymbolTableRecord
100
AcDbLayerTableRecord
  2
COSMETICHE
 70
0
 62
7
  6
CONTINUOUS
370
-3
390
F
  0
LAYER
  5
20B
100
AcDbSymbolTableRecord
100
AcDbLayerTableRecord
  2
COSMETICI
 70
0
 62
7
  6
CONTINUOUS
370
-3
390
F
  0
LAYER
  5
20C
100
AcDbSymbolTableRecord
100
AcDbLayerTableRecord
  2
CURVE
 70
0
 62
7
  6
CONTINUOUS
370
-3
390
F
  0
LAYER
  5
20D
100
AcDbSymbolTableRecord
100
AcDbLayerTableRecord
  2
DRAFT
 70
0
 62
7
  6
CONTINUOUS
370
-3
390
F
  0
LAYER
  5
20E
100
AcDbSymbolTableRecord
100
AcDbLayerTableRecord
  2
IMPORT
 70
0
 62
7
  6
CONTINUOUS
370
-3
390
F
  0
LAYER
  5
20F
100
AcDbSymbolTableRecord
100
AcDbLayerTableRecord
  2
IMPORTED
 70
0
 62
7
  6
CONTINUOUS
370
-3
390
F
  0
LAYER
  5
210
100
AcDbSymbolTableRecord
100
AcDbLayerTableRecord
  2
IMPORT_IGES
 70
0
 62
7
  6
CONTINUOUS
370
-3
390
F
  0
LAYER
  5
211
100
AcDbSymbolTableRecord
100
AcDbLayerTableRecord
  2
INCISIONI_LASER
 70
0
 62
7
  6
CONTINUOUS
370
-3
390
F
  0
LAYER
  5
212
100
AcDbSymbolTableRecord
100
AcDbLayerTableRecord
  2
INTF_11
 70
0
 62
7
  6
CONTINUOUS
370
-3
390
F
  0
LAYER
  5
213
100
AcDbSymbolTableRecord
100
AcDbLayerTableRecord
  2
NOTE
 70
0
 62
7
  6
CONTINUOUS
370
-3
390
F
  0
LAYER
  5
214
100
AcDbSymbolTableRecord
100
AcDbLayerTableRecord
  2
PIANI
 70
0
 62
7
  6
CONTINUOUS
370
-3
390
F
  0
LAYER
  5
215
100
AcDbSymbolTableRecord
100
AcDbLayerTableRecord
  2
PIANI_DI_RIFERIMENTO
 70
0
 62
7
  6
CONTINUOUS
370
-3
390
F
  0
LAYER
  5
216
100
AcDbSymbolTableRecord
100
AcDbLayerTableRecord
  2
PIANI_ORIGINE
 70
0
 62
7
  6
CONTINUOUS
370
-3
390
F
  0
LAYER
  5
217
100
AcDbSymbolTableRecord
100
AcDbLayerTableRecord
  2
PIANI_RIFERIMENTO
 70
0
 62
7
  6
CONTINUOUS
370
-3
390
F
  0
LAYER
  5
218
100
AcDbSymbolTableRecord
100
AcDbLayerTableRecord
  2
PIANI_SFORMO
 70
0
 62
7
  6
CONTINUOUS
370
-3
390
F
  0
LAYER
  5
219
100
AcDbSymbolTableRecord
100
AcDbLayerTableRecord
  2
PUNTI
 70
0
 62
7
  6
CONTINUOUS
370
-3
390
F
  0
LAYER
  5
21A
100
AcDbSymbolTableRecord
100
AcDbLayerTableRecord
  2
RACCORDO
 70
0
 62
7
  6
CONTINUOUS
370
-3
390
F
  0
LAYER
  5
21B
100
AcDbSymbolTableRecord
100
AcDbLayerTableRecord
  2
RINTRACCIABILITA
 70
0
 62
7
  6
CONTINUOUS
370
-3
390
F
  0
LAYER
  5
21C
100
AcDbSymbolTableRecord
100
AcDbLayerTableRecord
  2
SIMBOLI
 70
0
 62
7
  6
CONTINUOUS
370
-3
390
F
  0
LAYER
  5
21D
100
AcDbSymbolTableRecord
100
AcDbLayerTableRecord
  2
SMUSSO
 70
0
 62
7
  6
CONTINUOUS
370
-3
390
F
  0
LAYER
  5
21E
100
AcDbSymbolTableRecord
100
AcDbLayerTableRecord
  2
SNAPLINE
 70
0
 62
7
  6
CONTINUOUS
370
-3
390
F
  0
LAYER
  5
21F
100
AcDbSymbolTableRecord
100
AcDbLayerTableRecord
  2
SUPERFICI
 70
0
 62
7
  6
CONTINUOUS
370
-3
390
F
  0
LAYER
  5
220
100
AcDbSymbolTableRecord
100
AcDbLayerTableRecord
  2
TRASH
 70
0
 62
7
  6
CONTINUOUS
370
-3
390
F
  0
LAYER
  5
221
100
AcDbSymbolTableRecord
100
AcDbLayerTableRecord
  2
XSEC_DATUMS
 70
0
 62
7
  6
CONTINUOUS
370
-3
390
F
  0
ENDTAB
  0
TABLE
  2
STYLE
  5
3
100
AcDbSymbolTable
 70
1
  0
STYLE
  5
11
100
AcDbSymbolTableRecord
100
AcDbTextStyleTableRecord
  2
STANDARD
 70
0
 40
0.0
 41
0.8
 50
0.0
 71
0
 42
0.2
  3
txt
  4

  0
STYLE
  5
222
100
AcDbSymbolTableRecord
100
AcDbTextStyleTableRecord
  2
TEXTSTYLE_1
 70
0
 40
0.0
 41
0.8
 50
0.0
 71
0
 42
0.2
  3
gdt
  4

  0
ENDTAB
  0
TABLE
  2
VIEW
  5
6
100
AcDbSymbolTable
 70
0
  0
ENDTAB
  0
TABLE
  2
UCS
  5
7
100
AcDbSymbolTable
 70
0
  0
ENDTAB
  0
TABLE
  2
APPID
  5
9
100
AcDbSymbolTable
 70
1
  0
APPID
  5
223
100
AcDbSymbolTableRecord
100
AcDbRegAppTableRecord
  2
ACAD
 70
0
  0
ENDTAB
  0
TABLE
  2
BLOCK_RECORD
  5
1
100
AcDbSymbolTable
 70
0
  0
BLOCK_RECORD
  5
224
100
AcDbSymbolTableRecord
100
AcDbBlockTableRecord
  2
*Model_Space
  0
BLOCK_RECORD
  5
225
100
AcDbSymbolTableRecord
100
AcDbBlockTableRecord
  2
*Paper_Space
  0
ENDTAB
  0
TABLE
  2
DIMSTYLE
  5
A
100
AcDbSymbolTable
 70
1
100
AcDbDimStyleTable
 71
0
  0
DIMSTYLE
105
226
100
AcDbSymbolTableRecord
100
AcDbDimStyleTableRecord
  2
STANDARD
 70
0
  3

  4

 40
1.0
 41
3.0
 42
0.5
 43
0.38
 44
1.5
 45
0.0
 46
0.0
 47
0.01
 48
0.01
140
3.0
141
0.09
142
0.0
143
25.4
144
1.0
145
0.0
146
1.0
147
0.625
 71
1.0
 72
0.0
 73
0
 74
0
 75
0
 76
0
 77
1
 78
8
170
0
171
2
172
0
173
0
174
0
175
0
176
0
177
0
178
0
270
2
271
2
272
2
273
2
274
2
275
0
280
0
281
0
282
0
283
1
284
8
285
0
286
0
287
3
288
0
340
11
278
44
  0
ENDTAB
  0
ENDSEC
  0
SECTION
  2
BLOCKS
  0
BLOCK
  5
20
100
AcDbEntity
  8
0
100
AcDbBlockBegin
  2
*Model_Space
 70
0
 10
0.0
 20
0.0
 30
0.0
  3
*Model_Space
  1

  0
ENDBLK
  5
21
100
AcDbEntity
  8
0
100
AcDbBlockEnd
  0
BLOCK
  5
1C
100
AcDbEntity
  8
0
100
AcDbBlockBegin
  2
*Paper_Space
 70
0
 10
0.0
 20
0.0
 30
0.0
  3
*Paper_Space
  1

  0
ENDBLK
  5
1D
100
AcDbEntity
  8
0
100
AcDbBlockEnd
  0
ENDSEC
  0
SECTION
  2
ENTITIES
  0
LINE
  5
227
100
AcDbEntity
  8
26814000
100
AcDbLine
 62
7
  6
CONTINUOUS
 10
-13.6299531051
 20
24.8951806127
 11
-12.0471965019
 21
25.70716471
  0
LINE
  5
228
100
AcDbEntity
  8
26814000
100
AcDbLine
 62
7
  6
CONTINUOUS
 10
-14.1139082174
 20
23.1524802106
 11
-13.1016859334
 21
23.6694101733
  0
LINE
  5
229
100
AcDbEntity
  8
26814000
100
AcDbLine
 62
7
  6
CONTINUOUS
 10
-12.0471965019
 20
25.70716471
 11
-11.5127466233
 21
25.9675121766
  0
LWPOLYLINE
  5
22A
100
AcDbEntity
  8
290140000
100
AcDbPolyline
 62
253
  6
CONTINUOUS
 90
14
 70
0
 10
-20.7864838477
 20
-18.2379656202
 10
-20.8413867486
 20
-18.2053234947
 10
-20.8926817778
 20
-18.1662253006
 10
-20.940125301
 20
-18.1208637116
 10
-20.9835061819
 20
-18.0694437711
 10
-21.0226129908
 20
-18.0122056959
 10
-21.0572375576
 20
-17.9494411175
 10
-21.0872045619
 20
-17.8814726925
 10
-21.1123627023
 20
-17.8086479487
 10
-21.1325900393
 20
-17.7313211376
 10
-21.1477927577
 20
-17.649862809
 10
-21.1578955005
 20
-17.5646710407
 10
-21.1628439828
 20
-17.4761713469
 10
-21.1626121394
 20
-17.3848012249
  0
LINE
  5
22B
100
AcDbEntity
  8
26814000
100
AcDbLine
 62
253
  6
CONTINUOUS
 10
-13.9563848111
 20
23.1430468811
 11
-13.1016859334
 21
23.579531501
  0
LINE
  5
22C
100
AcDbEntity
  8
26814000
100
AcDbLine
 62
7
  6
CONTINUOUS
 10
-10.4208509052
 20
23.1619411041
 11
-11.4876818174
 21
22.6233598546
  0
LINE
  5
22D
100
AcDbEntity
  8
26814000
100
AcDbLine
 62
7
  6
CONTINUOUS
 10
-12.022131696
 20
24.0912699081
 11
-10.4208509052
 21
24.8939919116
  0
LINE
  5
22E
100
AcDbEntity
  8
26814000
100
AcDbLine
 62
7
  6
CONTINUOUS
 10
-10.4208509052
 20
24.8939919116
 11
-9.8925837335
 21
25.1574307317
  0
LWPOLYLINE
  5
22F
100
AcDbEntity
  8
290140000
100
AcDbPolyline
 62
7
  6
CONTINUOUS
 90
19
 70
0
 10
-17.4052658135
 20
20.7510574234
 10
-17.4224147038
 20
20.7435667485
 10
-17.5133353382
 20
20.6988274502
 10
-17.6015520776
 20
20.6469191265
 10
-17.687091156
 20
20.5879087658
 10
-17.7695967806
 20
20.5221195728
 10
-17.8483499889
 20
20.4502423546
 10
-17.9233890013
 20
20.3723722281
 10
-17.9945537582
 20
20.2887131371
 10
-18.0609613258
 20
20.2003521548
 10
-18.1225863455
 20
20.1074697524
 10
-18.1792850975
 20
20.0102387346
 10
-18.2302485749
 20
19.9100811679
 10
-18.2754170358
 20
19.8072526372
 10
-18.3146540147
 20
19.7019178896
 10
-18.3474125547
 20
19.5955239738
 10
-18.3735420119
 20
19.4886519741
 10
-18.393066131
 20
19.3810844645
 10
-18.3974593773
 20
19.3498490904
  0
LINE
  5
230
100
AcDbEntity
  8
290140000
100
AcDbLine
 62
7
  6
CONTINUOUS
 10
-17.4052703774
 20
20.7510680894
 11
-13.4477844767
 21
22.444781906
  0
LINE
  5
231
100
AcDbEntity
  8
290140000
100
AcDbLine
 62
253
  6
CONTINUOUS
 10
-17.0460027234
 20
20.7285207521
 11
-13.1323084098
 21
22.4034927419
  0
LWPOLYLINE
  5
232
100
AcDbEntity
  8
290140000
100
AcDbPolyline
 62
253
  6
CONTINUOUS
 90
8
 70
0
 10
-17.4051520745
 20
20.7511187458
 10
-17.3954050854
 20
20.7551198606
 10
-17.3419535487
 20
20.7714349424
 10
-17.2857481861
 20
20.7794766433
 10
-17.2274042588
 20
20.7791569333
 10
-17.1675604379
 20
20.7704793122
 10
-17.1068718135
 20
20.7535387711
 10
-17.0460027234
 20
20.7285207521
  0
LWPOLYLINE
  5
233
100
AcDbEntity
  8
26814000
100
AcDbPolyline
 62
7
  6
CONTINUOUS
 90
3
 70
0
 10
-2.4382772698
 20
26.3823519999
 10
-2.4508422896
 20
26.377652949
 10
-2.4567250082
 20
26.3748946571
  0
LWPOLYLINE
  5
234
100
AcDbEntity
  8
26814000
100
AcDbPolyline
 62
7
  6
CONTINUOUS
 90
10
 70
0
 10
-2.4382772698
 20
26.3823519999
 10
-2.429037649
 20
26.3850977988
 10
-2.4204744952
 20
26.3873635173
 10
-2.4125878083
 20
26.3891491554
 10
-2.40533845
 20
26.39047556
 10
-2.3987655586
 20
26.3913218841
 10
-2.3929865492
 20
26.3916255868
 10
-2.3880055921
 20
26.3913862511
 10
-2.3838185169
 20
26.3906042939
 10
-2.3812288357
 20
26.3896078607
  0
LWPOLYLINE
  5
235
100
AcDbEntity
  8
290140000
100
AcDbPolyline
 62
7
  6
CONTINUOUS
 90
12
 70
0
 10
-6.4400484708
 20
-25.4112348436
 10
-6.414178002
 20
-25.4237683508
 10
-6.3323065456
 20
-25.458068515
 10
-6.2473859604
 20
-25.4856926408
 10
-6.1598585531
 20
-25.5063826458
 10
-6.0699309667
 20
-25.5199553975
 10
-5.9781401642
 20
-25.5261860542
 10
-5.8850867462
 20
-25.5249046611
 10
-5.7909737648
 20
-25.5159552951
 10
-5.6961980775
 20
-25.4991955613
 10
-5.6014428087
 20
-25.4745964367
 10
-5.5847983568
 20
-25.4694515561
  0
LINE
  5
236
100
AcDbEntity
  8
290140000
100
AcDbLine
 62
7
  6
CONTINUOUS
 10
-6.4391531311
 20
-25.4116968203
 11
-20.7793628934
 21
-18.2415919392
  0
LINE
  5
237
100
AcDbEntity
  8
290140000
100
AcDbLine
 62
253
  6
CONTINUOUS
 10
-6.8341318048
 20
-24.5490413923
 11
-21.1626121394
 21
-17.3848012249
  0
LINE
  5
238
100
AcDbEntity
  8
290140000
100
AcDbLine
 62
253
  6
CONTINUOUS
 10
-20.7793312378
 20
-18.2416077669
 11
-20.7864838477
 21
-18.2379656202
  0
LINE
  5
239
100
AcDbEntity
  8
26814000
100
AcDbLine
 62
7
  6
CONTINUOUS
 10
-9.8057320702
 20
24.536433145
 11
-10.3329767859
 21
23.894725417
  0
LWPOLYLINE
  5
23A
100
AcDbEntity
  8
26814000
100
AcDbPolyline
 62
7
  6
CONTINUOUS
 90
12
 70
0
 10
-2.4567250082
 20
26.3748946571
 10
-2.4630117996
 20
26.3715382835
 10
-2.4748662262
 20
26.3640340104
 10
-2.4865214062
 20
26.3551614991
 10
-2.4980170011
 20
26.3449763886
 10
-2.5093082988
 20
26.3335453162
 10
-2.5204533652
 20
26.32089829
 10
-2.5315202446
 20
26.3070687539
 10
-2.5424663637
 20
26.292099255
 10
-2.5533136649
 20
26.2760163279
 10
-2.5641520936
 20
26.2588480735
 10
-2.5750364616
 20
26.2406294421
  0
LINE
  5
23B
100
AcDbEntity
  8
26814000
100
AcDbLine
 62
7
  6
CONTINUOUS
 10
-8.1564564738
 20
22.7424349142
 11
-7.6631344586
 21
22.995518446
  0
LINE
  5
23C
100
AcDbEntity
  8
26814000
100
AcDbLine
 62
7
  6
CONTINUOUS
 10
-8.9650699287
 20
23.1335997078
 11
-2.457033302
 21
26.3747413133
  0
LINE
  5
23D
100
AcDbEntity
  8
26814000
100
AcDbLine
 62
253
  6
CONTINUOUS
 10
-8.8895767882
 20
23.0958531375
 11
-2.5750364616
 21
26.2406294421
  0
LINE
  5
23E
100
AcDbEntity
  8
26814000
100
AcDbLine
 62
7
  6
CONTINUOUS
 10
-1.5820161404
 20
25.3608859113
 11
-6.3196315743
 21
23.0258353967
  0
LINE
  5
23F
100
AcDbEntity
  8
26814000
100
AcDbLine
 62
7
  6
CONTINUOUS
 10
-7.6631344586
 20
22.995518446
 11
-2.1854944691
 21
25.6638504093
  0
LINE
  5
240
100
AcDbEntity
  8
26814000
100
AcDbLine
 62
7
  6
CONTINUOUS
 10
3.0313413785
 20
-22.9620378046
 11
3.5585860942
 21
-23.0703300766
  0
LWPOLYLINE
  5
241
100
AcDbEntity
  8
290140000
100
AcDbPolyline
 62
253
  6
CONTINUOUS
 90
9
 70
0
 10
-21.3969300513
 20
-17.1030052142
 10
-21.3953318617
 20
-17.1333613743
 10
-21.3857762936
 20
-17.1727090813
 10
-21.3678668172
 20
-17.2115807397
 10
-21.3417931867
 20
-17.2495644969
 10
-21.3078316572
 20
-17.2862579079
 10
-21.2663420574
 20
-17.3212721993
 10
-21.2177639775
 20
-17.354236388
 10
-21.1626121113
 20
-17.3848012122
  0
LWPOLYLINE
  5
242
100
AcDbEntity
  8
290140000
100
AcDbPolyline
 62
7
  6
CONTINUOUS
 90
15
 70
0
 10
-21.3969207424
 20
-17.1030054966
 10
-21.3976815486
 20
-17.1539272165
 10
-21.3928928431
 20
-17.2730507427
 10
-21.3789795221
 20
-17.3880734892
 10
-21.356157274
 20
-17.4988852664
 10
-21.3246738973
 20
-17.6050055292
 10
-21.2850656888
 20
-17.7053542346
 10
-21.2380941103
 20
-17.7990776954
 10
-21.1841806282
 20
-17.8862086112
 10
-21.1236404458
 20
-17.9667360896
 10
-21.057331672
 20
-18.0400029299
 10
-20.9858287929
 20
-18.1058648151
 10
-20.9088949248
 20
-18.1647312056
 10
-20.8268298719
 20
-18.2163047274
 10
-20.77832496
 20
-18.2420955861
  0
LINE
  5
243
100
AcDbEntity
  8
290140000
100
AcDbLine
 62
7
  6
CONTINUOUS
 10
-21.396924191
 20
-17.1028143112
 11
-21.3969300513
 21
-17.1030052142
  0
LWPOLYLINE
  5
244
100
AcDbEntity
  8
290140000
100
AcDbPolyline
 62
253
  6
CONTINUOUS
 90
13
 70
0
 10
-21.1626121394
 20
-17.3848012249
 10
-21.0566668389
 20
-14.4059050406
 10
-20.9244331429
 20
-11.4147569719
 10
-20.7659274965
 20
-8.4117382891
 10
-20.581169649
 20
-5.397231834
 10
-20.3701830494
 20
-2.3716216585
 10
-20.1329948401
 20
0.664707026
 10
-19.8696354632
 20
3.7113675094
 10
-19.5801382454
 20
6.7679715406
 10
-19.2645397867
 20
9.8341296923
 10
-18.9228803762
 20
12.9094514254
 10
-18.555203991
 20
15.9935451379
 10
-18.1615578738
 20
19.0860181252
  0
LWPOLYLINE
  5
245
100
AcDbEntity
  8
290140000
100
AcDbPolyline
 62
253
  6
CONTINUOUS
 90
10
 70
0
 10
-18.3974593773
 20
19.3498490904
 10
-18.3980910291
 20
19.3438226517
 10
-18.3963998404
 20
19.3115889653
 10
-18.3863158415
 20
19.278658097
 10
-18.3679458732
 20
19.2453789525
 10
-18.3414845669
 20
19.2121041273
 10
-18.3072122825
 20
19.179186171
 10
-18.2654921378
 20
19.1469738526
 10
-18.2167661614
 20
19.1158084642
 10
-18.1615506094
 20
19.0860202061
  0
LWPOLYLINE
  5
246
100
AcDbEntity
  8
290140000
100
AcDbPolyline
 62
7
  6
CONTINUOUS
 90
13
 70
0
 10
-18.3974534137
 20
19.3499387836
 10
-18.7839433425
 20
16.3153320685
 10
-19.1532165541
 20
13.2211707273
 10
-19.4963016899
 20
10.1357572955
 10
-19.8131460277
 20
7.059533259
 10
-20.1037107251
 20
3.9928864302
 10
-20.3679607759
 20
0.9361836943
 10
-20.6058608448
 20
-2.1101935082
 10
-20.8173809337
 20
-5.1458657152
 10
-21.0024932073
 20
-8.1704688208
 10
-21.1611703369
 20
-11.1836198574
 10
-21.2933906701
 20
-14.1848898387
 10
-21.396924191
 20
-17.1028143112
  0
LWPOLYLINE
  5
247
100
AcDbEntity
  8
290140000
100
AcDbPolyline
 62
253
  6
CONTINUOUS
 90
22
 70
0
 10
-18.1615578738
 20
19.0860181252
 10
-18.1462783739
 20
19.1831461968
 10
-18.1259701414
 20
19.281299299
 10
-18.1007354558
 20
19.379992302
 10
-18.0707046878
 20
19.4787329884
 10
-18.0360257732
 20
19.5770387742
 10
-17.9968608429
 20
19.6744387218
 10
-17.9533983333
 20
19.7704665671
 10
-17.905858757
 20
19.8646330572
 10
-17.8544856169
 20
19.9564442897
 10
-17.7995502665
 20
20.0454309944
 10
-17.7413180017
 20
20.1311758478
 10
-17.6800495539
 20
20.2132824445
 10
-17.6160371513
 20
20.2913603103
 10
-17.5496108864
 20
20.3650057586
 10
-17.4811074418
 20
20.4338318314
 10
-17.4108791697
 20
20.4974936828
 10
-17.3392689934
 20
20.5556885106
 10
-17.2666134967
 20
20.6081320671
 10
-17.1932687192
 20
20.6545659753
 10
-17.1196088919
 20
20.6947614318
 10
-17.0460027234
 20
20.7285207521
  0
LINE
  5
248
100
AcDbEntity
  8
26814000
100
AcDbLine
 62
7
  6
CONTINUOUS
 10
-0.254942312
 20
23.8910116777
 11
-1.6527268185
 21
23.1921194245
  0
LINE
  5
249
100
AcDbEntity
  8
26814000
100
AcDbLine
 62
7
  6
CONTINUOUS
 10
-2.0062802091
 20
23.9214543091
 11
-1.5820161404
 21
24.1290517299
  0
LINE
  5
24A
100
AcDbEntity
  8
26814000
100
AcDbLine
 62
7
  6
CONTINUOUS
 10
0.4040534394
 20
24.7510844916
 11
-1.6527268185
 21
23.7446776138
  0
LINE
  5
24B
100
AcDbEntity
  8
21814000
100
AcDbLine
 62
7
  6
CONTINUOUS
 10
-2.5899340288
 20
22.5650236415
 11
-2.7280488309
 21
22.4997865562
  0
LINE
  5
24C
100
AcDbEntity
  8
21814000
100
AcDbLine
 62
253
  6
CONTINUOUS
 10
-2.5064000223
 20
22.5565245548
 11
-2.6426763113
 21
22.492155872
  0
LWPOLYLINE
  5
24D
100
AcDbEntity
  8
21814000
100
AcDbPolyline
 62
253
  6
CONTINUOUS
 90
11
 70
0
 10
-1.6729338993
 20
22.610344528
 10
-1.6638414388
 20
22.6144349791
 10
-1.6547827646
 20
22.6177917643
 10
-1.645795643
 20
22.6203987363
 10
-1.6369144553
 20
22.6222433405
 10
-1.6281799909
 20
22.6233144861
 10
-1.6196386425
 20
22.6236055002
 10
-1.6113218172
 20
22.6231150062
 10
-1.6032685931
 20
22.6218449937
 10
-1.5955326128
 20
22.6198074775
 10
-1.5881589701
 20
22.6170241087
  0
LINE
  5
24E
100
AcDbEntity
  8
21814000
100
AcDbLine
 62
7
  6
CONTINUOUS
 10
-2.5898805133
 20
22.565048919
 11
-2.5866724731
 21
22.5664645486
  0
LWPOLYLINE
  5
24F
100
AcDbEntity
  8
21814000
100
AcDbPolyline
 62
7
  6
CONTINUOUS
 90
5
 70
0
 10
-2.7281672996
 20
22.4997296539
 10
-2.7233241348
 20
22.5017872782
 10
-2.715897775
 20
22.5041051406
 10
-2.7077513568
 20
22.5056375053
 10
-2.6988330218
 20
22.5062884189
  0
LINE
  5
250
100
AcDbEntity
  8
21814000
100
AcDbLine
 62
7
  6
CONTINUOUS
 10
-2.5168318834
 20
22.5925656858
 11
-2.5866728345
 21
22.5664643784
  0
LINE
  5
251
100
AcDbEntity
  8
21814000
100
AcDbLine
 62
7
  6
CONTINUOUS
 10
-2.4417927732
 20
22.6154932509
 11
-2.5168318834
 21
22.5925656858
  0
LWPOLYLINE
  5
252
100
AcDbEntity
  8
21814000
100
AcDbPolyline
 62
7
  6
CONTINUOUS
 90
6
 70
0
 10
-2.5866724731
 20
22.5664645486
 10
-2.5734441986
 20
22.5704065735
 10
-2.5576605784
 20
22.571745209
 10
-2.5410232459
 20
22.5698513838
 10
-2.5238346448
 20
22.5647501749
 10
-2.5064000223
 20
22.5565245548
  0
LINE
  5
253
100
AcDbEntity
  8
26814000
100
AcDbLine
 62
7
  6
CONTINUOUS
 10
-0.3757672444
 20
-24.0332419894
 11
1.230768853
 21
-24.8365100381
  0
LINE
  5
254
100
AcDbEntity
  8
26814000
100
AcDbLine
 62
253
  6
CONTINUOUS
 10
-0.4403607232
 20
-23.8982134481
 11
1.165415739
 21
-24.7011016792
  0
LINE
  5
255
100
AcDbEntity
  8
26814000
100
AcDbLine
 62
253
  6
CONTINUOUS
 10
1.165415739
 20
-24.4477302855
 11
-0.4403607232
 21
-23.6448420544
  0
LINE
  5
256
100
AcDbEntity
  8
26814000
100
AcDbLine
 62
253
  6
CONTINUOUS
 10
1.254318315
 20
-24.2162932258
 11
-0.3524866039
 21
-23.4128907664
  0
LINE
  5
257
100
AcDbEntity
  8
26814000
100
AcDbLine
 62
7
  6
CONTINUOUS
 10
-1.0023312634
 20
-22.0941295363
 11
1.3171216625
 21
-23.2538559993
  0
LINE
  5
258
100
AcDbEntity
  8
26814000
100
AcDbLine
 62
7
  6
CONTINUOUS
 10
1.8766363471
 20
-23.4712338083
 11
1.4673713508
 21
-23.2666013102
  0
LINE
  5
259
100
AcDbEntity
  8
26814000
100
AcDbLine
 62
7
  6
CONTINUOUS
 10
-0.976446137
 20
-21.779556161
 11
1.5646090359
 21
-23.0500837475
  0
LINE
  5
25A
100
AcDbEntity
  8
21814000
100
AcDbLine
 62
7
  6
CONTINUOUS
 10
-2.7427800295
 20
22.490110125
 11
-3.6537063879
 21
21.6928728035
  0
LINE
  5
25B
100
AcDbEntity
  8
21814000
100
AcDbLine
 62
253
  6
CONTINUOUS
 10
-2.6433351858
 20
22.4924853092
 11
-3.592145366
 21
21.6620922925
  0
LWPOLYLINE
  5
25C
100
AcDbEntity
  8
21814000
100
AcDbPolyline
 62
7
  6
CONTINUOUS
 90
5
 70
0
 10
-2.7428772684
 20
22.4900245265
 10
-2.741796465
 20
22.490956047
 10
-2.7362481003
 20
22.4951387834
 10
-2.7300936403
 20
22.498776432
 10
-2.7281672996
 20
22.4997296539
  0
LINE
  5
25D
100
AcDbEntity
  8
21814000
100
AcDbLine
 62
253
  6
CONTINUOUS
 10
-3.0914164077
 20
21.4117278134
 11
-2.617607964
 21
21.7831478698
  0
LINE
  5
25E
100
AcDbEntity
  8
21814000
100
AcDbLine
 62
253
  6
CONTINUOUS
 10
-2.8135267447
 20
21.2727829819
 11
-2.4448008341
 21
21.5618284819
  0
LWPOLYLINE
  5
25F
100
AcDbEntity
  8
21814000
100
AcDbPolyline
 62
253
  6
CONTINUOUS
 90
13
 70
0
 10
-2.617607964
 20
21.7831478698
 10
-2.5764290448
 20
21.8126939997
 10
-2.5332336724
 20
21.8393041359
 10
-2.4880218471
 20
21.8629782783
 10
-2.440244879
 20
21.8838732463
 10
-2.3904514579
 20
21.9018322205
 10
-2.3402876527
 20
21.9163847428
 10
-2.2897818618
 20
21.9274032408
 10
-2.2389056867
 20
21.9350152869
 10
-2.1892200013
 20
21.9391331387
 10
-2.140865047
 20
21.9396713342
 10
-2.0937005823
 20
21.9367153355
 10
-2.0488667574
 20
21.9304337873
  0
LINE
  5
260
100
AcDbEntity
  8
26814000
100
AcDbLine
 62
7
  6
CONTINUOUS
 10
-1.9396905169
 20
19.6340519357
 11
-1.4405947841
 21
19.8842486088
  0
LINE
  5
261
100
AcDbEntity
  8
26814000
100
AcDbLine
 62
7
  6
CONTINUOUS
 10
-1.4405947841
 20
19.8842486088
 11
3.973677911
 21
22.5842642192
  0
LINE
  5
262
100
AcDbEntity
  8
26814000
100
AcDbLine
 62
7
  6
CONTINUOUS
 10
3.3677313279
 20
22.8860121772
 11
-1.369884106
 21
20.5509616625
  0
LINE
  5
263
100
AcDbEntity
  8
26814000
100
AcDbLine
 62
7
  6
CONTINUOUS
 10
4.6466941265
 20
22.629764148
 11
4.0603153394
 21
22.3428420804
  0
LWPOLYLINE
  5
264
100
AcDbEntity
  8
26814000
100
AcDbPolyline
 62
7
  6
CONTINUOUS
 90
18
 70
0
 10
4.6466941265
 20
22.629764148
 10
4.6750686473
 20
22.6429461048
 10
4.7033030993
 20
22.6546804966
 10
4.7313974825
 20
22.6649673233
 10
4.7594017955
 20
22.6738194579
 10
4.7872660398
 20
22.6812240274
 10
4.8148402195
 20
22.6871424131
 10
4.8421093481
 20
22.6915658343
 10
4.8690884121
 20
22.6945030717
 10
4.8956723747
 20
22.6959418476
 10
4.9218773336
 20
22.695874711
 10
4.9476871911
 20
22.6943091131
 10
4.9729486173
 20
22.6912551296
 10
4.9976383707
 20
22.6867093453
 10
5.0217796928
 20
22.6806751754
 10
5.045288979
 20
22.6731729426
 10
5.0681847592
 20
22.664187528
 10
5.0877468435
 20
22.6550977949
  0
LINE
  5
265
100
AcDbEntity
  8
21814000
100
AcDbLine
 62
7
  6
CONTINUOUS
 10
10.8760325974
 20
25.1986605709
 11
5.2225627069
 21
22.587700826
  0
LINE
  5
266
100
AcDbEntity
  8
21814000
100
AcDbLine
 62
253
  6
CONTINUOUS
 10
11.26449008
 20
25.1664462353
 11
5.4425768295
 21
22.4776937646
  0
LWPOLYLINE
  5
267
100
AcDbEntity
  8
21814000
100
AcDbPolyline
 62
253
  6
CONTINUOUS
 90
9
 70
0
 10
11.26449008
 20
25.1664462353
 10
11.3184964815
 20
25.1894777512
 10
11.3722165546
 20
25.2067193878
 10
11.4252523991
 20
25.2179841594
 10
11.4772383243
 20
25.2231280759
 10
11.5277395742
 20
25.222039937
 10
11.5762677104
 20
25.2146845417
 10
11.6224500031
 20
25.2010903922
 10
11.6558610935
 20
25.186580521
  0
LWPOLYLINE
  5
268
100
AcDbEntity
  8
21814000
100
AcDbPolyline
 62
7
  6
CONTINUOUS
 90
12
 70
0
 10
10.8760325974
 20
25.1986605709
 10
10.9416600735
 20
25.2258802205
 10
11.010358904
 20
25.2481559899
 10
11.0816663866
 20
25.2650553722
 10
11.1552230361
 20
25.2762196966
 10
11.2302510184
 20
25.2812914194
 10
11.3056369758
 20
25.2800705726
 10
11.3808224845
 20
25.2725204377
 10
11.4551799161
 20
25.2586738061
 10
11.5277012875
 20
25.2387641893
 10
11.5980533191
 20
25.2129747385
 10
11.655893448
 20
25.1865643435
  0
LWPOLYLINE
  5
269
100
AcDbEntity
  8
21814000
100
AcDbPolyline
 62
253
  6
CONTINUOUS
 90
9
 70
0
 10
10.8760325974
 20
25.1986605709
 10
10.9039452229
 20
25.2100595505
 10
10.9504596359
 20
25.2230386034
 10
10.9992785885
 20
25.2296161968
 10
11.0500306831
 20
25.2297422903
 10
11.1023298151
 20
25.2234159249
 10
11.1557781108
 20
25.2106852292
 10
11.2099689542
 20
25.191647054
 10
11.26449008
 20
25.1664462353
  0
LINE
  5
26A
100
AcDbEntity
  8
26814000
100
AcDbLine
 62
253
  6
CONTINUOUS
 10
3.0313413785
 20
-22.9620378046
 11
2.9879190526
 21
-22.9403266416
  0
LINE
  5
26B
100
AcDbEntity
  8
26814000
100
AcDbLine
 62
7
  6
CONTINUOUS
 10
-0.9025125247
 20
-20.8810654376
 11
2.3777818343
 21
-22.521212617
  0
LINE
  5
26C
100
AcDbEntity
  8
26814000
100
AcDbLine
 62
253
  6
CONTINUOUS
 10
2.9434672592
 20
-22.7627706591
 11
3.5585860942
 21
-23.0703300766
  0
LINE
  5
26D
100
AcDbEntity
  8
26814000
100
AcDbLine
 62
7
  6
CONTINUOUS
 10
2.9434672592
 20
-22.7591505095
 11
3.5818654675
 21
-23.0783496137
  0
LINE
  5
26E
100
AcDbEntity
  8
26814000
100
AcDbLine
 62
7
  6
CONTINUOUS
 10
-0.7721125728
 20
-19.2963579759
 11
2.3777818343
 21
-20.8713051795
  0
LWPOLYLINE
  5
26F
100
AcDbEntity
  8
21814000
100
AcDbPolyline
 62
253
  6
CONTINUOUS
 90
10
 70
0
 10
-1.6729338993
 20
22.610344528
 10
-1.6676767718
 20
22.6158720334
 10
-1.6624423038
 20
22.6206349911
 10
-1.6572530974
 20
22.6246106196
 10
-1.6521296594
 20
22.6277805206
 10
-1.6470964228
 20
22.6301268488
 10
-1.6421812277
 20
22.6316356999
 10
-1.6374031062
 20
22.6323011621
 10
-1.6327849026
 20
22.6321199824
 10
-1.6307455877
 20
22.6317583154
  0
LWPOLYLINE
  5
270
100
AcDbEntity
  8
21814000
100
AcDbPolyline
 62
253
  6
CONTINUOUS
 90
10
 70
0
 10
-1.9294892703
 20
21.8918044907
 10
-1.9485301588
 20
21.8737449255
 10
-1.9663782143
 20
21.8530344603
 10
-1.9826665107
 20
21.8300988673
 10
-1.9970601879
 20
21.805409664
 10
-2.009263336
 20
21.779474419
 10
-2.0190250787
 20
21.7528263175
 10
-2.026144731
 20
21.7260131999
 10
-2.0304759247
 20
21.6995862988
 10
-2.0319296178
 20
21.6740889072
  0
LWPOLYLINE
  5
271
100
AcDbEntity
  8
21814000
100
AcDbPolyline
 62
253
  6
CONTINUOUS
 90
10
 70
0
 10
-1.1710836716
 20
21.5126016914
 10
-1.1901251241
 20
21.494541497
 10
-1.207973516
 20
21.4738304367
 10
-1.2242619317
 20
21.4508943766
 10
-1.2386555325
 20
21.4262049281
 10
-1.250858472
 20
21.4002696912
 10
-1.2606199581
 20
21.3736218102
 10
-1.2677393664
 20
21.346809098
 10
-1.27207038
 20
21.3203827816
 10
-1.273524017
 20
21.2948861069
  0
LWPOLYLINE
  5
272
100
AcDbEntity
  8
21814000
100
AcDbPolyline
 62
253
  6
CONTINUOUS
 90
16
 70
0
 10
-2.4448008341
 20
21.5618284819
 10
-2.4205714986
 20
21.5846914845
 10
-2.3945301705
 20
21.6057107963
 10
-2.366974933
 20
21.6248097489
 10
-2.3382060057
 20
21.6420405328
 10
-2.3085483234
 20
21.6572466035
 10
-2.2783504868
 20
21.6700673726
 10
-2.2479357536
 20
21.6804613824
 10
-2.2176189784
 20
21.688475793
 10
-2.1877310762
 20
21.6939150094
 10
-2.1586193323
 20
21.6967919024
 10
-2.1305091748
 20
21.6972027667
 10
-2.1035397053
 20
21.6950818264
 10
-2.0779353322
 20
21.6904466387
 10
-2.0539879926
 20
21.6834190233
 10
-2.0319296178
 20
21.6740889072
  0
LINE
  5
273
100
AcDbEntity
  8
21814000
100
AcDbLine
 62
253
  6
CONTINUOUS
 10
-1.1530646495
 20
21.0508762125
 11
-1.5796836883
 21
20.6558614537
  0
LINE
  5
274
100
AcDbEntity
  8
21814000
100
AcDbLine
 62
7
  6
CONTINUOUS
 10
-1.2498650205
 20
21.0507159727
 11
-1.6424287255
 21
20.6872339723
  0
LINE
  5
275
100
AcDbEntity
  8
26814000
100
AcDbLine
 62
7
  6
CONTINUOUS
 10
-0.2656349407
 20
18.2130215304
 11
1.3171216625
 21
19.0250056278
  0
LINE
  5
276
100
AcDbEntity
  8
26814000
100
AcDbLine
 62
7
  6
CONTINUOUS
 10
-1.9396905169
 20
18.4198484629
 11
-1.4405947841
 21
18.6718130435
  0
LINE
  5
277
100
AcDbEntity
  8
26814000
100
AcDbLine
 62
7
  6
CONTINUOUS
 10
-1.4405947841
 20
18.6718130435
 11
3.973677911
 21
21.3524256408
  0
LINE
  5
278
100
AcDbEntity
  8
26814000
100
AcDbLine
 62
7
  6
CONTINUOUS
 10
1.3171216625
 20
19.0250056278
 11
1.8515715412
 21
19.2853530944
  0
LINE
  5
279
100
AcDbEntity
  8
21814000
100
AcDbLine
 62
7
  6
CONTINUOUS
 10
12.2356489136
 20
24.6808668184
 11
8.8052450132
 21
23.0435300055
  0
LINE
  5
27A
100
AcDbEntity
  8
26814000
100
AcDbLine
 62
7
  6
CONTINUOUS
 10
-14.2038721846
 20
22.9636701345
 11
-14.2038721846
 21
22.9392746293
  0
LINE
  5
27B
100
AcDbEntity
  8
26814000
100
AcDbLine
 62
7
  6
CONTINUOUS
 10
-13.8046788876
 20
24.3369211672
 11
-13.8046788876
 21
24.590292561
  0
LINE
  5
27C
100
AcDbEntity
  8
21814000
100
AcDbLine
 62
253
  6
CONTINUOUS
 10
-1.1199647247
 20
21.0846025942
 11
-1.1530646495
 21
21.0508762125
  0
LWPOLYLINE
  5
27D
100
AcDbEntity
  8
21814000
100
AcDbPolyline
 62
7
  6
CONTINUOUS
 90
13
 70
0
 10
9.2198225249
 20
21.9679514653
 10
9.0908377068
 20
21.8975977469
 10
8.9719244225
 20
21.8229396983
 10
8.863655589
 20
21.7443370174
 10
8.766552839
 20
21.6621684072
 10
8.6810840077
 20
21.576829751
 10
8.6076608786
 20
21.4887322054
 10
8.5466372
 20
21.3983002189
 10
8.4983069802
 20
21.3059694874
 10
8.4629030713
 20
21.2121848547
 10
8.4405960472
 20
21.1173981695
 10
8.4314933818
 20
21.0220661083
 10
8.43126126
 20
21.0042012269
  0
LINE
  5
27E
100
AcDbEntity
  8
26814000
100
AcDbLine
 62
253
  6
CONTINUOUS
 10
3.4575480924
 20
17.7313010587
 11
8.8158748725
 21
20.6222412856
  0
LINE
  5
27F
100
AcDbEntity
  8
26814000
100
AcDbLine
 62
253
  6
CONTINUOUS
 10
3.0909279391
 20
17.2850889325
 11
8.7317233049
 21
20.3284274417
  0
LINE
  5
280
100
AcDbEntity
  8
0
100
AcDbLine
 62
7
  6
CONTINUOUS
 10
8.8889916647
 20
20.696049385
 11
9.5397653195
 21
21.039215201
  0
LINE
  5
281
100
AcDbEntity
  8
RACCORDO
100
AcDbLine
 62
253
  6
CONTINUOUS
 10
9.5396375375
 20
21.0391478141
 11
9.5397653195
 21
21.039215201
  0
LINE
  5
282
100
AcDbEntity
  8
26814000
100
AcDbLine
 62
253
  6
CONTINUOUS
 10
3.0025379843
 20
17.1497957513
 11
8.7317233049
 21
20.1161682877
  0
LINE
  5
283
100
AcDbEntity
  8
26814000
100
AcDbLine
 62
7
  6
CONTINUOUS
 10
3.122304115
 20
17.089912686
 11
8.8139330172
 21
20.0368398175
  0
LINE
  5
284
100
AcDbEntity
  8
21814000
100
AcDbLine
 62
7
  6
CONTINUOUS
 10
13.2319785033
 20
24.009351258
 11
9.2198225249
 21
21.9679514653
  0
LINE
  5
285
100
AcDbEntity
  8
26814000
100
AcDbLine
 62
7
  6
CONTINUOUS
 10
1.3421864684
 20
17.4091108259
 11
2.9434672592
 21
18.2118328294
  0
LINE
  5
286
100
AcDbEntity
  8
0
100
AcDbLine
 62
7
  6
CONTINUOUS
 10
9.6680527483
 20
20.8161234697
 11
10.1630274951
 21
21.0636108431
  0
LINE
  5
287
100
AcDbEntity
  8
26814000
100
AcDbLine
 62
7
  6
CONTINUOUS
 10
2.9434672592
 20
18.2118328294
 11
3.471734431
 21
18.4752716495
  0
LINE
  5
288
100
AcDbEntity
  8
21814000
100
AcDbLine
 62
7
  6
CONTINUOUS
 10
13.2319785033
 20
23.6014999907
 11
9.2198225249
 21
21.6466271831
  0
LINE
  5
289
100
AcDbEntity
  8
26814000
100
AcDbLine
 62
253
  6
CONTINUOUS
 10
2.8539450493
 20
18.8461437112
 11
7.6257840274
 21
21.1402191976
  0
LINE
  5
28A
100
AcDbEntity
  8
26814000
100
AcDbLine
 62
253
  6
CONTINUOUS
 10
3.0815605491
 20
18.7323359613
 11
8.0676248953
 21
21.1294009173
  0
LINE
  5
28B
100
AcDbEntity
  8
290140000
100
AcDbLine
 62
253
  6
CONTINUOUS
 10
1.4324297273
 20
15.1211236733
 11
-2.6923376502
 21
13.5516882156
  0
LINE
  5
28C
100
AcDbEntity
  8
26814000
100
AcDbLine
 62
7
  6
CONTINUOUS
 10
1.5646090359
 20
15.055034019
 11
2.3777818343
 21
15.3393356869
  0
LINE
  5
28D
100
AcDbEntity
  8
26814000
100
AcDbLine
 62
7
  6
CONTINUOUS
 10
-13.3906993862
 20
22.5326882301
 11
-13.3906993862
 21
22.4633517367
  0
LINE
  5
28E
100
AcDbEntity
  8
26814000
100
AcDbLine
 62
7
  6
CONTINUOUS
 10
-13.1016859334
 20
23.4303619126
 11
-13.1016859334
 21
23.8826928882
  0
LINE
  5
28F
100
AcDbEntity
  8
26814000
100
AcDbLine
 62
7
  6
CONTINUOUS
 10
-12.1989024255
 20
23.7874043299
 11
-12.1989024255
 21
23.5340329361
  0
LINE
  5
290
100
AcDbEntity
  8
26814000
100
AcDbLine
 62
7
  6
CONTINUOUS
 10
-11.4876818174
 20
22.6233598546
 11
-11.4876818174
 21
23.2605294133
  0
LWPOLYLINE
  5
291
100
AcDbEntity
  8
26814000
100
AcDbPolyline
 62
7
  6
CONTINUOUS
 90
5
 70
0
 10
8.814141511
 20
20.0369381288
 10
8.8143759478
 20
20.0370711306
 10
8.8153031838
 20
20.037898802
 10
8.8158096013
 20
20.0389498734
 10
8.8159213466
 20
20.0398941176
  0
LINE
  5
292
100
AcDbEntity
  8
26814000
100
AcDbLine
 62
253
  6
CONTINUOUS
 10
3.0848886155
 20
16.4090713437
 11
1.3171216625
 21
15.5062936442
  0
LINE
  5
293
100
AcDbEntity
  8
26814000
100
AcDbLine
 62
253
  6
CONTINUOUS
 10
3.3323759889
 20
15.9822072238
 11
1.5646090359
 21
15.0794295243
  0
LINE
  5
294
100
AcDbEntity
  8
26814000
100
AcDbLine
 62
7
  6
CONTINUOUS
 10
2.9434672592
 20
16.4797820219
 11
1.8766363471
 21
15.9412007723
  0
LINE
  5
295
100
AcDbEntity
  8
RACCORDO
100
AcDbLine
 62
7
  6
CONTINUOUS
 10
12.6312054077
 20
21.2441106954
 11
11.3197410966
 21
20.5883785399
  0
LINE
  5
296
100
AcDbEntity
  8
RACCORDO
100
AcDbLine
 62
7
  6
CONTINUOUS
 10
13.4797361154
 20
20.8198479118
 11
12.6008434642
 21
20.3804015862
  0
LINE
  5
297
100
AcDbEntity
  8
26814000
100
AcDbLine
 62
253
  6
CONTINUOUS
 10
3.7919953966
 20
16.7550670451
 11
3.0848886155
 21
16.4090713437
  0
LINE
  5
298
100
AcDbEntity
  8
26814000
100
AcDbLine
 62
253
  6
CONTINUOUS
 10
4.0394827701
 20
16.3282029252
 11
3.3323759889
 21
15.9822072238
  0
LINE
  5
299
100
AcDbEntity
  8
21814000
100
AcDbLine
 62
7
  6
CONTINUOUS
 10
9.3977249446
 20
19.5373230998
 11
3.7318603757
 21
16.7851345556
  0
LINE
  5
29A
100
AcDbEntity
  8
21814000
100
AcDbLine
 62
7
  6
CONTINUOUS
 10
17.7429839288
 20
21.9271993108
 11
10.1504190286
 21
18.2391178388
  0
LINE
  5
29B
100
AcDbEntity
  8
21814000
100
AcDbLine
 62
7
  6
CONTINUOUS
 10
16.9373119927
 20
22.3300352789
 11
13.516165923
 21
20.6880695506
  0
LWPOLYLINE
  5
29C
100
AcDbEntity
  8
RACCORDO
100
AcDbPolyline
 62
7
  6
CONTINUOUS
 90
10
 70
0
 10
13.4797072195
 20
20.8198334639
 10
13.4911036837
 20
20.8250021191
 10
13.5023240862
 20
20.8290540155
 10
13.5133684269
 20
20.831989153
 10
13.5243316859
 20
20.8338076844
 10
13.535118883
 20
20.8345094569
 10
13.5454450785
 20
20.8340940125
 10
13.5552152922
 20
20.8325611986
 10
13.5645245042
 20
20.8299111679
 10
13.5733727145
 20
20.8261439203
  0
LWPOLYLINE
  5
29D
100
AcDbEntity
  8
21814000
100
AcDbPolyline
 62
7
  6
CONTINUOUS
 90
9
 70
0
 10
17.7429839288
 20
21.9271993108
 10
17.7991298065
 20
21.9524623492
 10
17.8523625174
 20
21.9719148416
 10
17.9022329779
 20
21.9855444526
 10
17.9482037476
 20
21.9934521401
 10
17.9899957092
 20
21.995685118
 10
18.0275886193
 20
21.9922281037
 10
18.0606229078
 20
21.9832914996
 10
18.0751848583
 20
21.9769184417
  0
LWPOLYLINE
  5
29E
100
AcDbEntity
  8
290140000
100
AcDbPolyline
 62
253
  6
CONTINUOUS
 90
22
 70
0
 10
-2.6923376502
 20
13.5516882156
 10
-2.7677779887
 20
13.5188459802
 10
-2.8432417984
 20
13.4795525149
 10
-2.9183603709
 20
13.4340055042
 10
-2.9927677303
 20
13.382437879
 10
-3.0660995817
 20
13.3251038888
 10
-3.1379945759
 20
13.2622753985
 10
-3.2081094189
 20
13.1942550248
 10
-3.2760921291
 20
13.1213877992
 10
-3.3415823713
 20
13.0440488532
 10
-3.4042484088
 20
12.9626410514
 10
-3.4637996577
 20
12.87755569
 10
-3.5199566669
 20
12.7891798147
 10
-3.5724531203
 20
12.6979302388
 10
-3.6210186846
 20
12.6042767428
 10
-3.6653941981
 20
12.5087053994
 10
-3.7053571778
 20
12.4117044765
 10
-3.7407211577
 20
12.3137412234
 10
-3.7713142593
 20
12.2152817038
 10
-3.7969852973
 20
12.116806877
 10
-3.8176071504
 20
12.0188105851
 10
-3.8330775392
 20
11.9217779579
  0
LWPOLYLINE
  5
29F
100
AcDbEntity
  8
290140000
100
AcDbPolyline
 62
253
  6
CONTINUOUS
 90
22
 70
0
 10
-2.1859560373
 20
12.5505985742
 10
-2.2217622982
 20
12.5354423363
 10
-2.257281853
 20
12.517453414
 10
-2.2925147017
 20
12.4966318074
 10
-2.3276468445
 20
12.4728420357
 10
-2.3624922812
 20
12.4462195797
 10
-2.3964930104
 20
12.4171708813
 10
-2.4296242686
 20
12.3856625405
 10
-2.4619108193
 20
12.3517279574
 10
-2.4928689516
 20
12.3158737737
 10
-2.5224741096
 20
12.278077476
 10
-2.5507508493
 20
12.2383615777
 10
-2.5772891279
 20
12.1973002601
 10
-2.6020683833
 20
12.1548641355
 10
-2.6251091776
 20
12.1110825917
 10
-2.6460631543
 20
12.0666179735
 10
-2.6648975236
 20
12.0214495307
 10
-2.6816450753
 20
11.9755980136
 10
-2.6960558225
 20
11.9297880176
 10
-2.7080464359
 20
11.8842610747
 10
-2.7177002448
 20
11.838775653
 10
-2.725017249
 20
11.7933317524
  0
LINE
  5
2A0
100
AcDbEntity
  8
290140000
100
AcDbLine
 62
253
  6
CONTINUOUS
 10
1.9788575239
 20
14.1352712308
 11
-2.1859560373
 21
12.5505985742
  0
LINE
  5
2A1
100
AcDbEntity
  8
26814000
100
AcDbLine
 62
7
  6
CONTINUOUS
 10
-10.4208509052
 20
23.1619411041
 11
-10.4208509052
 21
24.8939919116
  0
LINE
  5
2A2
100
AcDbEntity
  8
26814000
100
AcDbLine
 62
7
  6
CONTINUOUS
 10
-9.7178579509
 20
25.0293134094
 11
-9.7178579509
 21
24.768384433
  0
LINE
  5
2A3
100
AcDbEntity
  8
21814000
100
AcDbLine
 62
253
  6
CONTINUOUS
 10
18.5014906236
 20
20.031866803
 11
4.0394827701
 21
12.5439430376
  0
LINE
  5
2A4
100
AcDbEntity
  8
21814000
100
AcDbLine
 62
253
  6
CONTINUOUS
 10
18.1625271398
 20
21.2035943094
 11
4.0394827701
 21
14.1817381111
  0
LINE
  5
2A5
100
AcDbEntity
  8
26814000
100
AcDbLine
 62
7
  6
CONTINUOUS
 10
-8.2430939022
 20
22.6359279723
 11
-8.2430939022
 21
21.4211945861
  0
LINE
  5
2A6
100
AcDbEntity
  8
26814000
100
AcDbLine
 62
253
  6
CONTINUOUS
 10
-8.1552259366
 20
22.5294190154
 11
-8.1552259366
 21
21.3144641494
  0
LWPOLYLINE
  5
2A7
100
AcDbEntity
  8
290140000
100
AcDbPolyline
 62
253
  6
CONTINUOUS
 90
15
 70
0
 10
-6.8341318048
 20
-24.5490413923
 10
-6.8341728207
 20
-24.640506928
 10
-6.8289107562
 20
-24.7291634129
 10
-6.8183716763
 20
-24.8145733496
 10
-6.8026065725
 20
-24.8963128711
 10
-6.7816940951
 20
-24.9739822523
 10
-6.7557379407
 20
-25.0472060031
 10
-6.7248581847
 20
-25.1156308039
 10
-6.6892079925
 20
-25.1789081951
 10
-6.6489781583
 20
-25.236707783
 10
-6.6043757781
 20
-25.2887384731
 10
-6.5556133558
 20
-25.3347595116
 10
-6.5029207234
 20
-25.3745565074
 10
-6.4465398007
 20
-25.4079376437
 10
-6.4399799831
 20
-25.4112826383
  0
LINE
  5
2A8
100
AcDbEntity
  8
26814000
100
AcDbLine
 62
7
  6
CONTINUOUS
 10
3.5585860942
 20
17.8542740628
 11
3.0313413785
 21
17.2125663348
  0
LWPOLYLINE
  5
2A9
100
AcDbEntity
  8
21814000
100
AcDbPolyline
 62
253
  6
CONTINUOUS
 90
32
 70
0
 10
18.6091499138
 20
14.485569681
 10
18.6292410188
 20
14.4915163664
 10
18.6485608185
 20
14.4953674727
 10
18.6670864377
 20
14.4971500127
 10
18.6847814376
 20
14.4967661093
 10
18.7016201699
 20
14.4943832568
 10
18.7175973622
 20
14.4904238713
 10
18.7326371064
 20
14.4849626773
 10
18.7467507494
 20
14.4779952505
 10
18.7600732797
 20
14.4698155471
 10
18.7725883972
 20
14.4605206576
 10
18.7842441754
 20
14.4500913067
 10
18.7951243207
 20
14.4386465517
 10
18.8052279797
 20
14.4262624699
 10
18.814476766
 20
14.4129595614
 10
18.8228350005
 20
14.3987793459
 10
18.8302835186
 20
14.383799318
 10
18.8367516483
 20
14.3680594993
 10
18.8421218117
 20
14.3515530011
 10
18.8463693238
 20
14.3343967849
 10
18.8494190653
 20
14.3166150249
 10
18.8510653593
 20
14.2980799179
 10
18.8512988103
 20
14.2789525062
 10
18.8500045617
 20
14.2592607239
 10
18.8467883307
 20
14.2387207069
 10
18.8416468024
 20
14.2175278339
 10
18.8344094463
 20
14.1957692236
 10
18.8243846686
 20
14.1730677546
 10
18.8115779248
 20
14.149700842
 10
18.7957506164
 20
14.1258018928
 10
18.7757892926
 20
14.1008653111
 10
18.7540848033
 20
14.0778255803
  0
LWPOLYLINE
  5
2AA
100
AcDbEntity
  8
290140000
100
AcDbPolyline
 62
253
  6
CONTINUOUS
 90
22
 70
0
 10
-5.7180687032
 20
-24.5802320794
 10
-5.718021614
 20
-24.6230739339
 10
-5.7155079139
 20
-24.6642874415
 10
-5.7105276031
 20
-24.7038726023
 10
-5.7030331242
 20
-24.7420272632
 10
-5.6930720345
 20
-24.7785535772
 10
-5.6807870062
 20
-24.8128580039
 10
-5.6661414039
 20
-24.8448919073
 10
-5.649171863
 20
-24.8747039233
 10
-5.6301309619
 20
-24.9018464192
 10
-5.6089912378
 20
-24.9262756929
 10
-5.5857801536
 20
-24.9480354466
 10
-5.5608326758
 20
-24.9668091533
 10
-5.5341170084
 20
-24.9825556452
 10
-5.5056649473
 20
-24.9953160902
 10
-5.4759068477
 20
-25.0048974656
 10
-5.4448137419
 20
-25.0112454598
 10
-5.4124145974
 20
-25.0144143842
 10
-5.3792266724
 20
-25.0143741513
 10
-5.345422386
 20
-25.0111147317
 10
-5.3108293191
 20
-25.0046461546
 10
-5.2754474715
 20
-24.9949684202
  0
LWPOLYLINE
  5
2AB
100
AcDbEntity
  8
290140000
100
AcDbPolyline
 62
253
  6
CONTINUOUS
 90
13
 70
0
 10
-3.8330775392
 20
11.9217779579
 10
-4.234483486
 20
8.8331848854
 10
-4.6085090433
 20
5.7522657589
 10
-4.9551069682
 20
2.679413283
 10
-5.2742335534
 20
-0.3849808054
 10
-5.56584824
 20
-3.4405261022
 10
-5.8299136197
 20
-6.4868335842
 10
-6.0663958264
 20
-9.52351527
 10
-6.2752649573
 20
-12.5501841799
 10
-6.4564946784
 20
-15.5664546981
 10
-6.6100618104
 20
-18.5719426382
 10
-6.7359463341
 20
-21.566265293
 10
-6.8341318048
 20
-24.5490413923
  0
LWPOLYLINE
  5
2AC
100
AcDbEntity
  8
21814000
100
AcDbPolyline
 62
7
  6
CONTINUOUS
 90
9
 70
0
 10
-1.1860036046
 20
21.1475977061
 10
-1.1875865987
 20
21.1397806284
 10
-1.191008959
 20
21.1295090213
 10
-1.1967726977
 20
21.1169526722
 10
-1.2050914532
 20
21.1027112527
 10
-1.2157700674
 20
21.0876519991
 10
-1.2285846217
 20
21.072282626
 10
-1.2434279054
 20
21.0568321229
 10
-1.2498648424
 20
21.0507157795
  0
LWPOLYLINE
  5
2AD
100
AcDbEntity
  8
RACCORDO
100
AcDbPolyline
 62
253
  6
CONTINUOUS
 90
47
 70
0
 10
9.1049840682
 20
20.6029567054
 10
9.1439168425
 20
20.6549987002
 10
9.1932000608
 20
20.7117793777
 10
9.2483337354
 20
20.767369992
 10
9.3088372138
 20
20.8213125143
 10
9.3747095654
 20
20.8735654138
 10
9.4459517207
 20
20.9241702212
 10
9.5220858184
 20
20.9727934998
 10
9.6031024474
 20
21.0194212423
 10
9.6890110187
 20
21.0640674559
 10
9.7793619045
 20
21.106440725
 10
9.8744121846
 20
21.146599923
 10
9.9739047792
 20
21.1844861765
 10
10.0766188195
 20
21.2196314496
 10
10.1829596883
 20
21.2520091695
 10
10.2925220029
 20
21.2816459091
 10
10.4028687472
 20
21.3081533513
 10
10.5139732642
 20
21.3313527447
 10
10.6258622109
 20
21.3514228408
 10
10.736178543
 20
21.3685115765
 10
10.8445690329
 20
21.3824854724
 10
10.9513869082
 20
21.393478008
 10
11.0553348073
 20
21.4020375592
 10
11.1561706417
 20
21.4081401288
 10
11.2541365
 20
21.4118097139
 10
11.3486612864
 20
21.4136666827
 10
11.4395830265
 20
21.4137325516
 10
11.5270636946
 20
21.4119858041
 10
11.611018118
 20
21.4089822587
 10
11.6913221914
 20
21.4047634581
 10
11.76810002
 20
21.3992878596
 10
11.8416387464
 20
21.392986654
 10
11.9119052801
 20
21.3859006202
 10
11.9789327117
 20
21.3779889793
 10
12.0431074558
 20
21.3695605851
 10
12.1044152027
 20
21.3606499446
 10
12.1628702621
 20
21.3512225508
 10
12.2189019786
 20
21.341483737
 10
12.2725065621
 20
21.3314622152
 10
12.3236878028
 20
21.3211292735
 10
12.3728864151
 20
21.3106041088
 10
12.42010556
 20
21.2999095696
 10
12.4653420766
 20
21.2890228075
 10
12.5090271964
 20
21.2779944739
 10
12.5513046635
 20
21.2668414525
 10
12.5920307339
 20
21.2555468597
 10
12.6312054077
 20
21.2441106954
  0
LWPOLYLINE
  5
2AE
100
AcDbEntity
  8
RACCORDO
100
AcDbPolyline
 62
253
  6
CONTINUOUS
 90
10
 70
0
 10
9.0233301986
 20
20.6366143475
 10
9.0256248867
 20
20.6396743582
 10
9.0784875378
 20
20.7003914562
 10
9.1375664083
 20
20.7596506734
 10
9.2026591877
 20
20.8172586066
 10
9.2735350196
 20
20.8730320743
 10
9.3500281574
 20
20.9268600098
 10
9.4320195611
 20
20.9786611935
 10
9.5192681581
 20
21.0282788328
 10
9.5396375375
 20
21.0391478141
  0
LINE
  5
2AF
100
AcDbEntity
  8
21814000
100
AcDbLine
 62
253
  6
CONTINUOUS
 10
-2.4448008341
 20
21.5618284819
 11
-2.4448008341
 21
21.0884200266
  0
LINE
  5
2B0
100
AcDbEntity
  8
26814000
100
AcDbLine
 62
253
  6
CONTINUOUS
 10
-2.3627168685
 20
18.4182096153
 11
-2.3627168685
 21
19.6331644814
  0
LWPOLYLINE
  5
2B1
100
AcDbEntity
  8
290140000
100
AcDbPolyline
 62
253
  6
CONTINUOUS
 90
16
 70
0
 10
-2.1859560373
 20
12.5505985742
 10
-2.1843726847
 20
12.6266793486
 10
-2.1888355831
 20
12.7050823513
 10
-2.1992959096
 20
12.7849493563
 10
-2.2156391909
 20
12.8654061072
 10
-2.2376865536
 20
12.9455718792
 10
-2.2651966794
 20
13.0245691201
 10
-2.2978684528
 20
13.1015330742
 10
-2.3353442497
 20
13.1756212287
 10
-2.3772138451
 20
13.2460225314
 10
-2.4230189231
 20
13.3119663064
 10
-2.4722580806
 20
13.3727306621
 10
-2.5243923
 20
13.4276503836
 10
-2.5788508793
 20
13.4761242533
 10
-2.6350376832
 20
13.5176216257
 10
-2.6923376484
 20
13.5516882162
  0
LINE
  5
2B2
100
AcDbEntity
  8
21814000
100
AcDbLine
 62
7
  6
CONTINUOUS
 10
-1.1856610186
 20
21.1524680587
 11
-1.1860036046
 21
21.1475977061
  0
LWPOLYLINE
  5
2B3
100
AcDbEntity
  8
290140000
100
AcDbPolyline
 62
253
  6
CONTINUOUS
 90
7
 70
0
 10
-4.7165629766
 20
-6.5661814638
 10
-4.9523996024
 20
-9.5946453301
 10
-5.1607271302
 20
-12.6135106561
 10
-5.341465782
 20
-15.6216179438
 10
-5.4945889651
 20
-18.618580694
 10
-5.6201232722
 20
-21.6047854058
 10
-5.7180687032
 20
-24.5802320794
  0
LWPOLYLINE
  5
2B4
100
AcDbEntity
  8
290140000
100
AcDbPolyline
 62
253
  6
CONTINUOUS
 90
7
 70
0
 10
-2.725017249
 20
11.7933317524
 10
-3.1254349685
 20
8.7123388466
 10
-3.4984553153
 20
5.6397755554
 10
-3.8440782895
 20
2.5756418788
 10
-4.1623411329
 20
-0.4804518252
 10
-4.4532066037
 20
-3.5281159146
 10
-4.7165629766
 20
-6.5661814638
  0
LINE
  5
2B5
100
AcDbEntity
  8
26814000
100
AcDbLine
 62
7
  6
CONTINUOUS
 10
0.456715512
 20
-4.3628169178
 11
0.6453702204
 21
-4.457144272
  0
LWPOLYLINE
  5
2B6
100
AcDbEntity
  8
26814000
100
AcDbPolyline
 62
7
  6
CONTINUOUS
 90
13
 70
0
 10
8.8125017299
 20
-16.8868811543
 10
8.8096105648
 20
-16.8829879634
 10
8.8059218006
 20
-16.8786056232
 10
8.8014618367
 20
-16.8738483303
 10
8.7962689784
 20
-16.8687084757
 10
8.7903863212
 20
-16.8631611169
 10
8.7838257871
 20
-16.8572935183
 10
8.7766188839
 20
-16.8510962104
 10
8.7688017382
 20
-16.8445510858
 10
8.7603777988
 20
-16.8377302096
 10
8.7513649074
 20
-16.8306481848
 10
8.741803062
 20
-16.8232645416
 10
8.7317233049
 20
-16.8155679869
  0
LINE
  5
2B7
100
AcDbEntity
  8
26814000
100
AcDbLine
 62
7
  6
CONTINUOUS
 10
-0.2086771909
 20
-12.4491142373
 11
0.3721568179
 21
-17.8629398109
  0
LINE
  5
2B8
100
AcDbEntity
  8
21814000
100
AcDbLine
 62
7
  6
CONTINUOUS
 10
-1.1856560899
 20
21.152525186
 11
-1.1856560544
 21
21.1524262097
  0
LINE
  5
2B9
100
AcDbEntity
  8
21814000
100
AcDbLine
 62
253
  6
CONTINUOUS
 10
-2.0319296178
 20
21.6740889072
 11
-2.0319296178
 21
20.8819844184
  0
LINE
  5
2BA
100
AcDbEntity
  8
26814000
100
AcDbLine
 62
7
  6
CONTINUOUS
 10
-2.0062802091
 20
22.6711834498
 11
-2.0062802091
 21
23.9214543091
  0
LINE
  5
2BB
100
AcDbEntity
  8
26814000
100
AcDbLine
 62
253
  6
CONTINUOUS
 10
-1.9396905169
 20
18.4198484629
 11
-1.9396905169
 21
19.6340519357
  0
LINE
  5
2BC
100
AcDbEntity
  8
26814000
100
AcDbLine
 62
7
  6
CONTINUOUS
 10
-1.6527268185
 20
23.1921194245
 11
-1.6527268185
 21
23.7446776138
  0
LINE
  5
2BD
100
AcDbEntity
  8
26814000
100
AcDbLine
 62
253
  6
CONTINUOUS
 10
-1.5820161404
 20
25.3608859113
 11
-1.5820161404
 21
24.1290517299
  0
LINE
  5
2BE
100
AcDbEntity
  8
26814000
100
AcDbLine
 62
7
  6
CONTINUOUS
 10
-1.4941481747
 20
25.4658831253
 11
-1.4941481747
 21
24.2335145204
  0
LINE
  5
2BF
100
AcDbEntity
  8
26814000
100
AcDbLine
 62
7
  6
CONTINUOUS
 10
-1.4405947841
 20
19.8842486088
 11
-1.4405947841
 21
18.6718130435
  0
LINE
  5
2C0
100
AcDbEntity
  8
21814000
100
AcDbLine
 62
253
  6
CONTINUOUS
 10
-1.2735240192
 20
21.2948861079
 11
-1.2735240192
 21
21.0288099226
  0
LINE
  5
2C1
100
AcDbEntity
  8
26814000
100
AcDbLine
 62
7
  6
CONTINUOUS
 10
-0.4403607232
 20
-23.8982134481
 11
-0.4403607232
 21
-23.6448420544
  0
LINE
  5
2C2
100
AcDbEntity
  8
26814000
100
AcDbLine
 62
7
  6
CONTINUOUS
 10
-0.4403607232
 20
17.654762085
 11
-0.4403607232
 21
17.9081334788
  0
LWPOLYLINE
  5
2C3
100
AcDbEntity
  8
290140000
100
AcDbPolyline
 62
253
  6
CONTINUOUS
 90
11
 70
0
 10
-5.2754474715
 20
-24.9949684202
 10
-5.2862161121
 20
-25.0689963385
 10
-5.3028959075
 20
-25.139058923
 10
-5.3253042695
 20
-25.2043892225
 10
-5.3531959015
 20
-25.2642720882
 10
-5.3862654832
 20
-25.3180520028
 10
-5.424151013
 20
-25.3651402556
 10
-5.466437771
 20
-25.4050213876
 10
-5.5126628583
 20
-25.4372588335
 10
-5.5623202646
 20
-25.4614997009
 10
-5.5843408358
 20
-25.4693152562
  0
LINE
  5
2C4
100
AcDbEntity
  8
21814000
100
AcDbLine
 62
7
  6
CONTINUOUS
 10
18.7540848033
 20
14.0629053627
 11
19.8248078973
 21
14.7554400199
  0
LINE
  5
2C5
100
AcDbEntity
  8
26814000
100
AcDbLine
 62
7
  6
CONTINUOUS
 10
0.6453702204
 20
-4.457144272
 11
2.3777818343
 21
-20.8713051795
  0
LWPOLYLINE
  5
2C6
100
AcDbEntity
  8
26814000
100
AcDbPolyline
 62
7
  6
CONTINUOUS
 90
24
 70
0
 10
1.1049896281
 20
24.2355601578
 10
1.1044164437
 20
24.270032564
 10
1.1027173307
 20
24.3037824849
 10
1.0998922892
 20
24.3368099207
 10
1.0959318546
 20
24.3691714781
 10
1.0908454915
 20
24.4008105503
 10
1.0846615931
 20
24.4315573168
 10
1.0773789777
 20
24.4613928443
 10
1.068998827
 20
24.490336066
 10
1.0595530798
 20
24.518273962
 10
1.0490292213
 20
24.5452201248
 10
1.0374397662
 20
24.5711609617
 10
1.0248541975
 20
24.5959426746
 10
1.0112790116
 20
24.619539976
 10
0.9967077121
 20
24.6419781533
 10
0.981190292
 20
24.6631792706
 10
0.9647070047
 20
24.6831563605
 10
0.9472775968
 20
24.7018963903
 10
0.9290113021
 20
24.7192823259
 10
0.9099226462
 20
24.7352912522
 10
0.8899971035
 20
24.7499460843
 10
0.8693003311
 20
24.7631985327
 10
0.8478078165
 20
24.775054394
 10
-2.3813934497
 20
26.3896789043
  0
LINE
  5
2C7
100
AcDbEntity
  8
26814000
100
AcDbLine
 62
7
  6
CONTINUOUS
 10
0.2626322311
 20
16.7482028303
 11
0.2626322311
 21
17.200533806
  0
LINE
  5
2C8
100
AcDbEntity
  8
26814000
100
AcDbLine
 62
7
  6
CONTINUOUS
 10
1.1049896281
 20
24.2355601578
 11
1.1049896281
 21
23.9647598651
  0
LINE
  5
2C9
100
AcDbEntity
  8
26814000
100
AcDbLine
 62
7
  6
CONTINUOUS
 10
1.165415739
 20
17.1052452477
 11
1.165415739
 21
16.8518738539
  0
LINE
  5
2CA
100
AcDbEntity
  8
26814000
100
AcDbLine
 62
7
  6
CONTINUOUS
 10
1.165415739
 20
-24.4477302855
 11
1.165415739
 21
-24.7011016792
  0
LINE
  5
2CB
100
AcDbEntity
  8
26814000
100
AcDbLine
 62
7
  6
CONTINUOUS
 10
1.5646090359
 20
15.0794295243
 11
1.5646090359
 21
15.055034019
  0
LINE
  5
2CC
100
AcDbEntity
  8
26814000
100
AcDbLine
 62
7
  6
CONTINUOUS
 10
1.5646090359
 20
-23.0500837475
 11
1.5646090359
 21
-23.0744792528
  0
LINE
  5
2CD
100
AcDbEntity
  8
26814000
100
AcDbLine
 62
7
  6
CONTINUOUS
 10
1.8766363471
 20
-23.4712338083
 11
1.8766363471
 21
-23.0666117173
  0
LINE
  5
2CE
100
AcDbEntity
  8
26814000
100
AcDbLine
 62
7
  6
CONTINUOUS
 10
1.8766363471
 20
15.9412007723
 11
1.8766363471
 21
16.5783703311
  0
LINE
  5
2CF
100
AcDbEntity
  8
290140000
100
AcDbLine
 62
7
  6
CONTINUOUS
 10
-1.1329112581
 20
-23.6810249985
 11
1.9788575239
 21
14.1352712308
  0
LINE
  5
2D0
100
AcDbEntity
  8
26814000
100
AcDbLine
 62
7
  6
CONTINUOUS
 10
2.3777818343
 20
13.6894282494
 11
0.6453702204
 21
-4.457144272
  0
LWPOLYLINE
  5
2D1
100
AcDbEntity
  8
21814000
100
AcDbPolyline
 62
253
  6
CONTINUOUS
 90
28
 70
0
 10
18.5014906236
 20
14.3565118095
 10
18.5177690996
 20
14.3709776984
 10
18.5338217261
 20
14.3831320421
 10
18.5496153006
 20
14.3929780308
 10
18.5651464044
 20
14.4005655507
 10
18.5803468237
 20
14.405850069
 10
18.5950948231
 20
14.4086883554
 10
18.6093883807
 20
14.4089064125
 10
18.62317438
 20
14.4066720995
 10
18.6362850599
 20
14.4023438104
 10
18.6486682751
 20
14.3958465974
 10
18.6603713513
 20
14.3872324713
 10
18.6713964955
 20
14.3770440311
 10
18.681713078
 20
14.3653396377
 10
18.691347336
 20
14.3520394437
 10
18.7003697498
 20
14.3374825033
 10
18.7087591672
 20
14.3217163997
 10
18.7164979712
 20
14.304678559
 10
18.7236264523
 20
14.2865485763
 10
18.7301115516
 20
14.2673305323
 10
18.7359076372
 20
14.2470072875
 10
18.741002665
 20
14.2257296381
 10
18.7453426482
 20
14.2034955086
 10
18.7488729456
 20
14.180289324
 10
18.7515503351
 20
14.1562418148
 10
18.7533015584
 20
14.1313689232
 10
18.7540588315
 20
14.1056275963
 10
18.7540844395
 20
14.1005669738
  0
LWPOLYLINE
  5
2D2
100
AcDbEntity
  8
21814000
100
AcDbPolyline
 62
7
  6
CONTINUOUS
 90
76
 70
0
 10
18.6091499138
 20
14.485569681
 10
18.6711633421
 20
14.5371878867
 10
18.7314732351
 20
14.5878185272
 10
18.7900795928
 20
14.6374616027
 10
18.8469431818
 20
14.6860861617
 10
18.9021032356
 20
14.7337231556
 10
18.955677454
 20
14.7804654384
 10
19.0076726777
 20
14.826315954
 10
19.058082066
 20
14.8712717585
 10
19.1070027965
 20
14.9154168745
 10
19.1544397331
 20
14.9587518331
 10
19.2003880119
 20
15.0012761031
 10
19.2449302196
 20
15.0430721139
 10
19.2880721089
 20
15.0841399112
 10
19.3298079271
 20
15.1244794493
 10
19.3702030028
 20
15.1641730195
 10
19.4092648238
 20
15.2032201429
 10
19.4469859023
 20
15.2416212985
 10
19.4834091032
 20
15.2794602146
 10
19.5185451281
 20
15.3167358084
 10
19.5523832754
 20
15.3534491626
 10
19.5849343057
 20
15.3896872547
 10
19.616216384
 20
15.4254502849
 10
19.6462113454
 20
15.4607380529
 10
19.6748754554
 20
15.4956369346
 10
19.7022394661
 20
15.5301495155
 10
19.7282726254
 20
15.5642732101
 10
19.7528389426
 20
15.5980866378
 10
19.7760073954
 20
15.6316350034
 10
19.7977090061
 20
15.664873102
 10
19.8176008507
 20
15.6977439384
 10
19.8357590744
 20
15.7303645788
 10
19.852107532
 20
15.762617957
 10
19.8660748637
 20
15.7940958786
 10
19.8776143102
 20
15.8248117363
 10
19.8867726307
 20
15.8547521373
 10
19.8931187427
 20
15.8834687099
 10
19.8965433983
 20
15.9109210862
 10
19.8971558455
 20
15.9371496341
 10
19.8948527459
 20
15.9618270846
 10
19.8894686195
 20
15.9849157028
 10
19.8811689462
 20
16.0064532236
 10
19.8703468276
 20
16.026225583
 10
19.8569260509
 20
16.0441037891
 10
19.8409828287
 20
16.0602168338
 10
19.8231389005
 20
16.0747376284
 10
19.8034744274
 20
16.0876156897
 10
19.7819092481
 20
16.0989015009
 10
19.7588246185
 20
16.1089194233
 10
19.7342948403
 20
16.1176978837
 10
19.7082456118
 20
16.1252084554
 10
19.6808352831
 20
16.1316902192
 10
19.652099178
 20
16.1371747918
 10
19.6220019728
 20
16.1416305566
 10
19.5905960462
 20
16.1452017439
 10
19.5579007792
 20
16.1479087352
 10
19.5238967909
 20
16.1497311491
 10
19.4885783163
 20
16.1507520712
 10
19.4519575751
 20
16.1509846639
 10
19.4140223476
 20
16.1504157648
 10
19.37473021
 20
16.1490889725
 10
19.3340867142
 20
16.1470128752
 10
19.2920863082
 20
16.1441788848
 10
19.2486699125
 20
16.1406048358
 10
19.203841665
 20
16.1362964469
 10
19.1575974278
 20
16.1312479994
 10
19.1098657081
 20
16.1254601716
 10
19.0606571155
 20
16.1189383776
 10
19.0099610404
 20
16.1116772033
 10
18.9576741614
 20
16.1036610848
 10
18.9038033724
 20
16.0948950655
 10
18.8483417795
 20
16.085374102
 10
18.7911653802
 20
16.0750675005
 10
18.7322328401
 20
16.0639650299
 10
18.6715854935
 20
16.0520769213
 10
18.6092233404
 20
16.0394031748
  0
LWPOLYLINE
  5
2D3
100
AcDbEntity
  8
26814000
100
AcDbPolyline
 62
7
  6
CONTINUOUS
 90
31
 70
0
 10
3.3323759889
 20
15.9822072238
 10
3.3320363213
 20
15.9982402559
 10
3.3310198838
 20
16.0145688251
 10
3.3293291505
 20
16.0311480283
 10
3.326968146
 20
16.0479321279
 10
3.3239433344
 20
16.0648751219
 10
3.3202636019
 20
16.0819308703
 10
3.3159387489
 20
16.0990524889
 10
3.310980319
 20
16.1161928998
 10
3.3054024684
 20
16.1333054045
 10
3.2992202242
 20
16.1503429744
 10
3.2924502339
 20
16.1672587665
 10
3.2851115756
 20
16.1840066741
 10
3.2772241336
 20
16.2005406813
 10
3.2688092496
 20
16.216815334
 10
3.2598904546
 20
16.2327862523
 10
3.2504920008
 20
16.2484095663
 10
3.2406393991
 20
16.2636423303
 10
3.2303600537
 20
16.2784429845
 10
3.2196819883
 20
16.2927708857
 10
3.2086342545
 20
16.3065866538
 10
3.1972474552
 20
16.3198525739
 10
3.1855526954
 20
16.3325322299
 10
3.1735818523
 20
16.3445907778
 10
3.1613679733
 20
16.3559952765
 10
3.1489444788
 20
16.3667144347
 10
3.1363452866
 20
16.3767188021
 10
3.1236050742
 20
16.3859810235
 10
3.110758778
 20
16.3944757147
 10
3.0978414976
 20
16.4021795323
 10
3.0848886155
 20
16.4090713437
  0
LINE
  5
2D4
100
AcDbEntity
  8
26814000
100
AcDbLine
 62
7
  6
CONTINUOUS
 10
2.3777818343
 20
15.3393356869
 11
2.3777818343
 21
13.6894282494
  0
LINE
  5
2D5
100
AcDbEntity
  8
26814000
100
AcDbLine
 62
7
  6
CONTINUOUS
 10
2.3777818343
 20
-20.8713051795
 11
2.3777818343
 21
-22.521212617
  0
LINE
  5
2D6
100
AcDbEntity
  8
26814000
100
AcDbLine
 62
7
  6
CONTINUOUS
 10
2.9434672592
 20
-22.544598749
 11
2.9434672592
 21
-24.0502068753
  0
LINE
  5
2D7
100
AcDbEntity
  8
26814000
100
AcDbLine
 62
7
  6
CONTINUOUS
 10
2.9434672592
 20
16.4797820219
 11
2.9434672592
 21
18.2118328294
  0
LINE
  5
2D8
100
AcDbEntity
  8
26814000
100
AcDbLine
 62
7
  6
CONTINUOUS
 10
3.6464602135
 20
18.3471543272
 11
3.6464602135
 21
18.0862253508
  0
LINE
  5
2D9
100
AcDbEntity
  8
26814000
100
AcDbLine
 62
7
  6
CONTINUOUS
 10
3.6464602135
 20
-23.2133787886
 11
3.6464602135
 21
-23.4743077649
  0
LINE
  5
2DA
100
AcDbEntity
  8
26814000
100
AcDbLine
 62
253
  6
CONTINUOUS
 10
3.973677911
 20
22.5842642192
 11
3.973677911
 21
21.3524256408
  0
LINE
  5
2DB
100
AcDbEntity
  8
21814000
100
AcDbLine
 62
7
  6
CONTINUOUS
 10
4.0394827701
 20
-18.064119032
 11
4.0394827701
 21
12.5439430376
  0
LINE
  5
2DC
100
AcDbEntity
  8
26814000
100
AcDbLine
 62
7
  6
CONTINUOUS
 10
4.0394827701
 20
-21.8483789195
 11
4.0394827701
 21
16.3282029252
  0
LINE
  5
2DD
100
AcDbEntity
  8
26814000
100
AcDbLine
 62
7
  6
CONTINUOUS
 10
4.0603153394
 20
22.6886515945
 11
4.0603153394
 21
21.4562831028
  0
LWPOLYLINE
  5
2DE
100
AcDbEntity
  8
26814000
100
AcDbPolyline
 62
7
  6
CONTINUOUS
 90
18
 70
0
 10
3.3323759889
 20
-22.2094899993
 10
3.3320373444
 20
-22.2251838754
 10
3.3310207009
 20
-22.2404959041
 10
3.3293291505
 20
-22.2553839655
 10
3.3269679333
 20
-22.2698069542
 10
3.3239435218
 20
-22.2837253367
 10
3.3202636019
 20
-22.2971012588
 10
3.3159385381
 20
-22.309897919
 10
3.3109804885
 20
-22.3220800901
 10
3.3054024684
 20
-22.3336146596
 10
3.2992200206
 20
-22.3444698834
 10
3.2924503812
 20
-22.3546158607
 10
3.2851115756
 20
-22.3640250363
 10
3.277223942
 20
-22.3726715057
 10
3.2688093711
 20
-22.3805314309
 10
3.2598904546
 20
-22.3875834934
 10
3.2504918261
 20
-22.3938082664
 10
3.2424072148
 20
-22.3983025308
  0
LWPOLYLINE
  5
2DF
100
AcDbEntity
  8
26814000
100
AcDbPolyline
 62
7
  6
CONTINUOUS
 90
4
 70
0
 10
8.8159213431
 20
-16.8949609619
 10
8.8156868375
 20
-16.8931927479
 10
8.8145460614
 20
-16.8902605223
 10
8.8125017299
 20
-16.8868811543
  0
LINE
  5
2E0
100
AcDbEntity
  8
26814000
100
AcDbLine
 62
253
  6
CONTINUOUS
 10
8.7317233049
 20
20.3284274417
 11
8.7317233049
 21
20.1161682877
  0
LINE
  5
2E1
100
AcDbEntity
  8
26814000
100
AcDbLine
 62
253
  6
CONTINUOUS
 10
8.7317233049
 20
-16.6257982828
 11
8.7317233049
 21
-16.8155679869
  0
LWPOLYLINE
  5
2E2
100
AcDbEntity
  8
26814000
100
AcDbPolyline
 62
7
  6
CONTINUOUS
 90
16
 70
0
 10
8.8159213431
 20
20.6161039476
 10
8.8156868375
 20
20.6025896393
 10
8.8145460614
 20
20.5828244481
 10
8.8125017299
 20
20.5629707975
 10
8.8096105648
 20
20.5430350136
 10
8.8059218006
 20
20.5230527772
 10
8.8014618367
 20
20.5030909556
 10
8.7962689784
 20
20.483170238
 10
8.7903863212
 20
20.4633024866
 10
8.7838257871
 20
20.4435422604
 10
8.7766188839
 20
20.4239051938
 10
8.7688017382
 20
20.4044032292
 10
8.7603777988
 20
20.3850876303
 10
8.7513649074
 20
20.3659849038
 10
8.741803062
 20
20.34709441
 10
8.7317233049
 20
20.3284274417
  0
LWPOLYLINE
  5
2E3
100
AcDbEntity
  8
21814000
100
AcDbPolyline
 62
7
  6
CONTINUOUS
 90
7
 70
0
 10
18.5014906236
 20
14.3565118095
 10
18.5164887391
 20
14.3807959299
 10
18.5326648945
 20
14.4039702602
 10
18.5500190896
 20
14.4260348004
 10
18.5685513245
 20
14.4469895507
 10
18.5882615993
 20
14.4668345109
 10
18.6091499138
 20
14.485569681
  0
LINE
  5
2E4
100
AcDbEntity
  8
290140000
100
AcDbLine
 62
253
  6
CONTINUOUS
 10
-3.8330775392
 20
11.9217779579
 11
-18.1615578738
 21
19.0860181252
  0
LINE
  5
2E5
100
AcDbEntity
  8
21814000
100
AcDbLine
 62
7
  6
CONTINUOUS
 10
8.43126126
 20
21.0042012269
 11
8.4329406884
 21
20.9744490764
  0
LWPOLYLINE
  5
2E6
100
AcDbEntity
  8
26814000
100
AcDbPolyline
 62
7
  6
CONTINUOUS
 90
5
 70
0
 10
8.8159213466
 20
20.0398941176
 10
8.8159086962
 20
20.0402290533
 10
8.8156142931
 20
20.0417468421
 10
8.8149389581
 20
20.0434635064
 10
8.8138948651
 20
20.0453832102
  0
LWPOLYLINE
  5
2E7
100
AcDbEntity
  8
26814000
100
AcDbPolyline
 62
7
  6
CONTINUOUS
 90
7
 70
0
 10
8.8158748725
 20
20.6222412856
 10
8.8157832644
 20
20.6265490869
 10
8.8156440937
 20
20.6308604175
 10
8.8154573602
 20
20.6351752775
 10
8.8152230641
 20
20.6394936669
 10
8.8149412053
 20
20.6438155856
 10
8.8146117839
 20
20.6481410337
  0
LINE
  5
2E8
100
AcDbEntity
  8
26814000
100
AcDbLine
 62
7
  6
CONTINUOUS
 10
8.8158748725
 20
20.6222412856
 11
8.8159213431
 21
20.6161039476
  0
LINE
  5
2E9
100
AcDbEntity
  8
26814000
100
AcDbLine
 62
7
  6
CONTINUOUS
 10
8.8159213648
 20
20.61604832
 11
8.8159213648
 21
20.0400851305
  0
LINE
  5
2EA
100
AcDbEntity
  8
26814000
100
AcDbLine
 62
7
  6
CONTINUOUS
 10
8.8159213648
 20
-16.5812729618
 11
8.8159213648
 21
-16.894791354
  0
LINE
  5
2EB
100
AcDbEntity
  8
21814000
100
AcDbLine
 62
253
  6
CONTINUOUS
 10
9.2198225249
 20
21.9679514653
 11
9.2198225249
 21
21.6466271831
  0
LINE
  5
2EC
100
AcDbEntity
  8
21814000
100
AcDbLine
 62
7
  6
CONTINUOUS
 10
9.9025327228
 20
21.5462564843
 11
9.9025327228
 21
21.9792691862
  0
LINE
  5
2ED
100
AcDbEntity
  8
0
100
AcDbLine
 62
7
  6
CONTINUOUS
 10
10.8699964353
 20
20.710126373
 11
10.8699964353
 21
20.2442516066
  0
LINE
  5
2EE
100
AcDbEntity
  8
26814000
100
AcDbLine
 62
7
  6
CONTINUOUS
 10
8.8158748725
 20
-16.8957029167
 11
8.8159213431
 21
-16.8949609619
  0
LINE
  5
2EF
100
AcDbEntity
  8
290140000
100
AcDbLine
 62
253
  6
CONTINUOUS
 10
-2.6923376502
 20
13.5516882156
 11
-17.0460027234
 21
20.7285207521
  0
LINE
  5
2F0
100
AcDbEntity
  8
21814000
100
AcDbLine
 62
253
  6
CONTINUOUS
 10
11.2873296161
 20
21.4392415968
 11
11.2873296161
 21
21.897973163
  0
LINE
  5
2F1
100
AcDbEntity
  8
0
100
AcDbLine
 62
7
  6
CONTINUOUS
 10
11.3197410966
 20
20.5883785399
 11
11.3197410966
 21
20.2351929861
  0
LINE
  5
2F2
100
AcDbEntity
  8
21814000
100
AcDbLine
 62
253
  6
CONTINUOUS
 10
11.4283425375
 20
21.4401718749
 11
11.4283425375
 21
21.9089690601
  0
LWPOLYLINE
  5
2F3
100
AcDbEntity
  8
26814000
100
AcDbPolyline
 62
7
  6
CONTINUOUS
 90
7
 70
0
 10
8.8158748725
 20
-16.8957029167
 10
8.8157832644
 20
-16.8961885242
 10
8.8156440937
 20
-16.896700672
 10
8.8154573602
 20
-16.89723936
 10
8.8152230641
 20
-16.8978045884
 10
8.8149412053
 20
-16.898396357
 10
8.8146117839
 20
-16.8990146659
  0
LWPOLYLINE
  5
2F4
100
AcDbEntity
  8
290140000
100
AcDbPolyline
 62
253
  6
CONTINUOUS
 90
16
 70
0
 10
-2.725017249
 20
11.7933317524
 10
-2.786721723
 20
11.779203509
 10
-2.8536078827
 20
11.7682786329
 10
-2.9249670566
 20
11.7606728753
 10
-3.0000431809
 20
11.7564668205
 10
-3.0780408099
 20
11.7557050326
 10
-3.1581335442
 20
11.7583955828
 10
-3.239472786
 20
11.7645099642
 10
-3.3211967309
 20
11.7739833937
 10
-3.4024394982
 20
11.7867154988
 10
-3.4823403057
 20
11.8025713802
 10
-3.5600525892
 20
11.8213830419
 10
-3.6347529724
 20
11.842951171
 10
-3.7056499908
 20
11.8670472491
 10
-3.771992477
 20
11.8934159738
 10
-3.8330775201
 20
11.9217779633
  0
LWPOLYLINE
  5
2F5
100
AcDbEntity
  8
21814000
100
AcDbPolyline
 62
7
  6
CONTINUOUS
 90
7
 70
0
 10
18.6092233404
 20
16.0394031748
 10
18.5882513943
 20
16.0365134427
 10
18.5684860455
 20
16.035951025
 10
18.5499272941
 20
16.0377159217
 10
18.5325751399
 20
16.0418081329
 10
18.5164295831
 20
16.0482276584
 10
18.5014906236
 20
16.0569744984
  0
LINE
  5
2F6
100
AcDbEntity
  8
26814000
100
AcDbLine
 62
7
  6
CONTINUOUS
 10
1.9593848874
 20
13.8986267228
 11
2.3777818343
 21
13.6894282494
  0
LINE
  5
2F7
100
AcDbEntity
  8
21814000
100
AcDbLine
 62
7
  6
CONTINUOUS
 10
13.2319785033
 20
24.009351258
 11
13.2319785033
 21
23.6014999907
  0
LINE
  5
2F8
100
AcDbEntity
  8
26814000
100
AcDbLine
 62
7
  6
CONTINUOUS
 10
-0.3524866039
 20
-23.4128907664
 11
0.2263037363
 21
-22.7084470362
  0
LINE
  5
2F9
100
AcDbEntity
  8
26814000
100
AcDbLine
 62
7
  6
CONTINUOUS
 10
-14.2038721846
 20
22.9392746293
 11
1.5646090359
 21
15.055034019
  0
LINE
  5
2FA
100
AcDbEntity
  8
26814000
100
AcDbLine
 62
7
  6
CONTINUOUS
 10
1.3171216625
 20
15.5062936442
 11
-13.9563848111
 21
23.1430468811
  0
LINE
  5
2FB
100
AcDbEntity
  8
26814000
100
AcDbLine
 62
7
  6
CONTINUOUS
 10
1.8766363471
 20
15.9412007723
 11
0.2626322311
 21
16.7482028303
  0
LINE
  5
2FC
100
AcDbEntity
  8
26814000
100
AcDbLine
 62
7
  6
CONTINUOUS
 10
-11.4876818174
 20
22.6233598546
 11
-13.1016859334
 21
23.4303619126
  0
LINE
  5
2FD
100
AcDbEntity
  8
26814000
100
AcDbLine
 62
7
  6
CONTINUOUS
 10
-8.1552259366
 20
21.3144641494
 11
-2.3627168685
 21
18.4182096153
  0
LINE
  5
2FE
100
AcDbEntity
  8
26814000
100
AcDbLine
 62
7
  6
CONTINUOUS
 10
-13.7400841416
 20
24.2018919923
 11
-12.1335505786
 21
23.3986252108
  0
LINE
  5
2FF
100
AcDbEntity
  8
26814000
100
AcDbLine
 62
7
  6
CONTINUOUS
 10
-0.3757659772
 20
17.5197329101
 11
1.2307675858
 21
16.7164661286
  0
LINE
  5
300
100
AcDbEntity
  8
26814000
100
AcDbLine
 62
253
  6
CONTINUOUS
 10
-13.8046788876
 20
24.3369211672
 11
-12.1989024255
 21
23.5340329361
  0
LINE
  5
301
100
AcDbEntity
  8
26814000
100
AcDbLine
 62
253
  6
CONTINUOUS
 10
-0.4403607232
 20
17.654762085
 11
1.165415739
 21
16.8518738539
  0
LINE
  5
302
100
AcDbEntity
  8
26814000
100
AcDbLine
 62
253
  6
CONTINUOUS
 10
1.165415739
 20
17.1052452477
 11
-0.4403607232
 21
17.9081334788
  0
LINE
  5
303
100
AcDbEntity
  8
26814000
100
AcDbLine
 62
253
  6
CONTINUOUS
 10
-12.1989024255
 20
23.7874043299
 11
-13.8046788876
 21
24.590292561
  0
LINE
  5
304
100
AcDbEntity
  8
26814000
100
AcDbLine
 62
7
  6
CONTINUOUS
 10
-10.4208509052
 20
23.1619411041
 11
-8.2430939022
 21
22.0730626026
  0
LINE
  5
305
100
AcDbEntity
  8
26814000
100
AcDbLine
 62
7
  6
CONTINUOUS
 10
-1.4405947841
 20
18.6718130435
 11
-0.359472833
 21
18.131252068
  0
LINE
  5
306
100
AcDbEntity
  8
26814000
100
AcDbLine
 62
7
  6
CONTINUOUS
 10
2.9434672592
 20
16.4797820219
 11
3.0848886155
 21
16.4090713437
  0
LWPOLYLINE
  5
307
100
AcDbEntity
  8
21814000
100
AcDbPolyline
 62
253
  6
CONTINUOUS
 90
10
 70
0
 10
18.7540848033
 20
20.3444630697
 10
18.7513784504
 20
20.3095914804
 10
18.7420282378
 20
20.2710524827
 10
18.7260694856
 20
20.2330598451
 10
18.7036209672
 20
20.1958963285
 10
18.674849756
 20
20.1598385233
 10
18.6399699826
 20
20.1251547907
 10
18.5992412405
 20
20.092103265
 10
18.5529666543
 20
20.060929933
 10
18.5014906236
 20
20.031866803
  0
LINE
  5
308
100
AcDbEntity
  8
26814000
100
AcDbLine
 62
7
  6
CONTINUOUS
 10
1.254318315
 20
-24.2162932258
 11
1.8766363471
 21
-23.4712338083
  0
LINE
  5
309
100
AcDbEntity
  8
26814000
100
AcDbLine
 62
253
  6
CONTINUOUS
 10
0.3721568179
 20
-17.8629398109
 11
-0.6947052218
 21
-18.3556520554
  0
LINE
  5
30A
100
AcDbEntity
  8
26814000
100
AcDbLine
 62
7
  6
CONTINUOUS
 10
0.171303232
 20
-18.3767088676
 11
-0.7307170363
 21
-18.7932917194
  0
LINE
  5
30B
100
AcDbEntity
  8
26814000
100
AcDbLine
 62
7
  6
CONTINUOUS
 10
1.8766363471
 20
16.5783703311
 11
1.254318315
 21
16.7083109136
  0
LINE
  5
30C
100
AcDbEntity
  8
26814000
100
AcDbLine
 62
253
  6
CONTINUOUS
 10
1.3421864684
 20
17.4091108259
 11
-0.2656349407
 21
18.2130215304
  0
LINE
  5
30D
100
AcDbEntity
  8
26814000
100
AcDbLine
 62
253
  6
CONTINUOUS
 10
-12.022131696
 20
24.0912699081
 11
-13.6299531051
 21
24.8951806127
  0
LINE
  5
30E
100
AcDbEntity
  8
26814000
100
AcDbLine
 62
7
  6
CONTINUOUS
 10
-8.1552259366
 20
22.5294190154
 11
-2.3627168685
 21
19.6331644814
  0
LINE
  5
30F
100
AcDbEntity
  8
26814000
100
AcDbLine
 62
7
  6
CONTINUOUS
 10
3.7919953966
 20
16.7550670451
 11
2.9922633728
 21
17.154933057
  0
LINE
  5
310
100
AcDbEntity
  8
26814000
100
AcDbLine
 62
7
  6
CONTINUOUS
 10
-8.8895767882
 20
23.0958531375
 11
-10.3720547916
 21
23.8370921393
  0
LINE
  5
311
100
AcDbEntity
  8
26814000
100
AcDbLine
 62
7
  6
CONTINUOUS
 10
-7.6631344586
 20
22.995518446
 11
-1.4405947841
 21
19.8842486088
  0
LINE
  5
312
100
AcDbEntity
  8
26814000
100
AcDbLine
 62
7
  6
CONTINUOUS
 10
-12.0471965019
 20
25.70716471
 11
-10.4208509052
 21
24.8939919116
  0
LINE
  5
313
100
AcDbEntity
  8
26814000
100
AcDbLine
 62
7
  6
CONTINUOUS
 10
1.3171216625
 20
19.0250056278
 11
2.9434672592
 21
18.2118328294
  0
LINE
  5
314
100
AcDbEntity
  8
26814000
100
AcDbLine
 62
7
  6
CONTINUOUS
 10
-6.3196315743
 20
23.0258353967
 11
-1.369884106
 21
20.5509616625
  0
LINE
  5
315
100
AcDbEntity
  8
26814000
100
AcDbLine
 62
253
  6
CONTINUOUS
 10
-11.5127466233
 20
25.9675121766
 11
-9.8925837335
 21
25.1574307317
  0
LINE
  5
316
100
AcDbEntity
  8
26814000
100
AcDbLine
 62
253
  6
CONTINUOUS
 10
1.8515715412
 20
19.2853530944
 11
3.471734431
 21
18.4752716495
  0
LINE
  5
317
100
AcDbEntity
  8
26814000
100
AcDbLine
 62
7
  6
CONTINUOUS
 10
-11.4013290079
 20
25.9737807398
 11
-9.7824514297
 21
25.1643419507
  0
LINE
  5
318
100
AcDbEntity
  8
26814000
100
AcDbLine
 62
7
  6
CONTINUOUS
 10
1.9629891565
 20
19.2916216576
 11
3.5818667347
 21
18.4821828685
  0
LWPOLYLINE
  5
319
100
AcDbEntity
  8
21814000
100
AcDbPolyline
 62
253
  6
CONTINUOUS
 90
15
 70
0
 10
-1.1710836716
 20
21.5126016914
 10
-1.1375016952
 20
21.4933585654
 10
-1.1081851071
 20
21.4717351625
 10
-1.0831339074
 20
21.4477314828
 10
-1.0621447154
 20
21.4210991341
 10
-1.0454209117
 20
21.3920865085
 10
-1.0335726386
 20
21.3614387821
 10
-1.0267158449
 20
21.3290788345
 10
-1.0247345819
 20
21.295083786
 10
-1.0278911447
 20
21.2604301737
 10
-1.036353884
 20
21.2250640851
 10
-1.0499544491
 20
21.1890394327
 10
-1.0684500839
 20
21.1534944917
 10
-1.0917598695
 20
21.1188086873
 10
-1.1199647247
 20
21.0846025942
  0
LWPOLYLINE
  5
31A
100
AcDbEntity
  8
21814000
100
AcDbPolyline
 62
253
  6
CONTINUOUS
 90
9
 70
0
 10
-1.2735240192
 20
21.2948861079
 10
-1.2536428428
 20
21.2832721171
 10
-1.235981111
 20
21.2695276351
 10
-1.220729536
 20
21.2537629497
 10
-1.2080649523
 20
21.2360691873
 10
-1.1981212565
 20
21.2166049022
 10
-1.1910066433
 20
21.1955915502
 10
-1.1868302267
 20
21.173126937
 10
-1.1856560899
 20
21.152525186
  0
LWPOLYLINE
  5
31B
100
AcDbEntity
  8
21814000
100
AcDbPolyline
 62
253
  6
CONTINUOUS
 90
13
 70
0
 10
-2.617607964
 20
21.7831478698
 10
-2.5998970284
 20
21.7720259939
 10
-2.581828915
 20
21.7586215058
 10
-2.5637071537
 20
21.7431596378
 10
-2.5458361683
 20
21.7259001784
 10
-2.5285161487
 20
21.7071330941
 10
-2.5120380102
 20
21.6871736534
 10
-2.4966785401
 20
21.6663571693
 10
-2.4826957031
 20
21.6450333106
 10
-2.4703243105
 20
21.6235602088
 10
-2.4597721366
 20
21.6022985329
 10
-2.4512164159
 20
21.5816054335
 10
-2.4448008324
 20
21.5618284832
  0
LINE
  5
31C
100
AcDbEntity
  8
21814000
100
AcDbLine
 62
7
  6
CONTINUOUS
 10
10.1504190286
 20
18.2391178388
 11
9.3977249446
 21
19.5373230998
  0
LINE
  5
31D
100
AcDbEntity
  8
21814000
100
AcDbLine
 62
253
  6
CONTINUOUS
 10
8.8052450132
 20
23.0435300055
 11
9.2198225249
 21
21.9679514653
  0
LINE
  5
31E
100
AcDbEntity
  8
0
100
AcDbLine
 62
7
  6
CONTINUOUS
 10
10.3645268531
 20
20.4678864173
 11
10.1630274951
 21
21.0636108431
  0
LWPOLYLINE
  5
31F
100
AcDbEntity
  8
21814000
100
AcDbPolyline
 62
7
  6
CONTINUOUS
 90
10
 70
0
 10
18.7540848033
 20
20.3444630697
 10
18.7502799073
 20
20.458400766
 10
18.7391338182
 20
20.571664963
 10
18.7209954931
 20
20.6840522364
 10
18.6960403919
 20
20.7957890132
 10
18.6644933925
 20
20.9064211807
 10
18.6268721263
 20
21.0147275698
 10
18.5835708908
 20
21.1202115408
 10
18.5346181092
 20
21.2231384214
 10
18.4800860637
 20
21.3233828311
  0
LINE
  5
320
100
AcDbEntity
  8
21814000
100
AcDbLine
 62
7
  6
CONTINUOUS
 10
18.7540844395
 20
14.1005669738
 11
18.7540847651
 21
14.1001079062
  0
LINE
  5
321
100
AcDbEntity
  8
21814000
100
AcDbLine
 62
253
  6
CONTINUOUS
 10
18.5014906236
 20
20.031866803
 11
18.5014906236
 21
16.0569744984
  0
LINE
  5
322
100
AcDbEntity
  8
21814000
100
AcDbLine
 62
253
  6
CONTINUOUS
 10
18.5014906236
 20
14.3565118095
 11
18.5014906236
 21
-10.5761952666
  0
LINE
  5
323
100
AcDbEntity
  8
21814000
100
AcDbLine
 62
7
  6
CONTINUOUS
 10
18.7540848033
 20
20.3444630697
 11
18.7540848033
 21
16.938777623
  0
LINE
  5
324
100
AcDbEntity
  8
21814000
100
AcDbLine
 62
7
  6
CONTINUOUS
 10
18.7540848033
 20
14.0998169536
 11
18.7540848033
 21
-10.2635989999
  0
LINE
  5
325
100
AcDbEntity
  8
21814000
100
AcDbLine
 62
7
  6
CONTINUOUS
 10
18.7540846532
 20
16.9377591203
 11
18.7540845654
 21
16.9375115402
  0
LWPOLYLINE
  5
326
100
AcDbEntity
  8
21814000
100
AcDbPolyline
 62
253
  6
CONTINUOUS
 90
29
 70
0
 10
18.7540845654
 20
16.9375115402
 10
18.7537561946
 20
16.8940572329
 10
18.7525498786
 20
16.8423312835
 10
18.75051892
 20
16.7920141729
 10
18.7477125659
 20
16.7431146595
 10
18.7441833621
 20
16.695649105
 10
18.7399824224
 20
16.6496187551
 10
18.7351331614
 20
16.6050088864
 10
18.729677105
 20
16.5618346759
 10
18.723650712
 20
16.5200931925
 10
18.7170444564
 20
16.4797437067
 10
18.7098814415
 20
16.4407588396
 10
18.7021874882
 20
16.4031771179
 10
18.693932215
 20
16.3670594594
 10
18.6851236005
 20
16.3323599748
 10
18.6757796444
 20
16.2991372528
 10
18.6658657462
 20
16.2676122267
 10
18.6553845155
 20
16.2377539313
 10
18.6443453781
 20
16.2096084839
 10
18.6327102499
 20
16.1835157253
 10
18.6204669386
 20
16.1594586278
 10
18.6076292935
 20
16.1374729883
 10
18.5941919991
 20
16.1179799395
 10
18.5801425398
 20
16.1010428854
 10
18.5654969859
 20
16.0866183466
 10
18.5502968498
 20
16.0749660684
 10
18.5345630062
 20
16.0661775359
 10
18.5182913532
 20
16.0601776005
 10
18.5014906236
 20
16.0569744984
  0
LWPOLYLINE
  5
327
100
AcDbEntity
  8
21814000
100
AcDbPolyline
 62
253
  6
CONTINUOUS
 90
11
 70
0
 10
18.7540848033
 20
-10.2635989999
 10
18.7532821637
 20
-10.2825997051
 10
18.7472996104
 20
-10.3187517617
 10
18.7355126212
 20
-10.3545454154
 10
18.7179977922
 20
-10.3897480662
 10
18.6948689412
 20
-10.4241309544
 10
18.6662763679
 20
-10.4574706473
 10
18.6324058773
 20
-10.4895504913
 10
18.5934775723
 20
-10.5201620197
 10
18.549744423
 20
-10.5491063077
 10
18.5014906236
 20
-10.5761952648
  0
LINE
  5
328
100
AcDbEntity
  8
21814000
100
AcDbLine
 62
7
  6
CONTINUOUS
 10
10.1504190286
 20
-15.7280944679
 11
9.3977249446
 21
-16.2736056449
  0
LWPOLYLINE
  5
329
100
AcDbEntity
  8
21814000
100
AcDbPolyline
 62
7
  6
CONTINUOUS
 90
3
 70
0
 10
17.7429839288
 20
-11.7130210796
 10
17.7993757742
 20
-11.6788290677
 10
17.8121101157
 20
-11.6698343101
  0
LWPOLYLINE
  5
32A
100
AcDbEntity
  8
26814000
100
AcDbPolyline
 62
7
  6
CONTINUOUS
 90
25
 70
0
 10
8.0676248953
 20
-17.358855731
 10
8.0935413057
 20
-17.3440235144
 10
8.1200435424
 20
-17.3287565376
 10
8.1471316054
 20
-17.3130548007
 10
8.1748332617
 20
-17.296905698
 10
8.2031207444
 20
-17.2803218351
 10
8.2319107523
 20
-17.2633410292
 10
8.2611842714
 20
-17.2459744553
 10
8.2909603158
 20
-17.2282109383
 10
8.3212126269
 20
-17.21005477
 10
8.3519550612
 20
-17.191497873
 10
8.3831737623
 20
-17.1725483247
 10
8.4148009018
 20
-17.1532346483
 10
8.4468476364
 20
-17.1335500136
 10
8.4793028095
 20
-17.1135012507
 10
8.5120651229
 20
-17.093137374
 10
8.545149897
 20
-17.0724485348
 10
8.5785418114
 20
-17.0514445816
 10
8.6120936068
 20
-17.0302040749
 10
8.6458249218
 20
-17.008713789
 10
8.6797161178
 20
-16.9869869495
 10
8.7135610196
 20
-16.9651417937
 10
8.7472909019
 20
-16.9432177341
 10
8.78097449
 20
-16.9211753581
 10
8.8146117839
 20
-16.8990146659
  0
LWPOLYLINE
  5
32B
100
AcDbEntity
  8
26814000
100
AcDbPolyline
 62
7
  6
CONTINUOUS
 90
3
 70
0
 10
8.0676248953
 20
-17.358855731
 10
8.0330404182
 20
-17.3777314286
 10
8.0172035126
 20
-17.3858323469
  0
LINE
  5
32C
100
AcDbEntity
  8
21814000
100
AcDbLine
 62
7
  6
CONTINUOUS
 10
17.7429839288
 20
-11.7130210796
 11
10.1504190286
 21
-15.7280944679
  0
LINE
  5
32D
100
AcDbEntity
  8
21814000
100
AcDbLine
 62
7
  6
CONTINUOUS
 10
9.3977249446
 20
-16.2736056449
 11
4.0394827701
 21
-19.1071323708
  0
LINE
  5
32E
100
AcDbEntity
  8
21814000
100
AcDbLine
 62
253
  6
CONTINUOUS
 10
18.1625271398
 20
-11.4089592892
 11
4.0394827701
 21
-18.8631342609
  0
LINE
  5
32F
100
AcDbEntity
  8
21814000
100
AcDbLine
 62
253
  6
CONTINUOUS
 10
18.5014906236
 20
-10.5761952666
 11
4.0394827701
 21
-18.064119032
  0
LINE
  5
330
100
AcDbEntity
  8
26814000
100
AcDbLine
 62
253
  6
CONTINUOUS
 10
4.0394827701
 20
-19.3807589146
 11
8.0676248953
 21
-17.358855731
  0
LINE
  5
331
100
AcDbEntity
  8
26814000
100
AcDbLine
 62
7
  6
CONTINUOUS
 10
4.0394827701
 20
-19.3824269953
 11
8.0172458411
 21
-17.3858112935
  0
LINE
  5
332
100
AcDbEntity
  8
26814000
100
AcDbLine
 62
253
  6
CONTINUOUS
 10
4.0394827701
 20
-19.1429538838
 11
8.7317233049
 21
-16.8155679869
  0
LINE
  5
333
100
AcDbEntity
  8
26814000
100
AcDbLine
 62
253
  6
CONTINUOUS
 10
4.0394827701
 20
-19.2648286116
 11
8.8158748725
 21
-16.8957029167
  0
LINE
  5
334
100
AcDbEntity
  8
26814000
100
AcDbLine
 62
7
  6
CONTINUOUS
 10
-11.4876818174
 20
23.2605294133
 11
-12.1099998494
 21
23.3904699958
  0
LWPOLYLINE
  5
335
100
AcDbEntity
  8
21814000
100
AcDbPolyline
 62
253
  6
CONTINUOUS
 90
8
 70
0
 10
-1.1530646495
 20
21.0508762125
 10
-1.1718893225
 20
21.0580222731
 10
-1.1897429829
 20
21.0625789248
 10
-1.2063257269
 20
21.0644696256
 10
-1.2213589998
 20
21.0636626157
 10
-1.2345902744
 20
21.0601714512
 10
-1.2457972935
 20
21.0540547761
 10
-1.2498650205
 20
21.0507159727
  0
LINE
  5
336
100
AcDbEntity
  8
21814000
100
AcDbLine
 62
253
  6
CONTINUOUS
 10
-1.5881589701
 20
22.6170241087
 11
-1.5847181406
 21
22.6154108418
  0
LINE
  5
337
100
AcDbEntity
  8
21814000
100
AcDbLine
 62
253
  6
CONTINUOUS
 10
-2.0319296178
 20
21.6740889072
 11
-1.2735240192
 21
21.2948861079
  0
LINE
  5
338
100
AcDbEntity
  8
21814000
100
AcDbLine
 62
253
  6
CONTINUOUS
 10
-1.9294892703
 20
21.8918044907
 11
-1.1710836716
 21
21.5126016914
  0
LINE
  5
339
100
AcDbEntity
  8
21814000
100
AcDbLine
 62
7
  6
CONTINUOUS
 10
-2.6426763113
 20
22.492155872
 11
-0.0557221257
 21
21.1986787791
  0
LINE
  5
33A
100
AcDbEntity
  8
21814000
100
AcDbLine
 62
253
  6
CONTINUOUS
 10
0.5516655908
 20
21.4980447829
 11
-1.6729338993
 21
22.610344528
  0
LINE
  5
33B
100
AcDbEntity
  8
21814000
100
AcDbLine
 62
7
  6
CONTINUOUS
 10
0.6011926826
 20
21.5224554306
 11
-1.5847252987
 21
22.6154144213
  0
LINE
  5
33C
100
AcDbEntity
  8
26814000
100
AcDbLine
 62
7
  6
CONTINUOUS
 10
1.1477916387
 20
21.7918601959
 11
-1.6527268185
 21
23.1921194245
  0
LINE
  5
33D
100
AcDbEntity
  8
26814000
100
AcDbLine
 62
7
  6
CONTINUOUS
 10
-2.0062802091
 20
23.9214543091
 11
-1.6527268185
 21
23.7446776138
  0
LWPOLYLINE
  5
33E
100
AcDbEntity
  8
26814000
100
AcDbPolyline
 62
7
  6
CONTINUOUS
 90
20
 70
0
 10
8.8138948651
 20
20.0453832102
 10
8.8124947135
 20
20.0475142749
 10
8.8107482872
 20
20.0498227224
 10
8.8086666773
 20
20.0523123614
 10
8.8062617129
 20
20.0549898042
 10
8.803541621
 20
20.0578250202
 10
8.8005166897
 20
20.0608215466
 10
8.7971981884
 20
20.0639846248
 10
8.7935940315
 20
20.0672866172
 10
8.7897141746
 20
20.0707306
 10
8.7855695031
 20
20.0743208443
 10
8.7811682704
 20
20.0780313439
 10
8.7765199319
 20
20.0818649358
 10
8.7716354779
 20
20.0858248094
 10
8.7665250895
 20
20.0898852297
 10
8.7611982145
 20
20.0940484449
 10
8.7556660112
 20
20.0983168164
 10
8.7499415399
 20
20.1026643159
 10
8.7440363565
 20
20.1070831981
 10
8.7317233049
 20
20.1161682877
  0
LWPOLYLINE
  5
33F
100
AcDbEntity
  8
21814000
100
AcDbPolyline
 62
253
  6
CONTINUOUS
 90
11
 70
0
 10
18.2623411604
 20
-11.3194703597
 10
18.306453072
 20
-11.2661329871
 10
18.3464441672
 20
-11.2073636268
 10
18.3821432957
 20
-11.1434139888
 10
18.4133977181
 20
-11.0745578479
 10
18.4400735902
 20
-11.0010902662
 10
18.462056804
 20
-10.923325732
 10
18.4792534015
 20
-10.8415965495
 10
18.4915896959
 20
-10.7562523753
 10
18.4990127256
 20
-10.6676588397
 10
18.5014906236
 20
-10.5761952666
  0
LWPOLYLINE
  5
340
100
AcDbEntity
  8
21814000
100
AcDbPolyline
 62
253
  6
CONTINUOUS
 90
3
 70
0
 10
18.1625271398
 20
-11.4089592892
 10
18.2142972911
 20
-11.3671472125
 10
18.2623411604
 20
-11.3194703597
  0
LWPOLYLINE
  5
341
100
AcDbEntity
  8
21814000
100
AcDbPolyline
 62
7
  6
CONTINUOUS
 90
13
 70
0
 10
18.2296379744
 20
-11.3672333696
 10
18.3041926986
 20
-11.3085097911
 10
18.3749855475
 20
-11.2428953954
 10
18.4413609888
 20
-11.1705738276
 10
18.5026216191
 20
-11.091899531
 10
18.5582498944
 20
-11.0071390788
 10
18.6078930061
 20
-10.9163284275
 10
18.6510941761
 20
-10.8196312731
 10
18.6872734978
 20
-10.7176034983
 10
18.7160028521
 20
-10.6106799901
 10
18.7369386862
 20
-10.4991534787
 10
18.7497435021
 20
-10.3833404098
 10
18.7540848033
 20
-10.2635989999
  0
LINE
  5
342
100
AcDbEntity
  8
21814000
100
AcDbLine
 62
253
  6
CONTINUOUS
 10
18.1625271398
 20
-11.4089592892
 11
17.7429839288
 21
-11.7130210796
  0
LINE
  5
343
100
AcDbEntity
  8
21814000
100
AcDbLine
 62
7
  6
CONTINUOUS
 10
18.2296379744
 20
-11.3672333696
 11
17.8132571349
 21
-11.6690032476
  0
LWPOLYLINE
  5
344
100
AcDbEntity
  8
21814000
100
AcDbPolyline
 62
253
  6
CONTINUOUS
 90
3
 70
0
 10
18.2296379744
 20
-11.3672333696
 10
18.2113495139
 20
-11.3799379997
 10
18.1625271398
 20
-11.4089592892
  0
LINE
  5
345
100
AcDbEntity
  8
26814000
100
AcDbLine
 62
7
  6
CONTINUOUS
 10
2.3777818343
 20
-22.521212617
 11
1.5646090359
 21
-23.0500837475
  0
LINE
  5
346
100
AcDbEntity
  8
26814000
100
AcDbLine
 62
253
  6
CONTINUOUS
 10
3.3323759889
 20
-22.2094899993
 11
4.0394827701
 21
-21.8483789195
  0
LINE
  5
347
100
AcDbEntity
  8
26814000
100
AcDbLine
 62
7
  6
CONTINUOUS
 10
3.2424120208
 20
-22.3983000759
 11
3.9495188029
 21
-22.0371889956
  0
LINE
  5
348
100
AcDbEntity
  8
26814000
100
AcDbLine
 62
7
  6
CONTINUOUS
 10
3.2424072148
 20
-22.3983025308
 11
3.2403996179
 21
-22.3993062382
  0
LINE
  5
349
100
AcDbEntity
  8
26814000
100
AcDbLine
 62
253
  6
CONTINUOUS
 10
1.5646090359
 20
-23.0744792528
 11
3.3323759889
 21
-22.2094899993
  0
LINE
  5
34A
100
AcDbEntity
  8
26814000
100
AcDbLine
 62
7
  6
CONTINUOUS
 10
1.4726281169
 20
-23.264297717
 11
3.2403950713
 21
-22.3993084629
  0
LWPOLYLINE
  5
34B
100
AcDbEntity
  8
290140000
100
AcDbPolyline
 62
253
  6
CONTINUOUS
 90
16
 70
0
 10
-5.7180687033
 20
-24.5802320794
 10
-5.7805957364
 20
-24.6043605355
 10
-5.8482956004
 20
-24.6251796859
 10
-5.9204510122
 20
-24.6424689508
 10
-5.9962974823
 20
-24.6560451496
 10
-6.075031414
 20
-24.6657644419
 10
-6.155818618
 20
-24.6715238515
 10
-6.2378031506
 20
-24.6732623572
 10
-6.320116382
 20
-24.6709615394
 10
-6.4018862002
 20
-24.6646457754
 10
-6.4822462505
 20
-24.654381981
 10
-6.5603451147
 20
-24.6402789015
 10
-6.6353553321
 20
-24.6224859599
 10
-6.7064821662
 20
-24.601191673
 10
-6.7729720253
 20
-24.5766216549
 10
-6.8341204464
 20
-24.5490362258
  0
LWPOLYLINE
  5
34C
100
AcDbEntity
  8
21814000
100
AcDbPolyline
 62
7
  6
CONTINUOUS
 90
6
 70
0
 10
-2.6988330218
 20
22.5062884189
 10
-2.6891530115
 20
22.505951005
 10
-2.6787418151
 20
22.5044961344
 10
-2.6676207754
 20
22.5018189079
 10
-2.6558043344
 20
22.4978417314
 10
-2.6433351858
 20
22.4924853092
  0
LWPOLYLINE
  5
34D
100
AcDbEntity
  8
21814000
100
AcDbPolyline
 62
7
  6
CONTINUOUS
 90
10
 70
0
 10
-1.7101624221
 20
22.6472911781
 10
-1.7912848805
 20
22.6590115329
 10
-1.8735584996
 20
22.6669147841
 10
-1.9563515611
 20
22.6710037476
 10
-2.0392307319
 20
22.6713020448
 10
-2.1219605619
 20
22.6678100494
 10
-2.2040113082
 20
22.6605144517
 10
-2.2848437398
 20
22.6494101528
 10
-2.364241943
 20
22.6344300999
 10
-2.4417927732
 20
22.6154932509
  0
LWPOLYLINE
  5
34E
100
AcDbEntity
  8
26814000
100
AcDbPolyline
 62
7
  6
CONTINUOUS
 90
13
 70
0
 10
8.0676248953
 20
21.1294009173
 10
8.0329740854
 20
21.1358305984
 10
7.9977698623
 20
21.1412137512
 10
7.9620500104
 20
21.145575892
 10
7.9258246936
 20
21.1489698152
 10
7.8891569555
 20
21.1513995649
 10
7.8521607455
 20
21.152810794
 10
7.8148737106
 20
21.1532209289
 10
7.7773227287
 20
21.1526570474
 10
7.7396020278
 20
21.1510650592
 10
7.7017626531
 20
21.1484359683
 10
7.6638134669
 20
21.144813987
 10
7.6257840274
 20
21.1402191976
  0
LWPOLYLINE
  5
34F
100
AcDbEntity
  8
21814000
100
AcDbPolyline
 62
253
  6
CONTINUOUS
 90
13
 70
0
 10
-1.6729338993
 20
22.610344528
 10
-1.7426561293
 20
22.6239192727
 10
-1.8133979282
 20
22.6341827738
 10
-1.885159296
 20
22.6411350314
 10
-1.9585986723
 20
22.644785406
 10
-2.0330576176
 20
22.645124537
 10
-2.1065608134
 20
22.6421243424
 10
-2.1790853235
 20
22.6356797807
 10
-2.2506540843
 20
22.6258958934
 10
-2.3193605855
 20
22.6130597229
 10
-2.3845693239
 20
22.59726695
 10
-2.4469158028
 20
22.578421894
 10
-2.5064000223
 20
22.5565245548
  0
LINE
  5
350
100
AcDbEntity
  8
21814000
100
AcDbLine
 62
7
  6
CONTINUOUS
 10
-1.6307387301
 20
22.631756791
 11
-1.7101624221
 21
22.6472911781
  0
LWPOLYLINE
  5
351
100
AcDbEntity
  8
21814000
100
AcDbPolyline
 62
253
  6
CONTINUOUS
 90
4
 70
0
 10
-2.0488667574
 20
21.9304337873
 10
-2.006743622
 20
21.9208829046
 10
-1.9669511263
 20
21.9080064724
 10
-1.9294892703
 20
21.8918044907
  0
LWPOLYLINE
  5
352
100
AcDbEntity
  8
21814000
100
AcDbPolyline
 62
7
  6
CONTINUOUS
 90
7
 70
0
 10
-1.6307455877
 20
22.6317583154
 10
-1.6228849049
 20
22.6298423099
 10
-1.613788852
 20
22.6271971669
 10
-1.6048254683
 20
22.6241232549
 10
-1.5960051853
 20
22.6206229037
 10
-1.5873477239
 20
22.6167017782
 10
-1.5847071657
 20
22.6154053517
  0
LINE
  5
353
100
AcDbEntity
  8
0
100
AcDbLine
 62
7
  6
CONTINUOUS
 10
11.3197410966
 20
20.5883785399
 11
10.8699964353
 21
20.710126373
  0
LWPOLYLINE
  5
354
100
AcDbEntity
  8
26814000
100
AcDbPolyline
 62
7
  6
CONTINUOUS
 90
10
 70
0
 10
8.3139399949
 20
21.0420234454
 10
8.2909603158
 20
21.0532148776
 10
8.2611842714
 20
21.0667913193
 10
8.2319107523
 20
21.079176936
 10
8.2031207444
 20
21.0903787326
 10
8.1748332617
 20
21.1003897041
 10
8.1471316054
 20
21.1092894485
 10
8.1200435424
 20
21.1171044985
 10
8.0935413057
 20
21.1238083214
 10
8.0676248953
 20
21.1294009173
  0
LINE
  5
355
100
AcDbEntity
  8
26814000
100
AcDbLine
 62
7
  6
CONTINUOUS
 10
2.555607335
 20
22.4857368543
 11
-0.254942312
 21
23.8910116777
  0
LINE
  5
356
100
AcDbEntity
  8
21814000
100
AcDbLine
 62
7
  6
CONTINUOUS
 10
9.3977249446
 20
19.5373230998
 11
8.6099362969
 21
19.9312174237
  0
LINE
  5
357
100
AcDbEntity
  8
26814000
100
AcDbLine
 62
7
  6
CONTINUOUS
 10
1.1049896281
 20
23.9647598651
 11
3.3147305163
 21
22.8598894211
  0
LINE
  5
358
100
AcDbEntity
  8
26814000
100
AcDbLine
 62
7
  6
CONTINUOUS
 10
4.0603153394
 20
22.4870970095
 11
4.2061287495
 21
22.4141903045
  0
LINE
  5
359
100
AcDbEntity
  8
26814000
100
AcDbLine
 62
7
  6
CONTINUOUS
 10
-1.7624681175
 20
25.6617324177
 11
-1.5820161404
 21
25.5715064292
  0
LINE
  5
35A
100
AcDbEntity
  8
26814000
100
AcDbLine
 62
7
  6
CONTINUOUS
 10
3.7919953966
 20
22.8845006606
 11
3.9724473738
 21
22.7942746721
  0
LINE
  5
35B
100
AcDbEntity
  8
26814000
100
AcDbLine
 62
253
  6
CONTINUOUS
 10
-2.5750364616
 20
26.2406294421
 11
0.4040534394
 21
24.7510844916
  0
LINE
  5
35C
100
AcDbEntity
  8
26814000
100
AcDbLine
 62
253
  6
CONTINUOUS
 10
4.6466941265
 20
22.629764148
 11
7.6257840274
 21
21.1402191976
  0
LINE
  5
35D
100
AcDbEntity
  8
26814000
100
AcDbLine
 62
7
  6
CONTINUOUS
 10
5.0877371296
 20
22.6551136146
 11
8.3142270217
 21
21.0418686686
  0
LINE
  5
35E
100
AcDbEntity
  8
0
100
AcDbLine
 62
7
  6
CONTINUOUS
 10
10.3750216884
 20
20.4626389996
 11
10.5889141424
 21
20.2651057319
  0
LWPOLYLINE
  5
35F
100
AcDbEntity
  8
26814000
100
AcDbPolyline
 62
7
  6
CONTINUOUS
 90
17
 70
0
 10
8.8146117839
 20
20.6481410337
 10
8.78097449
 20
20.6842031842
 10
8.7472909019
 20
20.7188418438
 10
8.7135610196
 20
20.7520570126
 10
8.6797161178
 20
20.7838643166
 10
8.6458249218
 20
20.8142481297
 10
8.6120936068
 20
20.8431615738
 10
8.5785418114
 20
20.8705807491
 10
8.545149897
 20
20.8965295554
 10
8.5120651229
 20
20.9210328139
 10
8.4793028095
 20
20.9440765208
 10
8.4468476364
 20
20.9656746799
 10
8.4148009018
 20
20.9858941239
 10
8.3831737623
 20
21.0047280379
 10
8.3519550612
 20
21.0221832369
 10
8.3212126269
 20
21.0383469984
 10
8.3139399949
 20
21.0420234454
  0
LINE
  5
360
100
AcDbEntity
  8
21814000
100
AcDbLine
 62
7
  6
CONTINUOUS
 10
13.2228630446
 20
24.033245059
 11
13.2319785033
 21
24.009351258
  0
LINE
  5
361
100
AcDbEntity
  8
26814000
100
AcDbLine
 62
7
  6
CONTINUOUS
 10
2.9434672592
 20
-24.0502068753
 11
3.471734431
 21
-23.7791958166
  0
LINE
  5
362
100
AcDbEntity
  8
26814000
100
AcDbLine
 62
7
  6
CONTINUOUS
 10
1.3421864684
 20
-24.8302414749
 11
2.9434672592
 21
-24.0502068753
  0
LINE
  5
363
100
AcDbEntity
  8
290140000
100
AcDbLine
 62
253
  6
CONTINUOUS
 10
-5.2754474715
 20
-24.9949684202
 11
-1.1329112581
 21
-23.6810249985
  0
LINE
  5
364
100
AcDbEntity
  8
290140000
100
AcDbLine
 62
7
  6
CONTINUOUS
 10
-1.4360095511
 20
-24.1535337345
 11
-5.5847959184
 21
-25.4694592538
  0
LINE
  5
365
100
AcDbEntity
  8
26814000
100
AcDbLine
 62
7
  6
CONTINUOUS
 10
-0.254942312
 20
23.8910116777
 11
1.1049896281
 21
23.9647598651
  0
LWPOLYLINE
  5
366
100
AcDbEntity
  8
RACCORDO
100
AcDbPolyline
 62
7
  6
CONTINUOUS
 90
9
 70
0
 10
12.7128038954
 20
21.2552257696
 10
12.7066871548
 20
21.2568252673
 10
12.696916941
 20
21.2583580812
 10
12.6865907456
 20
21.2587735256
 10
12.6758035485
 20
21.2580717531
 10
12.6648402895
 20
21.2562532218
 10
12.6537959488
 20
21.2533180842
 10
12.6425755463
 20
21.2492661878
 10
12.6311790821
 20
21.2440975326
  0
LWPOLYLINE
  5
367
100
AcDbEntity
  8
RACCORDO
100
AcDbPolyline
 62
7
  6
CONTINUOUS
 90
28
 70
0
 10
12.7127937591
 20
21.2552018172
 10
12.6040784125
 20
21.286487663
 10
12.4892233696
 20
21.31584134
 10
12.3719619456
 20
21.3421684102
 10
12.2525887808
 20
21.3654305019
 10
12.1313684092
 20
21.3856010547
 10
12.0085390397
 20
21.40266033
 10
11.8843902423
 20
21.4165841716
 10
11.7592067792
 20
21.4273548405
 10
11.6332262617
 20
21.4349622402
 10
11.5067398756
 20
21.4393956189
 10
11.3800371527
 20
21.4406501736
 10
11.2533554072
 20
21.4387254006
 10
11.1269841374
 20
21.4336240656
 10
11.0012145468
 20
21.4253548534
 10
10.8762849475
 20
21.413926978
 10
10.7524860729
 20
21.3993571457
 10
10.6301013205
 20
21.3816671241
 10
10.5093528843
 20
21.3608729488
 10
10.3905179632
 20
21.3370013487
 10
10.2738821398
 20
21.310086297
 10
10.1596705667
 20
21.2801515297
 10
10.0481553886
 20
21.2472344258
 10
9.9396091921
 20
21.211377791
 10
9.8342423006
 20
21.1726061734
 10
9.7322955181
 20
21.130953365
 10
9.6340493807
 20
21.0864725905
 10
9.5397653195
 20
21.039215201
  0
LWPOLYLINE
  5
368
100
AcDbEntity
  8
RACCORDO
100
AcDbPolyline
 62
7
  6
CONTINUOUS
 90
3
 70
0
 10
12.7248445771
 20
21.250407989
 10
12.7159963668
 20
21.2541752366
 10
12.7128038954
 20
21.2552257696
  0
LWPOLYLINE
  5
369
100
AcDbEntity
  8
26814000
100
AcDbPolyline
 62
7
  6
CONTINUOUS
 90
18
 70
0
 10
0.8451061564
 20
24.7764181385
 10
0.8255440721
 20
24.7855078716
 10
0.8026482919
 20
24.7944932862
 10
0.7791390057
 20
24.801995519
 10
0.7549976835
 20
24.8080296888
 10
0.7303079302
 20
24.8125754732
 10
0.705046504
 20
24.8156294566
 10
0.6792366465
 20
24.8171950546
 10
0.6530316876
 20
24.8172621912
 10
0.626447725
 20
24.8158234152
 10
0.599468661
 20
24.8128861779
 10
0.5721995323
 20
24.8084627566
 10
0.5446253527
 20
24.802544371
 10
0.5167611084
 20
24.7951398014
 10
0.4887567954
 20
24.7862876668
 10
0.4606624121
 20
24.7760008401
 10
0.4324279601
 20
24.7642664484
 10
0.4040534394
 20
24.7510844916
  0
LINE
  5
36A
100
AcDbEntity
  8
0
100
AcDbLine
 62
7
  6
CONTINUOUS
 10
10.3750216884
 20
20.4626389996
 11
9.6680527483
 21
20.8161234697
  0
LINE
  5
36B
100
AcDbEntity
  8
0
100
AcDbLine
 62
7
  6
CONTINUOUS
 10
10.8699964353
 20
20.710126373
 11
10.1630274951
 21
21.0636108431
  0
LINE
  5
36C
100
AcDbEntity
  8
21814000
100
AcDbLine
 62
7
  6
CONTINUOUS
 10
9.9025327228
 20
21.5462564843
 11
9.4639222503
 21
21.7655617205
  0
LINE
  5
36D
100
AcDbEntity
  8
RACCORDO
100
AcDbLine
 62
7
  6
CONTINUOUS
 10
13.5733727145
 20
20.8261439203
 11
13.6861475998
 21
20.7696515941
  0
LWPOLYLINE
  5
36E
100
AcDbEntity
  8
RACCORDO
100
AcDbPolyline
 62
7
  6
CONTINUOUS
 90
10
 70
0
 10
13.5354286472
 20
20.8388115753
 10
13.4379515936
 20
20.8888670069
 10
13.3423383917
 20
20.9378428826
 10
13.2485890418
 20
20.9857392022
 10
13.1567179605
 20
21.0325573899
 10
13.0667107311
 20
21.0782960217
 10
12.9785241031
 20
21.1229508247
 10
12.8921436597
 20
21.1665203748
 10
12.8075838177
 20
21.2090060963
 10
12.7248445771
 20
21.250407989
  0
LINE
  5
36F
100
AcDbEntity
  8
RACCORDO
100
AcDbLine
 62
7
  6
CONTINUOUS
 10
13.5431870759
 20
20.8342251032
 11
13.5354286472
 21
20.8388115753
  0
LWPOLYLINE
  5
370
100
AcDbEntity
  8
RACCORDO
100
AcDbPolyline
 62
253
  6
CONTINUOUS
 90
5
 70
0
 10
13.5733727145
 20
20.8261439203
 10
13.5978957049
 20
20.8056395419
 10
13.6222614665
 20
20.7843612775
 10
13.6463982167
 20
20.7622990002
 10
13.6545470441
 20
20.7544850306
  0
LWPOLYLINE
  5
371
100
AcDbEntity
  8
RACCORDO
100
AcDbPolyline
 62
253
  6
CONTINUOUS
 90
4
 70
0
 10
13.4797361154
 20
20.8198479118
 10
13.5025965448
 20
20.8002691784
 10
13.5251740831
 20
20.7799161319
 10
13.5474687303
 20
20.7587887722
  0
LINE
  5
372
100
AcDbEntity
  8
RACCORDO
100
AcDbLine
 62
253
  6
CONTINUOUS
 10
13.5474687303
 20
20.7587887722
 11
13.5695142286
 21
20.7369588853
  0
LINE
  5
373
100
AcDbEntity
  8
RACCORDO
100
AcDbLine
 62
253
  6
CONTINUOUS
 10
13.5695142286
 20
20.7369588853
 11
13.5848472678
 21
20.7210328944
  0
LWPOLYLINE
  5
374
100
AcDbEntity
  8
21814000
100
AcDbPolyline
 62
253
  6
CONTINUOUS
 90
35
 70
0
 10
18.7540848033
 20
17.6297826247
 10
18.7656823297
 20
17.5929077042
 10
18.7856198371
 20
17.5199938327
 10
18.8019338342
 20
17.4490220823
 10
18.8155295945
 20
17.3799557473
 10
18.8265873513
 20
17.312976878
 10
18.8351147263
 20
17.2480533765
 10
18.8417144077
 20
17.1848018134
 10
18.8465268217
 20
17.123243125
 10
18.8495463611
 20
17.0634483193
 10
18.8511184992
 20
17.0050896144
 10
18.8513346781
 20
16.9481188851
 10
18.8502037311
 20
16.8926424917
 10
18.8479259031
 20
16.8385543899
 10
18.8445647575
 20
16.7858398764
 10
18.8401421814
 20
16.734553752
 10
18.8347872643
 20
16.6846898155
 10
18.8285585248
 20
16.6362735719
 10
18.8214747567
 20
16.5893076171
 10
18.813600673
 20
16.5437485719
 10
18.8049939888
 20
16.4996119459
 10
18.7956649532
 20
16.4569008358
 10
18.7856030347
 20
16.4155508075
 10
18.774853443
 20
16.3755232507
 10
18.7634298883
 20
16.3368682147
 10
18.751273919
 20
16.2996525385
 10
18.7384214755
 20
16.2638254882
 10
18.7248915877
 20
16.2294448024
 10
18.7106043952
 20
16.1967392395
 10
18.6955929373
 20
16.1656715947
 10
18.6798768391
 20
16.13628395
 10
18.6633617547
 20
16.1089240798
 10
18.6460334767
 20
16.0837098165
 10
18.6279526418
 20
16.0605288406
 10
18.6091368129
 20
16.0393843075
  0
LINE
  5
375
100
AcDbEntity
  8
21814000
100
AcDbLine
 62
7
  6
CONTINUOUS
 10
14.1324457028
 20
21.3065201097
 11
13.4059483141
 21
21.6697688041
  0
LINE
  5
376
100
AcDbEntity
  8
21814000
100
AcDbLine
 62
7
  6
CONTINUOUS
 10
13.9496160424
 20
21.4135947925
 11
13.6454966585
 21
21.5656544844
  0
LINE
  5
377
100
AcDbEntity
  8
21814000
100
AcDbLine
 62
7
  6
CONTINUOUS
 10
16.3442160762
 20
22.0453812043
 11
13.2319785033
 21
23.6014999907
  0
LWPOLYLINE
  5
378
100
AcDbEntity
  8
21814000
100
AcDbPolyline
 62
7
  6
CONTINUOUS
 90
10
 70
0
 10
13.9496160424
 20
21.4135947925
 10
13.918200588
 20
21.4316476047
 10
13.8861836107
 20
21.4494149071
 10
13.8535651105
 20
21.4668966997
 10
13.8203349198
 20
21.4840980663
 10
13.7865032062
 20
21.5010139231
 10
13.752100473
 20
21.5176290185
 10
13.7171368878
 20
21.5339382686
 10
13.681602283
 20
21.5499467572
 10
13.6454966585
 20
21.5656544844
  0
LWPOLYLINE
  5
379
100
AcDbEntity
  8
21814000
100
AcDbPolyline
 62
7
  6
CONTINUOUS
 90
35
 70
0
 10
18.7540848033
 20
19.7118706964
 10
18.8708583321
 20
19.6347685902
 10
19.0106550056
 20
19.5302549439
 10
19.1473928613
 20
19.4157263469
 10
19.2802583048
 20
19.2920098424
 10
19.4086437581
 20
19.1598630673
 10
19.5322253582
 20
19.0197956613
 10
19.6506055196
 20
18.8723901576
 10
19.7633599026
 20
18.7182792681
 10
19.8700354687
 20
18.558172484
 10
19.9701924808
 20
18.3928167269
 10
20.0634084246
 20
18.2229989652
 10
20.1493615472
 20
18.0493809346
 10
20.2277769288
 20
17.8725429759
 10
20.2983436038
 20
17.6931524121
 10
20.3607181862
 20
17.512017852
 10
20.4146029222
 20
17.329922557
 10
20.4597396453
 20
17.147617974
 10
20.495898548
 20
16.965841137
 10
20.522874292
 20
16.7853176772
 10
20.5404940973
 20
16.6066152249
 10
20.5485669985
 20
16.4306187091
 10
20.5469669367
 20
16.2584384684
 10
20.5356195646
 20
16.090522493
 10
20.5144849623
 20
15.9277455567
 10
20.4837556083
 20
15.7716519163
 10
20.4436511159
 20
15.6229099515
 10
20.3943247677
 20
15.4818170211
 10
20.3361296481
 20
15.3491509312
 10
20.2693212644
 20
15.2252535804
 10
20.1942525507
 20
15.1105944822
 10
20.1116628453
 20
15.0059968441
 10
20.0222236743
 20
14.9118695047
 10
19.9263993659
 20
14.8282889448
 10
19.8248078964
 20
14.7554400193
  0
LWPOLYLINE
  5
37A
100
AcDbEntity
  8
21814000
100
AcDbPolyline
 62
253
  6
CONTINUOUS
 90
34
 70
0
 10
18.7540848033
 20
19.6332601755
 10
18.8321798941
 20
19.577748372
 10
18.969320764
 20
19.4682927628
 10
19.1038632556
 20
19.3487672893
 10
19.2351798345
 20
19.2197294405
 10
19.362657993
 20
19.0817810922
 10
19.4857031299
 20
18.9355656816
 10
19.6037413253
 20
18.7817652028
 10
19.7162220198
 20
18.6210970207
 10
19.8226205744
 20
18.4543105334
 10
19.9224407174
 20
18.2821836778
 10
20.0152168588
 20
18.1055193031
 10
20.1005162641
 20
17.9251414221
 10
20.1779410729
 20
17.7418913683
 10
20.2471301546
 20
17.5566238704
 10
20.3077607923
 20
17.3702030674
 10
20.3595501878
 20
17.1834984775
 10
20.4022567808
 20
16.9973809434
 10
20.4356813759
 20
16.812718569
 10
20.4596680714
 20
16.6303726713
 10
20.4741049867
 20
16.4511937623
 10
20.478924784
 20
16.2760175822
 10
20.4741049824
 20
16.1056612018
 10
20.4596680628
 20
15.9409192106
 10
20.435681363
 20
15.7825600112
 10
20.4022567637
 20
15.6313222351
 10
20.3595501664
 20
15.4879112973
 10
20.3077607668
 20
15.3529961067
 10
20.247130125
 20
15.2272059454
 10
20.1779410393
 20
15.1111275336
 10
20.1005162266
 20
15.0053022932
 10
20.0152168175
 20
14.9102238223
 10
19.9224406724
 20
14.8263355939
 10
19.8248078964
 20
14.7554400193
  0
LINE
  5
37B
100
AcDbEntity
  8
21814000
100
AcDbLine
 62
253
  6
CONTINUOUS
 10
17.7429839288
 20
21.9271993108
 11
18.1625271398
 21
21.2035943094
  0
LINE
  5
37C
100
AcDbEntity
  8
21814000
100
AcDbLine
 62
7
  6
CONTINUOUS
 10
18.1332482931
 20
21.921589497
 11
18.4800860637
 21
21.3233828311
  0
LWPOLYLINE
  5
37D
100
AcDbEntity
  8
21814000
100
AcDbPolyline
 62
253
  6
CONTINUOUS
 90
13
 70
0
 10
18.1625271398
 20
21.2035943094
 10
18.2142963892
 20
21.110013792
 10
18.2623397396
 20
21.0142943374
 10
18.3064514621
 20
20.916845831
 10
18.3464426633
 20
20.8180855618
 10
18.3821420945
 20
20.7184364368
 10
18.4133968849
 20
20.61832517
 10
18.4400731965
 20
20.5181804533
 10
18.4620567974
 20
20.4184311218
 10
18.4792535502
 20
20.3195043183
 10
18.4915898159
 20
20.2218236631
 10
18.4990127691
 20
20.1258074393
 10
18.5014906236
 20
20.031866803
  0
LINE
  5
37E
100
AcDbEntity
  8
21814000
100
AcDbLine
 62
253
  6
CONTINUOUS
 10
17.7429839288
 20
21.9271993108
 11
16.9373119927
 21
22.3300352789
  0
LINE
  5
37F
100
AcDbEntity
  8
21814000
100
AcDbLine
 62
253
  6
CONTINUOUS
 10
12.2356489136
 20
24.6808668184
 11
11.26449008
 21
25.1664462353
  0
LINE
  5
380
100
AcDbEntity
  8
21814000
100
AcDbLine
 62
7
  6
CONTINUOUS
 10
18.0732593064
 20
21.977881415
 11
17.2475004062
 21
22.390760865
  0
LINE
  5
381
100
AcDbEntity
  8
21814000
100
AcDbLine
 62
7
  6
CONTINUOUS
 10
12.7082316852
 20
24.6603952256
 11
11.6558756725
 21
25.1865732319
  0
LWPOLYLINE
  5
382
100
AcDbEntity
  8
21814000
100
AcDbPolyline
 62
7
  6
CONTINUOUS
 90
4
 70
0
 10
18.0751848583
 20
21.9769184417
 10
18.0888283343
 20
21.9691036998
 10
18.1123640308
 20
21.9497314213
 10
18.1325421736
 20
21.9228535898
  0
LWPOLYLINE
  5
383
100
AcDbEntity
  8
21814000
100
AcDbPolyline
 62
253
  6
CONTINUOUS
 90
12
 70
0
 10
18.4800860637
 20
21.3233828311
 10
18.478726927
 20
21.3249799451
 10
18.4708080089
 20
21.3275015483
 10
18.4571634164
 20
21.3266327391
 10
18.4378946997
 20
21.3223799838
 10
18.4131452668
 20
21.3147749335
 10
18.3830993158
 20
21.3038741889
 10
18.3479804643
 20
21.2897588792
 10
18.3080500853
 20
21.2725340581
 10
18.2636053614
 20
21.2523279218
 10
18.2149770734
 20
21.2292908549
 10
18.1625271387
 20
21.2035943112
  0
ELLIPSE
  5
384
100
AcDbEntity
  8
290140000
100
AcDbEllipse
 62
7
  6
CONTINUOUS
 10
-13.1530742126
 20
21.7007242629
 30
0.0
 11
-0.2788336762
 21
0.7504028808
 31
0.0
 40
0.660854826
 41
-0.3090486207
 42
0.0320396926
  0
ELLIPSE
  5
385
100
AcDbEntity
  8
290140000
100
AcDbEllipse
 62
7
  6
CONTINUOUS
 10
1.4129376544
 20
14.4177183294
 30
0.0
 11
-0.2782515188
 21
0.7500674241
 31
0.0
 40
0.6617094163
 41
-2.1859006333
 42
-0.8222376794
  0
ELLIPSE
  5
386
100
AcDbEntity
  8
290140000
100
AcDbEllipse
 62
7
  6
CONTINUOUS
 10
-1.6987500639
 20
-23.3975927595
 30
0.0
 11
-0.2788336762
 21
0.7504028808
 31
0.0
 40
0.660854826
 41
-3.1737081954
 42
-2.187168432
  0
ELLIPSE
  5
387
100
AcDbEntity
  8
21814000
100
AcDbEllipse
 62
7
  6
CONTINUOUS
 10
11.157522441
 20
21.8642763112
 30
0.0
 11
3.3311333813
 21
-0.0467042088
 31
0.0
 40
0.4892378494
 41
3.8528301344
 42
5.5059722822
  0
ELLIPSE
  5
388
100
AcDbEntity
  8
21814000
100
AcDbEllipse
 62
7
  6
CONTINUOUS
 10
11.8530127022
 20
20.5710164946
 30
0.0
 11
2.7583300471
 21
-0.038763314
 31
0.0
 40
0.4892375088
 41
0.4291477653
 42
0.6564870977
  0
ELLIPSE
  5
389
100
AcDbEntity
  8
21814000
100
AcDbEllipse
 62
7
  6
CONTINUOUS
 10
11.18126126
 20
20.6825141786
 30
0.0
 11
2.7499350056
 21
-0.0386453369
 31
0.0
 40
0.4892375088
 41
8.654981679
 42
9.2557277435
  0
ELLIPSE
  5
38A
100
AcDbEntity
  8
21814000
100
AcDbEllipse
 62
7
  6
CONTINUOUS
 10
11.8530127022
 20
20.5710164946
 30
0.0
 11
2.7583300471
 21
-0.038763314
 31
0.0
 40
0.4892375088
 41
0.9280596999
 42
2.3630697256
  0
ELLIPSE
  5
38B
100
AcDbEntity
  8
21814000
100
AcDbEllipse
 62
7
  6
CONTINUOUS
 10
16.5587269333
 20
21.7289170116
 30
0.0
 11
0.716172246
 21
0.6416715914
 31
0.0
 40
0.2882345029
 41
0.1142323894
 42
0.7807533904
  0
ELLIPSE
  5
38C
100
AcDbEntity
  8
21814000
100
AcDbEllipse
 62
7
  6
CONTINUOUS
 10
11.8530127022
 20
22.5157272058
 30
0.0
 11
2.7583515655
 21
-1.4175703156
 31
0.0
 40
0.0109499087
 41
-0.9155571536
 42
-0.85781018
  0
ELLIPSE
  5
38D
100
AcDbEntity
  8
21814000
100
AcDbEllipse
 62
7
  6
CONTINUOUS
 10
11.8530127022
 20
22.5157272058
 30
0.0
 11
2.7583515655
 21
-1.4175703156
 31
0.0
 40
0.0109499087
 41
-0.7017315251
 42
-0.6439845515
  0
ELLIPSE
  5
38E
100
AcDbEntity
  8
21814000
100
AcDbEllipse
 62
7
  6
CONTINUOUS
 10
12.5920206862
 20
23.7122701352
 30
0.0
 11
-0.2796057293
 21
0.9974617846
 31
0.0
 40
0.6760995073
 41
4.8467711056
 42
6.4001141399
  0
ELLIPSE
  5
38F
100
AcDbEntity
  8
21814000
100
AcDbEllipse
 62
7
  6
CONTINUOUS
 10
11.157522441
 20
21.8642763112
 30
0.0
 11
3.3311333813
 21
-0.0467042088
 31
0.0
 40
0.4892378494
 41
2.3616770883
 42
3.7058786528
  0
ELLIPSE
  5
390
100
AcDbEntity
  8
21814000
100
AcDbEllipse
 62
7
  6
CONTINUOUS
 10
11.8530127022
 20
21.0040291965
 30
0.0
 11
2.7583300471
 21
-0.038763314
 31
0.0
 40
0.4892375088
 41
0.1708839954
 42
2.3630697256
  0
ELLIPSE
  5
391
100
AcDbEntity
  8
26814000
100
AcDbEllipse
 62
7
  6
CONTINUOUS
 10
-0.2646124846
 20
-23.8093108721
 30
0.0
 11
0.110769438
 21
0.2241226716
 31
0.0
 40
0.6088015717
 41
-4.0304836828
 42
-3.1443955108
  0
ELLIPSE
  5
392
100
AcDbEntity
  8
26814000
100
AcDbEllipse
 62
7
  6
CONTINUOUS
 10
-13.6289306491
 20
24.4258237432
 30
0.0
 11
0.110769438
 21
0.2241226716
 31
0.0
 40
0.6088015717
 41
-4.0304836828
 42
-3.1443650652
  0
ELLIPSE
  5
393
100
AcDbEntity
  8
26814000
100
AcDbEllipse
 62
7
  6
CONTINUOUS
 10
-0.2646124846
 20
17.743664661
 30
0.0
 11
0.110769438
 21
0.2241226716
 31
0.0
 40
0.6088015717
 41
-4.0304836828
 42
-3.1443650652
  0
ELLIPSE
  5
394
100
AcDbEntity
  8
26814000
100
AcDbEllipse
 62
7
  6
CONTINUOUS
 10
3.7919953966
 20
16.4519466119
 30
0.0
 11
-0.1565168911
 21
0.3130623908
 31
0.0
 40
0.6123677712
 41
-2.2554744912
 42
-0.6846781644
  0
ELLIPSE
  5
395
100
AcDbEntity
  8
26814000
100
AcDbEllipse
 62
7
  6
CONTINUOUS
 10
3.7919953966
 20
-21.7246352328
 30
0.0
 11
-0.1565168911
 21
0.3130623908
 31
0.0
 40
0.6123677712
 41
-3.1363904945
 42
-2.2554744912
  0
ELLIPSE
  5
396
100
AcDbEntity
  8
26814000
100
AcDbEllipse
 62
7
  6
CONTINUOUS
 10
-1.9746001519
 20
25.5571779171
 30
0.0
 11
0.2999991737
 21
-0.0014183462
 31
0.0
 40
0.4964289597
 41
0.7877451926
 42
2.3527237553
  0
ELLIPSE
  5
397
100
AcDbEntity
  8
26814000
100
AcDbEllipse
 62
7
  6
CONTINUOUS
 10
3.5798633623
 20
22.77994616
 30
0.0
 11
0.2999991737
 21
-0.0014183462
 31
0.0
 40
0.4964289597
 41
0.7877451926
 42
2.3585415194
  0
ELLIPSE
  5
398
100
AcDbEntity
  8
26814000
100
AcDbEllipse
 62
7
  6
CONTINUOUS
 10
3.1192154978
 20
17.0695176228
 30
0.0
 11
0.110769438
 21
0.2241226716
 31
0.0
 40
0.6088015717
 41
1.2055040732
 42
2.2526937431
  0
ELLIPSE
  5
399
100
AcDbEntity
  8
26814000
100
AcDbEllipse
 62
7
  6
CONTINUOUS
 10
-10.2451026666
 20
23.751676705
 30
0.0
 11
0.110769438
 21
0.2241226716
 31
0.0
 40
0.6088015717
 41
1.2055040732
 42
2.2526937431
  0
ELLIPSE
  5
39A
100
AcDbEntity
  8
26814000
100
AcDbEllipse
 62
7
  6
CONTINUOUS
 10
3.4707119749
 20
17.9973227748
 30
0.0
 11
0.110769438
 21
0.2241226716
 31
0.0
 40
0.6088015717
 41
-1.9360885804
 42
-0.8888910292
  0
ELLIPSE
  5
39B
100
AcDbEntity
  8
26814000
100
AcDbEllipse
 62
7
  6
CONTINUOUS
 10
1.8505371186
 20
19.0683391794
 30
0.0
 11
0.1128509832
 21
0.2230818409
 31
0.0
 40
0.6159267166
 41
0.0028979148
 42
0.6817883054
  0
ELLIPSE
  5
39C
100
AcDbEntity
  8
26814000
100
AcDbEllipse
 62
7
  6
CONTINUOUS
 10
-0.2646124846
 20
17.9970360548
 30
0.0
 11
0.110769438
 21
0.2241226716
 31
0.0
 40
0.6088015717
 41
0.6877230618
 42
2.2527016244
  0
ELLIPSE
  5
39D
100
AcDbEntity
  8
26814000
100
AcDbEllipse
 62
7
  6
CONTINUOUS
 10
-9.8936061895
 20
24.679481857
 30
0.0
 11
0.110769438
 21
0.2241226716
 31
0.0
 40
0.6088015717
 41
-1.9360885804
 42
-0.8888910292
  0
ELLIPSE
  5
39E
100
AcDbEntity
  8
26814000
100
AcDbEllipse
 62
7
  6
CONTINUOUS
 10
-11.5137810459
 20
25.7504982616
 30
0.0
 11
0.1128509832
 21
0.2230818409
 31
0.0
 40
0.6159267166
 41
0.0028979148
 42
0.6817883054
  0
ELLIPSE
  5
39F
100
AcDbEntity
  8
26814000
100
AcDbEllipse
 62
7
  6
CONTINUOUS
 10
-13.6289306491
 20
24.679195137
 30
0.0
 11
0.110769438
 21
0.2241226716
 31
0.0
 40
0.6088015717
 41
0.6877230618
 42
2.2527016244
  0
ELLIPSE
  5
3A0
100
AcDbEntity
  8
26814000
100
AcDbEllipse
 62
7
  6
CONTINUOUS
 10
3.4707119749
 20
-23.5632103409
 30
0.0
 11
0.110769438
 21
0.2241226716
 31
0.0
 40
0.6088015717
 41
-2.4538695918
 42
-0.8888910292
  0
ELLIPSE
  5
3A1
100
AcDbEntity
  8
26814000
100
AcDbEllipse
 62
7
  6
CONTINUOUS
 10
-0.2646124846
 20
-23.5559394784
 30
0.0
 11
0.110769438
 21
0.2241226716
 31
0.0
 40
0.6088015717
 41
1.2055040732
 42
2.2527016244
  0
ELLIPSE
  5
3A2
100
AcDbEntity
  8
26814000
100
AcDbEllipse
 62
7
  6
CONTINUOUS
 10
3.4707119749
 20
-23.3022813646
 30
0.0
 11
0.110769438
 21
0.2241226716
 31
0.0
 40
0.6088015717
 41
5.394294278
 42
6.4414918292
  0
ELLIPSE
  5
3A3
100
AcDbEntity
  8
26814000
100
AcDbEllipse
 62
7
  6
CONTINUOUS
 10
-9.8936061895
 20
24.9404108334
 30
0.0
 11
0.110769438
 21
0.2241226716
 31
0.0
 40
0.6088015717
 41
5.394294278
 42
6.9592728406
  0
ELLIPSE
  5
3A4
100
AcDbEntity
  8
26814000
100
AcDbEllipse
 62
7
  6
CONTINUOUS
 10
3.4707119749
 20
18.2582517512
 30
0.0
 11
0.110769438
 21
0.2241226716
 31
0.0
 40
0.6088015717
 41
5.394294278
 42
6.9592728406
  0
ELLIPSE
  5
3A5
100
AcDbEntity
  8
26814000
100
AcDbEllipse
 62
7
  6
CONTINUOUS
 10
-1.7941481747
 20
24.2351177471
 30
0.0
 11
0.2999981629
 21
-0.0021225547
 31
0.0
 40
0.4946372042
 41
-0.7818985079
 42
0.0034997008
  0
ELLIPSE
  5
3A6
100
AcDbEntity
  8
26814000
100
AcDbEllipse
 62
7
  6
CONTINUOUS
 10
3.7603153394
 20
21.45788599
 30
0.0
 11
0.2999981629
 21
-0.0021225547
 31
0.0
 40
0.4946372042
 41
-0.7760807437
 42
0.0035109161
  0
ELLIPSE
  5
3A7
100
AcDbEntity
  8
26814000
100
AcDbEllipse
 62
7
  6
CONTINUOUS
 10
-7.9430939022
 20
22.6369965491
 30
0.0
 11
0.2999991335
 21
0.0014318851
 31
0.0
 40
0.5035541159
 41
8.6427941204
 42
10.207772683
  0
ELLIPSE
  5
3A8
100
AcDbEntity
  8
26814000
100
AcDbEllipse
 62
7
  6
CONTINUOUS
 10
-13.9563848111
 20
22.8399264478
 30
0.0
 11
-0.1565168911
 21
0.3130623908
 31
0.0
 40
0.6123677712
 41
-0.6846781644
 42
0.8861181623
  0
ELLIPSE
  5
3A9
100
AcDbEntity
  8
26814000
100
AcDbEllipse
 62
7
  6
CONTINUOUS
 10
1.3171216625
 20
15.203173211
 30
0.0
 11
-0.1565168911
 21
0.3130623908
 31
0.0
 40
0.6123677712
 41
-2.2554744912
 42
-0.6846781644
  0
ELLIPSE
  5
3AA
100
AcDbEntity
  8
26814000
100
AcDbEllipse
 62
7
  6
CONTINUOUS
 10
-2.1505848342
 20
19.7407420151
 30
0.0
 11
0.2999991335
 21
0.0014318851
 31
0.0
 40
0.5035541159
 41
-2.3585979313
 42
-0.7936193687
  0
ELLIPSE
  5
3AB
100
AcDbEntity
  8
26814000
100
AcDbEllipse
 62
7
  6
CONTINUOUS
 10
-2.1505848342
 20
18.5265429393
 30
0.0
 11
0.2999980272
 21
0.0021530184
 31
0.0
 40
0.5053247124
 41
-2.3598210761
 42
-0.7948425135
  0
ELLIPSE
  5
3AC
100
AcDbEntity
  8
26814000
100
AcDbEllipse
 62
7
  6
CONTINUOUS
 10
-7.9430939022
 20
21.4227974733
 30
0.0
 11
0.2999980272
 21
0.0021530184
 31
0.0
 40
0.5053247124
 41
3.1379773283
 42
3.9233642311
  0
ELLIPSE
  5
3AD
100
AcDbEntity
  8
26814000
100
AcDbEllipse
 62
7
  6
CONTINUOUS
 10
3.7603153394
 20
22.6897201714
 30
0.0
 11
0.2999991737
 21
-0.0014183462
 31
0.0
 40
0.4964289597
 41
-0.77723337
 42
0.7877451926
  0
ELLIPSE
  5
3AE
100
AcDbEntity
  8
26814000
100
AcDbEllipse
 62
7
  6
CONTINUOUS
 10
-1.7941481747
 20
25.4669519285
 30
0.0
 11
0.2999991737
 21
-0.0014183462
 31
0.0
 40
0.4964289597
 41
-0.7830511342
 42
0.7877451926
  0
ELLIPSE
  5
3AF
100
AcDbEntity
  8
26814000
100
AcDbEllipse
 62
7
  6
CONTINUOUS
 10
1.3171216625
 20
-22.9507355661
 30
0.0
 11
-0.1565168911
 21
0.3130623908
 31
0.0
 40
0.6123677712
 41
2.4569144891
 42
4.0277108159
  0
ELLIPSE
  5
3B0
100
AcDbEntity
  8
26814000
100
AcDbEllipse
 62
7
  6
CONTINUOUS
 10
3.1192154978
 20
-22.7300865166
 30
0.0
 11
0.110769438
 21
0.2241226716
 31
0.0
 40
0.6088015717
 41
2.2527095058
 42
3.2998991756
  0
ELLIPSE
  5
3B1
100
AcDbEntity
  8
26814000
100
AcDbEllipse
 62
7
  6
CONTINUOUS
 10
1.343220891
 20
17.193119367
 30
0.0
 11
0.1128509832
 21
0.2230818409
 31
0.0
 40
0.6159267166
 41
0.6934238338
 42
2.2584023964
  0
ELLIPSE
  5
3B2
100
AcDbEntity
  8
26814000
100
AcDbEllipse
 62
7
  6
CONTINUOUS
 10
1.343220891
 20
16.9397479732
 30
0.0
 11
0.1128509832
 21
0.2230818409
 31
0.0
 40
0.6159267166
 41
-4.0247829108
 42
-2.9775853596
  0
ELLIPSE
  5
3B3
100
AcDbEntity
  8
26814000
100
AcDbEllipse
 62
7
  6
CONTINUOUS
 10
-12.0210972734
 20
23.8752784492
 30
0.0
 11
0.1128509832
 21
0.2230818409
 31
0.0
 40
0.6159267166
 41
0.6934238338
 42
2.2584023964
  0
ELLIPSE
  5
3B4
100
AcDbEntity
  8
26814000
100
AcDbEllipse
 62
7
  6
CONTINUOUS
 10
-12.0210972734
 20
23.6219070554
 30
0.0
 11
0.1128509832
 21
0.2230818409
 31
0.0
 40
0.6159267166
 41
-4.0247829108
 42
-2.9775853596
  0
ELLIPSE
  5
3B5
100
AcDbEntity
  8
26814000
100
AcDbEllipse
 62
7
  6
CONTINUOUS
 10
1.343220891
 20
-24.6132275599
 30
0.0
 11
0.1128509832
 21
0.2230818409
 31
0.0
 40
0.6159267166
 41
-4.0247829108
 42
-2.4598043482
  0
ELLIPSE
  5
3B6
100
AcDbEntity
  8
26814000
100
AcDbEllipse
 62
7
  6
CONTINUOUS
 10
1.343220891
 20
-24.3598561662
 30
0.0
 11
0.1128509832
 21
0.2230818409
 31
0.0
 40
0.6159267166
 41
1.2112048452
 42
2.2584023964
  0
ELLIPSE
  5
3B7
100
AcDbEntity
  8
26814000
100
AcDbEllipse
 62
7
  6
CONTINUOUS
 10
-0.3350846437
 20
-17.5090811992
 30
0.0
 11
-0.542618321
 21
0.8478124368
 31
0.0
 40
0.5451249042
 41
-3.2164376038
 42
-2.3115524019
  0
ENDSEC
  0
SECTION
  2
OBJECTS
  0
DICTIONARY
  5
C
100
AcDbDictionary
280
0
281
1
  3
ACAD_GROUP
350
D
  3
ACAD_MLINESTYLE
350
17
  3
ACAD_LAYOUT
350
1A
  3
ACAD_PLOTSETTINGS
350
19
  3
ACAD_PLOTSTYLENAME
350
E
  0
DICTIONARY
  5
D
102
{ACAD_REACTORS
330
C
102
}
100
AcDbDictionary
280
0
281
1
  0
ACDBDICTIONARYWDFLT
  5
E
102
{ACAD_REACTORS
330
C
102
}
100
AcDbDictionary
281
1
  3
Normal
350
F
100
AcDbDictionaryWithDefault
340
F
  0
DICTIONARY
  5
17
102
{ACAD_REACTORS
330
C
102
}
100
AcDbDictionary
280
0
281
1
  3
Standard
350
18
  0
DICTIONARY
  5
19
102
{ACAD_REACTORS
330
C
102
}
100
AcDbDictionary
281
1
  0
DICTIONARY
  5
1A
102
{ACAD_REACTORS
330
C
102
}
100
AcDbDictionary
281
1
  3
Model
350
3B8
  3
Layout1
350
3B9
  0
ACDBPLACEHOLDER
  5
F
102
{ACAD_REACTORS
330
E
102
}
  0
MLINESTYLE
  5
18
102
{ACAD_REACTORS
330
17
102
}
100
AcDbMlineStyle
  2
STANDARD
 70
0
  3

 62
256
 51
90.0
 52
90.0
 71
2
 49
0.5
 62
256
  6
BYLAYER
 49
-0.5
 62
256
  6
BYLAYER
  0
LAYOUT
  5
3B8
102
{ACAD_REACTORS
330
1A
102
}
100
AcDbPlotSettings
  1

  2
none_device
  4
ISO_A4_(297.00_x_210.00_MM)
  6

 40
0.0
 41
0.0
 42
0.0
 43
0.0
 44
297.0
 45
210.0
 46
0.0
 47
0.0
 48
0.0
 49
0.0
140
0.0
141
0.0
142
1.0
143
1.0
 70
1024
 72
1
 73
0
 74
0
  7

 75
0
147
1.0
148
0.0
149
0.0
100
AcDbLayout
  1
Model
 70
0
 71
0
 10
0.0
 20
0.0
 11
297.0
 21
210.0
 12
0.0
 22
0.0
 32
0.0
 14
0.0
 24
0.0
 34
0.0
 15
0.0
 25
0.0
 35
0.0
146
0.0
 13
0.0
 23
0.0
 33
0.0
 16
1.0
 26
0.0
 36
0.0
 17
0.0
 27
1.0
 37
0.0
 76
0
330
224
345
0
346
0
  0
LAYOUT
  5
3B9
102
{ACAD_REACTORS
330
1A
102
}
100
AcDbPlotSettings
  1

  2
none_device
  4
ISO_A4_(297.00_x_210.00_MM)
  6

 40
0.0
 41
0.0
 42
0.0
 43
0.0
 44
297.0
 45
210.0
 46
0.0
 47
0.0
 48
0.0
 49
0.0
140
0.0
141
0.0
142
1.0
143
1.0
 70
0
 72
1
 73
0
 74
0
  7

 75
0
147
1.0
148
0.0
149
0.0
100
AcDbLayout
  1
Layout1
 70
0
 71
1
 10
0.0
 20
0.0
 11
297.0
 21
210.0
 12
0.0
 22
0.0
 32
0.0
 14
0.0
 24
0.0
 34
0.0
 15
0.0
 25
0.0
 35
0.0
146
0.0
 13
0.0
 23
0.0
 33
0.0
 16
1.0
 26
0.0
 36
0.0
 17
0.0
 27
1.0
 37
0.0
 76
0
330
225
345
0
346
0
  0
ENDSEC
  0
EOF
