  0
SECTION
  2
HEADER
  9
$ACADVER
  1
AC1015
  9
$DWGCODEPAGE
  3
ANSI_1252
  9
$EXTMAX
 10
297.0
 20
210.0
 30
0.0
  9
$EXTMIN
 10
0.0
 20
0.0
 30
0.0
  9
$LIMMIN
 10
0.0
 20
0.0
  9
$LIMMAX
 10
297.0
 20
210.0
  9
$VIEWCTR
 10
148.5
 20
105.0
  9
$VIEWSIZE
 40
210.0
  9
$CLAYER
  8
0
  9
$LTSCALE
 40
16.335
  9
$CELTYPE
  6
BYLAYER
  9
$DIMSCALE
 40
1.0
  9
$DIMASZ
 40
3.0
  9
$DIMEXO
 40
1.85625
  9
$DIMDLI
 40
11.286
  9
$DIMEXE
 40
5.346
  9
$DIMCEN
 40
2.673
  9
$DIMLFAC
 40
1.0
  9
$DIMBLK
  1
_FILLED
  9
$DIMTXT
 40
3.0
  9
$DIMTOL
 70
1
  9
$DIMLIM
 70
0
  9
$DIMTFAC
 40
1.0
  9
$DIMTP
 40
0.01
  9
$DIMTM
 40
0.01
  9
$PDMODE
 70
3
  9
$PDSIZE
 40
3.0
  9
$HANDSEED
  5
57C
  9
$TILEMODE
 70
1
  9
$MEASUREMENT
 70
1
  9
$INSUNITS
 70
4
  0
ENDSEC
  0
SECTION
  2
CLASSES
  0
CLASS
  1
ACDBDICTIONARYWDFLT
  2
AcDbDictionaryWithDefault
  3
AutoCAD 2000
 90
0
280
0
281
0
  0
CLASS
  1
ACDBPLACEHOLDER
  2
AcDbPlaceHolder
  3
AutoCAD 2000
 90
0
280
0
281
0
  0
CLASS
  1
LAYOUT
  2
AcDbLayout
  3
AutoCAD 2000
 90
0
280
0
281
0
  0
ENDSEC
  0
SECTION
  2
TABLES
  0
TABLE
  2
VPORT
  5
8
100
AcDbSymbolTable
 70
2
  0
VPORT
  5
1F4
100
AcDbSymbolTableRecord
100
AcDbViewportTableRecord
  2
*ACTIVE
 70
0
 10
0.0
 20
0.0
 11
1.0
 21
1.0
 12
148.5
 22
105.0
 13
0.0
 23
0.0
 14
1.0
 24
1.0
 15
0.0
 25
0.0
 16
0.0
 26
0.0
 36
1.0
 17
0.0
 27
0.0
 37
0.0
 40
210.0
 41
1.4142857143
 42
50.0
 43
0.0
 44
0.0
 50
0.0
 51
0.0
 71
0
 72
100
 73
1
 74
1
 75
0
 76
0
 77
0
 78
0
  0
ENDTAB
  0
TABLE
  2
LTYPE
  5
5
100
AcDbSymbolTable
 70
6
  0
LTYPE
  5
14
100
AcDbSymbolTableRecord
100
AcDbLinetypeTableRecord
  2
BYBLOCK
 70
0
  3

 72
65
 73
0
 40
0.0
  0
LTYPE
  5
15
100
AcDbSymbolTableRecord
100
AcDbLinetypeTableRecord
  2
BYLAYER
 70
0
  3

 72
65
 73
0
 40
0.0
  0
LTYPE
  5
16
100
AcDbSymbolTableRecord
100
AcDbLinetypeTableRecord
  2
CONTINUOUS
 70
64
  3
Solid line
 72
65
 73
0
 40
0.0
  0
LTYPE
  5
1F5
100
AcDbSymbolTableRecord
100
AcDbLinetypeTableRecord
  2
CENTER
 70
64
  3
____ _ ____ _ ____ _ ____ _ ____ _ ____ _ ____
 72
65
 73
4
 40
0.6
 49
0.375
 74
0
 49
-0.075
 74
0
 49
0.075
 74
0
 49
-0.075
 74
0
  0
LTYPE
  5
1F6
100
AcDbSymbolTableRecord
100
AcDbLinetypeTableRecord
  2
HIDDEN
 70
64
  3
- - - - - - - - - - - - - - - - - - - -
 72
65
 73
2
 40
0.2
 49
0.1
 74
0
 49
-0.1
 74
0
  0
LTYPE
  5
1F7
100
AcDbSymbolTableRecord
100
AcDbLinetypeTableRecord
  2
PHANTOM
 70
64
  3
_____ _ _ _____ _ _ _____ _ _ _____
 72
65
 73
6
 40
0.8
 49
0.45
 74
0
 49
-0.05
 74
0
 49
0.1
 74
0
 49
-0.05
 74
0
 49
0.1
 74
0
 49
-0.05
 74
0
  0
LTYPE
  5
1F8
100
AcDbSymbolTableRecord
100
AcDbLinetypeTableRecord
  2
DOT
 70
64
  3
. . . . . . . . . . . . . . . . . . . .
 72
65
 73
2
 40
0.2
 49
0.1
 74
0
 49
-0.1
 74
0
  0
LTYPE
  5
1F9
100
AcDbSymbolTableRecord
100
AcDbLinetypeTableRecord
  2
DASHED
 70
64
  3
- - - - - - - - - - - - - - - - - - - -
 72
65
 73
2
 40
0.2
 49
0.1
 74
0
 49
-0.1
 74
0
  0
ENDTAB
  0
TABLE
  2
LAYER
  5
2
100
AcDbSymbolTable
 70
36
  0
LAYER
  5
10
100
AcDbSymbolTableRecord
100
AcDbLayerTableRecord
  2
0
 70
0
 62
7
  6
CONTINUOUS
370
-3
390
F
  0
LAYER
  5
1FA
100
AcDbSymbolTableRecord
100
AcDbLayerTableRecord
  2
DEFAULT_1
 70
0
 62
7
  6
CENTER
370
-3
390
F
  0
LAYER
  5
1FB
100
AcDbSymbolTableRecord
100
AcDbLayerTableRecord
  2
DEFAULT_2
 70
0
 62
7
  6
HIDDEN
370
-3
390
F
  0
LAYER
  5
1FC
100
AcDbSymbolTableRecord
100
AcDbLayerTableRecord
  2
DEFAULT_3
 70
0
 62
7
  6
PHANTOM
370
-3
390
F
  0
LAYER
  5
1FD
100
AcDbSymbolTableRecord
100
AcDbLayerTableRecord
  2
ASSI
 70
0
 62
7
  6
CONTINUOUS
370
-3
390
F
  0
LAYER
  5
1FE
100
AcDbSymbolTableRecord
100
AcDbLayerTableRecord
  2
COLORE_TOP
 70
0
 62
7
  6
CONTINUOUS
370
-3
390
F
  0
LAYER
  5
1FF
100
AcDbSymbolTableRecord
100
AcDbLayerTableRecord
  2
COORDINATE
 70
0
 62
7
  6
CONTINUOUS
370
-3
390
F
  0
LAYER
  5
200
100
AcDbSymbolTableRecord
100
AcDbLayerTableRecord
  2
COORD_ORIGINE
 70
0
 62
7
  6
CONTINUOUS
370
-3
390
F
  0
LAYER
  5
201
100
AcDbSymbolTableRecord
100
AcDbLayerTableRecord
  2
COPY_PUBLISH
 70
0
 62
7
  6
CONTINUOUS
370
-3
390
F
  0
LAYER
  5
202
100
AcDbSymbolTableRecord
100
AcDbLayerTableRecord
  2
COSMETIC
 70
0
 62
7
  6
CONTINUOUS
370
-3
390
F
  0
LAYER
  5
203
100
AcDbSymbolTableRecord
100
AcDbLayerTableRecord
  2
COSMETICHE
 70
0
 62
7
  6
CONTINUOUS
370
-3
390
F
  0
LAYER
  5
204
100
AcDbSymbolTableRecord
100
AcDbLayerTableRecord
  2
CURVE
 70
0
 62
7
  6
CONTINUOUS
370
-3
390
F
  0
LAYER
  5
205
100
AcDbSymbolTableRecord
100
AcDbLayerTableRecord
  2
DRAFT
 70
0
 62
7
  6
CONTINUOUS
370
-3
390
F
  0
LAYER
  5
206
100
AcDbSymbolTableRecord
100
AcDbLayerTableRecord
  2
IMPORT
 70
0
 62
7
  6
CONTINUOUS
370
-3
390
F
  0
LAYER
  5
207
100
AcDbSymbolTableRecord
100
AcDbLayerTableRecord
  2
IMPORTED
 70
0
 62
7
  6
CONTINUOUS
370
-3
390
F
  0
LAYER
  5
208
100
AcDbSymbolTableRecord
100
AcDbLayerTableRecord
  2
IMPORT_IGES
 70
0
 62
7
  6
CONTINUOUS
370
-3
390
F
  0
LAYER
  5
209
100
AcDbSymbolTableRecord
100
AcDbLayerTableRecord
  2
INCISIONI_LASER
 70
0
 62
7
  6
CONTINUOUS
370
-3
390
F
  0
LAYER
  5
20A
100
AcDbSymbolTableRecord
100
AcDbLayerTableRecord
  2
NOTE
 70
0
 62
7
  6
CONTINUOUS
370
-3
390
F
  0
LAYER
  5
20B
100
AcDbSymbolTableRecord
100
AcDbLayerTableRecord
  2
PIANI
 70
0
 62
7
  6
CONTINUOUS
370
-3
390
F
  0
LAYER
  5
20C
100
AcDbSymbolTableRecord
100
AcDbLayerTableRecord
  2
PIANI_DI_RIFERIMENTO
 70
0
 62
7
  6
CONTINUOUS
370
-3
390
F
  0
LAYER
  5
20D
100
AcDbSymbolTableRecord
100
AcDbLayerTableRecord
  2
PIANI_ORIGINE
 70
0
 62
7
  6
CONTINUOUS
370
-3
390
F
  0
LAYER
  5
20E
100
AcDbSymbolTableRecord
100
AcDbLayerTableRecord
  2
PIANI_RIFERIMENTO
 70
0
 62
7
  6
CONTINUOUS
370
-3
390
F
  0
LAYER
  5
20F
100
AcDbSymbolTableRecord
100
AcDbLayerTableRecord
  2
PIANI_SFORMO
 70
0
 62
7
  6
CONTINUOUS
370
-3
390
F
  0
LAYER
  5
210
100
AcDbSymbolTableRecord
100
AcDbLayerTableRecord
  2
PUNTI
 70
0
 62
7
  6
CONTINUOUS
370
-3
390
F
  0
LAYER
  5
211
100
AcDbSymbolTableRecord
100
AcDbLayerTableRecord
  2
RACCORDO
 70
0
 62
7
  6
CONTINUOUS
370
-3
390
F
  0
LAYER
  5
212
100
AcDbSymbolTableRecord
100
AcDbLayerTableRecord
  2
SMUSSO
 70
0
 62
7
  6
CONTINUOUS
370
-3
390
F
  0
LAYER
  5
213
100
AcDbSymbolTableRecord
100
AcDbLayerTableRecord
  2
SNAPLINE
 70
0
 62
7
  6
CONTINUOUS
370
-3
390
F
  0
LAYER
  5
214
100
AcDbSymbolTableRecord
100
AcDbLayerTableRecord
  2
SUPERFICI
 70
0
 62
7
  6
CONTINUOUS
370
-3
390
F
  0
LAYER
  5
215
100
AcDbSymbolTableRecord
100
AcDbLayerTableRecord
  2
TRASH
 70
0
 62
7
  6
CONTINUOUS
370
-3
390
F
  0
LAYER
  5
216
100
AcDbSymbolTableRecord
100
AcDbLayerTableRecord
  2
XSEC_DATUMS
 70
0
 62
7
  6
CONTINUOUS
370
-3
390
F
  0
ENDTAB
  0
TABLE
  2
STYLE
  5
3
100
AcDbSymbolTable
 70
1
  0
STYLE
  5
11
100
AcDbSymbolTableRecord
100
AcDbTextStyleTableRecord
  2
STANDARD
 70
0
 40
0.0
 41
0.8
 50
0.0
 71
0
 42
0.2
  3
txt
  4

  0
STYLE
  5
217
100
AcDbSymbolTableRecord
100
AcDbTextStyleTableRecord
  2
TEXTSTYLE_1
 70
0
 40
0.0
 41
0.8
 50
0.0
 71
0
 42
0.2
  3
gdt
  4

  0
ENDTAB
  0
TABLE
  2
VIEW
  5
6
100
AcDbSymbolTable
 70
0
  0
ENDTAB
  0
TABLE
  2
UCS
  5
7
100
AcDbSymbolTable
 70
0
  0
ENDTAB
  0
TABLE
  2
APPID
  5
9
100
AcDbSymbolTable
 70
1
  0
APPID
  5
218
100
AcDbSymbolTableRecord
100
AcDbRegAppTableRecord
  2
ACAD
 70
0
  0
ENDTAB
  0
TABLE
  2
BLOCK_RECORD
  5
1
100
AcDbSymbolTable
 70
0
  0
BLOCK_RECORD
  5
219
100
AcDbSymbolTableRecord
100
AcDbBlockTableRecord
  2
*Model_Space
  0
BLOCK_RECORD
  5
21A
100
AcDbSymbolTableRecord
100
AcDbBlockTableRecord
  2
*Paper_Space
  0
ENDTAB
  0
TABLE
  2
DIMSTYLE
  5
A
100
AcDbSymbolTable
 70
1
100
AcDbDimStyleTable
 71
0
  0
DIMSTYLE
105
21B
100
AcDbSymbolTableRecord
100
AcDbDimStyleTableRecord
  2
STANDARD
 70
0
  3

  4

 40
1.0
 41
3.0
 42
0.0625
 43
0.38
 44
0.18
 45
0.0
 46
0.0
 47
0.01
 48
0.01
140
3.0
141
0.09
142
0.0
143
25.4
144
1.0
145
0.0
146
1.0
147
0.09
 71
1.0
 72
0.0
 73
0
 74
0
 75
0
 76
0
 77
1
 78
8
170
0
171
2
172
0
173
0
174
0
175
0
176
0
177
0
178
0
270
2
271
2
272
2
273
2
274
2
275
0
280
0
281
0
282
0
283
1
284
8
285
0
286
0
287
3
288
0
340
11
  0
ENDTAB
  0
ENDSEC
  0
SECTION
  2
BLOCKS
  0
BLOCK
  5
20
100
AcDbEntity
  8
0
100
AcDbBlockBegin
  2
*Model_Space
 70
0
 10
0.0
 20
0.0
 30
0.0
  3
*Model_Space
  1

  0
ENDBLK
  5
21
100
AcDbEntity
  8
0
100
AcDbBlockEnd
  0
BLOCK
  5
1C
100
AcDbEntity
  8
0
100
AcDbBlockBegin
  2
*Paper_Space
 70
0
 10
0.0
 20
0.0
 30
0.0
  3
*Paper_Space
  1

  0
ENDBLK
  5
1D
100
AcDbEntity
  8
0
100
AcDbBlockEnd
  0
ENDSEC
  0
SECTION
  2
ENTITIES
  0
LINE
  5
21C
100
AcDbEntity
  8
RACCORDO
100
AcDbLine
 62
7
  6
CONTINUOUS
 10
-15.6075208513
 20
26.4387028396
 11
-14.0247642482
 21
27.2506869369
  0
LINE
  5
21D
100
AcDbEntity
  8
RACCORDO
100
AcDbLine
 62
7
  6
CONTINUOUS
 10
-14.0247642482
 20
27.2506869369
 11
-13.4903143695
 21
27.5110344035
  0
LWPOLYLINE
  5
21E
100
AcDbEntity
  8
RACCORDO
100
AcDbPolyline
 62
7
  6
CONTINUOUS
 90
19
 70
0
 10
-22.8746659989
 20
19.8987803266
 10
-22.8990442172
 20
19.8809703929
 10
-22.9811793218
 20
19.8152084945
 10
-23.0590866241
 20
19.7438579562
 10
-23.1329365138
 20
19.6670286116
 10
-23.2025764778
 20
19.5850799731
 10
-23.267485497
 20
19.4988114303
 10
-23.3276810809
 20
19.4084190012
 10
-23.3830590673
 20
19.3141064141
 10
-23.4330258618
 20
19.216951127
 10
-23.4775389448
 20
19.1171659376
 10
-23.5164661094
 20
19.0149191562
 10
-23.5493543856
 20
18.9113654685
 10
-23.5761079315
 20
18.8067214037
 10
-23.5965861974
 20
18.701089884
 10
-23.6104973253
 20
18.5953884583
 10
-23.6176657679
 20
18.489973427
 10
-23.6179283692
 20
18.3847938701
 10
-23.6169952988
 20
18.3609083492
  0
LINE
  5
21F
100
AcDbEntity
  8
RACCORDO
100
AcDbLine
 62
7
  6
CONTINUOUS
 10
-22.8747896358
 20
19.8987042394
 11
-18.9493842478
 21
22.7061657188
  0
LINE
  5
220
100
AcDbEntity
  8
RACCORDO
100
AcDbLine
 62
253
  6
CONTINUOUS
 10
-22.4930175892
 20
19.8914033482
 11
-18.5734916559
 21
22.6946598242
  0
LINE
  5
221
100
AcDbEntity
  8
RACCORDO
100
AcDbLine
 62
7
  6
CONTINUOUS
 10
-16.0914759637
 20
24.6960024375
 11
-15.0792536796
 21
25.2129324002
  0
LINE
  5
222
100
AcDbEntity
  8
RACCORDO
100
AcDbLine
 62
253
  6
CONTINUOUS
 10
-15.9339525574
 20
24.6865691079
 11
-15.0792536796
 21
25.1230537279
  0
LINE
  5
223
100
AcDbEntity
  8
DRAFT
100
AcDbLine
 62
7
  6
CONTINUOUS
 10
-12.3984186514
 20
24.705463331
 11
-13.4652495636
 21
24.1668820814
  0
LINE
  5
224
100
AcDbEntity
  8
RACCORDO
100
AcDbLine
 62
7
  6
CONTINUOUS
 10
-13.9996994423
 20
25.634792135
 11
-12.3984186514
 21
26.4375141385
  0
LINE
  5
225
100
AcDbEntity
  8
RACCORDO
100
AcDbLine
 62
7
  6
CONTINUOUS
 10
-12.3984186514
 20
26.4375141385
 11
-11.8701514797
 21
26.7009529586
  0
LINE
  5
226
100
AcDbEntity
  8
RACCORDO
100
AcDbLine
 62
7
  6
CONTINUOUS
 10
-11.7832998164
 20
26.0799553719
 11
-12.3105445321
 21
25.4382476439
  0
LINE
  5
227
100
AcDbEntity
  8
RACCORDO
100
AcDbLine
 62
7
  6
CONTINUOUS
 10
-10.13402422
 20
24.2859571411
 11
-9.6407022048
 21
24.5390406729
  0
LINE
  5
228
100
AcDbEntity
  8
RACCORDO
100
AcDbLine
 62
7
  6
CONTINUOUS
 10
-10.9426376749
 20
24.6771219347
 11
-4.4346010482
 21
27.9182635402
  0
LINE
  5
229
100
AcDbEntity
  8
RACCORDO
100
AcDbLine
 62
253
  6
CONTINUOUS
 10
-10.8671445344
 20
24.6393753644
 11
-4.5526042078
 21
27.784151669
  0
LINE
  5
22A
100
AcDbEntity
  8
RACCORDO
100
AcDbLine
 62
7
  6
CONTINUOUS
 10
-3.5595838866
 20
26.9044081382
 11
-8.2971993206
 21
24.5693576236
  0
LINE
  5
22B
100
AcDbEntity
  8
RACCORDO
100
AcDbLine
 62
7
  6
CONTINUOUS
 10
-9.6407022048
 20
24.5390406729
 11
-4.1630622153
 21
27.2073726362
  0
LINE
  5
22C
100
AcDbEntity
  8
RACCORDO
100
AcDbLine
 62
7
  6
CONTINUOUS
 10
1.0537736323
 20
-21.4185155777
 11
1.581018348
 21
-21.5268078497
  0
LWPOLYLINE
  5
22D
100
AcDbEntity
  8
RACCORDO
100
AcDbPolyline
 62
7
  6
CONTINUOUS
 90
15
 70
0
 10
-5.1817683474
 20
-22.8141495177
 10
-5.1596540559
 20
-22.824913304
 10
-5.0777915788
 20
-22.8595517824
 10
-4.9932612141
 20
-22.8873677972
 10
-4.9064642266
 20
-22.908219159
 10
-4.8174108757
 20
-22.9220370476
 10
-4.7266180926
 20
-22.9286383963
 10
-4.6346974646
 20
-22.9278895193
 10
-4.5416925683
 20
-22.919654719
 10
-4.4480418367
 20
-22.9037937928
 10
-4.3543212823
 20
-22.8802532489
 10
-4.260616806
 20
-22.8488551121
 10
-4.1671938522
 20
-22.8094080326
 10
-4.074650002
 20
-22.7619124992
 10
-4.0478004695
 20
-22.7464855684
  0
LINE
  5
22E
100
AcDbEntity
  8
RACCORDO
100
AcDbLine
 62
7
  6
CONTINUOUS
 10
-5.1809524296
 20
-22.8145658319
 11
-19.5166606983
 21
-15.6467116975
  0
LINE
  5
22F
100
AcDbEntity
  8
RACCORDO
100
AcDbLine
 62
253
  6
CONTINUOUS
 10
-5.5553396371
 20
-22.237116945
 11
-19.8838199717
 21
-15.0728767777
  0
LINE
  5
230
100
AcDbEntity
  8
RACCORDO
100
AcDbLine
 62
7
  6
CONTINUOUS
 10
-2.3533349906
 20
-22.4897197625
 11
-0.7467988932
 21
-23.2929878112
  0
LINE
  5
231
100
AcDbEntity
  8
RACCORDO
100
AcDbLine
 62
253
  6
CONTINUOUS
 10
-2.4179284694
 20
-22.3546912212
 11
-0.8121520073
 21
-23.1575794523
  0
LWPOLYLINE
  5
232
100
AcDbEntity
  8
RACCORDO
100
AcDbPolyline
 62
7
  6
CONTINUOUS
 90
13
 70
0
 10
-23.6170100881
 20
18.3610841684
 10
-23.4722242998
 20
15.5554064364
 10
-23.2980237143
 20
12.702885444
 10
-23.0973749307
 20
9.8667572345
 10
-22.8703024778
 20
7.0474287359
 10
-22.6168357892
 20
4.2452540876
 10
-22.3370044307
 20
1.4605668328
 10
-22.0308403824
 20
-1.3062852057
 10
-21.6983809588
 20
-4.0549577357
 10
-21.3396627631
 20
-6.785122075
 10
-20.9547264779
 20
-9.4964321382
 10
-20.5436274495
 20
-12.1885021887
 10
-20.1171386725
 20
-14.7975311755
  0
LINE
  5
233
100
AcDbEntity
  8
0
100
AcDbLine
 62
7
  6
CONTINUOUS
 10
-12.3155768157
 20
20.3900717255
 11
-12.6664948729
 21
20.1618417233
  0
LINE
  5
234
100
AcDbEntity
  8
RACCORDO
100
AcDbLine
 62
7
  6
CONTINUOUS
 10
-13.4950064539
 20
20.4559059124
 11
-13.7840704823
 21
20.2999492375
  0
LINE
  5
235
100
AcDbEntity
  8
RACCORDO
100
AcDbLine
 62
253
  6
CONTINUOUS
 10
-13.0170989935
 20
20.4438699811
 11
-13.5244533452
 21
20.1701406689
  0
LINE
  5
236
100
AcDbEntity
  8
0
100
AcDbLine
 62
7
  6
CONTINUOUS
 10
-2.2325100582
 20
25.4345339046
 11
-3.6302945647
 21
24.7356416514
  0
LINE
  5
237
100
AcDbEntity
  8
RACCORDO
100
AcDbLine
 62
7
  6
CONTINUOUS
 10
-4.7051998993
 20
24.0436018958
 11
-4.643650261
 21
24.0743767149
  0
LINE
  5
238
100
AcDbEntity
  8
RACCORDO
100
AcDbLine
 62
253
  6
CONTINUOUS
 10
-4.6202440584
 20
24.0356780993
 11
-4.5542075419
 21
24.0686963575
  0
LINE
  5
239
100
AcDbEntity
  8
ASSI
100
AcDbLine
 62
253
  6
CONTINUOUS
 10
-4.6202440584
 20
24.0356780993
 11
-4.5542075419
 21
24.0686963575
  0
LINE
  5
23A
100
AcDbEntity
  8
ASSI
100
AcDbLine
 62
7
  6
CONTINUOUS
 10
-4.6368990194
 20
24.0777206861
 11
-4.7051998993
 21
24.0436018958
  0
LINE
  5
23B
100
AcDbEntity
  8
RACCORDO
100
AcDbLine
 62
7
  6
CONTINUOUS
 10
-3.9838479553
 20
25.464976536
 11
-3.5595838866
 21
25.6725739568
  0
LINE
  5
23C
100
AcDbEntity
  8
RACCORDO
100
AcDbLine
 62
7
  6
CONTINUOUS
 10
-1.5735143069
 20
26.2946067185
 11
-3.6302945647
 21
25.2881998407
  0
LWPOLYLINE
  5
23D
100
AcDbEntity
  8
ASSI
100
AcDbPolyline
 62
7
  6
CONTINUOUS
 90
3
 70
0
 10
-4.4957455404
 20
24.1354131196
 10
-4.5680307807
 20
24.10856845
 10
-4.6368990194
 20
24.0777206861
  0
LINE
  5
23E
100
AcDbEntity
  8
RACCORDO
100
AcDbLine
 62
253
  6
CONTINUOUS
 10
-0.8121520073
 20
-22.9042080586
 11
-2.4179284694
 21
-22.1013198275
  0
LINE
  5
23F
100
AcDbEntity
  8
RACCORDO
100
AcDbLine
 62
253
  6
CONTINUOUS
 10
-0.7232494312
 20
-22.6727709989
 11
-2.3300543501
 21
-21.8693685395
  0
LINE
  5
240
100
AcDbEntity
  8
RACCORDO
100
AcDbLine
 62
7
  6
CONTINUOUS
 10
-1.5417153192
 20
-21.2696991547
 11
-0.6604460837
 21
-21.7103337724
  0
LINE
  5
241
100
AcDbEntity
  8
DRAFT
100
AcDbLine
 62
7
  6
CONTINUOUS
 10
-0.1009313992
 20
-21.9277115814
 11
-0.5101963954
 21
-21.7230790833
  0
LINE
  5
242
100
AcDbEntity
  8
ASSI
100
AcDbLine
 62
7
  6
CONTINUOUS
 10
-1.2410443435
 20
-21.092518704
 11
-0.4129587103
 21
-21.5065615206
  0
LINE
  5
243
100
AcDbEntity
  8
RACCORDO
100
AcDbLine
 62
253
  6
CONTINUOUS
 10
1.0537736323
 20
-21.4185155777
 11
1.0103513063
 21
-21.3968044147
  0
LWPOLYLINE
  5
244
100
AcDbEntity
  8
RACCORDO
100
AcDbPolyline
 62
7
  6
CONTINUOUS
 90
13
 70
0
 10
-20.1170317751
 20
-14.7980962833
 10
-20.1103866584
 20
-14.8343743247
 10
-20.0846077706
 20
-14.9416977036
 10
-20.0508865075
 20
-15.0435311856
 10
-20.0098063661
 20
-15.1392595683
 10
-19.9618264927
 20
-15.2288221031
 10
-19.9071726257
 20
-15.3123681044
 10
-19.8464602102
 20
-15.3893600255
 10
-19.7802742663
 20
-15.4595036661
 10
-19.708694131
 20
-15.5229734482
 10
-19.6321402073
 20
-15.579471523
 10
-19.5514900878
 20
-15.628466396
 10
-19.5158898997
 20
-15.6470884677
  0
LINE
  5
245
100
AcDbEntity
  8
RACCORDO
100
AcDbLine
 62
7
  6
CONTINUOUS
 10
-20.1171386725
 20
-14.7975311755
 11
-20.1170423869
 21
-14.7980980907
  0
LINE
  5
246
100
AcDbEntity
  8
RACCORDO
100
AcDbLine
 62
7
  6
CONTINUOUS
 10
-4.7169107561
 20
24.035853521
 11
-5.6469355749
 21
23.2442257507
  0
LINE
  5
247
100
AcDbEntity
  8
ASSI
100
AcDbLine
 62
7
  6
CONTINUOUS
 10
-4.7169107561
 20
24.035853521
 11
-5.6469355749
 21
23.2442257507
  0
LINE
  5
248
100
AcDbEntity
  8
0
100
AcDbLine
 62
253
  6
CONTINUOUS
 10
-4.6202440584
 20
24.0356780993
 11
-5.5859100003
 21
23.2137129635
  0
LINE
  5
249
100
AcDbEntity
  8
ASSI
100
AcDbLine
 62
253
  6
CONTINUOUS
 10
-4.6202440584
 20
24.0356780993
 11
-5.5859100003
 21
23.2137129635
  0
LINE
  5
24A
100
AcDbEntity
  8
ASSI
100
AcDbLine
 62
7
  6
CONTINUOUS
 10
-9.8046242369
 20
19.1345954361
 11
-9.5576508117
 21
19.2633619469
  0
LINE
  5
24B
100
AcDbEntity
  8
RACCORDO
100
AcDbLine
 62
7
  6
CONTINUOUS
 10
-3.9172582632
 20
21.1775741626
 11
-3.4181625304
 21
21.4277708357
  0
LINE
  5
24C
100
AcDbEntity
  8
RACCORDO
100
AcDbLine
 62
7
  6
CONTINUOUS
 10
-3.4181625304
 20
21.4277708357
 11
1.9961101648
 21
24.1277864461
  0
LINE
  5
24D
100
AcDbEntity
  8
RACCORDO
100
AcDbLine
 62
7
  6
CONTINUOUS
 10
1.3901635817
 20
24.4295344041
 11
-3.3474518522
 21
22.0944838894
  0
LINE
  5
24E
100
AcDbEntity
  8
RACCORDO
100
AcDbLine
 62
7
  6
CONTINUOUS
 10
8.9489566164
 20
26.8385410544
 11
3.1690571673
 21
24.1691919495
  0
LINE
  5
24F
100
AcDbEntity
  8
ASSI
100
AcDbLine
 62
7
  6
CONTINUOUS
 10
8.9489566164
 20
26.8385410544
 11
3.1690571673
 21
24.1691919495
  0
LINE
  5
250
100
AcDbEntity
  8
0
100
AcDbLine
 62
7
  6
CONTINUOUS
 10
-0.3822619299
 20
-20.5864523812
 11
0.400214088
 21
-20.9776903901
  0
LINE
  5
251
100
AcDbEntity
  8
RACCORDO
100
AcDbLine
 62
253
  6
CONTINUOUS
 10
0.965899513
 20
-21.2192484322
 11
1.581018348
 21
-21.5268078497
  0
LINE
  5
252
100
AcDbEntity
  8
RACCORDO
100
AcDbLine
 62
7
  6
CONTINUOUS
 10
0.965899513
 20
-21.2156282826
 11
1.6042977213
 21
-21.5348273868
  0
LINE
  5
253
100
AcDbEntity
  8
0
100
AcDbLine
 62
7
  6
CONTINUOUS
 10
0.184025061
 20
-19.2196884391
 11
0.400214088
 21
-19.3277829526
  0
LINE
  5
254
100
AcDbEntity
  8
0
100
AcDbLine
 62
7
  6
CONTINUOUS
 10
-8.0729361286
 20
18.268751382
 11
-8.4238541858
 21
18.0405213797
  0
LINE
  5
255
100
AcDbEntity
  8
RACCORDO
100
AcDbLine
 62
7
  6
CONTINUOUS
 10
-2.2432026869
 20
19.7565437573
 11
-0.6604460837
 21
20.5685278547
  0
LINE
  5
256
100
AcDbEntity
  8
RACCORDO
100
AcDbLine
 62
7
  6
CONTINUOUS
 10
-3.9172582632
 20
19.9633706898
 11
-3.4181625304
 21
20.2153352704
  0
LINE
  5
257
100
AcDbEntity
  8
RACCORDO
100
AcDbLine
 62
7
  6
CONTINUOUS
 10
-3.4181625304
 20
20.2153352704
 11
1.9961101648
 21
22.8959478677
  0
LINE
  5
258
100
AcDbEntity
  8
RACCORDO
100
AcDbLine
 62
7
  6
CONTINUOUS
 10
2.6691263803
 20
24.1732863749
 11
2.0827475932
 21
23.8863643073
  0
LINE
  5
259
100
AcDbEntity
  8
RACCORDO
100
AcDbLine
 62
7
  6
CONTINUOUS
 10
-0.6604460837
 20
20.5685278547
 11
-0.1259962051
 21
20.8288753212
  0
LINE
  5
25A
100
AcDbEntity
  8
0
100
AcDbLine
 62
7
  6
CONTINUOUS
 10
10.4204113234
 20
26.2828297071
 11
6.8652357625
 21
24.5742443611
  0
LINE
  5
25B
100
AcDbEntity
  8
ASSI
100
AcDbLine
 62
7
  6
CONTINUOUS
 10
10.4204113234
 20
26.2828297071
 11
6.8652357625
 21
24.5742443611
  0
LINE
  5
25C
100
AcDbEntity
  8
RACCORDO
100
AcDbLine
 62
253
  6
CONTINUOUS
 10
9.3805760415
 20
26.8027473481
 11
3.4622569742
 21
24.0694714765
  0
LINE
  5
25D
100
AcDbEntity
  8
ASSI
100
AcDbLine
 62
253
  6
CONTINUOUS
 10
9.3805760415
 20
26.8027473481
 11
3.4622569742
 21
24.0694714765
  0
LINE
  5
25E
100
AcDbEntity
  8
0
100
AcDbLine
 62
253
  6
CONTINUOUS
 10
5.2601948994
 20
-12.3707534705
 11
3.8739228381
 21
-12.5952192455
  0
LINE
  5
25F
100
AcDbEntity
  8
RACCORDO
100
AcDbLine
 62
7
  6
CONTINUOUS
 10
-16.1814399308
 20
24.5071923614
 11
-16.1814399308
 21
24.4827968561
  0
LINE
  5
260
100
AcDbEntity
  8
RACCORDO
100
AcDbLine
 62
7
  6
CONTINUOUS
 10
-15.7822466339
 20
25.8804433941
 11
-15.7822466339
 21
26.1338147879
  0
LINE
  5
261
100
AcDbEntity
  8
ASSI
100
AcDbLine
 62
7
  6
CONTINUOUS
 10
-15.3682671324
 20
23.1171910865
 11
-15.5527947222
 21
21.1843113574
  0
LINE
  5
262
100
AcDbEntity
  8
DRAFT
100
AcDbLine
 62
7
  6
CONTINUOUS
 10
-12.6664948729
 20
20.1618417233
 11
-12.7332170673
 21
19.77452253
  0
LINE
  5
263
100
AcDbEntity
  8
RACCORDO
100
AcDbLine
 62
253
  6
CONTINUOUS
 10
1.4799803461
 20
19.2748232855
 11
6.8383071263
 21
22.1657635125
  0
LINE
  5
264
100
AcDbEntity
  8
0
100
AcDbLine
 62
7
  6
CONTINUOUS
 10
11.4593573197
 20
25.6934866363
 11
7.2442388787
 21
23.5791120998
  0
LINE
  5
265
100
AcDbEntity
  8
ASSI
100
AcDbLine
 62
7
  6
CONTINUOUS
 10
11.4593573197
 20
25.6934866363
 11
7.2422547786
 21
23.5781168417
  0
LINE
  5
266
100
AcDbEntity
  8
DRAFT
100
AcDbLine
 62
7
  6
CONTINUOUS
 10
7.9286502698
 20
23.4893664511
 11
11.4646915432
 21
25.2630999507
  0
LINE
  5
267
100
AcDbEntity
  8
ASSI
100
AcDbLine
 62
7
  6
CONTINUOUS
 10
7.9249649766
 20
23.4875178505
 11
11.4646915432
 21
25.2630999507
  0
LINE
  5
268
100
AcDbEntity
  8
RACCORDO
100
AcDbLine
 62
7
  6
CONTINUOUS
 10
-0.6353812778
 20
18.9526330528
 11
0.965899513
 21
19.7553550563
  0
LINE
  5
269
100
AcDbEntity
  8
0
100
AcDbLine
 62
7
  6
CONTINUOUS
 10
7.7611956802
 20
22.3083984953
 11
8.256170427
 21
22.5558858687
  0
LINE
  5
26A
100
AcDbEntity
  8
RACCORDO
100
AcDbLine
 62
7
  6
CONTINUOUS
 10
0.965899513
 20
19.7553550563
 11
1.4941666847
 21
20.0187938763
  0
LINE
  5
26B
100
AcDbEntity
  8
DRAFT
100
AcDbLine
 62
7
  6
CONTINUOUS
 10
7.9249649766
 20
23.4967132984
 11
7.2422547786
 21
23.156709
  0
LINE
  5
26C
100
AcDbEntity
  8
ASSI
100
AcDbLine
 62
7
  6
CONTINUOUS
 10
7.9249649766
 20
23.4967132984
 11
7.2422547786
 21
23.156709
  0
LINE
  5
26D
100
AcDbEntity
  8
RACCORDO
100
AcDbLine
 62
253
  6
CONTINUOUS
 10
0.876377303
 20
20.3896659381
 11
5.6482162812
 21
22.6837414245
  0
LINE
  5
26E
100
AcDbEntity
  8
RACCORDO
100
AcDbLine
 62
253
  6
CONTINUOUS
 10
1.1039928029
 20
20.2758581881
 11
6.0900571491
 21
22.6729231441
  0
LINE
  5
26F
100
AcDbEntity
  8
0
100
AcDbLine
 62
253
  6
CONTINUOUS
 10
3.8739228381
 20
-12.0713968518
 11
5.8878849777
 21
-11.8358293966
  0
LINE
  5
270
100
AcDbEntity
  8
ASSI
100
AcDbLine
 62
7
  6
CONTINUOUS
 10
-15.3682671324
 20
24.076210457
 11
-15.3682671324
 21
23.1171910865
  0
LINE
  5
271
100
AcDbEntity
  8
DRAFT
100
AcDbLine
 62
7
  6
CONTINUOUS
 10
-15.0792536796
 20
24.9738841394
 11
-15.0792536796
 21
25.4262151151
  0
LINE
  5
272
100
AcDbEntity
  8
RACCORDO
100
AcDbLine
 62
7
  6
CONTINUOUS
 10
-14.1764701717
 20
25.3309265568
 11
-14.1764701717
 21
25.077555163
  0
LINE
  5
273
100
AcDbEntity
  8
DRAFT
100
AcDbLine
 62
7
  6
CONTINUOUS
 10
-13.4652495636
 20
24.1668820814
 11
-13.4652495636
 21
24.8040516402
  0
LINE
  5
274
100
AcDbEntity
  8
RACCORDO
100
AcDbLine
 62
253
  6
CONTINUOUS
 10
-4.0067042709
 20
15.4112661318
 11
-8.139352516
 21
12.7145708116
  0
LINE
  5
275
100
AcDbEntity
  8
RACCORDO
100
AcDbLine
 62
253
  6
CONTINUOUS
 10
1.1133601929
 20
18.8286111594
 11
6.7541555587
 21
21.8719496686
  0
LINE
  5
276
100
AcDbEntity
  8
RACCORDO
100
AcDbLine
 62
253
  6
CONTINUOUS
 10
1.0249702381
 20
18.6933179782
 11
6.7541555587
 21
21.6596905145
  0
LINE
  5
277
100
AcDbEntity
  8
RACCORDO
100
AcDbLine
 62
7
  6
CONTINUOUS
 10
1.1447363687
 20
18.6334349129
 11
6.836365271
 21
21.5803620444
  0
LINE
  5
278
100
AcDbEntity
  8
RACCORDO
100
AcDbLine
 62
253
  6
CONTINUOUS
 10
1.1073208692
 20
17.9525935706
 11
-0.6604460837
 21
17.0498158711
  0
LINE
  5
279
100
AcDbEntity
  8
RACCORDO
100
AcDbLine
 62
253
  6
CONTINUOUS
 10
1.3548082426
 20
17.5257294507
 11
-0.4129587103
 21
16.6229517512
  0
LINE
  5
27A
100
AcDbEntity
  8
DRAFT
100
AcDbLine
 62
7
  6
CONTINUOUS
 10
0.965899513
 20
18.0233042487
 11
-0.1009313992
 21
17.4847229992
  0
LINE
  5
27B
100
AcDbEntity
  8
RACCORDO
100
AcDbLine
 62
253
  6
CONTINUOUS
 10
-2.2238964889
 20
15.0472687288
 11
-3.3695170657
 21
14.4700413445
  0
LINE
  5
27C
100
AcDbEntity
  8
0
100
AcDbLine
 62
7
  6
CONTINUOUS
 10
11.2366383233
 20
22.9925307128
 11
9.4128840285
 21
22.0806535655
  0
LINE
  5
27D
100
AcDbEntity
  8
0
100
AcDbLine
 62
7
  6
CONTINUOUS
 10
12.0851664607
 20
22.5682666441
 11
11.1537658783
 21
22.1025663529
  0
LINE
  5
27E
100
AcDbEntity
  8
RACCORDO
100
AcDbLine
 62
253
  6
CONTINUOUS
 10
1.8144276504
 20
18.298589272
 11
1.1073208692
 21
17.9525935706
  0
LINE
  5
27F
100
AcDbEntity
  8
RACCORDO
100
AcDbLine
 62
253
  6
CONTINUOUS
 10
2.0619150238
 20
17.8717251521
 11
1.3548082426
 21
17.5257294507
  0
LINE
  5
280
100
AcDbEntity
  8
DRAFT
100
AcDbLine
 62
7
  6
CONTINUOUS
 10
1.7542926295
 20
18.3286567825
 11
7.4201571984
 21
21.0808453267
  0
LINE
  5
281
100
AcDbEntity
  8
ASSI
100
AcDbLine
 62
7
  6
CONTINUOUS
 10
1.7542926295
 20
18.3286567825
 11
7.4201571984
 21
21.0808453267
  0
LINE
  5
282
100
AcDbEntity
  8
RACCORDO
100
AcDbLine
 62
7
  6
CONTINUOUS
 10
15.9070401938
 20
23.539515272
 11
8.1728512824
 21
19.7826400657
  0
LINE
  5
283
100
AcDbEntity
  8
ASSI
100
AcDbLine
 62
7
  6
CONTINUOUS
 10
15.9070401938
 20
23.539515272
 11
8.1728512824
 21
19.7826400657
  0
LINE
  5
284
100
AcDbEntity
  8
0
100
AcDbLine
 62
7
  6
CONTINUOUS
 10
15.082724946
 20
23.9516728959
 11
11.5132433237
 21
22.2502405805
  0
LINE
  5
285
100
AcDbEntity
  8
ASSI
100
AcDbLine
 62
7
  6
CONTINUOUS
 10
15.082724946
 20
23.9516728959
 11
11.5132433237
 21
22.2502405805
  0
LINE
  5
286
100
AcDbEntity
  8
ASSI
100
AcDbLine
 62
7
  6
CONTINUOUS
 10
-0.4129587103
 20
16.5985562459
 11
0.400214088
 21
16.8828579138
  0
LINE
  5
287
100
AcDbEntity
  8
0
100
AcDbLine
 62
253
  6
CONTINUOUS
 10
4.9920809379
 20
-9.2224303575
 11
3.8739228381
 21
-9.2771935993
  0
LINE
  5
288
100
AcDbEntity
  8
0
100
AcDbLine
 62
253
  6
CONTINUOUS
 10
4.5782880474
 20
-8.7795317598
 11
5.8878849777
 21
-8.72471887
  0
LINE
  5
289
100
AcDbEntity
  8
RACCORDO
100
AcDbLine
 62
7
  6
CONTINUOUS
 10
-12.3984186514
 20
24.705463331
 11
-12.3984186514
 21
26.4375141385
  0
LINE
  5
28A
100
AcDbEntity
  8
RACCORDO
100
AcDbLine
 62
7
  6
CONTINUOUS
 10
-11.6954256972
 20
26.5728356363
 11
-11.6954256972
 21
26.3119066599
  0
LINE
  5
28B
100
AcDbEntity
  8
DRAFT
100
AcDbLine
 62
7
  6
CONTINUOUS
 10
-9.9589002563
 20
20.4125076485
 11
-10.0683127335
 21
19.2664396844
  0
LINE
  5
28C
100
AcDbEntity
  8
DRAFT
100
AcDbLine
 62
7
  6
CONTINUOUS
 10
-8.4238541858
 20
18.0405213797
 11
-8.4905763802
 21
17.6532021864
  0
LINE
  5
28D
100
AcDbEntity
  8
RACCORDO
100
AcDbLine
 62
253
  6
CONTINUOUS
 10
-3.3722966049
 20
14.4755578833
 11
-7.50494485
 21
11.7788625632
  0
LINE
  5
28E
100
AcDbEntity
  8
RACCORDO
100
AcDbLine
 62
253
  6
CONTINUOUS
 10
16.2499377698
 20
22.9481044364
 11
2.0619150238
 21
15.7299083175
  0
LINE
  5
28F
100
AcDbEntity
  8
ASSI
100
AcDbLine
 62
253
  6
CONTINUOUS
 10
16.2499377698
 20
22.9481044364
 11
2.0619150238
 21
15.7299083175
  0
LINE
  5
290
100
AcDbEntity
  8
RACCORDO
100
AcDbLine
 62
253
  6
CONTINUOUS
 10
-1.6054109283
 20
13.7832776439
 11
-3.2137036956
 21
12.9729302688
  0
LINE
  5
291
100
AcDbEntity
  8
0
100
AcDbLine
 62
253
  6
CONTINUOUS
 10
4.4273082933
 20
-7.1235546288
 11
5.1747149254
 21
-6.9975719227
  0
LINE
  5
292
100
AcDbEntity
  8
0
100
AcDbLine
 62
253
  6
CONTINUOUS
 10
5.485826553
 20
-6.9437126333
 11
5.8878849777
 21
-6.8801817548
  0
LINE
  5
293
100
AcDbEntity
  8
0
100
AcDbLine
 62
253
  6
CONTINUOUS
 10
5.8878849777
 20
-7.3986754942
 11
3.8739228381
 21
-7.6537709562
  0
LINE
  5
294
100
AcDbEntity
  8
RACCORDO
100
AcDbLine
 62
7
  6
CONTINUOUS
 10
-10.2206616484
 20
24.1794501992
 11
-10.2206616484
 21
22.964716813
  0
LINE
  5
295
100
AcDbEntity
  8
RACCORDO
100
AcDbLine
 62
253
  6
CONTINUOUS
 10
-10.1327936828
 20
24.0729412423
 11
-10.1327936828
 21
22.8579863762
  0
LINE
  5
296
100
AcDbEntity
  8
0
100
AcDbLine
 62
7
  6
CONTINUOUS
 10
-9.9589002563
 20
21.3715270189
 11
-9.9589002563
 21
20.4125076485
  0
LINE
  5
297
100
AcDbEntity
  8
ASSI
100
AcDbLine
 62
7
  6
CONTINUOUS
 10
-8.8628847455
 20
20.4766384839
 11
-8.8628847455
 21
20.8235192635
  0
LINE
  5
298
100
AcDbEntity
  8
RACCORDO
100
AcDbLine
 62
7
  6
CONTINUOUS
 10
1.581018348
 20
19.3977962897
 11
1.0537736323
 21
18.7560885617
  0
LINE
  5
299
100
AcDbEntity
  8
RACCORDO
100
AcDbLine
 62
253
  6
CONTINUOUS
 10
16.6640882454
 20
21.5164708617
 11
2.0619150238
 21
14.087574534
  0
LINE
  5
29A
100
AcDbEntity
  8
ASSI
100
AcDbLine
 62
253
  6
CONTINUOUS
 10
16.6640882454
 20
21.5164708617
 11
2.0619150238
 21
14.087574534
  0
LINE
  5
29B
100
AcDbEntity
  8
0
100
AcDbLine
 62
252
  6
CONTINUOUS
 10
3.9033469607
 20
10.9179469067
 11
5.9175494155
 21
11.9608307567
  0
LINE
  5
29C
100
AcDbEntity
  8
0
100
AcDbLine
 62
252
  6
CONTINUOUS
 10
5.4995072524
 20
11.2399717903
 11
3.9033469607
 21
10.4135356064
  0
LINE
  5
29D
100
AcDbEntity
  8
ASSI
100
AcDbLine
 62
7
  6
CONTINUOUS
 10
-1.5483865529
 20
-2.8055275316
 11
-1.3321975259
 21
-2.9136220451
  0
LINE
  5
29E
100
AcDbEntity
  8
RACCORDO
100
AcDbLine
 62
7
  6
CONTINUOUS
 10
-7.9810817994
 20
17.398454896
 11
-8.0729361286
 21
18.268751382
  0
LINE
  5
29F
100
AcDbEntity
  8
0
100
AcDbLine
 62
7
  6
CONTINUOUS
 10
-5.009152788
 20
18.8966532848
 11
-5.009152788
 21
17.9376339143
  0
LINE
  5
2A0
100
AcDbEntity
  8
RACCORDO
100
AcDbLine
 62
253
  6
CONTINUOUS
 10
-4.3402846147
 20
19.9617318422
 11
-4.3402846147
 21
21.1766867083
  0
LINE
  5
2A1
100
AcDbEntity
  8
DRAFT
100
AcDbLine
 62
7
  6
CONTINUOUS
 10
-5.009152788
 20
17.9376339143
 11
-5.1456240071
 21
16.5081324879
  0
LINE
  5
2A2
100
AcDbEntity
  8
0
100
AcDbLine
 62
7
  6
CONTINUOUS
 10
3.9033469607
 20
12.5879504944
 11
5.9175494155
 21
14.6021529492
  0
LINE
  5
2A3
100
AcDbEntity
  8
0
100
AcDbLine
 62
7
  6
CONTINUOUS
 10
3.9033469607
 20
12.1679290664
 11
4.3239950194
 21
12.5885771251
  0
LINE
  5
2A4
100
AcDbEntity
  8
0
100
AcDbLine
 62
7
  6
CONTINUOUS
 10
4.6867969331
 20
12.9513790388
 11
5.9175494155
 21
14.1821315212
  0
LINE
  5
2A5
100
AcDbEntity
  8
0
100
AcDbLine
 62
7
  6
CONTINUOUS
 10
4.2591509819
 20
12.1037116596
 11
4.7848339622
 21
12.6293946398
  0
LINE
  5
2A6
100
AcDbEntity
  8
0
100
AcDbLine
 62
7
  6
CONTINUOUS
 10
5.155922514
 20
13.0004831917
 11
5.4906503181
 21
13.3352109957
  0
LINE
  5
2A7
100
AcDbEntity
  8
0
100
AcDbLine
 62
7
  6
CONTINUOUS
 10
4.7093234969
 20
12.1338627465
 11
5.4906503181
 21
12.9151895677
  0
LINE
  5
2A8
100
AcDbEntity
  8
0
100
AcDbLine
 62
252
  6
CONTINUOUS
 10
5.9175494155
 20
14.635811756
 11
3.9033469607
 21
12.7199180073
  0
LINE
  5
2A9
100
AcDbEntity
  8
0
100
AcDbLine
 62
252
  6
CONTINUOUS
 10
5.4906503181
 20
13.6912867991
 11
5.9175494155
 21
14.0933109264
  0
LINE
  5
2AA
100
AcDbEntity
  8
0
100
AcDbLine
 62
252
  6
CONTINUOUS
 10
4.2883534253
 20
12.585420271
 11
5.155922514
 21
13.382257234
  0
LINE
  5
2AB
100
AcDbEntity
  8
0
100
AcDbLine
 62
252
  6
CONTINUOUS
 10
7.3710896899
 20
11.2021321682
 11
7.182539572
 21
11.1045074868
  0
LINE
  5
2AC
100
AcDbEntity
  8
0
100
AcDbLine
 62
252
  6
CONTINUOUS
 10
4.2317980931
 20
9.3244090778
 11
5.9175494155
 21
10.1972323758
  0
LINE
  5
2AD
100
AcDbEntity
  8
0
100
AcDbLine
 62
252
  6
CONTINUOUS
 10
9.6714838083
 20
12.0916821082
 11
10.1929677694
 21
12.3616883331
  0
LINE
  5
2AE
100
AcDbEntity
  8
0
100
AcDbLine
 62
252
  6
CONTINUOUS
 10
12.6894953113
 20
13.6543033076
 11
13.2109792724
 21
13.9243095325
  0
LINE
  5
2AF
100
AcDbEntity
  8
0
100
AcDbLine
 62
252
  6
CONTINUOUS
 10
11.1807743264
 20
12.5267299886
 11
11.7016887543
 21
12.7964413291
  0
LINE
  5
2B0
100
AcDbEntity
  8
0
100
AcDbLine
 62
252
  6
CONTINUOUS
 10
5.9175494155
 20
9.6928202094
 11
3.9033469607
 21
8.6499363594
  0
LINE
  5
2B1
100
AcDbEntity
  8
0
100
AcDbLine
 62
252
  6
CONTINUOUS
 10
15.9570612018
 20
14.8411054311
 11
15.6076769494
 21
14.6602064388
  0
LINE
  5
2B2
100
AcDbEntity
  8
0
100
AcDbLine
 62
252
  6
CONTINUOUS
 10
7.3710896899
 20
9.7799945523
 11
7.9367400829
 21
10.0728686168
  0
LINE
  5
2B3
100
AcDbEntity
  8
DRAFT
100
AcDbLine
 62
7
  6
CONTINUOUS
 10
-3.9838479553
 20
24.2152724599
 11
-3.9838479553
 21
25.464976536
  0
LINE
  5
2B4
100
AcDbEntity
  8
RACCORDO
100
AcDbLine
 62
253
  6
CONTINUOUS
 10
-3.9172582632
 20
19.9633706898
 11
-3.9172582632
 21
21.1775741626
  0
LINE
  5
2B5
100
AcDbEntity
  8
DRAFT
100
AcDbLine
 62
7
  6
CONTINUOUS
 10
-3.6302945647
 20
24.7356416514
 11
-3.6302945647
 21
25.2881998407
  0
LINE
  5
2B6
100
AcDbEntity
  8
RACCORDO
100
AcDbLine
 62
253
  6
CONTINUOUS
 10
-3.5595838866
 20
26.9044081382
 11
-3.5595838866
 21
25.6725739568
  0
LINE
  5
2B7
100
AcDbEntity
  8
RACCORDO
100
AcDbLine
 62
7
  6
CONTINUOUS
 10
-3.471715921
 20
27.0094053522
 11
-3.471715921
 21
25.7770367473
  0
LINE
  5
2B8
100
AcDbEntity
  8
DRAFT
100
AcDbLine
 62
7
  6
CONTINUOUS
 10
-3.4181625304
 20
21.4277708357
 11
-3.4181625304
 21
20.2153352704
  0
LINE
  5
2B9
100
AcDbEntity
  8
RACCORDO
100
AcDbLine
 62
7
  6
CONTINUOUS
 10
-2.4179284694
 20
-22.3546912212
 11
-2.4179284694
 21
-22.1013198275
  0
LINE
  5
2BA
100
AcDbEntity
  8
RACCORDO
100
AcDbLine
 62
7
  6
CONTINUOUS
 10
-2.4179284694
 20
19.1982843119
 11
-2.4179284694
 21
19.4516557057
  0
LINE
  5
2BB
100
AcDbEntity
  8
RACCORDO
100
AcDbLine
 62
7
  6
CONTINUOUS
 10
-2.4175327563
 20
5.4294124331
 11
-1.6054109283
 21
13.7832776439
  0
LINE
  5
2BC
100
AcDbEntity
  8
0
100
AcDbLine
 62
252
  6
CONTINUOUS
 10
3.9033469607
 20
9.4499827518
 11
5.4995072524
 21
11.2399717903
  0
LINE
  5
2BD
100
AcDbEntity
  8
0
100
AcDbLine
 62
252
  6
CONTINUOUS
 10
5.9175494155
 20
11.1955656766
 11
4.2317980931
 21
9.3244090778
  0
LINE
  5
2BE
100
AcDbEntity
  8
0
100
AcDbLine
 62
7
  6
CONTINUOUS
 10
3.9033469607
 20
10.9078647823
 11
3.9242540447
 21
10.9287718663
  0
LINE
  5
2BF
100
AcDbEntity
  8
0
100
AcDbLine
 62
7
  6
CONTINUOUS
 10
5.1594960118
 20
12.1640138334
 11
5.7088750184
 21
12.71339284
  0
LINE
  5
2C0
100
AcDbEntity
  8
0
100
AcDbLine
 62
7
  6
CONTINUOUS
 10
3.9033469607
 20
10.4878433543
 11
4.7952434268
 21
11.3797398204
  0
LINE
  5
2C1
100
AcDbEntity
  8
0
100
AcDbLine
 62
7
  6
CONTINUOUS
 10
5.6096685268
 20
12.1941649203
 11
5.9175494155
 21
12.5020458091
  0
LINE
  5
2C2
100
AcDbEntity
  8
0
100
AcDbLine
 62
7
  6
CONTINUOUS
 10
4.6202459677
 20
10.7847209332
 11
5.6662328089
 21
11.8307077745
  0
LINE
  5
2C3
100
AcDbEntity
  8
0
100
AcDbLine
 62
7
  6
CONTINUOUS
 10
5.4912353498
 20
11.2356888873
 11
5.9175494155
 21
11.6620029531
  0
LINE
  5
2C4
100
AcDbEntity
  8
0
100
AcDbLine
 62
7
  6
CONTINUOUS
 10
3.9033469607
 20
9.2277790702
 11
5.9175494155
 21
11.241981525
  0
LINE
  5
2C5
100
AcDbEntity
  8
0
100
AcDbLine
 62
7
  6
CONTINUOUS
 10
3.9033469607
 20
8.8077576422
 11
4.6220650054
 21
9.5264756869
  0
LINE
  5
2C6
100
AcDbEntity
  8
0
100
AcDbLine
 62
7
  6
CONTINUOUS
 10
4.4470657504
 20
8.9314550039
 11
5.4930543875
 21
9.977443641
  0
LWPOLYLINE
  5
2C7
100
AcDbEntity
  8
RACCORDO
100
AcDbPolyline
 62
7
  6
CONTINUOUS
 90
3
 70
0
 10
17.060462346
 20
15.3529750252
 10
17.0635965772
 20
15.355103364
 10
17.0665444006
 20
15.3570296973
  0
LINE
  5
2C8
100
AcDbEntity
  8
ASSI
100
AcDbLine
 62
7
  6
CONTINUOUS
 10
17.0628197809
 20
15.3545835523
 11
17.0695302257
 21
15.3589054903
  0
LINE
  5
2C9
100
AcDbEntity
  8
RACCORDO
100
AcDbLine
 62
7
  6
CONTINUOUS
 10
17.0665444006
 20
15.3570296973
 11
17.0694670574
 21
15.3588665334
  0
LINE
  5
2CA
100
AcDbEntity
  8
RACCORDO
100
AcDbLine
 62
7
  6
CONTINUOUS
 10
17.0694684267
 20
15.358867034
 11
17.0695129245
 21
15.358894462
  0
LINE
  5
2CB
100
AcDbEntity
  8
DRAFT
100
AcDbLine
 62
7
  6
CONTINUOUS
 10
17.0688121328
 20
15.3584628501
 11
18.2035213079
 21
16.0572825343
  0
LINE
  5
2CC
100
AcDbEntity
  8
ASSI
100
AcDbLine
 62
7
  6
CONTINUOUS
 10
17.0688121328
 20
15.3584628501
 11
18.2035213079
 21
16.0572825343
  0
LINE
  5
2CD
100
AcDbEntity
  8
0
100
AcDbLine
 62
252
  6
CONTINUOUS
 10
15.05414286
 20
13.1744325219
 11
15.9570612018
 21
13.6419321788
  0
LINE
  5
2CE
100
AcDbEntity
  8
0
100
AcDbLine
 62
252
  6
CONTINUOUS
 10
7.9367400829
 20
9.1678720698
 11
7.3710896899
 21
8.8749980053
  0
LINE
  5
2CF
100
AcDbEntity
  8
0
100
AcDbLine
 62
252
  6
CONTINUOUS
 10
7.3710896899
 20
8.3578571522
 11
7.9367400829
 21
8.6507312167
  0
LINE
  5
2D0
100
AcDbEntity
  8
0
100
AcDbLine
 62
252
  6
CONTINUOUS
 10
5.5828223061
 20
6.5528648102
 11
5.9175494155
 21
6.7261748446
  0
LINE
  5
2D1
100
AcDbEntity
  8
0
100
AcDbLine
 62
252
  6
CONTINUOUS
 10
15.9570612018
 20
11.9217744981
 11
15.05414286
 21
11.4542748412
  0
LINE
  5
2D2
100
AcDbEntity
  8
0
100
AcDbLine
 62
252
  6
CONTINUOUS
 10
7.9367400829
 20
7.7457346697
 11
7.3710896899
 21
7.4528606052
  0
LINE
  5
2D3
100
AcDbEntity
  8
0
100
AcDbLine
 62
252
  6
CONTINUOUS
 10
9.6714838083
 20
8.2940654498
 11
10.1929677694
 21
8.5640716747
  0
LINE
  5
2D4
100
AcDbEntity
  8
0
100
AcDbLine
 62
252
  6
CONTINUOUS
 10
12.6894953113
 20
9.8566866492
 11
13.2109792724
 21
10.1266928741
  0
LINE
  5
2D5
100
AcDbEntity
  8
RACCORDO
100
AcDbLine
 62
253
  6
CONTINUOUS
 10
-2.0294647827
 20
2.1992475804
 11
-2.0742848273
 21
2.1772253128
  0
LINE
  5
2D6
100
AcDbEntity
  8
RACCORDO
100
AcDbLine
 62
7
  6
CONTINUOUS
 10
-2.0792356401
 20
2.2241330091
 11
-2.0294647827
 21
2.1992475804
  0
LINE
  5
2D7
100
AcDbEntity
  8
RACCORDO
100
AcDbLine
 62
7
  6
CONTINUOUS
 10
0.2557029508
 20
-19.8988182757
 11
-3.3722966049
 21
14.4755578833
  0
LINE
  5
2D8
100
AcDbEntity
  8
ASSI
100
AcDbLine
 62
7
  6
CONTINUOUS
 10
-1.3321975259
 20
-2.9136220451
 11
0.400214088
 21
-19.3277829526
  0
LINE
  5
2D9
100
AcDbEntity
  8
DRAFT
100
AcDbLine
 62
7
  6
CONTINUOUS
 10
-1.7149355151
 20
18.2917250572
 11
-1.7149355151
 21
18.7440560329
  0
LINE
  5
2DA
100
AcDbEntity
  8
RACCORDO
100
AcDbLine
 62
7
  6
CONTINUOUS
 10
-0.8725781181
 20
25.7790823847
 11
-0.8725781181
 21
25.508282092
  0
LINE
  5
2DB
100
AcDbEntity
  8
RACCORDO
100
AcDbLine
 62
7
  6
CONTINUOUS
 10
-0.8121520073
 20
18.6487674746
 11
-0.8121520073
 21
18.3953960808
  0
LINE
  5
2DC
100
AcDbEntity
  8
RACCORDO
100
AcDbLine
 62
7
  6
CONTINUOUS
 10
-0.8121520073
 20
-22.9042080586
 11
-0.8121520073
 21
-23.1575794523
  0
LINE
  5
2DD
100
AcDbEntity
  8
RACCORDO
100
AcDbLine
 62
7
  6
CONTINUOUS
 10
-0.4129587103
 20
16.6229517512
 11
-0.4129587103
 21
16.5985562459
  0
LINE
  5
2DE
100
AcDbEntity
  8
RACCORDO
100
AcDbLine
 62
7
  6
CONTINUOUS
 10
-0.4129587103
 20
-21.5065615206
 11
-0.4129587103
 21
-21.5309570259
  0
LINE
  5
2DF
100
AcDbEntity
  8
DRAFT
100
AcDbLine
 62
7
  6
CONTINUOUS
 10
-0.1009313992
 20
-21.9277115814
 11
-0.1009313992
 21
-21.5230894904
  0
LINE
  5
2E0
100
AcDbEntity
  8
DRAFT
100
AcDbLine
 62
7
  6
CONTINUOUS
 10
-0.1009313992
 20
17.4847229992
 11
-0.1009313992
 21
18.121892558
  0
LINE
  5
2E1
100
AcDbEntity
  8
ASSI
100
AcDbLine
 62
7
  6
CONTINUOUS
 10
0.400214088
 20
15.2329504763
 11
-1.3321975259
 21
-2.9136220451
  0
LINE
  5
2E2
100
AcDbEntity
  8
RACCORDO
100
AcDbLine
 62
7
  6
CONTINUOUS
 10
-1.9055539369
 20
1.9467227177
 11
-1.9744640892
 21
1.2314491226
  0
LINE
  5
2E3
100
AcDbEntity
  8
0
100
AcDbLine
 62
7
  6
CONTINUOUS
 10
5.3180551325
 20
9.382422958
 11
5.9175494155
 21
9.981917241
  0
LINE
  5
2E4
100
AcDbEntity
  8
0
100
AcDbLine
 62
7
  6
CONTINUOUS
 10
3.9033469607
 20
7.1276719301
 11
5.9175494155
 21
9.1418743849
  0
LINE
  5
2E5
100
AcDbEntity
  8
0
100
AcDbLine
 62
7
  6
CONTINUOUS
 10
4.0688358161
 20
6.8731393575
 11
4.5900012827
 21
7.3943048241
  0
LINE
  5
2E6
100
AcDbEntity
  8
0
100
AcDbLine
 62
7
  6
CONTINUOUS
 10
5.155922514
 20
7.9602260554
 11
5.4906503181
 21
8.2949538594
  0
LINE
  5
2E7
100
AcDbEntity
  8
0
100
AcDbLine
 62
7
  6
CONTINUOUS
 10
4.5190309443
 20
6.9033130576
 11
5.0508399483
 21
7.4351220617
  0
LINE
  5
2E8
100
AcDbEntity
  8
0
100
AcDbLine
 62
7
  6
CONTINUOUS
 10
5.155922514
 20
7.5402046274
 11
5.4906503181
 21
7.8749324314
  0
LINE
  5
2E9
100
AcDbEntity
  8
0
100
AcDbLine
 62
7
  6
CONTINUOUS
 10
4.9692260724
 20
6.9334867578
 11
5.5163589489
 21
7.4806196342
  0
LINE
  5
2EA
100
AcDbEntity
  8
0
100
AcDbLine
 62
7
  6
CONTINUOUS
 10
5.4194212006
 20
6.9636604579
 11
5.9175494155
 21
7.4617886728
  0
LINE
  5
2EB
100
AcDbEntity
  8
0
100
AcDbLine
 62
252
  6
CONTINUOUS
 10
5.9175494155
 20
9.4180727841
 11
3.9033469607
 21
7.5020846386
  0
LINE
  5
2EC
100
AcDbEntity
  8
0
100
AcDbLine
 62
252
  6
CONTINUOUS
 10
5.4906503181
 20
8.4734534304
 11
5.9175494155
 21
8.875384027
  0
LINE
  5
2ED
100
AcDbEntity
  8
0
100
AcDbLine
 62
252
  6
CONTINUOUS
 10
4.2882395187
 20
7.3675772889
 11
5.155922514
 21
8.1645182621
  0
LINE
  5
2EE
100
AcDbEntity
  8
0
100
AcDbLine
 62
252
  6
CONTINUOUS
 10
15.05414286
 20
10.7580423781
 11
15.9570612018
 21
11.225542035
  0
LINE
  5
2EF
100
AcDbEntity
  8
0
100
AcDbLine
 62
252
  6
CONTINUOUS
 10
8.313840358
 20
7.1221777559
 11
7.653914906
 21
6.7804913508
  0
LINE
  5
2F0
100
AcDbEntity
  8
0
100
AcDbLine
 62
252
  6
CONTINUOUS
 10
3.9033469607
 20
4.7540466023
 11
5.5828223061
 21
5.623620418
  0
LINE
  5
2F1
100
AcDbEntity
  8
0
100
AcDbLine
 62
252
  6
CONTINUOUS
 10
5.9175494155
 20
5.2577378398
 11
3.9033469607
 21
4.2148539898
  0
LINE
  5
2F2
100
AcDbEntity
  8
0
100
AcDbLine
 62
252
  6
CONTINUOUS
 10
15.05414286
 20
9.984222699
 11
15.9570612018
 21
10.451722356
  0
LINE
  5
2F3
100
AcDbEntity
  8
0
100
AcDbLine
 62
252
  6
CONTINUOUS
 10
6.9939894541
 20
5.3183330432
 11
8.313840358
 21
6.0017058535
  0
LINE
  5
2F4
100
AcDbEntity
  8
0
100
AcDbLine
 62
252
  6
CONTINUOUS
 10
15.05414286
 20
9.0903762292
 11
15.9570612018
 21
9.5578758861
  0
LINE
  5
2F5
100
AcDbEntity
  8
0
100
AcDbLine
 62
252
  6
CONTINUOUS
 10
15.05414286
 20
8.7540743162
 11
15.9570612018
 21
9.2215739731
  0
LINE
  5
2F6
100
AcDbEntity
  8
RACCORDO
100
AcDbLine
 62
253
  6
CONTINUOUS
 10
-1.9055539369
 20
1.9467227177
 11
-2.0428373765
 21
1.8792686875
  0
LINE
  5
2F7
100
AcDbEntity
  8
ASSI
100
AcDbLine
 62
7
  6
CONTINUOUS
 10
0.400214088
 20
16.8828579138
 11
0.400214088
 21
15.2329504763
  0
LINE
  5
2F8
100
AcDbEntity
  8
ASSI
100
AcDbLine
 62
7
  6
CONTINUOUS
 10
0.400214088
 20
-19.3277829526
 11
0.400214088
 21
-20.9776903901
  0
LINE
  5
2F9
100
AcDbEntity
  8
RACCORDO
100
AcDbLine
 62
7
  6
CONTINUOUS
 10
0.965899513
 20
-21.0010765221
 11
0.965899513
 21
-22.5066846484
  0
LINE
  5
2FA
100
AcDbEntity
  8
RACCORDO
100
AcDbLine
 62
7
  6
CONTINUOUS
 10
0.965899513
 20
18.0233042487
 11
0.965899513
 21
19.7553550563
  0
LINE
  5
2FB
100
AcDbEntity
  8
RACCORDO
100
AcDbLine
 62
7
  6
CONTINUOUS
 10
1.6688924673
 20
19.8906765541
 11
1.6688924673
 21
19.6297475777
  0
LINE
  5
2FC
100
AcDbEntity
  8
RACCORDO
100
AcDbLine
 62
7
  6
CONTINUOUS
 10
1.6688924673
 20
-21.6698565617
 11
1.6688924673
 21
-21.930785538
  0
LINE
  5
2FD
100
AcDbEntity
  8
RACCORDO
100
AcDbLine
 62
253
  6
CONTINUOUS
 10
1.9961101648
 20
24.1277864461
 11
1.9961101648
 21
22.8959478677
  0
LINE
  5
2FE
100
AcDbEntity
  8
ASSI
100
AcDbLine
 62
7
  6
CONTINUOUS
 10
2.0619150238
 20
14.087574534
 11
2.0619150238
 21
-16.5207060745
  0
LINE
  5
2FF
100
AcDbEntity
  8
RACCORDO
100
AcDbLine
 62
7
  6
CONTINUOUS
 10
2.0619150238
 20
-20.3048566926
 11
2.0619150238
 21
17.8717251521
  0
LINE
  5
300
100
AcDbEntity
  8
RACCORDO
100
AcDbLine
 62
7
  6
CONTINUOUS
 10
2.0827475932
 20
24.2321738214
 11
2.0827475932
 21
22.9998053297
  0
LINE
  5
301
100
AcDbEntity
  8
0
100
AcDbLine
 62
252
  6
CONTINUOUS
 10
7.182539572
 20
11.1045074868
 11
6.9939894541
 21
10.7483124867
  0
LINE
  5
302
100
AcDbEntity
  8
0
100
AcDbLine
 62
252
  6
CONTINUOUS
 10
7.182539572
 20
9.5530847116
 11
7.3710896899
 21
9.7799945523
  0
LINE
  5
303
100
AcDbEntity
  8
0
100
AcDbLine
 62
252
  6
CONTINUOUS
 10
8.1252902204
 20
9.3947819207
 11
7.9367400829
 21
9.1678720698
  0
LINE
  5
304
100
AcDbEntity
  8
0
100
AcDbLine
 62
252
  6
CONTINUOUS
 10
7.182539572
 20
8.1309473115
 11
7.3710896899
 21
8.3578571522
  0
LINE
  5
305
100
AcDbEntity
  8
0
100
AcDbLine
 62
252
  6
CONTINUOUS
 10
8.1252902204
 20
7.9726447364
 11
7.9367400829
 21
7.7457346697
  0
LINE
  5
306
100
AcDbEntity
  8
0
100
AcDbLine
 62
7
  6
CONTINUOUS
 10
5.8696163288
 20
6.993834158
 11
5.9175494155
 21
7.0417672448
  0
LINE
  5
307
100
AcDbEntity
  8
0
100
AcDbLine
 62
7
  6
CONTINUOUS
 10
3.9033469607
 20
4.6075433619
 11
4.2071475725
 21
4.9113439737
  0
LINE
  5
308
100
AcDbEntity
  8
0
100
AcDbLine
 62
7
  6
CONTINUOUS
 10
5.5828223061
 20
6.2870187073
 11
5.9175494155
 21
6.6217458168
  0
LINE
  5
309
100
AcDbEntity
  8
0
100
AcDbLine
 62
7
  6
CONTINUOUS
 10
3.9600248558
 20
4.244199829
 11
5.0781369546
 21
5.3623119278
  0
LINE
  5
30A
100
AcDbEntity
  8
0
100
AcDbLine
 62
7
  6
CONTINUOUS
 10
5.5828223061
 20
5.8669972793
 11
5.9175494155
 21
6.2017243887
  0
LINE
  5
30B
100
AcDbEntity
  8
0
100
AcDbLine
 62
7
  6
CONTINUOUS
 10
4.8310142379
 20
4.6951677831
 11
5.9175494155
 21
5.7817029607
  0
LINE
  5
30C
100
AcDbEntity
  8
0
100
AcDbLine
 62
7
  6
CONTINUOUS
 10
3.9538426712
 20
3.3979747884
 11
4.8324519296
 21
4.2765840467
  0
LINE
  5
30D
100
AcDbEntity
  8
0
100
AcDbLine
 62
7
  6
CONTINUOUS
 10
5.70200362
 20
5.1461357371
 11
5.9175494155
 21
5.3616815327
  0
LINE
  5
30E
100
AcDbEntity
  8
0
100
AcDbLine
 62
7
  6
CONTINUOUS
 10
3.9056239056
 20
2.9297345947
 11
4.2577839486
 21
3.2818946378
  0
LINE
  5
30F
100
AcDbEntity
  8
0
100
AcDbLine
 62
7
  6
CONTINUOUS
 10
4.6412186418
 20
3.6653293309
 11
5.0587216682
 21
4.0828323573
  0
LINE
  5
310
100
AcDbEntity
  8
0
100
AcDbLine
 62
7
  6
CONTINUOUS
 10
3.903346793
 20
2.5074360541
 11
4.2380741302
 21
2.8421633914
  0
LINE
  5
311
100
AcDbEntity
  8
0
100
AcDbLine
 62
7
  6
CONTINUOUS
 10
4.8059531122
 20
3.4100423733
 11
5.1317118361
 21
3.7358010972
  0
LINE
  5
312
100
AcDbEntity
  8
0
100
AcDbLine
 62
7
  6
CONTINUOUS
 10
3.9033469561
 20
2.0874147892
 11
5.1419001922
 21
3.3259680253
  0
LINE
  5
313
100
AcDbEntity
  8
0
100
AcDbLine
 62
252
  6
CONTINUOUS
 10
5.9175494155
 20
3.6575506583
 11
5.1419001922
 21
3.2559465165
  0
LINE
  5
314
100
AcDbEntity
  8
0
100
AcDbLine
 62
252
  6
CONTINUOUS
 10
4.8071723882
 20
3.0826361225
 11
4.2380740702
 21
2.7879768426
  0
LINE
  5
315
100
AcDbEntity
  8
0
100
AcDbLine
 62
252
  6
CONTINUOUS
 10
3.9033469607
 20
2.0754741957
 11
5.9175494155
 21
3.1183580457
  0
LINE
  5
316
100
AcDbEntity
  8
0
100
AcDbLine
 62
252
  6
CONTINUOUS
 10
15.05414286
 20
7.1883237688
 11
15.9570612018
 21
7.6558234257
  0
LINE
  5
317
100
AcDbEntity
  8
0
100
AcDbLine
 62
252
  6
CONTINUOUS
 10
15.05414286
 20
6.0483320946
 11
15.9570612018
 21
6.5158317515
  0
LINE
  5
318
100
AcDbEntity
  8
0
100
AcDbLine
 62
252
  6
CONTINUOUS
 10
8.0310151615
 20
6.3724097283
 11
6.9939894541
 21
6.2233295362
  0
LINE
  5
319
100
AcDbEntity
  8
0
100
AcDbLine
 62
252
  6
CONTINUOUS
 10
5.155922514
 20
7.4444293971
 11
4.2882395187
 21
7.3675772889
  0
LINE
  5
31A
100
AcDbEntity
  8
0
100
AcDbLine
 62
252
  6
CONTINUOUS
 10
5.9175494155
 20
7.5118556075
 11
5.4906503181
 21
7.4786180061
  0
LINE
  5
31B
100
AcDbEntity
  8
0
100
AcDbLine
 62
252
  6
CONTINUOUS
 10
3.9033469607
 20
6.8620476979
 11
5.9175494155
 21
6.9970468063
  0
LINE
  5
31C
100
AcDbEntity
  8
0
100
AcDbLine
 62
252
  6
CONTINUOUS
 10
15.05414286
 20
5.4070264266
 11
15.9570612018
 21
5.3806023509
  0
LINE
  5
31D
100
AcDbEntity
  8
0
100
AcDbLine
 62
252
  6
CONTINUOUS
 10
15.05414286
 20
4.7625701583
 11
15.9570612018
 21
4.690650304
  0
LINE
  5
31E
100
AcDbEntity
  8
RACCORDO
100
AcDbLine
 62
253
  6
CONTINUOUS
 10
-9.0542575532
 20
10.9142433989
 11
-23.3827378878
 21
18.0784835662
  0
LINE
  5
31F
100
AcDbEntity
  8
0
100
AcDbLine
 62
253
  6
CONTINUOUS
 10
3.873801986
 20
-11.3527544685
 11
3.873801986
 21
-11.8769353967
  0
LINE
  5
320
100
AcDbEntity
  8
0
100
AcDbLine
 62
253
  6
CONTINUOUS
 10
3.8739228381
 20
-14.1366136944
 11
3.8739228381
 21
-13.5671924652
  0
LINE
  5
321
100
AcDbEntity
  8
0
100
AcDbLine
 62
253
  6
CONTINUOUS
 10
3.8739228381
 20
-12.5952192455
 11
3.8739228381
 21
-12.0713968518
  0
LINE
  5
322
100
AcDbEntity
  8
0
100
AcDbLine
 62
253
  6
CONTINUOUS
 10
3.8739228381
 20
-10.8437651388
 11
3.8739228381
 21
-10.3200180893
  0
LINE
  5
323
100
AcDbEntity
  8
0
100
AcDbLine
 62
253
  6
CONTINUOUS
 10
3.8739228381
 20
-9.2771935993
 11
3.8739228381
 21
-8.7585682241
  0
LINE
  5
324
100
AcDbEntity
  8
0
100
AcDbLine
 62
253
  6
CONTINUOUS
 10
3.8739228381
 20
-7.6537709562
 11
3.8739228381
 21
-7.1466888336
  0
LINE
  5
325
100
AcDbEntity
  8
0
100
AcDbLine
 62
252
  6
CONTINUOUS
 10
3.9033469607
 20
12.7199180073
 11
3.9033469607
 21
12.0798810666
  0
LINE
  5
326
100
AcDbEntity
  8
0
100
AcDbLine
 62
252
  6
CONTINUOUS
 10
3.9033469607
 20
7.5020846386
 11
3.9033469607
 21
6.8620476979
  0
LINE
  5
327
100
AcDbEntity
  8
0
100
AcDbLine
 62
252
  6
CONTINUOUS
 10
3.9033469607
 20
2.8440111198
 11
3.9033469607
 21
2.0754741957
  0
LINE
  5
328
100
AcDbEntity
  8
0
100
AcDbLine
 62
252
  6
CONTINUOUS
 10
3.9033469607
 20
4.2148539898
 11
3.9033469607
 21
4.7540466023
  0
LINE
  5
329
100
AcDbEntity
  8
0
100
AcDbLine
 62
252
  6
CONTINUOUS
 10
3.9033469607
 20
8.6499363594
 11
3.9033469607
 21
9.4499827518
  0
LINE
  5
32A
100
AcDbEntity
  8
0
100
AcDbLine
 62
252
  6
CONTINUOUS
 10
3.9033469607
 20
10.4135356064
 11
3.9033469607
 21
10.9179469067
  0
LINE
  5
32B
100
AcDbEntity
  8
0
100
AcDbLine
 62
252
  6
CONTINUOUS
 10
4.2380740702
 20
2.7879768426
 11
4.2380740702
 21
3.1025311257
  0
LINE
  5
32C
100
AcDbEntity
  8
0
100
AcDbLine
 62
252
  6
CONTINUOUS
 10
6.9939894541
 20
9.1968897115
 11
7.182539572
 21
9.5530847116
  0
LINE
  5
32D
100
AcDbEntity
  8
0
100
AcDbLine
 62
252
  6
CONTINUOUS
 10
6.9939894541
 20
7.7747523114
 11
7.182539572
 21
8.1309473115
  0
LINE
  5
32E
100
AcDbEntity
  8
0
100
AcDbLine
 62
252
  6
CONTINUOUS
 10
8.313840358
 20
9.7509773625
 11
8.1252902204
 21
9.3947819207
  0
LINE
  5
32F
100
AcDbEntity
  8
0
100
AcDbLine
 62
252
  6
CONTINUOUS
 10
8.313840358
 20
8.3288397466
 11
8.1252902204
 21
7.9726447364
  0
LINE
  5
330
100
AcDbEntity
  8
0
100
AcDbLine
 62
252
  6
CONTINUOUS
 10
15.05414286
 20
13.9616045806
 11
15.6076769494
 21
14.6602064388
  0
LWPOLYLINE
  5
331
100
AcDbEntity
  8
RACCORDO
100
AcDbPolyline
 62
7
  6
CONTINUOUS
 90
6
 70
0
 10
18.5126421244
 20
16.3193986455
 10
18.5137333204
 20
16.3206448947
 10
18.5218855499
 20
16.3303099472
 10
18.5297633346
 20
16.3402929831
 10
18.5373532082
 20
16.350583947
 10
18.5446454788
 20
16.3611766339
  0
LINE
  5
332
100
AcDbEntity
  8
ASSI
100
AcDbLine
 62
7
  6
CONTINUOUS
 10
18.5128966838
 20
16.3196889083
 11
18.512426117
 21
16.3191535366
  0
LINE
  5
333
100
AcDbEntity
  8
0
100
AcDbLine
 62
252
  6
CONTINUOUS
 10
15.9570612018
 20
13.426316102
 11
15.05414286
 21
12.4648935785
  0
LINE
  5
334
100
AcDbEntity
  8
0
100
AcDbLine
 62
7
  6
CONTINUOUS
 10
4.7495753819
 20
2.513621787
 11
5.8676874807
 21
3.6317338858
  0
LINE
  5
335
100
AcDbEntity
  8
0
100
AcDbLine
 62
7
  6
CONTINUOUS
 10
5.620564764
 20
2.964589741
 11
5.9175494155
 21
3.2615743926
  0
LINE
  5
336
100
AcDbEntity
  8
0
100
AcDbLine
 62
252
  6
CONTINUOUS
 10
15.9570612018
 20
5.2300698152
 11
15.05414286
 21
4.7625701583
  0
LINE
  5
337
100
AcDbEntity
  8
0
100
AcDbLine
 62
252
  6
CONTINUOUS
 10
15.05414286
 20
3.6837311359
 11
15.9570612018
 21
4.1512307928
  0
LINE
  5
338
100
AcDbEntity
  8
0
100
AcDbLine
 62
252
  6
CONTINUOUS
 10
7.3710896899
 20
7.4528606052
 11
7.182539572
 21
7.484521299
  0
LINE
  5
339
100
AcDbEntity
  8
RACCORDO
100
AcDbLine
 62
253
  6
CONTINUOUS
 10
-8.139352516
 20
12.7145708116
 11
-22.4930175892
 21
19.8914033482
  0
LINE
  5
33A
100
AcDbEntity
  8
0
100
AcDbLine
 62
252
  6
CONTINUOUS
 10
14.220288286
 20
-6.6127266817
 11
13.502682821
 21
-5.8315789229
  0
LINE
  5
33B
100
AcDbEntity
  8
0
100
AcDbLine
 62
253
  6
CONTINUOUS
 10
4.769893065
 20
-4.9541180208
 11
4.769893065
 21
-5.2536819203
  0
LINE
  5
33C
100
AcDbEntity
  8
0
100
AcDbLine
 62
252
  6
CONTINUOUS
 10
4.8071723882
 20
3.0826361225
 11
4.8071723882
 21
3.3971904056
  0
LINE
  5
33D
100
AcDbEntity
  8
0
100
AcDbLine
 62
253
  6
CONTINUOUS
 10
5.0997313156
 20
-5.0655221334
 11
5.0997313156
 21
-4.7844691286
  0
LINE
  5
33E
100
AcDbEntity
  8
0
100
AcDbLine
 62
252
  6
CONTINUOUS
 10
5.1419001922
 20
3.485290828
 11
5.1419001922
 21
3.2559465165
  0
LINE
  5
33F
100
AcDbEntity
  8
0
100
AcDbLine
 62
252
  6
CONTINUOUS
 10
5.155922514
 20
13.382257234
 11
5.155922514
 21
12.6622627658
  0
LINE
  5
340
100
AcDbEntity
  8
0
100
AcDbLine
 62
252
  6
CONTINUOUS
 10
5.155922514
 20
8.1645182621
 11
5.155922514
 21
7.4444293971
  0
LINE
  5
341
100
AcDbEntity
  8
0
100
AcDbLine
 62
253
  6
CONTINUOUS
 10
5.1747149254
 20
-6.9975719227
 11
5.1747149254
 21
-6.4957058711
  0
LINE
  5
342
100
AcDbEntity
  8
0
100
AcDbLine
 62
253
  6
CONTINUOUS
 10
5.485826553
 20
-6.2298660795
 11
5.485826553
 21
-6.9437126333
  0
LINE
  5
343
100
AcDbEntity
  8
0
100
AcDbLine
 62
252
  6
CONTINUOUS
 10
5.4906503181
 20
7.4786180061
 11
5.4906503181
 21
8.4734534304
  0
LINE
  5
344
100
AcDbEntity
  8
0
100
AcDbLine
 62
252
  6
CONTINUOUS
 10
5.4906503181
 20
12.6964505088
 11
5.4906503181
 21
13.6912867991
  0
LINE
  5
345
100
AcDbEntity
  8
0
100
AcDbLine
 62
252
  6
CONTINUOUS
 10
5.5828223061
 20
5.623620418
 11
5.5828223061
 21
6.5528648102
  0
LINE
  5
346
100
AcDbEntity
  8
0
100
AcDbLine
 62
253
  6
CONTINUOUS
 10
5.8878849777
 20
-5.333439599
 11
5.8878849777
 21
-5.8859040509
  0
LINE
  5
347
100
AcDbEntity
  8
0
100
AcDbLine
 62
253
  6
CONTINUOUS
 10
5.8878849777
 20
-6.8801817548
 11
5.8878849777
 21
-7.3986754942
  0
LINE
  5
348
100
AcDbEntity
  8
0
100
AcDbLine
 62
253
  6
CONTINUOUS
 10
5.8878849777
 20
-7.4809860127
 11
5.8878849777
 21
-7.9937735107
  0
LINE
  5
349
100
AcDbEntity
  8
0
100
AcDbLine
 62
253
  6
CONTINUOUS
 10
5.8878849777
 20
-8.72471887
 11
5.8878849777
 21
-8.7982349005
  0
LINE
  5
34A
100
AcDbEntity
  8
0
100
AcDbLine
 62
253
  6
CONTINUOUS
 10
5.8878849777
 20
-9.5262799408
 11
5.8878849777
 21
-10.0277502188
  0
LINE
  5
34B
100
AcDbEntity
  8
0
100
AcDbLine
 62
253
  6
CONTINUOUS
 10
5.8878849777
 20
-11.8358293966
 11
5.8878849777
 21
-12.2977638829
  0
LINE
  5
34C
100
AcDbEntity
  8
0
100
AcDbLine
 62
253
  6
CONTINUOUS
 10
5.8878849777
 20
-10.8341134005
 11
5.8878849777
 21
-10.3099324723
  0
LINE
  5
34D
100
AcDbEntity
  8
0
100
AcDbLine
 62
253
  6
CONTINUOUS
 10
5.8878846482
 20
-5.1795150561
 11
5.8878846482
 21
-4.6574437995
  0
LINE
  5
34E
100
AcDbEntity
  8
0
100
AcDbLine
 62
253
  6
CONTINUOUS
 10
5.8878846482
 20
-3.8547338205
 11
5.8878846482
 21
-3.3505332038
  0
LINE
  5
34F
100
AcDbEntity
  8
0
100
AcDbLine
 62
252
  6
CONTINUOUS
 10
5.9175494155
 20
11.9608307567
 11
5.9175494155
 21
11.1955656766
  0
LINE
  5
350
100
AcDbEntity
  8
0
100
AcDbLine
 62
252
  6
CONTINUOUS
 10
5.9175494155
 20
10.1972323758
 11
5.9175494155
 21
9.6928202094
  0
LINE
  5
351
100
AcDbEntity
  8
0
100
AcDbLine
 62
252
  6
CONTINUOUS
 10
5.9175494155
 20
6.7261748446
 11
5.9175494155
 21
5.2577378398
  0
LINE
  5
352
100
AcDbEntity
  8
0
100
AcDbLine
 62
252
  6
CONTINUOUS
 10
5.9175494155
 20
3.1183580457
 11
5.9175494155
 21
3.6575506583
  0
LINE
  5
353
100
AcDbEntity
  8
0
100
AcDbLine
 62
252
  6
CONTINUOUS
 10
5.9175494155
 20
6.9970468063
 11
5.9175494155
 21
7.5118556075
  0
LINE
  5
354
100
AcDbEntity
  8
0
100
AcDbLine
 62
252
  6
CONTINUOUS
 10
5.9175494155
 20
8.875384027
 11
5.9175494155
 21
9.4180727841
  0
LINE
  5
355
100
AcDbEntity
  8
0
100
AcDbLine
 62
252
  6
CONTINUOUS
 10
5.9175494155
 20
12.2147857782
 11
5.9175494155
 21
12.7295937134
  0
LINE
  5
356
100
AcDbEntity
  8
0
100
AcDbLine
 62
252
  6
CONTINUOUS
 10
5.9175494155
 20
14.0933109264
 11
5.9175494155
 21
14.635811756
  0
LINE
  5
357
100
AcDbEntity
  8
RACCORDO
100
AcDbLine
 62
253
  6
CONTINUOUS
 10
6.7541555587
 20
21.8719496686
 11
6.7541555587
 21
21.6596905145
  0
LINE
  5
358
100
AcDbEntity
  8
RACCORDO
100
AcDbLine
 62
253
  6
CONTINUOUS
 10
6.7541555587
 20
-15.0822760559
 11
6.7541555587
 21
-15.27204576
  0
LINE
  5
359
100
AcDbEntity
  8
ASSI
100
AcDbLine
 62
7
  6
CONTINUOUS
 10
18.5128967361
 20
16.3196888624
 11
18.5285030814
 21
16.3386503423
  0
LINE
  5
35A
100
AcDbEntity
  8
0
100
AcDbLine
 62
252
  6
CONTINUOUS
 10
7.9367400829
 20
8.6507312167
 11
8.1252902204
 21
8.6190707489
  0
LINE
  5
35B
100
AcDbEntity
  8
0
100
AcDbLine
 62
252
  6
CONTINUOUS
 10
7.3710896899
 20
8.8749980053
 11
7.182539572
 21
8.9066584833
  0
LINE
  5
35C
100
AcDbEntity
  8
0
100
AcDbLine
 62
252
  6
CONTINUOUS
 10
7.3710896899
 20
4.9964414988
 11
6.9939894541
 21
5.3183330432
  0
LINE
  5
35D
100
AcDbEntity
  8
RACCORDO
100
AcDbLine
 62
7
  6
CONTINUOUS
 10
6.8383071263
 20
22.1657635125
 11
6.8383535969
 21
22.1596261744
  0
LINE
  5
35E
100
AcDbEntity
  8
RACCORDO
100
AcDbLine
 62
7
  6
CONTINUOUS
 10
6.8383536186
 20
22.1595705469
 11
6.8383536186
 21
21.5836073574
  0
LINE
  5
35F
100
AcDbEntity
  8
RACCORDO
100
AcDbLine
 62
7
  6
CONTINUOUS
 10
6.8383536186
 20
-15.0377507349
 11
6.8383536186
 21
-15.3512691271
  0
LINE
  5
360
100
AcDbEntity
  8
0
100
AcDbLine
 62
252
  6
CONTINUOUS
 10
6.9939894541
 20
10.7483124867
 11
6.9939894541
 21
10.3604565772
  0
LINE
  5
361
100
AcDbEntity
  8
0
100
AcDbLine
 62
252
  6
CONTINUOUS
 10
6.9939894541
 20
7.6454669363
 11
6.9939894541
 21
7.7747523114
  0
LINE
  5
362
100
AcDbEntity
  8
0
100
AcDbLine
 62
252
  6
CONTINUOUS
 10
6.9939894541
 20
9.0676045522
 11
6.9939894541
 21
9.1968897115
  0
LINE
  5
363
100
AcDbEntity
  8
0
100
AcDbLine
 62
253
  6
CONTINUOUS
 10
7.2422547786
 20
23.156709
 11
7.2422547786
 21
23.5781190299
  0
LINE
  5
364
100
AcDbEntity
  8
ASSI
100
AcDbLine
 62
253
  6
CONTINUOUS
 10
7.2422547786
 20
23.156709
 11
7.2422547786
 21
23.5781168417
  0
LINE
  5
365
100
AcDbEntity
  8
DRAFT
100
AcDbLine
 62
7
  6
CONTINUOUS
 10
7.9249649766
 20
23.4967132984
 11
7.9249649766
 21
23.0637005965
  0
LINE
  5
366
100
AcDbEntity
  8
ASSI
100
AcDbLine
 62
7
  6
CONTINUOUS
 10
7.9249649766
 20
23.4967132984
 11
7.9249649766
 21
23.0637005965
  0
LINE
  5
367
100
AcDbEntity
  8
0
100
AcDbLine
 62
252
  6
CONTINUOUS
 10
8.0310151615
 20
7.2774061674
 11
8.0310151615
 21
6.3724097283
  0
LINE
  5
368
100
AcDbEntity
  8
0
100
AcDbLine
 62
252
  6
CONTINUOUS
 10
8.313840358
 20
11.6902556157
 11
8.313840358
 21
10.7852590688
  0
LINE
  5
369
100
AcDbEntity
  8
0
100
AcDbLine
 62
252
  6
CONTINUOUS
 10
8.313840358
 20
9.8802625218
 11
8.313840358
 21
9.7509773625
  0
LINE
  5
36A
100
AcDbEntity
  8
0
100
AcDbLine
 62
252
  6
CONTINUOUS
 10
8.313840358
 20
8.4581251217
 11
8.313840358
 21
8.3288397466
  0
LINE
  5
36B
100
AcDbEntity
  8
0
100
AcDbLine
 62
7
  6
CONTINUOUS
 10
9.4128840285
 20
22.0806535655
 11
9.4048742831
 21
21.8073939491
  0
LINE
  5
36C
100
AcDbEntity
  8
RACCORDO
100
AcDbLine
 62
7
  6
CONTINUOUS
 10
6.8383071263
 20
-15.3521806899
 11
6.8383535969
 21
-15.351438735
  0
LWPOLYLINE
  5
36D
100
AcDbEntity
  8
RACCORDO
100
AcDbPolyline
 62
7
  6
CONTINUOUS
 90
19
 70
0
 10
18.5516338471
 20
16.372069894
 10
18.5583073595
 20
16.3832554401
 10
18.564655635
 20
16.3947243189
 10
18.5706731234
 20
16.4064761184
 10
18.5763502742
 20
16.418503473
 10
18.5816769271
 20
16.4307962258
 10
18.5866467838
 20
16.4433518351
 10
18.5912513167
 20
16.4561628235
 10
18.5954816519
 20
16.4692197463
 10
18.5993314854
 20
16.4825194474
 10
18.6027935357
 20
16.4960564766
 10
18.6058594169
 20
16.5098208576
 10
18.6085220473
 20
16.5238051133
 10
18.6107745848
 20
16.5380027116
 10
18.6126099657
 20
16.5524066434
 10
18.6140216062
 20
16.567011711
 10
18.6150026356
 20
16.581813644
 10
18.6155458247
 20
16.5968063912
 10
18.6156618349
 20
16.6076955944
  0
LINE
  5
36E
100
AcDbEntity
  8
RACCORDO
100
AcDbLine
 62
7
  6
CONTINUOUS
 10
18.5446454788
 20
16.3611766339
 11
18.5516338471
 21
16.372069894
  0
LINE
  5
36F
100
AcDbEntity
  8
0
100
AcDbLine
 62
252
  6
CONTINUOUS
 10
15.9570612018
 20
10.451722356
 11
15.05414286
 21
9.0903762292
  0
LINE
  5
370
100
AcDbEntity
  8
ASSI
100
AcDbLine
 62
7
  6
CONTINUOUS
 10
18.5285030814
 20
16.3386503423
 11
18.5542332787
 21
16.3763294303
  0
LINE
  5
371
100
AcDbEntity
  8
0
100
AcDbLine
 62
252
  6
CONTINUOUS
 10
15.9570612018
 20
6.3684489502
 11
15.05414286
 21
5.4070264266
  0
LINE
  5
372
100
AcDbEntity
  8
0
100
AcDbLine
 62
253
  6
CONTINUOUS
 10
3.8739228381
 20
-7.1466888336
 11
5.8878849777
 21
-5.333439599
  0
LINE
  5
373
100
AcDbEntity
  8
0
100
AcDbLine
 62
253
  6
CONTINUOUS
 10
4.9477852241
 20
-4.3186236855
 11
4.9358844667
 21
-4.324785483
  0
LINE
  5
374
100
AcDbEntity
  8
0
100
AcDbLine
 62
253
  6
CONTINUOUS
 10
5.8878846482
 20
-4.6574437995
 11
5.0997313156
 21
-5.0655221334
  0
LINE
  5
375
100
AcDbEntity
  8
0
100
AcDbLine
 62
253
  6
CONTINUOUS
 10
4.769893065
 20
-5.2536819203
 11
4.2170213307
 21
-5.5399396406
  0
LINE
  5
376
100
AcDbEntity
  8
0
100
AcDbLine
 62
253
  6
CONTINUOUS
 10
3.8974527692
 20
-6.2100913302
 11
5.8878846482
 21
-5.1795150561
  0
LINE
  5
377
100
AcDbEntity
  8
0
100
AcDbLine
 62
252
  6
CONTINUOUS
 10
5.155922514
 20
12.6622627658
 11
4.2883534253
 21
12.585420271
  0
LINE
  5
378
100
AcDbEntity
  8
0
100
AcDbLine
 62
252
  6
CONTINUOUS
 10
5.9175494155
 20
12.7295937134
 11
5.4906503181
 21
12.6964505088
  0
LINE
  5
379
100
AcDbEntity
  8
0
100
AcDbLine
 62
252
  6
CONTINUOUS
 10
3.9033469607
 20
12.0798810666
 11
5.9175494155
 21
12.2147857782
  0
LINE
  5
37A
100
AcDbEntity
  8
0
100
AcDbLine
 62
252
  6
CONTINUOUS
 10
15.05414286
 20
12.4648935785
 11
15.9570612018
 21
12.4384695027
  0
LINE
  5
37B
100
AcDbEntity
  8
0
100
AcDbLine
 62
252
  6
CONTINUOUS
 10
7.9367400829
 20
10.0728686168
 11
8.1252902204
 21
10.041208149
  0
LINE
  5
37C
100
AcDbEntity
  8
0
100
AcDbLine
 62
252
  6
CONTINUOUS
 10
6.9939894541
 20
10.3604565772
 11
7.2768146703
 21
10.2483233009
  0
LINE
  5
37D
100
AcDbEntity
  8
RACCORDO
100
AcDbLine
 62
7
  6
CONTINUOUS
 10
-18.5734916559
 20
22.6946598242
 11
-4.0067042709
 21
15.4112661318
  0
LINE
  5
37E
100
AcDbEntity
  8
0
100
AcDbLine
 62
7
  6
CONTINUOUS
 10
-12.6664948729
 20
20.1618417233
 11
-8.4238541858
 21
18.0405213797
  0
LINE
  5
37F
100
AcDbEntity
  8
0
100
AcDbLine
 62
252
  6
CONTINUOUS
 10
7.182539572
 20
7.484521299
 11
6.9939894541
 21
7.6454669363
  0
LINE
  5
380
100
AcDbEntity
  8
0
100
AcDbLine
 62
252
  6
CONTINUOUS
 10
7.182539572
 20
8.9066584833
 11
6.9939894541
 21
9.0676045522
  0
LINE
  5
381
100
AcDbEntity
  8
0
100
AcDbLine
 62
7
  6
CONTINUOUS
 10
9.0003924641
 20
21.8111986971
 11
8.9631393672
 21
22.2024013986
  0
LINE
  5
382
100
AcDbEntity
  8
DRAFT
100
AcDbLine
 62
7
  6
CONTINUOUS
 10
9.4511808872
 20
23.438869324
 11
9.4511808872
 21
23.285983339
  0
LINE
  5
383
100
AcDbEntity
  8
ASSI
100
AcDbLine
 62
7
  6
CONTINUOUS
 10
9.4511808872
 20
23.438869324
 11
9.4511808872
 21
23.285983339
  0
LINE
  5
384
100
AcDbEntity
  8
0
100
AcDbLine
 62
252
  6
CONTINUOUS
 10
11.1807743264
 20
11.2618998863
 11
11.1807743264
 21
12.5267299886
  0
LINE
  5
385
100
AcDbEntity
  8
ASSI
100
AcDbLine
 62
7
  6
CONTINUOUS
 10
18.5542332787
 20
16.3763294303
 11
18.5758507138
 21
16.417403952
  0
LINE
  5
386
100
AcDbEntity
  8
0
100
AcDbLine
 62
252
  6
CONTINUOUS
 10
15.9570612018
 20
4.690650304
 11
15.05414286
 21
3.6837311359
  0
LINE
  5
387
100
AcDbEntity
  8
0
100
AcDbLine
 62
253
  6
CONTINUOUS
 10
3.8739228381
 20
-10.3200180893
 11
4.9920809379
 21
-9.2224303575
  0
LINE
  5
388
100
AcDbEntity
  8
0
100
AcDbLine
 62
253
  6
CONTINUOUS
 10
5.8878849777
 20
-5.8859040509
 11
5.485826553
 21
-6.2298660795
  0
LINE
  5
389
100
AcDbEntity
  8
0
100
AcDbLine
 62
253
  6
CONTINUOUS
 10
5.1747149254
 20
-6.4957058711
 11
4.4273082933
 21
-7.1235546288
  0
LINE
  5
38A
100
AcDbEntity
  8
0
100
AcDbLine
 62
253
  6
CONTINUOUS
 10
3.8739228381
 20
-8.7585682241
 11
5.8878849777
 21
-7.4809860127
  0
LINE
  5
38B
100
AcDbEntity
  8
0
100
AcDbLine
 62
253
  6
CONTINUOUS
 10
5.8878849777
 20
-7.9937735107
 11
4.5782880474
 21
-8.7795317598
  0
LINE
  5
38C
100
AcDbEntity
  8
0
100
AcDbLine
 62
252
  6
CONTINUOUS
 10
8.313840358
 20
10.7852590688
 11
7.3710896899
 21
11.2021321682
  0
LINE
  5
38D
100
AcDbEntity
  8
RACCORDO
100
AcDbLine
 62
7
  6
CONTINUOUS
 10
-13.0170989935
 20
20.4438699811
 11
-12.5737201205
 21
20.2221805446
  0
LINE
  5
38E
100
AcDbEntity
  8
RACCORDO
100
AcDbLine
 62
7
  6
CONTINUOUS
 10
-5.1456240071
 20
16.5081324879
 11
-2.2238964889
 21
15.0472687288
  0
LINE
  5
38F
100
AcDbEntity
  8
0
100
AcDbLine
 62
7
  6
CONTINUOUS
 10
-12.3155768157
 20
20.3900717255
 11
-8.0729361286
 21
18.268751382
  0
LINE
  5
390
100
AcDbEntity
  8
ASSI
100
AcDbLine
 62
253
  6
CONTINUOUS
 10
-9.5576508117
 20
19.2633619469
 11
-5.0955803859
 21
17.032326734
  0
LINE
  5
391
100
AcDbEntity
  8
0
100
AcDbLine
 62
7
  6
CONTINUOUS
 10
-15.3682671324
 20
23.1171910865
 11
-9.9589002563
 21
20.4125076485
  0
LINE
  5
392
100
AcDbEntity
  8
0
100
AcDbLine
 62
7
  6
CONTINUOUS
 10
-5.009152788
 20
17.9376339143
 11
0.400214088
 21
15.2329504763
  0
LINE
  5
393
100
AcDbEntity
  8
ASSI
100
AcDbLine
 62
253
  6
CONTINUOUS
 10
-8.8628847455
 20
20.4766384839
 11
-5.009152788
 21
18.5497725052
  0
LINE
  5
394
100
AcDbEntity
  8
0
100
AcDbLine
 62
252
  6
CONTINUOUS
 10
8.1252902204
 20
8.6190707489
 11
8.313840358
 21
8.4581251217
  0
LINE
  5
395
100
AcDbEntity
  8
0
100
AcDbLine
 62
252
  6
CONTINUOUS
 10
8.1252902204
 20
10.041208149
 11
8.313840358
 21
9.8802625218
  0
LINE
  5
396
100
AcDbEntity
  8
DRAFT
100
AcDbLine
 62
7
  6
CONTINUOUS
 10
11.4646915432
 20
25.5895621595
 11
11.4646915432
 21
25.2630999507
  0
LINE
  5
397
100
AcDbEntity
  8
ASSI
100
AcDbLine
 62
7
  6
CONTINUOUS
 10
11.4646915432
 20
25.5895621595
 11
11.4646915432
 21
25.2630999507
  0
LINE
  5
398
100
AcDbEntity
  8
0
100
AcDbLine
 62
252
  6
CONTINUOUS
 10
11.7016887543
 20
12.7964413291
 11
11.7016887543
 21
11.5316112269
  0
LINE
  5
399
100
AcDbEntity
  8
0
100
AcDbLine
 62
252
  6
CONTINUOUS
 10
13.0844128447
 20
-7.4154349765
 11
13.0844128447
 21
-6.986251839
  0
LWPOLYLINE
  5
39A
100
AcDbEntity
  8
ASSI
100
AcDbPolyline
 62
7
  6
CONTINUOUS
 90
5
 70
0
 10
18.5758507138
 20
16.417403952
 10
18.5931570373
 20
16.4618713297
 10
18.6058111857
 20
16.5095911708
 10
18.6134031913
 20
16.5600482281
 10
18.615661805
 20
16.607632231
  0
LINE
  5
39B
100
AcDbEntity
  8
RACCORDO
100
AcDbLine
 62
7
  6
CONTINUOUS
 10
-2.3300543501
 20
-21.8693685395
 11
-2.1148403002
 21
-21.6074322604
  0
LINE
  5
39C
100
AcDbEntity
  8
0
100
AcDbLine
 62
253
  6
CONTINUOUS
 10
5.8878849777
 20
-8.7982349005
 11
4.572805944
 21
-10.0940635369
  0
LINE
  5
39D
100
AcDbEntity
  8
0
100
AcDbLine
 62
253
  6
CONTINUOUS
 10
5.8878849777
 20
-10.3099324723
 11
3.873801986
 21
-11.3527544685
  0
LINE
  5
39E
100
AcDbEntity
  8
0
100
AcDbLine
 62
253
  6
CONTINUOUS
 10
3.873801986
 20
-11.8769353967
 11
5.8878849777
 21
-10.8341134005
  0
LINE
  5
39F
100
AcDbEntity
  8
0
100
AcDbLine
 62
252
  6
CONTINUOUS
 10
13.0844128447
 20
-7.2008434078
 11
15.3561637273
 21
-6.0246099556
  0
LINE
  5
3A0
100
AcDbEntity
  8
0
100
AcDbLine
 62
253
  6
CONTINUOUS
 10
4.572805944
 20
-10.0940635369
 11
5.8878849777
 21
-9.5262799408
  0
LINE
  5
3A1
100
AcDbEntity
  8
0
100
AcDbLine
 62
253
  6
CONTINUOUS
 10
5.8878849777
 20
-10.0277502188
 11
3.8739228381
 21
-10.8437651388
  0
LINE
  5
3A2
100
AcDbEntity
  8
ASSI
100
AcDbLine
 62
7
  6
CONTINUOUS
 10
-16.1814399308
 20
24.4827968561
 11
-0.4129587103
 21
16.5985562459
  0
LINE
  5
3A3
100
AcDbEntity
  8
RACCORDO
100
AcDbLine
 62
7
  6
CONTINUOUS
 10
-0.6604460837
 20
17.0498158711
 11
-15.9339525574
 21
24.6865691079
  0
LINE
  5
3A4
100
AcDbEntity
  8
DRAFT
100
AcDbLine
 62
7
  6
CONTINUOUS
 10
-0.1009313992
 20
17.4847229992
 11
-1.7149355151
 21
18.2917250572
  0
LINE
  5
3A5
100
AcDbEntity
  8
DRAFT
100
AcDbLine
 62
7
  6
CONTINUOUS
 10
-13.4652495636
 20
24.1668820814
 11
-15.0792536796
 21
24.9738841394
  0
LINE
  5
3A6
100
AcDbEntity
  8
RACCORDO
100
AcDbLine
 62
7
  6
CONTINUOUS
 10
-10.1327936828
 20
22.8579863762
 11
-4.3402846147
 21
19.9617318422
  0
LINE
  5
3A7
100
AcDbEntity
  8
RACCORDO
100
AcDbLine
 62
7
  6
CONTINUOUS
 10
-15.7176518879
 20
25.7454142192
 11
-14.1111183248
 21
24.9421474377
  0
LINE
  5
3A8
100
AcDbEntity
  8
RACCORDO
100
AcDbLine
 62
7
  6
CONTINUOUS
 10
-2.3533337234
 20
19.063255137
 11
-0.7468001604
 21
18.2599883555
  0
LINE
  5
3A9
100
AcDbEntity
  8
RACCORDO
100
AcDbLine
 62
253
  6
CONTINUOUS
 10
-15.7822466339
 20
25.8804433941
 11
-14.1764701717
 21
25.077555163
  0
LINE
  5
3AA
100
AcDbEntity
  8
RACCORDO
100
AcDbLine
 62
253
  6
CONTINUOUS
 10
-2.4179284694
 20
19.1982843119
 11
-0.8121520073
 21
18.3953960808
  0
LINE
  5
3AB
100
AcDbEntity
  8
RACCORDO
100
AcDbLine
 62
253
  6
CONTINUOUS
 10
-0.8121520073
 20
18.6487674746
 11
-2.4179284694
 21
19.4516557057
  0
LINE
  5
3AC
100
AcDbEntity
  8
RACCORDO
100
AcDbLine
 62
253
  6
CONTINUOUS
 10
-14.1764701717
 20
25.3309265568
 11
-15.7822466339
 21
26.1338147879
  0
LINE
  5
3AD
100
AcDbEntity
  8
DRAFT
100
AcDbLine
 62
7
  6
CONTINUOUS
 10
-12.3984186514
 20
24.705463331
 11
-10.2206616484
 21
23.6165848295
  0
LINE
  5
3AE
100
AcDbEntity
  8
DRAFT
100
AcDbLine
 62
7
  6
CONTINUOUS
 10
-3.4181625304
 20
20.2153352704
 11
-2.3370405792
 21
19.6747742948
  0
LINE
  5
3AF
100
AcDbEntity
  8
RACCORDO
100
AcDbLine
 62
7
  6
CONTINUOUS
 10
0.965899513
 20
18.0233042487
 11
1.1073208692
 21
17.9525935706
  0
LINE
  5
3B0
100
AcDbEntity
  8
RACCORDO
100
AcDbLine
 62
253
  6
CONTINUOUS
 10
-0.6353812778
 20
18.9526330528
 11
-2.2432026869
 21
19.7565437573
  0
LINE
  5
3B1
100
AcDbEntity
  8
RACCORDO
100
AcDbLine
 62
253
  6
CONTINUOUS
 10
-13.9996994423
 20
25.634792135
 11
-15.6075208513
 21
26.4387028396
  0
LINE
  5
3B2
100
AcDbEntity
  8
0
100
AcDbLine
 62
252
  6
CONTINUOUS
 10
15.05414286
 20
8.0084377018
 11
15.05414286
 21
7.1883237688
  0
LINE
  5
3B3
100
AcDbEntity
  8
0
100
AcDbLine
 62
252
  6
CONTINUOUS
 10
15.05414286
 20
6.42058099
 11
15.05414286
 21
6.0483320946
  0
LINE
  5
3B4
100
AcDbEntity
  8
0
100
AcDbLine
 62
252
  6
CONTINUOUS
 10
15.05414286
 20
10.9971900972
 11
15.05414286
 21
11.9113595852
  0
LINE
  5
3B5
100
AcDbEntity
  8
0
100
AcDbLine
 62
252
  6
CONTINUOUS
 10
15.3561637273
 20
-6.2392015244
 11
15.3561637273
 21
-5.8100183868
  0
LINE
  5
3B6
100
AcDbEntity
  8
0
100
AcDbLine
 62
252
  6
CONTINUOUS
 10
15.5056020309
 20
7.4220735973
 11
15.5056020309
 21
8.1846877736
  0
LINE
  5
3B7
100
AcDbEntity
  8
0
100
AcDbLine
 62
252
  6
CONTINUOUS
 10
15.6293428223
 20
12.4480599333
 11
15.6293428223
 21
13.0773633551
  0
LINE
  5
3B8
100
AcDbEntity
  8
0
100
AcDbLine
 62
252
  6
CONTINUOUS
 10
15.634510988
 20
5.3900419707
 11
15.634510988
 21
6.0249988063
  0
LINE
  5
3B9
100
AcDbEntity
  8
RACCORDO
100
AcDbLine
 62
7
  6
CONTINUOUS
 10
-0.7232494312
 20
-22.6727709989
 11
-0.1009313992
 21
-21.9277115814
  0
LINE
  5
3BA
100
AcDbEntity
  8
0
100
AcDbLine
 62
253
  6
CONTINUOUS
 10
5.8878849777
 20
-12.2977638829
 11
3.8739228381
 21
-14.1366136944
  0
LINE
  5
3BB
100
AcDbEntity
  8
0
100
AcDbLine
 62
253
  6
CONTINUOUS
 10
3.8739228381
 20
-13.5671924652
 11
5.2601948994
 21
-12.3707534705
  0
LINE
  5
3BC
100
AcDbEntity
  8
RACCORDO
100
AcDbLine
 62
7
  6
CONTINUOUS
 10
-0.1009313992
 20
18.121892558
 11
-0.7232494312
 21
18.2518331405
  0
LINE
  5
3BD
100
AcDbEntity
  8
0
100
AcDbLine
 62
252
  6
CONTINUOUS
 10
15.6076769494
 20
14.6602064388
 11
15.05414286
 21
14.7856069677
  0
LINE
  5
3BE
100
AcDbEntity
  8
RACCORDO
100
AcDbLine
 62
7
  6
CONTINUOUS
 10
-10.1327936828
 20
24.0729412423
 11
-4.3402846147
 21
21.1766867083
  0
LINE
  5
3BF
100
AcDbEntity
  8
RACCORDO
100
AcDbLine
 62
7
  6
CONTINUOUS
 10
1.8144276504
 20
18.298589272
 11
1.0146956266
 21
18.6984552839
  0
LINE
  5
3C0
100
AcDbEntity
  8
RACCORDO
100
AcDbLine
 62
7
  6
CONTINUOUS
 10
-10.8671445344
 20
24.6393753644
 11
-12.3496225378
 21
25.3806143661
  0
LINE
  5
3C1
100
AcDbEntity
  8
DRAFT
100
AcDbLine
 62
7
  6
CONTINUOUS
 10
-9.6407022048
 20
24.5390406729
 11
-3.4181625304
 21
21.4277708357
  0
LINE
  5
3C2
100
AcDbEntity
  8
DRAFT
100
AcDbLine
 62
7
  6
CONTINUOUS
 10
-14.0247642482
 20
27.2506869369
 11
-12.3984186514
 21
26.4375141385
  0
LINE
  5
3C3
100
AcDbEntity
  8
DRAFT
100
AcDbLine
 62
7
  6
CONTINUOUS
 10
-0.6604460837
 20
20.5685278547
 11
0.965899513
 21
19.7553550563
  0
LINE
  5
3C4
100
AcDbEntity
  8
DRAFT
100
AcDbLine
 62
7
  6
CONTINUOUS
 10
-8.2971993206
 20
24.5693576236
 11
-3.3474518522
 21
22.0944838894
  0
LINE
  5
3C5
100
AcDbEntity
  8
RACCORDO
100
AcDbLine
 62
253
  6
CONTINUOUS
 10
-13.4903143695
 20
27.5110344035
 11
-11.8701514797
 21
26.7009529586
  0
LINE
  5
3C6
100
AcDbEntity
  8
RACCORDO
100
AcDbLine
 62
253
  6
CONTINUOUS
 10
-0.1259962051
 20
20.8288753212
 11
1.4941666847
 21
20.0187938763
  0
LINE
  5
3C7
100
AcDbEntity
  8
RACCORDO
100
AcDbLine
 62
7
  6
CONTINUOUS
 10
-13.3788967541
 20
27.5173029667
 11
-11.7600191759
 21
26.7078641776
  0
LINE
  5
3C8
100
AcDbEntity
  8
RACCORDO
100
AcDbLine
 62
7
  6
CONTINUOUS
 10
-0.0145785897
 20
20.8351438845
 11
1.6042989885
 21
20.0257050954
  0
LINE
  5
3C9
100
AcDbEntity
  8
DRAFT
100
AcDbLine
 62
7
  6
CONTINUOUS
 10
8.1728512824
 20
19.7826400657
 11
7.4201571984
 21
21.0808453267
  0
LINE
  5
3CA
100
AcDbEntity
  8
ASSI
100
AcDbLine
 62
7
  6
CONTINUOUS
 10
8.1728512824
 20
19.7826400657
 11
7.4201571984
 21
21.0808453267
  0
LINE
  5
3CB
100
AcDbEntity
  8
0
100
AcDbLine
 62
253
  6
CONTINUOUS
 10
7.2442388787
 20
23.5791120998
 11
6.8652357625
 21
24.5742443611
  0
LINE
  5
3CC
100
AcDbEntity
  8
ASSI
100
AcDbLine
 62
253
  6
CONTINUOUS
 10
7.2442388787
 20
23.5791120998
 11
6.8652357625
 21
24.5742443611
  0
LINE
  5
3CD
100
AcDbEntity
  8
0
100
AcDbLine
 62
7
  6
CONTINUOUS
 10
8.457669785
 20
21.9601614429
 11
8.256170427
 21
22.5558858687
  0
LWPOLYLINE
  5
3CE
100
AcDbEntity
  8
RACCORDO
100
AcDbPolyline
 62
7
  6
CONTINUOUS
 90
30
 70
0
 10
16.9444323932
 20
21.8992027184
 10
16.9433394664
 20
21.940347864
 10
16.9413541904
 20
21.9828950869
 10
16.9385184328
 20
22.0255115079
 10
16.9348396643
 20
22.0681766367
 10
16.9303288114
 20
22.1108409392
 10
16.9249938293
 20
22.1534983064
 10
16.9188419594
 20
22.1961409834
 10
16.9118877369
 20
22.23871485
 10
16.9041397577
 20
22.2812133284
 10
16.8956055402
 20
22.3236298304
 10
16.8863034334
 20
22.365908632
 10
16.8762429579
 20
22.4080409644
 10
16.8654317839
 20
22.4500225637
 10
16.8538901156
 20
22.4918030772
 10
16.841629997
 20
22.5333662599
 10
16.828657421
 20
22.5747156137
 10
16.8149854854
 20
22.6158291222
 10
16.8006232856
 20
22.6566970724
 10
16.7855773604
 20
22.6973158979
 10
16.7698572041
 20
22.7376714837
 10
16.7534695999
 20
22.7777567123
 10
16.7364203888
 20
22.8175646348
 10
16.7187183515
 20
22.8570805082
 10
16.7003693371
 20
22.8962959774
 10
16.6813776855
 20
22.9352038308
 10
16.6617501736
 20
22.9737913942
 10
16.6414911521
 20
23.0120495885
 10
16.6206038567
 20
23.0499706811
 10
16.6027809953
 20
23.0812028194
  0
LWPOLYLINE
  5
3CF
100
AcDbEntity
  8
ASSI
100
AcDbPolyline
 62
7
  6
CONTINUOUS
 90
13
 70
0
 10
16.944748398
 20
21.8636633057
 10
16.944418782
 20
21.9007335001
 10
16.9390887531
 20
22.0178709864
 10
16.9274181385
 20
22.1349214731
 10
16.9095682978
 20
22.2519094111
 10
16.8856968701
 20
22.3685458865
 10
16.8560600957
 20
22.4841595682
 10
16.8208068448
 20
22.5986071326
 10
16.7800497201
 20
22.7117342204
 10
16.7341223819
 20
22.8227944666
 10
16.6832533378
 20
22.9314324955
 10
16.6274566441
 20
23.0376915483
 10
16.6027816493
 20
23.0812016912
  0
LINE
  5
3D0
100
AcDbEntity
  8
RACCORDO
100
AcDbLine
 62
7
  6
CONTINUOUS
 10
16.9447484354
 20
21.8637983524
 11
16.9444323932
 21
21.8992027184
  0
LINE
  5
3D1
100
AcDbEntity
  8
ASSI
100
AcDbLine
 62
7
  6
CONTINUOUS
 10
16.9447484349
 20
15.1229245372
 11
16.9447483858
 21
15.1229740781
  0
LINE
  5
3D2
100
AcDbEntity
  8
RACCORDO
100
AcDbLine
 62
7
  6
CONTINUOUS
 10
16.944748445
 20
15.1228913206
 11
16.9447484349
 21
15.1229245372
  0
LINE
  5
3D3
100
AcDbEntity
  8
0
100
AcDbLine
 62
252
  6
CONTINUOUS
 10
15.7829773948
 20
-5.3401031294
 11
15.7829773948
 21
-5.8036207101
  0
LINE
  5
3D4
100
AcDbEntity
  8
0
100
AcDbLine
 62
252
  6
CONTINUOUS
 10
15.9570612018
 20
6.5158317515
 11
15.9570612018
 21
6.8880806469
  0
LINE
  5
3D5
100
AcDbEntity
  8
0
100
AcDbLine
 62
252
  6
CONTINUOUS
 10
15.9570612018
 20
7.6558234257
 11
15.9570612018
 21
8.4869272211
  0
LINE
  5
3D6
100
AcDbEntity
  8
0
100
AcDbLine
 62
252
  6
CONTINUOUS
 10
15.9570612018
 20
13.6419321788
 11
15.9570612018
 21
14.2887959978
  0
LINE
  5
3D7
100
AcDbEntity
  8
RACCORDO
100
AcDbLine
 62
253
  6
CONTINUOUS
 10
16.6640882454
 20
-8.8286093841
 11
16.6640882454
 21
15.3266502642
  0
LINE
  5
3D8
100
AcDbEntity
  8
ASSI
100
AcDbLine
 62
253
  6
CONTINUOUS
 10
16.6640882454
 20
-8.8286093841
 11
16.6640882454
 21
15.3266502642
  0
LINE
  5
3D9
100
AcDbEntity
  8
RACCORDO
100
AcDbLine
 62
253
  6
CONTINUOUS
 10
16.6640882454
 20
18.3190259601
 11
16.6640882454
 21
21.5164708617
  0
LINE
  5
3DA
100
AcDbEntity
  8
ASSI
100
AcDbLine
 62
253
  6
CONTINUOUS
 10
16.6640882454
 20
18.3190259601
 11
16.6640882454
 21
21.5164708617
  0
LINE
  5
3DB
100
AcDbEntity
  8
RACCORDO
100
AcDbLine
 62
7
  6
CONTINUOUS
 10
16.9447484349
 20
19.2172673391
 11
16.9447484423
 21
19.2175376945
  0
LINE
  5
3DC
100
AcDbEntity
  8
RACCORDO
100
AcDbLine
 62
7
  6
CONTINUOUS
 10
16.9447484451
 20
-8.4812801989
 11
16.9447484451
 21
15.1227316121
  0
LINE
  5
3DD
100
AcDbEntity
  8
RACCORDO
100
AcDbLine
 62
7
  6
CONTINUOUS
 10
16.9447484451
 20
19.2176029805
 11
16.9447484451
 21
21.863800047
  0
LINE
  5
3DE
100
AcDbEntity
  8
ASSI
100
AcDbLine
 62
7
  6
CONTINUOUS
 10
16.9447484349
 20
19.2172673391
 11
16.9447484451
 21
21.863800047
  0
LINE
  5
3DF
100
AcDbEntity
  8
ASSI
100
AcDbLine
 62
7
  6
CONTINUOUS
 10
16.9447484077
 20
21.8636633057
 11
16.9447484451
 21
21.863800047
  0
LINE
  5
3E0
100
AcDbEntity
  8
ASSI
100
AcDbLine
 62
7
  6
CONTINUOUS
 10
16.9447484175
 20
-8.4813975568
 11
16.9447484451
 21
15.1227316121
  0
LWPOLYLINE
  5
3E1
100
AcDbEntity
  8
RACCORDO
100
AcDbPolyline
 62
7
  6
CONTINUOUS
 90
35
 70
0
 10
16.9447487008
 20
15.1228828813
 10
16.9447792012
 20
15.1271067156
 10
16.9451612831
 20
15.1384195063
 10
16.9459639405
 20
15.1495277314
 10
16.9471655455
 20
15.160415757
 10
16.948744382
 20
15.1710704157
 10
16.9506788843
 20
15.1814808272
 10
16.9529473103
 20
15.1916360423
 10
16.9555279997
 20
15.2015266417
 10
16.9583998268
 20
15.2111457932
 10
16.9615422571
 20
15.2204884948
 10
16.9649335949
 20
15.2295466276
 10
16.9685508279
 20
15.2383103222
 10
16.9723750568
 20
15.246780529
 10
16.976383633
 20
15.2549497577
 10
16.9805460069
 20
15.262797801
 10
16.9848400364
 20
15.2703239493
 10
16.9892449443
 20
15.2775298813
 10
16.9937296789
 20
15.2844018366
 10
16.9982716902
 20
15.2909415508
 10
17.0028513352
 20
15.2971547752
 10
17.0074405232
 20
15.3030361667
 10
17.0120158768
 20
15.3085878223
 10
17.0165610599
 20
15.3138201798
 10
17.0210587606
 20
15.3187415295
 10
17.0254869994
 20
15.3233547903
 10
17.0298325856
 20
15.3276718275
 10
17.0340931501
 20
15.3317134121
 10
17.0382559496
 20
15.3354884794
 10
17.0423039622
 20
15.3390017254
 10
17.0462299097
 20
15.3422658776
 10
17.0500204333
 20
15.345287703
 10
17.0536617736
 20
15.3480734316
 10
17.0571467225
 20
15.3506338706
 10
17.060462346
 20
15.3529750252
  0
LWPOLYLINE
  5
3E2
100
AcDbEntity
  8
ASSI
100
AcDbPolyline
 62
7
  6
CONTINUOUS
 90
11
 70
0
 10
16.9447486414
 20
15.1229655939
 10
16.9464377494
 20
15.1542813426
 10
16.951933269
 20
15.1873052496
 10
16.9610789001
 20
15.2191748848
 10
16.9732065957
 20
15.2485301619
 10
16.9878262229
 20
15.2752615055
 10
17.0042974979
 20
15.2990437793
 10
17.0209788553
 20
15.3186562172
 10
17.0365847471
 20
15.3339931471
 10
17.0507046053
 20
15.345819969
 10
17.0628197809
 20
15.3545835523
  0
LINE
  5
3E3
100
AcDbEntity
  8
0
100
AcDbLine
 62
252
  6
CONTINUOUS
 10
13.502682821
 20
-8.1369766528
 11
14.220288286
 21
-6.6127266817
  0
LINE
  5
3E4
100
AcDbEntity
  8
DRAFT
100
AcDbLine
 62
7
  6
CONTINUOUS
 10
8.1728512824
 20
-14.184572241
 11
7.4201571984
 21
-14.7300834181
  0
LINE
  5
3E5
100
AcDbEntity
  8
ASSI
100
AcDbLine
 62
7
  6
CONTINUOUS
 10
8.1728512824
 20
-14.184572241
 11
7.4201571984
 21
-14.7300834181
  0
LINE
  5
3E6
100
AcDbEntity
  8
RACCORDO
100
AcDbLine
 62
7
  6
CONTINUOUS
 10
15.9070401938
 20
-10.0946057427
 11
8.1728512824
 21
-14.184572241
  0
LINE
  5
3E7
100
AcDbEntity
  8
ASSI
100
AcDbLine
 62
7
  6
CONTINUOUS
 10
15.9070401938
 20
-10.0946057427
 11
8.1728512824
 21
-14.184572241
  0
LINE
  5
3E8
100
AcDbEntity
  8
DRAFT
100
AcDbLine
 62
7
  6
CONTINUOUS
 10
2.0619150238
 20
-17.563610144
 11
7.4201571984
 21
-14.7300834181
  0
LINE
  5
3E9
100
AcDbEntity
  8
ASSI
100
AcDbLine
 62
7
  6
CONTINUOUS
 10
2.0619150238
 20
-17.563610144
 11
7.4201571984
 21
-14.7300834181
  0
LINE
  5
3EA
100
AcDbEntity
  8
RACCORDO
100
AcDbLine
 62
253
  6
CONTINUOUS
 10
2.0619150238
 20
-16.5207060745
 11
16.6640882454
 21
-8.8286093841
  0
LINE
  5
3EB
100
AcDbEntity
  8
ASSI
100
AcDbLine
 62
253
  6
CONTINUOUS
 10
2.0619150238
 20
-16.5207060745
 11
16.6640882454
 21
-8.8286093841
  0
LINE
  5
3EC
100
AcDbEntity
  8
RACCORDO
100
AcDbLine
 62
253
  6
CONTINUOUS
 10
2.0619150238
 20
-17.3200240103
 11
16.2499377698
 21
-9.8460924831
  0
LINE
  5
3ED
100
AcDbEntity
  8
ASSI
100
AcDbLine
 62
253
  6
CONTINUOUS
 10
2.0619150238
 20
-17.3200240103
 11
16.2499377698
 21
-9.8460924831
  0
LINE
  5
3EE
100
AcDbEntity
  8
RACCORDO
100
AcDbLine
 62
253
  6
CONTINUOUS
 10
2.0619150238
 20
-17.8372366877
 11
6.0900571491
 21
-15.8153335041
  0
LINE
  5
3EF
100
AcDbEntity
  8
RACCORDO
100
AcDbLine
 62
7
  6
CONTINUOUS
 10
2.0619150238
 20
-17.8389047685
 11
6.0396780949
 21
-15.8422890666
  0
LINE
  5
3F0
100
AcDbEntity
  8
RACCORDO
100
AcDbLine
 62
253
  6
CONTINUOUS
 10
2.0619150238
 20
-17.5994316569
 11
6.7541555587
 21
-15.27204576
  0
LINE
  5
3F1
100
AcDbEntity
  8
RACCORDO
100
AcDbLine
 62
253
  6
CONTINUOUS
 10
2.0619150238
 20
-17.7213063847
 11
6.8383071263
 21
-15.3521806899
  0
LINE
  5
3F2
100
AcDbEntity
  8
RACCORDO
100
AcDbLine
 62
7
  6
CONTINUOUS
 10
-13.4652495636
 20
24.8040516402
 11
-14.0875675957
 21
24.9339922227
  0
LWPOLYLINE
  5
3F3
100
AcDbEntity
  8
RACCORDO
100
AcDbPolyline
 62
7
  6
CONTINUOUS
 90
49
 70
0
 10
-3.4396610232
 20
24.1279201231
 10
-3.4629316252
 20
24.1361129626
 10
-3.4864976001
 20
24.1438889524
 10
-3.5103529596
 20
24.1512545568
 10
-3.5344797056
 20
24.1582115651
 10
-3.5588599539
 20
24.1647621144
 10
-3.5834871286
 20
24.1709106808
 10
-3.608343344
 20
24.1766583285
 10
-3.6334112621
 20
24.1820065023
 10
-3.6586843949
 20
24.1869583118
 10
-3.6841453894
 20
24.1915143979
 10
-3.7097767193
 20
24.1956755528
 10
-3.7355709605
 20
24.1994436864
 10
-3.7615105647
 20
24.2028191129
 10
-3.7875784011
 20
24.2058022895
 10
-3.8137670868
 20
24.2083943457
 10
-3.840059059
 20
24.2105953959
 10
-3.8664373398
 20
24.2124056013
 10
-3.8928950151
 20
24.2138254548
 10
-3.9194148603
 20
24.2148549071
 10
-3.9459796227
 20
24.2154938227
 10
-3.9725821449
 20
24.2157420673
 10
-3.9992052433
 20
24.2155994154
 10
-4.0258315645
 20
24.2150654983
 10
-4.052453725
 20
24.2141396081
 10
-4.0790545988
 20
24.2128213177
 10
-4.1056165829
 20
24.2111100379
 10
-4.1321318507
 20
24.2090045078
 10
-4.1585831031
 20
24.2065040724
 10
-4.184952585
 20
24.2036079107
 10
-4.2112323015
 20
24.2003141541
 10
-4.2374062364
 20
24.1966216234
 10
-4.2634548611
 20
24.1925293932
 10
-4.2893657524
 20
24.1880356452
 10
-4.3151224702
 20
24.1831389539
 10
-4.3407055415
 20
24.1778382459
 10
-4.3660992598
 20
24.1721319638
 10
-4.3912857265
 20
24.166018737
 10
-4.416246804
 20
24.1594970886
 10
-4.4409680235
 20
24.1525646954
 10
-4.4654314907
 20
24.1452196551
 10
-4.4896188957
 20
24.1374600998
 10
-4.5135167528
 20
24.1292825434
 10
-4.5371062225
 20
24.1206845616
 10
-4.5603696849
 20
24.1116631589
 10
-4.5832972112
 20
24.1022117846
 10
-4.6058735035
 20
24.0923248355
 10
-4.628075219
 20
24.082000184
 10
-4.6436543204
 20
24.0743746569
  0
LINE
  5
3F4
100
AcDbEntity
  8
ASSI
100
AcDbLine
 62
7
  6
CONTINUOUS
 10
-3.4059568197
 20
24.1150845397
 11
-3.4592082758
 21
24.1348370323
  0
LWPOLYLINE
  5
3F5
100
AcDbEntity
  8
RACCORDO
100
AcDbPolyline
 62
7
  6
CONTINUOUS
 90
3
 70
0
 10
-3.4061285432
 20
24.1151532737
 10
-3.41669965
 20
24.1193054884
 10
-3.4396610232
 20
24.1279201231
  0
LINE
  5
3F6
100
AcDbEntity
  8
RACCORDO
100
AcDbLine
 62
7
  6
CONTINUOUS
 10
-2.0332898719
 20
22.742201006
 11
-4.6202440584
 21
24.0356780993
  0
LINE
  5
3F7
100
AcDbEntity
  8
ASSI
100
AcDbLine
 62
7
  6
CONTINUOUS
 10
-2.0332898719
 20
22.742201006
 11
-4.6202440584
 21
24.0356780993
  0
LINE
  5
3F8
100
AcDbEntity
  8
RACCORDO
100
AcDbLine
 62
253
  6
CONTINUOUS
 10
-1.3923266771
 20
23.0581155117
 11
-3.4852389081
 21
24.1045716272
  0
LINE
  5
3F9
100
AcDbEntity
  8
ASSI
100
AcDbLine
 62
253
  6
CONTINUOUS
 10
-1.3923266771
 20
23.0581155117
 11
-3.4852389081
 21
24.1045716272
  0
LINE
  5
3FA
100
AcDbEntity
  8
RACCORDO
100
AcDbLine
 62
7
  6
CONTINUOUS
 10
-1.3415632526
 20
23.0831355164
 11
-3.4009900355
 21
24.1128489079
  0
LINE
  5
3FB
100
AcDbEntity
  8
ASSI
100
AcDbLine
 62
7
  6
CONTINUOUS
 10
-1.3415632526
 20
23.0831355164
 11
-3.4009900355
 21
24.1128489079
  0
LINE
  5
3FC
100
AcDbEntity
  8
0
100
AcDbLine
 62
7
  6
CONTINUOUS
 10
-0.8297761075
 20
23.3353824228
 11
-3.6302945647
 21
24.7356416514
  0
LINE
  5
3FD
100
AcDbEntity
  8
DRAFT
100
AcDbLine
 62
7
  6
CONTINUOUS
 10
-3.9838479553
 20
25.464976536
 11
-3.6302945647
 21
25.2881998407
  0
LINE
  5
3FE
100
AcDbEntity
  8
ASSI
100
AcDbLine
 62
7
  6
CONTINUOUS
 10
18.6155609421
 20
19.1902993819
 11
18.6128059447
 21
19.2347972514
  0
LWPOLYLINE
  5
3FF
100
AcDbEntity
  8
RACCORDO
100
AcDbPolyline
 62
7
  6
CONTINUOUS
 90
4
 70
0
 10
18.6155812177
 20
19.1882358721
 10
18.6152086635
 20
19.201770696
 10
18.6143839431
 20
19.2165849891
 10
18.613144571
 20
19.2314265453
  0
LINE
  5
400
100
AcDbEntity
  8
RACCORDO
100
AcDbLine
 62
7
  6
CONTINUOUS
 10
18.6156618349
 20
19.1800972064
 11
18.6155812177
 21
19.1882358721
  0
LINE
  5
401
100
AcDbEntity
  8
ASSI
100
AcDbLine
 62
7
  6
CONTINUOUS
 10
18.6156618072
 20
19.1800339996
 11
18.6155609421
 21
19.1902993819
  0
LINE
  5
402
100
AcDbEntity
  8
RACCORDO
100
AcDbLine
 62
253
  6
CONTINUOUS
 10
18.5314638338
 20
19.0758996831
 11
18.5314638338
 21
18.9049702241
  0
LINE
  5
403
100
AcDbEntity
  8
ASSI
100
AcDbLine
 62
253
  6
CONTINUOUS
 10
18.5314638338
 20
19.0758996831
 11
18.5314638338
 21
18.9049702241
  0
LINE
  5
404
100
AcDbEntity
  8
RACCORDO
100
AcDbLine
 62
253
  6
CONTINUOUS
 10
18.5314638338
 20
16.6744300541
 11
18.5314638338
 21
16.5035004356
  0
LINE
  5
405
100
AcDbEntity
  8
ASSI
100
AcDbLine
 62
253
  6
CONTINUOUS
 10
18.5314638338
 20
16.6744300541
 11
18.5314638338
 21
16.5035004356
  0
LINE
  5
406
100
AcDbEntity
  8
RACCORDO
100
AcDbLine
 62
7
  6
CONTINUOUS
 10
18.6156618937
 20
19.1800984387
 11
18.6156618937
 21
18.9904401176
  0
LINE
  5
407
100
AcDbEntity
  8
ASSI
100
AcDbLine
 62
7
  6
CONTINUOUS
 10
18.6156618937
 20
19.1800984387
 11
18.6156618937
 21
18.9904401176
  0
LINE
  5
408
100
AcDbEntity
  8
RACCORDO
100
AcDbLine
 62
7
  6
CONTINUOUS
 10
18.6156618937
 20
16.7669989358
 11
18.6156618937
 21
16.6076991908
  0
LINE
  5
409
100
AcDbEntity
  8
ASSI
100
AcDbLine
 62
7
  6
CONTINUOUS
 10
18.6156618937
 20
16.7680766274
 11
18.6156618638
 21
16.6076322309
  0
LWPOLYLINE
  5
40A
100
AcDbEntity
  8
RACCORDO
100
AcDbPolyline
 62
7
  6
CONTINUOUS
 90
38
 70
0
 10
16.3723440802
 20
-9.7634536405
 10
16.3999375578
 20
-9.7409932111
 10
16.4270108953
 20
-9.7177817918
 10
16.453551101
 20
-9.6938254641
 10
16.4795595744
 20
-9.6691165927
 10
16.505016434
 20
-9.6436664979
 10
16.5299023533
 20
-9.617486966
 10
16.5542181206
 20
-9.590568085
 10
16.5779448125
 20
-9.5629204395
 10
16.6010623308
 20
-9.5345571945
 10
16.623568096
 20
-9.5054696018
 10
16.6454432999
 20
-9.4756682894
 10
16.6666684668
 20
-9.4451665707
 10
16.6872386206
 20
-9.4139567255
 10
16.7071347547
 20
-9.3820506224
 10
16.726338754
 20
-9.3494602681
 10
16.7448457274
 20
-9.3161750873
 10
16.7626353967
 20
-9.2822101643
 10
16.7796917839
 20
-9.2475737361
 10
16.7960142137
 20
-9.2122411635
 10
16.8115876694
 20
-9.1762132898
 10
16.8263888484
 20
-9.1395103217
 10
16.8404033472
 20
-9.1021331458
 10
16.8536181632
 20
-9.0640770342
 10
16.8660096791
 20
-9.0253671232
 10
16.8775511996
 20
-8.9860474262
 10
16.8882286423
 20
-8.9461281183
 10
16.8980276013
 20
-8.9056202948
 10
16.9069273446
 20
-8.8645684109
 10
16.9149172314
 20
-8.8229807891
 10
16.9219855799
 20
-8.7808694453
 10
16.9281163528
 20
-8.7382835122
 10
16.9333013575
 20
-8.6952323351
 10
16.9375318863
 20
-8.6517259418
 10
16.9407969503
 20
-8.607813064
 10
16.9430896646
 20
-8.5635150526
 10
16.9444045673
 20
-8.5188289418
 10
16.9447484354
 20
-8.4812813324
  0
LWPOLYLINE
  5
40B
100
AcDbEntity
  8
ASSI
100
AcDbPolyline
 62
7
  6
CONTINUOUS
 90
15
 70
0
 10
16.3250877329
 20
-9.7993077491
 10
16.4033493076
 20
-9.7381334705
 10
16.480207925
 20
-9.668484325
 10
16.5524654128
 20
-9.5925549563
 10
16.6196934278
 20
-9.5105869645
 10
16.6815957318
 20
-9.4226899748
 10
16.7377776692
 20
-9.3291195055
 10
16.7878239217
 20
-9.230257859
 10
16.8314663489
 20
-9.1262881269
 10
16.8684223935
 20
-9.0174322807
 10
16.8983855203
 20
-8.9040560809
 10
16.9211164311
 20
-8.7863905617
 10
16.9363827184
 20
-8.6646165488
 10
16.9439345617
 20
-8.5389733125
 10
16.9447484078
 20
-8.4813975568
  0
LWPOLYLINE
  5
40C
100
AcDbEntity
  8
RACCORDO
100
AcDbPolyline
 62
7
  6
CONTINUOUS
 90
3
 70
0
 10
16.324516379
 20
-9.7997223515
 10
16.3442585072
 20
-9.7851454698
 10
16.3723440802
 20
-9.7634536405
  0
LINE
  5
40D
100
AcDbEntity
  8
RACCORDO
100
AcDbLine
 62
253
  6
CONTINUOUS
 10
15.9070401938
 20
-10.0946057427
 11
16.2499377698
 21
-9.8460924831
  0
LINE
  5
40E
100
AcDbEntity
  8
ASSI
100
AcDbLine
 62
253
  6
CONTINUOUS
 10
15.9070401938
 20
-10.0946057427
 11
16.2499377698
 21
-9.8460924831
  0
LINE
  5
40F
100
AcDbEntity
  8
RACCORDO
100
AcDbLine
 62
7
  6
CONTINUOUS
 10
15.98338949
 20
-10.0469523304
 11
16.3245053638
 21
-9.7997303503
  0
LINE
  5
410
100
AcDbEntity
  8
ASSI
100
AcDbLine
 62
7
  6
CONTINUOUS
 10
15.98338949
 20
-10.0469523304
 11
16.3250877402
 21
-9.7993077592
  0
LINE
  5
411
100
AcDbEntity
  8
ASSI
100
AcDbLine
 62
7
  6
CONTINUOUS
 10
0.400214088
 20
-20.9776903901
 11
-0.4129587103
 21
-21.5065615206
  0
LINE
  5
412
100
AcDbEntity
  8
RACCORDO
100
AcDbLine
 62
253
  6
CONTINUOUS
 10
-3.9029183705
 20
-22.3494252825
 11
0.2557029508
 21
-19.8988182757
  0
LINE
  5
413
100
AcDbEntity
  8
RACCORDO
100
AcDbLine
 62
7
  6
CONTINUOUS
 10
0.117198643
 20
-20.2921284972
 11
-4.0477969428
 21
-22.7464915681
  0
LINE
  5
414
100
AcDbEntity
  8
RACCORDO
100
AcDbLine
 62
253
  6
CONTINUOUS
 10
1.3548082426
 20
-20.6659677724
 11
2.0619150238
 21
-20.3048566926
  0
LINE
  5
415
100
AcDbEntity
  8
RACCORDO
100
AcDbLine
 62
7
  6
CONTINUOUS
 10
1.2648442746
 20
-20.854777849
 11
1.9719510567
 21
-20.4936667687
  0
LINE
  5
416
100
AcDbEntity
  8
RACCORDO
100
AcDbLine
 62
7
  6
CONTINUOUS
 10
1.2648394686
 20
-20.8547803039
 11
1.2628318717
 21
-20.8557840113
  0
LINE
  5
417
100
AcDbEntity
  8
RACCORDO
100
AcDbLine
 62
253
  6
CONTINUOUS
 10
-0.4129587103
 20
-21.5309570259
 11
1.3548082426
 21
-20.6659677724
  0
LINE
  5
418
100
AcDbEntity
  8
RACCORDO
100
AcDbLine
 62
7
  6
CONTINUOUS
 10
-0.5049396293
 20
-21.7207754901
 11
1.262827325
 21
-20.855786236
  0
LWPOLYLINE
  5
419
100
AcDbEntity
  8
ASSI
100
AcDbPolyline
 62
7
  6
CONTINUOUS
 90
6
 70
0
 10
2.3267692835
 20
24.0057670031
 10
2.3075719774
 20
24.0066763013
 10
2.2376965154
 20
24.0124351056
 10
2.1699120629
 20
24.0204395692
 10
2.105423097
 20
24.0304110245
 10
2.0827475932
 20
24.0347720652
  0
LWPOLYLINE
  5
41A
100
AcDbEntity
  8
RACCORDO
100
AcDbPolyline
 62
7
  6
CONTINUOUS
 90
14
 70
0
 10
2.3263688058
 20
24.0055710446
 10
2.3139583522
 20
24.0062721126
 10
2.2929313947
 20
24.0076793643
 10
2.2720524078
 20
24.0092953056
 10
2.251359644
 20
24.0111141308
 10
2.2308715345
 20
24.0131310834
 10
2.2106063204
 20
24.0153410088
 10
2.1906009503
 20
24.0177358021
 10
2.1708721027
 20
24.020308922
 10
2.1514365895
 20
24.0230535981
 10
2.1323301895
 20
24.0259594974
 10
2.113567505
 20
24.0290184628
 10
2.0951633004
 20
24.032222153
 10
2.0827475932
 20
24.0345216875
  0
LWPOLYLINE
  5
41B
100
AcDbEntity
  8
ASSI
100
AcDbPolyline
 62
7
  6
CONTINUOUS
 90
13
 70
0
 10
-3.5331499546
 20
24.157840621
 10
-3.609726244
 20
24.176964927
 10
-3.6885142896
 20
24.1922535158
 10
-3.769147364
 20
24.2037351448
 10
-3.8510888091
 20
24.2114005164
 10
-3.9338243284
 20
24.2152500597
 10
-4.0169433111
 20
24.2152872798
 10
-4.0999186961
 20
24.2115105524
 10
-4.1822226017
 20
24.203926621
 10
-4.2634519367
 20
24.1925298763
 10
-4.3430939382
 20
24.1773206554
 10
-4.4206311978
 20
24.1583025169
 10
-4.4957455404
 20
24.1354131196
  0
LINE
  5
41C
100
AcDbEntity
  8
0
100
AcDbLine
 62
7
  6
CONTINUOUS
 10
9.4128840285
 20
22.0806535655
 11
8.9631393672
 21
22.2024013986
  0
LINE
  5
41D
100
AcDbEntity
  8
ASSI
100
AcDbLine
 62
7
  6
CONTINUOUS
 10
-3.4592082758
 20
24.1348370323
 11
-3.5331499546
 21
24.157840621
  0
LINE
  5
41E
100
AcDbEntity
  8
0
100
AcDbLine
 62
7
  6
CONTINUOUS
 10
0.5780395888
 20
24.0292590811
 11
-2.2325100582
 21
25.4345339046
  0
LINE
  5
41F
100
AcDbEntity
  8
DRAFT
100
AcDbLine
 62
7
  6
CONTINUOUS
 10
6.6323685507
 20
21.4747396505
 11
7.4201571984
 21
21.0808453267
  0
LINE
  5
420
100
AcDbEntity
  8
ASSI
100
AcDbLine
 62
7
  6
CONTINUOUS
 10
6.6323685507
 20
21.4747396505
 11
7.4201571984
 21
21.0808453267
  0
LINE
  5
421
100
AcDbEntity
  8
0
100
AcDbLine
 62
7
  6
CONTINUOUS
 10
-0.8725781181
 20
25.508282092
 11
1.3371627701
 21
24.403411648
  0
LINE
  5
422
100
AcDbEntity
  8
0
100
AcDbLine
 62
7
  6
CONTINUOUS
 10
2.0827475932
 20
24.0306192364
 11
2.2285610032
 21
23.9577125314
  0
LINE
  5
423
100
AcDbEntity
  8
RACCORDO
100
AcDbLine
 62
7
  6
CONTINUOUS
 10
-3.7400358637
 20
27.2052546446
 11
-3.5595838866
 21
27.115028656
  0
LINE
  5
424
100
AcDbEntity
  8
RACCORDO
100
AcDbLine
 62
7
  6
CONTINUOUS
 10
1.8144276504
 20
24.4280228875
 11
1.9948796276
 21
24.337796899
  0
LINE
  5
425
100
AcDbEntity
  8
RACCORDO
100
AcDbLine
 62
253
  6
CONTINUOUS
 10
-4.5526042078
 20
27.784151669
 11
-1.5735143069
 21
26.2946067185
  0
LINE
  5
426
100
AcDbEntity
  8
RACCORDO
100
AcDbLine
 62
253
  6
CONTINUOUS
 10
2.6691263803
 20
24.1732863749
 11
5.6482162812
 21
22.6837414245
  0
LINE
  5
427
100
AcDbEntity
  8
RACCORDO
100
AcDbLine
 62
7
  6
CONTINUOUS
 10
-4.3589611959
 20
27.9332011312
 11
-1.1324713038
 21
26.3199561851
  0
LINE
  5
428
100
AcDbEntity
  8
RACCORDO
100
AcDbLine
 62
7
  6
CONTINUOUS
 10
3.1101693833
 20
24.1986358415
 11
6.3366592755
 21
22.5853908954
  0
LINE
  5
429
100
AcDbEntity
  8
0
100
AcDbLine
 62
7
  6
CONTINUOUS
 10
8.4681646203
 20
21.9549140252
 11
7.7611956802
 21
22.3083984953
  0
LINE
  5
42A
100
AcDbEntity
  8
0
100
AcDbLine
 62
7
  6
CONTINUOUS
 10
8.4681646203
 20
21.9549140252
 11
8.5926629989
 21
21.839937685
  0
LINE
  5
42B
100
AcDbEntity
  8
RACCORDO
100
AcDbLine
 62
7
  6
CONTINUOUS
 10
0.965899513
 20
-22.5066846484
 11
1.4941666847
 21
-22.2356735897
  0
LINE
  5
42C
100
AcDbEntity
  8
RACCORDO
100
AcDbLine
 62
7
  6
CONTINUOUS
 10
-0.6353812778
 20
-23.286719248
 11
0.965899513
 21
-22.5066846484
  0
LINE
  5
42D
100
AcDbEntity
  8
0
100
AcDbLine
 62
7
  6
CONTINUOUS
 10
-2.2325100582
 20
25.4345339046
 11
-0.8725781181
 21
25.508282092
  0
LINE
  5
42E
100
AcDbEntity
  8
0
100
AcDbLine
 62
7
  6
CONTINUOUS
 10
8.9631393672
 20
22.2024013986
 11
8.256170427
 21
22.5558858687
  0
LINE
  5
42F
100
AcDbEntity
  8
DRAFT
100
AcDbLine
 62
7
  6
CONTINUOUS
 10
7.4910938235
 20
23.280636173
 11
7.9249649766
 21
23.0637005965
  0
LINE
  5
430
100
AcDbEntity
  8
ASSI
100
AcDbLine
 62
7
  6
CONTINUOUS
 10
7.4910938235
 20
23.280636173
 11
7.9249649766
 21
23.0637005965
  0
LINE
  5
431
100
AcDbEntity
  8
ASSI
100
AcDbLine
 62
7
  6
CONTINUOUS
 10
18.6062197665
 20
19.2801149043
 11
18.5958021117
 21
19.3256652949
  0
LWPOLYLINE
  5
432
100
AcDbEntity
  8
RACCORDO
100
AcDbPolyline
 62
7
  6
CONTINUOUS
 90
4
 70
0
 10
18.6069885557
 20
19.2759151581
 10
18.6041408165
 20
19.2906900821
 10
18.6009088715
 20
19.305396771
 10
18.5972969872
 20
19.3200347024
  0
LINE
  5
433
100
AcDbEntity
  8
ASSI
100
AcDbLine
 62
7
  6
CONTINUOUS
 10
18.6128059447
 20
19.2347972514
 11
18.6062197665
 21
19.2801149043
  0
LWPOLYLINE
  5
434
100
AcDbEntity
  8
RACCORDO
100
AcDbPolyline
 62
7
  6
CONTINUOUS
 90
4
 70
0
 10
18.613144571
 20
19.2314265453
 10
18.6114943125
 20
19.2462813487
 10
18.6094408215
 20
19.2611114905
 10
18.6069885557
 20
19.2759151581
  0
LINE
  5
435
100
AcDbEntity
  8
DRAFT
100
AcDbLine
 62
7
  6
CONTINUOUS
 10
11.4646915432
 20
25.2630999507
 11
14.5732444829
 21
23.7088234808
  0
LINE
  5
436
100
AcDbEntity
  8
ASSI
100
AcDbLine
 62
7
  6
CONTINUOUS
 10
11.4646915432
 20
25.2630999507
 11
14.5732444829
 21
23.7088234808
  0
LINE
  5
437
100
AcDbEntity
  8
RACCORDO
100
AcDbLine
 62
253
  6
CONTINUOUS
 10
16.2499377698
 20
22.9481044364
 11
15.9070401938
 21
23.539515272
  0
LINE
  5
438
100
AcDbEntity
  8
ASSI
100
AcDbLine
 62
253
  6
CONTINUOUS
 10
16.2499377698
 20
22.9481044364
 11
15.9070401938
 21
23.539515272
  0
LINE
  5
439
100
AcDbEntity
  8
RACCORDO
100
AcDbLine
 62
7
  6
CONTINUOUS
 10
16.6027810185
 20
23.0812027938
 11
16.3397340822
 21
23.5348916482
  0
LINE
  5
43A
100
AcDbEntity
  8
ASSI
100
AcDbLine
 62
7
  6
CONTINUOUS
 10
16.6027810185
 20
23.0812027938
 11
16.3397340822
 21
23.5348916482
  0
LINE
  5
43B
100
AcDbEntity
  8
ASSI
100
AcDbLine
 62
7
  6
CONTINUOUS
 10
18.5653114687
 20
19.4119977904
 11
18.5590747573
 21
19.4257554385
  0
LWPOLYLINE
  5
43C
100
AcDbEntity
  8
RACCORDO
100
AcDbPolyline
 62
7
  6
CONTINUOUS
 90
3
 70
0
 10
18.5680873891
 20
19.4055749257
 10
18.562047006
 20
19.4193089924
 10
18.5590769246
 20
19.4257508993
  0
LINE
  5
43D
100
AcDbEntity
  8
ASSI
100
AcDbLine
 62
7
  6
CONTINUOUS
 10
18.582021889
 20
19.3698055918
 11
18.5653114687
 21
19.4119977904
  0
LWPOLYLINE
  5
43E
100
AcDbEntity
  8
RACCORDO
100
AcDbPolyline
 62
7
  6
CONTINUOUS
 90
4
 70
0
 10
18.584253595
 20
19.3633940075
 10
18.5791951483
 20
19.3776171337
 10
18.5738029124
 20
19.3916821827
 10
18.5680873891
 20
19.4055749257
  0
LINE
  5
43F
100
AcDbEntity
  8
ASSI
100
AcDbLine
 62
7
  6
CONTINUOUS
 10
18.5958021117
 20
19.3256652949
 11
18.582021889
 21
19.3698055918
  0
LWPOLYLINE
  5
440
100
AcDbEntity
  8
RACCORDO
100
AcDbPolyline
 62
7
  6
CONTINUOUS
 90
4
 70
0
 10
18.5972969872
 20
19.3200347024
 10
18.5933086589
 20
19.3346016344
 10
18.588959359
 20
19.349055131
 10
18.584253595
 20
19.3633940075
  0
LINE
  5
441
100
AcDbEntity
  8
0
100
AcDbLine
 62
253
  6
CONTINUOUS
 10
15.9070401938
 20
23.539515272
 11
15.082724946
 21
23.9516728959
  0
LINE
  5
442
100
AcDbEntity
  8
ASSI
100
AcDbLine
 62
253
  6
CONTINUOUS
 10
15.9070401938
 20
23.539515272
 11
15.082724946
 21
23.9516728959
  0
LINE
  5
443
100
AcDbEntity
  8
RACCORDO
100
AcDbLine
 62
253
  6
CONTINUOUS
 10
10.4204113234
 20
26.2828297071
 11
9.3805760415
 21
26.8027473481
  0
LINE
  5
444
100
AcDbEntity
  8
ASSI
100
AcDbLine
 62
253
  6
CONTINUOUS
 10
10.4204113234
 20
26.2828297071
 11
9.3805760415
 21
26.8027473481
  0
LINE
  5
445
100
AcDbEntity
  8
RACCORDO
100
AcDbLine
 62
7
  6
CONTINUOUS
 10
16.2758322668
 20
23.5949190053
 11
15.4306920604
 21
24.0174891085
  0
LINE
  5
446
100
AcDbEntity
  8
ASSI
100
AcDbLine
 62
7
  6
CONTINUOUS
 10
16.2758322668
 20
23.5949190053
 11
15.4306920604
 21
24.0174891085
  0
LINE
  5
447
100
AcDbEntity
  8
RACCORDO
100
AcDbLine
 62
7
  6
CONTINUOUS
 10
10.9421899701
 20
26.2617401537
 11
9.815448922
 21
26.8251106777
  0
LINE
  5
448
100
AcDbEntity
  8
ASSI
100
AcDbLine
 62
7
  6
CONTINUOUS
 10
10.9421899701
 20
26.2617401537
 11
9.815448922
 21
26.8251106777
  0
ARC
  5
449
100
AcDbEntity
  8
RACCORDO
100
AcDbCircle
 62
7
  6
CONTINUOUS
 10
5.5666976455
 20
-14.8977755757
 40
1.0563227358
100
AcDbArc
 50
296.597158829
 51
299.6997032394
  0
ARC
  5
44A
100
AcDbEntity
  8
ASSI
100
AcDbCircle
 62
253
  6
CONTINUOUS
 10
2.7969109753
 20
25.511012288
 40
1.5876791898
100
AcDbArc
 50
292.8106207021
 51
294.7757785448
  0
ARC
  5
44B
100
AcDbEntity
  8
RACCORDO
100
AcDbCircle
 62
253
  6
CONTINUOUS
 10
2.8011248397
 20
25.5014551062
 40
1.5772358146
100
AcDbArc
 50
292.8041140934
 51
294.7822851536
  0
ARC
  5
44C
100
AcDbEntity
  8
ASSI
100
AcDbCircle
 62
7
  6
CONTINUOUS
 10
-4.699115749
 20
23.8780036187
 40
0.1763008378
100
AcDbArc
 50
63.4249348371
 51
65.3384310309
  0
ARC
  5
44D
100
AcDbEntity
  8
RACCORDO
100
AcDbCircle
 62
7
  6
CONTINUOUS
 10
-3.4302737419
 20
24.0218466726
 40
0.0983798774
100
AcDbArc
 50
100.7431816814
 51
103.4148416946
  0
ARC
  5
44E
100
AcDbEntity
  8
ASSI
100
AcDbCircle
 62
7
  6
CONTINUOUS
 10
-3.4309628049
 20
24.0528452078
 40
0.0670748294
100
AcDbArc
 50
68.1111482487
 51
72.5327630342
  0
ARC
  5
44F
100
AcDbEntity
  8
RACCORDO
100
AcDbCircle
 62
7
  6
CONTINUOUS
 10
-3.4308743813
 20
24.0530799936
 40
0.0668240067
100
AcDbArc
 50
68.2650433429
 51
69.9659894197
  0
ARC
  5
450
100
AcDbEntity
  8
RACCORDO
100
AcDbCircle
 62
7
  6
CONTINUOUS
 10
-3.4308600116
 20
24.0531279816
 40
0.0667742175
100
AcDbArc
 50
63.4350911692
 51
65.6162999139
  0
ARC
  5
451
100
AcDbEntity
  8
ASSI
100
AcDbCircle
 62
7
  6
CONTINUOUS
 10
-3.4308532465
 20
24.0531400861
 40
0.0667603656
100
AcDbArc
 50
63.4356384169
 51
68.1040484865
  0
ARC
  5
452
100
AcDbEntity
  8
ASSI
100
AcDbCircle
 62
7
  6
CONTINUOUS
 10
-4.6778324475
 20
23.988439979
 40
0.0615846267
100
AcDbArc
 50
107.8636254336
 51
111.7003171031
  0
ARC
  5
453
100
AcDbEntity
  8
ASSI
100
AcDbCircle
 62
7
  6
CONTINUOUS
 10
-4.6785729917
 20
23.9903009287
 40
0.0595817439
100
AcDbArc
 50
111.7003435369
 51
116.552586433
  0
ARC
  5
454
100
AcDbEntity
  8
RACCORDO
100
AcDbCircle
 62
7
  6
CONTINUOUS
 10
-4.6790770299
 20
23.9913961168
 40
0.0583767695
100
AcDbArc
 50
116.5905652312
 51
130.3803902665
  0
ARC
  5
455
100
AcDbEntity
  8
ASSI
100
AcDbCircle
 62
7
  6
CONTINUOUS
 10
-4.6790770299
 20
23.9913961168
 40
0.0583767695
100
AcDbArc
 50
116.5905652312
 51
130.3803902665
  0
ARC
  5
456
100
AcDbEntity
  8
ASSI
100
AcDbCircle
 62
253
  6
CONTINUOUS
 10
15.7424670397
 20
-9.1604171565
 40
0.8536392834
100
AcDbArc
 50
315.6914581725
 51
319.4428190876
  0
ARC
  5
457
100
AcDbEntity
  8
RACCORDO
100
AcDbCircle
 62
253
  6
CONTINUOUS
 10
15.767123363
 20
-9.1845027889
 40
0.819171156
100
AcDbArc
 50
312.1676557881
 51
315.6923269026
  0
ARC
  5
458
100
AcDbEntity
  8
RACCORDO
100
AcDbCircle
 62
253
  6
CONTINUOUS
 10
15.7881926714
 20
-9.2083545887
 40
0.7873488158
100
AcDbArc
 50
305.9058860294
 51
312.1964394673
  0
ARC
  5
459
100
AcDbEntity
  8
RACCORDO
100
AcDbCircle
 62
253
  6
CONTINUOUS
 10
15.9590162496
 20
-9.2948623893
 40
0.6232896174
100
AcDbArc
 50
297.823651383
 51
301.4606620365
  0
ARC
  5
45A
100
AcDbEntity
  8
ASSI
100
AcDbCircle
 62
253
  6
CONTINUOUS
 10
15.9597114335
 20
-9.2961529941
 40
0.6218237434
100
AcDbArc
 50
297.8225069399
 51
305.9197581453
  0
ARC
  5
45B
100
AcDbEntity
  8
RACCORDO
100
AcDbCircle
 62
253
  6
CONTINUOUS
 10
15.9609307488
 20
-9.2980318661
 40
0.6195868561
100
AcDbArc
 50
301.4626156414
 51
305.9303736094
  0
ARC
  5
45C
100
AcDbEntity
  8
DRAFT
100
AcDbCircle
 62
253
  6
CONTINUOUS
 10
16.6946575735
 20
-8.4812808706
 40
0.2500907617
100
AcDbArc
 50
358.951802256
 51
359.999894189
  0
ARC
  5
45D
100
AcDbEntity
  8
ASSI
100
AcDbCircle
 62
253
  6
CONTINUOUS
 10
16.6946650037
 20
-8.4812809243
 40
0.2500833315
100
AcDbArc
 50
359.0987285067
 51
359.9732787157
  0
ARC
  5
45E
100
AcDbEntity
  8
0
100
AcDbCircle
 62
252
  6
CONTINUOUS
 10
10.467690883
 20
13.8380924624
 40
2.7446408524
100
AcDbArc
 50
358.2710255961
 51
1.8000978451
  0
ARC
  5
45F
100
AcDbEntity
  8
0
100
AcDbCircle
 62
252
  6
CONTINUOUS
 10
10.4676909717
 20
10.040475762
 40
2.744640682
100
AcDbArc
 50
358.2710268704
 51
1.8000978697
  0
ARC
  5
460
100
AcDbEntity
  8
0
100
AcDbCircle
 62
253
  6
CONTINUOUS
 10
9.1907770844
 20
18.6481518257
 40
4.5814520376
100
AcDbArc
 50
106.0004233171
 51
106.3315137939
  0
ARC
  5
461
100
AcDbEntity
  8
0
100
AcDbCircle
 62
7
  6
CONTINUOUS
 10
9.8806222317
 20
18.7921499892
 40
4.4493422649
100
AcDbArc
 50
71.1365540201
 51
72.1042384717
  0
ARC
  5
462
100
AcDbEntity
  8
0
100
AcDbCircle
 62
253
  6
CONTINUOUS
 10
10.8639041841
 20
20.9228750867
 40
2.049096124
100
AcDbArc
 50
52.1225417082
 51
53.4160129342
  0
ARC
  5
463
100
AcDbEntity
  8
ASSI
100
AcDbCircle
 62
7
  6
CONTINUOUS
 10
7.6442288776
 20
24.1524767649
 40
1.991514243
100
AcDbArc
 50
229.7182151632
 51
231.0111999613
  0
ARC
  5
464
100
AcDbEntity
  8
ASSI
100
AcDbCircle
 62
7
  6
CONTINUOUS
 10
9.3669681709
 20
25.9279876147
 40
1.0029664321
100
AcDbArc
 50
63.4378149007
 51
67.440735277
  0
ARC
  5
465
100
AcDbEntity
  8
RACCORDO
100
AcDbCircle
 62
7
  6
CONTINUOUS
 10
9.3680570275
 20
25.9302949265
 40
1.0004272256
100
AcDbArc
 50
63.4355951231
 51
67.4476294537
  0
ARC
  5
466
100
AcDbEntity
  8
RACCORDO
100
AcDbCircle
 62
7
  6
CONTINUOUS
 10
9.3682353232
 20
25.9306834238
 40
1.0000000557
100
AcDbArc
 50
67.4485268094
 51
114.7890561381
  0
ARC
  5
467
100
AcDbEntity
  8
ASSI
100
AcDbCircle
 62
7
  6
CONTINUOUS
 10
9.3682455712
 20
25.9308587038
 40
0.9998249722
100
AcDbArc
 50
67.4452163858
 51
110.2991468557
  0
ARC
  5
468
100
AcDbEntity
  8
ASSI
100
AcDbCircle
 62
7
  6
CONTINUOUS
 10
9.3672298465
 20
25.9326330831
 40
0.9978084724
100
AcDbArc
 50
110.2797916614
 51
114.7835793166
  0
ARC
  5
469
100
AcDbEntity
  8
ASSI
100
AcDbCircle
 62
7
  6
CONTINUOUS
 10
7.1325908922
 20
22.6271183553
 40
0.6788973528
100
AcDbArc
 50
180.0109338482
 51
186.276227463
  0
ARC
  5
46A
100
AcDbEntity
  8
0
100
AcDbCircle
 62
7
  6
CONTINUOUS
 10
7.1309966177
 20
22.6270307962
 40
0.6773030672
100
AcDbArc
 50
180.0035526116
 51
186.2836086991
  0
ARC
  5
46B
100
AcDbEntity
  8
RACCORDO
100
AcDbCircle
 62
253
  6
CONTINUOUS
 10
9.6474844196
 20
26.4891545079
 40
0.3756043082
100
AcDbArc
 50
63.4368019994
 51
67.3839912959
  0
ARC
  5
46C
100
AcDbEntity
  8
ASSI
100
AcDbCircle
 62
253
  6
CONTINUOUS
 10
9.6474844196
 20
26.4891545079
 40
0.3756043082
100
AcDbArc
 50
63.4368019994
 51
67.3839912959
  0
ARC
  5
46D
100
AcDbEntity
  8
RACCORDO
100
AcDbCircle
 62
253
  6
CONTINUOUS
 10
9.1053661544
 20
26.4998316192
 40
0.3730791088
100
AcDbArc
 50
110.6649329103
 51
114.7865894953
  0
ARC
  5
46E
100
AcDbEntity
  8
ASSI
100
AcDbCircle
 62
253
  6
CONTINUOUS
 10
9.1050167895
 20
26.5006294359
 40
0.3722083233
100
AcDbArc
 50
114.1358837688
 51
114.7892520315
  0
ARC
  5
46F
100
AcDbEntity
  8
ASSI
100
AcDbCircle
 62
7
  6
CONTINUOUS
 10
14.3307666283
 20
17.4470352324
 40
4.6683962687
100
AcDbArc
 50
25.0781081086
 51
27.4070931455
  0
ARC
  5
470
100
AcDbEntity
  8
RACCORDO
100
AcDbCircle
 62
7
  6
CONTINUOUS
 10
14.6559573257
 20
17.5919064441
 40
4.2014737737
100
AcDbArc
 50
17.7889733503
 51
19.4419015853
  0
ARC
  5
471
100
AcDbEntity
  8
ASSI
100
AcDbCircle
 62
7
  6
CONTINUOUS
 10
14.6643183512
 20
17.595072909
 40
4.1925337686
100
AcDbArc
 50
17.78268988
 51
19.4492775342
  0
ARC
  5
472
100
AcDbEntity
  8
RACCORDO
100
AcDbCircle
 62
7
  6
CONTINUOUS
 10
17.1217112865
 20
17.5384327873
 40
1.6813864845
100
AcDbArc
 50
332.6893020169
 51
334.4145586124
  0
ARC
  5
473
100
AcDbEntity
  8
ASSI
100
AcDbCircle
 62
7
  6
CONTINUOUS
 10
17.1229440009
 20
17.5375764504
 40
1.6798916737
100
AcDbArc
 50
332.725009233
 51
334.516770631
  0
ARC
  5
474
100
AcDbEntity
  8
ASSI
100
AcDbCircle
 62
253
  6
CONTINUOUS
 10
17.0585853907
 20
17.45114734
 40
1.6630000196
100
AcDbArc
 50
336.3777791963
 51
337.8404132333
  0
ARC
  5
475
100
AcDbEntity
  8
RACCORDO
100
AcDbCircle
 62
7
  6
CONTINUOUS
 10
17.1592486288
 20
17.5191956659
 40
1.6392070867
100
AcDbArc
 50
331.5829424896
 51
332.6847607632
  0
ARC
  5
476
100
AcDbEntity
  8
ASSI
100
AcDbCircle
 62
7
  6
CONTINUOUS
 10
17.1608970029
 20
17.5181036326
 40
1.6372347441
100
AcDbArc
 50
331.5888461933
 51
332.7220476916
  0
ARC
  5
477
100
AcDbEntity
  8
RACCORDO
100
AcDbCircle
 62
253
  6
CONTINUOUS
 10
17.1404706015
 20
17.4149240658
 40
1.5734614039
100
AcDbArc
 50
331.850798088
 51
336.3914805659
  0
ARC
  5
478
100
AcDbEntity
  8
ASSI
100
AcDbCircle
 62
253
  6
CONTINUOUS
 10
17.1404706015
 20
17.4149240658
 40
1.5734614039
100
AcDbArc
 50
331.850798088
 51
336.3914805659
  0
ARC
  5
479
100
AcDbEntity
  8
RACCORDO
100
AcDbCircle
 62
7
  6
CONTINUOUS
 10
17.4272649311
 20
17.2738613627
 40
1.4453520438
100
AcDbArc
 50
317.2878261523
 51
318.6713374747
  0
ARC
  5
47A
100
AcDbEntity
  8
ASSI
100
AcDbCircle
 62
7
  6
CONTINUOUS
 10
17.4285308852
 20
17.2727259325
 40
1.4436515837
100
AcDbArc
 50
317.0111948561
 51
318.6719973106
  0
ARC
  5
47B
100
AcDbEntity
  8
ASSI
100
AcDbCircle
 62
7
  6
CONTINUOUS
 10
17.4463429116
 20
17.2560960401
 40
1.4192831364
100
AcDbArc
 50
314.9648273177
 51
317.0119748704
  0
ARC
  5
47C
100
AcDbEntity
  8
ASSI
100
AcDbCircle
 62
7
  6
CONTINUOUS
 10
17.4691836473
 20
17.233068719
 40
1.386849452
100
AcDbArc
 50
311.2054154348
 51
314.9694554931
  0
ARC
  5
47D
100
AcDbEntity
  8
ASSI
100
AcDbCircle
 62
7
  6
CONTINUOUS
 10
17.4973268544
 20
17.2007264929
 40
1.3439770638
100
AcDbArc
 50
303.3961402988
 51
311.2110499176
  0
ARC
  5
47E
100
AcDbEntity
  8
ASSI
100
AcDbCircle
 62
7
  6
CONTINUOUS
 10
17.5136566291
 20
17.1774192688
 40
1.3155301513
100
AcDbArc
 50
301.6278944573
 51
303.3610965592
  0
ARC
  5
47F
100
AcDbEntity
  8
RACCORDO
100
AcDbCircle
 62
253
  6
CONTINUOUS
 10
17.612363333
 20
17.0171633557
 40
1.1273149265
100
AcDbArc
 50
301.6275038252
 51
302.7564503927
  0
ARC
  5
480
100
AcDbEntity
  8
ASSI
100
AcDbCircle
 62
253
  6
CONTINUOUS
 10
17.6128740509
 20
17.0163440883
 40
1.1263495227
100
AcDbArc
 50
301.6272370566
 51
302.270749896
  0
ARC
  5
481
100
AcDbEntity
  8
RACCORDO
100
AcDbCircle
 62
253
  6
CONTINUOUS
 10
17.0727169523
 20
15.1414107502
 40
0.2345463473
100
AcDbArc
 50
98.0034755233
 51
99.7694964687
  0
ARC
  5
482
100
AcDbEntity
  8
RACCORDO
100
AcDbCircle
 62
253
  6
CONTINUOUS
 10
18.3214805438
 20
16.4131211904
 40
0.1974066217
100
AcDbArc
 50
319.5025324829
 51
321.8978371129
  0
ARC
  5
483
100
AcDbEntity
  8
ASSI
100
AcDbCircle
 62
253
  6
CONTINUOUS
 10
18.3214805438
 20
16.4131211904
 40
0.1974066217
100
AcDbArc
 50
319.5025324829
 51
321.8978371129
  0
ARC
  5
484
100
AcDbEntity
  8
RACCORDO
100
AcDbCircle
 62
253
  6
CONTINUOUS
 10
18.3749191358
 20
16.4424809583
 40
0.1848537072
100
AcDbArc
 50
301.5328521007
 51
304.3210726418
  0
ARC
  5
485
100
AcDbEntity
  8
RACCORDO
100
AcDbCircle
 62
253
  6
CONTINUOUS
 10
18.3789345638
 20
16.4370215916
 40
0.1780810065
100
AcDbArc
 50
304.2444496367
 51
318.6553152728
  0
ARC
  5
486
100
AcDbEntity
  8
RACCORDO
100
AcDbCircle
 62
7
  6
CONTINUOUS
 10
18.4816691471
 20
16.7695869072
 40
0.1073980331
100
AcDbArc
 50
295.4533439599
 51
297.6226396587
  0
ARC
  5
487
100
AcDbEntity
  8
ASSI
100
AcDbCircle
 62
7
  6
CONTINUOUS
 10
18.4816691471
 20
16.7695869072
 40
0.1073980331
100
AcDbArc
 50
295.4533439599
 51
297.6226396587
  0
ARC
  5
488
100
AcDbEntity
  8
RACCORDO
100
AcDbCircle
 62
253
  6
CONTINUOUS
 10
18.5404498422
 20
16.6077054293
 40
0.075212042
100
AcDbArc
 50
355.4673712949
 51
359.992507871
  0
ARC
  5
489
100
AcDbEntity
  8
RACCORDO
100
AcDbCircle
 62
7
  6
CONTINUOUS
 10
18.5827138276
 20
18.805008451
 40
0.1123339572
100
AcDbArc
 50
117.1440294397
 51
119.2493149773
  0
ARC
  5
48A
100
AcDbEntity
  8
ASSI
100
AcDbCircle
 62
7
  6
CONTINUOUS
 10
18.5827138276
 20
18.805008451
 40
0.1123339572
100
AcDbArc
 50
117.1440294397
 51
119.2493149773
  0
ARC
  5
48B
100
AcDbEntity
  8
RACCORDO
100
AcDbCircle
 62
253
  6
CONTINUOUS
 10
-196.1854026054
 20
355.1370924962
 40
400.9688795971
100
AcDbArc
 50
302.0620880165
 51
302.3774934571
  0
ARC
  5
48C
100
AcDbEntity
  8
ASSI
100
AcDbCircle
 62
253
  6
CONTINUOUS
 10
-196.1854026054
 20
355.1370924962
 40
400.9688795971
100
AcDbArc
 50
302.0620880165
 51
302.3774934571
  0
ARC
  5
48D
100
AcDbEntity
  8
RACCORDO
100
AcDbCircle
 62
253
  6
CONTINUOUS
 10
-157.2538036177
 20
291.8061122303
 40
326.7894925669
100
AcDbArc
 50
302.2307437586
 51
302.468188598
  0
ARC
  5
48E
100
AcDbEntity
  8
ASSI
100
AcDbCircle
 62
253
  6
CONTINUOUS
 10
-156.8856467447
 20
291.2263388673
 40
326.1027056277
100
AcDbArc
 50
302.2345135822
 51
302.4684616557
  0
ARC
  5
48F
100
AcDbEntity
  8
RACCORDO
100
AcDbCircle
 62
253
  6
CONTINUOUS
 10
141.112853598
 20
-286.0416681714
 40
328.8205092904
100
AcDbArc
 50
111.8878606767
 51
112.2389557423
  0
ARC
  5
490
100
AcDbEntity
  8
ASSI
100
AcDbCircle
 62
253
  6
CONTINUOUS
 10
141.112853598
 20
-286.0416681714
 40
328.8205092904
100
AcDbArc
 50
111.8878606767
 51
112.2389557423
  0
ARC
  5
491
100
AcDbEntity
  8
RACCORDO
100
AcDbCircle
 62
253
  6
CONTINUOUS
 10
275.7551544644
 20
23.4543816525
 40
285.0853490469
100
AcDbArc
 50
182.5211007937
 51
184.00200663
  0
ARC
  5
492
100
AcDbEntity
  8
RACCORDO
100
AcDbCircle
 62
253
  6
CONTINUOUS
 10
270.2418497716
 20
23.1391463179
 40
278.4477339127
100
AcDbArc
 50
182.5105781796
 51
185.9768198223
  0
ARC
  5
493
100
AcDbEntity
  8
RACCORDO
100
AcDbCircle
 62
253
  6
CONTINUOUS
 10
262.2050857798
 20
22.5077146845
 40
271.5022515403
100
AcDbArc
 50
184.0022851479
 51
186.5362455715
  0
ARC
  5
494
100
AcDbEntity
  8
RACCORDO
100
AcDbCircle
 62
253
  6
CONTINUOUS
 10
248.8525134488
 20
21.0417673769
 40
256.9563147274
100
AcDbArc
 50
186.0083067279
 51
188.6915519497
  0
ARC
  5
495
100
AcDbEntity
  8
RACCORDO
100
AcDbCircle
 62
253
  6
CONTINUOUS
 10
243.7185078893
 20
20.4349367286
 40
252.8998917068
100
AcDbArc
 50
186.5464528195
 51
189.7140453852
  0
ARC
  5
496
100
AcDbEntity
  8
RACCORDO
100
AcDbCircle
 62
253
  6
CONTINUOUS
 10
236.3299319867
 20
19.222027441
 40
244.3025681202
100
AcDbArc
 50
188.7134822812
 51
189.7429557652
  0
ARC
  5
497
100
AcDbEntity
  8
RACCORDO
100
AcDbCircle
 62
253
  6
CONTINUOUS
 10
89.9022092287
 20
-167.672714161
 40
200.2242614655
100
AcDbArc
 50
110.9009224367
 51
111.3422627134
  0
ARC
  5
498
100
AcDbEntity
  8
ASSI
100
AcDbCircle
 62
253
  6
CONTINUOUS
 10
89.9022092287
 20
-167.672714161
 40
200.2242614655
100
AcDbArc
 50
110.9009224367
 51
111.3422627134
  0
SPLINE
  5
499
100
AcDbEntity
  8
0
100
AcDbSpline
 62
7
  6
CONTINUOUS
 70
0
 71
3
 72
11
 73
7
 74
5
 42
0.0000001
 43
0.0000001
 44
0.0000000001
 12
-0.0871037196
 22
0.0561362905
 32
0.0
 13
-0.0926858828
 23
-0.0463429414
 33
0.0
 40
0.0
 40
0.0
 40
0.0
 40
0.0
 40
0.227778714
 40
0.4640689899
 40
0.7195131811
 40
1.0
 40
1.0
 40
1.0
 40
1.0
 10
12.1843635935
 20
22.5701919606
 30
0.0
 10
12.1777501357
 20
22.574454178
 30
0.0
 10
12.1628006335
 20
22.5810497138
 30
0.0
 10
12.1377585946
 20
22.5837426951
 30
0.0
 10
12.1111674972
 20
22.5794821717
 30
0.0
 10
12.0938321835
 20
22.5725995055
 30
0.0
 10
12.0851664607
 20
22.5682666441
 30
0.0
 11
12.1843635935
 21
22.5701919606
 31
0.0
 11
12.1627852416
 21
22.5797582352
 31
0.0
 11
12.1384671941
 21
22.5826195948
 31
0.0
 11
12.1122840988
 21
22.5787284633
 31
0.0
 11
12.0851664607
 21
22.5682666441
 31
0.0
  0
SPLINE
  5
49A
100
AcDbEntity
  8
0
100
AcDbSpline
 62
7
  6
CONTINUOUS
 70
0
 71
3
 72
11
 73
7
 74
5
 42
0.0000001
 43
0.0000001
 44
0.0000000001
 12
0.1140608436
 22
-0.0389453569
 32
0.0
 13
0.0090568771
 23
-0.1201856474
 33
0.0
 40
0.0
 40
0.0
 40
0.0
 40
0.0
 40
0.2226124468
 40
0.4556457327
 40
0.7125887961
 40
1.0
 40
1.0
 40
1.0
 40
1.0
 10
11.3191484786
 20
23.0025290846
 30
0.0
 10
11.3276122665
 20
22.9996391775
 30
0.0
 10
11.3440259254
 20
22.990535765
 30
0.0
 10
11.3629753135
 20
22.9684034559
 30
0.0
 10
11.3754886717
 20
22.9393820833
 30
0.0
 10
11.3791476459
 20
22.917624186
 30
0.0
 10
11.3800153285
 20
22.9061099522
 30
0.0
 11
11.3191484786
 21
23.0025290846
 31
0.0
 11
11.3426248666
 21
22.9895389108
 31
0.0
 11
11.3611762561
 21
22.9684508386
 31
0.0
 11
11.3738612279
 21
22.9401995567
 31
0.0
 11
11.3800153285
 21
22.9061099522
 31
0.0
  0
SPLINE
  5
49B
100
AcDbEntity
  8
0
100
AcDbSpline
 62
7
  6
CONTINUOUS
 70
0
 71
3
 72
11
 73
7
 74
5
 42
0.0000001
 43
0.0000001
 44
0.0000000001
 12
1.0691532375
 22
0.9481955353
 32
0.0
 13
1.3752588823
 23
0.3883637792
 33
0.0
 40
0.0
 40
0.0
 40
0.0
 40
0.0
 40
0.223993902
 40
0.4655993289
 40
0.7247272806
 40
1.0
 40
1.0
 40
1.0
 40
1.0
 10
6.6246693016
 20
22.438958688
 30
0.0
 10
6.7044972368
 20
22.5097553606
 30
0.0
 10
6.8824424884
 20
22.6436349046
 30
0.0
 10
7.1832239246
 20
22.814529627
 30
0.0
 10
7.5229665486
 20
22.9617323191
 30
0.0
 10
7.7653147083
 20
23.0408522844
 30
0.0
 10
7.8915051258
 20
23.0764876023
 30
0.0
 11
6.6246693016
 21
22.438958688
 31
0.0
 11
6.8792506624
 21
22.6329956522
 31
0.0
 11
7.1786074408
 21
22.8050220942
 31
0.0
 11
7.5178691643
 21
22.9534378384
 31
0.0
 11
7.8915051258
 21
23.0764876023
 31
0.0
  0
SPLINE
  5
49C
100
AcDbEntity
  8
0
100
AcDbSpline
 62
7
  6
CONTINUOUS
 70
0
 71
3
 72
15
 73
11
 74
9
 42
0.0000001
 43
0.0000001
 44
0.0000000001
 12
3.1544971467
 22
0.7897358599
 32
0.0
 13
3.094493401
 23
-0.9993225545
 33
0.0
 40
0.0
 40
0.0
 40
0.0
 40
0.0
 40
0.1219898603
 40
0.2477521821
 40
0.3758888614
 40
0.5049073907
 40
0.6332810199
 40
0.7595076857
 40
0.88217006
 40
1.0
 40
1.0
 40
1.0
 40
1.0
 10
8.0352601254
 20
23.1147509648
 30
0.0
 10
8.1635323475
 20
23.1468642205
 30
0.0
 10
8.4266484601
 20
23.2020244871
 30
0.0
 10
8.830595733
 20
23.2575108312
 30
0.0
 10
9.2449479357
 20
23.286519008
 30
0.0
 10
9.6631268486
 20
23.2886193232
 30
0.0
 10
10.078503113
 20
23.2637833938
 30
0.0
 10
10.4845129262
 20
23.2123693365
 30
0.0
 10
10.87476432
 20
23.135120995
 30
0.0
 10
11.1263024849
 20
23.0654703805
 30
0.0
 10
11.2478438088
 20
23.0262203416
 30
0.0
 11
8.0352601254
 21
23.1147509648
 31
0.0
 11
8.4234008237
 21
23.1966778574
 31
0.0
 11
8.8285080398
 21
23.2526840832
 31
0.0
 11
9.2441594768
 21
23.2819631462
 31
0.0
 11
9.6637031525
 21
23.2840836483
 31
0.0
 11
10.0804016041
 21
23.2590137051
 31
0.0
 11
10.4875787437
 21
23.207122927
 31
0.0
 11
10.8787656931
 21
23.1291624384
 31
0.0
 11
11.2478438088
 21
23.0262203416
 31
0.0
  0
LINE
  5
49D
100
AcDbEntity
  8
0
100
AcDbLine
 62
7
  6
CONTINUOUS
 10
11.3800153285
 20
22.9061099522
 11
11.4301371121
 21
22.2407519802
  0
SPLINE
  5
49E
100
AcDbEntity
  8
0
100
AcDbSpline
 62
253
  6
CONTINUOUS
 70
0
 71
3
 72
15
 73
11
 74
9
 42
0.0000001
 43
0.0000001
 44
0.0000000001
 12
-3.1791212717
 22
1.0705229876
 32
0.0
 13
-3.224563744
 23
-0.9246730169
 33
0.0
 40
0.0
 40
0.0
 40
0.0
 40
0.0
 40
0.1170900879
 40
0.2399506114
 40
0.3669344237
 40
0.4962719464
 40
0.6260952267
 40
0.7545266149
 40
0.8797338832
 40
1.0
 40
1.0
 40
1.0
 40
1.0
 10
11.2366383233
 20
22.9925307128
 30
0.0
 10
11.1125571269
 20
23.0343132564
 30
0.0
 10
10.8542025658
 20
23.108148548
 30
0.0
 10
10.4515315689
 20
23.188832603
 30
0.0
 10
10.0303841634
 20
23.2410276856
 30
0.0
 10
9.5988551062
 20
23.2637308691
 30
0.0
 10
9.1651742898
 20
23.256497079
 30
0.0
 10
8.7376323316
 20
23.2194694687
 30
0.0
 10
8.3244365387
 20
23.1533672649
 30
0.0
 10
8.0571938079
 20
23.0891857955
 30
0.0
 10
7.9279252212
 20
23.0521168511
 30
0.0
 11
11.2366383233
 21
22.9925307128
 31
0.0
 11
10.8592332288
 21
23.1013549415
 31
0.0
 11
10.4552540027
 21
23.1829575988
 31
0.0
 11
10.0325669197
 21
23.2357428662
 31
0.0
 11
9.5993090186
 21
23.2587025906
 31
0.0
 11
9.1638751472
 21
23.2513873644
 31
0.0
 11
8.7346794451
 21
23.2139407907
 31
0.0
 11
8.3200235122
 21
23.147086306
 31
0.0
 11
7.9279252212
 21
23.0521168511
 31
0.0
  0
SPLINE
  5
49F
100
AcDbEntity
  8
0
100
AcDbSpline
 62
253
  6
CONTINUOUS
 70
0
 71
3
 72
11
 73
7
 74
5
 42
0.0000001
 43
0.0000001
 44
0.0000000001
 12
-1.3300643187
 22
-0.3897399271
 32
0.0
 13
-0.9849973338
 23
-0.9750633595
 33
0.0
 40
0.0
 40
0.0
 40
0.0
 40
0.0
 40
0.2819920491
 40
0.5438943719
 40
0.7834929527
 40
1.0
 40
1.0
 40
1.0
 40
1.0
 10
7.9024976119
 20
23.0447458227
 30
0.0
 10
7.7774750911
 20
23.0081113025
 30
0.0
 10
7.5391615052
 20
22.9271268315
 30
0.0
 10
7.2091488202
 20
22.7767086778
 30
0.0
 10
6.9248004418
 20
22.6042865073
 30
0.0
 10
6.7611219935
 20
22.4698637879
 30
0.0
 10
6.6900357054
 20
22.3994944249
 30
0.0
 11
7.9024976119
 21
23.0447458227
 31
0.0
 11
7.5328377844
 21
22.9178360866
 31
0.0
 11
7.2031987308
 21
22.765840231
 31
0.0
 11
6.9203331605
 21
22.59187179
 31
0.0
 11
6.6900357054
 21
22.3994944249
 31
0.0
  0
SPLINE
  5
4A0
100
AcDbEntity
  8
0
100
AcDbSpline
 62
7
  6
CONTINUOUS
 70
0
 71
3
 72
9
 73
5
 74
3
 42
0.0000001
 43
0.0000001
 44
0.0000000001
 12
0.0758252899
 22
0.037912645
 32
0.0
 13
0.0802275305
 23
-0.0273931851
 33
0.0
 40
0.0
 40
0.0
 40
0.0
 40
0.0
 40
0.5342465021
 40
1.0
 40
1.0
 40
1.0
 40
1.0
 10
11.2366383233
 20
22.9925307128
 30
0.0
 10
11.2501414552
 20
22.9992822788
 30
0.0
 10
11.2773665286
 20
23.0087935285
 30
0.0
 10
11.306693061
 20
23.0067819085
 30
0.0
 10
11.3191484786
 20
23.0025290846
 30
0.0
 11
11.2366383233
 21
22.9925307128
 31
0.0
 11
11.2798310527
 21
23.0061561329
 31
0.0
 11
11.3191484786
 21
23.0025290846
 31
0.0
  0
SPLINE
  5
4A1
100
AcDbEntity
  8
RACCORDO
100
AcDbSpline
 62
253
  6
CONTINUOUS
 70
0
 71
3
 72
9
 73
5
 74
3
 42
0.0000001
 43
0.0000001
 44
0.0000000001
 12
-5.5524515748
 22
32.8850959525
 32
0.0
 13
-1.5643731396
 23
33.3138408319
 33
0.0
 40
0.0
 40
0.0
 40
0.0
 40
0.0
 40
0.4919330271
 40
1.0
 40
1.0
 40
1.0
 40
1.0
 10
-19.8838199717
 20
-15.0728767777
 30
0.0
 10
-20.7942980755
 20
-9.6804551779
 30
0.0
 10
-22.2879794607
 20
1.3438533327
 30
0.0
 10
-23.117802446
 20
12.4365961442
 30
0.0
 10
-23.3827378878
 20
18.0784835662
 30
0.0
 11
-19.8838199717
 21
-15.0728767777
 31
0.0
 11
-22.1032280127
 21
1.1825487084
 31
0.0
 11
-23.3827378878
 21
18.0784835662
 31
0.0
  0
SPLINE
  5
4A2
100
AcDbEntity
  8
RACCORDO
100
AcDbSpline
 62
253
  6
CONTINUOUS
 70
0
 71
3
 72
11
 73
7
 74
5
 42
0.0000001
 43
0.0000001
 44
0.0000000001
 12
-0.0962781083
 22
2.0877071307
 32
0.0
 13
1.7137805664
 23
1.1961382478
 33
0.0
 40
0.0
 40
0.0
 40
0.0
 40
0.0
 40
0.2398224792
 40
0.5006821071
 40
0.7611717646
 40
1.0
 40
1.0
 40
1.0
 40
1.0
 10
-23.3827378878
 20
18.0784835662
 30
0.0
 10
-23.3904344394
 20
18.2453765995
 30
0.0
 10
-23.3499339831
 20
18.5969196836
 30
0.0
 10
-23.1673817941
 20
19.09895403
 30
0.0
 10
-22.8823891991
 20
19.5499590814
 30
0.0
 10
-22.629450652
 20
19.7961794859
 30
0.0
 10
-22.4930175892
 20
19.8914033482
 30
0.0
 11
-23.3827378878
 21
18.0784835662
 31
0.0
 11
-23.3333777954
 21
18.5772583396
 31
0.0
 11
-23.1496631189
 21
19.0905489166
 31
0.0
 11
-22.8563755792
 21
19.5491971932
 31
0.0
 11
-22.4930175892
 21
19.8914033482
 31
0.0
  0
SPLINE
  5
4A3
100
AcDbEntity
  8
RACCORDO
100
AcDbSpline
 62
253
  6
CONTINUOUS
 70
0
 71
3
 72
11
 73
7
 74
5
 42
0.0000001
 43
0.0000001
 44
0.0000000001
 12
0.0359324245
 22
-0.4420190958
 32
0.0
 13
-0.3819411104
 23
-0.2253730426
 33
0.0
 40
0.0
 40
0.0
 40
0.0
 40
0.0
 40
0.2980129261
 40
0.5603464553
 40
0.7900448507
 40
1.0
 40
1.0
 40
1.0
 40
1.0
 10
-3.9029183705
 20
-22.3494252825
 30
0.0
 10
-3.8993489282
 20
-22.3933344172
 30
0.0
 10
-3.8990527306
 20
-22.4766965458
 30
0.0
 10
-3.9227910043
 20
-22.5921330455
 30
0.0
 10
-3.9711735038
 20
-22.6858214886
 30
0.0
 10
-4.0208442889
 20
-22.730554137
 30
0.0
 10
-4.0475744565
 20
-22.7463268806
 30
0.0
 11
-3.9029183705
 21
-22.3494252825
 31
0.0
 11
-3.9038798867
 21
-22.4815837205
 31
0.0
 11
-3.9292089669
 21
-22.5951318863
 31
0.0
 11
-3.977821133
 21
-22.6846502597
 31
0.0
 11
-4.0475744565
 21
-22.7463268806
 31
0.0
  0
SPLINE
  5
4A4
100
AcDbEntity
  8
RACCORDO
100
AcDbSpline
 62
253
  6
CONTINUOUS
 70
0
 71
3
 72
11
 73
7
 74
5
 42
0.0000001
 43
0.0000001
 44
0.0000000001
 12
0.0626303446
 22
-0.3679680709
 32
0.0
 13
0.3336138954
 23
-0.1674061828
 33
0.0
 40
0.0
 40
0.0
 40
0.0
 40
0.0
 40
0.2261908658
 40
0.4633607617
 40
0.7200945613
 40
1.0
 40
1.0
 40
1.0
 40
1.0
 10
-20.1170217005
 20
-14.7980945876
 30
0.0
 10
-20.1122995633
 20
-14.8258382598
 30
0.0
 10
-20.0942035603
 20
-14.8815353597
 30
0.0
 10
-20.0438835623
 20
-14.956813473
 30
0.0
 10
-19.9723884782
 20
-15.0224091168
 30
0.0
 10
-19.9149467254
 20
-15.0572574571
 30
0.0
 10
-19.8838199442
 20
-15.0728767574
 30
0.0
 11
-20.1170217005
 21
-14.7980945876
 31
0.0
 11
-20.0912286697
 21
-14.8784861848
 31
0.0
 11
-20.042686616
 21
-14.9525167855
 31
0.0
 11
-19.9727304973
 21
-15.0180090525
 31
0.0
 11
-19.8838199442
 21
-15.0728767574
 31
0.0
  0
SPLINE
  5
4A5
100
AcDbEntity
  8
RACCORDO
100
AcDbSpline
 62
253
  6
CONTINUOUS
 70
0
 71
3
 72
11
 73
7
 74
5
 42
0.0000001
 43
0.0000001
 44
0.0000000001
 12
-0.9454632169
 22
-0.6650756841
 32
0.0
 13
-1.0346578312
 23
0.5154702052
 33
0.0
 40
0.0
 40
0.0
 40
0.0
 40
0.0
 40
0.2476673284
 40
0.5126200708
 40
0.7706965909
 40
1.0
 40
1.0
 40
1.0
 40
1.0
 10
-4.449028996
 20
-22.1208889806
 30
0.0
 10
-4.5270824456
 20
-22.1757948199
 30
0.0
 10
-4.707051124
 20
-22.2638620509
 30
0.0
 10
-4.9992566094
 20
-22.3288225778
 30
0.0
 10
-5.2915187419
 20
-22.3270687327
 30
0.0
 10
-5.4762449531
 20
-22.2765084264
 30
0.0
 10
-5.5553284757
 20
-22.2371087346
 30
0.0
 11
-4.449028996
 21
-22.1208889806
 31
0.0
 11
-4.7043412488
 21
-22.2504211515
 31
0.0
 11
-5.0031159402
 21
-22.3177762927
 31
0.0
 11
-5.3014041866
 21
-22.3131436531
 31
0.0
 11
-5.5553284757
 21
-22.2371087346
 31
0.0
  0
SPLINE
  5
4A6
100
AcDbEntity
  8
RACCORDO
100
AcDbSpline
 62
253
  6
CONTINUOUS
 70
0
 71
3
 72
11
 73
7
 74
5
 42
0.0000001
 43
0.0000001
 44
0.0000000001
 12
0.120061534
 22
-0.7018289795
 32
0.0
 13
0.6364294063
 23
-0.3192746454
 33
0.0
 40
0.0
 40
0.0
 40
0.0
 40
0.0
 40
0.2787806628
 40
0.5347628695
 40
0.7724151371
 40
1.0
 40
1.0
 40
1.0
 40
1.0
 10
-5.5553396371
 20
-22.237116945
 30
0.0
 10
-5.5441826924
 20
-22.3023357277
 30
0.0
 10
-5.5125779954
 20
-22.4261083394
 30
0.0
 10
-5.4320661873
 20
-22.592421911
 30
0.0
 10
-5.3220238671
 20
-22.7258846383
 30
0.0
 10
-5.2300027781
 20
-22.7899558977
 30
0.0
 10
-5.1817222117
 20
-22.8141765899
 30
0.0
 11
-5.5553396371
 21
-22.237116945
 31
0.0
 11
-5.5046712193
 21
-22.4290398845
 31
0.0
 11
-5.4237381828
 21
-22.5923511837
 31
0.0
 11
-5.3149987198
 21
-22.7220013896
 31
0.0
 11
-5.1817222117
 21
-22.8141765899
 31
0.0
  0
SPLINE
  5
4A7
100
AcDbEntity
  8
RACCORDO
100
AcDbSpline
 62
253
  6
CONTINUOUS
 70
0
 71
3
 72
15
 73
11
 74
9
 42
0.0000001
 43
0.0000001
 44
0.0000000001
 12
0.1222344152
 22
-0.7109496161
 32
0.0
 13
0.6215641129
 23
0.3661265663
 33
0.0
 40
0.0
 40
0.0
 40
0.0
 40
0.0
 40
0.1362274851
 40
0.2610228157
 40
0.3771401275
 40
0.4893339407
 40
0.6033405728
 40
0.7244049057
 40
0.8561329218
 40
1.0
 40
1.0
 40
1.0
 40
1.0
 10
-4.4490289959
 20
-22.1208889806
 30
0.0
 10
-4.4434784336
 20
-22.1531726067
 30
0.0
 10
-4.4274385804
 20
-22.2143456629
 30
0.0
 10
-4.3856851494
 20
-22.2957835584
 30
0.0
 10
-4.328148476
 20
-22.3597134594
 30
0.0
 10
-4.2567003704
 20
-22.4030318327
 30
0.0
 10
-4.1745580211
 20
-22.4235816946
 30
0.0
 10
-4.0854451141
 20
-22.4210529928
 30
0.0
 10
-3.9926263885
 20
-22.39625729
 30
0.0
 10
-3.9327259081
 20
-22.3669831356
 30
0.0
 10
-3.9029183705
 20
-22.3494252825
 30
0.0
 11
-4.4490289959
 21
-22.1208889806
 31
0.0
 11
-4.4232337921
 21
-22.2157150253
 31
0.0
 11
-4.3813477416
 21
-22.2954022692
 31
0.0
 11
-4.3248058939
 21
-22.3572049048
 31
0.0
 11
-4.2555305022
 21
-22.3990535819
 31
0.0
 11
-4.1758732261
 21
-22.4195108943
 31
0.0
 11
-4.0885545345
 21
-22.4179018864
 31
0.0
 11
-3.9965153669
 21
-22.3942639913
 31
0.0
 11
-3.9029183705
 21
-22.3494252825
 31
0.0
  0
SPLINE
  5
4A8
100
AcDbEntity
  8
RACCORDO
100
AcDbSpline
 62
253
  6
CONTINUOUS
 70
0
 71
3
 72
11
 73
7
 74
5
 42
0.0000001
 43
0.0000001
 44
0.0000000001
 12
-1.0118551661
 22
-0.54589457
 32
0.0
 13
-1.0274868034
 23
0.5158707468
 33
0.0
 40
0.0
 40
0.0
 40
0.0
 40
0.0
 40
0.2401776776
 40
0.5048331443
 40
0.7668834085
 40
1.0
 40
1.0
 40
1.0
 40
1.0
 10
-7.9386164642
 20
10.9420677357
 30
0.0
 10
-8.0196248055
 20
10.898363839
 30
0.0
 10
-8.2045485521
 20
10.8334356097
 30
0.0
 10
-8.4979681274
 20
10.7969533898
 30
0.0
 10
-8.790142265
 20
10.8182421618
 30
0.0
 10
-8.9744161267
 20
10.8741573998
 30
0.0
 10
-9.0542575338
 20
10.9142434099
 30
0.0
 11
-7.9386164642
 21
10.9420677357
 31
0.0
 11
-8.1974454379
 21
10.8458440388
 31
0.0
 11
-8.4992197769
 21
10.8068816033
 31
0.0
 11
-8.7995506103
 21
10.8308274069
 31
0.0
 11
-9.0542575338
 21
10.9142434099
 31
0.0
  0
SPLINE
  5
4A9
100
AcDbEntity
  8
RACCORDO
100
AcDbSpline
 62
253
  6
CONTINUOUS
 70
0
 71
3
 72
12
 73
8
 74
6
 42
0.0000001
 43
0.0000001
 44
0.0000000001
 12
-0.1506596988
 22
1.1544697081
 32
0.0
 13
-1.0280933794
 23
0.5463722678
 33
0.0
 40
0.0
 40
0.0
 40
0.0
 40
0.0
 40
0.2391885769
 40
0.5045757834
 40
0.7673532962
 40
0.8890557524
 40
1.0
 40
1.0
 40
1.0
 40
1.0
 10
-7.50494485
 20
11.7788625632
 30
0.0
 10
-7.5169568763
 20
11.8709078854
 30
0.0
 10
-7.5734341226
 20
12.0611068323
 30
0.0
 10
-7.716659639
 20
12.3238889262
 30
0.0
 10
-7.8787672869
 20
12.5198893114
 30
0.0
 10
-8.0252324257
 20
12.6450259442
 30
0.0
 10
-8.1013321654
 20
12.6943651927
 30
0.0
 10
-8.1393525142
 20
12.7145708128
 30
0.0
 11
-7.50494485
 21
11.7788625632
 31
0.0
 11
-7.5789736489
 21
12.0473200234
 31
0.0
 11
-7.7255208849
 21
12.3193350567
 31
0.0
 11
-7.9222534631
 21
12.5536344685
 31
0.0
 11
-8.0304163844
 21
12.6451644322
 31
0.0
 11
-8.1393525142
 21
12.7145708128
 31
0.0
  0
SPLINE
  5
4AA
100
AcDbEntity
  8
RACCORDO
100
AcDbSpline
 62
253
  6
CONTINUOUS
 70
0
 71
3
 72
11
 73
7
 74
5
 42
0.0000001
 43
0.0000001
 44
0.0000000001
 12
-1.7398302831
 22
-1.163394056
 32
0.0
 13
0.0935772143
 23
-2.090870261
 33
0.0
 40
0.0
 40
0.0
 40
0.0
 40
0.0
 40
0.240239275
 40
0.5008321916
 40
0.7609755826
 40
1.0
 40
1.0
 40
1.0
 40
1.0
 10
-8.139352516
 20
12.7145708116
 30
0.0
 10
-8.2786777046
 20
12.6214064968
 30
0.0
 10
-8.5377405268
 20
12.379211755
 30
0.0
 10
-8.831009334
 20
11.931724797
 30
0.0
 10
-9.0194174219
 20
11.4318715093
 30
0.0
 10
-9.0617132996
 20
11.0808330809
 30
0.0
 10
-9.0542575532
 20
10.9142433989
 30
0.0
 11
-8.139352516
 21
12.7145708116
 31
0.0
 11
-8.512014784
 21
12.3770167956
 31
0.0
 11
-8.8132641451
 21
11.9223494297
 31
0.0
 11
-9.0025218983
 21
11.4118303911
 31
0.0
 11
-9.0542575532
 21
10.9142433989
 31
0.0
  0
SPLINE
  5
4AB
100
AcDbEntity
  8
RACCORDO
100
AcDbSpline
 62
253
  6
CONTINUOUS
 70
0
 71
3
 72
11
 73
7
 74
5
 42
0.0000001
 43
0.0000001
 44
0.0000000001
 12
-0.8186495715
 22
-0.5343586602
 32
0.0
 13
0.0428643373
 23
-0.9766723848
 33
0.0
 40
0.0
 40
0.0
 40
0.0
 40
0.0
 40
0.2410319132
 40
0.5016784992
 40
0.7614208535
 40
1.0
 40
1.0
 40
1.0
 40
1.0
 10
-7.50494485
 20
11.7788625632
 30
0.0
 10
-7.5707184074
 20
11.7359300664
 30
0.0
 10
-7.6932350582
 20
11.6240034719
 30
0.0
 10
-7.8323052095
 20
11.4161303225
 30
0.0
 10
-7.9218112219
 20
11.1834414947
 30
0.0
 10
-7.9420253099
 20
11.019738957
 30
0.0
 10
-7.9386164642
 20
10.9420677357
 30
0.0
 11
-7.50494485
 21
11.7788625632
 31
0.0
 11
-7.6813150809
 21
11.6226006584
 31
0.0
 11
-7.8240219172
 21
11.4114997464
 31
0.0
 11
-7.9138325847
 21
11.1739851972
 31
0.0
 11
-7.9386164642
 21
10.9420677357
 31
0.0
  0
SPLINE
  5
4AC
100
AcDbEntity
  8
RACCORDO
100
AcDbSpline
 62
253
  6
CONTINUOUS
 70
0
 71
3
 72
11
 73
7
 74
5
 42
0.0000001
 43
0.0000001
 44
0.0000000001
 12
0.0182461102
 22
-0.3830260022
 32
0.0
 13
0.3432612843
 23
-0.1709196584
 33
0.0
 40
0.0
 40
0.0
 40
0.0
 40
0.0
 40
0.2129457862
 40
0.443733166
 40
0.7047671713
 40
1.0
 40
1.0
 40
1.0
 40
1.0
 10
-23.6169608525
 20
18.3609099734
 30
0.0
 10
-23.6156657084
 20
18.333722049
 30
0.0
 10
-23.60228231
 20
18.2771706023
 30
0.0
 10
-23.5530157144
 20
18.200205625
 30
0.0
 10
-23.4779524927
 20
18.1319358859
 30
0.0
 10
-23.4165111913
 20
18.0953081024
 30
0.0
 10
-23.3827305246
 20
18.0784877376
 30
0.0
 11
-23.6169608525
 21
18.3609099734
 31
0.0
 11
-23.59875893
 21
18.2813082417
 31
0.0
 11
-23.5523720336
 21
18.2059416837
 31
0.0
 11
-23.4793668529
 21
18.1374618255
 31
0.0
 11
-23.3827305246
 21
18.0784877376
 31
0.0
  0
SPLINE
  5
4AD
100
AcDbEntity
  8
RACCORDO
100
AcDbSpline
 62
253
  6
CONTINUOUS
 70
0
 71
3
 72
11
 73
7
 74
5
 42
0.0000001
 43
0.0000001
 44
0.0000000001
 12
0.3245860042
 22
0.2319090504
 32
0.0
 13
0.3610127481
 23
-0.1697282461
 33
0.0
 40
0.0
 40
0.0
 40
0.0
 40
0.0
 40
0.2144060348
 40
0.4459286213
 40
0.7065473564
 40
1.0
 40
1.0
 40
1.0
 40
1.0
 10
-22.8746503997
 20
19.8987585225
 30
0.0
 10
-22.851452667
 20
19.9153327558
 30
0.0
 10
-22.7964697763
 20
19.9411022479
 30
0.0
 10
-22.7016895581
 20
19.9510229572
 30
0.0
 10
-22.597654685
 20
19.9342780523
 30
0.0
 10
-22.528330971
 20
19.9080057491
 30
0.0
 10
-22.4930175892
 20
19.8914033482
 30
0.0
 11
-22.8746503997
 21
19.8987585225
 31
0.0
 11
-22.7974621655
 21
19.935603286
 31
0.0
 11
-22.705779722
 21
19.9467635268
 31
0.0
 11
-22.602899104
 21
19.9317781488
 31
0.0
 11
-22.4930175892
 21
19.8914033482
 31
0.0
  0
SPLINE
  5
4AE
100
AcDbEntity
  8
RACCORDO
100
AcDbSpline
 62
253
  6
CONTINUOUS
 70
0
 71
3
 72
11
 73
7
 74
5
 42
0.0000001
 43
0.0000001
 44
0.0000000001
 12
-0.6312086451
 22
0.3155300283
 32
0.0
 13
-0.1180618633
 23
0.6957333892
 33
0.0
 40
0.0
 40
0.0
 40
0.0
 40
0.0
 40
0.2254721822
 40
0.4623639029
 40
0.7190979174
 40
1.0
 40
1.0
 40
1.0
 40
1.0
 10
-19.5166133815
 20
-15.6467315723
 30
0.0
 10
-19.5640533784
 20
-15.6230171576
 30
0.0
 10
-19.6545952592
 20
-15.5596581331
 30
0.0
 10
-19.7625658396
 20
-15.4271211822
 30
0.0
 10
-19.8416544498
 20
-15.2614182069
 30
0.0
 10
-19.872765364
 20
-15.138021097
 30
0.0
 10
-19.8838199717
 20
-15.0728767777
 30
0.0
 11
-19.5166133815
 21
-15.6467315723
 31
0.0
 11
-19.6473368211
 21
-15.5560247742
 31
0.0
 11
-19.7541257041
 21
-15.4274097681
 31
0.0
 11
-19.8337622008
 21
-15.2646790191
 31
0.0
 11
-19.8838199717
 21
-15.0728767777
 31
0.0
  0
SPLINE
  5
4AF
100
AcDbEntity
  8
0
100
AcDbSpline
 62
7
  6
CONTINUOUS
 70
0
 71
3
 72
24
 73
20
 74
18
 42
0.0000001
 43
0.0000001
 44
0.0000000001
 12
-5.2226575051
 22
-2.4894366162
 32
0.0
 13
-3.3100041018
 23
4.7452417143
 33
0.0
 40
0.0
 40
0.0
 40
0.0
 40
0.0
 40
0.0584849701
 40
0.1209358865
 40
0.18677485
 40
0.2553082673
 40
0.3257587266
 40
0.3972927743
 40
0.4690464721
 40
0.540149732
 40
0.6097503805
 40
0.6770389888
 40
0.7412755294
 40
0.8018190176
 40
0.8581627031
 40
0.9099783451
 40
0.9341623665
 40
0.9572043849
 40
1.0
 40
1.0
 40
1.0
 40
1.0
 10
11.5132433237
 20
22.2502405805
 30
0.0
 10
11.4114276677
 20
22.2017090385
 30
0.0
 10
11.1956163446
 20
22.1122074204
 30
0.0
 10
10.8519016005
 20
22.0032721098
 30
0.0
 10
10.4820019835
 20
21.916557481
 30
0.0
 10
10.0917653585
 20
21.8534516553
 30
0.0
 10
9.6873242099
 20
21.8149525153
 30
0.0
 10
9.2750710364
 20
21.8016770269
 30
0.0
 10
8.861526108
 20
21.813838118
 30
0.0
 10
8.453233823
 20
21.8512439428
 30
0.0
 10
8.0566512548
 20
21.9132992009
 30
0.0
 10
7.6780373166
 20
21.9990184931
 30
0.0
 10
7.3233507316
 20
22.1070435698
 30
0.0
 10
6.9981255765
 20
22.2356887613
 30
0.0
 10
6.7074477932
 20
22.3829581249
 30
0.0
 10
6.4929346337
 20
22.5224716092
 30
0.0
 10
6.3437750853
 20
22.6420404297
 30
0.0
 10
6.2163569352
 20
22.7600604668
 30
0.0
 10
6.1331712126
 20
22.8570904873
 30
0.0
 10
6.0859533254
 20
22.9247823333
 30
0.0
 11
11.5132433237
 21
22.2502405805
 31
0.0
 11
11.2011167466
 21
22.1195782476
 31
0.0
 11
10.8569482414
 21
22.0095855448
 31
0.0
 11
10.486230573
 21
21.9220180239
 31
0.0
 11
10.094879368
 21
21.8582740327
 31
0.0
 11
9.6891401534
 21
21.8193722676
 31
0.0
 11
9.275489254
 21
21.8059345234
 31
0.0
 11
8.8605298566
 21
21.818176002
 31
0.0
 11
8.450886691
 21
21.8559025626
 31
0.0
 11
8.0531007404
 21
21.9185131645
 31
0.0
 11
7.6735245537
 21
22.0050090718
 31
0.0
 11
7.3182196929
 21
22.1140092838
 31
0.0
 11
6.9928604904
 21
22.2437735826
 31
0.0
 11
6.7026436355
 21
22.3922301207
 31
0.0
 11
6.4522045268
 21
22.5570081373
 31
0.0
 11
6.3431773654
 21
22.6447041375
 31
0.0
 11
6.2455416226
 21
22.7354756791
 31
0.0
 11
6.0859533254
 21
22.9247823333
 31
0.0
  0
SPLINE
  5
4B0
100
AcDbEntity
  8
RACCORDO
100
AcDbSpline
 62
7
  6
CONTINUOUS
 70
0
 71
3
 72
14
 73
10
 74
8
 42
0.0000001
 43
0.0000001
 44
0.0000000001
 12
0.6444137602
 22
-2.008910919
 32
0.0
 13
-0.9111721545
 23
-1.9028288099
 33
0.0
 40
0.0
 40
0.0
 40
0.0
 40
0.0
 40
0.2735203314
 40
0.4053874502
 40
0.5331622542
 40
0.6565025088
 40
0.775292503
 40
0.8896642779
 40
1.0
 40
1.0
 40
1.0
 40
1.0
 10
18.6565511032
 20
18.8755073548
 30
0.0
 10
18.715304525
 20
18.692348028
 30
0.0
 10
18.7838424367
 20
18.4141940719
 30
0.0
 10
18.8303608595
 20
18.0418418601
 30
0.0
 10
18.8414658277
 20
17.7723859714
 30
0.0
 10
18.8287324057
 20
17.5121863901
 30
0.0
 10
18.7917744353
 20
17.2637518649
 30
0.0
 10
18.7302839865
 20
17.0296331589
 30
0.0
 10
18.6717364726
 20
16.8822982956
 30
0.0
 10
18.6382248601
 20
16.8123149653
 30
0.0
 11
18.6565511032
 21
18.8755073548
 31
0.0
 11
18.792692148
 21
18.3147406048
 31
0.0
 11
18.8268164837
 21
18.0386363631
 31
0.0
 11
18.8374711521
 21
17.7692757143
 31
0.0
 11
18.8242251806
 21
17.5093975124
 31
0.0
 11
18.7867565222
 21
17.2615985426
 31
0.0
 11
18.7248149609
 21
17.0283899677
 31
0.0
 11
18.6382248601
 21
16.8123149653
 31
0.0
  0
SPLINE
  5
4B1
100
AcDbEntity
  8
RACCORDO
100
AcDbSpline
 62
7
  6
CONTINUOUS
 70
0
 71
3
 72
9
 73
5
 74
3
 42
0.0000001
 43
0.0000001
 44
0.0000000001
 12
-0.2520587403
 22
-0.2730222844
 32
0.0
 13
-0.3163958599
 23
-0.1948549106
 33
0.0
 40
0.0
 40
0.0
 40
0.0
 40
0.0
 40
0.5023142475
 40
1.0
 40
1.0
 40
1.0
 40
1.0
 10
18.4892669569
 20
16.2934562282
 30
0.0
 10
18.4470627248
 20
16.2477419004
 30
0.0
 10
18.3570020672
 20
16.1621036529
 30
0.0
 10
18.2560098783
 20
16.0896080385
 30
0.0
 10
18.2035213078
 20
16.0572825343
 30
0.0
 11
18.4892669569
 21
16.2934562282
 31
0.0
 11
18.3538269822
 21
16.1650234207
 31
0.0
 11
18.2035213078
 21
16.0572825343
 31
0.0
  0
SPLINE
  5
4B2
100
AcDbEntity
  8
RACCORDO
100
AcDbSpline
 62
7
  6
CONTINUOUS
 70
0
 71
3
 72
14
 73
10
 74
8
 42
0.0000001
 43
0.0000001
 44
0.0000000001
 12
2.184200251
 22
-1.142845821
 32
0.0
 13
1.0447812264
 23
-2.2327694678
 33
0.0
 40
0.0
 40
0.0
 40
0.0
 40
0.0
 40
0.1127383403
 40
0.2299025909
 40
0.3512652978
 40
0.476384539
 40
0.6046400754
 40
0.7352721089
 40
1.0
 40
1.0
 40
1.0
 40
1.0
 10
16.9447659883
 20
21.2355700526
 30
0.0
 10
17.0268470254
 20
21.1926225389
 30
0.0
 10
17.1895126035
 20
21.0957821843
 30
0.0
 10
17.4222914616
 20
20.9244663378
 30
0.0
 10
17.6465325096
 20
20.7264084002
 30
0.0
 10
17.8599815569
 20
20.5040283187
 30
0.0
 10
18.0604468563
 20
20.2599318967
 30
0.0
 10
18.3084491413
 20
19.9080223473
 30
0.0
 10
18.4668827344
 20
19.6227762536
 30
0.0
 10
18.559076978
 20
19.4257508027
 30
0.0
 11
16.9447659883
 21
21.2355700526
 31
0.0
 11
17.1839013504
 21
21.0939707984
 31
0.0
 11
17.4168595214
 21
20.9232373683
 31
0.0
 11
17.6414045119
 21
20.725539191
 31
0.0
 11
17.8552566032
 21
20.5032804495
 31
0.0
 11
18.0561308579
 21
20.2591284497
 31
0.0
 11
18.2417901067
 21
19.9960124117
 31
0.0
 11
18.559076978
 21
19.4257508027
 31
0.0
  0
SPLINE
  5
4B3
100
AcDbEntity
  8
0
100
AcDbSpline
 62
7
  6
CONTINUOUS
 70
0
 71
3
 72
11
 73
7
 74
5
 42
0.0000001
 43
0.0000001
 44
0.0000000001
 12
0.6975302562
 22
-0.3486511438
 32
0.0
 13
0.3388641314
 23
-0.7023369411
 33
0.0
 40
0.0
 40
0.0
 40
0.0
 40
0.0
 40
0.4793010556
 40
0.6064973343
 40
0.7359017426
 40
1.0
 40
1.0
 40
1.0
 40
1.0
 10
10.9418858878
 20
26.2618921223
 30
0.0
 10
11.0533282172
 20
26.2061891685
 30
0.0
 10
11.1787333988
 20
26.1023821587
 30
0.0
 10
11.3006235433
 20
25.9552028165
 30
0.0
 10
11.3791511171
 20
25.8447744651
 30
0.0
 10
11.4295247314
 20
25.7553145649
 30
0.0
 10
11.4593558736
 20
25.6934859109
 30
0.0
 11
10.9418858878
 21
26.2618921223
 31
0.0
 11
11.2359564861
 21
26.0311923396
 31
0.0
 11
11.2993232712
 21
25.9548828781
 31
0.0
 11
11.3578674999
 21
25.8726903349
 31
0.0
 11
11.4593558736
 21
25.6934859109
 31
0.0
  0
SPLINE
  5
4B4
100
AcDbEntity
  8
RACCORDO
100
AcDbSpline
 62
7
  6
CONTINUOUS
 70
0
 71
3
 72
9
 73
5
 74
3
 42
0.0000001
 43
0.0000001
 44
0.0000000001
 12
0.0791608445
 22
-0.0395890864
 32
0.0
 13
0.0443941078
 23
-0.0765695648
 33
0.0
 40
0.0
 40
0.0
 40
0.0
 40
0.0
 40
0.5021590845
 40
1.0
 40
1.0
 40
1.0
 40
1.0
 10
16.2759510252
 20
23.594859585
 30
0.0
 10
16.289201471
 20
23.5882329119
 30
0.0
 10
16.313939139
 20
23.5712641454
 30
0.0
 10
16.3323633192
 20
23.547604509
 30
0.0
 10
16.339730387
 20
23.5348980216
 30
0.0
 11
16.2759510252
 21
23.594859585
 31
0.0
 11
16.3124539277
 21
23.5695036766
 31
0.0
 11
16.339730387
 21
23.5348980216
 31
0.0
  0
SPLINE
  5
4B5
100
AcDbEntity
  8
RACCORDO
100
AcDbSpline
 62
7
  6
CONTINUOUS
 70
0
 71
3
 72
9
 73
5
 74
3
 42
0.0000001
 43
0.0000001
 44
0.0000000001
 12
0.0795172506
 22
0.0420646887
 32
0.0
 13
0.0728368411
 23
0.0527941829
 33
0.0
 40
0.0
 40
0.0
 40
0.0
 40
0.0
 40
0.2472463004
 40
1.0
 40
1.0
 40
1.0
 40
1.0
 10
15.9070401938
 20
-10.0946057427
 30
0.0
 10
15.9135936424
 20
-10.0911389632
 30
0.0
 10
15.9398441875
 20
-10.0766388269
 30
0.0
 10
15.9650450046
 20
-10.0602491756
 30
0.0
 10
15.9833210718
 20
-10.0470021701
 30
0.0
 11
15.9070401938
 21
-10.0946057427
 31
0.0
 11
15.9265101721
 21
-10.0838532456
 31
0.0
 11
15.9833210718
 21
-10.0470021701
 31
0.0
  0
SPLINE
  5
4B6
100
AcDbEntity
  8
0
100
AcDbSpline
 62
7
  6
CONTINUOUS
 70
0
 71
3
 72
14
 73
10
 74
8
 42
0.0000001
 43
0.0000001
 44
0.0000000001
 12
0.3280943293
 22
0.1563897376
 32
0.0
 13
0.3251464036
 23
-0.162429847
 33
0.0
 40
0.0
 40
0.0
 40
0.0
 40
0.0
 40
0.1771108829
 40
0.3397033745
 40
0.4869466466
 40
0.6184628245
 40
0.7344154625
 40
0.8355978346
 40
1.0
 40
1.0
 40
1.0
 40
1.0
 10
15.082724946
 20
23.9516728959
 30
0.0
 10
15.1020946381
 20
23.9609056707
 30
0.0
 10
15.1396422767
 20
23.9778058081
 30
0.0
 10
15.1946721734
 20
23.999152649
 30
0.0
 10
15.2456857827
 20
24.0153332415
 30
0.0
 10
15.2922764684
 20
24.0262937238
 30
0.0
 10
15.3342509276
 20
24.0320382159
 30
0.0
 10
15.3804225206
 20
24.03284115
 30
0.0
 10
15.4130475117
 20
24.0263034544
 30
0.0
 10
15.4308657693
 20
24.0174021815
 30
0.0
 11
15.082724946
 21
23.9516728959
 31
0.0
 11
15.1414759573
 21
23.9779822212
 31
0.0
 11
15.1966264784
 21
23.9992131862
 31
0.0
 11
15.2476943223
 21
24.0152181538
 31
0.0
 11
15.2942780629
 21
24.0259366597
 31
0.0
 11
15.3360677528
 21
24.0313916692
 31
0.0
 11
15.3728424476
 21
24.0316780633
 31
0.0
 11
15.4308657693
 21
24.0174021815
 31
0.0
  0
SPLINE
  5
4B7
100
AcDbEntity
  8
RACCORDO
100
AcDbSpline
 62
253
  6
CONTINUOUS
 70
0
 71
3
 72
12
 73
8
 74
6
 42
0.0000001
 43
0.0000001
 44
0.0000000001
 12
-0.0000042701
 22
-0.1404206316
 32
0.0
 13
-0.1246974194
 23
-0.0645639789
 33
0.0
 40
0.0
 40
0.0
 40
0.0
 40
0.0
 40
0.1028546434
 40
0.2084745182
 40
0.4366765843
 40
0.6988746954
 40
1.0
 40
1.0
 40
1.0
 40
1.0
 10
18.6156618837
 20
19.1800972064
 30
0.0
 10
18.6156617373
 20
19.1752829017
 30
0.0
 10
18.6147086769
 20
19.1655000415
 30
0.0
 10
18.6089193538
 20
19.1457890738
 30
0.0
 10
18.5939750301
 20
19.1216308582
 30
0.0
 10
18.5665935669
 20
19.09624265
 30
0.0
 10
18.54398035
 20
19.0823802991
 30
0.0
 10
18.5314638338
 20
19.0758996831
 30
0.0
 11
18.6156618837
 21
19.1800972064
 31
0.0
 11
18.6142805407
 21
19.165720501
 31
0.0
 11
18.6101496527
 21
19.151476185
 31
0.0
 11
18.5938165165
 21
19.1239069189
 31
0.0
 11
18.5672629594
 21
19.0984024972
 31
0.0
 11
18.5314638338
 21
19.0758996831
 31
0.0
  0
SPLINE
  5
4B8
100
AcDbEntity
  8
RACCORDO
100
AcDbSpline
 62
7
  6
CONTINUOUS
 70
0
 71
3
 72
14
 73
10
 74
8
 42
0.0000001
 43
0.0000001
 44
0.0000000001
 12
0.0000089474
 22
-0.1249350135
 32
0.0
 13
-0.1111854209
 23
-0.0569785911
 33
0.0
 40
0.0
 40
0.0
 40
0.0
 40
0.0
 40
0.0819502751
 40
0.1721976201
 40
0.2741154028
 40
0.3897757245
 40
0.5202143261
 40
0.6657011406
 40
1.0
 40
1.0
 40
1.0
 40
1.0
 10
18.6156618504
 20
18.9904867643
 30
0.0
 10
18.6156620949
 20
18.9870739447
 30
0.0
 10
18.6146312342
 20
18.9798803249
 30
0.0
 10
18.6103379466
 20
18.9692153204
 30
0.0
 10
18.6033600566
 20
18.958388904
 30
0.0
 10
18.5937682493
 20
18.947470194
 30
0.0
 10
18.5816357724
 20
18.9365289992
 30
0.0
 10
18.5612372289
 20
18.9213290121
 30
0.0
 10
18.5438535536
 20
18.9113195168
 30
0.0
 10
18.5314638338
 20
18.9049702241
 30
0.0
 11
18.6156618504
 21
18.9904867643
 31
0.0
 11
18.614303539
 21
18.9803388074
 31
0.0
 11
18.6102237959
 21
18.9698277407
 31
0.0
 11
18.6034379836
 21
18.9590534855
 31
0.0
 11
18.5939895692
 21
18.9481204778
 31
0.0
 11
18.5819512453
 21
18.9371364107
 31
0.0
 11
18.5674251154
 21
18.9262106172
 31
0.0
 11
18.5314638338
 21
18.9049702241
 31
0.0
  0
SPLINE
  5
4B9
100
AcDbEntity
  8
RACCORDO
100
AcDbSpline
 62
253
  6
CONTINUOUS
 70
0
 71
3
 72
14
 73
10
 74
8
 42
0.0000001
 43
0.0000001
 44
0.0000000001
 12
2.0517438413
 22
-1.2175202418
 32
0.0
 13
1.011159534
 23
-2.1609175658
 33
0.0
 40
0.0
 40
0.0
 40
0.0
 40
0.0
 40
0.1117113174
 40
0.2284994038
 40
0.3498775663
 40
0.4752154167
 40
0.6037690012
 40
0.7347081072
 40
1.0
 40
1.0
 40
1.0
 40
1.0
 10
16.9447542185
 20
21.1671405593
 30
0.0
 10
17.021155221
 20
21.1218036293
 30
0.0
 10
17.1729044451
 20
21.0212748489
 30
0.0
 10
17.3906996811
 20
20.8476185847
 30
0.0
 10
17.6016301146
 20
20.6495007307
 30
0.0
 10
17.8033118109
 20
20.4291706615
 30
0.0
 10
17.9935173198
 20
20.1890728148
 30
0.0
 10
18.2298832747
 20
19.8448552574
 30
0.0
 10
18.3821778833
 20
19.5676280944
 30
0.0
 10
18.4715953589
 20
19.3765367907
 30
0.0
 11
16.9447542185
 21
21.1671405593
 31
0.0
 11
17.1672597151
 21
21.0204290817
 31
0.0
 11
17.3854245174
 21
20.847108504
 31
0.0
 11
17.5967743382
 21
20.6491447014
 31
0.0
 11
17.798912197
 21
20.4287828904
 31
0.0
 11
17.9895454933
 21
20.1885221716
 31
0.0
 11
18.1665121176
 21
19.9310875617
 31
0.0
 11
18.4715953589
 21
19.3765367907
 31
0.0
  0
SPLINE
  5
4BA
100
AcDbEntity
  8
RACCORDO
100
AcDbSpline
 62
253
  6
CONTINUOUS
 70
0
 71
3
 72
19
 73
15
 74
13
 42
0.0000001
 43
0.0000001
 44
0.0000000001
 12
0.3420937617
 22
0.1700860762
 32
0.0
 13
0.1916424317
 23
-0.3305005197
 33
0.0
 40
0.0
 40
0.0
 40
0.0
 40
0.0
 40
0.2169654406
 40
0.4110536596
 40
0.5799412176
 40
0.7216490772
 40
0.7818118702
 40
0.834639353
 40
0.8800289866
 40
0.917937938
 40
0.9484175031
 40
0.9609418656
 40
0.9717272116
 40
1.0
 40
1.0
 40
1.0
 40
1.0
 10
16.2499377698
 20
22.9481044364
 30
0.0
 10
16.274678611
 20
22.9604053699
 30
0.0
 10
16.3217122616
 20
22.9833895781
 30
0.0
 10
16.3886264181
 20
23.0146577155
 30
0.0
 10
16.4474490389
 20
23.0405666546
 30
0.0
 10
16.4912152409
 20
23.0583159161
 30
0.0
 10
16.5216857902
 20
23.0694420308
 30
0.0
 10
16.5408290994
 20
23.075807459
 30
0.0
 10
16.5574759148
 20
23.080654121
 30
0.0
 10
16.5715998982
 20
23.083966062
 30
0.0
 10
16.5817710715
 20
23.0855694924
 30
0.0
 10
16.5886633832
 20
23.0859441778
 30
0.0
 10
16.5950675032
 20
23.0857854779
 30
0.0
 10
16.6009749018
 20
23.0843175403
 30
0.0
 10
16.6027809905
 20
23.0812028165
 30
0.0
 11
16.2499377698
 21
22.9481044364
 31
0.0
 11
16.3244397206
 21
22.9844398052
 31
0.0
 11
16.3916557803
 21
23.0157487768
 31
0.0
 11
16.4507539124
 21
23.0416438573
 31
0.0
 11
16.5009992891
 21
23.0618029775
 31
0.0
 11
16.5226029235
 21
23.0696505785
 31
0.0
 11
16.5417684608
 21
23.0759760671
 31
0.0
 11
16.5584363938
 21
23.0807598131
 31
0.0
 11
16.5725551257
 21
23.0839870637
 31
0.0
 11
16.5840806333
 21
23.0856476901
 31
0.0
 11
16.5888594133
 21
23.0858887122
 31
0.0
 11
16.5929770753
 21
23.0857365114
 31
0.0
 11
16.6027809905
 21
23.0812028165
 31
0.0
  0
SPLINE
  5
4BB
100
AcDbEntity
  8
RACCORDO
100
AcDbSpline
 62
253
  6
CONTINUOUS
 70
0
 71
3
 72
18
 73
14
 74
12
 42
0.0000001
 43
0.0000001
 44
0.0000000001
 12
0.0470410342
 22
0.0290228324
 32
0.0
 13
-0.0547372464
 23
-0.0076822882
 33
0.0
 40
0.0
 40
0.0
 40
0.0
 40
0.0
 40
0.1272265303
 40
0.175366295
 40
0.2142959546
 40
0.2458783849
 40
0.2735369586
 40
0.335487236
 40
0.3782833733
 40
0.4312217488
 40
0.5708913764
 40
0.7594130164
 40
1.0
 40
1.0
 40
1.0
 40
1.0
 10
17.0695161751
 20
15.3588965618
 30
0.0
 10
17.071511131
 20
15.3601273866
 30
0.0
 10
17.0741995977
 20
15.3619663706
 30
0.0
 10
17.076992189
 20
15.3647754098
 30
0.0
 10
17.0782461999
 20
15.3665854244
 30
0.0
 10
17.078858436
 20
15.3683226882
 30
0.0
 10
17.0786740022
 20
15.3706386666
 30
0.0
 10
17.0766815115
 20
15.3724679832
 30
0.0
 10
17.0740404634
 20
15.3736160155
 30
0.0
 10
17.069829314
 20
15.3747607579
 30
0.0
 10
17.0628070917
 20
15.3754073304
 30
0.0
 10
17.0523180496
 20
15.3751587348
 30
0.0
 10
17.0444500106
 20
15.3742886143
 30
0.0
 10
17.040060321
 20
15.3736725281
 30
0.0
 11
17.0695161751
 21
15.3588965618
 31
0.0
 11
17.0751998321
 21
15.3630377028
 31
0.0
 11
17.0770466646
 21
15.3649532721
 31
0.0
 11
17.0782307355
 21
15.366749981
 31
0.0
 11
17.0787522794
 21
15.3684159296
 31
0.0
 11
17.0786107111
 21
15.3699381529
 31
0.0
 11
17.0763309678
 21
15.3724931612
 31
0.0
 11
17.0741885232
 21
15.3734959216
 31
0.0
 11
17.071373056
 21
15.3742929223
 31
0.0
 11
17.0637061919
 21
15.3751976381
 31
0.0
 11
17.0532869498
 21
15.3750497456
 31
0.0
 11
17.040060321
 21
15.3736725281
 31
0.0
  0
SPLINE
  5
4BC
100
AcDbEntity
  8
RACCORDO
100
AcDbSpline
 62
7
  6
CONTINUOUS
 70
0
 71
3
 72
15
 73
11
 74
9
 42
0.0000001
 43
0.0000001
 44
0.0000000001
 12
0.3458981339
 22
0.1680197029
 32
0.0
 13
0.343933937
 23
-0.1720046122
 33
0.0
 40
0.0
 40
0.0
 40
0.0
 40
0.0
 40
0.1656880137
 40
0.3196247913
 40
0.4613593401
 40
0.5907886441
 40
0.7082363666
 40
0.8145306636
 40
0.9110918568
 40
1.0
 40
1.0
 40
1.0
 40
1.0
 10
15.9070401938
 20
23.539515272
 30
0.0
 10
15.9261439187
 20
23.5487948889
 30
0.0
 10
15.9634919798
 20
23.5657064375
 30
0.0
 10
16.0188531702
 20
23.5866287207
 30
0.0
 10
16.0711674344
 20
23.602081712
 30
0.0
 10
16.1200620685
 20
23.6119878801
 30
0.0
 10
16.1652211824
 20
23.6163254934
 30
0.0
 10
16.2063920679
 20
23.6151060749
 30
0.0
 10
16.243339384
 20
23.6083753256
 30
0.0
 10
16.2657581827
 20
23.5999571219
 30
0.0
 10
16.2759510252
 20
23.594859585
 30
0.0
 11
15.9070401938
 21
23.539515272
 31
0.0
 11
15.9651353275
 21
23.5656787542
 31
0.0
 11
16.0205632254
 21
23.5864609516
 31
0.0
 11
16.0728858964
 21
23.601724467
 31
0.0
 11
16.1217085894
 21
23.6113969831
 31
0.0
 11
16.1666886352
 21
23.615470574
 31
0.0
 11
16.2075371529
 21
23.6139961752
 31
0.0
 11
16.2440190339
 21
23.6070767136
 31
0.0
 11
16.2759510252
 21
23.594859585
 31
0.0
  0
SPLINE
  5
4BD
100
AcDbEntity
  8
RACCORDO
100
AcDbSpline
 62
253
  6
CONTINUOUS
 70
0
 71
3
 72
11
 73
7
 74
5
 42
0.0000001
 43
0.0000001
 44
0.0000000001
 12
0.004359318
 22
1.5061458984
 32
0.0
 13
-0.75913754
 23
1.3008476723
 33
0.0
 40
0.0
 40
0.0
 40
0.0
 40
0.0
 40
0.2342472426
 40
0.482518626
 40
0.7397297627
 40
1.0
 40
1.0
 40
1.0
 40
1.0
 10
16.6640882454
 20
21.5164708617
 30
0.0
 10
16.6644286315
 20
21.6340743696
 30
0.0
 10
16.6449720985
 20
21.8766310253
 30
0.0
 10
16.5639389866
 20
22.2400988705
 30
0.0
 10
16.4331819831
 20
22.6026379203
 30
0.0
 10
16.3157980723
 20
22.8352471256
 30
0.0
 10
16.2499377698
 20
22.9481044364
 30
0.0
 11
16.6640882454
 21
21.5164708617
 31
0.0
 11
16.6376657761
 21
21.8682920685
 31
0.0
 11
16.5574540819
 21
22.233522254
 31
0.0
 11
16.4265346741
 21
22.5981291489
 31
0.0
 11
16.2499377698
 21
22.9481044364
 31
0.0
  0
SPLINE
  5
4BE
100
AcDbEntity
  8
RACCORDO
100
AcDbSpline
 62
253
  6
CONTINUOUS
 70
0
 71
3
 72
15
 73
11
 74
9
 42
0.0000001
 43
0.0000001
 44
0.0000000001
 12
0.4162545525
 22
0.2155221038
 32
0.0
 13
0.0000009982
 23
0.4687404716
 33
0.0
 40
0.0
 40
0.0
 40
0.0
 40
0.0
 40
0.1553722745
 40
0.3009898018
 40
0.4368322816
 40
0.5632656902
 40
0.6811336836
 40
0.791823243
 40
0.8972921894
 40
1.0
 40
1.0
 40
1.0
 40
1.0
 10
16.6640882454
 20
21.5164708617
 30
0.0
 10
16.6856463843
 20
21.5276329149
 30
0.0
 10
16.7266161296
 20
21.5508512741
 30
0.0
 10
16.7828787836
 20
21.5896633206
 30
0.0
 10
16.831518659
 20
21.6310383693
 30
0.0
 10
16.8720839295
 20
21.6746365993
 30
0.0
 10
16.9041798188
 20
21.7201081307
 30
0.0
 10
16.9274491998
 20
21.7670911596
 30
0.0
 10
16.9415743191
 20
21.8151418048
 30
0.0
 10
16.9447483048
 20
21.8477505832
 30
0.0
 10
16.9447483389
 20
21.8637983524
 30
0.0
 11
16.6640882454
 21
21.5164708617
 31
0.0
 11
16.7273568377
 21
21.552542849
 31
0.0
 11
16.7834182781
 21
21.5914801002
 31
0.0
 11
16.8317586358
 21
21.6329252282
 31
0.0
 11
16.8719315805
 21
21.6764959776
 31
0.0
 11
16.9035675575
 21
21.7217913646
 31
0.0
 11
16.9263751403
 21
21.7683943023
 31
0.0
 11
16.9401443047
 21
21.8158756967
 31
0.0
 11
16.9447483389
 21
21.8637983524
 31
0.0
  0
SPLINE
  5
4BF
100
AcDbEntity
  8
RACCORDO
100
AcDbSpline
 62
253
  6
CONTINUOUS
 70
0
 71
3
 72
9
 73
5
 74
3
 42
0.0000001
 43
0.0000001
 44
0.0000000001
 12
0.0551628919
 22
0.267327999
 32
0.0
 13
0.000035549
 23
0.2729600748
 33
0.0
 40
0.0
 40
0.0
 40
0.0
 40
0.0
 40
0.4964367752
 40
1.0
 40
1.0
 40
1.0
 40
1.0
 10
16.9186140833
 20
18.9459116553
 30
0.0
 10
16.9277423794
 20
18.9901488052
 30
0.0
 10
16.9407270839
 20
19.0804177101
 30
0.0
 10
16.9447426215
 20
19.1714527542
 30
0.0
 10
16.9447485886
 20
19.2172703061
 30
0.0
 11
16.9186140833
 21
18.9459116553
 31
0.0
 11
16.9384241026
 21
19.0799632279
 31
0.0
 11
16.9447485886
 21
19.2172703061
 31
0.0
  0
SPLINE
  5
4C0
100
AcDbEntity
  8
RACCORDO
100
AcDbSpline
 62
253
  6
CONTINUOUS
 70
0
 71
3
 72
11
 73
7
 74
5
 42
0.0000001
 43
0.0000001
 44
0.0000000001
 12
0.3518239458
 22
0.5813716426
 32
0.0
 13
0.1373282516
 23
0.6655178637
 33
0.0
 40
0.0
 40
0.0
 40
0.0
 40
0.0
 40
0.2561740929
 40
0.5093329034
 40
0.7579914269
 40
1.0
 40
1.0
 40
1.0
 40
1.0
 10
16.6640882454
 20
18.3190259601
 30
0.0
 10
16.6941309721
 20
18.3686700778
 30
0.0
 10
16.7501178344
 20
18.4696966572
 30
0.0
 10
16.8216062556
 20
18.6259905649
 30
0.0
 10
16.8791238575
 20
18.7845520394
 30
0.0
 10
16.9075358786
 20
18.8922246457
 30
0.0
 10
16.9186140833
 20
18.9459116553
 30
0.0
 11
16.6640882454
 21
18.3190259601
 31
0.0
 11
16.7484381366
 21
18.4713054089
 31
0.0
 11
16.819861297
 21
18.6278093507
 31
0.0
 11
16.8771906501
 21
18.7867598607
 31
0.0
 11
16.9186140833
 21
18.9459116553
 31
0.0
  0
SPLINE
  5
4C1
100
AcDbEntity
  8
RACCORDO
100
AcDbSpline
 62
253
  6
CONTINUOUS
 70
0
 71
3
 72
12
 73
8
 74
6
 42
0.0000001
 43
0.0000001
 44
0.0000000001
 12
-0.2622037749
 22
0.1464026006
 32
0.0
 13
-0.2555870009
 23
0.1576699909
 33
0.0
 40
0.0
 40
0.0
 40
0.0
 40
0.0
 40
0.0716805104
 40
0.1610484935
 40
0.3870914068
 40
0.6688600797
 40
1.0
 40
1.0
 40
1.0
 40
1.0
 10
16.9186141028
 20
15.167297991
 30
0.0
 10
16.912349136
 20
15.170796062
 30
0.0
 10
16.8984782348
 20
15.1790193289
 30
0.0
 10
16.8655435187
 20
15.199433808
 30
0.0
 10
16.8151696858
 20
15.2316246682
 30
0.0
 10
16.7443262373
 20
15.276723742
 30
0.0
 10
16.6922999318
 20
15.3092466548
 30
0.0
 10
16.6640882454
 20
15.3266502642
 30
0.0
 11
16.9186141028
 21
15.167297991
 31
0.0
 11
16.900035012
 21
15.1781697055
 31
0.0
 11
16.8771906425
 21
15.1922553692
 31
0.0
 11
16.8198612666
 21
15.2286058539
 31
0.0
 11
16.7484381033
 21
15.2739799188
 31
0.0
 11
16.6640882454
 21
15.3266502642
 31
0.0
  0
SPLINE
  5
4C2
100
AcDbEntity
  8
DRAFT
100
AcDbSpline
 62
253
  6
CONTINUOUS
 70
0
 71
3
 72
14
 73
10
 74
8
 42
0.0000001
 43
0.0000001
 44
0.0000000001
 12
0.4120873158
 22
0.2133644537
 32
0.0
 13
0.0084889412
 23
0.4639701325
 33
0.0
 40
0.0
 40
0.0
 40
0.0
 40
0.0
 40
0.300358307
 40
0.4362285794
 40
0.5627985698
 40
0.6808695106
 40
0.7917632023
 40
0.8973518867
 40
1.0
 40
1.0
 40
1.0
 40
1.0
 10
16.6640882454
 20
-8.8286093841
 30
0.0
 10
16.7053461949
 20
-8.8072474554
 30
0.0
 10
16.7633220851
 20
-8.7718011635
 30
0.0
 10
16.8299213738
 20
-8.7155194641
 30
0.0
 10
16.8703376437
 20
-8.6725213844
 30
0.0
 10
16.902497983
 20
-8.6276862823
 30
0.0
 10
16.9260610937
 20
-8.5813563337
 30
0.0
 10
16.9407185469
 20
-8.5339572285
 30
0.0
 10
16.9444160271
 20
-8.5017311208
 30
0.0
 10
16.944706485
 20
-8.4858559012
 30
0.0
 11
16.6640882454
 21
-8.8286093841
 31
0.0
 11
16.7821704845
 21
-8.7545584668
 31
0.0
 11
16.8301693643
 21
-8.7136751239
 31
0.0
 11
16.8702083921
 21
-8.6707028013
 31
0.0
 11
16.9019279844
 21
-8.6260276095
 31
0.0
 11
16.9250428707
 21
-8.5800511944
 31
0.0
 11
16.9393452156
 21
-8.5331868578
 31
0.0
 11
16.944706485
 21
-8.4858559012
 31
0.0
  0
SPLINE
  5
4C3
100
AcDbEntity
  8
RACCORDO
100
AcDbSpline
 62
253
  6
CONTINUOUS
 70
0
 71
3
 72
13
 73
9
 74
7
 42
0.0000001
 43
0.0000001
 44
0.0000000001
 12
0.7003669796
 22
0.7171276421
 32
0.0
 13
-0.002909987
 23
1.0023859003
 33
0.0
 40
0.0
 40
0.0
 40
0.0
 40
0.0
 40
0.1087417994
 40
0.2211510256
 40
0.3379648488
 40
0.4597227201
 40
0.7190149956
 40
1.0
 40
1.0
 40
1.0
 40
1.0
 10
16.3533215828
 20
-9.7567029549
 30
0.0
 10
16.3787079713
 20
-9.7307090382
 30
0.0
 10
16.4269266828
 20
-9.6744126563
 30
0.0
 10
16.4895797307
 20
-9.5801717992
 30
0.0
 10
16.5432071703
 20
-9.4756117756
 30
0.0
 10
16.6034268772
 20
-9.3202688301
 30
0.0
 10
16.6528598164
 20
-9.1033781874
 30
0.0
 10
16.6643607996
 20
-8.9224945196
 30
0.0
 10
16.6640882454
 20
-8.8286093841
 30
0.0
 11
16.3533215828
 21
-9.7567029549
 31
0.0
 11
16.4243811827
 21
-9.6740476155
 31
0.0
 11
16.4869666643
 21
-9.5803493432
 31
0.0
 11
16.5406307952
 21
-9.4762775554
 31
0.0
 11
16.5849903842
 21
-9.3625754979
 31
0.0
 11
16.644597296
 21
-9.1095907705
 31
0.0
 11
16.6640882454
 21
-8.8286093841
 31
0.0
  0
SPLINE
  5
4C4
100
AcDbEntity
  8
RACCORDO
100
AcDbSpline
 62
253
  6
CONTINUOUS
 70
0
 71
3
 72
11
 73
7
 74
5
 42
0.0000001
 43
0.0000001
 44
0.0000000001
 12
-0.000035696
 22
0.0540314749
 32
0.0
 13
-0.0471761665
 23
0.0263402899
 33
0.0
 40
0.0
 40
0.0
 40
0.0
 40
0.0
 40
0.2451073344
 40
0.484271941
 40
0.7306055117
 40
1.0
 40
1.0
 40
1.0
 40
1.0
 10
16.9447485887
 20
15.122915708
 30
0.0
 10
16.9447456723
 20
15.1273302116
 30
0.0
 10
16.9437733618
 20
15.1360993492
 30
0.0
 10
16.9389088238
 20
15.1485020829
 30
0.0
 10
16.9304709847
 20
15.1593935808
 30
0.0
 10
16.9228504359
 20
15.1649326813
 30
0.0
 10
16.9186141028
 20
15.167297991
 30
0.0
 11
16.9447485887
 21
15.122915708
 31
0.0
 11
16.9431845065
 21
15.136066537
 31
0.0
 11
16.9384241073
 21
15.1480801758
 31
0.0
 11
16.9303053214
 21
15.158626989
 31
0.0
 11
16.9186141028
 21
15.167297991
 31
0.0
  0
SPLINE
  5
4C5
100
AcDbEntity
  8
RACCORDO
100
AcDbSpline
 62
253
  6
CONTINUOUS
 70
0
 71
3
 72
15
 73
11
 74
9
 42
0.0000001
 43
0.0000001
 44
0.0000000001
 12
0.9801430066
 22
0.4900636375
 32
0.0
 13
1.0202931533
 23
-0.3998056574
 33
0.0
 40
0.0
 40
0.0
 40
0.0
 40
0.0
 40
0.1109318219
 40
0.2314291971
 40
0.3591584417
 40
0.4912948844
 40
0.6246941119
 40
0.7560625163
 40
0.882152807
 40
1.0
 40
1.0
 40
1.0
 40
1.0
 10
-4.5542075419
 20
24.0686963575
 30
0.0
 10
-4.5179645255
 20
24.0868175749
 30
0.0
 10
-4.4395246624
 20
24.1190786773
 30
0.0
 10
-4.3130198825
 20
24.1546859909
 30
0.0
 10
-4.175939621
 20
24.1786577918
 30
0.0
 10
-4.0325518438
 20
24.1901491944
 30
0.0
 10
-3.8873841189
 20
24.1887036431
 30
0.0
 10
-3.7451293979
 20
24.1742680598
 30
0.0
 10
-3.6105082822
 20
24.1472441716
 30
0.0
 10
-3.5253184695
 20
24.120276952
 30
0.0
 10
-3.4852389081
 20
24.1045716272
 30
0.0
 11
-4.5542075419
 21
24.0686963575
 31
0.0
 11
-4.4420601705
 21
24.1156045653
 31
0.0
 11
-4.3150893781
 21
24.1518563818
 31
0.0
 11
-4.177263295
 21
24.1762578341
 31
0.0
 11
-4.0329372057
 21
24.1879514482
 31
0.0
 11
-3.8867619948
 21
24.1864587179
 31
0.0
 11
-3.7435608505
 21
24.1717222262
 31
0.0
 11
-3.6081686546
 21
24.1441384522
 31
0.0
 11
-3.4852389081
 21
24.1045716272
 31
0.0
  0
SPLINE
  5
4C6
100
AcDbEntity
  8
RACCORDO
100
AcDbSpline
 62
253
  6
CONTINUOUS
 70
0
 71
3
 72
12
 73
8
 74
6
 42
0.0000001
 43
0.0000001
 44
0.0000000001
 12
-0.3919720459
 22
0.1632993423
 32
0.0
 13
-0.3830174063
 23
-0.1833205566
 33
0.0
 40
0.0
 40
0.0
 40
0.0
 40
0.0
 40
0.1132615417
 40
0.2282471345
 40
0.4669461492
 40
0.72295398
 40
1.0
 40
1.0
 40
1.0
 40
1.0
 10
9.7919242796
 20
26.8358758992
 30
0.0
 10
9.7771258269
 20
26.8420410776
 30
0.0
 10
9.7464705323
 20
26.8525643677
 30
0.0
 10
9.6816346545
 20
26.8660996287
 30
0.0
 10
9.5945211316
 20
26.8680837841
 30
0.0
 10
9.486620634
 20
26.8472602515
 30
0.0
 10
9.4159471908
 20
26.8196767583
 30
0.0
 10
9.3805760415
 20
26.8027473481
 30
0.0
 11
9.7919242796
 21
26.8358758992
 31
0.0
 11
9.7464467324
 21
26.8515227954
 31
0.0
 11
9.6986617096
 21
26.8615516288
 31
0.0
 11
9.5973476854
 21
26.8645450077
 31
0.0
 11
9.4904509801
 21
26.8447831195
 31
0.0
 11
9.3805760415
 21
26.8027473481
 31
0.0
  0
SPLINE
  5
4C7
100
AcDbEntity
  8
RACCORDO
100
AcDbSpline
 62
253
  6
CONTINUOUS
 70
0
 71
3
 72
11
 73
7
 74
5
 42
0.0000001
 43
0.0000001
 44
0.0000000001
 12
0.0829653579
 22
0.0414856941
 32
0.0
 13
0.082966564
 23
-0.041483282
 33
0.0
 40
0.0
 40
0.0
 40
0.0
 40
0.0
 40
0.2271109519
 40
0.4646760174
 40
0.7207663845
 40
1.0
 40
1.0
 40
1.0
 40
1.0
 10
-4.6436502272
 20
24.0743766475
 30
0.0
 10
-4.6373694468
 20
24.077517266
 30
0.0
 10
-4.6235281374
 20
24.0821230505
 30
0.0
 10
-4.6010399673
 20
24.0832475117
 30
0.0
 10
-4.57737233
 20
24.0788012487
 30
0.0
 10
-4.5619298932
 20
24.0725575331
 30
0.0
 10
-4.5542075419
 20
24.0686963575
 30
0.0
 11
-4.6436502272
 21
24.0743766475
 31
0.0
 11
-4.6236826514
 21
24.0810923832
 31
0.0
 11
-4.6016840505
 21
24.0823825662
 31
0.0
 11
-4.5782985324
 21
24.0782102759
 31
0.0
 11
-4.5542075419
 21
24.0686963575
 31
0.0
  0
SPLINE
  5
4C8
100
AcDbEntity
  8
RACCORDO
100
AcDbSpline
 62
7
  6
CONTINUOUS
 70
0
 71
3
 72
11
 73
7
 74
5
 42
0.0000001
 43
0.0000001
 44
0.0000000001
 12
0.0789043412
 22
0.0394542114
 32
0.0
 13
0.0789051575
 23
-0.0394525788
 33
0.0
 40
0.0
 40
0.0
 40
0.0
 40
0.0
 40
0.21439309
 40
0.4477462014
 40
0.7084790342
 40
1.0
 40
1.0
 40
1.0
 40
1.0
 10
-4.7052071633
 20
24.0435982561
 30
0.0
 10
-4.6995683148
 20
24.0464178262
 30
0.0
 10
-4.6867601847
 20
24.0503812345
 30
0.0
 10
-4.6657139233
 20
24.0506959732
 30
0.0
 10
-4.6429810549
 20
24.0457814549
 30
0.0
 10
-4.627911561
 20
24.0395118506
 30
0.0
 10
-4.6202440584
 20
24.0356780993
 30
0.0
 11
-4.7052071633
 21
24.0435982561
 31
0.0
 11
-4.687189579
 21
24.0493502945
 31
0.0
 11
-4.6666120866
 21
24.049945403
 31
0.0
 11
-4.6440750046
 21
24.0453466154
 31
0.0
 11
-4.6202440584
 21
24.0356780993
 31
0.0
  0
SPLINE
  5
4C9
100
AcDbEntity
  8
RACCORDO
100
AcDbSpline
 62
7
  6
CONTINUOUS
 70
0
 71
3
 72
9
 73
5
 74
3
 42
0.0000001
 43
0.0000001
 44
0.0000000001
 12
-0.038605051
 22
0.0140773491
 32
0.0
 13
-0.0403731189
 23
-0.0076506857
 33
0.0
 40
0.0
 40
0.0
 40
0.0
 40
0.0
 40
0.4845215115
 40
1.0
 40
1.0
 40
1.0
 40
1.0
 10
-3.4079819546
 20
24.1158604418
 30
0.0
 10
-3.4142169472
 20
24.1181340346
 30
0.0
 10
-3.4278577812
 20
24.1208847419
 30
0.0
 10
-3.4416752935
 20
24.1198167932
 30
0.0
 10
-3.4486124516
 20
24.1185022052
 30
0.0
 11
-3.4079819546
 21
24.1158604418
 31
0.0
 11
-3.4274769794
 21
24.1199031165
 31
0.0
 11
-3.4486124516
 21
24.1185022052
 31
0.0
  0
SPLINE
  5
4CA
100
AcDbEntity
  8
RACCORDO
100
AcDbSpline
 62
7
  6
CONTINUOUS
 70
0
 71
3
 72
9
 73
5
 74
3
 42
0.0000001
 43
0.0000001
 44
0.0000000001
 12
-0.0337793886
 22
-0.0080488248
 32
0.0
 13
-0.0302423416
 23
-0.0170655046
 33
0.0
 40
0.0
 40
0.0
 40
0.0
 40
0.0
 40
0.2373472015
 40
1.0
 40
1.0
 40
1.0
 40
1.0
 10
-3.4530978616
 20
24.1175423351
 30
0.0
 10
-3.4557703427
 20
24.1169055464
 30
0.0
 10
-3.4669202806
 20
24.1137640882
 30
0.0
 10
-3.4775506266
 20
24.1089099058
 30
0.0
 10
-3.4852387621
 20
24.1045715542
 30
0.0
 11
-3.4530978616
 21
24.1175423351
 31
0.0
 11
-3.4610338853
 21
24.1153178297
 31
0.0
 11
-3.4852387621
 21
24.1045715542
 31
0.0
  0
SPLINE
  5
4CB
100
AcDbEntity
  8
RACCORDO
100
AcDbSpline
 62
253
  6
CONTINUOUS
 70
0
 71
3
 72
12
 73
8
 74
6
 42
0.0000001
 43
0.0000001
 44
0.0000000001
 12
-0.1509887071
 22
0.086284398
 32
0.0
 13
-0.0351145078
 23
0.1703219257
 33
0.0
 40
0.0
 40
0.0
 40
0.0
 40
0.0
 40
0.2995454897
 40
0.4376656587
 40
0.5672182521
 40
0.7996841846
 40
1.0
 40
1.0
 40
1.0
 40
1.0
 10
17.0329182807
 20
18.8207762473
 30
0.0
 10
17.0178422853
 20
18.8293916147
 30
0.0
 10
16.9965029088
 20
18.8433112097
 30
0.0
 10
16.9712017543
 20
18.8643631816
 30
0.0
 10
16.9505757462
 20
18.8847766502
 30
0.0
 10
16.930651484
 20
18.9108864855
 30
0.0
 10
16.9209588956
 20
18.9345389128
 30
0.0
 10
16.9186142318
 20
18.9459116379
 30
0.0
 11
17.0329182807
 21
18.8207762473
 31
0.0
 11
16.989483384
 21
18.8495338808
 31
0.0
 11
16.9710594243
 21
18.8649449489
 31
0.0
 11
16.9550892788
 21
18.8808365264
 31
0.0
 11
16.9311400517
 21
18.9134057806
 31
0.0
 11
16.9186142318
 21
18.9459116379
 31
0.0
  0
SPLINE
  5
4CC
100
AcDbEntity
  8
RACCORDO
100
AcDbSpline
 62
253
  6
CONTINUOUS
 70
0
 71
3
 72
11
 73
7
 74
5
 42
0.0000001
 43
0.0000001
 44
0.0000000001
 12
-0.1906868562
 22
-0.1473331543
 32
0.0
 13
-0.0262136265
 23
-0.2395441113
 33
0.0
 40
0.0
 40
0.0
 40
0.0
 40
0.0
 40
0.2485947385
 40
0.4982065122
 40
0.7487523466
 40
1.0
 40
1.0
 40
1.0
 40
1.0
 10
17.0329186534
 20
15.3725556588
 30
0.0
 10
17.0171174037
 20
15.3603469098
 30
0.0
 10
16.9878726568
 20
15.3325548307
 30
0.0
 10
16.9532848345
 20
15.2828716092
 30
0.0
 10
16.929199272
 20
15.2271040427
 30
0.0
 10
16.9208094945
 20
15.1873596205
 30
0.0
 10
16.9186141238
 20
15.1672979885
 30
0.0
 11
17.0329186534
 21
15.3725556588
 31
0.0
 11
16.9894836598
 21
15.3313003715
 31
0.0
 11
16.9550894316
 21
15.2819540705
 31
0.0
 11
16.9311400716
 21
15.2265322623
 31
0.0
 11
16.9186141238
 21
15.1672979885
 31
0.0
  0
SPLINE
  5
4CD
100
AcDbEntity
  8
RACCORDO
100
AcDbSpline
 62
7
  6
CONTINUOUS
 70
0
 71
3
 72
10
 73
6
 74
4
 42
0.0000001
 43
0.0000001
 44
0.0000000001
 12
0.08518834
 22
0.0445591007
 32
0.0
 13
0.0457515924
 23
0.0845538794
 33
0.0
 40
0.0
 40
0.0
 40
0.0
 40
0.0
 40
0.5245740276
 40
0.7673422648
 40
1.0
 40
1.0
 40
1.0
 40
1.0
 10
18.5314638338
 20
16.6744300541
 30
0.0
 10
18.5463596974
 20
16.6822215698
 30
0.0
 10
18.5670667819
 20
16.6962186828
 30
0.0
 10
18.5889360102
 20
16.7197831464
 30
0.0
 10
18.5973946417
 20
16.7325625722
 30
0.0
 10
18.6009427956
 20
16.7391199435
 30
0.0
 11
18.5314638338
 21
16.6744300541
 31
0.0
 11
18.5728367002
 21
16.7032681562
 31
0.0
 11
18.588651645
 21
16.7204324007
 31
0.0
 11
18.6009427956
 21
16.7391199435
 31
0.0
  0
SPLINE
  5
4CE
100
AcDbEntity
  8
RACCORDO
100
AcDbSpline
 62
253
  6
CONTINUOUS
 70
0
 71
3
 72
9
 73
5
 74
3
 42
0.0000001
 43
0.0000001
 44
0.0000000001
 12
0.0061924362
 22
-0.1350354738
 32
0.0
 13
-0.0397802395
 23
-0.1291915554
 33
0.0
 40
0.0
 40
0.0
 40
0.0
 40
0.0
 40
0.5229002141
 40
1.0
 40
1.0
 40
1.0
 40
1.0
 10
18.5314638338
 20
16.5035004356
 30
0.0
 10
18.5325431759
 20
16.4799637429
 30
0.0
 10
18.5315422738
 20
16.4347276937
 30
0.0
 10
18.5229092177
 20
16.3901870638
 30
0.0
 10
18.5165828364
 20
16.3696413094
 30
0.0
 11
18.5314638338
 21
16.5035004356
 31
0.0
 11
18.5294096131
 21
16.4328460081
 31
0.0
 11
18.5165828364
 21
16.3696413094
 31
0.0
  0
SPLINE
  5
4CF
100
AcDbEntity
  8
RACCORDO
100
AcDbSpline
 62
253
  6
CONTINUOUS
 70
0
 71
3
 72
9
 73
5
 74
3
 42
0.0000001
 43
0.0000001
 44
0.0000000001
 12
-0.0259604078
 22
-0.0843098356
 32
0.0
 13
-0.0544424586
 23
-0.0694126059
 33
0.0
 40
0.0
 40
0.0
 40
0.0
 40
0.0
 40
0.5167954302
 40
1.0
 40
1.0
 40
1.0
 40
1.0
 10
18.5165828364
 20
16.3696413094
 30
0.0
 10
18.5121107631
 20
16.3551176634
 30
0.0
 10
18.5012927878
 20
16.3276090325
 30
0.0
 10
18.485591078
 20
16.3024885214
 30
0.0
 10
18.4768221297
 20
16.2913083586
 30
0.0
 11
18.5165828364
 21
16.3696413094
 31
0.0
 11
18.499625067
 21
16.327322807
 31
0.0
 11
18.4768221297
 21
16.2913083586
 31
0.0
  0
SPLINE
  5
4D0
100
AcDbEntity
  8
RACCORDO
100
AcDbSpline
 62
253
  6
CONTINUOUS
 70
0
 71
3
 72
13
 73
9
 74
7
 42
0.0000001
 43
0.0000001
 44
0.0000000001
 12
-0.3467888847
 22
-0.1389215152
 32
0.0
 13
-0.3735781055
 23
0.0010569083
 33
0.0
 40
0.0
 40
0.0
 40
0.0
 40
0.0
 40
0.0989319177
 40
0.2056007533
 40
0.3199358737
 40
0.4417652537
 40
0.7070506948
 40
1.0
 40
1.0
 40
1.0
 40
1.0
 10
17.0329172898
 20
15.3725551029
 30
0.0
 10
17.0214811266
 20
15.3679738456
 30
0.0
 10
16.9971915855
 20
15.3597407112
 30
0.0
 10
16.9585316095
 20
15.3499973909
 30
0.0
 10
16.9165404204
 20
15.3421667434
 30
0.0
 10
16.8546382547
 20
15.3338101609
 30
0.0
 10
16.7700981011
 20
15.3276981535
 30
0.0
 10
16.7005680609
 20
15.3265470573
 30
0.0
 10
16.6640882454
 20
15.3266502642
 30
0.0
 11
17.0329172898
 21
15.3725551029
 31
0.0
 11
16.9979772172
 21
15.3605070722
 31
0.0
 11
16.9593732258
 21
15.3506228102
 31
0.0
 11
16.9174050028
 21
15.34267979
 31
0.0
 11
16.8723141909
 21
15.3364951943
 31
0.0
 11
16.7735066221
 21
15.3288198574
 31
0.0
 11
16.6640882454
 21
15.3266502642
 31
0.0
  0
SPLINE
  5
4D1
100
AcDbEntity
  8
RACCORDO
100
AcDbSpline
 62
253
  6
CONTINUOUS
 70
0
 71
3
 72
12
 73
8
 74
6
 42
0.0000001
 43
0.0000001
 44
0.0000000001
 12
-0.0106266053
 22
-0.1341125036
 32
0.0
 13
-0.1194689082
 23
-0.0618568375
 33
0.0
 40
0.0
 40
0.0
 40
0.0
 40
0.0
 40
0.1025701586
 40
0.2086180219
 40
0.4383479571
 40
0.7008544975
 40
1.0
 40
1.0
 40
1.0
 40
1.0
 10
18.6154266579
 20
16.6017616618
 30
0.0
 10
18.6150633337
 20
16.5971763482
 30
0.0
 10
18.6134608967
 20
16.5878986925
 30
0.0
 10
18.6067727717
 20
16.5693247411
 30
0.0
 10
18.5915843649
 20
16.5467096863
 30
0.0
 10
18.5650086437
 20
16.522829502
 30
0.0
 10
18.543376696
 20
16.5096685005
 30
0.0
 10
18.5314638338
 20
16.5035004356
 30
0.0
 11
18.6154266579
 21
16.6017616618
 31
0.0
 11
18.6131055322
 21
16.5881592237
 31
0.0
 11
18.6083206097
 21
16.5747186297
 31
0.0
 11
18.5915378337
 21
16.5487661139
 31
0.0
 11
18.5656337417
 21
16.5247623544
 31
0.0
 11
18.5314638338
 21
16.5035004356
 31
0.0
  0
SPLINE
  5
4D2
100
AcDbEntity
  8
RACCORDO
100
AcDbSpline
 62
253
  6
CONTINUOUS
 70
0
 71
3
 72
9
 73
5
 74
3
 42
0.0000001
 43
0.0000001
 44
0.0000000001
 12
0.1226776604
 22
-0.2830030354
 32
0.0
 13
-0.0134905382
 23
-0.3081534225
 33
0.0
 40
0.0
 40
0.0
 40
0.0
 40
0.0
 40
0.5153566805
 40
1.0
 40
1.0
 40
1.0
 40
1.0
 10
18.4715954371
 20
19.3765368228
 30
0.0
 10
18.4926696878
 20
19.3279209879
 30
0.0
 10
18.5240986959
 20
19.229187752
 30
0.0
 10
18.5336432002
 20
19.1256811823
 30
0.0
 10
18.5314638338
 20
19.0758996831
 30
0.0
 11
18.4715954371
 21
19.3765368228
 31
0.0
 11
18.5192516261
 21
19.2248875608
 31
0.0
 11
18.5314638338
 21
19.0758996831
 31
0.0
  0
SPLINE
  5
4D3
100
AcDbEntity
  8
RACCORDO
100
AcDbSpline
 62
253
  6
CONTINUOUS
 70
0
 71
3
 72
11
 73
7
 74
5
 42
0.0000001
 43
0.0000001
 44
0.0000000001
 12
0.4333479775
 22
0.4499808141
 32
0.0
 13
0.2850887391
 23
0.5558755378
 33
0.0
 40
0.0
 40
0.0
 40
0.0
 40
0.0
 40
0.2612074294
 40
0.5159461504
 40
0.7628687649
 40
1.0
 40
1.0
 40
1.0
 40
1.0
 10
16.6640882454
 20
18.3190259601
 30
0.0
 10
16.7018194825
 20
18.358205404
 30
0.0
 10
16.7739571238
 20
18.4379404511
 30
0.0
 10
16.8728027886
 20
18.5624488679
 30
0.0
 10
16.9599549976
 20
18.6893797234
 30
0.0
 10
17.010382987
 20
18.7768357153
 30
0.0
 10
17.0329174686
 20
18.8207741996
 30
0.0
 11
16.6640882454
 21
18.3190259601
 31
0.0
 11
16.7735067134
 21
18.4400865835
 31
0.0
 11
16.8723143445
 21
18.5648366892
 31
0.0
 11
16.9593734193
 21
18.6921786624
 31
0.0
 11
17.0329174686
 21
18.8207741996
 31
0.0
  0
SPLINE
  5
4D4
100
AcDbEntity
  8
0
100
AcDbSpline
 62
7
  6
CONTINUOUS
 70
0
 71
3
 72
15
 73
11
 74
9
 42
0.0000001
 43
0.0000001
 44
0.0000000001
 12
-1.1616395551
 22
-0.5801368803
 32
0.0
 13
0.0000196704
 23
-1.2984472479
 33
0.0
 40
0.0
 40
0.0
 40
0.0
 40
0.0
 40
0.1561642573
 40
0.3023479847
 40
0.4385028439
 40
0.5649877802
 40
0.6826570332
 40
0.7929382134
 40
0.8978639592
 40
1.0
 40
1.0
 40
1.0
 40
1.0
 10
7.2422547786
 20
23.5781190299
 30
0.0
 10
7.1817859192
 20
23.5479201482
 30
0.0
 10
7.0668506295
 20
23.4849899337
 30
0.0
 10
6.9088438297
 20
23.3793599088
 30
0.0
 10
6.7721761966
 20
23.266418301
 30
0.0
 10
6.6581402037
 20
23.1471110072
 30
0.0
 10
6.567867745
 20
23.0224060368
 30
0.0
 10
6.5023862913
 20
22.8933057735
 30
0.0
 10
6.4626222672
 20
22.7610503691
 30
0.0
 10
6.4536928821
 20
22.6711948872
 30
0.0
 10
6.4536935518
 20
22.6269888002
 30
0.0
 11
7.2422547786
 21
23.5781190299
 31
0.0
 11
7.0646544711
 21
23.4802710379
 31
0.0
 11
6.9072008335
 21
23.3742668228
 31
0.0
 11
6.7713747886
 21
23.261103423
 31
0.0
 11
6.6584557791
 21
23.1418469354
 31
0.0
 11
6.5695078153
 21
23.0176204318
 31
0.0
 11
6.5053684434
 21
22.8895940788
 31
0.0
 11
6.4666421275
 21
22.7589734112
 31
0.0
 11
6.4536935518
 21
22.6269888002
 31
0.0
  0
LINE
  5
4D5
100
AcDbEntity
  8
0
100
AcDbLine
 62
7
  6
CONTINUOUS
 10
7.2442388787
 20
23.5791120998
 11
7.2422547786
 21
23.5781190299
  0
SPLINE
  5
4D6
100
AcDbEntity
  8
RACCORDO
100
AcDbSpline
 62
253
  6
CONTINUOUS
 70
0
 71
3
 72
12
 73
8
 74
6
 42
0.0000001
 43
0.0000001
 44
0.0000000001
 12
-0.374136593
 22
0.1935707845
 32
0.0
 13
-0.3941392644
 23
-0.1486676799
 33
0.0
 40
0.0
 40
0.0
 40
0.0
 40
0.0
 40
0.2771491672
 40
0.5332016441
 40
0.7718746877
 40
0.8868124425
 40
1.0
 40
1.0
 40
1.0
 40
1.0
 10
9.3805760415
 20
26.8027473481
 30
0.0
 10
9.3460121597
 20
26.8206300087
 30
0.0
 10
9.2767796731
 20
26.8501886641
 30
0.0
 10
9.1704475345
 20
26.8742832281
 30
0.0
 10
9.0840198752
 20
26.8751691751
 30
0.0
 10
9.0193070559
 20
26.863912862
 30
0.0
 10
8.9885762502
 20
26.8545160014
 30
0.0
 10
8.9737056967
 20
26.8489068909
 30
0.0
 11
9.3805760415
 21
26.8027473481
 31
0.0
 11
9.2729001556
 21
26.847869037
 31
0.0
 11
9.1675226624
 21
26.870881505
 31
0.0
 11
9.0669833026
 21
26.8712302696
 31
0.0
 11
9.0192914888
 21
26.8628816866
 31
0.0
 11
8.9737056967
 21
26.8489068909
 31
0.0
  0
SPLINE
  5
4D7
100
AcDbEntity
  8
RACCORDO
100
AcDbSpline
 62
253
  6
CONTINUOUS
 70
0
 71
3
 72
9
 73
5
 74
3
 42
0.0000001
 43
0.0000001
 44
0.0000000001
 12
-0.2177712776
 22
0.1126705001
 32
0.0
 13
-0.2445917997
 23
0.0171412507
 33
0.0
 40
0.0
 40
0.0
 40
0.0
 40
0.0
 40
0.5216441079
 40
1.0
 40
1.0
 40
1.0
 40
1.0
 10
3.4622569742
 20
24.0694714765
 30
0.0
 10
3.4243906062
 20
24.0890627773
 30
0.0
 10
3.348559121
 20
24.1208512241
 30
0.0
 10
3.2675964402
 20
24.1367658182
 30
0.0
 10
3.2285957974
 20
24.1394990243
 30
0.0
 11
3.4622569742
 21
24.0694714765
 31
0.0
 11
3.3438802485
 21
24.1179078143
 31
0.0
 11
3.2285957974
 21
24.1394990243
 31
0.0
  0
SPLINE
  5
4D8
100
AcDbEntity
  8
RACCORDO
100
AcDbSpline
 62
253
  6
CONTINUOUS
 70
0
 71
3
 72
14
 73
10
 74
8
 42
0.0000001
 43
0.0000001
 44
0.0000000001
 12
0.7132637484
 22
-2.0432955971
 32
0.0
 13
-0.8673464472
 23
-1.9828041286
 33
0.0
 40
0.0
 40
0.0
 40
0.0
 40
0.0
 40
0.1411210541
 40
0.2791621297
 40
0.4131767032
 40
0.5423387214
 40
0.6659809227
 40
0.7836361094
 40
1.0
 40
1.0
 40
1.0
 40
1.0
 10
18.5278262417
 20
18.9030200364
 30
0.0
 10
18.5613784191
 20
18.8069026935
 30
0.0
 10
18.6211756773
 20
18.6143866841
 30
0.0
 10
18.6888033749
 20
18.3238259948
 30
0.0
 10
18.732781415
 20
18.0374349093
 30
0.0
 10
18.7525616263
 20
17.7587736411
 30
0.0
 10
18.747851441
 20
17.491102194
 30
0.0
 10
18.7101254988
 20
17.162905478
 30
0.0
 10
18.6447924569
 20
16.9277783336
 30
0.0
 10
18.5822383063
 20
16.7847759284
 30
0.0
 11
18.5278262417
 21
18.9030200364
 31
0.0
 11
18.6182309991
 21
18.6112913789
 31
0.0
 11
18.6856755285
 21
18.3202541481
 31
0.0
 11
18.7293227569
 21
18.033521583
 31
0.0
 11
18.7486303512
 21
17.7546555287
 31
0.0
 11
18.7433583632
 21
17.4871198608
 31
0.0
 11
18.7135723741
 21
17.2342375503
 31
0.0
 11
18.5822383063
 21
16.7847759284
 31
0.0
  0
LINE
  5
4D9
100
AcDbEntity
  8
RACCORDO
100
AcDbLine
 62
253
  6
CONTINUOUS
 10
18.4715952496
 20
16.2849226245
 11
18.1777918048
 21
16.0977014975
  0
LINE
  5
4DA
100
AcDbEntity
  8
RACCORDO
100
AcDbLine
 62
253
  6
CONTINUOUS
 10
18.1777918048
 20
16.0977014975
 11
18.177012434
 21
16.0972055343
  0
SPLINE
  5
4DB
100
AcDbEntity
  8
RACCORDO
100
AcDbSpline
 62
253
  6
CONTINUOUS
 70
0
 71
3
 72
9
 73
5
 74
3
 42
0.0000001
 43
0.0000001
 44
0.0000000001
 12
-0.218270631
 22
-0.2481886903
 32
0.0
 13
-0.2779563669
 23
-0.1788293948
 33
0.0
 40
0.0
 40
0.0
 40
0.0
 40
0.0
 40
0.5054046779
 40
1.0
 40
1.0
 40
1.0
 40
1.0
 10
18.4715952496
 20
16.2849226245
 30
0.0
 10
18.4348235836
 20
16.2431107162
 30
0.0
 10
18.3565703479
 20
16.1650223279
 30
0.0
 10
18.2681439712
 20
16.0985989132
 30
0.0
 10
18.222318665
 20
16.0691161858
 30
0.0
 11
18.4715952496
 21
16.2849226245
 31
0.0
 11
18.3531259159
 21
16.1671578723
 31
0.0
 11
18.222318665
 21
16.0691161858
 31
0.0
  0
SPLINE
  5
4DC
100
AcDbEntity
  8
RACCORDO
100
AcDbSpline
 62
253
  6
CONTINUOUS
 70
0
 71
3
 72
12
 73
8
 74
6
 42
0.0000001
 43
0.0000001
 44
0.0000000001
 12
0.2640316196
 22
0.9248100881
 32
0.0
 13
-0.4170355563
 23
0.8666416445
 33
0.0
 40
0.0
 40
0.0
 40
0.0
 40
0.0
 40
0.120674052
 40
0.2431439769
 40
0.4917294927
 40
0.744127589
 40
1.0
 40
1.0
 40
1.0
 40
1.0
 10
17.03291809
 20
18.820774434
 30
0.0
 10
17.0435386784
 20
18.8579746276
 30
0.0
 10
17.0608904603
 20
18.934138022
 30
0.0
 10
17.081004186
 20
19.0906680362
 30
0.0
 10
17.0797421819
 20
19.2916469543
 30
0.0
 10
17.0371302372
 20
19.5316131918
 30
0.0
 10
16.9803758303
 20
19.6855424481
 30
0.0
 10
16.9448065325
 20
19.7594590105
 30
0.0
 11
17.03291809
 21
18.820774434
 31
0.0
 11
17.0589379971
 21
18.9338798103
 31
0.0
 11
17.0741102927
 21
19.0506854766
 31
0.0
 11
17.0730549965
 21
19.2897632828
 31
0.0
 11
17.030387152
 21
19.5287309113
 31
0.0
 11
16.9448065325
 21
19.7594590105
 31
0.0
  0
SPLINE
  5
4DD
100
AcDbEntity
  8
0
100
AcDbSpline
 62
7
  6
CONTINUOUS
 70
0
 71
3
 72
13
 73
9
 74
7
 42
0.0000001
 43
0.0000001
 44
0.0000000001
 12
0.4870656356
 22
0.2340793565
 32
0.0
 13
0.4833750126
 23
-0.2416085174
 33
0.0
 40
0.0
 40
0.0
 40
0.0
 40
0.0
 40
0.122764112
 40
0.2448181523
 40
0.3669396146
 40
0.4898651034
 40
0.7402199278
 40
1.0
 40
1.0
 40
1.0
 40
1.0
 10
10.4204113234
 20
26.2828297071
 30
0.0
 10
10.4403427168
 20
26.2924085552
 30
0.0
 10
10.4813233428
 20
26.3090660964
 30
0.0
 10
10.5453683346
 20
26.3260737304
 30
0.0
 10
10.6110798436
 20
26.33491405
 30
0.0
 10
10.7005063962
 20
26.3359092504
 30
0.0
 10
10.8139636804
 20
26.3167998706
 30
0.0
 10
10.9000288226
 20
26.282813815
 30
0.0
 10
10.9418858878
 20
26.2618921223
 30
0.0
 11
10.4204113234
 21
26.2828297071
 31
0.0
 11
10.4818821195
 21
26.3077791401
 31
0.0
 11
10.5456288518
 21
26.3247119995
 31
0.0
 11
10.6110279434
 21
26.3335513433
 31
0.0
 11
10.6774513846
 21
26.3343499989
 31
0.0
 11
10.8109832063
 21
26.3126076839
 31
0.0
 11
10.9418858878
 21
26.2618921223
 31
0.0
  0
SPLINE
  5
4DE
100
AcDbEntity
  8
0
100
AcDbSpline
 62
7
  6
CONTINUOUS
 70
0
 71
3
 72
22
 73
18
 74
16
 42
0.0000001
 43
0.0000001
 44
0.0000000001
 12
-1.2116220673
 22
1.7369886559
 32
0.0
 13
1.9088224156
 23
0.9173628564
 33
0.0
 40
0.0
 40
0.0
 40
0.0
 40
0.0
 40
0.0599136763
 40
0.1171252904
 40
0.1722031794
 40
0.2258273789
 40
0.2787624717
 40
0.3318164322
 40
0.3857894871
 40
0.4414251618
 40
0.4993722159
 40
0.56016431
 40
0.6242120119
 40
0.6918093651
 40
0.7631424126
 40
0.8383031185
 40
1.0
 40
1.0
 40
1.0
 40
1.0
 10
6.0859533254
 20
22.9247823333
 30
0.0
 10
6.061755748
 20
22.9594721253
 30
0.0
 10
6.0178904977
 20
23.0297938851
 30
0.0
 10
5.9658527095
 20
23.1399786524
 30
0.0
 10
5.9295527257
 20
23.2516956492
 30
0.0
 10
5.9092524481
 20
23.364355502
 30
0.0
 10
5.9051171374
 20
23.4773417007
 30
0.0
 10
5.9171804636
 20
23.5900026946
 30
0.0
 10
5.9453493298
 20
23.7016967335
 30
0.0
 10
5.9894136279
 20
23.8118203753
 30
0.0
 10
6.049073001
 20
23.9198254663
 30
0.0
 10
6.1239745871
 20
24.0252031464
 30
0.0
 10
6.2137050906
 20
24.1274829038
 30
0.0
 10
6.3178089981
 20
24.2262030857
 30
0.0
 10
6.4357783233
 20
24.3209301328
 30
0.0
 10
6.6151532298
 20
24.4443087496
 30
0.0
 10
6.7623522185
 20
24.5247994567
 30
0.0
 10
6.8652357625
 20
24.5742443611
 30
0.0
 11
6.0859533254
 21
22.9247823333
 31
0.0
 11
6.0190952159
 21
23.0326254277
 31
0.0
 11
5.9676389797
 21
23.1423201574
 31
0.0
 11
5.9318355371
 21
23.2533344375
 31
0.0
 11
5.9118559053
 21
23.3651294765
 31
0.0
 11
5.9077989533
 21
23.4771629945
 31
0.0
 11
5.9196821551
 21
23.5888915255
 31
0.0
 11
5.9474482874
 21
23.6997730508
 31
0.0
 11
5.9909627536
 21
23.8092697473
 31
0.0
 11
6.0500125056
 21
23.9168507076
 31
0.0
 11
6.12431338
 21
24.0219938557
 31
0.0
 11
6.2135019446
 21
24.124189753
 31
0.0
 11
6.3171474944
 21
24.2229424186
 31
0.0
 11
6.4347460301
 21
24.317773199
 31
0.0
 11
6.5657276078
 21
24.4082224799
 31
0.0
 11
6.8652357625
 21
24.5742443611
 31
0.0
  0
SPLINE
  5
4DF
100
AcDbEntity
  8
RACCORDO
100
AcDbSpline
 62
253
  6
CONTINUOUS
 70
0
 71
3
 72
18
 73
14
 74
12
 42
0.0000001
 43
0.0000001
 44
0.0000000001
 12
0.0427344967
 22
-0.0912483999
 32
0.0
 13
-0.089942797
 23
-0.0454180687
 33
0.0
 40
0.0
 40
0.0
 40
0.0
 40
0.0
 40
0.0066687172
 40
0.0200719932
 40
0.041247279
 40
0.0703678173
 40
0.1074300617
 40
0.152375111
 40
0.2654576731
 40
0.4084639192
 40
0.5798497599
 40
0.7777587615
 40
1.0
 40
1.0
 40
1.0
 40
1.0
 10
18.5590768947
 20
19.4257507638
 30
0.0
 10
18.5591718895
 20
19.4255479272
 30
0.0
 10
18.5588201437
 20
19.4248196543
 30
0.0
 10
18.557857585
 20
19.4239215855
 30
0.0
 10
18.5561700076
 20
19.4225454899
 30
0.0
 10
18.5537673893
 20
19.4208850619
 30
0.0
 10
18.5506283865
 20
19.418854933
 30
0.0
 10
18.5450354057
 20
19.4154452031
 30
0.0
 10
18.5362628851
 20
19.4104123624
 30
0.0
 10
18.5236732468
 20
19.4035110978
 30
0.0
 10
18.5084749207
 20
19.395442934
 30
0.0
 10
18.4908361083
 20
19.3862995678
 30
0.0
 10
18.4782584014
 20
19.3799013462
 30
0.0
 10
18.4715954018
 20
19.3765367569
 30
0.0
 11
18.5590768947
 21
19.4257507638
 31
0.0
 11
18.5589252842
 21
19.4250961537
 31
0.0
 11
18.558022555
 21
19.4240916858
 31
0.0
 11
18.5563714952
 21
19.4227402745
 31
0.0
 11
18.5539762822
 21
19.4210454767
 31
0.0
 11
18.5508439824
 21
19.419012183
 31
0.0
 11
18.5469827817
 21
19.416645798
 31
0.0
 11
18.5371194265
 21
19.4109413172
 31
0.0
 11
18.5244950357
 21
19.4039949855
 31
0.0
 11
18.5092496978
 21
19.3958838598
 31
0.0
 11
18.4915507042
 21
19.3866969795
 31
0.0
 11
18.4715954018
 21
19.3765367569
 31
0.0
  0
SPLINE
  5
4E0
100
AcDbEntity
  8
ASSI
100
AcDbSpline
 62
7
  6
CONTINUOUS
 70
0
 71
3
 72
15
 73
11
 74
9
 42
0.0000001
 43
0.0000001
 44
0.0000000001
 12
-4.8195346912
 22
-2.2972837337
 32
0.0
 13
-4.1495820162
 23
3.3595232227
 33
0.0
 40
0.0
 40
0.0
 40
0.0
 40
0.0
 40
0.1160277426
 40
0.2441545627
 40
0.3800483371
 40
0.5186264014
 40
0.6545640535
 40
0.7827724124
 40
0.8989076404
 40
1.0
 40
1.0
 40
1.0
 40
1.0
 10
11.5132433237
 20
22.2502405805
 30
0.0
 10
11.3268434135
 20
22.1613910319
 30
0.0
 10
10.9168931413
 20
22.0109522078
 30
0.0
 10
10.2544250634
 20
21.8669109523
 30
0.0
 10
9.5396490567
 20
21.7981079049
 30
0.0
 10
8.8078859426
 20
21.8081418107
 30
0.0
 10
8.095120575
 20
21.8964566905
 30
0.0
 10
7.4361304151
 20
22.0587555364
 30
0.0
 10
6.8630706169
 20
22.2867819854
 30
0.0
 10
6.5310612632
 20
22.4913271764
 30
0.0
 10
6.3912309174
 20
22.604534553
 30
0.0
 11
11.5132433237
 21
22.2502405805
 31
0.0
 11
10.9336763034
 21
22.0314836644
 31
0.0
 11
10.2659559752
 21
21.8827947394
 31
0.0
 11
9.5439033165
 21
21.8117099784
 31
0.0
 11
8.80409777
 21
21.8218368583
 31
0.0
 11
8.0840263182
 21
21.9126673791
 31
0.0
 11
7.4201839641
 21
22.0796043793
 31
0.0
 11
6.8462211482
 21
22.3141902548
 31
0.0
 11
6.3912309174
 21
22.604534553
 31
0.0
  0
SPLINE
  5
4E1
100
AcDbEntity
  8
ASSI
100
AcDbSpline
 62
7
  6
CONTINUOUS
 70
0
 71
3
 72
9
 73
5
 74
3
 42
0.0000001
 43
0.0000001
 44
0.0000000001
 12
-0.3039374391
 22
0.2576376751
 32
0.0
 13
-0.2279513341
 23
0.3267924843
 33
0.0
 40
0.0
 40
0.0
 40
0.0
 40
0.0
 40
0.2648117495
 40
1.0
 40
1.0
 40
1.0
 40
1.0
 10
6.3566207539
 20
22.6332024975
 30
0.0
 10
6.3297920189
 20
22.6559443254
 30
0.0
 10
6.2308593824
 20
22.7445162685
 30
0.0
 10
6.1418156192
 20
22.8446977931
 30
0.0
 10
6.0859532384
 20
22.924782458
 30
0.0
 11
6.3566207539
 21
22.6332024975
 31
0.0
 11
6.2780884296
 21
22.7036682327
 31
0.0
 11
6.0859532384
 21
22.924782458
 31
0.0
  0
SPLINE
  5
4E2
100
AcDbEntity
  8
ASSI
100
AcDbSpline
 62
7
  6
CONTINUOUS
 70
0
 71
3
 72
12
 73
8
 74
6
 42
0.0000001
 43
0.0000001
 44
0.0000000001
 12
0.6429676852
 22
-2.0049181988
 32
0.0
 13
-0.9060377936
 23
-1.9005788446
 33
0.0
 40
0.0
 40
0.0
 40
0.0
 40
0.0
 40
0.2737220432
 40
0.4056370293
 40
0.5334756179
 40
0.7754568759
 40
1.0
 40
1.0
 40
1.0
 40
1.0
 10
18.6565400068
 20
18.875504732
 30
0.0
 10
18.7152048163
 20
18.6925746301
 30
0.0
 10
18.7837005123
 20
18.414840703
 30
0.0
 10
18.8302604034
 20
18.043000159
 30
0.0
 10
18.8448623731
 20
17.6908232985
 30
0.0
 10
18.8073632714
 20
17.2728156945
 30
0.0
 10
18.7072159783
 20
16.9570622541
 30
0.0
 10
18.6394011261
 20
16.8148082836
 30
0.0
 11
18.6565400068
 21
18.875504732
 31
0.0
 11
18.7925770775
 21
18.3154701313
 31
0.0
 11
18.8267189806
 21
18.0398303685
 31
0.0
 11
18.83746633
 21
17.7708816535
 31
0.0
 11
18.7872383587
 21
17.2638735009
 31
0.0
 11
18.6394011261
 21
16.8148082836
 31
0.0
  0
SPLINE
  5
4E3
100
AcDbEntity
  8
ASSI
100
AcDbSpline
 62
7
  6
CONTINUOUS
 70
0
 71
3
 72
11
 73
7
 74
5
 42
0.0000001
 43
0.0000001
 44
0.0000000001
 12
2.0148291658
 22
-1.054398772
 32
0.0
 13
1.0467121838
 23
-2.0188330644
 33
0.0
 40
0.0
 40
0.0
 40
0.0
 40
0.0
 40
0.2302660934
 40
0.4762531702
 40
0.7345541968
 40
1.0
 40
1.0
 40
1.0
 40
1.0
 10
16.9449289354
 20
21.2354793577
 30
0.0
 10
17.0995778823
 20
21.1545485957
 30
0.0
 10
17.4025815763
 20
20.9538985776
 30
0.0
 10
17.8110704331
 20
20.5725566903
 30
0.0
 10
18.1769873019
 20
20.1157546059
 30
0.0
 10
18.3825595404
 20
19.7745735343
 30
0.0
 10
18.4751746592
 20
19.5959432795
 30
0.0
 11
16.9449289354
 21
21.2354793577
 31
0.0
 11
17.3836595972
 21
20.9496294466
 31
0.0
 11
17.7945365653
 21
20.570033312
 31
0.0
 11
18.1630331012
 21
20.1126100978
 31
0.0
 11
18.4751746592
 21
19.5959432795
 31
0.0
  0
SPLINE
  5
4E4
100
AcDbEntity
  8
ASSI
100
AcDbSpline
 62
7
  6
CONTINUOUS
 70
0
 71
3
 72
11
 73
7
 74
5
 42
0.0000001
 43
0.0000001
 44
0.0000000001
 12
0.3278539939
 22
0.1562751791
 32
0.0
 13
0.3249082276
 23
-0.162310864
 33
0.0
 40
0.0
 40
0.0
 40
0.0
 40
0.0
 40
0.3398307507
 40
0.6185855024
 40
0.8354773186
 40
1.0
 40
1.0
 40
1.0
 40
1.0
 10
15.082724946
 20
23.9516728959
 30
0.0
 10
15.1198632356
 20
23.9693752663
 30
0.0
 10
15.1888409396
 20
23.9988981108
 30
0.0
 10
15.2863674005
 20
24.0271376099
 30
0.0
 10
15.3663325834
 20
24.0355893182
 30
0.0
 10
15.4130475117
 20
24.0263034544
 30
0.0
 10
15.4308657693
 20
24.0174021815
 30
0.0
 11
15.082724946
 21
23.9516728959
 31
0.0
 11
15.1966264784
 21
23.9992131862
 31
0.0
 11
15.2942780629
 21
24.0259366597
 31
0.0
 11
15.3728424476
 21
24.0316780633
 31
0.0
 11
15.4308657693
 21
24.0174021815
 31
0.0
  0
SPLINE
  5
4E5
100
AcDbEntity
  8
ASSI
100
AcDbSpline
 62
7
  6
CONTINUOUS
 70
0
 71
3
 72
9
 73
5
 74
3
 42
0.0000001
 43
0.0000001
 44
0.0000000001
 12
0.0795172506
 22
0.0420646887
 32
0.0
 13
0.0728368411
 23
0.0527941829
 33
0.0
 40
0.0
 40
0.0
 40
0.0
 40
0.0
 40
0.2472463004
 40
1.0
 40
1.0
 40
1.0
 40
1.0
 10
15.9070401938
 20
-10.0946057427
 30
0.0
 10
15.9135936424
 20
-10.0911389632
 30
0.0
 10
15.9398441875
 20
-10.0766388269
 30
0.0
 10
15.9650450046
 20
-10.0602491756
 30
0.0
 10
15.9833210718
 20
-10.0470021701
 30
0.0
 11
15.9070401938
 21
-10.0946057427
 31
0.0
 11
15.9265101721
 21
-10.0838532456
 31
0.0
 11
15.9833210718
 21
-10.0470021701
 31
0.0
  0
SPLINE
  5
4E6
100
AcDbEntity
  8
ASSI
100
AcDbSpline
 62
7
  6
CONTINUOUS
 70
0
 71
3
 72
10
 73
6
 74
4
 42
0.0000001
 43
0.0000001
 44
0.0000000001
 12
0.6982336825
 22
-0.349002742
 32
0.0
 13
0.3392058599
 23
-0.7030452148
 33
0.0
 40
0.0
 40
0.0
 40
0.0
 40
0.0
 40
0.2346674795
 40
0.607359489
 40
1.0
 40
1.0
 40
1.0
 40
1.0
 10
10.9418858878
 20
26.2618921223
 30
0.0
 10
10.9965034673
 20
26.2345922577
 30
0.0
 10
11.1299516308
 20
26.1475945674
 30
0.0
 10
11.3112498219
 20
25.9572830526
 30
0.0
 10
11.4149605529
 20
25.7855005883
 30
0.0
 10
11.4593558736
 20
25.6934859109
 30
0.0
 11
10.9418858878
 21
26.2618921223
 31
0.0
 11
11.0961415298
 21
26.1630970806
 31
0.0
 11
11.2993232712
 21
25.9548828781
 31
0.0
 11
11.4593558736
 21
25.6934859109
 31
0.0
  0
SPLINE
  5
4E7
100
AcDbEntity
  8
ASSI
100
AcDbSpline
 62
7
  6
CONTINUOUS
 70
0
 71
3
 72
9
 73
5
 74
3
 42
0.0000001
 43
0.0000001
 44
0.0000000001
 12
0.0791608445
 22
-0.0395890864
 32
0.0
 13
0.0443941078
 23
-0.0765695648
 33
0.0
 40
0.0
 40
0.0
 40
0.0
 40
0.0
 40
0.5021590845
 40
1.0
 40
1.0
 40
1.0
 40
1.0
 10
16.2759510252
 20
23.594859585
 30
0.0
 10
16.289201471
 20
23.5882329119
 30
0.0
 10
16.313939139
 20
23.5712641454
 30
0.0
 10
16.3323633192
 20
23.547604509
 30
0.0
 10
16.339730387
 20
23.5348980216
 30
0.0
 11
16.2759510252
 21
23.594859585
 31
0.0
 11
16.3124539277
 21
23.5695036766
 31
0.0
 11
16.339730387
 21
23.5348980216
 31
0.0
  0
SPLINE
  5
4E8
100
AcDbEntity
  8
ASSI
100
AcDbSpline
 62
7
  6
CONTINUOUS
 70
0
 71
3
 72
12
 73
8
 74
6
 42
0.0000001
 43
0.0000001
 44
0.0000000001
 12
-1.1589249836
 22
-0.5813352287
 32
0.0
 13
0.0000196417
 23
-1.2965561173
 33
0.0
 40
0.0
 40
0.0
 40
0.0
 40
0.0
 40
0.3024896723
 40
0.5650551712
 40
0.7926361972
 40
0.8977149857
 40
1.0
 40
1.0
 40
1.0
 40
1.0
 10
7.2422547786
 20
23.5781190299
 30
0.0
 10
7.1254004992
 20
23.5195030623
 30
0.0
 10
6.9139421428
 20
23.3945120275
 30
0.0
 10
6.6574520574
 20
23.163310716
 30
0.0
 10
6.5169975662
 20
22.9420436945
 30
0.0
 10
6.4626306293
 20
22.7610521551
 30
0.0
 10
6.4536928821
 20
22.6711948872
 30
0.0
 10
6.4536935518
 20
22.6269888002
 30
0.0
 11
7.2422547786
 21
23.5781190299
 31
0.0
 11
6.9072008345
 21
23.3742670169
 31
0.0
 11
6.658455779
 21
23.1418469282
 31
0.0
 11
6.5053684434
 21
22.889594079
 31
0.0
 11
6.4666421275
 21
22.7589734112
 31
0.0
 11
6.4536935518
 21
22.6269888002
 31
0.0
  0
SPLINE
  5
4E9
100
AcDbEntity
  8
ASSI
100
AcDbSpline
 62
253
  6
CONTINUOUS
 70
0
 71
3
 72
10
 73
6
 74
4
 42
0.0000001
 43
0.0000001
 44
0.0000000001
 12
0.0043550819
 22
1.5046823338
 32
0.0
 13
-0.7583998645
 23
1.2995836017
 33
0.0
 40
0.0
 40
0.0
 40
0.0
 40
0.0
 40
0.2344750887
 40
0.482987959
 40
1.0
 40
1.0
 40
1.0
 40
1.0
 10
16.6640882454
 20
21.5164708617
 30
0.0
 10
16.6644286315
 20
21.6340743696
 30
0.0
 10
16.6449604426
 20
21.8766943523
 30
0.0
 10
16.5355979686
 20
22.3671600454
 30
0.0
 10
16.3806383904
 20
22.7241376463
 30
0.0
 10
16.2499377698
 20
22.9481044364
 30
0.0
 11
16.6640882454
 21
21.5164708617
 31
0.0
 11
16.6376657761
 21
21.8682920685
 31
0.0
 11
16.5574540819
 21
22.233522254
 31
0.0
 11
16.2499377698
 21
22.9481044364
 31
0.0
  0
SPLINE
  5
4EA
100
AcDbEntity
  8
ASSI
100
AcDbSpline
 62
253
  6
CONTINUOUS
 70
0
 71
3
 72
14
 73
10
 74
8
 42
0.0000001
 43
0.0000001
 44
0.0000000001
 12
0.042708732
 22
-0.0911933861
 32
0.0
 13
-0.0898885703
 23
-0.0453906861
 33
0.0
 40
0.0
 40
0.0
 40
0.0
 40
0.0
 40
0.0195210641
 40
0.0698170628
 40
0.151866988
 40
0.2650177689
 40
0.4081102857
 40
0.5795995176
 40
1.0
 40
1.0
 40
1.0
 40
1.0
 10
18.5590768947
 20
19.4257507638
 30
0.0
 10
18.5593548014
 20
19.4251573665
 30
0.0
 10
18.5568423919
 20
19.4231375185
 30
0.0
 10
18.5534003955
 20
19.4205199356
 30
0.0
 10
18.545989383
 20
19.416008938
 30
0.0
 10
18.5363119356
 20
19.4104341315
 30
0.0
 10
18.5236560844
 20
19.4035033116
 30
0.0
 10
18.5018950578
 20
19.391950131
 30
0.0
 10
18.4841918013
 20
19.3828975123
 30
0.0
 10
18.4715954018
 20
19.3765367569
 30
0.0
 11
18.5590768947
 21
19.4257507638
 31
0.0
 11
18.558022555
 21
19.4240916858
 31
0.0
 11
18.5539762822
 21
19.4210454767
 31
0.0
 11
18.5469827817
 21
19.416645798
 31
0.0
 11
18.5371194265
 21
19.4109413172
 31
0.0
 11
18.5244950357
 21
19.4039949855
 31
0.0
 11
18.5092496978
 21
19.3958838598
 31
0.0
 11
18.4715954018
 21
19.3765367569
 31
0.0
  0
SPLINE
  5
4EB
100
AcDbEntity
  8
ASSI
100
AcDbSpline
 62
253
  6
CONTINUOUS
 70
0
 71
3
 72
9
 73
5
 74
3
 42
0.0000001
 43
0.0000001
 44
0.0000000001
 12
0.1107910514
 22
0.08018598
 32
0.0
 13
0.0955567425
 23
0.0978435355
 33
0.0
 40
0.0
 40
0.0
 40
0.0
 40
0.0
 40
0.2478680577
 40
1.0
 40
1.0
 40
1.0
 40
1.0
 10
16.2499377698
 20
-9.8460924831
 30
0.0
 10
16.259091624
 20
-9.8394673021
 30
0.0
 10
16.2954349714
 20
-9.8119345999
 30
0.0
 10
16.32936449
 20
-9.7812333711
 30
0.0
 10
16.3533215828
 20
-9.7567029549
 30
0.0
 11
16.2499377698
 21
-9.8460924831
 31
0.0
 11
16.2769600316
 21
-9.8256236775
 31
0.0
 11
16.3533215828
 21
-9.7567029549
 31
0.0
  0
SPLINE
  5
4EC
100
AcDbEntity
  8
ASSI
100
AcDbSpline
 62
253
  6
CONTINUOUS
 70
0
 71
3
 72
11
 73
7
 74
5
 42
0.0000001
 43
0.0000001
 44
0.0000000001
 12
0.6153212111
 22
0.7186639297
 32
0.0
 13
-0.002746563
 23
0.9460922223
 33
0.0
 40
0.0
 40
0.0
 40
0.0
 40
0.0
 40
0.2222738948
 40
0.461655743
 40
0.7207849338
 40
1.0
 40
1.0
 40
1.0
 40
1.0
 10
16.3910258372
 20
-9.7154590579
 30
0.0
 10
16.4366157846
 20
-9.6622123144
 30
0.0
 10
16.5180689909
 20
-9.5398431677
 30
0.0
 10
16.6032848872
 20
-9.3277506929
 30
0.0
 10
16.6542132263
 20
-9.0867631864
 30
0.0
 10
16.6643438727
 20
-8.9166637849
 30
0.0
 10
16.6640882454
 20
-8.8286093841
 30
0.0
 11
16.3910258372
 21
-9.7154590579
 31
0.0
 11
16.5088209056
 21
-9.5412544285
 31
0.0
 11
16.5948874521
 21
-9.3317670747
 31
0.0
 11
16.6470773214
 21
-9.0922254195
 31
0.0
 11
16.6640882454
 21
-8.8286093841
 31
0.0
  0
SPLINE
  5
4ED
100
AcDbEntity
  8
ASSI
100
AcDbSpline
 62
253
  6
CONTINUOUS
 70
0
 71
3
 72
11
 73
7
 74
5
 42
0.0000001
 43
0.0000001
 44
0.0000000001
 12
-0.0001225127
 22
-0.1402311187
 32
0.0
 13
-0.1245291742
 23
-0.0644768674
 33
0.0
 40
0.0
 40
0.0
 40
0.0
 40
0.0
 40
0.2077573167
 40
0.4361822729
 40
0.6986220706
 40
1.0
 40
1.0
 40
1.0
 40
1.0
 10
18.6156618551
 20
19.1800339996
 30
0.0
 10
18.6156533708
 20
19.1703226527
 30
0.0
 10
18.6114636795
 20
19.1497845098
 30
0.0
 10
18.5939469294
 20
19.1216332105
 30
0.0
 10
18.5665778935
 20
19.0962216146
 30
0.0
 10
18.5439739487
 20
19.0823769847
 30
0.0
 10
18.5314638338
 20
19.0758996831
 30
0.0
 11
18.6156618551
 21
19.1800339996
 31
0.0
 11
18.6101315478
 21
19.1514296522
 31
0.0
 11
18.5937928326
 21
19.123877618
 31
0.0
 11
18.5672457463
 21
19.0983892459
 31
0.0
 11
18.5314638338
 21
19.0758996831
 31
0.0
  0
SPLINE
  5
4EE
100
AcDbEntity
  8
ASSI
100
AcDbSpline
 62
7
  6
CONTINUOUS
 70
0
 71
3
 72
9
 73
5
 74
3
 42
0.0000001
 43
0.0000001
 44
0.0000000001
 12
0.0000031038
 22
-0.0433388622
 32
0.0
 13
-0.0290298671
 23
-0.0321795556
 33
0.0
 40
0.0
 40
0.0
 40
0.0
 40
0.0
 40
0.2157140695
 40
1.0
 40
1.0
 40
1.0
 40
1.0
 10
18.6156618504
 20
18.9904867643
 30
0.0
 10
18.6156620736
 20
18.9873704968
 30
0.0
 10
18.6137538179
 20
18.9728902286
 30
0.0
 10
18.6050507306
 20
18.9602222959
 30
0.0
 10
18.5974614918
 20
18.9518096383
 30
0.0
 11
18.6156618504
 21
18.9904867643
 31
0.0
 11
18.6145226175
 21
18.9812076343
 31
0.0
 11
18.5974614918
 21
18.9518096383
 31
0.0
  0
SPLINE
  5
4EF
100
AcDbEntity
  8
ASSI
100
AcDbSpline
 62
7
  6
CONTINUOUS
 70
0
 71
3
 72
9
 73
5
 74
3
 42
0.0000001
 43
0.0000001
 44
0.0000000001
 12
-0.0365039364
 22
-0.040464548
 32
0.0
 13
-0.0464731076
 23
-0.0284634378
 33
0.0
 40
0.0
 40
0.0
 40
0.0
 40
0.0
 40
0.2194653511
 40
1.0
 40
1.0
 40
1.0
 40
1.0
 10
18.5974614918
 20
18.9518096383
 30
0.0
 10
18.594791042
 20
18.9488494496
 30
0.0
 10
18.581920223
 20
18.9359943938
 30
0.0
 10
18.5669245105
 20
18.9254385064
 30
0.0
 10
18.5548332203
 20
18.9180329399
 30
0.0
 11
18.5974614918
 21
18.9518096383
 31
0.0
 11
18.5890392988
 21
18.9433177105
 31
0.0
 11
18.5548332203
 21
18.9180329399
 31
0.0
  0
SPLINE
  5
4F0
100
AcDbEntity
  8
ASSI
100
AcDbSpline
 62
7
  6
CONTINUOUS
 70
0
 71
3
 72
9
 73
5
 74
3
 42
0.0000001
 43
0.0000001
 44
0.0000000001
 12
-0.0228337458
 22
-0.0139850106
 32
0.0
 13
-0.0238292998
 23
-0.0122116724
 33
0.0
 40
0.0
 40
0.0
 40
0.0
 40
0.0
 40
0.2407523569
 40
1.0
 40
1.0
 40
1.0
 40
1.0
 10
18.5548332203
 20
18.9180329399
 30
0.0
 10
18.5530007943
 20
18.9169106318
 30
0.0
 10
18.5453400509
 20
18.9123299444
 30
0.0
 10
18.5374946137
 20
18.9080607853
 30
0.0
 10
18.5314638338
 20
18.9049702241
 30
0.0
 11
18.5548332203
 21
18.9180329399
 31
0.0
 11
18.549301405
 21
18.914723066
 31
0.0
 11
18.5314638338
 21
18.9049702241
 31
0.0
  0
SPLINE
  5
4F1
100
AcDbEntity
  8
ASSI
100
AcDbSpline
 62
253
  6
CONTINUOUS
 70
0
 71
3
 72
11
 73
7
 74
5
 42
0.0000001
 43
0.0000001
 44
0.0000000001
 12
0.9788248621
 22
0.4894045759
 32
0.0
 13
1.0189210128
 23
-0.3992679791
 33
0.0
 40
0.0
 40
0.0
 40
0.0
 40
0.0
 40
0.2313380055
 40
0.4912640204
 40
0.7561057227
 40
1.0
 40
1.0
 40
1.0
 40
1.0
 10
-4.5542075419
 20
24.0686963575
 30
0.0
 10
-4.4787277448
 20
24.1064356503
 30
0.0
 10
-4.3065114168
 20
24.1627958626
 30
0.0
 10
-4.0314319568
 20
24.1963761327
 30
0.0
 10
-3.7500939822
 20
24.1815187981
 30
0.0
 10
-3.5680752428
 20
24.1370313523
 30
0.0
 10
-3.4852389081
 20
24.1045716272
 30
0.0
 11
-4.5542075419
 21
24.0686963575
 31
0.0
 11
-4.3150893781
 21
24.1518563818
 31
0.0
 11
-4.0329372057
 21
24.1879514482
 31
0.0
 11
-3.7435608505
 21
24.1717222262
 31
0.0
 11
-3.4852389081
 21
24.1045716272
 31
0.0
  0
SPLINE
  5
4F2
100
AcDbEntity
  8
ASSI
100
AcDbSpline
 62
253
  6
CONTINUOUS
 70
0
 71
3
 72
11
 73
7
 74
5
 42
0.0000001
 43
0.0000001
 44
0.0000000001
 12
0.6988670255
 22
-2.0020531245
 32
0.0
 13
-0.7999712
 23
-1.9638426393
 33
0.0
 40
0.0
 40
0.0
 40
0.0
 40
0.0
 40
0.2781178677
 40
0.5408132225
 40
0.7823711222
 40
1.0
 40
1.0
 40
1.0
 40
1.0
 10
18.5278262417
 20
18.9030200364
 30
0.0
 10
18.5926153774
 20
18.7174177877
 30
0.0
 10
18.6947220907
 20
18.347519483
 30
0.0
 10
18.762374701
 20
17.7963903636
 30
0.0
 10
18.7385346799
 20
17.2840664795
 30
0.0
 10
18.6567832889
 20
16.9663472512
 30
0.0
 10
18.5987510108
 20
16.8238842946
 30
0.0
 11
18.5278262417
 21
18.9030200364
 31
0.0
 11
18.682998064
 21
18.3340436336
 31
0.0
 11
18.7478490224
 21
17.7807790113
 31
0.0
 11
18.7193175356
 21
17.2693443566
 31
0.0
 11
18.5987510108
 21
16.8238842946
 31
0.0
  0
SPLINE
  5
4F3
100
AcDbEntity
  8
ASSI
100
AcDbSpline
 62
253
  6
CONTINUOUS
 70
0
 71
3
 72
11
 73
7
 74
5
 42
0.0000001
 43
0.0000001
 44
0.0000000001
 12
0.4151656596
 22
0.2149583129
 32
0.0
 13
0.0002534801
 23
0.4675142104
 33
0.0
 40
0.0
 40
0.0
 40
0.0
 40
0.0
 40
0.3013827608
 40
0.5638236405
 40
0.7922427922
 40
1.0
 40
1.0
 40
1.0
 40
1.0
 10
16.6640882454
 20
21.5164708617
 30
0.0
 10
16.7057961696
 20
21.5380657717
 30
0.0
 10
16.7811552383
 20
21.5842239205
 30
0.0
 10
16.8723962135
 20
21.6689487345
 30
0.0
 10
16.9307808211
 20
21.7628110874
 30
0.0
 10
16.9447307481
 20
21.8312868234
 30
0.0
 10
16.9447483022
 20
21.8636633057
 30
0.0
 11
16.6640882454
 21
21.5164708617
 31
0.0
 11
16.7833815005
 21
21.5914517859
 31
0.0
 11
16.871880982
 21
21.6764333729
 31
0.0
 11
16.9263364678
 21
21.7682948802
 31
0.0
 11
16.9447483022
 21
21.8636633057
 31
0.0
  0
LINE
  5
4F4
100
AcDbEntity
  8
ASSI
100
AcDbLine
 62
253
  6
CONTINUOUS
 10
18.4715952496
 20
16.2849226245
 11
18.1777918048
 21
16.0977014975
  0
LINE
  5
4F5
100
AcDbEntity
  8
ASSI
100
AcDbLine
 62
253
  6
CONTINUOUS
 10
17.052940188
 20
15.3851842265
 11
17.032917989
 21
15.3725557946
  0
SPLINE
  5
4F6
100
AcDbEntity
  8
ASSI
100
AcDbSpline
 62
253
  6
CONTINUOUS
 70
0
 71
3
 72
9
 73
5
 74
3
 42
0.0000001
 43
0.0000001
 44
0.0000000001
 12
-0.2244195968
 22
-0.2551804864
 32
0.0
 13
-0.2873343519
 23
-0.1814392632
 33
0.0
 40
0.0
 40
0.0
 40
0.0
 40
0.0
 40
0.2548000911
 40
1.0
 40
1.0
 40
1.0
 40
1.0
 10
18.4715952496
 20
16.2849226245
 30
0.0
 10
18.4525345383
 20
16.2632492875
 30
0.0
 10
18.3749080726
 20
16.1807259961
 30
0.0
 10
18.2856292936
 20
16.1090461977
 30
0.0
 10
18.2142554493
 20
16.0639766902
 30
0.0
 11
18.4715952496
 21
16.2849226245
 31
0.0
 11
18.4122195731
 21
16.2218993962
 31
0.0
 11
18.2142554493
 21
16.0639766902
 31
0.0
  0
SPLINE
  5
4F7
100
AcDbEntity
  8
ASSI
100
AcDbSpline
 62
253
  6
CONTINUOUS
 70
0
 71
3
 72
10
 73
6
 74
4
 42
0.0000001
 43
0.0000001
 44
0.0000000001
 12
0.2636310572
 22
0.9234070588
 32
0.0
 13
-0.4164028717
 23
0.8653268626
 33
0.0
 40
0.0
 40
0.0
 40
0.0
 40
0.0
 40
0.2432274008
 40
0.6175791328
 40
1.0
 40
1.0
 40
1.0
 40
1.0
 10
17.03291809
 20
18.820774434
 30
0.0
 10
17.0542921889
 20
18.8956404003
 30
0.0
 10
17.0880506126
 20
19.0918241874
 30
0.0
 10
17.0720111176
 20
19.4148662989
 30
0.0
 10
16.997886915
 20
19.6491526607
 30
0.0
 10
16.9448065325
 20
19.7594590105
 30
0.0
 11
17.03291809
 21
18.820774434
 31
0.0
 11
17.0741102927
 21
19.0506854766
 31
0.0
 11
17.0569727571
 21
19.4097678636
 31
0.0
 11
16.9448065325
 21
19.7594590105
 31
0.0
  0
SPLINE
  5
4F8
100
AcDbEntity
  8
ASSI
100
AcDbSpline
 62
7
  6
CONTINUOUS
 70
0
 71
3
 72
11
 73
7
 74
5
 42
0.0000001
 43
0.0000001
 44
0.0000000001
 12
0.4866061837
 22
0.2338585481
 32
0.0
 13
0.4829190421
 23
-0.2413806066
 33
0.0
 40
0.0
 40
0.0
 40
0.0
 40
0.0
 40
0.2445637225
 40
0.4893834358
 40
0.7399746444
 40
1.0
 40
1.0
 40
1.0
 40
1.0
 10
10.4204113234
 20
26.2828297071
 30
0.0
 10
10.4600800633
 20
26.3018941461
 30
0.0
 10
10.5446305385
 20
26.3302741825
 30
0.0
 10
10.6787876198
 20
26.3395997104
 30
0.0
 10
10.8139379357
 20
26.3167944768
 30
0.0
 10
10.9000288226
 20
26.282813815
 30
0.0
 10
10.9418858878
 20
26.2618921223
 30
0.0
 11
10.4204113234
 21
26.2828297071
 31
0.0
 11
10.5456288518
 21
26.3247119995
 31
0.0
 11
10.6774513846
 21
26.3343499989
 31
0.0
 11
10.8109832063
 21
26.3126076839
 31
0.0
 11
10.9418858878
 21
26.2618921223
 31
0.0
  0
SPLINE
  5
4F9
100
AcDbEntity
  8
ASSI
100
AcDbSpline
 62
253
  6
CONTINUOUS
 70
0
 71
3
 72
9
 73
5
 74
3
 42
0.0000001
 43
0.0000001
 44
0.0000000001
 12
0.0551482601
 22
0.2672570909
 32
0.0
 13
0.0000355395
 23
0.2728876728
 33
0.0
 40
0.0
 40
0.0
 40
0.0
 40
0.0
 40
0.2472505214
 40
1.0
 40
1.0
 40
1.0
 40
1.0
 10
16.9186140833
 20
18.9459116553
 30
0.0
 10
16.9231592287
 20
18.9679381403
 30
0.0
 10
16.9388127833
 20
19.0575803905
 30
0.0
 10
16.9447396711
 20
19.1487982882
 30
0.0
 10
16.9447485886
 20
19.2172703061
 30
0.0
 11
16.9186140833
 21
18.9459116553
 31
0.0
 11
16.9303053092
 21
19.0123626503
 31
0.0
 11
16.9447485886
 21
19.2172703061
 31
0.0
  0
SPLINE
  5
4FA
100
AcDbEntity
  8
ASSI
100
AcDbSpline
 62
7
  6
CONTINUOUS
 70
0
 71
3
 72
15
 73
11
 74
9
 42
0.0000001
 43
0.0000001
 44
0.0000000001
 12
-1.2099428351
 22
1.7345817544
 32
0.0
 13
1.9061772444
 23
0.9160916109
 33
0.0
 40
0.0
 40
0.0
 40
0.0
 40
0.0
 40
0.1170894897
 40
0.2256940906
 40
0.3315622261
 40
0.4410808677
 40
0.559794497
 40
0.6914827885
 40
0.8380787456
 40
1.0
 40
1.0
 40
1.0
 40
1.0
 10
6.0859532384
 20
22.924782458
 30
0.0
 10
6.0387293753
 20
22.9924828889
 30
0.0
 10
5.960333803
 20
23.132853022
 30
0.0
 10
5.9011241576
 20
23.361938009
 30
0.0
 10
5.9093689824
 20
23.5934558813
 30
0.0
 10
5.9846828074
 20
23.8196410267
 30
0.0
 10
6.1230223915
 20
24.0349100888
 30
0.0
 10
6.3198968672
 20
24.2359854804
 30
0.0
 10
6.570999914
 20
24.4201464947
 30
0.0
 10
6.7623522257
 20
24.5247994602
 30
0.0
 10
6.8652357625
 20
24.5742443611
 30
0.0
 11
6.0859532384
 21
22.924782458
 31
0.0
 11
5.9676389351
 21
23.1423202703
 31
0.0
 11
5.9118558947
 21
23.3651295747
 31
0.0
 11
5.9196821696
 21
23.5888916069
 31
0.0
 11
5.9909627836
 21
23.8092698108
 31
0.0
 11
6.1243134159
 21
24.0219939012
 31
0.0
 11
6.3171475268
 21
24.2229424469
 31
0.0
 11
6.5657276279
 21
24.4082224928
 31
0.0
 11
6.8652357625
 21
24.5742443611
 31
0.0
  0
SPLINE
  5
4FB
100
AcDbEntity
  8
ASSI
100
AcDbSpline
 62
253
  6
CONTINUOUS
 70
0
 71
3
 72
9
 73
5
 74
3
 42
0.0000001
 43
0.0000001
 44
0.0000000001
 12
0.3515080094
 22
0.5808495732
 32
0.0
 13
0.1372049314
 23
0.6649202314
 33
0.0
 40
0.0
 40
0.0
 40
0.0
 40
0.0
 40
0.5094059528
 40
1.0
 40
1.0
 40
1.0
 40
1.0
 10
16.6640882454
 20
18.3190259601
 30
0.0
 10
16.7237750029
 20
18.4176553702
 30
0.0
 10
16.8265093499
 20
18.6203083356
 30
0.0
 10
16.8961767758
 20
18.8371763528
 30
0.0
 10
16.9186140833
 20
18.9459116553
 30
0.0
 11
16.6640882454
 21
18.3190259601
 31
0.0
 11
16.819861297
 21
18.6278093507
 31
0.0
 11
16.9186140833
 21
18.9459116553
 31
0.0
  0
SPLINE
  5
4FC
100
AcDbEntity
  8
ASSI
100
AcDbSpline
 62
253
  6
CONTINUOUS
 70
0
 71
3
 72
11
 73
7
 74
5
 42
0.0000001
 43
0.0000001
 44
0.0000000001
 12
2.0506104176
 22
-1.2168476596
 32
0.0
 13
1.0106009496
 23
-2.1597238324
 33
0.0
 40
0.0
 40
0.0
 40
0.0
 40
0.0
 40
0.2284024283
 40
0.4750775889
 40
0.7345614737
 40
1.0
 40
1.0
 40
1.0
 40
1.0
 10
16.9447542185
 20
21.1671405593
 30
0.0
 10
17.1008756848
 20
21.0744969059
 30
0.0
 10
17.4065863808
 20
20.8488649902
 30
0.0
 10
17.8163701351
 20
20.4301908205
 30
0.0
 10
18.1806255066
 20
19.9345130223
 30
0.0
 10
18.3821778833
 20
19.5676280944
 30
0.0
 10
18.4715953589
 20
19.3765367907
 30
0.0
 11
16.9447542185
 21
21.1671405593
 31
0.0
 11
17.3854245174
 21
20.847108504
 31
0.0
 11
17.798912197
 21
20.4287828904
 31
0.0
 11
18.1665121176
 21
19.9310875617
 31
0.0
 11
18.4715953589
 21
19.3765367907
 31
0.0
  0
SPLINE
  5
4FD
100
AcDbEntity
  8
ASSI
100
AcDbSpline
 62
7
  6
CONTINUOUS
 70
0
 71
3
 72
10
 73
6
 74
4
 42
0.0000001
 43
0.0000001
 44
0.0000000001
 12
0.3437398708
 22
0.1669713286
 32
0.0
 13
0.3417879296
 23
-0.1709313736
 33
0.0
 40
0.0
 40
0.0
 40
0.0
 40
0.0
 40
0.3214649819
 40
0.5940663041
 40
1.0
 40
1.0
 40
1.0
 40
1.0
 10
15.9070401938
 20
23.539515272
 30
0.0
 10
15.9438736376
 20
23.5574070837
 30
0.0
 10
16.0140828183
 20
23.5870530758
 30
0.0
 10
16.1363225911
 20
23.6195347008
 30
0.0
 10
16.2297032794
 20
23.6179885197
 30
0.0
 10
16.2759510252
 20
23.594859585
 30
0.0
 11
15.9070401938
 21
23.539515272
 31
0.0
 11
16.0205632254
 21
23.5864609516
 31
0.0
 11
16.1217085894
 21
23.6113969831
 31
0.0
 11
16.2759510252
 21
23.594859585
 31
0.0
  0
SPLINE
  5
4FE
100
AcDbEntity
  8
ASSI
100
AcDbSpline
 62
253
  6
CONTINUOUS
 70
0
 71
3
 72
11
 73
7
 74
5
 42
0.0000001
 43
0.0000001
 44
0.0000000001
 12
-0.3917987687
 22
0.1632271533
 32
0.0
 13
-0.3828480876
 23
-0.1832395169
 33
0.0
 40
0.0
 40
0.0
 40
0.0
 40
0.0
 40
0.2279058184
 40
0.4667104003
 40
0.7228314534
 40
1.0
 40
1.0
 40
1.0
 40
1.0
 10
9.7919242796
 20
26.8358758992
 30
0.0
 10
9.7621598733
 20
26.8482760385
 30
0.0
 10
9.6976423046
 20
26.8657834238
 30
0.0
 10
9.5945543112
 20
26.8680687066
 30
0.0
 10
9.4866100115
 20
26.8472650786
 30
0.0
 10
9.4159471908
 20
26.8196767583
 30
0.0
 10
9.3805760415
 20
26.8027473481
 30
0.0
 11
9.7919242796
 21
26.8358758992
 31
0.0
 11
9.6986617096
 21
26.8615516288
 31
0.0
 11
9.5973476854
 21
26.8645450077
 31
0.0
 11
9.4904509801
 21
26.8447831195
 31
0.0
 11
9.3805760415
 21
26.8027473481
 31
0.0
  0
SPLINE
  5
4FF
100
AcDbEntity
  8
ASSI
100
AcDbSpline
 62
253
  6
CONTINUOUS
 70
0
 71
3
 72
9
 73
5
 74
3
 42
0.0000001
 43
0.0000001
 44
0.0000000001
 12
-0.2174549843
 22
0.1125068563
 32
0.0
 13
-0.2442365519
 23
0.0171163546
 33
0.0
 40
0.0
 40
0.0
 40
0.0
 40
0.0
 40
0.2672094675
 40
1.0
 40
1.0
 40
1.0
 40
1.0
 10
3.4622569742
 20
24.0694714765
 30
0.0
 10
3.4428882973
 20
24.0794924422
 30
0.0
 10
3.3689626578
 20
24.1139562816
 30
0.0
 10
3.288253875
 20
24.1353181235
 30
0.0
 10
3.2285957974
 20
24.1394990243
 30
0.0
 11
3.4622569742
 21
24.0694714765
 31
0.0
 11
3.4028967133
 21
24.0969750761
 31
0.0
 11
3.2285957974
 21
24.1394990243
 31
0.0
  0
SPLINE
  5
500
100
AcDbEntity
  8
ASSI
100
AcDbSpline
 62
253
  6
CONTINUOUS
 70
0
 71
3
 72
9
 73
5
 74
3
 42
0.0000001
 43
0.0000001
 44
0.0000000001
 12
0.0824049092
 22
0.0412054493
 32
0.0
 13
0.0824061071
 23
-0.0412030536
 33
0.0
 40
0.0
 40
0.0
 40
0.0
 40
0.0
 40
0.4637109335
 40
1.0
 40
1.0
 40
1.0
 40
1.0
 10
-4.6436502272
 20
24.0743766475
 30
0.0
 10
-4.6309128748
 20
24.0807457866
 30
0.0
 10
-4.5989391435
 20
24.0860616624
 30
0.0
 10
-4.5689387067
 20
24.0760619399
 30
0.0
 10
-4.5542075419
 20
24.0686963575
 30
0.0
 11
-4.6436502272
 21
24.0743766475
 31
0.0
 11
-4.6016840505
 21
24.0823825662
 31
0.0
 11
-4.5542075419
 21
24.0686963575
 31
0.0
  0
SPLINE
  5
501
100
AcDbEntity
  8
ASSI
100
AcDbSpline
 62
253
  6
CONTINUOUS
 70
0
 71
3
 72
11
 73
7
 74
5
 42
0.0000001
 43
0.0000001
 44
0.0000000001
 12
-0.393894053
 22
0.2037928988
 32
0.0
 13
-0.4047200499
 23
-0.181344291
 33
0.0
 40
0.0
 40
0.0
 40
0.0
 40
0.0
 40
0.2782209584
 40
0.534120382
 40
0.7721714565
 40
1.0
 40
1.0
 40
1.0
 40
1.0
 10
9.3805760415
 20
26.8027473481
 30
0.0
 10
9.3440461812
 20
26.8216471666
 30
0.0
 10
9.2708645683
 20
26.8525459953
 30
0.0
 10
9.1583118227
 20
26.8760542409
 30
0.0
 10
9.0506100437
 20
26.8736322125
 30
0.0
 10
8.9835556254
 20
26.8540704637
 30
0.0
 10
8.9528200323
 20
26.8402986618
 30
0.0
 11
9.3805760415
 21
26.8027473481
 31
0.0
 11
9.2665384235
 21
26.8498655634
 31
0.0
 11
9.1552520821
 21
26.8721166574
 31
0.0
 11
9.0497276809
 21
26.8688986719
 31
0.0
 11
8.9528200323
 21
26.8402986618
 31
0.0
  0
SPLINE
  5
502
100
AcDbEntity
  8
ASSI
100
AcDbSpline
 62
7
  6
CONTINUOUS
 70
0
 71
3
 72
9
 73
5
 74
3
 42
0.0000001
 43
0.0000001
 44
0.0000000001
 12
0.0249559722
 22
0.0080480788
 32
0.0
 13
0.0261927962
 23
-0.0012286359
 33
0.0
 40
0.0
 40
0.0
 40
0.0
 40
0.0
 40
0.2398744762
 40
1.0
 40
1.0
 40
1.0
 40
1.0
 10
-4.6967236814
 20
24.0470555701
 30
0.0
 10
-4.6947282478
 20
24.0476990797
 30
0.0
 10
-4.686275824
 20
24.04996517
 30
0.0
 10
-4.6774147769
 20
24.0505484452
 30
0.0
 10
-4.6707781726
 20
24.0502371393
 30
0.0
 11
-4.6967236814
 21
24.0470555701
 31
0.0
 11
-4.6906496943
 21
24.0486894054
 31
0.0
 11
-4.6707781726
 21
24.0502371393
 31
0.0
  0
SPLINE
  5
503
100
AcDbEntity
  8
ASSI
100
AcDbSpline
 62
7
  6
CONTINUOUS
 70
0
 71
3
 72
9
 73
5
 74
3
 42
0.0000001
 43
0.0000001
 44
0.0000000001
 12
0.0469102143
 22
-0.0022004361
 32
0.0
 13
0.0426817969
 23
-0.0195876067
 33
0.0
 40
0.0
 40
0.0
 40
0.0
 40
0.0
 40
0.2299667843
 40
1.0
 40
1.0
 40
1.0
 40
1.0
 10
-4.6707781726
 20
24.0502371393
 30
0.0
 10
-4.6671822422
 20
24.0500684636
 30
0.0
 10
-4.6515889848
 20
24.0483803934
 30
0.0
 10
-4.6365083517
 20
24.0432514523
 30
0.0
 10
-4.6255528846
 20
24.0382237497
 30
0.0
 11
-4.6707781726
 21
24.0502371393
 31
0.0
 11
-4.6600374897
 21
24.0491100939
 31
0.0
 11
-4.6255528846
 21
24.0382237497
 31
0.0
  0
SPLINE
  5
504
100
AcDbEntity
  8
ASSI
100
AcDbSpline
 62
7
  6
CONTINUOUS
 70
0
 71
3
 72
9
 73
5
 74
3
 42
0.0000001
 43
0.0000001
 44
0.0000000001
 12
-0.0362899579
 22
0.0114219821
 32
0.0
 13
-0.0373797737
 23
-0.0070834482
 33
0.0
 40
0.0
 40
0.0
 40
0.0
 40
0.0
 40
0.2408758716
 40
1.0
 40
1.0
 40
1.0
 40
1.0
 10
-3.4108295978
 20
24.1168271326
 30
0.0
 10
-3.4137433895
 20
24.1177442259
 30
0.0
 10
-3.4260971841
 20
24.1207370433
 30
0.0
 10
-3.4391538222
 20
24.1202946107
 30
0.0
 10
-3.4486124516
 20
24.1185022052
 30
0.0
 11
-3.4108295978
 21
24.1168271326
 31
0.0
 11
-3.4197356314
 21
24.1189867036
 31
0.0
 11
-3.4486124516
 21
24.1185022052
 31
0.0
  0
SPLINE
  5
505
100
AcDbEntity
  8
ASSI
100
AcDbSpline
 62
7
  6
CONTINUOUS
 70
0
 71
3
 72
9
 73
5
 74
3
 42
0.0000001
 43
0.0000001
 44
0.0000000001
 12
-0.03860054
 22
-0.0073147828
 32
0.0
 13
-0.0342157966
 23
-0.0193076926
 33
0.0
 40
0.0
 40
0.0
 40
0.0
 40
0.0
 40
0.2356956071
 40
1.0
 40
1.0
 40
1.0
 40
1.0
 10
-3.4486124516
 20
24.1185022052
 30
0.0
 10
-3.4516451108
 20
24.1179275178
 30
0.0
 10
-3.4643935818
 20
24.1148662274
 30
0.0
 10
-3.4765216676
 20
24.109490539
 30
0.0
 10
-3.4852387621
 20
24.1045715542
 30
0.0
 11
-3.4486124516
 21
24.1185022052
 31
0.0
 11
-3.4576201641
 21
24.116355882
 31
0.0
 11
-3.4852387621
 21
24.1045715542
 31
0.0
  0
SPLINE
  5
506
100
AcDbEntity
  8
ASSI
100
AcDbSpline
 62
253
  6
CONTINUOUS
 70
0
 71
3
 72
10
 73
6
 74
4
 42
0.0000001
 43
0.0000001
 44
0.0000000001
 12
-0.2621997873
 22
0.1464003741
 32
0.0
 13
-0.2555831139
 23
0.1576675931
 33
0.0
 40
0.0
 40
0.0
 40
0.0
 40
0.0
 40
0.1610403345
 40
0.3870866854
 40
1.0
 40
1.0
 40
1.0
 40
1.0
 10
16.9186141028
 20
15.167297991
 30
0.0
 10
16.904539189
 20
15.1751567794
 30
0.0
 10
16.8716191552
 20
15.1956353587
 30
0.0
 10
16.7872154675
 20
15.2494220481
 30
0.0
 10
16.7163050099
 20
15.2944380752
 30
0.0
 10
16.6640882454
 20
15.3266502642
 30
0.0
 11
16.9186141028
 21
15.167297991
 31
0.0
 11
16.8771906425
 21
15.1922553692
 31
0.0
 11
16.8198612666
 21
15.2286058539
 31
0.0
 11
16.6640882454
 21
15.3266502642
 31
0.0
  0
SPLINE
  5
507
100
AcDbEntity
  8
ASSI
100
AcDbSpline
 62
253
  6
CONTINUOUS
 70
0
 71
3
 72
9
 73
5
 74
3
 42
0.0000001
 43
0.0000001
 44
0.0000000001
 12
0.4330612658
 22
0.4496830977
 32
0.0
 13
0.2849001186
 23
0.5555077594
 33
0.0
 40
0.0
 40
0.0
 40
0.0
 40
0.0
 40
0.5160146603
 40
1.0
 40
1.0
 40
1.0
 40
1.0
 10
16.6640882454
 20
18.3190259601
 30
0.0
 10
16.7385768994
 20
18.3963736504
 30
0.0
 10
16.8739188124
 20
18.5551774272
 30
0.0
 10
16.986954975
 20
18.7311549957
 30
0.0
 10
17.0329174686
 20
18.8207741996
 30
0.0
 11
16.6640882454
 21
18.3190259601
 31
0.0
 11
16.8723143445
 21
18.5648366892
 31
0.0
 11
17.0329174686
 21
18.8207741996
 31
0.0
  0
SPLINE
  5
508
100
AcDbEntity
  8
ASSI
100
AcDbSpline
 62
253
  6
CONTINUOUS
 70
0
 71
3
 72
9
 73
5
 74
3
 42
0.0000001
 43
0.0000001
 44
0.0000000001
 12
0.1224718108
 22
-0.2825281643
 32
0.0
 13
-0.0134679014
 23
-0.3076363497
 33
0.0
 40
0.0
 40
0.0
 40
0.0
 40
0.0
 40
0.2605440103
 40
1.0
 40
1.0
 40
1.0
 40
1.0
 10
18.4715954371
 20
19.3765368228
 30
0.0
 10
18.4822318694
 20
19.3519998158
 30
0.0
 10
18.5181278587
 20
19.2558730492
 30
0.0
 10
18.534783474
 20
19.1517275303
 30
0.0
 10
18.5314638338
 20
19.0758996831
 30
0.0
 11
18.4715954371
 21
19.3765368228
 31
0.0
 11
18.4996307416
 21
19.3013649709
 31
0.0
 11
18.5314638338
 21
19.0758996831
 31
0.0
  0
SPLINE
  5
509
100
AcDbEntity
  8
ASSI
100
AcDbSpline
 62
253
  6
CONTINUOUS
 70
0
 71
3
 72
10
 73
6
 74
4
 42
0.0000001
 43
0.0000001
 44
0.0000000001
 12
-0.3466232431
 22
-0.1388551602
 32
0.0
 13
-0.3733996682
 23
0.0010564034
 33
0.0
 40
0.0
 40
0.0
 40
0.0
 40
0.0
 40
0.2055289208
 40
0.4417303136
 40
1.0
 40
1.0
 40
1.0
 40
1.0
 10
17.0329172898
 20
15.3725551029
 30
0.0
 10
17.0091702561
 20
15.3630421859
 30
0.0
 10
16.9559275629
 20
15.3481642661
 30
0.0
 10
16.8327669905
 20
15.3293894905
 30
0.0
 10
16.7335741506
 20
15.3264536782
 30
0.0
 10
16.6640882454
 20
15.3266502642
 30
0.0
 11
17.0329172898
 21
15.3725551029
 31
0.0
 11
16.9593732258
 21
15.3506228102
 31
0.0
 11
16.8723141909
 21
15.3364951943
 31
0.0
 11
16.6640882454
 21
15.3266502642
 31
0.0
  0
SPLINE
  5
50A
100
AcDbEntity
  8
ASSI
100
AcDbSpline
 62
253
  6
CONTINUOUS
 70
0
 71
3
 72
9
 73
5
 74
3
 42
0.0000001
 43
0.0000001
 44
0.0000000001
 12
0.0039466673
 22
-0.0860630727
 32
0.0
 13
-0.0129589316
 23
-0.0851733218
 33
0.0
 40
0.0
 40
0.0
 40
0.0
 40
0.0
 40
0.2601783666
 40
1.0
 40
1.0
 40
1.0
 40
1.0
 10
18.5314638338
 20
16.5035004356
 30
0.0
 10
18.531806113
 20
16.496036519
 30
0.0
 10
18.5324949403
 20
16.4673279532
 30
0.0
 10
18.5305916051
 20
16.438523147
 30
0.0
 10
18.5273958391
 20
16.4175187916
 30
0.0
 11
18.5314638338
 21
16.5035004356
 31
0.0
 11
18.5319890782
 21
16.4810913087
 31
0.0
 11
18.5273958391
 21
16.4175187916
 31
0.0
  0
SPLINE
  5
50B
100
AcDbEntity
  8
ASSI
100
AcDbSpline
 62
253
  6
CONTINUOUS
 70
0
 71
3
 72
9
 73
5
 74
3
 42
0.0000001
 43
0.0000001
 44
0.0000000001
 12
-0.0073866577
 22
-0.0485492319
 32
0.0
 13
-0.0144515739
 23
-0.0469333852
 33
0.0
 40
0.0
 40
0.0
 40
0.0
 40
0.0
 40
0.2570327355
 40
1.0
 40
1.0
 40
1.0
 40
1.0
 10
18.5273958391
 20
16.4175187916
 30
0.0
 10
18.5267629682
 20
16.413359211
 30
0.0
 10
18.5240264105
 20
16.3972200248
 30
0.0
 10
18.5201618519
 20
16.3812646323
 30
0.0
 10
18.5165828364
 20
16.3696413094
 30
0.0
 11
18.5273958391
 21
16.4175187916
 31
0.0
 11
18.525281676
 21
16.4050747551
 31
0.0
 11
18.5165828364
 21
16.3696413094
 31
0.0
  0
SPLINE
  5
50C
100
AcDbEntity
  8
ASSI
100
AcDbSpline
 62
253
  6
CONTINUOUS
 70
0
 71
3
 72
9
 73
5
 74
3
 42
0.0000001
 43
0.0000001
 44
0.0000000001
 12
-0.025930441
 22
-0.0842125148
 32
0.0
 13
-0.0543796143
 23
-0.0693324813
 33
0.0
 40
0.0
 40
0.0
 40
0.0
 40
0.0
 40
0.2635819771
 40
1.0
 40
1.0
 40
1.0
 40
1.0
 10
18.5165828364
 20
16.3696413094
 30
0.0
 10
18.5143045708
 20
16.3622423423
 30
0.0
 10
18.5045884079
 20
16.3345317747
 30
0.0
 10
18.4901708391
 20
16.3083275882
 30
0.0
 10
18.4768221297
 20
16.2913083586
 30
0.0
 11
18.5165828364
 21
16.3696413094
 31
0.0
 11
18.5088559276
 21
16.3477389864
 31
0.0
 11
18.4768221297
 21
16.2913083586
 31
0.0
  0
SPLINE
  5
50D
100
AcDbEntity
  8
ASSI
100
AcDbSpline
 62
253
  6
CONTINUOUS
 70
0
 71
3
 72
9
 73
5
 74
3
 42
0.0000001
 43
0.0000001
 44
0.0000000001
 12
-0.1501247775
 22
0.0857906946
 32
0.0
 13
-0.0349135891
 23
0.1693473749
 33
0.0
 40
0.0
 40
0.0
 40
0.0
 40
0.0
 40
0.5685574472
 40
1.0
 40
1.0
 40
1.0
 40
1.0
 10
17.0329182807
 20
18.8207762473
 30
0.0
 10
17.0044667606
 20
18.8370352267
 30
0.0
 10
16.9570796584
 20
18.8706246639
 30
0.0
 10
16.9236353012
 20
18.9215570834
 30
0.0
 10
16.9186142318
 20
18.9459116379
 30
0.0
 11
17.0329182807
 21
18.8207762473
 31
0.0
 11
16.9550892788
 21
18.8808365264
 31
0.0
 11
16.9186142318
 21
18.9459116379
 31
0.0
  0
SPLINE
  5
50E
100
AcDbEntity
  8
ASSI
100
AcDbSpline
 62
253
  6
CONTINUOUS
 70
0
 71
3
 72
9
 73
5
 74
3
 42
0.0000001
 43
0.0000001
 44
0.0000000001
 12
-0.1897250545
 22
-0.1465900234
 32
0.0
 13
-0.0260814081
 23
-0.2383358794
 33
0.0
 40
0.0
 40
0.0
 40
0.0
 40
0.0
 40
0.4981696749
 40
1.0
 40
1.0
 40
1.0
 40
1.0
 10
17.0329186534
 20
15.3725556588
 30
0.0
 10
17.0014135638
 20
15.348213424
 30
0.0
 10
16.9476962892
 20
15.2857021884
 30
0.0
 10
16.9229769376
 20
15.2071660458
 30
0.0
 10
16.9186141238
 20
15.1672979885
 30
0.0
 11
17.0329186534
 21
15.3725556588
 31
0.0
 11
16.9550894316
 21
15.2819540705
 31
0.0
 11
16.9186141238
 21
15.1672979885
 31
0.0
  0
SPLINE
  5
50F
100
AcDbEntity
  8
ASSI
100
AcDbSpline
 62
7
  6
CONTINUOUS
 70
0
 71
3
 72
9
 73
5
 74
3
 42
0.0000001
 43
0.0000001
 44
0.0000000001
 12
0.0847789405
 22
0.0443449579
 32
0.0
 13
0.0455375524
 23
0.0841443722
 33
0.0
 40
0.0
 40
0.0
 40
0.0
 40
0.0
 40
0.2714286327
 40
1.0
 40
1.0
 40
1.0
 40
1.0
 10
18.5314638338
 20
16.6744300541
 30
0.0
 10
18.5391343111
 20
16.6784422179
 30
0.0
 10
18.5664834555
 20
16.6947637282
 30
0.0
 10
18.5898795001
 20
16.7186771653
 30
0.0
 10
18.600938619
 20
16.7391122254
 30
0.0
 11
18.5314638338
 21
16.6744300541
 31
0.0
 11
18.5536897541
 21
16.6878617922
 31
0.0
 11
18.600938619
 21
16.7391122254
 31
0.0
  0
SPLINE
  5
510
100
AcDbEntity
  8
ASSI
100
AcDbSpline
 62
253
  6
CONTINUOUS
 70
0
 71
3
 72
14
 73
10
 74
8
 42
0.0000001
 43
0.0000001
 44
0.0000000001
 12
0.3420528027
 22
0.1700657118
 32
0.0
 13
0.1916177207
 23
-0.3304619726
 33
0.0
 40
0.0
 40
0.0
 40
0.0
 40
0.0
 40
0.4110867213
 40
0.721681359
 40
0.8346727945
 40
0.9179503288
 40
0.9484335144
 40
0.9717238788
 40
1.0
 40
1.0
 40
1.0
 40
1.0
 10
16.2499377698
 20
22.9481044364
 30
0.0
 10
16.2968088915
 20
22.971408355
 30
0.0
 10
16.3796405281
 20
23.0112284503
 30
0.0
 10
16.4771562315
 20
23.0536313227
 30
0.0
 10
16.5380583092
 20
23.0752259303
 30
0.0
 10
16.5657915798
 20
23.0830886225
 30
0.0
 10
16.5832429281
 20
23.0857452032
 30
0.0
 10
16.5933197342
 20
23.0862106516
 30
0.0
 10
16.6009749387
 20
23.084317515
 30
0.0
 10
16.6027810074
 20
23.0812027874
 30
0.0
 11
16.2499377698
 21
22.9481044364
 31
0.0
 11
16.3916558406
 21
23.0157488041
 31
0.0
 11
16.5009993759
 21
23.0618030102
 31
0.0
 11
16.5417685461
 21
23.0759760936
 31
0.0
 11
16.572555199
 21
23.0839870776
 31
0.0
 11
16.5840806965
 21
23.0856476955
 31
0.0
 11
16.5929771257
 21
23.0857365067
 31
0.0
 11
16.6027810074
 21
23.0812027874
 31
0.0
  0
SPLINE
  5
511
100
AcDbEntity
  8
ASSI
100
AcDbSpline
 62
253
  6
CONTINUOUS
 70
0
 71
3
 72
15
 73
11
 74
9
 42
0.0000001
 43
0.0000001
 44
0.0000000001
 12
0.0530517736
 22
0.0327573419
 32
0.0
 13
-0.0614534387
 23
-0.010536081
 33
0.0
 40
0.0
 40
0.0
 40
0.0
 40
0.0
 40
0.118047228
 40
0.1962904568
 40
0.2489162549
 40
0.3119616988
 40
0.4117951422
 40
0.5571395922
 40
0.7521506619
 40
1.0
 40
1.0
 40
1.0
 40
1.0
 10
17.0695347707
 20
15.3589080393
 30
0.0
 10
17.0716223089
 20
15.3601970104
 30
0.0
 10
17.0749031516
 20
15.3625633326
 30
0.0
 10
17.0786797289
 20
15.3663796822
 30
0.0
 10
17.0789103828
 20
15.3709477762
 30
0.0
 10
17.0747030052
 20
15.3736492257
 30
0.0
 10
17.0685434334
 20
15.3749834859
 30
0.0
 10
17.0593164648
 20
15.3754815931
 30
0.0
 10
17.0471243835
 20
15.3747164389
 30
0.0
 10
17.0379950537
 20
15.3734262482
 30
0.0
 10
17.032917989
 20
15.3725557946
 30
0.0
 11
17.0695347707
 21
15.3589080393
 31
0.0
 11
17.0754589639
 21
15.3632757959
 31
0.0
 11
17.0784142971
 21
15.3671572262
 31
0.0
 11
17.0784020692
 21
15.3704384268
 31
0.0
 11
17.0754099873
 21
15.3729878064
 31
0.0
 11
17.0694132041
 21
15.3746565012
 31
0.0
 11
17.0603720553
 21
15.3752744183
 31
0.0
 11
17.0482293107
 21
15.3746467053
 31
0.0
 11
17.032917989
 21
15.3725557946
 31
0.0
  0
SPLINE
  5
512
100
AcDbEntity
  8
ASSI
100
AcDbSpline
 62
253
  6
CONTINUOUS
 70
0
 71
3
 72
9
 73
5
 74
3
 42
0.0000001
 43
0.0000001
 44
0.0000000001
 12
-0.0000792813
 22
0.0534990954
 32
0.0
 13
-0.0467113744
 23
0.0260807783
 33
0.0
 40
0.0
 40
0.0
 40
0.0
 40
0.0
 40
0.4845282846
 40
1.0
 40
1.0
 40
1.0
 40
1.0
 10
16.9447485357
 20
15.1229652219
 30
0.0
 10
16.944735731
 20
15.1316058302
 30
0.0
 10
16.9405816817
 20
15.1499587143
 30
0.0
 10
16.9266402335
 20
15.1628166898
 30
0.0
 10
16.9186141028
 20
15.167297991
 30
0.0
 11
16.9447485357
 21
15.1229652219
 31
0.0
 11
16.9384124575
 21
15.1481007863
 31
0.0
 11
16.9186141028
 21
15.167297991
 31
0.0
  0
SPLINE
  5
513
100
AcDbEntity
  8
ASSI
100
AcDbSpline
 62
253
  6
CONTINUOUS
 70
0
 71
3
 72
11
 73
7
 74
5
 42
0.0000001
 43
0.0000001
 44
0.0000000001
 12
0.4118390271
 22
0.2132358985
 32
0.0
 13
0.0072947779
 23
0.4637108139
 33
0.0
 40
0.0
 40
0.0
 40
0.0
 40
0.0
 40
0.3010132858
 40
0.5635239788
 40
0.7922330393
 40
1.0
 40
1.0
 40
1.0
 40
1.0
 10
16.6640882454
 20
-8.8286093841
 30
0.0
 10
16.7054112517
 20
-8.8072137713
 30
0.0
 10
16.7801464654
 20
-8.7615024938
 30
0.0
 10
16.8708900411
 20
-8.6777517936
 30
0.0
 10
16.9294754599
 20
-8.5850621958
 30
0.0
 10
16.9442121912
 20
-8.5173292071
 30
0.0
 10
16.9447173958
 20
-8.4852146117
 30
0.0
 11
16.6640882454
 21
-8.8286093841
 31
0.0
 11
16.782345697
 21
-8.7544241902
 31
0.0
 11
16.8704511622
 21
-8.6704060079
 31
0.0
 11
16.9252324467
 21
-8.5795796424
 31
0.0
 11
16.9447173958
 21
-8.4852146117
 31
0.0
  0
SPLINE
  5
514
100
AcDbEntity
  8
ASSI
100
AcDbSpline
 62
253
  6
CONTINUOUS
 70
0
 71
3
 72
11
 73
7
 74
5
 42
0.0000001
 43
0.0000001
 44
0.0000000001
 12
-0.0001272263
 22
-0.1402286282
 32
0.0
 13
-0.1245269665
 23
-0.0644757239
 33
0.0
 40
0.0
 40
0.0
 40
0.0
 40
0.0
 40
0.207757319
 40
0.4361829176
 40
0.6986228781
 40
1.0
 40
1.0
 40
1.0
 40
1.0
 10
18.6156618529
 20
16.6076322309
 30
0.0
 10
18.6156530422
 20
16.5979210563
 30
0.0
 10
18.6114628219
 20
16.5773834049
 30
0.0
 10
18.5939459328
 20
16.5492328865
 30
0.0
 10
18.5665772248
 20
16.5238219382
 30
0.0
 10
18.5439736934
 20
16.5099776049
 30
0.0
 10
18.5314638338
 20
16.5035004356
 30
0.0
 11
18.6156618529
 21
16.6076322309
 31
0.0
 11
18.6101308251
 21
16.5790285486
 31
0.0
 11
18.5937918878
 21
16.5514772017
 31
0.0
 11
18.5672450598
 21
16.5259894697
 31
0.0
 11
18.5314638338
 21
16.5035004356
 31
0.0
  0
SPLINE
  5
515
100
AcDbEntity
  8
ASSI
100
AcDbSpline
 62
253
  6
CONTINUOUS
 70
0
 71
3
 72
8
 73
4
 74
2
 42
0.0000001
 43
0.0000001
 44
0.0000000001
 12
-0.0352558049
 22
-0.0399491807
 32
0.0
 13
-0.0454124977
 23
-0.0278677928
 33
0.0
 40
0.0
 40
0.0
 40
0.0
 40
0.0
 40
1.0
 40
1.0
 40
1.0
 40
1.0
 10
18.512426117
 20
16.3191535366
 30
0.0
 10
18.500674182
 20
16.305837143
 30
0.0
 10
18.486732788
 20
16.2942119334
 30
0.0
 10
18.4715952887
 20
16.2849226691
 30
0.0
 11
18.512426117
 21
16.3191535366
 31
0.0
 11
18.4715952887
 21
16.2849226691
 31
0.0
  0
SPLINE
  5
516
100
AcDbEntity
  8
0
100
AcDbSpline
 62
252
  6
CONTINUOUS
 70
0
 71
3
 72
13
 73
9
 74
7
 42
0.0000001
 43
0.0000001
 44
0.0000000001
 12
0.4745559597
 22
0.2457085409
 32
0.0
 13
0.059258054
 23
-0.5563129908
 33
0.0
 40
0.0
 40
0.0
 40
0.0
 40
0.0
 40
0.2490801906
 40
0.3745290044
 40
0.5000465587
 40
0.6245839973
 40
0.7501008193
 40
1.0
 40
1.0
 40
1.0
 40
1.0
 10
4.5226233315
 20
3.6241118234
 30
0.0
 10
4.5620241612
 20
3.6445122001
 30
0.0
 10
4.6225181631
 20
3.6690697199
 30
0.0
 10
4.6951323858
 20
3.665924594
 30
0.0
 10
4.7436229365
 20
3.6463656301
 30
0.0
 10
4.7764600875
 20
3.5998063959
 30
0.0
 10
4.7989595969
 20
3.5161327946
 30
0.0
 10
4.8022360645
 20
3.443531122
 30
0.0
 10
4.8071722442
 20
3.3971904018
 30
0.0
 11
4.5226233315
 21
3.6241118234
 31
0.0
 11
4.6397861493
 21
3.6652726739
 31
0.0
 11
4.694114054
 21
3.6630531864
 31
0.0
 11
4.7411220641
 21
3.641785691
 31
0.0
 11
4.7737427932
 21
3.597236312
 31
0.0
 11
4.7918396706
 21
3.5358575343
 31
0.0
 11
4.8071722442
 21
3.3971904018
 31
0.0
  0
SPLINE
  5
517
100
AcDbEntity
  8
0
100
AcDbSpline
 62
252
  6
CONTINUOUS
 70
0
 71
3
 72
13
 73
9
 74
7
 42
0.0000001
 43
0.0000001
 44
0.0000000001
 12
0.059258054
 22
0.617676502
 32
0.0
 13
0.4745559597
 23
0.2457085409
 33
0.0
 40
0.0
 40
0.0
 40
0.0
 40
0.0
 40
0.2498991807
 40
0.3754160027
 40
0.4999534413
 40
0.6254709956
 40
0.7509198094
 40
1.0
 40
1.0
 40
1.0
 40
1.0
 10
4.2380744189
 20
3.102531377
 30
0.0
 10
4.2430105986
 20
3.153983661
 30
0.0
 10
4.2462870662
 20
3.2299782151
 30
0.0
 10
4.2687865756
 20
3.3369507404
 30
0.0
 10
4.3016237266
 20
3.4175138399
 30
0.0
 10
4.3501142773
 20
3.4872862389
 30
0.0
 10
4.4227284999
 20
3.5656255936
 30
0.0
 10
4.4832225019
 20
3.6037114467
 30
0.0
 10
4.5226233315
 20
3.6241118234
 30
0.0
 11
4.2380744189
 21
3.102531377
 31
0.0
 11
4.2534069925
 21
3.2570758542
 31
0.0
 11
4.2715038699
 21
3.3371944971
 31
0.0
 11
4.3041245989
 21
3.4155236298
 31
0.0
 11
4.3511326091
 21
3.4854693447
 31
0.0
 11
4.4054605138
 21
3.5439470245
 31
0.0
 11
4.5226233315
 21
3.6241118234
 31
0.0
  0
SPLINE
  5
518
100
AcDbEntity
  8
0
100
AcDbSpline
 62
252
  6
CONTINUOUS
 70
0
 71
3
 72
15
 73
11
 74
9
 42
0.0000001
 43
0.0000001
 44
0.0000000001
 12
-1.185901797
 22
-0.61401863
 32
0.0
 13
-0.0439160627
 23
-1.5001790331
 33
0.0
 40
0.0
 40
0.0
 40
0.0
 40
0.0
 40
0.1248401019
 40
0.2498663855
 40
0.374885782
 40
0.5000299202
 40
0.6250550432
 40
0.7501198193
 40
0.875035251
 40
1.0
 40
1.0
 40
1.0
 40
1.0
 10
4.5226233315
 20
4.1980848081
 30
0.0
 10
4.4732739645
 20
4.1725334253
 30
0.0
 10
4.3742014144
 20
4.1127089457
 30
0.0
 10
4.2303034182
 20
3.9864945178
 30
0.0
 10
4.1036509048
 20
3.8183255739
 30
0.0
 10
4.011458548
 20
3.6218410766
 30
0.0
 10
3.9543935296
 20
3.4201679324
 30
0.0
 10
3.9211434502
 20
3.2222128518
 30
0.0
 10
3.9073007888
 20
3.0307193606
 30
0.0
 10
3.9051759822
 20
2.9065008046
 30
0.0
 10
3.9033466623
 20
2.8440109725
 30
0.0
 11
4.5226233315
 21
4.1980848081
 31
0.0
 11
4.3750647109
 21
4.106687791
 31
0.0
 11
4.2331936961
 21
3.9795187109
 31
0.0
 11
4.1094314479
 21
3.813666134
 31
0.0
 11
4.0172916019
 21
3.6209170704
 31
0.0
 11
3.9583630313
 21
3.4207884518
 31
0.0
 11
3.9243679698
 21
3.2232069902
 31
0.0
 11
3.9090770503
 21
3.0315945421
 31
0.0
 11
3.9033466623
 21
2.8440109725
 31
0.0
  0
SPLINE
  5
519
100
AcDbEntity
  8
0
100
AcDbSpline
 62
252
  6
CONTINUOUS
 70
0
 71
3
 72
15
 73
11
 74
9
 42
0.0000001
 43
0.0000001
 44
0.0000000001
 12
-0.0439160627
 22
1.4547026189
 32
0.0
 13
-1.185901797
 23
-0.61401863
 33
0.0
 40
0.0
 40
0.0
 40
0.0
 40
0.0
 40
0.124964749
 40
0.2498801807
 40
0.3749449568
 40
0.4999700798
 40
0.625114218
 40
0.7501336145
 40
0.8751598981
 40
1.0
 40
1.0
 40
1.0
 40
1.0
 10
5.1419000008
 20
3.4852907361
 30
0.0
 10
5.1400706809
 20
3.545886252
 30
0.0
 10
5.1379458743
 20
3.6679045064
 30
0.0
 10
5.1241032129
 20
3.8450635021
 30
0.0
 10
5.0908531334
 20
4.0085871175
 30
0.0
 10
5.0337881151
 20
4.1511677053
 30
0.0
 10
4.9415957582
 20
4.2521842223
 30
0.0
 10
4.8149432448
 20
4.2892006493
 30
0.0
 10
4.6710452487
 20
4.2664043401
 30
0.0
 10
4.5719726986
 20
4.2236361909
 30
0.0
 10
4.5226233315
 20
4.1980848081
 30
0.0
 11
5.1419000008
 21
3.4852907361
 31
0.0
 11
5.1361696128
 21
3.6669403152
 31
0.0
 11
5.1208786932
 21
3.8427185527
 31
0.0
 11
5.0868836317
 21
4.0050970975
 31
0.0
 11
5.0279550612
 21
4.144203395
 31
0.0
 11
4.9358152151
 21
4.2415388549
 31
0.0
 11
4.812052967
 21
4.2792318722
 31
0.0
 11
4.6701819521
 21
4.2594892157
 31
0.0
 11
4.5226233315
 21
4.1980848081
 31
0.0
  0
SPLINE
  5
51A
100
AcDbEntity
  8
0
100
AcDbSpline
 62
253
  6
CONTINUOUS
 70
0
 71
3
 72
11
 73
7
 74
5
 42
0.0000001
 43
0.0000001
 44
0.0000000001
 12
0.5122758368
 22
0.2750946518
 32
0.0
 13
0.0114388215
 23
-0.6326446683
 33
0.0
 40
0.0
 40
0.0
 40
0.0
 40
0.0
 40
0.2491315025
 40
0.4973515609
 40
0.7462289133
 40
1.0
 40
1.0
 40
1.0
 40
1.0
 10
4.456924289
 20
-4.7089791574
 30
0.0
 10
4.4994656387
 20
-4.6861342427
 30
0.0
 10
4.5859318706
 20
-4.6512926361
 30
0.0
 10
4.6996198882
 20
-4.6805565464
 30
0.0
 10
4.7588512603
 20
-4.7984556361
 30
0.0
 10
4.7689254509
 20
-4.9006023791
 30
0.0
 10
4.769893065
 20
-4.9541180208
 30
0.0
 11
4.456924289
 21
-4.7089791574
 31
0.0
 11
4.5834068464
 21
-4.6648650305
 31
0.0
 11
4.6904139083
 21
-4.6951317526
 31
0.0
 11
4.7512143415
 21
-4.8033803447
 31
0.0
 11
4.769893065
 21
-4.9541180208
 31
0.0
  0
SPLINE
  5
51B
100
AcDbEntity
  8
0
100
AcDbSpline
 62
253
  6
CONTINUOUS
 70
0
 71
3
 72
9
 73
5
 74
3
 42
0.0000001
 43
0.0000001
 44
0.0000000001
 12
0.0428005124
 22
0.4818273804
 32
0.0
 13
0.371139475
 23
0.1994009953
 33
0.0
 40
0.0
 40
0.0
 40
0.0
 40
0.0
 40
0.5000882298
 40
1.0
 40
1.0
 40
1.0
 40
1.0
 10
4.2051658807
 20
-5.1354298806
 30
0.0
 10
4.2123005582
 20
-5.0551111467
 30
0.0
 10
4.2663890479
 20
-4.8717511071
 30
0.0
 10
4.395078625
 20
-4.7422067922
 30
0.0
 10
4.456924289
 20
-4.7089791574
 30
0.0
 11
4.2051658807
 21
-5.1354298806
 31
0.0
 11
4.2850554468
 21
-4.8851774312
 31
0.0
 11
4.456924289
 21
-4.7089791574
 31
0.0
  0
SPLINE
  5
51C
100
AcDbEntity
  8
0
100
AcDbSpline
 62
253
  6
CONTINUOUS
 70
0
 71
3
 72
9
 73
5
 74
3
 42
0.0000001
 43
0.0000001
 44
0.0000000001
 12
-0.055586621
 22
0.3774090551
 32
0.0
 13
0.0381029446
 23
0.4290401397
 33
0.0
 40
0.0
 40
0.0
 40
0.0
 40
0.0
 40
0.4997637338
 40
1.0
 40
1.0
 40
1.0
 40
1.0
 10
4.2170213307
 20
-5.5399396406
 30
0.0
 10
4.2077612716
 20
-5.4770678544
 30
0.0
 10
4.1942949284
 20
-5.3472597057
 30
0.0
 10
4.1988123891
 20
-5.2069703598
 30
0.0
 10
4.2051658807
 20
-5.1354298806
 30
0.0
 11
4.2170213307
 21
-5.5399396406
 31
0.0
 11
4.1987929947
 21
-5.3447032207
 31
0.0
 11
4.2051658807
 21
-5.1354298806
 31
0.0
  0
SPLINE
  5
51D
100
AcDbEntity
  8
0
100
AcDbSpline
 62
253
  6
CONTINUOUS
 70
0
 71
3
 72
11
 73
7
 74
5
 42
0.0000001
 43
0.0000001
 44
0.0000000001
 12
-0.3554977909
 22
-1.4110004654
 32
0.0
 13
0.1522799832
 23
-1.2117955191
 33
0.0
 40
0.0
 40
0.0
 40
0.0
 40
0.0
 40
0.249614251
 40
0.499888924
 40
0.7499637517
 40
1.0
 40
1.0
 40
1.0
 40
1.0
 10
3.9186566567
 20
-4.905515633
 30
0.0
 10
3.8890775518
 20
-5.0229175745
 30
0.0
 10
3.8560931403
 20
-5.2558825006
 30
0.0
 10
3.8460838386
 20
-5.5872349671
 30
0.0
 10
3.8621715714
 20
-5.9050780765
 30
0.0
 10
3.8847609306
 20
-6.1090937285
 30
0.0
 10
3.8974527692
 20
-6.2100913302
 30
0.0
 11
3.9186566567
 21
-4.905515633
 31
0.0
 11
3.8626975233
 21
-5.2525572904
 31
0.0
 11
3.8504358954
 21
-5.5850383839
 31
0.0
 11
3.8651396903
 21
-5.9031396475
 31
0.0
 11
3.8974527692
 21
-6.2100913302
 31
0.0
  0
SPLINE
  5
51E
100
AcDbEntity
  8
0
100
AcDbSpline
 62
253
  6
CONTINUOUS
 70
0
 71
3
 72
18
 73
14
 74
12
 42
0.0000001
 43
0.0000001
 44
0.0000000001
 12
-0.1605600994
 22
1.4684142303
 32
0.0
 13
-0.4257702605
 23
-1.6920505669
 33
0.0
 40
0.0
 40
0.0
 40
0.0
 40
0.0
 40
0.0626155709
 40
0.1255750725
 40
0.1873779143
 40
0.2500548274
 40
0.3131302752
 40
0.3757850613
 40
0.5005898481
 40
0.6254073429
 40
0.7503252015
 40
0.8752611255
 40
1.0
 40
1.0
 40
1.0
 40
1.0
 10
4.9358844667
 20
-4.324785483
 30
0.0
 10
4.9325332792
 20
-4.2941369512
 30
0.0
 10
4.8957299336
 20
-4.2592316943
 30
0.0
 10
4.8456921127
 20
-4.2126114488
 30
0.0
 10
4.7859776382
 20
-4.178630538
 30
0.0
 10
4.718989533
 20
-4.1619545634
 30
0.0
 10
4.6464706079
 20
-4.1601623223
 30
0.0
 10
4.5452694708
 20
-4.1772436086
 30
0.0
 10
4.4136836533
 20
-4.2330910001
 30
0.0
 10
4.2572433993
 20
-4.342968871
 30
0.0
 10
4.1123492263
 20
-4.5003884226
 30
0.0
 10
3.9941779552
 20
-4.692953798
 30
0.0
 10
3.9363600244
 20
-4.8351608053
 30
0.0
 10
3.9186566567
 20
-4.905515633
 30
0.0
 11
4.9358844667
 21
-4.324785483
 31
0.0
 11
4.8966436348
 21
-4.2602377275
 31
0.0
 11
4.8437457863
 21
-4.2144686655
 31
0.0
 11
4.7850721616
 21
-4.1816235625
 31
0.0
 11
4.7182652818
 21
-4.1644703781
 31
0.0
 11
4.6457063734
 21
-4.1626167421
 31
0.0
 11
4.5700092351
 21
-4.1753236185
 31
0.0
 11
4.4139191989
 21
-4.2402351959
 31
0.0
 11
4.2592168901
 21
-4.3508488258
 31
0.0
 11
4.1168065516
 21
-4.5062460697
 31
0.0
 11
3.9993605603
 21
-4.6965249812
 31
0.0
 11
3.9186566567
 21
-4.905515633
 31
0.0
  0
SPLINE
  5
51F
100
AcDbEntity
  8
0
100
AcDbSpline
 62
253
  6
CONTINUOUS
 70
0
 71
3
 72
11
 73
7
 74
5
 42
0.0000001
 43
0.0000001
 44
0.0000000001
 12
-0.4619479804
 22
-0.3960989062
 32
0.0
 13
-0.1773150094
 23
-0.6462676505
 33
0.0
 40
0.0
 40
0.0
 40
0.0
 40
0.0
 40
0.2450440156
 40
0.5033055314
 40
0.7579591626
 40
1.0
 40
1.0
 40
1.0
 40
1.0
 10
5.3427906931
 20
-3.8119598673
 30
0.0
 10
5.3050581638
 20
-3.8443137561
 30
0.0
 10
5.2272713803
 20
-3.9098445159
 30
0.0
 10
5.1144361684
 20
-4.0242462147
 30
0.0
 10
5.0118634185
 20
-4.1587584809
 30
0.0
 10
4.9620910485
 20
-4.266482631
 30
0.0
 10
4.9477852241
 20
-4.3186236855
 30
0.0
 11
5.3427906931
 21
-3.8119598673
 31
0.0
 11
5.2299923759
 21
-3.9105971378
 31
0.0
 11
5.1155897462
 21
-4.0283328325
 31
0.0
 11
5.0148053669
 21
-4.1660596855
 31
0.0
 11
4.9477852241
 21
-4.3186236855
 31
0.0
  0
SPLINE
  5
520
100
AcDbEntity
  8
0
100
AcDbSpline
 62
253
  6
CONTINUOUS
 70
0
 71
3
 72
8
 73
4
 74
2
 42
0.0000001
 43
0.0000001
 44
0.0000000001
 12
-0.5440131866
 22
-0.4659009965
 32
0.0
 13
-0.5438963854
 23
-0.4663757483
 33
0.0
 40
0.0
 40
0.0
 40
0.0
 40
0.0
 40
1.0
 40
1.0
 40
1.0
 40
1.0
 10
5.8878846482
 20
-3.3505332038
 30
0.0
 10
5.7065469193
 20
-3.505833536
 30
0.0
 10
5.5240894883
 20
-3.6565012845
 30
0.0
 10
5.3427906931
 20
-3.8119598673
 30
0.0
 11
5.8878846482
 21
-3.3505332038
 31
0.0
 11
5.3427906931
 21
-3.8119598673
 31
0.0
  0
SPLINE
  5
521
100
AcDbEntity
  8
0
100
AcDbSpline
 62
253
  6
CONTINUOUS
 70
0
 71
3
 72
9
 73
5
 74
3
 42
0.0000001
 43
0.0000001
 44
0.0000000001
 12
0.5970488183
 22
0.5888105104
 32
0.0
 13
0.6129664407
 23
0.537111148
 33
0.0
 40
0.0
 40
0.0
 40
0.0
 40
0.0
 40
0.499968398
 40
1.0
 40
1.0
 40
1.0
 40
1.0
 10
5.2771855026
 20
-4.4001437604
 30
0.0
 10
5.3766873497
 20
-4.3020148778
 30
0.0
 10
5.5820740275
 20
-4.1252994326
 30
0.0
 10
5.7857171178
 20
-3.9442580031
 30
0.0
 10
5.8878846482
 20
-3.8547338205
 30
0.0
 11
5.2771855026
 21
-4.4001437604
 31
0.0
 11
5.5816252045
 21
-4.1242292423
 31
0.0
 11
5.8878846482
 21
-3.8547338205
 31
0.0
  0
SPLINE
  5
522
100
AcDbEntity
  8
0
100
AcDbSpline
 62
253
  6
CONTINUOUS
 70
0
 71
3
 72
11
 73
7
 74
5
 42
0.0000001
 43
0.0000001
 44
0.0000000001
 12
0.0
 22
0.3902274671
 32
0.0
 13
0.2930473187
 23
0.2888582091
 33
0.0
 40
0.0
 40
0.0
 40
0.0
 40
0.0
 40
0.2477795725
 40
0.4960551195
 40
0.7486644071
 40
1.0
 40
1.0
 40
1.0
 40
1.0
 10
5.0997313156
 20
-4.7844691286
 30
0.0
 10
5.0997313156
 20
-4.7522389969
 30
0.0
 10
5.1072960618
 20
-4.6830888015
 30
0.0
 10
5.1459988449
 20
-4.5760033749
 30
0.0
 10
5.2055123232
 20
-4.4793245185
 30
0.0
 10
5.2526344288
 20
-4.4243438768
 30
0.0
 10
5.2771855026
 20
-4.4001437604
 30
0.0
 11
5.0997313156
 21
-4.7844691286
 31
0.0
 11
5.111799266
 21
-4.682708044
 31
0.0
 11
5.1491493762
 21
-4.578408987
 31
0.0
 11
5.2074351351
 21
-4.4816203758
 31
0.0
 11
5.2771855026
 21
-4.4001437604
 31
0.0
  0
SPLINE
  5
523
100
AcDbEntity
  8
0
100
AcDbSpline
 62
252
  6
CONTINUOUS
 70
0
 71
3
 72
10
 73
6
 74
4
 42
0.0000001
 43
0.0000001
 44
0.0000000001
 12
-0.4020372949
 22
-0.6860387954
 32
0.0
 13
0.0
 23
-0.6925764907
 33
0.0
 40
0.0
 40
0.0
 40
0.0
 40
0.0
 40
0.3333333333
 40
0.6666666667
 40
1.0
 40
1.0
 40
1.0
 40
1.0
 10
15.9963842286
 20
-4.6083158198
 30
0.0
 10
15.951713418
 20
-4.6845423526
 30
0.0
 10
15.8734986969
 20
-4.8469822538
 30
0.0
 10
15.7997966835
 20
-5.0997118475
 30
0.0
 10
15.7829775082
 20
-5.2631501272
 30
0.0
 10
15.7829775082
 20
-5.3401030706
 30
0.0
 11
15.9963842286
 21
-4.6083158198
 31
0.0
 11
15.8807687083
 21
-4.8484938774
 31
0.0
 11
15.8078755586
 21
-5.0984498185
 31
0.0
 11
15.7829775082
 21
-5.3401030706
 31
0.0
  0
SPLINE
  5
524
100
AcDbEntity
  8
0
100
AcDbSpline
 62
252
  6
CONTINUOUS
 70
0
 71
3
 72
12
 73
8
 74
6
 42
0.0000001
 43
0.0000001
 44
0.0000000001
 12
1.4063236104
 22
-0.6330051675
 32
0.0
 13
1.151952169
 23
2.2889139339
 33
0.0
 40
0.0
 40
0.0
 40
0.0
 40
0.0
 40
0.2
 40
0.4
 40
0.6
 40
0.8
 40
1.0
 40
1.0
 40
1.0
 40
1.0
 10
13.502682821
 20
-8.1369766528
 30
0.0
 10
13.5964377284
 20
-8.1791769973
 30
0.0
 10
13.8076891132
 20
-8.2163666692
 30
0.0
 10
14.1617527182
 20
-8.1232971274
 30
0.0
 10
14.5215583489
 20
-7.8904038237
 30
0.0
 10
14.8531881291
 20
-7.5396409621
 30
0.0
 10
15.035771951
 20
-7.247531482
 30
0.0
 10
15.1125687622
 20
-7.0949372198
 30
0.0
 11
13.502682821
 21
-8.1369766528
 31
0.0
 11
13.8138868678
 21
-8.1915576609
 31
0.0
 11
14.1627097225
 21
-8.0999931671
 31
0.0
 11
14.5168623738
 21
-7.8707588974
 31
0.0
 11
14.8435624545
 21
-7.525074069
 31
0.0
 11
15.1125687622
 21
-7.0949372198
 31
0.0
  0
SPLINE
  5
525
100
AcDbEntity
  8
0
100
AcDbSpline
 62
252
  6
CONTINUOUS
 70
0
 71
3
 72
12
 73
8
 74
6
 42
0.0000001
 43
0.0000001
 44
0.0000000001
 12
-1.1519522961
 22
1.0960326637
 32
0.0
 13
-1.4063237655
 23
-2.0892961276
 33
0.0
 40
0.0
 40
0.0
 40
0.0
 40
0.0
 40
0.2
 40
0.4
 40
0.6
 40
0.8
 40
1.0
 40
1.0
 40
1.0
 40
1.0
 10
15.1125688606
 20
-5.2065325069
 30
0.0
 10
15.0357720409
 20
-5.1334636627
 30
0.0
 10
14.8531881989
 20
-5.0304252535
 30
0.0
 10
14.5215583821
 20
-5.0230750815
 30
0.0
 10
14.1617527118
 20
-5.1627714309
 30
0.0
 10
13.8076890677
 20
-5.4363455153
 30
0.0
 10
13.5964376596
 20
-5.6922924282
 30
0.0
 10
13.5026827419
 20
-5.8315788367
 30
0.0
 11
15.1125688606
 21
-5.2065325069
 31
0.0
 11
14.8435625233
 21
-5.0549598272
 31
0.0
 11
14.5168624065
 21
-5.0475828351
 31
0.0
 11
14.1627097161
 21
-5.1850843867
 31
0.0
 11
13.813886823
 21
-5.4547365628
 31
0.0
 11
13.5026827419
 21
-5.8315788367
 31
0.0
  0
SPLINE
  5
526
100
AcDbEntity
  8
0
100
AcDbSpline
 62
252
  6
CONTINUOUS
 70
0
 71
3
 72
466
 73
462
 74
460
 42
0.0000001
 43
0.0000001
 44
0.0000000001
 12
4.8564464833
 22
3.1081472564
 32
0.0
 13
-4.9420337552
 23
-1.9438439798
 33
0.0
 40
0.0
 40
0.0
 40
0.0
 40
0.0
 40
0.015625
 40
0.0234375
 40
0.03125
 40
0.0390625
 40
0.04296875
 40
0.046875
 40
0.05078125
 40
0.052734375
 40
0.0546875
 40
0.056640625
 40
0.05859375
 40
0.0595703125
 40
0.060546875
 40
0.0610351562
 40
0.0615234375
 40
0.0620117188
 40
0.0622558594
 40
0.0623779297
 40
0.0625
 40
0.0626220703
 40
0.0627441406
 40
0.0629882812
 40
0.0634765625
 40
0.0639648438
 40
0.064453125
 40
0.0654296875
 40
0.06640625
 40
0.068359375
 40
0.0703125
 40
0.072265625
 40
0.07421875
 40
0.078125
 40
0.08203125
 40
0.0859375
 40
0.09375
 40
0.1015625
 40
0.10546875
 40
0.109375
 40
0.11328125
 40
0.115234375
 40
0.1171875
 40
0.119140625
 40
0.12109375
 40
0.1220703125
 40
0.123046875
 40
0.1235351562
 40
0.1240234375
 40
0.1245117188
 40
0.1247558594
 40
0.125
 40
0.1252441406
 40
0.1254882812
 40
0.1259765625
 40
0.1264648438
 40
0.126953125
 40
0.1279296875
 40
0.12890625
 40
0.130859375
 40
0.1328125
 40
0.134765625
 40
0.13671875
 40
0.140625
 40
0.14453125
 40
0.1484375
 40
0.15625
 40
0.1640625
 40
0.16796875
 40
0.171875
 40
0.17578125
 40
0.177734375
 40
0.1796875
 40
0.181640625
 40
0.18359375
 40
0.1845703125
 40
0.185546875
 40
0.1865234375
 40
0.1870117188
 40
0.1872558594
 40
0.1875
 40
0.1877441406
 40
0.1879882812
 40
0.1884765625
 40
0.189453125
 40
0.1904296875
 40
0.19140625
 40
0.193359375
 40
0.1953125
 40
0.197265625
 40
0.19921875
 40
0.203125
 40
0.20703125
 40
0.2109375
 40
0.21875
 40
0.2265625
 40
0.23046875
 40
0.234375
 40
0.23828125
 40
0.2421875
 40
0.244140625
 40
0.24609375
 40
0.2470703125
 40
0.248046875
 40
0.2490234375
 40
0.2495117188
 40
0.2497558594
 40
0.25
 40
0.2502441406
 40
0.2504882812
 40
0.2509765625
 40
0.251953125
 40
0.2529296875
 40
0.25390625
 40
0.255859375
 40
0.2578125
 40
0.26171875
 40
0.265625
 40
0.26953125
 40
0.2734375
 40
0.28125
 40
0.2890625
 40
0.29296875
 40
0.296875
 40
0.30078125
 40
0.3046875
 40
0.306640625
 40
0.30859375
 40
0.3095703125
 40
0.310546875
 40
0.3115234375
 40
0.3120117188
 40
0.3122558594
 40
0.3125
 40
0.3127441406
 40
0.3129882812
 40
0.3134765625
 40
0.314453125
 40
0.3154296875
 40
0.31640625
 40
0.318359375
 40
0.3203125
 40
0.32421875
 40
0.328125
 40
0.33203125
 40
0.3359375
 40
0.34375
 40
0.3515625
 40
0.35546875
 40
0.359375
 40
0.36328125
 40
0.3671875
 40
0.369140625
 40
0.37109375
 40
0.3720703125
 40
0.373046875
 40
0.3740234375
 40
0.3745117188
 40
0.3747558594
 40
0.375
 40
0.3752441406
 40
0.3754882812
 40
0.3759765625
 40
0.376953125
 40
0.3779296875
 40
0.37890625
 40
0.380859375
 40
0.3828125
 40
0.38671875
 40
0.390625
 40
0.39453125
 40
0.3984375
 40
0.40625
 40
0.4140625
 40
0.41796875
 40
0.421875
 40
0.42578125
 40
0.427734375
 40
0.4296875
 40
0.431640625
 40
0.43359375
 40
0.4345703125
 40
0.435546875
 40
0.4365234375
 40
0.4370117188
 40
0.4372558594
 40
0.4375
 40
0.4377441406
 40
0.4379882812
 40
0.4384765625
 40
0.439453125
 40
0.4404296875
 40
0.44140625
 40
0.443359375
 40
0.4453125
 40
0.447265625
 40
0.44921875
 40
0.453125
 40
0.45703125
 40
0.4609375
 40
0.46875
 40
0.4765625
 40
0.48046875
 40
0.484375
 40
0.48828125
 40
0.490234375
 40
0.4921875
 40
0.494140625
 40
0.49609375
 40
0.4970703125
 40
0.498046875
 40
0.4985351562
 40
0.4990234375
 40
0.4995117188
 40
0.4997558594
 40
0.4998779297
 40
0.5
 40
0.5001220703
 40
0.5002441406
 40
0.5004882812
 40
0.5009765625
 40
0.5014648438
 40
0.501953125
 40
0.5029296875
 40
0.50390625
 40
0.505859375
 40
0.5078125
 40
0.509765625
 40
0.51171875
 40
0.515625
 40
0.51953125
 40
0.5234375
 40
0.53125
 40
0.5390625
 40
0.54296875
 40
0.546875
 40
0.55078125
 40
0.552734375
 40
0.5546875
 40
0.556640625
 40
0.55859375
 40
0.5595703125
 40
0.560546875
 40
0.5610351562
 40
0.5615234375
 40
0.5620117188
 40
0.5622558594
 40
0.5623779297
 40
0.5625
 40
0.5626220703
 40
0.5627441406
 40
0.5629882812
 40
0.5634765625
 40
0.5639648438
 40
0.564453125
 40
0.5654296875
 40
0.56640625
 40
0.568359375
 40
0.5703125
 40
0.572265625
 40
0.57421875
 40
0.578125
 40
0.58203125
 40
0.5859375
 40
0.59375
 40
0.6015625
 40
0.60546875
 40
0.609375
 40
0.61328125
 40
0.615234375
 40
0.6171875
 40
0.619140625
 40
0.62109375
 40
0.6220703125
 40
0.623046875
 40
0.6235351562
 40
0.6240234375
 40
0.6245117188
 40
0.6247558594
 40
0.6248779297
 40
0.625
 40
0.6251220703
 40
0.6252441406
 40
0.6254882812
 40
0.6259765625
 40
0.6264648438
 40
0.626953125
 40
0.6279296875
 40
0.62890625
 40
0.630859375
 40
0.6328125
 40
0.634765625
 40
0.63671875
 40
0.640625
 40
0.64453125
 40
0.6484375
 40
0.65625
 40
0.6640625
 40
0.66796875
 40
0.671875
 40
0.67578125
 40
0.677734375
 40
0.6796875
 40
0.681640625
 40
0.68359375
 40
0.6845703125
 40
0.685546875
 40
0.6860351562
 40
0.6865234375
 40
0.6870117188
 40
0.6872558594
 40
0.6873779297
 40
0.6875
 40
0.6876220703
 40
0.6877441406
 40
0.6879882812
 40
0.6884765625
 40
0.6889648438
 40
0.689453125
 40
0.6904296875
 40
0.69140625
 40
0.693359375
 40
0.6953125
 40
0.697265625
 40
0.69921875
 40
0.703125
 40
0.70703125
 40
0.7109375
 40
0.71875
 40
0.7265625
 40
0.73046875
 40
0.734375
 40
0.73828125
 40
0.740234375
 40
0.7421875
 40
0.744140625
 40
0.74609375
 40
0.7470703125
 40
0.748046875
 40
0.7485351562
 40
0.7490234375
 40
0.7495117188
 40
0.7497558594
 40
0.7498779297
 40
0.75
 40
0.7501220703
 40
0.7502441406
 40
0.7504882812
 40
0.7509765625
 40
0.7514648438
 40
0.751953125
 40
0.7529296875
 40
0.75390625
 40
0.755859375
 40
0.7578125
 40
0.759765625
 40
0.76171875
 40
0.765625
 40
0.76953125
 40
0.7734375
 40
0.78125
 40
0.7890625
 40
0.79296875
 40
0.796875
 40
0.80078125
 40
0.802734375
 40
0.8046875
 40
0.806640625
 40
0.80859375
 40
0.8095703125
 40
0.810546875
 40
0.8110351562
 40
0.8115234375
 40
0.8120117188
 40
0.8122558594
 40
0.8123779297
 40
0.8125
 40
0.8126220703
 40
0.8127441406
 40
0.8129882812
 40
0.8134765625
 40
0.8139648438
 40
0.814453125
 40
0.8154296875
 40
0.81640625
 40
0.818359375
 40
0.8203125
 40
0.822265625
 40
0.82421875
 40
0.828125
 40
0.83203125
 40
0.8359375
 40
0.84375
 40
0.8515625
 40
0.85546875
 40
0.859375
 40
0.86328125
 40
0.865234375
 40
0.8671875
 40
0.869140625
 40
0.87109375
 40
0.8720703125
 40
0.873046875
 40
0.8735351562
 40
0.8740234375
 40
0.8745117188
 40
0.8747558594
 40
0.8748779297
 40
0.875
 40
0.8751220703
 40
0.8752441406
 40
0.8754882812
 40
0.8759765625
 40
0.8764648438
 40
0.876953125
 40
0.8779296875
 40
0.87890625
 40
0.880859375
 40
0.8828125
 40
0.884765625
 40
0.88671875
 40
0.890625
 40
0.89453125
 40
0.8984375
 40
0.90625
 40
0.9140625
 40
0.91796875
 40
0.921875
 40
0.92578125
 40
0.927734375
 40
0.9296875
 40
0.931640625
 40
0.93359375
 40
0.9345703125
 40
0.935546875
 40
0.9360351562
 40
0.9365234375
 40
0.9370117188
 40
0.9372558594
 40
0.9373779297
 40
0.9375
 40
0.9376220703
 40
0.9377441406
 40
0.9379882812
 40
0.9384765625
 40
0.9389648438
 40
0.939453125
 40
0.9404296875
 40
0.94140625
 40
0.943359375
 40
0.9453125
 40
0.947265625
 40
0.94921875
 40
0.953125
 40
0.95703125
 40
0.9609375
 40
0.96875
 40
0.9765625
 40
0.984375
 40
0.9921875
 40
1.0
 40
1.0
 40
1.0
 40
1.0
 10
14.220288286
 20
-8.5609195258
 30
0.0
 10
14.2455822781
 20
-8.5447312588
 30
0.0
 10
14.2835232663
 20
-8.5204488584
 30
0.0
 10
14.3341112505
 20
-8.4880723245
 30
0.0
 10
14.3720522386
 20
-8.463789924
 30
0.0
 10
14.4036697287
 20
-8.4435545903
 30
0.0
 10
14.4289637208
 20
-8.4273663234
 30
0.0
 10
14.4479342149
 20
-8.415225123
 30
0.0
 10
14.4637429601
 20
-8.4051074568
 30
0.0
 10
14.4763899559
 20
-8.3970133219
 30
0.0
 10
14.4858752037
 20
-8.3909427263
 30
0.0
 10
14.4953604478
 20
-8.3848721092
 30
0.0
 10
14.5032648295
 20
-8.3798133287
 30
0.0
 10
14.5095883088
 20
-8.375766154
 30
0.0
 10
14.5135405426
 20
-8.373237012
 30
0.0
 10
14.5167021941
 20
-8.3712129148
 30
0.0
 10
14.5190738039
 20
-8.3696969872
 30
0.0
 10
14.5210489644
 20
-8.3684268898
 30
0.0
 10
14.5224338945
 20
-8.3675512143
 30
0.0
 10
14.5232216642
 20
-8.3670299167
 30
0.0
 10
14.5238226859
 20
-8.3666978518
 30
0.0
 10
14.5243847395
 20
-8.3661406097
 30
0.0
 10
14.5251477367
 20
-8.3654761646
 30
0.0
 10
14.5264766489
 20
-8.3642767904
 30
0.0
 10
14.5283784059
 20
-8.362582531
 30
0.0
 10
14.530659097
 20
-8.3605412306
 30
0.0
 10
14.5337005136
 20
-8.3578223569
 30
0.0
 10
14.5375021148
 20
-8.3544227855
 30
0.0
 10
14.5435847714
 20
-8.3489840186
 30
0.0
 10
14.5511880597
 20
-8.3421853722
 30
0.0
 10
14.5603120195
 20
-8.334027077
 30
0.0
 10
14.5694359757
 20
-8.3258687602
 30
0.0
 10
14.5816012518
 20
-8.3149910121
 30
0.0
 10
14.5968078466
 20
-8.3013938244
 30
0.0
 10
14.6150557605
 20
-8.2850772001
 30
0.0
 10
14.6393863123
 20
-8.2633217008
 30
0.0
 10
14.669799502
 20
-8.2361273268
 30
0.0
 10
14.7002126918
 20
-8.2089329528
 30
0.0
 10
14.7245432435
 20
-8.1871774534
 30
0.0
 10
14.7427911576
 20
-8.1708608295
 30
0.0
 10
14.7579977518
 20
-8.1572636407
 30
0.0
 10
14.7701630291
 20
-8.1463858947
 30
0.0
 10
14.7792869817
 20
-8.1382275716
 30
0.0
 10
14.7884109549
 20
-8.1300693002
 30
0.0
 10
14.7960142016
 20
-8.1232705796
 30
0.0
 10
14.802096943
 20
-8.117831964
 30
0.0
 10
14.8058983286
 20
-8.1144320076
 30
0.0
 10
14.8089401877
 20
-8.1117139242
 30
0.0
 10
14.8112195268
 20
-8.1096702094
 30
0.0
 10
14.8131255139
 20
-8.1079835038
 30
0.0
 10
14.8146356403
 20
-8.1065973794
 30
0.0
 10
14.8158083023
 20
-8.105658232
 30
0.0
 10
14.8168280272
 20
-8.1043356807
 30
0.0
 10
14.8182410833
 20
-8.102706207
 30
0.0
 10
14.8199890743
 20
-8.1006234149
 30
0.0
 10
14.8220945089
 20
-8.0981437325
 30
0.0
 10
14.8248990149
 20
-8.0948306195
 30
0.0
 10
14.8284055856
 20
-8.0906915805
 30
0.0
 10
14.8340155742
 20
-8.0840678035
 30
0.0
 10
14.8410282401
 20
-8.0757885333
 30
0.0
 10
14.8494433619
 20
-8.0658532157
 30
0.0
 10
14.8578585044
 20
-8.0559179498
 30
0.0
 10
14.8690786871
 20
-8.0426709106
 30
0.0
 10
14.883103918
 20
-8.0261121178
 30
0.0
 10
14.899934194
 20
-8.0062415637
 30
0.0
 10
14.9223745625
 20
-7.9797474926
 30
0.0
 10
14.9504250229
 20
-7.9466299034
 30
0.0
 10
14.9784754832
 20
-7.913512314
 30
0.0
 10
15.0009158518
 20
-7.8870182433
 30
0.0
 10
15.017746127
 20
-7.8671476879
 30
0.0
 10
15.0317713606
 20
-7.8505888992
 30
0.0
 10
15.042991538
 20
-7.8373418516
 30
0.0
 10
15.0514066967
 20
-7.8274066114
 30
0.0
 10
15.0598217575
 20
-7.8174711974
 30
0.0
 10
15.0668346133
 20
-7.809192227
 30
0.0
 10
15.0724442145
 20
-7.8025678387
 30
0.0
 10
15.0766532828
 20
-7.7976028587
 30
0.0
 10
15.0801548996
 20
-7.7934548427
 30
0.0
 10
15.0826176887
 20
-7.7905719015
 30
0.0
 10
15.0840067947
 20
-7.7888922321
 30
0.0
 10
15.0850998997
 20
-7.7877233975
 30
0.0
 10
15.0859970039
 20
-7.7862070306
 30
0.0
 10
15.08726151
 20
-7.7843064312
 30
0.0
 10
15.0894425422
 20
-7.7809239022
 30
0.0
 10
15.0925749559
 20
-7.7761212463
 30
0.0
 10
15.0963267241
 20
-7.77034542
 30
0.0
 10
15.1013315717
 20
-7.7626487334
 30
0.0
 10
15.1075867768
 20
-7.7530263601
 30
0.0
 10
15.1150933891
 20
-7.7414801617
 30
0.0
 10
15.1225999034
 20
-7.7299337894
 30
0.0
 10
15.1326086235
 20
-7.7145386871
 30
0.0
 10
15.1451195118
 20
-7.6952947885
 30
0.0
 10
15.1601325828
 20
-7.672202119
 30
0.0
 10
15.180150009
 20
-7.6414118899
 30
0.0
 10
15.2051717921
 20
-7.6029241045
 30
0.0
 10
15.2301935763
 20
-7.5644363193
 30
0.0
 10
15.2502110008
 20
-7.5336460897
 30
0.0
 10
15.265224077
 20
-7.5105534217
 30
0.0
 10
15.2802371232
 20
-7.4874607378
 30
0.0
 10
15.2927480887
 20
-7.4682168839
 30
0.0
 10
15.3027566513
 20
-7.4528216903
 30
0.0
 10
15.3090124805
 20
-7.4431999459
 30
0.0
 10
15.3140160502
 20
-7.4355019743
 30
0.0
 10
15.317771722
 20
-7.4297300727
 30
0.0
 10
15.3208919224
 20
-7.4249151377
 30
0.0
 10
15.3230947572
 20
-7.4215545289
 30
0.0
 10
15.3243243301
 20
-7.4196188078
 30
0.0
 10
15.3253287381
 20
-7.4182103236
 30
0.0
 10
15.3260188279
 20
-7.4166362994
 30
0.0
 10
15.3270485854
 20
-7.4145953426
 30
0.0
 10
15.3287995788
 20
-7.4109967651
 30
0.0
 10
15.3313277042
 20
-7.4058700054
 30
0.0
 10
15.3343500236
 20
-7.3997118734
 30
0.0
 10
15.3383837754
 20
-7.3915031334
 30
0.0
 10
15.3434245982
 20
-7.3812414885
 30
0.0
 10
15.3514906786
 20
-7.3648232591
 30
0.0
 10
15.3615730169
 20
-7.3443003342
 30
0.0
 10
15.3736719352
 20
-7.3196728835
 30
0.0
 10
15.3857708235
 20
-7.295045417
 30
0.0
 10
15.4019026851
 20
-7.2622088005
 30
0.0
 10
15.4220675082
 20
-7.2211630279
 30
0.0
 10
15.4422323339
 20
-7.1801172564
 30
0.0
 10
15.4583641912
 20
-7.1472806381
 30
0.0
 10
15.4704630925
 20
-7.122653177
 30
0.0
 10
15.482561962
 20
-7.0980257059
 30
0.0
 10
15.4926444525
 20
-7.0775028447
 30
0.0
 10
15.5007102225
 20
-7.0610844853
 30
0.0
 10
15.5057518353
 20
-7.0508231712
 30
0.0
 10
15.5097839653
 20
-7.0426137523
 30
0.0
 10
15.5128112395
 20
-7.0364576945
 30
0.0
 10
15.5153238627
 20
-7.0313244448
 30
0.0
 10
15.5171025302
 20
-7.027737453
 30
0.0
 10
15.5180879467
 20
-7.0256779331
 30
0.0
 10
15.5189142376
 20
-7.0241609291
 30
0.0
 10
15.5194070971
 20
-7.0225382864
 30
0.0
 10
15.5201805476
 20
-7.0204116107
 30
0.0
 10
15.5214798976
 20
-7.0166727603
 30
0.0
 10
15.5233644421
 20
-7.011340521
 30
0.0
 10
15.5256137693
 20
-7.0049379919
 30
0.0
 10
15.5286171077
 20
-6.9964026284
 30
0.0
 10
15.5323698305
 20
-6.9857329646
 30
0.0
 10
15.5383749975
 20
-6.9686617593
 30
0.0
 10
15.545881178
 20
-6.9473226645
 30
0.0
 10
15.554888714
 20
-6.9217157885
 30
0.0
 10
15.563896218
 20
-6.8961089025
 30
0.0
 10
15.5759062345
 20
-6.8619663913
 30
0.0
 10
15.590918751
 20
-6.819288251
 30
0.0
 10
15.6059312704
 20
-6.7766101112
 30
0.0
 10
15.6179412822
 20
-6.7424675993
 30
0.0
 10
15.6269488004
 20
-6.7168607154
 30
0.0
 10
15.6359562832
 20
-6.6912538314
 30
0.0
 10
15.6434626292
 20
-6.6699147615
 30
0.0
 10
15.6494674588
 20
-6.6528435054
 30
0.0
 10
15.6532210401
 20
-6.6421739709
 30
0.0
 10
15.6562226162
 20
-6.6336383419
 30
0.0
 10
15.6584773274
 20
-6.6272366242
 30
0.0
 10
15.6603450267
 20
-6.6219018463
 30
0.0
 10
15.6616744483
 20
-6.6181675277
 30
0.0
 10
15.6623997164
 20
-6.6160335907
 30
0.0
 10
15.6630405769
 20
-6.6144332526
 30
0.0
 10
15.6633110004
 20
-6.6128324763
 30
0.0
 10
15.6638007777
 20
-6.6106982608
 30
0.0
 10
15.6645976854
 20
-6.6069633124
 30
0.0
 10
15.6657675995
 20
-6.601627709
 30
0.0
 10
15.6671580244
 20
-6.5952249691
 30
0.0
 10
15.6690166297
 20
-6.586687988
 30
0.0
 10
15.6713382752
 20
-6.5760167598
 30
0.0
 10
15.6750538084
 20
-6.5589427957
 30
0.0
 10
15.679697916
 20
-6.5376003403
 30
0.0
 10
15.6852709775
 20
-6.5119893939
 30
0.0
 10
15.6908440036
 20
-6.4863784474
 30
0.0
 10
15.6982747175
 20
-6.4522305188
 30
0.0
 10
15.7075631056
 20
-6.4095456081
 30
0.0
 10
15.7168514949
 20
-6.3668606974
 30
0.0
 10
15.7242822069
 20
-6.3327127687
 30
0.0
 10
15.7298552384
 20
-6.3071018226
 30
0.0
 10
15.7344994396
 20
-6.2857593663
 30
0.0
 10
15.7382147818
 20
-6.268685404
 30
0.0
 10
15.7410013399
 20
-6.2558799246
 30
0.0
 10
15.7437877014
 20
-6.2430744746
 30
0.0
 10
15.7461102818
 20
-6.2324031746
 30
0.0
 10
15.7479669746
 20
-6.22386634
 30
0.0
 10
15.7493632412
 20
-6.2174631528
 30
0.0
 10
15.750514878
 20
-6.2121289487
 30
0.0
 10
15.7513444139
 20
-6.2083915024
 30
0.0
 10
15.7517819126
 20
-6.206261289
 30
0.0
 10
15.752212919
 20
-6.2046482195
 30
0.0
 10
15.752250657
 20
-6.2030940528
 30
0.0
 10
15.7524381507
 20
-6.2010012846
 30
0.0
 10
15.7527023517
 20
-6.197348513
 30
0.0
 10
15.7531131962
 20
-6.1921252631
 30
0.0
 10
15.753591907
 20
-6.1858595055
 30
0.0
 10
15.7542351841
 20
-6.1775044136
 30
0.0
 10
15.7550375662
 20
-6.1670608056
 30
0.0
 10
15.7560011596
 20
-6.1545283659
 30
0.0
 10
15.7569645564
 20
-6.1419959556
 30
0.0
 10
15.7582491541
 20
-6.125286065
 30
0.0
 10
15.7598548777
 20
-6.1043987052
 30
0.0
 10
15.7617817561
 20
-6.079333872
 30
0.0
 10
15.7643509238
 20
-6.0459140949
 30
0.0
 10
15.7675623846
 20
-6.0041393733
 30
0.0
 10
15.770773845
 20
-5.9623646518
 30
0.0
 10
15.7733430134
 20
-5.9289448746
 30
0.0
 10
15.7752698895
 20
-5.9038800418
 30
0.0
 10
15.7768756204
 20
-5.8829926806
 30
0.0
 10
15.7781602032
 20
-5.8662827929
 30
0.0
 10
15.7791236455
 20
-5.8537503738
 30
0.0
 10
15.7800870682
 20
-5.8412179671
 30
0.0
 10
15.7808899813
 20
-5.8307742566
 30
0.0
 10
15.7815321755
 20
-5.8224193737
 30
0.0
 10
15.7819338572
 20
-5.8171973771
 30
0.0
 10
15.7822544919
 20
-5.813020226
 30
0.0
 10
15.7824969136
 20
-5.8098861411
 30
0.0
 10
15.7826927423
 20
-5.8072782896
 30
0.0
 10
15.7828419689
 20
-5.8054451676
 30
0.0
 10
15.7829082753
 20
-5.8044095766
 30
0.0
 10
15.7830114326
 20
-5.8035993403
 30
0.0
 10
15.7829103629
 20
-5.8029173227
 30
0.0
 10
15.78284684
 20
-5.8019632418
 30
0.0
 10
15.7827024844
 20
-5.800314438
 30
0.0
 10
15.7825136144
 20
-5.7979481098
 30
0.0
 10
15.7822795431
 20
-5.7951131791
 30
0.0
 10
15.7819700422
 20
-5.7913316427
 30
0.0
 10
15.7815822778
 20
-5.7866052799
 30
0.0
 10
15.7809623513
 20
-5.7790427877
 30
0.0
 10
15.7801872728
 20
-5.7695897794
 30
0.0
 10
15.7792572516
 20
-5.7582461236
 30
0.0
 10
15.7783272109
 20
-5.74690248
 30
0.0
 10
15.7770871635
 20
-5.7317776177
 30
0.0
 10
15.7755371018
 20
-5.7128715413
 30
0.0
 10
15.7736770288
 20
-5.6901842489
 30
0.0
 10
15.7711969311
 20
-5.659934526
 30
0.0
 10
15.7680968092
 20
-5.6221223723
 30
0.0
 10
15.7649966871
 20
-5.5843102186
 30
0.0
 10
15.7625165896
 20
-5.5540604956
 30
0.0
 10
15.7606565162
 20
-5.5313732035
 30
0.0
 10
15.7591064558
 20
-5.5124671262
 30
0.0
 10
15.7578664057
 20
-5.4973422657
 30
0.0
 10
15.756936373
 20
-5.4859986165
 30
0.0
 10
15.7560063216
 20
-5.4746549818
 30
0.0
 10
15.7552313373
 20
-5.465201908
 30
0.0
 10
15.7546112186
 20
-5.4576395494
 30
0.0
 10
15.7542239434
 20
-5.4529128466
 30
0.0
 10
15.7539134385
 20
-5.449132008
 30
0.0
 10
15.7536824347
 20
-5.4462949454
 30
0.0
 10
15.7534839671
 20
-5.4439352872
 30
0.0
 10
15.7533567449
 20
-5.4422745764
 30
0.0
 10
15.7532657699
 20
-5.4413395735
 30
0.0
 10
15.7532490241
 20
-5.4405989546
 30
0.0
 10
15.7530354748
 20
-5.440008815
 30
0.0
 10
15.7528193896
 20
-5.4391694734
 30
0.0
 10
15.7524092566
 20
-5.4377250811
 30
0.0
 10
15.7518400739
 20
-5.4356488778
 30
0.0
 10
15.7511498972
 20
-5.4331629066
 30
0.0
 10
15.7502321617
 20
-5.4298463668
 30
0.0
 10
15.7490841362
 20
-5.4257013466
 30
0.0
 10
15.7472477738
 20
-5.4190689484
 30
0.0
 10
15.7449521567
 20
-5.4107785763
 30
0.0
 10
15.7421974866
 20
-5.4008300758
 30
0.0
 10
15.7394427976
 20
-5.3908815898
 30
0.0
 10
15.7357698856
 20
-5.3776169367
 30
0.0
 10
15.7311787433
 20
-5.3610361221
 30
0.0
 10
15.7256693735
 20
-5.3411391438
 30
0.0
 10
15.7183235467
 20
-5.3146098397
 30
0.0
 10
15.7091412634
 20
-5.2814482095
 30
0.0
 10
15.69995898
 20
-5.2482865793
 30
0.0
 10
15.6926131534
 20
-5.2217572751
 30
0.0
 10
15.6871037832
 20
-5.2018602972
 30
0.0
 10
15.6825126421
 20
-5.1852794815
 30
0.0
 10
15.6788397276
 20
-5.1720148306
 30
0.0
 10
15.6760850463
 20
-5.1620663377
 30
0.0
 10
15.6733303473
 20
-5.1521178631
 30
0.0
 10
15.67103482
 20
-5.1438274106
 30
0.0
 10
15.6691982745
 20
-5.1371951763
 30
0.0
 10
15.6680507153
 20
-5.1330497391
 30
0.0
 10
15.6671320225
 20
-5.1297340552
 30
0.0
 10
15.6664447701
 20
-5.1272454692
 30
0.0
 10
15.6658664383
 20
-5.1251774468
 30
0.0
 10
15.665472638
 20
-5.1237184503
 30
0.0
 10
15.6652303837
 20
-5.1229025083
 30
0.0
 10
15.6650972177
 20
-5.1222404928
 30
0.0
 10
15.6647785653
 20
-5.1217698279
 30
0.0
 10
15.6644183952
 20
-5.1210755294
 30
0.0
 10
15.6637579527
 20
-5.119891605
 30
0.0
 10
15.6628302235
 20
-5.1181840261
 30
0.0
 10
15.6617102026
 20
-5.1161418905
 30
0.0
 10
15.6602191975
 20
-5.1134166124
 30
0.0
 10
15.6583546345
 20
-5.110010847
 30
0.0
 10
15.6553717845
 20
-5.1045611571
 30
0.0
 10
15.6516430673
 20
-5.0977492045
 30
0.0
 10
15.647168673
 20
-5.0895747929
 30
0.0
 10
15.642694261
 20
-5.0814003996
 30
0.0
 10
15.6367283845
 20
-5.0705012021
 30
0.0
 10
15.6292710367
 20
-5.0568772075
 30
0.0
 10
15.6203222202
 20
-5.040528413
 30
0.0
 10
15.6083904647
 20
-5.0187300207
 30
0.0
 10
15.5934757704
 20
-4.9914820301
 30
0.0
 10
15.5785610759
 20
-4.9642340396
 30
0.0
 10
15.5666293205
 20
-4.9424356472
 30
0.0
 10
15.5576805037
 20
-4.9260868531
 30
0.0
 10
15.5502231571
 20
-4.9124628571
 30
0.0
 10
15.5442572782
 20
-4.9015636624
 30
0.0
 10
15.5397828735
 20
-4.8933892609
 30
0.0
 10
15.5353084516
 20
-4.88521488
 30
0.0
 10
15.5315798203
 20
-4.8784028317
 30
0.0
 10
15.5285967951
 20
-4.8729533369
 30
0.0
 10
15.526732678
 20
-4.8695470753
 30
0.0
 10
15.5252407576
 20
-4.8668228156
 30
0.0
 10
15.5241235331
 20
-4.8647775686
 30
0.0
 10
15.5231870548
 20
-4.8630797246
 30
0.0
 10
15.5225422307
 20
-4.8618784217
 30
0.0
 10
15.522157036
 20
-4.861211968
 30
0.0
 10
15.5219152511
 20
-4.8606557729
 30
0.0
 10
15.5214933838
 20
-4.8603149946
 30
0.0
 10
15.5209937088
 20
-4.8597854837
 30
0.0
 10
15.520090011
 20
-4.8588938486
 30
0.0
 10
15.5188143151
 20
-4.8576017812
 30
0.0
 10
15.5172769307
 20
-4.8560591345
 30
0.0
 10
15.5152293723
 20
-4.853999536
 30
0.0
 10
15.5126691411
 20
-4.8514259747
 30
0.0
 10
15.508573209
 20
-4.847307753
 30
0.0
 10
15.5034531436
 20
-4.8421601556
 30
0.0
 10
15.4973091295
 20
-4.8359829617
 30
0.0
 10
15.4911650982
 20
-4.8298057884
 30
0.0
 10
15.4829730625
 20
-4.8215695502
 30
0.0
 10
15.4727330158
 20
-4.8112742548
 30
0.0
 10
15.4604449606
 20
-4.7989198993
 30
0.0
 10
15.4440608868
 20
-4.7824474257
 30
0.0
 10
15.4235807946
 20
-4.7618568335
 30
0.0
 10
15.4031007023
 20
-4.7412662414
 30
0.0
 10
15.3867166285
 20
-4.7247937676
 30
0.0
 10
15.374428573
 20
-4.7124394126
 30
0.0
 10
15.3641885273
 20
-4.7021441157
 30
0.0
 10
15.3559964896
 20
-4.6939078806
 30
0.0
 10
15.3498524645
 20
-4.6877306977
 30
0.0
 10
15.3437084269
 20
-4.68155354
 30
0.0
 10
15.3385884348
 20
-4.6764058299
 30
0.0
 10
15.3344923532
 20
-4.672287838
 30
0.0
 10
15.3319325023
 20
-4.6697136919
 30
0.0
 10
15.3298841634
 20
-4.6676552939
 30
0.0
 10
15.3283491636
 20
-4.6661089793
 30
0.0
 10
15.3270660069
 20
-4.6648283879
 30
0.0
 10
15.3261756279
 20
-4.6639162662
 30
0.0
 10
15.3256546128
 20
-4.66341958
 30
0.0
 10
15.3252982953
 20
-4.6629779749
 30
0.0
 10
15.3248103162
 20
-4.6628004685
 30
0.0
 10
15.3242056025
 20
-4.6624716727
 30
0.0
 10
15.3231259561
 20
-4.6619392008
 30
0.0
 10
15.3215947909
 20
-4.6611560872
 30
0.0
 10
15.3197526044
 20
-4.6602259557
 30
0.0
 10
15.3172980281
 20
-4.6589824256
 30
0.0
 10
15.3142292352
 20
-4.6574291617
 30
0.0
 10
15.3093194865
 20
-4.6549432974
 30
0.0
 10
15.3031821908
 20
-4.6518361873
 30
0.0
 10
15.2958174831
 20
-4.6481075608
 30
0.0
 10
15.2884527627
 20
-4.6443789595
 30
0.0
 10
15.27863314
 20
-4.6394074823
 30
0.0
 10
15.2663586101
 20
-4.6331931388
 30
0.0
 10
15.2516291748
 20
-4.6257359254
 30
0.0
 10
15.2319899276
 20
-4.6157929746
 30
0.0
 10
15.2074408687
 20
-4.6033642859
 30
0.0
 10
15.1828918097
 20
-4.5909355974
 30
0.0
 10
15.1632525626
 20
-4.5809926464
 30
0.0
 10
15.1485231271
 20
-4.5735354335
 30
0.0
 10
15.1362485979
 20
-4.5673210883
 30
0.0
 10
15.1264289736
 20
-4.5623496146
 30
0.0
 10
15.1190642582
 20
-4.5586210027
 30
0.0
 10
15.111699532
 20
-4.5548924162
 30
0.0
 10
15.1055622935
 20
-4.5517851816
 30
0.0
 10
15.1006524282
 20
-4.5492995712
 30
0.0
 10
15.097583932
 20
-4.5477456611
 30
0.0
 10
15.0951287467
 20
-4.5465034573
 30
0.0
 10
15.093288421
 20
-4.5455692738
 30
0.0
 10
15.0917514337
 20
-4.5447988379
 30
0.0
 10
15.0906821806
 20
-4.5442437342
 30
0.0
 10
15.0900608143
 20
-4.5439512003
 30
0.0
 10
15.0896239867
 20
-4.543662309
 30
0.0
 10
15.0890755527
 20
-4.543639047
 30
0.0
 10
15.0883832369
 20
-4.5435153765
 30
0.0
 10
15.0871535462
 20
-4.5433421225
 30
0.0
 10
15.085406328
 20
-4.5430720474
 30
0.0
 10
15.0833056072
 20
-4.5427576177
 30
0.0
 10
15.0805060639
 20
-4.5423350039
 30
0.0
 10
15.0770061493
 20
-4.541807892
 30
0.0
 10
15.0714065573
 20
-4.5409638672
 30
0.0
 10
15.0644069742
 20
-4.5399090579
 30
0.0
 10
15.0560075144
 20
-4.5386431916
 30
0.0
 10
15.0476080439
 20
-4.5373773508
 30
0.0
 10
15.0364087536
 20
-4.5356895541
 30
0.0
 10
15.0224096394
 20
-4.5335798113
 30
0.0
 10
15.005610703
 20
-4.5310481187
 30
0.0
 10
14.983212121
 20
-4.5276725289
 30
0.0
 10
14.9552138935
 20
-4.5234530416
 30
0.0
 10
14.9272156659
 20
-4.5192335544
 30
0.0
 10
14.9048170839
 20
-4.5158579644
 30
0.0
 10
14.8880181473
 20
-4.5133262724
 30
0.0
 10
14.8740190338
 20
-4.5112165278
 30
0.0
 10
14.8628197423
 20
-4.5095287347
 30
0.0
 10
14.8544202756
 20
-4.5082628831
 30
0.0
 10
14.8460208015
 20
-4.5069970573
 30
0.0
 10
14.8390212627
 20
-4.5059421219
 30
0.0
 10
14.8334215803
 20
-4.5050983542
 30
0.0
 10
14.8299218959
 20
-4.504570588
 30
0.0
 10
14.8271218801
 20
-4.5041493173
 30
0.0
 10
14.8250226027
 20
-4.5038307841
 30
0.0
 10
14.8232708684
 20
-4.5035735478
 30
0.0
 10
14.8220492398
 20
-4.5033773745
 30
0.0
 10
14.8213440064
 20
-4.5032904266
 30
0.0
 10
14.8208352511
 20
-4.5031543644
 30
0.0
 10
14.8202493968
 20
-4.5032891318
 30
0.0
 10
14.8194951507
 20
-4.5033743533
 30
0.0
 10
14.8181626901
 20
-4.5035675056
 30
0.0
 10
14.8162657258
 20
-4.503820426
 30
0.0
 10
14.8139865646
 20
-4.5041337801
 30
0.0
 10
14.8109486624
 20
-4.5045481453
 30
0.0
 10
14.8071509493
 20
-4.5050672798
 30
0.0
 10
14.8010747958
 20
-4.5058972366
 30
0.0
 10
14.7934795396
 20
-4.5069349085
 30
0.0
 10
14.7843652597
 20
-4.5081800179
 30
0.0
 10
14.7752509725
 20
-4.5094251533
 30
0.0
 10
14.7630985921
 20
-4.5110853247
 30
0.0
 10
14.7479081157
 20
-4.5131605421
 30
0.0
 10
14.7296795444
 20
-4.5156508016
 30
0.0
 10
14.7053747825
 20
-4.5189711481
 30
0.0
 10
14.6749938302
 20
-4.5231215811
 30
0.0
 10
14.6446128779
 20
-4.5272720141
 30
0.0
 10
14.620308116
 20
-4.5305923605
 30
0.0
 10
14.6020795446
 20
-4.5330826205
 30
0.0
 10
14.5868890686
 20
-4.5351578362
 30
0.0
 10
14.5747366873
 20
-4.5368180112
 30
0.0
 10
14.5656224028
 20
-4.5380631355
 30
0.0
 10
14.5565081127
 20
-4.5393082862
 30
0.0
 10
14.5489128883
 20
-4.5403458298
 30
0.0
 10
14.54283667
 20
-4.5411760483
 30
0.0
 10
14.5390391217
 20
-4.5416945168
 30
0.0
 10
14.5360008812
 20
-4.5421102491
 30
0.0
 10
14.5337227537
 20
-4.5424194265
 30
0.0
 10
14.5318225552
 20
-4.5426854147
 30
0.0
 10
14.5304958682
 20
-4.5428552389
 30
0.0
 10
14.5297323713
 20
-4.5429778378
 30
0.0
 10
14.5291749326
 20
-4.5429977939
 30
0.0
 10
14.5285594528
 20
-4.543292944
 30
0.0
 10
14.5277590585
 20
-4.5435904868
 30
0.0
 10
14.5263489357
 20
-4.5441559106
 30
0.0
 10
14.5243394061
 20
-4.5449402766
 30
0.0
 10
14.5219258597
 20
-4.5458915242
 30
0.0
 10
14.5187085351
 20
-4.5471563586
 30
0.0
 10
14.5146866269
 20
-4.5487385986
 30
0.0
 10
14.508251715
 20
-4.5512695135
 30
0.0
 10
14.5002080266
 20
-4.5544333868
 30
0.0
 10
14.4905556213
 20
-4.5582299362
 30
0.0
 10
14.4809032105
 20
-4.5620265121
 30
0.0
 10
14.4680333313
 20
-4.5670886039
 30
0.0
 10
14.4519459816
 20
-4.5734162219
 30
0.0
 10
14.4326411623
 20
-4.5810093622
 30
0.0
 10
14.4069014032
 20
-4.5911335497
 30
0.0
 10
14.3747267042
 20
-4.6037887839
 30
0.0
 10
14.3361170655
 20
-4.618975065
 30
0.0
 10
14.2975074268
 20
-4.6341613461
 30
0.0
 10
14.2588977881
 20
-4.6493476272
 30
0.0
 10
14.233158029
 20
-4.6594718146
 30
0.0
 10
14.2202881494
 20
-4.6645339083
 30
0.0
 11
14.220288286
 21
-8.5609195258
 31
0.0
 11
14.2961702623
 21
-8.5123547249
 31
0.0
 11
14.3341112505
 21
-8.4880723245
 31
0.0
 11
14.3720522386
 21
-8.463789924
 31
0.0
 11
14.4099932268
 21
-8.4395075236
 31
0.0
 11
14.4289637208
 21
-8.4273663234
 31
0.0
 11
14.4479342149
 21
-8.4152251232
 31
0.0
 11
14.466904709
 21
-8.4030839229
 31
0.0
 11
14.476389956
 21
-8.3970133228
 31
0.0
 11
14.4858752031
 21
-8.3909427227
 31
0.0
 11
14.4953604501
 21
-8.3848721226
 31
0.0
 11
14.5048456971
 21
-8.3788015225
 31
0.0
 11
14.5095883207
 21
-8.3757662224
 31
0.0
 11
14.5143309442
 21
-8.3727309224
 31
0.0
 11
14.5167022559
 21
-8.3712132724
 31
0.0
 11
14.5190735677
 21
-8.3696956223
 31
0.0
 11
14.5214448795
 21
-8.3681779723
 31
0.0
 11
14.5226305353
 21
-8.3674191473
 31
0.0
 11
14.5232233633
 21
-8.3670397348
 31
0.0
 11
14.5238161912
 21
-8.3666603223
 31
0.0
 11
14.5243864385
 21
-8.3661504278
 31
0.0
 11
14.5249566858
 21
-8.3656405332
 31
0.0
 11
14.5260971804
 21
-8.3646207442
 31
0.0
 11
14.5283781697
 21
-8.3625811662
 31
0.0
 11
14.5306591589
 21
-8.3605415881
 31
0.0
 11
14.5329401481
 21
-8.3585020101
 31
0.0
 11
14.5375021266
 21
-8.3544228539
 31
0.0
 11
14.5420641051
 21
-8.3503436978
 31
0.0
 11
14.551188062
 21
-8.3421853856
 31
0.0
 11
14.5603120189
 21
-8.3340270734
 31
0.0
 11
14.5694359758
 21
-8.3258687612
 31
0.0
 11
14.5785599328
 21
-8.317710449
 31
0.0
 11
14.5968078466
 21
-8.3013938245
 31
0.0
 11
14.6150557605
 21
-8.2850772001
 31
0.0
 11
14.6333036743
 21
-8.2687605757
 31
0.0
 11
14.669799502
 21
-8.2361273268
 31
0.0
 11
14.7062953297
 21
-8.2034940779
 31
0.0
 11
14.7245432436
 21
-8.1871774535
 31
0.0
 11
14.7427911574
 21
-8.1708608291
 31
0.0
 11
14.7610390713
 21
-8.1545442046
 31
0.0
 11
14.7701630282
 21
-8.1463858924
 31
0.0
 11
14.7792869851
 21
-8.1382275802
 31
0.0
 11
14.788410942
 21
-8.130069268
 31
0.0
 11
14.797534899
 21
-8.1219109558
 31
0.0
 11
14.8020968774
 21
-8.1178317996
 31
0.0
 11
14.8066588559
 21
-8.1137526435
 31
0.0
 11
14.8089398451
 21
-8.1117130655
 31
0.0
 11
14.8112208344
 21
-8.1096734874
 31
0.0
 11
14.8135018236
 21
-8.1076339094
 31
0.0
 11
14.8146423182
 21
-8.1066141203
 31
0.0
 11
14.8157828128
 21
-8.1055943313
 31
0.0
 11
14.8168347051
 21
-8.1043524217
 31
0.0
 11
14.8178865973
 21
-8.1031105121
 31
0.0
 11
14.8199903819
 21
-8.1006266929
 31
0.0
 11
14.8220941664
 21
-8.0981428738
 31
0.0
 11
14.8241979509
 21
-8.0956590546
 31
0.0
 11
14.82840552
 21
-8.0906914162
 31
0.0
 11
14.8326130891
 21
-8.0857237778
 31
0.0
 11
14.8410282272
 21
-8.0757885011
 31
0.0
 11
14.8494433653
 21
-8.0658532243
 31
0.0
 11
14.8578585035
 21
-8.0559179476
 31
0.0
 11
14.8662736416
 21
-8.0459826708
 31
0.0
 11
14.8831039178
 21
-8.0261121173
 31
0.0
 11
14.8999341941
 21
-8.0062415639
 31
0.0
 11
14.9167644703
 21
-7.9863710104
 31
0.0
 11
14.9504250229
 21
-7.9466299034
 31
0.0
 11
14.9840855754
 21
-7.9068887964
 31
0.0
 11
15.0009158516
 21
-7.8870182429
 31
0.0
 11
15.0177461279
 21
-7.8671476894
 31
0.0
 11
15.0345764041
 21
-7.8472771359
 31
0.0
 11
15.0429915423
 21
-7.8373418592
 31
0.0
 11
15.0514066804
 21
-7.8274065824
 31
0.0
 11
15.0598218185
 21
-7.8174713057
 31
0.0
 11
15.0682369567
 21
-7.8075360289
 31
0.0
 11
15.0724445257
 21
-7.8025683905
 31
0.0
 11
15.0766520948
 21
-7.7976007522
 31
0.0
 11
15.0808596638
 21
-7.7926331138
 31
0.0
 11
15.0829634484
 21
-7.7901492946
 31
0.0
 11
15.0840153406
 21
-7.788907385
 31
0.0
 11
15.0850672329
 21
-7.7876654754
 31
0.0
 11
15.0860055498
 21
-7.7862221835
 31
0.0
 11
15.0869438667
 21
-7.7847788915
 31
0.0
 11
15.0888205004
 21
-7.7818923076
 31
0.0
 11
15.0925737679
 21
-7.7761191397
 31
0.0
 11
15.0963270354
 21
-7.7703459719
 31
0.0
 11
15.1000803028
 21
-7.7645728041
 31
0.0
 11
15.1075868378
 21
-7.7530264684
 31
0.0
 11
15.1150933728
 21
-7.7414801327
 31
0.0
 11
15.1225999077
 21
-7.729933797
 31
0.0
 11
15.1301064427
 21
-7.7183874613
 31
0.0
 11
15.1451195126
 21
-7.69529479
 31
0.0
 11
15.1601325825
 21
-7.6722021186
 31
0.0
 11
15.1751456525
 21
-7.6491094472
 31
0.0
 11
15.2051717923
 21
-7.6029241045
 31
0.0
 11
15.2351979322
 21
-7.5567387618
 31
0.0
 11
15.2502110021
 21
-7.5336460904
 31
0.0
 11
15.265224072
 21
-7.5105534191
 31
0.0
 11
15.2802371419
 21
-7.4874607477
 31
0.0
 11
15.2952502119
 21
-7.4643680763
 31
0.0
 11
15.3027567468
 21
-7.4528217406
 31
0.0
 11
15.3102632818
 21
-7.441275405
 31
0.0
 11
15.3140165493
 21
-7.4355022371
 31
0.0
 11
15.3177698168
 21
-7.4297290693
 31
0.0
 11
15.3215230842
 21
-7.4239559014
 31
0.0
 11
15.323399718
 21
-7.4210693175
 31
0.0
 11
15.3243380349
 21
-7.4196260256
 31
0.0
 11
15.3252763517
 21
-7.4181827336
 31
0.0
 11
15.3260325326
 21
-7.4166435172
 31
0.0
 11
15.3267887136
 21
-7.4151043007
 31
0.0
 11
15.3283010754
 21
-7.4120258678
 31
0.0
 11
15.331325799
 21
-7.405869002
 31
0.0
 11
15.3343505227
 21
-7.3997121362
 31
0.0
 11
15.3373752463
 21
-7.3935552704
 31
0.0
 11
15.3434246937
 21
-7.3812415388
 31
0.0
 11
15.349474141
 21
-7.3689278072
 31
0.0
 11
15.3615730356
 21
-7.344300344
 31
0.0
 11
15.3736719302
 21
-7.3196728809
 31
0.0
 11
15.3857708248
 21
-7.2950454177
 31
0.0
 11
15.3978697195
 21
-7.2704179545
 31
0.0
 11
15.4220675087
 21
-7.2211630281
 31
0.0
 11
15.446265298
 21
-7.1719081017
 31
0.0
 11
15.4583641926
 21
-7.1472806385
 31
0.0
 11
15.4704630872
 21
-7.1226531754
 31
0.0
 11
15.4825619818
 21
-7.0980257122
 31
0.0
 11
15.4946608765
 21
-7.073398249
 31
0.0
 11
15.5007103238
 21
-7.0610845174
 31
0.0
 11
15.5067597711
 21
-7.0487707858
 31
0.0
 11
15.5097844948
 21
-7.04261392
 31
0.0
 11
15.5128092184
 21
-7.0364570542
 31
0.0
 11
15.5158339421
 21
-7.0303001884
 31
0.0
 11
15.5173463039
 21
-7.0272217555
 31
0.0
 11
15.5181024848
 21
-7.0256825391
 31
0.0
 11
15.5188586657
 21
-7.0241433226
 31
0.0
 11
15.5194216351
 21
-7.0225428924
 31
0.0
 11
15.5199846046
 21
-7.0209424621
 31
0.0
 11
15.5211105434
 21
-7.0177416016
 31
0.0
 11
15.5233624211
 21
-7.0113398806
 31
0.0
 11
15.5256142988
 21
-7.0049381597
 31
0.0
 11
15.5278661765
 21
-6.9985364387
 31
0.0
 11
15.5323699318
 21
-6.9857329967
 31
0.0
 11
15.5368736872
 21
-6.9729295547
 31
0.0
 11
15.5458811979
 21
-6.9473226708
 31
0.0
 11
15.5548887086
 21
-6.9217157869
 31
0.0
 11
15.5638962194
 21
-6.8961089029
 31
0.0
 11
15.5729037301
 21
-6.870502019
 31
0.0
 11
15.5909187516
 21
-6.8192882511
 31
0.0
 11
15.608933773
 21
-6.7680744832
 31
0.0
 11
15.6179412838
 21
-6.7424675993
 31
0.0
 11
15.6269487945
 21
-6.7168607154
 31
0.0
 11
15.6359563052
 21
-6.6912538314
 31
0.0
 11
15.644963816
 21
-6.6656469475
 31
0.0
 11
15.6494675713
 21
-6.6528435055
 31
0.0
 11
15.6539713267
 21
-6.6400400635
 31
0.0
 11
15.6562232044
 21
-6.6336383426
 31
0.0
 11
15.6584750821
 21
-6.6272366216
 31
0.0
 11
15.6607269597
 21
-6.6208349006
 31
0.0
 11
15.6618528986
 21
-6.6176340401
 31
0.0
 11
15.662415868
 21
-6.6160336099
 31
0.0
 11
15.6629788374
 21
-6.6144331796
 31
0.0
 11
15.663327152
 21
-6.6128324955
 31
0.0
 11
15.6636754666
 21
-6.6112318113
 31
0.0
 11
15.6643720958
 21
-6.608030443
 31
0.0
 11
15.6657653542
 21
-6.6016277064
 31
0.0
 11
15.6671586126
 21
-6.5952249698
 31
0.0
 11
15.668551871
 21
-6.5888222332
 31
0.0
 11
15.6713383878
 21
-6.5760167599
 31
0.0
 11
15.6741249045
 21
-6.5632112867
 31
0.0
 11
15.6796979381
 21
-6.5376003403
 31
0.0
 11
15.6852709716
 21
-6.5119893939
 31
0.0
 11
15.6908440052
 21
-6.4863784474
 31
0.0
 11
15.6964170387
 21
-6.460767501
 31
0.0
 11
15.7075631058
 21
-6.4095456081
 31
0.0
 11
15.7187091729
 21
-6.3583237152
 31
0.0
 11
15.7242822065
 21
-6.3327127688
 31
0.0
 11
15.72985524
 21
-6.3071018224
 31
0.0
 11
15.7354282736
 21
-6.2814908759
 31
0.0
 11
15.7382147904
 21
-6.2686854027
 31
0.0
 11
15.7410013072
 21
-6.2558799295
 31
0.0
 11
15.7437878239
 21
-6.2430744563
 31
0.0
 11
15.7465743407
 21
-6.2302689831
 31
0.0
 11
15.7479675991
 21
-6.2238662464
 31
0.0
 11
15.7493608575
 21
-6.2174635098
 31
0.0
 11
15.7507541159
 21
-6.2110607732
 31
0.0
 11
15.7514507451
 21
-6.2078594049
 31
0.0
 11
15.7517990597
 21
-6.2062587208
 31
0.0
 11
15.7521473743
 21
-6.2046580366
 31
0.0
 11
15.752267804
 21
-6.2030914846
 31
0.0
 11
15.7523882338
 21
-6.2015249325
 31
0.0
 11
15.7526290933
 21
-6.1983918284
 31
0.0
 11
15.7531108124
 21
-6.1921256202
 31
0.0
 11
15.7535925315
 21
-6.1858594119
 31
0.0
 11
15.7540742505
 21
-6.1795932037
 31
0.0
 11
15.7550376887
 21
-6.1670607873
 31
0.0
 11
15.7560011268
 21
-6.1545283708
 31
0.0
 11
15.756964565
 21
-6.1419959543
 31
0.0
 11
15.7579280031
 21
-6.1294635379
 31
0.0
 11
15.7598548794
 21
-6.104398705
 31
0.0
 11
15.7617817557
 21
-6.0793338721
 31
0.0
 11
15.763708632
 21
-6.0542690392
 31
0.0
 11
15.7675623845
 21
-6.0041393733
 31
0.0
 11
15.7714161371
 21
-5.9540097075
 31
0.0
 11
15.7733430134
 21
-5.9289448746
 31
0.0
 11
15.7752698897
 21
-5.9038800417
 31
0.0
 11
15.777196766
 21
-5.8788152088
 31
0.0
 11
15.7781602041
 21
-5.8662827923
 31
0.0
 11
15.7791236422
 21
-5.8537503759
 31
0.0
 11
15.7800870804
 21
-5.8412179594
 31
0.0
 11
15.7810505185
 21
-5.828685543
 31
0.0
 11
15.7815322376
 21
-5.8224193348
 31
0.0
 11
15.7820139567
 21
-5.8161531265
 31
0.0
 11
15.7822548162
 21
-5.8130200224
 31
0.0
 11
15.7824956757
 21
-5.8098869183
 31
0.0
 11
15.7827365353
 21
-5.8067538142
 31
0.0
 11
15.782856965
 21
-5.8051872621
 31
0.0
 11
15.7829171799
 21
-5.8044039861
 31
0.0
 11
15.7829773948
 21
-5.8036207101
 31
0.0
 11
15.7829192675
 21
-5.8029117322
 31
0.0
 11
15.7828611402
 21
-5.8022027543
 31
0.0
 11
15.7827448857
 21
-5.8007847985
 31
0.0
 11
15.7825123765
 21
-5.797948887
 31
0.0
 11
15.7822798674
 21
-5.7951129755
 31
0.0
 11
15.7820473582
 21
-5.792277064
 31
0.0
 11
15.7815823399
 21
-5.7866052409
 31
0.0
 11
15.7811173216
 21
-5.7809334179
 31
0.0
 11
15.780187285
 21
-5.7695897717
 31
0.0
 11
15.7792572484
 21
-5.7582461256
 31
0.0
 11
15.7783272118
 21
-5.7469024795
 31
0.0
 11
15.7773971752
 21
-5.7355588334
 31
0.0
 11
15.775537102
 21
-5.7128715412
 31
0.0
 11
15.7736770288
 21
-5.690184249
 31
0.0
 11
15.7718169556
 21
-5.6674969567
 31
0.0
 11
15.7680968091
 21
-5.6221223723
 31
0.0
 11
15.7643766627
 21
-5.5767477878
 31
0.0
 11
15.7625165895
 21
-5.5540604956
 31
0.0
 11
15.7606565163
 21
-5.5313732034
 31
0.0
 11
15.7587964431
 21
-5.5086859112
 31
0.0
 11
15.7578664065
 21
-5.497342265
 31
0.0
 11
15.7569363699
 21
-5.4859986189
 31
0.0
 11
15.7560063333
 21
-5.4746549728
 31
0.0
 11
15.7550762967
 21
-5.4633113267
 31
0.0
 11
15.7546112784
 21
-5.4576395036
 31
0.0
 11
15.7541462601
 21
-5.4519676806
 31
0.0
 11
15.7539137509
 21
-5.4491317691
 31
0.0
 11
15.7536812418
 21
-5.4462958575
 31
0.0
 11
15.7534487326
 21
-5.443459946
 31
0.0
 11
15.7533324781
 21
-5.4420419902
 31
0.0
 11
15.7532743508
 21
-5.4413330124
 31
0.0
 11
15.7532162235
 21
-5.4406240345
 31
0.0
 11
15.7530440557
 21
-5.4400022539
 31
0.0
 11
15.7528718879
 21
-5.4393804733
 31
0.0
 11
15.7525275522
 21
-5.4381369122
 31
0.0
 11
15.751838881
 21
-5.4356497899
 31
0.0
 11
15.7511502097
 21
-5.4331626677
 31
0.0
 11
15.7504615385
 21
-5.4306755454
 31
0.0
 11
15.749084196
 21
-5.4257013009
 31
0.0
 11
15.7477068535
 21
-5.4207270564
 31
0.0
 11
15.7449521685
 21
-5.4107785673
 31
0.0
 11
15.7421974835
 21
-5.4008300782
 31
0.0
 11
15.7394427985
 21
-5.3908815892
 31
0.0
 11
15.7366881135
 21
-5.3809331001
 31
0.0
 11
15.7311787434
 21
-5.361036122
 31
0.0
 11
15.7256693734
 21
-5.3411391439
 31
0.0
 11
15.7201600034
 21
-5.3212421658
 31
0.0
 11
15.7091412634
 21
-5.2814482095
 31
0.0
 11
15.6981225234
 21
-5.2416542533
 31
0.0
 11
15.6926131534
 21
-5.2217572751
 31
0.0
 11
15.6871037834
 21
-5.201860297
 31
0.0
 11
15.6815944133
 21
-5.1819633189
 31
0.0
 11
15.6788397283
 21
-5.1720148298
 31
0.0
 11
15.6760850433
 21
-5.1620663408
 31
0.0
 11
15.6733303583
 21
-5.1521178517
 31
0.0
 11
15.6705756733
 21
-5.1421693627
 31
0.0
 11
15.6691983308
 21
-5.1371951181
 31
0.0
 11
15.6678209883
 21
-5.1322208736
 31
0.0
 11
15.6671323171
 21
-5.1297337513
 31
0.0
 11
15.6664436458
 21
-5.1272466291
 31
0.0
 11
15.6657549746
 21
-5.1247595068
 31
0.0
 11
15.6654106389
 21
-5.1235159457
 31
0.0
 11
15.6652384711
 21
-5.1228941651
 31
0.0
 11
15.6650663033
 21
-5.1222723845
 31
0.0
 11
15.6647866528
 21
-5.1217614847
 31
0.0
 11
15.6645070023
 21
-5.1212505849
 31
0.0
 11
15.6639477012
 21
-5.1202287853
 31
0.0
 11
15.6628290992
 21
-5.118185186
 31
0.0
 11
15.6617104971
 21
-5.1161415867
 31
0.0
 11
15.660591895
 21
-5.1140979874
 31
0.0
 11
15.6583546908
 21
-5.1100107888
 31
0.0
 11
15.6561174867
 21
-5.1059235902
 31
0.0
 11
15.6516430784
 21
-5.0977491931
 31
0.0
 11
15.6471686701
 21
-5.0895747959
 31
0.0
 11
15.6426942618
 21
-5.0814003988
 31
0.0
 11
15.6382198534
 21
-5.0732260016
 31
0.0
 11
15.6292710368
 21
-5.0568772073
 31
0.0
 11
15.6203222202
 21
-5.040528413
 31
0.0
 11
15.6113734036
 21
-5.0241796187
 31
0.0
 11
15.5934757703
 21
-4.9914820301
 31
0.0
 11
15.5755781371
 21
-4.9587844415
 31
0.0
 11
15.5666293205
 21
-4.9424356472
 31
0.0
 11
15.5576805038
 21
-4.9260868529
 31
0.0
 11
15.5487316872
 21
-4.9097380586
 31
0.0
 11
15.5442572789
 21
-4.9015636615
 31
0.0
 11
15.5397828706
 21
-4.8933892643
 31
0.0
 11
15.5353084623
 21
-4.8852148672
 31
0.0
 11
15.530834054
 21
-4.87704047
 31
0.0
 11
15.5285968498
 21
-4.8729532714
 31
0.0
 11
15.5263596457
 21
-4.8688660729
 31
0.0
 11
15.5252410436
 21
-4.8668224736
 31
0.0
 11
15.5241224415
 21
-4.8647788743
 31
0.0
 11
15.5230038394
 21
-4.862735275
 31
0.0
 11
15.5224445384
 21
-4.8617134754
 31
0.0
 11
15.5221648879
 21
-4.8612025755
 31
0.0
 11
15.5218852374
 21
-4.8606916757
 31
0.0
 11
15.5215012356
 21
-4.8603056021
 31
0.0
 11
15.5211172339
 21
-4.8599195285
 31
0.0
 11
15.5203492304
 21
-4.8591473813
 31
0.0
 11
15.5188132235
 21
-4.8576030869
 31
0.0
 11
15.5172772166
 21
-4.8560587925
 31
0.0
 11
15.5157412097
 21
-4.8545144981
 31
0.0
 11
15.5126691958
 21
-4.8514259093
 31
0.0
 11
15.509597182
 21
-4.8483373204
 31
0.0
 11
15.5034531543
 21
-4.8421601428
 31
0.0
 11
15.4973091266
 21
-4.8359829652
 31
0.0
 11
15.491165099
 21
-4.8298057875
 31
0.0
 11
15.4850210713
 21
-4.8236286099
 31
0.0
 11
15.4727330159
 21
-4.8112742546
 31
0.0
 11
15.4604449606
 21
-4.7989198993
 31
0.0
 11
15.4481569052
 21
-4.7865655441
 31
0.0
 11
15.4235807945
 21
-4.7618568335
 31
0.0
 11
15.3990046838
 21
-4.737148123
 31
0.0
 11
15.3867166285
 21
-4.7247937677
 31
0.0
 11
15.3744285731
 21
-4.7124394124
 31
0.0
 11
15.3621405178
 21
-4.7000850571
 31
0.0
 11
15.3559964901
 21
-4.6939078795
 31
0.0
 11
15.3498524624
 21
-4.6877307019
 31
0.0
 11
15.3437084348
 21
-4.6815535242
 31
0.0
 11
15.3375644071
 21
-4.6753763466
 31
0.0
 11
15.3344923932
 21
-4.6722877578
 31
0.0
 11
15.3314203794
 21
-4.669199169
 31
0.0
 11
15.3298843725
 21
-4.6676548745
 31
0.0
 11
15.3283483656
 21
-4.6661105801
 31
0.0
 11
15.3268123586
 21
-4.6645662857
 31
0.0
 11
15.3260443552
 21
-4.6637941385
 31
0.0
 11
15.3256603535
 21
-4.6634080649
 31
0.0
 11
15.3252763517
 21
-4.6630219913
 31
0.0
 11
15.3248160569
 21
-4.6627889534
 31
0.0
 11
15.324355762
 21
-4.6625559155
 31
0.0
 11
15.3234351723
 21
-4.6620898397
 31
0.0
 11
15.3215939929
 21
-4.661157688
 31
0.0
 11
15.3197528135
 21
-4.6602255364
 31
0.0
 11
15.317911634
 21
-4.6592933847
 31
0.0
 11
15.3142292752
 21
-4.6574290814
 31
0.0
 11
15.3105469163
 21
-4.6555647781
 31
0.0
 11
15.3031821987
 21
-4.6518361716
 31
0.0
 11
15.295817481
 21
-4.648107565
 31
0.0
 11
15.2884527633
 21
-4.6443789584
 31
0.0
 11
15.2810880456
 21
-4.6406503518
 31
0.0
 11
15.2663586102
 21
-4.6331931386
 31
0.0
 11
15.2516291748
 21
-4.6257359255
 31
0.0
 11
15.2368997394
 21
-4.6182787123
 31
0.0
 11
15.2074408687
 21
-4.6033642859
 31
0.0
 11
15.1779819979
 21
-4.5884498596
 31
0.0
 11
15.1632525625
 21
-4.5809926464
 31
0.0
 11
15.1485231271
 21
-4.5735354333
 31
0.0
 11
15.1337936918
 21
-4.5660782201
 31
0.0
 11
15.1264289741
 21
-4.5623496135
 31
0.0
 11
15.1190642564
 21
-4.5586210069
 31
0.0
 11
15.1116995387
 21
-4.5548924003
 31
0.0
 11
15.104334821
 21
-4.5511637937
 31
0.0
 11
15.1006524622
 21
-4.5492994905
 31
0.0
 11
15.0969701033
 21
-4.5474351872
 31
0.0
 11
15.0951289239
 21
-4.5465030355
 31
0.0
 11
15.0932877445
 21
-4.5455708839
 31
0.0
 11
15.091446565
 21
-4.5446387322
 31
0.0
 11
15.0905259753
 21
-4.5441726564
 31
0.0
 11
15.0900656805
 21
-4.5439396185
 31
0.0
 11
15.0896053856
 21
-4.5437065806
 31
0.0
 11
15.0890804189
 21
-4.5436274652
 31
0.0
 11
15.0885554521
 21
-4.5435483498
 31
0.0
 11
15.0875055186
 21
-4.543390119
 31
0.0
 11
15.0854056515
 21
-4.5430736575
 31
0.0
 11
15.0833057844
 21
-4.5427571959
 31
0.0
 11
15.0812059174
 21
-4.5424407344
 31
0.0
 11
15.0770061832
 21
-4.5418078113
 31
0.0
 11
15.0728064491
 21
-4.5411748882
 31
0.0
 11
15.0644069808
 21
-4.539909042
 31
0.0
 11
15.0560075126
 21
-4.5386431958
 31
0.0
 11
15.0476080443
 21
-4.5373773496
 31
0.0
 11
15.0392085761
 21
-4.5361115035
 31
0.0
 11
15.0224096395
 21
-4.5335798111
 31
0.0
 11
15.005610703
 21
-4.5310481187
 31
0.0
 11
14.9888117665
 21
-4.5285164264
 31
0.0
 11
14.9552138935
 21
-4.5234530416
 31
0.0
 11
14.9216160204
 21
-4.5183896569
 31
0.0
 11
14.9048170839
 21
-4.5158579645
 31
0.0
 11
14.8880181474
 21
-4.5133262721
 31
0.0
 11
14.8712192108
 21
-4.5107945798
 31
0.0
 11
14.8628197426
 21
-4.5095287336
 31
0.0
 11
14.8544202743
 21
-4.5082628874
 31
0.0
 11
14.8460208061
 21
-4.5069970412
 31
0.0
 11
14.8376213378
 21
-4.505731195
 31
0.0
 11
14.8334216037
 21
-4.5050982719
 31
0.0
 11
14.8292218695
 21
-4.5044653488
 31
0.0
 11
14.8271220025
 21
-4.5041488873
 31
0.0
 11
14.8250221354
 21
-4.5038324257
 31
0.0
 11
14.8229222684
 21
-4.5035159642
 31
0.0
 11
14.8218723348
 21
-4.5033577334
 31
0.0
 11
14.8213473681
 21
-4.503278618
 31
0.0
 11
14.8208224013
 21
-4.5031995026
 31
0.0
 11
14.8202527584
 21
-4.5032773233
 31
0.0
 11
14.8196831156
 21
-4.5033551439
 31
0.0
 11
14.8185438299
 21
-4.5035107851
 31
0.0
 11
14.8162652584
 21
-4.5038220676
 31
0.0
 11
14.813986687
 21
-4.5041333501
 31
0.0
 11
14.8117081156
 21
-4.5044446325
 31
0.0
 11
14.8071509727
 21
-4.5050671975
 31
0.0
 11
14.8025938299
 21
-4.5056897625
 31
0.0
 11
14.7934795442
 21
-4.5069348924
 31
0.0
 11
14.7843652585
 21
-4.5081800223
 31
0.0
 11
14.7752509728
 21
-4.5094251522
 31
0.0
 11
14.7661366871
 21
-4.5106702821
 31
0.0
 11
14.7479081157
 21
-4.5131605419
 31
0.0
 11
14.7296795444
 21
-4.5156508017
 31
0.0
 11
14.711450973
 21
-4.5181410615
 31
0.0
 11
14.6749938302
 21
-4.5231215811
 31
0.0
 11
14.6385366874
 21
-4.5281021007
 31
0.0
 11
14.620308116
 21
-4.5305923605
 31
0.0
 11
14.6020795446
 21
-4.5330826203
 31
0.0
 11
14.5838509733
 21
-4.5355728801
 31
0.0
 11
14.5747366876
 21
-4.53681801
 31
0.0
 11
14.5656224019
 21
-4.5380631399
 31
0.0
 11
14.5565081162
 21
-4.5393082698
 31
0.0
 11
14.5473938305
 21
-4.5405533997
 31
0.0
 11
14.5428366876
 21
-4.5411759647
 31
0.0
 11
14.5382795448
 21
-4.5417985296
 31
0.0
 11
14.5360009734
 21
-4.5421098121
 31
0.0
 11
14.5337224019
 21
-4.5424210946
 31
0.0
 11
14.5314438305
 21
-4.5427323771
 31
0.0
 11
14.5303045448
 21
-4.5428880183
 31
0.0
 11
14.5297349019
 21
-4.5429658389
 31
0.0
 11
14.5291652591
 21
-4.5430436595
 31
0.0
 11
14.5285619835
 21
-4.5432809452
 31
0.0
 11
14.5279587079
 21
-4.5435182308
 31
0.0
 11
14.5267521567
 21
-4.5439928021
 31
0.0
 11
14.5243390542
 21
-4.5449419447
 31
0.0
 11
14.5219259518
 21
-4.5458910872
 31
0.0
 11
14.5195128494
 21
-4.5468402298
 31
0.0
 11
14.5146866446
 21
-4.5487385149
 31
0.0
 11
14.5098604397
 21
-4.5506368001
 31
0.0
 11
14.5002080301
 21
-4.5544333704
 31
0.0
 11
14.4905556204
 21
-4.5582299406
 31
0.0
 11
14.4809032107
 21
-4.5620265109
 31
0.0
 11
14.471250801
 21
-4.5658230812
 31
0.0
 11
14.4519459817
 21
-4.5734162217
 31
0.0
 11
14.4326411623
 21
-4.5810093623
 31
0.0
 11
14.413336343
 21
-4.5886025028
 31
0.0
 11
14.3747267042
 21
-4.6037887839
 31
0.0
 11
14.3361170655
 21
-4.618975065
 31
0.0
 11
14.2975074268
 21
-4.6341613461
 31
0.0
 11
14.2588977881
 21
-4.6493476272
 31
0.0
 11
14.2202881494
 21
-4.6645339083
 31
0.0
  0
SPLINE
  5
527
100
AcDbEntity
  8
0
100
AcDbSpline
 62
252
  6
CONTINUOUS
 70
0
 71
3
 72
466
 73
462
 74
460
 42
0.0000001
 43
0.0000001
 44
0.0000000001
 12
-4.8564464833
 22
-3.1081472564
 32
0.0
 13
4.9420337552
 23
1.9438439798
 33
0.0
 40
0.0
 40
0.0
 40
0.0
 40
0.0
 40
0.015625
 40
0.0234375
 40
0.03125
 40
0.0390625
 40
0.04296875
 40
0.046875
 40
0.05078125
 40
0.052734375
 40
0.0546875
 40
0.056640625
 40
0.05859375
 40
0.0595703125
 40
0.060546875
 40
0.0610351562
 40
0.0615234375
 40
0.0620117188
 40
0.0622558594
 40
0.0623779297
 40
0.0625
 40
0.0626220703
 40
0.0627441406
 40
0.0629882812
 40
0.0634765625
 40
0.0639648438
 40
0.064453125
 40
0.0654296875
 40
0.06640625
 40
0.068359375
 40
0.0703125
 40
0.072265625
 40
0.07421875
 40
0.078125
 40
0.08203125
 40
0.0859375
 40
0.09375
 40
0.1015625
 40
0.10546875
 40
0.109375
 40
0.11328125
 40
0.115234375
 40
0.1171875
 40
0.119140625
 40
0.12109375
 40
0.1220703125
 40
0.123046875
 40
0.1235351562
 40
0.1240234375
 40
0.1245117188
 40
0.1247558594
 40
0.125
 40
0.1252441406
 40
0.1254882812
 40
0.1259765625
 40
0.1264648438
 40
0.126953125
 40
0.1279296875
 40
0.12890625
 40
0.130859375
 40
0.1328125
 40
0.134765625
 40
0.13671875
 40
0.140625
 40
0.14453125
 40
0.1484375
 40
0.15625
 40
0.1640625
 40
0.16796875
 40
0.171875
 40
0.17578125
 40
0.177734375
 40
0.1796875
 40
0.181640625
 40
0.18359375
 40
0.1845703125
 40
0.185546875
 40
0.1865234375
 40
0.1870117188
 40
0.1872558594
 40
0.1875
 40
0.1877441406
 40
0.1879882812
 40
0.1884765625
 40
0.189453125
 40
0.1904296875
 40
0.19140625
 40
0.193359375
 40
0.1953125
 40
0.197265625
 40
0.19921875
 40
0.203125
 40
0.20703125
 40
0.2109375
 40
0.21875
 40
0.2265625
 40
0.23046875
 40
0.234375
 40
0.23828125
 40
0.2421875
 40
0.244140625
 40
0.24609375
 40
0.2470703125
 40
0.248046875
 40
0.2490234375
 40
0.2495117188
 40
0.2497558594
 40
0.25
 40
0.2502441406
 40
0.2504882812
 40
0.2509765625
 40
0.251953125
 40
0.2529296875
 40
0.25390625
 40
0.255859375
 40
0.2578125
 40
0.26171875
 40
0.265625
 40
0.26953125
 40
0.2734375
 40
0.28125
 40
0.2890625
 40
0.29296875
 40
0.296875
 40
0.30078125
 40
0.3046875
 40
0.306640625
 40
0.30859375
 40
0.3095703125
 40
0.310546875
 40
0.3115234375
 40
0.3120117188
 40
0.3122558594
 40
0.3125
 40
0.3127441406
 40
0.3129882812
 40
0.3134765625
 40
0.314453125
 40
0.3154296875
 40
0.31640625
 40
0.318359375
 40
0.3203125
 40
0.32421875
 40
0.328125
 40
0.33203125
 40
0.3359375
 40
0.34375
 40
0.3515625
 40
0.35546875
 40
0.359375
 40
0.36328125
 40
0.3671875
 40
0.369140625
 40
0.37109375
 40
0.3720703125
 40
0.373046875
 40
0.3740234375
 40
0.3745117188
 40
0.3747558594
 40
0.375
 40
0.3752441406
 40
0.3754882812
 40
0.3759765625
 40
0.376953125
 40
0.3779296875
 40
0.37890625
 40
0.380859375
 40
0.3828125
 40
0.38671875
 40
0.390625
 40
0.39453125
 40
0.3984375
 40
0.40625
 40
0.4140625
 40
0.41796875
 40
0.421875
 40
0.42578125
 40
0.427734375
 40
0.4296875
 40
0.431640625
 40
0.43359375
 40
0.4345703125
 40
0.435546875
 40
0.4365234375
 40
0.4370117188
 40
0.4372558594
 40
0.4375
 40
0.4377441406
 40
0.4379882812
 40
0.4384765625
 40
0.439453125
 40
0.4404296875
 40
0.44140625
 40
0.443359375
 40
0.4453125
 40
0.447265625
 40
0.44921875
 40
0.453125
 40
0.45703125
 40
0.4609375
 40
0.46875
 40
0.4765625
 40
0.48046875
 40
0.484375
 40
0.48828125
 40
0.490234375
 40
0.4921875
 40
0.494140625
 40
0.49609375
 40
0.4970703125
 40
0.498046875
 40
0.4985351562
 40
0.4990234375
 40
0.4995117188
 40
0.4997558594
 40
0.4998779297
 40
0.5
 40
0.5001220703
 40
0.5002441406
 40
0.5004882812
 40
0.5009765625
 40
0.5014648438
 40
0.501953125
 40
0.5029296875
 40
0.50390625
 40
0.505859375
 40
0.5078125
 40
0.509765625
 40
0.51171875
 40
0.515625
 40
0.51953125
 40
0.5234375
 40
0.53125
 40
0.5390625
 40
0.54296875
 40
0.546875
 40
0.55078125
 40
0.552734375
 40
0.5546875
 40
0.556640625
 40
0.55859375
 40
0.5595703125
 40
0.560546875
 40
0.5610351562
 40
0.5615234375
 40
0.5620117188
 40
0.5622558594
 40
0.5623779297
 40
0.5625
 40
0.5626220703
 40
0.5627441406
 40
0.5629882812
 40
0.5634765625
 40
0.5639648438
 40
0.564453125
 40
0.5654296875
 40
0.56640625
 40
0.568359375
 40
0.5703125
 40
0.572265625
 40
0.57421875
 40
0.578125
 40
0.58203125
 40
0.5859375
 40
0.59375
 40
0.6015625
 40
0.60546875
 40
0.609375
 40
0.61328125
 40
0.615234375
 40
0.6171875
 40
0.619140625
 40
0.62109375
 40
0.6220703125
 40
0.623046875
 40
0.6235351562
 40
0.6240234375
 40
0.6245117188
 40
0.6247558594
 40
0.6248779297
 40
0.625
 40
0.6251220703
 40
0.6252441406
 40
0.6254882812
 40
0.6259765625
 40
0.6264648438
 40
0.626953125
 40
0.6279296875
 40
0.62890625
 40
0.630859375
 40
0.6328125
 40
0.634765625
 40
0.63671875
 40
0.640625
 40
0.64453125
 40
0.6484375
 40
0.65625
 40
0.6640625
 40
0.66796875
 40
0.671875
 40
0.67578125
 40
0.677734375
 40
0.6796875
 40
0.681640625
 40
0.68359375
 40
0.6845703125
 40
0.685546875
 40
0.6860351562
 40
0.6865234375
 40
0.6870117188
 40
0.6872558594
 40
0.6873779297
 40
0.6875
 40
0.6876220703
 40
0.6877441406
 40
0.6879882812
 40
0.6884765625
 40
0.6889648438
 40
0.689453125
 40
0.6904296875
 40
0.69140625
 40
0.693359375
 40
0.6953125
 40
0.697265625
 40
0.69921875
 40
0.703125
 40
0.70703125
 40
0.7109375
 40
0.71875
 40
0.7265625
 40
0.73046875
 40
0.734375
 40
0.73828125
 40
0.740234375
 40
0.7421875
 40
0.744140625
 40
0.74609375
 40
0.7470703125
 40
0.748046875
 40
0.7485351562
 40
0.7490234375
 40
0.7495117188
 40
0.7497558594
 40
0.7498779297
 40
0.75
 40
0.7501220703
 40
0.7502441406
 40
0.7504882812
 40
0.7509765625
 40
0.7514648438
 40
0.751953125
 40
0.7529296875
 40
0.75390625
 40
0.755859375
 40
0.7578125
 40
0.759765625
 40
0.76171875
 40
0.765625
 40
0.76953125
 40
0.7734375
 40
0.78125
 40
0.7890625
 40
0.79296875
 40
0.796875
 40
0.80078125
 40
0.802734375
 40
0.8046875
 40
0.806640625
 40
0.80859375
 40
0.8095703125
 40
0.810546875
 40
0.8110351562
 40
0.8115234375
 40
0.8120117188
 40
0.8122558594
 40
0.8123779297
 40
0.8125
 40
0.8126220703
 40
0.8127441406
 40
0.8129882812
 40
0.8134765625
 40
0.8139648438
 40
0.814453125
 40
0.8154296875
 40
0.81640625
 40
0.818359375
 40
0.8203125
 40
0.822265625
 40
0.82421875
 40
0.828125
 40
0.83203125
 40
0.8359375
 40
0.84375
 40
0.8515625
 40
0.85546875
 40
0.859375
 40
0.86328125
 40
0.865234375
 40
0.8671875
 40
0.869140625
 40
0.87109375
 40
0.8720703125
 40
0.873046875
 40
0.8735351562
 40
0.8740234375
 40
0.8745117188
 40
0.8747558594
 40
0.8748779297
 40
0.875
 40
0.8751220703
 40
0.8752441406
 40
0.8754882812
 40
0.8759765625
 40
0.8764648438
 40
0.876953125
 40
0.8779296875
 40
0.87890625
 40
0.880859375
 40
0.8828125
 40
0.884765625
 40
0.88671875
 40
0.890625
 40
0.89453125
 40
0.8984375
 40
0.90625
 40
0.9140625
 40
0.91796875
 40
0.921875
 40
0.92578125
 40
0.927734375
 40
0.9296875
 40
0.931640625
 40
0.93359375
 40
0.9345703125
 40
0.935546875
 40
0.9360351562
 40
0.9365234375
 40
0.9370117188
 40
0.9372558594
 40
0.9373779297
 40
0.9375
 40
0.9376220703
 40
0.9377441406
 40
0.9379882812
 40
0.9384765625
 40
0.9389648438
 40
0.939453125
 40
0.9404296875
 40
0.94140625
 40
0.943359375
 40
0.9453125
 40
0.947265625
 40
0.94921875
 40
0.953125
 40
0.95703125
 40
0.9609375
 40
0.96875
 40
0.9765625
 40
0.984375
 40
0.9921875
 40
1.0
 40
1.0
 40
1.0
 40
1.0
 10
14.220288286
 20
-4.6645338375
 30
0.0
 10
14.1949942939
 20
-4.6807221045
 30
0.0
 10
14.1570533058
 20
-4.7050045049
 30
0.0
 10
14.1064653216
 20
-4.7373810389
 30
0.0
 10
14.0685243334
 20
-4.7616634393
 30
0.0
 10
14.0369068433
 20
-4.781898773
 30
0.0
 10
14.0116128512
 20
-4.7980870399
 30
0.0
 10
13.9926423571
 20
-4.8102282404
 30
0.0
 10
13.9768336119
 20
-4.8203459065
 30
0.0
 10
13.9641866161
 20
-4.8284400415
 30
0.0
 10
13.9547013683
 20
-4.834510637
 30
0.0
 10
13.9452161242
 20
-4.8405812542
 30
0.0
 10
13.9373117425
 20
-4.8456400347
 30
0.0
 10
13.9309882632
 20
-4.8496872093
 30
0.0
 10
13.9270360294
 20
-4.8522163514
 30
0.0
 10
13.9238743779
 20
-4.8542404485
 30
0.0
 10
13.9215027681
 20
-4.8557563761
 30
0.0
 10
13.9195276076
 20
-4.8570264735
 30
0.0
 10
13.9181426775
 20
-4.857902149
 30
0.0
 10
13.9173549078
 20
-4.8584234466
 30
0.0
 10
13.9167538861
 20
-4.8587555116
 30
0.0
 10
13.9161918326
 20
-4.8593127536
 30
0.0
 10
13.9154288353
 20
-4.8599771988
 30
0.0
 10
13.9140999231
 20
-4.861176573
 30
0.0
 10
13.9121981661
 20
-4.8628708323
 30
0.0
 10
13.909917475
 20
-4.8649121328
 30
0.0
 10
13.9068760584
 20
-4.8676310064
 30
0.0
 10
13.9030744572
 20
-4.8710305778
 30
0.0
 10
13.8969918006
 20
-4.8764693447
 30
0.0
 10
13.8893885123
 20
-4.8832679911
 30
0.0
 10
13.8802645525
 20
-4.8914262864
 30
0.0
 10
13.8711405963
 20
-4.8995846031
 30
0.0
 10
13.8589753202
 20
-4.9104623512
 30
0.0
 10
13.8437687254
 20
-4.924059539
 30
0.0
 10
13.8255208115
 20
-4.9403761632
 30
0.0
 10
13.8011902597
 20
-4.9621316625
 30
0.0
 10
13.77077707
 20
-4.9893260366
 30
0.0
 10
13.7403638802
 20
-5.0165204105
 30
0.0
 10
13.7160333285
 20
-5.03827591
 30
0.0
 10
13.6977854144
 20
-5.0545925338
 30
0.0
 10
13.6825788202
 20
-5.0681897226
 30
0.0
 10
13.6704135429
 20
-5.0790674687
 30
0.0
 10
13.6612895903
 20
-5.0872257918
 30
0.0
 10
13.6521656171
 20
-5.0953840631
 30
0.0
 10
13.6445623704
 20
-5.1021827838
 30
0.0
 10
13.638479629
 20
-5.1076213994
 30
0.0
 10
13.6346782434
 20
-5.1110213558
 30
0.0
 10
13.6316363844
 20
-5.1137394392
 30
0.0
 10
13.6293570452
 20
-5.1157831539
 30
0.0
 10
13.6274510581
 20
-5.1174698595
 30
0.0
 10
13.6259409317
 20
-5.118855984
 30
0.0
 10
13.6247682697
 20
-5.1197951314
 30
0.0
 10
13.6237485448
 20
-5.1211176826
 30
0.0
 10
13.6223354887
 20
-5.1227471563
 30
0.0
 10
13.6205874977
 20
-5.1248299484
 30
0.0
 10
13.6184820631
 20
-5.1273096309
 30
0.0
 10
13.6156775571
 20
-5.1306227438
 30
0.0
 10
13.6121709864
 20
-5.1347617828
 30
0.0
 10
13.6065609978
 20
-5.1413855599
 30
0.0
 10
13.599548332
 20
-5.14966483
 30
0.0
 10
13.5911332101
 20
-5.1596001476
 30
0.0
 10
13.5827180677
 20
-5.1695354135
 30
0.0
 10
13.5714978849
 20
-5.1827824527
 30
0.0
 10
13.557472654
 20
-5.1993412456
 30
0.0
 10
13.540642378
 20
-5.2192117996
 30
0.0
 10
13.5182020095
 20
-5.2457058708
 30
0.0
 10
13.4901515491
 20
-5.2788234599
 30
0.0
 10
13.4621010888
 20
-5.3119410494
 30
0.0
 10
13.4396607202
 20
-5.3384351201
 30
0.0
 10
13.422830445
 20
-5.3583056754
 30
0.0
 10
13.4088052114
 20
-5.3748644641
 30
0.0
 10
13.397585034
 20
-5.3881115118
 30
0.0
 10
13.3891698753
 20
-5.398046752
 30
0.0
 10
13.3807548145
 20
-5.4079821659
 30
0.0
 10
13.3737419587
 20
-5.4162611363
 30
0.0
 10
13.3681323575
 20
-5.4228855247
 30
0.0
 10
13.3639232892
 20
-5.4278505046
 30
0.0
 10
13.3604216724
 20
-5.4319985206
 30
0.0
 10
13.3579588833
 20
-5.4348814619
 30
0.0
 10
13.3565697773
 20
-5.4365611312
 30
0.0
 10
13.3554766723
 20
-5.4377299659
 30
0.0
 10
13.3545795681
 20
-5.4392463328
 30
0.0
 10
13.353315062
 20
-5.4411469322
 30
0.0
 10
13.3511340298
 20
-5.4445294612
 30
0.0
 10
13.3480016161
 20
-5.4493321171
 30
0.0
 10
13.3442498479
 20
-5.4551079433
 30
0.0
 10
13.3392450003
 20
-5.4628046299
 30
0.0
 10
13.3329897953
 20
-5.4724270032
 30
0.0
 10
13.3254831829
 20
-5.4839732017
 30
0.0
 10
13.3179766686
 20
-5.4955195739
 30
0.0
 10
13.3079679485
 20
-5.5109146762
 30
0.0
 10
13.2954570602
 20
-5.5301585749
 30
0.0
 10
13.2804439893
 20
-5.5532512444
 30
0.0
 10
13.260426563
 20
-5.5840414734
 30
0.0
 10
13.2354047799
 20
-5.6225292589
 30
0.0
 10
13.2103829957
 20
-5.6610170441
 30
0.0
 10
13.1903655712
 20
-5.6918072736
 30
0.0
 10
13.175352495
 20
-5.7148999417
 30
0.0
 10
13.1603394488
 20
-5.7379926255
 30
0.0
 10
13.1478284833
 20
-5.7572364794
 30
0.0
 10
13.1378199207
 20
-5.772631673
 30
0.0
 10
13.1315640915
 20
-5.7822534175
 30
0.0
 10
13.1265605218
 20
-5.7899513891
 30
0.0
 10
13.12280485
 20
-5.7957232907
 30
0.0
 10
13.1196846496
 20
-5.8005382257
 30
0.0
 10
13.1174818148
 20
-5.8038988344
 30
0.0
 10
13.1162522419
 20
-5.8058345556
 30
0.0
 10
13.1152478339
 20
-5.8072430397
 30
0.0
 10
13.1145577441
 20
-5.808817064
 30
0.0
 10
13.1135279866
 20
-5.8108580207
 30
0.0
 10
13.1117769932
 20
-5.8144565982
 30
0.0
 10
13.1092488678
 20
-5.8195833579
 30
0.0
 10
13.1062265484
 20
-5.82574149
 30
0.0
 10
13.1021927966
 20
-5.8339502299
 30
0.0
 10
13.0971519739
 20
-5.8442118748
 30
0.0
 10
13.0890858935
 20
-5.8606301043
 30
0.0
 10
13.0790035551
 20
-5.8811530292
 30
0.0
 10
13.0669046368
 20
-5.9057804799
 30
0.0
 10
13.0548057485
 20
-5.9304079464
 30
0.0
 10
13.0386738869
 20
-5.9632445629
 30
0.0
 10
13.0185090638
 20
-6.0042903355
 30
0.0
 10
12.9983442381
 20
-6.0453361069
 30
0.0
 10
12.9822123808
 20
-6.0781727252
 30
0.0
 10
12.9701134795
 20
-6.1028001863
 30
0.0
 10
12.95801461
 20
-6.1274276575
 30
0.0
 10
12.9479321195
 20
-6.1479505186
 30
0.0
 10
12.9398663495
 20
-6.1643688781
 30
0.0
 10
12.9348247367
 20
-6.1746301922
 30
0.0
 10
12.9307926067
 20
-6.1828396111
 30
0.0
 10
12.9277653325
 20
-6.1889956688
 30
0.0
 10
12.9252527093
 20
-6.1941289185
 30
0.0
 10
12.9234740418
 20
-6.1977159103
 30
0.0
 10
12.9224886253
 20
-6.1997754303
 30
0.0
 10
12.9216623344
 20
-6.2012924343
 30
0.0
 10
12.9211694749
 20
-6.202915077
 30
0.0
 10
12.9203960244
 20
-6.2050417526
 30
0.0
 10
12.9190966744
 20
-6.2087806031
 30
0.0
 10
12.9172121299
 20
-6.2141128424
 30
0.0
 10
12.9149628027
 20
-6.2205153714
 30
0.0
 10
12.9119594643
 20
-6.2290507349
 30
0.0
 10
12.9082067415
 20
-6.2397203987
 30
0.0
 10
12.9022015745
 20
-6.2567916041
 30
0.0
 10
12.894695394
 20
-6.2781306988
 30
0.0
 10
12.885687858
 20
-6.3037375748
 30
0.0
 10
12.876680354
 20
-6.3293444609
 30
0.0
 10
12.8646703375
 20
-6.3634869721
 30
0.0
 10
12.849657821
 20
-6.4061651123
 30
0.0
 10
12.8346453016
 20
-6.4488432521
 30
0.0
 10
12.8226352898
 20
-6.4829857641
 30
0.0
 10
12.8136277716
 20
-6.508592648
 30
0.0
 10
12.8046202889
 20
-6.534199532
 30
0.0
 10
12.7971139428
 20
-6.5555386018
 30
0.0
 10
12.7911091132
 20
-6.572609858
 30
0.0
 10
12.7873555319
 20
-6.5832793924
 30
0.0
 10
12.7843539558
 20
-6.5918150215
 30
0.0
 10
12.7820992446
 20
-6.5982167391
 30
0.0
 10
12.7802315453
 20
-6.6035515171
 30
0.0
 10
12.7789021237
 20
-6.6072858356
 30
0.0
 10
12.7781768556
 20
-6.6094197726
 30
0.0
 10
12.7775359951
 20
-6.6110201107
 30
0.0
 10
12.7772655716
 20
-6.612620887
 30
0.0
 10
12.7767757943
 20
-6.6147551025
 30
0.0
 10
12.7759788866
 20
-6.618490051
 30
0.0
 10
12.7748089725
 20
-6.6238256543
 30
0.0
 10
12.7734185476
 20
-6.6302283943
 30
0.0
 10
12.7715599423
 20
-6.6387653753
 30
0.0
 10
12.7692382968
 20
-6.6494366035
 30
0.0
 10
12.7655227636
 20
-6.6665105676
 30
0.0
 10
12.760878656
 20
-6.6878530231
 30
0.0
 10
12.7553055945
 20
-6.7134639695
 30
0.0
 10
12.7497325684
 20
-6.7390749159
 30
0.0
 10
12.7423018545
 20
-6.7732228445
 30
0.0
 10
12.7330134664
 20
-6.8159077553
 30
0.0
 10
12.7237250771
 20
-6.8585926659
 30
0.0
 10
12.7162943651
 20
-6.8927405946
 30
0.0
 10
12.7107213336
 20
-6.9183515407
 30
0.0
 10
12.7060771324
 20
-6.9396939971
 30
0.0
 10
12.7023617902
 20
-6.9567679594
 30
0.0
 10
12.6995752321
 20
-6.9695734388
 30
0.0
 10
12.6967888706
 20
-6.9823788887
 30
0.0
 10
12.6944662902
 20
-6.9930501888
 30
0.0
 10
12.6926095974
 20
-7.0015870234
 30
0.0
 10
12.6912133308
 20
-7.0079902105
 30
0.0
 10
12.690061694
 20
-7.0133244147
 30
0.0
 10
12.6892321582
 20
-7.0170618609
 30
0.0
 10
12.6887946594
 20
-7.0191920743
 30
0.0
 10
12.688363653
 20
-7.0208051439
 30
0.0
 10
12.688325915
 20
-7.0223593105
 30
0.0
 10
12.6881384213
 20
-7.0244520787
 30
0.0
 10
12.6878742203
 20
-7.0281048503
 30
0.0
 10
12.6874633758
 20
-7.0333281002
 30
0.0
 10
12.686984665
 20
-7.0395938579
 30
0.0
 10
12.6863413879
 20
-7.0479489497
 30
0.0
 10
12.6855390058
 20
-7.0583925577
 30
0.0
 10
12.6845754124
 20
-7.0709249975
 30
0.0
 10
12.6836120156
 20
-7.0834574077
 30
0.0
 10
12.6823274179
 20
-7.1001672984
 30
0.0
 10
12.6807216943
 20
-7.1210546581
 30
0.0
 10
12.6787948159
 20
-7.1461194913
 30
0.0
 10
12.6762256482
 20
-7.1795392684
 30
0.0
 10
12.6730141874
 20
-7.22131399
 30
0.0
 10
12.669802727
 20
-7.2630887115
 30
0.0
 10
12.6672335586
 20
-7.2965084888
 30
0.0
 10
12.6653066825
 20
-7.3215733215
 30
0.0
 10
12.6637009516
 20
-7.3424606827
 30
0.0
 10
12.6624163688
 20
-7.3591705705
 30
0.0
 10
12.6614529265
 20
-7.3717029895
 30
0.0
 10
12.6604895038
 20
-7.3842353963
 30
0.0
 10
12.6596865907
 20
-7.3946791068
 30
0.0
 10
12.6590443965
 20
-7.4030339896
 30
0.0
 10
12.6586427148
 20
-7.4082559862
 30
0.0
 10
12.6583220801
 20
-7.4124331373
 30
0.0
 10
12.6580796584
 20
-7.4155672222
 30
0.0
 10
12.6578838298
 20
-7.4181750737
 30
0.0
 10
12.6577346031
 20
-7.4200081957
 30
0.0
 10
12.6576682967
 20
-7.4210437867
 30
0.0
 10
12.6575651394
 20
-7.4218540231
 30
0.0
 10
12.6576662091
 20
-7.4225360406
 30
0.0
 10
12.657729732
 20
-7.4234901215
 30
0.0
 10
12.6578740876
 20
-7.4251389253
 30
0.0
 10
12.6580629576
 20
-7.4275052535
 30
0.0
 10
12.6582970289
 20
-7.4303401843
 30
0.0
 10
12.6586065298
 20
-7.4341217207
 30
0.0
 10
12.6589942942
 20
-7.4388480835
 30
0.0
 10
12.6596142207
 20
-7.4464105757
 30
0.0
 10
12.6603892992
 20
-7.455863584
 30
0.0
 10
12.6613193204
 20
-7.4672072398
 30
0.0
 10
12.6622493611
 20
-7.4785508833
 30
0.0
 10
12.6634894085
 20
-7.4936757456
 30
0.0
 10
12.6650394702
 20
-7.5125818221
 30
0.0
 10
12.6668995432
 20
-7.5352691144
 30
0.0
 10
12.6693796409
 20
-7.5655188373
 30
0.0
 10
12.6724797628
 20
-7.6033309911
 30
0.0
 10
12.6755798849
 20
-7.6411431448
 30
0.0
 10
12.6780599824
 20
-7.6713928678
 30
0.0
 10
12.6799200558
 20
-7.6940801598
 30
0.0
 10
12.6814701162
 20
-7.7129862372
 30
0.0
 10
12.6827101663
 20
-7.7281110977
 30
0.0
 10
12.683640199
 20
-7.7394547468
 30
0.0
 10
12.6845702504
 20
-7.7507983816
 30
0.0
 10
12.6853452347
 20
-7.7602514554
 30
0.0
 10
12.6859653534
 20
-7.767813814
 30
0.0
 10
12.6863526286
 20
-7.7725405167
 30
0.0
 10
12.6866631336
 20
-7.7763213553
 30
0.0
 10
12.6868941373
 20
-7.7791584179
 30
0.0
 10
12.6870926049
 20
-7.7815180762
 30
0.0
 10
12.6872198271
 20
-7.7831787869
 30
0.0
 10
12.6873108021
 20
-7.7841137899
 30
0.0
 10
12.6873275479
 20
-7.7848544088
 30
0.0
 10
12.6875410972
 20
-7.7854445483
 30
0.0
 10
12.6877571824
 20
-7.78628389
 30
0.0
 10
12.6881673154
 20
-7.7877282823
 30
0.0
 10
12.6887364981
 20
-7.7898044855
 30
0.0
 10
12.6894266748
 20
-7.7922904567
 30
0.0
 10
12.6903444104
 20
-7.7956069965
 30
0.0
 10
12.6914924358
 20
-7.7997520167
 30
0.0
 10
12.6933287982
 20
-7.8063844149
 30
0.0
 10
12.6956244153
 20
-7.8146747871
 30
0.0
 10
12.6983790854
 20
-7.8246232875
 30
0.0
 10
12.7011337744
 20
-7.8345717735
 30
0.0
 10
12.7048066864
 20
-7.8478364266
 30
0.0
 10
12.7093978287
 20
-7.8644172412
 30
0.0
 10
12.7149071985
 20
-7.8843142195
 30
0.0
 10
12.7222530253
 20
-7.9108435236
 30
0.0
 10
12.7314353086
 20
-7.9440051539
 30
0.0
 10
12.740617592
 20
-7.977166784
 30
0.0
 10
12.7479634186
 20
-8.0036960882
 30
0.0
 10
12.7534727888
 20
-8.0235930662
 30
0.0
 10
12.7580639299
 20
-8.0401738819
 30
0.0
 10
12.7617368444
 20
-8.0534385327
 30
0.0
 10
12.7644915257
 20
-8.0633870256
 30
0.0
 10
12.7672462247
 20
-8.0733355002
 30
0.0
 10
12.769541752
 20
-8.0816259527
 30
0.0
 10
12.7713782975
 20
-8.0882581871
 30
0.0
 10
12.7725258567
 20
-8.0924036242
 30
0.0
 10
12.7734445495
 20
-8.0957193082
 30
0.0
 10
12.7741318019
 20
-8.0982078941
 30
0.0
 10
12.7747101337
 20
-8.1002759165
 30
0.0
 10
12.775103934
 20
-8.101734913
 30
0.0
 10
12.7753461883
 20
-8.1025508551
 30
0.0
 10
12.7754793543
 20
-8.1032128706
 30
0.0
 10
12.7757980067
 20
-8.1036835355
 30
0.0
 10
12.7761581768
 20
-8.1043778339
 30
0.0
 10
12.7768186193
 20
-8.1055617583
 30
0.0
 10
12.7777463485
 20
-8.1072693372
 30
0.0
 10
12.7788663694
 20
-8.1093114728
 30
0.0
 10
12.7803573745
 20
-8.112036751
 30
0.0
 10
12.7822219375
 20
-8.1154425164
 30
0.0
 10
12.7852047875
 20
-8.1208922062
 30
0.0
 10
12.7889335047
 20
-8.1277041589
 30
0.0
 10
12.793407899
 20
-8.1358785705
 30
0.0
 10
12.797882311
 20
-8.1440529638
 30
0.0
 10
12.8038481875
 20
-8.1549521612
 30
0.0
 10
12.8113055353
 20
-8.1685761559
 30
0.0
 10
12.8202543518
 20
-8.1849249504
 30
0.0
 10
12.8321861073
 20
-8.2067233427
 30
0.0
 10
12.8471008017
 20
-8.2339713332
 30
0.0
 10
12.8620154961
 20
-8.2612193237
 30
0.0
 10
12.8739472515
 20
-8.2830177162
 30
0.0
 10
12.8828960683
 20
-8.2993665103
 30
0.0
 10
12.8903534149
 20
-8.3129905062
 30
0.0
 10
12.8963192938
 20
-8.323889701
 30
0.0
 10
12.9007936985
 20
-8.3320641025
 30
0.0
 10
12.9052681205
 20
-8.3402384833
 30
0.0
 10
12.9089967517
 20
-8.3470505316
 30
0.0
 10
12.9119797769
 20
-8.3525000265
 30
0.0
 10
12.913843894
 20
-8.355906288
 30
0.0
 10
12.9153358144
 20
-8.3586305477
 30
0.0
 10
12.916453039
 20
-8.3606757948
 30
0.0
 10
12.9173895172
 20
-8.3623736387
 30
0.0
 10
12.9180343413
 20
-8.3635749417
 30
0.0
 10
12.918419536
 20
-8.3642413953
 30
0.0
 10
12.9186613209
 20
-8.3647975904
 30
0.0
 10
12.9190831882
 20
-8.3651383688
 30
0.0
 10
12.9195828632
 20
-8.3656678797
 30
0.0
 10
12.920486561
 20
-8.3665595147
 30
0.0
 10
12.9217622569
 20
-8.3678515822
 30
0.0
 10
12.9232996413
 20
-8.3693942288
 30
0.0
 10
12.9253471997
 20
-8.3714538274
 30
0.0
 10
12.9279074309
 20
-8.3740273886
 30
0.0
 10
12.932003363
 20
-8.3781456103
 30
0.0
 10
12.9371234284
 20
-8.3832932077
 30
0.0
 10
12.9432674425
 20
-8.3894704016
 30
0.0
 10
12.9494114738
 20
-8.3956475749
 30
0.0
 10
12.9576035095
 20
-8.4038838132
 30
0.0
 10
12.9678435562
 20
-8.4141791086
 30
0.0
 10
12.9801316114
 20
-8.4265334641
 30
0.0
 10
12.9965156852
 20
-8.4430059377
 30
0.0
 10
13.0169957775
 20
-8.4635965299
 30
0.0
 10
13.0374758697
 20
-8.4841871219
 30
0.0
 10
13.0538599435
 20
-8.5006595957
 30
0.0
 10
13.066147999
 20
-8.5130139507
 30
0.0
 10
13.0763880447
 20
-8.5233092476
 30
0.0
 10
13.0845800825
 20
-8.5315454827
 30
0.0
 10
13.0907241075
 20
-8.5377226657
 30
0.0
 10
13.0968681451
 20
-8.5438998234
 30
0.0
 10
13.1019881372
 20
-8.5490475335
 30
0.0
 10
13.1060842188
 20
-8.5531655253
 30
0.0
 10
13.1086440697
 20
-8.5557396715
 30
0.0
 10
13.1106924086
 20
-8.5577980695
 30
0.0
 10
13.1122274084
 20
-8.559344384
 30
0.0
 10
13.1135105651
 20
-8.5606249755
 30
0.0
 10
13.1144009441
 20
-8.5615370971
 30
0.0
 10
13.1149219592
 20
-8.5620337834
 30
0.0
 10
13.1152782767
 20
-8.5624753885
 30
0.0
 10
13.1157662558
 20
-8.5626528949
 30
0.0
 10
13.1163709695
 20
-8.5629816906
 30
0.0
 10
13.1174506159
 20
-8.5635141625
 30
0.0
 10
13.1189817811
 20
-8.5642972761
 30
0.0
 10
13.1208239676
 20
-8.5652274076
 30
0.0
 10
13.1232785439
 20
-8.5664709377
 30
0.0
 10
13.1263473368
 20
-8.5680242017
 30
0.0
 10
13.1312570855
 20
-8.570510066
 30
0.0
 10
13.1373943812
 20
-8.573617176
 30
0.0
 10
13.1447590889
 20
-8.5773458026
 30
0.0
 10
13.1521238093
 20
-8.5810744039
 30
0.0
 10
13.161943432
 20
-8.586045881
 30
0.0
 10
13.1742179619
 20
-8.5922602245
 30
0.0
 10
13.1889473972
 20
-8.5997174379
 30
0.0
 10
13.2085866444
 20
-8.6096603887
 30
0.0
 10
13.2331357033
 20
-8.6220890774
 30
0.0
 10
13.2576847623
 20
-8.634517766
 30
0.0
 10
13.2773240095
 20
-8.644460717
 30
0.0
 10
13.2920534449
 20
-8.6519179299
 30
0.0
 10
13.3043279741
 20
-8.658132275
 30
0.0
 10
13.3141475984
 20
-8.6631037487
 30
0.0
 10
13.3215123138
 20
-8.6668323607
 30
0.0
 10
13.32887704
 20
-8.6705609472
 30
0.0
 10
13.3350142785
 20
-8.6736681818
 30
0.0
 10
13.3399241438
 20
-8.6761537922
 30
0.0
 10
13.34299264
 20
-8.6777077023
 30
0.0
 10
13.3454478253
 20
-8.6789499061
 30
0.0
 10
13.3472881511
 20
-8.6798840896
 30
0.0
 10
13.3488251383
 20
-8.6806545254
 30
0.0
 10
13.3498943914
 20
-8.6812096292
 30
0.0
 10
13.3505157577
 20
-8.6815021631
 30
0.0
 10
13.3509525853
 20
-8.6817910543
 30
0.0
 10
13.3515010193
 20
-8.6818143164
 30
0.0
 10
13.3521933352
 20
-8.6819379869
 30
0.0
 10
13.3534230258
 20
-8.6821112408
 30
0.0
 10
13.355170244
 20
-8.6823813159
 30
0.0
 10
13.3572709648
 20
-8.6826957456
 30
0.0
 10
13.3600705081
 20
-8.6831183594
 30
0.0
 10
13.3635704227
 20
-8.6836454713
 30
0.0
 10
13.3691700147
 20
-8.6844894961
 30
0.0
 10
13.3761695978
 20
-8.6855443055
 30
0.0
 10
13.3845690576
 20
-8.6868101717
 30
0.0
 10
13.3929685282
 20
-8.6880760126
 30
0.0
 10
13.4041678184
 20
-8.6897638093
 30
0.0
 10
13.4181669326
 20
-8.691873552
 30
0.0
 10
13.434965869
 20
-8.6944052447
 30
0.0
 10
13.457364451
 20
-8.6977808344
 30
0.0
 10
13.4853626785
 20
-8.7020003218
 30
0.0
 10
13.5133609061
 20
-8.706219809
 30
0.0
 10
13.5357594881
 20
-8.7095953989
 30
0.0
 10
13.5525584247
 20
-8.712127091
 30
0.0
 10
13.5665575382
 20
-8.7142368355
 30
0.0
 10
13.5777568297
 20
-8.7159246286
 30
0.0
 10
13.5861562964
 20
-8.7171904803
 30
0.0
 10
13.5945557705
 20
-8.718456306
 30
0.0
 10
13.6015553093
 20
-8.7195112415
 30
0.0
 10
13.6071549918
 20
-8.7203550091
 30
0.0
 10
13.6106546762
 20
-8.7208827754
 30
0.0
 10
13.6134546919
 20
-8.721304046
 30
0.0
 10
13.6155539693
 20
-8.7216225792
 30
0.0
 10
13.6173057037
 20
-8.7218798155
 30
0.0
 10
13.6185273322
 20
-8.7220759889
 30
0.0
 10
13.6192325656
 20
-8.7221629368
 30
0.0
 10
13.6197413209
 20
-8.722298999
 30
0.0
 10
13.6203271752
 20
-8.7221642315
 30
0.0
 10
13.6210814213
 20
-8.72207901
 30
0.0
 10
13.6224138819
 20
-8.7218858578
 30
0.0
 10
13.6243108462
 20
-8.7216329373
 30
0.0
 10
13.6265900074
 20
-8.7213195832
 30
0.0
 10
13.6296279096
 20
-8.720905218
 30
0.0
 10
13.6334256227
 20
-8.7203860836
 30
0.0
 10
13.6395017762
 20
-8.7195561268
 30
0.0
 10
13.6470970324
 20
-8.7185184549
 30
0.0
 10
13.6562113123
 20
-8.7172733454
 30
0.0
 10
13.6653255995
 20
-8.7160282101
 30
0.0
 10
13.6774779799
 20
-8.7143680386
 30
0.0
 10
13.6926684563
 20
-8.7122928213
 30
0.0
 10
13.7108970276
 20
-8.7098025617
 30
0.0
 10
13.7352017895
 20
-8.7064822152
 30
0.0
 10
13.7655827418
 20
-8.7023317823
 30
0.0
 10
13.7959636941
 20
-8.6981813492
 30
0.0
 10
13.820268456
 20
-8.6948610029
 30
0.0
 10
13.8384970274
 20
-8.6923707428
 30
0.0
 10
13.8536875034
 20
-8.6902955272
 30
0.0
 10
13.8658398847
 20
-8.6886353522
 30
0.0
 10
13.8749541692
 20
-8.6873902278
 30
0.0
 10
13.8840684593
 20
-8.6861450771
 30
0.0
 10
13.8916636837
 20
-8.6851075335
 30
0.0
 10
13.897739902
 20
-8.684277315
 30
0.0
 10
13.9015374503
 20
-8.6837588466
 30
0.0
 10
13.9045756908
 20
-8.6833431143
 30
0.0
 10
13.9068538183
 20
-8.6830339368
 30
0.0
 10
13.9087540168
 20
-8.6827679487
 30
0.0
 10
13.9100807038
 20
-8.6825981245
 30
0.0
 10
13.9108442007
 20
-8.6824755256
 30
0.0
 10
13.9114016394
 20
-8.6824555695
 30
0.0
 10
13.9120171192
 20
-8.6821604193
 30
0.0
 10
13.9128175135
 20
-8.6818628765
 30
0.0
 10
13.9142276363
 20
-8.6812974528
 30
0.0
 10
13.9162371659
 20
-8.6805130867
 30
0.0
 10
13.9186507123
 20
-8.6795618391
 30
0.0
 10
13.9218680369
 20
-8.6782970047
 30
0.0
 10
13.9258899451
 20
-8.6767147648
 30
0.0
 10
13.932324857
 20
-8.6741838498
 30
0.0
 10
13.9403685454
 20
-8.6710199766
 30
0.0
 10
13.9500209507
 20
-8.6672234271
 30
0.0
 10
13.9596733615
 20
-8.6634268513
 30
0.0
 10
13.9725432407
 20
-8.6583647594
 30
0.0
 10
13.9886305904
 20
-8.6520371414
 30
0.0
 10
14.0079354097
 20
-8.6444440011
 30
0.0
 10
14.0336751688
 20
-8.6343198136
 30
0.0
 10
14.0658498678
 20
-8.6216645794
 30
0.0
 10
14.1044595065
 20
-8.6064782983
 30
0.0
 10
14.1430691452
 20
-8.5912920173
 30
0.0
 10
14.1816787839
 20
-8.5761057362
 30
0.0
 10
14.207418543
 20
-8.5659815488
 30
0.0
 10
14.2202884226
 20
-8.5609194551
 30
0.0
 11
14.220288286
 21
-4.6645338375
 31
0.0
 11
14.1444063097
 21
-4.7130986384
 31
0.0
 11
14.1064653215
 21
-4.7373810389
 31
0.0
 11
14.0685243334
 21
-4.7616634393
 31
0.0
 11
14.0305833452
 21
-4.7859458398
 31
0.0
 11
14.0116128512
 21
-4.79808704
 31
0.0
 11
13.9926423571
 21
-4.8102282402
 31
0.0
 11
13.973671863
 21
-4.8223694404
 31
0.0
 11
13.964186616
 21
-4.8284400405
 31
0.0
 11
13.9547013689
 21
-4.8345106406
 31
0.0
 11
13.9452161219
 21
-4.8405812407
 31
0.0
 11
13.9357308749
 21
-4.8466518409
 31
0.0
 11
13.9309882514
 21
-4.8496871409
 31
0.0
 11
13.9262456278
 21
-4.852722441
 31
0.0
 11
13.9238743161
 21
-4.854240091
 31
0.0
 11
13.9215030043
 21
-4.855757741
 31
0.0
 11
13.9191316926
 21
-4.857275391
 31
0.0
 11
13.9179460367
 21
-4.8580342161
 31
0.0
 11
13.9173532087
 21
-4.8584136286
 31
0.0
 11
13.9167603808
 21
-4.8587930411
 31
0.0
 11
13.9161901335
 21
-4.8593029356
 31
0.0
 11
13.9156198862
 21
-4.8598128301
 31
0.0
 11
13.9144793916
 21
-4.8608326191
 31
0.0
 11
13.9121984023
 21
-4.8628721972
 31
0.0
 11
13.9099174131
 21
-4.8649117752
 31
0.0
 11
13.9076364239
 21
-4.8669513533
 31
0.0
 11
13.9030744454
 21
-4.8710305094
 31
0.0
 11
13.8985124669
 21
-4.8751096655
 31
0.0
 11
13.88938851
 21
-4.8832679777
 31
0.0
 11
13.8802645531
 21
-4.8914262899
 31
0.0
 11
13.8711405962
 21
-4.8995846022
 31
0.0
 11
13.8620166392
 21
-4.9077429144
 31
0.0
 11
13.8437687254
 21
-4.9240595388
 31
0.0
 11
13.8255208115
 21
-4.9403761632
 31
0.0
 11
13.8072728977
 21
-4.9566927877
 31
0.0
 11
13.77077707
 21
-4.9893260366
 31
0.0
 11
13.7342812423
 21
-5.0219592854
 31
0.0
 11
13.7160333284
 21
-5.0382759099
 31
0.0
 11
13.6977854146
 21
-5.0545925343
 31
0.0
 11
13.6795375007
 21
-5.0709091587
 31
0.0
 11
13.6704135438
 21
-5.0790674709
 31
0.0
 11
13.6612895869
 21
-5.0872257832
 31
0.0
 11
13.65216563
 21
-5.0953840954
 31
0.0
 11
13.643041673
 21
-5.1035424076
 31
0.0
 11
13.6384796946
 21
-5.1076215637
 31
0.0
 11
13.6339177161
 21
-5.1117007198
 31
0.0
 11
13.6316367269
 21
-5.1137402979
 31
0.0
 11
13.6293557377
 21
-5.1157798759
 31
0.0
 11
13.6270747484
 21
-5.117819454
 31
0.0
 11
13.6259342538
 21
-5.118839243
 31
0.0
 11
13.6247937592
 21
-5.119859032
 31
0.0
 11
13.6237418669
 21
-5.1211009416
 31
0.0
 11
13.6226899747
 21
-5.1223428512
 31
0.0
 11
13.6205861901
 21
-5.1248266704
 31
0.0
 11
13.6184824056
 21
-5.1273104896
 31
0.0
 11
13.6163786211
 21
-5.1297943088
 31
0.0
 11
13.612171052
 21
-5.1347619471
 31
0.0
 11
13.6079634829
 21
-5.1397295855
 31
0.0
 11
13.5995483448
 21
-5.1496648623
 31
0.0
 11
13.5911332067
 21
-5.159600139
 31
0.0
 11
13.5827180686
 21
-5.1695354158
 31
0.0
 11
13.5743029304
 21
-5.1794706925
 31
0.0
 11
13.5574726542
 21
-5.199341246
 31
0.0
 11
13.5406423779
 21
-5.2192117995
 31
0.0
 11
13.5238121017
 21
-5.239082353
 31
0.0
 11
13.4901515491
 21
-5.27882346
 31
0.0
 11
13.4564909966
 21
-5.318564567
 31
0.0
 11
13.4396607204
 21
-5.3384351205
 31
0.0
 11
13.4228304441
 21
-5.358305674
 31
0.0
 11
13.4060001679
 21
-5.3781762274
 31
0.0
 11
13.3975850297
 21
-5.3881115042
 31
0.0
 11
13.3891698916
 21
-5.3980467809
 31
0.0
 11
13.3807547535
 21
-5.4079820577
 31
0.0
 11
13.3723396154
 21
-5.4179173344
 31
0.0
 11
13.3681320463
 21
-5.4228849728
 31
0.0
 11
13.3639244772
 21
-5.4278526112
 31
0.0
 11
13.3597169082
 21
-5.4328202496
 31
0.0
 11
13.3576131236
 21
-5.4353040687
 31
0.0
 11
13.3565612314
 21
-5.4365459783
 31
0.0
 11
13.3555093391
 21
-5.4377878879
 31
0.0
 11
13.3545710222
 21
-5.4392311799
 31
0.0
 11
13.3536327054
 21
-5.4406744718
 31
0.0
 11
13.3517560716
 21
-5.4435610558
 31
0.0
 11
13.3480028041
 21
-5.4493342236
 31
0.0
 11
13.3442495367
 21
-5.4551073914
 31
0.0
 11
13.3404962692
 21
-5.4608805593
 31
0.0
 11
13.3329897342
 21
-5.472426895
 31
0.0
 11
13.3254831992
 21
-5.4839732307
 31
0.0
 11
13.3179766643
 21
-5.4955195663
 31
0.0
 11
13.3104701293
 21
-5.507065902
 31
0.0
 11
13.2954570594
 21
-5.5301585734
 31
0.0
 11
13.2804439895
 21
-5.5532512447
 31
0.0
 11
13.2654309195
 21
-5.5763439161
 31
0.0
 11
13.2354047797
 21
-5.6225292588
 31
0.0
 11
13.2053786398
 21
-5.6687146016
 31
0.0
 11
13.1903655699
 21
-5.6918072729
 31
0.0
 11
13.1753525
 21
-5.7148999443
 31
0.0
 11
13.1603394301
 21
-5.7379926157
 31
0.0
 11
13.1453263601
 21
-5.761085287
 31
0.0
 11
13.1378198252
 21
-5.7726316227
 31
0.0
 11
13.1303132902
 21
-5.7841779584
 31
0.0
 11
13.1265600227
 21
-5.7899511262
 31
0.0
 11
13.1228067552
 21
-5.7957242941
 31
0.0
 11
13.1190534878
 21
-5.8014974619
 31
0.0
 11
13.117176854
 21
-5.8043840458
 31
0.0
 11
13.1162385372
 21
-5.8058273378
 31
0.0
 11
13.1153002203
 21
-5.8072706297
 31
0.0
 11
13.1145440394
 21
-5.8088098462
 31
0.0
 11
13.1137878585
 21
-5.8103490626
 31
0.0
 11
13.1122754966
 21
-5.8134274955
 31
0.0
 11
13.109250773
 21
-5.8195843613
 31
0.0
 11
13.1062260493
 21
-5.8257412271
 31
0.0
 11
13.1032013257
 21
-5.8318980929
 31
0.0
 11
13.0971518783
 21
-5.8442118245
 31
0.0
 11
13.091102431
 21
-5.8565255561
 31
0.0
 11
13.0790035364
 21
-5.8811530193
 31
0.0
 11
13.0669046418
 21
-5.9057804825
 31
0.0
 11
13.0548057472
 21
-5.9304079457
 31
0.0
 11
13.0427068525
 21
-5.9550354089
 31
0.0
 11
13.0185090633
 21
-6.0042903352
 31
0.0
 11
12.994311274
 21
-6.0535452616
 31
0.0
 11
12.9822123794
 21
-6.0781727248
 31
0.0
 11
12.9701134848
 21
-6.102800188
 31
0.0
 11
12.9580145902
 21
-6.1274276512
 31
0.0
 11
12.9459156955
 21
-6.1520551144
 31
0.0
 11
12.9398662482
 21
-6.164368846
 31
0.0
 11
12.9338168009
 21
-6.1766825775
 31
0.0
 11
12.9307920773
 21
-6.1828394433
 31
0.0
 11
12.9277673536
 21
-6.1889963091
 31
0.0
 11
12.9247426299
 21
-6.1951531749
 31
0.0
 11
12.9232302681
 21
-6.1982316078
 31
0.0
 11
12.9224740872
 21
-6.1997708243
 31
0.0
 11
12.9217179063
 21
-6.2013100407
 31
0.0
 11
12.9211549369
 21
-6.202910471
 31
0.0
 11
12.9205919674
 21
-6.2045109012
 31
0.0
 11
12.9194660286
 21
-6.2077117617
 31
0.0
 11
12.9172141509
 21
-6.2141134827
 31
0.0
 11
12.9149622732
 21
-6.2205152037
 31
0.0
 11
12.9127103956
 21
-6.2269169247
 31
0.0
 11
12.9082066402
 21
-6.2397203666
 31
0.0
 11
12.9037028848
 21
-6.2525238086
 31
0.0
 11
12.8946953741
 21
-6.2781306925
 31
0.0
 11
12.8856878634
 21
-6.3037375765
 31
0.0
 11
12.8766803526
 21
-6.3293444604
 31
0.0
 11
12.8676728419
 21
-6.3549513444
 31
0.0
 11
12.8496578204
 21
-6.4061651122
 31
0.0
 11
12.831642799
 21
-6.4573788801
 31
0.0
 11
12.8226352882
 21
-6.4829857641
 31
0.0
 11
12.8136277775
 21
-6.508592648
 31
0.0
 11
12.8046202668
 21
-6.5341995319
 31
0.0
 11
12.795612756
 21
-6.5598064159
 31
0.0
 11
12.7911090007
 21
-6.5726098578
 31
0.0
 11
12.7866052453
 21
-6.5854132998
 31
0.0
 11
12.7843533676
 21
-6.5918150208
 31
0.0
 11
12.7821014899
 21
-6.5982167418
 31
0.0
 11
12.7798496123
 21
-6.6046184628
 31
0.0
 11
12.7787236734
 21
-6.6078193233
 31
0.0
 11
12.778160704
 21
-6.6094197535
 31
0.0
 11
12.7775977346
 21
-6.6110201837
 31
0.0
 11
12.77724942
 21
-6.6126208679
 31
0.0
 11
12.7769011054
 21
-6.614221552
 31
0.0
 11
12.7762044762
 21
-6.6174229204
 31
0.0
 11
12.7748112178
 21
-6.623825657
 31
0.0
 11
12.7734179594
 21
-6.6302283936
 31
0.0
 11
12.772024701
 21
-6.6366311302
 31
0.0
 11
12.7692381843
 21
-6.6494366034
 31
0.0
 11
12.7664516675
 21
-6.6622420766
 31
0.0
 11
12.7608786339
 21
-6.6878530231
 31
0.0
 11
12.7553056004
 21
-6.7134639695
 31
0.0
 11
12.7497325668
 21
-6.7390749159
 31
0.0
 11
12.7441595333
 21
-6.7646858624
 31
0.0
 11
12.7330134662
 21
-6.8159077552
 31
0.0
 11
12.7218673991
 21
-6.8671296481
 31
0.0
 11
12.7162943655
 21
-6.8927405945
 31
0.0
 11
12.710721332
 21
-6.918351541
 31
0.0
 11
12.7051482984
 21
-6.9439624874
 31
0.0
 11
12.7023617816
 21
-6.9567679606
 31
0.0
 11
12.6995752649
 21
-6.9695734339
 31
0.0
 11
12.6967887481
 21
-6.9823789071
 31
0.0
 11
12.6940022313
 21
-6.9951843803
 31
0.0
 11
12.6926089729
 21
-7.0015871169
 31
0.0
 11
12.6912157145
 21
-7.0079898535
 31
0.0
 11
12.6898224561
 21
-7.0143925901
 31
0.0
 11
12.6891258269
 21
-7.0175939584
 31
0.0
 11
12.6887775123
 21
-7.0191946426
 31
0.0
 11
12.6884291977
 21
-7.0207953267
 31
0.0
 11
12.688308768
 21
-7.0223618788
 31
0.0
 11
12.6881883382
 21
-7.0239284308
 31
0.0
 11
12.6879474787
 21
-7.027061535
 31
0.0
 11
12.6874657596
 21
-7.0333277432
 31
0.0
 11
12.6869840405
 21
-7.0395939514
 31
0.0
 11
12.6865023215
 21
-7.0458601596
 31
0.0
 11
12.6855388833
 21
-7.0583925761
 31
0.0
 11
12.6845754452
 21
-7.0709249925
 31
0.0
 11
12.683612007
 21
-7.083457409
 31
0.0
 11
12.6826485689
 21
-7.0959898255
 31
0.0
 11
12.6807216926
 21
-7.1210546584
 31
0.0
 11
12.6787948163
 21
-7.1461194913
 31
0.0
 11
12.67686794
 21
-7.1711843242
 31
0.0
 11
12.6730141875
 21
-7.22131399
 31
0.0
 11
12.6691604349
 21
-7.2714436558
 31
0.0
 11
12.6672335586
 21
-7.2965084887
 31
0.0
 11
12.6653066823
 21
-7.3215733216
 31
0.0
 11
12.6633798061
 21
-7.3466381545
 31
0.0
 11
12.6624163679
 21
-7.359170571
 31
0.0
 11
12.6614529298
 21
-7.3717029875
 31
0.0
 11
12.6604894916
 21
-7.3842354039
 31
0.0
 11
12.6595260535
 21
-7.3967678204
 31
0.0
 11
12.6590443344
 21
-7.4030340286
 31
0.0
 11
12.6585626153
 21
-7.4093002368
 31
0.0
 11
12.6583217558
 21
-7.4124333409
 31
0.0
 11
12.6580808963
 21
-7.415566445
 31
0.0
 11
12.6578400367
 21
-7.4186995492
 31
0.0
 11
12.657719607
 21
-7.4202661012
 31
0.0
 11
12.6576593921
 21
-7.4210493772
 31
0.0
 11
12.6575991772
 21
-7.4218326533
 31
0.0
 11
12.6576573045
 21
-7.4225416312
 31
0.0
 11
12.6577154318
 21
-7.423250609
 31
0.0
 11
12.6578316863
 21
-7.4246685648
 31
0.0
 11
12.6580641955
 21
-7.4275044763
 31
0.0
 11
12.6582967047
 21
-7.4303403879
 31
0.0
 11
12.6585292138
 21
-7.4331762994
 31
0.0
 11
12.6589942321
 21
-7.4388481224
 31
0.0
 11
12.6594592504
 21
-7.4445199455
 31
0.0
 11
12.660389287
 21
-7.4558635916
 31
0.0
 11
12.6613193236
 21
-7.4672072377
 31
0.0
 11
12.6622493602
 21
-7.4785508838
 31
0.0
 11
12.6631793968
 21
-7.4898945299
 31
0.0
 11
12.66503947
 21
-7.5125818222
 31
0.0
 11
12.6668995432
 21
-7.5352691144
 31
0.0
 11
12.6687596164
 21
-7.5579564066
 31
0.0
 11
12.6724797629
 21
-7.6033309911
 31
0.0
 11
12.6761999093
 21
-7.6487055755
 31
0.0
 11
12.6780599825
 21
-7.6713928677
 31
0.0
 11
12.6799200557
 21
-7.69408016
 31
0.0
 11
12.6817801289
 21
-7.7167674522
 31
0.0
 11
12.6827101655
 21
-7.7281110983
 31
0.0
 11
12.6836402021
 21
-7.7394547444
 31
0.0
 11
12.6845702387
 21
-7.7507983905
 31
0.0
 11
12.6855002753
 21
-7.7621420366
 31
0.0
 11
12.6859652936
 21
-7.7678138597
 31
0.0
 11
12.6864303119
 21
-7.7734856828
 31
0.0
 11
12.6866628211
 21
-7.7763215943
 31
0.0
 11
12.6868953302
 21
-7.7791575058
 31
0.0
 11
12.6871278394
 21
-7.7819934173
 31
0.0
 11
12.6872440939
 21
-7.7834113731
 31
0.0
 11
12.6873022212
 21
-7.784120351
 31
0.0
 11
12.6873603485
 21
-7.7848293289
 31
0.0
 11
12.6875325163
 21
-7.7854511094
 31
0.0
 11
12.6877046841
 21
-7.78607289
 31
0.0
 11
12.6880490198
 21
-7.7873164511
 31
0.0
 11
12.688737691
 21
-7.7898035734
 31
0.0
 11
12.6894263623
 21
-7.7922906957
 31
0.0
 11
12.6901150335
 21
-7.7947778179
 31
0.0
 11
12.691492376
 21
-7.7997520625
 31
0.0
 11
12.6928697185
 21
-7.804726307
 31
0.0
 11
12.6956244035
 21
-7.814674796
 31
0.0
 11
12.6983790885
 21
-7.8246232851
 31
0.0
 11
12.7011337735
 21
-7.8345717742
 31
0.0
 11
12.7038884585
 21
-7.8445202632
 31
0.0
 11
12.7093978286
 21
-7.8644172414
 31
0.0
 11
12.7149071986
 21
-7.8843142195
 31
0.0
 11
12.7204165686
 21
-7.9042111976
 31
0.0
 11
12.7314353086
 21
-7.9440051538
 31
0.0
 11
12.7424540486
 21
-7.9837991101
 31
0.0
 11
12.7479634186
 21
-8.0036960882
 31
0.0
 11
12.7534727886
 21
-8.0235930663
 31
0.0
 11
12.7589821587
 21
-8.0434900444
 31
0.0
 11
12.7617368437
 21
-8.0534385335
 31
0.0
 11
12.7644915287
 21
-8.0633870226
 31
0.0
 11
12.7672462137
 21
-8.0733355116
 31
0.0
 11
12.7700008987
 21
-8.0832840007
 31
0.0
 11
12.7713782412
 21
-8.0882582452
 31
0.0
 11
12.7727555837
 21
-8.0932324897
 31
0.0
 11
12.7734442549
 21
-8.095719612
 31
0.0
 11
12.7741329262
 21
-8.0982067343
 31
0.0
 11
12.7748215974
 21
-8.1006938565
 31
0.0
 11
12.7751659331
 21
-8.1019374177
 31
0.0
 11
12.7753381009
 21
-8.1025591982
 31
0.0
 11
12.7755102687
 21
-8.1031809788
 31
0.0
 11
12.7757899192
 21
-8.1036918786
 31
0.0
 11
12.7760695697
 21
-8.1042027784
 31
0.0
 11
12.7766288708
 21
-8.1052245781
 31
0.0
 11
12.7777474728
 21
-8.1072681774
 31
0.0
 11
12.7788660749
 21
-8.1093117767
 31
0.0
 11
12.779984677
 21
-8.111355376
 31
0.0
 11
12.7822218812
 21
-8.1154425745
 31
0.0
 11
12.7844590853
 21
-8.1195297731
 31
0.0
 11
12.7889334936
 21
-8.1277041703
 31
0.0
 11
12.7934079019
 21
-8.1358785674
 31
0.0
 11
12.7978823102
 21
-8.1440529646
 31
0.0
 11
12.8023567186
 21
-8.1522273617
 31
0.0
 11
12.8113055352
 21
-8.168576156
 31
0.0
 11
12.8202543518
 21
-8.1849249503
 31
0.0
 11
12.8292031684
 21
-8.2012737446
 31
0.0
 11
12.8471008017
 21
-8.2339713332
 31
0.0
 11
12.8649984349
 21
-8.2666689218
 31
0.0
 11
12.8739472515
 21
-8.2830177161
 31
0.0
 11
12.8828960682
 21
-8.2993665104
 31
0.0
 11
12.8918448848
 21
-8.3157153047
 31
0.0
 11
12.8963192931
 21
-8.3238897019
 31
0.0
 11
12.9007937014
 21
-8.332064099
 31
0.0
 11
12.9052681097
 21
-8.3402384962
 31
0.0
 11
12.909742518
 21
-8.3484128933
 31
0.0
 11
12.9119797222
 21
-8.3525000919
 31
0.0
 11
12.9142169263
 21
-8.3565872905
 31
0.0
 11
12.9153355284
 21
-8.3586308898
 31
0.0
 11
12.9164541305
 21
-8.3606744891
 31
0.0
 11
12.9175727326
 21
-8.3627180884
 31
0.0
 11
12.9181320336
 21
-8.363739888
 31
0.0
 11
12.9184116841
 21
-8.3642507878
 31
0.0
 11
12.9186913347
 21
-8.3647616876
 31
0.0
 11
12.9190753364
 21
-8.3651477612
 31
0.0
 11
12.9194593381
 21
-8.3655338348
 31
0.0
 11
12.9202273416
 21
-8.3663059821
 31
0.0
 11
12.9217633485
 21
-8.3678502765
 31
0.0
 11
12.9232993554
 21
-8.3693945709
 31
0.0
 11
12.9248353623
 21
-8.3709388653
 31
0.0
 11
12.9279073762
 21
-8.3740274541
 31
0.0
 11
12.93097939
 21
-8.3771160429
 31
0.0
 11
12.9371234177
 21
-8.3832932206
 31
0.0
 11
12.9432674454
 21
-8.3894703982
 31
0.0
 11
12.949411473
 21
-8.3956475758
 31
0.0
 11
12.9555555007
 21
-8.4018247535
 31
0.0
 11
12.9678435561
 21
-8.4141791087
 31
0.0
 11
12.9801316114
 21
-8.426533464
 31
0.0
 11
12.9924196668
 21
-8.4388878193
 31
0.0
 11
13.0169957775
 21
-8.4635965298
 31
0.0
 11
13.0415718882
 21
-8.4883052404
 31
0.0
 11
13.0538599435
 21
-8.5006595957
 31
0.0
 11
13.0661479989
 21
-8.5130139509
 31
0.0
 11
13.0784360542
 21
-8.5253683062
 31
0.0
 11
13.0845800819
 21
-8.5315454838
 31
0.0
 11
13.0907241096
 21
-8.5377226615
 31
0.0
 11
13.0968681373
 21
-8.5438998391
 31
0.0
 11
13.1030121649
 21
-8.5500770168
 31
0.0
 11
13.1060841788
 21
-8.5531656056
 31
0.0
 11
13.1091561926
 21
-8.5562541944
 31
0.0
 11
13.1106921995
 21
-8.5577984888
 31
0.0
 11
13.1122282064
 21
-8.5593427832
 31
0.0
 11
13.1137642134
 21
-8.5608870776
 31
0.0
 11
13.1145322168
 21
-8.5616592248
 31
0.0
 11
13.1149162186
 21
-8.5620452984
 31
0.0
 11
13.1153002203
 21
-8.562431372
 31
0.0
 11
13.1157605151
 21
-8.5626644099
 31
0.0
 11
13.11622081
 21
-8.5628974479
 31
0.0
 11
13.1171413997
 21
-8.5633635237
 31
0.0
 11
13.1189825791
 21
-8.5642956753
 31
0.0
 11
13.1208237585
 21
-8.565227827
 31
0.0
 11
13.122664938
 21
-8.5661599786
 31
0.0
 11
13.1263472968
 21
-8.5680242819
 31
0.0
 11
13.1300296557
 21
-8.5698885852
 31
0.0
 11
13.1373943734
 21
-8.5736171918
 31
0.0
 11
13.144759091
 21
-8.5773457984
 31
0.0
 11
13.1521238087
 21
-8.581074405
 31
0.0
 11
13.1594885264
 21
-8.5848030115
 31
0.0
 11
13.1742179618
 21
-8.5922602247
 31
0.0
 11
13.1889473972
 21
-8.5997174379
 31
0.0
 11
13.2036768326
 21
-8.6071746511
 31
0.0
 11
13.2331357033
 21
-8.6220890774
 31
0.0
 11
13.2625945741
 21
-8.6370035037
 31
0.0
 11
13.2773240095
 21
-8.6444607169
 31
0.0
 11
13.2920534449
 21
-8.6519179301
 31
0.0
 11
13.3067828802
 21
-8.6593751433
 31
0.0
 11
13.3141475979
 21
-8.6631037498
 31
0.0
 11
13.3215123156
 21
-8.6668323564
 31
0.0
 11
13.3288770333
 21
-8.670560963
 31
0.0
 11
13.336241751
 21
-8.6742895696
 31
0.0
 11
13.3399241098
 21
-8.6761538729
 31
0.0
 11
13.3436064687
 21
-8.6780181762
 31
0.0
 11
13.3454476481
 21
-8.6789503278
 31
0.0
 11
13.3472888275
 21
-8.6798824795
 31
0.0
 11
13.349130007
 21
-8.6808146311
 31
0.0
 11
13.3500505967
 21
-8.6812807069
 31
0.0
 11
13.3505108915
 21
-8.6815137449
 31
0.0
 11
13.3509711864
 21
-8.6817467828
 31
0.0
 11
13.3514961532
 21
-8.6818258982
 31
0.0
 11
13.3520211199
 21
-8.6819050135
 31
0.0
 11
13.3530710534
 21
-8.6820632443
 31
0.0
 11
13.3551709205
 21
-8.6823797059
 31
0.0
 11
13.3572707876
 21
-8.6826961674
 31
0.0
 11
13.3593706546
 21
-8.683012629
 31
0.0
 11
13.3635703888
 21
-8.683645552
 31
0.0
 11
13.3677701229
 21
-8.6842784751
 31
0.0
 11
13.3761695912
 21
-8.6855443213
 31
0.0
 11
13.3845690594
 21
-8.6868101675
 31
0.0
 11
13.3929685277
 21
-8.6880760137
 31
0.0
 11
13.4013679959
 21
-8.6893418599
 31
0.0
 11
13.4181669325
 21
-8.6918735523
 31
0.0
 11
13.434965869
 21
-8.6944052446
 31
0.0
 11
13.4517648055
 21
-8.696936937
 31
0.0
 11
13.4853626786
 21
-8.7020003217
 31
0.0
 11
13.5189605516
 21
-8.7070637065
 31
0.0
 11
13.5357594881
 21
-8.7095953988
 31
0.0
 11
13.5525584246
 21
-8.7121270912
 31
0.0
 11
13.5693573612
 21
-8.7146587836
 31
0.0
 11
13.5777568294
 21
-8.7159246298
 31
0.0
 11
13.5861562977
 21
-8.717190476
 31
0.0
 11
13.5945557659
 21
-8.7184563221
 31
0.0
 11
13.6029552342
 21
-8.7197221683
 31
0.0
 11
13.6071549683
 21
-8.7203550914
 31
0.0
 11
13.6113547025
 21
-8.7209880145
 31
0.0
 11
13.6134545695
 21
-8.7213044761
 31
0.0
 11
13.6155544366
 21
-8.7216209376
 31
0.0
 11
13.6176543037
 21
-8.7219373992
 31
0.0
 11
13.6187042372
 21
-8.7220956299
 31
0.0
 11
13.619229204
 21
-8.7221747453
 31
0.0
 11
13.6197541707
 21
-8.7222538607
 31
0.0
 11
13.6203238136
 21
-8.7221760401
 31
0.0
 11
13.6208934564
 21
-8.7220982195
 31
0.0
 11
13.6220327421
 21
-8.7219425782
 31
0.0
 11
13.6243113136
 21
-8.7216312957
 31
0.0
 11
13.626589885
 21
-8.7213200133
 31
0.0
 11
13.6288684564
 21
-8.7210087308
 31
0.0
 11
13.6334255993
 21
-8.7203861658
 31
0.0
 11
13.6379827421
 21
-8.7197636009
 31
0.0
 11
13.6470970278
 21
-8.718518471
 31
0.0
 11
13.6562113135
 21
-8.7172733411
 31
0.0
 11
13.6653255992
 21
-8.7160282112
 31
0.0
 11
13.6744398849
 21
-8.7147830813
 31
0.0
 11
13.6926684563
 21
-8.7122928215
 31
0.0
 11
13.7108970277
 21
-8.7098025617
 31
0.0
 11
13.729125599
 21
-8.7073123019
 31
0.0
 11
13.7655827418
 21
-8.7023317823
 31
0.0
 11
13.8020398846
 21
-8.6973512626
 31
0.0
 11
13.820268456
 21
-8.6948610028
 31
0.0
 11
13.8384970274
 21
-8.692370743
 31
0.0
 11
13.8567255988
 21
-8.6898804832
 31
0.0
 11
13.8658398844
 21
-8.6886353533
 31
0.0
 11
13.8749541701
 21
-8.6873902234
 31
0.0
 11
13.8840684558
 21
-8.6861450935
 31
0.0
 11
13.8931827415
 21
-8.6848999636
 31
0.0
 11
13.8977398844
 21
-8.6842773987
 31
0.0
 11
13.9022970272
 21
-8.6836548337
 31
0.0
 11
13.9045755986
 21
-8.6833435512
 31
0.0
 11
13.9068541701
 21
-8.6830322688
 31
0.0
 11
13.9091327415
 21
-8.6827209863
 31
0.0
 11
13.9102720272
 21
-8.682565345
 31
0.0
 11
13.9108416701
 21
-8.6824875244
 31
0.0
 11
13.9114113129
 21
-8.6824097038
 31
0.0
 11
13.9120145885
 21
-8.6821724182
 31
0.0
 11
13.9126178641
 21
-8.6819351325
 31
0.0
 11
13.9138244153
 21
-8.6814605612
 31
0.0
 11
13.9162375178
 21
-8.6805114187
 31
0.0
 11
13.9186506202
 21
-8.6795622761
 31
0.0
 11
13.9210637226
 21
-8.6786131335
 31
0.0
 11
13.9258899274
 21
-8.6767148484
 31
0.0
 11
13.9307161323
 21
-8.6748165633
 31
0.0
 11
13.940368542
 21
-8.671019993
 31
0.0
 11
13.9500209516
 21
-8.6672234227
 31
0.0
 11
13.9596733613
 21
-8.6634268524
 31
0.0
 11
13.969325771
 21
-8.6596302822
 31
0.0
 11
13.9886305903
 21
-8.6520371416
 31
0.0
 11
14.0079354097
 21
-8.6444440011
 31
0.0
 11
14.0272402291
 21
-8.6368508605
 31
0.0
 11
14.0658498678
 21
-8.6216645794
 31
0.0
 11
14.1044595065
 21
-8.6064782983
 31
0.0
 11
14.1430691452
 21
-8.5912920173
 31
0.0
 11
14.1816787839
 21
-8.5761057362
 31
0.0
 11
14.2202884226
 21
-8.5609194551
 31
0.0
  0
SPLINE
  5
528
100
AcDbEntity
  8
0
100
AcDbSpline
 62
252
  6
CONTINUOUS
 70
0
 71
3
 72
21
 73
17
 74
15
 42
0.0000001
 43
0.0000001
 44
0.0000000001
 12
-0.2178497145
 22
-7.0338962814
 32
0.0
 13
0.2088653953
 23
7.0436357661
 33
0.0
 40
0.0
 40
0.0
 40
0.0
 40
0.0
 40
0.0731707317
 40
0.1463414634
 40
0.2195121951
 40
0.2926829268
 40
0.3658536585
 40
0.4390243902
 40
0.512195122
 40
0.5853658537
 40
0.6585365854
 40
0.7317073171
 40
0.8048780488
 40
0.8780487805
 40
0.9512195122
 40
1.0
 40
1.0
 40
1.0
 40
1.0
 10
9.671485892
 20
12.0916857851
 30
0.0
 10
9.6661724843
 20
11.9201273392
 30
0.0
 10
9.6868505345
 20
11.5904033116
 30
0.0
 10
9.810300699
 20
11.1669567186
 30
0.0
 10
10.0196412339
 20
10.8356358739
 30
0.0
 10
10.3038573701
 20
10.6142436546
 30
0.0
 10
10.6479768911
 20
10.5143459991
 30
0.0
 10
11.0338762569
 20
10.5412297379
 30
0.0
 10
11.4412304489
 20
10.6934720294
 30
0.0
 10
11.8485846984
 20
10.9630567614
 30
0.0
 10
12.2344842336
 20
11.3357830138
 30
0.0
 10
12.5786040271
 20
11.7920264818
 30
0.0
 10
12.8628205244
 20
12.3077328798
 30
0.0
 10
13.0721614901
 20
12.8558320985
 30
0.0
 10
13.1818953941
 20
13.3458614672
 30
0.0
 10
13.2076859978
 20
13.6407512741
 30
0.0
 10
13.2110821831
 20
13.7552819369
 30
0.0
 11
9.671485892
 21
12.0916857851
 31
0.0
 11
9.7022560494
 21
11.6022598864
 31
0.0
 11
9.8246157607
 21
11.18231101
 31
0.0
 11
10.0321205008
 21
10.8539573115
 31
0.0
 11
10.3138412676
 21
10.6344927486
 31
0.0
 11
10.6549401985
 21
10.5354762315
 31
0.0
 11
11.0374520612
 21
10.56212283
 31
0.0
 11
11.4412304585
 21
10.7130291028
 31
0.0
 11
11.8450089127
 21
10.9802470148
 31
0.0
 11
12.2275209433
 21
11.3497025497
 31
0.0
 11
12.5686201444
 21
11.8019369701
 31
0.0
 11
12.8503412691
 21
12.3131316832
 31
0.0
 11
13.0578464362
 21
12.8563627353
 31
0.0
 11
13.1802066211
 21
13.4030188608
 31
0.0
 11
13.2110821831
 21
13.7552819369
 31
0.0
  0
SPLINE
  5
529
100
AcDbEntity
  8
0
100
AcDbSpline
 62
252
  6
CONTINUOUS
 70
0
 71
3
 72
12
 73
8
 74
6
 42
0.0000001
 43
0.0000001
 44
0.0000000001
 12
-1.7262694072
 22
-0.4353144712
 32
0.0
 13
0.0980553971
 23
2.2481146901
 33
0.0
 40
0.0
 40
0.0
 40
0.0
 40
0.0
 40
0.2
 40
0.4
 40
0.6
 40
0.8
 40
1.0
 40
1.0
 40
1.0
 40
1.0
 10
11.1807746919
 20
11.2618964174
 30
0.0
 10
11.0656900647
 20
11.2328754527
 30
0.0
 10
10.8412139566
 20
11.2191997674
 30
0.0
 10
10.5533832715
 20
11.3346293087
 30
0.0
 10
10.3360592569
 20
11.5765907578
 30
0.0
 10
10.2069044432
 20
11.925419231
 30
0.0
 10
10.1864307429
 20
12.2118140204
 30
0.0
 10
10.1929677694
 20
12.3616883331
 30
0.0
 11
11.1807746919
 21
11.2618964174
 31
0.0
 11
10.8493612028
 21
11.2418569456
 31
0.0
 11
10.5651343833
 21
11.35571796
 31
0.0
 11
10.3507541237
 21
11.5944019285
 31
0.0
 11
10.2233118204
 21
11.9388798495
 31
0.0
 11
10.1929677694
 21
12.3616883331
 31
0.0
  0
SPLINE
  5
52A
100
AcDbEntity
  8
0
100
AcDbSpline
 62
252
  6
CONTINUOUS
 70
0
 71
3
 72
12
 73
8
 74
6
 42
0.0000001
 43
0.0000001
 44
0.0000000001
 12
0.0980581764
 22
-2.1465715006
 32
0.0
 13
-1.7262674249
 23
-1.35228976
 33
0.0
 40
0.0
 40
0.0
 40
0.0
 40
0.0
 40
0.2
 40
0.4
 40
0.6
 40
0.8
 40
1.0
 40
1.0
 40
1.0
 40
1.0
 10
12.6894930871
 20
13.6543045515
 30
0.0
 10
12.6960302989
 20
13.5111997848
 30
0.0
 10
12.6755569848
 20
13.2036043117
 30
0.0
 10
12.5464027459
 20
12.7210326072
 30
0.0
 10
12.3290792721
 20
12.2540258732
 30
0.0
 10
12.0412490739
 20
11.8405391045
 30
0.0
 10
11.8167732493
 20
11.6217630115
 30
0.0
 10
11.7016887543
 20
11.5316103608
 30
0.0
 11
12.6894930871
 21
13.6543045515
 31
0.0
 11
12.6591496068
 21
13.2000745626
 31
0.0
 11
12.5317078734
 21
12.7236267689
 31
0.0
 11
12.3173281514
 21
12.2629458674
 31
0.0
 11
12.0331018175
 21
11.8547595427
 31
0.0
 11
11.7016887543
 21
11.5316103608
 31
0.0
  0
SPLINE
  5
52B
100
AcDbEntity
  8
0
100
AcDbSpline
 62
252
  6
CONTINUOUS
 70
0
 71
3
 72
21
 73
17
 74
15
 42
0.0000001
 43
0.0000001
 44
0.0000000001
 12
-0.2178431
 22
-7.0338903411
 32
0.0
 13
0.2088651532
 23
7.0436327971
 33
0.0
 40
0.0
 40
0.0
 40
0.0
 40
0.0
 40
0.0731707317
 40
0.1463414634
 40
0.2195121951
 40
0.2926829268
 40
0.3658536585
 40
0.4390243902
 40
0.512195122
 40
0.5853658537
 40
0.6585365854
 40
0.7317073171
 40
0.8048780488
 40
0.8780487805
 40
0.9512195122
 40
1.0
 40
1.0
 40
1.0
 40
1.0
 10
9.671485892
 20
8.2940665287
 30
0.0
 10
9.6661726456
 20
8.1225082277
 30
0.0
 10
9.6868509968
 20
7.7927845271
 30
0.0
 10
9.8103015201
 20
7.3693384841
 30
0.0
 10
10.0196423084
 20
7.0380182056
 30
0.0
 10
10.303858587
 20
6.8166265258
 30
0.0
 10
10.6479781427
 20
6.7167293462
 30
0.0
 10
11.0338774469
 20
6.7436134685
 30
0.0
 10
11.4412314991
 20
6.8958560319
 30
0.0
 10
11.8485855535
 20
7.1654409157
 30
0.0
 10
12.2344848641
 20
7.5381672021
 30
0.0
 10
12.5786044301
 20
7.9944105987
 30
0.0
 10
12.8628207223
 20
8.5101168414
 30
0.0
 10
13.072161527
 20
9.0582158485
 30
0.0
 10
13.1818953415
 20
9.548245008
 30
0.0
 10
13.207685922
 20
9.843134688
 30
0.0
 10
13.2110821034
 20
9.9576653026
 30
0.0
 11
9.671485892
 21
8.2940665287
 31
0.0
 11
9.7022564962
 21
7.8046411117
 31
0.0
 11
9.8246165643
 21
7.3846927782
 31
0.0
 11
10.0321215568
 21
7.0563396387
 31
0.0
 11
10.3138424666
 21
6.8368756092
 31
0.0
 11
10.6549414342
 21
6.7378595632
 31
0.0
 11
11.0374532383
 21
6.764506542
 31
0.0
 11
11.4412314995
 21
6.9154130853
 31
0.0
 11
11.8450097629
 21
7.1826311495
 31
0.0
 11
12.2275215734
 21
7.5520867205
 31
0.0
 11
12.5686205511
 21
8.0043210731
 31
0.0
 11
12.8503414744
 21
8.5155156354
 31
0.0
 11
13.0578464831
 21
9.0587464814
 31
0.0
 11
13.180206569
 21
9.6054023768
 31
0.0
 11
13.2110821034
 21
9.9576653026
 31
0.0
  0
SPLINE
  5
52C
100
AcDbEntity
  8
0
100
AcDbSpline
 62
252
  6
CONTINUOUS
 70
0
 71
3
 72
20
 73
16
 74
14
 42
0.0000001
 43
0.0000001
 44
0.0000000001
 12
0.2195544724
 22
-4.8063724206
 32
0.0
 13
-0.1106552102
 23
4.8801925334
 33
0.0
 40
0.0
 40
0.0
 40
0.0
 40
0.0
 40
0.0789473684
 40
0.1578947368
 40
0.2368421053
 40
0.3157894737
 40
0.3947368421
 40
0.4736842105
 40
0.5526315789
 40
0.6315789474
 40
0.7105263158
 40
0.7894736842
 40
0.8684210526
 40
0.9473684211
 40
1.0
 40
1.0
 40
1.0
 40
1.0
 10
12.6894953156
 20
9.8566865553
 30
0.0
 10
12.6952730649
 20
9.7302030706
 30
0.0
 10
12.6806945425
 20
9.4607258162
 30
0.0
 10
12.5815913873
 20
9.0364278661
 30
0.0
 10
12.4114773482
 20
8.6173280051
 30
0.0
 10
12.1809331585
 20
8.2298347515
 30
0.0
 10
11.9043209341
 20
7.8979991037
 30
0.0
 10
11.5988671521
 20
7.6425097946
 30
0.0
 10
11.2835958512
 20
7.4792733121
 30
0.0
 10
10.9781420741
 20
7.4184559966
 30
0.0
 10
10.701529859
 20
7.4638513269
 30
0.0
 10
10.4709856825
 20
7.612609108
 30
0.0
 10
10.3008716598
 20
7.8555507463
 30
0.0
 10
10.2127799828
 20
8.141482876
 30
0.0
 10
10.1934798015
 20
8.3479207787
 30
0.0
 10
10.191538482
 20
8.4335381915
 30
0.0
 11
12.6894953156
 21
9.8566865553
 31
0.0
 11
12.6678219806
 21
9.4573788048
 31
0.0
 11
12.56975624
 21
9.0372942143
 31
0.0
 11
12.4014056565
 21
8.622595773
 31
0.0
 11
12.1732551527
 21
8.2391110191
 31
0.0
 11
11.8995140078
 21
7.9107234935
 31
0.0
 11
11.597230899
 21
7.6578852657
 31
0.0
 11
11.2852321052
 21
7.4963431733
 31
0.0
 11
10.9829490011
 21
7.4361581043
 31
0.0
 11
10.7092078654
 21
7.481078402
 31
0.0
 11
10.4810573748
 21
7.6283064175
 31
0.0
 11
10.3127068075
 21
7.8686727476
 31
0.0
 11
10.2146410852
 21
8.187207308
 31
0.0
 11
10.191538482
 21
8.4335381915
 31
0.0
  0
SPLINE
  5
52D
100
AcDbEntity
  8
0
100
AcDbSpline
 62
252
  6
CONTINUOUS
 70
0
 71
3
 72
8
 73
4
 74
2
 42
0.0000001
 43
0.0000001
 44
0.0000000001
 12
-0.0029119792
 22
0.1284261193
 32
0.0
 13
0.0057777557
 23
0.1324665221
 33
0.0
 40
0.0
 40
0.0
 40
0.0
 40
0.0
 40
1.0
 40
1.0
 40
1.0
 40
1.0
 10
10.191538482
 20
8.4335381915
 30
0.0
 10
10.1905678223
 20
8.476346898
 30
0.0
 10
10.1910418508
 20
8.5199161674
 30
0.0
 10
10.1929677694
 20
8.5640716747
 30
0.0
 11
10.191538482
 21
8.4335381915
 31
0.0
 11
10.1929677694
 21
8.5640716747
 31
0.0
  0
SPLINE
  5
52E
100
AcDbEntity
  8
RACCORDO
100
AcDbSpline
 62
7
  6
CONTINUOUS
 70
0
 71
3
 72
9
 73
5
 74
3
 42
0.0000001
 43
0.0000001
 44
0.0000000001
 12
-0.0004064978
 22
0.0259299962
 32
0.0
 13
-0.0020641494
 23
0.0258509038
 33
0.0
 40
0.0
 40
0.0
 40
0.0
 40
0.0
 40
0.2485360477
 40
1.0
 40
1.0
 40
1.0
 40
1.0
 10
6.8383071263
 20
22.1657635125
 30
0.0
 10
6.8382734498
 20
22.1679116921
 30
0.0
 10
6.8380698127
 20
22.1765539602
 30
0.0
 10
6.8375610823
 20
22.1851879198
 30
0.0
 10
6.8370440376
 20
22.1916632605
 30
0.0
 11
6.8383071263
 21
22.1657635125
 31
0.0
 11
6.8381533818
 21
22.1722070092
 31
0.0
 11
6.8370440376
 21
22.1916632605
 31
0.0
  0
SPLINE
  5
52F
100
AcDbEntity
  8
RACCORDO
100
AcDbSpline
 62
7
  6
CONTINUOUS
 70
0
 71
3
 72
9
 73
5
 74
3
 42
0.0000001
 43
0.0000001
 44
0.0000000001
 12
-0.0005033316
 22
-0.0035205451
 32
0.0
 13
-0.0017156907
 23
-0.0031151222
 33
0.0
 40
0.0
 40
0.0
 40
0.0
 40
0.0
 40
0.211301006
 40
1.0
 40
1.0
 40
1.0
 40
1.0
 10
6.8383071263
 20
-15.3521806899
 30
0.0
 10
6.8382716748
 20
-15.3524286548
 30
0.0
 10
6.838020794
 20
-15.3535908649
 30
0.0
 10
6.8374950921
 20
-15.3546734744
 30
0.0
 10
6.8370440376
 20
-15.355492439
 30
0.0
 11
6.8383071263
 21
-15.3521806899
 31
0.0
 11
6.8381533818
 21
-15.3529162531
 31
0.0
 11
6.8370440376
 21
-15.355492439
 31
0.0
  0
SPLINE
  5
530
100
AcDbEntity
  8
RACCORDO
100
AcDbSpline
 62
7
  6
CONTINUOUS
 70
0
 71
3
 72
9
 73
5
 74
3
 42
0.0000001
 43
0.0000001
 44
0.0000000001
 12
0.003195696
 22
0.0016680086
 32
0.0
 13
-0.0000093949
 23
0.0036048076
 33
0.0
 40
0.0
 40
0.0
 40
0.0
 40
0.0
 40
0.5036977787
 40
1.0
 40
1.0
 40
1.0
 40
1.0
 10
6.8365733281
 20
21.5804696731
 30
0.0
 10
6.8371098831
 20
21.5807497305
 30
0.0
 10
6.8380967232
 20
21.5815728575
 30
0.0
 10
6.8383552427
 20
21.582827629
 30
0.0
 10
6.8383536885
 20
21.583423987
 30
0.0
 11
6.8365733281
 21
21.5804696731
 31
0.0
 11
6.8379192382
 21
21.5816884582
 31
0.0
 11
6.8383536885
 21
21.583423987
 31
0.0
  0
SPLINE
  5
531
100
AcDbEntity
  8
RACCORDO
100
AcDbSpline
 62
7
  6
CONTINUOUS
 70
0
 71
3
 72
10
 73
6
 74
4
 42
0.0000001
 43
0.0000001
 44
0.0000000001
 12
-0.431001698
 22
0.4732084891
 32
0.0
 13
-0.5725276644
 23
0.286183178
 33
0.0
 40
0.0
 40
0.0
 40
0.0
 40
0.0
 40
0.506838871
 40
0.7558957822
 40
1.0
 40
1.0
 40
1.0
 40
1.0
 10
6.8370440376
 20
22.1916632605
 30
0.0
 10
6.7642278996
 20
22.2716100793
 30
0.0
 10
6.6468712097
 20
22.3835668127
 30
0.0
 10
6.4741829967
 20
22.5092600021
 30
0.0
 10
6.3829552199
 20
22.5622494509
 30
0.0
 10
6.3363697474
 20
22.5855356245
 30
0.0
 11
6.8370440376
 21
22.1916632605
 31
0.0
 11
6.6009247316
 21
22.4141286004
 31
0.0
 11
6.4717809534
 21
22.5075877284
 31
0.0
 11
6.3363697474
 21
22.5855356245
 31
0.0
  0
SPLINE
  5
532
100
AcDbEntity
  8
RACCORDO
100
AcDbSpline
 62
7
  6
CONTINUOUS
 70
0
 71
3
 72
11
 73
7
 74
5
 42
0.0000001
 43
0.0000001
 44
0.0000000001
 12
0.4104598159
 22
0.2008428369
 32
0.0
 13
0.4087143287
 23
-0.2043714832
 33
0.0
 40
0.0
 40
0.0
 40
0.0
 40
0.0
 40
0.2787325875
 40
0.5346772883
 40
0.772449667
 40
1.0
 40
1.0
 40
1.0
 40
1.0
 10
2.6691263803
 20
24.1732863749
 30
0.0
 10
2.7072625558
 20
24.1919468561
 30
0.0
 10
2.7834935454
 20
24.2220333056
 30
0.0
 10
2.9001627481
 20
24.2430874798
 30
0.0
 10
3.0109708992
 20
24.2369750855
 30
0.0
 10
3.0791822378
 20
24.2141299566
 30
0.0
 10
3.110183265
 20
24.1986283569
 30
0.0
 11
2.6691263803
 21
24.1732863749
 31
0.0
 11
2.7879723874
 21
24.2190996872
 31
0.0
 11
2.9032513505
 21
24.2388419223
 31
0.0
 11
3.0116859093
 21
24.231953129
 31
0.0
 11
3.110183265
 21
24.1986283569
 31
0.0
  0
SPLINE
  5
533
100
AcDbEntity
  8
RACCORDO
100
AcDbSpline
 62
7
  6
CONTINUOUS
 70
0
 71
3
 72
14
 73
10
 74
8
 42
0.0000001
 43
0.0000001
 44
0.0000000001
 12
0.0
 22
0.630991571
 32
0.0
 13
-0.5643681094
 23
0.2822038267
 33
0.0
 40
0.0
 40
0.0
 40
0.0
 40
0.0
 40
0.2891525564
 40
0.4227177506
 40
0.5489643138
 40
0.668508974
 40
0.7824375212
 40
0.892292605
 40
1.0
 40
1.0
 40
1.0
 40
1.0
 10
-0.8725781181
 20
25.7790823847
 30
0.0
 10
-0.8725781181
 20
25.8398999933
 30
0.0
 10
-0.8801645748
 20
25.9292914179
 30
0.0
 10
-0.9091640056
 20
26.0412780934
 30
0.0
 10
-0.9386136523
 20
26.115687584
 30
0.0
 10
-0.9760219636
 20
26.1817581985
 30
0.0
 10
-1.021011314
 20
26.2386497577
 30
0.0
 10
-1.0730490075
 20
26.2855551202
 30
0.0
 10
-1.1121952159
 20
26.3098168874
 30
0.0
 10
-1.1324574222
 20
26.3199487004
 30
0.0
 11
-0.8725781181
 21
25.7790823847
 31
0.0
 11
-0.8898555557
 21
25.9607153217
 31
0.0
 11
-0.9112538117
 21
26.0422320818
 31
0.0
 11
-0.9408433783
 21
26.1161932577
 31
0.0
 11
-0.9782614853
 21
26.1816899947
 31
0.0
 11
-1.0230497529
 21
26.2379206703
 31
0.0
 11
-1.0746591943
 21
26.2841959299
 31
0.0
 11
-1.1324574222
 21
26.3199487004
 31
0.0
  0
SPLINE
  5
534
100
AcDbEntity
  8
RACCORDO
100
AcDbSpline
 62
7
  6
CONTINUOUS
 70
0
 71
3
 72
11
 73
7
 74
5
 42
0.0000001
 43
0.0000001
 44
0.0000000001
 12
0.0557205746
 22
0.0171953145
 32
0.0
 13
0.0521861977
 23
-0.026020416
 33
0.0
 40
0.0
 40
0.0
 40
0.0
 40
0.0
 40
0.368058145
 40
0.6517558087
 40
0.8584037383
 40
1.0
 40
1.0
 40
1.0
 40
1.0
 10
-4.4158450161
 20
27.9258742267
 30
0.0
 10
-4.409008879
 20
27.9279838519
 30
0.0
 10
-4.3968153176
 20
27.9314353101
 30
0.0
 10
-4.3803992593
 20
27.9346760238
 30
0.0
 10
-4.3681445998
 20
27.9355209116
 30
0.0
 10
-4.3612701152
 20
27.9343521253
 30
0.0
 10
-4.3588069917
 20
27.933123994
 30
0.0
 11
-4.4158450161
 21
27.9258742267
 31
0.0
 11
-4.3951507471
 21
27.9315660484
 31
0.0
 11
-4.3788817545
 21
27.9345666889
 31
0.0
 11
-4.3668403976
 21
27.9350323815
 31
0.0
 11
-4.3588069917
 21
27.933123994
 31
0.0
  0
SPLINE
  5
535
100
AcDbEntity
  8
RACCORDO
100
AcDbSpline
 62
7
  6
CONTINUOUS
 70
0
 71
3
 72
9
 73
5
 74
3
 42
0.0000001
 43
0.0000001
 44
0.0000000001
 12
-0.0189527949
 22
-0.0058488139
 32
0.0
 13
-0.0177371727
 23
-0.0088774864
 33
0.0
 40
0.0
 40
0.0
 40
0.0
 40
0.0
 40
0.2476285508
 40
1.0
 40
1.0
 40
1.0
 40
1.0
 10
-4.4158450161
 20
27.9258742267
 30
0.0
 10
-4.4174094338
 20
27.925391449
 30
0.0
 10
-4.4236841234
 20
27.9233041928
 30
0.0
 10
-4.4297763675
 20
27.9206780875
 30
0.0
 10
-4.4342246816
 20
27.9184516984
 30
0.0
 11
-4.4158450161
 21
27.9258742267
 31
0.0
 11
-4.4205058308
 21
27.9243246784
 31
0.0
 11
-4.4342246816
 21
27.9184516984
 31
0.0
  0
SPLINE
  5
536
100
AcDbEntity
  8
RACCORDO
100
AcDbSpline
 62
7
  6
CONTINUOUS
 70
0
 71
3
 72
9
 73
5
 74
3
 42
0.0000001
 43
0.0000001
 44
0.0000000001
 12
0.7619046921
 22
0.4348977983
 32
0.0
 13
0.7317139158
 23
0.4839727266
 33
0.0
 40
0.0
 40
0.0
 40
0.0
 40
0.0
 40
0.528469183
 40
1.0
 40
1.0
 40
1.0
 40
1.0
 10
6.0900571491
 20
-15.8153335041
 30
0.0
 10
6.2242715325
 20
-15.7387234761
 30
0.0
 10
6.475401181
 20
-15.588764775
 30
0.0
 10
6.7220354841
 20
-15.4315617907
 30
0.0
 10
6.8370440376
 20
-15.355492439
 30
0.0
 11
6.0900571491
 21
-15.8153335041
 31
0.0
 11
6.4884446342
 21
-15.5782031905
 31
0.0
 11
6.8370440376
 21
-15.355492439
 31
0.0
  0
SPLINE
  5
537
100
AcDbEntity
  8
RACCORDO
100
AcDbSpline
 62
7
  6
CONTINUOUS
 70
0
 71
3
 72
9
 73
5
 74
3
 42
0.0000001
 43
0.0000001
 44
0.0000000001
 12
-0.0000301215
 22
0.0088936241
 32
0.0
 13
-0.004951697
 23
0.0073877029
 33
0.0
 40
0.0
 40
0.0
 40
0.0
 40
0.0
 40
0.4165732146
 40
1.0
 40
1.0
 40
1.0
 40
1.0
 10
6.838353629
 20
-15.3514830102
 30
0.0
 10
6.8383494463
 20
-15.3502480616
 30
0.0
 10
6.8374203933
 20
-15.3473321162
 30
0.0
 10
6.8358969678
 20
-15.3447956553
 30
0.0
 10
6.8349339836
 20
-15.3433589274
 30
0.0
 11
6.838353629
 21
-15.3514830102
 31
0.0
 11
6.8374722658
 21
-15.3478845053
 31
0.0
 11
6.8349339836
 21
-15.3433589274
 31
0.0
  0
SPLINE
  5
538
100
AcDbEntity
  8
RACCORDO
100
AcDbSpline
 62
7
  6
CONTINUOUS
 70
0
 71
3
 72
12
 73
8
 74
6
 42
0.0000001
 43
0.0000001
 44
0.0000000001
 12
-0.0601569049
 22
0.0897513204
 32
0.0
 13
-0.086401292
 23
0.064876571
 33
0.0
 40
0.0
 40
0.0
 40
0.0
 40
0.0
 40
0.0704428041
 40
0.1582142984
 40
0.3820181062
 40
0.6645080291
 40
1.0
 40
1.0
 40
1.0
 40
1.0
 10
6.8349339836
 20
-15.3433589274
 30
0.0
 10
6.8335214433
 20
-15.3412514825
 30
0.0
 10
6.8299770994
 20
-15.3367709387
 30
0.0
 10
6.8206109151
 20
-15.3266857943
 30
0.0
 10
6.8048203777
 20
-15.3122074613
 30
0.0
 10
6.7814614613
 20
-15.2928775831
 30
0.0
 10
6.7638178719
 20
-15.2793009496
 30
0.0
 10
6.7541555587
 20
-15.27204576
 30
0.0
 11
6.8349339836
 21
-15.3433589274
 31
0.0
 11
6.8302989506
 21
-15.3373218903
 31
0.0
 11
6.8238951027
 21
-15.3303271437
 31
0.0
 11
6.8062646555
 21
-15.313777099
 31
0.0
 11
6.7828287825
 21
-15.2942229755
 31
0.0
 11
6.7541555587
 21
-15.27204576
 31
0.0
  0
SPLINE
  5
539
100
AcDbEntity
  8
RACCORDO
100
AcDbSpline
 62
7
  6
CONTINUOUS
 70
0
 71
3
 72
11
 73
7
 74
5
 42
0.0000001
 43
0.0000001
 44
0.0000000001
 12
-0.1620397139
 22
-0.0811011646
 32
0.0
 13
-0.0906562346
 23
-0.1568939607
 33
0.0
 40
0.0
 40
0.0
 40
0.0
 40
0.0
 40
0.2068014243
 40
0.4392363129
 40
0.7028675903
 40
1.0
 40
1.0
 40
1.0
 40
1.0
 10
-4.4342246816
 20
27.9184516984
 30
0.0
 10
-4.4453946962
 20
27.9128610863
 30
0.0
 10
-4.4674380464
 20
27.897577754
 30
0.0
 10
-4.4971148507
 20
27.8670160295
 30
0.0
 10
-4.5258321057
 20
27.8285495515
 30
0.0
 10
-4.5436252393
 20
27.7996910958
 30
0.0
 10
-4.5526042078
 20
27.784151669
 30
0.0
 11
-4.4342246816
 21
27.9184516984
 31
0.0
 11
-4.4653762712
 21
27.8976239288
 31
0.0
 11
-4.4951422383
 21
27.8678264355
 31
0.0
 11
-4.5240646842
 21
27.8298064229
 31
0.0
 11
-4.5526042078
 21
27.784151669
 31
0.0
  0
SPLINE
  5
53A
100
AcDbEntity
  8
RACCORDO
100
AcDbSpline
 62
7
  6
CONTINUOUS
 70
0
 71
3
 72
11
 73
7
 74
5
 42
0.0000001
 43
0.0000001
 44
0.0000000001
 12
-0.4087143287
 22
0.2043714832
 32
0.0
 13
-0.4104598159
 23
-0.2008428369
 33
0.0
 40
0.0
 40
0.0
 40
0.0
 40
0.0
 40
0.227550333
 40
0.4653227117
 40
0.7212674125
 40
1.0
 40
1.0
 40
1.0
 40
1.0
 10
-1.1324574222
 20
26.3199487004
 30
0.0
 10
-1.1634584494
 20
26.3354503001
 30
0.0
 10
-1.2316697879
 20
26.358295429
 30
0.0
 10
-1.342477939
 20
26.3644078233
 30
0.0
 10
-1.4591471417
 20
26.3433536492
 30
0.0
 10
-1.5353781313
 20
26.3132671997
 30
0.0
 10
-1.5735143069
 20
26.2946067185
 30
0.0
 11
-1.1324574222
 21
26.3199487004
 31
0.0
 11
-1.2309547779
 21
26.3532734726
 31
0.0
 11
-1.3393893367
 21
26.3601622659
 31
0.0
 11
-1.4546682998
 21
26.3404200307
 31
0.0
 11
-1.5735143069
 21
26.2946067185
 31
0.0
  0
SPLINE
  5
53B
100
AcDbEntity
  8
RACCORDO
100
AcDbSpline
 62
7
  6
CONTINUOUS
 70
0
 71
3
 72
9
 73
5
 74
3
 42
0.0000001
 43
0.0000001
 44
0.0000000001
 12
-0.2341361533
 22
0.117035093
 32
0.0
 13
-0.2566306785
 23
0.0515523629
 33
0.0
 40
0.0
 40
0.0
 40
0.0
 40
0.0
 40
0.2560238952
 40
1.0
 40
1.0
 40
1.0
 40
1.0
 10
6.3363697474
 20
22.5855356245
 30
0.0
 10
6.3163882641
 20
22.5955235513
 30
0.0
 10
6.2373355908
 20
22.6324014637
 30
0.0
 10
6.1536995133
 20
22.6601385688
 30
0.0
 10
6.0900571491
 20
22.6729231441
 30
0.0
 11
6.3363697474
 21
22.5855356245
 31
0.0
 11
6.2756090833
 21
22.6138076411
 31
0.0
 11
6.0900571491
 21
22.6729231441
 31
0.0
  0
SPLINE
  5
53C
100
AcDbEntity
  8
RACCORDO
100
AcDbSpline
 62
7
  6
CONTINUOUS
 70
0
 71
3
 72
9
 73
5
 74
3
 42
0.0000001
 43
0.0000001
 44
0.0000000001
 12
-0.0000153526
 22
0.0058907759
 32
0.0
 13
-0.0030473344
 23
0.0050413519
 33
0.0
 40
0.0
 40
0.0
 40
0.0
 40
0.0
 40
0.198822484
 40
1.0
 40
1.0
 40
1.0
 40
1.0
 10
6.8383536885
 20
21.583423987
 30
0.0
 10
6.838352671
 20
21.5838143933
 30
0.0
 10
6.8380904286
 20
21.5857764031
 30
0.0
 10
6.8371414307
 20
21.587564381
 30
0.0
 10
6.8363276121
 20
21.5889107203
 30
0.0
 11
6.8383536885
 21
21.583423987
 31
0.0
 11
6.838221244
 21
21.5845876971
 31
0.0
 11
6.8363276121
 21
21.5889107203
 31
0.0
  0
SPLINE
  5
53D
100
AcDbEntity
  8
RACCORDO
100
AcDbSpline
 62
7
  6
CONTINUOUS
 70
0
 71
3
 72
12
 73
8
 74
6
 42
0.0000001
 43
0.0000001
 44
0.0000000001
 12
-0.0562867789
 22
0.0931179267
 32
0.0
 13
-0.0879275831
 23
0.0640928225
 33
0.0
 40
0.0
 40
0.0
 40
0.0
 40
0.0
 40
0.0637627611
 40
0.1470196742
 40
0.3678913705
 40
0.6544802791
 40
1.0
 40
1.0
 40
1.0
 40
1.0
 10
6.8363276121
 20
21.5889107203
 30
0.0
 10
6.8351312787
 20
21.5908898723
 30
0.0
 10
6.8318683199
 20
21.595138322
 30
0.0
 10
6.822771982
 20
21.6049044967
 30
0.0
 10
6.8067665211
 20
21.6192026225
 30
0.0
 10
6.7826587005
 20
21.638588949
 30
0.0
 10
6.7642824633
 20
21.6523087365
 30
0.0
 10
6.7541555587
 20
21.6596905145
 30
0.0
 11
6.8363276121
 21
21.5889107203
 31
0.0
 11
6.8322309652
 21
21.5945099875
 31
0.0
 11
6.8261205891
 21
21.6011979542
 31
0.0
 11
6.8084348317
 21
21.617469976
 31
0.0
 11
6.7842192401
 21
21.6371166655
 31
0.0
 11
6.7541555587
 21
21.6596905145
 31
0.0
  0
SPLINE
  5
53E
100
AcDbEntity
  8
RACCORDO
100
AcDbSpline
 62
7
  6
CONTINUOUS
 70
0
 71
3
 72
10
 73
6
 74
4
 42
0.0000001
 43
0.0000001
 44
0.0000000001
 12
-0.0001212048
 22
-0.3024299942
 32
0.0
 13
-0.1477248048
 23
-0.2638963776
 33
0.0
 40
0.0
 40
0.0
 40
0.0
 40
0.0
 40
0.2413789779
 40
0.4900689452
 40
1.0
 40
1.0
 40
1.0
 40
1.0
 10
6.838353629
 20
22.1596441356
 30
0.0
 10
6.8383438769
 20
22.1353107213
 30
0.0
 10
6.8337082317
 20
22.0858528612
 30
0.0
 10
6.8101952767
 20
21.9876325738
 30
0.0
 10
6.7792653805
 20
21.916805988
 30
0.0
 10
6.7541555587
 20
21.8719496686
 30
0.0
 11
6.838353629
 21
22.1596441356
 31
0.0
 11
6.8321065469
 21
22.0869116787
 31
0.0
 11
6.8149308447
 21
22.0136877986
 31
0.0
 11
6.7541555587
 21
21.8719496686
 31
0.0
  0
SPLINE
  5
53F
100
AcDbEntity
  8
RACCORDO
100
AcDbSpline
 62
7
  6
CONTINUOUS
 70
0
 71
3
 72
13
 73
9
 74
7
 42
0.0000001
 43
0.0000001
 44
0.0000000001
 12
0.0
 22
0.5145411392
 32
0.0
 13
-0.4602195858
 23
0.2301097929
 33
0.0
 40
0.0
 40
0.0
 40
0.0
 40
0.0
 40
0.2464774511
 40
0.5111327431
 40
0.6428451777
 40
0.7698685706
 40
0.8895552217
 40
1.0
 40
1.0
 40
1.0
 40
1.0
 10
1.3548082426
 20
17.5257294507
 30
0.0
 10
1.3548082426
 20
17.5680037135
 30
0.0
 10
1.340218621
 20
17.6557994764
 30
0.0
 10
1.2960821671
 20
17.7579339023
 30
0.0
 10
1.2464277888
 20
17.8329536014
 30
0.0
 10
1.2039590045
 20
17.8822951013
 30
0.0
 10
1.1578452689
 20
17.9229209601
 30
0.0
 10
1.1242638193
 20
17.9441220956
 30
0.0
 10
1.1073208692
 20
17.9525935706
 30
0.0
 11
1.3548082426
 21
17.5257294507
 31
0.0
 11
1.3359696657
 21
17.6511452699
 31
0.0
 11
1.2823225458
 21
17.7763087595
 31
0.0
 11
1.2448192658
 21
17.8327576356
 31
0.0
 11
1.2020311314
 21
17.8821635385
 31
0.0
 11
1.1556057232
 21
17.9226262904
 31
0.0
 11
1.1073208692
 21
17.9525935706
 31
0.0
  0
SPLINE
  5
540
100
AcDbEntity
  8
RACCORDO
100
AcDbSpline
 62
7
  6
CONTINUOUS
 70
0
 71
3
 72
11
 73
7
 74
5
 42
0.0000001
 43
0.0000001
 44
0.0000000001
 12
0.0
 22
-0.219311122
 32
0.0
 13
-0.195312993
 23
-0.0997507042
 33
0.0
 40
0.0
 40
0.0
 40
0.0
 40
0.0
 40
0.2895883012
 40
0.5494587242
 40
0.7828521482
 40
1.0
 40
1.0
 40
1.0
 40
1.0
 10
1.3548082426
 20
-20.6659677724
 30
0.0
 10
1.3548082426
 20
-20.6871377508
 30
0.0
 10
1.3514096058
 20
-20.7274558976
 30
0.0
 10
1.3342838637
 20
-20.7826393784
 30
0.0
 10
1.3056899843
 20
-20.8269220029
 30
0.0
 10
1.2789764709
 20
-20.8475596246
 30
0.0
 10
1.2648392052
 20
-20.8547798417
 30
0.0
 11
1.3548082426
 21
-20.6659677724
 31
0.0
 11
1.3488309939
 21
-20.7291958071
 31
0.0
 11
1.3311891195
 21
-20.7833890388
 31
0.0
 11
1.302733802
 21
-20.8259364046
 31
0.0
 11
1.2648392052
 21
-20.8547798417
 31
0.0
  0
SPLINE
  5
541
100
AcDbEntity
  8
RACCORDO
100
AcDbSpline
 62
7
  6
CONTINUOUS
 70
0
 71
3
 72
9
 73
5
 74
3
 42
0.0000001
 43
0.0000001
 44
0.0000000001
 12
-0.4347732533
 22
0.0873379156
 32
0.0
 13
-0.4394369151
 23
-0.0595893528
 33
0.0
 40
0.0
 40
0.0
 40
0.0
 40
0.0
 40
0.4886809648
 40
1.0
 40
1.0
 40
1.0
 40
1.0
 10
6.0900571491
 20
22.6729231441
 30
0.0
 10
6.0192353448
 20
22.6871499364
 30
0.0
 10
5.8713526093
 20
22.7022998544
 30
0.0
 10
5.7231137677
 20
22.6938978146
 30
0.0
 10
5.6482162812
 20
22.6837414245
 30
0.0
 11
6.0900571491
 21
22.6729231441
 31
0.0
 11
5.8746153477
 21
22.696332468
 31
0.0
 11
5.6482162812
 21
22.6837414245
 31
0.0
  0
SPLINE
  5
542
100
AcDbEntity
  8
ASSI
100
AcDbSpline
 62
7
  6
CONTINUOUS
 70
0
 71
3
 72
15
 73
11
 74
9
 42
0.0000001
 43
0.0000001
 44
0.0000000001
 12
1.2927245145
 22
0.6739981235
 32
0.0
 13
0.0
 23
1.4578786441
 33
0.0
 40
0.0
 40
0.0
 40
0.0
 40
0.0
 40
0.1109516471
 40
0.2309090886
 40
0.3579430161
 40
0.489443561
 40
0.622418517
 40
0.7537555272
 40
0.8804749292
 40
1.0
 40
1.0
 40
1.0
 40
1.0
 10
-9.5576508117
 20
19.2633619469
 30
0.0
 10
-9.5098408403
 20
19.2882890142
 30
0.0
 10
-9.4152616941
 20
19.3498840141
 30
0.0
 10
-9.285536646
 20
19.4665884866
 30
0.0
 10
-9.1663216285
 20
19.607342493
 30
0.0
 10
-9.0619842089
 20
19.7669855684
 30
0.0
 10
-8.9762981649
 20
19.9396904311
 30
0.0
 10
-8.9124066955
 20
20.1191549784
 30
0.0
 10
-8.8726498944
 20
20.2987696136
 30
0.0
 10
-8.8628847455
 20
20.4185541345
 30
0.0
 10
-8.8628847455
 20
20.4766384839
 30
0.0
 11
-9.5576508117
 21
19.2633619469
 31
0.0
 11
-9.4214655063
 21
19.3506427067
 31
0.0
 11
-9.2908654177
 21
19.4669518538
 31
0.0
 11
-9.1707541829
 21
19.6079211759
 31
0.0
 11
-9.065647569
 21
19.7682521705
 31
0.0
 11
-8.9794952218
 21
19.9419185043
 31
0.0
 11
-8.9155357507
 21
20.1223935927
 31
0.0
 11
-8.8761726219
 21
20.302892816
 31
0.0
 11
-8.8628847455
 21
20.4766384839
 31
0.0
  0
ELLIPSE
  5
543
100
AcDbEntity
  8
RACCORDO
100
AcDbEllipse
 62
7
  6
CONTINUOUS
 10
-18.5041405536
 20
22.0410557477
 30
0.0
 11
-0.436493403
 21
0.6710813156
 31
0.0
 40
0.5464995433
 41
-0.750067548
 42
0.0242121709
  0
ELLIPSE
  5
544
100
AcDbEntity
  8
RACCORDO
100
AcDbEllipse
 62
7
  6
CONTINUOUS
 10
-0.3102236428
 20
-19.6154308689
 30
0.0
 11
-0.436493403
 21
0.6710813156
 31
0.0
 40
0.5464995433
 41
-3.1656409678
 42
-2.3215491074
  0
ELLIPSE
  5
545
100
AcDbEntity
  8
RACCORDO
100
AcDbEllipse
 62
7
  6
CONTINUOUS
 10
-3.9381286866
 20
14.7580498142
 30
0.0
 11
-0.436144938
 21
0.6706554036
 31
0.0
 40
0.5472471754
 41
-2.3207749666
 42
-0.7506638725
  0
ELLIPSE
  5
546
100
AcDbEntity
  8
DRAFT
100
AcDbEllipse
 62
7
  6
CONTINUOUS
 10
9.2036935138
 20
22.1927773924
 30
0.0
 11
2.7499831596
 21
-0.0194567514
 31
0.0
 40
0.4946372042
 41
2.368420792
 42
2.9226874028
  0
ELLIPSE
  5
547
100
AcDbEntity
  8
DRAFT
100
AcDbEllipse
 62
7
  6
CONTINUOUS
 10
9.8754449559
 20
22.0884606068
 30
0.0
 11
2.7583783481
 21
-0.0195161492
 31
0.0
 40
0.4946372042
 41
0.445063606
 42
2.3596941457
  0
ELLIPSE
  5
548
100
AcDbEntity
  8
0
100
AcDbEllipse
 62
7
  6
CONTINUOUS
 10
10.7637555894
 20
25.2329233553
 30
0.0
 11
0.4410298232
 21
0.8975092442
 31
0.0
 40
0.607010042
 41
-0.8902711325
 42
-0.7668222283
  0
ELLIPSE
  5
549
100
AcDbEntity
  8
RACCORDO
100
AcDbEllipse
 62
7
  6
CONTINUOUS
 10
117.4906544112
 20
69.0273209746
 30
0.0
 11
111.4440378013
 21
57.7233873698
 31
0.0
 40
0.017156689
 41
2.654821495
 42
3.6105913739
  0
ELLIPSE
  5
54A
100
AcDbEntity
  8
DRAFT
100
AcDbEllipse
 62
7
  6
CONTINUOUS
 10
9.8754449559
 20
22.5122778608
 30
0.0
 11
2.7583876426
 21
-0.0130411979
 31
0.0
 40
0.4964289597
 41
0.1919849576
 42
2.3585415194
  0
ELLIPSE
  5
54B
100
AcDbEntity
  8
ASSI
100
AcDbEllipse
 62
7
  6
CONTINUOUS
 10
9.8754449559
 20
22.0884606068
 30
0.0
 11
2.7583783481
 21
-0.0195161492
 31
0.0
 40
0.4946372042
 41
0.445063606
 42
2.3596941457
  0
ELLIPSE
  5
54C
100
AcDbEntity
  8
ASSI
100
AcDbEllipse
 62
7
  6
CONTINUOUS
 10
10.7637555894
 20
25.2329233553
 30
0.0
 11
0.4410298232
 21
0.8975092442
 31
0.0
 40
0.607010042
 41
-0.8902711325
 42
-0.7668222283
  0
ELLIPSE
  5
54D
100
AcDbEntity
  8
ASSI
100
AcDbEllipse
 62
7
  6
CONTINUOUS
 10
9.2036935138
 20
22.1927773924
 30
0.0
 11
2.7499831596
 21
-0.0194567514
 31
0.0
 40
0.4946372042
 41
2.368420792
 42
2.9226874028
  0
ELLIPSE
  5
54E
100
AcDbEntity
  8
ASSI
100
AcDbEllipse
 62
7
  6
CONTINUOUS
 10
9.8754449559
 20
22.5122778608
 30
0.0
 11
2.7583876426
 21
-0.0130411979
 31
0.0
 40
0.4964289597
 41
0.1919849576
 42
2.3585415194
  0
ELLIPSE
  5
54F
100
AcDbEntity
  8
ASSI
100
AcDbEllipse
 62
7
  6
CONTINUOUS
 10
117.4906544112
 20
69.0273209746
 30
0.0
 11
111.4440378013
 21
57.7233873698
 31
0.0
 40
0.017156689
 41
2.654821495
 42
3.6105913739
  0
ELLIPSE
  5
550
100
AcDbEntity
  8
0
100
AcDbEllipse
 62
252
  6
CONTINUOUS
 10
15.5056020309
 20
6.6543308185
 30
0.0
 11
0.282528686
 21
0.5853435979
 31
0.0
 40
0.6015719519
 41
-0.8946238289
 42
2.2469688247
  0
ELLIPSE
  5
551
100
AcDbEntity
  8
RACCORDO
100
AcDbEllipse
 62
7
  6
CONTINUOUS
 10
-2.2421802309
 20
-22.2657886452
 30
0.0
 11
0.110769438
 21
0.2241226716
 31
0.0
 40
0.6088015717
 41
-4.0304836828
 42
-3.1443955108
  0
ELLIPSE
  5
552
100
AcDbEntity
  8
RACCORDO
100
AcDbEllipse
 62
7
  6
CONTINUOUS
 10
-15.6064983953
 20
25.9693459701
 30
0.0
 11
0.110769438
 21
0.2241226716
 31
0.0
 40
0.6088015717
 41
-4.0304836828
 42
-3.1443650652
  0
ELLIPSE
  5
553
100
AcDbEntity
  8
RACCORDO
100
AcDbEllipse
 62
7
  6
CONTINUOUS
 10
-2.2421802309
 20
19.2871868879
 30
0.0
 11
0.110769438
 21
0.2241226716
 31
0.0
 40
0.6088015717
 41
-4.0304836828
 42
-3.1443650652
  0
ELLIPSE
  5
554
100
AcDbEntity
  8
RACCORDO
100
AcDbEllipse
 62
7
  6
CONTINUOUS
 10
1.8144276504
 20
17.9954688388
 30
0.0
 11
-0.1565168911
 21
0.3130623908
 31
0.0
 40
0.6123677712
 41
-2.2554744912
 42
-0.6846781644
  0
ELLIPSE
  5
555
100
AcDbEntity
  8
RACCORDO
100
AcDbEllipse
 62
7
  6
CONTINUOUS
 10
1.8144276504
 20
-20.1811130059
 30
0.0
 11
-0.1565168911
 21
0.3130623908
 31
0.0
 40
0.6123677712
 41
-3.1363904945
 42
-2.2554744912
  0
ELLIPSE
  5
556
100
AcDbEntity
  8
RACCORDO
100
AcDbEllipse
 62
7
  6
CONTINUOUS
 10
-3.9521678981
 20
27.100700144
 30
0.0
 11
0.2999991737
 21
-0.0014183462
 31
0.0
 40
0.4964289597
 41
0.7877451926
 42
2.3527237553
  0
ELLIPSE
  5
557
100
AcDbEntity
  8
RACCORDO
100
AcDbEllipse
 62
7
  6
CONTINUOUS
 10
1.6022956161
 20
24.3234683869
 30
0.0
 11
0.2999991737
 21
-0.0014183462
 31
0.0
 40
0.4964289597
 41
0.7877451926
 42
2.3585415194
  0
ELLIPSE
  5
558
100
AcDbEntity
  8
RACCORDO
100
AcDbEllipse
 62
7
  6
CONTINUOUS
 10
1.1416477516
 20
18.6130398497
 30
0.0
 11
0.110769438
 21
0.2241226716
 31
0.0
 40
0.6088015717
 41
1.2055040732
 42
2.2526937431
  0
ELLIPSE
  5
559
100
AcDbEntity
  8
RACCORDO
100
AcDbEllipse
 62
7
  6
CONTINUOUS
 10
-12.2226704129
 20
25.2951989319
 30
0.0
 11
0.110769438
 21
0.2241226716
 31
0.0
 40
0.6088015717
 41
1.2055040732
 42
2.2526937431
  0
ELLIPSE
  5
55A
100
AcDbEntity
  8
RACCORDO
100
AcDbEllipse
 62
7
  6
CONTINUOUS
 10
1.4931442287
 20
19.5408450017
 30
0.0
 11
0.110769438
 21
0.2241226716
 31
0.0
 40
0.6088015717
 41
-1.9360885804
 42
-0.8888910292
  0
ELLIPSE
  5
55B
100
AcDbEntity
  8
RACCORDO
100
AcDbEllipse
 62
7
  6
CONTINUOUS
 10
-0.1270306277
 20
20.6118614062
 30
0.0
 11
0.1128509832
 21
0.2230818409
 31
0.0
 40
0.6159267166
 41
0.0028979148
 42
0.6817883054
  0
ELLIPSE
  5
55C
100
AcDbEntity
  8
RACCORDO
100
AcDbEllipse
 62
7
  6
CONTINUOUS
 10
-2.2421802309
 20
19.5405582817
 30
0.0
 11
0.110769438
 21
0.2241226716
 31
0.0
 40
0.6088015717
 41
0.6877230618
 42
2.2527016244
  0
ELLIPSE
  5
55D
100
AcDbEntity
  8
RACCORDO
100
AcDbEllipse
 62
7
  6
CONTINUOUS
 10
-11.8711739357
 20
26.2230040839
 30
0.0
 11
0.110769438
 21
0.2241226716
 31
0.0
 40
0.6088015717
 41
-1.9360885804
 42
-0.8888910292
  0
ELLIPSE
  5
55E
100
AcDbEntity
  8
RACCORDO
100
AcDbEllipse
 62
7
  6
CONTINUOUS
 10
-13.4913487921
 20
27.2940204885
 30
0.0
 11
0.1128509832
 21
0.2230818409
 31
0.0
 40
0.6159267166
 41
0.0028979148
 42
0.6817883054
  0
ELLIPSE
  5
55F
100
AcDbEntity
  8
RACCORDO
100
AcDbEllipse
 62
7
  6
CONTINUOUS
 10
-15.6064983953
 20
26.2227173639
 30
0.0
 11
0.110769438
 21
0.2241226716
 31
0.0
 40
0.6088015717
 41
0.6877230618
 42
2.2527016244
  0
ELLIPSE
  5
560
100
AcDbEntity
  8
RACCORDO
100
AcDbEllipse
 62
7
  6
CONTINUOUS
 10
1.4931442287
 20
-22.019688114
 30
0.0
 11
0.110769438
 21
0.2241226716
 31
0.0
 40
0.6088015717
 41
-2.4538695918
 42
-0.8888910292
  0
ELLIPSE
  5
561
100
AcDbEntity
  8
RACCORDO
100
AcDbEllipse
 62
7
  6
CONTINUOUS
 10
-2.2421802309
 20
-22.0124172515
 30
0.0
 11
0.110769438
 21
0.2241226716
 31
0.0
 40
0.6088015717
 41
1.2055040732
 42
2.2527016244
  0
ELLIPSE
  5
562
100
AcDbEntity
  8
RACCORDO
100
AcDbEllipse
 62
7
  6
CONTINUOUS
 10
-13.1023861458
 20
19.5314743606
 30
0.0
 11
-0.3234211751
 21
0.9546019167
 31
0.0
 40
0.6648686735
 41
-0.5912965599
 42
0.1123827769
  0
ELLIPSE
  5
563
100
AcDbEntity
  8
RACCORDO
100
AcDbEllipse
 62
7
  6
CONTINUOUS
 10
1.4931442287
 20
-21.7587591377
 30
0.0
 11
0.110769438
 21
0.2241226716
 31
0.0
 40
0.6088015717
 41
5.394294278
 42
6.4414918292
  0
ELLIPSE
  5
564
100
AcDbEntity
  8
RACCORDO
100
AcDbEllipse
 62
7
  6
CONTINUOUS
 10
-0.6604460837
 20
-21.4072133392
 30
0.0
 11
-0.1565168911
 21
0.3130623908
 31
0.0
 40
0.6123677712
 41
2.4569144891
 42
4.0277108159
  0
ELLIPSE
  5
565
100
AcDbEntity
  8
RACCORDO
100
AcDbEllipse
 62
7
  6
CONTINUOUS
 10
-11.8711739357
 20
26.4839330603
 30
0.0
 11
0.110769438
 21
0.2241226716
 31
0.0
 40
0.6088015717
 41
5.394294278
 42
6.9592728406
  0
ELLIPSE
  5
566
100
AcDbEntity
  8
RACCORDO
100
AcDbEllipse
 62
7
  6
CONTINUOUS
 10
1.4931442287
 20
19.8017739781
 30
0.0
 11
0.110769438
 21
0.2241226716
 31
0.0
 40
0.6088015717
 41
5.394294278
 42
6.9592728406
  0
ELLIPSE
  5
567
100
AcDbEntity
  8
RACCORDO
100
AcDbEllipse
 62
7
  6
CONTINUOUS
 10
-3.771715921
 20
25.778639974
 30
0.0
 11
0.2999981629
 21
-0.0021225547
 31
0.0
 40
0.4946372042
 41
-0.7818985079
 42
0.0034997008
  0
ELLIPSE
  5
568
100
AcDbEntity
  8
RACCORDO
100
AcDbEllipse
 62
7
  6
CONTINUOUS
 10
1.7827475932
 20
23.0014082169
 30
0.0
 11
0.2999981629
 21
-0.0021225547
 31
0.0
 40
0.4946372042
 41
-0.7760807437
 42
0.0035109161
  0
ELLIPSE
  5
569
100
AcDbEntity
  8
RACCORDO
100
AcDbEllipse
 62
7
  6
CONTINUOUS
 10
-9.9206616484
 20
24.180518776
 30
0.0
 11
0.2999991335
 21
0.0014318851
 31
0.0
 40
0.5035541159
 41
8.6427941204
 42
10.207772683
  0
ELLIPSE
  5
56A
100
AcDbEntity
  8
RACCORDO
100
AcDbEllipse
 62
7
  6
CONTINUOUS
 10
-15.9339525574
 20
24.3834486747
 30
0.0
 11
-0.1565168911
 21
0.3130623908
 31
0.0
 40
0.6123677712
 41
-0.6846781644
 42
0.8861181623
  0
ELLIPSE
  5
56B
100
AcDbEntity
  8
RACCORDO
100
AcDbEllipse
 62
7
  6
CONTINUOUS
 10
-0.6604460837
 20
16.7466954379
 30
0.0
 11
-0.1565168911
 21
0.3130623908
 31
0.0
 40
0.6123677712
 41
-2.2554744912
 42
-0.6846781644
  0
ELLIPSE
  5
56C
100
AcDbEntity
  8
RACCORDO
100
AcDbEllipse
 62
7
  6
CONTINUOUS
 10
-2.0469806783
 20
2.0174360883
 30
0.0
 11
-0.0646337196
 21
0.1902471476
 31
0.0
 40
0.6675902134
 41
-2.1647611171
 42
-0.5939647903
  0
ELLIPSE
  5
56D
100
AcDbEntity
  8
RACCORDO
100
AcDbEllipse
 62
7
  6
CONTINUOUS
 10
-4.1281525804
 20
21.284264242
 30
0.0
 11
0.2999991335
 21
0.0014318851
 31
0.0
 40
0.5035541159
 41
-2.3585979313
 42
-0.7936193687
  0
ELLIPSE
  5
56E
100
AcDbEntity
  8
RACCORDO
100
AcDbEllipse
 62
7
  6
CONTINUOUS
 10
-4.1281525804
 20
20.0700651662
 30
0.0
 11
0.2999980272
 21
0.0021530184
 31
0.0
 40
0.5053247124
 41
-2.3598210761
 42
-0.7948425135
  0
ELLIPSE
  5
56F
100
AcDbEntity
  8
RACCORDO
100
AcDbEllipse
 62
7
  6
CONTINUOUS
 10
-9.9206616484
 20
22.9663197002
 30
0.0
 11
0.2999980272
 21
0.0021530184
 31
0.0
 40
0.5053247124
 41
3.1379773283
 42
3.9233642311
  0
ELLIPSE
  5
570
100
AcDbEntity
  8
RACCORDO
100
AcDbEllipse
 62
7
  6
CONTINUOUS
 10
1.7827475932
 20
24.2332423983
 30
0.0
 11
0.2999991737
 21
-0.0014183462
 31
0.0
 40
0.4964289597
 41
-0.77723337
 42
0.7877451926
  0
ELLIPSE
  5
571
100
AcDbEntity
  8
RACCORDO
100
AcDbEllipse
 62
7
  6
CONTINUOUS
 10
-3.771715921
 20
27.0104741554
 30
0.0
 11
0.2999991737
 21
-0.0014183462
 31
0.0
 40
0.4964289597
 41
-0.7830511342
 42
0.7877451926
  0
ELLIPSE
  5
572
100
AcDbEntity
  8
RACCORDO
100
AcDbEllipse
 62
7
  6
CONTINUOUS
 10
1.1416477516
 20
-21.1865642897
 30
0.0
 11
0.110769438
 21
0.2241226716
 31
0.0
 40
0.6088015717
 41
2.2527095058
 42
3.2998991756
  0
ELLIPSE
  5
573
100
AcDbEntity
  8
RACCORDO
100
AcDbEllipse
 62
7
  6
CONTINUOUS
 10
-0.6343468552
 20
18.7366415938
 30
0.0
 11
0.1128509832
 21
0.2230818409
 31
0.0
 40
0.6159267166
 41
0.6934238338
 42
2.2584023964
  0
ELLIPSE
  5
574
100
AcDbEntity
  8
RACCORDO
100
AcDbEllipse
 62
7
  6
CONTINUOUS
 10
-0.6343468552
 20
18.4832702001
 30
0.0
 11
0.1128509832
 21
0.2230818409
 31
0.0
 40
0.6159267166
 41
-4.0247829108
 42
-2.9775853596
  0
ELLIPSE
  5
575
100
AcDbEntity
  8
RACCORDO
100
AcDbEllipse
 62
7
  6
CONTINUOUS
 10
-13.9986650197
 20
25.4188006761
 30
0.0
 11
0.1128509832
 21
0.2230818409
 31
0.0
 40
0.6159267166
 41
0.6934238338
 42
2.2584023964
  0
ELLIPSE
  5
576
100
AcDbEntity
  8
RACCORDO
100
AcDbEllipse
 62
7
  6
CONTINUOUS
 10
-13.9986650197
 20
25.1654292823
 30
0.0
 11
0.1128509832
 21
0.2230818409
 31
0.0
 40
0.6159267166
 41
-4.0247829108
 42
-2.9775853596
  0
ELLIPSE
  5
577
100
AcDbEntity
  8
RACCORDO
100
AcDbEllipse
 62
7
  6
CONTINUOUS
 10
-0.6343468552
 20
-23.069705333
 30
0.0
 11
0.1128509832
 21
0.2230818409
 31
0.0
 40
0.6159267166
 41
-4.0247829108
 42
-2.4598043482
  0
ELLIPSE
  5
578
100
AcDbEntity
  8
RACCORDO
100
AcDbEllipse
 62
7
  6
CONTINUOUS
 10
-0.6343468552
 20
-22.8163339393
 30
0.0
 11
0.1128509832
 21
0.2230818409
 31
0.0
 40
0.6159267166
 41
1.2112048452
 42
2.2584023964
  0
ELLIPSE
  5
579
100
AcDbEntity
  8
RACCORDO
100
AcDbEllipse
 62
7
  6
CONTINUOUS
 10
-2.3126523899
 20
14.1366074826
 30
0.0
 11
-0.3205676932
 21
0.9531531496
 31
0.0
 40
0.66789399
 41
-2.1618296722
 42
-0.5913379319
  0
ENDSEC
  0
SECTION
  2
OBJECTS
  0
DICTIONARY
  5
C
100
AcDbDictionary
280
0
281
1
  3
ACAD_GROUP
350
D
  3
ACAD_MLINESTYLE
350
17
  3
ACAD_LAYOUT
350
1A
  3
ACAD_PLOTSETTINGS
350
19
  3
ACAD_PLOTSTYLENAME
350
E
  0
DICTIONARY
  5
D
102
{ACAD_REACTORS
330
C
102
}
100
AcDbDictionary
280
0
281
1
  0
ACDBDICTIONARYWDFLT
  5
E
102
{ACAD_REACTORS
330
C
102
}
100
AcDbDictionary
281
1
  3
Normal
350
F
100
AcDbDictionaryWithDefault
340
F
  0
DICTIONARY
  5
17
102
{ACAD_REACTORS
330
C
102
}
100
AcDbDictionary
280
0
281
1
  3
Standard
350
18
  0
DICTIONARY
  5
19
102
{ACAD_REACTORS
330
C
102
}
100
AcDbDictionary
281
1
  0
DICTIONARY
  5
1A
102
{ACAD_REACTORS
330
C
102
}
100
AcDbDictionary
281
1
  3
Model
350
57A
  3
Layout1
350
57B
  0
ACDBPLACEHOLDER
  5
F
102
{ACAD_REACTORS
330
E
102
}
  0
MLINESTYLE
  5
18
102
{ACAD_REACTORS
330
17
102
}
100
AcDbMlineStyle
  2
STANDARD
 70
0
  3

 62
256
 51
90.0
 52
90.0
 71
2
 49
0.5
 62
256
  6
BYLAYER
 49
-0.5
 62
256
  6
BYLAYER
  0
LAYOUT
  5
57A
102
{ACAD_REACTORS
330
1A
102
}
100
AcDbPlotSettings
  1

  2
none_device
  4
ISO_A4_(297.00_x_210.00_MM)
  6

 40
0.0
 41
0.0
 42
0.0
 43
0.0
 44
297.0
 45
210.0
 46
0.0
 47
0.0
 48
0.0
 49
0.0
140
0.0
141
0.0
142
1.0
143
1.0
 70
1024
 72
1
 73
0
 74
0
  7

 75
0
147
1.0
148
0.0
149
0.0
100
AcDbLayout
  1
Model
 70
0
 71
0
 10
0.0
 20
0.0
 11
297.0
 21
210.0
 12
0.0
 22
0.0
 32
0.0
 14
0.0
 24
0.0
 34
0.0
 15
0.0
 25
0.0
 35
0.0
146
0.0
 13
0.0
 23
0.0
 33
0.0
 16
1.0
 26
0.0
 36
0.0
 17
0.0
 27
1.0
 37
0.0
 76
0
330
219
345
0
346
0
  0
LAYOUT
  5
57B
102
{ACAD_REACTORS
330
1A
102
}
100
AcDbPlotSettings
  1

  2
none_device
  4
ISO_A4_(297.00_x_210.00_MM)
  6

 40
0.0
 41
0.0
 42
0.0
 43
0.0
 44
297.0
 45
210.0
 46
0.0
 47
0.0
 48
0.0
 49
0.0
140
0.0
141
0.0
142
1.0
143
1.0
 70
0
 72
1
 73
0
 74
0
  7

 75
0
147
1.0
148
0.0
149
0.0
100
AcDbLayout
  1
Layout1
 70
0
 71
1
 10
0.0
 20
0.0
 11
297.0
 21
210.0
 12
0.0
 22
0.0
 32
0.0
 14
0.0
 24
0.0
 34
0.0
 15
0.0
 25
0.0
 35
0.0
146
0.0
 13
0.0
 23
0.0
 33
0.0
 16
1.0
 26
0.0
 36
0.0
 17
0.0
 27
1.0
 37
0.0
 76
0
330
21A
345
0
346
0
  0
ENDSEC
  0
EOF
