  0
SECTION
  2
HEADER
  9
$ACADVER
  1
AC1015
  9
$DWGCODEPAGE
  3
ANSI_1252
  9
$EXTMAX
 10
297.0
 20
210.0
 30
0.0
  9
$EXTMIN
 10
0.0
 20
0.0
 30
0.0
  9
$LIMMIN
 10
0.0
 20
0.0
  9
$LIMMAX
 10
297.0
 20
210.0
  9
$VIEWCTR
 10
148.5
 20
105.0
  9
$VIEWSIZE
 40
210.0
  9
$CLAYER
  8
0
  9
$LTSCALE
 40
16.335
  9
$CELTYPE
  6
BYLAYER
  9
$DIMSCALE
 40
1.0
  9
$DIMASZ
 40
3.0
  9
$DIMEXO
 40
1.85625
  9
$DIMDLI
 40
11.286
  9
$DIMEXE
 40
5.346
  9
$DIMCEN
 40
2.673
  9
$DIMLFAC
 40
1.0
  9
$DIMBLK
  1
_FILLED
  9
$DIMTXT
 40
3.0
  9
$DIMTOL
 70
1
  9
$DIMLIM
 70
0
  9
$DIMTFAC
 40
1.0
  9
$DIMTP
 40
0.01
  9
$DIMTM
 40
0.01
  9
$PDMODE
 70
3
  9
$PDSIZE
 40
3.0
  9
$HANDSEED
  5
58F
  9
$TILEMODE
 70
1
  9
$MEASUREMENT
 70
1
  9
$INSUNITS
 70
4
  0
ENDSEC
  0
SECTION
  2
CLASSES
  0
CLASS
  1
ACDBDICTIONARYWDFLT
  2
AcDbDictionaryWithDefault
  3
AutoCAD 2000
 90
0
280
0
281
0
  0
CLASS
  1
ACDBPLACEHOLDER
  2
AcDbPlaceHolder
  3
AutoCAD 2000
 90
0
280
0
281
0
  0
CLASS
  1
LAYOUT
  2
AcDbLayout
  3
AutoCAD 2000
 90
0
280
0
281
0
  0
ENDSEC
  0
SECTION
  2
TABLES
  0
TABLE
  2
VPORT
  5
8
100
AcDbSymbolTable
 70
2
  0
VPORT
  5
1F4
100
AcDbSymbolTableRecord
100
AcDbViewportTableRecord
  2
*ACTIVE
 70
0
 10
0.0
 20
0.0
 11
1.0
 21
1.0
 12
148.5
 22
105.0
 13
0.0
 23
0.0
 14
1.0
 24
1.0
 15
0.0
 25
0.0
 16
0.0
 26
0.0
 36
1.0
 17
0.0
 27
0.0
 37
0.0
 40
210.0
 41
1.4142857143
 42
50.0
 43
0.0
 44
0.0
 50
0.0
 51
0.0
 71
0
 72
100
 73
1
 74
1
 75
0
 76
0
 77
0
 78
0
  0
ENDTAB
  0
TABLE
  2
LTYPE
  5
5
100
AcDbSymbolTable
 70
6
  0
LTYPE
  5
14
100
AcDbSymbolTableRecord
100
AcDbLinetypeTableRecord
  2
BYBLOCK
 70
0
  3

 72
65
 73
0
 40
0.0
  0
LTYPE
  5
15
100
AcDbSymbolTableRecord
100
AcDbLinetypeTableRecord
  2
BYLAYER
 70
0
  3

 72
65
 73
0
 40
0.0
  0
LTYPE
  5
16
100
AcDbSymbolTableRecord
100
AcDbLinetypeTableRecord
  2
CONTINUOUS
 70
64
  3
Solid line
 72
65
 73
0
 40
0.0
  0
LTYPE
  5
1F5
100
AcDbSymbolTableRecord
100
AcDbLinetypeTableRecord
  2
CENTER
 70
64
  3
____ _ ____ _ ____ _ ____ _ ____ _ ____ _ ____
 72
65
 73
4
 40
0.6
 49
0.375
 74
0
 49
-0.075
 74
0
 49
0.075
 74
0
 49
-0.075
 74
0
  0
LTYPE
  5
1F6
100
AcDbSymbolTableRecord
100
AcDbLinetypeTableRecord
  2
HIDDEN
 70
64
  3
- - - - - - - - - - - - - - - - - - - -
 72
65
 73
2
 40
0.2
 49
0.1
 74
0
 49
-0.1
 74
0
  0
LTYPE
  5
1F7
100
AcDbSymbolTableRecord
100
AcDbLinetypeTableRecord
  2
PHANTOM
 70
64
  3
_____ _ _ _____ _ _ _____ _ _ _____
 72
65
 73
6
 40
0.8
 49
0.45
 74
0
 49
-0.05
 74
0
 49
0.1
 74
0
 49
-0.05
 74
0
 49
0.1
 74
0
 49
-0.05
 74
0
  0
LTYPE
  5
1F8
100
AcDbSymbolTableRecord
100
AcDbLinetypeTableRecord
  2
DOT
 70
64
  3
. . . . . . . . . . . . . . . . . . . .
 72
65
 73
2
 40
0.2
 49
0.1
 74
0
 49
-0.1
 74
0
  0
LTYPE
  5
1F9
100
AcDbSymbolTableRecord
100
AcDbLinetypeTableRecord
  2
DASHED
 70
64
  3
- - - - - - - - - - - - - - - - - - - -
 72
65
 73
2
 40
0.2
 49
0.1
 74
0
 49
-0.1
 74
0
  0
ENDTAB
  0
TABLE
  2
LAYER
  5
2
100
AcDbSymbolTable
 70
36
  0
LAYER
  5
10
100
AcDbSymbolTableRecord
100
AcDbLayerTableRecord
  2
0
 70
0
 62
7
  6
CONTINUOUS
370
-3
390
F
  0
LAYER
  5
1FA
100
AcDbSymbolTableRecord
100
AcDbLayerTableRecord
  2
DEFAULT_1
 70
0
 62
7
  6
CENTER
370
-3
390
F
  0
LAYER
  5
1FB
100
AcDbSymbolTableRecord
100
AcDbLayerTableRecord
  2
DEFAULT_2
 70
0
 62
7
  6
HIDDEN
370
-3
390
F
  0
LAYER
  5
1FC
100
AcDbSymbolTableRecord
100
AcDbLayerTableRecord
  2
DEFAULT_3
 70
0
 62
7
  6
PHANTOM
370
-3
390
F
  0
LAYER
  5
1FD
100
AcDbSymbolTableRecord
100
AcDbLayerTableRecord
  2
ASSI
 70
0
 62
7
  6
CONTINUOUS
370
-3
390
F
  0
LAYER
  5
1FE
100
AcDbSymbolTableRecord
100
AcDbLayerTableRecord
  2
COLORE_TOP
 70
0
 62
7
  6
CONTINUOUS
370
-3
390
F
  0
LAYER
  5
1FF
100
AcDbSymbolTableRecord
100
AcDbLayerTableRecord
  2
COORDINATE
 70
0
 62
7
  6
CONTINUOUS
370
-3
390
F
  0
LAYER
  5
200
100
AcDbSymbolTableRecord
100
AcDbLayerTableRecord
  2
COORD_ORIGINE
 70
0
 62
7
  6
CONTINUOUS
370
-3
390
F
  0
LAYER
  5
201
100
AcDbSymbolTableRecord
100
AcDbLayerTableRecord
  2
COPY_PUBLISH
 70
0
 62
7
  6
CONTINUOUS
370
-3
390
F
  0
LAYER
  5
202
100
AcDbSymbolTableRecord
100
AcDbLayerTableRecord
  2
COSMETIC
 70
0
 62
7
  6
CONTINUOUS
370
-3
390
F
  0
LAYER
  5
203
100
AcDbSymbolTableRecord
100
AcDbLayerTableRecord
  2
COSMETICHE
 70
0
 62
7
  6
CONTINUOUS
370
-3
390
F
  0
LAYER
  5
204
100
AcDbSymbolTableRecord
100
AcDbLayerTableRecord
  2
COSMETICI
 70
0
 62
7
  6
CONTINUOUS
370
-3
390
F
  0
LAYER
  5
205
100
AcDbSymbolTableRecord
100
AcDbLayerTableRecord
  2
CURVE
 70
0
 62
7
  6
CONTINUOUS
370
-3
390
F
  0
LAYER
  5
206
100
AcDbSymbolTableRecord
100
AcDbLayerTableRecord
  2
DRAFT
 70
0
 62
7
  6
CONTINUOUS
370
-3
390
F
  0
LAYER
  5
207
100
AcDbSymbolTableRecord
100
AcDbLayerTableRecord
  2
IMPORT
 70
0
 62
7
  6
CONTINUOUS
370
-3
390
F
  0
LAYER
  5
208
100
AcDbSymbolTableRecord
100
AcDbLayerTableRecord
  2
IMPORTED
 70
0
 62
7
  6
CONTINUOUS
370
-3
390
F
  0
LAYER
  5
209
100
AcDbSymbolTableRecord
100
AcDbLayerTableRecord
  2
IMPORT_IGES
 70
0
 62
7
  6
CONTINUOUS
370
-3
390
F
  0
LAYER
  5
20A
100
AcDbSymbolTableRecord
100
AcDbLayerTableRecord
  2
INCISIONI_LASER
 70
0
 62
7
  6
CONTINUOUS
370
-3
390
F
  0
LAYER
  5
20B
100
AcDbSymbolTableRecord
100
AcDbLayerTableRecord
  2
NOTE
 70
0
 62
7
  6
CONTINUOUS
370
-3
390
F
  0
LAYER
  5
20C
100
AcDbSymbolTableRecord
100
AcDbLayerTableRecord
  2
PIANI
 70
0
 62
7
  6
CONTINUOUS
370
-3
390
F
  0
LAYER
  5
20D
100
AcDbSymbolTableRecord
100
AcDbLayerTableRecord
  2
PIANI_DI_RIFERIMENTO
 70
0
 62
7
  6
CONTINUOUS
370
-3
390
F
  0
LAYER
  5
20E
100
AcDbSymbolTableRecord
100
AcDbLayerTableRecord
  2
PIANI_ORIGINE
 70
0
 62
7
  6
CONTINUOUS
370
-3
390
F
  0
LAYER
  5
20F
100
AcDbSymbolTableRecord
100
AcDbLayerTableRecord
  2
PIANI_RIFERIMENTO
 70
0
 62
7
  6
CONTINUOUS
370
-3
390
F
  0
LAYER
  5
210
100
AcDbSymbolTableRecord
100
AcDbLayerTableRecord
  2
PIANI_SFORMO
 70
0
 62
7
  6
CONTINUOUS
370
-3
390
F
  0
LAYER
  5
211
100
AcDbSymbolTableRecord
100
AcDbLayerTableRecord
  2
PUNTI
 70
0
 62
7
  6
CONTINUOUS
370
-3
390
F
  0
LAYER
  5
212
100
AcDbSymbolTableRecord
100
AcDbLayerTableRecord
  2
RACCORDO
 70
0
 62
7
  6
CONTINUOUS
370
-3
390
F
  0
LAYER
  5
213
100
AcDbSymbolTableRecord
100
AcDbLayerTableRecord
  2
SMUSSO
 70
0
 62
7
  6
CONTINUOUS
370
-3
390
F
  0
LAYER
  5
214
100
AcDbSymbolTableRecord
100
AcDbLayerTableRecord
  2
SNAPLINE
 70
0
 62
7
  6
CONTINUOUS
370
-3
390
F
  0
LAYER
  5
215
100
AcDbSymbolTableRecord
100
AcDbLayerTableRecord
  2
SUPERFICI
 70
0
 62
7
  6
CONTINUOUS
370
-3
390
F
  0
LAYER
  5
216
100
AcDbSymbolTableRecord
100
AcDbLayerTableRecord
  2
TRASH
 70
0
 62
7
  6
CONTINUOUS
370
-3
390
F
  0
LAYER
  5
217
100
AcDbSymbolTableRecord
100
AcDbLayerTableRecord
  2
XSEC_DATUMS
 70
0
 62
7
  6
CONTINUOUS
370
-3
390
F
  0
ENDTAB
  0
TABLE
  2
STYLE
  5
3
100
AcDbSymbolTable
 70
1
  0
STYLE
  5
11
100
AcDbSymbolTableRecord
100
AcDbTextStyleTableRecord
  2
STANDARD
 70
0
 40
0.0
 41
0.8
 50
0.0
 71
0
 42
0.2
  3
txt
  4

  0
STYLE
  5
218
100
AcDbSymbolTableRecord
100
AcDbTextStyleTableRecord
  2
TEXTSTYLE_1
 70
0
 40
0.0
 41
0.8
 50
0.0
 71
0
 42
0.2
  3
gdt
  4

  0
ENDTAB
  0
TABLE
  2
VIEW
  5
6
100
AcDbSymbolTable
 70
0
  0
ENDTAB
  0
TABLE
  2
UCS
  5
7
100
AcDbSymbolTable
 70
0
  0
ENDTAB
  0
TABLE
  2
APPID
  5
9
100
AcDbSymbolTable
 70
1
  0
APPID
  5
219
100
AcDbSymbolTableRecord
100
AcDbRegAppTableRecord
  2
ACAD
 70
0
  0
ENDTAB
  0
TABLE
  2
BLOCK_RECORD
  5
1
100
AcDbSymbolTable
 70
0
  0
BLOCK_RECORD
  5
21A
100
AcDbSymbolTableRecord
100
AcDbBlockTableRecord
  2
*Model_Space
  0
BLOCK_RECORD
  5
21B
100
AcDbSymbolTableRecord
100
AcDbBlockTableRecord
  2
*Paper_Space
  0
ENDTAB
  0
TABLE
  2
DIMSTYLE
  5
A
100
AcDbSymbolTable
 70
1
100
AcDbDimStyleTable
 71
0
  0
DIMSTYLE
105
21C
100
AcDbSymbolTableRecord
100
AcDbDimStyleTableRecord
  2
STANDARD
 70
0
  3

  4

 40
1.0
 41
3.0
 42
0.0625
 43
0.38
 44
0.18
 45
0.0
 46
0.0
 47
0.01
 48
0.01
140
3.0
141
0.09
142
0.0
143
25.4
144
1.0
145
0.0
146
1.0
147
0.09
 71
1.0
 72
0.0
 73
0
 74
0
 75
0
 76
0
 77
1
 78
8
170
0
171
2
172
0
173
0
174
0
175
0
176
0
177
0
178
0
270
2
271
2
272
2
273
2
274
2
275
0
280
0
281
0
282
0
283
1
284
8
285
0
286
0
287
3
288
0
340
11
  0
ENDTAB
  0
ENDSEC
  0
SECTION
  2
BLOCKS
  0
BLOCK
  5
20
100
AcDbEntity
  8
0
100
AcDbBlockBegin
  2
*Model_Space
 70
0
 10
0.0
 20
0.0
 30
0.0
  3
*Model_Space
  1

  0
ENDBLK
  5
21
100
AcDbEntity
  8
0
100
AcDbBlockEnd
  0
BLOCK
  5
1C
100
AcDbEntity
  8
0
100
AcDbBlockBegin
  2
*Paper_Space
 70
0
 10
0.0
 20
0.0
 30
0.0
  3
*Paper_Space
  1

  0
ENDBLK
  5
1D
100
AcDbEntity
  8
0
100
AcDbBlockEnd
  0
ENDSEC
  0
SECTION
  2
ENTITIES
  0
LINE
  5
21D
100
AcDbEntity
  8
RACCORDO
100
AcDbLine
 62
7
  6
CONTINUOUS
 10
-15.0673974783
 20
28.7979927178
 11
-13.4846408751
 21
29.6099768152
  0
LINE
  5
21E
100
AcDbEntity
  8
RACCORDO
100
AcDbLine
 62
7
  6
CONTINUOUS
 10
-15.5513525906
 20
27.0552923158
 11
-14.5391303065
 21
27.5722222785
  0
LINE
  5
21F
100
AcDbEntity
  8
RACCORDO
100
AcDbLine
 62
253
  6
CONTINUOUS
 10
-15.3938291843
 20
27.0458589862
 11
-14.5391303065
 21
27.4823436062
  0
LINE
  5
220
100
AcDbEntity
  8
RACCORDO
100
AcDbLine
 62
7
  6
CONTINUOUS
 10
-13.4595760692
 20
27.9940820133
 11
-11.8582952784
 21
28.7968040168
  0
LINE
  5
221
100
AcDbEntity
  8
RACCORDO
100
AcDbLine
 62
7
  6
CONTINUOUS
 10
-11.8582952784
 20
28.7968040168
 11
-11.3300281067
 21
29.0602428368
  0
LINE
  5
222
100
AcDbEntity
  8
RACCORDO
100
AcDbLine
 62
7
  6
CONTINUOUS
 10
-13.4846408751
 20
29.6099768152
 11
-12.9501909964
 21
29.8703242817
  0
LINE
  5
223
100
AcDbEntity
  8
RACCORDO
100
AcDbLine
 62
7
  6
CONTINUOUS
 10
-9.593900847
 20
26.6452470193
 11
-9.1005788318
 21
26.8983305512
  0
LINE
  5
224
100
AcDbEntity
  8
DRAFT
100
AcDbLine
 62
7
  6
CONTINUOUS
 10
-11.8582952784
 20
27.0647532092
 11
-12.9251261905
 21
26.5261719597
  0
LINE
  5
225
100
AcDbEntity
  8
RACCORDO
100
AcDbLine
 62
7
  6
CONTINUOUS
 10
-10.4025143019
 20
27.036411813
 11
-3.8944776752
 21
30.2775534185
  0
LINE
  5
226
100
AcDbEntity
  8
RACCORDO
100
AcDbLine
 62
253
  6
CONTINUOUS
 10
-10.3270211614
 20
26.9986652427
 11
-4.0124808348
 21
30.1434415473
  0
LINE
  5
227
100
AcDbEntity
  8
RACCORDO
100
AcDbLine
 62
7
  6
CONTINUOUS
 10
-9.1005788318
 20
26.8983305512
 11
-3.6229388423
 21
29.5666625145
  0
LWPOLYLINE
  5
228
100
AcDbEntity
  8
RACCORDO
100
AcDbPolyline
 62
7
  6
CONTINUOUS
 90
18
 70
0
 10
-18.4408393666
 20
24.7677869076
 10
-18.5226057061
 20
24.7328424227
 10
-18.6155552146
 20
24.6848666181
 10
-18.7062884391
 20
24.6289477008
 10
-18.7942544691
 20
24.5653632502
 10
-18.8785520038
 20
24.4948698487
 10
-18.9592081736
 20
24.4175218343
 10
-19.0359949334
 20
24.3334896167
 10
-19.1078522258
 20
24.2440257352
 10
-19.1747157117
 20
24.1492825704
 10
-19.2363975629
 20
24.0494530218
 10
-19.2919151055
 20
23.9462153683
 10
-19.3411698045
 20
23.8398349989
 10
-19.3840374031
 20
23.7304867471
 10
-19.4198339739
 20
23.6198903889
 10
-19.4483785834
 20
23.5087639663
 10
-19.4697501988
 20
23.396875462
 10
-19.4731064906
 20
23.3747082435
  0
LINE
  5
229
100
AcDbEntity
  8
RACCORDO
100
AcDbLine
 62
7
  6
CONTINUOUS
 10
-14.5234986719
 20
26.2831777915
 11
-18.4408458358
 21
24.7678036113
  0
LINE
  5
22A
100
AcDbEntity
  8
RACCORDO
100
AcDbLine
 62
253
  6
CONTINUOUS
 10
-14.3407651638
 20
26.1918110375
 11
-18.0928862232
 21
24.7403524679
  0
LINE
  5
22B
100
AcDbEntity
  8
RACCORDO
100
AcDbLine
 62
7
  6
CONTINUOUS
 10
-11.2431764434
 20
28.4392452502
 11
-11.7704211591
 21
27.7975375222
  0
LINE
  5
22C
100
AcDbEntity
  8
0
100
AcDbLine
 62
7
  6
CONTINUOUS
 10
-1.6923866852
 20
27.7938237829
 11
-3.0901711917
 21
27.0949315297
  0
LINE
  5
22D
100
AcDbEntity
  8
ASSI
100
AcDbLine
 62
7
  6
CONTINUOUS
 10
-4.1650765262
 20
26.4028917741
 11
-4.103526888
 21
26.4336665932
  0
LINE
  5
22E
100
AcDbEntity
  8
RACCORDO
100
AcDbLine
 62
7
  6
CONTINUOUS
 10
-4.1650765262
 20
26.4028917741
 11
-4.103526888
 21
26.4336665932
  0
LINE
  5
22F
100
AcDbEntity
  8
ASSI
100
AcDbLine
 62
253
  6
CONTINUOUS
 10
-4.0801206853
 20
26.3949679776
 11
-4.0140841689
 21
26.4279862358
  0
LINE
  5
230
100
AcDbEntity
  8
RACCORDO
100
AcDbLine
 62
253
  6
CONTINUOUS
 10
-4.0801206853
 20
26.3949679776
 11
-4.0140841689
 21
26.4279862358
  0
LINE
  5
231
100
AcDbEntity
  8
RACCORDO
100
AcDbLine
 62
7
  6
CONTINUOUS
 10
-3.0194605136
 20
29.2636980165
 11
-7.7570759475
 21
26.9286475019
  0
LINE
  5
232
100
AcDbEntity
  8
RACCORDO
100
AcDbLine
 62
7
  6
CONTINUOUS
 10
-3.4437245823
 20
27.8242664143
 11
-3.0194605136
 21
28.0318638351
  0
LINE
  5
233
100
AcDbEntity
  8
RACCORDO
100
AcDbLine
 62
7
  6
CONTINUOUS
 10
-1.0333909338
 20
28.6538965968
 11
-3.0901711917
 21
27.647489719
  0
LINE
  5
234
100
AcDbEntity
  8
ASSI
100
AcDbLine
 62
7
  6
CONTINUOUS
 10
-4.1767873831
 20
26.3951433993
 11
-5.1068122018
 21
25.603515629
  0
LINE
  5
235
100
AcDbEntity
  8
RACCORDO
100
AcDbLine
 62
7
  6
CONTINUOUS
 10
-4.1767873831
 20
26.3951433993
 11
-5.1068122018
 21
25.603515629
  0
LINE
  5
236
100
AcDbEntity
  8
ASSI
100
AcDbLine
 62
253
  6
CONTINUOUS
 10
-4.0801206853
 20
26.3949679776
 11
-5.0457866273
 21
25.5730028418
  0
LINE
  5
237
100
AcDbEntity
  8
0
100
AcDbLine
 62
253
  6
CONTINUOUS
 10
-4.0801206853
 20
26.3949679776
 11
-5.0457866273
 21
25.5730028418
  0
LINE
  5
238
100
AcDbEntity
  8
RACCORDO
100
AcDbLine
 62
7
  6
CONTINUOUS
 10
1.9302869547
 20
26.7888242823
 11
-2.8073284792
 21
24.4537737677
  0
LINE
  5
239
100
AcDbEntity
  8
RACCORDO
100
AcDbLine
 62
253
  6
CONTINUOUS
 10
17.9816108877
 20
-27.3736409024
 11
17.4512808018
 21
-27.2638059453
  0
LINE
  5
23A
100
AcDbEntity
  8
RACCORDO
100
AcDbLine
 62
253
  6
CONTINUOUS
 10
17.89322254
 20
-27.0535583809
 11
17.3628924541
 21
-26.9437234238
  0
LWPOLYLINE
  5
23B
100
AcDbEntity
  8
RACCORDO
100
AcDbPolyline
 62
7
  6
CONTINUOUS
 90
10
 70
0
 10
7.6825158609
 20
-29.5299530883
 10
7.7650085663
 20
-29.5669926887
 10
7.8541837605
 20
-29.5981277592
 10
7.946250399
 20
-29.6214601684
 10
8.0410435567
 20
-29.6368317283
 10
8.1379164096
 20
-29.6439690462
 10
8.2361571691
 20
-29.6426678993
 10
8.3356323867
 20
-29.6327409001
 10
8.4358885661
 20
-29.6140210264
 10
8.5279874478
 20
-29.5890220958
  0
LINE
  5
23C
100
AcDbEntity
  8
RACCORDO
100
AcDbLine
 62
7
  6
CONTINUOUS
 10
7.6828841195
 20
-29.5301579509
 11
-22.36022733
 21
-14.5086022262
  0
LWPOLYLINE
  5
23D
100
AcDbEntity
  8
RACCORDO
100
AcDbPolyline
 62
7
  6
CONTINUOUS
 90
15
 70
0
 10
-22.9788252606
 20
-13.3479489283
 10
-22.9798336434
 20
-13.3767470602
 10
-22.9780643157
 20
-13.5017482596
 10
-22.9663513662
 20
-13.622575581
 10
-22.9449562996
 20
-13.7387242116
 10
-22.9141617347
 20
-13.8499514325
 10
-22.8742288502
 20
-13.9558463648
 10
-22.8255503502
 20
-14.0556914376
 10
-22.7685461261
 20
-14.1490140394
 10
-22.7036515198
 20
-14.235352213
 10
-22.6315649783
 20
-14.3139700766
 10
-22.5530201638
 20
-14.3843023351
 10
-22.4687004153
 20
-14.4460114553
 10
-22.3794918252
 20
-14.4986963507
 10
-22.3587578163
 20
-14.5093149885
  0
LINE
  5
23E
100
AcDbEntity
  8
RACCORDO
100
AcDbLine
 62
7
  6
CONTINUOUS
 10
-22.9788252606
 20
-13.3479489283
 11
-22.9788166522
 21
-13.3477521883
  0
LWPOLYLINE
  5
23F
100
AcDbEntity
  8
RACCORDO
100
AcDbPolyline
 62
7
  6
CONTINUOUS
 90
13
 70
0
 10
-19.4731054472
 20
23.3747987202
 10
-19.8994680006
 20
20.3450992981
 10
-20.3131012318
 20
17.2280916551
 10
-20.7001988135
 20
14.1191557262
 10
-21.0607013995
 20
11.0187391882
 10
-21.3945644351
 20
7.9272355918
 10
-21.7017475176
 20
4.8450174406
 10
-21.9822097384
 20
1.7724719835
 10
-22.2359156396
 20
-1.2900155358
 10
-22.4628321466
 20
-4.3420754457
 10
-22.662926464
 20
-7.3833186294
 10
-22.8361709277
 20
-10.4133089052
 10
-22.9788292877
 20
-13.3477516356
  0
LINE
  5
240
100
AcDbEntity
  8
RACCORDO
100
AcDbLine
 62
7
  6
CONTINUOUS
 10
-1.7030793139
 20
22.1158336356
 11
-0.1203227107
 21
22.927817733
  0
LINE
  5
241
100
AcDbEntity
  8
RACCORDO
100
AcDbLine
 62
7
  6
CONTINUOUS
 10
-3.3771348901
 20
22.3226605681
 11
-2.8780391573
 21
22.5746251487
  0
LINE
  5
242
100
AcDbEntity
  8
RACCORDO
100
AcDbLine
 62
7
  6
CONTINUOUS
 10
-3.3771348901
 20
23.5368640409
 11
-2.8780391573
 21
23.787060714
  0
LINE
  5
243
100
AcDbEntity
  8
RACCORDO
100
AcDbLine
 62
7
  6
CONTINUOUS
 10
-2.8780391573
 20
23.787060714
 11
2.5362335378
 21
26.4870763244
  0
LINE
  5
244
100
AcDbEntity
  8
RACCORDO
100
AcDbLine
 62
7
  6
CONTINUOUS
 10
-2.8780391573
 20
22.5746251487
 11
2.5362335378
 21
25.255237746
  0
LINE
  5
245
100
AcDbEntity
  8
RACCORDO
100
AcDbLine
 62
7
  6
CONTINUOUS
 10
3.2092497533
 20
26.5325762532
 11
2.6228709662
 21
26.2456541856
  0
LINE
  5
246
100
AcDbEntity
  8
RACCORDO
100
AcDbLine
 62
7
  6
CONTINUOUS
 10
-0.1203227107
 20
22.927817733
 11
0.414127168
 21
23.1881651995
  0
LINE
  5
247
100
AcDbEntity
  8
ASSI
100
AcDbLine
 62
7
  6
CONTINUOUS
 10
10.9605346964
 20
28.6421195854
 11
7.4053591356
 21
26.9335342394
  0
LINE
  5
248
100
AcDbEntity
  8
0
100
AcDbLine
 62
7
  6
CONTINUOUS
 10
10.9605346964
 20
28.6421195854
 11
7.4053591356
 21
26.9335342394
  0
LINE
  5
249
100
AcDbEntity
  8
ASSI
100
AcDbLine
 62
7
  6
CONTINUOUS
 10
9.4890799894
 20
29.1978309327
 11
3.7091805403
 21
26.5284818278
  0
LINE
  5
24A
100
AcDbEntity
  8
RACCORDO
100
AcDbLine
 62
7
  6
CONTINUOUS
 10
9.4890799894
 20
29.1978309327
 11
3.7091805403
 21
26.5284818278
  0
LINE
  5
24B
100
AcDbEntity
  8
ASSI
100
AcDbLine
 62
253
  6
CONTINUOUS
 10
9.9206994145
 20
29.1620372264
 11
4.0023803472
 21
26.4287613548
  0
LINE
  5
24C
100
AcDbEntity
  8
RACCORDO
100
AcDbLine
 62
253
  6
CONTINUOUS
 10
9.9206994145
 20
29.1620372264
 11
4.0023803472
 21
26.4287613548
  0
LINE
  5
24D
100
AcDbEntity
  8
RACCORDO
100
AcDbLine
 62
253
  6
CONTINUOUS
 10
7.2905695397
 20
-28.645568512
 11
-22.7444678593
 21
-13.6280498124
  0
LINE
  5
24E
100
AcDbEntity
  8
RACCORDO
100
AcDbLine
 62
253
  6
CONTINUOUS
 10
2.0201037192
 20
21.6341131638
 11
7.3784304993
 21
24.5250533908
  0
LINE
  5
24F
100
AcDbEntity
  8
RACCORDO
100
AcDbLine
 62
253
  6
CONTINUOUS
 10
3.1013126795
 20
21.9690380601
 11
7.2942789317
 21
24.2312395469
  0
LINE
  5
250
100
AcDbEntity
  8
RACCORDO
100
AcDbLine
 62
253
  6
CONTINUOUS
 10
3.2476394091
 20
21.9237714456
 11
7.2942789317
 21
24.0189803928
  0
LINE
  5
251
100
AcDbEntity
  8
RACCORDO
100
AcDbLine
 62
7
  6
CONTINUOUS
 10
3.3674055398
 20
21.8638883802
 11
7.3764886441
 21
23.9396519227
  0
LINE
  5
252
100
AcDbEntity
  8
ASSI
100
AcDbLine
 62
7
  6
CONTINUOUS
 10
11.9994806928
 20
28.0527765145
 11
7.7843622517
 21
25.938401978
  0
LINE
  5
253
100
AcDbEntity
  8
0
100
AcDbLine
 62
7
  6
CONTINUOUS
 10
11.9994806928
 20
28.0527765145
 11
7.7843622517
 21
25.938401978
  0
LINE
  5
254
100
AcDbEntity
  8
ASSI
100
AcDbLine
 62
7
  6
CONTINUOUS
 10
8.4650883496
 20
25.8468077288
 11
12.0048149163
 21
27.622389829
  0
LINE
  5
255
100
AcDbEntity
  8
DRAFT
100
AcDbLine
 62
7
  6
CONTINUOUS
 10
8.4650883496
 20
25.8468077288
 11
12.0048149163
 21
27.622389829
  0
LINE
  5
256
100
AcDbEntity
  8
RACCORDO
100
AcDbLine
 62
7
  6
CONTINUOUS
 10
-0.0952579048
 20
21.3119229311
 11
1.506022886
 21
22.1146449346
  0
LINE
  5
257
100
AcDbEntity
  8
RACCORDO
100
AcDbLine
 62
7
  6
CONTINUOUS
 10
0.8638894013
 20
20.8825227071
 11
2.9852097448
 21
21.9431828788
  0
LINE
  5
258
100
AcDbEntity
  8
RACCORDO
100
AcDbLine
 62
253
  6
CONTINUOUS
 10
0.9756928001
 20
20.8754222603
 11
3.0970131437
 21
21.936082432
  0
LINE
  5
259
100
AcDbEntity
  8
RACCORDO
100
AcDbLine
 62
7
  6
CONTINUOUS
 10
1.506022886
 20
22.1146449346
 11
2.0342900578
 21
22.3780837546
  0
LINE
  5
25A
100
AcDbEntity
  8
ASSI
100
AcDbLine
 62
7
  6
CONTINUOUS
 10
8.4650883496
 20
25.8560031767
 11
7.7823781517
 21
25.5159988783
  0
LINE
  5
25B
100
AcDbEntity
  8
DRAFT
100
AcDbLine
 62
7
  6
CONTINUOUS
 10
8.4650883496
 20
25.8560031767
 11
7.7823781517
 21
25.5159988783
  0
LINE
  5
25C
100
AcDbEntity
  8
ASSI
100
AcDbLine
 62
7
  6
CONTINUOUS
 10
4.0316090771
 20
21.5317866116
 11
7.9602805714
 21
23.440135205
  0
LINE
  5
25D
100
AcDbEntity
  8
DRAFT
100
AcDbLine
 62
7
  6
CONTINUOUS
 10
4.0316090771
 20
21.5317866116
 11
7.9602805714
 21
23.440135205
  0
LINE
  5
25E
100
AcDbEntity
  8
RACCORDO
100
AcDbLine
 62
253
  6
CONTINUOUS
 10
1.4165006761
 20
22.7489558164
 11
6.1883396542
 21
25.0430313028
  0
LINE
  5
25F
100
AcDbEntity
  8
RACCORDO
100
AcDbLine
 62
253
  6
CONTINUOUS
 10
1.6441161759
 20
22.6351480664
 11
6.6301805222
 21
25.0322130224
  0
LINE
  5
260
100
AcDbEntity
  8
ASSI
100
AcDbLine
 62
7
  6
CONTINUOUS
 10
0.1271646627
 20
18.9578461242
 11
0.6926433252
 21
19.1555489092
  0
LINE
  5
261
100
AcDbEntity
  8
RACCORDO
100
AcDbLine
 62
7
  6
CONTINUOUS
 10
22.2428808276
 20
-17.6629958621
 11
18.5119409736
 21
-17.8616473439
  0
LINE
  5
262
100
AcDbEntity
  8
RACCORDO
100
AcDbLine
 62
7
  6
CONTINUOUS
 10
15.5717104499
 20
-28.9208334963
 11
14.2282075657
 21
-28.2490820542
  0
LINE
  5
263
100
AcDbEntity
  8
RACCORDO
100
AcDbLine
 62
253
  6
CONTINUOUS
 10
15.5067371535
 20
-28.7856150462
 11
14.1632342693
 21
-28.1138636041
  0
LINE
  5
264
100
AcDbEntity
  8
RACCORDO
100
AcDbLine
 62
253
  6
CONTINUOUS
 10
14.1632342693
 20
-27.762549632
 11
15.5067371535
 21
-28.4343010741
  0
LINE
  5
265
100
AcDbEntity
  8
RACCORDO
100
AcDbLine
 62
253
  6
CONTINUOUS
 10
14.2516226169
 20
-27.5308554582
 11
15.5951255012
 21
-28.2026069003
  0
LINE
  5
266
100
AcDbEntity
  8
RACCORDO
100
AcDbLine
 62
7
  6
CONTINUOUS
 10
-15.6413165577
 20
26.8664822397
 11
-15.6413165577
 21
26.8420867344
  0
LINE
  5
267
100
AcDbEntity
  8
RACCORDO
100
AcDbLine
 62
7
  6
CONTINUOUS
 10
-15.2421232608
 20
28.2397332724
 11
-15.2421232608
 21
28.4931046662
  0
LWPOLYLINE
  5
268
100
AcDbEntity
  8
RACCORDO
100
AcDbPolyline
 62
7
  6
CONTINUOUS
 90
11
 70
0
 10
1.2142032
 20
19.5012432641
 10
1.1859744954
 20
19.4831500532
 10
1.1592173882
 20
19.4651596244
 10
1.1339911308
 20
19.4476488965
 10
1.1100832886
 20
19.4308451715
 10
1.0878989853
 20
19.415399924
 10
1.0682530044
 20
19.4021390048
 10
1.051241553
 20
19.3912421504
 10
1.037002925
 20
19.382786638
 10
1.0261174345
 20
19.376922263
 10
1.0243607776
 20
19.3760412435
  0
LWPOLYLINE
  5
269
100
AcDbEntity
  8
RACCORDO
100
AcDbPolyline
 62
7
  6
CONTINUOUS
 90
4
 70
0
 10
1.3065100126
 20
19.5525803221
 10
1.274107995
 20
19.5359845713
 10
1.2435816606
 20
19.518937046
 10
1.2142032
 20
19.5012432641
  0
LINE
  5
26A
100
AcDbEntity
  8
RACCORDO
100
AcDbLine
 62
253
  6
CONTINUOUS
 10
1.0343315749
 20
19.9987740527
 11
-0.1203227107
 21
19.4091057494
  0
LINE
  5
26B
100
AcDbEntity
  8
RACCORDO
100
AcDbLine
 62
253
  6
CONTINUOUS
 10
1.4327995813
 20
19.6490139584
 11
0.1271646627
 21
18.9822416295
  0
LINE
  5
26C
100
AcDbEntity
  8
DRAFT
100
AcDbLine
 62
7
  6
CONTINUOUS
 10
0.8893432335
 20
20.0712682234
 11
0.4391919739
 21
19.8440128775
  0
LINE
  5
26D
100
AcDbEntity
  8
0
100
AcDbLine
 62
7
  6
CONTINUOUS
 10
10.5500564585
 20
24.5616912769
 11
11.2570253986
 21
24.915175747
  0
LINE
  5
26E
100
AcDbEntity
  8
RACCORDO
100
AcDbLine
 62
253
  6
CONTINUOUS
 10
2.3191956844
 20
20.2036708181
 11
4.440516028
 21
21.2643309899
  0
LINE
  5
26F
100
AcDbEntity
  8
0
100
AcDbLine
 62
7
  6
CONTINUOUS
 10
11.0450312053
 20
24.3142039035
 11
11.7520001454
 21
24.6676883736
  0
LINE
  5
270
100
AcDbEntity
  8
RACCORDO
100
AcDbLine
 62
253
  6
CONTINUOUS
 10
2.4959723797
 20
19.8987761195
 11
4.6172927232
 21
20.9594362913
  0
LINE
  5
271
100
AcDbEntity
  8
RACCORDO
100
AcDbLine
 62
253
  6
CONTINUOUS
 10
1.0128821446
 20
19.2451839947
 11
1.2526487805
 21
19.3641488363
  0
LINE
  5
272
100
AcDbEntity
  8
RACCORDO
100
AcDbLine
 62
7
  6
CONTINUOUS
 10
0.7897250174
 20
19.2596520984
 11
1.0243513262
 21
19.3760284772
  0
LINE
  5
273
100
AcDbEntity
  8
RACCORDO
100
AcDbLine
 62
7
  6
CONTINUOUS
 10
1.4227899181
 20
19.6093387322
 11
1.3065600036
 21
19.5526026667
  0
LINE
  5
274
100
AcDbEntity
  8
RACCORDO
100
AcDbLine
 62
7
  6
CONTINUOUS
 10
1.4327995813
 20
19.6142257846
 11
1.4227899181
 21
19.6093387322
  0
LINE
  5
275
100
AcDbEntity
  8
RACCORDO
100
AcDbLine
 62
7
  6
CONTINUOUS
 10
1.3065108238
 20
19.5525786547
 11
1.3065600036
 21
19.5526026667
  0
LINE
  5
276
100
AcDbEntity
  8
ASSI
100
AcDbLine
 62
7
  6
CONTINUOUS
 10
16.4471635668
 20
25.8988051502
 11
8.7129746554
 21
22.141929944
  0
LINE
  5
277
100
AcDbEntity
  8
RACCORDO
100
AcDbLine
 62
7
  6
CONTINUOUS
 10
16.4471635668
 20
25.8988051502
 11
8.7129746554
 21
22.141929944
  0
LINE
  5
278
100
AcDbEntity
  8
RACCORDO
100
AcDbLine
 62
253
  6
CONTINUOUS
 10
1.410678904
 20
19.5734681802
 11
1.4291583708
 21
19.5823623647
  0
LINE
  5
279
100
AcDbEntity
  8
RACCORDO
100
AcDbLine
 62
253
  6
CONTINUOUS
 10
3.2030791609
 20
18.8423096399
 11
3.9101859421
 21
19.1807465009
  0
LINE
  5
27A
100
AcDbEntity
  8
RACCORDO
100
AcDbLine
 62
253
  6
CONTINUOUS
 10
3.3420323741
 20
18.5971861895
 11
4.0491391553
 21
18.9356230505
  0
LINE
  5
27B
100
AcDbEntity
  8
ASSI
100
AcDbLine
 62
7
  6
CONTINUOUS
 10
15.622848319
 20
26.3109627741
 11
12.0533666968
 21
24.6095304588
  0
LINE
  5
27C
100
AcDbEntity
  8
0
100
AcDbLine
 62
7
  6
CONTINUOUS
 10
15.622848319
 20
26.3109627741
 11
12.0533666968
 21
24.6095304588
  0
LINE
  5
27D
100
AcDbEntity
  8
RACCORDO
100
AcDbLine
 62
253
  6
CONTINUOUS
 10
16.1254555871
 20
-27.5624418574
 11
14.7819527028
 21
-26.8906904152
  0
LINE
  5
27E
100
AcDbEntity
  8
RACCORDO
100
AcDbLine
 62
253
  6
CONTINUOUS
 10
16.2138439347
 20
-27.3307476835
 11
14.8703410505
 21
-26.6589962414
  0
LINE
  5
27F
100
AcDbEntity
  8
RACCORDO
100
AcDbLine
 62
7
  6
CONTINUOUS
 10
13.1402396678
 20
-25.6768989751
 11
15.999877895
 21
-27.1067180887
  0
LINE
  5
280
100
AcDbEntity
  8
DRAFT
100
AcDbLine
 62
7
  6
CONTINUOUS
 10
16.3535928457
 20
-26.8244953543
 11
13.1820702658
 21
-25.2387340644
  0
LINE
  5
281
100
AcDbEntity
  8
RACCORDO
100
AcDbLine
 62
253
  6
CONTINUOUS
 10
17.3628924541
 20
-26.9437234238
 11
17.3536142815
 21
-26.9390843375
  0
LINE
  5
282
100
AcDbEntity
  8
DRAFT
100
AcDbLine
 62
7
  6
CONTINUOUS
 10
16.8212349401
 20
-26.5295795369
 11
13.2302478582
 21
-24.734085996
  0
LINE
  5
283
100
AcDbEntity
  8
RACCORDO
100
AcDbLine
 62
253
  6
CONTINUOUS
 10
17.3477274112
 20
-26.7808108165
 11
17.89322254
 21
-27.0535583809
  0
LINE
  5
284
100
AcDbEntity
  8
RACCORDO
100
AcDbLine
 62
7
  6
CONTINUOUS
 10
17.3477274112
 20
-26.7771906669
 11
17.9166375913
 21
-27.061645757
  0
LINE
  5
285
100
AcDbEntity
  8
ASSI
100
AcDbLine
 62
7
  6
CONTINUOUS
 10
-14.8281437594
 20
26.4355003353
 11
-14.8281437594
 21
26.1653298554
  0
LINE
  5
286
100
AcDbEntity
  8
DRAFT
100
AcDbLine
 62
7
  6
CONTINUOUS
 10
-14.5391303065
 20
27.3331740177
 11
-14.5391303065
 21
27.7855049934
  0
LINE
  5
287
100
AcDbEntity
  8
RACCORDO
100
AcDbLine
 62
7
  6
CONTINUOUS
 10
-13.6363467986
 20
27.6902164351
 11
-13.6363467986
 21
27.4368450413
  0
LINE
  5
288
100
AcDbEntity
  8
DRAFT
100
AcDbLine
 62
7
  6
CONTINUOUS
 10
-12.9251261905
 20
26.5261719597
 11
-12.9251261905
 21
27.1633415185
  0
LWPOLYLINE
  5
289
100
AcDbEntity
  8
0
100
AcDbPolyline
 62
7
  6
CONTINUOUS
 90
22
 70
0
 10
10.295284412
 20
24.9036987875
 10
10.294957839
 20
24.9034361385
 10
10.2936734625
 20
24.9025085297
 10
10.2914019304
 20
24.9010519121
 10
10.2880859438
 20
24.8991572913
 10
10.2837294511
 20
24.8969321257
 10
10.2785100661
 20
24.8945393927
 10
10.2724963634
 20
24.8920564585
 10
10.2657073161
 20
24.8895269778
 10
10.2582875875
 20
24.8870284312
 10
10.2503355419
 20
24.8846056367
 10
10.2418554439
 20
24.8822701317
 10
10.2328336378
 20
24.8800297245
 10
10.2233241946
 20
24.8779071699
 10
10.2133266468
 20
24.8759112165
 10
10.2027135104
 20
24.8740321363
 10
10.1914859201
 20
24.8722923513
 10
10.1796778569
 20
24.87071618
 10
10.1671979071
 20
24.8693124897
 10
10.1540373683
 20
24.8681071258
 10
10.1402478337
 20
24.8671345338
 10
10.1258292085
 20
24.8664243802
  0
LINE
  5
28A
100
AcDbEntity
  8
ASSI
100
AcDbLine
 62
253
  6
CONTINUOUS
 10
16.7900611428
 20
25.3073943147
 11
5.0182680797
 21
19.3184617817
  0
LINE
  5
28B
100
AcDbEntity
  8
RACCORDO
100
AcDbLine
 62
253
  6
CONTINUOUS
 10
16.7900611428
 20
25.3073943147
 11
5.0182680797
 21
19.3184617817
  0
LINE
  5
28C
100
AcDbEntity
  8
ASSI
100
AcDbLine
 62
253
  6
CONTINUOUS
 10
17.2042116184
 20
23.87576074
 11
13.0699164262
 21
21.7724265373
  0
LINE
  5
28D
100
AcDbEntity
  8
RACCORDO
100
AcDbLine
 62
253
  6
CONTINUOUS
 10
17.2042116184
 20
23.87576074
 11
13.0699164262
 21
21.7724265373
  0
LINE
  5
28E
100
AcDbEntity
  8
RACCORDO
100
AcDbLine
 62
7
  6
CONTINUOUS
 10
12.7490207069
 20
21.2768316408
 11
8.1528266292
 21
18.9787346019
  0
LINE
  5
28F
100
AcDbEntity
  8
RACCORDO
100
AcDbLine
 62
7
  6
CONTINUOUS
 10
5.4534782659
 20
19.1008566886
 11
11.7184812505
 21
22.2083443552
  0
LINE
  5
290
100
AcDbEntity
  8
RACCORDO
100
AcDbLine
 62
7
  6
CONTINUOUS
 10
12.1431697618
 20
21.5797571134
 11
6.455782049
 21
18.7686330303
  0
LINE
  5
291
100
AcDbEntity
  8
DRAFT
100
AcDbLine
 62
7
  6
CONTINUOUS
 10
13.1025740975
 20
20.1202405336
 11
9.4071946043
 21
18.3515506144
  0
LINE
  5
292
100
AcDbEntity
  8
DRAFT
100
AcDbLine
 62
7
  6
CONTINUOUS
 10
16.8212349401
 20
-24.9089418138
 11
13.3779175762
 21
-23.1872831318
  0
LINE
  5
293
100
AcDbEntity
  8
RACCORDO
100
AcDbLine
 62
7
  6
CONTINUOUS
 10
-11.8582952784
 20
27.0647532092
 11
-11.8582952784
 21
28.7968040168
  0
LINE
  5
294
100
AcDbEntity
  8
RACCORDO
100
AcDbLine
 62
7
  6
CONTINUOUS
 10
-11.1553023241
 20
28.9321255146
 11
-11.1553023241
 21
28.6711965382
  0
LINE
  5
295
100
AcDbEntity
  8
RACCORDO
100
AcDbLine
 62
7
  6
CONTINUOUS
 10
2.121141721
 20
21.757086168
 11
1.7781791189
 21
21.3396675659
  0
LINE
  5
296
100
AcDbEntity
  8
0
100
AcDbLine
 62
7
  6
CONTINUOUS
 10
10.2983264206
 20
25.2454463051
 11
10.1710224752
 21
25.1181423597
  0
LINE
  5
297
100
AcDbEntity
  8
0
100
AcDbLine
 62
7
  6
CONTINUOUS
 10
11.0048980862
 20
24.277140295
 11
11.0450312053
 21
24.3142039035
  0
LINE
  5
298
100
AcDbEntity
  8
0
100
AcDbLine
 62
7
  6
CONTINUOUS
 10
10.2953192318
 20
24.9037277042
 11
10.2952828325
 21
24.9036961683
  0
LINE
  5
299
100
AcDbEntity
  8
0
100
AcDbLine
 62
253
  6
CONTINUOUS
 10
10.1710224752
 20
25.1006304493
 11
10.3093266976
 21
25.2204054194
  0
LINE
  5
29A
100
AcDbEntity
  8
0
100
AcDbLine
 62
253
  6
CONTINUOUS
 10
10.2690239348
 20
24.8907626921
 11
10.3110224752
 21
24.92713206
  0
LINE
  5
29B
100
AcDbEntity
  8
0
100
AcDbLine
 62
7
  6
CONTINUOUS
 10
10.3250333677
 20
17.8926312327
 11
13.730176928
 21
19.5952030128
  0
LINE
  5
29C
100
AcDbEntity
  8
RACCORDO
100
AcDbLine
 62
7
  6
CONTINUOUS
 10
14.8826817654
 20
20.6262440978
 11
9.7607479949
 21
18.1747739191
  0
LINE
  5
29D
100
AcDbEntity
  8
RACCORDO
100
AcDbLine
 62
7
  6
CONTINUOUS
 10
-9.6805382754
 20
26.5387400774
 11
-9.6805382754
 21
25.3240066912
  0
LINE
  5
29E
100
AcDbEntity
  8
RACCORDO
100
AcDbLine
 62
253
  6
CONTINUOUS
 10
-9.5926703098
 20
26.4322311206
 11
-9.5926703098
 21
25.2172762545
  0
LINE
  5
29F
100
AcDbEntity
  8
RACCORDO
100
AcDbLine
 62
253
  6
CONTINUOUS
 10
4.0869626374
 20
19.9679572763
 11
4.6172927232
 21
20.6081223192
  0
LINE
  5
2A0
100
AcDbEntity
  8
RACCORDO
100
AcDbLine
 62
7
  6
CONTINUOUS
 10
4.1027049802
 20
19.8968576307
 11
4.633035066
 21
20.5370226737
  0
LINE
  5
2A1
100
AcDbEntity
  8
RACCORDO
100
AcDbLine
 62
7
  6
CONTINUOUS
 10
18.3046191203
 20
18.4990324341
 11
12.6823709543
 21
15.6553385777
  0
LINE
  5
2A2
100
AcDbEntity
  8
RACCORDO
100
AcDbLine
 62
7
  6
CONTINUOUS
 10
17.6987681752
 20
18.8019579066
 11
13.1025740975
 21
16.5038608678
  0
LINE
  5
2A3
100
AcDbEntity
  8
RACCORDO
100
AcDbLine
 62
7
  6
CONTINUOUS
 10
18.656136167
 20
17.3434594988
 11
12.6823709543
 21
14.450417745
  0
LINE
  5
2A4
100
AcDbEntity
  8
RACCORDO
100
AcDbLine
 62
7
  6
CONTINUOUS
 10
18.6547119802
 20
18.2796792294
 11
19.1253224525
 21
18.5049237543
  0
LINE
  5
2A5
100
AcDbEntity
  8
DRAFT
100
AcDbLine
 62
7
  6
CONTINUOUS
 10
22.7105510563
 20
-19.9403953489
 11
23.4443285113
 21
-20.3072840764
  0
LINE
  5
2A6
100
AcDbEntity
  8
ASSI
100
AcDbLine
 62
7
  6
CONTINUOUS
 10
18.665632821
 20
18.3685281873
 11
18.7436446809
 21
18.4165724126
  0
LINE
  5
2A7
100
AcDbEntity
  8
DRAFT
100
AcDbLine
 62
7
  6
CONTINUOUS
 10
18.665632821
 20
18.3685281873
 11
18.7436446809
 21
18.4165724126
  0
LINE
  5
2A8
100
AcDbEntity
  8
RACCORDO
100
AcDbLine
 62
7
  6
CONTINUOUS
 10
14.2282075657
 20
14.2003636248
 11
16.3495279092
 21
15.2610237966
  0
LINE
  5
2A9
100
AcDbEntity
  8
RACCORDO
100
AcDbLine
 62
253
  6
CONTINUOUS
 10
14.3400109646
 20
14.193263178
 11
16.4613313081
 21
15.2539233498
  0
LINE
  5
2AA
100
AcDbEntity
  8
RACCORDO
100
AcDbLine
 62
253
  6
CONTINUOUS
 10
15.6835138488
 20
13.5215117359
 11
17.8048341924
 21
14.5821719077
  0
LINE
  5
2AB
100
AcDbEntity
  8
RACCORDO
100
AcDbLine
 62
253
  6
CONTINUOUS
 10
14.7963786483
 20
12.9384452479
 11
14.7264515512
 21
12.904976601
  0
LINE
  5
2AC
100
AcDbEntity
  8
RACCORDO
100
AcDbLine
 62
7
  6
CONTINUOUS
 10
17.5901695684
 20
14.7525063659
 11
22.2895229674
 21
16.9228234968
  0
LINE
  5
2AD
100
AcDbEntity
  8
RACCORDO
100
AcDbLine
 62
253
  6
CONTINUOUS
 10
11.9590894294
 20
9.7143646415
 11
16.0660431634
 21
11.1774596048
  0
LINE
  5
2AE
100
AcDbEntity
  8
DRAFT
100
AcDbLine
 62
7
  6
CONTINUOUS
 10
16.8212349401
 20
11.2724293382
 11
16.3535928457
 21
11.1157484345
  0
LINE
  5
2AF
100
AcDbEntity
  8
DRAFT
100
AcDbLine
 62
7
  6
CONTINUOUS
 10
18.5119409736
 20
-17.1372443362
 11
19.821313591
 21
-17.7919306449
  0
LINE
  5
2B0
100
AcDbEntity
  8
RACCORDO
100
AcDbLine
 62
253
  6
CONTINUOUS
 10
-3.8001612417
 20
22.3210217205
 11
-3.8001612417
 21
23.5359765866
  0
LINE
  5
2B1
100
AcDbEntity
  8
DRAFT
100
AcDbLine
 62
7
  6
CONTINUOUS
 10
-3.4437245823
 20
26.5749715811
 11
-3.4437245823
 21
27.8242664143
  0
LINE
  5
2B2
100
AcDbEntity
  8
RACCORDO
100
AcDbLine
 62
253
  6
CONTINUOUS
 10
-3.3771348901
 20
22.3226605681
 11
-3.3771348901
 21
23.5368640409
  0
LINE
  5
2B3
100
AcDbEntity
  8
DRAFT
100
AcDbLine
 62
7
  6
CONTINUOUS
 10
-3.0901711917
 20
27.0949315297
 11
-3.0901711917
 21
27.647489719
  0
LINE
  5
2B4
100
AcDbEntity
  8
RACCORDO
100
AcDbLine
 62
253
  6
CONTINUOUS
 10
-3.0194605136
 20
29.2636980165
 11
-3.0194605136
 21
28.0318638351
  0
LINE
  5
2B5
100
AcDbEntity
  8
RACCORDO
100
AcDbLine
 62
7
  6
CONTINUOUS
 10
-2.9315925479
 20
29.3686952305
 11
-2.9315925479
 21
28.1363266256
  0
LINE
  5
2B6
100
AcDbEntity
  8
DRAFT
100
AcDbLine
 62
7
  6
CONTINUOUS
 10
-2.8780391573
 20
23.787060714
 11
-2.8780391573
 21
22.5746251487
  0
LINE
  5
2B7
100
AcDbEntity
  8
RACCORDO
100
AcDbLine
 62
7
  6
CONTINUOUS
 10
17.5226923724
 20
13.2818972509
 11
23.400860279
 21
16.4533036917
  0
LINE
  5
2B8
100
AcDbEntity
  8
DRAFT
100
AcDbLine
 62
7
  6
CONTINUOUS
 10
17.7581972887
 20
12.9484971772
 11
23.4443285113
 21
15.8925778018
  0
LINE
  5
2B9
100
AcDbEntity
  8
RACCORDO
100
AcDbLine
 62
253
  6
CONTINUOUS
 10
15.8602905441
 20
13.2166170373
 11
17.9816108877
 21
14.2772772091
  0
LINE
  5
2BA
100
AcDbEntity
  8
RACCORDO
100
AcDbLine
 62
253
  6
CONTINUOUS
 10
16.5673973253
 20
12.1601505577
 11
17.2745041065
 21
12.4985874187
  0
LINE
  5
2BB
100
AcDbEntity
  8
RACCORDO
100
AcDbLine
 62
253
  6
CONTINUOUS
 10
16.658103066
 20
11.9497560991
 11
17.3687144309
 21
12.2849108529
  0
LINE
  5
2BC
100
AcDbEntity
  8
RACCORDO
100
AcDbLine
 62
253
  6
CONTINUOUS
 10
17.5326810117
 20
12.4595844126
 11
18.1582260229
 21
12.7484828101
  0
LINE
  5
2BD
100
AcDbEntity
  8
RACCORDO
100
AcDbLine
 62
253
  6
CONTINUOUS
 10
17.8738393315
 20
11.8437182091
 11
18.5119409736
 21
12.138414763
  0
LINE
  5
2BE
100
AcDbEntity
  8
RACCORDO
100
AcDbLine
 62
253
  6
CONTINUOUS
 10
16.3535928457
 20
11.1416180724
 11
16.5893389824
 21
11.2504973534
  0
LINE
  5
2BF
100
AcDbEntity
  8
RACCORDO
100
AcDbLine
 62
253
  6
CONTINUOUS
 10
15.999877895
 20
11.7516861195
 11
16.2482426634
 21
11.8663517243
  0
LINE
  5
2C0
100
AcDbEntity
  8
RACCORDO
100
AcDbLine
 62
253
  6
CONTINUOUS
 10
12.4557594863
 20
8.7095489896
 11
16.5627132202
 21
10.1726439529
  0
LINE
  5
2C1
100
AcDbEntity
  8
RACCORDO
100
AcDbLine
 62
7
  6
CONTINUOUS
 10
-1.8778050964
 20
21.5575741902
 11
-1.8778050964
 21
21.8109455839
  0
LINE
  5
2C2
100
AcDbEntity
  8
DRAFT
100
AcDbLine
 62
7
  6
CONTINUOUS
 10
-1.1748121421
 20
20.6510149355
 11
-1.1748121421
 21
21.1033459112
  0
LINE
  5
2C3
100
AcDbEntity
  8
RACCORDO
100
AcDbLine
 62
7
  6
CONTINUOUS
 10
-0.3324547451
 20
28.138372263
 11
-0.3324547451
 21
27.8675719703
  0
LINE
  5
2C4
100
AcDbEntity
  8
RACCORDO
100
AcDbLine
 62
7
  6
CONTINUOUS
 10
-0.2720286342
 20
21.0080573529
 11
-0.2720286342
 21
20.7546859591
  0
LINE
  5
2C5
100
AcDbEntity
  8
RACCORDO
100
AcDbLine
 62
7
  6
CONTINUOUS
 10
0.1271646627
 20
18.9822416295
 11
0.1271646627
 21
18.9578461242
  0
LINE
  5
2C6
100
AcDbEntity
  8
DRAFT
100
AcDbLine
 62
7
  6
CONTINUOUS
 10
15.0585839689
 20
-8.4796612277
 11
14.7946204653
 21
-8.3476794759
  0
LINE
  5
2C7
100
AcDbEntity
  8
DRAFT
100
AcDbLine
 62
7
  6
CONTINUOUS
 10
0.4391919739
 20
19.8440128775
 11
0.4391919739
 21
20.4811824362
  0
LINE
  5
2C8
100
AcDbEntity
  8
RACCORDO
100
AcDbLine
 62
7
  6
CONTINUOUS
 10
0.6591671939
 20
18.9888308983
 11
0.6591671939
 21
18.9629612604
  0
LINE
  5
2C9
100
AcDbEntity
  8
RACCORDO
100
AcDbLine
 62
7
  6
CONTINUOUS
 10
0.7256928001
 20
20.3076019372
 11
0.7256928001
 21
20.6589159093
  0
LINE
  5
2CA
100
AcDbEntity
  8
RACCORDO
100
AcDbLine
 62
253
  6
CONTINUOUS
 10
0.7989161048
 20
20.2192135896
 11
0.7989161048
 21
20.5705275617
  0
LINE
  5
2CB
100
AcDbEntity
  8
ASSI
100
AcDbLine
 62
7
  6
CONTINUOUS
 10
0.9403374611
 20
18.8223761268
 11
0.9403374611
 21
18.7403124559
  0
LINE
  5
2CC
100
AcDbEntity
  8
DRAFT
100
AcDbLine
 62
7
  6
CONTINUOUS
 10
1.110763915
 20
18.655099229
 11
1.110763915
 21
18.7371628998
  0
LINE
  5
2CD
100
AcDbEntity
  8
RACCORDO
100
AcDbLine
 62
7
  6
CONTINUOUS
 10
1.4327995813
 20
19.6072017252
 11
1.4327995813
 21
19.7995400494
  0
LINE
  5
2CE
100
AcDbEntity
  8
RACCORDO
100
AcDbLine
 62
253
  6
CONTINUOUS
 10
1.506022886
 20
19.5208635204
 11
1.506022886
 21
19.7629283971
  0
LINE
  5
2CF
100
AcDbEntity
  8
RACCORDO
100
AcDbLine
 62
7
  6
CONTINUOUS
 10
1.506022886
 20
21.2035894494
 11
1.506022886
 21
22.1146449346
  0
LINE
  5
2D0
100
AcDbEntity
  8
RACCORDO
100
AcDbLine
 62
253
  6
CONTINUOUS
 10
2.1424189891
 20
19.8987761195
 11
2.1424189891
 21
19.5474621475
  0
LINE
  5
2D1
100
AcDbEntity
  8
RACCORDO
100
AcDbLine
 62
7
  6
CONTINUOUS
 10
2.2090158403
 20
22.2499664324
 11
2.2090158403
 21
21.989037456
  0
LINE
  5
2D2
100
AcDbEntity
  8
RACCORDO
100
AcDbLine
 62
253
  6
CONTINUOUS
 10
2.4959723797
 20
19.8987761195
 11
2.4959723797
 21
19.5474621475
  0
LINE
  5
2D3
100
AcDbEntity
  8
RACCORDO
100
AcDbLine
 62
253
  6
CONTINUOUS
 10
2.5362335378
 20
26.4870763244
 11
2.5362335378
 21
25.255237746
  0
LINE
  5
2D4
100
AcDbEntity
  8
RACCORDO
100
AcDbLine
 62
7
  6
CONTINUOUS
 10
2.6228709662
 20
26.5914636997
 11
2.6228709662
 21
25.359095208
  0
LINE
  5
2D5
100
AcDbEntity
  8
RACCORDO
100
AcDbLine
 62
253
  6
CONTINUOUS
 10
2.8495257703
 20
19.151015538
 11
2.8495257703
 21
18.8491120783
  0
LWPOLYLINE
  5
2D6
100
AcDbEntity
  8
RACCORDO
100
AcDbPolyline
 62
7
  6
CONTINUOUS
 90
6
 70
0
 10
1.4328039956
 20
19.6074332676
 10
1.4325945205
 20
19.6010780362
 10
1.4309260463
 20
19.588823435
 10
1.4280821328
 20
19.578428583
 10
1.4247682028
 20
19.5703787341
 10
1.4224138005
 20
19.5659981399
  0
LINE
  5
2D7
100
AcDbEntity
  8
0
100
AcDbLine
 62
7
  6
CONTINUOUS
 10
11.0555260407
 20
24.3194513212
 11
11.2570253986
 21
24.915175747
  0
LWPOLYLINE
  5
2D8
100
AcDbEntity
  8
ASSI
100
AcDbPolyline
 62
7
  6
CONTINUOUS
 90
25
 70
0
 10
19.0527654975
 20
18.6786885238
 10
19.0538566934
 20
18.679934773
 10
19.0620089229
 20
18.6895998254
 10
19.0698867076
 20
18.6995828614
 10
19.0774765813
 20
18.7098738253
 10
19.0847688518
 20
18.7204665122
 10
19.0917572201
 20
18.7313597723
 10
19.0984307325
 20
18.7425453184
 10
19.104779008
 20
18.7540141972
 10
19.1107964965
 20
18.7657659967
 10
19.1164736472
 20
18.7777933513
 10
19.1218003002
 20
18.7900861041
 10
19.1267701569
 20
18.8026417134
 10
19.1313746897
 20
18.8154527018
 10
19.135605025
 20
18.8285096246
 10
19.1394548585
 20
18.8418093257
 10
19.1429169088
 20
18.8553463549
 10
19.14598279
 20
18.8691107359
 10
19.1486454203
 20
18.8830949916
 10
19.1508979578
 20
18.8972925899
 10
19.1527333388
 20
18.9116965217
 10
19.1541449792
 20
18.9263015893
 10
19.1551260087
 20
18.9411035223
 10
19.1556691977
 20
18.9560962695
 10
19.1557852079
 20
18.9669854726
  0
LWPOLYLINE
  5
2D9
100
AcDbEntity
  8
RACCORDO
100
AcDbPolyline
 62
7
  6
CONTINUOUS
 90
25
 70
0
 10
19.0527654975
 20
18.6786885238
 10
19.0538566934
 20
18.679934773
 10
19.0620089229
 20
18.6895998254
 10
19.0698867076
 20
18.6995828614
 10
19.0774765813
 20
18.7098738253
 10
19.0847688518
 20
18.7204665122
 10
19.0917572201
 20
18.7313597723
 10
19.0984307325
 20
18.7425453184
 10
19.104779008
 20
18.7540141972
 10
19.1107964965
 20
18.7657659967
 10
19.1164736472
 20
18.7777933513
 10
19.1218003002
 20
18.7900861041
 10
19.1267701569
 20
18.8026417134
 10
19.1313746897
 20
18.8154527018
 10
19.135605025
 20
18.8285096246
 10
19.1394548585
 20
18.8418093257
 10
19.1429169088
 20
18.8553463549
 10
19.14598279
 20
18.8691107359
 10
19.1486454203
 20
18.8830949916
 10
19.1508979578
 20
18.8972925899
 10
19.1527333388
 20
18.9116965217
 10
19.1541449792
 20
18.9263015893
 10
19.1551260087
 20
18.9411035223
 10
19.1556691977
 20
18.9560962695
 10
19.1557852079
 20
18.9669854726
  0
LINE
  5
2DA
100
AcDbEntity
  8
RACCORDO
100
AcDbLine
 62
7
  6
CONTINUOUS
 10
3.9835424126
 20
19.2592603429
 11
3.9834047209
 21
19.2644206597
  0
LINE
  5
2DB
100
AcDbEntity
  8
RACCORDO
100
AcDbLine
 62
253
  6
CONTINUOUS
 10
3.2030791609
 20
19.151015538
 11
3.2030791609
 21
18.8423096399
  0
LINE
  5
2DC
100
AcDbEntity
  8
RACCORDO
100
AcDbLine
 62
253
  6
CONTINUOUS
 10
3.9101859421
 20
19.1807465009
 11
3.9101859421
 21
19.5045689286
  0
LINE
  5
2DD
100
AcDbEntity
  8
RACCORDO
100
AcDbLine
 62
7
  6
CONTINUOUS
 10
3.983409246
 20
19.2643344418
 11
3.9834092468
 21
19.5929572763
  0
LINE
  5
2DE
100
AcDbEntity
  8
RACCORDO
100
AcDbLine
 62
253
  6
CONTINUOUS
 10
4.6172927232
 20
20.9594362913
 11
4.6172927232
 21
20.6081223192
  0
LINE
  5
2DF
100
AcDbEntity
  8
RACCORDO
100
AcDbLine
 62
7
  6
CONTINUOUS
 10
4.690516028
 20
21.047824639
 11
4.690516028
 21
20.6965106669
  0
LINE
  5
2E0
100
AcDbEntity
  8
RACCORDO
100
AcDbLine
 62
253
  6
CONTINUOUS
 10
17.4512808018
 20
13.2857981941
 11
17.9816108877
 21
13.925963237
  0
LINE
  5
2E1
100
AcDbEntity
  8
RACCORDO
100
AcDbLine
 62
7
  6
CONTINUOUS
 10
17.4670231446
 20
13.2146985485
 11
17.9973532305
 21
13.8548635915
  0
LINE
  5
2E2
100
AcDbEntity
  8
RACCORDO
100
AcDbLine
 62
7
  6
CONTINUOUS
 10
18.5119409736
 20
10.4560768524
 11
22.6248687014
 21
14.3692458086
  0
LINE
  5
2E3
100
AcDbEntity
  8
RACCORDO
100
AcDbLine
 62
7
  6
CONTINUOUS
 10
7.3784304993
 20
24.5250533908
 11
7.3784769699
 21
24.5189160527
  0
LINE
  5
2E4
100
AcDbEntity
  8
RACCORDO
100
AcDbLine
 62
7
  6
CONTINUOUS
 10
6.3072932653
 20
17.3913067045
 11
6.3072932653
 21
18.5908411121
  0
LINE
  5
2E5
100
AcDbEntity
  8
RACCORDO
100
AcDbLine
 62
253
  6
CONTINUOUS
 10
6.4537398747
 20
17.2167453811
 11
6.4537398747
 21
18.4140644168
  0
LINE
  5
2E6
100
AcDbEntity
  8
RACCORDO
100
AcDbLine
 62
253
  6
CONTINUOUS
 10
7.2942789317
 20
24.2312395469
 11
7.2942789317
 21
24.0189803928
  0
LINE
  5
2E7
100
AcDbEntity
  8
RACCORDO
100
AcDbLine
 62
7
  6
CONTINUOUS
 10
7.3784769916
 20
24.5188604252
 11
7.3784769916
 21
23.9428972357
  0
LINE
  5
2E8
100
AcDbEntity
  8
ASSI
100
AcDbLine
 62
253
  6
CONTINUOUS
 10
7.7823781517
 20
25.5159988783
 11
7.7823781517
 21
25.9374089082
  0
LINE
  5
2E9
100
AcDbEntity
  8
0
100
AcDbLine
 62
253
  6
CONTINUOUS
 10
7.7823781517
 20
25.5159988783
 11
7.7823781517
 21
25.9374089082
  0
LINE
  5
2EA
100
AcDbEntity
  8
ASSI
100
AcDbLine
 62
7
  6
CONTINUOUS
 10
8.4650883496
 20
25.8560031767
 11
8.4650883496
 21
25.4229904748
  0
LINE
  5
2EB
100
AcDbEntity
  8
DRAFT
100
AcDbLine
 62
7
  6
CONTINUOUS
 10
8.4650883496
 20
25.8560031767
 11
8.4650883496
 21
25.4229904748
  0
LINE
  5
2EC
100
AcDbEntity
  8
0
100
AcDbLine
 62
253
  6
CONTINUOUS
 10
9.8188904409
 20
24.9525054739
 11
9.8188904409
 21
25.2427142356
  0
LINE
  5
2ED
100
AcDbEntity
  8
0
100
AcDbLine
 62
253
  6
CONTINUOUS
 10
9.889601119
 20
24.92713536
 11
9.889601119
 21
25.2173489469
  0
LINE
  5
2EE
100
AcDbEntity
  8
ASSI
100
AcDbLine
 62
7
  6
CONTINUOUS
 10
9.9913042603
 20
25.7981592023
 11
9.9913042603
 21
25.1564392184
  0
LINE
  5
2EF
100
AcDbEntity
  8
DRAFT
100
AcDbLine
 62
7
  6
CONTINUOUS
 10
9.9913042603
 20
25.7981592023
 11
9.9913042603
 21
25.1564392184
  0
LINE
  5
2F0
100
AcDbEntity
  8
0
100
AcDbLine
 62
253
  6
CONTINUOUS
 10
10.029601119
 20
24.8697445331
 11
10.029601119
 21
25.1181423597
  0
LINE
  5
2F1
100
AcDbEntity
  8
0
100
AcDbLine
 62
7
  6
CONTINUOUS
 10
10.1003117971
 20
24.4399434437
 11
10.1003117971
 21
24.1717611828
  0
LINE
  5
2F2
100
AcDbEntity
  8
0
100
AcDbLine
 62
253
  6
CONTINUOUS
 10
10.1710224752
 20
24.8697426605
 11
10.1710224752
 21
25.1181423597
  0
LINE
  5
2F3
100
AcDbEntity
  8
0
100
AcDbLine
 62
253
  6
CONTINUOUS
 10
10.3110224752
 20
25.208609438
 11
10.3110224752
 21
24.92713206
  0
LINE
  5
2F4
100
AcDbEntity
  8
0
100
AcDbLine
 62
253
  6
CONTINUOUS
 10
10.3817331533
 20
25.2339746917
 11
10.3817331533
 21
24.9525054739
  0
LINE
  5
2F5
100
AcDbEntity
  8
0
100
AcDbLine
 62
7
  6
CONTINUOUS
 10
10.5500564585
 20
24.2072350217
 11
10.5500564585
 21
24.5616912769
  0
LINE
  5
2F6
100
AcDbEntity
  8
RACCORDO
100
AcDbLine
 62
7
  6
CONTINUOUS
 10
13.9752419905
 20
-16.9304613019
 11
14.5366318512
 21
-22.163052263
  0
LINE
  5
2F7
100
AcDbEntity
  8
RACCORDO
100
AcDbLine
 62
253
  6
CONTINUOUS
 10
11.9732337272
 20
15.6543174906
 11
11.9732337272
 21
14.4569984549
  0
LINE
  5
2F8
100
AcDbEntity
  8
ASSI
100
AcDbLine
 62
7
  6
CONTINUOUS
 10
12.0048149163
 20
27.9488520378
 11
12.0048149163
 21
27.622389829
  0
LINE
  5
2F9
100
AcDbEntity
  8
DRAFT
100
AcDbLine
 62
7
  6
CONTINUOUS
 10
12.0048149163
 20
27.9488520378
 11
12.0048149163
 21
27.622389829
  0
LINE
  5
2FA
100
AcDbEntity
  8
RACCORDO
100
AcDbLine
 62
253
  6
CONTINUOUS
 10
12.6823709543
 20
15.6553385777
 11
12.6823709543
 21
14.450417745
  0
LINE
  5
2FB
100
AcDbEntity
  8
RACCORDO
100
AcDbLine
 62
7
  6
CONTINUOUS
 10
13.1025740975
 20
20.1202405336
 11
13.1025740975
 21
21.0205956342
  0
LINE
  5
2FC
100
AcDbEntity
  8
RACCORDO
100
AcDbLine
 62
253
  6
CONTINUOUS
 10
-19.2368461133
 20
23.1133988597
 11
10.7981912858
 21
8.0958801602
  0
LWPOLYLINE
  5
2FD
100
AcDbEntity
  8
RACCORDO
100
AcDbPolyline
 62
7
  6
CONTINUOUS
 90
5
 70
0
 10
3.9935726609
 20
19.223836307
 10
3.9905850438
 20
19.2295224287
 10
3.9875339803
 20
19.2373974219
 10
3.984975407
 20
19.2474494708
 10
3.9835424126
 20
19.2592603429
  0
LINE
  5
2FE
100
AcDbEntity
  8
DRAFT
100
AcDbLine
 62
7
  6
CONTINUOUS
 10
16.8212349401
 20
-24.9089418138
 11
15.0585839689
 21
-8.4796612277
  0
LINE
  5
2FF
100
AcDbEntity
  8
RACCORDO
100
AcDbLine
 62
253
  6
CONTINUOUS
 10
14.0900109646
 20
-28.0254752687
 11
14.0900111229
 21
-28.025615949
  0
LINE
  5
300
100
AcDbEntity
  8
RACCORDO
100
AcDbLine
 62
7
  6
CONTINUOUS
 10
14.0900109646
 20
-28.0254752564
 11
14.0900109646
 21
-27.6741612844
  0
LINE
  5
301
100
AcDbEntity
  8
RACCORDO
100
AcDbLine
 62
7
  6
CONTINUOUS
 10
14.0900109646
 20
13.625442855
 11
14.0900109646
 21
13.9767568271
  0
LINE
  5
302
100
AcDbEntity
  8
RACCORDO
100
AcDbLine
 62
253
  6
CONTINUOUS
 10
14.1632342693
 20
-28.1138636041
 11
14.1632342693
 21
-27.762549632
  0
LINE
  5
303
100
AcDbEntity
  8
RACCORDO
100
AcDbLine
 62
253
  6
CONTINUOUS
 10
14.1632342693
 20
13.5370545074
 11
14.1632342693
 21
13.8883684794
  0
LINE
  5
304
100
AcDbEntity
  8
RACCORDO
100
AcDbLine
 62
7
  6
CONTINUOUS
 10
14.7971177458
 20
-26.5706078938
 11
14.7971177458
 21
-26.505338014
  0
LINE
  5
305
100
AcDbEntity
  8
RACCORDO
100
AcDbLine
 62
7
  6
CONTINUOUS
 10
14.7971177458
 20
12.925042643
 11
14.7971177458
 21
13.1173809672
  0
LINE
  5
306
100
AcDbEntity
  8
RACCORDO
100
AcDbLine
 62
253
  6
CONTINUOUS
 10
14.8703410505
 20
-26.6589962414
 11
14.8703410505
 21
-26.5419496664
  0
LINE
  5
307
100
AcDbEntity
  8
RACCORDO
100
AcDbLine
 62
253
  6
CONTINUOUS
 10
14.8703410505
 20
12.8387044382
 11
14.8703410505
 21
13.0807693149
  0
LINE
  5
308
100
AcDbEntity
  8
RACCORDO
100
AcDbLine
 62
253
  6
CONTINUOUS
 10
15.5067371535
 20
13.2166170373
 11
15.5067371535
 21
12.8653030652
  0
LINE
  5
309
100
AcDbEntity
  8
RACCORDO
100
AcDbLine
 62
253
  6
CONTINUOUS
 10
15.5067371535
 20
-28.4343010741
 11
15.5067371535
 21
-28.7856150462
  0
LINE
  5
30A
100
AcDbEntity
  8
RACCORDO
100
AcDbLine
 62
7
  6
CONTINUOUS
 10
15.5774478316
 20
19.912620682
 11
15.5774478316
 21
20.107733627
  0
LWPOLYLINE
  5
30B
100
AcDbEntity
  8
RACCORDO
100
AcDbPolyline
 62
7
  6
CONTINUOUS
 90
6
 70
0
 10
14.79712216
 20
12.9252741854
 10
14.7969126849
 20
12.918918954
 10
14.7952442108
 20
12.9066643528
 10
14.7924002972
 20
12.8962695008
 10
14.7890863672
 20
12.8882196519
 10
14.7867319649
 20
12.8838390577
  0
LINE
  5
30C
100
AcDbEntity
  8
RACCORDO
100
AcDbLine
 62
7
  6
CONTINUOUS
 10
16.5627132202
 20
10.1726439529
 11
12.9347399127
 21
-27.8294568193
  0
LINE
  5
30D
100
AcDbEntity
  8
RACCORDO
100
AcDbLine
 62
7
  6
CONTINUOUS
 10
15.6328130962
 20
12.7088865239
 11
16.1631431821
 21
12.5990515668
  0
LINE
  5
30E
100
AcDbEntity
  8
RACCORDO
100
AcDbLine
 62
253
  6
CONTINUOUS
 10
-18.0928862232
 20
24.7403524679
 11
11.9590894294
 21
9.7143646415
  0
LINE
  5
30F
100
AcDbEntity
  8
RACCORDO
100
AcDbLine
 62
7
  6
CONTINUOUS
 10
17.3478633285
 20
12.5770513176
 11
17.3477228852
 21
12.5822616077
  0
LWPOLYLINE
  5
310
100
AcDbEntity
  8
ASSI
100
AcDbPolyline
 62
7
  6
CONTINUOUS
 90
31
 70
0
 10
17.4848718084
 20
24.2230882307
 10
17.4845913101
 20
24.2571544866
 10
17.4834628394
 20
24.2996377423
 10
17.4814775635
 20
24.3421849652
 10
17.4786418058
 20
24.3848013862
 10
17.4749630374
 20
24.427466515
 10
17.4704521845
 20
24.4701308175
 10
17.4651172023
 20
24.5127881847
 10
17.4589653324
 20
24.5554308617
 10
17.45201111
 20
24.5980047283
 10
17.4442631307
 20
24.6405032067
 10
17.4357289133
 20
24.6829197087
 10
17.4264268065
 20
24.7251985102
 10
17.4163663309
 20
24.7673308427
 10
17.405555157
 20
24.809312442
 10
17.3940134886
 20
24.8510929555
 10
17.38175337
 20
24.8926561382
 10
17.3687807941
 20
24.934005492
 10
17.3551088585
 20
24.9751190005
 10
17.3407466587
 20
25.0159869507
 10
17.3257007334
 20
25.0566057762
 10
17.3099805771
 20
25.096961362
 10
17.2935929729
 20
25.1370465906
 10
17.2765437619
 20
25.1768545131
 10
17.2588417245
 20
25.2163703865
 10
17.2404927101
 20
25.2555858557
 10
17.2215010585
 20
25.2944937091
 10
17.2018735467
 20
25.3330812725
 10
17.1816145251
 20
25.3713394668
 10
17.1607272297
 20
25.4092605594
 10
17.1429043684
 20
25.4404926976
  0
LWPOLYLINE
  5
311
100
AcDbEntity
  8
RACCORDO
100
AcDbPolyline
 62
7
  6
CONTINUOUS
 90
31
 70
0
 10
17.4848718084
 20
24.2230882307
 10
17.4845913101
 20
24.2571544866
 10
17.4834628394
 20
24.2996377423
 10
17.4814775635
 20
24.3421849652
 10
17.4786418058
 20
24.3848013862
 10
17.4749630374
 20
24.427466515
 10
17.4704521845
 20
24.4701308175
 10
17.4651172023
 20
24.5127881847
 10
17.4589653324
 20
24.5554308617
 10
17.45201111
 20
24.5980047283
 10
17.4442631307
 20
24.6405032067
 10
17.4357289133
 20
24.6829197087
 10
17.4264268065
 20
24.7251985102
 10
17.4163663309
 20
24.7673308427
 10
17.405555157
 20
24.809312442
 10
17.3940134886
 20
24.8510929555
 10
17.38175337
 20
24.8926561382
 10
17.3687807941
 20
24.934005492
 10
17.3551088585
 20
24.9751190005
 10
17.3407466587
 20
25.0159869507
 10
17.3257007334
 20
25.0566057762
 10
17.3099805771
 20
25.096961362
 10
17.2935929729
 20
25.1370465906
 10
17.2765437619
 20
25.1768545131
 10
17.2588417245
 20
25.2163703865
 10
17.2404927101
 20
25.2555858557
 10
17.2215010585
 20
25.2944937091
 10
17.2018735467
 20
25.3330812725
 10
17.1816145251
 20
25.3713394668
 10
17.1607272297
 20
25.4092605594
 10
17.1429043684
 20
25.4404926976
  0
LINE
  5
312
100
AcDbEntity
  8
RACCORDO
100
AcDbLine
 62
253
  6
CONTINUOUS
 10
15.8602905441
 20
13.2166170373
 11
15.8602905441
 21
12.8653030652
  0
LINE
  5
313
100
AcDbEntity
  8
RACCORDO
100
AcDbLine
 62
253
  6
CONTINUOUS
 10
15.8602905441
 20
-28.4343010741
 11
15.8602905441
 21
-28.7856150462
  0
LINE
  5
314
100
AcDbEntity
  8
RACCORDO
100
AcDbLine
 62
253
  6
CONTINUOUS
 10
16.2138439347
 20
12.4688564558
 11
16.2138439347
 21
12.1669529961
  0
LINE
  5
315
100
AcDbEntity
  8
RACCORDO
100
AcDbLine
 62
253
  6
CONTINUOUS
 10
16.2138439347
 20
-27.1206552823
 11
16.2138439347
 21
-27.3307476835
  0
LINE
  5
316
100
AcDbEntity
  8
RACCORDO
100
AcDbLine
 62
7
  6
CONTINUOUS
 10
16.3535928457
 20
11.1416180724
 11
16.3535928457
 21
11.1157484345
  0
LINE
  5
317
100
AcDbEntity
  8
RACCORDO
100
AcDbLine
 62
7
  6
CONTINUOUS
 10
16.3535928457
 20
-26.8503649922
 11
16.3535928457
 21
-26.8244953543
  0
LINE
  5
318
100
AcDbEntity
  8
RACCORDO
100
AcDbLine
 62
253
  6
CONTINUOUS
 10
16.5673973253
 20
12.4688564558
 11
16.5673973253
 21
12.1601505577
  0
LINE
  5
319
100
AcDbEntity
  8
RACCORDO
100
AcDbLine
 62
253
  6
CONTINUOUS
 10
16.5673973253
 20
-27.0220417854
 11
16.5673973253
 21
-27.3307476835
  0
LINE
  5
31A
100
AcDbEntity
  8
DRAFT
100
AcDbLine
 62
7
  6
CONTINUOUS
 10
16.8212349401
 20
-26.5295795369
 11
16.8212349401
 21
-24.9089418138
  0
LINE
  5
31B
100
AcDbEntity
  8
DRAFT
100
AcDbLine
 62
7
  6
CONTINUOUS
 10
16.8212349401
 20
9.6517916151
 11
16.8212349401
 21
11.2724293382
  0
LINE
  5
31C
100
AcDbEntity
  8
ASSI
100
AcDbLine
 62
253
  6
CONTINUOUS
 10
17.2042116184
 20
20.6783158384
 11
17.2042116184
 21
23.87576074
  0
LINE
  5
31D
100
AcDbEntity
  8
RACCORDO
100
AcDbLine
 62
253
  6
CONTINUOUS
 10
17.2042116184
 20
20.6783158384
 11
17.2042116184
 21
23.87576074
  0
LINE
  5
31E
100
AcDbEntity
  8
RACCORDO
100
AcDbLine
 62
253
  6
CONTINUOUS
 10
17.2745041065
 20
-26.977194293
 11
17.2745041065
 21
-26.6533718652
  0
LINE
  5
31F
100
AcDbEntity
  8
RACCORDO
100
AcDbLine
 62
253
  6
CONTINUOUS
 10
17.2745041065
 20
12.4985874187
 11
17.2745041065
 21
12.8224098464
  0
LINE
  5
320
100
AcDbEntity
  8
RACCORDO
100
AcDbLine
 62
7
  6
CONTINUOUS
 10
17.3477274112
 20
-26.8888059453
 11
17.3477274112
 21
-26.5867506861
  0
LINE
  5
321
100
AcDbEntity
  8
RACCORDO
100
AcDbLine
 62
7
  6
CONTINUOUS
 10
17.3477274104
 20
12.5821753596
 11
17.3477274112
 21
12.9107981941
  0
LINE
  5
322
100
AcDbEntity
  8
ASSI
100
AcDbLine
 62
7
  6
CONTINUOUS
 10
17.4848718079
 20
21.5765572174
 11
17.4848718153
 21
21.5768275728
  0
LINE
  5
323
100
AcDbEntity
  8
RACCORDO
100
AcDbLine
 62
7
  6
CONTINUOUS
 10
17.4848718079
 20
21.5765572174
 11
17.4848718153
 21
21.5768275728
  0
LINE
  5
324
100
AcDbEntity
  8
ASSI
100
AcDbLine
 62
7
  6
CONTINUOUS
 10
17.4848718181
 20
21.5768928588
 11
17.4848718181
 21
24.2230899253
  0
LINE
  5
325
100
AcDbEntity
  8
RACCORDO
100
AcDbLine
 62
7
  6
CONTINUOUS
 10
17.4848718181
 20
21.5768928588
 11
17.4848718181
 21
24.2230899253
  0
LINE
  5
326
100
AcDbEntity
  8
RACCORDO
100
AcDbLine
 62
253
  6
CONTINUOUS
 10
17.9816108877
 20
14.2772772091
 11
17.9816108877
 21
13.925963237
  0
LINE
  5
327
100
AcDbEntity
  8
RACCORDO
100
AcDbLine
 62
253
  6
CONTINUOUS
 10
17.9816108877
 20
-27.3736409024
 11
17.9816108877
 21
-27.7249548744
  0
LINE
  5
328
100
AcDbEntity
  8
RACCORDO
100
AcDbLine
 62
7
  6
CONTINUOUS
 10
18.0548341924
 20
14.3656655567
 11
18.0548341924
 21
14.0143515847
  0
LINE
  5
329
100
AcDbEntity
  8
RACCORDO
100
AcDbLine
 62
7
  6
CONTINUOUS
 10
18.0548341924
 20
-27.2852525547
 11
18.0548341924
 21
-27.6365665268
  0
LINE
  5
32A
100
AcDbEntity
  8
DRAFT
100
AcDbLine
 62
7
  6
CONTINUOUS
 10
15.0585839689
 20
-8.4796612277
 11
16.8212349401
 21
9.6517916151
  0
LINE
  5
32B
100
AcDbEntity
  8
0
100
AcDbLine
 62
7
  6
CONTINUOUS
 10
13.730176928
 20
19.5952030128
 11
15.5774478316
 21
19.912620682
  0
LINE
  5
32C
100
AcDbEntity
  8
RACCORDO
100
AcDbLine
 62
253
  6
CONTINUOUS
 10
15.8602905441
 20
12.8653030652
 11
16.39062063
 21
12.7554681082
  0
LINE
  5
32D
100
AcDbEntity
  8
DRAFT
100
AcDbLine
 62
7
  6
CONTINUOUS
 10
16.8212349401
 20
9.6517916151
 11
16.5270320792
 21
9.7988930455
  0
LINE
  5
32E
100
AcDbEntity
  8
ASSI
100
AcDbLine
 62
7
  6
CONTINUOUS
 10
-15.6413165577
 20
26.8420867344
 11
0.1271646627
 21
18.9578461242
  0
LINE
  5
32F
100
AcDbEntity
  8
RACCORDO
100
AcDbLine
 62
7
  6
CONTINUOUS
 10
0.3496790548
 20
19.0356416591
 11
16.0660431634
 21
11.1774596048
  0
LINE
  5
330
100
AcDbEntity
  8
DRAFT
100
AcDbLine
 62
7
  6
CONTINUOUS
 10
16.3535928457
 20
11.1157484345
 11
0.6591671939
 21
18.9629612604
  0
LINE
  5
331
100
AcDbEntity
  8
RACCORDO
100
AcDbLine
 62
7
  6
CONTINUOUS
 10
-0.1203227107
 20
19.4091057494
 11
-15.3938291843
 21
27.0458589862
  0
LINE
  5
332
100
AcDbEntity
  8
RACCORDO
100
AcDbLine
 62
7
  6
CONTINUOUS
 10
15.999877895
 20
11.7516861195
 11
1.0128821446
 21
19.2451839947
  0
LINE
  5
333
100
AcDbEntity
  8
RACCORDO
100
AcDbLine
 62
253
  6
CONTINUOUS
 10
1.3621333868
 20
19.27574007
 11
2.7056362711
 21
18.6039886279
  0
LINE
  5
334
100
AcDbEntity
  8
RACCORDO
100
AcDbLine
 62
253
  6
CONTINUOUS
 10
14.7264515512
 20
12.5935809878
 11
16.0699544355
 21
11.9218295457
  0
LINE
  5
335
100
AcDbEntity
  8
DRAFT
100
AcDbLine
 62
7
  6
CONTINUOUS
 10
0.4391919739
 20
19.8440128775
 11
-1.1748121421
 21
20.6510149355
  0
LINE
  5
336
100
AcDbEntity
  8
DRAFT
100
AcDbLine
 62
7
  6
CONTINUOUS
 10
-12.9251261905
 20
26.5261719597
 11
-14.5391303065
 21
27.3331740177
  0
LINE
  5
337
100
AcDbEntity
  8
RACCORDO
100
AcDbLine
 62
253
  6
CONTINUOUS
 10
1.506022886
 20
19.5208635204
 11
2.8495257703
 21
18.8491120783
  0
LINE
  5
338
100
AcDbEntity
  8
RACCORDO
100
AcDbLine
 62
253
  6
CONTINUOUS
 10
14.8703410505
 20
12.8387044382
 11
16.2138439347
 21
12.1669529961
  0
LWPOLYLINE
  5
339
100
AcDbEntity
  8
RACCORDO
100
AcDbPolyline
 62
7
  6
CONTINUOUS
 90
4
 70
0
 10
3.9954261656
 20
19.2209363558
 10
3.9957660779
 20
19.2205845639
 10
3.995575778
 20
19.2208533533
 10
3.9935726609
 20
19.223836307
  0
LINE
  5
33A
100
AcDbEntity
  8
ASSI
100
AcDbLine
 62
253
  6
CONTINUOUS
 10
7.7843622517
 20
25.9384019781
 11
7.4053591356
 21
26.9335342394
  0
LINE
  5
33B
100
AcDbEntity
  8
0
100
AcDbLine
 62
253
  6
CONTINUOUS
 10
7.7843622517
 20
25.9384019781
 11
7.4053591356
 21
26.9335342394
  0
LWPOLYLINE
  5
33C
100
AcDbEntity
  8
ASSI
100
AcDbPolyline
 62
7
  6
CONTINUOUS
 90
19
 70
0
 10
19.155785208
 20
21.5393870847
 10
19.1557392797
 20
21.5462655054
 10
19.1553320365
 20
21.5610605743
 10
19.1545073161
 20
21.5758748674
 10
19.153267944
 20
21.5907164236
 10
19.1516176856
 20
21.605571227
 10
19.1495641945
 20
21.6204013688
 10
19.1471119287
 20
21.6352050364
 10
19.1442641895
 20
21.6499799604
 10
19.1410322445
 20
21.6646866493
 10
19.1374203602
 20
21.6793245807
 10
19.133432032
 20
21.6938915127
 10
19.1290827321
 20
21.7083450093
 10
19.1243769681
 20
21.7226838858
 10
19.1193185214
 20
21.736907012
 10
19.1139262854
 20
21.750972061
 10
19.1082107621
 20
21.764864804
 10
19.1021703791
 20
21.7785988707
 10
19.0992002977
 20
21.7850407776
  0
LWPOLYLINE
  5
33D
100
AcDbEntity
  8
RACCORDO
100
AcDbPolyline
 62
7
  6
CONTINUOUS
 90
19
 70
0
 10
19.155785208
 20
21.5393870847
 10
19.1557392797
 20
21.5462655054
 10
19.1553320365
 20
21.5610605743
 10
19.1545073161
 20
21.5758748674
 10
19.153267944
 20
21.5907164236
 10
19.1516176856
 20
21.605571227
 10
19.1495641945
 20
21.6204013688
 10
19.1471119287
 20
21.6352050364
 10
19.1442641895
 20
21.6499799604
 10
19.1410322445
 20
21.6646866493
 10
19.1374203602
 20
21.6793245807
 10
19.133432032
 20
21.6938915127
 10
19.1290827321
 20
21.7083450093
 10
19.1243769681
 20
21.7226838858
 10
19.1193185214
 20
21.736907012
 10
19.1139262854
 20
21.750972061
 10
19.1082107621
 20
21.764864804
 10
19.1021703791
 20
21.7785988707
 10
19.0992002977
 20
21.7850407776
  0
LINE
  5
33E
100
AcDbEntity
  8
RACCORDO
100
AcDbLine
 62
7
  6
CONTINUOUS
 10
18.5119409736
 20
-25.7628691237
 11
18.5119409736
 21
12.138414763
  0
LINE
  5
33F
100
AcDbEntity
  8
RACCORDO
100
AcDbLine
 62
7
  6
CONTINUOUS
 10
18.656136167
 20
17.3434594988
 11
18.656136167
 21
18.2438145994
  0
LINE
  5
340
100
AcDbEntity
  8
ASSI
100
AcDbLine
 62
253
  6
CONTINUOUS
 10
19.0715872069
 20
21.4351895614
 11
19.0715872069
 21
21.2642601024
  0
LINE
  5
341
100
AcDbEntity
  8
RACCORDO
100
AcDbLine
 62
253
  6
CONTINUOUS
 10
19.0715872069
 20
21.4351895614
 11
19.0715872069
 21
21.2642601024
  0
LINE
  5
342
100
AcDbEntity
  8
ASSI
100
AcDbLine
 62
253
  6
CONTINUOUS
 10
19.0715872069
 20
19.0337199324
 11
19.0715872069
 21
18.8627903139
  0
LINE
  5
343
100
AcDbEntity
  8
RACCORDO
100
AcDbLine
 62
253
  6
CONTINUOUS
 10
19.0715872069
 20
19.0337199324
 11
19.0715872069
 21
18.8627903139
  0
LINE
  5
344
100
AcDbEntity
  8
ASSI
100
AcDbLine
 62
7
  6
CONTINUOUS
 10
19.1557852668
 20
21.539388317
 11
19.1557852668
 21
21.3497299959
  0
LINE
  5
345
100
AcDbEntity
  8
RACCORDO
100
AcDbLine
 62
7
  6
CONTINUOUS
 10
19.1557852668
 20
21.539388317
 11
19.1557852668
 21
21.3497299959
  0
LINE
  5
346
100
AcDbEntity
  8
ASSI
100
AcDbLine
 62
7
  6
CONTINUOUS
 10
19.1557852668
 20
19.126288814
 11
19.1557852668
 21
18.9669890691
  0
LINE
  5
347
100
AcDbEntity
  8
RACCORDO
100
AcDbLine
 62
7
  6
CONTINUOUS
 10
19.1557852668
 20
19.126288814
 11
19.1557852668
 21
18.9669890691
  0
LINE
  5
348
100
AcDbEntity
  8
RACCORDO
100
AcDbLine
 62
7
  6
CONTINUOUS
 10
2.2684949318
 20
19.3910456061
 11
2.7988250177
 21
19.281210649
  0
LINE
  5
349
100
AcDbEntity
  8
RACCORDO
100
AcDbLine
 62
253
  6
CONTINUOUS
 10
2.4959723797
 20
19.5474621475
 11
3.0263024656
 21
19.4376271904
  0
LINE
  5
34A
100
AcDbEntity
  8
RACCORDO
100
AcDbLine
 62
7
  6
CONTINUOUS
 10
0.4391919739
 20
20.4811824362
 11
-0.1831260582
 21
20.6111230188
  0
LINE
  5
34B
100
AcDbEntity
  8
RACCORDO
100
AcDbLine
 62
7
  6
CONTINUOUS
 10
-9.5926703098
 20
25.2172762545
 11
-3.8001612417
 21
22.3210217205
  0
LINE
  5
34C
100
AcDbEntity
  8
RACCORDO
100
AcDbLine
 62
7
  6
CONTINUOUS
 10
6.4537398747
 20
17.2167453811
 11
11.9732337272
 21
14.4569984549
  0
LINE
  5
34D
100
AcDbEntity
  8
RACCORDO
100
AcDbLine
 62
7
  6
CONTINUOUS
 10
-15.1775285148
 20
28.1047040975
 11
-13.5709949518
 21
27.301437316
  0
LINE
  5
34E
100
AcDbEntity
  8
RACCORDO
100
AcDbLine
 62
7
  6
CONTINUOUS
 10
-1.8132103504
 20
21.4225450153
 11
-0.2066767874
 21
20.6192782338
  0
LINE
  5
34F
100
AcDbEntity
  8
RACCORDO
100
AcDbLine
 62
7
  6
CONTINUOUS
 10
0.8638894013
 20
20.0839951395
 11
2.2073922855
 21
19.4122436974
  0
LINE
  5
350
100
AcDbEntity
  8
RACCORDO
100
AcDbLine
 62
7
  6
CONTINUOUS
 10
14.2282075657
 20
13.4018360573
 11
15.5718016828
 21
12.7300390607
  0
LINE
  5
351
100
AcDbEntity
  8
RACCORDO
100
AcDbLine
 62
253
  6
CONTINUOUS
 10
16.2138439347
 20
12.4688564558
 11
15.805180867
 21
12.6731879897
  0
LINE
  5
352
100
AcDbEntity
  8
RACCORDO
100
AcDbLine
 62
253
  6
CONTINUOUS
 10
2.8495257703
 20
19.151015538
 11
2.4408627026
 21
19.3553470719
  0
LINE
  5
353
100
AcDbEntity
  8
RACCORDO
100
AcDbLine
 62
253
  6
CONTINUOUS
 10
-15.2421232608
 20
28.2397332724
 11
-13.6363467986
 21
27.4368450413
  0
LINE
  5
354
100
AcDbEntity
  8
RACCORDO
100
AcDbLine
 62
253
  6
CONTINUOUS
 10
-1.8778050964
 20
21.5575741902
 11
-0.2720286342
 21
20.7546859591
  0
LINE
  5
355
100
AcDbEntity
  8
RACCORDO
100
AcDbLine
 62
253
  6
CONTINUOUS
 10
0.7989161048
 20
20.2192135896
 11
2.1424189891
 21
19.5474621475
  0
LINE
  5
356
100
AcDbEntity
  8
RACCORDO
100
AcDbLine
 62
253
  6
CONTINUOUS
 10
14.1632342693
 20
13.5370545074
 11
15.5067371535
 21
12.8653030652
  0
LINE
  5
357
100
AcDbEntity
  8
RACCORDO
100
AcDbLine
 62
253
  6
CONTINUOUS
 10
-0.2720286342
 20
21.0080573529
 11
-1.8778050964
 21
21.8109455839
  0
LINE
  5
358
100
AcDbEntity
  8
RACCORDO
100
AcDbLine
 62
253
  6
CONTINUOUS
 10
-13.6363467986
 20
27.6902164351
 11
-15.2421232608
 21
28.4931046662
  0
LINE
  5
359
100
AcDbEntity
  8
RACCORDO
100
AcDbLine
 62
253
  6
CONTINUOUS
 10
0.7989161048
 20
20.5705275617
 11
2.1424189891
 21
19.8987761195
  0
LINE
  5
35A
100
AcDbEntity
  8
RACCORDO
100
AcDbLine
 62
253
  6
CONTINUOUS
 10
14.1632342693
 20
13.8883684794
 11
15.5067371535
 21
13.2166170373
  0
LINE
  5
35B
100
AcDbEntity
  8
DRAFT
100
AcDbLine
 62
7
  6
CONTINUOUS
 10
-11.8582952784
 20
27.0647532092
 11
-9.6805382754
 21
25.9758747078
  0
LINE
  5
35C
100
AcDbEntity
  8
DRAFT
100
AcDbLine
 62
7
  6
CONTINUOUS
 10
-2.8780391573
 20
22.5746251487
 11
-1.7969172062
 21
22.0340641731
  0
LINE
  5
35D
100
AcDbEntity
  8
RACCORDO
100
AcDbLine
 62
253
  6
CONTINUOUS
 10
-0.0952579048
 20
21.3119229311
 11
-1.7030793139
 21
22.1158336356
  0
LINE
  5
35E
100
AcDbEntity
  8
RACCORDO
100
AcDbLine
 62
253
  6
CONTINUOUS
 10
-13.4595760692
 20
27.9940820133
 11
-15.0673974783
 21
28.7979927178
  0
LINE
  5
35F
100
AcDbEntity
  8
RACCORDO
100
AcDbLine
 62
253
  6
CONTINUOUS
 10
17.4134573197
 20
12.5648595815
 11
17.3539089616
 21
12.5946337605
  0
LINE
  5
360
100
AcDbEntity
  8
RACCORDO
100
AcDbLine
 62
253
  6
CONTINUOUS
 10
4.0491391553
 20
19.2470186637
 11
3.9895908093
 21
19.2767928367
  0
LINE
  5
361
100
AcDbEntity
  8
RACCORDO
100
AcDbLine
 62
253
  6
CONTINUOUS
 10
0.9756928001
 20
20.8754222603
 11
2.3191956844
 21
20.2036708181
  0
LINE
  5
362
100
AcDbEntity
  8
RACCORDO
100
AcDbLine
 62
253
  6
CONTINUOUS
 10
14.3400109646
 20
14.193263178
 11
15.6835138488
 21
13.5215117359
  0
LINE
  5
363
100
AcDbEntity
  8
RACCORDO
100
AcDbLine
 62
7
  6
CONTINUOUS
 10
-9.5926703098
 20
26.4322311206
 11
-3.8001612417
 21
23.5359765866
  0
LINE
  5
364
100
AcDbEntity
  8
RACCORDO
100
AcDbLine
 62
7
  6
CONTINUOUS
 10
6.4537398747
 20
18.4140644168
 11
11.9732337272
 21
15.6543174906
  0
LINE
  5
365
100
AcDbEntity
  8
RACCORDO
100
AcDbLine
 62
7
  6
CONTINUOUS
 10
4.0427575206
 20
19.8062170613
 11
5.4534782659
 21
19.1008566886
  0
LINE
  5
366
100
AcDbEntity
  8
RACCORDO
100
AcDbLine
 62
7
  6
CONTINUOUS
 10
17.407075685
 20
13.1240579791
 11
18.1582260229
 21
12.7484828101
  0
LINE
  5
367
100
AcDbEntity
  8
RACCORDO
100
AcDbLine
 62
7
  6
CONTINUOUS
 10
-10.3270211614
 20
26.9986652427
 11
-11.8094991648
 21
27.7399042444
  0
LINE
  5
368
100
AcDbEntity
  8
DRAFT
100
AcDbLine
 62
7
  6
CONTINUOUS
 10
-9.1005788318
 20
26.8983305512
 11
-2.8780391573
 21
23.787060714
  0
LINE
  5
369
100
AcDbEntity
  8
DRAFT
100
AcDbLine
 62
7
  6
CONTINUOUS
 10
-13.4846408751
 20
29.6099768152
 11
-11.8582952784
 21
28.7968040168
  0
LINE
  5
36A
100
AcDbEntity
  8
DRAFT
100
AcDbLine
 62
7
  6
CONTINUOUS
 10
-0.1203227107
 20
22.927817733
 11
1.506022886
 21
22.1146449346
  0
LINE
  5
36B
100
AcDbEntity
  8
DRAFT
100
AcDbLine
 62
7
  6
CONTINUOUS
 10
-7.7570759475
 20
26.9286475019
 11
-2.8073284792
 21
24.4537737677
  0
LINE
  5
36C
100
AcDbEntity
  8
0
100
AcDbLine
 62
7
  6
CONTINUOUS
 10
8.1528266292
 20
18.9787346019
 11
13.1025740975
 21
16.5038608678
  0
LINE
  5
36D
100
AcDbEntity
  8
ASSI
100
AcDbLine
 62
7
  6
CONTINUOUS
 10
8.7129746554
 20
22.141929944
 11
7.9602805714
 21
23.440135205
  0
LINE
  5
36E
100
AcDbEntity
  8
DRAFT
100
AcDbLine
 62
7
  6
CONTINUOUS
 10
8.7129746554
 20
22.141929944
 11
7.9602805714
 21
23.440135205
  0
LINE
  5
36F
100
AcDbEntity
  8
RACCORDO
100
AcDbLine
 62
7
  6
CONTINUOUS
 10
22.7105510563
 20
15.5126534027
 11
22.7105510563
 21
14.6176905392
  0
LINE
  5
370
100
AcDbEntity
  8
RACCORDO
100
AcDbLine
 62
7
  6
CONTINUOUS
 10
22.7105510563
 20
-18.2986193588
 11
22.7105510563
 21
-19.9403953489
  0
LINE
  5
371
100
AcDbEntity
  8
0
100
AcDbLine
 62
7
  6
CONTINUOUS
 10
10.5500564585
 20
24.5616912769
 11
10.1003117971
 21
24.4399434437
  0
LINE
  5
372
100
AcDbEntity
  8
RACCORDO
100
AcDbLine
 62
253
  6
CONTINUOUS
 10
-12.9501909964
 20
29.8703242817
 11
-11.3300281067
 21
29.0602428368
  0
LINE
  5
373
100
AcDbEntity
  8
RACCORDO
100
AcDbLine
 62
253
  6
CONTINUOUS
 10
0.414127168
 20
23.1881651995
 11
2.0342900578
 21
22.3780837546
  0
LINE
  5
374
100
AcDbEntity
  8
RACCORDO
100
AcDbLine
 62
7
  6
CONTINUOUS
 10
-12.8387733811
 20
29.876592845
 11
-11.2198958029
 21
29.0671540559
  0
LINE
  5
375
100
AcDbEntity
  8
RACCORDO
100
AcDbLine
 62
7
  6
CONTINUOUS
 10
0.5255447833
 20
23.1944337627
 11
2.1444223615
 21
22.3849949736
  0
LINE
  5
376
100
AcDbEntity
  8
RACCORDO
100
AcDbLine
 62
253
  6
CONTINUOUS
 10
3.0970131437
 20
21.936082432
 11
4.440516028
 21
21.2643309899
  0
LINE
  5
377
100
AcDbEntity
  8
RACCORDO
100
AcDbLine
 62
253
  6
CONTINUOUS
 10
16.4613313081
 20
15.2539233498
 11
17.8048341924
 21
14.5821719077
  0
LINE
  5
378
100
AcDbEntity
  8
RACCORDO
100
AcDbLine
 62
7
  6
CONTINUOUS
 10
3.2088165426
 20
21.9431828788
 11
4.5523194268
 21
21.2714314367
  0
LINE
  5
379
100
AcDbEntity
  8
RACCORDO
100
AcDbLine
 62
7
  6
CONTINUOUS
 10
16.573134707
 20
15.2610237966
 11
17.9166375913
 21
14.5892723545
  0
LINE
  5
37A
100
AcDbEntity
  8
ASSI
100
AcDbLine
 62
7
  6
CONTINUOUS
 10
-1.4931664989
 20
25.1014908843
 11
-4.0801206853
 21
26.3949679776
  0
LINE
  5
37B
100
AcDbEntity
  8
RACCORDO
100
AcDbLine
 62
7
  6
CONTINUOUS
 10
-1.4931664989
 20
25.1014908843
 11
-4.0801206853
 21
26.3949679776
  0
LINE
  5
37C
100
AcDbEntity
  8
ASSI
100
AcDbLine
 62
253
  6
CONTINUOUS
 10
-0.8522033041
 20
25.41740539
 11
-2.9451155351
 21
26.4638615055
  0
LINE
  5
37D
100
AcDbEntity
  8
RACCORDO
100
AcDbLine
 62
253
  6
CONTINUOUS
 10
-0.8522033041
 20
25.41740539
 11
-2.9451155351
 21
26.4638615055
  0
LINE
  5
37E
100
AcDbEntity
  8
ASSI
100
AcDbLine
 62
7
  6
CONTINUOUS
 10
-0.8014398796
 20
25.4424253947
 11
-2.8608666624
 21
26.4721387862
  0
LINE
  5
37F
100
AcDbEntity
  8
RACCORDO
100
AcDbLine
 62
7
  6
CONTINUOUS
 10
-0.8014398796
 20
25.4424253947
 11
-2.8608666624
 21
26.4721387862
  0
LINE
  5
380
100
AcDbEntity
  8
0
100
AcDbLine
 62
7
  6
CONTINUOUS
 10
-0.2896527345
 20
25.694672301
 11
-3.0901711917
 21
27.0949315297
  0
LWPOLYLINE
  5
381
100
AcDbEntity
  8
RACCORDO
100
AcDbPolyline
 62
7
  6
CONTINUOUS
 90
4
 70
0
 10
17.3597353179
 20
12.5387863771
 10
17.3600794853
 20
12.5384305311
 10
17.3599015122
 20
12.5386843776
 10
17.3579067387
 20
12.5416509486
  0
LWPOLYLINE
  5
382
100
AcDbEntity
  8
RACCORDO
100
AcDbPolyline
 62
7
  6
CONTINUOUS
 90
5
 70
0
 10
17.3579067387
 20
12.5416509486
 10
17.3549226029
 20
12.5473210853
 10
17.3518693566
 20
12.5551852031
 10
17.3493040975
 20
12.5652350855
 10
17.3478633285
 20
12.5770513176
  0
LINE
  5
383
100
AcDbEntity
  8
RACCORDO
100
AcDbLine
 62
7
  6
CONTINUOUS
 10
23.4443285113
 20
16.1742932872
 11
23.4443285113
 21
15.8925778018
  0
LINE
  5
384
100
AcDbEntity
  8
RACCORDO
100
AcDbLine
 62
7
  6
CONTINUOUS
 10
23.4443285113
 20
-20.3072840764
 11
23.4443285113
 21
-20.5889995618
  0
LWPOLYLINE
  5
385
100
AcDbEntity
  8
0
100
AcDbPolyline
 62
7
  6
CONTINUOUS
 90
3
 70
0
 10
10.1258292085
 20
24.8664243802
 10
10.1108043526
 20
24.8660062952
 10
10.0999913674
 20
24.865905014
  0
LINE
  5
386
100
AcDbEntity
  8
0
100
AcDbLine
 62
7
  6
CONTINUOUS
 10
10.0999908393
 20
24.8659052887
 11
10.0910336401
 21
24.865984864
  0
LINE
  5
387
100
AcDbEntity
  8
0
100
AcDbLine
 62
7
  6
CONTINUOUS
 10
10.0910336401
 20
24.865984864
 11
10.0759219116
 21
24.8663815534
  0
LWPOLYLINE
  5
388
100
AcDbEntity
  8
0
100
AcDbPolyline
 62
7
  6
CONTINUOUS
 90
9
 70
0
 10
10.3778011457
 20
25.275237091
 10
10.369005676
 20
25.2754707931
 10
10.357435618
 20
25.2746184982
 10
10.3460439268
 20
25.2724589014
 10
10.3350136454
 20
25.2690367344
 10
10.3244431925
 20
25.2643933921
 10
10.3144955425
 20
25.2586121815
 10
10.3054007219
 20
25.2518770144
 10
10.2982316274
 20
25.2453439631
  0
LWPOLYLINE
  5
389
100
AcDbEntity
  8
0
100
AcDbPolyline
 62
7
  6
CONTINUOUS
 90
20
 70
0
 10
10.0759219116
 20
24.8663815534
 10
10.0614107168
 20
24.8670745219
 10
10.047526166
 20
24.8680313874
 10
10.0342714777
 20
24.8692250853
 10
10.0216971775
 20
24.8706236273
 10
10.0097967869
 20
24.872198323
 10
9.9984850617
 20
24.8739373712
 10
9.9877982687
 20
24.8758160836
 10
9.9777308647
 20
24.8778154899
 10
9.9681539974
 20
24.8799442335
 10
9.9590674013
 20
24.8821923296
 10
9.9505303073
 20
24.8845352681
 10
9.9425298149
 20
24.8869659684
 10
9.9350699307
 20
24.8894725175
 10
9.928248689
 20
24.8920089493
 10
9.9222106495
 20
24.8944971261
 10
9.9169744663
 20
24.8968932153
 10
9.9126032533
 20
24.8991219752
 10
9.9092700445
 20
24.9010228909
 10
9.9077782726
 20
24.901957378
  0
LINE
  5
38A
100
AcDbEntity
  8
RACCORDO
100
AcDbLine
 62
7
  6
CONTINUOUS
 10
-12.9251261905
 20
27.1633415185
 11
-13.5474442226
 21
27.293282101
  0
LWPOLYLINE
  5
38B
100
AcDbEntity
  8
ASSI
100
AcDbPolyline
 62
7
  6
CONTINUOUS
 90
51
 70
0
 10
-2.8660051702
 20
26.474443152
 10
-2.876576277
 20
26.4785953667
 10
-2.8995376502
 20
26.4872100014
 10
-2.9228082522
 20
26.4954028409
 10
-2.9463742271
 20
26.5031788306
 10
-2.9702295865
 20
26.5105444351
 10
-2.9943563325
 20
26.5175014434
 10
-3.0187365809
 20
26.5240519927
 10
-3.0433637556
 20
26.5302005591
 10
-3.0682199709
 20
26.5359482068
 10
-3.0932878891
 20
26.5412963806
 10
-3.1185610219
 20
26.5462481901
 10
-3.1440220163
 20
26.5508042762
 10
-3.1696533463
 20
26.5549654311
 10
-3.1954475875
 20
26.5587335647
 10
-3.2213871917
 20
26.5621089912
 10
-3.247455028
 20
26.5650921678
 10
-3.2736437138
 20
26.567684224
 10
-3.299935686
 20
26.5698852742
 10
-3.3263139667
 20
26.5716954796
 10
-3.352771642
 20
26.5731153331
 10
-3.3792914873
 20
26.5741447854
 10
-3.4058562497
 20
26.574783701
 10
-3.4324587719
 20
26.5750319456
 10
-3.4590818702
 20
26.5748892936
 10
-3.4857081914
 20
26.5743553766
 10
-3.512330352
 20
26.5734294864
 10
-3.5389312258
 20
26.572111196
 10
-3.5654932099
 20
26.5703999161
 10
-3.5920084777
 20
26.5682943861
 10
-3.6184597301
 20
26.5657939507
 10
-3.644829212
 20
26.562897789
 10
-3.6711089285
 20
26.5596040324
 10
-3.6972828633
 20
26.5559115017
 10
-3.723331488
 20
26.5518192715
 10
-3.7492423793
 20
26.5473255235
 10
-3.7749990972
 20
26.5424288322
 10
-3.8005821685
 20
26.5371281242
 10
-3.8259758867
 20
26.5314218421
 10
-3.8511623534
 20
26.5253086152
 10
-3.876123431
 20
26.5187869669
 10
-3.9008446505
 20
26.5118545737
 10
-3.9253081177
 20
26.5045095334
 10
-3.9494955227
 20
26.4967499781
 10
-3.9733933798
 20
26.4885724217
 10
-3.9969828494
 20
26.4799744399
 10
-4.0202463119
 20
26.4709530372
 10
-4.0431738382
 20
26.4615016629
 10
-4.0657501305
 20
26.4516147138
 10
-4.087951846
 20
26.4412900623
 10
-4.1035309474
 20
26.4336645352
  0
LWPOLYLINE
  5
38C
100
AcDbEntity
  8
RACCORDO
100
AcDbPolyline
 62
7
  6
CONTINUOUS
 90
51
 70
0
 10
-2.8660051702
 20
26.474443152
 10
-2.876576277
 20
26.4785953667
 10
-2.8995376502
 20
26.4872100014
 10
-2.9228082522
 20
26.4954028409
 10
-2.9463742271
 20
26.5031788306
 10
-2.9702295865
 20
26.5105444351
 10
-2.9943563325
 20
26.5175014434
 10
-3.0187365809
 20
26.5240519927
 10
-3.0433637556
 20
26.5302005591
 10
-3.0682199709
 20
26.5359482068
 10
-3.0932878891
 20
26.5412963806
 10
-3.1185610219
 20
26.5462481901
 10
-3.1440220163
 20
26.5508042762
 10
-3.1696533463
 20
26.5549654311
 10
-3.1954475875
 20
26.5587335647
 10
-3.2213871917
 20
26.5621089912
 10
-3.247455028
 20
26.5650921678
 10
-3.2736437138
 20
26.567684224
 10
-3.299935686
 20
26.5698852742
 10
-3.3263139667
 20
26.5716954796
 10
-3.352771642
 20
26.5731153331
 10
-3.3792914873
 20
26.5741447854
 10
-3.4058562497
 20
26.574783701
 10
-3.4324587719
 20
26.5750319456
 10
-3.4590818702
 20
26.5748892936
 10
-3.4857081914
 20
26.5743553766
 10
-3.512330352
 20
26.5734294864
 10
-3.5389312258
 20
26.572111196
 10
-3.5654932099
 20
26.5703999161
 10
-3.5920084777
 20
26.5682943861
 10
-3.6184597301
 20
26.5657939507
 10
-3.644829212
 20
26.562897789
 10
-3.6711089285
 20
26.5596040324
 10
-3.6972828633
 20
26.5559115017
 10
-3.723331488
 20
26.5518192715
 10
-3.7492423793
 20
26.5473255235
 10
-3.7749990972
 20
26.5424288322
 10
-3.8005821685
 20
26.5371281242
 10
-3.8259758867
 20
26.5314218421
 10
-3.8511623534
 20
26.5253086152
 10
-3.876123431
 20
26.5187869669
 10
-3.9008446505
 20
26.5118545737
 10
-3.9253081177
 20
26.5045095334
 10
-3.9494955227
 20
26.4967499781
 10
-3.9733933798
 20
26.4885724217
 10
-3.9969828494
 20
26.4799744399
 10
-4.0202463119
 20
26.4709530372
 10
-4.0431738382
 20
26.4615016629
 10
-4.0657501305
 20
26.4516147138
 10
-4.087951846
 20
26.4412900623
 10
-4.1035309474
 20
26.4336645352
  0
LINE
  5
38D
100
AcDbEntity
  8
DRAFT
100
AcDbLine
 62
7
  6
CONTINUOUS
 10
-3.4437245823
 20
27.8242664143
 11
-3.0901711917
 21
27.647489719
  0
LINE
  5
38E
100
AcDbEntity
  8
0
100
AcDbLine
 62
7
  6
CONTINUOUS
 10
16.5077176578
 20
18.2064326479
 11
13.730176928
 21
19.5952030128
  0
LINE
  5
38F
100
AcDbEntity
  8
0
100
AcDbLine
 62
7
  6
CONTINUOUS
 10
1.1181629618
 20
26.3885489594
 11
-1.6923866852
 21
27.7938237829
  0
LINE
  5
390
100
AcDbEntity
  8
ASSI
100
AcDbLine
 62
7
  6
CONTINUOUS
 10
7.1724919238
 20
23.8340295288
 11
7.9602805714
 21
23.440135205
  0
LINE
  5
391
100
AcDbEntity
  8
DRAFT
100
AcDbLine
 62
7
  6
CONTINUOUS
 10
7.1724919238
 20
23.8340295288
 11
7.9602805714
 21
23.440135205
  0
LINE
  5
392
100
AcDbEntity
  8
RACCORDO
100
AcDbLine
 62
253
  6
CONTINUOUS
 10
18.3046191203
 20
18.4990324341
 11
17.6987681752
 21
18.8019579066
  0
LINE
  5
393
100
AcDbEntity
  8
RACCORDO
100
AcDbLine
 62
253
  6
CONTINUOUS
 10
12.7490207069
 20
21.2768316408
 11
12.1431697618
 21
21.5797571134
  0
LINE
  5
394
100
AcDbEntity
  8
0
100
AcDbLine
 62
7
  6
CONTINUOUS
 10
-0.3324547451
 20
27.8675719703
 11
1.8772861431
 21
26.7627015262
  0
LINE
  5
395
100
AcDbEntity
  8
0
100
AcDbLine
 62
7
  6
CONTINUOUS
 10
2.6228709662
 20
26.3899091147
 11
2.7686843763
 21
26.3170024097
  0
LINE
  5
396
100
AcDbEntity
  8
0
100
AcDbLine
 62
7
  6
CONTINUOUS
 10
15.5774478316
 20
19.912620682
 11
17.7543931433
 21
18.8241480261
  0
LINE
  5
397
100
AcDbEntity
  8
0
100
AcDbLine
 62
7
  6
CONTINUOUS
 10
18.6334881279
 20
18.3846005339
 11
18.7510815473
 21
18.3258038242
  0
LINE
  5
398
100
AcDbEntity
  8
RACCORDO
100
AcDbLine
 62
7
  6
CONTINUOUS
 10
18.5269442313
 20
18.5138741711
 11
17.922374973
 21
18.8161588003
  0
LINE
  5
399
100
AcDbEntity
  8
RACCORDO
100
AcDbLine
 62
7
  6
CONTINUOUS
 10
12.9726275046
 20
21.2910325344
 11
12.3680582463
 21
21.5933171636
  0
LINE
  5
39A
100
AcDbEntity
  8
RACCORDO
100
AcDbLine
 62
7
  6
CONTINUOUS
 10
-3.1999124907
 20
29.5645445229
 11
-3.0194605136
 21
29.4743185343
  0
LINE
  5
39B
100
AcDbEntity
  8
RACCORDO
100
AcDbLine
 62
7
  6
CONTINUOUS
 10
2.3545510235
 20
26.7873127658
 11
2.5350030006
 21
26.6970867773
  0
LINE
  5
39C
100
AcDbEntity
  8
RACCORDO
100
AcDbLine
 62
253
  6
CONTINUOUS
 10
11.7184812505
 20
22.2083443552
 11
14.8826817654
 21
20.6262440978
  0
LINE
  5
39D
100
AcDbEntity
  8
RACCORDO
100
AcDbLine
 62
253
  6
CONTINUOUS
 10
19.1253224525
 20
18.5049237543
 11
22.2895229674
 21
16.9228234968
  0
LINE
  5
39E
100
AcDbEntity
  8
RACCORDO
100
AcDbLine
 62
253
  6
CONTINUOUS
 10
-4.0124808348
 20
30.1434415473
 11
-1.0333909338
 21
28.6538965968
  0
LINE
  5
39F
100
AcDbEntity
  8
RACCORDO
100
AcDbLine
 62
253
  6
CONTINUOUS
 10
3.2092497533
 20
26.5325762532
 11
6.1883396542
 21
25.0430313028
  0
LINE
  5
3A0
100
AcDbEntity
  8
RACCORDO
100
AcDbLine
 62
7
  6
CONTINUOUS
 10
11.9926473876
 20
22.3110610566
 11
15.317554646
 21
20.6486074274
  0
LINE
  5
3A1
100
AcDbEntity
  8
RACCORDO
100
AcDbLine
 62
7
  6
CONTINUOUS
 10
19.5601953331
 20
18.5272870839
 11
22.8851025915
 21
16.8648334547
  0
LINE
  5
3A2
100
AcDbEntity
  8
RACCORDO
100
AcDbLine
 62
7
  6
CONTINUOUS
 10
-3.8188378229
 20
30.2924910095
 11
-0.5923479307
 21
28.6792460634
  0
LINE
  5
3A3
100
AcDbEntity
  8
RACCORDO
100
AcDbLine
 62
7
  6
CONTINUOUS
 10
3.6502927564
 20
26.5579257198
 11
6.8767826485
 21
24.9446807737
  0
LINE
  5
3A4
100
AcDbEntity
  8
RACCORDO
100
AcDbLine
 62
7
  6
CONTINUOUS
 10
8.7988063469
 20
24.2421680314
 11
7.9669332831
 21
24.6581045633
  0
LINE
  5
3A5
100
AcDbEntity
  8
0
100
AcDbLine
 62
253
  6
CONTINUOUS
 10
9.889601119
 20
24.92713536
 11
9.9316038853
 21
24.8907613426
  0
LINE
  5
3A6
100
AcDbEntity
  8
0
100
AcDbLine
 62
253
  6
CONTINUOUS
 10
9.8898036511
 20
25.2216986079
 11
10.029601119
 21
25.1006304493
  0
LWPOLYLINE
  5
3A7
100
AcDbEntity
  8
0
100
AcDbPolyline
 62
7
  6
CONTINUOUS
 90
9
 70
0
 10
9.8938820435
 20
25.2538545709
 10
9.8865933228
 20
25.2604628412
 10
9.8778983361
 20
25.2668526849
 10
9.8685180225
 20
25.2722976125
 10
9.8585821806
 20
25.2767065497
 10
9.8482131275
 20
25.2800178339
 10
9.8375216457
 20
25.2821890383
 10
9.826636838
 20
25.2831862319
 10
9.8188369967
 20
25.2831697623
  0
LINE
  5
3A8
100
AcDbEntity
  8
0
100
AcDbLine
 62
7
  6
CONTINUOUS
 10
10.029601119
 20
25.1181423597
 11
9.893852512
 21
25.2538909667
  0
LINE
  5
3A9
100
AcDbEntity
  8
DRAFT
100
AcDbLine
 62
7
  6
CONTINUOUS
 10
18.5119409736
 20
-22.0766636791
 11
22.7105510563
 21
-19.9403953489
  0
LINE
  5
3AA
100
AcDbEntity
  8
RACCORDO
100
AcDbLine
 62
253
  6
CONTINUOUS
 10
13.4267643203
 20
-22.6756258685
 11
14.5366318512
 21
-22.163052263
  0
LINE
  5
3AB
100
AcDbEntity
  8
RACCORDO
100
AcDbLine
 62
7
  6
CONTINUOUS
 10
13.4057410577
 20
-22.8958392152
 11
14.4360880449
 21
-22.419990832
  0
LINE
  5
3AC
100
AcDbEntity
  8
0
100
AcDbLine
 62
7
  6
CONTINUOUS
 10
-1.6923866852
 20
27.7938237829
 11
-0.3324547451
 21
27.8675719703
  0
LWPOLYLINE
  5
3AD
100
AcDbEntity
  8
ASSI
100
AcDbPolyline
 62
7
  6
CONTINUOUS
 90
14
 70
0
 10
2.8664921788
 20
26.3648609229
 10
2.8540817252
 20
26.3655619909
 10
2.8330547677
 20
26.3669692426
 10
2.8121757809
 20
26.3685851839
 10
2.791483017
 20
26.3704040091
 10
2.7709949075
 20
26.3724209617
 10
2.7507296934
 20
26.3746308871
 10
2.7307243233
 20
26.3770256804
 10
2.7109954757
 20
26.3795988003
 10
2.6915599625
 20
26.3823434764
 10
2.6724535625
 20
26.3852493757
 10
2.653690878
 20
26.3883083411
 10
2.6352866734
 20
26.3915120313
 10
2.6228709662
 20
26.3938115658
  0
LWPOLYLINE
  5
3AE
100
AcDbEntity
  8
RACCORDO
100
AcDbPolyline
 62
7
  6
CONTINUOUS
 90
14
 70
0
 10
2.8664921788
 20
26.3648609229
 10
2.8540817252
 20
26.3655619909
 10
2.8330547677
 20
26.3669692426
 10
2.8121757809
 20
26.3685851839
 10
2.791483017
 20
26.3704040091
 10
2.7709949075
 20
26.3724209617
 10
2.7507296934
 20
26.3746308871
 10
2.7307243233
 20
26.3770256804
 10
2.7109954757
 20
26.3795988003
 10
2.6915599625
 20
26.3823434764
 10
2.6724535625
 20
26.3852493757
 10
2.653690878
 20
26.3883083411
 10
2.6352866734
 20
26.3915120313
 10
2.6228709662
 20
26.3938115658
  0
LINE
  5
3AF
100
AcDbEntity
  8
RACCORDO
100
AcDbLine
 62
7
  6
CONTINUOUS
 10
10.1003117971
 20
24.4399434437
 11
8.8154508241
 21
25.0823739302
  0
LINE
  5
3B0
100
AcDbEntity
  8
ASSI
100
AcDbLine
 62
7
  6
CONTINUOUS
 10
8.0312171965
 20
25.6399260513
 11
8.4650883496
 21
25.4229904748
  0
LINE
  5
3B1
100
AcDbEntity
  8
DRAFT
100
AcDbLine
 62
7
  6
CONTINUOUS
 10
8.0312171965
 20
25.6399260513
 11
8.4650883496
 21
25.4229904748
  0
LINE
  5
3B2
100
AcDbEntity
  8
0
100
AcDbLine
 62
7
  6
CONTINUOUS
 10
11.2570253986
 20
24.915175747
 11
11.7520001454
 21
24.6676883736
  0
LINE
  5
3B3
100
AcDbEntity
  8
0
100
AcDbLine
 62
7
  6
CONTINUOUS
 10
12.2425950434
 20
24.6997282124
 11
11.9005200826
 21
24.8801111032
  0
LWPOLYLINE
  5
3B4
100
AcDbEntity
  8
0
100
AcDbPolyline
 62
7
  6
CONTINUOUS
 90
4
 70
0
 10
9.9077782726
 20
24.901957378
 10
9.906977943
 20
24.9024897263
 10
9.9056743413
 20
24.9034291674
 10
9.9053364678
 20
24.9037004124
  0
LINE
  5
3B5
100
AcDbEntity
  8
ASSI
100
AcDbLine
 62
253
  6
CONTINUOUS
 10
16.7900611428
 20
25.3073943147
 11
16.4471635668
 21
25.8988051502
  0
LINE
  5
3B6
100
AcDbEntity
  8
RACCORDO
100
AcDbLine
 62
253
  6
CONTINUOUS
 10
16.7900611428
 20
25.3073943147
 11
16.4471635668
 21
25.8988051502
  0
LINE
  5
3B7
100
AcDbEntity
  8
ASSI
100
AcDbLine
 62
7
  6
CONTINUOUS
 10
17.1429043916
 20
25.4404926721
 11
16.8798574553
 21
25.8941815265
  0
LINE
  5
3B8
100
AcDbEntity
  8
RACCORDO
100
AcDbLine
 62
7
  6
CONTINUOUS
 10
17.1429043916
 20
25.4404926721
 11
16.8798574553
 21
25.8941815265
  0
LINE
  5
3B9
100
AcDbEntity
  8
RACCORDO
100
AcDbLine
 62
7
  6
CONTINUOUS
 10
14.1474919265
 20
-27.5146732912
 11
14.6778220124
 21
-26.8745082482
  0
LINE
  5
3BA
100
AcDbEntity
  8
RACCORDO
100
AcDbLine
 62
253
  6
CONTINUOUS
 10
14.2516226169
 20
-27.5308554582
 11
14.7819527028
 21
-26.8906904152
  0
LINE
  5
3BB
100
AcDbEntity
  8
RACCORDO
100
AcDbLine
 62
253
  6
CONTINUOUS
 10
16.1254555871
 20
-27.5624418574
 11
15.5951255012
 21
-28.2026069003
  0
LINE
  5
3BC
100
AcDbEntity
  8
RACCORDO
100
AcDbLine
 62
253
  6
CONTINUOUS
 10
16.39062063
 20
-27.7941360312
 11
15.8602905441
 21
-28.4343010741
  0
LINE
  5
3BD
100
AcDbEntity
  8
DRAFT
100
AcDbLine
 62
7
  6
CONTINUOUS
 10
18.5119409736
 20
-22.8611024837
 11
23.4443285113
 21
-20.3072840764
  0
LINE
  5
3BE
100
AcDbEntity
  8
RACCORDO
100
AcDbLine
 62
7
  6
CONTINUOUS
 10
18.5119409736
 20
-23.4756123379
 11
22.2895229674
 21
-21.57225636
  0
LINE
  5
3BF
100
AcDbEntity
  8
RACCORDO
100
AcDbLine
 62
7
  6
CONTINUOUS
 10
18.5119409736
 20
-23.3379626556
 11
23.400860279
 21
-20.9130226385
  0
LWPOLYLINE
  5
3C0
100
AcDbEntity
  8
RACCORDO
100
AcDbPolyline
 62
7
  6
CONTINUOUS
 90
7
 70
0
 10
16.5838798333
 20
-26.9578069029
 10
16.6101315457
 20
-26.9493661457
 10
16.6384887807
 20
-26.9396218067
 10
16.6674851587
 20
-26.9288044919
 10
16.6972133265
 20
-26.9166746781
 10
16.730161138
 20
-26.9018959873
 10
16.7591001508
 20
-26.8876909826
  0
LINE
  5
3C1
100
AcDbEntity
  8
RACCORDO
100
AcDbLine
 62
253
  6
CONTINUOUS
 10
12.9347399127
 20
-27.8294568193
 11
8.845049729
 21
-29.1117204703
  0
LINE
  5
3C2
100
AcDbEntity
  8
RACCORDO
100
AcDbLine
 62
7
  6
CONTINUOUS
 10
8.527993031
 20
-29.5890399398
 11
12.6220972284
 21
-28.3053929163
  0
LINE
  5
3C3
100
AcDbEntity
  8
ASSI
100
AcDbLine
 62
7
  6
CONTINUOUS
 10
12.0048149163
 20
27.622389829
 11
15.1133678559
 21
26.0681133591
  0
LINE
  5
3C4
100
AcDbEntity
  8
DRAFT
100
AcDbLine
 62
7
  6
CONTINUOUS
 10
12.0048149163
 20
27.622389829
 11
15.1133678559
 21
26.0681133591
  0
LINE
  5
3C5
100
AcDbEntity
  8
ASSI
100
AcDbLine
 62
253
  6
CONTINUOUS
 10
16.4471635668
 20
25.8988051502
 11
15.622848319
 21
26.3109627741
  0
LINE
  5
3C6
100
AcDbEntity
  8
0
100
AcDbLine
 62
253
  6
CONTINUOUS
 10
16.4471635668
 20
25.8988051502
 11
15.622848319
 21
26.3109627741
  0
LINE
  5
3C7
100
AcDbEntity
  8
ASSI
100
AcDbLine
 62
253
  6
CONTINUOUS
 10
10.9605346964
 20
28.6421195854
 11
9.9206994145
 21
29.1620372264
  0
LINE
  5
3C8
100
AcDbEntity
  8
RACCORDO
100
AcDbLine
 62
253
  6
CONTINUOUS
 10
10.9605346964
 20
28.6421195854
 11
9.9206994145
 21
29.1620372264
  0
LINE
  5
3C9
100
AcDbEntity
  8
ASSI
100
AcDbLine
 62
7
  6
CONTINUOUS
 10
16.8159556398
 20
25.9542088836
 11
15.9708154334
 21
26.3767789868
  0
LINE
  5
3CA
100
AcDbEntity
  8
RACCORDO
100
AcDbLine
 62
7
  6
CONTINUOUS
 10
16.8159556398
 20
25.9542088836
 11
15.9708154334
 21
26.3767789868
  0
LINE
  5
3CB
100
AcDbEntity
  8
ASSI
100
AcDbLine
 62
7
  6
CONTINUOUS
 10
11.4823133431
 20
28.621030032
 11
10.3555722951
 21
29.184400556
  0
LINE
  5
3CC
100
AcDbEntity
  8
RACCORDO
100
AcDbLine
 62
7
  6
CONTINUOUS
 10
11.4823133431
 20
28.621030032
 11
10.3555722951
 21
29.184400556
  0
LINE
  5
3CD
100
AcDbEntity
  8
DRAFT
100
AcDbLine
 62
7
  6
CONTINUOUS
 10
16.3535928457
 20
-26.8244953543
 11
16.8212349401
 21
-26.5295795369
  0
LWPOLYLINE
  5
3CE
100
AcDbEntity
  8
RACCORDO
100
AcDbPolyline
 62
7
  6
CONTINUOUS
 90
11
 70
0
 10
17.4840561231
 20
-26.517070946
 10
17.5183807123
 20
-26.4984942944
 10
17.5508347919
 20
-26.479520446
 10
17.582151781
 20
-26.4600204713
 10
17.6123988237
 20
-26.4402540158
 10
17.641013362
 20
-26.4209787937
 10
17.6677858168
 20
-26.4028055987
 10
17.6930844587
 20
-26.3859144639
 10
17.7161917956
 20
-26.3711455092
 10
17.7356841396
 20
-26.3595627876
 10
17.7513916277
 20
-26.3511282784
  0
LINE
  5
3CF
100
AcDbEntity
  8
RACCORDO
100
AcDbLine
 62
253
  6
CONTINUOUS
 10
16.5673973253
 20
-27.0220417854
 11
17.2745041065
 21
-26.6533718652
  0
LINE
  5
3D0
100
AcDbEntity
  8
RACCORDO
100
AcDbLine
 62
7
  6
CONTINUOUS
 10
16.7590100373
 20
-26.8877339344
 11
17.161207997
 21
-26.6820766331
  0
LINE
  5
3D1
100
AcDbEntity
  8
RACCORDO
100
AcDbLine
 62
7
  6
CONTINUOUS
 10
17.161207997
 20
-26.6820766331
 11
17.4781645153
 21
-26.5201047775
  0
LINE
  5
3D2
100
AcDbEntity
  8
RACCORDO
100
AcDbLine
 62
7
  6
CONTINUOUS
 10
17.4840561231
 20
-26.517070946
 11
17.4781642845
 21
-26.5201045129
  0
LINE
  5
3D3
100
AcDbEntity
  8
RACCORDO
100
AcDbLine
 62
253
  6
CONTINUOUS
 10
16.3535928457
 20
-26.8503649922
 11
16.5893451634
 21
-26.7315866063
  0
LINE
  5
3D4
100
AcDbEntity
  8
RACCORDO
100
AcDbLine
 62
253
  6
CONTINUOUS
 10
17.8738292562
 20
-26.0843898047
 11
18.5119409736
 21
-25.7628691237
  0
LWPOLYLINE
  5
3D5
100
AcDbEntity
  8
RACCORDO
100
AcDbPolyline
 62
7
  6
CONTINUOUS
 90
7
 70
0
 10
16.224097
 20
-27.1206552823
 10
16.4687852113
 20
-26.9973719748
 10
16.4835275701
 20
-26.9906562363
 10
16.5000031184
 20
-26.9842664421
 10
16.517634343
 20
-26.9782489739
 10
16.5368591838
 20
-26.9721934664
 10
16.5838798333
 20
-26.9578069029
  0
LINE
  5
3D6
100
AcDbEntity
  8
RACCORDO
100
AcDbLine
 62
7
  6
CONTINUOUS
 10
18.3824451279
 20
-26.0331594137
 11
17.7513879052
 21
-26.3511211228
  0
LINE
  5
3D7
100
AcDbEntity
  8
RACCORDO
100
AcDbLine
 62
253
  6
CONTINUOUS
 10
15.8602905441
 20
-28.7856150462
 11
17.9816108877
 21
-27.7249548744
  0
LINE
  5
3D8
100
AcDbEntity
  8
RACCORDO
100
AcDbLine
 62
7
  6
CONTINUOUS
 10
15.7953172477
 20
-28.9208334963
 11
17.9166375913
 21
-27.8601733245
  0
ARC
  5
3D9
100
AcDbEntity
  8
ASSI
100
AcDbCircle
 62
253
  6
CONTINUOUS
 10
141.6529769704
 20
-283.6823782915
 40
328.8205092887
100
AcDbArc
 50
111.8878606767
 51
112.2389557423
  0
ARC
  5
3DA
100
AcDbEntity
  8
RACCORDO
100
AcDbCircle
 62
253
  6
CONTINUOUS
 10
141.6529769704
 20
-283.6823782915
 40
328.8205092887
100
AcDbArc
 50
111.8878606767
 51
112.2389557423
  0
ARC
  5
3DB
100
AcDbEntity
  8
ASSI
100
AcDbCircle
 62
253
  6
CONTINUOUS
 10
90.4423326023
 20
-165.3134242842
 40
200.2242614671
100
AcDbArc
 50
110.9009224367
 51
111.3422627134
  0
ARC
  5
3DC
100
AcDbEntity
  8
RACCORDO
100
AcDbCircle
 62
253
  6
CONTINUOUS
 10
90.4423326023
 20
-165.3134242842
 40
200.2242614671
100
AcDbArc
 50
110.9009224367
 51
111.3422627134
  0
ARC
  5
3DD
100
AcDbEntity
  8
RACCORDO
100
AcDbCircle
 62
253
  6
CONTINUOUS
 10
-22.1121921544
 20
-14.0129414799
 40
0.5542467717
100
AcDbArc
 50
240.3351075782
 51
243.4185787596
  0
ARC
  5
3DE
100
AcDbEntity
  8
ASSI
100
AcDbCircle
 62
253
  6
CONTINUOUS
 10
3.3412482128
 20
27.8607449845
 40
1.5772358146
100
AcDbArc
 50
292.8041140934
 51
294.7822851536
  0
ARC
  5
3DF
100
AcDbEntity
  8
RACCORDO
100
AcDbCircle
 62
253
  6
CONTINUOUS
 10
3.3412482128
 20
27.8607449845
 40
1.5772358146
100
AcDbArc
 50
292.8041140934
 51
294.7822851536
  0
ARC
  5
3E0
100
AcDbEntity
  8
ASSI
100
AcDbCircle
 62
7
  6
CONTINUOUS
 10
9.9083586273
 20
28.2899724982
 40
1.0000007566
100
AcDbArc
 50
63.4347949232
 51
114.7890332365
  0
ARC
  5
3E1
100
AcDbEntity
  8
RACCORDO
100
AcDbCircle
 62
7
  6
CONTINUOUS
 10
9.9083586273
 20
28.2899724982
 40
1.0000007566
100
AcDbArc
 50
63.4347949232
 51
114.7890332365
  0
ARC
  5
3E2
100
AcDbEntity
  8
RACCORDO
100
AcDbCircle
 62
253
  6
CONTINUOUS
 10
4.7070753167
 20
19.4599952333
 40
0.8017355635
100
AcDbArc
 50
144.2116629304
 51
156.1226671814
  0
ARC
  5
3E3
100
AcDbEntity
  8
0
100
AcDbCircle
 62
253
  6
CONTINUOUS
 10
10.0988935484
 20
25.6514406393
 40
0.7989351615
100
AcDbArc
 50
270.1017099842
 51
271.6087702212
  0
ARC
  5
3E4
100
AcDbEntity
  8
0
100
AcDbCircle
 62
253
  6
CONTINUOUS
 10
10.1016892872
 20
25.6497778021
 40
0.7972722554
100
AcDbArc
 50
268.3197982774
 51
269.901006919
  0
ARC
  5
3E5
100
AcDbEntity
  8
RACCORDO
100
AcDbCircle
 62
253
  6
CONTINUOUS
 10
4.7005031258
 20
19.4615340333
 40
0.7951039714
100
AcDbArc
 50
156.0323613519
 51
162.2282308085
  0
ARC
  5
3E6
100
AcDbEntity
  8
RACCORDO
100
AcDbCircle
 62
253
  6
CONTINUOUS
 10
4.6600070772
 20
19.4936423811
 40
0.7438780477
100
AcDbArc
 50
140.3850856483
 51
144.1938577794
  0
ARC
  5
3E7
100
AcDbEntity
  8
ASSI
100
AcDbCircle
 62
7
  6
CONTINUOUS
 10
7.6711199907
 20
24.9863206745
 40
0.6773030672
100
AcDbArc
 50
180.0035526116
 51
186.2836086991
  0
ARC
  5
3E8
100
AcDbEntity
  8
0
100
AcDbCircle
 62
7
  6
CONTINUOUS
 10
7.6711199907
 20
24.9863206745
 40
0.6773030672
100
AcDbArc
 50
180.0035526116
 51
186.2836086991
  0
ARC
  5
3E9
100
AcDbEntity
  8
ASSI
100
AcDbCircle
 62
253
  6
CONTINUOUS
 10
9.6451401627
 20
28.859919314
 40
0.3722083235
100
AcDbArc
 50
114.1358837691
 51
114.7892520314
  0
ARC
  5
3EA
100
AcDbEntity
  8
RACCORDO
100
AcDbCircle
 62
253
  6
CONTINUOUS
 10
9.6451401627
 20
28.859919314
 40
0.3722083235
100
AcDbArc
 50
114.1358837691
 51
114.7892520314
  0
ARC
  5
3EB
100
AcDbEntity
  8
RACCORDO
100
AcDbCircle
 62
7
  6
CONTINUOUS
 10
0.9779292892
 20
20.3082641957
 40
0.2523005544
100
AcDbArc
 50
187.0477626106
 51
205.783027557
  0
ARC
  5
3EC
100
AcDbEntity
  8
RACCORDO
100
AcDbCircle
 62
7
  6
CONTINUOUS
 10
3.0975231566
 20
21.7185486838
 40
0.2511387701
100
AcDbArc
 50
114.1902932227
 51
116.605513686
  0
ARC
  5
3ED
100
AcDbEntity
  8
RACCORDO
100
AcDbCircle
 62
7
  6
CONTINUOUS
 10
3.0972228894
 20
21.7188996635
 40
0.2506956038
100
AcDbArc
 50
99.5619255303
 51
114.1605637589
  0
ARC
  5
3EE
100
AcDbEntity
  8
RACCORDO
100
AcDbCircle
 62
7
  6
CONTINUOUS
 10
4.4402334529
 20
20.6966294669
 40
0.2502934088
100
AcDbArc
 50
320.3810517606
 51
359.9702670056
  0
ARC
  5
3EF
100
AcDbEntity
  8
RACCORDO
100
AcDbCircle
 62
7
  6
CONTINUOUS
 10
3.0969974255
 20
21.7194030034
 40
0.2501618428
100
AcDbArc
 50
63.4494567892
 51
99.5301538431
  0
ARC
  5
3F0
100
AcDbEntity
  8
RACCORDO
100
AcDbCircle
 62
7
  6
CONTINUOUS
 10
4.4404796184
 20
21.0478031251
 40
0.2500364105
100
AcDbArc
 50
0.004929906
 51
63.425592354
  0
ARC
  5
3F1
100
AcDbEntity
  8
RACCORDO
100
AcDbCircle
 62
7
  6
CONTINUOUS
 10
0.9757131663
 20
20.6589069766
 40
0.2500170981
100
AcDbArc
 50
116.5683102187
 51
179.9930719068
  0
ARC
  5
3F2
100
AcDbEntity
  8
RACCORDO
100
AcDbCircle
 62
7
  6
CONTINUOUS
 10
2.3191956844
 20
19.6358504951
 40
0.25
100
AcDbArc
 50
244.0406531095
 51
258.6758098606
  0
ARC
  5
3F3
100
AcDbEntity
  8
RACCORDO
100
AcDbCircle
 62
7
  6
CONTINUOUS
 10
0.9756626795
 20
20.307570881
 40
0.2499582854
100
AcDbArc
 50
205.8659142581
 51
243.4654847495
  0
ARC
  5
3F4
100
AcDbEntity
  8
RACCORDO
100
AcDbCircle
 62
7
  6
CONTINUOUS
 10
0.9751844895
 20
20.3075960284
 40
0.2494947253
100
AcDbArc
 50
179.9936401235
 51
186.972819303
  0
ARC
  5
3F5
100
AcDbEntity
  8
RACCORDO
100
AcDbCircle
 62
253
  6
CONTINUOUS
 10
1.6090650999
 20
19.7276176763
 40
0.231008612
100
AcDbArc
 50
238.5084859941
 51
243.5092350169
  0
ARC
  5
3F6
100
AcDbEntity
  8
RACCORDO
100
AcDbCircle
 62
7
  6
CONTINUOUS
 10
8.726808992
 20
24.9877903079
 40
0.1162740147
100
AcDbArc
 50
106.9540603679
 51
116.497741343
  0
ARC
  5
3F7
100
AcDbEntity
  8
0
100
AcDbCircle
 62
7
  6
CONTINUOUS
 10
10.1003117971
 20
25.1888530378
 40
0.1
100
AcDbArc
 50
224.9999999928
 51
315.0000000527
  0
ARC
  5
3F8
100
AcDbEntity
  8
RACCORDO
100
AcDbCircle
 62
253
  6
CONTINUOUS
 10
3.1667073777
 20
21.8588680337
 40
0.0942397596
100
AcDbArc
 50
63.4611905189
 51
67.3721313168
  0
ARC
  5
3F9
100
AcDbEntity
  8
ASSI
100
AcDbCircle
 62
7
  6
CONTINUOUS
 10
-2.8908425694
 20
26.4121256281
 40
0.067084793
100
AcDbArc
 50
68.2696511223
 51
72.5326315963
  0
ARC
  5
3FA
100
AcDbEntity
  8
RACCORDO
100
AcDbCircle
 62
7
  6
CONTINUOUS
 10
-2.8908425694
 20
26.4121256281
 40
0.067084793
100
AcDbArc
 50
68.2696511223
 51
72.5326315963
  0
ARC
  5
3FB
100
AcDbEntity
  8
ASSI
100
AcDbCircle
 62
7
  6
CONTINUOUS
 10
-2.8907306319
 20
26.4124281108
 40
0.0667623626
100
AcDbArc
 50
63.4357676532
 51
68.2627786013
  0
ARC
  5
3FC
100
AcDbEntity
  8
RACCORDO
100
AcDbCircle
 62
7
  6
CONTINUOUS
 10
-2.8907306319
 20
26.4124281108
 40
0.0667623626
100
AcDbArc
 50
63.4357676532
 51
68.2627786013
  0
ARC
  5
3FD
100
AcDbEntity
  8
ASSI
100
AcDbCircle
 62
7
  6
CONTINUOUS
 10
-4.1389536569
 20
26.3506859951
 40
0.0583767695
100
AcDbArc
 50
116.5905652312
 51
130.3803902664
  0
ARC
  5
3FE
100
AcDbEntity
  8
RACCORDO
100
AcDbCircle
 62
7
  6
CONTINUOUS
 10
-4.1389536569
 20
26.3506859951
 40
0.0583767695
100
AcDbArc
 50
116.5905652312
 51
130.3803902664
  0
ARC
  5
3FF
100
AcDbEntity
  8
RACCORDO
100
AcDbCircle
 62
253
  6
CONTINUOUS
 10
3.9251942025
 20
19.2643276866
 40
0.0582038063
100
AcDbArc
 50
354.0335822805
 51
0.006247795
  0
ARC
  5
400
100
AcDbEntity
  8
RACCORDO
100
AcDbCircle
 62
7
  6
CONTINUOUS
 10
42.9254720117
 20
-43.3037868971
 40
76.4922390883
100
AcDbArc
 50
116.6003727202
 51
117.2427895042
  0
ARC
  5
401
100
AcDbEntity
  8
RACCORDO
100
AcDbCircle
 62
7
  6
CONTINUOUS
 10
14.301251205
 20
-26.562911685
 40
0.4887719215
100
AcDbArc
 50
320.3936685087
 51
323.7163003819
  0
ARC
  5
402
100
AcDbEntity
  8
RACCORDO
100
AcDbCircle
 62
253
  6
CONTINUOUS
 10
16.4393019997
 20
-26.7833854279
 40
0.2708602397
100
AcDbArc
 50
293.6002453934
 51
298.2240318782
  0
ARC
  5
403
100
AcDbEntity
  8
RACCORDO
100
AcDbCircle
 62
253
  6
CONTINUOUS
 10
17.7469123234
 20
-27.2515226227
 40
0.2545625773
100
AcDbArc
 50
15.3325754149
 51
22.1675191901
  0
ARC
  5
404
100
AcDbEntity
  8
RACCORDO
100
AcDbCircle
 62
7
  6
CONTINUOUS
 10
17.6008029569
 20
-26.8890909822
 40
0.2530757062
100
AcDbArc
 50
179.9354682628
 51
183.4670878419
  0
ARC
  5
405
100
AcDbEntity
  8
RACCORDO
100
AcDbCircle
 62
7
  6
CONTINUOUS
 10
14.3404690991
 20
-27.6743026675
 40
0.2504581744
100
AcDbArc
 50
140.4088461827
 51
179.9676566387
  0
ARC
  5
406
100
AcDbEntity
  8
RACCORDO
100
AcDbCircle
 62
7
  6
CONTINUOUS
 10
17.8044386167
 20
-27.2853337922
 40
0.2503955888
100
AcDbArc
 50
0.0185888359
 51
31.1756305543
  0
ARC
  5
407
100
AcDbEntity
  8
RACCORDO
100
AcDbCircle
 62
7
  6
CONTINUOUS
 10
17.8046777865
 20
-27.6364312633
 40
0.2501909427
100
AcDbArc
 50
296.5832348851
 51
335.1106974808
  0
ARC
  5
408
100
AcDbEntity
  8
RACCORDO
100
AcDbCircle
 62
7
  6
CONTINUOUS
 10
15.6835230437
 20
-28.6972664214
 40
0.2499603589
100
AcDbArc
 50
243.3875827835
 51
296.5672380434
  0
ARC
  5
409
100
AcDbEntity
  8
RACCORDO
100
AcDbCircle
 62
7
  6
CONTINUOUS
 10
14.3398303478
 20
-28.0255954123
 40
0.2497797854
100
AcDbArc
 50
203.1280930178
 51
243.5069905751
  0
ARC
  5
40A
100
AcDbEntity
  8
RACCORDO
100
AcDbCircle
 62
253
  6
CONTINUOUS
 10
17.820779445
 20
-27.1980059938
 40
0.1615955287
100
AcDbArc
 50
54.7743887864
 51
63.3654056722
  0
ARC
  5
40B
100
AcDbEntity
  8
RACCORDO
100
AcDbCircle
 62
253
  6
CONTINUOUS
 10
17.382482902
 20
-26.8490686537
 40
0.0966608047
100
AcDbArc
 50
252.9126992436
 51
258.3067403992
  0
ARC
  5
40C
100
AcDbEntity
  8
RACCORDO
100
AcDbCircle
 62
253
  6
CONTINUOUS
 10
17.8737746179
 20
-27.1475243549
 40
0.0959574173
100
AcDbArc
 50
63.6881410672
 51
78.3067213547
  0
ARC
  5
40D
100
AcDbEntity
  8
RACCORDO
100
AcDbCircle
 62
253
  6
CONTINUOUS
 10
17.382070637
 20
-26.8504536338
 40
0.0952158258
100
AcDbArc
 50
247.5596579396
 51
252.9049489502
  0
ARC
  5
40E
100
AcDbEntity
  8
RACCORDO
100
AcDbCircle
 62
253
  6
CONTINUOUS
 10
17.3818988071
 20
-26.8508970773
 40
0.0947403703
100
AcDbArc
 50
243.4068675937
 51
247.5533361263
  0
ARC
  5
40F
100
AcDbEntity
  8
ASSI
100
AcDbCircle
 62
7
  6
CONTINUOUS
 10
17.6993720018
 20
19.8784855442
 40
1.6392070868
100
AcDbArc
 50
331.5829424896
 51
332.6847607632
  0
ARC
  5
410
100
AcDbEntity
  8
RACCORDO
100
AcDbCircle
 62
7
  6
CONTINUOUS
 10
17.6993720018
 20
19.8784855442
 40
1.6392070868
100
AcDbArc
 50
331.5829424896
 51
332.6847607632
  0
ARC
  5
411
100
AcDbEntity
  8
ASSI
100
AcDbCircle
 62
253
  6
CONTINUOUS
 10
18.1529974238
 20
19.3756339667
 40
1.1263495228
100
AcDbArc
 50
301.6272370626
 51
302.2707498959
  0
ARC
  5
412
100
AcDbEntity
  8
RACCORDO
100
AcDbCircle
 62
253
  6
CONTINUOUS
 10
18.1529974238
 20
19.3756339667
 40
1.1263495228
100
AcDbArc
 50
301.6272370626
 51
302.2707498959
  0
ARC
  5
413
100
AcDbEntity
  8
RACCORDO
100
AcDbCircle
 62
253
  6
CONTINUOUS
 10
18.0713934811
 20
12.777836151
 40
0.8017355635
100
AcDbArc
 50
144.2116629304
 51
156.1226671814
  0
ARC
  5
414
100
AcDbEntity
  8
RACCORDO
100
AcDbCircle
 62
253
  6
CONTINUOUS
 10
18.0648212903
 20
12.7793749511
 40
0.7951039714
100
AcDbArc
 50
156.0323613519
 51
162.2282308085
  0
ARC
  5
415
100
AcDbEntity
  8
RACCORDO
100
AcDbCircle
 62
253
  6
CONTINUOUS
 10
18.0243252417
 20
12.8114832989
 40
0.7438780477
100
AcDbArc
 50
140.3850856483
 51
144.1938577794
  0
ARC
  5
416
100
AcDbEntity
  8
RACCORDO
100
AcDbCircle
 62
7
  6
CONTINUOUS
 10
16.4608212952
 20
15.0363896015
 40
0.2511387701
100
AcDbArc
 50
63.3944863142
 51
65.8097067772
  0
ARC
  5
417
100
AcDbEntity
  8
RACCORDO
100
AcDbCircle
 62
7
  6
CONTINUOUS
 10
15.6838642395
 20
12.9547008238
 40
0.2510595334
100
AcDbArc
 50
243.4644878161
 51
258.2674958925
  0
ARC
  5
418
100
AcDbEntity
  8
RACCORDO
100
AcDbCircle
 62
7
  6
CONTINUOUS
 10
16.4611215624
 20
15.0367405813
 40
0.2506956038
100
AcDbArc
 50
65.8394362411
 51
80.4380744697
  0
ARC
  5
419
100
AcDbEntity
  8
RACCORDO
100
AcDbCircle
 62
7
  6
CONTINUOUS
 10
17.8043760579
 20
14.0144929678
 40
0.2504581744
100
AcDbArc
 50
320.4088461827
 51
359.9676566387
  0
ARC
  5
41A
100
AcDbEntity
  8
RACCORDO
100
AcDbCircle
 62
7
  6
CONTINUOUS
 10
16.4613470263
 20
15.0372439212
 40
0.2501618428
100
AcDbArc
 50
80.4698461568
 51
116.5505432108
  0
ARC
  5
41B
100
AcDbEntity
  8
RACCORDO
100
AcDbCircle
 62
7
  6
CONTINUOUS
 10
17.8047977828
 20
14.3656440428
 40
0.2500364105
100
AcDbArc
 50
0.004929906
 51
63.425592354
  0
ARC
  5
41C
100
AcDbEntity
  8
RACCORDO
100
AcDbCircle
 62
7
  6
CONTINUOUS
 10
14.3398275041
 20
13.9768718807
 40
0.2497830833
100
AcDbArc
 50
116.4919035483
 51
179.9941727574
  0
ARC
  5
41D
100
AcDbEntity
  8
RACCORDO
100
AcDbCircle
 62
253
  6
CONTINUOUS
 10
14.9733832643
 20
13.0454585941
 40
0.231008612
100
AcDbArc
 50
238.5084859942
 51
243.5092350168
  0
ARC
  5
41E
100
AcDbEntity
  8
ASSI
100
AcDbCircle
 62
7
  6
CONTINUOUS
 10
19.1228372006
 20
21.1642983293
 40
0.1123339573
100
AcDbArc
 50
117.1440294398
 51
119.2493149772
  0
ARC
  5
41F
100
AcDbEntity
  8
RACCORDO
100
AcDbCircle
 62
7
  6
CONTINUOUS
 10
19.1228372006
 20
21.1642983293
 40
0.1123339573
100
AcDbArc
 50
117.1440294398
 51
119.2493149772
  0
ARC
  5
420
100
AcDbEntity
  8
ASSI
100
AcDbCircle
 62
7
  6
CONTINUOUS
 10
19.0217925201
 20
19.1288767855
 40
0.1073980331
100
AcDbArc
 50
295.4533439597
 51
297.6226396588
  0
ARC
  5
421
100
AcDbEntity
  8
RACCORDO
100
AcDbCircle
 62
7
  6
CONTINUOUS
 10
19.0217925201
 20
19.1288767855
 40
0.1073980331
100
AcDbArc
 50
295.4533439597
 51
297.6226396588
  0
ARC
  5
422
100
AcDbEntity
  8
RACCORDO
100
AcDbCircle
 62
253
  6
CONTINUOUS
 10
16.3916370741
 20
15.1767089515
 40
0.0942397596
100
AcDbArc
 50
112.6278686832
 51
116.538809481
  0
ARC
  5
423
100
AcDbEntity
  8
RACCORDO
100
AcDbCircle
 62
253
  6
CONTINUOUS
 10
17.2895123669
 20
12.5821686044
 40
0.0582038063
100
AcDbArc
 50
354.0335822806
 51
0.006247795
  0
ARC
  5
424
100
AcDbEntity
  8
RACCORDO
100
AcDbCircle
 62
253
  6
CONTINUOUS
 10
348.9413716019
 20
-30.5738868781
 40
372.0719347785
100
AcDbArc
 50
171.7036734613
 51
177.3895883227
  0
ARC
  5
425
100
AcDbEntity
  8
RACCORDO
100
AcDbCircle
 62
253
  6
CONTINUOUS
 10
365.1590048692
 20
-44.27228973
 40
358.209451887
100
AcDbArc
 50
171.5935570743
 51
177.4997047097
  0
ARC
  5
426
100
AcDbEntity
  8
RACCORDO
100
AcDbCircle
 62
253
  6
CONTINUOUS
 10
365.307606159
 20
-44.2703136132
 40
357.2364342976
100
AcDbArc
 50
171.5934098642
 51
177.4998519198
  0
SPLINE
  5
427
100
AcDbEntity
  8
RACCORDO
100
AcDbSpline
 62
7
  6
CONTINUOUS
 70
0
 71
3
 72
11
 73
7
 74
5
 42
0.0000001
 43
0.0000001
 44
0.0000000001
 12
0.1303718789
 22
0.0651282409
 32
0.0
 13
0.1303488077
 23
-0.0651744038
 33
0.0
 40
0.0
 40
0.0
 40
0.0
 40
0.0
 40
0.2268725889
 40
0.4645684497
 40
0.720929904
 40
1.0
 40
1.0
 40
1.0
 40
1.0
 10
7.8264037456
 20
24.6675858954
 30
0.0
 10
7.8362630142
 20
24.6725111662
 30
0.0
 10
7.8580480274
 20
24.6796507744
 30
0.0
 10
7.8933966607
 20
24.681197919
 30
0.0
 10
7.9305482004
 20
24.6740129615
 30
0.0
 10
7.9547952392
 20
24.6641735853
 30
0.0
 10
7.966920724
 20
24.6581108429
 30
0.0
 11
7.8264037456
 21
24.6675858954
 31
0.0
 11
7.8577774775
 21
24.6780195035
 31
0.0
 11
7.8923695596
 21
24.679849676
 31
0.0
 11
7.9291171462
 21
24.673109094
 31
0.0
 11
7.966920724
 21
24.6581108429
 31
0.0
  0
LINE
  5
428
100
AcDbEntity
  8
RACCORDO
100
AcDbLine
 62
7
  6
CONTINUOUS
 10
7.621375053
 20
24.5645868589
 11
7.8264037456
 21
24.6675858954
  0
SPLINE
  5
429
100
AcDbEntity
  8
RACCORDO
100
AcDbSpline
 62
7
  6
CONTINUOUS
 70
0
 71
3
 72
9
 73
5
 74
3
 42
0.0000001
 43
0.0000001
 44
0.0000000001
 12
-0.0348969259
 22
-0.0179247173
 32
0.0
 13
-0.0270896509
 23
-0.0283767818
 33
0.0
 40
0.0
 40
0.0
 40
0.0
 40
0.0
 40
0.2471502285
 40
1.0
 40
1.0
 40
1.0
 40
1.0
 10
7.9102292567
 20
24.7035319411
 30
0.0
 10
7.9073543289
 20
24.7020552417
 30
0.0
 10
7.8959805475
 20
24.6955848342
 30
0.0
 10
7.8857499855
 20
24.6871441933
 30
0.0
 10
7.8789518396
 20
24.6800230421
 30
0.0
 11
7.9102292567
 21
24.7035319411
 31
0.0
 11
7.9018020951
 21
24.6987365681
 31
0.0
 11
7.8789518396
 21
24.6800230421
 31
0.0
  0
SPLINE
  5
42A
100
AcDbEntity
  8
RACCORDO
100
AcDbSpline
 62
7
  6
CONTINUOUS
 70
0
 71
3
 72
9
 73
5
 74
3
 42
0.0000001
 43
0.0000001
 44
0.0000000001
 12
-1.1422142121
 22
-0.0469145921
 32
0.0
 13
-1.0932713766
 23
-0.3340837956
 33
0.0
 40
0.0
 40
0.0
 40
0.0
 40
0.0
 40
0.512001271
 40
1.0
 40
1.0
 40
1.0
 40
1.0
 10
9.8188372077
 20
25.283171064
 30
0.0
 10
9.6238988316
 20
25.275164287
 30
0.0
 10
9.2437154643
 20
25.2376269888
 30
0.0
 10
8.8707392235
 20
25.1533599803
 30
0.0
 10
8.6929008761
 20
25.0990158244
 30
0.0
 11
9.8188372077
 21
25.283171064
 31
0.0
 11
9.2364794114
 21
25.2244760242
 31
0.0
 11
8.6929008761
 21
25.0990158244
 31
0.0
  0
SPLINE
  5
42B
100
AcDbEntity
  8
RACCORDO
100
AcDbSpline
 62
7
  6
CONTINUOUS
 70
0
 71
3
 72
11
 73
7
 74
5
 42
0.0000001
 43
0.0000001
 44
0.0000000001
 12
-1.395178921
 22
0.7357054271
 32
0.0
 13
-1.5733104147
 23
0.1117185569
 33
0.0
 40
0.0
 40
0.0
 40
0.0
 40
0.0
 40
0.2295510204
 40
0.4747542925
 40
0.7328855678
 40
1.0
 40
1.0
 40
1.0
 40
1.0
 10
11.9005200768
 20
24.8801111062
 30
0.0
 10
11.7937651618
 20
24.9364050834
 30
0.0
 10
11.5646314725
 20
25.03734835
 30
0.0
 10
11.196075691
 20
25.1519795485
 30
0.0
 10
10.7987325849
 20
25.2336770376
 30
0.0
 10
10.523937521
 20
25.2648640625
 30
0.0
 10
10.3838528816
 20
25.2748112755
 30
0.0
 11
11.9005200768
 21
24.8801111062
 31
0.0
 11
11.5699386023
 21
25.0277813551
 31
0.0
 11
11.2010424565
 21
25.1439404045
 31
0.0
 11
10.8024209991
 21
25.2268049209
 31
0.0
 11
10.3838528816
 21
25.2748112755
 31
0.0
  0
LINE
  5
42C
100
AcDbEntity
  8
RACCORDO
100
AcDbLine
 62
7
  6
CONTINUOUS
 10
10.3838528816
 20
25.2748112755
 11
10.3777933125
 21
25.2752378348
  0
SPLINE
  5
42D
100
AcDbEntity
  8
0
100
AcDbSpline
 62
253
  6
CONTINUOUS
 70
0
 71
3
 72
13
 73
9
 74
7
 42
0.0000001
 43
0.0000001
 44
0.0000000001
 12
-0.0134575148
 22
0.0000230664
 32
0.0
 13
0.0010739383
 23
-0.0134146149
 33
0.0
 40
0.0
 40
0.0
 40
0.0
 40
0.0
 40
0.0182186248
 40
0.0664054758
 40
0.1457954511
 40
0.2565928842
 40
0.5700685314
 40
1.0
 40
1.0
 40
1.0
 40
1.0
 10
10.099974172
 20
24.8659055648
 30
0.0
 10
10.0998924462
 20
24.8659057049
 30
0.0
 10
10.0998175208
 20
24.8654931698
 30
0.0
 10
10.0997254216
 20
24.8649554729
 30
0.0
 10
10.0996813904
 20
24.8638245725
 30
0.0
 10
10.0996961892
 20
24.8616020623
 30
0.0
 10
10.0999094287
 20
24.8577466881
 30
0.0
 10
10.10015789
 20
24.854431322
 30
0.0
 10
10.1003117967
 20
24.852508867
 30
0.0
 11
10.099974172
 21
24.8659055648
 31
0.0
 11
10.0998538162
 21
24.865691961
 31
0.0
 11
10.0997532681
 21
24.8650513273
 31
0.0
 11
10.099694287
 21
24.8639845632
 31
0.0
 11
10.0996966069
 21
24.8624935048
 31
0.0
 11
10.099891538
 21
24.8582794014
 31
0.0
 11
10.1003117967
 21
24.852508867
 31
0.0
  0
SPLINE
  5
42E
100
AcDbEntity
  8
0
100
AcDbSpline
 62
253
  6
CONTINUOUS
 70
0
 71
3
 72
13
 73
9
 74
7
 42
0.0000001
 43
0.0000001
 44
0.0000000001
 12
0.024238732
 22
-0.0020060111
 32
0.0
 13
0.0024356681
 23
-0.0241993333
 33
0.0
 40
0.0
 40
0.0
 40
0.0
 40
0.0
 40
0.0252614619
 40
0.0766789626
 40
0.1572668948
 40
0.2674855165
 40
0.5763667532
 40
1.0
 40
1.0
 40
1.0
 40
1.0
 10
10.3777947817
 20
25.275236777
 30
0.0
 10
10.3779988837
 20
25.2752198855
 30
0.0
 10
10.3784203374
 20
25.2746130151
 30
0.0
 10
10.3788059785
 20
25.2734721832
 30
0.0
 10
10.379298312
 20
25.2715314388
 30
0.0
 10
10.3800314216
 20
25.2675674106
 30
0.0
 10
10.3809573504
 20
25.2607799347
 30
0.0
 10
10.3815945189
 20
25.2548810143
 30
0.0
 10
10.3819384622
 20
25.2514638002
 30
0.0
 11
10.3777947817
 21
25.275236777
 31
0.0
 11
10.3782512403
 21
25.2748255206
 31
0.0
 11
10.378726045
 21
25.2736686064
 31
0.0
 11
10.3792188411
 21
25.2717715403
 31
0.0
 11
10.3797292777
 21
25.2691398925
 31
0.0
 11
10.3808014585
 21
25.2617043111
 31
0.0
 11
10.3819384622
 21
25.2514638002
 31
0.0
  0
SPLINE
  5
42F
100
AcDbEntity
  8
0
100
AcDbSpline
 62
253
  6
CONTINUOUS
 70
0
 71
3
 72
9
 73
5
 74
3
 42
0.0000001
 43
0.0000001
 44
0.0000000001
 12
0.1439810085
 22
0.1817475802
 32
0.0
 13
0.1766447603
 23
0.1501976777
 33
0.0
 40
0.0
 40
0.0
 40
0.0
 40
0.0
 40
0.2395000693
 40
1.0
 40
1.0
 40
1.0
 40
1.0
 10
7.8050531151
 20
24.4923992961
 30
0.0
 10
7.8165476022
 20
24.5069088155
 30
0.0
 10
7.8662328045
 20
24.5661465652
 30
0.0
 10
7.9221538405
 20
24.6200294555
 30
0.0
 10
7.9669332831
 20
24.6581045633
 30
0.0
 11
7.8050531151
 21
24.4923992961
 31
0.0
 11
7.8407045102
 21
24.5349765495
 31
0.0
 11
7.9669332831
 21
24.6581045633
 31
0.0
  0
SPLINE
  5
430
100
AcDbEntity
  8
0
100
AcDbSpline
 62
253
  6
CONTINUOUS
 70
0
 71
3
 72
9
 73
5
 74
3
 42
0.0000001
 43
0.0000001
 44
0.0000000001
 12
0.1302774862
 22
0.1395900247
 32
0.0
 13
0.148091022
 23
0.1205265432
 33
0.0
 40
0.0
 40
0.0
 40
0.0
 40
0.0
 40
0.2421663207
 40
1.0
 40
1.0
 40
1.0
 40
1.0
 10
7.686577822
 20
24.5376868216
 30
0.0
 10
7.6970940952
 20
24.5489548225
 30
0.0
 10
7.7413946041
 20
24.5946654213
 30
0.0
 10
7.7889942909
 20
24.6371395375
 30
0.0
 10
7.8264037456
 20
24.6675858954
 30
0.0
 11
7.686577822
 21
24.5376868216
 31
0.0
 11
7.7187437564
 21
24.5709041556
 31
0.0
 11
7.8264037456
 21
24.6675858954
 31
0.0
  0
SPLINE
  5
431
100
AcDbEntity
  8
0
100
AcDbSpline
 62
253
  6
CONTINUOUS
 70
0
 71
3
 72
9
 73
5
 74
3
 42
0.0000001
 43
0.0000001
 44
0.0000000001
 12
-0.010165011
 22
0.0088123134
 32
0.0
 13
-0.0084554651
 23
0.0104637195
 33
0.0
 40
0.0
 40
0.0
 40
0.0
 40
0.0
 40
0.2626261339
 40
1.0
 40
1.0
 40
1.0
 40
1.0
 10
9.9053190805
 20
24.903714377
 30
0.0
 10
9.9044292147
 20
24.9044858249
 30
0.0
 10
9.901088763
 20
24.9074755226
 30
0.0
 10
9.8979383676
 20
24.9106966244
 30
0.0
 10
9.8958600879
 20
24.9132685155
 30
0.0
 11
9.9053190805
 21
24.903714377
 31
0.0
 11
9.9026877435
 21
24.9060721309
 31
0.0
 11
9.8958600879
 21
24.9132685155
 31
0.0
  0
LINE
  5
432
100
AcDbEntity
  8
0
100
AcDbLine
 62
253
  6
CONTINUOUS
 10
9.8958600879
 20
24.9132685155
 11
9.8931499225
 21
24.9170098055
  0
SPLINE
  5
433
100
AcDbEntity
  8
0
100
AcDbSpline
 62
253
  6
CONTINUOUS
 70
0
 71
3
 72
9
 73
5
 74
3
 42
0.0000001
 43
0.0000001
 44
0.0000000001
 12
-0.0057973748
 22
0.0091084201
 32
0.0
 13
0.000007339
 23
0.0107968892
 33
0.0
 40
0.0
 40
0.0
 40
0.0
 40
0.0
 40
0.2811153297
 40
1.0
 40
1.0
 40
1.0
 40
1.0
 10
9.8931499225
 20
24.9170098055
 30
0.0
 10
9.8926066789
 20
24.9178633111
 30
0.0
 10
9.8908196676
 20
24.9209687876
 30
0.0
 10
9.8896006058
 20
24.9245470426
 30
0.0
 10
9.8896023645
 20
24.927134282
 30
0.0
 11
9.8931499225
 21
24.9170098055
 31
0.0
 11
9.891646849
 21
24.9196466669
 31
0.0
 11
9.8896023645
 21
24.927134282
 31
0.0
  0
SPLINE
  5
434
100
AcDbEntity
  8
0
100
AcDbSpline
 62
253
  6
CONTINUOUS
 70
0
 71
3
 72
15
 73
11
 74
9
 42
0.0000001
 43
0.0000001
 44
0.0000000001
 12
0.0208232643
 22
0.0206975746
 32
0.0
 13
0.006419535
 23
-0.0286493892
 33
0.0
 40
0.0
 40
0.0
 40
0.0
 40
0.0
 40
0.0444666283
 40
0.0897330765
 40
0.1591779996
 40
0.2602627911
 40
0.3949069024
 40
0.563470364
 40
0.7654371928
 40
1.0
 40
1.0
 40
1.0
 40
1.0
 10
10.2982501718
 20
25.2453665022
 30
0.0
 10
10.2985588186
 20
25.245673286
 30
0.0
 10
10.2994260907
 20
25.2461980622
 30
0.0
 10
10.3009543927
 20
25.2453866184
 30
0.0
 10
10.3021582465
 20
25.2436516361
 30
0.0
 10
10.3034984152
 20
25.2409689177
 30
0.0
 10
10.3048758284
 20
25.2372570097
 30
0.0
 10
10.3063342152
 20
25.2325310392
 30
0.0
 10
10.3078487041
 20
25.226805078
 30
0.0
 10
10.3088247696
 20
25.2226454464
 30
0.0
 10
10.3093266976
 20
25.2204054194
 30
0.0
 11
10.2982501718
 21
25.2453665022
 31
0.0
 11
10.2994169544
 21
25.2459521901
 31
0.0
 11
10.3006503965
 21
25.2454573178
 31
0.0
 11
10.3019481651
 21
25.243884783
 31
0.0
 11
10.3033083637
 21
25.2412470054
 31
0.0
 11
10.3047291703
 21
25.2375580352
 31
0.0
 11
10.3062083369
 21
25.2328352642
 31
0.0
 11
10.3077421763
 21
25.227107372
 31
0.0
 11
10.3093266976
 21
25.2204054194
 31
0.0
  0
SPLINE
  5
435
100
AcDbEntity
  8
RACCORDO
100
AcDbSpline
 62
7
  6
CONTINUOUS
 70
0
 71
3
 72
10
 73
6
 74
4
 42
0.0000001
 43
0.0000001
 44
0.0000000001
 12
-0.1129483998
 22
0.0564741999
 32
0.0
 13
-0.12077231
 23
-0.0368880119
 33
0.0
 40
0.0
 40
0.0
 40
0.0
 40
0.0
 40
0.5320468172
 40
0.7721244136
 40
1.0
 40
1.0
 40
1.0
 40
1.0
 10
8.8154488614
 20
25.0823749116
 30
0.0
 10
8.7954175825
 20
25.092390551
 30
0.0
 10
8.7639772784
 20
25.1033819987
 30
0.0
 10
8.7216823341
 20
25.1052795555
 30
0.0
 10
8.7020766127
 20
25.1018128818
 30
0.0
 10
8.6929029257
 20
25.0990109226
 30
0.0
 11
8.8154488614
 21
25.0823749116
 31
0.0
 11
8.7515108324
 21
25.1030150413
 31
0.0
 11
8.7212152949
 21
25.1041565347
 31
0.0
 11
8.6929029257
 21
25.0990109226
 31
0.0
  0
LINE
  5
436
100
AcDbEntity
  8
0
100
AcDbLine
 62
253
  6
CONTINUOUS
 10
9.8188904409
 20
25.2427142437
 11
9.8187036044
 21
25.2492173743
  0
LINE
  5
437
100
AcDbEntity
  8
0
100
AcDbLine
 62
253
  6
CONTINUOUS
 10
9.8187036044
 20
25.2492173743
 11
9.8188401062
 21
25.2831694727
  0
SPLINE
  5
438
100
AcDbEntity
  8
0
100
AcDbSpline
 62
253
  6
CONTINUOUS
 70
0
 71
3
 72
9
 73
5
 74
3
 42
0.0000001
 43
0.0000001
 44
0.0000000001
 12
0.0017478553
 22
-0.01741958
 32
0.0
 13
-0.0017197483
 23
-0.0174223773
 33
0.0
 40
0.0
 40
0.0
 40
0.0
 40
0.0
 40
0.225912594
 40
1.0
 40
1.0
 40
1.0
 40
1.0
 10
10.3819384622
 20
25.2514638002
 30
0.0
 10
10.382070083
 20
25.2501520327
 30
0.0
 10
10.3824616436
 20
25.2443262156
 30
0.0
 10
10.3821768985
 20
25.2384702157
 30
0.0
 10
10.3817331533
 20
25.2339747348
 30
0.0
 11
10.3819384622
 21
25.2514638002
 31
0.0
 11
10.3822124837
 21
25.2475182414
 31
0.0
 11
10.3817331533
 21
25.2339747348
 31
0.0
  0
LINE
  5
439
100
AcDbEntity
  8
0
100
AcDbLine
 62
253
  6
CONTINUOUS
 10
9.889601119
 20
25.2173489469
 11
9.8898036511
 21
25.2216986079
  0
SPLINE
  5
43A
100
AcDbEntity
  8
0
100
AcDbSpline
 62
253
  6
CONTINUOUS
 70
0
 71
3
 72
9
 73
5
 74
3
 42
0.0000001
 43
0.0000001
 44
0.0000000001
 12
0.0037053434
 22
-0.0113569271
 32
0.0
 13
-0.0000010299
 23
-0.0119461023
 33
0.0
 40
0.0
 40
0.0
 40
0.0
 40
0.0
 40
0.2307140246
 40
1.0
 40
1.0
 40
1.0
 40
1.0
 10
10.3093266976
 20
25.2204054194
 30
0.0
 10
10.3096116558
 20
25.2195320186
 30
0.0
 10
10.3106670455
 20
25.2156875716
 30
0.0
 10
10.3110227393
 20
25.211672761
 30
0.0
 10
10.3110224752
 20
25.208609438
 30
0.0
 11
10.3093266976
 21
25.2204054194
 31
0.0
 11
10.3100613981
 21
25.2177490146
 31
0.0
 11
10.3110224752
 21
25.208609438
 31
0.0
  0
SPLINE
  5
43B
100
AcDbEntity
  8
0
100
AcDbSpline
 62
253
  6
CONTINUOUS
 70
0
 71
3
 72
13
 73
9
 74
7
 42
0.0000001
 43
0.0000001
 44
0.0000000001
 12
0.0022807494
 22
0.0325210117
 32
0.0
 13
0.0230487213
 23
-0.0230558988
 33
0.0
 40
0.0
 40
0.0
 40
0.0
 40
0.0
 40
0.446404077
 40
0.6220424612
 40
0.7646208039
 40
0.8735571166
 40
0.9486542842
 40
1.0
 40
1.0
 40
1.0
 40
1.0
 10
9.8898036511
 20
25.2216986079
 30
0.0
 10
9.8901430297
 20
25.2265377787
 30
0.0
 10
9.8906415054
 20
25.2332501974
 30
0.0
 10
9.8914329986
 20
25.2415867367
 30
0.0
 10
9.8919069826
 20
25.2460721846
 30
0.0
 10
9.8924837583
 20
25.2499117491
 30
0.0
 10
9.8927436084
 20
25.251703765
 30
0.0
 10
9.8934899207
 20
25.2542481806
 30
0.0
 10
9.8938844051
 20
25.2538535734
 30
0.0
 11
9.8898036511
 21
25.2216986079
 31
0.0
 11
9.8909333815
 21
25.2362078626
 31
0.0
 11
9.8914744419
 21
25.2419082099
 31
0.0
 11
9.8919973583
 21
25.2465268832
 31
0.0
 11
9.8925008298
 21
25.2500424352
 31
0.0
 11
9.8929838467
 21
25.2524425491
 31
0.0
 11
9.8938844051
 21
25.2538535734
 31
0.0
  0
SPLINE
  5
43C
100
AcDbEntity
  8
0
100
AcDbSpline
 62
253
  6
CONTINUOUS
 70
0
 71
3
 72
11
 73
7
 74
5
 42
0.0000001
 43
0.0000001
 44
0.0000000001
 12
-0.1153758759
 22
-0.0999184387
 32
0.0
 13
-0.1153758755
 23
0.0999184392
 33
0.0
 40
0.0
 40
0.0
 40
0.0
 40
0.0
 40
0.2456092506
 40
0.5000000416
 40
0.7543907912
 40
1.0
 40
1.0
 40
1.0
 40
1.0
 10
10.1710224752
 20
25.1006304493
 30
0.0
 10
10.1615766811
 20
25.0924501517
 30
0.0
 10
10.1388613238
 20
25.0795478717
 30
0.0
 10
10.1003117926
 20
25.0730922539
 30
0.0
 10
10.0617622644
 20
25.0795478745
 30
0.0
 10
10.0390469115
 20
25.0924501531
 30
0.0
 10
10.029601119
 20
25.1006304493
 30
0.0
 11
10.1710224752
 21
25.1006304493
 31
0.0
 11
10.1385762623
 21
25.0818553081
 31
0.0
 11
10.1003117906
 21
25.075269176
 31
0.0
 11
10.0620473258
 21
25.0818553102
 31
0.0
 11
10.029601119
 21
25.1006304493
 31
0.0
  0
SPLINE
  5
43D
100
AcDbEntity
  8
0
100
AcDbSpline
 62
253
  6
CONTINUOUS
 70
0
 71
3
 72
9
 73
5
 74
3
 42
0.0000001
 43
0.0000001
 44
0.0000000001
 12
0.0000329415
 22
-0.0286975745
 32
0.0
 13
-0.0216759622
 23
-0.0188070341
 33
0.0
 40
0.0
 40
0.0
 40
0.0
 40
0.0
 40
0.4297126145
 40
1.0
 40
1.0
 40
1.0
 40
1.0
 10
10.3110205123
 20
24.9271303619
 30
0.0
 10
10.3110252308
 20
24.9230197919
 30
0.0
 10
10.3062620216
 20
24.9138763079
 30
0.0
 10
10.2994447063
 20
24.9073049667
 30
0.0
 10
10.2953241971
 20
24.9037298286
 30
0.0
 11
10.3110205123
 21
24.9271303619
 31
0.0
 11
10.306552312
 21
24.9156366048
 31
0.0
 11
10.2953241971
 21
24.9037298286
 31
0.0
  0
SPLINE
  5
43E
100
AcDbEntity
  8
0
100
AcDbSpline
 62
253
  6
CONTINUOUS
 70
0
 71
3
 72
9
 73
5
 74
3
 42
0.0000001
 43
0.0000001
 44
0.0000000001
 12
-0.0803313619
 22
-0.0024888207
 32
0.0
 13
-0.0570228748
 23
-0.0566366814
 33
0.0
 40
0.0
 40
0.0
 40
0.0
 40
0.0
 40
0.5015634007
 40
1.0
 40
1.0
 40
1.0
 40
1.0
 10
10.3819384546
 20
25.2514634341
 30
0.0
 10
10.368508031
 20
25.2510473337
 30
0.0
 10
10.3416681937
 20
25.2451102868
 30
0.0
 10
10.3188007935
 20
25.229815351
 30
0.0
 10
10.3093266976
 20
25.2204054194
 30
0.0
 11
10.3819384546
 21
25.2514634341
 31
0.0
 11
10.3425836003
 21
25.2427375976
 31
0.0
 11
10.3093266976
 21
25.2204054194
 31
0.0
  0
SPLINE
  5
43F
100
AcDbEntity
  8
0
100
AcDbSpline
 62
253
  6
CONTINUOUS
 70
0
 71
3
 72
9
 73
5
 74
3
 42
0.0000001
 43
0.0000001
 44
0.0000000001
 12
-0.0763147777
 22
0.0
 32
0.0
 13
-0.0576885494
 23
-0.0499597493
 33
0.0
 40
0.0
 40
0.0
 40
0.0
 40
0.0
 40
0.5088432619
 40
1.0
 40
1.0
 40
1.0
 40
1.0
 10
10.3817331533
 20
25.2339747348
 30
0.0
 10
10.3687890665
 20
25.2339747348
 30
0.0
 10
10.3431548273
 20
25.2296903465
 30
0.0
 10
10.3204671818
 20
25.2167887938
 30
0.0
 10
10.3110224752
 20
25.208609438
 30
0.0
 11
10.3817331533
 21
25.2339747348
 31
0.0
 11
10.3434643831
 21
25.2273834017
 31
0.0
 11
10.3110224752
 21
25.208609438
 31
0.0
  0
SPLINE
  5
440
100
AcDbEntity
  8
0
100
AcDbSpline
 62
253
  6
CONTINUOUS
 70
0
 71
3
 72
9
 73
5
 74
3
 42
0.0000001
 43
0.0000001
 44
0.0000000001
 12
-0.0763147201
 22
-0.0000006795
 32
0.0
 13
-0.0576888613
 23
-0.0499593013
 33
0.0
 40
0.0
 40
0.0
 40
0.0
 40
0.0
 40
0.5088441244
 40
1.0
 40
1.0
 40
1.0
 40
1.0
 10
10.3817331533
 20
24.9525054739
 30
0.0
 10
10.3687890544
 20
24.9525053587
 30
0.0
 10
10.3431548852
 20
24.9482208639
 30
0.0
 10
10.3204672163
 20
24.935319445
 30
0.0
 10
10.3110224753
 20
24.9271401769
 30
0.0
 11
10.3817331533
 21
24.9525054739
 31
0.0
 11
10.3434643764
 21
24.9459139645
 31
0.0
 11
10.3110224753
 21
24.9271401769
 31
0.0
  0
SPLINE
  5
441
100
AcDbEntity
  8
0
100
AcDbSpline
 62
253
  6
CONTINUOUS
 70
0
 71
3
 72
9
 73
5
 74
3
 42
0.0000001
 43
0.0000001
 44
0.0000000001
 12
0.077461944
 22
-0.0013242464
 32
0.0
 13
0.0572811924
 23
-0.0521629312
 33
0.0
 40
0.0
 40
0.0
 40
0.0
 40
0.0
 40
0.5060658714
 40
1.0
 40
1.0
 40
1.0
 40
1.0
 10
9.8187036387
 20
25.2492095643
 30
0.0
 10
9.8317705875
 20
25.248986179
 30
0.0
 10
9.857715428
 20
25.2440215885
 30
0.0
 10
9.8803683371
 20
25.2302832611
 30
0.0
 10
9.8897993824
 20
25.2216949104
 30
0.0
 11
9.8187036387
 21
25.2492095643
 31
0.0
 11
9.8571871117
 21
25.2417143819
 31
0.0
 11
9.8897993824
 21
25.2216949104
 31
0.0
  0
SPLINE
  5
442
100
AcDbEntity
  8
0
100
AcDbSpline
 62
253
  6
CONTINUOUS
 70
0
 71
3
 72
9
 73
5
 74
3
 42
0.0000001
 43
0.0000001
 44
0.0000000001
 12
0.0763147777
 22
0.0000000008
 32
0.0
 13
0.0576885491
 23
-0.0499597499
 33
0.0
 40
0.0
 40
0.0
 40
0.0
 40
0.0
 40
0.5088432633
 40
1.0
 40
1.0
 40
1.0
 40
1.0
 10
9.8188904409
 20
25.2427142437
 30
0.0
 10
9.8318345277
 20
25.2427142439
 30
0.0
 10
9.857468767
 20
25.2384298557
 30
0.0
 10
9.8801564125
 20
25.2255283028
 30
0.0
 10
9.889601119
 20
25.2173489469
 30
0.0
 11
9.8188904409
 21
25.2427142437
 31
0.0
 11
9.8571592113
 21
25.2361229108
 31
0.0
 11
9.889601119
 21
25.2173489469
 31
0.0
  0
SPLINE
  5
443
100
AcDbEntity
  8
0
100
AcDbSpline
 62
253
  6
CONTINUOUS
 70
0
 71
3
 72
9
 73
5
 74
3
 42
0.0000001
 43
0.0000001
 44
0.0000000001
 12
0.0763147777
 22
0.0
 32
0.0
 13
0.0576885494
 23
-0.0499597493
 33
0.0
 40
0.0
 40
0.0
 40
0.0
 40
0.0
 40
0.5088432619
 40
1.0
 40
1.0
 40
1.0
 40
1.0
 10
9.8188904409
 20
24.9525054739
 30
0.0
 10
9.8318345277
 20
24.9525054739
 30
0.0
 10
9.8574687669
 20
24.9482210856
 30
0.0
 10
9.8801564124
 20
24.9353195329
 30
0.0
 10
9.889601119
 20
24.9271401771
 30
0.0
 11
9.8188904409
 21
24.9525054739
 31
0.0
 11
9.8571592111
 21
24.9459141408
 31
0.0
 11
9.889601119
 21
24.9271401771
 31
0.0
  0
SPLINE
  5
444
100
AcDbEntity
  8
0
100
AcDbSpline
 62
253
  6
CONTINUOUS
 70
0
 71
3
 72
9
 73
5
 74
3
 42
0.0000001
 43
0.0000001
 44
0.0000000001
 12
0.9766559181
 22
0.2871568211
 32
0.0
 13
1.017027946
 23
0.0443844487
 33
0.0
 40
0.0
 40
0.0
 40
0.0
 40
0.0
 40
0.4870059128
 40
1.0
 40
1.0
 40
1.0
 40
1.0
 10
8.8154508241
 20
25.0823739302
 30
0.0
 10
8.9739965598
 20
25.1289896202
 30
0.0
 10
9.3065018176
 20
25.2017935879
 30
0.0
 10
9.6449806666
 20
25.2351245823
 30
0.0
 10
9.8188904409
 20
25.2427142356
 30
0.0
 11
8.8154508241
 21
25.0823739302
 31
0.0
 11
9.299277398
 21
25.1905395527
 31
0.0
 11
9.8188904409
 21
25.2427142356
 31
0.0
  0
SPLINE
  5
445
100
AcDbEntity
  8
0
100
AcDbSpline
 62
253
  6
CONTINUOUS
 70
0
 71
3
 72
9
 73
5
 74
3
 42
0.0000001
 43
0.0000001
 44
0.0000000001
 12
-0.1467962965
 22
0.004310101
 32
0.0
 13
-0.1420349378
 23
0.0373337123
 33
0.0
 40
0.0
 40
0.0
 40
0.0
 40
0.0
 40
0.5105450376
 40
1.0
 40
1.0
 40
1.0
 40
1.0
 10
10.0783125876
 20
24.8528483327
 30
0.0
 10
10.0533305474
 20
24.8535818329
 30
0.0
 10
10.0044420847
 20
24.8573014908
 30
0.0
 10
9.956142327
 20
24.8661642449
 30
0.0
 10
9.932969092
 20
24.8722553018
 30
0.0
 11
10.0783125876
 21
24.8528483327
 31
0.0
 11
10.003564473
 21
24.8587205188
 31
0.0
 11
9.932969092
 21
24.8722553018
 31
0.0
  0
SPLINE
  5
446
100
AcDbEntity
  8
0
100
AcDbSpline
 62
253
  6
CONTINUOUS
 70
0
 71
3
 72
13
 73
9
 74
7
 42
0.0000001
 43
0.0000001
 44
0.0000000001
 12
-0.1426238535
 22
0.037488508
 32
0.0
 13
0.0002146167
 23
0.1474683212
 33
0.0
 40
0.0
 40
0.0
 40
0.0
 40
0.0
 40
0.3087365963
 40
0.5846880313
 40
0.7061219003
 40
0.8146572028
 40
0.9112532253
 40
1.0
 40
1.0
 40
1.0
 40
1.0
 10
9.932969092
 20
24.8722553018
 30
0.0
 10
9.9182913576
 20
24.8761133266
 30
0.0
 10
9.8908347305
 20
24.8847767062
 30
0.0
 10
9.8593008561
 20
24.8998641642
 30
0.0
 10
9.8391948427
 20
24.9146422932
 30
0.0
 10
9.8280105999
 20
24.9263118885
 30
0.0
 10
9.82068924
 20
24.9389746336
 30
0.0
 10
9.818884092
 20
24.948143028
 30
0.0
 10
9.8188904409
 20
24.9525054739
 30
0.0
 11
9.932969092
 21
24.8722553018
 31
0.0
 11
9.8896703762
 21
24.8863302222
 31
0.0
 11
9.8533425432
 21
24.9046687449
 31
0.0
 11
9.8390344804
 21
24.9154373986
 31
0.0
 11
9.8281377873
 21
24.9271608475
 31
0.0
 11
9.8212575736
 21
24.939633976
 31
0.0
 11
9.8188904409
 21
24.9525054739
 31
0.0
  0
SPLINE
  5
447
100
AcDbEntity
  8
0
100
AcDbSpline
 62
253
  6
CONTINUOUS
 70
0
 71
3
 72
13
 73
9
 74
7
 42
0.0000001
 43
0.0000001
 44
0.0000000001
 12
0.00035323
 22
-0.147028665
 32
0.0
 13
-0.1421625836
 23
-0.0375147031
 33
0.0
 40
0.0
 40
0.0
 40
0.0
 40
0.0
 40
0.0887833451
 40
0.1853931435
 40
0.2938904253
 40
0.4153106872
 40
0.6912493836
 40
1.0
 40
1.0
 40
1.0
 40
1.0
 10
10.3817331533
 20
24.9525054739
 30
0.0
 10
10.381743607
 20
24.9481542417
 30
0.0
 10
10.3799366384
 20
24.9390111676
 30
0.0
 10
10.3726509646
 20
24.9263813416
 30
0.0
 10
10.3615261286
 20
24.9147236385
 30
0.0
 10
10.3414993215
 20
24.8999670584
 30
0.0
 10
10.3100751019
 20
24.8848933866
 30
0.0
 10
10.2827086567
 20
24.8762289001
 30
0.0
 10
10.2680777282
 20
24.8723680042
 30
0.0
 11
10.3817331533
 21
24.9525054739
 31
0.0
 11
10.379373295
 21
24.9396668194
 31
0.0
 11
10.3725233849
 21
24.9272231402
 31
0.0
 11
10.3616838073
 21
24.9155193782
 31
0.0
 11
10.3474343959
 21
24.9047648784
 31
0.0
 11
10.3112355871
 21
24.886444029
 31
0.0
 11
10.2680777282
 21
24.8723680042
 31
0.0
  0
SPLINE
  5
448
100
AcDbEntity
  8
0
100
AcDbSpline
 62
253
  6
CONTINUOUS
 70
0
 71
3
 72
9
 73
5
 74
3
 42
0.0000001
 43
0.0000001
 44
0.0000000001
 12
-0.1433751105
 22
-0.0378346719
 32
0.0
 13
-0.1482245621
 23
-0.0041670021
 33
0.0
 40
0.0
 40
0.0
 40
0.0
 40
0.0
 40
0.4894018011
 40
1.0
 40
1.0
 40
1.0
 40
1.0
 10
10.2680777282
 20
24.8723680042
 30
0.0
 10
10.2446883825
 20
24.8661958854
 30
0.0
 10
10.195917765
 20
24.8572434955
 30
0.0
 10
10.1465511032
 20
24.8535296158
 30
0.0
 10
10.1213233718
 20
24.8528203945
 30
0.0
 11
10.2680777282
 21
24.8723680042
 31
0.0
 11
10.1968087654
 21
24.8586879511
 31
0.0
 11
10.1213233718
 21
24.8528203945
 31
0.0
  0
SPLINE
  5
449
100
AcDbEntity
  8
0
100
AcDbSpline
 62
253
  6
CONTINUOUS
 70
0
 71
3
 72
14
 73
10
 74
8
 42
0.0000001
 43
0.0000001
 44
0.0000000001
 12
1.8528486186
 22
-0.1392117353
 32
0.0
 13
1.3867791916
 23
-1.2366371272
 33
0.0
 40
0.0
 40
0.0
 40
0.0
 40
0.0
 40
0.2846322348
 40
0.4208921128
 40
0.5514823898
 40
0.6753694223
 40
0.791735679
 40
0.9000208813
 40
1.0
 40
1.0
 40
1.0
 40
1.0
 10
10.3817331533
 20
25.2339746917
 30
0.0
 10
10.5575266344
 20
25.2207666426
 30
0.0
 10
10.8168085082
 20
25.1866047515
 30
0.0
 10
11.1498412473
 20
25.1099256706
 30
0.0
 10
11.3816536888
 20
25.0396835502
 30
0.0
 10
11.5961079047
 20
24.956792049
 30
0.0
 10
11.7905144833
 20
24.8622752494
 30
0.0
 10
11.96239229
 20
24.7573270676
 30
0.0
 10
12.0646238315
 20
24.6780405535
 30
0.0
 10
12.1108401519
 20
24.6368279234
 30
0.0
 11
10.3817331533
 21
25.2339746917
 31
0.0
 11
10.9058729069
 21
25.1634217081
 31
0.0
 11
11.1525263401
 21
25.1063037172
 31
0.0
 11
11.3846265045
 21
25.0355463901
 31
0.0
 11
11.5991467772
 21
24.9520664211
 31
0.0
 11
11.7933148945
 21
24.8569431672
 31
0.0
 11
11.9646177252
 21
24.7514091798
 31
0.0
 11
12.1108401519
 21
24.6368279234
 31
0.0
  0
SPLINE
  5
44A
100
AcDbEntity
  8
0
100
AcDbSpline
 62
253
  6
CONTINUOUS
 70
0
 71
3
 72
9
 73
5
 74
3
 42
0.0000001
 43
0.0000001
 44
0.0000000001
 12
0.3230185193
 22
-0.170326933
 32
0.0
 13
0.2867241142
 23
-0.2261448878
 33
0.0
 40
0.0
 40
0.0
 40
0.0
 40
0.0
 40
0.2624595936
 40
1.0
 40
1.0
 40
1.0
 40
1.0
 10
11.9005182586
 20
24.8801102319
 30
0.0
 10
11.9287780284
 20
24.8652089194
 30
0.0
 10
12.0353023038
 20
24.806323659
 30
0.0
 10
12.1371359902
 20
24.7386362602
 30
0.0
 10
12.2076261968
 20
24.6830392628
 30
0.0
 11
11.9005182586
 21
24.8801102319
 31
0.0
 11
11.9843715531
 21
24.8336925807
 31
0.0
 11
12.2076261968
 21
24.6830392628
 31
0.0
  0
SPLINE
  5
44B
100
AcDbEntity
  8
ASSI
100
AcDbSpline
 62
7
  6
CONTINUOUS
 70
0
 71
3
 72
24
 73
20
 74
18
 42
0.0000001
 43
0.0000001
 44
0.0000000001
 12
-5.2226575051
 22
-2.4894366162
 32
0.0
 13
-3.3100041018
 23
4.7452417143
 33
0.0
 40
0.0
 40
0.0
 40
0.0
 40
0.0
 40
0.0584849701
 40
0.1209358865
 40
0.18677485
 40
0.2553082673
 40
0.3257587266
 40
0.3972927743
 40
0.4690464721
 40
0.540149732
 40
0.6097503805
 40
0.6770389888
 40
0.7412755294
 40
0.8018190176
 40
0.8581627031
 40
0.9099783451
 40
0.9341623665
 40
0.9572043849
 40
1.0
 40
1.0
 40
1.0
 40
1.0
 10
12.0533666968
 20
24.6095304588
 30
0.0
 10
11.9515510408
 20
24.5609989168
 30
0.0
 10
11.7357397176
 20
24.4714972987
 30
0.0
 10
11.3920249736
 20
24.3625619881
 30
0.0
 10
11.0221253565
 20
24.2758473593
 30
0.0
 10
10.6318887315
 20
24.2127415336
 30
0.0
 10
10.2274475829
 20
24.1742423936
 30
0.0
 10
9.8151944095
 20
24.1609669052
 30
0.0
 10
9.401649481
 20
24.1731279963
 30
0.0
 10
8.993357196
 20
24.2105338211
 30
0.0
 10
8.5967746278
 20
24.2725890792
 30
0.0
 10
8.2181606896
 20
24.3583083714
 30
0.0
 10
7.8634741047
 20
24.4663334481
 30
0.0
 10
7.5382489496
 20
24.5949786395
 30
0.0
 10
7.2475711663
 20
24.7422480032
 30
0.0
 10
7.0330580067
 20
24.8817614875
 30
0.0
 10
6.8838984583
 20
25.0013303079
 30
0.0
 10
6.7564803082
 20
25.1193503451
 30
0.0
 10
6.6732945856
 20
25.2163803656
 30
0.0
 10
6.6260766984
 20
25.2840722116
 30
0.0
 11
12.0533666968
 21
24.6095304588
 31
0.0
 11
11.7412401196
 21
24.4788681259
 31
0.0
 11
11.3970716144
 21
24.3688754231
 31
0.0
 11
11.026353946
 21
24.2813079022
 31
0.0
 11
10.635002741
 21
24.217563911
 31
0.0
 11
10.2292635265
 21
24.1786621459
 31
0.0
 11
9.815612627
 21
24.1652244017
 31
0.0
 11
9.4006532296
 21
24.1774658803
 31
0.0
 11
8.991010064
 21
24.2151924409
 31
0.0
 11
8.5932241134
 21
24.2778030428
 31
0.0
 11
8.2136479268
 21
24.3642989501
 31
0.0
 11
7.858343066
 21
24.4732991621
 31
0.0
 11
7.5329838634
 21
24.6030634609
 31
0.0
 11
7.2427670085
 21
24.751519999
 31
0.0
 11
6.9923278999
 21
24.9162980156
 31
0.0
 11
6.8833007385
 21
25.0039940158
 31
0.0
 11
6.7856649957
 21
25.0947655574
 31
0.0
 11
6.6260766984
 21
25.2840722116
 31
0.0
  0
LINE
  5
44C
100
AcDbEntity
  8
ASSI
100
AcDbLine
 62
7
  6
CONTINUOUS
 10
19.1557899383
 20
21.3558621418
 11
19.1577178186
 21
21.3504151562
  0
LINE
  5
44D
100
AcDbEntity
  8
ASSI
100
AcDbLine
 62
7
  6
CONTINUOUS
 10
19.1577178186
 20
21.3504151562
 11
19.1579842927
 21
21.3496604022
  0
SPLINE
  5
44E
100
AcDbEntity
  8
ASSI
100
AcDbSpline
 62
7
  6
CONTINUOUS
 70
0
 71
3
 72
15
 73
11
 74
9
 42
0.0000001
 43
0.0000001
 44
0.0000000001
 12
0.7594422826
 22
-2.1516712582
 32
0.0
 13
-1.0471258257
 23
-2.0273059191
 33
0.0
 40
0.0
 40
0.0
 40
0.0
 40
0.0
 40
0.1388161433
 40
0.2748300603
 40
0.4071919408
 40
0.5352364122
 40
0.6585338955
 40
0.7769348731
 40
0.8905995613
 40
1.0
 40
1.0
 40
1.0
 40
1.0
 10
19.1579842927
 20
21.3496604022
 30
0.0
 10
19.1931252423
 20
21.250098167
 30
0.0
 10
19.2553607
 20
21.0502933582
 30
0.0
 10
19.3241828871
 20
20.7480070747
 30
0.0
 10
19.3667330075
 20
20.4491401776
 30
0.0
 10
19.3821995326
 20
20.1572966001
 30
0.0
 10
19.3699731787
 20
19.8758652536
 30
0.0
 10
19.3295469737
 20
19.608035932
 30
0.0
 10
19.2605227609
 20
19.3570040435
 30
0.0
 10
19.1939849914
 20
19.2002059301
 30
0.0
 10
19.1557996499
 20
19.1262765444
 30
0.0
 11
19.1579842927
 21
21.3496604022
 31
0.0
 11
19.2519682286
 21
21.0471794194
 31
0.0
 11
19.3205483443
 21
20.7445000104
 31
0.0
 11
19.3626869393
 21
20.4454356908
 31
0.0
 11
19.3776044791
 21
20.1536496508
 31
0.0
 11
19.3647358581
 21
19.8726084988
 31
0.0
 11
19.3236692197
 21
19.6055849923
 31
0.0
 11
19.2540920192
 21
19.3557360823
 31
0.0
 11
19.1557996499
 21
19.1262765444
 31
0.0
  0
SPLINE
  5
44F
100
AcDbEntity
  8
ASSI
100
AcDbSpline
 62
7
  6
CONTINUOUS
 70
0
 71
3
 72
9
 73
5
 74
3
 42
0.0000001
 43
0.0000001
 44
0.0000000001
 12
-0.2683847562
 22
-0.305171905
 32
0.0
 13
-0.3460400838
 23
-0.213111542
 33
0.0
 40
0.0
 40
0.0
 40
0.0
 40
0.0
 40
0.5026790108
 40
1.0
 40
1.0
 40
1.0
 40
1.0
 10
19.0527521081
 20
18.6786734027
 30
0.0
 10
19.0077816468
 20
18.6275388989
 30
0.0
 10
18.9110167818
 20
18.5319717571
 30
0.0
 10
18.8010090131
 20
18.4519006935
 30
0.0
 10
18.7436446808
 20
18.4165724125
 30
0.0
 11
19.0527521081
 21
18.6786734027
 31
0.0
 11
18.9071520147
 21
18.5353753512
 31
0.0
 11
18.7436446808
 21
18.4165724125
 31
0.0
  0
SPLINE
  5
450
100
AcDbEntity
  8
ASSI
100
AcDbSpline
 62
7
  6
CONTINUOUS
 70
0
 71
3
 72
14
 73
10
 74
8
 42
0.0000001
 43
0.0000001
 44
0.0000000001
 12
2.184200251
 22
-1.142845821
 32
0.0
 13
1.0447812264
 23
-2.2327694678
 33
0.0
 40
0.0
 40
0.0
 40
0.0
 40
0.0
 40
0.1127383403
 40
0.2299025909
 40
0.3512652978
 40
0.476384539
 40
0.6046400754
 40
0.7352721089
 40
1.0
 40
1.0
 40
1.0
 40
1.0
 10
17.4848893614
 20
23.5948599309
 30
0.0
 10
17.5669703985
 20
23.5519124172
 30
0.0
 10
17.7296359765
 20
23.4550720626
 30
0.0
 10
17.9624148346
 20
23.2837562161
 30
0.0
 10
18.1866558826
 20
23.0856982785
 30
0.0
 10
18.40010493
 20
22.863318197
 30
0.0
 10
18.6005702293
 20
22.619221775
 30
0.0
 10
18.8485725143
 20
22.2673122256
 30
0.0
 10
19.0070061075
 20
21.9820661318
 30
0.0
 10
19.099200351
 20
21.785040681
 30
0.0
 11
17.4848893614
 21
23.5948599309
 31
0.0
 11
17.7240247235
 21
23.4532606767
 31
0.0
 11
17.9569828945
 21
23.2825272466
 31
0.0
 11
18.181527885
 21
23.0848290693
 31
0.0
 11
18.3953799763
 21
22.8625703278
 31
0.0
 11
18.5962542309
 21
22.618418328
 31
0.0
 11
18.7819134797
 21
22.35530229
 31
0.0
 11
19.099200351
 21
21.785040681
 31
0.0
  0
SPLINE
  5
451
100
AcDbEntity
  8
ASSI
100
AcDbSpline
 62
7
  6
CONTINUOUS
 70
0
 71
3
 72
14
 73
10
 74
8
 42
0.0000001
 43
0.0000001
 44
0.0000000001
 12
0.3280943293
 22
0.1563897376
 32
0.0
 13
0.3251464036
 23
-0.162429847
 33
0.0
 40
0.0
 40
0.0
 40
0.0
 40
0.0
 40
0.1771108829
 40
0.3397033745
 40
0.4869466466
 40
0.6184628245
 40
0.7344154625
 40
0.8355978346
 40
1.0
 40
1.0
 40
1.0
 40
1.0
 10
15.622848319
 20
26.3109627741
 30
0.0
 10
15.6422180111
 20
26.320195549
 30
0.0
 10
15.6797656498
 20
26.3370956864
 30
0.0
 10
15.7347955464
 20
26.3584425273
 30
0.0
 10
15.7858091557
 20
26.3746231198
 30
0.0
 10
15.8323998414
 20
26.3855836021
 30
0.0
 10
15.8743743006
 20
26.3913280942
 30
0.0
 10
15.9205458937
 20
26.3921310283
 30
0.0
 10
15.9531708847
 20
26.3855933327
 30
0.0
 10
15.9709891424
 20
26.3766920598
 30
0.0
 11
15.622848319
 21
26.3109627741
 31
0.0
 11
15.6815993303
 21
26.3372720995
 31
0.0
 11
15.7367498514
 21
26.3585030645
 31
0.0
 11
15.7878176953
 21
26.3745080321
 31
0.0
 11
15.8344014359
 21
26.385226538
 31
0.0
 11
15.8761911258
 21
26.3906815475
 31
0.0
 11
15.9129658206
 21
26.3909679416
 31
0.0
 11
15.9709891424
 21
26.3766920598
 31
0.0
  0
SPLINE
  5
452
100
AcDbEntity
  8
ASSI
100
AcDbSpline
 62
7
  6
CONTINUOUS
 70
0
 71
3
 72
11
 73
7
 74
5
 42
0.0000001
 43
0.0000001
 44
0.0000000001
 12
0.6975302562
 22
-0.3486511438
 32
0.0
 13
0.3388641314
 23
-0.7023369411
 33
0.0
 40
0.0
 40
0.0
 40
0.0
 40
0.0
 40
0.4793010556
 40
0.6064973343
 40
0.7359017426
 40
1.0
 40
1.0
 40
1.0
 40
1.0
 10
11.4820092609
 20
28.6211820006
 30
0.0
 10
11.5934515902
 20
28.5654790468
 30
0.0
 10
11.7188567718
 20
28.461672037
 30
0.0
 10
11.8407469164
 20
28.3144926948
 30
0.0
 10
11.9192744901
 20
28.2040643434
 30
0.0
 10
11.9696481044
 20
28.1146044432
 30
0.0
 10
11.9994792466
 20
28.0527757891
 30
0.0
 11
11.4820092609
 21
28.6211820006
 31
0.0
 11
11.7760798591
 21
28.3904822179
 31
0.0
 11
11.8394466442
 21
28.3141727564
 31
0.0
 11
11.8979908729
 21
28.2319802132
 31
0.0
 11
11.9994792466
 21
28.0527757891
 31
0.0
  0
SPLINE
  5
453
100
AcDbEntity
  8
ASSI
100
AcDbSpline
 62
7
  6
CONTINUOUS
 70
0
 71
3
 72
9
 73
5
 74
3
 42
0.0000001
 43
0.0000001
 44
0.0000000001
 12
0.0791608445
 22
-0.0395890864
 32
0.0
 13
0.0443941078
 23
-0.0765695648
 33
0.0
 40
0.0
 40
0.0
 40
0.0
 40
0.0
 40
0.5021590845
 40
1.0
 40
1.0
 40
1.0
 40
1.0
 10
16.8160743983
 20
25.9541494633
 30
0.0
 10
16.829324844
 20
25.9475227902
 30
0.0
 10
16.8540625121
 20
25.9305540237
 30
0.0
 10
16.8724866922
 20
25.9068943873
 30
0.0
 10
16.87985376
 20
25.8941878999
 30
0.0
 11
16.8160743983
 21
25.9541494633
 31
0.0
 11
16.8525773007
 21
25.9287935549
 31
0.0
 11
16.87985376
 21
25.8941878999
 31
0.0
  0
SPLINE
  5
454
100
AcDbEntity
  8
ASSI
100
AcDbSpline
 62
7
  6
CONTINUOUS
 70
0
 71
3
 72
15
 73
11
 74
9
 42
0.0000001
 43
0.0000001
 44
0.0000000001
 12
-1.1616395551
 22
-0.5801368803
 32
0.0
 13
0.0000196704
 23
-1.2984472479
 33
0.0
 40
0.0
 40
0.0
 40
0.0
 40
0.0
 40
0.1561642573
 40
0.3023479847
 40
0.4385028439
 40
0.5649877802
 40
0.6826570332
 40
0.7929382134
 40
0.8978639592
 40
1.0
 40
1.0
 40
1.0
 40
1.0
 10
7.7823781517
 20
25.9374089082
 30
0.0
 10
7.7219092922
 20
25.9072100265
 30
0.0
 10
7.6069740025
 20
25.844279812
 30
0.0
 10
7.4489672028
 20
25.7386497871
 30
0.0
 10
7.3122995697
 20
25.6257081793
 30
0.0
 10
7.1982635768
 20
25.5064008855
 30
0.0
 10
7.107991118
 20
25.381695915
 30
0.0
 10
7.0425096644
 20
25.2525956518
 30
0.0
 10
7.0027456403
 20
25.1203402474
 30
0.0
 10
6.9938162552
 20
25.0304847655
 30
0.0
 10
6.9938169249
 20
24.9862786785
 30
0.0
 11
7.7823781517
 21
25.9374089082
 31
0.0
 11
7.6047778441
 21
25.8395609162
 31
0.0
 11
7.4473242065
 21
25.7335567011
 31
0.0
 11
7.3114981616
 21
25.6203933012
 31
0.0
 11
7.1985791521
 21
25.5011368137
 31
0.0
 11
7.1096311884
 21
25.3769103101
 31
0.0
 11
7.0454918164
 21
25.2488839571
 31
0.0
 11
7.0067655005
 21
25.1182632895
 31
0.0
 11
6.9938169249
 21
24.9862786785
 31
0.0
  0
LINE
  5
455
100
AcDbEntity
  8
ASSI
100
AcDbLine
 62
7
  6
CONTINUOUS
 10
7.7843622517
 20
25.938401978
 11
7.7823781517
 21
25.9374089082
  0
SPLINE
  5
456
100
AcDbEntity
  8
ASSI
100
AcDbSpline
 62
253
  6
CONTINUOUS
 70
0
 71
3
 72
15
 73
11
 74
9
 42
0.0000001
 43
0.0000001
 44
0.0000000001
 12
0.9801430066
 22
0.4900636375
 32
0.0
 13
1.0202931533
 23
-0.3998056574
 33
0.0
 40
0.0
 40
0.0
 40
0.0
 40
0.0
 40
0.1109318219
 40
0.2314291971
 40
0.3591584417
 40
0.4912948844
 40
0.6246941119
 40
0.7560625163
 40
0.882152807
 40
1.0
 40
1.0
 40
1.0
 40
1.0
 10
-4.0140841689
 20
26.4279862358
 30
0.0
 10
-3.9778411524
 20
26.4461074532
 30
0.0
 10
-3.8994012894
 20
26.4783685556
 30
0.0
 10
-3.7728965094
 20
26.5139758692
 30
0.0
 10
-3.635816248
 20
26.5379476701
 30
0.0
 10
-3.4924284707
 20
26.5494390727
 30
0.0
 10
-3.3472607459
 20
26.5479935214
 30
0.0
 10
-3.2050060249
 20
26.5335579381
 30
0.0
 10
-3.0703849092
 20
26.5065340499
 30
0.0
 10
-2.9851950964
 20
26.4795668303
 30
0.0
 10
-2.9451155351
 20
26.4638615055
 30
0.0
 11
-4.0140841689
 21
26.4279862358
 31
0.0
 11
-3.9019367975
 21
26.4748944436
 31
0.0
 11
-3.7749660051
 21
26.5111462601
 31
0.0
 11
-3.6371399219
 21
26.5355477124
 31
0.0
 11
-3.4928138326
 21
26.5472413265
 31
0.0
 11
-3.3466386218
 21
26.5457485962
 31
0.0
 11
-3.2034374774
 21
26.5310121045
 31
0.0
 11
-3.0680452816
 21
26.5034283305
 31
0.0
 11
-2.9451155351
 21
26.4638615055
 31
0.0
  0
SPLINE
  5
457
100
AcDbEntity
  8
ASSI
100
AcDbSpline
 62
253
  6
CONTINUOUS
 70
0
 71
3
 72
15
 73
11
 74
9
 42
0.0000001
 43
0.0000001
 44
0.0000000001
 12
0.7545663129
 22
-2.1616155713
 32
0.0
 13
-1.0820456139
 23
-2.017704014
 33
0.0
 40
0.0
 40
0.0
 40
0.0
 40
0.0
 40
0.1428199638
 40
0.2822220119
 40
0.4171188376
 40
0.5465804561
 40
0.6698852226
 40
0.7865764752
 40
0.8965257314
 40
1.0
 40
1.0
 40
1.0
 40
1.0
 10
19.0679496148
 20
21.2623099147
 30
0.0
 10
19.1038719926
 20
21.1594026288
 30
0.0
 10
19.1673325993
 20
20.9533208216
 30
0.0
 10
19.2371384628
 20
20.6424006991
 30
0.0
 10
19.2797162799
 20
20.3368348305
 30
0.0
 10
19.2944415484
 20
20.0409225659
 30
0.0
 10
19.2810779702
 20
19.7587918829
 30
0.0
 10
19.2397317963
 20
19.494343132
 30
0.0
 10
19.1709040011
 20
19.2513226224
 30
0.0
 10
19.1052709076
 20
19.1014967657
 30
0.0
 10
19.0679496148
 20
19.0319032833
 30
0.0
 11
19.0679496148
 21
21.2623099147
 31
0.0
 11
19.163944765
 21
20.949727331
 31
0.0
 11
19.2335071152
 21
20.6382348353
 31
0.0
 11
19.275645238
 21
20.3322724393
 31
0.0
 11
19.2897583481
 21
20.0362022323
 31
0.0
 11
19.275645238
 21
19.7542451355
 31
0.0
 11
19.2335071152
 21
19.4904208622
 31
0.0
 11
19.163944765
 21
19.2484907167
 31
0.0
 11
19.0679496148
 21
19.0319032833
 31
0.0
  0
LINE
  5
458
100
AcDbEntity
  8
ASSI
100
AcDbLine
 62
253
  6
CONTINUOUS
 10
19.0715872069
 20
18.8627903139
 11
18.5250452263
 21
18.516872868
  0
SPLINE
  5
459
100
AcDbEntity
  8
ASSI
100
AcDbSpline
 62
253
  6
CONTINUOUS
 70
0
 71
3
 72
15
 73
11
 74
9
 42
0.0000001
 43
0.0000001
 44
0.0000000001
 12
0.4162545525
 22
0.2155221038
 32
0.0
 13
0.0000009982
 23
0.4687404716
 33
0.0
 40
0.0
 40
0.0
 40
0.0
 40
0.0
 40
0.1553722745
 40
0.3009898018
 40
0.4368322816
 40
0.5632656902
 40
0.6811336836
 40
0.791823243
 40
0.8972921894
 40
1.0
 40
1.0
 40
1.0
 40
1.0
 10
17.2042116184
 20
23.87576074
 30
0.0
 10
17.2257697573
 20
23.8869227932
 30
0.0
 10
17.2667395027
 20
23.9101411524
 30
0.0
 10
17.3230021567
 20
23.9489531989
 30
0.0
 10
17.3716420321
 20
23.9903282476
 30
0.0
 10
17.4122073026
 20
24.0339264776
 30
0.0
 10
17.4443031918
 20
24.079398009
 30
0.0
 10
17.4675725729
 20
24.1263810379
 30
0.0
 10
17.4816976921
 20
24.1744316831
 30
0.0
 10
17.4848716778
 20
24.2070404615
 30
0.0
 10
17.484871712
 20
24.2230882307
 30
0.0
 11
17.2042116184
 21
23.87576074
 31
0.0
 11
17.2674802108
 21
23.9118327273
 31
0.0
 11
17.3235416511
 21
23.9507699785
 31
0.0
 11
17.3718820088
 21
23.9922151065
 31
0.0
 11
17.4120549536
 21
24.0357858559
 31
0.0
 11
17.4436909306
 21
24.0810812429
 31
0.0
 11
17.4664985133
 21
24.1276841806
 31
0.0
 11
17.4802676777
 21
24.175165575
 31
0.0
 11
17.484871712
 21
24.2230882307
 31
0.0
  0
LINE
  5
45A
100
AcDbEntity
  8
ASSI
100
AcDbLine
 62
253
  6
CONTINUOUS
 10
19.0117186226
 20
18.6442125028
 11
18.6277293804
 21
18.3996233716
  0
SPLINE
  5
45B
100
AcDbEntity
  8
ASSI
100
AcDbSpline
 62
253
  6
CONTINUOUS
 70
0
 71
3
 72
9
 73
5
 74
3
 42
0.0000001
 43
0.0000001
 44
0.0000000001
 12
-0.2245690163
 22
-0.2553503866
 32
0.0
 13
-0.2875256603
 23
-0.1815600663
 33
0.0
 40
0.0
 40
0.0
 40
0.0
 40
0.0
 40
0.5054782557
 40
1.0
 40
1.0
 40
1.0
 40
1.0
 10
19.0117186226
 20
18.6442125028
 30
0.0
 10
18.9738803711
 20
18.6011878135
 30
0.0
 10
18.8932000581
 20
18.5209817506
 30
0.0
 10
18.8017747193
 20
18.4531950354
 30
0.0
 10
18.7543788223
 20
18.4232665685
 30
0.0
 11
19.0117186226
 21
18.6442125028
 31
0.0
 11
18.8895706404
 21
18.523276218
 31
0.0
 11
18.7543788223
 21
18.4232665685
 31
0.0
  0
SPLINE
  5
45C
100
AcDbEntity
  8
ASSI
100
AcDbSpline
 62
253
  6
CONTINUOUS
 70
0
 71
3
 72
12
 73
8
 74
6
 42
0.0000001
 43
0.0000001
 44
0.0000000001
 12
0.2640316196
 22
0.9248100881
 32
0.0
 13
-0.4170355563
 23
0.8666416445
 33
0.0
 40
0.0
 40
0.0
 40
0.0
 40
0.0
 40
0.120674052
 40
0.2431439769
 40
0.4917294927
 40
0.744127589
 40
1.0
 40
1.0
 40
1.0
 40
1.0
 10
17.573041463
 20
21.1800643123
 30
0.0
 10
17.5836620515
 20
21.2172645059
 30
0.0
 10
17.6010138333
 20
21.2934279003
 30
0.0
 10
17.621127559
 20
21.4499579145
 30
0.0
 10
17.619865555
 20
21.6509368326
 30
0.0
 10
17.5772536102
 20
21.8909030701
 30
0.0
 10
17.5204992033
 20
22.0448323264
 30
0.0
 10
17.4849299056
 20
22.1187488888
 30
0.0
 11
17.573041463
 21
21.1800643123
 31
0.0
 11
17.5990613702
 21
21.2931696885
 31
0.0
 11
17.6142336657
 21
21.4099753549
 31
0.0
 11
17.6131783695
 21
21.6490531611
 31
0.0
 11
17.5705105251
 21
21.8880207896
 31
0.0
 11
17.4849299056
 21
22.1187488888
 31
0.0
  0
SPLINE
  5
45D
100
AcDbEntity
  8
ASSI
100
AcDbSpline
 62
7
  6
CONTINUOUS
 70
0
 71
3
 72
22
 73
18
 74
16
 42
0.0000001
 43
0.0000001
 44
0.0000000001
 12
-1.2116220673
 22
1.7369886559
 32
0.0
 13
1.9088224156
 23
0.9173628564
 33
0.0
 40
0.0
 40
0.0
 40
0.0
 40
0.0
 40
0.0599136763
 40
0.1171252904
 40
0.1722031794
 40
0.2258273789
 40
0.2787624717
 40
0.3318164322
 40
0.3857894871
 40
0.4414251618
 40
0.4993722159
 40
0.56016431
 40
0.6242120119
 40
0.6918093651
 40
0.7631424126
 40
0.8383031185
 40
1.0
 40
1.0
 40
1.0
 40
1.0
 10
6.6260766984
 20
25.2840722116
 30
0.0
 10
6.601879121
 20
25.3187620036
 30
0.0
 10
6.5580138708
 20
25.3890837634
 30
0.0
 10
6.5059760826
 20
25.4992685307
 30
0.0
 10
6.4696760987
 20
25.6109855275
 30
0.0
 10
6.4493758212
 20
25.7236453803
 30
0.0
 10
6.4452405104
 20
25.836631579
 30
0.0
 10
6.4573038367
 20
25.9492925729
 30
0.0
 10
6.4854727028
 20
26.0609866118
 30
0.0
 10
6.5295370009
 20
26.1711102536
 30
0.0
 10
6.589196374
 20
26.2791153446
 30
0.0
 10
6.6640979602
 20
26.3844930246
 30
0.0
 10
6.7538284636
 20
26.486772782
 30
0.0
 10
6.8579323712
 20
26.585492964
 30
0.0
 10
6.9759016963
 20
26.6802200111
 30
0.0
 10
7.1552766028
 20
26.8035986279
 30
0.0
 10
7.3024755916
 20
26.884089335
 30
0.0
 10
7.4053591356
 20
26.9335342394
 30
0.0
 11
6.6260766984
 21
25.2840722116
 31
0.0
 11
6.559218589
 21
25.391915306
 31
0.0
 11
6.5077623527
 21
25.5016100357
 31
0.0
 11
6.4719589101
 21
25.6126243158
 31
0.0
 11
6.4519792783
 21
25.7244193548
 31
0.0
 11
6.4479223263
 21
25.8364528728
 31
0.0
 11
6.4598055281
 21
25.9481814038
 31
0.0
 11
6.4875716605
 21
26.0590629291
 31
0.0
 11
6.5310861266
 21
26.1685596256
 31
0.0
 11
6.5901358786
 21
26.2761405859
 31
0.0
 11
6.664436753
 21
26.381283734
 31
0.0
 11
6.7536253177
 21
26.4834796313
 31
0.0
 11
6.8572708674
 21
26.5822322969
 31
0.0
 11
6.9748694032
 21
26.6770630772
 31
0.0
 11
7.1058509809
 21
26.7675123582
 31
0.0
 11
7.4053591356
 21
26.9335342394
 31
0.0
  0
SPLINE
  5
45E
100
AcDbEntity
  8
ASSI
100
AcDbSpline
 62
7
  6
CONTINUOUS
 70
0
 71
3
 72
13
 73
9
 74
7
 42
0.0000001
 43
0.0000001
 44
0.0000000001
 12
0.4870656356
 22
0.2340793565
 32
0.0
 13
0.4833750126
 23
-0.2416085174
 33
0.0
 40
0.0
 40
0.0
 40
0.0
 40
0.0
 40
0.122764112
 40
0.2448181523
 40
0.3669396146
 40
0.4898651034
 40
0.7402199278
 40
1.0
 40
1.0
 40
1.0
 40
1.0
 10
10.9605346964
 20
28.6421195854
 30
0.0
 10
10.9804660899
 20
28.6516984335
 30
0.0
 10
11.0214467159
 20
28.6683559747
 30
0.0
 10
11.0854917077
 20
28.6853636087
 30
0.0
 10
11.1512032166
 20
28.6942039283
 30
0.0
 10
11.2406297692
 20
28.6951991287
 30
0.0
 10
11.3540870535
 20
28.6760897489
 30
0.0
 10
11.4401521956
 20
28.6421036933
 30
0.0
 10
11.4820092609
 20
28.6211820006
 30
0.0
 11
10.9605346964
 21
28.6421195854
 31
0.0
 11
11.0220054925
 21
28.6670690184
 31
0.0
 11
11.0857522249
 21
28.6840018778
 31
0.0
 11
11.1511513165
 21
28.6928412216
 31
0.0
 11
11.2175747577
 21
28.6936398772
 31
0.0
 11
11.3511065794
 21
28.6718975622
 31
0.0
 11
11.4820092609
 21
28.6211820006
 31
0.0
  0
SPLINE
  5
45F
100
AcDbEntity
  8
ASSI
100
AcDbSpline
 62
253
  6
CONTINUOUS
 70
0
 71
3
 72
14
 73
10
 74
8
 42
0.0000001
 43
0.0000001
 44
0.0000000001
 12
2.0517438413
 22
-1.2175202418
 32
0.0
 13
1.011159534
 23
-2.1609175658
 33
0.0
 40
0.0
 40
0.0
 40
0.0
 40
0.0
 40
0.1117113174
 40
0.2284994038
 40
0.3498775663
 40
0.4752154167
 40
0.6037690012
 40
0.7347081072
 40
1.0
 40
1.0
 40
1.0
 40
1.0
 10
17.4848775916
 20
23.5264304376
 30
0.0
 10
17.5612785941
 20
23.4810935076
 30
0.0
 10
17.7130278181
 20
23.3805647271
 30
0.0
 10
17.9308230542
 20
23.206908463
 30
0.0
 10
18.1417534876
 20
23.0087906089
 30
0.0
 10
18.3434351839
 20
22.7884605398
 30
0.0
 10
18.5336406928
 20
22.5483626931
 30
0.0
 10
18.7700066477
 20
22.2041451357
 30
0.0
 10
18.9223012563
 20
21.9269179727
 30
0.0
 10
19.0117187319
 20
21.735826669
 30
0.0
 11
17.4848775916
 21
23.5264304376
 31
0.0
 11
17.7073830881
 21
23.37971896
 31
0.0
 11
17.9255478904
 21
23.2063983823
 31
0.0
 11
18.1368977112
 21
23.0084345797
 31
0.0
 11
18.33903557
 21
22.7880727687
 31
0.0
 11
18.5296688663
 21
22.5478120499
 31
0.0
 11
18.7066354906
 21
22.29037744
 31
0.0
 11
19.0117187319
 21
21.735826669
 31
0.0
  0
SPLINE
  5
460
100
AcDbEntity
  8
ASSI
100
AcDbSpline
 62
253
  6
CONTINUOUS
 70
0
 71
3
 72
9
 73
5
 74
3
 42
0.0000001
 43
0.0000001
 44
0.0000000001
 12
0.0551628919
 22
0.267327999
 32
0.0
 13
0.000035549
 23
0.2729600748
 33
0.0
 40
0.0
 40
0.0
 40
0.0
 40
0.0
 40
0.4964367752
 40
1.0
 40
1.0
 40
1.0
 40
1.0
 10
17.4587374563
 20
21.3052015335
 30
0.0
 10
17.4678657524
 20
21.3494386835
 30
0.0
 10
17.480850457
 20
21.4397075884
 30
0.0
 10
17.4848659946
 20
21.5307426325
 30
0.0
 10
17.4848719616
 20
21.5765601843
 30
0.0
 11
17.4587374563
 21
21.3052015335
 31
0.0
 11
17.4785474757
 21
21.4392531062
 31
0.0
 11
17.4848719616
 21
21.5765601843
 31
0.0
  0
SPLINE
  5
461
100
AcDbEntity
  8
ASSI
100
AcDbSpline
 62
253
  6
CONTINUOUS
 70
0
 71
3
 72
13
 73
9
 74
7
 42
0.0000001
 43
0.0000001
 44
0.0000000001
 12
-0.4029948776
 22
0.2015008824
 32
0.0
 13
-0.406411618
 23
-0.1945175409
 33
0.0
 40
0.0
 40
0.0
 40
0.0
 40
0.0
 40
0.1134934582
 40
0.2282840571
 40
0.3455908825
 40
0.466489968
 40
0.7220461039
 40
1.0
 40
1.0
 40
1.0
 40
1.0
 10
10.3555722797
 20
29.1844005253
 30
0.0
 10
10.3403265189
 20
29.192023536
 30
0.0
 10
10.308568516
 20
29.2052728789
 30
0.0
 10
10.2582677736
 20
29.2186502814
 30
0.0
 10
10.2055476848
 20
29.2255030727
 30
0.0
 10
10.1312269547
 20
29.2259078114
 30
0.0
 10
10.0335683872
 20
29.2090314263
 30
0.0
 10
9.9583539787
 20
29.1800595292
 30
0.0
 10
9.9206994145
 20
29.1620372264
 30
0.0
 11
10.3555722797
 21
29.1844005253
 31
0.0
 11
10.3083859465
 21
29.2041069094
 31
0.0
 11
10.2584182613
 21
29.2174574119
 31
0.0
 11
10.2060166486
 21
29.2243592099
 31
0.0
 11
10.1515454386
 21
29.2247643092
 31
0.0
 11
10.0379209226
 21
29.2061183388
 31
0.0
 11
9.9206994145
 21
29.1620372264
 31
0.0
  0
SPLINE
  5
462
100
AcDbEntity
  8
ASSI
100
AcDbSpline
 62
253
  6
CONTINUOUS
 70
0
 71
3
 72
11
 73
7
 74
5
 42
0.0000001
 43
0.0000001
 44
0.0000000001
 12
0.0829653579
 22
0.0414856941
 32
0.0
 13
0.082966564
 23
-0.041483282
 33
0.0
 40
0.0
 40
0.0
 40
0.0
 40
0.0
 40
0.2271109519
 40
0.4646760174
 40
0.7207663845
 40
1.0
 40
1.0
 40
1.0
 40
1.0
 10
-4.1035268542
 20
26.4336665258
 30
0.0
 10
-4.0972460737
 20
26.4368071443
 30
0.0
 10
-4.0834047644
 20
26.4414129288
 30
0.0
 10
-4.0609165943
 20
26.44253739
 30
0.0
 10
-4.037248957
 20
26.438091127
 30
0.0
 10
-4.0218065201
 20
26.4318474114
 30
0.0
 10
-4.0140841689
 20
26.4279862358
 30
0.0
 11
-4.1035268542
 21
26.4336665258
 31
0.0
 11
-4.0835592784
 21
26.4403822615
 31
0.0
 11
-4.0615606774
 21
26.4416724445
 31
0.0
 11
-4.0381751594
 21
26.4375001542
 31
0.0
 11
-4.0140841689
 21
26.4279862358
 31
0.0
  0
SPLINE
  5
463
100
AcDbEntity
  8
ASSI
100
AcDbSpline
 62
7
  6
CONTINUOUS
 70
0
 71
3
 72
11
 73
7
 74
5
 42
0.0000001
 43
0.0000001
 44
0.0000000001
 12
0.0789043412
 22
0.0394542114
 32
0.0
 13
0.0789051575
 23
-0.0394525788
 33
0.0
 40
0.0
 40
0.0
 40
0.0
 40
0.0
 40
0.21439309
 40
0.4477462014
 40
0.7084790342
 40
1.0
 40
1.0
 40
1.0
 40
1.0
 10
-4.1650837903
 20
26.4028881344
 30
0.0
 10
-4.1594449418
 20
26.4057077045
 30
0.0
 10
-4.1466368116
 20
26.4096711128
 30
0.0
 10
-4.1255905502
 20
26.4099858515
 30
0.0
 10
-4.1028576818
 20
26.4050713332
 30
0.0
 10
-4.0877881879
 20
26.3988017288
 30
0.0
 10
-4.0801206853
 20
26.3949679776
 30
0.0
 11
-4.1650837903
 21
26.4028881344
 31
0.0
 11
-4.147066206
 21
26.4086401728
 31
0.0
 11
-4.1264887135
 21
26.4092352813
 31
0.0
 11
-4.1039516316
 21
26.4046364937
 31
0.0
 11
-4.0801206853
 21
26.3949679776
 31
0.0
  0
SPLINE
  5
464
100
AcDbEntity
  8
ASSI
100
AcDbSpline
 62
253
  6
CONTINUOUS
 70
0
 71
3
 72
11
 73
7
 74
5
 42
0.0000001
 43
0.0000001
 44
0.0000000001
 12
0.3518239458
 22
0.5813716426
 32
0.0
 13
0.1373282516
 23
0.6655178637
 33
0.0
 40
0.0
 40
0.0
 40
0.0
 40
0.0
 40
0.2561740929
 40
0.5093329034
 40
0.7579914269
 40
1.0
 40
1.0
 40
1.0
 40
1.0
 10
17.2042116184
 20
20.6783158384
 30
0.0
 10
17.2342543452
 20
20.7279599561
 30
0.0
 10
17.2902412075
 20
20.8289865355
 30
0.0
 10
17.3617296287
 20
20.9852804432
 30
0.0
 10
17.4192472305
 20
21.1438419177
 30
0.0
 10
17.4476592516
 20
21.251514524
 30
0.0
 10
17.4587374563
 20
21.3052015335
 30
0.0
 11
17.2042116184
 21
20.6783158384
 31
0.0
 11
17.2885615097
 21
20.8305952872
 31
0.0
 11
17.3599846701
 21
20.987099229
 31
0.0
 11
17.4173140232
 21
21.146049739
 31
0.0
 11
17.4587374563
 21
21.3052015335
 31
0.0
  0
SPLINE
  5
465
100
AcDbEntity
  8
ASSI
100
AcDbSpline
 62
7
  6
CONTINUOUS
 70
0
 71
3
 72
11
 73
7
 74
5
 42
0.0000001
 43
0.0000001
 44
0.0000000001
 12
-0.0738604135
 22
0.0232469909
 32
0.0
 13
-0.0674365298
 23
-0.0380538791
 33
0.0
 40
0.0
 40
0.0
 40
0.0
 40
0.0
 40
0.2251874253
 40
0.4631287959
 40
0.7201906943
 40
1.0
 40
1.0
 40
1.0
 40
1.0
 10
-2.8707062247
 20
26.4761170109
 30
0.0
 10
-2.8762503702
 20
26.4778619876
 30
0.0
 10
-2.8881670825
 20
26.4799622789
 30
0.0
 10
-2.9068626745
 20
26.478755657
 30
0.0
 10
-2.9262496652
 20
26.4733889849
 30
0.0
 10
-2.9388255995
 20
26.467410709
 30
0.0
 10
-2.9451153891
 20
26.4638614325
 30
0.0
 11
-2.8707062247
 21
26.4761170109
 31
0.0
 11
-2.8878639142
 21
26.4792244414
 31
0.0
 11
-2.9062590706
 21
26.4781871085
 31
0.0
 11
-2.9254839196
 21
26.4730284794
 31
0.0
 11
-2.9451153891
 21
26.4638614325
 31
0.0
  0
SPLINE
  5
466
100
AcDbEntity
  8
ASSI
100
AcDbSpline
 62
7
  6
CONTINUOUS
 70
0
 71
3
 72
15
 73
11
 74
9
 42
0.0000001
 43
0.0000001
 44
0.0000000001
 12
0.3458981339
 22
0.1680197029
 32
0.0
 13
0.343933937
 23
-0.1720046122
 33
0.0
 40
0.0
 40
0.0
 40
0.0
 40
0.0
 40
0.1656880137
 40
0.3196247913
 40
0.4613593401
 40
0.5907886441
 40
0.7082363666
 40
0.8145306636
 40
0.9110918568
 40
1.0
 40
1.0
 40
1.0
 40
1.0
 10
16.4471635668
 20
25.8988051502
 30
0.0
 10
16.4662672917
 20
25.9080847672
 30
0.0
 10
16.5036153528
 20
25.9249963158
 30
0.0
 10
16.5589765432
 20
25.945918599
 30
0.0
 10
16.6112908075
 20
25.9613715903
 30
0.0
 10
16.6601854415
 20
25.9712777584
 30
0.0
 10
16.7053445555
 20
25.9756153717
 30
0.0
 10
16.746515441
 20
25.9743959532
 30
0.0
 10
16.7834627571
 20
25.9676652039
 30
0.0
 10
16.8058815557
 20
25.9592470002
 30
0.0
 10
16.8160743983
 20
25.9541494633
 30
0.0
 11
16.4471635668
 21
25.8988051502
 31
0.0
 11
16.5052587006
 21
25.9249686325
 31
0.0
 11
16.5606865985
 21
25.9457508299
 31
0.0
 11
16.6130092694
 21
25.9610143453
 31
0.0
 11
16.6618319624
 21
25.9706868614
 31
0.0
 11
16.7068120082
 21
25.9747604523
 31
0.0
 11
16.7476605259
 21
25.9732860535
 31
0.0
 11
16.784142407
 21
25.9663665919
 31
0.0
 11
16.8160743983
 21
25.9541494633
 31
0.0
  0
SPLINE
  5
467
100
AcDbEntity
  8
ASSI
100
AcDbSpline
 62
253
  6
CONTINUOUS
 70
0
 71
3
 72
9
 73
5
 74
3
 42
0.0000001
 43
0.0000001
 44
0.0000000001
 12
-0.2177712776
 22
0.1126705001
 32
0.0
 13
-0.2445917997
 23
0.0171412507
 33
0.0
 40
0.0
 40
0.0
 40
0.0
 40
0.0
 40
0.5216441079
 40
1.0
 40
1.0
 40
1.0
 40
1.0
 10
4.0023803472
 20
26.4287613548
 30
0.0
 10
3.9645139793
 20
26.4483526556
 30
0.0
 10
3.8886824941
 20
26.4801411024
 30
0.0
 10
3.8077198132
 20
26.4960556965
 30
0.0
 10
3.7687191704
 20
26.4987889026
 30
0.0
 11
4.0023803472
 21
26.4287613548
 31
0.0
 11
3.8840036215
 21
26.4771976926
 31
0.0
 11
3.7687191704
 21
26.4987889026
 31
0.0
  0
SPLINE
  5
468
100
AcDbEntity
  8
ASSI
100
AcDbSpline
 62
253
  6
CONTINUOUS
 70
0
 71
3
 72
13
 73
9
 74
7
 42
0.0000001
 43
0.0000001
 44
0.0000000001
 12
-0.394267285
 22
0.2039860016
 32
0.0
 13
-0.4051035399
 23
-0.1815161227
 33
0.0
 40
0.0
 40
0.0
 40
0.0
 40
0.0
 40
0.2779575814
 40
0.5336147585
 40
0.6545598699
 40
0.7718827763
 40
0.8866322891
 40
1.0
 40
1.0
 40
1.0
 40
1.0
 10
9.9206994145
 20
29.1620372264
 30
0.0
 10
9.8841695542
 20
29.1809370449
 30
0.0
 10
9.8110125371
 20
29.211837204
 30
0.0
 10
9.7154269391
 20
29.2317790915
 30
0.0
 10
9.6422190195
 20
29.2340865554
 30
0.0
 10
9.5900561238
 20
29.2293442001
 30
0.0
 10
9.5400331698
 20
29.2181743303
 30
0.0
 10
9.508251959
 20
29.2064478959
 30
0.0
 10
9.4929434053
 20
29.1995885401
 30
0.0
 11
9.9206994145
 21
29.1620372264
 31
0.0
 11
9.8066617966
 21
29.2091554417
 31
0.0
 11
9.6953754551
 21
29.2314065357
 31
0.0
 11
9.6417100026
 21
29.2329919494
 31
0.0
 11
9.5898510539
 21
29.2281885501
 31
0.0
 11
9.5401499492
 21
29.2170288785
 31
0.0
 11
9.4929434053
 21
29.1995885401
 31
0.0
  0
SPLINE
  5
469
100
AcDbEntity
  8
ASSI
100
AcDbSpline
 62
253
  6
CONTINUOUS
 70
0
 71
3
 72
12
 73
8
 74
6
 42
0.0000001
 43
0.0000001
 44
0.0000000001
 12
-0.0000086987
 22
-0.1404182904
 32
0.0
 13
-0.1246953408
 23
-0.0645629022
 33
0.0
 40
0.0
 40
0.0
 40
0.0
 40
0.0
 40
0.1028544657
 40
0.2084744779
 40
0.4366771576
 40
0.6988754356
 40
1.0
 40
1.0
 40
1.0
 40
1.0
 10
19.1557852566
 20
18.9669854726
 30
0.0
 10
19.1557849584
 20
18.9621712566
 30
0.0
 10
19.1548316243
 20
18.952388593
 30
0.0
 10
19.149041914
 20
18.9326780752
 30
0.0
 10
19.1340974673
 20
18.908520481
 30
0.0
 10
19.1067163134
 20
18.8831328779
 30
0.0
 10
19.0841034836
 20
18.8692708058
 30
0.0
 10
19.0715872069
 20
18.8627903139
 30
0.0
 11
19.1557852566
 21
18.9669854726
 31
0.0
 11
19.1544035172
 21
18.9526090724
 31
0.0
 11
19.1502723491
 21
18.9383650749
 31
0.0
 11
19.1339390039
 21
18.9107964534
 31
0.0
 11
19.1073856887
 21
18.8852926321
 31
0.0
 11
19.0715872069
 21
18.8627903139
 31
0.0
  0
SPLINE
  5
46A
100
AcDbEntity
  8
ASSI
100
AcDbSpline
 62
253
  6
CONTINUOUS
 70
0
 71
3
 72
12
 73
8
 74
6
 42
0.0000001
 43
0.0000001
 44
0.0000000001
 12
-0.1509887071
 22
0.086284398
 32
0.0
 13
-0.0351145078
 23
0.1703219257
 33
0.0
 40
0.0
 40
0.0
 40
0.0
 40
0.0
 40
0.2995454897
 40
0.4376656587
 40
0.5672182521
 40
0.7996841846
 40
1.0
 40
1.0
 40
1.0
 40
1.0
 10
17.5730416537
 20
21.1800661256
 30
0.0
 10
17.5579656583
 20
21.188681493
 30
0.0
 10
17.5366262818
 20
21.202601088
 30
0.0
 10
17.5113251273
 20
21.2236530599
 30
0.0
 10
17.4906991192
 20
21.2440665285
 30
0.0
 10
17.470774857
 20
21.2701763638
 30
0.0
 10
17.4610822686
 20
21.2938287911
 30
0.0
 10
17.4587376049
 20
21.3052015162
 30
0.0
 11
17.5730416537
 21
21.1800661256
 31
0.0
 11
17.529606757
 21
21.2088237591
 31
0.0
 11
17.5111827974
 21
21.2242348272
 31
0.0
 11
17.4952126518
 21
21.2401264046
 31
0.0
 11
17.4712634247
 21
21.2726956588
 31
0.0
 11
17.4587376049
 21
21.3052015162
 31
0.0
  0
SPLINE
  5
46B
100
AcDbEntity
  8
ASSI
100
AcDbSpline
 62
253
  6
CONTINUOUS
 70
0
 71
3
 72
11
 73
7
 74
5
 42
0.0000001
 43
0.0000001
 44
0.0000000001
 12
0.4333479775
 22
0.4499808141
 32
0.0
 13
0.2850887391
 23
0.5558755378
 33
0.0
 40
0.0
 40
0.0
 40
0.0
 40
0.0
 40
0.2612074294
 40
0.5159461504
 40
0.7628687649
 40
1.0
 40
1.0
 40
1.0
 40
1.0
 10
17.2042116184
 20
20.6783158384
 30
0.0
 10
17.2419428555
 20
20.7174952823
 30
0.0
 10
17.3140804968
 20
20.7972303294
 30
0.0
 10
17.4129261617
 20
20.9217387462
 30
0.0
 10
17.5000783706
 20
21.0486696017
 30
0.0
 10
17.55050636
 20
21.1361255936
 30
0.0
 10
17.5730408416
 20
21.1800640778
 30
0.0
 11
17.2042116184
 21
20.6783158384
 31
0.0
 11
17.3136300864
 21
20.7993764618
 31
0.0
 11
17.4124377176
 21
20.9241265675
 31
0.0
 11
17.4994967923
 21
21.0514685407
 31
0.0
 11
17.5730408416
 21
21.1800640778
 31
0.0
  0
SPLINE
  5
46C
100
AcDbEntity
  8
ASSI
100
AcDbSpline
 62
253
  6
CONTINUOUS
 70
0
 71
3
 72
9
 73
5
 74
3
 42
0.0000001
 43
0.0000001
 44
0.0000000001
 12
0.1226776604
 22
-0.2830030354
 32
0.0
 13
-0.0134905382
 23
-0.3081534225
 33
0.0
 40
0.0
 40
0.0
 40
0.0
 40
0.0
 40
0.5153566805
 40
1.0
 40
1.0
 40
1.0
 40
1.0
 10
19.0117188102
 20
21.7358267011
 30
0.0
 10
19.0327930608
 20
21.6872108662
 30
0.0
 10
19.0642220689
 20
21.5884776303
 30
0.0
 10
19.0737665733
 20
21.4849710606
 30
0.0
 10
19.0715872069
 20
21.4351895614
 30
0.0
 11
19.0117188102
 21
21.7358267011
 31
0.0
 11
19.0593749992
 21
21.5841774391
 31
0.0
 11
19.0715872069
 21
21.4351895614
 31
0.0
  0
SPLINE
  5
46D
100
AcDbEntity
  8
ASSI
100
AcDbSpline
 62
253
  6
CONTINUOUS
 70
0
 71
3
 72
11
 73
7
 74
5
 42
0.0000001
 43
0.0000001
 44
0.0000000001
 12
0.0106092955
 22
-0.231351798
 32
0.0
 13
-0.1504204194
 23
-0.176096306
 33
0.0
 40
0.0
 40
0.0
 40
0.0
 40
0.0
 40
0.2826619634
 40
0.5425627753
 40
0.7804787281
 40
1.0
 40
1.0
 40
1.0
 40
1.0
 10
19.0715872069
 20
18.8627903139
 30
0.0
 10
19.0725868216
 20
18.8409921961
 30
0.0
 10
19.0718584717
 20
18.7989514931
 30
0.0
 10
19.0615333586
 20
18.7393068772
 30
0.0
 10
19.0421705517
 20
18.6870530277
 30
0.0
 10
19.0227255835
 20
18.6570979868
 30
0.0
 10
19.0117187562
 20
18.6442123585
 30
0.0
 11
19.0715872069
 21
18.8627903139
 31
0.0
 11
19.0700774695
 21
18.7973446477
 31
0.0
 11
19.0593749725
 21
18.7381120675
 31
0.0
 11
19.0397540684
 21
18.6866237749
 31
0.0
 11
19.0117187562
 21
18.6442123585
 31
0.0
  0
SPLINE
  5
46E
100
AcDbEntity
  8
ASSI
100
AcDbSpline
 62
7
  6
CONTINUOUS
 70
0
 71
3
 72
10
 73
6
 74
4
 42
0.0000001
 43
0.0000001
 44
0.0000000001
 12
0.08518834
 22
0.0445591007
 32
0.0
 13
0.0457515924
 23
0.0845538794
 33
0.0
 40
0.0
 40
0.0
 40
0.0
 40
0.0
 40
0.5245740276
 40
0.7673422648
 40
1.0
 40
1.0
 40
1.0
 40
1.0
 10
19.0715872069
 20
19.0337199324
 30
0.0
 10
19.0864830704
 20
19.0415114481
 30
0.0
 10
19.1071901549
 20
19.0555085611
 30
0.0
 10
19.1290593832
 20
19.0790730247
 30
0.0
 10
19.1375180147
 20
19.0918524505
 30
0.0
 10
19.1410661687
 20
19.0984098218
 30
0.0
 11
19.0715872069
 21
19.0337199324
 31
0.0
 11
19.1129600732
 21
19.0625580345
 31
0.0
 11
19.128775018
 21
19.079722279
 31
0.0
 11
19.1410661687
 21
19.0984098218
 31
0.0
  0
SPLINE
  5
46F
100
AcDbEntity
  8
ASSI
100
AcDbSpline
 62
253
  6
CONTINUOUS
 70
0
 71
3
 72
9
 73
5
 74
3
 42
0.0000001
 43
0.0000001
 44
0.0000000001
 12
-0.0354614452
 22
-0.0403231889
 32
0.0
 13
-0.0457675496
 23
-0.0280856736
 33
0.0
 40
0.0
 40
0.0
 40
0.0
 40
0.0
 40
0.2488948988
 40
1.0
 40
1.0
 40
1.0
 40
1.0
 10
19.0527521052
 20
18.6786734053
 30
0.0
 10
19.0498100476
 20
18.6753279933
 30
0.0
 10
19.0374865329
 20
18.66233565
 30
0.0
 10
19.0231774084
 20
18.6512443116
 30
0.0
 10
19.0117186618
 20
18.6442125474
 30
0.0
 11
19.0527521052
 21
18.6786734053
 31
0.0
 11
19.0435525218
 21
18.6689783021
 31
0.0
 11
19.0117186618
 21
18.6442125474
 31
0.0
  0
SPLINE
  5
470
100
AcDbEntity
  8
ASSI
100
AcDbSpline
 62
253
  6
CONTINUOUS
 70
0
 71
3
 72
19
 73
15
 74
13
 42
0.0000001
 43
0.0000001
 44
0.0000000001
 12
0.3420937617
 22
0.1700860762
 32
0.0
 13
0.1916424317
 23
-0.3305005197
 33
0.0
 40
0.0
 40
0.0
 40
0.0
 40
0.0
 40
0.2169654406
 40
0.4110536596
 40
0.5799412176
 40
0.7216490772
 40
0.7818118702
 40
0.834639353
 40
0.8800289866
 40
0.917937938
 40
0.9484175031
 40
0.9609418656
 40
0.9717272116
 40
1.0
 40
1.0
 40
1.0
 40
1.0
 10
16.7900611428
 20
25.3073943147
 30
0.0
 10
16.814801984
 20
25.3196952481
 30
0.0
 10
16.8618356347
 20
25.3426794564
 30
0.0
 10
16.9287497911
 20
25.3739475938
 30
0.0
 10
16.9875724119
 20
25.3998565329
 30
0.0
 10
17.0313386139
 20
25.4176057944
 30
0.0
 10
17.0618091632
 20
25.4287319091
 30
0.0
 10
17.0809524724
 20
25.4350973373
 30
0.0
 10
17.0975992879
 20
25.4399439993
 30
0.0
 10
17.1117232712
 20
25.4432559403
 30
0.0
 10
17.1218944445
 20
25.4448593707
 30
0.0
 10
17.1287867562
 20
25.4452340561
 30
0.0
 10
17.1351908763
 20
25.4450753562
 30
0.0
 10
17.1410982749
 20
25.4436074186
 30
0.0
 10
17.1429043635
 20
25.4404926948
 30
0.0
 11
16.7900611428
 21
25.3073943147
 31
0.0
 11
16.8645630936
 21
25.3437296835
 31
0.0
 11
16.9317791534
 21
25.3750386551
 31
0.0
 11
16.9908772854
 21
25.4009337356
 31
0.0
 11
17.0411226621
 21
25.4210928558
 31
0.0
 11
17.0627262966
 21
25.4289404568
 31
0.0
 11
17.0818918339
 21
25.4352659454
 31
0.0
 11
17.0985597668
 21
25.4400496914
 31
0.0
 11
17.1126784988
 21
25.443276942
 31
0.0
 11
17.1242040064
 21
25.4449375684
 31
0.0
 11
17.1289827864
 21
25.4451785905
 31
0.0
 11
17.1331004483
 21
25.4450263897
 31
0.0
 11
17.1429043635
 21
25.4404926948
 31
0.0
  0
SPLINE
  5
471
100
AcDbEntity
  8
ASSI
100
AcDbSpline
 62
253
  6
CONTINUOUS
 70
0
 71
3
 72
18
 73
14
 74
12
 42
0.0000001
 43
0.0000001
 44
0.0000000001
 12
0.0427344967
 22
-0.0912483999
 32
0.0
 13
-0.089942797
 23
-0.0454180687
 33
0.0
 40
0.0
 40
0.0
 40
0.0
 40
0.0
 40
0.0066687172
 40
0.0200719932
 40
0.041247279
 40
0.0703678173
 40
0.1074300617
 40
0.152375111
 40
0.2654576731
 40
0.4084639192
 40
0.5798497599
 40
0.7777587615
 40
1.0
 40
1.0
 40
1.0
 40
1.0
 10
19.0992002678
 20
21.7850406421
 30
0.0
 10
19.0992952625
 20
21.7848378055
 30
0.0
 10
19.0989435167
 20
21.7841095326
 30
0.0
 10
19.097980958
 20
21.7832114637
 30
0.0
 10
19.0962933807
 20
21.7818353682
 30
0.0
 10
19.0938907624
 20
21.7801749402
 30
0.0
 10
19.0907517595
 20
21.7781448113
 30
0.0
 10
19.0851587787
 20
21.7747350814
 30
0.0
 10
19.0763862581
 20
21.7697022407
 30
0.0
 10
19.0637966198
 20
21.7628009761
 30
0.0
 10
19.0485982938
 20
21.7547328123
 30
0.0
 10
19.0309594814
 20
21.7455894461
 30
0.0
 10
19.0183817744
 20
21.7391912245
 30
0.0
 10
19.0117187749
 20
21.7358266352
 30
0.0
 11
19.0992002678
 21
21.7850406421
 31
0.0
 11
19.0990486572
 21
21.7843860319
 31
0.0
 11
19.098145928
 21
21.7833815641
 31
0.0
 11
19.0964948683
 21
21.7820301528
 31
0.0
 11
19.0940996553
 21
21.780335355
 31
0.0
 11
19.0909673554
 21
21.7783020613
 31
0.0
 11
19.0871061547
 21
21.7759356763
 31
0.0
 11
19.0772427996
 21
21.7702311955
 31
0.0
 11
19.0646184088
 21
21.7632848638
 31
0.0
 11
19.0493730709
 21
21.755173738
 31
0.0
 11
19.0316740772
 21
21.7459868578
 31
0.0
 11
19.0117187749
 21
21.7358266352
 31
0.0
  0
SPLINE
  5
472
100
AcDbEntity
  8
ASSI
100
AcDbSpline
 62
253
  6
CONTINUOUS
 70
0
 71
3
 72
12
 73
8
 74
6
 42
0.0000001
 43
0.0000001
 44
0.0000000001
 12
-0.0000042701
 22
-0.1404206316
 32
0.0
 13
-0.1246974194
 23
-0.0645639789
 33
0.0
 40
0.0
 40
0.0
 40
0.0
 40
0.0
 40
0.1028546434
 40
0.2084745182
 40
0.4366765843
 40
0.6988746954
 40
1.0
 40
1.0
 40
1.0
 40
1.0
 10
19.1557852567
 20
21.5393870847
 30
0.0
 10
19.1557851103
 20
21.53457278
 30
0.0
 10
19.1548320499
 20
21.5247899198
 30
0.0
 10
19.1490427268
 20
21.5050789521
 30
0.0
 10
19.1340984031
 20
21.4809207365
 30
0.0
 10
19.1067169399
 20
21.4555325283
 30
0.0
 10
19.084103723
 20
21.4416701774
 30
0.0
 10
19.0715872069
 20
21.4351895614
 30
0.0
 11
19.1557852567
 21
21.5393870847
 31
0.0
 11
19.1544039138
 21
21.5250103793
 31
0.0
 11
19.1502730257
 21
21.5107660633
 31
0.0
 11
19.1339398895
 21
21.4831967972
 31
0.0
 11
19.1073863325
 21
21.4576923755
 31
0.0
 11
19.0715872069
 21
21.4351895614
 31
0.0
  0
SPLINE
  5
473
100
AcDbEntity
  8
ASSI
100
AcDbSpline
 62
7
  6
CONTINUOUS
 70
0
 71
3
 72
14
 73
10
 74
8
 42
0.0000001
 43
0.0000001
 44
0.0000000001
 12
0.0000089474
 22
-0.1249350135
 32
0.0
 13
-0.1111854209
 23
-0.0569785911
 33
0.0
 40
0.0
 40
0.0
 40
0.0
 40
0.0
 40
0.0819502751
 40
0.1721976201
 40
0.2741154028
 40
0.3897757245
 40
0.5202143261
 40
0.6657011406
 40
1.0
 40
1.0
 40
1.0
 40
1.0
 10
19.1557852235
 20
21.3497766426
 30
0.0
 10
19.1557854679
 20
21.346363823
 30
0.0
 10
19.1547546072
 20
21.3391702032
 30
0.0
 10
19.1504613196
 20
21.3285051987
 30
0.0
 10
19.1434834296
 20
21.3176787823
 30
0.0
 10
19.1338916224
 20
21.3067600723
 30
0.0
 10
19.1217591454
 20
21.2958188775
 30
0.0
 10
19.101360602
 20
21.2806188903
 30
0.0
 10
19.0839769267
 20
21.2706093951
 30
0.0
 10
19.0715872069
 20
21.2642601024
 30
0.0
 11
19.1557852235
 21
21.3497766426
 31
0.0
 11
19.154426912
 21
21.3396286857
 31
0.0
 11
19.150347169
 21
21.329117619
 31
0.0
 11
19.1435613566
 21
21.3183433638
 31
0.0
 11
19.1341129423
 21
21.3074103561
 31
0.0
 11
19.1220746183
 21
21.296426289
 31
0.0
 11
19.1075484884
 21
21.2855004955
 31
0.0
 11
19.0715872069
 21
21.2642601024
 31
0.0
  0
SPLINE
  5
474
100
AcDbEntity
  8
ASSI
100
AcDbSpline
 62
253
  6
CONTINUOUS
 70
0
 71
3
 72
11
 73
7
 74
5
 42
0.0000001
 43
0.0000001
 44
0.0000000001
 12
0.004359318
 22
1.5061458984
 32
0.0
 13
-0.75913754
 23
1.3008476723
 33
0.0
 40
0.0
 40
0.0
 40
0.0
 40
0.0
 40
0.2342472426
 40
0.482518626
 40
0.7397297627
 40
1.0
 40
1.0
 40
1.0
 40
1.0
 10
17.2042116184
 20
23.87576074
 30
0.0
 10
17.2045520045
 20
23.9933642479
 30
0.0
 10
17.1850954715
 20
24.2359209036
 30
0.0
 10
17.1040623597
 20
24.5993887488
 30
0.0
 10
16.9733053561
 20
24.9619277986
 30
0.0
 10
16.8559214453
 20
25.1945370039
 30
0.0
 10
16.7900611428
 20
25.3073943147
 30
0.0
 11
17.2042116184
 21
23.87576074
 31
0.0
 11
17.1777891492
 21
24.2275819468
 31
0.0
 11
17.097577455
 21
24.5928121323
 31
0.0
 11
16.9666580472
 21
24.9574190272
 31
0.0
 11
16.7900611428
 21
25.3073943147
 31
0.0
  0
SPLINE
  5
475
100
AcDbEntity
  8
0
100
AcDbSpline
 62
7
  6
CONTINUOUS
 70
0
 71
3
 72
24
 73
20
 74
18
 42
0.0000001
 43
0.0000001
 44
0.0000000001
 12
-5.2226575051
 22
-2.4894366162
 32
0.0
 13
-3.3100041018
 23
4.7452417143
 33
0.0
 40
0.0
 40
0.0
 40
0.0
 40
0.0
 40
0.0584849701
 40
0.1209358865
 40
0.18677485
 40
0.2553082673
 40
0.3257587266
 40
0.3972927743
 40
0.4690464721
 40
0.540149732
 40
0.6097503805
 40
0.6770389888
 40
0.7412755294
 40
0.8018190176
 40
0.8581627031
 40
0.9099783451
 40
0.9341623665
 40
0.9572043849
 40
1.0
 40
1.0
 40
1.0
 40
1.0
 10
12.0533666968
 20
24.6095304588
 30
0.0
 10
11.9515510408
 20
24.5609989168
 30
0.0
 10
11.7357397176
 20
24.4714972987
 30
0.0
 10
11.3920249736
 20
24.3625619881
 30
0.0
 10
11.0221253565
 20
24.2758473593
 30
0.0
 10
10.6318887315
 20
24.2127415336
 30
0.0
 10
10.2274475829
 20
24.1742423936
 30
0.0
 10
9.8151944095
 20
24.1609669052
 30
0.0
 10
9.401649481
 20
24.1731279963
 30
0.0
 10
8.993357196
 20
24.2105338211
 30
0.0
 10
8.5967746278
 20
24.2725890792
 30
0.0
 10
8.2181606896
 20
24.3583083714
 30
0.0
 10
7.8634741047
 20
24.4663334481
 30
0.0
 10
7.5382489496
 20
24.5949786395
 30
0.0
 10
7.2475711663
 20
24.7422480032
 30
0.0
 10
7.0330580067
 20
24.8817614875
 30
0.0
 10
6.8838984583
 20
25.0013303079
 30
0.0
 10
6.7564803082
 20
25.1193503451
 30
0.0
 10
6.6732945856
 20
25.2163803656
 30
0.0
 10
6.6260766984
 20
25.2840722116
 30
0.0
 11
12.0533666968
 21
24.6095304588
 31
0.0
 11
11.7412401196
 21
24.4788681259
 31
0.0
 11
11.3970716144
 21
24.3688754231
 31
0.0
 11
11.026353946
 21
24.2813079022
 31
0.0
 11
10.635002741
 21
24.217563911
 31
0.0
 11
10.2292635265
 21
24.1786621459
 31
0.0
 11
9.815612627
 21
24.1652244017
 31
0.0
 11
9.4006532296
 21
24.1774658803
 31
0.0
 11
8.991010064
 21
24.2151924409
 31
0.0
 11
8.5932241134
 21
24.2778030428
 31
0.0
 11
8.2136479268
 21
24.3642989501
 31
0.0
 11
7.858343066
 21
24.4732991621
 31
0.0
 11
7.5329838634
 21
24.6030634609
 31
0.0
 11
7.2427670085
 21
24.751519999
 31
0.0
 11
6.9923278999
 21
24.9162980156
 31
0.0
 11
6.8833007385
 21
25.0039940158
 31
0.0
 11
6.7856649957
 21
25.0947655574
 31
0.0
 11
6.6260766984
 21
25.2840722116
 31
0.0
  0
LINE
  5
476
100
AcDbEntity
  8
RACCORDO
100
AcDbLine
 62
7
  6
CONTINUOUS
 10
19.1557899383
 20
21.3558621418
 11
19.1577178186
 21
21.3504151562
  0
LINE
  5
477
100
AcDbEntity
  8
RACCORDO
100
AcDbLine
 62
7
  6
CONTINUOUS
 10
19.1577178186
 20
21.3504151562
 11
19.1579842927
 21
21.3496604022
  0
SPLINE
  5
478
100
AcDbEntity
  8
RACCORDO
100
AcDbSpline
 62
7
  6
CONTINUOUS
 70
0
 71
3
 72
15
 73
11
 74
9
 42
0.0000001
 43
0.0000001
 44
0.0000000001
 12
0.7594422826
 22
-2.1516712582
 32
0.0
 13
-1.0471258257
 23
-2.0273059191
 33
0.0
 40
0.0
 40
0.0
 40
0.0
 40
0.0
 40
0.1388161433
 40
0.2748300603
 40
0.4071919408
 40
0.5352364122
 40
0.6585338955
 40
0.7769348731
 40
0.8905995613
 40
1.0
 40
1.0
 40
1.0
 40
1.0
 10
19.1579842927
 20
21.3496604022
 30
0.0
 10
19.1931252423
 20
21.250098167
 30
0.0
 10
19.2553607
 20
21.0502933582
 30
0.0
 10
19.3241828871
 20
20.7480070747
 30
0.0
 10
19.3667330075
 20
20.4491401776
 30
0.0
 10
19.3821995326
 20
20.1572966001
 30
0.0
 10
19.3699731787
 20
19.8758652536
 30
0.0
 10
19.3295469737
 20
19.608035932
 30
0.0
 10
19.2605227609
 20
19.3570040435
 30
0.0
 10
19.1939849914
 20
19.2002059301
 30
0.0
 10
19.1557996499
 20
19.1262765444
 30
0.0
 11
19.1579842927
 21
21.3496604022
 31
0.0
 11
19.2519682286
 21
21.0471794194
 31
0.0
 11
19.3205483443
 21
20.7445000104
 31
0.0
 11
19.3626869393
 21
20.4454356908
 31
0.0
 11
19.3776044791
 21
20.1536496508
 31
0.0
 11
19.3647358581
 21
19.8726084988
 31
0.0
 11
19.3236692197
 21
19.6055849923
 31
0.0
 11
19.2540920192
 21
19.3557360823
 31
0.0
 11
19.1557996499
 21
19.1262765444
 31
0.0
  0
SPLINE
  5
479
100
AcDbEntity
  8
RACCORDO
100
AcDbSpline
 62
7
  6
CONTINUOUS
 70
0
 71
3
 72
9
 73
5
 74
3
 42
0.0000001
 43
0.0000001
 44
0.0000000001
 12
-0.2683847562
 22
-0.305171905
 32
0.0
 13
-0.3460400838
 23
-0.213111542
 33
0.0
 40
0.0
 40
0.0
 40
0.0
 40
0.0
 40
0.5026790108
 40
1.0
 40
1.0
 40
1.0
 40
1.0
 10
19.0527521081
 20
18.6786734027
 30
0.0
 10
19.0077816468
 20
18.6275388989
 30
0.0
 10
18.9110167818
 20
18.5319717571
 30
0.0
 10
18.8010090131
 20
18.4519006935
 30
0.0
 10
18.7436446808
 20
18.4165724125
 30
0.0
 11
19.0527521081
 21
18.6786734027
 31
0.0
 11
18.9071520147
 21
18.5353753512
 31
0.0
 11
18.7436446808
 21
18.4165724125
 31
0.0
  0
SPLINE
  5
47A
100
AcDbEntity
  8
RACCORDO
100
AcDbSpline
 62
7
  6
CONTINUOUS
 70
0
 71
3
 72
14
 73
10
 74
8
 42
0.0000001
 43
0.0000001
 44
0.0000000001
 12
2.184200251
 22
-1.142845821
 32
0.0
 13
1.0447812264
 23
-2.2327694678
 33
0.0
 40
0.0
 40
0.0
 40
0.0
 40
0.0
 40
0.1127383403
 40
0.2299025909
 40
0.3512652978
 40
0.476384539
 40
0.6046400754
 40
0.7352721089
 40
1.0
 40
1.0
 40
1.0
 40
1.0
 10
17.4848893614
 20
23.5948599309
 30
0.0
 10
17.5669703985
 20
23.5519124172
 30
0.0
 10
17.7296359765
 20
23.4550720626
 30
0.0
 10
17.9624148346
 20
23.2837562161
 30
0.0
 10
18.1866558826
 20
23.0856982785
 30
0.0
 10
18.40010493
 20
22.863318197
 30
0.0
 10
18.6005702293
 20
22.619221775
 30
0.0
 10
18.8485725143
 20
22.2673122256
 30
0.0
 10
19.0070061075
 20
21.9820661318
 30
0.0
 10
19.099200351
 20
21.785040681
 30
0.0
 11
17.4848893614
 21
23.5948599309
 31
0.0
 11
17.7240247235
 21
23.4532606767
 31
0.0
 11
17.9569828945
 21
23.2825272466
 31
0.0
 11
18.181527885
 21
23.0848290693
 31
0.0
 11
18.3953799763
 21
22.8625703278
 31
0.0
 11
18.5962542309
 21
22.618418328
 31
0.0
 11
18.7819134797
 21
22.35530229
 31
0.0
 11
19.099200351
 21
21.785040681
 31
0.0
  0
SPLINE
  5
47B
100
AcDbEntity
  8
0
100
AcDbSpline
 62
7
  6
CONTINUOUS
 70
0
 71
3
 72
11
 73
7
 74
5
 42
0.0000001
 43
0.0000001
 44
0.0000000001
 12
0.6975302562
 22
-0.3486511438
 32
0.0
 13
0.3388641314
 23
-0.7023369411
 33
0.0
 40
0.0
 40
0.0
 40
0.0
 40
0.0
 40
0.4793010556
 40
0.6064973343
 40
0.7359017426
 40
1.0
 40
1.0
 40
1.0
 40
1.0
 10
11.4820092609
 20
28.6211820006
 30
0.0
 10
11.5934515902
 20
28.5654790468
 30
0.0
 10
11.7188567718
 20
28.461672037
 30
0.0
 10
11.8407469164
 20
28.3144926948
 30
0.0
 10
11.9192744901
 20
28.2040643434
 30
0.0
 10
11.9696481044
 20
28.1146044432
 30
0.0
 10
11.9994792466
 20
28.0527757891
 30
0.0
 11
11.4820092609
 21
28.6211820006
 31
0.0
 11
11.7760798591
 21
28.3904822179
 31
0.0
 11
11.8394466442
 21
28.3141727564
 31
0.0
 11
11.8979908729
 21
28.2319802132
 31
0.0
 11
11.9994792466
 21
28.0527757891
 31
0.0
  0
SPLINE
  5
47C
100
AcDbEntity
  8
RACCORDO
100
AcDbSpline
 62
7
  6
CONTINUOUS
 70
0
 71
3
 72
9
 73
5
 74
3
 42
0.0000001
 43
0.0000001
 44
0.0000000001
 12
0.0791608445
 22
-0.0395890864
 32
0.0
 13
0.0443941078
 23
-0.0765695648
 33
0.0
 40
0.0
 40
0.0
 40
0.0
 40
0.0
 40
0.5021590845
 40
1.0
 40
1.0
 40
1.0
 40
1.0
 10
16.8160743983
 20
25.9541494633
 30
0.0
 10
16.829324844
 20
25.9475227902
 30
0.0
 10
16.8540625121
 20
25.9305540237
 30
0.0
 10
16.8724866922
 20
25.9068943873
 30
0.0
 10
16.87985376
 20
25.8941878999
 30
0.0
 11
16.8160743983
 21
25.9541494633
 31
0.0
 11
16.8525773007
 21
25.9287935549
 31
0.0
 11
16.87985376
 21
25.8941878999
 31
0.0
  0
SPLINE
  5
47D
100
AcDbEntity
  8
0
100
AcDbSpline
 62
7
  6
CONTINUOUS
 70
0
 71
3
 72
14
 73
10
 74
8
 42
0.0000001
 43
0.0000001
 44
0.0000000001
 12
0.3280943293
 22
0.1563897376
 32
0.0
 13
0.3251464036
 23
-0.162429847
 33
0.0
 40
0.0
 40
0.0
 40
0.0
 40
0.0
 40
0.1771108829
 40
0.3397033745
 40
0.4869466466
 40
0.6184628245
 40
0.7344154625
 40
0.8355978346
 40
1.0
 40
1.0
 40
1.0
 40
1.0
 10
15.622848319
 20
26.3109627741
 30
0.0
 10
15.6422180111
 20
26.320195549
 30
0.0
 10
15.6797656498
 20
26.3370956864
 30
0.0
 10
15.7347955464
 20
26.3584425273
 30
0.0
 10
15.7858091557
 20
26.3746231198
 30
0.0
 10
15.8323998414
 20
26.3855836021
 30
0.0
 10
15.8743743006
 20
26.3913280942
 30
0.0
 10
15.9205458937
 20
26.3921310283
 30
0.0
 10
15.9531708847
 20
26.3855933327
 30
0.0
 10
15.9709891424
 20
26.3766920598
 30
0.0
 11
15.622848319
 21
26.3109627741
 31
0.0
 11
15.6815993303
 21
26.3372720995
 31
0.0
 11
15.7367498514
 21
26.3585030645
 31
0.0
 11
15.7878176953
 21
26.3745080321
 31
0.0
 11
15.8344014359
 21
26.385226538
 31
0.0
 11
15.8761911258
 21
26.3906815475
 31
0.0
 11
15.9129658206
 21
26.3909679416
 31
0.0
 11
15.9709891424
 21
26.3766920598
 31
0.0
  0
SPLINE
  5
47E
100
AcDbEntity
  8
RACCORDO
100
AcDbSpline
 62
7
  6
CONTINUOUS
 70
0
 71
3
 72
14
 73
10
 74
8
 42
0.0000001
 43
0.0000001
 44
0.0000000001
 12
0.0000089474
 22
-0.1249350135
 32
0.0
 13
-0.1111854209
 23
-0.0569785911
 33
0.0
 40
0.0
 40
0.0
 40
0.0
 40
0.0
 40
0.0819502751
 40
0.1721976201
 40
0.2741154028
 40
0.3897757245
 40
0.5202143261
 40
0.6657011406
 40
1.0
 40
1.0
 40
1.0
 40
1.0
 10
19.1557852235
 20
21.3497766426
 30
0.0
 10
19.1557854679
 20
21.346363823
 30
0.0
 10
19.1547546072
 20
21.3391702032
 30
0.0
 10
19.1504613196
 20
21.3285051987
 30
0.0
 10
19.1434834296
 20
21.3176787823
 30
0.0
 10
19.1338916224
 20
21.3067600723
 30
0.0
 10
19.1217591454
 20
21.2958188775
 30
0.0
 10
19.101360602
 20
21.2806188903
 30
0.0
 10
19.0839769267
 20
21.2706093951
 30
0.0
 10
19.0715872069
 20
21.2642601024
 30
0.0
 11
19.1557852235
 21
21.3497766426
 31
0.0
 11
19.154426912
 21
21.3396286857
 31
0.0
 11
19.150347169
 21
21.329117619
 31
0.0
 11
19.1435613566
 21
21.3183433638
 31
0.0
 11
19.1341129423
 21
21.3074103561
 31
0.0
 11
19.1220746183
 21
21.296426289
 31
0.0
 11
19.1075484884
 21
21.2855004955
 31
0.0
 11
19.0715872069
 21
21.2642601024
 31
0.0
  0
SPLINE
  5
47F
100
AcDbEntity
  8
RACCORDO
100
AcDbSpline
 62
253
  6
CONTINUOUS
 70
0
 71
3
 72
19
 73
15
 74
13
 42
0.0000001
 43
0.0000001
 44
0.0000000001
 12
0.3420937617
 22
0.1700860762
 32
0.0
 13
0.1916424317
 23
-0.3305005197
 33
0.0
 40
0.0
 40
0.0
 40
0.0
 40
0.0
 40
0.2169654406
 40
0.4110536596
 40
0.5799412176
 40
0.7216490772
 40
0.7818118702
 40
0.834639353
 40
0.8800289866
 40
0.917937938
 40
0.9484175031
 40
0.9609418656
 40
0.9717272116
 40
1.0
 40
1.0
 40
1.0
 40
1.0
 10
16.7900611428
 20
25.3073943147
 30
0.0
 10
16.814801984
 20
25.3196952481
 30
0.0
 10
16.8618356347
 20
25.3426794564
 30
0.0
 10
16.9287497911
 20
25.3739475938
 30
0.0
 10
16.9875724119
 20
25.3998565329
 30
0.0
 10
17.0313386139
 20
25.4176057944
 30
0.0
 10
17.0618091632
 20
25.4287319091
 30
0.0
 10
17.0809524724
 20
25.4350973373
 30
0.0
 10
17.0975992879
 20
25.4399439993
 30
0.0
 10
17.1117232712
 20
25.4432559403
 30
0.0
 10
17.1218944445
 20
25.4448593707
 30
0.0
 10
17.1287867562
 20
25.4452340561
 30
0.0
 10
17.1351908763
 20
25.4450753562
 30
0.0
 10
17.1410982749
 20
25.4436074186
 30
0.0
 10
17.1429043635
 20
25.4404926948
 30
0.0
 11
16.7900611428
 21
25.3073943147
 31
0.0
 11
16.8645630936
 21
25.3437296835
 31
0.0
 11
16.9317791534
 21
25.3750386551
 31
0.0
 11
16.9908772854
 21
25.4009337356
 31
0.0
 11
17.0411226621
 21
25.4210928558
 31
0.0
 11
17.0627262966
 21
25.4289404568
 31
0.0
 11
17.0818918339
 21
25.4352659454
 31
0.0
 11
17.0985597668
 21
25.4400496914
 31
0.0
 11
17.1126784988
 21
25.443276942
 31
0.0
 11
17.1242040064
 21
25.4449375684
 31
0.0
 11
17.1289827864
 21
25.4451785905
 31
0.0
 11
17.1331004483
 21
25.4450263897
 31
0.0
 11
17.1429043635
 21
25.4404926948
 31
0.0
  0
SPLINE
  5
480
100
AcDbEntity
  8
RACCORDO
100
AcDbSpline
 62
7
  6
CONTINUOUS
 70
0
 71
3
 72
15
 73
11
 74
9
 42
0.0000001
 43
0.0000001
 44
0.0000000001
 12
0.3458981339
 22
0.1680197029
 32
0.0
 13
0.343933937
 23
-0.1720046122
 33
0.0
 40
0.0
 40
0.0
 40
0.0
 40
0.0
 40
0.1656880137
 40
0.3196247913
 40
0.4613593401
 40
0.5907886441
 40
0.7082363666
 40
0.8145306636
 40
0.9110918568
 40
1.0
 40
1.0
 40
1.0
 40
1.0
 10
16.4471635668
 20
25.8988051502
 30
0.0
 10
16.4662672917
 20
25.9080847672
 30
0.0
 10
16.5036153528
 20
25.9249963158
 30
0.0
 10
16.5589765432
 20
25.945918599
 30
0.0
 10
16.6112908075
 20
25.9613715903
 30
0.0
 10
16.6601854415
 20
25.9712777584
 30
0.0
 10
16.7053445555
 20
25.9756153717
 30
0.0
 10
16.746515441
 20
25.9743959532
 30
0.0
 10
16.7834627571
 20
25.9676652039
 30
0.0
 10
16.8058815557
 20
25.9592470002
 30
0.0
 10
16.8160743983
 20
25.9541494633
 30
0.0
 11
16.4471635668
 21
25.8988051502
 31
0.0
 11
16.5052587006
 21
25.9249686325
 31
0.0
 11
16.5606865985
 21
25.9457508299
 31
0.0
 11
16.6130092694
 21
25.9610143453
 31
0.0
 11
16.6618319624
 21
25.9706868614
 31
0.0
 11
16.7068120082
 21
25.9747604523
 31
0.0
 11
16.7476605259
 21
25.9732860535
 31
0.0
 11
16.784142407
 21
25.9663665919
 31
0.0
 11
16.8160743983
 21
25.9541494633
 31
0.0
  0
SPLINE
  5
481
100
AcDbEntity
  8
RACCORDO
100
AcDbSpline
 62
253
  6
CONTINUOUS
 70
0
 71
3
 72
11
 73
7
 74
5
 42
0.0000001
 43
0.0000001
 44
0.0000000001
 12
0.004359318
 22
1.5061458984
 32
0.0
 13
-0.75913754
 23
1.3008476723
 33
0.0
 40
0.0
 40
0.0
 40
0.0
 40
0.0
 40
0.2342472426
 40
0.482518626
 40
0.7397297627
 40
1.0
 40
1.0
 40
1.0
 40
1.0
 10
17.2042116184
 20
23.87576074
 30
0.0
 10
17.2045520045
 20
23.9933642479
 30
0.0
 10
17.1850954715
 20
24.2359209036
 30
0.0
 10
17.1040623597
 20
24.5993887488
 30
0.0
 10
16.9733053561
 20
24.9619277986
 30
0.0
 10
16.8559214453
 20
25.1945370039
 30
0.0
 10
16.7900611428
 20
25.3073943147
 30
0.0
 11
17.2042116184
 21
23.87576074
 31
0.0
 11
17.1777891492
 21
24.2275819468
 31
0.0
 11
17.097577455
 21
24.5928121323
 31
0.0
 11
16.9666580472
 21
24.9574190272
 31
0.0
 11
16.7900611428
 21
25.3073943147
 31
0.0
  0
SPLINE
  5
482
100
AcDbEntity
  8
RACCORDO
100
AcDbSpline
 62
253
  6
CONTINUOUS
 70
0
 71
3
 72
15
 73
11
 74
9
 42
0.0000001
 43
0.0000001
 44
0.0000000001
 12
0.4162545525
 22
0.2155221038
 32
0.0
 13
0.0000009982
 23
0.4687404716
 33
0.0
 40
0.0
 40
0.0
 40
0.0
 40
0.0
 40
0.1553722745
 40
0.3009898018
 40
0.4368322816
 40
0.5632656902
 40
0.6811336836
 40
0.791823243
 40
0.8972921894
 40
1.0
 40
1.0
 40
1.0
 40
1.0
 10
17.2042116184
 20
23.87576074
 30
0.0
 10
17.2257697573
 20
23.8869227932
 30
0.0
 10
17.2667395027
 20
23.9101411524
 30
0.0
 10
17.3230021567
 20
23.9489531989
 30
0.0
 10
17.3716420321
 20
23.9903282476
 30
0.0
 10
17.4122073026
 20
24.0339264776
 30
0.0
 10
17.4443031918
 20
24.079398009
 30
0.0
 10
17.4675725729
 20
24.1263810379
 30
0.0
 10
17.4816976921
 20
24.1744316831
 30
0.0
 10
17.4848716778
 20
24.2070404615
 30
0.0
 10
17.484871712
 20
24.2230882307
 30
0.0
 11
17.2042116184
 21
23.87576074
 31
0.0
 11
17.2674802108
 21
23.9118327273
 31
0.0
 11
17.3235416511
 21
23.9507699785
 31
0.0
 11
17.3718820088
 21
23.9922151065
 31
0.0
 11
17.4120549536
 21
24.0357858559
 31
0.0
 11
17.4436909306
 21
24.0810812429
 31
0.0
 11
17.4664985133
 21
24.1276841806
 31
0.0
 11
17.4802676777
 21
24.175165575
 31
0.0
 11
17.484871712
 21
24.2230882307
 31
0.0
  0
SPLINE
  5
483
100
AcDbEntity
  8
RACCORDO
100
AcDbSpline
 62
253
  6
CONTINUOUS
 70
0
 71
3
 72
9
 73
5
 74
3
 42
0.0000001
 43
0.0000001
 44
0.0000000001
 12
0.0551628919
 22
0.267327999
 32
0.0
 13
0.000035549
 23
0.2729600748
 33
0.0
 40
0.0
 40
0.0
 40
0.0
 40
0.0
 40
0.4964367752
 40
1.0
 40
1.0
 40
1.0
 40
1.0
 10
17.4587374563
 20
21.3052015335
 30
0.0
 10
17.4678657524
 20
21.3494386835
 30
0.0
 10
17.480850457
 20
21.4397075884
 30
0.0
 10
17.4848659946
 20
21.5307426325
 30
0.0
 10
17.4848719616
 20
21.5765601843
 30
0.0
 11
17.4587374563
 21
21.3052015335
 31
0.0
 11
17.4785474757
 21
21.4392531062
 31
0.0
 11
17.4848719616
 21
21.5765601843
 31
0.0
  0
SPLINE
  5
484
100
AcDbEntity
  8
RACCORDO
100
AcDbSpline
 62
253
  6
CONTINUOUS
 70
0
 71
3
 72
11
 73
7
 74
5
 42
0.0000001
 43
0.0000001
 44
0.0000000001
 12
0.3518239458
 22
0.5813716426
 32
0.0
 13
0.1373282516
 23
0.6655178637
 33
0.0
 40
0.0
 40
0.0
 40
0.0
 40
0.0
 40
0.2561740929
 40
0.5093329034
 40
0.7579914269
 40
1.0
 40
1.0
 40
1.0
 40
1.0
 10
17.2042116184
 20
20.6783158384
 30
0.0
 10
17.2342543452
 20
20.7279599561
 30
0.0
 10
17.2902412075
 20
20.8289865355
 30
0.0
 10
17.3617296287
 20
20.9852804432
 30
0.0
 10
17.4192472305
 20
21.1438419177
 30
0.0
 10
17.4476592516
 20
21.251514524
 30
0.0
 10
17.4587374563
 20
21.3052015335
 30
0.0
 11
17.2042116184
 21
20.6783158384
 31
0.0
 11
17.2885615097
 21
20.8305952872
 31
0.0
 11
17.3599846701
 21
20.987099229
 31
0.0
 11
17.4173140232
 21
21.146049739
 31
0.0
 11
17.4587374563
 21
21.3052015335
 31
0.0
  0
SPLINE
  5
485
100
AcDbEntity
  8
RACCORDO
100
AcDbSpline
 62
253
  6
CONTINUOUS
 70
0
 71
3
 72
14
 73
10
 74
8
 42
0.0000001
 43
0.0000001
 44
0.0000000001
 12
2.0517438413
 22
-1.2175202418
 32
0.0
 13
1.011159534
 23
-2.1609175658
 33
0.0
 40
0.0
 40
0.0
 40
0.0
 40
0.0
 40
0.1117113174
 40
0.2284994038
 40
0.3498775663
 40
0.4752154167
 40
0.6037690012
 40
0.7347081072
 40
1.0
 40
1.0
 40
1.0
 40
1.0
 10
17.4848775916
 20
23.5264304376
 30
0.0
 10
17.5612785941
 20
23.4810935076
 30
0.0
 10
17.7130278181
 20
23.3805647271
 30
0.0
 10
17.9308230542
 20
23.206908463
 30
0.0
 10
18.1417534876
 20
23.0087906089
 30
0.0
 10
18.3434351839
 20
22.7884605398
 30
0.0
 10
18.5336406928
 20
22.5483626931
 30
0.0
 10
18.7700066477
 20
22.2041451357
 30
0.0
 10
18.9223012563
 20
21.9269179727
 30
0.0
 10
19.0117187319
 20
21.735826669
 30
0.0
 11
17.4848775916
 21
23.5264304376
 31
0.0
 11
17.7073830881
 21
23.37971896
 31
0.0
 11
17.9255478904
 21
23.2063983823
 31
0.0
 11
18.1368977112
 21
23.0084345797
 31
0.0
 11
18.33903557
 21
22.7880727687
 31
0.0
 11
18.5296688663
 21
22.5478120499
 31
0.0
 11
18.7066354906
 21
22.29037744
 31
0.0
 11
19.0117187319
 21
21.735826669
 31
0.0
  0
SPLINE
  5
486
100
AcDbEntity
  8
RACCORDO
100
AcDbSpline
 62
253
  6
CONTINUOUS
 70
0
 71
3
 72
15
 73
11
 74
9
 42
0.0000001
 43
0.0000001
 44
0.0000000001
 12
0.9801430066
 22
0.4900636375
 32
0.0
 13
1.0202931533
 23
-0.3998056574
 33
0.0
 40
0.0
 40
0.0
 40
0.0
 40
0.0
 40
0.1109318219
 40
0.2314291971
 40
0.3591584417
 40
0.4912948844
 40
0.6246941119
 40
0.7560625163
 40
0.882152807
 40
1.0
 40
1.0
 40
1.0
 40
1.0
 10
-4.0140841689
 20
26.4279862358
 30
0.0
 10
-3.9778411524
 20
26.4461074532
 30
0.0
 10
-3.8994012894
 20
26.4783685556
 30
0.0
 10
-3.7728965094
 20
26.5139758692
 30
0.0
 10
-3.635816248
 20
26.5379476701
 30
0.0
 10
-3.4924284707
 20
26.5494390727
 30
0.0
 10
-3.3472607459
 20
26.5479935214
 30
0.0
 10
-3.2050060249
 20
26.5335579381
 30
0.0
 10
-3.0703849092
 20
26.5065340499
 30
0.0
 10
-2.9851950964
 20
26.4795668303
 30
0.0
 10
-2.9451155351
 20
26.4638615055
 30
0.0
 11
-4.0140841689
 21
26.4279862358
 31
0.0
 11
-3.9019367975
 21
26.4748944436
 31
0.0
 11
-3.7749660051
 21
26.5111462601
 31
0.0
 11
-3.6371399219
 21
26.5355477124
 31
0.0
 11
-3.4928138326
 21
26.5472413265
 31
0.0
 11
-3.3466386218
 21
26.5457485962
 31
0.0
 11
-3.2034374774
 21
26.5310121045
 31
0.0
 11
-3.0680452816
 21
26.5034283305
 31
0.0
 11
-2.9451155351
 21
26.4638615055
 31
0.0
  0
SPLINE
  5
487
100
AcDbEntity
  8
RACCORDO
100
AcDbSpline
 62
253
  6
CONTINUOUS
 70
0
 71
3
 72
13
 73
9
 74
7
 42
0.0000001
 43
0.0000001
 44
0.0000000001
 12
-0.4029948776
 22
0.2015008824
 32
0.0
 13
-0.406411618
 23
-0.1945175409
 33
0.0
 40
0.0
 40
0.0
 40
0.0
 40
0.0
 40
0.1134934582
 40
0.2282840571
 40
0.3455908825
 40
0.466489968
 40
0.7220461039
 40
1.0
 40
1.0
 40
1.0
 40
1.0
 10
10.3555722797
 20
29.1844005253
 30
0.0
 10
10.3403265189
 20
29.192023536
 30
0.0
 10
10.308568516
 20
29.2052728789
 30
0.0
 10
10.2582677736
 20
29.2186502814
 30
0.0
 10
10.2055476848
 20
29.2255030727
 30
0.0
 10
10.1312269547
 20
29.2259078114
 30
0.0
 10
10.0335683872
 20
29.2090314263
 30
0.0
 10
9.9583539787
 20
29.1800595292
 30
0.0
 10
9.9206994145
 20
29.1620372264
 30
0.0
 11
10.3555722797
 21
29.1844005253
 31
0.0
 11
10.3083859465
 21
29.2041069094
 31
0.0
 11
10.2584182613
 21
29.2174574119
 31
0.0
 11
10.2060166486
 21
29.2243592099
 31
0.0
 11
10.1515454386
 21
29.2247643092
 31
0.0
 11
10.0379209226
 21
29.2061183388
 31
0.0
 11
9.9206994145
 21
29.1620372264
 31
0.0
  0
LINE
  5
488
100
AcDbEntity
  8
RACCORDO
100
AcDbLine
 62
253
  6
CONTINUOUS
 10
19.0715872069
 20
18.8627903139
 11
18.5250452263
 21
18.516872868
  0
SPLINE
  5
489
100
AcDbEntity
  8
RACCORDO
100
AcDbSpline
 62
253
  6
CONTINUOUS
 70
0
 71
3
 72
11
 73
7
 74
5
 42
0.0000001
 43
0.0000001
 44
0.0000000001
 12
0.0829653579
 22
0.0414856941
 32
0.0
 13
0.082966564
 23
-0.041483282
 33
0.0
 40
0.0
 40
0.0
 40
0.0
 40
0.0
 40
0.2271109519
 40
0.4646760174
 40
0.7207663845
 40
1.0
 40
1.0
 40
1.0
 40
1.0
 10
-4.1035268542
 20
26.4336665258
 30
0.0
 10
-4.0972460737
 20
26.4368071443
 30
0.0
 10
-4.0834047644
 20
26.4414129288
 30
0.0
 10
-4.0609165943
 20
26.44253739
 30
0.0
 10
-4.037248957
 20
26.438091127
 30
0.0
 10
-4.0218065201
 20
26.4318474114
 30
0.0
 10
-4.0140841689
 20
26.4279862358
 30
0.0
 11
-4.1035268542
 21
26.4336665258
 31
0.0
 11
-4.0835592784
 21
26.4403822615
 31
0.0
 11
-4.0615606774
 21
26.4416724445
 31
0.0
 11
-4.0381751594
 21
26.4375001542
 31
0.0
 11
-4.0140841689
 21
26.4279862358
 31
0.0
  0
SPLINE
  5
48A
100
AcDbEntity
  8
RACCORDO
100
AcDbSpline
 62
7
  6
CONTINUOUS
 70
0
 71
3
 72
11
 73
7
 74
5
 42
0.0000001
 43
0.0000001
 44
0.0000000001
 12
0.0789043412
 22
0.0394542114
 32
0.0
 13
0.0789051575
 23
-0.0394525788
 33
0.0
 40
0.0
 40
0.0
 40
0.0
 40
0.0
 40
0.21439309
 40
0.4477462014
 40
0.7084790342
 40
1.0
 40
1.0
 40
1.0
 40
1.0
 10
-4.1650837903
 20
26.4028881344
 30
0.0
 10
-4.1594449418
 20
26.4057077045
 30
0.0
 10
-4.1466368116
 20
26.4096711128
 30
0.0
 10
-4.1255905502
 20
26.4099858515
 30
0.0
 10
-4.1028576818
 20
26.4050713332
 30
0.0
 10
-4.0877881879
 20
26.3988017288
 30
0.0
 10
-4.0801206853
 20
26.3949679776
 30
0.0
 11
-4.1650837903
 21
26.4028881344
 31
0.0
 11
-4.147066206
 21
26.4086401728
 31
0.0
 11
-4.1264887135
 21
26.4092352813
 31
0.0
 11
-4.1039516316
 21
26.4046364937
 31
0.0
 11
-4.0801206853
 21
26.3949679776
 31
0.0
  0
SPLINE
  5
48B
100
AcDbEntity
  8
0
100
AcDbSpline
 62
7
  6
CONTINUOUS
 70
0
 71
3
 72
15
 73
11
 74
9
 42
0.0000001
 43
0.0000001
 44
0.0000000001
 12
-1.1616395551
 22
-0.5801368803
 32
0.0
 13
0.0000196704
 23
-1.2984472479
 33
0.0
 40
0.0
 40
0.0
 40
0.0
 40
0.0
 40
0.1561642573
 40
0.3023479847
 40
0.4385028439
 40
0.5649877802
 40
0.6826570332
 40
0.7929382134
 40
0.8978639592
 40
1.0
 40
1.0
 40
1.0
 40
1.0
 10
7.7823781517
 20
25.9374089082
 30
0.0
 10
7.7219092922
 20
25.9072100265
 30
0.0
 10
7.6069740025
 20
25.844279812
 30
0.0
 10
7.4489672028
 20
25.7386497871
 30
0.0
 10
7.3122995697
 20
25.6257081793
 30
0.0
 10
7.1982635768
 20
25.5064008855
 30
0.0
 10
7.107991118
 20
25.381695915
 30
0.0
 10
7.0425096644
 20
25.2525956518
 30
0.0
 10
7.0027456403
 20
25.1203402474
 30
0.0
 10
6.9938162552
 20
25.0304847655
 30
0.0
 10
6.9938169249
 20
24.9862786785
 30
0.0
 11
7.7823781517
 21
25.9374089082
 31
0.0
 11
7.6047778441
 21
25.8395609162
 31
0.0
 11
7.4473242065
 21
25.7335567011
 31
0.0
 11
7.3114981616
 21
25.6203933012
 31
0.0
 11
7.1985791521
 21
25.5011368137
 31
0.0
 11
7.1096311884
 21
25.3769103101
 31
0.0
 11
7.0454918164
 21
25.2488839571
 31
0.0
 11
7.0067655005
 21
25.1182632895
 31
0.0
 11
6.9938169249
 21
24.9862786785
 31
0.0
  0
LINE
  5
48C
100
AcDbEntity
  8
0
100
AcDbLine
 62
7
  6
CONTINUOUS
 10
7.7843622517
 20
25.938401978
 11
7.7823781517
 21
25.9374089082
  0
SPLINE
  5
48D
100
AcDbEntity
  8
RACCORDO
100
AcDbSpline
 62
7
  6
CONTINUOUS
 70
0
 71
3
 72
11
 73
7
 74
5
 42
0.0000001
 43
0.0000001
 44
0.0000000001
 12
-0.0738604135
 22
0.0232469909
 32
0.0
 13
-0.0674365298
 23
-0.0380538791
 33
0.0
 40
0.0
 40
0.0
 40
0.0
 40
0.0
 40
0.2251874253
 40
0.4631287959
 40
0.7201906943
 40
1.0
 40
1.0
 40
1.0
 40
1.0
 10
-2.8707062247
 20
26.4761170109
 30
0.0
 10
-2.8762503702
 20
26.4778619876
 30
0.0
 10
-2.8881670825
 20
26.4799622789
 30
0.0
 10
-2.9068626745
 20
26.478755657
 30
0.0
 10
-2.9262496652
 20
26.4733889849
 30
0.0
 10
-2.9388255995
 20
26.467410709
 30
0.0
 10
-2.9451153891
 20
26.4638614325
 30
0.0
 11
-2.8707062247
 21
26.4761170109
 31
0.0
 11
-2.8878639142
 21
26.4792244414
 31
0.0
 11
-2.9062590706
 21
26.4781871085
 31
0.0
 11
-2.9254839196
 21
26.4730284794
 31
0.0
 11
-2.9451153891
 21
26.4638614325
 31
0.0
  0
SPLINE
  5
48E
100
AcDbEntity
  8
RACCORDO
100
AcDbSpline
 62
253
  6
CONTINUOUS
 70
0
 71
3
 72
15
 73
11
 74
9
 42
0.0000001
 43
0.0000001
 44
0.0000000001
 12
0.7545663129
 22
-2.1616155713
 32
0.0
 13
-1.0820456139
 23
-2.017704014
 33
0.0
 40
0.0
 40
0.0
 40
0.0
 40
0.0
 40
0.1428199638
 40
0.2822220119
 40
0.4171188376
 40
0.5465804561
 40
0.6698852226
 40
0.7865764752
 40
0.8965257314
 40
1.0
 40
1.0
 40
1.0
 40
1.0
 10
19.0679496148
 20
21.2623099147
 30
0.0
 10
19.1038719926
 20
21.1594026288
 30
0.0
 10
19.1673325993
 20
20.9533208216
 30
0.0
 10
19.2371384628
 20
20.6424006991
 30
0.0
 10
19.2797162799
 20
20.3368348305
 30
0.0
 10
19.2944415484
 20
20.0409225659
 30
0.0
 10
19.2810779702
 20
19.7587918829
 30
0.0
 10
19.2397317963
 20
19.494343132
 30
0.0
 10
19.1709040011
 20
19.2513226224
 30
0.0
 10
19.1052709076
 20
19.1014967657
 30
0.0
 10
19.0679496148
 20
19.0319032833
 30
0.0
 11
19.0679496148
 21
21.2623099147
 31
0.0
 11
19.163944765
 21
20.949727331
 31
0.0
 11
19.2335071152
 21
20.6382348353
 31
0.0
 11
19.275645238
 21
20.3322724393
 31
0.0
 11
19.2897583481
 21
20.0362022323
 31
0.0
 11
19.275645238
 21
19.7542451355
 31
0.0
 11
19.2335071152
 21
19.4904208622
 31
0.0
 11
19.163944765
 21
19.2484907167
 31
0.0
 11
19.0679496148
 21
19.0319032833
 31
0.0
  0
SPLINE
  5
48F
100
AcDbEntity
  8
RACCORDO
100
AcDbSpline
 62
253
  6
CONTINUOUS
 70
0
 71
3
 72
12
 73
8
 74
6
 42
0.0000001
 43
0.0000001
 44
0.0000000001
 12
-0.1509887071
 22
0.086284398
 32
0.0
 13
-0.0351145078
 23
0.1703219257
 33
0.0
 40
0.0
 40
0.0
 40
0.0
 40
0.0
 40
0.2995454897
 40
0.4376656587
 40
0.5672182521
 40
0.7996841846
 40
1.0
 40
1.0
 40
1.0
 40
1.0
 10
17.5730416537
 20
21.1800661256
 30
0.0
 10
17.5579656583
 20
21.188681493
 30
0.0
 10
17.5366262818
 20
21.202601088
 30
0.0
 10
17.5113251273
 20
21.2236530599
 30
0.0
 10
17.4906991192
 20
21.2440665285
 30
0.0
 10
17.470774857
 20
21.2701763638
 30
0.0
 10
17.4610822686
 20
21.2938287911
 30
0.0
 10
17.4587376049
 20
21.3052015162
 30
0.0
 11
17.5730416537
 21
21.1800661256
 31
0.0
 11
17.529606757
 21
21.2088237591
 31
0.0
 11
17.5111827974
 21
21.2242348272
 31
0.0
 11
17.4952126518
 21
21.2401264046
 31
0.0
 11
17.4712634247
 21
21.2726956588
 31
0.0
 11
17.4587376049
 21
21.3052015162
 31
0.0
  0
LINE
  5
490
100
AcDbEntity
  8
RACCORDO
100
AcDbLine
 62
253
  6
CONTINUOUS
 10
19.0117186226
 20
18.6442125028
 11
18.6277293804
 21
18.3996233716
  0
SPLINE
  5
491
100
AcDbEntity
  8
RACCORDO
100
AcDbSpline
 62
253
  6
CONTINUOUS
 70
0
 71
3
 72
9
 73
5
 74
3
 42
0.0000001
 43
0.0000001
 44
0.0000000001
 12
-0.2245690163
 22
-0.2553503866
 32
0.0
 13
-0.2875256603
 23
-0.1815600663
 33
0.0
 40
0.0
 40
0.0
 40
0.0
 40
0.0
 40
0.5054782557
 40
1.0
 40
1.0
 40
1.0
 40
1.0
 10
19.0117186226
 20
18.6442125028
 30
0.0
 10
18.9738803711
 20
18.6011878135
 30
0.0
 10
18.8932000581
 20
18.5209817506
 30
0.0
 10
18.8017747193
 20
18.4531950354
 30
0.0
 10
18.7543788223
 20
18.4232665685
 30
0.0
 11
19.0117186226
 21
18.6442125028
 31
0.0
 11
18.8895706404
 21
18.523276218
 31
0.0
 11
18.7543788223
 21
18.4232665685
 31
0.0
  0
SPLINE
  5
492
100
AcDbEntity
  8
RACCORDO
100
AcDbSpline
 62
253
  6
CONTINUOUS
 70
0
 71
3
 72
12
 73
8
 74
6
 42
0.0000001
 43
0.0000001
 44
0.0000000001
 12
0.2640316196
 22
0.9248100881
 32
0.0
 13
-0.4170355563
 23
0.8666416445
 33
0.0
 40
0.0
 40
0.0
 40
0.0
 40
0.0
 40
0.120674052
 40
0.2431439769
 40
0.4917294927
 40
0.744127589
 40
1.0
 40
1.0
 40
1.0
 40
1.0
 10
17.573041463
 20
21.1800643123
 30
0.0
 10
17.5836620515
 20
21.2172645059
 30
0.0
 10
17.6010138333
 20
21.2934279003
 30
0.0
 10
17.621127559
 20
21.4499579145
 30
0.0
 10
17.619865555
 20
21.6509368326
 30
0.0
 10
17.5772536102
 20
21.8909030701
 30
0.0
 10
17.5204992033
 20
22.0448323264
 30
0.0
 10
17.4849299056
 20
22.1187488888
 30
0.0
 11
17.573041463
 21
21.1800643123
 31
0.0
 11
17.5990613702
 21
21.2931696885
 31
0.0
 11
17.6142336657
 21
21.4099753549
 31
0.0
 11
17.6131783695
 21
21.6490531611
 31
0.0
 11
17.5705105251
 21
21.8880207896
 31
0.0
 11
17.4849299056
 21
22.1187488888
 31
0.0
  0
SPLINE
  5
493
100
AcDbEntity
  8
RACCORDO
100
AcDbSpline
 62
7
  6
CONTINUOUS
 70
0
 71
3
 72
10
 73
6
 74
4
 42
0.0000001
 43
0.0000001
 44
0.0000000001
 12
0.08518834
 22
0.0445591007
 32
0.0
 13
0.0457515924
 23
0.0845538794
 33
0.0
 40
0.0
 40
0.0
 40
0.0
 40
0.0
 40
0.5245740276
 40
0.7673422648
 40
1.0
 40
1.0
 40
1.0
 40
1.0
 10
19.0715872069
 20
19.0337199324
 30
0.0
 10
19.0864830704
 20
19.0415114481
 30
0.0
 10
19.1071901549
 20
19.0555085611
 30
0.0
 10
19.1290593832
 20
19.0790730247
 30
0.0
 10
19.1375180147
 20
19.0918524505
 30
0.0
 10
19.1410661687
 20
19.0984098218
 30
0.0
 11
19.0715872069
 21
19.0337199324
 31
0.0
 11
19.1129600732
 21
19.0625580345
 31
0.0
 11
19.128775018
 21
19.079722279
 31
0.0
 11
19.1410661687
 21
19.0984098218
 31
0.0
  0
SPLINE
  5
494
100
AcDbEntity
  8
RACCORDO
100
AcDbSpline
 62
253
  6
CONTINUOUS
 70
0
 71
3
 72
11
 73
7
 74
5
 42
0.0000001
 43
0.0000001
 44
0.0000000001
 12
0.0106092955
 22
-0.231351798
 32
0.0
 13
-0.1504204194
 23
-0.176096306
 33
0.0
 40
0.0
 40
0.0
 40
0.0
 40
0.0
 40
0.2826619634
 40
0.5425627753
 40
0.7804787281
 40
1.0
 40
1.0
 40
1.0
 40
1.0
 10
19.0715872069
 20
18.8627903139
 30
0.0
 10
19.0725868216
 20
18.8409921961
 30
0.0
 10
19.0718584717
 20
18.7989514931
 30
0.0
 10
19.0615333586
 20
18.7393068772
 30
0.0
 10
19.0421705517
 20
18.6870530277
 30
0.0
 10
19.0227255835
 20
18.6570979868
 30
0.0
 10
19.0117187562
 20
18.6442123585
 30
0.0
 11
19.0715872069
 21
18.8627903139
 31
0.0
 11
19.0700774695
 21
18.7973446477
 31
0.0
 11
19.0593749725
 21
18.7381120675
 31
0.0
 11
19.0397540684
 21
18.6866237749
 31
0.0
 11
19.0117187562
 21
18.6442123585
 31
0.0
  0
SPLINE
  5
495
100
AcDbEntity
  8
RACCORDO
100
AcDbSpline
 62
253
  6
CONTINUOUS
 70
0
 71
3
 72
9
 73
5
 74
3
 42
0.0000001
 43
0.0000001
 44
0.0000000001
 12
0.1226776604
 22
-0.2830030354
 32
0.0
 13
-0.0134905382
 23
-0.3081534225
 33
0.0
 40
0.0
 40
0.0
 40
0.0
 40
0.0
 40
0.5153566805
 40
1.0
 40
1.0
 40
1.0
 40
1.0
 10
19.0117188102
 20
21.7358267011
 30
0.0
 10
19.0327930608
 20
21.6872108662
 30
0.0
 10
19.0642220689
 20
21.5884776303
 30
0.0
 10
19.0737665733
 20
21.4849710606
 30
0.0
 10
19.0715872069
 20
21.4351895614
 30
0.0
 11
19.0117188102
 21
21.7358267011
 31
0.0
 11
19.0593749992
 21
21.5841774391
 31
0.0
 11
19.0715872069
 21
21.4351895614
 31
0.0
  0
SPLINE
  5
496
100
AcDbEntity
  8
RACCORDO
100
AcDbSpline
 62
253
  6
CONTINUOUS
 70
0
 71
3
 72
11
 73
7
 74
5
 42
0.0000001
 43
0.0000001
 44
0.0000000001
 12
0.4333479775
 22
0.4499808141
 32
0.0
 13
0.2850887391
 23
0.5558755378
 33
0.0
 40
0.0
 40
0.0
 40
0.0
 40
0.0
 40
0.2612074294
 40
0.5159461504
 40
0.7628687649
 40
1.0
 40
1.0
 40
1.0
 40
1.0
 10
17.2042116184
 20
20.6783158384
 30
0.0
 10
17.2419428555
 20
20.7174952823
 30
0.0
 10
17.3140804968
 20
20.7972303294
 30
0.0
 10
17.4129261617
 20
20.9217387462
 30
0.0
 10
17.5000783706
 20
21.0486696017
 30
0.0
 10
17.55050636
 20
21.1361255936
 30
0.0
 10
17.5730408416
 20
21.1800640778
 30
0.0
 11
17.2042116184
 21
20.6783158384
 31
0.0
 11
17.3136300864
 21
20.7993764618
 31
0.0
 11
17.4124377176
 21
20.9241265675
 31
0.0
 11
17.4994967923
 21
21.0514685407
 31
0.0
 11
17.5730408416
 21
21.1800640778
 31
0.0
  0
SPLINE
  5
497
100
AcDbEntity
  8
RACCORDO
100
AcDbSpline
 62
253
  6
CONTINUOUS
 70
0
 71
3
 72
13
 73
9
 74
7
 42
0.0000001
 43
0.0000001
 44
0.0000000001
 12
-0.394267285
 22
0.2039860016
 32
0.0
 13
-0.4051035399
 23
-0.1815161227
 33
0.0
 40
0.0
 40
0.0
 40
0.0
 40
0.0
 40
0.2779575814
 40
0.5336147585
 40
0.6545598699
 40
0.7718827763
 40
0.8866322891
 40
1.0
 40
1.0
 40
1.0
 40
1.0
 10
9.9206994145
 20
29.1620372264
 30
0.0
 10
9.8841695542
 20
29.1809370449
 30
0.0
 10
9.8110125371
 20
29.211837204
 30
0.0
 10
9.7154269391
 20
29.2317790915
 30
0.0
 10
9.6422190195
 20
29.2340865554
 30
0.0
 10
9.5900561238
 20
29.2293442001
 30
0.0
 10
9.5400331698
 20
29.2181743303
 30
0.0
 10
9.508251959
 20
29.2064478959
 30
0.0
 10
9.4929434053
 20
29.1995885401
 30
0.0
 11
9.9206994145
 21
29.1620372264
 31
0.0
 11
9.8066617966
 21
29.2091554417
 31
0.0
 11
9.6953754551
 21
29.2314065357
 31
0.0
 11
9.6417100026
 21
29.2329919494
 31
0.0
 11
9.5898510539
 21
29.2281885501
 31
0.0
 11
9.5401499492
 21
29.2170288785
 31
0.0
 11
9.4929434053
 21
29.1995885401
 31
0.0
  0
SPLINE
  5
498
100
AcDbEntity
  8
RACCORDO
100
AcDbSpline
 62
253
  6
CONTINUOUS
 70
0
 71
3
 72
9
 73
5
 74
3
 42
0.0000001
 43
0.0000001
 44
0.0000000001
 12
-0.2177712776
 22
0.1126705001
 32
0.0
 13
-0.2445917997
 23
0.0171412507
 33
0.0
 40
0.0
 40
0.0
 40
0.0
 40
0.0
 40
0.5216441079
 40
1.0
 40
1.0
 40
1.0
 40
1.0
 10
4.0023803472
 20
26.4287613548
 30
0.0
 10
3.9645139793
 20
26.4483526556
 30
0.0
 10
3.8886824941
 20
26.4801411024
 30
0.0
 10
3.8077198132
 20
26.4960556965
 30
0.0
 10
3.7687191704
 20
26.4987889026
 30
0.0
 11
4.0023803472
 21
26.4287613548
 31
0.0
 11
3.8840036215
 21
26.4771976926
 31
0.0
 11
3.7687191704
 21
26.4987889026
 31
0.0
  0
SPLINE
  5
499
100
AcDbEntity
  8
RACCORDO
100
AcDbSpline
 62
253
  6
CONTINUOUS
 70
0
 71
3
 72
12
 73
8
 74
6
 42
0.0000001
 43
0.0000001
 44
0.0000000001
 12
-0.0000086987
 22
-0.1404182904
 32
0.0
 13
-0.1246953408
 23
-0.0645629022
 33
0.0
 40
0.0
 40
0.0
 40
0.0
 40
0.0
 40
0.1028544657
 40
0.2084744779
 40
0.4366771576
 40
0.6988754356
 40
1.0
 40
1.0
 40
1.0
 40
1.0
 10
19.1557852566
 20
18.9669854726
 30
0.0
 10
19.1557849584
 20
18.9621712566
 30
0.0
 10
19.1548316243
 20
18.952388593
 30
0.0
 10
19.149041914
 20
18.9326780752
 30
0.0
 10
19.1340974673
 20
18.908520481
 30
0.0
 10
19.1067163134
 20
18.8831328779
 30
0.0
 10
19.0841034836
 20
18.8692708058
 30
0.0
 10
19.0715872069
 20
18.8627903139
 30
0.0
 11
19.1557852566
 21
18.9669854726
 31
0.0
 11
19.1544035172
 21
18.9526090724
 31
0.0
 11
19.1502723491
 21
18.9383650749
 31
0.0
 11
19.1339390039
 21
18.9107964534
 31
0.0
 11
19.1073856887
 21
18.8852926321
 31
0.0
 11
19.0715872069
 21
18.8627903139
 31
0.0
  0
SPLINE
  5
49A
100
AcDbEntity
  8
RACCORDO
100
AcDbSpline
 62
253
  6
CONTINUOUS
 70
0
 71
3
 72
9
 73
5
 74
3
 42
0.0000001
 43
0.0000001
 44
0.0000000001
 12
-0.0354614452
 22
-0.0403231889
 32
0.0
 13
-0.0457675496
 23
-0.0280856736
 33
0.0
 40
0.0
 40
0.0
 40
0.0
 40
0.0
 40
0.2488948988
 40
1.0
 40
1.0
 40
1.0
 40
1.0
 10
19.0527521052
 20
18.6786734053
 30
0.0
 10
19.0498100476
 20
18.6753279933
 30
0.0
 10
19.0374865329
 20
18.66233565
 30
0.0
 10
19.0231774084
 20
18.6512443116
 30
0.0
 10
19.0117186618
 20
18.6442125474
 30
0.0
 11
19.0527521052
 21
18.6786734053
 31
0.0
 11
19.0435525218
 21
18.6689783021
 31
0.0
 11
19.0117186618
 21
18.6442125474
 31
0.0
  0
SPLINE
  5
49B
100
AcDbEntity
  8
0
100
AcDbSpline
 62
7
  6
CONTINUOUS
 70
0
 71
3
 72
13
 73
9
 74
7
 42
0.0000001
 43
0.0000001
 44
0.0000000001
 12
0.4870656356
 22
0.2340793565
 32
0.0
 13
0.4833750126
 23
-0.2416085174
 33
0.0
 40
0.0
 40
0.0
 40
0.0
 40
0.0
 40
0.122764112
 40
0.2448181523
 40
0.3669396146
 40
0.4898651034
 40
0.7402199278
 40
1.0
 40
1.0
 40
1.0
 40
1.0
 10
10.9605346964
 20
28.6421195854
 30
0.0
 10
10.9804660899
 20
28.6516984335
 30
0.0
 10
11.0214467159
 20
28.6683559747
 30
0.0
 10
11.0854917077
 20
28.6853636087
 30
0.0
 10
11.1512032166
 20
28.6942039283
 30
0.0
 10
11.2406297692
 20
28.6951991287
 30
0.0
 10
11.3540870535
 20
28.6760897489
 30
0.0
 10
11.4401521956
 20
28.6421036933
 30
0.0
 10
11.4820092609
 20
28.6211820006
 30
0.0
 11
10.9605346964
 21
28.6421195854
 31
0.0
 11
11.0220054925
 21
28.6670690184
 31
0.0
 11
11.0857522249
 21
28.6840018778
 31
0.0
 11
11.1511513165
 21
28.6928412216
 31
0.0
 11
11.2175747577
 21
28.6936398772
 31
0.0
 11
11.3511065794
 21
28.6718975622
 31
0.0
 11
11.4820092609
 21
28.6211820006
 31
0.0
  0
SPLINE
  5
49C
100
AcDbEntity
  8
0
100
AcDbSpline
 62
7
  6
CONTINUOUS
 70
0
 71
3
 72
22
 73
18
 74
16
 42
0.0000001
 43
0.0000001
 44
0.0000000001
 12
-1.2116220673
 22
1.7369886559
 32
0.0
 13
1.9088224156
 23
0.9173628564
 33
0.0
 40
0.0
 40
0.0
 40
0.0
 40
0.0
 40
0.0599136763
 40
0.1171252904
 40
0.1722031794
 40
0.2258273789
 40
0.2787624717
 40
0.3318164322
 40
0.3857894871
 40
0.4414251618
 40
0.4993722159
 40
0.56016431
 40
0.6242120119
 40
0.6918093651
 40
0.7631424126
 40
0.8383031185
 40
1.0
 40
1.0
 40
1.0
 40
1.0
 10
6.6260766984
 20
25.2840722116
 30
0.0
 10
6.601879121
 20
25.3187620036
 30
0.0
 10
6.5580138708
 20
25.3890837634
 30
0.0
 10
6.5059760826
 20
25.4992685307
 30
0.0
 10
6.4696760987
 20
25.6109855275
 30
0.0
 10
6.4493758212
 20
25.7236453803
 30
0.0
 10
6.4452405104
 20
25.836631579
 30
0.0
 10
6.4573038367
 20
25.9492925729
 30
0.0
 10
6.4854727028
 20
26.0609866118
 30
0.0
 10
6.5295370009
 20
26.1711102536
 30
0.0
 10
6.589196374
 20
26.2791153446
 30
0.0
 10
6.6640979602
 20
26.3844930246
 30
0.0
 10
6.7538284636
 20
26.486772782
 30
0.0
 10
6.8579323712
 20
26.585492964
 30
0.0
 10
6.9759016963
 20
26.6802200111
 30
0.0
 10
7.1552766028
 20
26.8035986279
 30
0.0
 10
7.3024755916
 20
26.884089335
 30
0.0
 10
7.4053591356
 20
26.9335342394
 30
0.0
 11
6.6260766984
 21
25.2840722116
 31
0.0
 11
6.559218589
 21
25.391915306
 31
0.0
 11
6.5077623527
 21
25.5016100357
 31
0.0
 11
6.4719589101
 21
25.6126243158
 31
0.0
 11
6.4519792783
 21
25.7244193548
 31
0.0
 11
6.4479223263
 21
25.8364528728
 31
0.0
 11
6.4598055281
 21
25.9481814038
 31
0.0
 11
6.4875716605
 21
26.0590629291
 31
0.0
 11
6.5310861266
 21
26.1685596256
 31
0.0
 11
6.5901358786
 21
26.2761405859
 31
0.0
 11
6.664436753
 21
26.381283734
 31
0.0
 11
6.7536253177
 21
26.4834796313
 31
0.0
 11
6.8572708674
 21
26.5822322969
 31
0.0
 11
6.9748694032
 21
26.6770630772
 31
0.0
 11
7.1058509809
 21
26.7675123582
 31
0.0
 11
7.4053591356
 21
26.9335342394
 31
0.0
  0
SPLINE
  5
49D
100
AcDbEntity
  8
RACCORDO
100
AcDbSpline
 62
253
  6
CONTINUOUS
 70
0
 71
3
 72
18
 73
14
 74
12
 42
0.0000001
 43
0.0000001
 44
0.0000000001
 12
0.0427344967
 22
-0.0912483999
 32
0.0
 13
-0.089942797
 23
-0.0454180687
 33
0.0
 40
0.0
 40
0.0
 40
0.0
 40
0.0
 40
0.0066687172
 40
0.0200719932
 40
0.041247279
 40
0.0703678173
 40
0.1074300617
 40
0.152375111
 40
0.2654576731
 40
0.4084639192
 40
0.5798497599
 40
0.7777587615
 40
1.0
 40
1.0
 40
1.0
 40
1.0
 10
19.0992002678
 20
21.7850406421
 30
0.0
 10
19.0992952625
 20
21.7848378055
 30
0.0
 10
19.0989435167
 20
21.7841095326
 30
0.0
 10
19.097980958
 20
21.7832114637
 30
0.0
 10
19.0962933807
 20
21.7818353682
 30
0.0
 10
19.0938907624
 20
21.7801749402
 30
0.0
 10
19.0907517595
 20
21.7781448113
 30
0.0
 10
19.0851587787
 20
21.7747350814
 30
0.0
 10
19.0763862581
 20
21.7697022407
 30
0.0
 10
19.0637966198
 20
21.7628009761
 30
0.0
 10
19.0485982938
 20
21.7547328123
 30
0.0
 10
19.0309594814
 20
21.7455894461
 30
0.0
 10
19.0183817744
 20
21.7391912245
 30
0.0
 10
19.0117187749
 20
21.7358266352
 30
0.0
 11
19.0992002678
 21
21.7850406421
 31
0.0
 11
19.0990486572
 21
21.7843860319
 31
0.0
 11
19.098145928
 21
21.7833815641
 31
0.0
 11
19.0964948683
 21
21.7820301528
 31
0.0
 11
19.0940996553
 21
21.780335355
 31
0.0
 11
19.0909673554
 21
21.7783020613
 31
0.0
 11
19.0871061547
 21
21.7759356763
 31
0.0
 11
19.0772427996
 21
21.7702311955
 31
0.0
 11
19.0646184088
 21
21.7632848638
 31
0.0
 11
19.0493730709
 21
21.755173738
 31
0.0
 11
19.0316740772
 21
21.7459868578
 31
0.0
 11
19.0117187749
 21
21.7358266352
 31
0.0
  0
SPLINE
  5
49E
100
AcDbEntity
  8
RACCORDO
100
AcDbSpline
 62
253
  6
CONTINUOUS
 70
0
 71
3
 72
12
 73
8
 74
6
 42
0.0000001
 43
0.0000001
 44
0.0000000001
 12
-0.0000042701
 22
-0.1404206316
 32
0.0
 13
-0.1246974194
 23
-0.0645639789
 33
0.0
 40
0.0
 40
0.0
 40
0.0
 40
0.0
 40
0.1028546434
 40
0.2084745182
 40
0.4366765843
 40
0.6988746954
 40
1.0
 40
1.0
 40
1.0
 40
1.0
 10
19.1557852567
 20
21.5393870847
 30
0.0
 10
19.1557851103
 20
21.53457278
 30
0.0
 10
19.1548320499
 20
21.5247899198
 30
0.0
 10
19.1490427268
 20
21.5050789521
 30
0.0
 10
19.1340984031
 20
21.4809207365
 30
0.0
 10
19.1067169399
 20
21.4555325283
 30
0.0
 10
19.084103723
 20
21.4416701774
 30
0.0
 10
19.0715872069
 20
21.4351895614
 30
0.0
 11
19.1557852567
 21
21.5393870847
 31
0.0
 11
19.1544039138
 21
21.5250103793
 31
0.0
 11
19.1502730257
 21
21.5107660633
 31
0.0
 11
19.1339398895
 21
21.4831967972
 31
0.0
 11
19.1073863325
 21
21.4576923755
 31
0.0
 11
19.0715872069
 21
21.4351895614
 31
0.0
  0
SPLINE
  5
49F
100
AcDbEntity
  8
RACCORDO
100
AcDbSpline
 62
7
  6
CONTINUOUS
 70
0
 71
3
 72
9
 73
5
 74
3
 42
0.0000001
 43
0.0000001
 44
0.0000000001
 12
-0.0004064978
 22
0.0259299962
 32
0.0
 13
-0.0020641494
 23
0.0258509038
 33
0.0
 40
0.0
 40
0.0
 40
0.0
 40
0.0
 40
0.2485360477
 40
1.0
 40
1.0
 40
1.0
 40
1.0
 10
7.3784304993
 20
24.5250533908
 30
0.0
 10
7.3783968228
 20
24.5272015704
 30
0.0
 10
7.3781931857
 20
24.5358438385
 30
0.0
 10
7.3776844553
 20
24.544477798
 30
0.0
 10
7.3771674107
 20
24.5509531388
 30
0.0
 11
7.3784304993
 21
24.5250533908
 31
0.0
 11
7.3782767549
 21
24.5314968875
 31
0.0
 11
7.3771674107
 21
24.5509531388
 31
0.0
  0
SPLINE
  5
4A0
100
AcDbEntity
  8
RACCORDO
100
AcDbSpline
 62
7
  6
CONTINUOUS
 70
0
 71
3
 72
9
 73
5
 74
3
 42
0.0000001
 43
0.0000001
 44
0.0000000001
 12
0.003195696
 22
0.0016680086
 32
0.0
 13
-0.0000093949
 23
0.0036048076
 33
0.0
 40
0.0
 40
0.0
 40
0.0
 40
0.0
 40
0.5036977787
 40
1.0
 40
1.0
 40
1.0
 40
1.0
 10
7.3766967012
 20
23.9397595514
 30
0.0
 10
7.3772332562
 20
23.9400396088
 30
0.0
 10
7.3782200962
 20
23.9408627358
 30
0.0
 10
7.3784786158
 20
23.9421175073
 30
0.0
 10
7.3784770615
 20
23.9427138653
 30
0.0
 11
7.3766967012
 21
23.9397595514
 31
0.0
 11
7.3780426112
 21
23.9409783365
 31
0.0
 11
7.3784770615
 21
23.9427138653
 31
0.0
  0
SPLINE
  5
4A1
100
AcDbEntity
  8
RACCORDO
100
AcDbSpline
 62
7
  6
CONTINUOUS
 70
0
 71
3
 72
10
 73
6
 74
4
 42
0.0000001
 43
0.0000001
 44
0.0000000001
 12
-0.431001698
 22
0.4732084891
 32
0.0
 13
-0.5725276644
 23
0.286183178
 33
0.0
 40
0.0
 40
0.0
 40
0.0
 40
0.0
 40
0.506838871
 40
0.7558957822
 40
1.0
 40
1.0
 40
1.0
 40
1.0
 10
7.3771674107
 20
24.5509531388
 30
0.0
 10
7.3043512727
 20
24.6308999576
 30
0.0
 10
7.1869945827
 20
24.742856691
 30
0.0
 10
7.0143063697
 20
24.8685498804
 30
0.0
 10
6.923078593
 20
24.9215393292
 30
0.0
 10
6.8764931204
 20
24.9448255028
 30
0.0
 11
7.3771674107
 21
24.5509531388
 31
0.0
 11
7.1410481047
 21
24.7734184787
 31
0.0
 11
7.0119043264
 21
24.8668776067
 31
0.0
 11
6.8764931204
 21
24.9448255028
 31
0.0
  0
SPLINE
  5
4A2
100
AcDbEntity
  8
RACCORDO
100
AcDbSpline
 62
7
  6
CONTINUOUS
 70
0
 71
3
 72
11
 73
7
 74
5
 42
0.0000001
 43
0.0000001
 44
0.0000000001
 12
0.4104598159
 22
0.2008428369
 32
0.0
 13
0.4087143287
 23
-0.2043714832
 33
0.0
 40
0.0
 40
0.0
 40
0.0
 40
0.0
 40
0.2787325875
 40
0.5346772883
 40
0.772449667
 40
1.0
 40
1.0
 40
1.0
 40
1.0
 10
3.2092497533
 20
26.5325762532
 30
0.0
 10
3.2473859288
 20
26.5512367344
 30
0.0
 10
3.3236169184
 20
26.5813231839
 30
0.0
 10
3.4402861212
 20
26.6023773581
 30
0.0
 10
3.5510942723
 20
26.5962649638
 30
0.0
 10
3.6193056108
 20
26.5734198348
 30
0.0
 10
3.650306638
 20
26.5579182352
 30
0.0
 11
3.2092497533
 21
26.5325762532
 31
0.0
 11
3.3280957604
 21
26.5783895655
 31
0.0
 11
3.4433747235
 21
26.5981318006
 31
0.0
 11
3.5518092823
 21
26.5912430073
 31
0.0
 11
3.650306638
 21
26.5579182352
 31
0.0
  0
SPLINE
  5
4A3
100
AcDbEntity
  8
RACCORDO
100
AcDbSpline
 62
7
  6
CONTINUOUS
 70
0
 71
3
 72
14
 73
10
 74
8
 42
0.0000001
 43
0.0000001
 44
0.0000000001
 12
-0.0
 22
0.630991571
 32
0.0
 13
-0.5643681094
 23
0.2822038267
 33
0.0
 40
0.0
 40
0.0
 40
0.0
 40
0.0
 40
0.2891525564
 40
0.4227177506
 40
0.5489643138
 40
0.668508974
 40
0.7824375212
 40
0.892292605
 40
1.0
 40
1.0
 40
1.0
 40
1.0
 10
-0.3324547451
 20
28.138372263
 30
0.0
 10
-0.3324547451
 20
28.1991898716
 30
0.0
 10
-0.3400412018
 20
28.2885812962
 30
0.0
 10
-0.3690406326
 20
28.4005679717
 30
0.0
 10
-0.3984902792
 20
28.4749774623
 30
0.0
 10
-0.4358985906
 20
28.5410480767
 30
0.0
 10
-0.480887941
 20
28.597939636
 30
0.0
 10
-0.5329256345
 20
28.6448449985
 30
0.0
 10
-0.5720718428
 20
28.6691067657
 30
0.0
 10
-0.5923340491
 20
28.6792385787
 30
0.0
 11
-0.3324547451
 21
28.138372263
 31
0.0
 11
-0.3497321827
 21
28.3200052
 31
0.0
 11
-0.3711304386
 21
28.4015219601
 31
0.0
 11
-0.4007200053
 21
28.475483136
 31
0.0
 11
-0.4381381123
 21
28.540979873
 31
0.0
 11
-0.4829263798
 21
28.5972105485
 31
0.0
 11
-0.5345358212
 21
28.6434858082
 31
0.0
 11
-0.5923340491
 21
28.6792385787
 31
0.0
  0
SPLINE
  5
4A4
100
AcDbEntity
  8
RACCORDO
100
AcDbSpline
 62
7
  6
CONTINUOUS
 70
0
 71
3
 72
11
 73
7
 74
5
 42
0.0000001
 43
0.0000001
 44
0.0000000001
 12
0.0557205746
 22
0.0171953145
 32
0.0
 13
0.0521861977
 23
-0.026020416
 33
0.0
 40
0.0
 40
0.0
 40
0.0
 40
0.0
 40
0.368058145
 40
0.6517558087
 40
0.8584037383
 40
1.0
 40
1.0
 40
1.0
 40
1.0
 10
-3.875721643
 20
30.285164105
 30
0.0
 10
-3.8688855059
 20
30.2872737302
 30
0.0
 10
-3.8566919445
 20
30.2907251884
 30
0.0
 10
-3.8402758863
 20
30.2939659021
 30
0.0
 10
-3.8280212268
 20
30.2948107899
 30
0.0
 10
-3.8211467422
 20
30.2936420035
 30
0.0
 10
-3.8186836187
 20
30.2924138723
 30
0.0
 11
-3.875721643
 21
30.285164105
 31
0.0
 11
-3.8550273741
 21
30.2908559267
 31
0.0
 11
-3.8387583814
 21
30.2938565672
 31
0.0
 11
-3.8267170245
 21
30.2943222598
 31
0.0
 11
-3.8186836187
 21
30.2924138723
 31
0.0
  0
SPLINE
  5
4A5
100
AcDbEntity
  8
RACCORDO
100
AcDbSpline
 62
7
  6
CONTINUOUS
 70
0
 71
3
 72
9
 73
5
 74
3
 42
0.0000001
 43
0.0000001
 44
0.0000000001
 12
-0.0189527949
 22
-0.0058488139
 32
0.0
 13
-0.0177371727
 23
-0.0088774864
 33
0.0
 40
0.0
 40
0.0
 40
0.0
 40
0.0
 40
0.2476285508
 40
1.0
 40
1.0
 40
1.0
 40
1.0
 10
-3.875721643
 20
30.285164105
 30
0.0
 10
-3.8772860607
 20
30.2846813273
 30
0.0
 10
-3.8835607503
 20
30.2825940711
 30
0.0
 10
-3.8896529945
 20
30.2799679658
 30
0.0
 10
-3.8941013086
 20
30.2777415767
 30
0.0
 11
-3.875721643
 21
30.285164105
 31
0.0
 11
-3.8803824578
 21
30.2836145567
 31
0.0
 11
-3.8941013086
 21
30.2777415767
 31
0.0
  0
SPLINE
  5
4A6
100
AcDbEntity
  8
RACCORDO
100
AcDbSpline
 62
7
  6
CONTINUOUS
 70
0
 71
3
 72
11
 73
7
 74
5
 42
0.0000001
 43
0.0000001
 44
0.0000000001
 12
-0.1620397139
 22
-0.0811011646
 32
0.0
 13
-0.0906562346
 23
-0.1568939607
 33
0.0
 40
0.0
 40
0.0
 40
0.0
 40
0.0
 40
0.2068014243
 40
0.4392363129
 40
0.7028675903
 40
1.0
 40
1.0
 40
1.0
 40
1.0
 10
-3.8941013086
 20
30.2777415767
 30
0.0
 10
-3.9052713231
 20
30.2721509646
 30
0.0
 10
-3.9273146734
 20
30.2568676323
 30
0.0
 10
-3.9569914777
 20
30.2263059078
 30
0.0
 10
-3.9857087327
 20
30.1878394298
 30
0.0
 10
-4.0035018663
 20
30.1589809741
 30
0.0
 10
-4.0124808348
 20
30.1434415473
 30
0.0
 11
-3.8941013086
 21
30.2777415767
 31
0.0
 11
-3.9252528982
 21
30.2569138071
 31
0.0
 11
-3.9550188653
 21
30.2271163138
 31
0.0
 11
-3.9839413111
 21
30.1890963011
 31
0.0
 11
-4.0124808348
 21
30.1434415473
 31
0.0
  0
SPLINE
  5
4A7
100
AcDbEntity
  8
RACCORDO
100
AcDbSpline
 62
7
  6
CONTINUOUS
 70
0
 71
3
 72
11
 73
7
 74
5
 42
0.0000001
 43
0.0000001
 44
0.0000000001
 12
-0.4087143287
 22
0.2043714832
 32
0.0
 13
-0.4104598159
 23
-0.2008428369
 33
0.0
 40
0.0
 40
0.0
 40
0.0
 40
0.0
 40
0.227550333
 40
0.4653227117
 40
0.7212674125
 40
1.0
 40
1.0
 40
1.0
 40
1.0
 10
-0.5923340491
 20
28.6792385787
 30
0.0
 10
-0.6233350763
 20
28.6947401784
 30
0.0
 10
-0.6915464149
 20
28.7175853073
 30
0.0
 10
-0.802354566
 20
28.7236977016
 30
0.0
 10
-0.9190237687
 20
28.7026435274
 30
0.0
 10
-0.9952547583
 20
28.672557078
 30
0.0
 10
-1.0333909338
 20
28.6538965968
 30
0.0
 11
-0.5923340491
 21
28.6792385787
 31
0.0
 11
-0.6908314048
 21
28.7125633509
 31
0.0
 11
-0.7992659636
 21
28.7194521441
 31
0.0
 11
-0.9145449267
 21
28.699709909
 31
0.0
 11
-1.0333909338
 21
28.6538965968
 31
0.0
  0
SPLINE
  5
4A8
100
AcDbEntity
  8
RACCORDO
100
AcDbSpline
 62
7
  6
CONTINUOUS
 70
0
 71
3
 72
9
 73
5
 74
3
 42
0.0000001
 43
0.0000001
 44
0.0000000001
 12
-0.2341361533
 22
0.117035093
 32
0.0
 13
-0.2566306785
 23
0.0515523629
 33
0.0
 40
0.0
 40
0.0
 40
0.0
 40
0.0
 40
0.2560238952
 40
1.0
 40
1.0
 40
1.0
 40
1.0
 10
6.8764931204
 20
24.9448255028
 30
0.0
 10
6.8565116371
 20
24.9548134296
 30
0.0
 10
6.7774589638
 20
24.991691342
 30
0.0
 10
6.6938228864
 20
25.0194284471
 30
0.0
 10
6.6301805222
 20
25.0322130224
 30
0.0
 11
6.8764931204
 21
24.9448255028
 31
0.0
 11
6.8157324564
 21
24.9730975194
 31
0.0
 11
6.6301805222
 21
25.0322130224
 31
0.0
  0
SPLINE
  5
4A9
100
AcDbEntity
  8
RACCORDO
100
AcDbSpline
 62
7
  6
CONTINUOUS
 70
0
 71
3
 72
9
 73
5
 74
3
 42
0.0000001
 43
0.0000001
 44
0.0000000001
 12
-0.0000153526
 22
0.0058907759
 32
0.0
 13
-0.0030473344
 23
0.0050413519
 33
0.0
 40
0.0
 40
0.0
 40
0.0
 40
0.0
 40
0.198822484
 40
1.0
 40
1.0
 40
1.0
 40
1.0
 10
7.3784770615
 20
23.9427138653
 30
0.0
 10
7.3784760441
 20
23.9431042716
 30
0.0
 10
7.3782138017
 20
23.9450662814
 30
0.0
 10
7.3772648038
 20
23.9468542593
 30
0.0
 10
7.3764509852
 20
23.9482005986
 30
0.0
 11
7.3784770615
 21
23.9427138653
 31
0.0
 11
7.378344617
 21
23.9438775753
 31
0.0
 11
7.3764509852
 21
23.9482005986
 31
0.0
  0
SPLINE
  5
4AA
100
AcDbEntity
  8
RACCORDO
100
AcDbSpline
 62
7
  6
CONTINUOUS
 70
0
 71
3
 72
12
 73
8
 74
6
 42
0.0000001
 43
0.0000001
 44
0.0000000001
 12
-0.0562867789
 22
0.0931179267
 32
0.0
 13
-0.0879275831
 23
0.0640928225
 33
0.0
 40
0.0
 40
0.0
 40
0.0
 40
0.0
 40
0.0637627611
 40
0.1470196742
 40
0.3678913705
 40
0.6544802791
 40
1.0
 40
1.0
 40
1.0
 40
1.0
 10
7.3764509852
 20
23.9482005986
 30
0.0
 10
7.3752546517
 20
23.9501797506
 30
0.0
 10
7.371991693
 20
23.9544282003
 30
0.0
 10
7.3628953551
 20
23.964194375
 30
0.0
 10
7.3468898941
 20
23.9784925008
 30
0.0
 10
7.3227820736
 20
23.9978788273
 30
0.0
 10
7.3044058363
 20
24.0115986148
 30
0.0
 10
7.2942789317
 20
24.0189803928
 30
0.0
 11
7.3764509852
 21
23.9482005986
 31
0.0
 11
7.3723543382
 21
23.9537998658
 31
0.0
 11
7.3662439621
 21
23.9604878325
 31
0.0
 11
7.3485582048
 21
23.9767598543
 31
0.0
 11
7.3243426132
 21
23.9964065438
 31
0.0
 11
7.2942789317
 21
24.0189803928
 31
0.0
  0
SPLINE
  5
4AB
100
AcDbEntity
  8
RACCORDO
100
AcDbSpline
 62
7
  6
CONTINUOUS
 70
0
 71
3
 72
10
 73
6
 74
4
 42
0.0000001
 43
0.0000001
 44
0.0000000001
 12
-0.0001212048
 22
-0.3024299942
 32
0.0
 13
-0.1477248048
 23
-0.2638963776
 33
0.0
 40
0.0
 40
0.0
 40
0.0
 40
0.0
 40
0.2413789779
 40
0.4900689452
 40
1.0
 40
1.0
 40
1.0
 40
1.0
 10
7.378477002
 20
24.5189340139
 30
0.0
 10
7.3784672499
 20
24.4946005996
 30
0.0
 10
7.3738316047
 20
24.4451427395
 30
0.0
 10
7.3503186497
 20
24.3469224521
 30
0.0
 10
7.3193887535
 20
24.2760958663
 30
0.0
 10
7.2942789317
 20
24.2312395469
 30
0.0
 11
7.378477002
 21
24.5189340139
 31
0.0
 11
7.37222992
 21
24.446201557
 31
0.0
 11
7.3550542178
 21
24.3729776769
 31
0.0
 11
7.2942789317
 21
24.2312395469
 31
0.0
  0
SPLINE
  5
4AC
100
AcDbEntity
  8
RACCORDO
100
AcDbSpline
 62
7
  6
CONTINUOUS
 70
0
 71
3
 72
9
 73
5
 74
3
 42
0.0000001
 43
0.0000001
 44
0.0000000001
 12
-0.4347732533
 22
0.0873379156
 32
0.0
 13
-0.4394369151
 23
-0.0595893528
 33
0.0
 40
0.0
 40
0.0
 40
0.0
 40
0.0
 40
0.4886809648
 40
1.0
 40
1.0
 40
1.0
 40
1.0
 10
6.6301805222
 20
25.0322130224
 30
0.0
 10
6.5593587179
 20
25.0464398147
 30
0.0
 10
6.4114759823
 20
25.0615897327
 30
0.0
 10
6.2632371407
 20
25.0531876929
 30
0.0
 10
6.1883396542
 20
25.0430313028
 30
0.0
 11
6.6301805222
 21
25.0322130224
 31
0.0
 11
6.4147387207
 21
25.0556223463
 31
0.0
 11
6.1883396542
 21
25.0430313028
 31
0.0
  0
SPLINE
  5
4AD
100
AcDbEntity
  8
RACCORDO
100
AcDbSpline
 62
7
  6
CONTINUOUS
 70
0
 71
3
 72
13
 73
9
 74
7
 42
0.0000001
 43
0.0000001
 44
0.0000000001
 12
0.8552249532
 22
0.0451503374
 32
0.0
 13
0.0
 23
-0.8564159466
 33
0.0
 40
0.0
 40
0.0
 40
0.0
 40
0.0
 40
0.0955392951
 40
0.2047937591
 40
0.3279175556
 40
0.4616202286
 40
0.7394271949
 40
1.0
 40
1.0
 40
1.0
 40
1.0
 10
22.2428857896
 20
-17.6630117671
 30
0.0
 10
22.2701216527
 20
-17.66157389
 30
0.0
 10
22.3293291639
 20
-17.6704850583
 30
0.0
 10
22.4142115029
 20
-17.7122687398
 30
0.0
 10
22.4956132522
 20
-17.7790005808
 30
0.0
 10
22.5941888603
 20
-17.8964008532
 30
0.0
 10
22.6814300514
 20
-18.0703370608
 30
0.0
 10
22.7105510563
 20
-18.2242331236
 30
0.0
 10
22.7105510563
 20
-18.2986193588
 30
0.0
 11
22.2428857896
 21
-17.6630117671
 31
0.0
 11
22.3240155055
 21
-17.6736281101
 31
0.0
 11
22.408746874
 21
-17.7133197757
 31
0.0
 11
22.491019111
 21
-17.7792740445
 31
0.0
 11
22.5652482518
 21
-17.8664603558
 31
0.0
 11
22.6728131151
 21
-18.0786746938
 31
0.0
 11
22.7105510563
 21
-18.2986193588
 31
0.0
  0
SPLINE
  5
4AE
100
AcDbEntity
  8
RACCORDO
100
AcDbSpline
 62
7
  6
CONTINUOUS
 70
0
 71
3
 72
10
 73
6
 74
4
 42
0.0000001
 43
0.0000001
 44
0.0000000001
 12
0.0
 22
0.3313531792
 32
0.0
 13
0.2113874143
 23
0.2551671813
 33
0.0
 40
0.0
 40
0.0
 40
0.0
 40
0.0
 40
0.2142195424
 40
0.4699558193
 40
1.0
 40
1.0
 40
1.0
 40
1.0
 10
3.9834092468
 20
19.5929572763
 30
0.0
 10
3.9834092468
 20
19.6166180518
 30
0.0
 10
3.9896597933
 20
19.6685717874
 30
0.0
 10
4.0213433034
 20
19.7746248494
 30
0.0
 10
4.0653567572
 20
19.8517743376
 30
0.0
 10
4.1027049802
 20
19.8968576307
 30
0.0
 11
3.9834092468
 21
19.5929572763
 31
0.0
 11
3.9909026849
 21
19.6635429621
 31
0.0
 11
4.0146771768
 21
19.7448785415
 31
0.0
 11
4.1027049802
 21
19.8968576307
 31
0.0
  0
SPLINE
  5
4AF
100
AcDbEntity
  8
RACCORDO
100
AcDbSpline
 62
7
  6
CONTINUOUS
 70
0
 71
3
 72
10
 73
6
 74
4
 42
0.0000001
 43
0.0000001
 44
0.0000000001
 12
0.0
 22
0.3313531792
 32
0.0
 13
0.2113874143
 23
0.2551671813
 33
0.0
 40
0.0
 40
0.0
 40
0.0
 40
0.0
 40
0.2142195424
 40
0.4699558193
 40
1.0
 40
1.0
 40
1.0
 40
1.0
 10
17.3477274112
 20
12.9107981941
 30
0.0
 10
17.3477274112
 20
12.9344589695
 30
0.0
 10
17.3539779578
 20
12.9864127052
 30
0.0
 10
17.3856614679
 20
13.0924657672
 30
0.0
 10
17.4296749216
 20
13.1696152553
 30
0.0
 10
17.4670231446
 20
13.2146985485
 30
0.0
 11
17.3477274112
 21
12.9107981941
 31
0.0
 11
17.3552208493
 21
12.9813838799
 31
0.0
 11
17.3789953412
 21
13.0627194593
 31
0.0
 11
17.4670231446
 21
13.2146985485
 31
0.0
  0
SPLINE
  5
4B0
100
AcDbEntity
  8
RACCORDO
100
AcDbSpline
 62
7
  6
CONTINUOUS
 70
0
 71
3
 72
9
 73
5
 74
3
 42
0.0000001
 43
0.0000001
 44
0.0000000001
 12
0.0
 22
-0.2736084325
 32
0.0
 13
0.2447409844
 23
-0.1223250787
 33
0.0
 40
0.0
 40
0.0
 40
0.0
 40
0.0
 40
0.499800677
 40
1.0
 40
1.0
 40
1.0
 40
1.0
 10
14.0900109646
 20
13.625442855
 30
0.0
 10
14.0900109646
 20
13.5798596284
 30
0.0
 10
14.1159600933
 20
13.4867624703
 30
0.0
 10
14.1877332704
 20
13.4221008322
 30
0.0
 10
14.2285396953
 20
13.4017051917
 30
0.0
 11
14.0900109646
 21
13.625442855
 31
0.0
 11
14.1273966289
 21
13.4939027964
 31
0.0
 11
14.2285396953
 21
13.4017051917
 31
0.0
  0
SPLINE
  5
4B1
100
AcDbEntity
  8
RACCORDO
100
AcDbSpline
 62
7
  6
CONTINUOUS
 70
0
 71
3
 72
9
 73
5
 74
3
 42
0.0000001
 43
0.0000001
 44
0.0000000001
 12
0.0
 22
-0.2128428747
 32
0.0
 13
-0.0960815572
 23
-0.1899221516
 33
0.0
 40
0.0
 40
0.0
 40
0.0
 40
0.0
 40
0.4554614407
 40
1.0
 40
1.0
 40
1.0
 40
1.0
 10
14.7971177458
 20
-26.5706078938
 30
0.0
 10
14.7971177458
 20
-26.6029218012
 30
0.0
 10
14.7857552618
 20
-26.6738240398
 30
0.0
 10
14.7600263033
 20
-26.7404861863
 30
0.0
 10
14.7425862658
 20
-26.7749594979
 30
0.0
 11
14.7971177458
 21
-26.5706078938
 31
0.0
 11
14.783787144
 21
-26.6666286863
 31
0.0
 11
14.7425862658
 21
-26.7749594979
 31
0.0
  0
SPLINE
  5
4B2
100
AcDbEntity
  8
RACCORDO
100
AcDbSpline
 62
7
  6
CONTINUOUS
 70
0
 71
3
 72
9
 73
5
 74
3
 42
0.0000001
 43
0.0000001
 44
0.0000000001
 12
-0.0409055421
 22
-0.0808570217
 32
0.0
 13
-0.0536657316
 23
-0.0730144546
 33
0.0
 40
0.0
 40
0.0
 40
0.0
 40
0.0
 40
0.2539258716
 40
1.0
 40
1.0
 40
1.0
 40
1.0
 10
14.7425862658
 20
-26.7749594979
 30
0.0
 10
14.7391239406
 20
-26.7818033945
 30
0.0
 10
14.7249450354
 20
-26.8084764978
 30
0.0
 10
14.7085948302
 20
-26.83400096
 30
0.0
 10
14.6952486255
 20
-26.8521590252
 30
0.0
 11
14.7425862658
 21
-26.7749594979
 31
0.0
 11
14.731783157
 21
-26.795275314
 31
0.0
 11
14.6952486255
 21
-26.8521590252
 31
0.0
  0
SPLINE
  5
4B3
100
AcDbEntity
  8
RACCORDO
100
AcDbSpline
 62
7
  6
CONTINUOUS
 70
0
 71
3
 72
8
 73
4
 74
2
 42
0.0000001
 43
0.0000001
 44
0.0000000001
 12
-0.0393289976
 22
0.0920770058
 32
0.0
 13
0.0000109886
 23
0.1001246469
 33
0.0
 40
0.0
 40
0.0
 40
0.0
 40
0.0
 40
1.0
 40
1.0
 40
1.0
 40
1.0
 10
14.1101256091
 20
-28.1237059327
 30
0.0
 10
14.0970159432
 20
-28.0930135974
 30
0.0
 10
14.0900407592
 20
-28.0589905965
 30
0.0
 10
14.090044422
 20
-28.0256157142
 30
0.0
 11
14.1101256091
 21
-28.1237059327
 31
0.0
 11
14.090044422
 21
-28.0256157142
 31
0.0
  0
SPLINE
  5
4B4
100
AcDbEntity
  8
RACCORDO
100
AcDbSpline
 62
7
  6
CONTINUOUS
 70
0
 71
3
 72
8
 73
4
 74
2
 42
0.0000001
 43
0.0000001
 44
0.0000000001
 12
0.0453095441
 22
0.0976716848
 32
0.0
 13
0.0000561267
 23
0.1076694463
 33
0.0
 40
0.0
 40
0.0
 40
0.0
 40
0.0
 40
1.0
 40
1.0
 40
1.0
 40
1.0
 10
18.0316316471
 20
-27.7417282385
 30
0.0
 10
18.0467348285
 20
-27.7091710103
 30
0.0
 10
18.0548122136
 20
-27.672477641
 30
0.0
 10
18.0548309225
 20
-27.6365878256
 30
0.0
 11
18.0316316471
 21
-27.7417282385
 31
0.0
 11
18.0548309225
 21
-27.6365878256
 31
0.0
  0
SPLINE
  5
4B5
100
AcDbEntity
  8
RACCORDO
100
AcDbSpline
 62
7
  6
CONTINUOUS
 70
0
 71
3
 72
14
 73
10
 74
8
 42
0.0000001
 43
0.0000001
 44
0.0000000001
 12
0.0365458261
 22
-0.0298401421
 32
0.0
 13
-0.0028726914
 23
0.0470933024
 33
0.0
 40
0.0
 40
0.0
 40
0.0
 40
0.0
 40
0.012818703
 40
0.056653067
 40
0.1338755598
 40
0.2438151093
 40
0.3858889478
 40
0.5598677188
 40
1.0
 40
1.0
 40
1.0
 40
1.0
 10
17.3577668643
 20
-26.9503452091
 30
0.0
 10
17.357923021
 20
-26.950472713
 30
0.0
 10
17.3569055947
 20
-26.9488472282
 30
0.0
 10
17.3567258868
 20
-26.9477832883
 30
0.0
 10
17.3550208712
 20
-26.9438662878
 30
0.0
 10
17.353615216
 20
-26.939172942
 30
0.0
 10
17.3518594393
 20
-26.9325911137
 30
0.0
 10
17.3496170837
 20
-26.9209578158
 30
0.0
 10
17.3486119095
 20
-26.9113048741
 30
0.0
 10
17.3481904547
 20
-26.9043957799
 30
0.0
 11
17.3577668643
 21
-26.9503452091
 31
0.0
 11
17.357510797
 21
-26.9497972957
 31
0.0
 11
17.3566748559
 21
-26.947905626
 31
0.0
 11
17.3553615041
 21
-26.9445071513
 31
0.0
 11
17.3537595017
 21
-26.9395736968
 31
0.0
 11
17.352064785
 21
-26.9330883035
 31
0.0
 11
17.3504718056
 21
-26.9250358938
 31
0.0
 11
17.3481904547
 21
-26.9043957799
 31
0.0
  0
SPLINE
  5
4B6
100
AcDbEntity
  8
RACCORDO
100
AcDbSpline
 62
7
  6
CONTINUOUS
 70
0
 71
3
 72
9
 73
5
 74
3
 42
0.0000001
 43
0.0000001
 44
0.0000000001
 12
-0.0727918694
 22
0.1201834818
 32
0.0
 13
-0.1256842271
 23
0.0628187919
 33
0.0
 40
0.0
 40
0.0
 40
0.0
 40
0.0
 40
0.4995799822
 40
1.0
 40
1.0
 40
1.0
 40
1.0
 10
18.0186732048
 20
-27.1557132221
 30
0.0
 10
18.0065514179
 20
-27.1356994682
 30
0.0
 10
17.9764738054
 20
-27.0988722239
 30
0.0
 10
17.9372704293
 20
-27.071993485
 30
0.0
 10
17.9163054616
 20
-27.0615148914
 30
0.0
 11
18.0186732048
 21
-27.1557132221
 31
0.0
 11
17.9742214622
 21
-27.1013861097
 31
0.0
 11
17.9163054616
 21
-27.0615148914
 31
0.0
  0
SPLINE
  5
4B7
100
AcDbEntity
  8
RACCORDO
100
AcDbSpline
 62
7
  6
CONTINUOUS
 70
0
 71
3
 72
11
 73
7
 74
5
 42
0.0000001
 43
0.0000001
 44
0.0000000001
 12
0.4059943767
 22
0.1943178401
 32
0.0
 13
0.4025879436
 23
-0.2012804126
 33
0.0
 40
0.0
 40
0.0
 40
0.0
 40
0.0
 40
0.2781998925
 40
0.5340397174
 40
0.7720061744
 40
1.0
 40
1.0
 40
1.0
 40
1.0
 10
19.1253224525
 20
18.5049237543
 30
0.0
 10
19.1629716498
 20
18.5229434883
 30
0.0
 10
19.2382099484
 20
18.5519071466
 30
0.0
 10
19.3531931505
 20
18.5718182096
 30
0.0
 10
19.462361466
 20
18.5652290481
 30
0.0
 10
19.5295771141
 20
18.5425915992
 30
0.0
 10
19.5601729692
 20
18.5272947021
 30
0.0
 11
19.1253224525
 21
18.5049237543
 31
0.0
 11
19.2425275966
 21
18.5489976702
 31
0.0
 11
19.3561605854
 21
18.5676505266
 31
0.0
 11
19.4630199577
 21
18.5603432281
 31
0.0
 11
19.5601729692
 21
18.5272947021
 31
0.0
  0
SPLINE
  5
4B8
100
AcDbEntity
  8
RACCORDO
100
AcDbSpline
 62
7
  6
CONTINUOUS
 70
0
 71
3
 72
11
 73
7
 74
5
 42
0.0000001
 43
0.0000001
 44
0.0000000001
 12
0.0
 22
0.6297433202
 32
0.0
 13
-0.563267137
 23
0.2816145976
 33
0.0
 40
0.0
 40
0.0
 40
0.0
 40
0.0
 40
0.2897555999
 40
0.5495832416
 40
0.7828477353
 40
1.0
 40
1.0
 40
1.0
 40
1.0
 10
15.5774478316
 20
20.107733627
 30
0.0
 10
15.5774478316
 20
20.1685575115
 30
0.0
 10
15.5676348851
 20
20.2843625903
 30
0.0
 10
15.5181286631
 20
20.4427418645
 30
0.0
 10
15.435462335
 20
20.5695433448
 30
0.0
 10
15.3583038603
 20
20.6282306298
 30
0.0
 10
15.3175322821
 20
20.6486150457
 30
0.0
 11
15.5774478316
 21
20.107733627
 31
0.0
 11
15.5601674202
 21
20.2893851938
 31
0.0
 11
15.5091715782
 21
20.4448601875
 31
0.0
 11
15.4269532492
 21
20.5665926955
 31
0.0
 11
15.3175322821
 21
20.6486150457
 31
0.0
  0
SPLINE
  5
4B9
100
AcDbEntity
  8
RACCORDO
100
AcDbSpline
 62
7
  6
CONTINUOUS
 70
0
 71
3
 72
9
 73
5
 74
3
 42
0.0000001
 43
0.0000001
 44
0.0000000001
 12
0.0
 22
-0.2680487896
 32
0.0
 13
-0.1943432235
 23
-0.1846100352
 33
0.0
 40
0.0
 40
0.0
 40
0.0
 40
0.0
 40
0.5433964617
 40
1.0
 40
1.0
 40
1.0
 40
1.0
 10
22.7105510563
 20
14.6176905392
 30
0.0
 10
22.7105510563
 20
14.5691382846
 30
0.0
 10
22.6998804204
 20
14.4790027943
 30
0.0
 10
22.654445303
 20
14.3973477856
 30
0.0
 10
22.6248660352
 20
14.3692499205
 30
0.0
 11
22.7105510563
 21
14.6176905392
 31
0.0
 11
22.6886890385
 21
14.4736837858
 31
0.0
 11
22.6248660352
 21
14.3692499205
 31
0.0
  0
SPLINE
  5
4BA
100
AcDbEntity
  8
RACCORDO
100
AcDbSpline
 62
7
  6
CONTINUOUS
 70
0
 71
3
 72
11
 73
7
 74
5
 42
0.0000001
 43
0.0000001
 44
0.0000000001
 12
0.0
 22
0.3148625572
 32
0.0
 13
-0.2816217243
 23
0.1408106329
 33
0.0
 40
0.0
 40
0.0
 40
0.0
 40
0.0
 40
0.2897543213
 40
0.5495826678
 40
0.7828479026
 40
1.0
 40
1.0
 40
1.0
 40
1.0
 10
13.1025740975
 20
21.0205956342
 30
0.0
 10
13.1025740975
 20
21.0510065631
 30
0.0
 10
13.0976679068
 20
21.1089073214
 30
0.0
 10
13.0729165939
 20
21.1880950212
 30
0.0
 10
13.031586054
 20
21.2514947233
 30
0.0
 10
12.9930094311
 20
21.2808396396
 30
0.0
 10
12.972624515
 20
21.291032081
 30
0.0
 11
13.1025740975
 21
21.0205956342
 31
0.0
 11
13.0939345089
 21
21.1114184224
 31
0.0
 11
13.0684383095
 21
21.1891542283
 31
0.0
 11
13.027331758
 21
21.2500199664
 31
0.0
 11
12.972624515
 21
21.291032081
 31
0.0
  0
SPLINE
  5
4BB
100
AcDbEntity
  8
RACCORDO
100
AcDbSpline
 62
7
  6
CONTINUOUS
 70
0
 71
3
 72
10
 73
6
 74
4
 42
0.0000001
 43
0.0000001
 44
0.0000000001
 12
0.2068623626
 22
0.1034311813
 32
0.0
 13
0.2068624299
 23
-0.1034310466
 33
0.0
 40
0.0
 40
0.0
 40
0.0
 40
0.0
 40
0.5340990186
 40
0.7722795496
 40
1.0
 40
1.0
 40
1.0
 40
1.0
 10
17.6987681752
 20
18.8019579066
 30
0.0
 10
17.7355965035
 20
18.8203720708
 30
0.0
 10
17.7943439201
 20
18.8394330302
 30
0.0
 10
17.8720553253
 20
18.8355184539
 30
0.0
 10
17.9066697148
 20
18.8240094683
 30
0.0
 10
17.9223719833
 20
18.8161583468
 30
0.0
 11
17.6987681752
 21
18.8019579066
 31
0.0
 11
17.8174607251
 21
18.8361740351
 31
0.0
 11
17.8724522699
 21
18.8329462691
 31
0.0
 11
17.9223719833
 21
18.8161583468
 31
0.0
  0
SPLINE
  5
4BC
100
AcDbEntity
  8
RACCORDO
100
AcDbSpline
 62
7
  6
CONTINUOUS
 70
0
 71
3
 72
11
 73
7
 74
5
 42
0.0000001
 43
0.0000001
 44
0.0000000001
 12
-0.2177611583
 22
-0.1076335336
 32
0.0
 13
-0.0000045624
 23
-0.2429092415
 33
0.0
 40
0.0
 40
0.0
 40
0.0
 40
0.0
 40
0.3029527246
 40
0.5660238642
 40
0.7938220146
 40
1.0
 40
1.0
 40
1.0
 40
1.0
 10
6.455782049
 20
18.7686330303
 30
0.0
 10
6.4337916036
 20
18.7577637396
 30
0.0
 10
6.3940405699
 20
18.7344243801
 30
0.0
 10
6.3457509152
 20
18.6911725618
 30
0.0
 10
6.3147344372
 20
18.6429500279
 30
0.0
 10
6.3072935851
 20
18.607539742
 30
0.0
 10
6.3072932715
 20
18.5908455627
 30
0.0
 11
6.455782049
 21
18.7686330303
 31
0.0
 11
6.3927634131
 21
18.7306311611
 31
0.0
 11
6.3459082094
 21
18.6871787962
 31
0.0
 11
6.3170428799
 21
18.6399699533
 31
0.0
 11
6.3072932715
 21
18.5908455627
 31
0.0
  0
SPLINE
  5
4BD
100
AcDbEntity
  8
RACCORDO
100
AcDbSpline
 62
253
  6
CONTINUOUS
 70
0
 71
3
 72
11
 73
7
 74
5
 42
0.0000001
 43
0.0000001
 44
0.0000000001
 12
-0.0000219006
 22
-0.1203048987
 32
0.0
 13
-0.1076039744
 23
-0.0538019872
 33
0.0
 40
0.0
 40
0.0
 40
0.0
 40
0.0
 40
0.2064881634
 40
0.4345389747
 40
0.6981240661
 40
1.0
 40
1.0
 40
1.0
 40
1.0
 10
4.6905160292
 20
20.6964995627
 30
0.0
 10
4.6905145218
 20
20.6882190502
 30
0.0
 10
4.6868395677
 20
20.6706655674
 30
0.0
 10
4.6715707089
 20
20.6466736166
 30
0.0
 10
4.6477096033
 20
20.6252071123
 30
0.0
 10
4.6281204067
 20
20.6135361609
 30
0.0
 10
4.6172927232
 20
20.6081223192
 30
0.0
 11
4.6905160292
 21
20.6964995627
 31
0.0
 11
4.6857057187
 21
20.6721282081
 31
0.0
 11
4.6714805674
 21
20.6486684793
 31
0.0
 11
4.64829919
 21
20.6270309076
 31
0.0
 11
4.6172927232
 21
20.6081223192
 31
0.0
  0
SPLINE
  5
4BE
100
AcDbEntity
  8
RACCORDO
100
AcDbSpline
 62
253
  6
CONTINUOUS
 70
0
 71
3
 72
9
 73
5
 74
3
 42
0.0000001
 43
0.0000001
 44
0.0000000001
 12
0.1030200108
 22
0.0514057739
 32
0.0
 13
0.102978352
 23
-0.051489176
 33
0.0
 40
0.0
 40
0.0
 40
0.0
 40
0.0
 40
0.46393649
 40
1.0
 40
1.0
 40
1.0
 40
1.0
 10
2.985238001
 20
21.9431897572
 30
0.0
 10
3.0011695817
 20
21.9511394287
 30
0.0
 10
3.0411210931
 20
21.9577766146
 30
0.0
 10
3.0786121648
 20
21.9452829215
 30
0.0
 10
3.0970131437
 20
21.936082432
 30
0.0
 11
2.985238001
 21
21.9431897572
 31
0.0
 11
3.0377099318
 21
21.9531802199
 31
0.0
 11
3.0970131437
 21
21.936082432
 31
0.0
  0
SPLINE
  5
4BF
100
AcDbEntity
  8
RACCORDO
100
AcDbSpline
 62
253
  6
CONTINUOUS
 70
0
 71
3
 72
9
 73
5
 74
3
 42
0.0000001
 43
0.0000001
 44
0.0000000001
 12
-0.1030214681
 22
0.0514580411
 32
0.0
 13
-0.1030003995
 23
-0.0515001998
 33
0.0
 40
0.0
 40
0.0
 40
0.0
 40
0.0
 40
0.4639122062
 40
1.0
 40
1.0
 40
1.0
 40
1.0
 10
4.5523154113
 20
21.2714275729
 30
0.0
 10
4.5363844392
 20
21.2793849107
 30
0.0
 10
4.4964223694
 20
21.2860222144
 30
0.0
 10
4.4589217803
 20
21.2735338661
 30
0.0
 10
4.440516028
 20
21.2643309899
 30
0.0
 11
4.5523154113
 21
21.2714275729
 31
0.0
 11
4.4998364017
 21
21.2814270448
 31
0.0
 11
4.440516028
 21
21.2643309899
 31
0.0
  0
SPLINE
  5
4C0
100
AcDbEntity
  8
RACCORDO
100
AcDbSpline
 62
253
  6
CONTINUOUS
 70
0
 71
3
 72
9
 73
5
 74
3
 42
0.0000001
 43
0.0000001
 44
0.0000000001
 12
-0.1005381304
 22
0.0419104889
 32
0.0
 13
-0.0974244518
 23
-0.0487122259
 33
0.0
 40
0.0
 40
0.0
 40
0.0
 40
0.0
 40
0.4649319752
 40
1.0
 40
1.0
 40
1.0
 40
1.0
 10
3.2029655906
 20
21.9458535169
 30
0.0
 10
3.1873844601
 20
21.9523486924
 30
0.0
 10
3.149619103
 20
21.9567474954
 30
0.0
 10
3.11438938
 20
21.9447705502
 30
0.0
 10
3.0970131437
 20
21.936082432
 30
0.0
 11
3.2029655906
 21
21.9458535169
 31
0.0
 11
3.152815923
 21
21.9528991705
 31
0.0
 11
3.0970131437
 21
21.936082432
 31
0.0
  0
SPLINE
  5
4C1
100
AcDbEntity
  8
RACCORDO
100
AcDbSpline
 62
253
  6
CONTINUOUS
 70
0
 71
3
 72
11
 73
7
 74
5
 42
0.0000001
 43
0.0000001
 44
0.0000000001
 12
0.0
 22
-0.1203158962
 32
0.0
 13
-0.107613809
 23
-0.0538069045
 33
0.0
 40
0.0
 40
0.0
 40
0.0
 40
0.0
 40
0.2064758915
 40
0.434520967
 40
0.6981193998
 40
1.0
 40
1.0
 40
1.0
 40
1.0
 10
4.690516028
 20
21.047824639
 30
0.0
 10
4.690516028
 20
21.0395438617
 30
0.0
 10
4.6868450027
 20
21.0219884681
 30
0.0
 10
4.6715756751
 20
20.9979933979
 30
0.0
 10
4.6477126072
 20
20.9765241653
 30
0.0
 10
4.6281215637
 20
20.9648507115
 30
0.0
 10
4.6172927232
 20
20.9594362913
 30
0.0
 11
4.690516028
 21
21.047824639
 31
0.0
 11
4.6857101904
 21
21.0234515928
 31
0.0
 11
4.6714859111
 21
20.9999892099
 31
0.0
 11
4.6483019519
 21
20.9783478042
 31
0.0
 11
4.6172927232
 21
20.9594362913
 31
0.0
  0
SPLINE
  5
4C2
100
AcDbEntity
  8
RACCORDO
100
AcDbSpline
 62
253
  6
CONTINUOUS
 70
0
 71
3
 72
9
 73
5
 74
3
 42
0.0000001
 43
0.0000001
 44
0.0000000001
 12
0.1030234046
 22
0.0514586954
 32
0.0
 13
0.1030022105
 23
-0.0515011053
 33
0.0
 40
0.0
 40
0.0
 40
0.0
 40
0.0
 40
0.4639008303
 40
1.0
 40
1.0
 40
1.0
 40
1.0
 10
0.8638918742
 20
20.8825177593
 30
0.0
 10
0.8798227552
 20
20.8904750031
 30
0.0
 10
0.9197849188
 20
20.8971154477
 30
0.0
 10
0.9572863336
 20
20.8846254935
 30
0.0
 10
0.9756928001
 20
20.8754222603
 30
0.0
 11
0.8638918742
 21
20.8825177593
 31
0.0
 11
0.916370154
 21
20.8925190807
 31
0.0
 11
0.9756928001
 21
20.8754222603
 31
0.0
  0
SPLINE
  5
4C3
100
AcDbEntity
  8
RACCORDO
100
AcDbSpline
 62
253
  6
CONTINUOUS
 70
0
 71
3
 72
11
 73
7
 74
5
 42
0.0000001
 43
0.0000001
 44
0.0000000001
 12
-0.0000009308
 22
-0.1203159072
 32
0.0
 13
0.1076138189
 23
-0.0538069095
 33
0.0
 40
0.0
 40
0.0
 40
0.0
 40
0.0
 40
0.2064798395
 40
0.4345314102
 40
0.6981346754
 40
1.0
 40
1.0
 40
1.0
 40
1.0
 10
0.7256927797
 20
20.6589158971
 30
0.0
 10
0.7256927157
 20
20.6506349607
 30
0.0
 10
0.7293630651
 20
20.6330788933
 30
0.0
 10
0.7446342404
 20
20.609084029
 30
0.0
 10
0.7684974359
 20
20.587615496
 30
0.0
 10
0.7880878114
 20
20.5759417084
 30
0.0
 10
0.7989161048
 20
20.5705275617
 30
0.0
 11
0.7256927797
 21
20.6589158971
 31
0.0
 11
0.7304982977
 21
20.6345423014
 31
0.0
 11
0.7447237966
 21
20.6110797412
 31
0.0
 11
0.7679086103
 21
20.5894383946
 31
0.0
 11
0.7989161048
 21
20.5705275617
 31
0.0
  0
SPLINE
  5
4C4
100
AcDbEntity
  8
RACCORDO
100
AcDbSpline
 62
253
  6
CONTINUOUS
 70
0
 71
3
 72
11
 73
7
 74
5
 42
0.0000001
 43
0.0000001
 44
0.0000000001
 12
-0.0000003376
 22
-0.1203159038
 32
0.0
 13
0.1076138159
 23
-0.0538069079
 33
0.0
 40
0.0
 40
0.0
 40
0.0
 40
0.0
 40
0.2064767537
 40
0.4345238264
 40
0.698124287
 40
1.0
 40
1.0
 40
1.0
 40
1.0
 10
0.7256927979
 20
20.3076019363
 30
0.0
 10
0.7256927746
 20
20.2993211239
 30
0.0
 10
0.7293635288
 20
20.2817655226
 30
0.0
 10
0.7446334826
 20
20.2577705274
 30
0.0
 10
0.7684966094
 20
20.2363015242
 30
0.0
 10
0.788087439
 20
20.2246279225
 30
0.0
 10
0.7989161048
 20
20.2192135896
 30
0.0
 11
0.7256927979
 21
20.3076019363
 31
0.0
 11
0.7304984881
 21
20.2832287537
 31
0.0
 11
0.7447231602
 21
20.259766326
 31
0.0
 11
0.767907442
 21
20.2381249053
 31
0.0
 11
0.7989161048
 21
20.2192135896
 31
0.0
  0
SPLINE
  5
4C5
100
AcDbEntity
  8
RACCORDO
100
AcDbSpline
 62
253
  6
CONTINUOUS
 70
0
 71
3
 72
9
 73
5
 74
3
 42
0.0000001
 43
0.0000001
 44
0.0000000001
 12
0.000018338
 22
-0.0977596867
 32
0.0
 13
0.0832907687
 23
-0.0511820725
 33
0.0
 40
0.0
 40
0.0
 40
0.0
 40
0.0
 40
0.43756309
 40
1.0
 40
1.0
 40
1.0
 40
1.0
 10
1.4328108197
 20
19.6072502449
 30
0.0
 10
1.4328134944
 20
19.592991568
 30
0.0
 10
1.4462751317
 20
19.5605634628
 30
0.0
 10
1.472777338
 20
19.5402281428
 30
0.0
 10
1.4883926056
 20
19.5306325806
 30
0.0
 11
1.4328108197
 21
19.6072502449
 31
0.0
 11
1.447090892
 21
19.5669281864
 31
0.0
 11
1.4883926056
 21
19.5306325806
 31
0.0
  0
SPLINE
  5
4C6
100
AcDbEntity
  8
RACCORDO
100
AcDbSpline
 62
253
  6
CONTINUOUS
 70
0
 71
3
 72
9
 73
5
 74
3
 42
0.0000001
 43
0.0000001
 44
0.0000000001
 12
0.0521414017
 22
-0.0307159736
 32
0.0
 13
0.0277387884
 23
-0.0537843511
 33
0.0
 40
0.0
 40
0.0
 40
0.0
 40
0.0
 40
0.2410446835
 40
1.0
 40
1.0
 40
1.0
 40
1.0
 10
2.7902286333
 20
19.2831185129
 30
0.0
 10
2.7944181025
 20
19.2806505388
 30
0.0
 10
2.8110304938
 20
19.2690960976
 30
0.0
 10
2.8237099906
 20
19.2523939805
 30
0.0
 10
2.8307274909
 20
19.2387873407
 30
0.0
 11
2.7902286333
 21
19.2831185129
 31
0.0
 11
2.8021982485
 21
19.2747811725
 31
0.0
 11
2.8307274909
 21
19.2387873407
 31
0.0
  0
SPLINE
  5
4C7
100
AcDbEntity
  8
RACCORDO
100
AcDbSpline
 62
253
  6
CONTINUOUS
 70
0
 71
3
 72
9
 73
5
 74
3
 42
0.0000001
 43
0.0000001
 44
0.0000000001
 12
0.0413719933
 22
-0.0802185656
 32
0.0
 13
0.0
 23
-0.0902588505
 33
0.0
 40
0.0
 40
0.0
 40
0.0
 40
0.0
 40
0.2295706774
 40
1.0
 40
1.0
 40
1.0
 40
1.0
 10
2.8307274909
 20
19.2387873407
 30
0.0
 10
2.8338934231
 20
19.2326487306
 30
0.0
 10
2.8456212594
 20
19.2048416256
 30
0.0
 10
2.8495257703
 20
19.1741948931
 30
0.0
 10
2.8495257703
 20
19.151015538
 30
0.0
 11
2.8307274909
 21
19.2387873407
 31
0.0
 11
2.8388658474
 21
19.2197316827
 31
0.0
 11
2.8495257703
 21
19.151015538
 31
0.0
  0
SPLINE
  5
4C8
100
AcDbEntity
  8
RACCORDO
100
AcDbSpline
 62
253
  6
CONTINUOUS
 70
0
 71
3
 72
9
 73
5
 74
3
 42
0.0000001
 43
0.0000001
 44
0.0000000001
 12
-0.1030214681
 22
0.0514580411
 32
0.0
 13
-0.1030003995
 23
-0.0515001998
 33
0.0
 40
0.0
 40
0.0
 40
0.0
 40
0.0
 40
0.4639122062
 40
1.0
 40
1.0
 40
1.0
 40
1.0
 10
17.9166335758
 20
14.5892684907
 30
0.0
 10
17.9007026036
 20
14.5972258284
 30
0.0
 10
17.8607405338
 20
14.6038631322
 30
0.0
 10
17.8232399447
 20
14.5913747839
 30
0.0
 10
17.8048341924
 20
14.5821719077
 30
0.0
 11
17.9166335758
 21
14.5892684907
 31
0.0
 11
17.8641545661
 21
14.5992679626
 31
0.0
 11
17.8048341924
 21
14.5821719077
 31
0.0
  0
SPLINE
  5
4C9
100
AcDbEntity
  8
RACCORDO
100
AcDbSpline
 62
253
  6
CONTINUOUS
 70
0
 71
3
 72
9
 73
5
 74
3
 42
0.0000001
 43
0.0000001
 44
0.0000000001
 12
-0.1030200108
 22
0.0514057739
 32
0.0
 13
-0.102978352
 23
-0.051489176
 33
0.0
 40
0.0
 40
0.0
 40
0.0
 40
0.0
 40
0.46393649
 40
1.0
 40
1.0
 40
1.0
 40
1.0
 10
16.5731064508
 20
15.261030675
 30
0.0
 10
16.5571748701
 20
15.2689803465
 30
0.0
 10
16.5172233587
 20
15.2756175324
 30
0.0
 10
16.4797322871
 20
15.2631238393
 30
0.0
 10
16.4613313081
 20
15.2539233498
 30
0.0
 11
16.5731064508
 21
15.261030675
 31
0.0
 11
16.52063452
 21
15.2710211377
 31
0.0
 11
16.4613313081
 21
15.2539233498
 31
0.0
  0
SPLINE
  5
4CA
100
AcDbEntity
  8
RACCORDO
100
AcDbSpline
 62
253
  6
CONTINUOUS
 70
0
 71
3
 72
11
 73
7
 74
5
 42
0.0000001
 43
0.0000001
 44
0.0000000001
 12
0.1282325543
 22
0.3361386034
 32
0.0
 13
-0.321785952
 23
0.160892976
 33
0.0
 40
0.0
 40
0.0
 40
0.0
 40
0.0
 40
0.271130505
 40
0.5346867854
 40
0.7783356466
 40
1.0
 40
1.0
 40
1.0
 40
1.0
 10
17.4512808018
 20
-27.2638059453
 30
0.0
 10
17.4628700542
 20
-27.2334268022
 30
0.0
 10
17.4765342773
 20
-27.169580745
 30
0.0
 10
17.4676739985
 20
-27.0751460936
 30
0.0
 10
17.4304069344
 20
-26.9939210534
 30
0.0
 10
17.3866686125
 20
-26.955611503
 30
0.0
 10
17.3628924541
 20
-26.9437234238
 30
0.0
 11
17.4512808018
 21
-27.2638059453
 31
0.0
 11
17.4716492334
 21
-27.1684122613
 31
0.0
 11
17.4620041065
 21
-27.0740850762
 31
0.0
 11
17.4238138043
 21
-26.9951848489
 31
0.0
 11
17.3628924541
 21
-26.9437234238
 31
0.0
  0
SPLINE
  5
4CB
100
AcDbEntity
  8
RACCORDO
100
AcDbSpline
 62
253
  6
CONTINUOUS
 70
0
 71
3
 72
11
 73
7
 74
5
 42
0.0000001
 43
0.0000001
 44
0.0000000001
 12
0.0
 22
-0.1203158962
 32
0.0
 13
-0.107613809
 23
-0.0538069045
 33
0.0
 40
0.0
 40
0.0
 40
0.0
 40
0.0
 40
0.2064758915
 40
0.434520967
 40
0.6981193998
 40
1.0
 40
1.0
 40
1.0
 40
1.0
 10
18.0548341924
 20
14.3656655567
 30
0.0
 10
18.0548341924
 20
14.3573847794
 30
0.0
 10
18.0511631671
 20
14.3398293859
 30
0.0
 10
18.0358938395
 20
14.3158343157
 30
0.0
 10
18.0120307716
 20
14.2943650831
 30
0.0
 10
17.9924397281
 20
14.2826916293
 30
0.0
 10
17.9816108877
 20
14.2772772091
 30
0.0
 11
18.0548341924
 21
14.3656655567
 31
0.0
 11
18.0500283549
 21
14.3412925105
 31
0.0
 11
18.0358040755
 21
14.3178301277
 31
0.0
 11
18.0126201163
 21
14.296188722
 31
0.0
 11
17.9816108877
 21
14.2772772091
 31
0.0
  0
SPLINE
  5
4CC
100
AcDbEntity
  8
RACCORDO
100
AcDbSpline
 62
253
  6
CONTINUOUS
 70
0
 71
3
 72
11
 73
7
 74
5
 42
0.0000001
 43
0.0000001
 44
0.0000000001
 12
0.0
 22
-0.1203158962
 32
0.0
 13
-0.107613809
 23
-0.0538069045
 33
0.0
 40
0.0
 40
0.0
 40
0.0
 40
0.0
 40
0.2064758915
 40
0.434520967
 40
0.6981193998
 40
1.0
 40
1.0
 40
1.0
 40
1.0
 10
18.0548341924
 20
14.0143515847
 30
0.0
 10
18.0548341924
 20
14.0060708074
 30
0.0
 10
18.0511631671
 20
13.9885154138
 30
0.0
 10
18.0358938395
 20
13.9645203436
 30
0.0
 10
18.0120307716
 20
13.943051111
 30
0.0
 10
17.9924397281
 20
13.9313776572
 30
0.0
 10
17.9816108877
 20
13.925963237
 30
0.0
 11
18.0548341924
 21
14.0143515847
 31
0.0
 11
18.0500283549
 21
13.9899785385
 31
0.0
 11
18.0358040755
 21
13.9665161556
 31
0.0
 11
18.0126201163
 21
13.9448747499
 31
0.0
 11
17.9816108877
 21
13.925963237
 31
0.0
  0
SPLINE
  5
4CD
100
AcDbEntity
  8
RACCORDO
100
AcDbSpline
 62
253
  6
CONTINUOUS
 70
0
 71
3
 72
8
 73
4
 74
2
 42
0.0000001
 43
0.0000001
 44
0.0000000001
 12
0.0459306667
 22
0.120398991
 32
0.0
 13
-0.0060601394
 23
0.1287199203
 33
0.0
 40
0.0
 40
0.0
 40
0.0
 40
0.0
 40
1.0
 40
1.0
 40
1.0
 40
1.0
 10
17.9816108877
 20
-27.3736409024
 30
0.0
 10
17.9969211099
 20
-27.3335079054
 30
0.0
 10
18.0041610831
 20
-27.2893309706
 30
0.0
 10
18.0021410366
 20
-27.2464243305
 30
0.0
 11
17.9816108877
 21
-27.3736409024
 31
0.0
 11
18.0021410366
 21
-27.2464243305
 31
0.0
  0
SPLINE
  5
4CE
100
AcDbEntity
  8
RACCORDO
100
AcDbSpline
 62
253
  6
CONTINUOUS
 70
0
 71
3
 72
9
 73
5
 74
3
 42
0.0000001
 43
0.0000001
 44
0.0000000001
 12
-0.0029646583
 22
0.0629705942
 32
0.0
 13
-0.0167103605
 23
0.0607852678
 33
0.0
 40
0.0
 40
0.0
 40
0.0
 40
0.0
 40
0.2541760267
 40
1.0
 40
1.0
 40
1.0
 40
1.0
 10
18.0021410366
 20
-27.2464243305
 30
0.0
 10
18.001889855
 20
-27.2410891253
 30
0.0
 10
18.0003467723
 20
-27.2201304913
 30
0.0
 10
17.9965686447
 20
-27.1993225318
 30
0.0
 10
17.9924143155
 20
-27.1842108285
 30
0.0
 11
18.0021410366
 21
-27.2464243305
 31
0.0
 11
18.0009610296
 21
-27.2304444951
 31
0.0
 11
17.9924143155
 21
-27.1842108285
 31
0.0
  0
SPLINE
  5
4CF
100
AcDbEntity
  8
RACCORDO
100
AcDbSpline
 62
253
  6
CONTINUOUS
 70
0
 71
3
 72
9
 73
5
 74
3
 42
0.0000001
 43
0.0000001
 44
0.0000000001
 12
-0.0430761083
 22
0.1054895695
 32
0.0
 13
-0.093146532
 23
0.0656302061
 33
0.0
 40
0.0
 40
0.0
 40
0.0
 40
0.0
 40
0.5160521127
 40
1.0
 40
1.0
 40
1.0
 40
1.0
 10
17.9826588144
 20
-27.1554721268
 30
0.0
 10
17.9752489755
 20
-27.1373260884
 30
0.0
 10
17.9566042541
 20
-27.1036676183
 30
0.0
 10
17.929013368
 20
-27.0765878826
 30
0.0
 10
17.9139873456
 20
-27.0660006827
 30
0.0
 11
17.9826588144
 21
-27.1554721268
 31
0.0
 11
17.9536232286
 21
-27.1043390205
 31
0.0
 11
17.9139873456
 21
-27.0660006827
 31
0.0
  0
SPLINE
  5
4D0
100
AcDbEntity
  8
RACCORDO
100
AcDbSpline
 62
253
  6
CONTINUOUS
 70
0
 71
3
 72
11
 73
7
 74
5
 42
0.0000001
 43
0.0000001
 44
0.0000000001
 12
0.0
 22
-0.3637747172
 32
0.0
 13
0.3562153171
 23
-0.0737746077
 33
0.0
 40
0.0
 40
0.0
 40
0.0
 40
0.0
 40
0.2934021086
 40
0.5509410244
 40
0.78010513
 40
1.0
 40
1.0
 40
1.0
 40
1.0
 10
17.2745041065
 20
-26.977194293
 30
0.0
 10
17.2745041065
 20
-27.012771716
 30
0.0
 10
17.2811271075
 20
-27.0799532486
 30
0.0
 10
17.3154353384
 20
-27.1696771579
 30
0.0
 10
17.3734128485
 20
-27.235790627
 30
0.0
 10
17.4251708282
 20
-27.2583983927
 30
0.0
 10
17.4512808018
 20
-27.2638059453
 30
0.0
 11
17.2745041065
 21
-26.977194293
 31
0.0
 11
17.2865516388
 21
-27.0832444426
 31
0.0
 11
17.3218716495
 21
-27.1700176576
 31
0.0
 11
17.3780568846
 21
-27.2316033199
 31
0.0
 11
17.4512808018
 21
-27.2638059453
 31
0.0
  0
SPLINE
  5
4D1
100
AcDbEntity
  8
RACCORDO
100
AcDbSpline
 62
253
  6
CONTINUOUS
 70
0
 71
3
 72
11
 73
7
 74
5
 42
0.0000001
 43
0.0000001
 44
0.0000000001
 12
0.0
 22
0.3637747172
 32
0.0
 13
-0.3562153171
 23
0.0737746077
 33
0.0
 40
0.0
 40
0.0
 40
0.0
 40
0.0
 40
0.2934021086
 40
0.5509410244
 40
0.78010513
 40
1.0
 40
1.0
 40
1.0
 40
1.0
 10
16.5673973253
 20
12.4688564558
 30
0.0
 10
16.5673973253
 20
12.5044338789
 30
0.0
 10
16.5607743243
 20
12.5716154115
 30
0.0
 10
16.5264660934
 20
12.6613393207
 30
0.0
 10
16.4684885832
 20
12.7274527899
 30
0.0
 10
16.4167306036
 20
12.7500605556
 30
0.0
 10
16.39062063
 20
12.7554681082
 30
0.0
 11
16.5673973253
 21
12.4688564558
 31
0.0
 11
16.555349793
 21
12.5749066055
 31
0.0
 11
16.5200297823
 21
12.6616798205
 31
0.0
 11
16.4638445472
 21
12.7232654828
 31
0.0
 11
16.39062063
 21
12.7554681082
 31
0.0
  0
SPLINE
  5
4D2
100
AcDbEntity
  8
RACCORDO
100
AcDbSpline
 62
253
  6
CONTINUOUS
 70
0
 71
3
 72
11
 73
7
 74
5
 42
0.0000001
 43
0.0000001
 44
0.0000000001
 12
-0.1063646839
 22
-0.2788159098
 32
0.0
 13
-0.2922163674
 23
0.0605091078
 33
0.0
 40
0.0
 40
0.0
 40
0.0
 40
0.0
 40
0.2770958208
 40
0.5368340029
 40
0.7754612626
 40
1.0
 40
1.0
 40
1.0
 40
1.0
 10
16.39062063
 20
12.7554681082
 30
0.0
 10
16.3807962269
 20
12.7297152004
 30
0.0
 10
16.355034965
 20
12.6820189259
 30
0.0
 10
16.2994366186
 20
12.6267592108
 30
0.0
 10
16.2327971928
 20
12.5955177804
 30
0.0
 10
16.1850213633
 20
12.5945559256
 30
0.0
 10
16.1631500653
 20
12.5990848051
 30
0.0
 11
16.39062063
 21
12.7554681082
 31
0.0
 11
16.3508108693
 21
12.682992158
 31
0.0
 11
16.2951498552
 21
12.629051149
 31
0.0
 11
16.2301500801
 21
12.5999667768
 31
0.0
 11
16.1631500653
 21
12.5990848051
 31
0.0
  0
SPLINE
  5
4D3
100
AcDbEntity
  8
RACCORDO
100
AcDbSpline
 62
253
  6
CONTINUOUS
 70
0
 71
3
 72
11
 73
7
 74
5
 42
0.0000001
 43
0.0000001
 44
0.0000000001
 12
-0.1063646839
 22
-0.2788159098
 32
0.0
 13
-0.2922163674
 23
0.0605091078
 33
0.0
 40
0.0
 40
0.0
 40
0.0
 40
0.0
 40
0.2770958208
 40
0.5368340029
 40
0.7754612626
 40
1.0
 40
1.0
 40
1.0
 40
1.0
 10
15.8602905441
 20
12.8653030652
 30
0.0
 10
15.850466141
 20
12.8395501575
 30
0.0
 10
15.8247048791
 20
12.7918538829
 30
0.0
 10
15.7691065327
 20
12.7365941679
 30
0.0
 10
15.7024671069
 20
12.7053527375
 30
0.0
 10
15.6546912774
 20
12.7043908826
 30
0.0
 10
15.6328199794
 20
12.7089197622
 30
0.0
 11
15.8602905441
 21
12.8653030652
 31
0.0
 11
15.8204807834
 21
12.792827115
 31
0.0
 11
15.7648197693
 21
12.7388861061
 31
0.0
 11
15.6998199942
 21
12.7098017339
 31
0.0
 11
15.6328199794
 21
12.7089197622
 31
0.0
  0
SPLINE
  5
4D4
100
AcDbEntity
  8
RACCORDO
100
AcDbSpline
 62
253
  6
CONTINUOUS
 70
0
 71
3
 72
11
 73
7
 74
5
 42
0.0000001
 43
0.0000001
 44
0.0000000001
 12
0.0
 22
-0.1574168885
 32
0.0
 13
0.1407597042
 23
-0.0704754033
 33
0.0
 40
0.0
 40
0.0
 40
0.0
 40
0.0
 40
0.2893557828
 40
0.5494994154
 40
0.7826671555
 40
1.0
 40
1.0
 40
1.0
 40
1.0
 10
15.5067371535
 20
12.8653030652
 30
0.0
 10
15.5067371535
 20
12.8501199029
 30
0.0
 10
15.5092227615
 20
12.82118221
 30
0.0
 10
15.5215343488
 20
12.7815864071
 30
0.0
 10
15.5422049655
 20
12.7498568993
 30
0.0
 10
15.5615157122
 20
12.7352143482
 30
0.0
 10
15.5717129479
 20
12.7301088083
 30
0.0
 11
15.5067371535
 21
12.8653030652
 31
0.0
 11
15.5110624849
 21
12.8199594077
 31
0.0
 11
15.523791042
 21
12.7810368136
 31
0.0
 11
15.5443283026
 21
12.7506156993
 31
0.0
 11
15.5717129479
 21
12.7301088083
 31
0.0
  0
SPLINE
  5
4D5
100
AcDbEntity
  8
RACCORDO
100
AcDbSpline
 62
253
  6
CONTINUOUS
 70
0
 71
3
 72
11
 73
7
 74
5
 42
0.0000001
 43
0.0000001
 44
0.0000000001
 12
0.0
 22
-0.1574253087
 32
0.0
 13
0.1407691098
 23
-0.0704754252
 33
0.0
 40
0.0
 40
0.0
 40
0.0
 40
0.0
 40
0.2893385886
 40
0.5494402709
 40
0.7826225719
 40
1.0
 40
1.0
 40
1.0
 40
1.0
 10
14.1632342693
 20
13.5370545074
 30
0.0
 10
14.1632342693
 20
13.5218714352
 30
0.0
 10
14.1657171111
 20
13.4929348327
 30
0.0
 10
14.1780314167
 20
13.4533402916
 30
0.0
 10
14.1987016717
 20
13.4216066406
 30
0.0
 10
14.2180183645
 20
13.4069641789
 30
0.0
 10
14.2282183735
 20
13.40185759
 30
0.0
 11
14.1632342693
 21
13.5370545074
 31
0.0
 11
14.167558153
 21
13.4917109834
 31
0.0
 11
14.1802860838
 21
13.452792828
 31
0.0
 11
14.2008251657
 21
13.4223678087
 31
0.0
 11
14.2282183735
 21
13.40185759
 31
0.0
  0
SPLINE
  5
4D6
100
AcDbEntity
  8
RACCORDO
100
AcDbSpline
 62
253
  6
CONTINUOUS
 70
0
 71
3
 72
9
 73
5
 74
3
 42
0.0000001
 43
0.0000001
 44
0.0000000001
 12
0.1005381304
 22
0.0419104889
 32
0.0
 13
0.0974244518
 23
-0.0487122259
 33
0.0
 40
0.0
 40
0.0
 40
0.0
 40
0.0
 40
0.4649319752
 40
1.0
 40
1.0
 40
1.0
 40
1.0
 10
16.3553788612
 20
15.2636944347
 30
0.0
 10
16.3709599917
 20
15.2701896102
 30
0.0
 10
16.4087253488
 20
15.2745884132
 30
0.0
 10
16.4439550718
 20
15.262611468
 30
0.0
 10
16.4613313081
 20
15.2539233498
 30
0.0
 11
16.3553788612
 21
15.2636944347
 31
0.0
 11
16.4055285288
 21
15.2707400883
 31
0.0
 11
16.4613313081
 21
15.2539233498
 31
0.0
  0
SPLINE
  5
4D7
100
AcDbEntity
  8
RACCORDO
100
AcDbSpline
 62
253
  6
CONTINUOUS
 70
0
 71
3
 72
9
 73
5
 74
3
 42
0.0000001
 43
0.0000001
 44
0.0000000001
 12
0.1029630562
 22
0.0511342226
 32
0.0
 13
0.1028245094
 23
-0.0514122547
 33
0.0
 40
0.0
 40
0.0
 40
0.0
 40
0.0
 40
0.4639602036
 40
1.0
 40
1.0
 40
1.0
 40
1.0
 10
14.228395
 20
14.2004497432
 30
0.0
 10
14.2443185868
 20
14.2083578247
 30
0.0
 10
14.284210579
 20
14.2149291773
 30
0.0
 10
14.3216382882
 20
14.2024495162
 30
0.0
 10
14.3400109646
 20
14.193263178
 30
0.0
 11
14.228395
 21
14.2004497432
 31
0.0
 11
14.2808047212
 21
14.2103546134
 31
0.0
 11
14.3400109646
 21
14.193263178
 31
0.0
  0
SPLINE
  5
4D8
100
AcDbEntity
  8
RACCORDO
100
AcDbSpline
 62
253
  6
CONTINUOUS
 70
0
 71
3
 72
11
 73
7
 74
5
 42
0.0000001
 43
0.0000001
 44
0.0000000001
 12
0.0000009308
 22
-0.1203157153
 32
0.0
 13
0.1076136473
 23
-0.0538068236
 33
0.0
 40
0.0
 40
0.0
 40
0.0
 40
0.0
 40
0.2065137508
 40
0.4345667416
 40
0.6981210498
 40
1.0
 40
1.0
 40
1.0
 40
1.0
 10
14.0900109441
 20
13.9767568393
 30
0.0
 10
14.0900110082
 20
13.9684745561
 30
0.0
 10
14.0936868693
 20
13.9509182648
 30
0.0
 10
14.1089529838
 20
13.9269222029
 30
0.0
 10
14.1328144777
 20
13.9054525309
 30
0.0
 10
14.1524055043
 20
13.8937828619
 30
0.0
 10
14.1632342693
 20
13.8883684794
 30
0.0
 11
14.0900109441
 21
13.9767568393
 31
0.0
 11
14.0948205968
 21
13.9523799408
 31
0.0
 11
14.1090446097
 21
13.928916331
 31
0.0
 11
14.1322241424
 21
13.9072780333
 31
0.0
 11
14.1632342693
 21
13.8883684794
 31
0.0
  0
SPLINE
  5
4D9
100
AcDbEntity
  8
RACCORDO
100
AcDbSpline
 62
253
  6
CONTINUOUS
 70
0
 71
3
 72
11
 73
7
 74
5
 42
0.0000001
 43
0.0000001
 44
0.0000000001
 12
0.0
 22
-0.1203158962
 32
0.0
 13
0.107613809
 23
-0.0538069045
 33
0.0
 40
0.0
 40
0.0
 40
0.0
 40
0.0
 40
0.2064758915
 40
0.434520967
 40
0.6981193998
 40
1.0
 40
1.0
 40
1.0
 40
1.0
 10
14.0900109646
 20
13.625442855
 30
0.0
 10
14.0900109646
 20
13.6171620777
 30
0.0
 10
14.0936819899
 20
13.5996066841
 30
0.0
 10
14.1089513174
 20
13.575611614
 30
0.0
 10
14.1328143853
 20
13.5541423813
 30
0.0
 10
14.1524054288
 20
13.5424689276
 30
0.0
 10
14.1632342693
 20
13.5370545074
 30
0.0
 11
14.0900109646
 21
13.625442855
 31
0.0
 11
14.0948168021
 21
13.6010698088
 31
0.0
 11
14.1090410814
 21
13.577607426
 31
0.0
 11
14.1322250407
 21
13.5559660203
 31
0.0
 11
14.1632342693
 21
13.5370545074
 31
0.0
  0
SPLINE
  5
4DA
100
AcDbEntity
  8
RACCORDO
100
AcDbSpline
 62
253
  6
CONTINUOUS
 70
0
 71
3
 72
9
 73
5
 74
3
 42
0.0000001
 43
0.0000001
 44
0.0000000001
 12
0.0521414017
 22
-0.0307159736
 32
0.0
 13
0.0277387884
 23
-0.0537843511
 33
0.0
 40
0.0
 40
0.0
 40
0.0
 40
0.0
 40
0.2410446835
 40
1.0
 40
1.0
 40
1.0
 40
1.0
 10
16.1545467977
 20
12.6009594307
 30
0.0
 10
16.1587362669
 20
12.5984914566
 30
0.0
 10
16.1753486583
 20
12.5869370154
 30
0.0
 10
16.1880281551
 20
12.5702348982
 30
0.0
 10
16.1950456554
 20
12.5566282585
 30
0.0
 11
16.1545467977
 21
12.6009594307
 31
0.0
 11
16.166516413
 21
12.5926220903
 31
0.0
 11
16.1950456554
 21
12.5566282585
 31
0.0
  0
SPLINE
  5
4DB
100
AcDbEntity
  8
RACCORDO
100
AcDbSpline
 62
253
  6
CONTINUOUS
 70
0
 71
3
 72
9
 73
5
 74
3
 42
0.0000001
 43
0.0000001
 44
0.0000000001
 12
0.0413719933
 22
-0.0802185656
 32
0.0
 13
0.0
 23
-0.0902588505
 33
0.0
 40
0.0
 40
0.0
 40
0.0
 40
0.0
 40
0.2295706774
 40
1.0
 40
1.0
 40
1.0
 40
1.0
 10
16.1950456554
 20
12.5566282585
 30
0.0
 10
16.1982115875
 20
12.5504896484
 30
0.0
 10
16.2099394238
 20
12.5226825433
 30
0.0
 10
16.2138439347
 20
12.4920358108
 30
0.0
 10
16.2138439347
 20
12.4688564558
 30
0.0
 11
16.1950456554
 21
12.5566282585
 31
0.0
 11
16.2031840118
 21
12.5375726005
 31
0.0
 11
16.2138439347
 21
12.4688564558
 31
0.0
  0
SPLINE
  5
4DC
100
AcDbEntity
  8
RACCORDO
100
AcDbSpline
 62
253
  6
CONTINUOUS
 70
0
 71
3
 72
9
 73
5
 74
3
 42
0.0000001
 43
0.0000001
 44
0.0000000001
 12
0.000018338
 22
-0.0977596867
 32
0.0
 13
0.0832907687
 23
-0.0511820725
 33
0.0
 40
0.0
 40
0.0
 40
0.0
 40
0.0
 40
0.43756309
 40
1.0
 40
1.0
 40
1.0
 40
1.0
 10
14.7971289841
 20
12.9250911626
 30
0.0
 10
14.7971316588
 20
12.9108324858
 30
0.0
 10
14.8105932961
 20
12.8784043806
 30
0.0
 10
14.8370955025
 20
12.8580690606
 30
0.0
 10
14.85271077
 20
12.8484734984
 30
0.0
 11
14.7971289841
 21
12.9250911626
 31
0.0
 11
14.8114090564
 21
12.8847691042
 31
0.0
 11
14.85271077
 21
12.8484734984
 31
0.0
  0
SPLINE
  5
4DD
100
AcDbEntity
  8
RACCORDO
100
AcDbSpline
 62
253
  6
CONTINUOUS
 70
0
 71
3
 72
9
 73
5
 74
3
 42
0.0000001
 43
0.0000001
 44
0.0000000001
 12
0.0918363946
 22
0.0459181973
 32
0.0
 13
0.0261734454
 23
0.0992842131
 33
0.0
 40
0.0
 40
0.0
 40
0.0
 40
0.0
 40
0.2979219667
 40
1.0
 40
1.0
 40
1.0
 40
1.0
 10
17.2745041065
 20
-26.977194293
 30
0.0
 10
17.2836241329
 20
-26.9726342797
 30
0.0
 10
17.312956646
 20
-26.9557735388
 30
0.0
 10
17.3394563191
 20
-26.9283563437
 30
0.0
 10
17.3455815862
 20
-26.9051212553
 30
0.0
 11
17.2745041065
 21
-26.977194293
 31
0.0
 11
17.3008502971
 21
-26.9616509451
 31
0.0
 11
17.3455815862
 21
-26.9051212553
 31
0.0
  0
SPLINE
  5
4DE
100
AcDbEntity
  8
RACCORDO
100
AcDbSpline
 62
253
  6
CONTINUOUS
 70
0
 71
3
 72
8
 73
4
 74
2
 42
0.0000001
 43
0.0000001
 44
0.0000000001
 12
0.0041947927
 22
0.0159121846
 32
0.0
 13
0.0
 23
0.0164558168
 33
0.0
 40
0.0
 40
0.0
 40
0.0
 40
0.0
 40
1.0
 40
1.0
 40
1.0
 40
1.0
 10
17.3455815862
 20
-26.9051212553
 30
0.0
 10
17.3469798504
 20
-26.8998171938
 30
0.0
 10
17.3477274112
 20
-26.8942912176
 30
0.0
 10
17.3477274112
 20
-26.8888059453
 30
0.0
 11
17.3455815862
 21
-26.9051212553
 31
0.0
 11
17.3477274112
 21
-26.8888059453
 31
0.0
  0
SPLINE
  5
4DF
100
AcDbEntity
  8
RACCORDO
100
AcDbSpline
 62
253
  6
CONTINUOUS
 70
0
 71
3
 72
9
 73
5
 74
3
 42
0.0000001
 43
0.0000001
 44
0.0000000001
 12
-0.0618068848
 22
-0.193173312
 32
0.0
 13
0.0
 23
-0.2028201654
 33
0.0
 40
0.0
 40
0.0
 40
0.0
 40
0.0
 40
0.2612978907
 40
1.0
 40
1.0
 40
1.0
 40
1.0
 10
17.3076597603
 20
13.0220614625
 30
0.0
 10
17.3022764241
 20
13.0052362029
 30
0.0
 10
17.2838966933
 20
12.9401876917
 30
0.0
 10
17.2745041065
 20
12.8723510744
 30
0.0
 10
17.2745041065
 20
12.8224098464
 30
0.0
 11
17.3076597603
 21
13.0220614625
 31
0.0
 11
17.2932848658
 21
12.971051763
 31
0.0
 11
17.2745041065
 21
12.8224098464
 31
0.0
  0
SPLINE
  5
4E0
100
AcDbEntity
  8
RACCORDO
100
AcDbSpline
 62
253
  6
CONTINUOUS
 70
0
 71
3
 72
11
 73
7
 74
5
 42
0.0000001
 43
0.0000001
 44
0.0000000001
 12
0.107613809
 22
0.0538069045
 32
0.0
 13
0.0
 23
0.1203158962
 33
0.0
 40
0.0
 40
0.0
 40
0.0
 40
0.0
 40
0.3018806002
 40
0.565479033
 40
0.7935241085
 40
1.0
 40
1.0
 40
1.0
 40
1.0
 10
17.2745041065
 20
12.8224098464
 30
0.0
 10
17.2853329469
 20
12.8278242666
 30
0.0
 10
17.3049239904
 20
12.8394977204
 30
0.0
 10
17.3287870583
 20
12.860966953
 30
0.0
 10
17.3440563859
 20
12.8849620232
 30
0.0
 10
17.3477274112
 20
12.9025174168
 30
0.0
 10
17.3477274112
 20
12.9107981941
 30
0.0
 11
17.2745041065
 21
12.8224098464
 31
0.0
 11
17.3055133351
 21
12.8413213594
 31
0.0
 11
17.3286972943
 21
12.862962765
 31
0.0
 11
17.3429215737
 21
12.8864251479
 31
0.0
 11
17.3477274112
 21
12.9107981941
 31
0.0
  0
SPLINE
  5
4E1
100
AcDbEntity
  8
RACCORDO
100
AcDbSpline
 62
253
  6
CONTINUOUS
 70
0
 71
3
 72
10
 73
6
 74
4
 42
0.0000001
 43
0.0000001
 44
0.0000000001
 12
0.0397153903
 22
-0.0643913703
 32
0.0
 13
-0.0481240378
 23
-0.0583749757
 33
0.0
 40
0.0
 40
0.0
 40
0.0
 40
0.0
 40
0.3492103718
 40
0.6297772923
 40
1.0
 40
1.0
 40
1.0
 40
1.0
 10
17.9816108877
 20
13.925963237
 30
0.0
 10
17.9862338964
 20
13.9184678589
 30
0.0
 10
17.993910431
 20
13.9043321495
 30
0.0
 10
18.0029199841
 20
13.8814107613
 30
0.0
 10
18.0033052301
 20
13.8620918109
 30
0.0
 10
17.9973663596
 20
13.854887897
 30
0.0
 11
17.9816108877
 21
13.925963237
 31
0.0
 11
17.9941314334
 21
13.9026992722
 31
0.0
 11
18.0010940565
 21
13.8826476394
 31
0.0
 11
17.9973663596
 21
13.854887897
 31
0.0
  0
SPLINE
  5
4E2
100
AcDbEntity
  8
RACCORDO
100
AcDbSpline
 62
253
  6
CONTINUOUS
 70
0
 71
3
 72
10
 73
6
 74
4
 42
0.0000001
 43
0.0000001
 44
0.0000000001
 12
0.0397280143
 22
-0.0644118378
 32
0.0
 13
-0.0482235685
 23
-0.0583239866
 33
0.0
 40
0.0
 40
0.0
 40
0.0
 40
0.0
 40
0.3492690482
 40
0.6298549571
 40
1.0
 40
1.0
 40
1.0
 40
1.0
 10
17.4512808018
 20
13.2857981941
 30
0.0
 10
17.455906057
 20
13.2782991736
 30
0.0
 10
17.4635848665
 20
13.2641562623
 30
0.0
 10
17.4725959461
 20
13.2412283301
 30
0.0
 10
17.4729691457
 20
13.2218978936
 30
0.0
 10
17.4670192408
 20
13.2147017821
 30
0.0
 11
17.4512808018
 21
13.2857981941
 31
0.0
 11
17.4638062538
 21
13.2625222904
 31
0.0
 11
17.470768105
 21
13.2424617266
 31
0.0
 11
17.4670192408
 21
13.2147017821
 31
0.0
  0
SPLINE
  5
4E3
100
AcDbEntity
  8
RACCORDO
100
AcDbSpline
 62
253
  6
CONTINUOUS
 70
0
 71
3
 72
9
 73
5
 74
3
 42
0.0000001
 43
0.0000001
 44
0.0000000001
 12
0.0959985305
 22
0.0468453926
 32
0.0
 13
0.1067318567
 23
-0.0043034213
 33
0.0
 40
0.0
 40
0.0
 40
0.0
 40
0.0
 40
0.245316102
 40
1.0
 40
1.0
 40
1.0
 40
1.0
 10
1.3065592272
 20
19.5526042575
 30
0.0
 10
1.3144092223
 20
19.5564349005
 30
0.0
 10
1.3474196704
 20
19.5699594138
 30
0.0
 10
1.3838292994
 20
19.5745507544
 30
0.0
 10
1.410678904
 20
19.5734681801
 30
0.0
 11
1.3065592272
 21
19.5526042575
 31
0.0
 11
1.3308097739
 21
19.5625328641
 31
0.0
 11
1.410678904
 21
19.5734681801
 31
0.0
  0
SPLINE
  5
4E4
100
AcDbEntity
  8
RACCORDO
100
AcDbSpline
 62
253
  6
CONTINUOUS
 70
0
 71
3
 72
11
 73
7
 74
5
 42
0.0000001
 43
0.0000001
 44
0.0000000001
 12
0.3283037813
 22
-0.1641518906
 32
0.0
 13
0.0
 23
-0.3670547861
 33
0.0
 40
0.0
 40
0.0
 40
0.0
 40
0.0
 40
0.2296876225
 40
0.4882493672
 40
0.7532523129
 40
1.0
 40
1.0
 40
1.0
 40
1.0
 10
17.8048341924
 20
14.5821719077
 30
0.0
 10
17.829969964
 20
14.5696040219
 30
0.0
 10
17.8780010119
 20
14.5320265655
 30
0.0
 10
17.9334620042
 20
14.4574234098
 30
0.0
 10
17.9711938261
 20
14.3701884161
 30
0.0
 10
17.9816108877
 20
14.3074671823
 30
0.0
 10
17.9816108877
 20
14.2772772091
 30
0.0
 11
17.8048341924
 21
14.5821719077
 31
0.0
 11
17.8724867649
 21
14.5318632765
 31
0.0
 11
17.9298406629
 21
14.4562475302
 31
0.0
 11
17.9681596191
 21
14.3668426807
 31
0.0
 11
17.9816108877
 21
14.2772772091
 31
0.0
  0
SPLINE
  5
4E5
100
AcDbEntity
  8
RACCORDO
100
AcDbSpline
 62
253
  6
CONTINUOUS
 70
0
 71
3
 72
11
 73
7
 74
5
 42
0.0000001
 43
0.0000001
 44
0.0000000001
 12
0.3283037813
 22
-0.1641518906
 32
0.0
 13
0.0
 23
-0.3670547861
 33
0.0
 40
0.0
 40
0.0
 40
0.0
 40
0.0
 40
0.2296876225
 40
0.4882493672
 40
0.7532523129
 40
1.0
 40
1.0
 40
1.0
 40
1.0
 10
15.6835138488
 20
13.5215117359
 30
0.0
 10
15.7086496205
 20
13.5089438501
 30
0.0
 10
15.7566806684
 20
13.4713663937
 30
0.0
 10
15.8121416606
 20
13.396763238
 30
0.0
 10
15.8498734826
 20
13.3095282443
 30
0.0
 10
15.8602905441
 20
13.2468070105
 30
0.0
 10
15.8602905441
 20
13.2166170373
 30
0.0
 11
15.6835138488
 21
13.5215117359
 31
0.0
 11
15.7511664213
 21
13.4712031047
 31
0.0
 11
15.8085203193
 21
13.3955873585
 31
0.0
 11
15.8468392755
 21
13.3061825089
 31
0.0
 11
15.8602905441
 21
13.2166170373
 31
0.0
  0
SPLINE
  5
4E6
100
AcDbEntity
  8
RACCORDO
100
AcDbSpline
 62
253
  6
CONTINUOUS
 70
0
 71
3
 72
11
 73
7
 74
5
 42
0.0000001
 43
0.0000001
 44
0.0000000001
 12
-0.3283037813
 22
-0.1641518906
 32
0.0
 13
0.0
 23
-0.3670547861
 33
0.0
 40
0.0
 40
0.0
 40
0.0
 40
0.0
 40
0.2296876225
 40
0.4882493672
 40
0.7532523129
 40
1.0
 40
1.0
 40
1.0
 40
1.0
 10
15.6835138488
 20
13.5215117359
 30
0.0
 10
15.6583780772
 20
13.5089438501
 30
0.0
 10
15.6103470293
 20
13.4713663937
 30
0.0
 10
15.554886037
 20
13.396763238
 30
0.0
 10
15.5171542151
 20
13.3095282443
 30
0.0
 10
15.5067371535
 20
13.2468070105
 30
0.0
 10
15.5067371535
 20
13.2166170373
 30
0.0
 11
15.6835138488
 21
13.5215117359
 31
0.0
 11
15.6158612763
 21
13.4712031047
 31
0.0
 11
15.5585073783
 21
13.3955873585
 31
0.0
 11
15.5201884221
 21
13.3061825089
 31
0.0
 11
15.5067371535
 21
13.2166170373
 31
0.0
  0
SPLINE
  5
4E7
100
AcDbEntity
  8
RACCORDO
100
AcDbSpline
 62
253
  6
CONTINUOUS
 70
0
 71
3
 72
11
 73
7
 74
5
 42
0.0000001
 43
0.0000001
 44
0.0000000001
 12
-0.3283037267
 22
-0.1641518634
 32
0.0
 13
0.0
 23
-0.3670547251
 33
0.0
 40
0.0
 40
0.0
 40
0.0
 40
0.0
 40
0.2296755894
 40
0.4882147766
 40
0.7532068921
 40
1.0
 40
1.0
 40
1.0
 40
1.0
 10
14.3400109646
 20
14.193263178
 30
0.0
 10
14.3148765139
 20
14.1806959527
 30
0.0
 10
14.2668484399
 20
14.1431219167
 30
0.0
 10
14.2113891947
 20
14.0685244523
 30
0.0
 10
14.1736545455
 20
13.9812893829
 30
0.0
 10
14.1632342693
 20
13.9185640049
 30
0.0
 10
14.1632342693
 20
13.8883684794
 30
0.0
 11
14.3400109646
 21
14.193263178
 31
0.0
 11
14.272361452
 21
14.1429578571
 31
0.0
 11
14.2150109646
 21
14.067349936
 31
0.0
 11
14.176690594
 21
13.9779500353
 31
0.0
 11
14.1632342693
 21
13.8883684794
 31
0.0
  0
SPLINE
  5
4E8
100
AcDbEntity
  8
RACCORDO
100
AcDbSpline
 62
253
  6
CONTINUOUS
 70
0
 71
3
 72
11
 73
7
 74
5
 42
0.0000001
 43
0.0000001
 44
0.0000000001
 12
-0.3249549506
 22
-0.1624774753
 32
0.0
 13
-0.3249549506
 23
0.1624774753
 33
0.0
 40
0.0
 40
0.0
 40
0.0
 40
0.0
 40
0.2353555477
 40
0.4999881527
 40
0.764625342
 40
1.0
 40
1.0
 40
1.0
 40
1.0
 10
15.8602905441
 20
12.8653030652
 30
0.0
 10
15.8347972273
 20
12.8525564068
 30
0.0
 10
15.7762063273
 20
12.8343719845
 30
0.0
 10
15.6835176457
 20
12.8256851067
 30
0.0
 10
15.5908266322
 20
12.8343710381
 30
0.0
 10
15.5322325403
 20
12.8525553719
 30
0.0
 10
15.5067371535
 20
12.8653030652
 30
0.0
 11
15.8602905441
 21
12.8653030652
 31
0.0
 11
15.7791899585
 21
12.8382074288
 31
0.0
 11
15.6835181987
 21
12.8286914118
 31
0.0
 11
15.5878446405
 21
12.8382061751
 31
0.0
 11
15.5067371535
 21
12.8653030652
 31
0.0
  0
SPLINE
  5
4E9
100
AcDbEntity
  8
RACCORDO
100
AcDbSpline
 62
253
  6
CONTINUOUS
 70
0
 71
3
 72
11
 73
7
 74
5
 42
0.0000001
 43
0.0000001
 44
0.0000000001
 12
-0.324954929
 22
-0.1624774645
 32
0.0
 13
-0.324954929
 23
0.1624774645
 33
0.0
 40
0.0
 40
0.0
 40
0.0
 40
0.0
 40
0.2353701082
 40
0.5
 40
0.7646298918
 40
1.0
 40
1.0
 40
1.0
 40
1.0
 10
15.8602905441
 20
13.2166170373
 30
0.0
 10
15.8347956519
 20
13.2038695912
 30
0.0
 10
15.7762030539
 20
13.1856854654
 30
0.0
 10
15.6835138488
 20
13.1769991468
 30
0.0
 10
15.5908246438
 20
13.1856854654
 30
0.0
 10
15.5322320458
 20
13.2038695912
 30
0.0
 10
15.5067371535
 20
13.2166170373
 30
0.0
 11
15.8602905441
 21
13.2166170373
 31
0.0
 11
15.7791847069
 21
13.1895204434
 31
0.0
 11
15.6835138488
 21
13.180005385
 31
0.0
 11
15.5878429907
 21
13.1895204434
 31
0.0
 11
15.5067371535
 21
13.2166170373
 31
0.0
  0
SPLINE
  5
4EA
100
AcDbEntity
  8
RACCORDO
100
AcDbSpline
 62
253
  6
CONTINUOUS
 70
0
 71
3
 72
11
 73
7
 74
5
 42
0.0000001
 43
0.0000001
 44
0.0000000001
 12
-0.324954929
 22
-0.1624774645
 32
0.0
 13
-0.324954929
 23
0.1624774645
 33
0.0
 40
0.0
 40
0.0
 40
0.0
 40
0.0
 40
0.2353701082
 40
0.5
 40
0.7646298918
 40
1.0
 40
1.0
 40
1.0
 40
1.0
 10
16.5673973253
 20
12.4688564558
 30
0.0
 10
16.541902433
 20
12.4561090097
 30
0.0
 10
16.4833098351
 20
12.4379248839
 30
0.0
 10
16.39062063
 20
12.4292385653
 30
0.0
 10
16.297931425
 20
12.4379248839
 30
0.0
 10
16.239338827
 20
12.4561090097
 30
0.0
 10
16.2138439347
 20
12.4688564558
 30
0.0
 11
16.5673973253
 21
12.4688564558
 31
0.0
 11
16.4862914881
 21
12.4417598619
 31
0.0
 11
16.39062063
 21
12.4322448035
 31
0.0
 11
16.2949497719
 21
12.4417598619
 31
0.0
 11
16.2138439347
 21
12.4688564558
 31
0.0
  0
SPLINE
  5
4EB
100
AcDbEntity
  8
RACCORDO
100
AcDbSpline
 62
253
  6
CONTINUOUS
 70
0
 71
3
 72
11
 73
7
 74
5
 42
0.0000001
 43
0.0000001
 44
0.0000000001
 12
-0.324954929
 22
-0.1624774645
 32
0.0
 13
-0.324954929
 23
0.1624774645
 33
0.0
 40
0.0
 40
0.0
 40
0.0
 40
0.0
 40
0.2353701082
 40
0.5
 40
0.7646298918
 40
1.0
 40
1.0
 40
1.0
 40
1.0
 10
3.2030791609
 20
19.151015538
 30
0.0
 10
3.1775842686
 20
19.1382680919
 30
0.0
 10
3.1189916706
 20
19.1200839661
 30
0.0
 10
3.0263024656
 20
19.1113976475
 30
0.0
 10
2.9336132605
 20
19.1200839661
 30
0.0
 10
2.8750206625
 20
19.1382680919
 30
0.0
 10
2.8495257703
 20
19.151015538
 30
0.0
 11
3.2030791609
 21
19.151015538
 31
0.0
 11
3.1219733237
 21
19.1239189441
 31
0.0
 11
3.0263024656
 21
19.1144038857
 31
0.0
 11
2.9306316075
 21
19.1239189441
 31
0.0
 11
2.8495257703
 21
19.151015538
 31
0.0
  0
SPLINE
  5
4EC
100
AcDbEntity
  8
RACCORDO
100
AcDbSpline
 62
253
  6
CONTINUOUS
 70
0
 71
3
 72
11
 73
7
 74
5
 42
0.0000001
 43
0.0000001
 44
0.0000000001
 12
0.0
 22
0.3637747172
 32
0.0
 13
-0.3562153171
 23
0.0737746077
 33
0.0
 40
0.0
 40
0.0
 40
0.0
 40
0.0
 40
0.2934021086
 40
0.5509410244
 40
0.78010513
 40
1.0
 40
1.0
 40
1.0
 40
1.0
 10
3.2030791609
 20
19.151015538
 30
0.0
 10
3.2030791609
 20
19.1865929611
 30
0.0
 10
3.1964561599
 20
19.2537744937
 30
0.0
 10
3.162147929
 20
19.3434984029
 30
0.0
 10
3.1041704188
 20
19.4096118721
 30
0.0
 10
3.0524124392
 20
19.4322196378
 30
0.0
 10
3.0263024656
 20
19.4376271904
 30
0.0
 11
3.2030791609
 21
19.151015538
 31
0.0
 11
3.1910316286
 21
19.2570656877
 31
0.0
 11
3.1557116179
 21
19.3438389027
 31
0.0
 11
3.0995263827
 21
19.405424565
 31
0.0
 11
3.0263024656
 21
19.4376271904
 31
0.0
  0
SPLINE
  5
4ED
100
AcDbEntity
  8
RACCORDO
100
AcDbSpline
 62
253
  6
CONTINUOUS
 70
0
 71
3
 72
11
 73
7
 74
5
 42
0.0000001
 43
0.0000001
 44
0.0000000001
 12
0.0
 22
-0.1574222712
 32
0.0
 13
-0.1408317318
 23
-0.0703434061
 33
0.0
 40
0.0
 40
0.0
 40
0.0
 40
0.0
 40
0.2892516425
 40
0.5496863449
 40
0.7829702418
 40
1.0
 40
1.0
 40
1.0
 40
1.0
 10
17.9816108877
 20
-27.7249548744
 30
0.0
 10
17.9816108877
 20
-27.7401330913
 30
0.0
 10
17.9791110078
 20
-27.7690777157
 30
0.0
 10
17.9668099558
 20
-27.808701646
 30
0.0
 10
17.9460973838
 20
-27.8404033142
 30
0.0
 10
17.9268233439
 20
-27.855079506
 30
0.0
 10
17.9166351183
 20
-27.8601683768
 30
0.0
 11
17.9816108877
 21
-27.7249548744
 31
0.0
 11
17.97728087
 21
-27.7702831807
 31
0.0
 11
17.9645382449
 21
-27.8092508563
 31
0.0
 11
17.9439729334
 21
-27.8396766032
 31
0.0
 11
17.9166351183
 21
-27.8601683768
 31
0.0
  0
SPLINE
  5
4EE
100
AcDbEntity
  8
RACCORDO
100
AcDbSpline
 62
7
  6
CONTINUOUS
 70
0
 71
3
 72
11
 73
7
 74
5
 42
0.0000001
 43
0.0000001
 44
0.0000000001
 12
-0.00000452
 22
-0.24065108
 32
0.0
 13
0.2152448696
 23
-0.1076224348
 33
0.0
 40
0.0
 40
0.0
 40
0.0
 40
0.0
 40
0.2065677123
 40
0.4345128221
 40
0.6974273522
 40
1.0
 40
1.0
 40
1.0
 40
1.0
 10
6.3072932715
 20
18.5908455627
 30
0.0
 10
6.3072929603
 20
18.574275315
 30
0.0
 10
6.3146104211
 20
18.5391519822
 30
0.0
 10
6.3451681114
 20
18.4912402623
 30
0.0
 10
6.3927932861
 20
18.448199629
 30
0.0
 10
6.4320308047
 20
18.4249189518
 30
0.0
 10
6.4537398747
 20
18.4140644168
 30
0.0
 11
6.3072932715
 21
18.5908455627
 31
0.0
 11
6.3168993511
 21
18.5420717868
 31
0.0
 11
6.3453517418
 21
18.4951723361
 31
0.0
 11
6.3915573353
 21
18.4519494225
 31
0.0
 11
6.4537398747
 21
18.4140644168
 31
0.0
  0
SPLINE
  5
4EF
100
AcDbEntity
  8
RACCORDO
100
AcDbSpline
 62
253
  6
CONTINUOUS
 70
0
 71
3
 72
11
 73
7
 74
5
 42
0.0000001
 43
0.0000001
 44
0.0000000001
 12
-0.3283038305
 22
-0.1641519152
 32
0.0
 13
0.0
 23
-0.3670548411
 33
0.0
 40
0.0
 40
0.0
 40
0.0
 40
0.0
 40
0.2296322548
 40
0.488180216
 40
0.7531943267
 40
1.0
 40
1.0
 40
1.0
 40
1.0
 10
2.3191956844
 20
20.2036708181
 30
0.0
 10
2.2940659681
 20
20.19110596
 30
0.0
 10
2.2460398395
 20
20.1535370681
 30
0.0
 10
2.1905792483
 20
20.0789420377
 30
0.0
 10
2.1528407271
 20
19.9917028068
 30
0.0
 10
2.1424189891
 20
19.9289731919
 30
0.0
 10
2.1424189891
 20
19.8987761195
 30
0.0
 11
2.3191956844
 21
20.2036708181
 31
0.0
 11
2.2515572405
 21
20.1533772239
 31
0.0
 11
2.1942021349
 21
20.0777687261
 31
0.0
 11
2.1558767674
 21
19.9883621499
 31
0.0
 11
2.1424189891
 21
19.8987761195
 31
0.0
  0
SPLINE
  5
4F0
100
AcDbEntity
  8
RACCORDO
100
AcDbSpline
 62
253
  6
CONTINUOUS
 70
0
 71
3
 72
11
 73
7
 74
5
 42
0.0000001
 43
0.0000001
 44
0.0000000001
 12
-0.3283038305
 22
-0.1641519152
 32
0.0
 13
0.0
 23
-0.3670548411
 33
0.0
 40
0.0
 40
0.0
 40
0.0
 40
0.0
 40
0.2296322548
 40
0.488180216
 40
0.7531943267
 40
1.0
 40
1.0
 40
1.0
 40
1.0
 10
0.9756928001
 20
20.8754222603
 30
0.0
 10
0.9505630839
 20
20.8628574021
 30
0.0
 10
0.9025369553
 20
20.8252885102
 30
0.0
 10
0.847076364
 20
20.7506934798
 30
0.0
 10
0.8093378429
 20
20.6634542489
 30
0.0
 10
0.7989161048
 20
20.6007246341
 30
0.0
 10
0.7989161048
 20
20.5705275617
 30
0.0
 11
0.9756928001
 21
20.8754222603
 31
0.0
 11
0.9080543563
 21
20.8251286661
 31
0.0
 11
0.8506992506
 21
20.7495201682
 31
0.0
 11
0.8123738832
 21
20.660113592
 31
0.0
 11
0.7989161048
 21
20.5705275617
 31
0.0
  0
SPLINE
  5
4F1
100
AcDbEntity
  8
RACCORDO
100
AcDbSpline
 62
253
  6
CONTINUOUS
 70
0
 71
3
 72
11
 73
7
 74
5
 42
0.0000001
 43
0.0000001
 44
0.0000000001
 12
-0.324954929
 22
-0.1624774645
 32
0.0
 13
-0.324954929
 23
0.1624774645
 33
0.0
 40
0.0
 40
0.0
 40
0.0
 40
0.0
 40
0.2353701082
 40
0.5
 40
0.7646298918
 40
1.0
 40
1.0
 40
1.0
 40
1.0
 10
2.4959723797
 20
19.5474621475
 30
0.0
 10
2.4704774874
 20
19.5347147013
 30
0.0
 10
2.4118848894
 20
19.5165305755
 30
0.0
 10
2.3191956844
 20
19.507844257
 30
0.0
 10
2.2265064793
 20
19.5165305755
 30
0.0
 10
2.1679138814
 20
19.5347147013
 30
0.0
 10
2.1424189891
 20
19.5474621475
 30
0.0
 11
2.4959723797
 21
19.5474621475
 31
0.0
 11
2.4148665425
 21
19.5203655535
 31
0.0
 11
2.3191956844
 21
19.5108504951
 31
0.0
 11
2.2235248263
 21
19.5203655535
 31
0.0
 11
2.1424189891
 21
19.5474621475
 31
0.0
  0
SPLINE
  5
4F2
100
AcDbEntity
  8
RACCORDO
100
AcDbSpline
 62
253
  6
CONTINUOUS
 70
0
 71
3
 72
11
 73
7
 74
5
 42
0.0000001
 43
0.0000001
 44
0.0000000001
 12
-0.3249549857
 22
-0.1624774928
 32
0.0
 13
-0.3249549857
 23
0.1624774928
 33
0.0
 40
0.0
 40
0.0
 40
0.0
 40
0.0
 40
0.2353253496
 40
0.499964792
 40
0.764617449
 40
1.0
 40
1.0
 40
1.0
 40
1.0
 10
2.4959723797
 20
19.8987761195
 30
0.0
 10
2.4704823312
 20
19.8860310953
 30
0.0
 10
2.4118947786
 20
19.8678461333
 30
0.0
 10
2.3192070156
 20
19.8591579618
 30
0.0
 10
2.2265122486
 20
19.8678432201
 30
0.0
 10
2.1679152336
 20
19.8860279973
 30
0.0
 10
2.1424189891
 20
19.8987761195
 30
0.0
 11
2.4959723797
 21
19.8987761195
 31
0.0
 11
2.4148826672
 21
19.8716825319
 31
0.0
 11
2.3192086054
 21
19.8621644572
 31
0.0
 11
2.2235293399
 21
19.8716787224
 31
0.0
 11
2.1424189891
 21
19.8987761195
 31
0.0
  0
SPLINE
  5
4F3
100
AcDbEntity
  8
RACCORDO
100
AcDbSpline
 62
253
  6
CONTINUOUS
 70
0
 71
3
 72
11
 73
7
 74
5
 42
0.0000001
 43
0.0000001
 44
0.0000000001
 12
-0.1063646839
 22
-0.2788159098
 32
0.0
 13
-0.2922163674
 23
0.0605091078
 33
0.0
 40
0.0
 40
0.0
 40
0.0
 40
0.0
 40
0.2770958208
 40
0.5368340029
 40
0.7754612626
 40
1.0
 40
1.0
 40
1.0
 40
1.0
 10
3.0263024656
 20
19.4376271904
 30
0.0
 10
3.0164780625
 20
19.4118742826
 30
0.0
 10
2.9907168006
 20
19.3641780081
 30
0.0
 10
2.9351184542
 20
19.3089182931
 30
0.0
 10
2.8684790284
 20
19.2776768626
 30
0.0
 10
2.8207031989
 20
19.2767150078
 30
0.0
 10
2.7988319008
 20
19.2812438873
 30
0.0
 11
3.0263024656
 21
19.4376271904
 31
0.0
 11
2.9864927049
 21
19.3651512402
 31
0.0
 11
2.9308316908
 21
19.3112102312
 31
0.0
 11
2.8658319156
 21
19.282125859
 31
0.0
 11
2.7988319008
 21
19.2812438873
 31
0.0
  0
SPLINE
  5
4F4
100
AcDbEntity
  8
RACCORDO
100
AcDbSpline
 62
253
  6
CONTINUOUS
 70
0
 71
3
 72
11
 73
7
 74
5
 42
0.0000001
 43
0.0000001
 44
0.0000000001
 12
0.0
 22
-0.1574222712
 32
0.0
 13
-0.1408317318
 23
-0.0703434061
 33
0.0
 40
0.0
 40
0.0
 40
0.0
 40
0.0
 40
0.2892516425
 40
0.5496863449
 40
0.7829702418
 40
1.0
 40
1.0
 40
1.0
 40
1.0
 10
15.8602905441
 20
-28.7856150462
 30
0.0
 10
15.8602905441
 20
-28.8007932631
 30
0.0
 10
15.8577906643
 20
-28.8297378875
 30
0.0
 10
15.8454896123
 20
-28.8693618178
 30
0.0
 10
15.8247770402
 20
-28.901063486
 30
0.0
 10
15.8055030003
 20
-28.9157396777
 30
0.0
 10
15.7953147748
 20
-28.9208285485
 30
0.0
 11
15.8602905441
 21
-28.7856150462
 31
0.0
 11
15.8559605265
 21
-28.8309433525
 31
0.0
 11
15.8432179014
 21
-28.869911028
 31
0.0
 11
15.8226525899
 21
-28.900336775
 31
0.0
 11
15.7953147748
 21
-28.9208285485
 31
0.0
  0
SPLINE
  5
4F5
100
AcDbEntity
  8
RACCORDO
100
AcDbSpline
 62
253
  6
CONTINUOUS
 70
0
 71
3
 72
11
 73
7
 74
5
 42
0.0000001
 43
0.0000001
 44
0.0000000001
 12
-0.1059307198
 22
-0.2776783507
 32
0.0
 13
-0.2915002733
 23
0.0579152356
 33
0.0
 40
0.0
 40
0.0
 40
0.0
 40
0.0
 40
0.2769633699
 40
0.5367118852
 40
0.7754445235
 40
1.0
 40
1.0
 40
1.0
 40
1.0
 10
2.4959723797
 20
19.5474621475
 30
0.0
 10
2.4861927367
 20
19.5218265702
 30
0.0
 10
2.4605743071
 20
19.4743272732
 30
0.0
 10
2.4053278677
 20
19.419189392
 30
0.0
 10
2.3391037565
 20
19.3877976223
 30
0.0
 10
2.2915378469
 20
19.3864972205
 30
0.0
 10
2.2697185193
 20
19.3908322816
 30
0.0
 11
2.4959723797
 21
19.5474621475
 31
0.0
 11
2.4563920913
 21
19.4752899997
 31
0.0
 11
2.4010766635
 21
19.4214426648
 31
0.0
 11
2.336442366
 21
19.3921778627
 31
0.0
 11
2.2697185193
 21
19.3908322816
 31
0.0
  0
SPLINE
  5
4F6
100
AcDbEntity
  8
RACCORDO
100
AcDbSpline
 62
253
  6
CONTINUOUS
 70
0
 71
3
 72
11
 73
7
 74
5
 42
0.0000001
 43
0.0000001
 44
0.0000000001
 12
0.0
 22
-0.1574253087
 32
0.0
 13
0.1407691098
 23
-0.0704754252
 33
0.0
 40
0.0
 40
0.0
 40
0.0
 40
0.0
 40
0.2893385886
 40
0.5494402709
 40
0.7826225719
 40
1.0
 40
1.0
 40
1.0
 40
1.0
 10
2.1424189891
 20
19.5474621475
 30
0.0
 10
2.1424189891
 20
19.5322790752
 30
0.0
 10
2.1449018309
 20
19.5033424728
 30
0.0
 10
2.1572161365
 20
19.4637479317
 30
0.0
 10
2.1778863915
 20
19.4320142807
 30
0.0
 10
2.1972030843
 20
19.417371819
 30
0.0
 10
2.2074030933
 20
19.4122652301
 30
0.0
 11
2.1424189891
 21
19.5474621475
 31
0.0
 11
2.1467428729
 21
19.5021186235
 31
0.0
 11
2.1594708037
 21
19.4632004681
 31
0.0
 11
2.1800098855
 21
19.4327754488
 31
0.0
 11
2.2074030933
 21
19.4122652301
 31
0.0
  0
SPLINE
  5
4F7
100
AcDbEntity
  8
RACCORDO
100
AcDbSpline
 62
253
  6
CONTINUOUS
 70
0
 71
3
 72
11
 73
7
 74
5
 42
0.0000001
 43
0.0000001
 44
0.0000000001
 12
0.0
 22
-0.157526034
 32
0.0
 13
0.1409395254
 23
-0.0703598007
 33
0.0
 40
0.0
 40
0.0
 40
0.0
 40
0.0
 40
0.2893786307
 40
0.5495163242
 40
0.7826658298
 40
1.0
 40
1.0
 40
1.0
 40
1.0
 10
0.7989161048
 20
20.2192135896
 30
0.0
 10
0.7989161048
 20
20.2040187002
 30
0.0
 10
0.8014053269
 20
20.1750598376
 30
0.0
 10
0.8137365817
 20
20.1354392194
 30
0.0
 10
0.8344408987
 20
20.1036999596
 30
0.0
 10
0.8537804585
 20
20.0890670918
 30
0.0
 10
0.8639907834
 20
20.0839698955
 30
0.0
 11
0.7989161048
 21
20.2192135896
 31
0.0
 11
0.8032484383
 21
20.1738352595
 31
0.0
 11
0.8159973365
 21
20.1348904304
 31
0.0
 11
0.8365663108
 21
20.1044634947
 31
0.0
 11
0.8639907834
 21
20.0839698955
 31
0.0
  0
SPLINE
  5
4F8
100
AcDbEntity
  8
RACCORDO
100
AcDbSpline
 62
253
  6
CONTINUOUS
 70
0
 71
3
 72
11
 73
7
 74
5
 42
0.0000001
 43
0.0000001
 44
0.0000000001
 12
0.3283037813
 22
-0.1641518906
 32
0.0
 13
0.0
 23
-0.3670547861
 33
0.0
 40
0.0
 40
0.0
 40
0.0
 40
0.0
 40
0.2296876225
 40
0.4882493672
 40
0.7532523129
 40
1.0
 40
1.0
 40
1.0
 40
1.0
 10
4.440516028
 20
21.2643309899
 30
0.0
 10
4.4656517996
 20
21.2517631041
 30
0.0
 10
4.5136828475
 20
21.2141856477
 30
0.0
 10
4.5691438398
 20
21.139582492
 30
0.0
 10
4.6068756617
 20
21.0523474983
 30
0.0
 10
4.6172927232
 20
20.9896262645
 30
0.0
 10
4.6172927232
 20
20.9594362913
 30
0.0
 11
4.440516028
 21
21.2643309899
 31
0.0
 11
4.5081686005
 21
21.2140223587
 31
0.0
 11
4.5655224985
 21
21.1384066125
 31
0.0
 11
4.6038414546
 21
21.0490017629
 31
0.0
 11
4.6172927232
 21
20.9594362913
 31
0.0
  0
SPLINE
  5
4F9
100
AcDbEntity
  8
RACCORDO
100
AcDbSpline
 62
253
  6
CONTINUOUS
 70
0
 71
3
 72
11
 73
7
 74
5
 42
0.0000001
 43
0.0000001
 44
0.0000000001
 12
0.3283037267
 22
-0.1641518634
 32
0.0
 13
0.0
 23
-0.3670547251
 33
0.0
 40
0.0
 40
0.0
 40
0.0
 40
0.0
 40
0.2296755894
 40
0.4882147766
 40
0.7532068921
 40
1.0
 40
1.0
 40
1.0
 40
1.0
 10
2.3191956844
 20
20.2036708181
 30
0.0
 10
2.344330135
 20
20.1911035928
 30
0.0
 10
2.3923582091
 20
20.1535295568
 30
0.0
 10
2.4478174543
 20
20.0789320924
 30
0.0
 10
2.4855521035
 20
19.991697023
 30
0.0
 10
2.4959723797
 20
19.928971645
 30
0.0
 10
2.4959723797
 20
19.8987761195
 30
0.0
 11
2.3191956844
 21
20.2036708181
 31
0.0
 11
2.3868451969
 21
20.1533654972
 31
0.0
 11
2.4441956844
 21
20.0777575761
 31
0.0
 11
2.482516055
 21
19.9883576754
 31
0.0
 11
2.4959723797
 21
19.8987761195
 31
0.0
  0
SPLINE
  5
4FA
100
AcDbEntity
  8
RACCORDO
100
AcDbSpline
 62
253
  6
CONTINUOUS
 70
0
 71
3
 72
11
 73
7
 74
5
 42
0.0000001
 43
0.0000001
 44
0.0000000001
 12
0.0
 22
-0.1203158962
 32
0.0
 13
0.107613809
 23
-0.0538069045
 33
0.0
 40
0.0
 40
0.0
 40
0.0
 40
0.0
 40
0.2064758915
 40
0.434520967
 40
0.6981193998
 40
1.0
 40
1.0
 40
1.0
 40
1.0
 10
14.7971177458
 20
-26.5706078938
 30
0.0
 10
14.7971177458
 20
-26.5788886711
 30
0.0
 10
14.800788771
 20
-26.5964440646
 30
0.0
 10
14.8160580986
 20
-26.6204391348
 30
0.0
 10
14.8399211665
 20
-26.6419083675
 30
0.0
 10
14.85951221
 20
-26.6535818212
 30
0.0
 10
14.8703410505
 20
-26.6589962414
 30
0.0
 11
14.7971177458
 21
-26.5706078938
 31
0.0
 11
14.8019235833
 21
-26.59498094
 31
0.0
 11
14.8161478626
 21
-26.6184433228
 31
0.0
 11
14.8393318219
 21
-26.6400847285
 31
0.0
 11
14.8703410505
 21
-26.6589962414
 31
0.0
  0
SPLINE
  5
4FB
100
AcDbEntity
  8
RACCORDO
100
AcDbSpline
 62
253
  6
CONTINUOUS
 70
0
 71
3
 72
10
 73
6
 74
4
 42
0.0000001
 43
0.0000001
 44
0.0000000001
 12
0.0696487429
 22
0.0842366601
 32
0.0
 13
0.0977620061
 23
-0.048881003
 33
0.0
 40
0.0
 40
0.0
 40
0.0
 40
0.0
 40
0.3486721975
 40
0.6375289811
 40
1.0
 40
1.0
 40
1.0
 40
1.0
 10
14.6778259162
 20
-26.8745114818
 30
0.0
 10
14.6859207762
 20
-26.8647211546
 30
0.0
 10
14.7146862299
 20
-26.8647187397
 30
0.0
 10
14.7479635658
 20
-26.8750981113
 30
0.0
 10
14.7701407382
 20
-26.8847844329
 30
0.0
 10
14.7819527028
 20
-26.8906904152
 30
0.0
 11
14.6778259162
 21
-26.8745114818
 31
0.0
 11
14.7151267585
 21
-26.8666985088
 31
0.0
 11
14.7456127561
 21
-26.8749095249
 31
0.0
 11
14.7819527028
 21
-26.8906904152
 31
0.0
  0
SPLINE
  5
4FC
100
AcDbEntity
  8
RACCORDO
100
AcDbSpline
 62
253
  6
CONTINUOUS
 70
0
 71
3
 72
10
 73
6
 74
4
 42
0.0000001
 43
0.0000001
 44
0.0000000001
 12
0.0696285401
 22
0.0842572943
 32
0.0
 13
0.0977647186
 23
-0.0488823593
 33
0.0
 40
0.0
 40
0.0
 40
0.0
 40
0.0
 40
0.348660957
 40
0.6375246301
 40
1.0
 40
1.0
 40
1.0
 40
1.0
 10
14.147493589
 20
-27.5146796759
 30
0.0
 10
14.1555858401
 20
-27.5048872663
 30
0.0
 10
14.1843542835
 20
-27.5048828186
 30
0.0
 10
14.2176316885
 20
-27.5152628327
 30
0.0
 10
14.2398101827
 20
-27.5249492411
 30
0.0
 10
14.2516226169
 20
-27.5308554582
 30
0.0
 11
14.147493589
 21
-27.5146796759
 31
0.0
 11
14.1847934833
 21
-27.5068630135
 31
0.0
 11
14.215281137
 21
-27.5150741448
 31
0.0
 11
14.2516226169
 21
-27.5308554582
 31
0.0
  0
SPLINE
  5
4FD
100
AcDbEntity
  8
RACCORDO
100
AcDbSpline
 62
253
  6
CONTINUOUS
 70
0
 71
3
 72
11
 73
7
 74
5
 42
0.0000001
 43
0.0000001
 44
0.0000000001
 12
0.0
 22
-0.1203158962
 32
0.0
 13
0.107613809
 23
-0.0538069045
 33
0.0
 40
0.0
 40
0.0
 40
0.0
 40
0.0
 40
0.2064758915
 40
0.434520967
 40
0.6981193998
 40
1.0
 40
1.0
 40
1.0
 40
1.0
 10
14.0900109646
 20
-27.6741612844
 30
0.0
 10
14.0900109646
 20
-27.6824420617
 30
0.0
 10
14.0936819899
 20
-27.6999974552
 30
0.0
 10
14.1089513174
 20
-27.7239925254
 30
0.0
 10
14.1328143853
 20
-27.7454617581
 30
0.0
 10
14.1524054288
 20
-27.7571352118
 30
0.0
 10
14.1632342693
 20
-27.762549632
 30
0.0
 11
14.0900109646
 21
-27.6741612844
 31
0.0
 11
14.0948168021
 21
-27.6985343306
 31
0.0
 11
14.1090410814
 21
-27.7219967134
 31
0.0
 11
14.1322250407
 21
-27.7436381191
 31
0.0
 11
14.1632342693
 21
-27.762549632
 31
0.0
  0
SPLINE
  5
4FE
100
AcDbEntity
  8
RACCORDO
100
AcDbSpline
 62
253
  6
CONTINUOUS
 70
0
 71
3
 72
11
 73
7
 74
5
 42
0.0000001
 43
0.0000001
 44
0.0000000001
 12
0.0002718853
 22
-0.1201769408
 32
0.0
 13
0.1074897987
 23
-0.0537448994
 33
0.0
 40
0.0
 40
0.0
 40
0.0
 40
0.0
 40
0.2064813555
 40
0.434578121
 40
0.6981915953
 40
1.0
 40
1.0
 40
1.0
 40
1.0
 10
14.0900111027
 20
-28.025615949
 30
0.0
 10
14.0900298158
 20
-28.0338873816
 30
0.0
 10
14.0937301437
 20
-28.0514158533
 30
0.0
 10
14.1090093691
 20
-28.0753667538
 30
0.0
 10
14.1328535625
 20
-28.0967993373
 30
0.0
 10
14.1524204944
 20
-28.1084567167
 30
0.0
 10
14.1632342693
 20
-28.1138636041
 30
0.0
 11
14.0900111027
 21
-28.025615949
 31
0.0
 11
14.0948576913
 21
-28.0499524052
 31
0.0
 11
14.1090960314
 21
-28.0733765316
 31
0.0
 11
14.13226595
 21
-28.0949820618
 31
0.0
 11
14.1632342693
 21
-28.1138636041
 31
0.0
  0
SPLINE
  5
4FF
100
AcDbEntity
  8
RACCORDO
100
AcDbSpline
 62
253
  6
CONTINUOUS
 70
0
 71
3
 72
11
 73
7
 74
5
 42
0.0000001
 43
0.0000001
 44
0.0000000001
 12
-0.1408846323
 22
0.0702997747
 32
0.0
 13
-0.0
 23
0.1574501125
 33
0.0
 40
0.0
 40
0.0
 40
0.0
 40
0.0
 40
0.2170350907
 40
0.4503173148
 40
0.7107563689
 40
1.0
 40
1.0
 40
1.0
 40
1.0
 10
14.2282358219
 20
-28.2490889326
 30
0.0
 10
14.2180435189
 20
-28.2440030933
 30
0.0
 10
14.1987614369
 20
-28.2293290579
 30
0.0
 10
14.1780401591
 20
-28.1976240531
 30
0.0
 10
14.1657360738
 20
-28.1579934928
 30
0.0
 10
14.1632342693
 20
-28.1290440848
 30
0.0
 10
14.1632342693
 20
-28.1138636041
 30
0.0
 11
14.2282358219
 21
-28.2490889326
 31
0.0
 11
14.2008865154
 21
-28.2286010179
 31
0.0
 11
14.1803132151
 21
-28.1981731496
 31
0.0
 11
14.1675662427
 21
-28.1591985461
 31
0.0
 11
14.1632342693
 21
-28.1138636041
 31
0.0
  0
SPLINE
  5
500
100
AcDbEntity
  8
RACCORDO
100
AcDbSpline
 62
253
  6
CONTINUOUS
 70
0
 71
3
 72
11
 73
7
 74
5
 42
0.0000001
 43
0.0000001
 44
0.0000000001
 12
-0.1405432827
 22
0.070520634
 32
0.0
 13
0.0
 23
0.1572436776
 33
0.0
 40
0.0
 40
0.0
 40
0.0
 40
0.0
 40
0.2170330954
 40
0.4503508394
 40
0.7108004038
 40
1.0
 40
1.0
 40
1.0
 40
1.0
 10
15.5715516731
 20
-28.9207467873
 30
0.0
 10
15.5613841585
 20
-28.9156450168
 30
0.0
 10
15.5421567383
 20
-28.9009526472
 30
0.0
 10
15.5214988803
 20
-28.8692662003
 30
0.0
 10
15.5092321259
 20
-28.8296825886
 30
0.0
 10
15.5067371535
 20
-28.8007733156
 30
0.0
 10
15.5067371535
 20
-28.7856150462
 30
0.0
 11
15.5715516731
 21
-28.9207467873
 31
0.0
 11
15.5442777545
 21
-28.900233594
 31
0.0
 11
15.5237642754
 21
-28.8698166999
 31
0.0
 11
15.5110558715
 21
-28.8308843166
 31
0.0
 11
15.5067371535
 21
-28.7856150462
 31
0.0
  0
SPLINE
  5
501
100
AcDbEntity
  8
RACCORDO
100
AcDbSpline
 62
253
  6
CONTINUOUS
 70
0
 71
3
 72
9
 73
5
 74
3
 42
0.0000001
 43
0.0000001
 44
0.0000000001
 12
-0.0618068848
 22
-0.193173312
 32
0.0
 13
0.0
 23
-0.2028201654
 33
0.0
 40
0.0
 40
0.0
 40
0.0
 40
0.0
 40
0.2612978907
 40
1.0
 40
1.0
 40
1.0
 40
1.0
 10
3.9433415959
 20
19.7042205447
 30
0.0
 10
3.9379582596
 20
19.6873952851
 30
0.0
 10
3.9195785289
 20
19.6223467739
 30
0.0
 10
3.9101859421
 20
19.5545101566
 30
0.0
 10
3.9101859421
 20
19.5045689286
 30
0.0
 11
3.9433415959
 21
19.7042205447
 31
0.0
 11
3.9289667014
 21
19.6532108452
 31
0.0
 11
3.9101859421
 21
19.5045689286
 31
0.0
  0
SPLINE
  5
502
100
AcDbEntity
  8
RACCORDO
100
AcDbSpline
 62
253
  6
CONTINUOUS
 70
0
 71
3
 72
11
 73
7
 74
5
 42
0.0000001
 43
0.0000001
 44
0.0000000001
 12
0.107613809
 22
0.0538069045
 32
0.0
 13
0.0
 23
0.1203158962
 33
0.0
 40
0.0
 40
0.0
 40
0.0
 40
0.0
 40
0.3018806002
 40
0.565479033
 40
0.7935241085
 40
1.0
 40
1.0
 40
1.0
 40
1.0
 10
3.9101859421
 20
19.5045689286
 30
0.0
 10
3.9210147825
 20
19.5099833488
 30
0.0
 10
3.940605826
 20
19.5216568026
 30
0.0
 10
3.9644688939
 20
19.5431260352
 30
0.0
 10
3.9797382215
 20
19.5671211054
 30
0.0
 10
3.9834092468
 20
19.584676499
 30
0.0
 10
3.9834092468
 20
19.5929572763
 30
0.0
 11
3.9101859421
 21
19.5045689286
 31
0.0
 11
3.9411951707
 21
19.5234804416
 31
0.0
 11
3.9643791299
 21
19.5451218472
 31
0.0
 11
3.9786034092
 21
19.5685842301
 31
0.0
 11
3.9834092468
 21
19.5929572763
 31
0.0
  0
SPLINE
  5
503
100
AcDbEntity
  8
RACCORDO
100
AcDbSpline
 62
253
  6
CONTINUOUS
 70
0
 71
3
 72
10
 73
6
 74
4
 42
0.0000001
 43
0.0000001
 44
0.0000000001
 12
0.0397280143
 22
-0.0644118378
 32
0.0
 13
-0.0482235685
 23
-0.0583239866
 33
0.0
 40
0.0
 40
0.0
 40
0.0
 40
0.0
 40
0.3492690482
 40
0.6298549571
 40
1.0
 40
1.0
 40
1.0
 40
1.0
 10
4.6172927232
 20
20.6081223192
 30
0.0
 10
4.6219179785
 20
20.6006232988
 30
0.0
 10
4.629596788
 20
20.5864803874
 30
0.0
 10
4.6386078675
 20
20.5635524552
 30
0.0
 10
4.6389810672
 20
20.5442220187
 30
0.0
 10
4.6330311623
 20
20.5370259072
 30
0.0
 11
4.6172927232
 21
20.6081223192
 31
0.0
 11
4.6298181752
 21
20.5848464155
 31
0.0
 11
4.6367800265
 21
20.5647858518
 31
0.0
 11
4.6330311623
 21
20.5370259072
 31
0.0
  0
SPLINE
  5
504
100
AcDbEntity
  8
RACCORDO
100
AcDbSpline
 62
253
  6
CONTINUOUS
 70
0
 71
3
 72
10
 73
6
 74
4
 42
0.0000001
 43
0.0000001
 44
0.0000000001
 12
0.0397280143
 22
-0.0644118378
 32
0.0
 13
-0.0482235685
 23
-0.0583239866
 33
0.0
 40
0.0
 40
0.0
 40
0.0
 40
0.0
 40
0.3492690482
 40
0.6298549571
 40
1.0
 40
1.0
 40
1.0
 40
1.0
 10
4.0869626374
 20
19.9679572763
 30
0.0
 10
4.0915878926
 20
19.9604582559
 30
0.0
 10
4.0992667021
 20
19.9463153445
 30
0.0
 10
4.1082777816
 20
19.9233874123
 30
0.0
 10
4.1086509813
 20
19.9040569758
 30
0.0
 10
4.1027010764
 20
19.8968608643
 30
0.0
 11
4.0869626374
 21
19.9679572763
 31
0.0
 11
4.0994880894
 21
19.9446813726
 31
0.0
 11
4.1064499406
 21
19.9246208089
 31
0.0
 11
4.1027010764
 21
19.8968608643
 31
0.0
  0
SPLINE
  5
505
100
AcDbEntity
  8
RACCORDO
100
AcDbSpline
 62
253
  6
CONTINUOUS
 70
0
 71
3
 72
11
 73
7
 74
5
 42
0.0000001
 43
0.0000001
 44
0.0000000001
 12
-0.0000428024
 22
-0.120294451
 32
0.0
 13
-0.1075946347
 23
-0.0537973174
 33
0.0
 40
0.0
 40
0.0
 40
0.0
 40
0.0
 40
0.2065139657
 40
0.4345738457
 40
0.6981297526
 40
1.0
 40
1.0
 40
1.0
 40
1.0
 10
18.0548342089
 20
-27.6365880831
 30
0.0
 10
18.0548312624
 20
-27.6448689112
 30
0.0
 10
18.0511507988
 20
-27.66242097
 30
0.0
 10
18.0358834494
 20
-27.6864102945
 30
0.0
 10
18.0120248598
 20
-27.7078744477
 30
0.0
 10
17.9924374273
 20
-27.7195416046
 30
0.0
 10
17.9816108877
 20
-27.7249548744
 30
0.0
 11
18.0548342089
 21
-27.6365880831
 31
0.0
 11
18.0500182508
 21
-27.6609592883
 31
0.0
 11
18.0357922681
 21
-27.6844170039
 31
0.0
 11
18.0126150102
 21
-27.7060498103
 31
0.0
 11
17.9816108877
 21
-27.7249548744
 31
0.0
  0
SPLINE
  5
506
100
AcDbEntity
  8
RACCORDO
100
AcDbSpline
 62
253
  6
CONTINUOUS
 70
0
 71
3
 72
9
 73
5
 74
3
 42
0.0000001
 43
0.0000001
 44
0.0000000001
 12
-0.0564143035
 22
-0.0270011266
 32
0.0
 13
-0.0621381577
 23
0.0071051982
 33
0.0
 40
0.0
 40
0.0
 40
0.0
 40
0.0
 40
0.2713526231
 40
1.0
 40
1.0
 40
1.0
 40
1.0
 10
4.0491391553
 20
19.2470186637
 30
0.0
 10
4.0440364322
 20
19.2445763882
 30
0.0
 10
4.0248052021
 20
19.236616926
 30
0.0
 10
4.003309271
 20
19.2331783851
 30
0.0
 10
3.9882170025
 20
19.2349041131
 30
0.0
 11
4.0491391553
 21
19.2470186637
 31
0.0
 11
4.0334327877
 21
19.2405896319
 31
0.0
 11
3.9882170025
 21
19.2349041131
 31
0.0
  0
SPLINE
  5
507
100
AcDbEntity
  8
RACCORDO
100
AcDbSpline
 62
253
  6
CONTINUOUS
 70
0
 71
3
 72
8
 73
4
 74
2
 42
0.0000001
 43
0.0000001
 44
0.0000000001
 12
-0.0269734927
 22
0.0030842886
 32
0.0
 13
-0.0242873509
 23
0.012132878
 33
0.0
 40
0.0
 40
0.0
 40
0.0
 40
0.0
 40
1.0
 40
1.0
 40
1.0
 40
1.0
 10
3.9882170025
 20
19.2349041131
 30
0.0
 10
3.9792258382
 20
19.2359322093
 30
0.0
 10
3.970262455
 20
19.2385058908
 30
0.0
 10
3.9621666714
 20
19.2425501835
 30
0.0
 11
3.9882170025
 21
19.2349041131
 31
0.0
 11
3.9621666714
 21
19.2425501835
 31
0.0
  0
SPLINE
  5
508
100
AcDbEntity
  8
RACCORDO
100
AcDbSpline
 62
253
  6
CONTINUOUS
 70
0
 71
3
 72
11
 73
7
 74
5
 42
0.0000001
 43
0.0000001
 44
0.0000000001
 12
0.0
 22
-0.1203158962
 32
0.0
 13
-0.107613809
 23
-0.0538069045
 33
0.0
 40
0.0
 40
0.0
 40
0.0
 40
0.0
 40
0.2064758915
 40
0.434520967
 40
0.6981193998
 40
1.0
 40
1.0
 40
1.0
 40
1.0
 10
18.0548341924
 20
-27.2852525547
 30
0.0
 10
18.0548341924
 20
-27.293533332
 30
0.0
 10
18.0511631671
 20
-27.3110887256
 30
0.0
 10
18.0358938395
 20
-27.3350837958
 30
0.0
 10
18.0120307716
 20
-27.3565530284
 30
0.0
 10
17.9924397281
 20
-27.3682264822
 30
0.0
 10
17.9816108877
 20
-27.3736409024
 30
0.0
 11
18.0548341924
 21
-27.2852525547
 31
0.0
 11
18.0500283549
 21
-27.3096256009
 31
0.0
 11
18.0358040755
 21
-27.3330879838
 31
0.0
 11
18.0126201163
 21
-27.3547293894
 31
0.0
 11
17.9816108877
 21
-27.3736409024
 31
0.0
  0
SPLINE
  5
509
100
AcDbEntity
  8
RACCORDO
100
AcDbSpline
 62
253
  6
CONTINUOUS
 70
0
 71
3
 72
15
 73
11
 74
9
 42
0.0000001
 43
0.0000001
 44
0.0000000001
 12
0.3860288314
 22
0.1845698783
 32
0.0
 13
-0.3827055692
 23
0.1913654774
 33
0.0
 40
0.0
 40
0.0
 40
0.0
 40
0.0
 40
0.1514155391
 40
0.2826460431
 40
0.3956500446
 40
0.4978214288
 40
0.6004154458
 40
0.7145216826
 40
0.8471605453
 40
1.0
 40
1.0
 40
1.0
 40
1.0
 10
4.0491391553
 20
18.9356230505
 30
0.0
 10
4.0686227432
 20
18.944938633
 30
0.0
 10
4.1038393475
 20
18.9650338816
 30
0.0
 10
4.1467499539
 20
19.0024115528
 30
0.0
 10
4.1743409142
 20
19.0444262531
 30
0.0
 10
4.1840440414
 20
19.0899706253
 30
0.0
 10
4.1742872715
 20
19.1356479637
 30
0.0
 10
4.1467212665
 20
19.1781414363
 30
0.0
 10
4.1038621186
 20
19.2163989502
 30
0.0
 10
4.0686366588
 20
19.2372692653
 30
0.0
 10
4.0491391553
 20
19.2470186637
 30
0.0
 11
4.0491391553
 21
18.9356230505
 31
0.0
 11
4.1050451244
 21
18.9683649974
 31
0.0
 11
4.1466955082
 21
19.0060242824
 31
0.0
 11
4.172288974
 21
19.0470479766
 31
0.0
 11
4.1809145646
 21
19.0899060525
 31
0.0
 11
4.1722929549
 21
19.1329493743
 31
0.0
 11
4.1466876728
 21
19.174520636
 31
0.0
 11
4.1050346742
 21
19.213069854
 31
0.0
 11
4.0491391553
 21
19.2470186637
 31
0.0
  0
SPLINE
  5
50A
100
AcDbEntity
  8
RACCORDO
100
AcDbSpline
 62
253
  6
CONTINUOUS
 70
0
 71
3
 72
11
 73
7
 74
5
 42
0.0000001
 43
0.0000001
 44
0.0000000001
 12
-0.262790765
 22
0.1313953819
 32
0.0
 13
0.0041573225
 23
0.2937795929
 33
0.0
 40
0.0
 40
0.0
 40
0.0
 40
0.0
 40
0.2292208772
 40
0.4872317535
 40
0.7522441527
 40
1.0
 40
1.0
 40
1.0
 40
1.0
 10
4.0491391553
 20
18.9356230505
 30
0.0
 10
4.0290601121
 20
18.945662572
 30
0.0
 10
3.9907542437
 20
18.9758101753
 30
0.0
 10
3.9468880702
 20
19.0358216856
 30
0.0
 10
3.9174785609
 20
19.1060579478
 30
0.0
 10
3.9098426084
 20
19.1564846302
 30
0.0
 10
3.9101859421
 20
19.1807465009
 30
0.0
 11
4.0491391553
 21
18.9356230505
 31
0.0
 11
3.9952074222
 21
18.9759592364
 31
0.0
 11
3.9498620585
 21
19.0367073672
 31
0.0
 11
3.9200064846
 21
19.1086190917
 31
0.0
 11
3.9101859421
 21
19.1807465009
 31
0.0
  0
SPLINE
  5
50B
100
AcDbEntity
  8
RACCORDO
100
AcDbSpline
 62
253
  6
CONTINUOUS
 70
0
 71
3
 72
10
 73
6
 74
4
 42
0.0000001
 43
0.0000001
 44
0.0000000001
 12
0.1000264795
 22
0.0461621917
 32
0.0
 13
0.0114502833
 23
0.1095679495
 33
0.0
 40
0.0
 40
0.0
 40
0.0
 40
0.0
 40
0.3046286573
 40
0.5704755089
 40
1.0
 40
1.0
 40
1.0
 40
1.0
 10
3.9101859421
 20
19.1807465009
 30
0.0
 10
3.9203429194
 20
19.185433943
 30
0.0
 10
3.9388369247
 20
19.1956127343
 30
0.0
 10
3.9674457168
 20
19.2185272463
 30
0.0
 10
3.9814433258
 20
19.2425902882
 30
0.0
 10
3.9830827182
 20
19.2582776608
 30
0.0
 11
3.9101859421
 21
19.1807465009
 31
0.0
 11
3.939474442
 21
19.1971297394
 31
0.0
 11
3.9619013178
 21
19.2159647825
 31
0.0
 11
3.9830827182
 21
19.2582776608
 31
0.0
  0
SPLINE
  5
50C
100
AcDbEntity
  8
RACCORDO
100
AcDbSpline
 62
253
  6
CONTINUOUS
 70
0
 71
3
 72
11
 73
7
 74
5
 42
0.0000001
 43
0.0000001
 44
0.0000000001
 12
-0.2627907646
 22
0.1313953824
 32
0.0
 13
0.0041573218
 23
0.2937795929
 33
0.0
 40
0.0
 40
0.0
 40
0.0
 40
0.0
 40
0.2292208809
 40
0.4872317594
 40
0.752244156
 40
1.0
 40
1.0
 40
1.0
 40
1.0
 10
3.3420323741
 20
18.5971861895
 30
0.0
 10
3.3219533306
 20
18.6072257113
 30
0.0
 10
3.2836474619
 20
18.6373733152
 30
0.0
 10
3.2397812884
 20
18.6973848259
 30
0.0
 10
3.2103717796
 20
18.7676210878
 30
0.0
 10
3.2027358273
 20
18.8180477696
 30
0.0
 10
3.2030791609
 20
18.8423096399
 30
0.0
 11
3.3420323741
 21
18.5971861895
 31
0.0
 11
3.2881006403
 21
18.6375223763
 31
0.0
 11
3.2427552765
 21
18.6982705078
 31
0.0
 11
3.2128997032
 21
18.7701822317
 31
0.0
 11
3.2030791609
 21
18.8423096399
 31
0.0
  0
SPLINE
  5
50D
100
AcDbEntity
  8
RACCORDO
100
AcDbSpline
 62
253
  6
CONTINUOUS
 70
0
 71
3
 72
11
 73
7
 74
5
 42
0.0000001
 43
0.0000001
 44
0.0000000001
 12
0.5843324218
 22
-0.2920747136
 32
0.0
 13
0.5891333018
 23
0.2822657793
 33
0.0
 40
0.0
 40
0.0
 40
0.0
 40
0.0
 40
0.2359339744
 40
0.5010327342
 40
0.7655841254
 40
1.0
 40
1.0
 40
1.0
 40
1.0
 10
2.7056362711
 20
18.6039886279
 30
0.0
 10
2.7515908946
 20
18.5810185119
 30
0.0
 10
2.8569832585
 20
18.547903958
 30
0.0
 10
3.0236721418
 20
18.5308230066
 30
0.0
 10
3.1903497118
 20
18.5442791035
 30
0.0
 10
3.2959983081
 20
18.5751303297
 30
0.0
 10
3.3420323741
 20
18.5971861895
 30
0.0
 11
2.7056362711
 21
18.6039886279
 31
0.0
 11
2.8516680758
 21
18.5546956781
 31
0.0
 11
3.0238467542
 21
18.5361079225
 31
0.0
 11
3.1960244055
 21
18.5510121837
 31
0.0
 11
3.3420323741
 21
18.5971861895
 31
0.0
  0
SPLINE
  5
50E
100
AcDbEntity
  8
RACCORDO
100
AcDbSpline
 62
253
  6
CONTINUOUS
 70
0
 71
3
 72
11
 73
7
 74
5
 42
0.0000001
 43
0.0000001
 44
0.0000000001
 12
0.2673132834
 22
0.1279420285
 32
0.0
 13
0.000000009
 23
0.2963537652
 33
0.0
 40
0.0
 40
0.0
 40
0.0
 40
0.0
 40
0.2286190611
 40
0.4870721424
 40
0.7526205645
 40
1.0
 40
1.0
 40
1.0
 40
1.0
 10
2.7056362711
 20
18.6039886279
 30
0.0
 10
2.7260072417
 20
18.6137386234
 30
0.0
 10
2.7650730253
 20
18.6435946447
 30
0.0
 10
2.8102103952
 20
18.7034980927
 30
0.0
 10
2.8410006816
 20
18.7739183943
 30
0.0
 10
2.8495257695
 20
18.8246748026
 30
0.0
 10
2.8495257703
 20
18.8491120783
 30
0.0
 11
2.7056362711
 21
18.6039886279
 31
0.0
 11
2.7605091542
 21
18.6437292418
 31
0.0
 11
2.8072279583
 21
18.7044245818
 31
0.0
 11
2.8385233273
 21
18.7766305617
 31
0.0
 11
2.8495257703
 21
18.8491120783
 31
0.0
  0
SPLINE
  5
50F
100
AcDbEntity
  8
RACCORDO
100
AcDbSpline
 62
253
  6
CONTINUOUS
 70
0
 71
3
 72
11
 73
7
 74
5
 42
0.0000001
 43
0.0000001
 44
0.0000000001
 12
0.3243712491
 22
-0.1621680348
 32
0.0
 13
0.3292300846
 23
0.1520615998
 33
0.0
 40
0.0
 40
0.0
 40
0.0
 40
0.0
 40
0.2363471691
 40
0.5018768777
 40
0.7663880892
 40
1.0
 40
1.0
 40
1.0
 40
1.0
 10
2.8495257703
 20
18.8491120783
 30
0.0
 10
2.8750805124
 20
18.836336093
 30
0.0
 10
2.9336058015
 20
18.8177603043
 30
0.0
 10
3.026153098
 20
18.8076343764
 30
0.0
 10
3.1186847312
 20
18.8141501333
 30
0.0
 10
3.1774418045
 20
18.8304685063
 30
0.0
 10
3.2030791609
 20
18.8423096399
 30
0.0
 11
2.8495257703
 21
18.8491120783
 31
0.0
 11
2.9306640792
 21
18.8214894308
 31
0.0
 11
3.0263308963
 21
18.8105134237
 31
0.0
 11
3.1219775185
 21
18.8178167432
 31
0.0
 11
3.2030791609
 21
18.8423096399
 31
0.0
  0
SPLINE
  5
510
100
AcDbEntity
  8
RACCORDO
100
AcDbSpline
 62
253
  6
CONTINUOUS
 70
0
 71
3
 72
11
 73
7
 74
5
 42
0.0000001
 43
0.0000001
 44
0.0000000001
 12
0.267313289
 22
0.1279420203
 32
0.0
 13
-0.0000000003
 23
0.2963537667
 33
0.0
 40
0.0
 40
0.0
 40
0.0
 40
0.0
 40
0.2286190318
 40
0.4870720935
 40
0.7526205358
 40
1.0
 40
1.0
 40
1.0
 40
1.0
 10
1.3621333868
 20
19.27574007
 30
0.0
 10
1.3825043553
 20
19.2854900636
 30
0.0
 10
1.4215701369
 20
19.3153460796
 30
0.0
 10
1.4667075075
 20
19.3752495242
 30
0.0
 10
1.4974977971
 20
19.4456698282
 30
0.0
 10
1.5060228861
 20
19.4964262417
 30
0.0
 10
1.506022886
 20
19.5208635204
 30
0.0
 11
1.3621333868
 21
19.27574007
 31
0.0
 11
1.4170062652
 21
19.3154806763
 31
0.0
 11
1.4637250685
 21
19.37617601
 31
0.0
 11
1.495020442
 21
19.448381995
 31
0.0
 11
1.506022886
 21
19.5208635204
 31
0.0
  0
SPLINE
  5
511
100
AcDbEntity
  8
RACCORDO
100
AcDbSpline
 62
253
  6
CONTINUOUS
 70
0
 71
3
 72
8
 73
4
 74
2
 42
0.0000001
 43
0.0000001
 44
0.0000000001
 12
0.0156792675
 22
-0.000791969
 32
0.0
 13
0.0155782856
 23
0.0019451638
 33
0.0
 40
0.0
 40
0.0
 40
0.0
 40
0.0
 40
1.0
 40
1.0
 40
1.0
 40
1.0
 10
1.410678904
 20
19.5734681802
 30
0.0
 10
1.4159053265
 20
19.5732041905
 30
0.0
 10
1.4211756247
 20
19.5733736712
 30
0.0
 10
1.4263683865
 20
19.5740220591
 30
0.0
 11
1.410678904
 21
19.5734681802
 31
0.0
 11
1.4263683865
 21
19.5740220591
 31
0.0
  0
SPLINE
  5
512
100
AcDbEntity
  8
RACCORDO
100
AcDbSpline
 62
253
  6
CONTINUOUS
 70
0
 71
3
 72
8
 73
4
 74
2
 42
0.0000001
 43
0.0000001
 44
0.0000000001
 12
0.0253921028
 22
0.0031705542
 32
0.0
 13
0.0230832389
 23
0.0110442465
 33
0.0
 40
0.0
 40
0.0
 40
0.0
 40
0.0
 40
1.0
 40
1.0
 40
1.0
 40
1.0
 10
1.4263683865
 20
19.5740220591
 30
0.0
 10
1.4348324208
 20
19.5750789105
 30
0.0
 10
1.4432515067
 20
19.5774649796
 30
0.0
 10
1.4509459197
 20
19.5811463951
 30
0.0
 11
1.4263683865
 21
19.5740220591
 31
0.0
 11
1.4509459197
 21
19.5811463951
 31
0.0
  0
SPLINE
  5
513
100
AcDbEntity
  8
RACCORDO
100
AcDbSpline
 62
253
  6
CONTINUOUS
 70
0
 71
3
 72
9
 73
5
 74
3
 42
0.0000001
 43
0.0000001
 44
0.0000000001
 12
0.0784028949
 22
-0.1179873957
 32
0.0
 13
0.1266981488
 23
-0.0633689085
 33
0.0
 40
0.0
 40
0.0
 40
0.0
 40
0.0
 40
0.2185316941
 40
1.0
 40
1.0
 40
1.0
 40
1.0
 10
1.2526487805
 20
19.3641488363
 30
0.0
 10
1.258359953
 20
19.3555541745
 30
0.0
 10
1.2882498132
 20
19.3187011568
 30
0.0
 10
1.3291298576
 20
19.2922470012
 30
0.0
 10
1.3621333868
 20
19.27574007
 30
0.0
 11
1.2526487805
 21
19.3641488363
 31
0.0
 11
1.2719485649
 21
19.3399436788
 31
0.0
 11
1.3621333868
 21
19.27574007
 31
0.0
  0
SPLINE
  5
514
100
AcDbEntity
  8
RACCORDO
100
AcDbSpline
 62
253
  6
CONTINUOUS
 70
0
 71
3
 72
9
 73
5
 74
3
 42
0.0000001
 43
0.0000001
 44
0.0000000001
 12
0.0812967028
 22
0.0437701768
 32
0.0
 13
0.038222943
 23
0.0840475395
 33
0.0
 40
0.0
 40
0.0
 40
0.0
 40
0.0
 40
0.2871604962
 40
1.0
 40
1.0
 40
1.0
 40
1.0
 10
17.2745041065
 20
-26.6533718652
 30
0.0
 10
17.2822858403
 20
-26.6491821766
 30
0.0
 10
17.308441114
 20
-26.6332772417
 30
0.0
 10
17.3318428172
 20
-26.610352736
 30
0.0
 10
17.3409250918
 20
-26.5903819339
 30
0.0
 11
17.2745041065
 21
-26.6533718652
 31
0.0
 11
17.2970803005
 21
-26.6394687968
 31
0.0
 11
17.3409250918
 21
-26.5903819339
 31
0.0
  0
SPLINE
  5
515
100
AcDbEntity
  8
RACCORDO
100
AcDbSpline
 62
253
  6
CONTINUOUS
 70
0
 71
3
 72
9
 73
5
 74
3
 42
0.0000001
 43
0.0000001
 44
0.0000000001
 12
-0.0004368348
 22
0.0304323504
 32
0.0
 13
0.0045336488
 23
0.0300959267
 33
0.0
 40
0.0
 40
0.0
 40
0.0
 40
0.0
 40
0.257568287
 40
1.0
 40
1.0
 40
1.0
 40
1.0
 10
17.2745041065
 20
-26.6533718652
 30
0.0
 10
17.2744666016
 20
-26.6507590624
 30
0.0
 10
17.2745128511
 20
-26.6406138879
 30
0.0
 10
17.2753390171
 20
-26.6304661475
 30
0.0
 10
17.276460992
 20
-26.6230180907
 30
0.0
 11
17.2745041065
 21
-26.6533718652
 31
0.0
 11
17.2745421672
 21
-26.6455327417
 31
0.0
 11
17.276460992
 21
-26.6230180907
 31
0.0
  0
SPLINE
  5
516
100
AcDbEntity
  8
RACCORDO
100
AcDbSpline
 62
253
  6
CONTINUOUS
 70
0
 71
3
 72
9
 73
5
 74
3
 42
0.0000001
 43
0.0000001
 44
0.0000000001
 12
-0.0009125278
 22
0.0635717876
 32
0.0
 13
0.0243936007
 23
0.0587124955
 33
0.0
 40
0.0
 40
0.0
 40
0.0
 40
0.0
 40
0.2692555591
 40
1.0
 40
1.0
 40
1.0
 40
1.0
 10
16.5673973253
 20
-27.0220417854
 30
0.0
 10
16.5673154242
 20
-27.0163360997
 30
0.0
 10
16.5678803326
 20
-26.9951696663
 30
0.0
 10
16.5720974584
 20
-26.9738950371
 30
0.0
 10
16.5780392878
 20
-26.9595937605
 30
0.0
 11
16.5673973253
 21
-27.0220417854
 31
0.0
 11
16.5678844142
 21
-27.0049298959
 31
0.0
 11
16.5780392878
 21
-26.9595937605
 31
0.0
  0
SPLINE
  5
517
100
AcDbEntity
  8
RACCORDO
100
AcDbSpline
 62
253
  6
CONTINUOUS
 70
0
 71
3
 72
9
 73
5
 74
3
 42
0.0000001
 43
0.0000001
 44
0.0000000001
 12
0.1992318979
 22
-0.0123680175
 32
0.0
 13
0.1828185238
 23
0.0801480152
 33
0.0
 40
0.0
 40
0.0
 40
0.0
 40
0.0
 40
0.518907027
 40
1.0
 40
1.0
 40
1.0
 40
1.0
 10
16.3518829768
 20
-27.0626407617
 30
0.0
 10
16.3863439207
 20
-27.0647800455
 30
0.0
 10
16.4533253248
 20
-27.0617499876
 30
0.0
 10
16.5184241286
 20
-27.0444440743
 30
0.0
 10
16.5477416976
 20
-27.031591192
 30
0.0
 11
16.3518829768
 21
-27.0626407617
 31
0.0
 11
16.4553512458
 21
-27.0577914277
 31
0.0
 11
16.5477416976
 21
-27.031591192
 31
0.0
  0
SPLINE
  5
518
100
AcDbEntity
  8
RACCORDO
100
AcDbSpline
 62
253
  6
CONTINUOUS
 70
0
 71
3
 72
9
 73
5
 74
3
 42
0.0000001
 43
0.0000001
 44
0.0000000001
 12
-0.1688342853
 22
0.1612772804
 32
0.0
 13
0.0033037564
 23
0.2334619075
 33
0.0
 40
0.0
 40
0.0
 40
0.0
 40
0.0
 40
0.5059024405
 40
1.0
 40
1.0
 40
1.0
 40
1.0
 10
16.658103066
 20
11.9497560991
 30
0.0
 10
16.6296318403
 20
11.9769529557
 30
0.0
 10
16.5855953534
 20
12.0436492695
 30
0.0
 10
16.5668531993
 20
12.1216995715
 30
0.0
 10
16.5673973253
 20
12.1601505577
 30
0.0
 11
16.658103066
 21
11.9497560991
 31
0.0
 11
16.5915492706
 21
12.0473425204
 31
0.0
 11
16.5673973253
 21
12.1601505577
 31
0.0
  0
SPLINE
  5
519
100
AcDbEntity
  8
RACCORDO
100
AcDbSpline
 62
253
  6
CONTINUOUS
 70
0
 71
3
 72
9
 73
5
 74
3
 42
0.0000001
 43
0.0000001
 44
0.0000000001
 12
0.1673638995
 22
-0.0836557432
 32
0.0
 13
0.1844285446
 23
-0.0315447325
 33
0.0
 40
0.0
 40
0.0
 40
0.0
 40
0.0
 40
0.2305413761
 40
1.0
 40
1.0
 40
1.0
 40
1.0
 10
16.0699544355
 20
11.9218295457
 30
0.0
 10
16.08281587
 20
11.9154008423
 30
0.0
 10
16.139924492
 20
11.8901680975
 30
0.0
 10
16.2009392854
 20
11.8744425132
 30
0.0
 10
16.2482426634
 20
11.8663517243
 30
0.0
 11
16.0699544355
 21
11.9218295457
 31
0.0
 11
16.109355281
 21
11.904271758
 31
0.0
 11
16.2482426634
 21
11.8663517243
 31
0.0
  0
SPLINE
  5
51A
100
AcDbEntity
  8
RACCORDO
100
AcDbSpline
 62
253
  6
CONTINUOUS
 70
0
 71
3
 72
11
 73
7
 74
5
 42
0.0000001
 43
0.0000001
 44
0.0000000001
 12
0.2673132834
 22
0.1279420285
 32
0.0
 13
0.000000009
 23
0.2963537652
 33
0.0
 40
0.0
 40
0.0
 40
0.0
 40
0.0
 40
0.2286190611
 40
0.4870721424
 40
0.7526205645
 40
1.0
 40
1.0
 40
1.0
 40
1.0
 10
16.0699544355
 20
11.9218295457
 30
0.0
 10
16.0903254061
 20
11.9315795411
 30
0.0
 10
16.1293911897
 20
11.9614355625
 30
0.0
 10
16.1745285596
 20
12.0213390105
 30
0.0
 10
16.205318846
 20
12.0917593121
 30
0.0
 10
16.213843934
 20
12.1425157204
 30
0.0
 10
16.2138439347
 20
12.1669529961
 30
0.0
 11
16.0699544355
 21
11.9218295457
 31
0.0
 11
16.1248273186
 21
11.9615701596
 31
0.0
 11
16.1715461227
 21
12.0222654995
 31
0.0
 11
16.2028414917
 21
12.0944714795
 31
0.0
 11
16.2138439347
 21
12.1669529961
 31
0.0
  0
SPLINE
  5
51B
100
AcDbEntity
  8
RACCORDO
100
AcDbSpline
 62
253
  6
CONTINUOUS
 70
0
 71
3
 72
11
 73
7
 74
5
 42
0.0000001
 43
0.0000001
 44
0.0000000001
 12
0.3243712491
 22
-0.1621680348
 32
0.0
 13
0.3292300846
 23
0.1520615998
 33
0.0
 40
0.0
 40
0.0
 40
0.0
 40
0.0
 40
0.2363471691
 40
0.5018768777
 40
0.7663880892
 40
1.0
 40
1.0
 40
1.0
 40
1.0
 10
16.2138439347
 20
12.1669529961
 30
0.0
 10
16.2393986769
 20
12.1541770108
 30
0.0
 10
16.2979239659
 20
12.1356012221
 30
0.0
 10
16.3904712625
 20
12.1254752942
 30
0.0
 10
16.4830028956
 20
12.1319910511
 30
0.0
 10
16.5417599689
 20
12.1483094241
 30
0.0
 10
16.5673973253
 20
12.1601505577
 30
0.0
 11
16.2138439347
 21
12.1669529961
 31
0.0
 11
16.2949822436
 21
12.1393303486
 31
0.0
 11
16.3906490608
 21
12.1283543415
 31
0.0
 11
16.4862956829
 21
12.1356576609
 31
0.0
 11
16.5673973253
 21
12.1601505577
 31
0.0
  0
SPLINE
  5
51C
100
AcDbEntity
  8
RACCORDO
100
AcDbSpline
 62
253
  6
CONTINUOUS
 70
0
 71
3
 72
11
 73
7
 74
5
 42
0.0000001
 43
0.0000001
 44
0.0000000001
 12
0.267313289
 22
0.1279420203
 32
0.0
 13
-0.0000000003
 23
0.2963537667
 33
0.0
 40
0.0
 40
0.0
 40
0.0
 40
0.0
 40
0.2286190318
 40
0.4870720935
 40
0.7526205358
 40
1.0
 40
1.0
 40
1.0
 40
1.0
 10
14.7264515512
 20
12.5935809878
 30
0.0
 10
14.7468225197
 20
12.6033309814
 30
0.0
 10
14.7858883014
 20
12.6331869974
 30
0.0
 10
14.8310256719
 20
12.693090442
 30
0.0
 10
14.8618159615
 20
12.7635107459
 30
0.0
 10
14.8703410505
 20
12.8142671595
 30
0.0
 10
14.8703410505
 20
12.8387044382
 30
0.0
 11
14.7264515512
 21
12.5935809878
 31
0.0
 11
14.7813244296
 21
12.6333215941
 31
0.0
 11
14.828043233
 21
12.6940169278
 31
0.0
 11
14.8593386064
 21
12.7662229128
 31
0.0
 11
14.8703410505
 21
12.8387044382
 31
0.0
  0
SPLINE
  5
51D
100
AcDbEntity
  8
RACCORDO
100
AcDbSpline
 62
253
  6
CONTINUOUS
 70
0
 71
3
 72
15
 73
11
 74
9
 42
0.0000001
 43
0.0000001
 44
0.0000000001
 12
-0.385973033
 22
-0.1846858223
 32
0.0
 13
0.3826864049
 23
-0.1914031106
 33
0.0
 40
0.0
 40
0.0
 40
0.0
 40
0.0
 40
0.1514215024
 40
0.2826422058
 40
0.3956485339
 40
0.4978215362
 40
0.6004151778
 40
0.7145220656
 40
0.8471579877
 40
1.0
 40
1.0
 40
1.0
 40
1.0
 10
14.7264515512
 20
12.904976601
 30
0.0
 10
14.7069700124
 20
12.8956547994
 30
0.0
 10
14.6717543142
 20
12.875561544
 30
0.0
 10
14.6288385593
 20
12.8381891599
 30
0.0
 10
14.6012499636
 20
12.7961736032
 30
0.0
 10
14.5915464437
 20
12.7506290321
 30
0.0
 10
14.6013034838
 20
12.7049515473
 30
0.0
 10
14.6288681867
 20
12.6624576601
 30
0.0
 10
14.6717292884
 20
12.62420189
 30
0.0
 10
14.7069546978
 20
12.6033324667
 30
0.0
 10
14.7264515512
 20
12.5935809878
 30
0.0
 11
14.7264515512
 21
12.904976601
 31
0.0
 11
14.6705455126
 21
12.8722298163
 31
0.0
 11
14.6288951675
 21
12.8345768018
 31
0.0
 11
14.6033015951
 21
12.7935520417
 31
0.0
 11
14.5946760192
 21
12.7506932886
 31
0.0
 11
14.603297557
 21
12.7076501485
 31
0.0
 11
14.6289025719
 21
12.6660784363
 31
0.0
 11
14.6705557055
 21
12.6275312767
 31
0.0
 11
14.7264515512
 21
12.5935809878
 31
0.0
  0
SPLINE
  5
51E
100
AcDbEntity
  8
RACCORDO
100
AcDbSpline
 62
253
  6
CONTINUOUS
 70
0
 71
3
 72
9
 73
5
 74
3
 42
0.0000001
 43
0.0000001
 44
0.0000000001
 12
0.0592552807
 22
-0.0296276402
 32
0.0
 13
0.0657206195
 23
0.0083537735
 33
0.0
 40
0.0
 40
0.0
 40
0.0
 40
0.0
 40
0.2718090839
 40
1.0
 40
1.0
 40
1.0
 40
1.0
 10
14.7264515512
 20
12.904976601
 30
0.0
 10
14.7318202591
 20
12.9022922471
 30
0.0
 10
14.7520597115
 20
12.8935603379
 30
0.0
 10
14.7749273839
 20
12.8898501512
 30
0.0
 10
14.7908797699
 20
12.8918778652
 30
0.0
 11
14.7264515512
 21
12.904976601
 31
0.0
 11
14.7430169665
 21
12.8979164284
 31
0.0
 11
14.7908797699
 21
12.8918778652
 31
0.0
  0
SPLINE
  5
51F
100
AcDbEntity
  8
RACCORDO
100
AcDbSpline
 62
253
  6
CONTINUOUS
 70
0
 71
3
 72
8
 73
4
 74
2
 42
0.0000001
 43
0.0000001
 44
0.0000000001
 12
0.0251959546
 22
0.0032026676
 32
0.0
 13
0.0229137509
 23
0.0109568804
 33
0.0
 40
0.0
 40
0.0
 40
0.0
 40
0.0
 40
1.0
 40
1.0
 40
1.0
 40
1.0
 10
14.7908797699
 20
12.8918778652
 30
0.0
 10
14.7992784214
 20
12.8929454211
 30
0.0
 10
14.8076237608
 20
12.8953400484
 30
0.0
 10
14.8152616778
 20
12.8989923419
 30
0.0
 11
14.7908797699
 21
12.8918778652
 31
0.0
 11
14.8152616778
 21
12.8989923419
 31
0.0
  0
SPLINE
  5
520
100
AcDbEntity
  8
RACCORDO
100
AcDbSpline
 62
253
  6
CONTINUOUS
 70
0
 71
3
 72
10
 73
6
 74
4
 42
0.0000001
 43
0.0000001
 44
0.0000000001
 12
0.2110954049
 22
0.1048616986
 32
0.0
 13
0.2122381852
 23
-0.102529013
 33
0.0
 40
0.0
 40
0.0
 40
0.0
 40
0.0
 40
0.229603066
 40
0.4688204106
 40
1.0
 40
1.0
 40
1.0
 40
1.0
 10
1.0243684241
 20
19.3760259813
 30
0.0
 10
1.0405244749
 20
19.3840515038
 30
0.0
 10
1.0759693117
 20
19.3959060621
 30
0.0
 10
1.1550819846
 20
19.4006896343
 30
0.0
 10
1.215086843
 20
19.3823110051
 30
0.0
 10
1.2526657071
 20
19.3641572321
 30
0.0
 11
1.0243684241
 21
19.3760259813
 31
0.0
 11
1.0756369383
 21
19.3933575228
 31
0.0
 11
1.1318931201
 21
19.397165666
 31
0.0
 11
1.2526657071
 21
19.3641572321
 31
0.0
  0
SPLINE
  5
521
100
AcDbEntity
  8
RACCORDO
100
AcDbSpline
 62
253
  6
CONTINUOUS
 70
0
 71
3
 72
9
 73
5
 74
3
 42
0.0000001
 43
0.0000001
 44
0.0000000001
 12
-0.0564159012
 22
-0.0270018913
 32
0.0
 13
-0.0621397632
 23
0.0071067483
 33
0.0
 40
0.0
 40
0.0
 40
0.0
 40
0.0
 40
0.2713533432
 40
1.0
 40
1.0
 40
1.0
 40
1.0
 10
17.4134573197
 20
12.5648595815
 30
0.0
 10
17.4083544386
 20
12.5624172303
 30
0.0
 10
17.3891226557
 20
12.5544575725
 30
0.0
 10
17.3676260092
 20
12.5510191341
 30
0.0
 10
17.3525333657
 20
12.5527452369
 30
0.0
 11
17.4134573197
 21
12.5648595815
 31
0.0
 11
17.3977504536
 21
12.5584303801
 31
0.0
 11
17.3525333657
 21
12.5527452369
 31
0.0
  0
SPLINE
  5
522
100
AcDbEntity
  8
RACCORDO
100
AcDbSpline
 62
253
  6
CONTINUOUS
 70
0
 71
3
 72
8
 73
4
 74
2
 42
0.0000001
 43
0.0000001
 44
0.0000000001
 12
-0.026971651
 22
0.0030846712
 32
0.0
 13
-0.0242857529
 23
0.0121320797
 33
0.0
 40
0.0
 40
0.0
 40
0.0
 40
0.0
 40
1.0
 40
1.0
 40
1.0
 40
1.0
 10
17.3525333657
 20
12.5527452369
 30
0.0
 10
17.3435428153
 20
12.5537734606
 30
0.0
 10
17.3345800867
 20
12.5563470747
 30
0.0
 10
17.3264848358
 20
12.5603911013
 30
0.0
 11
17.3525333657
 21
12.5527452369
 31
0.0
 11
17.3264848358
 21
12.5603911013
 31
0.0
  0
SPLINE
  5
523
100
AcDbEntity
  8
RACCORDO
100
AcDbSpline
 62
253
  6
CONTINUOUS
 70
0
 71
3
 72
9
 73
5
 74
3
 42
0.0000001
 43
0.0000001
 44
0.0000000001
 12
-0.1754576869
 22
0.1610663313
 32
0.0
 13
0.0033701286
 23
0.2381520632
 33
0.0
 40
0.0
 40
0.0
 40
0.0
 40
0.0
 40
0.5047721275
 40
1.0
 40
1.0
 40
1.0
 40
1.0
 10
17.3687144309
 20
12.2849108529
 30
0.0
 10
17.3391923809
 20
12.3120114511
 30
0.0
 10
17.2934725015
 20
12.3796728454
 30
0.0
 10
17.2739477793
 20
12.4592742388
 30
0.0
 10
17.2745041065
 20
12.4985874187
 30
0.0
 11
17.3687144309
 21
12.2849108529
 31
0.0
 11
17.2997105318
 21
12.3833608739
 31
0.0
 11
17.2745041065
 21
12.4985874187
 31
0.0
  0
SPLINE
  5
524
100
AcDbEntity
  8
RACCORDO
100
AcDbSpline
 62
253
  6
CONTINUOUS
 70
0
 71
3
 72
10
 73
6
 74
4
 42
0.0000001
 43
0.0000001
 44
0.0000000001
 12
0.1000264795
 22
0.0461621917
 32
0.0
 13
0.0114502833
 23
0.1095679495
 33
0.0
 40
0.0
 40
0.0
 40
0.0
 40
0.0
 40
0.3046286573
 40
0.5704755089
 40
1.0
 40
1.0
 40
1.0
 40
1.0
 10
17.2745041065
 20
12.4985874187
 30
0.0
 10
17.2846610839
 20
12.5032748608
 30
0.0
 10
17.3031550892
 20
12.5134536521
 30
0.0
 10
17.3317638812
 20
12.5363681641
 30
0.0
 10
17.3457614903
 20
12.560431206
 30
0.0
 10
17.3474008826
 20
12.5761185786
 30
0.0
 11
17.2745041065
 21
12.4985874187
 31
0.0
 11
17.3037926064
 21
12.5149706572
 31
0.0
 11
17.3262194822
 21
12.5338057003
 31
0.0
 11
17.3474008826
 21
12.5761185786
 31
0.0
  0
SPLINE
  5
525
100
AcDbEntity
  8
RACCORDO
100
AcDbSpline
 62
253
  6
CONTINUOUS
 70
0
 71
3
 72
9
 73
5
 74
3
 42
0.0000001
 43
0.0000001
 44
0.0000000001
 12
-0.070988012
 22
0.1445658652
 32
0.0
 13
-0.1440497109
 23
0.072029633
 33
0.0
 40
0.0
 40
0.0
 40
0.0
 40
0.0
 40
0.4483272618
 40
1.0
 40
1.0
 40
1.0
 40
1.0
 10
17.5326810117
 20
12.4595844126
 30
0.0
 10
17.5220723913
 20
12.4811886855
 30
0.0
 10
17.4859999492
 20
12.523117413
 30
0.0
 10
17.4399467526
 20
12.5516139865
 30
0.0
 10
17.4134573197
 20
12.5648595815
 30
0.0
 11
17.5326810117
 21
12.4595844126
 31
0.0
 11
17.4877217679
 21
12.5160844416
 31
0.0
 11
17.4134573197
 21
12.5648595815
 31
0.0
  0
SPLINE
  5
526
100
AcDbEntity
  8
RACCORDO
100
AcDbSpline
 62
253
  6
CONTINUOUS
 70
0
 71
3
 72
9
 73
5
 74
3
 42
0.0000001
 43
0.0000001
 44
0.0000000001
 12
0.0185549612
 22
0.0502320817
 32
0.0
 13
0.0155225426
 23
0.0512503589
 33
0.0
 40
0.0
 40
0.0
 40
0.0
 40
0.0
 40
0.2435459674
 40
1.0
 40
1.0
 40
1.0
 40
1.0
 10
1.2526261801
 20
19.3641846323
 30
0.0
 10
1.2541325088
 20
19.3682625726
 30
0.0
 10
1.2598249614
 20
19.3851900622
 30
0.0
 10
1.2642263502
 20
19.4025041987
 30
0.0
 10
1.2681403802
 20
19.4154270456
 30
0.0
 11
1.2526261801
 21
19.3641846323
 31
0.0
 11
1.2568286775
 21
19.3765307501
 31
0.0
 11
1.2681403802
 21
19.4154270456
 31
0.0
  0
SPLINE
  5
527
100
AcDbEntity
  8
RACCORDO
100
AcDbSpline
 62
253
  6
CONTINUOUS
 70
0
 71
3
 72
10
 73
6
 74
4
 42
0.0000001
 43
0.0000001
 44
0.0000000001
 12
0.063468689
 22
0.209552853
 32
0.0
 13
0.1973729766
 23
0.0947870287
 33
0.0
 40
0.0
 40
0.0
 40
0.0
 40
0.0
 40
0.2194931185
 40
0.4521466587
 40
1.0
 40
1.0
 40
1.0
 40
1.0
 10
1.2681403802
 20
19.4154270456
 30
0.0
 10
1.272784027
 20
19.4307588487
 30
0.0
 10
1.2843173466
 20
19.4619099553
 30
0.0
 10
1.3253342408
 20
19.5231624248
 30
0.0
 10
1.3746338524
 20
19.5561609782
 30
0.0
 10
1.4106776673
 20
19.573470775
 30
0.0
 11
1.2681403802
 21
19.4154270456
 31
0.0
 11
1.2856341675
 21
19.460188817
 31
0.0
 11
1.3139415831
 21
19.5025398161
 31
0.0
 11
1.4106776673
 21
19.573470775
 31
0.0
  0
SPLINE
  5
528
100
AcDbEntity
  8
RACCORDO
100
AcDbSpline
 62
253
  6
CONTINUOUS
 70
0
 71
3
 72
9
 73
5
 74
3
 42
0.0000001
 43
0.0000001
 44
0.0000000001
 12
0.0
 22
-0.2514099855
 32
0.0
 13
-0.1603874962
 23
-0.1936048343
 33
0.0
 40
0.0
 40
0.0
 40
0.0
 40
0.0
 40
0.4868861085
 40
1.0
 40
1.0
 40
1.0
 40
1.0
 10
16.2138439347
 20
-27.3307476835
 30
0.0
 10
16.2138439347
 20
-27.37155036
 30
0.0
 10
16.1953742799
 20
-27.4553897203
 30
0.0
 10
16.1528879378
 20
-27.5293280807
 30
0.0
 10
16.1254555871
 20
-27.5624418574
 30
0.0
 11
16.2138439347
 21
-27.3307476835
 31
0.0
 11
16.1901653482
 21
-27.4508436877
 31
0.0
 11
16.1254555871
 21
-27.5624418574
 31
0.0
  0
SPLINE
  5
529
100
AcDbEntity
  8
RACCORDO
100
AcDbSpline
 62
253
  6
CONTINUOUS
 70
0
 71
3
 72
9
 73
5
 74
3
 42
0.0000001
 43
0.0000001
 44
0.0000000001
 12
0.0
 22
-0.2514099855
 32
0.0
 13
-0.1603874962
 23
-0.1936048343
 33
0.0
 40
0.0
 40
0.0
 40
0.0
 40
0.0
 40
0.4868861085
 40
1.0
 40
1.0
 40
1.0
 40
1.0
 10
14.8703410505
 20
-26.6589962414
 30
0.0
 10
14.8703410505
 20
-26.6997989179
 30
0.0
 10
14.8518713957
 20
-26.7836382782
 30
0.0
 10
14.8093850536
 20
-26.8575766386
 30
0.0
 10
14.7819527028
 20
-26.8906904152
 30
0.0
 11
14.8703410505
 21
-26.6589962414
 31
0.0
 11
14.8466624639
 21
-26.7790922456
 31
0.0
 11
14.7819527028
 21
-26.8906904152
 31
0.0
  0
SPLINE
  5
52A
100
AcDbEntity
  8
RACCORDO
100
AcDbSpline
 62
7
  6
CONTINUOUS
 70
0
 71
3
 72
10
 73
6
 74
4
 42
0.0000001
 43
0.0000001
 44
0.0000000001
 12
-0.2068624299
 22
0.1034310466
 32
0.0
 13
-0.2068623626
 23
-0.1034311813
 33
0.0
 40
0.0
 40
0.0
 40
0.0
 40
0.0
 40
0.2277204504
 40
0.4659009814
 40
1.0
 40
1.0
 40
1.0
 40
1.0
 10
12.972624515
 20
21.291032081
 30
0.0
 10
12.9569222465
 20
21.2988832025
 30
0.0
 10
12.922307857
 20
21.3103921881
 30
0.0
 10
12.8445964518
 20
21.3143067643
 30
0.0
 10
12.7858490352
 20
21.2952458049
 30
0.0
 10
12.7490207069
 20
21.2768316408
 30
0.0
 11
12.972624515
 21
21.291032081
 31
0.0
 11
12.9227048016
 21
21.3078200032
 31
0.0
 11
12.8677132568
 21
21.3110477692
 31
0.0
 11
12.7490207069
 21
21.2768316408
 31
0.0
  0
SPLINE
  5
52B
100
AcDbEntity
  8
RACCORDO
100
AcDbSpline
 62
253
  6
CONTINUOUS
 70
0
 71
3
 72
9
 73
5
 74
3
 42
0.0000001
 43
0.0000001
 44
0.0000000001
 12
0.3207728743
 22
0.3872071118
 32
0.0
 13
0.0
 23
0.5028166508
 33
0.0
 40
0.0
 40
0.0
 40
0.0
 40
0.0
 40
0.5131129059
 40
1.0
 40
1.0
 40
1.0
 40
1.0
 10
16.39062063
 20
-27.7941360312
 30
0.0
 10
16.4454848639
 20
-27.7279090424
 30
0.0
 10
16.5304392031
 20
-27.5800249758
 30
0.0
 10
16.5673973253
 20
-27.4123526629
 30
0.0
 10
16.5673973253
 20
-27.3307476835
 30
0.0
 11
16.39062063
 21
-27.7941360312
 31
0.0
 11
16.5200305226
 21
-27.5709366505
 31
0.0
 11
16.5673973253
 21
-27.3307476835
 31
0.0
  0
SPLINE
  5
52C
100
AcDbEntity
  8
RACCORDO
100
AcDbSpline
 62
7
  6
CONTINUOUS
 70
0
 71
3
 72
11
 73
7
 74
5
 42
0.0000001
 43
0.0000001
 44
0.0000000001
 12
-0.4025879436
 22
0.2012804126
 32
0.0
 13
-0.4059943767
 23
-0.1943178401
 33
0.0
 40
0.0
 40
0.0
 40
0.0
 40
0.0
 40
0.2279938256
 40
0.4659602826
 40
0.7218001075
 40
1.0
 40
1.0
 40
1.0
 40
1.0
 10
15.3175322821
 20
20.6486150457
 30
0.0
 10
15.286936427
 20
20.6639119428
 30
0.0
 10
15.2197207789
 20
20.6865493917
 30
0.0
 10
15.1105524634
 20
20.6931385531
 30
0.0
 10
14.9955692613
 20
20.6732274902
 30
0.0
 10
14.9203309627
 20
20.6442638319
 30
0.0
 10
14.8826817654
 20
20.6262440978
 30
0.0
 11
15.3175322821
 21
20.6486150457
 31
0.0
 11
15.2203792706
 21
20.6816635716
 31
0.0
 11
15.1135198983
 21
20.6889708701
 31
0.0
 11
14.9998869095
 21
20.6703180137
 31
0.0
 11
14.8826817654
 21
20.6262440978
 31
0.0
  0
SPLINE
  5
52D
100
AcDbEntity
  8
RACCORDO
100
AcDbSpline
 62
253
  6
CONTINUOUS
 70
0
 71
3
 72
11
 73
7
 74
5
 42
0.0000001
 43
0.0000001
 44
0.0000000001
 12
-0.324954929
 22
-0.1624774645
 32
0.0
 13
-0.324954929
 23
0.1624774645
 33
0.0
 40
0.0
 40
0.0
 40
0.0
 40
0.0
 40
0.2353701082
 40
0.5
 40
0.7646298918
 40
1.0
 40
1.0
 40
1.0
 40
1.0
 10
16.5673973253
 20
-27.3307476835
 30
0.0
 10
16.541902433
 20
-27.3434951297
 30
0.0
 10
16.4833098351
 20
-27.3616792555
 30
0.0
 10
16.39062063
 20
-27.370365574
 30
0.0
 10
16.297931425
 20
-27.3616792555
 30
0.0
 10
16.239338827
 20
-27.3434951297
 30
0.0
 10
16.2138439347
 20
-27.3307476835
 30
0.0
 11
16.5673973253
 21
-27.3307476835
 31
0.0
 11
16.4862914881
 21
-27.3578442775
 31
0.0
 11
16.39062063
 21
-27.3673593359
 31
0.0
 11
16.2949497719
 21
-27.3578442775
 31
0.0
 11
16.2138439347
 21
-27.3307476835
 31
0.0
  0
SPLINE
  5
52E
100
AcDbEntity
  8
RACCORDO
100
AcDbSpline
 62
253
  6
CONTINUOUS
 70
0
 71
3
 72
10
 73
6
 74
4
 42
0.0000001
 43
0.0000001
 44
0.0000000001
 12
0.4185825973
 22
0.032454263
 32
0.0
 13
0.3791952386
 23
0.1802099915
 33
0.0
 40
0.0
 40
0.0
 40
0.0
 40
0.0
 40
0.2647647673
 40
0.5267054518
 40
1.0
 40
1.0
 40
1.0
 40
1.0
 10
16.2482987248
 20
11.8663473605
 30
0.0
 10
16.2852406994
 20
11.869211609
 30
0.0
 10
16.3586854073
 20
11.8761569083
 30
0.0
 10
16.4971723116
 20
11.8948910595
 30
0.0
 10
16.5982799185
 20
11.9213246036
 30
0.0
 10
16.6581035982
 20
11.9497554058
 30
0.0
 11
16.2482987248
 21
11.8663473605
 31
0.0
 11
16.3589521253
 21
11.8769325224
 31
0.0
 11
16.4678120903
 21
11.8925383585
 31
0.0
 11
16.6581035982
 21
11.9497554058
 31
0.0
  0
SPLINE
  5
52F
100
AcDbEntity
  8
RACCORDO
100
AcDbSpline
 62
253
  6
CONTINUOUS
 70
0
 71
3
 72
9
 73
5
 74
3
 42
0.0000001
 43
0.0000001
 44
0.0000000001
 12
0.3048477605
 22
0.1407144761
 32
0.0
 13
0.3056706765
 23
0.1389178115
 33
0.0
 40
0.0
 40
0.0
 40
0.0
 40
0.0
 40
0.4977161132
 40
1.0
 40
1.0
 40
1.0
 40
1.0
 10
16.5893389824
 20
11.2504973534
 30
0.0
 10
16.6399148632
 20
11.2738426407
 30
0.0
 10
16.7355007292
 20
11.3325806493
 30
0.0
 10
16.8275368854
 20
11.3974854493
 30
0.0
 10
16.8787147039
 20
11.4207441754
 30
0.0
 11
16.5893389824
 21
11.2504973534
 31
0.0
 11
16.7341847758
 21
11.3338399931
 31
0.0
 11
16.8787147039
 21
11.4207441754
 31
0.0
  0
SPLINE
  5
530
100
AcDbEntity
  8
RACCORDO
100
AcDbSpline
 62
253
  6
CONTINUOUS
 70
0
 71
3
 72
11
 73
7
 74
5
 42
0.0000001
 43
0.0000001
 44
0.0000000001
 12
0.6512395105
 22
-0.3368434973
 32
0.0
 13
-0.0106227556
 23
-0.7331190891
 33
0.0
 40
0.0
 40
0.0
 40
0.0
 40
0.0
 40
0.2280517953
 40
0.485946771
 40
0.7515354279
 40
1.0
 40
1.0
 40
1.0
 40
1.0
 10
16.2482393598
 20
11.8663501965
 30
0.0
 10
16.2977448063
 20
11.840744275
 30
0.0
 10
16.3919654561
 20
11.7643173129
 30
0.0
 10
16.4994456958
 20
11.613419379
 30
0.0
 10
16.5715362248
 20
11.4373614669
 30
0.0
 10
16.5902187752
 20
11.3112153937
 30
0.0
 10
16.5893389824
 20
11.2504973534
 30
0.0
 11
16.2482393598
 21
11.8663501965
 31
0.0
 11
16.3807341455
 21
11.7643540996
 31
0.0
 11
16.4920402372
 21
11.6114977437
 31
0.0
 11
16.5653079206
 21
11.4310786318
 31
0.0
 11
16.5893389824
 21
11.2504973534
 31
0.0
  0
LINE
  5
531
100
AcDbEntity
  8
RACCORDO
100
AcDbLine
 62
253
  6
CONTINUOUS
 10
16.8787147039
 20
11.4207441754
 11
17.5979379649
 21
11.7476256845
  0
SPLINE
  5
532
100
AcDbEntity
  8
RACCORDO
100
AcDbSpline
 62
253
  6
CONTINUOUS
 70
0
 71
3
 72
11
 73
7
 74
5
 42
0.0000001
 43
0.0000001
 44
0.0000000001
 12
0.4181618484
 22
-0.4116118851
 32
0.0
 13
-0.0114922088
 23
-0.5866443595
 33
0.0
 40
0.0
 40
0.0
 40
0.0
 40
0.0
 40
0.2462879081
 40
0.504747665
 40
0.7607052784
 40
1.0
 40
1.0
 40
1.0
 40
1.0
 10
16.6581030659
 20
11.9497560991
 30
0.0
 10
16.6924324682
 20
11.9159644224
 30
0.0
 10
16.7548190026
 20
11.8383708896
 30
0.0
 10
16.8247948817
 20
11.7061686342
 30
0.0
 10
16.8691709702
 20
11.5647484482
 30
0.0
 10
16.8795598872
 20
11.4675053307
 30
0.0
 10
16.8786432122
 20
11.4207116978
 30
0.0
 11
16.6581030659
 21
11.9497560991
 31
0.0
 11
16.7495157017
 21
11.8378311353
 31
0.0
 11
16.8207252475
 21
11.7039362216
 31
0.0
 11
16.8651384775
 21
11.5604685634
 31
0.0
 11
16.8786432122
 21
11.4207116978
 31
0.0
  0
SPLINE
  5
533
100
AcDbEntity
  8
RACCORDO
100
AcDbSpline
 62
253
  6
CONTINUOUS
 70
0
 71
3
 72
11
 73
7
 74
5
 42
0.0000001
 43
0.0000001
 44
0.0000000001
 12
0.222658772
 22
0.1055330666
 32
0.0
 13
0.1026419384
 23
0.2240062262
 33
0.0
 40
0.0
 40
0.0
 40
0.0
 40
0.0
 40
0.3088744716
 40
0.5674675809
 40
0.7883368477
 40
1.0
 40
1.0
 40
1.0
 40
1.0
 10
17.3687146368
 20
12.2849117505
 30
0.0
 10
17.3916391736
 20
12.2957772406
 30
0.0
 10
17.4324270041
 20
12.3189451356
 30
0.0
 10
17.481158565
 20
12.3625795563
 30
0.0
 10
17.5124120732
 20
12.4106639694
 30
0.0
 10
17.525439632
 20
12.4437788176
 30
0.0
 10
17.5326814707
 20
12.459583439
 30
0.0
 11
17.3687146368
 21
12.2849117505
 31
0.0
 11
17.4343495584
 21
12.3234396162
 31
0.0
 11
17.4811760642
 21
12.3666513979
 31
0.0
 11
17.5111251134
 21
12.4120924291
 31
0.0
 11
17.5326814707
 21
12.459583439
 31
0.0
  0
SPLINE
  5
534
100
AcDbEntity
  8
RACCORDO
100
AcDbSpline
 62
253
  6
CONTINUOUS
 70
0
 71
3
 72
11
 73
7
 74
5
 42
0.0000001
 43
0.0000001
 44
0.0000000001
 12
0.2661857721
 22
0.1209887232
 32
0.0
 13
0.2654433732
 23
0.1226089394
 33
0.0
 40
0.0
 40
0.0
 40
0.0
 40
0.0
 40
0.2529471725
 40
0.4975323023
 40
0.7443094627
 40
1.0
 40
1.0
 40
1.0
 40
1.0
 10
17.5979379649
 20
11.7476256845
 30
0.0
 10
17.620381611
 20
11.7578269363
 30
0.0
 10
17.6660572857
 20
11.7745482965
 30
0.0
 10
17.7360306949
 20
11.7936450027
 30
0.0
 10
17.8056792952
 20
11.814995318
 30
0.0
 10
17.8512155453
 20
11.8332682273
 30
0.0
 10
17.8738393315
 20
11.8437182091
 30
0.0
 11
17.5979379649
 21
11.7476256845
 31
0.0
 11
17.667108743
 21
11.7738067571
 31
0.0
 11
17.7357296545
 21
11.7939445611
 31
0.0
 11
17.8045324527
 21
11.815684355
 31
0.0
 11
17.8738393315
 21
11.8437182091
 31
0.0
  0
SPLINE
  5
535
100
AcDbEntity
  8
RACCORDO
100
AcDbSpline
 62
253
  6
CONTINUOUS
 70
0
 71
3
 72
11
 73
7
 74
5
 42
0.0000001
 43
0.0000001
 44
0.0000000001
 12
0.434907209
 22
-0.4113304504
 32
0.0
 13
-0.011598659
 23
-0.5985002014
 33
0.0
 40
0.0
 40
0.0
 40
0.0
 40
0.0
 40
0.2451288525
 40
0.5036123513
 40
0.7601874968
 40
1.0
 40
1.0
 40
1.0
 40
1.0
 10
17.3687146368
 20
12.2849117505
 30
0.0
 10
17.4042507384
 20
12.2513020967
 30
0.0
 10
17.4689769789
 20
12.1732395812
 30
0.0
 10
17.5416769334
 20
12.0391473812
 30
0.0
 10
17.5879544814
 20
11.894912954
 30
0.0
 10
17.5988735525
 20
11.7954719389
 30
0.0
 10
17.5979463847
 20
11.7476293284
 30
0.0
 11
17.3687146368
 21
12.2849117505
 31
0.0
 11
17.4633363766
 21
12.1727576757
 31
0.0
 11
17.5374062569
 21
12.0369067211
 31
0.0
 11
17.5837690802
 21
11.890482327
 31
0.0
 11
17.5979463847
 21
11.7476293284
 31
0.0
  0
SPLINE
  5
536
100
AcDbEntity
  8
RACCORDO
100
AcDbSpline
 62
253
  6
CONTINUOUS
 70
0
 71
3
 72
11
 73
7
 74
5
 42
0.0000001
 43
0.0000001
 44
0.0000000001
 12
0.6512282866
 22
-0.3369341594
 32
0.0
 13
-0.0105536137
 23
-0.7331517785
 33
0.0
 40
0.0
 40
0.0
 40
0.0
 40
0.0
 40
0.2280358042
 40
0.4859386048
 40
0.751534838
 40
1.0
 40
1.0
 40
1.0
 40
1.0
 10
17.5326809101
 20
12.4595843657
 30
0.0
 10
17.5821820321
 20
12.4339733484
 30
0.0
 10
17.6763996484
 20
12.3575423553
 30
0.0
 10
17.7839059033
 20
12.2066540828
 30
0.0
 10
17.8560160887
 20
12.0305903606
 30
0.0
 10
17.8747133999
 20
11.9044391009
 30
0.0
 10
17.8738393315
 20
11.8437182091
 30
0.0
 11
17.5326809101
 21
12.4595843657
 31
0.0
 11
17.6651685169
 21
12.3575863184
 31
0.0
 11
17.7764985929
 21
12.2047302222
 31
0.0
 11
17.8497891502
 21
12.0243053212
 31
0.0
 11
17.8738393315
 21
11.8437182091
 31
0.0
  0
SPLINE
  5
537
100
AcDbEntity
  8
RACCORDO
100
AcDbSpline
 62
253
  6
CONTINUOUS
 70
0
 71
3
 72
11
 73
7
 74
5
 42
0.0000001
 43
0.0000001
 44
0.0000000001
 12
0.2764622226
 22
0.1392845167
 32
0.0
 13
0.2755993419
 23
0.1409841831
 33
0.0
 40
0.0
 40
0.0
 40
0.0
 40
0.0
 40
0.2563866308
 40
0.5026664298
 40
0.7462301632
 40
1.0
 40
1.0
 40
1.0
 40
1.0
 10
16.5893451634
 20
-26.7315866063
 30
0.0
 10
16.612972236
 20
-26.7196830436
 30
0.0
 10
16.660589472
 20
-26.6988251542
 30
0.0
 10
16.733760795
 20
-26.6746589465
 30
0.0
 10
16.807505325
 20
-26.6535134388
 30
0.0
 10
16.8553554165
 20
-26.6343363614
 30
0.0
 10
16.8786683498
 20
-26.622410517
 30
0.0
 11
16.5893451634
 21
-26.7315866063
 31
0.0
 11
16.661981742
 21
-26.6995971124
 31
0.0
 11
16.7341652911
 21
-26.6750598688
 31
0.0
 11
16.8061404313
 21
-26.6525960872
 31
0.0
 11
16.8786683498
 21
-26.622410517
 31
0.0
  0
SPLINE
  5
538
100
AcDbEntity
  8
RACCORDO
100
AcDbSpline
 62
253
  6
CONTINUOUS
 70
0
 71
3
 72
11
 73
7
 74
5
 42
0.0000001
 43
0.0000001
 44
0.0000000001
 12
-0.1865148908
 22
0.3024003869
 32
0.0
 13
-0.3177845792
 23
0.1588922896
 33
0.0
 40
0.0
 40
0.0
 40
0.0
 40
0.0
 40
0.218477527
 40
0.4824886594
 40
0.7557089095
 40
1.0
 40
1.0
 40
1.0
 40
1.0
 10
15.8602905441
 20
-28.4343010741
 30
0.0
 10
15.8467074401
 20
-28.4122785112
 30
0.0
 10
15.8106323688
 20
-28.3674950987
 30
0.0
 10
15.746307265
 20
-28.3051014335
 30
0.0
 10
15.6733154204
 20
-28.2479331121
 30
0.0
 10
15.621002815
 20
-28.2155455572
 30
0.0
 10
15.5951255012
 20
-28.2026069003
 30
0.0
 11
15.8602905441
 21
-28.4343010741
 31
0.0
 11
15.8130129231
 21
-28.3727358853
 31
0.0
 11
15.7460171118
 21
-28.3070830553
 31
0.0
 11
15.6695045615
 21
-28.2473411522
 31
0.0
 11
15.5951255012
 21
-28.2026069003
 31
0.0
  0
SPLINE
  5
539
100
AcDbEntity
  8
RACCORDO
100
AcDbSpline
 62
253
  6
CONTINUOUS
 70
0
 71
3
 72
11
 73
7
 74
5
 42
0.0000001
 43
0.0000001
 44
0.0000000001
 12
0.0044915447
 22
-0.3080984702
 32
0.0
 13
-0.2750771889
 23
-0.1388430101
 33
0.0
 40
0.0
 40
0.0
 40
0.0
 40
0.0
 40
0.2924682406
 40
0.5533914059
 40
0.7853904162
 40
1.0
 40
1.0
 40
1.0
 40
1.0
 10
16.5893451634
 20
-26.7315866063
 30
0.0
 10
16.5897830414
 20
-26.7616229454
 30
0.0
 10
16.5858666844
 20
-26.8187312848
 30
0.0
 10
16.5631065334
 20
-26.8969329811
 30
0.0
 10
16.5238932142
 20
-26.959478157
 30
0.0
 10
16.4866697326
 20
-26.9883271339
 30
0.0
 10
16.4669916656
 20
-26.9982594807
 30
0.0
 11
16.5893451634
 21
-26.7315866063
 31
0.0
 11
16.5822579872
 21
-26.8214260887
 31
0.0
 11
16.5586160626
 21
-26.898270018
 31
0.0
 11
16.5195641177
 21
-26.9581466673
 31
0.0
 11
16.4669916656
 21
-26.9982594807
 31
0.0
  0
LINE
  5
53A
100
AcDbEntity
  8
RACCORDO
100
AcDbLine
 62
253
  6
CONTINUOUS
 10
16.8786683498
 20
-26.622410517
 11
17.5979817145
 21
-26.2547001352
  0
SPLINE
  5
53B
100
AcDbEntity
  8
RACCORDO
100
AcDbSpline
 62
253
  6
CONTINUOUS
 70
0
 71
3
 72
11
 73
7
 74
5
 42
0.0000001
 43
0.0000001
 44
0.0000000001
 12
0.0060992045
 22
-0.3054570354
 32
0.0
 13
-0.2719152663
 23
-0.1392956879
 33
0.0
 40
0.0
 40
0.0
 40
0.0
 40
0.0
 40
0.2928262984
 40
0.5538059176
 40
0.7856647474
 40
1.0
 40
1.0
 40
1.0
 40
1.0
 10
16.8786432122
 20
-26.6224233725
 30
0.0
 10
16.879238548
 20
-26.6522386569
 30
0.0
 10
16.8756919528
 20
-26.7089246389
 30
0.0
 10
16.8536053339
 20
-26.786628536
 30
0.0
 10
16.8151882642
 20
-26.8488765824
 30
0.0
 10
16.7785267829
 20
-26.8777380958
 30
0.0
 10
16.7590997738
 20
-26.887690088
 30
0.0
 11
16.8786432122
 21
-26.6224233725
 31
0.0
 11
16.872126902
 21
-26.7116494233
 31
0.0
 11
16.8491640783
 21
-26.788005246
 31
0.0
 11
16.8108820613
 21
-26.847607022
 31
0.0
 11
16.7590997738
 21
-26.887690088
 31
0.0
  0
SPLINE
  5
53C
100
AcDbEntity
  8
RACCORDO
100
AcDbSpline
 62
253
  6
CONTINUOUS
 70
0
 71
3
 72
9
 73
5
 74
3
 42
0.0000001
 43
0.0000001
 44
0.0000000001
 12
0.2887050728
 22
0.1474957329
 32
0.0
 13
0.2895411384
 23
0.1458476585
 33
0.0
 40
0.0
 40
0.0
 40
0.0
 40
0.0
 40
0.502134389
 40
1.0
 40
1.0
 40
1.0
 40
1.0
 10
17.5979817145
 20
-26.2547001352
 30
0.0
 10
17.6463046296
 20
-26.2300125752
 30
0.0
 10
17.7346825133
 20
-26.1671509213
 30
0.0
 10
17.8257783976
 20
-26.1085939826
 30
0.0
 10
17.8738292562
 20
-26.0843898047
 30
0.0
 11
17.5979817145
 21
-26.2547001352
 31
0.0
 11
17.7357450927
 21
-26.1679679652
 31
0.0
 11
17.8738292562
 21
-26.0843898047
 31
0.0
  0
SPLINE
  5
53D
100
AcDbEntity
  8
RACCORDO
100
AcDbSpline
 62
253
  6
CONTINUOUS
 70
0
 71
3
 72
11
 73
7
 74
5
 42
0.0000001
 43
0.0000001
 44
0.0000000001
 12
0.0059662917
 22
-0.3056769567
 32
0.0
 13
-0.2721641128
 23
-0.1392863748
 33
0.0
 40
0.0
 40
0.0
 40
0.0
 40
0.0
 40
0.2927815281
 40
0.5537809513
 40
0.7856560945
 40
1.0
 40
1.0
 40
1.0
 40
1.0
 10
17.5980217996
 20
-26.2546786586
 30
0.0
 10
17.5986040729
 20
-26.2845108474
 30
0.0
 10
17.5950243036
 20
-26.3412328165
 30
0.0
 10
17.5728840888
 20
-26.4189798903
 30
0.0
 10
17.534401108
 20
-26.4812560953
 30
0.0
 10
17.4976917752
 20
-26.5101124811
 30
0.0
 10
17.4782462022
 20
-26.5200642096
 30
0.0
 11
17.5980217996
 21
-26.2546786586
 31
0.0
 11
17.5914573394
 21
-26.3439512448
 31
0.0
 11
17.5684375206
 21
-26.4203554466
 31
0.0
 11
17.5300910788
 21
-26.4799816244
 31
0.0
 11
17.4782462022
 21
-26.5200642096
 31
0.0
  0
SPLINE
  5
53E
100
AcDbEntity
  8
RACCORDO
100
AcDbSpline
 62
253
  6
CONTINUOUS
 70
0
 71
3
 72
11
 73
7
 74
5
 42
0.0000001
 43
0.0000001
 44
0.0000000001
 12
0.0044874441
 22
-0.308107001
 32
0.0
 13
-0.2750847167
 23
-0.1388468936
 33
0.0
 40
0.0
 40
0.0
 40
0.0
 40
0.0
 40
0.2924658029
 40
0.5533881067
 40
0.7853880747
 40
1.0
 40
1.0
 40
1.0
 40
1.0
 10
17.8738292562
 20
-26.0843898047
 30
0.0
 10
17.8742667308
 20
-26.1144267252
 30
0.0
 10
17.8703494745
 20
-26.1715362414
 30
0.0
 10
17.8475875993
 20
-26.2497395166
 30
0.0
 10
17.8083722626
 20
-26.3122860797
 30
0.0
 10
17.7711473862
 20
-26.3411358391
 30
0.0
 10
17.751468566
 20
-26.3510685722
 30
0.0
 11
17.8738292562
 21
-26.0843898047
 31
0.0
 11
17.8667406771
 21
-26.1742309079
 31
0.0
 11
17.8430970878
 21
-26.2510763596
 31
0.0
 11
17.8040432121
 21
-26.3109544481
 31
0.0
 11
17.751468566
 21
-26.3510685722
 31
0.0
  0
SPLINE
  5
53F
100
AcDbEntity
  8
RACCORDO
100
AcDbSpline
 62
253
  6
CONTINUOUS
 70
0
 71
3
 72
11
 73
7
 74
5
 42
0.0000001
 43
0.0000001
 44
0.0000000001
 12
-0.1865148844
 22
0.3024003765
 32
0.0
 13
-0.3177845683
 23
0.1588922841
 33
0.0
 40
0.0
 40
0.0
 40
0.0
 40
0.0
 40
0.2184918121
 40
0.482500807
 40
0.7557136777
 40
1.0
 40
1.0
 40
1.0
 40
1.0
 10
16.39062063
 20
-27.7941360312
 30
0.0
 10
16.3770366383
 20
-27.7721120291
 30
0.0
 10
16.3409602242
 20
-27.7273277936
 30
0.0
 10
16.2766345349
 20
-27.6649339761
 30
0.0
 10
16.2036438308
 20
-27.6077669377
 30
0.0
 10
16.1513323949
 20
-27.5753802613
 30
0.0
 10
16.1254555871
 20
-27.5624418574
 30
0.0
 11
16.39062063
 21
-27.7941360312
 31
0.0
 11
16.3433395491
 21
-27.7325671034
 31
0.0
 11
16.2763439347
 21
-27.6669151621
 31
0.0
 11
16.1998332619
 21
-27.6071751201
 31
0.0
 11
16.1254555871
 21
-27.5624418574
 31
0.0
  0
SPLINE
  5
540
100
AcDbEntity
  8
RACCORDO
100
AcDbSpline
 62
253
  6
CONTINUOUS
 70
0
 71
3
 72
9
 73
5
 74
3
 42
0.0000001
 43
0.0000001
 44
0.0000000001
 12
-0.1603874072
 22
-0.1936047269
 32
0.0
 13
0.0
 23
-0.251409846
 33
0.0
 40
0.0
 40
0.0
 40
0.0
 40
0.0
 40
0.5131459117
 40
1.0
 40
1.0
 40
1.0
 40
1.0
 10
15.5951255012
 20
-28.2026069003
 30
0.0
 10
15.5676914537
 20
-28.235722725
 30
0.0
 10
15.5252065185
 20
-28.3096620941
 30
0.0
 10
15.5067371535
 20
-28.3935011037
 30
0.0
 10
15.5067371535
 20
-28.4343010741
 30
0.0
 11
15.5951255012
 21
-28.2026069003
 31
0.0
 11
15.5304132615
 21
-28.3142128557
 31
0.0
 11
15.5067371535
 21
-28.4343010741
 31
0.0
  0
LINE
  5
541
100
AcDbEntity
  8
RACCORDO
100
AcDbLine
 62
253
  6
CONTINUOUS
 10
18.5119409736
 20
-18.5948272816
 11
22.7105510563
 21
-18.2986193588
  0
SPLINE
  5
542
100
AcDbEntity
  8
RACCORDO
100
AcDbSpline
 62
253
  6
CONTINUOUS
 70
0
 71
3
 72
9
 73
5
 74
3
 42
0.0000001
 43
0.0000001
 44
0.0000000001
 12
-0.1603874072
 22
-0.1936047269
 32
0.0
 13
0.0
 23
-0.251409846
 33
0.0
 40
0.0
 40
0.0
 40
0.0
 40
0.0
 40
0.5131459117
 40
1.0
 40
1.0
 40
1.0
 40
1.0
 10
14.2516226169
 20
-27.5308554582
 30
0.0
 10
14.2241885695
 20
-27.5639712829
 30
0.0
 10
14.1817036343
 20
-27.637910652
 30
0.0
 10
14.1632342693
 20
-27.7217496616
 30
0.0
 10
14.1632342693
 20
-27.762549632
 30
0.0
 11
14.2516226169
 21
-27.5308554582
 31
0.0
 11
14.1869103772
 21
-27.6424614136
 31
0.0
 11
14.1632342693
 21
-27.762549632
 31
0.0
  0
SPLINE
  5
543
100
AcDbEntity
  8
RACCORDO
100
AcDbSpline
 62
253
  6
CONTINUOUS
 70
0
 71
3
 72
11
 73
7
 74
5
 42
0.0000001
 43
0.0000001
 44
0.0000000001
 12
-0.3249549857
 22
-0.1624774928
 32
0.0
 13
-0.3249549857
 23
0.1624774928
 33
0.0
 40
0.0
 40
0.0
 40
0.0
 40
0.0
 40
0.2353253496
 40
0.499964792
 40
0.764617449
 40
1.0
 40
1.0
 40
1.0
 40
1.0
 10
15.8602905441
 20
-28.7856150462
 30
0.0
 10
15.8348004956
 20
-28.7983600705
 30
0.0
 10
15.776212943
 20
-28.8165450324
 30
0.0
 10
15.68352518
 20
-28.825233204
 30
0.0
 10
15.5908304131
 20
-28.8165479457
 30
0.0
 10
15.532233398
 20
-28.7983631685
 30
0.0
 10
15.5067371535
 20
-28.7856150462
 30
0.0
 11
15.8602905441
 21
-28.7856150462
 31
0.0
 11
15.7792008316
 21
-28.8127086339
 31
0.0
 11
15.6835267698
 21
-28.8222267086
 31
0.0
 11
15.5878475043
 21
-28.8127124433
 31
0.0
 11
15.5067371535
 21
-28.7856150462
 31
0.0
  0
SPLINE
  5
544
100
AcDbEntity
  8
RACCORDO
100
AcDbSpline
 62
253
  6
CONTINUOUS
 70
0
 71
3
 72
11
 73
7
 74
5
 42
0.0000001
 43
0.0000001
 44
0.0000000001
 12
-0.324954929
 22
-0.1624774645
 32
0.0
 13
-0.324954929
 23
0.1624774645
 33
0.0
 40
0.0
 40
0.0
 40
0.0
 40
0.0
 40
0.2353701082
 40
0.5
 40
0.7646298918
 40
1.0
 40
1.0
 40
1.0
 40
1.0
 10
15.8602905441
 20
-28.4343010741
 30
0.0
 10
15.8347956519
 20
-28.4470485203
 30
0.0
 10
15.7762030539
 20
-28.4652326461
 30
0.0
 10
15.6835138488
 20
-28.4739189646
 30
0.0
 10
15.5908246438
 20
-28.4652326461
 30
0.0
 10
15.5322320458
 20
-28.4470485203
 30
0.0
 10
15.5067371535
 20
-28.4343010741
 30
0.0
 11
15.8602905441
 21
-28.4343010741
 31
0.0
 11
15.7791847069
 21
-28.4613976681
 31
0.0
 11
15.6835138488
 21
-28.4709127265
 31
0.0
 11
15.5878429907
 21
-28.4613976681
 31
0.0
 11
15.5067371535
 21
-28.4343010741
 31
0.0
  0
LINE
  5
545
100
AcDbEntity
  8
RACCORDO
100
AcDbLine
 62
253
  6
CONTINUOUS
 10
18.5119409736
 20
10.6413618016
 11
22.541343028
 21
14.4574406631
  0
LINE
  5
546
100
AcDbEntity
  8
RACCORDO
100
AcDbLine
 62
253
  6
CONTINUOUS
 10
22.541343028
 20
14.4574406631
 11
22.7105510563
 21
14.6176905392
  0
SPLINE
  5
547
100
AcDbEntity
  8
RACCORDO
100
AcDbSpline
 62
7
  6
CONTINUOUS
 70
0
 71
3
 72
11
 73
7
 74
5
 42
0.0000001
 43
0.0000001
 44
0.0000000001
 12
0.6519240444
 22
-0.3259620222
 32
0.0
 13
0.6504099419
 23
0.3289728061
 33
0.0
 40
0.0
 40
0.0
 40
0.0
 40
0.0
 40
0.2355685165
 40
0.5004196096
 40
0.7650446261
 40
1.0
 40
1.0
 40
1.0
 40
1.0
 10
11.9732337272
 20
15.6543174906
 30
0.0
 10
12.0244246539
 20
15.6287220272
 30
0.0
 10
12.1421020268
 20
15.592275729
 30
0.0
 10
12.3281806988
 20
15.5750415724
 30
0.0
 10
12.5140601889
 20
15.5927806242
 30
0.0
 10
12.6314318506
 20
15.6295739348
 30
0.0
 10
12.6823709543
 20
15.6553385777
 30
0.0
 11
11.9732337272
 21
15.6543174906
 31
0.0
 11
12.1361107452
 21
15.5999867861
 31
0.0
 11
12.3282270124
 21
15.5810952225
 31
0.0
 11
12.5201224791
 21
15.6005397248
 31
0.0
 11
12.6823709543
 21
15.6553385777
 31
0.0
  0
SPLINE
  5
548
100
AcDbEntity
  8
RACCORDO
100
AcDbSpline
 62
253
  6
CONTINUOUS
 70
0
 71
3
 72
12
 73
8
 74
6
 42
0.0000001
 43
0.0000001
 44
0.0000000001
 12
-0.6958557226
 22
-0.2179040598
 32
0.0
 13
0.0307235144
 23
0.7285282641
 33
0.0
 40
0.0
 40
0.0
 40
0.0
 40
0.0
 40
0.2424831142
 40
0.3542107831
 40
0.4661028481
 40
0.7095251536
 40
1.0
 40
1.0
 40
1.0
 40
1.0
 10
8.845049729
 20
-29.1117204703
 30
0.0
 10
8.7888053081
 20
-29.1293331553
 30
0.0
 10
8.6984204529
 20
-29.139568276
 30
0.0
 10
8.589864471
 20
-29.1021103344
 30
0.0
 10
8.4969885392
 20
-29.0338483149
 30
0.0
 10
8.4192260589
 20
-28.8893692051
 30
0.0
 10
8.4082472609
 20
-28.7574965221
 30
0.0
 10
8.4112220636
 20
-28.6869568102
 30
0.0
 11
8.845049729
 21
-29.1117204703
 31
0.0
 11
8.6687522121
 21
-29.1252097087
 31
0.0
 11
8.591803047
 21
-29.0984507385
 31
0.0
 11
8.525908721
 21
-29.0503394023
 31
0.0
 11
8.4359738234
 21
-28.8973128275
 31
0.0
 11
8.4112220636
 21
-28.6869568102
 31
0.0
  0
SPLINE
  5
549
100
AcDbEntity
  8
RACCORDO
100
AcDbSpline
 62
253
  6
CONTINUOUS
 70
0
 71
3
 72
11
 73
7
 74
5
 42
0.0000001
 43
0.0000001
 44
0.0000000001
 12
1.0270939593
 22
-0.5119936987
 32
0.0
 13
1.05904757
 23
0.4421287065
 33
0.0
 40
0.0
 40
0.0
 40
0.0
 40
0.0
 40
0.2362907098
 40
0.5017863732
 40
0.7663267571
 40
1.0
 40
1.0
 40
1.0
 40
1.0
 10
7.290569564
 20
-28.6455685015
 30
0.0
 10
7.3714671509
 20
-28.6858949529
 30
0.0
 10
7.5561401565
 20
-28.745599335
 30
0.0
 10
7.8483887068
 20
-28.7817226999
 30
0.0
 10
8.14149604
 20
-28.7674040438
 30
0.0
 10
8.3287317036
 20
-28.7213946931
 30
0.0
 10
8.4112220636
 20
-28.6869568102
 30
0.0
 11
7.290569564
 21
-28.6455685015
 31
0.0
 11
7.5468752317
 21
-28.7341302596
 31
0.0
 11
7.8490763779
 21
-28.7730055887
 31
0.0
 11
8.1522217128
 21
-28.7564871183
 31
0.0
 11
8.4112220636
 21
-28.6869568102
 31
0.0
  0
SPLINE
  5
54A
100
AcDbEntity
  8
RACCORDO
100
AcDbSpline
 62
253
  6
CONTINUOUS
 70
0
 71
3
 72
12
 73
8
 74
6
 42
0.0000001
 43
0.0000001
 44
0.0000000001
 12
0.2997679587
 22
2.0501699837
 32
0.0
 13
1.9467631849
 23
0.7093453976
 33
0.0
 40
0.0
 40
0.0
 40
0.0
 40
0.0
 40
0.259405748
 40
0.5264106855
 40
0.6560155821
 40
0.7794344883
 40
1.0
 40
1.0
 40
1.0
 40
1.0
 10
10.7981912858
 20
8.0958801602
 30
0.0
 10
10.8241117963
 20
8.273155453
 30
0.0
 10
10.9258970087
 20
8.626509038
 30
0.0
 10
11.146632028
 20
9.0266032262
 30
0.0
 10
11.3732117408
 20
9.306594292
 30
0.0
 10
11.6096450787
 20
9.5328682906
 30
0.0
 10
11.8159598234
 20
9.6622122647
 30
0.0
 10
11.9590894294
 20
9.7143646415
 30
0.0
 11
10.7981912858
 21
8.0958801602
 31
0.0
 11
10.9427229165
 21
8.6135636816
 31
0.0
 11
11.2107006178
 21
9.0975544539
 31
0.0
 11
11.3801246268
 21
9.3058999351
 31
0.0
 11
11.5655980789
 21
9.4819465961
 31
0.0
 11
11.9590894294
 21
9.7143646415
 31
0.0
  0
SPLINE
  5
54B
100
AcDbEntity
  8
RACCORDO
100
AcDbSpline
 62
253
  6
CONTINUOUS
 70
0
 71
3
 72
11
 73
7
 74
5
 42
0.0000001
 43
0.0000001
 44
0.0000000001
 12
0.1406354493
 22
0.95756547
 32
0.0
 13
0.9115999126
 23
0.325108533
 33
0.0
 40
0.0
 40
0.0
 40
0.0
 40
0.0
 40
0.2590759544
 40
0.5258880937
 40
0.7786096023
 40
1.0
 40
1.0
 40
1.0
 40
1.0
 10
11.9094901516
 20
7.9565146655
 30
0.0
 10
11.9216352394
 20
8.0392087282
 30
0.0
 10
11.9694371084
 20
8.2040923893
 30
0.0
 10
12.0928835478
 20
8.4252081212
 30
0.0
 10
12.2552908953
 20
8.6034877828
 30
0.0
 10
12.3884863306
 20
8.6855570205
 30
0.0
 10
12.4557594863
 20
8.7095489896
 30
0.0
 11
11.9094901516
 21
7.9565146655
 31
0.0
 11
11.9773682232
 21
8.1978958326
 31
0.0
 11
12.1034278804
 21
8.4232669568
 31
0.0
 11
12.270475744
 21
8.6019313172
 31
0.0
 11
12.4557594863
 21
8.7095489896
 31
0.0
  0
SPLINE
  5
54C
100
AcDbEntity
  8
RACCORDO
100
AcDbSpline
 62
253
  6
CONTINUOUS
 70
0
 71
3
 72
12
 73
8
 74
6
 42
0.0000001
 43
0.0000001
 44
0.0000000001
 12
1.0168858379
 22
-0.5101193698
 32
0.0
 13
1.1034310224
 23
0.2769811502
 33
0.0
 40
0.0
 40
0.0
 40
0.0
 40
0.0
 40
0.2401037716
 40
0.5091993336
 40
0.7733415654
 40
0.8932538225
 40
1.0
 40
1.0
 40
1.0
 40
1.0
 10
10.7982062294
 20
8.0958841052
 30
0.0
 10
10.8795922711
 20
8.0550569104
 30
0.0
 10
11.0626531115
 20
7.9893626332
 30
0.0
 10
11.3510467713
 20
7.9324697012
 30
0.0
 10
11.5994866503
 20
7.9183127748
 30
0.0
 10
11.7853251258
 20
7.931745962
 30
0.0
 10
11.8702278036
 20
7.9466591058
 30
0.0
 10
11.9094901515
 20
7.9565146655
 30
0.0
 11
10.7982062294
 21
8.0958841052
 31
0.0
 11
11.0537487736
 21
7.9993805475
 31
0.0
 11
11.3539060561
 21
7.9391522172
 31
0.0
 11
11.6540336818
 21
7.9240965717
 31
0.0
 11
11.7900528623
 21
7.9345440006
 31
0.0
 11
11.9094901515
 21
7.9565146655
 31
0.0
  0
SPLINE
  5
54D
100
AcDbEntity
  8
RACCORDO
100
AcDbSpline
 62
253
  6
CONTINUOUS
 70
0
 71
3
 72
11
 73
7
 74
5
 42
0.0000001
 43
0.0000001
 44
0.0000000001
 12
1.043914915
 22
-0.5380229192
 32
0.0
 13
-0.0960266318
 23
-1.1704725102
 33
0.0
 40
0.0
 40
0.0
 40
0.0
 40
0.0
 40
0.2258144118
 40
0.481047566
 40
0.7467271134
 40
1.0
 40
1.0
 40
1.0
 40
1.0
 10
11.9590894294
 20
9.7143646415
 30
0.0
 10
12.0376664403
 20
9.6738668652
 30
0.0
 10
12.1860526262
 20
9.5503687966
 30
0.0
 10
12.3479600084
 20
9.3033444659
 30
0.0
 10
12.4477199432
 20
9.0140638778
 30
0.0
 10
12.463866467
 20
8.8083653067
 30
0.0
 10
12.4557594863
 20
8.7095489896
 30
0.0
 11
11.9590894294
 21
9.7143646415
 31
0.0
 11
12.1672637209
 21
9.5500685277
 31
0.0
 11
12.3346943504
 21
9.3014417035
 31
0.0
 11
12.4360239017
 21
9.00633847
 31
0.0
 11
12.4557594863
 21
8.7095489896
 31
0.0
  0
SPLINE
  5
54E
100
AcDbEntity
  8
RACCORDO
100
AcDbSpline
 62
253
  6
CONTINUOUS
 70
0
 71
3
 72
12
 73
8
 74
6
 42
0.0000001
 43
0.0000001
 44
0.0000000001
 12
-1.9328131787
 22
-0.7318741081
 32
0.0
 13
-0.2971585427
 23
-2.0452636247
 33
0.0
 40
0.0
 40
0.0
 40
0.0
 40
0.0
 40
0.2193079598
 40
0.3425242922
 40
0.4721680258
 40
0.7397715865
 40
1.0
 40
1.0
 40
1.0
 40
1.0
 10
-18.0928862232
 20
24.7403524679
 30
0.0
 10
-18.2341799948
 20
24.6868505287
 30
0.0
 10
-18.4372894339
 20
24.5555512505
 30
0.0
 10
-18.669726963
 20
24.3277945589
 30
0.0
 10
-18.893011764
 20
24.045964906
 30
0.0
 10
-19.1105074719
 20
23.6444148043
 30
0.0
 10
-19.2110697479
 20
23.2908107625
 30
0.0
 10
-19.2368461133
 20
23.1133988597
 30
0.0
 11
-18.0928862232
 21
24.7403524679
 31
0.0
 11
-18.4801296086
 21
24.5048104398
 31
0.0
 11
-18.6627642849
 21
24.327344391
 31
0.0
 11
-18.8296702962
 21
24.1177399109
 31
0.0
 11
-19.0939145912
 21
23.6318824355
 31
0.0
 11
-19.2368461133
 21
23.1133988597
 31
0.0
  0
SPLINE
  5
54F
100
AcDbEntity
  8
RACCORDO
100
AcDbSpline
 62
253
  6
CONTINUOUS
 70
0
 71
3
 72
9
 73
5
 74
3
 42
0.0000001
 43
0.0000001
 44
0.0000000001
 12
-0.3207393133
 22
0.1556020074
 32
0.0
 13
-0.3324410674
 23
-0.1287191847
 33
0.0
 40
0.0
 40
0.0
 40
0.0
 40
0.0
 40
0.5240370524
 40
1.0
 40
1.0
 40
1.0
 40
1.0
 10
-18.0928862232
 20
24.7403524679
 30
0.0
 10
-18.1489126513
 20
24.7675328736
 30
0.0
 10
-18.2652974062
 20
24.8038783073
 30
0.0
 10
-18.3879000707
 20
24.7883045347
 30
0.0
 10
-18.4406432808
 20
24.7678826806
 30
0.0
 11
-18.0928862232
 21
24.7403524679
 31
0.0
 11
-18.2726000293
 21
24.7913677974
 31
0.0
 11
-18.4406432808
 21
24.7678826806
 31
0.0
  0
SPLINE
  5
550
100
AcDbEntity
  8
RACCORDO
100
AcDbSpline
 62
253
  6
CONTINUOUS
 70
0
 71
3
 72
11
 73
7
 74
5
 42
0.0000001
 43
0.0000001
 44
0.0000000001
 12
-0.3322643569
 22
0.1655847651
 32
0.0
 13
0.0525087312
 23
0.367506123
 33
0.0
 40
0.0
 40
0.0
 40
0.0
 40
0.0
 40
0.3329696583
 40
0.607173301
 40
0.8233145676
 40
1.0
 40
1.0
 40
1.0
 40
1.0
 10
-19.2368460872
 20
23.1133988666
 30
0.0
 10
-19.2737240703
 20
23.1317771009
 30
0.0
 10
-19.3392477512
 20
23.1691901748
 30
0.0
 10
-19.4183323113
 20
23.2343696387
 30
0.0
 10
-19.467638638
 20
23.3025154083
 30
0.0
 10
-19.4761866518
 20
23.3530621334
 30
0.0
 10
-19.4730941426
 20
23.3747064595
 30
0.0
 11
-19.2368460872
 21
23.1133988666
 31
0.0
 11
-19.3434239926
 21
23.1760156077
 31
0.0
 11
-19.4205151427
 21
23.2424923571
 31
0.0
 11
-19.4643521657
 21
23.3096992135
 31
0.0
 11
-19.4730941426
 21
23.3747064595
 31
0.0
  0
SPLINE
  5
551
100
AcDbEntity
  8
RACCORDO
100
AcDbSpline
 62
253
  6
CONTINUOUS
 70
0
 71
3
 72
11
 73
7
 74
5
 42
0.0000001
 43
0.0000001
 44
0.0000000001
 12
-0.0429217443
 22
-0.9812741191
 32
0.0
 13
0.8534872782
 23
-0.4861076413
 33
0.0
 40
0.0
 40
0.0
 40
0.0
 40
0.0
 40
0.2918342918
 40
0.5533035651
 40
0.7861865888
 40
1.0
 40
1.0
 40
1.0
 40
1.0
 10
-22.7444678593
 20
-13.6280498124
 30
0.0
 10
-22.7486432049
 20
-13.7235062916
 30
0.0
 10
-22.7416257165
 20
-13.9057849413
 30
0.0
 10
-22.6773914089
 20
-14.1574795428
 30
0.0
 10
-22.5610086743
 20
-14.3619438222
 30
0.0
 10
-22.4473324826
 20
-14.459900421
 30
0.0
 10
-22.3865034738
 20
-14.4945458653
 30
0.0
 11
-22.7444678593
 21
-13.6280498124
 31
0.0
 11
-22.7306165807
 21
-13.9143582099
 31
0.0
 11
-22.6636271149
 21
-14.162285782
 31
0.0
 11
-22.5469308192
 21
-14.3590196945
 31
0.0
 11
-22.3865034738
 21
-14.4945458653
 31
0.0
  0
SPLINE
  5
552
100
AcDbEntity
  8
RACCORDO
100
AcDbSpline
 62
253
  6
CONTINUOUS
 70
0
 71
3
 72
11
 73
7
 74
5
 42
0.0000001
 43
0.0000001
 44
0.0000000001
 12
-0.3430435392
 22
0.172040365
 32
0.0
 13
0.0164190248
 23
0.383415144
 33
0.0
 40
0.0
 40
0.0
 40
0.0
 40
0.0
 40
0.3100065068
 40
0.5758127951
 40
0.800661355
 40
1.0
 40
1.0
 40
1.0
 40
1.0
 10
-22.7444526629
 20
-13.6280432199
 30
0.0
 10
-22.7799012393
 20
-13.6102653424
 30
0.0
 10
-22.8436584672
 20
-13.5725980684
 30
0.0
 10
-22.9208581108
 20
-13.5040239908
 30
0.0
 10
-22.9696011386
 20
-13.428623179
 30
0.0
 10
-22.9798827463
 20
-13.3734268883
 30
0.0
 10
-22.9787917643
 20
-13.3479504033
 30
0.0
 11
-22.7444526629
 21
-13.6280432199
 31
0.0
 11
-22.8461649083
 21
-13.5663300962
 31
0.0
 11
-22.921095414
 21
-13.4971133243
 31
0.0
 11
-22.9658725114
 21
-13.4233511109
 31
0.0
 11
-22.9787917643
 21
-13.3479504033
 31
0.0
  0
SPLINE
  5
553
100
AcDbEntity
  8
RACCORDO
100
AcDbSpline
 62
253
  6
CONTINUOUS
 70
0
 71
3
 72
11
 73
7
 74
5
 42
0.0000001
 43
0.0000001
 44
0.0000000001
 12
-0.9105073504
 22
0.4566190209
 32
0.0
 13
0.0435828516
 23
1.0176566712
 33
0.0
 40
0.0
 40
0.0
 40
0.0
 40
0.0
 40
0.2155123932
 40
0.4481446078
 40
0.7087627333
 40
1.0
 40
1.0
 40
1.0
 40
1.0
 10
7.6823780108
 20
-29.5298928263
 30
0.0
 10
7.6169694714
 20
-29.4970904737
 30
0.0
 10
7.4935244141
 20
-29.4010558813
 30
0.0
 10
7.3655689334
 20
-29.1925591157
 30
0.0
 10
7.2945698282
 20
-28.9330037537
 30
0.0
 10
7.2863385562
 20
-28.7443616944
 30
0.0
 10
7.2905695397
 20
-28.645568512
 30
0.0
 11
7.6823780108
 21
-29.5298928263
 31
0.0
 11
7.508078158
 21
-29.3964461944
 31
0.0
 11
7.3804990929
 21
-29.1967662646
 31
0.0
 11
7.3066442918
 21
-28.9417838887
 31
0.0
 11
7.2905695397
 21
-28.645568512
 31
0.0
  0
SPLINE
  5
554
100
AcDbEntity
  8
RACCORDO
100
AcDbSpline
 62
253
  6
CONTINUOUS
 70
0
 71
3
 72
11
 73
7
 74
5
 42
0.0000001
 43
0.0000001
 44
0.0000000001
 12
0.5759657837
 22
0.180585328
 32
0.0
 13
0.0652704987
 23
0.6000728344
 33
0.0
 40
0.0
 40
0.0
 40
0.0
 40
0.0
 40
0.2195759702
 40
0.4543360656
 40
0.7139756431
 40
1.0
 40
1.0
 40
1.0
 40
1.0
 10
8.5285907053
 20
-29.5888569698
 30
0.0
 10
8.5707467872
 20
-29.5756395703
 30
0.0
 10
8.6532937248
 20
-29.5309717451
 30
0.0
 10
8.7498598385
 20
-29.4214442017
 30
0.0
 10
8.8166152613
 20
-29.2774165468
 30
0.0
 10
8.8388267448
 20
-29.1689322858
 30
0.0
 10
8.845049729
 20
-29.1117204703
 30
0.0
 11
8.5285907053
 21
-29.5888569698
 31
0.0
 11
8.6456072671
 21
-29.5266184102
 31
0.0
 11
8.7409530909
 21
-29.4217889704
 31
0.0
 11
8.8088197237
 21
-29.2805240337
 31
0.0
 11
8.845049729
 21
-29.1117204703
 31
0.0
  0
ELLIPSE
  5
555
100
AcDbEntity
  8
ASSI
100
AcDbEllipse
 62
7
  6
CONTINUOUS
 10
11.3038789625
 20
27.5922132336
 30
0.0
 11
0.4410298232
 21
0.8975092442
 31
0.0
 40
0.607010042
 41
-0.8902711325
 42
-0.7668222283
  0
ELLIPSE
  5
556
100
AcDbEntity
  8
ASSI
100
AcDbEllipse
 62
7
  6
CONTINUOUS
 10
10.415568329
 20
24.4477504851
 30
0.0
 11
2.7583783481
 21
-0.0195161492
 31
0.0
 40
0.4946372042
 41
0.445063606
 42
2.3596941457
  0
ELLIPSE
  5
557
100
AcDbEntity
  8
ASSI
100
AcDbEllipse
 62
7
  6
CONTINUOUS
 10
9.7438168869
 20
24.5520672707
 30
0.0
 11
2.7499831596
 21
-0.0194567514
 31
0.0
 40
0.4946372042
 41
2.368420792
 42
2.9226874028
  0
ELLIPSE
  5
558
100
AcDbEntity
  8
ASSI
100
AcDbEllipse
 62
7
  6
CONTINUOUS
 10
118.0307777842
 20
71.3866108529
 30
0.0
 11
111.4440378013
 21
57.7233873698
 31
0.0
 40
0.017156689
 41
2.654821495
 42
2.7151730237
  0
ELLIPSE
  5
559
100
AcDbEntity
  8
ASSI
100
AcDbEllipse
 62
7
  6
CONTINUOUS
 10
118.0307777842
 20
71.3866108529
 30
0.0
 11
111.4440378013
 21
57.7233873698
 31
0.0
 40
0.017156689
 41
-2.6886235892
 42
-2.6725939333
  0
ELLIPSE
  5
55A
100
AcDbEntity
  8
ASSI
100
AcDbEllipse
 62
7
  6
CONTINUOUS
 10
10.415568329
 20
24.8715677391
 30
0.0
 11
2.7583876426
 21
-0.0130411979
 31
0.0
 40
0.4964289597
 41
0.1919849576
 42
2.3585415194
  0
ELLIPSE
  5
55B
100
AcDbEntity
  8
DRAFT
100
AcDbEllipse
 62
7
  6
CONTINUOUS
 10
9.7438168869
 20
24.5520672707
 30
0.0
 11
2.7499831596
 21
-0.0194567514
 31
0.0
 40
0.4946372042
 41
2.368420792
 42
2.9226874028
  0
ELLIPSE
  5
55C
100
AcDbEntity
  8
0
100
AcDbEllipse
 62
7
  6
CONTINUOUS
 10
11.3038789625
 20
27.5922132336
 30
0.0
 11
0.4410298232
 21
0.8975092442
 31
0.0
 40
0.607010042
 41
-0.8902711325
 42
-0.7668222283
  0
ELLIPSE
  5
55D
100
AcDbEntity
  8
DRAFT
100
AcDbEllipse
 62
7
  6
CONTINUOUS
 10
10.415568329
 20
24.4477504851
 30
0.0
 11
2.7583783481
 21
-0.0195161492
 31
0.0
 40
0.4946372042
 41
0.445063606
 42
2.3596941457
  0
ELLIPSE
  5
55E
100
AcDbEntity
  8
RACCORDO
100
AcDbEllipse
 62
7
  6
CONTINUOUS
 10
118.0307777842
 20
71.3866108529
 30
0.0
 11
111.4440378013
 21
57.7233873698
 31
0.0
 40
0.017156689
 41
2.654821495
 42
2.7151730237
  0
ELLIPSE
  5
55F
100
AcDbEntity
  8
RACCORDO
100
AcDbEllipse
 62
7
  6
CONTINUOUS
 10
118.0307777842
 20
71.3866108529
 30
0.0
 11
111.4440378013
 21
57.7233873698
 31
0.0
 40
0.017156689
 41
-2.6886235892
 42
-2.6725939333
  0
ELLIPSE
  5
560
100
AcDbEntity
  8
DRAFT
100
AcDbEllipse
 62
7
  6
CONTINUOUS
 10
10.415568329
 20
24.8715677391
 30
0.0
 11
2.7583876426
 21
-0.0130411979
 31
0.0
 40
0.4964289597
 41
0.1919849576
 42
2.3585415194
  0
ELLIPSE
  5
561
100
AcDbEntity
  8
RACCORDO
100
AcDbEllipse
 62
7
  6
CONTINUOUS
 10
-15.0663750222
 20
28.3286358484
 30
0.0
 11
0.110769438
 21
0.2241226716
 31
0.0
 40
0.6088015717
 41
-4.0304836828
 42
-3.1443650652
  0
ELLIPSE
  5
562
100
AcDbEntity
  8
RACCORDO
100
AcDbEllipse
 62
7
  6
CONTINUOUS
 10
-1.7020568578
 20
21.6464767662
 30
0.0
 11
0.110769438
 21
0.2241226716
 31
0.0
 40
0.6088015717
 41
-4.0304836828
 42
-3.1443650652
  0
ELLIPSE
  5
563
100
AcDbEntity
  8
RACCORDO
100
AcDbEllipse
 62
7
  6
CONTINUOUS
 10
-3.4120445251
 20
29.4599900222
 30
0.0
 11
0.2999991737
 21
-0.0014183462
 31
0.0
 40
0.4964289597
 41
0.7877451926
 42
2.3527237553
  0
ELLIPSE
  5
564
100
AcDbEntity
  8
RACCORDO
100
AcDbEllipse
 62
7
  6
CONTINUOUS
 10
2.1424189891
 20
26.6827582652
 30
0.0
 11
0.2999991737
 21
-0.0014183462
 31
0.0
 40
0.4964289597
 41
0.7877451926
 42
2.3585415194
  0
ELLIPSE
  5
565
100
AcDbEntity
  8
RACCORDO
100
AcDbEllipse
 62
7
  6
CONTINUOUS
 10
-11.6825470398
 20
27.6544888102
 30
0.0
 11
0.110769438
 21
0.2241226716
 31
0.0
 40
0.6088015717
 41
1.2055040732
 42
2.2526937431
  0
ELLIPSE
  5
566
100
AcDbEntity
  8
RACCORDO
100
AcDbEllipse
 62
7
  6
CONTINUOUS
 10
2.0332676017
 20
21.90013488
 30
0.0
 11
0.110769438
 21
0.2241226716
 31
0.0
 40
0.6088015717
 41
-1.9360885804
 42
-0.8888910292
  0
ELLIPSE
  5
567
100
AcDbEntity
  8
RACCORDO
100
AcDbEllipse
 62
7
  6
CONTINUOUS
 10
0.4130927454
 20
22.9711512845
 30
0.0
 11
0.1128509832
 21
0.2230818409
 31
0.0
 40
0.6159267166
 41
0.0028979148
 42
0.6817883054
  0
ELLIPSE
  5
568
100
AcDbEntity
  8
RACCORDO
100
AcDbEllipse
 62
7
  6
CONTINUOUS
 10
-1.7020568578
 20
21.89984816
 30
0.0
 11
0.110769438
 21
0.2241226716
 31
0.0
 40
0.6088015717
 41
0.6877230618
 42
2.2527016244
  0
ELLIPSE
  5
569
100
AcDbEntity
  8
RACCORDO
100
AcDbEllipse
 62
7
  6
CONTINUOUS
 10
-11.3310505627
 20
28.5822939622
 30
0.0
 11
0.110769438
 21
0.2241226716
 31
0.0
 40
0.6088015717
 41
-1.9360885804
 42
-0.8888910292
  0
ELLIPSE
  5
56A
100
AcDbEntity
  8
RACCORDO
100
AcDbEllipse
 62
7
  6
CONTINUOUS
 10
-12.9512254191
 20
29.6533103667
 30
0.0
 11
0.1128509832
 21
0.2230818409
 31
0.0
 40
0.6159267166
 41
0.0028979148
 42
0.6817883054
  0
ELLIPSE
  5
56B
100
AcDbEntity
  8
RACCORDO
100
AcDbEllipse
 62
7
  6
CONTINUOUS
 10
-15.0663750222
 20
28.5820072422
 30
0.0
 11
0.110769438
 21
0.2241226716
 31
0.0
 40
0.6088015717
 41
0.6877230618
 42
2.2527016244
  0
ELLIPSE
  5
56C
100
AcDbEntity
  8
RACCORDO
100
AcDbEllipse
 62
7
  6
CONTINUOUS
 10
-11.3310505627
 20
28.8432229386
 30
0.0
 11
0.110769438
 21
0.2241226716
 31
0.0
 40
0.6088015717
 41
5.394294278
 42
6.9592728406
  0
ELLIPSE
  5
56D
100
AcDbEntity
  8
RACCORDO
100
AcDbEllipse
 62
7
  6
CONTINUOUS
 10
2.0332676017
 20
22.1610638564
 30
0.0
 11
0.110769438
 21
0.2241226716
 31
0.0
 40
0.6088015717
 41
5.394294278
 42
6.9592728406
  0
ELLIPSE
  5
56E
100
AcDbEntity
  8
RACCORDO
100
AcDbEllipse
 62
7
  6
CONTINUOUS
 10
-3.2315925479
 20
28.1379298523
 30
0.0
 11
0.2999981629
 21
-0.0021225547
 31
0.0
 40
0.4946372042
 41
-0.7818985079
 42
0.0034997008
  0
ELLIPSE
  5
56F
100
AcDbEntity
  8
RACCORDO
100
AcDbEllipse
 62
7
  6
CONTINUOUS
 10
2.3228709662
 20
25.3606980952
 30
0.0
 11
0.2999981629
 21
-0.0021225547
 31
0.0
 40
0.4946372042
 41
-0.7760807437
 42
0.0035109161
  0
ELLIPSE
  5
570
100
AcDbEntity
  8
RACCORDO
100
AcDbEllipse
 62
7
  6
CONTINUOUS
 10
-9.3805382754
 20
26.5398086543
 30
0.0
 11
0.2999991335
 21
0.0014318851
 31
0.0
 40
0.5035541159
 41
8.6427941204
 42
10.207772683
  0
ELLIPSE
  5
571
100
AcDbEntity
  8
RACCORDO
100
AcDbEllipse
 62
7
  6
CONTINUOUS
 10
-15.3938291843
 20
26.742738553
 30
0.0
 11
-0.1565168911
 21
0.3130623908
 31
0.0
 40
0.6123677712
 41
-0.6846781644
 42
0.8861181623
  0
ELLIPSE
  5
572
100
AcDbEntity
  8
RACCORDO
100
AcDbEllipse
 62
7
  6
CONTINUOUS
 10
-0.1203227107
 20
19.1059853162
 30
0.0
 11
-0.1565168911
 21
0.3130623908
 31
0.0
 40
0.6123677712
 41
-2.2554744912
 42
-0.6846781644
  0
ELLIPSE
  5
573
100
AcDbEntity
  8
RACCORDO
100
AcDbEllipse
 62
7
  6
CONTINUOUS
 10
-3.5880292074
 20
23.6435541203
 30
0.0
 11
0.2999991335
 21
0.0014318851
 31
0.0
 40
0.5035541159
 41
-2.3585979313
 42
-0.7936193687
  0
ELLIPSE
  5
574
100
AcDbEntity
  8
RACCORDO
100
AcDbEllipse
 62
7
  6
CONTINUOUS
 10
-3.5880292074
 20
22.4293550445
 30
0.0
 11
0.2999980272
 21
0.0021530184
 31
0.0
 40
0.5053247124
 41
-2.3598210761
 42
-0.7948425135
  0
ELLIPSE
  5
575
100
AcDbEntity
  8
RACCORDO
100
AcDbEllipse
 62
7
  6
CONTINUOUS
 10
-9.3805382754
 20
25.3256095785
 30
0.0
 11
0.2999980272
 21
0.0021530184
 31
0.0
 40
0.5053247124
 41
3.1379773283
 42
3.9233642311
  0
ELLIPSE
  5
576
100
AcDbEntity
  8
RACCORDO
100
AcDbEllipse
 62
7
  6
CONTINUOUS
 10
2.3228709662
 20
26.5925322766
 30
0.0
 11
0.2999991737
 21
-0.0014183462
 31
0.0
 40
0.4964289597
 41
-0.77723337
 42
0.7877451926
  0
ELLIPSE
  5
577
100
AcDbEntity
  8
RACCORDO
100
AcDbEllipse
 62
7
  6
CONTINUOUS
 10
-3.2315925479
 20
29.3697640337
 30
0.0
 11
0.2999991737
 21
-0.0014183462
 31
0.0
 40
0.4964289597
 41
-0.7830511342
 42
0.7877451926
  0
ELLIPSE
  5
578
100
AcDbEntity
  8
RACCORDO
100
AcDbEllipse
 62
7
  6
CONTINUOUS
 10
-0.0942234822
 20
21.0959314721
 30
0.0
 11
0.1128509832
 21
0.2230818409
 31
0.0
 40
0.6159267166
 41
0.6934238338
 42
2.2584023964
  0
ELLIPSE
  5
579
100
AcDbEntity
  8
RACCORDO
100
AcDbEllipse
 62
7
  6
CONTINUOUS
 10
-0.0942234822
 20
20.8425600784
 30
0.0
 11
0.1128509832
 21
0.2230818409
 31
0.0
 40
0.6159267166
 41
-4.0247829108
 42
-2.9775853596
  0
ELLIPSE
  5
57A
100
AcDbEntity
  8
RACCORDO
100
AcDbEllipse
 62
7
  6
CONTINUOUS
 10
-13.4585416466
 20
27.7780905544
 30
0.0
 11
0.1128509832
 21
0.2230818409
 31
0.0
 40
0.6159267166
 41
0.6934238338
 42
2.2584023964
  0
ELLIPSE
  5
57B
100
AcDbEntity
  8
RACCORDO
100
AcDbEllipse
 62
7
  6
CONTINUOUS
 10
-13.4585416466
 20
27.5247191606
 30
0.0
 11
0.1128509832
 21
0.2230818409
 31
0.0
 40
0.6159267166
 41
-4.0247829108
 42
-2.9775853596
  0
ELLIPSE
  5
57C
100
AcDbEntity
  8
RACCORDO
100
AcDbEllipse
 62
7
  6
CONTINUOUS
 10
18.1583337269
 20
12.3153502963
 30
0.0
 11
-0.2237009107
 21
0.4473351135
 31
0.0
 40
0.6121897086
 41
-2.2557347926
 42
-0.6846338794
  0
ELLIPSE
  5
57D
100
AcDbEntity
  8
RACCORDO
100
AcDbEllipse
 62
7
  6
CONTINUOUS
 10
18.1583337269
 20
-25.5861974102
 30
0.0
 11
-0.2235807756
 21
0.4472283268
 31
0.0
 40
0.6125552124
 41
-3.139671321
 42
-2.255296188
  0
ELLIPSE
  5
57E
100
AcDbEntity
  8
RACCORDO
100
AcDbEllipse
 62
7
  6
CONTINUOUS
 10
22.9841813378
 20
-21.0660327563
 30
0.0
 11
0.9987332359
 21
0.6172510855
 31
0.0
 40
0.0815198604
 41
-2.3890806779
 42
-1.1913468732
  0
ELLIPSE
  5
57F
100
AcDbEntity
  8
RACCORDO
100
AcDbEllipse
 62
7
  6
CONTINUOUS
 10
22.7495643249
 20
-20.9487242498
 30
0.0
 11
0.4349639225
 21
0.9005141702
 31
0.0
 40
0.6016116119
 41
-1.2499156631
 42
-0.8943064336
  0
ELLIPSE
  5
580
100
AcDbEntity
  8
RACCORDO
100
AcDbEllipse
 62
7
  6
CONTINUOUS
 10
22.7495643249
 20
15.8145685992
 30
0.0
 11
0.4349639225
 21
0.9005141702
 31
0.0
 40
0.6016116119
 41
-0.8943064336
 42
-0.538697204
  0
ELLIPSE
  5
581
100
AcDbEntity
  8
RACCORDO
100
AcDbEllipse
 62
7
  6
CONTINUOUS
 10
10.9991414502
 20
21.6897800365
 30
0.0
 11
0.9987332359
 21
0.6172510855
 31
0.0
 40
0.0815198604
 41
0.0505521044
 42
0.7176053907
  0
ELLIPSE
  5
582
100
AcDbEntity
  8
RACCORDO
100
AcDbEllipse
 62
7
  6
CONTINUOUS
 10
12.1431697618
 20
21.1467444115
 30
0.0
 11
0.2256808774
 21
0.4461742732
 31
0.0
 40
0.6158912572
 41
0.0028657685
 42
0.6875768343
  0
ELLIPSE
  5
583
100
AcDbEntity
  8
RACCORDO
100
AcDbEllipse
 62
7
  6
CONTINUOUS
 10
15.999985599
 20
-26.6736932788
 30
0.0
 11
-0.2235807756
 21
0.4472283268
 31
0.0
 40
0.6125552124
 41
2.4567882058
 42
4.0278891191
  0
ELLIPSE
  5
584
100
AcDbEntity
  8
RACCORDO
100
AcDbEllipse
 62
7
  6
CONTINUOUS
 10
1.0127744406
 20
18.8121591848
 30
0.0
 11
-0.2235807756
 21
0.4472283268
 31
0.0
 40
0.6125552124
 41
-0.6848044477
 42
0.8862964655
  0
ELLIPSE
  5
585
100
AcDbEntity
  8
RACCORDO
100
AcDbEllipse
 62
7
  6
CONTINUOUS
 10
18.3046191203
 20
18.0660197322
 30
0.0
 11
0.2215594226
 21
0.4482351134
 31
0.0
 40
0.6088373611
 41
5.3943220613
 42
6.9651183881
  0
ELLIPSE
  5
586
100
AcDbEntity
  8
RACCORDO
100
AcDbEllipse
 62
7
  6
CONTINUOUS
 10
15.999985599
 20
11.3185536056
 30
0.0
 11
-0.2237009107
 21
0.4473351135
 31
0.0
 40
0.6121897086
 41
4.0274505145
 42
5.5985514278
  0
ELLIPSE
  5
587
100
AcDbEntity
  8
RACCORDO
100
AcDbEllipse
 62
7
  6
CONTINUOUS
 10
22.9841813378
 20
15.6972600927
 30
0.0
 11
-0.7417913999
 21
1.2002436976
 31
0.0
 40
0.5587454355
 41
5.0176587298
 42
6.2153925345
  0
ELLIPSE
  5
588
100
AcDbEntity
  8
RACCORDO
100
AcDbEllipse
 62
7
  6
CONTINUOUS
 10
12.3267871178
 20
14.6262168854
 30
0.0
 11
0.4999881828
 21
-0.0070264249
 31
0.0
 40
0.4892375088
 41
-2.3493192548
 42
-0.7727633415
  0
ELLIPSE
  5
589
100
AcDbEntity
  8
RACCORDO
100
AcDbEllipse
 62
7
  6
CONTINUOUS
 10
6.8072932653
 20
17.3859638116
 30
0.0
 11
0.4999881828
 21
-0.0070264249
 31
0.0
 40
0.4892375088
 41
-3.1347355197
 42
-2.3493192548
  0
ELLIPSE
  5
58A
100
AcDbEntity
  8
RACCORDO
100
AcDbEllipse
 62
7
  6
CONTINUOUS
 10
14.1830111204
 20
-21.9861229572
 30
0.0
 11
-0.2713091605
 21
0.4239062184
 31
0.0
 40
0.5451249042
 41
-3.2164578779
 42
-2.3115524019
  0
ELLIPSE
  5
58B
100
AcDbEntity
  8
RACCORDO
100
AcDbEllipse
 62
7
  6
CONTINUOUS
 10
12.3689893193
 20
-27.5463510386
 30
0.0
 11
-0.264201852
 21
0.7553638493
 31
0.0
 40
0.6685523073
 41
-3.1633743208
 42
-2.1740847918
  0
ELLIPSE
  5
58C
100
AcDbEntity
  8
RACCORDO
100
AcDbEllipse
 62
7
  6
CONTINUOUS
 10
15.9969206242
 20
10.4553097669
 30
0.0
 11
-0.2639281287
 21
0.7552183666
 31
0.0
 40
0.6689328784
 41
-2.1734957081
 42
-0.6030039678
  0
ENDSEC
  0
SECTION
  2
OBJECTS
  0
DICTIONARY
  5
C
100
AcDbDictionary
280
0
281
1
  3
ACAD_GROUP
350
D
  3
ACAD_MLINESTYLE
350
17
  3
ACAD_LAYOUT
350
1A
  3
ACAD_PLOTSETTINGS
350
19
  3
ACAD_PLOTSTYLENAME
350
E
  0
DICTIONARY
  5
D
102
{ACAD_REACTORS
330
C
102
}
100
AcDbDictionary
280
0
281
1
  0
ACDBDICTIONARYWDFLT
  5
E
102
{ACAD_REACTORS
330
C
102
}
100
AcDbDictionary
281
1
  3
Normal
350
F
100
AcDbDictionaryWithDefault
340
F
  0
DICTIONARY
  5
17
102
{ACAD_REACTORS
330
C
102
}
100
AcDbDictionary
280
0
281
1
  3
Standard
350
18
  0
DICTIONARY
  5
19
102
{ACAD_REACTORS
330
C
102
}
100
AcDbDictionary
281
1
  0
DICTIONARY
  5
1A
102
{ACAD_REACTORS
330
C
102
}
100
AcDbDictionary
281
1
  3
Model
350
58D
  3
Layout1
350
58E
  0
ACDBPLACEHOLDER
  5
F
102
{ACAD_REACTORS
330
E
102
}
  0
MLINESTYLE
  5
18
102
{ACAD_REACTORS
330
17
102
}
100
AcDbMlineStyle
  2
STANDARD
 70
0
  3

 62
256
 51
90.0
 52
90.0
 71
2
 49
0.5
 62
256
  6
BYLAYER
 49
-0.5
 62
256
  6
BYLAYER
  0
LAYOUT
  5
58D
102
{ACAD_REACTORS
330
1A
102
}
100
AcDbPlotSettings
  1

  2
none_device
  4
ISO_A4_(297.00_x_210.00_MM)
  6

 40
0.0
 41
0.0
 42
0.0
 43
0.0
 44
297.0
 45
210.0
 46
0.0
 47
0.0
 48
0.0
 49
0.0
140
0.0
141
0.0
142
1.0
143
1.0
 70
1024
 72
1
 73
0
 74
0
  7

 75
0
147
1.0
148
0.0
149
0.0
100
AcDbLayout
  1
Model
 70
0
 71
0
 10
0.0
 20
0.0
 11
297.0
 21
210.0
 12
0.0
 22
0.0
 32
0.0
 14
0.0
 24
0.0
 34
0.0
 15
0.0
 25
0.0
 35
0.0
146
0.0
 13
0.0
 23
0.0
 33
0.0
 16
1.0
 26
0.0
 36
0.0
 17
0.0
 27
1.0
 37
0.0
 76
0
330
21A
345
0
346
0
  0
LAYOUT
  5
58E
102
{ACAD_REACTORS
330
1A
102
}
100
AcDbPlotSettings
  1

  2
none_device
  4
ISO_A4_(297.00_x_210.00_MM)
  6

 40
0.0
 41
0.0
 42
0.0
 43
0.0
 44
297.0
 45
210.0
 46
0.0
 47
0.0
 48
0.0
 49
0.0
140
0.0
141
0.0
142
1.0
143
1.0
 70
0
 72
1
 73
0
 74
0
  7

 75
0
147
1.0
148
0.0
149
0.0
100
AcDbLayout
  1
Layout1
 70
0
 71
1
 10
0.0
 20
0.0
 11
297.0
 21
210.0
 12
0.0
 22
0.0
 32
0.0
 14
0.0
 24
0.0
 34
0.0
 15
0.0
 25
0.0
 35
0.0
146
0.0
 13
0.0
 23
0.0
 33
0.0
 16
1.0
 26
0.0
 36
0.0
 17
0.0
 27
1.0
 37
0.0
 76
0
330
21B
345
0
346
0
  0
ENDSEC
  0
EOF
