  0
SECTION
  2
HEADER
  9
$ACADVER
  1
AC1024
  9
$DWGCODEPAGE
  3
ANSI_1252
  9
$EXTMAX
 10
279.4
 20
215.9
 30
0.0
  9
$EXTMIN
 10
0.0
 20
0.0
 30
0.0
  9
$LIMMIN
 10
0.0
 20
0.0
  9
$LIMMAX
 10
279.4
 20
215.9
  9
$VIEWCTR
 10
139.7
 20
107.95
  9
$VIEWSIZE
 40
215.9
  9
$CLAYER
  8
0
  9
$LTSCALE
 40
15.367
  9
$CELTYPE
  6
BYLAYER
  9
$DIMSCALE
 40
1.0
  9
$DIMASZ
 40
3.0
  9
$DIMEXO
 40
0.5
  9
$DIMDLI
 40
10.6172
  9
$DIMEXE
 40
1.5
  9
$DIMCEN
 40
2.5146
  9
$DIMLFAC
 40
1.0
  9
$DIMBLK
  1
_FILLED
  9
$DIMALT
 70
0
  9
$DIMALTF
 40
0.0393700787
  9
$DIMTXT
 40
3.0
  9
$DIMTOL
 70
1
  9
$DIMLIM
 70
0
  9
$DIMTFAC
 40
1.0
  9
$DIMTP
 40
0.01
  9
$DIMTM
 40
0.01
  9
$DIMGAP
 40
0.625
  9
$DIMDSEP
 70
44
  9
$AUNITS
 70
0
  9
$PDMODE
 70
3
  9
$PDSIZE
 40
3.0
  9
$HANDSEED
  5
3A4
  9
$TILEMODE
 70
1
  9
$MEASUREMENT
 70
1
  9
$INSUNITS
 70
4
  0
ENDSEC
  0
SECTION
  2
CLASSES
  0
CLASS
  1
ACDBDICTIONARYWDFLT
  2
AcDbDictionaryWithDefault
  3
AutoCAD 2000
 90
0
 91
1
280
0
281
0
  0
CLASS
  1
ACDBPLACEHOLDER
  2
AcDbPlaceHolder
  3
AutoCAD 2000
 90
0
 91
1
280
0
281
0
  0
CLASS
  1
LAYOUT
  2
AcDbLayout
  3
AutoCAD 2000
 90
0
 91
0
280
0
281
0
  0
ENDSEC
  0
SECTION
  2
TABLES
  0
TABLE
  2
VPORT
  5
8
100
AcDbSymbolTable
 70
2
  0
VPORT
  5
1F4
100
AcDbSymbolTableRecord
100
AcDbViewportTableRecord
  2
*ACTIVE
 70
0
 10
0.0
 20
0.0
 11
1.0
 21
1.0
 12
139.7
 22
107.95
 13
0.0
 23
0.0
 14
1.0
 24
1.0
 15
0.0
 25
0.0
 16
0.0
 26
0.0
 36
1.0
 17
0.0
 27
0.0
 37
0.0
 40
215.9
 41
1.2941176471
 42
50.0
 43
0.0
 44
0.0
 50
0.0
 51
0.0
 71
0
 72
100
 73
1
 74
1
 75
0
 76
0
 77
0
 78
0
  0
ENDTAB
  0
TABLE
  2
LTYPE
  5
5
100
AcDbSymbolTable
 70
6
  0
LTYPE
  5
14
100
AcDbSymbolTableRecord
100
AcDbLinetypeTableRecord
  2
BYBLOCK
 70
0
  3

 72
65
 73
0
 40
0.0
  0
LTYPE
  5
15
100
AcDbSymbolTableRecord
100
AcDbLinetypeTableRecord
  2
BYLAYER
 70
0
  3

 72
65
 73
0
 40
0.0
  0
LTYPE
  5
16
100
AcDbSymbolTableRecord
100
AcDbLinetypeTableRecord
  2
CONTINUOUS
 70
64
  3
Solid line
 72
65
 73
0
 40
0.0
  0
LTYPE
  5
1F5
100
AcDbSymbolTableRecord
100
AcDbLinetypeTableRecord
  2
CENTER
 70
64
  3
____ _ ____ _ ____ _ ____ _ ____ _ ____ _ ____
 72
65
 73
4
 40
0.6
 49
0.375
 74
0
 49
-0.075
 74
0
 49
0.075
 74
0
 49
-0.075
 74
0
  0
LTYPE
  5
1F6
100
AcDbSymbolTableRecord
100
AcDbLinetypeTableRecord
  2
HIDDEN
 70
64
  3
- - - - - - - - - - - - - - - - - - - -
 72
65
 73
2
 40
0.2
 49
0.1
 74
0
 49
-0.1
 74
0
  0
LTYPE
  5
1F7
100
AcDbSymbolTableRecord
100
AcDbLinetypeTableRecord
  2
PHANTOM
 70
64
  3
_____ _ _ _____ _ _ _____ _ _ _____
 72
65
 73
6
 40
0.8
 49
0.45
 74
0
 49
-0.05
 74
0
 49
0.1
 74
0
 49
-0.05
 74
0
 49
0.1
 74
0
 49
-0.05
 74
0
  0
LTYPE
  5
1F8
100
AcDbSymbolTableRecord
100
AcDbLinetypeTableRecord
  2
DOT
 70
64
  3
. . . . . . . . . . . . . . . . . . . .
 72
65
 73
2
 40
0.2
 49
0.1
 74
0
 49
-0.1
 74
0
  0
LTYPE
  5
1F9
100
AcDbSymbolTableRecord
100
AcDbLinetypeTableRecord
  2
DASHED
 70
64
  3
- - - - - - - - - - - - - - - - - - - -
 72
65
 73
2
 40
0.2
 49
0.1
 74
0
 49
-0.1
 74
0
  0
ENDTAB
  0
TABLE
  2
LAYER
  5
2
100
AcDbSymbolTable
 70
36
  0
LAYER
  5
10
100
AcDbSymbolTableRecord
100
AcDbLayerTableRecord
  2
0
 70
0
 62
7
  6
CONTINUOUS
370
-3
390
F
  0
LAYER
  5
1FA
100
AcDbSymbolTableRecord
100
AcDbLayerTableRecord
  2
DEFAULT_1
 70
0
 62
7
  6
CENTER
370
-3
390
F
  0
LAYER
  5
1FB
100
AcDbSymbolTableRecord
100
AcDbLayerTableRecord
  2
DEFAULT_2
 70
0
 62
7
  6
HIDDEN
370
-3
390
F
  0
LAYER
  5
1FC
100
AcDbSymbolTableRecord
100
AcDbLayerTableRecord
  2
DEFAULT_3
 70
0
 62
7
  6
PHANTOM
370
-3
390
F
  0
LAYER
  5
1FD
100
AcDbSymbolTableRecord
100
AcDbLayerTableRecord
  2
218140040
 70
0
 62
7
  6
CONTINUOUS
370
-3
390
F
  0
LAYER
  5
1FE
100
AcDbSymbolTableRecord
100
AcDbLayerTableRecord
  2
260140000
 70
0
 62
7
  6
CONTINUOUS
370
-3
390
F
  0
LAYER
  5
1FF
100
AcDbSymbolTableRecord
100
AcDbLayerTableRecord
  2
268140000
 70
0
 62
7
  6
CONTINUOUS
370
-3
390
F
  0
LAYER
  5
200
100
AcDbSymbolTableRecord
100
AcDbLayerTableRecord
  2
284140000
 70
0
 62
7
  6
CONTINUOUS
370
-3
390
F
  0
LAYER
  5
201
100
AcDbSymbolTableRecord
100
AcDbLayerTableRecord
  2
290140210
 70
0
 62
7
  6
CONTINUOUS
370
-3
390
F
  0
LAYER
  5
202
100
AcDbSymbolTableRecord
100
AcDbLayerTableRecord
  2
320140050
 70
0
 62
7
  6
CONTINUOUS
370
-3
390
F
  0
LAYER
  5
203
100
AcDbSymbolTableRecord
100
AcDbLayerTableRecord
  2
340002230
 70
0
 62
7
  6
CONTINUOUS
370
-3
390
F
  0
LAYER
  5
204
100
AcDbSymbolTableRecord
100
AcDbLayerTableRecord
  2
712140000
 70
0
 62
7
  6
CONTINUOUS
370
-3
390
F
  0
LAYER
  5
205
100
AcDbSymbolTableRecord
100
AcDbLayerTableRecord
  2
715140000
 70
0
 62
7
  6
CONTINUOUS
370
-3
390
F
  0
LAYER
  5
206
100
AcDbSymbolTableRecord
100
AcDbLayerTableRecord
  2
715140040
 70
0
 62
7
  6
CONTINUOUS
370
-3
390
F
  0
LAYER
  5
207
100
AcDbSymbolTableRecord
100
AcDbLayerTableRecord
  2
ASSI
 70
0
 62
7
  6
CONTINUOUS
370
-3
390
F
  0
LAYER
  5
208
100
AcDbSymbolTableRecord
100
AcDbLayerTableRecord
  2
COLORE_TOP
 70
0
 62
7
  6
CONTINUOUS
370
-3
390
F
  0
LAYER
  5
209
100
AcDbSymbolTableRecord
100
AcDbLayerTableRecord
  2
COORDINATE
 70
0
 62
7
  6
CONTINUOUS
370
-3
390
F
  0
LAYER
  5
20A
100
AcDbSymbolTableRecord
100
AcDbLayerTableRecord
  2
COORD_ORIGINE
 70
0
 62
7
  6
CONTINUOUS
370
-3
390
F
  0
LAYER
  5
20B
100
AcDbSymbolTableRecord
100
AcDbLayerTableRecord
  2
COPY-PUBBLISH
 70
0
 62
7
  6
CONTINUOUS
370
-3
390
F
  0
LAYER
  5
20C
100
AcDbSymbolTableRecord
100
AcDbLayerTableRecord
  2
COSMETICHE
 70
0
 62
7
  6
CONTINUOUS
370
-3
390
F
  0
LAYER
  5
20D
100
AcDbSymbolTableRecord
100
AcDbLayerTableRecord
  2
CURVA_CENTRALE
 70
0
 62
7
  6
CONTINUOUS
370
-3
390
F
  0
LAYER
  5
20E
100
AcDbSymbolTableRecord
100
AcDbLayerTableRecord
  2
CURVE
 70
0
 62
7
  6
CONTINUOUS
370
-3
390
F
  0
LAYER
  5
20F
100
AcDbSymbolTableRecord
100
AcDbLayerTableRecord
  2
DRAFT
 70
0
 62
7
  6
CONTINUOUS
370
-3
390
F
  0
LAYER
  5
210
100
AcDbSymbolTableRecord
100
AcDbLayerTableRecord
  2
IMPORT
 70
0
 62
7
  6
CONTINUOUS
370
-3
390
F
  0
LAYER
  5
211
100
AcDbSymbolTableRecord
100
AcDbLayerTableRecord
  2
IMPORTED
 70
0
 62
7
  6
CONTINUOUS
370
-3
390
F
  0
LAYER
  5
212
100
AcDbSymbolTableRecord
100
AcDbLayerTableRecord
  2
INCISIONI_LASER
 70
0
 62
7
  6
CONTINUOUS
370
-3
390
F
  0
LAYER
  5
213
100
AcDbSymbolTableRecord
100
AcDbLayerTableRecord
  2
INTF_1
 70
0
 62
7
  6
CONTINUOUS
370
-3
390
F
  0
LAYER
  5
214
100
AcDbSymbolTableRecord
100
AcDbLayerTableRecord
  2
INTF_11
 70
0
 62
7
  6
CONTINUOUS
370
-3
390
F
  0
LAYER
  5
215
100
AcDbSymbolTableRecord
100
AcDbLayerTableRecord
  2
INTF_12
 70
0
 62
7
  6
CONTINUOUS
370
-3
390
F
  0
LAYER
  5
216
100
AcDbSymbolTableRecord
100
AcDbLayerTableRecord
  2
INTF_2
 70
0
 62
7
  6
CONTINUOUS
370
-3
390
F
  0
LAYER
  5
217
100
AcDbSymbolTableRecord
100
AcDbLayerTableRecord
  2
INTF_6
 70
0
 62
7
  6
CONTINUOUS
370
-3
390
F
  0
LAYER
  5
218
100
AcDbSymbolTableRecord
100
AcDbLayerTableRecord
  2
NOTE
 70
0
 62
7
  6
CONTINUOUS
370
-3
390
F
  0
LAYER
  5
219
100
AcDbSymbolTableRecord
100
AcDbLayerTableRecord
  2
PIANI
 70
0
 62
7
  6
CONTINUOUS
370
-3
390
F
  0
LAYER
  5
21A
100
AcDbSymbolTableRecord
100
AcDbLayerTableRecord
  2
PIANI_DI_RIFERIMENTO
 70
0
 62
7
  6
CONTINUOUS
370
-3
390
F
  0
LAYER
  5
21B
100
AcDbSymbolTableRecord
100
AcDbLayerTableRecord
  2
PIANI_ORIGINE
 70
0
 62
7
  6
CONTINUOUS
370
-3
390
F
  0
LAYER
  5
21C
100
AcDbSymbolTableRecord
100
AcDbLayerTableRecord
  2
PIANI_RIFERIMENTO
 70
0
 62
7
  6
CONTINUOUS
370
-3
390
F
  0
LAYER
  5
21D
100
AcDbSymbolTableRecord
100
AcDbLayerTableRecord
  2
PIANI_SFORMO
 70
0
 62
7
  6
CONTINUOUS
370
-3
390
F
  0
LAYER
  5
21E
100
AcDbSymbolTableRecord
100
AcDbLayerTableRecord
  2
PUNTI
 70
0
 62
7
  6
CONTINUOUS
370
-3
390
F
  0
LAYER
  5
21F
100
AcDbSymbolTableRecord
100
AcDbLayerTableRecord
  2
RACCORDO
 70
0
 62
7
  6
CONTINUOUS
370
-3
390
F
  0
LAYER
  5
220
100
AcDbSymbolTableRecord
100
AcDbLayerTableRecord
  2
RGB__255__255__255__
 70
0
 62
7
  6
CONTINUOUS
370
-3
390
F
  0
LAYER
  5
221
100
AcDbSymbolTableRecord
100
AcDbLayerTableRecord
  2
RINTRACCIABILITA
 70
0
 62
7
  6
CONTINUOUS
370
-3
390
F
  0
LAYER
  5
222
100
AcDbSymbolTableRecord
100
AcDbLayerTableRecord
  2
SMUSSO
 70
0
 62
7
  6
CONTINUOUS
370
-3
390
F
  0
LAYER
  5
223
100
AcDbSymbolTableRecord
100
AcDbLayerTableRecord
  2
SNAPLINE
 70
0
 62
7
  6
CONTINUOUS
370
-3
390
F
  0
LAYER
  5
224
100
AcDbSymbolTableRecord
100
AcDbLayerTableRecord
  2
SUPERFICI
 70
0
 62
7
  6
CONTINUOUS
370
-3
390
F
  0
LAYER
  5
225
100
AcDbSymbolTableRecord
100
AcDbLayerTableRecord
  2
TRASH
 70
0
 62
7
  6
CONTINUOUS
370
-3
390
F
  0
LAYER
  5
226
100
AcDbSymbolTableRecord
100
AcDbLayerTableRecord
  2
WHITE
 70
0
 62
7
  6
CONTINUOUS
370
-3
390
F
  0
LAYER
  5
227
100
AcDbSymbolTableRecord
100
AcDbLayerTableRecord
  2
XSEC_DATUMS
 70
0
 62
7
  6
CONTINUOUS
370
-3
390
F
  0
ENDTAB
  0
TABLE
  2
STYLE
  5
3
100
AcDbSymbolTable
 70
1
  0
STYLE
  5
11
100
AcDbSymbolTableRecord
100
AcDbTextStyleTableRecord
  2
STANDARD
 70
0
 40
0.0
 41
0.8
 50
0.0
 71
0
 42
0.2
  3
txt
  4

  0
STYLE
  5
228
100
AcDbSymbolTableRecord
100
AcDbTextStyleTableRecord
  2
TEXTSTYLE_1
 70
0
 40
0.0
 41
0.8
 50
0.0
 71
0
 42
0.2
  3
gdt
  4

  0
ENDTAB
  0
TABLE
  2
VIEW
  5
6
100
AcDbSymbolTable
 70
0
  0
ENDTAB
  0
TABLE
  2
UCS
  5
7
100
AcDbSymbolTable
 70
0
  0
ENDTAB
  0
TABLE
  2
APPID
  5
9
100
AcDbSymbolTable
 70
1
  0
APPID
  5
229
100
AcDbSymbolTableRecord
100
AcDbRegAppTableRecord
  2
ACAD
 70
0
  0
ENDTAB
  0
TABLE
  2
BLOCK_RECORD
  5
1
100
AcDbSymbolTable
 70
0
  0
BLOCK_RECORD
  5
22A
100
AcDbSymbolTableRecord
100
AcDbBlockTableRecord
  2
*Model_Space
  0
BLOCK_RECORD
  5
22B
100
AcDbSymbolTableRecord
100
AcDbBlockTableRecord
  2
*Paper_Space
  0
BLOCK_RECORD
  5
22C
100
AcDbSymbolTableRecord
100
AcDbBlockTableRecord
  2
_FILLED
  0
ENDTAB
  0
TABLE
  2
DIMSTYLE
  5
A
100
AcDbSymbolTable
 70
1
100
AcDbDimStyleTable
 71
0
  0
DIMSTYLE
105
22D
100
AcDbSymbolTableRecord
100
AcDbDimStyleTableRecord
  2
STANDARD
 70
0
  3

  4

 40
1.0
 41
3.0
 42
0.5
 43
0.38
 44
1.5
 45
0.0
 46
0.0
 47
0.01
 48
0.01
140
3.0
141
0.09
142
0.0
143
25.4
144
1.0
145
0.0
146
1.0
147
0.625
 71
1
 72
0
 73
0
 74
0
 75
0
 76
0
 77
1
 78
8
 79
2
170
0
171
1
172
0
173
0
174
0
175
0
176
0
177
0
178
0
270
2
179
2
271
2
272
2
273
2
274
2
275
0
280
0
281
0
282
0
283
1
284
8
285
0
286
0
287
3
288
0
340
11
278
44
341
22C
342
22C
343
22C
344
22C
  0
ENDTAB
  0
ENDSEC
  0
SECTION
  2
BLOCKS
  0
BLOCK
  5
20
100
AcDbEntity
  8
0
100
AcDbBlockBegin
  2
*Model_Space
 70
0
 10
0.0
 20
0.0
 30
0.0
  3
*Model_Space
  1

  0
ENDBLK
  5
21
100
AcDbEntity
  8
0
100
AcDbBlockEnd
  0
BLOCK
  5
1C
100
AcDbEntity
  8
0
100
AcDbBlockBegin
  2
*Paper_Space
 70
0
 10
0.0
 20
0.0
 30
0.0
  3
*Paper_Space
  1

  0
ENDBLK
  5
1D
100
AcDbEntity
  8
0
100
AcDbBlockEnd
  0
BLOCK
  5
22E
100
AcDbEntity
  8
0
100
AcDbBlockBegin
  2
_FILLED
 70
64
 10
0.0
 20
0.0
  3
_FILLED
  1

  0
SOLID
  5
22F
100
AcDbEntity
  8
0
  6
BYBLOCK
 62
0
100
AcDbTrace
 10
0.0
 20
0.0
 11
-1.0
 21
0.3166666667
 12
-1.0
 22
-0.3166666667
 13
-1.0
 23
-0.3166666667
  0
ENDBLK
  5
230
100
AcDbEntity
  8
0
  6
BYBLOCK
 62
0
100
AcDbBlockEnd
  0
ENDSEC
  0
SECTION
  2
ENTITIES
  0
LINE
  5
231
100
AcDbEntity
  8
268140000
100
AcDbLine
 62
7
  6
CONTINUOUS
 10
-13.1540178458
 20
24.4733312412
 11
-11.5712612427
 21
25.2853153386
  0
LINE
  5
232
100
AcDbEntity
  8
268140000
100
AcDbLine
 62
7
  6
CONTINUOUS
 10
-13.6379681074
 20
22.7306333164
 11
-12.6257506741
 21
23.2475608019
  0
LINE
  5
233
100
AcDbEntity
  8
268140000
100
AcDbLine
 62
7
  6
CONTINUOUS
 10
-11.5712612427
 20
25.2853153386
 11
-11.036811364
 21
25.5456628051
  0
LWPOLYLINE
  5
234
100
AcDbEntity
  8
RACCORDO
100
AcDbPolyline
 62
250
  6
CONTINUOUS
 90
14
 70
0
 10
-20.4394858427
 20
-18.6773473368
 10
-20.4939531814
 20
-18.6438950581
 10
-20.5447799265
 20
-18.6040095152
 10
-20.5917246876
 20
-18.5578870869
 10
-20.6345786167
 20
-18.5057363046
 10
-20.6731327606
 20
-18.4478008761
 10
-20.707181773
 20
-18.3843760484
 10
-20.7365533192
 20
-18.315787912
 10
-20.7610991254
 20
-18.242387119
 10
-20.7807002086
 20
-18.1645306769
 10
-20.7952657669
 20
-18.0825916814
 10
-20.804723563
 20
-17.9969705767
 10
-20.8090225276
 20
-17.9080950299
 10
-20.8081398063
 20
-17.8164044055
  0
LINE
  5
235
100
AcDbEntity
  8
268140000
100
AcDbLine
 62
250
  6
CONTINUOUS
 10
-13.4804495519
 20
22.7211975096
 11
-12.6257506741
 21
23.1576821296
  0
LINE
  5
236
100
AcDbEntity
  8
268140000
100
AcDbLine
 62
7
  6
CONTINUOUS
 10
-9.9449156459
 20
22.7400917326
 11
-11.0117465581
 21
22.2015104831
  0
LINE
  5
237
100
AcDbEntity
  8
268140000
100
AcDbLine
 62
7
  6
CONTINUOUS
 10
-11.5461964368
 20
23.6694205367
 11
-9.9449156459
 21
24.4721425402
  0
LINE
  5
238
100
AcDbEntity
  8
268140000
100
AcDbLine
 62
7
  6
CONTINUOUS
 10
-9.9449156459
 20
24.4721425402
 11
-9.4166484742
 21
24.7355813602
  0
LWPOLYLINE
  5
239
100
AcDbEntity
  8
RACCORDO
100
AcDbPolyline
 62
7
  6
CONTINUOUS
 90
19
 70
0
 10
-16.792182909
 20
20.4032237144
 10
-16.8089045312
 20
20.3961083611
 10
-16.9001210305
 20
20.3522967497
 10
-16.9887233712
 20
20.3012480496
 10
-17.0747297515
 20
20.2430205095
 10
-17.1577666389
 20
20.177933437
 10
-17.237095198
 20
20.1066771875
 10
-17.3127526798
 20
20.029342523
 10
-17.3845742028
 20
19.9461328745
 10
-17.4516591349
 20
19.8581400629
 10
-17.5139832775
 20
19.7655423469
 10
-17.5714023594
 20
19.6685130657
 10
-17.6230876098
 20
19.5684902882
 10
-17.6689814726
 20
19.465732226
 10
-17.7089485884
 20
19.3604057964
 10
-17.7424266489
 20
19.2539871808
 10
-17.7692657412
 20
19.1470719861
 10
-17.789500856
 20
19.0394357228
 10
-17.7941308523
 20
19.0079590135
  0
LINE
  5
23A
100
AcDbEntity
  8
RACCORDO
100
AcDbLine
 62
7
  6
CONTINUOUS
 10
-16.792187402
 20
20.4032344894
 11
-12.8375613036
 21
22.0520888604
  0
LINE
  5
23B
100
AcDbEntity
  8
RACCORDO
100
AcDbLine
 62
250
  6
CONTINUOUS
 10
-16.434878622
 20
20.379739072
 11
-12.6274921302
 21
21.9672028603
  0
LWPOLYLINE
  5
23C
100
AcDbEntity
  8
RACCORDO
100
AcDbPolyline
 62
250
  6
CONTINUOUS
 90
8
 70
0
 10
-16.792047618
 20
20.403292806
 10
-16.78521346
 20
20.4060601185
 10
-16.7314826362
 20
20.4224724887
 10
-16.675044689
 20
20.4305920108
 10
-16.6165174257
 20
20.4303298032
 10
-16.5565415244
 20
20.4216887361
 10
-16.4957735209
 20
20.4047634004
 10
-16.434878622
 20
20.379739072
  0
LWPOLYLINE
  5
23D
100
AcDbEntity
  8
268140000
100
AcDbPolyline
 62
7
  6
CONTINUOUS
 90
3
 70
0
 10
-1.9623420106
 20
25.9605026284
 10
-1.9749070303
 20
25.9558035776
 10
-1.9805578151
 20
25.9531609776
  0
LWPOLYLINE
  5
23E
100
AcDbEntity
  8
268140000
100
AcDbPolyline
 62
7
  6
CONTINUOUS
 90
10
 70
0
 10
-1.9623420106
 20
25.9605026284
 10
-1.9531023898
 20
25.9632484274
 10
-1.9445392359
 20
25.9655141459
 10
-1.936652549
 20
25.9672997839
 10
-1.9294031907
 20
25.9686261885
 10
-1.9228302994
 20
25.9694725127
 10
-1.91705129
 20
25.9697762154
 10
-1.9120703328
 20
25.9695368796
 10
-1.9078832576
 20
25.9687549225
 10
-1.9052812854
 20
25.9677522106
  0
LWPOLYLINE
  5
23F
100
AcDbEntity
  8
RACCORDO
100
AcDbPolyline
 62
7
  6
CONTINUOUS
 90
12
 70
0
 10
-6.085802688
 20
-25.8544328995
 10
-6.061509226
 20
-25.8662252835
 10
-5.980562973
 20
-25.9003285815
 10
-5.8965873886
 20
-25.9279088123
 10
-5.8100158418
 20
-25.9487050394
 10
-5.7210719815
 20
-25.9625333327
 10
-5.6302805565
 20
-25.9691729196
 10
-5.5382210746
 20
-25.9684557957
 10
-5.4451065918
 20
-25.9602318055
 10
-5.3513315661
 20
-25.9443691406
 10
-5.2575555625
 20
-25.9208395431
 10
-5.2423811219
 20
-25.916299771
  0
LINE
  5
240
100
AcDbEntity
  8
RACCORDO
100
AcDbLine
 62
7
  6
CONTINUOUS
 10
-6.0850054762
 20
-25.8548468974
 11
-20.425331323
 21
-18.684683974
  0
LINE
  5
241
100
AcDbEntity
  8
RACCORDO
100
AcDbLine
 62
250
  6
CONTINUOUS
 10
-6.4796594717
 20
-24.9806445728
 11
-20.8081398063
 21
-17.8164044055
  0
LINE
  5
242
100
AcDbEntity
  8
RACCORDO
100
AcDbLine
 62
250
  6
CONTINUOUS
 10
-20.4253318085
 20
-18.6846837312
 11
-20.4394858427
 21
-18.6773473368
  0
LINE
  5
243
100
AcDbEntity
  8
268140000
100
AcDbLine
 62
7
  6
CONTINUOUS
 10
-9.3297968109
 20
24.1145837736
 11
-9.8570415267
 21
23.4728760456
  0
LWPOLYLINE
  5
244
100
AcDbEntity
  8
268140000
100
AcDbPolyline
 62
7
  6
CONTINUOUS
 90
12
 70
0
 10
-1.9805578151
 20
25.9531609776
 10
-1.9870765404
 20
25.9496889121
 10
-1.998930967
 20
25.9421846389
 10
-2.010586147
 20
25.9333121277
 10
-2.0220817418
 20
25.9231270171
 10
-2.0333730395
 20
25.9116959447
 10
-2.0445181059
 20
25.8990489186
 10
-2.0555849853
 20
25.8852193824
 10
-2.0665311045
 20
25.8702498836
 10
-2.0773784056
 20
25.8541669564
 10
-2.0882168344
 20
25.8369987021
 10
-2.0991012023
 20
25.8187800706
  0
LINE
  5
245
100
AcDbEntity
  8
268140000
100
AcDbLine
 62
7
  6
CONTINUOUS
 10
-7.6805212146
 20
22.3205855427
 11
-7.1871991993
 21
22.5736690746
  0
LINE
  5
246
100
AcDbEntity
  8
268140000
100
AcDbLine
 62
7
  6
CONTINUOUS
 10
-8.4891346694
 20
22.7117503364
 11
-1.9804882203
 21
25.9531956465
  0
LINE
  5
247
100
AcDbEntity
  8
268140000
100
AcDbLine
 62
250
  6
CONTINUOUS
 10
-8.4136415289
 20
22.6740037661
 11
-2.0991012023
 21
25.8187800706
  0
LINE
  5
248
100
AcDbEntity
  8
268140000
100
AcDbLine
 62
7
  6
CONTINUOUS
 10
-1.1060808811
 20
24.9390365399
 11
-5.8436963151
 21
22.6039860253
  0
LINE
  5
249
100
AcDbEntity
  8
268140000
100
AcDbLine
 62
7
  6
CONTINUOUS
 10
-7.1871991993
 20
22.5736690746
 11
-1.7095592098
 21
25.2420010378
  0
LINE
  5
24A
100
AcDbEntity
  8
268140000
100
AcDbLine
 62
7
  6
CONTINUOUS
 10
3.5072766378
 20
-23.383887176
 11
4.0345213535
 21
-23.492179448
  0
LWPOLYLINE
  5
24B
100
AcDbEntity
  8
RACCORDO
100
AcDbPolyline
 62
250
  6
CONTINUOUS
 90
9
 70
0
 10
-21.0424717016
 20
-17.5352300419
 10
-21.0409045351
 20
-17.5664900279
 10
-21.0313366358
 20
-17.6054457179
 10
-21.0134166448
 20
-17.6439784349
 10
-20.9873344275
 20
-17.6816799174
 10
-20.9533663301
 20
-17.7181507114
 10
-20.9118722508
 20
-17.7530044019
 10
-20.8632918273
 20
-17.7858717075
 10
-20.8081397783
 20
-17.8164043931
  0
LWPOLYLINE
  5
24C
100
AcDbEntity
  8
RACCORDO
100
AcDbPolyline
 62
7
  6
CONTINUOUS
 90
15
 70
0
 10
-21.0424624396
 20
-17.5352303871
 10
-21.0435845482
 20
-17.587169435
 10
-21.0395193645
 20
-17.707180886
 10
-21.0262119785
 20
-17.8231110329
 10
-21.0038711073
 20
-17.934870084
 10
-20.9727359879
 20
-18.0419531166
 10
-20.933356251
 20
-18.1432149487
 10
-20.8865093971
 20
-18.2377764796
 10
-20.8326180782
 20
-18.3256846691
 10
-20.7720091894
 20
-18.4069225075
 10
-20.7055691848
 20
-18.4808112727
 10
-20.633871676
 20
-18.5472197374
 10
-20.5566416518
 20
-18.606590802
 10
-20.4741658724
 20
-18.6586221846
 10
-20.4242916184
 20
-18.6851873465
  0
LINE
  5
24D
100
AcDbEntity
  8
RACCORDO
100
AcDbLine
 62
7
  6
CONTINUOUS
 10
-21.0424648611
 20
-17.5350481763
 11
-21.0424717016
 21
-17.5352300419
  0
LWPOLYLINE
  5
24E
100
AcDbEntity
  8
RACCORDO
100
AcDbPolyline
 62
250
  6
CONTINUOUS
 90
13
 70
0
 10
-20.8081398063
 20
-17.8164044055
 10
-20.6813229965
 20
-14.8282748768
 10
-20.5282302025
 20
-11.8281881115
 10
-20.3488805268
 20
-8.8165265186
 10
-20.1432963745
 20
-5.7936740412
 10
-19.9115038476
 20
-2.7600157943
 10
-19.6535327384
 20
0.2840619859
 10
-19.3694161365
 20
3.3381716019
 10
-19.0591900132
 20
6.4019238536
 10
-18.7228936085
 20
9.4749284034
 10
-18.3605698483
 20
12.5567938399
 10
-17.9722653423
 20
15.6471277275
 10
-17.5580299613
 20
18.7455365662
  0
LWPOLYLINE
  5
24F
100
AcDbEntity
  8
RACCORDO
100
AcDbPolyline
 62
7
  6
CONTINUOUS
 90
13
 70
0
 10
-17.7941249295
 20
19.0080441104
 10
-18.2008107754
 20
15.9676694543
 10
-18.5907708234
 20
12.8673090821
 10
-18.9545801932
 20
9.7753919413
 10
-19.2921832286
 20
6.6923604072
 10
-19.6035384811
 20
3.6186031953
 10
-19.8886084715
 20
0.5544880974
 10
-20.1473552942
 20
-2.4996025342
 10
-20.3797463746
 20
-5.5432882622
 10
-20.5857514006
 20
-8.5762039881
 10
-20.7653404331
 20
-11.5979657079
 10
-20.9184888621
 20
-14.608143194
 10
-21.0424648611
 20
-17.5350481763
  0
LWPOLYLINE
  5
250
100
AcDbEntity
  8
RACCORDO
100
AcDbPolyline
 62
250
  6
CONTINUOUS
 90
22
 70
0
 10
-17.5580299613
 20
18.7455365662
 10
-17.5421141059
 20
18.8428150878
 10
-17.5211807608
 20
18.9410586757
 10
-17.4953352937
 20
19.0397817657
 10
-17.4647111249
 20
19.1384920079
 10
-17.4294590842
 20
19.2367069853
 10
-17.3897440394
 20
19.3339561914
 10
-17.3457570778
 20
19.4297740545
 10
-17.2977213967
 20
19.5236723606
 10
-17.2458830855
 20
19.6151586146
 10
-17.1905158679
 20
19.7037652684
 10
-17.1318870542
 20
19.789076843
 10
-17.0702591948
 20
19.87069892
 10
-17.0059262535
 20
19.9482432812
 10
-16.9392200047
 20
20.0213089447
 10
-16.8704785912
 20
20.0895119553
 10
-16.8000555551
 20
20.1525106424
 10
-16.7282947408
 20
20.2100054152
 10
-16.655533457
 20
20.2617153973
 10
-16.5821282726
 20
20.3073857992
 10
-16.5084537311
 20
20.3467916187
 10
-16.434878622
 20
20.379739072
  0
LINE
  5
251
100
AcDbEntity
  8
268140000
100
AcDbLine
 62
7
  6
CONTINUOUS
 10
0.2209929473
 20
23.4691623063
 11
-1.1767915592
 21
22.7702700531
  0
LINE
  5
252
100
AcDbEntity
  8
218140040
100
AcDbLine
 62
7
  6
CONTINUOUS
 10
-2.2517037736
 20
22.0782268576
 11
-2.1901472555
 21
22.1090051166
  0
LINE
  5
253
100
AcDbEntity
  8
218140040
100
AcDbLine
 62
250
  6
CONTINUOUS
 10
-2.1667410529
 20
22.0703065009
 11
-2.1007045365
 21
22.1033247592
  0
LWPOLYLINE
  5
254
100
AcDbEntity
  8
218140040
100
AcDbPolyline
 62
7
  6
CONTINUOUS
 90
20
 70
0
 10
-2.2517039679
 20
22.0782267604
 10
-2.2508384234
 20
22.0786507146
 10
-2.2471002323
 20
22.0802887315
 10
-2.2432208747
 20
22.081683947
 10
-2.2392044382
 20
22.0828347766
 10
-2.235056932
 20
22.0837391148
 10
-2.230784721
 20
22.0843951188
 10
-2.226392673
 20
22.084802152
 10
-2.2218872574
 20
22.084959209
 10
-2.2172752733
 20
22.0848655489
 10
-2.2125622896
 20
22.0845214965
 10
-2.2077551509
 20
22.0839271642
 10
-2.2028610074
 20
22.0830829251
 10
-2.1978860471
 20
22.081990055
 10
-2.1928374073
 20
22.0806497873
 10
-2.187722495
 20
22.0790636049
 10
-2.182548016
 20
22.0772337034
 10
-2.1773211789
 20
22.0751624479
 10
-2.1720496864
 20
22.0728523804
 10
-2.1667410529
 20
22.0703065009
  0
LINE
  5
255
100
AcDbEntity
  8
268140000
100
AcDbLine
 62
7
  6
CONTINUOUS
 10
-1.5303449498
 20
23.4996049377
 11
-1.1060808811
 21
23.7072023585
  0
LINE
  5
256
100
AcDbEntity
  8
268140000
100
AcDbLine
 62
7
  6
CONTINUOUS
 10
0.8799886986
 20
24.3292351202
 11
-1.1767915592
 21
23.3228282424
  0
LWPOLYLINE
  5
257
100
AcDbEntity
  8
218140040
100
AcDbPolyline
 62
250
  6
CONTINUOUS
 90
55
 70
0
 10
-2.1007045365
 20
22.1033247592
 10
-2.0849534305
 20
22.110992487
 10
-2.0688240257
 20
22.1184375472
 10
-2.052316322
 20
22.12565994
 10
-2.0354169646
 20
22.1326648705
 10
-2.0181393083
 20
22.1394471334
 10
-2.0005234177
 20
22.1459911128
 10
-1.9825688185
 20
22.1522960597
 10
-1.964275985
 20
22.158362723
 10
-1.9456864037
 20
22.1641777337
 10
-1.9267994916
 20
22.1697404484
 10
-1.9076158318
 20
22.1750515105
 10
-1.8881786607
 20
22.1800994807
 10
-1.8684875002
 20
22.1848837136
 10
-1.8485428285
 20
22.1894048545
 10
-1.828389316
 20
22.1936534005
 10
-1.8080265039
 20
22.1976287131
 10
-1.7874548512
 20
22.2013314307
 10
-1.7667204051
 20
22.2047539657
 10
-1.7458229344
 20
22.2078956501
 10
-1.7247626703
 20
22.210757152
 10
-1.7035863545
 20
22.2133328882
 10
-1.6822938294
 20
22.2156221995
 10
-1.6608852526
 20
22.2176257453
 10
-1.6394078384
 20
22.2193399198
 10
-1.6178616012
 20
22.2207640675
 10
-1.5962465265
 20
22.2218988441
 10
-1.5746097854
 20
22.222742611
 10
-1.5529514302
 20
22.2232947289
 10
-1.5312714086
 20
22.2235558371
 10
-1.5096167343
 20
22.2235262153
 10
-1.4879876216
 20
22.2232052392
 10
-1.4663838563
 20
22.2225935331
 10
-1.4448518091
 20
22.2216932493
 10
-1.4233917206
 20
22.2205037804
 10
-1.4020033502
 20
22.2190257339
 10
-1.3807323461
 20
22.2172630843
 10
-1.359579105
 20
22.2152152507
 10
-1.3385432302
 20
22.2128828139
 10
-1.3176691798
 20
22.2102714911
 10
-1.2969574267
 20
22.2073807328
 10
-1.276407498
 20
22.2042110885
 10
-1.2560624325
 20
22.2007699227
 10
-1.2359227699
 20
22.1970567179
 10
-1.2159879707
 20
22.1930719917
 10
-1.1962994543
 20
22.1888246614
 10
-1.1768576943
 20
22.1843142062
 10
-1.1576622173
 20
22.1795411469
 10
-1.1387530227
 20
22.1745159627
 10
-1.1201306247
 20
22.1692381158
 10
-1.1017945092
 20
22.163708144
 10
-1.0837831335
 20
22.1579381401
 10
-1.0661093167
 20
22.1519321351
 10
-1.0487602397
 20
22.145686098
 10
-1.0317359026
 20
22.1392000289
  0
LWPOLYLINE
  5
258
100
AcDbEntity
  8
218140040
100
AcDbPolyline
 62
250
  6
CONTINUOUS
 90
17
 70
0
 10
-2.1901472555
 20
22.1090051166
 10
-2.1867963986
 20
22.1105784434
 10
-2.1818204891
 20
22.1125589549
 10
-2.1766901708
 20
22.1141921829
 10
-2.1714152096
 20
22.1154750185
 10
-2.1660056467
 20
22.1164050196
 10
-2.1604717794
 20
22.1169804161
 10
-2.1548241419
 20
22.1172001125
 10
-2.1490734846
 20
22.1170636907
 10
-2.1432307544
 20
22.1165714104
 10
-2.1373070732
 20
22.1157242087
 10
-2.131313717
 20
22.1145236983
 10
-2.1252620945
 20
22.1129721644
 10
-2.1191637255
 20
22.1110725605
 10
-2.1130302183
 20
22.1088285026
 10
-2.1068732486
 20
22.1062442624
 10
-2.1007045365
 20
22.1033247592
  0
LINE
  5
259
100
AcDbEntity
  8
268140000
100
AcDbLine
 62
7
  6
CONTINUOUS
 10
0.1001698289
 20
-24.4550922679
 11
1.7067022982
 21
-25.2583585025
  0
LINE
  5
25A
100
AcDbEntity
  8
268140000
100
AcDbLine
 62
250
  6
CONTINUOUS
 10
0.0355745361
 20
-24.3200628195
 11
1.6413509982
 21
-25.1229510506
  0
LINE
  5
25B
100
AcDbEntity
  8
268140000
100
AcDbLine
 62
250
  6
CONTINUOUS
 10
1.6413509982
 20
-24.8695796569
 11
0.0355745361
 21
-24.0666914258
  0
LINE
  5
25C
100
AcDbEntity
  8
268140000
100
AcDbLine
 62
250
  6
CONTINUOUS
 10
1.7302535743
 20
-24.6381425972
 11
0.1234486554
 21
-23.8347401378
  0
LINE
  5
25D
100
AcDbEntity
  8
268140000
100
AcDbLine
 62
7
  6
CONTINUOUS
 10
-0.6358984566
 20
-22.4612276816
 11
1.7930569218
 21
-23.6757053707
  0
LINE
  5
25E
100
AcDbEntity
  8
268140000
100
AcDbLine
 62
7
  6
CONTINUOUS
 10
2.3525716063
 20
-23.8930831797
 11
1.9433063609
 21
-23.6884505571
  0
LINE
  5
25F
100
AcDbEntity
  8
268140000
100
AcDbLine
 62
7
  6
CONTINUOUS
 10
-0.6080234496
 20
-22.1476492465
 11
2.0405442952
 21
-23.4719331189
  0
LWPOLYLINE
  5
260
100
AcDbEntity
  8
RACCORDO
100
AcDbPolyline
 62
250
  6
CONTINUOUS
 90
10
 70
0
 10
-17.7941308523
 20
19.0079590135
 10
-17.7948477925
 20
19.0012920723
 10
-17.7930936042
 20
18.9695172401
 10
-17.7829534564
 20
18.9369944148
 10
-17.7645347848
 20
18.9040681787
 10
-17.7380327369
 20
18.8710873882
 10
-17.7037281043
 20
18.8384014778
 10
-17.6619843474
 20
18.8063567576
 10
-17.613243745
 20
18.7752927443
 10
-17.5580227082
 20
18.7455385639
  0
LINE
  5
261
100
AcDbEntity
  8
218140040
100
AcDbLine
 62
7
  6
CONTINUOUS
 10
-2.2633931339
 20
22.0704943643
 11
-3.1934325694
 21
21.2788541524
  0
LINE
  5
262
100
AcDbEntity
  8
218140040
100
AcDbLine
 62
250
  6
CONTINUOUS
 10
-2.1667410529
 20
22.0703065009
 11
-3.1324069949
 21
21.2483413652
  0
LWPOLYLINE
  5
263
100
AcDbEntity
  8
218140040
100
AcDbPolyline
 62
7
  6
CONTINUOUS
 90
5
 70
0
 10
-2.263393459
 20
22.0704941953
 10
-2.2611512239
 20
22.0723093501
 10
-2.2578682855
 20
22.074658189
 10
-2.2544296011
 20
22.0767728104
 10
-2.2517039679
 20
22.0782267604
  0
LINE
  5
264
100
AcDbEntity
  8
268140000
100
AcDbLine
 62
7
  6
CONTINUOUS
 10
-1.4637552577
 20
19.2122025643
 11
-0.9646595249
 21
19.4623992374
  0
LINE
  5
265
100
AcDbEntity
  8
268140000
100
AcDbLine
 62
7
  6
CONTINUOUS
 10
-0.9646595249
 20
19.4623992374
 11
4.4496131703
 21
22.1624148478
  0
LINE
  5
266
100
AcDbEntity
  8
268140000
100
AcDbLine
 62
7
  6
CONTINUOUS
 10
3.8436665872
 20
22.4641628057
 11
-0.8939488468
 21
20.1291122911
  0
LINE
  5
267
100
AcDbEntity
  8
268140000
100
AcDbLine
 62
7
  6
CONTINUOUS
 10
5.1226293858
 20
22.2079147766
 11
4.5362505987
 21
21.920992709
  0
LWPOLYLINE
  5
268
100
AcDbEntity
  8
268140000
100
AcDbPolyline
 62
7
  6
CONTINUOUS
 90
18
 70
0
 10
5.1226293858
 20
22.2079147766
 10
5.1510039065
 20
22.2210967334
 10
5.1792383585
 20
22.2328311252
 10
5.2073327418
 20
22.2431179518
 10
5.2353370548
 20
22.2519700864
 10
5.2632012991
 20
22.259374656
 10
5.2907754787
 20
22.2652930416
 10
5.3180446074
 20
22.2697164629
 10
5.3450236714
 20
22.2726537002
 10
5.371607634
 20
22.2740924762
 10
5.3978125929
 20
22.2740253396
 10
5.4236224503
 20
22.2724597416
 10
5.4488838766
 20
22.2694057582
 10
5.4735736299
 20
22.2648599738
 10
5.497714952
 20
22.258825804
 10
5.5212242383
 20
22.2513235712
 10
5.5441200185
 20
22.2423381566
 10
5.563668003
 20
22.2332554697
  0
LINE
  5
269
100
AcDbEntity
  8
218140040
100
AcDbLine
 62
7
  6
CONTINUOUS
 10
11.4024596219
 20
24.8731694561
 11
5.6225601728
 21
22.2038203512
  0
LINE
  5
26A
100
AcDbEntity
  8
218140040
100
AcDbLine
 62
250
  6
CONTINUOUS
 10
11.834079047
 20
24.8373757498
 11
5.9157599797
 21
22.1040998782
  0
LWPOLYLINE
  5
26B
100
AcDbEntity
  8
218140040
100
AcDbPolyline
 62
250
  6
CONTINUOUS
 90
3
 70
0
 10
5.9157599797
 20
22.1040998782
 10
5.8903421823
 20
22.092633169
 10
5.8659245894
 20
22.0821381429
  0
LWPOLYLINE
  5
26C
100
AcDbEntity
  8
218140040
100
AcDbPolyline
 62
7
  6
CONTINUOUS
 90
34
 70
0
 10
11.4024596219
 20
24.8731694561
 10
11.4268187411
 20
24.8840275768
 10
11.4514921309
 20
24.8942455514
 10
11.4764591474
 20
24.9038119069
 10
11.5017084367
 20
24.912719333
 10
11.5272085586
 20
24.9209541921
 10
11.5529076998
 20
24.9284993526
 10
11.5786097088
 20
24.9353059464
 10
11.6044637539
 20
24.9414224136
 10
11.6309416099
 20
24.9469414574
 10
11.6584075345
 20
24.9518832493
 10
11.6864568246
 20
24.9561190915
 10
11.7144083418
 20
24.9595353407
 10
11.7419270577
 20
24.9621218806
 10
11.7692975549
 20
24.9639359242
 10
11.7967676697
 20
24.9650000728
 10
11.8243614418
 20
24.965308448
 10
11.852005085
 20
24.9648537452
 10
11.8797978202
 20
24.9636250135
 10
11.9079250552
 20
24.9615908897
 10
11.9361439972
 20
24.9587460048
 10
11.9639222526
 20
24.9551521446
 10
11.9908130902
 20
24.9509151178
 10
12.0172453443
 20
24.9460141914
 10
12.0439933748
 20
24.9403004504
 10
12.0715504916
 20
24.9336062051
 10
12.0993392683
 20
24.9260083647
 10
12.1265359442
 20
24.9177290321
 10
12.1527064477
 20
24.9089538258
 10
12.1782925798
 20
24.8995865096
 10
12.2037986417
 20
24.8894492806
 10
12.2294993282
 20
24.8784005859
 10
12.2550629643
 20
24.8665497942
 10
12.2689546189
 20
24.8597377337
  0
LINE
  5
26D
100
AcDbEntity
  8
268140000
100
AcDbLine
 62
250
  6
CONTINUOUS
 10
3.5072766378
 20
-23.383887176
 11
3.4638543118
 21
-23.3621760131
  0
LINE
  5
26E
100
AcDbEntity
  8
268140000
100
AcDbLine
 62
7
  6
CONTINUOUS
 10
-0.528406301
 20
-21.2520002912
 11
2.8537170935
 21
-22.9430619885
  0
LINE
  5
26F
100
AcDbEntity
  8
268140000
100
AcDbLine
 62
250
  6
CONTINUOUS
 10
3.4194025185
 20
-23.1846200305
 11
4.0345213535
 21
-23.492179448
  0
LINE
  5
270
100
AcDbEntity
  8
268140000
100
AcDbLine
 62
7
  6
CONTINUOUS
 10
3.4194025185
 20
-23.180999881
 11
4.0578001799
 21
-23.5001987117
  0
LINE
  5
271
100
AcDbEntity
  8
268140000
100
AcDbLine
 62
7
  6
CONTINUOUS
 10
-0.3879820471
 20
-19.6723049806
 11
2.8537170935
 21
-21.2931545509
  0
LINE
  5
272
100
AcDbEntity
  8
268140000
100
AcDbLine
 62
7
  6
CONTINUOUS
 10
0.2103003186
 20
17.791172159
 11
1.7930569218
 21
18.6031562564
  0
LINE
  5
273
100
AcDbEntity
  8
268140000
100
AcDbLine
 62
7
  6
CONTINUOUS
 10
-1.4637552577
 20
17.9979990915
 11
-0.9646595249
 21
18.2499636721
  0
LINE
  5
274
100
AcDbEntity
  8
268140000
100
AcDbLine
 62
7
  6
CONTINUOUS
 10
-0.9646595249
 20
18.2499636721
 11
4.4496131703
 21
20.9305762694
  0
LINE
  5
275
100
AcDbEntity
  8
268140000
100
AcDbLine
 62
7
  6
CONTINUOUS
 10
1.7930569218
 20
18.6031562564
 11
2.3275068004
 21
18.8635037229
  0
LINE
  5
276
100
AcDbEntity
  8
218140040
100
AcDbLine
 62
7
  6
CONTINUOUS
 10
12.8748455488
 20
24.3169924989
 11
9.3017718503
 21
22.611559182
  0
LINE
  5
277
100
AcDbEntity
  8
268140000
100
AcDbLine
 62
7
  6
CONTINUOUS
 10
-13.7279369253
 20
22.5418207631
 11
-13.7279369253
 21
22.5174252578
  0
LINE
  5
278
100
AcDbEntity
  8
268140000
100
AcDbLine
 62
7
  6
CONTINUOUS
 10
-13.3287436284
 20
23.9150717958
 11
-13.3287436284
 21
24.1684431895
  0
LINE
  5
279
100
AcDbEntity
  8
268140000
100
AcDbLine
 62
250
  6
CONTINUOUS
 10
3.9334833516
 20
17.3094516872
 11
9.2918101317
 21
20.2003919142
  0
LINE
  5
27A
100
AcDbEntity
  8
268140000
100
AcDbLine
 62
250
  6
CONTINUOUS
 10
3.5668631984
 20
16.8632395611
 11
9.2076585641
 21
19.9065780703
  0
LINE
  5
27B
100
AcDbEntity
  8
715140000
100
AcDbLine
 62
7
  6
CONTINUOUS
 10
9.3834125126
 20
20.2839478299
 11
10.0157005788
 21
20.6173658296
  0
LINE
  5
27C
100
AcDbEntity
  8
268140000
100
AcDbLine
 62
250
  6
CONTINUOUS
 10
3.4784732436
 20
16.7279463799
 11
9.2076585641
 21
19.6943189162
  0
LINE
  5
27D
100
AcDbEntity
  8
268140000
100
AcDbLine
 62
7
  6
CONTINUOUS
 10
3.5982393742
 20
16.6680633145
 11
9.2900626393
 21
19.6150910804
  0
LINE
  5
27E
100
AcDbEntity
  8
218140040
100
AcDbLine
 62
7
  6
CONTINUOUS
 10
9.6957577841
 20
21.589403364
 11
13.9121375619
 21
23.7347129807
  0
LINE
  5
27F
100
AcDbEntity
  8
218140040
100
AcDbLine
 62
7
  6
CONTINUOUS
 10
9.6957577841
 20
21.1791843211
 11
13.9181945487
 21
23.2972245135
  0
LINE
  5
280
100
AcDbEntity
  8
268140000
100
AcDbLine
 62
7
  6
CONTINUOUS
 10
1.8181217277
 20
16.9872614545
 11
3.4194025185
 21
17.789983458
  0
LINE
  5
281
100
AcDbEntity
  8
715140000
100
AcDbLine
 62
7
  6
CONTINUOUS
 10
10.1439880076
 20
20.3942740983
 11
10.6389627544
 21
20.6417614717
  0
LINE
  5
282
100
AcDbEntity
  8
268140000
100
AcDbLine
 62
7
  6
CONTINUOUS
 10
3.4194025185
 20
17.789983458
 11
3.9476696902
 21
18.053422278
  0
LINE
  5
283
100
AcDbEntity
  8
268140000
100
AcDbLine
 62
250
  6
CONTINUOUS
 10
3.3298803085
 20
18.4242943398
 11
8.1017192867
 21
20.7183698261
  0
LINE
  5
284
100
AcDbEntity
  8
268140000
100
AcDbLine
 62
250
  6
CONTINUOUS
 10
3.5574958084
 20
18.3104865898
 11
8.5435601546
 21
20.7075515458
  0
LINE
  5
285
100
AcDbEntity
  8
RACCORDO
100
AcDbLine
 62
250
  6
CONTINUOUS
 10
1.9316655938
 20
14.6876239983
 11
-2.0812135489
 21
13.2029065355
  0
LINE
  5
286
100
AcDbEntity
  8
268140000
100
AcDbLine
 62
7
  6
CONTINUOUS
 10
2.0405442952
 20
14.6331846476
 11
2.8537170935
 21
14.9174863155
  0
LINE
  5
287
100
AcDbEntity
  8
268140000
100
AcDbLine
 62
7
  6
CONTINUOUS
 10
-12.9147641269
 20
22.1108388586
 11
-12.9147641269
 21
22.0198996706
  0
LINE
  5
288
100
AcDbEntity
  8
268140000
100
AcDbLine
 62
7
  6
CONTINUOUS
 10
-12.6257506741
 20
23.0085125411
 11
-12.6257506741
 21
23.4608435168
  0
LINE
  5
289
100
AcDbEntity
  8
268140000
100
AcDbLine
 62
7
  6
CONTINUOUS
 10
-11.7229671662
 20
23.3655549585
 11
-11.7229671662
 21
23.1121835647
  0
LINE
  5
28A
100
AcDbEntity
  8
268140000
100
AcDbLine
 62
7
  6
CONTINUOUS
 10
-11.0117465581
 20
22.2015104831
 11
-11.0117465581
 21
22.8386800418
  0
LWPOLYLINE
  5
28B
100
AcDbEntity
  8
268140000
100
AcDbPolyline
 62
7
  6
CONTINUOUS
 90
5
 70
0
 10
9.2900631949
 20
19.6150816613
 10
9.2903112071
 20
19.6152217591
 10
9.291238443
 20
19.6160494306
 10
9.2917448605
 20
19.6171005019
 10
9.291856624
 20
19.6180324259
  0
LINE
  5
28C
100
AcDbEntity
  8
268140000
100
AcDbLine
 62
250
  6
CONTINUOUS
 10
3.5608238747
 20
15.9872219723
 11
1.7930569218
 21
15.0844442728
  0
LINE
  5
28D
100
AcDbEntity
  8
268140000
100
AcDbLine
 62
250
  6
CONTINUOUS
 10
3.8083112481
 20
15.5603578524
 11
2.0405442952
 21
14.6575801529
  0
LINE
  5
28E
100
AcDbEntity
  8
268140000
100
AcDbLine
 62
7
  6
CONTINUOUS
 10
3.4194025185
 20
16.0579326504
 11
2.3525716063
 21
15.5193514009
  0
LINE
  5
28F
100
AcDbEntity
  8
715140000
100
AcDbLine
 62
7
  6
CONTINUOUS
 10
13.1071406669
 20
20.822261324
 11
11.7956763559
 21
20.1665291685
  0
LINE
  5
290
100
AcDbEntity
  8
715140000
100
AcDbLine
 62
7
  6
CONTINUOUS
 10
13.9556713746
 20
20.3979985404
 11
13.1338875489
 21
19.9871066275
  0
LINE
  5
291
100
AcDbEntity
  8
268140000
100
AcDbLine
 62
250
  6
CONTINUOUS
 10
4.2679306559
 20
16.3332176737
 11
3.5608238747
 21
15.9872219723
  0
LINE
  5
292
100
AcDbEntity
  8
268140000
100
AcDbLine
 62
250
  6
CONTINUOUS
 10
4.5154180293
 20
15.9063535538
 11
3.8083112481
 21
15.5603578524
  0
LINE
  5
293
100
AcDbEntity
  8
218140040
100
AcDbLine
 62
7
  6
CONTINUOUS
 10
4.207795635
 20
16.3632851841
 11
9.8736602039
 21
19.1154737284
  0
LINE
  5
294
100
AcDbEntity
  8
218140040
100
AcDbLine
 62
7
  6
CONTINUOUS
 10
18.3605431993
 20
21.5741436736
 11
10.6263542878
 21
17.8172684673
  0
LINE
  5
295
100
AcDbEntity
  8
218140040
100
AcDbLine
 62
7
  6
CONTINUOUS
 10
17.5352967316
 20
21.9867669075
 11
13.971865895
 21
20.2765121597
  0
LWPOLYLINE
  5
296
100
AcDbEntity
  8
218140040
100
AcDbPolyline
 62
7
  6
CONTINUOUS
 90
33
 70
0
 10
18.3605431993
 20
21.5741436736
 10
18.3758511723
 20
21.5814423581
 10
18.3909813133
 20
21.5883764782
 10
18.4059263119
 20
21.5949449573
 10
18.4206776391
 20
21.6011473667
 10
18.4352294633
 20
21.6069826874
 10
18.4495786469
 20
21.6124492325
 10
18.4637181354
 20
21.6175468616
 10
18.4776411584
 20
21.6222754634
 10
18.4913451312
 20
21.6266336048
 10
18.5048232728
 20
21.6306217383
 10
18.5180691097
 20
21.6342403579
 10
18.5310806547
 20
21.6374883185
 10
18.5438514201
 20
21.6403666541
 10
18.5563752438
 20
21.6428764507
 10
18.5686507707
 20
21.6450168745
 10
18.5806718266
 20
21.6467895263
 10
18.5924325734
 20
21.6481960662
 10
18.6039323125
 20
21.649235985
 10
18.6151652018
 20
21.6499114309
 10
18.6261257388
 20
21.6502246168
 10
18.6368138932
 20
21.6501753609
 10
18.6472241711
 20
21.6497663363
 10
18.6573514159
 20
21.649000283
 10
18.6671962683
 20
21.6478773418
 10
18.6767535992
 20
21.6464006831
 10
18.6860186027
 20
21.6445735458
 10
18.6949925724
 20
21.6423963823
 10
18.7036707511
 20
21.6398728324
 10
18.7120486939
 20
21.6370066032
 10
18.7201283328
 20
21.6337984418
 10
18.7279052917
 20
21.6302524254
 10
18.7294420502
 20
21.629494018
  0
LWPOLYLINE
  5
297
100
AcDbEntity
  8
715140000
100
AcDbPolyline
 62
7
  6
CONTINUOUS
 90
10
 70
0
 10
13.9556424788
 20
20.3979840925
 10
13.967038943
 20
20.4031527477
 10
13.9782593455
 20
20.4072046441
 10
13.9893036862
 20
20.4101397816
 10
14.0002669451
 20
20.4119583129
 10
14.0110541423
 20
20.4126600854
 10
14.0213803377
 20
20.4122446411
 10
14.0311505515
 20
20.4107118272
 10
14.0404597635
 20
20.4080617964
 10
14.0493079738
 20
20.4042945489
  0
LWPOLYLINE
  5
298
100
AcDbEntity
  8
RACCORDO
100
AcDbPolyline
 62
250
  6
CONTINUOUS
 90
22
 70
0
 10
-2.0812135489
 20
13.2029065355
 10
-2.1566228279
 20
13.1708761671
 10
-2.2321013518
 20
13.1323723388
 10
-2.3072803312
 20
13.0875888344
 10
-2.3817934776
 20
13.0367547836
 10
-2.455275967
 20
12.9801208484
 10
-2.5273657254
 20
12.9179555223
 10
-2.5977185372
 20
12.8505582109
 10
-2.6659812312
 20
12.7782707701
 10
-2.7317920122
 20
12.7014653287
 10
-2.7948174614
 20
12.6205420466
 10
-2.8547652591
 20
12.535889964
 10
-2.9113541355
 20
12.4478941396
 10
-2.96431576
 20
12.3569695423
 10
-3.0133774291
 20
12.2635842301
 10
-3.0582773947
 20
12.168222869
 10
-3.0987904889
 20
12.0713726876
 10
-3.1347275948
 20
11.9735002428
 10
-3.1659140972
 20
11.8750711674
 10
-3.1921959167
 20
11.7765662537
 10
-3.2134428824
 20
11.678479476
 10
-3.2295496267
 20
11.5812963989
  0
LWPOLYLINE
  5
299
100
AcDbEntity
  8
RACCORDO
100
AcDbPolyline
 62
250
  6
CONTINUOUS
 90
22
 70
0
 10
-1.5797374343
 20
12.2000221262
 10
-1.6155292984
 20
12.1852459504
 10
-1.6510555738
 20
12.1676237268
 10
-1.6863162604
 20
12.1471554554
 10
-1.7214976873
 20
12.1237074315
 10
-1.7564135254
 20
12.0974133599
 10
-1.7905047874
 20
12.0686743544
 10
-1.8237470316
 20
12.037456599
 10
-1.8561646998
 20
12.0037939098
 10
-1.887272129
 20
11.9681888487
 10
-1.9170450072
 20
11.9306185271
 10
-1.9455076466
 20
11.8911058337
 10
-1.972247321
 20
11.8502219972
 10
-1.9972437474
 20
11.8079372784
 10
-2.0205172088
 20
11.7642814166
 10
-2.0417158282
 20
11.7199148577
 10
-2.060807075
 20
11.6748163826
 10
-2.0778234798
 20
11.6290072105
 10
-2.0925107567
 20
11.5832114453
 10
-2.1047841437
 20
11.5376704548
 10
-2.1147284029
 20
11.4921428711
 10
-2.1223435342
 20
11.4466286943
  0
LINE
  5
29A
100
AcDbEntity
  8
RACCORDO
100
AcDbLine
 62
250
  6
CONTINUOUS
 10
2.5821344208
 20
13.7398651171
 11
-1.5797374343
 21
12.2000221262
  0
LINE
  5
29B
100
AcDbEntity
  8
268140000
100
AcDbLine
 62
7
  6
CONTINUOUS
 10
-9.9449156459
 20
22.7400917326
 11
-9.9449156459
 21
24.4721425402
  0
LINE
  5
29C
100
AcDbEntity
  8
268140000
100
AcDbLine
 62
7
  6
CONTINUOUS
 10
-9.2419226917
 20
24.607464038
 11
-9.2419226917
 21
24.3465350616
  0
LINE
  5
29D
100
AcDbEntity
  8
218140040
100
AcDbLine
 62
250
  6
CONTINUOUS
 10
18.7034407752
 20
20.982732838
 11
4.5154180293
 21
13.7645367191
  0
LINE
  5
29E
100
AcDbEntity
  8
218140040
100
AcDbLine
 62
250
  6
CONTINUOUS
 10
19.1175912509
 20
19.5510992634
 11
4.5154180293
 21
12.1222029356
  0
LWPOLYLINE
  5
29F
100
AcDbEntity
  8
218140040
100
AcDbPolyline
 62
250
  6
CONTINUOUS
 90
34
 70
0
 10
18.7034407752
 20
20.982732838
 10
18.7222772905
 20
20.9920559394
 10
18.7407194072
 20
21.0010984764
 10
18.7587534301
 20
21.0098537341
 10
18.776365967
 20
21.0183152108
 10
18.7935439388
 20
21.0264766228
 10
18.810274589
 20
21.0343319096
 10
18.8265454934
 20
21.0418752377
 10
18.842344569
 20
21.0491010054
 10
18.8576600835
 20
21.0560038468
 10
18.8724806633
 20
21.0625786359
 10
18.8867953027
 20
21.0688204901
 10
18.9005933716
 20
21.0747247742
 10
18.9138646234
 20
21.0802871037
 10
18.9265992028
 20
21.0855033479
 10
18.938787653
 20
21.0903696333
 10
18.9504209229
 20
21.094882346
 10
18.9614903735
 20
21.0990381351
 10
18.9719877845
 20
21.1028339142
 10
18.9819053606
 20
21.1062668647
 10
18.9912357369
 20
21.1093344372
 10
18.9999719845
 20
21.1120343538
 10
19.008107616
 20
21.1143646094
 10
19.0156365898
 20
21.1163234737
 10
19.0225533147
 20
21.1179094919
 10
19.0288526544
 20
21.1191214862
 10
19.034529931
 20
21.1199585567
 10
19.0395809285
 20
21.1204200816
 10
19.044001896
 20
21.1205057184
 10
19.0477895504
 20
21.1202154033
 10
19.0509410791
 20
21.119549352
 10
19.0534541416
 20
21.1185080591
 10
19.0553268718
 20
21.1170922979
 10
19.0562840071
 20
21.1158312247
  0
LINE
  5
2A0
100
AcDbEntity
  8
268140000
100
AcDbLine
 62
7
  6
CONTINUOUS
 10
-7.7671586429
 20
22.2140783741
 11
-7.7671586429
 21
20.9993448739
  0
LINE
  5
2A1
100
AcDbEntity
  8
268140000
100
AcDbLine
 62
250
  6
CONTINUOUS
 10
-7.6792906773
 20
22.107569644
 11
-7.6792906773
 21
20.8926147779
  0
LINE
  5
2A2
100
AcDbEntity
  8
268140000
100
AcDbLine
 62
7
  6
CONTINUOUS
 10
4.0345213535
 20
17.4324246914
 11
3.5072766378
 21
16.7907169633
  0
LWPOLYLINE
  5
2A3
100
AcDbEntity
  8
218140040
100
AcDbPolyline
 62
250
  6
CONTINUOUS
 90
30
 70
0
 10
19.1175912509
 20
19.5510992634
 10
19.1362523895
 20
19.5610286064
 10
19.1543654846
 20
19.5712085044
 10
19.1719170852
 20
19.5816313977
 10
19.1888941574
 20
19.5922895463
 10
19.205284094
 20
19.6031750353
 10
19.2210747238
 20
19.6142797811
 10
19.2362543204
 20
19.6255955373
 10
19.2508116115
 20
19.6371139007
 10
19.2647357867
 20
19.6488263177
 10
19.2780165059
 20
19.6607240906
 10
19.2906439067
 20
19.6727983841
 10
19.302608612
 20
19.6850402317
 10
19.3139017366
 20
19.6974405426
 10
19.3245148943
 20
19.7099901081
 10
19.3344402037
 20
19.7226796091
 10
19.3436702942
 20
19.7354996221
 10
19.3521983114
 20
19.7484406269
 10
19.3600179224
 20
19.7614930135
 10
19.3671233204
 20
19.7746470892
 10
19.3735092287
 20
19.7878930855
 10
19.3791709053
 20
19.801221166
 10
19.3841041457
 20
19.8146214331
 10
19.3883052865
 20
19.8280839359
 10
19.3917712078
 20
19.8415986768
 10
19.3944993359
 20
19.8551556198
 10
19.3964876449
 20
19.8687446975
 10
19.3977346581
 20
19.8823558184
 10
19.3982394497
 20
19.895978875
 10
19.3982514505
 20
19.8984267541
  0
LWPOLYLINE
  5
2A4
100
AcDbEntity
  8
218140040
100
AcDbPolyline
 62
250
  6
CONTINUOUS
 90
56
 70
0
 10
19.2351455563
 20
14.1085994765
 10
19.2422429736
 20
14.1111471966
 10
19.2494168817
 20
14.1134648675
 10
19.2566662809
 20
14.11555389
 10
19.2639886521
 20
14.1174319999
 10
19.2713841566
 20
14.1190846285
 10
19.278855348
 20
14.12046527
 10
19.286411617
 20
14.1215781378
 10
19.2940396447
 20
14.1224239921
 10
19.301707125
 20
14.1229520593
 10
19.3094140938
 20
14.1231618359
 10
19.3171548054
 20
14.1230607422
 10
19.3248875148
 20
14.122610703
 10
19.3326002242
 20
14.1218134295
 10
19.3402974748
 20
14.1206759999
 10
19.3479614885
 20
14.1191692944
 10
19.3555793812
 20
14.1173024451
 10
19.3631544584
 20
14.1150775332
 10
19.3706918047
 20
14.1124565068
 10
19.3781862531
 20
14.1094520033
 10
19.3856300694
 20
14.1060666108
 10
19.3930221928
 20
14.1022499227
 10
19.4003598095
 20
14.0980146975
 10
19.407628254
 20
14.0933690933
 10
19.4148057536
 20
14.0882593054
 10
19.4218858245
 20
14.0827001422
 10
19.4288520779
 20
14.0767046817
 10
19.4356645876
 20
14.0702205196
 10
19.4423119345
 20
14.063268531
 10
19.4487766437
 20
14.055863967
 10
19.4550058641
 20
14.0479507735
 10
19.4609821373
 20
14.039566268
 10
19.466687095
 20
14.0307193974
 10
19.4720604516
 20
14.0213193385
 10
19.4770862854
 20
14.011420443
 10
19.48173331
 20
14.0010316182
 10
19.4859071612
 20
13.9900083672
 10
19.4895984237
 20
13.9783636942
 10
19.4927479725
 20
13.9661800606
 10
19.4951790203
 20
13.9534279821
 10
19.4968507412
 20
13.9400836096
 10
19.4977273598
 20
13.9262839331
 10
19.4976539249
 20
13.9122217474
 10
19.4965806166
 20
13.8979247171
 10
19.4945117608
 20
13.8834420804
 10
19.4914034428
 20
13.8689572068
 10
19.4872133615
 20
13.854454722
 10
19.4819664936
 20
13.8399906056
 10
19.4757532105
 20
13.8258058241
 10
19.4685991362
 20
13.8119426963
 10
19.4605027749
 20
13.7983366524
 10
19.4515348345
 20
13.7850356974
 10
19.4417074759
 20
13.7720276993
 10
19.4310332061
 20
13.7592991188
 10
19.4195877141
 20
13.7468882707
 10
19.4073921582
 20
13.7347861955
  0
LWPOLYLINE
  5
2A5
100
AcDbEntity
  8
RACCORDO
100
AcDbPolyline
 62
250
  6
CONTINUOUS
 90
22
 70
0
 10
-5.3637864196
 20
-25.0178137682
 10
-5.3640440802
 20
-25.0608058638
 10
-5.3618319678
 20
-25.102193753
 10
-5.3571500825
 20
-25.1419774357
 10
-5.3499524358
 20
-25.1803560253
 10
-5.3402850162
 20
-25.2171304084
 10
-5.3282857892
 20
-25.2517032456
 10
-5.3139178987
 20
-25.2840261741
 10
-5.2972182008
 20
-25.3141475567
 10
-5.2784352299
 20
-25.3416151424
 10
-5.2575413061
 20
-25.3663854084
 10
-5.2345641092
 20
-25.3885018775
 10
-5.2098352128
 20
-25.4076428663
 10
-5.1833226365
 20
-25.4237674473
 10
-5.1550583606
 20
-25.4369165481
 10
-5.1254698997
 20
-25.446891267
 10
-5.0945279987
 20
-25.453637453
 10
-5.0622619127
 20
-25.4572092572
 10
-5.0291869211
 20
-25.4575702313
 10
-4.9954747838
 20
-25.4547082261
 10
-4.9609537408
 20
-25.4486353908
 10
-4.9256237922
 20
-25.4393517256
  0
LWPOLYLINE
  5
2A6
100
AcDbEntity
  8
RACCORDO
100
AcDbPolyline
 62
250
  6
CONTINUOUS
 90
15
 70
0
 10
-6.4796594717
 20
-24.9806445728
 10
-6.4803513655
 20
-25.072430611
 10
-6.4757388187
 20
-25.1614629489
 10
-6.4658446856
 20
-25.2473022221
 10
-6.4507167417
 20
-25.3295224103
 10
-6.4304305182
 20
-25.4077214226
 10
-6.405086698
 20
-25.4815212225
 10
-6.3748024001
 20
-25.5505657349
 10
-6.3397277623
 20
-25.6145033752
 10
-6.300050593
 20
-25.6730003165
 10
-6.2559751647
 20
-25.7257618483
 10
-6.2077115045
 20
-25.7725437262
 10
-6.1554871562
 20
-25.8131280707
 10
-6.0995417956
 20
-25.8473193604
 10
-6.0857496361
 20
-25.8544741461
  0
LWPOLYLINE
  5
2A7
100
AcDbEntity
  8
RACCORDO
100
AcDbPolyline
 62
250
  6
CONTINUOUS
 90
13
 70
0
 10
-3.2295496267
 20
11.5812963989
 10
-3.6515448373
 20
8.486767475
 10
-4.0461985154
 20
5.3996081735
 10
-4.4134607901
 20
2.3202119941
 10
-4.7532853212
 20
-0.7510284924
 10
-5.0656289133
 20
-3.8137220097
 10
-5.3504515179
 20
-6.8674786243
 10
-5.6077166246
 20
-9.9119094058
 10
-5.8373916828
 20
-12.9466263871
 10
-6.0394477088
 20
-15.9712429277
 10
-6.2138588699
 20
-18.9853737778
 10
-6.3606024917
 20
-21.9886351292
 10
-6.4796594717
 20
-24.9806445728
  0
LWPOLYLINE
  5
2A8
100
AcDbEntity
  8
715140000
100
AcDbPolyline
 62
250
  6
CONTINUOUS
 90
47
 70
0
 10
9.5910853221
 20
20.194696364
 10
9.6198521017
 20
20.2331493288
 10
9.6691353201
 20
20.2899300062
 10
9.7242689947
 20
20.3455206206
 10
9.784772473
 20
20.3994631429
 10
9.8506448246
 20
20.4517160424
 10
9.92188698
 20
20.5023208498
 10
9.9980210776
 20
20.5509441283
 10
10.0790377066
 20
20.5975718709
 10
10.164946278
 20
20.6422180845
 10
10.2552971637
 20
20.6845913536
 10
10.3503474439
 20
20.7247505516
 10
10.4498400384
 20
20.762636805
 10
10.5525540788
 20
20.7977820782
 10
10.6588949475
 20
20.8301597981
 10
10.7684572621
 20
20.8597965377
 10
10.8788040065
 20
20.8863039799
 10
10.9899085235
 20
20.9095033733
 10
11.1017974702
 20
20.9295734693
 10
11.2121138023
 20
20.9466622051
 10
11.3205042922
 20
20.960636101
 10
11.4273221675
 20
20.9716286366
 10
11.5312700666
 20
20.9801881878
 10
11.632105901
 20
20.9862907573
 10
11.7300717593
 20
20.9899603425
 10
11.8245965456
 20
20.9918173113
 10
11.9155182857
 20
20.9918831802
 10
12.0029989539
 20
20.9901364327
 10
12.0869533773
 20
20.9871328873
 10
12.1672574507
 20
20.9829140867
 10
12.2440352792
 20
20.9774384882
 10
12.3175740057
 20
20.9711372826
 10
12.3878405394
 20
20.9640512488
 10
12.4548679709
 20
20.9561396079
 10
12.5190427151
 20
20.9477112137
 10
12.5803504619
 20
20.9388005732
 10
12.6388055213
 20
20.9293731794
 10
12.6948372378
 20
20.9196343656
 10
12.7484418214
 20
20.9096128438
 10
12.799623062
 20
20.8992799021
 10
12.8488216743
 20
20.8887547374
 10
12.8960408193
 20
20.8780601982
 10
12.9412773358
 20
20.8671734361
 10
12.9849624557
 20
20.8561451024
 10
13.0272399228
 20
20.8449920811
 10
13.0679659932
 20
20.8336974883
 10
13.1071406669
 20
20.822261324
  0
LWPOLYLINE
  5
2A9
100
AcDbEntity
  8
715140000
100
AcDbPolyline
 62
250
  6
CONTINUOUS
 90
9
 70
0
 10
9.5101943052
 20
20.227742028
 10
9.5544227971
 20
20.2785420848
 10
9.6135016676
 20
20.337801302
 10
9.678594447
 20
20.3954092352
 10
9.7494702789
 20
20.4511827028
 10
9.8259634166
 20
20.5050106384
 10
9.9079548204
 20
20.5568118221
 10
9.9952034174
 20
20.6064294614
 10
10.0157005788
 20
20.6173658296
  0
LWPOLYLINE
  5
2AA
100
AcDbEntity
  8
RACCORDO
100
AcDbPolyline
 62
250
  6
CONTINUOUS
 90
7
 70
0
 10
-4.2376242866
 20
-6.952940921
 10
-4.4941875833
 20
-9.9891329689
 10
-4.7232673865
 20
-13.0160256157
 10
-4.9247759467
 20
-16.0324562774
 10
-5.098684014
 20
-19.0380374261
 10
-5.2450208383
 20
-22.0331565897
 10
-5.3637864196
 20
-25.0178137682
  0
LWPOLYLINE
  5
2AB
100
AcDbEntity
  8
RACCORDO
100
AcDbPolyline
 62
250
  6
CONTINUOUS
 90
7
 70
0
 10
-2.1223435342
 20
11.4466286943
 10
-2.543299923
 20
8.3597144017
 10
-2.9368924731
 20
5.2809278517
 10
-3.3031211846
 20
2.2102690445
 10
-3.6420259422
 20
-0.8526525728
 10
-3.9535668612
 20
-3.9074464474
 10
-4.2376242866
 20
-6.952940921
  0
LINE
  5
2AC
100
AcDbEntity
  8
268140000
100
AcDbLine
 62
7
  6
CONTINUOUS
 10
0.9353103659
 20
-4.7859960866
 11
1.1213054796
 21
-4.8789936434
  0
LWPOLYLINE
  5
2AD
100
AcDbEntity
  8
268140000
100
AcDbPolyline
 62
7
  6
CONTINUOUS
 90
13
 70
0
 10
9.2884369891
 20
-17.3087305257
 10
9.2855458241
 20
-17.3048373348
 10
9.2818570599
 20
-17.3004549946
 10
9.277397096
 20
-17.2956977017
 10
9.2722042377
 20
-17.2905578471
 10
9.2663215805
 20
-17.2850104884
 10
9.2597610463
 20
-17.2791428898
 10
9.2525541432
 20
-17.2729455818
 10
9.2447369975
 20
-17.2664004572
 10
9.2363130581
 20
-17.2595795811
 10
9.2273001667
 20
-17.2524975563
 10
9.2177383213
 20
-17.245113913
 10
9.2076585641
 20
-17.2374173583
  0
LINE
  5
2AE
100
AcDbEntity
  8
268140000
100
AcDbLine
 62
7
  6
CONTINUOUS
 10
0.2395603629
 20
-12.6127994108
 11
0.8480920772
 21
-18.2847891823
  0
LINE
  5
2AF
100
AcDbEntity
  8
268140000
100
AcDbLine
 62
250
  6
CONTINUOUS
 10
-1.8867816093
 20
17.9963602439
 11
-1.8867816093
 21
19.21131511
  0
LINE
  5
2B0
100
AcDbEntity
  8
268140000
100
AcDbLine
 62
7
  6
CONTINUOUS
 10
-1.5303449498
 20
22.2503101045
 11
-1.5303449498
 21
23.4996049377
  0
LINE
  5
2B1
100
AcDbEntity
  8
268140000
100
AcDbLine
 62
250
  6
CONTINUOUS
 10
-1.4637552577
 20
17.9979990915
 11
-1.4637552577
 21
19.2122025643
  0
LINE
  5
2B2
100
AcDbEntity
  8
268140000
100
AcDbLine
 62
7
  6
CONTINUOUS
 10
-1.1767915592
 20
22.7702700531
 11
-1.1767915592
 21
23.3228282424
  0
LINE
  5
2B3
100
AcDbEntity
  8
268140000
100
AcDbLine
 62
250
  6
CONTINUOUS
 10
-1.1060808811
 20
24.9390365399
 11
-1.1060808811
 21
23.7072023585
  0
LINE
  5
2B4
100
AcDbEntity
  8
268140000
100
AcDbLine
 62
7
  6
CONTINUOUS
 10
-1.0182129155
 20
25.0440337535
 11
-1.0182129155
 21
23.8116651477
  0
LINE
  5
2B5
100
AcDbEntity
  8
268140000
100
AcDbLine
 62
7
  6
CONTINUOUS
 10
-0.9646595249
 20
19.4623992374
 11
-0.9646595249
 21
18.2499636721
  0
LINE
  5
2B6
100
AcDbEntity
  8
268140000
100
AcDbLine
 62
7
  6
CONTINUOUS
 10
0.0355745361
 20
-24.3200628195
 11
0.0355745361
 21
-24.0666914258
  0
LINE
  5
2B7
100
AcDbEntity
  8
268140000
100
AcDbLine
 62
7
  6
CONTINUOUS
 10
0.0355745361
 20
17.2329127136
 11
0.0355745361
 21
17.4862841073
  0
LWPOLYLINE
  5
2B8
100
AcDbEntity
  8
RACCORDO
100
AcDbPolyline
 62
250
  6
CONTINUOUS
 90
16
 70
0
 10
-1.5797374343
 20
12.2000221262
 10
-1.5776401539
 20
12.2763066826
 10
-1.5815949032
 20
12.3549094379
 10
-1.591558422
 20
12.4349699793
 10
-1.6074216753
 20
12.515611932
 10
-1.6290110442
 20
12.5959525436
 10
-1.6560902245
 20
12.6751123482
 10
-1.6883628179
 20
12.7522248103
 10
-1.7254755702
 20
12.8264457916
 10
-1.7670222308
 20
12.8969627855
 10
-1.8125480191
 20
12.9630038498
 10
-1.8615545894
 20
13.0238460278
 10
-1.9135054705
 20
13.0788232525
 10
-1.9678319675
 20
13.1273336768
 10
-2.023939391
 20
13.1688462551
 10
-2.0812135471
 20
13.2029065361
  0
LWPOLYLINE
  5
2B9
100
AcDbEntity
  8
RACCORDO
100
AcDbPolyline
 62
250
  6
CONTINUOUS
 90
11
 70
0
 10
-4.9256237922
 20
-25.4393517256
 10
-4.9369035824
 20
-25.5135509054
 10
-4.954089086
 20
-25.5837846759
 10
-4.976992179
 20
-25.6492842118
 10
-5.0053621491
 20
-25.7093325119
 10
-5.0388884399
 20
-25.7632722479
 10
-5.0772040504
 20
-25.8105129596
 10
-5.1198895525
 20
-25.850537519
 10
-5.1664776826
 20
-25.8829077909
 10
-5.2164584563
 20
-25.9072694288
 10
-5.2419303143
 20
-25.9161704004
  0
LINE
  5
2BA
100
AcDbEntity
  8
218140040
100
AcDbLine
 62
7
  6
CONTINUOUS
 10
19.3982514506
 20
13.718727441
 11
20.3134282372
 21
14.3106560599
  0
LINE
  5
2BB
100
AcDbEntity
  8
268140000
100
AcDbLine
 62
7
  6
CONTINUOUS
 10
1.1213054796
 20
-4.8789936434
 11
2.8537170935
 21
-21.2931545509
  0
LWPOLYLINE
  5
2BC
100
AcDbEntity
  8
268140000
100
AcDbPolyline
 62
7
  6
CONTINUOUS
 90
24
 70
0
 10
1.5809248874
 20
23.8137107864
 10
1.580351703
 20
23.8481831925
 10
1.57865259
 20
23.8819331135
 10
1.5758275484
 20
23.9149605493
 10
1.5718671139
 20
23.9473221067
 10
1.5667807508
 20
23.9789611789
 10
1.5605968524
 20
24.0097079454
 10
1.553314237
 20
24.0395434728
 10
1.5449340863
 20
24.0684866946
 10
1.535488339
 20
24.0964245905
 10
1.5249644805
 20
24.1233707533
 10
1.5133750255
 20
24.1493115903
 10
1.5007894567
 20
24.1740933032
 10
1.4872142709
 20
24.1976906046
 10
1.4726429713
 20
24.2201287819
 10
1.4571255513
 20
24.2413298991
 10
1.4406422639
 20
24.261306989
 10
1.4232128561
 20
24.2800470189
 10
1.4049465614
 20
24.2974329545
 10
1.3858579055
 20
24.3134418808
 10
1.3659323628
 20
24.3280967129
 10
1.3452355903
 20
24.3413491612
 10
1.3237430758
 20
24.3532050225
 10
-1.9052915414
 20
25.9677462083
  0
LINE
  5
2BD
100
AcDbEntity
  8
268140000
100
AcDbLine
 62
7
  6
CONTINUOUS
 10
0.7385674903
 20
16.3263534589
 11
0.7385674903
 21
16.7786844346
  0
LINE
  5
2BE
100
AcDbEntity
  8
268140000
100
AcDbLine
 62
7
  6
CONTINUOUS
 10
1.5809248874
 20
23.8137107864
 11
1.5809248874
 21
23.5429104937
  0
LINE
  5
2BF
100
AcDbEntity
  8
268140000
100
AcDbLine
 62
7
  6
CONTINUOUS
 10
1.6413509982
 20
16.6833958762
 11
1.6413509982
 21
16.4300244825
  0
LINE
  5
2C0
100
AcDbEntity
  8
268140000
100
AcDbLine
 62
7
  6
CONTINUOUS
 10
1.6413509982
 20
-24.8695796569
 11
1.6413509982
 21
-25.1229510506
  0
LINE
  5
2C1
100
AcDbEntity
  8
268140000
100
AcDbLine
 62
7
  6
CONTINUOUS
 10
2.0405442952
 20
14.6575801529
 11
2.0405442952
 21
14.6331846476
  0
LINE
  5
2C2
100
AcDbEntity
  8
268140000
100
AcDbLine
 62
7
  6
CONTINUOUS
 10
2.0405442952
 20
-23.4719331189
 11
2.0405442952
 21
-23.4963286242
  0
LINE
  5
2C3
100
AcDbEntity
  8
268140000
100
AcDbLine
 62
7
  6
CONTINUOUS
 10
2.3525716063
 20
-23.8930831797
 11
2.3525716063
 21
-23.4884610887
  0
LINE
  5
2C4
100
AcDbEntity
  8
268140000
100
AcDbLine
 62
7
  6
CONTINUOUS
 10
2.3525716063
 20
15.5193514009
 11
2.3525716063
 21
16.1565209596
  0
LINE
  5
2C5
100
AcDbEntity
  8
RACCORDO
100
AcDbLine
 62
7
  6
CONTINUOUS
 10
-0.7878780678
 20
-24.1709143812
 11
2.5821344208
 21
13.7398651171
  0
LINE
  5
2C6
100
AcDbEntity
  8
268140000
100
AcDbLine
 62
7
  6
CONTINUOUS
 10
2.8537170935
 20
13.2675788779
 11
1.1213054796
 21
-4.8789936434
  0
LWPOLYLINE
  5
2C7
100
AcDbEntity
  8
218140040
100
AcDbPolyline
 62
250
  6
CONTINUOUS
 90
57
 70
0
 10
19.1175912509
 20
13.9712398447
 10
19.1234536444
 20
13.9764777767
 10
19.1292879977
 20
13.9814912361
 10
19.1350932323
 20
13.9862803071
 10
19.1408624389
 20
13.9908465878
 10
19.1466004534
 20
13.9951885799
 10
19.1523232994
 20
13.9993019376
 10
19.1580314618
 20
14.0031901352
 10
19.1637211317
 20
14.0068502718
 10
19.1694010267
 20
14.0102687905
 10
19.1750709252
 20
14.0134478133
 10
19.1807269037
 20
14.0163860105
 10
19.186371588
 20
14.0190648357
 10
19.1920009891
 20
14.0214843842
 10
19.1976144937
 20
14.0236453829
 10
19.2032192166
 20
14.0255304144
 10
19.2088004582
 20
14.0271410991
 10
19.214367618
 20
14.0284767286
 10
19.2199617267
 20
14.0295171492
 10
19.2255736213
 20
14.0302732037
 10
19.2312028581
 20
14.0307362223
 10
19.2368990241
 20
14.0308582473
 10
19.2426717614
 20
14.0306459531
 10
19.2484948072
 20
14.030096666
 10
19.2543608715
 20
14.0291492476
 10
19.2602652701
 20
14.0277999735
 10
19.266194557
 20
14.0260563098
 10
19.2721284668
 20
14.0238736712
 10
19.278056667
 20
14.0212473834
 10
19.2839712258
 20
14.018185118
 10
19.2898562269
 20
14.0146603993
 10
19.2956936532
 20
14.010677325
 10
19.3014830612
 20
14.006234048
 10
19.307233377
 20
14.0012953285
 10
19.3129281678
 20
13.9958689457
 10
19.318560299
 20
13.9899496704
 10
19.3241474213
 20
13.983483657
 10
19.329674739
 20
13.9764726392
 10
19.3351243542
 20
13.968918102
 10
19.3405024137
 20
13.9607668357
 10
19.3457895885
 20
13.9520163315
 10
19.3509628564
 20
13.9426723196
 10
19.3560161472
 20
13.9326946048
 10
19.3609233819
 20
13.9220809283
 10
19.3656584264
 20
13.9108359323
 10
19.370208018
 20
13.8989301306
 10
19.3745373595
 20
13.8863683671
 10
19.378617461
 20
13.8731465465
 10
19.3824330233
 20
13.8592221076
 10
19.385937447
 20
13.8446131823
 10
19.389095125
 20
13.8292999989
 10
19.3918857168
 20
13.8131836554
 10
19.3942521453
 20
13.7962302112
 10
19.3961287185
 20
13.7784682856
 10
19.3974563053
 20
13.7598922605
 10
19.3981614769
 20
13.7403395972
 10
19.3982514502
 20
13.7304059426
  0
LWPOLYLINE
  5
2C8
100
AcDbEntity
  8
218140040
100
AcDbPolyline
 62
7
  6
CONTINUOUS
 90
136
 70
0
 10
19.2351354501
 20
14.1085911385
 10
19.2945014462
 20
14.1572938164
 10
19.3519907026
 20
14.2047814941
 10
19.4076032192
 20
14.2510541715
 10
19.4612839475
 20
14.2960772803
 10
19.5130879361
 20
14.3398853889
 10
19.5631803305
 20
14.3825822026
 10
19.6115685289
 20
14.4241727806
 10
19.6582451331
 20
14.4646520636
 10
19.7033530948
 20
14.504108579
 10
19.7468966423
 20
14.5425448804
 10
19.7888715473
 20
14.5799584142
 10
19.8294080768
 20
14.6164300473
 10
19.8685101244
 20
14.6519621447
 10
19.9061737965
 20
14.6865523415
 10
19.9425176798
 20
14.7202744093
 10
19.97754537
 20
14.7531305583
 10
20.0112532713
 20
14.7851185782
 10
20.0437491828
 20
14.8163056104
 10
20.0750364249
 20
14.8466937351
 10
20.1051116773
 20
14.876280872
 10
20.1340727777
 20
14.9051279213
 10
20.1619227938
 20
14.9332368658
 10
20.1886586581
 20
14.9606057227
 10
20.2143690049
 20
14.987289443
 10
20.2390566635
 20
15.0132899469
 10
20.2627188048
 20
15.0386053141
 10
20.2854355758
 20
15.0632847356
 10
20.3072095709
 20
15.0873301075
 10
20.3280381959
 20
15.1107395337
 10
20.3479938148
 20
15.1335565171
 10
20.3670787743
 20
15.1557829718
 10
20.3852907279
 20
15.1774169836
 10
20.402695
 20
15.1984963132
 10
20.4192936481
 20
15.2190229305
 10
20.4350846148
 20
15.2389948655
 10
20.4501270517
 20
15.2584439687
 10
20.4644226463
 20
15.2773722863
 10
20.4779697111
 20
15.2957777721
 10
20.4908223352
 20
15.313686137
 10
20.5029817028
 20
15.3310994774
 10
20.5144466296
 20
15.3480156969
 10
20.5252676524
 20
15.3644542175
 10
20.5354452048
 20
15.3804169402
 10
20.5449788532
 20
15.395901964
 10
20.5539178335
 20
15.410923008
 10
20.5622618704
 20
15.4254819051
 10
20.5700112392
 20
15.4395768223
 10
20.5772160016
 20
15.4532159804
 10
20.5838748042
 20
15.4664002293
 10
20.5899890004
 20
15.4791287191
 10
20.5956127117
 20
15.4914071212
 10
20.6007412701
 20
15.5032262271
 10
20.6053793437
 20
15.5145952452
 10
20.6095950576
 20
15.5255474728
 10
20.6133864321
 20
15.5360693068
 10
20.6167554469
 20
15.5461743502
 10
20.6197761666
 20
15.5559367086
 10
20.6224539725
 20
15.5653542467
 10
20.6247834833
 20
15.5744290999
 10
20.6268226195
 20
15.5832417799
 10
20.6285787995
 20
15.5917973813
 10
20.6300446048
 20
15.6000908095
 10
20.6312557011
 20
15.6081872923
 10
20.6322183544
 20
15.6160911024
 10
20.6329262988
 20
15.6237979671
 10
20.633396401
 20
15.6313602969
 10
20.6336342831
 20
15.6387813053
 10
20.633634323
 20
15.6460577787
 10
20.6333965225
 20
15.6532324864
 10
20.6329265037
 20
15.6603080345
 10
20.6322186443
 20
15.6672818169
 10
20.6312560793
 20
15.6741887837
 10
20.6300450745
 20
15.6810311536
 10
20.6285793641
 20
15.6878067079
 10
20.6268232852
 20
15.6945437405
 10
20.6247842571
 20
15.7012448364
 10
20.6224548604
 20
15.7079074107
 10
20.6197771747
 20
15.714552003
 10
20.616756584
 20
15.7211863193
 10
20.6133877043
 20
15.7278026537
 10
20.6095964626
 20
15.7343984272
 10
20.6053808777
 20
15.7409851979
 10
20.6007429309
 20
15.7475514078
 10
20.5956144927
 20
15.7540598038
 10
20.5899908939
 20
15.7605147617
 10
20.5838768037
 20
15.7669119056
 10
20.577218101
 20
15.7732008556
 10
20.5700134336
 20
15.7793793585
 10
20.5622641537
 20
15.7854496674
 10
20.5539201957
 20
15.7913681613
 10
20.5449812832
 20
15.7971327229
 10
20.5354476926
 20
15.8027454695
 10
20.5252701875
 20
15.8081691319
 10
20.5144492016
 20
15.8134022578
 10
20.5029843012
 20
15.8184462995
 10
20.4908249493
 20
15.8232683449
 10
20.4779723298
 20
15.8278675236
 10
20.4644252589
 20
15.8322447059
 10
20.4501296481
 20
15.8363695908
 10
20.4350871848
 20
15.8402418789
 10
20.4192961816
 20
15.8438618696
 10
20.4026974878
 20
15.847200159
 10
20.385293161
 20
15.8502569077
 10
20.3670811436
 20
15.8530319552
 10
20.3479961127
 20
15.8554954162
 10
20.3280404146
 20
15.8576478064
 10
20.307211703
 20
15.8594886101
 10
20.2854376153
 20
15.860986395
 10
20.262720746
 20
15.8621419513
 10
20.2390585006
 20
15.8629544888
 10
20.2143707342
 20
15.8633902039
 10
20.1886602756
 20
15.8634501061
 10
20.161924296
 20
15.8631331858
 10
20.1340741628
 20
15.8624026111
 10
20.1051129436
 20
15.8612595755
 10
20.075037571
 20
15.8597028855
 10
20.0437502092
 20
15.8576921278
 10
20.0112541787
 20
15.8552286606
 10
19.9775461592
 20
15.8523111257
 10
19.9425183541
 20
15.8488950362
 10
19.9061743592
 20
15.8449819053
 10
19.8685105787
 20
15.8405702199
 10
19.8294084288
 20
15.8356109526
 10
19.788871803
 20
15.8301057702
 10
19.7468968077
 20
15.824053006
 10
19.7033531793
 20
15.8173986328
 10
19.6582451458
 20
15.8101444754
 10
19.6115684792
 20
15.802288709
 10
19.5631802309
 20
15.7937718316
 10
19.5130877948
 20
15.7845964438
 10
19.461283777
 20
15.774759945
 10
19.4076030484
 20
15.7641950315
 10
19.3519905657
 20
15.7528792686
 10
19.2945013721
 20
15.7408350908
 10
19.2351354676
 20
15.7280624984
  0
LWPOLYLINE
  5
2C9
100
AcDbEntity
  8
268140000
100
AcDbPolyline
 62
7
  6
CONTINUOUS
 90
31
 70
0
 10
3.8083112481
 20
15.5603578524
 10
3.8079715806
 20
15.5763908844
 10
3.8069551431
 20
15.5927194537
 10
3.8052644098
 20
15.6092986569
 10
3.8029034053
 20
15.6260827565
 10
3.7998785936
 20
15.6430257505
 10
3.7961988612
 20
15.6600814988
 10
3.7918740082
 20
15.6772031175
 10
3.7869155783
 20
15.6943435283
 10
3.7813377277
 20
15.7114560331
 10
3.7751554835
 20
15.7284936029
 10
3.7683854932
 20
15.7454093951
 10
3.7610468348
 20
15.7621573027
 10
3.7531593928
 20
15.7786913098
 10
3.7447445089
 20
15.7949659625
 10
3.7358257138
 20
15.8109368808
 10
3.7264272601
 20
15.8265601949
 10
3.7165746584
 20
15.8417929588
 10
3.706295313
 20
15.8565936131
 10
3.6956172476
 20
15.8709215143
 10
3.6845695138
 20
15.8847372824
 10
3.6731827145
 20
15.8980032025
 10
3.6614879547
 20
15.9106828585
 10
3.6495171116
 20
15.9227414063
 10
3.6373032326
 20
15.9341459051
 10
3.6248797381
 20
15.9448650633
 10
3.6122805458
 20
15.9548694307
 10
3.5995403334
 20
15.9641316521
 10
3.5866940373
 20
15.9726263433
 10
3.5737767569
 20
15.9803301609
 10
3.5608238747
 20
15.9872219723
  0
LINE
  5
2CA
100
AcDbEntity
  8
268140000
100
AcDbLine
 62
7
  6
CONTINUOUS
 10
2.8537170935
 20
14.9174863155
 11
2.8537170935
 21
13.2675788779
  0
LINE
  5
2CB
100
AcDbEntity
  8
268140000
100
AcDbLine
 62
7
  6
CONTINUOUS
 10
2.8537170935
 20
-21.2931545509
 11
2.8537170935
 21
-22.9430619885
  0
LINE
  5
2CC
100
AcDbEntity
  8
268140000
100
AcDbLine
 62
7
  6
CONTINUOUS
 10
3.4194025185
 20
-22.9664481205
 11
3.4194025185
 21
-24.4720562467
  0
LINE
  5
2CD
100
AcDbEntity
  8
268140000
100
AcDbLine
 62
7
  6
CONTINUOUS
 10
3.4194025185
 20
16.0579326504
 11
3.4194025185
 21
17.789983458
  0
LINE
  5
2CE
100
AcDbEntity
  8
268140000
100
AcDbLine
 62
7
  6
CONTINUOUS
 10
4.1223954728
 20
17.9253049558
 11
4.1223954728
 21
17.6643759794
  0
LINE
  5
2CF
100
AcDbEntity
  8
268140000
100
AcDbLine
 62
7
  6
CONTINUOUS
 10
4.1223954728
 20
-23.63522816
 11
4.1223954728
 21
-23.8961571364
  0
LINE
  5
2D0
100
AcDbEntity
  8
268140000
100
AcDbLine
 62
250
  6
CONTINUOUS
 10
4.4496131703
 20
22.1624148478
 11
4.4496131703
 21
20.9305762694
  0
LINE
  5
2D1
100
AcDbEntity
  8
218140040
100
AcDbLine
 62
7
  6
CONTINUOUS
 10
4.5154180293
 20
12.1222029356
 11
4.5154180293
 21
-18.4860776728
  0
LINE
  5
2D2
100
AcDbEntity
  8
268140000
100
AcDbLine
 62
7
  6
CONTINUOUS
 10
4.5154180293
 20
-22.2702282909
 11
4.5154180293
 21
15.9063535538
  0
LINE
  5
2D3
100
AcDbEntity
  8
268140000
100
AcDbLine
 62
7
  6
CONTINUOUS
 10
4.5362505987
 20
22.2668019964
 11
4.5362505987
 21
21.0344333906
  0
LWPOLYLINE
  5
2D4
100
AcDbEntity
  8
268140000
100
AcDbPolyline
 62
7
  6
CONTINUOUS
 90
18
 70
0
 10
3.8083112481
 20
-22.6313393707
 10
3.8079726036
 20
-22.6470332468
 10
3.8069559602
 20
-22.6623452755
 10
3.8052644098
 20
-22.6772333369
 10
3.8029031926
 20
-22.6916563257
 10
3.7998787811
 20
-22.7055747081
 10
3.7961988612
 20
-22.7189506302
 10
3.7918737974
 20
-22.7317472905
 10
3.7869157477
 20
-22.7439294616
 10
3.7813377277
 20
-22.755464031
 10
3.7751552799
 20
-22.7663192548
 10
3.7683856404
 20
-22.7764652321
 10
3.7610468348
 20
-22.7858744077
 10
3.7531592013
 20
-22.7945208771
 10
3.7447446303
 20
-22.8023808024
 10
3.7358257138
 20
-22.8094328649
 10
3.7264270854
 20
-22.8156576378
 10
3.7183424546
 20
-22.8201519121
  0
LINE
  5
2D5
100
AcDbEntity
  8
218140040
100
AcDbLine
 62
250
  6
CONTINUOUS
 10
19.4073921582
 20
13.7347861955
 11
19.3982514506
 21
13.7264379739
  0
LWPOLYLINE
  5
2D6
100
AcDbEntity
  8
268140000
100
AcDbPolyline
 62
7
  6
CONTINUOUS
 90
4
 70
0
 10
9.2918566229
 20
-17.3168301142
 10
9.2916220968
 20
-17.3150421194
 10
9.2904813207
 20
-17.3121098937
 10
9.2884369891
 20
-17.3087305257
  0
LINE
  5
2D7
100
AcDbEntity
  8
268140000
100
AcDbLine
 62
250
  6
CONTINUOUS
 10
9.2076585641
 20
19.9065780703
 11
9.2076585641
 21
19.6943189162
  0
LINE
  5
2D8
100
AcDbEntity
  8
268140000
100
AcDbLine
 62
250
  6
CONTINUOUS
 10
9.2076585641
 20
-17.0476476542
 11
9.2076585641
 21
-17.2374173583
  0
LWPOLYLINE
  5
2D9
100
AcDbEntity
  8
218140040
100
AcDbPolyline
 62
7
  6
CONTINUOUS
 90
38
 70
0
 10
8.9071965193
 20
20.6256531256
 10
8.9073807776
 20
20.6415699948
 10
8.9086782662
 20
20.6707846347
 10
8.9112171453
 20
20.6999788905
 10
8.9149962681
 20
20.7291395765
 10
8.9200139278
 20
20.7582535221
 10
8.9262678581
 20
20.7873075775
 10
8.9337552344
 20
20.8162886205
 10
8.942472675
 20
20.8451835614
 10
8.9524162425
 20
20.8739793496
 10
8.9635814458
 20
20.9026629792
 10
8.9759632422
 20
20.9312214951
 10
8.9895560393
 20
20.9596419986
 10
9.0043536977
 20
20.9879116533
 10
9.020349534
 20
21.0160176911
 10
9.0375363235
 20
21.0439474175
 10
9.0559063037
 20
21.0716882179
 10
9.0754511777
 20
21.099227563
 10
9.0961621178
 20
21.1265530143
 10
9.1180297697
 20
21.1536522302
 10
9.1410442569
 20
21.180512971
 10
9.1651951845
 20
21.2071231049
 10
9.1904716446
 20
21.2334706132
 10
9.216862221
 20
21.2595435958
 10
9.2443549941
 20
21.2853302766
 10
9.2729375465
 20
21.3108190089
 10
9.3025969688
 20
21.3359982805
 10
9.3333198649
 20
21.360856719
 10
9.3650923587
 20
21.3853830969
 10
9.3979000999
 20
21.4095663366
 10
9.4317282705
 20
21.4333955155
 10
9.4665615919
 20
21.4568598711
 10
9.5023843312
 20
21.4799488054
 10
9.5391803089
 20
21.5026518902
 10
9.5769329056
 20
21.5249588714
 10
9.6156250703
 20
21.5468596739
 10
9.6552393271
 20
21.568344406
 10
9.6957577841
 20
21.589403364
  0
LWPOLYLINE
  5
2DA
100
AcDbEntity
  8
268140000
100
AcDbPolyline
 62
7
  6
CONTINUOUS
 90
16
 70
0
 10
9.2918566229
 20
20.1944142597
 10
9.2916220968
 20
20.1807402678
 10
9.2904813207
 20
20.1609750767
 10
9.2884369891
 20
20.1411214261
 10
9.2855458241
 20
20.1211856422
 10
9.2818570599
 20
20.1012034058
 10
9.277397096
 20
20.0812415842
 10
9.2722042377
 20
20.0613208666
 10
9.2663215805
 20
20.0414531152
 10
9.2597610463
 20
20.021692889
 10
9.2525541432
 20
20.0020558224
 10
9.2447369975
 20
19.9825538578
 10
9.2363130581
 20
19.9632382589
 10
9.2273001667
 20
19.9441355324
 10
9.2177383213
 20
19.9252450386
 10
9.2076585641
 20
19.9065780703
  0
LWPOLYLINE
  5
2DB
100
AcDbEntity
  8
218140040
100
AcDbPolyline
 62
7
  6
CONTINUOUS
 90
19
 70
0
 10
19.1175912509
 20
13.9712322898
 10
19.1228569256
 20
13.9796362995
 10
19.1282624483
 20
13.9879716835
 10
19.1338078187
 20
13.9962384418
 10
19.1394898262
 20
14.0044428496
 10
19.1453116815
 20
14.0125786317
 10
19.1512830174
 20
14.0206269622
 10
19.1574037748
 20
14.0285868919
 10
19.1636740128
 20
14.0364593702
 10
19.1701035414
 20
14.0442284186
 10
19.1766947962
 20
14.0518959567
 10
19.1834453416
 20
14.0594600651
 10
19.1903576806
 20
14.0668990071
 10
19.1974363116
 20
14.0742155207
 10
19.2046767361
 20
14.081406868
 10
19.2120679615
 20
14.0884430985
 10
19.2196063235
 20
14.0953142287
 10
19.2272954864
 20
14.102030242
 10
19.2351354501
 20
14.1085911385
  0
LINE
  5
2DC
100
AcDbEntity
  8
RACCORDO
100
AcDbLine
 62
250
  6
CONTINUOUS
 10
-3.2295496267
 20
11.5812963989
 11
-17.5580299613
 21
18.7455365662
  0
LWPOLYLINE
  5
2DD
100
AcDbEntity
  8
218140040
100
AcDbPolyline
 62
7
  6
CONTINUOUS
 90
4
 70
0
 10
8.9106411356
 20
20.5575261464
 10
8.908511755
 20
20.5831323464
 10
8.9073252656
 20
20.6123481659
 10
8.9071965193
 20
20.6256531256
  0
LWPOLYLINE
  5
2DE
100
AcDbEntity
  8
268140000
100
AcDbPolyline
 62
7
  6
CONTINUOUS
 90
5
 70
0
 10
9.291856624
 20
19.6180324259
 10
9.2918439555
 20
19.6183796819
 10
9.2915495523
 20
19.6198974707
 10
9.2908742174
 20
19.6216141349
 10
9.2898301244
 20
19.6235338388
  0
LWPOLYLINE
  5
2DF
100
AcDbEntity
  8
268140000
100
AcDbPolyline
 62
7
  6
CONTINUOUS
 90
7
 70
0
 10
9.2918101317
 20
20.2003919142
 10
9.2917185237
 20
20.2046997155
 10
9.2915793529
 20
20.2090110461
 10
9.2913926195
 20
20.2133259061
 10
9.2911583234
 20
20.2176442954
 10
9.2908764646
 20
20.2219662142
 10
9.2905470431
 20
20.2262916622
  0
LINE
  5
2E0
100
AcDbEntity
  8
268140000
100
AcDbLine
 62
7
  6
CONTINUOUS
 10
9.2918101317
 20
20.2003919142
 11
9.2918566229
 21
20.1944142597
  0
LINE
  5
2E1
100
AcDbEntity
  8
268140000
100
AcDbLine
 62
7
  6
CONTINUOUS
 10
9.291856624
 20
20.1944316154
 11
9.291856624
 21
19.6180401331
  0
LINE
  5
2E2
100
AcDbEntity
  8
268140000
100
AcDbLine
 62
7
  6
CONTINUOUS
 10
9.291856624
 20
-17.0031223332
 11
9.291856624
 21
-17.3168733923
  0
LINE
  5
2E3
100
AcDbEntity
  8
218140040
100
AcDbLine
 62
250
  6
CONTINUOUS
 10
9.6957577841
 20
21.1791843211
 11
9.6957577841
 21
21.589403364
  0
LINE
  5
2E4
100
AcDbEntity
  8
218140040
100
AcDbLine
 62
7
  6
CONTINUOUS
 10
10.3784679821
 20
21.5216424133
 11
10.3784679821
 21
21.0886297114
  0
LINE
  5
2E5
100
AcDbEntity
  8
715140000
100
AcDbLine
 62
7
  6
CONTINUOUS
 10
11.3459316945
 20
20.2882770016
 11
11.3459316945
 21
19.8359523612
  0
LINE
  5
2E6
100
AcDbEntity
  8
268140000
100
AcDbLine
 62
7
  6
CONTINUOUS
 10
9.2918101317
 20
-17.3175522882
 11
9.2918566229
 21
-17.3168301142
  0
LINE
  5
2E7
100
AcDbEntity
  8
RACCORDO
100
AcDbLine
 62
250
  6
CONTINUOUS
 10
-2.0812135489
 20
13.2029065355
 11
-16.434878622
 21
20.379739072
  0
LINE
  5
2E8
100
AcDbEntity
  8
715140000
100
AcDbLine
 62
7
  6
CONTINUOUS
 10
11.7956763559
 20
20.1665291685
 11
11.7956763559
 21
19.8269045787
  0
LINE
  5
2E9
100
AcDbEntity
  8
218140040
100
AcDbLine
 62
7
  6
CONTINUOUS
 10
11.8339732146
 20
21.4622198474
 11
11.8339732146
 21
21.0184665515
  0
LWPOLYLINE
  5
2EA
100
AcDbEntity
  8
268140000
100
AcDbPolyline
 62
7
  6
CONTINUOUS
 90
7
 70
0
 10
9.2918101317
 20
-17.3175522882
 10
9.2917185237
 20
-17.3180378956
 10
9.2915793529
 20
-17.3185500434
 10
9.2913926195
 20
-17.3190887315
 10
9.2911583234
 20
-17.3196539598
 10
9.2908764646
 20
-17.3202457284
 10
9.2905470431
 20
-17.3208640373
  0
LWPOLYLINE
  5
2EB
100
AcDbEntity
  8
RACCORDO
100
AcDbPolyline
 62
250
  6
CONTINUOUS
 90
16
 70
0
 10
-2.1223435342
 20
11.4466286943
 10
-2.1839588353
 20
11.4331558067
 10
-2.250756916
 20
11.4228776014
 10
-2.322030038
 20
11.4159029779
 10
-2.3970230492
 20
11.4123058337
 10
-2.4749413845
 20
11.4121242811
 10
-2.5549594846
 20
11.4153602439
 10
-2.6362295425
 20
11.4219794362
 10
-2.7178904869
 20
11.4319117266
 10
-2.7990771045
 20
11.4450518806
 10
-2.878929208
 20
11.4612606757
 10
-2.9566007493
 20
11.4803663767
 10
-3.0312687837
 20
11.5021665553
 10
-3.1021421895
 20
11.5264302345
 10
-3.1684700495
 20
11.5529003361
 10
-3.2295496076
 20
11.5812964042
  0
LWPOLYLINE
  5
2EC
100
AcDbEntity
  8
218140040
100
AcDbPolyline
 62
7
  6
CONTINUOUS
 90
19
 70
0
 10
19.2351354676
 20
15.7280624984
 10
19.2272983418
 20
15.7265051561
 10
19.2196108163
 20
15.7252589779
 10
19.2120728911
 20
15.7243239639
 10
19.2046805841
 20
15.7237061975
 10
19.1974378774
 20
15.7233995953
 10
19.1903567174
 20
15.7233859066
 10
19.1834417058
 20
15.7236671805
 10
19.1766882409
 20
15.724241368
 10
19.1700944644
 20
15.7250840707
 10
19.1636628923
 20
15.7261959788
 10
19.1573910086
 20
15.7275764022
 10
19.1512694072
 20
15.7291988725
 10
19.1452981257
 20
15.7310643067
 10
19.1394771265
 20
15.7331717878
 10
19.1337968913
 20
15.7354920959
 10
19.1282542472
 20
15.7380154912
 10
19.1228523671
 20
15.7407517134
 10
19.1175912509
 20
15.7437007628
  0
LINE
  5
2ED
100
AcDbEntity
  8
268140000
100
AcDbLine
 62
7
  6
CONTINUOUS
 10
2.5534952107
 20
13.4176898193
 11
2.8537170935
 21
13.2675788779
  0
LINE
  5
2EE
100
AcDbEntity
  8
218140040
100
AcDbLine
 62
7
  6
CONTINUOUS
 10
13.9181945487
 20
23.6241905612
 11
13.9181945487
 21
23.2972245135
  0
LINE
  5
2EF
100
AcDbEntity
  8
268140000
100
AcDbLine
 62
7
  6
CONTINUOUS
 10
0.1234486554
 20
-23.8347401378
 11
0.7022389956
 21
-23.1302964076
  0
LINE
  5
2F0
100
AcDbEntity
  8
268140000
100
AcDbLine
 62
7
  6
CONTINUOUS
 10
-13.7279369253
 20
22.5174252578
 11
2.0405442952
 21
14.6331846476
  0
LINE
  5
2F1
100
AcDbEntity
  8
268140000
100
AcDbLine
 62
7
  6
CONTINUOUS
 10
1.7930569218
 20
15.0844442728
 11
-13.4804495519
 21
22.7211975096
  0
LINE
  5
2F2
100
AcDbEntity
  8
268140000
100
AcDbLine
 62
7
  6
CONTINUOUS
 10
2.3525716063
 20
15.5193514009
 11
0.7385674903
 21
16.3263534589
  0
LINE
  5
2F3
100
AcDbEntity
  8
268140000
100
AcDbLine
 62
7
  6
CONTINUOUS
 10
-11.0117465581
 20
22.2015104831
 11
-12.6257506741
 21
23.0085125411
  0
LINE
  5
2F4
100
AcDbEntity
  8
268140000
100
AcDbLine
 62
7
  6
CONTINUOUS
 10
-7.6792906773
 20
20.8926147779
 11
-1.8867816093
 21
17.9963602439
  0
LINE
  5
2F5
100
AcDbEntity
  8
268140000
100
AcDbLine
 62
7
  6
CONTINUOUS
 10
-13.2641483355
 20
23.7800423475
 11
-11.6576158662
 21
22.9767761128
  0
LINE
  5
2F6
100
AcDbEntity
  8
268140000
100
AcDbLine
 62
7
  6
CONTINUOUS
 10
0.1001698289
 20
17.0978832653
 11
1.7067022982
 21
16.2946170306
  0
LINE
  5
2F7
100
AcDbEntity
  8
268140000
100
AcDbLine
 62
250
  6
CONTINUOUS
 10
-13.3287436284
 20
23.9150717958
 11
-11.7229671662
 21
23.1121835647
  0
LINE
  5
2F8
100
AcDbEntity
  8
268140000
100
AcDbLine
 62
250
  6
CONTINUOUS
 10
0.0355745361
 20
17.2329127136
 11
1.6413509982
 21
16.4300244825
  0
LINE
  5
2F9
100
AcDbEntity
  8
268140000
100
AcDbLine
 62
250
  6
CONTINUOUS
 10
1.6413509982
 20
16.6833958762
 11
0.0355745361
 21
17.4862841073
  0
LINE
  5
2FA
100
AcDbEntity
  8
268140000
100
AcDbLine
 62
250
  6
CONTINUOUS
 10
-11.7229671662
 20
23.3655549585
 11
-13.3287436284
 21
24.1684431895
  0
LINE
  5
2FB
100
AcDbEntity
  8
268140000
100
AcDbLine
 62
7
  6
CONTINUOUS
 10
-9.9449156459
 20
22.7400917326
 11
-7.7671586429
 21
21.6512132311
  0
LINE
  5
2FC
100
AcDbEntity
  8
268140000
100
AcDbLine
 62
7
  6
CONTINUOUS
 10
-0.9646595249
 20
18.2499636721
 11
0.1164624263
 21
17.7094026965
  0
LINE
  5
2FD
100
AcDbEntity
  8
268140000
100
AcDbLine
 62
7
  6
CONTINUOUS
 10
3.4194025185
 20
16.0579326504
 11
3.5608238747
 21
15.9872219723
  0
LINE
  5
2FE
100
AcDbEntity
  8
268140000
100
AcDbLine
 62
7
  6
CONTINUOUS
 10
1.7302535743
 20
-24.6381425972
 11
2.3525716063
 21
-23.8930831797
  0
LINE
  5
2FF
100
AcDbEntity
  8
268140000
100
AcDbLine
 62
250
  6
CONTINUOUS
 10
0.8480920772
 20
-18.2847891823
 11
-0.3122789531
 21
-18.8206869775
  0
LINE
  5
300
100
AcDbEntity
  8
268140000
100
AcDbLine
 62
7
  6
CONTINUOUS
 10
0.64739702
 20
-18.7984850252
 11
-0.351305951
 21
-19.2597191531
  0
LINE
  5
301
100
AcDbEntity
  8
268140000
100
AcDbLine
 62
7
  6
CONTINUOUS
 10
2.3525716063
 20
16.1565209596
 11
1.7302535743
 21
16.2864615421
  0
LINE
  5
302
100
AcDbEntity
  8
268140000
100
AcDbLine
 62
250
  6
CONTINUOUS
 10
1.8181217277
 20
16.9872614545
 11
0.2103003186
 21
17.791172159
  0
LINE
  5
303
100
AcDbEntity
  8
268140000
100
AcDbLine
 62
250
  6
CONTINUOUS
 10
-11.5461964368
 20
23.6694205367
 11
-13.1540178458
 21
24.4733312412
  0
LINE
  5
304
100
AcDbEntity
  8
268140000
100
AcDbLine
 62
7
  6
CONTINUOUS
 10
-7.6792906773
 20
22.107569644
 11
-1.8867816093
 21
19.21131511
  0
LINE
  5
305
100
AcDbEntity
  8
268140000
100
AcDbLine
 62
7
  6
CONTINUOUS
 10
4.2679306559
 20
16.3332176737
 11
3.4681986321
 21
16.7330836856
  0
LINE
  5
306
100
AcDbEntity
  8
268140000
100
AcDbLine
 62
7
  6
CONTINUOUS
 10
-8.4136415289
 20
22.6740037661
 11
-9.8961195323
 21
23.4152427678
  0
LINE
  5
307
100
AcDbEntity
  8
268140000
100
AcDbLine
 62
7
  6
CONTINUOUS
 10
-7.1871991993
 20
22.5736690746
 11
-0.9646595249
 21
19.4623992374
  0
LINE
  5
308
100
AcDbEntity
  8
268140000
100
AcDbLine
 62
7
  6
CONTINUOUS
 10
-11.5712612427
 20
25.2853153386
 11
-9.9449156459
 21
24.4721425402
  0
LINE
  5
309
100
AcDbEntity
  8
268140000
100
AcDbLine
 62
7
  6
CONTINUOUS
 10
1.7930569218
 20
18.6031562564
 11
3.4194025185
 21
17.789983458
  0
LINE
  5
30A
100
AcDbEntity
  8
268140000
100
AcDbLine
 62
7
  6
CONTINUOUS
 10
-5.8436963151
 20
22.6039860253
 11
-0.8939488468
 21
20.1291122911
  0
LINE
  5
30B
100
AcDbEntity
  8
268140000
100
AcDbLine
 62
250
  6
CONTINUOUS
 10
-11.036811364
 20
25.5456628051
 11
-9.4166484742
 21
24.7355813602
  0
LINE
  5
30C
100
AcDbEntity
  8
268140000
100
AcDbLine
 62
250
  6
CONTINUOUS
 10
2.3275068004
 20
18.8635037229
 11
3.9476696902
 21
18.053422278
  0
LINE
  5
30D
100
AcDbEntity
  8
268140000
100
AcDbLine
 62
7
  6
CONTINUOUS
 10
-10.9253919346
 20
25.5519304613
 11
-9.3065179845
 21
24.7424934863
  0
LINE
  5
30E
100
AcDbEntity
  8
268140000
100
AcDbLine
 62
7
  6
CONTINUOUS
 10
2.4389262299
 20
18.8697713791
 11
4.0578001799
 21
18.0603344041
  0
LINE
  5
30F
100
AcDbEntity
  8
218140040
100
AcDbLine
 62
250
  6
CONTINUOUS
 10
9.6957577841
 20
21.589403364
 11
9.3017718503
 21
22.611559182
  0
LINE
  5
310
100
AcDbEntity
  8
715140000
100
AcDbLine
 62
7
  6
CONTINUOUS
 10
10.8404621123
 20
20.0460370459
 11
10.6389627544
 21
20.6417614717
  0
LWPOLYLINE
  5
311
100
AcDbEntity
  8
218140040
100
AcDbPolyline
 62
7
  6
CONTINUOUS
 90
31
 70
0
 10
19.3982514409
 20
19.8984267541
 10
19.3979709426
 20
19.93249301
 10
19.3968424719
 20
19.9749762657
 10
19.3948571959
 20
20.0175234886
 10
19.3920214383
 20
20.0601399096
 10
19.3883426698
 20
20.1028050384
 10
19.3838318169
 20
20.1454693409
 10
19.3784968348
 20
20.188126708
 10
19.3723449649
 20
20.2307693851
 10
19.3653907424
 20
20.2733432517
 10
19.3576427632
 20
20.3158417301
 10
19.3491085457
 20
20.3582582321
 10
19.3398064389
 20
20.4005370336
 10
19.3297459634
 20
20.4426693661
 10
19.3189347894
 20
20.4846509654
 10
19.3073931211
 20
20.5264314789
 10
19.2951330024
 20
20.5679946616
 10
19.2821604265
 20
20.6093440154
 10
19.2684884909
 20
20.6504575239
 10
19.2541262911
 20
20.6913254741
 10
19.2390803659
 20
20.7319442996
 10
19.2233602096
 20
20.7722998854
 10
19.2069726054
 20
20.812385114
 10
19.1899233943
 20
20.8521930365
 10
19.172221357
 20
20.8917089098
 10
19.1538723426
 20
20.9309243791
 10
19.1348806909
 20
20.9698322325
 10
19.1152531791
 20
21.0084197959
 10
19.0949941576
 20
21.0466779901
 10
19.0741068622
 20
21.0845990828
 10
19.0562840008
 20
21.115831221
  0
LWPOLYLINE
  5
312
100
AcDbEntity
  8
218140040
100
AcDbPolyline
 62
250
  6
CONTINUOUS
 90
37
 70
0
 10
19.1175912509
 20
19.5510992634
 10
19.1173613221
 20
19.5891015377
 10
19.1164528387
 20
19.6274190889
 10
19.1148661928
 20
19.6660336578
 10
19.1126020677
 20
19.7049267549
 10
19.1096615427
 20
19.7440799401
 10
19.1060460797
 20
19.7834748361
 10
19.1017573528
 20
19.8230928007
 10
19.0967973675
 20
19.86291485
 10
19.0911685631
 20
19.9029219396
 10
19.0848736123
 20
19.9430949632
 10
19.0779154709
 20
19.9834148488
 10
19.0702974862
 20
20.023862486
 10
19.0620232725
 20
20.0644186257
 10
19.0530967426
 20
20.1050639581
 10
19.043522159
 20
20.1457792074
 10
19.0333040664
 20
20.1865450303
 10
19.0224473149
 20
20.2273419935
 10
19.0109570881
 20
20.2681506534
 10
18.9988388604
 20
20.3089515972
 10
18.98609839
 20
20.3497254086
 10
18.9727417425
 20
20.3904526461
 10
18.9587753008
 20
20.4311139117
 10
18.944205704
 20
20.471689889
 10
18.9290398401
 20
20.5121613083
 10
18.9132849495
 20
20.5525089256
 10
18.896948538
 20
20.59271355
 10
18.8800383123
 20
20.6327560806
 10
18.862562323
 20
20.6726175423
 10
18.8445289262
 20
20.7122789173
 10
18.8259466974
 20
20.7517211738
 10
18.8068245782
 20
20.7909254541
 10
18.7871716455
 20
20.8298732362
 10
18.7669970644
 20
20.8685461619
 10
18.7463103931
 20
20.906925899
 10
18.7251215888
 20
20.9449941551
 10
18.7034407752
 20
20.982732838
  0
LINE
  5
313
100
AcDbEntity
  8
218140040
100
AcDbLine
 62
250
  6
CONTINUOUS
 10
19.1175912509
 20
-10.7939809824
 11
19.1175912509
 21
13.9712322898
  0
LINE
  5
314
100
AcDbEntity
  8
218140040
100
AcDbLine
 62
250
  6
CONTINUOUS
 10
19.1175912509
 20
15.7437007628
 11
19.1175912509
 21
19.5510992634
  0
LINE
  5
315
100
AcDbEntity
  8
218140040
100
AcDbLine
 62
7
  6
CONTINUOUS
 10
19.3982514506
 20
-10.4466517972
 11
19.3982514506
 21
13.7303963314
  0
LINE
  5
316
100
AcDbEntity
  8
218140040
100
AcDbLine
 62
7
  6
CONTINUOUS
 10
19.3982514506
 20
16.6791953172
 11
19.3982514506
 21
19.8984284487
  0
LINE
  5
317
100
AcDbEntity
  8
218140040
100
AcDbLine
 62
7
  6
CONTINUOUS
 10
19.398251449
 20
16.6793027581
 11
19.3982514505
 21
16.6791959652
  0
LWPOLYLINE
  5
318
100
AcDbEntity
  8
218140040
100
AcDbPolyline
 62
250
  6
CONTINUOUS
 90
57
 70
0
 10
19.3982514505
 20
16.6791959652
 10
19.3981527969
 20
16.6547379062
 10
19.3974311169
 20
16.6087401038
 10
19.3960893141
 20
16.5649578022
 10
19.3942016889
 20
16.5230456074
 10
19.3918263055
 20
16.4828521859
 10
19.3890276405
 20
16.4444282462
 10
19.3858631472
 20
16.4077283651
 10
19.3823535247
 20
16.3724565011
 10
19.3785348594
 20
16.3385648694
 10
19.3744534104
 20
16.3061028278
 10
19.3701236789
 20
16.2749205699
 10
19.3655741634
 20
16.2449974071
 10
19.3608397883
 20
16.2163532818
 10
19.3559338106
 20
16.1888996877
 10
19.3508821873
 20
16.1626375571
 10
19.3457109532
 20
16.1375635794
 10
19.3404264732
 20
16.1135832316
 10
19.3350518304
 20
16.0907039119
 10
19.3296062249
 20
16.068914992
 10
19.3240836006
 20
16.0480955531
 10
19.3185018072
 20
16.0282471135
 10
19.3128756506
 20
16.0093649275
 10
19.3071877072
 20
15.9913196807
 10
19.3014451868
 20
15.9740934447
 10
19.2956644666
 20
15.9577015792
 10
19.2898366869
 20
15.9420656021
 10
19.2839625915
 20
15.9271645626
 10
19.2780599339
 20
15.9130171376
 10
19.272143797
 20
15.8996044531
 10
19.2662223131
 20
15.8869290068
 10
19.2603055297
 20
15.874985315
 10
19.2544119934
 20
15.863742168
 10
19.2485543132
 20
15.8532089087
 10
19.2427377177
 20
15.8433725341
 10
19.236969783
 20
15.8341681046
 10
19.2312763296
 20
15.825616131
 10
19.2256479644
 20
15.817692164
 10
19.2200365193
 20
15.8102646361
 10
19.2144430411
 20
15.8033172723
 10
19.2088760758
 20
15.7968641804
 10
19.203294234
 20
15.7908208157
 10
19.197687984
 20
15.785169045
 10
19.1920720997
 20
15.7799261121
 10
19.1864394041
 20
15.7750612993
 10
19.1807902937
 20
15.7705722532
 10
19.1751289175
 20
15.7664605298
 10
19.1694531691
 20
15.7627014506
 10
19.1637669765
 20
15.7592952526
 10
19.1580705444
 20
15.7562409151
 10
19.1523556762
 20
15.7535120474
 10
19.1466261892
 20
15.7511077457
 10
19.1408816089
 20
15.7490283356
 10
19.1351064665
 20
15.747249608
 10
19.1292961332
 20
15.7457635338
 10
19.123457361
 20
15.744578022
 10
19.1175912509
 20
15.7436929788
  0
LWPOLYLINE
  5
319
100
AcDbEntity
  8
218140040
100
AcDbPolyline
 62
7
  6
CONTINUOUS
 90
7
 70
0
 10
19.3982519683
 20
13.7304134762
 10
19.3983040438
 20
13.7321860038
 10
19.3985045152
 20
13.7342574237
 10
19.3987784503
 20
13.7358595062
 10
19.3990496292
 20
13.7369813524
 10
19.3992314479
 20
13.7375654784
 10
19.3992526807
 20
13.7376230168
  0
LINE
  5
31A
100
AcDbEntity
  8
218140040
100
AcDbLine
 62
7
  6
CONTINUOUS
 10
10.6263542878
 20
-16.1499438393
 11
9.8736602039
 21
-16.6954550164
  0
LWPOLYLINE
  5
31B
100
AcDbEntity
  8
268140000
100
AcDbPolyline
 62
7
  6
CONTINUOUS
 90
25
 70
0
 10
8.5435601546
 20
-17.7807051024
 10
8.569476565
 20
-17.7658728858
 10
8.5959788016
 20
-17.750605909
 10
8.6230668646
 20
-17.7349041721
 10
8.650768521
 20
-17.7187550694
 10
8.6790560037
 20
-17.7021712066
 10
8.7078460116
 20
-17.6851904006
 10
8.7371195307
 20
-17.6678238267
 10
8.7668955751
 20
-17.6500603098
 10
8.7971478861
 20
-17.6319041414
 10
8.8278903205
 20
-17.6133472445
 10
8.8591090215
 20
-17.5943976961
 10
8.890736161
 20
-17.5750840197
 10
8.9227828957
 20
-17.555399385
 10
8.9552380688
 20
-17.5353506222
 10
8.9880003822
 20
-17.5149867455
 10
9.0210851563
 20
-17.4942979062
 10
9.0544770707
 20
-17.473293953
 10
9.0880288661
 20
-17.4520534463
 10
9.1217601811
 20
-17.4305631604
 10
9.1556513771
 20
-17.4088363209
 10
9.1894962788
 20
-17.3869911652
 10
9.2232261612
 20
-17.3650671055
 10
9.2569097493
 20
-17.3430247296
 10
9.2905470431
 20
-17.3208640373
  0
LWPOLYLINE
  5
31C
100
AcDbEntity
  8
218140040
100
AcDbPolyline
 62
7
  6
CONTINUOUS
 90
7
 70
0
 10
18.3605431993
 20
-12.059977341
 10
18.3758538332
 20
-12.0516001757
 10
18.390983478
 20
-12.0427601556
 10
18.4059263119
 20
-12.0334635039
 10
18.420677189
 20
-12.0237162276
 10
18.4352302044
 20
-12.0135252083
 10
18.7780083693
 20
-11.7651019486
  0
LWPOLYLINE
  5
31D
100
AcDbEntity
  8
218140040
100
AcDbPolyline
 62
250
  6
CONTINUOUS
 90
6
 70
0
 10
18.7034407752
 20
-11.8114640814
 10
18.7193708717
 20
-11.8027579548
 10
18.7350213274
 20
-11.79360321
 10
18.7503838566
 20
-11.784004694
 10
18.765450326
 20
-11.7739674885
 10
18.7780083693
 20
-11.7651019486
  0
LWPOLYLINE
  5
31E
100
AcDbEntity
  8
268140000
100
AcDbPolyline
 62
7
  6
CONTINUOUS
 90
3
 70
0
 10
8.5435601546
 20
-17.7807051024
 10
8.5089756775
 20
-17.7995808
 10
8.4938088975
 20
-17.8073455363
  0
LWPOLYLINE
  5
31F
100
AcDbEntity
  8
218140040
100
AcDbPolyline
 62
250
  6
CONTINUOUS
 90
29
 70
0
 10
19.1175912509
 20
-10.7939809824
 10
19.1361895317
 20
-10.7840860087
 10
19.1542435552
 20
-10.7739421644
 10
19.1717400056
 20
-10.7635569309
 10
19.1886659788
 20
-10.7529379679
 10
19.2050089912
 20
-10.7420931072
 10
19.2207569892
 20
-10.7310303472
 10
19.2358983581
 20
-10.7197578472
 10
19.2504219304
 20
-10.7082839212
 10
19.2643169946
 20
-10.6966170314
 10
19.2775733025
 20
-10.6847657828
 10
19.290181077
 20
-10.6727389161
 10
19.3021310195
 20
-10.6605453015
 10
19.3134143164
 20
-10.6481939323
 10
19.3240226458
 20
-10.6356939181
 10
19.3339481838
 20
-10.6230544782
 10
19.3431836097
 20
-10.6102849346
 10
19.3517221122
 20
-10.5973947052
 10
19.3595573938
 20
-10.5843932973
 10
19.3666836757
 20
-10.5712902997
 10
19.3730957019
 20
-10.5580953766
 10
19.3787887434
 20
-10.5448182595
 10
19.3837586013
 20
-10.5314687409
 10
19.3880016102
 20
-10.5180566666
 10
19.3915146406
 20
-10.5045919285
 10
19.3942951016
 20
-10.4910844573
 10
19.3963409425
 20
-10.4775442154
 10
19.3976506544
 20
-10.4639811891
 10
19.3982232714
 20
-10.4504053818
  0
LINE
  5
320
100
AcDbEntity
  8
218140040
100
AcDbLine
 62
7
  6
CONTINUOUS
 10
18.3605431993
 20
-12.059977341
 11
10.6263542878
 21
-16.1499438393
  0
LINE
  5
321
100
AcDbEntity
  8
218140040
100
AcDbLine
 62
7
  6
CONTINUOUS
 10
4.5154180293
 20
-19.5289817423
 11
9.8736602039
 21
-16.6954550164
  0
LINE
  5
322
100
AcDbEntity
  8
218140040
100
AcDbLine
 62
250
  6
CONTINUOUS
 10
4.5154180293
 20
-18.4860776728
 11
19.1175912509
 21
-10.7939809824
  0
LINE
  5
323
100
AcDbEntity
  8
218140040
100
AcDbLine
 62
250
  6
CONTINUOUS
 10
4.5154180293
 20
-19.2853956087
 11
18.7034407752
 21
-11.8114640814
  0
LINE
  5
324
100
AcDbEntity
  8
268140000
100
AcDbLine
 62
250
  6
CONTINUOUS
 10
4.5154180293
 20
-19.802608286
 11
8.5435601546
 21
-17.7807051024
  0
LINE
  5
325
100
AcDbEntity
  8
268140000
100
AcDbLine
 62
7
  6
CONTINUOUS
 10
4.5154180293
 20
-19.8042763668
 11
8.4938016076
 21
-17.8073492048
  0
LINE
  5
326
100
AcDbEntity
  8
268140000
100
AcDbLine
 62
250
  6
CONTINUOUS
 10
4.5154180293
 20
-19.5648032553
 11
9.2076585641
 21
-17.2374173583
  0
LINE
  5
327
100
AcDbEntity
  8
268140000
100
AcDbLine
 62
250
  6
CONTINUOUS
 10
4.5154180293
 20
-19.686677983
 11
9.2918101317
 21
-17.3175522882
  0
LINE
  5
328
100
AcDbEntity
  8
268140000
100
AcDbLine
 62
7
  6
CONTINUOUS
 10
-11.0117465581
 20
22.8386800418
 11
-11.6340645902
 21
22.9686206244
  0
LWPOLYLINE
  5
329
100
AcDbEntity
  8
218140040
100
AcDbPolyline
 62
7
  6
CONTINUOUS
 90
51
 70
0
 10
-0.9526254759
 20
22.1497816446
 10
-0.9631966445
 20
22.1539338901
 10
-0.9861580177
 20
22.1625485248
 10
-1.0094286197
 20
22.1707413643
 10
-1.0329945946
 20
22.178517354
 10
-1.0568499541
 20
22.1858829584
 10
-1.0809767001
 20
22.1928399668
 10
-1.1053569485
 20
22.199390516
 10
-1.1299841231
 20
22.2055390825
 10
-1.1548403385
 20
22.2112867302
 10
-1.1799082566
 20
22.216634904
 10
-1.2051813894
 20
22.2215867135
 10
-1.2306423839
 20
22.2261427996
 10
-1.2562737138
 20
22.2303039545
 10
-1.282067955
 20
22.2340720881
 10
-1.3080075592
 20
22.2374475146
 10
-1.3340753956
 20
22.2404306911
 10
-1.3602640813
 20
22.2430227474
 10
-1.3865560535
 20
22.2452237976
 10
-1.4129343343
 20
22.247034003
 10
-1.4393920096
 20
22.2484538564
 10
-1.4659118548
 20
22.2494833088
 10
-1.4924766172
 20
22.2501222244
 10
-1.5190791394
 20
22.2503704689
 10
-1.5457022378
 20
22.250227817
 10
-1.572328559
 20
22.2496939
 10
-1.5989507195
 20
22.2487680098
 10
-1.6255515933
 20
22.2474497194
 10
-1.6521135774
 20
22.2457384395
 10
-1.6786288452
 20
22.2436329095
 10
-1.7050800976
 20
22.2411324741
 10
-1.7314495796
 20
22.2382363124
 10
-1.7577292961
 20
22.2349425558
 10
-1.7839032309
 20
22.231250025
 10
-1.8099518556
 20
22.2271577948
 10
-1.8358627469
 20
22.2226640469
 10
-1.8616194647
 20
22.2177673556
 10
-1.887202536
 20
22.2124666476
 10
-1.9125962543
 20
22.2067603655
 10
-1.937782721
 20
22.2006471386
 10
-1.9627437985
 20
22.1941254903
 10
-1.987465018
 20
22.187193097
 10
-2.0119284853
 20
22.1798480568
 10
-2.0361158903
 20
22.1720885015
 10
-2.0600137473
 20
22.1639109451
 10
-2.083603217
 20
22.1553129633
 10
-2.1068666794
 20
22.1462915605
 10
-2.1297942057
 20
22.1368401863
 10
-2.152370498
 20
22.1269532372
 10
-2.1745722135
 20
22.1166285857
 10
-2.190151315
 20
22.1090030586
  0
LWPOLYLINE
  5
32A
100
AcDbEntity
  8
218140040
100
AcDbPolyline
 62
7
  6
CONTINUOUS
 90
3
 70
0
 10
-0.9474945434
 20
22.1474810663
 10
-0.9497894778
 20
22.1485744213
 10
-0.9526254759
 20
22.1497816446
  0
LINE
  5
32B
100
AcDbEntity
  8
218140040
100
AcDbLine
 62
7
  6
CONTINUOUS
 10
0.4202131336
 20
20.7768294077
 11
-2.1667410529
 21
22.0703065009
  0
LINE
  5
32C
100
AcDbEntity
  8
218140040
100
AcDbLine
 62
250
  6
CONTINUOUS
 10
1.0611763284
 20
21.0927439134
 11
-1.0317359026
 21
22.1392000289
  0
LINE
  5
32D
100
AcDbEntity
  8
218140040
100
AcDbLine
 62
7
  6
CONTINUOUS
 10
1.1119397529
 20
21.1177639181
 11
-0.9474945384
 21
22.1474810637
  0
LINE
  5
32E
100
AcDbEntity
  8
268140000
100
AcDbLine
 62
7
  6
CONTINUOUS
 10
1.623726898
 20
21.3700108244
 11
-1.1767915592
 21
22.7702700531
  0
LINE
  5
32F
100
AcDbEntity
  8
268140000
100
AcDbLine
 62
7
  6
CONTINUOUS
 10
-1.5303449498
 20
23.4996049377
 11
-1.1767915592
 21
23.3228282424
  0
LWPOLYLINE
  5
330
100
AcDbEntity
  8
268140000
100
AcDbPolyline
 62
7
  6
CONTINUOUS
 90
20
 70
0
 10
9.2898301244
 20
19.6235338388
 10
9.2884299728
 20
19.6256649035
 10
9.2866835465
 20
19.6279733509
 10
9.2846019366
 20
19.63046299
 10
9.2821969721
 20
19.6331404328
 10
9.2794768803
 20
19.6359756488
 10
9.276451949
 20
19.6389721751
 10
9.2731334477
 20
19.6421352533
 10
9.2695292907
 20
19.6454372458
 10
9.2656494339
 20
19.6488812285
 10
9.2615047624
 20
19.6524714729
 10
9.2571035296
 20
19.6561819725
 10
9.2524551911
 20
19.6600155643
 10
9.2475707372
 20
19.6639754379
 10
9.2424603488
 20
19.6680358583
 10
9.2371334737
 20
19.6721990735
 10
9.2316012704
 20
19.676467445
 10
9.2258767992
 20
19.6808149445
 10
9.2199716158
 20
19.6852338266
 10
9.2076585641
 20
19.6943189162
  0
LINE
  5
331
100
AcDbEntity
  8
218140040
100
AcDbLine
 62
7
  6
CONTINUOUS
 10
10.6263542878
 20
17.8172684673
 11
9.8736602039
 21
19.1154737284
  0
LWPOLYLINE
  5
332
100
AcDbEntity
  8
218140040
100
AcDbPolyline
 62
250
  6
CONTINUOUS
 90
34
 70
0
 10
18.7669970644
 20
-11.7602181089
 10
18.7871716455
 20
-11.7415384771
 10
18.8068245782
 20
-11.7220745509
 10
18.8259466974
 20
-11.701835447
 10
18.8445289262
 20
-11.6808307444
 10
18.862562323
 20
-11.6590705125
 10
18.8800383123
 20
-11.6365651421
 10
18.896948538
 20
-11.6133253898
 10
18.9132849495
 20
-11.5893623012
 10
18.9290398401
 20
-11.5646872263
 10
18.944205704
 20
-11.539311911
 10
18.9587753008
 20
-11.5132484429
 10
18.9727417425
 20
-11.4865091762
 10
18.98609839
 20
-11.4591068123
 10
18.9988388604
 20
-11.4310544146
 10
19.0109570881
 20
-11.4023653503
 10
19.0224473149
 20
-11.3730532653
 10
19.0333040664
 20
-11.3431321102
 10
19.043522159
 20
-11.3126161539
 10
19.0530967426
 20
-11.281519931
 10
19.0620232725
 20
-11.2498582162
 10
19.0702974862
 20
-11.2176460499
 10
19.0779154709
 20
-11.1848987455
 10
19.0848736123
 20
-11.151631877
 10
19.0911685631
 20
-11.1178612516
 10
19.0967973675
 20
-11.0836028645
 10
19.1017573528
 20
-11.0488730541
 10
19.1060460797
 20
-11.0136884913
 10
19.1096615427
 20
-10.978066001
 10
19.1126020677
 20
-10.9420224174
 10
19.1148661928
 20
-10.9055747328
 10
19.1164528387
 20
-10.8687402151
 10
19.1173613221
 20
-10.8315364076
 10
19.1175912509
 20
-10.7939809824
  0
LWPOLYLINE
  5
333
100
AcDbEntity
  8
218140040
100
AcDbPolyline
 62
250
  6
CONTINUOUS
 90
4
 70
0
 10
18.7034407752
 20
-11.8114640814
 10
18.7251215888
 20
-11.7951892919
 10
18.7463103931
 20
-11.77810458
 10
18.7669970644
 20
-11.7602181089
  0
LWPOLYLINE
  5
334
100
AcDbEntity
  8
218140040
100
AcDbPolyline
 62
7
  6
CONTINUOUS
 90
40
 70
0
 10
18.7780104091
 20
-11.7651004549
 10
18.8061546591
 20
-11.7441542467
 10
18.8338092591
 20
-11.7224640348
 10
18.8609909196
 20
-11.7000115388
 10
18.8876798655
 20
-11.6768055867
 10
18.9138541334
 20
-11.6528579728
 10
18.9395126558
 20
-11.6281617521
 10
18.9646364877
 20
-11.6027259357
 10
18.9892047215
 20
-11.576562449
 10
19.0132122992
 20
-11.5496664704
 10
19.0366403771
 20
-11.5220480528
 10
19.0594688673
 20
-11.4937197941
 10
19.0816901429
 20
-11.4646788811
 10
19.10328522
 20
-11.4349367809
 10
19.124235872
 20
-11.4045056588
 10
19.1445349839
 20
-11.3733813825
 10
19.1641637631
 20
-11.3415766131
 10
19.1831054152
 20
-11.3091025094
 10
19.2013548588
 20
-11.2759498119
 10
19.218890808
 20
-11.242137129
 10
19.2357000816
 20
-11.2076691109
 10
19.2517868858
 20
-11.1725114726
 10
19.2671388023
 20
-11.1366583702
 10
19.2817297599
 20
-11.1001356556
 10
19.2955420953
 20
-11.0629530697
 10
19.3085623353
 20
-11.0251089972
 10
19.3207688156
 20
-10.9866251778
 10
19.3321357525
 20
-10.9475450044
 10
19.342649517
 20
-10.9078788383
 10
19.3522963814
 20
-10.8676371582
 10
19.3610565951
 20
-10.8268625837
 10
19.3689199121
 20
-10.7855630669
 10
19.3758750212
 20
-10.7437505123
 10
19.3819065025
 20
-10.7014725942
 10
19.3870063926
 20
-10.6587385846
 10
19.3911662992
 20
-10.6155580919
 10
19.3943756419
 20
-10.5719778687
 10
19.3966276974
 20
-10.5280184914
 10
19.3979171084
 20
-10.4836774133
 10
19.3982514409
 20
-10.4466529178
  0
LINE
  5
335
100
AcDbEntity
  8
218140040
100
AcDbLine
 62
250
  6
CONTINUOUS
 10
18.3605431993
 20
-12.059977341
 11
18.7034407752
 21
-11.8114640814
  0
LINE
  5
336
100
AcDbEntity
  8
268140000
100
AcDbLine
 62
7
  6
CONTINUOUS
 10
2.8537170935
 20
-22.9430619885
 11
2.0405442952
 21
-23.4719331189
  0
LINE
  5
337
100
AcDbEntity
  8
268140000
100
AcDbLine
 62
250
  6
CONTINUOUS
 10
3.8083112481
 20
-22.6313393707
 11
4.5154180293
 21
-22.2702282909
  0
LINE
  5
338
100
AcDbEntity
  8
268140000
100
AcDbLine
 62
7
  6
CONTINUOUS
 10
3.7183424303
 20
-22.820151924
 11
4.4254492114
 21
-22.4590408442
  0
LINE
  5
339
100
AcDbEntity
  8
268140000
100
AcDbLine
 62
7
  6
CONTINUOUS
 10
3.7183424546
 20
-22.8201519121
 11
3.7163348592
 21
-22.8211556183
  0
LINE
  5
33A
100
AcDbEntity
  8
268140000
100
AcDbLine
 62
250
  6
CONTINUOUS
 10
2.0405442952
 20
-23.4963286242
 11
3.8083112481
 21
-22.6313393707
  0
LINE
  5
33B
100
AcDbEntity
  8
268140000
100
AcDbLine
 62
7
  6
CONTINUOUS
 10
1.9485678572
 20
-23.6861448959
 11
3.7163348101
 21
-22.8211556424
  0
LWPOLYLINE
  5
33C
100
AcDbEntity
  8
RACCORDO
100
AcDbPolyline
 62
250
  6
CONTINUOUS
 90
16
 70
0
 10
-5.3637864197
 20
-25.0178137682
 10
-5.4262925758
 20
-25.0413118662
 10
-5.4939719329
 20
-25.0615090792
 10
-5.5661074255
 20
-25.0781914169
 10
-5.6419347749
 20
-25.0911821292
 10
-5.7206505871
 20
-25.100343579
 10
-5.8014208648
 20
-25.1055787003
 10
-5.8833898435
 20
-25.1068320268
 10
-5.9656890583
 20
-25.1040902795
 10
-6.0474465457
 20
-25.0973825073
 10
-6.1277960816
 20
-25.0867797792
 10
-6.2058863592
 20
-25.0723944318
 10
-6.2808900089
 20
-25.0543788785
 10
-6.3520123636
 20
-25.0329239949
 10
-6.4184998792
 20
-25.0082570964
 10
-6.4796481175
 20
-24.9806395298
  0
LWPOLYLINE
  5
33D
100
AcDbEntity
  8
218140040
100
AcDbPolyline
 62
7
  6
CONTINUOUS
 90
14
 70
0
 10
4.7798718113
 20
22.0401994463
 10
4.7674613577
 20
22.0409005143
 10
4.7464344002
 20
22.042307766
 10
4.7255554133
 20
22.0439237073
 10
4.7048626495
 20
22.0457425325
 10
4.68437454
 20
22.0477594851
 10
4.6641093259
 20
22.0499694105
 10
4.6441039558
 20
22.0523642038
 10
4.6243751082
 20
22.0549373237
 10
4.604939595
 20
22.0576819998
 10
4.585833195
 20
22.060587899
 10
4.5670705105
 20
22.0636468645
 10
4.5486663059
 20
22.0668505547
 10
4.5362505987
 20
22.0691500892
  0
LWPOLYLINE
  5
33E
100
AcDbEntity
  8
268140000
100
AcDbPolyline
 62
7
  6
CONTINUOUS
 90
13
 70
0
 10
8.5435601546
 20
20.7075515458
 10
8.5089093446
 20
20.713981227
 10
8.4737051216
 20
20.7193643798
 10
8.4379852697
 20
20.7237265206
 10
8.4017599528
 20
20.7271204437
 10
8.3650922147
 20
20.7295501934
 10
8.3280960048
 20
20.7309614226
 10
8.2908089699
 20
20.7313715575
 10
8.253257988
 20
20.730807676
 10
8.2155372871
 20
20.7292156878
 10
8.1776979124
 20
20.7265865968
 10
8.1397487262
 20
20.7229646156
 10
8.1017192867
 20
20.7183698261
  0
LINE
  5
33F
100
AcDbEntity
  8
715140000
100
AcDbLine
 62
7
  6
CONTINUOUS
 10
11.7956763559
 20
20.1665291685
 11
11.3459316945
 21
20.2882770016
  0
LWPOLYLINE
  5
340
100
AcDbEntity
  8
218140040
100
AcDbPolyline
 62
7
  6
CONTINUOUS
 90
19
 70
0
 10
-0.9535108094
 20
22.1501273141
 10
-0.9573266394
 20
22.1514556115
 10
-0.9612320492
 20
22.152557612
 10
-0.9652226544
 20
22.1534322132
 10
-0.969293262
 20
22.1540782365
 10
-0.9734386259
 20
22.1544948023
 10
-0.977654128
 20
22.1546816702
 10
-0.981934287
 20
22.1546384903
 10
-0.9862735877
 20
22.1543652124
 10
-0.9906672367
 20
22.1538624605
 10
-0.9951095248
 20
22.1531307154
 10
-0.9995947288
 20
22.1521707548
 10
-1.0041179414
 20
22.1509840596
 10
-1.0086732887
 20
22.1495719337
 10
-1.013254902
 20
22.1479359723
 10
-1.0178578206
 20
22.1460784959
 10
-1.0224764136
 20
22.144001779
 10
-1.0271043872
 20
22.1417080504
 10
-1.0317357566
 20
22.1391999559
  0
LWPOLYLINE
  5
341
100
AcDbEntity
  8
268140000
100
AcDbPolyline
 62
7
  6
CONTINUOUS
 90
10
 70
0
 10
8.7899981078
 20
20.6201125141
 10
8.7668955751
 20
20.6313655061
 10
8.7371195307
 20
20.6449419479
 10
8.7078460116
 20
20.6573275646
 10
8.6790560037
 20
20.6685293612
 10
8.650768521
 20
20.6785403327
 10
8.6230668646
 20
20.6874400771
 10
8.5959788016
 20
20.6952551271
 10
8.569476565
 20
20.70195895
 10
8.5435601546
 20
20.7075515458
  0
LINE
  5
342
100
AcDbEntity
  8
268140000
100
AcDbLine
 62
7
  6
CONTINUOUS
 10
3.0315425943
 20
22.0638874828
 11
0.2209929473
 21
23.4691623063
  0
LINE
  5
343
100
AcDbEntity
  8
218140040
100
AcDbLine
 62
7
  6
CONTINUOUS
 10
9.0858715562
 20
19.5093680522
 11
9.8736602039
 21
19.1154737284
  0
LINE
  5
344
100
AcDbEntity
  8
268140000
100
AcDbLine
 62
7
  6
CONTINUOUS
 10
1.5809248874
 20
23.5429104937
 11
3.7906657756
 21
22.4380400496
  0
LINE
  5
345
100
AcDbEntity
  8
268140000
100
AcDbLine
 62
7
  6
CONTINUOUS
 10
4.5362505987
 20
22.0652476381
 11
4.6820640087
 21
21.992340933
  0
LINE
  5
346
100
AcDbEntity
  8
268140000
100
AcDbLine
 62
7
  6
CONTINUOUS
 10
-1.2865328582
 20
25.2398830463
 11
-1.1060808811
 21
25.1496570577
  0
LINE
  5
347
100
AcDbEntity
  8
268140000
100
AcDbLine
 62
7
  6
CONTINUOUS
 10
4.2679306559
 20
22.4626512892
 11
4.448382633
 21
22.3724253006
  0
LINE
  5
348
100
AcDbEntity
  8
268140000
100
AcDbLine
 62
250
  6
CONTINUOUS
 10
-2.0991012023
 20
25.8187800706
 11
0.8799886986
 21
24.3292351202
  0
LINE
  5
349
100
AcDbEntity
  8
268140000
100
AcDbLine
 62
250
  6
CONTINUOUS
 10
5.1226293858
 20
22.2079147766
 11
8.1017192867
 21
20.7183698261
  0
LINE
  5
34A
100
AcDbEntity
  8
268140000
100
AcDbLine
 62
7
  6
CONTINUOUS
 10
5.5636723888
 20
22.2332642432
 11
8.789995632
 21
20.6201026216
  0
LWPOLYLINE
  5
34B
100
AcDbEntity
  8
218140040
100
AcDbPolyline
 62
250
  6
CONTINUOUS
 90
14
 70
0
 10
5.9157599797
 20
22.1040998782
 10
5.8966180436
 20
22.1136701211
 10
5.8774812704
 20
22.1225711229
 10
5.8583641866
 20
22.1307961266
 10
5.8392813039
 20
22.138338889
 10
5.8202471078
 20
22.1451936842
 10
5.8012760472
 20
22.1513553089
 10
5.7823825228
 20
22.1568190859
 10
5.7635808765
 20
22.1615808677
 10
5.7448853805
 20
22.1656370396
 10
5.7263102264
 20
22.1689845228
 10
5.7078695144
 20
22.171620776
 10
5.6895772427
 20
22.1735437982
 10
5.6821191375
 20
22.1740408689
  0
LINE
  5
34C
100
AcDbEntity
  8
715140000
100
AcDbLine
 62
7
  6
CONTINUOUS
 10
10.8509569477
 20
20.0407896282
 11
11.0483476149
 21
19.8584960373
  0
LWPOLYLINE
  5
34D
100
AcDbEntity
  8
268140000
100
AcDbPolyline
 62
7
  6
CONTINUOUS
 90
17
 70
0
 10
9.2905470431
 20
20.2262916622
 10
9.2569097493
 20
20.2623538127
 10
9.2232261612
 20
20.2969924724
 10
9.1894962788
 20
20.3302076412
 10
9.1556513771
 20
20.3620149451
 10
9.1217601811
 20
20.3923987583
 10
9.0880288661
 20
20.4213122024
 10
9.0544770707
 20
20.4487313777
 10
9.0210851563
 20
20.474680184
 10
8.9880003822
 20
20.4991834425
 10
8.9552380688
 20
20.5222271494
 10
8.9227828957
 20
20.5438253084
 10
8.890736161
 20
20.5640447525
 10
8.8591090215
 20
20.5828786665
 10
8.8278903205
 20
20.6003338654
 10
8.7971478861
 20
20.6164976269
 10
8.7899981078
 20
20.6201125141
  0
LINE
  5
34E
100
AcDbEntity
  8
268140000
100
AcDbLine
 62
7
  6
CONTINUOUS
 10
3.4194025185
 20
-24.4720562467
 11
3.9476696902
 21
-24.201045188
  0
LINE
  5
34F
100
AcDbEntity
  8
268140000
100
AcDbLine
 62
7
  6
CONTINUOUS
 10
1.8181217277
 20
-25.2520908463
 11
3.4194025185
 21
-24.4720562467
  0
LINE
  5
350
100
AcDbEntity
  8
RACCORDO
100
AcDbLine
 62
250
  6
CONTINUOUS
 10
-4.9256237922
 20
-25.4393517256
 11
-0.7878780678
 21
-24.1709143812
  0
LINE
  5
351
100
AcDbEntity
  8
RACCORDO
100
AcDbLine
 62
7
  6
CONTINUOUS
 10
-1.0984145539
 20
-24.6459642356
 11
-5.2423787442
 21
-25.9163075376
  0
LINE
  5
352
100
AcDbEntity
  8
268140000
100
AcDbLine
 62
7
  6
CONTINUOUS
 10
0.2209929473
 20
23.4691623063
 11
1.5809248874
 21
23.5429104937
  0
LWPOLYLINE
  5
353
100
AcDbEntity
  8
715140000
100
AcDbPolyline
 62
7
  6
CONTINUOUS
 90
9
 70
0
 10
13.1887391546
 20
20.8333763982
 10
13.1826224141
 20
20.8349758959
 10
13.1728522003
 20
20.8365087098
 10
13.1625260049
 20
20.8369241541
 10
13.1517388077
 20
20.8362223817
 10
13.1407755488
 20
20.8344038503
 10
13.1297312081
 20
20.8314687128
 10
13.1185108056
 20
20.8274168164
 10
13.1071143413
 20
20.8222481612
  0
LWPOLYLINE
  5
354
100
AcDbEntity
  8
715140000
100
AcDbPolyline
 62
7
  6
CONTINUOUS
 90
28
 70
0
 10
13.1887290184
 20
20.8333524457
 10
13.0800136718
 20
20.8646382915
 10
12.9651586289
 20
20.8939919686
 10
12.8478972049
 20
20.9203190387
 10
12.7285240401
 20
20.9435811305
 10
12.6073036684
 20
20.9637516833
 10
12.484474299
 20
20.9808109586
 10
12.3603255016
 20
20.9947348001
 10
12.2351420385
 20
21.0055054691
 10
12.109161521
 20
21.0131128688
 10
11.9826751348
 20
21.0175462475
 10
11.8559724119
 20
21.0188008022
 10
11.7292906665
 20
21.0168760291
 10
11.6029193967
 20
21.0117746941
 10
11.4771498061
 20
21.003505482
 10
11.3522202067
 20
20.9920776065
 10
11.2284213321
 20
20.9775077743
 10
11.1060365798
 20
20.9598177527
 10
10.9852881436
 20
20.9390235773
 10
10.8664532225
 20
20.9151519773
 10
10.7498173991
 20
20.8882369255
 10
10.635605826
 20
20.8583021582
 10
10.5240906478
 20
20.8253850543
 10
10.4155444514
 20
20.7895284195
 10
10.3101775598
 20
20.7507568019
 10
10.2082307774
 20
20.7091039936
 10
10.10998464
 20
20.6646232191
 10
10.0157005788
 20
20.6173658296
  0
LWPOLYLINE
  5
355
100
AcDbEntity
  8
715140000
100
AcDbPolyline
 62
7
  6
CONTINUOUS
 90
3
 70
0
 10
13.2007798364
 20
20.8285586176
 10
13.1919316261
 20
20.8323258652
 10
13.1887391546
 20
20.8333763982
  0
LWPOLYLINE
  5
356
100
AcDbEntity
  8
268140000
100
AcDbPolyline
 62
7
  6
CONTINUOUS
 90
18
 70
0
 10
1.3210273159
 20
24.3545758133
 10
1.3014793314
 20
24.3636585001
 10
1.2785835512
 20
24.3726439148
 10
1.2550742649
 20
24.3801461476
 10
1.2309329428
 20
24.3861803174
 10
1.2062431895
 20
24.3907261018
 10
1.1809817632
 20
24.3937800852
 10
1.1551719058
 20
24.3953456832
 10
1.1289669469
 20
24.3954128198
 10
1.1023829843
 20
24.3939740438
 10
1.0754039203
 20
24.3910368064
 10
1.0481347916
 20
24.3866133852
 10
1.020560612
 20
24.3806949996
 10
0.9926963677
 20
24.37329043
 10
0.9646920546
 20
24.3644382954
 10
0.9365976714
 20
24.3541514687
 10
0.9083632194
 20
24.342417077
 10
0.8799886986
 20
24.3292351202
  0
LINE
  5
357
100
AcDbEntity
  8
715140000
100
AcDbLine
 62
7
  6
CONTINUOUS
 10
10.8509569477
 20
20.0407896282
 11
10.1439880076
 21
20.3942740983
  0
LINE
  5
358
100
AcDbEntity
  8
715140000
100
AcDbLine
 62
7
  6
CONTINUOUS
 10
11.3459316945
 20
20.2882770016
 11
10.6389627544
 21
20.6417614717
  0
LINE
  5
359
100
AcDbEntity
  8
218140040
100
AcDbLine
 62
7
  6
CONTINUOUS
 10
9.9461537313
 20
21.3047868368
 11
10.3784679821
 21
21.0886297114
  0
LINE
  5
35A
100
AcDbEntity
  8
715140000
100
AcDbLine
 62
7
  6
CONTINUOUS
 10
14.0493079738
 20
20.4042945489
 11
14.141720135
 21
20.3580330404
  0
LWPOLYLINE
  5
35B
100
AcDbEntity
  8
715140000
100
AcDbPolyline
 62
7
  6
CONTINUOUS
 90
10
 70
0
 10
14.0113639065
 20
20.4169622038
 10
13.9138868528
 20
20.4670176355
 10
13.818273651
 20
20.5159935111
 10
13.724524301
 20
20.5638898307
 10
13.6326532198
 20
20.6107080185
 10
13.5426459903
 20
20.6564466503
 10
13.4544593623
 20
20.7011014533
 10
13.3680789189
 20
20.7446710034
 10
13.2835190769
 20
20.7871567248
 10
13.2007798364
 20
20.8285586176
  0
LINE
  5
35C
100
AcDbEntity
  8
715140000
100
AcDbLine
 62
7
  6
CONTINUOUS
 10
14.0191223352
 20
20.4123757317
 11
14.0113639065
 21
20.4169622038
  0
LWPOLYLINE
  5
35D
100
AcDbEntity
  8
715140000
100
AcDbPolyline
 62
250
  6
CONTINUOUS
 90
4
 70
0
 10
14.0493079738
 20
20.4042945489
 10
14.0738309641
 20
20.3837901705
 10
14.0981967258
 20
20.362511906
 10
14.1163945495
 20
20.3458781243
  0
LWPOLYLINE
  5
35E
100
AcDbEntity
  8
715140000
100
AcDbPolyline
 62
250
  6
CONTINUOUS
 90
6
 70
0
 10
13.9556713746
 20
20.3979985404
 10
13.9785318041
 20
20.378419807
 10
14.0011093424
 20
20.3580667604
 10
14.0234039895
 20
20.3369394008
 10
14.0454494879
 20
20.3151095139
 10
14.0476101342
 20
20.3128653121
  0
LWPOLYLINE
  5
35F
100
AcDbEntity
  8
218140040
100
AcDbPolyline
 62
250
  6
CONTINUOUS
 90
57
 70
0
 10
19.3982514506
 20
17.3798267404
 10
19.407585863
 20
17.3498700027
 10
19.4197851397
 20
17.3073351606
 10
19.4312305264
 20
17.2637920109
 10
19.4419035242
 20
17.2192496939
 10
19.4517358154
 20
17.1737288009
 10
19.4607268321
 20
17.1271291239
 10
19.4688484037
 20
17.0795474522
 10
19.4759991856
 20
17.0313053899
 10
19.4821642899
 20
16.9823345673
 10
19.4873446259
 20
16.9327109783
 10
19.4914827549
 20
16.8829840699
 10
19.4945637107
 20
16.8330949792
 10
19.4966139262
 20
16.7831228275
 10
19.4976671458
 20
16.7338378566
 10
19.4977154473
 20
16.6852241685
 10
19.4968119109
 20
16.6373289338
 10
19.4951145582
 20
16.5910302253
 10
19.4926614748
 20
16.5466142388
 10
19.4894932145
 20
16.5038320271
 10
19.4857860492
 20
16.4627637841
 10
19.4815987752
 20
16.4235578681
 10
19.4769408917
 20
16.3860927067
 10
19.4719060766
 20
16.3500403732
 10
19.4665253494
 20
16.3153641446
 10
19.4608147439
 20
16.282116716
 10
19.4548344206
 20
16.2501008303
 10
19.448602959
 20
16.2192887076
 10
19.4421375173
 20
16.1897185233
 10
19.4354900449
 20
16.1612902379
 10
19.4286775219
 20
16.1340038482
 10
19.4217117085
 20
16.1078665423
 10
19.4146328873
 20
16.0827881245
 10
19.4074574947
 20
16.0587778973
 10
19.400191897
 20
16.0358315519
 10
19.392858011
 20
16.0138377859
 10
19.3854704916
 20
15.9928036571
 10
19.3780321113
 20
15.9727255332
 10
19.3705440404
 20
15.953475511
 10
19.3630139176
 20
15.9350464459
 10
19.3554469634
 20
15.9174477995
 10
19.3478384331
 20
15.9005761546
 10
19.3401852165
 20
15.884411429
 10
19.3324999715
 20
15.8689753367
 10
19.3248001839
 20
15.8542269321
 10
19.3170817919
 20
15.8401577477
 10
19.3093562787
 20
15.82677758
 10
19.3016635959
 20
15.8140728121
 10
19.2940094326
 20
15.8020552064
 10
19.2863937671
 20
15.7907141977
 10
19.2788472143
 20
15.7800026286
 10
19.27138217
 20
15.7699354233
 10
19.2639901388
 20
15.7604986922
 10
19.2566696127
 20
15.7516019414
 10
19.2494207797
 20
15.7432152497
 10
19.2422458048
 20
15.7353693444
 10
19.2351456858
 20
15.7280646252
  0
LWPOLYLINE
  5
360
100
AcDbEntity
  8
218140040
100
AcDbPolyline
 62
7
  6
CONTINUOUS
 90
10
 70
0
 10
14.1214319177
 20
21.143805113
 10
14.1575375373
 20
21.1280973882
 10
14.1930721397
 20
21.1120889007
 10
14.2280357248
 20
21.0957796506
 10
14.2624384621
 20
21.0791645532
 10
14.2962701821
 20
21.0622486932
 10
14.3295003768
 20
21.0450473246
 10
14.362118877
 20
21.027565532
 10
14.394135852
 20
21.0097982308
 10
14.4255513017
 20
20.991745421
  0
LINE
  5
361
100
AcDbEntity
  8
218140040
100
AcDbLine
 62
7
  6
CONTINUOUS
 10
13.9378940767
 20
21.2199141809
 11
14.5694253977
 21
20.9041485204
  0
LINE
  5
362
100
AcDbEntity
  8
218140040
100
AcDbLine
 62
7
  6
CONTINUOUS
 10
14.1214319177
 20
21.143805113
 11
14.4255513017
 21
20.991745421
  0
LWPOLYLINE
  5
363
100
AcDbEntity
  8
218140040
100
AcDbPolyline
 62
7
  6
CONTINUOUS
 90
104
 70
0
 10
19.3982514506
 20
19.1988995167
 10
19.4109727719
 20
19.1896447087
 10
19.4557943846
 20
19.1557763871
 10
19.5002782325
 20
19.1209014749
 10
19.5444358934
 20
19.0850166872
 10
19.5882664714
 20
19.0481264959
 10
19.6317382248
 20
19.0102611621
 10
19.6748158462
 20
18.9714563252
 10
19.7174787677
 20
18.9317363029
 10
19.7597164754
 20
18.8911164989
 10
19.8015089777
 20
18.8496215691
 10
19.8428351046
 20
18.8072782987
 10
19.8836858591
 20
18.7641015141
 10
19.9240589817
 20
18.720098137
 10
19.9639498062
 20
18.6752764541
 10
20.0033322795
 20
18.6296687769
 10
20.0421722057
 20
18.5833191542
 10
20.0804411048
 20
18.5362676889
 10
20.1181397321
 20
18.4885194467
 10
20.1552774701
 20
18.4400662845
 10
20.1918531731
 20
18.3909111443
 10
20.2278383694
 20
18.3410935692
 10
20.2632013214
 20
18.2906605285
 10
20.2979186098
 20
18.2396500856
 10
20.3319876334
 20
18.1880706102
 10
20.365408206
 20
18.1359252446
 10
20.3981721782
 20
18.0832281346
 10
20.4302608765
 20
18.0300105777
 10
20.461658014
 20
17.9763013337
 10
20.4923493587
 20
17.9221267362
 10
20.5223242928
 20
17.867507355
 10
20.551572327
 20
17.8124636748
 10
20.5800809314
 20
17.757020367
 10
20.6078388688
 20
17.7012001873
 10
20.6348375515
 20
17.6450207441
 10
20.661066213
 20
17.5885041484
 10
20.6865126962
 20
17.5316760607
 10
20.7111664027
 20
17.4745593881
 10
20.7350169222
 20
17.4171770841
 10
20.7580531251
 20
17.3595544594
 10
20.7802637945
 20
17.3017179799
 10
20.8016362605
 20
17.2436992848
 10
20.8221636114
 20
17.1855154314
 10
20.8418429351
 20
17.1271707801
 10
20.8606697145
 20
17.0686717184
 10
20.878627891
 20
17.010060453
 10
20.8956983185
 20
16.9513948982
 10
20.9118661893
 20
16.892725444
 10
20.9271316461
 20
16.8340506199
 10
20.9414979182
 20
16.7753502894
 10
20.954962109
 20
16.7166206727
 10
20.9675081794
 20
16.6579144686
 10
20.9791199215
 20
16.599295764
 10
20.9897868269
 20
16.5408116519
 10
20.9995073725
 20
16.4824632701
 10
21.0082797568
 20
16.4242452189
 10
21.0160988901
 20
16.3661649728
 10
21.0229551154
 20
16.3082635891
 10
21.0288397841
 20
16.2505854176
 10
21.0337472024
 20
16.1931568079
 10
21.0376723867
 20
16.1359988587
 10
21.040609789
 20
16.0791467892
 10
21.0425549375
 20
16.0226337453
 10
21.0435044346
 20
15.9664727769
 10
21.043454301
 20
15.9106682305
 10
21.0423989871
 20
15.8552098007
 10
21.0403337999
 20
15.8001547686
 10
21.0372597826
 20
15.7456063233
 10
21.0331813564
 20
15.6916321428
 10
21.0280968854
 20
15.6382049366
 10
21.021999517
 20
15.585284078
 10
21.0148772905
 20
15.5328272337
 10
21.0067347338
 20
15.4809222145
 10
20.997594099
 20
15.4297200968
 10
20.9874738738
 20
15.3792985172
 10
20.9763694246
 20
15.3296120162
 10
20.9642728534
 20
15.2806235588
 10
20.951173337
 20
15.2323034813
 10
20.9370855588
 20
15.1847198387
 10
20.9220424594
 20
15.1379797142
 10
20.9060607702
 20
15.0921182321
 10
20.8891430264
 20
15.0471273591
 10
20.8713083111
 20
15.0030435888
 10
20.8525722939
 20
14.9598889961
 10
20.8329424757
 20
14.917665403
 10
20.812427186
 20
14.8763780078
 10
20.791018323
 20
14.83600297
 10
20.7687460197
 20
14.7965901285
 10
20.745683209
 20
14.7582491102
 10
20.7218903062
 20
14.7210467373
 10
20.6973494789
 20
14.6849229124
 10
20.6720177765
 20
14.6497968934
 10
20.645877851
 20
14.6156391848
 10
20.6189747682
 20
14.5825034038
 10
20.5913570977
 20
14.5504372667
 10
20.5630599329
 20
14.5194648148
 10
20.5340878096
 20
14.4895747007
 10
20.5044465253
 20
14.460759684
 10
20.4741584823
 20
14.4330295385
 10
20.4432412373
 20
14.4063884844
 10
20.4116920225
 20
14.3808244142
 10
20.379522721
 20
14.3563396015
 10
20.3467612171
 20
14.3329478787
 10
20.313428237
 20
14.3106560597
  0
LINE
  5
364
100
AcDbEntity
  8
218140040
100
AcDbLine
 62
250
  6
CONTINUOUS
 10
18.7034407752
 20
20.982732838
 11
18.3605431993
 21
21.5741436736
  0
LWPOLYLINE
  5
365
100
AcDbEntity
  8
218140040
100
AcDbPolyline
 62
250
  6
CONTINUOUS
 90
25
 70
0
 10
12.2616684372
 20
24.8632830278
 10
12.2464207356
 20
24.8700888519
 10
12.2308576626
 20
24.8762227836
 10
12.2149907752
 20
24.8816802679
 10
12.1988318564
 20
24.886457252
 10
12.1823929059
 20
24.8905501885
 10
12.1656861314
 20
24.8939560379
 10
12.1487239393
 20
24.8966722711
 10
12.1315189259
 20
24.8986968709
 10
12.1140838677
 20
24.9000283339
 10
12.0964317121
 20
24.9006656714
 10
12.0785755678
 20
24.90060841
 10
12.0605286946
 20
24.8998565922
 10
12.0423044945
 20
24.8984107765
 10
12.0239165006
 20
24.8962720363
 10
12.0053783682
 20
24.89344196
 10
11.9867038637
 20
24.8899226493
 10
11.9679068548
 20
24.8857167175
 10
11.9490013005
 20
24.880827288
 10
11.9300012399
 20
24.8752579918
 10
11.9109207827
 20
24.8690129645
 10
11.8917740981
 20
24.8620968439
 10
11.8725754046
 20
24.8545147659
 10
11.8533389592
 20
24.8462723609
 10
11.834079047
 20
24.8373757498
  0
LINE
  5
366
100
AcDbEntity
  8
218140040
100
AcDbLine
 62
7
  6
CONTINUOUS
 10
13.9181945487
 20
23.2972245135
 11
17.0270101195
 21
21.7428167281
  0
LINE
  5
367
100
AcDbEntity
  8
218140040
100
AcDbLine
 62
250
  6
CONTINUOUS
 10
18.3605431993
 20
21.5741436736
 11
17.5352967316
 21
21.9867669075
  0
LWPOLYLINE
  5
368
100
AcDbEntity
  8
218140040
100
AcDbPolyline
 62
250
  6
CONTINUOUS
 90
26
 70
0
 10
12.8748455488
 20
24.3169924989
 10
11.8149371147
 20
24.8469459909
 10
11.7958003451
 20
24.8558469911
 10
11.7766832649
 20
24.8640719937
 10
11.7576003856
 20
24.8716147551
 10
11.7385661928
 20
24.8784695497
 10
11.7195951353
 20
24.8846311741
 10
11.7007016139
 20
24.8900949511
 10
11.6818999704
 20
24.8948567331
 10
11.663204477
 20
24.8989129055
 10
11.6446293253
 20
24.9022603893
 10
11.6261886155
 20
24.9048966434
 10
11.6078963459
 20
24.9068196668
 10
11.5897664019
 20
24.9080279996
 10
11.5718125458
 20
24.9085207246
 10
11.5540484063
 20
24.9082974678
 10
11.5364874679
 20
24.9073583987
 10
11.519143061
 20
24.9057042301
 10
11.5020283516
 20
24.9033362176
 10
11.4851563314
 20
24.9002561589
 10
11.4685398076
 20
24.8964663919
 10
11.4521913939
 20
24.8919697934
 10
11.4361235001
 20
24.8867697768
 10
11.4203483233
 20
24.8808702894
 10
11.4048778382
 20
24.8742758093
 10
11.4024596219
 20
24.8731694561
  0
LINE
  5
369
100
AcDbEntity
  8
218140040
100
AcDbLine
 62
7
  6
CONTINUOUS
 10
18.7294415818
 20
21.6294942523
 11
17.8820028424
 21
22.053213622
  0
LINE
  5
36A
100
AcDbEntity
  8
218140040
100
AcDbLine
 62
7
  6
CONTINUOUS
 10
13.3978851991
 20
24.2952724436
 11
12.2689519275
 21
24.8597390794
  0
LWPOLYLINE
  5
36B
100
AcDbEntity
  8
218140040
100
AcDbPolyline
 62
7
  6
CONTINUOUS
 90
12
 70
0
 10
18.7294420502
 20
21.629494018
 10
18.7353754885
 20
21.6263726974
 10
18.7425414667
 20
21.6221602783
 10
18.7493992362
 20
21.6176196495
 10
18.755945079
 20
21.6127553577
 10
18.7621821138
 20
21.6075686754
 10
18.7681067378
 20
21.6020644548
 10
18.7737155977
 20
21.5962476123
 10
18.7790123493
 20
21.5901196505
 10
18.783993776
 20
21.5836857596
 10
18.7886568876
 20
21.5769511918
 10
18.7932331133
 20
21.5695271246
  0
LWPOLYLINE
  5
36C
100
AcDbEntity
  8
218140040
100
AcDbPolyline
 62
250
  6
CONTINUOUS
 90
104
 70
0
 10
19.3982514506
 20
19.1086779327
 10
19.4080677456
 20
19.1008084239
 10
19.4502240051
 20
19.0658601695
 10
19.4921339696
 20
19.0299573654
 10
19.5337792804
 20
18.9931157391
 10
19.5751416908
 20
18.9553514322
 10
19.6162030734
 20
18.916680995
 10
19.6569454344
 20
18.8771213734
 10
19.697350922
 20
18.8366899008
 10
19.737401829
 20
18.7954042957
 10
19.7770806
 20
18.7532826548
 10
19.8163698429
 20
18.7103434416
 10
19.8552523464
 20
18.6666054668
 10
19.8937110822
 20
18.6220878851
 10
19.9317292058
 20
18.5768101936
 10
19.969290049
 20
18.5307922424
 10
20.0063771378
 20
18.4840542146
 10
20.04297421
 20
18.4366166059
 10
20.0790652404
 20
18.3885001899
 10
20.1146344323
 20
18.3397260264
 10
20.1496662121
 20
18.2903154691
 10
20.1841452147
 20
18.2402901873
 10
20.2180563101
 20
18.1896721332
 10
20.2513846243
 20
18.1384835113
 10
20.2841155686
 20
18.0867467306
 10
20.3162348236
 20
18.0344844252
 10
20.3477283294
 20
17.9817194696
 10
20.3785822687
 20
17.9284750109
 10
20.4087830971
 20
17.8747744224
 10
20.4383175656
 20
17.8206412657
 10
20.4671727496
 20
17.7660992337
 10
20.4953360287
 20
17.711172181
 10
20.5227950763
 20
17.6558841447
 10
20.5495378428
 20
17.6002593827
 10
20.5755525862
 20
17.5443223181
 10
20.6008278934
 20
17.4880974956
 10
20.625352705
 20
17.431609521
 10
20.6491162958
 20
17.3748830978
 10
20.6721082646
 20
17.3179430502
 10
20.6943185213
 20
17.260814362
 10
20.7157373142
 20
17.2035221161
 10
20.7363552472
 20
17.1460914506
 10
20.7561632988
 20
17.0885474996
 10
20.7751528056
 20
17.0309154315
 10
20.7933154547
 20
16.9732204698
 10
20.8106432759
 20
16.9154879271
 10
20.8271286629
 20
16.857743146
 10
20.8427643852
 20
16.8000114585
 10
20.8575436006
 20
16.7423181344
 10
20.8714598428
 20
16.6846884154
 10
20.8845070185
 20
16.6271475302
 10
20.8966794032
 20
16.5697207181
 10
20.9079716559
 20
16.5124331775
 10
20.9183788253
 20
16.4553100321
 10
20.927896356
 20
16.3983762926
 10
20.9365200821
 20
16.3416568802
 10
20.9442462259
 20
16.285176634
 10
20.951071399
 20
16.2289603194
 10
20.9569926079
 20
16.1730325903
 10
20.9620072575
 20
16.1174179646
 10
20.966113152
 20
16.0621408019
 10
20.9693084933
 20
16.0072253128
 10
20.9715918809
 20
15.9526955563
 10
20.9729623139
 20
15.8985754326
 10
20.9734191914
 20
15.844888661
 10
20.9729623134
 20
15.7916587672
 10
20.9715918799
 20
15.7389090766
 10
20.9693084918
 20
15.6866627079
 10
20.9661131501
 20
15.6349425604
 10
20.9620072551
 20
15.5837712926
 10
20.956992605
 20
15.533171317
 10
20.9510713956
 20
15.4831647971
 10
20.9442462221
 20
15.4337736558
 10
20.9365200777
 20
15.3850195537
 10
20.9278963512
 20
15.3369238677
 10
20.91837882
 20
15.2895076594
 10
20.9079716501
 20
15.2427916838
 10
20.896679397
 20
15.1967963963
 10
20.8845070118
 20
15.1515419694
 10
20.8714598357
 20
15.1070482603
 10
20.857543593
 20
15.0633347839
 10
20.8427643772
 20
15.0204206755
 10
20.8271286543
 20
14.9783247108
 10
20.8106432669
 20
14.9370653173
 10
20.7933154453
 20
14.8966605965
 10
20.7751527958
 20
14.8571282844
 10
20.7561632886
 20
14.8184857234
 10
20.7363552364
 20
14.7807498244
 10
20.7157373029
 20
14.7439370923
 10
20.6943185096
 20
14.70806364
 10
20.6721082527
 20
14.6731452093
 10
20.6491162836
 20
14.6391971312
 10
20.6253526923
 20
14.6062342991
 10
20.60082788
 20
14.5742711364
 10
20.5755525723
 20
14.5433216216
 10
20.5495378287
 20
14.5133993012
 10
20.5227950621
 20
14.4845173066
 10
20.4953360142
 20
14.4566883187
 10
20.4671727346
 20
14.4299245455
 10
20.43831755
 20
14.4042376977
 10
20.4087830809
 20
14.3796390101
 10
20.3785822523
 20
14.3561392508
 10
20.3477283131
 20
14.3337487322
 10
20.3134282375
 20
14.3106560601
  0
LINE
  5
36D
100
AcDbEntity
  8
218140040
100
AcDbLine
 62
7
  6
CONTINUOUS
 10
19.056284024
 20
21.1158311955
 11
18.7932329185
 21
21.5695272407
  0
ELLIPSE
  5
36E
100
AcDbEntity
  8
RACCORDO
100
AcDbEllipse
 62
7
  6
CONTINUOUS
 10
-12.5498006795
 20
21.3053169186
 30
0.0
 11
-0.2716726995
 21
0.7530237501
 31
0.0
 40
0.6646099453
 41
-0.0139534282
 42
0.0324370492
  0
ELLIPSE
  5
36F
100
AcDbEntity
  8
RACCORDO
100
AcDbEllipse
 62
7
  6
CONTINUOUS
 10
2.0162111876
 20
14.0223109851
 30
0.0
 11
-0.2710740036
 21
0.7526923785
 31
0.0
 40
0.6654654822
 41
-2.1795603407
 42
-0.7859607234
  0
ELLIPSE
  5
370
100
AcDbEntity
  8
RACCORDO
100
AcDbEllipse
 62
7
  6
CONTINUOUS
 10
-1.3537135099
 20
-23.8874809115
 30
0.0
 11
-0.2716726995
 21
0.7530237501
 31
0.0
 40
0.6646099453
 41
-3.1740297134
 42
-2.1808564731
  0
ELLIPSE
  5
371
100
AcDbEntity
  8
218140040
100
AcDbEllipse
 62
7
  6
CONTINUOUS
 10
11.6571965193
 20
20.2153131716
 30
0.0
 11
2.7499924258
 21
-0.0130015067
 31
0.0
 40
0.4964289597
 41
2.3672681657
 42
2.9293761949
  0
ELLIPSE
  5
372
100
AcDbEntity
  8
218140040
100
AcDbEllipse
 62
7
  6
CONTINUOUS
 10
13.2172585949
 20
23.2675517569
 30
0.0
 11
0.4410298232
 21
0.8975092442
 31
0.0
 40
0.607010042
 41
-0.8902711325
 42
-0.7587130969
  0
ELLIPSE
  5
373
100
AcDbEntity
  8
218140040
100
AcDbEllipse
 62
7
  6
CONTINUOUS
 10
12.3289479614
 20
20.1133897218
 30
0.0
 11
2.7583876426
 21
-0.0130411979
 31
0.0
 40
0.4964289597
 41
0.8884696282
 42
2.3585415194
  0
ELLIPSE
  5
374
100
AcDbEntity
  8
218140040
100
AcDbEllipse
 62
7
  6
CONTINUOUS
 10
12.3289479614
 20
20.1133897218
 30
0.0
 11
2.7583876426
 21
-0.0130411979
 31
0.0
 40
0.4964289597
 41
0.4412294433
 42
0.6870207571
  0
ELLIPSE
  5
375
100
AcDbEntity
  8
218140040
100
AcDbEllipse
 62
7
  6
CONTINUOUS
 10
17.1146466655
 20
21.3188577216
 30
0.0
 11
0.79574694
 21
0.7129684349
 31
0.0
 40
0.2882345029
 41
0.1134874795
 42
0.7807533904
  0
ELLIPSE
  5
376
100
AcDbEntity
  8
218140040
100
AcDbEllipse
 62
7
  6
CONTINUOUS
 10
12.3289479614
 20
22.0938778344
 30
0.0
 11
2.7583515655
 21
-1.4175703156
 31
0.0
 40
0.0109499087
 41
-0.8804952881
 42
-0.85781018
  0
ELLIPSE
  5
377
100
AcDbEntity
  8
218140040
100
AcDbEllipse
 62
7
  6
CONTINUOUS
 10
12.3289479614
 20
22.0938778344
 30
0.0
 11
2.7583515655
 21
-1.4175703156
 31
0.0
 40
0.0109499087
 41
-0.7017315251
 42
-0.679046417
  0
ELLIPSE
  5
378
100
AcDbEntity
  8
218140040
100
AcDbEllipse
 62
7
  6
CONTINUOUS
 10
12.3289479614
 20
20.5464024236
 30
0.0
 11
2.7583876426
 21
-0.0130411979
 31
0.0
 40
0.4964289597
 41
0.1877225706
 42
2.3585415194
  0
ELLIPSE
  5
379
100
AcDbEntity
  8
218140040
100
AcDbEllipse
 62
7
  6
CONTINUOUS
 10
11.6336634311
 20
21.4425254071
 30
0.0
 11
3.3022643479
 21
-0.04629945
 31
0.0
 40
0.4892378494
 41
2.3616770883
 42
5.5059722822
  0
ELLIPSE
  5
37A
100
AcDbEntity
  8
218140040
100
AcDbEllipse
 62
7
  6
CONTINUOUS
 10
13.270814185
 20
23.2407739619
 30
0.0
 11
-0.3106730325
 21
1.1082908718
 31
0.0
 40
0.6760995073
 41
4.9783291412
 42
6.4001141399
  0
ELLIPSE
  5
37B
100
AcDbEntity
  8
268140000
100
AcDbEllipse
 62
7
  6
CONTINUOUS
 10
0.2113227746
 20
-24.2311602435
 30
0.0
 11
0.110769438
 21
0.2241226716
 31
0.0
 40
0.6088015717
 41
-4.0304836828
 42
-3.1444065583
  0
ELLIPSE
  5
37C
100
AcDbEntity
  8
268140000
100
AcDbEllipse
 62
7
  6
CONTINUOUS
 10
-13.1529953898
 20
24.0039743718
 30
0.0
 11
0.110769438
 21
0.2241226716
 31
0.0
 40
0.6088015717
 41
-4.0304836828
 42
-3.144406558
  0
ELLIPSE
  5
37D
100
AcDbEntity
  8
268140000
100
AcDbEllipse
 62
7
  6
CONTINUOUS
 10
0.2113227746
 20
17.3218152896
 30
0.0
 11
0.110769438
 21
0.2241226716
 31
0.0
 40
0.6088015717
 41
-4.0304836828
 42
-3.144406558
  0
ELLIPSE
  5
37E
100
AcDbEntity
  8
268140000
100
AcDbEllipse
 62
7
  6
CONTINUOUS
 10
4.2679306559
 20
16.0300972405
 30
0.0
 11
-0.1565168911
 21
0.3130623908
 31
0.0
 40
0.6123677712
 41
-2.2554744912
 42
-0.6846781644
  0
ELLIPSE
  5
37F
100
AcDbEntity
  8
268140000
100
AcDbEllipse
 62
7
  6
CONTINUOUS
 10
4.2679306559
 20
-22.1464846042
 30
0.0
 11
-0.1565168911
 21
0.3130623908
 31
0.0
 40
0.6123677712
 41
-3.1363565269
 42
-2.2554744912
  0
ELLIPSE
  5
380
100
AcDbEntity
  8
268140000
100
AcDbEllipse
 62
7
  6
CONTINUOUS
 10
-1.4986648926
 20
25.1353285456
 30
0.0
 11
0.2999991737
 21
-0.0014183462
 31
0.0
 40
0.4964289597
 41
0.7877451926
 42
2.3527237553
  0
ELLIPSE
  5
381
100
AcDbEntity
  8
268140000
100
AcDbEllipse
 62
7
  6
CONTINUOUS
 10
4.0557986216
 20
22.3580967886
 30
0.0
 11
0.2999991737
 21
-0.0014183462
 31
0.0
 40
0.4964289597
 41
0.7877451926
 42
2.3585415194
  0
ELLIPSE
  5
382
100
AcDbEntity
  8
268140000
100
AcDbEllipse
 62
7
  6
CONTINUOUS
 10
3.5951507571
 20
16.6476682514
 30
0.0
 11
0.110769438
 21
0.2241226716
 31
0.0
 40
0.6088015717
 41
1.2055040732
 42
2.2526937431
  0
ELLIPSE
  5
383
100
AcDbEntity
  8
268140000
100
AcDbEllipse
 62
7
  6
CONTINUOUS
 10
-9.7691674074
 20
23.3298273336
 30
0.0
 11
0.110769438
 21
0.2241226716
 31
0.0
 40
0.6088015717
 41
1.2055040732
 42
2.2526937431
  0
ELLIPSE
  5
384
100
AcDbEntity
  8
268140000
100
AcDbEllipse
 62
7
  6
CONTINUOUS
 10
3.9466472342
 20
17.5754734034
 30
0.0
 11
0.110769438
 21
0.2241226716
 31
0.0
 40
0.6088015717
 41
-1.9360885804
 42
-0.8888910292
  0
ELLIPSE
  5
385
100
AcDbEntity
  8
268140000
100
AcDbEllipse
 62
7
  6
CONTINUOUS
 10
2.3264723778
 20
18.6464898079
 30
0.0
 11
0.1128509832
 21
0.2230818409
 31
0.0
 40
0.6159267166
 41
0.0028868672
 42
0.6817883054
  0
ELLIPSE
  5
386
100
AcDbEntity
  8
268140000
100
AcDbEllipse
 62
7
  6
CONTINUOUS
 10
0.2113227746
 20
17.5751866833
 30
0.0
 11
0.110769438
 21
0.2241226716
 31
0.0
 40
0.6088015717
 41
0.6877230618
 42
2.2527016244
  0
ELLIPSE
  5
387
100
AcDbEntity
  8
268140000
100
AcDbEllipse
 62
7
  6
CONTINUOUS
 10
-9.4176709302
 20
24.2576324856
 30
0.0
 11
0.110769438
 21
0.2241226716
 31
0.0
 40
0.6088015717
 41
-1.9360885804
 42
-0.8888910292
  0
ELLIPSE
  5
388
100
AcDbEntity
  8
268140000
100
AcDbEllipse
 62
7
  6
CONTINUOUS
 10
-11.0378457866
 20
25.3286488901
 30
0.0
 11
0.1128509832
 21
0.2230818409
 31
0.0
 40
0.6159267166
 41
0.0028868672
 42
0.6817883054
  0
ELLIPSE
  5
389
100
AcDbEntity
  8
268140000
100
AcDbEllipse
 62
7
  6
CONTINUOUS
 10
-13.1529953898
 20
24.2573457656
 30
0.0
 11
0.110769438
 21
0.2241226716
 31
0.0
 40
0.6088015717
 41
0.6877230618
 42
2.2527016244
  0
ELLIPSE
  5
38A
100
AcDbEntity
  8
268140000
100
AcDbEllipse
 62
7
  6
CONTINUOUS
 10
3.9466472342
 20
-23.9850597124
 30
0.0
 11
0.110769438
 21
0.2241226716
 31
0.0
 40
0.6088015717
 41
-2.4538695918
 42
-0.8888910292
  0
ELLIPSE
  5
38B
100
AcDbEntity
  8
268140000
100
AcDbEllipse
 62
7
  6
CONTINUOUS
 10
0.2113227746
 20
-23.9777888498
 30
0.0
 11
0.110769438
 21
0.2241226716
 31
0.0
 40
0.6088015717
 41
1.2055040732
 42
2.2527016244
  0
ELLIPSE
  5
38C
100
AcDbEntity
  8
268140000
100
AcDbEllipse
 62
7
  6
CONTINUOUS
 10
3.9466472342
 20
-23.724130736
 30
0.0
 11
0.110769438
 21
0.2241226716
 31
0.0
 40
0.6088015717
 41
5.394294278
 42
6.4414918292
  0
ELLIPSE
  5
38D
100
AcDbEntity
  8
268140000
100
AcDbEllipse
 62
7
  6
CONTINUOUS
 10
-9.4176709302
 20
24.518561462
 30
0.0
 11
0.110769438
 21
0.2241226716
 31
0.0
 40
0.6088015717
 41
5.394294278
 42
6.9592728406
  0
ELLIPSE
  5
38E
100
AcDbEntity
  8
268140000
100
AcDbEllipse
 62
7
  6
CONTINUOUS
 10
3.9466472342
 20
17.8364023797
 30
0.0
 11
0.110769438
 21
0.2241226716
 31
0.0
 40
0.6088015717
 41
5.394294278
 42
6.9592728406
  0
ELLIPSE
  5
38F
100
AcDbEntity
  8
268140000
100
AcDbEllipse
 62
7
  6
CONTINUOUS
 10
-1.3182129155
 20
23.8132683757
 30
0.0
 11
0.2999981629
 21
-0.0021225547
 31
0.0
 40
0.4946372042
 41
-0.7818985079
 42
0.0034996555
  0
ELLIPSE
  5
390
100
AcDbEntity
  8
268140000
100
AcDbEllipse
 62
7
  6
CONTINUOUS
 10
4.2362505987
 20
21.0360366186
 30
0.0
 11
0.2999981629
 21
-0.0021225547
 31
0.0
 40
0.4946372042
 41
-0.7760807437
 42
0.0034996555
  0
ELLIPSE
  5
391
100
AcDbEntity
  8
268140000
100
AcDbEllipse
 62
7
  6
CONTINUOUS
 10
-7.4671586429
 20
22.2151471777
 30
0.0
 11
0.2999991335
 21
0.0014318851
 31
0.0
 40
0.5035541159
 41
8.6427941204
 42
10.207772683
  0
ELLIPSE
  5
392
100
AcDbEntity
  8
268140000
100
AcDbEllipse
 62
7
  6
CONTINUOUS
 10
1.7930569218
 20
-23.3725849375
 30
0.0
 11
-0.1565168911
 21
0.3130623908
 31
0.0
 40
0.6123677712
 41
2.4569144891
 42
4.0277108159
  0
ELLIPSE
  5
393
100
AcDbEntity
  8
268140000
100
AcDbEllipse
 62
7
  6
CONTINUOUS
 10
-13.4804495519
 20
22.4180770764
 30
0.0
 11
-0.1565168911
 21
0.3130623908
 31
0.0
 40
0.6123677712
 41
-0.6846781644
 42
0.8861181623
  0
ELLIPSE
  5
394
100
AcDbEntity
  8
268140000
100
AcDbEllipse
 62
7
  6
CONTINUOUS
 10
1.7930569218
 20
14.7813238396
 30
0.0
 11
-0.1565168911
 21
0.3130623908
 31
0.0
 40
0.6123677712
 41
-2.2554744912
 42
-0.6846781644
  0
ELLIPSE
  5
395
100
AcDbEntity
  8
268140000
100
AcDbEllipse
 62
7
  6
CONTINUOUS
 10
-1.6746495749
 20
19.3188926437
 30
0.0
 11
0.2999991335
 21
0.0014318851
 31
0.0
 40
0.5035541159
 41
-2.3585979313
 42
-0.7936193687
  0
ELLIPSE
  5
396
100
AcDbEntity
  8
268140000
100
AcDbEllipse
 62
7
  6
CONTINUOUS
 10
-1.6746495749
 20
18.1046935678
 30
0.0
 11
0.2999980272
 21
0.0021530184
 31
0.0
 40
0.5053247124
 41
-2.3598210761
 42
-0.7948425135
  0
ELLIPSE
  5
397
100
AcDbEntity
  8
268140000
100
AcDbEllipse
 62
7
  6
CONTINUOUS
 10
-7.4671586429
 20
21.0009481019
 30
0.0
 11
0.2999980272
 21
0.0021530184
 31
0.0
 40
0.5053247124
 41
3.1379660677
 42
3.9233642311
  0
ELLIPSE
  5
398
100
AcDbEntity
  8
268140000
100
AcDbEllipse
 62
7
  6
CONTINUOUS
 10
4.2362505987
 20
22.2678708
 30
0.0
 11
0.2999991737
 21
-0.0014183462
 31
0.0
 40
0.4964289597
 41
-0.77723337
 42
0.7877451926
  0
ELLIPSE
  5
399
100
AcDbEntity
  8
268140000
100
AcDbEllipse
 62
7
  6
CONTINUOUS
 10
-1.3182129155
 20
25.0451025571
 30
0.0
 11
0.2999991737
 21
-0.0014183462
 31
0.0
 40
0.4964289597
 41
-0.7830511342
 42
0.7877451926
  0
ELLIPSE
  5
39A
100
AcDbEntity
  8
268140000
100
AcDbEllipse
 62
7
  6
CONTINUOUS
 10
3.5951507571
 20
-23.151935888
 30
0.0
 11
0.110769438
 21
0.2241226716
 31
0.0
 40
0.6088015717
 41
2.2527095058
 42
3.2998991756
  0
ELLIPSE
  5
39B
100
AcDbEntity
  8
268140000
100
AcDbEllipse
 62
7
  6
CONTINUOUS
 10
1.8191561503
 20
16.7712699955
 30
0.0
 11
0.1128509832
 21
0.2230818409
 31
0.0
 40
0.6159267166
 41
0.6934238338
 42
2.2584023964
  0
ELLIPSE
  5
39C
100
AcDbEntity
  8
268140000
100
AcDbEllipse
 62
7
  6
CONTINUOUS
 10
1.8191561503
 20
16.5178986018
 30
0.0
 11
0.1128509832
 21
0.2230818409
 31
0.0
 40
0.6159267166
 41
-4.0247829108
 42
-2.9775853596
  0
ELLIPSE
  5
39D
100
AcDbEntity
  8
268140000
100
AcDbEllipse
 62
7
  6
CONTINUOUS
 10
-11.5451620142
 20
23.4534290777
 30
0.0
 11
0.1128509832
 21
0.2230818409
 31
0.0
 40
0.6159267166
 41
0.6934238338
 42
2.2584023964
  0
ELLIPSE
  5
39E
100
AcDbEntity
  8
268140000
100
AcDbEllipse
 62
7
  6
CONTINUOUS
 10
-11.5451620142
 20
23.200057684
 30
0.0
 11
0.1128509832
 21
0.2230818409
 31
0.0
 40
0.6159267166
 41
-4.0247829108
 42
-2.9775853596
  0
ELLIPSE
  5
39F
100
AcDbEntity
  8
268140000
100
AcDbEllipse
 62
7
  6
CONTINUOUS
 10
0.1408506156
 20
-17.9309305707
 30
0.0
 11
-0.542618321
 21
0.8478124368
 31
0.0
 40
0.5451249042
 41
-3.2164266024
 42
-2.3115524019
  0
ELLIPSE
  5
3A0
100
AcDbEntity
  8
268140000
100
AcDbEllipse
 62
7
  6
CONTINUOUS
 10
1.8191561503
 20
-25.0350769313
 30
0.0
 11
0.1128509832
 21
0.2230818409
 31
0.0
 40
0.6159267166
 41
-4.0247829108
 42
-2.4598043482
  0
ELLIPSE
  5
3A1
100
AcDbEntity
  8
268140000
100
AcDbEllipse
 62
7
  6
CONTINUOUS
 10
1.8191561503
 20
-24.7817055376
 30
0.0
 11
0.1128509832
 21
0.2230818409
 31
0.0
 40
0.6159267166
 41
1.2112048452
 42
2.2584023964
  0
ENDSEC
  0
SECTION
  2
OBJECTS
  0
DICTIONARY
  5
C
100
AcDbDictionary
280
0
281
1
  3
ACAD_GROUP
350
D
  3
ACAD_MLINESTYLE
350
17
  3
ACAD_LAYOUT
350
1A
  3
ACAD_PLOTSETTINGS
350
19
  3
ACAD_PLOTSTYLENAME
350
E
  0
DICTIONARY
  5
D
102
{ACAD_REACTORS
330
C
102
}
100
AcDbDictionary
280
0
281
1
  0
ACDBDICTIONARYWDFLT
  5
E
102
{ACAD_REACTORS
330
C
102
}
100
AcDbDictionary
281
1
  3
Normal
350
F
100
AcDbDictionaryWithDefault
340
F
  0
DICTIONARY
  5
17
102
{ACAD_REACTORS
330
C
102
}
100
AcDbDictionary
280
0
281
1
  3
Standard
350
18
  0
DICTIONARY
  5
19
102
{ACAD_REACTORS
330
C
102
}
100
AcDbDictionary
281
1
  0
DICTIONARY
  5
1A
102
{ACAD_REACTORS
330
C
102
}
100
AcDbDictionary
281
1
  3
Model
350
3A2
  3
Layout1
350
3A3
  0
ACDBPLACEHOLDER
  5
F
102
{ACAD_REACTORS
330
E
102
}
  0
MLINESTYLE
  5
18
102
{ACAD_REACTORS
330
17
102
}
100
AcDbMlineStyle
  2
STANDARD
 70
0
  3

 62
256
 51
90.0
 52
90.0
 71
2
 49
0.5
 62
256
  6
BYLAYER
 49
-0.5
 62
256
  6
BYLAYER
  0
LAYOUT
  5
3A2
102
{ACAD_REACTORS
330
1A
102
}
100
AcDbPlotSettings
  1

  2
none_device
  4
ANSI_A_(11.00_x_8.50_Inches)
  6

 40
0.0
 41
0.0
 42
0.0
 43
0.0
 44
279.4
 45
215.9
 46
0.0
 47
0.0
 48
0.0
 49
0.0
140
0.0
141
0.0
142
1.0
143
1.0
 70
1024
 72
1
 73
0
 74
0
  7

 75
0
147
1.0
148
0.0
149
0.0
100
AcDbLayout
  1
Model
 70
0
 71
0
 10
0.0
 20
0.0
 11
279.4
 21
215.9
 12
0.0
 22
0.0
 32
0.0
 14
0.0
 24
0.0
 34
0.0
 15
0.0
 25
0.0
 35
0.0
146
0.0
 13
0.0
 23
0.0
 33
0.0
 16
1.0
 26
0.0
 36
0.0
 17
0.0
 27
1.0
 37
0.0
 76
0
330
22A
345
0
346
0
  0
LAYOUT
  5
3A3
102
{ACAD_REACTORS
330
1A
102
}
100
AcDbPlotSettings
  1

  2
none_device
  4
ANSI_A_(11.00_x_8.50_Inches)
  6

 40
0.0
 41
0.0
 42
0.0
 43
0.0
 44
279.4
 45
215.9
 46
0.0
 47
0.0
 48
0.0
 49
0.0
140
0.0
141
0.0
142
1.0
143
1.0
 70
0
 72
1
 73
0
 74
0
  7

 75
0
147
1.0
148
0.0
149
0.0
100
AcDbLayout
  1
Layout1
 70
0
 71
1
 10
0.0
 20
0.0
 11
279.4
 21
215.9
 12
0.0
 22
0.0
 32
0.0
 14
0.0
 24
0.0
 34
0.0
 15
0.0
 25
0.0
 35
0.0
146
0.0
 13
0.0
 23
0.0
 33
0.0
 16
1.0
 26
0.0
 36
0.0
 17
0.0
 27
1.0
 37
0.0
 76
0
330
22B
345
0
346
0
  0
ENDSEC
  0
EOF
