  0
SECTION
  2
HEADER
  9
$ACADVER
  1
AC1024
  9
$DWGCODEPAGE
  3
ANSI_1252
  9
$EXTMAX
 10
279.4
 20
215.9
 30
0.0
  9
$EXTMIN
 10
0.0
 20
0.0
 30
0.0
  9
$LIMMIN
 10
0.0
 20
0.0
  9
$LIMMAX
 10
279.4
 20
215.9
  9
$VIEWCTR
 10
139.7
 20
107.95
  9
$VIEWSIZE
 40
215.9
  9
$CLAYER
  8
0
  9
$LTSCALE
 40
15.367
  9
$CELTYPE
  6
BYLAYER
  9
$DIMSCALE
 40
1.0
  9
$DIMASZ
 40
3.0
  9
$DIMEXO
 40
0.5
  9
$DIMDLI
 40
10.6172
  9
$DIMEXE
 40
1.5
  9
$DIMCEN
 40
2.5146
  9
$DIMLFAC
 40
1.0
  9
$DIMBLK
  1
_FILLED
  9
$DIMALT
 70
0
  9
$DIMALTF
 40
0.0393700787
  9
$DIMTXT
 40
3.0
  9
$DIMTOL
 70
1
  9
$DIMLIM
 70
0
  9
$DIMTFAC
 40
1.0
  9
$DIMTP
 40
0.01
  9
$DIMTM
 40
0.01
  9
$DIMGAP
 40
0.625
  9
$DIMDSEP
 70
44
  9
$AUNITS
 70
0
  9
$PDMODE
 70
3
  9
$PDSIZE
 40
3.0
  9
$HANDSEED
  5
3CC
  9
$TILEMODE
 70
1
  9
$MEASUREMENT
 70
1
  9
$INSUNITS
 70
4
  0
ENDSEC
  0
SECTION
  2
CLASSES
  0
CLASS
  1
ACDBDICTIONARYWDFLT
  2
AcDbDictionaryWithDefault
  3
AutoCAD 2000
 90
0
 91
1
280
0
281
0
  0
CLASS
  1
ACDBPLACEHOLDER
  2
AcDbPlaceHolder
  3
AutoCAD 2000
 90
0
 91
1
280
0
281
0
  0
CLASS
  1
LAYOUT
  2
AcDbLayout
  3
AutoCAD 2000
 90
0
 91
0
280
0
281
0
  0
ENDSEC
  0
SECTION
  2
TABLES
  0
TABLE
  2
VPORT
  5
8
100
AcDbSymbolTable
 70
2
  0
VPORT
  5
1F4
100
AcDbSymbolTableRecord
100
AcDbViewportTableRecord
  2
*ACTIVE
 70
0
 10
0.0
 20
0.0
 11
1.0
 21
1.0
 12
139.7
 22
107.95
 13
0.0
 23
0.0
 14
1.0
 24
1.0
 15
0.0
 25
0.0
 16
0.0
 26
0.0
 36
1.0
 17
0.0
 27
0.0
 37
0.0
 40
215.9
 41
1.2941176471
 42
50.0
 43
0.0
 44
0.0
 50
0.0
 51
0.0
 71
0
 72
100
 73
1
 74
1
 75
0
 76
0
 77
0
 78
0
  0
ENDTAB
  0
TABLE
  2
LTYPE
  5
5
100
AcDbSymbolTable
 70
6
  0
LTYPE
  5
14
100
AcDbSymbolTableRecord
100
AcDbLinetypeTableRecord
  2
BYBLOCK
 70
0
  3

 72
65
 73
0
 40
0.0
  0
LTYPE
  5
15
100
AcDbSymbolTableRecord
100
AcDbLinetypeTableRecord
  2
BYLAYER
 70
0
  3

 72
65
 73
0
 40
0.0
  0
LTYPE
  5
16
100
AcDbSymbolTableRecord
100
AcDbLinetypeTableRecord
  2
CONTINUOUS
 70
64
  3
Solid line
 72
65
 73
0
 40
0.0
  0
LTYPE
  5
1F5
100
AcDbSymbolTableRecord
100
AcDbLinetypeTableRecord
  2
CENTER
 70
64
  3
____ _ ____ _ ____ _ ____ _ ____ _ ____ _ ____
 72
65
 73
4
 40
0.6
 49
0.375
 74
0
 49
-0.075
 74
0
 49
0.075
 74
0
 49
-0.075
 74
0
  0
LTYPE
  5
1F6
100
AcDbSymbolTableRecord
100
AcDbLinetypeTableRecord
  2
HIDDEN
 70
64
  3
- - - - - - - - - - - - - - - - - - - -
 72
65
 73
2
 40
0.2
 49
0.1
 74
0
 49
-0.1
 74
0
  0
LTYPE
  5
1F7
100
AcDbSymbolTableRecord
100
AcDbLinetypeTableRecord
  2
PHANTOM
 70
64
  3
_____ _ _ _____ _ _ _____ _ _ _____
 72
65
 73
6
 40
0.8
 49
0.45
 74
0
 49
-0.05
 74
0
 49
0.1
 74
0
 49
-0.05
 74
0
 49
0.1
 74
0
 49
-0.05
 74
0
  0
LTYPE
  5
1F8
100
AcDbSymbolTableRecord
100
AcDbLinetypeTableRecord
  2
DOT
 70
64
  3
. . . . . . . . . . . . . . . . . . . .
 72
65
 73
2
 40
0.2
 49
0.1
 74
0
 49
-0.1
 74
0
  0
LTYPE
  5
1F9
100
AcDbSymbolTableRecord
100
AcDbLinetypeTableRecord
  2
DASHED
 70
64
  3
- - - - - - - - - - - - - - - - - - - -
 72
65
 73
2
 40
0.2
 49
0.1
 74
0
 49
-0.1
 74
0
  0
ENDTAB
  0
TABLE
  2
LAYER
  5
2
100
AcDbSymbolTable
 70
36
  0
LAYER
  5
10
100
AcDbSymbolTableRecord
100
AcDbLayerTableRecord
  2
0
 70
0
 62
7
  6
CONTINUOUS
370
-3
390
F
  0
LAYER
  5
1FA
100
AcDbSymbolTableRecord
100
AcDbLayerTableRecord
  2
DEFAULT_1
 70
0
 62
7
  6
CENTER
370
-3
390
F
  0
LAYER
  5
1FB
100
AcDbSymbolTableRecord
100
AcDbLayerTableRecord
  2
DEFAULT_2
 70
0
 62
7
  6
HIDDEN
370
-3
390
F
  0
LAYER
  5
1FC
100
AcDbSymbolTableRecord
100
AcDbLayerTableRecord
  2
DEFAULT_3
 70
0
 62
7
  6
PHANTOM
370
-3
390
F
  0
LAYER
  5
1FD
100
AcDbSymbolTableRecord
100
AcDbLayerTableRecord
  2
218140040
 70
0
 62
7
  6
CONTINUOUS
370
-3
390
F
  0
LAYER
  5
1FE
100
AcDbSymbolTableRecord
100
AcDbLayerTableRecord
  2
260140000
 70
0
 62
7
  6
CONTINUOUS
370
-3
390
F
  0
LAYER
  5
1FF
100
AcDbSymbolTableRecord
100
AcDbLayerTableRecord
  2
268140000
 70
0
 62
7
  6
CONTINUOUS
370
-3
390
F
  0
LAYER
  5
200
100
AcDbSymbolTableRecord
100
AcDbLayerTableRecord
  2
284140000
 70
0
 62
7
  6
CONTINUOUS
370
-3
390
F
  0
LAYER
  5
201
100
AcDbSymbolTableRecord
100
AcDbLayerTableRecord
  2
290140210
 70
0
 62
7
  6
CONTINUOUS
370
-3
390
F
  0
LAYER
  5
202
100
AcDbSymbolTableRecord
100
AcDbLayerTableRecord
  2
320140050
 70
0
 62
7
  6
CONTINUOUS
370
-3
390
F
  0
LAYER
  5
203
100
AcDbSymbolTableRecord
100
AcDbLayerTableRecord
  2
340002230
 70
0
 62
7
  6
CONTINUOUS
370
-3
390
F
  0
LAYER
  5
204
100
AcDbSymbolTableRecord
100
AcDbLayerTableRecord
  2
712140000
 70
0
 62
7
  6
CONTINUOUS
370
-3
390
F
  0
LAYER
  5
205
100
AcDbSymbolTableRecord
100
AcDbLayerTableRecord
  2
715140000
 70
0
 62
7
  6
CONTINUOUS
370
-3
390
F
  0
LAYER
  5
206
100
AcDbSymbolTableRecord
100
AcDbLayerTableRecord
  2
715140040
 70
0
 62
7
  6
CONTINUOUS
370
-3
390
F
  0
LAYER
  5
207
100
AcDbSymbolTableRecord
100
AcDbLayerTableRecord
  2
ASSI
 70
0
 62
7
  6
CONTINUOUS
370
-3
390
F
  0
LAYER
  5
208
100
AcDbSymbolTableRecord
100
AcDbLayerTableRecord
  2
COLORE_TOP
 70
0
 62
7
  6
CONTINUOUS
370
-3
390
F
  0
LAYER
  5
209
100
AcDbSymbolTableRecord
100
AcDbLayerTableRecord
  2
COORDINATE
 70
0
 62
7
  6
CONTINUOUS
370
-3
390
F
  0
LAYER
  5
20A
100
AcDbSymbolTableRecord
100
AcDbLayerTableRecord
  2
COORD_ORIGINE
 70
0
 62
7
  6
CONTINUOUS
370
-3
390
F
  0
LAYER
  5
20B
100
AcDbSymbolTableRecord
100
AcDbLayerTableRecord
  2
COPY-PUBBLISH
 70
0
 62
7
  6
CONTINUOUS
370
-3
390
F
  0
LAYER
  5
20C
100
AcDbSymbolTableRecord
100
AcDbLayerTableRecord
  2
COPY_PUBLISH
 70
0
 62
7
  6
CONTINUOUS
370
-3
390
F
  0
LAYER
  5
20D
100
AcDbSymbolTableRecord
100
AcDbLayerTableRecord
  2
COSMETIC
 70
0
 62
7
  6
CONTINUOUS
370
-3
390
F
  0
LAYER
  5
20E
100
AcDbSymbolTableRecord
100
AcDbLayerTableRecord
  2
COSMETICHE
 70
0
 62
7
  6
CONTINUOUS
370
-3
390
F
  0
LAYER
  5
20F
100
AcDbSymbolTableRecord
100
AcDbLayerTableRecord
  2
CURVA_CENTRALE
 70
0
 62
7
  6
CONTINUOUS
370
-3
390
F
  0
LAYER
  5
210
100
AcDbSymbolTableRecord
100
AcDbLayerTableRecord
  2
CURVE
 70
0
 62
7
  6
CONTINUOUS
370
-3
390
F
  0
LAYER
  5
211
100
AcDbSymbolTableRecord
100
AcDbLayerTableRecord
  2
DRAFT
 70
0
 62
7
  6
CONTINUOUS
370
-3
390
F
  0
LAYER
  5
212
100
AcDbSymbolTableRecord
100
AcDbLayerTableRecord
  2
IMPORT
 70
0
 62
7
  6
CONTINUOUS
370
-3
390
F
  0
LAYER
  5
213
100
AcDbSymbolTableRecord
100
AcDbLayerTableRecord
  2
IMPORTED
 70
0
 62
7
  6
CONTINUOUS
370
-3
390
F
  0
LAYER
  5
214
100
AcDbSymbolTableRecord
100
AcDbLayerTableRecord
  2
IMPORT_IGES
 70
0
 62
7
  6
CONTINUOUS
370
-3
390
F
  0
LAYER
  5
215
100
AcDbSymbolTableRecord
100
AcDbLayerTableRecord
  2
INCISIONI_LASER
 70
0
 62
7
  6
CONTINUOUS
370
-3
390
F
  0
LAYER
  5
216
100
AcDbSymbolTableRecord
100
AcDbLayerTableRecord
  2
INTF_1
 70
0
 62
7
  6
CONTINUOUS
370
-3
390
F
  0
LAYER
  5
217
100
AcDbSymbolTableRecord
100
AcDbLayerTableRecord
  2
INTF_11
 70
0
 62
7
  6
CONTINUOUS
370
-3
390
F
  0
LAYER
  5
218
100
AcDbSymbolTableRecord
100
AcDbLayerTableRecord
  2
INTF_12
 70
0
 62
7
  6
CONTINUOUS
370
-3
390
F
  0
LAYER
  5
219
100
AcDbSymbolTableRecord
100
AcDbLayerTableRecord
  2
INTF_2
 70
0
 62
7
  6
CONTINUOUS
370
-3
390
F
  0
LAYER
  5
21A
100
AcDbSymbolTableRecord
100
AcDbLayerTableRecord
  2
INTF_6
 70
0
 62
7
  6
CONTINUOUS
370
-3
390
F
  0
LAYER
  5
21B
100
AcDbSymbolTableRecord
100
AcDbLayerTableRecord
  2
NOTE
 70
0
 62
7
  6
CONTINUOUS
370
-3
390
F
  0
LAYER
  5
21C
100
AcDbSymbolTableRecord
100
AcDbLayerTableRecord
  2
PIANI
 70
0
 62
7
  6
CONTINUOUS
370
-3
390
F
  0
LAYER
  5
21D
100
AcDbSymbolTableRecord
100
AcDbLayerTableRecord
  2
PIANI_DI_RIFERIMENTO
 70
0
 62
7
  6
CONTINUOUS
370
-3
390
F
  0
LAYER
  5
21E
100
AcDbSymbolTableRecord
100
AcDbLayerTableRecord
  2
PIANI_ORIGINE
 70
0
 62
7
  6
CONTINUOUS
370
-3
390
F
  0
LAYER
  5
21F
100
AcDbSymbolTableRecord
100
AcDbLayerTableRecord
  2
PIANI_RIFERIMENTO
 70
0
 62
7
  6
CONTINUOUS
370
-3
390
F
  0
LAYER
  5
220
100
AcDbSymbolTableRecord
100
AcDbLayerTableRecord
  2
PIANI_SFORMO
 70
0
 62
7
  6
CONTINUOUS
370
-3
390
F
  0
LAYER
  5
221
100
AcDbSymbolTableRecord
100
AcDbLayerTableRecord
  2
PUNTI
 70
0
 62
7
  6
CONTINUOUS
370
-3
390
F
  0
LAYER
  5
222
100
AcDbSymbolTableRecord
100
AcDbLayerTableRecord
  2
RACCORDO
 70
0
 62
7
  6
CONTINUOUS
370
-3
390
F
  0
LAYER
  5
223
100
AcDbSymbolTableRecord
100
AcDbLayerTableRecord
  2
RGB__255__255__255__
 70
0
 62
7
  6
CONTINUOUS
370
-3
390
F
  0
LAYER
  5
224
100
AcDbSymbolTableRecord
100
AcDbLayerTableRecord
  2
RINTRACCIABILITA
 70
0
 62
7
  6
CONTINUOUS
370
-3
390
F
  0
LAYER
  5
225
100
AcDbSymbolTableRecord
100
AcDbLayerTableRecord
  2
SMUSSO
 70
0
 62
7
  6
CONTINUOUS
370
-3
390
F
  0
LAYER
  5
226
100
AcDbSymbolTableRecord
100
AcDbLayerTableRecord
  2
SNAPLINE
 70
0
 62
7
  6
CONTINUOUS
370
-3
390
F
  0
LAYER
  5
227
100
AcDbSymbolTableRecord
100
AcDbLayerTableRecord
  2
SUPERFICI
 70
0
 62
7
  6
CONTINUOUS
370
-3
390
F
  0
LAYER
  5
228
100
AcDbSymbolTableRecord
100
AcDbLayerTableRecord
  2
TRASH
 70
0
 62
7
  6
CONTINUOUS
370
-3
390
F
  0
LAYER
  5
229
100
AcDbSymbolTableRecord
100
AcDbLayerTableRecord
  2
WHITE
 70
0
 62
7
  6
CONTINUOUS
370
-3
390
F
  0
LAYER
  5
22A
100
AcDbSymbolTableRecord
100
AcDbLayerTableRecord
  2
XSEC_DATUMS
 70
0
 62
7
  6
CONTINUOUS
370
-3
390
F
  0
ENDTAB
  0
TABLE
  2
STYLE
  5
3
100
AcDbSymbolTable
 70
1
  0
STYLE
  5
11
100
AcDbSymbolTableRecord
100
AcDbTextStyleTableRecord
  2
STANDARD
 70
0
 40
0.0
 41
0.8
 50
0.0
 71
0
 42
0.2
  3
txt
  4

  0
STYLE
  5
22B
100
AcDbSymbolTableRecord
100
AcDbTextStyleTableRecord
  2
TEXTSTYLE_1
 70
0
 40
0.0
 41
0.8
 50
0.0
 71
0
 42
0.2
  3
gdt
  4

  0
ENDTAB
  0
TABLE
  2
VIEW
  5
6
100
AcDbSymbolTable
 70
0
  0
ENDTAB
  0
TABLE
  2
UCS
  5
7
100
AcDbSymbolTable
 70
0
  0
ENDTAB
  0
TABLE
  2
APPID
  5
9
100
AcDbSymbolTable
 70
1
  0
APPID
  5
22C
100
AcDbSymbolTableRecord
100
AcDbRegAppTableRecord
  2
ACAD
 70
0
  0
ENDTAB
  0
TABLE
  2
BLOCK_RECORD
  5
1
100
AcDbSymbolTable
 70
0
  0
BLOCK_RECORD
  5
22D
100
AcDbSymbolTableRecord
100
AcDbBlockTableRecord
  2
*Model_Space
  0
BLOCK_RECORD
  5
22E
100
AcDbSymbolTableRecord
100
AcDbBlockTableRecord
  2
*Paper_Space
  0
BLOCK_RECORD
  5
22F
100
AcDbSymbolTableRecord
100
AcDbBlockTableRecord
  2
_FILLED
  0
ENDTAB
  0
TABLE
  2
DIMSTYLE
  5
A
100
AcDbSymbolTable
 70
1
100
AcDbDimStyleTable
 71
0
  0
DIMSTYLE
105
230
100
AcDbSymbolTableRecord
100
AcDbDimStyleTableRecord
  2
STANDARD
 70
0
  3

  4

 40
1.0
 41
3.0
 42
0.5
 43
0.38
 44
1.5
 45
0.0
 46
0.0
 47
0.01
 48
0.01
140
3.0
141
0.09
142
0.0
143
25.4
144
1.0
145
0.0
146
1.0
147
0.625
 71
1
 72
0
 73
0
 74
0
 75
0
 76
0
 77
1
 78
8
 79
2
170
0
171
1
172
0
173
0
174
0
175
0
176
0
177
0
178
0
270
2
179
2
271
2
272
2
273
2
274
2
275
0
280
0
281
0
282
0
283
1
284
8
285
0
286
0
287
3
288
0
340
11
278
44
341
22F
342
22F
343
22F
344
22F
  0
ENDTAB
  0
ENDSEC
  0
SECTION
  2
BLOCKS
  0
BLOCK
  5
20
100
AcDbEntity
  8
0
100
AcDbBlockBegin
  2
*Model_Space
 70
0
 10
0.0
 20
0.0
 30
0.0
  3
*Model_Space
  1

  0
ENDBLK
  5
21
100
AcDbEntity
  8
0
100
AcDbBlockEnd
  0
BLOCK
  5
1C
100
AcDbEntity
  8
0
100
AcDbBlockBegin
  2
*Paper_Space
 70
0
 10
0.0
 20
0.0
 30
0.0
  3
*Paper_Space
  1

  0
ENDBLK
  5
1D
100
AcDbEntity
  8
0
100
AcDbBlockEnd
  0
BLOCK
  5
231
100
AcDbEntity
  8
0
100
AcDbBlockBegin
  2
_FILLED
 70
64
 10
0.0
 20
0.0
  3
_FILLED
  1

  0
SOLID
  5
232
100
AcDbEntity
  8
0
  6
BYBLOCK
 62
0
100
AcDbTrace
 10
0.0
 20
0.0
 11
-1.0
 21
0.1333333333
 12
-1.0
 22
-0.1333333333
 13
-1.0
 23
-0.1333333333
  0
ENDBLK
  5
233
100
AcDbEntity
  8
0
  6
BYBLOCK
 62
0
100
AcDbBlockEnd
  0
ENDSEC
  0
SECTION
  2
ENTITIES
  0
LINE
  5
234
100
AcDbEntity
  8
268140000
100
AcDbLine
 62
7
  6
CONTINUOUS
 10
-13.302374514
 20
24.3584074586
 11
-11.7196179108
 21
25.1703915559
  0
LINE
  5
235
100
AcDbEntity
  8
268140000
100
AcDbLine
 62
7
  6
CONTINUOUS
 10
-13.7863247756
 20
22.6157095338
 11
-12.7741073422
 21
23.1326370192
  0
LINE
  5
236
100
AcDbEntity
  8
268140000
100
AcDbLine
 62
250
  6
CONTINUOUS
 10
-13.62880622
 20
22.606273727
 11
-12.7741073422
 21
23.0427583469
  0
LINE
  5
237
100
AcDbEntity
  8
268140000
100
AcDbLine
 62
7
  6
CONTINUOUS
 10
-11.6945531049
 20
23.5544967541
 11
-10.0932723141
 21
24.3572187576
  0
LINE
  5
238
100
AcDbEntity
  8
268140000
100
AcDbLine
 62
7
  6
CONTINUOUS
 10
-10.0932723141
 20
24.3572187576
 11
-9.5650051423
 21
24.6206575776
  0
LINE
  5
239
100
AcDbEntity
  8
268140000
100
AcDbLine
 62
7
  6
CONTINUOUS
 10
-11.7196179108
 20
25.1703915559
 11
-11.1851680321
 21
25.4307390225
  0
LWPOLYLINE
  5
23A
100
AcDbEntity
  8
RACCORDO
100
AcDbPolyline
 62
250
  6
CONTINUOUS
 90
14
 70
0
 10
-20.2749644253
 20
-18.6730085456
 10
-20.3336653304
 20
-18.6390169064
 10
-20.3857575246
 20
-18.5999741225
 10
-20.4339520588
 20
-18.5545832009
 10
-20.4780297343
 20
-18.503052708
 10
-20.5177738959
 20
-18.4456257288
 10
-20.5529713815
 20
-18.3825979227
 10
-20.5834398443
 20
-18.3142983021
 10
-20.60902393
 20
-18.2410803225
 10
-20.6295990683
 20
-18.1633040447
 10
-20.6450674702
 20
-18.081347263
 10
-20.6553513599
 20
-17.995615478
 10
-20.6603956822
 20
-17.9065418156
 10
-20.6601737555
 20
-17.8145719823
  0
LINE
  5
23B
100
AcDbEntity
  8
268140000
100
AcDbLine
 62
7
  6
CONTINUOUS
 10
-10.0932723141
 20
22.62516795
 11
-11.1601032262
 21
22.0865867005
  0
LWPOLYLINE
  5
23C
100
AcDbEntity
  8
RACCORDO
100
AcDbPolyline
 62
7
  6
CONTINUOUS
 90
19
 70
0
 10
-16.9042922393
 20
20.0590128195
 10
-16.921913168
 20
20.0516527075
 10
-17.0142949051
 20
20.0079691012
 10
-17.1040632813
 20
19.9569111983
 10
-17.1912251406
 20
19.8985385561
 10
-17.2753884061
 20
19.8331753597
 10
-17.3557894093
 20
19.761521
 10
-17.4324567164
 20
19.6836701566
 10
-17.5052089912
 20
19.599835011
 10
-17.5731171121
 20
19.5111288917
 10
-17.6361496565
 20
19.4177373466
 10
-17.6941510567
 20
19.3198411143
 10
-17.7462736644
 20
19.2189037673
 10
-17.7924540213
 20
19.1151913097
 10
-17.83254962
 20
19.0088751626
 10
-17.865990693
 20
18.9014495498
 10
-17.8926225269
 20
18.7935195771
 10
-17.9124735378
 20
18.6848655235
 10
-17.9169830208
 20
18.652895949
  0
LINE
  5
23D
100
AcDbEntity
  8
RACCORDO
100
AcDbLine
 62
7
  6
CONTINUOUS
 10
-16.9042967641
 20
20.0590238855
 11
-12.9881401265
 21
21.6598293362
  0
LINE
  5
23E
100
AcDbEntity
  8
RACCORDO
100
AcDbLine
 62
250
  6
CONTINUOUS
 10
-16.5521506662
 20
20.0333959059
 11
-12.6399863941
 21
21.6325693639
  0
LWPOLYLINE
  5
23F
100
AcDbEntity
  8
268140000
100
AcDbPolyline
 62
7
  6
CONTINUOUS
 90
3
 70
0
 10
-2.1106986787
 20
25.8455788458
 10
-2.1232636985
 20
25.8408797949
 10
-2.1289144832
 20
25.8382371949
  0
LWPOLYLINE
  5
240
100
AcDbEntity
  8
RACCORDO
100
AcDbPolyline
 62
250
  6
CONTINUOUS
 90
7
 70
0
 10
-16.9041557797
 20
20.0590815511
 10
-16.8464192799
 20
20.0771061775
 10
-16.7904183894
 20
20.0850517862
 10
-16.7323479611
 20
20.0846028106
 10
-16.6728439803
 20
20.0757641678
 10
-16.6125581325
 20
20.0586326583
 10
-16.5521506662
 20
20.0333959059
  0
LWPOLYLINE
  5
241
100
AcDbEntity
  8
268140000
100
AcDbPolyline
 62
7
  6
CONTINUOUS
 90
10
 70
0
 10
-2.1106986787
 20
25.8455788458
 10
-2.1014590579
 20
25.8483246447
 10
-2.092895904
 20
25.8505903632
 10
-2.0850092171
 20
25.8523760013
 10
-2.0777598588
 20
25.8537024059
 10
-2.0711869675
 20
25.85454873
 10
-2.0654079581
 20
25.8548524328
 10
-2.060427001
 20
25.854613097
 10
-2.0562399257
 20
25.8538311398
 10
-2.0536379535
 20
25.852828428
  0
LWPOLYLINE
  5
242
100
AcDbEntity
  8
RACCORDO
100
AcDbPolyline
 62
7
  6
CONTINUOUS
 90
12
 70
0
 10
-6.1408491808
 20
-25.7400522502
 10
-6.1071124423
 20
-25.7562289459
 10
-6.0244777449
 20
-25.7900201696
 10
-5.9388272708
 20
-25.8169940635
 10
-5.8506117291
 20
-25.836897657
 10
-5.7600223036
 20
-25.8495512252
 10
-5.6676081201
 20
-25.8547286092
 10
-5.573988385
 20
-25.8522611102
 10
-5.4793533066
 20
-25.8419873121
 10
-5.3841001642
 20
-25.8237572009
 10
-5.2889322461
 20
-25.7975441487
 10
-5.2712387277
 20
-25.7917717337
  0
LINE
  5
243
100
AcDbEntity
  8
RACCORDO
100
AcDbLine
 62
7
  6
CONTINUOUS
 10
-6.139923622
 20
-25.7405289472
 11
-20.2749642461
 21
-18.6730086352
  0
LINE
  5
244
100
AcDbEntity
  8
RACCORDO
100
AcDbLine
 62
250
  6
CONTINUOUS
 10
-6.5329027141
 20
-24.878207503
 11
-20.6601737555
 21
-17.8145719823
  0
LINE
  5
245
100
AcDbEntity
  8
268140000
100
AcDbLine
 62
7
  6
CONTINUOUS
 10
-9.4781534791
 20
23.999659991
 11
-10.0053981948
 21
23.3579522629
  0
LWPOLYLINE
  5
246
100
AcDbEntity
  8
268140000
100
AcDbPolyline
 62
7
  6
CONTINUOUS
 90
12
 70
0
 10
-2.1289144832
 20
25.8382371949
 10
-2.1354332085
 20
25.8347651295
 10
-2.1472876351
 20
25.8272608563
 10
-2.1589428151
 20
25.818388345
 10
-2.1704384099
 20
25.8082032345
 10
-2.1817297076
 20
25.7967721621
 10
-2.192874774
 20
25.784125136
 10
-2.2039416534
 20
25.7702955998
 10
-2.2148877726
 20
25.755326101
 10
-2.2257350737
 20
25.7392431738
 10
-2.2365735025
 20
25.7220749195
 10
-2.2474578704
 20
25.703856288
  0
LINE
  5
247
100
AcDbEntity
  8
268140000
100
AcDbLine
 62
7
  6
CONTINUOUS
 10
-7.8288778827
 20
22.2056617601
 11
-7.3355558675
 21
22.458745292
  0
LINE
  5
248
100
AcDbEntity
  8
268140000
100
AcDbLine
 62
7
  6
CONTINUOUS
 10
-8.6374913375
 20
22.5968265537
 11
-2.1288448884
 21
25.8382718639
  0
LINE
  5
249
100
AcDbEntity
  8
268140000
100
AcDbLine
 62
250
  6
CONTINUOUS
 10
-8.5619981971
 20
22.5590799835
 11
-2.2474578704
 21
25.703856288
  0
LINE
  5
24A
100
AcDbEntity
  8
268140000
100
AcDbLine
 62
7
  6
CONTINUOUS
 10
-1.2544375492
 20
24.8241127572
 11
-5.9920529832
 21
22.4890622426
  0
LINE
  5
24B
100
AcDbEntity
  8
268140000
100
AcDbLine
 62
7
  6
CONTINUOUS
 10
-7.3355558675
 20
22.458745292
 11
-1.857915878
 21
25.1270772552
  0
LINE
  5
24C
100
AcDbEntity
  8
268140000
100
AcDbLine
 62
7
  6
CONTINUOUS
 10
3.3589199696
 20
-23.4988109587
 11
3.8861646853
 21
-23.6071032306
  0
LINE
  5
24D
100
AcDbEntity
  8
268140000
100
AcDbLine
 62
7
  6
CONTINUOUS
 10
-0.0481868392
 20
-24.5700160505
 11
1.5583456301
 21
-25.3732822852
  0
LINE
  5
24E
100
AcDbEntity
  8
268140000
100
AcDbLine
 62
250
  6
CONTINUOUS
 10
-0.1127821321
 20
-24.4349866022
 11
1.4929943301
 21
-25.2378748333
  0
LWPOLYLINE
  5
24F
100
AcDbEntity
  8
RACCORDO
100
AcDbPolyline
 62
250
  6
CONTINUOUS
 90
9
 70
0
 10
-20.8945053133
 20
-17.5332288167
 10
-20.8931085353
 20
-17.5619428567
 10
-20.8838077028
 20
-17.6014650861
 10
-20.8660536916
 20
-17.6405205118
 10
-20.8400367334
 20
-17.6786906609
 10
-20.8060355958
 20
-17.715566546
 10
-20.764414596
 20
-17.7507530478
 10
-20.7156196967
 20
-17.783873148
 10
-20.660173728
 20
-17.8145719698
  0
LWPOLYLINE
  5
250
100
AcDbEntity
  8
RACCORDO
100
AcDbPolyline
 62
7
  6
CONTINUOUS
 90
15
 70
0
 10
-20.8944957315
 20
-17.5332291059
 10
-20.8952486902
 20
-17.5828278289
 10
-20.8906109841
 20
-17.7008109642
 10
-20.8770498177
 20
-17.8145033048
 10
-20.8549254657
 20
-17.923513368
 10
-20.8245468897
 20
-18.0276867656
 10
-20.7861648449
 20
-18.1268122472
 10
-20.7402397933
 20
-18.2202785448
 10
-20.6871569175
 20
-18.3077691359
 10
-20.6271155382
 20
-18.389175641
 10
-20.5606905174
 20
-18.4638988039
 10
-20.4884791265
 20
-18.5314969975
 10
-20.4107267532
 20
-18.5918578334
 10
-20.3279737027
 20
-18.6445758614
 10
-20.2739243019
 20
-18.6735136138
  0
LINE
  5
251
100
AcDbEntity
  8
RACCORDO
100
AcDbLine
 62
7
  6
CONTINUOUS
 10
-20.8944986682
 20
-17.5330111406
 11
-20.8945053133
 21
-17.5332288167
  0
LWPOLYLINE
  5
252
100
AcDbEntity
  8
RACCORDO
100
AcDbPolyline
 62
250
  6
CONTINUOUS
 90
13
 70
0
 10
-20.6601737555
 20
-17.8145719823
 10
-20.5552266538
 20
-14.8564336149
 10
-20.424144977
 20
-11.8863524356
 10
-20.2669449212
 20
-8.9047014178
 10
-20.0836459345
 20
-5.9118550376
 10
-19.8742709697
 20
-2.9081889884
 10
-19.6388464785
 20
0.1059198672
 10
-19.3774021594
 20
3.1300932339
 10
-19.0899706871
 20
6.1639514076
 10
-18.7765879571
 20
9.2071135632
 10
-18.4372933604
 20
12.2591977523
 10
-18.0721297809
 20
15.3198209495
 10
-17.6811433175
 20
18.3885990795
  0
LWPOLYLINE
  5
253
100
AcDbEntity
  8
RACCORDO
100
AcDbPolyline
 62
250
  6
CONTINUOUS
 90
10
 70
0
 10
-17.9169830208
 20
18.652895949
 10
-17.917495804
 20
18.6482761746
 10
-17.9161606743
 20
18.6158394639
 10
-17.9063355509
 20
18.5826837077
 10
-17.8881257073
 20
18.5491641616
 10
-17.8617262576
 20
18.515639979
 10
-17.8274200649
 20
18.4824703633
 10
-17.7855747116
 20
18.4500107184
 10
-17.7366385599
 20
18.4186088413
 10
-17.6811359482
 20
18.388601195
  0
LWPOLYLINE
  5
254
100
AcDbEntity
  8
RACCORDO
100
AcDbPolyline
 62
7
  6
CONTINUOUS
 90
13
 70
0
 10
-17.9169773842
 20
18.6529843019
 10
-18.30081698
 20
15.6419787185
 10
-18.6675920742
 20
12.5712076737
 10
-19.0083250857
 20
9.5089532026
 10
-19.3229644624
 20
6.4556469002
 10
-19.6114722334
 20
3.4116679434
 10
-19.8738141808
 20
0.3773750626
 10
-20.1099557654
 20
-2.6468587741
 10
-20.3198676676
 20
-5.6606624904
 10
-20.5035226829
 20
-8.6636800115
 10
-20.6608941036
 20
-11.6555368055
 10
-20.7919607817
 20
-14.6358132674
 10
-20.8944986682
 20
-17.5330111406
  0
LWPOLYLINE
  5
255
100
AcDbEntity
  8
RACCORDO
100
AcDbPolyline
 62
250
  6
CONTINUOUS
 90
22
 70
0
 10
-17.6811433175
 20
18.3885990795
 10
-17.665756099
 20
18.4863156784
 10
-17.645256127
 20
18.5850598312
 10
-17.6197477394
 20
18.6843372057
 10
-17.5893635206
 20
18.7836459396
 10
-17.5542551559
 20
18.8824946689
 10
-17.5145899488
 20
18.9804045978
 10
-17.4705601184
 20
19.0769007682
 10
-17.4223914791
 20
19.171485018
 10
-17.3703357778
 20
19.2636556953
 10
-17.3146704099
 20
19.3529351056
 10
-17.2556666701
 20
19.4388992007
 10
-17.1935940183
 20
19.521147018
 10
-17.1287506616
 20
19.5992819642
 10
-17.061474309
 20
19.6728942499
 10
-16.992113132
 20
19.7415933223
 10
-16.9210270511
 20
19.8050299287
 10
-16.8485660584
 20
19.8628982035
 10
-16.7750775911
 20
19.914913537
 10
-16.7009261374
 20
19.9608164557
 10
-16.6264919245
 20
20.0003764858
 10
-16.5521506662
 20
20.0333959059
  0
LINE
  5
256
100
AcDbEntity
  8
268140000
100
AcDbLine
 62
7
  6
CONTINUOUS
 10
0.0726362791
 20
23.3542385237
 11
-1.3251482274
 21
22.6553462704
  0
LINE
  5
257
100
AcDbEntity
  8
218140040
100
AcDbLine
 62
7
  6
CONTINUOUS
 10
-2.4000604418
 20
21.9633030749
 11
-2.3385039237
 21
21.994081334
  0
LINE
  5
258
100
AcDbEntity
  8
218140040
100
AcDbLine
 62
250
  6
CONTINUOUS
 10
-2.315097721
 20
21.9553827183
 11
-2.2490612046
 21
21.9884009765
  0
LWPOLYLINE
  5
259
100
AcDbEntity
  8
218140040
100
AcDbPolyline
 62
7
  6
CONTINUOUS
 90
20
 70
0
 10
-2.4000606361
 20
21.9633029778
 10
-2.3991950915
 20
21.9637269319
 10
-2.3954569004
 20
21.9653649488
 10
-2.3915775429
 20
21.9667601643
 10
-2.3875611063
 20
21.967910994
 10
-2.3834136002
 20
21.9688153321
 10
-2.3791413891
 20
21.9694713361
 10
-2.3747493412
 20
21.9698783694
 10
-2.3702439255
 20
21.9700354263
 10
-2.3656319414
 20
21.9699417663
 10
-2.3609189578
 20
21.9695977138
 10
-2.3561118191
 20
21.9690033815
 10
-2.3512176756
 20
21.9681591425
 10
-2.3462427153
 20
21.9670662723
 10
-2.3411940755
 20
21.9657260047
 10
-2.3360791632
 20
21.9641398222
 10
-2.3309046841
 20
21.9623099208
 10
-2.3256778471
 20
21.9602386653
 10
-2.3204063545
 20
21.9579285978
 10
-2.315097721
 20
21.9553827183
  0
LINE
  5
25A
100
AcDbEntity
  8
268140000
100
AcDbLine
 62
7
  6
CONTINUOUS
 10
-1.678701618
 20
23.384681155
 11
-1.2544375492
 21
23.5922785759
  0
LINE
  5
25B
100
AcDbEntity
  8
268140000
100
AcDbLine
 62
7
  6
CONTINUOUS
 10
0.7316320305
 20
24.2143113375
 11
-1.3251482274
 21
23.2079044597
  0
LWPOLYLINE
  5
25C
100
AcDbEntity
  8
218140040
100
AcDbPolyline
 62
250
  6
CONTINUOUS
 90
55
 70
0
 10
-2.2490612046
 20
21.9884009765
 10
-2.2333100986
 20
21.9960687043
 10
-2.2171806938
 20
22.0035137646
 10
-2.2006729901
 20
22.0107361573
 10
-2.1837736327
 20
22.0177410878
 10
-2.1664959765
 20
22.0245233508
 10
-2.1488800858
 20
22.0310673302
 10
-2.1309254867
 20
22.0373722771
 10
-2.1126326531
 20
22.0434389404
 10
-2.0940430719
 20
22.0492539511
 10
-2.0751561597
 20
22.0548166658
 10
-2.0559724999
 20
22.0601277279
 10
-2.0365353288
 20
22.065175698
 10
-2.0168441684
 20
22.0699599309
 10
-1.9968994966
 20
22.0744810719
 10
-1.9767459841
 20
22.0787296179
 10
-1.9563831721
 20
22.0827049304
 10
-1.9358115193
 20
22.086407648
 10
-1.9150770733
 20
22.0898301831
 10
-1.8941796025
 20
22.0929718675
 10
-1.8731193384
 20
22.0958333693
 10
-1.8519430226
 20
22.0984091055
 10
-1.8306504976
 20
22.1006984169
 10
-1.8092419208
 20
22.1027019626
 10
-1.7877645066
 20
22.1044161372
 10
-1.7662182693
 20
22.1058402849
 10
-1.7446031947
 20
22.1069750614
 10
-1.7229664536
 20
22.1078188283
 10
-1.7013080984
 20
22.1083709462
 10
-1.6796280767
 20
22.1086320544
 10
-1.6579734024
 20
22.1086024327
 10
-1.6363442898
 20
22.1082814566
 10
-1.6147405245
 20
22.1076697504
 10
-1.5932084772
 20
22.1067694666
 10
-1.5717483888
 20
22.1055799978
 10
-1.5503600184
 20
22.1041019513
 10
-1.5290890143
 20
22.1023393016
 10
-1.5079357732
 20
22.100291468
 10
-1.4868998984
 20
22.0979590313
 10
-1.4660258479
 20
22.0953477084
 10
-1.4453140948
 20
22.0924569502
 10
-1.4247641661
 20
22.0892873058
 10
-1.4044191006
 20
22.08584614
 10
-1.3842794381
 20
22.0821329353
 10
-1.3643446388
 20
22.0781482091
 10
-1.3446561225
 20
22.0739008787
 10
-1.3252143625
 20
22.0693904236
 10
-1.3060188854
 20
22.0646173642
 10
-1.2871096909
 20
22.05959218
 10
-1.2684872929
 20
22.0543143331
 10
-1.2501511773
 20
22.0487843613
 10
-1.2321398016
 20
22.0430143575
 10
-1.2144659848
 20
22.0370083525
 10
-1.1971169079
 20
22.0307623154
 10
-1.1800925707
 20
22.0242762462
  0
LWPOLYLINE
  5
25D
100
AcDbEntity
  8
218140040
100
AcDbPolyline
 62
250
  6
CONTINUOUS
 90
17
 70
0
 10
-2.3385039237
 20
21.994081334
 10
-2.3351530667
 20
21.9956546607
 10
-2.3301771572
 20
21.9976351723
 10
-2.3250468389
 20
21.9992684003
 10
-2.3197718777
 20
22.0005512359
 10
-2.3143623148
 20
22.001481237
 10
-2.3088284475
 20
22.0020566334
 10
-2.30318081
 20
22.0022763299
 10
-2.2974301528
 20
22.0021399081
 10
-2.2915874225
 20
22.0016476278
 10
-2.2856637413
 20
22.0008004261
 10
-2.2796703851
 20
21.9995999157
 10
-2.2736187627
 20
21.9980483818
 10
-2.2675203936
 20
21.9961487779
 10
-2.2613868865
 20
21.99390472
 10
-2.2552299167
 20
21.9913204798
 10
-2.2490612046
 20
21.9884009765
  0
LWPOLYLINE
  5
25E
100
AcDbEntity
  8
RACCORDO
100
AcDbPolyline
 62
250
  6
CONTINUOUS
 90
55
 70
0
 10
-13.5121081981
 20
-15.8731110955
 10
-13.4749768589
 20
-15.8902564978
 10
-13.4377430085
 20
-15.9046162967
 10
-13.4005319472
 20
-15.9161415118
 10
-13.3634872359
 20
-15.9247890304
 10
-13.3267150824
 20
-15.9305355982
 10
-13.2902855506
 20
-15.9333635151
 10
-13.2542861121
 20
-15.9332480083
 10
-13.2188802356
 20
-15.9301710027
 10
-13.1842489629
 20
-15.9241415495
 10
-13.1505146555
 20
-15.9151826447
 10
-13.1177865309
 20
-15.9033252185
 10
-13.0862138025
 20
-15.8886306316
 10
-13.0559277191
 20
-15.8711786555
 10
-13.0269939267
 20
-15.8510264507
 10
-12.999458805
 20
-15.8282119386
 10
-12.9733993619
 20
-15.8027912417
 10
-12.9489241998
 20
-15.7748621895
 10
-12.9261250169
 20
-15.744527364
 10
-12.905079233
 20
-15.7118901096
 10
-12.8858572125
 20
-15.6770599001
 10
-12.8685280772
 20
-15.6401643255
 10
-12.8531577748
 20
-15.6013545466
 10
-12.8397849259
 20
-15.5607401938
 10
-12.8284361012
 20
-15.5183892304
 10
-12.8191499374
 20
-15.4743944584
 10
-12.8119785308
 20
-15.4289396359
 10
-12.8069600204
 20
-15.3822353526
 10
-12.8041124476
 20
-15.3344585949
 10
-12.8034434769
 20
-15.2857539855
 10
-12.8049552836
 20
-15.2362947298
 10
-12.8086414615
 20
-15.1862549022
 10
-12.8144888306
 20
-15.1357988712
 10
-12.8224785621
 20
-15.0850883314
 10
-12.8325855319
 20
-15.0342886606
 10
-12.8447749997
 20
-14.9835791459
 10
-12.8590028854
 20
-14.9331425629
 10
-12.8752176406
 20
-14.8831571827
 10
-12.893365366
 20
-14.8337852541
 10
-12.9133883692
 20
-14.7851834469
 10
-12.9352228604
 20
-14.7375093875
 10
-12.9587921071
 20
-14.6909331527
 10
-12.9840096961
 20
-14.6456249747
 10
-13.0107837357
 20
-14.6017465311
 10
-13.0390274467
 20
-14.559436878
 10
-13.0686543414
 20
-14.5188256023
 10
-13.0995853796
 20
-14.4800264349
 10
-13.1316968725
 20
-14.4431995381
 10
-13.164824592
 20
-14.4085264791
 10
-13.1988159405
 20
-14.3761475133
 10
-13.233586174
 20
-14.3461247417
 10
-13.2690673979
 20
-14.3185100895
 10
-13.3051579869
 20
-14.2933846063
 10
-13.3417192511
 20
-14.2708466221
 10
-13.3786281079
 20
-14.2509717319
  0
LINE
  5
25F
100
AcDbEntity
  8
268140000
100
AcDbLine
 62
250
  6
CONTINUOUS
 10
1.4929943301
 20
-24.9845034395
 11
-0.1127821321
 21
-24.1816152084
  0
LINE
  5
260
100
AcDbEntity
  8
268140000
100
AcDbLine
 62
250
  6
CONTINUOUS
 10
1.5818969061
 20
-24.7530663799
 11
-0.0249080128
 21
-23.9496639204
  0
LINE
  5
261
100
AcDbEntity
  8
268140000
100
AcDbLine
 62
7
  6
CONTINUOUS
 10
-0.8161740285
 20
-22.5601920123
 11
1.6447002536
 21
-23.7906291534
  0
LINE
  5
262
100
AcDbEntity
  8
268140000
100
AcDbLine
 62
7
  6
CONTINUOUS
 10
2.2042149382
 20
-24.0080069624
 11
1.7949496928
 21
-23.8033743397
  0
LINE
  5
263
100
AcDbEntity
  8
268140000
100
AcDbLine
 62
7
  6
CONTINUOUS
 10
-0.7902889021
 20
-22.245618637
 11
1.892187627
 21
-23.5868569016
  0
LWPOLYLINE
  5
264
100
AcDbEntity
  8
RACCORDO
100
AcDbPolyline
 62
7
  6
CONTINUOUS
 90
46
 70
0
 10
-13.4861261098
 20
-15.9284405458
 10
-13.5266765044
 20
-15.9066544997
 10
-13.5666820211
 20
-15.882132815
 10
-13.6060375975
 20
-15.8549526297
 10
-13.644651603
 20
-15.8251861103
 10
-13.6824124649
 20
-15.7929251367
 10
-13.7191871176
 20
-15.758291712
 10
-13.7548929508
 20
-15.7213711798
 10
-13.7894170221
 20
-15.6822848204
 10
-13.8225885895
 20
-15.6412415912
 10
-13.8543054658
 20
-15.5983963377
 10
-13.8845049244
 20
-15.5538599536
 10
-13.9130880371
 20
-15.5078031736
 10
-13.9399700736
 20
-15.4603926303
 10
-13.9650972507
 20
-15.4117514598
 10
-13.9884205261
 20
-15.3619929834
 10
-14.009881947
 20
-15.3112495549
 10
-14.0294146183
 20
-15.2596846527
 10
-14.0469592516
 20
-15.2074605864
 10
-14.0624630636
 20
-15.1547399046
 10
-14.0758840561
 20
-15.101665867
 10
-14.0871850333
 20
-15.0483722078
 10
-14.0963308514
 20
-14.9949880009
 10
-14.1032814688
 20
-14.9416913097
 10
-14.1080035965
 20
-14.8886853638
 10
-14.1104776785
 20
-14.8361410313
 10
-14.1106913137
 20
-14.7841875509
 10
-14.108633284
 20
-14.7329577607
 10
-14.1042896081
 20
-14.6825442953
 10
-14.0976571163
 20
-14.6331468596
 10
-14.0887635451
 20
-14.585040662
 10
-14.077630498
 20
-14.538351733
 10
-14.0642843405
 20
-14.4932084946
 10
-14.0488023015
 20
-14.4498558392
 10
-14.0312463847
 20
-14.4084203419
 10
-14.0116636838
 20
-14.3689774062
 10
-13.9901402985
 20
-14.3316671738
 10
-13.9667460293
 20
-14.2965744169
 10
-13.9415582259
 20
-14.2637843046
 10
-13.914699827
 20
-14.2334193857
 10
-13.8862873714
 20
-14.2055634383
 10
-13.8564090584
 20
-14.180257444
 10
-13.8251678366
 20
-14.1575498356
 10
-13.7926810355
 20
-14.137489239
 10
-13.759076888
 20
-14.1201174503
 10
-13.7244858478
 20
-14.1054633249
  0
LWPOLYLINE
  5
265
100
AcDbEntity
  8
RACCORDO
100
AcDbPolyline
 62
250
  6
CONTINUOUS
 90
3
 70
0
 10
-13.3229006167
 20
-16.0615272426
 10
-13.3906218567
 20
-16.0242005699
 10
-13.4577077933
 20
-15.9802413828
  0
LWPOLYLINE
  5
266
100
AcDbEntity
  8
RACCORDO
100
AcDbPolyline
 62
250
  6
CONTINUOUS
 90
39
 70
0
 10
-13.4008876579
 20
-16.1817135616
 10
-13.4749281706
 20
-16.1407897993
 10
-13.5473515956
 20
-16.0932934161
 10
-13.618157215
 20
-16.0392241032
 10
-13.6878150566
 20
-15.97813533
 10
-13.7558522069
 20
-15.910472387
 10
-13.8208530143
 20
-15.8375724726
 10
-13.882730946
 20
-15.7593348327
 10
-13.9415673979
 20
-15.6758580177
 10
-13.9961986952
 20
-15.5887782202
 10
-14.0465246829
 20
-15.4980520984
 10
-14.0926393375
 20
-15.4037203515
 10
-14.133671066
 20
-15.3075456153
 10
-14.1695330593
 20
-15.2094591973
 10
-14.2003062231
 20
-15.1095272769
 10
-14.225372304
 20
-15.009715556
 10
-14.2446117042
 20
-14.9100428267
 10
-14.2581398702
 20
-14.8104885439
 10
-14.2656936309
 20
-14.7129604793
 10
-14.2671568468
 20
-14.6174884006
 10
-14.2626441279
 20
-14.524041911
 10
-14.2522413477
 20
-14.4344397795
 10
-14.2358340465
 20
-14.3487629548
 10
-14.213538189
 20
-14.2669311479
 10
-14.1857882169
 20
-14.1905225138
 10
-14.1524769473
 20
-14.1196420112
 10
-14.1137157206
 20
-14.0541864575
 10
-14.0702692802
 20
-13.9954228566
 10
-14.0220567441
 20
-13.9434902917
 10
-13.9691648723
 20
-13.898252171
 10
-13.912611645
 20
-13.8605627308
 10
-13.8523380605
 20
-13.8305641071
 10
-13.7884093205
 20
-13.8081167794
 10
-13.722030596
 20
-13.7936528693
 10
-13.6531178496
 20
-13.7873341201
 10
-13.5817602435
 20
-13.7890009436
 10
-13.5094228371
 20
-13.7986035001
 10
-13.4365950266
 20
-13.8161256142
 10
-13.3627903271
 20
-13.8415846832
  0
LINE
  5
267
100
AcDbEntity
  8
RACCORDO
100
AcDbLine
 62
250
  6
CONTINUOUS
 10
-13.4577077933
 20
-15.9802413828
 11
-13.5237249058
 21
-15.929904943
  0
LWPOLYLINE
  5
268
100
AcDbEntity
  8
RACCORDO
100
AcDbPolyline
 62
250
  6
CONTINUOUS
 90
3
 70
0
 10
-13.5237249058
 20
-15.929904943
 10
-13.5882792201
 20
-15.8734708123
 10
-13.6100528913
 20
-15.8518573455
  0
LINE
  5
269
100
AcDbEntity
  8
218140040
100
AcDbLine
 62
7
  6
CONTINUOUS
 10
-2.411749802
 20
21.9555705816
 11
-3.3417892375
 21
21.1639303698
  0
LINE
  5
26A
100
AcDbEntity
  8
218140040
100
AcDbLine
 62
250
  6
CONTINUOUS
 10
-2.315097721
 20
21.9553827183
 11
-3.280763663
 21
21.1334175825
  0
LWPOLYLINE
  5
26B
100
AcDbEntity
  8
218140040
100
AcDbPolyline
 62
7
  6
CONTINUOUS
 90
5
 70
0
 10
-2.4117501271
 20
21.9555704127
 10
-2.4095078921
 20
21.9573855674
 10
-2.4062249537
 20
21.9597344064
 10
-2.4027862692
 20
21.9618490278
 10
-2.4000606361
 20
21.9633029778
  0
LINE
  5
26C
100
AcDbEntity
  8
268140000
100
AcDbLine
 62
7
  6
CONTINUOUS
 10
-1.6121119258
 20
19.0972787816
 11
-1.113016193
 21
19.3474754548
  0
LINE
  5
26D
100
AcDbEntity
  8
268140000
100
AcDbLine
 62
7
  6
CONTINUOUS
 10
-1.113016193
 20
19.3474754548
 11
4.3012565022
 21
22.0474910651
  0
LINE
  5
26E
100
AcDbEntity
  8
268140000
100
AcDbLine
 62
7
  6
CONTINUOUS
 10
3.6953099191
 20
22.3492390231
 11
-1.0423055149
 21
20.0141885085
  0
LINE
  5
26F
100
AcDbEntity
  8
268140000
100
AcDbLine
 62
7
  6
CONTINUOUS
 10
4.9742727176
 20
22.092990994
 11
4.3878939306
 21
21.8060689263
  0
LWPOLYLINE
  5
270
100
AcDbEntity
  8
268140000
100
AcDbPolyline
 62
7
  6
CONTINUOUS
 90
18
 70
0
 10
4.9742727176
 20
22.092990994
 10
5.0026472384
 20
22.1061729508
 10
5.0308816904
 20
22.1179073425
 10
5.0589760736
 20
22.1281941692
 10
5.0869803867
 20
22.1370463038
 10
5.1148446309
 20
22.1444508733
 10
5.1424188106
 20
22.150369259
 10
5.1696879392
 20
22.1547926802
 10
5.1966670032
 20
22.1577299176
 10
5.2232509659
 20
22.1591686935
 10
5.2494559247
 20
22.159101557
 10
5.2752657822
 20
22.157535959
 10
5.3005272085
 20
22.1544819756
 10
5.3252169618
 20
22.1499361912
 10
5.3493582839
 20
22.1439020213
 10
5.3728675702
 20
22.1363997886
 10
5.3957633504
 20
22.1274143739
 10
5.4153113349
 20
22.1183316871
  0
LINE
  5
271
100
AcDbEntity
  8
218140040
100
AcDbLine
 62
7
  6
CONTINUOUS
 10
11.2541029538
 20
24.7582456734
 11
5.4742035047
 21
22.0888965686
  0
LINE
  5
272
100
AcDbEntity
  8
218140040
100
AcDbLine
 62
250
  6
CONTINUOUS
 10
11.6857223788
 20
24.7224519671
 11
5.7674033115
 21
21.9891760955
  0
LWPOLYLINE
  5
273
100
AcDbEntity
  8
218140040
100
AcDbPolyline
 62
250
  6
CONTINUOUS
 90
3
 70
0
 10
5.7674033115
 20
21.9891760955
 10
5.7419855142
 20
21.9777093864
 10
5.7175679212
 20
21.9672143603
  0
LWPOLYLINE
  5
274
100
AcDbEntity
  8
218140040
100
AcDbPolyline
 62
7
  6
CONTINUOUS
 90
34
 70
0
 10
11.2541029538
 20
24.7582456734
 10
11.278462073
 20
24.7691037942
 10
11.3031354628
 20
24.7793217687
 10
11.3281024793
 20
24.7888881242
 10
11.3533517686
 20
24.7977955504
 10
11.3788518905
 20
24.8060304094
 10
11.4045510317
 20
24.8135755699
 10
11.4302530407
 20
24.8203821638
 10
11.4561070858
 20
24.826498631
 10
11.4825849418
 20
24.8320176748
 10
11.5100508663
 20
24.8369594667
 10
11.5381001565
 20
24.8411953089
 10
11.5660516736
 20
24.8446115581
 10
11.5935703896
 20
24.8471980979
 10
11.6209408868
 20
24.8490121415
 10
11.6484110016
 20
24.8500762901
 10
11.6760047737
 20
24.8503846654
 10
11.7036484168
 20
24.8499299626
 10
11.731441152
 20
24.8487012309
 10
11.7595683871
 20
24.846667107
 10
11.7877873291
 20
24.8438222221
 10
11.8155655844
 20
24.8402283619
 10
11.8424564221
 20
24.8359913351
 10
11.8688886762
 20
24.8310904087
 10
11.8956367066
 20
24.8253766677
 10
11.9231938234
 20
24.8186824224
 10
11.9509826002
 20
24.8110845821
 10
11.9781792761
 20
24.8028052494
 10
12.0043497796
 20
24.7940300432
 10
12.0299359117
 20
24.7846627269
 10
12.0554419736
 20
24.774525498
 10
12.0811426601
 20
24.7634768032
 10
12.1067062961
 20
24.7516260116
 10
12.1205979507
 20
24.7448139511
  0
LWPOLYLINE
  5
275
100
AcDbEntity
  8
RACCORDO
100
AcDbPolyline
 62
7
  6
CONTINUOUS
 90
4
 70
0
 10
-13.3958093597
 20
-13.8819977283
 10
-13.3347754231
 20
-13.9026637009
 10
-13.2734481178
 20
-13.9293110803
 10
-13.2622000634
 20
-13.9348325085
  0
LWPOLYLINE
  5
276
100
AcDbEntity
  8
0
100
AcDbPolyline
 62
7
  6
CONTINUOUS
 90
3
 70
0
 10
-12.6258053804
 20
-15.821188808
 10
-12.5733607225
 20
-15.8442472089
 10
-12.5529980516
 20
-15.8509311485
  0
LINE
  5
277
100
AcDbEntity
  8
RACCORDO
100
AcDbLine
 62
250
  6
CONTINUOUS
 10
-13.3627903271
 20
-13.8415846832
 11
-13.2880094641
 21
-13.8749810116
  0
LWPOLYLINE
  5
278
100
AcDbEntity
  8
RACCORDO
100
AcDbPolyline
 62
250
  6
CONTINUOUS
 90
55
 70
0
 10
-13.3786281079
 20
-14.2509717319
 10
-13.4157594087
 20
-14.2338263153
 10
-13.4529932402
 20
-14.2194665094
 10
-13.4902043019
 20
-14.2079412945
 10
-13.527249046
 20
-14.199293788
 10
-13.5640212517
 20
-14.1935472395
 10
-13.6004508165
 20
-14.1907193349
 10
-13.6364502474
 20
-14.1908348389
 10
-13.671856097
 20
-14.1939118346
 10
-13.7064873501
 20
-14.1999412804
 10
-13.7402216567
 20
-14.2089001849
 10
-13.7729497876
 20
-14.2207576135
 10
-13.8045225204
 20
-14.235452202
 10
-13.8348086026
 20
-14.2529041777
 10
-13.863742392
 20
-14.2730563813
 10
-13.8912775111
 20
-14.2958708925
 10
-13.9173369531
 20
-14.321291589
 10
-13.9418121145
 20
-14.349220641
 10
-13.9646112967
 20
-14.3795554662
 10
-13.9856570793
 20
-14.4121927201
 10
-14.0048790985
 20
-14.4470229291
 10
-14.0222082328
 20
-14.4839185033
 10
-14.0375785347
 20
-14.522728282
 10
-14.0509513834
 20
-14.5633426347
 10
-14.0623002077
 20
-14.605693598
 10
-14.0715863709
 20
-14.6496883698
 10
-14.0787577766
 20
-14.695143192
 10
-14.0837762865
 20
-14.741847475
 10
-14.0866238589
 20
-14.7896242326
 10
-14.0872928294
 20
-14.838328842
 10
-14.0857810225
 20
-14.8877880976
 10
-14.0820948445
 20
-14.9378279252
 10
-14.0762474754
 20
-14.9882839562
 10
-14.068257744
 20
-15.038994496
 10
-14.0581507744
 20
-15.0897941668
 10
-14.0459613069
 20
-15.1405036816
 10
-14.0317334216
 20
-15.1909402648
 10
-14.0155186665
 20
-15.240925645
 10
-13.9973709411
 20
-15.2902975736
 10
-13.9773479384
 20
-15.338899381
 10
-13.955513449
 20
-15.3865734411
 10
-13.9319442045
 20
-15.4331496767
 10
-13.9067266164
 20
-15.478457855
 10
-13.8799525736
 20
-15.5223362975
 10
-13.851708858
 20
-15.5646459489
 10
-13.8220819635
 20
-15.6052572247
 10
-13.7911509385
 20
-15.6440563969
 10
-13.7590394636
 20
-15.6808833004
 10
-13.7259117492
 20
-15.7155563613
 10
-13.6919203777
 20
-15.7479353186
 10
-13.6571501084
 20
-15.7779580769
 10
-13.6216688625
 20
-15.8055727209
 10
-13.5855782747
 20
-15.8306982046
 10
-13.5490170257
 20
-15.8532361944
 10
-13.5121081981
 20
-15.8731110955
  0
LWPOLYLINE
  5
279
100
AcDbEntity
  8
RACCORDO
100
AcDbPolyline
 62
250
  6
CONTINUOUS
 90
12
 70
0
 10
-13.3022364945
 20
-14.1433940329
 10
-13.3431086442
 20
-14.1245215986
 10
-13.3840936198
 20
-14.1087152644
 10
-13.425053518
 20
-14.0960289354
 10
-13.4658303547
 20
-14.0865099586
 10
-13.5063072328
 20
-14.0801840294
 10
-13.5464069665
 20
-14.0770709439
 10
-13.5860331975
 20
-14.0771981496
 10
-13.6250060077
 20
-14.0805853677
 10
-13.6631261807
 20
-14.0872224216
 10
-13.700259076
 20
-14.0970839052
 10
-13.7244858494
 20
-14.1054633255
  0
LINE
  5
27A
100
AcDbEntity
  8
268140000
100
AcDbLine
 62
250
  6
CONTINUOUS
 10
3.3589199696
 20
-23.4988109587
 11
3.3154976437
 21
-23.4770997957
  0
LINE
  5
27B
100
AcDbEntity
  8
268140000
100
AcDbLine
 62
7
  6
CONTINUOUS
 10
-0.7163552898
 20
-21.3471279135
 11
2.7053604254
 21
-23.0579857711
  0
LINE
  5
27C
100
AcDbEntity
  8
268140000
100
AcDbLine
 62
250
  6
CONTINUOUS
 10
3.2710458503
 20
-23.2995438131
 11
3.8861646853
 21
-23.6071032306
  0
LINE
  5
27D
100
AcDbEntity
  8
268140000
100
AcDbLine
 62
7
  6
CONTINUOUS
 10
3.2710458503
 20
-23.2959236636
 11
3.9094435118
 21
-23.6151224943
  0
LINE
  5
27E
100
AcDbEntity
  8
268140000
100
AcDbLine
 62
7
  6
CONTINUOUS
 10
-0.5859553379
 20
-19.7624204519
 11
2.7053604254
 21
-21.4080783335
  0
LWPOLYLINE
  5
27F
100
AcDbEntity
  8
RACCORDO
100
AcDbPolyline
 62
7
  6
CONTINUOUS
 90
32
 70
0
 10
-13.2621249514
 20
-13.9348760393
 10
-13.2453407353
 20
-13.9434917445
 10
-13.1743678972
 20
-13.9847821699
 10
-13.1040474226
 20
-14.0336278026
 10
-13.0350466254
 20
-14.089621748
 10
-12.967913387
 20
-14.1522991168
 10
-12.9031073998
 20
-14.2212551938
 10
-12.8411467754
 20
-14.295958358
 10
-12.7825150944
 20
-14.3757984869
 10
-12.7275870188
 20
-14.4602973673
 10
-12.676795566
 20
-14.5488244555
 10
-12.6305194591
 20
-14.6406874526
 10
-12.5890502077
 20
-14.735346978
 10
-12.5527248022
 20
-14.8320907601
 10
-12.5218102104
 20
-14.9301805841
 10
-12.4965165466
 20
-15.029034341
 10
-12.4770743756
 20
-15.1278870979
 10
-12.4636337042
 20
-15.2259656769
 10
-12.4563142572
 20
-15.3226278972
 10
-12.4552152324
 20
-15.4170907679
 10
-12.460344795
 20
-15.5085558725
 10
-12.4716839933
 20
-15.5962758517
 10
-12.4891551022
 20
-15.6795043354
 10
-12.5125658188
 20
-15.757480765
 10
-12.5416442129
 20
-15.8294018601
 10
-12.5760269147
 20
-15.8945987611
 10
-12.6153343893
 20
-15.9526625048
 10
-12.6592361967
 20
-16.0032535109
 10
-12.7072398635
 20
-16.0459993594
 10
-12.7590509812
 20
-16.0808425561
 10
-12.8148552065
 20
-16.107843853
 10
-12.8257189486
 20
-16.1120028903
  0
LINE
  5
280
100
AcDbEntity
  8
RACCORDO
100
AcDbLine
 62
250
  6
CONTINUOUS
 10
-13.2880094641
 20
-13.8749810116
 11
-13.2139721603
 21
-13.9159295953
  0
LWPOLYLINE
  5
281
100
AcDbEntity
  8
RACCORDO
100
AcDbPolyline
 62
250
  6
CONTINUOUS
 90
29
 70
0
 10
-13.2139721603
 20
-13.9159295953
 10
-13.1416046041
 20
-13.9634702021
 10
-13.0709060778
 20
-14.0176025308
 10
-13.0014052156
 20
-14.0787737774
 10
-12.9335704986
 20
-14.1465355353
 10
-12.8688104585
 20
-14.2195438797
 10
-12.8072087147
 20
-14.2978967958
 10
-12.7486765155
 20
-14.3814941405
 10
-12.6943639209
 20
-14.4686948313
 10
-12.6443657886
 20
-14.5595389754
 10
-12.5985810897
 20
-14.6539838624
 10
-12.5578669378
 20
-14.7502645539
 10
-12.5223044811
 20
-14.8484468079
 10
-12.4918066733
 20
-14.9484623667
 10
-12.4669800984
 20
-15.0483460076
 10
-12.4479396306
 20
-15.1480778997
 10
-12.434566241
 20
-15.2476760991
 10
-12.4271181683
 20
-15.3452332725
 10
-12.4257097497
 20
-15.4407202403
 10
-12.430225107
 20
-15.534165507
 10
-12.4405800735
 20
-15.623749502
 10
-12.4568910286
 20
-15.7093928574
 10
-12.4790430861
 20
-15.7911755548
 10
-12.5066081157
 20
-15.8675182968
 10
-12.539698378
 20
-15.9383178675
 10
-12.5782057662
 20
-16.003679237
 10
-12.6213741222
 20
-16.0623364658
 10
-12.6692910778
 20
-16.1141522571
 10
-12.7218748844
 20
-16.1592664119
  0
LINE
  5
282
100
AcDbEntity
  8
268140000
100
AcDbLine
 62
7
  6
CONTINUOUS
 10
0.0619436505
 20
17.6762483764
 11
1.6447002536
 21
18.4882324737
  0
LINE
  5
283
100
AcDbEntity
  8
268140000
100
AcDbLine
 62
7
  6
CONTINUOUS
 10
-1.6121119258
 20
17.8830753088
 11
-1.113016193
 21
18.1350398895
  0
LINE
  5
284
100
AcDbEntity
  8
268140000
100
AcDbLine
 62
7
  6
CONTINUOUS
 10
-1.113016193
 20
18.1350398895
 11
4.3012565022
 21
20.8156524868
  0
LINE
  5
285
100
AcDbEntity
  8
268140000
100
AcDbLine
 62
7
  6
CONTINUOUS
 10
1.6447002536
 20
18.4882324737
 11
2.1791501323
 21
18.7485799403
  0
LINE
  5
286
100
AcDbEntity
  8
218140040
100
AcDbLine
 62
7
  6
CONTINUOUS
 10
12.7264888806
 20
24.2020687162
 11
9.1534151821
 21
22.4966353994
  0
LWPOLYLINE
  5
287
100
AcDbEntity
  8
RACCORDO
100
AcDbPolyline
 62
250
  6
CONTINUOUS
 90
17
 70
0
 10
-14.1099845776
 20
-14.8466134644
 10
-14.1168694442
 20
-14.7969999506
 10
-14.1240387494
 20
-14.7069341748
 10
-14.1256716151
 20
-14.6187416472
 10
-14.1217773235
 20
-14.5330131074
 10
-14.1123408669
 20
-14.4503042603
 10
-14.0974442897
 20
-14.3711640646
 10
-14.0772078877
 20
-14.2961078518
 10
-14.0517281686
 20
-14.2256051787
 10
-14.0211841427
 20
-14.1601142441
 10
-13.9857980994
 20
-14.1000739527
 10
-13.9457811109
 20
-14.0458733036
 10
-13.901414671
 20
-13.9978707114
 10
-13.8530035637
 20
-13.9563733487
 10
-13.8008344739
 20
-13.9216328265
 10
-13.7452604595
 20
-13.8938794587
 10
-13.7245840736
 20
-13.8856695429
  0
LINE
  5
288
100
AcDbEntity
  8
268140000
100
AcDbLine
 62
7
  6
CONTINUOUS
 10
-13.8762935934
 20
22.4268969805
 11
-13.8762935934
 21
22.4025014752
  0
LINE
  5
289
100
AcDbEntity
  8
268140000
100
AcDbLine
 62
7
  6
CONTINUOUS
 10
-13.4771002965
 20
23.8001480132
 11
-13.4771002965
 21
24.0535194069
  0
LINE
  5
28A
100
AcDbEntity
  8
268140000
100
AcDbLine
 62
7
  6
CONTINUOUS
 10
-13.0631207951
 20
21.995915076
 11
-13.0631207951
 21
21.6291795253
  0
LINE
  5
28B
100
AcDbEntity
  8
268140000
100
AcDbLine
 62
250
  6
CONTINUOUS
 10
3.7851266835
 20
17.1945279046
 11
9.1434534636
 21
20.0854681315
  0
LINE
  5
28C
100
AcDbEntity
  8
268140000
100
AcDbLine
 62
250
  6
CONTINUOUS
 10
3.4185065302
 20
16.7483157785
 11
9.059301896
 21
19.7916542877
  0
LINE
  5
28D
100
AcDbEntity
  8
715140000
100
AcDbLine
 62
7
  6
CONTINUOUS
 10
9.2350558445
 20
20.1690240473
 11
9.8673439107
 21
20.502442047
  0
LINE
  5
28E
100
AcDbEntity
  8
268140000
100
AcDbLine
 62
250
  6
CONTINUOUS
 10
3.3301165755
 20
16.6130225972
 11
9.059301896
 21
19.5793951336
  0
LINE
  5
28F
100
AcDbEntity
  8
268140000
100
AcDbLine
 62
7
  6
CONTINUOUS
 10
3.4498827061
 20
16.5531395319
 11
9.1417059712
 21
19.5001672978
  0
LINE
  5
290
100
AcDbEntity
  8
218140040
100
AcDbLine
 62
7
  6
CONTINUOUS
 10
9.547401116
 20
21.4744795814
 11
13.7637808937
 21
23.6197891981
  0
LINE
  5
291
100
AcDbEntity
  8
218140040
100
AcDbLine
 62
7
  6
CONTINUOUS
 10
9.547401116
 20
21.0642605384
 11
13.7698378806
 21
23.1823007309
  0
LINE
  5
292
100
AcDbEntity
  8
268140000
100
AcDbLine
 62
7
  6
CONTINUOUS
 10
1.6697650595
 20
16.8723376718
 11
3.2710458503
 21
17.6750596753
  0
LINE
  5
293
100
AcDbEntity
  8
715140000
100
AcDbLine
 62
7
  6
CONTINUOUS
 10
9.9956313394
 20
20.2793503156
 11
10.4906060863
 21
20.526837689
  0
LINE
  5
294
100
AcDbEntity
  8
268140000
100
AcDbLine
 62
7
  6
CONTINUOUS
 10
3.2710458503
 20
17.6750596753
 11
3.7993130221
 21
17.9384984954
  0
LINE
  5
295
100
AcDbEntity
  8
268140000
100
AcDbLine
 62
250
  6
CONTINUOUS
 10
3.1815236404
 20
18.3093705571
 11
7.9533626186
 21
20.6034460435
  0
LINE
  5
296
100
AcDbEntity
  8
268140000
100
AcDbLine
 62
250
  6
CONTINUOUS
 10
3.4091391403
 20
18.1955628072
 11
8.3952034865
 21
20.5926277632
  0
LINE
  5
297
100
AcDbEntity
  8
268140000
100
AcDbLine
 62
7
  6
CONTINUOUS
 10
1.892187627
 20
14.518260865
 11
2.7053604254
 21
14.8025625329
  0
LINE
  5
298
100
AcDbEntity
  8
268140000
100
AcDbLine
 62
7
  6
CONTINUOUS
 10
-12.7741073422
 20
22.8935887585
 11
-12.7741073422
 21
23.3459197341
  0
LINE
  5
299
100
AcDbEntity
  8
268140000
100
AcDbLine
 62
7
  6
CONTINUOUS
 10
-11.8713238343
 20
23.2506311758
 11
-11.8713238343
 21
22.9972597821
  0
LINE
  5
29A
100
AcDbEntity
  8
268140000
100
AcDbLine
 62
7
  6
CONTINUOUS
 10
-11.1601032262
 20
22.0865867005
 11
-11.1601032262
 21
22.7237562592
  0
LINE
  5
29B
100
AcDbEntity
  8
284140000
100
AcDbLine
 62
7
  6
CONTINUOUS
 10
-6.9897547426
 20
18.9592320498
 11
-7.0329829474
 21
18.8290676405
  0
LWPOLYLINE
  5
29C
100
AcDbEntity
  8
268140000
100
AcDbPolyline
 62
7
  6
CONTINUOUS
 90
5
 70
0
 10
9.1417065268
 20
19.5001578787
 10
9.141954539
 20
19.5002979765
 10
9.1428817749
 20
19.5011256479
 10
9.1433881924
 20
19.5021767193
 10
9.1434999559
 20
19.5031086432
  0
LINE
  5
29D
100
AcDbEntity
  8
268140000
100
AcDbLine
 62
250
  6
CONTINUOUS
 10
3.4124672066
 20
15.8722981897
 11
1.6447002536
 21
14.9695204902
  0
LINE
  5
29E
100
AcDbEntity
  8
268140000
100
AcDbLine
 62
250
  6
CONTINUOUS
 10
3.65995458
 20
15.4454340697
 11
1.892187627
 21
14.5426563702
  0
LINE
  5
29F
100
AcDbEntity
  8
268140000
100
AcDbLine
 62
7
  6
CONTINUOUS
 10
3.2710458503
 20
15.9430088678
 11
2.2042149382
 21
15.4044276183
  0
LINE
  5
2A0
100
AcDbEntity
  8
715140000
100
AcDbLine
 62
7
  6
CONTINUOUS
 10
12.9587839988
 20
20.7073375413
 11
11.6473196878
 21
20.0516053858
  0
LINE
  5
2A1
100
AcDbEntity
  8
715140000
100
AcDbLine
 62
7
  6
CONTINUOUS
 10
13.8073147065
 20
20.2830747578
 11
12.9855308808
 21
19.8721828449
  0
LINE
  5
2A2
100
AcDbEntity
  8
268140000
100
AcDbLine
 62
250
  6
CONTINUOUS
 10
4.1195739878
 20
16.218293891
 11
3.4124672066
 21
15.8722981897
  0
LINE
  5
2A3
100
AcDbEntity
  8
268140000
100
AcDbLine
 62
250
  6
CONTINUOUS
 10
4.3670613612
 20
15.7914297711
 11
3.65995458
 21
15.4454340697
  0
LINE
  5
2A4
100
AcDbEntity
  8
218140040
100
AcDbLine
 62
7
  6
CONTINUOUS
 10
4.0594389669
 20
16.2483614015
 11
9.7253035357
 21
19.0005499457
  0
LINE
  5
2A5
100
AcDbEntity
  8
218140040
100
AcDbLine
 62
7
  6
CONTINUOUS
 10
18.2121865311
 20
21.459219891
 11
10.4779976197
 21
17.7023446847
  0
LINE
  5
2A6
100
AcDbEntity
  8
218140040
100
AcDbLine
 62
7
  6
CONTINUOUS
 10
17.3869400634
 20
21.8718431248
 11
13.8235092269
 21
20.161588377
  0
LWPOLYLINE
  5
2A7
100
AcDbEntity
  8
218140040
100
AcDbPolyline
 62
7
  6
CONTINUOUS
 90
33
 70
0
 10
18.2121865311
 20
21.459219891
 10
18.2274945041
 20
21.4665185755
 10
18.2426246452
 20
21.4734526956
 10
18.2575696438
 20
21.4800211747
 10
18.2723209709
 20
21.4862235841
 10
18.2868727952
 20
21.4920589048
 10
18.3012219787
 20
21.4975254498
 10
18.3153614673
 20
21.502623079
 10
18.3292844902
 20
21.5073516807
 10
18.3429884631
 20
21.5117098222
 10
18.3564666046
 20
21.5156979557
 10
18.3697124415
 20
21.5193165753
 10
18.3827239866
 20
21.5225645358
 10
18.395494752
 20
21.5254428714
 10
18.4080185756
 20
21.527952668
 10
18.4202941025
 20
21.5300930918
 10
18.4323151584
 20
21.5318657436
 10
18.4440759053
 20
21.5332722836
 10
18.4555756443
 20
21.5343122023
 10
18.4668085337
 20
21.5349876483
 10
18.4777690707
 20
21.5353008341
 10
18.4884572251
 20
21.5352515783
 10
18.4988675029
 20
21.5348425537
 10
18.5089947478
 20
21.5340765003
 10
18.5188396002
 20
21.5329535591
 10
18.528396931
 20
21.5314769005
 10
18.5376619346
 20
21.5296497632
 10
18.5466359043
 20
21.5274725996
 10
18.555314083
 20
21.5249490497
 10
18.5636920257
 20
21.5220828206
 10
18.5717716647
 20
21.5188746591
 10
18.5795486235
 20
21.5153286427
 10
18.5810853821
 20
21.5145702354
  0
LWPOLYLINE
  5
2A8
100
AcDbEntity
  8
715140000
100
AcDbPolyline
 62
7
  6
CONTINUOUS
 90
10
 70
0
 10
13.8072858106
 20
20.2830603098
 10
13.8186822749
 20
20.2882289651
 10
13.8299026774
 20
20.2922808614
 10
13.8409470181
 20
20.295215999
 10
13.851910277
 20
20.2970345303
 10
13.8626974742
 20
20.2977363028
 10
13.8730236696
 20
20.2973208584
 10
13.8827938833
 20
20.2957880445
 10
13.8921030954
 20
20.2931380138
 10
13.9009513057
 20
20.2893707662
  0
LWPOLYLINE
  5
2A9
100
AcDbEntity
  8
RACCORDO
100
AcDbPolyline
 62
250
  6
CONTINUOUS
 90
22
 70
0
 10
-2.4079405937
 20
12.9612908697
 10
-2.4835128175
 20
12.9288869323
 10
-2.5591582446
 20
12.8899325093
 10
-2.6345011613
 20
12.8446253221
 10
-2.7091669585
 20
12.7931986535
 10
-2.7827855299
 20
12.7359091681
 10
-2.8549925835
 20
12.673033048
 10
-2.9254378825
 20
12.6048760367
 10
-2.993761751
 20
12.5317875089
 10
-3.0595998976
 20
12.4541499577
 10
-3.1226134934
 20
12.3723726123
 10
-3.1825054509
 20
12.2868526261
 10
-3.2389935501
 20
12.1979845814
 10
-3.291805803
 20
12.1061921799
 10
-3.3406655072
 20
12.0119534626
 10
-3.3853102345
 20
11.9157647406
 10
-3.4255128249
 20
11.8181235034
 10
-3.4610824048
 20
11.7195053817
 10
-3.4918450248
 20
11.6203858484
 10
-3.5176467843
 20
11.5212551598
 10
-3.538357314
 20
11.4226162859
 10
-3.5538722761
 20
11.3249635588
  0
LWPOLYLINE
  5
2AA
100
AcDbEntity
  8
RACCORDO
100
AcDbPolyline
 62
250
  6
CONTINUOUS
 90
22
 70
0
 10
-1.9014625477
 20
11.9600105854
 10
-1.9371735266
 20
11.9449786242
 10
-1.9726175727
 20
11.9270696102
 10
-2.0077946862
 20
11.9062835434
 10
-2.0428929932
 20
11.8824831153
 10
-2.0777243675
 20
11.8558056343
 10
-2.1117244303
 20
11.8266630263
 10
-2.1448684646
 20
11.7950207245
 10
-2.1771811873
 20
11.7609132956
 10
-2.2081723709
 20
11.7248563658
 10
-2.2378171796
 20
11.6868268254
 10
-2.2661404491
 20
11.6468477841
 10
-2.2927264586
 20
11.6055041981
 10
-2.3175544838
 20
11.5627658808
 10
-2.340645249
 20
11.5186630187
 10
-2.3616452066
 20
11.4738711276
 10
-2.3805210687
 20
11.4283691383
 10
-2.3973061231
 20
11.3821781199
 10
-2.411746686
 20
11.3360367956
 10
-2.4237581959
 20
11.2901914066
 10
-2.4334252143
 20
11.2443957118
 10
-2.4407477411
 20
11.1986497111
  0
LINE
  5
2AB
100
AcDbEntity
  8
RACCORDO
100
AcDbLine
 62
250
  6
CONTINUOUS
 10
1.6437428992
 20
14.4907047173
 11
-2.4079405937
 21
12.9612908697
  0
LINE
  5
2AC
100
AcDbEntity
  8
RACCORDO
100
AcDbLine
 62
250
  6
CONTINUOUS
 10
2.1502209451
 20
13.489424433
 11
-1.9014625477
 21
11.9600105854
  0
LINE
  5
2AD
100
AcDbEntity
  8
268140000
100
AcDbLine
 62
7
  6
CONTINUOUS
 10
-10.0932723141
 20
22.62516795
 11
-10.0932723141
 21
24.3572187576
  0
LINE
  5
2AE
100
AcDbEntity
  8
268140000
100
AcDbLine
 62
7
  6
CONTINUOUS
 10
-9.3902793598
 20
24.4925402553
 11
-9.3902793598
 21
24.231611279
  0
LINE
  5
2AF
100
AcDbEntity
  8
218140040
100
AcDbLine
 62
250
  6
CONTINUOUS
 10
18.5550841071
 20
20.8678090554
 11
4.3670613612
 21
13.6496129365
  0
LINE
  5
2B0
100
AcDbEntity
  8
218140040
100
AcDbLine
 62
250
  6
CONTINUOUS
 10
18.9692345828
 20
19.4361754808
 11
4.3670613612
 21
12.007279153
  0
LWPOLYLINE
  5
2B1
100
AcDbEntity
  8
218140040
100
AcDbPolyline
 62
250
  6
CONTINUOUS
 90
34
 70
0
 10
18.5550841071
 20
20.8678090554
 10
18.5739206224
 20
20.8771321567
 10
18.5923627391
 20
20.8861746938
 10
18.6103967619
 20
20.8949299515
 10
18.6280092989
 20
20.9033914281
 10
18.6451872707
 20
20.9115528402
 10
18.6619179209
 20
20.9194081269
 10
18.6781888253
 20
20.926951455
 10
18.6939879009
 20
20.9341772227
 10
18.7093034153
 20
20.9410800642
 10
18.7241239952
 20
20.9476548532
 10
18.7384386346
 20
20.9538967074
 10
18.7522367035
 20
20.9598009915
 10
18.7655079552
 20
20.965363321
 10
18.7782425346
 20
20.9705795653
 10
18.7904309849
 20
20.9754458506
 10
18.8020642547
 20
20.9799585634
 10
18.8131337053
 20
20.9841143524
 10
18.8236311164
 20
20.9879101315
 10
18.8335486925
 20
20.9913430821
 10
18.8428790687
 20
20.9944106546
 10
18.8516153164
 20
20.9971105712
 10
18.8597509479
 20
20.9994408268
 10
18.8672799216
 20
21.001399691
 10
18.8741966465
 20
21.0029857092
 10
18.8804959863
 20
21.0041977036
 10
18.8861732629
 20
21.005034774
 10
18.8912242603
 20
21.005496299
 10
18.8956452278
 20
21.0055819357
 10
18.8994328823
 20
21.0052916207
 10
18.9025844109
 20
21.0046255694
 10
18.9050974735
 20
21.0035842765
 10
18.9069702037
 20
21.0021685152
 10
18.907927339
 20
21.000907442
  0
LINE
  5
2B2
100
AcDbEntity
  8
268140000
100
AcDbLine
 62
7
  6
CONTINUOUS
 10
-7.9155153111
 20
22.0991545915
 11
-7.9155153111
 21
20.8844210912
  0
LINE
  5
2B3
100
AcDbEntity
  8
268140000
100
AcDbLine
 62
250
  6
CONTINUOUS
 10
-7.8276473454
 20
21.9926458614
 11
-7.8276473454
 21
20.7776909953
  0
LINE
  5
2B4
100
AcDbEntity
  8
268140000
100
AcDbLine
 62
7
  6
CONTINUOUS
 10
-7.653753919
 20
19.291231638
 11
-7.653753919
 21
19.1394531263
  0
LWPOLYLINE
  5
2B5
100
AcDbEntity
  8
RACCORDO
100
AcDbPolyline
 62
250
  6
CONTINUOUS
 90
14
 70
0
 10
-6.5329027141
 20
-24.878207503
 10
-6.5329969396
 20
-24.9702411869
 10
-6.5277420863
 20
-25.0594201149
 10
-6.5171648357
 20
-25.1452985802
 10
-6.5013179977
 20
-25.22744458
 10
-6.4802815934
 20
-25.3054514908
 10
-6.4541601484
 20
-25.3789381501
 10
-6.4230769596
 20
-25.4475451337
 10
-6.3871886546
 20
-25.5109183495
 10
-6.3466881364
 20
-25.568723507
 10
-6.3017878377
 20
-25.6206653114
 10
-6.2527051433
 20
-25.6665003132
 10
-6.199671996
 20
-25.7060135735
 10
-6.1407714757
 20
-25.7401041418
  0
LINE
  5
2B6
100
AcDbEntity
  8
284140000
100
AcDbLine
 62
7
  6
CONTINUOUS
 10
-2.7471140555
 20
16.8379117062
 11
-2.7903422603
 21
16.707747297
  0
LINE
  5
2B7
100
AcDbEntity
  8
268140000
100
AcDbLine
 62
7
  6
CONTINUOUS
 10
3.8861646853
 20
17.3175009087
 11
3.3589199696
 21
16.6757931807
  0
LWPOLYLINE
  5
2B8
100
AcDbEntity
  8
218140040
100
AcDbPolyline
 62
250
  6
CONTINUOUS
 90
30
 70
0
 10
18.9692345828
 20
19.4361754808
 10
18.9878957214
 20
19.4461048238
 10
19.0060088164
 20
19.4562847218
 10
19.023560417
 20
19.4667076151
 10
19.0405374893
 20
19.4773657637
 10
19.0569274259
 20
19.4882512527
 10
19.0727180556
 20
19.4993559985
 10
19.0878976523
 20
19.5106717546
 10
19.1024549433
 20
19.522190118
 10
19.1163791186
 20
19.533902535
 10
19.1296598378
 20
19.5458003079
 10
19.1422872386
 20
19.5578746014
 10
19.1542519438
 20
19.570116449
 10
19.1655450685
 20
19.5825167599
 10
19.1761582262
 20
19.5950663255
 10
19.1860835356
 20
19.6077558264
 10
19.195313626
 20
19.6205758394
 10
19.2038416432
 20
19.6335168443
 10
19.2116612543
 20
19.6465692309
 10
19.2187666522
 20
19.6597233065
 10
19.2251525606
 20
19.6729693028
 10
19.2308142372
 20
19.6862973833
 10
19.2357474776
 20
19.6996976505
 10
19.2399486184
 20
19.7131601532
 10
19.2434145397
 20
19.7266748941
 10
19.2461426678
 20
19.7402318372
 10
19.2481309767
 20
19.7538209148
 10
19.24937799
 20
19.7674320358
 10
19.2498827815
 20
19.7810550924
 10
19.2498947824
 20
19.7835029714
  0
LWPOLYLINE
  5
2B9
100
AcDbEntity
  8
218140040
100
AcDbPolyline
 62
250
  6
CONTINUOUS
 90
56
 70
0
 10
19.0867888882
 20
13.9936756939
 10
19.0938863054
 20
13.9962234139
 10
19.1010602136
 20
13.9985410849
 10
19.1083096128
 20
14.0006301074
 10
19.115631984
 20
14.0025082172
 10
19.1230274884
 20
14.0041608459
 10
19.1304986798
 20
14.0055414873
 10
19.1380549489
 20
14.0066543551
 10
19.1456829765
 20
14.0075002095
 10
19.1533504568
 20
14.0080282766
 10
19.1610574256
 20
14.0082380532
 10
19.1687981372
 20
14.0081369595
 10
19.1765308467
 20
14.0076869203
 10
19.1842435561
 20
14.0068896468
 10
19.1919408067
 20
14.0057522172
 10
19.1996048203
 20
14.0042455117
 10
19.207222713
 20
14.0023786625
 10
19.2147977902
 20
14.0001537505
 10
19.2223351366
 20
13.9975327241
 10
19.229829585
 20
13.9945282207
 10
19.2372734012
 20
13.9911428281
 10
19.2446655246
 20
13.98732614
 10
19.2520031414
 20
13.9830909149
 10
19.2592715859
 20
13.9784453106
 10
19.2664490855
 20
13.9733355228
 10
19.2735291564
 20
13.9677763595
 10
19.2804954098
 20
13.9617808991
 10
19.2873079194
 20
13.955296737
 10
19.2939552663
 20
13.9483447483
 10
19.3004199755
 20
13.9409401844
 10
19.306649196
 20
13.9330269908
 10
19.3126254691
 20
13.9246424853
 10
19.3183304269
 20
13.9157956148
 10
19.3237037835
 20
13.9063955559
 10
19.3287296172
 20
13.8964966604
 10
19.3333766418
 20
13.8861078356
 10
19.337550493
 20
13.8750845845
 10
19.3412417555
 20
13.8634399116
 10
19.3443913044
 20
13.851256278
 10
19.3468223521
 20
13.8385041995
 10
19.3484940731
 20
13.825159827
 10
19.3493706916
 20
13.8113601505
 10
19.3492972568
 20
13.7972979647
 10
19.3482239485
 20
13.7830009345
 10
19.3461550926
 20
13.7685182978
 10
19.3430467746
 20
13.7540334241
 10
19.3388566934
 20
13.7395309393
 10
19.3336098255
 20
13.725066823
 10
19.3273965424
 20
13.7108820415
 10
19.320242468
 20
13.6970189136
 10
19.3121461068
 20
13.6834128697
 10
19.3031781663
 20
13.6701119147
 10
19.2933508078
 20
13.6571039166
 10
19.2826765379
 20
13.6443753361
 10
19.2712310459
 20
13.6319644881
 10
19.25903549
 20
13.6198624128
  0
LWPOLYLINE
  5
2BA
100
AcDbEntity
  8
RACCORDO
100
AcDbPolyline
 62
250
  6
CONTINUOUS
 90
22
 70
0
 10
-5.4118340979
 20
-24.9079795612
 10
-5.4118278584
 20
-24.9510812051
 10
-5.4093452752
 20
-24.9925215324
 10
-5.4043863485
 20
-25.0323005431
 10
-5.3969029354
 20
-25.0706192579
 10
-5.3869431787
 20
-25.1072766562
 10
-5.3746515067
 20
-25.1416696752
 10
-5.3599906606
 20
-25.1737483766
 10
-5.3429978992
 20
-25.2035626989
 10
-5.3239294269
 20
-25.2306593946
 10
-5.3027574378
 20
-25.2549934515
 10
-5.2795097378
 20
-25.2766098819
 10
-5.2545259484
 20
-25.2951904758
 10
-5.2277738351
 20
-25.3106927931
 10
-5.1992856324
 20
-25.3231592738
 10
-5.1694976652
 20
-25.3323990283
 10
-5.1383808373
 20
-25.3383561586
 10
-5.1059642449
 20
-25.3410865626
 10
-5.072771501
 20
-25.3405670442
 10
-5.0389771431
 20
-25.3367898715
 10
-5.0044066336
 20
-25.3297627763
 10
-4.9690599726
 20
-25.3194857588
  0
LWPOLYLINE
  5
2BB
100
AcDbEntity
  8
RACCORDO
100
AcDbPolyline
 62
250
  6
CONTINUOUS
 90
6
 70
0
 10
-5.7632189418
 20
-9.9637150023
 10
-5.9712031124
 20
-12.9680764486
 10
-6.1521847484
 20
-15.9620815043
 10
-6.3061410712
 20
-18.9453543885
 10
-6.4330524585
 20
-21.9175207125
 10
-6.5329027141
 20
-24.878207503
  0
LINE
  5
2BC
100
AcDbEntity
  8
RACCORDO
100
AcDbLine
 62
250
  6
CONTINUOUS
 10
-5.5282581649
 20
-6.9493742896
 11
-5.7632189418
 21
-9.9637150023
  0
LINE
  5
2BD
100
AcDbEntity
  8
RACCORDO
100
AcDbLine
 62
250
  6
CONTINUOUS
 10
-5.2663501315
 20
-3.9254327801
 11
-5.5282581649
 21
-6.9493742896
  0
LWPOLYLINE
  5
2BE
100
AcDbEntity
  8
RACCORDO
100
AcDbPolyline
 62
250
  6
CONTINUOUS
 90
3
 70
0
 10
-4.661827784
 20
2.1497334767
 10
-4.9775278648
 20
-0.8922700035
 10
-5.2663501315
 20
-3.9254327801
  0
LWPOLYLINE
  5
2BF
100
AcDbEntity
  8
RACCORDO
100
AcDbPolyline
 62
250
  6
CONTINUOUS
 90
4
 70
0
 10
-3.5538722761
 20
11.3249635588
 10
-3.9499555855
 20
8.2587338518
 10
-4.3192894544
 20
5.2001957993
 10
-4.661827784
 20
2.1497334767
  0
LINE
  5
2C0
100
AcDbEntity
  8
0
100
AcDbLine
 62
7
  6
CONTINUOUS
 10
-13.302719794
 20
-13.9165922195
 11
-13.320034864
 21
-13.9520804991
  0
LWPOLYLINE
  5
2C1
100
AcDbEntity
  8
715140000
100
AcDbPolyline
 62
250
  6
CONTINUOUS
 90
47
 70
0
 10
9.4427286539
 20
20.0797725814
 10
9.4714954336
 20
20.1182255462
 10
9.5207786519
 20
20.1750062236
 10
9.5759123266
 20
20.2305968379
 10
9.6364158049
 20
20.2845393602
 10
9.7022881565
 20
20.3367922597
 10
9.7735303118
 20
20.3873970672
 10
9.8496644095
 20
20.4360203457
 10
9.9306810385
 20
20.4826480882
 10
10.0165896099
 20
20.5272943018
 10
10.1069404956
 20
20.5696675709
 10
10.2019907758
 20
20.6098267689
 10
10.3014833703
 20
20.6477130224
 10
10.4041974107
 20
20.6828582955
 10
10.5105382794
 20
20.7152360154
 10
10.620100594
 20
20.744872755
 10
10.7304473384
 20
20.7713801972
 10
10.8415518553
 20
20.7945795906
 10
10.953440802
 20
20.8146496867
 10
11.0637571342
 20
20.8317384225
 10
11.172147624
 20
20.8457123183
 10
11.2789654993
 20
20.8567048539
 10
11.3829133985
 20
20.8652644051
 10
11.4837492329
 20
20.8713669747
 10
11.5817150911
 20
20.8750365599
 10
11.6762398775
 20
20.8768935287
 10
11.7671616176
 20
20.8769593975
 10
11.8546422858
 20
20.87521265
 10
11.9385967091
 20
20.8722091047
 10
12.0189007825
 20
20.867990304
 10
12.0956786111
 20
20.8625147055
 10
12.1692173376
 20
20.8562134999
 10
12.2394838712
 20
20.8491274661
 10
12.3065113028
 20
20.8412158252
 10
12.370686047
 20
20.8327874311
 10
12.4319937938
 20
20.8238767905
 10
12.4904488532
 20
20.8144493967
 10
12.5464805697
 20
20.8047105829
 10
12.6000851533
 20
20.7946890612
 10
12.6512663939
 20
20.7843561194
 10
12.7004650062
 20
20.7738309547
 10
12.7476841511
 20
20.7631364155
 10
12.7929206677
 20
20.7522496534
 10
12.8366057876
 20
20.7412213198
 10
12.8788832547
 20
20.7300682985
 10
12.9196093251
 20
20.7187737056
 10
12.9587839988
 20
20.7073375413
  0
LWPOLYLINE
  5
2C2
100
AcDbEntity
  8
715140000
100
AcDbPolyline
 62
250
  6
CONTINUOUS
 90
9
 70
0
 10
9.361837637
 20
20.1128182453
 10
9.406066129
 20
20.1636183021
 10
9.4651449995
 20
20.2228775194
 10
9.5302377789
 20
20.2804854526
 10
9.6011136107
 20
20.3362589202
 10
9.6776067485
 20
20.3900868557
 10
9.7595981522
 20
20.4418880394
 10
9.8468467492
 20
20.4915056787
 10
9.8673439107
 20
20.502442047
  0
LINE
  5
2C3
100
AcDbEntity
  8
268140000
100
AcDbLine
 62
7
  6
CONTINUOUS
 10
-2.7040064507
 20
16.8163579038
 11
-2.7040064507
 21
16.6645793922
  0
LINE
  5
2C4
100
AcDbEntity
  8
268140000
100
AcDbLine
 62
250
  6
CONTINUOUS
 10
-2.0351382774
 20
17.8814364613
 11
-2.0351382774
 21
19.0963913273
  0
LWPOLYLINE
  5
2C5
100
AcDbEntity
  8
RACCORDO
100
AcDbPolyline
 62
250
  6
CONTINUOUS
 90
16
 70
0
 10
-1.9014625477
 20
11.9600105854
 10
-1.8993711329
 20
12.0362936275
 10
-1.9033893933
 20
12.1148784418
 10
-1.9134733531
 20
12.1949043955
 10
-1.9295126063
 20
12.2754950682
 10
-1.9513315234
 20
12.3557678418
 10
-1.9786911722
 20
12.4348435667
 10
-2.0112919399
 20
12.5118562086
 10
-2.0487768079
 20
12.585962313
 10
-2.0907352535
 20
12.6563502372
 10
-2.1367077664
 20
12.7222490782
 10
-2.1861908672
 20
12.782937086
 10
-2.2386426053
 20
12.8377495586
 10
-2.2934885249
 20
12.8860861611
 10
-2.3501279599
 20
12.927417494
 10
-2.4079405919
 20
12.9612908704
  0
LWPOLYLINE
  5
2C6
100
AcDbEntity
  8
RACCORDO
100
AcDbPolyline
 62
250
  6
CONTINUOUS
 90
7
 70
0
 10
-4.4098915125
 20
-7.0269535656
 10
-4.6442114325
 20
-10.0331385945
 10
-4.8516569643
 20
-13.0297497165
 10
-5.032149825
 20
-16.0156527885
 10
-5.1856639204
 20
-18.9904697627
 10
-5.3122253447
 20
-21.954578687
 10
-5.4118340979
 20
-24.9079795612
  0
LWPOLYLINE
  5
2C7
100
AcDbEntity
  8
RACCORDO
100
AcDbPolyline
 62
250
  6
CONTINUOUS
 90
7
 70
0
 10
-2.4407477411
 20
11.1986497111
 10
-2.8358517474
 20
8.1399729131
 10
-3.2041904026
 20
5.0897266159
 10
-3.5457637067
 20
2.0479108194
 10
-3.8606080054
 20
-0.9858556118
 10
-4.148686953
 20
-4.0111915421
 10
-4.4098915125
 20
-7.0269535656
  0
LINE
  5
2C8
100
AcDbEntity
  8
268140000
100
AcDbLine
 62
7
  6
CONTINUOUS
 10
0.6428727469
 20
-4.8288793938
 11
0.9729488115
 21
-4.9939174261
  0
LWPOLYLINE
  5
2C9
100
AcDbEntity
  8
268140000
100
AcDbPolyline
 62
7
  6
CONTINUOUS
 90
13
 70
0
 10
9.140080321
 20
-17.4236543084
 10
9.1371891559
 20
-17.4197611174
 10
9.1335003918
 20
-17.4153787772
 10
9.1290404278
 20
-17.4106214844
 10
9.1238475695
 20
-17.4054816298
 10
9.1179649124
 20
-17.399934271
 10
9.1114043782
 20
-17.3940666724
 10
9.104197475
 20
-17.3878693645
 10
9.0963803293
 20
-17.3813242398
 10
9.0879563899
 20
-17.3745033637
 10
9.0789434985
 20
-17.3674213389
 10
9.0693816532
 20
-17.3600376956
 10
9.059301896
 20
-17.352341141
  0
LINE
  5
2CA
100
AcDbEntity
  8
268140000
100
AcDbLine
 62
7
  6
CONTINUOUS
 10
0.0355725564
 20
-12.2091976339
 11
0.699735409
 21
-18.399712965
  0
LINE
  5
2CB
100
AcDbEntity
  8
268140000
100
AcDbLine
 62
7
  6
CONTINUOUS
 10
0.3688713509
 20
-8.1587276831
 11
0.3995924004
 21
-8.4474165396
  0
LINE
  5
2CC
100
AcDbEntity
  8
268140000
100
AcDbLine
 62
7
  6
CONTINUOUS
 10
-1.678701618
 20
22.1353863218
 11
-1.678701618
 21
23.384681155
  0
LINE
  5
2CD
100
AcDbEntity
  8
268140000
100
AcDbLine
 62
250
  6
CONTINUOUS
 10
-1.6121119258
 20
17.8830753088
 11
-1.6121119258
 21
19.0972787816
  0
LINE
  5
2CE
100
AcDbEntity
  8
268140000
100
AcDbLine
 62
7
  6
CONTINUOUS
 10
-1.3251482274
 20
22.6553462704
 11
-1.3251482274
 21
23.2079044597
  0
LINE
  5
2CF
100
AcDbEntity
  8
268140000
100
AcDbLine
 62
250
  6
CONTINUOUS
 10
-1.2544375492
 20
24.8241127572
 11
-1.2544375492
 21
23.5922785759
  0
LINE
  5
2D0
100
AcDbEntity
  8
268140000
100
AcDbLine
 62
7
  6
CONTINUOUS
 10
-1.1665695836
 20
24.9291099708
 11
-1.1665695836
 21
23.696741365
  0
LINE
  5
2D1
100
AcDbEntity
  8
268140000
100
AcDbLine
 62
7
  6
CONTINUOUS
 10
-1.113016193
 20
19.3474754548
 11
-1.113016193
 21
18.1350398895
  0
LINE
  5
2D2
100
AcDbEntity
  8
268140000
100
AcDbLine
 62
7
  6
CONTINUOUS
 10
-0.1127821321
 20
-24.4349866022
 11
-0.1127821321
 21
-24.1816152084
  0
LINE
  5
2D3
100
AcDbEntity
  8
268140000
100
AcDbLine
 62
7
  6
CONTINUOUS
 10
-0.1127821321
 20
17.1179889309
 11
-0.1127821321
 21
17.3713603247
  0
LWPOLYLINE
  5
2D4
100
AcDbEntity
  8
RACCORDO
100
AcDbPolyline
 62
250
  6
CONTINUOUS
 90
11
 70
0
 10
-4.9690599726
 20
-25.3194857588
 10
-4.9793258801
 20
-25.3933762148
 10
-4.995566247
 20
-25.4633202897
 10
-5.0176032097
 20
-25.5285519586
 10
-5.0451954199
 20
-25.5883568065
 10
-5.0780406888
 20
-25.6420798529
 10
-5.1157792962
 20
-25.6891327248
 10
-5.1579979301
 20
-25.7290001009
 10
-5.2042342137
 20
-25.7612453551
 10
-5.2539817687
 20
-25.7855153385
 10
-5.2707625022
 20
-25.7916211868
  0
LINE
  5
2D5
100
AcDbEntity
  8
218140040
100
AcDbLine
 62
7
  6
CONTINUOUS
 10
19.2498947824
 20
13.6038036584
 11
20.165071569
 21
14.1957322772
  0
LINE
  5
2D6
100
AcDbEntity
  8
268140000
100
AcDbLine
 62
7
  6
CONTINUOUS
 10
0.9729488115
 20
-4.9939174261
 11
2.7053604254
 21
-21.4080783335
  0
LWPOLYLINE
  5
2D7
100
AcDbEntity
  8
268140000
100
AcDbPolyline
 62
7
  6
CONTINUOUS
 90
24
 70
0
 10
1.4325682193
 20
23.6987870037
 10
1.4319950348
 20
23.7332594099
 10
1.4302959218
 20
23.7670093309
 10
1.4274708803
 20
23.8000367666
 10
1.4235104457
 20
23.832398324
 10
1.4184240826
 20
23.8640373962
 10
1.4122401842
 20
23.8947841628
 10
1.4049575688
 20
23.9246196902
 10
1.3965774181
 20
23.9535629119
 10
1.3871316709
 20
23.9815008079
 10
1.3766078124
 20
24.0084469707
 10
1.3650183573
 20
24.0343878077
 10
1.3524327886
 20
24.0591695205
 10
1.3388576027
 20
24.0827668219
 10
1.3242863032
 20
24.1052049992
 10
1.3087688832
 20
24.1264061165
 10
1.2922855958
 20
24.1463832064
 10
1.2748561879
 20
24.1651232363
 10
1.2565898933
 20
24.1825091718
 10
1.2375012374
 20
24.1985180982
 10
1.2175756947
 20
24.2131729302
 10
1.1968789222
 20
24.2264253786
 10
1.1753864076
 20
24.2382812399
 10
-2.0536482096
 20
25.8528224257
  0
LINE
  5
2D8
100
AcDbEntity
  8
268140000
100
AcDbLine
 62
7
  6
CONTINUOUS
 10
0.5902108222
 20
16.2114296763
 11
0.5902108222
 21
16.6637606519
  0
LINE
  5
2D9
100
AcDbEntity
  8
268140000
100
AcDbLine
 62
7
  6
CONTINUOUS
 10
1.4325682193
 20
23.6987870037
 11
1.4325682193
 21
23.4279867111
  0
LINE
  5
2DA
100
AcDbEntity
  8
268140000
100
AcDbLine
 62
7
  6
CONTINUOUS
 10
1.4929943301
 20
16.5684720936
 11
1.4929943301
 21
16.3151006999
  0
LINE
  5
2DB
100
AcDbEntity
  8
268140000
100
AcDbLine
 62
7
  6
CONTINUOUS
 10
1.4929943301
 20
-24.9845034395
 11
1.4929943301
 21
-25.2378748333
  0
LINE
  5
2DC
100
AcDbEntity
  8
268140000
100
AcDbLine
 62
7
  6
CONTINUOUS
 10
1.892187627
 20
14.5426563702
 11
1.892187627
 21
14.518260865
  0
LINE
  5
2DD
100
AcDbEntity
  8
268140000
100
AcDbLine
 62
7
  6
CONTINUOUS
 10
1.892187627
 20
-23.5868569016
 11
1.892187627
 21
-23.6112524068
  0
LINE
  5
2DE
100
AcDbEntity
  8
268140000
100
AcDbLine
 62
7
  6
CONTINUOUS
 10
2.2042149382
 20
-24.0080069624
 11
2.2042149382
 21
-23.6033848714
  0
LINE
  5
2DF
100
AcDbEntity
  8
268140000
100
AcDbLine
 62
7
  6
CONTINUOUS
 10
2.2042149382
 20
15.4044276183
 11
2.2042149382
 21
16.041597177
  0
LINE
  5
2E0
100
AcDbEntity
  8
RACCORDO
100
AcDbLine
 62
7
  6
CONTINUOUS
 10
-0.9319602095
 20
-23.9673031526
 11
2.1502209451
 21
13.489424433
  0
LINE
  5
2E1
100
AcDbEntity
  8
268140000
100
AcDbLine
 62
7
  6
CONTINUOUS
 10
2.7053604254
 20
13.1526550953
 11
0.9729488115
 21
-4.9939174261
  0
LWPOLYLINE
  5
2E2
100
AcDbEntity
  8
218140040
100
AcDbPolyline
 62
250
  6
CONTINUOUS
 90
57
 70
0
 10
18.9692345828
 20
13.8563160621
 10
18.9750969763
 20
13.861553994
 10
18.9809313296
 20
13.8665674534
 10
18.9867365642
 20
13.8713565244
 10
18.9925057707
 20
13.8759228051
 10
18.9982437853
 20
13.8802647972
 10
19.0039666312
 20
13.884378155
 10
19.0096747936
 20
13.8882663525
 10
19.0153644635
 20
13.8919264892
 10
19.0210443586
 20
13.8953450078
 10
19.026714257
 20
13.8985240307
 10
19.0323702356
 20
13.9014622278
 10
19.0380149199
 20
13.904141053
 10
19.043644321
 20
13.9065606016
 10
19.0492578256
 20
13.9087216003
 10
19.0548625484
 20
13.9106066318
 10
19.0604437901
 20
13.9122173164
 10
19.0660109498
 20
13.913552946
 10
19.0716050586
 20
13.9145933665
 10
19.0772169532
 20
13.915349421
 10
19.0828461899
 20
13.9158124396
 10
19.0885423559
 20
13.9159344646
 10
19.0943150932
 20
13.9157221704
 10
19.1001381391
 20
13.9151728834
 10
19.1060042034
 20
13.914225465
 10
19.1119086019
 20
13.9128761908
 10
19.1178378888
 20
13.9111325272
 10
19.1237717986
 20
13.9089498886
 10
19.1296999988
 20
13.9063236008
 10
19.1356145576
 20
13.9032613354
 10
19.1414995588
 20
13.8997366167
 10
19.1473369851
 20
13.8957535423
 10
19.1531263931
 20
13.8913102653
 10
19.1588767088
 20
13.8863715459
 10
19.1645714997
 20
13.8809451631
 10
19.1702036309
 20
13.8750258877
 10
19.1757907531
 20
13.8685598744
 10
19.1813180709
 20
13.8615488565
 10
19.186767686
 20
13.8539943194
 10
19.1921457455
 20
13.845843053
 10
19.1974329204
 20
13.8370925488
 10
19.2026061883
 20
13.827748537
 10
19.2076594791
 20
13.8177708221
 10
19.2125667138
 20
13.8071571457
 10
19.2173017582
 20
13.7959121496
 10
19.2218513499
 20
13.784006348
 10
19.2261806914
 20
13.7714445845
 10
19.2302607928
 20
13.7582227638
 10
19.2340763552
 20
13.744298325
 10
19.2375807789
 20
13.7296893997
 10
19.2407384568
 20
13.7143762162
 10
19.2435290487
 20
13.6982598727
 10
19.2458954772
 20
13.6813064285
 10
19.2477720504
 20
13.6635445029
 10
19.2490996372
 20
13.6449684778
 10
19.2498048087
 20
13.6254158146
 10
19.249894782
 20
13.61548216
  0
LWPOLYLINE
  5
2E3
100
AcDbEntity
  8
218140040
100
AcDbPolyline
 62
7
  6
CONTINUOUS
 90
136
 70
0
 10
19.086778782
 20
13.9936673559
 10
19.1461447781
 20
14.0423700338
 10
19.2036340345
 20
14.0898577114
 10
19.2592465511
 20
14.1361303889
 10
19.3129272794
 20
14.1811534977
 10
19.364731268
 20
14.2249616063
 10
19.4148236624
 20
14.2676584199
 10
19.4632118607
 20
14.3092489979
 10
19.5098884649
 20
14.3497282809
 10
19.5549964266
 20
14.3891847964
 10
19.5985399741
 20
14.4276210977
 10
19.6405148791
 20
14.4650346315
 10
19.6810514087
 20
14.5015062646
 10
19.7201534563
 20
14.5370383621
 10
19.7578171284
 20
14.5716285589
 10
19.7941610117
 20
14.6053506267
 10
19.8291887018
 20
14.6382067756
 10
19.8628966031
 20
14.6701947956
 10
19.8953925146
 20
14.7013818277
 10
19.9266797568
 20
14.7317699524
 10
19.9567550091
 20
14.7613570894
 10
19.9857161095
 20
14.7902041386
 10
20.0135661257
 20
14.8183130832
 10
20.0403019899
 20
14.8456819401
 10
20.0660123368
 20
14.8723656604
 10
20.0906999954
 20
14.8983661642
 10
20.1143621366
 20
14.9236815315
 10
20.1370789077
 20
14.948360953
 10
20.1588529028
 20
14.9724063249
 10
20.1796815277
 20
14.995815751
 10
20.1996371467
 20
15.0186327344
 10
20.2187221062
 20
15.0408591891
 10
20.2369340598
 20
15.062493201
 10
20.2543383318
 20
15.0835725306
 10
20.27093698
 20
15.1040991479
 10
20.2867279466
 20
15.1240710829
 10
20.3017703835
 20
15.143520186
 10
20.3160659781
 20
15.1624485037
 10
20.329613043
 20
15.1808539894
 10
20.3424656671
 20
15.1987623543
 10
20.3546250346
 20
15.2161756947
 10
20.3660899614
 20
15.2330919143
 10
20.3769109843
 20
15.2495304349
 10
20.3870885367
 20
15.2654931576
 10
20.3966221851
 20
15.2809781814
 10
20.4055611654
 20
15.2959992254
 10
20.4139052023
 20
15.3105581224
 10
20.4216545711
 20
15.3246530396
 10
20.4288593334
 20
15.3382921978
 10
20.4355181361
 20
15.3514764467
 10
20.4416323323
 20
15.3642049364
 10
20.4472560435
 20
15.3764833386
 10
20.452384602
 20
15.3883024444
 10
20.4570226756
 20
15.3996714626
 10
20.4612383895
 20
15.4106236901
 10
20.4650297639
 20
15.4211455241
 10
20.4683987788
 20
15.4312505675
 10
20.4714194985
 20
15.441012926
 10
20.4740973044
 20
15.4504304641
 10
20.4764268152
 20
15.4595053173
 10
20.4784659514
 20
15.4683179972
 10
20.4802221313
 20
15.4768735986
 10
20.4816879366
 20
15.4851670268
 10
20.4828990329
 20
15.4932635097
 10
20.4838616863
 20
15.5011673198
 10
20.4845696306
 20
15.5088741845
 10
20.4850397329
 20
15.5164365142
 10
20.4852776149
 20
15.5238575227
 10
20.4852776549
 20
15.5311339961
 10
20.4850398544
 20
15.5383087037
 10
20.4845698355
 20
15.5453842519
 10
20.4838619761
 20
15.5523580343
 10
20.4828994111
 20
15.559265001
 10
20.4816884064
 20
15.5661073709
 10
20.480222696
 20
15.5728829252
 10
20.4784666171
 20
15.5796199579
 10
20.4764275889
 20
15.5863210538
 10
20.4740981923
 20
15.592983628
 10
20.4714205065
 20
15.5996282203
 10
20.4683999159
 20
15.6062625367
 10
20.4650310361
 20
15.6128788711
 10
20.4612397944
 20
15.6194746446
 10
20.4570242096
 20
15.6260614153
 10
20.4523862628
 20
15.6326276252
 10
20.4472578246
 20
15.6391360212
 10
20.4416342258
 20
15.645590979
 10
20.4355201356
 20
15.651988123
 10
20.4288614328
 20
15.6582770729
 10
20.4216567655
 20
15.6644555758
 10
20.4139074856
 20
15.6705258847
 10
20.4055635276
 20
15.6764443786
 10
20.3966246151
 20
15.6822089402
 10
20.3870910245
 20
15.6878216868
 10
20.3769135194
 20
15.6932453492
 10
20.3660925334
 20
15.6984784751
 10
20.354627633
 20
15.7035225168
 10
20.3424682812
 20
15.7083445622
 10
20.3296156617
 20
15.7129437409
 10
20.3160685908
 20
15.7173209233
 10
20.3017729799
 20
15.7214458081
 10
20.2867305166
 20
15.7253180963
 10
20.2709395134
 20
15.7289380869
 10
20.2543408197
 20
15.7322763763
 10
20.2369364929
 20
15.7353331251
 10
20.2187244755
 20
15.7381081725
 10
20.1996394445
 20
15.7405716335
 10
20.1796837465
 20
15.7427240238
 10
20.1588550348
 20
15.7445648275
 10
20.1370809472
 20
15.7460626123
 10
20.1143640778
 20
15.7472181687
 10
20.0907018325
 20
15.7480307062
 10
20.066014066
 20
15.7484664212
 10
20.0403036075
 20
15.7485263234
 10
20.0135676279
 20
15.7482094032
 10
19.9857174946
 20
15.7474788284
 10
19.9567562755
 20
15.7463357929
 10
19.9266809028
 20
15.7447791028
 10
19.8953935411
 20
15.7427683452
 10
19.8628975106
 20
15.7403048779
 10
19.8291894911
 20
15.737387343
 10
19.794161686
 20
15.7339712535
 10
19.7578176911
 20
15.7300581227
 10
19.7201539106
 20
15.7256464372
 10
19.6810517607
 20
15.72068717
 10
19.6405151348
 20
15.7151819876
 10
19.5985401396
 20
15.7091292234
 10
19.5549965112
 20
15.7024748501
 10
19.5098884777
 20
15.6952206928
 10
19.463211811
 20
15.6873649263
 10
19.4148235628
 20
15.6788480489
 10
19.3647311266
 20
15.6696726612
 10
19.3129271089
 20
15.6598361624
 10
19.2592463803
 20
15.6492712488
 10
19.2036338976
 20
15.6379554859
 10
19.146144704
 20
15.6259113082
 10
19.0867787995
 20
15.6131387157
  0
LWPOLYLINE
  5
2E4
100
AcDbEntity
  8
268140000
100
AcDbPolyline
 62
7
  6
CONTINUOUS
 90
31
 70
0
 10
3.65995458
 20
15.4454340697
 10
3.6596149125
 20
15.4614671018
 10
3.658598475
 20
15.477795671
 10
3.6569077417
 20
15.4943748742
 10
3.6545467371
 20
15.5111589739
 10
3.6515219255
 20
15.5281019679
 10
3.647842193
 20
15.5451577162
 10
3.64351734
 20
15.5622793348
 10
3.6385589101
 20
15.5794197457
 10
3.6329810596
 20
15.5965322505
 10
3.6267988154
 20
15.6135698203
 10
3.6200288251
 20
15.6304856124
 10
3.6126901667
 20
15.64723352
 10
3.6048027247
 20
15.6637675272
 10
3.5963878408
 20
15.6800421799
 10
3.5874690457
 20
15.6960130982
 10
3.5780705919
 20
15.7116364123
 10
3.5682179902
 20
15.7268691762
 10
3.5579386448
 20
15.7416698305
 10
3.5472605794
 20
15.7559977317
 10
3.5362128456
 20
15.7698134998
 10
3.5248260464
 20
15.7830794198
 10
3.5131312866
 20
15.7957590758
 10
3.5011604434
 20
15.8078176237
 10
3.4889465645
 20
15.8192221225
 10
3.47652307
 20
15.8299412806
 10
3.4639238777
 20
15.839945648
 10
3.4511836653
 20
15.8492078694
 10
3.4383373692
 20
15.8577025607
 10
3.4254200888
 20
15.8654063783
 10
3.4124672066
 20
15.8722981897
  0
LINE
  5
2E5
100
AcDbEntity
  8
268140000
100
AcDbLine
 62
7
  6
CONTINUOUS
 10
2.7053604254
 20
14.8025625329
 11
2.7053604254
 21
13.1526550953
  0
LINE
  5
2E6
100
AcDbEntity
  8
268140000
100
AcDbLine
 62
7
  6
CONTINUOUS
 10
2.7053604254
 20
-21.4080783335
 11
2.7053604254
 21
-23.0579857711
  0
LINE
  5
2E7
100
AcDbEntity
  8
268140000
100
AcDbLine
 62
7
  6
CONTINUOUS
 10
3.2710458503
 20
-23.0813719031
 11
3.2710458503
 21
-24.5869800293
  0
LINE
  5
2E8
100
AcDbEntity
  8
268140000
100
AcDbLine
 62
7
  6
CONTINUOUS
 10
3.2710458503
 20
15.9430088678
 11
3.2710458503
 21
17.6750596753
  0
LINE
  5
2E9
100
AcDbEntity
  8
268140000
100
AcDbLine
 62
7
  6
CONTINUOUS
 10
3.9740388046
 20
17.8103811731
 11
3.9740388046
 21
17.5494521967
  0
LINE
  5
2EA
100
AcDbEntity
  8
268140000
100
AcDbLine
 62
7
  6
CONTINUOUS
 10
3.9740388046
 20
-23.7501519426
 11
3.9740388046
 21
-24.011080919
  0
LINE
  5
2EB
100
AcDbEntity
  8
268140000
100
AcDbLine
 62
250
  6
CONTINUOUS
 10
4.3012565022
 20
22.0474910651
 11
4.3012565022
 21
20.8156524868
  0
LINE
  5
2EC
100
AcDbEntity
  8
218140040
100
AcDbLine
 62
7
  6
CONTINUOUS
 10
4.3670613612
 20
12.007279153
 11
4.3670613612
 21
-18.6010014555
  0
LINE
  5
2ED
100
AcDbEntity
  8
268140000
100
AcDbLine
 62
7
  6
CONTINUOUS
 10
4.3670613612
 20
-22.3851520736
 11
4.3670613612
 21
15.7914297711
  0
LINE
  5
2EE
100
AcDbEntity
  8
268140000
100
AcDbLine
 62
7
  6
CONTINUOUS
 10
4.3878939306
 20
22.1518782138
 11
4.3878939306
 21
20.919509608
  0
LWPOLYLINE
  5
2EF
100
AcDbEntity
  8
268140000
100
AcDbPolyline
 62
7
  6
CONTINUOUS
 90
18
 70
0
 10
3.65995458
 20
-22.7462631534
 10
3.6596159355
 20
-22.7619570294
 10
3.658599292
 20
-22.7772690582
 10
3.6569077417
 20
-22.7921571195
 10
3.6545465245
 20
-22.8065801083
 10
3.651522113
 20
-22.8204984907
 10
3.647842193
 20
-22.8338744129
 10
3.6435171293
 20
-22.8466710731
 10
3.6385590796
 20
-22.8588532442
 10
3.6329810596
 20
-22.8703878137
 10
3.6267986117
 20
-22.8812430375
 10
3.6200289723
 20
-22.8913890148
 10
3.6126901667
 20
-22.9007981904
 10
3.6048025332
 20
-22.9094446598
 10
3.5963879622
 20
-22.917304585
 10
3.5874690457
 20
-22.9243566475
 10
3.5780704172
 20
-22.9305814205
 10
3.5699857865
 20
-22.9350756948
  0
LINE
  5
2F0
100
AcDbEntity
  8
218140040
100
AcDbLine
 62
250
  6
CONTINUOUS
 10
19.25903549
 20
13.6198624128
 11
19.2498947824
 21
13.6115141913
  0
LWPOLYLINE
  5
2F1
100
AcDbEntity
  8
RACCORDO
100
AcDbPolyline
 62
250
  6
CONTINUOUS
 90
11
 70
0
 10
-12.7218748844
 20
-16.1592664119
 10
-12.7781170922
 20
-16.196829402
 10
-12.8380833607
 20
-16.2267012831
 10
-12.9017142378
 20
-16.2490246543
 10
-12.9678144924
 20
-16.2633741846
 10
-13.0364734901
 20
-16.2695907506
 10
-13.1076069947
 20
-16.2678356763
 10
-13.1797594592
 20
-16.258164341
 10
-13.2524467446
 20
-16.2405956531
 10
-13.3261559023
 20
-16.2151119559
 10
-13.4008876579
 20
-16.1817135616
  0
LWPOLYLINE
  5
2F2
100
AcDbEntity
  8
268140000
100
AcDbPolyline
 62
7
  6
CONTINUOUS
 90
4
 70
0
 10
9.1434999548
 20
-17.4317538968
 10
9.1432654286
 20
-17.429965902
 10
9.1421246526
 20
-17.4270336763
 10
9.140080321
 20
-17.4236543084
  0
LINE
  5
2F3
100
AcDbEntity
  8
268140000
100
AcDbLine
 62
250
  6
CONTINUOUS
 10
9.059301896
 20
19.7916542877
 11
9.059301896
 21
19.5793951336
  0
LINE
  5
2F4
100
AcDbEntity
  8
268140000
100
AcDbLine
 62
250
  6
CONTINUOUS
 10
9.059301896
 20
-17.1625714369
 11
9.059301896
 21
-17.352341141
  0
LINE
  5
2F5
100
AcDbEntity
  8
268140000
100
AcDbLine
 62
7
  6
CONTINUOUS
 10
9.1434999559
 20
20.0795078327
 11
9.1434999559
 21
19.5031163504
  0
LINE
  5
2F6
100
AcDbEntity
  8
268140000
100
AcDbLine
 62
7
  6
CONTINUOUS
 10
9.1434999559
 20
-17.1180461158
 11
9.1434999559
 21
-17.4317971749
  0
LWPOLYLINE
  5
2F7
100
AcDbEntity
  8
218140040
100
AcDbPolyline
 62
7
  6
CONTINUOUS
 90
38
 70
0
 10
8.7588398512
 20
20.510729343
 10
8.7590241095
 20
20.5266462121
 10
8.7603215981
 20
20.555860852
 10
8.7628604771
 20
20.5850551079
 10
8.7666395999
 20
20.6142157939
 10
8.7716572596
 20
20.6433297394
 10
8.7779111899
 20
20.6723837949
 10
8.7853985663
 20
20.7013648378
 10
8.7941160068
 20
20.7302597787
 10
8.8040595743
 20
20.7590555669
 10
8.8152247777
 20
20.7877391966
 10
8.8276065741
 20
20.8162977125
 10
8.8411993711
 20
20.844718216
 10
8.8559970295
 20
20.8729878707
 10
8.8719928658
 20
20.9010939084
 10
8.8891796554
 20
20.9290236348
 10
8.9075496356
 20
20.9567644353
 10
8.9270945095
 20
20.9843037803
 10
8.9478054496
 20
21.0116292317
 10
8.9696731016
 20
21.0387284476
 10
8.9926875887
 20
21.0655891884
 10
9.0168385163
 20
21.0921993222
 10
9.0421149765
 20
21.1185468305
 10
9.0685055529
 20
21.1446198131
 10
9.0959983259
 20
21.1704064939
 10
9.1245808784
 20
21.1958952263
 10
9.1542403006
 20
21.2210744979
 10
9.1849631968
 20
21.2459329364
 10
9.2167356906
 20
21.2704593142
 10
9.2495434318
 20
21.2946425539
 10
9.2833716024
 20
21.3184717329
 10
9.3182049238
 20
21.3419360884
 10
9.3540276631
 20
21.3650250228
 10
9.3908236407
 20
21.3877281075
 10
9.4285762375
 20
21.4100350887
 10
9.4672684021
 20
21.4319358913
 10
9.506882659
 20
21.4534206234
 10
9.547401116
 20
21.4744795814
  0
LWPOLYLINE
  5
2F8
100
AcDbEntity
  8
268140000
100
AcDbPolyline
 62
7
  6
CONTINUOUS
 90
16
 70
0
 10
9.1434999548
 20
20.079490477
 10
9.1432654286
 20
20.0658164852
 10
9.1421246526
 20
20.046051294
 10
9.140080321
 20
20.0261976434
 10
9.1371891559
 20
20.0062618595
 10
9.1335003918
 20
19.9862796232
 10
9.1290404278
 20
19.9663178016
 10
9.1238475695
 20
19.9463970839
 10
9.1179649124
 20
19.9265293325
 10
9.1114043782
 20
19.9067691064
 10
9.104197475
 20
19.8871320397
 10
9.0963803293
 20
19.8676300752
 10
9.0879563899
 20
19.8483144762
 10
9.0789434985
 20
19.8292117498
 10
9.0693816532
 20
19.8103212559
 10
9.059301896
 20
19.7916542877
  0
LWPOLYLINE
  5
2F9
100
AcDbEntity
  8
218140040
100
AcDbPolyline
 62
7
  6
CONTINUOUS
 90
19
 70
0
 10
18.9692345828
 20
13.8563085071
 10
18.9745002575
 20
13.8647125169
 10
18.9799057801
 20
13.8730479009
 10
18.9854511506
 20
13.8813146592
 10
18.9911331581
 20
13.889519067
 10
18.9969550134
 20
13.897654849
 10
19.0029263493
 20
13.9057031795
 10
19.0090471067
 20
13.9136631093
 10
19.0153173447
 20
13.9215355875
 10
19.0217468732
 20
13.929304636
 10
19.0283381281
 20
13.9369721741
 10
19.0350886735
 20
13.9445362824
 10
19.0420010124
 20
13.9519752244
 10
19.0490796435
 20
13.9592917381
 10
19.056320068
 20
13.9664830854
 10
19.0637112934
 20
13.9735193159
 10
19.0712496554
 20
13.980390446
 10
19.0789388183
 20
13.9871064594
 10
19.086778782
 20
13.9936673559
  0
LINE
  5
2FA
100
AcDbEntity
  8
268140000
100
AcDbLine
 62
250
  6
CONTINUOUS
 10
0.3428208189
 20
-8.4753111786
 11
0.3995924004
 21
-8.4474165396
  0
LINE
  5
2FB
100
AcDbEntity
  8
268140000
100
AcDbLine
 62
7
  6
CONTINUOUS
 10
0.3357345576
 20
-8.5614281668
 11
0.3607616561
 21
-8.5491311362
  0
LINE
  5
2FC
100
AcDbEntity
  8
DRAFT
100
AcDbLine
 62
7
  6
CONTINUOUS
 10
-13.7244858491
 20
-14.1054633254
 11
-13.2675845347
 21
-13.9321893873
  0
LINE
  5
2FD
100
AcDbEntity
  8
RACCORDO
100
AcDbLine
 62
7
  6
CONTINUOUS
 10
-13.7245840736
 20
-13.8856695429
 11
-13.723467312
 21
-13.8852564447
  0
LWPOLYLINE
  5
2FE
100
AcDbEntity
  8
RACCORDO
100
AcDbPolyline
 62
7
  6
CONTINUOUS
 90
7
 70
0
 10
-13.7235672067
 20
-13.8853076314
 10
-13.6822592136
 20
-13.8723526958
 10
-13.6285585045
 20
-13.8617311074
 10
-13.5728030691
 20
-13.8573727425
 10
-13.5151708866
 20
-13.859304284
 10
-13.4560723282
 20
-13.8675167658
 10
-13.3958093597
 20
-13.8819977283
  0
LINE
  5
2FF
100
AcDbEntity
  8
RACCORDO
100
AcDbLine
 62
250
  6
CONTINUOUS
 10
-3.5538722761
 20
11.3249635588
 11
-17.6811433175
 21
18.3885990795
  0
LWPOLYLINE
  5
300
100
AcDbEntity
  8
218140040
100
AcDbPolyline
 62
7
  6
CONTINUOUS
 90
4
 70
0
 10
8.7622844675
 20
20.4426023637
 10
8.7601550869
 20
20.4682085637
 10
8.7589685974
 20
20.4974243833
 10
8.7588398512
 20
20.510729343
  0
LWPOLYLINE
  5
301
100
AcDbEntity
  8
268140000
100
AcDbPolyline
 62
7
  6
CONTINUOUS
 90
5
 70
0
 10
9.1434999559
 20
19.5031086432
 10
9.1434872873
 20
19.5034558992
 10
9.1431928842
 20
19.504973688
 10
9.1425175493
 20
19.5066903523
 10
9.1414734563
 20
19.5086100561
  0
LWPOLYLINE
  5
302
100
AcDbEntity
  8
268140000
100
AcDbPolyline
 62
7
  6
CONTINUOUS
 90
7
 70
0
 10
9.1434534636
 20
20.0854681315
 10
9.1433618555
 20
20.0897759328
 10
9.1432226848
 20
20.0940872635
 10
9.1430359514
 20
20.0984021234
 10
9.1428016553
 20
20.1027205128
 10
9.1425197965
 20
20.1070424315
 10
9.142190375
 20
20.1113678796
  0
LINE
  5
303
100
AcDbEntity
  8
268140000
100
AcDbLine
 62
7
  6
CONTINUOUS
 10
9.1434534636
 20
20.0854681315
 11
9.1434999548
 21
20.079490477
  0
LINE
  5
304
100
AcDbEntity
  8
218140040
100
AcDbLine
 62
250
  6
CONTINUOUS
 10
9.547401116
 20
21.0642605384
 11
9.547401116
 21
21.4744795814
  0
LINE
  5
305
100
AcDbEntity
  8
218140040
100
AcDbLine
 62
7
  6
CONTINUOUS
 10
10.2301113139
 20
21.4067186307
 11
10.2301113139
 21
20.9737059288
  0
LINE
  5
306
100
AcDbEntity
  8
715140000
100
AcDbLine
 62
7
  6
CONTINUOUS
 10
11.1975750264
 20
20.173353219
 11
11.1975750264
 21
19.7210285786
  0
LINE
  5
307
100
AcDbEntity
  8
268140000
100
AcDbLine
 62
7
  6
CONTINUOUS
 10
9.1434534636
 20
-17.4324760708
 11
9.1434999548
 21
-17.4317538968
  0
LWPOLYLINE
  5
308
100
AcDbEntity
  8
RACCORDO
100
AcDbPolyline
 62
250
  6
CONTINUOUS
 90
45
 70
0
 10
-13.0326030224
 20
-15.9689996674
 10
-13.01511619
 20
-15.9622152297
 10
-12.9803626222
 20
-15.9460402582
 10
-12.9470253441
 20
-15.9268300576
 10
-12.9151766038
 20
-15.9046475783
 10
-12.8848674439
 20
-15.8795345797
 10
-12.8561826254
 20
-15.8515528448
 10
-12.8292416958
 20
-15.8208100521
 10
-12.8041455941
 20
-15.7874191141
 10
-12.7809795419
 20
-15.7514937851
 10
-12.7598209905
 20
-15.7131545701
 10
-12.7407460235
 20
-15.6725419154
 10
-12.7238272307
 20
-15.6298222118
 10
-12.709107125
 20
-15.5851161326
 10
-12.6966149562
 20
-15.5384984862
 10
-12.6863932547
 20
-15.4900714236
 10
-12.6784993644
 20
-15.4400372167
 10
-12.6729752643
 20
-15.3886276723
 10
-12.6698408129
 20
-15.3360376074
 10
-12.6691044475
 20
-15.2824262144
 10
-12.6707685631
 20
-15.227984148
 10
-12.6748261085
 20
-15.1729030196
 10
-12.6812625755
 20
-15.1173637572
 10
-12.6900572381
 20
-15.0615443454
 10
-12.7011824409
 20
-15.005626823
 10
-12.714599944
 20
-14.9498085392
 10
-12.7302612271
 20
-14.8942906834
 10
-12.7481095498
 20
-14.8392694873
 10
-12.7680855815
 20
-14.7849235455
 10
-12.7901258147
 20
-14.7314253102
 10
-12.8141600293
 20
-14.6789482848
 10
-12.8401037672
 20
-14.6276796819
 10
-12.8678619186
 20
-14.577806891
 10
-12.8973333457
 20
-14.529507892
 10
-12.9284225115
 20
-14.4829357422
 10
-12.9610341889
 20
-14.4382330516
 10
-12.9950813488
 20
-14.3955249578
 10
-13.0304278807
 20
-14.3549877936
 10
-13.0668930716
 20
-14.3168215287
 10
-13.1043089797
 20
-14.2811806623
 10
-13.142582259
 20
-14.2481334716
 10
-13.181638104
 20
-14.2177369254
 10
-13.221364649
 20
-14.1900801583
 10
-13.2616092684
 20
-14.1652714599
 10
-13.3022364945
 20
-14.1433940329
  0
LINE
  5
309
100
AcDbEntity
  8
RACCORDO
100
AcDbLine
 62
7
  6
CONTINUOUS
 10
-12.8244865086
 20
-16.1115616412
 11
-12.8258219088
 21
-16.1120552351
  0
LINE
  5
30A
100
AcDbEntity
  8
DRAFT
100
AcDbLine
 62
7
  6
CONTINUOUS
 10
-13.032603021
 20
-15.9689996669
 11
-12.5232588018
 21
-15.7839282727
  0
LWPOLYLINE
  5
30B
100
AcDbEntity
  8
RACCORDO
100
AcDbPolyline
 62
250
  6
CONTINUOUS
 90
9
 70
0
 10
-12.8258219088
 20
-16.1120552351
 10
-12.8623081473
 20
-16.123887914
 10
-12.9233307327
 20
-16.1370656347
 10
-12.9866997279
 20
-16.1428663238
 10
-13.0519636712
 20
-16.141231328
 10
-13.1186613471
 20
-16.1321830289
 10
-13.1863413894
 20
-16.1157999013
 10
-13.2545694
 20
-16.0921933655
 10
-13.3229006167
 20
-16.0615272426
  0
LWPOLYLINE
  5
30C
100
AcDbEntity
  8
RACCORDO
100
AcDbPolyline
 62
7
  6
CONTINUOUS
 90
13
 70
0
 10
-13.0326030198
 20
-15.9689996665
 10
-13.0669009269
 20
-15.9800558442
 10
-13.1021664482
 20
-15.988630578
 10
-13.1382968349
 20
-15.9946632021
 10
-13.1751644184
 20
-15.9981014307
 10
-13.2126811908
 20
-15.9989082602
 10
-13.2508071105
 20
-15.997046325
 10
-13.2894817338
 20
-15.9924715052
 10
-13.3285557708
 20
-15.9851549853
 10
-13.3678651556
 20
-15.9750918133
 10
-13.4072886834
 20
-15.9622848482
 10
-13.4467432774
 20
-15.9467317952
 10
-13.4861261098
 20
-15.9284405458
  0
LINE
  5
30D
100
AcDbEntity
  8
RACCORDO
100
AcDbLine
 62
250
  6
CONTINUOUS
 10
-2.4079405937
 20
12.9612908697
 11
-16.5521506662
 21
20.0333959059
  0
LINE
  5
30E
100
AcDbEntity
  8
715140000
100
AcDbLine
 62
7
  6
CONTINUOUS
 10
11.6473196878
 20
20.0516053858
 11
11.6473196878
 21
19.711980796
  0
LINE
  5
30F
100
AcDbEntity
  8
218140040
100
AcDbLine
 62
7
  6
CONTINUOUS
 10
11.6856165465
 20
21.3472960648
 11
11.6856165465
 21
20.9035427688
  0
LWPOLYLINE
  5
310
100
AcDbEntity
  8
268140000
100
AcDbPolyline
 62
7
  6
CONTINUOUS
 90
7
 70
0
 10
9.1434534636
 20
-17.4324760708
 10
9.1433618555
 20
-17.4329616783
 10
9.1432226848
 20
-17.4334738261
 10
9.1430359514
 20
-17.4340125141
 10
9.1428016553
 20
-17.4345777424
 10
9.1425197965
 20
-17.435169511
 10
9.142190375
 20
-17.4357878199
  0
LWPOLYLINE
  5
311
100
AcDbEntity
  8
RACCORDO
100
AcDbPolyline
 62
250
  6
CONTINUOUS
 90
16
 70
0
 10
-2.4407477411
 20
11.1986497111
 10
-2.5023493732
 20
11.1841441337
 10
-2.5692460605
 20
11.1728631965
 10
-2.6407210151
 20
11.164927773
 10
-2.7160083935
 20
11.1604228901
 10
-2.7943015027
 20
11.1593968168
 10
-2.8747614439
 20
11.1618605476
 10
-2.9565261008
 20
11.1677876837
 10
-3.0387193775
 20
11.177114717
 10
-3.1204605852
 20
11.1897417095
 10
-3.2008738793
 20
11.205533365
 10
-3.2790976433
 20
11.2243204783
 10
-3.3542937214
 20
11.2459017483
 10
-3.4256563988
 20
11.2700459351
 10
-3.4924210351
 20
11.2964943373
 10
-3.5538722574
 20
11.3249635642
  0
LWPOLYLINE
  5
312
100
AcDbEntity
  8
218140040
100
AcDbPolyline
 62
7
  6
CONTINUOUS
 90
19
 70
0
 10
19.0867787995
 20
15.6131387157
 10
19.0789416737
 20
15.6115813734
 10
19.0712541482
 20
15.6103351953
 10
19.063716223
 20
15.6094001812
 10
19.0563239159
 20
15.6087824149
 10
19.0490812092
 20
15.6084758126
 10
19.0420000493
 20
15.6084621239
 10
19.0350850376
 20
15.6087433979
 10
19.0283315728
 20
15.6093175853
 10
19.0217377963
 20
15.6101602881
 10
19.0153062241
 20
15.6112721962
 10
19.0090343404
 20
15.6126526196
 10
19.0029127391
 20
15.6142750899
 10
18.9969414576
 20
15.6161405241
 10
18.9911204584
 20
15.6182480051
 10
18.9854402232
 20
15.6205683133
 10
18.9798975791
 20
15.6230917085
 10
18.9744956989
 20
15.6258279308
 10
18.9692345828
 20
15.6287769801
  0
LINE
  5
313
100
AcDbEntity
  8
268140000
100
AcDbLine
 62
7
  6
CONTINUOUS
 10
2.1455421223
 20
13.4325642469
 11
2.7053604254
 21
13.1526550953
  0
LINE
  5
314
100
AcDbEntity
  8
218140040
100
AcDbLine
 62
7
  6
CONTINUOUS
 10
13.7698378806
 20
23.5092667786
 11
13.7698378806
 21
23.1823007309
  0
LINE
  5
315
100
AcDbEntity
  8
268140000
100
AcDbLine
 62
7
  6
CONTINUOUS
 10
-0.0249080128
 20
-23.9496639204
 11
0.5538823274
 21
-23.2452201903
  0
LINE
  5
316
100
AcDbEntity
  8
RACCORDO
100
AcDbLine
 62
7
  6
CONTINUOUS
 10
-12.6399863941
 20
21.6325693639
 11
1.6437428992
 21
14.4907047173
  0
LINE
  5
317
100
AcDbEntity
  8
268140000
100
AcDbLine
 62
7
  6
CONTINUOUS
 10
-13.8762935934
 20
22.4025014752
 11
1.892187627
 21
14.518260865
  0
LINE
  5
318
100
AcDbEntity
  8
268140000
100
AcDbLine
 62
7
  6
CONTINUOUS
 10
1.6447002536
 20
14.9695204902
 11
-13.62880622
 21
22.606273727
  0
LINE
  5
319
100
AcDbEntity
  8
268140000
100
AcDbLine
 62
7
  6
CONTINUOUS
 10
2.2042149382
 20
15.4044276183
 11
0.5902108222
 21
16.2114296763
  0
LINE
  5
31A
100
AcDbEntity
  8
268140000
100
AcDbLine
 62
7
  6
CONTINUOUS
 10
-11.1601032262
 20
22.0865867005
 11
-12.7741073422
 21
22.8935887585
  0
LINE
  5
31B
100
AcDbEntity
  8
268140000
100
AcDbLine
 62
7
  6
CONTINUOUS
 10
-7.8276473454
 20
20.7776909953
 11
-2.0351382774
 21
17.8814364613
  0
LINE
  5
31C
100
AcDbEntity
  8
268140000
100
AcDbLine
 62
7
  6
CONTINUOUS
 10
-13.4125050037
 20
23.6651185648
 11
-11.8059725343
 21
22.8618523302
  0
LINE
  5
31D
100
AcDbEntity
  8
268140000
100
AcDbLine
 62
7
  6
CONTINUOUS
 10
-0.0481868392
 20
16.9829594826
 11
1.5583456301
 21
16.179693248
  0
LINE
  5
31E
100
AcDbEntity
  8
268140000
100
AcDbLine
 62
250
  6
CONTINUOUS
 10
-13.4771002965
 20
23.8001480132
 11
-11.8713238343
 21
22.9972597821
  0
LINE
  5
31F
100
AcDbEntity
  8
268140000
100
AcDbLine
 62
250
  6
CONTINUOUS
 10
-0.1127821321
 20
17.1179889309
 11
1.4929943301
 21
16.3151006999
  0
LINE
  5
320
100
AcDbEntity
  8
268140000
100
AcDbLine
 62
250
  6
CONTINUOUS
 10
1.4929943301
 20
16.5684720936
 11
-0.1127821321
 21
17.3713603247
  0
LINE
  5
321
100
AcDbEntity
  8
268140000
100
AcDbLine
 62
250
  6
CONTINUOUS
 10
-11.8713238343
 20
23.2506311758
 11
-13.4771002965
 21
24.0535194069
  0
LINE
  5
322
100
AcDbEntity
  8
268140000
100
AcDbLine
 62
7
  6
CONTINUOUS
 10
-10.0932723141
 20
22.62516795
 11
-7.9155153111
 21
21.5362894485
  0
LINE
  5
323
100
AcDbEntity
  8
268140000
100
AcDbLine
 62
7
  6
CONTINUOUS
 10
-1.113016193
 20
18.1350398895
 11
-0.0318942419
 21
17.5944789139
  0
LINE
  5
324
100
AcDbEntity
  8
268140000
100
AcDbLine
 62
7
  6
CONTINUOUS
 10
3.2710458503
 20
15.9430088678
 11
3.4124672066
 21
15.8722981897
  0
LINE
  5
325
100
AcDbEntity
  8
268140000
100
AcDbLine
 62
7
  6
CONTINUOUS
 10
1.5818969061
 20
-24.7530663799
 11
2.2042149382
 21
-24.0080069624
  0
LINE
  5
326
100
AcDbEntity
  8
268140000
100
AcDbLine
 62
250
  6
CONTINUOUS
 10
0.699735409
 20
-18.399712965
 11
-0.5201830614
 21
-18.9631117414
  0
LINE
  5
327
100
AcDbEntity
  8
268140000
100
AcDbLine
 62
7
  6
CONTINUOUS
 10
0.4990403518
 20
-18.9134088078
 11
-0.5561948759
 21
-19.4007514053
  0
LINE
  5
328
100
AcDbEntity
  8
268140000
100
AcDbLine
 62
7
  6
CONTINUOUS
 10
2.2042149382
 20
16.041597177
 11
1.5818969061
 21
16.1715377595
  0
LINE
  5
329
100
AcDbEntity
  8
268140000
100
AcDbLine
 62
250
  6
CONTINUOUS
 10
1.6697650595
 20
16.8723376718
 11
0.0619436505
 21
17.6762483764
  0
LINE
  5
32A
100
AcDbEntity
  8
268140000
100
AcDbLine
 62
250
  6
CONTINUOUS
 10
-11.6945531049
 20
23.5544967541
 11
-13.302374514
 21
24.3584074586
  0
LINE
  5
32B
100
AcDbEntity
  8
268140000
100
AcDbLine
 62
7
  6
CONTINUOUS
 10
-7.8276473454
 20
21.9926458614
 11
-2.0351382774
 21
19.0963913273
  0
LINE
  5
32C
100
AcDbEntity
  8
268140000
100
AcDbLine
 62
7
  6
CONTINUOUS
 10
4.1195739878
 20
16.218293891
 11
3.3198419639
 21
16.618159903
  0
LINE
  5
32D
100
AcDbEntity
  8
268140000
100
AcDbLine
 62
7
  6
CONTINUOUS
 10
-8.5619981971
 20
22.5590799835
 11
-10.0444762005
 21
23.3003189852
  0
LINE
  5
32E
100
AcDbEntity
  8
268140000
100
AcDbLine
 62
7
  6
CONTINUOUS
 10
-7.3355558675
 20
22.458745292
 11
-1.113016193
 21
19.3474754548
  0
LINE
  5
32F
100
AcDbEntity
  8
268140000
100
AcDbLine
 62
7
  6
CONTINUOUS
 10
-11.7196179108
 20
25.1703915559
 11
-10.0932723141
 21
24.3572187576
  0
LINE
  5
330
100
AcDbEntity
  8
268140000
100
AcDbLine
 62
7
  6
CONTINUOUS
 10
1.6447002536
 20
18.4882324737
 11
3.2710458503
 21
17.6750596753
  0
LINE
  5
331
100
AcDbEntity
  8
268140000
100
AcDbLine
 62
7
  6
CONTINUOUS
 10
-5.9920529832
 20
22.4890622426
 11
-1.0423055149
 21
20.0141885085
  0
LINE
  5
332
100
AcDbEntity
  8
268140000
100
AcDbLine
 62
250
  6
CONTINUOUS
 10
-11.1851680321
 20
25.4307390225
 11
-9.5650051423
 21
24.6206575776
  0
LINE
  5
333
100
AcDbEntity
  8
268140000
100
AcDbLine
 62
250
  6
CONTINUOUS
 10
2.1791501323
 20
18.7485799403
 11
3.7993130221
 21
17.9384984954
  0
LINE
  5
334
100
AcDbEntity
  8
268140000
100
AcDbLine
 62
7
  6
CONTINUOUS
 10
-11.0737486027
 20
25.4370066787
 11
-9.4548746526
 21
24.6275697036
  0
LINE
  5
335
100
AcDbEntity
  8
268140000
100
AcDbLine
 62
7
  6
CONTINUOUS
 10
2.2905695617
 20
18.7548475965
 11
3.9094435118
 21
17.9454106214
  0
LINE
  5
336
100
AcDbEntity
  8
218140040
100
AcDbLine
 62
7
  6
CONTINUOUS
 10
10.4779976197
 20
17.7023446847
 11
9.7253035357
 21
19.0005499457
  0
LINE
  5
337
100
AcDbEntity
  8
218140040
100
AcDbLine
 62
250
  6
CONTINUOUS
 10
9.547401116
 20
21.4744795814
 11
9.1534151821
 21
22.4966353994
  0
LINE
  5
338
100
AcDbEntity
  8
715140000
100
AcDbLine
 62
7
  6
CONTINUOUS
 10
10.6921054442
 20
19.9311132632
 11
10.4906060863
 21
20.526837689
  0
LWPOLYLINE
  5
339
100
AcDbEntity
  8
218140040
100
AcDbPolyline
 62
7
  6
CONTINUOUS
 90
31
 70
0
 10
19.2498947727
 20
19.7835029714
 10
19.2496142744
 20
19.8175692274
 10
19.2484858037
 20
19.860052483
 10
19.2465005278
 20
19.9025997059
 10
19.2436647702
 20
19.9452161269
 10
19.2399860017
 20
19.9878812557
 10
19.2354751488
 20
20.0305455582
 10
19.2301401667
 20
20.0732029254
 10
19.2239882968
 20
20.1158456025
 10
19.2170340743
 20
20.158419469
 10
19.209286095
 20
20.2009179474
 10
19.2007518776
 20
20.2433344494
 10
19.1914497708
 20
20.285613251
 10
19.1813892952
 20
20.3277455834
 10
19.1705781213
 20
20.3697271827
 10
19.1590364529
 20
20.4115076962
 10
19.1467763343
 20
20.4530708789
 10
19.1338037584
 20
20.4944202327
 10
19.1201318228
 20
20.5355337413
 10
19.105769623
 20
20.5764016915
 10
19.0907236978
 20
20.617020517
 10
19.0750035414
 20
20.6573761027
 10
19.0586159373
 20
20.6974613313
 10
19.0415667262
 20
20.7372692538
 10
19.0238646888
 20
20.7767851272
 10
19.0055156744
 20
20.8160005964
 10
18.9865240228
 20
20.8549084499
 10
18.966896511
 20
20.8934960133
 10
18.9466374894
 20
20.9317542075
 10
18.925750194
 20
20.9696753002
 10
18.9079273327
 20
21.0009074384
  0
LWPOLYLINE
  5
33A
100
AcDbEntity
  8
218140040
100
AcDbPolyline
 62
250
  6
CONTINUOUS
 90
37
 70
0
 10
18.9692345828
 20
19.4361754808
 10
18.9690046539
 20
19.474177755
 10
18.9680961706
 20
19.5124953063
 10
18.9665095246
 20
19.5511098751
 10
18.9642453996
 20
19.5900029722
 10
18.9613048745
 20
19.6291561574
 10
18.9576894115
 20
19.6685510535
 10
18.9534006847
 20
19.7081690181
 10
18.9484406994
 20
19.7479910674
 10
18.942811895
 20
19.787998157
 10
18.9365169442
 20
19.8281711805
 10
18.9295588027
 20
19.8684910661
 10
18.921940818
 20
19.9089387034
 10
18.9136666044
 20
19.9494948431
 10
18.9047400745
 20
19.9901401754
 10
18.8951654908
 20
20.0308554248
 10
18.8849473982
 20
20.0716212476
 10
18.8740906468
 20
20.1124182108
 10
18.86260042
 20
20.1532268707
 10
18.8504821922
 20
20.1940278146
 10
18.8377417219
 20
20.234801626
 10
18.8243850743
 20
20.2755288635
 10
18.8104186326
 20
20.316190129
 10
18.7958490359
 20
20.3567661063
 10
18.780683172
 20
20.3972375256
 10
18.7649282814
 20
20.437585143
 10
18.7485918699
 20
20.4777897673
 10
18.7316816441
 20
20.517832298
 10
18.7142056549
 20
20.5576937597
 10
18.6961722581
 20
20.5973551347
 10
18.6775900293
 20
20.6367973912
 10
18.65846791
 20
20.6760016715
 10
18.6388149774
 20
20.7149494536
 10
18.6186403963
 20
20.7536223792
 10
18.597953725
 20
20.7920021163
 10
18.5767649206
 20
20.8300703724
 10
18.5550841071
 20
20.8678090554
  0
LINE
  5
33B
100
AcDbEntity
  8
218140040
100
AcDbLine
 62
250
  6
CONTINUOUS
 10
18.9692345828
 20
-10.9089047651
 11
18.9692345828
 21
13.8563085071
  0
LINE
  5
33C
100
AcDbEntity
  8
218140040
100
AcDbLine
 62
250
  6
CONTINUOUS
 10
18.9692345828
 20
15.6287769801
 11
18.9692345828
 21
19.4361754808
  0
LINE
  5
33D
100
AcDbEntity
  8
218140040
100
AcDbLine
 62
7
  6
CONTINUOUS
 10
19.2498947824
 20
-10.5615755798
 11
19.2498947824
 21
13.6154725487
  0
LINE
  5
33E
100
AcDbEntity
  8
218140040
100
AcDbLine
 62
7
  6
CONTINUOUS
 10
19.2498947824
 20
16.5642715346
 11
19.2498947824
 21
19.783504666
  0
LINE
  5
33F
100
AcDbEntity
  8
218140040
100
AcDbLine
 62
7
  6
CONTINUOUS
 10
19.2498947809
 20
16.5643789754
 11
19.2498947824
 21
16.5642721825
  0
LWPOLYLINE
  5
340
100
AcDbEntity
  8
218140040
100
AcDbPolyline
 62
250
  6
CONTINUOUS
 90
57
 70
0
 10
19.2498947824
 20
16.5642721825
 10
19.2497961287
 20
16.5398141236
 10
19.2490744487
 20
16.4938163212
 10
19.247732646
 20
16.4500340196
 10
19.2458450207
 20
16.4081218248
 10
19.2434696374
 20
16.3679284032
 10
19.2406709723
 20
16.3295044636
 10
19.2375064791
 20
16.2928045825
 10
19.2339968565
 20
16.2575327185
 10
19.2301781913
 20
16.2236410868
 10
19.2260967423
 20
16.1911790452
 10
19.2217670108
 20
16.1599967872
 10
19.2172174953
 20
16.1300736245
 10
19.2124831202
 20
16.1014294992
 10
19.2075771425
 20
16.073975905
 10
19.2025255192
 20
16.0477137745
 10
19.197354285
 20
16.0226397968
 10
19.1920698051
 20
15.9986594489
 10
19.1866951623
 20
15.9757801293
 10
19.1812495567
 20
15.9539912093
 10
19.1757269325
 20
15.9331717705
 10
19.1701451391
 20
15.9133233308
 10
19.1645189824
 20
15.8944411448
 10
19.1588310391
 20
15.876395898
 10
19.1530885187
 20
15.859169662
 10
19.1473077985
 20
15.8427777966
 10
19.1414800188
 20
15.8271418194
 10
19.1356059234
 20
15.8122407799
 10
19.1297032658
 20
15.798093355
 10
19.1237871289
 20
15.7846806705
 10
19.117865645
 20
15.7720052242
 10
19.1119488615
 20
15.7600615324
 10
19.1060553253
 20
15.7488183854
 10
19.100197645
 20
15.7382851261
 10
19.0943810495
 20
15.7284487514
 10
19.0886131149
 20
15.719244322
 10
19.0829196614
 20
15.7106923484
 10
19.0772912962
 20
15.7027683813
 10
19.0716798512
 20
15.6953408535
 10
19.066086373
 20
15.6883934896
 10
19.0605194077
 20
15.6819403978
 10
19.0549375659
 20
15.675897033
 10
19.0493313158
 20
15.6702452623
 10
19.0437154316
 20
15.6650023295
 10
19.0380827359
 20
15.6601375167
 10
19.0324336256
 20
15.6556484705
 10
19.0267722493
 20
15.6515367472
 10
19.021096501
 20
15.647777668
 10
19.0154103084
 20
15.64437147
 10
19.0097138763
 20
15.6413171325
 10
19.0039990081
 20
15.6385882648
 10
18.998269521
 20
15.6361839631
 10
18.9925249407
 20
15.634104553
 10
18.9867497984
 20
15.6323258254
 10
18.9809394651
 20
15.6308397511
 10
18.9751006929
 20
15.6296542393
 10
18.9692345828
 20
15.6287691962
  0
LWPOLYLINE
  5
341
100
AcDbEntity
  8
218140040
100
AcDbPolyline
 62
7
  6
CONTINUOUS
 90
7
 70
0
 10
19.2498953002
 20
13.6154896936
 10
19.2499473757
 20
13.6172622211
 10
19.250147847
 20
13.619333641
 10
19.2504217821
 20
13.6209357236
 10
19.250692961
 20
13.6220575697
 10
19.2508747798
 20
13.6226416958
 10
19.2508960126
 20
13.6226992342
  0
LINE
  5
342
100
AcDbEntity
  8
218140040
100
AcDbLine
 62
7
  6
CONTINUOUS
 10
10.4779976197
 20
-16.2648676219
 11
9.7253035357
 21
-16.810378799
  0
LWPOLYLINE
  5
343
100
AcDbEntity
  8
268140000
100
AcDbPolyline
 62
7
  6
CONTINUOUS
 90
25
 70
0
 10
8.3952034865
 20
-17.8956288851
 10
8.4211198968
 20
-17.8807966684
 10
8.4476221335
 20
-17.8655296917
 10
8.4747101965
 20
-17.8498279548
 10
8.5024118528
 20
-17.8336788521
 10
8.5306993355
 20
-17.8170949892
 10
8.5594893435
 20
-17.8001141833
 10
8.5887628626
 20
-17.7827476094
 10
8.6185389069
 20
-17.7649840924
 10
8.648791218
 20
-17.746827924
 10
8.6795336523
 20
-17.7282710271
 10
8.7107523534
 20
-17.7093214788
 10
8.7423794929
 20
-17.6900078024
 10
8.7744262275
 20
-17.6703231676
 10
8.8068814006
 20
-17.6502744048
 10
8.839643714
 20
-17.6299105281
 10
8.8727284881
 20
-17.6092216888
 10
8.9061204025
 20
-17.5882177357
 10
8.9396721979
 20
-17.566977229
 10
8.9734035129
 20
-17.5454869431
 10
9.007294709
 20
-17.5237601036
 10
9.0411396107
 20
-17.5019149478
 10
9.0748694931
 20
-17.4799908882
 10
9.1085530812
 20
-17.4579485122
 10
9.142190375
 20
-17.4357878199
  0
LWPOLYLINE
  5
344
100
AcDbEntity
  8
218140040
100
AcDbPolyline
 62
7
  6
CONTINUOUS
 90
7
 70
0
 10
18.2121865311
 20
-12.1749011237
 10
18.2274971651
 20
-12.1665239583
 10
18.2426268099
 20
-12.1576839382
 10
18.2575696438
 20
-12.1483872865
 10
18.2723205208
 20
-12.1386400103
 10
18.2868735362
 20
-12.1284489909
 10
18.6296517012
 20
-11.8800257313
  0
LWPOLYLINE
  5
345
100
AcDbEntity
  8
218140040
100
AcDbPolyline
 62
250
  6
CONTINUOUS
 90
6
 70
0
 10
18.5550841071
 20
-11.9263878641
 10
18.5710142036
 20
-11.9176817374
 10
18.5866646593
 20
-11.9085269927
 10
18.6020271885
 20
-11.8989284767
 10
18.6170936579
 20
-11.8888912711
 10
18.6296517012
 20
-11.8800257313
  0
LWPOLYLINE
  5
346
100
AcDbEntity
  8
268140000
100
AcDbPolyline
 62
7
  6
CONTINUOUS
 90
3
 70
0
 10
8.3952034865
 20
-17.8956288851
 10
8.3606190094
 20
-17.9145045827
 10
8.3454522293
 20
-17.9222693189
  0
LWPOLYLINE
  5
347
100
AcDbEntity
  8
218140040
100
AcDbPolyline
 62
250
  6
CONTINUOUS
 90
29
 70
0
 10
18.9692345828
 20
-10.9089047651
 10
18.9878328636
 20
-10.8990097913
 10
19.005886887
 20
-10.888865947
 10
19.0233833375
 20
-10.8784807136
 10
19.0403093107
 20
-10.8678617506
 10
19.0566523231
 20
-10.8570168898
 10
19.0724003211
 20
-10.8459541299
 10
19.0875416899
 20
-10.8346816299
 10
19.1020652623
 20
-10.8232077038
 10
19.1159603265
 20
-10.8115408141
 10
19.1292166344
 20
-10.7996895655
 10
19.1418244089
 20
-10.7876626988
 10
19.1537743514
 20
-10.7754690842
 10
19.1650576483
 20
-10.763117715
 10
19.1756659777
 20
-10.7506177008
 10
19.1855915156
 20
-10.7379782608
 10
19.1948269416
 20
-10.7252087172
 10
19.2033654441
 20
-10.7123184879
 10
19.2112007257
 20
-10.6993170799
 10
19.2183270076
 20
-10.6862140824
 10
19.2247390338
 20
-10.6730191592
 10
19.2304320753
 20
-10.6597420421
 10
19.2354019332
 20
-10.6463925236
 10
19.239644942
 20
-10.6329804493
 10
19.2431579725
 20
-10.6195157112
 10
19.2459384335
 20
-10.60600824
 10
19.2479842744
 20
-10.592467998
 10
19.2492939863
 20
-10.5789049718
 10
19.2498666032
 20
-10.5653291644
  0
LINE
  5
348
100
AcDbEntity
  8
218140040
100
AcDbLine
 62
7
  6
CONTINUOUS
 10
18.2121865311
 20
-12.1749011237
 11
10.4779976197
 21
-16.2648676219
  0
LINE
  5
349
100
AcDbEntity
  8
218140040
100
AcDbLine
 62
7
  6
CONTINUOUS
 10
4.3670613612
 20
-19.6439055249
 11
9.7253035357
 21
-16.810378799
  0
LINE
  5
34A
100
AcDbEntity
  8
218140040
100
AcDbLine
 62
250
  6
CONTINUOUS
 10
4.3670613612
 20
-18.6010014555
 11
18.9692345828
 21
-10.9089047651
  0
LINE
  5
34B
100
AcDbEntity
  8
218140040
100
AcDbLine
 62
250
  6
CONTINUOUS
 10
4.3670613612
 20
-19.4003193913
 11
18.5550841071
 21
-11.9263878641
  0
LINE
  5
34C
100
AcDbEntity
  8
268140000
100
AcDbLine
 62
250
  6
CONTINUOUS
 10
4.3670613612
 20
-19.9175320686
 11
8.3952034865
 21
-17.8956288851
  0
LINE
  5
34D
100
AcDbEntity
  8
268140000
100
AcDbLine
 62
7
  6
CONTINUOUS
 10
4.3670613612
 20
-19.9192001494
 11
8.3454449394
 21
-17.9222729875
  0
LINE
  5
34E
100
AcDbEntity
  8
268140000
100
AcDbLine
 62
250
  6
CONTINUOUS
 10
4.3670613612
 20
-19.6797270379
 11
9.059301896
 21
-17.352341141
  0
LINE
  5
34F
100
AcDbEntity
  8
268140000
100
AcDbLine
 62
250
  6
CONTINUOUS
 10
4.3670613612
 20
-19.8016017657
 11
9.1434534636
 21
-17.4324760708
  0
LINE
  5
350
100
AcDbEntity
  8
268140000
100
AcDbLine
 62
7
  6
CONTINUOUS
 10
-11.1601032262
 20
22.7237562592
 11
-11.7824212583
 21
22.8536968417
  0
LWPOLYLINE
  5
351
100
AcDbEntity
  8
218140040
100
AcDbPolyline
 62
7
  6
CONTINUOUS
 90
51
 70
0
 10
-1.100982144
 20
22.034857862
 10
-1.1115533127
 20
22.0390101075
 10
-1.1345146859
 20
22.0476247421
 10
-1.1577852879
 20
22.0558175817
 10
-1.1813512627
 20
22.0635935714
 10
-1.2052066222
 20
22.0709591758
 10
-1.2293333682
 20
22.0779161842
 10
-1.2537136166
 20
22.0844667334
 10
-1.2783407912
 20
22.0906152999
 10
-1.3031970066
 20
22.0963629476
 10
-1.3282649248
 20
22.1017111214
 10
-1.3535380576
 20
22.1066629309
 10
-1.378999052
 20
22.111219017
 10
-1.404630382
 20
22.1153801719
 10
-1.4304246232
 20
22.1191483055
 10
-1.4563642273
 20
22.122523732
 10
-1.4824320637
 20
22.1255069085
 10
-1.5086207494
 20
22.1280989648
 10
-1.5349127217
 20
22.130300015
 10
-1.5612910024
 20
22.1321102204
 10
-1.5877486777
 20
22.1335300738
 10
-1.614268523
 20
22.1345595261
 10
-1.6408332853
 20
22.1351984417
 10
-1.6674358075
 20
22.1354466863
 10
-1.6940589059
 20
22.1353040344
 10
-1.7206852271
 20
22.1347701173
 10
-1.7473073877
 20
22.1338442272
 10
-1.7739082615
 20
22.1325259368
 10
-1.8004702456
 20
22.1308146569
 10
-1.8269855134
 20
22.1287091268
 10
-1.8534367658
 20
22.1262086914
 10
-1.8798062477
 20
22.1233125297
 10
-1.9060859642
 20
22.1200187732
 10
-1.932259899
 20
22.1163262424
 10
-1.9583085237
 20
22.1122340122
 10
-1.984219415
 20
22.1077402642
 10
-2.0099761328
 20
22.1028435729
 10
-2.0355592042
 20
22.097542865
 10
-2.0609529224
 20
22.0918365828
 10
-2.0861393891
 20
22.085723356
 10
-2.1111004666
 20
22.0792017077
 10
-2.1358216862
 20
22.0722693144
 10
-2.1602851534
 20
22.0649242741
 10
-2.1844725584
 20
22.0571647188
 10
-2.2083704154
 20
22.0489871624
 10
-2.2319598851
 20
22.0403891806
 10
-2.2552233476
 20
22.0313677779
 10
-2.2781508739
 20
22.0219164036
 10
-2.3007271662
 20
22.0120294546
 10
-2.3229288816
 20
22.001704803
 10
-2.3385079831
 20
21.994079276
  0
LWPOLYLINE
  5
352
100
AcDbEntity
  8
218140040
100
AcDbPolyline
 62
7
  6
CONTINUOUS
 90
3
 70
0
 10
-1.0958512116
 20
22.0325572836
 10
-1.098146146
 20
22.0336506386
 10
-1.100982144
 20
22.034857862
  0
LINE
  5
353
100
AcDbEntity
  8
218140040
100
AcDbLine
 62
7
  6
CONTINUOUS
 10
0.2718564654
 20
20.6619056251
 11
-2.315097721
 21
21.9553827183
  0
LINE
  5
354
100
AcDbEntity
  8
218140040
100
AcDbLine
 62
250
  6
CONTINUOUS
 10
0.9128196602
 20
20.9778201307
 11
-1.1800925707
 21
22.0242762462
  0
LINE
  5
355
100
AcDbEntity
  8
218140040
100
AcDbLine
 62
7
  6
CONTINUOUS
 10
0.9635830848
 20
21.0028401355
 11
-1.0958512065
 21
22.0325572811
  0
LINE
  5
356
100
AcDbEntity
  8
268140000
100
AcDbLine
 62
7
  6
CONTINUOUS
 10
1.4753702299
 20
21.2550870418
 11
-1.3251482274
 21
22.6553462704
  0
LINE
  5
357
100
AcDbEntity
  8
268140000
100
AcDbLine
 62
7
  6
CONTINUOUS
 10
-1.678701618
 20
23.384681155
 11
-1.3251482274
 21
23.2079044597
  0
LWPOLYLINE
  5
358
100
AcDbEntity
  8
268140000
100
AcDbPolyline
 62
7
  6
CONTINUOUS
 90
20
 70
0
 10
9.1414734563
 20
19.5086100561
 10
9.1400733046
 20
19.5107411209
 10
9.1383268783
 20
19.5130495683
 10
9.1362452684
 20
19.5155392073
 10
9.133840304
 20
19.5182166502
 10
9.1311202121
 20
19.5210518661
 10
9.1280952809
 20
19.5240483925
 10
9.1247767795
 20
19.5272114707
 10
9.1211726226
 20
19.5305134631
 10
9.1172927657
 20
19.5339574459
 10
9.1131480942
 20
19.5375476902
 10
9.1087468615
 20
19.5412581898
 10
9.104098523
 20
19.5450917817
 10
9.099214069
 20
19.5490516553
 10
9.0941036807
 20
19.5531120756
 10
9.0887768056
 20
19.5572752909
 10
9.0832446023
 20
19.5615436623
 10
9.0775201311
 20
19.5658911618
 10
9.0716149477
 20
19.570310044
 10
9.059301896
 20
19.5793951336
  0
LWPOLYLINE
  5
359
100
AcDbEntity
  8
218140040
100
AcDbPolyline
 62
250
  6
CONTINUOUS
 90
34
 70
0
 10
18.6186403963
 20
-11.8751418916
 10
18.6388149774
 20
-11.8564622597
 10
18.65846791
 20
-11.8369983336
 10
18.6775900293
 20
-11.8167592297
 10
18.6961722581
 20
-11.795754527
 10
18.7142056549
 20
-11.7739942952
 10
18.7316816441
 20
-11.7514889247
 10
18.7485918699
 20
-11.7282491724
 10
18.7649282814
 20
-11.7042860838
 10
18.780683172
 20
-11.6796110089
 10
18.7958490359
 20
-11.6542356937
 10
18.8104186326
 20
-11.6281722256
 10
18.8243850743
 20
-11.6014329588
 10
18.8377417219
 20
-11.5740305949
 10
18.8504821922
 20
-11.5459781973
 10
18.86260042
 20
-11.5172891329
 10
18.8740906468
 20
-11.487977048
 10
18.8849473982
 20
-11.4580558928
 10
18.8951654908
 20
-11.4275399366
 10
18.9047400745
 20
-11.3964437137
 10
18.9136666044
 20
-11.3647819988
 10
18.921940818
 20
-11.3325698325
 10
18.9295588027
 20
-11.2998225281
 10
18.9365169442
 20
-11.2665556596
 10
18.942811895
 20
-11.2327850343
 10
18.9484406994
 20
-11.1985266471
 10
18.9534006847
 20
-11.1637968368
 10
18.9576894115
 20
-11.1286122739
 10
18.9613048745
 20
-11.0929897836
 10
18.9642453996
 20
-11.0569462
 10
18.9665095246
 20
-11.0204985154
 10
18.9680961706
 20
-10.9836639978
 10
18.9690046539
 20
-10.9464601902
 10
18.9692345828
 20
-10.9089047651
  0
LWPOLYLINE
  5
35A
100
AcDbEntity
  8
218140040
100
AcDbPolyline
 62
250
  6
CONTINUOUS
 90
4
 70
0
 10
18.5550841071
 20
-11.9263878641
 10
18.5767649206
 20
-11.9101130746
 10
18.597953725
 20
-11.8930283626
 10
18.6186403963
 20
-11.8751418916
  0
LWPOLYLINE
  5
35B
100
AcDbEntity
  8
218140040
100
AcDbPolyline
 62
7
  6
CONTINUOUS
 90
40
 70
0
 10
18.6296537409
 20
-11.8800242376
 10
18.6577979909
 20
-11.8590780293
 10
18.685452591
 20
-11.8373878174
 10
18.7126342514
 20
-11.8149353215
 10
18.7393231974
 20
-11.7917293694
 10
18.7654974653
 20
-11.7677817554
 10
18.7911559876
 20
-11.7430855348
 10
18.8162798196
 20
-11.7176497184
 10
18.8408480534
 20
-11.6914862317
 10
18.8648556311
 20
-11.664590253
 10
18.888283709
 20
-11.6369718355
 10
18.9111121992
 20
-11.6086435767
 10
18.9333334747
 20
-11.5796026638
 10
18.9549285519
 20
-11.5498605636
 10
18.9758792039
 20
-11.5194294414
 10
18.9961783157
 20
-11.4883051651
 10
19.015807095
 20
-11.4565003958
 10
19.0347487471
 20
-11.4240262921
 10
19.0529981906
 20
-11.3908735945
 10
19.0705341398
 20
-11.3570609116
 10
19.0873434135
 20
-11.3225928936
 10
19.1034302177
 20
-11.2874352553
 10
19.1187821342
 20
-11.2515821529
 10
19.1333730918
 20
-11.2150594382
 10
19.1471854272
 20
-11.1778768524
 10
19.1602056672
 20
-11.1400327798
 10
19.1724121474
 20
-11.1015489604
 10
19.1837790843
 20
-11.0624687871
 10
19.1942928489
 20
-11.022802621
 10
19.2039397133
 20
-10.9825609408
 10
19.212699927
 20
-10.9417863664
 10
19.220563244
 20
-10.9004868495
 10
19.2275183531
 20
-10.8586742949
 10
19.2335498344
 20
-10.8163963769
 10
19.2386497244
 20
-10.7736623672
 10
19.2428096311
 20
-10.7304818746
 10
19.2460189738
 20
-10.6869016514
 10
19.2482710293
 20
-10.642942274
 10
19.2495604402
 20
-10.598601196
 10
19.2498947727
 20
-10.5615767004
  0
LINE
  5
35C
100
AcDbEntity
  8
218140040
100
AcDbLine
 62
250
  6
CONTINUOUS
 10
18.2121865311
 20
-12.1749011237
 11
18.5550841071
 21
-11.9263878641
  0
LINE
  5
35D
100
AcDbEntity
  8
268140000
100
AcDbLine
 62
7
  6
CONTINUOUS
 10
2.7053604254
 20
-23.0579857711
 11
1.892187627
 21
-23.5868569016
  0
LINE
  5
35E
100
AcDbEntity
  8
268140000
100
AcDbLine
 62
250
  6
CONTINUOUS
 10
3.65995458
 20
-22.7462631534
 11
4.3670613612
 21
-22.3851520736
  0
LINE
  5
35F
100
AcDbEntity
  8
268140000
100
AcDbLine
 62
7
  6
CONTINUOUS
 10
3.5699857621
 20
-22.9350757067
 11
4.2770925433
 21
-22.5739646269
  0
LINE
  5
360
100
AcDbEntity
  8
268140000
100
AcDbLine
 62
7
  6
CONTINUOUS
 10
3.5699857865
 20
-22.9350756948
 11
3.5679781911
 21
-22.936079401
  0
LINE
  5
361
100
AcDbEntity
  8
268140000
100
AcDbLine
 62
250
  6
CONTINUOUS
 10
1.892187627
 20
-23.6112524068
 11
3.65995458
 21
-22.7462631534
  0
LINE
  5
362
100
AcDbEntity
  8
268140000
100
AcDbLine
 62
7
  6
CONTINUOUS
 10
1.800211189
 20
-23.8010686785
 11
3.567978142
 21
-22.936079425
  0
LWPOLYLINE
  5
363
100
AcDbEntity
  8
RACCORDO
100
AcDbPolyline
 62
250
  6
CONTINUOUS
 90
16
 70
0
 10
-5.411834098
 20
-24.9079795611
 10
-5.4742566838
 20
-24.9324657999
 10
-5.5419653837
 20
-24.9536204734
 10
-5.6142347193
 20
-24.9712169156
 10
-5.6902903465
 20
-24.9850665861
 10
-5.7693173522
 20
-24.9950210896
 10
-5.8504689859
 20
-25.0009737669
 10
-5.9328757323
 20
-25.0028608366
 10
-6.015654628
 20
-25.0006620795
 10
-6.097918722
 20
-24.9944010546
 10
-6.1787865795
 20
-24.9841448468
 10
-6.2573917257
 20
-24.9700033483
 10
-6.3328919303
 20
-24.9521280813
 10
-6.4044782312
 20
-24.9307105738
 10
-6.4713836029
 20
-24.9059803079
 10
-6.5328911746
 20
-24.8782022611
  0
LINE
  5
364
100
AcDbEntity
  8
RACCORDO
100
AcDbLine
 62
250
  6
CONTINUOUS
 10
-4.9690599726
 20
-25.3194857588
 11
-0.9319602095
 21
-23.9673031526
  0
LWPOLYLINE
  5
365
100
AcDbEntity
  8
218140040
100
AcDbPolyline
 62
7
  6
CONTINUOUS
 90
14
 70
0
 10
4.6315151431
 20
21.9252756636
 10
4.6191046896
 20
21.9259767317
 10
4.598077732
 20
21.9273839833
 10
4.5771987452
 20
21.9289999247
 10
4.5565059814
 20
21.9308187499
 10
4.5360178718
 20
21.9328357024
 10
4.5157526577
 20
21.9350456278
 10
4.4957472877
 20
21.9374404212
 10
4.4760184401
 20
21.940013541
 10
4.4565829268
 20
21.9427582171
 10
4.4374765268
 20
21.9456641164
 10
4.4187138423
 20
21.9487230818
 10
4.4003096377
 20
21.951926772
 10
4.3878939306
 20
21.9542263065
  0
LWPOLYLINE
  5
366
100
AcDbEntity
  8
268140000
100
AcDbPolyline
 62
7
  6
CONTINUOUS
 90
13
 70
0
 10
8.3952034865
 20
20.5926277632
 10
8.3605526765
 20
20.5990574443
 10
8.3253484535
 20
20.6044405971
 10
8.2896286016
 20
20.608802738
 10
8.2534032847
 20
20.6121966611
 10
8.2167355466
 20
20.6146264108
 10
8.1797393367
 20
20.6160376399
 10
8.1424523017
 20
20.6164477749
 10
8.1049013199
 20
20.6158838933
 10
8.067180619
 20
20.6142919052
 10
8.0293412442
 20
20.6116628142
 10
7.991392058
 20
20.608040833
 10
7.9533626186
 20
20.6034460435
  0
LINE
  5
367
100
AcDbEntity
  8
715140000
100
AcDbLine
 62
7
  6
CONTINUOUS
 10
11.6473196878
 20
20.0516053858
 11
11.1975750264
 21
20.173353219
  0
LWPOLYLINE
  5
368
100
AcDbEntity
  8
218140040
100
AcDbPolyline
 62
7
  6
CONTINUOUS
 90
19
 70
0
 10
-1.1018674775
 20
22.0352035314
 10
-1.1056833076
 20
22.0365318288
 10
-1.1095887173
 20
22.0376338294
 10
-1.1135793225
 20
22.0385084306
 10
-1.1176499301
 20
22.0391544539
 10
-1.1217952941
 20
22.0395710197
 10
-1.1260107961
 20
22.0397578876
 10
-1.1302909551
 20
22.0397147076
 10
-1.1346302559
 20
22.0394414298
 10
-1.1390239048
 20
22.0389386779
 10
-1.1434661929
 20
22.0382069327
 10
-1.147951397
 20
22.0372469722
 10
-1.1524746096
 20
22.036060277
 10
-1.1570299569
 20
22.0346481511
 10
-1.1616115701
 20
22.0330121896
 10
-1.1662144887
 20
22.0311547133
 10
-1.1708330818
 20
22.0290779964
 10
-1.1754610554
 20
22.0267842678
 10
-1.1800924248
 20
22.0242761732
  0
LWPOLYLINE
  5
369
100
AcDbEntity
  8
268140000
100
AcDbPolyline
 62
7
  6
CONTINUOUS
 90
10
 70
0
 10
8.6416414396
 20
20.5051887314
 10
8.6185389069
 20
20.5164417235
 10
8.5887628626
 20
20.5300181652
 10
8.5594893435
 20
20.542403782
 10
8.5306993355
 20
20.5536055785
 10
8.5024118528
 20
20.56361655
 10
8.4747101965
 20
20.5725162945
 10
8.4476221335
 20
20.5803313445
 10
8.4211198968
 20
20.5870351674
 10
8.3952034865
 20
20.5926277632
  0
LINE
  5
36A
100
AcDbEntity
  8
268140000
100
AcDbLine
 62
7
  6
CONTINUOUS
 10
2.8831859261
 20
21.9489637002
 11
0.0726362791
 21
23.3542385237
  0
LINE
  5
36B
100
AcDbEntity
  8
218140040
100
AcDbLine
 62
7
  6
CONTINUOUS
 10
8.9375148881
 20
19.3944442696
 11
9.7253035357
 21
19.0005499457
  0
LINE
  5
36C
100
AcDbEntity
  8
268140000
100
AcDbLine
 62
7
  6
CONTINUOUS
 10
1.4325682193
 20
23.4279867111
 11
3.6423091074
 21
22.323116267
  0
LINE
  5
36D
100
AcDbEntity
  8
268140000
100
AcDbLine
 62
7
  6
CONTINUOUS
 10
4.3878939306
 20
21.9503238554
 11
4.5337073406
 21
21.8774171504
  0
LINE
  5
36E
100
AcDbEntity
  8
268140000
100
AcDbLine
 62
7
  6
CONTINUOUS
 10
-1.4348895264
 20
25.1249592636
 11
-1.2544375492
 21
25.0347332751
  0
LINE
  5
36F
100
AcDbEntity
  8
268140000
100
AcDbLine
 62
7
  6
CONTINUOUS
 10
4.1195739878
 20
22.3477275066
 11
4.3000259649
 21
22.257501518
  0
LINE
  5
370
100
AcDbEntity
  8
268140000
100
AcDbLine
 62
250
  6
CONTINUOUS
 10
-2.2474578704
 20
25.703856288
 11
0.7316320305
 21
24.2143113375
  0
LINE
  5
371
100
AcDbEntity
  8
268140000
100
AcDbLine
 62
250
  6
CONTINUOUS
 10
4.9742727176
 20
22.092990994
 11
7.9533626186
 21
20.6034460435
  0
LINE
  5
372
100
AcDbEntity
  8
268140000
100
AcDbLine
 62
7
  6
CONTINUOUS
 10
5.4153157207
 20
22.1183404606
 11
8.6416389638
 21
20.505178839
  0
LWPOLYLINE
  5
373
100
AcDbEntity
  8
218140040
100
AcDbPolyline
 62
250
  6
CONTINUOUS
 90
14
 70
0
 10
5.7674033115
 20
21.9891760955
 10
5.7482613755
 20
21.9987463385
 10
5.7291246022
 20
22.0076473402
 10
5.7100075185
 20
22.015872344
 10
5.6909246357
 20
22.0234151063
 10
5.6718904397
 20
22.0302699015
 10
5.6529193791
 20
22.0364315263
 10
5.6340258547
 20
22.0418953033
 10
5.6152242084
 20
22.0466570851
 10
5.5965287123
 20
22.050713257
 10
5.5779535582
 20
22.0540607401
 10
5.5595128463
 20
22.0566969934
 10
5.5412205746
 20
22.0586200156
 10
5.5337624694
 20
22.0591170862
  0
LINE
  5
374
100
AcDbEntity
  8
715140000
100
AcDbLine
 62
7
  6
CONTINUOUS
 10
10.7026002796
 20
19.9258658455
 11
10.8999909467
 21
19.7435722547
  0
LWPOLYLINE
  5
375
100
AcDbEntity
  8
268140000
100
AcDbPolyline
 62
7
  6
CONTINUOUS
 90
17
 70
0
 10
9.142190375
 20
20.1113678796
 10
9.1085530812
 20
20.1474300301
 10
9.0748694931
 20
20.1820686897
 10
9.0411396107
 20
20.2152838585
 10
9.007294709
 20
20.2470911625
 10
8.9734035129
 20
20.2774749756
 10
8.9396721979
 20
20.3063884197
 10
8.9061204025
 20
20.333807595
 10
8.8727284881
 20
20.3597564013
 10
8.839643714
 20
20.3842596598
 10
8.8068814006
 20
20.4073033667
 10
8.7744262275
 20
20.4289015258
 10
8.7423794929
 20
20.4491209698
 10
8.7107523534
 20
20.4679548838
 10
8.6795336523
 20
20.4854100828
 10
8.648791218
 20
20.5015738443
 10
8.6416414396
 20
20.5051887314
  0
LINE
  5
376
100
AcDbEntity
  8
268140000
100
AcDbLine
 62
7
  6
CONTINUOUS
 10
3.2710458503
 20
-24.5869800293
 11
3.7993130221
 21
-24.3159689707
  0
LINE
  5
377
100
AcDbEntity
  8
268140000
100
AcDbLine
 62
7
  6
CONTINUOUS
 10
1.6697650595
 20
-25.367014629
 11
3.2710458503
 21
-24.5869800293
  0
LINE
  5
378
100
AcDbEntity
  8
RACCORDO
100
AcDbLine
 62
7
  6
CONTINUOUS
 10
-1.2297903737
 20
-24.4381415739
 11
-5.271236147
 21
-25.7917794492
  0
LINE
  5
379
100
AcDbEntity
  8
268140000
100
AcDbLine
 62
7
  6
CONTINUOUS
 10
0.0726362791
 20
23.3542385237
 11
1.4325682193
 21
23.4279867111
  0
LWPOLYLINE
  5
37A
100
AcDbEntity
  8
715140000
100
AcDbPolyline
 62
7
  6
CONTINUOUS
 90
9
 70
0
 10
13.0403824865
 20
20.7184526155
 10
13.0342657459
 20
20.7200521132
 10
13.0244955322
 20
20.7215849271
 10
13.0141693367
 20
20.7220003715
 10
13.0033821396
 20
20.721298599
 10
12.9924188807
 20
20.7194800677
 10
12.9813745399
 20
20.7165449301
 10
12.9701541374
 20
20.7124930338
 10
12.9587576732
 20
20.7073243785
  0
LWPOLYLINE
  5
37B
100
AcDbEntity
  8
715140000
100
AcDbPolyline
 62
7
  6
CONTINUOUS
 90
28
 70
0
 10
13.0403723503
 20
20.7184286631
 10
12.9316570037
 20
20.7497145089
 10
12.8168019607
 20
20.7790681859
 10
12.6995405368
 20
20.8053952561
 10
12.580167372
 20
20.8286573478
 10
12.4589470003
 20
20.8488279006
 10
12.3361176308
 20
20.8658871759
 10
12.2119688334
 20
20.8798110175
 10
12.0867853704
 20
20.8905816865
 10
11.9608048529
 20
20.8981890862
 10
11.8343184667
 20
20.9026224649
 10
11.7076157438
 20
20.9038770196
 10
11.5809339983
 20
20.9019522465
 10
11.4545627285
 20
20.8968509115
 10
11.328793138
 20
20.8885816993
 10
11.2038635386
 20
20.8771538239
 10
11.080064664
 20
20.8625839916
 10
10.9576799116
 20
20.84489397
 10
10.8369314754
 20
20.8240997947
 10
10.7180965543
 20
20.8002281947
 10
10.6014607309
 20
20.7733131429
 10
10.4872491579
 20
20.7433783756
 10
10.3757339797
 20
20.7104612717
 10
10.2671877833
 20
20.6746046369
 10
10.1618208917
 20
20.6358330193
 10
10.0598741093
 20
20.5941802109
 10
9.9616279718
 20
20.5496994364
 10
9.8673439107
 20
20.502442047
  0
LWPOLYLINE
  5
37C
100
AcDbEntity
  8
715140000
100
AcDbPolyline
 62
7
  6
CONTINUOUS
 90
3
 70
0
 10
13.0524231682
 20
20.7136348349
 10
13.0435749579
 20
20.7174020825
 10
13.0403824865
 20
20.7184526155
  0
LWPOLYLINE
  5
37D
100
AcDbEntity
  8
268140000
100
AcDbPolyline
 62
7
  6
CONTINUOUS
 90
18
 70
0
 10
1.1726706478
 20
24.2396520307
 10
1.1531226633
 20
24.2487347175
 10
1.1302268831
 20
24.2577201321
 10
1.1067175968
 20
24.2652223649
 10
1.0825762747
 20
24.2712565347
 10
1.0578865213
 20
24.2758023191
 10
1.0326250951
 20
24.2788563026
 10
1.0068152376
 20
24.2804219005
 10
0.9806102787
 20
24.2804890371
 10
0.9540263161
 20
24.2790502611
 10
0.9270472521
 20
24.2761130238
 10
0.8997781235
 20
24.2716896025
 10
0.8722039438
 20
24.2657712169
 10
0.8443396996
 20
24.2583666474
 10
0.8163353865
 20
24.2495145128
 10
0.7882410033
 20
24.2392276861
 10
0.7600065513
 20
24.2274932943
 10
0.7316320305
 20
24.2143113375
  0
LINE
  5
37E
100
AcDbEntity
  8
715140000
100
AcDbLine
 62
7
  6
CONTINUOUS
 10
10.7026002796
 20
19.9258658455
 11
9.9956313394
 21
20.2793503156
  0
LINE
  5
37F
100
AcDbEntity
  8
715140000
100
AcDbLine
 62
7
  6
CONTINUOUS
 10
11.1975750264
 20
20.173353219
 11
10.4906060863
 21
20.526837689
  0
LINE
  5
380
100
AcDbEntity
  8
218140040
100
AcDbLine
 62
7
  6
CONTINUOUS
 10
9.7977970632
 20
21.1898630542
 11
10.2301113139
 21
20.9737059288
  0
LINE
  5
381
100
AcDbEntity
  8
715140000
100
AcDbLine
 62
7
  6
CONTINUOUS
 10
13.9009513057
 20
20.2893707662
 11
13.9933634668
 21
20.2431092578
  0
LWPOLYLINE
  5
382
100
AcDbEntity
  8
715140000
100
AcDbPolyline
 62
7
  6
CONTINUOUS
 90
10
 70
0
 10
13.8630072384
 20
20.3020384212
 10
13.7655301847
 20
20.3520938529
 10
13.6699169829
 20
20.4010697285
 10
13.5761676329
 20
20.4489660481
 10
13.4842965516
 20
20.4957842359
 10
13.3942893222
 20
20.5415228676
 10
13.3061026942
 20
20.5861776706
 10
13.2197222508
 20
20.6297472208
 10
13.1351624088
 20
20.6722329422
 10
13.0524231682
 20
20.7136348349
  0
LINE
  5
383
100
AcDbEntity
  8
715140000
100
AcDbLine
 62
7
  6
CONTINUOUS
 10
13.870765667
 20
20.2974519491
 11
13.8630072384
 21
20.3020384212
  0
LWPOLYLINE
  5
384
100
AcDbEntity
  8
715140000
100
AcDbPolyline
 62
250
  6
CONTINUOUS
 90
4
 70
0
 10
13.9009513057
 20
20.2893707662
 10
13.925474296
 20
20.2688663878
 10
13.9498400577
 20
20.2475881234
 10
13.9680378814
 20
20.2309543417
  0
LWPOLYLINE
  5
385
100
AcDbEntity
  8
715140000
100
AcDbPolyline
 62
250
  6
CONTINUOUS
 90
6
 70
0
 10
13.8073147065
 20
20.2830747578
 10
13.8301751359
 20
20.2634960243
 10
13.8527526742
 20
20.2431429778
 10
13.8750473214
 20
20.2220156182
 10
13.8970928197
 20
20.2001857312
 10
13.899253466
 20
20.1979415295
  0
LWPOLYLINE
  5
386
100
AcDbEntity
  8
218140040
100
AcDbPolyline
 62
250
  6
CONTINUOUS
 90
57
 70
0
 10
19.2498947824
 20
17.2649029577
 10
19.2592291949
 20
17.23494622
 10
19.2714284715
 20
17.1924113779
 10
19.2828738582
 20
17.1488682283
 10
19.2935468561
 20
17.1043259113
 10
19.3033791473
 20
17.0588050183
 10
19.312370164
 20
17.0122053413
 10
19.3204917356
 20
16.9646236696
 10
19.3276425174
 20
16.9163816072
 10
19.3338076218
 20
16.8674107847
 10
19.3389879578
 20
16.8177871956
 10
19.3431260868
 20
16.7680602873
 10
19.3462070426
 20
16.7181711965
 10
19.3482572581
 20
16.6681990448
 10
19.3493104776
 20
16.618914074
 10
19.3493587791
 20
16.5703003859
 10
19.3484552427
 20
16.5224051512
 10
19.3467578901
 20
16.4761064426
 10
19.3443048067
 20
16.4316904562
 10
19.3411365463
 20
16.3889082445
 10
19.337429381
 20
16.3478400014
 10
19.333242107
 20
16.3086340855
 10
19.3285842235
 20
16.2711689241
 10
19.3235494085
 20
16.2351165906
 10
19.3181686813
 20
16.2004403619
 10
19.3124580758
 20
16.1671929333
 10
19.3064777524
 20
16.1351770476
 10
19.3002462909
 20
16.1043649249
 10
19.2937808492
 20
16.0747947407
 10
19.2871333768
 20
16.0463664552
 10
19.2803208538
 20
16.0190800655
 10
19.2733550403
 20
15.9929427597
 10
19.2662762191
 20
15.9678643419
 10
19.2591008266
 20
15.9438541146
 10
19.2518352289
 20
15.9209077692
 10
19.2445013428
 20
15.8989140033
 10
19.2371138235
 20
15.8778798745
 10
19.2296754432
 20
15.8578017506
 10
19.2221873723
 20
15.8385517283
 10
19.2146572495
 20
15.8201226633
 10
19.2070902953
 20
15.8025240169
 10
19.199481765
 20
15.785652372
 10
19.1918285484
 20
15.7694876463
 10
19.1841433034
 20
15.754051554
 10
19.1764435158
 20
15.7393031494
 10
19.1687251237
 20
15.7252339651
 10
19.1609996105
 20
15.7118537973
 10
19.1533069277
 20
15.6991490295
 10
19.1456527645
 20
15.6871314237
 10
19.138037099
 20
15.675790415
 10
19.1304905461
 20
15.665078846
 10
19.1230255019
 20
15.6550116407
 10
19.1156334707
 20
15.6455749096
 10
19.1083129446
 20
15.6366781588
 10
19.1010641115
 20
15.628291467
 10
19.0938891367
 20
15.6204455618
 10
19.0867890177
 20
15.6131408425
  0
LWPOLYLINE
  5
387
100
AcDbEntity
  8
218140040
100
AcDbPolyline
 62
7
  6
CONTINUOUS
 90
10
 70
0
 10
13.9730752496
 20
21.0288813304
 10
14.0091808692
 20
21.0131736055
 10
14.0447154716
 20
20.997165118
 10
14.0796790567
 20
20.9808558679
 10
14.1140817939
 20
20.9642407706
 10
14.1479135139
 20
20.9473249106
 10
14.1811437087
 20
20.9301235419
 10
14.2137622089
 20
20.9126417494
 10
14.2457791838
 20
20.8948744482
 10
14.2771946335
 20
20.8768216384
  0
LINE
  5
388
100
AcDbEntity
  8
218140040
100
AcDbLine
 62
7
  6
CONTINUOUS
 10
13.7895374086
 20
21.1049903983
 11
14.4210687296
 21
20.7892247378
  0
LINE
  5
389
100
AcDbEntity
  8
218140040
100
AcDbLine
 62
7
  6
CONTINUOUS
 10
13.9730752496
 20
21.0288813304
 11
14.2771946335
 21
20.8768216384
  0
LWPOLYLINE
  5
38A
100
AcDbEntity
  8
218140040
100
AcDbPolyline
 62
7
  6
CONTINUOUS
 90
104
 70
0
 10
19.2498947824
 20
19.0839757341
 10
19.2626161038
 20
19.074720926
 10
19.3074377165
 20
19.0408526045
 10
19.3519215644
 20
19.0059776922
 10
19.3960792253
 20
18.9700929046
 10
19.4399098033
 20
18.9332027133
 10
19.4833815566
 20
18.8953373794
 10
19.5264591781
 20
18.8565325425
 10
19.5691220996
 20
18.8168125203
 10
19.6113598073
 20
18.7761927162
 10
19.6531523096
 20
18.7346977865
 10
19.6944784364
 20
18.692354516
 10
19.7353291909
 20
18.6491777314
 10
19.7757023136
 20
18.6051743544
 10
19.8155931381
 20
18.5603526715
 10
19.8549756114
 20
18.5147449942
 10
19.8938155375
 20
18.4683953715
 10
19.9320844367
 20
18.4213439063
 10
19.9697830639
 20
18.373595664
 10
20.006920802
 20
18.3251425018
 10
20.043496505
 20
18.2759873617
 10
20.0794817013
 20
18.2261697866
 10
20.1148446533
 20
18.1757367458
 10
20.1495619417
 20
18.124726303
 10
20.1836309653
 20
18.0731468275
 10
20.2170515379
 20
18.021001462
 10
20.2498155101
 20
17.9683043519
 10
20.2819042083
 20
17.915086795
 10
20.3133013458
 20
17.861377551
 10
20.3439926905
 20
17.8072029536
 10
20.3739676247
 20
17.7525835724
 10
20.4032156589
 20
17.6975398922
 10
20.4317242632
 20
17.6420965843
 10
20.4594822006
 20
17.5862764047
 10
20.4864808833
 20
17.5300969615
 10
20.5127095449
 20
17.4735803658
 10
20.5381560281
 20
17.4167522781
 10
20.5628097345
 20
17.3596356055
 10
20.5866602541
 20
17.3022533014
 10
20.609696457
 20
17.2446306768
 10
20.6319071264
 20
17.1867941973
 10
20.6532795924
 20
17.1287755022
 10
20.6738069432
 20
17.0705916488
 10
20.693486267
 20
17.0122469975
 10
20.7123130464
 20
16.9537479358
 10
20.7302712229
 20
16.8951366704
 10
20.7473416504
 20
16.8364711156
 10
20.7635095212
 20
16.7778016613
 10
20.778774978
 20
16.7191268373
 10
20.79314125
 20
16.6604265067
 10
20.8066054409
 20
16.60169689
 10
20.8191515113
 20
16.542990686
 10
20.8307632534
 20
16.4843719813
 10
20.8414301588
 20
16.4258878692
 10
20.8511507044
 20
16.3675394875
 10
20.8599230886
 20
16.3093214363
 10
20.867742222
 20
16.2512411901
 10
20.8745984472
 20
16.1933398065
 10
20.880483116
 20
16.1356616349
 10
20.8853905343
 20
16.0782330253
 10
20.8893157186
 20
16.0210750761
 10
20.8922531209
 20
15.9642230065
 10
20.8941982694
 20
15.9077099626
 10
20.8951477664
 20
15.8515489943
 10
20.8950976328
 20
15.7957444479
 10
20.894042319
 20
15.740286018
 10
20.8919771318
 20
15.685230986
 10
20.8889031145
 20
15.6306825407
 10
20.8848246882
 20
15.5767083602
 10
20.8797402173
 20
15.5232811539
 10
20.8736428489
 20
15.4703602953
 10
20.8665206224
 20
15.4179034511
 10
20.8583780657
 20
15.3659984319
 10
20.8492374309
 20
15.3147963142
 10
20.8391172057
 20
15.2643747346
 10
20.8280127564
 20
15.2146882335
 10
20.8159161853
 20
15.1656997761
 10
20.8028166688
 20
15.1173796987
 10
20.7887288906
 20
15.069796056
 10
20.7736857913
 20
15.0230559315
 10
20.757704102
 20
14.9771944495
 10
20.7407863582
 20
14.9322035765
 10
20.722951643
 20
14.8881198062
 10
20.7042156258
 20
14.8449652135
 10
20.6845858076
 20
14.8027416203
 10
20.6640705179
 20
14.7614542252
 10
20.6426616549
 20
14.7210791873
 10
20.6203893515
 20
14.6816663459
 10
20.5973265408
 20
14.6433253275
 10
20.573533638
 20
14.6061229547
 10
20.5489928108
 20
14.5699991297
 10
20.5236611084
 20
14.5348731108
 10
20.4975211828
 20
14.5007154021
 10
20.4706181001
 20
14.4675796212
 10
20.4430004295
 20
14.4355134841
 10
20.4147032647
 20
14.4045410321
 10
20.3857311415
 20
14.374650918
 10
20.3560898571
 20
14.3458359014
 10
20.3258018142
 20
14.3181057559
 10
20.2948845691
 20
14.2914647017
 10
20.2633353544
 20
14.2659006316
 10
20.2311660529
 20
14.2414158189
 10
20.198404549
 20
14.2180240961
 10
20.1650715688
 20
14.1957322771
  0
LWPOLYLINE
  5
38B
100
AcDbEntity
  8
218140040
100
AcDbPolyline
 62
250
  6
CONTINUOUS
 90
104
 70
0
 10
19.2498947824
 20
18.99375415
 10
19.2597110775
 20
18.9858846413
 10
19.301867337
 20
18.9509363868
 10
19.3437773015
 20
18.9150335828
 10
19.3854226123
 20
18.8781919564
 10
19.4267850227
 20
18.8404276495
 10
19.4678464052
 20
18.8017572123
 10
19.5085887663
 20
18.7621975907
 10
19.5489942539
 20
18.7217661182
 10
19.5890451609
 20
18.6804805131
 10
19.6287239319
 20
18.6383588721
 10
19.6680131748
 20
18.5954196589
 10
19.7068956782
 20
18.5516816842
 10
19.745354414
 20
18.5071641025
 10
19.7833725377
 20
18.461886411
 10
19.8209333808
 20
18.4158684597
 10
19.8580204696
 20
18.369130432
 10
19.8946175419
 20
18.3216928233
 10
19.9307085723
 20
18.2735764073
 10
19.9662777642
 20
18.2248022438
 10
20.001309544
 20
18.1753916864
 10
20.0357885466
 20
18.1253664046
 10
20.0696996419
 20
18.0747483506
 10
20.1030279561
 20
18.0235597287
 10
20.1357589005
 20
17.9718229479
 10
20.1678781554
 20
17.9195606426
 10
20.1993716613
 20
17.866795687
 10
20.2302256006
 20
17.8135512282
 10
20.260426429
 20
17.7598506397
 10
20.2899608975
 20
17.7057174831
 10
20.3188160814
 20
17.651175451
 10
20.3469793605
 20
17.5962483983
 10
20.3744384082
 20
17.540960362
 10
20.4011811746
 20
17.4853356001
 10
20.427195918
 20
17.4293985354
 10
20.4524712252
 20
17.373173713
 10
20.4769960369
 20
17.3166857383
 10
20.5007596277
 20
17.2599593151
 10
20.5237515964
 20
17.2030192676
 10
20.5459618531
 20
17.1458905793
 10
20.567380646
 20
17.0885983334
 10
20.587998579
 20
17.031167668
 10
20.6078066307
 20
16.973623717
 10
20.6267961374
 20
16.9159916488
 10
20.6449587865
 20
16.8582966871
 10
20.6622866077
 20
16.8005641444
 10
20.6787719947
 20
16.7428193634
 10
20.6944077171
 20
16.6850876758
 10
20.7091869324
 20
16.6273943518
 10
20.7231031747
 20
16.5697646327
 10
20.7361503503
 20
16.5122237476
 10
20.7483227351
 20
16.4547969355
 10
20.7596149877
 20
16.3975093949
 10
20.7700221572
 20
16.3403862494
 10
20.7795396879
 20
16.28345251
 10
20.7881634139
 20
16.2267330976
 10
20.7958895578
 20
16.1702528513
 10
20.8027147308
 20
16.1140365367
 10
20.8086359397
 20
16.0581088077
 10
20.8136505894
 20
16.0024941819
 10
20.8177564839
 20
15.9472170193
 10
20.8209518251
 20
15.8923015302
 10
20.8232352128
 20
15.8377717736
 10
20.8246056457
 20
15.7836516499
 10
20.8250625233
 20
15.7299648784
 10
20.8246056452
 20
15.6767349846
 10
20.8232352118
 20
15.6239852939
 10
20.8209518237
 20
15.5717389252
 10
20.817756482
 20
15.5200187777
 10
20.813650587
 20
15.46884751
 10
20.8086359368
 20
15.4182475343
 10
20.8027147275
 20
15.3682410144
 10
20.7958895539
 20
15.3188498731
 10
20.7881634096
 20
15.2700957711
 10
20.7795396831
 20
15.2220000851
 10
20.7700221519
 20
15.1745838767
 10
20.759614982
 20
15.1278679011
 10
20.7483227289
 20
15.0818726136
 10
20.7361503437
 20
15.0366181868
 10
20.7231031676
 20
14.9921244777
 10
20.7091869248
 20
14.9484110012
 10
20.694407709
 20
14.9054968929
 10
20.6787719862
 20
14.8634009281
 10
20.6622865988
 20
14.8221415346
 10
20.6449587772
 20
14.7817368138
 10
20.6267961277
 20
14.7422045018
 10
20.6078066204
 20
14.7035619408
 10
20.5879985682
 20
14.6658260417
 10
20.5673806347
 20
14.6290133097
 10
20.5459618415
 20
14.5931398574
 10
20.5237515846
 20
14.5582214266
 10
20.5007596155
 20
14.5242733485
 10
20.4769960242
 20
14.4913105165
 10
20.4524712119
 20
14.4593473538
 10
20.4271959042
 20
14.428397839
 10
20.4011811605
 20
14.3984755185
 10
20.374438394
 20
14.3695935239
 10
20.3469793461
 20
14.341764536
 10
20.3188160664
 20
14.3150007629
 10
20.2899608818
 20
14.2893139151
 10
20.2604264128
 20
14.2647152274
 10
20.2302255842
 20
14.2412154681
 10
20.1993716449
 20
14.2188249496
 10
20.1650715694
 20
14.1957322775
  0
LINE
  5
38C
100
AcDbEntity
  8
218140040
100
AcDbLine
 62
250
  6
CONTINUOUS
 10
18.5550841071
 20
20.8678090554
 11
18.2121865311
 21
21.459219891
  0
LINE
  5
38D
100
AcDbEntity
  8
218140040
100
AcDbLine
 62
7
  6
CONTINUOUS
 10
18.9079273559
 20
21.0009074129
 11
18.6448762503
 21
21.4546034581
  0
LWPOLYLINE
  5
38E
100
AcDbEntity
  8
218140040
100
AcDbPolyline
 62
250
  6
CONTINUOUS
 90
25
 70
0
 10
12.1133117691
 20
24.7483592452
 10
12.0980640675
 20
24.7551650693
 10
12.0825009944
 20
24.761299001
 10
12.0666341071
 20
24.7667564853
 10
12.0504751883
 20
24.7715334694
 10
12.0340362378
 20
24.7756264058
 10
12.0173294632
 20
24.7790322553
 10
12.0003672711
 20
24.7817484884
 10
11.9831622577
 20
24.7837730883
 10
11.9657271996
 20
24.7851045513
 10
11.948075044
 20
24.7857418887
 10
11.9302188996
 20
24.7856846273
 10
11.9121720265
 20
24.7849328096
 10
11.8939478263
 20
24.7834869938
 10
11.8755598325
 20
24.7813482537
 10
11.8570217001
 20
24.7785181774
 10
11.8383471955
 20
24.7749988666
 10
11.8195501867
 20
24.7707929348
 10
11.8006446323
 20
24.7659035054
 10
11.7816445717
 20
24.7603342091
 10
11.7625641145
 20
24.7540891819
 10
11.74341743
 20
24.7471730613
 10
11.7242187364
 20
24.7395909832
 10
11.704982291
 20
24.7313485782
 10
11.6857223788
 20
24.7224519671
  0
LINE
  5
38F
100
AcDbEntity
  8
218140040
100
AcDbLine
 62
7
  6
CONTINUOUS
 10
13.7698378806
 20
23.1823007309
 11
16.8786534513
 21
21.6278929455
  0
LINE
  5
390
100
AcDbEntity
  8
218140040
100
AcDbLine
 62
250
  6
CONTINUOUS
 10
18.2121865311
 20
21.459219891
 11
17.3869400634
 21
21.8718431248
  0
LWPOLYLINE
  5
391
100
AcDbEntity
  8
218140040
100
AcDbPolyline
 62
250
  6
CONTINUOUS
 90
26
 70
0
 10
12.7264888806
 20
24.2020687162
 10
11.6665804465
 20
24.7320222083
 10
11.647443677
 20
24.7409232085
 10
11.6283265967
 20
24.7491482111
 10
11.6092437174
 20
24.7566909725
 10
11.5902095247
 20
24.7635457671
 10
11.5712384672
 20
24.7697073915
 10
11.5523449457
 20
24.7751711684
 10
11.5335433022
 20
24.7799329504
 10
11.5148478088
 20
24.7839891228
 10
11.4962726571
 20
24.7873366066
 10
11.4778319474
 20
24.7899728608
 10
11.4595396777
 20
24.7918958841
 10
11.4414097337
 20
24.7931042169
 10
11.4234558777
 20
24.793596942
 10
11.4056917381
 20
24.7933736852
 10
11.3881307997
 20
24.7924346161
 10
11.3707863929
 20
24.7907804474
 10
11.3536716835
 20
24.788412435
 10
11.3367996632
 20
24.7853323762
 10
11.3201831395
 20
24.7815426092
 10
11.3038347258
 20
24.7770460108
 10
11.287766832
 20
24.7718459942
 10
11.2719916551
 20
24.7659465067
 10
11.25652117
 20
24.7593520267
 10
11.2541029538
 20
24.7582456734
  0
LINE
  5
392
100
AcDbEntity
  8
218140040
100
AcDbLine
 62
7
  6
CONTINUOUS
 10
18.5810849137
 20
21.5145704696
 11
17.7336461743
 21
21.9382898393
  0
LINE
  5
393
100
AcDbEntity
  8
218140040
100
AcDbLine
 62
7
  6
CONTINUOUS
 10
13.2495285309
 20
24.180348661
 11
12.1205952594
 21
24.7448152967
  0
LWPOLYLINE
  5
394
100
AcDbEntity
  8
218140040
100
AcDbPolyline
 62
7
  6
CONTINUOUS
 90
12
 70
0
 10
18.5810853821
 20
21.5145702354
 10
18.5870188204
 20
21.5114489148
 10
18.5941847986
 20
21.5072364956
 10
18.6010425681
 20
21.5026958669
 10
18.6075884109
 20
21.4978315751
 10
18.6138254456
 20
21.4926448927
 10
18.6197500697
 20
21.4871406722
 10
18.6253589296
 20
21.4813238296
 10
18.6306556811
 20
21.4751958679
 10
18.6356371078
 20
21.468761977
 10
18.6403002195
 20
21.4620274092
 10
18.6448764452
 20
21.454603342
  0
ELLIPSE
  5
395
100
AcDbEntity
  8
RACCORDO
100
AcDbEllipse
 62
7
  6
CONTINUOUS
 10
-12.698953303
 20
20.9137836444
 30
0.0
 11
-0.2786191524
 21
0.7501668109
 31
0.0
 40
0.6610921126
 41
-0.6157157441
 42
0.0214395704
  0
ELLIPSE
  5
396
100
AcDbEntity
  8
RACCORDO
100
AcDbEllipse
 62
7
  6
CONTINUOUS
 10
1.5844313374
 20
13.7720913241
 30
0.0
 11
-0.2783604326
 21
0.7500177284
 31
0.0
 40
0.6614719787
 41
-2.1862531203
 42
-0.61576138
  0
ELLIPSE
  5
397
100
AcDbEntity
  8
RACCORDO
100
AcDbEllipse
 62
7
  6
CONTINUOUS
 10
-1.4977137912
 20
-23.6841984491
 30
0.0
 11
-0.2786191524
 21
0.7501668109
 31
0.0
 40
0.6610921126
 41
-3.1630322343
 42
-2.1868166574
  0
ELLIPSE
  5
398
100
AcDbEntity
  8
218140040
100
AcDbEllipse
 62
7
  6
CONTINUOUS
 10
11.5088398512
 20
20.1003893889
 30
0.0
 11
2.7499924258
 21
-0.0130015067
 31
0.0
 40
0.4964289597
 41
2.3672681657
 42
2.9293761949
  0
ELLIPSE
  5
399
100
AcDbEntity
  8
218140040
100
AcDbEllipse
 62
7
  6
CONTINUOUS
 10
13.0689019268
 20
23.1526279743
 30
0.0
 11
0.4410298232
 21
0.8975092442
 31
0.0
 40
0.607010042
 41
-0.8902711325
 42
-0.7587130969
  0
ELLIPSE
  5
39A
100
AcDbEntity
  8
218140040
100
AcDbEllipse
 62
7
  6
CONTINUOUS
 10
12.1805912933
 20
19.9984659391
 30
0.0
 11
2.7583876426
 21
-0.0130411979
 31
0.0
 40
0.4964289597
 41
0.8884696282
 42
2.3585415194
  0
ELLIPSE
  5
39B
100
AcDbEntity
  8
218140040
100
AcDbEllipse
 62
7
  6
CONTINUOUS
 10
12.1805912933
 20
19.9984659391
 30
0.0
 11
2.7583876426
 21
-0.0130411979
 31
0.0
 40
0.4964289597
 41
0.4412294433
 42
0.6870207571
  0
ELLIPSE
  5
39C
100
AcDbEntity
  8
218140040
100
AcDbEllipse
 62
7
  6
CONTINUOUS
 10
16.9662899974
 20
21.203933939
 30
0.0
 11
0.79574694
 21
0.7129684349
 31
0.0
 40
0.2882345029
 41
0.1134874795
 42
0.7807533904
  0
ELLIPSE
  5
39D
100
AcDbEntity
  8
218140040
100
AcDbEllipse
 62
7
  6
CONTINUOUS
 10
12.1805912933
 20
21.9789540517
 30
0.0
 11
2.7583515655
 21
-1.4175703156
 31
0.0
 40
0.0109499087
 41
-0.8804952881
 42
-0.85781018
  0
ELLIPSE
  5
39E
100
AcDbEntity
  8
218140040
100
AcDbEllipse
 62
7
  6
CONTINUOUS
 10
12.1805912933
 20
21.9789540517
 30
0.0
 11
2.7583515655
 21
-1.4175703156
 31
0.0
 40
0.0109499087
 41
-0.7017315251
 42
-0.679046417
  0
ELLIPSE
  5
39F
100
AcDbEntity
  8
218140040
100
AcDbEllipse
 62
7
  6
CONTINUOUS
 10
12.1805912933
 20
20.431478641
 30
0.0
 11
2.7583876426
 21
-0.0130411979
 31
0.0
 40
0.4964289597
 41
0.1877225706
 42
2.3585415194
  0
ELLIPSE
  5
3A0
100
AcDbEntity
  8
218140040
100
AcDbEllipse
 62
7
  6
CONTINUOUS
 10
11.4853067629
 20
21.3276016245
 30
0.0
 11
3.3022643479
 21
-0.04629945
 31
0.0
 40
0.4892378494
 41
2.3616770883
 42
5.5059722822
  0
ELLIPSE
  5
3A1
100
AcDbEntity
  8
218140040
100
AcDbEllipse
 62
7
  6
CONTINUOUS
 10
13.1224575168
 20
23.1258501793
 30
0.0
 11
-0.3106730325
 21
1.1082908718
 31
0.0
 40
0.6760995073
 41
4.9783291412
 42
6.4001141399
  0
ELLIPSE
  5
3A2
100
AcDbEntity
  8
268140000
100
AcDbEllipse
 62
7
  6
CONTINUOUS
 10
0.0629661065
 20
-24.3460840262
 30
0.0
 11
0.110769438
 21
0.2241226716
 31
0.0
 40
0.6088015717
 41
-4.0304836828
 42
-3.1444065583
  0
ELLIPSE
  5
3A3
100
AcDbEntity
  8
268140000
100
AcDbEllipse
 62
7
  6
CONTINUOUS
 10
-13.3013520579
 20
23.8890505892
 30
0.0
 11
0.110769438
 21
0.2241226716
 31
0.0
 40
0.6088015717
 41
-4.0304836828
 42
-3.144406558
  0
ELLIPSE
  5
3A4
100
AcDbEntity
  8
268140000
100
AcDbEllipse
 62
7
  6
CONTINUOUS
 10
0.0629661065
 20
17.2068915069
 30
0.0
 11
0.110769438
 21
0.2241226716
 31
0.0
 40
0.6088015717
 41
-4.0304836828
 42
-3.144406558
  0
ELLIPSE
  5
3A5
100
AcDbEntity
  8
268140000
100
AcDbEllipse
 62
7
  6
CONTINUOUS
 10
4.1195739878
 20
15.9151734578
 30
0.0
 11
-0.1565168911
 21
0.3130623908
 31
0.0
 40
0.6123677712
 41
-2.2554744912
 42
-0.6846781644
  0
ELLIPSE
  5
3A6
100
AcDbEntity
  8
268140000
100
AcDbEllipse
 62
7
  6
CONTINUOUS
 10
4.1195739878
 20
-22.2614083869
 30
0.0
 11
-0.1565168911
 21
0.3130623908
 31
0.0
 40
0.6123677712
 41
-3.1363565269
 42
-2.2554744912
  0
ELLIPSE
  5
3A7
100
AcDbEntity
  8
268140000
100
AcDbEllipse
 62
7
  6
CONTINUOUS
 10
-1.6470215607
 20
25.020404763
 30
0.0
 11
0.2999991737
 21
-0.0014183462
 31
0.0
 40
0.4964289597
 41
0.7877451926
 42
2.3527237553
  0
ELLIPSE
  5
3A8
100
AcDbEntity
  8
268140000
100
AcDbEllipse
 62
7
  6
CONTINUOUS
 10
3.9074419534
 20
22.2431730059
 30
0.0
 11
0.2999991737
 21
-0.0014183462
 31
0.0
 40
0.4964289597
 41
0.7877451926
 42
2.3585415194
  0
ELLIPSE
  5
3A9
100
AcDbEntity
  8
268140000
100
AcDbEllipse
 62
7
  6
CONTINUOUS
 10
3.4467940889
 20
16.5327444687
 30
0.0
 11
0.110769438
 21
0.2241226716
 31
0.0
 40
0.6088015717
 41
1.2055040732
 42
2.2526937431
  0
ELLIPSE
  5
3AA
100
AcDbEntity
  8
268140000
100
AcDbEllipse
 62
7
  6
CONTINUOUS
 10
-9.9175240755
 20
23.2149035509
 30
0.0
 11
0.110769438
 21
0.2241226716
 31
0.0
 40
0.6088015717
 41
1.2055040732
 42
2.2526937431
  0
ELLIPSE
  5
3AB
100
AcDbEntity
  8
268140000
100
AcDbEllipse
 62
7
  6
CONTINUOUS
 10
3.7982905661
 20
17.4605496207
 30
0.0
 11
0.110769438
 21
0.2241226716
 31
0.0
 40
0.6088015717
 41
-1.9360885804
 42
-0.8888910292
  0
ELLIPSE
  5
3AC
100
AcDbEntity
  8
268140000
100
AcDbEllipse
 62
7
  6
CONTINUOUS
 10
2.1781157097
 20
18.5315660253
 30
0.0
 11
0.1128509832
 21
0.2230818409
 31
0.0
 40
0.6159267166
 41
0.0028868672
 42
0.6817883054
  0
ELLIPSE
  5
3AD
100
AcDbEntity
  8
268140000
100
AcDbEllipse
 62
7
  6
CONTINUOUS
 10
0.0629661065
 20
17.4602629007
 30
0.0
 11
0.110769438
 21
0.2241226716
 31
0.0
 40
0.6088015717
 41
0.6877230618
 42
2.2527016244
  0
ELLIPSE
  5
3AE
100
AcDbEntity
  8
268140000
100
AcDbEllipse
 62
7
  6
CONTINUOUS
 10
-9.5660275984
 20
24.1427087029
 30
0.0
 11
0.110769438
 21
0.2241226716
 31
0.0
 40
0.6088015717
 41
-1.9360885804
 42
-0.8888910292
  0
ELLIPSE
  5
3AF
100
AcDbEntity
  8
268140000
100
AcDbEllipse
 62
7
  6
CONTINUOUS
 10
-11.1862024547
 20
25.2137251075
 30
0.0
 11
0.1128509832
 21
0.2230818409
 31
0.0
 40
0.6159267166
 41
0.0028868672
 42
0.6817883054
  0
ELLIPSE
  5
3B0
100
AcDbEntity
  8
268140000
100
AcDbEllipse
 62
7
  6
CONTINUOUS
 10
-13.3013520579
 20
24.1424219829
 30
0.0
 11
0.110769438
 21
0.2241226716
 31
0.0
 40
0.6088015717
 41
0.6877230618
 42
2.2527016244
  0
ELLIPSE
  5
3B1
100
AcDbEntity
  8
268140000
100
AcDbEllipse
 62
7
  6
CONTINUOUS
 10
3.7982905661
 20
-24.099983495
 30
0.0
 11
0.110769438
 21
0.2241226716
 31
0.0
 40
0.6088015717
 41
-2.4538695918
 42
-0.8888910292
  0
ELLIPSE
  5
3B2
100
AcDbEntity
  8
268140000
100
AcDbEllipse
 62
7
  6
CONTINUOUS
 10
0.0629661065
 20
-24.0927126324
 30
0.0
 11
0.110769438
 21
0.2241226716
 31
0.0
 40
0.6088015717
 41
1.2055040732
 42
2.2527016244
  0
ELLIPSE
  5
3B3
100
AcDbEntity
  8
268140000
100
AcDbEllipse
 62
7
  6
CONTINUOUS
 10
3.7982905661
 20
-23.8390545187
 30
0.0
 11
0.110769438
 21
0.2241226716
 31
0.0
 40
0.6088015717
 41
5.394294278
 42
6.4414918292
  0
ELLIPSE
  5
3B4
100
AcDbEntity
  8
268140000
100
AcDbEllipse
 62
7
  6
CONTINUOUS
 10
-9.5660275984
 20
24.4036376793
 30
0.0
 11
0.110769438
 21
0.2241226716
 31
0.0
 40
0.6088015717
 41
5.394294278
 42
6.9592728406
  0
ELLIPSE
  5
3B5
100
AcDbEntity
  8
268140000
100
AcDbEllipse
 62
7
  6
CONTINUOUS
 10
3.7982905661
 20
17.7214785971
 30
0.0
 11
0.110769438
 21
0.2241226716
 31
0.0
 40
0.6088015717
 41
5.394294278
 42
6.9592728406
  0
ELLIPSE
  5
3B6
100
AcDbEntity
  8
268140000
100
AcDbEllipse
 62
7
  6
CONTINUOUS
 10
-1.4665695836
 20
23.698344593
 30
0.0
 11
0.2999981629
 21
-0.0021225547
 31
0.0
 40
0.4946372042
 41
-0.7818985079
 42
0.0034996555
  0
ELLIPSE
  5
3B7
100
AcDbEntity
  8
268140000
100
AcDbEllipse
 62
7
  6
CONTINUOUS
 10
4.0878939306
 20
20.921112836
 30
0.0
 11
0.2999981629
 21
-0.0021225547
 31
0.0
 40
0.4946372042
 41
-0.7760807437
 42
0.0034996555
  0
ELLIPSE
  5
3B8
100
AcDbEntity
  8
268140000
100
AcDbEllipse
 62
7
  6
CONTINUOUS
 10
-7.6155153111
 20
22.1002233951
 30
0.0
 11
0.2999991335
 21
0.0014318851
 31
0.0
 40
0.5035541159
 41
8.6427941204
 42
10.207772683
  0
ELLIPSE
  5
3B9
100
AcDbEntity
  8
268140000
100
AcDbEllipse
 62
7
  6
CONTINUOUS
 10
1.6447002536
 20
-23.4875087201
 30
0.0
 11
-0.1565168911
 21
0.3130623908
 31
0.0
 40
0.6123677712
 41
2.4569144891
 42
4.0277108159
  0
ELLIPSE
  5
3BA
100
AcDbEntity
  8
268140000
100
AcDbEllipse
 62
7
  6
CONTINUOUS
 10
-13.62880622
 20
22.3031532938
 30
0.0
 11
-0.1565168911
 21
0.3130623908
 31
0.0
 40
0.6123677712
 41
-0.6846781644
 42
0.8861181623
  0
ELLIPSE
  5
3BB
100
AcDbEntity
  8
268140000
100
AcDbEllipse
 62
7
  6
CONTINUOUS
 10
1.6447002536
 20
14.6664000569
 30
0.0
 11
-0.1565168911
 21
0.3130623908
 31
0.0
 40
0.6123677712
 41
-2.2554744912
 42
-0.6846781644
  0
ELLIPSE
  5
3BC
100
AcDbEntity
  8
268140000
100
AcDbEllipse
 62
7
  6
CONTINUOUS
 10
0.2581656591
 20
-8.376703169
 30
0.0
 11
-0.1085782352
 21
0.1690527654
 31
0.0
 40
0.5459771812
 41
-3.2041463442
 42
-2.3138348679
  0
ELLIPSE
  5
3BD
100
AcDbEntity
  8
268140000
100
AcDbEllipse
 62
7
  6
CONTINUOUS
 10
-1.823006243
 20
19.203968861
 30
0.0
 11
0.2999991335
 21
0.0014318851
 31
0.0
 40
0.5035541159
 41
-2.3585979313
 42
-0.7936193687
  0
ELLIPSE
  5
3BE
100
AcDbEntity
  8
268140000
100
AcDbEllipse
 62
7
  6
CONTINUOUS
 10
-1.823006243
 20
17.9897697852
 30
0.0
 11
0.2999980272
 21
0.0021530184
 31
0.0
 40
0.5053247124
 41
-2.3598210761
 42
-0.7948425135
  0
ELLIPSE
  5
3BF
100
AcDbEntity
  8
268140000
100
AcDbEllipse
 62
7
  6
CONTINUOUS
 10
-7.6155153111
 20
20.8860243192
 30
0.0
 11
0.2999980272
 21
0.0021530184
 31
0.0
 40
0.5053247124
 41
3.1379660677
 42
3.9233642311
  0
ELLIPSE
  5
3C0
100
AcDbEntity
  8
268140000
100
AcDbEllipse
 62
7
  6
CONTINUOUS
 10
4.0878939306
 20
22.1529470173
 30
0.0
 11
0.2999991737
 21
-0.0014183462
 31
0.0
 40
0.4964289597
 41
-0.77723337
 42
0.7877451926
  0
ELLIPSE
  5
3C1
100
AcDbEntity
  8
268140000
100
AcDbEllipse
 62
7
  6
CONTINUOUS
 10
-1.4665695836
 20
24.9301787744
 30
0.0
 11
0.2999991737
 21
-0.0014183462
 31
0.0
 40
0.4964289597
 41
-0.7830511342
 42
0.7877451926
  0
ELLIPSE
  5
3C2
100
AcDbEntity
  8
268140000
100
AcDbEllipse
 62
7
  6
CONTINUOUS
 10
3.4467940889
 20
-23.2668596707
 30
0.0
 11
0.110769438
 21
0.2241226716
 31
0.0
 40
0.6088015717
 41
2.2527095058
 42
3.2998991756
  0
ELLIPSE
  5
3C3
100
AcDbEntity
  8
268140000
100
AcDbEllipse
 62
7
  6
CONTINUOUS
 10
1.6707994821
 20
16.6563462129
 30
0.0
 11
0.1128509832
 21
0.2230818409
 31
0.0
 40
0.6159267166
 41
0.6934238338
 42
2.2584023964
  0
ELLIPSE
  5
3C4
100
AcDbEntity
  8
268140000
100
AcDbEllipse
 62
7
  6
CONTINUOUS
 10
1.6707994821
 20
16.4029748191
 30
0.0
 11
0.1128509832
 21
0.2230818409
 31
0.0
 40
0.6159267166
 41
-4.0247829108
 42
-2.9775853596
  0
ELLIPSE
  5
3C5
100
AcDbEntity
  8
268140000
100
AcDbEllipse
 62
7
  6
CONTINUOUS
 10
-11.6935186823
 20
23.3385052951
 30
0.0
 11
0.1128509832
 21
0.2230818409
 31
0.0
 40
0.6159267166
 41
0.6934238338
 42
2.2584023964
  0
ELLIPSE
  5
3C6
100
AcDbEntity
  8
268140000
100
AcDbEllipse
 62
7
  6
CONTINUOUS
 10
-11.6935186823
 20
23.0851339013
 30
0.0
 11
0.1128509832
 21
0.2230818409
 31
0.0
 40
0.6159267166
 41
-4.0247829108
 42
-2.9775853596
  0
ELLIPSE
  5
3C7
100
AcDbEntity
  8
268140000
100
AcDbEllipse
 62
7
  6
CONTINUOUS
 10
-0.0075060526
 20
-18.0458543533
 30
0.0
 11
-0.542618321
 21
0.8478124368
 31
0.0
 40
0.5451249042
 41
-3.2164266024
 42
-2.3115524019
  0
ELLIPSE
  5
3C8
100
AcDbEntity
  8
268140000
100
AcDbEllipse
 62
7
  6
CONTINUOUS
 10
1.6707994821
 20
-25.150000714
 30
0.0
 11
0.1128509832
 21
0.2230818409
 31
0.0
 40
0.6159267166
 41
-4.0247829108
 42
-2.4598043482
  0
ELLIPSE
  5
3C9
100
AcDbEntity
  8
268140000
100
AcDbEllipse
 62
7
  6
CONTINUOUS
 10
1.6707994821
 20
-24.8966293202
 30
0.0
 11
0.1128509832
 21
0.2230818409
 31
0.0
 40
0.6159267166
 41
1.2112048452
 42
2.2584023964
  0
ENDSEC
  0
SECTION
  2
OBJECTS
  0
DICTIONARY
  5
C
100
AcDbDictionary
280
0
281
1
  3
ACAD_GROUP
350
D
  3
ACAD_MLINESTYLE
350
17
  3
ACAD_LAYOUT
350
1A
  3
ACAD_PLOTSETTINGS
350
19
  3
ACAD_PLOTSTYLENAME
350
E
  0
DICTIONARY
  5
D
102
{ACAD_REACTORS
330
C
102
}
100
AcDbDictionary
280
0
281
1
  0
ACDBDICTIONARYWDFLT
  5
E
102
{ACAD_REACTORS
330
C
102
}
100
AcDbDictionary
281
1
  3
Normal
350
F
100
AcDbDictionaryWithDefault
340
F
  0
DICTIONARY
  5
17
102
{ACAD_REACTORS
330
C
102
}
100
AcDbDictionary
280
0
281
1
  3
Standard
350
18
  0
DICTIONARY
  5
19
102
{ACAD_REACTORS
330
C
102
}
100
AcDbDictionary
281
1
  0
DICTIONARY
  5
1A
102
{ACAD_REACTORS
330
C
102
}
100
AcDbDictionary
281
1
  3
Model
350
3CA
  3
Layout1
350
3CB
  0
ACDBPLACEHOLDER
  5
F
102
{ACAD_REACTORS
330
E
102
}
  0
MLINESTYLE
  5
18
102
{ACAD_REACTORS
330
17
102
}
100
AcDbMlineStyle
  2
STANDARD
 70
0
  3

 62
256
 51
90.0
 52
90.0
 71
2
 49
0.5
 62
256
  6
BYLAYER
 49
-0.5
 62
256
  6
BYLAYER
  0
LAYOUT
  5
3CA
102
{ACAD_REACTORS
330
1A
102
}
100
AcDbPlotSettings
  1

  2
none_device
  4
ANSI_A_(11.00_x_8.50_Inches)
  6

 40
0.0
 41
0.0
 42
0.0
 43
0.0
 44
279.4
 45
215.9
 46
0.0
 47
0.0
 48
0.0
 49
0.0
140
0.0
141
0.0
142
1.0
143
1.0
 70
1024
 72
1
 73
0
 74
0
  7

 75
0
147
1.0
148
0.0
149
0.0
100
AcDbLayout
  1
Model
 70
0
 71
0
 10
0.0
 20
0.0
 11
279.4
 21
215.9
 12
0.0
 22
0.0
 32
0.0
 14
0.0
 24
0.0
 34
0.0
 15
0.0
 25
0.0
 35
0.0
146
0.0
 13
0.0
 23
0.0
 33
0.0
 16
1.0
 26
0.0
 36
0.0
 17
0.0
 27
1.0
 37
0.0
 76
0
330
22D
345
0
346
0
  0
LAYOUT
  5
3CB
102
{ACAD_REACTORS
330
1A
102
}
100
AcDbPlotSettings
  1

  2
none_device
  4
ANSI_A_(11.00_x_8.50_Inches)
  6

 40
0.0
 41
0.0
 42
0.0
 43
0.0
 44
279.4
 45
215.9
 46
0.0
 47
0.0
 48
0.0
 49
0.0
140
0.0
141
0.0
142
1.0
143
1.0
 70
0
 72
1
 73
0
 74
0
  7

 75
0
147
1.0
148
0.0
149
0.0
100
AcDbLayout
  1
Layout1
 70
0
 71
1
 10
0.0
 20
0.0
 11
279.4
 21
215.9
 12
0.0
 22
0.0
 32
0.0
 14
0.0
 24
0.0
 34
0.0
 15
0.0
 25
0.0
 35
0.0
146
0.0
 13
0.0
 23
0.0
 33
0.0
 16
1.0
 26
0.0
 36
0.0
 17
0.0
 27
1.0
 37
0.0
 76
0
330
22E
345
0
346
0
  0
ENDSEC
  0
EOF
