0
SECTION
2
HEADER
9
$ACADVER
1
AC1015
9
$DWGCODEPAGE
3
ANSI_1252
9
$EXTMAX
10
431.8000000000
20
558.8000000000
30
0.0000000000
9
$EXTMIN
10
0.0000000000
20
0.0000000000
30
0.0000000000
9
$LIMMIN
10
0.0000000000
20
0.0000000000
9
$LIMMAX
10
431.8000000000
20
558.8000000000
9
$VIEWCTR
10
215.9000000000
20
279.4000000000
9
$VIEWSIZE
40
558.8000000000
9
$CLAYER
8
0
9
$LTSCALE
40
36.4254814815
9
$CELTYPE
6
BYLAYER
9
$DIMSCALE
40
1
9
$DIMASZ
40
3.0000000000
9
$DIMEXO
40
4.1392592593
9
$DIMDLI
40
25.1666962963
9
$DIMEXE
40
11.9210666667
9
$DIMCEN
40
5.9605333333
9
$DIMLFAC
40
1.0000000000
9
$DIMBLK
1
_FILLED
9
$DIMTXT
40
3.0000000000
9
$DIMTOL
70
1
9
$DIMLIM
70
0
9
$DIMTFAC
40
1.0000000000
9
$DIMTP
40
0.0100000000
9
$DIMTM
40
0.0100000000
9
$PDMODE
70
3
9
$PDSIZE
40
3.0000000000
9
$HANDSEED
5
3C9
9
$MEASUREMENT
70
1
9
$INSUNITS
70
4
0
ENDSEC
0
SECTION
2
CLASSES
0
CLASS
1
ACDBDICTIONARYWDFLT
2
AcDbDictionaryWithDefault
3
AutoCAD 2000
90
0
280
0
281
0
0
CLASS
1
ACDBPLACEHOLDER
2
AcDbPlaceHolder
3
AutoCAD 2000
90
0
280
0
281
0
0
CLASS
1
LAYOUT
2
AcDbLayout
3
AutoCAD 2000
90
0
280
0
281
0
0
ENDSEC
0
SECTION
2
TABLES
0
TABLE
2
VPORT
5
8
100
AcDbSymbolTable
70
2
0
VPORT
5
1F4
100
AcDbSymbolTableRecord
100
AcDbViewportTableRecord
2
*ACTIVE
70
0
10
0.0
20
0.0
11
1.0
21
1.0
12
215.9000000000
22
279.4000000000
13
0.0
23
0.0
14
1.0
24
1.0
15
0.0
25
0.0
16
0.0
26
0.0
36
1.0
17
0.0
27
0.0
37
0.0
40
558.8000000000
41
0.7727272727
42
50.0
43
0.0
44
0.0
50
0.0
51
0.0
71
0
72
100
73
1
74
1
75
0
76
0
77
0
78
0
0
ENDTAB
0
TABLE
2
LTYPE
5
5
100
AcDbSymbolTable
70
6
0
LTYPE
5
14
100
AcDbSymbolTableRecord
100
AcDbLinetypeTableRecord
2
BYBLOCK
70
0
3

72
65
73
0
40
0.0
0
LTYPE
5
15
100
AcDbSymbolTableRecord
100
AcDbLinetypeTableRecord
2
BYLAYER
70
0
3

72
65
73
0
40
0.0
0
LTYPE
5
16
100
AcDbSymbolTableRecord
100
AcDbLinetypeTableRecord
2
CONTINUOUS
70
64
3
Solid line
72
65
73
0
40
0
0
LTYPE
5
1F5
100
AcDbSymbolTableRecord
100
AcDbLinetypeTableRecord
2
CENTER
70
64
3
____ _ ____ _ ____ _ ____ _ ____ _ ____ _ ____
72
65
73
4
40
0.6
49
0.375
74
0
49
-0.075
74
0
49
0.075
74
0
49
-0.075
74
0
0
LTYPE
5
1F6
100
AcDbSymbolTableRecord
100
AcDbLinetypeTableRecord
2
HIDDEN
70
64
3
- - - - - - - - - - - - - - - - - - - -
72
65
73
2
40
0.2
49
0.1
74
0
49
-0.1
74
0
0
LTYPE
5
1F7
100
AcDbSymbolTableRecord
100
AcDbLinetypeTableRecord
2
PHANTOM
70
64
3
_____ _ _ _____ _ _ _____ _ _ _____
72
65
73
6
40
0.8
49
0.45
74
0
49
-0.05
74
0
49
0.1
74
0
49
-0.05
74
0
49
0.1
74
0
49
-0.05
74
0
0
LTYPE
5
1F8
100
AcDbSymbolTableRecord
100
AcDbLinetypeTableRecord
2
DOT
70
64
3
. . . . . . . . . . . . . . . . . . . .
72
65
73
2
40
0.2
49
0.1
74
0
49
-0.1
74
0
0
LTYPE
5
1F9
100
AcDbSymbolTableRecord
100
AcDbLinetypeTableRecord
2
DASHED
70
64
3
- - - - - - - - - - - - - - - - - - - -
72
65
73
2
40
0.2
49
0.1
74
0
49
-0.1
74
0
0
ENDTAB
0
TABLE
2
LAYER
5
2
100
AcDbSymbolTable
70
36
0
LAYER
5
10
100
AcDbSymbolTableRecord
100
AcDbLayerTableRecord
2
0
70
0
62
7
6
CONTINUOUS
370
-3
390
F
0
LAYER
5
1FA
100
AcDbSymbolTableRecord
100
AcDbLayerTableRecord
2
DEFAULT_1
70
0
62
7
6
CENTER
370
-3
390
F
0
LAYER
5
1FB
100
AcDbSymbolTableRecord
100
AcDbLayerTableRecord
2
DEFAULT_2
70
0
62
9
6
HIDDEN
370
-3
390
F
0
LAYER
5
1FC
100
AcDbSymbolTableRecord
100
AcDbLayerTableRecord
2
DEFAULT_3
70
0
62
7
6
PHANTOM
370
-3
390
F
0
LAYER
5
1FD
100
AcDbSymbolTableRecord
100
AcDbLayerTableRecord
2
_BLACK_HOLE
70
0
62
7
6
CONTINUOUS
370
-3
390
F
0
LAYER
5
1FE
100
AcDbSymbolTableRecord
100
AcDbLayerTableRecord
2
ASSI
70
0
62
7
6
CONTINUOUS
370
-3
390
F
0
LAYER
5
1FF
100
AcDbSymbolTableRecord
100
AcDbLayerTableRecord
2
COLORE_TOP
70
0
62
7
6
CONTINUOUS
370
-3
390
F
0
LAYER
5
200
100
AcDbSymbolTableRecord
100
AcDbLayerTableRecord
2
COORDINATE
70
0
62
7
6
CONTINUOUS
370
-3
390
F
0
LAYER
5
201
100
AcDbSymbolTableRecord
100
AcDbLayerTableRecord
2
COORD_ORIGINE
70
0
62
7
6
CONTINUOUS
370
-3
390
F
0
LAYER
5
202
100
AcDbSymbolTableRecord
100
AcDbLayerTableRecord
2
COPY-PUBBLISH
70
0
62
7
6
CONTINUOUS
370
-3
390
F
0
LAYER
5
203
100
AcDbSymbolTableRecord
100
AcDbLayerTableRecord
2
COSMETICHE
70
0
62
7
6
CONTINUOUS
370
-3
390
F
0
LAYER
5
204
100
AcDbSymbolTableRecord
100
AcDbLayerTableRecord
2
CURVE
70
0
62
7
6
CONTINUOUS
370
-3
390
F
0
LAYER
5
205
100
AcDbSymbolTableRecord
100
AcDbLayerTableRecord
2
DRAFT
70
0
62
7
6
CONTINUOUS
370
-3
390
F
0
LAYER
5
206
100
AcDbSymbolTableRecord
100
AcDbLayerTableRecord
2
IMPORT
70
0
62
7
6
CONTINUOUS
370
-3
390
F
0
LAYER
5
207
100
AcDbSymbolTableRecord
100
AcDbLayerTableRecord
2
IMPORTED
70
0
62
7
6
CONTINUOUS
370
-3
390
F
0
LAYER
5
208
100
AcDbSymbolTableRecord
100
AcDbLayerTableRecord
2
INCISIONI_LASER
70
0
62
7
6
CONTINUOUS
370
-3
390
F
0
LAYER
5
209
100
AcDbSymbolTableRecord
100
AcDbLayerTableRecord
2
NOTE
70
0
62
7
6
CONTINUOUS
370
-3
390
F
0
LAYER
5
20A
100
AcDbSymbolTableRecord
100
AcDbLayerTableRecord
2
PIANI
70
0
62
7
6
CONTINUOUS
370
-3
390
F
0
LAYER
5
20B
100
AcDbSymbolTableRecord
100
AcDbLayerTableRecord
2
PIANI_DI_RIFERIMENTO
70
0
62
7
6
CONTINUOUS
370
-3
390
F
0
LAYER
5
20C
100
AcDbSymbolTableRecord
100
AcDbLayerTableRecord
2
PIANI_ORIGINE
70
0
62
7
6
CONTINUOUS
370
-3
390
F
0
LAYER
5
20D
100
AcDbSymbolTableRecord
100
AcDbLayerTableRecord
2
PIANI_RIFERIMENTO
70
0
62
7
6
CONTINUOUS
370
-3
390
F
0
LAYER
5
20E
100
AcDbSymbolTableRecord
100
AcDbLayerTableRecord
2
PIANI_SFORMO
70
0
62
7
6
CONTINUOUS
370
-3
390
F
0
LAYER
5
20F
100
AcDbSymbolTableRecord
100
AcDbLayerTableRecord
2
PUNTI
70
0
62
7
6
CONTINUOUS
370
-3
390
F
0
LAYER
5
210
100
AcDbSymbolTableRecord
100
AcDbLayerTableRecord
2
RACCORDO
70
0
62
7
6
CONTINUOUS
370
-3
390
F
0
LAYER
5
211
100
AcDbSymbolTableRecord
100
AcDbLayerTableRecord
2
SMUSSO
70
0
62
7
6
CONTINUOUS
370
-3
390
F
0
LAYER
5
212
100
AcDbSymbolTableRecord
100
AcDbLayerTableRecord
2
SUPERFICI
70
0
62
7
6
CONTINUOUS
370
-3
390
F
0
LAYER
5
213
100
AcDbSymbolTableRecord
100
AcDbLayerTableRecord
2
TRASH
70
0
62
7
6
CONTINUOUS
370
-3
390
F
0
LAYER
5
214
100
AcDbSymbolTableRecord
100
AcDbLayerTableRecord
2
XSEC_DATUMS
70
0
62
7
6
CONTINUOUS
370
-3
390
F
0
ENDTAB
0
TABLE
2
STYLE
5
3
100
AcDbSymbolTable
70
1
0
STYLE
5
11
100
AcDbSymbolTableRecord
100
AcDbTextStyleTableRecord
2
STANDARD
70
0
40
0.0
41
0.8000000000
50
0.0
71
0
42
0.2
3
txt
4

0
ENDTAB
0
TABLE
2
VIEW
5
6
100
AcDbSymbolTable
70
0
0
ENDTAB
0
TABLE
2
UCS
5
7
100
AcDbSymbolTable
70
0
0
ENDTAB
0
TABLE
2
APPID
5
9
100
AcDbSymbolTable
70
1
0
APPID
5
215
100
AcDbSymbolTableRecord
100
AcDbRegAppTableRecord
2
ACAD
70
0
0
ENDTAB
0
TABLE
2
BLOCK_RECORD
5
1
100
AcDbSymbolTable
70
0
0
BLOCK_RECORD
5
1F
100
AcDbSymbolTableRecord
100
AcDbBlockTableRecord
2
*MODEL_SPACE
0
BLOCK_RECORD
5
1B
100
AcDbSymbolTableRecord
100
AcDbBlockTableRecord
2
*PAPER_SPACE
0
ENDTAB
0
TABLE
2
DIMSTYLE
5
A
100
AcDbSymbolTable
70
1
100
AcDbDimStyleTable
71
0
0
DIMSTYLE
105
216
100
AcDbSymbolTableRecord
100
AcDbDimStyleTableRecord
2
STANDARD
70
0
3

4

40
1.0
41
3.0000000000
42
0.0625
43
0.38
44
0.18
45
0.0
46
0.0
47
0.0100000000
48
0.0100000000
140
3.0000000000
141
0.09
142
0.0
143
25.4
144
1.0000000000
145
0.0
146
1.0000000000
147
0.09
71
1
72
0
73
0
74
0
75
0
76
0
77
1
78
8
170
0
171
2
172
0
173
0
174
0
175
0
176
0
177
0
178
0
270
2
271
2
272
2
273
2
274
2
275
0
280
0
281
0
282
0
283
1
284
8
285
0
286
0
287
3
288
0
340
11
0
ENDTAB
0
ENDSEC
0
SECTION
2
BLOCKS
0
BLOCK
5
20
100
AcDbEntity
8
0
100
AcDbBlockBegin
2
*MODEL_SPACE
70
0
10
0.0
20
0.0
30
0.0
3
*MODEL_SPACE
1

0
ENDBLK
5
21
100
AcDbEntity
8
0
100
AcDbBlockEnd
0
BLOCK
5
1C
100
AcDbEntity
8
0
100
AcDbBlockBegin
2
*PAPER_SPACE
70
0
10
0.0
20
0.0
30
0.0
3
*PAPER_SPACE
1

0
ENDBLK
5
1D
100
AcDbEntity
8
0
100
AcDbBlockEnd
0
ENDSEC
0
SECTION
2
ENTITIES
0
LINE
5
217
100
AcDbEntity
8
0
100
AcDbLine
62
0
6
CONTINUOUS
10
-13.0909363246
20
24.5677921631
11
-11.5081797214
21
25.3797762605
0
LINE
5
218
100
AcDbEntity
8
0
100
AcDbLine
62
0
6
CONTINUOUS
10
-13.5395360978
20
22.7208115512
11
-12.5626691528
21
23.2196859599
0
LINE
5
219
100
AcDbEntity
8
0
100
AcDbLine
62
9
6
CONTINUOUS
10
-13.3820126915
20
22.7113782216
11
-12.5626691528
21
23.1298072876
0
LINE
5
21A
100
AcDbEntity
8
0
100
AcDbLine
62
0
6
CONTINUOUS
10
-11.4124042374
20
23.7285261195
11
-9.8111234465
21
24.5312481230
0
LINE
5
21B
100
AcDbEntity
8
0
100
AcDbLine
62
0
6
CONTINUOUS
10
-9.8111234465
20
24.5312481230
11
-9.2828562748
21
24.7946869431
0
LINE
5
21C
100
AcDbEntity
8
0
100
AcDbLine
62
0
6
CONTINUOUS
10
-11.5081797214
20
25.3797762605
11
-10.9737298427
21
25.6401237270
0
LINE
5
21D
100
AcDbEntity
8
0
100
AcDbLine
62
0
6
CONTINUOUS
10
-9.8111234465
20
22.7125947751
11
-10.8779543587
21
22.1740135256
0
LWPOLYLINE
5
21E
100
AcDbEntity
8
0
100
AcDbPolyline
62
0
6
CONTINUOUS
90
19
70
0
10
-16.6574987108
20
20.1641173141
10
-16.6751196396
20
20.1567572021
10
-16.7675013767
20
20.1130735958
10
-16.8572697528
20
20.0620156929
10
-16.9444316121
20
20.0036430508
10
-17.0285948776
20
19.9382798543
10
-17.1089958808
20
19.8666254946
10
-17.1856631879
20
19.7887746512
10
-17.2584154628
20
19.7049395056
10
-17.3263235836
20
19.6162333863
10
-17.3893561280
20
19.5228418412
10
-17.4473575282
20
19.4249456090
10
-17.4994801359
20
19.3240082620
10
-17.5456604928
20
19.2202958043
10
-17.5857560915
20
19.1139796572
10
-17.6191971646
20
19.0065540444
10
-17.6458289984
20
18.8986240717
10
-17.6656800094
20
18.7899700181
10
-17.6701894923
20
18.7580004436
0
LINE
5
21F
100
AcDbEntity
8
0
100
AcDbLine
62
0
6
CONTINUOUS
10
-16.6575032356
20
20.1641283801
11
-12.7413950369
21
21.7649140305
0
LINE
5
220
100
AcDbEntity
8
0
100
AcDbLine
62
9
6
CONTINUOUS
10
-16.3053571377
20
20.1385004005
11
-12.3931928656
21
21.7376738585
0
LWPOLYLINE
5
221
100
AcDbEntity
8
0
100
AcDbPolyline
62
0
6
CONTINUOUS
90
12
70
0
10
-5.8940556523
20
-25.6349477556
10
-5.8603189139
20
-25.6511244512
10
-5.7776842164
20
-25.6849156750
10
-5.6920337424
20
-25.7118895689
10
-5.6038182007
20
-25.7317931624
10
-5.5132287751
20
-25.7444467306
10
-5.4208145916
20
-25.7496241146
10
-5.3271948565
20
-25.7471566155
10
-5.2325597781
20
-25.7368828175
10
-5.1373066357
20
-25.7186527063
10
-5.0421387176
20
-25.6924396541
10
-5.0244451992
20
-25.6866672391
0
LINE
5
222
100
AcDbEntity
8
0
100
AcDbLine
62
0
6
CONTINUOUS
10
-5.8931058398
20
-25.6354365795
11
-20.0281949713
21
-18.5678920137
0
LINE
5
223
100
AcDbEntity
8
0
100
AcDbLine
62
9
6
CONTINUOUS
10
-6.2861091856
20
-24.7731030084
11
-20.4133802270
21
-17.7094674877
0
LINE
5
224
100
AcDbEntity
8
0
100
AcDbLine
62
0
6
CONTINUOUS
10
-9.1960046116
20
24.0870868160
11
-9.7232493273
21
23.4453790880
0
LINE
5
225
100
AcDbEntity
8
0
100
AcDbLine
62
0
6
CONTINUOUS
10
-7.5820843542
20
22.3107662547
11
-7.0887623390
21
22.5638497866
0
LINE
5
226
100
AcDbEntity
8
0
100
AcDbLine
62
0
6
CONTINUOUS
10
-8.3906978091
20
22.7019310483
11
-1.8826611824
21
25.9430726539
0
LINE
5
227
100
AcDbEntity
8
0
100
AcDbLine
62
9
6
CONTINUOUS
10
-8.3152046686
20
22.6641844781
11
-2.0006643420
21
25.8089607826
0
LINE
5
228
100
AcDbEntity
8
0
100
AcDbLine
62
0
6
CONTINUOUS
10
-1.0076440208
20
24.9292172519
11
-5.7452594547
21
22.5941667372
0
LINE
5
229
100
AcDbEntity
8
0
100
AcDbLine
62
0
6
CONTINUOUS
10
-7.0887623390
20
22.5638497866
11
-1.6111223495
21
25.2321817498
0
LINE
5
22A
100
AcDbEntity
8
0
100
AcDbLine
62
0
6
CONTINUOUS
10
3.6410688372
20
-23.4113841336
11
4.1683135529
21
-23.5196764056
0
LINE
5
22B
100
AcDbEntity
8
0
100
AcDbLine
62
0
6
CONTINUOUS
10
0.1632495361
20
-24.5338355197
11
1.8404963117
21
-25.3724589075
0
LINE
5
22C
100
AcDbEntity
8
0
100
AcDbLine
62
9
6
CONTINUOUS
10
0.0986560573
20
-24.3988069784
11
1.7751431976
21
-25.2370505486
0
LWPOLYLINE
5
22D
100
AcDbEntity
8
0
100
AcDbPolyline
62
0
6
CONTINUOUS
90
15
70
0
10
-20.6477022030
20
-17.4281246113
10
-20.6484551617
20
-17.4777233343
10
-20.6438174557
20
-17.5957064696
10
-20.6302562892
20
-17.7093988101
10
-20.6081319372
20
-17.8184088733
10
-20.5777533612
20
-17.9225822710
10
-20.5393713164
20
-18.0217077526
10
-20.4934462648
20
-18.1151740501
10
-20.4403633890
20
-18.2026646413
10
-20.3803220097
20
-18.2840711464
10
-20.3138969889
20
-18.3587943092
10
-20.2416855980
20
-18.4263925028
10
-20.1639332247
20
-18.4867533388
10
-20.0811801742
20
-18.5394713668
10
-20.0271307734
20
-18.5684091191
0
LINE
5
22E
100
AcDbEntity
8
0
100
AcDbLine
62
0
6
CONTINUOUS
10
-20.6477051397
20
-17.4279066460
11
-20.6477117848
21
-17.4281243221
0
LWPOLYLINE
5
22F
100
AcDbEntity
8
0
100
AcDbPolyline
62
0
6
CONTINUOUS
90
13
70
0
10
-17.6701838557
20
18.7580887965
10
-18.0540234516
20
15.7470832131
10
-18.4207985457
20
12.6763121683
10
-18.7615315572
20
9.6140576972
10
-19.0761709340
20
6.5607513949
10
-19.3646787049
20
3.5167724380
10
-19.6270206523
20
0.4824795572
10
-19.8631622369
20
-2.5417542795
10
-20.0730741391
20
-5.5555579958
10
-20.2567291544
20
-8.5585755169
10
-20.4141005752
20
-11.5504323109
10
-20.5451672533
20
-14.5307087727
10
-20.6477051397
20
-17.4279066460
0
LINE
5
230
100
AcDbEntity
8
0
100
AcDbLine
62
0
6
CONTINUOUS
10
0.3194298076
20
23.4593430183
11
-1.0783546989
21
22.7604507650
0
LINE
5
231
100
AcDbEntity
8
0
100
AcDbLine
62
0
6
CONTINUOUS
10
-2.1532600335
20
22.0684110095
11
-2.0917103952
21
22.0991858286
0
LINE
5
232
100
AcDbEntity
8
0
100
AcDbLine
62
9
6
CONTINUOUS
10
-2.0683041926
20
22.0604872129
11
-2.0022676761
21
22.0935054711
0
LINE
5
233
100
AcDbEntity
8
0
100
AcDbLine
62
0
6
CONTINUOUS
10
-1.4319080895
20
23.4897856496
11
-1.0076440208
21
23.6973830705
0
LINE
5
234
100
AcDbEntity
8
0
100
AcDbLine
62
0
6
CONTINUOUS
10
0.9784255590
20
24.3194158321
11
-1.0783546989
21
23.3130089543
0
LINE
5
235
100
AcDbEntity
8
0
100
AcDbLine
62
9
6
CONTINUOUS
10
1.7751431976
20
-24.8970766144
11
0.0986560573
21
-24.0588330443
0
LINE
5
236
100
AcDbEntity
8
0
100
AcDbLine
62
9
6
CONTINUOUS
10
1.8640457736
20
-24.6656395548
11
0.1865301766
21
-23.8268817563
0
LINE
5
237
100
AcDbEntity
8
0
100
AcDbLine
62
0
6
CONTINUOUS
10
-0.5693805000
20
-22.4550875177
11
1.8914937821
21
-23.6855246587
0
LINE
5
238
100
AcDbEntity
8
0
100
AcDbLine
62
0
6
CONTINUOUS
10
2.4863638057
20
-23.9205801373
11
2.0450274460
21
-23.6999119575
0
LINE
5
239
100
AcDbEntity
8
0
100
AcDbLine
62
0
6
CONTINUOUS
10
-0.5434953736
20
-22.1405141424
11
2.1389811555
21
-23.4817524069
0
LINE
5
23A
100
AcDbEntity
8
0
100
AcDbLine
62
0
6
CONTINUOUS
10
-2.1649708903
20
22.0606626346
11
-3.0949957090
21
21.2690348644
0
LINE
5
23B
100
AcDbEntity
8
0
100
AcDbLine
62
9
6
CONTINUOUS
10
-2.0683041926
20
22.0604872129
11
-3.0339701345
21
21.2385220771
0
LINE
5
23C
100
AcDbEntity
8
0
100
AcDbLine
62
0
6
CONTINUOUS
10
-1.3653183973
20
19.2023832763
11
-0.8662226645
21
19.4525799494
0
LINE
5
23D
100
AcDbEntity
8
0
100
AcDbLine
62
0
6
CONTINUOUS
10
-0.8662226645
20
19.4525799494
11
4.5480500306
21
22.1525955598
0
LINE
5
23E
100
AcDbEntity
8
0
100
AcDbLine
62
0
6
CONTINUOUS
10
3.9421034475
20
22.4543435177
11
-0.7955119864
21
20.1192930031
0
LINE
5
23F
100
AcDbEntity
8
0
100
AcDbLine
62
0
6
CONTINUOUS
10
5.2210662461
20
22.1980954886
11
4.6346874590
21
21.9111734209
0
LINE
5
240
100
AcDbEntity
8
0
100
AcDbLine
62
0
6
CONTINUOUS
10
11.5008964822
20
24.8633501681
11
5.7209970331
21
22.1940010632
0
LINE
5
241
100
AcDbEntity
8
0
100
AcDbLine
62
9
6
CONTINUOUS
10
11.9325159073
20
24.8275564618
11
6.0141968400
21
22.0942805901
0
LWPOLYLINE
5
242
100
AcDbEntity
8
0
100
AcDbPolyline
62
0
6
CONTINUOUS
90
4
70
0
10
-13.1490158312
20
-13.7768932337
10
-13.0879818946
20
-13.7975592063
10
-13.0266545893
20
-13.8242065857
10
-13.0154065349
20
-13.8297280139
0
LINE
5
243
100
AcDbEntity
8
0
100
AcDbLine
62
9
6
CONTINUOUS
10
3.6410688372
20
-23.4113841336
11
3.5976465112
21
-23.3896729706
0
LINE
5
244
100
AcDbEntity
8
0
100
AcDbLine
62
0
6
CONTINUOUS
10
-0.4695617613
20
-21.2420234189
11
2.9521539539
21
-22.9528812765
0
LINE
5
245
100
AcDbEntity
8
0
100
AcDbLine
62
9
6
CONTINUOUS
10
3.5531947179
20
-23.2121169881
11
4.1683135529
21
-23.5196764056
0
LINE
5
246
100
AcDbEntity
8
0
100
AcDbLine
62
0
6
CONTINUOUS
10
3.5531947179
20
-23.2084968385
11
4.1697616127
21
-23.5167802859
0
LINE
5
247
100
AcDbEntity
8
0
100
AcDbLine
62
0
6
CONTINUOUS
10
-0.3391618095
20
-19.6573159573
11
2.9521539539
21
-21.3029738389
0
LWPOLYLINE
5
248
100
AcDbEntity
8
0
100
AcDbPolyline
62
0
6
CONTINUOUS
90
32
70
0
10
-13.0153314230
20
-13.8297715446
10
-12.9985472068
20
-13.8383872499
10
-12.9275743687
20
-13.8796776753
10
-12.8572538941
20
-13.9285233080
10
-12.7882530969
20
-13.9845172533
10
-12.7211198585
20
-14.0471946222
10
-12.6563138714
20
-14.1161506992
10
-12.5943532469
20
-14.1908538634
10
-12.5357215659
20
-14.2706939923
10
-12.4807934903
20
-14.3551928726
10
-12.4300020375
20
-14.4437199609
10
-12.3837259306
20
-14.5355829580
10
-12.3422566792
20
-14.6302424833
10
-12.3059312737
20
-14.7269862654
10
-12.2750166819
20
-14.8250760895
10
-12.2497230181
20
-14.9239298464
10
-12.2302808471
20
-15.0227826033
10
-12.2168401757
20
-15.1208611823
10
-12.2095207287
20
-15.2175234026
10
-12.2084217039
20
-15.3119862733
10
-12.2135512666
20
-15.4034513779
10
-12.2248904649
20
-15.4911713570
10
-12.2423615737
20
-15.5743998407
10
-12.2657722903
20
-15.6523762704
10
-12.2948506844
20
-15.7242973655
10
-12.3292333862
20
-15.7894942665
10
-12.3685408608
20
-15.8475580102
10
-12.4124426682
20
-15.8981490162
10
-12.4604463351
20
-15.9408948648
10
-12.5122574528
20
-15.9757380615
10
-12.5680616781
20
-16.0027393584
10
-12.5789254201
20
-16.0068983957
0
LINE
5
249
100
AcDbEntity
8
0
100
AcDbLine
62
0
6
CONTINUOUS
10
0.2733818399
20
17.8856330809
11
1.8561384430
21
18.6976171782
0
LINE
5
24A
100
AcDbEntity
8
0
100
AcDbLine
62
0
6
CONTINUOUS
10
-1.3653183973
20
17.9881798034
11
-0.8662226645
21
18.2401443841
0
LINE
5
24B
100
AcDbEntity
8
0
100
AcDbLine
62
0
6
CONTINUOUS
10
-0.8662226645
20
18.2401443841
11
4.5480500306
21
20.9207569814
0
LINE
5
24C
100
AcDbEntity
8
0
100
AcDbLine
62
0
6
CONTINUOUS
10
1.8561384430
20
18.6976171782
11
2.3905883217
21
18.9579646448
0
LINE
5
24D
100
AcDbEntity
8
0
100
AcDbLine
62
0
6
CONTINUOUS
10
12.9732824091
20
24.3071732108
11
9.4002087106
21
22.6017398940
0
LINE
5
24E
100
AcDbEntity
8
0
100
AcDbLine
62
0
6
CONTINUOUS
10
-13.6295000650
20
22.5320014751
11
-13.6295000650
21
22.5076059698
0
LINE
5
24F
100
AcDbEntity
8
0
100
AcDbLine
62
0
6
CONTINUOUS
10
-13.2656621071
20
23.9229301773
11
-13.2656621071
21
24.2629041114
0
LINE
5
250
100
AcDbEntity
8
0
100
AcDbLine
62
0
6
CONTINUOUS
10
-12.8163272666
20
22.1010195706
11
-12.8163272666
21
21.7342840199
0
LINE
5
251
100
AcDbEntity
8
0
100
AcDbLine
62
9
6
CONTINUOUS
10
4.1215171644
20
17.3479720105
11
9.3902469921
21
20.1905726262
0
LINE
5
252
100
AcDbEntity
8
0
100
AcDbLine
62
9
6
CONTINUOUS
10
3.7548970112
20
16.9017598844
11
9.3060954245
21
19.8967587823
0
LINE
5
253
100
AcDbEntity
8
0
100
AcDbLine
62
0
6
CONTINUOUS
10
9.4818493729
20
20.2741285419
11
10.1141374391
21
20.6075465416
0
LINE
5
254
100
AcDbEntity
8
0
100
AcDbLine
62
9
6
CONTINUOUS
10
10.1140096571
20
20.6074791547
11
10.1141374391
21
20.6075465416
0
LINE
5
255
100
AcDbEntity
8
0
100
AcDbLine
62
9
6
CONTINUOUS
10
3.6259825589
20
16.7435350992
11
9.3060954245
21
19.6844996282
0
LINE
5
256
100
AcDbEntity
8
0
100
AcDbLine
62
0
6
CONTINUOUS
10
3.6966762346
20
16.6582440265
11
9.3883051368
21
19.6051711581
0
LINE
5
257
100
AcDbEntity
8
0
100
AcDbLine
62
0
6
CONTINUOUS
10
9.7941946445
20
21.5795840760
11
14.0105744222
21
23.7248936927
0
LINE
5
258
100
AcDbEntity
8
0
100
AcDbLine
62
0
6
CONTINUOUS
10
9.7941946445
20
21.1693650331
11
14.0166314091
21
23.2874052255
0
LINE
5
259
100
AcDbEntity
8
0
100
AcDbLine
62
0
6
CONTINUOUS
10
1.9519139270
20
17.0463670373
11
3.5531947179
21
17.8490890408
0
LINE
5
25A
100
AcDbEntity
8
0
100
AcDbLine
62
0
6
CONTINUOUS
10
10.2424248679
20
20.3844548102
11
10.7373996147
21
20.6319421836
0
LINE
5
25B
100
AcDbEntity
8
0
100
AcDbLine
62
0
6
CONTINUOUS
10
3.5531947179
20
17.8490890408
11
4.0814618896
21
18.1125278608
0
LINE
5
25C
100
AcDbEntity
8
0
100
AcDbLine
62
9
6
CONTINUOUS
10
3.5166192675
20
18.4569265428
11
8.2001561470
21
20.7085505381
0
LINE
5
25D
100
AcDbEntity
8
0
100
AcDbLine
62
9
6
CONTINUOUS
10
3.7442347673
20
18.3431187929
11
8.6419970149
21
20.6977322578
0
LINE
5
25E
100
AcDbEntity
8
0
100
AcDbLine
62
0
6
CONTINUOUS
10
2.1389811555
20
14.6233653596
11
2.9521539539
21
14.9076670275
0
LINE
5
25F
100
AcDbEntity
8
0
100
AcDbLine
62
0
6
CONTINUOUS
10
-12.5626691528
20
23.0163709226
11
-12.5626691528
21
23.4687018983
0
LINE
5
260
100
AcDbEntity
8
0
100
AcDbLine
62
0
6
CONTINUOUS
10
-11.5891749668
20
23.4246605413
11
-11.5891749668
21
23.0846866072
0
LINE
5
261
100
AcDbEntity
8
0
100
AcDbLine
62
0
6
CONTINUOUS
10
-10.8779543587
20
22.1740135256
11
-10.8779543587
21
22.8111830843
0
LINE
5
262
100
AcDbEntity
8
0
100
AcDbLine
62
0
6
CONTINUOUS
10
-6.7429612141
20
19.0643365444
11
-6.7861894189
21
18.9341721352
0
LINE
5
263
100
AcDbEntity
8
0
100
AcDbLine
62
9
6
CONTINUOUS
10
3.6592607351
20
15.9774026843
11
1.8914937821
21
15.0746249848
0
LINE
5
264
100
AcDbEntity
8
0
100
AcDbLine
62
9
6
CONTINUOUS
10
3.9067481085
20
15.5505385643
11
2.1389811555
21
14.6477608649
0
LINE
5
265
100
AcDbEntity
8
0
100
AcDbLine
62
0
6
CONTINUOUS
10
3.5531947179
20
16.0304356929
11
2.4863638057
21
15.4918544434
0
LINE
5
266
100
AcDbEntity
8
0
100
AcDbLine
62
0
6
CONTINUOUS
10
13.2055775273
20
20.8124420359
11
11.8941132162
21
20.1567098804
0
LINE
5
267
100
AcDbEntity
8
0
100
AcDbLine
62
0
6
CONTINUOUS
10
14.0541082350
20
20.3881792524
11
13.2323244093
21
19.9772873395
0
LINE
5
268
100
AcDbEntity
8
0
100
AcDbLine
62
9
6
CONTINUOUS
10
4.3663675162
20
16.3233983857
11
3.6592607351
21
15.9774026843
0
LINE
5
269
100
AcDbEntity
8
0
100
AcDbLine
62
9
6
CONTINUOUS
10
4.6138548897
20
15.8965342657
11
3.9067481085
21
15.5505385643
0
LINE
5
26A
100
AcDbEntity
8
0
100
AcDbLine
62
0
6
CONTINUOUS
10
4.3062324953
20
16.3534658961
11
9.9720970642
21
19.1056544404
0
LINE
5
26B
100
AcDbEntity
8
0
100
AcDbLine
62
0
6
CONTINUOUS
10
18.4589800596
20
21.5643243856
11
10.7247911482
21
17.8074491793
0
LINE
5
26C
100
AcDbEntity
8
0
100
AcDbLine
62
0
6
CONTINUOUS
10
17.6337335919
20
21.9769476194
11
14.0703027554
21
20.2666928716
0
LINE
5
26D
100
AcDbEntity
8
0
100
AcDbLine
62
9
6
CONTINUOUS
10
1.8905364276
20
14.5958092119
11
-2.1611470653
21
13.0663953643
0
LINE
5
26E
100
AcDbEntity
8
0
100
AcDbLine
62
9
6
CONTINUOUS
10
2.3970144736
20
13.5945289276
11
-1.6546690193
21
12.0651150800
0
LINE
5
26F
100
AcDbEntity
8
0
100
AcDbLine
62
0
6
CONTINUOUS
10
-9.8111234465
20
22.7125947751
11
-9.8111234465
21
24.5312481230
0
LINE
5
270
100
AcDbEntity
8
0
100
AcDbLine
62
0
6
CONTINUOUS
10
-9.1081304923
20
24.6665696208
11
-9.1081304923
21
24.3190381040
0
LINE
5
271
100
AcDbEntity
8
0
100
AcDbLine
62
9
6
CONTINUOUS
10
18.8018776356
20
20.9729135500
11
4.6138548897
21
13.7547174311
0
LINE
5
272
100
AcDbEntity
8
0
100
AcDbLine
62
9
6
CONTINUOUS
10
19.2160281112
20
19.5412799754
11
4.6138548897
21
12.1123836476
0
LINE
5
273
100
AcDbEntity
8
0
100
AcDbLine
62
0
6
CONTINUOUS
10
-7.6687217826
20
22.2042593128
11
-7.6687217826
21
20.9895259266
0
LINE
5
274
100
AcDbEntity
8
0
100
AcDbLine
62
9
6
CONTINUOUS
10
-7.5808538170
20
22.0977503560
11
-7.5808538170
21
20.8827954899
0
LINE
5
275
100
AcDbEntity
8
0
100
AcDbLine
62
0
6
CONTINUOUS
10
-7.4069603905
20
19.3963361326
11
-7.4069603905
21
19.2445576209
0
LINE
5
276
100
AcDbEntity
8
0
100
AcDbLine
62
0
6
CONTINUOUS
10
-2.5003205270
20
16.9430162008
11
-2.5435487318
21
16.8128517916
0
LINE
5
277
100
AcDbEntity
8
0
100
AcDbLine
62
0
6
CONTINUOUS
10
4.1683135529
20
17.4049277338
11
3.6410688372
21
16.7632200058
0
LINE
5
278
100
AcDbEntity
8
0
100
AcDbLine
62
0
6
CONTINUOUS
10
-2.4572129222
20
16.9214623984
11
-2.4572129222
21
16.7696838868
0
LINE
5
279
100
AcDbEntity
8
0
100
AcDbLine
62
9
6
CONTINUOUS
10
-1.7883447489
20
17.9865409559
11
-1.7883447489
21
19.2014958220
0
LINE
5
27A
100
AcDbEntity
8
0
100
AcDbLine
62
0
6
CONTINUOUS
10
0.8896662753
20
-4.7237748991
11
1.2197423400
21
-4.8888129315
0
LINE
5
27B
100
AcDbEntity
8
0
100
AcDbLine
62
0
6
CONTINUOUS
10
0.2823660849
20
-12.1040931393
11
0.9465289375
21
-18.2946084704
0
LINE
5
27C
100
AcDbEntity
8
0
100
AcDbLine
62
0
6
CONTINUOUS
10
0.6156648794
20
-8.0536231885
11
0.6463859289
21
-8.3423120450
0
LINE
5
27D
100
AcDbEntity
8
0
100
AcDbLine
62
0
6
CONTINUOUS
10
-1.4319080895
20
22.2404908164
11
-1.4319080895
21
23.4897856496
0
LINE
5
27E
100
AcDbEntity
8
0
100
AcDbLine
62
9
6
CONTINUOUS
10
-1.3653183973
20
17.9881798034
11
-1.3653183973
21
19.2023832763
0
LINE
5
27F
100
AcDbEntity
8
0
100
AcDbLine
62
0
6
CONTINUOUS
10
-1.0783546989
20
22.7604507650
11
-1.0783546989
21
23.3130089543
0
LINE
5
280
100
AcDbEntity
8
0
100
AcDbLine
62
9
6
CONTINUOUS
10
-1.0076440208
20
24.9292172519
11
-1.0076440208
21
23.6973830705
0
LINE
5
281
100
AcDbEntity
8
0
100
AcDbLine
62
0
6
CONTINUOUS
10
-0.9197760551
20
25.0342144658
11
-0.9197760551
21
23.8018458610
0
LINE
5
282
100
AcDbEntity
8
0
100
AcDbLine
62
0
6
CONTINUOUS
10
-0.8662226645
20
19.4525799494
11
-0.8662226645
21
18.2401443841
0
LINE
5
283
100
AcDbEntity
8
0
100
AcDbLine
62
0
6
CONTINUOUS
10
0.0986560573
20
-24.3988069784
11
0.0986560573
21
-24.0588330443
0
LINE
5
284
100
AcDbEntity
8
0
100
AcDbLine
62
0
6
CONTINUOUS
10
0.0986560573
20
17.2407710951
11
0.0986560573
21
17.5807450292
0
LINE
5
285
100
AcDbEntity
8
0
100
AcDbLine
62
0
6
CONTINUOUS
10
19.4966883109
20
13.7089081530
11
20.4118650981
21
14.3008367722
0
LINE
5
286
100
AcDbEntity
8
0
100
AcDbLine
62
0
6
CONTINUOUS
10
1.2197423400
20
-4.8888129315
11
2.9521539539
21
-21.3029738389
0
LINE
5
287
100
AcDbEntity
8
0
100
AcDbLine
62
0
6
CONTINUOUS
10
0.8016490116
20
16.3342118404
11
0.8016490116
21
16.7865428161
0
LINE
5
288
100
AcDbEntity
8
0
100
AcDbLine
62
0
6
CONTINUOUS
10
1.6793617477
20
23.8038914983
11
1.6793617477
21
23.5330912057
0
LINE
5
289
100
AcDbEntity
8
0
100
AcDbLine
62
0
6
CONTINUOUS
10
1.7751431976
20
16.7425014591
11
1.7751431976
21
16.4025275249
0
LINE
5
28A
100
AcDbEntity
8
0
100
AcDbLine
62
0
6
CONTINUOUS
10
1.7751431976
20
-24.8970766144
11
1.7751431976
21
-25.2370505486
0
LINE
5
28B
100
AcDbEntity
8
0
100
AcDbLine
62
0
6
CONTINUOUS
10
2.1389811555
20
14.6477608649
11
2.1389811555
21
14.6233653596
0
LINE
5
28C
100
AcDbEntity
8
0
100
AcDbLine
62
0
6
CONTINUOUS
10
2.1389811555
20
-23.4817524069
11
2.1389811555
21
-23.5061479122
0
LINE
5
28D
100
AcDbEntity
8
0
100
AcDbLine
62
0
6
CONTINUOUS
10
2.4863638057
20
-23.9205801373
11
2.4863638057
21
-23.4809805917
0
LINE
5
28E
100
AcDbEntity
8
0
100
AcDbLine
62
0
6
CONTINUOUS
10
2.4863638057
20
15.4918544434
11
2.4863638057
21
16.1290240021
0
LINE
5
28F
100
AcDbEntity
8
0
100
AcDbLine
62
0
6
CONTINUOUS
10
-0.6851666810
20
-23.8621986580
11
2.3970144736
21
13.5945289276
0
LINE
5
290
100
AcDbEntity
8
0
100
AcDbLine
62
0
6
CONTINUOUS
10
2.9521539539
20
13.2577595899
11
1.2197423400
21
-4.8888129315
0
LINE
5
291
100
AcDbEntity
8
0
100
AcDbLine
62
0
6
CONTINUOUS
10
2.9521539539
20
14.9076670275
11
2.9521539539
21
13.2577595899
0
LINE
5
292
100
AcDbEntity
8
0
100
AcDbLine
62
0
6
CONTINUOUS
10
2.9521539539
20
-21.3029738389
11
2.9521539539
21
-22.9528812765
0
LINE
5
293
100
AcDbEntity
8
0
100
AcDbLine
62
0
6
CONTINUOUS
10
3.5531947179
20
16.0304356929
11
3.5531947179
21
17.8490890408
0
LINE
5
294
100
AcDbEntity
8
0
100
AcDbLine
62
0
6
CONTINUOUS
10
3.5531947179
20
-22.9589676234
11
3.5531947179
21
-24.5861557446
0
LINE
5
295
100
AcDbEntity
8
0
100
AcDbLine
62
0
6
CONTINUOUS
10
4.2561876722
20
17.9844105386
11
4.2561876722
21
17.6368790218
0
LINE
5
296
100
AcDbEntity
8
0
100
AcDbLine
62
0
6
CONTINUOUS
10
4.2561876722
20
-23.6627251175
11
4.2561876722
21
-24.0102566343
0
LINE
5
297
100
AcDbEntity
8
0
100
AcDbLine
62
9
6
CONTINUOUS
10
4.5480500306
20
22.1525955598
11
4.5480500306
21
20.9207569814
0
LINE
5
298
100
AcDbEntity
8
0
100
AcDbLine
62
0
6
CONTINUOUS
10
4.6138548897
20
-22.2800475790
11
4.6138548897
21
15.8965342657
0
LINE
5
299
100
AcDbEntity
8
0
100
AcDbLine
62
0
6
CONTINUOUS
10
4.6346874590
20
22.2569829351
11
4.6346874590
21
21.0246144433
0
LINE
5
29A
100
AcDbEntity
8
0
100
AcDbLine
62
9
6
CONTINUOUS
10
9.3060954245
20
19.8967587823
11
9.3060954245
21
19.6844996282
0
LINE
5
29B
100
AcDbEntity
8
0
100
AcDbLine
62
9
6
CONTINUOUS
10
9.3060954245
20
-17.0574669423
11
9.3060954245
21
-17.2472366463
0
LINE
5
29C
100
AcDbEntity
8
0
100
AcDbLine
62
0
6
CONTINUOUS
10
9.3902934844
20
20.1843796606
11
9.3902934844
21
19.6084164710
0
LINE
5
29D
100
AcDbEntity
8
0
100
AcDbLine
62
0
6
CONTINUOUS
10
9.3902934844
20
-17.0129416212
11
9.3902934844
21
-17.3264600135
0
LINE
5
29E
100
AcDbEntity
8
0
100
AcDbLine
62
9
6
CONTINUOUS
10
0.5896143473
20
-8.3702066839
11
0.6463859289
21
-8.3423120450
0
LINE
5
29F
100
AcDbEntity
8
0
100
AcDbLine
62
0
6
CONTINUOUS
10
0.5825280861
20
-8.4563236722
11
0.6075364320
21
-8.4440358556
0
LINE
5
2A0
100
AcDbEntity
8
0
100
AcDbLine
62
0
6
CONTINUOUS
10
-13.4776923225
20
-14.0003588315
11
-13.0207910062
21
-13.8270848926
0
LINE
5
2A1
100
AcDbEntity
8
0
100
AcDbLine
62
0
6
CONTINUOUS
10
-13.4778012537
20
-13.7805690242
11
-13.4766737836
21
-13.7801519501
0
LWPOLYLINE
5
2A2
100
AcDbEntity
8
0
100
AcDbPolyline
62
0
6
CONTINUOUS
90
7
70
0
10
-13.4767736782
20
-13.7802031367
10
-13.4354656851
20
-13.7672482012
10
-13.3817649760
20
-13.7566266128
10
-13.3260095406
20
-13.7522682479
10
-13.2683773581
20
-13.7541997894
10
-13.2092787998
20
-13.7624122712
10
-13.1490158312
20
-13.7768932337
0
LINE
5
2A3
100
AcDbEntity
8
0
100
AcDbLine
62
9
6
CONTINUOUS
10
-3.3070787476
20
11.4300680534
11
-17.4343497890
21
18.4937035741
0
LINE
5
2A4
100
AcDbEntity
8
0
100
AcDbLine
62
0
6
CONTINUOUS
10
9.3902469921
20
20.1905726262
11
9.3902934627
21
20.1844352881
0
LINE
5
2A5
100
AcDbEntity
8
0
100
AcDbLine
62
9
6
CONTINUOUS
10
9.7941946445
20
21.1693650331
11
9.7941946445
21
21.5795840760
0
LINE
5
2A6
100
AcDbEntity
8
0
100
AcDbLine
62
0
6
CONTINUOUS
10
10.4769048424
20
21.5118231253
11
10.4769048424
21
21.0788104234
0
LINE
5
2A7
100
AcDbEntity
8
0
100
AcDbLine
62
0
6
CONTINUOUS
10
11.4443685549
20
20.2784577136
11
11.4443685549
21
19.8261330732
0
LINE
5
2A8
100
AcDbEntity
8
0
100
AcDbLine
62
0
6
CONTINUOUS
10
9.3902469921
20
-17.3273715762
11
9.3902934627
21
-17.3266296214
0
LINE
5
2A9
100
AcDbEntity
8
0
100
AcDbLine
62
0
6
CONTINUOUS
10
-12.5776851124
20
-16.0064542254
11
-12.5790283803
21
-16.0069507405
0
LINE
5
2AA
100
AcDbEntity
8
0
100
AcDbLine
62
0
6
CONTINUOUS
10
-12.7858094943
20
-15.8638951729
11
-12.2764652734
21
-15.6788237781
0
LINE
5
2AB
100
AcDbEntity
8
0
100
AcDbLine
62
9
6
CONTINUOUS
10
-2.1611470653
20
13.0663953643
11
-16.3053571377
21
20.1385004005
0
LINE
5
2AC
100
AcDbEntity
8
0
100
AcDbLine
62
0
6
CONTINUOUS
10
11.8941132162
20
20.1567098804
11
11.8941132162
21
19.8170852906
0
LINE
5
2AD
100
AcDbEntity
8
0
100
AcDbLine
62
0
6
CONTINUOUS
10
11.9324100749
20
21.4524005594
11
11.9324100749
21
21.0086472635
0
LINE
5
2AE
100
AcDbEntity
8
0
100
AcDbLine
62
0
6
CONTINUOUS
10
2.3923356507
20
13.5376687415
11
2.9521539539
21
13.2577595899
0
LINE
5
2AF
100
AcDbEntity
8
0
100
AcDbLine
62
0
6
CONTINUOUS
10
14.0166314091
20
23.6143712732
11
14.0166314091
21
23.2874052255
0
LINE
5
2B0
100
AcDbEntity
8
0
100
AcDbLine
62
0
6
CONTINUOUS
10
19.4974864895
20
13.7271620643
11
19.4976683082
21
13.7277461904
0
LINE
5
2B1
100
AcDbEntity
8
0
100
AcDbLine
62
0
6
CONTINUOUS
10
0.1865301766
20
-23.8268817563
11
0.7653205169
21
-23.1224380261
0
LINE
5
2B2
100
AcDbEntity
8
0
100
AcDbLine
62
0
6
CONTINUOUS
10
-12.3931928656
20
21.7376738585
11
1.8905364276
21
14.5958092119
0
LINE
5
2B3
100
AcDbEntity
8
0
100
AcDbLine
62
0
6
CONTINUOUS
10
-13.6295000650
20
22.5076059698
11
2.1389811555
21
14.6233653596
0
LINE
5
2B4
100
AcDbEntity
8
0
100
AcDbLine
62
0
6
CONTINUOUS
10
1.8914937821
20
15.0746249848
11
-13.3820126915
21
22.7113782216
0
LINE
5
2B5
100
AcDbEntity
8
0
100
AcDbLine
62
0
6
CONTINUOUS
10
2.4863638057
20
15.4918544434
11
0.8016490116
21
16.3342118404
0
LINE
5
2B6
100
AcDbEntity
8
0
100
AcDbLine
62
0
6
CONTINUOUS
10
-10.8779543587
20
22.1740135256
11
-12.5626691528
21
23.0163709226
0
LINE
5
2B7
100
AcDbEntity
8
0
100
AcDbLine
62
0
6
CONTINUOUS
10
-7.5808538170
20
20.8827954899
11
-1.7883447489
21
17.9865409559
0
LINE
5
2B8
100
AcDbEntity
8
0
100
AcDbLine
62
0
6
CONTINUOUS
10
-13.2010673611
20
23.7879010024
11
-11.5238231199
21
22.9492788818
0
LINE
5
2B9
100
AcDbEntity
8
0
100
AcDbLine
62
0
6
CONTINUOUS
10
0.1632508033
20
17.1057419202
11
1.8404950445
21
16.2671197996
0
LINE
5
2BA
100
AcDbEntity
8
0
100
AcDbLine
62
9
6
CONTINUOUS
10
-13.2656621071
20
23.9229301773
11
-11.5891749668
21
23.0846866072
0
LINE
5
2BB
100
AcDbEntity
8
0
100
AcDbLine
62
9
6
CONTINUOUS
10
0.0986560573
20
17.2407710951
11
1.7751431976
21
16.4025275249
0
LINE
5
2BC
100
AcDbEntity
8
0
100
AcDbLine
62
9
6
CONTINUOUS
10
1.7751431976
20
16.7425014591
11
0.0986560573
21
17.5807450292
0
LINE
5
2BD
100
AcDbEntity
8
0
100
AcDbLine
62
9
6
CONTINUOUS
10
-11.5891749668
20
23.4246605413
11
-13.2656621071
21
24.2629041114
0
LINE
5
2BE
100
AcDbEntity
8
0
100
AcDbLine
62
0
6
CONTINUOUS
10
-9.8111234465
20
22.7125947751
11
-7.6687217826
21
21.6413939431
0
LINE
5
2BF
100
AcDbEntity
8
0
100
AcDbLine
62
0
6
CONTINUOUS
10
-0.8662226645
20
18.2401443841
11
0.1383656958
21
17.7378502039
0
LINE
5
2C0
100
AcDbEntity
8
0
100
AcDbLine
62
0
6
CONTINUOUS
10
3.5531947179
20
16.0304356929
11
3.6592607351
21
15.9774026843
0
LINE
5
2C1
100
AcDbEntity
8
0
100
AcDbLine
62
0
6
CONTINUOUS
10
1.8640457736
20
-24.6656395548
11
2.4863638057
21
-23.9205801373
0
LINE
5
2C2
100
AcDbEntity
8
0
100
AcDbLine
62
9
6
CONTINUOUS
10
0.9465289375
20
-18.2946084704
11
-0.2733895329
21
-18.8580072467
0
LINE
5
2C3
100
AcDbEntity
8
0
100
AcDbLine
62
0
6
CONTINUOUS
10
0.7456753516
20
-18.8083775270
11
-0.3094013474
21
-19.2956469107
0
LINE
5
2C4
100
AcDbEntity
8
0
100
AcDbLine
62
0
6
CONTINUOUS
10
2.4863638057
20
16.1290240021
11
1.8640457736
21
16.2589645846
0
LINE
5
2C5
100
AcDbEntity
8
0
100
AcDbLine
62
9
6
CONTINUOUS
10
1.9519139270
20
17.0463670373
11
0.2733818399
21
17.8856330809
0
LINE
5
2C6
100
AcDbEntity
8
0
100
AcDbLine
62
9
6
CONTINUOUS
10
-11.4124042374
20
23.7285261195
11
-13.0909363246
21
24.5677921631
0
LINE
5
2C7
100
AcDbEntity
8
0
100
AcDbLine
62
0
6
CONTINUOUS
10
-7.5808538170
20
22.0977503560
11
-1.7883447489
21
19.2014958220
0
LINE
5
2C8
100
AcDbEntity
8
0
100
AcDbLine
62
0
6
CONTINUOUS
10
4.3663675162
20
16.3233983857
11
3.6019908315
21
16.7055867281
0
LINE
5
2C9
100
AcDbEntity
8
0
100
AcDbLine
62
0
6
CONTINUOUS
10
-8.3152046686
20
22.6641844781
11
-9.7623273330
21
23.3877458103
0
LINE
5
2CA
100
AcDbEntity
8
0
100
AcDbLine
62
0
6
CONTINUOUS
10
-7.0887623390
20
22.5638497866
11
-0.8662226645
21
19.4525799494
0
LINE
5
2CB
100
AcDbEntity
8
0
100
AcDbLine
62
0
6
CONTINUOUS
10
-11.5081797214
20
25.3797762605
11
-9.8111234465
21
24.5312481230
0
LINE
5
2CC
100
AcDbEntity
8
0
100
AcDbLine
62
0
6
CONTINUOUS
10
1.8561384430
20
18.6976171782
11
3.5531947179
21
17.8490890408
0
LINE
5
2CD
100
AcDbEntity
8
0
100
AcDbLine
62
0
6
CONTINUOUS
10
-5.7452594547
20
22.5941667372
11
-0.7955119864
21
20.1192930031
0
LINE
5
2CE
100
AcDbEntity
8
0
100
AcDbLine
62
9
6
CONTINUOUS
10
-10.9737298427
20
25.6401237270
11
-9.2828562748
21
24.7946869431
0
LINE
5
2CF
100
AcDbEntity
8
0
100
AcDbLine
62
9
6
CONTINUOUS
10
2.3905883217
20
18.9579646448
11
4.0814618896
21
18.1125278608
0
LINE
5
2D0
100
AcDbEntity
8
0
100
AcDbLine
62
0
6
CONTINUOUS
10
-10.8623122274
20
25.6463922902
11
-9.1727239711
21
24.8015981621
0
LINE
5
2D1
100
AcDbEntity
8
0
100
AcDbLine
62
0
6
CONTINUOUS
10
2.5020059371
20
18.9642332080
11
4.1915941934
21
18.1194390799
0
LINE
5
2D2
100
AcDbEntity
8
0
100
AcDbLine
62
0
6
CONTINUOUS
10
10.7247911482
20
17.8074491793
11
9.9720970642
21
19.1056544404
0
LINE
5
2D3
100
AcDbEntity
8
0
100
AcDbLine
62
9
6
CONTINUOUS
10
9.7941946445
20
21.5795840760
11
9.4002087106
21
22.6017398940
0
LINE
5
2D4
100
AcDbEntity
8
0
100
AcDbLine
62
0
6
CONTINUOUS
10
10.9388989727
20
20.0362177578
11
10.7373996147
21
20.6319421836
0
LWPOLYLINE
5
2D5
100
AcDbEntity
8
0
100
AcDbPolyline
62
0
6
CONTINUOUS
90
31
70
0
10
19.4966883012
20
19.8886074661
10
19.4964078029
20
19.9226737220
10
19.4952793322
20
19.9651569776
10
19.4932940562
20
20.0077042005
10
19.4904582986
20
20.0503206215
10
19.4867795301
20
20.0929857504
10
19.4822686773
20
20.1356500529
10
19.4769336951
20
20.1783074200
10
19.4707818252
20
20.2209500971
10
19.4638276028
20
20.2635239636
10
19.4560796235
20
20.3060224420
10
19.4475454061
20
20.3484389441
10
19.4382432993
20
20.3907177456
10
19.4281828237
20
20.4328500780
10
19.4173716497
20
20.4748316773
10
19.4058299814
20
20.5166121909
10
19.3935698628
20
20.5581753736
10
19.3805972869
20
20.5995247273
10
19.3669253513
20
20.6406382359
10
19.3525631515
20
20.6815061861
10
19.3375172262
20
20.7221250116
10
19.3217970699
20
20.7624805973
10
19.3054094657
20
20.8025658260
10
19.2883602547
20
20.8423737485
10
19.2706582173
20
20.8818896218
10
19.2523092029
20
20.9211050911
10
19.2333175513
20
20.9600129445
10
19.2136900394
20
20.9986005079
10
19.1934310179
20
21.0368587021
10
19.1725437225
20
21.0747797948
10
19.1547208612
20
21.1060119330
0
LINE
5
2D6
100
AcDbEntity
8
0
100
AcDbLine
62
9
6
CONTINUOUS
10
19.2160281112
20
-10.8038002704
11
19.2160281112
21
13.9614130018
0
LINE
5
2D7
100
AcDbEntity
8
0
100
AcDbLine
62
9
6
CONTINUOUS
10
19.2160281112
20
15.7338814748
11
19.2160281112
21
19.5412799754
0
LINE
5
2D8
100
AcDbEntity
8
0
100
AcDbLine
62
0
6
CONTINUOUS
10
19.4966883109
20
-10.4564710852
11
19.4966879275
21
13.7212165824
0
LINE
5
2D9
100
AcDbEntity
8
0
100
AcDbLine
62
0
6
CONTINUOUS
10
19.4966883109
20
19.8886091607
11
19.4966879136
21
16.6678343220
0
LWPOLYLINE
5
2DA
100
AcDbEntity
8
0
100
AcDbPolyline
62
0
6
CONTINUOUS
90
4
70
0
10
19.4966888287
20
13.7205941882
10
19.4967409042
20
13.7223667157
10
19.4969413755
20
13.7244381357
10
19.4972153106
20
13.7260402182
0
LINE
5
2DB
100
AcDbEntity
8
0
100
AcDbLine
62
0
6
CONTINUOUS
10
10.7247911482
20
-16.1597631273
11
9.9720970642
21
-16.7052743044
0
LINE
5
2DC
100
AcDbEntity
8
0
100
AcDbLine
62
0
6
CONTINUOUS
10
18.4589800596
20
-12.0697966290
11
10.7247911482
21
-16.1597631273
0
LINE
5
2DD
100
AcDbEntity
8
0
100
AcDbLine
62
0
6
CONTINUOUS
10
4.6138548897
20
-19.5388010303
11
9.9720970642
21
-16.7052743044
0
LINE
5
2DE
100
AcDbEntity
8
0
100
AcDbLine
62
9
6
CONTINUOUS
10
4.6138548897
20
-18.4958969608
11
19.2160281112
21
-10.8038002704
0
LINE
5
2DF
100
AcDbEntity
8
0
100
AcDbLine
62
9
6
CONTINUOUS
10
4.6138548897
20
-19.2952148967
11
18.8018776356
21
-11.8212833694
0
LINE
5
2E0
100
AcDbEntity
8
0
100
AcDbLine
62
9
6
CONTINUOUS
10
4.6138548897
20
-19.8124275740
11
8.6419970149
21
-17.7905243905
0
LINE
5
2E1
100
AcDbEntity
8
0
100
AcDbLine
62
0
6
CONTINUOUS
10
4.6138548897
20
-19.8140956548
11
8.5916179607
21
-17.8174799529
0
LINE
5
2E2
100
AcDbEntity
8
0
100
AcDbLine
62
9
6
CONTINUOUS
10
4.6138548897
20
-19.5746225433
11
9.3060954245
21
-17.2472366463
0
LINE
5
2E3
100
AcDbEntity
8
0
100
AcDbLine
62
9
6
CONTINUOUS
10
4.6138548897
20
-19.6964972710
11
9.3902469921
21
-17.3273715762
0
LINE
5
2E4
100
AcDbEntity
8
0
100
AcDbLine
62
0
6
CONTINUOUS
10
-10.8779543587
20
22.8111830843
11
-11.5002723908
21
22.9411236668
0
LWPOLYLINE
5
2E5
100
AcDbEntity
8
0
100
AcDbPolyline
62
0
6
CONTINUOUS
90
51
70
0
10
-0.8541886774
20
22.1399623873
10
-0.8647597842
20
22.1441146021
10
-0.8877211574
20
22.1527292368
10
-0.9109917594
20
22.1609220763
10
-0.9345577343
20
22.1686980660
10
-0.9584130937
20
22.1760636704
10
-0.9825398397
20
22.1830206788
10
-1.0069200881
20
22.1895712280
10
-1.0315472628
20
22.1957197945
10
-1.0564034781
20
22.2014674422
10
-1.0814713963
20
22.2068156160
10
-1.1067445291
20
22.2117674255
10
-1.1322055235
20
22.2163235116
10
-1.1578368535
20
22.2204846665
10
-1.1836310947
20
22.2242528001
10
-1.2095706989
20
22.2276282266
10
-1.2356385352
20
22.2306114031
10
-1.2618272210
20
22.2332034594
10
-1.2881191932
20
22.2354045096
10
-1.3144974739
20
22.2372147150
10
-1.3409551492
20
22.2386345684
10
-1.3674749945
20
22.2396640207
10
-1.3940397569
20
22.2403029363
10
-1.4206422791
20
22.2405511809
10
-1.4472653775
20
22.2404085290
10
-1.4738916986
20
22.2398746119
10
-1.5005138592
20
22.2389487218
10
-1.5271147330
20
22.2376304314
10
-1.5536767171
20
22.2359191515
10
-1.5801919849
20
22.2338136214
10
-1.6066432373
20
22.2313131861
10
-1.6330127192
20
22.2284170243
10
-1.6592924357
20
22.2251232678
10
-1.6854663705
20
22.2214307370
10
-1.7115149952
20
22.2173385068
10
-1.7374258866
20
22.2128447589
10
-1.7631826044
20
22.2079480675
10
-1.7887656757
20
22.2026473596
10
-1.8141593940
20
22.1969410774
10
-1.8393458606
20
22.1908278506
10
-1.8643069382
20
22.1843062023
10
-1.8890281577
20
22.1773738090
10
-1.9134916249
20
22.1700287687
10
-1.9376790299
20
22.1622692134
10
-1.9615768870
20
22.1540916570
10
-1.9851663567
20
22.1454936752
10
-2.0084298191
20
22.1364722725
10
-2.0313573454
20
22.1270208983
10
-2.0539336377
20
22.1171339492
10
-2.0761353532
20
22.1068092976
10
-2.0917144546
20
22.0991837706
0
LINE
5
2E6
100
AcDbEntity
8
0
100
AcDbLine
62
0
6
CONTINUOUS
10
0.5186499939
20
20.7670101197
11
-2.0683041926
21
22.0604872129
0
LINE
5
2E7
100
AcDbEntity
8
0
100
AcDbLine
62
9
6
CONTINUOUS
10
1.1596131887
20
21.0829246254
11
-0.9332990423
21
22.1293807408
0
LINE
5
2E8
100
AcDbEntity
8
0
100
AcDbLine
62
0
6
CONTINUOUS
10
1.2103766132
20
21.1079446301
11
-0.8490501696
21
22.1376580215
0
LINE
5
2E9
100
AcDbEntity
8
0
100
AcDbLine
62
0
6
CONTINUOUS
10
1.7221637583
20
21.3601915364
11
-1.0783546989
21
22.7604507650
0
LINE
5
2EA
100
AcDbEntity
8
0
100
AcDbLine
62
0
6
CONTINUOUS
10
-1.4319080895
20
23.4897856496
11
-1.0783546989
21
23.3130089543
0
LWPOLYLINE
5
2EB
100
AcDbEntity
8
0
100
AcDbPolyline
62
0
6
CONTINUOUS
90
40
70
0
10
18.8764472694
20
-11.7749197429
10
18.9045915193
20
-11.7539735348
10
18.9322461139
20
-11.7322833272
10
18.9594277691
20
-11.7098308360
10
18.9861167100
20
-11.6866248889
10
19.0122909731
20
-11.6626772803
10
19.0379494912
20
-11.6379810647
10
19.0630733196
20
-11.6125452533
10
19.0876415504
20
-11.5863817714
10
19.1116491267
20
-11.5594857962
10
19.1350772049
20
-11.5318673803
10
19.1579056966
20
-11.5035391216
10
19.1801269744
20
-11.4744982078
10
19.2017220545
20
-11.4447561055
10
19.2226727101
20
-11.4143249800
10
19.2429718254
20
-11.3832007002
10
19.2626006084
20
-11.3513959263
10
19.2815422640
20
-11.3189218179
10
19.2997917093
20
-11.2857691183
10
19.3173276572
20
-11.2519564390
10
19.3341369285
20
-11.2174884275
10
19.3502237317
20
-11.1823307933
10
19.3655756495
20
-11.1464776900
10
19.3801666094
20
-11.1099549717
10
19.3939789470
20
-11.0727723819
10
19.4069991889
20
-11.0349283055
10
19.4192056710
20
-10.9964444819
10
19.4305726094
20
-10.9573643048
10
19.4410863751
20
-10.9176981355
10
19.4507332403
20
-10.8774564525
10
19.4594934546
20
-10.8366818760
10
19.4673567719
20
-10.7953823577
10
19.4743118812
20
-10.7535698024
10
19.4803433625
20
-10.7112918852
10
19.4854432523
20
-10.6685578783
10
19.4896031587
20
-10.6253773901
10
19.4928125012
20
-10.5817971736
10
19.4950645567
20
-10.5378378052
10
19.4963539680
20
-10.4934967384
10
19.4966883012
20
-10.4564722058
0
LINE
5
2EC
100
AcDbEntity
8
0
100
AcDbLine
62
9
6
CONTINUOUS
10
18.4589800596
20
-12.0697966290
11
18.8018776356
21
-11.8212833694
0
LINE
5
2ED
100
AcDbEntity
8
0
100
AcDbLine
62
0
6
CONTINUOUS
10
18.5353293558
20
-12.0221432167
11
18.8764452296
21
-11.7749212366
0
LINE
5
2EE
100
AcDbEntity
8
0
100
AcDbLine
62
0
6
CONTINUOUS
10
2.9521539539
20
-22.9528812765
11
2.1389811555
21
-23.4817524069
0
LINE
5
2EF
100
AcDbEntity
8
0
100
AcDbLine
62
9
6
CONTINUOUS
10
3.9067481085
20
-22.6411586588
11
4.6138548897
21
-22.2800475790
0
LINE
5
2F0
100
AcDbEntity
8
0
100
AcDbLine
62
0
6
CONTINUOUS
10
3.8167841404
20
-22.8299687353
11
4.5238909225
21
-22.4688576550
0
LINE
5
2F1
100
AcDbEntity
8
0
100
AcDbLine
62
0
6
CONTINUOUS
10
3.8167793344
20
-22.8299711902
11
3.8147717375
21
-22.8309748976
0
LINE
5
2F2
100
AcDbEntity
8
0
100
AcDbLine
62
9
6
CONTINUOUS
10
2.1389811555
20
-23.5061479122
11
3.9067481085
21
-22.6411586588
0
LINE
5
2F3
100
AcDbEntity
8
0
100
AcDbLine
62
0
6
CONTINUOUS
10
2.0470002365
20
-23.6959663765
11
3.8147671909
21
-22.8309771223
0
LINE
5
2F4
100
AcDbEntity
8
0
100
AcDbLine
62
9
6
CONTINUOUS
10
-4.7222664442
20
-25.2143812642
11
-0.6851666810
21
-23.8621986580
0
LWPOLYLINE
5
2F5
100
AcDbEntity
8
0
100
AcDbPolyline
62
0
6
CONTINUOUS
90
14
70
0
10
4.8783086716
20
22.0303801582
10
4.8658982180
20
22.0310812263
10
4.8448712605
20
22.0324884780
10
4.8239922737
20
22.0341044193
10
4.8032995098
20
22.0359232445
10
4.7828114003
20
22.0379401971
10
4.7625461862
20
22.0401501224
10
4.7425408161
20
22.0425449158
10
4.7228119685
20
22.0451180356
10
4.7033764553
20
22.0478627117
10
4.6842700553
20
22.0507686110
10
4.6655073708
20
22.0538275765
10
4.6471031662
20
22.0570312666
10
4.6346874590
20
22.0593308011
0
LINE
5
2F6
100
AcDbEntity
8
0
100
AcDbLine
62
0
6
CONTINUOUS
10
11.8941132162
20
20.1567098804
11
11.4443685549
21
20.2784577136
0
LINE
5
2F7
100
AcDbEntity
8
0
100
AcDbLine
62
0
6
CONTINUOUS
10
3.1299794546
20
22.0540681948
11
0.3194298076
21
23.4593430183
0
LINE
5
2F8
100
AcDbEntity
8
0
100
AcDbLine
62
0
6
CONTINUOUS
10
9.1843084165
20
19.4995487642
11
9.9720970642
21
19.1056544404
0
LINE
5
2F9
100
AcDbEntity
8
0
100
AcDbLine
62
0
6
CONTINUOUS
10
1.6793617477
20
23.5330912057
11
3.8891026359
21
22.4282207616
0
LINE
5
2FA
100
AcDbEntity
8
0
100
AcDbLine
62
0
6
CONTINUOUS
10
4.6346874590
20
22.0554283500
11
4.7805008691
21
21.9825216450
0
LINE
5
2FB
100
AcDbEntity
8
0
100
AcDbLine
62
0
6
CONTINUOUS
10
-1.1880959979
20
25.2300637583
11
-1.0076440208
21
25.1398377697
0
LINE
5
2FC
100
AcDbEntity
8
0
100
AcDbLine
62
0
6
CONTINUOUS
10
4.3663675162
20
22.4528320012
11
4.5468194934
21
22.3626060126
0
LINE
5
2FD
100
AcDbEntity
8
0
100
AcDbLine
62
9
6
CONTINUOUS
10
-2.0006643420
20
25.8089607826
11
0.9784255590
21
24.3194158321
0
LINE
5
2FE
100
AcDbEntity
8
0
100
AcDbLine
62
9
6
CONTINUOUS
10
5.2210662461
20
22.1980954886
11
8.2001561470
21
20.7085505381
0
LINE
5
2FF
100
AcDbEntity
8
0
100
AcDbLine
62
0
6
CONTINUOUS
10
-1.8070213301
20
25.9580102448
11
1.4194685620
21
24.3447652987
0
LINE
5
300
100
AcDbEntity
8
0
100
AcDbLine
62
0
6
CONTINUOUS
10
5.6621092492
20
22.2234449552
11
8.8885991413
21
20.6102000091
0
LINE
5
301
100
AcDbEntity
8
0
100
AcDbLine
62
0
6
CONTINUOUS
10
10.9493938080
20
20.0309703402
11
11.1467844752
21
19.8486767493
0
LINE
5
302
100
AcDbEntity
8
0
100
AcDbLine
62
0
6
CONTINUOUS
10
3.5531947179
20
-24.5861557446
11
4.0814618896
21
-24.3151446860
0
LINE
5
303
100
AcDbEntity
8
0
100
AcDbLine
62
0
6
CONTINUOUS
10
1.9519139270
20
-25.3661903443
11
3.5531947179
21
-24.5861557446
0
LINE
5
304
100
AcDbEntity
8
0
100
AcDbLine
62
0
6
CONTINUOUS
10
-0.9830039847
20
-24.3330394706
11
-5.0244426185
21
-25.6866749546
0
LINE
5
305
100
AcDbEntity
8
0
100
AcDbLine
62
0
6
CONTINUOUS
10
0.3194298076
20
23.4593430183
11
1.6793617477
21
23.5330912057
0
LINE
5
306
100
AcDbEntity
8
0
100
AcDbLine
62
0
6
CONTINUOUS
10
10.9493938080
20
20.0309703402
11
10.2424248679
21
20.3844548102
0
LINE
5
307
100
AcDbEntity
8
0
100
AcDbLine
62
0
6
CONTINUOUS
10
11.4443685549
20
20.2784577136
11
10.7373996147
21
20.6319421836
0
LINE
5
308
100
AcDbEntity
8
0
100
AcDbLine
62
0
6
CONTINUOUS
10
10.0445905916
20
21.2949675488
11
10.4769048424
21
21.0788104234
0
LINE
5
309
100
AcDbEntity
8
0
100
AcDbLine
62
0
6
CONTINUOUS
10
14.0363309370
20
21.2100948929
11
14.6678622581
21
20.8943292324
0
LINE
5
30A
100
AcDbEntity
8
0
100
AcDbLine
62
0
6
CONTINUOUS
10
14.2198687781
20
21.1339858250
11
14.5239881620
21
20.9819261330
0
LINE
5
30B
100
AcDbEntity
8
0
100
AcDbLine
62
9
6
CONTINUOUS
10
18.8018776356
20
20.9729135500
11
18.4589800596
21
21.5643243856
0
LINE
5
30C
100
AcDbEntity
8
0
100
AcDbLine
62
0
6
CONTINUOUS
10
19.1547208844
20
21.1060119075
11
18.8916739480
21
21.5597007618
0
LINE
5
30D
100
AcDbEntity
8
0
100
AcDbLine
62
0
6
CONTINUOUS
10
14.0166314091
20
23.2874052255
11
17.1254469798
21
21.7329974401
0
LINE
5
30E
100
AcDbEntity
8
0
100
AcDbLine
62
9
6
CONTINUOUS
10
18.4589800596
20
21.5643243856
11
17.6337335919
21
21.9769476194
0
LINE
5
30F
100
AcDbEntity
8
0
100
AcDbLine
62
9
6
CONTINUOUS
10
12.9732824091
20
24.3071732108
11
11.9325159073
21
24.8275564618
0
LINE
5
310
100
AcDbEntity
8
0
100
AcDbLine
62
0
6
CONTINUOUS
10
18.8277721326
20
21.6197281190
11
17.9802245244
21
22.0435019231
0
LINE
5
311
100
AcDbEntity
8
0
100
AcDbLine
62
0
6
CONTINUOUS
10
13.4965372377
20
24.2853455664
11
12.3673887879
21
24.8499197914
0
SPLINE
5
312
100
AcDbEntity
8
0
100
AcDbSpline
62
0
6
CONTINUOUS
70
0
71
3
72
11
73
7
74
5
42
0.0000001000
43
0.0000001000
44
0.0000000001
12
-0.4394210258
22
-0.1596646414
32
0.0000000000
13
-0.4181709068
23
0.2090854531
33
0.0000000000
40
0.0000000000
40
0.0000000000
40
0.0000000000
40
0.0000000000
40
0.2326375805
40
0.4733401734
40
0.7280815663
40
1.0000000000
40
1.0000000000
40
1.0000000000
40
1.0000000000
10
-12.7858094913
20
-15.8638951718
30
0.0000000000
10
-12.8198847727
20
-15.8762765038
30
0.0000000000
10
-12.8922760836
20
-15.8937669356
30
0.0000000000
10
-13.0065602648
20
-15.8957706136
30
0.0000000000
10
-13.1247590270
20
-15.8730115915
30
0.0000000000
10
-13.2014297886
20
-15.8422874474
30
0.0000000000
10
-13.2393325813
20
-15.8233360511
30
0.0000000000
11
-12.7858094913
21
-15.8638951718
31
0.0000000000
11
-12.8915033066
21
-15.8895587075
31
0.0000000000
11
-13.0040135821
21
-15.8919418304
31
0.0000000000
11
-13.1210716272
21
-15.8699873186
31
0.0000000000
11
-13.2393325813
21
-15.8233360511
31
0.0000000000
0
SPLINE
5
313
100
AcDbEntity
8
0
100
AcDbSpline
62
0
6
CONTINUOUS
70
0
71
3
72
22
73
18
74
16
42
0.0000001000
43
0.0000001000
44
0.0000000001
12
-1.9622316873
22
0.9811158422
32
0.0000000000
13
2.0512863943
23
0.7779239400
33
0.0000000000
40
0.0000000000
40
0.0000000000
40
0.0000000000
40
0.0000000000
40
0.0641061204
40
0.1319395534
40
0.2031303271
40
0.2766236104
40
0.3514333252
40
0.4267570963
40
0.5015551874
40
0.5749598432
40
0.6459443973
40
0.7139737743
40
0.7782297792
40
0.8383736660
40
0.8948364755
40
0.9483293372
40
1.0000000000
40
1.0000000000
40
1.0000000000
40
1.0000000000
10
-13.2393325813
20
-15.8233360511
30
0.0000000000
10
-13.2812629349
20
-15.8023708744
30
0.0000000000
10
-13.3637280669
20
-15.7512541667
30
0.0000000000
10
-13.4766393346
20
-15.6539693800
30
0.0000000000
10
-13.5794896282
20
-15.5368422537
30
0.0000000000
10
-13.6695481946
20
-15.4034999509
30
0.0000000000
10
-13.7446409373
20
-15.2578164693
30
0.0000000000
10
-13.8030270253
20
-15.1036627059
30
0.0000000000
10
-13.8433185535
20
-14.9448748324
30
0.0000000000
10
-13.8643745938
20
-14.7855855336
30
0.0000000000
10
-13.8654439435
20
-14.6298154656
30
0.0000000000
10
-13.8461717201
20
-14.4819032161
30
0.0000000000
10
-13.8067842769
20
-14.3461624462
30
0.0000000000
10
-13.7483277674
20
-14.2266981598
30
0.0000000000
10
-13.6725614257
20
-14.1269326938
30
0.0000000000
10
-13.5819937196
20
-14.0495521721
30
0.0000000000
10
-13.5130227619
20
-14.0137574455
30
0.0000000000
10
-13.4776923194
20
-14.0003588303
30
0.0000000000
11
-13.2393325813
21
-15.8233360511
31
0.0000000000
11
-13.3592440690
21
-15.7498481351
31
0.0000000000
11
-13.4723935891
21
-15.6531872174
31
0.0000000000
11
-13.5757950610
21
-15.5361370966
31
0.0000000000
11
-13.6662945086
21
-15.4026986791
31
0.0000000000
11
-13.7416269976
21
-15.2568884889
31
0.0000000000
11
-13.8001657231
21
-15.1023560919
31
0.0000000000
11
-13.8403915048
21
-14.9432677134
31
0.0000000000
11
-13.8612100680
21
-14.7835808694
31
0.0000000000
11
-13.8618397555
21
-14.6278532663
31
0.0000000000
11
-13.8419700167
21
-14.4799361676
31
0.0000000000
11
-13.8020087731
21
-14.3447513448
31
0.0000000000
11
-13.7433467702
21
-14.2265626794
31
0.0000000000
11
-13.6679062986
21
-14.1283148913
31
0.0000000000
11
-13.5783743084
21
-14.0524453411
31
0.0000000000
11
-13.4776923194
21
-14.0003588303
31
0.0000000000
0
SPLINE
5
314
100
AcDbEntity
8
0
100
AcDbSpline
62
9
6
CONTINUOUS
70
0
71
3
72
25
73
21
74
19
42
0.0000001000
43
0.0000001000
44
0.0000000001
12
-2.1267972068
22
1.0633986034
32
0.0000000000
13
2.1267972068
23
-1.0633986034
33
0.0000000000
40
0.0000000000
40
0.0000000000
40
0.0000000000
40
0.0000000000
40
0.0502921084
40
0.0972185780
40
0.1419806233
40
0.1858309368
40
0.2302918497
40
0.2770863955
40
0.3272167564
40
0.3811334707
40
0.4391010450
40
0.5004822921
40
0.5644980087
40
0.6302191974
40
0.6965141652
40
0.7622924247
40
0.8264082408
40
0.8879506206
40
0.9458730004
40
1.0000000000
40
1.0000000000
40
1.0000000000
40
1.0000000000
10
-13.1318345795
20
-14.1458672373
30
0.0000000000
10
-13.1674882847
20
-14.1280403846
30
0.0000000000
10
-13.2397178962
20
-14.0995622487
30
0.0000000000
10
-13.3517105901
20
-14.0812226806
30
0.0000000000
10
-13.4599710929
20
-14.0900798565
30
0.0000000000
10
-13.5603412860
20
-14.1264202830
30
0.0000000000
10
-13.6488905285
20
-14.1887190478
30
0.0000000000
10
-13.7227751747
20
-14.2742978689
30
0.0000000000
10
-13.7801383421
20
-14.3801000937
30
0.0000000000
10
-13.8197215745
20
-14.5029220693
30
0.0000000000
10
-13.8405445292
20
-14.6391878415
30
0.0000000000
10
-13.8420555870
20
-14.7849508984
30
0.0000000000
10
-13.8242532570
20
-14.9357689487
30
0.0000000000
10
-13.7876994407
20
-15.0871498156
30
0.0000000000
10
-13.7334892244
20
-15.2346203201
30
0.0000000000
10
-13.6632528138
20
-15.3737529740
30
0.0000000000
10
-13.5790609348
20
-15.5004404554
30
0.0000000000
10
-13.4835045056
20
-15.6107587934
30
0.0000000000
10
-13.3794464504
20
-15.7014842426
30
0.0000000000
10
-13.3036870535
20
-15.7488204090
30
0.0000000000
10
-13.2653146697
20
-15.7680066009
30
0.0000000000
11
-13.1318345795
21
-14.1458672373
31
0.0000000000
11
-13.2434107121
21
-14.1028368182
31
0.0000000000
11
-13.3536569065
21
-14.0856148496
31
0.0000000000
11
-13.4596932629
21
-14.0948366617
31
0.0000000000
11
-13.5577286270
21
-14.1303475156
31
0.0000000000
11
-13.6444836440
21
-14.1907660914
31
0.0000000000
11
-13.7178174055
21
-14.2744504492
31
0.0000000000
11
-13.7754143859
21
-14.3788132702
31
0.0000000000
11
-13.8155064446
21
-14.5005881210
31
0.0000000000
11
-13.8369826663
21
-14.6367418788
31
0.0000000000
11
-13.8389875583
21
-14.7826823748
31
0.0000000000
11
-13.8214643970
21
-14.9338889833
31
0.0000000000
11
-13.7849401985
21
-15.0858347631
31
0.0000000000
11
-13.7305546493
21
-15.2337943362
31
0.0000000000
11
-13.6599333406
21
-15.3733529279
31
0.0000000000
11
-13.5752882987
21
-15.5001529092
31
0.0000000000
11
-13.4791179929
21
-15.6104520969
31
0.0000000000
11
-13.3748752610
21
-15.7004682783
31
0.0000000000
11
-13.2653146697
21
-15.7680066009
31
0.0000000000
0
SPLINE
5
315
100
AcDbEntity
8
0
100
AcDbSpline
62
9
6
CONTINUOUS
70
0
71
3
72
11
73
7
74
5
42
0.0000001000
43
0.0000001000
44
0.0000000001
12
-0.3895253273
22
0.1947626637
32
0.0000000000
13
-0.4084477600
23
-0.1548358785
33
0.0000000000
40
0.0000000000
40
0.0000000000
40
0.0000000000
40
0.0000000000
40
0.3022572226
40
0.5842877019
40
0.8533093846
40
1.0000000000
40
1.0000000000
40
1.0000000000
40
1.0000000000
10
-13.0554429660
20
-14.0382895383
30
0.0000000000
10
-13.0946885805
20
-14.0186667310
30
0.0000000000
10
-13.1741953201
20
-13.9873205983
30
0.0000000000
10
-13.2974704926
20
-13.9671312384
30
0.0000000000
10
-13.3995435866
20
-13.9754833220
30
0.0000000000
10
-13.4577139538
20
-13.9928051175
30
0.0000000000
10
-13.4776857715
20
-14.0003761076
30
0.0000000000
11
-13.0554429660
21
-14.0382895383
31
0.0000000000
11
-13.1782599221
21
-13.9909244591
31
0.0000000000
11
-13.2996130173
21
-13.9719664650
31
0.0000000000
11
-13.4163320368
21
-13.9821177920
31
0.0000000000
11
-13.4776857715
21
-14.0003761076
31
0.0000000000
0
SPLINE
5
316
100
AcDbEntity
8
0
100
AcDbSpline
62
9
6
CONTINUOUS
70
0
71
3
72
25
73
21
74
19
42
0.0000001000
43
0.0000001000
44
0.0000000001
12
2.1267972032
22
-1.0633986016
32
0.0000000000
13
-2.1267972032
23
1.0633986016
33
0.0000000000
40
0.0000000000
40
0.0000000000
40
0.0000000000
40
0.0000000000
40
0.0502921276
40
0.0972185514
40
0.1419806200
40
0.1858309291
40
0.2302918450
40
0.2770863919
40
0.3272167540
40
0.3811334687
40
0.4391010436
40
0.5004822909
40
0.5644980077
40
0.6302191964
40
0.6965141643
40
0.7622924242
40
0.8264082396
40
0.8879506252
40
0.9458729878
40
1.0000000000
40
1.0000000000
40
1.0000000000
40
1.0000000000
10
-13.2653146697
20
-15.7680066009
30
0.0000000000
10
-13.2296609509
20
-15.7858334602
30
0.0000000000
10
-13.1574313356
20
-15.8143115114
30
0.0000000000
10
-13.0454386692
20
-15.8326512122
30
0.0000000000
10
-12.9371781833
20
-15.8237939772
30
0.0000000000
10
-12.8368079751
20
-15.7874535619
30
0.0000000000
10
-12.7482587313
20
-15.7251547943
30
0.0000000000
10
-12.6743740820
20
-15.6395759721
30
0.0000000000
10
-12.6170109106
20
-15.5337737468
30
0.0000000000
10
-12.5774276779
20
-15.4109517697
30
0.0000000000
10
-12.5566047202
20
-15.2746859973
30
0.0000000000
10
-12.5550936624
20
-15.1289229399
30
0.0000000000
10
-12.5728959917
20
-14.9781048893
30
0.0000000000
10
-12.6094498104
20
-14.8267240235
30
0.0000000000
10
-12.6636600229
20
-14.6792535159
30
0.0000000000
10
-12.7338964499
20
-14.5401208743
30
0.0000000000
10
-12.8180882967
20
-14.4134333596
30
0.0000000000
10
-12.9136447979
20
-14.3031151066
30
0.0000000000
10
-13.0177027421
20
-14.2123895257
30
0.0000000000
10
-13.0934621868
20
-14.1650534336
30
0.0000000000
10
-13.1318345795
20
-14.1458672373
30
0.0000000000
11
-13.2653146697
21
-15.7680066009
31
0.0000000000
11
-13.1537384803
21
-15.8110369988
31
0.0000000000
11
-13.0434924030
21
-15.8282590109
31
0.0000000000
11
-12.9374559929
21
-15.8190371790
31
0.0000000000
11
-12.8394206387
21
-15.7835263287
31
0.0000000000
11
-12.7526656150
21
-15.7231077504
31
0.0000000000
11
-12.6793318510
21
-15.6394233917
31
0.0000000000
11
-12.6217348672
21
-15.5350605693
31
0.0000000000
11
-12.5816428073
21
-15.4132857182
31
0.0000000000
11
-12.5601665835
21
-15.2771319596
31
0.0000000000
11
-12.5581616910
21
-15.1311914634
31
0.0000000000
11
-12.5756848522
21
-14.9799848548
31
0.0000000000
11
-12.6122090515
21
-14.8280390753
31
0.0000000000
11
-12.6665946014
21
-14.6800795025
31
0.0000000000
11
-12.7372159149
21
-14.5405209126
31
0.0000000000
11
-12.8218609492
21
-14.4137209285
31
0.0000000000
11
-12.9180312909
21
-14.3034217541
31
0.0000000000
11
-13.0222739427
21
-14.2134055430
31
0.0000000000
11
-13.1318345795
21
-14.1458672373
31
0.0000000000
0
SPLINE
5
317
100
AcDbEntity
8
0
100
AcDbSpline
62
9
6
CONTINUOUS
70
0
71
3
72
22
73
18
74
16
42
0.0000001000
43
0.0000001000
44
0.0000000001
12
2.0625106022
22
0.7495683221
32
0.0000000000
13
-1.9569197901
23
0.9784598952
33
0.0000000000
40
0.0000000000
40
0.0000000000
40
0.0000000000
40
0.0000000000
40
0.0260095734
40
0.0791981726
40
0.1351784921
40
0.1951494475
40
0.2596500128
40
0.3289966221
40
0.4024270049
40
0.4790090025
40
0.5576312561
40
0.6369399225
40
0.7156304546
40
0.7923321968
40
0.8659553935
40
0.9352478175
40
1.0000000000
40
1.0000000000
40
1.0000000000
40
1.0000000000
10
-12.7857858325
20
-15.8638664516
30
0.0000000000
10
-12.7679041589
20
-15.8573678008
30
0.0000000000
10
-12.7147436370
20
-15.8340373454
30
0.0000000000
10
-12.6332234428
20
-15.7766836559
30
0.0000000000
10
-12.5518952158
20
-15.6824831580
30
0.0000000000
10
-12.4887529788
20
-15.5660217645
30
0.0000000000
10
-12.4451818959
20
-15.4308259908
30
0.0000000000
10
-12.4222611351
20
-15.2808320083
30
0.0000000000
10
-12.4205978436
20
-15.1203839382
30
0.0000000000
10
-12.4401936867
20
-14.9543716088
30
0.0000000000
10
-12.4804301331
20
-14.7877397545
30
0.0000000000
10
-12.5401018212
20
-14.6254122342
30
0.0000000000
10
-12.6174141650
20
-14.4722624886
30
0.0000000000
10
-12.7100882341
20
-14.3328119220
30
0.0000000000
10
-12.8152710750
20
-14.2113790500
30
0.0000000000
10
-12.9298132395
20
-14.1115142419
30
0.0000000000
10
-13.0132046902
20
-14.0594086762
30
0.0000000000
10
-13.0554429660
20
-14.0382895383
30
0.0000000000
11
-12.7857858325
21
-15.8638664516
31
0.0000000000
11
-12.7335694960
21
-15.8409359727
31
0.0000000000
11
-12.6380742888
21
-15.7744304211
31
0.0000000000
11
-12.5573524654
21
-15.6823151937
31
0.0000000000
11
-12.4939528459
21
-15.5674382333
31
0.0000000000
11
-12.4498216862
21
-15.4333950728
31
0.0000000000
11
-12.4261818368
21
-15.2835243902
31
0.0000000000
11
-12.4239749640
21
-15.1228810053
31
0.0000000000
11
-12.4432635099
21
-14.9564409715
31
0.0000000000
11
-12.4834673626
21
-14.7891872973
31
0.0000000000
11
-12.5433320229
21
-14.6263214213
31
0.0000000000
11
-12.6210681124
21
-14.4727028728
31
0.0000000000
11
-12.7142408106
21
-14.3331283601
31
0.0000000000
11
-12.8200997946
21
-14.2117167828
31
0.0000000000
11
-12.9348446557
21
-14.1126323718
31
0.0000000000
11
-13.0554429660
21
-14.0382895383
31
0.0000000000
0
SPLINE
5
318
100
AcDbEntity
8
0
100
AcDbSpline
62
0
6
CONTINUOUS
70
0
71
3
72
8
73
4
74
2
42
0.0000001000
43
0.0000001000
44
0.0000000001
12
-0.0720729465
22
0.0219322224
32
0.0000000000
13
-0.0725144399
23
0.0204766492
33
0.0000000000
40
0.0000000000
40
0.0000000000
40
0.0000000000
40
0.0000000000
40
1.0000000000
40
1.0000000000
40
1.0000000000
40
1.0000000000
10
13.2871658816
20
20.8235331671
30
0.0000000000
10
13.2631415661
20
20.8308439079
30
0.0000000000
10
13.2390400799
20
20.8379089479
30
0.0000000000
10
13.2148685999
20
20.8447344977
30
0.0000000000
11
13.2871658816
21
20.8235331671
31
0.0000000000
11
13.2148685999
21
20.8447344977
31
0.0000000000
0
SPLINE
5
319
100
AcDbEntity
8
0
100
AcDbSpline
62
0
6
CONTINUOUS
70
0
71
3
72
16
73
12
74
10
42
0.0000001000
43
0.0000001000
44
0.0000000001
12
-3.0560647910
22
0.8629724898
32
0.0000000000
13
-2.8084123906
23
-1.4809313851
33
0.0000000000
40
0.0000000000
40
0.0000000000
40
0.0000000000
40
0.0000000000
40
0.0870603950
40
0.2031007763
40
0.3217482206
40
0.4414001586
40
0.5604207594
40
0.6771933564
40
0.7902275173
40
0.8981781335
40
1.0000000000
40
1.0000000000
40
1.0000000000
40
1.0000000000
10
13.2148685999
20
20.8447344977
30
0.0000000000
10
13.1261811974
20
20.8697780729
30
0.0000000000
10
12.9170866160
20
20.9206801747
30
0.0000000000
10
12.5807755448
20
20.9761663961
30
0.0000000000
10
12.2067574778
20
21.0080917085
30
0.0000000000
10
11.8282667476
20
21.0118104309
30
0.0000000000
10
11.4525294501
20
20.9873020336
30
0.0000000000
10
11.0867138533
20
20.9348647366
30
0.0000000000
10
10.7378105790
20
20.8550696507
30
0.0000000000
10
10.4126336093
20
20.7487365503
30
0.0000000000
10
10.2094567030
20
20.6578102742
30
0.0000000000
10
10.1141374391
20
20.6075465416
30
0.0000000000
11
13.2148685999
21
20.8447344977
31
0.0000000000
11
12.9463340652
21
20.9104997507
31
0.0000000000
11
12.5829111593
21
20.9709916705
31
0.0000000000
11
12.2075983813
21
21.0032935808
31
0.0000000000
11
11.8277275268
21
21.0070567411
31
0.0000000000
11
11.4506570671
21
20.9822583185
31
0.0000000000
11
11.0837250039
21
20.9292042893
31
0.0000000000
11
10.7340426863
21
20.8484828702
31
0.0000000000
11
10.4086144202
21
20.7409375139
31
0.0000000000
11
10.1141374391
21
20.6075465416
31
0.0000000000
0
SPLINE
5
31A
100
AcDbEntity
8
0
100
AcDbSpline
62
0
6
CONTINUOUS
70
0
71
3
72
8
73
4
74
2
42
0.0000001000
43
0.0000001000
44
0.0000000001
12
-0.0074856961
22
0.0050624254
32
0.0000000000
13
-0.0080013977
23
0.0041120828
33
0.0000000000
40
0.0000000000
40
0.0000000000
40
0.0000000000
40
0.0000000000
40
1.0000000000
40
1.0000000000
40
1.0000000000
40
1.0000000000
10
14.1175519184
20
20.4025456832
30
0.0000000000
10
14.1150566864
20
20.4042331584
30
0.0000000000
10
14.1124678994
20
20.4057722215
30
0.0000000000
10
14.1098007668
20
20.4071429158
30
0.0000000000
11
14.1175519184
21
20.4025456832
31
0.0000000000
11
14.1098007668
21
20.4071429158
31
0.0000000000
0
SPLINE
5
31B
100
AcDbEntity
8
0
100
AcDbSpline
62
0
6
CONTINUOUS
70
0
71
3
72
10
73
6
74
4
42
0.0000001000
43
0.0000001000
44
0.0000000001
12
-0.8085733905
22
0.4155424942
32
0.0000000000
13
-0.8134730449
23
0.4058670933
33
0.0000000000
40
0.0000000000
40
0.0000000000
40
0.0000000000
40
0.0000000000
40
0.3545041574
40
0.6877149410
40
1.0000000000
40
1.0000000000
40
1.0000000000
40
1.0000000000
10
14.1098007668
20
20.4071429158
30
0.0000000000
10
14.0142532240
20
20.4562467631
30
0.0000000000
10
13.8287851393
20
20.5512873443
30
0.0000000000
10
13.5586521320
20
20.6886121841
30
0.0000000000
10
13.3838951893
20
20.7764905865
30
0.0000000000
10
13.2992166967
20
20.8187393295
30
0.0000000000
11
14.1098007668
21
20.4071429158
31
0.0000000000
11
13.8229611614
21
20.5540705427
31
0.0000000000
11
13.5528962227
21
20.6912821653
31
0.0000000000
11
13.2992166967
21
20.8187393295
31
0.0000000000
0
SPLINE
5
31C
100
AcDbEntity
8
0
100
AcDbSpline
62
0
6
CONTINUOUS
70
0
71
3
72
8
73
4
74
2
42
0.0000001000
43
0.0000001000
44
0.0000000001
12
-0.0115769671
22
0.0057761102
32
0.0000000000
13
-0.0124572512
23
0.0037795811
33
0.0000000000
40
0.0000000000
40
0.0000000000
40
0.0000000000
40
0.0000000000
40
1.0000000000
40
1.0000000000
40
1.0000000000
40
1.0000000000
10
13.2992166967
20
20.8187393295
30
0.0000000000
10
13.2953577077
20
20.8206646996
30
0.0000000000
10
13.2913157148
20
20.8222553346
30
0.0000000000
10
13.2871632977
20
20.8235151950
30
0.0000000000
11
13.2992166967
21
20.8187393295
31
0.0000000000
11
13.2871632977
21
20.8235151950
31
0.0000000000
0
SPLINE
5
31D
100
AcDbEntity
8
0
100
AcDbSpline
62
0
6
CONTINUOUS
70
0
71
3
72
8
73
4
74
2
42
0.0000001000
43
0.0000001000
44
0.0000000001
12
0.0924738415
22
-0.0461380859
32
0.0000000000
13
0.0923744470
23
-0.0463369908
33
0.0000000000
40
0.0000000000
40
0.0000000000
40
0.0000000000
40
0.0000000000
40
1.0000000000
40
1.0000000000
40
1.0000000000
40
1.0000000000
10
14.1477448341
20
20.3944752608
30
0.0000000000
10
14.1785694480
20
20.3790958989
30
0.0000000000
10
14.2093764818
20
20.3636812827
30
0.0000000000
10
14.2401679641
20
20.3482356191
30
0.0000000000
11
14.1477448341
21
20.3944752608
31
0.0000000000
11
14.2401679641
21
20.3482356191
31
0.0000000000
0
SPLINE
5
31E
100
AcDbEntity
8
0
100
AcDbSpline
62
0
6
CONTINUOUS
70
0
71
3
72
10
73
6
74
4
42
0.0000001000
43
0.0000001000
44
0.0000000001
12
0.0867340293
22
0.0433670146
32
0.0000000000
13
0.0867710934
23
-0.0432928069
33
0.0000000000
40
0.0000000000
40
0.0000000000
40
0.0000000000
40
0.0000000000
40
0.3690647074
40
0.7005601128
40
1.0000000000
40
1.0000000000
40
1.0000000000
40
1.0000000000
10
14.0540793391
20
20.3881648044
30
0.0000000000
10
14.0647494955
20
20.3934998826
30
0.0000000000
10
14.0861777333
20
20.4015995090
30
0.0000000000
10
14.1188926484
20
20.4043487641
30
0.0000000000
10
14.1390839253
20
20.3987964586
30
0.0000000000
10
14.1477448341
20
20.3944752608
30
0.0000000000
11
14.0540793391
21
20.3881648044
31
0.0000000000
11
14.0877405466
21
20.4003204936
31
0.0000000000
11
14.1198171981
21
20.4024253530
31
0.0000000000
11
14.1477448341
21
20.3944752608
31
0.0000000000
0
SPLINE
5
31F
100
AcDbEntity
8
0
100
AcDbSpline
62
9
6
CONTINUOUS
70
0
71
3
72
23
73
19
74
17
42
0.0000001000
43
0.0000001000
44
0.0000000001
12
2.2123948923
22
3.0291572814
32
0.0000000000
13
3.5867267087
23
-1.0639816211
33
0.0000000000
40
0.0000000000
40
0.0000000000
40
0.0000000000
40
0.0000000000
40
0.0128088441
40
0.0754142315
40
0.1453314057
40
0.2228245346
40
0.3078446657
40
0.3982020386
40
0.4887424286
40
0.5745200681
40
0.6529857980
40
0.7231231402
40
0.7849145322
40
0.8391285411
40
0.8867127327
40
0.9286911577
40
0.9661099934
40
1.0000000000
40
1.0000000000
40
1.0000000000
40
1.0000000000
10
9.6890186138
20
20.1852448656
30
0.0000000000
10
9.6984646876
20
20.1981782001
30
0.0000000000
10
9.7559887474
20
20.2729274319
30
0.0000000000
10
9.8857992527
20
20.4009479254
30
0.0000000000
10
10.1013708870
20
20.5514143577
30
0.0000000000
10
10.3600198666
20
20.6838644862
30
0.0000000000
10
10.6557185674
20
20.7950932596
30
0.0000000000
10
10.9764394877
20
20.8812035555
30
0.0000000000
10
11.3041133562
20
20.9400271686
30
0.0000000000
10
11.6203821153
20
20.9730206943
30
0.0000000000
10
11.9126235971
20
20.9845441883
30
0.0000000000
10
12.1750865157
20
20.9798793376
30
0.0000000000
10
12.4067583134
20
20.9638674399
30
0.0000000000
10
12.6094749436
20
20.9403637987
30
0.0000000000
10
12.7865895956
20
20.9121408901
30
0.0000000000
10
12.9419042134
20
20.8810598532
30
0.0000000000
10
13.0793326587
20
20.8481837647
30
0.0000000000
10
13.1650594633
20
20.8244614840
30
0.0000000000
10
13.2055775273
20
20.8124420359
30
0.0000000000
11
9.6890186138
21
20.1852448656
31
0.0000000000
11
9.7182889621
21
20.2233300408
31
0.0000000000
11
9.8832093334
21
20.3896438549
31
0.0000000000
11
10.0964579380
21
20.5411248403
31
0.0000000000
11
10.3537340241
21
20.6747720655
31
0.0000000000
11
10.6509909391
21
20.7879627902
31
0.0000000000
11
10.9772408668
21
20.8764846918
31
0.0000000000
11
11.3105506626
21
20.9368429171
31
0.0000000000
11
11.6297069269
21
20.9703688998
31
0.0000000000
11
11.9230334060
21
20.9819980233
31
0.0000000000
11
12.1853902376
21
20.9773135993
31
0.0000000000
11
12.4160108660
21
20.9613179945
31
0.0000000000
11
12.6174795754
21
20.9378919257
31
0.0000000000
11
12.7932740982
21
20.9098150775
31
0.0000000000
11
12.9472585347
21
20.8789354493
31
0.0000000000
11
13.0833993160
21
20.8463258144
31
0.0000000000
11
13.2055775273
21
20.8124420359
31
0.0000000000
0
SPLINE
5
320
100
AcDbEntity
8
0
100
AcDbSpline
62
9
6
CONTINUOUS
70
0
71
3
72
10
73
6
74
4
42
0.0000001000
43
0.0000001000
44
0.0000000001
12
0.4102902577
22
0.4947141415
32
0.0000000000
13
0.5677248785
23
0.2994756486
33
0.0000000000
40
0.0000000000
40
0.0000000000
40
0.0000000000
40
0.0000000000
40
0.3704497270
40
0.8076574566
40
1.0000000000
40
1.0000000000
40
1.0000000000
40
1.0000000000
10
9.6083282935
20
20.2181739262
30
0.0000000000
10
9.6589922648
20
20.2792628325
30
0.0000000000
10
9.7835203597
20
20.4003303867
30
0.0000000000
10
9.9600922381
20
20.5223723022
30
0.0000000000
10
10.0776042504
20
20.5882902551
30
0.0000000000
10
10.1140034661
20
20.6074908911
30
0.0000000000
11
9.6083282935
21
20.2181739262
31
0.0000000000
11
9.7770313073
21
20.3855899472
31
0.0000000000
11
10.0063916807
21
20.5469925340
31
0.0000000000
11
10.1140034661
21
20.6074908911
31
0.0000000000
0
SPLINE
5
321
100
AcDbEntity
8
0
100
AcDbSpline
62
9
6
CONTINUOUS
70
0
71
3
72
8
73
4
74
2
42
0.0000001000
43
0.0000001000
44
0.0000000001
12
0.0688320789
22
-0.0563492324
32
0.0000000000
13
0.0653202197
23
-0.0604183720
33
0.0000000000
40
0.0000000000
40
0.0000000000
40
0.0000000000
40
0.0000000000
40
1.0000000000
40
1.0000000000
40
1.0000000000
40
1.0000000000
10
14.1477448341
20
20.3944752608
30
0.0000000000
10
14.1706888604
20
20.3756921834
30
0.0000000000
10
14.1931061495
20
20.3562503460
30
0.0000000000
10
14.2148795561
20
20.3361108887
30
0.0000000000
11
14.1477448341
21
20.3944752608
31
0.0000000000
11
14.2148795561
21
20.3361108887
31
0.0000000000
0
SPLINE
5
322
100
AcDbEntity
8
0
100
AcDbSpline
62
0
6
CONTINUOUS
70
0
71
3
72
10
73
6
74
4
42
0.0000001000
43
0.0000001000
44
0.0000000001
12
-0.0809117024
22
0.0245489425
32
0.0000000000
13
-0.0751620072
23
-0.0375810036
33
0.0000000000
40
0.0000000000
40
0.0000000000
40
0.0000000000
40
0.0000000000
40
0.1915809123
40
0.5741137005
40
1.0000000000
40
1.0000000000
40
1.0000000000
40
1.0000000000
10
13.2871632977
20
20.8235151950
30
0.0000000000
10
13.2819962518
20
20.8250828980
30
0.0000000000
10
13.2659996991
20
20.8282460282
30
0.0000000000
10
13.2376495959
20
20.8258635777
30
0.0000000000
10
13.2162213580
20
20.8177639513
30
0.0000000000
10
13.2055512017
20
20.8124288731
30
0.0000000000
11
13.2871632977
21
20.8235151950
31
0.0000000000
11
13.2712890606
21
20.8266894217
31
0.0000000000
11
13.2392124091
21
20.8245845623
31
0.0000000000
11
13.2055512017
21
20.8124288731
31
0.0000000000
0
SPLINE
5
323
100
AcDbEntity
8
0
100
AcDbSpline
62
9
6
CONTINUOUS
70
0
71
3
72
9
73
5
74
3
42
0.0000001000
43
0.0000001000
44
0.0000000001
12
0.0958301386
22
-0.0807618550
32
0.0000000000
13
0.0877502344
23
-0.0895214310
33
0.0000000000
40
0.0000000000
40
0.0000000000
40
0.0000000000
40
0.0000000000
40
0.7276524333
40
1.0000000000
40
1.0000000000
40
1.0000000000
40
1.0000000000
10
14.0541082350
20
20.3881792524
30
0.0000000000
10
14.0773519128
20
20.3685903989
30
0.0000000000
10
14.1084364585
20
20.3406282609
30
0.0000000000
10
14.1381072468
20
20.3111989222
30
0.0000000000
10
14.1460734344
20
20.3030719409
30
0.0000000000
11
14.0541082350
21
20.3881792524
31
0.0000000000
11
14.1218408499
21
20.3271201128
31
0.0000000000
11
14.1460734344
21
20.3030719409
31
0.0000000000
0
SPLINE
5
324
100
AcDbEntity
8
0
100
AcDbSpline
62
0
6
CONTINUOUS
70
0
71
3
72
11
73
7
74
5
42
0.0000001000
43
0.0000001000
44
0.0000000001
12
0.3335507573
22
0.1365374682
32
0.0000000000
13
0.3212296494
23
-0.1606148247
33
0.0000000000
40
0.0000000000
40
0.0000000000
40
0.0000000000
40
0.0000000000
40
0.0706389269
40
0.3622287278
40
0.6689115234
40
1.0000000000
40
1.0000000000
40
1.0000000000
40
1.0000000000
10
-12.7412835146
20
21.7649458317
30
0.0000000000
10
-12.7334296254
20
21.7681607851
30
0.0000000000
10
-12.6925631432
20
21.7831825195
30
0.0000000000
10
-12.6123809953
20
21.7963747547
30
0.0000000000
10
-12.5006659657
20
21.7829182895
30
0.0000000000
10
-12.4286446774
20
21.7553997644
30
0.0000000000
10
-12.3931928656
20
21.7376738585
30
0.0000000000
11
-12.7412835146
21
21.7649458317
31
0.0000000000
11
-12.7173936042
21
21.7737200271
31
0.0000000000
11
-12.6141423378
21
21.7912165238
31
0.0000000000
11
-12.5046732522
21
21.7790437951
31
0.0000000000
11
-12.3931928656
21
21.7376738585
31
0.0000000000
0
SPLINE
5
325
100
AcDbEntity
8
0
100
AcDbSpline
62
0
6
CONTINUOUS
70
0
71
3
72
8
73
4
74
2
42
0.0000001000
43
0.0000001000
44
0.0000000001
12
-0.0179311034
22
-0.0352224922
32
0.0000000000
13
-0.0162592855
23
-0.0360388806
33
0.0000000000
40
0.0000000000
40
0.0000000000
40
0.0000000000
40
0.0000000000
40
1.0000000000
40
1.0000000000
40
1.0000000000
40
1.0000000000
10
-13.0568102416
20
-13.8110377094
30
0.0000000000
10
-13.0627872761
20
-13.8227785401
30
0.0000000000
10
-13.0684808138
20
-13.8346656218
30
0.0000000000
10
-13.0739005756
20
-13.8466785820
30
0.0000000000
11
-13.0568102416
21
-13.8110377094
31
0.0000000000
11
-13.0739005756
21
-13.8466785820
31
0.0000000000
0
SPLINE
5
326
100
AcDbEntity
8
0
100
AcDbSpline
62
0
6
CONTINUOUS
70
0
71
3
72
8
73
4
74
2
42
0.0000001000
43
0.0000001000
44
0.0000000001
12
0.0712974792
22
-0.0331715218
32
0.0000000000
13
0.0743362723
23
-0.0262713847
33
0.0000000000
40
0.0000000000
40
0.0000000000
40
0.0000000000
40
0.0000000000
40
1.0000000000
40
1.0000000000
40
1.0000000000
40
1.0000000000
10
-12.3793834607
20
-15.7168830338
30
0.0000000000
10
-12.3556176343
20
-15.7279402077
30
0.0000000000
10
-12.3312940053
20
-15.7379487375
30
0.0000000000
10
-12.3065152478
20
-15.7467058658
30
0.0000000000
11
-12.3793834607
21
-15.7168830338
31
0.0000000000
11
-12.3065152478
21
-15.7467058658
31
0.0000000000
0
SPLINE
5
327
100
AcDbEntity
8
0
100
AcDbSpline
62
0
6
CONTINUOUS
70
0
71
3
72
15
73
11
74
9
42
0.0000001000
43
0.0000001000
44
0.0000000001
12
1.0557875728
22
-0.5278937864
32
0.0000000000
13
-0.0968042711
23
-1.1764302707
33
0.0000000000
40
0.0000000000
40
0.0000000000
40
0.0000000000
40
0.0000000000
40
0.1094258525
40
0.2273589642
40
0.3524832539
40
0.4826795988
40
0.6153293924
40
0.7475885812
40
0.8766483845
40
1.0000000000
40
1.0000000000
40
1.0000000000
40
1.0000000000
10
1.8905364276
20
14.5958092119
30
0.0000000000
10
1.9290465794
20
14.5765541360
30
0.0000000000
10
2.0048709697
20
14.5278593859
30
0.0000000000
10
2.1071083433
20
14.4333117854
30
0.0000000000
10
2.1988299110
20
14.3179367833
30
0.0000000000
10
2.2766327797
20
14.1860697282
30
0.0000000000
10
2.3376716815
20
14.0426230831
30
0.0000000000
10
2.3796665656
20
13.8929429471
30
0.0000000000
10
2.4010475397
20
13.7426643192
30
0.0000000000
10
2.4009947947
20
13.6429004524
30
0.0000000000
10
2.3970144736
20
13.5945289276
30
0.0000000000
11
1.8905364276
21
14.5958092119
31
0.0000000000
11
1.9997453682
21
14.5268344709
31
0.0000000000
11
2.1024868323
21
14.4329018520
31
0.0000000000
11
2.1948120785
21
14.3176169710
31
0.0000000000
11
2.2731709501
21
14.1854093965
31
0.0000000000
11
2.3345508281
21
14.0413607416
31
0.0000000000
11
2.3765929053
21
13.8910085195
31
0.0000000000
11
2.3976831767
21
13.7401324273
31
0.0000000000
11
2.3970144736
21
13.5945289276
31
0.0000000000
0
SPLINE
5
328
100
AcDbEntity
8
0
100
AcDbSpline
62
0
6
CONTINUOUS
70
0
71
3
72
12
73
8
74
6
42
0.0000001000
43
0.0000001000
44
0.0000000001
12
-0.0482801368
22
-0.5867325250
32
0.0000000000
13
-0.5600545235
23
-0.1876818309
33
0.0000000000
40
0.0000000000
40
0.0000000000
40
0.0000000000
40
0.0000000000
40
0.2320090472
40
0.4466063456
40
0.6441558557
40
0.8280564210
40
1.0000000000
40
1.0000000000
40
1.0000000000
40
1.0000000000
10
-0.6851666810
20
-23.8621986580
30
0.0000000000
10
-0.6889004905
20
-23.9075744094
30
0.0000000000
10
-0.7028109509
20
-23.9946013833
30
0.0000000000
10
-0.7453909733
20
-24.1144715201
30
0.0000000000
10
-0.8078397702
20
-24.2146551384
30
0.0000000000
10
-0.8877499139
20
-24.2902036204
30
0.0000000000
10
-0.9509135791
20
-24.3222851634
30
0.0000000000
10
-0.9830128389
20
-24.3330420586
30
0.0000000000
11
-0.6851666810
21
-23.8621986580
31
0.0000000000
11
-0.7075663049
21
-23.9969367675
31
0.0000000000
11
-0.7508386746
21
-24.1156316786
31
0.0000000000
11
-0.8133241619
21
-24.2137202303
31
0.0000000000
11
-0.8926226660
21
-24.2874296935
31
0.0000000000
11
-0.9830128389
21
-24.3330420586
31
0.0000000000
0
SPLINE
5
329
100
AcDbEntity
8
0
100
AcDbSpline
62
9
6
CONTINUOUS
70
0
71
3
72
8
73
4
74
2
42
0.0000001000
43
0.0000001000
44
0.0000000001
12
-0.1407129653
22
0.0703715989
32
0.0000000000
13
-0.1287583983
23
0.0912207685
33
0.0000000000
40
0.0000000000
40
0.0000000000
40
0.0000000000
40
0.0000000000
40
1.0000000000
40
1.0000000000
40
1.0000000000
40
1.0000000000
10
-13.0761070882
20
-15.9564227480
30
0.0000000000
10
-13.1230114100
20
-15.9329655484
30
0.0000000000
10
-13.1679923700
20
-15.9055403829
30
0.0000000000
10
-13.2109118361
20
-15.8751334601
30
0.0000000000
11
-13.0761070882
21
-15.9564227480
31
0.0000000000
11
-13.2109118361
21
-15.8751334601
31
0.0000000000
0
SPLINE
5
32A
100
AcDbEntity
8
0
100
AcDbSpline
62
9
6
CONTINUOUS
70
0
71
3
72
8
73
4
74
2
42
0.0000001000
43
0.0000001000
44
0.0000000001
12
-0.0677520333
22
0.0479999179
32
0.0000000000
13
-0.0642669243
23
0.0525224214
33
0.0000000000
40
0.0000000000
40
0.0000000000
40
0.0000000000
40
0.0000000000
40
1.0000000000
40
1.0000000000
40
1.0000000000
40
1.0000000000
10
-13.2109118361
20
-15.8751334601
30
0.0000000000
10
-13.2334958472
20
-15.8591334875
30
0.0000000000
10
-13.2555090693
20
-15.8423079222
30
0.0000000000
10
-13.2769313774
20
-15.8248004484
30
0.0000000000
11
-13.2109118361
21
-15.8751334601
31
0.0000000000
11
-13.2769313774
21
-15.8248004484
31
0.0000000000
0
SPLINE
5
32B
100
AcDbEntity
8
0
100
AcDbSpline
62
9
6
CONTINUOUS
70
0
71
3
72
8
73
4
74
2
42
0.0000001000
43
0.0000001000
44
0.0000000001
12
-0.0902375312
22
0.0737470121
32
0.0000000000
13
-0.0833575246
23
0.0812264327
33
0.0000000000
40
0.0000000000
40
0.0000000000
40
0.0000000000
40
0.0000000000
40
1.0000000000
40
1.0000000000
40
1.0000000000
40
1.0000000000
10
-13.2769313774
20
-15.8248004484
30
0.0000000000
10
-13.3070105544
20
-15.8002181110
30
0.0000000000
10
-13.3359247376
20
-15.7742913830
30
0.0000000000
10
-13.3637105791
20
-15.7472159055
30
0.0000000000
11
-13.2769313774
21
-15.8248004484
31
0.0000000000
11
-13.3637105791
21
-15.7472159055
31
0.0000000000
0
SPLINE
5
32C
100
AcDbEntity
8
0
100
AcDbSpline
62
9
6
CONTINUOUS
70
0
71
3
72
13
73
9
74
7
42
0.0000001000
43
0.0000001000
44
0.0000000001
12
-0.1558966083
22
1.1037343645
32
0.0000000000
13
1.0504695707
23
0.3894049065
33
0.0000000000
40
0.0000000000
40
0.0000000000
40
0.0000000000
40
0.0000000000
40
0.1260030333
40
0.3567399985
40
0.5657720328
40
0.7531614941
40
0.9246280760
40
1.0000000000
40
1.0000000000
40
1.0000000000
40
1.0000000000
10
-13.8638510750
20
-14.7416021948
30
0.0000000000
10
-13.8703988902
20
-14.6952442355
30
0.0000000000
10
-13.8832259455
20
-14.5631992837
30
0.0000000000
10
-13.8754123595
20
-14.3520513689
30
0.0000000000
10
-13.8171986112
20
-14.1244629104
30
0.0000000000
10
-13.7116500330
20
-13.9384334030
30
0.0000000000
10
-13.5878857483
20
-13.8296986990
30
0.0000000000
10
-13.5041527618
20
-13.7904615768
30
0.0000000000
10
-13.4777607909
20
-13.7806781778
30
0.0000000000
11
-13.8638510750
21
-14.7416021948
31
0.0000000000
11
-13.8772452210
21
-14.6018296802
31
0.0000000000
11
-13.8655473384
21
-14.3451997656
31
0.0000000000
11
-13.8049346401
21
-14.1205006840
31
0.0000000000
11
-13.6989875824
21
-13.9407688090
31
0.0000000000
11
-13.5540409455
21
-13.8165283318
31
0.0000000000
11
-13.4777607909
21
-13.7806781778
31
0.0000000000
0
SPLINE
5
32D
100
AcDbEntity
8
0
100
AcDbSpline
62
9
6
CONTINUOUS
70
0
71
3
72
12
73
8
74
6
42
0.0000001000
43
0.0000001000
44
0.0000000001
12
-0.8907802423
22
0.4442466450
32
0.0000000000
13
0.0302406780
23
0.9897521473
33
0.0000000000
40
0.0000000000
40
0.0000000000
40
0.0000000000
40
0.0000000000
40
0.0682093676
40
0.2684804468
40
0.4868102573
40
0.7301566806
40
1.0000000000
40
1.0000000000
40
1.0000000000
40
1.0000000000
10
-20.0281381681
20
-18.5678250485
30
0.0000000000
10
-20.0483913538
20
-18.5577244543
30
0.0000000000
10
-20.1256770819
20
-18.5131561108
30
0.0000000000
10
-20.2436324366
20
-18.3995825939
30
0.0000000000
10
-20.3486135158
20
-18.2047515376
30
0.0000000000
10
-20.4079507519
20
-17.9687490005
30
0.0000000000
10
-20.4161003086
20
-17.7984934893
30
0.0000000000
10
-20.4133802270
20
-17.7094674877
30
0.0000000000
11
-20.0281381681
21
-18.5678250485
31
0.0000000000
11
-20.0868718019
21
-18.5339124117
31
0.0000000000
11
-20.2312362059
21
-18.3979482134
31
0.0000000000
11
-20.3366463158
21
-18.2091938075
31
0.0000000000
11
-20.3982739417
21
-17.9762427684
31
0.0000000000
11
-20.4133802270
21
-17.7094674877
31
0.0000000000
0
SPLINE
5
32E
100
AcDbEntity
8
0
100
AcDbSpline
62
9
6
CONTINUOUS
70
0
71
3
72
8
73
4
74
2
42
0.0000001000
43
0.0000001000
44
0.0000000001
12
0.0756345398
22
-0.0378335769
32
0.0000000000
13
0.0724726848
23
-0.0438453674
33
0.0000000000
40
0.0000000000
40
0.0000000000
40
0.0000000000
40
0.0000000000
40
1.0000000000
40
1.0000000000
40
1.0000000000
40
1.0000000000
10
-13.0412159356
20
-13.7698765169
30
0.0000000000
10
-13.0160044223
20
-13.7824877092
30
0.0000000000
10
-12.9913098696
20
-13.7961664672
30
0.0000000000
10
-12.9671523080
20
-13.8107815896
30
0.0000000000
11
-13.0412159356
21
-13.7698765169
31
0.0000000000
11
-12.9671523080
21
-13.8107815896
31
0.0000000000
0
SPLINE
5
32F
100
AcDbEntity
8
0
100
AcDbSpline
62
9
6
CONTINUOUS
70
0
71
3
72
17
73
13
74
11
42
0.0000001000
43
0.0000001000
44
0.0000000001
12
2.2159335866
22
-1.3406212620
32
0.0000000000
13
-2.0690690947
23
-1.5721181665
33
0.0000000000
40
0.0000000000
40
0.0000000000
40
0.0000000000
40
0.0000000000
40
0.0677506998
40
0.1782376826
40
0.2958611919
40
0.4168722368
40
0.5373879280
40
0.6532326583
40
0.7610682669
40
0.8587373704
40
0.9461799872
40
1.0000000000
40
1.0000000000
40
1.0000000000
40
1.0000000000
10
-12.9671523080
20
-13.8107815896
30
0.0000000000
10
-12.9171086242
20
-13.8410575992
30
0.0000000000
10
-12.7915167439
20
-13.9312785114
30
0.0000000000
10
-12.6115633360
20
-14.1138023906
30
0.0000000000
10
-12.4390943355
20
-14.3620617076
30
0.0000000000
10
-12.3038111371
20
-14.6418440702
30
0.0000000000
10
-12.2131040630
20
-14.9375117587
30
0.0000000000
10
-12.1720536167
20
-15.2327269949
30
0.0000000000
10
-12.1831450358
20
-15.5111984343
30
0.0000000000
10
-12.2465317212
20
-15.7579989984
30
0.0000000000
10
-12.3495576398
20
-15.9398159137
30
0.0000000000
10
-12.4379376790
20
-16.0259904454
30
0.0000000000
10
-12.4750567874
20
-16.0541942520
30
0.0000000000
11
-12.9671523080
21
-13.8107815896
31
0.0000000000
11
-12.8241125493
21
-13.9124980361
31
0.0000000000
11
-12.6220169300
21
-14.1144393851
31
0.0000000000
11
-12.4475703924
21
-14.3635903367
31
0.0000000000
11
-12.3110734093
21
-14.6451600593
31
0.0000000000
11
-12.2201865699
21
-14.9432415129
31
0.0000000000
11
-12.1803246398
21
-15.2401287779
31
0.0000000000
11
-12.1937865450
21
-15.5186450074
31
0.0000000000
11
-12.2598145873
21
-15.7624138021
31
0.0000000000
11
-12.3745805937
21
-15.9572319712
31
0.0000000000
11
-12.4750567874
21
-16.0541942520
31
0.0000000000
0
SPLINE
5
330
100
AcDbEntity
8
0
100
AcDbSpline
62
9
6
CONTINUOUS
70
0
71
3
72
11
73
7
74
5
42
0.0000001000
43
0.0000001000
44
0.0000000001
12
-0.5716206180
22
-0.4343282495
32
0.0000000000
13
-0.6390490850
23
0.3192989595
33
0.0000000000
40
0.0000000000
40
0.0000000000
40
0.0000000000
40
0.0000000000
40
0.0943019118
40
0.3757085290
40
0.6724828775
40
1.0000000000
40
1.0000000000
40
1.0000000000
40
1.0000000000
10
-12.4750567874
20
-16.0541942520
30
0.0000000000
10
-12.4930250931
20
-16.0678469134
30
0.0000000000
10
-12.5678306824
20
-16.1179198857
30
0.0000000000
10
-12.7229328307
20
-16.1717932641
30
0.0000000000
10
-12.9426196194
20
-16.1630635503
30
0.0000000000
10
-13.0843276236
20
-16.1114676925
30
0.0000000000
10
-13.1540941295
20
-16.0766090670
30
0.0000000000
11
-12.4750567874
21
-16.0541942520
31
0.0000000000
11
-12.5313235637
21
-16.0917249074
31
0.0000000000
11
-12.7210209639
21
-16.1582696900
31
0.0000000000
11
-12.9329659307
21
-16.1530598464
31
0.0000000000
11
-13.1540941295
21
-16.0766090670
31
0.0000000000
0
SPLINE
5
331
100
AcDbEntity
8
0
100
AcDbSpline
62
9
6
CONTINUOUS
70
0
71
3
72
10
73
6
74
4
42
0.0000001000
43
0.0000001000
44
0.0000000001
12
-0.4833748644
22
-0.1775961541
32
0.0000000000
13
-0.4577385552
23
0.2287953692
33
0.0000000000
40
0.0000000000
40
0.0000000000
40
0.0000000000
40
0.0000000000
40
0.1958576523
40
0.5776801370
40
1.0000000000
40
1.0000000000
40
1.0000000000
40
1.0000000000
10
-12.5790700540
20
-16.0068373145
30
0.0000000000
10
-12.6106276094
20
-16.0184318364
30
0.0000000000
10
-12.7071802400
20
-16.0432856393
30
0.0000000000
10
-12.8809277555
20
-16.0362571262
30
0.0000000000
10
-13.0116697269
20
-15.9886310243
30
0.0000000000
10
-13.0761070882
20
-15.9564227480
30
0.0000000000
11
-12.5790700540
21
-16.0068373145
31
0.0000000000
11
-12.6765372043
21
-16.0319611400
31
0.0000000000
11
-12.8718678186
21
-16.0270785342
31
0.0000000000
11
-13.0761070882
21
-15.9564227480
31
0.0000000000
0
SPLINE
5
332
100
AcDbEntity
8
0
100
AcDbSpline
62
9
6
CONTINUOUS
70
0
71
3
72
14
73
10
74
8
42
0.0000001000
43
0.0000001000
44
0.0000000001
12
-0.9095146357
22
-0.3435038030
32
0.0000000000
13
-0.1286760536
23
-0.9636670631
33
0.0000000000
40
0.0000000000
40
0.0000000000
40
0.0000000000
40
0.0000000000
40
0.1225390093
40
0.2572029208
40
0.4014484341
40
0.5518958838
40
0.7047249844
40
0.8555731796
40
1.0000000000
40
1.0000000000
40
1.0000000000
40
1.0000000000
10
-1.6546690193
20
12.0651150800
30
0.0000000000
10
-1.6918193601
20
12.0510842081
30
0.0000000000
10
-1.7664606134
20
12.0124609927
30
0.0000000000
10
-1.8696171188
20
11.9322788684
30
0.0000000000
10
-1.9652578473
20
11.8305081988
30
0.0000000000
10
-2.0491147694
20
11.7116448252
30
0.0000000000
10
-2.1175636199
20
11.5808740542
30
0.0000000000
10
-2.1675653738
20
11.4440998794
30
0.0000000000
10
-2.1877594549
20
11.3501473290
30
0.0000000000
10
-2.1939542127
20
11.3037542057
30
0.0000000000
11
-1.6546690193
21
12.0651150800
31
0.0000000000
11
-1.7610011577
21
12.0113880381
31
0.0000000000
11
-1.8649309018
21
11.9317675210
31
0.0000000000
11
-1.9613788424
21
11.8299608605
31
0.0000000000
11
-2.0459329302
21
11.7106086927
31
0.0000000000
11
-2.1148516781
21
11.5789756222
31
0.0000000000
11
-2.1649531575
21
11.4411412903
31
0.0000000000
11
-2.1939542127
21
11.3037542057
31
0.0000000000
0
SPLINE
5
333
100
AcDbEntity
8
0
100
AcDbSpline
62
9
6
CONTINUOUS
70
0
71
3
72
14
73
10
74
8
42
0.0000001000
43
0.0000001000
44
0.0000000001
12
-1.9409779433
22
-0.7486284226
32
0.0000000000
13
-0.2741273082
23
-2.0622061270
33
0.0000000000
40
0.0000000000
40
0.0000000000
40
0.0000000000
40
0.0000000000
40
0.1224961269
40
0.2567972753
40
0.4008228441
40
0.5511508901
40
0.7039591293
40
0.8548973528
40
1.0000000000
40
1.0000000000
40
1.0000000000
40
1.0000000000
10
-2.1611470653
20
13.0663953643
30
0.0000000000
10
-2.2404011588
20
13.0358273369
30
0.0000000000
10
-2.3992096595
20
12.9520257361
30
0.0000000000
10
-2.6182653747
20
12.7790489544
30
0.0000000000
10
-2.8211005796
20
12.5602736785
30
0.0000000000
10
-2.9989870874
20
12.3051748348
30
0.0000000000
10
-3.1442935019
20
12.0248100234
30
0.0000000000
10
-3.2507046491
20
11.7314039631
30
0.0000000000
10
-3.2938198816
20
11.5298119095
30
0.0000000000
10
-3.3070787476
20
11.4300680534
30
0.0000000000
11
-2.1611470653
21
13.0663953643
31
0.0000000000
11
-2.3877076328
21
12.9497298167
31
0.0000000000
11
-2.6081990550
21
12.7781375426
31
0.0000000000
11
-2.8128063691
21
12.5592544523
31
0.0000000000
11
-2.9922000216
21
12.3030890760
31
0.0000000000
11
-3.1385167060
21
12.0208692352
31
0.0000000000
11
-3.2450514963
21
11.7254903431
31
0.0000000000
11
-3.3070787476
21
11.4300680534
31
0.0000000000
0
SPLINE
5
334
100
AcDbEntity
8
0
100
AcDbSpline
62
9
6
CONTINUOUS
70
0
71
3
72
12
73
8
74
6
42
0.0000001000
43
0.0000001000
44
0.0000000001
12
0.0806114600
22
1.1729478398
32
0.0000000000
13
-1.0449053323
23
0.5389598211
33
0.0000000000
40
0.0000000000
40
0.0000000000
40
0.0000000000
40
0.0000000000
40
0.2000491289
40
0.4115329905
40
0.6226657844
40
0.8217414655
40
1.0000000000
40
1.0000000000
40
1.0000000000
40
1.0000000000
10
-1.6546690193
20
12.0651150800
30
0.0000000000
10
-1.6492936018
20
12.1433308112
30
0.0000000000
10
-1.6591107463
20
12.3059958190
30
0.0000000000
10
-1.7241761981
20
12.5427201111
30
0.0000000000
10
-1.8342837190
20
12.7620059794
30
0.0000000000
10
-1.9792430728
20
12.9435573590
30
0.0000000000
10
-2.0990592990
20
13.0343706357
30
0.0000000000
10
-2.1611470634
20
13.0663953650
30
0.0000000000
11
-1.6546690193
21
12.0651150800
31
0.0000000000
11
-1.6666798247
21
12.3000088901
31
0.0000000000
11
-1.7318976437
21
12.5399480613
31
0.0000000000
11
-1.8439417250
21
12.7614547319
31
0.0000000000
11
-1.9918490768
21
12.9428540532
31
0.0000000000
11
-2.1611470634
21
13.0663953650
31
0.0000000000
0
SPLINE
5
335
100
AcDbEntity
8
0
100
AcDbSpline
62
9
6
CONTINUOUS
70
0
71
3
72
10
73
6
74
4
42
0.0000001000
43
0.0000001000
44
0.0000000001
12
-2.5442506920
22
-19.0761977890
32
0.0000000000
13
-1.5284065500
23
-19.1848001165
33
0.0000000000
40
0.0000000000
40
0.0000000000
40
0.0000000000
40
0.0000000000
40
0.4789379338
40
0.9526120361
40
1.0000000000
40
1.0000000000
40
1.0000000000
40
1.0000000000
10
-2.1939542127
20
11.3037542057
30
0.0000000000
10
-2.6001336025
20
8.2583159545
30
0.0000000000
10
-3.3336687111
20
2.1907065592
30
0.0000000000
10
-3.9427590587
20
-4.1960289423
30
0.0000000000
10
-4.2125666865
20
-7.5278392597
30
0.0000000000
10
-4.2367093780
20
-7.8308821316
30
0.0000000000
11
-2.1939542127
21
11.3037542057
31
0.0000000000
11
-3.2989701782
21
2.1530153140
31
0.0000000000
11
-4.1630979840
21
-6.9218490710
31
0.0000000000
11
-4.2367093780
21
-7.8308821316
31
0.0000000000
0
SPLINE
5
336
100
AcDbEntity
8
0
100
AcDbSpline
62
9
6
CONTINUOUS
70
0
71
3
72
9
73
5
74
3
42
0.0000001000
43
0.0000001000
44
0.0000000001
12
-1.3499971909
22
-16.9453776974
32
0.0000000000
13
-0.4963119073
23
-16.9914069876
33
0.0000000000
40
0.0000000000
40
0.0000000000
40
0.0000000000
40
0.0000000000
40
0.4764038983
40
1.0000000000
40
1.0000000000
40
1.0000000000
40
1.0000000000
10
-4.2367093780
20
-7.8308821316
30
0.0000000000
10
-4.4510906861
20
-10.5218301294
30
0.0000000000
10
-4.8357211485
20
-16.1755107197
30
0.0000000000
10
-5.0784182428
20
-21.8373302462
30
0.0000000000
10
-5.1650405695
20
-24.8028750665
30
0.0000000000
11
-4.2367093780
21
-7.8308821316
31
0.0000000000
11
-4.7853562966
21
-15.9105482939
31
0.0000000000
11
-5.1650405695
21
-24.8028750665
31
0.0000000000
0
SPLINE
5
337
100
AcDbEntity
8
0
100
AcDbSpline
62
9
6
CONTINUOUS
70
0
71
3
72
9
73
5
74
3
42
0.0000001000
43
0.0000001000
44
0.0000000001
12
-1.5101467577
22
-11.3229357203
32
0.0000000000
13
-1.1587721605
23
-11.3646176077
33
0.0000000000
40
0.0000000000
40
0.0000000000
40
0.0000000000
40
0.0000000000
40
0.8090453194
40
1.0000000000
40
1.0000000000
40
1.0000000000
40
1.0000000000
10
-3.3070787476
20
11.4300680534
30
0.0000000000
10
-3.7143378029
20
8.3764786714
30
0.0000000000
10
-4.1713887683
20
4.5958089571
30
0.0000000000
10
-4.5690811225
20
0.8087617321
30
0.0000000000
10
-4.6428387785
20
0.0853860902
30
0.0000000000
11
-3.3070787476
21
11.4300680534
31
0.0000000000
11
-4.4150342555
21
2.2548379713
31
0.0000000000
11
-4.6428387785
21
0.0853860902
31
0.0000000000
0
SPLINE
5
338
100
AcDbEntity
8
0
100
AcDbSpline
62
9
6
CONTINUOUS
70
0
71
3
72
8
73
4
74
2
42
0.0000001000
43
0.0000001000
44
0.0000000001
12
-0.4775602226
22
-4.6836552509
32
0.0000000000
13
-0.4159572176
23
-4.6894979350
33
0.0000000000
40
0.0000000000
40
0.0000000000
40
0.0000000000
40
0.0000000000
40
1.0000000000
40
1.0000000000
40
1.0000000000
40
1.0000000000
10
-4.6428387785
20
0.0853860902
30
0.0000000000
10
-4.8020255193
20
-1.4758323268
30
0.0000000000
10
-4.9510412331
20
-3.0380813196
30
0.0000000000
10
-5.0896936390
20
-4.6012472979
30
0.0000000000
11
-4.6428387785
21
0.0853860902
31
0.0000000000
11
-5.0896936390
21
-4.6012472979
31
0.0000000000
0
SPLINE
5
339
100
AcDbEntity
8
0
100
AcDbSpline
62
9
6
CONTINUOUS
70
0
71
3
72
8
73
4
74
2
42
0.0000001000
43
0.0000001000
44
0.0000000001
12
-0.1294868046
22
-1.4598330719
32
0.0000000000
13
-0.1234437607
23
-1.4603559640
33
0.0000000000
40
0.0000000000
40
0.0000000000
40
0.0000000000
40
0.0000000000
40
1.0000000000
40
1.0000000000
40
1.0000000000
40
1.0000000000
10
-5.0896936390
20
-4.6012472979
30
0.0000000000
10
-5.1328559072
20
-5.0878583219
30
0.0000000000
10
-5.1750139016
20
-5.5745582079
30
0.0000000000
10
-5.2161618218
20
-6.0613435292
30
0.0000000000
11
-5.0896936390
21
-4.6012472979
31
0.0000000000
11
-5.2161618218
21
-6.0613435292
31
0.0000000000
0
SPLINE
5
33A
100
AcDbEntity
8
0
100
AcDbSpline
62
9
6
CONTINUOUS
70
0
71
3
72
9
73
5
74
3
42
0.0000001000
43
0.0000001000
44
0.0000000001
12
-0.0902670794
22
-1.0678714503
32
0.0000000000
13
-0.0870196352
23
-1.0681415020
33
0.0000000000
40
0.0000000000
40
0.0000000000
40
0.0000000000
40
0.0000000000
40
0.7330967959
40
1.0000000000
40
1.0000000000
40
1.0000000000
40
1.0000000000
10
-5.2161618218
20
-6.0613435292
30
0.0000000000
10
-5.2382199907
20
-6.3222945754
30
0.0000000000
10
-5.2679130720
20
-6.6782852159
30
0.0000000000
10
-5.2970643910
20
-7.0343205574
30
0.0000000000
10
-5.3048063308
20
-7.1293506872
30
0.0000000000
11
-5.2161618218
21
-6.0613435292
31
0.0000000000
11
-5.2814646364
21
-6.8442697949
31
0.0000000000
11
-5.3048063308
21
-7.1293506872
31
0.0000000000
0
SPLINE
5
33B
100
AcDbEntity
8
0
100
AcDbSpline
62
9
6
CONTINUOUS
70
0
71
3
72
9
73
5
74
3
42
0.0000001000
43
0.0000001000
44
0.0000000001
12
-1.4350281620
22
-17.6145663256
32
0.0000000000
13
-0.5160286822
23
-17.6649648807
33
0.0000000000
40
0.0000000000
40
0.0000000000
40
0.0000000000
40
0.0000000000
40
0.4950204884
40
1.0000000000
40
1.0000000000
40
1.0000000000
40
1.0000000000
10
-5.3048063308
20
-7.1293506872
30
0.0000000000
10
-5.5415957780
20
-10.0358744292
30
0.0000000000
10
-5.9469177695
20
-15.9133611818
30
0.0000000000
10
-6.1992478816
20
-21.7996212292
30
0.0000000000
10
-6.2861091856
20
-24.7731030084
30
0.0000000000
11
-5.3048063308
21
-7.1293506872
31
0.0000000000
11
-5.9053912199
21
-15.8569770096
31
0.0000000000
11
-6.2861091856
21
-24.7731030084
31
0.0000000000
0
SPLINE
5
33C
100
AcDbEntity
8
0
100
AcDbSpline
62
9
6
CONTINUOUS
70
0
71
3
72
12
73
8
74
6
42
0.0000001000
43
0.0000001000
44
0.0000000001
12
-1.0988929668
22
-0.3006690574
32
0.0000000000
13
-1.0183473904
23
0.5108191726
33
0.0000000000
40
0.0000000000
40
0.0000000000
40
0.0000000000
40
0.0000000000
40
0.1780036203
40
0.3834489374
40
0.6004940747
40
0.8115763391
40
1.0000000000
40
1.0000000000
40
1.0000000000
40
1.0000000000
10
-2.1939542127
20
11.3037542057
30
0.0000000000
10
-2.2591565215
20
11.2859141455
30
0.0000000000
10
-2.4040839469
20
11.2639450866
30
0.0000000000
10
-2.6326100860
20
11.2623512335
30
0.0000000000
10
-2.8722806809
20
11.2897347361
30
0.0000000000
10
-3.1006414068
20
11.3435794360
30
0.0000000000
10
-3.2431184811
20
11.3979845859
30
0.0000000000
10
-3.3070787289
20
11.4300680588
30
0.0000000000
11
-2.1939542127
21
11.3037542057
31
0.0000000000
11
-2.3939274866
21
11.2700322676
31
0.0000000000
11
-2.6279679154
21
11.2669650422
31
0.0000000000
11
-2.8736670568
21
11.2948462041
31
0.0000000000
11
-3.1075001929
21
11.3510062430
31
0.0000000000
11
-3.3070787289
21
11.4300680588
31
0.0000000000
0
SPLINE
5
33D
100
AcDbEntity
8
0
100
AcDbSpline
62
9
6
CONTINUOUS
70
0
71
3
72
14
73
10
74
8
42
0.0000001000
43
0.0000001000
44
0.0000000001
12
-0.0212388966
22
-0.7304890259
32
0.0000000000
13
0.6930136272
23
0.2319427090
33
0.0000000000
40
0.0000000000
40
0.0000000000
40
0.0000000000
40
0.0000000000
40
0.1704218095
40
0.3255114721
40
0.4656733405
40
0.5953517458
40
0.7223542962
40
0.8551823305
40
1.0000000000
40
1.0000000000
40
1.0000000000
40
1.0000000000
10
-5.1650405695
20
-24.8028750665
30
0.0000000000
10
-5.1662470932
20
-24.8443721537
30
0.0000000000
10
-5.1621643448
20
-24.9240792647
30
0.0000000000
10
-5.1334679282
20
-25.0347799429
30
0.0000000000
10
-5.0828186271
20
-25.1265968792
30
0.0000000000
10
-5.0113526033
20
-25.1943177824
30
0.0000000000
10
-4.9225490924
20
-25.2329128973
30
0.0000000000
10
-4.8226472468
20
-25.2401478122
30
0.0000000000
10
-4.7557199836
20
-25.2255777317
30
0.0000000000
10
-4.7222664442
20
-25.2143812642
30
0.0000000000
11
-5.1650405695
21
-24.8028750665
31
0.0000000000
11
-5.1575928200
21
-24.9271960484
31
0.0000000000
11
-5.1278579782
21
-25.0365651806
31
0.0000000000
11
-5.0771358984
21
-25.1255549000
31
0.0000000000
11
-5.0077324199
21
-25.1900859812
31
0.0000000000
11
-4.9227041367
21
-25.2272945337
31
0.0000000000
11
-4.8259779725
21
-25.2354625496
31
0.0000000000
11
-4.7222664442
21
-25.2143812642
31
0.0000000000
0
SPLINE
5
33E
100
AcDbEntity
8
0
100
AcDbSpline
62
9
6
CONTINUOUS
70
0
71
3
72
12
73
8
74
6
42
0.0000001000
43
0.0000001000
44
0.0000000001
12
-0.0295383837
22
-0.9961357430
32
0.0000000000
13
0.8955486389
23
-0.4485287862
33
0.0000000000
40
0.0000000000
40
0.0000000000
40
0.0000000000
40
0.0000000000
40
0.2684742399
40
0.5112918487
40
0.7301442585
40
0.9319883070
40
1.0000000000
40
1.0000000000
40
1.0000000000
40
1.0000000000
10
-6.2861091856
20
-24.7731030084
30
0.0000000000
10
-6.2887526173
20
-24.8622486038
30
0.0000000000
10
-6.2801798605
20
-25.0329785560
30
0.0000000000
10
-6.2193640961
20
-25.2697865513
30
0.0000000000
10
-6.1121368522
20
-25.4656285738
30
0.0000000000
10
-5.9924073127
20
-25.5796995977
30
0.0000000000
10
-5.9142457063
20
-25.6247616957
30
0.0000000000
10
-5.8939431133
20
-25.6349300964
30
0.0000000000
11
-6.2861091856
21
-24.7731030084
31
0.0000000000
11
-6.2703713073
21
-25.0401940856
31
0.0000000000
11
-6.2073666199
21
-25.2738336555
31
0.0000000000
11
-6.0998946080
21
-25.4636190123
31
0.0000000000
11
-5.9528784676
21
-25.6009090789
31
0.0000000000
11
-5.8939431133
21
-25.6349300964
31
0.0000000000
0
SPLINE
5
33F
100
AcDbEntity
8
0
100
AcDbSpline
62
9
6
CONTINUOUS
70
0
71
3
72
12
73
8
74
6
42
0.0000001000
43
0.0000001000
44
0.0000000001
12
-1.0531787008
22
-0.4610067146
32
0.0000000000
13
-1.0288927378
23
0.5129252391
33
0.0000000000
40
0.0000000000
40
0.0000000000
40
0.0000000000
40
0.0000000000
40
0.1844457558
40
0.3915517927
40
0.6068654784
40
0.8145320922
40
1.0000000000
40
1.0000000000
40
1.0000000000
40
1.0000000000
10
-5.1650405695
20
-24.8028750665
30
0.0000000000
10
-5.2297920166
20
-24.8312186438
30
0.0000000000
10
-5.3748594755
20
-24.8741417627
30
0.0000000000
10
-5.6065247275
20
-24.9019366221
30
0.0000000000
10
-5.8488161400
20
-24.8954782878
30
0.0000000000
10
-6.0792810502
20
-24.8553597866
30
0.0000000000
10
-6.2224887850
20
-24.8048081568
30
0.0000000000
10
-6.2860976461
20
-24.7730977665
30
0.0000000000
11
-5.1650405695
21
-24.8028750665
31
0.0000000000
11
-5.3674411909
21
-24.8661124210
31
0.0000000000
11
-5.6036754575
21
-24.8958692723
31
0.0000000000
11
-5.8511251935
21
-24.8892965600
31
0.0000000000
11
-6.0860984018
21
-24.8470235867
31
0.0000000000
11
-6.2860976461
21
-24.7730977665
31
0.0000000000
0
SPLINE
5
340
100
AcDbEntity
8
0
100
AcDbSpline
62
9
6
CONTINUOUS
70
0
71
3
72
11
73
7
74
5
42
0.0000001000
43
0.0000001000
44
0.0000000001
12
-0.0561271610
22
-0.5864068137
32
0.0000000000
13
-0.5625415476
23
-0.1868652725
33
0.0000000000
40
0.0000000000
40
0.0000000000
40
0.0000000000
40
0.0000000000
40
0.3643399972
40
0.6838422992
40
0.9698645717
40
1.0000000000
40
1.0000000000
40
1.0000000000
40
1.0000000000
10
-4.7222664442
20
-25.2143812642
30
0.0000000000
10
-4.7290829007
20
-25.2855984165
30
0.0000000000
10
-4.7576038555
20
-25.4187809061
30
0.0000000000
10
-4.8546915256
20
-25.5873535138
30
0.0000000000
10
-4.9595844073
20
-25.6633579014
30
0.0000000000
10
-5.0183269371
20
-25.6846131919
30
0.0000000000
10
-5.0239777473
20
-25.6864902802
30
0.0000000000
11
-4.7222664442
21
-25.2143812642
31
0.0000000000
11
-4.7708096812
21
-25.4234474640
31
0.0000000000
11
-4.8689857677
21
-25.5840282302
31
0.0000000000
11
-5.0071882402
21
-25.6804108439
31
0.0000000000
11
-5.0239777473
21
-25.6864902802
31
0.0000000000
0
SPLINE
5
341
100
AcDbEntity
8
0
100
AcDbSpline
62
9
6
CONTINUOUS
70
0
71
3
72
10
73
6
74
4
42
0.0000001000
43
0.0000001000
44
0.0000000001
12
-0.0092381627
22
-0.3893935659
32
0.0000000000
13
0.3419295854
23
-0.1714705317
33
0.0000000000
40
0.0000000000
40
0.0000000000
40
0.0000000000
40
0.0000000000
40
0.1781388702
40
0.5391326011
40
1.0000000000
40
1.0000000000
40
1.0000000000
40
1.0000000000
10
-20.6469234930
20
-17.4281430239
30
0.0000000000
10
-20.6474720517
20
-17.4512650672
30
0.0000000000
10
-20.6372581063
20
-17.5218244367
30
0.0000000000
10
-20.5553137980
20
-17.6266624856
30
0.0000000000
10
-20.4659082658
20
-17.6831257492
30
0.0000000000
10
-20.4133801996
20
-17.7094674752
30
0.0000000000
11
-20.6469234930
21
-17.4281430239
31
0.0000000000
11
-20.6370141743
21
-17.4963605914
31
0.0000000000
11
-20.5592420673
21
-17.6104620514
31
0.0000000000
11
-20.4133801996
21
-17.7094674752
31
0.0000000000
0
SPLINE
5
342
100
AcDbEntity
8
0
100
AcDbSpline
62
9
6
CONTINUOUS
70
0
71
3
72
14
73
10
74
8
42
0.0000001000
43
0.0000001000
44
0.0000000001
12
0.2716189910
22
2.0574157179
32
0.0000000000
13
1.9266268546
23
0.7712621317
33
0.0000000000
40
0.0000000000
40
0.0000000000
40
0.0000000000
40
0.0000000000
40
0.1455444946
40
0.2969408323
40
0.4501107556
40
0.6006036405
40
0.7445122143
40
0.8783497232
40
1.0000000000
40
1.0000000000
40
1.0000000000
40
1.0000000000
10
-17.4343497890
20
18.4937035741
30
0.0000000000
10
-17.4211722394
20
18.5935187511
30
0.0000000000
10
-17.3785023550
20
18.7952977246
30
0.0000000000
10
-17.2735102851
20
19.0893005519
30
0.0000000000
10
-17.1303123541
20
19.3706146400
30
0.0000000000
10
-16.9551312673
20
19.6269698823
30
0.0000000000
10
-16.7554883600
20
19.8472597116
30
0.0000000000
10
-16.5399721549
20
20.0219529213
30
0.0000000000
10
-16.3834820344
20
20.1072256499
30
0.0000000000
10
-16.3053571377
20
20.1385004005
30
0.0000000000
11
-17.4343497890
21
18.4937035741
31
0.0000000000
11
-17.3729542109
21
18.7894417003
31
0.0000000000
11
-17.2677964204
21
19.0855090924
31
0.0000000000
11
-17.1235422494
21
19.3687601899
31
0.0000000000
11
-16.9468004898
21
19.6262515126
31
0.0000000000
11
-16.7453196035
21
19.8466978169
31
0.0000000000
11
-16.5282840626
21
20.0200180317
31
0.0000000000
11
-16.3053571377
21
20.1385004005
31
0.0000000000
0
SPLINE
5
343
100
AcDbEntity
8
0
100
AcDbSpline
62
9
6
CONTINUOUS
70
0
71
3
72
11
73
7
74
5
42
0.0000001000
43
0.0000001000
44
0.0000000001
12
1.1304319111
22
36.3219946850
32
0.0000000000
13
4.7357728709
23
36.0296770666
33
0.0000000000
40
0.0000000000
40
0.0000000000
40
0.0000000000
40
0.0000000000
40
0.2454223026
40
0.4939800921
40
0.7455500835
40
1.0000000000
40
1.0000000000
40
1.0000000000
40
1.0000000000
10
-20.4133802270
20
-17.7094674877
30
0.0000000000
10
-20.3209024928
20
-14.7380582969
30
0.0000000000
10
-20.0560389352
20
-8.7594593578
30
0.0000000000
10
-19.4265753199
20
0.2504849624
30
0.0000000000
10
-18.5630770904
20
9.3508464975
30
0.0000000000
10
-17.8360221261
20
15.4377874677
30
0.0000000000
10
-17.4343497890
20
18.4937035741
30
0.0000000000
11
-20.4133802270
21
-17.7094674877
31
0.0000000000
11
-20.0201513927
21
-8.7995969232
31
0.0000000000
11
-19.3920529500
21
0.2110243618
31
0.0000000000
11
-18.5297944286
21
9.3122180579
31
0.0000000000
11
-17.4343497890
21
18.4937035741
31
0.0000000000
0
SPLINE
5
344
100
AcDbEntity
8
0
100
AcDbSpline
62
9
6
CONTINUOUS
70
0
71
3
72
20
73
16
74
14
42
0.0000001000
43
0.0000001000
44
0.0000000001
12
-2.9577872399
22
1.4795897919
32
0.0000000000
13
3.0849498850
23
-1.2212979919
33
0.0000000000
40
0.0000000000
40
0.0000000000
40
0.0000000000
40
0.0000000000
40
0.0785631686
40
0.1650158178
40
0.2570496339
40
0.3517014612
40
0.4459280150
40
0.5364820260
40
0.6207962054
40
0.6972373510
40
0.7657947984
40
0.8285268312
40
0.8896009144
40
0.9539043215
40
1.0000000000
40
1.0000000000
40
1.0000000000
40
1.0000000000
10
-13.1540941295
20
-16.0766090670
30
0.0000000000
10
-13.2315518420
20
-16.0378619796
30
0.0000000000
10
-13.3840603341
20
-15.9354546091
30
0.0000000000
10
-13.5844809567
20
-15.7331093306
30
0.0000000000
10
-13.7578536416
20
-15.4852588265
30
0.0000000000
10
-13.8941417367
20
-15.2058318024
30
0.0000000000
10
-13.9857018042
20
-14.9103938120
30
0.0000000000
10
-14.0272439206
20
-14.6152457904
30
0.0000000000
10
-14.0161612596
20
-14.3366798110
30
0.0000000000
10
-13.9522942761
20
-14.0896646016
30
0.0000000000
10
-13.8372002998
20
-13.8877833746
30
0.0000000000
10
-13.6742169138
20
-13.7448782727
30
0.0000000000
10
-13.4734470051
20
-13.6750346076
30
0.0000000000
10
-13.2808849439
20
-13.6823464579
30
0.0000000000
10
-13.1633675412
20
-13.7176383592
30
0.0000000000
10
-13.1159665886
20
-13.7364038791
30
0.0000000000
11
-13.1540941295
21
-16.0766090670
31
0.0000000000
11
-13.3713636865
21
-15.9341196086
31
0.0000000000
11
-13.5740594858
21
-15.7324679779
31
0.0000000000
11
-13.7494051667
21
-15.4836737256
31
0.0000000000
11
-13.8868775375
21
-15.2024411207
31
0.0000000000
11
-13.9785787755
21
-14.9046110614
31
0.0000000000
11
-14.0189001025
21
-14.6078559847
31
0.0000000000
11
-14.0054478192
21
-14.3293352849
31
0.0000000000
11
-13.9389946884
21
-14.0854180192
31
0.0000000000
11
-13.8234757517
21
-13.8903183620
31
0.0000000000
11
-13.6658181166
21
-13.7554582362
31
0.0000000000
11
-13.4752370675
21
-13.6885483746
31
0.0000000000
11
-13.2626293086
21
-13.6934990055
31
0.0000000000
11
-13.1159665886
21
-13.7364038791
31
0.0000000000
0
SPLINE
5
345
100
AcDbEntity
8
0
100
AcDbSpline
62
9
6
CONTINUOUS
70
0
71
3
72
8
73
4
74
2
42
0.0000001000
43
0.0000001000
44
0.0000000001
12
0.0762727296
22
-0.0301955412
32
0.0000000000
13
0.0731451288
23
-0.0365488084
33
0.0000000000
40
0.0000000000
40
0.0000000000
40
0.0000000000
40
0.0000000000
40
1.0000000000
40
1.0000000000
40
1.0000000000
40
1.0000000000
10
-13.1159665886
20
-13.7364038791
30
0.0000000000
10
-13.0905423454
20
-13.7464690595
30
0.0000000000
10
-13.0655976452
20
-13.7576935808
30
0.0000000000
10
-13.0412159356
20
-13.7698765169
30
0.0000000000
11
-13.1159665886
21
-13.7364038791
31
0.0000000000
11
-13.0412159356
21
-13.7698765169
31
0.0000000000
0
SPLINE
5
346
100
AcDbEntity
8
0
100
AcDbSpline
62
9
6
CONTINUOUS
70
0
71
3
72
10
73
6
74
4
42
0.0000001000
43
0.0000001000
44
0.0000000001
12
-0.0377062374
22
-0.3740895623
32
0.0000000000
13
0.3320447010
23
-0.1654859893
33
0.0000000000
40
0.0000000000
40
0.0000000000
40
0.0000000000
40
0.0000000000
40
0.1876851910
40
0.5315022892
40
1.0000000000
40
1.0000000000
40
1.0000000000
40
1.0000000000
10
-17.6692472535
20
18.7579054709
30
0.0000000000
10
-17.6716062209
20
18.7345017806
30
0.0000000000
10
-17.6610174589
20
18.6647674461
30
0.0000000000
10
-17.5719002168
20
18.5718277794
30
0.0000000000
10
-17.4861964805
20
18.5195489587
30
0.0000000000
10
-17.4343424197
20
18.4937056897
30
0.0000000000
11
-17.6692472535
21
18.7579054709
31
0.0000000000
11
-17.6595420224
21
18.6877882023
31
0.0000000000
11
-17.5806265365
21
18.5875748579
31
0.0000000000
11
-17.4343424197
21
18.4937056897
31
0.0000000000
0
SPLINE
5
347
100
AcDbEntity
8
0
100
AcDbSpline
62
9
6
CONTINUOUS
70
0
71
3
72
10
73
6
74
4
42
0.0000001000
43
0.0000001000
44
0.0000000001
12
0.3360814380
22
0.1378432927
32
0.0000000000
13
0.3249637726
23
-0.1575236591
33
0.0000000000
40
0.0000000000
40
0.0000000000
40
0.0000000000
40
0.0000000000
40
0.0131053854
40
0.4812626401
40
1.0000000000
40
1.0000000000
40
1.0000000000
40
1.0000000000
10
-16.6573607279
20
20.1641823313
30
0.0000000000
10
-16.6558925689
20
20.1647844945
30
0.0000000000
10
-16.6018244260
20
20.1865155837
30
0.0000000000
10
-16.4779953416
20
20.2021778490
30
0.0000000000
10
-16.3615474209
20
20.1657382029
30
0.0000000000
10
-16.3053571377
20
20.1385004005
30
0.0000000000
11
-16.6573607279
21
20.1641823313
31
0.0000000000
11
-16.6529437843
21
20.1659574991
31
0.0000000000
11
-16.4855544326
21
20.1897073052
31
0.0000000000
11
-16.3053571377
21
20.1385004005
31
0.0000000000
0
SPLINE
5
348
100
AcDbEntity
8
0
100
AcDbSpline
62
0
6
CONTINUOUS
70
0
71
3
72
20
73
16
74
14
42
0.0000001000
43
0.0000001000
44
0.0000000001
12
1.7678765100
22
-1.2970160889
32
0.0000000000
13
0.8552212911
23
-2.0188253131
33
0.0000000000
40
0.0000000000
40
0.0000000000
40
0.0000000000
40
0.0000000000
40
0.0071747475
40
0.0845283337
40
0.1633941491
40
0.2435681266
40
0.3249014537
40
0.4073329651
40
0.4905869314
40
0.5746559137
40
0.6592425429
40
0.7442641103
40
0.8295099566
40
0.9148081030
40
1.0000000000
40
1.0000000000
40
1.0000000000
40
1.0000000000
10
19.4967494501
20
19.1891635635
30
0.0000000000
10
19.5009774726
20
19.1860616425
30
0.0000000000
10
19.5506955666
20
19.1493891259
30
0.0000000000
10
19.6446645380
20
19.0756271090
30
0.0000000000
10
19.7749248765
20
18.9620452279
30
0.0000000000
10
19.9015310118
20
18.8401790827
30
0.0000000000
10
20.0240420602
20
18.7105930548
30
0.0000000000
10
20.1420171869
20
18.5738819030
30
0.0000000000
10
20.2551156397
20
18.4305581214
30
0.0000000000
10
20.3629127487
20
18.2812613802
30
0.0000000000
10
20.4650915182
20
18.1265165500
30
0.0000000000
10
20.5612724293
20
17.9669704152
30
0.0000000000
10
20.6511428435
20
17.8031938072
30
0.0000000000
10
20.7343795571
20
17.6358093762
30
0.0000000000
10
20.7853172883
20
17.5220692862
30
0.0000000000
10
20.8096032630
20
17.4647401001
30
0.0000000000
11
19.4967494501
21
19.1891635635
31
0.0000000000
11
19.5094096323
21
19.1798254207
31
0.0000000000
11
19.6428727537
21
19.0751973992
31
0.0000000000
11
19.7732527065
21
18.9616370371
31
0.0000000000
11
19.8999458380
21
18.8398022811
31
0.0000000000
11
20.0224958420
21
18.7102788490
31
0.0000000000
11
20.1406090660
21
18.5734998662
31
0.0000000000
11
20.2537143304
21
18.4302469964
31
0.0000000000
11
20.3616381818
21
18.2808412404
31
0.0000000000
11
20.4638450663
21
18.1261059566
31
0.0000000000
11
20.5600948743
21
17.9664820456
31
0.0000000000
11
20.6500091873
21
17.8026443868
31
0.0000000000
11
20.7332744118
21
17.6352014561
31
0.0000000000
11
20.8096032630
21
17.4647401001
31
0.0000000000
0
SPLINE
5
349
100
AcDbEntity
8
0
100
AcDbSpline
62
0
6
CONTINUOUS
70
0
71
3
72
26
73
22
74
20
42
0.0000001000
43
0.0000001000
44
0.0000000001
12
1.1989615548
22
-2.8302545335
32
0.0000000000
13
-2.0402874584
23
-2.2999892340
33
0.0000000000
40
0.0000000000
40
0.0000000000
40
0.0000000000
40
0.0000000000
40
0.0605628686
40
0.1207840287
40
0.1805985006
40
0.2397829239
40
0.2983572350
40
0.3560964031
40
0.4129928904
40
0.4689033889
40
0.5237273118
40
0.5774695872
40
0.6298677306
40
0.6811010433
40
0.7308077258
40
0.7792094560
40
0.8261128465
40
0.8715598322
40
0.9157047770
40
0.9583609911
40
1.0000000000
40
1.0000000000
40
1.0000000000
40
1.0000000000
10
20.8096032630
20
17.4647401001
30
0.0000000000
10
20.8338074467
20
17.4076039890
30
0.0000000000
10
20.8797674468
20
17.2926743990
30
0.0000000000
10
20.9413700044
20
17.1181499957
30
0.0000000000
10
20.9952123946
20
16.9425523027
30
0.0000000000
10
21.0410798387
20
16.7664456145
30
0.0000000000
10
21.0787256066
20
16.5905708140
30
0.0000000000
10
21.1079652685
20
16.4154773922
30
0.0000000000
10
21.1285984850
20
16.2419061215
30
0.0000000000
10
21.1404607540
20
16.0705043698
30
0.0000000000
10
21.1434126825
20
15.9019441117
30
0.0000000000
10
21.1373423963
20
15.7370609315
30
0.0000000000
10
21.1221826778
20
15.5764512343
30
0.0000000000
10
21.0979539790
20
15.4211311936
30
0.0000000000
10
21.0646981558
20
15.2716738801
30
0.0000000000
10
21.0226301125
20
15.1290624091
30
0.0000000000
10
20.9719713343
20
14.9939128355
30
0.0000000000
10
20.9130924345
20
14.8669182680
30
0.0000000000
10
20.8464843387
20
14.7487619860
30
0.0000000000
10
20.7725580290
20
14.6397169953
30
0.0000000000
10
20.7181124739
20
14.5725410695
30
0.0000000000
10
20.6897939580
20
14.5406179787
30
0.0000000000
11
20.8096032630
21
17.4647401001
31
0.0000000000
11
20.8787006549
21
17.2918986919
31
0.0000000000
11
20.9402797955
21
17.1173514921
31
0.0000000000
11
20.9941351789
21
16.9415756102
31
0.0000000000
11
21.0399347785
21
16.7655310014
31
0.0000000000
11
21.0775567819
21
16.5894764760
31
0.0000000000
11
21.1067166171
21
16.4144259309
31
0.0000000000
11
21.1272766445
21
16.2407661296
31
0.0000000000
11
21.1390466493
21
16.0693275011
31
0.0000000000
11
21.1418911613
21
15.9008489425
31
0.0000000000
11
21.1356966429
21
15.7357870353
31
0.0000000000
11
21.1204363774
21
15.5754647899
31
0.0000000000
11
21.0960309593
21
15.4199008088
31
0.0000000000
11
21.0627097138
21
15.2708042708
31
0.0000000000
11
21.0204793198
21
15.1281604261
31
0.0000000000
11
20.9697451715
21
14.9932243008
31
0.0000000000
11
20.9108640463
21
14.8665587198
31
0.0000000000
11
20.8441200693
21
14.7484298221
31
0.0000000000
11
20.7704546369
21
14.6399776054
31
0.0000000000
11
20.6897939580
21
14.5406179787
31
0.0000000000
0
SPLINE
5
34A
100
AcDbEntity
8
0
100
AcDbSpline
62
0
6
CONTINUOUS
70
0
71
3
72
8
73
4
74
2
42
0.0000001000
43
0.0000001000
44
0.0000000001
12
-0.0278408439
22
-0.0313846174
32
0.0000000000
13
-0.0287519909
23
-0.0305529416
33
0.0000000000
40
0.0000000000
40
0.0000000000
40
0.0000000000
40
0.0000000000
40
1.0000000000
40
1.0000000000
40
1.0000000000
40
1.0000000000
10
20.6897939580
20
14.5406179787
30
0.0000000000
10
20.6805136767
20
14.5301564396
30
0.0000000000
10
20.6710804401
20
14.5198301701
30
0.0000000000
10
20.6614964431
20
14.5096458562
30
0.0000000000
11
20.6897939580
21
14.5406179787
31
0.0000000000
11
20.6614964431
21
14.5096458562
31
0.0000000000
0
SPLINE
5
34B
100
AcDbEntity
8
0
100
AcDbSpline
62
0
6
CONTINUOUS
70
0
71
3
72
18
73
14
74
12
42
0.0000001000
43
0.0000001000
44
0.0000000001
12
0.8134822567
22
0.3756930640
32
0.0000000000
13
0.8016850218
23
-0.4008397784
33
0.0000000000
40
0.0000000000
40
0.0000000000
40
0.0000000000
40
0.0000000000
40
0.0893849138
40
0.1790408614
40
0.2685268285
40
0.3627312415
40
0.4548475124
40
0.5475230269
40
0.6418820557
40
0.7327666972
40
0.8282674027
40
0.9200880842
40
1.0000000000
40
1.0000000000
40
1.0000000000
40
1.0000000000
10
11.5008964822
20
24.8633501681
30
0.0000000000
10
11.5251341627
20
24.8745439321
30
0.0000000000
10
11.5746042456
20
24.8950294692
30
0.0000000000
10
11.6510061426
20
24.9197012603
30
0.0000000000
10
11.7305462746
20
24.9384997039
30
0.0000000000
10
11.8121005815
20
24.9508050191
30
0.0000000000
10
11.8953429238
20
24.9563282369
30
0.0000000000
10
11.9788044388
20
24.9549461898
30
0.0000000000
10
12.0614957618
20
24.9466175247
30
0.0000000000
10
12.1440323265
20
24.9313086092
30
0.0000000000
10
12.2242845745
20
24.9093635198
30
0.0000000000
10
12.2993225628
20
24.8818979729
30
0.0000000000
10
12.3460367278
20
24.8605956916
30
0.0000000000
10
12.3673914564
20
24.8499184001
30
0.0000000000
11
11.5008964822
21
24.8633501681
31
0.0000000000
11
11.5748960077
21
24.8939926188
31
0.0000000000
11
11.6513445602
21
24.9186800646
31
0.0000000000
11
11.7293784702
21
24.9371221694
31
0.0000000000
11
11.8128452021
21
24.9497160527
31
0.0000000000
11
11.8952045301
21
24.9551807848
31
0.0000000000
11
11.9782346805
21
24.9538057255
31
0.0000000000
11
12.0623591129
21
24.9453328565
31
0.0000000000
11
12.1424302351
21
24.9304811623
31
0.0000000000
11
12.2249728046
21
24.9079097441
31
0.0000000000
11
12.3022355020
21
24.8796299926
31
0.0000000000
11
12.3673914564
21
24.8499184001
31
0.0000000000
0
SPLINE
5
34C
100
AcDbEntity
8
0
100
AcDbSpline
62
0
6
CONTINUOUS
70
0
71
3
72
40
73
36
74
34
42
0.0000001000
43
0.0000001000
44
0.0000000001
12
-5.2426771194
22
-2.5162024594
32
0.0000000000
13
-3.3584778031
23
4.7497343924
33
0.0000000000
40
0.0000000000
40
0.0000000000
40
0.0000000000
40
0.0000000000
40
0.0279422086
40
0.0568886404
40
0.0867856735
40
0.1175708214
40
0.1491739462
40
0.1815182333
40
0.2145211122
40
0.2480951614
40
0.2821488835
40
0.3165874368
40
0.3513133877
40
0.3862274132
40
0.4212289430
40
0.4562168440
40
0.4910901116
40
0.5257484895
40
0.5600931426
40
0.5940273782
40
0.6274572983
40
0.6602925290
40
0.6924470069
40
0.7238397592
40
0.7543957739
40
0.7840469578
40
0.8127331797
40
0.8404034472
40
0.8670172461
40
0.8925460724
40
0.9169751935
40
0.9403056606
40
0.9625565732
40
0.9837675646
40
1.0000000000
40
1.0000000000
40
1.0000000000
40
1.0000000000
10
14.0703027554
20
20.2666928716
30
0.0000000000
10
14.0214720962
20
20.2432567870
30
0.0000000000
10
13.9208494011
20
20.1980220120
30
0.0000000000
10
13.7643830160
20
20.1360905989
30
0.0000000000
10
13.6002155863
20
20.0790721006
30
0.0000000000
10
13.4289724679
20
20.0271839370
30
0.0000000000
10
13.2512999174
20
19.9806215401
30
0.0000000000
10
13.0678708723
20
19.9395613244
30
0.0000000000
10
12.8793800205
20
19.9041587945
30
0.0000000000
10
12.6865417054
20
19.8745481584
30
0.0000000000
10
12.4900869529
20
19.8508416717
30
0.0000000000
10
12.2907607015
20
19.8331291932
30
0.0000000000
10
12.0893188664
20
19.8214778054
30
0.0000000000
10
11.8865254104
20
19.8159315510
30
0.0000000000
10
11.6831494188
20
19.8165112608
30
0.0000000000
10
11.4799621140
20
19.8232144735
30
0.0000000000
10
11.2777338818
20
19.8360154563
30
0.0000000000
10
11.0772313249
20
19.8548653157
30
0.0000000000
10
10.8792143097
20
19.8796921999
30
0.0000000000
10
10.6844330425
20
19.9104015992
30
0.0000000000
10
10.4936251819
20
19.9468767405
30
0.0000000000
10
10.3075130230
20
19.9889790693
30
0.0000000000
10
10.1268007009
20
20.0365488375
30
0.0000000000
10
9.9521714689
20
20.0894057936
30
0.0000000000
10
9.7842850878
20
20.1473499673
30
0.0000000000
10
9.6237752727
20
20.2101625801
30
0.0000000000
10
9.4712472623
20
20.2776070792
30
0.0000000000
10
9.3272755468
20
20.3494303021
30
0.0000000000
10
9.1924017710
20
20.4253637948
30
0.0000000000
10
9.0671328832
20
20.5051252876
30
0.0000000000
10
8.9519396340
20
20.5884203133
30
0.0000000000
10
8.8472555584
20
20.6749439036
30
0.0000000000
10
8.7534765771
20
20.7643822267
30
0.0000000000
10
8.6761449599
20
20.8506324526
30
0.0000000000
10
8.6319910455
20
20.9083301078
30
0.0000000000
10
8.6138189543
20
20.9340300266
30
0.0000000000
11
14.0703027554
21
20.2666928716
31
0.0000000000
11
13.9221570880
21
20.1999395097
31
0.0000000000
11
13.7656876887
21
20.1378717926
31
0.0000000000
11
13.6014896206
21
20.0807257016
31
0.0000000000
11
13.4301874883
21
20.0287185056
31
0.0000000000
11
13.2524326912
21
19.9820478211
31
0.0000000000
11
13.0689012192
21
19.9408909647
31
0.0000000000
11
12.8802911283
21
19.9054042763
31
0.0000000000
11
12.6873196006
21
19.8757224685
31
0.0000000000
11
12.4907203320
21
19.8519581563
31
0.0000000000
11
12.2912408602
21
19.8342014450
31
0.0000000000
11
12.0896395263
21
19.8225195671
31
0.0000000000
11
11.8866825471
21
19.8169566440
31
0.0000000000
11
11.6831413031
21
19.8175335375
31
0.0000000000
11
11.4797893110
21
19.8242477673
31
0.0000000000
11
11.2773991116
21
19.8370735399
31
0.0000000000
11
11.0767395872
21
19.8559618520
31
0.0000000000
11
10.8785730177
21
19.8808406741
31
0.0000000000
11
10.6836519495
21
19.9116152632
31
0.0000000000
11
10.4927166116
21
19.9481685037
31
0.0000000000
11
10.3064920812
21
19.9903613526
31
0.0000000000
11
10.1256853861
21
20.0380334069
31
0.0000000000
11
9.9509829860
21
20.0910034880
31
0.0000000000
11
9.7830481660
21
20.1490703295
31
0.0000000000
11
9.6225184786
21
20.2120133590
31
0.0000000000
11
9.4700033750
21
20.2795935255
31
0.0000000000
11
9.3260819132
21
20.3515541996
31
0.0000000000
11
9.1913005654
21
20.4276221463
31
0.0000000000
11
9.0661711548
21
20.5075085559
31
0.0000000000
11
8.9511689172
21
20.5909101378
31
0.0000000000
11
8.8467307079
21
20.6775102623
31
0.0000000000
11
8.7532533667
21
20.7669801348
31
0.0000000000
11
8.6710921741
21
20.8589800649
31
0.0000000000
11
8.6138189543
21
20.9340300266
31
0.0000000000
0
SPLINE
5
34D
100
AcDbEntity
8
0
100
AcDbSpline
62
0
6
CONTINUOUS
70
0
71
3
72
39
73
35
74
33
42
0.0000001000
43
0.0000001000
44
0.0000000001
12
4.2122014598
22
-3.0903137363
32
0.0000000000
13
-3.3519405154
23
-4.0083684585
33
0.0000000000
40
0.0000000000
40
0.0000000000
40
0.0000000000
40
0.0000000000
40
0.0030112680
40
0.0354768538
40
0.0685771278
40
0.1022264423
40
0.1363623401
40
0.1709591499
40
0.2059011471
40
0.2411852094
40
0.2766865301
40
0.3123703959
40
0.3481483925
40
0.3839483396
40
0.4197036934
40
0.4553386293
40
0.4907725054
40
0.5259670878
40
0.5607909523
40
0.5952558294
40
0.6292293118
40
0.6627069645
40
0.6956044654
40
0.7278626299
40
0.7594843576
40
0.7903152038
40
0.8204606684
40
0.8497078703
40
0.8781872437
40
0.9057850005
40
0.9325258148
40
0.9585005137
40
0.9835992497
40
1.0000000000
40
1.0000000000
40
1.0000000000
40
1.0000000000
10
19.4967494501
20
19.1891635635
30
0.0000000000
10
19.5009774726
20
19.1860616425
30
0.0000000000
10
19.5506955666
20
19.1493891259
30
0.0000000000
10
19.6446645380
20
19.0756271090
30
0.0000000000
10
19.7749248765
20
18.9620452279
30
0.0000000000
10
19.9015310118
20
18.8401790827
30
0.0000000000
10
20.0240420602
20
18.7105930548
30
0.0000000000
10
20.1420171869
20
18.5738819030
30
0.0000000000
10
20.2551156397
20
18.4305581214
30
0.0000000000
10
20.3629127487
20
18.2812613802
30
0.0000000000
10
20.4650915182
20
18.1265165500
30
0.0000000000
10
20.5612724293
20
17.9669704152
30
0.0000000000
10
20.6511428435
20
17.8031938072
30
0.0000000000
10
20.7343795571
20
17.6358093762
30
0.0000000000
10
20.8106845603
20
17.4654260918
30
0.0000000000
10
20.8797674468
20
17.2926743990
30
0.0000000000
10
20.9413700044
20
17.1181499957
30
0.0000000000
10
20.9952123946
20
16.9425523027
30
0.0000000000
10
21.0410798387
20
16.7664456145
30
0.0000000000
10
21.0787256066
20
16.5905708140
30
0.0000000000
10
21.1079652685
20
16.4154773922
30
0.0000000000
10
21.1285984850
20
16.2419061215
30
0.0000000000
10
21.1404607540
20
16.0705043698
30
0.0000000000
10
21.1434126825
20
15.9019441117
30
0.0000000000
10
21.1373423963
20
15.7370609315
30
0.0000000000
10
21.1221826778
20
15.5764512343
30
0.0000000000
10
21.0979539790
20
15.4211311936
30
0.0000000000
10
21.0646981558
20
15.2716738801
30
0.0000000000
10
21.0226301125
20
15.1290624091
30
0.0000000000
10
20.9719713343
20
14.9939128355
30
0.0000000000
10
20.9130924345
20
14.8669182680
30
0.0000000000
10
20.8464843387
20
14.7487619860
30
0.0000000000
10
20.7804809448
20
14.6514036908
30
0.0000000000
10
20.7357362260
20
14.5945976850
30
0.0000000000
10
20.7174114462
20
14.5726842683
30
0.0000000000
11
19.4967494501
21
19.1891635635
31
0.0000000000
11
19.5094096323
21
19.1798254207
31
0.0000000000
11
19.6428727537
21
19.0751973992
31
0.0000000000
11
19.7732527065
21
18.9616370371
31
0.0000000000
11
19.8999458380
21
18.8398022811
31
0.0000000000
11
20.0224958420
21
18.7102788490
31
0.0000000000
11
20.1406090660
21
18.5734998662
31
0.0000000000
11
20.2537143304
21
18.4302469964
31
0.0000000000
11
20.3616381818
21
18.2808412404
31
0.0000000000
11
20.4638450663
21
18.1261059566
31
0.0000000000
11
20.5600948743
21
17.9664820456
31
0.0000000000
11
20.6500091873
21
17.8026443868
31
0.0000000000
11
20.7332744118
21
17.6352014561
31
0.0000000000
11
20.8096032630
21
17.4647401001
31
0.0000000000
11
20.8787006549
21
17.2918986919
31
0.0000000000
11
20.9402797955
21
17.1173514921
31
0.0000000000
11
20.9941351789
21
16.9415756102
31
0.0000000000
11
21.0399347785
21
16.7655310014
31
0.0000000000
11
21.0775567819
21
16.5894764760
31
0.0000000000
11
21.1067166171
21
16.4144259309
31
0.0000000000
11
21.1272766445
21
16.2407661296
31
0.0000000000
11
21.1390466493
21
16.0693275011
31
0.0000000000
11
21.1418911613
21
15.9008489425
31
0.0000000000
11
21.1356966429
21
15.7357870353
31
0.0000000000
11
21.1204363774
21
15.5754647899
31
0.0000000000
11
21.0960309593
21
15.4199008088
31
0.0000000000
11
21.0627097138
21
15.2708042708
31
0.0000000000
11
21.0204793198
21
15.1281604261
31
0.0000000000
11
20.9697451715
21
14.9932243008
31
0.0000000000
11
20.9108640463
21
14.8665587198
31
0.0000000000
11
20.8441200693
21
14.7484298221
31
0.0000000000
11
20.7704546369
21
14.6399776054
31
0.0000000000
11
20.7174114462
21
14.5726842683
31
0.0000000000
0
SPLINE
5
34E
100
AcDbEntity
8
0
100
AcDbSpline
62
0
6
CONTINUOUS
70
0
71
3
72
11
73
7
74
5
42
0.0000001000
43
0.0000001000
44
0.0000000001
12
-0.2633400567
22
-0.3149113095
32
0.0000000000
13
-0.3445858399
23
-0.2228752119
33
0.0000000000
40
0.0000000000
40
0.0000000000
40
0.0000000000
40
0.0000000000
40
0.1030945710
40
0.4074018792
40
0.7057734402
40
1.0000000000
40
1.0000000000
40
1.0000000000
40
1.0000000000
10
20.7174114462
20
14.5726842683
30
0.0000000000
10
20.7083618028
20
14.5618623862
30
0.0000000000
10
20.6719817992
20
14.5196143204
30
0.0000000000
10
20.6047470547
20
14.4501487560
30
0.0000000000
10
20.5117263794
20
14.3699023323
30
0.0000000000
10
20.4456605327
20
14.3226953740
30
0.0000000000
10
20.4118650973
20
14.3008367717
30
0.0000000000
11
20.7174114462
21
14.5726842683
31
0.0000000000
11
20.6897939580
21
14.5406179787
31
0.0000000000
11
20.6028833856
21
14.4509403960
31
0.0000000000
11
20.5101288829
21
14.3710051262
31
0.0000000000
11
20.4118650973
21
14.3008367717
31
0.0000000000
0
SPLINE
5
34F
100
AcDbEntity
8
0
100
AcDbSpline
62
0
6
CONTINUOUS
70
0
71
3
72
8
73
4
74
2
42
0.0000001000
43
0.0000001000
44
0.0000000001
12
-0.0067366515
22
0.0679104449
32
0.0000000000
13
-0.0000038008
23
0.0682445507
33
0.0000000000
40
0.0000000000
40
0.0000000000
40
0.0000000000
40
0.0000000000
40
1.0000000000
40
1.0000000000
40
1.0000000000
40
1.0000000000
10
9.0090116476
20
20.5477002767
30
0.0000000000
10
9.0067660971
20
20.5703370917
30
0.0000000000
10
9.0056352242
20
20.5930856541
30
0.0000000000
10
9.0056339573
20
20.6158338376
30
0.0000000000
11
9.0090116476
21
20.5477002767
31
0.0000000000
11
9.0056339573
21
20.6158338376
31
0.0000000000
0
SPLINE
5
350
100
AcDbEntity
8
0
100
AcDbSpline
62
0
6
CONTINUOUS
70
0
71
3
72
16
73
12
74
10
42
0.0000001000
43
0.0000001000
44
0.0000000001
12
0.4035298950
22
0.9176758371
32
0.0000000000
13
0.8956189013
23
0.4492564213
33
0.0000000000
40
0.0000000000
40
0.0000000000
40
0.0000000000
40
0.0000000000
40
0.0766285920
40
0.1741530629
40
0.2761448249
40
0.3831248479
40
0.4953806848
40
0.6131606036
40
0.7365284194
40
0.8655088305
40
1.0000000000
40
1.0000000000
40
1.0000000000
40
1.0000000000
10
9.0687106106
20
20.5057880942
30
0.0000000000
10
9.0790179198
20
20.5292281633
30
0.0000000000
10
9.1049382485
20
20.5814003167
30
0.0000000000
10
9.1538601937
20
20.6597748742
30
0.0000000000
10
9.2163481885
20
20.7410435598
30
0.0000000000
10
9.2891106582
20
20.8200607205
30
0.0000000000
10
9.3718532638
20
20.8965360059
30
0.0000000000
10
9.4642280107
20
20.9701670091
30
0.0000000000
10
9.5658705947
20
21.0406755516
30
0.0000000000
10
9.6763615027
20
21.1077792459
30
0.0000000000
10
9.7540437000
20
21.1492246926
30
0.0000000000
10
9.7941946445
20
21.1693650331
30
0.0000000000
11
9.0687106106
21
20.5057880942
31
0.0000000000
11
9.1027831829
21
20.5746090363
31
0.0000000000
11
9.1543424260
21
20.6576173117
31
0.0000000000
11
9.2164579399
21
20.7387666984
31
0.0000000000
11
9.2889075602
21
20.8177676540
31
0.0000000000
11
9.3713664018
21
20.8942651776
31
0.0000000000
11
9.4635283910
21
20.9679759207
31
0.0000000000
11
9.5649933398
21
21.0385791860
31
0.0000000000
11
9.6753694131
21
21.1058028640
31
0.0000000000
11
9.7941946445
21
21.1693650331
31
0.0000000000
0
SPLINE
5
351
100
AcDbEntity
8
0
100
AcDbSpline
62
0
6
CONTINUOUS
70
0
71
3
72
17
73
13
74
11
42
0.0000001000
43
0.0000001000
44
0.0000000001
12
0.6923672232
22
-0.3460670439
32
0.0000000000
13
0.3403615784
23
-0.6949482992
33
0.0000000000
40
0.0000000000
40
0.0000000000
40
0.0000000000
40
0.0000000000
40
0.0503847250
40
0.1404898098
40
0.2346040286
40
0.3328138003
40
0.4351079600
40
0.5413706983
40
0.6513775624
40
0.7647969877
40
0.8811955450
40
1.0000000000
40
1.0000000000
40
1.0000000000
40
1.0000000000
10
13.4962250732
20
24.2855016946
30
0.0000000000
10
13.5078533173
20
24.2796895303
30
0.0000000000
10
13.5398832376
20
24.2626947519
30
0.0000000000
10
13.5914589147
20
24.2309226805
30
0.0000000000
10
13.6504168647
20
24.1880149330
30
0.0000000000
10
13.7084618648
20
24.1388642022
30
0.0000000000
10
13.7651542914
20
24.0835740279
30
0.0000000000
10
13.8200269881
20
24.0223303620
30
0.0000000000
10
13.8725943702
20
23.9554109354
30
0.0000000000
10
13.9223650654
20
23.8831891413
30
0.0000000000
10
13.9688468195
20
23.8061507904
30
0.0000000000
10
13.9970955983
20
23.7524146773
30
0.0000000000
10
14.0105744222
20
23.7248936927
30
0.0000000000
11
13.4962250732
21
24.2855016946
31
0.0000000000
11
13.5306802938
21
24.2672383492
31
0.0000000000
11
13.5900888577
21
24.2307386418
31
0.0000000000
11
13.6490214318
21
24.1879507132
31
0.0000000000
11
13.7070697441
21
24.1389006720
31
0.0000000000
11
13.7637908872
21
24.0836865153
31
0.0000000000
11
13.8187134963
21
24.0224900372
31
0.0000000000
11
13.8713469153
21
23.9555863967
31
0.0000000000
11
13.9211937923
21
23.8833491440
31
0.0000000000
11
13.9677641735
21
23.8062511276
31
0.0000000000
11
14.0105744222
21
23.7248936927
31
0.0000000000
0
SPLINE
5
352
100
AcDbEntity
8
0
100
AcDbSpline
62
0
6
CONTINUOUS
70
0
71
3
72
12
73
8
74
6
42
0.0000001000
43
0.0000001000
44
0.0000000001
12
0.0794384856
22
-0.0397300228
32
0.0000000000
13
0.0445479325
23
-0.0768293223
33
0.0000000000
40
0.0000000000
40
0.0000000000
40
0.0000000000
40
0.0000000000
40
0.1689358061
40
0.4446982556
40
0.7179283992
40
0.9949015518
40
1.0000000000
40
1.0000000000
40
1.0000000000
40
1.0000000000
10
18.8278910708
20
21.6196678708
30
0.0000000000
10
18.8323644057
20
21.6174305963
30
0.0000000000
10
18.8438709538
20
21.6110051586
30
0.0000000000
10
18.8610099154
20
21.5983082865
30
0.0000000000
10
18.8780364061
20
21.5806351104
30
0.0000000000
10
18.8873960576
20
21.5670555826
30
0.0000000000
10
18.8915946592
20
21.5598375424
30
0.0000000000
10
18.8916703676
20
21.5597069723
30
0.0000000000
11
18.8278910708
21
21.6196678708
31
0.0000000000
11
18.8409783271
21
21.6123409903
31
0.0000000000
11
18.8606189741
21
21.5977493873
31
0.0000000000
11
18.8774492096
21
21.5803003625
31
0.0000000000
11
18.8914426980
21
21.5600983701
31
0.0000000000
11
18.8916703676
21
21.5597069723
31
0.0000000000
0
SPLINE
5
353
100
AcDbEntity
8
0
100
AcDbSpline
62
0
6
CONTINUOUS
70
0
71
3
72
9
73
5
74
3
42
0.0000001000
43
0.0000001000
44
0.0000000001
12
0.0106959682
22
0.0091088848
32
0.0000000000
13
0.0125651438
23
0.0062858928
33
0.0000000000
40
0.0000000000
40
0.0000000000
40
0.0000000000
40
0.0000000000
40
0.2054428923
40
1.0000000000
40
1.0000000000
40
1.0000000000
40
1.0000000000
10
-2.1649571219
20
22.0606738123
30
0.0000000000
10
-2.1642246517
20
22.0612975975
30
0.0000000000
10
-2.1605848946
20
22.0642462713
30
0.0000000000
10
-2.1565953437
20
22.0667423251
30
0.0000000000
10
-2.1532674356
20
22.0684071587
30
0.0000000000
11
-2.1649571219
21
22.0606738123
31
0.0000000000
11
-2.1627143636
21
22.0624900620
31
0.0000000000
11
-2.1532674356
21
22.0684071587
31
0.0000000000
0
SPLINE
5
354
100
AcDbEntity
8
0
100
AcDbSpline
62
0
6
CONTINUOUS
70
0
71
3
72
9
73
5
74
3
42
0.0000001000
43
0.0000001000
44
0.0000000001
12
0.0795291270
22
0.0420563124
32
0.0000000000
13
0.0728605653
23
0.0528100669
33
0.0000000000
40
0.0000000000
40
0.0000000000
40
0.0000000000
40
0.0000000000
40
0.5842363092
40
1.0000000000
40
1.0000000000
40
1.0000000000
40
1.0000000000
10
18.4589800596
20
-12.0697966290
30
0.0000000000
10
18.4744679941
20
-12.0616063541
30
0.0000000000
10
18.5003860239
20
-12.0464386787
30
0.0000000000
10
18.5251634341
20
-12.0295115764
30
0.0000000000
10
18.5352610267
20
-12.0221927403
30
0.0000000000
11
18.4589800596
21
-12.0697966290
31
0.0000000000
11
18.5043631722
21
-12.0432827919
31
0.0000000000
11
18.5352610267
21
-12.0221927403
31
0.0000000000
0
SPLINE
5
355
100
AcDbEntity
8
0
100
AcDbSpline
62
0
6
CONTINUOUS
70
0
71
3
72
8
73
4
74
2
42
0.0000001000
43
0.0000001000
44
0.0000000001
12
-0.0050308648
22
0.0025152164
32
0.0000000000
13
-0.0052241425
23
0.0020832623
33
0.0000000000
40
0.0000000000
40
0.0000000000
40
0.0000000000
40
0.0000000000
40
1.0000000000
40
1.0000000000
40
1.0000000000
40
1.0000000000
10
-0.8490582160
20
22.1376613427
30
0.0000000000
10
-0.8507351710
20
22.1384997481
30
0.0000000000
10
-0.8524472548
20
22.1392678855
30
0.0000000000
10
-0.8541886356
20
22.1399623062
30
0.0000000000
11
-0.8490582160
21
22.1376613427
31
0.0000000000
11
-0.8541886356
21
22.1399623062
31
0.0000000000
0
SPLINE
5
356
100
AcDbEntity
8
0
100
AcDbSpline
62
0
6
CONTINUOUS
70
0
71
3
72
17
73
13
74
11
42
0.0000001000
43
0.0000001000
44
0.0000000001
12
0.3267954694
22
0.1568442124
32
0.0000000000
13
0.3250319408
23
-0.1623326163
33
0.0000000000
40
0.0000000000
40
0.0000000000
40
0.0000000000
40
0.0000000000
40
0.1444903175
40
0.2800230024
40
0.4064032085
40
0.5234622862
40
0.6310855809
40
0.7292758090
40
0.8182352369
40
0.8985128392
40
0.9712181877
40
1.0000000000
40
1.0000000000
40
1.0000000000
40
1.0000000000
10
17.6337335919
20
21.9769476194
30
0.0000000000
10
17.6494731856
20
21.9845017761
30
0.0000000000
10
17.6802420375
20
21.9985994764
30
0.0000000000
10
17.7257119964
20
22.0171823655
30
0.0000000000
10
17.7689008409
20
22.0324590673
30
0.0000000000
10
17.8096489201
20
22.0443396134
30
0.0000000000
10
17.8477858577
20
22.0527233183
30
0.0000000000
10
17.8831308375
20
22.0574973876
30
0.0000000000
10
17.9154971453
20
22.0585335679
30
0.0000000000
10
17.9446941749
20
22.0556769083
30
0.0000000000
10
17.9660227060
20
22.0499331128
30
0.0000000000
10
17.9772843579
20
22.0449687479
30
0.0000000000
10
17.9804026940
20
22.0434113389
30
0.0000000000
11
17.6337335919
21
21.9769476194
31
0.0000000000
11
17.6813757199
21
21.9987060311
31
0.0000000000
11
17.7268818419
21
22.0172211326
31
0.0000000000
11
17.7701013808
21
22.0324103670
31
0.0000000000
11
17.8108689736
21
22.0441786170
31
0.0000000000
11
17.8490007038
21
22.0524184080
31
0.0000000000
11
17.8842955003
21
22.0570121444
31
0.0000000000
11
17.9165314875
21
22.0578339013
31
0.0000000000
11
17.9454674362
21
22.0547537112
31
0.0000000000
11
17.9708446999
21
22.0476431982
31
0.0000000000
11
17.9804026940
21
22.0434113389
31
0.0000000000
0
SPLINE
5
357
100
AcDbEntity
8
0
100
AcDbSpline
62
0
6
CONTINUOUS
70
0
71
3
72
30
73
26
74
24
42
0.0000001000
43
0.0000001000
44
0.0000000001
12
3.3990611785
22
1.6753110641
32
0.0000000000
13
3.5076353199
23
-1.4341473144
33
0.0000000000
40
0.0000000000
40
0.0000000000
40
0.0000000000
40
0.0000000000
40
0.0373740152
40
0.0761101878
40
0.1161194463
40
0.1573317361
40
0.1996195059
40
0.2429054545
40
0.2870323720
40
0.3319183389
40
0.3773849130
40
0.4233468943
40
0.4696128107
40
0.5160948086
40
0.5625964149
40
0.6090274722
40
0.6551943534
40
0.7010050072
40
0.7462763135
40
0.7909151132
40
0.8347562339
40
0.8777069410
40
0.9196272232
40
0.9604275051
40
1.0000000000
40
1.0000000000
40
1.0000000000
40
1.0000000000
10
10.4769048424
20
21.0788104234
30
0.0000000000
10
10.5192503638
20
21.0996814571
30
0.0000000000
10
10.6066008489
20
21.1399509231
30
0.0000000000
10
10.7426034432
20
21.1950123588
30
0.0000000000
10
10.8854738543
20
21.2456343684
30
0.0000000000
10
11.0346051126
20
21.2916014667
30
0.0000000000
10
11.1894242120
20
21.3327375664
30
0.0000000000
10
11.3492622440
20
21.3688646087
30
0.0000000000
10
11.5135156788
20
21.3998462386
30
0.0000000000
10
11.6814633802
20
21.4255461076
30
0.0000000000
10
11.8524794545
20
21.4458683974
30
0.0000000000
10
12.0258056128
20
21.4607227565
30
0.0000000000
10
12.2008004655
20
21.4700541766
30
0.0000000000
10
12.3766849240
20
21.4738210085
30
0.0000000000
10
12.5528088629
20
21.4720093240
30
0.0000000000
10
12.7283891850
20
21.4646272273
30
0.0000000000
10
12.9027739208
20
21.4517021699
30
0.0000000000
10
13.0751926712
20
21.4332914505
30
0.0000000000
10
13.2449988105
20
21.4094641931
30
0.0000000000
10
13.4114507553
20
21.3803247792
30
0.0000000000
10
13.5739149115
20
21.3459841983
30
0.0000000000
10
13.7316933003
20
21.3065903991
30
0.0000000000
10
13.8841745346
20
21.2622958825
30
0.0000000000
10
14.0307142385
20
21.2132884820
30
0.0000000000
10
14.1255813578
20
21.1770221518
30
0.0000000000
10
14.1718499848
20
21.1581045560
30
0.0000000000
11
10.4769048424
21
21.0788104234
31
0.0000000000
11
10.6054696440
21
21.1382223822
31
0.0000000000
11
10.7414892022
21
21.1934143901
31
0.0000000000
11
10.8843651017
21
21.2441447506
31
0.0000000000
11
11.0335843002
21
21.2902304960
31
0.0000000000
11
11.1884405424
21
21.3314542856
31
0.0000000000
11
11.3484224727
21
21.3676794626
31
0.0000000000
11
11.5127338368
21
21.3987262522
31
0.0000000000
11
11.6808653165
21
21.4244981010
31
0.0000000000
11
11.8519529801
21
21.4448628977
31
0.0000000000
11
12.0254875117
21
21.4597598728
31
0.0000000000
11
12.2005624691
21
21.4691113547
31
0.0000000000
11
12.3766653060
21
21.4728899679
31
0.0000000000
11
12.5528736444
21
21.4710759084
31
0.0000000000
11
12.7286682421
21
21.4636746557
31
0.0000000000
11
12.9031375147
21
21.4507244297
31
0.0000000000
11
13.0757525839
21
21.4322647515
31
0.0000000000
11
13.2456384821
21
21.4083888827
31
0.0000000000
11
13.4122550027
21
21.3791731458
31
0.0000000000
11
13.5747875384
21
21.3447599110
31
0.0000000000
11
13.7326849383
21
21.3052664276
31
0.0000000000
11
13.8852133798
21
21.2608755930
31
0.0000000000
11
14.0318141386
21
21.2117507417
31
0.0000000000
11
14.1718499848
21
21.1581045560
31
0.0000000000
0
SPLINE
5
358
100
AcDbEntity
8
0
100
AcDbSpline
62
0
6
CONTINUOUS
70
0
71
3
72
11
73
7
74
5
42
0.0000001000
43
0.0000001000
44
0.0000000001
12
0.3930951624
22
-0.2404280803
32
0.0000000000
13
0.3161242496
23
-0.3354205767
33
0.0000000000
40
0.0000000000
40
0.0000000000
40
0.0000000000
40
0.0000000000
40
0.2774716433
40
0.5426639157
40
0.7955853492
40
1.0000000000
40
1.0000000000
40
1.0000000000
40
1.0000000000
10
14.5641079191
20
20.9619755888
30
0.0000000000
10
14.6004655060
20
20.9397382640
30
0.0000000000
10
14.6703679642
20
20.8942302636
30
0.0000000000
10
14.7684514557
20
20.8212015933
30
0.0000000000
10
14.8527574152
20
20.7488802165
30
0.0000000000
10
14.9027686449
20
20.6994669125
30
0.0000000000
10
14.9243087876
20
20.6766119525
30
0.0000000000
11
14.5641079191
21
20.9619755888
31
0.0000000000
11
14.6711653073
21
20.8920751574
31
0.0000000000
11
14.7690680188
21
20.8189482735
31
0.0000000000
11
14.8573922098
21
20.7429127918
31
0.0000000000
11
14.9243087876
21
20.6766119525
31
0.0000000000
0
SPLINE
5
359
100
AcDbEntity
8
0
100
AcDbSpline
62
0
6
CONTINUOUS
70
0
71
3
72
9
73
5
74
3
42
0.0000001000
43
0.0000001000
44
0.0000000001
12
0.0124629561
22
-0.1100286030
32
0.0000000000
13
0.0000000000
23
-0.1107321939
33
0.0000000000
40
0.0000000000
40
0.0000000000
40
0.0000000000
40
0.0000000000
40
0.4925884718
40
1.0000000000
40
1.0000000000
40
1.0000000000
40
1.0000000000
10
14.0105744222
20
23.7248936927
30
0.0000000000
10
14.0126207917
20
23.7068274189
30
0.0000000000
10
14.0156632663
20
23.6700185261
30
0.0000000000
10
14.0166314091
20
23.6331002038
30
0.0000000000
10
14.0166314091
20
23.6143712732
30
0.0000000000
11
14.0105744222
21
23.7248936927
31
0.0000000000
11
14.0151148446
21
23.6705375940
31
0.0000000000
11
14.0166314091
21
23.6143712732
31
0.0000000000
0
SPLINE
5
35A
100
AcDbEntity
8
0
100
AcDbSpline
62
0
6
CONTINUOUS
70
0
71
3
72
20
73
16
74
14
42
0.0000001000
43
0.0000001000
44
0.0000000001
12
-0.0000729198
22
1.3092990519
32
0.0000000000
13
1.1661523550
23
0.5933426289
33
0.0000000000
40
0.0000000000
40
0.0000000000
40
0.0000000000
40
0.0000000000
40
0.0121579206
40
0.0793381828
40
0.1474699993
40
0.2173091616
40
0.2895314228
40
0.3647117810
40
0.4433153555
40
0.5256974749
40
0.6121097639
40
0.7027093542
40
0.7975691664
40
0.8966880268
40
1.0000000000
40
1.0000000000
40
1.0000000000
40
1.0000000000
10
9.0056339573
20
20.6158338376
30
0.0000000000
10
9.0056336618
20
20.6211399556
30
0.0000000000
10
9.0060327942
20
20.6557656236
30
0.0000000000
10
9.0116543621
20
20.7200118860
30
0.0000000000
10
9.0306385793
20
20.8076833135
30
0.0000000000
10
9.0607820325
20
20.8944834840
30
0.0000000000
10
9.1019210431
20
20.9800456516
30
0.0000000000
10
9.1538509058
20
21.0640255423
30
0.0000000000
10
9.2163324974
20
21.1460964539
30
0.0000000000
10
9.2890943535
20
21.2259441118
30
0.0000000000
10
9.3718322195
20
21.3032633981
30
0.0000000000
10
9.4642073300
20
21.3777569476
30
0.0000000000
10
9.5658469360
20
21.4491362593
30
0.0000000000
10
9.6763378435
20
21.5171198368
30
0.0000000000
10
9.7540354775
20
21.5591509434
30
0.0000000000
10
9.7941946445
20
21.5795840760
30
0.0000000000
11
9.0056339573
21
20.6158338376
31
0.0000000000
11
9.0058176380
21
20.6317507068
31
0.0000000000
11
9.0134331284
21
20.7193202885
31
0.0000000000
11
9.0321920947
21
20.8064693325
31
0.0000000000
11
9.0620183062
21
20.8928436912
31
0.0000000000
11
9.1027905580
21
20.9780923653
31
0.0000000000
11
9.1543431640
21
21.0618689299
31
0.0000000000
11
9.2164666301
21
21.1438329422
31
0.0000000000
11
9.2889085050
21
21.2236513251
31
0.0000000000
11
9.3713744068
21
21.3009997209
31
0.0000000000
11
9.4635292191
21
21.3755638089
31
0.0000000000
11
9.5649984522
21
21.4470405830
31
0.0000000000
11
9.6753697660
21
21.5151395834
31
0.0000000000
11
9.7941946445
21
21.5795840760
31
0.0000000000
0
SPLINE
5
35B
100
AcDbEntity
8
0
100
AcDbSpline
62
9
6
CONTINUOUS
70
0
71
3
72
25
73
21
74
19
42
0.0000001000
43
0.0000001000
44
0.0000000001
12
0.9805003859
22
0.4902423243
32
0.0000000000
13
1.0206651721
23
-0.3999514344
33
0.0000000000
40
0.0000000000
40
0.0000000000
40
0.0000000000
40
0.0000000000
40
0.0486159936
40
0.0993722266
40
0.1520748349
40
0.2065079021
40
0.2624326998
40
0.3195922882
40
0.3777135757
40
0.4365142592
40
0.4957056498
40
0.5549977874
40
0.6141011718
40
0.6727315420
40
0.7306113606
40
0.7874746053
40
0.8430698023
40
0.8971631016
40
0.9495383397
40
1.0000000000
40
1.0000000000
40
1.0000000000
40
1.0000000000
10
-2.0022676761
20
22.0935054711
30
0.0000000000
10
-1.9863783426
20
22.1014500104
30
0.0000000000
10
-1.9533641487
20
22.1166337584
30
0.0000000000
10
-1.9015891989
20
22.1368902025
30
0.0000000000
10
-1.8467856476
20
22.1550102673
30
0.0000000000
10
-1.7893280900
20
22.1708728835
30
0.0000000000
10
-1.7296016591
20
22.1843765139
30
0.0000000000
10
-1.6680064883
20
22.1954359866
30
0.0000000000
10
-1.6049532200
20
22.2039836208
30
0.0000000000
10
-1.5408604195
20
22.2099692966
30
0.0000000000
10
-1.4761501428
20
22.2133606672
30
0.0000000000
10
-1.4112453526
20
22.2141429155
30
0.0000000000
10
-1.3465665142
20
22.2123184583
30
0.0000000000
10
-1.2825295011
20
22.2079065173
30
0.0000000000
10
-1.2195424677
20
22.2009425885
30
0.0000000000
10
-1.1580033662
20
22.1914777767
30
0.0000000000
10
-1.0982975148
20
22.1795779516
30
0.0000000000
10
-1.0407957042
20
22.1653228380
30
0.0000000000
10
-0.9858578783
20
22.1488067457
30
0.0000000000
10
-0.9504671953
20
22.1361081453
30
0.0000000000
10
-0.9332990423
20
22.1293807408
30
0.0000000000
11
-2.0022676761
21
22.0935054711
31
0.0000000000
11
-1.9538794616
21
22.1158406519
31
0.0000000000
11
-1.9020865574
21
22.1361718248
31
0.0000000000
11
-1.8472495434
21
22.1543584457
31
0.0000000000
11
-1.7897418004
21
22.1702801927
31
0.0000000000
11
-1.7299524557
21
22.1838341125
31
0.0000000000
11
-1.6682835448
21
22.1949346777
31
0.0000000000
11
-1.6051494941
21
22.2035136002
31
0.0000000000
11
-1.5409709781
21
22.2095206318
31
0.0000000000
11
-1.4761729251
21
22.2129233229
31
0.0000000000
11
-1.4111798739
21
22.2137069273
31
0.0000000000
11
-1.3464149487
21
22.2118739613
31
0.0000000000
11
-1.2822954858
21
22.2074437962
31
0.0000000000
11
-1.2192323194
21
22.2004522030
31
0.0000000000
11
-1.1576255721
21
22.1909506346
31
0.0000000000
11
-1.0978625940
21
22.1790053734
31
0.0000000000
11
-1.0403161624
21
22.1646966747
31
0.0000000000
11
-0.9853462731
21
22.1481188521
31
0.0000000000
11
-0.9332990423
21
22.1293807408
31
0.0000000000
0
SPLINE
5
35C
100
AcDbEntity
8
0
100
AcDbSpline
62
9
6
CONTINUOUS
70
0
71
3
72
26
73
22
74
20
42
0.0000001000
43
0.0000001000
44
0.0000000001
12
-0.0005214195
22
-1.0221635251
32
0.0000000000
13
-1.0139448235
23
-0.1286179433
33
0.0000000000
40
0.0000000000
40
0.0000000000
40
0.0000000000
40
0.0000000000
40
0.0674257495
40
0.1907173538
40
0.2991261505
40
0.3953032211
40
0.4806040448
40
0.5558399368
40
0.6218785916
40
0.6798360493
40
0.7309293285
40
0.7759359066
40
0.8150785403
40
0.8486716191
40
0.8773326122
40
0.9024372078
40
0.9250137747
40
0.9455672582
40
0.9645586701
40
0.9825132573
40
1.0000000000
40
1.0000000000
40
1.0000000000
40
1.0000000000
10
19.4966885170
20
16.6678343217
30
0.0000000000
10
19.4966767980
20
16.6448609411
30
0.0000000000
10
19.4959039350
20
16.5798801682
30
0.0000000000
10
19.4913996662
20
16.4780399469
30
0.0000000000
10
19.4819025752
20
16.3667106309
30
0.0000000000
10
19.4696813257
20
16.2686836576
30
0.0000000000
10
19.4555231337
20
16.1823552646
30
0.0000000000
10
19.4400409148
20
16.1067107700
30
0.0000000000
10
19.4236966156
20
16.0408105548
30
0.0000000000
10
19.4067780779
20
15.9835866847
30
0.0000000000
10
19.3894399448
20
15.9340223981
30
0.0000000000
10
19.3718226934
20
15.8914182768
30
0.0000000000
10
19.3541461642
20
15.8553745570
30
0.0000000000
10
19.3366892858
20
15.8255244105
30
0.0000000000
10
19.3195600671
20
15.8011387564
30
0.0000000000
10
19.3026454691
20
15.7813240141
30
0.0000000000
10
19.2856984051
20
15.7653360923
30
0.0000000000
10
19.2685892125
20
15.7527777534
30
0.0000000000
10
19.2513052819
20
15.7434154762
30
0.0000000000
10
19.2338219755
20
15.7370399511
30
0.0000000000
10
19.2219383086
20
15.7346233938
30
0.0000000000
10
19.2160281112
20
15.7338736908
30
0.0000000000
11
19.4966885170
21
16.6678343217
31
0.0000000000
11
19.4958679772
21
16.5989208158
31
0.0000000000
11
19.4902631658
21
16.4730328979
31
0.0000000000
11
19.4807903850
21
16.3626372131
31
0.0000000000
11
19.4685605393
21
16.2651012818
31
0.0000000000
11
19.4543706709
21
16.1790803997
31
0.0000000000
11
19.4388633335
21
16.1037639436
31
0.0000000000
11
19.4225204609
21
16.0382762651
31
0.0000000000
11
19.4056245676
21
15.9815003927
31
0.0000000000
11
19.3882735473
21
15.9322463140
31
0.0000000000
11
19.3705806573
21
15.8897851651
31
0.0000000000
11
19.3528488538
21
15.8539228800
31
0.0000000000
11
19.3354066433
21
15.8243488166
31
0.0000000000
11
19.3184733796
21
15.8004453481
31
0.0000000000
11
19.3017310943
21
15.7810015276
31
0.0000000000
11
19.2848762644
21
15.7652420113
31
0.0000000000
11
19.2678900295
21
15.7528821626
31
0.0000000000
11
19.2507925365
21
15.7436927594
31
0.0000000000
11
19.2335433269
21
15.7374303200
31
0.0000000000
11
19.2160281112
21
15.7338736908
31
0.0000000000
0
SPLINE
5
35D
100
AcDbEntity
8
0
100
AcDbSpline
62
9
6
CONTINUOUS
70
0
71
3
72
16
73
12
74
10
42
0.0000001000
43
0.0000001000
44
0.0000000001
12
-0.4035520321
22
0.2018036023
32
0.0000000000
13
-0.4066845390
23
-0.1946481669
33
0.0000000000
40
0.0000000000
40
0.0000000000
40
0.0000000000
40
0.0000000000
40
0.0179524839
40
0.1292323758
40
0.2419262945
40
0.3571674186
40
0.4759509126
40
0.5990963966
40
0.7272300812
40
0.8607829722
40
1.0000000000
40
1.0000000000
40
1.0000000000
40
1.0000000000
10
12.3673886635
20
24.8499195426
30
0.0000000000
10
12.3649737430
20
24.8511271679
30
0.0000000000
10
12.3474958518
20
24.8596324151
30
0.0000000000
10
12.3135625123
20
24.8729873347
30
0.0000000000
10
12.2639387899
20
24.8852811618
30
0.0000000000
10
12.2120448087
20
24.8912999301
30
0.0000000000
10
12.1582449300
20
24.8910212159
30
0.0000000000
10
12.1029065422
20
24.8844676450
30
0.0000000000
10
12.0463974380
20
24.8717011464
30
0.0000000000
10
11.9890936544
20
24.8528235788
30
0.0000000000
10
11.9513883782
20
24.8365892415
30
0.0000000000
10
11.9325159073
20
24.8275564618
30
0.0000000000
11
12.3673886635
21
24.8499195426
31
0.0000000000
11
12.3601052976
21
24.8534637398
31
0.0000000000
11
12.3134276355
21
24.8718609799
31
0.0000000000
11
12.2641229917
21
24.8841367499
31
0.0000000000
11
12.2125207280
21
24.8902090459
31
0.0000000000
11
12.1589655550
21
24.8900373042
31
0.0000000000
11
12.1038152285
21
24.8836226720
31
0.0000000000
11
12.0474381608
21
24.8710080000
31
0.0000000000
11
11.9902109584
21
24.8522775559
31
0.0000000000
11
11.9325159073
21
24.8275564618
31
0.0000000000
0
SPLINE
5
35E
100
AcDbEntity
8
0
100
AcDbSpline
62
9
6
CONTINUOUS
70
0
71
3
72
43
73
39
74
37
42
0.0000001000
43
0.0000001000
44
0.0000000001
12
4.2552928214
22
-3.4425808826
32
0.0000000000
13
-4.5974354542
23
-2.9735249299
33
0.0000000000
40
0.0000000000
40
0.0000000000
40
0.0000000000
40
0.0000000000
40
0.0022985806
40
0.0325445077
40
0.0634583180
40
0.0949837642
40
0.1270584270
40
0.1596146311
40
0.1925801677
40
0.2258792338
40
0.2594329872
40
0.2931605269
40
0.3269793263
40
0.3608062542
40
0.3945579387
40
0.4281518169
40
0.4615064879
40
0.4945427719
40
0.5271841134
40
0.5593576343
40
0.5909946470
40
0.6220316964
40
0.6524112384
40
0.6820826797
40
0.7110032666
40
0.7391391426
40
0.7664664673
40
0.7929725007
40
0.8186569128
40
0.8435328373
40
0.8676281991
40
0.8909865085
40
0.9136677882
40
0.9357485884
40
0.9573217923
40
0.9784950964
40
0.9993889399
40
1.0000000000
40
1.0000000000
40
1.0000000000
40
1.0000000000
10
19.4967385438
20
19.0989207364
30
0.0000000000
10
19.4999989217
20
19.0962830531
30
0.0000000000
10
19.5460899094
20
19.0588495298
30
0.0000000000
10
19.6339997212
20
18.9834561643
30
0.0000000000
10
19.7570792520
20
18.8674325267
30
0.0000000000
10
19.8771237613
20
18.7435861735
30
0.0000000000
10
19.9936625803
20
18.6124036593
30
0.0000000000
10
20.1062384081
20
18.4744004567
30
0.0000000000
10
20.2144093097
20
18.3301188275
30
0.0000000000
10
20.3177503506
20
18.1801259172
30
0.0000000000
10
20.4158555406
20
18.0250112380
30
0.0000000000
10
20.5083392302
20
17.8653846996
30
0.0000000000
10
20.5948379342
20
17.7018737679
30
0.0000000000
10
20.6750115118
20
17.5351214552
30
0.0000000000
10
20.7485448020
20
17.3657832368
30
0.0000000000
10
20.8151486093
20
17.1945249958
30
0.0000000000
10
20.8745610912
20
17.0220197976
30
0.0000000000
10
20.9265485610
20
16.8489457699
30
0.0000000000
10
20.9709065772
20
16.6759828451
30
0.0000000000
10
21.0074605623
20
16.5038105513
30
0.0000000000
10
21.0360665572
20
16.3331048355
30
0.0000000000
10
21.0566116336
20
16.1645357549
30
0.0000000000
10
21.0690142933
20
15.9987644893
30
0.0000000000
10
21.0732246314
20
15.8364409532
30
0.0000000000
10
21.0692243770
20
15.6782011061
30
0.0000000000
10
21.0570267572
20
15.5246645597
30
0.0000000000
10
21.0366762045
20
15.3764323084
30
0.0000000000
10
21.0082479070
20
15.2340844867
30
0.0000000000
10
20.9718472890
20
15.0981786683
30
0.0000000000
10
20.9276093681
20
14.9692479965
30
0.0000000000
10
20.8756983141
20
14.8478001671
30
0.0000000000
10
20.8163070154
20
14.7343160486
30
0.0000000000
10
20.7496572926
20
14.6292491302
30
0.0000000000
10
20.6760002626
20
14.5330241534
30
0.0000000000
10
20.5956175721
20
14.4460359408
30
0.0000000000
10
20.5088223206
20
14.3686466571
30
0.0000000000
10
20.4457253553
20
14.3228069418
30
0.0000000000
10
20.4128015241
20
14.3014424553
30
0.0000000000
10
20.4118650876
20
14.3008367879
30
0.0000000000
11
19.4967385438
21
19.0989207364
31
0.0000000000
11
19.5065046060
21
19.0909891359
31
0.0000000000
11
19.6322161408
21
18.9832964510
31
0.0000000000
11
19.7553822947
21
18.8673020854
31
0.0000000000
11
19.8755174604
21
18.7434633668
31
0.0000000000
11
19.9921479425
21
18.6122685971
31
0.0000000000
11
20.1048139981
21
18.4742349266
31
0.0000000000
11
20.2130712927
21
18.3299067384
31
0.0000000000
11
20.3164931704
21
18.1798528452
31
0.0000000000
11
20.4146716839
21
18.0246651372
31
0.0000000000
11
20.5072199574
21
17.8649551343
31
0.0000000000
11
20.5937728890
21
17.7013528929
31
0.0000000000
11
20.6739894465
21
17.5345030301
31
0.0000000000
11
20.7475531561
21
17.3650638098
31
0.0000000000
11
20.8141741745
21
17.1937028281
31
0.0000000000
11
20.8735896659
21
17.0210961434
31
0.0000000000
11
20.9255655232
21
16.8479238580
31
0.0000000000
11
20.9698967032
21
16.6748691273
31
0.0000000000
11
21.0064085162
21
16.5026138895
31
0.0000000000
11
21.0349569424
21
16.3318375922
31
0.0000000000
11
21.0554294682
21
16.1632133023
31
0.0000000000
11
21.0677453536
21
15.9974060248
31
0.0000000000
11
21.0718560518
21
15.8350693730
31
0.0000000000
11
21.0677453521
21
15.6768434199
31
0.0000000000
11
21.0554294653
21
15.5233520289
31
0.0000000000
11
21.0349569381
21
15.3752002657
31
0.0000000000
11
21.0064085105
21
15.2329723958
31
0.0000000000
11
20.9698966960
21
15.0972289723
31
0.0000000000
11
20.9255655146
21
14.9685054227
31
0.0000000000
11
20.8735896561
21
14.8473089964
31
0.0000000000
11
20.8141741632
21
14.7341178043
31
0.0000000000
11
20.7475531439
21
14.6293778431
31
0.0000000000
11
20.6739894327
21
14.5335023336
31
0.0000000000
11
20.5937728746
21
14.4468690306
31
0.0000000000
11
20.5072199412
21
14.3698197221
31
0.0000000000
11
20.4146716675
21
14.3026579952
31
0.0000000000
11
20.4118650876
21
14.3008367879
31
0.0000000000
0
SPLINE
5
35F
100
AcDbEntity
8
0
100
AcDbSpline
62
9
6
CONTINUOUS
70
0
71
3
72
26
73
22
74
20
42
0.0000001000
43
0.0000001000
44
0.0000000001
12
0.5615104754
22
0.2085706889
32
0.0000000000
13
-0.4381901019
23
-0.4088862111
33
0.0000000000
40
0.0000000000
40
0.0000000000
40
0.0000000000
40
0.0000000000
40
0.0377573488
40
0.0756977201
40
0.1140731065
40
0.1527760662
40
0.1917232622
40
0.2312908615
40
0.2722801515
40
0.3155014985
40
0.3615401668
40
0.4107829529
40
0.4635783906
40
0.5207341799
40
0.5837348794
40
0.6526510617
40
0.7256294197
40
0.8022606322
40
0.8814278352
40
0.9644966576
40
1.0000000000
40
1.0000000000
40
1.0000000000
40
1.0000000000
10
19.3335824166
20
14.0987801885
30
0.0000000000
10
19.3406494656
20
14.1014052139
30
0.0000000000
10
19.3550435395
20
14.1060879748
30
0.0000000000
10
19.3773065819
20
14.1110728599
30
0.0000000000
10
19.4001842340
20
14.1136119319
30
0.0000000000
10
19.4234133985
20
14.1133073532
30
0.0000000000
10
19.4466374340
20
14.1098606946
30
0.0000000000
10
19.4695958953
20
14.1030750562
30
0.0000000000
10
19.4921392518
20
14.0927440221
30
0.0000000000
10
19.5140744877
20
14.0786107879
30
0.0000000000
10
19.5350343967
20
14.0604287162
30
0.0000000000
10
19.5544606104
20
14.0380069388
30
0.0000000000
10
19.5716487291
20
14.0111325094
30
0.0000000000
10
19.5856787915
20
13.9794211317
30
0.0000000000
10
19.5950315204
20
13.9426416564
30
0.0000000000
10
19.5975192481
20
13.9015334749
30
0.0000000000
10
19.5911684825
20
13.8580430788
30
0.0000000000
10
19.5753018459
20
13.8148766444
30
0.0000000000
10
19.5505750517
20
13.7738076600
30
0.0000000000
10
19.5249500421
20
13.7435870663
30
0.0000000000
10
19.5080328396
20
13.7269965169
30
0.0000000000
10
19.5028471019
20
13.7221575745
30
0.0000000000
11
19.3335824166
21
14.0987801885
31
0.0000000000
11
19.3551031412
21
14.1057346020
31
0.0000000000
11
19.3772922083
21
14.1106459820
31
0.0000000000
11
19.4001439853
21
14.1131327713
31
0.0000000000
11
19.4233243751
21
14.1127914150
31
0.0000000000
11
19.4463983488
21
14.1093500063
31
0.0000000000
11
19.4691286650
21
14.1026372187
31
0.0000000000
11
19.4914590531
21
14.0924306346
31
0.0000000000
11
19.5132426139
21
14.0784400174
31
0.0000000000
11
19.5341014479
21
14.0604012316
31
0.0000000000
11
19.5534427245
21
14.0381314854
31
0.0000000000
11
19.5704973119
21
14.0115000505
31
0.0000000000
11
19.5843440215
21
13.9801890791
31
0.0000000000
11
19.5936158806
21
13.9436086941
31
0.0000000000
11
19.5960907853
21
13.9024024594
31
0.0000000000
11
19.5898403031
21
13.8591379187
31
0.0000000000
11
19.5741900709
21
13.8159865361
31
0.0000000000
11
19.5499716948
21
13.7752164094
31
0.0000000000
11
19.5180245744
21
13.7370689827
31
0.0000000000
11
19.5028471019
21
13.7221575745
31
0.0000000000
0
SPLINE
5
360
100
AcDbEntity
8
0
100
AcDbSpline
62
9
6
CONTINUOUS
70
0
71
3
72
8
73
4
74
2
42
0.0000001000
43
0.0000001000
44
0.0000000001
12
-0.0037891670
22
-0.0035357671
32
0.0000000000
13
-0.0038311808
23
-0.0034903425
33
0.0000000000
40
0.0000000000
40
0.0000000000
40
0.0000000000
40
0.0000000000
40
1.0000000000
40
1.0000000000
40
1.0000000000
40
1.0000000000
10
19.5028471019
20
13.7221575745
30
0.0000000000
10
19.5015840462
20
13.7209789854
30
0.0000000000
10
19.5003138526
20
13.7198080292
30
0.0000000000
10
19.4990367923
20
13.7186445817
30
0.0000000000
11
19.5028471019
21
13.7221575745
31
0.0000000000
11
19.4990367923
21
13.7186445817
31
0.0000000000
0
SPLINE
5
361
100
AcDbEntity
8
0
100
AcDbSpline
62
9
6
CONTINUOUS
70
0
71
3
72
8
73
4
74
2
42
0.0000001000
43
0.0000001000
44
0.0000000001
12
-0.0003098405
22
-0.0002822758
32
0.0000000000
13
-0.0003101095
23
-0.0002819813
33
0.0000000000
40
0.0000000000
40
0.0000000000
40
0.0000000000
40
0.0000000000
40
1.0000000000
40
1.0000000000
40
1.0000000000
40
1.0000000000
10
19.4990367923
20
13.7186445817
30
0.0000000000
10
19.4989335121
20
13.7185504898
30
0.0000000000
10
19.4988301871
20
13.7184564470
30
0.0000000000
10
19.4987268172
20
13.7183624532
30
0.0000000000
11
19.4990367923
21
13.7186445817
31
0.0000000000
11
19.4987268172
21
13.7183624532
31
0.0000000000
0
SPLINE
5
362
100
AcDbEntity
8
0
100
AcDbSpline
62
9
6
CONTINUOUS
70
0
71
3
72
8
73
4
74
2
42
0.0000001000
43
0.0000001000
44
0.0000000001
12
-0.0019841621
22
-0.0018041902
32
0.0000000000
13
-0.0019950456
23
-0.0017921949
33
0.0000000000
40
0.0000000000
40
0.0000000000
40
0.0000000000
40
0.0000000000
40
1.0000000000
40
1.0000000000
40
1.0000000000
40
1.0000000000
10
19.4987268172
20
13.7183624532
30
0.0000000000
10
19.4980654298
20
13.7177610565
30
0.0000000000
10
19.4974022098
20
13.7171616676
30
0.0000000000
10
19.4967371946
20
13.7165642693
30
0.0000000000
11
19.4987268172
21
13.7183624532
31
0.0000000000
11
19.4967371946
21
13.7165642693
31
0.0000000000
0
SPLINE
5
363
100
AcDbEntity
8
0
100
AcDbSpline
62
0
6
CONTINUOUS
70
0
71
3
72
52
73
48
74
46
42
0.0000001000
43
0.0000001000
44
0.0000000001
12
2.8079739238
22
2.2944628981
32
0.0000000000
13
-3.5426822608
23
-0.7737441094
33
0.0000000000
40
0.0000000000
40
0.0000000000
40
0.0000000000
40
0.0000000000
40
0.0616895185
40
0.1178710148
40
0.1690316542
40
0.2155920829
40
0.2579366134
40
0.2964161556
40
0.3313507892
40
0.3630320978
40
0.3917252254
40
0.4176706828
40
0.4410859176
40
0.4621666821
40
0.4810882973
40
0.4980069905
40
0.5130616315
40
0.5263774166
40
0.5380676546
40
0.5482415958
40
0.5570798856
40
0.5648565354
40
0.5718435743
40
0.5782612334
40
0.5842929554
40
0.5901021671
40
0.5958470460
40
0.6016968971
40
0.6078480649
40
0.6145013308
40
0.6218225630
40
0.6299699289
40
0.6391290884
40
0.6495006582
40
0.6612904863
40
0.6747075774
40
0.6899651128
40
0.7072832787
40
0.7268926923
40
0.7490378563
40
0.7739804592
40
0.8020025100
40
0.8334093639
40
0.8685327269
40
0.9077336730
40
0.9514058224
40
1.0000000000
40
1.0000000000
40
1.0000000000
40
1.0000000000
10
19.3335723104
20
14.0987718505
30
0.0000000000
10
19.3913131635
20
14.1459532876
30
0.0000000000
10
19.5011904443
20
14.2366553988
30
0.0000000000
10
19.6572674798
20
14.3685112949
30
0.0000000000
10
19.7978761997
20
14.4903189676
30
0.0000000000
10
19.9243313792
20
14.6028980091
30
0.0000000000
10
20.0378087565
20
14.7069780488
30
0.0000000000
10
20.1393785588
20
14.8032245846
30
0.0000000000
10
20.2300137408
20
14.8922433224
30
0.0000000000
10
20.3105973715
20
14.9745836409
30
0.0000000000
10
20.3819294894
20
15.0507412586
30
0.0000000000
10
20.4447335503
20
15.1211599636
30
0.0000000000
10
20.4996627733
20
15.1862323229
30
0.0000000000
10
20.5473068547
20
15.2462993278
30
0.0000000000
10
20.5881997872
20
15.3016491099
30
0.0000000000
10
20.6228298724
20
15.3525152692
30
0.0000000000
10
20.6516539530
20
15.3990771756
30
0.0000000000
10
20.6751147096
20
15.4414612968
30
0.0000000000
10
20.6936640511
20
15.4797511765
30
0.0000000000
10
20.7078190815
20
15.5140829507
30
0.0000000000
10
20.7181870768
20
15.5447849398
30
0.0000000000
10
20.7253892670
20
15.5724156577
30
0.0000000000
10
20.7299357575
20
15.5976388454
30
0.0000000000
10
20.7321575526
20
15.6210570100
30
0.0000000000
10
20.7322114585
20
15.6431609112
30
0.0000000000
10
20.7300956818
20
15.6643525600
30
0.0000000000
10
20.7256481003
20
15.6849640222
30
0.0000000000
10
20.7185272116
20
15.7052619366
30
0.0000000000
10
20.7082020473
20
15.7253914059
30
0.0000000000
10
20.6940205414
20
15.7452665570
30
0.0000000000
10
20.6753604846
20
15.7645542905
30
0.0000000000
10
20.6517268452
20
15.7828113067
30
0.0000000000
10
20.6227071239
20
15.7996321910
30
0.0000000000
10
20.5878904368
20
15.8146888360
30
0.0000000000
10
20.5468364625
20
15.8277024422
30
0.0000000000
10
20.4990611145
20
15.8384164178
30
0.0000000000
10
20.4440279564
20
15.8465776935
30
0.0000000000
10
20.3811423967
20
15.8519242720
30
0.0000000000
10
20.3097461029
20
15.8541767945
30
0.0000000000
10
20.2291111913
20
15.8530323118
30
0.0000000000
10
20.1384341035
20
15.8481592460
30
0.0000000000
10
20.0368290966
20
15.8391929865
30
0.0000000000
10
19.9233212330
20
15.8257317883
30
0.0000000000
10
19.7968388605
20
15.8073327869
30
0.0000000000
10
19.6562051442
20
15.7835078848
30
0.0000000000
10
19.5001044343
20
15.7537149763
30
0.0000000000
10
19.3909569049
20
15.7307763632
30
0.0000000000
10
19.3335723280
20
15.7182432103
30
0.0000000000
11
19.3335723104
21
14.0987718505
31
0.0000000000
11
19.5060400796
21
14.2412348835
31
0.0000000000
11
19.6616171909
21
14.3727629146
31
0.0000000000
11
19.8017899551
21
14.4942892910
31
0.0000000000
11
19.9278449372
21
14.6066107592
31
0.0000000000
11
20.0409545401
21
14.7104551213
31
0.0000000000
11
20.1421860431
21
14.8064863224
31
0.0000000000
11
20.2325096380
21
14.8953086333
31
0.0000000000
11
20.3128058653
21
14.9774701550
31
0.0000000000
11
20.3838724362
21
15.0534654476
31
0.0000000000
11
20.4464306752
21
15.1237372291
31
0.0000000000
11
20.5011318603
21
15.1886770252
31
0.0000000000
11
20.5485639120
21
15.2486246806
31
0.0000000000
11
20.5892591956
21
15.3038668490
31
0.0000000000
11
20.6237045127
21
15.3546349295
31
0.0000000000
11
20.6523546939
21
15.4011037200
31
0.0000000000
11
20.6756528619
21
15.4433966924
31
0.0000000000
11
20.6940495720
21
15.4815878332
31
0.0000000000
11
20.7080319179
21
15.5157281848
31
0.0000000000
11
20.7182130269
21
15.5461174206
31
0.0000000000
11
20.7252594799
21
15.5734224919
31
0.0000000000
11
20.7296925614
21
15.5983680043
31
0.0000000000
11
20.7318332614
21
15.6215410089
31
0.0000000000
11
20.7318333828
21
15.6434131984
31
0.0000000000
11
20.7296929396
21
15.6643694957
31
0.0000000000
11
20.7252601456
21
15.6847244525
31
0.0000000000
11
20.7182140350
21
15.7047327150
31
0.0000000000
11
20.7080333229
21
15.7245791392
31
0.0000000000
11
20.6940513531
21
15.7442405158
31
0.0000000000
11
20.6756549613
21
15.7633815676
31
0.0000000000
11
20.6523570560
21
15.7815488733
31
0.0000000000
11
20.6237070479
21
15.7983498438
31
0.0000000000
11
20.5892618096
21
15.8134490569
31
0.0000000000
11
20.5485665084
21
15.8265503028
31
0.0000000000
11
20.5011343482
21
15.8373808710
31
0.0000000000
11
20.4464329730
21
15.8456761282
31
0.0000000000
11
20.3838744757
21
15.8511671069
31
0.0000000000
11
20.3128075945
21
15.8535709159
31
0.0000000000
11
20.2325110231
21
15.8525833231
31
0.0000000000
11
20.1421870696
21
15.8478728398
31
0.0000000000
11
20.0409552145
21
15.8390757481
31
0.0000000000
11
19.9278452892
21
15.8257916646
31
0.0000000000
11
19.8017900397
21
15.8075793448
31
0.0000000000
11
19.6616170913
21
15.7839525436
31
0.0000000000
11
19.5060399087
21
15.7543757435
31
0.0000000000
11
19.3335723280
21
15.7182432103
31
0.0000000000
0
SPLINE
5
364
100
AcDbEntity
8
0
100
AcDbSpline
62
9
6
CONTINUOUS
70
0
71
3
72
26
73
22
74
20
42
0.0000001000
43
0.0000001000
44
0.0000000001
12
0.5182266527
22
-1.6358408153
32
0.0000000000
13
-1.2094090282
23
-1.2168669022
33
0.0000000000
40
0.0000000000
40
0.0000000000
40
0.0000000000
40
0.0000000000
40
0.0440734084
40
0.1241445508
40
0.2083551273
40
0.2952771738
40
0.3822849410
40
0.4655367228
40
0.5404970256
40
0.6066964934
40
0.6657921634
40
0.7187710587
40
0.7661151560
40
0.8082608078
40
0.8457712780
40
0.8793250672
40
0.9094940059
40
0.9365058989
40
0.9604062189
40
0.9814093742
40
1.0000000000
40
1.0000000000
40
1.0000000000
40
1.0000000000
10
19.4967832463
20
17.3700375275
30
0.0000000000
10
19.5043965846
20
17.3460051674
30
0.0000000000
10
19.5245148024
20
17.2778906160
30
0.0000000000
10
19.5521650042
20
17.1618987413
30
0.0000000000
10
19.5762133886
20
17.0201626917
30
0.0000000000
10
19.5914708566
20
16.8732265618
30
0.0000000000
10
19.5975176186
20
16.7261815469
30
0.0000000000
10
19.5949999355
20
16.5858903928
30
0.0000000000
10
19.5857116828
20
16.4578322553
30
0.0000000000
10
19.5717577693
20
16.3441195871
30
0.0000000000
10
19.5546471448
20
16.2435784476
30
0.0000000000
10
19.5353108080
20
16.1544527425
30
0.0000000000
10
19.5144635241
20
16.0756609624
30
0.0000000000
10
19.4926696523
20
16.0063511014
30
0.0000000000
10
19.4703009136
20
15.9455675377
30
0.0000000000
10
19.4475467002
20
15.8923037938
30
0.0000000000
10
19.4245300952
20
15.8457656200
30
0.0000000000
10
19.4014550395
20
15.8055097177
30
0.0000000000
10
19.3786347634
20
15.7712530737
30
0.0000000000
10
19.3563337419
20
15.7425567524
30
0.0000000000
10
19.3410771030
20
15.7257861096
30
0.0000000000
10
19.3335825461
20
15.7182453371
30
0.0000000000
11
19.4967832463
21
17.3700375275
31
0.0000000000
11
19.5182220000
21
17.2975158725
31
0.0000000000
11
19.5501726757
21
17.1639095129
31
0.0000000000
11
19.5744360459
21
17.0214861019
31
0.0000000000
11
19.5899196153
21
16.8731647819
31
0.0000000000
11
19.5961040061
21
16.7240185686
31
0.0000000000
11
19.5935514185
21
16.5812109373
31
0.0000000000
11
19.5842229095
21
16.4529444960
31
0.0000000000
11
19.5703429369
21
16.3402210852
31
0.0000000000
11
19.5532712809
21
16.2402815423
31
0.0000000000
11
19.5339269052
21
16.1514709498
31
0.0000000000
11
19.5130697476
21
16.0729688365
31
0.0000000000
11
19.4912948713
21
16.0040184979
31
0.0000000000
11
19.4689809007
21
15.9436562229
31
0.0000000000
11
19.4462752935
21
15.8907568666
31
0.0000000000
11
19.4232370443
21
15.8444076441
31
0.0000000000
11
19.4001004562
21
15.8042535241
31
0.0000000000
11
19.3772840746
21
15.7701833406
31
0.0000000000
11
19.3551064730
21
15.7417826534
31
0.0000000000
11
19.3335825461
21
15.7182453371
31
0.0000000000
0
SPLINE
5
365
100
AcDbEntity
8
0
100
AcDbSpline
62
9
6
CONTINUOUS
70
0
71
3
72
18
73
14
74
12
42
0.0000001000
43
0.0000001000
44
0.0000000001
12
0.3421819379
22
0.1701299167
32
0.0000000000
13
0.1978664154
23
-0.3095906505
33
0.0000000000
40
0.0000000000
40
0.0000000000
40
0.0000000000
40
0.0000000000
40
0.1612065774
40
0.3104715131
40
0.4468244645
40
0.5693897844
40
0.6773973839
40
0.7701972756
40
0.8472833076
40
0.9083419999
40
0.9533820448
40
0.9831967870
40
1.0000000000
40
1.0000000000
40
1.0000000000
40
1.0000000000
10
18.8018776356
20
20.9729135500
30
0.0000000000
10
18.8202649619
20
20.9820555705
30
0.0000000000
10
18.8557681537
20
20.9994811776
30
0.0000000000
10
18.9071656806
20
21.0239353531
30
0.0000000000
10
18.9544350623
20
21.0455976848
30
0.0000000000
10
18.9972599032
20
21.0643303816
30
0.0000000000
10
19.0353552497
20
21.0800051587
30
0.0000000000
10
19.0684645332
20
21.0925571162
30
0.0000000000
10
19.0963806205
20
21.1018392265
30
0.0000000000
10
19.1189106017
20
21.1080590499
30
0.0000000000
10
19.1360499403
20
21.1106905923
30
0.0000000000
10
19.1477703386
20
21.1111645274
30
0.0000000000
10
19.1535940334
20
21.1077341073
30
0.0000000000
10
19.1547022973
20
21.1060000680
30
0.0000000000
11
18.8018776356
21
20.9729135500
31
0.0000000000
11
18.8571902904
21
21.0000344461
31
0.0000000000
11
18.9087114494
21
21.0245126216
31
0.0000000000
11
18.9560969438
21
21.0461845588
31
0.0000000000
11
18.9990302319
21
21.0649054862
31
0.0000000000
11
19.0372245133
21
21.0805503452
31
0.0000000000
11
19.0704246448
21
21.0930146262
31
0.0000000000
11
19.0984088449
21
21.1022150658
31
0.0000000000
11
19.1209901750
21
21.1080902039
31
0.0000000000
11
19.1380177888
21
21.1106007936
31
0.0000000000
11
19.1493779394
21
21.1097300640
31
0.0000000000
11
19.1547022973
21
21.1060000680
31
0.0000000000
0
SPLINE
5
366
100
AcDbEntity
8
0
100
AcDbSpline
62
0
6
CONTINUOUS
70
0
71
3
72
18
73
14
74
12
42
0.0000001000
43
0.0000001000
44
0.0000000001
12
0.3459745596
22
0.1680568266
32
0.0000000000
13
0.3443637069
23
-0.1722285845
33
0.0000000000
40
0.0000000000
40
0.0000000000
40
0.0000000000
40
0.0000000000
40
0.1297946914
40
0.2520704309
40
0.3667499221
40
0.4738432021
40
0.5734632031
40
0.6658448809
40
0.7513682582
40
0.8305847233
40
0.9042435825
40
0.9733112212
40
1.0000000000
40
1.0000000000
40
1.0000000000
40
1.0000000000
10
18.4589800596
20
21.5643243856
30
0.0000000000
10
18.4739486133
20
21.5715953469
30
0.0000000000
10
18.5033235276
20
21.5851019362
30
0.0000000000
10
18.5469593775
20
21.6026727377
30
0.0000000000
10
18.5887248105
20
21.6169382051
30
0.0000000000
10
18.6284784583
20
21.6278880885
30
0.0000000000
10
18.6660922312
20
21.6355248056
30
0.0000000000
10
18.7014504239
20
21.6398615446
30
0.0000000000
10
18.7344500992
20
21.6409206944
30
0.0000000000
10
18.7649996288
20
21.6387314937
30
0.0000000000
10
18.7930150398
20
21.6333281283
30
0.0000000000
10
18.8136639848
20
21.6263546506
30
0.0000000000
10
18.8248275219
20
21.6212000610
30
0.0000000000
10
18.8278910708
20
21.6196678708
30
0.0000000000
11
18.4589800596
21
21.5643243856
31
0.0000000000
11
18.5043631722
21
21.5851256693
31
0.0000000000
11
18.5480155072
21
21.6026299444
31
0.0000000000
11
18.5897819915
21
21.6168143168
31
0.0000000000
11
18.6295175150
21
21.6276690304
31
0.0000000000
11
18.6670876310
21
21.6351975864
31
0.0000000000
11
18.7023691728
21
21.6394166969
31
0.0000000000
11
18.7352507536
21
21.6403560729
31
0.0000000000
11
18.7656331286
21
21.6380580537
31
0.0000000000
11
18.7934294327
21
21.6325770942
31
0.0000000000
11
18.8185651931
21
21.6239791537
31
0.0000000000
11
18.8278910708
21
21.6196678708
31
0.0000000000
0
SPLINE
5
367
100
AcDbEntity
8
0
100
AcDbSpline
62
9
6
CONTINUOUS
70
0
71
3
72
19
73
15
74
13
42
0.0000001000
43
0.0000001000
44
0.0000000001
12
0.0043621578
22
1.5071270313
32
0.0000000000
13
-0.7596320570
23
1.3016950699
33
0.0000000000
40
0.0000000000
40
0.0000000000
40
0.0000000000
40
0.0000000000
40
0.0762817009
40
0.1544246992
40
0.2342915930
40
0.3157231579
40
0.3985441601
40
0.4825648517
40
0.5675828668
40
0.6533860756
40
0.7397553920
40
0.8264664344
40
0.9132904740
40
1.0000000000
40
1.0000000000
40
1.0000000000
40
1.0000000000
10
19.2160281112
20
19.5412799754
30
0.0000000000
10
19.2161390288
20
19.5796020465
30
0.0000000000
10
19.2142479808
20
19.6572009933
30
0.0000000000
10
19.2053618637
20
19.7746142670
30
0.0000000000
10
19.1904296059
20
19.8940209628
30
0.0000000000
10
19.1695155548
20
20.0149084746
30
0.0000000000
10
19.1427093825
20
20.1367630232
30
0.0000000000
10
19.1101256819
20
20.2590650958
30
0.0000000000
10
19.0719036617
20
20.3812932257
30
0.0000000000
10
19.0282065303
20
20.5029260375
30
0.0000000000
10
18.9792208535
20
20.6234446355
30
0.0000000000
10
18.9251553712
20
20.7423353273
30
0.0000000000
10
18.8662420471
20
20.8590886579
30
0.0000000000
10
18.8238334141
20
20.9352904292
30
0.0000000000
10
18.8018776356
20
20.9729135500
30
0.0000000000
11
19.2160281112
21
19.5412799754
31
0.0000000000
11
19.2133030531
21
19.6562143698
31
0.0000000000
11
19.2044829400
21
19.7736555481
31
0.0000000000
11
19.1896054234
21
19.8931026516
31
0.0000000000
11
19.1687343465
21
20.0140431980
31
0.0000000000
11
19.1419590193
21
20.1359599194
31
0.0000000000
11
19.1093939484
21
20.2583313653
31
0.0000000000
11
19.0711786028
21
20.3806333581
31
0.0000000000
11
19.0274767004
21
20.5023420203
31
0.0000000000
11
18.9784751726
21
20.6229367926
31
0.0000000000
11
18.9243835577
21
20.7419018858
31
0.0000000000
11
18.8654339247
21
20.8587268739
31
0.0000000000
11
18.8018776356
21
20.9729135500
31
0.0000000000
0
SPLINE
5
368
100
AcDbEntity
8
0
100
AcDbSpline
62
9
6
CONTINUOUS
70
0
71
3
72
17
73
13
74
11
42
0.0000001000
43
0.0000001000
44
0.0000000001
12
0.4163435503
22
0.2155681837
32
0.0000000000
13
-0.0000278342
23
0.4693695292
33
0.0000000000
40
0.0000000000
40
0.0000000000
40
0.0000000000
40
0.0000000000
40
0.1329189116
40
0.2587863602
40
0.3775375991
40
0.4893034249
40
0.5944452287
40
0.6935904860
40
0.7876608200
40
0.8778788512
40
0.9657362157
40
1.0000000000
40
1.0000000000
40
1.0000000000
40
1.0000000000
10
19.2160281112
20
19.5412799754
30
0.0000000000
10
19.2344747551
20
19.5508310048
30
0.0000000000
10
19.2698015061
20
19.5705996953
30
0.0000000000
10
19.3190707580
20
19.6031656730
30
0.0000000000
10
19.3628949682
20
19.6376543074
30
0.0000000000
10
19.4009809960
20
19.6738503124
30
0.0000000000
10
19.4330714221
20
19.7115340263
30
0.0000000000
10
19.4589366036
20
19.7504783344
30
0.0000000000
10
19.4783726062
20
19.7904439241
30
0.0000000000
10
19.4912026341
20
19.8311685265
30
0.0000000000
10
19.4960757087
20
19.8641402687
30
0.0000000000
10
19.4966870844
20
19.8832466739
30
0.0000000000
10
19.4966867665
20
19.8886074660
30
0.0000000000
11
19.2160281112
21
19.5412799754
31
0.0000000000
11
19.2703539455
21
19.5718121097
31
0.0000000000
11
19.3195115841
21
19.6044604931
31
0.0000000000
11
19.3631726470
21
19.6390070296
31
0.0000000000
11
19.4010454723
21
19.6752209437
31
0.0000000000
11
19.4328770640
21
19.7128603211
31
0.0000000000
11
19.4584547827
21
19.7516737255
31
0.0000000000
11
19.4776077657
21
19.7914018780
31
0.0000000000
11
19.4902080682
21
19.8317793888
31
0.0000000000
11
19.4961715185
21
19.8725365304
31
0.0000000000
11
19.4966867665
21
19.8886074660
31
0.0000000000
0
SPLINE
5
369
100
AcDbEntity
8
0
100
AcDbSpline
62
9
6
CONTINUOUS
70
0
71
3
72
26
73
22
74
20
42
0.0000001000
43
0.0000001000
44
0.0000000001
12
0.3680106483
22
0.3344051646
32
0.0000000000
13
0.0090292676
23
-0.4974139743
33
0.0000000000
40
0.0000000000
40
0.0000000000
40
0.0000000000
40
0.0000000000
40
0.0464085793
40
0.0898417214
40
0.1306577763
40
0.1690984428
40
0.2053893081
40
0.2400008508
40
0.2741693198
40
0.3094538645
40
0.3467273260
40
0.3869060920
40
0.4309932216
40
0.4803907825
40
0.5366838310
40
0.6011859714
40
0.6748425125
40
0.7583964693
40
0.8529138205
40
0.9606697477
40
1.0000000000
40
1.0000000000
40
1.0000000000
40
1.0000000000
10
19.2160281112
20
13.9614205567
30
0.0000000000
10
19.2217210617
20
13.9665936462
30
0.0000000000
10
19.2330015332
20
13.9763289895
30
0.0000000000
10
19.2502514442
20
13.9894495188
30
0.0000000000
10
19.2673436287
20
14.0005114421
30
0.0000000000
10
19.2843386956
20
14.0094116044
30
0.0000000000
10
19.3012703151
20
14.0159998990
30
0.0000000000
10
19.3182515337
20
14.0201249797
30
0.0000000000
10
19.3355208838
20
14.0215546737
30
0.0000000000
10
19.3532333190
20
14.0198439678
30
0.0000000000
10
19.3712500388
20
14.0144503008
30
0.0000000000
10
19.3891801084
20
14.0050110835
30
0.0000000000
10
19.4067328265
20
13.9913265564
30
0.0000000000
10
19.4237706744
20
13.9731524849
30
0.0000000000
10
19.4401673850
20
13.9501068089
30
0.0000000000
10
19.4556603781
20
13.9217686375
30
0.0000000000
10
19.4698062208
20
13.8877832317
30
0.0000000000
10
19.4820020842
20
13.8478144633
30
0.0000000000
10
19.4914680752
20
13.8013204851
30
0.0000000000
10
19.4956015487
20
13.7614207715
30
0.0000000000
10
19.4964801311
20
13.7370414513
30
0.0000000000
10
19.4965985056
20
13.7305203122
30
0.0000000000
11
19.2160281112
21
13.9614205567
31
0.0000000000
11
19.2335300927
21
13.9764610190
31
0.0000000000
11
19.2507601597
21
13.9894826496
31
0.0000000000
11
19.2678378871
21
14.0004495025
31
0.0000000000
11
19.2848084484
21
14.0092455477
31
0.0000000000
11
19.3016560769
21
14.0157111264
31
0.0000000000
11
19.3183985870
21
14.0196978612
31
0.0000000000
11
19.3353358844
21
14.0210389593
31
0.0000000000
11
19.3527977319
21
14.0193299596
31
0.0000000000
11
19.3705653271
21
14.0140543832
31
0.0000000000
11
19.3882930873
21
14.0048411113
31
0.0000000000
11
19.4056702373
21
13.9914760405
31
0.0000000000
11
19.4225842816
21
13.9736643690
31
0.0000000000
11
19.4389392740
21
13.9509475477
31
0.0000000000
11
19.4544530075
21
13.9228753168
31
0.0000000000
11
19.4686448784
21
13.8891108426
31
0.0000000000
11
19.4808698837
21
13.8494028196
31
0.0000000000
11
19.4903225771
21
13.8033643673
31
0.0000000000
11
19.4958931657
21
13.7500729724
31
0.0000000000
11
19.4965985056
21
13.7305203122
31
0.0000000000
0
SPLINE
5
36A
100
AcDbEntity
8
0
100
AcDbSpline
62
9
6
CONTINUOUS
70
0
71
3
72
8
73
4
74
2
42
0.0000001000
43
0.0000001000
44
0.0000000001
12
0.0001688661
22
-0.0093026770
32
0.0000000000
13
0.0000109162
23
-0.0093043370
33
0.0000000000
40
0.0000000000
40
0.0000000000
40
0.0000000000
40
0.0000000000
40
1.0000000000
40
1.0000000000
40
1.0000000000
40
1.0000000000
10
19.4965985056
20
13.7305203122
30
0.0000000000
10
19.4966547943
20
13.7274194199
30
0.0000000000
10
19.4966847283
20
13.7243180285
30
0.0000000000
10
19.4966883671
20
13.7212165829
30
0.0000000000
11
19.4965985056
21
13.7305203122
31
0.0000000000
11
19.4966883671
21
13.7212165829
31
0.0000000000
0
SPLINE
5
36B
100
AcDbEntity
8
0
100
AcDbSpline
62
9
6
CONTINUOUS
70
0
71
3
72
17
73
13
74
11
42
0.0000001000
43
0.0000001000
44
0.0000000001
12
0.4128699715
22
0.2137696856
32
0.0000000000
13
0.0072514721
23
0.4653911981
33
0.0000000000
40
0.0000000000
40
0.0000000000
40
0.0000000000
40
0.0000000000
40
0.1335941851
40
0.2601262477
40
0.3795306310
40
0.4919360729
40
0.5977003374
40
0.6974454374
40
0.7920856724
40
0.8828349910
40
0.9711763247
40
1.0000000000
40
1.0000000000
40
1.0000000000
40
1.0000000000
10
19.2160281112
20
-10.8038002704
30
0.0000000000
10
19.2344137870
20
-10.7942808081
30
0.0000000000
10
19.2696290431
20
-10.7745794242
30
0.0000000000
10
19.3187571934
20
-10.7421336950
30
0.0000000000
10
19.3624789293
20
-10.7077770781
30
0.0000000000
10
19.4005037950
20
-10.6717227316
30
0.0000000000
10
19.4325766585
20
-10.6341881624
30
0.0000000000
10
19.4584699129
20
-10.5953982114
30
0.0000000000
10
19.4779814518
20
-10.5555895851
30
0.0000000000
10
19.4909359154
20
-10.5150212794
30
0.0000000000
10
19.4958170803
20
-10.4830297109
30
0.0000000000
10
19.4965866049
20
-10.4648617424
30
0.0000000000
10
19.4966562763
20
-10.4603903141
30
0.0000000000
11
19.2160281112
21
-10.8038002704
31
0.0000000000
11
19.2701780252
21
-10.7733755116
31
0.0000000000
11
19.3191959301
21
-10.7408481309
31
0.0000000000
11
19.3627565981
21
-10.7064339434
31
0.0000000000
11
19.4005710095
21
-10.6703612832
31
0.0000000000
11
19.4323882705
21
-10.6328694877
31
0.0000000000
11
19.4579972773
21
-10.5942073106
31
0.0000000000
11
19.4772281173
21
-10.5546312706
31
0.0000000000
11
19.4899531964
21
-10.5144039498
31
0.0000000000
11
19.4960880851
21
-10.4737922516
31
0.0000000000
11
19.4966562763
21
-10.4603903141
31
0.0000000000
0
SPLINE
5
36C
100
AcDbEntity
8
0
100
AcDbSpline
62
9
6
CONTINUOUS
70
0
71
3
72
8
73
4
74
2
42
0.0000001000
43
0.0000001000
44
0.0000000001
12
0.0000610446
22
0.0039177744
32
0.0000000000
13
-0.0000001663
23
0.0039182795
33
0.0000000000
40
0.0000000000
40
0.0000000000
40
0.0000000000
40
0.0000000000
40
1.0000000000
40
1.0000000000
40
1.0000000000
40
1.0000000000
10
19.4966562763
20
-10.4603903141
30
0.0000000000
10
19.4966766245
20
-10.4590843893
30
0.0000000000
10
19.4966867676
20
-10.4577782990
30
0.0000000000
10
19.4966867122
20
-10.4564722058
30
0.0000000000
11
19.4966562763
21
-10.4603903141
31
0.0000000000
11
19.4966867122
21
-10.4564722058
31
0.0000000000
0
SPLINE
5
36D
100
AcDbEntity
8
0
100
AcDbSpline
62
9
6
CONTINUOUS
70
0
71
3
72
9
73
5
74
3
42
0.0000001000
43
0.0000001000
44
0.0000000001
12
0.0776924171
22
0.0410062346
32
0.0000000000
13
0.0711542095
23
0.0515681931
33
0.0000000000
40
0.0000000000
40
0.0000000000
40
0.0000000000
40
0.0000000000
40
0.6190889221
40
1.0000000000
40
1.0000000000
40
1.0000000000
40
1.0000000000
10
18.8018776356
20
-11.8212833694
30
0.0000000000
10
18.8179104738
20
-11.8128212009
30
0.0000000000
10
18.8432273365
20
-11.7980171982
30
0.0000000000
10
18.8674106926
20
-11.7814687838
30
0.0000000000
10
18.8764451681
20
-11.7749211518
30
0.0000000000
11
18.8018776356
21
-11.8212833694
31
0.0000000000
11
18.8488228120
21
-11.7938226302
31
0.0000000000
11
18.8764451681
21
-11.7749211518
31
0.0000000000
0
SPLINE
5
36E
100
AcDbEntity
8
0
100
AcDbSpline
62
9
6
CONTINUOUS
70
0
71
3
72
9
73
5
74
3
42
0.0000001000
43
0.0000001000
44
0.0000000001
12
0.0699950325
22
0.0506595091
32
0.0000000000
13
0.0640798488
23
0.0580279161
33
0.0000000000
40
0.0000000000
40
0.0000000000
40
0.0000000000
40
0.0000000000
40
0.9448939271
40
1.0000000000
40
1.0000000000
40
1.0000000000
40
1.0000000000
10
18.8018776356
20
-11.8212833694
30
0.0000000000
10
18.8239235960
20
-11.8053274153
30
0.0000000000
10
18.8463801868
20
-11.7871958820
30
0.0000000000
10
18.8677975322
20
-11.7679160078
30
0.0000000000
10
18.8689745951
20
-11.7668501109
30
0.0000000000
11
18.8018776356
21
-11.8212833694
31
0.0000000000
11
18.8654339247
21
-11.7700373970
31
0.0000000000
11
18.8689745951
21
-11.7668501109
31
0.0000000000
0
SPLINE
5
36F
100
AcDbEntity
8
0
100
AcDbSpline
62
9
6
CONTINUOUS
70
0
71
3
72
18
73
14
74
12
42
0.0000001000
43
0.0000001000
44
0.0000000001
12
0.7812084705
22
0.7074283177
32
0.0000000000
13
-0.0030579805
23
1.0533643708
33
0.0000000000
40
0.0000000000
40
0.0000000000
40
0.0000000000
40
0.0000000000
40
0.0742437328
40
0.1547197810
40
0.2373042128
40
0.3223302176
40
0.4100633502
40
0.5007007547
40
0.5943739111
40
0.6911530636
40
0.7910513794
40
0.8940285524
40
1.0000000000
40
1.0000000000
40
1.0000000000
40
1.0000000000
10
18.8689745951
20
-11.7668501109
30
0.0000000000
10
18.8883078727
20
-11.7493427379
30
0.0000000000
10
18.9268191539
20
-11.7109138397
30
0.0000000000
10
18.9799962228
20
-11.6465970302
30
0.0000000000
10
19.0290397511
20
-11.5744606052
30
0.0000000000
10
19.0727382616
20
-11.4960470866
30
0.0000000000
10
19.1109140340
20
-11.4116989962
30
0.0000000000
10
19.1434137569
20
-11.3217801944
30
0.0000000000
10
19.1701071454
20
-11.2266757641
30
0.0000000000
10
19.1908874264
20
-11.1267911718
30
0.0000000000
10
19.2056714817
20
-11.0225501750
30
0.0000000000
10
19.2144005021
20
-10.9143992214
30
0.0000000000
10
19.2161361308
20
-10.8410091195
30
0.0000000000
10
19.2160281112
20
-10.8038002704
30
0.0000000000
11
18.8689745951
21
-11.7668501109
31
0.0000000000
11
18.9243835577
21
-11.7116547350
31
0.0000000000
11
18.9784751726
21
-11.6463844301
31
0.0000000000
11
19.0274767004
21
-11.5745065143
31
0.0000000000
11
19.0711786028
21
-11.4963284642
31
0.0000000000
11
19.1093939484
21
-11.4121846383
31
0.0000000000
11
19.1419590193
21
-11.3224354419
31
0.0000000000
11
19.1687343465
21
-11.2274653379
31
0.0000000000
11
19.1896054234
21
-11.1276805396
31
0.0000000000
11
19.2044829400
21
-11.0235077793
31
0.0000000000
11
19.2133030531
21
-10.9153940208
31
0.0000000000
11
19.2160281112
21
-10.8038002704
31
0.0000000000
0
SPLINE
5
370
100
AcDbEntity
8
0
100
AcDbSpline
62
9
6
CONTINUOUS
70
0
71
3
72
13
73
9
74
7
42
0.0000001000
43
0.0000001000
44
0.0000000001
12
0.0831894255
22
0.0416210685
32
0.0000000000
13
0.0830442216
23
-0.0415221109
33
0.0000000000
40
0.0000000000
40
0.0000000000
40
0.0000000000
40
0.0000000000
40
0.0398015084
40
0.2136565539
40
0.3933138876
40
0.5826498345
40
0.7843828888
40
1.0000000000
40
1.0000000000
40
1.0000000000
40
1.0000000000
10
-2.0917100849
20
22.0991852086
30
0.0000000000
10
-2.0906063967
20
22.0997374023
30
0.0000000000
10
-2.0846088769
20
22.1025553643
30
0.0000000000
10
-2.0729139170
20
22.1062497022
30
0.0000000000
10
-2.0560863347
20
22.1079234633
30
0.0000000000
10
-2.0384005902
20
22.1063373663
30
0.0000000000
10
-2.0201661217
20
22.1015612268
30
0.0000000000
10
-2.0082362612
20
22.0964897637
30
0.0000000000
10
-2.0022676761
20
22.0935054711
30
0.0000000000
11
-2.0917100849
21
22.0991852086
31
0.0000000000
11
-2.0883595382
21
22.1007591553
31
0.0000000000
11
-2.0729783493
21
22.1056557305
31
0.0000000000
11
-2.0563872815
21
22.1073808245
31
0.0000000000
11
-2.0388702128
21
22.1059049207
31
0.0000000000
11
-2.0207268651
21
22.1012532725
31
0.0000000000
11
-2.0022676761
21
22.0935054711
31
0.0000000000
0
SPLINE
5
371
100
AcDbEntity
8
0
100
AcDbSpline
62
0
6
CONTINUOUS
70
0
71
3
72
14
73
10
74
8
42
0.0000001000
43
0.0000001000
44
0.0000000001
12
0.0791351001
22
0.0395884654
32
0.0000000000
13
0.0790056663
23
-0.0395028331
33
0.0000000000
40
0.0000000000
40
0.0000000000
40
0.0000000000
40
0.0000000000
40
0.0108975268
40
0.1508652764
40
0.2976080641
40
0.4542147772
40
0.6228187521
40
0.8046187890
40
1.0000000000
40
1.0000000000
40
1.0000000000
40
1.0000000000
10
-2.1532674356
20
22.0684071587
30
0.0000000000
10
-2.1529799767
20
22.0685509642
30
0.0000000000
10
-2.1489840787
20
22.0705089149
30
0.0000000000
10
-2.1406711364
20
22.0734651120
30
0.0000000000
10
-2.1276860798
20
22.0753881858
30
0.0000000000
10
-2.1137346762
20
22.0750251519
30
0.0000000000
10
-2.0989896615
20
22.0724019693
30
0.0000000000
10
-2.0836266343
20
22.0675634397
30
0.0000000000
10
-2.0734496001
20
22.0630599167
30
0.0000000000
10
-2.0683041926
20
22.0604872129
30
0.0000000000
11
-2.1532674356
21
22.0684071587
31
0.0000000000
11
-2.1524015631
21
22.0688314265
31
0.0000000000
11
-2.1407675779
21
22.0730154886
31
0.0000000000
11
-2.1279558127
21
22.0749828640
31
0.0000000000
11
-2.1141254293
21
22.0747022084
31
0.0000000000
11
-2.0994491868
21
22.0721707669
31
0.0000000000
11
-2.0841111556
21
22.0674144154
31
0.0000000000
11
-2.0683041926
21
22.0604872129
31
0.0000000000
0
SPLINE
5
372
100
AcDbEntity
8
0
100
AcDbSpline
62
0
6
CONTINUOUS
70
0
71
3
72
9
73
5
74
3
42
0.0000001000
43
0.0000001000
44
0.0000000001
12
-0.0046364675
22
0.0018489117
32
0.0000000000
13
-0.0047614225
23
0.0014980617
33
0.0000000000
40
0.0000000000
40
0.0000000000
40
0.0000000000
40
0.0000000000
40
0.1904103833
40
1.0000000000
40
1.0000000000
40
1.0000000000
40
1.0000000000
10
-0.8541886356
20
22.1399623062
30
0.0000000000
10
-0.8544829128
20
22.1400796569
30
0.0000000000
10
-0.8560327960
20
22.1406849048
30
0.0000000000
10
-0.8576049793
20
22.1412316292
30
0.0000000000
10
-0.8588899120
20
22.1416359010
30
0.0000000000
11
-0.8541886356
21
22.1399623062
31
0.0000000000
11
-0.8550739490
21
22.1403080260
31
0.0000000000
11
-0.8588899120
21
22.1416359010
31
0.0000000000
0
SPLINE
5
373
100
AcDbEntity
8
0
100
AcDbSpline
62
0
6
CONTINUOUS
70
0
71
3
72
13
73
9
74
7
42
0.0000001000
43
0.0000001000
44
0.0000000001
12
-0.0740256564
22
0.0232903092
32
0.0000000000
13
-0.0674954640
23
-0.0380871352
33
0.0000000000
40
0.0000000000
40
0.0000000000
40
0.0000000000
40
0.0000000000
40
0.1049480215
40
0.2661620546
40
0.4344052790
40
0.6118919984
40
0.8001412687
40
1.0000000000
40
1.0000000000
40
1.0000000000
40
1.0000000000
10
-0.8588899120
20
22.1416359010
30
0.0000000000
10
-0.8614795274
20
22.1424506583
30
0.0000000000
10
-0.8681718749
20
22.1441219376
30
0.0000000000
10
-0.8793954273
20
22.1452150758
30
0.0000000000
10
-0.8925153075
20
22.1443379433
30
0.0000000000
10
-0.9060367678
20
22.1413872040
30
0.0000000000
10
-0.9198127413
20
22.1364105944
30
0.0000000000
10
-0.9288023770
20
22.1319180167
30
0.0000000000
10
-0.9332988963
20
22.1293806679
30
0.0000000000
11
-0.8588899120
21
22.1416359010
31
0.0000000000
11
-0.8667857940
21
22.1436129252
31
0.0000000000
11
-0.8792172677
21
22.1448623822
31
0.0000000000
11
-0.8922303764
21
22.1440431725
31
0.0000000000
11
-0.9056810811
21
22.1411647716
31
0.0000000000
11
-0.9194209602
21
22.1362592079
31
0.0000000000
11
-0.9332988963
21
22.1293806679
31
0.0000000000
0
SPLINE
5
374
100
AcDbEntity
8
0
100
AcDbSpline
62
0
6
CONTINUOUS
70
0
71
3
72
13
73
9
74
7
42
0.0000001000
43
0.0000001000
44
0.0000000001
12
0.0955452568
22
0.1544423785
32
0.0000000000
13
0.1406277889
23
0.1149137475
33
0.0000000000
40
0.0000000000
40
0.0000000000
40
0.0000000000
40
0.0000000000
40
0.1641125965
40
0.3293206082
40
0.4955402789
40
0.6629364244
40
0.8313526948
40
1.0000000000
40
1.0000000000
40
1.0000000000
40
1.0000000000
10
19.2160281112
20
13.9614130018
30
0.0000000000
10
19.2212548379
20
13.9698616483
30
0.0000000000
10
19.2320898082
20
13.9866046728
30
0.0000000000
10
19.2495503337
20
14.0110118445
30
0.0000000000
10
19.2683694394
20
14.0346458559
30
0.0000000000
10
19.2886150089
20
14.0573347511
30
0.0000000000
10
19.3102925438
20
14.0788702838
30
0.0000000000
10
19.3256668112
20
14.0923118859
30
0.0000000000
10
19.3335723104
20
14.0987718505
30
0.0000000000
11
19.2160281112
21
13.9614130018
31
0.0000000000
11
19.2322446791
21
13.9864191538
31
0.0000000000
11
19.2497198777
21
14.0108076741
31
0.0000000000
11
19.2685404017
21
14.0344091306
31
0.0000000000
11
19.2887945409
21
14.0570797190
31
0.0000000000
11
19.3105048219
21
14.0786238105
31
0.0000000000
11
19.3335723104
21
14.0987718505
31
0.0000000000
0
SPLINE
5
375
100
AcDbEntity
8
0
100
AcDbSpline
62
0
6
CONTINUOUS
70
0
71
3
72
13
73
9
74
7
42
0.0000001000
43
0.0000001000
44
0.0000000001
12
-0.1186440381
22
-0.0259097720
32
0.0000000000
13
-0.1050085684
23
0.0609993821
33
0.0000000000
40
0.0000000000
40
0.0000000000
40
0.0000000000
40
0.0000000000
40
0.1923879054
40
0.3713766022
40
0.5388111758
40
0.6974861288
40
0.8504116562
40
1.0000000000
40
1.0000000000
40
1.0000000000
40
1.0000000000
10
19.3335723280
20
15.7182432103
30
0.0000000000
10
19.3259637686
20
15.7165816347
30
0.0000000000
10
19.3110962016
20
15.7141195984
30
0.0000000000
10
19.2892551363
20
15.7131096154
30
0.0000000000
10
19.2688177624
20
15.7147771519
30
0.0000000000
10
19.2498138584
20
15.7189147576
30
0.0000000000
10
19.2322056887
20
15.7252678615
30
0.0000000000
10
19.2212641305
20
15.7308398759
30
0.0000000000
10
19.2160281112
20
15.7338814748
30
0.0000000000
11
19.3335723280
21
15.7182432103
31
0.0000000000
11
19.3105097514
21
15.7145046759
31
0.0000000000
11
19.2887935778
21
15.7135666185
31
0.0000000000
11
19.2685313248
21
15.7152647827
31
0.0000000000
11
19.2497062676
21
15.7193795845
31
0.0000000000
11
19.2322337516
21
15.7256728079
31
0.0000000000
11
19.2160281112
21
15.7338814748
31
0.0000000000
0
SPLINE
5
376
100
AcDbEntity
8
0
100
AcDbSpline
62
9
6
CONTINUOUS
70
0
71
3
72
15
73
11
74
9
42
0.0000001000
43
0.0000001000
44
0.0000000001
12
-0.3945151521
22
0.2041142431
32
0.0000000000
13
-0.4056645176
23
-0.1817600012
33
0.0000000000
40
0.0000000000
40
0.0000000000
40
0.0000000000
40
0.0000000000
40
0.1425078965
40
0.2791099952
40
0.4100698687
40
0.5358503481
40
0.6571232361
40
0.7747667924
40
0.8898452490
40
1.0000000000
40
1.0000000000
40
1.0000000000
40
1.0000000000
10
11.9325159073
20
24.8275564618
30
0.0000000000
10
11.9137753991
20
24.8372524256
30
0.0000000000
10
11.8762822625
20
24.8547741550
30
0.0000000000
10
11.8191186373
20
24.8754889219
30
0.0000000000
10
11.7625941440
20
24.8899326983
30
0.0000000000
10
11.7070925746
20
24.8979891317
30
0.0000000000
10
11.6529906493
20
24.8995836652
30
0.0000000000
10
11.6006662302
20
24.8946829146
30
0.0000000000
10
11.5510122236
20
24.8834183065
30
0.0000000000
10
11.5196554063
20
24.8717817690
30
0.0000000000
10
11.5047601150
20
24.8651078598
30
0.0000000000
11
11.9325159073
21
24.8275564618
31
0.0000000000
11
11.8751201252
21
24.8542527057
31
0.0000000000
11
11.8180319957
21
24.8748118861
31
0.0000000000
11
11.7616413373
21
24.8890936174
31
0.0000000000
11
11.7063332062
21
24.8970003788
31
0.0000000000
11
11.6524852666
21
24.8984781798
31
0.0000000000
11
11.6004652120
21
24.8935169296
31
0.0000000000
11
11.5506282542
21
24.8821505054
31
0.0000000000
11
11.5047601150
21
24.8651078598
31
0.0000000000
0
SPLINE
5
377
100
AcDbEntity
8
0
100
AcDbSpline
62
9
6
CONTINUOUS
70
0
71
3
72
9
73
5
74
3
42
0.0000001000
43
0.0000001000
44
0.0000000001
12
-0.0038736307
22
-0.0017355995
32
0.0000000000
13
-0.0038535210
23
-0.0017798133
33
0.0000000000
40
0.0000000000
40
0.0000000000
40
0.0000000000
40
0.0000000000
40
0.3735012990
40
1.0000000000
40
1.0000000000
40
1.0000000000
40
1.0000000000
10
11.5047601150
20
24.8651078598
30
0.0000000000
10
11.5042778463
20
24.8648917769
30
0.0000000000
10
11.5029878720
20
24.8643104853
30
0.0000000000
10
11.5017012408
20
24.8637218157
30
0.0000000000
10
11.5008964988
20
24.8633501321
30
0.0000000000
11
11.5047601150
21
24.8651078598
31
0.0000000000
11
11.5033146985
21
24.8644565213
31
0.0000000000
11
11.5008964988
21
24.8633501321
31
0.0000000000
0
SPLINE
5
378
100
AcDbEntity
8
0
100
AcDbSpline
62
9
6
CONTINUOUS
70
0
71
3
72
8
73
4
74
2
42
0.0000001000
43
0.0000001000
44
0.0000000001
12
-0.0494399858
22
-0.0228330797
32
0.0000000000
13
-0.0502020998
23
-0.0211267031
33
0.0000000000
40
0.0000000000
40
0.0000000000
40
0.0000000000
40
0.0000000000
40
1.0000000000
40
1.0000000000
40
1.0000000000
40
1.0000000000
10
6.0141968400
20
22.0942805901
30
0.0000000000
10
5.9977168447
20
22.0866695636
30
0.0000000000
10
5.9810995581
20
22.0793514059
30
0.0000000000
10
5.9643655248
20
22.0723091715
30
0.0000000000
11
6.0141968400
21
22.0942805901
31
0.0000000000
11
5.9643655248
21
22.0723091715
31
0.0000000000
0
SPLINE
5
379
100
AcDbEntity
8
0
100
AcDbSpline
62
9
6
CONTINUOUS
70
0
71
3
72
12
73
8
74
6
42
0.0000001000
43
0.0000001000
44
0.0000000001
12
-0.2180363040
22
0.1128076195
32
0.0000000000
13
-0.2450330367
23
0.0171826668
33
0.0000000000
40
0.0000000000
40
0.0000000000
40
0.0000000000
40
0.0000000000
40
0.2578540087
40
0.5050220516
40
0.7419810374
40
0.9695684142
40
1.0000000000
40
1.0000000000
40
1.0000000000
40
1.0000000000
10
6.0141968400
20
22.0942805901
30
0.0000000000
10
5.9954563283
20
22.1039765558
30
0.0000000000
10
5.9579631850
20
22.1214982880
30
0.0000000000
10
5.9007995499
20
22.1422130568
30
0.0000000000
10
5.8442750481
20
22.1566568327
30
0.0000000000
10
5.8041099131
20
22.1624870748
30
0.0000000000
10
5.7830475127
20
22.1641318975
30
0.0000000000
10
5.7805619314
20
22.1643061961
30
0.0000000000
11
6.0141968400
21
22.0942805901
31
0.0000000000
11
5.9568010469
21
22.1209768386
31
0.0000000000
11
5.8997129075
21
22.1415360209
31
0.0000000000
11
5.8433222408
21
22.1558177516
31
0.0000000000
11
5.7880141031
21
22.1637245102
31
0.0000000000
11
5.7805619314
21
22.1643061961
31
0.0000000000
0
SPLINE
5
37A
100
AcDbEntity
8
0
100
AcDbSpline
62
0
6
CONTINUOUS
70
0
71
3
72
17
73
13
74
11
42
0.0000001000
43
0.0000001000
44
0.0000000001
12
0.4893911460
22
0.2335871117
32
0.0000000000
13
0.4851977624
23
-0.2425171928
33
0.0000000000
40
0.0000000000
40
0.0000000000
40
0.0000000000
40
0.0000000000
40
0.0993216075
40
0.1984557574
40
0.2981539046
40
0.3991694404
40
0.5022417824
40
0.6080907580
40
0.7173946993
40
0.8307769499
40
0.9487880003
40
1.0000000000
40
1.0000000000
40
1.0000000000
40
1.0000000000
10
12.9732824091
20
24.3071732108
30
0.0000000000
10
12.9894847809
20
24.3149066267
30
0.0000000000
10
13.0226580942
20
24.3287481481
30
0.0000000000
10
13.0743380089
20
24.3443516086
30
0.0000000000
10
13.1276504769
20
24.3546413512
30
0.0000000000
10
13.1824413887
20
24.3595045544
30
0.0000000000
10
13.2385541890
20
24.3588197932
30
0.0000000000
10
13.2958142173
20
24.3524552581
30
0.0000000000
10
13.3540266931
20
24.3402746400
30
0.0000000000
10
13.4129691252
20
24.3221435964
30
0.0000000000
10
13.4603368961
20
24.3028473870
30
0.0000000000
10
13.4879424240
20
24.2896416247
30
0.0000000000
10
13.4962250732
20
24.2855016946
30
0.0000000000
11
12.9732824091
21
24.3071732108
31
0.0000000000
11
13.0229964135
21
24.3278956843
31
0.0000000000
11
13.0744609584
21
24.3434315744
31
0.0000000000
11
13.1275431126
21
24.3536895012
31
0.0000000000
11
13.1821047068
21
24.3585607503
31
0.0000000000
11
13.2379950261
21
24.3579212468
31
0.0000000000
11
13.2950494679
21
24.3516351606
31
0.0000000000
11
13.3530796623
21
24.3395598139
31
0.0000000000
11
13.4118686289
21
24.3215531149
31
0.0000000000
11
13.4711644601
21
24.2974833180
31
0.0000000000
11
13.4962250732
21
24.2855016946
31
0.0000000000
0
SPLINE
5
37B
100
AcDbEntity
8
0
100
AcDbSpline
62
0
6
CONTINUOUS
70
0
71
3
72
26
73
22
74
20
42
0.0000001000
43
0.0000001000
44
0.0000000001
12
-1.2388761419
22
1.7520832247
32
0.0000000000
13
1.9359127617
23
0.9240140005
33
0.0000000000
40
0.0000000000
40
0.0000000000
40
0.0000000000
40
0.0000000000
40
0.0108472899
40
0.0632889756
40
0.1136327283
40
0.1622650341
40
0.2096414712
40
0.2562741753
40
0.3027114310
40
0.3495113899
40
0.3972141703
40
0.4463170181
40
0.4972560524
40
0.5503960095
40
0.6060271784
40
0.6643674550
40
0.7255674796
40
0.7897173310
40
0.8568534230
40
0.9269649545
40
1.0000000000
40
1.0000000000
40
1.0000000000
40
1.0000000000
10
8.6138189543
20
20.9340300266
30
0.0000000000
10
8.6093394714
20
20.9403651448
30
0.0000000000
10
8.5835474426
20
20.9775711858
30
0.0000000000
10
8.5409781297
20
21.0469341225
30
0.0000000000
10
8.4940524698
20
21.1447368207
30
0.0000000000
10
8.4594744125
20
21.2437521035
30
0.0000000000
10
8.4374209374
20
21.3435909128
30
0.0000000000
10
8.4280157691
20
21.4438394846
30
0.0000000000
10
8.4313164253
20
21.5440652856
30
0.0000000000
10
8.4473061547
20
21.6438308770
30
0.0000000000
10
8.4758956958
20
21.7427103561
30
0.0000000000
10
8.5169337808
20
21.8403009278
30
0.0000000000
10
8.5702202644
20
21.9362258974
30
0.0000000000
10
8.6355160443
20
22.0301309957
30
0.0000000000
10
8.7125477470
20
22.1216783890
30
0.0000000000
10
8.8010082861
20
22.2105416882
30
0.0000000000
10
8.9005556626
20
22.2964033353
30
0.0000000000
10
9.0108110515
20
22.3789538341
30
0.0000000000
10
9.1313595055
20
22.4578932526
30
0.0000000000
10
9.2617433058
20
22.5329296192
30
0.0000000000
10
9.3530788851
20
22.5792447592
30
0.0000000000
10
9.4002087106
20
22.6017398940
30
0.0000000000
11
8.6138189543
21
20.9340300266
31
0.0000000000
11
8.6005595002
21
20.9531607590
31
0.0000000000
11
8.5419236703
21
21.0491645595
31
0.0000000000
11
8.4954078644
21
21.1466268787
31
0.0000000000
11
8.4611892711
21
21.2451775918
31
0.0000000000
11
8.4393984462
21
21.3444423129
31
0.0000000000
11
8.4301187440
21
21.4440439270
31
0.0000000000
11
8.4333860039
21
21.5436040363
31
0.0000000000
11
8.4491883997
21
21.6427442781
31
0.0000000000
11
8.4774664469
21
21.7410878407
31
0.0000000000
11
8.5181132374
21
21.8382609459
31
0.0000000000
11
8.5709748050
21
21.9338941765
31
0.0000000000
11
8.6358506740
21
22.0276238958
31
0.0000000000
11
8.7124946681
21
22.1190937291
31
0.0000000000
11
8.8006158106
21
22.2079558603
31
0.0000000000
11
8.8998793360
21
22.2938722942
31
0.0000000000
11
9.0099080884
21
22.3765162870
31
0.0000000000
11
9.1302839606
21
22.4555735666
31
0.0000000000
11
9.2605492638
21
22.5307433953
31
0.0000000000
11
9.4002087106
21
22.6017398940
31
0.0000000000
0
SPLINE
5
37C
100
AcDbEntity
8
0
100
AcDbSpline
62
0
6
CONTINUOUS
70
0
71
3
72
10
73
6
74
4
42
0.0000001000
43
0.0000001000
44
0.0000000001
12
0.0480137065
22
-0.0241288565
32
0.0000000000
13
0.0480239769
23
-0.0241084088
33
0.0000000000
40
0.0000000000
40
0.0000000000
40
0.0000000000
40
0.0000000000
40
0.3356593340
40
0.6689922796
40
1.0000000000
40
1.0000000000
40
1.0000000000
40
1.0000000000
10
14.1718499848
20
21.1581045560
30
0.0000000000
10
14.1772220677
20
21.1554048640
30
0.0000000000
10
14.1879293744
20
21.1500249347
30
0.0000000000
10
14.2039356360
20
21.1419853517
30
0.0000000000
10
14.2145700090
20
21.1366458481
30
0.0000000000
10
14.2198687781
20
21.1339858250
30
0.0000000000
11
14.1718499848
21
21.1581045560
31
0.0000000000
11
14.1879667995
21
21.1500066065
31
0.0000000000
11
14.2039730461
21
21.1419670401
31
0.0000000000
11
14.2198687781
21
21.1339858250
31
0.0000000000
0
SPLINE
5
37D
100
AcDbEntity
8
0
100
AcDbSpline
62
0
6
CONTINUOUS
70
0
71
3
72
41
73
37
74
35
42
0.0000001000
43
0.0000001000
44
0.0000000001
12
4.5613693448
22
2.2481832864
32
0.0000000000
13
1.7961856444
23
-4.7604419659
33
0.0000000000
40
0.0000000000
40
0.0000000000
40
0.0000000000
40
0.0000000000
40
0.0279385258
40
0.0568964807
40
0.0868121656
40
0.1176243451
40
0.1492481657
40
0.1816120308
40
0.2146126200
40
0.2481720901
40
0.2821727975
40
0.3165339459
40
0.3511274752
40
0.3858723845
40
0.4206340491
40
0.4553336694
40
0.4898339590
40
0.5240605477
40
0.5578775117
40
0.5912171214
40
0.6239490283
40
0.6560145206
40
0.6872933275
40
0.7177385375
40
0.7472449221
40
0.7757808944
40
0.8032619892
40
0.8296766875
40
0.8549682135
40
0.8791516957
40
0.9022067165
40
0.9241840024
40
0.9451100431
40
0.9650820021
40
0.9841838571
40
1.0000000000
40
1.0000000000
40
1.0000000000
40
1.0000000000
10
10.4769048424
20
21.5118231253
30
0.0000000000
10
10.5193841540
20
21.5327601009
30
0.0000000000
10
10.6070159670
20
21.5731505832
30
0.0000000000
10
10.7434735780
20
21.6283619688
30
0.0000000000
10
10.8868330257
20
21.6791032719
30
0.0000000000
10
11.0364942703
20
21.7251617433
30
0.0000000000
10
11.1918615168
20
21.7663544130
30
0.0000000000
10
11.3522802633
20
21.8025074766
30
0.0000000000
10
11.5171171740
20
21.8334781473
30
0.0000000000
10
11.6856698871
20
21.8591341658
30
0.0000000000
10
11.8572794254
20
21.8793751200
30
0.0000000000
10
12.0312070886
20
21.8941136486
30
0.0000000000
10
12.2067791514
20
21.9032926012
30
0.0000000000
10
12.3832332793
20
21.9068720051
30
0.0000000000
10
12.5598917240
20
21.9048381279
30
0.0000000000
10
12.7359818677
20
21.8971998852
30
0.0000000000
10
12.9108324723
20
21.8839864852
30
0.0000000000
10
13.0836743463
20
21.8652562169
30
0.0000000000
10
13.2538530223
20
21.8410801516
30
0.0000000000
10
13.4206165273
20
21.8115654012
30
0.0000000000
10
13.5833370738
20
21.7768232314
30
0.0000000000
10
13.7412935021
20
21.7370079631
30
0.0000000000
10
13.8938941798
20
21.6922687728
30
0.0000000000
10
14.0404618652
20
21.6428044646
30
0.0000000000
10
14.1804500150
20
21.5887991513
30
0.0000000000
10
14.3132375755
20
21.5304921867
30
0.0000000000
10
14.4383312746
20
21.4680988004
30
0.0000000000
10
14.5551771723
20
21.4018935937
30
0.0000000000
10
14.6633421868
20
21.3321180403
30
0.0000000000
10
14.7623481032
20
21.2590752137
30
0.0000000000
10
14.8518264737
20
21.1830269810
30
0.0000000000
10
14.9313792316
20
21.1042973300
30
0.0000000000
10
15.0007023883
20
21.0231634763
30
0.0000000000
10
15.0594761096
20
20.9399658152
30
0.0000000000
10
15.1053113509
20
20.8587966736
30
0.0000000000
10
15.1290367251
20
20.8044561687
30
0.0000000000
10
15.1385063013
20
20.7793588920
30
0.0000000000
11
10.4769048424
21
21.5118231253
31
0.0000000000
11
10.6058803872
21
21.5714129617
31
0.0000000000
11
10.7423468941
21
21.6267526989
31
0.0000000000
11
10.8857256268
21
21.6776081206
31
0.0000000000
11
11.0354578265
21
21.7237806399
31
0.0000000000
11
11.1908847225
21
21.7650675133
31
0.0000000000
11
11.3514241925
21
21.8013137801
31
0.0000000000
11
11.5163467176
21
21.8323550753
31
0.0000000000
11
11.6850572965
21
21.8580791365
31
0.0000000000
11
11.8567673140
21
21.8783660187
31
0.0000000000
11
12.0308784467
21
21.8931448048
31
0.0000000000
11
12.2065566670
21
21.9023449618
31
0.0000000000
11
12.3832089597
21
21.9059352435
31
0.0000000000
11
12.5599712034
21
21.9038983143
31
0.0000000000
11
12.7362634341
21
21.8962406989
31
0.0000000000
11
12.9112079470
21
21.8830007177
31
0.0000000000
11
13.0842447568
21
21.8642206203
31
0.0000000000
11
13.2544998010
21
21.8399954364
31
0.0000000000
11
13.4214392809
21
21.8104010133
31
0.0000000000
11
13.5842102215
21
21.7755886988
31
0.0000000000
11
13.7423106131
21
21.7356657775
31
0.0000000000
11
13.8949257309
21
21.6908380838
31
0.0000000000
11
14.0415904747
21
21.6412421744
31
0.0000000000
11
14.1815447569
21
21.5871351465
31
0.0000000000
11
14.3143651508
21
21.5286806680
31
0.0000000000
11
14.4393613469
21
21.4661825699
31
0.0000000000
11
14.5561561157
21
21.3998294672
31
0.0000000000
11
14.6641423880
21
21.3299662178
31
0.0000000000
11
14.7629935176
21
21.2568041904
31
0.0000000000
11
14.8521970749
21
21.1807225465
31
0.0000000000
11
14.9314813244
21
21.1019531473
31
0.0000000000
11
15.0004374897
21
21.0209019089
31
0.0000000000
11
15.0588530642
21
20.9378188048
31
0.0000000000
11
15.1064293017
21
20.8531283478
31
0.0000000000
11
15.1385063013
21
20.7793588920
31
0.0000000000
0
SPLINE
5
37E
100
AcDbEntity
8
0
100
AcDbSpline
62
0
6
CONTINUOUS
70
0
71
3
72
10
73
6
74
4
42
0.0000001000
43
0.0000001000
44
0.0000000001
12
0.3128288885
22
-0.1337260017
32
0.0000000000
13
0.2936766765
23
-0.1717514678
33
0.0000000000
40
0.0000000000
40
0.0000000000
40
0.0000000000
40
0.0000000000
40
0.3436742093
40
0.6771155842
40
1.0000000000
40
1.0000000000
40
1.0000000000
40
1.0000000000
10
14.2198687781
20
21.1339858250
30
0.0000000000
10
14.2557058517
20
21.1186664324
30
0.0000000000
10
14.3257564779
20
21.0871565487
30
0.0000000000
10
14.4272472992
20
21.0364934746
30
0.0000000000
10
14.4923802880
20
21.0004114238
30
0.0000000000
10
14.5239881620
20
20.9819261330
30
0.0000000000
11
14.2198687781
21
21.1339858250
31
0.0000000000
11
14.3264725852
21
21.0859603626
31
0.0000000000
11
14.4279372372
21
21.0352280366
31
0.0000000000
11
14.5239881620
21
20.9819261330
31
0.0000000000
0
SPLINE
5
37F
100
AcDbEntity
8
0
100
AcDbSpline
62
0
6
CONTINUOUS
70
0
71
3
72
10
73
6
74
4
42
0.0000001000
43
0.0000001000
44
0.0000000001
12
-0.0401259497
22
0.0199380878
32
0.0000000000
13
-0.0401137297
23
0.0199626619
33
0.0000000000
40
0.0000000000
40
0.0000000000
40
0.0000000000
40
0.0000000000
40
0.3304773746
40
0.6638133650
40
1.0000000000
40
1.0000000000
40
1.0000000000
40
1.0000000000
10
14.5641079191
20
20.9619755888
30
0.0000000000
10
14.5596876796
20
20.9641719511
30
0.0000000000
10
14.5508094311
20
20.9685846107
30
0.0000000000
10
14.5374361854
20
20.9752348063
30
0.0000000000
10
14.5284833953
20
20.9796890730
30
0.0000000000
10
14.5239881620
20
20.9819261330
30
0.0000000000
11
14.5641079191
21
20.9619755888
31
0.0000000000
11
14.5508478893
21
20.9685660616
31
0.0000000000
11
14.5374745310
21
20.9752162977
31
0.0000000000
11
14.5239881620
21
20.9819261330
31
0.0000000000
0
SPLINE
5
380
100
AcDbEntity
8
0
100
AcDbSpline
62
0
6
CONTINUOUS
70
0
71
3
72
13
73
9
74
7
42
0.0000001000
43
0.0000001000
44
0.0000000001
12
-0.1961525084
22
-0.1002226116
32
0.0000000000
13
0.0000000000
23
-0.2196572814
33
0.0000000000
40
0.0000000000
40
0.0000000000
40
0.0000000000
40
0.0000000000
40
0.0932095149
40
0.2503342003
40
0.4167661673
40
0.5962409861
40
0.7905974107
40
1.0000000000
40
1.0000000000
40
1.0000000000
40
1.0000000000
10
-13.5395225238
20
22.7208129021
30
0.0000000000
10
-13.5456169505
20
22.7176990018
30
0.0000000000
10
-13.5613381065
20
22.7080647471
30
0.0000000000
10
-13.5837474969
20
22.6868992708
30
0.0000000000
10
-13.6041129177
20
22.6558625959
30
0.0000000000
10
-13.6188335621
20
22.6189001298
30
0.0000000000
10
-13.6276774627
20
22.5769470678
30
0.0000000000
10
-13.6295000650
20
22.5473337429
30
0.0000000000
10
-13.6295000650
20
22.5320014751
30
0.0000000000
11
-13.5395225238
21
22.7208129021
31
0.0000000000
11
-13.5570107649
21
22.7100976986
31
0.0000000000
11
-13.5822334213
21
22.6865391568
31
0.0000000000
11
-13.6025247806
21
22.6561294935
31
0.0000000000
11
-13.6173868946
21
22.6196152961
31
0.0000000000
11
-13.6264529780
21
22.5778972395
31
0.0000000000
11
-13.6295000650
21
22.5320014751
31
0.0000000000
0
SPLINE
5
381
100
AcDbEntity
8
0
100
AcDbSpline
62
0
6
CONTINUOUS
70
0
71
3
72
9
73
5
74
3
42
0.0000001000
43
0.0000001000
44
0.0000000001
12
-0.0004065111
22
0.0259308417
32
0.0000000000
13
-0.0020642167
23
0.0258517468
33
0.0000000000
40
0.0000000000
40
0.0000000000
40
0.0000000000
40
0.0000000000
40
0.4989863682
40
1.0000000000
40
1.0000000000
40
1.0000000000
40
1.0000000000
10
9.3902469921
20
20.1905726262
30
0.0000000000
10
9.3901793776
20
20.1948856717
30
0.0000000000
10
9.3899032284
20
20.2035278977
30
0.0000000000
10
9.3893286374
20
20.2121550146
30
0.0000000000
10
9.3889839038
20
20.2164723738
30
0.0000000000
11
9.3902469921
21
20.1905726262
31
0.0000000000
11
9.3898294800
21
20.2035066156
31
0.0000000000
11
9.3889839038
21
20.2164723738
31
0.0000000000
0
SPLINE
5
382
100
AcDbEntity
8
0
100
AcDbSpline
62
0
6
CONTINUOUS
70
0
71
3
72
9
73
5
74
3
42
0.0000001000
43
0.0000001000
44
0.0000000001
12
-0.0005036446
22
-0.0035227343
32
0.0000000000
13
-0.0017167576
23
-0.0031170593
33
0.0000000000
40
0.0000000000
40
0.0000000000
40
0.0000000000
40
0.0000000000
40
0.4474175335
40
1.0000000000
40
1.0000000000
40
1.0000000000
40
1.0000000000
10
9.3902469921
20
-17.3273715762
30
0.0000000000
10
9.3901718789
20
-17.3278969539
30
0.0000000000
10
9.3898323473
20
-17.3290460955
30
0.0000000000
10
9.3893001205
20
-17.3301091810
30
0.0000000000
10
9.3889839038
20
-17.3306833251
30
0.0000000000
11
9.3902469921
21
-17.3273715762
31
0.0000000000
11
9.3898294800
21
-17.3289080192
31
0.0000000000
11
9.3889839038
21
-17.3306833251
31
0.0000000000
0
SPLINE
5
383
100
AcDbEntity
8
0
100
AcDbSpline
62
0
6
CONTINUOUS
70
0
71
3
72
12
73
8
74
6
42
0.0000001000
43
0.0000001000
44
0.0000000001
12
0.1035245975
22
-0.0518042949
32
0.0000000000
13
0.1037892104
23
0.0505590123
33
0.0000000000
40
0.0000000000
40
0.0000000000
40
0.0000000000
40
0.0000000000
40
0.0702682166
40
0.2823115323
40
0.5037058504
40
0.7425202568
40
1.0000000000
40
1.0000000000
40
1.0000000000
40
1.0000000000
10
1.8404973616
20
-25.3724560841
30
0.0000000000
10
1.8429221912
20
-25.3736694825
30
0.0000000000
10
1.8528711558
20
-25.3781287920
30
0.0000000000
10
1.8718575251
20
-25.3829448551
30
0.0000000000
10
1.8979446378
20
-25.3831854320
30
0.0000000000
10
1.9251753392
20
-25.3776498116
30
0.0000000000
10
1.9430060540
20
-25.3705296514
30
0.0000000000
10
1.9519139270
20
-25.3661903443
30
0.0000000000
11
1.8404973616
21
-25.3724560841
31
0.0000000000
11
1.8479177379
21
-25.3757803142
31
0.0000000000
11
1.8716204263
21
-25.3819007397
31
0.0000000000
11
1.8971766917
21
-25.3823195810
31
0.0000000000
11
1.9242356339
21
-25.3770314786
31
0.0000000000
11
1.9519139270
21
-25.3661903443
31
0.0000000000
0
SPLINE
5
384
100
AcDbEntity
8
0
100
AcDbSpline
62
0
6
CONTINUOUS
70
0
71
3
72
13
73
9
74
7
42
0.0000001000
43
0.0000001000
44
0.0000000001
12
-0.1410768327
22
0.0705989525
32
0.0000000000
13
-0.0000000000
23
0.1573187955
33
0.0000000000
40
0.0000000000
40
0.0000000000
40
0.0000000000
40
0.0000000000
40
0.1002829637
40
0.2556824971
40
0.4210753023
40
0.5986534561
40
0.7921182670
40
1.0000000000
40
1.0000000000
40
1.0000000000
40
1.0000000000
10
0.1632542344
20
-24.5338344139
30
0.0000000000
10
0.1585383668
20
-24.5314744565
30
0.0000000000
10
0.1470228374
20
-24.5244363000
30
0.0000000000
10
0.1308930242
20
-24.5090325392
30
0.0000000000
10
0.1165495564
20
-24.4869413332
30
0.0000000000
10
0.1061701745
20
-24.4606252906
30
0.0000000000
10
0.0999400464
20
-24.4307896948
30
0.0000000000
10
0.0986560573
20
-24.4097082130
30
0.0000000000
10
0.0986560573
20
-24.3988069784
30
0.0000000000
11
0.1632542344
21
-24.5338344139
31
0.0000000000
11
0.1497699927
21
-24.5255973323
31
0.0000000000
11
0.1319929025
21
-24.5088150814
31
0.0000000000
11
0.1176525355
21
-24.4871041880
31
0.0000000000
11
0.1072073695
21
-24.4611939602
31
0.0000000000
11
0.1008004417
21
-24.4314403028
31
0.0000000000
11
0.0986560573
21
-24.3988069784
31
0.0000000000
0
SPLINE
5
385
100
AcDbEntity
8
0
100
AcDbSpline
62
0
6
CONTINUOUS
70
0
71
3
72
9
73
5
74
3
42
0.0000001000
43
0.0000001000
44
0.0000000001
12
0.0223544506
22
-0.0111796084
32
0.0000000000
13
0.0243998698
23
-0.0050947154
33
0.0000000000
40
0.0000000000
40
0.0000000000
40
0.0000000000
40
0.0000000000
40
0.0711022819
40
1.0000000000
40
1.0000000000
40
1.0000000000
40
1.0000000000
10
-11.5238179115
20
22.9492763742
30
0.0000000000
10
-11.5232880941
20
22.9490114090
30
0.0000000000
10
-11.5158009841
20
22.9453551328
30
0.0000000000
10
-11.5078273852
20
22.9427011566
30
0.0000000000
10
-11.5002723908
20
22.9411236668
30
0.0000000000
11
-11.5238179115
21
22.9492763742
31
0.0000000000
11
-11.5222209334
21
22.9484965370
31
0.0000000000
11
-11.5002723908
21
22.9411236668
31
0.0000000000
0
SPLINE
5
386
100
AcDbEntity
8
0
100
AcDbSpline
62
0
6
CONTINUOUS
70
0
71
3
72
13
73
9
74
7
42
0.0000001000
43
0.0000001000
44
0.0000000001
12
-0.1411200199
22
0.0705753522
32
0.0000000000
13
-0.0000000000
23
0.1573462303
33
0.0000000000
40
0.0000000000
40
0.0000000000
40
0.0000000000
40
0.0000000000
40
0.1341877812
40
0.2839661477
40
0.4437692844
40
0.6151905100
40
0.8009213695
40
1.0000000000
40
1.0000000000
40
1.0000000000
40
1.0000000000
10
-13.2010611314
20
23.7878979777
30
0.0000000000
10
-13.2073733255
20
23.7910547610
30
0.0000000000
10
-13.2199516578
20
23.7992713667
30
0.0000000000
10
-13.2361381234
20
23.8162828957
30
0.0000000000
10
-13.2492756443
20
23.8380212186
30
0.0000000000
10
-13.2587776814
20
23.8635596929
30
0.0000000000
10
-13.2644821995
20
23.8922756274
30
0.0000000000
10
-13.2656621071
20
23.9124887533
30
0.0000000000
10
-13.2656621071
20
23.9229301773
30
0.0000000000
11
-13.2010611314
21
23.7878979777
31
0.0000000000
11
-13.2187651877
21
23.7994162444
31
0.0000000000
11
-13.2351085409
21
23.8163956786
31
0.0000000000
11
-13.2482696741
21
23.8378205821
31
0.0000000000
11
-13.2578461537
21
23.8630357741
31
0.0000000000
11
-13.2637008158
21
23.8916673662
31
0.0000000000
11
-13.2656621071
21
23.9229301773
31
0.0000000000
0
SPLINE
5
387
100
AcDbEntity
8
0
100
AcDbSpline
62
0
6
CONTINUOUS
70
0
71
3
72
9
73
5
74
3
42
0.0000001000
43
0.0000001000
44
0.0000000001
12
0.0223544506
22
-0.0111796084
32
0.0000000000
13
0.0243998698
23
-0.0050947154
33
0.0000000000
40
0.0000000000
40
0.0000000000
40
0.0000000000
40
0.0000000000
40
0.0711022819
40
1.0000000000
40
1.0000000000
40
1.0000000000
40
1.0000000000
10
1.8405002529
20
16.2671172920
30
0.0000000000
10
1.8410300704
20
16.2668523268
30
0.0000000000
10
1.8485171803
20
16.2631960505
30
0.0000000000
10
1.8564907792
20
16.2605420744
30
0.0000000000
10
1.8640457736
20
16.2589645846
30
0.0000000000
11
1.8405002529
21
16.2671172920
31
0.0000000000
11
1.8420972310
21
16.2663374548
31
0.0000000000
11
1.8640457736
21
16.2589645846
31
0.0000000000
0
SPLINE
5
388
100
AcDbEntity
8
0
100
AcDbSpline
62
0
6
CONTINUOUS
70
0
71
3
72
13
73
9
74
7
42
0.0000001000
43
0.0000001000
44
0.0000000001
12
-0.1411200199
22
0.0705753522
32
0.0000000000
13
0.0000000000
23
0.1573462303
33
0.0000000000
40
0.0000000000
40
0.0000000000
40
0.0000000000
40
0.0000000000
40
0.1341877812
40
0.2839661477
40
0.4437692844
40
0.6151905100
40
0.8009213695
40
1.0000000000
40
1.0000000000
40
1.0000000000
40
1.0000000000
10
0.1632570330
20
17.1057388954
30
0.0000000000
10
0.1569448389
20
17.1088956787
30
0.0000000000
10
0.1443665066
20
17.1171122845
30
0.0000000000
10
0.1281800410
20
17.1341238135
30
0.0000000000
10
0.1150425202
20
17.1558621364
30
0.0000000000
10
0.1055404830
20
17.1814006107
30
0.0000000000
10
0.0998359650
20
17.2101165452
30
0.0000000000
10
0.0986560573
20
17.2303296711
30
0.0000000000
10
0.0986560573
20
17.2407710951
30
0.0000000000
11
0.1632570330
21
17.1057388954
31
0.0000000000
11
0.1455529767
21
17.1172571622
31
0.0000000000
11
0.1292096235
21
17.1342365964
31
0.0000000000
11
0.1160484904
21
17.1556614999
31
0.0000000000
11
0.1064720107
21
17.1808766919
31
0.0000000000
11
0.1006173486
21
17.2095082840
31
0.0000000000
11
0.0986560573
21
17.2407710951
31
0.0000000000
0
SPLINE
5
389
100
AcDbEntity
8
0
100
AcDbSpline
62
0
6
CONTINUOUS
70
0
71
3
72
13
73
9
74
7
42
0.0000001000
43
0.0000001000
44
0.0000000001
12
-0.1411184857
22
0.0705745873
32
0.0000000000
13
0.0000000000
23
0.1573445288
33
0.0000000000
40
0.0000000000
40
0.0000000000
40
0.0000000000
40
0.0000000000
40
0.1341870270
40
0.2839657539
40
0.4437691199
40
0.6151904691
40
0.8009213618
40
1.0000000000
40
1.0000000000
40
1.0000000000
40
1.0000000000
10
3.6177956938
20
-23.4033676214
30
0.0000000000
10
3.6114836038
20
-23.4002108900
30
0.0000000000
10
3.5989054120
20
-23.3919944111
30
0.0000000000
10
3.5827190533
20
-23.3749831457
30
0.0000000000
10
3.5695815395
20
-23.3532450981
30
0.0000000000
10
3.5600794373
20
-23.3277069382
30
0.0000000000
10
3.5543748367
20
-23.2989913413
30
0.0000000000
10
3.5531947179
20
-23.2787784395
30
0.0000000000
10
3.5531947179
20
-23.2683371280
30
0.0000000000
11
3.6177956938
21
-23.4033676214
31
0.0000000000
11
3.6000919068
21
-23.3918495762
31
0.0000000000
11
3.5837486182
21
-23.3748703548
31
0.0000000000
11
3.5705874945
21
-23.3534457223
31
0.0000000000
11
3.5610109628
21
-23.3282308412
31
0.0000000000
11
3.5551561861
21
-23.2995995897
31
0.0000000000
11
3.5531947179
21
-23.2683371280
31
0.0000000000
0
SPLINE
5
38A
100
AcDbEntity
8
0
100
AcDbSpline
62
0
6
CONTINUOUS
70
0
71
3
72
9
73
5
74
3
42
0.0000001000
43
0.0000001000
44
0.0000000001
12
0.0032858702
22
0.0020479729
32
0.0000000000
13
0.0001131308
23
0.0034647824
33
0.0000000000
40
0.0000000000
40
0.0000000000
40
0.0000000000
40
0.0000000000
40
0.7170165807
40
1.0000000000
40
1.0000000000
40
1.0000000000
40
1.0000000000
10
9.3884430287
20
19.6053827464
30
0.0000000000
10
9.3892283699
20
19.6058722233
30
0.0000000000
10
9.3901529080
20
19.6067799574
30
0.0000000000
10
9.3903529604
20
19.6078963418
30
0.0000000000
10
9.3903636318
20
19.6082231672
30
0.0000000000
11
9.3884430287
21
19.6053827464
31
0.0000000000
11
9.3901817209
21
19.6072812139
31
0.0000000000
11
9.3903636318
21
19.6082231672
31
0.0000000000
0
SPLINE
5
38B
100
AcDbEntity
8
0
100
AcDbSpline
62
0
6
CONTINUOUS
70
0
71
3
72
12
73
8
74
6
42
0.0000001000
43
0.0000001000
44
0.0000000001
12
0.0000024720
22
0.1446720053
32
0.0000000000
13
-0.1289551214
23
0.0644775607
33
0.0000000000
40
0.0000000000
40
0.0000000000
40
0.0000000000
40
0.0000000000
40
0.1637122150
40
0.3390315196
40
0.5344106615
40
0.7543496530
40
1.0000000000
40
1.0000000000
40
1.0000000000
40
1.0000000000
10
-0.9197760551
20
25.0342144685
30
0.0000000000
10
-0.9197759202
20
25.0421093266
30
0.0000000000
10
-0.9224725886
20
25.0584578776
30
0.0000000000
10
-0.9340900744
20
25.0817188930
30
0.0000000000
10
-0.9526687938
20
25.1034676237
30
0.0000000000
10
-0.9776207098
20
25.1233603541
30
0.0000000000
10
-0.9970847307
20
25.1345581246
30
0.0000000000
10
-1.0076440208
20
25.1398377697
30
0.0000000000
11
-0.9197760551
21
25.0342144685
31
0.0000000000
11
-0.9234700077
21
25.0575270232
31
0.0000000000
11
-0.9344596499
21
25.0802898889
31
0.0000000000
11
-0.9524748605
21
25.1019450521
31
0.0000000000
11
-0.9770713502
21
25.1219584199
31
0.0000000000
11
-1.0076440208
21
25.1398377697
31
0.0000000000
0
SPLINE
5
38C
100
AcDbEntity
8
0
100
AcDbSpline
62
0
6
CONTINUOUS
70
0
71
3
72
13
73
9
74
7
42
0.0000001000
43
0.0000001000
44
0.0000000001
12
0.0000258596
22
0.1446711661
32
0.0000000000
13
-0.1289558739
23
0.0644779370
33
0.0000000000
40
0.0000000000
40
0.0000000000
40
0.0000000000
40
0.0000000000
40
0.0029880403
40
0.1661938042
40
0.3410778189
40
0.5359454890
40
0.7552121694
40
1.0000000000
40
1.0000000000
40
1.0000000000
40
1.0000000000
10
4.6346874069
20
22.2569843812
30
0.0000000000
10
4.6346874326
20
22.2571284756
30
0.0000000000
10
4.6346648118
20
22.2651429280
30
0.0000000000
10
4.6318651121
20
22.2815726993
30
0.0000000000
10
4.6202014856
20
22.3047269951
30
0.0000000000
10
4.6016342245
20
22.3263791997
30
0.0000000000
10
4.5767434057
20
22.3461880996
30
0.0000000000
10
4.5573417696
20
22.3573448745
30
0.0000000000
10
4.5468194934
20
22.3626060126
30
0.0000000000
11
4.6346874069
21
22.2569843812
31
0.0000000000
11
4.6346861855
21
22.2574166605
31
0.0000000000
11
4.6308834931
21
22.2806378828
31
0.0000000000
11
4.6198416329
21
22.3033058403
31
0.0000000000
11
4.6018300105
21
22.3248682042
31
0.0000000000
11
4.5772895397
21
22.3447971071
31
0.0000000000
11
4.5468194934
21
22.3626060126
31
0.0000000000
0
SPLINE
5
38D
100
AcDbEntity
8
0
100
AcDbSpline
62
0
6
CONTINUOUS
70
0
71
3
72
17
73
13
74
11
42
0.0000001000
43
0.0000001000
44
0.0000000001
12
0.4608527432
22
-0.2304263716
32
0.0000000000
13
0.0000000000
23
-0.5152490307
33
0.0000000000
40
0.0000000000
40
0.0000000000
40
0.0000000000
40
0.0000000000
40
0.0874854453
40
0.1810663987
40
0.2799044282
40
0.3828032215
40
0.4883360357
40
0.5949178722
40
0.7009068930
40
0.8047067593
40
0.9048273562
40
1.0000000000
40
1.0000000000
40
1.0000000000
40
1.0000000000
10
4.3663675162
20
16.3233983857
30
0.0000000000
10
4.3798068187
20
16.3166787344
30
0.0000000000
10
4.4065421462
20
16.3005475729
30
0.0000000000
10
4.4441627929
20
16.2704378488
30
0.0000000000
10
4.4798771647
20
16.2342725545
30
0.0000000000
10
4.5128233781
20
16.1929291934
30
0.0000000000
10
4.5422150911
20
16.1474030829
30
0.0000000000
10
4.5673414228
20
16.0987955357
30
0.0000000000
10
4.5875947307
20
16.0482838798
30
0.0000000000
10
4.6024844782
20
15.9970861249
30
0.0000000000
10
4.6116493158
20
15.9464466292
30
0.0000000000
10
4.6138548897
20
15.9128801366
30
0.0000000000
10
4.6138548897
20
15.8965342657
30
0.0000000000
11
4.3663675162
21
16.3233983857
31
0.0000000000
11
4.4050820569
21
16.3003093966
31
0.0000000000
11
4.4428431687
21
16.2703256458
31
0.0000000000
11
4.4787220370
21
16.2341844706
31
0.0000000000
11
4.5118338552
21
16.1927771137
31
0.0000000000
11
4.5413655896
21
16.1471197893
31
0.0000000000
11
4.5665882460
21
16.0983385911
31
0.0000000000
11
4.5868796053
21
16.0476375686
31
0.0000000000
11
4.6017417193
21
15.9962612571
31
0.0000000000
11
4.6108078027
21
15.9454771171
31
0.0000000000
11
4.6138548897
21
15.8965342657
31
0.0000000000
0
SPLINE
5
38E
100
AcDbEntity
8
0
100
AcDbSpline
62
0
6
CONTINUOUS
70
0
71
3
72
13
73
9
74
7
42
0.0000001000
43
0.0000001000
44
0.0000000001
12
0.0000000000
22
-0.2196572814
32
0.0000000000
13
-0.1961525084
23
-0.1002226116
33
0.0000000000
40
0.0000000000
40
0.0000000000
40
0.0000000000
40
0.0000000000
40
0.2094025893
40
0.4037590139
40
0.5832338327
40
0.7496657997
40
0.9067904851
40
1.0000000000
40
1.0000000000
40
1.0000000000
40
1.0000000000
10
4.6138548897
20
-22.2800475790
30
0.0000000000
10
4.6138548897
20
-22.2953798468
30
0.0000000000
10
4.6120322874
20
-22.3249931716
30
0.0000000000
10
4.6031883868
20
-22.3669462337
30
0.0000000000
10
4.5884677424
20
-22.4039086997
30
0.0000000000
10
4.5681023216
20
-22.4349453747
30
0.0000000000
10
4.5456929312
20
-22.4561108510
30
0.0000000000
10
4.5299717752
20
-22.4657451057
30
0.0000000000
10
4.5238773485
20
-22.4688590060
30
0.0000000000
11
4.6138548897
21
-22.2800475790
31
0.0000000000
11
4.6108078027
21
-22.3259433434
31
0.0000000000
11
4.6017417193
21
-22.3676614000
31
0.0000000000
11
4.5868796053
21
-22.4041755974
31
0.0000000000
11
4.5665882460
21
-22.4345852607
31
0.0000000000
11
4.5413655896
21
-22.4581438025
31
0.0000000000
11
4.5238773485
21
-22.4688590060
31
0.0000000000
0
SPLINE
5
38F
100
AcDbEntity
8
0
100
AcDbSpline
62
0
6
CONTINUOUS
70
0
71
3
72
12
73
8
74
6
42
0.0000001000
43
0.0000001000
44
0.0000000001
12
0.1442257105
22
-0.0721128553
32
0.0000000000
13
0.1452198943
23
0.0711107357
33
0.0000000000
40
0.0000000000
40
0.0000000000
40
0.0000000000
40
0.0000000000
40
0.2589093298
40
0.4980032510
40
0.7205148469
40
0.9322066891
40
1.0000000000
40
1.0000000000
40
1.0000000000
40
1.0000000000
10
1.8914937821
20
-23.6855246587
30
0.0000000000
10
1.9039409094
20
-23.6917482224
30
0.0000000000
10
1.9288264359
20
-23.7019870180
30
0.0000000000
10
1.9669276814
20
-23.7101406159
30
0.0000000000
10
2.0034283992
20
-23.7101446245
30
0.0000000000
10
2.0299089050
20
-23.7036346046
30
0.0000000000
10
2.0437115023
20
-23.6975720543
30
0.0000000000
10
2.0469931481
20
-23.6959651103
30
0.0000000000
11
1.8914937821
21
-23.6855246587
31
0.0000000000
11
1.9302083227
21
-23.7011502103
31
0.0000000000
11
1.9679694346
21
-23.7089275713
31
0.0000000000
11
2.0038483029
21
-23.7086652645
31
0.0000000000
11
2.0369601211
21
-23.7003697258
31
0.0000000000
11
2.0469931481
21
-23.6959651103
31
0.0000000000
0
SPLINE
5
390
100
AcDbEntity
8
0
100
AcDbSpline
62
0
6
CONTINUOUS
70
0
71
3
72
12
73
8
74
6
42
0.0000001000
43
0.0000001000
44
0.0000000001
12
-0.1280997254
22
-0.0657175839
32
0.0000000000
13
-0.0000198404
23
-0.1444569908
33
0.0000000000
40
0.0000000000
40
0.0000000000
40
0.0000000000
40
0.0000000000
40
0.2451070430
40
0.4650070858
40
0.6609705450
40
0.8375383260
40
1.0000000000
40
1.0000000000
40
1.0000000000
40
1.0000000000
10
-7.5820843542
20
22.3107662547
30
0.0000000000
10
-7.5925504025
20
22.3053969738
30
0.0000000000
10
-7.6118388880
20
22.2940128385
30
0.0000000000
10
-7.6365061700
20
22.2738354483
30
0.0000000000
10
-7.6548212465
20
22.2518026126
30
0.0000000000
10
-7.6661355211
20
22.2284070529
30
0.0000000000
10
-7.6687206718
20
22.2120802976
30
0.0000000000
10
-7.6687217463
20
22.2042573894
30
0.0000000000
11
-7.5820843542
21
22.3107662547
31
0.0000000000
11
-7.6123469902
21
22.2926146993
31
0.0000000000
11
-7.6366547506
21
22.2723299017
31
0.0000000000
11
-7.6544140893
21
22.2504071069
31
0.0000000000
11
-7.6651902788
21
22.2273831142
31
0.0000000000
11
-7.6687217463
21
22.2042573894
31
0.0000000000
0
SPLINE
5
391
100
AcDbEntity
8
0
100
AcDbSpline
62
0
6
CONTINUOUS
70
0
71
3
72
17
73
13
74
11
42
0.0000001000
43
0.0000001000
44
0.0000000001
12
-0.3892831373
22
0.1946415686
32
0.0000000000
13
-0.3912763246
23
-0.1906030928
33
0.0000000000
40
0.0000000000
40
0.0000000000
40
0.0000000000
40
0.0000000000
40
0.0891031991
40
0.1852014033
40
0.2868711654
40
0.3924014128
40
0.4999155417
40
0.6074372688
40
0.7129896138
40
0.8146951064
40
0.9108405521
40
1.0000000000
40
1.0000000000
40
1.0000000000
40
1.0000000000
10
-1.1880959979
20
25.2300637583
30
0.0000000000
10
-1.1996581222
20
25.2358448204
30
0.0000000000
10
-1.2244751674
20
25.2463218496
30
0.0000000000
10
-1.2643407979
20
25.2584759054
30
0.0000000000
10
-1.3074761811
20
25.2674456732
30
0.0000000000
10
-1.3528426221
20
25.2730113339
30
0.0000000000
10
-1.3993519997
20
25.2750384879
30
0.0000000000
10
-1.4458825424
20
25.2734771356
30
0.0000000000
10
-1.4913119594
20
25.2683659723
30
0.0000000000
10
-1.5345504535
20
25.2598284572
30
0.0000000000
10
-1.5745566977
20
25.2480739724
30
0.0000000000
10
-1.5994936891
20
25.2378464387
30
0.0000000000
10
-1.6111223495
20
25.2321817498
30
0.0000000000
11
-1.1880959979
21
25.2300637583
31
0.0000000000
11
-1.2237507519
21
25.2453172528
31
0.0000000000
11
-1.2637184824
21
25.2576424506
31
0.0000000000
11
-1.3070234341
21
25.2667383738
31
0.0000000000
11
-1.3526054602
21
25.2723823595
31
0.0000000000
11
-1.3993539087
21
25.2744367076
31
0.0000000000
11
-1.4461239008
21
25.2728507960
31
0.0000000000
11
-1.4917698582
21
25.2676637152
31
0.0000000000
11
-1.5351795964
21
25.2590019716
31
0.0000000000
11
-1.5752901877
21
25.2470775933
31
0.0000000000
11
-1.6111223495
21
25.2321817498
31
0.0000000000
0
SPLINE
5
392
100
AcDbEntity
8
0
100
AcDbSpline
62
0
6
CONTINUOUS
70
0
71
3
72
17
73
13
74
11
42
0.0000001000
43
0.0000001000
44
0.0000000001
12
-0.3905141315
22
0.1952570657
32
0.0000000000
13
-0.3916239349
23
-0.1930215070
33
0.0000000000
40
0.0000000000
40
0.0000000000
40
0.0000000000
40
0.0000000000
40
0.0891659336
40
0.1853519118
40
0.2871213145
40
0.3927472656
40
0.5003366228
40
0.6078965497
40
0.7134351177
40
0.8150632032
40
0.9110602977
40
1.0000000000
40
1.0000000000
40
1.0000000000
40
1.0000000000
10
4.3663675162
20
22.4528320012
30
0.0000000000
10
4.3547606639
20
22.4586354274
30
0.0000000000
10
4.3298419159
20
22.4691482612
30
0.0000000000
10
4.2898082000
20
22.4813290400
30
0.0000000000
10
4.2464883702
20
22.4903002862
30
0.0000000000
10
4.2009332088
20
22.4958404965
30
0.0000000000
10
4.1542434074
20
22.4978148936
30
0.0000000000
10
4.1075533668
20
22.4961743978
30
0.0000000000
10
4.0619974640
20
22.4909599513
30
0.0000000000
10
4.0186763729
20
22.4822984096
30
0.0000000000
10
3.9786408629
20
22.4704037192
30
0.0000000000
10
3.9537137529
20
22.4600659428
30
0.0000000000
10
3.9421034475
20
22.4543435177
30
0.0000000000
11
4.3663675162
21
22.4528320012
31
0.0000000000
11
4.3305715991
21
22.4681369452
31
0.0000000000
11
4.2904341286
21
22.4804905576
31
0.0000000000
11
4.2469422719
21
22.4895889280
31
0.0000000000
11
4.2011686925
21
22.4952076731
31
0.0000000000
11
4.1542369498
21
22.4972086917
31
0.0000000000
11
4.1073049923
21
22.4955422932
31
0.0000000000
11
4.0615309445
21
22.4902498523
31
0.0000000000
11
4.0180383503
21
22.4814613994
31
0.0000000000
11
3.9779001095
21
22.4693936690
31
0.0000000000
11
3.9421034475
21
22.4543435177
31
0.0000000000
0
SPLINE
5
393
100
AcDbEntity
8
0
100
AcDbSpline
62
0
6
CONTINUOUS
70
0
71
3
72
13
73
9
74
7
42
0.0000001000
43
0.0000001000
44
0.0000000001
12
-0.4312367598
22
0.4734665699
32
0.0000000000
13
-0.5730157043
23
0.2864360409
33
0.0000000000
40
0.0000000000
40
0.0000000000
40
0.0000000000
40
0.0000000000
40
0.2263325555
40
0.4392651718
40
0.6372076945
40
0.8197560175
40
0.9872792954
40
1.0000000000
40
1.0000000000
40
1.0000000000
40
1.0000000000
10
9.3889839038
20
20.2164723738
30
0.0000000000
10
9.3564495979
20
20.2521926734
30
0.0000000000
10
9.2910957185
20
20.3195512761
30
0.0000000000
10
9.1899048357
20
20.4106094692
30
0.0000000000
10
9.0899741451
20
20.4886421736
30
0.0000000000
10
8.9926634623
20
20.5537732146
30
0.0000000000
10
8.9251080566
20
20.5918087186
30
0.0000000000
10
8.8907373489
20
20.6091312539
30
0.0000000000
10
8.8883076277
20
20.6103458100
30
0.0000000000
11
9.3889839038
21
20.2164723738
31
0.0000000000
11
9.2879331392
21
20.3203883531
31
0.0000000000
11
9.1864657264
21
20.4114929143
31
0.0000000000
11
9.0864372425
21
20.4893641545
31
0.0000000000
11
8.9891730214
21
20.5542254644
31
0.0000000000
11
8.8955847465
21
20.6066783389
31
0.0000000000
11
8.8883076277
21
20.6103458100
31
0.0000000000
0
SPLINE
5
394
100
AcDbEntity
8
0
100
AcDbSpline
62
0
6
CONTINUOUS
70
0
71
3
72
13
73
9
74
7
42
0.0000001000
43
0.0000001000
44
0.0000000001
12
0.4109068760
22
0.2010615886
32
0.0000000000
13
0.4098481622
23
-0.2048837263
33
0.0000000000
40
0.0000000000
40
0.0000000000
40
0.0000000000
40
0.0000000000
40
0.2005143800
40
0.3892497752
40
0.5669911938
40
0.7362259433
40
0.8992258387
40
1.0000000000
40
1.0000000000
40
1.0000000000
40
1.0000000000
10
5.2210662461
20
22.1980954886
30
0.0000000000
10
5.2485304919
20
22.2115340685
30
0.0000000000
10
5.3034202593
20
22.2345954389
30
0.0000000000
10
5.3871525653
20
22.2572381881
30
0.0000000000
10
5.4686696795
20
22.2664872900
30
0.0000000000
10
5.5467209873
20
22.2620680724
30
0.0000000000
10
5.6112119436
20
22.2461221316
30
0.0000000000
10
5.6483540633
20
22.2303164018
30
0.0000000000
10
5.6621214315
20
22.2234340732
30
0.0000000000
11
5.2210662461
21
22.1980954886
31
0.0000000000
11
5.3057696021
21
22.2332986638
31
0.0000000000
11
5.3892123391
21
22.2554737536
31
0.0000000000
11
5.4700444943
21
22.2642731882
31
0.0000000000
11
5.5473207369
21
22.2595864702
31
0.0000000000
11
5.6196610986
21
22.2415042832
31
0.0000000000
11
5.6621214315
21
22.2234340732
31
0.0000000000
0
SPLINE
5
395
100
AcDbEntity
8
0
100
AcDbSpline
62
0
6
CONTINUOUS
70
0
71
3
72
15
73
11
74
9
42
0.0000001000
43
0.0000001000
44
0.0000000001
12
0.0000000000
22
0.6311300022
32
0.0000000000
13
-0.5654420458
23
0.2826653478
33
0.0000000000
40
0.0000000000
40
0.0000000000
40
0.0000000000
40
0.0000000000
40
0.1606293349
40
0.3126800366
40
0.4557227302
40
0.5905083928
40
0.7175351878
40
0.8389320932
40
0.9563750069
40
1.0000000000
40
1.0000000000
40
1.0000000000
40
1.0000000000
10
1.6793617477
20
23.8038914983
30
0.0000000000
10
1.6793617477
20
23.8376841625
30
0.0000000000
10
1.6762266671
20
23.9035255062
30
0.0000000000
10
1.6612954420
20
23.9984345548
30
0.0000000000
10
1.6364204124
20
24.0856464003
30
0.0000000000
10
1.6019031578
20
24.1638441381
30
0.0000000000
10
1.5581016249
20
24.2319587907
30
0.0000000000
10
1.5056042447
20
24.2888295371
30
0.0000000000
10
1.4575047477
20
24.3243566366
30
0.0000000000
10
1.4277032129
20
24.3406439921
30
0.0000000000
10
1.4194807444
20
24.3447544168
30
0.0000000000
11
1.6793617477
21
23.8038914983
31
0.0000000000
11
1.6742644088
21
23.9051412612
31
0.0000000000
11
1.6590337127
21
23.9998886574
31
0.0000000000
11
1.6339251994
21
24.0866053025
31
0.0000000000
11
1.5992263171
21
24.1642740152
31
0.0000000000
11
1.5555624116
21
24.2315106111
31
0.0000000000
11
1.5033834218
21
24.2876136664
31
0.0000000000
11
1.4436724507
21
24.3315298732
31
0.0000000000
11
1.4194807444
21
24.3447544168
31
0.0000000000
0
SPLINE
5
396
100
AcDbEntity
8
0
100
AcDbSpline
62
0
6
CONTINUOUS
70
0
71
3
72
10
73
6
74
4
42
0.0000001000
43
0.0000001000
44
0.0000000001
12
0.0556154923
22
0.0171628862
32
0.0000000000
13
0.0478528501
23
-0.0308246041
33
0.0000000000
40
0.0000000000
40
0.0000000000
40
0.0000000000
40
0.0000000000
40
0.4565615055
40
0.7960097470
40
1.0000000000
40
1.0000000000
40
1.0000000000
40
1.0000000000
10
-1.8639051502
20
25.9506833404
30
0.0000000000
10
-1.8554411859
20
25.9532953115
30
0.0000000000
10
-1.8403353358
20
25.9575732400
30
0.0000000000
10
-1.8217509637
20
25.9601898081
30
0.0000000000
10
-1.8100646457
20
25.9601064440
30
0.0000000000
10
-1.8068108074
20
25.9580104711
30
0.0000000000
11
-1.8639051502
21
25.9506833404
31
0.0000000000
11
-1.8382156887
21
25.9574804959
31
0.0000000000
11
-1.8186144296
21
25.9599569274
31
0.0000000000
11
-1.8068108074
21
25.9580104711
31
0.0000000000
0
SPLINE
5
397
100
AcDbEntity
8
0
100
AcDbSpline
62
0
6
CONTINUOUS
70
0
71
3
72
8
73
4
74
2
42
0.0000001000
43
0.0000001000
44
0.0000000001
12
-0.0189936958
22
-0.0058614358
32
0.0000000000
13
-0.0178492873
23
-0.0089568130
33
0.0000000000
40
0.0000000000
40
0.0000000000
40
0.0000000000
40
0.0000000000
40
1.0000000000
40
1.0000000000
40
1.0000000000
40
1.0000000000
10
-1.8639051502
20
25.9506833404
30
0.0000000000
10
-1.8702363822
20
25.9487295285
30
0.0000000000
10
-1.8763948651
20
25.9461951391
30
0.0000000000
10
-1.8823446275
20
25.9432095347
30
0.0000000000
11
-1.8639051502
21
25.9506833404
31
0.0000000000
11
-1.8823446275
21
25.9432095347
31
0.0000000000
0
SPLINE
5
398
100
AcDbEntity
8
0
100
AcDbSpline
62
0
6
CONTINUOUS
70
0
71
3
72
15
73
11
74
9
42
0.0000001000
43
0.0000001000
44
0.0000000001
12
0.7619365976
22
0.4349160100
32
0.0000000000
13
0.7317445571
23
0.4839929935
33
0.0000000000
40
0.0000000000
40
0.0000000000
40
0.0000000000
40
0.0000000000
40
0.1045853351
40
0.2166076899
40
0.3351402480
40
0.4599360516
40
0.5902559263
40
0.7249598041
40
0.8623492495
40
1.0000000000
40
1.0000000000
40
1.0000000000
40
1.0000000000
10
8.6419970149
20
-17.7905243905
30
0.0000000000
10
8.6685594797
20
-17.7753624449
30
0.0000000000
10
8.7234452997
20
-17.7437357637
30
0.0000000000
10
8.8079867560
20
-17.6941506849
30
0.0000000000
10
8.8972240183
20
-17.6408951073
30
0.0000000000
10
8.9906264386
20
-17.5841833257
30
0.0000000000
10
9.0876080486
20
-17.5242606907
30
0.0000000000
10
9.1872196032
20
-17.4615948542
30
0.0000000000
10
9.2880983339
20
-17.3969251900
30
0.0000000000
10
9.3554088413
20
-17.3528906580
30
0.0000000000
10
9.3889839038
20
-17.3306833251
30
0.0000000000
11
8.6419970149
21
-17.7905243905
31
0.0000000000
11
8.7215037250
21
-17.7447234602
31
0.0000000000
11
8.8062828719
21
-17.6950096886
31
0.0000000000
11
8.8955847465
21
-17.6417234294
31
0.0000000000
11
8.9891730214
21
-17.5849033078
31
0.0000000000
11
9.0864372425
21
-17.5248060335
31
0.0000000000
11
9.1864657264
21
-17.4618727343
31
0.0000000000
11
9.2879331392
21
-17.3968104532
31
0.0000000000
11
9.3889839038
21
-17.3306833251
31
0.0000000000
0
SPLINE
5
399
100
AcDbEntity
8
0
100
AcDbSpline
62
0
6
CONTINUOUS
70
0
71
3
72
8
73
4
74
2
42
0.0000001000
43
0.0000001000
44
0.0000000001
12
-0.0496543828
22
-0.0283428911
32
0.0000000000
13
-0.0511446455
23
-0.0256282980
33
0.0000000000
40
0.0000000000
40
0.0000000000
40
0.0000000000
40
0.0000000000
40
1.0000000000
40
1.0000000000
40
1.0000000000
40
1.0000000000
10
8.6419970149
20
-17.7905243905
30
0.0000000000
10
8.6254455540
20
-17.7999720208
30
0.0000000000
10
8.6086242755
20
-17.8089590949
30
0.0000000000
10
8.5915760604
20
-17.8175018609
30
0.0000000000
11
8.6419970149
21
-17.7905243905
31
0.0000000000
11
8.5915760604
21
-17.8175018609
31
0.0000000000
0
SPLINE
5
39A
100
AcDbEntity
8
0
100
AcDbSpline
62
0
6
CONTINUOUS
70
0
71
3
72
14
73
10
74
8
42
0.0000001000
43
0.0000001000
44
0.0000000001
12
0.0000000000
22
0.2525400005
32
0.0000000000
13
0.1603202703
23
0.1951252490
33
0.0000000000
40
0.0000000000
40
0.0000000000
40
0.0000000000
40
0.0000000000
40
0.1318788968
40
0.2706570924
40
0.4139746772
40
0.5610771939
40
0.7087227910
40
0.8559736017
40
1.0000000000
40
1.0000000000
40
1.0000000000
40
1.0000000000
10
3.5531947179
20
16.5312704241
30
0.0000000000
10
3.5531947179
20
16.5423719897
30
0.0000000000
10
3.5546117243
20
16.5651713924
30
0.0000000000
10
3.5605193612
20
16.5995738001
30
0.0000000000
10
3.5701419625
20
16.6344573803
30
0.0000000000
10
3.5832485736
20
16.6689814465
30
0.0000000000
10
3.5995812033
20
16.7024699129
30
0.0000000000
10
3.6187459392
20
16.7341168569
30
0.0000000000
10
3.6333720535
20
16.7538522769
30
0.0000000000
10
3.6410688372
20
16.7632200058
30
0.0000000000
11
3.5531947179
21
16.5312704241
31
0.0000000000
11
3.5551561861
21
16.5645173107
31
0.0000000000
11
3.5610109628
21
16.5990718616
31
0.0000000000
11
3.5705874945
21
16.6339753558
31
0.0000000000
11
3.5837486182
21
16.6687151465
31
0.0000000000
11
3.6000919068
21
16.7022289343
31
0.0000000000
11
3.6193743576
21
16.7340257772
31
0.0000000000
11
3.6410688372
21
16.7632200058
31
0.0000000000
0
SPLINE
5
39B
100
AcDbEntity
8
0
100
AcDbSpline
62
0
6
CONTINUOUS
70
0
71
3
72
14
73
10
74
8
42
0.0000001000
43
0.0000001000
44
0.0000000001
12
0.0000000000
22
0.2525400005
32
0.0000000000
13
0.1603202703
23
0.1951252490
33
0.0000000000
40
0.0000000000
40
0.0000000000
40
0.0000000000
40
0.0000000000
40
0.1318788968
40
0.2706570924
40
0.4139746772
40
0.5610771939
40
0.7087227910
40
0.8559736017
40
1.0000000000
40
1.0000000000
40
1.0000000000
40
1.0000000000
10
-9.8111234465
20
23.2134295064
30
0.0000000000
10
-9.8111234465
20
23.2245310719
30
0.0000000000
10
-9.8097064402
20
23.2473304746
30
0.0000000000
10
-9.8037988032
20
23.2817328823
30
0.0000000000
10
-9.7941762019
20
23.3166164625
30
0.0000000000
10
-9.7810695908
20
23.3511405287
30
0.0000000000
10
-9.7647369612
20
23.3846289951
30
0.0000000000
10
-9.7455722252
20
23.4162759391
30
0.0000000000
10
-9.7309461110
20
23.4360113591
30
0.0000000000
10
-9.7232493273
20
23.4453790880
30
0.0000000000
11
-9.8111234465
21
23.2134295064
31
0.0000000000
11
-9.8091619784
21
23.2466763929
31
0.0000000000
11
-9.8033072016
21
23.2812309439
31
0.0000000000
11
-9.7937306699
21
23.3161344380
31
0.0000000000
11
-9.7805695462
21
23.3508742287
31
0.0000000000
11
-9.7642262576
21
23.3843880165
31
0.0000000000
11
-9.7449438068
21
23.4161848594
31
0.0000000000
11
-9.7232493273
21
23.4453790880
31
0.0000000000
0
SPLINE
5
39C
100
AcDbEntity
8
0
100
AcDbSpline
62
0
6
CONTINUOUS
70
0
71
3
72
14
73
10
74
8
42
0.0000001000
43
0.0000001000
44
0.0000000001
12
0.1603213519
22
0.1951265654
32
0.0000000000
13
0.0000000000
23
0.2525417043
33
0.0000000000
40
0.0000000000
40
0.0000000000
40
0.0000000000
40
0.0000000000
40
0.1440265224
40
0.2912774710
40
0.4389231742
40
0.5860257506
40
0.7293433004
40
0.8681213611
40
1.0000000000
40
1.0000000000
40
1.0000000000
40
1.0000000000
10
4.1683135529
20
17.4049277338
30
0.0000000000
10
4.1760103951
20
17.4142955340
30
0.0000000000
10
4.1906366141
20
17.4340311109
30
0.0000000000
10
4.2098014630
20
17.4656783156
30
0.0000000000
10
4.2261341565
20
17.4991670594
30
0.0000000000
10
4.2392407805
20
17.5336914012
30
0.0000000000
10
4.2488633194
20
17.5685752399
30
0.0000000000
10
4.2547708894
20
17.6029778703
30
0.0000000000
10
4.2561876722
20
17.6257774031
30
0.0000000000
10
4.2561876722
20
17.6368790218
30
0.0000000000
11
4.1683135529
21
17.4049277338
31
0.0000000000
11
4.1900081869
21
17.4341221923
31
0.0000000000
11
4.2092907527
21
17.4659192997
31
0.0000000000
11
4.2256341060
21
17.4994333656
31
0.0000000000
11
4.2387952391
21
17.5341734369
31
0.0000000000
11
4.2483717188
21
17.5690771894
31
0.0000000000
11
4.2542263809
21
17.6036319650
31
0.0000000000
11
4.2561876722
21
17.6368790218
31
0.0000000000
0
SPLINE
5
39D
100
AcDbEntity
8
0
100
AcDbSpline
62
0
6
CONTINUOUS
70
0
71
3
72
13
73
9
74
7
42
0.0000001000
43
0.0000001000
44
0.0000000001
12
0.0000000000
22
0.1573187955
32
0.0000000000
13
-0.1410768327
23
0.0705989525
33
0.0000000000
40
0.0000000000
40
0.0000000000
40
0.0000000000
40
0.0000000000
40
0.2078817330
40
0.4013465439
40
0.5789246977
40
0.7443175029
40
0.8997170363
40
1.0000000000
40
1.0000000000
40
1.0000000000
40
1.0000000000
10
4.2561876722
20
17.9844105386
30
0.0000000000
10
4.2561876722
20
17.9953117732
30
0.0000000000
10
4.2549036831
20
18.0163932549
30
0.0000000000
10
4.2486735549
20
18.0462288508
30
0.0000000000
10
4.2382941731
20
18.0725448934
30
0.0000000000
10
4.2239507053
20
18.0946360993
30
0.0000000000
10
4.2078208921
20
18.1100398602
30
0.0000000000
10
4.1963053627
20
18.1170780167
30
0.0000000000
10
4.1915894951
20
18.1194379741
30
0.0000000000
11
4.2561876722
21
17.9844105386
31
0.0000000000
11
4.2540432878
21
18.0170438630
31
0.0000000000
11
4.2476363600
21
18.0467975204
31
0.0000000000
11
4.2371911940
21
18.0727077482
31
0.0000000000
11
4.2228508270
21
18.0944186415
31
0.0000000000
11
4.2050737368
21
18.1112008925
31
0.0000000000
11
4.1915894951
21
18.1194379741
31
0.0000000000
0
SPLINE
5
39E
100
AcDbEntity
8
0
100
AcDbSpline
62
0
6
CONTINUOUS
70
0
71
3
72
12
73
8
74
6
42
0.0000001000
43
0.0000001000
44
0.0000000001
12
0.1037892104
22
0.0505590123
32
0.0000000000
13
0.1035245975
23
-0.0518042949
33
0.0000000000
40
0.0000000000
40
0.0000000000
40
0.0000000000
40
0.0000000000
40
0.2574797432
40
0.4962941496
40
0.7176884677
40
0.9297317834
40
1.0000000000
40
1.0000000000
40
1.0000000000
40
1.0000000000
10
2.3905883217
20
18.9579646448
30
0.0000000000
10
2.3994961948
20
18.9623039520
30
0.0000000000
10
2.4173269095
20
18.9694241121
30
0.0000000000
10
2.4445576109
20
18.9749597325
30
0.0000000000
10
2.4706447237
20
18.9747191556
30
0.0000000000
10
2.4896310930
20
18.9699030925
30
0.0000000000
10
2.4995800575
20
18.9654437831
30
0.0000000000
10
2.5020048872
20
18.9642303846
30
0.0000000000
11
2.3905883217
21
18.9579646448
31
0.0000000000
11
2.4182666149
21
18.9688057791
31
0.0000000000
11
2.4453255570
21
18.9740938815
31
0.0000000000
11
2.4708818224
21
18.9736750402
31
0.0000000000
11
2.4945845109
21
18.9675546147
31
0.0000000000
11
2.5020048872
21
18.9642303846
31
0.0000000000
0
SPLINE
5
39F
100
AcDbEntity
8
0
100
AcDbSpline
62
0
6
CONTINUOUS
70
0
71
3
72
17
73
13
74
11
42
0.0000001000
43
0.0000001000
44
0.0000000001
12
0.0000000000
22
0.3666502398
32
0.0000000000
13
0.3262254999
23
0.1673598566
33
0.0000000000
40
0.0000000000
40
0.0000000000
40
0.0000000000
40
0.0000000000
40
0.0951010066
40
0.1954626647
40
0.2989499556
40
0.4051948209
40
0.5116959089
40
0.6171488294
40
0.7202917296
40
0.8188238537
40
0.9126130540
40
1.0000000000
40
1.0000000000
40
1.0000000000
40
1.0000000000
10
0.0986560573
20
17.5807450292
30
0.0000000000
10
0.0986560573
20
17.5923679648
30
0.0000000000
10
0.1002107153
20
17.6162741227
30
0.0000000000
10
0.1066689737
20
17.6523018613
30
0.0000000000
10
0.1171705748
20
17.6887828657
30
0.0000000000
10
0.1314432045
20
17.7247636300
30
0.0000000000
10
0.1491705160
20
17.7594427672
30
0.0000000000
10
0.1699109747
20
17.7919616965
30
0.0000000000
10
0.1931554639
20
17.8215167743
30
0.0000000000
10
0.2183893677
20
17.8474509679
30
0.0000000000
10
0.2449560461
20
17.8690900111
30
0.0000000000
10
0.2638792232
20
17.8807580587
30
0.0000000000
10
0.2733818399
20
17.8856330809
30
0.0000000000
11
0.0986560573
21
17.5807450292
31
0.0000000000
11
0.1008004417
21
17.6155478353
31
0.0000000000
11
0.1072073695
21
17.6517834056
31
0.0000000000
11
0.1176525355
21
17.6882610470
31
0.0000000000
11
0.1319929025
21
17.7244801434
31
0.0000000000
11
0.1497699927
21
17.7592475432
31
0.0000000000
11
0.1705887157
21
17.7918283942
31
0.0000000000
11
0.1940172030
21
17.8215144075
31
0.0000000000
11
0.2192778244
21
17.8473416922
31
0.0000000000
11
0.2460237391
21
17.8689560183
31
0.0000000000
11
0.2733818399
21
17.8856330809
31
0.0000000000
0
SPLINE
5
3A0
100
AcDbEntity
8
0
100
AcDbSpline
62
0
6
CONTINUOUS
70
0
71
3
72
14
73
10
74
8
42
0.0000001000
43
0.0000001000
44
0.0000000001
12
0.1603213519
22
0.1951265654
32
0.0000000000
13
0.0000000000
23
0.2525417043
33
0.0000000000
40
0.0000000000
40
0.0000000000
40
0.0000000000
40
0.0000000000
40
0.1440265224
40
0.2912774710
40
0.4389231742
40
0.5860257506
40
0.7293433004
40
0.8681213611
40
1.0000000000
40
1.0000000000
40
1.0000000000
40
1.0000000000
10
-9.1960046116
20
24.0870868160
30
0.0000000000
10
-9.1883077693
20
24.0964546163
30
0.0000000000
10
-9.1736815503
20
24.1161901932
30
0.0000000000
10
-9.1545167014
20
24.1478373978
30
0.0000000000
10
-9.1381840079
20
24.1813261416
30
0.0000000000
10
-9.1250773839
20
24.2158504834
30
0.0000000000
10
-9.1154548450
20
24.2507343221
30
0.0000000000
10
-9.1095472750
20
24.2851369525
30
0.0000000000
10
-9.1081304923
20
24.3079364853
30
0.0000000000
10
-9.1081304923
20
24.3190381040
30
0.0000000000
11
-9.1960046116
21
24.0870868160
31
0.0000000000
11
-9.1743099775
21
24.1162812746
31
0.0000000000
11
-9.1550274117
21
24.1480783819
31
0.0000000000
11
-9.1386840585
21
24.1815924479
31
0.0000000000
11
-9.1255229253
21
24.2163325191
31
0.0000000000
11
-9.1159464456
21
24.2512362716
31
0.0000000000
11
-9.1100917835
21
24.2857910473
31
0.0000000000
11
-9.1081304923
21
24.3190381040
31
0.0000000000
0
SPLINE
5
3A1
100
AcDbEntity
8
0
100
AcDbSpline
62
0
6
CONTINUOUS
70
0
71
3
72
13
73
9
74
7
42
0.0000001000
43
0.0000001000
44
0.0000000001
12
0.0000000000
22
0.1573187955
32
0.0000000000
13
-0.1410768327
23
0.0705989525
33
0.0000000000
40
0.0000000000
40
0.0000000000
40
0.0000000000
40
0.0000000000
40
0.2078817330
40
0.4013465439
40
0.5789246977
40
0.7443175029
40
0.8997170363
40
1.0000000000
40
1.0000000000
40
1.0000000000
40
1.0000000000
10
-9.1081304923
20
24.6665696208
30
0.0000000000
10
-9.1081304923
20
24.6774708554
30
0.0000000000
10
-9.1094144813
20
24.6985523372
30
0.0000000000
10
-9.1156446095
20
24.7283879330
30
0.0000000000
10
-9.1260239913
20
24.7547039756
30
0.0000000000
10
-9.1403674591
20
24.7767951816
30
0.0000000000
10
-9.1564972724
20
24.7921989424
30
0.0000000000
10
-9.1680128017
20
24.7992370989
30
0.0000000000
10
-9.1727286694
20
24.8015970563
30
0.0000000000
11
-9.1081304923
21
24.6665696208
31
0.0000000000
11
-9.1102748766
21
24.6992029452
31
0.0000000000
11
-9.1166818044
21
24.7289566026
31
0.0000000000
11
-9.1271269704
21
24.7548668304
31
0.0000000000
11
-9.1414673375
21
24.7765777237
31
0.0000000000
11
-9.1592444276
21
24.7933599747
31
0.0000000000
11
-9.1727286694
21
24.8015970563
31
0.0000000000
0
SPLINE
5
3A2
100
AcDbEntity
8
0
100
AcDbSpline
62
0
6
CONTINUOUS
70
0
71
3
72
12
73
8
74
6
42
0.0000001000
43
0.0000001000
44
0.0000000001
12
0.1037892104
22
0.0505590123
32
0.0000000000
13
0.1035245975
23
-0.0518042949
33
0.0000000000
40
0.0000000000
40
0.0000000000
40
0.0000000000
40
0.0000000000
40
0.2574797432
40
0.4962941496
40
0.7176884677
40
0.9297317834
40
1.0000000000
40
1.0000000000
40
1.0000000000
40
1.0000000000
10
-10.9737298427
20
25.6401237270
30
0.0000000000
10
-10.9648219696
20
25.6444630342
30
0.0000000000
10
-10.9469912549
20
25.6515831944
30
0.0000000000
10
-10.9197605535
20
25.6571188148
30
0.0000000000
10
-10.8936734408
20
25.6568782378
30
0.0000000000
10
-10.8746870714
20
25.6520621747
30
0.0000000000
10
-10.8647381069
20
25.6476028653
30
0.0000000000
10
-10.8623132773
20
25.6463894668
30
0.0000000000
11
-10.9737298427
21
25.6401237270
31
0.0000000000
11
-10.9460515495
21
25.6509648614
31
0.0000000000
11
-10.9189926074
21
25.6562529637
31
0.0000000000
11
-10.8934363420
21
25.6558341224
31
0.0000000000
11
-10.8697336536
21
25.6497136969
31
0.0000000000
11
-10.8623132773
21
25.6463894668
31
0.0000000000
0
SPLINE
5
3A3
100
AcDbEntity
8
0
100
AcDbSpline
62
0
6
CONTINUOUS
70
0
71
3
72
17
73
13
74
11
42
0.0000001000
43
0.0000001000
44
0.0000000001
12
0.0000000000
22
0.3666502398
32
0.0000000000
13
0.3262254999
23
0.1673598566
33
0.0000000000
40
0.0000000000
40
0.0000000000
40
0.0000000000
40
0.0000000000
40
0.0951010066
40
0.1954626647
40
0.2989499556
40
0.4051948209
40
0.5116959089
40
0.6171488294
40
0.7202917296
40
0.8188238537
40
0.9126130540
40
1.0000000000
40
1.0000000000
40
1.0000000000
40
1.0000000000
10
-13.2656621071
20
24.2629041114
30
0.0000000000
10
-13.2656621071
20
24.2745270471
30
0.0000000000
10
-13.2641074491
20
24.2984332049
30
0.0000000000
10
-13.2576491907
20
24.3344609435
30
0.0000000000
10
-13.2471475896
20
24.3709419479
30
0.0000000000
10
-13.2328749599
20
24.4069227122
30
0.0000000000
10
-13.2151476484
20
24.4416018495
30
0.0000000000
10
-13.1944071897
20
24.4741207787
30
0.0000000000
10
-13.1711627005
20
24.5036758565
30
0.0000000000
10
-13.1459287968
20
24.5296100501
30
0.0000000000
10
-13.1193621183
20
24.5512490933
30
0.0000000000
10
-13.1004389413
20
24.5629171409
30
0.0000000000
10
-13.0909363246
20
24.5677921631
30
0.0000000000
11
-13.2656621071
21
24.2629041114
31
0.0000000000
11
-13.2635177228
21
24.2977069175
31
0.0000000000
11
-13.2571107949
21
24.3339424878
31
0.0000000000
11
-13.2466656289
21
24.3704201292
31
0.0000000000
11
-13.2323252619
21
24.4066392256
31
0.0000000000
11
-13.2145481717
21
24.4414066254
31
0.0000000000
11
-13.1937294487
21
24.4739874764
31
0.0000000000
11
-13.1703009614
21
24.5036734898
31
0.0000000000
11
-13.1450403400
21
24.5295007744
31
0.0000000000
11
-13.1182944253
21
24.5511151005
31
0.0000000000
11
-13.0909363246
21
24.5677921631
31
0.0000000000
0
SPLINE
5
3A4
100
AcDbEntity
8
0
100
AcDbSpline
62
0
6
CONTINUOUS
70
0
71
3
72
13
73
9
74
7
42
0.0000001000
43
0.0000001000
44
0.0000000001
12
0.0000000000
22
0.1573462303
32
0.0000000000
13
-0.1411200199
23
0.0705753522
33
0.0000000000
40
0.0000000000
40
0.0000000000
40
0.0000000000
40
0.0000000000
40
0.1990786305
40
0.3848094900
40
0.5562307156
40
0.7160338523
40
0.8658122188
40
1.0000000000
40
1.0000000000
40
1.0000000000
40
1.0000000000
10
4.2561876722
20
-23.6627251175
30
0.0000000000
10
4.2561876722
20
-23.6522836935
30
0.0000000000
10
4.2550077645
20
-23.6320705677
30
0.0000000000
10
4.2493032465
20
-23.6033546331
30
0.0000000000
10
4.2398012093
20
-23.5778161589
30
0.0000000000
10
4.2266636885
20
-23.5560778359
30
0.0000000000
10
4.2104772229
20
-23.5390663069
30
0.0000000000
10
4.1978988906
20
-23.5308497012
30
0.0000000000
10
4.1915866965
20
-23.5276929179
30
0.0000000000
11
4.2561876722
21
-23.6627251175
31
0.0000000000
11
4.2542263809
21
-23.6314623065
31
0.0000000000
11
4.2483717188
21
-23.6028307144
31
0.0000000000
11
4.2387952391
21
-23.5776155223
31
0.0000000000
11
4.2256341060
21
-23.5561906188
31
0.0000000000
11
4.2092907527
21
-23.5392111846
31
0.0000000000
11
4.1915866965
21
-23.5276929179
31
0.0000000000
0
SPLINE
5
3A5
100
AcDbEntity
8
0
100
AcDbSpline
62
0
6
CONTINUOUS
70
0
71
3
72
17
73
13
74
11
42
0.0000001000
43
0.0000001000
44
0.0000000001
12
0.3262254999
22
0.1673598566
32
0.0000000000
13
0.0000000000
23
0.3666502398
33
0.0000000000
40
0.0000000000
40
0.0000000000
40
0.0000000000
40
0.0000000000
40
0.0873869460
40
0.1811761463
40
0.2797082704
40
0.3828511706
40
0.4883040911
40
0.5948051791
40
0.7010500444
40
0.8045373353
40
0.9048989934
40
1.0000000000
40
1.0000000000
40
1.0000000000
40
1.0000000000
10
4.0814618896
20
-24.3151446860
30
0.0000000000
10
4.0909645063
20
-24.3102696637
30
0.0000000000
10
4.1098876834
20
-24.2986016161
30
0.0000000000
10
4.1364543618
20
-24.2769625730
30
0.0000000000
10
4.1616882656
20
-24.2510283794
30
0.0000000000
10
4.1849327548
20
-24.2214733016
30
0.0000000000
10
4.2056732135
20
-24.1889543723
30
0.0000000000
10
4.2234005250
20
-24.1542752351
30
0.0000000000
10
4.2376731547
20
-24.1182944708
30
0.0000000000
10
4.2481747558
20
-24.0818134664
30
0.0000000000
10
4.2546330142
20
-24.0457857277
30
0.0000000000
10
4.2561876722
20
-24.0218795699
30
0.0000000000
10
4.2561876722
20
-24.0102566343
30
0.0000000000
11
4.0814618896
21
-24.3151446860
31
0.0000000000
11
4.1088199904
21
-24.2984676233
31
0.0000000000
11
4.1355659051
21
-24.2768532973
31
0.0000000000
11
4.1608265265
21
-24.2510260126
31
0.0000000000
11
4.1842550137
21
-24.2213399992
31
0.0000000000
11
4.2050737368
21
-24.1887591483
31
0.0000000000
11
4.2228508270
21
-24.1539917485
31
0.0000000000
11
4.2371911940
21
-24.1177726521
31
0.0000000000
11
4.2476363600
21
-24.0812950107
31
0.0000000000
11
4.2540432878
21
-24.0450594404
31
0.0000000000
11
4.2561876722
21
-24.0102566343
31
0.0000000000
0
SPLINE
5
3A6
100
AcDbEntity
8
0
100
AcDbSpline
62
0
6
CONTINUOUS
70
0
71
3
72
14
73
10
74
8
42
0.0000001000
43
0.0000001000
44
0.0000000001
12
0.0000000000
22
0.2525417043
32
0.0000000000
13
0.1603213519
23
0.1951265654
33
0.0000000000
40
0.0000000000
40
0.0000000000
40
0.0000000000
40
0.0000000000
40
0.1318786389
40
0.2706566996
40
0.4139742494
40
0.5610768258
40
0.7087225290
40
0.8559734776
40
1.0000000000
40
1.0000000000
40
1.0000000000
40
1.0000000000
10
0.0986560573
20
-24.0588330443
30
0.0000000000
10
0.0986560573
20
-24.0477314255
30
0.0000000000
10
0.1000728400
20
-24.0249318928
30
0.0000000000
10
0.1059804101
20
-23.9905292624
30
0.0000000000
10
0.1156029490
20
-23.9556454237
30
0.0000000000
10
0.1287095730
20
-23.9211210819
30
0.0000000000
10
0.1450422665
20
-23.8876323381
30
0.0000000000
10
0.1642071154
20
-23.8559851334
30
0.0000000000
10
0.1788333344
20
-23.8362495565
30
0.0000000000
10
0.1865301766
20
-23.8268817563
30
0.0000000000
11
0.0986560573
21
-24.0588330443
31
0.0000000000
11
0.1006173486
21
-24.0255859875
31
0.0000000000
11
0.1064720107
21
-23.9910312118
31
0.0000000000
11
0.1160484904
21
-23.9561274594
31
0.0000000000
11
0.1292096235
21
-23.9213873881
31
0.0000000000
11
0.1455529767
21
-23.8878733221
31
0.0000000000
11
0.1648355426
21
-23.8560762148
31
0.0000000000
11
0.1865301766
21
-23.8268817563
31
0.0000000000
0
SPLINE
5
3A7
100
AcDbEntity
8
0
100
AcDbSpline
62
0
6
CONTINUOUS
70
0
71
3
72
9
73
5
74
3
42
0.0000001000
43
0.0000001000
44
0.0000000001
12
-0.0220849486
22
0.0110448753
32
0.0000000000
13
-0.0241207855
23
0.0049542358
33
0.0000000000
40
0.0000000000
40
0.0000000000
40
0.0000000000
40
0.0000000000
40
0.0711334077
40
1.0000000000
40
1.0000000000
40
1.0000000000
40
1.0000000000
10
4.1915866965
20
-23.5276929179
30
0.0000000000
10
4.1910630373
20
-23.5274310314
30
0.0000000000
10
4.1836657516
20
-23.5238196450
30
0.0000000000
10
4.1757818835
20
-23.5212103469
30
0.0000000000
10
4.1683135529
20
-23.5196764056
30
0.0000000000
11
4.1915866965
21
-23.5276929179
31
0.0000000000
11
4.1900081869
21
-23.5269223215
31
0.0000000000
11
4.1683135529
21
-23.5196764056
31
0.0000000000
0
SPLINE
5
3A8
100
AcDbEntity
8
0
100
AcDbSpline
62
0
6
CONTINUOUS
70
0
71
3
72
12
73
8
74
6
42
0.0000001000
43
0.0000001000
44
0.0000000001
12
-0.1024460385
22
0.0512669789
32
0.0000000000
13
-0.1022335317
23
-0.0509823104
33
0.0000000000
40
0.0000000000
40
0.0000000000
40
0.0000000000
40
0.0000000000
40
0.0701707674
40
0.2818334567
40
0.5029641069
40
0.7418852029
40
1.0000000000
40
1.0000000000
40
1.0000000000
40
1.0000000000
10
-9.1727286694
20
24.8015970563
30
0.0000000000
10
-9.1751249084
20
24.8027962041
30
0.0000000000
10
-9.1849558036
20
24.8071971141
30
0.0000000000
10
-9.2037339901
20
24.8119064373
30
0.0000000000
10
-9.2295336279
20
24.8119922152
30
0.0000000000
10
-9.2564548554
20
24.8062924035
30
0.0000000000
10
-9.2740602790
20
24.7990733726
30
0.0000000000
10
-9.2828562748
20
24.7946869431
30
0.0000000000
11
-9.1727286694
21
24.8015970563
31
0.0000000000
11
-9.1800631507
21
24.8048784455
31
0.0000000000
11
-9.2034916380
21
24.8108617704
31
0.0000000000
11
-9.2287522593
21
24.8111327897
31
0.0000000000
11
-9.2554981740
21
24.8056881736
31
0.0000000000
11
-9.2828562748
21
24.7946869431
31
0.0000000000
0
SPLINE
5
3A9
100
AcDbEntity
8
0
100
AcDbSpline
62
0
6
CONTINUOUS
70
0
71
3
72
12
73
8
74
6
42
0.0000001000
43
0.0000001000
44
0.0000000001
12
-0.1024460385
22
0.0512669789
32
0.0000000000
13
-0.1022335317
23
-0.0509823104
33
0.0000000000
40
0.0000000000
40
0.0000000000
40
0.0000000000
40
0.0000000000
40
0.0701707674
40
0.2818334567
40
0.5029641069
40
0.7418852029
40
1.0000000000
40
1.0000000000
40
1.0000000000
40
1.0000000000
10
4.1915894951
20
18.1194379741
30
0.0000000000
10
4.1891932560
20
18.1206371219
30
0.0000000000
10
4.1793623608
20
18.1250380319
30
0.0000000000
10
4.1605841743
20
18.1297473551
30
0.0000000000
10
4.1347845365
20
18.1298331330
30
0.0000000000
10
4.1078633090
20
18.1241333213
30
0.0000000000
10
4.0902578854
20
18.1169142904
30
0.0000000000
10
4.0814618896
20
18.1125278608
30
0.0000000000
11
4.1915894951
21
18.1194379741
31
0.0000000000
11
4.1842550137
21
18.1227193633
31
0.0000000000
11
4.1608265265
21
18.1287026882
31
0.0000000000
11
4.1355659051
21
18.1289737075
31
0.0000000000
11
4.1088199904
21
18.1235290914
31
0.0000000000
11
4.0814618896
21
18.1125278608
31
0.0000000000
0
SPLINE
5
3AA
100
AcDbEntity
8
0
100
AcDbSpline
62
0
6
CONTINUOUS
70
0
71
3
72
8
73
4
74
2
42
0.0000001000
43
0.0000001000
44
0.0000000001
12
0.0002454748
22
0.0085435457
32
0.0000000000
13
-0.0053364816
23
0.0075239063
33
0.0000000000
40
0.0000000000
40
0.0000000000
40
0.0000000000
40
0.0000000000
40
1.0000000000
40
1.0000000000
40
1.0000000000
40
1.0000000000
10
9.3903102226
20
-17.3266301029
30
0.0000000000
10
9.3903920476
20
-17.3237822544
30
0.0000000000
10
9.3886526767
20
-17.3210577825
30
0.0000000000
10
9.3868738495
20
-17.3185498138
30
0.0000000000
11
9.3903102226
21
-17.3266301029
31
0.0000000000
11
9.3868738495
21
-17.3185498138
31
0.0000000000
0
SPLINE
5
3AB
100
AcDbEntity
8
0
100
AcDbSpline
62
0
6
CONTINUOUS
70
0
71
3
72
11
73
7
74
5
42
0.0000001000
43
0.0000001000
44
0.0000000001
12
-0.0663186737
22
0.0935027089
32
0.0000000000
13
-0.0863886430
23
0.0648670732
33
0.0000000000
40
0.0000000000
40
0.0000000000
40
0.0000000000
40
0.0000000000
40
0.1581044998
40
0.3820090898
40
0.6646809553
40
1.0000000000
40
1.0000000000
40
1.0000000000
40
1.0000000000
10
9.3868738495
20
-17.3185498138
30
0.0000000000
10
9.3833787559
20
-17.3136220807
30
0.0000000000
10
9.3745659366
20
-17.3037352850
30
0.0000000000
10
9.3566928775
20
-17.2873323606
30
0.0000000000
10
9.3334148132
20
-17.2680837148
30
0.0000000000
10
9.3157513436
20
-17.2544870347
30
0.0000000000
10
9.3060954245
20
-17.2472366463
30
0.0000000000
11
9.3868738495
21
-17.3185498138
31
0.0000000000
11
9.3758339563
21
-17.3055169898
31
0.0000000000
11
9.3581979067
21
-17.2889621778
31
0.0000000000
11
9.3347499184
21
-17.2693988691
31
0.0000000000
11
9.3060954245
21
-17.2472366463
31
0.0000000000
0
SPLINE
5
3AC
100
AcDbEntity
8
0
100
AcDbSpline
62
0
6
CONTINUOUS
70
0
71
3
72
11
73
7
74
5
42
0.0000001000
43
0.0000001000
44
0.0000000001
12
-0.1625542203
22
-0.0815700781
32
0.0000000000
13
-0.0905678769
23
-0.1567410448
33
0.0000000000
40
0.0000000000
40
0.0000000000
40
0.0000000000
40
0.0000000000
40
0.1162303016
40
0.3703269026
40
0.6635318032
40
1.0000000000
40
1.0000000000
40
1.0000000000
40
1.0000000000
10
-1.8823446275
20
25.9432095347
30
0.0000000000
10
-1.8886425362
20
25.9400492298
30
0.0000000000
10
-1.9079634862
20
25.9283692271
30
0.0000000000
10
-1.9375520331
20
25.9010365766
30
0.0000000000
10
-1.9704295865
20
25.8588565852
30
0.0000000000
10
-1.9905066052
20
25.8265402415
30
0.0000000000
10
-2.0006643420
20
25.8089607826
30
0.0000000000
11
-1.8823446275
21
25.9432095347
31
0.0000000000
11
-1.9004941066
21
25.9323653509
31
0.0000000000
11
-1.9349361792
21
25.9018766567
31
0.0000000000
11
-1.9680942441
21
25.8604305956
31
0.0000000000
11
-2.0006643420
21
25.8089607826
31
0.0000000000
0
SPLINE
5
3AD
100
AcDbEntity
8
0
100
AcDbSpline
62
0
6
CONTINUOUS
70
0
71
3
72
13
73
9
74
7
42
0.0000001000
43
0.0000001000
44
0.0000000001
12
-0.4098481622
22
0.2048837263
32
0.0000000000
13
-0.4109068760
23
-0.2010615886
33
0.0000000000
40
0.0000000000
40
0.0000000000
40
0.0000000000
40
0.0000000000
40
0.1007741613
40
0.2637740567
40
0.4330088062
40
0.6107502248
40
0.7994856200
40
1.0000000000
40
1.0000000000
40
1.0000000000
40
1.0000000000
10
1.4194807444
20
24.3447544168
30
0.0000000000
10
1.4057133761
20
24.3516367453
30
0.0000000000
10
1.3685712565
20
24.3674424751
30
0.0000000000
10
1.3040803002
20
24.3833884160
30
0.0000000000
10
1.2260289924
20
24.3878076335
30
0.0000000000
10
1.1445118782
20
24.3785585317
30
0.0000000000
10
1.0607795722
20
24.3559157824
30
0.0000000000
10
1.0058898048
20
24.3328544121
30
0.0000000000
10
0.9784255590
20
24.3194158321
30
0.0000000000
11
1.4194807444
21
24.3447544168
31
0.0000000000
11
1.3770204115
21
24.3628246267
31
0.0000000000
11
1.3046800498
21
24.3809068138
31
0.0000000000
11
1.2274038072
21
24.3855935317
31
0.0000000000
11
1.1465716519
21
24.3767940972
31
0.0000000000
11
1.0631289150
21
24.3546190074
31
0.0000000000
11
0.9784255590
21
24.3194158321
31
0.0000000000
0
SPLINE
5
3AE
100
AcDbEntity
8
0
100
AcDbSpline
62
0
6
CONTINUOUS
70
0
71
3
72
10
73
6
74
4
42
0.0000001000
43
0.0000001000
44
0.0000000001
12
-0.2344480368
22
0.1171946370
32
0.0000000000
13
-0.2568936911
23
0.0516051973
33
0.0000000000
40
0.0000000000
40
0.0000000000
40
0.0000000000
40
0.0000000000
40
0.3436557906
40
0.6870119842
40
1.0000000000
40
1.0000000000
40
1.0000000000
40
1.0000000000
10
8.8883076277
20
20.6103458100
30
0.0000000000
10
8.8614511526
20
20.6237706819
30
0.0000000000
10
8.8067818923
20
20.6486595355
30
0.0000000000
10
8.7244422475
20
20.6781269325
30
0.0000000000
10
8.6687985638
20
20.6923483217
30
0.0000000000
10
8.6419970149
20
20.6977322578
30
0.0000000000
11
8.8883076277
21
20.6103458100
31
0.0000000000
11
8.8062828719
21
20.6475082766
31
0.0000000000
11
8.7215037250
21
20.6776207891
31
0.0000000000
11
8.6419970149
21
20.6977322578
31
0.0000000000
0
SPLINE
5
3AF
100
AcDbEntity
8
0
100
AcDbSpline
62
0
6
CONTINUOUS
70
0
71
3
72
9
73
5
74
3
42
0.0000001000
43
0.0000001000
44
0.0000000001
12
0.0001767801
22
0.0054141286
32
0.0000000000
13
-0.0029429943
23
0.0049589549
33
0.0000000000
40
0.0000000000
40
0.0000000000
40
0.0000000000
40
0.0000000000
40
0.6316411435
40
1.0000000000
40
1.0000000000
40
1.0000000000
40
1.0000000000
10
9.3903636318
20
19.6082231672
30
0.0000000000
10
9.3904008523
20
19.6093630960
30
0.0000000000
10
9.3895749771
20
19.6113778736
30
0.0000000000
10
9.3886326496
20
19.6131082143
30
0.0000000000
10
9.3882712902
20
19.6137171059
30
0.0000000000
11
9.3903636318
21
19.6082231672
31
0.0000000000
11
9.3893110777
21
19.6117948469
31
0.0000000000
11
9.3882712902
21
19.6137171059
31
0.0000000000
0
SPLINE
5
3B0
100
AcDbEntity
8
0
100
AcDbSpline
62
0
6
CONTINUOUS
70
0
71
3
72
14
73
10
74
8
42
0.0000001000
43
0.0000001000
44
0.0000000001
12
-0.0566695584
22
0.0954883889
32
0.0000000000
13
-0.0880104637
23
0.0641532364
33
0.0000000000
40
0.0000000000
40
0.0000000000
40
0.0000000000
40
0.0000000000
40
0.0507979489
40
0.1496779943
40
0.2757326834
40
0.4265637239
40
0.5995479182
40
0.7917799682
40
1.0000000000
40
1.0000000000
40
1.0000000000
40
1.0000000000
10
9.3882712902
20
19.6137171059
30
0.0000000000
10
9.3873117245
20
19.6153339773
30
0.0000000000
10
9.3841883680
20
19.6195061144
30
0.0000000000
10
9.3772942656
20
19.6270030692
30
0.0000000000
10
9.3673806336
20
19.6362874892
30
0.0000000000
10
9.3549777586
20
19.6469532400
30
0.0000000000
10
9.3403968595
20
19.6587080424
30
0.0000000000
10
9.3238900039
20
19.6713989076
30
0.0000000000
10
9.3122039383
20
19.6800469652
30
0.0000000000
10
9.3060954245
20
19.6844996282
30
0.0000000000
11
9.3882712902
21
19.6137171059
31
0.0000000000
11
9.3851204068
21
19.6181540629
31
0.0000000000
11
9.3779137406
21
19.6261563608
31
0.0000000000
11
9.3679661511
21
19.6356179577
31
0.0000000000
11
9.3555403900
21
19.6463626844
31
0.0000000000
11
9.3408972091
21
19.6582165703
31
0.0000000000
11
9.3243136595
21
19.6709956564
31
0.0000000000
11
9.3060954245
21
19.6844996282
31
0.0000000000
0
SPLINE
5
3B1
100
AcDbEntity
8
0
100
AcDbSpline
62
0
6
CONTINUOUS
70
0
71
3
72
12
73
8
74
6
42
0.0000001000
43
0.0000001000
44
0.0000000001
12
-0.0001112880
22
-0.3027556084
32
0.0000000000
13
-0.1478565247
23
-0.2641316829
33
0.0000000000
40
0.0000000000
40
0.0000000000
40
0.0000000000
40
0.0000000000
40
0.1758487554
40
0.3770020419
40
0.5821736245
40
0.7902417506
40
1.0000000000
40
1.0000000000
40
1.0000000000
40
1.0000000000
10
9.3902937645
20
20.1844352880
30
0.0000000000
10
9.3902872412
20
20.1666888890
30
0.0000000000
10
9.3876586956
20
20.1286103046
30
0.0000000000
10
9.3767768034
20
20.0707738088
30
0.0000000000
10
9.3590121668
20
20.0112744824
30
0.0000000000
10
9.3355066563
20
19.9528903909
30
0.0000000000
10
9.3164334664
20
19.9152267154
30
0.0000000000
10
9.3060954245
20
19.8967587823
30
0.0000000000
11
9.3902937645
21
20.1844352880
31
0.0000000000
11
9.3868738495
21
20.1313021380
31
0.0000000000
11
9.3758339563
21
20.0714222962
31
0.0000000000
11
9.3581979067
21
20.0118736010
31
0.0000000000
11
9.3347499184
21
19.9534189709
31
0.0000000000
11
9.3060954245
21
19.8967587823
31
0.0000000000
0
SPLINE
5
3B2
100
AcDbEntity
8
0
100
AcDbSpline
62
0
6
CONTINUOUS
70
0
71
3
72
12
73
8
74
6
42
0.0000001000
43
0.0000001000
44
0.0000000001
12
-0.0000037860
22
-0.1438614601
32
0.0000000000
13
-0.1287763930
23
-0.0630118104
33
0.0000000000
40
0.0000000000
40
0.0000000000
40
0.0000000000
40
0.0000000000
40
0.1638187652
40
0.3390033906
40
0.5342164121
40
0.7541293018
40
1.0000000000
40
1.0000000000
40
1.0000000000
40
1.0000000000
10
-0.9197760552
20
23.8018458664
30
0.0000000000
10
-0.9197762619
20
23.7939901308
30
0.0000000000
10
-0.9224649437
20
23.7777322573
30
0.0000000000
10
-0.9340879467
20
23.7546406663
30
0.0000000000
10
-0.9526757246
20
23.7331267949
30
0.0000000000
10
-0.9776341185
20
23.7135253288
30
0.0000000000
10
-0.9970899069
20
23.7025473231
30
0.0000000000
10
-1.0076440208
20
23.6973830705
30
0.0000000000
11
-0.9197760552
21
23.8018458664
31
0.0000000000
11
-0.9234693074
21
23.7786519941
31
0.0000000000
11
-0.9344584605
21
23.7560681732
31
0.0000000000
11
-0.9524736061
21
23.7346503512
31
0.0000000000
11
-0.9770704709
21
23.7149269431
31
0.0000000000
11
-1.0076440208
21
23.6973830705
31
0.0000000000
0
SPLINE
5
3B3
100
AcDbEntity
8
0
100
AcDbSpline
62
0
6
CONTINUOUS
70
0
71
3
72
12
73
8
74
6
42
0.0000001000
43
0.0000001000
44
0.0000000001
12
-0.0000271067
22
-0.1424881500
32
0.0000000000
13
-0.1272561834
23
-0.0630046818
33
0.0000000000
40
0.0000000000
40
0.0000000000
40
0.0000000000
40
0.0000000000
40
0.1616494759
40
0.3374736946
40
0.5331965554
40
0.7535889118
40
1.0000000000
40
1.0000000000
40
1.0000000000
40
1.0000000000
10
4.6346874024
20
21.0246157738
30
0.0000000000
10
4.6346859418
20
21.0169380622
30
0.0000000000
10
4.6321006270
20
21.0009055810
30
0.0000000000
10
4.6207647738
20
20.9779998908
30
0.0000000000
10
4.6024344601
20
20.9565179058
30
0.0000000000
10
4.5777623279
20
20.9369230252
30
0.0000000000
10
4.5585024755
20
20.9259319988
30
0.0000000000
10
4.5480500306
20
20.9207569814
30
0.0000000000
11
4.6346874024
21
21.0246157738
31
0.0000000000
11
4.6311562175
21
21.0019311494
31
0.0000000000
11
4.6203802158
21
20.9794095518
31
0.0000000000
11
4.6026209040
21
20.9580313494
31
0.0000000000
11
4.5783130020
21
20.9383200746
31
0.0000000000
11
4.5480500306
21
20.9207569814
31
0.0000000000
0
SPLINE
5
3B4
100
AcDbEntity
8
0
100
AcDbSpline
62
0
6
CONTINUOUS
70
0
71
3
72
13
73
9
74
7
42
0.0000001000
43
0.0000001000
44
0.0000000001
12
-0.0000199727
22
-0.1454202046
32
0.0000000000
13
0.1296323661
23
-0.0648161831
33
0.0000000000
40
0.0000000000
40
0.0000000000
40
0.0000000000
40
0.0000000000
40
0.0030152475
40
0.1674532572
40
0.3429528197
40
0.5377595388
40
0.7563608844
40
1.0000000000
40
1.0000000000
40
1.0000000000
40
1.0000000000
10
-7.6687217463
20
22.2042573894
30
0.0000000000
10
-7.6687217663
20
22.2041112301
30
0.0000000000
10
-7.6686988868
20
22.1959942169
30
0.0000000000
10
-7.6659153005
20
22.1793861833
30
0.0000000000
10
-7.6542657234
20
22.1559765966
30
0.0000000000
10
-7.6356983905
20
22.1341312412
30
0.0000000000
10
-7.6108007972
20
22.1142041157
30
0.0000000000
10
-7.5913816553
20
22.1030142752
30
0.0000000000
10
-7.5808538170
20
22.0977503560
30
0.0000000000
11
-7.6687217463
21
22.2042573894
31
0.0000000000
11
-7.6687205091
21
22.2038189146
31
0.0000000000
11
-7.6649178167
21
22.1802916885
31
0.0000000000
11
-7.6538759565
21
22.1573776199
31
0.0000000000
11
-7.6358643341
21
22.1356350321
31
0.0000000000
11
-7.6113238632
21
22.1155962045
31
0.0000000000
11
-7.5808538170
21
22.0977503560
31
0.0000000000
0
SPLINE
5
3B5
100
AcDbEntity
8
0
100
AcDbSpline
62
0
6
CONTINUOUS
70
0
71
3
72
12
73
8
74
6
42
0.0000001000
43
0.0000001000
44
0.0000000001
12
-0.1462308253
22
0.0731154127
32
0.0000000000
13
-0.1459964177
23
-0.0745957438
33
0.0000000000
40
0.0000000000
40
0.0000000000
40
0.0000000000
40
0.0000000000
40
0.2553591691
40
0.4911746382
40
0.7106351586
40
0.9194242855
40
1.0000000000
40
1.0000000000
40
1.0000000000
40
1.0000000000
10
-13.3820126915
20
22.7113782216
30
0.0000000000
10
-13.3944598189
20
22.7176017853
30
0.0000000000
10
-13.4193453454
20
22.7278405808
30
0.0000000000
10
-13.4574465909
20
22.7359941788
30
0.0000000000
10
-13.4939473086
20
22.7359981873
30
0.0000000000
10
-13.5211611824
20
22.7293078749
30
0.0000000000
10
-13.5356012686
20
22.7228164373
30
0.0000000000
10
-13.5395225238
20
22.7208129021
30
0.0000000000
11
-13.3820126915
21
22.7113782216
31
0.0000000000
11
-13.4207272322
21
22.7270037731
31
0.0000000000
11
-13.4584883440
21
22.7347811342
31
0.0000000000
11
-13.4943672123
21
22.7345188273
31
0.0000000000
11
-13.5274790305
21
22.7262232886
31
0.0000000000
11
-13.5395225238
21
22.7208129021
31
0.0000000000
0
SPLINE
5
3B6
100
AcDbEntity
8
0
100
AcDbSpline
62
0
6
CONTINUOUS
70
0
71
3
72
17
73
13
74
11
42
0.0000001000
43
0.0000001000
44
0.0000000001
12
0.0000000000
22
0.5152490307
32
0.0000000000
13
-0.4608527432
23
0.2304263716
33
0.0000000000
40
0.0000000000
40
0.0000000000
40
0.0000000000
40
0.0000000000
40
0.0951726438
40
0.1952932407
40
0.2990931070
40
0.4050821278
40
0.5116639643
40
0.6171967785
40
0.7200955718
40
0.8189336013
40
0.9125145547
40
1.0000000000
40
1.0000000000
40
1.0000000000
40
1.0000000000
10
2.1389811555
20
14.6477608649
30
0.0000000000
10
2.1389811555
20
14.6641067357
30
0.0000000000
10
2.1367755817
20
14.6976732283
30
0.0000000000
10
2.1276107441
20
14.7483127240
30
0.0000000000
10
2.1127209966
20
14.7995104789
30
0.0000000000
10
2.0924676886
20
14.8500221349
30
0.0000000000
10
2.0673413570
20
14.8986296820
30
0.0000000000
10
2.0379496439
20
14.9441557925
30
0.0000000000
10
2.0050034305
20
14.9854991536
30
0.0000000000
10
1.9692890588
20
15.0216644479
30
0.0000000000
10
1.9316684121
20
15.0517741720
30
0.0000000000
10
1.9049330846
20
15.0679053335
30
0.0000000000
10
1.8914937821
20
15.0746249848
30
0.0000000000
11
2.1389811555
21
14.6477608649
31
0.0000000000
11
2.1359340686
21
14.6967037162
31
0.0000000000
11
2.1268679851
21
14.7474878563
31
0.0000000000
11
2.1120058711
21
14.7988641677
31
0.0000000000
11
2.0917145119
21
14.8495651902
31
0.0000000000
11
2.0664918554
21
14.8983463885
31
0.0000000000
11
2.0369601211
21
14.9440037128
31
0.0000000000
11
2.0038483029
21
14.9854110697
31
0.0000000000
11
1.9679694346
21
15.0215522449
31
0.0000000000
11
1.9302083227
21
15.0515359957
31
0.0000000000
11
1.8914937821
21
15.0746249848
31
0.0000000000
0
SPLINE
5
3B7
100
AcDbEntity
8
0
100
AcDbSpline
62
0
6
CONTINUOUS
70
0
71
3
72
17
73
13
74
11
42
0.0000001000
43
0.0000001000
44
0.0000000001
12
0.0000000000
22
0.5152490286
32
0.0000000000
13
-0.4608527413
23
0.2304263707
33
0.0000000000
40
0.0000000000
40
0.0000000000
40
0.0000000000
40
0.0000000000
40
0.0951686493
40
0.1952865842
40
0.2990826087
40
0.4050717387
40
0.5116494140
40
0.6171798582
40
0.7200829815
40
0.8189239543
40
0.9125100339
40
1.0000000000
40
1.0000000000
40
1.0000000000
40
1.0000000000
10
3.9067481085
20
15.5505385643
30
0.0000000000
10
3.9067481085
20
15.5668837491
30
0.0000000000
10
3.9045427016
20
15.6004490956
30
0.0000000000
10
3.8953784822
20
15.6510868647
30
0.0000000000
10
3.8804894742
20
15.7022836818
30
0.0000000000
10
3.8602371523
20
15.7527942725
30
0.0000000000
10
3.8351118754
20
15.8014011127
30
0.0000000000
10
3.8057210320
20
15.8469273264
30
0.0000000000
10
3.7727749009
20
15.8882718398
30
0.0000000000
10
3.7370594837
20
15.9244391032
30
0.0000000000
10
3.6994374287
20
15.9545505509
30
0.0000000000
10
3.6727007320
20
15.9706826858
30
0.0000000000
10
3.6592607351
20
15.9774026843
30
0.0000000000
11
3.9067481085
21
15.5505385643
31
0.0000000000
11
3.9037012701
21
15.5994793688
31
0.0000000000
11
3.8946357215
21
15.6502622108
31
0.0000000000
11
3.8797745880
21
15.7016367451
31
0.0000000000
11
3.8594836952
21
15.7523380146
31
0.0000000000
11
3.8342625742
21
15.8011175928
31
0.0000000000
11
3.8047321733
21
15.8467743251
31
0.0000000000
11
3.7716195748
21
15.8881839144
31
0.0000000000
11
3.7357400929
21
15.9243266171
31
0.0000000000
11
3.6979771938
21
15.9543123640
31
0.0000000000
11
3.6592607351
21
15.9774026843
31
0.0000000000
0
SPLINE
5
3B8
100
AcDbEntity
8
0
100
AcDbSpline
62
0
6
CONTINUOUS
70
0
71
3
72
13
73
9
74
7
42
0.0000001000
43
0.0000001000
44
0.0000000001
12
0.0000000000
22
-0.2196500159
32
0.0000000000
13
-0.1961404309
23
-0.1002301717
33
0.0000000000
40
0.0000000000
40
0.0000000000
40
0.0000000000
40
0.0000000000
40
0.2094012719
40
0.4037602127
40
0.5832359259
40
0.7496749212
40
0.9067994324
40
1.0000000000
40
1.0000000000
40
1.0000000000
40
1.0000000000
10
3.9067481085
20
-22.6411586588
30
0.0000000000
10
3.9067481085
20
-22.6564903230
30
0.0000000000
10
3.9049256323
20
-22.6861027504
30
0.0000000000
10
3.8960823320
20
-22.7280546378
30
0.0000000000
10
3.8813624484
20
-22.7650167899
30
0.0000000000
10
3.8609980567
20
-22.7960533521
30
0.0000000000
10
3.8385901481
20
-22.8172186382
30
0.0000000000
10
3.8228705393
20
-22.8268529281
30
0.0000000000
10
3.8167770728
20
-22.8299667644
30
0.0000000000
11
3.9067481085
21
-22.6411586588
31
0.0000000000
11
3.9037012701
21
-22.6870526249
31
0.0000000000
11
3.8946357215
21
-22.7287699183
31
0.0000000000
11
3.8797745880
21
-22.7652833190
31
0.0000000000
11
3.8594836952
21
-22.7956936958
31
0.0000000000
11
3.8342625742
21
-22.8192521529
31
0.0000000000
11
3.8167770728
21
-22.8299667644
31
0.0000000000
0
SPLINE
5
3B9
100
AcDbEntity
8
0
100
AcDbSpline
62
0
6
CONTINUOUS
70
0
71
3
72
13
73
9
74
7
42
0.0000001000
43
0.0000001000
44
0.0000000001
12
0.0122396445
22
-0.1150171961
32
0.0000000000
13
-0.1041816895
23
-0.0511598424
33
0.0000000000
40
0.0000000000
40
0.0000000000
40
0.0000000000
40
0.0000000000
40
0.2388705532
40
0.4538277329
40
0.6452743789
40
0.8198572347
40
0.9849909277
40
1.0000000000
40
1.0000000000
40
1.0000000000
40
1.0000000000
10
0.6463859289
20
-8.3423120450
30
0.0000000000
10
0.6473604925
20
-8.3514701188
30
0.0000000000
10
0.6480607367
20
-8.3690326667
30
0.0000000000
10
0.6448276098
20
-8.3938450711
30
0.0000000000
10
0.6372564761
20
-8.4151493001
30
0.0000000000
10
0.6253971444
20
-8.4322065079
30
0.0000000000
10
0.6142954616
20
-8.4406033501
30
0.0000000000
10
0.6080843440
20
-8.4437666193
30
0.0000000000
10
0.6075631205
20
-8.4440225732
30
0.0000000000
11
0.6463859289
21
-8.3423120450
31
0.0000000000
11
0.6472736791
21
-8.3699271260
31
0.0000000000
11
0.6437978487
21
-8.3945463394
31
0.0000000000
11
0.6361059158
21
-8.4153114593
31
0.0000000000
11
0.6243814391
21
-8.4317525763
31
0.0000000000
11
0.6091153559
21
-8.4432318643
31
0.0000000000
11
0.6075631205
21
-8.4440225732
31
0.0000000000
0
SPLINE
5
3BA
100
AcDbEntity
8
0
100
AcDbSpline
62
0
6
CONTINUOUS
70
0
71
3
72
17
73
13
74
11
42
0.0000001000
43
0.0000001000
44
0.0000000001
12
0.3895861697
22
-0.1947930849
32
0.0000000000
13
0.3893834854
23
0.1951979274
33
0.0000000000
40
0.0000000000
40
0.0000000000
40
0.0000000000
40
0.0000000000
40
0.0890005659
40
0.1849499553
40
0.2864563904
40
0.3918366128
40
0.4992385642
40
0.6067076896
40
0.7122861312
40
0.8141130460
40
0.9104892925
40
1.0000000000
40
1.0000000000
40
1.0000000000
40
1.0000000000
10
-1.7883447489
20
19.2014958220
30
0.0000000000
10
-1.7767869524
20
19.1957169237
30
0.0000000000
10
-1.7519728145
20
19.1852678084
30
0.0000000000
10
-1.7121010558
20
19.1732232113
30
0.0000000000
10
-1.6689603643
20
19.1644333334
30
0.0000000000
10
-1.6235893469
20
19.1591133795
30
0.0000000000
10
-1.5770757757
20
19.1573916042
30
0.0000000000
10
-1.5305412112
20
19.1593106302
30
0.0000000000
10
-1.4851077707
20
19.1648232146
30
0.0000000000
10
-1.4418651958
20
19.1737964927
30
0.0000000000
10
-1.4018549307
20
19.1860108333
30
0.0000000000
10
-1.3769363944
20
19.1965591747
30
0.0000000000
10
-1.3653183973
20
19.2023832763
30
0.0000000000
11
-1.7883447489
21
19.2014958220
31
0.0000000000
11
-1.7526899949
21
19.1862792703
31
0.0000000000
11
-1.7127222644
21
19.1740639972
31
0.0000000000
11
-1.6694173127
21
19.1651482980
31
0.0000000000
11
-1.6238352866
21
19.1597504234
31
0.0000000000
11
-1.5770868382
21
19.1580020791
31
0.0000000000
11
-1.5303168461
21
19.1599463978
31
0.0000000000
11
-1.4846708886
21
19.1655355066
31
0.0000000000
11
-1.4412611505
21
19.1746331017
31
0.0000000000
11
-1.4011505592
21
19.1870164838
31
0.0000000000
11
-1.3653183973
21
19.2023832763
31
0.0000000000
0
SPLINE
5
3BB
100
AcDbEntity
8
0
100
AcDbSpline
62
0
6
CONTINUOUS
70
0
71
3
72
17
73
13
74
11
42
0.0000001000
43
0.0000001000
44
0.0000000001
12
-0.3889091088
22
-0.1963377245
32
0.0000000000
13
-0.3896652892
23
0.1948326446
33
0.0000000000
40
0.0000000000
40
0.0000000000
40
0.0000000000
40
0.0000000000
40
0.0896005383
40
0.1860363505
40
0.2878952112
40
0.3934811365
40
0.5009374680
40
0.6083108940
40
0.7136525634
40
0.8151165594
40
0.9110269511
40
1.0000000000
40
1.0000000000
40
1.0000000000
40
1.0000000000
10
-1.3653183973
20
17.9881798034
30
0.0000000000
10
-1.3769338858
20
17.9823158148
30
0.0000000000
10
-1.4018480995
20
17.9716872317
30
0.0000000000
10
-1.4418598196
20
17.9593578306
30
0.0000000000
10
-1.4851038144
20
17.9502756050
30
0.0000000000
10
-1.5305385505
20
17.9446627308
30
0.0000000000
10
-1.5770742165
20
17.9426543972
30
0.0000000000
10
-1.6235887411
20
17.9442999427
30
0.0000000000
10
-1.6689606134
20
17.9495585474
30
0.0000000000
10
-1.7121022301
20
17.9583034662
30
0.0000000000
10
-1.7519750628
20
17.9703206300
30
0.0000000000
10
-1.7767881793
20
17.9807626711
30
0.0000000000
10
-1.7883447489
20
17.9865409559
30
0.0000000000
11
-1.3653183973
21
17.9881798034
31
0.0000000000
11
-1.4011510260
21
17.9726950967
31
0.0000000000
11
-1.4412620974
21
17.9601968847
31
0.0000000000
11
-1.4846722933
21
17.9509903332
31
0.0000000000
11
-1.5303185401
21
17.9453008066
31
0.0000000000
11
-1.5770886635
21
17.9432670169
31
0.0000000000
11
-1.6238369769
21
17.9449389924
31
0.0000000000
11
-1.6694187110
21
17.9502754318
31
0.0000000000
11
-1.7127232047
21
17.9591460874
31
0.0000000000
11
-1.7526904570
21
17.9713338077
31
0.0000000000
11
-1.7883447489
21
17.9865409559
31
0.0000000000
0
SPLINE
5
3BC
100
AcDbEntity
8
0
100
AcDbSpline
62
0
6
CONTINUOUS
70
0
71
3
72
13
73
9
74
7
42
0.0000001000
43
0.0000001000
44
0.0000000001
12
-0.1298016753
22
0.0649008377
32
0.0000000000
13
0.0000186465
23
0.1456076944
33
0.0000000000
40
0.0000000000
40
0.0000000000
40
0.0000000000
40
0.0000000000
40
0.2433506852
40
0.4617848989
40
0.6565755890
40
0.8322279170
40
0.9969716939
40
1.0000000000
40
1.0000000000
40
1.0000000000
40
1.0000000000
10
-7.5808538170
20
20.8827954899
30
0.0000000000
10
-7.5913829258
20
20.8880600443
30
0.0000000000
10
-7.6108062617
20
20.8992580460
30
0.0000000000
10
-7.6357053634
20
20.9192145122
30
0.0000000000
10
-7.6542726738
20
20.9411079265
30
0.0000000000
10
-7.6659189010
20
20.9645810876
30
0.0000000000
10
-7.6686987807
20
20.9812339406
30
0.0000000000
10
-7.6687217686
20
20.9893768973
30
0.0000000000
10
-7.6687217498
20
20.9895238788
30
0.0000000000
11
-7.5808538170
21
20.8827954899
31
0.0000000000
11
-7.6113235271
21
20.9006503427
31
0.0000000000
11
-7.6358638536
21
20.9207164118
31
0.0000000000
11
-7.6538754995
21
20.9425038260
31
0.0000000000
11
-7.6649175450
21
20.9654792764
31
0.0000000000
11
-7.6687205038
21
20.9890829371
31
0.0000000000
11
-7.6687217498
21
20.9895238788
31
0.0000000000
0
SPLINE
5
3BD
100
AcDbEntity
8
0
100
AcDbSpline
62
0
6
CONTINUOUS
70
0
71
3
72
12
73
8
74
6
42
0.0000001000
43
0.0000001000
44
0.0000000001
12
0.1274265362
22
0.0635456794
32
0.0000000000
13
0.0000255395
23
0.1428803290
33
0.0000000000
40
0.0000000000
40
0.0000000000
40
0.0000000000
40
0.0000000000
40
0.2461437340
40
0.4664340245
40
0.6622044411
40
0.8381796843
40
1.0000000000
40
1.0000000000
40
1.0000000000
40
1.0000000000
10
4.5480500306
20
22.1525955598
30
0.0000000000
10
4.5585051118
20
22.1578093500
30
0.0000000000
10
4.5777706057
20
22.1688788404
30
0.0000000000
10
4.6024416811
20
22.1885900789
30
0.0000000000
10
4.6207689532
20
22.2101821410
30
0.0000000000
10
4.6321006410
20
22.2331859122
30
0.0000000000
10
4.6346860292
20
22.2492774012
30
0.0000000000
10
4.6346874069
20
22.2569843812
30
0.0000000000
11
4.5480500306
21
22.1525955598
31
0.0000000000
11
4.5783126666
21
22.1702761661
31
0.0000000000
11
4.6026204270
21
22.1901019599
31
0.0000000000
11
4.6203797657
21
22.2115889032
31
0.0000000000
11
4.6311559553
21
22.2342108680
31
0.0000000000
11
4.6346874069
21
22.2569843812
31
0.0000000000
0
SPLINE
5
3BE
100
AcDbEntity
8
0
100
AcDbSpline
62
0
6
CONTINUOUS
70
0
71
3
72
12
73
8
74
6
42
0.0000001000
43
0.0000001000
44
0.0000000001
12
0.1289494975
22
0.0635559375
32
0.0000000000
13
0.0000024649
23
0.1442557351
33
0.0000000000
40
0.0000000000
40
0.0000000000
40
0.0000000000
40
0.0000000000
40
0.2456022684
40
0.4654114574
40
0.6606705777
40
0.8360059861
40
1.0000000000
40
1.0000000000
40
1.0000000000
40
1.0000000000
10
-1.0076440208
20
24.9292172519
30
0.0000000000
10
-0.9970872577
20
24.9344204127
30
0.0000000000
10
-0.9776257756
20
24.9454771781
30
0.0000000000
10
-0.9526683960
20
24.9651955785
30
0.0000000000
10
-0.9340836273
20
24.9868201913
30
0.0000000000
10
-0.9224648681
20
25.0100111352
30
0.0000000000
10
-0.9197761899
20
25.0263287761
30
0.0000000000
10
-0.9197760551
20
25.0342144685
30
0.0000000000
11
-1.0076440208
21
24.9292172519
31
0.0000000000
11
-0.9770708091
21
24.9468791283
31
0.0000000000
11
-0.9524740886
21
24.9667176188
31
0.0000000000
11
-0.9344589180
21
24.9882447836
31
0.0000000000
11
-0.9234695767
21
25.0109295777
31
0.0000000000
11
-0.9197760551
21
25.0342144685
31
0.0000000000
0
SPLINE
5
3BF
100
AcDbEntity
8
0
100
AcDbSpline
62
0
6
CONTINUOUS
70
0
71
3
72
13
73
9
74
7
42
0.0000001000
43
0.0000001000
44
0.0000000001
12
0.1998406808
22
0.0978572385
32
0.0000000000
13
0.0000000000
23
0.2218990679
33
0.0000000000
40
0.0000000000
40
0.0000000000
40
0.0000000000
40
0.0000000000
40
0.1023705749
40
0.2579078719
40
0.4226584216
40
0.6003200547
40
0.7927129486
40
1.0000000000
40
1.0000000000
40
1.0000000000
40
1.0000000000
10
2.0469931481
20
-23.6959651103
30
0.0000000000
10
2.0538124165
20
-23.6926258763
30
0.0000000000
10
2.0702704323
20
-23.6827294879
30
0.0000000000
10
2.0932285875
20
-23.6610457080
30
0.0000000000
10
2.1135940082
20
-23.6300090330
30
0.0000000000
10
2.1283146526
20
-23.5930465670
30
0.0000000000
10
2.1371585532
20
-23.5510935049
30
0.0000000000
10
2.1389811555
20
-23.5214801801
30
0.0000000000
10
2.1389811555
20
-23.5061479122
30
0.0000000000
11
2.0469931481
21
-23.6959651103
31
0.0000000000
11
2.0664918554
21
-23.6842441358
31
0.0000000000
11
2.0917145119
21
-23.6606855940
31
0.0000000000
11
2.1120058711
21
-23.6302759307
31
0.0000000000
11
2.1268679851
21
-23.5937617332
31
0.0000000000
11
2.1359340686
21
-23.5520436766
31
0.0000000000
11
2.1389811555
21
-23.5061479122
31
0.0000000000
0
SPLINE
5
3C0
100
AcDbEntity
8
0
100
AcDbSpline
62
0
6
CONTINUOUS
70
0
71
3
72
11
73
7
74
5
42
0.0000001000
43
0.0000001000
44
0.0000000001
12
-0.4351467956
22
0.0874129533
32
0.0000000000
13
-0.4398144642
23
-0.0596405499
33
0.0000000000
40
0.0000000000
40
0.0000000000
40
0.0000000000
40
0.0000000000
40
0.2406426210
40
0.4887663275
40
0.7423989614
40
1.0000000000
40
1.0000000000
40
1.0000000000
40
1.0000000000
10
8.6419970149
20
20.6977322578
30
0.0000000000
10
8.6070920598
20
20.7047440185
30
0.0000000000
10
8.5354768783
20
20.7155630282
30
0.0000000000
10
8.4257533412
20
20.7226586269
30
0.0000000000
10
8.3133088366
20
20.7208569774
30
0.0000000000
10
8.2379217013
20
20.7136716940
30
0.0000000000
10
8.2001561470
20
20.7085505381
30
0.0000000000
11
8.6419970149
21
20.6977322578
31
0.0000000000
11
8.5364221300
21
20.7139072326
31
0.0000000000
11
8.4265328651
21
20.7211421346
31
0.0000000000
11
8.3139741475
21
20.7193963998
31
0.0000000000
11
8.2001561470
21
20.7085505381
31
0.0000000000
0
SPLINE
5
3C1
100
AcDbEntity
8
0
100
AcDbSpline
62
0
6
CONTINUOUS
70
0
71
3
72
9
73
5
74
3
42
0.0000001000
43
0.0000001000
44
0.0000000001
12
-0.0241207860
22
0.0049542359
32
0.0000000000
13
-0.0220849478
23
0.0110448753
33
0.0000000000
40
0.0000000000
40
0.0000000000
40
0.0000000000
40
0.0000000000
40
0.9288596728
40
1.0000000000
40
1.0000000000
40
1.0000000000
40
1.0000000000
10
3.6410688372
20
-23.4113841336
30
0.0000000000
10
3.6336005620
20
-23.4098502036
30
0.0000000000
10
3.6257166928
20
-23.4072409129
30
0.0000000000
10
3.6183194040
20
-23.4036295334
30
0.0000000000
10
3.6177956938
20
-23.4033676214
30
0.0000000000
11
3.6410688372
21
-23.4113841336
31
0.0000000000
11
3.6193743576
21
-23.4041382913
31
0.0000000000
11
3.6177956938
21
-23.4033676214
31
0.0000000000
0
SPLINE
5
3C2
100
AcDbEntity
8
0
100
AcDbSpline
62
0
6
CONTINUOUS
70
0
71
3
72
17
73
13
74
11
42
0.0000001000
43
0.0000001000
44
0.0000000001
12
-0.3281832376
22
-0.1645182454
32
0.0000000000
13
0.0000000000
23
-0.3671110057
33
0.0000000000
40
0.0000000000
40
0.0000000000
40
0.0000000000
40
0.0000000000
40
0.0877988990
40
0.1818695997
40
0.2805570128
40
0.3837432653
40
0.4891441471
40
0.5955191608
40
0.7015876633
40
0.8048773159
40
0.9050482431
40
1.0000000000
40
1.0000000000
40
1.0000000000
40
1.0000000000
10
1.9519139270
20
17.0463670373
30
0.0000000000
10
1.9423092181
20
17.0415521970
30
0.0000000000
10
1.9231787721
20
17.0300068223
30
0.0000000000
10
1.8962963935
20
17.0085236678
30
0.0000000000
10
1.8707627117
20
16.9827362518
30
0.0000000000
10
1.8472421888
20
16.9533153903
30
0.0000000000
10
1.8262555345
20
16.9209152477
30
0.0000000000
10
1.8083178888
20
16.8863367007
30
0.0000000000
10
1.7938759025
20
16.8504355862
30
0.0000000000
10
1.7832497606
20
16.8140113282
30
0.0000000000
10
1.7767151617
20
16.7780158078
30
0.0000000000
10
1.7751431976
20
16.7541207374
30
0.0000000000
10
1.7751431976
20
16.7425014591
30
0.0000000000
11
1.9519139270
21
17.0463670373
31
0.0000000000
11
1.9242356339
21
17.0298500709
31
0.0000000000
11
1.8971766917
21
17.0083922585
31
0.0000000000
11
1.8716204263
21
16.9827127959
31
0.0000000000
11
1.8479177379
21
16.9531638831
31
0.0000000000
11
1.8268553577
21
16.9207048607
31
0.0000000000
11
1.8088702089
21
16.8860414902
31
0.0000000000
11
1.7943620058
21
16.8499063119
31
0.0000000000
11
1.7837945922
21
16.8134897942
31
0.0000000000
11
1.7773126793
21
16.7772917165
31
0.0000000000
11
1.7751431976
21
16.7425014591
31
0.0000000000
0
SPLINE
5
3C3
100
AcDbEntity
8
0
100
AcDbSpline
62
0
6
CONTINUOUS
70
0
71
3
72
13
73
9
74
7
42
0.0000001000
43
0.0000001000
44
0.0000000001
12
0.0000000000
22
-0.1580771600
32
0.0000000000
13
0.1417682681
23
-0.0708992473
33
0.0000000000
40
0.0000000000
40
0.0000000000
40
0.0000000000
40
0.0000000000
40
0.1982397194
40
0.3834113548
40
0.5546239440
40
0.7146143823
40
0.8649759067
40
1.0000000000
40
1.0000000000
40
1.0000000000
40
1.0000000000
10
1.7751431976
20
16.4025275249
30
0.0000000000
10
1.7751431976
20
16.3920818010
30
0.0000000000
10
1.7763389350
20
16.3718479531
30
0.0000000000
10
1.7821147661
20
16.3430923297
30
0.0000000000
10
1.7917348690
20
16.3174940712
30
0.0000000000
10
1.8050333922
20
16.2956803034
30
0.0000000000
10
1.8214098707
20
16.2785843003
30
0.0000000000
10
1.8341195423
20
16.2703083275
30
0.0000000000
10
1.8405002529
20
16.2671172920
30
0.0000000000
11
1.7751431976
21
16.4025275249
31
0.0000000000
11
1.7771274434
21
16.3712532366
31
0.0000000000
11
1.7830506269
21
16.3425873838
31
0.0000000000
11
1.7927391874
21
16.3173161514
31
0.0000000000
11
1.8060543551
21
16.2958142306
31
0.0000000000
11
1.8225889869
21
16.2787391571
31
0.0000000000
11
1.8405002529
21
16.2671172920
31
0.0000000000
0
SPLINE
5
3C4
100
AcDbEntity
8
0
100
AcDbSpline
62
0
6
CONTINUOUS
70
0
71
3
72
17
73
13
74
11
42
0.0000001000
43
0.0000001000
44
0.0000000001
12
-0.3281832376
22
-0.1645182454
32
0.0000000000
13
0.0000000000
23
-0.3671110057
33
0.0000000000
40
0.0000000000
40
0.0000000000
40
0.0000000000
40
0.0000000000
40
0.0877988990
40
0.1818695997
40
0.2805570128
40
0.3837432653
40
0.4891441471
40
0.5955191608
40
0.7015876633
40
0.8048773159
40
0.9050482431
40
1.0000000000
40
1.0000000000
40
1.0000000000
40
1.0000000000
10
-11.4124042374
20
23.7285261195
30
0.0000000000
10
-11.4220089464
20
23.7237112793
30
0.0000000000
10
-11.4411393923
20
23.7121659045
30
0.0000000000
10
-11.4680217709
20
23.6906827500
30
0.0000000000
10
-11.4935554527
20
23.6648953340
30
0.0000000000
10
-11.5170759756
20
23.6354744725
30
0.0000000000
10
-11.5380626299
20
23.6030743299
30
0.0000000000
10
-11.5560002756
20
23.5684957829
30
0.0000000000
10
-11.5704422619
20
23.5325946684
30
0.0000000000
10
-11.5810684038
20
23.4961704104
30
0.0000000000
10
-11.5876030027
20
23.4601748900
30
0.0000000000
10
-11.5891749668
20
23.4362798196
30
0.0000000000
10
-11.5891749668
20
23.4246605413
30
0.0000000000
11
-11.4124042374
21
23.7285261195
31
0.0000000000
11
-11.4400825305
21
23.7120091531
31
0.0000000000
11
-11.4671414727
21
23.6905513407
31
0.0000000000
11
-11.4926977381
21
23.6648718781
31
0.0000000000
11
-11.5164004265
21
23.6353229653
31
0.0000000000
11
-11.5374628067
21
23.6028639429
31
0.0000000000
11
-11.5554479555
21
23.5682005724
31
0.0000000000
11
-11.5699561586
21
23.5320653941
31
0.0000000000
11
-11.5805235722
21
23.4956488765
31
0.0000000000
11
-11.5870054851
21
23.4594507987
31
0.0000000000
11
-11.5891749668
21
23.4246605413
31
0.0000000000
0
SPLINE
5
3C5
100
AcDbEntity
8
0
100
AcDbSpline
62
0
6
CONTINUOUS
70
0
71
3
72
13
73
9
74
7
42
0.0000001000
43
0.0000001000
44
0.0000000001
12
0.0000000000
22
-0.1580771600
32
0.0000000000
13
0.1417682681
23
-0.0708992473
33
0.0000000000
40
0.0000000000
40
0.0000000000
40
0.0000000000
40
0.0000000000
40
0.1982397194
40
0.3834113548
40
0.5546239440
40
0.7146143823
40
0.8649759067
40
1.0000000000
40
1.0000000000
40
1.0000000000
40
1.0000000000
10
-11.5891749668
20
23.0846866072
30
0.0000000000
10
-11.5891749668
20
23.0742408832
30
0.0000000000
10
-11.5879792295
20
23.0540070354
30
0.0000000000
10
-11.5822033983
20
23.0252514119
30
0.0000000000
10
-11.5725832955
20
22.9996531534
30
0.0000000000
10
-11.5592847722
20
22.9778393856
30
0.0000000000
10
-11.5429082937
20
22.9607433825
30
0.0000000000
10
-11.5301986222
20
22.9524674097
30
0.0000000000
10
-11.5238179115
20
22.9492763742
30
0.0000000000
11
-11.5891749668
21
23.0846866072
31
0.0000000000
11
-11.5871907211
21
23.0534123189
31
0.0000000000
11
-11.5812675375
21
23.0247464660
31
0.0000000000
11
-11.5715789771
21
22.9994752336
31
0.0000000000
11
-11.5582638093
21
22.9779733128
31
0.0000000000
11
-11.5417291776
21
22.9608982393
31
0.0000000000
11
-11.5238179115
21
22.9492763742
31
0.0000000000
0
SPLINE
5
3C6
100
AcDbEntity
8
0
100
AcDbSpline
62
0
6
CONTINUOUS
70
0
71
3
72
13
73
9
74
7
42
0.0000001000
43
0.0000001000
44
0.0000000001
12
0.0000000000
22
-0.1580496594
32
0.0000000000
13
0.1417254613
23
-0.0709202235
33
0.0000000000
40
0.0000000000
40
0.0000000000
40
0.0000000000
40
0.0000000000
40
0.2070101272
40
0.3999125266
40
0.5773183208
40
0.7429756756
40
0.8990662596
40
1.0000000000
40
1.0000000000
40
1.0000000000
40
1.0000000000
10
1.7751431976
20
-25.2370505486
30
0.0000000000
10
1.7751431976
20
-25.2479565086
30
0.0000000000
10
1.7764445567
20
-25.2690609533
30
0.0000000000
10
1.7827529952
20
-25.2989401388
30
0.0000000000
10
1.7932619187
20
-25.3253211786
30
0.0000000000
10
1.8077811928
20
-25.3474933859
30
0.0000000000
10
1.8240938742
20
-25.3629751393
30
0.0000000000
10
1.8357290680
20
-25.3700700029
30
0.0000000000
10
1.8404973616
20
-25.3724560841
30
0.0000000000
11
1.7751431976
21
-25.2370505486
31
0.0000000000
11
1.7773126793
21
-25.2696964216
31
0.0000000000
11
1.7837945922
21
-25.2994875716
31
0.0000000000
11
1.7943620058
21
-25.3254589232
31
0.0000000000
11
1.8088702089
21
-25.3472537345
31
0.0000000000
11
1.8268553577
21
-25.3641400148
31
0.0000000000
11
1.8404973616
21
-25.3724560841
31
0.0000000000
0
SPLINE
5
3C7
100
AcDbEntity
8
0
100
AcDbSpline
62
0
6
CONTINUOUS
70
0
71
3
72
14
73
10
74
8
42
0.0000001000
43
0.0000001000
44
0.0000000001
12
-0.1618915143
22
-0.1938217939
32
0.0000000000
13
0.0000000000
23
-0.2525386112
33
0.0000000000
40
0.0000000000
40
0.0000000000
40
0.0000000000
40
0.0000000000
40
0.1442287221
40
0.2915661604
40
0.4392076970
40
0.5862445358
40
0.7294680978
40
0.8681597286
40
1.0000000000
40
1.0000000000
40
1.0000000000
40
1.0000000000
10
1.8640457736
20
-24.6656395548
30
0.0000000000
10
1.8562626382
20
-24.6749577780
30
0.0000000000
10
1.8414698053
20
-24.6945998798
30
0.0000000000
10
1.8220777881
20
-24.7261372799
30
0.0000000000
10
1.8055515249
20
-24.7595333375
30
0.0000000000
10
1.7922895732
20
-24.7939844483
30
0.0000000000
10
1.7825530609
20
-24.8288161837
30
0.0000000000
10
1.7765757586
20
-24.8631891746
30
0.0000000000
10
1.7751431976
20
-24.8859783614
30
0.0000000000
10
1.7751431976
20
-24.8970766144
30
0.0000000000
11
1.8640457736
21
-24.6656395548
31
0.0000000000
11
1.8420972310
21
-24.6947070590
31
0.0000000000
11
1.8225889869
21
-24.7263913272
31
0.0000000000
11
1.8060543551
21
-24.7598097539
31
0.0000000000
11
1.7927391874
21
-24.7944728078
31
0.0000000000
11
1.7830506269
21
-24.8293205200
31
0.0000000000
11
1.7771274434
21
-24.8638410349
31
0.0000000000
11
1.7751431976
21
-24.8970766144
31
0.0000000000
0
SPLINE
5
3C8
100
AcDbEntity
8
0
100
AcDbSpline
62
0
6
CONTINUOUS
70
0
71
3
72
15
73
11
74
9
42
0.0000001000
43
0.0000001000
44
0.0000000001
12
0.0627631636
22
-0.5850015930
32
0.0000000000
13
-0.5352556215
23
-0.2471302028
33
0.0000000000
40
0.0000000000
40
0.0000000000
40
0.0000000000
40
0.0000000000
40
0.1659352099
40
0.3204718358
40
0.4633438016
40
0.5955774700
40
0.7183321631
40
0.8346015069
40
0.9472409223
40
1.0000000000
40
1.0000000000
40
1.0000000000
40
1.0000000000
10
0.9465289375
20
-18.2946084704
30
0.0000000000
10
0.9500004771
20
-18.3269659244
30
0.0000000000
10
0.9537794650
20
-18.3898336479
30
0.0000000000
10
0.9491727709
20
-18.4807943628
30
0.0000000000
10
0.9341368664
20
-18.5639773794
30
0.0000000000
10
0.9088256023
20
-18.6381471569
30
0.0000000000
10
0.8734598144
20
-18.7022796692
30
0.0000000000
10
0.8284788300
20
-18.7552349545
30
0.0000000000
10
0.7840554644
20
-18.7888367314
30
0.0000000000
10
0.7552379512
20
-18.8039555318
30
0.0000000000
10
0.7458247535
20
-18.8083016523
30
0.0000000000
11
0.9465289375
21
-18.2946084704
31
0.0000000000
11
0.9520465017
21
-18.3920818732
31
0.0000000000
11
0.9470449857
21
-18.4828671905
31
0.0000000000
11
0.9316408485
21
-18.5655036990
31
0.0000000000
11
0.9060527975
21
-18.6389762976
31
0.0000000000
11
0.8707836946
21
-18.7020030241
31
0.0000000000
11
0.8262542745
21
-18.7539337255
31
0.0000000000
11
0.7733445246
21
-18.7938409709
31
0.0000000000
11
0.7458247535
21
-18.8083016523
31
0.0000000000
0
ENDSEC
0
SECTION
2
OBJECTS
0
DICTIONARY
5
C
100
AcDbDictionary
280
0
281
1
3
ACAD_GROUP
350
D
3
ACAD_MLINESTYLE
350
17
3
ACAD_LAYOUT
350
1A
3
ACAD_PLOTSETTINGS
350
19
3
ACAD_PLOTSTYLENAME
350
E
0
DICTIONARY
5
D
102
{ACAD_REACTORS
330
C
102
}
100
AcDbDictionary
280
0
281
1
0
ACDBDICTIONARYWDFLT
5
E
102
{ACAD_REACTORS
330
C
102
}
100
AcDbDictionary
281
1
3
Normal
350
F
100
AcDbDictionaryWithDefault
340
F
0
DICTIONARY
5
17
102
{ACAD_REACTORS
330
C
102
}
100
AcDbDictionary
280
0
281
1
3
Standard
350
18
0
DICTIONARY
5
19
102
{ACAD_REACTORS
330
C
102
}
100
AcDbDictionary
281
1
0
DICTIONARY
5
1A
102
{ACAD_REACTORS
330
C
102
}
100
AcDbDictionary
281
1
3
Layout1
350
1E
3
Model
350
22
0
ACDBPLACEHOLDER
5
F
102
{ACAD_REACTORS
330
E
102
}
0
MLINESTYLE
5
18
102
{ACAD_REACTORS
330
17
102
}
100
AcDbMlineStyle
2
STANDARD
70
0
3

62
256
51
90.0
52
90.0
71
2
49
0.5
62
256
6
BYLAYER
49
-0.5
62
256
6
BYLAYER
0
LAYOUT
5
1E
102
{ACAD_REACTORS
330
1A
102
}
100
AcDbPlotSettings
1

2

4

6

40
0.0
41
0.0
42
0.0
43
0.0
44
0.0
45
0.0
46
0.0
47
0.0
48
0.0
49
0.0
140
0.0
141
0.0
142
1.0
143
1.0
70
0
72
0
73
0
74
0
7

75
0
147
1.0
148
0.0
149
0.0
100
AcDbLayout
1
Layout1
70
0
71
0
10
0.0
20
0.0
11
0.0
21
0.0
12
0.0
22
0.0
32
0.0
14
0.0
24
0.0
34
0.0
15
0.0
25
0.0
35
0.0
146
0.0
13
0.0
23
0.0
33
0.0
16
0.0
26
0.0
36
0.0
17
0.0
27
0.0
37
0.0
76
0
330
1B
331
0
345
0
346
0
0
LAYOUT
5
22
102
{ACAD_REACTORS
330
1A
102
}
100
AcDbPlotSettings
1

2

4

6

40
0.0
41
0.0
42
0.0
43
0.0
44
0.0
45
0.0
46
0.0
47
0.0
48
0.0
49
0.0
140
0.0
141
0.0
142
1.0
143
1.0
70
0
72
0
73
0
74
0
7

75
0
147
1.0
148
0.0
149
0.0
100
AcDbLayout
1
Model
70
0
71
0
10
0.0
20
0.0
11
0.0
21
0.0
12
0.0
22
0.0
32
0.0
14
0.0
24
0.0
34
0.0
15
0.0
25
0.0
35
0.0
146
0.0
13
0.0
23
0.0
33
0.0
16
0.0
26
0.0
36
0.0
17
0.0
27
0.0
37
0.0
76
0
330
1F
331
0
345
0
346
0
0
ENDSEC
0
EOF
