  0
SECTION
  2
HEADER
  9
$ACADVER
  1
AC1024
  9
$DWGCODEPAGE
  3
ANSI_1252
  9
$EXTMAX
 10
297.0
 20
210.0
 30
0.0
  9
$EXTMIN
 10
0.0
 20
0.0
 30
0.0
  9
$LIMMIN
 10
0.0
 20
0.0
  9
$LIMMAX
 10
297.0
 20
210.0
  9
$VIEWCTR
 10
148.5
 20
105.0
  9
$VIEWSIZE
 40
210.0
  9
$CLAYER
  8
0
  9
$LTSCALE
 40
16.335
  9
$CELTYPE
  6
BYLAYER
  9
$DIMSCALE
 40
1.0
  9
$DIMASZ
 40
3.0
  9
$DIMEXO
 40
0.5
  9
$DIMDLI
 40
11.286
  9
$DIMEXE
 40
1.5
  9
$DIMCEN
 40
2.673
  9
$DIMLFAC
 40
1.0
  9
$DIMBLK
  1
_FILLED
  9
$DIMALT
 70
0
  9
$DIMALTF
 40
0.0393700787
  9
$DIMTXT
 40
3.0
  9
$DIMTOL
 70
1
  9
$DIMLIM
 70
0
  9
$DIMTFAC
 40
1.0
  9
$DIMTP
 40
0.01
  9
$DIMTM
 40
0.01
  9
$DIMGAP
 40
0.625
  9
$DIMDSEP
 70
44
  9
$AUNITS
 70
0
  9
$PDMODE
 70
3
  9
$PDSIZE
 40
3.0
  9
$HANDSEED
  5
3C7
  9
$TILEMODE
 70
1
  9
$MEASUREMENT
 70
1
  9
$INSUNITS
 70
4
  0
ENDSEC
  0
SECTION
  2
CLASSES
  0
CLASS
  1
ACDBDICTIONARYWDFLT
  2
AcDbDictionaryWithDefault
  3
AutoCAD 2000
 90
0
 91
1
280
0
281
0
  0
CLASS
  1
ACDBPLACEHOLDER
  2
AcDbPlaceHolder
  3
AutoCAD 2000
 90
0
 91
1
280
0
281
0
  0
CLASS
  1
LAYOUT
  2
AcDbLayout
  3
AutoCAD 2000
 90
0
 91
0
280
0
281
0
  0
ENDSEC
  0
SECTION
  2
TABLES
  0
TABLE
  2
VPORT
  5
8
100
AcDbSymbolTable
 70
2
  0
VPORT
  5
1F4
100
AcDbSymbolTableRecord
100
AcDbViewportTableRecord
  2
*ACTIVE
 70
0
 10
0.0
 20
0.0
 11
1.0
 21
1.0
 12
148.5
 22
105.0
 13
0.0
 23
0.0
 14
1.0
 24
1.0
 15
0.0
 25
0.0
 16
0.0
 26
0.0
 36
1.0
 17
0.0
 27
0.0
 37
0.0
 40
210.0
 41
1.4142857143
 42
50.0
 43
0.0
 44
0.0
 50
0.0
 51
0.0
 71
0
 72
100
 73
1
 74
1
 75
0
 76
0
 77
0
 78
0
  0
ENDTAB
  0
TABLE
  2
LTYPE
  5
5
100
AcDbSymbolTable
 70
6
  0
LTYPE
  5
14
100
AcDbSymbolTableRecord
100
AcDbLinetypeTableRecord
  2
BYBLOCK
 70
0
  3

 72
65
 73
0
 40
0.0
  0
LTYPE
  5
15
100
AcDbSymbolTableRecord
100
AcDbLinetypeTableRecord
  2
BYLAYER
 70
0
  3

 72
65
 73
0
 40
0.0
  0
LTYPE
  5
16
100
AcDbSymbolTableRecord
100
AcDbLinetypeTableRecord
  2
CONTINUOUS
 70
64
  3
Solid line
 72
65
 73
0
 40
0.0
  0
LTYPE
  5
1F5
100
AcDbSymbolTableRecord
100
AcDbLinetypeTableRecord
  2
CENTER
 70
64
  3
____ _ ____ _ ____ _ ____ _ ____ _ ____ _ ____
 72
65
 73
4
 40
0.6
 49
0.375
 74
0
 49
-0.075
 74
0
 49
0.075
 74
0
 49
-0.075
 74
0
  0
LTYPE
  5
1F6
100
AcDbSymbolTableRecord
100
AcDbLinetypeTableRecord
  2
HIDDEN
 70
64
  3
- - - - - - - - - - - - - - - - - - - -
 72
65
 73
2
 40
0.2
 49
0.1
 74
0
 49
-0.1
 74
0
  0
LTYPE
  5
1F7
100
AcDbSymbolTableRecord
100
AcDbLinetypeTableRecord
  2
PHANTOM
 70
64
  3
_____ _ _ _____ _ _ _____ _ _ _____
 72
65
 73
6
 40
0.8
 49
0.45
 74
0
 49
-0.05
 74
0
 49
0.1
 74
0
 49
-0.05
 74
0
 49
0.1
 74
0
 49
-0.05
 74
0
  0
LTYPE
  5
1F8
100
AcDbSymbolTableRecord
100
AcDbLinetypeTableRecord
  2
DOT
 70
64
  3
. . . . . . . . . . . . . . . . . . . .
 72
65
 73
2
 40
0.2
 49
0.1
 74
0
 49
-0.1
 74
0
  0
LTYPE
  5
1F9
100
AcDbSymbolTableRecord
100
AcDbLinetypeTableRecord
  2
DASHED
 70
64
  3
- - - - - - - - - - - - - - - - - - - -
 72
65
 73
2
 40
0.2
 49
0.1
 74
0
 49
-0.1
 74
0
  0
ENDTAB
  0
TABLE
  2
LAYER
  5
2
100
AcDbSymbolTable
 70
36
  0
LAYER
  5
10
100
AcDbSymbolTableRecord
100
AcDbLayerTableRecord
  2
0
 70
0
 62
7
  6
CONTINUOUS
370
-3
390
F
  0
LAYER
  5
1FA
100
AcDbSymbolTableRecord
100
AcDbLayerTableRecord
  2
DEFAULT_1
 70
0
 62
7
  6
CENTER
370
-3
390
F
  0
LAYER
  5
1FB
100
AcDbSymbolTableRecord
100
AcDbLayerTableRecord
  2
DEFAULT_2
 70
0
 62
7
  6
HIDDEN
370
-3
390
F
  0
LAYER
  5
1FC
100
AcDbSymbolTableRecord
100
AcDbLayerTableRecord
  2
DEFAULT_3
 70
0
 62
7
  6
PHANTOM
370
-3
390
F
  0
LAYER
  5
1FD
100
AcDbSymbolTableRecord
100
AcDbLayerTableRecord
  2
218
 70
0
 62
7
  6
CONTINUOUS
370
-3
390
F
  0
LAYER
  5
1FE
100
AcDbSymbolTableRecord
100
AcDbLayerTableRecord
  2
260
 70
0
 62
7
  6
CONTINUOUS
370
-3
390
F
  0
LAYER
  5
1FF
100
AcDbSymbolTableRecord
100
AcDbLayerTableRecord
  2
268
 70
0
 62
7
  6
CONTINUOUS
370
-3
390
F
  0
LAYER
  5
200
100
AcDbSymbolTableRecord
100
AcDbLayerTableRecord
  2
284
 70
0
 62
7
  6
CONTINUOUS
370
-3
390
F
  0
LAYER
  5
201
100
AcDbSymbolTableRecord
100
AcDbLayerTableRecord
  2
320
 70
0
 62
7
  6
CONTINUOUS
370
-3
390
F
  0
LAYER
  5
202
100
AcDbSymbolTableRecord
100
AcDbLayerTableRecord
  2
340
 70
0
 62
7
  6
CONTINUOUS
370
-3
390
F
  0
LAYER
  5
203
100
AcDbSymbolTableRecord
100
AcDbLayerTableRecord
  2
712
 70
0
 62
7
  6
CONTINUOUS
370
-3
390
F
  0
LAYER
  5
204
100
AcDbSymbolTableRecord
100
AcDbLayerTableRecord
  2
715
 70
0
 62
7
  6
CONTINUOUS
370
-3
390
F
  0
LAYER
  5
205
100
AcDbSymbolTableRecord
100
AcDbLayerTableRecord
  2
ASSI
 70
0
 62
7
  6
CONTINUOUS
370
-3
390
F
  0
LAYER
  5
206
100
AcDbSymbolTableRecord
100
AcDbLayerTableRecord
  2
COLORE_TOP
 70
0
 62
7
  6
CONTINUOUS
370
-3
390
F
  0
LAYER
  5
207
100
AcDbSymbolTableRecord
100
AcDbLayerTableRecord
  2
COORDINATE
 70
0
 62
7
  6
CONTINUOUS
370
-3
390
F
  0
LAYER
  5
208
100
AcDbSymbolTableRecord
100
AcDbLayerTableRecord
  2
COORD_ORIGINE
 70
0
 62
7
  6
CONTINUOUS
370
-3
390
F
  0
LAYER
  5
209
100
AcDbSymbolTableRecord
100
AcDbLayerTableRecord
  2
COPY-PUBBLISH
 70
0
 62
7
  6
CONTINUOUS
370
-3
390
F
  0
LAYER
  5
20A
100
AcDbSymbolTableRecord
100
AcDbLayerTableRecord
  2
COPY_PUBLISH
 70
0
 62
7
  6
CONTINUOUS
370
-3
390
F
  0
LAYER
  5
20B
100
AcDbSymbolTableRecord
100
AcDbLayerTableRecord
  2
COSMETIC
 70
0
 62
7
  6
CONTINUOUS
370
-3
390
F
  0
LAYER
  5
20C
100
AcDbSymbolTableRecord
100
AcDbLayerTableRecord
  2
COSMETICHE
 70
0
 62
7
  6
CONTINUOUS
370
-3
390
F
  0
LAYER
  5
20D
100
AcDbSymbolTableRecord
100
AcDbLayerTableRecord
  2
CURVA_CENTRALE
 70
0
 62
7
  6
CONTINUOUS
370
-3
390
F
  0
LAYER
  5
20E
100
AcDbSymbolTableRecord
100
AcDbLayerTableRecord
  2
CURVE
 70
0
 62
7
  6
CONTINUOUS
370
-3
390
F
  0
LAYER
  5
20F
100
AcDbSymbolTableRecord
100
AcDbLayerTableRecord
  2
DRAFT
 70
0
 62
7
  6
CONTINUOUS
370
-3
390
F
  0
LAYER
  5
210
100
AcDbSymbolTableRecord
100
AcDbLayerTableRecord
  2
IMPORT
 70
0
 62
7
  6
CONTINUOUS
370
-3
390
F
  0
LAYER
  5
211
100
AcDbSymbolTableRecord
100
AcDbLayerTableRecord
  2
IMPORTED
 70
0
 62
7
  6
CONTINUOUS
370
-3
390
F
  0
LAYER
  5
212
100
AcDbSymbolTableRecord
100
AcDbLayerTableRecord
  2
IMPORT_IGES
 70
0
 62
7
  6
CONTINUOUS
370
-3
390
F
  0
LAYER
  5
213
100
AcDbSymbolTableRecord
100
AcDbLayerTableRecord
  2
INCISIONI_LASER
 70
0
 62
7
  6
CONTINUOUS
370
-3
390
F
  0
LAYER
  5
214
100
AcDbSymbolTableRecord
100
AcDbLayerTableRecord
  2
INTF_1
 70
0
 62
7
  6
CONTINUOUS
370
-3
390
F
  0
LAYER
  5
215
100
AcDbSymbolTableRecord
100
AcDbLayerTableRecord
  2
INTF_11
 70
0
 62
7
  6
CONTINUOUS
370
-3
390
F
  0
LAYER
  5
216
100
AcDbSymbolTableRecord
100
AcDbLayerTableRecord
  2
INTF_2
 70
0
 62
7
  6
CONTINUOUS
370
-3
390
F
  0
LAYER
  5
217
100
AcDbSymbolTableRecord
100
AcDbLayerTableRecord
  2
NOTE
 70
0
 62
7
  6
CONTINUOUS
370
-3
390
F
  0
LAYER
  5
218
100
AcDbSymbolTableRecord
100
AcDbLayerTableRecord
  2
PIANI
 70
0
 62
7
  6
CONTINUOUS
370
-3
390
F
  0
LAYER
  5
219
100
AcDbSymbolTableRecord
100
AcDbLayerTableRecord
  2
PIANI_DI_RIFERIMENTO
 70
0
 62
7
  6
CONTINUOUS
370
-3
390
F
  0
LAYER
  5
21A
100
AcDbSymbolTableRecord
100
AcDbLayerTableRecord
  2
PIANI_ORIGINE
 70
0
 62
7
  6
CONTINUOUS
370
-3
390
F
  0
LAYER
  5
21B
100
AcDbSymbolTableRecord
100
AcDbLayerTableRecord
  2
PIANI_RIFERIMENTO
 70
0
 62
7
  6
CONTINUOUS
370
-3
390
F
  0
LAYER
  5
21C
100
AcDbSymbolTableRecord
100
AcDbLayerTableRecord
  2
PIANI_SFORMO
 70
0
 62
7
  6
CONTINUOUS
370
-3
390
F
  0
LAYER
  5
21D
100
AcDbSymbolTableRecord
100
AcDbLayerTableRecord
  2
PUNTI
 70
0
 62
7
  6
CONTINUOUS
370
-3
390
F
  0
LAYER
  5
21E
100
AcDbSymbolTableRecord
100
AcDbLayerTableRecord
  2
RACCORDO
 70
0
 62
7
  6
CONTINUOUS
370
-3
390
F
  0
LAYER
  5
21F
100
AcDbSymbolTableRecord
100
AcDbLayerTableRecord
  2
RGB__255__255__255__
 70
0
 62
7
  6
CONTINUOUS
370
-3
390
F
  0
LAYER
  5
220
100
AcDbSymbolTableRecord
100
AcDbLayerTableRecord
  2
RINTRACCIABILITA
 70
0
 62
7
  6
CONTINUOUS
370
-3
390
F
  0
LAYER
  5
221
100
AcDbSymbolTableRecord
100
AcDbLayerTableRecord
  2
SMUSSO
 70
0
 62
7
  6
CONTINUOUS
370
-3
390
F
  0
LAYER
  5
222
100
AcDbSymbolTableRecord
100
AcDbLayerTableRecord
  2
SUPERFICI
 70
0
 62
7
  6
CONTINUOUS
370
-3
390
F
  0
LAYER
  5
223
100
AcDbSymbolTableRecord
100
AcDbLayerTableRecord
  2
TRASH
 70
0
 62
7
  6
CONTINUOUS
370
-3
390
F
  0
LAYER
  5
224
100
AcDbSymbolTableRecord
100
AcDbLayerTableRecord
  2
WHITE
 70
0
 62
7
  6
CONTINUOUS
370
-3
390
F
  0
LAYER
  5
225
100
AcDbSymbolTableRecord
100
AcDbLayerTableRecord
  2
XSEC_DATUMS
 70
0
 62
7
  6
CONTINUOUS
370
-3
390
F
  0
ENDTAB
  0
TABLE
  2
STYLE
  5
3
100
AcDbSymbolTable
 70
1
  0
STYLE
  5
11
100
AcDbSymbolTableRecord
100
AcDbTextStyleTableRecord
  2
STANDARD
 70
0
 40
0.0
 41
0.8
 50
0.0
 71
0
 42
0.2
  3
txt
  4

  0
STYLE
  5
226
100
AcDbSymbolTableRecord
100
AcDbTextStyleTableRecord
  2
TEXTSTYLE_1
 70
0
 40
0.0
 41
0.8
 50
0.0
 71
0
 42
0.2
  3
gdt
  4

  0
ENDTAB
  0
TABLE
  2
VIEW
  5
6
100
AcDbSymbolTable
 70
0
  0
ENDTAB
  0
TABLE
  2
UCS
  5
7
100
AcDbSymbolTable
 70
0
  0
ENDTAB
  0
TABLE
  2
APPID
  5
9
100
AcDbSymbolTable
 70
1
  0
APPID
  5
227
100
AcDbSymbolTableRecord
100
AcDbRegAppTableRecord
  2
ACAD
 70
0
  0
ENDTAB
  0
TABLE
  2
BLOCK_RECORD
  5
1
100
AcDbSymbolTable
 70
0
  0
BLOCK_RECORD
  5
228
100
AcDbSymbolTableRecord
100
AcDbBlockTableRecord
  2
*Model_Space
  0
BLOCK_RECORD
  5
229
100
AcDbSymbolTableRecord
100
AcDbBlockTableRecord
  2
*Paper_Space
  0
BLOCK_RECORD
  5
22A
100
AcDbSymbolTableRecord
100
AcDbBlockTableRecord
  2
_FILLED
  0
ENDTAB
  0
TABLE
  2
DIMSTYLE
  5
A
100
AcDbSymbolTable
 70
1
100
AcDbDimStyleTable
 71
0
  0
DIMSTYLE
105
22B
100
AcDbSymbolTableRecord
100
AcDbDimStyleTableRecord
  2
STANDARD
 70
0
  3

  4

 40
1.0
 41
3.0
 42
0.5
 43
0.38
 44
1.5
 45
0.0
 46
0.0
 47
0.01
 48
0.01
140
3.0
141
0.09
142
0.0
143
25.4
144
1.0
145
0.0
146
1.0
147
0.625
 71
1
 72
0
 73
0
 74
0
 75
0
 76
0
 77
1
 78
8
 79
2
170
0
171
1
172
0
173
0
174
0
175
0
176
0
177
0
178
0
270
2
179
2
271
2
272
2
273
2
274
2
275
0
280
0
281
0
282
0
283
1
284
8
285
0
286
0
287
3
288
0
340
11
278
44
341
22A
342
22A
343
22A
344
22A
  0
ENDTAB
  0
ENDSEC
  0
SECTION
  2
BLOCKS
  0
BLOCK
  5
20
100
AcDbEntity
  8
0
100
AcDbBlockBegin
  2
*Model_Space
 70
0
 10
0.0
 20
0.0
 30
0.0
  3
*Model_Space
  1

  0
ENDBLK
  5
21
100
AcDbEntity
  8
0
100
AcDbBlockEnd
  0
BLOCK
  5
1C
100
AcDbEntity
  8
0
100
AcDbBlockBegin
  2
*Paper_Space
 70
0
 10
0.0
 20
0.0
 30
0.0
  3
*Paper_Space
  1

  0
ENDBLK
  5
1D
100
AcDbEntity
  8
0
100
AcDbBlockEnd
  0
BLOCK
  5
22C
100
AcDbEntity
  8
0
100
AcDbBlockBegin
  2
_FILLED
 70
64
 10
0.0
 20
0.0
  3
_FILLED
  1

  0
SOLID
  5
22D
100
AcDbEntity
  8
0
  6
BYBLOCK
 62
0
100
AcDbTrace
 10
0.0
 20
0.0
 11
-1.0
 21
0.3166666667
 12
-1.0
 22
-0.3166666667
 13
-1.0
 23
-0.3166666667
  0
ENDBLK
  5
22E
100
AcDbEntity
  8
0
  6
BYBLOCK
 62
0
100
AcDbBlockEnd
  0
ENDSEC
  0
SECTION
  2
ENTITIES
  0
LINE
  5
22F
100
AcDbEntity
  8
268
100
AcDbLine
 62
7
  6
CONTINUOUS
 10
-13.2418719856
 20
24.369248505
 11
-11.6591153825
 21
25.1812326023
  0
LINE
  5
230
100
AcDbEntity
  8
268
100
AcDbLine
 62
7
  6
CONTINUOUS
 10
-13.7258222472
 20
22.6265505802
 11
-12.7136048139
 21
23.1434780656
  0
LINE
  5
231
100
AcDbEntity
  8
268
100
AcDbLine
 62
7
  6
CONTINUOUS
 10
-11.6591153825
 20
25.1812326023
 11
-11.1246655038
 21
25.4415800689
  0
LWPOLYLINE
  5
232
100
AcDbEntity
  8
RACCORDO
100
AcDbPolyline
 62
250
  6
CONTINUOUS
 90
14
 70
0
 10
-20.3455412722
 20
-18.6786431851
 10
-20.4008463207
 20
-18.6453260007
 10
-20.4524693909
 20
-18.6054893729
 10
-20.5001637926
 20
-18.5593312091
 10
-20.5437126483
 20
-18.5070636347
 10
-20.5829018174
 20
-18.4489332982
 10
-20.6175210093
 20
-18.3852395538
 10
-20.6473909159
 20
-18.3163149223
 10
-20.6723592654
 20
-18.2425160512
 10
-20.6923044969
 20
-18.1642058144
 10
-20.7071318894
 20
-18.0817646052
 10
-20.7167668445
 20
-17.9956003391
 10
-20.7211575834
 20
-17.906148339
 10
-20.7202806962
 20
-17.813856215
  0
LINE
  5
233
100
AcDbEntity
  8
268
100
AcDbLine
 62
250
  6
CONTINUOUS
 10
-13.5683036917
 20
22.6171147734
 11
-12.7136048139
 21
23.0535993933
  0
LINE
  5
234
100
AcDbEntity
  8
268
100
AcDbLine
 62
7
  6
CONTINUOUS
 10
-10.0327697857
 20
22.6360089964
 11
-11.0996006979
 21
22.0974277469
  0
LINE
  5
235
100
AcDbEntity
  8
268
100
AcDbLine
 62
7
  6
CONTINUOUS
 10
-11.6340505766
 20
23.5653378005
 11
-10.0327697857
 21
24.368059804
  0
LINE
  5
236
100
AcDbEntity
  8
268
100
AcDbLine
 62
7
  6
CONTINUOUS
 10
-10.0327697857
 20
24.368059804
 11
-9.504502614
 21
24.631498624
  0
LWPOLYLINE
  5
237
100
AcDbEntity
  8
RACCORDO
100
AcDbPolyline
 62
7
  6
CONTINUOUS
 90
19
 70
0
 10
-16.7075229762
 20
20.1426885275
 10
-16.7247153279
 20
20.1357000135
 10
-16.8173865167
 20
20.0929605782
 10
-16.9075366194
 20
20.0427796739
 10
-16.9951639583
 20
19.985208006
 10
-17.0798585175
 20
19.920565273
 10
-17.160836904
 20
19.8495494245
 10
-17.2381263896
 20
19.7722508251
 10
-17.3115404415
 20
19.6888811537
 10
-17.3801323781
 20
19.600557412
 10
-17.4438718041
 20
19.507462853
 10
-17.5026023616
 20
19.4097788717
 10
-17.5554564561
 20
19.3089840272
 10
-17.6023727088
 20
19.2053468054
 10
-17.6432094189
 20
19.0990409624
 10
-17.6773809877
 20
18.9915893812
 10
-17.7047331323
 20
18.8836115162
 10
-17.7253052839
 20
18.7748807155
 10
-17.7300582955
 20
18.74265785
  0
LINE
  5
238
100
AcDbEntity
  8
RACCORDO
100
AcDbLine
 62
7
  6
CONTINUOUS
 10
-16.7075274253
 20
20.1426997044
 11
-12.7945562982
 21
21.6993263519
  0
LINE
  5
239
100
AcDbEntity
  8
RACCORDO
100
AcDbLine
 62
250
  6
CONTINUOUS
 10
-16.3574360863
 20
20.1161636661
 11
-12.4484635248
 21
21.6711995902
  0
LWPOLYLINE
  5
23A
100
AcDbEntity
  8
268
100
AcDbPolyline
 62
7
  6
CONTINUOUS
 90
3
 70
0
 10
-2.0501961504
 20
25.8564198922
 10
-2.0627611701
 20
25.8517208413
 10
-2.0684119549
 20
25.8490782413
  0
LWPOLYLINE
  5
23B
100
AcDbEntity
  8
RACCORDO
100
AcDbPolyline
 62
250
  6
CONTINUOUS
 90
7
 70
0
 10
-16.707364504
 20
20.1427645628
 10
-16.6523591041
 20
20.1596733444
 10
-16.5961254361
 20
20.1676992661
 10
-16.5378714504
 20
20.1673110607
 10
-16.4782351428
 20
20.1585129799
 10
-16.4178696478
 20
20.1414013798
 10
-16.3574360863
 20
20.1161636661
  0
LWPOLYLINE
  5
23C
100
AcDbEntity
  8
268
100
AcDbPolyline
 62
7
  6
CONTINUOUS
 90
10
 70
0
 10
-2.0501961504
 20
25.8564198922
 10
-2.0409565296
 20
25.8591656911
 10
-2.0323933757
 20
25.8614314096
 10
-2.0245066888
 20
25.8632170477
 10
-2.0172573305
 20
25.8645434523
 10
-2.0106844392
 20
25.8653897764
 10
-2.0049054298
 20
25.8656934792
 10
-1.9999244726
 20
25.8654541434
 10
-1.9957373974
 20
25.8646721862
 10
-1.9931354252
 20
25.8636694744
  0
LWPOLYLINE
  5
23D
100
AcDbEntity
  8
RACCORDO
100
AcDbPolyline
 62
7
  6
CONTINUOUS
 90
12
 70
0
 10
-6.2012232669
 20
-25.7509152527
 10
-6.1691260708
 20
-25.7663373624
 10
-6.0874128743
 20
-25.7999493178
 10
-6.0026997643
 20
-25.8268977501
 10
-5.915428623
 20
-25.8469260575
 10
-5.825808761
 20
-25.8598534742
 10
-5.7343774542
 20
-25.8654577117
 10
-5.6417323598
 20
-25.8635716861
 10
-5.5480737272
 20
-25.8540399086
 10
-5.4537966057
 20
-25.8367231408
 10
-5.3595808942
 20
-25.8115952358
 10
-5.343337292
 20
-25.8064580497
  0
LINE
  5
23E
100
AcDbEntity
  8
RACCORDO
100
AcDbLine
 62
7
  6
CONTINUOUS
 10
-6.2003544942
 20
-25.7513648183
 11
-20.3355219026
 21
-18.6837811141
  0
LINE
  5
23F
100
AcDbEntity
  8
RACCORDO
100
AcDbLine
 62
250
  6
CONTINUOUS
 10
-6.5930096548
 20
-24.8774917357
 11
-20.7202806962
 21
-17.813856215
  0
LINE
  5
240
100
AcDbEntity
  8
RACCORDO
100
AcDbLine
 62
250
  6
CONTINUOUS
 10
-20.3355221731
 20
-18.6837809789
 11
-20.3455412722
 21
-18.6786431851
  0
LINE
  5
241
100
AcDbEntity
  8
268
100
AcDbLine
 62
7
  6
CONTINUOUS
 10
-9.4176509507
 20
24.0105010373
 11
-9.9448956665
 21
23.3687933093
  0
LWPOLYLINE
  5
242
100
AcDbEntity
  8
268
100
AcDbPolyline
 62
7
  6
CONTINUOUS
 90
12
 70
0
 10
-2.0684119549
 20
25.8490782413
 10
-2.0749306802
 20
25.8456061759
 10
-2.0867851067
 20
25.8381019027
 10
-2.0984402868
 20
25.8292293914
 10
-2.1099358816
 20
25.8190442809
 10
-2.1212271793
 20
25.8076132085
 10
-2.1323722457
 20
25.7949661823
 10
-2.1434391251
 20
25.7811366462
 10
-2.1543852443
 20
25.7661671474
 10
-2.1652325454
 20
25.7500842202
 10
-2.1760709741
 20
25.7329159659
 10
-2.1869553421
 20
25.7146973344
  0
LINE
  5
243
100
AcDbEntity
  8
268
100
AcDbLine
 62
7
  6
CONTINUOUS
 10
-7.7683753543
 20
22.2165028065
 11
-7.2750533391
 21
22.4695863384
  0
LINE
  5
244
100
AcDbEntity
  8
268
100
AcDbLine
 62
7
  6
CONTINUOUS
 10
-8.5769888092
 20
22.6076676001
 11
-2.0683423601
 21
25.8491129103
  0
LINE
  5
245
100
AcDbEntity
  8
268
100
AcDbLine
 62
250
  6
CONTINUOUS
 10
-8.5014956687
 20
22.5699210299
 11
-2.1869553421
 21
25.7146973344
  0
LINE
  5
246
100
AcDbEntity
  8
268
100
AcDbLine
 62
7
  6
CONTINUOUS
 10
-1.1939350209
 20
24.8349538036
 11
-5.9315504549
 21
22.499903289
  0
LINE
  5
247
100
AcDbEntity
  8
268
100
AcDbLine
 62
7
  6
CONTINUOUS
 10
-7.2750533391
 20
22.4695863384
 11
-1.7974133496
 21
25.1379183016
  0
LINE
  5
248
100
AcDbEntity
  8
268
100
AcDbLine
 62
7
  6
CONTINUOUS
 10
3.419422498
 20
-23.4879699123
 11
3.9466672137
 21
-23.5962621842
  0
LINE
  5
249
100
AcDbEntity
  8
268
100
AcDbLine
 62
7
  6
CONTINUOUS
 10
0.0123156891
 20
-24.5591750041
 11
1.6188481584
 21
-25.3624412388
  0
LWPOLYLINE
  5
24A
100
AcDbEntity
  8
RACCORDO
100
AcDbPolyline
 62
250
  6
CONTINUOUS
 90
9
 70
0
 10
-20.9546284489
 20
-17.5331098725
 10
-20.9532635824
 20
-17.5627702216
 10
-20.9439498871
 20
-17.601896168
 10
-20.9261848488
 20
-17.6406088542
 10
-20.9001588174
 20
-17.6784934796
 10
-20.8661506578
 20
-17.7151441161
 10
-20.8245247624
 20
-17.750168058
 10
-20.7757271463
 20
-17.7831900287
 10
-20.7202806687
 20
-17.8138562029
  0
LWPOLYLINE
  5
24B
100
AcDbEntity
  8
RACCORDO
100
AcDbPolyline
 62
7
  6
CONTINUOUS
 90
15
 70
0
 10
-20.9546189158
 20
-17.5331102266
 10
-20.9557276547
 20
-17.5841588653
 10
-20.9517221639
 20
-17.7037312664
 10
-20.9385114101
 20
-17.8193266774
 10
-20.9162992549
 20
-17.9308299644
 10
-20.8853245791
 20
-18.037732297
 10
-20.8461221375
 20
-18.1389052849
 10
-20.7994525738
 20
-18.2334749274
 10
-20.7457361153
 20
-18.3214703209
 10
-20.6852934076
 20
-18.4028633128
 10
-20.6189791824
 20
-18.4769870193
 10
-20.5473742083
 20
-18.543683969
 10
-20.4702651468
 20
-18.6033468207
 10
-20.38796479
 20
-18.6556710447
 10
-20.3344916424
 20
-18.6842800496
  0
LINE
  5
24C
100
AcDbEntity
  8
RACCORDO
100
AcDbLine
 62
7
  6
CONTINUOUS
 10
-20.9546216698
 20
-17.5329291753
 11
-20.9546284489
 21
-17.5331098725
  0
LWPOLYLINE
  5
24D
100
AcDbEntity
  8
RACCORDO
100
AcDbPolyline
 62
250
  6
CONTINUOUS
 90
13
 70
0
 10
-20.7202806962
 20
-17.813856215
 10
-20.5946159321
 20
-14.8465641668
 10
-20.4428289187
 20
-11.8676196812
 10
-20.2649384514
 20
-8.877396844
 10
-20.0609665756
 20
-5.8762712075
 10
-19.8309388392
 20
-2.8646195045
 10
-19.5748842856
 20
0.1571804005
 10
-19.2928352033
 20
3.1887492467
 10
-18.9848268531
 20
6.2297064015
 10
-18.6508977133
 20
9.279670149
 10
-18.2910897536
 20
12.3382576869
 10
-17.9054484334
 20
15.4050851734
 10
-17.4940224221
 20
18.4797677544
  0
LWPOLYLINE
  5
24E
100
AcDbEntity
  8
RACCORDO
100
AcDbPolyline
 62
250
  6
CONTINUOUS
 90
10
 70
0
 10
-17.7300641117
 20
18.7426586495
 10
-17.7306596461
 20
18.7373748387
 10
-17.7292612757
 20
18.7054015123
 10
-17.7193798156
 20
18.672657939
 10
-17.7011211432
 20
18.6394949578
 10
-17.6746808954
 20
18.6062679018
 10
-17.640342373
 20
18.5733327904
 10
-17.5984735043
 20
18.5410425153
 10
-17.5495229036
 20
18.5097430584
 10
-17.4940150643
 20
18.4797697855
  0
LWPOLYLINE
  5
24F
100
AcDbEntity
  8
RACCORDO
100
AcDbPolyline
 62
7
  6
CONTINUOUS
 90
13
 70
0
 10
-17.7300526843
 20
18.7427417836
 10
-18.1339389665
 20
15.7259997598
 10
-18.5212511056
 20
12.6490653222
 10
-18.8825579406
 20
9.5803472118
 10
-19.2178050495
 20
6.5202778948
 10
-19.526951912
 20
3.4692374319
 10
-19.8099618916
 20
0.4275854398
 10
-20.0667979346
 20
-2.604304221
 10
-20.2974282016
 20
-5.6260595211
 10
-20.5018230649
 20
-8.6373234159
 10
-20.679953264
 20
-11.6377203608
 10
-20.8317947577
 20
-14.6268295379
 10
-20.9546216698
 20
-17.5329291753
  0
LWPOLYLINE
  5
250
100
AcDbEntity
  8
RACCORDO
100
AcDbPolyline
 62
250
  6
CONTINUOUS
 90
22
 70
0
 10
-17.4940224221
 20
18.4797677544
 10
-17.4779948165
 20
18.5776359836
 10
-17.4568658418
 20
18.6764710479
 10
-17.4307429824
 20
18.7757781735
 10
-17.3997619292
 20
18.875055367
 10
-17.3640773144
 20
18.9738114395
 10
-17.3238592269
 20
19.0715680411
 10
-17.2793025824
 20
19.1678509272
 10
-17.2306359273
 20
19.2621630049
 10
-17.1781136379
 20
19.3540040693
 10
-17.1220155168
 20
19.4428981964
 10
-17.0626149011
 20
19.528423231
 10
-17.0001830916
 20
19.610180248
 10
-16.9350200513
 20
19.6877749667
 10
-16.8674651893
 20
19.7608003724
 10
-16.7978681481
 20
19.8288689917
 10
-16.7265900421
 20
19.8916348273
 10
-16.6539817813
 20
19.9487953011
 10
-16.5803915195
 20
20.0000692528
 10
-16.5061842613
 20
20.0452008788
 10
-16.4317405269
 20
20.0839635945
 10
-16.3574360863
 20
20.1161636661
  0
LINE
  5
251
100
AcDbEntity
  8
268
100
AcDbLine
 62
7
  6
CONTINUOUS
 10
0.1331388075
 20
23.3650795701
 11
-1.264645699
 21
22.6661873168
  0
LINE
  5
252
100
AcDbEntity
  8
218
100
AcDbLine
 62
7
  6
CONTINUOUS
 10
-2.3395579134
 20
21.9741441213
 11
-2.2780013953
 21
22.0049223804
  0
LINE
  5
253
100
AcDbEntity
  8
218
100
AcDbLine
 62
250
  6
CONTINUOUS
 10
-2.2545951927
 20
21.9662237647
 11
-2.1885586763
 21
21.9992420229
  0
LWPOLYLINE
  5
254
100
AcDbEntity
  8
218
100
AcDbPolyline
 62
7
  6
CONTINUOUS
 90
20
 70
0
 10
-2.3395581077
 20
21.9741440242
 10
-2.3386925632
 20
21.9745679783
 10
-2.3349543721
 20
21.9762059952
 10
-2.3310750145
 20
21.9776012107
 10
-2.327058578
 20
21.9787520404
 10
-2.3229110718
 20
21.9796563785
 10
-2.3186388608
 20
21.9803123825
 10
-2.3142468128
 20
21.9807194158
 10
-2.3097413972
 20
21.9808764727
 10
-2.3051294131
 20
21.9807828127
 10
-2.3004164294
 20
21.9804387602
 10
-2.2956092907
 20
21.9798444279
 10
-2.2907151472
 20
21.9790001888
 10
-2.2857401869
 20
21.9779073187
 10
-2.2806915471
 20
21.9765670511
 10
-2.2755766348
 20
21.9749808686
 10
-2.2704021558
 20
21.9731509672
 10
-2.2651753187
 20
21.9710797117
 10
-2.2599038261
 20
21.9687696442
 10
-2.2545951927
 20
21.9662237647
  0
LINE
  5
255
100
AcDbEntity
  8
268
100
AcDbLine
 62
7
  6
CONTINUOUS
 10
-1.6181990896
 20
23.3955222014
 11
-1.1939350209
 21
23.6031196222
  0
LINE
  5
256
100
AcDbEntity
  8
268
100
AcDbLine
 62
7
  6
CONTINUOUS
 10
0.7921345588
 20
24.2251523839
 11
-1.264645699
 21
23.2187455061
  0
LWPOLYLINE
  5
257
100
AcDbEntity
  8
218
100
AcDbPolyline
 62
250
  6
CONTINUOUS
 90
55
 70
0
 10
-2.1885586763
 20
21.9992420229
 10
-2.1728075703
 20
22.0069097507
 10
-2.1566781655
 20
22.014354811
 10
-2.1401704618
 20
22.0215772037
 10
-2.1232711044
 20
22.0285821342
 10
-2.1059934481
 20
22.0353643972
 10
-2.0883775575
 20
22.0419083766
 10
-2.0704229583
 20
22.0482133235
 10
-2.0521301248
 20
22.0542799868
 10
-2.0335405435
 20
22.0600949975
 10
-2.0146536314
 20
22.0656577122
 10
-1.9954699716
 20
22.0709687743
 10
-1.9760328005
 20
22.0760167444
 10
-1.95634164
 20
22.0808009773
 10
-1.9363969683
 20
22.0853221183
 10
-1.9162434558
 20
22.0895706643
 10
-1.8958806437
 20
22.0935459768
 10
-1.875308991
 20
22.0972486944
 10
-1.8545745449
 20
22.1006712295
 10
-1.8336770742
 20
22.1038129139
 10
-1.8126168101
 20
22.1066744157
 10
-1.7914404943
 20
22.1092501519
 10
-1.7701479692
 20
22.1115394633
 10
-1.7487393924
 20
22.113543009
 10
-1.7272619782
 20
22.1152571835
 10
-1.705715741
 20
22.1166813313
 10
-1.6841006663
 20
22.1178161078
 10
-1.6624639252
 20
22.1186598747
 10
-1.64080557
 20
22.1192119926
 10
-1.6191255484
 20
22.1194731008
 10
-1.5974708741
 20
22.119443479
 10
-1.5758417614
 20
22.119122503
 10
-1.5542379961
 20
22.1185107968
 10
-1.5327059489
 20
22.117610513
 10
-1.5112458604
 20
22.1164210442
 10
-1.48985749
 20
22.1149429977
 10
-1.4685864859
 20
22.113180348
 10
-1.4474332448
 20
22.1111325144
 10
-1.42639737
 20
22.1088000777
 10
-1.4055233196
 20
22.1061887548
 10
-1.3848115665
 20
22.1032979966
 10
-1.3642616378
 20
22.1001283522
 10
-1.3439165723
 20
22.0966871864
 10
-1.3237769097
 20
22.0929739817
 10
-1.3038421105
 20
22.0889892555
 10
-1.2841535941
 20
22.0847419251
 10
-1.2647118341
 20
22.08023147
 10
-1.2455163571
 20
22.0754584106
 10
-1.2266071625
 20
22.0704332264
 10
-1.2079847645
 20
22.0651553795
 10
-1.189648649
 20
22.0596254077
 10
-1.1716372733
 20
22.0538554039
 10
-1.1539634565
 20
22.0478493989
 10
-1.1366143795
 20
22.0416033618
 10
-1.1195900424
 20
22.0351172926
  0
LWPOLYLINE
  5
258
100
AcDbEntity
  8
218
100
AcDbPolyline
 62
250
  6
CONTINUOUS
 90
17
 70
0
 10
-2.2780013953
 20
22.0049223804
 10
-2.2746505384
 20
22.0064957071
 10
-2.2696746289
 20
22.0084762187
 10
-2.2645443106
 20
22.0101094467
 10
-2.2592693494
 20
22.0113922823
 10
-2.2538597865
 20
22.0123222834
 10
-2.2483259192
 20
22.0128976798
 10
-2.2426782817
 20
22.0131173762
 10
-2.2369276244
 20
22.0129809545
 10
-2.2310848942
 20
22.0124886742
 10
-2.225161213
 20
22.0116414725
 10
-2.2191678568
 20
22.0104409621
 10
-2.2131162343
 20
22.0088894282
 10
-2.2070178653
 20
22.0069898243
 10
-2.2008843581
 20
22.0047457664
 10
-2.1947273884
 20
22.0021615262
 10
-2.1885586763
 20
21.9992420229
  0
LWPOLYLINE
  5
259
100
AcDbEntity
  8
RACCORDO
100
AcDbPolyline
 62
250
  6
CONTINUOUS
 90
55
 70
0
 10
-13.533521013
 20
-15.8541574332
 10
-13.4963803583
 20
-15.8712994275
 10
-13.4591185852
 20
-15.8856490104
 10
-13.4218610839
 20
-15.8971572346
 10
-13.384751603
 20
-15.9057810559
 10
-13.3478965463
 20
-15.9114972918
 10
-13.3113660915
 20
-15.9142882839
 10
-13.2752478345
 20
-15.9141293052
 10
-13.2397056616
 20
-15.9110024331
 10
-13.2049212676
 20
-15.9049169578
 10
-13.171017566
 20
-15.895896077
 10
-13.1381043355
 20
-15.8839709263
 10
-13.1063316814
 20
-15.8692031928
 10
-13.0758318059
 20
-15.8516729968
 10
-13.0466709455
 20
-15.8314377151
 10
-13.0188958805
 20
-15.8085354153
 10
-12.9925842396
 20
-15.783022447
 10
-12.967845623
 20
-15.7549970051
 10
-12.9447727023
 20
-15.7245620276
 10
-12.9234438293
 20
-15.6918211997
 10
-12.9039303171
 20
-15.6568843426
 10
-12.886302351
 20
-15.6198794352
 10
-12.8706270865
 20
-15.5809580803
 10
-12.8569439899
 20
-15.5402302176
 10
-12.8452801649
 20
-15.4977640054
 10
-12.8356749834
 20
-15.4536525149
 10
-12.8281819181
 20
-15.4080800075
 10
-12.8228406141
 20
-15.3612576242
 10
-12.8196703329
 20
-15.3133627976
 10
-12.8186797129
 20
-15.2645405068
 10
-12.8198720723
 20
-15.2149643754
 10
-12.8232421259
 20
-15.1648088878
 10
-12.8287777285
 20
-15.1142387912
 10
-12.83646105
 20
-15.0634161456
 10
-12.8462679687
 20
-15.0125066956
 10
-12.8581648064
 20
-14.9616901167
 10
-12.8721085371
 20
-14.9111495703
 10
-12.8880486128
 20
-14.8610636935
 10
-12.9059320216
 20
-14.8115950598
 10
-12.9257019095
 20
-14.7629006456
 10
-12.9472953112
 20
-14.7151383791
 10
-12.9706363584
 20
-14.6684786532
 10
-12.9956394708
 20
-14.623092005
 10
-13.022213516
 20
-14.5791403897
 10
-13.0502723421
 20
-14.536763093
 10
-13.0797300278
 20
-14.496089909
 10
-13.1105080196
 20
-14.4572347468
 10
-13.1424832736
 20
-14.4203580043
 10
-13.1754922141
 20
-14.3856414878
 10
-13.2093826631
 20
-14.3532256061
 10
-13.2440700058
 20
-14.3231725076
 10
-13.2794864656
 20
-14.2955341604
 10
-13.3155306153
 20
-14.2703916865
 10
-13.3520639554
 20
-14.2478434856
 10
-13.3889634952
 20
-14.2279651864
  0
LINE
  5
25A
100
AcDbEntity
  8
268
100
AcDbLine
 62
250
  6
CONTINUOUS
 10
-0.0522796037
 20
-24.4241455558
 11
1.5534968584
 21
-25.2270337869
  0
LINE
  5
25B
100
AcDbEntity
  8
268
100
AcDbLine
 62
250
  6
CONTINUOUS
 10
1.5534968584
 20
-24.9736623931
 11
-0.0522796037
 21
-24.170774162
  0
LINE
  5
25C
100
AcDbEntity
  8
268
100
AcDbLine
 62
250
  6
CONTINUOUS
 10
1.6423994345
 20
-24.7422253335
 11
0.0355945156
 21
-23.938822874
  0
LINE
  5
25D
100
AcDbEntity
  8
268
100
AcDbLine
 62
7
  6
CONTINUOUS
 10
-0.8651739526
 20
-22.4945997397
 11
1.705202782
 21
-23.779788107
  0
LINE
  5
25E
100
AcDbEntity
  8
268
100
AcDbLine
 62
7
  6
CONTINUOUS
 10
2.2647174665
 20
-23.997165916
 11
1.8554522212
 21
-23.7925332933
  0
LINE
  5
25F
100
AcDbEntity
  8
268
100
AcDbLine
 62
7
  6
CONTINUOUS
 10
-0.8372989456
 20
-22.1810213047
 11
1.9526901554
 21
-23.5760158552
  0
LWPOLYLINE
  5
260
100
AcDbEntity
  8
RACCORDO
100
AcDbPolyline
 62
7
  6
CONTINUOUS
 90
46
 70
0
 10
-13.507550441
 20
-15.9102482574
 10
-13.54817389
 20
-15.8884120206
 10
-13.5882373024
 20
-15.8638196491
 10
-13.6276344184
 20
-15.8365478906
 10
-13.6662729406
 20
-15.8066682413
 10
-13.7040395781
 20
-15.7742729113
 10
-13.7407988365
 20
-15.7394854869
 10
-13.7764673911
 20
-15.7023915948
 10
-13.8109314982
 20
-15.663113207
 10
-13.8440186142
 20
-15.6218622075
 10
-13.8756263234
 20
-15.5787947274
 10
-13.9056917499
 20
-15.534022607
 10
-13.9341149972
 20
-15.4877196428
 10
-13.9608114586
 20
-15.4400543392
 10
-13.9857277262
 20
-15.3911509023
 10
-14.0088145451
 20
-15.3411248436
 10
-14.0300143494
 20
-15.290109988
 10
-14.049260823
 20
-15.2382715344
 10
-14.0664950317
 20
-15.1857745372
 10
-14.08166505
 20
-15.1327833979
 10
-14.0947297695
 20
-15.0794428791
 10
-14.1056526949
 20
-15.0258890541
 10
-14.1143995835
 20
-14.9722528822
 10
-14.1209318561
 20
-14.918713866
 10
-14.1252179531
 20
-14.8654769522
 10
-14.1272399069
 20
-14.8127144399
 10
-14.1269866167
 20
-14.7605572603
 10
-14.1244483363
 20
-14.7091403987
 10
-14.1196123539
 20
-14.6585584431
 10
-14.1124778018
 20
-14.6090120411
 10
-14.1030755182
 20
-14.5607770492
 10
-14.091429306
 20
-14.5139819499
 10
-14.0775673253
 20
-14.4687550749
 10
-14.0615687061
 20
-14.4253384319
 10
-14.0434966785
 20
-14.3838586774
 10
-14.0234001369
 20
-14.344393798
 10
-14.0013674597
 20
-14.3070849944
 10
-13.9774706907
 20
-14.2720186443
 10
-13.9517885959
 20
-14.2392798724
 10
-13.9244448443
 20
-14.2089897478
 10
-13.8955571676
 20
-14.1812320828
 10
-13.8652154108
 20
-14.1560489251
 10
-13.833523468
 20
-14.1334887589
 10
-13.8005998026
 20
-14.113600263
 10
-13.7665740349
 20
-14.0964252912
 10
-13.7315777882
 20
-14.0819925592
  0
LWPOLYLINE
  5
261
100
AcDbEntity
  8
RACCORDO
100
AcDbPolyline
 62
250
  6
CONTINUOUS
 90
3
 70
0
 10
-13.3463372058
 20
-16.0455968999
 10
-13.4140347297
 20
-16.0082599583
 10
-13.4810495564
 20
-15.964270233
  0
LWPOLYLINE
  5
262
100
AcDbEntity
  8
RACCORDO
100
AcDbPolyline
 62
250
  6
CONTINUOUS
 90
39
 70
0
 10
-13.4248997913
 20
-16.1652343911
 10
-13.4989137361
 20
-16.124299345
 10
-13.5712603575
 20
-16.0767703445
 10
-13.641938938
 20
-16.0226470887
 10
-13.7114180742
 20
-15.9614824524
 10
-13.7792262853
 20
-15.8937223523
 10
-13.8439522164
 20
-15.8207058322
 10
-13.905508371
 20
-15.7423317547
 10
-13.9639771116
 20
-15.6586991096
 10
-14.0182019549
 20
-15.5714471682
 10
-14.0680821307
 20
-15.4805323598
 10
-14.1137122342
 20
-15.3859956803
 10
-14.1542297136
 20
-15.2896036221
 10
-14.1895470178
 20
-15.1912872101
 10
-14.2197457979
 20
-15.0911129712
 10
-14.2442190724
 20
-14.99105139
 10
-14.2628469793
 20
-14.8911211692
 10
-14.2757452318
 20
-14.7913018986
 10
-14.2826627266
 20
-14.6935064422
 10
-14.2834831372
 20
-14.5977644971
 10
-14.2783212615
 20
-14.504045754
 10
-14.2672756012
 20
-14.4141742779
 10
-14.2502318523
 20
-14.3282310747
 10
-14.2273058228
 20
-14.2461357818
 10
-14.1989441131
 20
-14.1694716223
 10
-14.1650398738
 20
-14.0983436718
 10
-14.1257041093
 20
-14.0326485852
 10
-14.0817127157
 20
-13.9736579888
 10
-14.0329854582
 20
-13.921511203
 10
-13.9796084462
 20
-13.8760713343
 10
-13.9226088649
 20
-13.838196414
 10
-13.8619284525
 20
-13.8080288508
 10
-13.7976316672
 20
-13.7854287834
 10
-13.7309306591
 20
-13.770831199
 10
-13.6617421816
 20
-13.7643981391
 10
-13.5901546031
 20
-13.765969661
 10
-13.517637585
 20
-13.7754978102
 10
-13.4446820569
 20
-13.792967028
 10
-13.3707999986
 20
-13.818394063
  0
LINE
  5
263
100
AcDbEntity
  8
RACCORDO
100
AcDbLine
 62
250
  6
CONTINUOUS
 10
-13.4810495564
 20
-15.964270233
 11
-13.5469484179
 21
-15.9138830781
  0
LWPOLYLINE
  5
264
100
AcDbEntity
  8
RACCORDO
100
AcDbPolyline
 62
250
  6
CONTINUOUS
 90
3
 70
0
 10
-13.5469484179
 20
-15.9138830781
 10
-13.6113378163
 20
-15.8573781242
 10
-13.6480481672
 20
-15.8207616851
  0
LINE
  5
265
100
AcDbEntity
  8
218
100
AcDbLine
 62
7
  6
CONTINUOUS
 10
-2.3512472737
 20
21.966411628
 11
-3.2812867092
 21
21.1747714162
  0
LINE
  5
266
100
AcDbEntity
  8
218
100
AcDbLine
 62
250
  6
CONTINUOUS
 10
-2.2545951927
 20
21.9662237647
 11
-3.2202611346
 21
21.1442586289
  0
LWPOLYLINE
  5
267
100
AcDbEntity
  8
218
100
AcDbPolyline
 62
7
  6
CONTINUOUS
 90
5
 70
0
 10
-2.3512475988
 20
21.9664114591
 10
-2.3490053637
 20
21.9682266138
 10
-2.3457224253
 20
21.9705754528
 10
-2.3422837409
 20
21.9726900742
 10
-2.3395581077
 20
21.9741440242
  0
LINE
  5
268
100
AcDbEntity
  8
268
100
AcDbLine
 62
7
  6
CONTINUOUS
 10
-1.5516093975
 20
19.108119828
 11
-1.0525136647
 21
19.3583165011
  0
LINE
  5
269
100
AcDbEntity
  8
268
100
AcDbLine
 62
7
  6
CONTINUOUS
 10
-1.0525136647
 20
19.3583165011
 11
4.3617590305
 21
22.0583321115
  0
LINE
  5
26A
100
AcDbEntity
  8
268
100
AcDbLine
 62
7
  6
CONTINUOUS
 10
3.7558124474
 20
22.3600800695
 11
-0.9818029865
 21
20.0250295549
  0
LINE
  5
26B
100
AcDbEntity
  8
268
100
AcDbLine
 62
7
  6
CONTINUOUS
 10
5.034775246
 20
22.1038320404
 11
4.4483964589
 21
21.8169099727
  0
LWPOLYLINE
  5
26C
100
AcDbEntity
  8
268
100
AcDbPolyline
 62
7
  6
CONTINUOUS
 90
18
 70
0
 10
5.034775246
 20
22.1038320404
 10
5.0631497667
 20
22.1170139972
 10
5.0913842187
 20
22.1287483889
 10
5.119478602
 20
22.1390352156
 10
5.147482915
 20
22.1478873502
 10
5.1753471593
 20
22.1552919197
 10
5.2029213389
 20
22.1612103054
 10
5.2301904676
 20
22.1656337266
 10
5.2571695316
 20
22.168570964
 10
5.2837534942
 20
22.1700097399
 10
5.3099584531
 20
22.1699426034
 10
5.3357683105
 20
22.1683770054
 10
5.3610297368
 20
22.165323022
 10
5.3857194901
 20
22.1607772376
 10
5.4098608122
 20
22.1547430677
 10
5.4333700985
 20
22.147240835
 10
5.4562658787
 20
22.1382554203
 10
5.4758089307
 20
22.1291861659
  0
LINE
  5
26D
100
AcDbEntity
  8
218
100
AcDbLine
 62
7
  6
CONTINUOUS
 10
11.3146054821
 20
24.7690867198
 11
5.534706033
 21
22.099737615
  0
LINE
  5
26E
100
AcDbEntity
  8
218
100
AcDbLine
 62
250
  6
CONTINUOUS
 10
11.7462249072
 20
24.7332930135
 11
5.8279058399
 21
22.0000171419
  0
LWPOLYLINE
  5
26F
100
AcDbEntity
  8
218
100
AcDbPolyline
 62
250
  6
CONTINUOUS
 90
3
 70
0
 10
5.8279058399
 20
22.0000171419
 10
5.8024880425
 20
21.9885504328
 10
5.7780704496
 20
21.9780554067
  0
LWPOLYLINE
  5
270
100
AcDbEntity
  8
0
100
AcDbPolyline
 62
7
  6
CONTINUOUS
 90
3
 70
0
 10
-12.6554939677
 20
-15.8103130677
 10
-12.5974116975
 20
-15.8358316575
 10
-12.5772429492
 20
-15.8424361897
  0
LINE
  5
271
100
AcDbEntity
  8
RACCORDO
100
AcDbLine
 62
250
  6
CONTINUOUS
 10
-13.3707999986
 20
-13.818394063
 11
-13.2959921352
 21
-13.8517792115
  0
LWPOLYLINE
  5
272
100
AcDbEntity
  8
RACCORDO
100
AcDbPolyline
 62
250
  6
CONTINUOUS
 90
55
 70
0
 10
-13.3889634952
 20
-14.2279651864
 10
-13.4261041115
 20
-14.2108231783
 10
-13.4633658656
 20
-14.1964735885
 10
-13.5006233674
 20
-14.1849653646
 10
-13.537732881
 20
-14.176341555
 10
-13.5745879899
 20
-14.170625338
 10
-13.6111184778
 20
-14.1678343578
 10
-13.6472367271
 20
-14.1679933337
 10
-13.6827788731
 20
-14.1711201961
 10
-13.7175632475
 20
-14.1772056643
 10
-13.7514669483
 20
-14.1862265448
 10
-13.784380185
 20
-14.1981516978
 10
-13.8161528436
 20
-14.2129194329
 10
-13.8466527179
 20
-14.2304496284
 10
-13.8758135753
 20
-14.2506849091
 10
-13.9035886378
 20
-14.273587208
 10
-13.9299002775
 20
-14.2991001758
 10
-13.9546388935
 20
-14.3271256175
 10
-13.9777118134
 20
-14.3575605948
 10
-13.9990406851
 20
-14.3903014222
 10
-14.0185541961
 20
-14.4252382789
 10
-14.0361821612
 20
-14.4622431859
 10
-14.0518574252
 20
-14.5011645406
 10
-14.0655405215
 20
-14.5418924032
 10
-14.0772043462
 20
-14.5843586153
 10
-14.086809527
 20
-14.6284701056
 10
-14.0943025915
 20
-14.6740426126
 10
-14.0996438949
 20
-14.7208649957
 10
-14.1028141757
 20
-14.7687598222
 10
-14.1038047956
 20
-14.8175821129
 10
-14.102612436
 20
-14.8671582443
 10
-14.0992423823
 20
-14.9173137319
 10
-14.0937067797
 20
-14.9678838284
 10
-14.0860234582
 20
-15.0187064741
 10
-14.0762165397
 20
-15.0696159241
 10
-14.0643197024
 20
-15.1204325031
 10
-14.050375972
 20
-15.1709730497
 10
-14.0344358964
 20
-15.2210589265
 10
-14.0165524876
 20
-15.2705275603
 10
-13.9967826003
 20
-15.3192219746
 10
-13.9751892003
 20
-15.3669842418
 10
-13.9518481554
 20
-15.4136439684
 10
-13.9268450438
 20
-15.459030617
 10
-13.9002709955
 20
-15.5029822311
 10
-13.8722121648
 20
-15.5453595261
 10
-13.8427544793
 20
-15.5860327102
 10
-13.8119765006
 20
-15.6248878772
 10
-13.7800012646
 20
-15.6617646261
 10
-13.7469923291
 20
-15.6964811445
 10
-13.7131018572
 20
-15.7288970179
 10
-13.6784144787
 20
-15.7589501035
 10
-13.642997997
 20
-15.7865884428
 10
-13.6069538485
 20
-15.8117309172
 10
-13.5704205236
 20
-15.8342791235
 10
-13.533521013
 20
-15.8541574332
  0
LWPOLYLINE
  5
273
100
AcDbEntity
  8
RACCORDO
100
AcDbPolyline
 62
250
  6
CONTINUOUS
 90
12
 70
0
 10
-13.3120804316
 20
-14.1209608609
 10
-13.3529628373
 20
-14.1020921791
 10
-13.3939785496
 20
-14.0862970904
 10
-13.4349895665
 20
-14.0736294642
 10
-13.4758376963
 20
-14.0641365712
 10
-13.516405827
 20
-14.0578440284
 10
-13.5566166497
 20
-14.0547715869
 10
-13.5963736701
 20
-14.0549466443
 10
-13.6354965094
 20
-14.0583887534
 10
-13.6737852309
 20
-14.0650874739
 10
-13.7111045861
 20
-14.0750171774
 10
-13.7315777897
 20
-14.0819925598
  0
LINE
  5
274
100
AcDbEntity
  8
268
100
AcDbLine
 62
250
  6
CONTINUOUS
 10
3.419422498
 20
-23.4879699123
 11
3.376000172
 21
-23.4662587493
  0
LINE
  5
275
100
AcDbEntity
  8
268
100
AcDbLine
 62
7
  6
CONTINUOUS
 10
-0.757681797
 20
-21.2853723493
 11
2.7658629537
 21
-23.0471447247
  0
LINE
  5
276
100
AcDbEntity
  8
268
100
AcDbLine
 62
250
  6
CONTINUOUS
 10
3.3315483787
 20
-23.2887027668
 11
3.9466672137
 21
-23.5962621842
  0
LINE
  5
277
100
AcDbEntity
  8
268
100
AcDbLine
 62
7
  6
CONTINUOUS
 10
3.3315483787
 20
-23.2850826172
 11
3.9699460401
 21
-23.6042814479
  0
LINE
  5
278
100
AcDbEntity
  8
268
100
AcDbLine
 62
7
  6
CONTINUOUS
 10
-0.6172575432
 20
-19.7056770387
 11
2.7658629537
 21
-21.3972372872
  0
LWPOLYLINE
  5
279
100
AcDbEntity
  8
RACCORDO
100
AcDbPolyline
 62
7
  6
CONTINUOUS
 90
32
 70
0
 10
-13.2701521024
 20
-13.912449257
 10
-13.2531078923
 20
-13.9212034657
 10
-13.1819522973
 20
-13.9626854485
 10
-13.1115109366
 20
-14.011796896
 10
-13.0424552402
 20
-14.0681271882
 10
-12.9753370172
 20
-14.131206647
 10
-12.9106209447
 20
-14.2006250548
 10
-12.8488282966
 20
-14.2758426555
 10
-12.7904453524
 20
-14.3562411635
 10
-12.7358506496
 20
-14.4413338452
 10
-12.6854771407
 20
-14.5304794659
 10
-12.639703085
 20
-14.6229761595
 10
-12.5988210005
 20
-14.7182755992
 10
-12.5631641477
 20
-14.8156547097
 10
-12.5329965765
 20
-14.9143646975
 10
-12.5085273587
 20
-15.013813656
 10
-12.4899796049
 20
-15.1132267488
 10
-12.4774972894
 20
-15.2118208826
 10
-12.4711964564
 20
-15.3089445304
 10
-12.4711654022
 20
-15.4038091451
 10
-12.4774034905
 20
-15.4956062984
 10
-12.4898839976
 20
-15.5835767576
 10
-12.5085141248
 20
-15.6669710721
 10
-12.5330902469
 20
-15.7450266747
 10
-12.5633308971
 20
-15.8169399986
 10
-12.5988576159
 20
-15.8820487263
 10
-12.6392847593
 20
-15.9399434996
 10
-12.6842808941
 20
-15.990286488
 10
-12.7333481039
 20
-16.0327167099
 10
-12.7861877278
 20
-16.0671643724
 10
-12.842970857
 20
-16.0936738888
 10
-12.8522461624
 20
-16.0971049813
  0
LINE
  5
27A
100
AcDbEntity
  8
RACCORDO
100
AcDbLine
 62
250
  6
CONTINUOUS
 10
-13.2959921352
 20
-13.8517792115
 11
-13.2219813979
 21
-13.8927387954
  0
LWPOLYLINE
  5
27B
100
AcDbEntity
  8
RACCORDO
100
AcDbPolyline
 62
250
  6
CONTINUOUS
 90
29
 70
0
 10
-13.2219813979
 20
-13.8927387954
 10
-13.1496906161
 20
-13.9403111942
 10
-13.0791190723
 20
-13.9944961146
 10
-13.0097968391
 20
-14.0557413613
 10
-12.9421909612
 20
-14.1235979505
 10
-12.8777056589
 20
-14.1967201931
 10
-12.8164255133
 20
-14.2752064981
 10
-12.7582608144
 20
-14.3589563547
 10
-12.7043544307
 20
-14.4463257272
 10
-12.6548018325
 20
-14.5373550085
 10
-12.6095013821
 20
-14.6320012702
 10
-12.5693011697
 20
-14.7284958542
 10
-12.5342830831
 20
-14.8269048573
 10
-12.50435934
 20
-14.9271597478
 10
-12.4801252866
 20
-15.0272906455
 10
-12.4616960659
 20
-15.1272778536
 10
-12.4489523827
 20
-15.2271393396
 10
-12.4421404337
 20
-15.3249627509
 10
-12.4413747511
 20
-15.4207189978
 10
-12.4465392625
 20
-15.5144365117
 10
-12.4575371734
 20
-15.6042904262
 10
-12.4744847147
 20
-15.6902013031
 10
-12.4972671479
 20
-15.7722491777
 10
-12.5254441585
 20
-15.8488496121
 10
-12.5591276728
 20
-15.9198992269
 10
-12.5982099159
 20
-15.9855031099
 10
-12.6419235431
 20
-16.0443905751
 10
-12.6903555303
 20
-16.0964240159
 10
-12.7434247813
 20
-16.1417434786
  0
LINE
  5
27C
100
AcDbEntity
  8
268
100
AcDbLine
 62
7
  6
CONTINUOUS
 10
0.1224461788
 20
17.6870894228
 11
1.705202782
 21
18.4990735201
  0
LINE
  5
27D
100
AcDbEntity
  8
268
100
AcDbLine
 62
7
  6
CONTINUOUS
 10
-1.5516093975
 20
17.8939163552
 11
-1.0525136647
 21
18.1458809358
  0
LINE
  5
27E
100
AcDbEntity
  8
268
100
AcDbLine
 62
7
  6
CONTINUOUS
 10
-1.0525136647
 20
18.1458809358
 11
4.3617590305
 21
20.8264935332
  0
LINE
  5
27F
100
AcDbEntity
  8
268
100
AcDbLine
 62
7
  6
CONTINUOUS
 10
1.705202782
 20
18.4990735201
 11
2.2396526606
 21
18.7594209867
  0
LINE
  5
280
100
AcDbEntity
  8
218
100
AcDbLine
 62
7
  6
CONTINUOUS
 10
12.786991409
 20
24.2129097626
 11
9.2139177105
 21
22.5074764458
  0
LWPOLYLINE
  5
281
100
AcDbEntity
  8
RACCORDO
100
AcDbPolyline
 62
250
  6
CONTINUOUS
 90
17
 70
0
 10
-14.1261615057
 20
-14.8408551228
 10
-14.1343915856
 20
-14.7785423052
 10
-14.1409723189
 20
-14.6882266028
 10
-14.1420107039
 20
-14.599781924
 10
-14.1375199214
 20
-14.5138004242
 10
-14.1274889758
 20
-14.4308399513
 10
-14.1120037994
 20
-14.3514509161
 10
-14.0911884445
 20
-14.2761499949
 10
-14.065143177
 20
-14.205408706
 10
-14.0340506199
 20
-14.139686603
 10
-13.9981366501
 20
-14.0794238703
 10
-13.9576158845
 20
-14.0250112919
 10
-13.9127731167
 20
-13.9768085311
 10
-13.8639161194
 20
-13.9351238126
 10
-13.8113343924
 20
-13.9002101409
 10
-13.7553836847
 20
-13.8722988518
 10
-13.7299730663
 20
-13.8623495185
  0
LINE
  5
282
100
AcDbEntity
  8
268
100
AcDbLine
 62
7
  6
CONTINUOUS
 10
-13.8157910651
 20
22.4377380269
 11
-13.8157910651
 21
22.4133425216
  0
LINE
  5
283
100
AcDbEntity
  8
268
100
AcDbLine
 62
7
  6
CONTINUOUS
 10
-13.4165977682
 20
23.8109890595
 11
-13.4165977682
 21
24.0643604533
  0
LINE
  5
284
100
AcDbEntity
  8
268
100
AcDbLine
 62
250
  6
CONTINUOUS
 10
3.8456292118
 20
17.205368951
 11
9.203955992
 21
20.0963091779
  0
LINE
  5
285
100
AcDbEntity
  8
268
100
AcDbLine
 62
250
  6
CONTINUOUS
 10
3.4790090586
 20
16.7591568248
 11
9.1198044244
 21
19.8024953341
  0
LINE
  5
286
100
AcDbEntity
  8
715
100
AcDbLine
 62
7
  6
CONTINUOUS
 10
9.2955583728
 20
20.1798650937
 11
9.927846439
 21
20.5132830934
  0
LINE
  5
287
100
AcDbEntity
  8
268
100
AcDbLine
 62
250
  6
CONTINUOUS
 10
3.3906191038
 20
16.6238636436
 11
9.1198044244
 21
19.59023618
  0
LINE
  5
288
100
AcDbEntity
  8
268
100
AcDbLine
 62
7
  6
CONTINUOUS
 10
3.5103852344
 20
16.5639805783
 11
9.2022084995
 21
19.5110083442
  0
LINE
  5
289
100
AcDbEntity
  8
218
100
AcDbLine
 62
7
  6
CONTINUOUS
 10
9.6079036443
 20
21.4853206278
 11
13.8242834221
 21
23.6306302445
  0
LINE
  5
28A
100
AcDbEntity
  8
218
100
AcDbLine
 62
7
  6
CONTINUOUS
 10
9.6079036443
 20
21.0751015848
 11
13.8303404089
 21
23.1931417773
  0
LINE
  5
28B
100
AcDbEntity
  8
268
100
AcDbLine
 62
7
  6
CONTINUOUS
 10
1.7302675879
 20
16.8831787182
 11
3.3315483787
 21
17.6859007217
  0
LINE
  5
28C
100
AcDbEntity
  8
715
100
AcDbLine
 62
7
  6
CONTINUOUS
 10
10.0561338678
 20
20.290191362
 11
10.5511086146
 21
20.5376787354
  0
LINE
  5
28D
100
AcDbEntity
  8
268
100
AcDbLine
 62
7
  6
CONTINUOUS
 10
3.3315483787
 20
17.6859007217
 11
3.8598155504
 21
17.9493395418
  0
LINE
  5
28E
100
AcDbEntity
  8
268
100
AcDbLine
 62
250
  6
CONTINUOUS
 10
3.2420261687
 20
18.3202116035
 11
8.0138651469
 21
20.6142870899
  0
LINE
  5
28F
100
AcDbEntity
  8
268
100
AcDbLine
 62
250
  6
CONTINUOUS
 10
3.4696416686
 20
18.2064038536
 11
8.4557060148
 21
20.6034688096
  0
LINE
  5
290
100
AcDbEntity
  8
268
100
AcDbLine
 62
7
  6
CONTINUOUS
 10
1.9526901554
 20
14.5291019113
 11
2.7658629537
 21
14.8134035793
  0
LINE
  5
291
100
AcDbEntity
  8
268
100
AcDbLine
 62
7
  6
CONTINUOUS
 10
-13.0026182667
 20
22.0067561224
 11
-13.0026182667
 21
21.6165568184
  0
LINE
  5
292
100
AcDbEntity
  8
268
100
AcDbLine
 62
7
  6
CONTINUOUS
 10
-12.7136048139
 20
22.9044298049
 11
-12.7136048139
 21
23.3567607805
  0
LINE
  5
293
100
AcDbEntity
  8
268
100
AcDbLine
 62
7
  6
CONTINUOUS
 10
-11.810821306
 20
23.2614722222
 11
-11.810821306
 21
23.0081008285
  0
LINE
  5
294
100
AcDbEntity
  8
268
100
AcDbLine
 62
7
  6
CONTINUOUS
 10
-11.0996006979
 20
22.0974277469
 11
-11.0996006979
 21
22.7345973056
  0
LINE
  5
295
100
AcDbEntity
  8
284
100
AcDbLine
 62
7
  6
CONTINUOUS
 10
-6.8257198932
 20
18.9183069356
 11
-6.8426387037
 21
18.8682871796
  0
LWPOLYLINE
  5
296
100
AcDbEntity
  8
268
100
AcDbPolyline
 62
7
  6
CONTINUOUS
 90
5
 70
0
 10
9.2022090551
 20
19.5109989251
 10
9.2024570673
 20
19.5111390229
 10
9.2033843032
 20
19.5119666943
 10
9.2038907207
 20
19.5130177657
 10
9.2040024842
 20
19.5139496896
  0
LINE
  5
297
100
AcDbEntity
  8
268
100
AcDbLine
 62
250
  6
CONTINUOUS
 10
3.4729697349
 20
15.8831392361
 11
1.705202782
 21
14.9803615366
  0
LINE
  5
298
100
AcDbEntity
  8
268
100
AcDbLine
 62
250
  6
CONTINUOUS
 10
3.7204571083
 20
15.4562751161
 11
1.9526901554
 21
14.5534974166
  0
LINE
  5
299
100
AcDbEntity
  8
268
100
AcDbLine
 62
7
  6
CONTINUOUS
 10
3.3315483787
 20
15.9538499142
 11
2.2647174665
 21
15.4152686647
  0
LINE
  5
29A
100
AcDbEntity
  8
715
100
AcDbLine
 62
7
  6
CONTINUOUS
 10
13.0192865271
 20
20.7181785877
 11
11.7078222161
 21
20.0624464322
  0
LINE
  5
29B
100
AcDbEntity
  8
715
100
AcDbLine
 62
7
  6
CONTINUOUS
 10
13.8678172349
 20
20.2939158042
 11
13.0460334091
 21
19.8830238913
  0
LINE
  5
29C
100
AcDbEntity
  8
268
100
AcDbLine
 62
250
  6
CONTINUOUS
 10
4.1800765161
 20
16.2291349374
 11
3.4729697349
 21
15.8831392361
  0
LINE
  5
29D
100
AcDbEntity
  8
268
100
AcDbLine
 62
250
  6
CONTINUOUS
 10
4.4275638895
 20
15.8022708175
 11
3.7204571083
 21
15.4562751161
  0
LINE
  5
29E
100
AcDbEntity
  8
218
100
AcDbLine
 62
7
  6
CONTINUOUS
 10
4.1199414952
 20
16.2592024479
 11
9.7858060641
 21
19.0113909921
  0
LINE
  5
29F
100
AcDbEntity
  8
218
100
AcDbLine
 62
7
  6
CONTINUOUS
 10
18.2726890595
 20
21.4700609374
 11
10.538500148
 21
17.7131857311
  0
LINE
  5
2A0
100
AcDbEntity
  8
218
100
AcDbLine
 62
7
  6
CONTINUOUS
 10
17.4474425918
 20
21.8826841712
 11
13.8840117552
 21
20.1724294234
  0
LWPOLYLINE
  5
2A1
100
AcDbEntity
  8
218
100
AcDbPolyline
 62
7
  6
CONTINUOUS
 90
33
 70
0
 10
18.2726890595
 20
21.4700609374
 10
18.2879970325
 20
21.4773596219
 10
18.3031271735
 20
21.484293742
 10
18.3180721721
 20
21.4908622211
 10
18.3328234993
 20
21.4970646305
 10
18.3473753235
 20
21.5028999512
 10
18.3617245071
 20
21.5083664962
 10
18.3758639956
 20
21.5134641254
 10
18.3897870186
 20
21.5181927271
 10
18.4034909914
 20
21.5225508686
 10
18.416969133
 20
21.5265390021
 10
18.4302149699
 20
21.5301576217
 10
18.4432265149
 20
21.5334055822
 10
18.4559972803
 20
21.5362839178
 10
18.468521104
 20
21.5387937144
 10
18.4807966309
 20
21.5409341382
 10
18.4928176868
 20
21.54270679
 10
18.5045784336
 20
21.54411333
 10
18.5160781727
 20
21.5451532487
 10
18.527311062
 20
21.5458286947
 10
18.538271599
 20
21.5461418805
 10
18.5489597534
 20
21.5460926246
 10
18.5593700313
 20
21.5456836001
 10
18.5694972762
 20
21.5449175467
 10
18.5793421285
 20
21.5437946055
 10
18.5888994594
 20
21.5423179469
 10
18.5981644629
 20
21.5404908095
 10
18.6071384326
 20
21.538313646
 10
18.6158166113
 20
21.5357900961
 10
18.6241945541
 20
21.532923867
 10
18.632274193
 20
21.5297157055
 10
18.6400511519
 20
21.5261696891
 10
18.6415879104
 20
21.5254112818
  0
LWPOLYLINE
  5
2A2
100
AcDbEntity
  8
715
100
AcDbPolyline
 62
7
  6
CONTINUOUS
 90
10
 70
0
 10
13.867788339
 20
20.2939013562
 10
13.8791848032
 20
20.2990700114
 10
13.8904052057
 20
20.3031219078
 10
13.9014495464
 20
20.3060570454
 10
13.9124128053
 20
20.3078755767
 10
13.9232000025
 20
20.3085773492
 10
13.9335261979
 20
20.3081619048
 10
13.9432964117
 20
20.3066290909
 10
13.9526056237
 20
20.3039790602
 10
13.961453834
 20
20.3002118126
  0
LWPOLYLINE
  5
2A3
100
AcDbEntity
  8
RACCORDO
100
AcDbPolyline
 62
250
  6
CONTINUOUS
 90
22
 70
0
 10
-2.2132260139
 20
13.0440586298
 10
-2.2887614199
 20
13.012474041
 10
-2.3644163685
 20
12.9743169324
 10
-2.4398150897
 20
12.9297810378
 10
-2.5145826813
 20
12.8790957511
 10
-2.5883485209
 20
12.8225140667
 10
-2.6607475996
 20
12.7603087174
 10
-2.7314287627
 20
12.6927821591
 10
-2.8000311407
 20
12.6202805114
 10
-2.8661889709
 20
12.5431831876
 10
-2.9295617244
 20
12.4618966426
 10
-2.9898505579
 20
12.3768157169
 10
-3.0467714101
 20
12.2883329555
 10
-3.1000502512
 20
12.1968701668
 10
-3.1494079713
 20
12.1029036216
 10
-3.1945795125
 20
12.006928184
 10
-3.2353349834
 20
11.909440274
 10
-3.2714808134
 20
11.8109148091
 10
-3.3028402678
 20
11.7118268163
 10
-3.329256499
 20
11.6126663765
 10
-3.3505960315
 20
11.5139365911
 10
-3.3667513807
 20
11.4161322337
  0
LWPOLYLINE
  5
2A4
100
AcDbEntity
  8
RACCORDO
100
AcDbPolyline
 62
250
  6
CONTINUOUS
 90
22
 70
0
 10
-1.7116544004
 20
12.0409832358
 10
-1.7473482894
 20
12.0263348593
 10
-1.7827966423
 20
12.0087960887
 10
-1.817999459
 20
11.9883669241
 10
-1.8531451893
 20
11.9649118739
 10
-1.8880453835
 20
11.9385664297
 10
-1.9221346924
 20
11.909737066
 10
-1.9553887306
 20
11.8783887927
 10
-1.9878318834
 20
11.8445565998
 10
-2.0189719574
 20
11.8087519315
 10
-2.0487843676
 20
11.7709512934
 10
-2.0772936989
 20
11.7311781798
 10
-2.1040815127
 20
11.6900145178
 10
-2.1291273715
 20
11.6474297619
 10
-2.1524517128
 20
11.6034544576
 10
-2.1736974109
 20
11.5587621684
 10
-2.1928314434
 20
11.5133313446
 10
-2.2098868327
 20
11.4671835358
 10
-2.2246055202
 20
11.4210569546
 10
-2.2369014864
 20
11.3751976717
 10
-2.2468607507
 20
11.3293596163
 10
-2.2544833132
 20
11.2835427884
  0
LINE
  5
2A5
100
AcDbEntity
  8
RACCORDO
100
AcDbLine
 62
250
  6
CONTINUOUS
 10
1.8352657685
 20
14.5293349435
 11
-2.2132260139
 21
13.0440586298
  0
LINE
  5
2A6
100
AcDbEntity
  8
RACCORDO
100
AcDbLine
 62
250
  6
CONTINUOUS
 10
2.3368373819
 20
13.5262595495
 11
-1.7116544004
 21
12.0409832358
  0
LINE
  5
2A7
100
AcDbEntity
  8
268
100
AcDbLine
 62
7
  6
CONTINUOUS
 10
-10.0327697857
 20
22.6360089964
 11
-10.0327697857
 21
24.368059804
  0
LINE
  5
2A8
100
AcDbEntity
  8
268
100
AcDbLine
 62
7
  6
CONTINUOUS
 10
-9.3297768315
 20
24.5033813017
 11
-9.3297768315
 21
24.2424523254
  0
LINE
  5
2A9
100
AcDbEntity
  8
218
100
AcDbLine
 62
250
  6
CONTINUOUS
 10
18.6155866355
 20
20.8786501018
 11
4.4275638895
 21
13.6604539829
  0
LINE
  5
2AA
100
AcDbEntity
  8
218
100
AcDbLine
 62
250
  6
CONTINUOUS
 10
19.0297371111
 20
19.4470165272
 11
4.4275638895
 21
12.0181201994
  0
LWPOLYLINE
  5
2AB
100
AcDbEntity
  8
218
100
AcDbPolyline
 62
250
  6
CONTINUOUS
 90
34
 70
0
 10
18.6155866355
 20
20.8786501018
 10
18.6344231507
 20
20.8879732031
 10
18.6528652674
 20
20.8970157402
 10
18.6708992903
 20
20.9057709979
 10
18.6885118272
 20
20.9142324745
 10
18.705689799
 20
20.9223938866
 10
18.7224204492
 20
20.9302491733
 10
18.7386913536
 20
20.9377925014
 10
18.7544904292
 20
20.9450182691
 10
18.7698059437
 20
20.9519211106
 10
18.7846265235
 20
20.9584958996
 10
18.7989411629
 20
20.9647377538
 10
18.8127392318
 20
20.9706420379
 10
18.8260104836
 20
20.9762043674
 10
18.838745063
 20
20.9814206117
 10
18.8509335132
 20
20.986286897
 10
18.8625667831
 20
20.9907996098
 10
18.8736362337
 20
20.9949553988
 10
18.8841336447
 20
20.9987511779
 10
18.8940512208
 20
21.0021841284
 10
18.9033815971
 20
21.005251701
 10
18.9121178447
 20
21.0079516176
 10
18.9202534762
 20
21.0102818732
 10
18.92778245
 20
21.0122407374
 10
18.9346991749
 20
21.0138267556
 10
18.9409985146
 20
21.01503875
 10
18.9466757912
 20
21.0158758204
 10
18.9517267887
 20
21.0163373454
 10
18.9561477562
 20
21.0164229821
 10
18.9599354106
 20
21.0161326671
 10
18.9630869393
 20
21.0154666158
 10
18.9656000018
 20
21.0144253229
 10
18.967472732
 20
21.0130095616
 10
18.9684298673
 20
21.0117484884
  0
LINE
  5
2AC
100
AcDbEntity
  8
268
100
AcDbLine
 62
7
  6
CONTINUOUS
 10
-7.8550127827
 20
22.1099956379
 11
-7.8550127827
 21
20.8952621376
  0
LINE
  5
2AD
100
AcDbEntity
  8
268
100
AcDbLine
 62
250
  6
CONTINUOUS
 10
-7.7671448171
 20
22.0034869078
 11
-7.7671448171
 21
20.7885320417
  0
LINE
  5
2AE
100
AcDbEntity
  8
268
100
AcDbLine
 62
7
  6
CONTINUOUS
 10
-7.5932513906
 20
19.3020726844
 11
-7.5932513906
 21
19.2435935231
  0
LWPOLYLINE
  5
2AF
100
AcDbEntity
  8
RACCORDO
100
AcDbPolyline
 62
250
  6
CONTINUOUS
 90
15
 70
0
 10
-6.5930096548
 20
-24.8774917357
 10
-6.5937588408
 20
-24.9698477103
 10
-6.5891575709
 20
-25.0594049759
 10
-6.5792292549
 20
-25.1457159224
 10
-6.5640234263
 20
-25.2283463497
 10
-6.5436169288
 20
-25.3068872195
 10
-6.51811122
 20
-25.3809547703
 10
-6.4876265873
 20
-25.4501867648
 10
-6.452316576
 20
-25.5142259189
 10
-6.4123710504
 20
-25.5727344336
 10
-6.3679995716
 20
-25.6254133196
 10
-6.3194170096
 20
-25.6720155635
 10
-6.2668529864
 20
-25.7123226679
 10
-6.2105530247
 20
-25.7461373088
 10
-6.2011597901
 20
-25.7509613777
  0
LINE
  5
2B0
100
AcDbEntity
  8
268
100
AcDbLine
 62
7
  6
CONTINUOUS
 10
3.9466672137
 20
17.3283419551
 11
3.419422498
 21
16.6866342271
  0
LWPOLYLINE
  5
2B1
100
AcDbEntity
  8
218
100
AcDbPolyline
 62
250
  6
CONTINUOUS
 90
30
 70
0
 10
19.0297371111
 20
19.4470165272
 10
19.0483982497
 20
19.4569458702
 10
19.0665113448
 20
19.4671257682
 10
19.0840629454
 20
19.4775486615
 10
19.1010400176
 20
19.4882068101
 10
19.1174299542
 20
19.4990922991
 10
19.133220584
 20
19.5101970449
 10
19.1484001806
 20
19.521512801
 10
19.1629574717
 20
19.5330311644
 10
19.1768816469
 20
19.5447435814
 10
19.1901623661
 20
19.5566413543
 10
19.2027897669
 20
19.5687156478
 10
19.2147544722
 20
19.5809574954
 10
19.2260475968
 20
19.5933578063
 10
19.2366607545
 20
19.6059073719
 10
19.2465860639
 20
19.6185968728
 10
19.2558161544
 20
19.6314168858
 10
19.2643441716
 20
19.6443578907
 10
19.2721637826
 20
19.6574102773
 10
19.2792691806
 20
19.6705643529
 10
19.285655089
 20
19.6838103492
 10
19.2913167655
 20
19.6971384297
 10
19.2962500059
 20
19.7105386969
 10
19.3004511467
 20
19.7240011996
 10
19.303917068
 20
19.7375159405
 10
19.3066451961
 20
19.7510728836
 10
19.3086335051
 20
19.7646619612
 10
19.3098805183
 20
19.7782730822
 10
19.3103853099
 20
19.7918961388
 10
19.3103973107
 20
19.7943440178
  0
LWPOLYLINE
  5
2B2
100
AcDbEntity
  8
218
100
AcDbPolyline
 62
250
  6
CONTINUOUS
 90
56
 70
0
 10
19.1472914165
 20
14.0045167403
 10
19.1543888338
 20
14.0070644603
 10
19.1615627419
 20
14.0093821313
 10
19.1688121411
 20
14.0114711538
 10
19.1761345123
 20
14.0133492636
 10
19.1835300168
 20
14.0150018923
 10
19.1910012082
 20
14.0163825337
 10
19.1985574772
 20
14.0174954015
 10
19.2061855049
 20
14.0183412558
 10
19.2138529852
 20
14.018869323
 10
19.221559954
 20
14.0190790996
 10
19.2293006656
 20
14.0189780059
 10
19.237033375
 20
14.0185279667
 10
19.2447460844
 20
14.0177306932
 10
19.252443335
 20
14.0165932636
 10
19.2601073487
 20
14.0150865581
 10
19.2677252414
 20
14.0132197089
 10
19.2753003186
 20
14.0109947969
 10
19.2828376649
 20
14.0083737705
 10
19.2903321133
 20
14.0053692671
 10
19.2977759296
 20
14.0019838745
 10
19.305168053
 20
13.9981671864
 10
19.3125056697
 20
13.9939319613
 10
19.3197741142
 20
13.989286357
 10
19.3269516138
 20
13.9841765692
 10
19.3340316847
 20
13.9786174059
 10
19.3409979381
 20
13.9726219455
 10
19.3478104478
 20
13.9661377834
 10
19.3544577947
 20
13.9591857947
 10
19.3609225039
 20
13.9517812308
 10
19.3671517244
 20
13.9438680372
 10
19.3731279975
 20
13.9354835317
 10
19.3788329552
 20
13.9266366612
 10
19.3842063118
 20
13.9172366023
 10
19.3892321456
 20
13.9073377068
 10
19.3938791702
 20
13.896948882
 10
19.3980530214
 20
13.8859256309
 10
19.4017442839
 20
13.874280958
 10
19.4048938327
 20
13.8620973244
 10
19.4073248805
 20
13.8493452459
 10
19.4089966014
 20
13.8360008734
 10
19.40987322
 20
13.8222011969
 10
19.4097997851
 20
13.8081390111
 10
19.4087264768
 20
13.7938419809
 10
19.406657621
 20
13.7793593441
 10
19.403549303
 20
13.7648744705
 10
19.3993592217
 20
13.7503719857
 10
19.3941123538
 20
13.7359078694
 10
19.3878990707
 20
13.7217230879
 10
19.3807449964
 20
13.70785996
 10
19.3726486351
 20
13.6942539161
 10
19.3636806947
 20
13.6809529611
 10
19.3538533361
 20
13.667944963
 10
19.3431790663
 20
13.6552163825
 10
19.3317335743
 20
13.6428055345
 10
19.3195380184
 20
13.6307034592
  0
LWPOLYLINE
  5
2B3
100
AcDbEntity
  8
RACCORDO
100
AcDbPolyline
 62
250
  6
CONTINUOUS
 90
22
 70
0
 10
-5.4721382319
 20
-24.9132981837
 10
-5.4724386698
 20
-24.9565509195
 10
-5.4702595456
 20
-24.9981667693
 10
-5.4656008594
 20
-25.0381457332
 10
-5.4584160657
 20
-25.0766901244
 10
-5.4487517099
 20
-25.1135976298
 10
-5.436747428
 20
-25.1482613093
 10
-5.4223657354
 20
-25.1806315049
 10
-5.4056441167
 20
-25.2107578747
 10
-5.3868346617
 20
-25.2381824535
 10
-5.3659093409
 20
-25.2628604109
 10
-5.3428961837
 20
-25.2848365774
 10
-5.3181313682
 20
-25.3037874791
 10
-5.2915824698
 20
-25.3196709209
 10
-5.263281913
 20
-25.332529098
 10
-5.2336631489
 20
-25.3421651215
 10
-5.202696785
 20
-25.348523253
 10
-5.1704122139
 20
-25.351659231
 10
-5.1373310649
 20
-25.3515433814
 10
-5.1036272142
 20
-25.3481658129
 10
-5.0691267857
 20
-25.341536417
 10
-5.0338297791
 20
-25.3316551935
  0
LWPOLYLINE
  5
2B4
100
AcDbEntity
  8
RACCORDO
100
AcDbPolyline
 62
250
  6
CONTINUOUS
 90
6
 70
0
 10
-5.7198868113
 20
-9.9201455184
 10
-5.9485237535
 20
-12.9324926186
 10
-6.1501782785
 20
-15.9347769304
 10
-6.324825013
 20
-18.926621634
 10
-6.4724417368
 20
-21.9076512644
 10
-6.5930096548
 20
-24.8774917357
  0
LINE
  5
2B5
100
AcDbEntity
  8
RACCORDO
100
AcDbLine
 62
250
  6
CONTINUOUS
 10
-5.464295972
 20
-6.8981137563
 11
-5.7198868113
 21
-9.9201455184
  0
LINE
  5
2B6
100
AcDbEntity
  8
RACCORDO
100
AcDbLine
 62
250
  6
CONTINUOUS
 10
-5.1817831753
 20
-3.8667767673
 11
-5.464295972
 21
-6.8981137563
  0
LWPOLYLINE
  5
2B7
100
AcDbEntity
  8
RACCORDO
100
AcDbPolyline
 62
250
  6
CONTINUOUS
 90
3
 70
0
 10
-4.5361375402
 20
2.2222900624
 10
-4.8723840309
 20
-0.8265150097
 10
-5.1817831753
 20
-3.8667767673
  0
LWPOLYLINE
  5
2B8
100
AcDbEntity
  8
RACCORDO
100
AcDbPolyline
 62
250
  6
CONTINUOUS
 90
4
 70
0
 10
-3.3667513807
 20
11.4161322337
 10
-3.783274238
 20
8.3439980757
 10
-4.1730858476
 20
5.2792557339
 10
-4.5361375402
 20
2.2222900624
  0
LINE
  5
2B9
100
AcDbEntity
  8
0
100
AcDbLine
 62
7
  6
CONTINUOUS
 10
-13.3113245924
 20
-13.8939232143
 11
-13.331432612
 21
-13.9345789663
  0
LWPOLYLINE
  5
2BA
100
AcDbEntity
  8
715
100
AcDbPolyline
 62
250
  6
CONTINUOUS
 90
47
 70
0
 10
9.5032311823
 20
20.0906136278
 10
9.5319979619
 20
20.1290665925
 10
9.5812811803
 20
20.18584727
 10
9.6364148549
 20
20.2414378843
 10
9.6969183332
 20
20.2953804066
 10
9.7627906849
 20
20.3476333061
 10
9.8340328402
 20
20.3982381136
 10
9.9101669378
 20
20.4468613921
 10
9.9911835668
 20
20.4934891346
 10
10.0770921382
 20
20.5381353482
 10
10.1674430239
 20
20.5805086173
 10
10.2624933041
 20
20.6206678153
 10
10.3619858986
 20
20.6585540688
 10
10.464699939
 20
20.6936993419
 10
10.5710408077
 20
20.7260770618
 10
10.6806031223
 20
20.7557138014
 10
10.7909498667
 20
20.7822212436
 10
10.9020543837
 20
20.805420637
 10
11.0139433304
 20
20.8254907331
 10
11.1242596625
 20
20.8425794689
 10
11.2326501524
 20
20.8565533647
 10
11.3394680277
 20
20.8675459003
 10
11.4434159268
 20
20.8761054515
 10
11.5442517612
 20
20.8822080211
 10
11.6422176195
 20
20.8858776063
 10
11.7367424058
 20
20.8877345751
 10
11.8276641459
 20
20.8878004439
 10
11.9151448141
 20
20.8860536964
 10
11.9990992375
 20
20.8830501511
 10
12.0794033109
 20
20.8788313504
 10
12.1561811394
 20
20.8733557519
 10
12.2297198659
 20
20.8670545463
 10
12.2999863996
 20
20.8599685125
 10
12.3670138311
 20
20.8520568716
 10
12.4311885753
 20
20.8436284775
 10
12.4924963221
 20
20.8347178369
 10
12.5509513815
 20
20.8252904431
 10
12.606983098
 20
20.8155516293
 10
12.6605876816
 20
20.8055301076
 10
12.7117689223
 20
20.7951971658
 10
12.7609675345
 20
20.7846720011
 10
12.8081866795
 20
20.7739774619
 10
12.853423196
 20
20.7630906998
 10
12.8971083159
 20
20.7520623662
 10
12.939385783
 20
20.7409093449
 10
12.9801118534
 20
20.729614752
 10
13.0192865271
 20
20.7181785877
  0
LWPOLYLINE
  5
2BB
100
AcDbEntity
  8
715
100
AcDbPolyline
 62
250
  6
CONTINUOUS
 90
9
 70
0
 10
9.4223401654
 20
20.1236592917
 10
9.4665686573
 20
20.1744593485
 10
9.5256475278
 20
20.2337185658
 10
9.5907403072
 20
20.291326499
 10
9.6616161391
 20
20.3470999666
 10
9.7381092768
 20
20.4009279021
 10
9.8201006806
 20
20.4527290858
 10
9.9073492776
 20
20.5023467251
 10
9.927846439
 20
20.5132830934
  0
LINE
  5
2BC
100
AcDbEntity
  8
268
100
AcDbLine
 62
7
  6
CONTINUOUS
 10
-2.6435039223
 20
16.8271989502
 11
-2.6435039223
 21
16.7687197889
  0
LINE
  5
2BD
100
AcDbEntity
  8
268
100
AcDbLine
 62
250
  6
CONTINUOUS
 10
-1.974635749
 20
17.8922775077
 11
-1.974635749
 21
19.1072323737
  0
LWPOLYLINE
  5
2BE
100
AcDbEntity
  8
RACCORDO
100
AcDbPolyline
 62
250
  6
CONTINUOUS
 90
16
 70
0
 10
-1.7116544004
 20
12.0409832358
 10
-1.7090492998
 20
12.1174647281
 10
-1.7125596021
 20
12.1962446193
 10
-1.7221468944
 20
12.2764601404
 10
-1.7377062102
 20
12.3572327948
 10
-1.7590671764
 20
12.4376779712
 10
-1.7859958763
 20
12.5169146319
 10
-1.8181974172
 20
12.5940749801
 10
-1.8553191526
 20
12.6683139434
 10
-1.8969545373
 20
12.738818424
 10
-1.9426475993
 20
12.8048162421
 10
-1.9918979199
 20
12.865584564
 10
-2.0441660983
 20
12.9204578077
 10
-2.0988796891
 20
12.9688349727
 10
-2.1554394756
 20
13.0101862154
 10
-2.213226012
 20
13.0440586305
  0
LWPOLYLINE
  5
2BF
100
AcDbEntity
  8
RACCORDO
100
AcDbPolyline
 62
250
  6
CONTINUOUS
 90
7
 70
0
 10
-4.3464574194
 20
-6.9818622285
 10
-4.6013515984
 20
-9.9957175527
 10
-4.8293966187
 20
-13.0002937287
 10
-5.0305064003
 20
-15.9944535958
 10
-5.2046522496
 20
-18.9778181006
 10
-5.3518628602
 20
-21.9507662966
 10
-5.4721382319
 20
-24.9132981837
  0
LWPOLYLINE
  5
2C0
100
AcDbEntity
  8
RACCORDO
100
AcDbPolyline
 62
250
  6
CONTINUOUS
 90
7
 70
0
 10
-2.2544833132
 20
11.2835427884
 10
-2.6699765776
 20
8.2189759489
 10
-3.0587374767
 20
5.1625421773
 10
-3.4207660103
 20
2.1142414738
 10
-3.7561011098
 20
-0.9263081884
 10
-4.0647038439
 20
-3.9587247826
 10
-4.3464574194
 20
-6.9818622285
  0
LINE
  5
2C1
100
AcDbEntity
  8
268
100
AcDbLine
 62
7
  6
CONTINUOUS
 10
0.7060348699
 20
-4.8193681447
 11
1.0334513398
 21
-4.9830763797
  0
LWPOLYLINE
  5
2C2
100
AcDbEntity
  8
268
100
AcDbPolyline
 62
7
  6
CONTINUOUS
 90
13
 70
0
 10
9.2005828493
 20
-17.412813262
 10
9.1976916843
 20
-17.408920071
 10
9.1940029201
 20
-17.4045377308
 10
9.1895429562
 20
-17.399780438
 10
9.1843500979
 20
-17.3946405834
 10
9.1784674407
 20
-17.3890932246
 10
9.1719069065
 20
-17.383225626
 10
9.1647000034
 20
-17.3770283181
 10
9.1568828577
 20
-17.3704831934
 10
9.1484589183
 20
-17.3636623173
 10
9.1394460269
 20
-17.3565802925
 10
9.1298841815
 20
-17.3491966492
 10
9.1198044244
 20
-17.3415000946
  0
LINE
  5
2C3
100
AcDbEntity
  8
268
100
AcDbLine
 62
7
  6
CONTINUOUS
 10
0.0709281725
 20
-11.9639677694
 11
0.7602379374
 21
-18.3888719186
  0
LINE
  5
2C4
100
AcDbEntity
  8
268
100
AcDbLine
 62
7
  6
CONTINUOUS
 10
0.4189006951
 20
-8.0494690491
 11
0.4600949288
 21
-8.4365754932
  0
LINE
  5
2C5
100
AcDbEntity
  8
268
100
AcDbLine
 62
7
  6
CONTINUOUS
 10
-1.6181990896
 20
22.1462273682
 11
-1.6181990896
 21
23.3955222014
  0
LINE
  5
2C6
100
AcDbEntity
  8
268
100
AcDbLine
 62
250
  6
CONTINUOUS
 10
-1.5516093975
 20
17.8939163552
 11
-1.5516093975
 21
19.108119828
  0
LINE
  5
2C7
100
AcDbEntity
  8
268
100
AcDbLine
 62
7
  6
CONTINUOUS
 10
-1.264645699
 20
22.6661873168
 11
-1.264645699
 21
23.2187455061
  0
LINE
  5
2C8
100
AcDbEntity
  8
268
100
AcDbLine
 62
250
  6
CONTINUOUS
 10
-1.1939350209
 20
24.8349538036
 11
-1.1939350209
 21
23.6031196222
  0
LINE
  5
2C9
100
AcDbEntity
  8
268
100
AcDbLine
 62
7
  6
CONTINUOUS
 10
-1.1060670553
 20
24.9399510172
 11
-1.1060670553
 21
23.7075824114
  0
LINE
  5
2CA
100
AcDbEntity
  8
268
100
AcDbLine
 62
7
  6
CONTINUOUS
 10
-1.0525136647
 20
19.3583165011
 11
-1.0525136647
 21
18.1458809358
  0
LINE
  5
2CB
100
AcDbEntity
  8
268
100
AcDbLine
 62
7
  6
CONTINUOUS
 10
-0.0522796037
 20
-24.4241455558
 11
-0.0522796037
 21
-24.170774162
  0
LINE
  5
2CC
100
AcDbEntity
  8
268
100
AcDbLine
 62
7
  6
CONTINUOUS
 10
-0.0522796037
 20
17.1288299773
 11
-0.0522796037
 21
17.3822013711
  0
LWPOLYLINE
  5
2CD
100
AcDbEntity
  8
RACCORDO
100
AcDbPolyline
 62
250
  6
CONTINUOUS
 90
11
 70
0
 10
-5.0338297791
 20
-25.3316551935
 10
-5.0446075208
 20
-25.4057224048
 10
-5.0613542192
 20
-25.4758424994
 10
-5.083886465
 20
-25.5412475246
 10
-5.1119574858
 20
-25.6012211667
 10
-5.145259849
 20
-25.6551065965
 10
-5.1834288281
 20
-25.7023136628
 10
-5.2260463978
 20
-25.7423253555
 10
-5.2726458121
 20
-25.7747034678
 10
-5.3227167158
 20
-25.7990933958
 10
-5.3428673541
 20
-25.8063146383
  0
LINE
  5
2CE
100
AcDbEntity
  8
218
100
AcDbLine
 62
7
  6
CONTINUOUS
 10
19.3103973108
 20
13.6146447048
 11
20.2255740974
 21
14.2065733236
  0
LINE
  5
2CF
100
AcDbEntity
  8
268
100
AcDbLine
 62
7
  6
CONTINUOUS
 10
1.0334513398
 20
-4.9830763797
 11
2.7658629537
 21
-21.3972372872
  0
LWPOLYLINE
  5
2D0
100
AcDbEntity
  8
268
100
AcDbPolyline
 62
7
  6
CONTINUOUS
 90
24
 70
0
 10
1.4930707476
 20
23.7096280501
 10
1.4924975632
 20
23.7441004563
 10
1.4907984502
 20
23.7778503772
 10
1.4879734086
 20
23.810877813
 10
1.4840129741
 20
23.8432393704
 10
1.478926611
 20
23.8748784426
 10
1.4727427126
 20
23.9056252092
 10
1.4654600972
 20
23.9354607366
 10
1.4570799465
 20
23.9644039583
 10
1.4476341992
 20
23.9923418543
 10
1.4371103407
 20
24.0192880171
 10
1.4255208857
 20
24.045228854
 10
1.4129353169
 20
24.0700105669
 10
1.3993601311
 20
24.0936078683
 10
1.3847888315
 20
24.1160460456
 10
1.3692714115
 20
24.1372471629
 10
1.3527881241
 20
24.1572242528
 10
1.3353587163
 20
24.1759642827
 10
1.3170924216
 20
24.1933502182
 10
1.2980037657
 20
24.2093591446
 10
1.278078223
 20
24.2240139766
 10
1.2573814505
 20
24.237266425
 10
1.235888936
 20
24.2491222863
 10
1.2331682436
 20
24.2505065095
  0
LINE
  5
2D1
100
AcDbEntity
  8
268
100
AcDbLine
 62
7
  6
CONTINUOUS
 10
0.6507133505
 20
16.2222707227
 11
0.6507133505
 21
16.6746016983
  0
LINE
  5
2D2
100
AcDbEntity
  8
268
100
AcDbLine
 62
7
  6
CONTINUOUS
 10
1.4930707476
 20
23.7096280501
 11
1.4930707476
 21
23.4388277575
  0
LINE
  5
2D3
100
AcDbEntity
  8
268
100
AcDbLine
 62
7
  6
CONTINUOUS
 10
1.5534968584
 20
16.57931314
 11
1.5534968584
 21
16.3259417462
  0
LINE
  5
2D4
100
AcDbEntity
  8
268
100
AcDbLine
 62
7
  6
CONTINUOUS
 10
1.5534968584
 20
-24.9736623931
 11
1.5534968584
 21
-25.2270337869
  0
LINE
  5
2D5
100
AcDbEntity
  8
268
100
AcDbLine
 62
7
  6
CONTINUOUS
 10
1.9526901554
 20
14.5534974166
 11
1.9526901554
 21
14.5291019113
  0
LINE
  5
2D6
100
AcDbEntity
  8
268
100
AcDbLine
 62
7
  6
CONTINUOUS
 10
1.9526901554
 20
-23.5760158552
 11
1.9526901554
 21
-23.6004113605
  0
LINE
  5
2D7
100
AcDbEntity
  8
268
100
AcDbLine
 62
7
  6
CONTINUOUS
 10
2.2647174665
 20
-23.997165916
 11
2.2647174665
 21
-23.592543825
  0
LINE
  5
2D8
100
AcDbEntity
  8
268
100
AcDbLine
 62
7
  6
CONTINUOUS
 10
2.2647174665
 20
15.4152686647
 11
2.2647174665
 21
16.0524382234
  0
LINE
  5
2D9
100
AcDbEntity
  8
RACCORDO
100
AcDbLine
 62
7
  6
CONTINUOUS
 10
-1.001132021
 20
-24.0240529299
 11
2.3368373819
 21
13.5262595495
  0
LINE
  5
2DA
100
AcDbEntity
  8
268
100
AcDbLine
 62
7
  6
CONTINUOUS
 10
2.7658629537
 20
13.1634961417
 11
1.0334513398
 21
-4.9830763797
  0
LWPOLYLINE
  5
2DB
100
AcDbEntity
  8
218
100
AcDbPolyline
 62
250
  6
CONTINUOUS
 90
57
 70
0
 10
19.0297371111
 20
13.8671571085
 10
19.0355995046
 20
13.8723950404
 10
19.0414338579
 20
13.8774084998
 10
19.0472390925
 20
13.8821975708
 10
19.0530082991
 20
13.8867638515
 10
19.0587463136
 20
13.8911058436
 10
19.0644691596
 20
13.8952192014
 10
19.070177322
 20
13.8991073989
 10
19.0758669919
 20
13.9027675356
 10
19.0815468869
 20
13.9061860542
 10
19.0872167854
 20
13.9093650771
 10
19.0928727639
 20
13.9123032742
 10
19.0985174482
 20
13.9149820994
 10
19.1041468493
 20
13.917401648
 10
19.1097603539
 20
13.9195626467
 10
19.1153650768
 20
13.9214476782
 10
19.1209463184
 20
13.9230583628
 10
19.1265134782
 20
13.9243939924
 10
19.1321075869
 20
13.9254344129
 10
19.1377194815
 20
13.9261904674
 10
19.1433487183
 20
13.926653486
 10
19.1490448843
 20
13.926775511
 10
19.1548176216
 20
13.9265632168
 10
19.1606406674
 20
13.9260139298
 10
19.1665067317
 20
13.9250665114
 10
19.1724111303
 20
13.9237172372
 10
19.1783404172
 20
13.9219735736
 10
19.184274327
 20
13.919790935
 10
19.1902025272
 20
13.9171646472
 10
19.196117086
 20
13.9141023818
 10
19.2020020871
 20
13.9105776631
 10
19.2078395134
 20
13.9065945887
 10
19.2136289214
 20
13.9021513117
 10
19.2193792372
 20
13.8972125923
 10
19.225074028
 20
13.8917862095
 10
19.2307061592
 20
13.8858669341
 10
19.2362932815
 20
13.8794009207
 10
19.2418205993
 20
13.8723899029
 10
19.2472702144
 20
13.8648353658
 10
19.2526482739
 20
13.8566840994
 10
19.2579354487
 20
13.8479335952
 10
19.2631087166
 20
13.8385895834
 10
19.2681620074
 20
13.8286118685
 10
19.2730692421
 20
13.8179981921
 10
19.2778042866
 20
13.806753196
 10
19.2823538782
 20
13.7948473944
 10
19.2866832197
 20
13.7822856309
 10
19.2907633212
 20
13.7690638102
 10
19.2945788835
 20
13.7551393714
 10
19.2980833072
 20
13.7405304461
 10
19.3012409852
 20
13.7252172626
 10
19.304031577
 20
13.7091009191
 10
19.3063980055
 20
13.6921474749
 10
19.3082745787
 20
13.6743855493
 10
19.3096021655
 20
13.6558095242
 10
19.3103073371
 20
13.636256861
 10
19.3103973104
 20
13.6263232064
  0
LWPOLYLINE
  5
2DC
100
AcDbEntity
  8
218
100
AcDbPolyline
 62
7
  6
CONTINUOUS
 90
136
 70
0
 10
19.1472813103
 20
14.0045084023
 10
19.2066473064
 20
14.0532110802
 10
19.2641365628
 20
14.1006987578
 10
19.3197490794
 20
14.1469714353
 10
19.3734298078
 20
14.1919945441
 10
19.4252337963
 20
14.2358026527
 10
19.4753261907
 20
14.2784994663
 10
19.5237143891
 20
14.3200900443
 10
19.5703909933
 20
14.3605693273
 10
19.615498955
 20
14.4000258428
 10
19.6590425025
 20
14.4384621441
 10
19.7010174075
 20
14.4758756779
 10
19.741553937
 20
14.512347311
 10
19.7806559846
 20
14.5478794085
 10
19.8183196567
 20
14.5824696053
 10
19.85466354
 20
14.6161916731
 10
19.8896912302
 20
14.649047822
 10
19.9233991315
 20
14.681035842
 10
19.955895043
 20
14.7122228741
 10
19.9871822851
 20
14.7426109988
 10
20.0172575375
 20
14.7721981358
 10
20.0462186379
 20
14.801045185
 10
20.074068654
 20
14.8291541296
 10
20.1008045183
 20
14.8565229865
 10
20.1265148651
 20
14.8832067068
 10
20.1512025237
 20
14.9092072106
 10
20.174864665
 20
14.9345225778
 10
20.197581436
 20
14.9592019994
 10
20.2193554311
 20
14.9832473713
 10
20.2401840561
 20
15.0066567974
 10
20.260139675
 20
15.0294737808
 10
20.2792246346
 20
15.0517002355
 10
20.2974365881
 20
15.0733342474
 10
20.3148408602
 20
15.094413577
 10
20.3314395083
 20
15.1149401943
 10
20.347230475
 20
15.1349121293
 10
20.3622729119
 20
15.1543612324
 10
20.3765685065
 20
15.1732895501
 10
20.3901155713
 20
15.1916950358
 10
20.4029681954
 20
15.2096034007
 10
20.415127563
 20
15.2270167411
 10
20.4265924898
 20
15.2439329607
 10
20.4374135126
 20
15.2603714813
 10
20.447591065
 20
15.276334204
 10
20.4571247134
 20
15.2918192278
 10
20.4660636937
 20
15.3068402718
 10
20.4744077306
 20
15.3213991688
 10
20.4821570994
 20
15.335494086
 10
20.4893618618
 20
15.3491332442
 10
20.4960206644
 20
15.362317493
 10
20.5021348606
 20
15.3750459828
 10
20.5077585719
 20
15.387324385
 10
20.5128871303
 20
15.3991434908
 10
20.5175252039
 20
15.410512509
 10
20.5217409178
 20
15.4214647365
 10
20.5255322923
 20
15.4319865705
 10
20.5289013071
 20
15.4420916139
 10
20.5319220268
 20
15.4518539723
 10
20.5345998327
 20
15.4612715105
 10
20.5369293435
 20
15.4703463637
 10
20.5389684797
 20
15.4791590436
 10
20.5407246597
 20
15.487714645
 10
20.542190465
 20
15.4960080732
 10
20.5434015613
 20
15.5041045561
 10
20.5443642146
 20
15.5120083661
 10
20.545072159
 20
15.5197152309
 10
20.5455422612
 20
15.5272775606
 10
20.5457801433
 20
15.5346985691
 10
20.5457801832
 20
15.5419750425
 10
20.5455423827
 20
15.5491497501
 10
20.5450723639
 20
15.5562252983
 10
20.5443645045
 20
15.5631990807
 10
20.5434019395
 20
15.5701060474
 10
20.5421909347
 20
15.5769484173
 10
20.5407252243
 20
15.5837239716
 10
20.5389691454
 20
15.5904610043
 10
20.5369301173
 20
15.5971621002
 10
20.5346007206
 20
15.6038246744
 10
20.5319230349
 20
15.6104692667
 10
20.5289024442
 20
15.6171035831
 10
20.5255335645
 20
15.6237199174
 10
20.5217423228
 20
15.630315691
 10
20.5175267379
 20
15.6369024617
 10
20.5128887911
 20
15.6434686716
 10
20.5077603529
 20
15.6499770676
 10
20.5021367541
 20
15.6564320254
 10
20.4960226639
 20
15.6628291694
 10
20.4893639612
 20
15.6691181193
 10
20.4821592938
 20
15.6752966222
 10
20.4744100139
 20
15.6813669311
 10
20.4660660559
 20
15.687285425
 10
20.4571271434
 20
15.6930499866
 10
20.4475935528
 20
15.6986627332
 10
20.4374160477
 20
15.7040863956
 10
20.4265950618
 20
15.7093195215
 10
20.4151301614
 20
15.7143635632
 10
20.4029708095
 20
15.7191856086
 10
20.39011819
 20
15.7237847873
 10
20.3765711191
 20
15.7281619697
 10
20.3622755083
 20
15.7322868545
 10
20.347233045
 20
15.7361591427
 10
20.3314420418
 20
15.7397791333
 10
20.314843348
 20
15.7431174227
 10
20.2974390212
 20
15.7461741714
 10
20.2792270038
 20
15.7489492189
 10
20.2601419729
 20
15.7514126799
 10
20.2401862748
 20
15.7535650702
 10
20.2193575632
 20
15.7554058739
 10
20.1975834755
 20
15.7569036587
 10
20.1748666062
 20
15.7580592151
 10
20.1512043608
 20
15.7588717526
 10
20.1265165944
 20
15.7593074676
 10
20.1008061359
 20
15.7593673698
 10
20.0740701562
 20
15.7590504496
 10
20.046220023
 20
15.7583198748
 10
20.0172588039
 20
15.7571768393
 10
19.9871834312
 20
15.7556201492
 10
19.9558960694
 20
15.7536093916
 10
19.9234000389
 20
15.7511459243
 10
19.8896920194
 20
15.7482283894
 10
19.8546642143
 20
15.7448122999
 10
19.8183202194
 20
15.7408991691
 10
19.7806564389
 20
15.7364874836
 10
19.741554289
 20
15.7315282164
 10
19.7010176632
 20
15.726023034
 10
19.6590426679
 20
15.7199702698
 10
19.6154990395
 20
15.7133158965
 10
19.570391006
 20
15.7060617392
 10
19.5237143394
 20
15.6982059727
 10
19.4753260911
 20
15.6896890953
 10
19.425233655
 20
15.6805137076
 10
19.3734296372
 20
15.6706772088
 10
19.3197489086
 20
15.6601122952
 10
19.2641364259
 20
15.6487965323
 10
19.2066472323
 20
15.6367523546
 10
19.1472813278
 20
15.6239797621
  0
LWPOLYLINE
  5
2DD
100
AcDbEntity
  8
268
100
AcDbPolyline
 62
7
  6
CONTINUOUS
 90
31
 70
0
 10
3.7204571083
 20
15.4562751161
 10
3.7201174408
 20
15.4723081482
 10
3.7191010033
 20
15.4886367174
 10
3.71741027
 20
15.5052159206
 10
3.7150492655
 20
15.5220000202
 10
3.7120244538
 20
15.5389430143
 10
3.7083447214
 20
15.5559987626
 10
3.7040198684
 20
15.5731203812
 10
3.6990614385
 20
15.5902607921
 10
3.6934835879
 20
15.6073732968
 10
3.6873013437
 20
15.6244108667
 10
3.6805313534
 20
15.6413266588
 10
3.6731926951
 20
15.6580745664
 10
3.665305253
 20
15.6746085736
 10
3.6568903691
 20
15.6908832263
 10
3.647971574
 20
15.7068541446
 10
3.6385731203
 20
15.7224774586
 10
3.6287205186
 20
15.7377102226
 10
3.6184411732
 20
15.7525108769
 10
3.6077631078
 20
15.7668387781
 10
3.596715374
 20
15.7806545462
 10
3.5853285747
 20
15.7939204662
 10
3.5736338149
 20
15.8066001222
 10
3.5616629718
 20
15.8186586701
 10
3.5494490928
 20
15.8300631689
 10
3.5370255983
 20
15.840782327
 10
3.524426406
 20
15.8507866944
 10
3.5116861936
 20
15.8600489158
 10
3.4988398975
 20
15.8685436071
 10
3.4859226171
 20
15.8762474247
 10
3.4729697349
 20
15.8831392361
  0
LINE
  5
2DE
100
AcDbEntity
  8
268
100
AcDbLine
 62
7
  6
CONTINUOUS
 10
2.7658629537
 20
14.8134035793
 11
2.7658629537
 21
13.1634961417
  0
LINE
  5
2DF
100
AcDbEntity
  8
268
100
AcDbLine
 62
7
  6
CONTINUOUS
 10
2.7658629537
 20
-21.3972372872
 11
2.7658629537
 21
-23.0471447247
  0
LINE
  5
2E0
100
AcDbEntity
  8
268
100
AcDbLine
 62
7
  6
CONTINUOUS
 10
3.3315483787
 20
-23.0705308567
 11
3.3315483787
 21
-24.5761389829
  0
LINE
  5
2E1
100
AcDbEntity
  8
268
100
AcDbLine
 62
7
  6
CONTINUOUS
 10
3.3315483787
 20
15.9538499142
 11
3.3315483787
 21
17.6859007217
  0
LINE
  5
2E2
100
AcDbEntity
  8
268
100
AcDbLine
 62
7
  6
CONTINUOUS
 10
4.034541333
 20
17.8212222195
 11
4.034541333
 21
17.5602932431
  0
LINE
  5
2E3
100
AcDbEntity
  8
268
100
AcDbLine
 62
7
  6
CONTINUOUS
 10
4.034541333
 20
-23.7393108962
 11
4.034541333
 21
-24.0002398726
  0
LINE
  5
2E4
100
AcDbEntity
  8
268
100
AcDbLine
 62
250
  6
CONTINUOUS
 10
4.3617590305
 20
22.0583321115
 11
4.3617590305
 21
20.8264935332
  0
LINE
  5
2E5
100
AcDbEntity
  8
218
100
AcDbLine
 62
7
  6
CONTINUOUS
 10
4.4275638895
 20
12.0181201994
 11
4.4275638895
 21
-18.5901604091
  0
LINE
  5
2E6
100
AcDbEntity
  8
268
100
AcDbLine
 62
7
  6
CONTINUOUS
 10
4.4275638895
 20
-22.3743110272
 11
4.4275638895
 21
15.8022708175
  0
LINE
  5
2E7
100
AcDbEntity
  8
268
100
AcDbLine
 62
7
  6
CONTINUOUS
 10
4.4483964589
 20
22.1627192602
 11
4.4483964589
 21
20.9303506544
  0
LWPOLYLINE
  5
2E8
100
AcDbEntity
  8
268
100
AcDbPolyline
 62
7
  6
CONTINUOUS
 90
18
 70
0
 10
3.7204571083
 20
-22.735422107
 10
3.7201184638
 20
-22.751115983
 10
3.7191018204
 20
-22.7664280118
 10
3.71741027
 20
-22.7813160731
 10
3.7150490528
 20
-22.7957390619
 10
3.7120246413
 20
-22.8096574443
 10
3.7083447214
 20
-22.8230333665
 10
3.7040196576
 20
-22.8358300267
 10
3.6990616079
 20
-22.8480121978
 10
3.6934835879
 20
-22.8595467673
 10
3.6873011401
 20
-22.8704019911
 10
3.6805315007
 20
-22.8805479684
 10
3.6731926951
 20
-22.889957144
 10
3.6653050615
 20
-22.8986036134
 10
3.6568904905
 20
-22.9064635386
 10
3.647971574
 20
-22.9135156011
 10
3.6385729456
 20
-22.9197403741
 10
3.6304883148
 20
-22.9242346484
  0
LINE
  5
2E9
100
AcDbEntity
  8
218
100
AcDbLine
 62
250
  6
CONTINUOUS
 10
19.3195380184
 20
13.6307034592
 11
19.3103973108
 21
13.6223552377
  0
LWPOLYLINE
  5
2EA
100
AcDbEntity
  8
RACCORDO
100
AcDbPolyline
 62
250
  6
CONTINUOUS
 90
11
 70
0
 10
-12.7434247813
 20
-16.1417434786
 10
-12.8001136221
 20
-16.1794955006
 10
-12.8604869616
 20
-16.2095397852
 10
-12.9244860947
 20
-16.2320192158
 10
-12.9909088126
 20
-16.2465054737
 10
-13.0598436833
 20
-16.2528390674
 10
-13.1312072652
 20
-16.2511816327
 10
-13.203539422
 20
-16.2415865792
 10
-13.2763544843
 20
-16.2240721474
 10
-13.3501410323
 20
-16.1986213166
 10
-13.4248997913
 20
-16.1652343911
  0
LWPOLYLINE
  5
2EB
100
AcDbEntity
  8
268
100
AcDbPolyline
 62
7
  6
CONTINUOUS
 90
4
 70
0
 10
9.2040024831
 20
-17.4209128504
 10
9.203767957
 20
-17.4191248556
 10
9.2026271809
 20
-17.4161926299
 10
9.2005828493
 20
-17.412813262
  0
LINE
  5
2EC
100
AcDbEntity
  8
268
100
AcDbLine
 62
250
  6
CONTINUOUS
 10
9.1198044244
 20
19.8024953341
 11
9.1198044244
 21
19.59023618
  0
LINE
  5
2ED
100
AcDbEntity
  8
268
100
AcDbLine
 62
250
  6
CONTINUOUS
 10
9.1198044244
 20
-17.1517303905
 11
9.1198044244
 21
-17.3415000946
  0
LWPOLYLINE
  5
2EE
100
AcDbEntity
  8
218
100
AcDbPolyline
 62
7
  6
CONTINUOUS
 90
38
 70
0
 10
8.8193423795
 20
20.5215703894
 10
8.8195266378
 20
20.5374872585
 10
8.8208241264
 20
20.5667018984
 10
8.8233630055
 20
20.5958961543
 10
8.8271421283
 20
20.6250568403
 10
8.832159788
 20
20.6541707858
 10
8.8384137183
 20
20.6832248413
 10
8.8459010946
 20
20.7122058842
 10
8.8546185352
 20
20.7411008251
 10
8.8645621027
 20
20.7698966133
 10
8.875727306
 20
20.798580243
 10
8.8881091024
 20
20.8271387589
 10
8.9017018995
 20
20.8555592624
 10
8.9164995579
 20
20.8838289171
 10
8.9324953942
 20
20.9119349548
 10
8.9496821837
 20
20.9398646812
 10
8.9680521639
 20
20.9676054817
 10
8.9875970379
 20
20.9951448267
 10
9.008307978
 20
21.0224702781
 10
9.0301756299
 20
21.049569494
 10
9.0531901171
 20
21.0764302348
 10
9.0773410447
 20
21.1030403686
 10
9.1026175048
 20
21.1293878769
 10
9.1290080812
 20
21.1554608595
 10
9.1565008543
 20
21.1812475403
 10
9.1850834067
 20
21.2067362727
 10
9.214742829
 20
21.2319155443
 10
9.2454657251
 20
21.2567739828
 10
9.2772382189
 20
21.2813003606
 10
9.3100459601
 20
21.3054836003
 10
9.3438741307
 20
21.3293127793
 10
9.3787074521
 20
21.3527771348
 10
9.4145301914
 20
21.3758660691
 10
9.4513261691
 20
21.3985691539
 10
9.4890787658
 20
21.4208761351
 10
9.5277709305
 20
21.4427769376
 10
9.5673851873
 20
21.4642616698
 10
9.6079036443
 20
21.4853206278
  0
LWPOLYLINE
  5
2EF
100
AcDbEntity
  8
268
100
AcDbPolyline
 62
7
  6
CONTINUOUS
 90
16
 70
0
 10
9.2040024831
 20
20.0903315234
 10
9.203767957
 20
20.0766575316
 10
9.2026271809
 20
20.0568923404
 10
9.2005828493
 20
20.0370386898
 10
9.1976916843
 20
20.0171029059
 10
9.1940029201
 20
19.9971206696
 10
9.1895429562
 20
19.977158848
 10
9.1843500979
 20
19.9572381303
 10
9.1784674407
 20
19.9373703789
 10
9.1719069065
 20
19.9176101528
 10
9.1647000034
 20
19.8979730861
 10
9.1568828577
 20
19.8784711215
 10
9.1484589183
 20
19.8591555226
 10
9.1394460269
 20
19.8400527962
 10
9.1298841815
 20
19.8211623023
 10
9.1198044244
 20
19.8024953341
  0
LWPOLYLINE
  5
2F0
100
AcDbEntity
  8
218
100
AcDbPolyline
 62
7
  6
CONTINUOUS
 90
19
 70
0
 10
19.0297371111
 20
13.8671495535
 10
19.0350027858
 20
13.8755535633
 10
19.0404083085
 20
13.8838889473
 10
19.045953679
 20
13.8921557056
 10
19.0516356864
 20
13.9003601133
 10
19.0574575417
 20
13.9084958954
 10
19.0634288776
 20
13.9165442259
 10
19.069549635
 20
13.9245041557
 10
19.075819873
 20
13.9323766339
 10
19.0822494016
 20
13.9401456824
 10
19.0888406564
 20
13.9478132205
 10
19.0955912018
 20
13.9553773288
 10
19.1025035408
 20
13.9628162708
 10
19.1095821718
 20
13.9701327845
 10
19.1168225964
 20
13.9773241318
 10
19.1242138217
 20
13.9843603623
 10
19.1317521838
 20
13.9912314924
 10
19.1394413466
 20
13.9979475058
 10
19.1472813103
 20
14.0045084023
  0
LINE
  5
2F1
100
AcDbEntity
  8
268
100
AcDbLine
 62
250
  6
CONTINUOUS
 10
0.3810364619
 20
-8.4754207628
 11
0.4600949288
 21
-8.4365754932
  0
LINE
  5
2F2
100
AcDbEntity
  8
268
100
AcDbLine
 62
7
  6
CONTINUOUS
 10
0.373355257
 20
-8.5618300757
 11
0.4212641844
 21
-8.5382900898
  0
LINE
  5
2F3
100
AcDbEntity
  8
DRAFT
100
AcDbLine
 62
7
  6
CONTINUOUS
 10
-13.7315777896
 20
-14.0819925597
 11
-13.2702967896
 21
-13.9120565125
  0
LINE
  5
2F4
100
AcDbEntity
  8
RACCORDO
100
AcDbLine
 62
7
  6
CONTINUOUS
 10
-13.7299730663
 20
-13.8623495185
 11
-13.728860511
 21
-13.8619499699
  0
LINE
  5
2F5
100
AcDbEntity
  8
RACCORDO
100
AcDbLine
 62
250
  6
CONTINUOUS
 10
-3.3667513807
 20
11.4161322337
 11
-17.4940224221
 21
18.4797677544
  0
LWPOLYLINE
  5
2F6
100
AcDbEntity
  8
218
100
AcDbPolyline
 62
7
  6
CONTINUOUS
 90
4
 70
0
 10
8.8227869959
 20
20.4534434101
 10
8.8206576152
 20
20.4790496101
 10
8.8194711258
 20
20.5082654297
 10
8.8193423795
 20
20.5215703894
  0
LWPOLYLINE
  5
2F7
100
AcDbEntity
  8
268
100
AcDbPolyline
 62
7
  6
CONTINUOUS
 90
5
 70
0
 10
9.2040024842
 20
19.5139496896
 10
9.2039898157
 20
19.5142969456
 10
9.2036954125
 20
19.5158147344
 10
9.2030200776
 20
19.5175313987
 10
9.2019759846
 20
19.5194511025
  0
LWPOLYLINE
  5
2F8
100
AcDbEntity
  8
268
100
AcDbPolyline
 62
7
  6
CONTINUOUS
 90
7
 70
0
 10
9.203955992
 20
20.0963091779
 10
9.2038643839
 20
20.1006169792
 10
9.2037252131
 20
20.1049283098
 10
9.2035384797
 20
20.1092431698
 10
9.2033041836
 20
20.1135615592
 10
9.2030223248
 20
20.1178834779
 10
9.2026929033
 20
20.122208926
  0
LINE
  5
2F9
100
AcDbEntity
  8
268
100
AcDbLine
 62
7
  6
CONTINUOUS
 10
9.203955992
 20
20.0963091779
 11
9.2040024831
 21
20.0903315234
  0
LINE
  5
2FA
100
AcDbEntity
  8
268
100
AcDbLine
 62
7
  6
CONTINUOUS
 10
9.2040024842
 20
20.0903488791
 11
9.2040024842
 21
19.5139573968
  0
LINE
  5
2FB
100
AcDbEntity
  8
268
100
AcDbLine
 62
7
  6
CONTINUOUS
 10
9.2040024842
 20
-17.1072050694
 11
9.2040024842
 21
-17.4209561285
  0
LINE
  5
2FC
100
AcDbEntity
  8
218
100
AcDbLine
 62
250
  6
CONTINUOUS
 10
9.6079036443
 20
21.0751015848
 11
9.6079036443
 21
21.4853206278
  0
LINE
  5
2FD
100
AcDbEntity
  8
218
100
AcDbLine
 62
7
  6
CONTINUOUS
 10
10.2906138423
 20
21.4175596771
 11
10.2906138423
 21
20.9845469752
  0
LINE
  5
2FE
100
AcDbEntity
  8
715
100
AcDbLine
 62
7
  6
CONTINUOUS
 10
11.2580775547
 20
20.1841942654
 11
11.2580775547
 21
19.731869625
  0
LINE
  5
2FF
100
AcDbEntity
  8
268
100
AcDbLine
 62
7
  6
CONTINUOUS
 10
9.203955992
 20
-17.4216350244
 11
9.2040024831
 21
-17.4209128504
  0
LWPOLYLINE
  5
300
100
AcDbEntity
  8
218
100
AcDbPolyline
 62
7
  6
CONTINUOUS
 90
9
 70
0
 10
19.3101762521
 20
13.6311434372
 10
19.3110041449
 20
13.6326792355
 10
19.311348352
 20
13.6334171159
 10
19.3113773081
 20
13.6334827421
 10
19.3111954894
 20
13.6328986161
 10
19.3109243105
 20
13.63177677
 10
19.3106503754
 20
13.6301746874
 10
19.310449904
 20
13.6281032675
 10
19.3103978285
 20
13.62633074
  0
LWPOLYLINE
  5
301
100
AcDbEntity
  8
RACCORDO
100
AcDbPolyline
 62
250
  6
CONTINUOUS
 90
45
 70
0
 10
-13.0575030175
 20
-15.9520436355
 10
-13.0359482313
 20
-15.9438022603
 10
-13.0009745962
 20
-15.927546773
 10
-12.9674019873
 20
-15.9082504723
 10
-12.9353033027
 20
-15.8859765462
 10
-12.9047300261
 20
-15.8607669156
 10
-12.8757676019
 20
-15.8326836135
 10
-12.8485366758
 20
-15.8018347201
 10
-12.8231392584
 20
-15.7683335402
 10
-12.799661597
 20
-15.7322942032
 10
-12.7781821873
 20
-15.6938375962
 10
-12.7587782835
 20
-15.6531045939
 10
-12.741523805
 20
-15.6102620734
 10
-12.7264621954
 20
-15.5654310486
 10
-12.7136232912
 20
-15.5186865427
 10
-12.7030504325
 20
-15.4701310026
 10
-12.6948024776
 20
-15.4199672546
 10
-12.6889230639
 20
-15.3684277121
 10
-12.6854333926
 20
-15.3157076834
 10
-12.684342973
 20
-15.2619667531
 10
-12.6856554585
 20
-15.2073960362
 10
-12.6893650313
 20
-15.1521875956
 10
-12.6954583226
 20
-15.096522776
 10
-12.7039157058
 20
-15.0405799642
 10
-12.7147106286
 20
-14.9845416028
 10
-12.7278060203
 20
-14.9286054684
 10
-12.7431545211
 20
-14.8729731754
 10
-12.7607004915
 20
-14.8178413581
 10
-12.7803855778
 20
-14.7633889685
 10
-12.8021471953
 20
-14.7097887965
 10
-12.8259160316
 20
-14.6572146775
 10
-12.8516085797
 20
-14.6058541722
 10
-12.8791306469
 20
-14.5558950054
 10
-12.9083819311
 20
-14.5075154631
 10
-12.9392675858
 20
-14.4608688549
 10
-12.9716930072
 20
-14.4160980191
 10
-13.0055717013
 20
-14.373328289
 10
-13.040768268
 20
-14.3327362572
 10
-13.0771027131
 20
-14.2945221565
 10
-13.1144075576
 20
-14.2588406554
 10
-13.152589597
 20
-14.2257600829
 10
-13.1915741543
 20
-14.1953374548
 10
-13.2312495815
 20
-14.1676619854
 10
-13.2714634627
 20
-14.1428420408
 10
-13.3120804316
 20
-14.1209608609
  0
LINE
  5
302
100
AcDbEntity
  8
RACCORDO
100
AcDbLine
 62
7
  6
CONTINUOUS
 10
-12.8511480366
 20
-16.0967259485
 11
-12.8523386849
 21
-16.0971534135
  0
LINE
  5
303
100
AcDbEntity
  8
DRAFT
100
AcDbLine
 62
7
  6
CONTINUOUS
 10
-13.0575030162
 20
-15.9520436351
 11
-12.5440171755
 21
-15.7710112931
  0
LWPOLYLINE
  5
304
100
AcDbEntity
  8
RACCORDO
100
AcDbPolyline
 62
7
  6
CONTINUOUS
 90
13
 70
0
 10
-13.057503015
 20
-15.9520436346
 10
-13.0917162189
 20
-15.9627317828
 10
-13.1268513731
 20
-15.9709776044
 10
-13.1628078796
 20
-15.9767240243
 10
-13.1994607047
 20
-15.9799220989
 10
-13.2367242131
 20
-15.980537436
 10
-13.2745598857
 20
-15.9785349282
 10
-13.312906685
 20
-15.973873255
 10
-13.3516204073
 20
-15.9665259854
 10
-13.3905465529
 20
-15.9564881699
 10
-13.4295685925
 20
-15.9437621065
 10
-13.4686033768
 20
-15.9283461542
 10
-13.507550441
 20
-15.9102482574
  0
LWPOLYLINE
  5
305
100
AcDbEntity
  8
RACCORDO
100
AcDbPolyline
 62
7
  6
CONTINUOUS
 90
10
 70
0
 10
-13.7289500156
 20
-13.8619973289
 10
-13.6900597455
 20
-13.8500504366
 10
-13.6361712206
 20
-13.8394913039
 10
-13.5803021658
 20
-13.8351757003
 10
-13.5226331572
 20
-13.8371255726
 10
-13.4635641958
 20
-13.8453296744
 10
-13.4033848972
 20
-13.8597769284
 10
-13.3424801576
 20
-13.8803865929
 10
-13.2813216417
 20
-13.9069590422
 10
-13.2702229039
 20
-13.9124078363
  0
LINE
  5
306
100
AcDbEntity
  8
RACCORDO
100
AcDbLine
 62
250
  6
CONTINUOUS
 10
-2.2132260139
 20
13.0440586298
 11
-16.3574360863
 21
20.1161636661
  0
LINE
  5
307
100
AcDbEntity
  8
715
100
AcDbLine
 62
7
  6
CONTINUOUS
 10
11.7078222161
 20
20.0624464322
 11
11.7078222161
 21
19.7228218424
  0
LINE
  5
308
100
AcDbEntity
  8
218
100
AcDbLine
 62
7
  6
CONTINUOUS
 10
11.7461190748
 20
21.3581371112
 11
11.7461190748
 21
20.9143838152
  0
LWPOLYLINE
  5
309
100
AcDbEntity
  8
268
100
AcDbPolyline
 62
7
  6
CONTINUOUS
 90
7
 70
0
 10
9.203955992
 20
-17.4216350244
 10
9.2038643839
 20
-17.4221206319
 10
9.2037252131
 20
-17.4226327797
 10
9.2035384797
 20
-17.4231714677
 10
9.2033041836
 20
-17.423736696
 10
9.2030223248
 20
-17.4243284646
 10
9.2026929033
 20
-17.4249467735
  0
LWPOLYLINE
  5
30A
100
AcDbEntity
  8
RACCORDO
100
AcDbPolyline
 62
250
  6
CONTINUOUS
 90
9
 70
0
 10
-12.8523386849
 20
-16.0971534135
 10
-12.8845985002
 20
-16.1074656827
 10
-12.9459192052
 20
-16.1207712154
 10
-13.0095439895
 20
-16.1266815723
 10
-13.0750195595
 20
-16.1251374835
 10
-13.141883128
 20
-16.1161604218
 10
-13.2096822945
 20
-16.0998283725
 10
-13.2779820359
 20
-16.0762526383
 10
-13.3463372058
 20
-16.0455968999
  0
LWPOLYLINE
  5
30B
100
AcDbEntity
  8
RACCORDO
100
AcDbPolyline
 62
250
  6
CONTINUOUS
 90
16
 70
0
 10
-2.2544833132
 20
11.2835427884
 10
-2.315995493
 20
11.269696587
 10
-2.3828037869
 20
11.2590667864
 10
-2.4541923542
 20
11.2517672835
 10
-2.529396277
 20
11.2478762913
 10
-2.6076097566
 20
11.2474355012
 10
-2.6879947473
 20
11.2504496362
 10
-2.769689936
 20
11.2568864004
 10
-2.851819971
 20
11.2666768246
 10
-2.9335048412
 20
11.2797160061
 10
-3.0138693057
 20
11.2958642319
 10
-3.0920522711
 20
11.3149484763
 10
-3.1672160188
 20
11.3367642544
 10
-3.2385551804
 20
11.3610778137
 10
-3.3053053676
 20
11.3876286379
 10
-3.366751362
 20
11.4161322389
  0
LWPOLYLINE
  5
30C
100
AcDbEntity
  8
218
100
AcDbPolyline
 62
7
  6
CONTINUOUS
 90
19
 70
0
 10
19.1472813278
 20
15.6239797621
 10
19.139444202
 20
15.6224224198
 10
19.1317566765
 20
15.6211762417
 10
19.1242187513
 20
15.6202412276
 10
19.1168264443
 20
15.6196234613
 10
19.1095837376
 20
15.619316859
 10
19.1025025776
 20
15.6193031703
 10
19.095587566
 20
15.6195844443
 10
19.0888341011
 20
15.6201586317
 10
19.0822403246
 20
15.6210013345
 10
19.0758087525
 20
15.6221132426
 10
19.0695368688
 20
15.623493666
 10
19.0634152674
 20
15.6251161363
 10
19.0574439859
 20
15.6269815705
 10
19.0516229867
 20
15.6290890515
 10
19.0459427515
 20
15.6314093597
 10
19.0404001074
 20
15.6339327549
 10
19.0349982273
 20
15.6366689772
 10
19.0297371111
 20
15.6396180265
  0
LINE
  5
30D
100
AcDbEntity
  8
268
100
AcDbLine
 62
7
  6
CONTINUOUS
 10
2.3242197147
 20
13.3843177612
 11
2.7658629537
 21
13.1634961417
  0
LINE
  5
30E
100
AcDbEntity
  8
218
100
AcDbLine
 62
7
  6
CONTINUOUS
 10
13.8303404089
 20
23.520107825
 11
13.8303404089
 21
23.1931417773
  0
LINE
  5
30F
100
AcDbEntity
  8
268
100
AcDbLine
 62
7
  6
CONTINUOUS
 10
0.0355945156
 20
-23.938822874
 11
0.6143848558
 21
-23.2343791439
  0
LINE
  5
310
100
AcDbEntity
  8
RACCORDO
100
AcDbLine
 62
7
  6
CONTINUOUS
 10
-12.4484635248
 20
21.6711995902
 11
1.8352657685
 21
14.5293349435
  0
LINE
  5
311
100
AcDbEntity
  8
268
100
AcDbLine
 62
7
  6
CONTINUOUS
 10
-13.8157910651
 20
22.4133425216
 11
1.9526901554
 21
14.5291019113
  0
LINE
  5
312
100
AcDbEntity
  8
268
100
AcDbLine
 62
7
  6
CONTINUOUS
 10
1.705202782
 20
14.9803615366
 11
-13.5683036917
 21
22.6171147734
  0
LINE
  5
313
100
AcDbEntity
  8
268
100
AcDbLine
 62
7
  6
CONTINUOUS
 10
2.2647174665
 20
15.4152686647
 11
0.6507133505
 21
16.2222707227
  0
LINE
  5
314
100
AcDbEntity
  8
268
100
AcDbLine
 62
7
  6
CONTINUOUS
 10
-11.0996006979
 20
22.0974277469
 11
-12.7136048139
 21
22.9044298049
  0
LINE
  5
315
100
AcDbEntity
  8
268
100
AcDbLine
 62
7
  6
CONTINUOUS
 10
-7.7671448171
 20
20.7885320417
 11
-1.974635749
 21
17.8922775077
  0
LINE
  5
316
100
AcDbEntity
  8
268
100
AcDbLine
 62
7
  6
CONTINUOUS
 10
-13.3520024753
 20
23.6759596112
 11
-11.745470006
 21
22.8726933766
  0
LINE
  5
317
100
AcDbEntity
  8
268
100
AcDbLine
 62
7
  6
CONTINUOUS
 10
0.0123156891
 20
16.993800529
 11
1.6188481584
 21
16.1905342944
  0
LINE
  5
318
100
AcDbEntity
  8
268
100
AcDbLine
 62
250
  6
CONTINUOUS
 10
-13.4165977682
 20
23.8109890595
 11
-11.810821306
 21
23.0081008285
  0
LINE
  5
319
100
AcDbEntity
  8
268
100
AcDbLine
 62
250
  6
CONTINUOUS
 10
-0.0522796037
 20
17.1288299773
 11
1.5534968584
 21
16.3259417462
  0
LINE
  5
31A
100
AcDbEntity
  8
268
100
AcDbLine
 62
250
  6
CONTINUOUS
 10
1.5534968584
 20
16.57931314
 11
-0.0522796037
 21
17.3822013711
  0
LINE
  5
31B
100
AcDbEntity
  8
268
100
AcDbLine
 62
250
  6
CONTINUOUS
 10
-11.810821306
 20
23.2614722222
 11
-13.4165977682
 21
24.0643604533
  0
LINE
  5
31C
100
AcDbEntity
  8
268
100
AcDbLine
 62
7
  6
CONTINUOUS
 10
-10.0327697857
 20
22.6360089964
 11
-7.8550127827
 21
21.5471304949
  0
LINE
  5
31D
100
AcDbEntity
  8
268
100
AcDbLine
 62
7
  6
CONTINUOUS
 10
-1.0525136647
 20
18.1458809358
 11
0.0286082865
 21
17.6053199603
  0
LINE
  5
31E
100
AcDbEntity
  8
268
100
AcDbLine
 62
7
  6
CONTINUOUS
 10
3.3315483787
 20
15.9538499142
 11
3.4729697349
 21
15.8831392361
  0
LINE
  5
31F
100
AcDbEntity
  8
268
100
AcDbLine
 62
7
  6
CONTINUOUS
 10
1.6423994345
 20
-24.7422253335
 11
2.2647174665
 21
-23.997165916
  0
LINE
  5
320
100
AcDbEntity
  8
268
100
AcDbLine
 62
250
  6
CONTINUOUS
 10
0.7602379374
 20
-18.3888719186
 11
-0.5541637007
 21
-18.9959061528
  0
LINE
  5
321
100
AcDbEntity
  8
268
100
AcDbLine
 62
7
  6
CONTINUOUS
 10
0.5595428802
 20
-18.9025677614
 11
-0.5931906987
 21
-19.4349383284
  0
LINE
  5
322
100
AcDbEntity
  8
268
100
AcDbLine
 62
7
  6
CONTINUOUS
 10
2.2647174665
 20
16.0524382234
 11
1.6423994345
 21
16.1823788059
  0
LINE
  5
323
100
AcDbEntity
  8
268
100
AcDbLine
 62
250
  6
CONTINUOUS
 10
1.7302675879
 20
16.8831787182
 11
0.1224461788
 21
17.6870894228
  0
LINE
  5
324
100
AcDbEntity
  8
268
100
AcDbLine
 62
250
  6
CONTINUOUS
 10
-11.6340505766
 20
23.5653378005
 11
-13.2418719856
 21
24.369248505
  0
LINE
  5
325
100
AcDbEntity
  8
268
100
AcDbLine
 62
7
  6
CONTINUOUS
 10
-7.7671448171
 20
22.0034869078
 11
-1.974635749
 21
19.1072323737
  0
LINE
  5
326
100
AcDbEntity
  8
268
100
AcDbLine
 62
7
  6
CONTINUOUS
 10
4.1800765161
 20
16.2291349374
 11
3.3803444923
 21
16.6290009494
  0
LINE
  5
327
100
AcDbEntity
  8
268
100
AcDbLine
 62
7
  6
CONTINUOUS
 10
-8.5014956687
 20
22.5699210299
 11
-9.9839736721
 21
23.3111600316
  0
LINE
  5
328
100
AcDbEntity
  8
268
100
AcDbLine
 62
7
  6
CONTINUOUS
 10
-7.2750533391
 20
22.4695863384
 11
-1.0525136647
 21
19.3583165011
  0
LINE
  5
329
100
AcDbEntity
  8
268
100
AcDbLine
 62
7
  6
CONTINUOUS
 10
-11.6591153825
 20
25.1812326023
 11
-10.0327697857
 21
24.368059804
  0
LINE
  5
32A
100
AcDbEntity
  8
268
100
AcDbLine
 62
7
  6
CONTINUOUS
 10
1.705202782
 20
18.4990735201
 11
3.3315483787
 21
17.6859007217
  0
LINE
  5
32B
100
AcDbEntity
  8
268
100
AcDbLine
 62
7
  6
CONTINUOUS
 10
-5.9315504549
 20
22.499903289
 11
-0.9818029865
 21
20.0250295549
  0
LINE
  5
32C
100
AcDbEntity
  8
268
100
AcDbLine
 62
250
  6
CONTINUOUS
 10
-11.1246655038
 20
25.4415800689
 11
-9.504502614
 21
24.631498624
  0
LINE
  5
32D
100
AcDbEntity
  8
268
100
AcDbLine
 62
250
  6
CONTINUOUS
 10
2.2396526606
 20
18.7594209867
 11
3.8598155504
 21
17.9493395418
  0
LINE
  5
32E
100
AcDbEntity
  8
268
100
AcDbLine
 62
7
  6
CONTINUOUS
 10
-11.0132460744
 20
25.4478477251
 11
-9.3943721243
 21
24.63841075
  0
LINE
  5
32F
100
AcDbEntity
  8
268
100
AcDbLine
 62
7
  6
CONTINUOUS
 10
2.3510720901
 20
18.7656886429
 11
3.9699460401
 21
17.9562516678
  0
LINE
  5
330
100
AcDbEntity
  8
218
100
AcDbLine
 62
7
  6
CONTINUOUS
 10
10.538500148
 20
17.7131857311
 11
9.7858060641
 21
19.0113909921
  0
LINE
  5
331
100
AcDbEntity
  8
218
100
AcDbLine
 62
250
  6
CONTINUOUS
 10
9.6079036443
 20
21.4853206278
 11
9.2139177105
 21
22.5074764458
  0
LINE
  5
332
100
AcDbEntity
  8
715
100
AcDbLine
 62
7
  6
CONTINUOUS
 10
10.7526079725
 20
19.9419543096
 11
10.5511086146
 21
20.5376787354
  0
LWPOLYLINE
  5
333
100
AcDbEntity
  8
218
100
AcDbPolyline
 62
7
  6
CONTINUOUS
 90
31
 70
0
 10
19.3103973011
 20
19.7943440178
 10
19.3101168028
 20
19.8284102738
 10
19.3089883321
 20
19.8708935294
 10
19.3070030561
 20
19.9134407523
 10
19.3041672985
 20
19.9560571733
 10
19.30048853
 20
19.9987223021
 10
19.2959776771
 20
20.0413866046
 10
19.290642695
 20
20.0840439718
 10
19.2844908251
 20
20.1266866489
 10
19.2775366026
 20
20.1692605154
 10
19.2697886234
 20
20.2117589938
 10
19.2612544059
 20
20.2541754958
 10
19.2519522991
 20
20.2964542974
 10
19.2418918236
 20
20.3385866298
 10
19.2310806496
 20
20.3805682291
 10
19.2195389813
 20
20.4223487426
 10
19.2072788626
 20
20.4639119253
 10
19.1943062867
 20
20.5052612791
 10
19.1806343511
 20
20.5463747877
 10
19.1662721513
 20
20.5872427379
 10
19.1512262261
 20
20.6278615634
 10
19.1355060698
 20
20.6682171491
 10
19.1191184656
 20
20.7083023777
 10
19.1020692545
 20
20.7481103002
 10
19.0843672172
 20
20.7876261736
 10
19.0660182028
 20
20.8268416428
 10
19.0470265512
 20
20.8657494963
 10
19.0273990393
 20
20.9043370597
 10
19.0071400178
 20
20.9425952539
 10
18.9862527224
 20
20.9805163466
 10
18.968429861
 20
21.0117484848
  0
LWPOLYLINE
  5
334
100
AcDbEntity
  8
218
100
AcDbPolyline
 62
250
  6
CONTINUOUS
 90
37
 70
0
 10
19.0297371111
 20
19.4470165272
 10
19.0295071823
 20
19.4850188014
 10
19.0285986989
 20
19.5233363527
 10
19.027012053
 20
19.5619509215
 10
19.0247479279
 20
19.6008440186
 10
19.0218074029
 20
19.6399972038
 10
19.0181919399
 20
19.6793920999
 10
19.013903213
 20
19.7190100645
 10
19.0089432277
 20
19.7588321138
 10
19.0033144233
 20
19.7988392034
 10
18.9970194725
 20
19.8390122269
 10
18.9900613311
 20
19.8793321125
 10
18.9824433464
 20
19.9197797498
 10
18.9741691327
 20
19.9603358895
 10
18.9652426028
 20
20.0009812218
 10
18.9556680192
 20
20.0416964712
 10
18.9454499266
 20
20.082462294
 10
18.9345931751
 20
20.1232592572
 10
18.9231029483
 20
20.1640679171
 10
18.9109847206
 20
20.204868861
 10
18.8982442502
 20
20.2456426724
 10
18.8848876027
 20
20.2863699099
 10
18.870921161
 20
20.3270311754
 10
18.8563515642
 20
20.3676071527
 10
18.8411857003
 20
20.408078572
 10
18.8254308097
 20
20.4484261894
 10
18.8090943982
 20
20.4886308137
 10
18.7921841725
 20
20.5286733444
 10
18.7747081832
 20
20.5685348061
 10
18.7566747864
 20
20.6081961811
 10
18.7380925576
 20
20.6476384376
 10
18.7189704384
 20
20.6868427179
 10
18.6993175057
 20
20.7257905
 10
18.6791429246
 20
20.7644634256
 10
18.6584562533
 20
20.8028431627
 10
18.637267449
 20
20.8409114188
 10
18.6155866355
 20
20.8786501018
  0
LINE
  5
335
100
AcDbEntity
  8
218
100
AcDbLine
 62
250
  6
CONTINUOUS
 10
19.0297371111
 20
-10.8980637187
 11
19.0297371111
 21
13.8671495535
  0
LINE
  5
336
100
AcDbEntity
  8
218
100
AcDbLine
 62
250
  6
CONTINUOUS
 10
19.0297371111
 20
15.6396180265
 11
19.0297371111
 21
19.4470165272
  0
LINE
  5
337
100
AcDbEntity
  8
218
100
AcDbLine
 62
7
  6
CONTINUOUS
 10
19.3103973108
 20
-10.5507345334
 11
19.3103973108
 21
13.6263135951
  0
LINE
  5
338
100
AcDbEntity
  8
218
100
AcDbLine
 62
7
  6
CONTINUOUS
 10
19.3103973108
 20
16.575112581
 11
19.3103973108
 21
19.7943457124
  0
LINE
  5
339
100
AcDbEntity
  8
218
100
AcDbLine
 62
7
  6
CONTINUOUS
 10
19.3103973092
 20
16.5752200218
 11
19.3103973107
 21
16.5751132289
  0
LWPOLYLINE
  5
33A
100
AcDbEntity
  8
218
100
AcDbPolyline
 62
250
  6
CONTINUOUS
 90
57
 70
0
 10
19.3103973107
 20
16.5751132289
 10
19.3102986571
 20
16.55065517
 10
19.3095769771
 20
16.5046573676
 10
19.3082351743
 20
16.460875066
 10
19.3063475491
 20
16.4189628712
 10
19.3039721657
 20
16.3787694496
 10
19.3011735007
 20
16.34034551
 10
19.2980090074
 20
16.3036456289
 10
19.2944993849
 20
16.2683737649
 10
19.2906807196
 20
16.2344821331
 10
19.2865992706
 20
16.2020200916
 10
19.2822695391
 20
16.1708378336
 10
19.2777200236
 20
16.1409146709
 10
19.2729856485
 20
16.1122705456
 10
19.2680796708
 20
16.0848169514
 10
19.2630280475
 20
16.0585548208
 10
19.2578568134
 20
16.0334808432
 10
19.2525723334
 20
16.0095004953
 10
19.2471976906
 20
15.9866211757
 10
19.2417520851
 20
15.9648322557
 10
19.2362294608
 20
15.9440128169
 10
19.2306476674
 20
15.9241643772
 10
19.2250215108
 20
15.9052821912
 10
19.2193335674
 20
15.8872369444
 10
19.213591047
 20
15.8700107084
 10
19.2078103268
 20
15.853618843
 10
19.2019825471
 20
15.8379828658
 10
19.1961084517
 20
15.8230818263
 10
19.1902057941
 20
15.8089344014
 10
19.1842896572
 20
15.7955217169
 10
19.1783681733
 20
15.7828462706
 10
19.1724513899
 20
15.7709025788
 10
19.1665578537
 20
15.7596594318
 10
19.1607001734
 20
15.7491261724
 10
19.1548835779
 20
15.7392897978
 10
19.1491156432
 20
15.7300853684
 10
19.1434221898
 20
15.7215333947
 10
19.1377938246
 20
15.7136094277
 10
19.1321823795
 20
15.7061818999
 10
19.1265889013
 20
15.699234536
 10
19.121021936
 20
15.6927814442
 10
19.1154400942
 20
15.6867380794
 10
19.1098338442
 20
15.6810863087
 10
19.1042179599
 20
15.6758433759
 10
19.0985852643
 20
15.670978563
 10
19.0929361539
 20
15.6664895169
 10
19.0872747777
 20
15.6623777936
 10
19.0815990293
 20
15.6586187144
 10
19.0759128367
 20
15.6552125164
 10
19.0702164046
 20
15.6521581789
 10
19.0645015364
 20
15.6494293112
 10
19.0587720494
 20
15.6470250095
 10
19.0530274691
 20
15.6449455994
 10
19.0472523267
 20
15.6431668717
 10
19.0414419934
 20
15.6416807975
 10
19.0356032212
 20
15.6404952857
 10
19.0297371111
 20
15.6396102426
  0
LINE
  5
33B
100
AcDbEntity
  8
218
100
AcDbLine
 62
7
  6
CONTINUOUS
 10
10.538500148
 20
-16.2540265756
 11
9.7858060641
 21
-16.7995377526
  0
LWPOLYLINE
  5
33C
100
AcDbEntity
  8
268
100
AcDbPolyline
 62
7
  6
CONTINUOUS
 90
25
 70
0
 10
8.4557060148
 20
-17.8847878387
 10
8.4816224252
 20
-17.8699556221
 10
8.5081246618
 20
-17.8546886453
 10
8.5352127248
 20
-17.8389869084
 10
8.5629143812
 20
-17.8228378057
 10
8.5912018639
 20
-17.8062539428
 10
8.6199918718
 20
-17.7892731369
 10
8.6492653909
 20
-17.771906563
 10
8.6790414353
 20
-17.754143046
 10
8.7092937463
 20
-17.7359868777
 10
8.7400361807
 20
-17.7174299807
 10
8.7712548817
 20
-17.6984804324
 10
8.8028820212
 20
-17.679166756
 10
8.8349287559
 20
-17.6594821212
 10
8.867383929
 20
-17.6394333584
 10
8.9001462424
 20
-17.6190694817
 10
8.9332310165
 20
-17.5983806424
 10
8.9666229309
 20
-17.5773766893
 10
9.0001747263
 20
-17.5561361826
 10
9.0339060413
 20
-17.5346458967
 10
9.0677972373
 20
-17.5129190572
 10
9.101642139
 20
-17.4910739014
 10
9.1353720214
 20
-17.4691498418
 10
9.1690556095
 20
-17.4471074658
 10
9.2026929033
 20
-17.4249467735
  0
LWPOLYLINE
  5
33D
100
AcDbEntity
  8
218
100
AcDbPolyline
 62
7
  6
CONTINUOUS
 90
7
 70
0
 10
18.2726890595
 20
-12.1640600773
 10
18.2879996934
 20
-12.1556829119
 10
18.3031293382
 20
-12.1468428918
 10
18.3180721721
 20
-12.1375462401
 10
18.3328230492
 20
-12.1277989639
 10
18.3473760646
 20
-12.1176079445
 10
18.6901542295
 20
-11.8691846849
  0
LWPOLYLINE
  5
33E
100
AcDbEntity
  8
218
100
AcDbPolyline
 62
250
  6
CONTINUOUS
 90
6
 70
0
 10
18.6155866355
 20
-11.9155468177
 10
18.6315167319
 20
-11.906840691
 10
18.6471671876
 20
-11.8976859463
 10
18.6625297169
 20
-11.8880874303
 10
18.6775961862
 20
-11.8780502247
 10
18.6901542295
 20
-11.8691846849
  0
LWPOLYLINE
  5
33F
100
AcDbEntity
  8
268
100
AcDbPolyline
 62
7
  6
CONTINUOUS
 90
3
 70
0
 10
8.4557060148
 20
-17.8847878387
 10
8.4211215377
 20
-17.9036635363
 10
8.4059547577
 20
-17.9114282725
  0
LWPOLYLINE
  5
340
100
AcDbEntity
  8
218
100
AcDbPolyline
 62
250
  6
CONTINUOUS
 90
29
 70
0
 10
19.0297371111
 20
-10.8980637187
 10
19.0483353919
 20
-10.8881687449
 10
19.0663894154
 20
-10.8780249006
 10
19.0838858658
 20
-10.8676396672
 10
19.100811839
 20
-10.8570207042
 10
19.1171548514
 20
-10.8461758434
 10
19.1329028494
 20
-10.8351130835
 10
19.1480442183
 20
-10.8238405835
 10
19.1625677906
 20
-10.8123666574
 10
19.1764628548
 20
-10.8006997677
 10
19.1897191627
 20
-10.7888485191
 10
19.2023269373
 20
-10.7768216524
 10
19.2142768797
 20
-10.7646280378
 10
19.2255601766
 20
-10.7522766686
 10
19.236168506
 20
-10.7397766544
 10
19.246094044
 20
-10.7271372144
 10
19.2553294699
 20
-10.7143676708
 10
19.2638679724
 20
-10.7014774415
 10
19.271703254
 20
-10.6884760335
 10
19.2788295359
 20
-10.675373036
 10
19.2852415621
 20
-10.6621781128
 10
19.2909346036
 20
-10.6489009957
 10
19.2959044615
 20
-10.6355514772
 10
19.3001474704
 20
-10.6221394029
 10
19.3036605008
 20
-10.6086746648
 10
19.3064409618
 20
-10.5951671936
 10
19.3084868027
 20
-10.5816269517
 10
19.3097965146
 20
-10.5680639254
 10
19.3103691316
 20
-10.554488118
  0
LINE
  5
341
100
AcDbEntity
  8
218
100
AcDbLine
 62
7
  6
CONTINUOUS
 10
18.2726890595
 20
-12.1640600773
 11
10.538500148
 21
-16.2540265756
  0
LINE
  5
342
100
AcDbEntity
  8
218
100
AcDbLine
 62
7
  6
CONTINUOUS
 10
4.4275638895
 20
-19.6330644785
 11
9.7858060641
 21
-16.7995377526
  0
LINE
  5
343
100
AcDbEntity
  8
218
100
AcDbLine
 62
250
  6
CONTINUOUS
 10
4.4275638895
 20
-18.5901604091
 11
19.0297371111
 21
-10.8980637187
  0
LINE
  5
344
100
AcDbEntity
  8
218
100
AcDbLine
 62
250
  6
CONTINUOUS
 10
4.4275638895
 20
-19.3894783449
 11
18.6155866355
 21
-11.9155468177
  0
LINE
  5
345
100
AcDbEntity
  8
268
100
AcDbLine
 62
250
  6
CONTINUOUS
 10
4.4275638895
 20
-19.9066910222
 11
8.4557060148
 21
-17.8847878387
  0
LINE
  5
346
100
AcDbEntity
  8
268
100
AcDbLine
 62
7
  6
CONTINUOUS
 10
4.4275638895
 20
-19.908359103
 11
8.4059474678
 21
-17.9114319411
  0
LINE
  5
347
100
AcDbEntity
  8
268
100
AcDbLine
 62
250
  6
CONTINUOUS
 10
4.4275638895
 20
-19.6688859915
 11
9.1198044244
 21
-17.3415000946
  0
LINE
  5
348
100
AcDbEntity
  8
268
100
AcDbLine
 62
250
  6
CONTINUOUS
 10
4.4275638895
 20
-19.7907607193
 11
9.203955992
 21
-17.4216350244
  0
LINE
  5
349
100
AcDbEntity
  8
268
100
AcDbLine
 62
7
  6
CONTINUOUS
 10
-11.0996006979
 20
22.7345973056
 11
-11.72191873
 21
22.8645378881
  0
LWPOLYLINE
  5
34A
100
AcDbEntity
  8
218
100
AcDbPolyline
 62
7
  6
CONTINUOUS
 90
51
 70
0
 10
-1.0404796157
 20
22.0456989084
 10
-1.0510507843
 20
22.0498511539
 10
-1.0740121575
 20
22.0584657885
 10
-1.0972827595
 20
22.066658628
 10
-1.1208487344
 20
22.0744346178
 10
-1.1447040939
 20
22.0818002222
 10
-1.1688308399
 20
22.0887572306
 10
-1.1932110882
 20
22.0953077798
 10
-1.2178382629
 20
22.1014563463
 10
-1.2426944783
 20
22.107203994
 10
-1.2677623964
 20
22.1125521678
 10
-1.2930355292
 20
22.1175039773
 10
-1.3184965237
 20
22.1220600634
 10
-1.3441278536
 20
22.1262212183
 10
-1.3699220948
 20
22.1299893519
 10
-1.395861699
 20
22.1333647784
 10
-1.4219295354
 20
22.1363479549
 10
-1.4481182211
 20
22.1389400111
 10
-1.4744101933
 20
22.1411410614
 10
-1.5007884741
 20
22.1429512668
 10
-1.5272461494
 20
22.1443711202
 10
-1.5537659946
 20
22.1454005725
 10
-1.580330757
 20
22.1460394881
 10
-1.6069332792
 20
22.1462877327
 10
-1.6335563776
 20
22.1461450808
 10
-1.6601826988
 20
22.1456111637
 10
-1.6868048593
 20
22.1446852736
 10
-1.7134057331
 20
22.1433669832
 10
-1.7399677172
 20
22.1416557033
 10
-1.766482985
 20
22.1395501732
 10
-1.7929342374
 20
22.1370497378
 10
-1.8193037194
 20
22.1341535761
 10
-1.8455834358
 20
22.1308598196
 10
-1.8717573707
 20
22.1271672888
 10
-1.8978059954
 20
22.1230750586
 10
-1.9237168867
 20
22.1185813106
 10
-1.9494736045
 20
22.1136846193
 10
-1.9750566758
 20
22.1083839114
 10
-2.0004503941
 20
22.1026776292
 10
-2.0256368608
 20
22.0965644024
 10
-2.0505979383
 20
22.0900427541
 10
-2.0753191578
 20
22.0831103608
 10
-2.099782625
 20
22.0757653205
 10
-2.12397003
 20
22.0680057652
 10
-2.1478678871
 20
22.0598282088
 10
-2.1714573568
 20
22.051230227
 10
-2.1947208192
 20
22.0422088243
 10
-2.2176483455
 20
22.03275745
 10
-2.2402246378
 20
22.022870501
 10
-2.2624263533
 20
22.0125458494
 10
-2.2780054547
 20
22.0049203224
  0
LWPOLYLINE
  5
34B
100
AcDbEntity
  8
218
100
AcDbPolyline
 62
7
  6
CONTINUOUS
 90
3
 70
0
 10
-1.0353486832
 20
22.04339833
 10
-1.0376436176
 20
22.044491685
 10
-1.0404796157
 20
22.0456989084
  0
LINE
  5
34C
100
AcDbEntity
  8
218
100
AcDbLine
 62
7
  6
CONTINUOUS
 10
0.3323589938
 20
20.6727466715
 11
-2.2545951927
 21
21.9662237647
  0
LINE
  5
34D
100
AcDbEntity
  8
218
100
AcDbLine
 62
250
  6
CONTINUOUS
 10
0.9733221886
 20
20.9886611771
 11
-1.1195900424
 21
22.0351172926
  0
LINE
  5
34E
100
AcDbEntity
  8
218
100
AcDbLine
 62
7
  6
CONTINUOUS
 10
1.0240856131
 20
21.0136811819
 11
-1.0353486782
 21
22.0433983275
  0
LINE
  5
34F
100
AcDbEntity
  8
268
100
AcDbLine
 62
7
  6
CONTINUOUS
 10
1.5358727582
 20
21.2659280882
 11
-1.264645699
 21
22.6661873168
  0
LINE
  5
350
100
AcDbEntity
  8
268
100
AcDbLine
 62
7
  6
CONTINUOUS
 10
-1.6181990896
 20
23.3955222014
 11
-1.264645699
 21
23.2187455061
  0
LWPOLYLINE
  5
351
100
AcDbEntity
  8
268
100
AcDbPolyline
 62
7
  6
CONTINUOUS
 90
20
 70
0
 10
9.2019759846
 20
19.5194511025
 10
9.200575833
 20
19.5215821673
 10
9.1988294067
 20
19.5238906147
 10
9.1967477968
 20
19.5263802537
 10
9.1943428323
 20
19.5290576966
 10
9.1916227405
 20
19.5318929125
 10
9.1885978092
 20
19.5348894389
 10
9.1852793079
 20
19.5380525171
 10
9.181675151
 20
19.5413545095
 10
9.1777952941
 20
19.5447984923
 10
9.1736506226
 20
19.5483887366
 10
9.1692493898
 20
19.5520992362
 10
9.1646010513
 20
19.5559328281
 10
9.1597165974
 20
19.5598927017
 10
9.154606209
 20
19.563953122
 10
9.1492793339
 20
19.5681163373
 10
9.1437471306
 20
19.5723847087
 10
9.1380226594
 20
19.5767322082
 10
9.132117476
 20
19.5811510904
 10
9.1198044244
 20
19.59023618
  0
LWPOLYLINE
  5
352
100
AcDbEntity
  8
218
100
AcDbPolyline
 62
250
  6
CONTINUOUS
 90
34
 70
0
 10
18.6791429246
 20
-11.8643008452
 10
18.6993175057
 20
-11.8456212133
 10
18.7189704384
 20
-11.8261572872
 10
18.7380925576
 20
-11.8059181833
 10
18.7566747864
 20
-11.7849134806
 10
18.7747081832
 20
-11.7631532488
 10
18.7921841725
 20
-11.7406478783
 10
18.8090943982
 20
-11.717408126
 10
18.8254308097
 20
-11.6934450374
 10
18.8411857003
 20
-11.6687699625
 10
18.8563515642
 20
-11.6433946473
 10
18.870921161
 20
-11.6173311792
 10
18.8848876027
 20
-11.5905919124
 10
18.8982442502
 20
-11.5631895485
 10
18.9109847206
 20
-11.5351371509
 10
18.9231029483
 20
-11.5064480865
 10
18.9345931751
 20
-11.4771360016
 10
18.9454499266
 20
-11.4472148464
 10
18.9556680192
 20
-11.4166988902
 10
18.9652426028
 20
-11.3856026673
 10
18.9741691327
 20
-11.3539409524
 10
18.9824433464
 20
-11.3217287861
 10
18.9900613311
 20
-11.2889814817
 10
18.9970194725
 20
-11.2557146132
 10
19.0033144233
 20
-11.2219439879
 10
19.0089432277
 20
-11.1876856007
 10
19.013903213
 20
-11.1529557904
 10
19.0181919399
 20
-11.1177712275
 10
19.0218074029
 20
-11.0821487372
 10
19.0247479279
 20
-11.0461051536
 10
19.027012053
 20
-11.009657469
 10
19.0285986989
 20
-10.9728229514
 10
19.0295071823
 20
-10.9356191438
 10
19.0297371111
 20
-10.8980637187
  0
LWPOLYLINE
  5
353
100
AcDbEntity
  8
218
100
AcDbPolyline
 62
250
  6
CONTINUOUS
 90
4
 70
0
 10
18.6155866355
 20
-11.9155468177
 10
18.637267449
 20
-11.8992720282
 10
18.6584562533
 20
-11.8821873162
 10
18.6791429246
 20
-11.8643008452
  0
LWPOLYLINE
  5
354
100
AcDbEntity
  8
218
100
AcDbPolyline
 62
7
  6
CONTINUOUS
 90
40
 70
0
 10
18.6901562693
 20
-11.8691831912
 10
18.7183005193
 20
-11.8482369829
 10
18.7459551193
 20
-11.826546771
 10
18.7731367798
 20
-11.8040942751
 10
18.7998257257
 20
-11.780888323
 10
18.8259999936
 20
-11.7569407091
 10
18.851658516
 20
-11.7322444884
 10
18.8767823479
 20
-11.706808672
 10
18.9013505817
 20
-11.6806451853
 10
18.9253581594
 20
-11.6537492066
 10
18.9487862373
 20
-11.6261307891
 10
18.9716147275
 20
-11.5978025304
 10
18.993836003
 20
-11.5687616174
 10
19.0154310801
 20
-11.5390195173
 10
19.0363817322
 20
-11.5085883951
 10
19.056680844
 20
-11.4774641188
 10
19.0763096233
 20
-11.4456593494
 10
19.0952512754
 20
-11.4131852457
 10
19.113500719
 20
-11.3800325481
 10
19.1310366682
 20
-11.3462198652
 10
19.1478459418
 20
-11.3117518472
 10
19.1639327461
 20
-11.2765942089
 10
19.1792846625
 20
-11.2407411065
 10
19.1938756201
 20
-11.2042183918
 10
19.2076879555
 20
-11.167035806
 10
19.2207081955
 20
-11.1291917334
 10
19.2329146758
 20
-11.090707914
 10
19.2442816127
 20
-11.0516277407
 10
19.2547953772
 20
-11.0119615746
 10
19.2644422417
 20
-10.9717198944
 10
19.2732024554
 20
-10.9309453199
 10
19.2810657723
 20
-10.8896458031
 10
19.2880208814
 20
-10.8478332485
 10
19.2940523627
 20
-10.8055553305
 10
19.2991522528
 20
-10.7628213208
 10
19.3033121594
 20
-10.7196408281
 10
19.3065215021
 20
-10.676060605
 10
19.3087735577
 20
-10.6321012276
 10
19.3100629686
 20
-10.5877601496
 10
19.3103973011
 20
-10.550735654
  0
LINE
  5
355
100
AcDbEntity
  8
218
100
AcDbLine
 62
250
  6
CONTINUOUS
 10
18.2726890595
 20
-12.1640600773
 11
18.6155866355
 21
-11.9155468177
  0
LINE
  5
356
100
AcDbEntity
  8
268
100
AcDbLine
 62
7
  6
CONTINUOUS
 10
2.7658629537
 20
-23.0471447247
 11
1.9526901554
 21
-23.5760158552
  0
LINE
  5
357
100
AcDbEntity
  8
268
100
AcDbLine
 62
250
  6
CONTINUOUS
 10
3.7204571083
 20
-22.735422107
 11
4.4275638895
 21
-22.3743110272
  0
LINE
  5
358
100
AcDbEntity
  8
268
100
AcDbLine
 62
7
  6
CONTINUOUS
 10
3.6304882905
 20
-22.9242346603
 11
4.3375950717
 21
-22.5631235805
  0
LINE
  5
359
100
AcDbEntity
  8
268
100
AcDbLine
 62
7
  6
CONTINUOUS
 10
3.6304883148
 20
-22.9242346484
 11
3.6284807194
 21
-22.9252383546
  0
LINE
  5
35A
100
AcDbEntity
  8
268
100
AcDbLine
 62
250
  6
CONTINUOUS
 10
1.9526901554
 20
-23.6004113605
 11
3.7204571083
 21
-22.735422107
  0
LINE
  5
35B
100
AcDbEntity
  8
268
100
AcDbLine
 62
7
  6
CONTINUOUS
 10
1.8607137174
 20
-23.7902276321
 11
3.6284806703
 21
-22.9252383786
  0
LWPOLYLINE
  5
35C
100
AcDbEntity
  8
RACCORDO
100
AcDbPolyline
 62
250
  6
CONTINUOUS
 90
16
 70
0
 10
-5.4721382319
 20
-24.9132981837
 10
-5.5345395279
 20
-24.9371499956
 10
-5.6022272665
 20
-24.9576782148
 10
-5.674476194
 20
-24.9746628875
 10
-5.7505121851
 20
-24.9879220282
 10
-5.8295205369
 20
-24.9973135692
 10
-5.9106546989
 20
-25.0027368828
 10
-5.9930453429
 20
-25.0041338601
 10
-6.0758096781
 20
-25.0014895326
 10
-6.1580609096
 20
-24.9948322338
 10
-6.2389177403
 20
-24.9842332944
 10
-6.3175138136
 20
-24.969806279
 10
-6.3930069963
 20
-24.9517057688
 10
-6.4645884017
 20
-24.9301257054
 10
-6.5314910567
 20
-24.9052973126
 10
-6.5929981195
 20
-24.8774866193
  0
LWPOLYLINE
  5
35D
100
AcDbEntity
  8
218
100
AcDbPolyline
 62
7
  6
CONTINUOUS
 90
14
 70
0
 10
4.6920176715
 20
21.93611671
 10
4.6796072179
 20
21.9368177781
 10
4.6585802603
 20
21.9382250297
 10
4.6377012735
 20
21.9398409711
 10
4.6170085097
 20
21.9416597963
 10
4.5965204002
 20
21.9436767488
 10
4.576255186
 20
21.9458866742
 10
4.556249816
 20
21.9482814676
 10
4.5365209684
 20
21.9508545874
 10
4.5170854552
 20
21.9535992635
 10
4.4979790551
 20
21.9565051628
 10
4.4792163706
 20
21.9595641282
 10
4.4608121661
 20
21.9627678184
 10
4.4483964589
 20
21.9650673529
  0
LWPOLYLINE
  5
35E
100
AcDbEntity
  8
268
100
AcDbPolyline
 62
7
  6
CONTINUOUS
 90
13
 70
0
 10
8.4557060148
 20
20.6034688096
 10
8.4210552049
 20
20.6098984907
 10
8.3858509818
 20
20.6152816435
 10
8.3501311299
 20
20.6196437844
 10
8.313905813
 20
20.6230377075
 10
8.2772380749
 20
20.6254674572
 10
8.240241865
 20
20.6268786863
 10
8.2029548301
 20
20.6272888213
 10
8.1654038482
 20
20.6267249397
 10
8.1276831473
 20
20.6251329516
 10
8.0898437726
 20
20.6225038606
 10
8.0518945864
 20
20.6188818794
 10
8.0138651469
 20
20.6142870899
  0
LINE
  5
35F
100
AcDbEntity
  8
715
100
AcDbLine
 62
7
  6
CONTINUOUS
 10
11.7078222161
 20
20.0624464322
 11
11.2580775547
 21
20.1841942654
  0
LWPOLYLINE
  5
360
100
AcDbEntity
  8
218
100
AcDbPolyline
 62
7
  6
CONTINUOUS
 90
19
 70
0
 10
-1.0413649492
 20
22.0460445778
 10
-1.0451807792
 20
22.0473728752
 10
-1.049086189
 20
22.0484748758
 10
-1.0530767942
 20
22.049349477
 10
-1.0571474018
 20
22.0499955003
 10
-1.0612927657
 20
22.0504120661
 10
-1.0655082678
 20
22.050598934
 10
-1.0697884268
 20
22.050555754
 10
-1.0741277275
 20
22.0502824761
 10
-1.0785213765
 20
22.0497797243
 10
-1.0829636646
 20
22.0490479791
 10
-1.0874488686
 20
22.0480880186
 10
-1.0919720812
 20
22.0469013234
 10
-1.0965274285
 20
22.0454891975
 10
-1.1011090418
 20
22.043853236
 10
-1.1057119604
 20
22.0419957596
 10
-1.1103305534
 20
22.0399190428
 10
-1.114958527
 20
22.0376253142
 10
-1.1195898964
 20
22.0351172196
  0
LWPOLYLINE
  5
361
100
AcDbEntity
  8
268
100
AcDbPolyline
 62
7
  6
CONTINUOUS
 90
10
 70
0
 10
8.702143968
 20
20.5160297778
 10
8.6790414353
 20
20.5272827699
 10
8.6492653909
 20
20.5408592116
 10
8.6199918718
 20
20.5532448284
 10
8.5912018639
 20
20.5644466249
 10
8.5629143812
 20
20.5744575964
 10
8.5352127248
 20
20.5833573409
 10
8.5081246618
 20
20.5911723909
 10
8.4816224252
 20
20.5978762138
 10
8.4557060148
 20
20.6034688096
  0
LINE
  5
362
100
AcDbEntity
  8
268
100
AcDbLine
 62
7
  6
CONTINUOUS
 10
2.9436884545
 20
21.9598047466
 11
0.1331388075
 21
23.3650795701
  0
LINE
  5
363
100
AcDbEntity
  8
218
100
AcDbLine
 62
7
  6
CONTINUOUS
 10
8.9980174164
 20
19.405285316
 11
9.7858060641
 21
19.0113909921
  0
LINE
  5
364
100
AcDbEntity
  8
268
100
AcDbLine
 62
7
  6
CONTINUOUS
 10
1.4930707476
 20
23.4388277575
 11
3.7028116358
 21
22.3339573134
  0
LINE
  5
365
100
AcDbEntity
  8
268
100
AcDbLine
 62
7
  6
CONTINUOUS
 10
4.4483964589
 20
21.9611649018
 11
4.5942098689
 21
21.8882581968
  0
LINE
  5
366
100
AcDbEntity
  8
268
100
AcDbLine
 62
7
  6
CONTINUOUS
 10
-1.374386998
 20
25.13580031
 11
-1.1939350209
 21
25.0455743215
  0
LINE
  5
367
100
AcDbEntity
  8
268
100
AcDbLine
 62
7
  6
CONTINUOUS
 10
4.1800765161
 20
22.358568553
 11
4.3605284933
 21
22.2683425644
  0
LINE
  5
368
100
AcDbEntity
  8
268
100
AcDbLine
 62
250
  6
CONTINUOUS
 10
-2.1869553421
 20
25.7146973344
 11
0.7921345588
 21
24.2251523839
  0
LINE
  5
369
100
AcDbEntity
  8
268
100
AcDbLine
 62
250
  6
CONTINUOUS
 10
5.034775246
 20
22.1038320404
 11
8.0138651469
 21
20.6142870899
  0
LINE
  5
36A
100
AcDbEntity
  8
268
100
AcDbLine
 62
7
  6
CONTINUOUS
 10
-1.9931456812
 20
25.8636634721
 11
1.2331775619
 21
24.2505018505
  0
LINE
  5
36B
100
AcDbEntity
  8
268
100
AcDbLine
 62
7
  6
CONTINUOUS
 10
5.475818249
 20
22.129181507
 11
8.7021414922
 21
20.5160198854
  0
LWPOLYLINE
  5
36C
100
AcDbEntity
  8
218
100
AcDbPolyline
 62
250
  6
CONTINUOUS
 90
14
 70
0
 10
5.8279058399
 20
22.0000171419
 10
5.8087639038
 20
22.0095873849
 10
5.7896271306
 20
22.0184883866
 10
5.7705100468
 20
22.0267133904
 10
5.7514271641
 20
22.0342561527
 10
5.732392968
 20
22.0411109479
 10
5.7134219074
 20
22.0472725727
 10
5.694528383
 20
22.0527363497
 10
5.6757267367
 20
22.0574981315
 10
5.6570312407
 20
22.0615543034
 10
5.6384560866
 20
22.0649017865
 10
5.6200153746
 20
22.0675380398
 10
5.6017231029
 20
22.069461062
 10
5.5942649977
 20
22.0699581326
  0
LINE
  5
36D
100
AcDbEntity
  8
715
100
AcDbLine
 62
7
  6
CONTINUOUS
 10
10.7631028079
 20
19.9367068919
 11
10.9604934751
 21
19.754413301
  0
LWPOLYLINE
  5
36E
100
AcDbEntity
  8
268
100
AcDbPolyline
 62
7
  6
CONTINUOUS
 90
17
 70
0
 10
9.2026929033
 20
20.122208926
 10
9.1690556095
 20
20.1582710765
 10
9.1353720214
 20
20.1929097361
 10
9.101642139
 20
20.2261249049
 10
9.0677972373
 20
20.2579322089
 10
9.0339060413
 20
20.288316022
 10
9.0001747263
 20
20.3172294661
 10
8.9666229309
 20
20.3446486414
 10
8.9332310165
 20
20.3705974477
 10
8.9001462424
 20
20.3951007062
 10
8.867383929
 20
20.4181444131
 10
8.8349287559
 20
20.4397425722
 10
8.8028820212
 20
20.4599620162
 10
8.7712548817
 20
20.4787959302
 10
8.7400361807
 20
20.4962511292
 10
8.7092937463
 20
20.5124148907
 10
8.702143968
 20
20.5160297778
  0
LINE
  5
36F
100
AcDbEntity
  8
268
100
AcDbLine
 62
7
  6
CONTINUOUS
 10
3.3315483787
 20
-24.5761389829
 11
3.8598155504
 21
-24.3051279243
  0
LINE
  5
370
100
AcDbEntity
  8
268
100
AcDbLine
 62
7
  6
CONTINUOUS
 10
1.7302675879
 20
-25.3561735826
 11
3.3315483787
 21
-24.5761389829
  0
LINE
  5
371
100
AcDbEntity
  8
RACCORDO
100
AcDbLine
 62
250
  6
CONTINUOUS
 10
-5.0338297791
 20
-25.3316551935
 11
-1.001132021
 21
-24.0240529299
  0
LINE
  5
372
100
AcDbEntity
  8
RACCORDO
100
AcDbLine
 62
7
  6
CONTINUOUS
 10
-1.3063191621
 20
-24.4974638715
 11
-5.3433347707
 21
-25.8064658358
  0
LINE
  5
373
100
AcDbEntity
  8
268
100
AcDbLine
 62
7
  6
CONTINUOUS
 10
0.1331388075
 20
23.3650795701
 11
1.4930707476
 21
23.4388277575
  0
LWPOLYLINE
  5
374
100
AcDbEntity
  8
715
100
AcDbPolyline
 62
7
  6
CONTINUOUS
 90
9
 70
0
 10
13.1008850148
 20
20.7292936619
 10
13.0947682743
 20
20.7308931596
 10
13.0849980605
 20
20.7324259735
 10
13.0746718651
 20
20.7328414179
 10
13.0638846679
 20
20.7321396454
 10
13.052921409
 20
20.7303211141
 10
13.0418770683
 20
20.7273859765
 10
13.0306566658
 20
20.7233340802
 10
13.0192602015
 20
20.7181654249
  0
LWPOLYLINE
  5
375
100
AcDbEntity
  8
715
100
AcDbPolyline
 62
7
  6
CONTINUOUS
 90
28
 70
0
 10
13.1008748786
 20
20.7292697095
 10
12.992159532
 20
20.7605555553
 10
12.8773044891
 20
20.7899092323
 10
12.7600430651
 20
20.8162363025
 10
12.6406699003
 20
20.8394983942
 10
12.5194495286
 20
20.859668947
 10
12.3966201592
 20
20.8767282223
 10
12.2724713618
 20
20.8906520639
 10
12.1472878987
 20
20.9014227329
 10
12.0213073812
 20
20.9090301326
 10
11.8948209951
 20
20.9134635113
 10
11.7681182721
 20
20.914718066
 10
11.6414365267
 20
20.9127932929
 10
11.5150652569
 20
20.9076919579
 10
11.3892956663
 20
20.8994227457
 10
11.2643660669
 20
20.8879948703
 10
11.1405671923
 20
20.873425038
 10
11.01818244
 20
20.8557350164
 10
10.8974340038
 20
20.8349408411
 10
10.7785990827
 20
20.8110692411
 10
10.6619632593
 20
20.7841541893
 10
10.5477516862
 20
20.754219422
 10
10.436236508
 20
20.7213023181
 10
10.3276903116
 20
20.6854456833
 10
10.22232342
 20
20.6466740657
 10
10.1203766376
 20
20.6050212573
 10
10.0221305002
 20
20.5605404828
 10
9.927846439
 20
20.5132830934
  0
LWPOLYLINE
  5
376
100
AcDbEntity
  8
715
100
AcDbPolyline
 62
7
  6
CONTINUOUS
 90
3
 70
0
 10
13.1129256966
 20
20.7244758813
 10
13.1040774863
 20
20.7282431289
 10
13.1008850148
 20
20.7292936619
  0
LWPOLYLINE
  5
377
100
AcDbEntity
  8
268
100
AcDbPolyline
 62
7
  6
CONTINUOUS
 90
18
 70
0
 10
1.2331682436
 20
24.2505065095
 10
1.2136251916
 20
24.2595757639
 10
1.1907294114
 20
24.2685611785
 10
1.1672201251
 20
24.2760634113
 10
1.143078803
 20
24.2820975811
 10
1.1183890497
 20
24.2866433655
 10
1.0931276234
 20
24.2896973489
 10
1.067317766
 20
24.2912629469
 10
1.0411128071
 20
24.2913300835
 10
1.0145288445
 20
24.2898913075
 10
0.9875497805
 20
24.2869540702
 10
0.9602806518
 20
24.2825306489
 10
0.9327064722
 20
24.2766122633
 10
0.9048422279
 20
24.2692076938
 10
0.8768379148
 20
24.2603555592
 10
0.8487435316
 20
24.2500687325
 10
0.8205090796
 20
24.2383343407
 10
0.7921345588
 20
24.2251523839
  0
LINE
  5
378
100
AcDbEntity
  8
715
100
AcDbLine
 62
7
  6
CONTINUOUS
 10
10.7631028079
 20
19.9367068919
 11
10.0561338678
 21
20.290191362
  0
LINE
  5
379
100
AcDbEntity
  8
715
100
AcDbLine
 62
7
  6
CONTINUOUS
 10
11.2580775547
 20
20.1841942654
 11
10.5511086146
 21
20.5376787354
  0
LINE
  5
37A
100
AcDbEntity
  8
218
100
AcDbLine
 62
7
  6
CONTINUOUS
 10
9.8582995915
 20
21.2007041006
 11
10.2906138423
 21
20.9845469752
  0
LINE
  5
37B
100
AcDbEntity
  8
715
100
AcDbLine
 62
7
  6
CONTINUOUS
 10
13.961453834
 20
20.3002118126
 11
14.0538659952
 21
20.2539503042
  0
LWPOLYLINE
  5
37C
100
AcDbEntity
  8
715
100
AcDbPolyline
 62
7
  6
CONTINUOUS
 90
10
 70
0
 10
13.9235097667
 20
20.3128794676
 10
13.826032713
 20
20.3629348993
 10
13.7304195112
 20
20.4119107749
 10
13.6366701612
 20
20.4598070945
 10
13.54479908
 20
20.5066252823
 10
13.4547918505
 20
20.552363914
 10
13.3666052225
 20
20.597018717
 10
13.2802247791
 20
20.6405882672
 10
13.1956649372
 20
20.6830739886
 10
13.1129256966
 20
20.7244758813
  0
LINE
  5
37D
100
AcDbEntity
  8
715
100
AcDbLine
 62
7
  6
CONTINUOUS
 10
13.9312681954
 20
20.3082929955
 11
13.9235097667
 21
20.3128794676
  0
LWPOLYLINE
  5
37E
100
AcDbEntity
  8
715
100
AcDbPolyline
 62
250
  6
CONTINUOUS
 90
4
 70
0
 10
13.961453834
 20
20.3002118126
 10
13.9859768243
 20
20.2797074342
 10
14.010342586
 20
20.2584291698
 10
14.0285404097
 20
20.2417953881
  0
LWPOLYLINE
  5
37F
100
AcDbEntity
  8
715
100
AcDbPolyline
 62
250
  6
CONTINUOUS
 90
6
 70
0
 10
13.8678172349
 20
20.2939158042
 10
13.8906776643
 20
20.2743370707
 10
13.9132552026
 20
20.2539840242
 10
13.9355498497
 20
20.2328566646
 10
13.9575953481
 20
20.2110267776
 10
13.9597559944
 20
20.2087825759
  0
LWPOLYLINE
  5
380
100
AcDbEntity
  8
218
100
AcDbPolyline
 62
250
  6
CONTINUOUS
 90
57
 70
0
 10
19.3103973108
 20
17.2757440041
 10
19.3197317232
 20
17.2457872664
 10
19.3319309999
 20
17.2032524243
 10
19.3433763866
 20
17.1597092747
 10
19.3540493844
 20
17.1151669577
 10
19.3638816756
 20
17.0696460647
 10
19.3728726923
 20
17.0230463877
 10
19.3809942639
 20
16.975464716
 10
19.3881450458
 20
16.9272226536
 10
19.3943101501
 20
16.8782518311
 10
19.3994904861
 20
16.828628242
 10
19.4036286151
 20
16.7789013337
 10
19.4067095709
 20
16.7290122429
 10
19.4087597864
 20
16.6790400912
 10
19.409813006
 20
16.6297551204
 10
19.4098613075
 20
16.5811414323
 10
19.4089577711
 20
16.5332461976
 10
19.4072604184
 20
16.486947489
 10
19.404807335
 20
16.4425315025
 10
19.4016390747
 20
16.3997492909
 10
19.3979319094
 20
16.3586810478
 10
19.3937446354
 20
16.3194751319
 10
19.3890867519
 20
16.2820099705
 10
19.3840519368
 20
16.245957637
 10
19.3786712096
 20
16.2112814083
 10
19.3729606041
 20
16.1780339797
 10
19.3669802808
 20
16.146018094
 10
19.3607488192
 20
16.1152059713
 10
19.3542833775
 20
16.0856357871
 10
19.3476359051
 20
16.0572075016
 10
19.3408233821
 20
16.0299211119
 10
19.3338575687
 20
16.0037838061
 10
19.3267787475
 20
15.9787053883
 10
19.3196033549
 20
15.954695161
 10
19.3123377573
 20
15.9317488156
 10
19.3050038712
 20
15.9097550497
 10
19.2976163518
 20
15.8887209209
 10
19.2901779715
 20
15.868642797
 10
19.2826899006
 20
15.8493927747
 10
19.2751597778
 20
15.8309637097
 10
19.2675928236
 20
15.8133650632
 10
19.2599842933
 20
15.7964934184
 10
19.2523310767
 20
15.7803286927
 10
19.2446458317
 20
15.7648926004
 10
19.2369460441
 20
15.7501441958
 10
19.2292276521
 20
15.7360750115
 10
19.2215021389
 20
15.7226948437
 10
19.2138094561
 20
15.7099900759
 10
19.2061552928
 20
15.6979724701
 10
19.1985396273
 20
15.6866314614
 10
19.1909930745
 20
15.6759198924
 10
19.1835280302
 20
15.6658526871
 10
19.176135999
 20
15.656415956
 10
19.1688154729
 20
15.6475192052
 10
19.1615666399
 20
15.6391325134
 10
19.154391665
 20
15.6312866082
 10
19.147291546
 20
15.6239818889
  0
LWPOLYLINE
  5
381
100
AcDbEntity
  8
218
100
AcDbPolyline
 62
7
  6
CONTINUOUS
 90
10
 70
0
 10
14.0335777779
 20
21.0397223768
 10
14.0696833975
 20
21.0240146519
 10
14.1052179999
 20
21.0080061644
 10
14.140181585
 20
20.9916969143
 10
14.1745843223
 20
20.975081817
 10
14.2084160423
 20
20.958165957
 10
14.241646237
 20
20.9409645883
 10
14.2742647372
 20
20.9234827958
 10
14.3062817122
 20
20.9057154946
 10
14.3376971619
 20
20.8876626848
  0
LINE
  5
382
100
AcDbEntity
  8
218
100
AcDbLine
 62
7
  6
CONTINUOUS
 10
13.8500399369
 20
21.1158314447
 11
14.4815712579
 21
20.8000657842
  0
LINE
  5
383
100
AcDbEntity
  8
218
100
AcDbLine
 62
7
  6
CONTINUOUS
 10
14.0335777779
 20
21.0397223768
 11
14.3376971619
 21
20.8876626848
  0
LWPOLYLINE
  5
384
100
AcDbEntity
  8
218
100
AcDbPolyline
 62
7
  6
CONTINUOUS
 90
104
 70
0
 10
19.3103973108
 20
19.0948167805
 10
19.3231186321
 20
19.0855619724
 10
19.3679402448
 20
19.0516936509
 10
19.4124240927
 20
19.0168187386
 10
19.4565817536
 20
18.980933951
 10
19.5004123316
 20
18.9440437597
 10
19.543884085
 20
18.9061784258
 10
19.5869617064
 20
18.8673735889
 10
19.6296246279
 20
18.8276535667
 10
19.6718623356
 20
18.7870337626
 10
19.7136548379
 20
18.7455388329
 10
19.7549809648
 20
18.7031955624
 10
19.7958317193
 20
18.6600187778
 10
19.8362048419
 20
18.6160154008
 10
19.8760956664
 20
18.5711937179
 10
19.9154781397
 20
18.5255860406
 10
19.9543180659
 20
18.4792364179
 10
19.992586965
 20
18.4321849527
 10
20.0302855923
 20
18.3844367104
 10
20.0674233303
 20
18.3359835482
 10
20.1039990333
 20
18.2868284081
 10
20.1399842296
 20
18.237010833
 10
20.1753471816
 20
18.1865777922
 10
20.21006447
 20
18.1355673494
 10
20.2441334936
 20
18.0839878739
 10
20.2775540662
 20
18.0318425084
 10
20.3103180384
 20
17.9791453983
 10
20.3424067367
 20
17.9259278414
 10
20.3738038742
 20
17.8722185974
 10
20.4044952189
 20
17.818044
 10
20.434470153
 20
17.7634246188
 10
20.4637181872
 20
17.7083809386
 10
20.4922267916
 20
17.6529376307
 10
20.519984729
 20
17.5971174511
 10
20.5469834117
 20
17.5409380079
 10
20.5732120732
 20
17.4844214122
 10
20.5986585564
 20
17.4275933245
 10
20.6233122629
 20
17.3704766519
 10
20.6471627824
 20
17.3130943478
 10
20.6701989853
 20
17.2554717232
 10
20.6924096548
 20
17.1976352437
 10
20.7137821207
 20
17.1396165486
 10
20.7343094716
 20
17.0814326952
 10
20.7539887953
 20
17.0230880439
 10
20.7728155747
 20
16.9645889822
 10
20.7907737512
 20
16.9059777168
 10
20.8078441787
 20
16.847312162
 10
20.8240120495
 20
16.7886427077
 10
20.8392775063
 20
16.7299678837
 10
20.8536437784
 20
16.6712675531
 10
20.8671079692
 20
16.6125379364
 10
20.8796540396
 20
16.5538317324
 10
20.8912657817
 20
16.4952130277
 10
20.9019326871
 20
16.4367289156
 10
20.9116532327
 20
16.3783805339
 10
20.920425617
 20
16.3201624827
 10
20.9282447503
 20
16.2620822365
 10
20.9351009756
 20
16.2041808529
 10
20.9409856444
 20
16.1465026813
 10
20.9458930626
 20
16.0890740717
 10
20.9498182469
 20
16.0319161225
 10
20.9527556492
 20
15.9750640529
 10
20.9547007977
 20
15.918551009
 10
20.9556502948
 20
15.8623900407
 10
20.9556001612
 20
15.8065854943
 10
20.9545448473
 20
15.7511270644
 10
20.9524796601
 20
15.6960720324
 10
20.9494056428
 20
15.6415235871
 10
20.9453272166
 20
15.5875494066
 10
20.9402427456
 20
15.5341222003
 10
20.9341453772
 20
15.4812013417
 10
20.9270231507
 20
15.4287444974
 10
20.918880594
 20
15.3768394783
 10
20.9097399592
 20
15.3256373606
 10
20.899619734
 20
15.275215781
 10
20.8885152848
 20
15.2255292799
 10
20.8764187136
 20
15.1765408225
 10
20.8633191972
 20
15.1282207451
 10
20.849231419
 20
15.0806371024
 10
20.8341883196
 20
15.0338969779
 10
20.8182066304
 20
14.9880354959
 10
20.8012888866
 20
14.9430446229
 10
20.7834541713
 20
14.8989608526
 10
20.7647181541
 20
14.8558062599
 10
20.7450883359
 20
14.8135826667
 10
20.7245730462
 20
14.7722952716
 10
20.7031641832
 20
14.7319202337
 10
20.6808918799
 20
14.6925073923
 10
20.6578290692
 20
14.6541663739
 10
20.6340361664
 20
14.6169640011
 10
20.6094953391
 20
14.5808401761
 10
20.5841636367
 20
14.5457141572
 10
20.5580237112
 20
14.5115564485
 10
20.5311206284
 20
14.4784206676
 10
20.5035029579
 20
14.4463545305
 10
20.4752057931
 20
14.4153820785
 10
20.4462336698
 20
14.3854919644
 10
20.4165923855
 20
14.3566769478
 10
20.3863043425
 20
14.3289468023
 10
20.3553870975
 20
14.3023057481
 10
20.3238378827
 20
14.276741678
 10
20.2916685812
 20
14.2522568653
 10
20.2589070773
 20
14.2288651425
 10
20.2255740972
 20
14.2065733235
  0
LWPOLYLINE
  5
385
100
AcDbEntity
  8
218
100
AcDbPolyline
 62
250
  6
CONTINUOUS
 90
104
 70
0
 10
19.3103973108
 20
19.0045951964
 10
19.3202136058
 20
18.9967256877
 10
19.3623698653
 20
18.9617774332
 10
19.4042798298
 20
18.9258746292
 10
19.4459251406
 20
18.8890330028
 10
19.487287551
 20
18.8512686959
 10
19.5283489336
 20
18.8125982587
 10
19.5690912946
 20
18.7730386371
 10
19.6094967822
 20
18.7326071646
 10
19.6495476892
 20
18.6913215595
 10
19.6892264602
 20
18.6491999185
 10
19.7285157031
 20
18.6062607053
 10
19.7673982066
 20
18.5625227306
 10
19.8058569424
 20
18.5180051489
 10
19.843875066
 20
18.4727274574
 10
19.8814359092
 20
18.4267095061
 10
19.918522998
 20
18.3799714784
 10
19.9551200702
 20
18.3325338697
 10
19.9912111006
 20
18.2844174536
 10
20.0267802925
 20
18.2356432902
 10
20.0618120723
 20
18.1862327328
 10
20.0962910749
 20
18.136207451
 10
20.1302021703
 20
18.085589397
 10
20.1635304845
 20
18.0344007751
 10
20.1962614288
 20
17.9826639943
 10
20.2283806838
 20
17.930401689
 10
20.2598741896
 20
17.8776367334
 10
20.2907281289
 20
17.8243922746
 10
20.3209289573
 20
17.7706916861
 10
20.3504634258
 20
17.7165585295
 10
20.3793186098
 20
17.6620164974
 10
20.4074818889
 20
17.6070894447
 10
20.4349409365
 20
17.5518014084
 10
20.461683703
 20
17.4961766465
 10
20.4876984464
 20
17.4402395818
 10
20.5129737536
 20
17.3840147594
 10
20.5374985652
 20
17.3275267847
 10
20.561262156
 20
17.2708003615
 10
20.5842541248
 20
17.213860314
 10
20.6064643815
 20
17.1567316257
 10
20.6278831744
 20
17.0994393798
 10
20.6485011074
 20
17.0420087143
 10
20.668309159
 20
16.9844647634
 10
20.6872986658
 20
16.9268326952
 10
20.7054613149
 20
16.8691377335
 10
20.7227891361
 20
16.8114051908
 10
20.7392745231
 20
16.7536604098
 10
20.7549102455
 20
16.6959287222
 10
20.7696894608
 20
16.6382353982
 10
20.783605703
 20
16.5806056791
 10
20.7966528787
 20
16.523064794
 10
20.8088252634
 20
16.4656379819
 10
20.8201175161
 20
16.4083504413
 10
20.8305246855
 20
16.3512272958
 10
20.8400422162
 20
16.2942935564
 10
20.8486659423
 20
16.237574144
 10
20.8563920861
 20
16.1810938977
 10
20.8632172592
 20
16.1248775831
 10
20.8691384681
 20
16.068949854
 10
20.8741531177
 20
16.0133352283
 10
20.8782590123
 20
15.9580580657
 10
20.8814543535
 20
15.9031425766
 10
20.8837377411
 20
15.84861282
 10
20.8851081741
 20
15.7944926963
 10
20.8855650516
 20
15.7408059248
 10
20.8851081736
 20
15.687576031
 10
20.8837377401
 20
15.6348263403
 10
20.881454352
 20
15.5825799716
 10
20.8782590103
 20
15.5308598241
 10
20.8741531153
 20
15.4796885564
 10
20.8691384652
 20
15.4290885807
 10
20.8632172558
 20
15.3790820608
 10
20.8563920823
 20
15.3296909195
 10
20.8486659379
 20
15.2809368175
 10
20.8400422114
 20
15.2328411315
 10
20.8305246802
 20
15.1854249231
 10
20.8201175103
 20
15.1387089475
 10
20.8088252572
 20
15.09271366
 10
20.796652872
 20
15.0474592332
 10
20.7836056959
 20
15.0029655241
 10
20.7696894532
 20
14.9592520476
 10
20.7549102374
 20
14.9163379393
 10
20.7392745145
 20
14.8742419745
 10
20.7227891271
 20
14.832982581
 10
20.7054613055
 20
14.7925778602
 10
20.687298656
 20
14.7530455482
 10
20.6683091488
 20
14.7144029872
 10
20.6485010966
 20
14.6766670881
 10
20.6278831631
 20
14.6398543561
 10
20.6064643698
 20
14.6039809038
 10
20.5842541129
 20
14.569062473
 10
20.5612621438
 20
14.5351143949
 10
20.5374985525
 20
14.5021515629
 10
20.5129737402
 20
14.4701884002
 10
20.4876984325
 20
14.4392388854
 10
20.4616836889
 20
14.4093165649
 10
20.4349409223
 20
14.3804345703
 10
20.4074818744
 20
14.3526055824
 10
20.3793185948
 20
14.3258418093
 10
20.3504634102
 20
14.3001549615
 10
20.3209289411
 20
14.2755562738
 10
20.2907281125
 20
14.2520565145
 10
20.2598741733
 20
14.229665996
 10
20.2255740977
 20
14.2065733238
  0
LINE
  5
386
100
AcDbEntity
  8
218
100
AcDbLine
 62
250
  6
CONTINUOUS
 10
18.6155866355
 20
20.8786501018
 11
18.2726890595
 21
21.4700609374
  0
LWPOLYLINE
  5
387
100
AcDbEntity
  8
218
100
AcDbPolyline
 62
250
  6
CONTINUOUS
 90
26
 70
0
 10
12.1810977877
 20
24.7556563431
 10
12.1738142974
 20
24.7592002916
 10
12.1585665958
 20
24.7660061157
 10
12.1430035228
 20
24.7721400474
 10
12.1271366354
 20
24.7775975317
 10
12.1109777166
 20
24.7823745157
 10
12.0945387661
 20
24.7864674522
 10
12.0778319916
 20
24.7898733017
 10
12.0608697995
 20
24.7925895348
 10
12.0436647861
 20
24.7946141347
 10
12.0262297279
 20
24.7959455977
 10
12.0085775723
 20
24.7965829351
 10
11.990721428
 20
24.7965256737
 10
11.9726745548
 20
24.795773856
 10
11.9544503547
 20
24.7943280402
 10
11.9360623608
 20
24.7921893001
 10
11.9175242284
 20
24.7893592238
 10
11.8988497239
 20
24.785839913
 10
11.880052715
 20
24.7816339812
 10
11.8611471607
 20
24.7767445517
 10
11.8421471001
 20
24.7711752555
 10
11.8230666429
 20
24.7649302283
 10
11.8039199583
 20
24.7580141077
 10
11.7847212648
 20
24.7504320296
 10
11.7654848194
 20
24.7421896246
 10
11.7462249072
 20
24.7332930135
  0
LINE
  5
388
100
AcDbEntity
  8
218
100
AcDbLine
 62
7
  6
CONTINUOUS
 10
13.8303404089
 20
23.1931417773
 11
16.9391559797
 21
21.6387339919
  0
LINE
  5
389
100
AcDbEntity
  8
218
100
AcDbLine
 62
250
  6
CONTINUOUS
 10
18.2726890595
 20
21.4700609374
 11
17.4474425918
 21
21.8826841712
  0
LWPOLYLINE
  5
38A
100
AcDbEntity
  8
218
100
AcDbPolyline
 62
250
  6
CONTINUOUS
 90
26
 70
0
 10
12.786991409
 20
24.2129097626
 10
11.7270829749
 20
24.7428632547
 10
11.7079462053
 20
24.7517642549
 10
11.6888291251
 20
24.7599892575
 10
11.6697462458
 20
24.7675320189
 10
11.650712053
 20
24.7743868135
 10
11.6317409955
 20
24.7805484379
 10
11.6128474741
 20
24.7860122148
 10
11.5940458306
 20
24.7907739968
 10
11.5753503372
 20
24.7948301692
 10
11.5567751855
 20
24.798177653
 10
11.5383344757
 20
24.8008139072
 10
11.5200422061
 20
24.8027369305
 10
11.5019122621
 20
24.8039452633
 10
11.483958406
 20
24.8044379884
 10
11.4661942665
 20
24.8042147316
 10
11.4486333281
 20
24.8032756624
 10
11.4312889212
 20
24.8016214938
 10
11.4141742118
 20
24.7992534814
 10
11.3973021916
 20
24.7961734226
 10
11.3806856678
 20
24.7923836556
 10
11.3643372541
 20
24.7878870572
 10
11.3482693603
 20
24.7826870406
 10
11.3324941835
 20
24.7767875531
 10
11.3170236984
 20
24.7701930731
 10
11.3146054821
 20
24.7690867198
  0
LINE
  5
38B
100
AcDbEntity
  8
218
100
AcDbLine
 62
7
  6
CONTINUOUS
 10
18.641587442
 20
21.525411516
 11
17.7941487026
 21
21.9491308857
  0
LINE
  5
38C
100
AcDbEntity
  8
218
100
AcDbLine
 62
7
  6
CONTINUOUS
 10
13.3100310593
 20
24.1911897074
 11
12.1810977877
 21
24.7556563431
  0
LWPOLYLINE
  5
38D
100
AcDbEntity
  8
218
100
AcDbPolyline
 62
7
  6
CONTINUOUS
 90
12
 70
0
 10
18.6415879104
 20
21.5254112818
 10
18.6475213487
 20
21.5222899612
 10
18.6546873269
 20
21.518077542
 10
18.6615450964
 20
21.5135369133
 10
18.6680909392
 20
21.5086726215
 10
18.674327974
 20
21.5034859391
 10
18.680252598
 20
21.4979817186
 10
18.6858614579
 20
21.492164876
 10
18.6911582095
 20
21.4860369143
 10
18.6961396362
 20
21.4796030234
 10
18.7008027479
 20
21.4728684556
 10
18.7053789735
 20
21.4654443884
  0
LINE
  5
38E
100
AcDbEntity
  8
218
100
AcDbLine
 62
7
  6
CONTINUOUS
 10
18.9684298842
 20
21.0117484593
 11
18.7053787787
 21
21.4654445045
  0
ARC
  5
38F
100
AcDbEntity
  8
218
100
AcDbCircle
 62
7
  6
CONTINUOUS
 10
11.7338841922
 20
23.8612291521
 40
1.0
100
AcDbArc
 50
63.4347764174
 51
114.7890578208
  0
ELLIPSE
  5
390
100
AcDbEntity
  8
RACCORDO
100
AcDbEllipse
 62
7
  6
CONTINUOUS
 10
-12.5123383611
 20
20.950618214
 30
0.0
 11
-0.2714549605
 21
0.7527883138
 31
0.0
 40
0.6648474984
 41
-0.6093959365
 42
0.0216334957
  0
ELLIPSE
  5
391
100
AcDbEntity
  8
RACCORDO
100
AcDbEllipse
 62
7
  6
CONTINUOUS
 10
-1.5668841078
 20
-23.7409476794
 30
0.0
 11
-0.2714549605
 21
0.7527883138
 31
0.0
 40
0.6648474984
 41
-3.163226158
 42
-2.1804968498
  0
ELLIPSE
  5
392
100
AcDbEntity
  8
RACCORDO
100
AcDbEllipse
 62
7
  6
CONTINUOUS
 10
1.7710462793
 20
13.8089258938
 30
0.0
 11
-0.2711888907
 21
0.7526410468
 31
0.0
 40
0.6652277853
 41
-2.1799207184
 42
-0.6094289781
  0
ELLIPSE
  5
393
100
AcDbEntity
  8
218
100
AcDbEllipse
 62
7
  6
CONTINUOUS
 10
11.5693423795
 20
20.1112304353
 30
0.0
 11
2.7499924258
 21
-0.0130015067
 31
0.0
 40
0.4964289597
 41
2.3672681657
 42
2.9293761949
  0
ELLIPSE
  5
394
100
AcDbEntity
  8
218
100
AcDbEllipse
 62
7
  6
CONTINUOUS
 10
13.1294044551
 20
23.1634690207
 30
0.0
 11
0.4410298232
 21
0.8975092442
 31
0.0
 40
0.607010042
 41
-0.8902711325
 42
-0.7587130969
  0
ELLIPSE
  5
395
100
AcDbEntity
  8
218
100
AcDbEllipse
 62
7
  6
CONTINUOUS
 10
17.0267925257
 20
21.2147749854
 30
0.0
 11
0.79574694
 21
0.7129684349
 31
0.0
 40
0.2882345029
 41
0.1134874795
 42
0.7807533904
  0
ELLIPSE
  5
396
100
AcDbEntity
  8
218
100
AcDbEllipse
 62
7
  6
CONTINUOUS
 10
12.2410938216
 20
20.0093069855
 30
0.0
 11
2.7583876426
 21
-0.0130411979
 31
0.0
 40
0.4964289597
 41
0.8884696282
 42
2.3585415194
  0
ELLIPSE
  5
397
100
AcDbEntity
  8
218
100
AcDbEllipse
 62
7
  6
CONTINUOUS
 10
12.2410938216
 20
20.0093069855
 30
0.0
 11
2.7583876426
 21
-0.0130411979
 31
0.0
 40
0.4964289597
 41
0.4412294433
 42
0.6870207571
  0
ELLIPSE
  5
398
100
AcDbEntity
  8
218
100
AcDbEllipse
 62
7
  6
CONTINUOUS
 10
12.2410938216
 20
21.9897950981
 30
0.0
 11
2.7583515655
 21
-1.4175703156
 31
0.0
 40
0.0109499087
 41
-0.8804952881
 42
-0.85781018
  0
ELLIPSE
  5
399
100
AcDbEntity
  8
218
100
AcDbEllipse
 62
7
  6
CONTINUOUS
 10
12.2410938216
 20
21.9897950981
 30
0.0
 11
2.7583515655
 21
-1.4175703156
 31
0.0
 40
0.0109499087
 41
-0.7017315251
 42
-0.679046417
  0
ELLIPSE
  5
39A
100
AcDbEntity
  8
218
100
AcDbEllipse
 62
7
  6
CONTINUOUS
 10
12.2410938216
 20
20.4423196874
 30
0.0
 11
2.7583876426
 21
-0.0130411979
 31
0.0
 40
0.4964289597
 41
0.1877225706
 42
2.3585415194
  0
ELLIPSE
  5
39B
100
AcDbEntity
  8
218
100
AcDbEllipse
 62
7
  6
CONTINUOUS
 10
13.1829600452
 20
23.1366912257
 30
0.0
 11
-0.3106730325
 21
1.1082908718
 31
0.0
 40
0.6760995073
 41
4.9783291412
 42
6.4001141399
  0
ELLIPSE
  5
39C
100
AcDbEntity
  8
218
100
AcDbEllipse
 62
7
  6
CONTINUOUS
 10
11.5458092913
 20
21.3384426708
 30
0.0
 11
3.3022643479
 21
-0.04629945
 31
0.0
 40
0.4892378494
 41
2.3616770883
 42
5.5059722822
  0
ELLIPSE
  5
39D
100
AcDbEntity
  8
268
100
AcDbEllipse
 62
7
  6
CONTINUOUS
 10
0.1234686348
 20
-24.3352429798
 30
0.0
 11
0.110769438
 21
0.2241226716
 31
0.0
 40
0.6088015717
 41
-4.0304836828
 42
-3.1444065583
  0
ELLIPSE
  5
39E
100
AcDbEntity
  8
268
100
AcDbEllipse
 62
7
  6
CONTINUOUS
 10
-13.2408495296
 20
23.8998916356
 30
0.0
 11
0.110769438
 21
0.2241226716
 31
0.0
 40
0.6088015717
 41
-4.0304836828
 42
-3.144406558
  0
ELLIPSE
  5
39F
100
AcDbEntity
  8
268
100
AcDbEllipse
 62
7
  6
CONTINUOUS
 10
0.1234686348
 20
17.2177325533
 30
0.0
 11
0.110769438
 21
0.2241226716
 31
0.0
 40
0.6088015717
 41
-4.0304836828
 42
-3.144406558
  0
ELLIPSE
  5
3A0
100
AcDbEntity
  8
268
100
AcDbEllipse
 62
7
  6
CONTINUOUS
 10
4.1800765161
 20
15.9260145042
 30
0.0
 11
-0.1565168911
 21
0.3130623908
 31
0.0
 40
0.6123677712
 41
-2.2554744912
 42
-0.6846781644
  0
ELLIPSE
  5
3A1
100
AcDbEntity
  8
268
100
AcDbEllipse
 62
7
  6
CONTINUOUS
 10
4.1800765161
 20
-22.2505673405
 30
0.0
 11
-0.1565168911
 21
0.3130623908
 31
0.0
 40
0.6123677712
 41
-3.1363565269
 42
-2.2554744912
  0
ELLIPSE
  5
3A2
100
AcDbEntity
  8
268
100
AcDbEllipse
 62
7
  6
CONTINUOUS
 10
-1.5865190324
 20
25.0312458094
 30
0.0
 11
0.2999991737
 21
-0.0014183462
 31
0.0
 40
0.4964289597
 41
0.7877451926
 42
2.3527237553
  0
ELLIPSE
  5
3A3
100
AcDbEntity
  8
268
100
AcDbEllipse
 62
7
  6
CONTINUOUS
 10
3.9679444818
 20
22.2540140523
 30
0.0
 11
0.2999991737
 21
-0.0014183462
 31
0.0
 40
0.4964289597
 41
0.7877451926
 42
2.3585415194
  0
ELLIPSE
  5
3A4
100
AcDbEntity
  8
268
100
AcDbEllipse
 62
7
  6
CONTINUOUS
 10
3.5072966173
 20
16.5435855151
 30
0.0
 11
0.110769438
 21
0.2241226716
 31
0.0
 40
0.6088015717
 41
1.2055040732
 42
2.2526937431
  0
ELLIPSE
  5
3A5
100
AcDbEntity
  8
268
100
AcDbEllipse
 62
7
  6
CONTINUOUS
 10
-9.8570215472
 20
23.2257445973
 30
0.0
 11
0.110769438
 21
0.2241226716
 31
0.0
 40
0.6088015717
 41
1.2055040732
 42
2.2526937431
  0
ELLIPSE
  5
3A6
100
AcDbEntity
  8
268
100
AcDbEllipse
 62
7
  6
CONTINUOUS
 10
3.8587930944
 20
17.4713906671
 30
0.0
 11
0.110769438
 21
0.2241226716
 31
0.0
 40
0.6088015717
 41
-1.9360885804
 42
-0.8888910292
  0
ELLIPSE
  5
3A7
100
AcDbEntity
  8
268
100
AcDbEllipse
 62
7
  6
CONTINUOUS
 10
2.238618238
 20
18.5424070717
 30
0.0
 11
0.1128509832
 21
0.2230818409
 31
0.0
 40
0.6159267166
 41
0.0028868672
 42
0.6817883054
  0
ELLIPSE
  5
3A8
100
AcDbEntity
  8
268
100
AcDbEllipse
 62
7
  6
CONTINUOUS
 10
0.1234686348
 20
17.4711039471
 30
0.0
 11
0.110769438
 21
0.2241226716
 31
0.0
 40
0.6088015717
 41
0.6877230618
 42
2.2527016244
  0
ELLIPSE
  5
3A9
100
AcDbEntity
  8
268
100
AcDbEllipse
 62
7
  6
CONTINUOUS
 10
-9.50552507
 20
24.1535497493
 30
0.0
 11
0.110769438
 21
0.2241226716
 31
0.0
 40
0.6088015717
 41
-1.9360885804
 42
-0.8888910292
  0
ELLIPSE
  5
3AA
100
AcDbEntity
  8
268
100
AcDbEllipse
 62
7
  6
CONTINUOUS
 10
-11.1256999264
 20
25.2245661539
 30
0.0
 11
0.1128509832
 21
0.2230818409
 31
0.0
 40
0.6159267166
 41
0.0028868672
 42
0.6817883054
  0
ELLIPSE
  5
3AB
100
AcDbEntity
  8
268
100
AcDbEllipse
 62
7
  6
CONTINUOUS
 10
-13.2408495296
 20
24.1532630293
 30
0.0
 11
0.110769438
 21
0.2241226716
 31
0.0
 40
0.6088015717
 41
0.6877230618
 42
2.2527016244
  0
ELLIPSE
  5
3AC
100
AcDbEntity
  8
268
100
AcDbEllipse
 62
7
  6
CONTINUOUS
 10
3.8587930944
 20
-24.0891424486
 30
0.0
 11
0.110769438
 21
0.2241226716
 31
0.0
 40
0.6088015717
 41
-2.4538695918
 42
-0.8888910292
  0
ELLIPSE
  5
3AD
100
AcDbEntity
  8
268
100
AcDbEllipse
 62
7
  6
CONTINUOUS
 10
0.1234686348
 20
-24.081871586
 30
0.0
 11
0.110769438
 21
0.2241226716
 31
0.0
 40
0.6088015717
 41
1.2055040732
 42
2.2527016244
  0
ELLIPSE
  5
3AE
100
AcDbEntity
  8
268
100
AcDbEllipse
 62
7
  6
CONTINUOUS
 10
3.8587930944
 20
-23.8282134723
 30
0.0
 11
0.110769438
 21
0.2241226716
 31
0.0
 40
0.6088015717
 41
5.394294278
 42
6.4414918292
  0
ELLIPSE
  5
3AF
100
AcDbEntity
  8
268
100
AcDbEllipse
 62
7
  6
CONTINUOUS
 10
-9.50552507
 20
24.4144787257
 30
0.0
 11
0.110769438
 21
0.2241226716
 31
0.0
 40
0.6088015717
 41
5.394294278
 42
6.9592728406
  0
ELLIPSE
  5
3B0
100
AcDbEntity
  8
268
100
AcDbEllipse
 62
7
  6
CONTINUOUS
 10
3.8587930944
 20
17.7323196435
 30
0.0
 11
0.110769438
 21
0.2241226716
 31
0.0
 40
0.6088015717
 41
5.394294278
 42
6.9592728406
  0
ELLIPSE
  5
3B1
100
AcDbEntity
  8
268
100
AcDbEllipse
 62
7
  6
CONTINUOUS
 10
-1.4060670553
 20
23.7091856394
 30
0.0
 11
0.2999981629
 21
-0.0021225547
 31
0.0
 40
0.4946372042
 41
-0.7818985079
 42
0.0034996555
  0
ELLIPSE
  5
3B2
100
AcDbEntity
  8
268
100
AcDbEllipse
 62
7
  6
CONTINUOUS
 10
4.1483964589
 20
20.9319538823
 30
0.0
 11
0.2999981629
 21
-0.0021225547
 31
0.0
 40
0.4946372042
 41
-0.7760807437
 42
0.0034996555
  0
ELLIPSE
  5
3B3
100
AcDbEntity
  8
268
100
AcDbEllipse
 62
7
  6
CONTINUOUS
 10
-7.5550127827
 20
22.1110644415
 30
0.0
 11
0.2999991335
 21
0.0014318851
 31
0.0
 40
0.5035541159
 41
8.6427941204
 42
10.207772683
  0
ELLIPSE
  5
3B4
100
AcDbEntity
  8
268
100
AcDbEllipse
 62
7
  6
CONTINUOUS
 10
1.705202782
 20
-23.4766676737
 30
0.0
 11
-0.1565168911
 21
0.3130623908
 31
0.0
 40
0.6123677712
 41
2.4569144891
 42
4.0277108159
  0
ELLIPSE
  5
3B5
100
AcDbEntity
  8
268
100
AcDbEllipse
 62
7
  6
CONTINUOUS
 10
-13.5683036917
 20
22.3139943402
 30
0.0
 11
-0.1565168911
 21
0.3130623908
 31
0.0
 40
0.6123677712
 41
-0.6846781644
 42
0.8861181623
  0
ELLIPSE
  5
3B6
100
AcDbEntity
  8
268
100
AcDbEllipse
 62
7
  6
CONTINUOUS
 10
1.705202782
 20
14.6772411033
 30
0.0
 11
-0.1565168911
 21
0.3130623908
 31
0.0
 40
0.6123677712
 41
-2.2554744912
 42
-0.6846781644
  0
ELLIPSE
  5
3B7
100
AcDbEntity
  8
268
100
AcDbEllipse
 62
7
  6
CONTINUOUS
 10
0.3186681874
 20
-8.3658621226
 30
0.0
 11
-0.1085782352
 21
0.1690527654
 31
0.0
 40
0.5459771812
 41
-3.2041463442
 42
-2.3138348679
  0
ELLIPSE
  5
3B8
100
AcDbEntity
  8
268
100
AcDbEllipse
 62
7
  6
CONTINUOUS
 10
-1.7625037147
 20
19.2148099074
 30
0.0
 11
0.2999991335
 21
0.0014318851
 31
0.0
 40
0.5035541159
 41
-2.3585979313
 42
-0.7936193687
  0
ELLIPSE
  5
3B9
100
AcDbEntity
  8
268
100
AcDbEllipse
 62
7
  6
CONTINUOUS
 10
-1.7625037147
 20
18.0006108316
 30
0.0
 11
0.2999980272
 21
0.0021530184
 31
0.0
 40
0.5053247124
 41
-2.3598210761
 42
-0.7948425135
  0
ELLIPSE
  5
3BA
100
AcDbEntity
  8
268
100
AcDbEllipse
 62
7
  6
CONTINUOUS
 10
-7.5550127827
 20
20.8968653656
 30
0.0
 11
0.2999980272
 21
0.0021530184
 31
0.0
 40
0.5053247124
 41
3.1379660677
 42
3.9233642311
  0
ELLIPSE
  5
3BB
100
AcDbEntity
  8
268
100
AcDbEllipse
 62
7
  6
CONTINUOUS
 10
4.1483964589
 20
22.1637880637
 30
0.0
 11
0.2999991737
 21
-0.0014183462
 31
0.0
 40
0.4964289597
 41
-0.77723337
 42
0.7877451926
  0
ELLIPSE
  5
3BC
100
AcDbEntity
  8
268
100
AcDbEllipse
 62
7
  6
CONTINUOUS
 10
-1.4060670553
 20
24.9410198208
 30
0.0
 11
0.2999991737
 21
-0.0014183462
 31
0.0
 40
0.4964289597
 41
-0.7830511342
 42
0.7877451926
  0
ELLIPSE
  5
3BD
100
AcDbEntity
  8
268
100
AcDbEllipse
 62
7
  6
CONTINUOUS
 10
3.5072966173
 20
-23.2560186243
 30
0.0
 11
0.110769438
 21
0.2241226716
 31
0.0
 40
0.6088015717
 41
2.2527095058
 42
3.2998991756
  0
ELLIPSE
  5
3BE
100
AcDbEntity
  8
268
100
AcDbEllipse
 62
7
  6
CONTINUOUS
 10
1.7313020105
 20
16.6671872593
 30
0.0
 11
0.1128509832
 21
0.2230818409
 31
0.0
 40
0.6159267166
 41
0.6934238338
 42
2.2584023964
  0
ELLIPSE
  5
3BF
100
AcDbEntity
  8
268
100
AcDbEllipse
 62
7
  6
CONTINUOUS
 10
1.7313020105
 20
16.4138158655
 30
0.0
 11
0.1128509832
 21
0.2230818409
 31
0.0
 40
0.6159267166
 41
-4.0247829108
 42
-2.9775853596
  0
ELLIPSE
  5
3C0
100
AcDbEntity
  8
268
100
AcDbEllipse
 62
7
  6
CONTINUOUS
 10
-11.633016154
 20
23.3493463415
 30
0.0
 11
0.1128509832
 21
0.2230818409
 31
0.0
 40
0.6159267166
 41
0.6934238338
 42
2.2584023964
  0
ELLIPSE
  5
3C1
100
AcDbEntity
  8
268
100
AcDbEllipse
 62
7
  6
CONTINUOUS
 10
-11.633016154
 20
23.0959749477
 30
0.0
 11
0.1128509832
 21
0.2230818409
 31
0.0
 40
0.6159267166
 41
-4.0247829108
 42
-2.9775853596
  0
ELLIPSE
  5
3C2
100
AcDbEntity
  8
268
100
AcDbEllipse
 62
7
  6
CONTINUOUS
 10
0.0529964758
 20
-18.0350133069
 30
0.0
 11
-0.542618321
 21
0.8478124368
 31
0.0
 40
0.5451249042
 41
-3.2164266024
 42
-2.3115524019
  0
ELLIPSE
  5
3C3
100
AcDbEntity
  8
268
100
AcDbEllipse
 62
7
  6
CONTINUOUS
 10
1.7313020105
 20
-25.1391596676
 30
0.0
 11
0.1128509832
 21
0.2230818409
 31
0.0
 40
0.6159267166
 41
-4.0247829108
 42
-2.4598043482
  0
ELLIPSE
  5
3C4
100
AcDbEntity
  8
268
100
AcDbEllipse
 62
7
  6
CONTINUOUS
 10
1.7313020105
 20
-24.8857882739
 30
0.0
 11
0.1128509832
 21
0.2230818409
 31
0.0
 40
0.6159267166
 41
1.2112048452
 42
2.2584023964
  0
ENDSEC
  0
SECTION
  2
OBJECTS
  0
DICTIONARY
  5
C
100
AcDbDictionary
280
0
281
1
  3
ACAD_GROUP
350
D
  3
ACAD_MLINESTYLE
350
17
  3
ACAD_LAYOUT
350
1A
  3
ACAD_PLOTSETTINGS
350
19
  3
ACAD_PLOTSTYLENAME
350
E
  0
DICTIONARY
  5
D
102
{ACAD_REACTORS
330
C
102
}
100
AcDbDictionary
280
0
281
1
  0
ACDBDICTIONARYWDFLT
  5
E
102
{ACAD_REACTORS
330
C
102
}
100
AcDbDictionary
281
1
  3
Normal
350
F
100
AcDbDictionaryWithDefault
340
F
  0
DICTIONARY
  5
17
102
{ACAD_REACTORS
330
C
102
}
100
AcDbDictionary
280
0
281
1
  3
Standard
350
18
  0
DICTIONARY
  5
19
102
{ACAD_REACTORS
330
C
102
}
100
AcDbDictionary
281
1
  0
DICTIONARY
  5
1A
102
{ACAD_REACTORS
330
C
102
}
100
AcDbDictionary
281
1
  3
Model
350
3C5
  3
Layout1
350
3C6
  0
ACDBPLACEHOLDER
  5
F
102
{ACAD_REACTORS
330
E
102
}
  0
MLINESTYLE
  5
18
102
{ACAD_REACTORS
330
17
102
}
100
AcDbMlineStyle
  2
STANDARD
 70
0
  3

 62
256
 51
90.0
 52
90.0
 71
2
 49
0.5
 62
256
  6
BYLAYER
 49
-0.5
 62
256
  6
BYLAYER
  0
LAYOUT
  5
3C5
102
{ACAD_REACTORS
330
1A
102
}
100
AcDbPlotSettings
  1

  2
none_device
  4
ISO_A4_(297.00_x_210.00_MM)
  6

 40
0.0
 41
0.0
 42
0.0
 43
0.0
 44
297.0
 45
210.0
 46
0.0
 47
0.0
 48
0.0
 49
0.0
140
0.0
141
0.0
142
1.0
143
1.0
 70
1024
 72
1
 73
0
 74
0
  7

 75
0
147
1.0
148
0.0
149
0.0
100
AcDbLayout
  1
Model
 70
0
 71
0
 10
0.0
 20
0.0
 11
297.0
 21
210.0
 12
0.0
 22
0.0
 32
0.0
 14
0.0
 24
0.0
 34
0.0
 15
0.0
 25
0.0
 35
0.0
146
0.0
 13
0.0
 23
0.0
 33
0.0
 16
1.0
 26
0.0
 36
0.0
 17
0.0
 27
1.0
 37
0.0
 76
0
330
228
345
0
346
0
  0
LAYOUT
  5
3C6
102
{ACAD_REACTORS
330
1A
102
}
100
AcDbPlotSettings
  1

  2
none_device
  4
ISO_A4_(297.00_x_210.00_MM)
  6

 40
0.0
 41
0.0
 42
0.0
 43
0.0
 44
297.0
 45
210.0
 46
0.0
 47
0.0
 48
0.0
 49
0.0
140
0.0
141
0.0
142
1.0
143
1.0
 70
0
 72
1
 73
0
 74
0
  7

 75
0
147
1.0
148
0.0
149
0.0
100
AcDbLayout
  1
Layout1
 70
0
 71
1
 10
0.0
 20
0.0
 11
297.0
 21
210.0
 12
0.0
 22
0.0
 32
0.0
 14
0.0
 24
0.0
 34
0.0
 15
0.0
 25
0.0
 35
0.0
146
0.0
 13
0.0
 23
0.0
 33
0.0
 16
1.0
 26
0.0
 36
0.0
 17
0.0
 27
1.0
 37
0.0
 76
0
330
229
345
0
346
0
  0
ENDSEC
  0
EOF
