  0
SECTION
  2
HEADER
  9
$ACADVER
  1
AC1015
  9
$DWGCODEPAGE
  3
ANSI_1252
  9
$EXTMAX
 10
297.0
 20
210.0
 30
0.0
  9
$EXTMIN
 10
0.0
 20
0.0
 30
0.0
  9
$LIMMIN
 10
0.0
 20
0.0
  9
$LIMMAX
 10
297.0
 20
210.0
  9
$VIEWCTR
 10
148.5
 20
105.0
  9
$VIEWSIZE
 40
210.0
  9
$CLAYER
  8
0
  9
$LTSCALE
 40
16.335
  9
$CELTYPE
  6
BYLAYER
  9
$DIMSCALE
 40
1.0
  9
$DIMASZ
 40
3.0
  9
$DIMEXO
 40
0.5
  9
$DIMDLI
 40
11.286
  9
$DIMEXE
 40
1.5
  9
$DIMCEN
 40
2.673
  9
$DIMLFAC
 40
1.0
  9
$DIMBLK
  1
_FILLED
  9
$DIMTXT
 40
3.0
  9
$DIMTOL
 70
1
  9
$DIMLIM
 70
0
  9
$DIMTFAC
 40
1.0
  9
$DIMTP
 40
0.01
  9
$DIMTM
 40
0.01
  9
$DIMGAP
 40
0.625
  9
$DIMDSEP
 70
44
  9
$PDMODE
 70
3
  9
$PDSIZE
 40
3.0
  9
$HANDSEED
  5
503
  9
$TILEMODE
 70
1
  9
$MEASUREMENT
 70
1
  9
$INSUNITS
 70
4
  0
ENDSEC
  0
SECTION
  2
CLASSES
  0
CLASS
  1
ACDBDICTIONARYWDFLT
  2
AcDbDictionaryWithDefault
  3
AutoCAD 2000
 90
0
280
0
281
0
  0
CLASS
  1
ACDBPLACEHOLDER
  2
AcDbPlaceHolder
  3
AutoCAD 2000
 90
0
280
0
281
0
  0
CLASS
  1
LAYOUT
  2
AcDbLayout
  3
AutoCAD 2000
 90
0
280
0
281
0
  0
ENDSEC
  0
SECTION
  2
TABLES
  0
TABLE
  2
VPORT
  5
8
100
AcDbSymbolTable
 70
2
  0
VPORT
  5
1F4
100
AcDbSymbolTableRecord
100
AcDbViewportTableRecord
  2
*ACTIVE
 70
0
 10
0.0
 20
0.0
 11
1.0
 21
1.0
 12
148.5
 22
105.0
 13
0.0
 23
0.0
 14
1.0
 24
1.0
 15
0.0
 25
0.0
 16
0.0
 26
0.0
 36
1.0
 17
0.0
 27
0.0
 37
0.0
 40
210.0
 41
1.4142857143
 42
50.0
 43
0.0
 44
0.0
 50
0.0
 51
0.0
 71
0
 72
100
 73
1
 74
1
 75
0
 76
0
 77
0
 78
0
  0
ENDTAB
  0
TABLE
  2
LTYPE
  5
5
100
AcDbSymbolTable
 70
6
  0
LTYPE
  5
14
100
AcDbSymbolTableRecord
100
AcDbLinetypeTableRecord
  2
BYBLOCK
 70
0
  3

 72
65
 73
0
 40
0.0
  0
LTYPE
  5
15
100
AcDbSymbolTableRecord
100
AcDbLinetypeTableRecord
  2
BYLAYER
 70
0
  3

 72
65
 73
0
 40
0.0
  0
LTYPE
  5
16
100
AcDbSymbolTableRecord
100
AcDbLinetypeTableRecord
  2
CONTINUOUS
 70
64
  3
Solid line
 72
65
 73
0
 40
0.0
  0
LTYPE
  5
1F5
100
AcDbSymbolTableRecord
100
AcDbLinetypeTableRecord
  2
CENTER
 70
64
  3
____ _ ____ _ ____ _ ____ _ ____ _ ____ _ ____
 72
65
 73
4
 40
0.6
 49
0.375
 74
0
 49
-0.075
 74
0
 49
0.075
 74
0
 49
-0.075
 74
0
  0
LTYPE
  5
1F6
100
AcDbSymbolTableRecord
100
AcDbLinetypeTableRecord
  2
HIDDEN
 70
64
  3
- - - - - - - - - - - - - - - - - - - -
 72
65
 73
2
 40
0.2
 49
0.1
 74
0
 49
-0.1
 74
0
  0
LTYPE
  5
1F7
100
AcDbSymbolTableRecord
100
AcDbLinetypeTableRecord
  2
PHANTOM
 70
64
  3
_____ _ _ _____ _ _ _____ _ _ _____
 72
65
 73
6
 40
0.8
 49
0.45
 74
0
 49
-0.05
 74
0
 49
0.1
 74
0
 49
-0.05
 74
0
 49
0.1
 74
0
 49
-0.05
 74
0
  0
LTYPE
  5
1F8
100
AcDbSymbolTableRecord
100
AcDbLinetypeTableRecord
  2
DOT
 70
64
  3
. . . . . . . . . . . . . . . . . . . .
 72
65
 73
2
 40
0.2
 49
0.1
 74
0
 49
-0.1
 74
0
  0
LTYPE
  5
1F9
100
AcDbSymbolTableRecord
100
AcDbLinetypeTableRecord
  2
DASHED
 70
64
  3
- - - - - - - - - - - - - - - - - - - -
 72
65
 73
2
 40
0.2
 49
0.1
 74
0
 49
-0.1
 74
0
  0
ENDTAB
  0
TABLE
  2
LAYER
  5
2
100
AcDbSymbolTable
 70
36
  0
LAYER
  5
10
100
AcDbSymbolTableRecord
100
AcDbLayerTableRecord
  2
0
 70
0
 62
7
  6
CONTINUOUS
370
-3
390
F
  0
LAYER
  5
1FA
100
AcDbSymbolTableRecord
100
AcDbLayerTableRecord
  2
DEFAULT_1
 70
0
 62
7
  6
CENTER
370
-3
390
F
  0
LAYER
  5
1FB
100
AcDbSymbolTableRecord
100
AcDbLayerTableRecord
  2
DEFAULT_2
 70
0
 62
7
  6
HIDDEN
370
-3
390
F
  0
LAYER
  5
1FC
100
AcDbSymbolTableRecord
100
AcDbLayerTableRecord
  2
DEFAULT_3
 70
0
 62
7
  6
PHANTOM
370
-3
390
F
  0
LAYER
  5
1FD
100
AcDbSymbolTableRecord
100
AcDbLayerTableRecord
  2
218
 70
0
 62
7
  6
CONTINUOUS
370
-3
390
F
  0
LAYER
  5
1FE
100
AcDbSymbolTableRecord
100
AcDbLayerTableRecord
  2
260
 70
0
 62
7
  6
CONTINUOUS
370
-3
390
F
  0
LAYER
  5
1FF
100
AcDbSymbolTableRecord
100
AcDbLayerTableRecord
  2
268
 70
0
 62
7
  6
CONTINUOUS
370
-3
390
F
  0
LAYER
  5
200
100
AcDbSymbolTableRecord
100
AcDbLayerTableRecord
  2
284
 70
0
 62
7
  6
CONTINUOUS
370
-3
390
F
  0
LAYER
  5
201
100
AcDbSymbolTableRecord
100
AcDbLayerTableRecord
  2
320
 70
0
 62
7
  6
CONTINUOUS
370
-3
390
F
  0
LAYER
  5
202
100
AcDbSymbolTableRecord
100
AcDbLayerTableRecord
  2
340
 70
0
 62
7
  6
CONTINUOUS
370
-3
390
F
  0
LAYER
  5
203
100
AcDbSymbolTableRecord
100
AcDbLayerTableRecord
  2
712
 70
0
 62
7
  6
CONTINUOUS
370
-3
390
F
  0
LAYER
  5
204
100
AcDbSymbolTableRecord
100
AcDbLayerTableRecord
  2
715
 70
0
 62
7
  6
CONTINUOUS
370
-3
390
F
  0
LAYER
  5
205
100
AcDbSymbolTableRecord
100
AcDbLayerTableRecord
  2
ASSI
 70
0
 62
7
  6
CONTINUOUS
370
-3
390
F
  0
LAYER
  5
206
100
AcDbSymbolTableRecord
100
AcDbLayerTableRecord
  2
COLORE_SERIE
 70
0
 62
7
  6
CONTINUOUS
370
-3
390
F
  0
LAYER
  5
207
100
AcDbSymbolTableRecord
100
AcDbLayerTableRecord
  2
COLORE_TOP
 70
0
 62
7
  6
CONTINUOUS
370
-3
390
F
  0
LAYER
  5
208
100
AcDbSymbolTableRecord
100
AcDbLayerTableRecord
  2
COORDINATE
 70
0
 62
7
  6
CONTINUOUS
370
-3
390
F
  0
LAYER
  5
209
100
AcDbSymbolTableRecord
100
AcDbLayerTableRecord
  2
COORD_ORIGINE
 70
0
 62
7
  6
CONTINUOUS
370
-3
390
F
  0
LAYER
  5
20A
100
AcDbSymbolTableRecord
100
AcDbLayerTableRecord
  2
COPY_PUBLISH
 70
0
 62
7
  6
CONTINUOUS
370
-3
390
F
  0
LAYER
  5
20B
100
AcDbSymbolTableRecord
100
AcDbLayerTableRecord
  2
COSMETIC
 70
0
 62
7
  6
CONTINUOUS
370
-3
390
F
  0
LAYER
  5
20C
100
AcDbSymbolTableRecord
100
AcDbLayerTableRecord
  2
COSMETICI
 70
0
 62
7
  6
CONTINUOUS
370
-3
390
F
  0
LAYER
  5
20D
100
AcDbSymbolTableRecord
100
AcDbLayerTableRecord
  2
CURVE
 70
0
 62
7
  6
CONTINUOUS
370
-3
390
F
  0
LAYER
  5
20E
100
AcDbSymbolTableRecord
100
AcDbLayerTableRecord
  2
DRAFT
 70
0
 62
7
  6
CONTINUOUS
370
-3
390
F
  0
LAYER
  5
20F
100
AcDbSymbolTableRecord
100
AcDbLayerTableRecord
  2
IMPORT
 70
0
 62
7
  6
CONTINUOUS
370
-3
390
F
  0
LAYER
  5
210
100
AcDbSymbolTableRecord
100
AcDbLayerTableRecord
  2
IMPORTED
 70
0
 62
7
  6
CONTINUOUS
370
-3
390
F
  0
LAYER
  5
211
100
AcDbSymbolTableRecord
100
AcDbLayerTableRecord
  2
IMPORT_IGES
 70
0
 62
7
  6
CONTINUOUS
370
-3
390
F
  0
LAYER
  5
212
100
AcDbSymbolTableRecord
100
AcDbLayerTableRecord
  2
INTF_1
 70
0
 62
7
  6
CONTINUOUS
370
-3
390
F
  0
LAYER
  5
213
100
AcDbSymbolTableRecord
100
AcDbLayerTableRecord
  2
NOTE
 70
0
 62
7
  6
CONTINUOUS
370
-3
390
F
  0
LAYER
  5
214
100
AcDbSymbolTableRecord
100
AcDbLayerTableRecord
  2
PIANI
 70
0
 62
7
  6
CONTINUOUS
370
-3
390
F
  0
LAYER
  5
215
100
AcDbSymbolTableRecord
100
AcDbLayerTableRecord
  2
PIANI_DI_RIFERIMENTO
 70
0
 62
7
  6
CONTINUOUS
370
-3
390
F
  0
LAYER
  5
216
100
AcDbSymbolTableRecord
100
AcDbLayerTableRecord
  2
PIANI_ORIGINE
 70
0
 62
7
  6
CONTINUOUS
370
-3
390
F
  0
LAYER
  5
217
100
AcDbSymbolTableRecord
100
AcDbLayerTableRecord
  2
PIANI_RIFERIMENTO
 70
0
 62
7
  6
CONTINUOUS
370
-3
390
F
  0
LAYER
  5
218
100
AcDbSymbolTableRecord
100
AcDbLayerTableRecord
  2
PIANI_SFORMO
 70
0
 62
7
  6
CONTINUOUS
370
-3
390
F
  0
LAYER
  5
219
100
AcDbSymbolTableRecord
100
AcDbLayerTableRecord
  2
PUNTI
 70
0
 62
7
  6
CONTINUOUS
370
-3
390
F
  0
LAYER
  5
21A
100
AcDbSymbolTableRecord
100
AcDbLayerTableRecord
  2
RACCORDO
 70
0
 62
7
  6
CONTINUOUS
370
-3
390
F
  0
LAYER
  5
21B
100
AcDbSymbolTableRecord
100
AcDbLayerTableRecord
  2
SIMBOLI
 70
0
 62
7
  6
CONTINUOUS
370
-3
390
F
  0
LAYER
  5
21C
100
AcDbSymbolTableRecord
100
AcDbLayerTableRecord
  2
SMUSSO
 70
0
 62
7
  6
CONTINUOUS
370
-3
390
F
  0
LAYER
  5
21D
100
AcDbSymbolTableRecord
100
AcDbLayerTableRecord
  2
SNAPLINE
 70
0
 62
7
  6
CONTINUOUS
370
-3
390
F
  0
LAYER
  5
21E
100
AcDbSymbolTableRecord
100
AcDbLayerTableRecord
  2
SUPERFICI
 70
0
 62
7
  6
CONTINUOUS
370
-3
390
F
  0
LAYER
  5
21F
100
AcDbSymbolTableRecord
100
AcDbLayerTableRecord
  2
TRASH
 70
0
 62
7
  6
CONTINUOUS
370
-3
390
F
  0
LAYER
  5
220
100
AcDbSymbolTableRecord
100
AcDbLayerTableRecord
  2
WHITE
 70
0
 62
7
  6
CONTINUOUS
370
-3
390
F
  0
LAYER
  5
221
100
AcDbSymbolTableRecord
100
AcDbLayerTableRecord
  2
XSEC_DATUMS
 70
0
 62
7
  6
CONTINUOUS
370
-3
390
F
  0
ENDTAB
  0
TABLE
  2
STYLE
  5
3
100
AcDbSymbolTable
 70
1
  0
STYLE
  5
11
100
AcDbSymbolTableRecord
100
AcDbTextStyleTableRecord
  2
STANDARD
 70
0
 40
0.0
 41
0.8
 50
0.0
 71
0
 42
0.2
  3
txt
  4

  0
STYLE
  5
222
100
AcDbSymbolTableRecord
100
AcDbTextStyleTableRecord
  2
TEXTSTYLE_1
 70
0
 40
0.0
 41
0.8
 50
0.0
 71
0
 42
0.2
  3
gdt
  4

  0
ENDTAB
  0
TABLE
  2
VIEW
  5
6
100
AcDbSymbolTable
 70
0
  0
ENDTAB
  0
TABLE
  2
UCS
  5
7
100
AcDbSymbolTable
 70
0
  0
ENDTAB
  0
TABLE
  2
APPID
  5
9
100
AcDbSymbolTable
 70
1
  0
APPID
  5
223
100
AcDbSymbolTableRecord
100
AcDbRegAppTableRecord
  2
ACAD
 70
0
  0
ENDTAB
  0
TABLE
  2
BLOCK_RECORD
  5
1
100
AcDbSymbolTable
 70
0
  0
BLOCK_RECORD
  5
224
100
AcDbSymbolTableRecord
100
AcDbBlockTableRecord
  2
*Model_Space
  0
BLOCK_RECORD
  5
225
100
AcDbSymbolTableRecord
100
AcDbBlockTableRecord
  2
*Paper_Space
  0
ENDTAB
  0
TABLE
  2
DIMSTYLE
  5
A
100
AcDbSymbolTable
 70
1
100
AcDbDimStyleTable
 71
0
  0
DIMSTYLE
105
226
100
AcDbSymbolTableRecord
100
AcDbDimStyleTableRecord
  2
STANDARD
 70
0
  3

  4

 40
1.0
 41
3.0
 42
0.5
 43
0.38
 44
1.5
 45
0.0
 46
0.0
 47
0.01
 48
0.01
140
3.0
141
0.09
142
0.0
143
25.4
144
1.0
145
0.0
146
1.0
147
0.625
 71
1.0
 72
0.0
 73
0
 74
0
 75
0
 76
0
 77
1
 78
8
170
0
171
2
172
0
173
0
174
0
175
0
176
0
177
0
178
0
270
2
271
2
272
2
273
2
274
2
275
0
280
0
281
0
282
0
283
1
284
8
285
0
286
0
287
3
288
0
340
11
278
44
  0
ENDTAB
  0
ENDSEC
  0
SECTION
  2
BLOCKS
  0
BLOCK
  5
20
100
AcDbEntity
  8
0
100
AcDbBlockBegin
  2
*Model_Space
 70
0
 10
0.0
 20
0.0
 30
0.0
  3
*Model_Space
  1

  0
ENDBLK
  5
21
100
AcDbEntity
  8
0
100
AcDbBlockEnd
  0
BLOCK
  5
1C
100
AcDbEntity
  8
0
100
AcDbBlockBegin
  2
*Paper_Space
 70
0
 10
0.0
 20
0.0
 30
0.0
  3
*Paper_Space
  1

  0
ENDBLK
  5
1D
100
AcDbEntity
  8
0
100
AcDbBlockEnd
  0
ENDSEC
  0
SECTION
  2
ENTITIES
  0
LINE
  5
227
100
AcDbEntity
  8
268
100
AcDbLine
 62
7
  6
CONTINUOUS
 10
116.7744284962
 20
137.2153914239
 11
118.3571850994
 21
138.0273755212
  0
LINE
  5
228
100
AcDbEntity
  8
268
100
AcDbLine
 62
7
  6
CONTINUOUS
 10
118.3571850994
 20
138.0273755212
 11
118.891634978
 21
138.2877229878
  0
LWPOLYLINE
  5
229
100
AcDbEntity
  8
RACCORDO
100
AcDbPolyline
 62
253
  6
CONTINUOUS
 90
14
 70
0
 10
109.6178977536
 20
94.082245191
 10
109.5629948527
 20
94.1148873165
 10
109.5116998235
 20
94.1539855107
 10
109.4642563003
 20
94.1993470996
 10
109.4208754194
 20
94.2507670401
 10
109.3817686105
 20
94.3080051153
 10
109.3471440437
 20
94.3707696938
 10
109.3171770394
 20
94.4387381187
 10
109.292018899
 20
94.5115628626
 10
109.271791562
 20
94.5888896736
 10
109.2565888436
 20
94.6703480023
 10
109.2464861008
 20
94.7555397705
 10
109.2415376185
 20
94.8440394643
 10
109.2417694619
 20
94.9354095863
  0
LINE
  5
22A
100
AcDbEntity
  8
268
100
AcDbLine
 62
7
  6
CONTINUOUS
 10
116.2904733839
 20
135.4726910219
 11
117.3026956679
 21
135.9896209845
  0
LINE
  5
22B
100
AcDbEntity
  8
268
100
AcDbLine
 62
253
  6
CONTINUOUS
 10
116.4479967902
 20
135.4632576923
 11
117.3026956679
 21
135.8997423123
  0
LINE
  5
22C
100
AcDbEntity
  8
268
100
AcDbLine
 62
7
  6
CONTINUOUS
 10
118.3822499053
 20
136.4114807194
 11
119.9835306961
 21
137.2142027229
  0
LINE
  5
22D
100
AcDbEntity
  8
268
100
AcDbLine
 62
7
  6
CONTINUOUS
 10
119.9835306961
 20
137.2142027229
 11
120.5117978678
 21
137.4776415429
  0
LWPOLYLINE
  5
22E
100
AcDbEntity
  8
RACCORDO
100
AcDbPolyline
 62
7
  6
CONTINUOUS
 90
19
 70
0
 10
112.9991157878
 20
133.0712682346
 10
112.9819668975
 20
133.0637775597
 10
112.8910462631
 20
133.0190382614
 10
112.8028295237
 20
132.9671299377
 10
112.7172904453
 20
132.908119577
 10
112.6347848207
 20
132.842330384
 10
112.5560316124
 20
132.7704531658
 10
112.4809926
 20
132.6925830393
 10
112.4098278431
 20
132.6089239483
 10
112.3434202755
 20
132.520562966
 10
112.2817952558
 20
132.4276805636
 10
112.2250965038
 20
132.3304495459
 10
112.1741330264
 20
132.2302919791
 10
112.1289645655
 20
132.1274634484
 10
112.0897275866
 20
132.0221287008
 10
112.0569690466
 20
131.915734785
 10
112.0308395894
 20
131.8088627854
 10
112.0113154703
 20
131.7012952758
 10
112.006922224
 20
131.6700599017
  0
LINE
  5
22F
100
AcDbEntity
  8
RACCORDO
100
AcDbLine
 62
7
  6
CONTINUOUS
 10
112.9991112239
 20
133.0712789006
 11
116.9565971246
 21
134.7649927173
  0
LINE
  5
230
100
AcDbEntity
  8
RACCORDO
100
AcDbLine
 62
253
  6
CONTINUOUS
 10
113.3583788779
 20
133.0487315634
 11
117.2720731915
 21
134.7237035531
  0
LWPOLYLINE
  5
231
100
AcDbEntity
  8
RACCORDO
100
AcDbPolyline
 62
253
  6
CONTINUOUS
 90
8
 70
0
 10
112.9992295268
 20
133.071329557
 10
113.0089765159
 20
133.0753306718
 10
113.0624280526
 20
133.0916457537
 10
113.1186334152
 20
133.0996874545
 10
113.1769773425
 20
133.0993677446
 10
113.2368211634
 20
133.0906901235
 10
113.2975097878
 20
133.0737495823
 10
113.3583788779
 20
133.0487315634
  0
LWPOLYLINE
  5
232
100
AcDbEntity
  8
268
100
AcDbPolyline
 62
7
  6
CONTINUOUS
 90
3
 70
0
 10
127.9661043315
 20
138.7025628111
 10
127.9535393117
 20
138.6978637603
 10
127.9476565931
 20
138.6951054684
  0
LWPOLYLINE
  5
233
100
AcDbEntity
  8
268
100
AcDbPolyline
 62
7
  6
CONTINUOUS
 90
10
 70
0
 10
127.9661043315
 20
138.7025628111
 10
127.9753439523
 20
138.70530861
 10
127.9839071061
 20
138.7075743285
 10
127.991793793
 20
138.7093599666
 10
127.9990431513
 20
138.7106863712
 10
128.0056160427
 20
138.7115326953
 10
128.0113950521
 20
138.7118363981
 10
128.0163760092
 20
138.7115970623
 10
128.0205630844
 20
138.7108151051
 10
128.0231527655
 20
138.7098186719
  0
LWPOLYLINE
  5
234
100
AcDbEntity
  8
RACCORDO
100
AcDbPolyline
 62
7
  6
CONTINUOUS
 90
12
 70
0
 10
123.9643331305
 20
86.9089759677
 10
123.9902035993
 20
86.8964424604
 10
124.0720750557
 20
86.8621422962
 10
124.1569956409
 20
86.8345181704
 10
124.2445230482
 20
86.8138281654
 10
124.3344506346
 20
86.8002554138
 10
124.4262414371
 20
86.794024757
 10
124.5192948551
 20
86.7953061501
 10
124.6134078365
 20
86.8042555162
 10
124.7081835238
 20
86.82101525
 10
124.8029387926
 20
86.8456143746
 10
124.8195832445
 20
86.8507592551
  0
LINE
  5
235
100
AcDbEntity
  8
RACCORDO
100
AcDbLine
 62
7
  6
CONTINUOUS
 10
123.9652284702
 20
86.9085139909
 11
109.6250187079
 21
94.0786188721
  0
LINE
  5
236
100
AcDbEntity
  8
RACCORDO
100
AcDbLine
 62
253
  6
CONTINUOUS
 10
123.5702497965
 20
87.771169419
 11
109.2417694619
 21
94.9354095863
  0
LINE
  5
237
100
AcDbEntity
  8
RACCORDO
100
AcDbLine
 62
253
  6
CONTINUOUS
 10
109.6250503635
 20
94.0786030443
 11
109.6178977536
 21
94.082245191
  0
LWPOLYLINE
  5
238
100
AcDbEntity
  8
RACCORDO
100
AcDbPolyline
 62
253
  6
CONTINUOUS
 90
9
 70
0
 10
109.00745155
 20
95.2172055971
 10
109.0090497396
 20
95.186849437
 10
109.0186053077
 20
95.1475017299
 10
109.0365147841
 20
95.1086300715
 10
109.0625884146
 20
95.0706463144
 10
109.0965499441
 20
95.0339529034
 10
109.1380395439
 20
94.998938612
 10
109.1866176238
 20
94.9659744233
 10
109.2417694899
 20
94.935409599
  0
LINE
  5
239
100
AcDbEntity
  8
268
100
AcDbLine
 62
7
  6
CONTINUOUS
 10
120.5986495311
 20
136.8566439563
 11
120.0714048154
 21
136.2149362282
  0
LWPOLYLINE
  5
23A
100
AcDbEntity
  8
268
100
AcDbPolyline
 62
7
  6
CONTINUOUS
 90
12
 70
0
 10
127.9476565931
 20
138.6951054684
 10
127.9413698016
 20
138.6917490948
 10
127.9295153751
 20
138.6842448216
 10
127.9178601951
 20
138.6753723103
 10
127.9063646002
 20
138.6651871998
 10
127.8950733025
 20
138.6537561274
 10
127.8839282361
 20
138.6411091013
 10
127.8728613567
 20
138.6272795651
 10
127.8619152376
 20
138.6123100663
 10
127.8510679364
 20
138.5962271391
 10
127.8402295077
 20
138.5790588848
 10
127.8293451397
 20
138.5608402533
  0
LINE
  5
23B
100
AcDbEntity
  8
268
100
AcDbLine
 62
7
  6
CONTINUOUS
 10
122.2479251275
 20
135.0626457254
 11
122.7412471427
 21
135.3157292573
  0
LINE
  5
23C
100
AcDbEntity
  8
268
100
AcDbLine
 62
7
  6
CONTINUOUS
 10
119.9835306961
 20
135.4821519153
 11
118.9166997839
 21
134.9435706658
  0
LINE
  5
23D
100
AcDbEntity
  8
268
100
AcDbLine
 62
7
  6
CONTINUOUS
 10
121.4393116726
 20
135.453810519
 11
127.9473482993
 21
138.6949521246
  0
LINE
  5
23E
100
AcDbEntity
  8
268
100
AcDbLine
 62
253
  6
CONTINUOUS
 10
121.5148048131
 20
135.4160639488
 11
127.8293451397
 21
138.5608402533
  0
LINE
  5
23F
100
AcDbEntity
  8
268
100
AcDbLine
 62
7
  6
CONTINUOUS
 10
128.8223654609
 20
137.6810967226
 11
124.084750027
 21
135.3460462079
  0
LINE
  5
240
100
AcDbEntity
  8
268
100
AcDbLine
 62
7
  6
CONTINUOUS
 10
122.7412471427
 20
135.3157292573
 11
128.2188871322
 21
137.9840612205
  0
LINE
  5
241
100
AcDbEntity
  8
268
100
AcDbLine
 62
7
  6
CONTINUOUS
 10
133.4357229798
 20
89.3581730066
 11
133.9629676955
 21
89.2498807347
  0
LINE
  5
242
100
AcDbEntity
  8
268
100
AcDbLine
 62
7
  6
CONTINUOUS
 10
130.0286143569
 20
88.2869688218
 11
131.6351504543
 21
87.4837007731
  0
LINE
  5
243
100
AcDbEntity
  8
268
100
AcDbLine
 62
253
  6
CONTINUOUS
 10
129.9640208781
 20
88.4219973631
 11
131.5697973403
 21
87.619109132
  0
LWPOLYLINE
  5
244
100
AcDbEntity
  8
RACCORDO
100
AcDbPolyline
 62
7
  6
CONTINUOUS
 90
15
 70
0
 10
109.0074608589
 20
95.2172053147
 10
109.0067000527
 20
95.1662835947
 10
109.0114887582
 20
95.0471600685
 10
109.0254020792
 20
94.932137322
 10
109.0482243273
 20
94.8213255448
 10
109.079707704
 20
94.7152052821
 10
109.1193159125
 20
94.6148565766
 10
109.1662874909
 20
94.5211331158
 10
109.2202009731
 20
94.4340022
 10
109.2807411555
 20
94.3534747216
 10
109.3470499293
 20
94.2802078813
 10
109.4185528083
 20
94.2143459962
 10
109.4954866764
 20
94.1554796057
 10
109.5775517294
 20
94.1039060838
 10
109.6260566412
 20
94.0781152252
  0
LINE
  5
245
100
AcDbEntity
  8
RACCORDO
100
AcDbLine
 62
7
  6
CONTINUOUS
 10
109.0074574103
 20
95.2173965
 11
109.00745155
 21
95.2172055971
  0
LWPOLYLINE
  5
246
100
AcDbEntity
  8
RACCORDO
100
AcDbPolyline
 62
253
  6
CONTINUOUS
 90
13
 70
0
 10
109.2417694619
 20
94.9354095863
 10
109.3477147624
 20
97.9143057706
 10
109.4799484584
 20
100.9054538393
 10
109.6384541048
 20
103.9084725222
 10
109.8232119523
 20
106.9229789772
 10
110.0341985519
 20
109.9485891527
 10
110.2713867611
 20
112.9849178373
 10
110.5347461381
 20
116.0315783206
 10
110.8242433559
 20
119.0881823518
 10
111.1398418146
 20
122.1543405035
 10
111.481501225
 20
125.2296622367
 10
111.8491776103
 20
128.3137559492
 10
112.2428237275
 20
131.4062289364
  0
LWPOLYLINE
  5
247
100
AcDbEntity
  8
RACCORDO
100
AcDbPolyline
 62
253
  6
CONTINUOUS
 90
10
 70
0
 10
112.006922224
 20
131.6700599017
 10
112.0062905722
 20
131.664033463
 10
112.0079817608
 20
131.6317997765
 10
112.0180657598
 20
131.5988689083
 10
112.0364357281
 20
131.5655897638
 10
112.0628970344
 20
131.5323149385
 10
112.0971693188
 20
131.4993969823
 10
112.1388894635
 20
131.4671846638
 10
112.1876154398
 20
131.4360192755
 10
112.2428309919
 20
131.4062310173
  0
LWPOLYLINE
  5
248
100
AcDbEntity
  8
RACCORDO
100
AcDbPolyline
 62
7
  6
CONTINUOUS
 90
13
 70
0
 10
112.0069281876
 20
131.6701495948
 10
111.6204382588
 20
128.6355428798
 10
111.2511650472
 20
125.5413815385
 10
110.9080799114
 20
122.4559681067
 10
110.5912355736
 20
119.3797440702
 10
110.3006708762
 20
116.3130972414
 10
110.0364208254
 20
113.2563945056
 10
109.7985207565
 20
110.210017303
 10
109.5870006676
 20
107.174345096
 10
109.401888394
 20
104.1497419904
 10
109.2432112644
 20
101.1365909539
 10
109.1109909312
 20
98.1353209725
 10
109.0074574103
 20
95.2173965
  0
LWPOLYLINE
  5
249
100
AcDbEntity
  8
RACCORDO
100
AcDbPolyline
 62
253
  6
CONTINUOUS
 90
22
 70
0
 10
112.2428237275
 20
131.4062289364
 10
112.2581032274
 20
131.503357008
 10
112.2784114599
 20
131.6015101103
 10
112.3036461455
 20
131.7002031133
 10
112.3336769135
 20
131.7989437996
 10
112.3683558281
 20
131.8972495854
 10
112.4075207584
 20
131.994649533
 10
112.450983268
 20
132.0906773784
 10
112.4985228443
 20
132.1848438684
 10
112.5498959844
 20
132.2766551009
 10
112.6048313348
 20
132.3656418056
 10
112.6630635996
 20
132.4513866591
 10
112.7243320474
 20
132.5334932557
 10
112.78834445
 20
132.6115711216
 10
112.8547707149
 20
132.6852165698
 10
112.9232741595
 20
132.7540426426
 10
112.9935024316
 20
132.817704494
 10
113.0651126078
 20
132.8758993218
 10
113.1377681046
 20
132.9283428784
 10
113.2111128821
 20
132.9747767865
 10
113.2847727094
 20
133.0149722431
 10
113.3583788779
 20
133.0487315634
  0
LINE
  5
24A
100
AcDbEntity
  8
268
100
AcDbLine
 62
7
  6
CONTINUOUS
 10
130.1494392893
 20
136.211222489
 11
128.7516547828
 21
135.5123302357
  0
LWPOLYLINE
  5
24B
100
AcDbEntity
  8
RACCORDO
100
AcDbPolyline
 62
7
  6
CONTINUOUS
 90
6
 70
0
 10
127.7615928689
 20
134.7258958664
 10
127.7528866406
 20
134.7215469331
 10
127.7447848795
 20
134.7168680147
 10
127.7369676053
 20
134.7117105197
 10
127.7294403221
 20
134.7060785583
 10
127.7235583269
 20
134.7011693641
  0
LINE
  5
24C
100
AcDbEntity
  8
268
100
AcDbLine
 62
7
  6
CONTINUOUS
 10
128.3981013922
 20
136.2416651203
 11
128.8223654609
 21
136.4492625412
  0
LINE
  5
24D
100
AcDbEntity
  8
268
100
AcDbLine
 62
7
  6
CONTINUOUS
 10
130.8084350407
 20
137.0712953028
 11
128.7516547828
 21
136.064888425
  0
LINE
  5
24E
100
AcDbEntity
  8
RACCORDO
100
AcDbLine
 62
253
  6
CONTINUOUS
 10
128.029803365
 20
134.7323475544
 11
128.086581346
 21
134.7597012215
  0
LINE
  5
24F
100
AcDbEntity
  8
RACCORDO
100
AcDbLine
 62
253
  6
CONTINUOUS
 10
128.0217951775
 20
134.7285520115
 11
128.029803365
 21
134.7323475544
  0
LINE
  5
250
100
AcDbEntity
  8
RACCORDO
100
AcDbLine
 62
253
  6
CONTINUOUS
 10
128.086581346
 20
134.7597012215
 11
128.0989100306
 21
134.7655380049
  0
LINE
  5
251
100
AcDbEntity
  8
RACCORDO
100
AcDbLine
 62
253
  6
CONTINUOUS
 10
128.0138681014
 20
134.724843922
 11
128.0217951775
 21
134.7285520115
  0
LINE
  5
252
100
AcDbEntity
  8
RACCORDO
100
AcDbLine
 62
253
  6
CONTINUOUS
 10
128.0989100306
 20
134.7655380049
 11
128.1084258937
 21
134.7699791616
  0
LINE
  5
253
100
AcDbEntity
  8
RACCORDO
100
AcDbLine
 62
253
  6
CONTINUOUS
 10
127.9737834756
 20
134.7063275904
 11
128.0138681014
 21
134.724843922
  0
LINE
  5
254
100
AcDbEntity
  8
RACCORDO
100
AcDbLine
 62
7
  6
CONTINUOUS
 10
127.8113917441
 20
134.7488606052
 11
127.7616283735
 21
134.7259122637
  0
LINE
  5
255
100
AcDbEntity
  8
RACCORDO
100
AcDbLine
 62
253
  6
CONTINUOUS
 10
128.1084258937
 20
134.7699791616
 11
128.1181899723
 21
134.7744685902
  0
LWPOLYLINE
  5
256
100
AcDbEntity
  8
RACCORDO
100
AcDbPolyline
 62
253
  6
CONTINUOUS
 90
17
 70
0
 10
128.9657563147
 20
134.8336331257
 10
128.9715697601
 20
134.8362689931
 10
128.9773691911
 20
134.8386052494
 10
128.9831447934
 20
134.8406379411
 10
128.9888867934
 20
134.8423636283
 10
128.9945854742
 20
134.8437793906
 10
129.000231192
 20
134.8448828324
 10
129.0058143929
 20
134.8456720863
 10
129.0113256287
 20
134.8461458166
 10
129.016755573
 20
134.8463032218
 10
129.022095037
 20
134.8461440354
 10
129.0273349849
 20
134.8456685269
 10
129.0324665493
 20
134.8448775009
 10
129.0374810465
 20
134.843772296
 10
129.0423699905
 20
134.8423547825
 10
129.0471251081
 20
134.8406273593
 10
129.0516968933
 20
134.8386112327
  0
LINE
  5
257
100
AcDbEntity
  8
RACCORDO
100
AcDbLine
 62
253
  6
CONTINUOUS
 10
128.1181899723
 20
134.7744685902
 11
128.1248444738
 21
134.7774854965
  0
LWPOLYLINE
  5
258
100
AcDbEntity
  8
RACCORDO
100
AcDbPolyline
 62
253
  6
CONTINUOUS
 90
22
 70
0
 10
127.7954327609
 20
134.7415242501
 10
127.7985610741
 20
134.7429341821
 10
127.8078095366
 20
134.7467080762
 10
127.8172691508
 20
134.7499905317
 10
127.8269297912
 20
134.7527780349
 10
127.8367811168
 20
134.7550676021
 10
127.8468125828
 20
134.7568567825
 10
127.8570134513
 20
134.758143661
 10
127.8673728032
 20
134.75892686
 10
127.8778795498
 20
134.7592055412
 10
127.8885224444
 20
134.7589794063
 10
127.899290095
 20
134.7582486974
 10
127.9101709756
 20
134.7570141966
 10
127.9211534393
 20
134.7552772254
 10
127.9322257302
 20
134.753039643
 10
127.9433759966
 20
134.7503038444
 10
127.9545923031
 20
134.7470727583
 10
127.9658626435
 20
134.7433498431
 10
127.9771749541
 20
134.7391390839
 10
127.9885171259
 20
134.7344449879
 10
127.9998770183
 20
134.7292725798
 10
128.0112424715
 20
134.7236273961
  0
LINE
  5
259
100
AcDbEntity
  8
RACCORDO
100
AcDbLine
 62
253
  6
CONTINUOUS
 10
128.1248444738
 20
134.7774854965
 11
128.1316202626
 21
134.780519356
  0
LINE
  5
25A
100
AcDbEntity
  8
RACCORDO
100
AcDbLine
 62
253
  6
CONTINUOUS
 10
128.1316202626
 20
134.780519356
 11
128.1385221588
 21
134.7835680198
  0
LINE
  5
25B
100
AcDbEntity
  8
RACCORDO
100
AcDbLine
 62
253
  6
CONTINUOUS
 10
128.1385221588
 20
134.7835680198
 11
128.1455534982
 21
134.7866300932
  0
LINE
  5
25C
100
AcDbEntity
  8
RACCORDO
100
AcDbLine
 62
253
  6
CONTINUOUS
 10
128.1455534982
 20
134.7866300932
 11
128.1527195718
 21
134.7897035888
  0
LINE
  5
25D
100
AcDbEntity
  8
RACCORDO
100
AcDbLine
 62
253
  6
CONTINUOUS
 10
128.1527195718
 20
134.7897035888
 11
128.1600249557
 21
134.7927861352
  0
LINE
  5
25E
100
AcDbEntity
  8
RACCORDO
100
AcDbLine
 62
253
  6
CONTINUOUS
 10
128.1600249557
 20
134.7927861352
 11
128.1674726835
 21
134.7958761322
  0
LINE
  5
25F
100
AcDbEntity
  8
RACCORDO
100
AcDbLine
 62
253
  6
CONTINUOUS
 10
128.1674726835
 20
134.7958761322
 11
128.1750671787
 21
134.7989711053
  0
LINE
  5
260
100
AcDbEntity
  8
RACCORDO
100
AcDbLine
 62
253
  6
CONTINUOUS
 10
128.1750671787
 20
134.7989711053
 11
128.1828128642
 21
134.8020685108
  0
LINE
  5
261
100
AcDbEntity
  8
RACCORDO
100
AcDbLine
 62
253
  6
CONTINUOUS
 10
128.1828128642
 20
134.8020685108
 11
128.1907125936
 21
134.8051665988
  0
LINE
  5
262
100
AcDbEntity
  8
RACCORDO
100
AcDbLine
 62
253
  6
CONTINUOUS
 10
128.1907125936
 20
134.8051665988
 11
128.1987705886
 21
134.8082626954
  0
LINE
  5
263
100
AcDbEntity
  8
RACCORDO
100
AcDbLine
 62
253
  6
CONTINUOUS
 10
128.1987705886
 20
134.8082626954
 11
128.2069905381
 21
134.8113538526
  0
LINE
  5
264
100
AcDbEntity
  8
RACCORDO
100
AcDbLine
 62
253
  6
CONTINUOUS
 10
128.2069905381
 20
134.8113538526
 11
128.2153748457
 21
134.8144380727
  0
LINE
  5
265
100
AcDbEntity
  8
RACCORDO
100
AcDbLine
 62
253
  6
CONTINUOUS
 10
128.2153748457
 20
134.8144380727
 11
128.2239268372
 21
134.81751224
  0
LINE
  5
266
100
AcDbEntity
  8
RACCORDO
100
AcDbLine
 62
253
  6
CONTINUOUS
 10
128.2239268372
 20
134.81751224
 11
128.2326506238
 21
134.8205734418
  0
LINE
  5
267
100
AcDbEntity
  8
RACCORDO
100
AcDbLine
 62
253
  6
CONTINUOUS
 10
128.2326506238
 20
134.8205734418
 11
128.2415486127
 21
134.8236195973
  0
LINE
  5
268
100
AcDbEntity
  8
RACCORDO
100
AcDbLine
 62
253
  6
CONTINUOUS
 10
128.2415486127
 20
134.8236195973
 11
128.2506242012
 21
134.8266474728
  0
LINE
  5
269
100
AcDbEntity
  8
RACCORDO
100
AcDbLine
 62
253
  6
CONTINUOUS
 10
128.2506242012
 20
134.8266474728
 11
128.2598796907
 21
134.8296534022
  0
LINE
  5
26A
100
AcDbEntity
  8
RACCORDO
100
AcDbLine
 62
253
  6
CONTINUOUS
 10
128.2598796907
 20
134.8296534022
 11
128.2693166822
 21
134.8326349549
  0
LINE
  5
26B
100
AcDbEntity
  8
RACCORDO
100
AcDbLine
 62
253
  6
CONTINUOUS
 10
128.2693166822
 20
134.8326349549
 11
128.2789375616
 21
134.8355884631
  0
LINE
  5
26C
100
AcDbEntity
  8
RACCORDO
100
AcDbLine
 62
253
  6
CONTINUOUS
 10
128.2789375616
 20
134.8355884631
 11
128.2887443653
 21
134.8385100893
  0
LINE
  5
26D
100
AcDbEntity
  8
RACCORDO
100
AcDbLine
 62
253
  6
CONTINUOUS
 10
128.2887443653
 20
134.8385100893
 11
128.2987382625
 21
134.8413972087
  0
LINE
  5
26E
100
AcDbEntity
  8
268
100
AcDbLine
 62
253
  6
CONTINUOUS
 10
131.5697973403
 20
87.8724805258
 11
129.9640208781
 21
88.6753687569
  0
LINE
  5
26F
100
AcDbEntity
  8
268
100
AcDbLine
 62
253
  6
CONTINUOUS
 10
131.6586999163
 20
88.1039175854
 11
130.0518949974
 21
88.9073200449
  0
LINE
  5
270
100
AcDbEntity
  8
268
100
AcDbLine
 62
7
  6
CONTINUOUS
 10
129.4020503379
 20
90.2260812749
 11
131.7215032638
 21
89.066354812
  0
LINE
  5
271
100
AcDbEntity
  8
268
100
AcDbLine
 62
7
  6
CONTINUOUS
 10
132.2810179484
 20
88.8489770029
 11
131.8717529521
 21
89.0536095011
  0
LINE
  5
272
100
AcDbEntity
  8
268
100
AcDbLine
 62
7
  6
CONTINUOUS
 10
129.4279354643
 20
90.5406546502
 11
131.9689906372
 21
89.2701270638
  0
LINE
  5
273
100
AcDbEntity
  8
RACCORDO
100
AcDbLine
 62
7
  6
CONTINUOUS
 10
126.8694774045
 20
133.9536825192
 11
127.7235257881
 21
134.701140576
  0
LINE
  5
274
100
AcDbEntity
  8
RACCORDO
100
AcDbLine
 62
253
  6
CONTINUOUS
 10
127.0233799592
 20
133.8767312418
 11
127.9721785508
 21
134.7071141161
  0
LINE
  5
275
100
AcDbEntity
  8
268
100
AcDbLine
 62
7
  6
CONTINUOUS
 10
133.7721129292
 20
135.2062229884
 11
129.0344974953
 21
132.8711724738
  0
LINE
  5
276
100
AcDbEntity
  8
0
100
AcDbLine
 62
7
  6
CONTINUOUS
 10
142.3755860707
 20
139.4412956736
 11
133.6649644994
 21
135.4184419719
  0
LINE
  5
277
100
AcDbEntity
  8
0
100
AcDbLine
 62
253
  6
CONTINUOUS
 10
142.592408839
 20
139.4238648387
 11
133.8833026353
 21
135.4017128284
  0
LINE
  5
278
100
AcDbEntity
  8
0
100
AcDbLine
 62
7
  6
CONTINUOUS
 10
143.6120694473
 20
139.5294930248
 11
143.0469833244
 21
139.268517527
  0
LINE
  5
279
100
AcDbEntity
  8
0
100
AcDbLine
 62
253
  6
CONTINUOUS
 10
143.6983907862
 20
139.5223331077
 11
143.0958753517
 21
139.2440715133
  0
LWPOLYLINE
  5
27A
100
AcDbEntity
  8
0
100
AcDbPolyline
 62
253
  6
CONTINUOUS
 90
24
 70
0
 10
142.3755829454
 20
139.4412942302
 10
142.3828066372
 20
139.4444472798
 10
142.3911179402
 20
139.4476399778
 10
142.3995964377
 20
139.4504447915
 10
142.4082349493
 20
139.4528593417
 10
142.4170261087
 20
139.4548815608
 10
142.4259624954
 20
139.4565097493
 10
142.4350365814
 20
139.4577425415
 10
142.444240657
 20
139.4585788719
 10
142.4535669843
 20
139.4590180479
 10
142.4630076902
 20
139.459059706
 10
142.4725547114
 20
139.458703778
 10
142.4822000056
 20
139.4579505847
 10
142.4919354569
 20
139.4568007771
 10
142.5017527698
 20
139.4552552872
 10
142.5116437078
 20
139.4533154396
 10
142.5215999271
 20
139.4509828911
 10
142.531612882
 20
139.4482595748
 10
142.5416740613
 20
139.4451478499
 10
142.551775097
 20
139.441650347
 10
142.561907602
 20
139.4377698739
 10
142.5720630973
 20
139.433509648
 10
142.582233017
 20
139.4288733261
 10
142.5924088179
 20
139.423864829
  0
LINE
  5
27B
100
AcDbEntity
  8
268
100
AcDbLine
 62
253
  6
CONTINUOUS
 10
133.4357229798
 20
89.3581730066
 11
133.3923006539
 21
89.3798841696
  0
LINE
  5
27C
100
AcDbEntity
  8
268
100
AcDbLine
 62
7
  6
CONTINUOUS
 10
129.5018690766
 20
91.4391453737
 11
132.7821634356
 21
89.7989981942
  0
LINE
  5
27D
100
AcDbEntity
  8
268
100
AcDbLine
 62
253
  6
CONTINUOUS
 10
133.3478488605
 20
89.5574401522
 11
133.9629676955
 21
89.2498807347
  0
LINE
  5
27E
100
AcDbEntity
  8
268
100
AcDbLine
 62
7
  6
CONTINUOUS
 10
133.3478488605
 20
89.5610603017
 11
133.9862470688
 21
89.2418611976
  0
LINE
  5
27F
100
AcDbEntity
  8
268
100
AcDbLine
 62
7
  6
CONTINUOUS
 10
129.6322690285
 20
93.0238528353
 11
132.7821634356
 21
91.4489056318
  0
LINE
  5
280
100
AcDbEntity
  8
0
100
AcDbLine
 62
7
  6
CONTINUOUS
 10
133.6333341811
 20
135.3998978859
 11
133.4888888444
 21
135.2952118689
  0
LWPOLYLINE
  5
281
100
AcDbEntity
  8
0
100
AcDbPolyline
 62
253
  6
CONTINUOUS
 90
19
 70
0
 10
144.4439913628
 20
138.9250183363
 10
144.4498502788
 20
138.9281858653
 10
144.4554304788
 20
138.9314768085
 10
144.4607215753
 20
138.9348850396
 10
144.4657137189
 20
138.9384042144
 10
144.4703976168
 20
138.9420277819
 10
144.4747645498
 20
138.9457489968
 10
144.478806389
 20
138.9495609322
 10
144.4825156105
 20
138.953456492
 10
144.4858853094
 20
138.9574284248
 10
144.4889092132
 20
138.9614693368
 10
144.4915816929
 20
138.9655717059
 10
144.4938977736
 20
138.9697278954
 10
144.4958531439
 20
138.9739301688
 10
144.4974441639
 20
138.9781707034
 10
144.4986678719
 20
138.9824416055
 10
144.4995219899
 20
138.9867349249
 10
144.5000049281
 20
138.9910426695
 10
144.5001234027
 20
138.994483044
  0
LINE
  5
282
100
AcDbEntity
  8
268
100
AcDbLine
 62
7
  6
CONTINUOUS
 10
130.1387466606
 20
130.5332323417
 11
131.7215032638
 21
131.345216439
  0
LINE
  5
283
100
AcDbEntity
  8
268
100
AcDbLine
 62
7
  6
CONTINUOUS
 10
128.4646910844
 20
130.7400592741
 11
128.9637868172
 21
130.9920238548
  0
LINE
  5
284
100
AcDbEntity
  8
268
100
AcDbLine
 62
7
  6
CONTINUOUS
 10
128.4646910844
 20
131.954262747
 11
128.9637868172
 21
132.2044594201
  0
LINE
  5
285
100
AcDbEntity
  8
DRAFT
100
AcDbLine
 62
7
  6
CONTINUOUS
 10
146.0449545839
 20
139.4241493335
 11
145.9388885667
 21
139.3711163249
  0
LINE
  5
286
100
AcDbEntity
  8
DRAFT
100
AcDbLine
 62
7
  6
CONTINUOUS
 10
145.7621118714
 20
139.2827279773
 11
145.6560458542
 21
139.2296949687
  0
LINE
  5
287
100
AcDbEntity
  8
DRAFT
100
AcDbLine
 62
7
  6
CONTINUOUS
 10
145.4792691589
 20
139.141306621
 11
145.3732031417
 21
139.0882736124
  0
LINE
  5
288
100
AcDbEntity
  8
DRAFT
100
AcDbLine
 62
7
  6
CONTINUOUS
 10
145.1964264465
 20
138.9998852648
 11
145.0903604293
 21
138.9468522562
  0
LINE
  5
289
100
AcDbEntity
  8
DRAFT
100
AcDbLine
 62
7
  6
CONTINUOUS
 10
144.913583734
 20
138.8584639085
 11
144.8075177168
 21
138.8054309
  0
LINE
  5
28A
100
AcDbEntity
  8
DRAFT
100
AcDbLine
 62
7
  6
CONTINUOUS
 10
144.6307410215
 20
138.7170425523
 11
144.5246750043
 21
138.6640095437
  0
LINE
  5
28B
100
AcDbEntity
  8
DRAFT
100
AcDbLine
 62
7
  6
CONTINUOUS
 10
145.9022989682
 20
139.2674532447
 11
145.8474801523
 21
139.2400438368
  0
LINE
  5
28C
100
AcDbEntity
  8
DRAFT
100
AcDbLine
 62
7
  6
CONTINUOUS
 10
145.6194562557
 20
139.1260318885
 11
145.5646374398
 21
139.0986224806
  0
LINE
  5
28D
100
AcDbEntity
  8
DRAFT
100
AcDbLine
 62
7
  6
CONTINUOUS
 10
145.3366135432
 20
138.9846105323
 11
145.2817947274
 21
138.9572011243
  0
LINE
  5
28E
100
AcDbEntity
  8
DRAFT
100
AcDbLine
 62
7
  6
CONTINUOUS
 10
145.0537708307
 20
138.843189176
 11
144.9989520149
 21
138.8157797681
  0
LINE
  5
28F
100
AcDbEntity
  8
DRAFT
100
AcDbLine
 62
7
  6
CONTINUOUS
 10
144.7709281183
 20
138.7017678198
 11
144.7161093024
 21
138.6743584119
  0
LINE
  5
290
100
AcDbEntity
  8
RACCORDO
100
AcDbLine
 62
7
  6
CONTINUOUS
 10
144.4880854058
 20
138.5603464636
 11
139.3173389166
 21
135.974973219
  0
LINE
  5
291
100
AcDbEntity
  8
268
100
AcDbLine
 62
7
  6
CONTINUOUS
 10
128.9637868172
 20
132.2044594201
 11
134.3780595123
 21
134.9044750304
  0
LINE
  5
292
100
AcDbEntity
  8
0
100
AcDbLine
 62
253
  6
CONTINUOUS
 10
143.3956996468
 20
139.0222194348
 11
137.3512512251
 21
136.0241284573
  0
LINE
  5
293
100
AcDbEntity
  8
0
100
AcDbLine
 62
253
  6
CONTINUOUS
 10
144.0977998818
 20
139.3226310088
 11
143.5159550313
 21
139.0340316735
  0
LINE
  5
294
100
AcDbEntity
  8
0
100
AcDbLine
 62
253
  6
CONTINUOUS
 10
144.2391996989
 20
139.0787523995
 11
143.7849627457
 21
138.853447522
  0
LINE
  5
295
100
AcDbEntity
  8
0
100
AcDbLine
 62
253
  6
CONTINUOUS
 10
143.8125910363
 20
138.7579796958
 11
137.8963886283
 21
135.8234996866
  0
LINE
  5
296
100
AcDbEntity
  8
268
100
AcDbLine
 62
7
  6
CONTINUOUS
 10
128.9637868172
 20
130.9920238548
 11
134.3780595123
 21
133.6726364521
  0
LINE
  5
297
100
AcDbEntity
  8
268
100
AcDbLine
 62
7
  6
CONTINUOUS
 10
135.0510757278
 20
134.9499749593
 11
134.4646969407
 21
134.6630528916
  0
LINE
  5
298
100
AcDbEntity
  8
268
100
AcDbLine
 62
7
  6
CONTINUOUS
 10
131.7215032638
 20
131.345216439
 11
132.2559531425
 21
131.6055639056
  0
LWPOLYLINE
  5
299
100
AcDbEntity
  8
268
100
AcDbPolyline
 62
7
  6
CONTINUOUS
 90
18
 70
0
 10
135.0510757278
 20
134.9499749593
 10
135.0794502486
 20
134.9631569161
 10
135.1076847006
 20
134.9748913078
 10
135.1357790838
 20
134.9851781345
 10
135.1637833968
 20
134.9940302691
 10
135.1916476411
 20
135.0014348387
 10
135.2192218208
 20
135.0073532243
 10
135.2464909494
 20
135.0117766456
 10
135.2734700134
 20
135.0147138829
 10
135.300053976
 20
135.0161526589
 10
135.3262589349
 20
135.0160855223
 10
135.3520687924
 20
135.0145199243
 10
135.3773302186
 20
135.0114659409
 10
135.4020199719
 20
135.0069201565
 10
135.4261612941
 20
135.0008859867
 10
135.4496705803
 20
134.9933837539
 10
135.4725663605
 20
134.9843983392
 10
135.4921284448
 20
134.9753086062
  0
LINE
  5
29A
100
AcDbEntity
  8
0
100
AcDbLine
 62
7
  6
CONTINUOUS
 10
139.4649112343
 20
135.0392160431
 11
145.7241208052
 21
137.9299264461
  0
LINE
  5
29B
100
AcDbEntity
  8
0
100
AcDbLine
 62
253
  6
CONTINUOUS
 10
139.4634778959
 20
134.9680151219
 11
145.7226874668
 21
137.8587255248
  0
LINE
  5
29C
100
AcDbEntity
  8
268
100
AcDbLine
 62
7
  6
CONTINUOUS
 10
116.2005094167
 20
135.2838809458
 11
116.2005094167
 21
135.2594854405
  0
LINE
  5
29D
100
AcDbEntity
  8
268
100
AcDbLine
 62
7
  6
CONTINUOUS
 10
116.5997027137
 20
136.6571319785
 11
116.5997027137
 21
136.9105033722
  0
LINE
  5
29E
100
AcDbEntity
  8
268
100
AcDbLine
 62
7
  6
CONTINUOUS
 10
117.0136822151
 20
134.8528990413
 11
117.0136822151
 21
134.7835625479
  0
LINE
  5
29F
100
AcDbEntity
  8
268
100
AcDbLine
 62
7
  6
CONTINUOUS
 10
131.7465680697
 20
129.7293216372
 11
133.3478488605
 21
130.5320436407
  0
LINE
  5
2A0
100
AcDbEntity
  8
DRAFT
100
AcDbLine
 62
7
  6
CONTINUOUS
 10
147.5561561613
 20
138.6685485448
 11
147.4500901441
 21
138.6155155362
  0
LINE
  5
2A1
100
AcDbEntity
  8
DRAFT
100
AcDbLine
 62
7
  6
CONTINUOUS
 10
147.2733134488
 20
138.5271271886
 11
147.1672474316
 21
138.47409418
  0
LINE
  5
2A2
100
AcDbEntity
  8
DRAFT
100
AcDbLine
 62
7
  6
CONTINUOUS
 10
146.9904707363
 20
138.3857058323
 11
146.8844047192
 21
138.3326728237
  0
LINE
  5
2A3
100
AcDbEntity
  8
DRAFT
100
AcDbLine
 62
7
  6
CONTINUOUS
 10
146.7076280239
 20
138.2442844761
 11
146.6015620067
 21
138.1912514675
  0
LINE
  5
2A4
100
AcDbEntity
  8
DRAFT
100
AcDbLine
 62
7
  6
CONTINUOUS
 10
146.4247853114
 20
138.1028631198
 11
146.3187192942
 21
138.0498301112
  0
LINE
  5
2A5
100
AcDbEntity
  8
DRAFT
100
AcDbLine
 62
7
  6
CONTINUOUS
 10
146.1419425989
 20
137.9614417636
 11
146.0358765817
 21
137.908408755
  0
LINE
  5
2A6
100
AcDbEntity
  8
DRAFT
100
AcDbLine
 62
7
  6
CONTINUOUS
 10
147.4159690645
 20
138.5106181966
 11
147.3099030474
 21
138.457585188
  0
LINE
  5
2A7
100
AcDbEntity
  8
DRAFT
100
AcDbLine
 62
7
  6
CONTINUOUS
 10
147.1331263521
 20
138.3691968403
 11
147.0270603349
 21
138.3161638317
  0
LINE
  5
2A8
100
AcDbEntity
  8
DRAFT
100
AcDbLine
 62
7
  6
CONTINUOUS
 10
146.8502836396
 20
138.2277754841
 11
146.7442176224
 21
138.1747424755
  0
LINE
  5
2A9
100
AcDbEntity
  8
DRAFT
100
AcDbLine
 62
7
  6
CONTINUOUS
 10
146.5674409271
 20
138.0863541278
 11
146.4613749099
 21
138.0333211193
  0
LINE
  5
2AA
100
AcDbEntity
  8
DRAFT
100
AcDbLine
 62
7
  6
CONTINUOUS
 10
146.2845982146
 20
137.9449327716
 11
146.1785321975
 21
137.891899763
  0
LINE
  5
2AB
100
AcDbEntity
  8
RACCORDO
100
AcDbLine
 62
7
  6
CONTINUOUS
 10
146.0017555022
 20
137.8035114154
 11
145.9893755249
 21
137.7973214267
  0
LINE
  5
2AC
100
AcDbEntity
  8
DRAFT
100
AcDbLine
 62
7
  6
CONTINUOUS
 10
146.9238608735
 20
136.7713385035
 11
147.7374718577
 21
137.1781439956
  0
LINE
  5
2AD
100
AcDbEntity
  8
DRAFT
100
AcDbLine
 62
7
  6
CONTINUOUS
 10
149.1562244211
 20
137.8685144149
 11
149.0501584039
 21
137.8154814063
  0
LINE
  5
2AE
100
AcDbEntity
  8
DRAFT
100
AcDbLine
 62
7
  6
CONTINUOUS
 10
148.8733817086
 20
137.7270930586
 11
148.7673156914
 21
137.6740600501
  0
LINE
  5
2AF
100
AcDbEntity
  8
DRAFT
100
AcDbLine
 62
7
  6
CONTINUOUS
 10
148.5905389961
 20
137.5856717024
 11
148.484472979
 21
137.5326386938
  0
LINE
  5
2B0
100
AcDbEntity
  8
DRAFT
100
AcDbLine
 62
7
  6
CONTINUOUS
 10
148.3076962837
 20
137.4442503462
 11
148.2016302665
 21
137.3912173376
  0
LINE
  5
2B1
100
AcDbEntity
  8
DRAFT
100
AcDbLine
 62
7
  6
CONTINUOUS
 10
148.0248535712
 20
137.3028289899
 11
147.918787554
 21
137.2497959813
  0
LINE
  5
2B2
100
AcDbEntity
  8
DRAFT
100
AcDbLine
 62
7
  6
CONTINUOUS
 10
147.7420108587
 20
137.1614076337
 11
147.6359448415
 21
137.1083746251
  0
LINE
  5
2B3
100
AcDbEntity
  8
DRAFT
100
AcDbLine
 62
7
  6
CONTINUOUS
 10
147.6075013234
 20
137.0277904475
 11
147.4710725552
 21
136.9595760634
  0
LINE
  5
2B4
100
AcDbEntity
  8
DRAFT
100
AcDbLine
 62
7
  6
CONTINUOUS
 10
146.9238608735
 20
136.6859702226
 11
147.0114531475
 21
136.7297663596
  0
LINE
  5
2B5
100
AcDbEntity
  8
DRAFT
100
AcDbLine
 62
7
  6
CONTINUOUS
 10
147.1882298428
 20
136.8181547072
 11
147.2942958599
 21
136.8711877158
  0
LINE
  5
2B6
100
AcDbEntity
  8
DRAFT
100
AcDbLine
 62
7
  6
CONTINUOUS
 10
149.0135688054
 20
137.7118183261
 11
148.9587499895
 21
137.6844089182
  0
LINE
  5
2B7
100
AcDbEntity
  8
DRAFT
100
AcDbLine
 62
7
  6
CONTINUOUS
 10
148.7307260929
 20
137.5703969699
 11
148.675907277
 21
137.542987562
  0
LINE
  5
2B8
100
AcDbEntity
  8
DRAFT
100
AcDbLine
 62
7
  6
CONTINUOUS
 10
148.4478833804
 20
137.4289756137
 11
148.3930645646
 21
137.4015662057
  0
LINE
  5
2B9
100
AcDbEntity
  8
DRAFT
100
AcDbLine
 62
7
  6
CONTINUOUS
 10
148.165040668
 20
137.2875542574
 11
148.1102218521
 21
137.2601448495
  0
LINE
  5
2BA
100
AcDbEntity
  8
DRAFT
100
AcDbLine
 62
7
  6
CONTINUOUS
 10
147.8821979555
 20
137.1461329012
 11
147.8273791396
 21
137.1187234932
  0
LINE
  5
2BB
100
AcDbEntity
  8
RACCORDO
100
AcDbLine
 62
7
  6
CONTINUOUS
 10
147.599355243
 20
137.0047115449
 11
142.4286087539
 21
134.4193383004
  0
LINE
  5
2BC
100
AcDbEntity
  8
268
100
AcDbLine
 62
7
  6
CONTINUOUS
 10
133.3478488605
 20
130.5320436407
 11
133.8761160323
 21
130.7954824607
  0
LINE
  5
2BD
100
AcDbEntity
  8
0
100
AcDbLine
 62
253
  6
CONTINUOUS
 10
146.506969484
 20
137.4665845162
 11
140.4625210623
 21
134.4684935387
  0
LINE
  5
2BE
100
AcDbEntity
  8
0
100
AcDbLine
 62
253
  6
CONTINUOUS
 10
146.9238608735
 20
137.2023447772
 11
141.0076584656
 21
134.267864768
  0
LINE
  5
2BF
100
AcDbEntity
  8
0
100
AcDbLine
 62
7
  6
CONTINUOUS
 10
138.8049136704
 20
132.2489170593
 11
139.4996778568
 21
132.5935252177
  0
LINE
  5
2C0
100
AcDbEntity
  8
0
100
AcDbLine
 62
253
  6
CONTINUOUS
 10
142.0851864315
 20
133.6571608541
 11
138.9927385431
 21
132.155004623
  0
LINE
  5
2C1
100
AcDbEntity
  8
268
100
AcDbLine
 62
253
  6
CONTINUOUS
 10
133.2583266506
 20
131.1663545224
 11
138.0301656287
 21
133.4604300088
  0
LINE
  5
2C2
100
AcDbEntity
  8
268
100
AcDbLine
 62
253
  6
CONTINUOUS
 10
133.4859421504
 20
131.0525467725
 11
138.4720064966
 21
133.4496117285
  0
LINE
  5
2C3
100
AcDbEntity
  8
0
100
AcDbLine
 62
7
  6
CONTINUOUS
 10
138.8049136704
 20
131.988805898
 11
138.6835553874
 21
131.9327586212
  0
LWPOLYLINE
  5
2C4
100
AcDbEntity
  8
0
100
AcDbPolyline
 62
253
  6
CONTINUOUS
 90
19
 70
0
 10
142.0851889586
 20
133.6571595905
 10
142.0930290109
 20
133.6607343172
 10
142.1008532769
 20
133.6639463417
 10
142.1086510556
 20
133.666791271
 10
142.1164116821
 20
133.6692652141
 10
142.1241245421
 20
133.6713647874
 10
142.131779087
 20
133.6730871193
 10
142.1393648477
 20
133.6744298543
 10
142.1468714493
 20
133.675391156
 10
142.1542886251
 20
133.6759697094
 10
142.1616062307
 20
133.6761647235
 10
142.168814258
 20
133.6759759314
 10
142.1759028486
 20
133.6754035914
 10
142.1828623075
 20
133.6744484862
 10
142.1896831163
 20
133.6731119221
 10
142.1963559465
 20
133.6713957272
 10
142.2028716715
 20
133.6693022486
 10
142.20922138
 20
133.6668343496
 10
142.2156497807
 20
133.6638691105
  0
LINE
  5
2C5
100
AcDbEntity
  8
0
100
AcDbLine
 62
7
  6
CONTINUOUS
 10
142.6968262667
 20
133.1834049956
 11
148.9159243369
 21
135.8707938562
  0
LINE
  5
2C6
100
AcDbEntity
  8
268
100
AcDbLine
 62
7
  6
CONTINUOUS
 10
117.3026956679
 20
135.7505727238
 11
117.3026956679
 21
136.2029036994
  0
LINE
  5
2C7
100
AcDbEntity
  8
268
100
AcDbLine
 62
7
  6
CONTINUOUS
 10
118.2054791758
 20
136.1076151411
 11
118.2054791758
 21
135.8542437474
  0
LINE
  5
2C8
100
AcDbEntity
  8
268
100
AcDbLine
 62
7
  6
CONTINUOUS
 10
118.9166997839
 20
134.9435706658
 11
118.9166997839
 21
135.5807402245
  0
LINE
  5
2C9
100
AcDbEntity
  8
268
100
AcDbLine
 62
253
  6
CONTINUOUS
 10
133.8619296936
 20
130.0515118699
 11
139.2202564738
 21
132.9424520969
  0
LINE
  5
2CA
100
AcDbEntity
  8
268
100
AcDbLine
 62
253
  6
CONTINUOUS
 10
133.4953095404
 20
129.6052997438
 11
139.1361049062
 21
132.648638253
  0
LINE
  5
2CB
100
AcDbEntity
  8
268
100
AcDbLine
 62
253
  6
CONTINUOUS
 10
133.4069195856
 20
129.4700065625
 11
139.1361049062
 21
132.4363790989
  0
LINE
  5
2CC
100
AcDbEntity
  8
268
100
AcDbLine
 62
7
  6
CONTINUOUS
 10
133.5266857163
 20
129.4101234972
 11
138.8049136704
 21
132.143006022
  0
LINE
  5
2CD
100
AcDbEntity
  8
268
100
AcDbLine
 62
253
  6
CONTINUOUS
 10
133.4892702167
 20
128.729282155
 11
131.7215032638
 21
127.8265044555
  0
LINE
  5
2CE
100
AcDbEntity
  8
268
100
AcDbLine
 62
253
  6
CONTINUOUS
 10
133.7367575902
 20
128.302418035
 11
131.9689906372
 21
127.3996403356
  0
LINE
  5
2CF
100
AcDbEntity
  8
0
100
AcDbLine
 62
7
  6
CONTINUOUS
 10
139.1837308372
 20
131.6826708963
 11
134.1098346442
 21
129.1185490332
  0
LINE
  5
2D0
100
AcDbEntity
  8
268
100
AcDbLine
 62
7
  6
CONTINUOUS
 10
133.3478488605
 20
128.7999928331
 11
132.2810179484
 21
128.2614115836
  0
LINE
  5
2D1
100
AcDbEntity
  8
DRAFT
100
AcDbLine
 62
7
  6
CONTINUOUS
 10
150.6674259985
 20
137.1129136262
 11
150.5613599813
 21
137.0598806176
  0
LINE
  5
2D2
100
AcDbEntity
  8
DRAFT
100
AcDbLine
 62
7
  6
CONTINUOUS
 10
150.384583286
 20
136.9714922699
 11
150.2785172689
 21
136.9184592614
  0
LINE
  5
2D3
100
AcDbEntity
  8
DRAFT
100
AcDbLine
 62
7
  6
CONTINUOUS
 10
150.1017405736
 20
136.8300709137
 11
149.9956745564
 21
136.7770379051
  0
LINE
  5
2D4
100
AcDbEntity
  8
DRAFT
100
AcDbLine
 62
7
  6
CONTINUOUS
 10
149.8188978611
 20
136.6886495575
 11
149.7128318439
 21
136.6356165489
  0
LINE
  5
2D5
100
AcDbEntity
  8
DRAFT
100
AcDbLine
 62
7
  6
CONTINUOUS
 10
149.5360551486
 20
136.5472282012
 11
149.4299891314
 21
136.4941951926
  0
LINE
  5
2D6
100
AcDbEntity
  8
DRAFT
100
AcDbLine
 62
7
  6
CONTINUOUS
 10
149.2532124361
 20
136.405806845
 11
149.147146419
 21
136.3527738364
  0
LINE
  5
2D7
100
AcDbEntity
  8
DRAFT
100
AcDbLine
 62
7
  6
CONTINUOUS
 10
150.5272389018
 20
136.9549832779
 11
150.4211728846
 21
136.9019502694
  0
LINE
  5
2D8
100
AcDbEntity
  8
DRAFT
100
AcDbLine
 62
7
  6
CONTINUOUS
 10
150.2443961893
 20
136.8135619217
 11
150.1383301721
 21
136.7605289131
  0
LINE
  5
2D9
100
AcDbEntity
  8
DRAFT
100
AcDbLine
 62
7
  6
CONTINUOUS
 10
149.9615534768
 20
136.6721405655
 11
149.8554874596
 21
136.6191075569
  0
LINE
  5
2DA
100
AcDbEntity
  8
DRAFT
100
AcDbLine
 62
7
  6
CONTINUOUS
 10
149.6787107643
 20
136.5307192092
 11
149.5726447472
 21
136.4776862006
  0
LINE
  5
2DB
100
AcDbEntity
  8
DRAFT
100
AcDbLine
 62
7
  6
CONTINUOUS
 10
149.3958680519
 20
136.389297853
 11
149.2898020347
 21
136.3362648444
  0
LINE
  5
2DC
100
AcDbEntity
  8
RACCORDO
100
AcDbLine
 62
7
  6
CONTINUOUS
 10
149.1130253394
 20
136.2478764968
 11
144.8126981337
 21
134.0977128939
  0
LINE
  5
2DD
100
AcDbEntity
  8
268
100
AcDbLine
 62
253
  6
CONTINUOUS
 10
134.1963769979
 20
129.0752778564
 11
133.4892702167
 21
128.729282155
  0
LINE
  5
2DE
100
AcDbEntity
  8
268
100
AcDbLine
 62
253
  6
CONTINUOUS
 10
134.4438643713
 20
128.6484137364
 11
133.7367575902
 21
128.302418035
  0
LINE
  5
2DF
100
AcDbEntity
  8
0
100
AcDbLine
 62
253
  6
CONTINUOUS
 10
142.5851124406
 20
133.1535839619
 11
139.4926623907
 21
131.6514283637
  0
LWPOLYLINE
  5
2E0
100
AcDbEntity
  8
RACCORDO
100
AcDbPolyline
 62
253
  6
CONTINUOUS
 90
22
 70
0
 10
127.7120439511
 20
125.8718990268
 10
127.6366036126
 20
125.8390567915
 10
127.5611398029
 20
125.7997633261
 10
127.4860212304
 20
125.7542163155
 10
127.411613871
 20
125.7026486902
 10
127.3382820196
 20
125.6453147
 10
127.2663870254
 20
125.5824862097
 10
127.1962721824
 20
125.514465836
 10
127.1282894722
 20
125.4415986105
 10
127.06279923
 20
125.3642596644
 10
127.0001331925
 20
125.2828518627
 10
126.9405819436
 20
125.1977665012
 10
126.8844249344
 20
125.1093906259
 10
126.831928481
 20
125.0181410501
 10
126.7833629166
 20
124.924487554
 10
126.7389874032
 20
124.8289162106
 10
126.6990244235
 20
124.7319152878
 10
126.6636604436
 20
124.6339520346
 10
126.633067342
 20
124.535492515
 10
126.607396304
 20
124.4370176883
 10
126.5867744508
 20
124.3390213963
 10
126.5713040621
 20
124.2419887691
  0
LINE
  5
2E1
100
AcDbEntity
  8
0
100
AcDbLine
 62
253
  6
CONTINUOUS
 10
142.7247248874
 20
132.9127881102
 11
148.9839344583
 21
135.6175099023
  0
LINE
  5
2E2
100
AcDbEntity
  8
0
100
AcDbLine
 62
7
  6
CONTINUOUS
 10
149.7955894656
 20
135.8291285208
 11
149.1515906814
 21
135.5508445736
  0
LINE
  5
2E3
100
AcDbEntity
  8
0
100
AcDbLine
 62
253
  6
CONTINUOUS
 10
149.2389621159
 20
135.4001511401
 11
149.9773697706
 21
135.71923093
  0
LWPOLYLINE
  5
2E4
100
AcDbEntity
  8
RACCORDO
100
AcDbPolyline
 62
253
  6
CONTINUOUS
 90
22
 70
0
 10
128.218425564
 20
124.8708093854
 10
128.182619303
 20
124.8556531476
 10
128.1470997482
 20
124.8376642253
 10
128.1118668996
 20
124.8168426187
 10
128.0767347568
 20
124.793052847
 10
128.0418893201
 20
124.7664303909
 10
128.0078885909
 20
124.7373816925
 10
127.9747573327
 20
124.7058733518
 10
127.942470782
 20
124.6719387687
 10
127.9115126497
 20
124.6360845849
 10
127.8819074917
 20
124.5982882873
 10
127.853630752
 20
124.5585723889
 10
127.8270924734
 20
124.5175110714
 10
127.802313218
 20
124.4750749468
 10
127.7792724237
 20
124.4312934029
 10
127.758318447
 20
124.3868287847
 10
127.7394840777
 20
124.3416603419
 10
127.7227365259
 20
124.2958088248
 10
127.7083257788
 20
124.2499988289
 10
127.6963351654
 20
124.204471886
 10
127.6866813565
 20
124.1589864642
 10
127.6793643522
 20
124.1135425637
  0
LINE
  5
2E5
100
AcDbEntity
  8
RACCORDO
100
AcDbLine
 62
253
  6
CONTINUOUS
 10
131.8368113286
 20
127.4413344846
 11
127.7120439511
 21
125.8718990268
  0
LINE
  5
2E6
100
AcDbEntity
  8
RACCORDO
100
AcDbLine
 62
253
  6
CONTINUOUS
 10
132.3832391252
 20
126.455482042
 11
128.218425564
 21
124.8708093854
  0
LINE
  5
2E7
100
AcDbEntity
  8
268
100
AcDbLine
 62
7
  6
CONTINUOUS
 10
131.9689906372
 20
127.3752448303
 11
132.7821634356
 21
127.6595464982
  0
LWPOLYLINE
  5
2E8
100
AcDbEntity
  8
0
100
AcDbPolyline
 62
7
  6
CONTINUOUS
 90
22
 70
0
 10
139.6920656499
 20
102.757286596
 10
139.6796237251
 20
102.7540567525
 10
139.6672542074
 20
102.7512893817
 10
139.6549683752
 20
102.7489770935
 10
139.6427867751
 20
102.7471132944
 10
139.6307103316
 20
102.7456876451
 10
139.6187212981
 20
102.744689524
 10
139.6068309723
 20
102.7441127148
 10
139.595049951
 20
102.7439504459
 10
139.5833608344
 20
102.7441965477
 10
139.5717689364
 20
102.7448466094
 10
139.5602915844
 20
102.7458951762
 10
139.5489307261
 20
102.7473375743
 10
139.5377052344
 20
102.7491668011
 10
139.526618994
 20
102.7513773874
 10
139.5156528961
 20
102.7539701614
 10
139.5048143811
 20
102.7569421046
 10
139.4941198921
 20
102.7602872143
 10
139.4835654113
 20
102.764005685
 10
139.4731579878
 20
102.7680949861
 10
139.4629148684
 20
102.77254805
 10
139.4528477544
 20
102.7773589255
  0
LINE
  5
2E9
100
AcDbEntity
  8
0
100
AcDbLine
 62
7
  6
CONTINUOUS
 10
138.9545212959
 20
95.5876615871
 11
138.9927385431
 21
95.5685529635
  0
LINE
  5
2EA
100
AcDbEntity
  8
268
100
AcDbLine
 62
7
  6
CONTINUOUS
 10
119.9835306961
 20
135.4821519153
 11
119.9835306961
 21
137.2142027229
  0
LINE
  5
2EB
100
AcDbEntity
  8
268
100
AcDbLine
 62
7
  6
CONTINUOUS
 10
120.6865236504
 20
137.3495242206
 11
120.6865236504
 21
137.0885952443
  0
LINE
  5
2EC
100
AcDbEntity
  8
RACCORDO
100
AcDbLine
 62
7
  6
CONTINUOUS
 10
139.2323690897
 20
135.9112077547
 11
138.7357002329
 21
135.4038438843
  0
LINE
  5
2ED
100
AcDbEntity
  8
0
100
AcDbLine
 62
253
  6
CONTINUOUS
 10
149.6637045535
 20
134.6675787992
 11
150.3767764111
 21
135.0303560944
  0
LINE
  5
2EE
100
AcDbEntity
  8
0
100
AcDbLine
 62
253
  6
CONTINUOUS
 10
149.7372364767
 20
134.5407549918
 11
150.4181976849
 21
134.8871959045
  0
LINE
  5
2EF
100
AcDbEntity
  8
0
100
AcDbLine
 62
253
  6
CONTINUOUS
 10
140.6324421856
 20
129.685599008
 11
149.7374890345
 21
134.3178205117
  0
LINE
  5
2F0
100
AcDbEntity
  8
0
100
AcDbLine
 62
253
  6
CONTINUOUS
 10
140.4215444107
 20
129.5477582837
 11
134.4438643713
 21
126.5065969018
  0
LINE
  5
2F1
100
AcDbEntity
  8
DRAFT
100
AcDbLine
 62
7
  6
CONTINUOUS
 10
150.3833726893
 20
135.3898245742
 11
150.8487416949
 21
135.6225090769
  0
LINE
  5
2F2
100
AcDbEntity
  8
DRAFT
100
AcDbLine
 62
7
  6
CONTINUOUS
 10
150.7767967573
 20
135.5011683273
 11
150.5823423925
 21
135.4039411448
  0
LWPOLYLINE
  5
2F3
100
AcDbEntity
  8
0
100
AcDbPolyline
 62
253
  6
CONTINUOUS
 90
32
 70
0
 10
150.376776291
 20
135.0303563016
 10
150.3858962762
 20
135.0348294767
 10
150.3950278707
 20
135.0390208172
 10
150.4041593253
 20
135.0429233874
 10
150.4132809095
 20
135.046536125
 10
150.4223778214
 20
135.0498457305
 10
150.43143134
 20
135.0528274609
 10
150.4404319834
 20
135.0554732366
 10
150.4493656568
 20
135.0577778504
 10
150.4582089555
 20
135.059722475
 10
150.4669527745
 20
135.0612993796
 10
150.4755850447
 20
135.0625049356
 10
150.4840809553
 20
135.0633285493
 10
150.4924282745
 20
135.0637640065
 10
150.5006219296
 20
135.063808907
 10
150.5086499812
 20
135.0634598109
 10
150.5164990061
 20
135.0627132224
 10
150.5241667428
 20
135.0615652048
 10
150.5316569013
 20
135.0600110098
 10
150.5389612401
 20
135.058046048
 10
150.5460692888
 20
135.0556657443
 10
150.5529787766
 20
135.0528637763
 10
150.5596818751
 20
135.0496337925
 10
150.5661660696
 20
135.045972215
 10
150.5724209487
 20
135.0418762617
 10
150.5784376889
 20
135.0373400609
 10
150.5842056669
 20
135.032360372
 10
150.5897120333
 20
135.0269385833
 10
150.5949482034
 20
135.0210698689
 10
150.5999050498
 20
135.0147512527
 10
150.604569425
 20
135.0079872724
 10
150.6081554726
 20
135.0021316097
  0
LWPOLYLINE
  5
2F4
100
AcDbEntity
  8
0
100
AcDbPolyline
 62
253
  6
CONTINUOUS
 90
52
 70
0
 10
150.4181976849
 20
134.8871959045
 10
150.4236845671
 20
134.8898720645
 10
150.4292097975
 20
134.892294409
 10
150.4347733759
 20
134.8944629378
 10
150.4403833339
 20
134.8963870523
 10
150.44603164
 20
134.8980573511
 10
150.4516941997
 20
134.8994456311
 10
150.4573716878
 20
134.9005494631
 10
150.4630634295
 20
134.9013712762
 10
150.4687433065
 20
134.901890155
 10
150.4744115049
 20
134.9021031502
 10
150.4800678387
 20
134.9020132112
 10
150.485685631
 20
134.90160827
 10
150.4912618803
 20
134.9008864214
 10
150.4967995881
 20
134.8998495707
 10
150.5022810821
 20
134.8984913661
 10
150.5077028811
 20
134.8968128844
 10
150.5130684663
 20
134.8948130489
 10
150.5183706093
 20
134.892482277
 10
150.5236109678
 20
134.8898209734
 10
150.5287878842
 20
134.8868287335
 10
150.5338891562
 20
134.8834947605
 10
150.5389168881
 20
134.8798176558
 10
150.5438689757
 20
134.8757988181
 10
150.5487269046
 20
134.8714316464
 10
150.5534912224
 20
134.8667145966
 10
150.5581613816
 20
134.8616492128
 10
150.5627172247
 20
134.8562335263
 10
150.5671586566
 20
134.8504663128
 10
150.5714857725
 20
134.8443487965
 10
150.5756786999
 20
134.8378826812
 10
150.5797374932
 20
134.8310663138
 10
150.5836620981
 20
134.8239013474
 10
150.5874324793
 20
134.8163944453
 10
150.5910488146
 20
134.8085427118
 10
150.5945109261
 20
134.8003490427
 10
150.5977982458
 20
134.7918287884
 10
150.6009102596
 20
134.7829793488
 10
150.6038474815
 20
134.7738033239
 10
150.6065908856
 20
134.7643238647
 10
150.6091397287
 20
134.7545376285
 10
150.611494754
 20
134.7444479579
 10
150.6136391652
 20
134.7340880315
 10
150.615571644
 20
134.7234554097
 10
150.6172935088
 20
134.712552532
 10
150.6187919184
 20
134.7014198948
 10
150.6200653622
 20
134.6900547716
 10
150.6211153507
 20
134.6784598889
 10
150.6219335746
 20
134.6666839232
 10
150.6225172639
 20
134.6547431
 10
150.6228691887
 20
134.6426211937
 10
150.6229893487
 20
134.6303182044
  0
LINE
  5
2F5
100
AcDbEntity
  8
0
100
AcDbLine
 62
253
  6
CONTINUOUS
 10
138.0501089554
 20
99.0092601524
 11
138.6124494898
 21
98.7280898852
  0
LINE
  5
2F6
100
AcDbEntity
  8
0
100
AcDbLine
 62
7
  6
CONTINUOUS
 10
137.9195115253
 20
99.1733886561
 11
138.3129897512
 21
98.9766495431
  0
LINE
  5
2F7
100
AcDbEntity
  8
0
100
AcDbLine
 62
253
  6
CONTINUOUS
 10
137.9176853034
 20
99.5852289746
 11
138.0508267052
 21
99.5186582737
  0
LINE
  5
2F8
100
AcDbEntity
  8
268
100
AcDbLine
 62
7
  6
CONTINUOUS
 10
122.1612876991
 20
134.9561387835
 11
122.1612876991
 21
133.7414053973
  0
LINE
  5
2F9
100
AcDbEntity
  8
268
100
AcDbLine
 62
253
  6
CONTINUOUS
 10
122.2491556647
 20
134.8496298267
 11
122.2491556647
 21
133.6346749606
  0
LWPOLYLINE
  5
2FA
100
AcDbEntity
  8
RACCORDO
100
AcDbPolyline
 62
253
  6
CONTINUOUS
 90
15
 70
0
 10
123.5702497965
 20
87.771169419
 10
123.5702087806
 20
87.6797038833
 10
123.5754708451
 20
87.5910473983
 10
123.586009925
 20
87.5056374616
 10
123.6017750288
 20
87.4238979402
 10
123.6226875062
 20
87.346228559
 10
123.6486436606
 20
87.2730048082
 10
123.6795234166
 20
87.2045800073
 10
123.7151736088
 20
87.1413026161
 10
123.755403443
 20
87.0835030283
 10
123.8000058232
 20
87.0314723382
 10
123.8487682455
 20
86.9854512997
 10
123.9014608779
 20
86.9456543039
 10
123.9578418006
 20
86.9122731675
 10
123.9644016182
 20
86.9089281729
  0
LINE
  5
2FB
100
AcDbEntity
  8
268
100
AcDbLine
 62
7
  6
CONTINUOUS
 10
133.9629676955
 20
130.1744848741
 11
133.4357229798
 21
129.532777146
  0
LINE
  5
2FC
100
AcDbEntity
  8
0
100
AcDbLine
 62
7
  6
CONTINUOUS
 10
140.8356948863
 20
125.8599710003
 11
138.6124494898
 21
124.7088519987
  0
LINE
  5
2FD
100
AcDbEntity
  8
0
100
AcDbLine
 62
253
  6
CONTINUOUS
 10
141.0465926612
 20
128.2539654333
 11
150.1516410953
 21
132.8861810001
  0
LINE
  5
2FE
100
AcDbEntity
  8
0
100
AcDbLine
 62
253
  6
CONTINUOUS
 10
140.8356948863
 20
128.116124709
 11
134.4438643713
 21
124.8642631183
  0
LINE
  5
2FF
100
AcDbEntity
  8
0
100
AcDbLine
 62
7
  6
CONTINUOUS
 10
140.7349585634
 20
99.9295770482
 11
140.8356948863
 21
99.8792088868
  0
LWPOLYLINE
  5
300
100
AcDbEntity
  8
RACCORDO
100
AcDbPolyline
 62
253
  6
CONTINUOUS
 90
22
 70
0
 10
124.6863128981
 20
87.7399787318
 10
124.6863599873
 20
87.6971368774
 10
124.6888736874
 20
87.6559233697
 10
124.6938539982
 20
87.6163382089
 10
124.7013484771
 20
87.5781835481
 10
124.7113095668
 20
87.541657234
 10
124.7235945951
 20
87.5073528074
 10
124.7382401974
 20
87.475318904
 10
124.7552097383
 20
87.445506888
 10
124.7742506394
 20
87.4183643921
 10
124.7953903635
 20
87.3939351183
 10
124.8186014477
 20
87.3721753647
 10
124.8435489255
 20
87.3534016579
 10
124.8702645929
 20
87.337655166
 10
124.8987166539
 20
87.324894721
 10
124.9284747535
 20
87.3153133456
 10
124.9595678594
 20
87.3089653515
 10
124.9919670038
 20
87.305796427
 10
125.0251549289
 20
87.30583666
 10
125.0589592153
 20
87.3090960796
 10
125.0935522822
 20
87.3155646566
 10
125.1289341298
 20
87.3252423911
  0
LWPOLYLINE
  5
301
100
AcDbEntity
  8
RACCORDO
100
AcDbPolyline
 62
253
  6
CONTINUOUS
 90
13
 70
0
 10
126.5713040621
 20
124.2419887691
 10
126.1698981152
 20
121.1533956967
 10
125.795872558
 20
118.0724765702
 10
125.4492746331
 20
114.9996240943
 10
125.1301480479
 20
111.9352300058
 10
124.8385333613
 20
108.8796847091
 10
124.5744679816
 20
105.833377227
 10
124.3379857749
 20
102.7966955412
 10
124.129116644
 20
99.7700266314
 10
123.9478869228
 20
96.7537561131
 10
123.7943197909
 20
93.748268173
 10
123.6684352672
 20
90.7539455182
 10
123.5702497965
 20
87.771169419
  0
LINE
  5
302
100
AcDbEntity
  8
RACCORDO
100
AcDbLine
 62
7
  6
CONTINUOUS
 10
142.3436389269
 20
134.3555728361
 11
141.8469700702
 21
133.8482089657
  0
LWPOLYLINE
  5
303
100
AcDbEntity
  8
0
100
AcDbPolyline
 62
253
  6
CONTINUOUS
 90
22
 70
0
 10
151.1937873749
 20
130.2130712502
 10
151.2013404251
 20
130.2171294192
 10
151.2085896665
 20
130.2213251149
 10
151.2155250301
 20
130.2256526757
 10
151.2221372465
 20
130.2301065202
 10
151.2284166821
 20
130.2346803721
 10
151.234353551
 20
130.2393671993
 10
151.2399394034
 20
130.2441602965
 10
151.2451669704
 20
130.2490533893
 10
151.2500291289
 20
130.2540398142
 10
151.254519241
 20
130.2591127749
 10
151.2586311367
 20
130.2642653126
 10
151.2623591589
 20
130.2694903421
 10
151.2656982001
 20
130.2747806993
 10
151.2686437077
 20
130.2801291644
 10
151.27119166
 20
130.2855284341
 10
151.2733385726
 20
130.2909711276
 10
151.275081506
 20
130.2964497965
 10
151.2764180752
 20
130.3019569464
 10
151.2773464511
 20
130.3074850442
 10
151.2778653635
 20
130.3130265293
 10
151.2779854347
 20
130.3172682426
  0
LINE
  5
304
100
AcDbEntity
  8
0
100
AcDbLine
 62
253
  6
CONTINUOUS
 10
150.2358391552
 20
130.192820142
 11
150.9779854348
 21
130.5770776269
  0
LINE
  5
305
100
AcDbEntity
  8
0
100
AcDbLine
 62
253
  6
CONTINUOUS
 10
150.1516410953
 20
129.6734842182
 11
151.1937873749
 21
130.2130712502
  0
LINE
  5
306
100
AcDbEntity
  8
0
100
AcDbLine
 62
7
  6
CONTINUOUS
 10
141.0465926612
 20
125.5936099104
 11
138.751655903
 21
124.41735916
  0
LINE
  5
307
100
AcDbEntity
  8
0
100
AcDbLine
 62
7
  6
CONTINUOUS
 10
140.6899538569
 20
123.0519225912
 11
139.7626929658
 21
122.5963142212
  0
LWPOLYLINE
  5
308
100
AcDbEntity
  8
0
100
AcDbPolyline
 62
253
  6
CONTINUOUS
 90
40
 70
0
 10
139.6545765922
 20
106.2666004142
 10
139.6623553745
 20
106.2654177853
 10
139.6701215396
 20
106.2639561354
 10
139.6778624907
 20
106.2622178353
 10
139.685565672
 20
106.2602057044
 10
139.6932185889
 20
106.2579230065
 10
139.7008088283
 20
106.2553734442
 10
139.7083240789
 20
106.2525611527
 10
139.7157521509
 20
106.2494906937
 10
139.7230809959
 20
106.2461670474
 10
139.7302987265
 20
106.2425956049
 10
139.7373936355
 20
106.238782159
 10
139.744354215
 20
106.2347328951
 10
139.7511691748
 20
106.2304543812
 10
139.7578274611
 20
106.225953557
 10
139.7643182742
 20
106.2212377229
 10
139.7706310858
 20
106.2163145279
 10
139.7767556566
 20
106.2111919576
 10
139.7826820525
 20
106.2058783207
 10
139.7884006609
 20
106.200382236
 10
139.7939022062
 20
106.1947126182
 10
139.7991777648
 20
106.1888786633
 10
139.8042187797
 20
106.1828898341
 10
139.8090170745
 20
106.1767558446
 10
139.8135648663
 20
106.1704866439
 10
139.8178547785
 20
106.1640924009
 10
139.8218798529
 20
106.157583487
 10
139.8256335608
 20
106.1509704597
 10
139.8291098137
 20
106.1442640453
 10
139.832302973
 20
106.1374751216
 10
139.8352078595
 20
106.1306147004
 10
139.8378197615
 20
106.1236939093
 10
139.8401344423
 20
106.1167239737
 10
139.8421481476
 20
106.109716199
 10
139.8438576112
 20
106.1026819518
 10
139.8452600603
 20
106.0956326417
 10
139.8463532201
 20
106.0885797026
 10
139.8471353175
 20
106.0815345745
 10
139.8476050839
 20
106.0745086846
 10
139.8477617574
 20
106.0675134289
  0
LINE
  5
309
100
AcDbEntity
  8
0
100
AcDbLine
 62
253
  6
CONTINUOUS
 10
139.7626929658
 20
101.8117045304
 11
139.4132906009
 21
101.9864057128
  0
LINE
  5
30A
100
AcDbEntity
  8
0
100
AcDbLine
 62
7
  6
CONTINUOUS
 10
139.4528477544
 20
102.7773589255
 11
139.4060541615
 21
102.8007557219
  0
LINE
  5
30B
100
AcDbEntity
  8
0
100
AcDbLine
 62
253
  6
CONTINUOUS
 10
140.6899538569
 20
102.2673129003
 11
140.0751570597
 21
102.5747112989
  0
LINE
  5
30C
100
AcDbEntity
  8
268
100
AcDbLine
 62
7
  6
CONTINUOUS
 10
130.8610971133
 20
107.9573938934
 11
131.0497518217
 21
107.8630665392
  0
LINE
  5
30D
100
AcDbEntity
  8
0
100
AcDbLine
 62
253
  6
CONTINUOUS
 10
141.0465926612
 20
102.8755595907
 11
140.4225391529
 21
103.1875863448
  0
LINE
  5
30E
100
AcDbEntity
  8
268
100
AcDbLine
 62
253
  6
CONTINUOUS
 10
128.0416647328
 20
130.7384204266
 11
128.0416647328
 21
131.9533752927
  0
LINE
  5
30F
100
AcDbEntity
  8
268
100
AcDbLine
 62
7
  6
CONTINUOUS
 10
128.3981013922
 20
134.914963021
 11
128.3981013922
 21
136.2416651203
  0
LINE
  5
310
100
AcDbEntity
  8
268
100
AcDbLine
 62
253
  6
CONTINUOUS
 10
128.4646910844
 20
130.7400592741
 11
128.4646910844
 21
131.954262747
  0
LWPOLYLINE
  5
311
100
AcDbEntity
  8
RACCORDO
100
AcDbPolyline
 62
253
  6
CONTINUOUS
 90
16
 70
0
 10
128.218425564
 20
124.8708093854
 10
128.2200089165
 20
124.9468901598
 10
128.2155460182
 20
125.0252931626
 10
128.2050856917
 20
125.1051601676
 10
128.1887424104
 20
125.1856169185
 10
128.1666950477
 20
125.2657826905
 10
128.1391849219
 20
125.3447799313
 10
128.1065131485
 20
125.4217438854
 10
128.0690373516
 20
125.4958320399
 10
128.0271677562
 20
125.5662333426
 10
127.9813626781
 20
125.6321771176
 10
127.9321235207
 20
125.6929414734
 10
127.8799893013
 20
125.7478611949
 10
127.825530722
 20
125.7963350645
 10
127.7693439181
 20
125.837832437
 10
127.7120439529
 20
125.8718990275
  0
LWPOLYLINE
  5
312
100
AcDbEntity
  8
RACCORDO
100
AcDbPolyline
 62
253
  6
CONTINUOUS
 90
7
 70
0
 10
125.6878186247
 20
105.7540293475
 10
125.4519819989
 20
102.7255654812
 10
125.2436544711
 20
99.7067001552
 10
125.0629158193
 20
96.6985928674
 10
124.9097926362
 20
93.7016301173
 10
124.7842583291
 20
90.7154254054
 10
124.6863128981
 20
87.7399787318
  0
LWPOLYLINE
  5
313
100
AcDbEntity
  8
RACCORDO
100
AcDbPolyline
 62
253
  6
CONTINUOUS
 90
7
 70
0
 10
127.6793643522
 20
124.1135425637
 10
127.2789466328
 20
121.0325496579
 10
126.905926286
 20
117.9599863667
 10
126.5603033118
 20
114.89585269
 10
126.2420404684
 20
111.839758986
 10
125.9511749975
 20
108.7920948966
 10
125.6878186247
 20
105.7540293475
  0
LWPOLYLINE
  5
314
100
AcDbEntity
  8
0
100
AcDbPolyline
 62
253
  6
CONTINUOUS
 90
16
 70
0
 10
139.7799821702
 20
121.5770772797
 10
139.7847461802
 20
121.5795423743
 10
139.7893570342
 20
121.5820983468
 10
139.7938070966
 20
121.5847431489
 10
139.7980919765
 20
121.5874766649
 10
139.8022007254
 20
121.5902945248
 10
139.8061173335
 20
121.5931875623
 10
139.8098345794
 20
121.5961514948
 10
139.8133483019
 20
121.5991841152
 10
139.8166494331
 20
121.602278498
 10
139.819732874
 20
121.6054303002
 10
139.8225950904
 20
121.6086363771
 10
139.8252308103
 20
121.6118911875
 10
139.827636292
 20
121.6151901681
 10
139.8298089419
 20
121.6185298242
 10
139.8317459792
 20
121.6219060533
  0
LINE
  5
315
100
AcDbEntity
  8
0
100
AcDbLine
 62
7
  6
CONTINUOUS
 10
140.0009074771
 20
122.5013199116
 11
139.4537124325
 21
122.2277223893
  0
LWPOLYLINE
  5
316
100
AcDbEntity
  8
0
100
AcDbPolyline
 62
253
  6
CONTINUOUS
 90
28
 70
0
 10
139.605743874
 20
121.2343293052
 10
139.5999347172
 20
121.2315394197
 10
139.5939055968
 20
121.2288687525
 10
139.5876662923
 20
121.2263216352
 10
139.5812269237
 20
121.2239021994
 10
139.5745979357
 20
121.2216143694
 10
139.5677900806
 20
121.219461856
 10
139.5608144007
 20
121.2174481507
 10
139.5536822107
 20
121.2155765197
 10
139.5464050789
 20
121.2138499987
 10
139.5389948088
 20
121.2122713882
 10
139.5314634201
 20
121.2108432487
 10
139.5238231285
 20
121.2095678966
 10
139.5160863268
 20
121.2084474006
 10
139.508265564
 20
121.2074835782
 10
139.5003735253
 20
121.2066779926
 10
139.4924230119
 20
121.2060319505
 10
139.4844269193
 20
121.2055464998
 10
139.4763982173
 20
121.2052224279
 10
139.4683499284
 20
121.2050602604
 10
139.4602951071
 20
121.2050602604
 10
139.4522468183
 20
121.2052224279
 10
139.4442181163
 20
121.2055464998
 10
139.4362220237
 20
121.2060319505
 10
139.4282715102
 20
121.2066779926
 10
139.4203794716
 20
121.2074835782
 10
139.4125587088
 20
121.2084474006
 10
139.4060541615
 20
121.2093894332
  0
LINE
  5
317
100
AcDbEntity
  8
0
100
AcDbLine
 62
253
  6
CONTINUOUS
 10
139.4060541615
 20
106.3908616296
 11
139.6545765922
 21
106.2666004142
  0
LWPOLYLINE
  5
318
100
AcDbEntity
  8
0
100
AcDbPolyline
 62
253
  6
CONTINUOUS
 90
40
 70
0
 10
139.6132983218
 20
106.2171186612
 10
139.6190132736
 20
106.214143463
 10
139.6247599316
 20
106.2109171578
 10
139.6305289746
 20
106.2074449789
 10
139.6363110453
 20
106.203732558
 10
139.6420967652
 20
106.1997859168
 10
139.6478767497
 20
106.1956114566
 10
139.6536416238
 20
106.1912159486
 10
139.6593820367
 20
106.1866065222
 10
139.6650886775
 20
106.181790654
 10
139.67075229
 20
106.1767761552
 10
139.6763636879
 20
106.1715711594
 10
139.6819137693
 20
106.1661841092
 10
139.6873935321
 20
106.1606237424
 10
139.692794088
 20
106.1548990779
 10
139.6981066774
 20
106.149019401
 10
139.7033226832
 20
106.1429942488
 10
139.7084336449
 20
106.136833394
 10
139.7134312727
 20
106.1305468295
 10
139.7183074604
 20
106.1241447521
 10
139.7230542986
 20
106.1176375462
 10
139.7276640882
 20
106.1110357662
 10
139.7321293519
 20
106.1043501205
 10
139.736442847
 20
106.0975914531
 10
139.7405975772
 20
106.0907707265
 10
139.7445868034
 20
106.0838990042
 10
139.748404055
 20
106.0769874319
 10
139.7520431405
 20
106.0700472203
 10
139.7554981572
 20
106.0630896265
 10
139.7587635012
 20
106.0561259357
 10
139.7618338759
 20
106.0491674429
 10
139.7647043013
 20
106.042225435
 10
139.7673701215
 20
106.0353111719
 10
139.7698270125
 20
106.0284358686
 10
139.7720709893
 20
106.0216106767
 10
139.774098412
 20
106.0148466669
 10
139.7759059923
 20
106.0081548103
 10
139.7774907982
 20
106.0015459612
 10
139.7788502592
 20
105.9950308391
 10
139.7799821702
 20
105.9886200116
  0
LWPOLYLINE
  5
319
100
AcDbEntity
  8
268
100
AcDbPolyline
 62
7
  6
CONTINUOUS
 90
13
 70
0
 10
139.2168833311
 20
95.4333296569
 10
139.2139921661
 20
95.4372228479
 10
139.2103034019
 20
95.4416051881
 10
139.205843438
 20
95.4463624809
 10
139.2006505797
 20
95.4515023356
 10
139.1947679225
 20
95.4570496943
 10
139.1882073884
 20
95.4629172929
 10
139.1810004852
 20
95.4691146009
 10
139.1731833395
 20
95.4756597255
 10
139.1647594001
 20
95.4824806016
 10
139.1557465087
 20
95.4895626264
 10
139.1461846633
 20
95.4969462697
 10
139.1361049062
 20
95.5046428243
  0
LINE
  5
31A
100
AcDbEntity
  8
268
100
AcDbLine
 62
7
  6
CONTINUOUS
 10
130.1957044104
 20
99.8710965739
 11
130.7765384192
 21
94.4572710003
  0
LINE
  5
31B
100
AcDbEntity
  8
268
100
AcDbLine
 62
7
  6
CONTINUOUS
 10
131.0497518217
 20
107.8630665392
 11
132.7821634356
 21
91.4489056318
  0
LINE
  5
31C
100
AcDbEntity
  8
268
100
AcDbLine
 62
7
  6
CONTINUOUS
 10
128.7516547828
 20
135.5123302357
 11
128.7516547828
 21
136.064888425
  0
LINE
  5
31D
100
AcDbEntity
  8
268
100
AcDbLine
 62
253
  6
CONTINUOUS
 10
128.8223654609
 20
137.6810967226
 11
128.8223654609
 21
136.4492625412
  0
LINE
  5
31E
100
AcDbEntity
  8
268
100
AcDbLine
 62
7
  6
CONTINUOUS
 10
128.9102334266
 20
137.7860939365
 11
128.9102334266
 21
136.5537253317
  0
LINE
  5
31F
100
AcDbEntity
  8
268
100
AcDbLine
 62
7
  6
CONTINUOUS
 10
128.9637868172
 20
132.2044594201
 11
128.9637868172
 21
130.9920238548
  0
LINE
  5
320
100
AcDbEntity
  8
268
100
AcDbLine
 62
7
  6
CONTINUOUS
 10
129.9640208781
 20
88.4219973631
 11
129.9640208781
 21
88.6753687569
  0
LINE
  5
321
100
AcDbEntity
  8
268
100
AcDbLine
 62
7
  6
CONTINUOUS
 10
129.9640208781
 20
129.9749728963
 11
129.9640208781
 21
130.22834429
  0
LINE
  5
322
100
AcDbEntity
  8
268
100
AcDbLine
 62
7
  6
CONTINUOUS
 10
130.6670138324
 20
129.0684136416
 11
130.6670138324
 21
129.5207446172
  0
LWPOLYLINE
  5
323
100
AcDbEntity
  8
RACCORDO
100
AcDbPolyline
 62
253
  6
CONTINUOUS
 90
11
 70
0
 10
125.1289341298
 20
87.3252423911
 10
125.1181654892
 20
87.2512144728
 10
125.1014856938
 20
87.1811518882
 10
125.0790773318
 20
87.1158215887
 10
125.0511856998
 20
87.055938723
 10
125.0181161181
 20
87.0021588085
 10
124.9802305883
 20
86.9550705557
 10
124.9379438303
 20
86.9151894237
 10
124.891718743
 20
86.8829519777
 10
124.8420613367
 20
86.8587111103
 10
124.8200407655
 20
86.8508955551
  0
LWPOLYLINE
  5
324
100
AcDbEntity
  8
0
100
AcDbPolyline
 62
253
  6
CONTINUOUS
 90
24
 70
0
 10
139.613302352
 20
121.8055788406
 10
139.6026015848
 20
121.7976397969
 10
139.5919715341
 20
121.7893331936
 10
139.5814223074
 20
121.7806669797
 10
139.5709640751
 20
121.77164957
 10
139.5606066332
 20
121.7622894713
 10
139.5503594085
 20
121.7525952282
 10
139.540232013
 20
121.7425759239
 10
139.5302342246
 20
121.7322412218
 10
139.5203755608
 20
121.7216009598
 10
139.5106654012
 20
121.7106652603
 10
139.5011129861
 20
121.6994445296
 10
139.4917274123
 20
121.6879494534
 10
139.4825176141
 20
121.6761909752
 10
139.4734923498
 20
121.6641802781
 10
139.4646602016
 20
121.6519287836
 10
139.4560295713
 20
121.6394481464
 10
139.4476086729
 20
121.6267502439
 10
139.4394055188
 20
121.6138471583
 10
139.4314279141
 20
121.6007511668
 10
139.4236834496
 20
121.58747473
 10
139.416179494
 20
121.5740304805
 10
139.4089231878
 20
121.5604312112
 10
139.4060541615
 20
121.554800579
  0
LWPOLYLINE
  5
325
100
AcDbEntity
  8
0
100
AcDbPolyline
 62
253
  6
CONTINUOUS
 90
46
 70
0
 10
139.7799821702
 20
121.5770768786
 10
139.7735525514
 20
121.5723059622
 10
139.7671771425
 20
121.5673241325
 10
139.7608559435
 20
121.5621313896
 10
139.7545830441
 20
121.5567223788
 10
139.7483643546
 20
121.5511024548
 10
139.7422176057
 20
121.5452876819
 10
139.7361430037
 20
121.5392775195
 10
139.7301403422
 20
121.5330725083
 10
139.724226733
 20
121.5266903347
 10
139.7184024296
 20
121.520130492
 10
139.7126671785
 20
121.5133934869
 10
139.7070373308
 20
121.5064985259
 10
139.7015131899
 20
121.4994451614
 10
139.6960944523
 20
121.492233841
 10
139.6907965594
 20
121.4848851135
 10
139.6856198546
 20
121.4773985857
 10
139.6805639945
 20
121.4697746509
 10
139.6756433896
 20
121.462035038
 10
139.6708584257
 20
121.4541794169
 10
139.6662087169
 20
121.4462081176
 10
139.6617075163
 20
121.4381438593
 10
139.6573552478
 20
121.4299863773
 10
139.6531514875
 20
121.4217359361
 10
139.6491082166
 20
121.4134160485
 10
139.6452258936
 20
121.4050265188
 10
139.64150406
 20
121.3965675427
 10
139.6379533217
 20
121.3880632201
 10
139.6345741591
 20
121.3795133966
 10
139.6313660917
 20
121.3709182265
 10
139.6283382842
 20
121.3623022727
 10
139.6254912724
 20
121.353665552
 10
139.6228245204
 20
121.3450080474
 10
139.6203455849
 20
121.3363542705
 10
139.6180548475
 20
121.3277032623
 10
139.6159519265
 20
121.3190559817
 10
139.6140432341
 20
121.3104398175
 10
139.6123304662
 20
121.301866718
 10
139.6108119267
 20
121.2933247349
 10
139.6094889404
 20
121.2848054119
 10
139.6083588528
 20
121.2762992308
 10
139.6074243183
 20
121.2678157098
 10
139.6066946245
 20
121.2593749469
 10
139.606172867
 20
121.2509836415
 10
139.6058559502
 20
121.2426350942
 10
139.605743874
 20
121.2343293052
  0
LINE
  5
326
100
AcDbEntity
  8
0
100
AcDbLine
 62
7
  6
CONTINUOUS
 10
139.4060541615
 20
117.8167304
 11
140.0751570597
 21
118.1631685671
  0
LINE
  5
327
100
AcDbEntity
  8
0
100
AcDbLine
 62
7
  6
CONTINUOUS
 10
140.6899538569
 20
117.8557701685
 11
139.7626929658
 21
117.4001617985
  0
LWPOLYLINE
  5
328
100
AcDbEntity
  8
0
100
AcDbPolyline
 62
253
  6
CONTINUOUS
 90
28
 70
0
 10
139.605743874
 20
118.6362530938
 10
139.5999347172
 20
118.6334632084
 10
139.5939055968
 20
118.6307925411
 10
139.5876662923
 20
118.6282454239
 10
139.5812269237
 20
118.6258259881
 10
139.5745979357
 20
118.6235381581
 10
139.5677900806
 20
118.6213856447
 10
139.5608144007
 20
118.6193719394
 10
139.5536822107
 20
118.6175003083
 10
139.5464050789
 20
118.6157737873
 10
139.5389948088
 20
118.6141951768
 10
139.5314634201
 20
118.6127670373
 10
139.5238231285
 20
118.6114916853
 10
139.5160863268
 20
118.6103711893
 10
139.508265564
 20
118.6094073668
 10
139.5003735253
 20
118.6086017812
 10
139.4924230119
 20
118.6079557391
 10
139.4844269193
 20
118.6074702884
 10
139.4763982173
 20
118.6071462165
 10
139.4683499284
 20
118.606984049
 10
139.4602951071
 20
118.606984049
 10
139.4522468183
 20
118.6071462165
 10
139.4442181163
 20
118.6074702884
 10
139.4362220237
 20
118.6079557391
 10
139.4282715102
 20
118.6086017812
 10
139.4203794716
 20
118.6094073668
 10
139.4125587088
 20
118.6103711893
 10
139.4060541615
 20
118.6113132218
  0
LINE
  5
329
100
AcDbEntity
  8
0
100
AcDbLine
 62
253
  6
CONTINUOUS
 10
141.0465926612
 20
107.2056866096
 11
140.6098011147
 21
107.4240823828
  0
LWPOLYLINE
  5
32A
100
AcDbEntity
  8
0
100
AcDbPolyline
 62
253
  6
CONTINUOUS
 90
8
 70
0
 10
139.4060541615
 20
102.8104752973
 10
139.4086717727
 20
102.8079470255
 10
139.4159309551
 20
102.8015801585
 10
139.4234388125
 20
102.795617047
 10
139.4311881787
 20
102.7900633828
 10
139.4391716568
 20
102.7849244669
 10
139.4473816248
 20
102.7802052053
 10
139.4528477516
 20
102.7773589269
  0
LWPOLYLINE
  5
32B
100
AcDbEntity
  8
268
100
AcDbPolyline
 62
7
  6
CONTINUOUS
 90
24
 70
0
 10
131.5093712294
 20
136.555770969
 10
131.508798045
 20
136.5902433752
 10
131.507098932
 20
136.6239932962
 10
131.5042738904
 20
136.6570207319
 10
131.5003134559
 20
136.6893822893
 10
131.4952270928
 20
136.7210213615
 10
131.4890431944
 20
136.7517681281
 10
131.481760579
 20
136.7816036555
 10
131.4733804283
 20
136.8105468773
 10
131.4639346811
 20
136.8384847732
 10
131.4534108226
 20
136.865430936
 10
131.4418213675
 20
136.891371773
 10
131.4292357988
 20
136.9161534859
 10
131.4156606129
 20
136.9397507872
 10
131.4010893134
 20
136.9621889646
 10
131.3855718933
 20
136.9833900818
 10
131.369088606
 20
137.0033671717
 10
131.3516591981
 20
137.0221072016
 10
131.3333929034
 20
137.0394931371
 10
131.3143042475
 20
137.0555020635
 10
131.2943787048
 20
137.0701568955
 10
131.2736819324
 20
137.0834093439
 10
131.2521894178
 20
137.0952652052
 10
128.0229881516
 20
138.7098897155
  0
LINE
  5
32C
100
AcDbEntity
  8
268
100
AcDbLine
 62
7
  6
CONTINUOUS
 10
131.5093712294
 20
136.555770969
 11
131.5093712294
 21
136.2849706764
  0
LINE
  5
32D
100
AcDbEntity
  8
268
100
AcDbLine
 62
7
  6
CONTINUOUS
 10
131.5697973403
 20
129.4254560589
 11
131.5697973403
 21
129.1720846652
  0
LINE
  5
32E
100
AcDbEntity
  8
268
100
AcDbLine
 62
7
  6
CONTINUOUS
 10
131.5697973403
 20
87.8724805258
 11
131.5697973403
 21
87.619109132
  0
LINE
  5
32F
100
AcDbEntity
  8
268
100
AcDbLine
 62
7
  6
CONTINUOUS
 10
131.9689906372
 20
127.3996403356
 11
131.9689906372
 21
127.3752448303
  0
LINE
  5
330
100
AcDbEntity
  8
268
100
AcDbLine
 62
7
  6
CONTINUOUS
 10
131.9689906372
 20
89.2701270638
 11
131.9689906372
 21
89.2457315585
  0
LINE
  5
331
100
AcDbEntity
  8
268
100
AcDbLine
 62
7
  6
CONTINUOUS
 10
132.2810179484
 20
88.8489770029
 11
132.2810179484
 21
89.253599094
  0
LINE
  5
332
100
AcDbEntity
  8
268
100
AcDbLine
 62
7
  6
CONTINUOUS
 10
132.2810179484
 20
128.2614115836
 11
132.2810179484
 21
128.8985811423
  0
LINE
  5
333
100
AcDbEntity
  8
268
100
AcDbLine
 62
7
  6
CONTINUOUS
 10
132.7821634356
 20
127.6595464982
 11
132.7821634356
 21
126.0096390606
  0
LINE
  5
334
100
AcDbEntity
  8
268
100
AcDbLine
 62
7
  6
CONTINUOUS
 10
132.7821634356
 20
91.4489056318
 11
132.7821634356
 21
89.7989981942
  0
LINE
  5
335
100
AcDbEntity
  8
RACCORDO
100
AcDbLine
 62
7
  6
CONTINUOUS
 10
129.2714703432
 20
88.6391858127
 11
132.3832391252
 21
126.455482042
  0
LINE
  5
336
100
AcDbEntity
  8
268
100
AcDbLine
 62
7
  6
CONTINUOUS
 10
132.7821634356
 20
126.0096390606
 11
131.0497518217
 21
107.8630665392
  0
LWPOLYLINE
  5
337
100
AcDbEntity
  8
0
100
AcDbPolyline
 62
253
  6
CONTINUOUS
 90
7
 70
0
 10
139.613302352
 20
121.8055788406
 10
139.6199914004
 20
121.8145645405
 10
139.6267677289
 20
121.8232733828
 10
139.6336232081
 20
121.8316912456
 10
139.640549265
 20
121.8398039933
 10
139.6475368812
 20
121.8475975014
 10
139.6545765922
 20
121.8550576823
  0
LWPOLYLINE
  5
338
100
AcDbEntity
  8
0
100
AcDbPolyline
 62
7
  6
CONTINUOUS
 90
32
 70
0
 10
151.1225515464
 20
123.6782313116
 10
151.131568821
 20
123.6833957798
 10
151.140266142
 20
123.6887821295
 10
151.148711887
 20
123.6944183649
 10
151.1570025715
 20
123.7003673037
 10
151.1651893412
 20
123.7066771336
 10
151.1731969654
 20
123.713302154
 10
151.1809312034
 20
123.7201646398
 10
151.1883364828
 20
123.7272031242
 10
151.195461246
 20
123.7344511976
 10
151.202367049
 20
123.741970979
 10
151.2090818986
 20
123.7498046241
 10
151.2155526755
 20
123.7579025004
 10
151.2217183289
 20
123.7661891202
 10
151.2275409124
 20
123.7746018761
 10
151.2330524552
 20
123.7831747032
 10
151.2382959663
 20
123.7919757745
 10
151.243287523
 20
123.801048462
 10
151.2479856248
 20
123.8103347402
 10
151.2523465094
 20
123.819750582
 10
151.2563451905
 20
123.8292270728
 10
151.2600048852
 20
123.838802589
 10
151.2633533131
 20
123.848553091
 10
151.266395629
 20
123.8585206896
 10
151.2691032872
 20
123.8686416999
 10
151.2714522196
 20
123.8788337788
 10
151.2734329347
 20
123.8890362146
 10
151.2750559482
 20
123.899278953
 10
151.27632848
 20
123.9096143763
 10
151.2772459881
 20
123.9200508736
 10
151.2777998804
 20
123.9305515265
 10
151.2779854348
 20
123.9411013162
  0
LINE
  5
339
100
AcDbEntity
  8
0
100
AcDbLine
 62
7
  6
CONTINUOUS
 10
150.2358391552
 20
123.1998186077
 11
151.1225515464
 21
123.6782313116
  0
LWPOLYLINE
  5
33A
100
AcDbEntity
  8
0
100
AcDbPolyline
 62
253
  6
CONTINUOUS
 90
22
 70
0
 10
150.1516410953
 20
123.2746407342
 10
151.2013454913
 20
123.8409635547
 10
151.2085981211
 20
123.8451615058
 10
151.215535345
 20
123.8494906726
 10
151.222147675
 20
123.853945134
 10
151.2284260676
 20
123.8585187977
 10
151.2343619358
 20
123.8632054085
 10
151.2399471612
 20
123.8679985565
 10
151.245174105
 20
123.8728916862
 10
151.2500356184
 20
123.8778781053
 10
151.2545250523
 20
123.882950994
 10
151.2586362667
 20
123.8881034141
 10
151.2623636386
 20
123.8933283187
 10
151.2657020702
 20
123.8986185618
 10
151.2686469955
 20
123.903966908
 10
151.2711943869
 20
123.9093660425
 10
151.2733407602
 20
123.9148085808
 10
151.2750831799
 20
123.9202870794
 10
151.276419263
 20
123.9257940454
 10
151.2773471821
 20
123.9313219469
 10
151.277865668
 20
123.9368632235
 10
151.2779854348
 20
123.9411013162
  0
LWPOLYLINE
  5
33B
100
AcDbEntity
  8
268
100
AcDbPolyline
 62
7
  6
CONTINUOUS
 90
31
 70
0
 10
133.7367575902
 20
128.302418035
 10
133.7364179226
 20
128.3184510671
 10
133.7354014851
 20
128.3347796363
 10
133.7337107518
 20
128.3513588395
 10
133.7313497473
 20
128.3681429392
 10
133.7283249356
 20
128.3850859332
 10
133.7246452032
 20
128.4021416815
 10
133.7203203502
 20
128.4192633002
 10
133.7153619203
 20
128.436403711
 10
133.7097840697
 20
128.4535162158
 10
133.7036018255
 20
128.4705537856
 10
133.6968318352
 20
128.4874695777
 10
133.6894931769
 20
128.5042174853
 10
133.6816057349
 20
128.5207514925
 10
133.6731908509
 20
128.5370261452
 10
133.6642720559
 20
128.5529970635
 10
133.6548736021
 20
128.5686203776
 10
133.6450210004
 20
128.5838531415
 10
133.634741655
 20
128.5986537958
 10
133.6240635896
 20
128.612981697
 10
133.6130158558
 20
128.6267974651
 10
133.6016290565
 20
128.6400633851
 10
133.5899342967
 20
128.6527430412
 10
133.5779634536
 20
128.664801589
 10
133.5657495746
 20
128.6762060878
 10
133.5533260801
 20
128.686925246
 10
133.5407268879
 20
128.6969296133
 10
133.5279866755
 20
128.7061918347
 10
133.5151403793
 20
128.714686526
 10
133.5022230989
 20
128.7223903436
 10
133.4892702167
 20
128.729282155
  0
LINE
  5
33C
100
AcDbEntity
  8
268
100
AcDbLine
 62
7
  6
CONTINUOUS
 10
133.3478488605
 20
88.270003936
 11
133.3478488605
 21
89.7756120622
  0
LINE
  5
33D
100
AcDbEntity
  8
268
100
AcDbLine
 62
7
  6
CONTINUOUS
 10
133.3478488605
 20
128.7999928331
 11
133.3478488605
 21
130.5320436407
  0
LINE
  5
33E
100
AcDbEntity
  8
268
100
AcDbLine
 62
7
  6
CONTINUOUS
 10
134.0508418148
 20
130.6673651384
 11
134.0508418148
 21
130.4064361621
  0
LINE
  5
33F
100
AcDbEntity
  8
268
100
AcDbLine
 62
7
  6
CONTINUOUS
 10
134.0508418148
 20
89.1068320227
 11
134.0508418148
 21
88.8459030463
  0
LINE
  5
340
100
AcDbEntity
  8
268
100
AcDbLine
 62
253
  6
CONTINUOUS
 10
134.3780595123
 20
134.9044750304
 11
134.3780595123
 21
133.6726364521
  0
LINE
  5
341
100
AcDbEntity
  8
RACCORDO
100
AcDbLine
 62
7
  6
CONTINUOUS
 10
134.4438643713
 20
124.8642631183
 11
134.4438643713
 21
94.2559825099
  0
LINE
  5
342
100
AcDbEntity
  8
268
100
AcDbLine
 62
7
  6
CONTINUOUS
 10
134.4438643713
 20
90.4718318917
 11
134.4438643713
 21
128.6484137364
  0
LINE
  5
343
100
AcDbEntity
  8
268
100
AcDbLine
 62
7
  6
CONTINUOUS
 10
134.4646969407
 20
135.0088624058
 11
134.4646969407
 21
133.776493914
  0
LWPOLYLINE
  5
344
100
AcDbEntity
  8
268
100
AcDbPolyline
 62
7
  6
CONTINUOUS
 90
18
 70
0
 10
133.7367575902
 20
90.1107208119
 10
133.7364189457
 20
90.0950269359
 10
133.7354023022
 20
90.0797149071
 10
133.7337107518
 20
90.0648268458
 10
133.7313495346
 20
90.050403857
 10
133.7283251231
 20
90.0364854746
 10
133.7246452032
 20
90.0231095524
 10
133.7203201394
 20
90.0103128922
 10
133.7153620898
 20
89.9981307211
 10
133.7097840697
 20
89.9865961517
 10
133.7036016219
 20
89.9757409278
 10
133.6968319825
 20
89.9655949506
 10
133.6894931769
 20
89.9561857749
 10
133.6816055433
 20
89.9475393056
 10
133.6731909724
 20
89.9396793803
 10
133.6642720559
 20
89.9326273178
 10
133.6548734274
 20
89.9264025448
 10
133.6467888161
 20
89.9219082805
  0
LINE
  5
345
100
AcDbEntity
  8
DRAFT
100
AcDbLine
 62
7
  6
CONTINUOUS
 10
144.5246750043
 20
138.6640095437
 11
144.4880854058
 21
138.5603464636
  0
LINE
  5
346
100
AcDbEntity
  8
0
100
AcDbLine
 62
253
  6
CONTINUOUS
 10
139.6545765922
 20
121.8550576823
 11
140.0009074771
 21
122.5013199116
  0
LINE
  5
347
100
AcDbEntity
  8
0
100
AcDbLine
 62
253
  6
CONTINUOUS
 10
139.8477617574
 20
121.6559706971
 11
140.2837501896
 21
122.4695361871
  0
LWPOLYLINE
  5
348
100
AcDbEntity
  8
0
100
AcDbPolyline
 62
253
  6
CONTINUOUS
 90
15
 70
0
 10
139.7988554329
 20
118.4188479271
 10
139.8028427645
 20
118.4244327691
 10
139.8067439387
 20
118.430423865
 10
139.8103823491
 20
118.4365837428
 10
139.8137523112
 20
118.4429027786
 10
139.8168485597
 20
118.4493710996
 10
139.8196662573
 20
118.4559786001
 10
139.8222010018
 20
118.4627149568
 10
139.8244488328
 20
118.4695696449
 10
139.8264062384
 20
118.4765319549
 10
139.8280701607
 20
118.4835910093
 10
139.8294379996
 20
118.490735779
 10
139.8305076181
 20
118.4979551012
 10
139.8312773455
 20
118.5052376972
 10
139.8317459792
 20
118.512572189
  0
LWPOLYLINE
  5
349
100
AcDbEntity
  8
0
100
AcDbPolyline
 62
7
  6
CONTINUOUS
 90
10
 70
0
 10
139.7988554292
 20
118.4188479298
 10
139.7995470218
 20
118.4197780349
 10
139.8038361254
 20
118.425697198
 10
139.8081103377
 20
118.4318629918
 10
139.8123754236
 20
118.4382938295
 10
139.816629939
 20
118.4449982371
 10
139.8208666978
 20
118.4519748474
 10
139.8250860103
 20
118.4592334499
 10
139.8292941255
 20
118.4667948799
 10
140.258925054
 20
119.2684736402
  0
LWPOLYLINE
  5
34A
100
AcDbEntity
  8
0
100
AcDbPolyline
 62
7
  6
CONTINUOUS
 90
19
 70
0
 10
139.7988449743
 20
118.4188339116
 10
139.7942892445
 20
118.4129604454
 10
139.7895265181
 20
118.4072696583
 10
139.7845657006
 20
118.4017698843
 10
139.7794260258
 20
118.3964787715
 10
139.7741076256
 20
118.3913926715
 10
139.7685878331
 20
118.3864903667
 10
139.762863056
 20
118.3817730398
 10
139.7569505995
 20
118.3772589985
 10
139.7508564543
 20
118.3729557879
 10
139.7445897044
 20
118.3688726253
 10
139.7381584504
 20
118.3650173304
 10
139.7315675067
 20
118.3613954731
 10
139.7248225356
 20
118.3580132019
 10
139.7179373723
 20
118.3548802338
 10
139.7109298828
 20
118.3520064659
 10
139.7038244746
 20
118.3494021044
 10
139.696620124
 20
118.3470667468
 10
139.6920614029
 20
118.3457426851
  0
LWPOLYLINE
  5
34B
100
AcDbEntity
  8
0
100
AcDbPolyline
 62
7
  6
CONTINUOUS
 90
31
 70
0
 10
150.5304613649
 20
132.6183856607
 10
150.5357286712
 20
132.6249925172
 10
150.544953902
 20
132.6370081442
 10
150.5539019841
 20
132.6492394349
 10
150.5625694506
 20
132.6616741535
 10
150.5709560802
 20
132.6743044874
 10
150.5790625577
 20
132.6871256252
 10
150.5868866342
 20
132.700129026
 10
150.5944253888
 20
132.7133055559
 10
150.6016769494
 20
132.7266492932
 10
150.6086379399
 20
132.7401517636
 10
150.6153047337
 20
132.7538048481
 10
150.6216744781
 20
132.7676032432
 10
150.6277433381
 20
132.7815398663
 10
150.6335061464
 20
132.7956060509
 10
150.638958056
 20
132.8097943854
 10
150.6440952284
 20
132.8241007587
 10
150.6489105852
 20
132.8385141665
 10
150.6533955204
 20
132.8530174583
 10
150.6575448979
 20
132.8676041313
 10
150.6613523918
 20
132.8822657471
 10
150.6648094314
 20
132.8969833752
 10
150.6679103055
 20
132.9117499984
 10
150.6706487623
 20
132.9265580847
 10
150.6730168971
 20
132.9413895206
 10
150.6750083963
 20
132.9562368791
 10
150.6766167231
 20
132.9710935505
 10
150.6778343198
 20
132.9859447375
 10
150.6786539259
 20
133.0007814809
 10
150.6790684463
 20
133.0155976939
 10
150.6791213403
 20
133.0230570689
  0
LINE
  5
34C
100
AcDbEntity
  8
0
100
AcDbLine
 62
253
  6
CONTINUOUS
 10
150.5187747207
 20
132.6746288127
 11
150.2358391552
 21
132.3245147804
  0
LINE
  5
34D
100
AcDbEntity
  8
0
100
AcDbLine
 62
7
  6
CONTINUOUS
 10
150.530462164
 20
132.6183865891
 11
150.2358391552
 21
132.2538101195
  0
LWPOLYLINE
  5
34E
100
AcDbEntity
  8
0
100
AcDbPolyline
 62
7
  6
CONTINUOUS
 90
22
 70
0
 10
139.6920656499
 20
118.3457438641
 10
139.6796237251
 20
118.3425140207
 10
139.6672542074
 20
118.3397466498
 10
139.6549683752
 20
118.3374343616
 10
139.6427867751
 20
118.3355705625
 10
139.6307103316
 20
118.3341449132
 10
139.6187212981
 20
118.3331467921
 10
139.6068309723
 20
118.3325699829
 10
139.595049951
 20
118.332407714
 10
139.5833608344
 20
118.3326538158
 10
139.5717689364
 20
118.3333038776
 10
139.5602915844
 20
118.3343524443
 10
139.5489307261
 20
118.3357948424
 10
139.5377052344
 20
118.3376240693
 10
139.526618994
 20
118.3398346555
 10
139.5156528961
 20
118.3424274296
 10
139.5048143811
 20
118.3453993727
 10
139.4941198921
 20
118.3487444824
 10
139.4835654113
 20
118.3524629532
 10
139.4731579878
 20
118.3565522542
 10
139.4629148684
 20
118.3610053181
 10
139.4528477544
 20
118.3658161936
  0
LWPOLYLINE
  5
34F
100
AcDbEntity
  8
0
100
AcDbPolyline
 62
7
  6
CONTINUOUS
 90
6
 70
0
 10
139.4649302133
 20
135.0392180759
 10
139.4649164773
 20
135.0391067012
 10
139.4649029195
 20
135.0388666614
 10
139.464885569
 20
135.0385019048
 10
139.4648662472
 20
135.0380135327
 10
139.4648242911
 20
135.0366725882
  0
LINE
  5
350
100
AcDbEntity
  8
DRAFT
100
AcDbLine
 62
7
  6
CONTINUOUS
 10
144.8075177168
 20
138.8054309
 11
144.7709281183
 21
138.7017678198
  0
LINE
  5
351
100
AcDbEntity
  8
DRAFT
100
AcDbLine
 62
7
  6
CONTINUOUS
 10
145.0903604293
 20
138.9468522562
 11
145.0537708307
 21
138.843189176
  0
LINE
  5
352
100
AcDbEntity
  8
DRAFT
100
AcDbLine
 62
7
  6
CONTINUOUS
 10
145.3732031417
 20
139.0882736124
 11
145.3366135432
 21
138.9846105323
  0
LINE
  5
353
100
AcDbEntity
  8
DRAFT
100
AcDbLine
 62
7
  6
CONTINUOUS
 10
145.6560458542
 20
139.2296949687
 11
145.6194562557
 21
139.1260318885
  0
LINE
  5
354
100
AcDbEntity
  8
DRAFT
100
AcDbLine
 62
7
  6
CONTINUOUS
 10
145.9388885667
 20
139.3711163249
 11
145.9022989682
 21
139.2674532447
  0
LWPOLYLINE
  5
355
100
AcDbEntity
  8
0
100
AcDbPolyline
 62
253
  6
CONTINUOUS
 90
7
 70
0
 10
139.8317459792
 20
121.6219037327
 10
139.8343482964
 20
121.6280235932
 10
139.8369774052
 20
121.6339666405
 10
139.8396333058
 20
121.6397328745
 10
139.842315998
 20
121.6453222953
 10
139.8450254819
 20
121.6507349028
 10
139.8477617574
 20
121.6559706971
  0
LWPOLYLINE
  5
356
100
AcDbEntity
  8
0
100
AcDbPolyline
 62
253
  6
CONTINUOUS
 90
12
 70
0
 10
139.8308590755
 20
118.4696916498
 10
139.8323029735
 20
118.4724597204
 10
139.83520786
 20
118.4785417797
 10
139.8378197619
 20
118.4847627139
 10
139.8401344426
 20
118.4911124326
 10
139.8421481479
 20
118.4975806366
 10
139.8438576114
 20
118.5041568344
 10
139.8452600604
 20
118.5108303593
 10
139.8463532202
 20
118.517590387
 10
139.8471353175
 20
118.5244259525
 10
139.8476050839
 20
118.5313259686
 10
139.8477617574
 20
118.5382792434
  0
LINE
  5
357
100
AcDbEntity
  8
0
100
AcDbLine
 62
253
  6
CONTINUOUS
 10
140.2837501896
 20
119.3518447335
 11
139.8477617574
 21
118.5382792434
  0
LWPOLYLINE
  5
358
100
AcDbEntity
  8
0
100
AcDbPolyline
 62
253
  6
CONTINUOUS
 90
7
 70
0
 10
139.8477617574
 20
118.5382792434
 10
139.8450252753
 20
118.5333030562
 10
139.8423156675
 20
118.5286035325
 10
139.839632934
 20
118.5241806723
 10
139.8369770748
 20
118.5200344755
 10
139.8343480898
 20
118.5161649423
 10
139.8317459792
 20
118.5125720725
  0
LWPOLYLINE
  5
359
100
AcDbEntity
  8
0
100
AcDbPolyline
 62
253
  6
CONTINUOUS
 90
16
 70
0
 10
139.8317459792
 20
118.512572189
 10
139.8299072821
 20
118.5093571473
 10
139.8278356133
 20
118.5061467789
 10
139.8255276619
 20
118.5029456518
 10
139.822977772
 20
118.4997553029
 10
139.8201855549
 20
118.496583897
 10
139.8171581043
 20
118.4934457391
 10
139.8138957273
 20
118.4903457051
 10
139.8103986912
 20
118.4872883239
 10
139.8066783352
 20
118.4842865317
 10
139.8027383248
 20
118.481345108
 10
139.7985813045
 20
118.4784677564
 10
139.7942207069
 20
118.4756647678
 10
139.789665181
 20
118.4729417469
 10
139.7849170882
 20
118.4703001483
 10
139.7799821702
 20
118.4677434154
  0
LWPOLYLINE
  5
35A
100
AcDbEntity
  8
0
100
AcDbPolyline
 62
253
  6
CONTINUOUS
 90
18
 70
0
 10
150.530462164
 20
132.6183865891
 10
150.5317568753
 20
132.6202281309
 10
150.5328459088
 20
132.6223249241
 10
150.5336816025
 20
132.6246170401
 10
150.5342626158
 20
132.6271008024
 10
150.5345880169
 20
132.6297722268
 10
150.5346572837
 20
132.6326270284
 10
150.5344703051
 20
132.6356606278
 10
150.5340273811
 20
132.6388681592
 10
150.5333292222
 20
132.6422444775
 10
150.5323769481
 20
132.645784167
 10
150.5311720864
 20
132.6494815499
 10
150.5297165698
 20
132.6533306955
 10
150.5280127328
 20
132.6573254296
 10
150.5260633086
 20
132.6614593445
 10
150.5238714241
 20
132.6657258093
 10
150.5214405951
 20
132.6701179804
 10
150.5187747207
 20
132.6746288127
  0
LWPOLYLINE
  5
35B
100
AcDbEntity
  8
268
100
AcDbPolyline
 62
7
  6
CONTINUOUS
 90
4
 70
0
 10
139.2203029444
 20
95.4252498493
 10
139.2200684388
 20
95.4270180633
 10
139.2189276627
 20
95.429950289
 10
139.2168833311
 20
95.4333296569
  0
LWPOLYLINE
  5
35C
100
AcDbEntity
  8
0
100
AcDbPolyline
 62
253
  6
CONTINUOUS
 90
43
 70
0
 10
139.8317459792
 20
106.0334487852
 10
139.831287572
 20
106.0396545314
 10
139.8305159836
 20
106.0458712457
 10
139.8294380031
 20
106.0520989116
 10
139.828067142
 20
106.0583464606
 10
139.8264070553
 20
106.0646061761
 10
139.8244488392
 20
106.0708506086
 10
139.8221986882
 20
106.0770747258
 10
139.8196670294
 20
106.0832791069
 10
139.8168485685
 20
106.0894404779
 10
139.813750515
 20
106.0955532786
 10
139.8103831029
 20
106.1016156836
 10
139.8067439493
 20
106.1076073943
 10
139.8028413389
 20
106.1135226991
 10
139.7986856914
 20
106.1193583506
 10
139.7942769175
 20
106.1250961738
 10
139.789624436
 20
106.1307306702
 10
139.7847391151
 20
106.1362578958
 10
139.779622593
 20
106.1416611577
 10
139.7742854878
 20
106.1469355372
 10
139.7687392914
 20
106.1520769553
 10
139.7629868197
 20
106.1570696636
 10
139.7570399738
 20
106.1619097139
 10
139.7509109868
 20
106.1665933521
 10
139.7446032745
 20
106.171105254
 10
139.738130147
 20
106.1754428863
 10
139.7315046641
 20
106.1796032234
 10
139.7247301843
 20
106.1835707759
 10
139.7178216316
 20
106.1873449712
 10
139.7107929709
 20
106.1909238931
 10
139.7036466993
 20
106.1942911305
 10
139.6963996927
 20
106.1974487891
 10
139.6890669202
 20
106.2003964531
 10
139.6816489715
 20
106.2031157331
 10
139.6741652275
 20
106.2056124136
 10
139.666631815
 20
106.2078880174
 10
139.6590459951
 20
106.2099206275
 10
139.6514305293
 20
106.2117211608
 10
139.643802967
 20
106.2132936149
 10
139.6361552659
 20
106.214610228
 10
139.6285008617
 20
106.2156711805
 10
139.6208735981
 20
106.2165024309
 10
139.6132983218
 20
106.2171186612
  0
LWPOLYLINE
  5
35D
100
AcDbEntity
  8
268
100
AcDbPolyline
 62
7
  6
CONTINUOUS
 90
7
 70
0
 10
139.2202564738
 20
132.9424520969
 10
139.2201648657
 20
132.9467598981
 10
139.220025695
 20
132.9510712288
 10
139.2198389615
 20
132.9553860888
 10
139.2196046654
 20
132.9597044781
 10
139.2193228066
 20
132.9640263968
 10
139.2189933851
 20
132.9683518449
  0
LWPOLYLINE
  5
35E
100
AcDbEntity
  8
0
100
AcDbPolyline
 62
253
  6
CONTINUOUS
 90
46
 70
0
 10
139.605743874
 20
103.0477958257
 10
139.6058520657
 20
103.039707767
 10
139.6061613749
 20
103.0317710136
 10
139.6066718016
 20
103.0239855655
 10
139.6073840324
 20
103.0163541817
 10
139.6082973806
 20
103.0088741032
 10
139.6094097871
 20
103.001537053
 10
139.6107220667
 20
102.9943327792
 10
139.6122334045
 20
102.9872715337
 10
139.6139392962
 20
102.9803757953
 10
139.6158402361
 20
102.9736468051
 10
139.61793573
 20
102.967083322
 10
139.6202197913
 20
102.9607041014
 10
139.622692963
 20
102.9545096623
 10
139.6253547021
 20
102.9484994856
 10
139.6281973929
 20
102.9426907702
 10
139.6312215522
 20
102.9370840974
 10
139.6344266631
 20
102.9316788858
 10
139.6378035593
 20
102.9264905903
 10
139.6413527313
 20
102.9215198331
 10
139.6450736886
 20
102.9167659921
 10
139.6489557932
 20
102.9122426556
 10
139.6529995069
 20
102.9079504823
 10
139.657204368
 20
102.9038888136
 10
139.6615583528
 20
102.9000692622
 10
139.666061888
 20
102.8964925212
 10
139.670714547
 20
102.8931578977
 10
139.6755030262
 20
102.890074925
 10
139.6804277133
 20
102.8872443238
 10
139.6854882207
 20
102.8846653735
 10
139.6906700819
 20
102.8823454463
 10
139.6959736466
 20
102.8802852825
 10
139.7013985651
 20
102.8784841418
 10
139.7069293221
 20
102.8769471749
 10
139.7125662208
 20
102.8756751387
 10
139.7183089581
 20
102.8746672763
 10
139.724141109
 20
102.8739264679
 10
139.7300629273
 20
102.8734534784
 10
139.7360741593
 20
102.8732475429
 10
139.742157619
 20
102.8733092475
 10
139.7483134523
 20
102.873639323
 10
139.7545415133
 20
102.8742370386
 10
139.760824178
 20
102.8751007881
 10
139.7671555717
 20
102.8762300361
 10
139.7735415691
 20
102.8776253181
 10
139.7799821702
 20
102.8792866339
  0
LWPOLYLINE
  5
35F
100
AcDbEntity
  8
0
100
AcDbPolyline
 62
253
  6
CONTINUOUS
 90
46
 70
0
 10
139.605743874
 20
118.6362530938
 10
139.6058520657
 20
118.6281650351
 10
139.6061613749
 20
118.6202282817
 10
139.6066718016
 20
118.6124428336
 10
139.6073840324
 20
118.6048114498
 10
139.6082973806
 20
118.5973313713
 10
139.6094097871
 20
118.5899943211
 10
139.6107220667
 20
118.5827900473
 10
139.6122334045
 20
118.5757288018
 10
139.6139392962
 20
118.5688330634
 10
139.6158402361
 20
118.5621040732
 10
139.61793573
 20
118.5555405901
 10
139.6202197913
 20
118.5491613695
 10
139.622692963
 20
118.5429669304
 10
139.6253547021
 20
118.5369567537
 10
139.6281973929
 20
118.5311480383
 10
139.6312215522
 20
118.5255413655
 10
139.6344266631
 20
118.5201361539
 10
139.6378035593
 20
118.5149478584
 10
139.6413527313
 20
118.5099771013
 10
139.6450736886
 20
118.5052232602
 10
139.6489557932
 20
118.5006999238
 10
139.6529995069
 20
118.4964077504
 10
139.657204368
 20
118.4923460817
 10
139.6615583528
 20
118.4885265303
 10
139.666061888
 20
118.4849497894
 10
139.670714547
 20
118.4816151658
 10
139.6755030262
 20
118.4785321932
 10
139.6804277133
 20
118.4757015919
 10
139.6854882207
 20
118.4731226416
 10
139.6906700819
 20
118.4708027144
 10
139.6959736466
 20
118.4687425506
 10
139.7013985651
 20
118.4669414099
 10
139.7069293221
 20
118.465404443
 10
139.7125662208
 20
118.4641324068
 10
139.7183089581
 20
118.4631245444
 10
139.724141109
 20
118.4623837361
 10
139.7300629273
 20
118.4619107465
 10
139.7360741593
 20
118.461704811
 10
139.742157619
 20
118.4617665157
 10
139.7483134523
 20
118.4620965911
 10
139.7545415133
 20
118.4626943067
 10
139.760824178
 20
118.4635580562
 10
139.7671555717
 20
118.4646873042
 10
139.7735415691
 20
118.4660825862
 10
139.7799821702
 20
118.467743902
  0
LINE
  5
360
100
AcDbEntity
  8
268
100
AcDbLine
 62
7
  6
CONTINUOUS
 10
139.2202564738
 20
132.9424520969
 11
139.2203029444
 21
132.9363147588
  0
LINE
  5
361
100
AcDbEntity
  8
0
100
AcDbLine
 62
7
  6
CONTINUOUS
 10
137.9176853034
 20
123.483101907
 11
137.9176853034
 21
99.234390601
  0
LINE
  5
362
100
AcDbEntity
  8
0
100
AcDbLine
 62
7
  6
CONTINUOUS
 10
138.0508267052
 20
99.5186582737
 11
138.0508267052
 21
123.2071141888
  0
LINE
  5
363
100
AcDbEntity
  8
268
100
AcDbLine
 62
7
  6
CONTINUOUS
 10
138.6084419036
 20
131.9703153631
 11
138.6084419036
 21
132.0412797868
  0
LINE
  5
364
100
AcDbEntity
  8
0
100
AcDbLine
 62
7
  6
CONTINUOUS
 10
138.8049136704
 20
132.2489170593
 11
138.8049136704
 21
131.8720794797
  0
LINE
  5
365
100
AcDbEntity
  8
268
100
AcDbLine
 62
253
  6
CONTINUOUS
 10
139.1361049062
 20
132.648638253
 11
139.1361049062
 21
132.4363790989
  0
LINE
  5
366
100
AcDbEntity
  8
268
100
AcDbLine
 62
253
  6
CONTINUOUS
 10
139.1361049062
 20
95.5149082042
 11
139.1361049062
 21
95.5046428243
  0
LINE
  5
367
100
AcDbEntity
  8
268
100
AcDbLine
 62
7
  6
CONTINUOUS
 10
139.2203029661
 20
132.9362591313
 11
139.2203029661
 21
132.4549532123
  0
LINE
  5
368
100
AcDbEntity
  8
268
100
AcDbLine
 62
7
  6
CONTINUOUS
 10
139.2203029661
 20
95.5009289907
 11
139.2203029661
 21
95.4254194572
  0
LINE
  5
369
100
AcDbEntity
  8
0
100
AcDbLine
 62
7
  6
CONTINUOUS
 10
139.4060541615
 20
121.9880675309
 11
139.4060541615
 21
117.6579405119
  0
LINE
  5
36A
100
AcDbEntity
  8
0
100
AcDbLine
 62
7
  6
CONTINUOUS
 10
139.4060541615
 20
106.3996102627
 11
139.4060541615
 21
102.0694832438
  0
LINE
  5
36B
100
AcDbEntity
  8
0
100
AcDbLine
 62
253
  6
CONTINUOUS
 10
139.605743874
 20
121.2343293052
 11
139.605743874
 21
118.6362530938
  0
LINE
  5
36C
100
AcDbEntity
  8
0
100
AcDbLine
 62
253
  6
CONTINUOUS
 10
139.605743874
 20
105.645872037
 11
139.605743874
 21
103.0477958257
  0
LINE
  5
36D
100
AcDbEntity
  8
0
100
AcDbLine
 62
253
  6
CONTINUOUS
 10
139.7799821702
 20
121.5770768786
 11
139.7799821702
 21
118.467743902
  0
LINE
  5
36E
100
AcDbEntity
  8
0
100
AcDbLine
 62
253
  6
CONTINUOUS
 10
139.7799821702
 20
105.9886196105
 11
139.7799821702
 21
102.8792866339
  0
LINE
  5
36F
100
AcDbEntity
  8
0
100
AcDbLine
 62
253
  6
CONTINUOUS
 10
139.8317459792
 20
121.6219037327
 11
139.8317459792
 21
118.5125720725
  0
LINE
  5
370
100
AcDbEntity
  8
0
100
AcDbLine
 62
253
  6
CONTINUOUS
 10
139.8317459792
 20
106.0334464646
 11
139.8317459792
 21
102.9241148044
  0
LWPOLYLINE
  5
371
100
AcDbEntity
  8
268
100
AcDbPolyline
 62
7
  6
CONTINUOUS
 90
16
 70
0
 10
139.2203029444
 20
132.9363147588
 10
139.2200684388
 20
132.9228004505
 10
139.2189276627
 20
132.9030352593
 10
139.2168833311
 20
132.8831816087
 10
139.2139921661
 20
132.8632458248
 10
139.2103034019
 20
132.8432635885
 10
139.205843438
 20
132.8233017669
 10
139.2006505797
 20
132.8033810493
 10
139.1947679225
 20
132.7835132979
 10
139.1882073884
 20
132.7637530717
 10
139.1810004852
 20
132.7441160051
 10
139.1731833395
 20
132.7246140405
 10
139.1647594001
 20
132.7052984415
 10
139.1557465087
 20
132.6861957151
 10
139.1461846633
 20
132.6673052213
 10
139.1361049062
 20
132.648638253
  0
LINE
  5
372
100
AcDbEntity
  8
0
100
AcDbLine
 62
7
  6
CONTINUOUS
 10
139.4637765642
 20
134.9847387851
 11
139.4634778959
 21
134.9680151219
  0
LINE
  5
373
100
AcDbEntity
  8
0
100
AcDbLine
 62
7
  6
CONTINUOUS
 10
139.4646208154
 20
135.0283608202
 11
139.4637765642
 21
134.9847387851
  0
LINE
  5
374
100
AcDbEntity
  8
0
100
AcDbLine
 62
7
  6
CONTINUOUS
 10
139.4648242911
 20
135.0366725882
 11
139.4646208154
 21
135.0283608202
  0
LWPOLYLINE
  5
375
100
AcDbEntity
  8
0
100
AcDbPolyline
 62
253
  6
CONTINUOUS
 90
26
 70
0
 10
139.7799821702
 20
118.4677434154
 10
139.7788303776
 20
118.4604225626
 10
139.7774731535
 20
118.4532286307
 10
139.7759008449
 20
118.4461735222
 10
139.7740953181
 20
118.4392677386
 10
139.7720581285
 20
118.4325221635
 10
139.7698117374
 20
118.4259492312
 10
139.7673539581
 20
118.4195594584
 10
139.7646783961
 20
118.4133621668
 10
139.7618040416
 20
118.4073688238
 10
139.7587305288
 20
118.4015888073
 10
139.7554551137
 20
118.3960305299
 10
139.7519949406
 20
118.3907044469
 10
139.7483509813
 20
118.3856187038
 10
139.7445231112
 20
118.3807806395
 10
139.7405277924
 20
118.3761996577
 10
139.736366895
 20
118.3718825427
 10
139.7320421587
 20
118.3678353826
 10
139.7275702226
 20
118.3640664951
 10
139.7229533812
 20
118.360581127
 10
139.7181946625
 20
118.3573839654
 10
139.7133116269
 20
118.3544823051
 10
139.7083064594
 20
118.3518796502
 10
139.7031829869
 20
118.3495791288
 10
139.6979604271
 20
118.3475871804
 10
139.692853915
 20
118.3459728669
  0
LWPOLYLINE
  5
376
100
AcDbEntity
  8
0
100
AcDbPolyline
 62
7
  6
CONTINUOUS
 90
36
 70
0
 10
142.7247248874
 20
132.9127881102
 10
142.726261451
 20
132.9212617736
 10
142.7277165886
 20
132.9296873363
 10
142.7290864429
 20
132.9380626944
 10
142.7303649019
 20
132.9463891296
 10
142.7315503609
 20
132.9546611882
 10
142.7326456748
 20
132.9628666477
 10
142.7336467645
 20
132.971003217
 10
142.7345499127
 20
132.9790690335
 10
142.7353583768
 20
132.9870524406
 10
142.7360679963
 20
132.9949512038
 10
142.7366749776
 20
133.0027633715
 10
142.7371828766
 20
133.0104775634
 10
142.7375873906
 20
133.0180915725
 10
142.737884617
 20
133.025603332
 10
142.738078338
 20
133.0330014466
 10
142.7381640408
 20
133.0402837444
 10
142.738137669
 20
133.0474479732
 10
142.7380031801
 20
133.0544823134
 10
142.7377557809
 20
133.0613845666
 10
142.7373912156
 20
133.0681522972
 10
142.7369135903
 20
133.0747729417
 10
142.7363177493
 20
133.0812442791
 10
142.7355991799
 20
133.087563618
 10
142.7347621246
 20
133.0937172043
 10
142.7338009738
 20
133.099702797
 10
142.7327108956
 20
133.1055173754
 10
142.7314962818
 20
133.1111454283
 10
142.7301509768
 20
133.1165846821
 10
142.7286697654
 20
133.1218317341
 10
142.7270572229
 20
133.1268686821
 10
142.7253065457
 20
133.1316932448
 10
142.7234120772
 20
133.1363015539
 10
142.7213786661
 20
133.1406725174
 10
142.7191987589
 20
133.144803888
 10
142.7186858455
 20
133.1457027675
  0
LINE
  5
377
100
AcDbEntity
  8
DRAFT
100
AcDbLine
 62
7
  6
CONTINUOUS
 10
146.0358765817
 20
137.908408755
 11
146.0017555022
 21
137.8035114154
  0
LINE
  5
378
100
AcDbEntity
  8
DRAFT
100
AcDbLine
 62
7
  6
CONTINUOUS
 10
146.3187192942
 20
138.0498301112
 11
146.2845982146
 21
137.9449327716
  0
LINE
  5
379
100
AcDbEntity
  8
DRAFT
100
AcDbLine
 62
7
  6
CONTINUOUS
 10
146.6015620067
 20
138.1912514675
 11
146.5674409271
 21
138.0863541278
  0
LINE
  5
37A
100
AcDbEntity
  8
DRAFT
100
AcDbLine
 62
7
  6
CONTINUOUS
 10
146.8844047192
 20
138.3326728237
 11
146.8502836396
 21
138.2277754841
  0
LINE
  5
37B
100
AcDbEntity
  8
DRAFT
100
AcDbLine
 62
7
  6
CONTINUOUS
 10
147.1672474316
 20
138.47409418
 11
147.1331263521
 21
138.3691968403
  0
LINE
  5
37C
100
AcDbEntity
  8
DRAFT
100
AcDbLine
 62
7
  6
CONTINUOUS
 10
147.4500901441
 20
138.6155155362
 11
147.4159690645
 21
138.5106181966
  0
LINE
  5
37D
100
AcDbEntity
  8
DRAFT
100
AcDbLine
 62
7
  6
CONTINUOUS
 10
147.0114531475
 20
136.7297663596
 11
147.048042746
 21
136.8334294397
  0
LINE
  5
37E
100
AcDbEntity
  8
DRAFT
100
AcDbLine
 62
7
  6
CONTINUOUS
 10
147.2942958599
 20
136.8711877158
 11
147.3308854585
 21
136.974850796
  0
LINE
  5
37F
100
AcDbEntity
  8
DRAFT
100
AcDbLine
 62
7
  6
CONTINUOUS
 10
147.6359448415
 20
137.1083746251
 11
147.599355243
 21
137.0047115449
  0
LINE
  5
380
100
AcDbEntity
  8
DRAFT
100
AcDbLine
 62
7
  6
CONTINUOUS
 10
147.918787554
 20
137.2497959813
 11
147.8821979555
 21
137.1461329012
  0
LINE
  5
381
100
AcDbEntity
  8
DRAFT
100
AcDbLine
 62
7
  6
CONTINUOUS
 10
148.2016302665
 20
137.3912173376
 11
148.165040668
 21
137.2875542574
  0
LINE
  5
382
100
AcDbEntity
  8
DRAFT
100
AcDbLine
 62
7
  6
CONTINUOUS
 10
148.484472979
 20
137.5326386938
 11
148.4478833804
 21
137.4289756137
  0
LINE
  5
383
100
AcDbEntity
  8
DRAFT
100
AcDbLine
 62
7
  6
CONTINUOUS
 10
148.7673156914
 20
137.6740600501
 11
148.7307260929
 21
137.5703969699
  0
LINE
  5
384
100
AcDbEntity
  8
DRAFT
100
AcDbLine
 62
7
  6
CONTINUOUS
 10
149.0501584039
 20
137.8154814063
 11
149.0135688054
 21
137.7118183261
  0
LINE
  5
385
100
AcDbEntity
  8
0
100
AcDbLine
 62
253
  6
CONTINUOUS
 10
139.7626929658
 20
117.4001617985
 11
139.4132906009
 21
117.5748629809
  0
LINE
  5
386
100
AcDbEntity
  8
RACCORDO
100
AcDbLine
 62
253
  6
CONTINUOUS
 10
126.5713040621
 20
124.2419887691
 11
112.2428237275
 21
131.4062289364
  0
LINE
  5
387
100
AcDbEntity
  8
0
100
AcDbLine
 62
7
  6
CONTINUOUS
 10
139.4528477544
 20
118.3658161936
 11
139.4060541615
 21
118.3892129901
  0
LINE
  5
388
100
AcDbEntity
  8
0
100
AcDbLine
 62
253
  6
CONTINUOUS
 10
140.6899538569
 20
117.8557701685
 11
140.0751570597
 21
118.1631685671
  0
LWPOLYLINE
  5
389
100
AcDbEntity
  8
0
100
AcDbPolyline
 62
253
  6
CONTINUOUS
 90
43
 70
0
 10
139.8317459792
 20
121.6219060533
 10
139.831287572
 20
121.6281117995
 10
139.8305159836
 20
121.6343285138
 10
139.8294380031
 20
121.6405561797
 10
139.828067142
 20
121.6468037288
 10
139.8264070553
 20
121.6530634443
 10
139.8244488392
 20
121.6593078767
 10
139.8221986882
 20
121.6655319939
 10
139.8196670294
 20
121.671736375
 10
139.8168485685
 20
121.677897746
 10
139.813750515
 20
121.6840105467
 10
139.8103831029
 20
121.6900729518
 10
139.8067439493
 20
121.6960646625
 10
139.8028413389
 20
121.7019799673
 10
139.7986856914
 20
121.7078156187
 10
139.7942769175
 20
121.7135534419
 10
139.789624436
 20
121.7191879383
 10
139.7847391151
 20
121.7247151639
 10
139.779622593
 20
121.7301184258
 10
139.7742854878
 20
121.7353928053
 10
139.7687392914
 20
121.7405342234
 10
139.7629868197
 20
121.7455269318
 10
139.7570399738
 20
121.750366982
 10
139.7509109868
 20
121.7550506202
 10
139.7446032745
 20
121.7595625221
 10
139.738130147
 20
121.7639001544
 10
139.7315046641
 20
121.7680604915
 10
139.7247301843
 20
121.772028044
 10
139.7178216316
 20
121.7758022393
 10
139.7107929709
 20
121.7793811612
 10
139.7036466993
 20
121.7827483987
 10
139.6963996927
 20
121.7859060572
 10
139.6890669202
 20
121.7888537213
 10
139.6816489715
 20
121.7915730012
 10
139.6741652275
 20
121.7940696817
 10
139.666631815
 20
121.7963452855
 10
139.6590459951
 20
121.7983778957
 10
139.6514305293
 20
121.8001784289
 10
139.643802967
 20
121.801750883
 10
139.6361552659
 20
121.8030674961
 10
139.6285008617
 20
121.8041284486
 10
139.6208735981
 20
121.804959699
 10
139.6132983218
 20
121.8055759294
  0
LINE
  5
38A
100
AcDbEntity
  8
0
100
AcDbLine
 62
7
  6
CONTINUOUS
 10
140.1741514668
 20
129.9744479948
 11
140.1741514668
 21
130.1733646414
  0
LINE
  5
38B
100
AcDbEntity
  8
0
100
AcDbLine
 62
7
  6
CONTINUOUS
 10
140.2837501896
 20
103.7633874654
 11
140.2837501896
 21
106.881078919
  0
LINE
  5
38C
100
AcDbEntity
  8
0
100
AcDbLine
 62
7
  6
CONTINUOUS
 10
140.2837501896
 20
119.3518447335
 11
140.2837501896
 21
122.4695361871
  0
LINE
  5
38D
100
AcDbEntity
  8
0
100
AcDbLine
 62
7
  6
CONTINUOUS
 10
140.4225391529
 20
103.1875863448
 11
140.4225391529
 21
107.3320714742
  0
LINE
  5
38E
100
AcDbEntity
  8
0
100
AcDbLine
 62
7
  6
CONTINUOUS
 10
140.4225391529
 20
118.7760436129
 11
140.4225391529
 21
122.9205287423
  0
LINE
  5
38F
100
AcDbEntity
  8
0
100
AcDbLine
 62
7
  6
CONTINUOUS
 10
140.6787466406
 20
125.7787086672
 11
140.6787466406
 21
125.7775329207
  0
LINE
  5
390
100
AcDbEntity
  8
0
100
AcDbLine
 62
7
  6
CONTINUOUS
 10
140.8356948863
 20
97.623055178
 11
140.8356948863
 21
99.8792088868
  0
LINE
  5
391
100
AcDbEntity
  8
0
100
AcDbLine
 62
7
  6
CONTINUOUS
 10
140.8356948863
 20
125.8599710003
 11
140.8356948863
 21
128.116124709
  0
LINE
  5
392
100
AcDbEntity
  8
0
100
AcDbLine
 62
7
  6
CONTINUOUS
 10
141.0465926612
 20
97.4157380351
 11
141.0465926612
 21
128.2539654333
  0
LINE
  5
393
100
AcDbEntity
  8
268
100
AcDbLine
 62
7
  6
CONTINUOUS
 10
139.2202564738
 20
95.4245078945
 11
139.2203029444
 21
95.4252498493
  0
LWPOLYLINE
  5
394
100
AcDbEntity
  8
0
100
AcDbPolyline
 62
253
  6
CONTINUOUS
 90
26
 70
0
 10
139.7799821702
 20
102.8792861473
 10
139.7788303776
 20
102.8719652945
 10
139.7774731535
 20
102.8647713626
 10
139.7759008449
 20
102.8577162541
 10
139.7740953181
 20
102.8508104705
 10
139.7720581285
 20
102.8440648954
 10
139.7698117374
 20
102.8374919631
 10
139.7673539581
 20
102.8311021903
 10
139.7646783961
 20
102.8249048986
 10
139.7618040416
 20
102.8189115557
 10
139.7587305288
 20
102.8131315392
 10
139.7554551137
 20
102.8075732617
 10
139.7519949406
 20
102.8022471788
 10
139.7483509813
 20
102.7971614357
 10
139.7445231112
 20
102.7923233714
 10
139.7405277924
 20
102.7877423895
 10
139.736366895
 20
102.7834252746
 10
139.7320421587
 20
102.7793781144
 10
139.7275702226
 20
102.7756092269
 10
139.7229533812
 20
102.7721238589
 10
139.7181946625
 20
102.7689266973
 10
139.7133116269
 20
102.7660250369
 10
139.7083064594
 20
102.7634223821
 10
139.7031829869
 20
102.7611218607
 10
139.6979604271
 20
102.7591299122
 10
139.692853915
 20
102.7575155988
  0
LINE
  5
395
100
AcDbEntity
  8
DRAFT
100
AcDbLine
 62
7
  6
CONTINUOUS
 10
149.147146419
 20
136.3527738364
 11
149.1130253394
 21
136.2478764968
  0
LINE
  5
396
100
AcDbEntity
  8
DRAFT
100
AcDbLine
 62
7
  6
CONTINUOUS
 10
149.4299891314
 20
136.4941951926
 11
149.3958680519
 21
136.389297853
  0
LINE
  5
397
100
AcDbEntity
  8
DRAFT
100
AcDbLine
 62
7
  6
CONTINUOUS
 10
149.7128318439
 20
136.6356165489
 11
149.6787107643
 21
136.5307192092
  0
LINE
  5
398
100
AcDbEntity
  8
DRAFT
100
AcDbLine
 62
7
  6
CONTINUOUS
 10
149.9956745564
 20
136.7770379051
 11
149.9615534768
 21
136.6721405655
  0
LINE
  5
399
100
AcDbEntity
  8
DRAFT
100
AcDbLine
 62
7
  6
CONTINUOUS
 10
150.2785172689
 20
136.9184592614
 11
150.2443961893
 21
136.8135619217
  0
LINE
  5
39A
100
AcDbEntity
  8
DRAFT
100
AcDbLine
 62
7
  6
CONTINUOUS
 10
150.4134629088
 20
135.3379266224
 11
150.4421552957
 21
135.4192158774
  0
LWPOLYLINE
  5
39B
100
AcDbEntity
  8
0
100
AcDbPolyline
 62
253
  6
CONTINUOUS
 90
7
 70
0
 10
139.8317459792
 20
106.0334464646
 10
139.8343482964
 20
106.0395663251
 10
139.8369774052
 20
106.0455093723
 10
139.8396333058
 20
106.0512756064
 10
139.842315998
 20
106.0568650271
 10
139.8450254819
 20
106.0622776347
 10
139.8477617574
 20
106.0675134289
  0
LINE
  5
39C
100
AcDbEntity
  8
0
100
AcDbLine
 62
253
  6
CONTINUOUS
 10
139.6545765922
 20
106.2666004142
 11
140.0009074771
 21
106.9128626435
  0
LINE
  5
39D
100
AcDbEntity
  8
0
100
AcDbLine
 62
253
  6
CONTINUOUS
 10
139.8477617574
 20
106.0675134289
 11
140.2837501896
 21
106.881078919
  0
LWPOLYLINE
  5
39E
100
AcDbEntity
  8
0
100
AcDbPolyline
 62
253
  6
CONTINUOUS
 90
7
 70
0
 10
139.613302352
 20
106.2171215725
 10
139.6199914004
 20
106.2261072723
 10
139.6267677289
 20
106.2348161147
 10
139.6336232081
 20
106.2432339775
 10
139.640549265
 20
106.2513467252
 10
139.6475368812
 20
106.2591402333
 10
139.6545765922
 20
106.2666004142
  0
LWPOLYLINE
  5
39F
100
AcDbEntity
  8
0
100
AcDbPolyline
 62
253
  6
CONTINUOUS
 90
24
 70
0
 10
139.613302352
 20
106.2171215725
 10
139.6026015848
 20
106.2091825288
 10
139.5919715341
 20
106.2008759254
 10
139.5814223074
 20
106.1922097116
 10
139.5709640751
 20
106.1831923019
 10
139.5606066332
 20
106.1738322031
 10
139.5503594085
 20
106.16413796
 10
139.540232013
 20
106.1541186557
 10
139.5302342246
 20
106.1437839537
 10
139.5203755608
 20
106.1331436917
 10
139.5106654012
 20
106.1222079922
 10
139.5011129861
 20
106.1109872615
 10
139.4917274123
 20
106.0994921853
 10
139.4825176141
 20
106.087733707
 10
139.4734923498
 20
106.07572301
 10
139.4646602016
 20
106.0634715155
 10
139.4560295713
 20
106.0509908783
 10
139.4476086729
 20
106.0382929758
 10
139.4394055188
 20
106.0253898902
 10
139.4314279141
 20
106.0122938987
 10
139.4236834496
 20
105.9990174619
 10
139.416179494
 20
105.9855732123
 10
139.4089231878
 20
105.9719739431
 10
139.4060541615
 20
105.9663433109
  0
LWPOLYLINE
  5
3A0
100
AcDbEntity
  8
0
100
AcDbPolyline
 62
253
  6
CONTINUOUS
 90
46
 70
0
 10
139.7799821702
 20
105.9886196105
 10
139.7735525514
 20
105.983848694
 10
139.7671771425
 20
105.9788668644
 10
139.7608559435
 20
105.9736741215
 10
139.7545830441
 20
105.9682651107
 10
139.7483643546
 20
105.9626451866
 10
139.7422176057
 20
105.9568304138
 10
139.7361430037
 20
105.9508202514
 10
139.7301403422
 20
105.9446152402
 10
139.724226733
 20
105.9382330666
 10
139.7184024296
 20
105.9316732239
 10
139.7126671785
 20
105.9249362188
 10
139.7070373308
 20
105.9180412578
 10
139.7015131899
 20
105.9109878933
 10
139.6960944523
 20
105.9037765728
 10
139.6907965594
 20
105.8964278454
 10
139.6856198546
 20
105.8889413176
 10
139.6805639945
 20
105.8813173828
 10
139.6756433896
 20
105.8735777698
 10
139.6708584257
 20
105.8657221488
 10
139.6662087169
 20
105.8577508495
 10
139.6617075163
 20
105.8496865912
 10
139.6573552478
 20
105.8415291091
 10
139.6531514875
 20
105.833278668
 10
139.6491082166
 20
105.8249587804
 10
139.6452258936
 20
105.8165692507
 10
139.64150406
 20
105.8081102746
 10
139.6379533217
 20
105.7996059519
 10
139.6345741591
 20
105.7910561285
 10
139.6313660917
 20
105.7824609584
 10
139.6283382842
 20
105.7738450045
 10
139.6254912724
 20
105.7652082838
 10
139.6228245204
 20
105.7565507793
 10
139.6203455849
 20
105.7478970024
 10
139.6180548475
 20
105.7392459941
 10
139.6159519265
 20
105.7305987135
 10
139.6140432341
 20
105.7219825494
 10
139.6123304662
 20
105.7134094499
 10
139.6108119267
 20
105.7048674668
 10
139.6094889404
 20
105.6963481438
 10
139.6083588528
 20
105.6878419627
 10
139.6074243183
 20
105.6793584416
 10
139.6066946245
 20
105.6709176787
 10
139.606172867
 20
105.6625263734
 10
139.6058559502
 20
105.6541778261
 10
139.605743874
 20
105.645872037
  0
LWPOLYLINE
  5
3A1
100
AcDbEntity
  8
0
100
AcDbPolyline
 62
253
  6
CONTINUOUS
 90
16
 70
0
 10
139.7799821702
 20
105.9886200116
 10
139.7847461802
 20
105.9910851061
 10
139.7893570342
 20
105.9936410787
 10
139.7938070966
 20
105.9962858807
 10
139.7980919765
 20
105.9990193968
 10
139.8022007254
 20
106.0018372566
 10
139.8061173335
 20
106.0047302942
 10
139.8098345794
 20
106.0076942266
 10
139.8133483019
 20
106.0107268471
 10
139.8166494331
 20
106.0138212298
 10
139.819732874
 20
106.016973032
 10
139.8225950904
 20
106.020179109
 10
139.8252308103
 20
106.0234339194
 10
139.827636292
 20
106.0267329
 10
139.8298089419
 20
106.030072556
 10
139.8317459792
 20
106.0334487852
  0
LINE
  5
3A2
100
AcDbEntity
  8
0
100
AcDbLine
 62
7
  6
CONTINUOUS
 10
140.0009074771
 20
106.9128626435
 11
139.4537124325
 21
106.6392651212
  0
LINE
  5
3A3
100
AcDbEntity
  8
0
100
AcDbLine
 62
7
  6
CONTINUOUS
 10
140.6899538569
 20
107.463465323
 11
139.7626929658
 21
107.0078569531
  0
LWPOLYLINE
  5
3A4
100
AcDbEntity
  8
0
100
AcDbPolyline
 62
253
  6
CONTINUOUS
 90
28
 70
0
 10
139.605743874
 20
105.645872037
 10
139.5999347172
 20
105.6430821516
 10
139.5939055968
 20
105.6404114843
 10
139.5876662923
 20
105.6378643671
 10
139.5812269237
 20
105.6354449313
 10
139.5745979357
 20
105.6331571013
 10
139.5677900806
 20
105.6310045879
 10
139.5608144007
 20
105.6289908826
 10
139.5536822107
 20
105.6271192515
 10
139.5464050789
 20
105.6253927306
 10
139.5389948088
 20
105.6238141201
 10
139.5314634201
 20
105.6223859806
 10
139.5238231285
 20
105.6211106285
 10
139.5160863268
 20
105.6199901325
 10
139.508265564
 20
105.6190263101
 10
139.5003735253
 20
105.6182207245
 10
139.4924230119
 20
105.6175746824
 10
139.4844269193
 20
105.6170892316
 10
139.4763982173
 20
105.6167651597
 10
139.4683499284
 20
105.6166029923
 10
139.4602951071
 20
105.6166029923
 10
139.4522468183
 20
105.6167651597
 10
139.4442181163
 20
105.6170892316
 10
139.4362220237
 20
105.6175746824
 10
139.4282715102
 20
105.6182207245
 10
139.4203794716
 20
105.6190263101
 10
139.4125587088
 20
105.6199901325
 10
139.4060541615
 20
105.6209321651
  0
LWPOLYLINE
  5
3A5
100
AcDbEntity
  8
RACCORDO
100
AcDbPolyline
 62
253
  6
CONTINUOUS
 90
16
 70
0
 10
127.6793643522
 20
124.1135425637
 10
127.6176598783
 20
124.0994143203
 10
127.5507737186
 20
124.0884894442
 10
127.4794145447
 20
124.0808836865
 10
127.4043384204
 20
124.0766776318
 10
127.3263407914
 20
124.0759158438
 10
127.2462480571
 20
124.078606394
 10
127.1649088153
 20
124.0847207754
 10
127.0831848704
 20
124.094194205
 10
127.001942103
 20
124.10692631
 10
126.9220412956
 20
124.1227821914
 10
126.8443290121
 20
124.1415938531
 10
126.7696286289
 20
124.1631619823
 10
126.6987316105
 20
124.1872580604
 10
126.6323891242
 20
124.213626785
 10
126.5713040812
 20
124.2419887746
  0
LWPOLYLINE
  5
3A6
100
AcDbEntity
  8
0
100
AcDbPolyline
 62
253
  6
CONTINUOUS
 90
40
 70
0
 10
139.6545765922
 20
121.8550576823
 10
139.6623553745
 20
121.8538750535
 10
139.6701215396
 20
121.8524134036
 10
139.6778624907
 20
121.8506751034
 10
139.685565672
 20
121.8486629726
 10
139.6932185889
 20
121.8463802747
 10
139.7008088283
 20
121.8438307123
 10
139.7083240789
 20
121.8410184208
 10
139.7157521509
 20
121.8379479618
 10
139.7230809959
 20
121.8346243156
 10
139.7302987265
 20
121.831052873
 10
139.7373936355
 20
121.8272394271
 10
139.744354215
 20
121.8231901632
 10
139.7511691748
 20
121.8189116493
 10
139.7578274611
 20
121.8144108251
 10
139.7643182742
 20
121.809694991
 10
139.7706310858
 20
121.804771796
 10
139.7767556566
 20
121.7996492257
 10
139.7826820525
 20
121.7943355888
 10
139.7884006609
 20
121.7888395041
 10
139.7939022062
 20
121.7831698863
 10
139.7991777648
 20
121.7773359314
 10
139.8042187797
 20
121.7713471023
 10
139.8090170745
 20
121.7652131127
 10
139.8135648663
 20
121.7589439121
 10
139.8178547785
 20
121.7525496691
 10
139.8218798529
 20
121.7460407551
 10
139.8256335608
 20
121.7394277278
 10
139.8291098137
 20
121.7327213134
 10
139.832302973
 20
121.7259323898
 10
139.8352078595
 20
121.7190719686
 10
139.8378197615
 20
121.7121511774
 10
139.8401344423
 20
121.7051812418
 10
139.8421481476
 20
121.6981734671
 10
139.8438576112
 20
121.6911392199
 10
139.8452600603
 20
121.6840899098
 10
139.8463532201
 20
121.6770369707
 10
139.8471353175
 20
121.6699918426
 10
139.8476050839
 20
121.6629659527
 10
139.8477617574
 20
121.6559706971
  0
LINE
  5
3A7
100
AcDbEntity
  8
0
100
AcDbLine
 62
253
  6
CONTINUOUS
 10
141.0465926612
 20
118.4640168588
 11
140.4225391529
 21
118.7760436129
  0
LINE
  5
3A8
100
AcDbEntity
  8
RACCORDO
100
AcDbLine
 62
253
  6
CONTINUOUS
 10
127.7120439511
 20
125.8718990268
 11
113.3583788779
 21
133.0487315634
  0
LWPOLYLINE
  5
3A9
100
AcDbEntity
  8
0
100
AcDbPolyline
 62
253
  6
CONTINUOUS
 90
8
 70
0
 10
139.4060541615
 20
118.3989325655
 10
139.4086717727
 20
118.3964042936
 10
139.4159309551
 20
118.3900374266
 10
139.4234388125
 20
118.3840743152
 10
139.4311881787
 20
118.3785206509
 10
139.4391716568
 20
118.373381735
 10
139.4473816248
 20
118.3686624734
 10
139.4528477516
 20
118.365816195
  0
LWPOLYLINE
  5
3AA
100
AcDbEntity
  8
0
100
AcDbPolyline
 62
253
  6
CONTINUOUS
 90
40
 70
0
 10
144.2391996989
 20
139.0787523995
 10
144.2391806657
 20
139.0858310999
 10
144.2389283995
 20
139.0930109532
 10
144.2384433092
 20
139.1002803183
 10
144.2377261815
 20
139.1076274086
 10
144.236778179
 20
139.1150403119
 10
144.2356008388
 20
139.1225070091
 10
144.2341960699
 20
139.1300153937
 10
144.2325661498
 20
139.1375532921
 10
144.2307137213
 20
139.1451084823
 10
144.2286417879
 20
139.1526687145
 10
144.2263537089
 20
139.1602217309
 10
144.2238531942
 20
139.1677552851
 10
144.2211442981
 20
139.1752571624
 10
144.2182314126
 20
139.1827151995
 10
144.2151192607
 20
139.1901173041
 10
144.2118128884
 20
139.1974514746
 10
144.2083176565
 20
139.2047058196
 10
144.204639232
 20
139.211868577
 10
144.2007835791
 20
139.2189281334
 10
144.1967569493
 20
139.2258730425
 10
144.1925658712
 20
139.2326920441
 10
144.1882171402
 20
139.239374082
 10
144.183717807
 20
139.2459083221
 10
144.179075167
 20
139.25228417
 10
144.1742967474
 20
139.258491288
 10
144.169390296
 20
139.264519612
 10
144.164363768
 20
139.2703593679
 10
144.1592253131
 20
139.2760010873
 10
144.1539832628
 20
139.2814356228
 10
144.1486461164
 20
139.2866541629
 10
144.1432225274
 20
139.2916482466
 10
144.1377212895
 20
139.2964097764
 10
144.1321513222
 20
139.3009310323
 10
144.1265216566
 20
139.3052046834
 10
144.1208414205
 20
139.3092238007
 10
144.1151198236
 20
139.3129818677
 10
144.1093661428
 20
139.316472791
 10
144.1035897069
 20
139.3196909106
 10
144.0977998818
 20
139.3226310088
  0
LINE
  5
3AB
100
AcDbEntity
  8
0
100
AcDbLine
 62
7
  6
CONTINUOUS
 10
143.8125910363
 20
138.7579796958
 11
143.8125910363
 21
138.2225992788
  0
LWPOLYLINE
  5
3AC
100
AcDbEntity
  8
268
100
AcDbPolyline
 62
7
  6
CONTINUOUS
 90
7
 70
0
 10
139.2202564738
 20
95.4245078945
 10
139.2201648657
 20
95.424022287
 10
139.220025695
 20
95.4235101393
 10
139.2198389615
 20
95.4229714512
 10
139.2196046654
 20
95.4224062229
 10
139.2193228066
 20
95.4218144543
 10
139.2189933851
 20
95.4211961454
  0
LINE
  5
3AD
100
AcDbEntity
  8
DRAFT
100
AcDbLine
 62
7
  6
CONTINUOUS
 10
150.5613599813
 20
137.0598806176
 11
150.5272389018
 21
136.9549832779
  0
LWPOLYLINE
  5
3AE
100
AcDbEntity
  8
0
100
AcDbPolyline
 62
253
  6
CONTINUOUS
 90
12
 70
0
 10
139.8308590755
 20
102.8812343816
 10
139.8323029735
 20
102.8840024523
 10
139.83520786
 20
102.8900845116
 10
139.8378197619
 20
102.8963054458
 10
139.8401344426
 20
102.9026551645
 10
139.8421481479
 20
102.9091233685
 10
139.8438576114
 20
102.9156995662
 10
139.8452600604
 20
102.9223730912
 10
139.8463532202
 20
102.9291331188
 10
139.8471353175
 20
102.9359686844
 10
139.8476050839
 20
102.9428687005
 10
139.8477617574
 20
102.9498219753
  0
LINE
  5
3AF
100
AcDbEntity
  8
0
100
AcDbLine
 62
253
  6
CONTINUOUS
 10
140.2837501896
 20
103.7633874654
 11
139.8477617574
 21
102.9498219753
  0
LWPOLYLINE
  5
3B0
100
AcDbEntity
  8
0
100
AcDbPolyline
 62
253
  6
CONTINUOUS
 90
7
 70
0
 10
139.8477617574
 20
102.9498219753
 10
139.8450252753
 20
102.9448457881
 10
139.8423156675
 20
102.9401462644
 10
139.839632934
 20
102.9357234042
 10
139.8369770748
 20
102.9315772074
 10
139.8343480898
 20
102.9277076742
 10
139.8317459792
 20
102.9241148044
  0
LWPOLYLINE
  5
3B1
100
AcDbEntity
  8
0
100
AcDbPolyline
 62
253
  6
CONTINUOUS
 90
16
 70
0
 10
139.8317459792
 20
102.9241149209
 10
139.8299072821
 20
102.9208998792
 10
139.8278356133
 20
102.9176895108
 10
139.8255276619
 20
102.9144883837
 10
139.822977772
 20
102.9112980348
 10
139.8201855549
 20
102.9081266288
 10
139.8171581043
 20
102.904988471
 10
139.8138957273
 20
102.901888437
 10
139.8103986912
 20
102.8988310558
 10
139.8066783352
 20
102.8958292636
 10
139.8027383248
 20
102.8928878399
 10
139.7985813045
 20
102.8900104883
 10
139.7942207069
 20
102.8872074997
 10
139.789665181
 20
102.8844844788
 10
139.7849170882
 20
102.8818428802
 10
139.7799821702
 20
102.8792861473
  0
LWPOLYLINE
  5
3B2
100
AcDbEntity
  8
0
100
AcDbPolyline
 62
253
  6
CONTINUOUS
 90
15
 70
0
 10
139.7988554329
 20
102.830390659
 10
139.8028427645
 20
102.835975501
 10
139.8067439387
 20
102.8419665969
 10
139.8103823491
 20
102.8481264747
 10
139.8137523112
 20
102.8544455105
 10
139.8168485597
 20
102.8609138315
 10
139.8196662573
 20
102.867521332
 10
139.8222010018
 20
102.8742576887
 10
139.8244488328
 20
102.8811123767
 10
139.8264062384
 20
102.8880746868
 10
139.8280701607
 20
102.8951337412
 10
139.8294379996
 20
102.9022785109
 10
139.8305076181
 20
102.9094978331
 10
139.8312773455
 20
102.9167804291
 10
139.8317459792
 20
102.9241149209
  0
LWPOLYLINE
  5
3B3
100
AcDbEntity
  8
0
100
AcDbPolyline
 62
7
  6
CONTINUOUS
 90
10
 70
0
 10
139.7988554292
 20
102.8303906617
 10
139.7995470218
 20
102.8313207668
 10
139.8038361254
 20
102.8372399298
 10
139.8081103377
 20
102.8434057237
 10
139.8123754236
 20
102.8498365614
 10
139.816629939
 20
102.856540969
 10
139.8208666978
 20
102.8635175793
 10
139.8250860103
 20
102.8707761818
 10
139.8292941255
 20
102.8783376118
 10
140.258925054
 20
103.6800163721
  0
LWPOLYLINE
  5
3B4
100
AcDbEntity
  8
0
100
AcDbPolyline
 62
7
  6
CONTINUOUS
 90
19
 70
0
 10
139.7988449743
 20
102.8303766435
 10
139.7942892445
 20
102.8245031772
 10
139.7895265181
 20
102.8188123902
 10
139.7845657006
 20
102.8133126162
 10
139.7794260258
 20
102.8080215033
 10
139.7741076256
 20
102.8029354034
 10
139.7685878331
 20
102.7980330986
 10
139.762863056
 20
102.7933157716
 10
139.7569505995
 20
102.7888017304
 10
139.7508564543
 20
102.7844985198
 10
139.7445897044
 20
102.7804153571
 10
139.7381584504
 20
102.7765600623
 10
139.7315675067
 20
102.7729382049
 10
139.7248225356
 20
102.7695559338
 10
139.7179373723
 20
102.7664229657
 10
139.7109298828
 20
102.7635491977
 10
139.7038244746
 20
102.7609448363
 10
139.696620124
 20
102.7586094787
 10
139.6920614029
 20
102.757285417
  0
LINE
  5
3B5
100
AcDbEntity
  8
0
100
AcDbLine
 62
7
  6
CONTINUOUS
 10
139.4060541615
 20
102.2282731319
 11
140.0751570597
 21
102.5747112989
  0
LWPOLYLINE
  5
3B6
100
AcDbEntity
  8
0
100
AcDbPolyline
 62
253
  6
CONTINUOUS
 90
28
 70
0
 10
139.605743874
 20
103.0477958257
 10
139.5999347172
 20
103.0450059402
 10
139.5939055968
 20
103.042335273
 10
139.5876662923
 20
103.0397881557
 10
139.5812269237
 20
103.0373687199
 10
139.5745979357
 20
103.0350808899
 10
139.5677900806
 20
103.0329283766
 10
139.5608144007
 20
103.0309146712
 10
139.5536822107
 20
103.0290430402
 10
139.5464050789
 20
103.0273165192
 10
139.5389948088
 20
103.0257379087
 10
139.5314634201
 20
103.0243097692
 10
139.5238231285
 20
103.0230344172
 10
139.5160863268
 20
103.0219139212
 10
139.508265564
 20
103.0209500987
 10
139.5003735253
 20
103.0201445131
 10
139.4924230119
 20
103.019498471
 10
139.4844269193
 20
103.0190130203
 10
139.4763982173
 20
103.0186889484
 10
139.4683499284
 20
103.0185267809
 10
139.4602951071
 20
103.0185267809
 10
139.4522468183
 20
103.0186889484
 10
139.4442181163
 20
103.0190130203
 10
139.4362220237
 20
103.019498471
 10
139.4282715102
 20
103.0201445131
 10
139.4203794716
 20
103.0209500987
 10
139.4125587088
 20
103.0219139212
 10
139.4060541615
 20
103.0228559537
  0
LINE
  5
3B7
100
AcDbEntity
  8
0
100
AcDbLine
 62
253
  6
CONTINUOUS
 10
139.4060541615
 20
121.9793188977
 11
139.6545765922
 21
121.8550576823
  0
LINE
  5
3B8
100
AcDbEntity
  8
0
100
AcDbLine
 62
253
  6
CONTINUOUS
 10
138.0508267052
 20
123.2071141888
 11
137.9176853034
 21
123.2736848897
  0
LINE
  5
3B9
100
AcDbEntity
  8
268
100
AcDbLine
 62
7
  6
CONTINUOUS
 10
132.3637664887
 20
126.2188375341
 11
132.7821634356
 21
126.0096390606
  0
LINE
  5
3BA
100
AcDbEntity
  8
0
100
AcDbLine
 62
253
  6
CONTINUOUS
 10
141.0465926612
 20
122.7941438777
 11
140.6098011147
 21
123.012539651
  0
LINE
  5
3BB
100
AcDbEntity
  8
268
100
AcDbLine
 62
7
  6
CONTINUOUS
 10
116.2005094167
 20
135.2594854405
 11
131.9689906372
 21
127.3752448303
  0
LINE
  5
3BC
100
AcDbEntity
  8
268
100
AcDbLine
 62
7
  6
CONTINUOUS
 10
131.7215032638
 20
127.8265044555
 11
116.4479967902
 21
135.4632576923
  0
LINE
  5
3BD
100
AcDbEntity
  8
0
100
AcDbLine
 62
253
  6
CONTINUOUS
 10
138.751655903
 20
124.41735916
 11
138.4257905121
 21
124.5802918555
  0
LWPOLYLINE
  5
3BE
100
AcDbEntity
  8
0
100
AcDbPolyline
 62
253
  6
CONTINUOUS
 90
40
 70
0
 10
139.6132983218
 20
121.8055759294
 10
139.6190132736
 20
121.8026007311
 10
139.6247599316
 20
121.7993744259
 10
139.6305289746
 20
121.795902247
 10
139.6363110453
 20
121.7921898261
 10
139.6420967652
 20
121.7882431849
 10
139.6478767497
 20
121.7840687248
 10
139.6536416238
 20
121.7796732167
 10
139.6593820367
 20
121.7750637903
 10
139.6650886775
 20
121.7702479221
 10
139.67075229
 20
121.7652334233
 10
139.6763636879
 20
121.7600284276
 10
139.6819137693
 20
121.7546413774
 10
139.6873935321
 20
121.7490810105
 10
139.692794088
 20
121.743356346
 10
139.6981066774
 20
121.7374766692
 10
139.7033226832
 20
121.7314515169
 10
139.7084336449
 20
121.7252906621
 10
139.7134312727
 20
121.7190040976
 10
139.7183074604
 20
121.7126020203
 10
139.7230542986
 20
121.7060948143
 10
139.7276640882
 20
121.6994930344
 10
139.7321293519
 20
121.6928073886
 10
139.736442847
 20
121.6860487212
 10
139.7405975772
 20
121.6792279947
 10
139.7445868034
 20
121.6723562723
 10
139.748404055
 20
121.6654447
 10
139.7520431405
 20
121.6585044884
 10
139.7554981572
 20
121.6515468946
 10
139.7587635012
 20
121.6445832038
 10
139.7618338759
 20
121.6376247111
 10
139.7647043013
 20
121.6306827032
 10
139.7673701215
 20
121.6237684401
 10
139.7698270125
 20
121.6168931367
 10
139.7720709893
 20
121.6100679449
 10
139.774098412
 20
121.603303935
 10
139.7759059923
 20
121.5966120784
 10
139.7774907982
 20
121.5900032293
 10
139.7788502592
 20
121.5834881072
 10
139.7799821702
 20
121.5770772797
  0
LWPOLYLINE
  5
3BF
100
AcDbEntity
  8
0
100
AcDbPolyline
 62
7
  6
CONTINUOUS
 90
40
 70
0
 10
143.8125598406
 20
138.7624511066
 10
143.8123014118
 20
138.7695144909
 10
143.8117515137
 20
138.7765052151
 10
143.8109143438
 20
138.7834206066
 10
143.8097897192
 20
138.7902608882
 10
143.8083863691
 20
138.7970213612
 10
143.8067220141
 20
138.8036924543
 10
143.8048012034
 20
138.8102721311
 10
143.8026283526
 20
138.8167597522
 10
143.8002210589
 20
138.8231482676
 10
143.7975841075
 20
138.8294363998
 10
143.7947216676
 20
138.8356242184
 10
143.7916502561
 20
138.8417069247
 10
143.7883746406
 20
138.8476839027
 10
143.7848987093
 20
138.8535556969
 10
143.7812373374
 20
138.859319293
 10
143.7773950879
 20
138.8649746075
 10
143.7733755704
 20
138.8705224806
 10
143.769191813
 20
138.8759611766
 10
143.7648480618
 20
138.8812910104
 10
143.7603476657
 20
138.8865129939
 10
143.7557018526
 20
138.8916262207
 10
143.7509144955
 20
138.8966312931
 10
143.7459887109
 20
138.9015293057
 10
143.7409341448
 20
138.9063198073
 10
143.7357543279
 20
138.9110035626
 10
143.7304521333
 20
138.9155817334
 10
143.7250358015
 20
138.9200541443
 10
143.7195084934
 20
138.9244216922
 10
143.7138729014
 20
138.9286855276
 10
143.7081361858
 20
138.9328455257
 10
143.7023011946
 20
138.936902649
 10
143.6963704389
 20
138.9408580413
 10
143.6903502459
 20
138.9447115305
 10
143.6842431996
 20
138.9484641098
 10
143.6780516394
 20
138.9521169149
 10
143.6717812458
 20
138.9556696901
 10
143.6654343727
 20
138.959123444
 10
143.6590132088
 20
138.9624792983
 10
143.655147214
 20
138.9644355816
  0
LWPOLYLINE
  5
3C0
100
AcDbEntity
  8
0
100
AcDbPolyline
 62
253
  6
CONTINUOUS
 90
52
 70
0
 10
144.4439913628
 20
138.9250183363
 10
144.4438942229
 20
138.9328873036
 10
144.4436046623
 20
138.9406359052
 10
144.4431226807
 20
138.9482641412
 10
144.4424474783
 20
138.9557792452
 10
144.4415798549
 20
138.9631739834
 10
144.440522211
 20
138.9704266549
 10
144.4392740145
 20
138.9775365066
 10
144.4378357973
 20
138.9845042915
 10
144.4362115561
 20
138.9913105676
 10
144.4344007731
 20
138.9979548584
 10
144.4324039659
 20
139.0044376404
 10
144.4302266841
 20
139.0107409015
 10
144.4278684335
 20
139.0168641323
 10
144.4253297083
 20
139.0228078421
 10
144.42261754
 20
139.0285555467
 10
144.4197314362
 20
139.0341067226
 10
144.4166718893
 20
139.0394618933
 10
144.4134474081
 20
139.0446061449
 10
144.4100575364
 20
139.0495388823
 10
144.4065027304
 20
139.0542607005
 10
144.4027928671
 20
139.0587584715
 10
144.39892751
 20
139.0630315748
 10
144.3949070957
 20
139.0670806308
 10
144.3907428112
 20
139.0708943725
 10
144.3864342687
 20
139.0744721355
 10
144.381981856
 20
139.0778145843
 10
144.3773979244
 20
139.080912445
 10
144.3726820982
 20
139.0837650452
 10
144.3678347532
 20
139.0863730573
 10
144.3628693676
 20
139.088729224
 10
144.3577856173
 20
139.0908328422
 10
144.3525838265
 20
139.0926846151
 10
144.3472784465
 20
139.0942793952
 10
144.3418691783
 20
139.0956164684
 10
144.3363563208
 20
139.0966965488
 10
144.3307552222
 20
139.0975166317
 10
144.3250656571
 20
139.0980759912
 10
144.3192878509
 20
139.0983753531
 10
144.3134378285
 20
139.0984138901
 10
144.3075153798
 20
139.0981908812
 10
144.3015207148
 20
139.0977070473
 10
144.2954704894
 20
139.0969637242
 10
144.2893645254
 20
139.0959601771
 10
144.2832030009
 20
139.0946971407
 10
144.2770031057
 20
139.093178155
 10
144.2707643708
 20
139.0914023256
 10
144.2644872653
 20
139.089370547
 10
144.2581903856
 20
139.0870890428
 10
144.2518799308
 20
139.0845598874
 10
144.2455497019
 20
139.0817810063
 10
144.2391996989
 20
139.0787523995
  0
LWPOLYLINE
  5
3C1
100
AcDbEntity
  8
0
100
AcDbPolyline
 62
7
  6
CONTINUOUS
 90
33
 70
0
 10
144.5001233626
 20
138.994483044
 10
144.5000569485
 20
139.0027996782
 10
144.4995754045
 20
139.0182613652
 10
144.4986287668
 20
139.0335475058
 10
144.497215212
 20
139.0486703359
 10
144.4953359598
 20
139.063602521
 10
144.4930011731
 20
139.0782767697
 10
144.4902172684
 20
139.0926825695
 10
144.4869887958
 20
139.1068183039
 10
144.4833335194
 20
139.1206319706
 10
144.479265452
 20
139.1341058072
 10
144.4747912694
 20
139.147247547
 10
144.4699240633
 20
139.16004387
 10
144.4646761164
 20
139.1724875805
 10
144.4590584496
 20
139.1845749532
 10
144.4530850721
 20
139.1962964789
 10
144.4467722481
 20
139.2076415213
 10
144.4401310247
 20
139.2186101231
 10
144.4331687892
 20
139.2292067133
 10
144.4259019218
 20
139.2394219523
 10
144.4183425609
 20
139.24925406
 10
144.4104904824
 20
139.2587153593
 10
144.4023594775
 20
139.2677989473
 10
144.3939636389
 20
139.2764991484
 10
144.3853009761
 20
139.2848260759
 10
144.3763858609
 20
139.292772085
 10
144.3672317222
 20
139.3003315109
 10
144.3578331018
 20
139.3075137031
 10
144.3482037388
 20
139.3143113202
 10
144.3383575314
 20
139.3207177884
 10
144.3282871321
 20
139.3267396543
 10
144.3179987744
 20
139.3323732948
 10
144.3129326193
 20
139.334964428
  0
LINE
  5
3C2
100
AcDbEntity
  8
0
100
AcDbLine
 62
253
  6
CONTINUOUS
 10
144.4439913628
 20
138.538299442
 11
144.4439913628
 21
138.9250183363
  0
LINE
  5
3C3
100
AcDbEntity
  8
0
100
AcDbLine
 62
7
  6
CONTINUOUS
 10
144.5001234027
 20
138.5944516707
 11
144.5001234027
 21
138.9944841734
  0
LINE
  5
3C4
100
AcDbEntity
  8
0
100
AcDbLine
 62
7
  6
CONTINUOUS
 10
145.7226874668
 20
137.8587255248
 11
145.7236391452
 21
137.9099358483
  0
LINE
  5
3C5
100
AcDbEntity
  8
0
100
AcDbLine
 62
7
  6
CONTINUOUS
 10
145.7236391452
 20
137.9099358483
 11
145.724055528
 21
137.9281129778
  0
LWPOLYLINE
  5
3C6
100
AcDbEntity
  8
0
100
AcDbPolyline
 62
7
  6
CONTINUOUS
 90
5
 70
0
 10
145.724055528
 20
137.9281129778
 10
145.7240951398
 20
137.9292123077
 10
145.7241113276
 20
137.9295770817
 10
145.7241275748
 20
137.9298170812
 10
145.7241397841
 20
137.9299284788
  0
LWPOLYLINE
  5
3C7
100
AcDbEntity
  8
0
100
AcDbPolyline
 62
7
  6
CONTINUOUS
 90
49
 70
0
 10
148.9839344583
 20
135.6175099023
 10
148.9850412263
 20
135.6235418247
 10
148.9861044422
 20
135.6295631609
 10
148.9871242977
 20
135.6355721475
 10
148.9881022296
 20
135.6415678801
 10
148.9890372688
 20
135.6475476591
 10
148.9899260695
 20
135.6535070159
 10
148.990769017
 20
135.6594440001
 10
148.9915664345
 20
135.6653568795
 10
148.9923149677
 20
135.6712415212
 10
148.99301511
 20
135.6770959346
 10
148.9936672924
 20
135.6829183476
 10
148.9942681338
 20
135.6887049509
 10
148.9948182313
 20
135.6944537187
 10
148.9953181133
 20
135.7001628317
 10
148.9957643446
 20
135.7058287702
 10
148.9961576239
 20
135.7114494722
 10
148.9964985681
 20
135.7170230637
 10
148.9967836558
 20
135.7225462657
 10
148.9970136863
 20
135.7280169746
 10
148.9971893595
 20
135.7334332536
 10
148.997307031
 20
135.7387920073
 10
148.9973676024
 20
135.7440910757
 10
148.9973718535
 20
135.7493284556
 10
148.9973159758
 20
135.754501192
 10
148.9972009771
 20
135.7596070787
 10
148.9970277167
 20
135.7646440103
 10
148.9967921782
 20
135.7696090583
 10
148.9964954844
 20
135.7744999283
 10
148.9961385767
 20
135.7793144312
 10
148.9957171828
 20
135.7840496381
 10
148.9952325519
 20
135.788703162
 10
148.9946857119
 20
135.7932727024
 10
148.9940720788
 20
135.7977552625
 10
148.9933930423
 20
135.8021483511
 10
148.9926497257
 20
135.8064495309
 10
148.991837175
 20
135.8106556454
 10
148.9909569382
 20
135.8147640803
 10
148.9900102472
 20
135.8187722409
 10
148.9889917166
 20
135.8226767145
 10
148.9879030753
 20
135.8264747438
 10
148.9867456813
 20
135.8301635558
 10
148.9855136544
 20
135.8337393789
 10
148.9842089314
 20
135.8371992938
 10
148.9828330192
 20
135.8405403266
 10
148.981379479
 20
135.8437582375
 10
148.9798504865
 20
135.8468499273
 10
148.9782477267
 20
135.8498121984
 10
148.9778805262
 20
135.8504529478
  0
LINE
  5
3C8
100
AcDbEntity
  8
268
100
AcDbLine
 62
7
  6
CONTINUOUS
 10
130.0518949974
 20
88.9073200449
 11
130.6306853376
 21
89.611763775
  0
LINE
  5
3C9
100
AcDbEntity
  8
0
100
AcDbLine
 62
7
  6
CONTINUOUS
 10
138.148938744
 20
99.0586750467
 11
138.0501089554
 21
99.0092601524
  0
LINE
  5
3CA
100
AcDbEntity
  8
0
100
AcDbLine
 62
7
  6
CONTINUOUS
 10
140.6899538569
 20
102.2673129003
 11
139.7626929658
 21
101.8117045304
  0
LWPOLYLINE
  5
3CB
100
AcDbEntity
  8
0
100
AcDbPolyline
 62
7
  6
CONTINUOUS
 90
7
 70
0
 10
137.9562436518
 20
98.970015653
 10
137.9578088695
 20
98.970520358
 10
137.9762004306
 20
98.9770501326
 10
137.9946299968
 20
98.9841903404
 10
138.0130849778
 20
98.9919365113
 10
138.0315779641
 20
99.0002931153
 10
138.0501089554
 20
99.0092601524
  0
LWPOLYLINE
  5
3CC
100
AcDbEntity
  8
0
100
AcDbPolyline
 62
253
  6
CONTINUOUS
 90
31
 70
0
 10
150.2358391552
 20
130.9764878236
 10
150.238273107
 20
130.9768755282
 10
150.2430532262
 20
130.9774658065
 10
150.2479590382
 20
130.9779056934
 10
150.2529693308
 20
130.9781942775
 10
150.2580849149
 20
130.9783306057
 10
150.2633027094
 20
130.9783157913
 10
150.2685959926
 20
130.9781539835
 10
150.2739658005
 20
130.9778453692
 10
150.2794093283
 20
130.9773919975
 10
150.2848945318
 20
130.9768027677
 10
150.2904176457
 20
130.9760798595
 10
150.29598141
 20
130.9752255064
 10
150.3015639242
 20
130.9742500219
 10
150.307143732
 20
130.9731606285
 10
150.312741927
 20
130.9719556724
 10
150.3183999927
 20
130.9706303652
 10
150.324098639
 20
130.9691909748
 10
150.3298557477
 20
130.9676323846
 10
150.3357667257
 20
130.965926812
 10
150.3418280168
 20
130.9640722822
 10
150.3480389331
 20
130.9620638381
 10
150.3544965421
 20
130.9598618586
 10
150.3611986342
 20
130.9574592179
 10
150.3681396267
 20
130.9548485218
 10
150.3754086651
 20
130.9519829282
 10
150.383013311
 20
130.9488461742
 10
150.3909335851
 20
130.945432274
 10
150.3992148651
 20
130.9417050214
 10
150.4078555508
 20
130.9376484989
 10
150.4168765942
 20
130.9332345187
  0
LINE
  5
3CD
100
AcDbEntity
  8
268
100
AcDbLine
 62
7
  6
CONTINUOUS
 10
132.2810179484
 20
128.8985811423
 11
131.6586999163
 21
129.0285217248
  0
LINE
  5
3CE
100
AcDbEntity
  8
268
100
AcDbLine
 62
7
  6
CONTINUOUS
 10
132.2810179484
 20
128.2614115836
 11
130.6670138324
 21
129.0684136416
  0
LINE
  5
3CF
100
AcDbEntity
  8
268
100
AcDbLine
 62
7
  6
CONTINUOUS
 10
118.9166997839
 20
134.9435706658
 11
117.3026956679
 21
135.7505727238
  0
LINE
  5
3D0
100
AcDbEntity
  8
268
100
AcDbLine
 62
7
  6
CONTINUOUS
 10
122.2491556647
 20
133.6346749606
 11
128.0416647328
 21
130.7384204266
  0
LINE
  5
3D1
100
AcDbEntity
  8
268
100
AcDbLine
 62
7
  6
CONTINUOUS
 10
116.6642974596
 20
136.5221028036
 11
118.2708310227
 21
135.7188360221
  0
LINE
  5
3D2
100
AcDbEntity
  8
268
100
AcDbLine
 62
7
  6
CONTINUOUS
 10
130.0286156241
 20
129.8399437214
 11
131.6351491871
 21
129.0366769398
  0
LINE
  5
3D3
100
AcDbEntity
  8
268
100
AcDbLine
 62
253
  6
CONTINUOUS
 10
116.5997027137
 20
136.6571319785
 11
118.2054791758
 21
135.8542437474
  0
LINE
  5
3D4
100
AcDbEntity
  8
268
100
AcDbLine
 62
253
  6
CONTINUOUS
 10
129.9640208781
 20
129.9749728963
 11
131.5697973403
 21
129.1720846652
  0
LINE
  5
3D5
100
AcDbEntity
  8
268
100
AcDbLine
 62
253
  6
CONTINUOUS
 10
131.5697973403
 20
129.4254560589
 11
129.9640208781
 21
130.22834429
  0
LINE
  5
3D6
100
AcDbEntity
  8
268
100
AcDbLine
 62
253
  6
CONTINUOUS
 10
118.2054791758
 20
136.1076151411
 11
116.5997027137
 21
136.9105033722
  0
LINE
  5
3D7
100
AcDbEntity
  8
268
100
AcDbLine
 62
7
  6
CONTINUOUS
 10
119.9835306961
 20
135.4821519153
 11
122.1612876991
 21
134.3932734138
  0
LINE
  5
3D8
100
AcDbEntity
  8
268
100
AcDbLine
 62
7
  6
CONTINUOUS
 10
128.9637868172
 20
130.9920238548
 11
130.0449087683
 21
130.4514628792
  0
LINE
  5
3D9
100
AcDbEntity
  8
268
100
AcDbLine
 62
7
  6
CONTINUOUS
 10
133.3478488605
 20
128.7999928331
 11
133.4892702167
 21
128.729282155
  0
LINE
  5
3DA
100
AcDbEntity
  8
268
100
AcDbLine
 62
253
  6
CONTINUOUS
 10
131.7465680697
 20
129.7293216372
 11
130.1387466606
 21
130.5332323417
  0
LINE
  5
3DB
100
AcDbEntity
  8
268
100
AcDbLine
 62
253
  6
CONTINUOUS
 10
118.3822499053
 20
136.4114807194
 11
116.7744284962
 21
137.2153914239
  0
LINE
  5
3DC
100
AcDbEntity
  8
268
100
AcDbLine
 62
7
  6
CONTINUOUS
 10
122.2491556647
 20
134.8496298267
 11
128.0416647328
 21
131.9533752927
  0
LINE
  5
3DD
100
AcDbEntity
  8
0
100
AcDbLine
 62
7
  6
CONTINUOUS
 10
141.0465926612
 20
125.5936099104
 11
140.6787466406
 21
125.7775329207
  0
LINE
  5
3DE
100
AcDbEntity
  8
268
100
AcDbLine
 62
7
  6
CONTINUOUS
 10
134.1963769979
 20
129.0752778564
 11
133.3966449741
 21
129.4751438683
  0
LINE
  5
3DF
100
AcDbEntity
  8
268
100
AcDbLine
 62
7
  6
CONTINUOUS
 10
121.5148048131
 20
135.4160639488
 11
120.0323268097
 21
136.1573029505
  0
LWPOLYLINE
  5
3E0
100
AcDbEntity
  8
0
100
AcDbPolyline
 62
7
  6
CONTINUOUS
 90
40
 70
0
 10
146.9238296778
 20
137.206816188
 10
146.923571249
 20
137.2138795723
 10
146.9230213509
 20
137.2208702965
 10
146.922184181
 20
137.227785688
 10
146.9210595564
 20
137.2346259696
 10
146.9196562063
 20
137.2413864426
 10
146.9179918513
 20
137.2480575357
 10
146.9160710407
 20
137.2546372125
 10
146.9138981898
 20
137.2611248336
 10
146.9114908961
 20
137.267513349
 10
146.9088539447
 20
137.2738014812
 10
146.9059915048
 20
137.2799892998
 10
146.9029200933
 20
137.2860720061
 10
146.8996444778
 20
137.2920489841
 10
146.8961685465
 20
137.2979207783
 10
146.8925071746
 20
137.3036843744
 10
146.8886649251
 20
137.3093396889
 10
146.8846454076
 20
137.314887562
 10
146.8804616502
 20
137.320326258
 10
146.876117899
 20
137.3256560918
 10
146.8716175029
 20
137.3308780753
 10
146.8669716899
 20
137.3359913021
 10
146.8621843327
 20
137.3409963745
 10
146.8572585481
 20
137.3458943871
 10
146.8522039821
 20
137.3506848887
 10
146.8470241652
 20
137.355368644
 10
146.8417219705
 20
137.3599468148
 10
146.8363056387
 20
137.3644192257
 10
146.8307783306
 20
137.3687867736
 10
146.8251427386
 20
137.373050609
 10
146.819406023
 20
137.3772106071
 10
146.8135710318
 20
137.3812677304
 10
146.8076402762
 20
137.3852231227
 10
146.8016200831
 20
137.3890766119
 10
146.7955130368
 20
137.3928291912
 10
146.7893214766
 20
137.3964819963
 10
146.783051083
 20
137.4000347715
 10
146.7767042099
 20
137.4034885254
 10
146.770283046
 20
137.4068443797
 10
146.7664170512
 20
137.408800663
  0
LINE
  5
3E1
100
AcDbEntity
  8
DRAFT
100
AcDbLine
 62
7
  6
CONTINUOUS
 10
147.7189386043
 20
138.4878072201
 11
147.7374718577
 21
137.1781439956
  0
LINE
  5
3E2
100
AcDbEntity
  8
0
100
AcDbLine
 62
7
  6
CONTINUOUS
 10
146.9238608735
 20
137.2023447772
 11
146.9238608735
 21
136.6669643602
  0
LINE
  5
3E3
100
AcDbEntity
  8
268
100
AcDbLine
 62
7
  6
CONTINUOUS
 10
131.6586999163
 20
88.1039175854
 11
132.2810179484
 21
88.8489770029
  0
LINE
  5
3E4
100
AcDbEntity
  8
0
100
AcDbLine
 62
7
  6
CONTINUOUS
 10
140.8356948863
 20
99.8792088868
 11
138.6124494898
 21
98.7280898852
  0
LINE
  5
3E5
100
AcDbEntity
  8
0
100
AcDbLine
 62
7
  6
CONTINUOUS
 10
141.0465926612
 20
100.076093558
 11
138.751655903
 21
98.9971162371
  0
LINE
  5
3E6
100
AcDbEntity
  8
268
100
AcDbLine
 62
253
  6
CONTINUOUS
 10
130.7765384192
 20
94.4572710003
 11
129.7096763795
 21
93.9645587558
  0
LINE
  5
3E7
100
AcDbEntity
  8
268
100
AcDbLine
 62
7
  6
CONTINUOUS
 10
130.5756848333
 20
93.9435019437
 11
129.673664565
 21
93.5269190919
  0
LINE
  5
3E8
100
AcDbEntity
  8
268
100
AcDbLine
 62
7
  6
CONTINUOUS
 10
122.7412471427
 20
135.3157292573
 11
128.9637868172
 21
132.2044594201
  0
LINE
  5
3E9
100
AcDbEntity
  8
268
100
AcDbLine
 62
7
  6
CONTINUOUS
 10
118.3571850994
 20
138.0273755212
 11
119.9835306961
 21
137.2142027229
  0
LINE
  5
3EA
100
AcDbEntity
  8
268
100
AcDbLine
 62
7
  6
CONTINUOUS
 10
131.7215032638
 20
131.345216439
 11
133.3478488605
 21
130.5320436407
  0
LINE
  5
3EB
100
AcDbEntity
  8
268
100
AcDbLine
 62
7
  6
CONTINUOUS
 10
124.084750027
 20
135.3460462079
 11
129.0344974953
 21
132.8711724738
  0
LINE
  5
3EC
100
AcDbEntity
  8
268
100
AcDbLine
 62
253
  6
CONTINUOUS
 10
118.891634978
 20
138.2877229878
 11
120.5117978678
 21
137.4776415429
  0
LINE
  5
3ED
100
AcDbEntity
  8
268
100
AcDbLine
 62
253
  6
CONTINUOUS
 10
132.2559531425
 20
131.6055639056
 11
133.8761160323
 21
130.7954824607
  0
LINE
  5
3EE
100
AcDbEntity
  8
268
100
AcDbLine
 62
7
  6
CONTINUOUS
 10
119.0030525934
 20
138.293991551
 11
120.6219301716
 21
137.4845527619
  0
LINE
  5
3EF
100
AcDbEntity
  8
268
100
AcDbLine
 62
7
  6
CONTINUOUS
 10
132.3673707578
 20
131.6118324688
 11
133.986248336
 21
130.8023936797
  0
LINE
  5
3F0
100
AcDbEntity
  8
RACCORDO
100
AcDbLine
 62
7
  6
CONTINUOUS
 10
127.9737834756
 20
134.7063275904
 11
130.3486594756
 21
133.5188895904
  0
LINE
  5
3F1
100
AcDbEntity
  8
0
100
AcDbLine
 62
7
  6
CONTINUOUS
 10
139.1837308372
 20
131.6826708963
 11
140.4215444107
 21
129.5477582837
  0
LINE
  5
3F2
100
AcDbEntity
  8
0
100
AcDbLine
 62
7
  6
CONTINUOUS
 10
139.4926623907
 20
131.6514283637
 11
140.6324421856
 21
129.685599008
  0
LWPOLYLINE
  5
3F3
100
AcDbEntity
  8
0
100
AcDbPolyline
 62
7
  6
CONTINUOUS
 90
21
 70
0
 10
150.2358369011
 20
123.2014672888
 10
150.2357973709
 20
123.2020546508
 10
150.2354291399
 20
123.2034856789
 10
150.2346619261
 20
123.2051593832
 10
150.2334841883
 20
123.2070823045
 10
150.2318877121
 20
123.2092649099
 10
150.2298564825
 20
123.2117099149
 10
150.227376852
 20
123.2144209085
 10
150.2244417004
 20
123.2174111788
 10
150.2210313301
 20
123.2206828225
 10
150.2171321736
 20
123.2242372857
 10
150.212744363
 20
123.2280872221
 10
150.2078347176
 20
123.2322397444
 10
150.2024002454
 20
123.2366861877
 10
150.1964925167
 20
123.241408294
 10
150.190095931
 20
123.2463944809
 10
150.1832060335
 20
123.2516345726
 10
150.1759061329
 20
123.2570997125
 10
150.1682270426
 20
123.2627656718
 10
150.1601385536
 20
123.2686189116
 10
150.1516410953
 20
123.2746407342
  0
LINE
  5
3F4
100
AcDbEntity
  8
DRAFT
100
AcDbLine
 62
7
  6
CONTINUOUS
 10
150.8302084415
 20
136.9321723015
 11
150.8487416949
 21
135.6225090769
  0
LWPOLYLINE
  5
3F5
100
AcDbEntity
  8
0
100
AcDbPolyline
 62
7
  6
CONTINUOUS
 90
21
 70
0
 10
150.679121397
 20
134.6997838401
 10
150.6790035616
 20
134.7138709632
 10
150.6784390263
 20
134.7334995093
 10
150.6774328592
 20
134.7525310632
 10
150.6760129775
 20
134.7709432651
 10
150.674202249
 20
134.7887712746
 10
150.6720126823
 20
134.8061046413
 10
150.6694605498
 20
134.8229457132
 10
150.6665610494
 20
134.8393014905
 10
150.6633104078
 20
134.8552635763
 10
150.6597157426
 20
134.8708349068
 10
150.6557845342
 20
134.8860166084
 10
150.6514990827
 20
134.9008920987
 10
150.6468510722
 20
134.9154827347
 10
150.6418464579
 20
134.9297626254
 10
150.6364801233
 20
134.9437401333
 10
150.630743196
 20
134.9574250758
 10
150.6246389636
 20
134.9707971594
 10
150.6181819063
 20
134.9838187878
 10
150.6113724534
 20
134.9964845186
 10
150.6081833455
 20
135.002083834
  0
LWPOLYLINE
  5
3F6
100
AcDbEntity
  8
0
100
AcDbPolyline
 62
7
  6
CONTINUOUS
 90
34
 70
0
 10
150.2358391355
 20
132.9903822585
 10
150.23554969
 20
133.0253892664
 10
150.2344654371
 20
133.0669637774
 10
150.232582713
 20
133.1087500334
 10
150.2299074929
 20
133.1507270846
 10
150.2264460912
 20
133.1928768552
 10
150.2222045248
 20
133.2351816236
 10
150.2171890649
 20
133.2776228894
 10
150.2114062647
 20
133.3201808219
 10
150.2048626815
 20
133.3628345176
 10
150.197565151
 20
133.4055646686
 10
150.1895205511
 20
133.4483519154
 10
150.1807362043
 20
133.4911745164
 10
150.1712195651
 20
133.5340128836
 10
150.1609779208
 20
133.5768476629
 10
150.150019428
 20
133.6196566859
 10
150.1383524056
 20
133.6624192984
 10
150.1259843876
 20
133.7051171855
 10
150.1129234253
 20
133.7477311772
 10
150.0991782622
 20
133.7902407197
 10
150.0847568069
 20
133.832627488
 10
150.069666583
 20
133.8748753145
 10
150.0539162001
 20
133.9169648374
 10
150.0375142604
 20
133.958876653
 10
150.0204686334
 20
134.000594365
 10
150.002788239
 20
134.0420985602
 10
149.9844820426
 20
134.0833701365
 10
149.9655581064
 20
134.1243929091
 10
149.9460258994
 20
134.1651470732
 10
149.92589448
 20
134.2056143081
 10
149.9051708499
 20
134.2457806822
 10
149.8838633465
 20
134.2856290145
 10
149.8619835703
 20
134.3251371732
 10
149.8433435814
 20
134.3577472859
  0
LINE
  5
3F7
100
AcDbEntity
  8
0
100
AcDbLine
 62
253
  6
CONTINUOUS
 10
150.1516410953
 20
132.8861810001
 11
150.1516410953
 21
129.6734842182
  0
LINE
  5
3F8
100
AcDbEntity
  8
0
100
AcDbLine
 62
253
  6
CONTINUOUS
 10
150.1516410953
 20
102.2120761303
 11
150.1516410953
 21
123.2746407342
  0
LINE
  5
3F9
100
AcDbEntity
  8
0
100
AcDbLine
 62
7
  6
CONTINUOUS
 10
150.2358391552
 20
123.2017371541
 11
150.2358391552
 21
102.3162716829
  0
LINE
  5
3FA
100
AcDbEntity
  8
0
100
AcDbLine
 62
253
  6
CONTINUOUS
 10
150.6229893487
 20
134.6303182044
 11
150.6229893487
 21
132.9535875159
  0
LINE
  5
3FB
100
AcDbEntity
  8
0
100
AcDbLine
 62
7
  6
CONTINUOUS
 10
150.6791213886
 20
134.6997840414
 11
150.6791213886
 21
133.0230533529
  0
LWPOLYLINE
  5
3FC
100
AcDbEntity
  8
0
100
AcDbPolyline
 62
253
  6
CONTINUOUS
 90
24
 70
0
 10
151.1937873749
 20
130.2130712502
 10
151.1937725881
 20
123.8273413815
 10
151.193456464
 20
123.8179373118
 10
151.1928392788
 20
123.8087035758
 10
151.1919216646
 20
123.7996526257
 10
151.190704768
 20
123.7907977864
 10
151.1891904308
 20
123.7821531123
 10
151.1873808944
 20
123.7737312167
 10
151.185278602
 20
123.7655433207
 10
151.1828864754
 20
123.7576008178
 10
151.1802078386
 20
123.7499147793
 10
151.1772464424
 20
123.7424959982
 10
151.1740064497
 20
123.7353549117
 10
151.1704924051
 20
123.7285015273
 10
151.1667092116
 20
123.7219453995
 10
151.1626621503
 20
123.7156956793
 10
151.158356875
 20
123.7097611004
 10
151.1537994077
 20
123.704149967
 10
151.1489961215
 20
123.6988701264
 10
151.1439537324
 20
123.6939289621
 10
151.1386792893
 20
123.6893333825
 10
151.1331801658
 20
123.6850898132
 10
151.1274640497
 20
123.6812041876
 10
151.1215389329
 20
123.6776819398
  0
LWPOLYLINE
  5
3FD
100
AcDbEntity
  8
0
100
AcDbPolyline
 62
7
  6
CONTINUOUS
 90
45
 70
0
 10
150.2358391552
 20
132.9903829586
 10
150.2358371602
 20
129.9569299746
 10
150.2357587345
 20
129.9503120856
 10
150.2355676296
 20
129.9436680097
 10
150.2352659166
 20
129.9369986994
 10
150.2348554382
 20
129.9303090083
 10
150.2343381251
 20
129.9236000013
 10
150.233715952
 20
129.9168725602
 10
150.232990525
 20
129.9101312241
 10
150.2321636808
 20
129.9033769326
 10
150.2312373094
 20
129.8966105083
 10
150.2302128358
 20
129.889836287
 10
150.2290920152
 20
129.8830550987
 10
150.227876666
 20
129.8762677152
 10
150.2265680864
 20
129.8694783653
 10
150.2251679638
 20
129.8626877817
 10
150.2236780584
 20
129.8558966917
 10
150.2220995963
 20
129.8491093018
 10
150.2204342101
 20
129.8423262558
 10
150.218683616
 20
129.8355482413
 10
150.2168490232
 20
129.8287795191
 10
150.2149320383
 20
129.8220207056
 10
150.212934334
 20
129.815272396
 10
150.2108571073
 20
129.8085388078
 10
150.208701914
 20
129.8018204276
 10
150.2064704201
 20
129.7951178688
 10
150.2041639078
 20
129.7884355259
 10
150.2017839189
 20
129.7817738338
 10
150.1993321054
 20
129.7751333466
 10
150.1968098684
 20
129.7685186196
 10
150.1942187391
 20
129.7619300182
 10
150.1915603728
 20
129.7553680532
 10
150.1888363412
 20
129.7488374747
 10
150.1860481743
 20
129.7423385795
 10
150.1831975403
 20
129.7358718295
 10
150.1802862324
 20
129.7294421893
 10
150.1773157881
 20
129.7230498893
 10
150.1742878961
 20
129.7166953324
 10
150.1712046167
 20
129.7103836973
 10
150.1680675037
 20
129.7041151518
 10
150.1648782693
 20
129.6978900253
 10
150.1616392761
 20
129.6917136823
 10
150.1583524358
 20
129.6855880187
 10
150.1550191609
 20
129.679511482
 10
150.1516410953
 20
129.6734842182
  0
LWPOLYLINE
  5
3FE
100
AcDbEntity
  8
0
100
AcDbPolyline
 62
253
  6
CONTINUOUS
 90
36
 70
0
 10
150.1516410912
 20
102.2120761282
 10
150.1513364893
 20
102.1744796036
 10
150.1503574213
 20
102.1372372995
 10
150.1487043008
 20
102.1003668788
 10
150.1463778134
 20
102.063885974
 10
150.143379084
 20
102.0278117388
 10
150.139709642
 20
101.9921608597
 10
150.135371156
 20
101.9569500649
 10
150.1303656372
 20
101.9221962853
 10
150.1246955893
 20
101.8879162163
 10
150.1183636926
 20
101.8541261982
 10
150.1113728988
 20
101.8208422219
 10
150.103726602
 20
101.78808011
 10
150.0954284243
 20
101.7558554396
 10
150.086482273
 20
101.7241835187
 10
150.0768924369
 20
101.6930793928
 10
150.0666634677
 20
101.6625578394
 10
150.0558002098
 20
101.6326333883
 10
150.0443078528
 20
101.6033203034
 10
150.0321918773
 20
101.5746325381
 10
150.0194580352
 20
101.5465837349
 10
150.0061123778
 20
101.5191872463
 10
149.9921612934
 20
101.4924561389
 10
149.9776114143
 20
101.466403112
 10
149.9624695952
 20
101.4410404981
 10
149.9467430812
 20
101.4163803884
 10
149.930439371
 20
101.3924345276
 10
149.9135661198
 20
101.3692142379
 10
149.8961313827
 20
101.3467305699
 10
149.8781435084
 20
101.3249942788
 10
149.859611003
 20
101.3040157189
 10
149.8405428646
 20
101.2838050184
 10
149.8209481131
 20
101.2643716986
 10
149.8008356598
 20
101.2457246839
 10
149.7802149636
 20
101.2278728004
 10
149.7590960504
 20
101.2108247362
  0
LWPOLYLINE
  5
3FF
100
AcDbEntity
  8
0
100
AcDbPolyline
 62
253
  6
CONTINUOUS
 90
34
 70
0
 10
150.6229893487
 20
132.9535875159
 10
150.6228838691
 20
132.9452813777
 10
150.6225695792
 20
132.9368904843
 10
150.622046479
 20
132.9284148359
 10
150.6213136235
 20
132.9198452586
 10
150.6203719577
 20
132.9111909261
 10
150.6192243165
 20
132.9024793602
 10
150.6178700766
 20
132.8937108404
 10
150.6163098613
 20
132.8848850871
 10
150.6145483762
 20
132.8760287834
 10
150.6125850191
 20
132.8671418774
 10
150.6104203922
 20
132.8582244209
 10
150.6080610071
 20
132.8493032535
 10
150.6055062722
 20
132.8403783408
 10
150.6027567792
 20
132.8314497172
 10
150.5998208146
 20
132.8225443249
 10
150.5966978087
 20
132.8136622222
 10
150.5933883313
 20
132.804803351
 10
150.5899023778
 20
132.7959944783
 10
150.5862394156
 20
132.7872357636
 10
150.5823999774
 20
132.7785270475
 10
150.5783956565
 20
132.7698946195
 10
150.5742259686
 20
132.7613387344
 10
150.569891398
 20
132.7528591374
 10
150.5654049906
 20
132.7444813547
 10
150.5607662646
 20
132.7362056562
 10
150.5559757019
 20
132.728031772
 10
150.5510477939
 20
132.7199844175
 10
150.5459818287
 20
132.7120636104
 10
150.5407785182
 20
132.704269333
 10
150.5354544894
 20
132.6966262483
 10
150.5300152848
 20
132.6891425772
 10
150.5244553619
 20
132.6818100986
 10
150.5187747207
 20
132.6746288127
  0
LWPOLYLINE
  5
400
100
AcDbEntity
  8
0
100
AcDbPolyline
 62
253
  6
CONTINUOUS
 90
22
 70
0
 10
150.2358391551
 20
132.9903822585
 10
150.2357193884
 20
132.9861448659
 10
150.2352009024
 20
132.9806035893
 10
150.2342729834
 20
132.9750756878
 10
150.2329369003
 20
132.9695687218
 10
150.2311944806
 20
132.9640902232
 10
150.2290481073
 20
132.9586476849
 10
150.2265007159
 20
132.9532485504
 10
150.2235557906
 20
132.9479002042
 10
150.220217359
 20
132.9426099611
 10
150.2164899871
 20
132.9373850565
 10
150.2123787727
 20
132.9322326364
 10
150.2078893388
 20
132.9271597477
 10
150.2030278254
 20
132.9221733286
 10
150.1978008816
 20
132.917280199
 10
150.1922156562
 20
132.9124870509
 10
150.186279788
 20
132.9078004402
 10
150.1800013954
 20
132.9032267764
 10
150.1733890654
 20
132.898772315
 10
150.1664518415
 20
132.8944431482
 10
150.1591992117
 20
132.8902451971
 10
150.1516410953
 20
132.8861842031
  0
LWPOLYLINE
  5
401
100
AcDbEntity
  8
0
100
AcDbPolyline
 62
253
  6
CONTINUOUS
 90
22
 70
0
 10
150.2358391552
 20
102.3162716829
 10
150.2357193886
 20
102.3120335932
 10
150.2352009028
 20
102.3064923165
 10
150.234272984
 20
102.300964415
 10
150.2329369011
 20
102.2954574489
 10
150.2311944815
 20
102.2899789502
 10
150.2290481084
 20
102.2845364117
 10
150.2265007172
 20
102.2791372771
 10
150.2235557919
 20
102.2737889307
 10
150.2202173604
 20
102.2684986875
 10
150.2164899886
 20
102.2632737827
 10
150.2123787742
 20
102.2581213624
 10
150.2078893403
 20
102.2530484736
 10
150.2030278268
 20
102.2480620543
 10
150.1978008829
 20
102.2431689244
 10
150.1922156574
 20
102.2383757763
 10
150.1862797891
 20
102.2336891653
 10
150.1800013964
 20
102.2291155013
 10
150.1733890662
 20
102.2246610397
 10
150.1664518421
 20
102.2203318728
 10
150.159199212
 20
102.2161339215
 10
150.1516410953
 20
102.2120729273
  0
LWPOLYLINE
  5
402
100
AcDbEntity
  8
0
100
AcDbPolyline
 62
253
  6
CONTINUOUS
 90
19
 70
0
 10
150.6791213886
 20
134.6997838401
 10
150.6790029145
 20
134.696342544
 10
150.6785199769
 20
134.6920347994
 10
150.6776658593
 20
134.6877414799
 10
150.6764421519
 20
134.6834705777
 10
150.6748511323
 20
134.6792300429
 10
150.6728957625
 20
134.6750277693
 10
150.6705796822
 20
134.6708715794
 10
150.6679072028
 20
134.6667692101
 10
150.6648832992
 20
134.6627282977
 10
150.6615136003
 20
134.6587563645
 10
150.6578043789
 20
134.6548608042
 10
150.6537625396
 20
134.6510488683
 10
150.6493956063
 20
134.6473276529
 10
150.644711708
 20
134.6437040848
 10
150.6397195638
 20
134.6401849095
 10
150.6344284666
 20
134.6367766777
 10
150.6288482657
 20
134.633485734
 10
150.6229893487
 20
134.6303182044
  0
LWPOLYLINE
  5
403
100
AcDbEntity
  8
0
100
AcDbPolyline
 62
253
  6
CONTINUOUS
 90
19
 70
0
 10
150.6791213886
 20
133.0230533529
 10
150.679002914
 20
133.0196118477
 10
150.6785199757
 20
133.0153041031
 10
150.6776658575
 20
133.0110107837
 10
150.6764421494
 20
133.0067398816
 10
150.6748511293
 20
133.002499347
 10
150.6728957589
 20
132.9982970737
 10
150.6705796782
 20
132.9941408842
 10
150.6679071984
 20
132.9900385153
 10
150.6648832946
 20
132.9859976034
 10
150.6615135956
 20
132.9820256707
 10
150.6578043742
 20
132.9781301109
 10
150.653762535
 20
132.9743181757
 10
150.649395602
 20
132.9705969609
 10
150.6447117042
 20
132.9669733935
 10
150.6397195607
 20
132.9634542189
 10
150.6344284643
 20
132.9600459878
 10
150.6288482645
 20
132.9567550448
 10
150.6229893487
 20
132.9535875159
  0
LINE
  5
404
100
AcDbEntity
  8
0
100
AcDbLine
 62
7
  6
CONTINUOUS
 10
140.4215444107
 20
96.605572079
 11
139.1837308372
 21
95.7084730399
  0
LINE
  5
405
100
AcDbEntity
  8
0
100
AcDbLine
 62
7
  6
CONTINUOUS
 10
139.4926623907
 20
95.5722053752
 11
140.6324421856
 21
96.3982549361
  0
LWPOLYLINE
  5
406
100
AcDbEntity
  8
0
100
AcDbPolyline
 62
7
  6
CONTINUOUS
 90
5
 70
0
 10
148.6826808261
 20
100.4294538325
 10
148.6924566131
 20
100.4357057788
 10
148.702111985
 20
100.4421635432
 10
148.7116437145
 20
100.44882528
 10
149.7598608978
 20
101.2084984682
  0
LWPOLYLINE
  5
407
100
AcDbEntity
  8
268
100
AcDbPolyline
 62
7
  6
CONTINUOUS
 90
11
 70
0
 10
138.8836844108
 20
95.2067095605
 10
138.9164467242
 20
95.2270734372
 10
138.9495314983
 20
95.2477622765
 10
138.9829234127
 20
95.2687662296
 10
139.0164752081
 20
95.2900067363
 10
139.0502065231
 20
95.3114970223
 10
139.0840977191
 20
95.3332238617
 10
139.1179426209
 20
95.3550690175
 10
139.1516725032
 20
95.3769930772
 10
139.1853560913
 20
95.3990354531
 10
139.2189933851
 20
95.4211961454
  0
LWPOLYLINE
  5
408
100
AcDbEntity
  8
268
100
AcDbPolyline
 62
7
  6
CONTINUOUS
 90
3
 70
0
 10
138.7875553635
 20
95.1476624865
 10
138.8191825031
 20
95.1669761629
 10
138.8836844108
 20
95.2067095605
  0
LINE
  5
409
100
AcDbEntity
  8
268
100
AcDbLine
 62
7
  6
CONTINUOUS
 10
138.7255942282
 20
95.1101560413
 11
138.7875553635
 21
95.1476624865
  0
LINE
  5
40A
100
AcDbEntity
  8
268
100
AcDbLine
 62
7
  6
CONTINUOUS
 10
138.6655658727
 20
95.0742363559
 11
138.7255942282
 21
95.1101560413
  0
LINE
  5
40B
100
AcDbEntity
  8
268
100
AcDbLine
 62
7
  6
CONTINUOUS
 10
138.6075023457
 20
95.0398889761
 11
138.6655658727
 21
95.0742363559
  0
LINE
  5
40C
100
AcDbEntity
  8
268
100
AcDbLine
 62
7
  6
CONTINUOUS
 10
138.5515132067
 20
95.0071560105
 11
138.6075023457
 21
95.0398889761
  0
LWPOLYLINE
  5
40D
100
AcDbEntity
  8
268
100
AcDbPolyline
 62
7
  6
CONTINUOUS
 90
3
 70
0
 10
138.4720064966
 20
94.9613550802
 10
138.497922907
 20
94.9761872969
 10
138.5515132067
 20
95.0071560105
  0
LWPOLYLINE
  5
40E
100
AcDbEntity
  8
268
100
AcDbPolyline
 62
7
  6
CONTINUOUS
 90
3
 70
0
 10
138.4720064966
 20
94.9613550802
 10
138.4374220195
 20
94.9424793826
 10
138.4215851139
 20
94.9343784643
  0
LWPOLYLINE
  5
40F
100
AcDbEntity
  8
0
100
AcDbPolyline
 62
7
  6
CONTINUOUS
 90
5
 70
0
 10
148.6473907866
 20
100.4091264321
 10
148.6526748001
 20
100.4119567
 10
148.662785277
 20
100.4175769499
 10
148.6727887097
 20
100.4234099996
 10
148.6826808261
 20
100.4294538325
  0
LINE
  5
410
100
AcDbEntity
  8
0
100
AcDbLine
 62
253
  6
CONTINUOUS
 10
139.4926623907
 20
95.5722053752
 11
148.6924649422
 21
100.4372128282
  0
LINE
  5
411
100
AcDbEntity
  8
0
100
AcDbLine
 62
7
  6
CONTINUOUS
 10
139.4474847434
 20
95.5440645923
 11
148.6474025794
 21
100.4091326902
  0
LINE
  5
412
100
AcDbEntity
  8
0
100
AcDbLine
 62
7
  6
CONTINUOUS
 10
139.1837308372
 20
95.7084730399
 11
134.4438643713
 21
93.210190679
  0
LINE
  5
413
100
AcDbEntity
  8
0
100
AcDbLine
 62
253
  6
CONTINUOUS
 10
134.4438643713
 20
94.2559825099
 11
140.8356948863
 21
97.623055178
  0
LINE
  5
414
100
AcDbEntity
  8
0
100
AcDbLine
 62
253
  6
CONTINUOUS
 10
150.1516410953
 20
102.2120761303
 11
141.0465926612
 21
97.4157380351
  0
LINE
  5
415
100
AcDbEntity
  8
0
100
AcDbLine
 62
253
  6
CONTINUOUS
 10
134.4438643713
 20
93.456664574
 11
140.4215444107
 21
96.605572079
  0
LINE
  5
416
100
AcDbEntity
  8
0
100
AcDbLine
 62
253
  6
CONTINUOUS
 10
149.7374890345
 20
101.1945886795
 11
140.6324421856
 21
96.3982549361
  0
LINE
  5
417
100
AcDbEntity
  8
268
100
AcDbLine
 62
253
  6
CONTINUOUS
 10
134.4438643713
 20
92.9394518967
 11
138.4720064966
 21
94.9613550802
  0
LINE
  5
418
100
AcDbEntity
  8
268
100
AcDbLine
 62
7
  6
CONTINUOUS
 10
134.4438643713
 20
92.9377838159
 11
138.4216274424
 21
94.9343995178
  0
LINE
  5
419
100
AcDbEntity
  8
268
100
AcDbLine
 62
253
  6
CONTINUOUS
 10
134.4438643713
 20
93.1772569274
 11
139.1361049062
 21
95.5046428243
  0
LINE
  5
41A
100
AcDbEntity
  8
268
100
AcDbLine
 62
253
  6
CONTINUOUS
 10
134.4438643713
 20
93.0553821997
 11
139.2202564738
 21
95.4245078945
  0
LWPOLYLINE
  5
41B
100
AcDbEntity
  8
0
100
AcDbPolyline
 62
253
  6
CONTINUOUS
 90
42
 70
0
 10
150.2358391552
 20
131.0795079623
 10
150.2403267214
 20
131.0793274052
 10
150.2480357407
 20
131.0788346922
 10
150.2557206913
 20
131.0781777316
 10
150.2633530799
 20
131.0773615006
 10
150.2709608682
 20
131.0763806013
 10
150.2786033601
 20
131.0752378117
 10
150.2862588374
 20
131.0739441173
 10
150.293948319
 20
131.0724879994
 10
150.3017949394
 20
131.0708382861
 10
150.309801018
 20
131.0690034761
 10
150.3179629824
 20
131.0669741481
 10
150.3263945915
 20
131.0646918622
 10
150.3351017033
 20
131.0621629658
 10
150.3440763443
 20
131.0593795823
 10
150.3534107681
 20
131.0562613856
 10
150.3631246898
 20
131.0528065587
 10
150.3731949675
 20
131.0490144851
 10
150.3836486953
 20
131.0448060086
 10
150.3944941689
 20
131.0401788196
 10
150.4057181874
 20
131.0351318265
 10
150.4173147084
 20
131.0295870713
 10
150.4292752241
 20
131.0235495688
 10
150.4416016342
 20
131.0170098764
 10
150.4543023356
 20
131.0098675566
 10
150.4673966774
 20
131.0021096425
 10
150.4808560181
 20
130.9937431385
 10
150.4946155736
 20
130.9846968023
 10
150.5086887297
 20
130.9749526247
 10
150.5230504612
 20
130.9645215879
 10
150.5375779125
 20
130.953375724
 10
150.5523088678
 20
130.9414619191
 10
150.5671921723
 20
130.9288258573
 10
150.5819734787
 20
130.9155890684
 10
150.5966514055
 20
130.9017154358
 10
150.6112168715
 20
130.8872361655
 10
150.6254091778
 20
130.8723769486
 10
150.6391692503
 20
130.8571757521
 10
150.6525523799
 20
130.8415940045
 10
150.6654741959
 20
130.8257453364
 10
150.6779130726
 20
130.8096518769
 10
150.685922105
 20
130.7987118673
  0
LINE
  5
41C
100
AcDbEntity
  8
268
100
AcDbLine
 62
7
  6
CONTINUOUS
 10
118.9166997839
 20
135.5807402245
 11
118.2943817519
 21
135.710680807
  0
LWPOLYLINE
  5
41D
100
AcDbEntity
  8
RACCORDO
100
AcDbPolyline
 62
7
  6
CONTINUOUS
 90
21
 70
0
 10
127.9721785508
 20
134.7071141161
 10
127.9603415065
 20
134.7125881472
 10
127.9485706144
 20
134.7176061754
 10
127.9368784242
 20
134.7221624866
 10
127.925278283
 20
134.7262520016
 10
127.913781873
 20
134.7298700073
 10
127.9023992141
 20
134.7330120125
 10
127.891142964
 20
134.7356744167
 10
127.8800252301
 20
134.7378540059
 10
127.8690551486
 20
134.7395474067
 10
127.858245074
 20
134.7407525655
 10
127.8476069782
 20
134.7414677393
 10
127.837149329
 20
134.7416905946
 10
127.8268845558
 20
134.7414206814
 10
127.8168239013
 20
134.7406578489
 10
127.8069739465
 20
134.7394007314
 10
127.7973458857
 20
134.7376502436
 10
127.787951473
 20
134.7354077493
 10
127.778797899
 20
134.7326733288
 10
127.7698980416
 20
134.7294505151
 10
127.7615928689
 20
134.7258958664
  0
LWPOLYLINE
  5
41E
100
AcDbEntity
  8
RACCORDO
100
AcDbPolyline
 62
7
  6
CONTINUOUS
 90
67
 70
0
 10
129.0527339305
 20
134.8381042681
 10
129.0430411209
 20
134.8428426818
 10
129.0263252633
 20
134.8505289484
 10
129.0091783143
 20
134.8578198395
 10
128.9916277256
 20
134.8647097778
 10
128.9736811537
 20
134.8712036986
 10
128.9553270289
 20
134.8773133968
 10
128.9365843221
 20
134.8830401363
 10
128.9174735883
 20
134.8883862305
 10
128.8979891696
 20
134.893361603
 10
128.8781705822
 20
134.897964693
 10
128.8580146673
 20
134.9022048338
 10
128.8374537718
 20
134.9061013805
 10
128.8165384641
 20
134.9096482422
 10
128.7952459636
 20
134.9128525469
 10
128.7733980028
 20
134.9157377545
 10
128.750961104
 20
134.9182984516
 10
128.7279896398
 20
134.9205186255
 10
128.7044378559
 20
134.9223924869
 10
128.6801953474
 20
134.9239139335
 10
128.6553955087
 20
134.925059522
 10
128.6303613525
 20
134.9258095397
 10
128.6050932057
 20
134.926165709
 10
128.5796159308
 20
134.9261285245
 10
128.5542897796
 20
134.9257067352
 10
128.5291946039
 20
134.9249181405
 10
128.5042694024
 20
134.923775913
 10
128.4796611626
 20
134.9223021037
 10
128.4554060761
 20
134.9205165615
 10
128.4314798073
 20
134.9184340468
 10
128.4079373721
 20
134.916075315
 10
128.3847907086
 20
134.9134577929
 10
128.3620345183
 20
134.9105963079
 10
128.3396975646
 20
134.9075095374
 10
128.3177937403
 20
134.9042145465
 10
128.2963116597
 20
134.900724191
 10
128.2752426309
 20
134.8970507354
 10
128.2545876902
 20
134.8932074545
 10
128.2343464816
 20
134.8892070104
 10
128.2145094731
 20
134.8850597572
 10
128.1950761219
 20
134.8807773811
 10
128.1760466097
 20
134.8763714955
 10
128.1574139189
 20
134.8718517532
 10
128.1391736682
 20
134.8672280347
 10
128.1213295131
 20
134.8625120828
 10
128.1038877651
 20
134.8577164512
 10
128.0868417041
 20
134.8528500983
 10
128.0701969079
 20
134.8479253486
 10
128.053978693
 20
134.8429608562
 10
128.0382057777
 20
134.8379741335
 10
128.0228566837
 20
134.8329700692
 10
128.0078982675
 20
134.8279486841
 10
127.99334161
 20
134.8229241785
 10
127.9791761041
 20
134.8179033601
 10
127.9653410587
 20
134.8128741978
 10
127.9518378372
 20
134.8078458928
 10
127.9386728714
 20
134.8028297025
 10
127.9257996315
 20
134.7978163099
 10
127.9132377817
 20
134.7928215348
 10
127.9009846923
 20
134.787852804
 10
127.8889695145
 20
134.7828891252
 10
127.8772243785
 20
134.7779512495
 10
127.8657528733
 20
134.7730487658
 10
127.8544572147
 20
134.7681472626
 10
127.843379853
 20
134.7632723719
 10
127.8325521584
 20
134.7584462318
 10
127.8113917441
 20
134.7488606052
  0
LINE
  5
41F
100
AcDbEntity
  8
RACCORDO
100
AcDbLine
 62
253
  6
CONTINUOUS
 10
129.0516968933
 20
134.8386112327
 11
129.052730891
 21
134.8381057915
  0
LINE
  5
420
100
AcDbEntity
  8
RACCORDO
100
AcDbLine
 62
253
  6
CONTINUOUS
 10
130.9764244804
 20
133.8282990429
 11
128.9631970259
 21
134.8348991505
  0
LINE
  5
421
100
AcDbEntity
  8
RACCORDO
100
AcDbLine
 62
7
  6
CONTINUOUS
 10
131.0247286186
 20
133.8521069277
 11
129.052730891
 21
134.8381057915
  0
LINE
  5
422
100
AcDbEntity
  8
268
100
AcDbLine
 62
7
  6
CONTINUOUS
 10
131.55217324
 20
134.1120710071
 11
128.7516547828
 21
135.5123302357
  0
LINE
  5
423
100
AcDbEntity
  8
0
100
AcDbLine
 62
7
  6
CONTINUOUS
 10
140.011736705
 20
130.2545720224
 11
140.1741514668
 21
130.1733646414
  0
LINE
  5
424
100
AcDbEntity
  8
268
100
AcDbLine
 62
7
  6
CONTINUOUS
 10
128.3981013922
 20
136.2416651203
 11
128.7516547828
 21
136.064888425
  0
LINE
  5
425
100
AcDbEntity
  8
0
100
AcDbLine
 62
7
  6
CONTINUOUS
 10
139.1837308372
 20
131.6826708963
 11
138.5387161685
 21
132.0051782307
  0
LINE
  5
426
100
AcDbEntity
  8
268
100
AcDbLine
 62
7
  6
CONTINUOUS
 10
132.9599889363
 20
134.8059476655
 11
130.1494392893
 21
136.211222489
  0
LINE
  5
427
100
AcDbEntity
  8
0
100
AcDbLine
 62
7
  6
CONTINUOUS
 10
138.6084419036
 20
131.9896642811
 11
138.703672097
 21
131.9420491844
  0
LWPOLYLINE
  5
428
100
AcDbEntity
  8
268
100
AcDbPolyline
 62
7
  6
CONTINUOUS
 90
4
 70
0
 10
139.1548395983
 20
132.4224828993
 10
139.1543231412
 20
132.4228751271
 10
139.1484179578
 20
132.4272940093
 10
139.1361049062
 20
132.4363790989
  0
LWPOLYLINE
  5
429
100
AcDbEntity
  8
268
100
AcDbPolyline
 62
7
  6
CONTINUOUS
 90
17
 70
0
 10
139.2189933851
 20
132.9683518449
 10
139.1853560913
 20
133.0044139954
 10
139.1516725032
 20
133.039052655
 10
139.1179426209
 20
133.0722678238
 10
139.0840977191
 20
133.1040751278
 10
139.0502065231
 20
133.1344589409
 10
139.0164752081
 20
133.163372385
 10
138.9829234127
 20
133.1907915603
 10
138.9495314983
 20
133.2167403667
 10
138.9164467242
 20
133.2412436252
 10
138.8836844108
 20
133.264287332
 10
138.8512292377
 20
133.2858854911
 10
138.8191825031
 20
133.3061049351
 10
138.7875553635
 20
133.3249388491
 10
138.7563366625
 20
133.3423940481
 10
138.7255942282
 20
133.3585578096
 10
138.7183215962
 20
133.3622342566
  0
LWPOLYLINE
  5
42A
100
AcDbEntity
  8
0
100
AcDbPolyline
 62
253
  6
CONTINUOUS
 90
31
 70
0
 10
142.5851124419
 20
133.1535839626
 10
142.57144698
 20
133.176793593
 10
142.5575118744
 20
133.1995769765
 10
142.5433238477
 20
133.2219231302
 10
142.5288957046
 20
133.2438276099
 10
142.5142473859
 20
133.2652750905
 10
142.4994067769
 20
133.2862402162
 10
142.4844284507
 20
133.3066650142
 10
142.4692921621
 20
133.3265959229
 10
142.4539084148
 20
133.3461589941
 10
142.4382559402
 20
133.3653802726
 10
142.422376431
 20
133.3842078508
 10
142.4062690483
 20
133.4026432604
 10
142.3899393492
 20
133.4206795891
 10
142.3734029728
 20
133.4382990078
 10
142.3566740325
 20
133.4554864557
 10
142.3397661114
 20
133.4722282668
 10
142.3226880775
 20
133.4885159173
 10
142.3054471463
 20
133.5043424237
 10
142.2880470795
 20
133.5197036647
 10
142.2705068449
 20
133.5345821766
 10
142.2528569567
 20
133.5489526749
 10
142.2351817248
 20
133.562751699
 10
142.2174218189
 20
133.5760309887
 10
142.1993893688
 20
133.5889229499
 10
142.1810435052
 20
133.6014359314
 10
142.1624441554
 20
133.6135084303
 10
142.1435518607
 20
133.6251456204
 10
142.1243612165
 20
133.6363264098
 10
142.1049015319
 20
133.6470087193
 10
142.0851864248
 20
133.6571608508
  0
LWPOLYLINE
  5
42B
100
AcDbEntity
  8
0
100
AcDbPolyline
 62
7
  6
CONTINUOUS
 90
28
 70
0
 10
142.6909658386
 20
133.1935127364
 10
142.681307907
 20
133.2099176224
 10
142.6675123776
 20
133.2325178721
 10
142.6533068135
 20
133.2548421915
 10
142.6386958593
 20
133.2768780833
 10
142.6236861291
 20
133.2986104768
 10
142.6082857128
 20
133.320022004
 10
142.5925000001
 20
133.3410990779
 10
142.5763347259
 20
133.361827853
 10
142.559797772
 20
133.3821911952
 10
142.5428942727
 20
133.4021757671
 10
142.5256299492
 20
133.4217671922
 10
142.508012913
 20
133.4409480567
 10
142.4900432698
 20
133.4597098377
 10
142.4717310932
 20
133.478032615
 10
142.4530994737
 20
133.4958849997
 10
142.434149319
 20
133.5132582345
 10
142.414890674
 20
133.5301342356
 10
142.3953612851
 20
133.5464731312
 10
142.375567353
 20
133.5622639262
 10
142.3555153335
 20
133.577495072
 10
142.3352444389
 20
133.5921319979
 10
142.3147620227
 20
133.6061654203
 10
142.2940743681
 20
133.6195867184
 10
142.2732198444
 20
133.6323677515
 10
142.2522165083
 20
133.6444956882
 10
142.2310632622
 20
133.655969563
 10
142.215649769
 20
133.6638690872
  0
LINE
  5
42C
100
AcDbEntity
  8
0
100
AcDbLine
 62
253
  6
CONTINUOUS
 10
142.7247248874
 20
132.9127881102
 11
142.5851124406
 21
133.1535839619
  0
LINE
  5
42D
100
AcDbEntity
  8
0
100
AcDbLine
 62
7
  6
CONTINUOUS
 10
142.7187647524
 20
133.1455667049
 11
142.6909657809
 21
133.1935128385
  0
LINE
  5
42E
100
AcDbEntity
  8
0
100
AcDbLine
 62
7
  6
CONTINUOUS
 10
151.2779854348
 20
130.3172700057
 11
151.2779854348
 21
123.9411013162
  0
LINE
  5
42F
100
AcDbEntity
  8
0
100
AcDbLine
 62
253
  6
CONTINUOUS
 10
149.7590960504
 20
101.2108247362
 11
149.737489031
 21
101.1945886777
  0
LWPOLYLINE
  5
430
100
AcDbEntity
  8
0
100
AcDbPolyline
 62
7
  6
CONTINUOUS
 90
37
 70
0
 10
149.7598650563
 20
101.2085015035
 10
149.7792284062
 20
101.2229118935
 10
149.8027712209
 20
101.2414866412
 10
149.8258821495
 20
101.2609169225
 10
149.8485408425
 20
101.2812001678
 10
149.8707261958
 20
101.3023317564
 10
149.8924167775
 20
101.32430516
 10
149.9135936193
 20
101.3471153843
 10
149.9342392398
 20
101.3707580308
 10
149.9543358683
 20
101.395227175
 10
149.9738665311
 20
101.4205173872
 10
149.9928142036
 20
101.44662245
 10
150.0111625964
 20
101.4735354914
 10
150.0288956828
 20
101.5012493992
 10
150.0459987397
 20
101.5297585982
 10
150.0624586513
 20
101.559059032
 10
150.0782643385
 20
101.5891509308
 10
150.0933977044
 20
101.6200214176
 10
150.1078372881
 20
101.6516461804
 10
150.1215761718
 20
101.6840306786
 10
150.1345960249
 20
101.7171544748
 10
150.1468644415
 20
101.7509502925
 10
150.158371138
 20
101.7853987819
 10
150.1691115238
 20
101.8204970974
 10
150.1790688205
 20
101.8561977527
 10
150.188238027
 20
101.8924871252
 10
150.1966145852
 20
101.9293533884
 10
150.2041873745
 20
101.9667482088
 10
150.2109540477
 20
102.0046570609
 10
150.2169124281
 20
102.0430658363
 10
150.2220562078
 20
102.0819233559
 10
150.2263854173
 20
102.1212130557
 10
150.229900414
 20
102.1609198122
 10
150.2325995898
 20
102.200991771
 10
150.2344848826
 20
102.2413998451
 10
150.2355600152
 20
102.2821370663
 10
150.2358391355
 20
102.3162724615
  0
LINE
  5
431
100
AcDbEntity
  8
0
100
AcDbLine
 62
253
  6
CONTINUOUS
 10
149.7374890345
 20
101.1945886795
 11
148.6924649422
 21
100.4372128282
  0
LWPOLYLINE
  5
432
100
AcDbEntity
  8
0
100
AcDbPolyline
 62
253
  6
CONTINUOUS
 90
4
 70
0
 10
148.6924649361
 20
100.437212825
 10
148.6792443996
 20
100.4280433479
 10
148.6656881837
 20
100.4194701132
 10
148.651805542
 20
100.4114989257
  0
LWPOLYLINE
  5
433
100
AcDbEntity
  8
0
100
AcDbPolyline
 62
253
  6
CONTINUOUS
 90
4
 70
0
 10
149.7598608978
 20
101.2084984682
 10
149.7525513713
 20
101.2034629858
 10
149.7451313131
 20
101.1988536974
 10
149.7374906196
 20
101.1945898283
  0
LWPOLYLINE
  5
434
100
AcDbEntity
  8
0
100
AcDbPolyline
 62
253
  6
CONTINUOUS
 90
4
 70
0
 10
148.7148300655
 20
100.4511177321
 10
148.7075240646
 20
100.4460848047
 10
148.7001040061
 20
100.4414755161
 10
148.6924633122
 20
100.4372116469
  0
LINE
  5
435
100
AcDbEntity
  8
268
100
AcDbLine
 62
7
  6
CONTINUOUS
 10
132.7821634356
 20
89.7989981942
 11
131.9689906372
 21
89.2701270638
  0
LINE
  5
436
100
AcDbEntity
  8
268
100
AcDbLine
 62
253
  6
CONTINUOUS
 10
133.7367575902
 20
90.1107208119
 11
134.4438643713
 21
90.4718318917
  0
LINE
  5
437
100
AcDbEntity
  8
268
100
AcDbLine
 62
7
  6
CONTINUOUS
 10
133.6467936221
 20
89.9219107354
 11
134.3539004042
 21
90.2830218156
  0
LINE
  5
438
100
AcDbEntity
  8
268
100
AcDbLine
 62
7
  6
CONTINUOUS
 10
133.6467888161
 20
89.9219082805
 11
133.6447812192
 21
89.9209045731
  0
LINE
  5
439
100
AcDbEntity
  8
268
100
AcDbLine
 62
253
  6
CONTINUOUS
 10
131.9689906372
 20
89.2457315585
 11
133.7367575902
 21
90.1107208119
  0
LINE
  5
43A
100
AcDbEntity
  8
268
100
AcDbLine
 62
7
  6
CONTINUOUS
 10
131.8770097182
 20
89.0559130942
 11
133.6447766726
 21
89.9209023484
  0
LWPOLYLINE
  5
43B
100
AcDbEntity
  8
RACCORDO
100
AcDbPolyline
 62
253
  6
CONTINUOUS
 90
16
 70
0
 10
124.686312898
 20
87.7399787318
 10
124.6237858648
 20
87.7158502757
 10
124.5560860009
 20
87.6950311253
 10
124.4839305891
 20
87.6777418605
 10
124.408084119
 20
87.6641656617
 10
124.3293501873
 20
87.6544463693
 10
124.2485629833
 20
87.6486869597
 10
124.1665784507
 20
87.646948454
 10
124.0842652193
 20
87.6492492718
 10
124.0024954011
 20
87.6555650358
 10
123.9221353508
 20
87.6658288302
 10
123.8440364866
 20
87.6799319097
 10
123.7690262692
 20
87.6977248514
 10
123.6978994351
 20
87.7190191382
 10
123.631409576
 20
87.7435891563
 10
123.5702611548
 20
87.7711745854
  0
LINE
  5
43C
100
AcDbEntity
  8
RACCORDO
100
AcDbLine
 62
253
  6
CONTINUOUS
 10
128.2987382625
 20
134.8413972087
 11
128.3089208078
 21
134.8442458031
  0
LWPOLYLINE
  5
43D
100
AcDbEntity
  8
RACCORDO
100
AcDbPolyline
 62
253
  6
CONTINUOUS
 90
3
 70
0
 10
128.3089208078
 20
134.8442458031
 10
128.3192927091
 20
134.8470515774
 10
128.3245497754
 20
134.8484378763
  0
LWPOLYLINE
  5
43E
100
AcDbEntity
  8
RACCORDO
100
AcDbPolyline
 62
253
  6
CONTINUOUS
 90
4
 70
0
 10
128.3245497754
 20
134.8484378763
 10
128.3352063708
 20
134.8511728615
 10
128.3406058998
 20
134.8525215477
 10
128.3460527625
 20
134.8538561565
  0
LWPOLYLINE
  5
43F
100
AcDbEntity
  8
RACCORDO
100
AcDbPolyline
 62
253
  6
CONTINUOUS
 90
128
 70
0
 10
128.3460527625
 20
134.8538561565
 10
128.3570886405
 20
134.8564831775
 10
128.3626772218
 20
134.857773984
 10
128.3683129786
 20
134.8590491659
 10
128.3739957109
 20
134.8603086826
 10
128.3797244598
 20
134.8615508248
 10
128.3854993869
 20
134.8627756148
 10
128.3913203308
 20
134.8639830302
 10
128.3971858483
 20
134.8651712946
 10
128.4030957587
 20
134.8663403636
 10
128.4090502427
 20
134.8674902815
 10
128.4150483998
 20
134.8686194054
 10
128.4210904614
 20
134.8697277724
 10
128.427176196
 20
134.8708153453
 10
128.4333040077
 20
134.8718803701
 10
128.4394822145
 20
134.8729240208
 10
128.4457024984
 20
134.8739451234
 10
128.4519383088
 20
134.8749384012
 10
128.4581860737
 20
134.8759029067
 10
128.4644493651
 20
134.8768395875
 10
128.4707123488
 20
134.8777460094
 10
128.4769725318
 20
134.8786216114
 10
128.4832324071
 20
134.8794669545
 10
128.4894836182
 20
134.8802812881
 10
128.4957250653
 20
134.8810643725
 10
128.5019578483
 20
134.8818164472
 10
128.5081769108
 20
134.88253748
 10
128.5143818771
 20
134.8832273734
 10
128.5205731228
 20
134.8838862249
 10
128.5267467192
 20
134.8845142946
 10
128.532902272
 20
134.8851115109
 10
128.5390401754
 20
134.8856779453
 10
128.5451576825
 20
134.8862140724
 10
128.5512545175
 20
134.8867198549
 10
128.5573309561
 20
134.88719533
 10
128.5633850788
 20
134.8876410833
 10
128.5694172624
 20
134.8880571247
 10
128.5754271301
 20
134.8884434444
 10
128.5814116311
 20
134.8888005979
 10
128.5873705741
 20
134.8891285516
 10
128.5933041506
 20
134.8894273393
 10
128.5992098846
 20
134.8896976181
 10
128.6050876076
 20
134.8899393669
 10
128.6109374883
 20
134.8901526069
 10
128.6167575561
 20
134.8903380588
 10
128.6225478901
 20
134.8904957123
 10
128.6283084113
 20
134.8906255777
 10
128.6340369132
 20
134.8907284067
 10
128.6397334185
 20
134.8908041827
 10
128.6453979044
 20
134.8908529223
 10
128.6510280962
 20
134.890875427
 10
128.6566238685
 20
134.8908716808
 10
128.6621853468
 20
134.8908416997
 10
128.6677106322
 20
134.8907863334
 10
128.6731995326
 20
134.8907055755
 10
128.6786522403
 20
134.8905994324
 10
128.6840674336
 20
134.890468773
 10
128.6894450577
 20
134.8903135952
 10
128.6947851674
 20
134.8901339012
 10
128.7000866055
 20
134.8899305671
 10
128.7053496548
 20
134.889703569
 10
128.7105740324
 20
134.8894529308
 10
128.7157577326
 20
134.8891796008
 10
128.7209005457
 20
134.8888835735
 10
128.7260026814
 20
134.8885648544
 10
128.7310627634
 20
134.8882244082
 10
128.736080579
 20
134.8878622423
 10
128.7410563409
 20
134.8874783492
 10
128.7459893107
 20
134.887073671
 10
128.750879405
 20
134.8866482137
 10
128.7557267073
 20
134.8862019713
 10
128.7605307295
 20
134.8857358673
 10
128.7652914195
 20
134.8852499078
 10
128.7700088296
 20
134.8847440868
 10
128.7746826284
 20
134.8842193094
 10
128.7793127596
 20
134.8836755843
 10
128.7838992796
 20
134.8831129028
 10
128.7884420268
 20
134.8825321447
 10
128.7929409222
 20
134.8819333243
 10
128.7973960448
 20
134.8813164273
 10
128.801807471
 20
134.8806822894
 10
128.8061751492
 20
134.8800309246
 10
128.810499131
 20
134.8793623189
 10
128.814779647
 20
134.8786772659
 10
128.8190166599
 20
134.8779757794
 10
128.8232102069
 20
134.8772578454
 10
128.827360631
 20
134.8765242161
 10
128.8314678826
 20
134.8757749093
 10
128.8355320114
 20
134.8750099071
 10
128.8395535087
 20
134.8742299068
 10
128.8435323377
 20
134.8734349267
 10
128.8474685352
 20
134.8726249485
 10
128.851362703
 20
134.8718006147
 10
128.8552148001
 20
134.8709619471
 10
128.8590248674
 20
134.8701089239
 10
128.8627936295
 20
134.8692421225
 10
128.8665210444
 20
134.8683615681
 10
128.8702071542
 20
134.8674672355
 10
128.873852809
 20
134.8665596264
 10
128.8774579925
 20
134.8656387623
 10
128.881022721
 20
134.8647046217
 10
128.8845478936
 20
134.8637576411
 10
128.8880335098
 20
134.8627978391
 10
128.89147957
 20
134.8618251972
 10
128.8948869743
 20
134.8608400962
 10
128.8982557128
 20
134.8598425585
 10
128.9015857953
 20
134.8588325616
 10
128.9048781517
 20
134.857810419
 10
128.9081327744
 20
134.8567761544
 10
128.9113496709
 20
134.8557297441
 10
128.9145297932
 20
134.8546714306
 10
128.9176731493
 20
134.8536012341
 10
128.9207797311
 20
134.8525191344
 10
128.9238504664
 20
134.8514253137
 10
128.9268853784
 20
134.8503197866
 10
128.9298844437
 20
134.8492025385
 10
128.9328485206
 20
134.8480737072
 10
128.9357776446
 20
134.846933302
 10
128.9386717802
 20
134.8457813137
 10
128.9415316789
 20
134.8446178527
 10
128.9443573665
 20
134.8434429293
 10
128.9471488173
 20
134.8422565332
 10
128.9499067059
 20
134.8410587437
 10
128.9526310448
 20
134.839849579
 10
128.9553218215
 20
134.8386290208
 10
128.9579796732
 20
134.837397094
 10
128.9606048121
 20
134.8361538066
 10
128.9631970259
 20
134.8348991505
  0
LWPOLYLINE
  5
440
100
AcDbEntity
  8
268
100
AcDbPolyline
 62
7
  6
CONTINUOUS
 90
13
 70
0
 10
138.4720064966
 20
133.4496117285
 10
138.4373556867
 20
133.4560414096
 10
138.4021514636
 20
133.4614245624
 10
138.3664316117
 20
133.4657867033
 10
138.3302062949
 20
133.4691806264
 10
138.2935385568
 20
133.4716103761
 10
138.2565423468
 20
133.4730216053
 10
138.2192553119
 20
133.4734317402
 10
138.18170433
 20
133.4728678587
 10
138.1439836291
 20
133.4712758705
 10
138.1061442544
 20
133.4686467795
 10
138.0681950682
 20
133.4650247983
 10
138.0301656287
 20
133.4604300088
  0
LWPOLYLINE
  5
441
100
AcDbEntity
  8
268
100
AcDbPolyline
 62
7
  6
CONTINUOUS
 90
18
 70
0
 10
131.2494877577
 20
137.0966289497
 10
131.2299256734
 20
137.1057186828
 10
131.2070298932
 20
137.1147040974
 10
131.1835206069
 20
137.1222063302
 10
131.1593792848
 20
137.1282405001
 10
131.1346895315
 20
137.1327862844
 10
131.1094281052
 20
137.1358402679
 10
131.0836182478
 20
137.1374058658
 10
131.0574132889
 20
137.1374730024
 10
131.0308293263
 20
137.1360342265
 10
131.0038502623
 20
137.1330969891
 10
130.9765811336
 20
137.1286735679
 10
130.949006954
 20
137.1227551822
 10
130.9211427097
 20
137.1153506127
 10
130.8931383967
 20
137.1064984781
 10
130.8650440134
 20
137.0962116514
 10
130.8368095614
 20
137.0844772596
 10
130.8084350407
 20
137.0712953028
  0
LWPOLYLINE
  5
442
100
AcDbEntity
  8
268
100
AcDbPolyline
 62
7
  6
CONTINUOUS
 90
10
 70
0
 10
138.7183215962
 20
133.3622342566
 10
138.6953419171
 20
133.3734256888
 10
138.6655658727
 20
133.3870021306
 10
138.6362923536
 20
133.3993877473
 10
138.6075023457
 20
133.4105895438
 10
138.579214863
 20
133.4206005154
 10
138.5515132067
 20
133.4295002598
 10
138.5244251437
 20
133.4373153098
 10
138.497922907
 20
133.4440191327
 10
138.4720064966
 20
133.4496117285
  0
LINE
  5
443
100
AcDbEntity
  8
0
100
AcDbLine
 62
7
  6
CONTINUOUS
 10
138.9927385431
 20
132.155004623
 11
138.8049136704
 21
132.2489170593
  0
LINE
  5
444
100
AcDbEntity
  8
268
100
AcDbLine
 62
7
  6
CONTINUOUS
 10
131.5093712294
 20
136.2849706764
 11
133.7191121176
 21
135.1801002323
  0
LINE
  5
445
100
AcDbEntity
  8
268
100
AcDbLine
 62
7
  6
CONTINUOUS
 10
134.4646969407
 20
134.8073078207
 11
134.6105103508
 21
134.7344011157
  0
LINE
  5
446
100
AcDbEntity
  8
268
100
AcDbLine
 62
7
  6
CONTINUOUS
 10
128.6419134838
 20
137.981943229
 11
128.8223654609
 21
137.8917172404
  0
LINE
  5
447
100
AcDbEntity
  8
268
100
AcDbLine
 62
7
  6
CONTINUOUS
 10
134.1963769979
 20
135.2047114719
 11
134.3768289751
 21
135.1144854833
  0
LINE
  5
448
100
AcDbEntity
  8
0
100
AcDbLine
 62
7
  6
CONTINUOUS
 10
133.8833026353
 20
135.4017128284
 11
134.9174993616
 21
134.8846144653
  0
LINE
  5
449
100
AcDbEntity
  8
0
100
AcDbLine
 62
7
  6
CONTINUOUS
 10
139.2203029661
 20
132.7332126631
 11
139.4996778568
 21
132.5935252177
  0
LINE
  5
44A
100
AcDbEntity
  8
268
100
AcDbLine
 62
253
  6
CONTINUOUS
 10
127.8293451397
 20
138.5608402533
 11
130.8084350407
 21
137.0712953028
  0
LINE
  5
44B
100
AcDbEntity
  8
268
100
AcDbLine
 62
253
  6
CONTINUOUS
 10
135.0510757278
 20
134.9499749593
 11
138.0301656287
 21
133.4604300088
  0
LINE
  5
44C
100
AcDbEntity
  8
268
100
AcDbLine
 62
7
  6
CONTINUOUS
 10
135.4921187309
 20
134.9753244259
 11
138.718608623
 21
133.3620794798
  0
LWPOLYLINE
  5
44D
100
AcDbEntity
  8
0
100
AcDbPolyline
 62
253
  6
CONTINUOUS
 90
26
 70
0
 10
142.6909657809
 20
133.1935128385
 10
142.6908871938
 20
133.1936370307
 10
142.6902104338
 20
133.1942611257
 10
142.6891813088
 20
133.1946793057
 10
142.68780122
 20
133.1948910012
 10
142.6860720468
 20
133.1948959239
 10
142.6839961438
 20
133.1946940673
 10
142.6815763374
 20
133.1942857062
 10
142.678815922
 20
133.1936713963
 10
142.6757186566
 20
133.1928519743
 10
142.6722887598
 20
133.1918285563
 10
142.6685309035
 20
133.1906025364
 10
142.6644502039
 20
133.1891755838
 10
142.6600522142
 20
133.1875496405
 10
142.6553429203
 20
133.1857269192
 10
142.6503287362
 20
133.1837099024
 10
142.6450164932
 20
133.181501338
 10
142.6394134273
 20
133.1791042345
 10
142.6335271662
 20
133.1765218551
 10
142.6273657228
 20
133.1737577154
 10
142.6209374858
 20
133.1708155786
 10
142.6142512092
 20
133.1676994513
 10
142.6073159977
 20
133.1644135767
 10
142.6001412951
 20
133.1609624293
 10
142.5927368705
 20
133.1573507082
 10
142.5851128062
 20
133.1535833312
  0
LINE
  5
44E
100
AcDbEntity
  8
268
100
AcDbLine
 62
7
  6
CONTINUOUS
 10
133.3478488605
 20
88.270003936
 11
133.8761160323
 21
88.5410149946
  0
LINE
  5
44F
100
AcDbEntity
  8
268
100
AcDbLine
 62
7
  6
CONTINUOUS
 10
131.7465680697
 20
87.4899693363
 11
133.3478488605
 21
88.270003936
  0
LINE
  5
450
100
AcDbEntity
  8
RACCORDO
100
AcDbLine
 62
253
  6
CONTINUOUS
 10
125.1289341298
 20
87.3252423911
 11
129.2714703432
 21
88.6391858127
  0
LINE
  5
451
100
AcDbEntity
  8
RACCORDO
100
AcDbLine
 62
7
  6
CONTINUOUS
 10
128.9683720502
 20
88.1666770767
 11
124.8195856829
 21
86.8507515574
  0
LINE
  5
452
100
AcDbEntity
  8
268
100
AcDbLine
 62
7
  6
CONTINUOUS
 10
130.1494392893
 20
136.211222489
 11
131.5093712294
 21
136.2849706764
  0
LWPOLYLINE
  5
453
100
AcDbEntity
  8
0
100
AcDbPolyline
 62
7
  6
CONTINUOUS
 90
37
 70
0
 10
140.7193443663
 20
134.4120109994
 10
140.712787154
 20
134.4151721032
 10
140.7061650963
 20
134.4182350091
 10
140.6994829813
 20
134.4212031987
 10
140.6927428177
 20
134.4240759317
 10
140.68594659
 20
134.4268522584
 10
140.6790988855
 20
134.429535291
 10
140.6722015573
 20
134.432124397
 10
140.6652564934
 20
134.4346187602
 10
140.6582682014
 20
134.4370211663
 10
140.6512384075
 20
134.4393310795
 10
140.6441689091
 20
134.4415478096
 10
140.6370642136
 20
134.4436738684
 10
140.6299259538
 20
134.4457088098
 10
140.622755831
 20
134.4476520661
 10
140.6155583725
 20
134.4495059375
 10
140.6083350822
 20
134.4512700786
 10
140.6010876211
 20
134.4529440259
 10
140.5938206856
 20
134.4545298898
 10
140.5865356953
 20
134.4560274207
 10
140.5792342445
 20
134.4574362704
 10
140.5719212403
 20
134.4587584109
 10
140.5645980165
 20
134.4599936973
 10
140.5572661139
 20
134.4611418981
 10
140.5499307104
 20
134.4622048912
 10
140.5425930602
 20
134.4631826456
 10
140.5352546506
 20
134.4640750536
 10
140.5279209768
 20
134.4648839448
 10
140.52059322
 20
134.4656094132
 10
140.5132728082
 20
134.4662514856
 10
140.505965578
 20
134.4668119896
 10
140.4986726447
 20
134.4672911578
 10
140.491395365
 20
134.467689163
 10
140.4841399074
 20
134.4680078774
 10
140.4769091047
 20
134.4682481876
 10
140.4697024492
 20
134.4684099381
 10
140.4625210623
 20
134.4684935387
  0
LWPOLYLINE
  5
454
100
AcDbEntity
  8
0
100
AcDbPolyline
 62
7
  6
CONTINUOUS
 90
37
 70
0
 10
137.6080745291
 20
135.967645918
 10
137.6015173168
 20
135.9708070218
 10
137.5948952591
 20
135.9738699277
 10
137.588213144
 20
135.9768381173
 10
137.5814729805
 20
135.9797108503
 10
137.5746767528
 20
135.982487177
 10
137.5678290482
 20
135.9851702096
 10
137.56093172
 20
135.9877593156
 10
137.5539866562
 20
135.9902536788
 10
137.5469983641
 20
135.9926560849
 10
137.5399685703
 20
135.9949659982
 10
137.5328990718
 20
135.9971827282
 10
137.5257943764
 20
135.999308787
 10
137.5186561166
 20
136.0013437284
 10
137.5114859938
 20
136.0032869847
 10
137.5042885352
 20
136.0051408561
 10
137.497065245
 20
136.0069049972
 10
137.4898177839
 20
136.0085789445
 10
137.4825508484
 20
136.0101648084
 10
137.475265858
 20
136.0116623393
 10
137.4679644072
 20
136.013071189
 10
137.4606514031
 20
136.0143933295
 10
137.4533281793
 20
136.0156286159
 10
137.4459962767
 20
136.0167768167
 10
137.4386608732
 20
136.0178398098
 10
137.431323223
 20
136.0188175642
 10
137.4239848134
 20
136.0197099722
 10
137.4166511396
 20
136.0205188634
 10
137.4093233828
 20
136.0212443318
 10
137.402002971
 20
136.0218864042
 10
137.3946957408
 20
136.0224469082
 10
137.3874028075
 20
136.0229260765
 10
137.3801255278
 20
136.0233240816
 10
137.3728700702
 20
136.023642796
 10
137.3656392675
 20
136.0238831062
 10
137.3584326119
 20
136.0240448567
 10
137.3512512251
 20
136.0241284573
  0
LWPOLYLINE
  5
455
100
AcDbEntity
  8
0
100
AcDbPolyline
 62
253
  6
CONTINUOUS
 90
20
 70
0
 10
151.1121488437
 20
130.5855984979
 10
151.1102403028
 20
130.5865303391
 10
151.1039459371
 20
130.5892979256
 10
151.0974753931
 20
130.5916850219
 10
151.0908377239
 20
130.5936882894
 10
151.0840422207
 20
130.5953049258
 10
151.0770983826
 20
130.5965326732
 10
151.0700159044
 20
130.5973698171
 10
151.0628046637
 20
130.5978151858
 10
151.0554747735
 20
130.5978681505
 10
151.0480365531
 20
130.5975286402
 10
151.04050045
 20
130.5967971436
 10
151.0328769666
 20
130.5956746918
 10
151.02517671
 20
130.5941628508
 10
151.0174099253
 20
130.5922635945
 10
151.0095879931
 20
130.5899796683
 10
151.0017233887
 20
130.5873148226
 10
150.993827645
 20
130.5842732147
 10
150.985911304
 20
130.5808591542
 10
150.9779854348
 20
130.5770776269
  0
LINE
  5
456
100
AcDbEntity
  8
0
100
AcDbLine
 62
7
  6
CONTINUOUS
 10
150.4168765942
 20
130.9332345187
 11
150.4172104446
 21
130.9330676966
  0
LINE
  5
457
100
AcDbEntity
  8
0
100
AcDbLine
 62
253
  6
CONTINUOUS
 10
142.0851864315
 20
133.6571608541
 11
140.4625210623
 21
134.4684935387
  0
LINE
  5
458
100
AcDbEntity
  8
0
100
AcDbLine
 62
253
  6
CONTINUOUS
 10
139.4634778959
 20
134.9680151219
 11
137.3512512251
 21
136.0241284573
  0
LINE
  5
459
100
AcDbEntity
  8
0
100
AcDbLine
 62
7
  6
CONTINUOUS
 10
142.2156508228
 20
133.6638685894
 11
140.7193443663
 21
134.4120109994
  0
LINE
  5
45A
100
AcDbEntity
  8
0
100
AcDbLine
 62
7
  6
CONTINUOUS
 10
139.4649622239
 20
135.0392128889
 11
137.6080745291
 21
135.967645918
  0
LINE
  5
45B
100
AcDbEntity
  8
RACCORDO
100
AcDbLine
 62
253
  6
CONTINUOUS
 10
143.7649028124
 20
133.6449408934
 11
142.3436389269
 21
134.3555728361
  0
LINE
  5
45C
100
AcDbEntity
  8
RACCORDO
100
AcDbLine
 62
253
  6
CONTINUOUS
 10
140.2506199074
 20
135.4020823459
 11
139.2323690897
 21
135.9112077547
  0
LINE
  5
45D
100
AcDbEntity
  8
RACCORDO
100
AcDbLine
 62
253
  6
CONTINUOUS
 10
143.8788908404
 20
133.6941972571
 11
142.4286087539
 21
134.4193383004
  0
LINE
  5
45E
100
AcDbEntity
  8
RACCORDO
100
AcDbLine
 62
253
  6
CONTINUOUS
 10
140.3610864462
 20
135.4530994542
 11
139.3173389166
 21
135.974973219
  0
LWPOLYLINE
  5
45F
100
AcDbEntity
  8
0
100
AcDbPolyline
 62
7
  6
CONTINUOUS
 90
32
 70
0
 10
150.417307222
 20
130.9330193088
 10
151.113505534
 20
130.5849158589
 10
151.1232665067
 20
130.5797455477
 10
151.1328316984
 20
130.5742187061
 10
151.1421994148
 20
130.5683352736
 10
151.1513603332
 20
130.5620988124
 10
151.1602962636
 20
130.5555193744
 10
151.1689919663
 20
130.5486063516
 10
151.1774330857
 20
130.5413696142
 10
151.1856086975
 20
130.5338169539
 10
151.1935090604
 20
130.5259553353
 10
151.2011223371
 20
130.517794126
 10
151.208436353
 20
130.5093438829
 10
151.2154409222
 20
130.5006136489
 10
151.2221253772
 20
130.491613599
 10
151.2284781431
 20
130.4823560532
 10
151.234488171
 20
130.4728538941
 10
151.2401448641
 20
130.4631207294
 10
151.2454394172
 20
130.4531683768
 10
151.2503639583
 20
130.4430075892
 10
151.2549102962
 20
130.4326503382
 10
151.259069272
 20
130.4221121559
 10
151.2628322717
 20
130.4114096863
 10
151.2661921458
 20
130.4005580103
 10
151.2691424713
 20
130.3895720118
 10
151.2716769777
 20
130.3784686788
 10
151.2737903578
 20
130.3672644806
 10
151.275478193
 20
130.3559747705
 10
151.2767365614
 20
130.3446152853
 10
151.2775622312
 20
130.3331993193
 10
151.2779520311
 20
130.3217467349
 10
151.2779854347
 20
130.3172682426
  0
LWPOLYLINE
  5
460
100
AcDbEntity
  8
0
100
AcDbPolyline
 62
253
  6
CONTINUOUS
 90
43
 70
0
 10
150.2358391552
 20
130.9481507667
 10
150.986054527
 20
130.5729998287
 10
150.9941123339
 20
130.5685643693
 10
151.0021475859
 20
130.563777452
 10
151.010149045
 20
130.5586457717
 10
151.0181055203
 20
130.5531765056
 10
151.026005884
 20
130.547377303
 10
151.0338390868
 20
130.5412562744
 10
151.0415941733
 20
130.5348219808
 10
151.0492602971
 20
130.5280834212
 10
151.0568267366
 20
130.5210500198
 10
151.0642829094
 20
130.5137316137
 10
151.0716183874
 20
130.5061384383
 10
151.0788229113
 20
130.4982811133
 10
151.0858864048
 20
130.4901706279
 10
151.0927989891
 20
130.4818183254
 10
151.0995509962
 20
130.4732358871
 10
151.1061329829
 20
130.4644353165
 10
151.1125357436
 20
130.4554289218
 10
151.1187503236
 20
130.4462292995
 10
151.1247680312
 20
130.4368493159
 10
151.13058045
 20
130.4273020898
 10
151.1361794509
 20
130.4176009739
 10
151.1415572032
 20
130.407759536
 10
151.1467061855
 20
130.3977915404
 10
151.1516191966
 20
130.3877109281
 10
151.1562893653
 20
130.3775317979
 10
151.1607101597
 20
130.367268386
 10
151.1648753971
 20
130.3569350469
 10
151.168779252
 20
130.3465462327
 10
151.1724162644
 20
130.336116473
 10
151.1757813478
 20
130.3256603548
 10
151.1788697957
 20
130.315192502
 10
151.1816772887
 20
130.3047275547
 10
151.1841999002
 20
130.2942801492
 10
151.1864341021
 20
130.2838648971
 10
151.1883767697
 20
130.273496365
 10
151.190025186
 20
130.2631890543
 10
151.1913770455
 20
130.2529573808
 10
151.1924304576
 20
130.2428156542
 10
151.1931839489
 20
130.2327780588
 10
151.1936364656
 20
130.2228586331
 10
151.1937873749
 20
130.2130712502
  0
LWPOLYLINE
  5
461
100
AcDbEntity
  8
0
100
AcDbPolyline
 62
7
  6
CONTINUOUS
 90
25
 70
0
 10
148.9778805262
 20
135.8504529478
 10
148.9765641429
 20
135.852640225
 10
148.9748021787
 20
135.8553307175
 10
148.9729637396
 20
135.8578802281
 10
148.971041117
 20
135.8602832071
 10
148.9690370423
 20
135.8625361712
 10
148.9669537047
 20
135.8646354018
 10
148.9647827792
 20
135.8665744786
 10
148.9625273245
 20
135.8683497075
 10
148.9601898626
 20
135.8699571316
 10
148.9577615043
 20
135.8713894088
 10
148.9552456375
 20
135.8726426543
 10
148.9526452065
 20
135.8737126964
 10
148.9499509387
 20
135.8745912599
 10
148.947166548
 20
135.8752742937
 10
148.9442954851
 20
135.8757574973
 10
148.9413283903
 20
135.8760317982
 10
148.9382692765
 20
135.8760930339
 10
148.9351221817
 20
135.8759369135
 10
148.9318780903
 20
135.8755538953
 10
148.9285412652
 20
135.8749398019
 10
148.9251163847
 20
135.8740905473
 10
148.9215953225
 20
135.8729966722
 10
148.9179825254
 20
135.8716541366
 10
148.9161145472
 20
135.870876039
  0
LINE
  5
462
100
AcDbEntity
  8
0
100
AcDbLine
 62
253
  6
CONTINUOUS
 10
149.7374890345
 20
134.3178205117
 11
148.9839344583
 21
135.6175099023
  0
LINE
  5
463
100
AcDbEntity
  8
0
100
AcDbLine
 62
7
  6
CONTINUOUS
 10
148.977912014
 20
135.8503959645
 11
149.8433435943
 21
134.3577472849
  0
LWPOLYLINE
  5
464
100
AcDbEntity
  8
0
100
AcDbPolyline
 62
253
  6
CONTINUOUS
 90
37
 70
0
 10
149.737489031
 20
134.3178205099
 10
149.7590960504
 20
134.2800422991
 10
149.7802149636
 20
134.2419369481
 10
149.8008356598
 20
134.2035225597
 10
149.8209481131
 20
134.1648175283
 10
149.8405428646
 20
134.1258401039
 10
149.859611003
 20
134.0866083716
 10
149.8781435084
 20
134.0471407521
 10
149.8961313827
 20
134.0074562046
 10
149.9135661198
 20
133.9675737846
 10
149.930439371
 20
133.9275125127
 10
149.9467430812
 20
133.8872913622
 10
149.9624695952
 20
133.8469294498
 10
149.9776114143
 20
133.8064459714
 10
149.9921612934
 20
133.7658601662
 10
150.0061123778
 20
133.7251913059
 10
150.0194580352
 20
133.6844587103
 10
150.0321918773
 20
133.6436817736
 10
150.0443078528
 20
133.6028799273
 10
150.0558002098
 20
133.5620725908
 10
150.0666634677
 20
133.5212791734
 10
150.0768924369
 20
133.4805191003
 10
150.086482273
 20
133.4398118068
 10
150.0954284243
 20
133.3991766338
 10
150.103726602
 20
133.3586328312
 10
150.1113728988
 20
133.3181997112
 10
150.1183636926
 20
133.2778965206
 10
150.1246955893
 20
133.2377423369
 10
150.1303656372
 20
133.1977562349
 10
150.135371156
 20
133.1579573186
 10
150.139709642
 20
133.118364592
 10
150.143379084
 20
133.0789971644
 10
150.1463778134
 20
133.0398735526
 10
150.1487043008
 20
133.0010117239
 10
150.1503574213
 20
132.9624299912
 10
150.1513364893
 20
132.9241469923
 10
150.1516410912
 20
132.886180998
  0
LINE
  5
465
100
AcDbEntity
  8
DRAFT
100
AcDbLine
 62
7
  6
CONTINUOUS
 10
146.1785321975
 20
137.891899763
 11
146.1419425989
 21
137.9614417636
  0
LINE
  5
466
100
AcDbEntity
  8
DRAFT
100
AcDbLine
 62
7
  6
CONTINUOUS
 10
146.4613749099
 20
138.0333211193
 11
146.4247853114
 21
138.1028631198
  0
LINE
  5
467
100
AcDbEntity
  8
DRAFT
100
AcDbLine
 62
7
  6
CONTINUOUS
 10
146.7442176224
 20
138.1747424755
 11
146.7076280239
 21
138.2442844761
  0
LINE
  5
468
100
AcDbEntity
  8
DRAFT
100
AcDbLine
 62
7
  6
CONTINUOUS
 10
147.0270603349
 20
138.3161638317
 11
146.9904707363
 21
138.3857058323
  0
LINE
  5
469
100
AcDbEntity
  8
DRAFT
100
AcDbLine
 62
7
  6
CONTINUOUS
 10
147.3099030474
 20
138.457585188
 11
147.2733134488
 21
138.5271271886
  0
LINE
  5
46A
100
AcDbEntity
  8
DRAFT
100
AcDbLine
 62
7
  6
CONTINUOUS
 10
147.5927457598
 20
138.5990065442
 11
147.5561561613
 21
138.6685485448
  0
LINE
  5
46B
100
AcDbEntity
  8
DRAFT
100
AcDbLine
 62
7
  6
CONTINUOUS
 10
149.2898020347
 20
136.3362648444
 11
149.2532124361
 21
136.405806845
  0
LINE
  5
46C
100
AcDbEntity
  8
DRAFT
100
AcDbLine
 62
7
  6
CONTINUOUS
 10
147.1541087632
 20
136.8864624483
 11
147.1882298428
 21
136.8181547072
  0
LINE
  5
46D
100
AcDbEntity
  8
DRAFT
100
AcDbLine
 62
7
  6
CONTINUOUS
 10
147.4369514757
 20
137.0278838046
 11
147.4710725552
 21
136.9595760634
  0
LWPOLYLINE
  5
46E
100
AcDbEntity
  8
0
100
AcDbPolyline
 62
253
  6
CONTINUOUS
 90
19
 70
0
 10
142.722857691
 20
139.4305803429
 10
142.7164393427
 20
139.4335405566
 10
142.7100896342
 20
139.4360084556
 10
142.7035739092
 20
139.4381019342
 10
142.696901079
 20
139.4398181291
 10
142.6900802702
 20
139.4411546932
 10
142.6831208113
 20
139.4421097984
 10
142.6760322207
 20
139.4426821384
 10
142.6688241934
 20
139.4428709305
 10
142.6615065878
 20
139.4426759164
 10
142.654089412
 20
139.442097363
 10
142.6465828104
 20
139.4411360613
 10
142.6389970497
 20
139.4397933263
 10
142.6313425048
 20
139.4380709944
 10
142.6236296448
 20
139.4359714211
 10
142.6158690183
 20
139.433497478
 10
142.6080712396
 20
139.4306525487
 10
142.6002469736
 20
139.4274405242
 10
142.5924069213
 20
139.4238657975
  0
LWPOLYLINE
  5
46F
100
AcDbEntity
  8
0
100
AcDbPolyline
 62
253
  6
CONTINUOUS
 90
23
 70
0
 10
144.312933875
 20
139.3349638947
 10
144.3053857345
 20
139.3385244696
 10
144.2968508835
 20
139.3420622606
 10
144.2881257881
 20
139.3451774885
 10
144.2792183645
 20
139.3478673477
 10
144.2701369495
 20
139.3501292972
 10
144.2608900665
 20
139.3519611878
 10
144.2514861591
 20
139.3533614012
 10
144.2419340824
 20
139.3543285906
 10
144.2322427546
 20
139.3548618229
 10
144.2224209217
 20
139.354960701
 10
144.2124777753
 20
139.3546250783
 10
144.2024226498
 20
139.3538552142
 10
144.1922646735
 20
139.3526519169
 10
144.1820133347
 20
139.35101624
 10
144.171678276
 20
139.3489496515
 10
144.1612689908
 20
139.3464541951
 10
144.1507953406
 20
139.3435321736
 10
144.140267045
 20
139.340186234
 10
144.1296934746
 20
139.3364195198
 10
144.1190843735
 20
139.3322354846
 10
144.1084498529
 20
139.3276379144
 10
144.0977998818
 20
139.3226310088
  0
LWPOLYLINE
  5
470
100
AcDbEntity
  8
0
100
AcDbPolyline
 62
253
  6
CONTINUOUS
 90
22
 70
0
 10
143.918107043
 20
139.5323773132
 10
143.9125209564
 20
139.535058292
 10
143.9033070465
 20
139.5390104514
 10
143.8938721023
 20
139.5424885301
 10
143.8842258848
 20
139.5454889391
 10
143.874378404
 20
139.5480085782
 10
143.8643402198
 20
139.550044692
 10
143.8541217485
 20
139.5515952046
 10
143.8437335685
 20
139.5526585502
 10
143.8331867636
 20
139.5532335043
 10
143.822492266
 20
139.553319523
 10
143.8116611563
 20
139.5529165708
 10
143.8007049688
 20
139.5520249472
 10
143.7896349943
 20
139.5506456322
 10
143.7784627649
 20
139.5487801242
 10
143.7672003568
 20
139.5464302784
 10
143.755859647
 20
139.5435986822
 10
143.7444521894
 20
139.5402883342
 10
143.7329896914
 20
139.5365024191
 10
143.7214839886
 20
139.5322447895
 10
143.7099470407
 20
139.5275200287
 10
143.6983908038
 20
139.5223330989
  0
LWPOLYLINE
  5
471
100
AcDbEntity
  8
0
100
AcDbPolyline
 62
7
  6
CONTINUOUS
 90
37
 70
0
 10
146.7637927881
 20
137.4101019768
 10
146.7572355892
 20
137.4132623336
 10
146.7506135078
 20
137.4163265556
 10
146.743931403
 20
137.4192941761
 10
146.7371912519
 20
137.4221662186
 10
146.7303950021
 20
137.4249437744
 10
146.7235473072
 20
137.4276262685
 10
146.7166499906
 20
137.4302147328
 10
146.709704906
 20
137.4327102498
 10
146.7027166231
 20
137.4351121438
 10
146.6956868401
 20
137.4374214573
 10
146.688617322
 20
137.4396392757
 10
146.6815126354
 20
137.4417648459
 10
146.6743743857
 20
137.4437992234
 10
146.6672042444
 20
137.4457435103
 10
146.6600067942
 20
137.4475969149
 10
146.6527835135
 20
137.4493605239
 10
146.6455360349
 20
137.4510354503
 10
146.6382691073
 20
137.4526208672
 10
146.6309841261
 20
137.4541178935
 10
146.6236826585
 20
137.4555276753
 10
146.6163696621
 20
137.4568493883
 10
146.6090464469
 20
137.4580841946
 10
146.6017145283
 20
137.4592332833
 10
146.5943791322
 20
137.4602958687
 10
146.5870414902
 20
137.461273165
 10
146.5797030654
 20
137.4621664179
 10
146.5723693986
 20
137.4629749222
 10
146.5650416497
 20
137.4636999535
 10
146.5577212234
 20
137.4643428268
 10
146.5504139998
 20
137.4649029671
 10
146.543121074
 20
137.4653817185
 10
146.5358437807
 20
137.4657804781
 10
146.5285883292
 20
137.4660988548
 10
146.5213575526
 20
137.4663377127
 10
146.5141509034
 20
137.4664991109
 10
146.506969484
 20
137.4665845162
  0
LWPOLYLINE
  5
472
100
AcDbEntity
  8
0
100
AcDbPolyline
 62
7
  6
CONTINUOUS
 90
37
 70
0
 10
143.6525229509
 20
138.9657368955
 10
143.645965752
 20
138.9688972522
 10
143.6393436706
 20
138.9719614742
 10
143.6326615658
 20
138.9749290948
 10
143.6259214147
 20
138.9778011373
 10
143.6191251648
 20
138.980578693
 10
143.61227747
 20
138.9832611871
 10
143.6053801533
 20
138.9858496514
 10
143.5984350688
 20
138.9883451684
 10
143.5914467859
 20
138.9907470624
 10
143.5844170029
 20
138.9930563759
 10
143.5773474848
 20
138.9952741943
 10
143.5702427982
 20
138.9973997645
 10
143.5631045485
 20
138.999434142
 10
143.5559344072
 20
139.0013784289
 10
143.548736957
 20
139.0032318335
 10
143.5415136763
 20
139.0049954425
 10
143.5342661976
 20
139.0066703689
 10
143.5269992701
 20
139.0082557858
 10
143.5197142889
 20
139.0097528122
 10
143.5124128213
 20
139.0111625939
 10
143.5050998249
 20
139.0124843069
 10
143.4977766097
 20
139.0137191132
 10
143.4904446911
 20
139.0148682019
 10
143.483109295
 20
139.0159307873
 10
143.475771653
 20
139.0169080837
 10
143.4684332282
 20
139.0178013365
 10
143.4610995614
 20
139.0186098408
 10
143.4537718124
 20
139.0193348721
 10
143.4464513862
 20
139.0199777454
 10
143.4391441625
 20
139.0205378857
 10
143.4318512368
 20
139.0210166371
 10
143.4245739435
 20
139.0214153967
 10
143.417318492
 20
139.0217337734
 10
143.4100877154
 20
139.0219726313
 10
143.4028810662
 20
139.0221340295
 10
143.3956996468
 20
139.0222194348
  0
LWPOLYLINE
  5
473
100
AcDbEntity
  8
0
100
AcDbPolyline
 62
7
  6
CONTINUOUS
 90
27
 70
0
 10
142.722857675
 20
139.4305803108
 10
142.7157898084
 20
139.434038696
 10
142.7017493656
 20
139.4404695802
 10
142.687653655
 20
139.4463521294
 10
142.6735228264
 20
139.4516873527
 10
142.6593667307
 20
139.4564812658
 10
142.6451878167
 20
139.4607414571
 10
142.6310037649
 20
139.4644704597
 10
142.6168288344
 20
139.4676726894
 10
142.6026630518
 20
139.4703552015
 10
142.5885241789
 20
139.4725209983
 10
142.5744281158
 20
139.4741745557
 10
142.5603741865
 20
139.4753219911
 10
142.546380808
 20
139.475967089
 10
142.5324640825
 20
139.4761149179
 10
142.5186214881
 20
139.475770578
 10
142.5048714964
 20
139.4749387825
 10
142.4912303759
 20
139.4736250667
 10
142.477693525
 20
139.4718329014
 10
142.4642785035
 20
139.4695676744
 10
142.4510022139
 20
139.4668355367
 10
142.437860266
 20
139.4636380256
 10
142.4248703327
 20
139.4599813094
 10
142.4120488442
 20
139.4558722028
 10
142.3993907882
 20
139.451310216
 10
142.3869062436
 20
139.4462986712
 10
142.375560052
 20
139.4412836305
  0
LWPOLYLINE
  5
474
100
AcDbEntity
  8
0
100
AcDbPolyline
 62
253
  6
CONTINUOUS
 90
18
 70
0
 10
143.6983933324
 20
139.5223342836
 10
143.6927981706
 20
139.5250866788
 10
143.687208079
 20
139.5275518229
 10
143.681632121
 20
139.5297257189
 10
143.6760793375
 20
139.5316048422
 10
143.6705587315
 20
139.533186146
 10
143.6650792541
 20
139.5344670663
 10
143.6596497895
 20
139.5354455264
 10
143.6542791409
 20
139.5361199398
 10
143.6489760162
 20
139.536489213
 10
143.6437490136
 20
139.5365527473
 10
143.6386066082
 20
139.5363104397
 10
143.6335571377
 20
139.535762683
 10
143.6286087892
 20
139.5349103654
 10
143.6237695858
 20
139.5337548688
 10
143.6190473737
 20
139.5322980666
 10
143.6144498093
 20
139.530542321
 10
143.6120743421
 20
139.5294952852
  0
LWPOLYLINE
  5
475
100
AcDbEntity
  8
0
100
AcDbPolyline
 62
7
  6
CONTINUOUS
 90
27
 70
0
 10
143.9181340549
 20
139.5323637828
 10
143.9148609519
 20
139.5339771745
 10
143.904155885
 20
139.5389331488
 10
143.8932510189
 20
139.5434963729
 10
143.8821549592
 20
139.5476608616
 10
143.8708668807
 20
139.5514235513
 10
143.8593999912
 20
139.5547763092
 10
143.8477677187
 20
139.5577119468
 10
143.8359685277
 20
139.5602268538
 10
143.8240145883
 20
139.5623136295
 10
143.8119206417
 20
139.5639653188
 10
143.7996877872
 20
139.5651772293
 10
143.7873293227
 20
139.5659428976
 10
143.7748587186
 20
139.5662564057
 10
143.7622758663
 20
139.5661123278
 10
143.7495936439
 20
139.5655050153
 10
143.7368250377
 20
139.5644292674
 10
143.7239683729
 20
139.5628783291
 10
143.7110347223
 20
139.5608465132
 10
143.6980376141
 20
139.5583290165
 10
143.6849772509
 20
139.5553181322
 10
143.6718650178
 20
139.551808092
 10
143.6587121961
 20
139.5477937097
 10
143.6455169311
 20
139.5432651051
 10
143.6322856286
 20
139.5382139195
 10
143.6190350447
 20
139.5326362968
 10
143.6120743633
 20
139.5294952391
  0
LINE
  5
476
100
AcDbEntity
  8
DRAFT
100
AcDbLine
 62
7
  6
CONTINUOUS
 10
147.1028615619
 20
136.8608388477
 11
147.1882298428
 21
136.8181547072
  0
LINE
  5
477
100
AcDbEntity
  8
DRAFT
100
AcDbLine
 62
7
  6
CONTINUOUS
 10
147.3857042743
 20
137.0022602039
 11
147.4710725552
 21
136.9595760634
  0
LINE
  5
478
100
AcDbEntity
  8
DRAFT
100
AcDbLine
 62
7
  6
CONTINUOUS
 10
150.4969741116
 20
135.4466252853
 11
150.5823423925
 21
135.4039411448
  0
LINE
  5
479
100
AcDbEntity
  8
0
100
AcDbLine
 62
253
  6
CONTINUOUS
 10
143.3956996468
 20
139.0222194348
 11
142.592408839
 21
139.4238648387
  0
LINE
  5
47A
100
AcDbEntity
  8
0
100
AcDbLine
 62
253
  6
CONTINUOUS
 10
145.7226874668
 20
137.8587255248
 11
146.506969484
 21
137.4665845162
  0
LINE
  5
47B
100
AcDbEntity
  8
0
100
AcDbLine
 62
7
  6
CONTINUOUS
 10
142.7228687855
 20
139.4305747964
 11
143.6551390472
 21
138.9644396656
  0
LINE
  5
47C
100
AcDbEntity
  8
0
100
AcDbLine
 62
7
  6
CONTINUOUS
 10
145.7241717948
 20
137.9299232918
 11
146.7664088844
 21
137.408804747
  0
LINE
  5
47D
100
AcDbEntity
  8
DRAFT
100
AcDbLine
 62
7
  6
CONTINUOUS
 10
144.4880854058
 20
138.5603464636
 11
146.0017555022
 21
137.8035114154
  0
LINE
  5
47E
100
AcDbEntity
  8
DRAFT
100
AcDbLine
 62
7
  6
CONTINUOUS
 10
147.599355243
 20
137.0047115449
 11
149.1130253394
 21
136.2478764968
  0
LINE
  5
47F
100
AcDbEntity
  8
DRAFT
100
AcDbLine
 62
7
  6
CONTINUOUS
 10
144.5246750043
 20
138.6640095437
 11
146.0358765817
 21
137.908408755
  0
LINE
  5
480
100
AcDbEntity
  8
DRAFT
100
AcDbLine
 62
7
  6
CONTINUOUS
 10
147.6359448415
 20
137.1083746251
 11
149.147146419
 21
136.3527738364
  0
LINE
  5
481
100
AcDbEntity
  8
DRAFT
100
AcDbLine
 62
7
  6
CONTINUOUS
 10
144.6307410215
 20
138.7170425523
 11
146.1419425989
 21
137.9614417636
  0
LINE
  5
482
100
AcDbEntity
  8
DRAFT
100
AcDbLine
 62
7
  6
CONTINUOUS
 10
147.7420108587
 20
137.1614076337
 11
149.2532124361
 21
136.405806845
  0
LINE
  5
483
100
AcDbEntity
  8
DRAFT
100
AcDbLine
 62
7
  6
CONTINUOUS
 10
144.7709281183
 20
138.7017678198
 11
146.2845982146
 21
137.9449327716
  0
LINE
  5
484
100
AcDbEntity
  8
DRAFT
100
AcDbLine
 62
7
  6
CONTINUOUS
 10
147.8821979555
 20
137.1461329012
 11
149.3958680519
 21
136.389297853
  0
LINE
  5
485
100
AcDbEntity
  8
DRAFT
100
AcDbLine
 62
7
  6
CONTINUOUS
 10
144.8075177168
 20
138.8054309
 11
146.3187192942
 21
138.0498301112
  0
LINE
  5
486
100
AcDbEntity
  8
DRAFT
100
AcDbLine
 62
7
  6
CONTINUOUS
 10
147.918787554
 20
137.2497959813
 11
149.4299891314
 21
136.4941951926
  0
LINE
  5
487
100
AcDbEntity
  8
DRAFT
100
AcDbLine
 62
7
  6
CONTINUOUS
 10
144.913583734
 20
138.8584639085
 11
146.4247853114
 21
138.1028631198
  0
LINE
  5
488
100
AcDbEntity
  8
DRAFT
100
AcDbLine
 62
7
  6
CONTINUOUS
 10
148.0248535712
 20
137.3028289899
 11
149.5360551486
 21
136.5472282012
  0
LINE
  5
489
100
AcDbEntity
  8
DRAFT
100
AcDbLine
 62
7
  6
CONTINUOUS
 10
145.0537708307
 20
138.843189176
 11
146.5674409271
 21
138.0863541278
  0
LINE
  5
48A
100
AcDbEntity
  8
DRAFT
100
AcDbLine
 62
7
  6
CONTINUOUS
 10
148.165040668
 20
137.2875542574
 11
149.6787107643
 21
136.5307192092
  0
LINE
  5
48B
100
AcDbEntity
  8
0
100
AcDbLine
 62
253
  6
CONTINUOUS
 10
143.6983907862
 20
139.5223331077
 11
144.0977998818
 21
139.3226310088
  0
LINE
  5
48C
100
AcDbEntity
  8
0
100
AcDbLine
 62
7
  6
CONTINUOUS
 10
143.9181058046
 20
139.5323779324
 11
144.3129611969
 21
139.3349502362
  0
LINE
  5
48D
100
AcDbEntity
  8
DRAFT
100
AcDbLine
 62
7
  6
CONTINUOUS
 10
145.0903604293
 20
138.9468522562
 11
146.6015620067
 21
138.1912514675
  0
LINE
  5
48E
100
AcDbEntity
  8
DRAFT
100
AcDbLine
 62
7
  6
CONTINUOUS
 10
148.2016302665
 20
137.3912173376
 11
149.7128318439
 21
136.6356165489
  0
LINE
  5
48F
100
AcDbEntity
  8
DRAFT
100
AcDbLine
 62
7
  6
CONTINUOUS
 10
145.1964264465
 20
138.9998852648
 11
146.7076280239
 21
138.2442844761
  0
LINE
  5
490
100
AcDbEntity
  8
DRAFT
100
AcDbLine
 62
7
  6
CONTINUOUS
 10
148.3076962837
 20
137.4442503462
 11
149.8188978611
 21
136.6886495575
  0
LINE
  5
491
100
AcDbEntity
  8
DRAFT
100
AcDbLine
 62
7
  6
CONTINUOUS
 10
145.3366135432
 20
138.9846105323
 11
146.8502836396
 21
138.2277754841
  0
LINE
  5
492
100
AcDbEntity
  8
DRAFT
100
AcDbLine
 62
7
  6
CONTINUOUS
 10
148.4478833804
 20
137.4289756137
 11
149.9615534768
 21
136.6721405655
  0
LWPOLYLINE
  5
493
100
AcDbEntity
  8
0
100
AcDbPolyline
 62
7
  6
CONTINUOUS
 90
102
 70
0
 10
150.4889480469
 20
132.5670156175
 10
150.504825656
 20
132.5539365226
 10
150.5480740899
 20
132.5170702988
 10
150.5910033326
 20
132.4792282716
 10
150.6335575391
 20
132.4404629107
 10
150.6757001679
 20
132.400813257
 10
150.7174355099
 20
132.3602809287
 10
150.758769173
 20
132.3188641145
 10
150.799695159
 20
132.2765708446
 10
150.8401862464
 20
132.2334311609
 10
150.8802158561
 20
132.1894761984
 10
150.9197647225
 20
132.1447305135
 10
150.9588206547
 20
132.0992112117
 10
150.9973680598
 20
132.0529395212
 10
151.0353886308
 20
132.0059405501
 10
151.0728702685
 20
131.9582323051
 10
151.1098064459
 20
131.9098254184
 10
151.1461876897
 20
131.8607337222
 10
151.1819931901
 20
131.8109866148
 10
151.2171996296
 20
131.7606185875
 10
151.2517868271
 20
131.7096614537
 10
151.2857471535
 20
131.6581293215
 10
151.3190762741
 20
131.6060305164
 10
151.3517645744
 20
131.5533807537
 10
151.3837937824
 20
131.5002100411
 10
151.4151465731
 20
131.4465482265
 10
151.4458080956
 20
131.3924221649
 10
151.4757674827
 20
131.3378523792
 10
151.5050138567
 20
131.2828596213
 10
151.5335346952
 20
131.227468129
 10
151.5613180386
 20
131.1717017029
 10
151.5883539586
 20
131.1155805055
 10
151.6146310014
 20
131.0591281738
 10
151.6401374046
 20
131.0023696873
 10
151.6648629432
 20
130.945327261
 10
151.6887976571
 20
130.8880228981
 10
151.7119297178
 20
130.8304837465
 10
151.7342466782
 20
130.7727398398
 10
151.7557361412
 20
130.7148228431
 10
151.7763911742
 20
130.656750827
 10
151.7962075718
 20
130.59853335
 10
151.8151790206
 20
130.5401846458
 10
151.8332924388
 20
130.4817402177
 10
151.8505340191
 20
130.4232414073
 10
151.8668926968
 20
130.3647242537
 10
151.8823640559
 20
130.3062027042
 10
151.8969447404
 20
130.2476848057
 10
151.9106285053
 20
130.1891881512
 10
151.9234058428
 20
130.1307450786
 10
151.9352684715
 20
130.0723854884
 10
151.9462099378
 20
130.0141324847
 10
151.9562233957
 20
129.9560126829
 10
151.9653012046
 20
129.8980607703
 10
151.9734363523
 20
129.840313639
 10
151.9806258076
 20
129.7827833776
 10
151.9868675399
 20
129.7254672241
 10
151.9921580493
 20
129.6683622499
 10
151.9964885264
 20
129.6115209803
 10
151.9998509103
 20
129.5550227604
 10
152.0022419071
 20
129.4989247352
 10
152.0036619881
 20
129.4432159405
 10
152.0041095634
 20
129.3878728403
 10
152.0035803241
 20
129.3328888917
 10
152.002070275
 20
129.278318796
 10
151.9995786385
 20
129.2242300965
 10
151.996105872
 20
129.1706585433
 10
151.9916511965
 20
129.1176125649
 10
151.9862148909
 20
129.0651166523
 10
151.979797379
 20
129.0131926865
 10
151.9723992718
 20
128.9618617799
 10
151.9640216677
 20
128.9111463367
 10
151.9546610413
 20
128.8610434231
 10
151.9443226387
 20
128.8115983939
 10
151.9330253365
 20
128.7629023742
 10
151.9207848715
 20
128.7150084314
 10
151.9075995457
 20
128.6678968568
 10
151.8934642954
 20
128.6215476052
 10
151.8783700742
 20
128.5759394156
 10
151.862333738
 20
128.5311315337
 10
151.8453922901
 20
128.487221661
 10
151.8275690118
 20
128.4442528552
 10
151.8088632895
 20
128.4022075536
 10
151.789281122
 20
128.3610883443
 10
151.7688286397
 20
128.3208998951
 10
151.7475210428
 20
128.2816644287
 10
151.7253788916
 20
128.2434102859
 10
151.7024085746
 20
128.206139025
 10
151.6786292778
 20
128.1698727669
 10
151.6540857734
 20
128.1346661055
 10
151.628818725
 20
128.1005572676
 10
151.6028236691
 20
128.0675208361
 10
151.5760781442
 20
128.0355166758
 10
151.5485787153
 20
128.0045356126
 10
151.5203581113
 20
127.9746095587
 10
151.4914468622
 20
127.9457628618
 10
151.4618719565
 20
127.9180124195
 10
151.4316426604
 20
127.8913570547
 10
151.4007643036
 20
127.8657935731
 10
151.3692555197
 20
127.8413305784
 10
151.3371347484
 20
127.8179755801
 10
151.3044063346
 20
127.7957260026
 10
151.2779854348
 20
127.7789649474
  0
LWPOLYLINE
  5
494
100
AcDbEntity
  8
0
100
AcDbPolyline
 62
253
  6
CONTINUOUS
 90
102
 70
0
 10
150.4512327937
 20
132.5203454883
 10
150.4626330199
 20
132.5106036496
 10
150.5047203816
 20
132.4734507531
 10
150.5465204216
 20
132.4353559418
 10
150.5880144749
 20
132.396336226
 10
150.6291840133
 20
132.356409029
 10
150.6700106536
 20
132.3155921794
 10
150.7104761656
 20
132.2739039029
 10
150.7505624805
 20
132.2313628144
 10
150.7902516985
 20
132.1879879097
 10
150.8295260975
 20
132.1437985569
 10
150.8683681403
 20
132.0988144876
 10
150.906760483
 20
132.0530557883
 10
150.9446859824
 20
132.0065428916
 10
150.9821277037
 20
131.9592965667
 10
151.0190689283
 20
131.9113379103
 10
151.0554931609
 20
131.8626883372
 10
151.0913841371
 20
131.8133695708
 10
151.1267258307
 20
131.7634036331
 10
151.1615024607
 20
131.7128128352
 10
151.1956984983
 20
131.6616197674
 10
151.2292986743
 20
131.6098472885
 10
151.2622879851
 20
131.5575185165
 10
151.2946517002
 20
131.5046568175
 10
151.3263753684
 20
131.4512857955
 10
151.3574448241
 20
131.3974292823
 10
151.3878461942
 20
131.3431113261
 10
151.4175659035
 20
131.2883561813
 10
151.4465906814
 20
131.2331882976
 10
151.4749075677
 20
131.1776323088
 10
151.502503918
 20
131.1217130222
 10
151.5293674098
 20
131.0654554072
 10
151.555486048
 20
131.0088845843
 10
151.5808481699
 20
130.9520258138
 10
151.6054424505
 20
130.8949044848
 10
151.629257908
 20
130.8375461033
 10
151.652283908
 20
130.7799762814
 10
151.6745101689
 20
130.7222207256
 10
151.6959267661
 20
130.6643052252
 10
151.7165241364
 20
130.606255641
 10
151.7362930827
 20
130.5480978937
 10
151.7552247775
 20
130.4898579522
 10
151.7733107674
 20
130.4315618222
 10
151.7905429764
 20
130.3732355345
 10
151.80691371
 20
130.3149051333
 10
151.8224156582
 20
130.2565966646
 10
151.837041899
 20
130.1983361647
 10
151.8507859013
 20
130.1401496485
 10
151.8636415282
 20
130.0820630977
 10
151.8756030391
 20
130.0241024496
 10
151.8866650931
 20
129.9662935851
 10
151.8968227506
 20
129.9086623174
 10
151.9060714759
 20
129.8512343802
 10
151.9144071392
 20
129.7940354168
 10
151.9218260185
 20
129.737090968
 10
151.928324801
 20
129.680426461
 10
151.9339005849
 20
129.6240671979
 10
151.9385508803
 20
129.5680383447
 10
151.9422736109
 20
129.5123649197
 10
151.9450671144
 20
129.4570717825
 10
151.9469301433
 20
129.402183623
 10
151.9478618657
 20
129.3477249503
 10
151.9478618657
 20
129.2937200815
 10
151.9469301433
 20
129.2401931312
 10
151.9450671144
 20
129.1871680007
 10
151.9422736109
 20
129.1346683669
 10
151.9385508803
 20
129.0827176725
 10
151.9339005849
 20
129.0313391147
 10
151.928324801
 20
128.9805556355
 10
151.9218260185
 20
128.930389911
 10
151.9144071392
 20
128.8808643415
 10
151.9060714758
 20
128.8320010414
 10
151.8968227505
 20
128.7838218296
 10
151.8866650931
 20
128.7363482193
 10
151.8756030391
 20
128.6896014088
 10
151.8636415282
 20
128.6436022716
 10
151.8507859013
 20
128.5983713477
 10
151.837041899
 20
128.5539288338
 10
151.8224156582
 20
128.5102945747
 10
151.80691371
 20
128.4674880542
 10
151.7905429764
 20
128.4255283866
 10
151.7733107673
 20
128.3844343079
 10
151.7552247775
 20
128.3442241678
 10
151.7362930826
 20
128.3049159212
 10
151.7165241364
 20
128.2665271201
 10
151.6959267661
 20
128.2290749062
 10
151.6745101689
 20
128.192576003
 10
151.652283908
 20
128.1570467081
 10
151.629257908
 20
128.1225028862
 10
151.6054424505
 20
128.0889599622
 10
151.5808481698
 20
128.0564329138
 10
151.555486048
 20
128.0249362652
 10
151.5293674098
 20
127.9944840805
 10
151.5025039179
 20
127.9650899574
 10
151.4749075676
 20
127.9367670211
 10
151.4465906814
 20
127.9095279185
 10
151.4175659034
 20
127.8833848127
 10
151.3878461941
 20
127.8583493773
 10
151.3574448241
 20
127.8344327911
 10
151.3263753683
 20
127.8116457337
 10
151.2946517001
 20
127.7899983799
 10
151.2779854348
 20
127.7794425819
  0
LWPOLYLINE
  5
495
100
AcDbEntity
  8
0
100
AcDbPolyline
 62
253
  6
CONTINUOUS
 90
26
 70
0
 10
149.8433435906
 20
134.3577472912
 10
149.8432910729
 20
134.3578325928
 10
149.8426312077
 20
134.3584687784
 10
149.8416173577
 20
134.3588981734
 10
149.8402509098
 20
134.3591201906
 10
149.8385337327
 20
134.3591345264
 10
149.8364681751
 20
134.3589411611
 10
149.8340570618
 20
134.3585403591
 10
149.8313036907
 20
134.3579326688
 10
149.8282118274
 20
134.3571189211
 10
149.8247857006
 20
134.3561002291
 10
149.8210299963
 20
134.354877986
 10
149.816949851
 20
134.3534538635
 10
149.812550845
 20
134.3518298092
 10
149.807838995
 20
134.3500080444
 10
149.8028207451
 20
134.3479910608
 10
149.7975029588
 20
134.3457816168
 10
149.7918929092
 20
134.3433827343
 10
149.785998269
 20
134.3407976943
 10
149.7798271003
 20
134.3380300323
 10
149.7733878432
 20
134.3350835335
 10
149.7666893048
 20
134.3319622279
 10
149.7597406464
 20
134.3286703844
 10
149.7525513717
 20
134.3252125052
 10
149.7451313133
 20
134.3215933197
 10
149.7374906196
 20
134.3178177777
  0
LWPOLYLINE
  5
496
100
AcDbEntity
  8
0
100
AcDbPolyline
 62
253
  6
CONTINUOUS
 90
32
 70
0
 10
150.2144634633
 20
135.6811498849
 10
150.2108891458
 20
135.6870074234
 10
150.2060718407
 20
135.6940577693
 10
150.2009545062
 20
135.7006700601
 10
150.1955516646
 20
135.7068374125
 10
150.1898725699
 20
135.7125626155
 10
150.1839256649
 20
135.7178506488
 10
150.1777250029
 20
135.7226984265
 10
150.1712812857
 20
135.7271091556
 10
150.164603401
 20
135.7310888033
 10
150.157703122
 20
135.7346387577
 10
150.1505931328
 20
135.7377625227
 10
150.1432814304
 20
135.7404667091
 10
150.1357718955
 20
135.7427568987
 10
150.1280753614
 20
135.7446376343
 10
150.1202003254
 20
135.7461139063
 10
150.1121448442
 20
135.7471905747
 10
150.1039121676
 20
135.7478719489
 10
150.0955156856
 20
135.74816175
 10
150.0869677014
 20
135.7480633948
 10
150.0782741208
 20
135.7475798404
 10
150.069447138
 20
135.7467172621
 10
150.0605103738
 20
135.7454851793
 10
150.0514759932
 20
135.743887516
 10
150.0423532844
 20
135.741931903
 10
150.0331641857
 20
135.7396352332
 10
150.0239225762
 20
135.7370027832
 10
150.0146380096
 20
135.734042478
 10
150.0053278195
 20
135.7307765498
 10
149.9960061381
 20
135.7272173198
 10
149.9866829224
 20
135.7233665279
 10
149.9773697399
 20
135.719230983
  0
LWPOLYLINE
  5
497
100
AcDbEntity
  8
0
100
AcDbPolyline
 62
7
  6
CONTINUOUS
 90
42
 70
0
 10
150.2144903928
 20
135.6811037106
 10
150.211614289
 20
135.685990041
 10
150.2041631368
 20
135.698000391
 10
150.1964044896
 20
135.7096097482
 10
150.1883467507
 20
135.720810836
 10
150.1800066372
 20
135.7315882509
 10
150.1713956826
 20
135.7419363471
 10
150.1625264947
 20
135.7518482903
 10
150.1534218019
 20
135.7613091172
 10
150.1440971903
 20
135.770315238
 10
150.1345705829
 20
135.7788619414
 10
150.1248724735
 20
135.7869356859
 10
150.1150371413
 20
135.7945251711
 10
150.1050728694
 20
135.8016421259
 10
150.0949710041
 20
135.8083072875
 10
150.0847658669
 20
135.8145114692
 10
150.0744642665
 20
135.8202647649
 10
150.0640084163
 20
135.825607821
 10
150.0533943974
 20
135.8305447501
 10
150.0426578009
 20
135.8350614339
 10
150.0317931628
 20
135.8391630737
 10
150.0208155821
 20
135.8428460001
 10
150.0097418223
 20
135.8461071978
 10
149.9985667436
 20
135.848950069
 10
149.9873083524
 20
135.8513711271
 10
149.9759811943
 20
135.8533687215
 10
149.9645717083
 20
135.8549453318
 10
149.9530955515
 20
135.8560979836
 10
149.9415689913
 20
135.8568248456
 10
149.9299762038
 20
135.8571251226
 10
149.9183308634
 20
135.8569949615
 10
149.9066491193
 20
135.8564316577
 10
149.8949165789
 20
135.8554311933
 10
149.8831480326
 20
135.853989809
 10
149.8713592769
 20
135.8521042248
 10
149.8595346166
 20
135.8497654931
 10
149.8476897623
 20
135.8469701741
 10
149.8358405668
 20
135.8437153442
 10
149.8239696232
 20
135.8399871338
 10
149.8120814791
 20
135.8357764813
 10
149.80020513
 20
135.8310848683
 10
149.7956015211
 20
135.8291335166
  0
LINE
  5
498
100
AcDbEntity
  8
0
100
AcDbLine
 62
7
  6
CONTINUOUS
 10
150.2144870261
 20
135.6811092555
 11
150.2144634633
 21
135.6811498849
  0
LINE
  5
499
100
AcDbEntity
  8
0
100
AcDbLine
 62
253
  6
CONTINUOUS
 10
149.9773697706
 20
135.71923093
 11
150.3767764111
 21
135.0303560944
  0
LINE
  5
49A
100
AcDbEntity
  8
0
100
AcDbLine
 62
7
  6
CONTINUOUS
 10
150.2145604202
 20
135.6809826697
 11
150.6082595315
 21
135.0019521464
  0
LWPOLYLINE
  5
49B
100
AcDbEntity
  8
0
100
AcDbPolyline
 62
253
  6
CONTINUOUS
 90
19
 70
0
 10
150.3767826373
 20
135.030359262
 10
150.381090312
 20
135.0227891986
 10
150.3851948264
 20
135.0150932988
 10
150.38908837
 20
135.0072862076
 10
150.3927635336
 20
134.9993827815
 10
150.3962133236
 20
134.9913980603
 10
150.3994311753
 20
134.9833472386
 10
150.4024109655
 20
134.9752456365
 10
150.4051470238
 20
134.9671086711
 10
150.4076341437
 20
134.9589518264
 10
150.4098675924
 20
134.9507906244
 10
150.4118431199
 20
134.9426405956
 10
150.413556967
 20
134.9345172487
 10
150.4150058722
 20
134.9264360421
 10
150.4161870786
 20
134.9184123538
 10
150.4170983384
 20
134.9104614523
 10
150.4177379175
 20
134.9025984677
 10
150.4181045989
 20
134.8948383627
 10
150.4181976849
 20
134.8871959045
  0
LWPOLYLINE
  5
49C
100
AcDbEntity
  8
0
100
AcDbPolyline
 62
253
  6
CONTINUOUS
 90
36
 70
0
 10
149.9773760878
 20
135.7192336598
 10
149.9734039484
 20
135.7264104629
 10
149.9692636613
 20
135.7334491797
 10
149.9649622955
 20
135.7403377923
 10
149.9605071954
 20
135.7470645389
 10
149.9559059676
 20
135.7536179341
 10
149.9511664683
 20
135.7599867885
 10
149.94629679
 20
135.7661602279
 10
149.941305247
 20
135.7721277116
 10
149.9362003622
 20
135.7778790506
 10
149.9309908516
 20
135.783404425
 10
149.9256856101
 20
135.7886944007
 10
149.9202936959
 20
135.7937399455
 10
149.9148243152
 20
135.7985324445
 10
149.9092868067
 20
135.8030637149
 10
149.9036906251
 20
135.80732602
 10
149.8980453255
 20
135.8113120822
 10
149.8923605467
 20
135.8150150956
 10
149.886645995
 20
135.8184287377
 10
149.8809114275
 20
135.8215471799
 10
149.8751666357
 20
135.8243650978
 10
149.8694214281
 20
135.82687768
 10
149.8636856143
 20
135.8290806365
 10
149.8579689877
 20
135.8309702059
 10
149.852281309
 20
135.8325431619
 10
149.8466322895
 20
135.8337968188
 10
149.8410315742
 20
135.8347290361
 10
149.8354887261
 20
135.8353382222
 10
149.8300132091
 20
135.8356233368
 10
149.8246143721
 20
135.8355838933
 10
149.8193014333
 20
135.8352199589
 10
149.814083464
 20
135.8345321549
 10
149.8089693734
 20
135.8335216559
 10
149.8039678936
 20
135.8321901871
 10
149.7990875641
 20
135.8305400219
 10
149.7956014438
 20
135.8291336956
  0
LINE
  5
49D
100
AcDbEntity
  8
DRAFT
100
AcDbLine
 62
7
  6
CONTINUOUS
 10
149.5726447472
 20
136.4776862006
 11
149.5360551486
 21
136.5472282012
  0
LINE
  5
49E
100
AcDbEntity
  8
DRAFT
100
AcDbLine
 62
7
  6
CONTINUOUS
 10
149.8554874596
 20
136.6191075569
 11
149.8188978611
 21
136.6886495575
  0
LINE
  5
49F
100
AcDbEntity
  8
DRAFT
100
AcDbLine
 62
7
  6
CONTINUOUS
 10
150.1383301721
 20
136.7605289131
 11
150.1017405736
 21
136.8300709137
  0
LINE
  5
4A0
100
AcDbEntity
  8
DRAFT
100
AcDbLine
 62
7
  6
CONTINUOUS
 10
150.4211728846
 20
136.9019502694
 11
150.384583286
 21
136.9714922699
  0
LINE
  5
4A1
100
AcDbEntity
  8
DRAFT
100
AcDbLine
 62
7
  6
CONTINUOUS
 10
150.704015597
 20
137.0433716256
 11
150.6674259985
 21
137.1129136262
  0
LINE
  5
4A2
100
AcDbEntity
  8
DRAFT
100
AcDbLine
 62
7
  6
CONTINUOUS
 10
150.5482213129
 20
135.4722488859
 11
150.5823423925
 21
135.4039411448
  0
LINE
  5
4A3
100
AcDbEntity
  8
DRAFT
100
AcDbLine
 62
7
  6
CONTINUOUS
 10
145.3732031417
 20
139.0882736124
 11
146.8844047192
 21
138.3326728237
  0
LINE
  5
4A4
100
AcDbEntity
  8
DRAFT
100
AcDbLine
 62
7
  6
CONTINUOUS
 10
148.484472979
 20
137.5326386938
 11
149.9956745564
 21
136.7770379051
  0
LINE
  5
4A5
100
AcDbEntity
  8
DRAFT
100
AcDbLine
 62
7
  6
CONTINUOUS
 10
145.4792691589
 20
139.141306621
 11
146.9904707363
 21
138.3857058323
  0
LINE
  5
4A6
100
AcDbEntity
  8
DRAFT
100
AcDbLine
 62
7
  6
CONTINUOUS
 10
148.5905389961
 20
137.5856717024
 11
150.1017405736
 21
136.8300709137
  0
LINE
  5
4A7
100
AcDbEntity
  8
DRAFT
100
AcDbLine
 62
7
  6
CONTINUOUS
 10
145.6194562557
 20
139.1260318885
 11
147.1331263521
 21
138.3691968403
  0
LINE
  5
4A8
100
AcDbEntity
  8
DRAFT
100
AcDbLine
 62
7
  6
CONTINUOUS
 10
148.7307260929
 20
137.5703969699
 11
150.2443961893
 21
136.8135619217
  0
LINE
  5
4A9
100
AcDbEntity
  8
DRAFT
100
AcDbLine
 62
7
  6
CONTINUOUS
 10
145.6560458542
 20
139.2296949687
 11
147.1672474316
 21
138.47409418
  0
LINE
  5
4AA
100
AcDbEntity
  8
DRAFT
100
AcDbLine
 62
7
  6
CONTINUOUS
 10
148.7673156914
 20
137.6740600501
 11
150.2785172689
 21
136.9184592614
  0
LINE
  5
4AB
100
AcDbEntity
  8
DRAFT
100
AcDbLine
 62
7
  6
CONTINUOUS
 10
145.7621118714
 20
139.2827279773
 11
147.2733134488
 21
138.5271271886
  0
LINE
  5
4AC
100
AcDbEntity
  8
DRAFT
100
AcDbLine
 62
7
  6
CONTINUOUS
 10
148.8733817086
 20
137.7270930586
 11
150.384583286
 21
136.9714922699
  0
LINE
  5
4AD
100
AcDbEntity
  8
DRAFT
100
AcDbLine
 62
7
  6
CONTINUOUS
 10
145.9022989682
 20
139.2674532447
 11
147.4159690645
 21
138.5106181966
  0
LINE
  5
4AE
100
AcDbEntity
  8
DRAFT
100
AcDbLine
 62
7
  6
CONTINUOUS
 10
149.0135688054
 20
137.7118183261
 11
150.5272389018
 21
136.9549832779
  0
LINE
  5
4AF
100
AcDbEntity
  8
DRAFT
100
AcDbLine
 62
7
  6
CONTINUOUS
 10
145.9388885667
 20
139.3711163249
 11
147.4500901441
 21
138.6155155362
  0
LINE
  5
4B0
100
AcDbEntity
  8
DRAFT
100
AcDbLine
 62
7
  6
CONTINUOUS
 10
149.0501584039
 20
137.8154814063
 11
150.5613599813
 21
137.0598806176
  0
LINE
  5
4B1
100
AcDbEntity
  8
RACCORDO
100
AcDbLine
 62
7
  6
CONTINUOUS
 10
150.7763446999
 20
137.0412896138
 11
150.6796812644
 21
137.0896213316
  0
LINE
  5
4B2
100
AcDbEntity
  8
RACCORDO
100
AcDbLine
 62
7
  6
CONTINUOUS
 10
147.6650748627
 20
138.5969245324
 11
147.5684114272
 21
138.6452562502
  0
LINE
  5
4B3
100
AcDbEntity
  8
DRAFT
100
AcDbLine
 62
7
  6
CONTINUOUS
 10
146.0449545839
 20
139.4241493335
 11
147.5561561613
 21
138.6685485448
  0
LINE
  5
4B4
100
AcDbEntity
  8
DRAFT
100
AcDbLine
 62
7
  6
CONTINUOUS
 10
149.1562244211
 20
137.8685144149
 11
150.6674259985
 21
137.1129136262
  0
ELLIPSE
  5
4B5
100
AcDbEntity
  8
DRAFT
100
AcDbEllipse
 62
7
  6
CONTINUOUS
 10
147.6667611795
 20
137.1427886565
 30
0.0
 11
0.0462229684
 21
0.0886861576
 31
0.0
 40
0.6035364256
 41
-1.0575060939
 42
-0.8759289409
  0
ELLIPSE
  5
4B6
100
AcDbEntity
  8
RACCORDO
100
AcDbEllipse
 62
7
  6
CONTINUOUS
 10
139.3136361382
 20
135.7170169871
 30
0.0
 11
0.1386689053
 21
0.2660584729
 31
0.0
 40
0.6035364256
 41
0.6948673859
 42
1.1054037811
  0
ELLIPSE
  5
4B7
100
AcDbEntity
  8
DRAFT
100
AcDbEllipse
 62
7
  6
CONTINUOUS
 10
147.577517248
 20
138.417096542
 30
0.0
 11
0.086325054
 21
0.1804312186
 31
0.0
 40
0.6209844714
 41
5.3863034069
 42
6.8317719026
  0
ELLIPSE
  5
4B8
100
AcDbEntity
  8
DRAFT
100
AcDbEllipse
 62
7
  6
CONTINUOUS
 10
150.7780310168
 20
135.5871537379
 30
0.0
 11
0.0462229684
 21
0.0886861576
 31
0.0
 40
0.6035364256
 41
-2.4467252677
 42
-0.8759289409
  0
ELLIPSE
  5
4B9
100
AcDbEntity
  8
RACCORDO
100
AcDbEllipse
 62
7
  6
CONTINUOUS
 10
142.4249059754
 20
134.1613820684
 30
0.0
 11
0.1386689053
 21
0.2660584729
 31
0.0
 40
0.6035364256
 41
0.6948673859
 42
1.1054037811
  0
ELLIPSE
  5
4BA
100
AcDbEntity
  8
DRAFT
100
AcDbEllipse
 62
7
  6
CONTINUOUS
 10
150.6887870852
 20
136.8614616234
 30
0.0
 11
0.086325054
 21
0.1804312186
 31
0.0
 40
0.6209844714
 41
5.3863034069
 42
6.8317719026
  0
ELLIPSE
  5
4BB
100
AcDbEntity
  8
0
100
AcDbEllipse
 62
7
  6
CONTINUOUS
 10
138.6124494898
 20
123.842826595
 30
0.0
 11
0.4349639225
 21
0.9005141702
 31
0.0
 40
0.6016116119
 41
0.6764898932
 42
2.24728622
  0
ELLIPSE
  5
4BC
100
AcDbEntity
  8
0
100
AcDbEllipse
 62
7
  6
CONTINUOUS
 10
139.4212658996
 20
128.8231206469
 30
0.0
 11
-0.894612936
 21
1.7887945813
 31
0.0
 40
0.6124635976
 41
4.0276245976
 42
4.8128965892
  0
ELLIPSE
  5
4BD
100
AcDbEntity
  8
0
100
AcDbEllipse
 62
7
  6
CONTINUOUS
 10
139.4212658996
 20
98.3304882269
 30
0.0
 11
-0.894811907
 21
1.788971565
 31
0.0
 40
0.6123121697
 41
-3.0410143285
 42
-2.2557423369
  0
ELLIPSE
  5
4BE
100
AcDbEntity
  8
0
100
AcDbEllipse
 62
7
  6
CONTINUOUS
 10
140.0009074771
 20
122.3281148309
 30
0.0
 11
0.2697619714
 21
0.1869451725
 31
0.0
 40
0.4547882133
 41
-0.3053140568
 42
1.26548227
  0
ELLIPSE
  5
4BF
100
AcDbEntity
  8
0
100
AcDbEllipse
 62
7
  6
CONTINUOUS
 10
140.0009074771
 20
119.2104233773
 30
0.0
 11
0.2697619714
 21
0.1869451725
 31
0.0
 40
0.4547882133
 41
-0.7260408203
 42
-0.3053140568
  0
ELLIPSE
  5
4C0
100
AcDbEntity
  8
0
100
AcDbEllipse
 62
7
  6
CONTINUOUS
 10
140.0009074771
 20
106.7396575628
 30
0.0
 11
0.2697619714
 21
0.1869451725
 31
0.0
 40
0.4547882133
 41
-0.3053140568
 42
1.26548227
  0
ELLIPSE
  5
4C1
100
AcDbEntity
  8
0
100
AcDbEllipse
 62
7
  6
CONTINUOUS
 10
140.0009074771
 20
103.6219661091
 30
0.0
 11
0.2697619714
 21
0.1869451725
 31
0.0
 40
0.4547882133
 41
-0.7260408203
 42
-0.3053140568
  0
ELLIPSE
  5
4C2
100
AcDbEntity
  8
RACCORDO
100
AcDbEllipse
 62
7
  6
CONTINUOUS
 10
126.7911858834
 20
133.7269825772
 30
0.0
 11
1.2141619185
 21
0.9541526469
 31
0.0
 40
0.2329077568
 41
0.1095198182
 42
0.114024621
  0
ELLIPSE
  5
4C3
100
AcDbEntity
  8
0
100
AcDbEllipse
 62
7
  6
CONTINUOUS
 10
138.6124494898
 20
99.594115289
 30
0.0
 11
0.4349639225
 21
0.9005141702
 31
0.0
 40
0.6016116119
 41
2.24728622
 42
3.8180825468
  0
ELLIPSE
  5
4C4
100
AcDbEntity
  8
0
100
AcDbEllipse
 62
7
  6
CONTINUOUS
 10
146.7116965255
 20
137.3083478052
 30
0.0
 11
-0.1341484654
 21
0.2683369961
 31
0.0
 40
0.6125552124
 41
-2.255296188
 42
-2.238147482
  0
ELLIPSE
  5
4C5
100
AcDbEntity
  8
0
100
AcDbEllipse
 62
7
  6
CONTINUOUS
 10
143.6004266883
 20
138.8639827239
 30
0.0
 11
-0.1341484654
 21
0.2683369961
 31
0.0
 40
0.6125552124
 41
-2.255296188
 42
-2.238147482
  0
ELLIPSE
  5
4C6
100
AcDbEntity
  8
0
100
AcDbEllipse
 62
7
  6
CONTINUOUS
 10
140.0751570597
 20
103.0077240008
 30
0.0
 11
0.2174819613
 21
0.4502570851
 31
0.0
 40
0.6016116119
 41
-2.4651027604
 42
-0.8943064336
  0
ELLIPSE
  5
4C7
100
AcDbEntity
  8
0
100
AcDbEllipse
 62
7
  6
CONTINUOUS
 10
139.7626929658
 20
106.5748442512
 30
0.0
 11
0.2267599918
 21
0.4456316896
 31
0.0
 40
0.6176975122
 41
0.6890773845
 42
2.2598737113
  0
ELLIPSE
  5
4C8
100
AcDbEntity
  8
0
100
AcDbEllipse
 62
7
  6
CONTINUOUS
 10
140.0751570597
 20
118.596181269
 30
0.0
 11
0.2174819613
 21
0.4502570851
 31
0.0
 40
0.6016116119
 41
-2.4651027604
 42
-0.8943064336
  0
ELLIPSE
  5
4C9
100
AcDbEntity
  8
0
100
AcDbEllipse
 62
7
  6
CONTINUOUS
 10
139.7626929658
 20
122.1633015193
 30
0.0
 11
0.2267599918
 21
0.4456316896
 31
0.0
 40
0.6176975122
 41
0.6890773845
 42
2.2598737113
  0
ELLIPSE
  5
4CA
100
AcDbEntity
  8
0
100
AcDbEllipse
 62
7
  6
CONTINUOUS
 10
139.6321636744
 20
98.123171084
 30
0.0
 11
-0.894811907
 21
1.788971565
 31
0.0
 40
0.6123121697
 41
-3.0410143285
 42
-2.2557423369
  0
ELLIPSE
  5
4CB
100
AcDbEntity
  8
0
100
AcDbEllipse
 62
7
  6
CONTINUOUS
 10
138.9926493182
 20
131.2888919117
 30
0.0
 11
-0.447101003
 21
0.8945282396
 31
0.0
 40
0.6124326778
 41
-1.4698904957
 42
-0.6846185041
  0
ELLIPSE
  5
4CC
100
AcDbEntity
  8
0
100
AcDbEllipse
 62
7
  6
CONTINUOUS
 10
139.6321636744
 20
128.9609613712
 30
0.0
 11
-0.894612936
 21
1.7887945813
 31
0.0
 40
0.6124635976
 41
-2.2555607096
 42
-1.470288718
  0
ELLIPSE
  5
4CD
100
AcDbEntity
  8
0
100
AcDbEllipse
 62
7
  6
CONTINUOUS
 10
140.6899538569
 20
122.6189098893
 30
0.0
 11
0.2267599918
 21
0.4456316896
 31
0.0
 40
0.6176975122
 41
-0.8817189423
 42
0.6890773845
  0
ELLIPSE
  5
4CE
100
AcDbEntity
  8
0
100
AcDbEllipse
 62
7
  6
CONTINUOUS
 10
138.7641043137
 20
99.8691262506
 30
0.0
 11
0.4535199836
 21
0.8912633791
 31
0.0
 40
0.6176975122
 41
-4.0233115959
 42
-2.4699685616
  0
ELLIPSE
  5
4CF
100
AcDbEntity
  8
0
100
AcDbEllipse
 62
7
  6
CONTINUOUS
 10
138.7641043137
 20
123.5575821657
 30
0.0
 11
0.4535199836
 21
0.8912633791
 31
0.0
 40
0.6176975122
 41
0.706530677
 42
2.2598737113
  0
ELLIPSE
  5
4D0
100
AcDbEntity
  8
0
100
AcDbEllipse
 62
7
  6
CONTINUOUS
 10
138.9926493182
 20
96.4347548997
 30
0.0
 11
-0.4472005764
 21
0.894616689
 31
0.0
 40
0.6122812743
 41
2.4570447386
 42
3.2423167302
  0
ELLIPSE
  5
4D1
100
AcDbEntity
  8
0
100
AcDbEllipse
 62
7
  6
CONTINUOUS
 10
133.8834103393
 20
134.9685803146
 30
0.0
 11
-0.2237009107
 21
0.4473351135
 31
0.0
 40
0.6121897086
 41
-0.6846338794
 42
0.1006119908
  0
ELLIPSE
  5
4D2
100
AcDbEntity
  8
0
100
AcDbEllipse
 62
7
  6
CONTINUOUS
 10
139.7626929658
 20
102.2447172323
 30
0.0
 11
0.2267599918
 21
0.4456316896
 31
0.0
 40
0.6176975122
 41
2.2598737113
 42
3.8306700381
  0
ELLIPSE
  5
4D3
100
AcDbEntity
  8
0
100
AcDbEllipse
 62
7
  6
CONTINUOUS
 10
140.6899538569
 20
102.7003256022
 30
0.0
 11
0.2267599918
 21
0.4456316896
 31
0.0
 40
0.6176975122
 41
-2.4525152691
 42
-0.8817189423
  0
ELLIPSE
  5
4D4
100
AcDbEntity
  8
0
100
AcDbEllipse
 62
7
  6
CONTINUOUS
 10
139.7626929658
 20
117.8331745004
 30
0.0
 11
0.2267599918
 21
0.4456316896
 31
0.0
 40
0.6176975122
 41
2.2598737113
 42
3.8306700381
  0
ELLIPSE
  5
4D5
100
AcDbEntity
  8
0
100
AcDbEllipse
 62
7
  6
CONTINUOUS
 10
140.6899538569
 20
118.2887828704
 30
0.0
 11
0.2267599918
 21
0.4456316896
 31
0.0
 40
0.6176975122
 41
-2.4525152691
 42
-0.8817189423
  0
ELLIPSE
  5
4D6
100
AcDbEntity
  8
0
100
AcDbEllipse
 62
7
  6
CONTINUOUS
 10
140.6899538569
 20
107.0304526212
 30
0.0
 11
0.2267599918
 21
0.4456316896
 31
0.0
 40
0.6176975122
 41
-0.8817189423
 42
0.6890773845
  0
ELLIPSE
  5
4D7
100
AcDbEntity
  8
RACCORDO
100
AcDbEllipse
 62
7
  6
CONTINUOUS
 10
117.2513073887
 20
134.0209350742
 30
0.0
 11
-0.2788336762
 21
0.7504028808
 31
0.0
 40
0.660854826
 41
-0.3090486207
 42
0.0320396926
  0
ELLIPSE
  5
4D8
100
AcDbEntity
  8
RACCORDO
100
AcDbEllipse
 62
7
  6
CONTINUOUS
 10
131.8173192557
 20
126.7379291407
 30
0.0
 11
-0.2782515188
 21
0.7500674241
 31
0.0
 40
0.6617094163
 41
-2.1859006333
 42
-0.8222376794
  0
ELLIPSE
  5
4D9
100
AcDbEntity
  8
RACCORDO
100
AcDbEllipse
 62
7
  6
CONTINUOUS
 10
128.7056315374
 20
88.9226180517
 30
0.0
 11
-0.2788336762
 21
0.7504028808
 31
0.0
 40
0.660854826
 41
-3.1737081954
 42
-2.187168432
  0
ELLIPSE
  5
4DA
100
AcDbEntity
  8
268
100
AcDbEllipse
 62
7
  6
CONTINUOUS
 10
130.1397691167
 20
88.5108999391
 30
0.0
 11
0.110769438
 21
0.2241226716
 31
0.0
 40
0.6088015717
 41
-4.0304836828
 42
-3.1443955108
  0
ELLIPSE
  5
4DB
100
AcDbEntity
  8
268
100
AcDbEllipse
 62
7
  6
CONTINUOUS
 10
116.7754509522
 20
136.7460345545
 30
0.0
 11
0.110769438
 21
0.2241226716
 31
0.0
 40
0.6088015717
 41
-4.0304836828
 42
-3.1443650652
  0
ELLIPSE
  5
4DC
100
AcDbEntity
  8
268
100
AcDbEllipse
 62
7
  6
CONTINUOUS
 10
130.1397691167
 20
130.0638754723
 30
0.0
 11
0.110769438
 21
0.2241226716
 31
0.0
 40
0.6088015717
 41
-4.0304836828
 42
-3.1443650652
  0
ELLIPSE
  5
4DD
100
AcDbEntity
  8
268
100
AcDbEllipse
 62
7
  6
CONTINUOUS
 10
134.1963769979
 20
128.7721574231
 30
0.0
 11
-0.1565168911
 21
0.3130623908
 31
0.0
 40
0.6123677712
 41
-2.2554744912
 42
-0.6846781644
  0
ELLIPSE
  5
4DE
100
AcDbEntity
  8
268
100
AcDbEllipse
 62
7
  6
CONTINUOUS
 10
134.1963769979
 20
90.5955755784
 30
0.0
 11
-0.1565168911
 21
0.3130623908
 31
0.0
 40
0.6123677712
 41
-3.1363904945
 42
-2.2554744912
  0
ELLIPSE
  5
4DF
100
AcDbEntity
  8
268
100
AcDbEllipse
 62
7
  6
CONTINUOUS
 10
128.4297814494
 20
137.8773887283
 30
0.0
 11
0.2999991737
 21
-0.0014183462
 31
0.0
 40
0.4964289597
 41
0.7877451926
 42
2.3527237553
  0
ELLIPSE
  5
4E0
100
AcDbEntity
  8
268
100
AcDbEllipse
 62
7
  6
CONTINUOUS
 10
133.9842449636
 20
135.1001569712
 30
0.0
 11
0.2999991737
 21
-0.0014183462
 31
0.0
 40
0.4964289597
 41
0.7877451926
 42
2.3585415194
  0
ELLIPSE
  5
4E1
100
AcDbEntity
  8
268
100
AcDbEllipse
 62
7
  6
CONTINUOUS
 10
133.5235970991
 20
129.389728434
 30
0.0
 11
0.110769438
 21
0.2241226716
 31
0.0
 40
0.6088015717
 41
1.2055040732
 42
2.2526937431
  0
ELLIPSE
  5
4E2
100
AcDbEntity
  8
268
100
AcDbEllipse
 62
7
  6
CONTINUOUS
 10
120.1592789347
 20
136.0718875162
 30
0.0
 11
0.110769438
 21
0.2241226716
 31
0.0
 40
0.6088015717
 41
1.2055040732
 42
2.2526937431
  0
ELLIPSE
  5
4E3
100
AcDbEntity
  8
268
100
AcDbEllipse
 62
7
  6
CONTINUOUS
 10
133.8750935762
 20
130.317533586
 30
0.0
 11
0.110769438
 21
0.2241226716
 31
0.0
 40
0.6088015717
 41
-1.9360885804
 42
-0.8888910292
  0
ELLIPSE
  5
4E4
100
AcDbEntity
  8
268
100
AcDbEllipse
 62
7
  6
CONTINUOUS
 10
132.2549187199
 20
131.3885499906
 30
0.0
 11
0.1128509832
 21
0.2230818409
 31
0.0
 40
0.6159267166
 41
0.0028979148
 42
0.6817883054
  0
ELLIPSE
  5
4E5
100
AcDbEntity
  8
268
100
AcDbEllipse
 62
7
  6
CONTINUOUS
 10
130.1397691167
 20
130.317246866
 30
0.0
 11
0.110769438
 21
0.2241226716
 31
0.0
 40
0.6088015717
 41
0.6877230618
 42
2.2527016244
  0
ELLIPSE
  5
4E6
100
AcDbEntity
  8
268
100
AcDbEllipse
 62
7
  6
CONTINUOUS
 10
120.5107754118
 20
136.9996926683
 30
0.0
 11
0.110769438
 21
0.2241226716
 31
0.0
 40
0.6088015717
 41
-1.9360885804
 42
-0.8888910292
  0
ELLIPSE
  5
4E7
100
AcDbEntity
  8
268
100
AcDbEllipse
 62
7
  6
CONTINUOUS
 10
118.8906005554
 20
138.0707090728
 30
0.0
 11
0.1128509832
 21
0.2230818409
 31
0.0
 40
0.6159267166
 41
0.0028979148
 42
0.6817883054
  0
ELLIPSE
  5
4E8
100
AcDbEntity
  8
268
100
AcDbEllipse
 62
7
  6
CONTINUOUS
 10
116.7754509522
 20
136.9994059482
 30
0.0
 11
0.110769438
 21
0.2241226716
 31
0.0
 40
0.6088015717
 41
0.6877230618
 42
2.2527016244
  0
ELLIPSE
  5
4E9
100
AcDbEntity
  8
268
100
AcDbEllipse
 62
7
  6
CONTINUOUS
 10
133.8750935762
 20
88.7570004703
 30
0.0
 11
0.110769438
 21
0.2241226716
 31
0.0
 40
0.6088015717
 41
-2.4538695918
 42
-0.8888910292
  0
ELLIPSE
  5
4EA
100
AcDbEntity
  8
268
100
AcDbEllipse
 62
7
  6
CONTINUOUS
 10
130.1397691167
 20
88.7642713329
 30
0.0
 11
0.110769438
 21
0.2241226716
 31
0.0
 40
0.6088015717
 41
1.2055040732
 42
2.2527016244
  0
ELLIPSE
  5
4EB
100
AcDbEntity
  8
268
100
AcDbEllipse
 62
7
  6
CONTINUOUS
 10
133.8750935762
 20
89.0179294467
 30
0.0
 11
0.110769438
 21
0.2241226716
 31
0.0
 40
0.6088015717
 41
5.394294278
 42
6.4414918292
  0
ELLIPSE
  5
4EC
100
AcDbEntity
  8
268
100
AcDbEllipse
 62
7
  6
CONTINUOUS
 10
120.5107754118
 20
137.2606216446
 30
0.0
 11
0.110769438
 21
0.2241226716
 31
0.0
 40
0.6088015717
 41
5.394294278
 42
6.9592728406
  0
ELLIPSE
  5
4ED
100
AcDbEntity
  8
268
100
AcDbEllipse
 62
7
  6
CONTINUOUS
 10
133.8750935762
 20
130.5784625624
 30
0.0
 11
0.110769438
 21
0.2241226716
 31
0.0
 40
0.6088015717
 41
5.394294278
 42
6.9592728406
  0
ELLIPSE
  5
4EE
100
AcDbEntity
  8
268
100
AcDbEllipse
 62
7
  6
CONTINUOUS
 10
128.6102334266
 20
136.5553285583
 30
0.0
 11
0.2999981629
 21
-0.0021225547
 31
0.0
 40
0.4946372042
 41
-0.7818985079
 42
0.0034997008
  0
ELLIPSE
  5
4EF
100
AcDbEntity
  8
268
100
AcDbEllipse
 62
7
  6
CONTINUOUS
 10
134.1646969407
 20
133.7780968013
 30
0.0
 11
0.2999981629
 21
-0.0021225547
 31
0.0
 40
0.4946372042
 41
-0.7760807437
 42
0.0035109161
  0
ELLIPSE
  5
4F0
100
AcDbEntity
  8
268
100
AcDbEllipse
 62
7
  6
CONTINUOUS
 10
122.4612876991
 20
134.9572073604
 30
0.0
 11
0.2999991335
 21
0.0014318851
 31
0.0
 40
0.5035541159
 41
8.6427941204
 42
10.207772683
  0
ELLIPSE
  5
4F1
100
AcDbEntity
  8
268
100
AcDbEllipse
 62
7
  6
CONTINUOUS
 10
116.4479967902
 20
135.1601372591
 30
0.0
 11
-0.1565168911
 21
0.3130623908
 31
0.0
 40
0.6123677712
 41
-0.6846781644
 42
0.8861181623
  0
ELLIPSE
  5
4F2
100
AcDbEntity
  8
268
100
AcDbEllipse
 62
7
  6
CONTINUOUS
 10
131.7215032638
 20
127.5233840223
 30
0.0
 11
-0.1565168911
 21
0.3130623908
 31
0.0
 40
0.6123677712
 41
-2.2554744912
 42
-0.6846781644
  0
ELLIPSE
  5
4F3
100
AcDbEntity
  8
268
100
AcDbEllipse
 62
7
  6
CONTINUOUS
 10
128.2537967671
 20
132.0609528264
 30
0.0
 11
0.2999991335
 21
0.0014318851
 31
0.0
 40
0.5035541159
 41
-2.3585979313
 42
-0.7936193687
  0
ELLIPSE
  5
4F4
100
AcDbEntity
  8
268
100
AcDbEllipse
 62
7
  6
CONTINUOUS
 10
128.2537967671
 20
130.8467537505
 30
0.0
 11
0.2999980272
 21
0.0021530184
 31
0.0
 40
0.5053247124
 41
-2.3598210761
 42
-0.7948425135
  0
ELLIPSE
  5
4F5
100
AcDbEntity
  8
268
100
AcDbEllipse
 62
7
  6
CONTINUOUS
 10
122.4612876991
 20
133.7430082845
 30
0.0
 11
0.2999980272
 21
0.0021530184
 31
0.0
 40
0.5053247124
 41
3.1379773283
 42
3.9233642311
  0
ELLIPSE
  5
4F6
100
AcDbEntity
  8
268
100
AcDbEllipse
 62
7
  6
CONTINUOUS
 10
134.1646969407
 20
135.0099309827
 30
0.0
 11
0.2999991737
 21
-0.0014183462
 31
0.0
 40
0.4964289597
 41
-0.77723337
 42
0.7877451926
  0
ELLIPSE
  5
4F7
100
AcDbEntity
  8
268
100
AcDbEllipse
 62
7
  6
CONTINUOUS
 10
128.6102334266
 20
137.7871627397
 30
0.0
 11
0.2999991737
 21
-0.0014183462
 31
0.0
 40
0.4964289597
 41
-0.7830511342
 42
0.7877451926
  0
ELLIPSE
  5
4F8
100
AcDbEntity
  8
268
100
AcDbEllipse
 62
7
  6
CONTINUOUS
 10
131.7215032638
 20
89.3694752452
 30
0.0
 11
-0.1565168911
 21
0.3130623908
 31
0.0
 40
0.6123677712
 41
2.4569144891
 42
4.0277108159
  0
ELLIPSE
  5
4F9
100
AcDbEntity
  8
268
100
AcDbEllipse
 62
7
  6
CONTINUOUS
 10
133.5235970991
 20
89.5901242946
 30
0.0
 11
0.110769438
 21
0.2241226716
 31
0.0
 40
0.6088015717
 41
2.2527095058
 42
3.2998991756
  0
ELLIPSE
  5
4FA
100
AcDbEntity
  8
268
100
AcDbEllipse
 62
7
  6
CONTINUOUS
 10
131.7476024923
 20
129.5133301782
 30
0.0
 11
0.1128509832
 21
0.2230818409
 31
0.0
 40
0.6159267166
 41
0.6934238338
 42
2.2584023964
  0
ELLIPSE
  5
4FB
100
AcDbEntity
  8
268
100
AcDbEllipse
 62
7
  6
CONTINUOUS
 10
131.7476024923
 20
129.2599587845
 30
0.0
 11
0.1128509832
 21
0.2230818409
 31
0.0
 40
0.6159267166
 41
-4.0247829108
 42
-2.9775853596
  0
ELLIPSE
  5
4FC
100
AcDbEntity
  8
268
100
AcDbEllipse
 62
7
  6
CONTINUOUS
 10
118.3832843279
 20
136.1954892604
 30
0.0
 11
0.1128509832
 21
0.2230818409
 31
0.0
 40
0.6159267166
 41
0.6934238338
 42
2.2584023964
  0
ELLIPSE
  5
4FD
100
AcDbEntity
  8
268
100
AcDbEllipse
 62
7
  6
CONTINUOUS
 10
118.3832843279
 20
135.9421178667
 30
0.0
 11
0.1128509832
 21
0.2230818409
 31
0.0
 40
0.6159267166
 41
-4.0247829108
 42
-2.9775853596
  0
ELLIPSE
  5
4FE
100
AcDbEntity
  8
268
100
AcDbEllipse
 62
7
  6
CONTINUOUS
 10
131.7476024923
 20
87.7069832513
 30
0.0
 11
0.1128509832
 21
0.2230818409
 31
0.0
 40
0.6159267166
 41
-4.0247829108
 42
-2.4598043482
  0
ELLIPSE
  5
4FF
100
AcDbEntity
  8
268
100
AcDbEllipse
 62
7
  6
CONTINUOUS
 10
131.7476024923
 20
87.9603546451
 30
0.0
 11
0.1128509832
 21
0.2230818409
 31
0.0
 40
0.6159267166
 41
1.2112048452
 42
2.2584023964
  0
ELLIPSE
  5
500
100
AcDbEntity
  8
268
100
AcDbEllipse
 62
7
  6
CONTINUOUS
 10
130.0692969576
 20
94.811129612
 30
0.0
 11
-0.542618321
 21
0.8478124368
 31
0.0
 40
0.5451249042
 41
-3.2164376038
 42
-2.3115524019
  0
ENDSEC
  0
SECTION
  2
OBJECTS
  0
DICTIONARY
  5
C
100
AcDbDictionary
280
0
281
1
  3
ACAD_GROUP
350
D
  3
ACAD_MLINESTYLE
350
17
  3
ACAD_LAYOUT
350
1A
  3
ACAD_PLOTSETTINGS
350
19
  3
ACAD_PLOTSTYLENAME
350
E
  0
DICTIONARY
  5
D
102
{ACAD_REACTORS
330
C
102
}
100
AcDbDictionary
280
0
281
1
  0
ACDBDICTIONARYWDFLT
  5
E
102
{ACAD_REACTORS
330
C
102
}
100
AcDbDictionary
281
1
  3
Normal
350
F
100
AcDbDictionaryWithDefault
340
F
  0
DICTIONARY
  5
17
102
{ACAD_REACTORS
330
C
102
}
100
AcDbDictionary
280
0
281
1
  3
Standard
350
18
  0
DICTIONARY
  5
19
102
{ACAD_REACTORS
330
C
102
}
100
AcDbDictionary
281
1
  0
DICTIONARY
  5
1A
102
{ACAD_REACTORS
330
C
102
}
100
AcDbDictionary
281
1
  3
Model
350
501
  3
Layout1
350
502
  0
ACDBPLACEHOLDER
  5
F
102
{ACAD_REACTORS
330
E
102
}
  0
MLINESTYLE
  5
18
102
{ACAD_REACTORS
330
17
102
}
100
AcDbMlineStyle
  2
STANDARD
 70
0
  3

 62
256
 51
90.0
 52
90.0
 71
2
 49
0.5
 62
256
  6
BYLAYER
 49
-0.5
 62
256
  6
BYLAYER
  0
LAYOUT
  5
501
102
{ACAD_REACTORS
330
1A
102
}
100
AcDbPlotSettings
  1

  2
none_device
  4
ISO_A4_(297.00_x_210.00_MM)
  6

 40
0.0
 41
0.0
 42
0.0
 43
0.0
 44
297.0
 45
210.0
 46
0.0
 47
0.0
 48
0.0
 49
0.0
140
0.0
141
0.0
142
1.0
143
1.0
 70
1024
 72
1
 73
0
 74
0
  7

 75
0
147
1.0
148
0.0
149
0.0
100
AcDbLayout
  1
Model
 70
0
 71
0
 10
0.0
 20
0.0
 11
297.0
 21
210.0
 12
0.0
 22
0.0
 32
0.0
 14
0.0
 24
0.0
 34
0.0
 15
0.0
 25
0.0
 35
0.0
146
0.0
 13
0.0
 23
0.0
 33
0.0
 16
1.0
 26
0.0
 36
0.0
 17
0.0
 27
1.0
 37
0.0
 76
0
330
224
345
0
346
0
  0
LAYOUT
  5
502
102
{ACAD_REACTORS
330
1A
102
}
100
AcDbPlotSettings
  1

  2
none_device
  4
ISO_A4_(297.00_x_210.00_MM)
  6

 40
0.0
 41
0.0
 42
0.0
 43
0.0
 44
297.0
 45
210.0
 46
0.0
 47
0.0
 48
0.0
 49
0.0
140
0.0
141
0.0
142
1.0
143
1.0
 70
0
 72
1
 73
0
 74
0
  7

 75
0
147
1.0
148
0.0
149
0.0
100
AcDbLayout
  1
Layout1
 70
0
 71
1
 10
0.0
 20
0.0
 11
297.0
 21
210.0
 12
0.0
 22
0.0
 32
0.0
 14
0.0
 24
0.0
 34
0.0
 15
0.0
 25
0.0
 35
0.0
146
0.0
 13
0.0
 23
0.0
 33
0.0
 16
1.0
 26
0.0
 36
0.0
 17
0.0
 27
1.0
 37
0.0
 76
0
330
225
345
0
346
0
  0
ENDSEC
  0
EOF
