  0
SECTION
  2
HEADER
  9
$ACADVER
  1
AC1015
  9
$DWGCODEPAGE
  3
ANSI_1252
  9
$EXTMAX
 10
297.0
 20
210.0
 30
0.0
  9
$EXTMIN
 10
0.0
 20
0.0
 30
0.0
  9
$LIMMIN
 10
0.0
 20
0.0
  9
$LIMMAX
 10
297.0
 20
210.0
  9
$VIEWCTR
 10
148.5
 20
105.0
  9
$VIEWSIZE
 40
210.0
  9
$CLAYER
  8
0
  9
$LTSCALE
 40
16.335
  9
$CELTYPE
  6
BYLAYER
  9
$DIMSCALE
 40
1.0
  9
$DIMASZ
 40
3.0
  9
$DIMEXO
 40
0.5
  9
$DIMDLI
 40
11.286
  9
$DIMEXE
 40
1.5
  9
$DIMCEN
 40
2.673
  9
$DIMLFAC
 40
1.0
  9
$DIMBLK
  1
_FILLED
  9
$DIMTXT
 40
3.0
  9
$DIMTOL
 70
1
  9
$DIMLIM
 70
0
  9
$DIMTFAC
 40
1.0
  9
$DIMTP
 40
0.01
  9
$DIMTM
 40
0.01
  9
$DIMGAP
 40
0.625
  9
$DIMDSEP
 70
44
  9
$PDMODE
 70
3
  9
$PDSIZE
 40
3.0
  9
$HANDSEED
  5
5C0
  9
$TILEMODE
 70
1
  9
$MEASUREMENT
 70
1
  9
$INSUNITS
 70
4
  0
ENDSEC
  0
SECTION
  2
CLASSES
  0
CLASS
  1
ACDBDICTIONARYWDFLT
  2
AcDbDictionaryWithDefault
  3
AutoCAD 2000
 90
0
280
0
281
0
  0
CLASS
  1
ACDBPLACEHOLDER
  2
AcDbPlaceHolder
  3
AutoCAD 2000
 90
0
280
0
281
0
  0
CLASS
  1
LAYOUT
  2
AcDbLayout
  3
AutoCAD 2000
 90
0
280
0
281
0
  0
ENDSEC
  0
SECTION
  2
TABLES
  0
TABLE
  2
VPORT
  5
8
100
AcDbSymbolTable
 70
2
  0
VPORT
  5
1F4
100
AcDbSymbolTableRecord
100
AcDbViewportTableRecord
  2
*ACTIVE
 70
0
 10
0.0
 20
0.0
 11
1.0
 21
1.0
 12
148.5
 22
105.0
 13
0.0
 23
0.0
 14
1.0
 24
1.0
 15
0.0
 25
0.0
 16
0.0
 26
0.0
 36
1.0
 17
0.0
 27
0.0
 37
0.0
 40
210.0
 41
1.4142857143
 42
50.0
 43
0.0
 44
0.0
 50
0.0
 51
0.0
 71
0
 72
100
 73
1
 74
1
 75
0
 76
0
 77
0
 78
0
  0
ENDTAB
  0
TABLE
  2
LTYPE
  5
5
100
AcDbSymbolTable
 70
6
  0
LTYPE
  5
14
100
AcDbSymbolTableRecord
100
AcDbLinetypeTableRecord
  2
BYBLOCK
 70
0
  3

 72
65
 73
0
 40
0.0
  0
LTYPE
  5
15
100
AcDbSymbolTableRecord
100
AcDbLinetypeTableRecord
  2
BYLAYER
 70
0
  3

 72
65
 73
0
 40
0.0
  0
LTYPE
  5
16
100
AcDbSymbolTableRecord
100
AcDbLinetypeTableRecord
  2
CONTINUOUS
 70
64
  3
Solid line
 72
65
 73
0
 40
0.0
  0
LTYPE
  5
1F5
100
AcDbSymbolTableRecord
100
AcDbLinetypeTableRecord
  2
CENTER
 70
64
  3
____ _ ____ _ ____ _ ____ _ ____ _ ____ _ ____
 72
65
 73
4
 40
0.6
 49
0.375
 74
0
 49
-0.075
 74
0
 49
0.075
 74
0
 49
-0.075
 74
0
  0
LTYPE
  5
1F6
100
AcDbSymbolTableRecord
100
AcDbLinetypeTableRecord
  2
HIDDEN
 70
64
  3
- - - - - - - - - - - - - - - - - - - -
 72
65
 73
2
 40
0.2
 49
0.1
 74
0
 49
-0.1
 74
0
  0
LTYPE
  5
1F7
100
AcDbSymbolTableRecord
100
AcDbLinetypeTableRecord
  2
PHANTOM
 70
64
  3
_____ _ _ _____ _ _ _____ _ _ _____
 72
65
 73
6
 40
0.8
 49
0.45
 74
0
 49
-0.05
 74
0
 49
0.1
 74
0
 49
-0.05
 74
0
 49
0.1
 74
0
 49
-0.05
 74
0
  0
LTYPE
  5
1F8
100
AcDbSymbolTableRecord
100
AcDbLinetypeTableRecord
  2
DOT
 70
64
  3
. . . . . . . . . . . . . . . . . . . .
 72
65
 73
2
 40
0.2
 49
0.1
 74
0
 49
-0.1
 74
0
  0
LTYPE
  5
1F9
100
AcDbSymbolTableRecord
100
AcDbLinetypeTableRecord
  2
DASHED
 70
64
  3
- - - - - - - - - - - - - - - - - - - -
 72
65
 73
2
 40
0.2
 49
0.1
 74
0
 49
-0.1
 74
0
  0
ENDTAB
  0
TABLE
  2
LAYER
  5
2
100
AcDbSymbolTable
 70
36
  0
LAYER
  5
10
100
AcDbSymbolTableRecord
100
AcDbLayerTableRecord
  2
0
 70
0
 62
7
  6
CONTINUOUS
370
-3
390
F
  0
LAYER
  5
1FA
100
AcDbSymbolTableRecord
100
AcDbLayerTableRecord
  2
DEFAULT_1
 70
0
 62
7
  6
CENTER
370
-3
390
F
  0
LAYER
  5
1FB
100
AcDbSymbolTableRecord
100
AcDbLayerTableRecord
  2
DEFAULT_2
 70
0
 62
7
  6
HIDDEN
370
-3
390
F
  0
LAYER
  5
1FC
100
AcDbSymbolTableRecord
100
AcDbLayerTableRecord
  2
DEFAULT_3
 70
0
 62
7
  6
PHANTOM
370
-3
390
F
  0
LAYER
  5
1FD
100
AcDbSymbolTableRecord
100
AcDbLayerTableRecord
  2
218
 70
0
 62
7
  6
CONTINUOUS
370
-3
390
F
  0
LAYER
  5
1FE
100
AcDbSymbolTableRecord
100
AcDbLayerTableRecord
  2
260
 70
0
 62
7
  6
CONTINUOUS
370
-3
390
F
  0
LAYER
  5
1FF
100
AcDbSymbolTableRecord
100
AcDbLayerTableRecord
  2
268
 70
0
 62
7
  6
CONTINUOUS
370
-3
390
F
  0
LAYER
  5
200
100
AcDbSymbolTableRecord
100
AcDbLayerTableRecord
  2
284
 70
0
 62
7
  6
CONTINUOUS
370
-3
390
F
  0
LAYER
  5
201
100
AcDbSymbolTableRecord
100
AcDbLayerTableRecord
  2
320
 70
0
 62
7
  6
CONTINUOUS
370
-3
390
F
  0
LAYER
  5
202
100
AcDbSymbolTableRecord
100
AcDbLayerTableRecord
  2
340
 70
0
 62
7
  6
CONTINUOUS
370
-3
390
F
  0
LAYER
  5
203
100
AcDbSymbolTableRecord
100
AcDbLayerTableRecord
  2
712
 70
0
 62
7
  6
CONTINUOUS
370
-3
390
F
  0
LAYER
  5
204
100
AcDbSymbolTableRecord
100
AcDbLayerTableRecord
  2
715
 70
0
 62
7
  6
CONTINUOUS
370
-3
390
F
  0
LAYER
  5
205
100
AcDbSymbolTableRecord
100
AcDbLayerTableRecord
  2
ASSI
 70
0
 62
7
  6
CONTINUOUS
370
-3
390
F
  0
LAYER
  5
206
100
AcDbSymbolTableRecord
100
AcDbLayerTableRecord
  2
COLORE_SERIE
 70
0
 62
7
  6
CONTINUOUS
370
-3
390
F
  0
LAYER
  5
207
100
AcDbSymbolTableRecord
100
AcDbLayerTableRecord
  2
COLORE_TOP
 70
0
 62
7
  6
CONTINUOUS
370
-3
390
F
  0
LAYER
  5
208
100
AcDbSymbolTableRecord
100
AcDbLayerTableRecord
  2
COORDINATE
 70
0
 62
7
  6
CONTINUOUS
370
-3
390
F
  0
LAYER
  5
209
100
AcDbSymbolTableRecord
100
AcDbLayerTableRecord
  2
COORD_ORIGINE
 70
0
 62
7
  6
CONTINUOUS
370
-3
390
F
  0
LAYER
  5
20A
100
AcDbSymbolTableRecord
100
AcDbLayerTableRecord
  2
COPY_PUBLISH
 70
0
 62
7
  6
CONTINUOUS
370
-3
390
F
  0
LAYER
  5
20B
100
AcDbSymbolTableRecord
100
AcDbLayerTableRecord
  2
COSMETIC
 70
0
 62
7
  6
CONTINUOUS
370
-3
390
F
  0
LAYER
  5
20C
100
AcDbSymbolTableRecord
100
AcDbLayerTableRecord
  2
COSMETICI
 70
0
 62
7
  6
CONTINUOUS
370
-3
390
F
  0
LAYER
  5
20D
100
AcDbSymbolTableRecord
100
AcDbLayerTableRecord
  2
CURVE
 70
0
 62
7
  6
CONTINUOUS
370
-3
390
F
  0
LAYER
  5
20E
100
AcDbSymbolTableRecord
100
AcDbLayerTableRecord
  2
DRAFT
 70
0
 62
7
  6
CONTINUOUS
370
-3
390
F
  0
LAYER
  5
20F
100
AcDbSymbolTableRecord
100
AcDbLayerTableRecord
  2
IMPORT
 70
0
 62
7
  6
CONTINUOUS
370
-3
390
F
  0
LAYER
  5
210
100
AcDbSymbolTableRecord
100
AcDbLayerTableRecord
  2
IMPORTED
 70
0
 62
7
  6
CONTINUOUS
370
-3
390
F
  0
LAYER
  5
211
100
AcDbSymbolTableRecord
100
AcDbLayerTableRecord
  2
IMPORT_IGES
 70
0
 62
7
  6
CONTINUOUS
370
-3
390
F
  0
LAYER
  5
212
100
AcDbSymbolTableRecord
100
AcDbLayerTableRecord
  2
INTF_1
 70
0
 62
7
  6
CONTINUOUS
370
-3
390
F
  0
LAYER
  5
213
100
AcDbSymbolTableRecord
100
AcDbLayerTableRecord
  2
NOTE
 70
0
 62
7
  6
CONTINUOUS
370
-3
390
F
  0
LAYER
  5
214
100
AcDbSymbolTableRecord
100
AcDbLayerTableRecord
  2
PIANI
 70
0
 62
7
  6
CONTINUOUS
370
-3
390
F
  0
LAYER
  5
215
100
AcDbSymbolTableRecord
100
AcDbLayerTableRecord
  2
PIANI_DI_RIFERIMENTO
 70
0
 62
7
  6
CONTINUOUS
370
-3
390
F
  0
LAYER
  5
216
100
AcDbSymbolTableRecord
100
AcDbLayerTableRecord
  2
PIANI_ORIGINE
 70
0
 62
7
  6
CONTINUOUS
370
-3
390
F
  0
LAYER
  5
217
100
AcDbSymbolTableRecord
100
AcDbLayerTableRecord
  2
PIANI_RIFERIMENTO
 70
0
 62
7
  6
CONTINUOUS
370
-3
390
F
  0
LAYER
  5
218
100
AcDbSymbolTableRecord
100
AcDbLayerTableRecord
  2
PIANI_SFORMO
 70
0
 62
7
  6
CONTINUOUS
370
-3
390
F
  0
LAYER
  5
219
100
AcDbSymbolTableRecord
100
AcDbLayerTableRecord
  2
PUNTI
 70
0
 62
7
  6
CONTINUOUS
370
-3
390
F
  0
LAYER
  5
21A
100
AcDbSymbolTableRecord
100
AcDbLayerTableRecord
  2
RACCORDO
 70
0
 62
7
  6
CONTINUOUS
370
-3
390
F
  0
LAYER
  5
21B
100
AcDbSymbolTableRecord
100
AcDbLayerTableRecord
  2
SIMBOLI
 70
0
 62
7
  6
CONTINUOUS
370
-3
390
F
  0
LAYER
  5
21C
100
AcDbSymbolTableRecord
100
AcDbLayerTableRecord
  2
SMUSSO
 70
0
 62
7
  6
CONTINUOUS
370
-3
390
F
  0
LAYER
  5
21D
100
AcDbSymbolTableRecord
100
AcDbLayerTableRecord
  2
SNAPLINE
 70
0
 62
7
  6
CONTINUOUS
370
-3
390
F
  0
LAYER
  5
21E
100
AcDbSymbolTableRecord
100
AcDbLayerTableRecord
  2
SUPERFICI
 70
0
 62
7
  6
CONTINUOUS
370
-3
390
F
  0
LAYER
  5
21F
100
AcDbSymbolTableRecord
100
AcDbLayerTableRecord
  2
TRASH
 70
0
 62
7
  6
CONTINUOUS
370
-3
390
F
  0
LAYER
  5
220
100
AcDbSymbolTableRecord
100
AcDbLayerTableRecord
  2
WHITE
 70
0
 62
7
  6
CONTINUOUS
370
-3
390
F
  0
LAYER
  5
221
100
AcDbSymbolTableRecord
100
AcDbLayerTableRecord
  2
XSEC_DATUMS
 70
0
 62
7
  6
CONTINUOUS
370
-3
390
F
  0
ENDTAB
  0
TABLE
  2
STYLE
  5
3
100
AcDbSymbolTable
 70
1
  0
STYLE
  5
11
100
AcDbSymbolTableRecord
100
AcDbTextStyleTableRecord
  2
STANDARD
 70
0
 40
0.0
 41
0.8
 50
0.0
 71
0
 42
0.2
  3
txt
  4

  0
STYLE
  5
222
100
AcDbSymbolTableRecord
100
AcDbTextStyleTableRecord
  2
TEXTSTYLE_1
 70
0
 40
0.0
 41
0.8
 50
0.0
 71
0
 42
0.2
  3
gdt
  4

  0
ENDTAB
  0
TABLE
  2
VIEW
  5
6
100
AcDbSymbolTable
 70
0
  0
ENDTAB
  0
TABLE
  2
UCS
  5
7
100
AcDbSymbolTable
 70
0
  0
ENDTAB
  0
TABLE
  2
APPID
  5
9
100
AcDbSymbolTable
 70
1
  0
APPID
  5
223
100
AcDbSymbolTableRecord
100
AcDbRegAppTableRecord
  2
ACAD
 70
0
  0
ENDTAB
  0
TABLE
  2
BLOCK_RECORD
  5
1
100
AcDbSymbolTable
 70
0
  0
BLOCK_RECORD
  5
224
100
AcDbSymbolTableRecord
100
AcDbBlockTableRecord
  2
*Model_Space
  0
BLOCK_RECORD
  5
225
100
AcDbSymbolTableRecord
100
AcDbBlockTableRecord
  2
*Paper_Space
  0
ENDTAB
  0
TABLE
  2
DIMSTYLE
  5
A
100
AcDbSymbolTable
 70
1
100
AcDbDimStyleTable
 71
0
  0
DIMSTYLE
105
226
100
AcDbSymbolTableRecord
100
AcDbDimStyleTableRecord
  2
STANDARD
 70
0
  3

  4

 40
1.0
 41
3.0
 42
0.5
 43
0.38
 44
1.5
 45
0.0
 46
0.0
 47
0.01
 48
0.01
140
3.0
141
0.09
142
0.0
143
25.4
144
1.0
145
0.0
146
1.0
147
0.625
 71
1.0
 72
0.0
 73
0
 74
0
 75
0
 76
0
 77
1
 78
8
170
0
171
2
172
0
173
0
174
0
175
0
176
0
177
0
178
0
270
2
271
2
272
2
273
2
274
2
275
0
280
0
281
0
282
0
283
1
284
8
285
0
286
0
287
3
288
0
340
11
278
44
  0
ENDTAB
  0
ENDSEC
  0
SECTION
  2
BLOCKS
  0
BLOCK
  5
20
100
AcDbEntity
  8
0
100
AcDbBlockBegin
  2
*Model_Space
 70
0
 10
0.0
 20
0.0
 30
0.0
  3
*Model_Space
  1

  0
ENDBLK
  5
21
100
AcDbEntity
  8
0
100
AcDbBlockEnd
  0
BLOCK
  5
1C
100
AcDbEntity
  8
0
100
AcDbBlockBegin
  2
*Paper_Space
 70
0
 10
0.0
 20
0.0
 30
0.0
  3
*Paper_Space
  1

  0
ENDBLK
  5
1D
100
AcDbEntity
  8
0
100
AcDbBlockEnd
  0
ENDSEC
  0
SECTION
  2
ENTITIES
  0
LINE
  5
227
100
AcDbEntity
  8
268
100
AcDbLine
 62
7
  6
CONTINUOUS
 10
115.3063664428
 20
141.5211964026
 11
116.889123046
 21
142.3331804999
  0
LINE
  5
228
100
AcDbEntity
  8
268
100
AcDbLine
 62
7
  6
CONTINUOUS
 10
114.8224113305
 20
139.7784960005
 11
115.8346336146
 21
140.2954259632
  0
LINE
  5
229
100
AcDbEntity
  8
268
100
AcDbLine
 62
253
  6
CONTINUOUS
 10
114.9799347368
 20
139.769062671
 11
115.8346336146
 21
140.2055472909
  0
LINE
  5
22A
100
AcDbEntity
  8
268
100
AcDbLine
 62
7
  6
CONTINUOUS
 10
116.9141878519
 20
140.717285698
 11
118.5154686427
 21
141.5200077015
  0
LINE
  5
22B
100
AcDbEntity
  8
268
100
AcDbLine
 62
7
  6
CONTINUOUS
 10
118.5154686427
 20
141.5200077015
 11
119.0437358144
 21
141.7834465216
  0
LINE
  5
22C
100
AcDbEntity
  8
268
100
AcDbLine
 62
7
  6
CONTINUOUS
 10
116.889123046
 20
142.3331804999
 11
117.4235729247
 21
142.5935279665
  0
LWPOLYLINE
  5
22D
100
AcDbEntity
  8
RACCORDO
100
AcDbPolyline
 62
253
  6
CONTINUOUS
 90
19
 70
0
 10
139.4729653079
 20
83.68799318
 10
139.4317507998
 20
83.6763210409
 10
139.3916851582
 20
83.6690666314
 10
139.3527683833
 20
83.6662299515
 10
139.3147257645
 20
83.6678425525
 10
139.2778320122
 20
83.6738728831
 10
139.2429112579
 20
83.6842262893
 10
139.2100283383
 20
83.6989994973
 10
139.1791184166
 20
83.7180957808
 10
139.1508111141
 20
83.7411303065
 10
139.1251600524
 20
83.7681860192
 10
139.1021116099
 20
83.799179974
 10
139.0821345432
 20
83.8334785029
 10
139.0652935945
 20
83.8711781273
 10
139.0515240215
 20
83.9121823258
 10
139.0411003541
 20
83.955567866
 10
139.0341141022
 20
84.001027004
 10
139.0304737558
 20
84.0488674837
 10
139.030179315
 20
84.0990893052
  0
LWPOLYLINE
  5
22E
100
AcDbEntity
  8
268
100
AcDbPolyline
 62
7
  6
CONTINUOUS
 90
12
 70
0
 10
126.4795945397
 20
143.000910447
 10
126.4733077483
 20
142.9975540734
 10
126.4614533217
 20
142.9900498003
 10
126.4497981417
 20
142.981177289
 10
126.4383025469
 20
142.9709921785
 10
126.4270112492
 20
142.9595611061
 10
126.4158661827
 20
142.9469140799
 10
126.4047993034
 20
142.9330845438
 10
126.3938531842
 20
142.9181150449
 10
126.383005883
 20
142.9020321178
 10
126.3721674543
 20
142.8848638634
 10
126.3612830863
 20
142.866645232
  0
LINE
  5
22F
100
AcDbEntity
  8
268
100
AcDbLine
 62
7
  6
CONTINUOUS
 10
118.5154686427
 20
139.787956894
 11
117.4486377306
 21
139.2493756445
  0
LINE
  5
230
100
AcDbEntity
  8
268
100
AcDbLine
 62
7
  6
CONTINUOUS
 10
119.9712496192
 20
139.7596154977
 11
126.4792862459
 21
143.0007571032
  0
LINE
  5
231
100
AcDbEntity
  8
268
100
AcDbLine
 62
253
  6
CONTINUOUS
 10
120.0467427597
 20
139.7218689274
 11
126.3612830863
 21
142.866645232
  0
LWPOLYLINE
  5
232
100
AcDbEntity
  8
RACCORDO
100
AcDbPolyline
 62
253
  6
CONTINUOUS
 90
19
 70
0
 10
112.0114507712
 20
137.351338056
 10
111.9247464931
 20
137.3121951386
 10
111.837994135
 20
137.2641998291
 10
111.7517890751
 20
137.2076769158
 10
111.6667261481
 20
137.1430062004
 10
111.5833856594
 20
137.0706288856
 10
111.5023291584
 20
136.9910455265
 10
111.4241140984
 20
136.9047997309
 10
111.3492743541
 20
136.8124748991
 10
111.2783070881
 20
136.7146988597
 10
111.2116979532
 20
136.6121355388
 10
111.1499044237
 20
136.5054807982
 10
111.0933380493
 20
136.3954577171
 10
111.0423848702
 20
136.2828103467
 10
110.9973977931
 20
136.1683065754
 10
110.9586813125
 20
136.0527319978
 10
110.9264992445
 20
135.9368749565
 10
110.9010736947
 20
135.8215210058
 10
110.8825789136
 20
135.7074549752
  0
LWPOLYLINE
  5
233
100
AcDbEntity
  8
RACCORDO
100
AcDbPolyline
 62
7
  6
CONTINUOUS
 90
18
 70
0
 10
111.6593014379
 20
137.3769455927
 10
111.5767210121
 20
137.3397674738
 10
111.4845320366
 20
137.2899448716
 10
111.3947400474
 20
137.232328859
 10
111.3078574188
 20
137.1672117581
 10
111.2247427026
 20
137.0953573239
 10
111.1453652481
 20
137.0168235173
 10
111.0699412236
 20
136.9317861517
 10
110.9994958809
 20
136.8414945294
 10
110.9340984114
 20
136.7461046833
 10
110.8739310295
 20
136.6458120793
 10
110.8199364784
 20
136.5422654912
 10
110.7722170389
 20
136.4357266638
 10
110.7308966281
 20
136.3263651886
 10
110.6966256407
 20
136.2158435573
 10
110.6695831202
 20
136.1048512983
 10
110.6497117415
 20
135.9931687978
 10
110.6467283186
 20
135.9716263644
  0
LINE
  5
234
100
AcDbEntity
  8
RACCORDO
100
AcDbLine
 62
7
  6
CONTINUOUS
 10
115.6353349485
 20
139.0022460035
 11
111.6592947403
 21
137.3769619701
  0
LINE
  5
235
100
AcDbEntity
  8
RACCORDO
100
AcDbLine
 62
253
  6
CONTINUOUS
 10
115.9447370826
 20
138.9591455595
 11
112.0114507712
 21
137.351338056
  0
LWPOLYLINE
  5
236
100
AcDbEntity
  8
268
100
AcDbPolyline
 62
7
  6
CONTINUOUS
 90
3
 70
0
 10
126.4980422781
 20
143.0083677898
 10
126.4854772583
 20
143.0036687389
 10
126.4795945397
 20
143.000910447
  0
LWPOLYLINE
  5
237
100
AcDbEntity
  8
268
100
AcDbPolyline
 62
7
  6
CONTINUOUS
 90
10
 70
0
 10
126.4980422781
 20
143.0083677898
 10
126.5072818989
 20
143.0111135887
 10
126.5158450527
 20
143.0133793072
 10
126.5237317397
 20
143.0151649453
 10
126.5309810979
 20
143.0164913498
 10
126.5375539893
 20
143.017337674
 10
126.5433329987
 20
143.0176413767
 10
126.5483139558
 20
143.017402041
 10
126.552501031
 20
143.0166200838
 10
126.5550907122
 20
143.0156236506
  0
LWPOLYLINE
  5
238
100
AcDbEntity
  8
RACCORDO
100
AcDbPolyline
 62
253
  6
CONTINUOUS
 90
6
 70
0
 10
146.8532138238
 20
85.6699226107
 10
146.8283340417
 20
85.6652873423
 10
146.8028197426
 20
85.6620222416
 10
146.7769750738
 20
85.6601488126
 10
146.7510593703
 20
85.659666657
 10
146.725256671
 20
85.6605868291
  0
LINE
  5
239
100
AcDbEntity
  8
268
100
AcDbLine
 62
7
  6
CONTINUOUS
 10
119.1305874777
 20
141.1624489349
 11
118.603342762
 21
140.5207412069
  0
LINE
  5
23A
100
AcDbEntity
  8
268
100
AcDbLine
 62
7
  6
CONTINUOUS
 10
120.7798630741
 20
139.3684507041
 11
121.2731850893
 21
139.6215342359
  0
LINE
  5
23B
100
AcDbEntity
  8
268
100
AcDbLine
 62
7
  6
CONTINUOUS
 10
127.3543034075
 20
141.9869017012
 11
122.6166879736
 21
139.6518511866
  0
LINE
  5
23C
100
AcDbEntity
  8
268
100
AcDbLine
 62
7
  6
CONTINUOUS
 10
126.9300393388
 20
140.547470099
 11
127.3543034075
 21
140.7550675198
  0
LINE
  5
23D
100
AcDbEntity
  8
268
100
AcDbLine
 62
7
  6
CONTINUOUS
 10
129.3403729873
 20
141.3771002815
 11
127.2835927294
 21
140.3706934037
  0
LINE
  5
23E
100
AcDbEntity
  8
268
100
AcDbLine
 62
7
  6
CONTINUOUS
 10
121.2731850893
 20
139.6215342359
 11
126.7508250788
 21
142.2898661992
  0
LINE
  5
23F
100
AcDbEntity
  8
RACCORDO
100
AcDbLine
 62
253
  6
CONTINUOUS
 10
126.6846575184
 20
139.0955085674
 11
126.6919629024
 21
139.0985911139
  0
LINE
  5
240
100
AcDbEntity
  8
RACCORDO
100
AcDbLine
 62
253
  6
CONTINUOUS
 10
126.6919629024
 20
139.0985911139
 11
126.6994106301
 21
139.1016811108
  0
LINE
  5
241
100
AcDbEntity
  8
RACCORDO
100
AcDbLine
 62
253
  6
CONTINUOUS
 10
126.6994106301
 20
139.1016811108
 11
126.7070051254
 21
139.104776084
  0
LINE
  5
242
100
AcDbEntity
  8
RACCORDO
100
AcDbLine
 62
253
  6
CONTINUOUS
 10
126.7070051254
 20
139.104776084
 11
126.7147508108
 21
139.1078734895
  0
LINE
  5
243
100
AcDbEntity
  8
RACCORDO
100
AcDbLine
 62
253
  6
CONTINUOUS
 10
126.7147508108
 20
139.1078734895
 11
126.7226505402
 21
139.1109715774
  0
LINE
  5
244
100
AcDbEntity
  8
RACCORDO
100
AcDbLine
 62
253
  6
CONTINUOUS
 10
126.7226505402
 20
139.1109715774
 11
126.7307085352
 21
139.114067674
  0
LINE
  5
245
100
AcDbEntity
  8
RACCORDO
100
AcDbLine
 62
253
  6
CONTINUOUS
 10
126.7307085352
 20
139.114067674
 11
126.7389284847
 21
139.1171588312
  0
LINE
  5
246
100
AcDbEntity
  8
RACCORDO
100
AcDbLine
 62
253
  6
CONTINUOUS
 10
126.7389284847
 20
139.1171588312
 11
126.7473127923
 21
139.1202430513
  0
LINE
  5
247
100
AcDbEntity
  8
RACCORDO
100
AcDbLine
 62
253
  6
CONTINUOUS
 10
126.7473127923
 20
139.1202430513
 11
126.7558647838
 21
139.1233172187
  0
LINE
  5
248
100
AcDbEntity
  8
RACCORDO
100
AcDbLine
 62
253
  6
CONTINUOUS
 10
126.7558647838
 20
139.1233172187
 11
126.7645885704
 21
139.1263784205
  0
LINE
  5
249
100
AcDbEntity
  8
RACCORDO
100
AcDbLine
 62
253
  6
CONTINUOUS
 10
126.7645885704
 20
139.1263784205
 11
126.7734865593
 21
139.1294245759
  0
LINE
  5
24A
100
AcDbEntity
  8
RACCORDO
100
AcDbLine
 62
253
  6
CONTINUOUS
 10
126.7734865593
 20
139.1294245759
 11
126.7825621479
 21
139.1324524515
  0
LINE
  5
24B
100
AcDbEntity
  8
RACCORDO
100
AcDbLine
 62
253
  6
CONTINUOUS
 10
126.7825621479
 20
139.1324524515
 11
126.7918176373
 21
139.1354583809
  0
LINE
  5
24C
100
AcDbEntity
  8
RACCORDO
100
AcDbLine
 62
253
  6
CONTINUOUS
 10
126.7918176373
 20
139.1354583809
 11
126.8012546288
 21
139.1384399336
  0
LINE
  5
24D
100
AcDbEntity
  8
RACCORDO
100
AcDbLine
 62
253
  6
CONTINUOUS
 10
126.8012546288
 20
139.1384399336
 11
126.8108755082
 21
139.1413934418
  0
LINE
  5
24E
100
AcDbEntity
  8
RACCORDO
100
AcDbLine
 62
253
  6
CONTINUOUS
 10
126.8108755082
 20
139.1413934418
 11
126.8206823119
 21
139.1443150679
  0
LINE
  5
24F
100
AcDbEntity
  8
RACCORDO
100
AcDbLine
 62
253
  6
CONTINUOUS
 10
126.8206823119
 20
139.1443150679
 11
126.8306762091
 21
139.1472021874
  0
LINE
  5
250
100
AcDbEntity
  8
268
100
AcDbLine
 62
7
  6
CONTINUOUS
 10
128.6813772359
 20
140.5170274676
 11
127.2835927294
 21
139.8181352144
  0
LWPOLYLINE
  5
251
100
AcDbEntity
  8
RACCORDO
100
AcDbPolyline
 62
7
  6
CONTINUOUS
 90
6
 70
0
 10
126.2935308156
 20
139.0317008451
 10
126.2848245872
 20
139.0273519117
 10
126.2767228262
 20
139.0226729933
 10
126.2689055519
 20
139.0175154983
 10
126.2613782687
 20
139.0118835369
 10
126.2554962735
 20
139.0069743427
  0
LINE
  5
252
100
AcDbEntity
  8
268
100
AcDbLine
 62
7
  6
CONTINUOUS
 10
132.3040508758
 20
139.5120279671
 11
127.5664354419
 21
137.1769774524
  0
LINE
  5
253
100
AcDbEntity
  8
RACCORDO
100
AcDbLine
 62
253
  6
CONTINUOUS
 10
126.5617413116
 20
139.038152533
 11
126.6185192927
 21
139.0655062002
  0
LINE
  5
254
100
AcDbEntity
  8
RACCORDO
100
AcDbLine
 62
253
  6
CONTINUOUS
 10
126.5537331241
 20
139.0343569902
 11
126.5617413116
 21
139.038152533
  0
LINE
  5
255
100
AcDbEntity
  8
RACCORDO
100
AcDbLine
 62
253
  6
CONTINUOUS
 10
126.6185192927
 20
139.0655062002
 11
126.6308479772
 21
139.0713429836
  0
LINE
  5
256
100
AcDbEntity
  8
RACCORDO
100
AcDbLine
 62
253
  6
CONTINUOUS
 10
126.545806048
 20
139.0306489007
 11
126.5537331241
 21
139.0343569902
  0
LINE
  5
257
100
AcDbEntity
  8
RACCORDO
100
AcDbLine
 62
253
  6
CONTINUOUS
 10
126.6308479772
 20
139.0713429836
 11
126.6403638403
 21
139.0757841402
  0
LINE
  5
258
100
AcDbEntity
  8
RACCORDO
100
AcDbLine
 62
253
  6
CONTINUOUS
 10
126.5057214222
 20
139.012132569
 11
126.545806048
 21
139.0306489007
  0
LINE
  5
259
100
AcDbEntity
  8
0
100
AcDbLine
 62
7
  6
CONTINUOUS
 10
140.9075240173
 20
143.7471006522
 11
132.1969024461
 21
139.7242469506
  0
LINE
  5
25A
100
AcDbEntity
  8
0
100
AcDbLine
 62
253
  6
CONTINUOUS
 10
141.1243467856
 20
143.7296698174
 11
132.4152405819
 21
139.7075178071
  0
LINE
  5
25B
100
AcDbEntity
  8
0
100
AcDbLine
 62
7
  6
CONTINUOUS
 10
142.144007394
 20
143.8352980035
 11
141.578921271
 21
143.5743225056
  0
LINE
  5
25C
100
AcDbEntity
  8
0
100
AcDbLine
 62
253
  6
CONTINUOUS
 10
142.2303287328
 20
143.8281380863
 11
141.6278132983
 21
143.549876492
  0
LINE
  5
25D
100
AcDbEntity
  8
RACCORDO
100
AcDbLine
 62
7
  6
CONTINUOUS
 10
126.3433296907
 20
139.0546655838
 11
126.2935663201
 21
139.0317172424
  0
LINE
  5
25E
100
AcDbEntity
  8
RACCORDO
100
AcDbLine
 62
253
  6
CONTINUOUS
 10
126.6403638403
 20
139.0757841402
 11
126.6501279189
 21
139.0802735689
  0
LWPOLYLINE
  5
25F
100
AcDbEntity
  8
RACCORDO
100
AcDbPolyline
 62
253
  6
CONTINUOUS
 90
17
 70
0
 10
127.4976942613
 20
139.1394381044
 10
127.5035077067
 20
139.1420739718
 10
127.5093071377
 20
139.1444102281
 10
127.5150827401
 20
139.1464429198
 10
127.5208247401
 20
139.1481686069
 10
127.5265234208
 20
139.1495843693
 10
127.5321691386
 20
139.1506878111
 10
127.5377523395
 20
139.1514770649
 10
127.5432635754
 20
139.1519507953
 10
127.5486935197
 20
139.1521082005
 10
127.5540329836
 20
139.1519490141
 10
127.5592729315
 20
139.1514735055
 10
127.564404496
 20
139.1506824795
 10
127.5694189931
 20
139.1495772746
 10
127.5743079371
 20
139.1481597612
 10
127.5790630547
 20
139.1464323379
 10
127.5836348399
 20
139.1444162113
  0
LINE
  5
260
100
AcDbEntity
  8
RACCORDO
100
AcDbLine
 62
253
  6
CONTINUOUS
 10
126.6501279189
 20
139.0802735689
 11
126.6567824204
 21
139.0832904752
  0
LWPOLYLINE
  5
261
100
AcDbEntity
  8
RACCORDO
100
AcDbPolyline
 62
253
  6
CONTINUOUS
 90
22
 70
0
 10
126.3273707075
 20
139.0473292288
 10
126.3304990207
 20
139.0487391607
 10
126.3397474832
 20
139.0525130549
 10
126.3492070974
 20
139.0557955103
 10
126.3588677378
 20
139.0585830135
 10
126.3687190635
 20
139.0608725807
 10
126.3787505294
 20
139.0626617612
 10
126.3889513979
 20
139.0639486396
 10
126.3993107498
 20
139.0647318386
 10
126.4098174964
 20
139.0650105198
 10
126.4204603911
 20
139.064784385
 10
126.4312280416
 20
139.0640536761
 10
126.4421089222
 20
139.0628191753
 10
126.4530913859
 20
139.061082204
 10
126.4641636769
 20
139.0588446216
 10
126.4753139432
 20
139.0561088231
 10
126.4865302497
 20
139.052877737
 10
126.4978005901
 20
139.0491548218
 10
126.5091129007
 20
139.0449440626
 10
126.5204550726
 20
139.0402499666
 10
126.531814965
 20
139.0350775584
 10
126.5431804181
 20
139.0294323747
  0
LINE
  5
262
100
AcDbEntity
  8
RACCORDO
100
AcDbLine
 62
253
  6
CONTINUOUS
 10
126.6567824204
 20
139.0832904752
 11
126.6635582093
 21
139.0863243347
  0
LINE
  5
263
100
AcDbEntity
  8
RACCORDO
100
AcDbLine
 62
253
  6
CONTINUOUS
 10
126.6635582093
 20
139.0863243347
 11
126.6704601054
 21
139.0893729984
  0
LWPOLYLINE
  5
264
100
AcDbEntity
  8
0
100
AcDbPolyline
 62
253
  6
CONTINUOUS
 90
24
 70
0
 10
140.907520892
 20
143.7470992089
 10
140.9147445838
 20
143.7502522585
 10
140.9230558868
 20
143.7534449564
 10
140.9315343843
 20
143.7562497702
 10
140.940172896
 20
143.7586643204
 10
140.9489640553
 20
143.7606865394
 10
140.957900442
 20
143.762314728
 10
140.966974528
 20
143.7635475202
 10
140.9761786036
 20
143.7643838505
 10
140.9855049309
 20
143.7648230266
 10
140.9949456368
 20
143.7648646846
 10
141.004492658
 20
143.7645087567
 10
141.0141379523
 20
143.7637555634
 10
141.0238734035
 20
143.7626057557
 10
141.0336907164
 20
143.7610602658
 10
141.0435816544
 20
143.7591204182
 10
141.0535378737
 20
143.7567878697
 10
141.0635508286
 20
143.7540645534
 10
141.0736120079
 20
143.7509528286
 10
141.0837130436
 20
143.7474553256
 10
141.0938455486
 20
143.7435748525
 10
141.1040010439
 20
143.7393146267
 10
141.1141709637
 20
143.7346783047
 10
141.1243467645
 20
143.7296698076
  0
LINE
  5
265
100
AcDbEntity
  8
RACCORDO
100
AcDbLine
 62
253
  6
CONTINUOUS
 10
126.6704601054
 20
139.0893729984
 11
126.6774914448
 21
139.0924350718
  0
LINE
  5
266
100
AcDbEntity
  8
RACCORDO
100
AcDbLine
 62
253
  6
CONTINUOUS
 10
126.6774914448
 20
139.0924350718
 11
126.6846575184
 21
139.0955085674
  0
LINE
  5
267
100
AcDbEntity
  8
RACCORDO
100
AcDbLine
 62
253
  6
CONTINUOUS
 10
148.3553748088
 20
85.3495627824
 11
147.8250447229
 21
85.4593977394
  0
LINE
  5
268
100
AcDbEntity
  8
RACCORDO
100
AcDbLine
 62
253
  6
CONTINUOUS
 10
148.2669864611
 20
85.6696453038
 11
147.7366563752
 21
85.7794802609
  0
LWPOLYLINE
  5
269
100
AcDbEntity
  8
RACCORDO
100
AcDbPolyline
 62
7
  6
CONTINUOUS
 90
10
 70
0
 10
138.3016318657
 20
83.2672098555
 10
138.3890618572
 20
83.2282004638
 10
138.4801034586
 20
83.1969844791
 10
138.5740641734
 20
83.1738949182
 10
138.6708037451
 20
83.1590831201
 10
138.7696458084
 20
83.1528292717
 10
138.8698319904
 20
83.1553402653
 10
138.9712469445
 20
83.1668209979
 10
139.0734287586
 20
83.1874587088
 10
139.1706446763
 20
83.2156708431
  0
LWPOLYLINE
  5
26A
100
AcDbEntity
  8
RACCORDO
100
AcDbPolyline
 62
253
  6
CONTINUOUS
 90
16
 70
0
 10
137.9090967159
 20
84.1283929423
 10
137.9706048857
 20
84.1006180578
 10
138.0375111345
 20
84.0758960108
 10
138.1090985711
 20
84.0544916946
 10
138.1846001462
 20
84.0366344533
 10
138.2632068709
 20
84.0225156249
 10
138.3440764851
 20
84.0122864911
 10
138.4263424822
 20
84.0060566556
 10
138.5091233935
 20
84.0038928702
 10
138.591532233
 20
84.0058183197
 10
138.6726860015
 20
84.0118123729
 10
138.7517151477
 20
84.0218108046
 10
138.8277728854
 20
84.035706483
 10
138.9000442664
 20
84.0533505177
 10
138.9677549129
 20
84.0745538554
 10
139.030179315
 20
84.0990893052
  0
LINE
  5
26B
100
AcDbEntity
  8
RACCORDO
100
AcDbLine
 62
7
  6
CONTINUOUS
 10
138.3021332667
 20
83.2669341876
 11
108.259263846
 21
98.2883688979
  0
LWPOLYLINE
  5
26C
100
AcDbEntity
  8
RACCORDO
100
AcDbPolyline
 62
253
  6
CONTINUOUS
 90
13
 70
0
 10
138.3015248769
 20
83.2672387934
 10
138.2896187059
 20
83.273384157
 10
138.2244977088
 20
83.3137451868
 10
138.1645053444
 20
83.3628993037
 10
138.1100470005
 20
83.4205134022
 10
138.0614890225
 20
83.4861974832
 10
138.0191659059
 20
83.5595054548
 10
137.9833639455
 20
83.6399428866
 10
137.9543257015
 20
83.7269629714
 10
137.9322545545
 20
83.8199686757
 10
137.9173014718
 20
83.9183256551
 10
137.9095648505
 20
84.0213673496
 10
137.9090966917
 20
84.1283929313
  0
LWPOLYLINE
  5
26D
100
AcDbEntity
  8
RACCORDO
100
AcDbPolyline
 62
253
  6
CONTINUOUS
 90
9
 70
0
 10
107.874074501
 20
99.1459185543
 10
107.8186289991
 20
99.1766203715
 10
107.7698345189
 20
99.2097483795
 10
107.7282138763
 20
99.2449476234
 10
107.6942130219
 20
99.2818409556
 10
107.6681962631
 20
99.320033077
 10
107.6504423602
 20
99.3591147728
 10
107.6411415403
 20
99.3986672964
 10
107.6397414541
 20
99.4272956345
  0
LWPOLYLINE
  5
26E
100
AcDbEntity
  8
RACCORDO
100
AcDbPolyline
 62
253
  6
CONTINUOUS
 90
12
 70
0
 10
107.8740592926
 20
99.1459116308
 10
107.8743677984
 20
99.0389658756
 10
107.8818334926
 20
98.9360596447
 10
107.8964043742
 20
98.8378937658
 10
107.9179779936
 20
98.7451368254
 10
107.946407436
 20
98.6584211413
 10
107.9815014782
 20
98.5783376687
 10
108.0230154806
 20
98.5054342542
 10
108.0706652277
 20
98.4402042886
 10
108.12413462
 20
98.3830846659
 10
108.183055605
 20
98.3344662386
 10
108.2470245019
 20
98.294681259
  0
LWPOLYLINE
  5
26F
100
AcDbEntity
  8
RACCORDO
100
AcDbPolyline
 62
7
  6
CONTINUOUS
 90
15
 70
0
 10
107.6397414541
 20
99.4272956345
 10
107.6391563633
 20
99.4003906185
 10
107.6424571759
 20
99.277033892
 10
107.655460858
 20
99.1580274209
 10
107.6778417766
 20
99.0439632608
 10
107.7092789894
 20
98.9349721282
 10
107.7495742827
 20
98.8311619752
 10
107.7983986919
 20
98.7331595877
 10
107.8553328615
 20
98.6415154041
 10
107.919987905
 20
98.5566492121
 10
107.9917401073
 20
98.4792460474
 10
108.0698670161
 20
98.4099209766
 10
108.153628248
 20
98.3490944745
 10
108.2421215978
 20
98.2971646159
 10
108.26060328
 20
98.2877251105
  0
LINE
  5
270
100
AcDbEntity
  8
RACCORDO
100
AcDbLine
 62
7
  6
CONTINUOUS
 10
107.6397414541
 20
99.4272956345
 11
107.639748338
 21
99.4275256532
  0
LWPOLYLINE
  5
271
100
AcDbEntity
  8
RACCORDO
100
AcDbPolyline
 62
7
  6
CONTINUOUS
 90
13
 70
0
 10
110.6467294062
 20
135.9717264782
 10
110.2605172198
 20
132.9532632455
 10
109.8883730041
 20
129.8484503793
 10
109.5428418803
 20
126.7523236079
 10
109.2239772698
 20
123.6653288452
 10
108.931818463
 20
120.5878578471
 10
108.6664008664
 20
117.520281316
 10
108.427760195
 20
114.4629846859
 10
108.2159267031
 20
111.4163512598
 10
108.0309284624
 20
108.3807487344
 10
107.8727929932
 20
105.3565641608
 10
107.7415419799
 20
102.3442312416
 10
107.6397355789
 20
99.4275260353
  0
LWPOLYLINE
  5
272
100
AcDbEntity
  8
RACCORDO
100
AcDbPolyline
 62
253
  6
CONTINUOUS
 90
13
 70
0
 10
110.8825789136
 20
135.7074549752
 10
110.4862955858
 20
132.6078151515
 10
110.1163472833
 20
129.5164733135
 10
109.7727816413
 20
126.43382512
 10
109.4556429509
 20
123.3602651401
 10
109.1649718698
 20
120.2961868231
 10
108.9008054199
 20
117.2419824498
 10
108.6631772722
 20
114.1980431369
 10
108.4521180022
 20
111.1647585355
 10
108.2676548078
 20
108.1425168048
 10
108.109811247
 20
105.1317048876
 10
107.9786072322
 20
102.1327084596
 10
107.8740592926
 20
99.1459116308
  0
LINE
  5
273
100
AcDbEntity
  8
RACCORDO
100
AcDbLine
 62
7
  6
CONTINUOUS
 10
125.4014153511
 20
138.2594874978
 11
126.2554637347
 21
139.0069455547
  0
LINE
  5
274
100
AcDbEntity
  8
RACCORDO
100
AcDbLine
 62
253
  6
CONTINUOUS
 10
125.5553179059
 20
138.1825362205
 11
126.5041164974
 21
139.0129190947
  0
LINE
  5
275
100
AcDbEntity
  8
0
100
AcDbLine
 62
7
  6
CONTINUOUS
 10
132.1652721277
 20
139.7057028646
 11
132.020826791
 21
139.6010168476
  0
LWPOLYLINE
  5
276
100
AcDbEntity
  8
0
100
AcDbPolyline
 62
253
  6
CONTINUOUS
 90
19
 70
0
 10
142.9759293094
 20
143.2308233149
 10
142.9817882254
 20
143.233990844
 10
142.9873684254
 20
143.2372817871
 10
142.9926595219
 20
143.2406900183
 10
142.9976516655
 20
143.2442091931
 10
143.0023355634
 20
143.2478327606
 10
143.0067024965
 20
143.2515539755
 10
143.0107443356
 20
143.2553659108
 10
143.0144535571
 20
143.2592614707
 10
143.017823256
 20
143.2632334035
 10
143.0208471599
 20
143.2672743155
 10
143.0235196395
 20
143.2713766845
 10
143.0258357202
 20
143.2755328741
 10
143.0277910905
 20
143.2797351474
 10
143.0293821105
 20
143.2839756821
 10
143.0306058185
 20
143.2882465842
 10
143.0314599365
 20
143.2925399036
 10
143.0319428747
 20
143.2968476482
 10
143.0320613493
 20
143.3002880227
  0
LINE
  5
277
100
AcDbEntity
  8
268
100
AcDbLine
 62
7
  6
CONTINUOUS
 10
126.996629031
 20
135.0458642528
 11
127.4957247638
 21
135.2978288334
  0
LINE
  5
278
100
AcDbEntity
  8
268
100
AcDbLine
 62
7
  6
CONTINUOUS
 10
126.996629031
 20
136.2600677256
 11
127.4957247638
 21
136.5102643987
  0
LINE
  5
279
100
AcDbEntity
  8
DRAFT
100
AcDbLine
 62
7
  6
CONTINUOUS
 10
144.5768925305
 20
143.7299543122
 11
144.4708265133
 21
143.6769213036
  0
LINE
  5
27A
100
AcDbEntity
  8
DRAFT
100
AcDbLine
 62
7
  6
CONTINUOUS
 10
144.294049818
 20
143.5885329559
 11
144.1879838008
 21
143.5354999473
  0
LINE
  5
27B
100
AcDbEntity
  8
DRAFT
100
AcDbLine
 62
7
  6
CONTINUOUS
 10
144.0112071055
 20
143.4471115997
 11
143.9051410884
 21
143.3940785911
  0
LINE
  5
27C
100
AcDbEntity
  8
DRAFT
100
AcDbLine
 62
7
  6
CONTINUOUS
 10
143.7283643931
 20
143.3056902434
 11
143.6222983759
 21
143.2526572349
  0
LINE
  5
27D
100
AcDbEntity
  8
DRAFT
100
AcDbLine
 62
7
  6
CONTINUOUS
 10
143.4455216806
 20
143.1642688872
 11
143.3394556634
 21
143.1112358786
  0
LINE
  5
27E
100
AcDbEntity
  8
DRAFT
100
AcDbLine
 62
7
  6
CONTINUOUS
 10
143.1626789681
 20
143.022847531
 11
143.0566129509
 21
142.9698145224
  0
LINE
  5
27F
100
AcDbEntity
  8
DRAFT
100
AcDbLine
 62
7
  6
CONTINUOUS
 10
144.4342369148
 20
143.5732582234
 11
144.3794180989
 21
143.5458488155
  0
LINE
  5
280
100
AcDbEntity
  8
DRAFT
100
AcDbLine
 62
7
  6
CONTINUOUS
 10
144.1513942023
 20
143.4318368672
 11
144.0965753864
 21
143.4044274592
  0
LINE
  5
281
100
AcDbEntity
  8
DRAFT
100
AcDbLine
 62
7
  6
CONTINUOUS
 10
143.8685514898
 20
143.2904155109
 11
143.813732674
 21
143.263006103
  0
LINE
  5
282
100
AcDbEntity
  8
DRAFT
100
AcDbLine
 62
7
  6
CONTINUOUS
 10
143.5857087774
 20
143.1489941547
 11
143.5308899615
 21
143.1215847468
  0
LINE
  5
283
100
AcDbEntity
  8
DRAFT
100
AcDbLine
 62
7
  6
CONTINUOUS
 10
143.3028660649
 20
143.0075727984
 11
143.248047249
 21
142.9801633905
  0
LINE
  5
284
100
AcDbEntity
  8
RACCORDO
100
AcDbLine
 62
7
  6
CONTINUOUS
 10
143.0200233524
 20
142.8661514422
 11
137.8492768633
 21
140.2807781976
  0
LINE
  5
285
100
AcDbEntity
  8
268
100
AcDbLine
 62
7
  6
CONTINUOUS
 10
127.4957247638
 20
136.5102643987
 11
132.9099974589
 21
139.2102800091
  0
LINE
  5
286
100
AcDbEntity
  8
0
100
AcDbLine
 62
253
  6
CONTINUOUS
 10
141.9276375934
 20
143.3280244134
 11
135.8831891717
 21
140.329933436
  0
LINE
  5
287
100
AcDbEntity
  8
0
100
AcDbLine
 62
253
  6
CONTINUOUS
 10
142.6297378285
 20
143.6284359875
 11
142.0478929779
 21
143.3398366522
  0
LINE
  5
288
100
AcDbEntity
  8
0
100
AcDbLine
 62
253
  6
CONTINUOUS
 10
142.7711376455
 20
143.3845573782
 11
142.3169006923
 21
143.1592525007
  0
LINE
  5
289
100
AcDbEntity
  8
0
100
AcDbLine
 62
253
  6
CONTINUOUS
 10
142.3445289829
 20
143.0637846745
 11
136.428326575
 21
140.1293046653
  0
LINE
  5
28A
100
AcDbEntity
  8
268
100
AcDbLine
 62
7
  6
CONTINUOUS
 10
127.4957247638
 20
135.2978288334
 11
132.9099974589
 21
137.9784414307
  0
LINE
  5
28B
100
AcDbEntity
  8
268
100
AcDbLine
 62
7
  6
CONTINUOUS
 10
133.5830136744
 20
139.2557799379
 11
132.9966348873
 21
138.9688578703
  0
LINE
  5
28C
100
AcDbEntity
  8
268
100
AcDbLine
 62
7
  6
CONTINUOUS
 10
130.2534412104
 20
135.6510214177
 11
130.7878910891
 21
135.9113688842
  0
LWPOLYLINE
  5
28D
100
AcDbEntity
  8
268
100
AcDbPolyline
 62
7
  6
CONTINUOUS
 90
18
 70
0
 10
133.5830136744
 20
139.2557799379
 10
133.6113881952
 20
139.2689618947
 10
133.6396226472
 20
139.2806962865
 10
133.6677170304
 20
139.2909831132
 10
133.6957213435
 20
139.2998352478
 10
133.7235855877
 20
139.3072398173
 10
133.7511597674
 20
139.313158203
 10
133.778428896
 20
139.3175816242
 10
133.80540796
 20
139.3205188616
 10
133.8319919226
 20
139.3219576375
 10
133.8581968815
 20
139.3218905009
 10
133.884006739
 20
139.320324903
 10
133.9092681652
 20
139.3172709195
 10
133.9339579186
 20
139.3127251352
 10
133.9580992407
 20
139.3066909653
 10
133.981608527
 20
139.2991887325
 10
134.0045043072
 20
139.2902033179
 10
134.0240663915
 20
139.2811135848
  0
LINE
  5
28E
100
AcDbEntity
  8
0
100
AcDbLine
 62
7
  6
CONTINUOUS
 10
137.996849181
 20
139.3450210218
 11
144.2560587518
 21
142.2357314247
  0
LINE
  5
28F
100
AcDbEntity
  8
0
100
AcDbLine
 62
253
  6
CONTINUOUS
 10
137.9954158425
 20
139.2738201006
 11
144.2546254134
 21
142.1645305035
  0
LINE
  5
290
100
AcDbEntity
  8
RACCORDO
100
AcDbLine
 62
253
  6
CONTINUOUS
 10
148.8857048947
 20
94.1283764031
 11
153.0843149774
 21
94.4245843259
  0
LINE
  5
291
100
AcDbEntity
  8
RACCORDO
100
AcDbLine
 62
253
  6
CONTINUOUS
 10
147.7194810005
 20
85.784727808
 11
147.7366563752
 21
85.7794802609
  0
LINE
  5
292
100
AcDbEntity
  8
RACCORDO
100
AcDbLine
 62
253
  6
CONTINUOUS
 10
137.9090966917
 20
84.1283929313
 11
107.8740592926
 21
99.1459116308
  0
LINE
  5
293
100
AcDbEntity
  8
268
100
AcDbLine
 62
253
  6
CONTINUOUS
 10
132.3938676403
 20
134.3573168486
 11
137.7521944204
 21
137.2482570755
  0
LINE
  5
294
100
AcDbEntity
  8
268
100
AcDbLine
 62
7
  6
CONTINUOUS
 10
128.6706846072
 20
134.8390373203
 11
130.2534412104
 21
135.6510214177
  0
LINE
  5
295
100
AcDbEntity
  8
268
100
AcDbLine
 62
7
  6
CONTINUOUS
 10
130.2785060163
 20
134.0351266158
 11
131.8797868071
 21
134.8378486193
  0
LINE
  5
296
100
AcDbEntity
  8
DRAFT
100
AcDbLine
 62
7
  6
CONTINUOUS
 10
146.0880941079
 20
142.9743535234
 11
145.9820280907
 21
142.9213205149
  0
LINE
  5
297
100
AcDbEntity
  8
DRAFT
100
AcDbLine
 62
7
  6
CONTINUOUS
 10
145.8052513954
 20
142.8329321672
 11
145.6991853783
 21
142.7798991586
  0
LINE
  5
298
100
AcDbEntity
  8
DRAFT
100
AcDbLine
 62
7
  6
CONTINUOUS
 10
145.522408683
 20
142.691510811
 11
145.4163426658
 21
142.6384778024
  0
LINE
  5
299
100
AcDbEntity
  8
DRAFT
100
AcDbLine
 62
7
  6
CONTINUOUS
 10
145.2395659705
 20
142.5500894547
 11
145.1334999533
 21
142.4970564461
  0
LINE
  5
29A
100
AcDbEntity
  8
DRAFT
100
AcDbLine
 62
7
  6
CONTINUOUS
 10
144.956723258
 20
142.4086680985
 11
144.8506572408
 21
142.3556350899
  0
LINE
  5
29B
100
AcDbEntity
  8
DRAFT
100
AcDbLine
 62
7
  6
CONTINUOUS
 10
144.6738805455
 20
142.2672467423
 11
144.5678145284
 21
142.2142137337
  0
LINE
  5
29C
100
AcDbEntity
  8
DRAFT
100
AcDbLine
 62
7
  6
CONTINUOUS
 10
145.9479070112
 20
142.8164231752
 11
145.841840994
 21
142.7633901666
  0
LINE
  5
29D
100
AcDbEntity
  8
DRAFT
100
AcDbLine
 62
7
  6
CONTINUOUS
 10
145.6650642987
 20
142.675001819
 11
145.5589982815
 21
142.6219688104
  0
LINE
  5
29E
100
AcDbEntity
  8
DRAFT
100
AcDbLine
 62
7
  6
CONTINUOUS
 10
145.3822215862
 20
142.5335804627
 11
145.276155569
 21
142.4805474541
  0
LINE
  5
29F
100
AcDbEntity
  8
DRAFT
100
AcDbLine
 62
7
  6
CONTINUOUS
 10
145.0993788737
 20
142.3921591065
 11
144.9933128565
 21
142.3391260979
  0
LINE
  5
2A0
100
AcDbEntity
  8
DRAFT
100
AcDbLine
 62
7
  6
CONTINUOUS
 10
144.8165361613
 20
142.2507377503
 11
144.7104701441
 21
142.1977047417
  0
LINE
  5
2A1
100
AcDbEntity
  8
RACCORDO
100
AcDbLine
 62
7
  6
CONTINUOUS
 10
144.5336934488
 20
142.109316394
 11
144.5213134715
 21
142.1031264054
  0
LINE
  5
2A2
100
AcDbEntity
  8
DRAFT
100
AcDbLine
 62
7
  6
CONTINUOUS
 10
145.4557988201
 20
141.0771434821
 11
146.2694098043
 21
141.4839489742
  0
LINE
  5
2A3
100
AcDbEntity
  8
DRAFT
100
AcDbLine
 62
7
  6
CONTINUOUS
 10
147.6881623677
 20
142.1743193935
 11
147.5820963505
 21
142.121286385
  0
LINE
  5
2A4
100
AcDbEntity
  8
DRAFT
100
AcDbLine
 62
7
  6
CONTINUOUS
 10
147.4053196552
 20
142.0328980373
 11
147.2992536381
 21
141.9798650287
  0
LINE
  5
2A5
100
AcDbEntity
  8
DRAFT
100
AcDbLine
 62
7
  6
CONTINUOUS
 10
147.1224769428
 20
141.8914766811
 11
147.0164109256
 21
141.8384436725
  0
LINE
  5
2A6
100
AcDbEntity
  8
DRAFT
100
AcDbLine
 62
7
  6
CONTINUOUS
 10
146.8396342303
 20
141.7500553248
 11
146.7335682131
 21
141.6970223162
  0
LINE
  5
2A7
100
AcDbEntity
  8
DRAFT
100
AcDbLine
 62
7
  6
CONTINUOUS
 10
146.5567915178
 20
141.6086339686
 11
146.4507255006
 21
141.55560096
  0
LINE
  5
2A8
100
AcDbEntity
  8
DRAFT
100
AcDbLine
 62
7
  6
CONTINUOUS
 10
146.2739488053
 20
141.4672126124
 11
146.1678827882
 21
141.4141796038
  0
LINE
  5
2A9
100
AcDbEntity
  8
DRAFT
100
AcDbLine
 62
7
  6
CONTINUOUS
 10
146.13943927
 20
141.3335954262
 11
146.0030105019
 21
141.2653810421
  0
LINE
  5
2AA
100
AcDbEntity
  8
DRAFT
100
AcDbLine
 62
7
  6
CONTINUOUS
 10
145.4557988201
 20
140.9917752012
 11
145.5433910941
 21
141.0355713382
  0
LINE
  5
2AB
100
AcDbEntity
  8
DRAFT
100
AcDbLine
 62
7
  6
CONTINUOUS
 10
145.7201677894
 20
141.1239596859
 11
145.8262338066
 21
141.1769926945
  0
LINE
  5
2AC
100
AcDbEntity
  8
DRAFT
100
AcDbLine
 62
7
  6
CONTINUOUS
 10
147.545506752
 20
142.0176233048
 11
147.4906879361
 21
141.9902138969
  0
LINE
  5
2AD
100
AcDbEntity
  8
DRAFT
100
AcDbLine
 62
7
  6
CONTINUOUS
 10
147.2626640395
 20
141.8762019485
 11
147.2078452237
 21
141.8487925406
  0
LINE
  5
2AE
100
AcDbEntity
  8
DRAFT
100
AcDbLine
 62
7
  6
CONTINUOUS
 10
146.9798213271
 20
141.7347805923
 11
146.9250025112
 21
141.7073711844
  0
LINE
  5
2AF
100
AcDbEntity
  8
DRAFT
100
AcDbLine
 62
7
  6
CONTINUOUS
 10
146.6969786146
 20
141.5933592361
 11
146.6421597987
 21
141.5659498281
  0
LINE
  5
2B0
100
AcDbEntity
  8
DRAFT
100
AcDbLine
 62
7
  6
CONTINUOUS
 10
146.4141359021
 20
141.4519378798
 11
146.3593170862
 21
141.4245284719
  0
LINE
  5
2B1
100
AcDbEntity
  8
RACCORDO
100
AcDbLine
 62
7
  6
CONTINUOUS
 10
146.1312931896
 20
141.3105165236
 11
140.9605467005
 21
138.725143279
  0
LINE
  5
2B2
100
AcDbEntity
  8
RACCORDO
100
AcDbLine
 62
7
  6
CONTINUOUS
 10
131.2376533224
 20
133.6057263918
 11
133.3589736659
 21
134.6663865636
  0
LINE
  5
2B3
100
AcDbEntity
  8
RACCORDO
100
AcDbLine
 62
253
  6
CONTINUOUS
 10
131.3494567212
 20
133.598625945
 11
133.4707770648
 21
134.6592861168
  0
LINE
  5
2B4
100
AcDbEntity
  8
268
100
AcDbLine
 62
7
  6
CONTINUOUS
 10
131.8797868071
 20
134.8378486193
 11
132.4080539789
 21
135.1012874394
  0
LINE
  5
2B5
100
AcDbEntity
  8
0
100
AcDbLine
 62
253
  6
CONTINUOUS
 10
145.0389074307
 20
141.7723894948
 11
138.9944590089
 21
138.7742985174
  0
LINE
  5
2B6
100
AcDbEntity
  8
0
100
AcDbLine
 62
253
  6
CONTINUOUS
 10
145.4557988201
 20
141.5081497558
 11
139.5395964122
 21
138.5736697467
  0
LINE
  5
2B7
100
AcDbEntity
  8
0
100
AcDbLine
 62
7
  6
CONTINUOUS
 10
137.336851617
 20
136.554722038
 11
138.0316158035
 21
136.8993301963
  0
LINE
  5
2B8
100
AcDbEntity
  8
0
100
AcDbLine
 62
253
  6
CONTINUOUS
 10
140.6171243782
 20
137.9629658327
 11
137.5246764897
 21
136.4608096017
  0
LINE
  5
2B9
100
AcDbEntity
  8
268
100
AcDbLine
 62
253
  6
CONTINUOUS
 10
131.7902645972
 20
135.4721595011
 11
136.5621035753
 21
137.7662349875
  0
LINE
  5
2BA
100
AcDbEntity
  8
268
100
AcDbLine
 62
253
  6
CONTINUOUS
 10
132.017880097
 20
135.3583517512
 11
137.0039444433
 21
137.7554167072
  0
LWPOLYLINE
  5
2BB
100
AcDbEntity
  8
RACCORDO
100
AcDbPolyline
 62
253
  6
CONTINUOUS
 90
7
 70
0
 10
133.3589736659
 20
134.6663865636
 10
133.3631622312
 20
134.6683532193
 10
133.3823887172
 20
134.6744739396
 10
133.4031275523
 20
134.6766303084
 10
133.4250238893
 20
134.6747854295
 10
133.4477030759
 20
134.6689708694
 10
133.4707770648
 20
134.6592861168
  0
LWPOLYLINE
  5
2BC
100
AcDbEntity
  8
RACCORDO
100
AcDbPolyline
 62
253
  6
CONTINUOUS
 90
7
 70
0
 10
131.2376533224
 20
133.6057263918
 10
131.2418418876
 20
133.6076930476
 10
131.2610683736
 20
133.6138137679
 10
131.2818072087
 20
133.6159701366
 10
131.3037035458
 20
133.6141252577
 10
131.3263827323
 20
133.6083106976
 10
131.3494567212
 20
133.598625945
  0
LINE
  5
2BD
100
AcDbEntity
  8
0
100
AcDbLine
 62
7
  6
CONTINUOUS
 10
137.336851617
 20
136.2946108767
 11
137.215493334
 21
136.2385635999
  0
LWPOLYLINE
  5
2BE
100
AcDbEntity
  8
0
100
AcDbPolyline
 62
253
  6
CONTINUOUS
 90
19
 70
0
 10
140.6171269053
 20
137.9629645692
 10
140.6249669575
 20
137.9665392959
 10
140.6327912236
 20
137.9697513204
 10
140.6405890023
 20
137.9725962496
 10
140.6483496287
 20
137.9750701927
 10
140.6560624887
 20
137.977169766
 10
140.6637170336
 20
137.978892098
 10
140.6713027943
 20
137.980234833
 10
140.6788093959
 20
137.9811961346
 10
140.6862265717
 20
137.9817746881
 10
140.6935441773
 20
137.9819697022
 10
140.7007522046
 20
137.9817809101
 10
140.7078407952
 20
137.98120857
 10
140.7148002541
 20
137.9802534648
 10
140.721621063
 20
137.9789169008
 10
140.7282938931
 20
137.9772007059
 10
140.7348096181
 20
137.9751072273
 10
140.7411593266
 20
137.9726393283
 10
140.7475877273
 20
137.9696740891
  0
LINE
  5
2BF
100
AcDbEntity
  8
0
100
AcDbLine
 62
7
  6
CONTINUOUS
 10
141.2287642133
 20
137.4892099743
 11
147.4478622835
 21
140.1765988349
  0
LINE
  5
2C0
100
AcDbEntity
  8
0
100
AcDbLine
 62
253
  6
CONTINUOUS
 10
141.256662834
 20
137.2185930889
 11
147.5158724049
 21
139.9233148809
  0
LINE
  5
2C1
100
AcDbEntity
  8
0
100
AcDbLine
 62
7
  6
CONTINUOUS
 10
148.3275274123
 20
140.1349334995
 11
147.683528628
 21
139.8566495523
  0
LWPOLYLINE
  5
2C2
100
AcDbEntity
  8
RACCORDO
100
AcDbPolyline
 62
7
  6
CONTINUOUS
 90
8
 70
0
 10
133.3589736659
 20
134.6663865636
 10
133.3872602611
 20
134.6784161287
 10
133.4172474622
 20
134.6869810976
 10
133.4484220451
 20
134.691778266
 10
133.4803266889
 20
134.6925972486
 10
133.5122115772
 20
134.6893222089
 10
133.5432191079
 20
134.6820539817
 10
133.5731791585
 20
134.6708449967
  0
LINE
  5
2C3
100
AcDbEntity
  8
RACCORDO
100
AcDbLine
 62
7
  6
CONTINUOUS
 10
152.6166447487
 20
95.0602078227
 11
148.8857048947
 21
94.8615563408
  0
LWPOLYLINE
  5
2C4
100
AcDbEntity
  8
RACCORDO
100
AcDbPolyline
 62
253
  6
CONTINUOUS
 90
3
 70
0
 10
148.2900829737
 20
85.6617164422
 10
148.2842460738
 20
85.6643630208
 10
148.2669864611
 20
85.6696453038
  0
LINE
  5
2C5
100
AcDbEntity
  8
RACCORDO
100
AcDbLine
 62
253
  6
CONTINUOUS
 10
147.713241324
 20
85.787567637
 11
147.7194810005
 21
85.784727808
  0
LINE
  5
2C6
100
AcDbEntity
  8
RACCORDO
100
AcDbLine
 62
7
  6
CONTINUOUS
 10
145.945474371
 20
83.8023701884
 11
144.6019714868
 21
84.4741216305
  0
LINE
  5
2C7
100
AcDbEntity
  8
RACCORDO
100
AcDbLine
 62
253
  6
CONTINUOUS
 10
145.8805010746
 20
83.9375886385
 11
144.5369981904
 21
84.6093400806
  0
LINE
  5
2C8
100
AcDbEntity
  8
RACCORDO
100
AcDbLine
 62
253
  6
CONTINUOUS
 10
145.8805010746
 20
84.2889026106
 11
144.5369981904
 21
84.9606540527
  0
LINE
  5
2C9
100
AcDbEntity
  8
RACCORDO
100
AcDbLine
 62
253
  6
CONTINUOUS
 10
145.9688894223
 20
84.5205967844
 11
144.625386538
 21
85.1923482265
  0
LINE
  5
2CA
100
AcDbEntity
  8
RACCORDO
100
AcDbLine
 62
253
  6
CONTINUOUS
 10
145.1557166239
 20
85.8325132695
 11
146.4992195082
 21
85.1607618273
  0
LINE
  5
2CB
100
AcDbEntity
  8
RACCORDO
100
AcDbLine
 62
253
  6
CONTINUOUS
 10
145.2441049716
 20
86.0642074433
 11
146.5876078558
 21
85.3924560012
  0
LWPOLYLINE
  5
2CC
100
AcDbEntity
  8
RACCORDO
100
AcDbPolyline
 62
7
  6
CONTINUOUS
 90
7
 70
0
 10
144.6021559889
 20
84.4740296329
 10
144.5907632566
 20
84.480086306
 10
144.5636776157
 20
84.4978014177
 10
144.5390466826
 20
84.5189267269
 10
144.5172951827
 20
84.5431460026
 10
144.4987873069
 20
84.5701339888
 10
144.483883129
 20
84.5994951335
  0
LINE
  5
2CD
100
AcDbEntity
  8
268
100
AcDbLine
 62
7
  6
CONTINUOUS
 10
114.7324473634
 20
139.5896859244
 11
114.7324473634
 21
139.5652904192
  0
LINE
  5
2CE
100
AcDbEntity
  8
268
100
AcDbLine
 62
7
  6
CONTINUOUS
 10
115.1316406603
 20
140.9629369571
 11
115.1316406603
 21
141.2163083509
  0
LWPOLYLINE
  5
2CF
100
AcDbEntity
  8
RACCORDO
100
AcDbPolyline
 62
7
  6
CONTINUOUS
 90
4
 70
0
 10
131.5776338944
 20
132.2179461837
 10
131.5512245034
 20
132.2007003534
 10
131.5262274091
 20
132.1837135165
 10
131.5031712249
 20
132.1676393719
  0
LWPOLYLINE
  5
2D0
100
AcDbEntity
  8
RACCORDO
100
AcDbPolyline
 62
7
  6
CONTINUOUS
 90
10
 70
0
 10
131.2376533224
 20
133.6057263918
 10
131.209318552
 20
133.5891480251
 10
131.1829871231
 20
133.568633743
 10
131.1593543191
 20
133.5444805398
 10
131.1390815873
 20
133.517183613
 10
131.1226527561
 20
133.4872857556
 10
131.1103904297
 20
133.4552448855
 10
131.1025644997
 20
133.4214153959
 10
131.0995009164
 20
133.3868201928
 10
131.099456725
 20
133.3821411504
  0
LWPOLYLINE
  5
2D1
100
AcDbEntity
  8
RACCORDO
100
AcDbPolyline
 62
253
  6
CONTINUOUS
 90
13
 70
0
 10
131.3494567212
 20
133.598625945
 10
131.326895955
 20
133.5855751365
 10
131.3045481006
 20
133.5690687787
 10
131.2827957526
 20
133.5493121081
 10
131.2619778069
 20
133.5265188073
 10
131.2425307589
 20
133.5010667572
 10
131.2249422634
 20
133.4735478383
 10
131.209549193
 20
133.44450564
 10
131.1965770385
 20
133.4143844165
 10
131.1862532515
 20
133.3837160633
 10
131.1787540733
 20
133.3530346807
 10
131.1742045656
 20
133.322866442
 10
131.1726800259
 20
133.2937312464
  0
LWPOLYLINE
  5
2D2
100
AcDbEntity
  8
RACCORDO
100
AcDbPolyline
 62
253
  6
CONTINUOUS
 90
13
 70
0
 10
132.6929596055
 20
132.9268745028
 10
132.6703988393
 20
132.9138236944
 10
132.6480509849
 20
132.8973173365
 10
132.6262986369
 20
132.877560666
 10
132.6054806912
 20
132.8547673652
 10
132.5860336431
 20
132.829315315
 10
132.5684451476
 20
132.8017963962
 10
132.5530520773
 20
132.7727541978
 10
132.5400799228
 20
132.7426329743
 10
132.5297561357
 20
132.7119646212
 10
132.5222569575
 20
132.6812832386
 10
132.5177074499
 20
132.6511149999
 10
132.5161829102
 20
132.6219798043
  0
LINE
  5
2D3
100
AcDbEntity
  8
268
100
AcDbLine
 62
253
  6
CONTINUOUS
 10
133.4755061699
 20
134.6924735074
 11
137.6680428528
 21
136.9544432316
  0
LINE
  5
2D4
100
AcDbEntity
  8
268
100
AcDbLine
 62
253
  6
CONTINUOUS
 10
133.6214033302
 20
134.6469751303
 11
137.6680428528
 21
136.7421840776
  0
LINE
  5
2D5
100
AcDbEntity
  8
268
100
AcDbLine
 62
7
  6
CONTINUOUS
 10
133.7411694609
 20
134.587092065
 11
137.336851617
 21
136.4488110007
  0
LINE
  5
2D6
100
AcDbEntity
  8
268
100
AcDbLine
 62
253
  6
CONTINUOUS
 10
131.408095496
 20
132.7219777374
 11
130.2534412104
 21
132.1323094341
  0
LINE
  5
2D7
100
AcDbEntity
  8
268
100
AcDbLine
 62
253
  6
CONTINUOUS
 10
131.8065635024
 20
132.3722176431
 11
130.5009285838
 21
131.7054453142
  0
LINE
  5
2D8
100
AcDbEntity
  8
0
100
AcDbLine
 62
7
  6
CONTINUOUS
 10
137.7156687838
 20
135.988475875
 11
134.3450868065
 21
134.2851333921
  0
LINE
  5
2D9
100
AcDbEntity
  8
268
100
AcDbLine
 62
7
  6
CONTINUOUS
 10
131.2631071546
 20
132.7944719081
 11
130.812955895
 21
132.5672165622
  0
LINE
  5
2DA
100
AcDbEntity
  8
DRAFT
100
AcDbLine
 62
7
  6
CONTINUOUS
 10
149.1993639451
 20
141.4187186048
 11
149.093297928
 21
141.3656855962
  0
LINE
  5
2DB
100
AcDbEntity
  8
DRAFT
100
AcDbLine
 62
7
  6
CONTINUOUS
 10
148.9165212327
 20
141.2772972486
 11
148.8104552155
 21
141.22426424
  0
LINE
  5
2DC
100
AcDbEntity
  8
DRAFT
100
AcDbLine
 62
7
  6
CONTINUOUS
 10
148.6336785202
 20
141.1358758924
 11
148.527612503
 21
141.0828428838
  0
LINE
  5
2DD
100
AcDbEntity
  8
DRAFT
100
AcDbLine
 62
7
  6
CONTINUOUS
 10
148.3508358077
 20
140.9944545361
 11
148.2447697905
 21
140.9414215275
  0
LINE
  5
2DE
100
AcDbEntity
  8
DRAFT
100
AcDbLine
 62
7
  6
CONTINUOUS
 10
148.0679930952
 20
140.8530331799
 11
147.9619270781
 21
140.8000001713
  0
LINE
  5
2DF
100
AcDbEntity
  8
DRAFT
100
AcDbLine
 62
7
  6
CONTINUOUS
 10
147.7851503828
 20
140.7116118236
 11
147.6790843656
 21
140.6585788151
  0
LINE
  5
2E0
100
AcDbEntity
  8
DRAFT
100
AcDbLine
 62
7
  6
CONTINUOUS
 10
149.0591768484
 20
141.2607882566
 11
148.9531108312
 21
141.207755248
  0
LINE
  5
2E1
100
AcDbEntity
  8
DRAFT
100
AcDbLine
 62
7
  6
CONTINUOUS
 10
148.7763341359
 20
141.1193669004
 11
148.6702681187
 21
141.0663338918
  0
LINE
  5
2E2
100
AcDbEntity
  8
DRAFT
100
AcDbLine
 62
7
  6
CONTINUOUS
 10
148.4934914234
 20
140.9779455441
 11
148.3874254062
 21
140.9249125355
  0
LINE
  5
2E3
100
AcDbEntity
  8
DRAFT
100
AcDbLine
 62
7
  6
CONTINUOUS
 10
148.2106487109
 20
140.8365241879
 11
148.1045826938
 21
140.7834911793
  0
LINE
  5
2E4
100
AcDbEntity
  8
DRAFT
100
AcDbLine
 62
7
  6
CONTINUOUS
 10
147.9278059985
 20
140.6951028316
 11
147.8217399813
 21
140.6420698231
  0
LINE
  5
2E5
100
AcDbEntity
  8
RACCORDO
100
AcDbLine
 62
7
  6
CONTINUOUS
 10
147.644963286
 20
140.5536814754
 11
143.3446360804
 21
138.4035178726
  0
LINE
  5
2E6
100
AcDbEntity
  8
RACCORDO
100
AcDbLine
 62
253
  6
CONTINUOUS
 10
132.6929596055
 20
132.9268745028
 11
134.8142799491
 21
133.9875346746
  0
LINE
  5
2E7
100
AcDbEntity
  8
RACCORDO
100
AcDbLine
 62
253
  6
CONTINUOUS
 10
132.8697363008
 20
132.6219798043
 11
134.9910566443
 21
133.682639976
  0
LINE
  5
2E8
100
AcDbEntity
  8
DRAFT
100
AcDbLine
 62
7
  6
CONTINUOUS
 10
148.9153106359
 20
139.6956295528
 11
149.3806796415
 21
139.9283140556
  0
LINE
  5
2E9
100
AcDbEntity
  8
DRAFT
100
AcDbLine
 62
7
  6
CONTINUOUS
 10
149.3087347039
 20
139.8069733059
 11
149.1142803391
 21
139.7097461235
  0
LWPOLYLINE
  5
2EA
100
AcDbEntity
  8
RACCORDO
100
AcDbPolyline
 62
7
  6
CONTINUOUS
 90
5
 70
0
 10
131.6800259882
 20
132.2756637458
 10
131.6657440449
 20
132.2685348059
 10
131.6346952852
 20
132.2519947667
 10
131.6053458608
 20
132.2350658457
 10
131.5776338944
 20
132.2179461837
  0
LINE
  5
2EB
100
AcDbEntity
  8
RACCORDO
100
AcDbLine
 62
7
  6
CONTINUOUS
 10
131.1634889385
 20
131.9828557832
 11
131.398087048
 21
132.0992181749
  0
LINE
  5
2EC
100
AcDbEntity
  8
RACCORDO
100
AcDbLine
 62
253
  6
CONTINUOUS
 10
131.3866460657
 20
131.9683876794
 11
131.6264359805
 21
132.0873225154
  0
LWPOLYLINE
  5
2ED
100
AcDbEntity
  8
0
100
AcDbPolyline
 62
253
  6
CONTINUOUS
 90
32
 70
0
 10
148.9087142376
 20
139.3361612802
 10
148.9178342228
 20
139.3406344553
 10
148.9269658173
 20
139.3448257958
 10
148.9360972719
 20
139.3487283661
 10
148.9452188561
 20
139.3523411037
 10
148.954315768
 20
139.3556507092
 10
148.9633692866
 20
139.3586324396
 10
148.97236993
 20
139.3612782153
 10
148.9813036034
 20
139.363582829
 10
148.9901469021
 20
139.3655274537
 10
148.9988907211
 20
139.3671043582
 10
149.0075229913
 20
139.3683099142
 10
149.0160189019
 20
139.3691335279
 10
149.0243662211
 20
139.3695689852
 10
149.0325598762
 20
139.3696138857
 10
149.0405879278
 20
139.3692647896
 10
149.0484369527
 20
139.368518201
 10
149.0561046894
 20
139.3673701835
 10
149.0635948479
 20
139.3658159884
 10
149.0708991867
 20
139.3638510266
 10
149.0780072354
 20
139.361470723
 10
149.0849167232
 20
139.3586687549
 10
149.0916198217
 20
139.3554387711
 10
149.0981040162
 20
139.3517771937
 10
149.1043588953
 20
139.3476812403
 10
149.1103756355
 20
139.3431450395
 10
149.1161436136
 20
139.3381653507
 10
149.1216499799
 20
139.332743562
 10
149.12688615
 20
139.3268748476
 10
149.1318429964
 20
139.3205562313
 10
149.1365073716
 20
139.3137922511
 10
149.1400934193
 20
139.3079365883
  0
LINE
  5
2EE
100
AcDbEntity
  8
RACCORDO
100
AcDbLine
 62
7
  6
CONTINUOUS
 10
131.7965560033
 20
132.3325434734
 11
131.6800271786
 21
132.2756612136
  0
LINE
  5
2EF
100
AcDbEntity
  8
RACCORDO
100
AcDbLine
 62
7
  6
CONTINUOUS
 10
131.8065635024
 20
132.3374294692
 11
131.7965560033
 21
132.3325434734
  0
LWPOLYLINE
  5
2F0
100
AcDbEntity
  8
0
100
AcDbPolyline
 62
253
  6
CONTINUOUS
 90
52
 70
0
 10
148.9501356315
 20
139.1930008832
 10
148.9556225138
 20
139.1956770432
 10
148.9611477441
 20
139.1980993876
 10
148.9667113226
 20
139.2002679165
 10
148.9723212806
 20
139.2021920309
 10
148.9779695866
 20
139.2038623298
 10
148.9836321464
 20
139.2052506098
 10
148.9893096344
 20
139.2063544417
 10
148.9950013761
 20
139.2071762548
 10
149.0006812531
 20
139.2076951336
 10
149.0063494515
 20
139.2079081289
 10
149.0120057853
 20
139.2078181898
 10
149.0176235776
 20
139.2074132487
 10
149.0231998269
 20
139.2066914
 10
149.0287375347
 20
139.2056545493
 10
149.0342190287
 20
139.2042963447
 10
149.0396408277
 20
139.2026178631
 10
149.0450064129
 20
139.2006180275
 10
149.0503085559
 20
139.1982872556
 10
149.0555489145
 20
139.1956259521
 10
149.0607258308
 20
139.1926337121
 10
149.0658271028
 20
139.1892997392
 10
149.0708548347
 20
139.1856226345
 10
149.0758069223
 20
139.1816037967
 10
149.0806648512
 20
139.177236625
 10
149.0854291691
 20
139.1725195752
 10
149.0900993282
 20
139.1674541915
 10
149.0946551713
 20
139.1620385049
 10
149.0990966032
 20
139.1562712914
 10
149.1034237191
 20
139.1501537751
 10
149.1076166465
 20
139.1436876599
 10
149.1116754398
 20
139.1368712924
 10
149.1156000447
 20
139.129706326
 10
149.119370426
 20
139.1221994239
 10
149.1229867612
 20
139.1143476905
 10
149.1264488727
 20
139.1061540214
 10
149.1297361924
 20
139.0976337671
 10
149.1328482062
 20
139.0887843274
 10
149.1357854281
 20
139.0796083026
 10
149.1385288322
 20
139.0701288433
 10
149.1410776753
 20
139.0603426072
 10
149.1434327006
 20
139.0502529366
 10
149.1455771118
 20
139.0398930101
 10
149.1475095907
 20
139.0292603883
 10
149.1492314555
 20
139.0183575106
 10
149.150729865
 20
139.0072248735
 10
149.1520033088
 20
138.9958597502
 10
149.1530532973
 20
138.9842648676
 10
149.1538715212
 20
138.9724889019
 10
149.1544552106
 20
138.9605480786
 10
149.1548071353
 20
138.9484261724
 10
149.1549272953
 20
138.936123183
  0
LINE
  5
2F1
100
AcDbEntity
  8
0
100
AcDbLine
 62
253
  6
CONTINUOUS
 10
141.1170503872
 20
137.4593889406
 11
138.0246003373
 21
135.9572333424
  0
LINE
  5
2F2
100
AcDbEntity
  8
RACCORDO
100
AcDbLine
 62
253
  6
CONTINUOUS
 10
131.784442825
 20
132.2966718648
 11
131.803071509
 21
132.3056378677
  0
LINE
  5
2F3
100
AcDbEntity
  8
RACCORDO
100
AcDbLine
 62
253
  6
CONTINUOUS
 10
134.2839498632
 20
131.9039501856
 11
133.576843082
 21
131.5655133247
  0
LWPOLYLINE
  5
2F4
100
AcDbEntity
  8
RACCORDO
100
AcDbPolyline
 62
253
  6
CONTINUOUS
 90
5
 70
0
 10
131.6803239247
 20
132.2758063514
 10
131.6872753682
 20
132.2790369473
 10
131.7178940647
 20
132.2897346097
 10
131.7503954452
 20
132.2956332838
 10
131.784442825
 20
132.2966718648
  0
LWPOLYLINE
  5
2F5
100
AcDbEntity
  8
RACCORDO
100
AcDbPolyline
 62
253
  6
CONTINUOUS
 90
4
 70
0
 10
131.8247095468
 20
132.3043506515
 10
131.8225163217
 20
132.303342791
 10
131.8105281972
 20
132.2991903684
 10
131.7977930793
 20
132.2969590401
  0
LWPOLYLINE
  5
2F6
100
AcDbEntity
  8
RACCORDO
100
AcDbPolyline
 62
253
  6
CONTINUOUS
 90
8
 70
0
 10
131.3980870774
 20
132.0992181895
 10
131.4138170078
 20
132.1061927727
 10
131.44574642
 20
132.1157994503
 10
131.4795885296
 20
132.1203149643
 10
131.5149721454
 20
132.1196898837
 10
131.5515093316
 20
132.1139312274
 10
131.5887997015
 20
132.1031022597
 10
131.6264345507
 20
132.0873218061
  0
LWPOLYLINE
  5
2F7
100
AcDbEntity
  8
RACCORDO
100
AcDbPolyline
 62
253
  6
CONTINUOUS
 90
13
 70
0
 10
132.8697363008
 20
132.6219798043
 10
132.8457299883
 20
132.6114221943
 10
132.8190282226
 20
132.6024252228
 10
132.7900249795
 20
132.5951744963
 10
132.7590952724
 20
132.5898214042
 10
132.7268059365
 20
132.586519024
 10
132.6939288111
 20
132.5853690913
 10
132.6611070797
 20
132.5863868866
 10
132.6288369091
 20
132.5895498174
 10
132.597687185
 20
132.5948008924
 10
132.5681982894
 20
132.602046162
 10
132.5408738468
 20
132.6111588756
 10
132.5161829102
 20
132.6219798043
  0
LWPOLYLINE
  5
2F8
100
AcDbEntity
  8
RACCORDO
100
AcDbPolyline
 62
253
  6
CONTINUOUS
 90
13
 70
0
 10
132.8697363008
 20
132.2706658322
 10
132.8451499627
 20
132.2598850123
 10
132.8179596055
 20
132.2508010043
 10
132.7886304636
 20
132.2435692383
 10
132.7576643668
 20
132.2383134515
 10
132.7255911535
 20
132.2351235721
 10
132.6929596055
 20
132.2340541798
 10
132.6603280574
 20
132.2351235721
 10
132.6282548442
 20
132.2383134515
 10
132.5972887474
 20
132.2435692383
 10
132.5679596055
 20
132.2508010043
 10
132.5407692482
 20
132.2598850123
 10
132.5161829102
 20
132.2706658322
  0
LWPOLYLINE
  5
2F9
100
AcDbEntity
  8
RACCORDO
100
AcDbPolyline
 62
253
  6
CONTINUOUS
 90
13
 70
0
 10
133.576843082
 20
131.8742192228
 10
133.5522567439
 20
131.8634384029
 10
133.5250663867
 20
131.8543543949
 10
133.4957372448
 20
131.8471226288
 10
133.464771148
 20
131.8418668421
 10
133.4326979347
 20
131.8386769627
 10
133.4000663867
 20
131.8376075704
 10
133.3674348386
 20
131.8386769627
 10
133.3353616254
 20
131.8418668421
 10
133.3043955286
 20
131.8471226288
 10
133.2750663867
 20
131.8543543949
 10
133.2478760294
 20
131.8634384029
 10
133.2232896914
 20
131.8742192228
  0
LINE
  5
2FA
100
AcDbEntity
  8
0
100
AcDbLine
 62
253
  6
CONTINUOUS
 10
147.7709000625
 20
139.7059561188
 11
148.5093077172
 21
140.0250359087
  0
LWPOLYLINE
  5
2FB
100
AcDbEntity
  8
RACCORDO
100
AcDbPolyline
 62
253
  6
CONTINUOUS
 90
16
 70
0
 10
133.7157962952
 20
131.3203898743
 10
133.6796460011
 20
131.305036471
 10
133.6414051753
 20
131.291880237
 10
133.6010738176
 20
131.280921172
 10
133.5581809965
 20
131.2721076444
 10
133.5131976437
 20
131.2654912858
 10
133.4675365542
 20
131.2612269921
 10
133.4212213864
 20
131.2593702987
 10
133.3742284821
 20
131.2598656701
 10
133.3278996612
 20
131.2627013952
 10
133.2822064914
 20
131.2679345866
 10
133.237177405
 20
131.2755081317
 10
133.1942395202
 20
131.2852389817
 10
133.1538685427
 20
131.2970661204
 10
133.1155887667
 20
131.311050564
 10
133.0794001922
 20
131.3271923126
  0
LWPOLYLINE
  5
2FC
100
AcDbEntity
  8
RACCORDO
100
AcDbPolyline
 62
253
  6
CONTINUOUS
 90
16
 70
0
 10
133.576843082
 20
131.5655133247
 10
133.5571948418
 20
131.5574068559
 10
133.5358626278
 20
131.5503849661
 10
133.5130990742
 20
131.5445225361
 10
133.4891814067
 20
131.5398888684
 10
133.4643708219
 20
131.5365196515
 10
133.4389048835
 20
131.5344235568
 10
133.4130802942
 20
131.5336218196
 10
133.3871598141
 20
131.5341213931
 10
133.3613287335
 20
131.5359084418
 10
133.3358486
 20
131.5389778145
 10
133.3110184941
 20
131.5433083632
 10
133.2870814052
 20
131.5488603905
 10
133.2643005389
 20
131.5555875375
 10
133.2429522202
 20
131.5634309831
 10
133.2232896914
 20
131.572315763
  0
LINE
  5
2FD
100
AcDbEntity
  8
RACCORDO
100
AcDbLine
 62
253
  6
CONTINUOUS
 10
134.4046713528
 20
131.9629455443
 11
134.4229030764
 21
131.9702223484
  0
LINE
  5
2FE
100
AcDbEntity
  8
268
100
AcDbLine
 62
7
  6
CONTINUOUS
 10
130.5009285838
 20
131.6810498089
 11
131.0664072463
 21
131.8787525939
  0
LWPOLYLINE
  5
2FF
100
AcDbEntity
  8
RACCORDO
100
AcDbPolyline
 62
7
  6
CONTINUOUS
 90
18
 70
0
 10
152.6166307324
 20
95.0602529042
 10
152.6535725855
 20
95.0589612681
 10
152.6905922504
 20
95.0516488692
 10
152.7287514459
 20
95.0381046674
 10
152.7677999279
 20
95.0185804264
 10
152.8059591234
 20
94.9939654327
 10
152.8429787883
 20
94.9642581667
 10
152.8791091666
 20
94.9294601479
 10
152.9133224176
 20
94.8904652223
 10
152.9457726016
 20
94.8468812061
 10
152.9763056583
 20
94.7991002829
 10
153.0034315656
 20
94.7491928495
 10
153.0269255701
 20
94.6972804456
 10
153.0470124253
 20
94.6432415314
 10
153.0628763698
 20
94.5887818846
 10
153.0742454831
 20
94.5344700977
 10
153.0813916856
 20
94.4797375781
 10
153.0843149774
 20
94.4245843259
  0
LINE
  5
300
100
AcDbEntity
  8
RACCORDO
100
AcDbLine
 62
7
  6
CONTINUOUS
 10
143.7265297334
 20
86.9400416374
 11
146.3736418161
 21
85.616485596
  0
LINE
  5
301
100
AcDbEntity
  8
DRAFT
100
AcDbLine
 62
7
  6
CONTINUOUS
 10
143.7628130035
 20
87.380980212
 11
146.7273567668
 21
85.8987083304
  0
LINE
  5
302
100
AcDbEntity
  8
RACCORDO
100
AcDbLine
 62
253
  6
CONTINUOUS
 10
147.7303839098
 20
85.7826164936
 11
147.7366563752
 21
85.7794802609
  0
LINE
  5
303
100
AcDbEntity
  8
DRAFT
100
AcDbLine
 62
7
  6
CONTINUOUS
 10
143.804601567
 20
87.8888227948
 11
147.1949988612
 21
86.1936241478
  0
LINE
  5
304
100
AcDbEntity
  8
RACCORDO
100
AcDbLine
 62
253
  6
CONTINUOUS
 10
147.7214913323
 20
85.9423928682
 11
148.2669864611
 21
85.6696453038
  0
LINE
  5
305
100
AcDbEntity
  8
RACCORDO
100
AcDbLine
 62
7
  6
CONTINUOUS
 10
147.7214913323
 20
85.9460130178
 11
148.2904015124
 21
85.6615579278
  0
LINE
  5
306
100
AcDbEntity
  8
DRAFT
100
AcDbLine
 62
7
  6
CONTINUOUS
 10
143.9326881956
 20
89.4454172037
 11
147.1949988612
 21
87.8142618709
  0
LWPOLYLINE
  5
307
100
AcDbEntity
  8
RACCORDO
100
AcDbPolyline
 62
253
  6
CONTINUOUS
 90
8
 70
0
 10
144.6019968468
 20
84.4741089553
 10
144.5892604278
 20
84.4817857261
 10
144.5738673574
 20
84.4954348541
 10
144.560895203
 20
84.5125839231
 10
144.5505714159
 20
84.5329284892
 10
144.5430722377
 20
84.5561106936
 10
144.53852273
 20
84.5817294247
 10
144.5369981904
 20
84.6093400806
  0
LWPOLYLINE
  5
308
100
AcDbEntity
  8
RACCORDO
100
AcDbPolyline
 62
253
  6
CONTINUOUS
 90
8
 70
0
 10
145.9453127409
 20
83.8024511984
 10
145.9327633121
 20
83.810034284
 10
145.9173702417
 20
83.823683412
 10
145.9043980872
 20
83.840832481
 10
145.8940743001
 20
83.8611770471
 10
145.886575122
 20
83.8843592515
 10
145.8820256143
 20
83.9099779825
 10
145.8805010746
 20
83.9375886385
  0
LINE
  5
309
100
AcDbEntity
  8
268
100
AcDbLine
 62
7
  6
CONTINUOUS
 10
115.5456201617
 20
139.15870402
 11
115.5456201617
 21
138.9655733345
  0
LINE
  5
30A
100
AcDbEntity
  8
268
100
AcDbLine
 62
7
  6
CONTINUOUS
 10
115.8346336146
 20
140.0563777025
 11
115.8346336146
 21
140.5087086781
  0
LINE
  5
30B
100
AcDbEntity
  8
268
100
AcDbLine
 62
7
  6
CONTINUOUS
 10
116.7374171225
 20
140.4134201198
 11
116.7374171225
 21
140.160048726
  0
LINE
  5
30C
100
AcDbEntity
  8
268
100
AcDbLine
 62
7
  6
CONTINUOUS
 10
117.4486377306
 20
139.2493756445
 11
117.4486377306
 21
139.8865452032
  0
LINE
  5
30D
100
AcDbEntity
  8
RACCORDO
100
AcDbLine
 62
7
  6
CONTINUOUS
 10
137.7643070363
 20
140.2170127334
 11
137.2676381796
 21
139.709648863
  0
LWPOLYLINE
  5
30E
100
AcDbEntity
  8
RACCORDO
100
AcDbPolyline
 62
7
  6
CONTINUOUS
 90
8
 70
0
 10
131.5031712249
 20
132.1676393719
 10
131.4815590905
 20
132.1524426997
 10
131.4612305769
 20
132.1383018347
 10
131.4431278296
 20
132.1260724052
 10
131.4273218626
 20
132.1158863188
 10
131.413563373
 20
132.1075967553
 10
131.4024930178
 20
132.1014815338
 10
131.397977973
 20
132.0991771972
  0
LWPOLYLINE
  5
30F
100
AcDbEntity
  8
RACCORDO
100
AcDbPolyline
 62
253
  6
CONTINUOUS
 90
7
 70
0
 10
134.2839498632
 20
132.2277726134
 10
134.3055115029
 20
132.2400657824
 10
134.3236795188
 20
132.253660961
 10
134.338143051
 20
132.268325532
 10
134.3486546244
 20
132.2838085804
 10
134.3550343832
 20
132.299845187
 10
134.3571731679
 20
132.316160961
  0
LWPOLYLINE
  5
310
100
AcDbEntity
  8
RACCORDO
100
AcDbPolyline
 62
7
  6
CONTINUOUS
 90
13
 70
0
 10
136.8295459701
 20
131.4918367151
 10
136.806824393
 20
131.4798207683
 10
136.7858849331
 20
131.4672029177
 10
136.7667275902
 20
131.4539831633
 10
136.7492852953
 20
131.4400994665
 10
136.7336251175
 20
131.4256138658
 10
136.7199482643
 20
131.4107124775
 10
136.7082803278
 20
131.3953899363
 10
136.698595716
 20
131.3796516076
 10
136.6910188601
 20
131.3636997028
 10
136.6855769579
 20
131.3475314661
 10
136.6822428117
 20
131.3311496534
 10
136.6810572448
 20
131.3140492474
  0
LINE
  5
311
100
AcDbEntity
  8
RACCORDO
100
AcDbLine
 62
253
  6
CONTINUOUS
 10
134.3016227721
 20
131.9130443203
 11
134.2839498632
 21
131.9039501856
  0
LINE
  5
312
100
AcDbEntity
  8
0
100
AcDbLine
 62
253
  6
CONTINUOUS
 10
148.1956425001
 20
138.9733837779
 11
148.9087143578
 21
139.3361610731
  0
LINE
  5
313
100
AcDbEntity
  8
0
100
AcDbLine
 62
253
  6
CONTINUOUS
 10
148.2691744233
 20
138.8465599704
 11
148.9501356315
 21
139.1930008832
  0
LINE
  5
314
100
AcDbEntity
  8
0
100
AcDbLine
 62
253
  6
CONTINUOUS
 10
139.1643801322
 20
133.9914039866
 11
148.2694269811
 21
138.6236254903
  0
LINE
  5
315
100
AcDbEntity
  8
0
100
AcDbLine
 62
253
  6
CONTINUOUS
 10
138.9534823573
 20
133.8535632623
 11
135.3920320008
 21
132.0416654665
  0
LINE
  5
316
100
AcDbEntity
  8
0
100
AcDbLine
 62
253
  6
CONTINUOUS
 10
143.413400833
 20
134.5107699791
 11
148.6835790419
 21
137.1919859787
  0
LINE
  5
317
100
AcDbEntity
  8
RACCORDO
100
AcDbLine
 62
7
  6
CONTINUOUS
 10
143.122784628
 20
134.0000353255
 11
138.5265905503
 21
131.7019382867
  0
LINE
  5
318
100
AcDbEntity
  8
RACCORDO
100
AcDbLine
 62
7
  6
CONTINUOUS
 10
135.827242187
 20
131.8240603733
 11
142.0922451716
 21
134.93154804
  0
LINE
  5
319
100
AcDbEntity
  8
RACCORDO
100
AcDbLine
 62
7
  6
CONTINUOUS
 10
136.8295459701
 20
131.4918367151
 11
142.5169336829
 21
134.3029607981
  0
LINE
  5
31A
100
AcDbEntity
  8
RACCORDO
100
AcDbLine
 62
253
  6
CONTINUOUS
 10
134.4229030764
 20
131.6588267352
 11
133.7157962952
 21
131.3203898743
  0
LINE
  5
31B
100
AcDbEntity
  8
RACCORDO
100
AcDbLine
 62
253
  6
CONTINUOUS
 10
148.2893370712
 20
85.6561025166
 11
148.2669864611
 21
85.6696453038
  0
LINE
  5
31C
100
AcDbEntity
  8
268
100
AcDbLine
 62
7
  6
CONTINUOUS
 10
118.5154686427
 20
139.787956894
 11
118.5154686427
 21
141.5200077015
  0
LINE
  5
31D
100
AcDbEntity
  8
268
100
AcDbLine
 62
7
  6
CONTINUOUS
 10
119.218461597
 20
141.6553291993
 11
119.218461597
 21
141.3944002229
  0
LINE
  5
31E
100
AcDbEntity
  8
268
100
AcDbLine
 62
7
  6
CONTINUOUS
 10
132.4949056421
 20
134.4802898527
 11
132.15194304
 21
134.0628712506
  0
LINE
  5
31F
100
AcDbEntity
  8
RACCORDO
100
AcDbLine
 62
7
  6
CONTINUOUS
 10
140.8755768735
 20
138.6613778148
 11
140.3789080168
 21
138.1540139444
  0
LINE
  5
320
100
AcDbEntity
  8
0
100
AcDbLine
 62
253
  6
CONTINUOUS
 10
148.7677771018
 20
134.4986251206
 11
149.5099233814
 21
134.8828826055
  0
LINE
  5
321
100
AcDbEntity
  8
0
100
AcDbLine
 62
253
  6
CONTINUOUS
 10
148.6835790419
 20
133.9792891968
 11
149.7257253215
 21
134.5188762288
  0
LINE
  5
322
100
AcDbEntity
  8
0
100
AcDbLine
 62
7
  6
CONTINUOUS
 10
144.1039408491
 20
132.3184066975
 11
140.6987972888
 21
130.6158349174
  0
LINE
  5
323
100
AcDbEntity
  8
DRAFT
100
AcDbLine
 62
7
  6
CONTINUOUS
 10
139.7809585254
 20
131.0747542991
 11
143.4763380186
 21
132.8434442183
  0
LINE
  5
324
100
AcDbEntity
  8
RACCORDO
100
AcDbLine
 62
7
  6
CONTINUOUS
 10
145.2564456865
 20
133.3494477825
 11
140.134511916
 21
130.8979776038
  0
LINE
  5
325
100
AcDbEntity
  8
268
100
AcDbLine
 62
7
  6
CONTINUOUS
 10
120.6932256457
 20
139.2619437622
 11
120.6932256457
 21
138.047210376
  0
LINE
  5
326
100
AcDbEntity
  8
268
100
AcDbLine
 62
253
  6
CONTINUOUS
 10
120.7810936113
 20
139.1554348053
 11
120.7810936113
 21
137.9404799393
  0
LWPOLYLINE
  5
327
100
AcDbEntity
  8
RACCORDO
100
AcDbPolyline
 62
253
  6
CONTINUOUS
 90
5
 70
0
 10
134.4343481259
 20
132.65725111
 10
134.4098977904
 20
132.6220358542
 10
134.387375552
 20
132.5855151935
 10
134.3666572339
 20
132.5474174275
 10
134.3478670129
 20
132.5080142566
  0
LINE
  5
328
100
AcDbEntity
  8
RACCORDO
100
AcDbLine
 62
7
  6
CONTINUOUS
 10
135.0281059432
 20
133.2901827892
 11
135.0068162574
 21
133.2602472347
  0
LINE
  5
329
100
AcDbEntity
  8
RACCORDO
100
AcDbLine
 62
253
  6
CONTINUOUS
 10
134.4607265585
 20
132.691160961
 11
134.4343481259
 21
132.65725111
  0
LWPOLYLINE
  5
32A
100
AcDbEntity
  8
RACCORDO
100
AcDbPolyline
 62
7
  6
CONTINUOUS
 90
13
 70
0
 10
134.4764689013
 20
132.6200613155
 10
134.4591215288
 20
132.5978387634
 10
134.4423894533
 20
132.5737135045
 10
134.4265707244
 20
132.547979606
 10
134.4118959269
 20
132.5208928119
 10
134.3986560224
 20
132.4929057758
 10
134.3871511168
 20
132.464682166
 10
134.3774939764
 20
132.4366528682
 10
134.3697431205
 20
132.4092358629
 10
134.3639558775
 20
132.3830988013
 10
134.3600495158
 20
132.3587074813
 10
134.3578540941
 20
132.3363038279
 10
134.3571731679
 20
132.316160961
  0
LINE
  5
32B
100
AcDbEntity
  8
RACCORDO
100
AcDbLine
 62
253
  6
CONTINUOUS
 10
134.4607265585
 20
132.691160961
 11
134.9910566443
 21
133.3313260039
  0
LINE
  5
32C
100
AcDbEntity
  8
RACCORDO
100
AcDbLine
 62
7
  6
CONTINUOUS
 10
134.4764689013
 20
132.6200613155
 11
135.0067989871
 21
133.2602263584
  0
LWPOLYLINE
  5
32D
100
AcDbEntity
  8
0
100
AcDbPolyline
 62
253
  6
CONTINUOUS
 90
22
 70
0
 10
149.7257253215
 20
134.5188762288
 10
149.7332783717
 20
134.5229343979
 10
149.7405276131
 20
134.5271300936
 10
149.7474629767
 20
134.5314576543
 10
149.7540751931
 20
134.5359114989
 10
149.7603546287
 20
134.5404853507
 10
149.7662914976
 20
134.545172178
 10
149.77187735
 20
134.5499652751
 10
149.777104917
 20
134.5548583679
 10
149.7819670755
 20
134.5598447928
 10
149.7864571877
 20
134.5649177536
 10
149.7905690833
 20
134.5700702912
 10
149.7942971055
 20
134.5752953207
 10
149.7976361467
 20
134.5805856779
 10
149.8005816543
 20
134.5859341431
 10
149.8031296066
 20
134.5913334127
 10
149.8052765193
 20
134.5967761063
 10
149.8070194526
 20
134.6022547752
 10
149.8083560218
 20
134.607761925
 10
149.8092843977
 20
134.6132900229
 10
149.8098033101
 20
134.6188315079
 10
149.8099233814
 20
134.6230732212
  0
LINE
  5
32E
100
AcDbEntity
  8
RACCORDO
100
AcDbLine
 62
7
  6
CONTINUOUS
 10
143.0561348754
 20
128.3785422624
 11
148.6783830414
 21
131.2222361188
  0
LINE
  5
32F
100
AcDbEntity
  8
RACCORDO
100
AcDbLine
 62
7
  6
CONTINUOUS
 10
148.0725320963
 20
131.5251615914
 11
143.4763380186
 21
129.2270645525
  0
LINE
  5
330
100
AcDbEntity
  8
RACCORDO
100
AcDbLine
 62
7
  6
CONTINUOUS
 10
149.0284759013
 20
131.0028829141
 11
149.4990863736
 21
131.228127439
  0
LWPOLYLINE
  5
331
100
AcDbEntity
  8
RACCORDO
100
AcDbPolyline
 62
7
  6
CONTINUOUS
 90
12
 70
0
 10
148.0725320963
 20
131.5251615914
 10
148.0958182295
 20
131.5358446625
 10
148.1188098445
 20
131.5445670641
 10
148.1415069411
 20
131.5513287961
 10
148.1640039195
 20
131.5561419868
 10
148.1862063796
 20
131.558994508
 10
148.2078311213
 20
131.5598499746
 10
148.2288707442
 20
131.5586828048
 10
148.2493326486
 20
131.5555185806
 10
148.2689558359
 20
131.5503976626
 10
148.2877295623
 20
131.5432949861
 10
148.2961289292
 20
131.5393480811
  0
LWPOLYLINE
  5
332
100
AcDbEntity
  8
RACCORDO
100
AcDbPolyline
 62
7
  6
CONTINUOUS
 90
12
 70
0
 10
149.4990863736
 20
131.228127439
 10
149.5451011451
 20
131.248274671
 10
149.5904956974
 20
131.2645760566
 10
149.6352700308
 20
131.2770315959
 10
149.6796059371
 20
131.2856611819
 10
149.7233216243
 20
131.2904449216
 10
149.7658717164
 20
131.2913231352
 10
149.807241611
 20
131.2882468958
 10
149.8474459104
 20
131.2812651303
 10
149.8859830447
 20
131.2704649399
 10
149.9228321285
 20
131.2557984889
 10
149.9339239395
 20
131.2504724846
  0
LINE
  5
333
100
AcDbEntity
  8
DRAFT
100
AcDbLine
 62
7
  6
CONTINUOUS
 10
153.0843149774
 20
92.7828083358
 11
153.8180924324
 21
92.4159196083
  0
LINE
  5
334
100
AcDbEntity
  8
DRAFT
100
AcDbLine
 62
7
  6
CONTINUOUS
 10
148.8857048947
 20
95.5859593486
 11
150.1950775121
 21
94.9312730398
  0
LWPOLYLINE
  5
335
100
AcDbEntity
  8
RACCORDO
100
AcDbPolyline
 62
253
  6
CONTINUOUS
 90
18
 70
0
 10
131.6440680803
 20
132.1454223088
 10
131.6475556998
 20
132.1556397279
 10
131.6515251697
 20
132.1660511428
 10
131.6560465584
 20
132.176489408
 10
131.6612026158
 20
132.1868974639
 10
131.667050011
 20
132.1972225961
 10
131.673609711
 20
132.2073967074
 10
131.6808934031
 20
132.2173703077
 10
131.6889066793
 20
132.2271116404
 10
131.6976040105
 20
132.2365398349
 10
131.706917474
 20
132.2455732152
 10
131.7168031078
 20
132.2541902766
 10
131.7271904805
 20
132.2623739389
 10
131.738021744
 20
132.270117976
 10
131.749260973
 20
132.2774371282
 10
131.7608166929
 20
132.2843171268
 10
131.7725716106
 20
132.2907308377
 10
131.7844406643
 20
132.2966740781
  0
LWPOLYLINE
  5
336
100
AcDbEntity
  8
RACCORDO
100
AcDbPolyline
 62
253
  6
CONTINUOUS
 90
5
 70
0
 10
131.6264375596
 20
132.0873346771
 10
131.6287325116
 20
132.093937743
 10
131.6309954997
 20
132.1010996781
 10
131.6332833371
 20
132.1088335691
 10
131.6382215283
 20
132.1261856742
  0
LWPOLYLINE
  5
337
100
AcDbEntity
  8
RACCORDO
100
AcDbPolyline
 62
253
  6
CONTINUOUS
 90
12
 70
0
 10
132.8697363008
 20
132.2706658322
 10
132.8567913664
 20
132.2413858098
 10
132.8410452454
 20
132.2140315197
 10
132.8227469756
 20
132.1890812778
 10
132.8021760643
 20
132.1669622932
 10
132.7796837589
 20
132.1480934696
 10
132.7557003873
 20
132.1328520011
 10
132.7306569182
 20
132.1215067262
 10
132.7049663201
 20
132.114239905
 10
132.6790706657
 20
132.1111762914
 10
132.6534148377
 20
132.1123679062
 10
132.6434756711
 20
132.1140024503
  0
LWPOLYLINE
  5
338
100
AcDbEntity
  8
RACCORDO
100
AcDbPolyline
 62
253
  6
CONTINUOUS
 90
12
 70
0
 10
133.4000663867
 20
132.1608308751
 10
133.3870170431
 20
132.1313448914
 10
133.3711662791
 20
132.1038757702
 10
133.3527853057
 20
132.0788935158
 10
133.3321886265
 20
132.0568255814
 10
133.3097286563
 20
132.0380495556
 10
133.2857896914
 20
132.0228867013
 10
133.2607813342
 20
132.0115964592
 10
133.2351314846
 20
132.0043720085
 10
133.2092790186
 20
132.0013369615
 10
133.1836662791
 20
132.0025432487
 10
133.1725889388
 20
132.0044143337
  0
LWPOLYLINE
  5
339
100
AcDbEntity
  8
RACCORDO
100
AcDbPolyline
 62
7
  6
CONTINUOUS
 90
10
 70
0
 10
144.6021559889
 20
126.9236593072
 10
144.5907632566
 20
126.9176026341
 10
144.5636776157
 20
126.8998875224
 10
144.5390466826
 20
126.8787622132
 10
144.5172951827
 20
126.8545429374
 10
144.4987873069
 20
126.8275549513
 10
144.483883129
 20
126.7981938066
 10
144.4729228536
 20
126.7669701382
 10
144.4661649258
 20
126.7344468538
 10
144.463775044
 20
126.7001012044
  0
LINE
  5
33A
100
AcDbEntity
  8
RACCORDO
100
AcDbLine
 62
7
  6
CONTINUOUS
 10
144.6019714868
 20
126.9235673096
 11
146.7232918303
 21
127.9842274813
  0
LINE
  5
33B
100
AcDbEntity
  8
RACCORDO
100
AcDbLine
 62
253
  6
CONTINUOUS
 10
144.7137748857
 20
126.9164668628
 11
146.8350952292
 21
127.9771270345
  0
LINE
  5
33C
100
AcDbEntity
  8
RACCORDO
100
AcDbLine
 62
7
  6
CONTINUOUS
 10
149.0299000881
 20
130.0666631835
 11
143.0561348754
 21
127.1736214297
  0
LINE
  5
33D
100
AcDbEntity
  8
RACCORDO
100
AcDbLine
 62
253
  6
CONTINUOUS
 10
145.1656023211
 20
125.65947587
 11
145.1002154723
 21
125.6281802857
  0
LINE
  5
33E
100
AcDbEntity
  8
RACCORDO
100
AcDbLine
 62
7
  6
CONTINUOUS
 10
146.7326931355
 20
127.9886859145
 11
146.7231302002
 21
127.9841464713
  0
LWPOLYLINE
  5
33F
100
AcDbEntity
  8
RACCORDO
100
AcDbPolyline
 62
253
  6
CONTINUOUS
 90
7
 70
0
 10
146.7233171903
 20
127.9842401565
 10
146.7281692669
 20
127.9864938091
 10
146.7476163149
 20
127.9924988112
 10
146.7684342606
 20
127.9944741663
 10
146.7901866086
 20
127.9924784888
 10
146.812534463
 20
127.9866369923
 10
146.8350952292
 20
127.9771270345
  0
LWPOLYLINE
  5
340
100
AcDbEntity
  8
RACCORDO
100
AcDbPolyline
 62
253
  6
CONTINUOUS
 90
7
 70
0
 10
144.6021559889
 20
126.9236593072
 10
144.6068489233
 20
126.9258336373
 10
144.6262959713
 20
126.9318386394
 10
144.647113917
 20
126.9338139945
 10
144.6688662651
 20
126.9318183171
 10
144.6912141194
 20
126.9259768205
 10
144.7137748857
 20
126.9164668628
  0
LINE
  5
341
100
AcDbEntity
  8
RACCORDO
100
AcDbLine
 62
7
  6
CONTINUOUS
 10
147.9639334895
 20
127.4757100507
 11
152.6632868885
 21
129.6460271815
  0
LWPOLYLINE
  5
342
100
AcDbEntity
  8
RACCORDO
100
AcDbPolyline
 62
253
  6
CONTINUOUS
 90
13
 70
0
 10
146.2340544652
 20
125.58850675
 10
146.2094681272
 20
125.5777259301
 10
146.1822777699
 20
125.5686419221
 10
146.152948628
 20
125.561410156
 10
146.1219825312
 20
125.5561543693
 10
146.089909318
 20
125.5529644899
 10
146.0572777699
 20
125.5518950976
 10
146.0246462219
 20
125.5529644899
 10
145.9925730086
 20
125.5561543693
 10
145.9616069118
 20
125.561410156
 10
145.9322777699
 20
125.5686419221
 10
145.9050874127
 20
125.5777259301
 10
145.8805010746
 20
125.58850675
  0
LWPOLYLINE
  5
343
100
AcDbEntity
  8
RACCORDO
100
AcDbPolyline
 62
253
  6
CONTINUOUS
 90
13
 70
0
 10
146.2340544652
 20
125.939820722
 10
146.2093635287
 20
125.9289997934
 10
146.182039086
 20
125.9198870797
 10
146.1525501904
 20
125.9126418102
 10
146.1214004663
 20
125.9073907352
 10
146.0891302957
 20
125.9042278044
 10
146.0563085644
 20
125.903210009
 10
146.0234314389
 20
125.9043599418
 10
145.9911421031
 20
125.9076623219
 10
145.9602123959
 20
125.9130154141
 10
145.9312091529
 20
125.9202661406
 10
145.9045073871
 20
125.929263112
 10
145.8805010746
 20
125.939820722
  0
LWPOLYLINE
  5
344
100
AcDbEntity
  8
RACCORDO
100
AcDbPolyline
 62
253
  6
CONTINUOUS
 90
4
 70
0
 10
147.7872212408
 20
125.2880632662
 10
147.7689894282
 20
125.2807864337
 10
147.7511039814
 20
125.276549757
 10
147.7338641722
 20
125.275424127
  0
LINE
  5
345
100
AcDbEntity
  8
DRAFT
100
AcDbLine
 62
7
  6
CONTINUOUS
 10
146.7273567668
 20
123.8389521192
 11
147.1949988612
 21
123.995633023
  0
LWPOLYLINE
  5
346
100
AcDbEntity
  8
RACCORDO
100
AcDbPolyline
 62
253
  6
CONTINUOUS
 90
12
 70
0
 10
148.0662338317
 20
124.5047045468
 10
148.1069588532
 20
124.5163958335
 10
148.1184300322
 20
124.5197550446
 10
148.1304826702
 20
124.5233520811
 10
148.1430938121
 20
124.5271949111
 10
148.1562683731
 20
124.5314222623
 10
148.1699914772
 20
124.5360143357
 10
148.1842780004
 20
124.5409909303
 10
148.1991774852
 20
124.5465501709
 10
148.214706446
 20
124.5527580992
 10
148.2308483685
 20
124.5595486735
 10
148.2476032526
 20
124.5669218938
  0
LINE
  5
347
100
AcDbEntity
  8
268
100
AcDbLine
 62
253
  6
CONTINUOUS
 10
126.5736026794
 20
135.0442254052
 11
126.5736026794
 21
136.2591802713
  0
LINE
  5
348
100
AcDbEntity
  8
268
100
AcDbLine
 62
7
  6
CONTINUOUS
 10
126.9300393388
 20
139.2207679997
 11
126.9300393388
 21
140.547470099
  0
LINE
  5
349
100
AcDbEntity
  8
268
100
AcDbLine
 62
253
  6
CONTINUOUS
 10
126.996629031
 20
135.0458642528
 11
126.996629031
 21
136.2600677256
  0
LINE
  5
34A
100
AcDbEntity
  8
268
100
AcDbLine
 62
7
  6
CONTINUOUS
 10
127.2835927294
 20
139.8181352144
 11
127.2835927294
 21
140.3706934037
  0
LINE
  5
34B
100
AcDbEntity
  8
268
100
AcDbLine
 62
253
  6
CONTINUOUS
 10
127.3543034075
 20
141.9869017012
 11
127.3543034075
 21
140.7550675198
  0
LINE
  5
34C
100
AcDbEntity
  8
268
100
AcDbLine
 62
7
  6
CONTINUOUS
 10
127.4421713732
 20
142.0918989152
 11
127.4421713732
 21
140.8595303103
  0
LINE
  5
34D
100
AcDbEntity
  8
268
100
AcDbLine
 62
7
  6
CONTINUOUS
 10
127.4957247638
 20
136.5102643987
 11
127.4957247638
 21
135.2978288334
  0
LWPOLYLINE
  5
34E
100
AcDbEntity
  8
RACCORDO
100
AcDbPolyline
 62
253
  6
CONTINUOUS
 90
3
 70
0
 10
131.6382215283
 20
132.1261856742
 10
131.6409901403
 20
132.1356053635
 10
131.6440680803
 20
132.1454223088
  0
LWPOLYLINE
  5
34F
100
AcDbEntity
  8
RACCORDO
100
AcDbPolyline
 62
253
  6
CONTINUOUS
 90
3
 70
0
 10
134.3478670129
 20
132.5080142566
 10
134.3313774185
 20
132.4681207824
 10
134.3172218204
 20
132.4277243037
  0
LWPOLYLINE
  5
350
100
AcDbEntity
  8
RACCORDO
100
AcDbPolyline
 62
253
  6
CONTINUOUS
 90
13
 70
0
 10
144.7137748857
 20
126.9164668628
 10
144.6907008968
 20
126.9030776265
 10
144.6680217102
 20
126.886213
 10
144.6461253731
 20
126.8661615419
 10
144.625386538
 20
126.843266338
 10
144.606160052
 20
126.8179191317
 10
144.5887748857
 20
126.7905536207
 10
144.573528504
 20
126.7616380366
 10
144.5606817767
 20
126.7316671328
 10
144.5504545151
 20
126.70115372
 10
144.5430217102
 20
126.6706198911
 10
144.5385105395
 20
126.6405880883
 10
144.5369981904
 20
126.6115721642
  0
LWPOLYLINE
  5
351
100
AcDbEntity
  8
RACCORDO
100
AcDbPolyline
 62
253
  6
CONTINUOUS
 90
13
 70
0
 10
146.0572777699
 20
126.2447154206
 10
146.034203781
 20
126.2313261843
 10
146.0115245944
 20
126.2144615579
 10
145.9896282574
 20
126.1944100997
 10
145.9688894223
 20
126.1715148959
 10
145.9496629363
 20
126.1461676896
 10
145.9322777699
 20
126.1188021786
 10
145.9170313882
 20
126.0898865944
 10
145.904184661
 20
126.0599156907
 10
145.8939573993
 20
126.0294022779
 10
145.8865245944
 20
125.998868449
 10
145.8820134238
 20
125.9688366462
 10
145.8805010746
 20
125.939820722
  0
LWPOLYLINE
  5
352
100
AcDbEntity
  8
RACCORDO
100
AcDbPolyline
 62
253
  6
CONTINUOUS
 90
7
 70
0
 10
147.6482680276
 20
125.5456135311
 10
147.6698296674
 20
125.5579067002
 10
147.6879976832
 20
125.5715018788
 10
147.7024612154
 20
125.5861664497
 10
147.7129727889
 20
125.6016494982
 10
147.7193525476
 20
125.6176861048
 10
147.7214913323
 20
125.6340018788
  0
LWPOLYLINE
  5
353
100
AcDbEntity
  8
RACCORDO
100
AcDbPolyline
 62
253
  6
CONTINUOUS
 90
13
 70
0
 10
145.1002154723
 20
125.3167846725
 10
145.1188973172
 20
125.327241302
 10
145.137295551
 20
125.3405658621
 10
145.1550883508
 20
125.3565252789
 10
145.1719644837
 20
125.3748403892
 10
145.1876287516
 20
125.3951908241
 10
145.2018071541
 20
125.4172206125
 10
145.2142516817
 20
125.4405444081
 10
145.2247446541
 20
125.4647542297
 10
145.2331025275
 20
125.4894265975
 10
145.2391791055
 20
125.5141299411
 10
145.2428680962
 20
125.5384321481
 10
145.2441049716
 20
125.5619081229
  0
LWPOLYLINE
  5
354
100
AcDbEntity
  8
RACCORDO
100
AcDbPolyline
 62
253
  6
CONTINUOUS
 90
16
 70
0
 10
145.1002154723
 20
125.6281802857
 10
145.0679039111
 20
125.6107382337
 10
145.0400848924
 20
125.5922323255
 10
145.0167584162
 20
125.5726625612
 10
144.9978186777
 20
125.5517932911
 10
144.9833714817
 20
125.5298601648
 10
144.9737342428
 20
125.5075701313
 10
144.9690244004
 20
125.4849407366
 10
144.9691245151
 20
125.4619544348
 10
144.9739996838
 20
125.4392655363
 10
144.9837583297
 20
125.4168662768
 10
144.9982920296
 20
125.3947644208
 10
145.0172406111
 20
125.3736375719
 10
145.0404840166
 20
125.3537115982
 10
145.0681423037
 20
125.3347606318
 10
145.1002154723
 20
125.3167846725
  0
LINE
  5
355
100
AcDbEntity
  8
RACCORDO
100
AcDbLine
 62
7
  6
CONTINUOUS
 10
147.8964562935
 20
126.0051009356
 11
153.7746242001
 21
129.1765073764
  0
LINE
  5
356
100
AcDbEntity
  8
DRAFT
100
AcDbLine
 62
7
  6
CONTINUOUS
 10
148.1319612098
 20
125.6717008619
 11
153.8180924324
 21
128.6157814865
  0
LWPOLYLINE
  5
357
100
AcDbEntity
  8
RACCORDO
100
AcDbPolyline
 62
253
  6
CONTINUOUS
 90
8
 70
0
 10
147.6482680276
 20
125.2217911034
 10
147.6659951695
 20
125.2309160744
 10
147.6814843424
 20
125.2409107851
 10
147.6945863018
 20
125.2516471126
 10
147.7051777896
 20
125.2629804071
 10
147.7131738982
 20
125.2747830841
 10
147.7185191365
 20
125.286947752
 10
147.7211740885
 20
125.2993241335
  0
LINE
  5
358
100
AcDbEntity
  8
RACCORDO
100
AcDbLine
 62
253
  6
CONTINUOUS
 10
146.0572777699
 20
126.2447154206
 11
148.1785981135
 21
127.3053755924
  0
LINE
  5
359
100
AcDbEntity
  8
RACCORDO
100
AcDbLine
 62
253
  6
CONTINUOUS
 10
146.2340544652
 20
125.939820722
 11
148.3553748088
 21
127.0004808938
  0
LWPOLYLINE
  5
35A
100
AcDbEntity
  8
RACCORDO
100
AcDbPolyline
 62
253
  6
CONTINUOUS
 90
24
 70
0
 10
147.7424785579
 20
125.0081154352
 10
147.7521760194
 20
125.012803666
 10
147.7617824676
 20
125.0177758078
 10
147.7712932449
 20
125.0230175295
 10
147.7806856804
 20
125.0284980254
 10
147.7899084592
 20
125.0342013304
 10
147.7988926996
 20
125.0401276069
 10
147.8075763348
 20
125.0462578707
 10
147.815942843
 20
125.0525749443
 10
147.8239856852
 20
125.0590795132
 10
147.8316525732
 20
125.0657743518
 10
147.8389181425
 20
125.0726307126
 10
147.8458067488
 20
125.0796012462
 10
147.8522438819
 20
125.086696405
 10
147.8582047027
 20
125.0938838181
 10
147.8637803841
 20
125.1010600973
 10
147.8689135235
 20
125.1082154467
 10
147.8735684366
 20
125.1153639439
 10
147.8778832399
 20
125.1224532686
 10
147.8818603087
 20
125.1295182113
 10
147.8854975936
 20
125.1365585056
 10
147.8889188188
 20
125.1434767383
 10
147.8921087498
 20
125.1502747418
 10
147.8979507035
 20
125.1635681013
  0
LWPOLYLINE
  5
35B
100
AcDbEntity
  8
RACCORDO
100
AcDbPolyline
 62
253
  6
CONTINUOUS
 90
10
 70
0
 10
146.9631029035
 20
123.9737010381
 10
146.98010044
 20
123.9818729149
 10
146.9970735343
 20
123.990484416
 10
147.0140221862
 20
123.9995355413
 10
147.0310852176
 20
124.0091643207
 10
147.0481238066
 20
124.0192327243
 10
147.0647214879
 20
124.0293266628
 10
147.0808943063
 20
124.0394845752
 10
147.096626217
 20
124.0496680226
 10
147.125184155
 20
124.0683756794
  0
LINE
  5
35C
100
AcDbEntity
  8
RACCORDO
100
AcDbLine
 62
253
  6
CONTINUOUS
 10
146.9411612464
 20
124.8833542424
 11
147.6482680276
 21
125.2217911034
  0
LINE
  5
35D
100
AcDbEntity
  8
RACCORDO
100
AcDbLine
 62
253
  6
CONTINUOUS
 10
147.0318669871
 20
124.6729597838
 11
147.742478352
 21
125.0081145376
  0
LINE
  5
35E
100
AcDbEntity
  8
RACCORDO
100
AcDbLine
 62
253
  6
CONTINUOUS
 10
147.9064449328
 20
125.1827880974
 11
148.531989944
 21
125.4716864949
  0
LINE
  5
35F
100
AcDbEntity
  8
RACCORDO
100
AcDbLine
 62
253
  6
CONTINUOUS
 10
148.2476032526
 20
124.5669218938
 11
148.8857048947
 21
124.8616184477
  0
LINE
  5
360
100
AcDbEntity
  8
RACCORDO
100
AcDbLine
 62
253
  6
CONTINUOUS
 10
146.7273567668
 20
123.8648217571
 11
146.9631029035
 21
123.9737010381
  0
LINE
  5
361
100
AcDbEntity
  8
RACCORDO
100
AcDbLine
 62
253
  6
CONTINUOUS
 10
146.3736418161
 20
124.4748898042
 11
146.6220065845
 21
124.5895554091
  0
LWPOLYLINE
  5
362
100
AcDbEntity
  8
RACCORDO
100
AcDbPolyline
 62
253
  6
CONTINUOUS
 90
4
 70
0
 10
147.252478625
 20
124.1439478601
 10
147.3323767826
 20
124.1802387984
 10
147.4122829795
 20
124.2165389453
 10
147.971701886
 20
124.4708293692
  0
LWPOLYLINE
  5
363
100
AcDbEntity
  8
RACCORDO
100
AcDbPolyline
 62
253
  6
CONTINUOUS
 90
14
 70
0
 10
147.971701886
 20
124.4708293692
 10
147.9776289606
 20
124.4734926995
 10
147.9837371678
 20
124.4761362274
 10
147.9900265076
 20
124.4787599527
 10
147.9964741008
 20
124.481359339
 10
148.0031028265
 20
124.4839389228
 10
148.0099813226
 20
124.4865123138
 10
148.0171126839
 20
124.4890776118
 10
148.0244938155
 20
124.491636717
 10
148.0321840709
 20
124.4942089392
 10
148.0401779634
 20
124.4967879885
 10
148.0484809796
 20
124.4993801547
 10
148.0571689328
 20
124.5020236178
 10
148.0662338317
 20
124.5047045468
  0
LWPOLYLINE
  5
364
100
AcDbEntity
  8
RACCORDO
100
AcDbPolyline
 62
253
  6
CONTINUOUS
 90
13
 70
0
 10
146.9411612464
 20
125.1920601405
 10
146.9165749084
 20
125.1812793207
 10
146.8893845511
 20
125.1721953127
 10
146.8600554092
 20
125.1649635466
 10
146.8290893124
 20
125.1597077599
 10
146.7970160992
 20
125.1565178805
 10
146.7643845511
 20
125.1554484882
 10
146.7317530031
 20
125.1565178805
 10
146.6996797898
 20
125.1597077599
 10
146.668713693
 20
125.1649635466
 10
146.6393845511
 20
125.1721953127
 10
146.6121941939
 20
125.1812793207
 10
146.5876078558
 20
125.1920601405
  0
LINE
  5
365
100
AcDbEntity
  8
RACCORDO
100
AcDbLine
 62
253
  6
CONTINUOUS
 10
142.0634264239
 20
122.3253502297
 11
146.1771689897
 21
123.8781898966
  0
LINE
  5
366
100
AcDbEntity
  8
RACCORDO
100
AcDbLine
 62
253
  6
CONTINUOUS
 10
142.5699044699
 20
121.3240699454
 11
146.6836470357
 21
122.8769096123
  0
LWPOLYLINE
  5
367
100
AcDbEntity
  8
RACCORDO
100
AcDbPolyline
 62
253
  6
CONTINUOUS
 90
13
 70
0
 10
146.2340544652
 20
84.2889026106
 10
146.2210051216
 20
84.308363949
 10
146.2051543577
 20
84.3290046476
 10
146.1867733843
 20
84.3504715384
 10
146.166176705
 20
84.3723973168
 10
146.1437167348
 20
84.3944068269
 10
146.1197777699
 20
84.4161234797
 10
146.0947694127
 20
84.4371756973
 10
146.0691195631
 20
84.4572032704
 10
146.0432670971
 20
84.4758635217
 10
146.0176543577
 20
84.492837169
 10
145.9927195857
 20
84.5078337887
 10
145.9688894223
 20
84.5205967844
  0
LWPOLYLINE
  5
368
100
AcDbEntity
  8
RACCORDO
100
AcDbPolyline
 62
253
  6
CONTINUOUS
 90
13
 70
0
 10
146.7643845511
 20
84.9290676535
 10
146.7513352075
 20
84.9485289919
 10
146.7354844435
 20
84.9691696905
 10
146.7171034702
 20
84.9906365813
 10
146.6965067909
 20
85.0125623598
 10
146.6740468207
 20
85.0345718698
 10
146.6501078558
 20
85.0562885226
 10
146.6250994986
 20
85.0773407402
 10
146.599449649
 20
85.0973683133
 10
146.573597183
 20
85.1160285646
 10
146.5479844435
 20
85.133002212
 10
146.5230496716
 20
85.1479988317
 10
146.4992195082
 20
85.1607618273
  0
LWPOLYLINE
  5
369
100
AcDbEntity
  8
268
100
AcDbPolyline
 62
7
  6
CONTINUOUS
 90
24
 70
0
 10
130.041309176
 20
140.8615759477
 10
130.0407359916
 20
140.8960483539
 10
130.0390368786
 20
140.9297982748
 10
130.0362118371
 20
140.9628257106
 10
130.0322514025
 20
140.995187268
 10
130.0271650394
 20
141.0268263402
 10
130.020981141
 20
141.0575731067
 10
130.0136985256
 20
141.0874086342
 10
130.0053183749
 20
141.1163518559
 10
129.9958726277
 20
141.1442897519
 10
129.9853487692
 20
141.1712359147
 10
129.9737593141
 20
141.1971767516
 10
129.9611737454
 20
141.2219584645
 10
129.9475985595
 20
141.2455557659
 10
129.93302726
 20
141.2679939432
 10
129.9175098399
 20
141.2891950605
 10
129.9010265526
 20
141.3091721504
 10
129.8835971447
 20
141.3279121802
 10
129.8653308501
 20
141.3452981158
 10
129.8462421942
 20
141.3613070421
 10
129.8263166515
 20
141.3759618742
 10
129.805619879
 20
141.3892143226
 10
129.7841273644
 20
141.4010701838
 10
126.5549260982
 20
143.0156946942
  0
LINE
  5
36A
100
AcDbEntity
  8
268
100
AcDbLine
 62
7
  6
CONTINUOUS
 10
128.4959588247
 20
134.2807778749
 11
128.4959588247
 21
134.5341492687
  0
LINE
  5
36B
100
AcDbEntity
  8
268
100
AcDbLine
 62
7
  6
CONTINUOUS
 10
129.198951779
 20
133.3742186202
 11
129.198951779
 21
133.8265495959
  0
LINE
  5
36C
100
AcDbEntity
  8
268
100
AcDbLine
 62
7
  6
CONTINUOUS
 10
130.041309176
 20
140.8615759477
 11
130.041309176
 21
140.590775655
  0
LINE
  5
36D
100
AcDbEntity
  8
268
100
AcDbLine
 62
7
  6
CONTINUOUS
 10
130.1017352869
 20
133.7312610376
 11
130.1017352869
 21
133.4778896438
  0
LINE
  5
36E
100
AcDbEntity
  8
268
100
AcDbLine
 62
7
  6
CONTINUOUS
 10
130.5009285838
 20
131.7054453142
 11
130.5009285838
 21
131.6810498089
  0
LINE
  5
36F
100
AcDbEntity
  8
268
100
AcDbLine
 62
7
  6
CONTINUOUS
 10
130.812955895
 20
132.5672165622
 11
130.812955895
 21
133.204386121
  0
LWPOLYLINE
  5
370
100
AcDbEntity
  8
RACCORDO
100
AcDbPolyline
 62
253
  6
CONTINUOUS
 90
6
 70
0
 10
134.3172218204
 20
132.4277243037
 10
134.3053668489
 20
132.3868375217
 10
134.2960849253
 20
132.3463136412
 10
134.2894668567
 20
132.3064370637
 10
134.285421836
 20
132.2669233878
 10
134.2839498632
 20
132.2277726134
  0
LWPOLYLINE
  5
371
100
AcDbEntity
  8
0
100
AcDbPolyline
 62
7
  6
CONTINUOUS
 90
31
 70
0
 10
149.0623993115
 20
136.9241906394
 10
149.0676666178
 20
136.9307974958
 10
149.0768918486
 20
136.9428131229
 10
149.0858399307
 20
136.9550444135
 10
149.0945073972
 20
136.9674791322
 10
149.1028940268
 20
136.9801094661
 10
149.1110005043
 20
136.9929306039
 10
149.1188245808
 20
137.0059340047
 10
149.1263633354
 20
137.0191105346
 10
149.133614896
 20
137.0324542719
 10
149.1405758865
 20
137.0459567422
 10
149.1472426803
 20
137.0596098267
 10
149.1536124247
 20
137.0734082219
 10
149.1596812847
 20
137.087344845
 10
149.1654440931
 20
137.1014110295
 10
149.1708960026
 20
137.1155993641
 10
149.176033175
 20
137.1299057374
 10
149.1808485318
 20
137.1443191452
 10
149.185333467
 20
137.158822437
 10
149.1894828446
 20
137.17340911
 10
149.1932903385
 20
137.1880707258
 10
149.196747378
 20
137.2027883539
 10
149.1998482521
 20
137.2175549771
 10
149.2025867089
 20
137.2323630634
 10
149.2049548437
 20
137.2471944992
 10
149.2069463429
 20
137.2620418577
 10
149.2085546697
 20
137.2768985291
 10
149.2097722664
 20
137.2917497161
 10
149.2105918726
 20
137.3065864596
 10
149.2110063929
 20
137.3214026726
 10
149.2110592869
 20
137.3288620475
  0
LINE
  5
372
100
AcDbEntity
  8
0
100
AcDbLine
 62
253
  6
CONTINUOUS
 10
149.0507126674
 20
136.9804337914
 11
148.7677771018
 21
136.630319759
  0
LINE
  5
373
100
AcDbEntity
  8
0
100
AcDbLine
 62
7
  6
CONTINUOUS
 10
149.0624001106
 20
136.9241915678
 11
148.7677771018
 21
136.5596150981
  0
LWPOLYLINE
  5
374
100
AcDbEntity
  8
RACCORDO
100
AcDbPolyline
 62
253
  6
CONTINUOUS
 90
14
 70
0
 10
147.125184155
 20
124.0683756794
 10
147.1500341822
 20
124.0848336947
 10
147.1612033174
 20
124.092108787
 10
147.1715704253
 20
124.0987934757
 10
147.1813974975
 20
124.1050061582
 10
147.1907142015
 20
124.1107500206
 10
147.1994908698
 20
124.1160218769
 10
147.2079004926
 20
124.1209305658
 10
147.2159458304
 20
124.1254762933
 10
147.2236241227
 20
124.1296588534
 10
147.2311000774
 20
124.133586468
 10
147.2384285974
 20
124.137295211
 10
147.24555478
 20
124.1407490083
 10
147.252478625
 20
124.1439478601
  0
LWPOLYLINE
  5
375
100
AcDbEntity
  8
RACCORDO
100
AcDbPolyline
 62
253
  6
CONTINUOUS
 90
13
 70
0
 10
146.4437183566
 20
124.6450332304
 10
146.4624004492
 20
124.6554900196
 10
146.480798871
 20
124.6688147742
 10
146.4985917922
 20
124.6847743901
 10
146.5154679775
 20
124.7030896746
 10
146.5311322347
 20
124.7234402363
 10
146.5453105769
 20
124.7454700923
 10
146.5577550053
 20
124.7687938816
 10
146.568247857
 20
124.7930036196
 10
146.5766056112
 20
124.8176758438
 10
146.5826820874
 20
124.8423789956
 10
146.5863710068
 20
124.8666809682
 10
146.5876078558
 20
124.8901566808
  0
LINE
  5
376
100
AcDbEntity
  8
DRAFT
100
AcDbLine
 62
7
  6
CONTINUOUS
 10
145.1615162803
 20
104.3789582619
 11
145.43234789
 21
104.243542457
  0
LWPOLYLINE
  5
377
100
AcDbEntity
  8
RACCORDO
100
AcDbPolyline
 62
7
  6
CONTINUOUS
 90
6
 70
0
 10
148.3924241076
 20
85.5674826924
 10
148.3726923529
 20
85.5955183211
 10
148.3493521898
 20
85.6205519115
 10
148.3228140288
 20
85.6421608655
 10
148.2935203974
 20
85.6599705842
 10
148.2900829737
 20
85.6617164422
  0
LWPOLYLINE
  5
378
100
AcDbEntity
  8
RACCORDO
100
AcDbPolyline
 62
7
  6
CONTINUOUS
 90
10
 70
0
 10
131.0994567212
 20
133.0308056219
 10
131.1017239716
 20
132.9972178353
 10
131.1085615076
 20
132.9639529845
 10
131.119922158
 20
132.9317405713
 10
131.1356307271
 20
132.9012740596
 10
131.1553624819
 20
132.8732384309
 10
131.1787026449
 20
132.8482048404
 10
131.205240806
 20
132.8265958865
 10
131.2345344374
 20
132.8087861677
 10
131.237971861
 20
132.8070403097
  0
LINE
  5
379
100
AcDbEntity
  8
RACCORDO
100
AcDbLine
 62
253
  6
CONTINUOUS
 10
131.8068968839
 20
132.3242528583
 11
131.8065635024
 21
132.3304639077
  0
LINE
  5
37A
100
AcDbEntity
  8
RACCORDO
100
AcDbLine
 62
7
  6
CONTINUOUS
 10
131.032931115
 20
131.712034583
 11
131.032931115
 21
131.6861649451
  0
LINE
  5
37B
100
AcDbEntity
  8
RACCORDO
100
AcDbLine
 62
7
  6
CONTINUOUS
 10
131.0994567212
 20
133.0308056219
 11
131.0994567212
 21
133.382119594
  0
LINE
  5
37C
100
AcDbEntity
  8
RACCORDO
100
AcDbLine
 62
253
  6
CONTINUOUS
 10
131.1726800259
 20
132.9424172743
 11
131.1726800259
 21
133.2937312464
  0
LINE
  5
37D
100
AcDbEntity
  8
268
100
AcDbLine
 62
7
  6
CONTINUOUS
 10
131.3141013822
 20
131.5455798115
 11
131.3141013822
 21
131.3097237004
  0
LINE
  5
37E
100
AcDbEntity
  8
DRAFT
100
AcDbLine
 62
7
  6
CONTINUOUS
 10
131.4845278361
 20
131.4603665845
 11
131.4845278361
 21
131.2245104734
  0
LINE
  5
37F
100
AcDbEntity
  8
RACCORDO
100
AcDbLine
 62
7
  6
CONTINUOUS
 10
131.8065635024
 20
132.3304047374
 11
131.8065635024
 21
132.5227437342
  0
LINE
  5
380
100
AcDbEntity
  8
RACCORDO
100
AcDbLine
 62
253
  6
CONTINUOUS
 10
131.8797868071
 20
132.2440672051
 11
131.8797868071
 21
132.4861320818
  0
LINE
  5
381
100
AcDbEntity
  8
268
100
AcDbLine
 62
7
  6
CONTINUOUS
 10
131.8797868071
 20
133.9267931342
 11
131.8797868071
 21
134.8378486193
  0
LINE
  5
382
100
AcDbEntity
  8
RACCORDO
100
AcDbLine
 62
253
  6
CONTINUOUS
 10
132.5161829102
 20
132.6219798043
 11
132.5161829102
 21
132.2706658322
  0
LINE
  5
383
100
AcDbEntity
  8
268
100
AcDbLine
 62
7
  6
CONTINUOUS
 10
132.5827797614
 20
134.9731701171
 11
132.5827797614
 21
134.7122411407
  0
LINE
  5
384
100
AcDbEntity
  8
RACCORDO
100
AcDbLine
 62
253
  6
CONTINUOUS
 10
132.8697363008
 20
132.6219798043
 11
132.8697363008
 21
132.2706658322
  0
LINE
  5
385
100
AcDbEntity
  8
268
100
AcDbLine
 62
253
  6
CONTINUOUS
 10
132.9099974589
 20
139.2102800091
 11
132.9099974589
 21
137.9784414307
  0
LINE
  5
386
100
AcDbEntity
  8
268
100
AcDbLine
 62
7
  6
CONTINUOUS
 10
132.9966348873
 20
139.3146673844
 11
132.9966348873
 21
138.0822988927
  0
LINE
  5
387
100
AcDbEntity
  8
RACCORDO
100
AcDbLine
 62
253
  6
CONTINUOUS
 10
133.2232896914
 20
131.8742192228
 11
133.2232896914
 21
131.572315763
  0
LWPOLYLINE
  5
388
100
AcDbEntity
  8
RACCORDO
100
AcDbPolyline
 62
7
  6
CONTINUOUS
 90
6
 70
0
 10
131.8065691072
 20
132.3306043273
 10
131.806549428
 20
132.328549377
 10
131.8054235169
 20
132.3160076855
 10
131.8029374669
 20
132.3050468863
 10
131.7997181521
 20
132.2961749384
 10
131.7972523489
 20
132.2911017691
  0
LWPOLYLINE
  5
389
100
AcDbEntity
  8
RACCORDO
100
AcDbPolyline
 62
253
  6
CONTINUOUS
 90
13
 70
0
 10
131.8797868071
 20
132.2440672051
 10
131.8785499226
 20
132.220591141
 10
131.8748609073
 20
132.196288853
 10
131.8687842938
 20
132.1715854419
 10
131.8604263779
 20
132.1469130212
 10
131.8499333615
 20
132.1227031667
 10
131.8374887969
 20
132.0993793657
 10
131.8233103709
 20
132.0773495987
 10
131.807646097
 20
132.0569992068
 10
131.7907699815
 20
132.0386841582
 10
131.7729772256
 20
132.0227248139
 10
131.7545790609
 20
132.0094003252
 10
131.7358973079
 20
131.9989437547
  0
LWPOLYLINE
  5
38A
100
AcDbEntity
  8
RACCORDO
100
AcDbPolyline
 62
253
  6
CONTINUOUS
 90
13
 70
0
 10
133.2232896914
 20
131.572315763
 10
133.222052816
 20
131.5488397882
 10
133.2183638252
 20
131.5245375812
 10
133.2122872472
 20
131.4998342376
 10
133.2039293739
 20
131.4751618698
 10
133.1934364015
 20
131.4509520482
 10
133.1809918739
 20
131.4276282526
 10
133.1668134714
 20
131.4055984642
 10
133.1511492035
 20
131.3852480293
 10
133.1342730705
 20
131.366932919
 10
133.1164802708
 20
131.3509735022
 10
133.098082037
 20
131.3376489421
 10
133.0794001922
 20
131.3271923126
  0
LWPOLYLINE
  5
38B
100
AcDbEntity
  8
RACCORDO
100
AcDbPolyline
 62
253
  6
CONTINUOUS
 90
8
 70
0
 10
134.3571731678
 20
131.98752774
 10
134.3568342145
 20
131.9812809088
 10
134.3541378843
 20
131.9689150421
 10
134.348761536
 20
131.9567741525
 10
134.3407508064
 20
131.9450050082
 10
134.3301610858
 20
131.9337073672
 10
134.3170764335
 20
131.9230054865
 10
134.3016227721
 20
131.9130443203
  0
LWPOLYLINE
  5
38C
100
AcDbEntity
  8
RACCORDO
100
AcDbPolyline
 62
253
  6
CONTINUOUS
 90
7
 70
0
 10
135.0642799491
 20
133.4197143516
 10
135.0621411644
 20
133.4033985776
 10
135.0557614056
 20
133.387361971
 10
135.0452498322
 20
133.3718789226
 10
135.0307863
 20
133.3572143516
 10
135.0126182841
 20
133.343619173
 10
134.9910566443
 20
133.3313260039
  0
LWPOLYLINE
  5
38D
100
AcDbEntity
  8
RACCORDO
100
AcDbPolyline
 62
253
  6
CONTINUOUS
 90
7
 70
0
 10
135.0642799491
 20
133.7710283359
 10
135.0619782048
 20
133.7541051582
 10
135.0553734445
 20
133.7379604902
 10
135.0446672603
 20
133.7224956367
 10
135.0301658073
 20
133.7079940151
 10
135.0121718643
 20
133.6946431323
 10
134.9910566443
 20
133.682639976
  0
LINE
  5
38E
100
AcDbEntity
  8
DRAFT
100
AcDbLine
 62
7
  6
CONTINUOUS
 10
143.0566129509
 20
142.9698145224
 11
143.0200233524
 21
142.8661514422
  0
LINE
  5
38F
100
AcDbEntity
  8
DRAFT
100
AcDbLine
 62
7
  6
CONTINUOUS
 10
143.3394556634
 20
143.1112358786
 11
143.3028660649
 21
143.0075727984
  0
LINE
  5
390
100
AcDbEntity
  8
DRAFT
100
AcDbLine
 62
7
  6
CONTINUOUS
 10
143.6222983759
 20
143.2526572349
 11
143.5857087774
 21
143.1489941547
  0
LINE
  5
391
100
AcDbEntity
  8
DRAFT
100
AcDbLine
 62
7
  6
CONTINUOUS
 10
143.9051410884
 20
143.3940785911
 11
143.8685514898
 21
143.2904155109
  0
LINE
  5
392
100
AcDbEntity
  8
DRAFT
100
AcDbLine
 62
7
  6
CONTINUOUS
 10
144.1879838008
 20
143.5354999473
 11
144.1513942023
 21
143.4318368672
  0
LWPOLYLINE
  5
393
100
AcDbEntity
  8
0
100
AcDbPolyline
 62
253
  6
CONTINUOUS
 90
18
 70
0
 10
149.0624001106
 20
136.9241915678
 10
149.0636948219
 20
136.9260331096
 10
149.0647838554
 20
136.9281299028
 10
149.0656195491
 20
136.9304220188
 10
149.0662005624
 20
136.932905781
 10
149.0665259635
 20
136.9355772055
 10
149.0665952303
 20
136.938432007
 10
149.0664082517
 20
136.9414656065
 10
149.0659653278
 20
136.9446731378
 10
149.0652671688
 20
136.9480494561
 10
149.0643148947
 20
136.9515891456
 10
149.063110033
 20
136.9552865285
 10
149.0616545164
 20
136.9591356741
 10
149.0599506794
 20
136.9631304082
 10
149.0580012552
 20
136.9672643232
 10
149.0558093707
 20
136.971530788
 10
149.0533785417
 20
136.9759229591
 10
149.0507126674
 20
136.9804337914
  0
LWPOLYLINE
  5
394
100
AcDbEntity
  8
RACCORDO
100
AcDbPolyline
 62
253
  6
CONTINUOUS
 90
8
 70
0
 10
133.2232896914
 20
131.8742192228
 10
133.2220943906
 20
131.8987564256
 10
133.2185246527
 20
131.9217665041
 10
133.2126287522
 20
131.9429382863
 10
133.2044864211
 20
131.9619854604
 10
133.1942077703
 20
131.9786504459
 10
133.1819318012
 20
131.9927078775
 10
133.167824525
 20
132.0039676525
  0
LWPOLYLINE
  5
395
100
AcDbEntity
  8
RACCORDO
100
AcDbPolyline
 62
253
  6
CONTINUOUS
 90
13
 70
0
 10
133.576843082
 20
131.8742192228
 10
133.5753805969
 20
131.9118268503
 10
133.5713493175
 20
131.9472397517
 10
133.5647492437
 20
131.9804579269
 10
133.5554942456
 20
132.0116748261
 10
133.5436704531
 20
132.0406969991
 10
133.5295362562
 20
132.0669440951
 10
133.513054191
 20
132.0903766815
 10
133.4942617212
 20
132.1110341909
 10
133.4735296279
 20
132.1284545703
 10
133.4509815045
 20
132.1424838019
 10
133.4264937574
 20
132.1532759035
 10
133.4000663867
 20
132.1608308751
  0
LWPOLYLINE
  5
396
100
AcDbEntity
  8
RACCORDO
100
AcDbPolyline
 62
253
  6
CONTINUOUS
 90
13
 70
0
 10
133.576843082
 20
131.5655133247
 10
133.5777308198
 20
131.5421427698
 10
133.5810231584
 20
131.5179622261
 10
133.5866637565
 20
131.4933854364
 10
133.5945560957
 20
131.4688329166
 10
133.6045651266
 20
131.4447247752
 10
133.6165195761
 20
131.4214735247
 10
133.6302148889
 20
131.3994769984
 10
133.6454167271
 20
131.3791115534
 10
133.6618649703
 20
131.3607256446
 10
133.6792781776
 20
131.3446338462
 10
133.6973584045
 20
131.3311114724
 10
133.7157962952
 20
131.3203898743
  0
LWPOLYLINE
  5
397
100
AcDbEntity
  8
RACCORDO
100
AcDbPolyline
 62
253
  6
CONTINUOUS
 90
13
 70
0
 10
134.2839498632
 20
131.9039501856
 10
134.2848375852
 20
131.8805798109
 10
134.2881298766
 20
131.8563994305
 10
134.2937704055
 20
131.8318227774
 10
134.3016626608
 20
131.8072703649
 10
134.3116716038
 20
131.7831622917
 10
134.3236259788
 20
131.7599110535
 10
134.337321243
 20
131.7379144855
 10
134.3525230668
 20
131.717548955
 10
134.3689713426
 20
131.699162922
 10
134.386384636
 20
131.6830709765
 10
134.4044650006
 20
131.6695484562
 10
134.4229030764
 20
131.6588267352
  0
LINE
  5
398
100
AcDbEntity
  8
RACCORDO
100
AcDbLine
 62
253
  6
CONTINUOUS
 10
133.576843082
 20
131.8742192228
 11
133.576843082
 21
131.5655133247
  0
LINE
  5
399
100
AcDbEntity
  8
RACCORDO
100
AcDbLine
 62
253
  6
CONTINUOUS
 10
134.2839498632
 20
131.9039501856
 11
134.2839498632
 21
132.2277726134
  0
LINE
  5
39A
100
AcDbEntity
  8
RACCORDO
100
AcDbLine
 62
7
  6
CONTINUOUS
 10
134.3571731678
 20
131.98752774
 11
134.3571731679
 21
132.316160961
  0
LINE
  5
39B
100
AcDbEntity
  8
RACCORDO
100
AcDbLine
 62
253
  6
CONTINUOUS
 10
134.9910566443
 20
133.682639976
 11
134.9910566443
 21
133.3313260039
  0
LINE
  5
39C
100
AcDbEntity
  8
RACCORDO
100
AcDbLine
 62
7
  6
CONTINUOUS
 10
135.0642799491
 20
133.7710283237
 11
135.0642799491
 21
133.4197143516
  0
LWPOLYLINE
  5
39D
100
AcDbEntity
  8
RACCORDO
100
AcDbPolyline
 62
7
  6
CONTINUOUS
 90
5
 70
0
 10
135.0642799491
 20
133.4197143516
 10
135.0620126987
 20
133.3861265649
 10
135.0551751627
 20
133.3528617141
 10
135.0438145123
 20
133.3206493009
 10
135.0281059432
 20
133.2901827892
  0
LWPOLYLINE
  5
39E
100
AcDbEntity
  8
0
100
AcDbPolyline
 62
7
  6
CONTINUOUS
 90
6
 70
0
 10
137.9968681599
 20
139.3450230546
 10
137.996854424
 20
139.3449116798
 10
137.9968408661
 20
139.3446716401
 10
137.9968235156
 20
139.3443068835
 10
137.9968041938
 20
139.3438185113
 10
137.9967622377
 20
139.3424775669
  0
LINE
  5
39F
100
AcDbEntity
  8
DRAFT
100
AcDbLine
 62
7
  6
CONTINUOUS
 10
144.5678145284
 20
142.2142137337
 11
144.5336934488
 21
142.109316394
  0
LINE
  5
3A0
100
AcDbEntity
  8
DRAFT
100
AcDbLine
 62
7
  6
CONTINUOUS
 10
144.8506572408
 20
142.3556350899
 11
144.8165361613
 21
142.2507377503
  0
LINE
  5
3A1
100
AcDbEntity
  8
DRAFT
100
AcDbLine
 62
7
  6
CONTINUOUS
 10
145.1334999533
 20
142.4970564461
 11
145.0993788737
 21
142.3921591065
  0
LINE
  5
3A2
100
AcDbEntity
  8
DRAFT
100
AcDbLine
 62
7
  6
CONTINUOUS
 10
145.4163426658
 20
142.6384778024
 11
145.3822215862
 21
142.5335804627
  0
LINE
  5
3A3
100
AcDbEntity
  8
DRAFT
100
AcDbLine
 62
7
  6
CONTINUOUS
 10
145.6991853783
 20
142.7798991586
 11
145.6650642987
 21
142.675001819
  0
LINE
  5
3A4
100
AcDbEntity
  8
DRAFT
100
AcDbLine
 62
7
  6
CONTINUOUS
 10
144.4708265133
 20
143.6769213036
 11
144.4342369148
 21
143.5732582234
  0
LINE
  5
3A5
100
AcDbEntity
  8
DRAFT
100
AcDbLine
 62
7
  6
CONTINUOUS
 10
145.5433910941
 20
141.0355713382
 11
145.5799806926
 21
141.1392344184
  0
LINE
  5
3A6
100
AcDbEntity
  8
DRAFT
100
AcDbLine
 62
7
  6
CONTINUOUS
 10
145.8262338066
 20
141.1769926945
 11
145.8628234051
 21
141.2806557746
  0
LINE
  5
3A7
100
AcDbEntity
  8
DRAFT
100
AcDbLine
 62
7
  6
CONTINUOUS
 10
146.1678827882
 20
141.4141796038
 11
146.1312931896
 21
141.3105165236
  0
LINE
  5
3A8
100
AcDbEntity
  8
RACCORDO
100
AcDbLine
 62
253
  6
CONTINUOUS
 10
147.8250447229
 20
126.0090018788
 11
148.3553748088
 21
126.6491669217
  0
LINE
  5
3A9
100
AcDbEntity
  8
RACCORDO
100
AcDbLine
 62
7
  6
CONTINUOUS
 10
147.8407870657
 20
125.9379022333
 11
148.3711171516
 21
126.5780672762
  0
LINE
  5
3AA
100
AcDbEntity
  8
RACCORDO
100
AcDbLine
 62
7
  6
CONTINUOUS
 10
148.8857048947
 20
123.1792805371
 11
152.9986326225
 21
127.0924494933
  0
LINE
  5
3AB
100
AcDbEntity
  8
RACCORDO
100
AcDbLine
 62
253
  6
CONTINUOUS
 10
153.0843149774
 20
127.3408942239
 11
148.8857048947
 21
123.3645654863
  0
LWPOLYLINE
  5
3AC
100
AcDbEntity
  8
RACCORDO
100
AcDbPolyline
 62
253
  6
CONTINUOUS
 90
5
 70
0
 10
148.3564276607
 20
85.5677351537
 10
148.3436239938
 20
85.5942491073
 10
148.3279877419
 20
85.6180786741
 10
148.3097879248
 20
85.6388148819
 10
148.2893370712
 20
85.6561025166
  0
LWPOLYLINE
  5
3AD
100
AcDbEntity
  8
RACCORDO
100
AcDbPolyline
 62
7
  6
CONTINUOUS
 90
4
 70
0
 10
144.483883129
 20
84.5994951335
 10
144.4729228536
 20
84.6307188018
 10
144.4661649258
 20
84.6632420863
 10
144.463775044
 20
84.6975877357
  0
LWPOLYLINE
  5
3AE
100
AcDbEntity
  8
RACCORDO
100
AcDbPolyline
 62
253
  6
CONTINUOUS
 90
7
 70
0
 10
131.0994567212
 20
133.0308056219
 10
131.1015955059
 20
133.0144898479
 10
131.1079752647
 20
132.9984532413
 10
131.1184868381
 20
132.9829701929
 10
131.1329503703
 20
132.9683056219
 10
131.1511183862
 20
132.9547104433
 10
131.1726800259
 20
132.9424172743
  0
LWPOLYLINE
  5
3AF
100
AcDbEntity
  8
RACCORDO
100
AcDbPolyline
 62
253
  6
CONTINUOUS
 90
7
 70
0
 10
131.0994567212
 20
133.3821195818
 10
131.1014941906
 20
133.3661933311
 10
131.1078200522
 20
133.3500582458
 10
131.1183222022
 20
133.3344833838
 10
131.1328127414
 20
133.319738936
 10
131.1510381687
 20
133.3060767147
 10
131.1726800259
 20
133.2937312464
  0
LWPOLYLINE
  5
3B0
100
AcDbEntity
  8
RACCORDO
100
AcDbPolyline
 62
7
  6
CONTINUOUS
 90
13
 70
0
 10
136.6810572448
 20
131.3140492474
 10
136.6820540525
 20
131.2983766982
 10
136.6851994395
 20
131.2819855557
 10
136.6904550078
 20
131.2658019157
 10
136.6978479862
 20
131.2498284558
 10
136.7073511459
 20
131.2340624986
 10
136.7188423868
 20
131.2187066105
 10
136.7323473625
 20
131.2037660831
 10
136.7478404193
 20
131.1892356248
 10
136.7651224971
 20
131.1753019283
 10
136.7841272424
 20
131.1620272243
 10
136.8049210087
 20
131.1493492821
 10
136.8275037958
 20
131.1372681015
  0
LWPOLYLINE
  5
3B1
100
AcDbEntity
  8
268
100
AcDbPolyline
 62
7
  6
CONTINUOUS
 90
7
 70
0
 10
137.7521944204
 20
137.2482570755
 10
137.7521028123
 20
137.2525648768
 10
137.7519636416
 20
137.2568762074
 10
137.7517769081
 20
137.2611910674
 10
137.751542612
 20
137.2655094568
 10
137.7512607532
 20
137.2698313755
 10
137.7509313318
 20
137.2741568235
  0
LINE
  5
3B2
100
AcDbEntity
  8
268
100
AcDbLine
 62
7
  6
CONTINUOUS
 10
137.7521944204
 20
137.2482570755
 11
137.752240891
 21
137.2421197375
  0
LINE
  5
3B3
100
AcDbEntity
  8
RACCORDO
100
AcDbLine
 62
7
  6
CONTINUOUS
 10
136.6810571864
 20
130.1145103892
 11
136.6810571864
 21
131.3140447968
  0
LINE
  5
3B4
100
AcDbEntity
  8
RACCORDO
100
AcDbLine
 62
253
  6
CONTINUOUS
 10
136.8275037958
 20
129.9399490659
 11
136.8275037958
 21
131.1372681015
  0
LINE
  5
3B5
100
AcDbEntity
  8
268
100
AcDbLine
 62
7
  6
CONTINUOUS
 10
137.1403798502
 20
136.2761203418
 11
137.1403798502
 21
136.3470847655
  0
LINE
  5
3B6
100
AcDbEntity
  8
0
100
AcDbLine
 62
7
  6
CONTINUOUS
 10
137.336851617
 20
136.554722038
 11
137.336851617
 21
136.1778844584
  0
LINE
  5
3B7
100
AcDbEntity
  8
268
100
AcDbLine
 62
253
  6
CONTINUOUS
 10
137.6680428528
 20
136.9544432316
 11
137.6680428528
 21
136.7421840776
  0
LINE
  5
3B8
100
AcDbEntity
  8
268
100
AcDbLine
 62
7
  6
CONTINUOUS
 10
137.7522409127
 20
137.2420641099
 11
137.7522409127
 21
136.7607581909
  0
LWPOLYLINE
  5
3B9
100
AcDbEntity
  8
268
100
AcDbPolyline
 62
7
  6
CONTINUOUS
 90
16
 70
0
 10
137.752240891
 20
137.2421197375
 10
137.7520063854
 20
137.2286054292
 10
137.7508656093
 20
137.208840238
 10
137.7488212778
 20
137.1889865874
 10
137.7459301127
 20
137.1690508035
 10
137.7422413485
 20
137.1490685671
 10
137.7377813846
 20
137.1291067455
 10
137.7325885263
 20
137.1091860279
 10
137.7267058692
 20
137.0893182765
 10
137.720145335
 20
137.0695580503
 10
137.7129384318
 20
137.0499209837
 10
137.7051212861
 20
137.0304190191
 10
137.6966973467
 20
137.0111034202
 10
137.6876844553
 20
136.9920006937
 10
137.6781226099
 20
136.9731101999
 10
137.6680428528
 20
136.9544432316
  0
LINE
  5
3BA
100
AcDbEntity
  8
0
100
AcDbLine
 62
7
  6
CONTINUOUS
 10
137.9957145108
 20
139.2905437638
 11
137.9954158425
 21
139.2738201006
  0
LINE
  5
3BB
100
AcDbEntity
  8
0
100
AcDbLine
 62
7
  6
CONTINUOUS
 10
137.996558762
 20
139.3341657989
 11
137.9957145108
 21
139.2905437638
  0
LINE
  5
3BC
100
AcDbEntity
  8
0
100
AcDbLine
 62
7
  6
CONTINUOUS
 10
137.9967622377
 20
139.3424775669
 11
137.996558762
 21
139.3341657989
  0
LWPOLYLINE
  5
3BD
100
AcDbEntity
  8
0
100
AcDbPolyline
 62
7
  6
CONTINUOUS
 90
36
 70
0
 10
141.256662834
 20
137.2185930889
 10
141.2581993976
 20
137.2270667522
 10
141.2596545352
 20
137.2354923149
 10
141.2610243895
 20
137.243867673
 10
141.2623028485
 20
137.2521941083
 10
141.2634883075
 20
137.2604661669
 10
141.2645836214
 20
137.2686716264
 10
141.2655847111
 20
137.2768081956
 10
141.2664878593
 20
137.2848740121
 10
141.2672963234
 20
137.2928574193
 10
141.268005943
 20
137.3007561824
 10
141.2686129242
 20
137.3085683502
 10
141.2691208233
 20
137.3162825421
 10
141.2695253372
 20
137.3238965512
 10
141.2698225637
 20
137.3314083107
 10
141.2700162846
 20
137.3388064252
 10
141.2701019874
 20
137.346088723
 10
141.2700756156
 20
137.3532529518
 10
141.2699411267
 20
137.3602872921
 10
141.2696937275
 20
137.3671895452
 10
141.2693291622
 20
137.3739572759
 10
141.2688515369
 20
137.3805779204
 10
141.268255696
 20
137.3870492578
 10
141.2675371265
 20
137.3933685966
 10
141.2667000712
 20
137.399522183
 10
141.2657389204
 20
137.4055077757
 10
141.2646488422
 20
137.411322354
 10
141.2634342284
 20
137.416950407
 10
141.2620889234
 20
137.4223896608
 10
141.260607712
 20
137.4276367127
 10
141.2589951695
 20
137.4326736607
 10
141.2572444924
 20
137.4374982235
 10
141.2553500239
 20
137.4421065325
 10
141.2533166127
 20
137.4464774961
 10
141.2511367055
 20
137.4506088667
 10
141.2506237921
 20
137.4515077461
  0
LINE
  5
3BE
100
AcDbEntity
  8
DRAFT
100
AcDbLine
 62
7
  6
CONTINUOUS
 10
145.9820280907
 20
142.9213205149
 11
145.9479070112
 21
142.8164231752
  0
LINE
  5
3BF
100
AcDbEntity
  8
DRAFT
100
AcDbLine
 62
7
  6
CONTINUOUS
 10
147.6790843656
 20
140.6585788151
 11
147.644963286
 21
140.5536814754
  0
LINE
  5
3C0
100
AcDbEntity
  8
DRAFT
100
AcDbLine
 62
7
  6
CONTINUOUS
 10
146.4507255006
 20
141.55560096
 11
146.4141359021
 21
141.4519378798
  0
LINE
  5
3C1
100
AcDbEntity
  8
DRAFT
100
AcDbLine
 62
7
  6
CONTINUOUS
 10
146.7335682131
 20
141.6970223162
 11
146.6969786146
 21
141.5933592361
  0
LINE
  5
3C2
100
AcDbEntity
  8
DRAFT
100
AcDbLine
 62
7
  6
CONTINUOUS
 10
147.0164109256
 20
141.8384436725
 11
146.9798213271
 21
141.7347805923
  0
LINE
  5
3C3
100
AcDbEntity
  8
DRAFT
100
AcDbLine
 62
7
  6
CONTINUOUS
 10
147.2992536381
 20
141.9798650287
 11
147.2626640395
 21
141.8762019485
  0
LINE
  5
3C4
100
AcDbEntity
  8
DRAFT
100
AcDbLine
 62
7
  6
CONTINUOUS
 10
147.5820963505
 20
142.121286385
 11
147.545506752
 21
142.0176233048
  0
LWPOLYLINE
  5
3C5
100
AcDbEntity
  8
RACCORDO
100
AcDbPolyline
 62
253
  6
CONTINUOUS
 90
5
 70
0
 10
147.7986662904
 20
125.9750920278
 10
147.7742159549
 20
125.939876772
 10
147.7516937164
 20
125.9033561113
 10
147.7309753983
 20
125.8652583453
 10
147.7121851773
 20
125.8258551744
  0
LWPOLYLINE
  5
3C6
100
AcDbEntity
  8
RACCORDO
100
AcDbPolyline
 62
7
  6
CONTINUOUS
 90
5
 70
0
 10
148.3711171516
 20
126.5780672762
 10
148.3902027221
 20
126.6044258781
 10
148.4057087943
 20
126.6330530925
 10
148.417366061
 20
126.6634616311
 10
148.424983442
 20
126.6951965031
  0
LINE
  5
3C7
100
AcDbEntity
  8
RACCORDO
100
AcDbLine
 62
253
  6
CONTINUOUS
 10
147.8250447229
 20
126.0090018788
 11
147.7986662904
 21
125.9750920278
  0
LWPOLYLINE
  5
3C8
100
AcDbEntity
  8
RACCORDO
100
AcDbPolyline
 62
7
  6
CONTINUOUS
 90
13
 70
0
 10
147.8407870657
 20
125.9379022333
 10
147.8234396932
 20
125.9156796812
 10
147.8067076178
 20
125.8915544223
 10
147.7908888889
 20
125.8658205238
 10
147.7762140913
 20
125.8387337297
 10
147.7629741868
 20
125.8107466936
 10
147.7514692812
 20
125.7825230838
 10
147.7418121408
 20
125.754493786
 10
147.734061285
 20
125.7270767807
 10
147.7282740419
 20
125.7009397191
 10
147.7243676802
 20
125.6765483991
 10
147.7221722586
 20
125.6541447457
 10
147.7214913323
 20
125.6340018788
  0
LINE
  5
3C9
100
AcDbEntity
  8
RACCORDO
100
AcDbLine
 62
253
  6
CONTINUOUS
 10
148.3661782366
 20
85.5389928563
 11
148.3564276607
 21
85.5677351537
  0
LINE
  5
3CA
100
AcDbEntity
  8
0
100
AcDbLine
 62
7
  6
CONTINUOUS
 10
138.7060894134
 20
134.2802529735
 11
138.7060894134
 21
134.4791696201
  0
LWPOLYLINE
  5
3CB
100
AcDbEntity
  8
RACCORDO
100
AcDbPolyline
 62
253
  6
CONTINUOUS
 90
13
 70
0
 10
137.9090966917
 20
84.1283929313
 10
138.0084462754
 20
87.1177889379
 10
138.1353969416
 20
90.1189120403
 10
138.2899321608
 20
93.1313781283
 10
138.4720318395
 20
96.1548016169
 10
138.6816726007
 20
99.1887954726
 10
138.9188277912
 20
102.2329712641
 10
139.1834671983
 20
105.2869391588
 10
139.4755567881
 20
108.3503082215
 10
139.7950589942
 20
111.4226864436
 10
140.1419329778
 20
114.5036804662
 10
140.516134629
 20
117.5928956299
 10
140.9176163127
 20
120.6899362756
  0
LWPOLYLINE
  5
3CC
100
AcDbEntity
  8
RACCORDO
100
AcDbPolyline
 62
253
  6
CONTINUOUS
 90
13
 70
0
 10
139.030179315
 20
84.0990893052
 10
139.1292895391
 20
87.0811449147
 10
139.2558900721
 20
90.0741324793
 10
139.4099809137
 20
93.0780519992
 10
139.5915888816
 20
96.0932925772
 10
139.8006871583
 20
99.1194651104
 10
140.0371952913
 20
102.1554022899
 10
140.3011240169
 20
105.2011080912
 10
140.5924625989
 20
108.2565785387
 10
140.911098376
 20
111.3206343969
 10
141.2569937946
 20
114.3928825874
 10
141.6301864082
 20
117.4737161887
 10
142.030676217
 20
120.5631352007
  0
LWPOLYLINE
  5
3CD
100
AcDbEntity
  8
RACCORDO
100
AcDbPolyline
 62
253
  6
CONTINUOUS
 90
19
 70
0
 10
140.9176163127
 20
120.6899362756
 10
140.9362707468
 20
120.8039224798
 10
140.9619672237
 20
120.9191409669
 10
140.9945314929
 20
121.0348069076
 10
141.033745501
 20
121.1501327215
 10
141.0793413797
 20
121.2643320919
 10
141.131002477
 20
121.3766255033
 10
141.1883779656
 20
121.4862440272
 10
141.2510797259
 20
121.5924446524
 10
141.3186778125
 20
121.6945134975
 10
141.3907164579
 20
121.7917538473
 10
141.4667083024
 20
121.8835026289
 10
141.5461326677
 20
121.9691437718
 10
141.6284566543
 20
122.0480933881
 10
141.7131218338
 20
122.1198083576
 10
141.799540216
 20
122.1838013453
 10
141.887122682
 20
122.2396355556
 10
141.9752832108
 20
122.2869267798
 10
142.0634264239
 20
122.3253502297
  0
LWPOLYLINE
  5
3CE
100
AcDbEntity
  8
RACCORDO
100
AcDbPolyline
 62
253
  6
CONTINUOUS
 90
19
 70
0
 10
142.030676217
 20
120.5631352007
 10
142.039503196
 20
120.6166064912
 10
142.0514744301
 20
120.6700085337
 10
142.0665899195
 20
120.7233413279
 10
142.0849988769
 20
120.7769983746
 10
142.1065520895
 20
120.8305861732
 10
142.1308019187
 20
120.8829242217
 10
142.1578006526
 20
120.9339576903
 10
142.1874960031
 20
120.983741409
 10
142.2192834673
 20
121.0312593651
 10
142.2532058428
 20
121.0764629629
 10
142.2892203319
 20
121.1194007982
 10
142.3265940392
 20
121.1592026467
 10
142.3653793182
 20
121.1958135303
 10
142.4055238154
 20
121.229288427
 10
142.4461375747
 20
121.258922046
 10
142.4869239443
 20
121.2844792902
 10
142.528179576
 20
121.3061952567
 10
142.5699044699
 20
121.3240699454
  0
LINE
  5
3CF
100
AcDbEntity
  8
DRAFT
100
AcDbLine
 62
7
  6
CONTINUOUS
 10
147.9619270781
 20
140.8000001713
 11
147.9278059985
 21
140.6951028316
  0
LINE
  5
3D0
100
AcDbEntity
  8
DRAFT
100
AcDbLine
 62
7
  6
CONTINUOUS
 10
148.2447697905
 20
140.9414215275
 11
148.2106487109
 21
140.8365241879
  0
LINE
  5
3D1
100
AcDbEntity
  8
DRAFT
100
AcDbLine
 62
7
  6
CONTINUOUS
 10
148.527612503
 20
141.0828428838
 11
148.4934914234
 21
140.9779455441
  0
LINE
  5
3D2
100
AcDbEntity
  8
DRAFT
100
AcDbLine
 62
7
  6
CONTINUOUS
 10
148.8104552155
 20
141.22426424
 11
148.7763341359
 21
141.1193669004
  0
LINE
  5
3D3
100
AcDbEntity
  8
DRAFT
100
AcDbLine
 62
7
  6
CONTINUOUS
 10
149.093297928
 20
141.3656855962
 11
149.0591768484
 21
141.2607882566
  0
LINE
  5
3D4
100
AcDbEntity
  8
DRAFT
100
AcDbLine
 62
7
  6
CONTINUOUS
 10
148.9454008554
 20
139.6437316011
 11
148.9740932423
 21
139.725020856
  0
LWPOLYLINE
  5
3D5
100
AcDbEntity
  8
RACCORDO
100
AcDbPolyline
 62
253
  6
CONTINUOUS
 90
12
 70
0
 10
146.2340544652
 20
125.58850675
 10
146.2211095308
 20
125.5592267276
 10
146.2053634098
 20
125.5318724375
 10
146.18706514
 20
125.5069221956
 10
146.1664942287
 20
125.484803211
 10
146.1440019233
 20
125.4659343874
 10
146.1200185518
 20
125.4506929189
 10
146.0949750826
 20
125.439347644
 10
146.0692844845
 20
125.4320808228
 10
146.0433888301
 20
125.4290172092
 10
146.0177330021
 20
125.430208824
 10
146.0077938355
 20
125.4318433681
  0
LWPOLYLINE
  5
3D6
100
AcDbEntity
  8
RACCORDO
100
AcDbPolyline
 62
253
  6
CONTINUOUS
 90
12
 70
0
 10
146.7643845511
 20
125.4786717929
 10
146.7513352075
 20
125.4491858092
 10
146.7354844435
 20
125.421716688
 10
146.7171034702
 20
125.3967344335
 10
146.6965067909
 20
125.3746664992
 10
146.6740468207
 20
125.3558904733
 10
146.6501078558
 20
125.3407276191
 10
146.6250994986
 20
125.329437377
 10
146.599449649
 20
125.3222129263
 10
146.573597183
 20
125.3191778793
 10
146.5479844435
 20
125.3203841665
 10
146.5369071032
 20
125.3222552515
  0
LWPOLYLINE
  5
3D7
100
AcDbEntity
  8
RACCORDO
100
AcDbPolyline
 62
253
  6
CONTINUOUS
 90
19
 70
0
 10
146.7136813299
 20
124.5980565667
 10
146.7328905463
 20
124.600147704
 10
146.7530691407
 20
124.6025201145
 10
146.7735292712
 20
124.6051343668
 10
146.7939191292
 20
124.6079772029
 10
146.814322507
 20
124.611093614
 10
146.8346275598
 20
124.6144988736
 10
146.8545632941
 20
124.6181763361
 10
146.8739607229
 20
124.6221065705
 10
146.8928275638
 20
124.6262961016
 10
146.9110542589
 20
124.6307190655
 10
146.9285580401
 20
124.6353518357
 10
146.9454411066
 20
124.6402200878
 10
146.9616433147
 20
124.6452985565
 10
146.9770879483
 20
124.6505391322
 10
146.9918545471
 20
124.655949387
 10
147.0059403825
 20
124.6615155985
 10
147.0192810108
 20
124.6671941853
 10
147.0318675193
 20
124.6729590905
  0
LINE
  5
3D8
100
AcDbEntity
  8
RACCORDO
100
AcDbLine
 62
253
  6
CONTINUOUS
 10
146.6785358211
 20
124.5945372058
 11
146.7136813299
 21
124.5980565667
  0
LWPOLYLINE
  5
3D9
100
AcDbEntity
  8
RACCORDO
100
AcDbPolyline
 62
253
  6
CONTINUOUS
 90
4
 70
0
 10
146.6220626459
 20
124.5895510452
 10
146.6347321524
 20
124.5905730493
 10
146.6482753529
 20
124.591736182
 10
146.6785358211
 20
124.5945372058
  0
LWPOLYLINE
  5
3DA
100
AcDbEntity
  8
RACCORDO
100
AcDbPolyline
 62
253
  6
CONTINUOUS
 90
10
 70
0
 10
110.8825789398
 20
135.7074549827
 10
110.8270755757
 20
135.737459296
 10
110.7781380905
 20
135.7688526799
 10
110.7362908427
 20
135.8012987587
 10
110.7019822196
 20
135.8344498772
 10
110.6755798334
 20
135.8679508257
 10
110.6573665819
 20
135.9014426458
 10
110.6475376175
 20
135.9345664773
 10
110.6461982562
 20
135.966967403
 10
110.6467164471
 20
135.9716279262
  0
LWPOLYLINE
  5
3DB
100
AcDbEntity
  8
RACCORDO
100
AcDbPolyline
 62
253
  6
CONTINUOUS
 90
7
 70
0
 10
144.4637748857
 20
85.0490424003
 10
144.4659136703
 20
85.0327266263
 10
144.4722934291
 20
85.0166900197
 10
144.4828050025
 20
85.0012069713
 10
144.4972685347
 20
84.9865424003
 10
144.5154365506
 20
84.9729472217
 10
144.5369981904
 20
84.9606540527
  0
LWPOLYLINE
  5
3DC
100
AcDbEntity
  8
RACCORDO
100
AcDbPolyline
 62
253
  6
CONTINUOUS
 90
7
 70
0
 10
144.463775044
 20
84.6975877357
 10
144.465812355
 20
84.6818021654
 10
144.4721382167
 20
84.6656670801
 10
144.4826403666
 20
84.650092218
 10
144.4971309058
 20
84.6353477702
 10
144.5153563331
 20
84.6216855489
 10
144.5369981904
 20
84.6093400806
  0
LINE
  5
3DD
100
AcDbEntity
  8
RACCORDO
100
AcDbLine
 62
7
  6
CONTINUOUS
 10
144.4089848088
 20
95.2336923233
 11
144.9103957723
 21
90.5601514217
  0
LWPOLYLINE
  5
3DE
100
AcDbEntity
  8
0
100
AcDbPolyline
 62
7
  6
CONTINUOUS
 90
40
 70
0
 10
142.3444977872
 20
143.0682560852
 10
142.3442393584
 20
143.0753194696
 10
142.3436894603
 20
143.0823101938
 10
142.3428522904
 20
143.0892255852
 10
142.3417276658
 20
143.0960658669
 10
142.3403243157
 20
143.1028263399
 10
142.3386599607
 20
143.1094974329
 10
142.3367391501
 20
143.1160771097
 10
142.3345662992
 20
143.1225647309
 10
142.3321590055
 20
143.1289532463
 10
142.3295220541
 20
143.1352413784
 10
142.3266596142
 20
143.1414291971
 10
142.3235882027
 20
143.1475119034
 10
142.3203125872
 20
143.1534888814
 10
142.3168366559
 20
143.1593606755
 10
142.313175284
 20
143.1651242716
 10
142.3093330345
 20
143.1707795861
 10
142.305313517
 20
143.1763274592
 10
142.3011297596
 20
143.1817661553
 10
142.2967860084
 20
143.187095989
 10
142.2922856123
 20
143.1923179726
 10
142.2876397993
 20
143.1974311994
 10
142.2828524421
 20
143.2024362718
 10
142.2779266575
 20
143.2073342844
 10
142.2728720915
 20
143.2121247859
 10
142.2676922746
 20
143.2168085413
 10
142.2623900799
 20
143.2213867121
 10
142.2569737481
 20
143.225859123
 10
142.25144644
 20
143.2302266709
 10
142.245810848
 20
143.2344905063
 10
142.2400741324
 20
143.2386505043
 10
142.2342391412
 20
143.2427076276
 10
142.2283083856
 20
143.2466630199
 10
142.2222881925
 20
143.2505165092
 10
142.2161811462
 20
143.2542690884
 10
142.209989586
 20
143.2579218936
 10
142.2037191924
 20
143.2614746688
 10
142.1973723193
 20
143.2649284227
 10
142.1909511554
 20
143.268284277
 10
142.1870851606
 20
143.2702405603
  0
LWPOLYLINE
  5
3DF
100
AcDbEntity
  8
0
100
AcDbPolyline
 62
253
  6
CONTINUOUS
 90
52
 70
0
 10
142.9759293094
 20
143.2308233149
 10
142.9758321696
 20
143.2386922823
 10
142.9755426089
 20
143.2464408839
 10
142.9750606274
 20
143.2540691198
 10
142.9743854249
 20
143.2615842238
 10
142.9735178016
 20
143.2689789621
 10
142.9724601576
 20
143.2762316336
 10
142.9712119611
 20
143.2833414853
 10
142.9697737439
 20
143.2903092701
 10
142.9681495027
 20
143.2971155463
 10
142.9663387197
 20
143.3037598371
 10
142.9643419125
 20
143.3102426191
 10
142.9621646307
 20
143.3165458802
 10
142.9598063802
 20
143.322669111
 10
142.9572676549
 20
143.3286128208
 10
142.9545554866
 20
143.3343605254
 10
142.9516693828
 20
143.3399117013
 10
142.948609836
 20
143.345266872
 10
142.9453853547
 20
143.3504111236
 10
142.941995483
 20
143.3553438609
 10
142.938440677
 20
143.3600656792
 10
142.9347308137
 20
143.3645634501
 10
142.9308654566
 20
143.3688365534
 10
142.9268450423
 20
143.3728856094
 10
142.9226807579
 20
143.3766993511
 10
142.9183722153
 20
143.3802771142
 10
142.9139198026
 20
143.383619563
 10
142.909335871
 20
143.3867174236
 10
142.9046200448
 20
143.3895700239
 10
142.8997726998
 20
143.3921780359
 10
142.8948073142
 20
143.3945342027
 10
142.8897235639
 20
143.3966378209
 10
142.8845217732
 20
143.3984895937
 10
142.8792163931
 20
143.4000843739
 10
142.8738071249
 20
143.401421447
 10
142.8682942674
 20
143.4025015275
 10
142.8626931688
 20
143.4033216104
 10
142.8570036037
 20
143.4038809699
 10
142.8512257975
 20
143.4041803318
 10
142.8453757752
 20
143.4042188688
 10
142.8394533264
 20
143.4039958599
 10
142.8334586614
 20
143.403512026
 10
142.827408436
 20
143.4027687029
 10
142.821302472
 20
143.4017651557
 10
142.8151409475
 20
143.4005021193
 10
142.8089410523
 20
143.3989831337
 10
142.8027023174
 20
143.3972073043
 10
142.7964252119
 20
143.3951755257
 10
142.7901283323
 20
143.3928940214
 10
142.7838178774
 20
143.390364866
 10
142.7774876485
 20
143.3875859849
 10
142.7711376455
 20
143.3845573782
  0
LWPOLYLINE
  5
3E0
100
AcDbEntity
  8
0
100
AcDbPolyline
 62
7
  6
CONTINUOUS
 90
33
 70
0
 10
143.0320613093
 20
143.3002880227
 10
143.0319948951
 20
143.3086046569
 10
143.0315133511
 20
143.3240663439
 10
143.0305667135
 20
143.3393524845
 10
143.0291531587
 20
143.3544753146
 10
143.0272739064
 20
143.3694074997
 10
143.0249391197
 20
143.3840817484
 10
143.022155215
 20
143.3984875481
 10
143.0189267425
 20
143.4126232825
 10
143.0152714661
 20
143.4264369493
 10
143.0112033986
 20
143.4399107859
 10
143.006729216
 20
143.4530525257
 10
143.00186201
 20
143.4658488486
 10
142.996614063
 20
143.4782925592
 10
142.9909963962
 20
143.4903799319
 10
142.9850230188
 20
143.5021014576
 10
142.9787101947
 20
143.5134464999
 10
142.9720689713
 20
143.5244151018
 10
142.9651067358
 20
143.5350116919
 10
142.9578398685
 20
143.545226931
 10
142.9502805075
 20
143.5550590387
 10
142.942428429
 20
143.5645203379
 10
142.9342974241
 20
143.573603926
 10
142.9259015855
 20
143.582304127
 10
142.9172389227
 20
143.5906310545
 10
142.9083238075
 20
143.5985770637
 10
142.8991696688
 20
143.6061364895
 10
142.8897710484
 20
143.6133186818
 10
142.8801416855
 20
143.6201162988
 10
142.870295478
 20
143.6265227671
 10
142.8602250788
 20
143.632544633
 10
142.849936721
 20
143.6381782735
 10
142.8448705659
 20
143.6407694066
  0
LWPOLYLINE
  5
3E1
100
AcDbEntity
  8
0
100
AcDbPolyline
 62
253
  6
CONTINUOUS
 90
40
 70
0
 10
142.7711376455
 20
143.3845573782
 10
142.7711186123
 20
143.3916360786
 10
142.7708663461
 20
143.3988159319
 10
142.7703812558
 20
143.4060852969
 10
142.7696641281
 20
143.4134323873
 10
142.7687161256
 20
143.4208452906
 10
142.7675387854
 20
143.4283119877
 10
142.7661340165
 20
143.4358203724
 10
142.7645040964
 20
143.4433582707
 10
142.7626516679
 20
143.4509134609
 10
142.7605797345
 20
143.4584736932
 10
142.7582916555
 20
143.4660267095
 10
142.7557911408
 20
143.4735602638
 10
142.7530822447
 20
143.4810621411
 10
142.7501693592
 20
143.4885201782
 10
142.7470572074
 20
143.4959222828
 10
142.743750835
 20
143.5032564533
 10
142.7402556031
 20
143.5105107983
 10
142.7365771786
 20
143.5176735557
 10
142.7327215258
 20
143.5247331121
 10
142.7286948959
 20
143.5316780212
 10
142.7245038178
 20
143.5384970228
 10
142.7201550868
 20
143.5451790607
 10
142.7156557537
 20
143.5517133008
 10
142.7110131136
 20
143.5580891486
 10
142.7062346941
 20
143.5642962666
 10
142.7013282427
 20
143.5703245906
 10
142.6963017146
 20
143.5761643466
 10
142.6911632597
 20
143.5818060659
 10
142.6859212094
 20
143.5872406014
 10
142.680584063
 20
143.5924591416
 10
142.675160474
 20
143.5974532253
 10
142.6696592361
 20
143.6022147551
 10
142.6640892688
 20
143.6067360109
 10
142.6584596032
 20
143.6110096621
 10
142.6527793671
 20
143.6150287794
 10
142.6470577702
 20
143.6187868463
 10
142.6413040894
 20
143.6222777697
 10
142.6355276536
 20
143.6254958893
 10
142.6297378285
 20
143.6284359875
  0
LINE
  5
3E2
100
AcDbEntity
  8
0
100
AcDbLine
 62
7
  6
CONTINUOUS
 10
142.3445289829
 20
143.0637846745
 11
142.3445289829
 21
142.5284042575
  0
LINE
  5
3E3
100
AcDbEntity
  8
RACCORDO
100
AcDbLine
 62
253
  6
CONTINUOUS
 10
142.3469976483
 20
128.3775211753
 11
142.3469976483
 21
127.1802021396
  0
LINE
  5
3E4
100
AcDbEntity
  8
0
100
AcDbLine
 62
253
  6
CONTINUOUS
 10
142.9759293094
 20
142.8441044207
 11
142.9759293094
 21
143.2308233149
  0
LINE
  5
3E5
100
AcDbEntity
  8
0
100
AcDbLine
 62
7
  6
CONTINUOUS
 10
143.0320613493
 20
142.9002566494
 11
143.0320613493
 21
143.3002891521
  0
LINE
  5
3E6
100
AcDbEntity
  8
RACCORDO
100
AcDbLine
 62
253
  6
CONTINUOUS
 10
143.0561348754
 20
128.3785422624
 11
143.0561348754
 21
127.1736214297
  0
LINE
  5
3E7
100
AcDbEntity
  8
RACCORDO
100
AcDbLine
 62
7
  6
CONTINUOUS
 10
143.4763380186
 20
133.7437993189
 11
143.4763380186
 21
132.8434442183
  0
LINE
  5
3E8
100
AcDbEntity
  8
0
100
AcDbLine
 62
7
  6
CONTINUOUS
 10
144.2553499425
 20
142.2041891241
 11
144.2555770919
 21
142.2157408269
  0
LINE
  5
3E9
100
AcDbEntity
  8
0
100
AcDbLine
 62
7
  6
CONTINUOUS
 10
144.2555770919
 20
142.2157408269
 11
144.2559934746
 21
142.2339179565
  0
LWPOLYLINE
  5
3EA
100
AcDbEntity
  8
0
100
AcDbPolyline
 62
7
  6
CONTINUOUS
 90
5
 70
0
 10
144.2559934746
 20
142.2339179565
 10
144.2560330865
 20
142.2350172864
 10
144.2560492742
 20
142.2353820604
 10
144.2560655214
 20
142.2356220598
 10
144.2560777308
 20
142.2357334575
  0
LWPOLYLINE
  5
3EB
100
AcDbEntity
  8
0
100
AcDbPolyline
 62
7
  6
CONTINUOUS
 90
49
 70
0
 10
147.5158724049
 20
139.9233148809
 10
147.516979173
 20
139.9293468033
 10
147.5180423888
 20
139.9353681396
 10
147.5190622444
 20
139.9413771262
 10
147.5200401762
 20
139.9473728588
 10
147.5209752155
 20
139.9533526378
 10
147.5218640161
 20
139.9593119946
 10
147.5227069637
 20
139.9652489788
 10
147.5235043811
 20
139.9711618582
 10
147.5242529143
 20
139.9770464999
 10
147.5249530566
 20
139.9829009133
 10
147.525605239
 20
139.9887233262
 10
147.5262060804
 20
139.9945099296
 10
147.5267561779
 20
140.0002586973
 10
147.5272560599
 20
140.0059678104
 10
147.5277022912
 20
140.0116337489
 10
147.5280955705
 20
140.0172544508
 10
147.5284365147
 20
140.0228280424
 10
147.5287216025
 20
140.0283512444
 10
147.5289516329
 20
140.0338219533
 10
147.5291273061
 20
140.0392382322
 10
147.5292449776
 20
140.0445969859
 10
147.529305549
 20
140.0498960544
 10
147.5293098001
 20
140.0551334343
 10
147.5292539224
 20
140.0603061707
 10
147.5291389238
 20
140.0654120573
 10
147.5289656633
 20
140.070448989
 10
147.5287301248
 20
140.075414037
 10
147.528433431
 20
140.080304907
 10
147.5280765233
 20
140.0851194099
 10
147.5276551294
 20
140.0898546168
 10
147.5271704985
 20
140.0945081407
 10
147.5266236585
 20
140.099077681
 10
147.5260100254
 20
140.1035602411
 10
147.5253309889
 20
140.1079533298
 10
147.5245876723
 20
140.1122545096
 10
147.5237751216
 20
140.1164606241
 10
147.5228948848
 20
140.1205690589
 10
147.5219481938
 20
140.1245772196
 10
147.5209296632
 20
140.1284816931
 10
147.5198410219
 20
140.1322797224
 10
147.5186836279
 20
140.1359685345
 10
147.517451601
 20
140.1395443575
 10
147.516146878
 20
140.1430042724
 10
147.5147709658
 20
140.1463453053
 10
147.5133174256
 20
140.1495632161
 10
147.5117884331
 20
140.1526549059
 10
147.5101856734
 20
140.155617177
 10
147.5098184729
 20
140.1562579264
  0
LWPOLYLINE
  5
3EC
100
AcDbEntity
  8
RACCORDO
100
AcDbPolyline
 62
253
  6
CONTINUOUS
 90
6
 70
0
 10
147.6815399848
 20
125.7455652215
 10
147.6696850133
 20
125.7046784395
 10
147.6604030897
 20
125.6641545589
 10
147.6537850211
 20
125.6242779815
 10
147.6497400004
 20
125.5847643056
 10
147.6482680276
 20
125.5456135311
  0
LWPOLYLINE
  5
3ED
100
AcDbEntity
  8
RACCORDO
100
AcDbPolyline
 62
253
  6
CONTINUOUS
 90
3
 70
0
 10
147.7121851773
 20
125.8258551744
 10
147.695695583
 20
125.7859617002
 10
147.6815399848
 20
125.7455652215
  0
LINE
  5
3EE
100
AcDbEntity
  8
RACCORDO
100
AcDbLine
 62
253
  6
CONTINUOUS
 10
147.8979507035
 20
125.1635681013
 11
147.9064453918
 21
125.1827871237
  0
LWPOLYLINE
  5
3EF
100
AcDbEntity
  8
RACCORDO
100
AcDbPolyline
 62
253
  6
CONTINUOUS
 90
4
 70
0
 10
145.1545228889
 20
125.6143968618
 10
145.1712567431
 20
125.6161918115
 10
145.1868172988
 20
125.6211761365
 10
145.1890277277
 20
125.6221915772
  0
LWPOLYLINE
  5
3F0
100
AcDbEntity
  8
RACCORDO
100
AcDbPolyline
 62
253
  6
CONTINUOUS
 90
16
 70
0
 10
140.9176313043
 20
120.6899405646
 10
140.9790813508
 20
120.6614680795
 10
141.0458439677
 20
120.6350111758
 10
141.1172038168
 20
120.6108533298
 10
141.1923963022
 20
120.5892533845
 10
141.2706157628
 20
120.5704427756
 10
141.3510241042
 20
120.5546230517
 10
141.4327597791
 20
120.5419637157
 10
141.5149470183
 20
120.5326004078
 10
141.5967052143
 20
120.5266334527
 10
141.6771583564
 20
120.5241267842
 10
141.7554444175
 20
120.5251072602
 10
141.8307245896
 20
120.5295643754
 10
141.902192272
 20
120.5374503734
 10
141.9690817134
 20
120.5486807583
 10
142.0306762169
 20
120.5631352007
  0
LINE
  5
3F1
100
AcDbEntity
  8
RACCORDO
100
AcDbLine
 62
253
  6
CONTINUOUS
 10
110.8825789136
 20
135.7074549752
 11
140.9176163127
 21
120.6899362756
  0
LWPOLYLINE
  5
3F2
100
AcDbEntity
  8
RACCORDO
100
AcDbPolyline
 62
253
  6
CONTINUOUS
 90
7
 70
0
 10
134.4607265585
 20
132.691160961
 10
134.4707512038
 20
132.6732119718
 10
134.4775796264
 20
132.6570824438
 10
134.48109499
 20
132.6430483579
 10
134.4812371459
 20
132.6313498411
 10
134.4780036617
 20
132.6221870583
 10
134.4764689013
 20
132.6200613155
  0
LWPOLYLINE
  5
3F3
100
AcDbEntity
  8
RACCORDO
100
AcDbPolyline
 62
7
  6
CONTINUOUS
 90
6
 70
0
 10
134.3672553529
 20
131.9471663362
 10
134.3641567114
 20
131.9531400377
 10
134.3610302967
 20
131.9614562645
 10
134.3584756333
 20
131.9721377535
 10
134.357212583
 20
131.984657703
 10
134.3571675957
 20
131.9876858226
  0
LWPOLYLINE
  5
3F4
100
AcDbEntity
  8
RACCORDO
100
AcDbPolyline
 62
253
  6
CONTINUOUS
 90
7
 70
0
 10
145.1708816669
 20
86.1525957909
 10
145.1730204515
 20
86.1362800169
 10
145.1794002103
 20
86.1202434103
 10
145.1899117837
 20
86.1047603619
 10
145.2043753159
 20
86.0900957909
 10
145.2225433318
 20
86.0765006123
 10
145.2441049716
 20
86.0642074433
  0
LINE
  5
3F5
100
AcDbEntity
  8
DRAFT
100
AcDbLine
 62
7
  6
CONTINUOUS
 10
145.43234789
 20
104.243542457
 11
147.1949988612
 21
87.8142618709
  0
LWPOLYLINE
  5
3F6
100
AcDbEntity
  8
RACCORDO
100
AcDbPolyline
 62
253
  6
CONTINUOUS
 90
3
 70
0
 10
148.3759078419
 20
85.4767799231
 10
148.3727118425
 20
85.508492899
 10
148.3661782366
 20
85.5389928563
  0
LWPOLYLINE
  5
3F7
100
AcDbEntity
  8
RACCORDO
100
AcDbPolyline
 62
7
  6
CONTINUOUS
 90
10
 70
0
 10
144.4637748857
 20
126.3486465397
 10
144.466042136
 20
126.3150587531
 10
144.472879672
 20
126.2817939022
 10
144.4842403224
 20
126.2495814891
 10
144.4999488915
 20
126.2191149774
 10
144.5196806463
 20
126.1910793486
 10
144.5430208093
 20
126.1660457582
 10
144.5695589704
 20
126.1444368043
 10
144.5988526018
 20
126.1266270855
 10
144.6022900255
 20
126.1248812275
  0
LWPOLYLINE
  5
3F8
100
AcDbEntity
  8
RACCORDO
100
AcDbPolyline
 62
253
  6
CONTINUOUS
 90
8
 70
0
 10
145.1708816676
 20
125.648294439
 10
145.1712370403
 20
125.6418927185
 10
145.1739626336
 20
125.6294339933
 10
145.1793594032
 20
125.6171048687
 10
145.1873775589
 20
125.6050517273
 10
145.1979633972
 20
125.5933753758
 10
145.2110350702
 20
125.5822000963
 10
145.2264653634
 20
125.5716692001
  0
LWPOLYLINE
  5
3F9
100
AcDbEntity
  8
RACCORDO
100
AcDbPolyline
 62
7
  6
CONTINUOUS
 90
15
 70
0
 10
143.4763380186
 20
133.7437993189
 10
143.4755541856
 20
133.7719269747
 10
143.4732897092
 20
133.7989535989
 10
143.4695445893
 20
133.8248791917
 10
143.4642901901
 20
133.849805051
 10
143.4575551475
 20
133.8736298789
 10
143.4494253692
 20
133.8960497812
 10
143.439882989
 20
133.9170467613
 10
143.4289458733
 20
133.9366388159
 10
143.4167535286
 20
133.9545760416
 10
143.4032898758
 20
133.9708372403
 10
143.3885709941
 20
133.98544361
 10
143.372784628
 20
133.9982088415
 10
143.3559171032
 20
134.00910935
 10
143.3463814609
 20
134.0142218152
  0
LINE
  5
3FA
100
AcDbEntity
  8
RACCORDO
100
AcDbLine
 62
253
  6
CONTINUOUS
 10
144.4637748857
 20
84.6977284161
 11
144.463775044
 21
84.6975877357
  0
LINE
  5
3FB
100
AcDbEntity
  8
RACCORDO
100
AcDbLine
 62
7
  6
CONTINUOUS
 10
144.4637748857
 20
84.6977284283
 11
144.4637748857
 21
85.0490424003
  0
LINE
  5
3FC
100
AcDbEntity
  8
RACCORDO
100
AcDbLine
 62
7
  6
CONTINUOUS
 10
144.4637748857
 20
126.3486465397
 11
144.4637748857
 21
126.6999605118
  0
LINE
  5
3FD
100
AcDbEntity
  8
RACCORDO
100
AcDbLine
 62
253
  6
CONTINUOUS
 10
144.5369981904
 20
84.6093400806
 11
144.5369981904
 21
84.9606540527
  0
LINE
  5
3FE
100
AcDbEntity
  8
RACCORDO
100
AcDbLine
 62
253
  6
CONTINUOUS
 10
144.5369981904
 20
126.2602581921
 11
144.5369981904
 21
126.6115721642
  0
LINE
  5
3FF
100
AcDbEntity
  8
RACCORDO
100
AcDbLine
 62
7
  6
CONTINUOUS
 10
145.1708816669
 20
86.1525957909
 11
145.1708816669
 21
86.2178656707
  0
LINE
  5
400
100
AcDbEntity
  8
RACCORDO
100
AcDbLine
 62
7
  6
CONTINUOUS
 10
145.1708816669
 20
125.6482463277
 11
145.1708816669
 21
125.840584652
  0
LINE
  5
401
100
AcDbEntity
  8
RACCORDO
100
AcDbLine
 62
253
  6
CONTINUOUS
 10
145.2441049716
 20
86.0642074433
 11
145.2441049716
 21
86.1812540183
  0
LINE
  5
402
100
AcDbEntity
  8
RACCORDO
100
AcDbLine
 62
253
  6
CONTINUOUS
 10
145.2441049716
 20
125.5619081229
 11
145.2441049716
 21
125.8039729996
  0
LINE
  5
403
100
AcDbEntity
  8
0
100
AcDbLine
 62
7
  6
CONTINUOUS
 10
145.4557988201
 20
141.5081497558
 11
145.4557988201
 21
140.9727693388
  0
LINE
  5
404
100
AcDbEntity
  8
RACCORDO
100
AcDbLine
 62
253
  6
CONTINUOUS
 10
145.8805010746
 20
125.939820722
 11
145.8805010746
 21
125.58850675
  0
LINE
  5
405
100
AcDbEntity
  8
RACCORDO
100
AcDbLine
 62
253
  6
CONTINUOUS
 10
145.8805010746
 20
84.2889026106
 11
145.8805010746
 21
83.9375886385
  0
LINE
  5
406
100
AcDbEntity
  8
RACCORDO
100
AcDbLine
 62
7
  6
CONTINUOUS
 10
145.9512117527
 20
132.8309373117
 11
145.9512117527
 21
132.6358243667
  0
LINE
  5
407
100
AcDbEntity
  8
RACCORDO
100
AcDbLine
 62
253
  6
CONTINUOUS
 10
146.2340544652
 20
125.939820722
 11
146.2340544652
 21
125.58850675
  0
LINE
  5
408
100
AcDbEntity
  8
RACCORDO
100
AcDbLine
 62
253
  6
CONTINUOUS
 10
146.2340544652
 20
84.2889026106
 11
146.2340544652
 21
83.9375886385
  0
LINE
  5
409
100
AcDbEntity
  8
0
100
AcDbLine
 62
7
  6
CONTINUOUS
 10
144.2546254134
 20
142.1645305035
 11
144.2553499425
 21
142.2041891241
  0
LWPOLYLINE
  5
40A
100
AcDbEntity
  8
RACCORDO
100
AcDbPolyline
 62
7
  6
CONTINUOUS
 90
6
 70
0
 10
145.1708860811
 20
125.6484778701
 10
145.170676606
 20
125.6421226387
 10
145.1690081319
 20
125.6298680375
 10
145.1661642183
 20
125.6194731855
 10
145.1628502883
 20
125.6114233366
 10
145.160495886
 20
125.6070427424
  0
LWPOLYLINE
  5
40B
100
AcDbEntity
  8
RACCORDO
100
AcDbPolyline
 62
253
  6
CONTINUOUS
 90
10
 70
0
 10
144.5369981904
 20
84.9606540527
 10
144.5381571557
 20
84.9859846842
 10
144.5416427677
 20
85.0122794949
 10
144.5474444571
 20
85.0392003256
 10
144.5555350257
 20
85.0664378582
 10
144.5658303406
 20
85.0935758973
 10
144.5781536726
 20
85.1201034246
 10
144.5923106087
 20
85.1456145662
 10
144.6081269254
 20
85.1698063309
 10
144.625386538
 20
85.1923482265
  0
LINE
  5
40C
100
AcDbEntity
  8
RACCORDO
100
AcDbLine
 62
7
  6
CONTINUOUS
 10
146.6836470357
 20
122.8769096123
 11
143.5719007669
 21
85.0608869793
  0
LINE
  5
40D
100
AcDbEntity
  8
DRAFT
100
AcDbLine
 62
7
  6
CONTINUOUS
 10
147.1949988612
 20
122.3749952998
 11
145.43234789
 21
104.243542457
  0
LWPOLYLINE
  5
40E
100
AcDbEntity
  8
RACCORDO
100
AcDbPolyline
 62
253
  6
CONTINUOUS
 90
4
 70
0
 10
147.7338641722
 20
125.275424127
 10
147.717558469
 20
125.2774283785
 10
147.70245971
 20
125.282528975
 10
147.7002466647
 20
125.2835906003
  0
LINE
  5
40F
100
AcDbEntity
  8
RACCORDO
100
AcDbLine
 62
7
  6
CONTINUOUS
 10
146.0065770173
 20
125.4320902086
 11
146.5369071032
 21
125.3222552515
  0
LINE
  5
410
100
AcDbEntity
  8
RACCORDO
100
AcDbLine
 62
253
  6
CONTINUOUS
 10
146.2340544652
 20
125.58850675
 11
146.7643845511
 21
125.4786717929
  0
LWPOLYLINE
  5
411
100
AcDbEntity
  8
RACCORDO
100
AcDbPolyline
 62
253
  6
CONTINUOUS
 90
7
 70
0
 10
112.0114507712
 20
137.351338056
 10
111.9510425371
 20
137.376575076
 10
111.8907560162
 20
137.393706627
 10
111.8312514772
 20
137.4025451147
 10
111.7731806085
 20
137.4029937721
 10
111.7171794161
 20
137.3950477181
 10
111.6594456282
 20
137.3770236891
  0
LINE
  5
412
100
AcDbEntity
  8
RACCORDO
100
AcDbLine
 62
253
  6
CONTINUOUS
 10
112.0114507712
 20
137.351338056
 11
142.0634264239
 21
122.3253502297
  0
LINE
  5
413
100
AcDbEntity
  8
DRAFT
100
AcDbLine
 62
7
  6
CONTINUOUS
 10
146.6641856557
 20
122.6404019025
 11
147.1949988612
 21
122.3749952998
  0
LWPOLYLINE
  5
414
100
AcDbEntity
  8
RACCORDO
100
AcDbPolyline
 62
253
  6
CONTINUOUS
 90
16
 70
0
 10
142.0634264239
 20
122.3253502297
 10
142.1212385645
 20
122.2914771793
 10
142.1778775864
 20
122.2501462543
 10
142.2327231811
 20
122.2018101095
 10
142.2851746815
 20
122.1469981207
 10
142.3346576408
 20
122.0863105869
 10
142.3806301236
 20
122.0204121559
 10
142.422588641
 20
121.9500245451
 10
142.4600736647
 20
121.875918637
 10
142.4926746601
 20
121.7989060369
 10
142.5200345822
 20
121.7198301841
 10
142.5418537863
 20
121.6395571145
 10
142.557893309
 20
121.558965976
 10
142.5679774862
 20
121.4789393998
 10
142.5719958762
 20
121.4003538341
 10
142.5699044699
 20
121.3240699454
  0
LWPOLYLINE
  5
415
100
AcDbEntity
  8
RACCORDO
100
AcDbPolyline
 62
253
  6
CONTINUOUS
 90
6
 70
0
 10
134.9910566443
 20
133.3313260039
 10
135.0010202779
 20
133.3135002656
 10
135.0078462397
 20
133.2974320168
 10
135.0113972984
 20
133.2834064392
 10
135.0115896774
 20
133.2716690998
 10
135.0083936781
 20
133.2624484292
  0
LWPOLYLINE
  5
416
100
AcDbEntity
  8
RACCORDO
100
AcDbPolyline
 62
253
  6
CONTINUOUS
 90
7
 70
0
 10
144.4637748857
 20
126.699960524
 10
144.46607663
 20
126.6830373463
 10
144.4726813902
 20
126.6668926784
 10
144.4833875744
 20
126.6514278248
 10
144.4978890274
 20
126.6369262033
 10
144.5158829704
 20
126.6235753204
 10
144.5369981904
 20
126.6115721642
  0
LWPOLYLINE
  5
417
100
AcDbEntity
  8
RACCORDO
100
AcDbPolyline
 62
253
  6
CONTINUOUS
 90
7
 70
0
 10
144.4637748857
 20
126.3486465397
 10
144.4659136703
 20
126.3323307657
 10
144.4722934291
 20
126.3162941591
 10
144.4828050025
 20
126.3008111107
 10
144.4972685347
 20
126.2861465397
 10
144.5154365506
 20
126.2725513611
 10
144.5369981904
 20
126.2602581921
  0
LWPOLYLINE
  5
418
100
AcDbEntity
  8
RACCORDO
100
AcDbPolyline
 62
7
  6
CONTINUOUS
 90
5
 70
0
 10
148.4285981135
 20
85.43795113
 10
148.4263308631
 20
85.4715389167
 10
148.4194933271
 20
85.5048037675
 10
148.4081326767
 20
85.5370161807
 10
148.3924241076
 20
85.5674826924
  0
LWPOLYLINE
  5
419
100
AcDbEntity
  8
RACCORDO
100
AcDbPolyline
 62
253
  6
CONTINUOUS
 90
8
 70
0
 10
146.5876078558
 20
125.1920601405
 10
146.586412555
 20
125.2165973434
 10
146.5828428171
 20
125.2396074218
 10
146.5769469166
 20
125.2607792041
 10
146.5688045855
 20
125.2798263782
 10
146.5585259348
 20
125.2964913637
 10
146.5462499656
 20
125.3105487953
 10
146.5321426894
 20
125.3218085703
  0
LWPOLYLINE
  5
41A
100
AcDbEntity
  8
RACCORDO
100
AcDbPolyline
 62
253
  6
CONTINUOUS
 90
13
 70
0
 10
147.6482680276
 20
85.7460093918
 10
147.6497305126
 20
85.7084017642
 10
147.6537617921
 20
85.6729888628
 10
147.6603618659
 20
85.6397706876
 10
147.669616864
 20
85.6085537884
 10
147.6814406564
 20
85.5795316154
 10
147.6955748534
 20
85.5532845194
 10
147.7120569186
 20
85.529851933
 10
147.7308493883
 20
85.5091944236
 10
147.7515814817
 20
85.4917740443
 10
147.7741296051
 20
85.4777448126
 10
147.7986173522
 20
85.466952711
 10
147.8250447229
 20
85.4593977394
  0
LWPOLYLINE
  5
41B
100
AcDbEntity
  8
RACCORDO
100
AcDbPolyline
 62
253
  6
CONTINUOUS
 90
13
 70
0
 10
146.9411612464
 20
125.1920601405
 10
146.9396987613
 20
125.2296677681
 10
146.9356674819
 20
125.2650806695
 10
146.9290674081
 20
125.2982988447
 10
146.91981241
 20
125.3295157439
 10
146.9079886176
 20
125.3585379169
 10
146.8938544206
 20
125.3847850129
 10
146.8773723554
 20
125.4082175993
 10
146.8585798857
 20
125.4288751087
 10
146.8378477923
 20
125.4462954881
 10
146.8152996689
 20
125.4603247197
 10
146.7908119218
 20
125.4711168213
 10
146.7643845511
 20
125.4786717929
  0
LWPOLYLINE
  5
41C
100
AcDbEntity
  8
0
100
AcDbPolyline
 62
7
  6
CONTINUOUS
 90
40
 70
0
 10
145.4557676244
 20
141.5126211666
 10
145.4555091956
 20
141.519684551
 10
145.4549592975
 20
141.5266752752
 10
145.4541221276
 20
141.5335906666
 10
145.452997503
 20
141.5404309483
 10
145.4515941529
 20
141.5471914213
 10
145.4499297979
 20
141.5538625143
 10
145.4480089873
 20
141.5604421911
 10
145.4458361365
 20
141.5669298123
 10
145.4434288428
 20
141.5733183277
 10
145.4407918913
 20
141.5796064598
 10
145.4379294514
 20
141.5857942785
 10
145.4348580399
 20
141.5918769848
 10
145.4315824244
 20
141.5978539628
 10
145.4281064932
 20
141.6037257569
 10
145.4244451212
 20
141.609489353
 10
145.4206028717
 20
141.6151446675
 10
145.4165833542
 20
141.6206925406
 10
145.4123995968
 20
141.6261312367
 10
145.4080558457
 20
141.6314610704
 10
145.4035554495
 20
141.636683054
 10
145.3989096365
 20
141.6417962808
 10
145.3941222794
 20
141.6468013531
 10
145.3891964947
 20
141.6516993658
 10
145.3841419287
 20
141.6564898673
 10
145.3789621118
 20
141.6611736227
 10
145.3736599172
 20
141.6657517934
 10
145.3682435854
 20
141.6702242043
 10
145.3627162772
 20
141.6745917523
 10
145.3570806853
 20
141.6788555877
 10
145.3513439697
 20
141.6830155857
 10
145.3455089784
 20
141.687072709
 10
145.3395782228
 20
141.6910281013
 10
145.3335580297
 20
141.6948815906
 10
145.3274509834
 20
141.6986341698
 10
145.3212594232
 20
141.7022869749
 10
145.3149890296
 20
141.7058397502
 10
145.3086421565
 20
141.7092935041
 10
145.3022209926
 20
141.7126493584
 10
145.2983549978
 20
141.7146056417
  0
LWPOLYLINE
  5
41D
100
AcDbEntity
  8
RACCORDO
100
AcDbPolyline
 62
7
  6
CONTINUOUS
 90
6
 70
0
 10
147.7214913323
 20
85.8343977394
 10
147.7219646764
 20
85.8185800894
 10
147.7232377134
 20
85.8049604435
 10
147.7250586323
 20
85.7936880196
 10
147.7271484702
 20
85.7848165283
 10
147.7288073039
 20
85.7794632819
  0
LWPOLYLINE
  5
41E
100
AcDbEntity
  8
RACCORDO
100
AcDbPolyline
 62
7
  6
CONTINUOUS
 90
15
 70
0
 10
145.9512117527
 20
132.8309373117
 10
145.9496798712
 20
132.8865690595
 10
145.945250688
 20
132.9400543692
 10
145.9379242031
 20
132.9913932406
 10
145.9276456244
 20
133.0407821321
 10
145.9144697442
 20
133.0880245855
 10
145.8985609382
 20
133.1325312262
 10
145.8798849696
 20
133.1742677811
 10
145.8584760752
 20
133.2132685234
 10
145.8346013425
 20
133.2490468984
 10
145.8082298802
 20
133.2815625374
 10
145.7793925795
 20
133.3108558091
 10
145.7484492008
 20
133.3365612644
 10
145.7153733601
 20
133.3586339566
 10
145.6912832524
 20
133.3717928282
  0
LINE
  5
41F
100
AcDbEntity
  8
RACCORDO
100
AcDbLine
 62
7
  6
CONTINUOUS
 10
147.7216272496
 20
125.3002550023
 11
147.7214868063
 21
125.3054652924
  0
LINE
  5
420
100
AcDbEntity
  8
DRAFT
100
AcDbLine
 62
7
  6
CONTINUOUS
 10
146.2508765509
 20
142.7936121988
 11
146.2694098043
 21
141.4839489742
  0
LINE
  5
421
100
AcDbEntity
  8
RACCORDO
100
AcDbLine
 62
253
  6
CONTINUOUS
 10
146.5876078558
 20
125.1920601405
 11
146.5876078558
 21
124.8901566808
  0
LINE
  5
422
100
AcDbEntity
  8
RACCORDO
100
AcDbLine
 62
253
  6
CONTINUOUS
 10
146.5876078558
 20
85.6025484024
 11
146.5876078558
 21
85.3924560012
  0
LINE
  5
423
100
AcDbEntity
  8
RACCORDO
100
AcDbLine
 62
7
  6
CONTINUOUS
 10
146.7273567668
 20
123.8648217571
 11
146.7273567668
 21
123.8389521192
  0
LINE
  5
424
100
AcDbEntity
  8
RACCORDO
100
AcDbLine
 62
7
  6
CONTINUOUS
 10
146.7273567668
 20
85.8728386925
 11
146.7273567668
 21
85.8987083304
  0
LINE
  5
425
100
AcDbEntity
  8
RACCORDO
100
AcDbLine
 62
253
  6
CONTINUOUS
 10
146.9411612464
 20
125.1920601405
 11
146.9411612464
 21
124.8833542424
  0
LINE
  5
426
100
AcDbEntity
  8
RACCORDO
100
AcDbLine
 62
253
  6
CONTINUOUS
 10
146.9411612464
 20
85.7011618993
 11
146.9411612464
 21
85.3924560012
  0
LINE
  5
427
100
AcDbEntity
  8
DRAFT
100
AcDbLine
 62
7
  6
CONTINUOUS
 10
147.1949988612
 20
123.995633023
 11
147.1949988612
 21
122.3749952998
  0
LINE
  5
428
100
AcDbEntity
  8
DRAFT
100
AcDbLine
 62
7
  6
CONTINUOUS
 10
147.1949988612
 20
87.8142618709
 11
147.1949988612
 21
86.1936241478
  0
LINE
  5
429
100
AcDbEntity
  8
RACCORDO
100
AcDbLine
 62
253
  6
CONTINUOUS
 10
147.6482680276
 20
85.7460093918
 11
147.6482680276
 21
86.0698318195
  0
LINE
  5
42A
100
AcDbEntity
  8
RACCORDO
100
AcDbLine
 62
253
  6
CONTINUOUS
 10
147.6482680276
 20
125.2217911034
 11
147.6482680276
 21
125.5456135311
  0
LINE
  5
42B
100
AcDbEntity
  8
RACCORDO
100
AcDbLine
 62
7
  6
CONTINUOUS
 10
147.7214913323
 20
85.8343977394
 11
147.7214913323
 21
86.1364529988
  0
LINE
  5
42C
100
AcDbEntity
  8
RACCORDO
100
AcDbLine
 62
7
  6
CONTINUOUS
 10
147.7214913315
 20
125.3053790443
 11
147.7214913323
 21
125.6340018788
  0
LINE
  5
42D
100
AcDbEntity
  8
RACCORDO
100
AcDbLine
 62
253
  6
CONTINUOUS
 10
148.3553748088
 20
127.0004808938
 11
148.3553748088
 21
126.6491669217
  0
LINE
  5
42E
100
AcDbEntity
  8
RACCORDO
100
AcDbLine
 62
253
  6
CONTINUOUS
 10
148.3553748088
 20
85.3495627824
 11
148.3553748088
 21
84.9982488103
  0
LINE
  5
42F
100
AcDbEntity
  8
RACCORDO
100
AcDbLine
 62
7
  6
CONTINUOUS
 10
148.4285981135
 20
127.0888692415
 11
148.4285981135
 21
126.7375552694
  0
LINE
  5
430
100
AcDbEntity
  8
RACCORDO
100
AcDbLine
 62
7
  6
CONTINUOUS
 10
148.4285981135
 20
85.43795113
 11
148.4285981135
 21
85.0866371579
  0
LINE
  5
431
100
AcDbEntity
  8
0
100
AcDbLine
 62
253
  6
CONTINUOUS
 10
148.6835790419
 20
137.1919859787
 11
148.6835790419
 21
133.9792891968
  0
LINE
  5
432
100
AcDbEntity
  8
RACCORDO
100
AcDbLine
 62
253
  6
CONTINUOUS
 10
148.4285981135
 20
85.0866371457
 11
148.4285979551
 21
85.0864964654
  0
LWPOLYLINE
  5
433
100
AcDbEntity
  8
0
100
AcDbPolyline
 62
7
  6
CONTINUOUS
 90
45
 70
0
 10
148.7677771018
 20
137.2961879373
 10
148.7677751068
 20
134.2627349533
 10
148.7676966811
 20
134.2561170643
 10
148.7675055762
 20
134.2494729884
 10
148.7672038632
 20
134.242803678
 10
148.7667933848
 20
134.236113987
 10
148.7662760717
 20
134.22940498
 10
148.7656538986
 20
134.2226775388
 10
148.7649284716
 20
134.2159362027
 10
148.7641016274
 20
134.2091819112
 10
148.763175256
 20
134.2024154869
 10
148.7621507824
 20
134.1956412657
 10
148.7610299619
 20
134.1888600774
 10
148.7598146126
 20
134.1820726938
 10
148.758506033
 20
134.175283344
 10
148.7571059105
 20
134.1684927604
 10
148.755616005
 20
134.1617016704
 10
148.7540375429
 20
134.1549142805
 10
148.7523721567
 20
134.1481312344
 10
148.7506215626
 20
134.14135322
 10
148.7487869698
 20
134.1345844978
 10
148.7468699849
 20
134.1278256842
 10
148.7448722806
 20
134.1210773747
 10
148.7427950539
 20
134.1143437865
 10
148.7406398606
 20
134.1076254063
 10
148.7384083667
 20
134.1009228474
 10
148.7361018544
 20
134.0942405045
 10
148.7337218655
 20
134.0875788125
 10
148.731270052
 20
134.0809383252
 10
148.728747815
 20
134.0743235983
 10
148.7261566857
 20
134.0677349968
 10
148.7234983194
 20
134.0611730318
 10
148.7207742879
 20
134.0546424534
 10
148.7179861209
 20
134.0481435582
 10
148.7151354869
 20
134.0416768081
 10
148.712224179
 20
134.035247168
 10
148.7092537348
 20
134.028854868
 10
148.7062258427
 20
134.022500311
 10
148.7031425633
 20
134.016188676
 10
148.7000054503
 20
134.0099201305
 10
148.6968162159
 20
134.0036950039
 10
148.6935772227
 20
133.9975186609
 10
148.6902903824
 20
133.9913929974
 10
148.6869571075
 20
133.9853164607
 10
148.6835790419
 20
133.9792891968
  0
LWPOLYLINE
  5
434
100
AcDbEntity
  8
RACCORDO
100
AcDbPolyline
 62
253
  6
CONTINUOUS
 90
10
 70
0
 10
147.2524071334
 20
86.1007803122
 10
147.2514783506
 20
86.0581296653
 10
147.2469611745
 20
86.0177837671
 10
147.2389023987
 20
85.9801605643
 10
147.2273855049
 20
85.9456497992
 10
147.2125297976
 20
85.914608972
 10
147.1944891686
 20
85.8873596373
 10
147.1734505022
 20
85.8641840737
 10
147.14963174
 20
85.8453223588
 10
147.1327739585
 20
85.8354697503
  0
LWPOLYLINE
  5
435
100
AcDbEntity
  8
RACCORDO
100
AcDbPolyline
 62
253
  6
CONTINUOUS
 90
10
 70
0
 10
147.971710119
 20
86.4684855859
 10
147.9707080255
 20
86.4249299225
 10
147.9659619659
 20
86.3837895256
 10
147.9575232649
 20
86.3455091821
 10
147.9454831672
 20
86.3105027563
 10
147.92997185
 20
86.2791487164
 10
147.9111570169
 20
86.2517860424
 10
147.8892420837
 20
86.2287105611
 10
147.8644639805
 20
86.2101717487
 10
147.852000131
 20
86.203133613
  0
LWPOLYLINE
  5
436
100
AcDbEntity
  8
RACCORDO
100
AcDbPolyline
 62
253
  6
CONTINUOUS
 90
10
 70
0
 10
146.9631029067
 20
85.9916168093
 10
146.9618603375
 20
85.9476634702
 10
146.956825428
 20
85.9061623501
 10
146.9480534174
 20
85.8675682054
 10
146.9356405359
 20
85.8323039594
 10
146.9197228175
 20
85.8007559941
 10
146.9004746059
 20
85.7732699202
 10
146.8781068571
 20
85.7501469077
 10
146.8528647207
 20
85.7316403226
 10
146.8407897677
 20
85.7249494709
  0
LWPOLYLINE
  5
437
100
AcDbEntity
  8
0
100
AcDbPolyline
 62
253
  6
CONTINUOUS
 90
22
 70
0
 10
148.7677771018
 20
137.2961872371
 10
148.767657335
 20
137.2919498446
 10
148.7671388491
 20
137.286408568
 10
148.76621093
 20
137.2808806665
 10
148.7648748469
 20
137.2753737005
 10
148.7631324272
 20
137.2698952019
 10
148.7609860539
 20
137.2644526635
 10
148.7584386625
 20
137.2590535291
 10
148.7554937372
 20
137.2537051829
 10
148.7521553056
 20
137.2484149397
 10
148.7484279337
 20
137.2431900351
 10
148.7443167194
 20
137.238037615
 10
148.7398272854
 20
137.2329647264
 10
148.734965772
 20
137.2279783073
 10
148.7297388282
 20
137.2230851776
 10
148.7241536028
 20
137.2182920296
 10
148.7182177346
 20
137.2136054188
 10
148.7119393421
 20
137.209031755
 10
148.705327012
 20
137.2045772936
 10
148.6983897881
 20
137.2002481269
 10
148.6911371583
 20
137.1960501757
 10
148.6835790419
 20
137.1919891817
  0
LWPOLYLINE
  5
438
100
AcDbEntity
  8
0
100
AcDbPolyline
 62
253
  6
CONTINUOUS
 90
19
 70
0
 10
149.2110593353
 20
139.0055888188
 10
149.2109408611
 20
139.0021475227
 10
149.2104579235
 20
138.997839778
 10
149.209603806
 20
138.9935464586
 10
149.2083800985
 20
138.9892755563
 10
149.206789079
 20
138.9850350215
 10
149.2048337091
 20
138.980832748
 10
149.2025176288
 20
138.9766765581
 10
149.1998451494
 20
138.9725741887
 10
149.1968212458
 20
138.9685332763
 10
149.193451547
 20
138.9645613431
 10
149.1897423255
 20
138.9606657828
 10
149.1857004862
 20
138.956853847
 10
149.1813335529
 20
138.9531326315
 10
149.1766496546
 20
138.9495090635
 10
149.1716575105
 20
138.9459898881
 10
149.1663664132
 20
138.9425816564
 10
149.1607862124
 20
138.9392907127
 10
149.1549272953
 20
138.936123183
  0
LWPOLYLINE
  5
439
100
AcDbEntity
  8
0
100
AcDbPolyline
 62
253
  6
CONTINUOUS
 90
19
 70
0
 10
149.2110593353
 20
137.3288583315
 10
149.2109408606
 20
137.3254168264
 10
149.2104579223
 20
137.3211090817
 10
149.2096038041
 20
137.3168157624
 10
149.208380096
 20
137.3125448603
 10
149.2067890759
 20
137.3083043257
 10
149.2048337055
 20
137.3041020524
 10
149.2025176248
 20
137.2999458629
 10
149.1998451451
 20
137.2958434939
 10
149.1968212412
 20
137.291802582
 10
149.1934515422
 20
137.2878306493
 10
149.1897423208
 20
137.2839350896
 10
149.1857004816
 20
137.2801231543
 10
149.1813335486
 20
137.2764019395
 10
149.1766496508
 20
137.2727783722
 10
149.1716575073
 20
137.2692591975
 10
149.166366411
 20
137.2658509665
 10
149.1607862111
 20
137.2625600235
 10
149.1549272953
 20
137.2593924946
  0
LWPOLYLINE
  5
43A
100
AcDbEntity
  8
RACCORDO
100
AcDbPolyline
 62
253
  6
CONTINUOUS
 90
10
 70
0
 10
145.8805010746
 20
84.2889026106
 10
145.881708601
 20
84.3147690021
 10
145.8853146912
 20
84.3414895875
 10
145.8912700915
 20
84.3686993228
 10
145.8995092642
 20
84.3960727072
 10
145.9099111547
 20
84.4231886737
 10
145.9222652664
 20
84.4495431976
 10
145.9363491167
 20
84.4747487366
 10
145.9519671998
 20
84.4985308304
 10
145.9688894223
 20
84.5205967844
  0
LINE
  5
43B
100
AcDbEntity
  8
RACCORDO
100
AcDbLine
 62
253
  6
CONTINUOUS
 10
147.7211740885
 20
125.2993241335
 11
147.7214913315
 21
125.3053790443
  0
LWPOLYLINE
  5
43C
100
AcDbEntity
  8
RACCORDO
100
AcDbPolyline
 62
253
  6
CONTINUOUS
 90
8
 70
0
 10
146.2340544652
 20
83.9375886385
 10
146.2325421161
 20
83.9100850635
 10
146.2280309454
 20
83.8845644314
 10
146.2205981405
 20
83.8614634073
 10
146.2103708788
 20
83.8411772562
 10
146.1975241516
 20
83.8240530797
 10
146.1822777699
 20
83.8103838772
 10
146.1690811688
 20
83.8023701884
  0
LWPOLYLINE
  5
43D
100
AcDbEntity
  8
RACCORDO
100
AcDbPolyline
 62
7
  6
CONTINUOUS
 90
6
 70
0
 10
144.4637748857
 20
85.0490424003
 10
144.466042136
 20
85.082630187
 10
144.472879672
 20
85.1158950378
 10
144.4842403224
 20
85.148107451
 10
144.4999488915
 20
85.1785739627
 10
144.5212385774
 20
85.2085095173
  0
LWPOLYLINE
  5
43E
100
AcDbEntity
  8
RACCORDO
100
AcDbPolyline
 62
7
  6
CONTINUOUS
 90
3
 70
0
 10
148.424983442
 20
126.6951965031
 10
148.4284027884
 20
126.7276747638
 10
148.4285981125
 20
126.7375441652
  0
LWPOLYLINE
  5
43F
100
AcDbEntity
  8
RACCORDO
100
AcDbPolyline
 62
253
  6
CONTINUOUS
 90
7
 70
0
 10
148.4285981135
 20
127.0888692293
 10
148.4265606441
 20
127.0729429786
 10
148.4202347825
 20
127.0568078933
 10
148.4097326325
 20
127.0412330312
 10
148.3952420934
 20
127.0264885834
 10
148.377016666
 20
127.0128263621
 10
148.3553748088
 20
127.0004808938
  0
LWPOLYLINE
  5
440
100
AcDbEntity
  8
RACCORDO
100
AcDbPolyline
 62
253
  6
CONTINUOUS
 90
7
 70
0
 10
148.4285981125
 20
126.7375441652
 10
148.4264066303
 20
126.7210405866
 10
148.4199544766
 20
126.7049703574
 10
148.4093804524
 20
126.6894940792
 10
148.3949047295
 20
126.6748826121
 10
148.3767927262
 20
126.6613665309
 10
148.3553748088
 20
126.6491669217
  0
LINE
  5
441
100
AcDbEntity
  8
0
100
AcDbLine
 62
7
  6
CONTINUOUS
 10
145.9512117527
 20
132.6358243667
 11
144.1039408491
 21
132.3184066975
  0
LWPOLYLINE
  5
442
100
AcDbEntity
  8
RACCORDO
100
AcDbPolyline
 62
253
  6
CONTINUOUS
 90
4
 70
0
 10
145.1002154723
 20
125.6281802857
 10
145.1186957476
 20
125.6204428261
 10
145.136902058
 20
125.6158219959
 10
145.1545228889
 20
125.6143968618
  0
LWPOLYLINE
  5
443
100
AcDbEntity
  8
RACCORDO
100
AcDbPolyline
 62
253
  6
CONTINUOUS
 90
16
 70
0
 10
146.5876078558
 20
124.8901566808
 10
146.6072148945
 20
124.8812944347
 10
146.6285007556
 20
124.8734672536
 10
146.6512145681
 20
124.8667497904
 10
146.6750770399
 20
124.8612019868
 10
146.6998322763
 20
124.8568684322
 10
146.725256671
 20
124.8537869746
 10
146.7510593703
 20
124.8519815536
 10
146.7769750739
 20
124.8514612684
 10
146.8028197426
 20
124.8522427915
 10
146.8283340417
 20
124.8543229287
 10
146.8532138238
 20
124.8576837685
 10
146.8772058017
 20
124.8623168177
 10
146.9000419714
 20
124.86818604
 10
146.9214458682
 20
124.8752233891
 10
146.9411612464
 20
124.8833542424
  0
LWPOLYLINE
  5
444
100
AcDbEntity
  8
RACCORDO
100
AcDbPolyline
 62
253
  6
CONTINUOUS
 90
7
 70
0
 10
146.4437183566
 20
124.6450332304
 10
146.4703027336
 20
124.6328280074
 10
146.4981392417
 20
124.6218063521
 10
146.5272278808
 20
124.6119682647
 10
146.557568651
 20
124.603313745
 10
146.5891615522
 20
124.5958427931
 10
146.6220065845
 20
124.5895554091
  0
LINE
  5
445
100
AcDbEntity
  8
268
100
AcDbLine
 62
7
  6
CONTINUOUS
 10
114.7324473634
 20
139.5652904192
 11
130.5009285838
 21
131.6810498089
  0
LINE
  5
446
100
AcDbEntity
  8
RACCORDO
100
AcDbLine
 62
7
  6
CONTINUOUS
 10
130.5424298205
 20
131.6955594812
 11
146.1771689897
 21
123.8781898966
  0
LINE
  5
447
100
AcDbEntity
  8
DRAFT
100
AcDbLine
 62
7
  6
CONTINUOUS
 10
131.032931115
 20
131.6861649451
 11
146.7273567668
 21
123.8389521192
  0
LINE
  5
448
100
AcDbEntity
  8
268
100
AcDbLine
 62
7
  6
CONTINUOUS
 10
130.2534412104
 20
132.1323094341
 11
114.9799347368
 21
139.769062671
  0
LINE
  5
449
100
AcDbEntity
  8
RACCORDO
100
AcDbLine
 62
7
  6
CONTINUOUS
 10
146.3736418161
 20
124.4748898042
 11
131.3866460657
 21
131.9683876794
  0
LINE
  5
44A
100
AcDbEntity
  8
RACCORDO
100
AcDbLine
 62
253
  6
CONTINUOUS
 10
133.0794001922
 20
131.3271923126
 11
131.7358973079
 21
131.9989437547
  0
LINE
  5
44B
100
AcDbEntity
  8
RACCORDO
100
AcDbLine
 62
253
  6
CONTINUOUS
 10
145.1002154723
 20
125.3167846725
 11
146.4437183566
 21
124.6450332304
  0
LINE
  5
44C
100
AcDbEntity
  8
268
100
AcDbLine
 62
7
  6
CONTINUOUS
 10
130.812955895
 20
132.5672165622
 11
129.198951779
 21
133.3742186202
  0
LINE
  5
44D
100
AcDbEntity
  8
268
100
AcDbLine
 62
7
  6
CONTINUOUS
 10
117.4486377306
 20
139.2493756445
 11
115.8346336146
 21
140.0563777025
  0
LINE
  5
44E
100
AcDbEntity
  8
RACCORDO
100
AcDbLine
 62
253
  6
CONTINUOUS
 10
133.2232896914
 20
131.572315763
 11
131.8797868071
 21
132.2440672051
  0
LINE
  5
44F
100
AcDbEntity
  8
RACCORDO
100
AcDbLine
 62
253
  6
CONTINUOUS
 10
145.2441049716
 20
125.5619081229
 11
146.5876078558
 21
124.8901566808
  0
LINE
  5
450
100
AcDbEntity
  8
268
100
AcDbLine
 62
7
  6
CONTINUOUS
 10
120.7810936113
 20
137.9404799393
 11
126.5736026794
 21
135.0442254052
  0
LINE
  5
451
100
AcDbEntity
  8
RACCORDO
100
AcDbLine
 62
7
  6
CONTINUOUS
 10
142.3469976483
 20
127.1802021396
 11
136.8275037958
 21
129.9399490659
  0
LINE
  5
452
100
AcDbEntity
  8
RACCORDO
100
AcDbLine
 62
7
  6
CONTINUOUS
 10
145.945474371
 20
125.4532882999
 11
144.6019714868
 21
126.125039742
  0
LINE
  5
453
100
AcDbEntity
  8
RACCORDO
100
AcDbLine
 62
7
  6
CONTINUOUS
 10
132.5811562066
 20
132.1354473821
 11
131.2376533224
 21
132.8071988242
  0
LINE
  5
454
100
AcDbEntity
  8
268
100
AcDbLine
 62
7
  6
CONTINUOUS
 10
115.1962354063
 20
140.8279077822
 11
116.8027689693
 21
140.0246410007
  0
LINE
  5
455
100
AcDbEntity
  8
268
100
AcDbLine
 62
7
  6
CONTINUOUS
 10
128.5605535707
 20
134.1457487
 11
130.1670871337
 21
133.3424819185
  0
LINE
  5
456
100
AcDbEntity
  8
RACCORDO
100
AcDbLine
 62
253
  6
CONTINUOUS
 10
132.8146266237
 20
132.0785507566
 11
133.2232896914
 21
131.8742192228
  0
LINE
  5
457
100
AcDbEntity
  8
RACCORDO
100
AcDbLine
 62
253
  6
CONTINUOUS
 10
146.1789447881
 20
125.3963916744
 11
146.5876078558
 21
125.1920601405
  0
LINE
  5
458
100
AcDbEntity
  8
RACCORDO
100
AcDbLine
 62
253
  6
CONTINUOUS
 10
145.8805010746
 20
125.58850675
 11
144.5369981904
 21
126.2602581921
  0
LINE
  5
459
100
AcDbEntity
  8
RACCORDO
100
AcDbLine
 62
253
  6
CONTINUOUS
 10
132.5161829102
 20
132.2706658322
 11
131.1726800259
 21
132.9424172743
  0
LINE
  5
45A
100
AcDbEntity
  8
268
100
AcDbLine
 62
253
  6
CONTINUOUS
 10
115.1316406603
 20
140.9629369571
 11
116.7374171225
 21
140.160048726
  0
LINE
  5
45B
100
AcDbEntity
  8
268
100
AcDbLine
 62
253
  6
CONTINUOUS
 10
128.4959588247
 20
134.2807778749
 11
130.1017352869
 21
133.4778896438
  0
LINE
  5
45C
100
AcDbEntity
  8
268
100
AcDbLine
 62
253
  6
CONTINUOUS
 10
130.1017352869
 20
133.7312610376
 11
128.4959588247
 21
134.5341492687
  0
LINE
  5
45D
100
AcDbEntity
  8
268
100
AcDbLine
 62
253
  6
CONTINUOUS
 10
116.7374171225
 20
140.4134201198
 11
115.1316406603
 21
141.2163083509
  0
LINE
  5
45E
100
AcDbEntity
  8
RACCORDO
100
AcDbLine
 62
253
  6
CONTINUOUS
 10
131.1726800259
 20
133.2937312464
 11
132.5161829102
 21
132.6219798043
  0
LINE
  5
45F
100
AcDbEntity
  8
RACCORDO
100
AcDbLine
 62
253
  6
CONTINUOUS
 10
144.5369981904
 20
126.6115721642
 11
145.8805010746
 21
125.939820722
  0
LWPOLYLINE
  5
460
100
AcDbEntity
  8
RACCORDO
100
AcDbPolyline
 62
253
  6
CONTINUOUS
 90
7
 70
0
 10
131.7358973079
 20
131.9989437547
 10
131.7115335793
 20
132.0122117191
 10
131.6896179202
 20
132.0260644151
 10
131.6701503309
 20
132.0405018427
 10
131.6531308111
 20
132.0555240019
 10
131.638559361
 20
132.0711308928
 10
131.6264359805
 20
132.0873225154
  0
LINE
  5
461
100
AcDbEntity
  8
RACCORDO
100
AcDbLine
 62
253
  6
CONTINUOUS
 10
145.2264653634
 20
125.5716692001
 11
145.2441049716
 21
125.5619081229
  0
LWPOLYLINE
  5
462
100
AcDbEntity
  8
RACCORDO
100
AcDbPolyline
 62
253
  6
CONTINUOUS
 90
8
 70
0
 10
131.8797868071
 20
132.2440672051
 10
131.8621023528
 20
132.2538559167
 10
131.8466405771
 20
132.2644175182
 10
131.8335514087
 20
132.2756253886
 10
131.8229602644
 20
132.2873374779
 10
131.8149520874
 20
132.2994260708
 10
131.8095829481
 20
132.3117813346
 10
131.8068968839
 20
132.3242528583
  0
LWPOLYLINE
  5
463
100
AcDbEntity
  8
RACCORDO
100
AcDbPolyline
 62
253
  6
CONTINUOUS
 90
16
 70
0
 10
134.4229030764
 20
131.9702223484
 10
134.4551012673
 20
131.9521707142
 10
134.4828449127
 20
131.9331434468
 10
134.5061340124
 20
131.9131405461
 10
134.525082872
 20
131.8919280221
 10
134.539577186
 20
131.8697398649
 10
134.5492740378
 20
131.8472780446
 10
134.5540573309
 20
131.8245577144
 10
134.5540431618
 20
131.801563721
 10
134.5492369025
 20
131.7789525749
 10
134.5395245332
 20
131.7567139195
 10
134.5250200738
 20
131.7348581113
 10
134.5060709552
 20
131.7140727307
 10
134.482792988
 20
131.6945869712
 10
134.4550703618
 20
131.6761716394
 10
134.4229030764
 20
131.6588267352
  0
LWPOLYLINE
  5
464
100
AcDbEntity
  8
RACCORDO
100
AcDbPolyline
 62
253
  6
CONTINUOUS
 90
9
 70
0
 10
131.2376533513
 20
132.8071988097
 10
131.2279924443
 20
132.8127691792
 10
131.2138355081
 20
132.8241233846
 10
131.2015121762
 20
132.83832758
 10
131.1912168613
 20
132.8551703042
 10
131.1831262927
 20
132.8743172681
 10
131.1773246033
 20
132.8954364094
 10
131.1738389912
 20
132.9182456081
 10
131.1726800259
 20
132.9424172743
  0
LWPOLYLINE
  5
465
100
AcDbEntity
  8
RACCORDO
100
AcDbPolyline
 62
253
  6
CONTINUOUS
 90
9
 70
0
 10
132.5811562356
 20
132.1354473676
 10
132.5714953286
 20
132.1410177371
 10
132.5573383924
 20
132.1523719425
 10
132.5450150605
 20
132.1665761379
 10
132.5347197455
 20
132.183418862
 10
132.5266291769
 20
132.2025658259
 10
132.5208274875
 20
132.2236849673
 10
132.5173418755
 20
132.246494166
 10
132.5161829102
 20
132.2706658322
  0
LWPOLYLINE
  5
466
100
AcDbEntity
  8
RACCORDO
100
AcDbPolyline
 62
253
  6
CONTINUOUS
 90
9
 70
0
 10
144.6019715158
 20
126.1250397275
 10
144.5923106087
 20
126.130610097
 10
144.5781536726
 20
126.1419643024
 10
144.5658303406
 20
126.1561684978
 10
144.5555350257
 20
126.1730112219
 10
144.5474444571
 20
126.1921581859
 10
144.5416427677
 20
126.2132773272
 10
144.5381571557
 20
126.2360865259
 10
144.5369981904
 20
126.2602581921
  0
LWPOLYLINE
  5
467
100
AcDbEntity
  8
RACCORDO
100
AcDbPolyline
 62
253
  6
CONTINUOUS
 90
13
 70
0
 10
132.6929596055
 20
132.9268745028
 10
132.7160335944
 20
132.9134852665
 10
132.738712781
 20
132.8966206401
 10
132.760609118
 20
132.8765691819
 10
132.7813479531
 20
132.8536739781
 10
132.8005744391
 20
132.8283267718
 10
132.8179596055
 20
132.8009612608
 10
132.8332059872
 20
132.7720456766
 10
132.8460527144
 20
132.7420747729
 10
132.8562799761
 20
132.7115613601
 10
132.863712781
 20
132.6810275312
 10
132.8682239517
 20
132.6509957284
 10
132.8697363008
 20
132.6219798043
  0
LWPOLYLINE
  5
468
100
AcDbEntity
  8
RACCORDO
100
AcDbPolyline
 62
253
  6
CONTINUOUS
 90
16
 70
0
 10
146.6220032809
 20
124.5895538812
 10
146.6583027527
 20
124.5683686427
 10
146.6941292174
 20
124.5426358602
 10
146.7290901459
 20
124.5126392561
 10
146.7628006045
 20
124.478710139
 10
146.7948938485
 20
124.4412209159
 10
146.8250246524
 20
124.4005796522
 10
146.8528646545
 20
124.3572302178
 10
146.8781067874
 20
124.3116487525
 10
146.900474534
 20
124.2643347076
 10
146.9197227457
 20
124.2158064849
 10
146.9356404675
 20
124.166595806
 10
146.9480533566
 20
124.1172419128
 10
146.9568253798
 20
124.068285589
 10
146.9618603082
 20
124.0202632354
 10
146.9631029035
 20
123.9737010381
  0
LWPOLYLINE
  5
469
100
AcDbEntity
  8
RACCORDO
100
AcDbPolyline
 62
7
  6
CONTINUOUS
 90
4
 70
0
 10
134.3690654204
 20
131.94427037
 10
134.3694556749
 20
131.9438723523
 10
134.3693271019
 20
131.9440749088
 10
134.3672553529
 20
131.9471663362
  0
LINE
  5
46A
100
AcDbEntity
  8
0
100
AcDbLine
 62
7
  6
CONTINUOUS
 10
137.7156687838
 20
135.988475875
 11
138.9534823573
 21
133.8535632623
  0
LINE
  5
46B
100
AcDbEntity
  8
0
100
AcDbLine
 62
7
  6
CONTINUOUS
 10
138.0246003373
 20
135.9572333424
 11
139.1643801322
 21
133.9914039866
  0
LINE
  5
46C
100
AcDbEntity
  8
DRAFT
100
AcDbLine
 62
7
  6
CONTINUOUS
 10
149.3621463881
 20
141.2379772802
 11
149.3806796415
 21
139.9283140556
  0
LWPOLYLINE
  5
46D
100
AcDbEntity
  8
0
100
AcDbPolyline
 62
7
  6
CONTINUOUS
 90
21
 70
0
 10
149.2110593436
 20
139.0055888188
 10
149.2109415083
 20
139.0196759419
 10
149.2103769729
 20
139.039304488
 10
149.2093708059
 20
139.0583360418
 10
149.2079509241
 20
139.0767482438
 10
149.2061401956
 20
139.0945762532
 10
149.2039506289
 20
139.1119096199
 10
149.2013984964
 20
139.1287506918
 10
149.198498996
 20
139.1451064692
 10
149.1952483545
 20
139.1610685549
 10
149.1916536892
 20
139.1766398855
 10
149.1877224809
 20
139.1918215871
 10
149.1834370293
 20
139.2066970774
 10
149.1787890188
 20
139.2212877134
 10
149.1737844045
 20
139.235567604
 10
149.1684180699
 20
139.249545112
 10
149.1626811426
 20
139.2632300545
 10
149.1565769102
 20
139.2766021381
 10
149.1501198529
 20
139.2896237665
 10
149.1433104
 20
139.3022894973
 10
149.1401212921
 20
139.3078888127
  0
LWPOLYLINE
  5
46E
100
AcDbEntity
  8
0
100
AcDbPolyline
 62
7
  6
CONTINUOUS
 90
34
 70
0
 10
148.7677770821
 20
137.2961872371
 10
148.7674876366
 20
137.331194245
 10
148.7664033837
 20
137.3727687561
 10
148.7645206597
 20
137.4145550121
 10
148.7618454395
 20
137.4565320632
 10
148.7583840378
 20
137.4986818338
 10
148.7541424714
 20
137.5409866022
 10
148.7491270116
 20
137.5834278681
 10
148.7433442114
 20
137.6259858005
 10
148.7368006282
 20
137.6686394962
 10
148.7295030976
 20
137.7113696472
 10
148.7214584977
 20
137.7541568941
 10
148.712674151
 20
137.796979495
 10
148.7031575117
 20
137.8398178622
 10
148.6929158674
 20
137.8826526415
 10
148.6819573746
 20
137.9254616646
 10
148.6702903522
 20
137.9682242771
 10
148.6579223342
 20
138.0109221641
 10
148.6448613719
 20
138.0535361558
 10
148.6311162089
 20
138.0960456984
 10
148.6166947535
 20
138.1384324667
 10
148.6016045297
 20
138.1806802932
 10
148.5858541468
 20
138.222769816
 10
148.569452207
 20
138.2646816316
 10
148.55240658
 20
138.3063993436
 10
148.5347261856
 20
138.3479035389
 10
148.5164199893
 20
138.3891751151
 10
148.497496053
 20
138.4301978878
 10
148.477963846
 20
138.4709520519
 10
148.4578324266
 20
138.5114192868
 10
148.4371087965
 20
138.5515856608
 10
148.4158012932
 20
138.5914339932
 10
148.3939215169
 20
138.6309421518
 10
148.375281528
 20
138.6635522646
  0
LINE
  5
46F
100
AcDbEntity
  8
RACCORDO
100
AcDbLine
 62
7
  6
CONTINUOUS
 10
148.8857048947
 20
86.9603345611
 11
148.8857048947
 21
124.8616184477
  0
LINE
  5
470
100
AcDbEntity
  8
RACCORDO
100
AcDbLine
 62
7
  6
CONTINUOUS
 10
149.0299000881
 20
130.9670182841
 11
149.0299000881
 21
130.0666631835
  0
LINE
  5
471
100
AcDbEntity
  8
0
100
AcDbLine
 62
253
  6
CONTINUOUS
 10
149.1549272953
 20
138.936123183
 11
149.1549272953
 21
137.2593924946
  0
LINE
  5
472
100
AcDbEntity
  8
0
100
AcDbLine
 62
7
  6
CONTINUOUS
 10
149.2110593353
 20
139.0055890201
 11
149.2110593353
 21
137.3288583315
  0
LINE
  5
473
100
AcDbEntity
  8
0
100
AcDbLine
 62
253
  6
CONTINUOUS
 10
149.7257253215
 20
134.5188762288
 11
149.7257253215
 21
131.2904945327
  0
LINE
  5
474
100
AcDbEntity
  8
0
100
AcDbLine
 62
7
  6
CONTINUOUS
 10
149.8099233814
 20
134.6230749844
 11
149.8099233814
 21
131.2877811871
  0
LWPOLYLINE
  5
475
100
AcDbEntity
  8
0
100
AcDbPolyline
 62
253
  6
CONTINUOUS
 90
34
 70
0
 10
149.1549272953
 20
137.2593924946
 10
149.1548218157
 20
137.2510863563
 10
149.1545075259
 20
137.242695463
 10
149.1539844257
 20
137.2342198146
 10
149.1532515701
 20
137.2256502372
 10
149.1523099043
 20
137.2169959048
 10
149.1511622632
 20
137.2082843389
 10
149.1498080232
 20
137.199515819
 10
149.1482478079
 20
137.1906900657
 10
149.1464863228
 20
137.1818337621
 10
149.1445229657
 20
137.172946856
 10
149.1423583388
 20
137.1640293996
 10
149.1399989537
 20
137.1551082322
 10
149.1374442188
 20
137.1461833195
 10
149.1346947258
 20
137.1372546958
 10
149.1317587612
 20
137.1283493035
 10
149.1286357553
 20
137.1194672009
 10
149.1253262779
 20
137.1106083296
 10
149.1218403244
 20
137.101799457
 10
149.1181773622
 20
137.0930407422
 10
149.1143379241
 20
137.0843320261
 10
149.1103336031
 20
137.0756995982
 10
149.1061639152
 20
137.067143713
 10
149.1018293446
 20
137.0586641161
 10
149.0973429372
 20
137.0502863333
 10
149.0927042112
 20
137.0420106349
 10
149.0879136485
 20
137.0338367507
 10
149.0829857405
 20
137.0257893962
 10
149.0779197753
 20
137.017868589
 10
149.0727164648
 20
137.0100743117
 10
149.067392436
 20
137.002431227
 10
149.0619532314
 20
136.9949475558
 10
149.0563933085
 20
136.9876150773
 10
149.0507126674
 20
136.9804337914
  0
LWPOLYLINE
  5
476
100
AcDbEntity
  8
RACCORDO
100
AcDbPolyline
 62
253
  6
CONTINUOUS
 90
10
 70
0
 10
148.2476032525
 20
86.6388235218
 10
148.2463559444
 20
86.5948619293
 10
148.2413154341
 20
86.5533532393
 10
148.2325369674
 20
86.5147524041
 10
148.2201167594
 20
86.4794825047
 10
148.2041909404
 20
86.4479301137
 10
148.1849340636
 20
86.4204410583
 10
148.1625571919
 20
86.3973166298
 10
148.1373055847
 20
86.3788102813
 10
148.1252567758
 20
86.3721354121
  0
LWPOLYLINE
  5
477
100
AcDbEntity
  8
RACCORDO
100
AcDbPolyline
 62
253
  6
CONTINUOUS
 90
8
 70
0
 10
148.3553748088
 20
84.9982488103
 10
148.3538502691
 20
84.9706381543
 10
148.3493007614
 20
84.9450194233
 10
148.3418015832
 20
84.9218372188
 10
148.3314777962
 20
84.9014926528
 10
148.3185056417
 20
84.8843435838
 10
148.3031125713
 20
84.8706944558
 10
148.2903761524
 20
84.863017685
  0
LWPOLYLINE
  5
478
100
AcDbEntity
  8
RACCORDO
100
AcDbPolyline
 62
253
  6
CONTINUOUS
 90
3
 70
0
 10
147.6503493437
 20
86.1000968238
 10
147.6487758522
 20
86.0872988661
 10
147.6482680276
 20
86.0698318195
  0
LINE
  5
479
100
AcDbEntity
  8
RACCORDO
100
AcDbLine
 62
253
  6
CONTINUOUS
 10
147.7193525476
 20
85.8180819654
 11
147.7214913323
 21
85.8343977394
  0
LWPOLYLINE
  5
47A
100
AcDbEntity
  8
0
100
AcDbPolyline
 62
253
  6
CONTINUOUS
 90
31
 70
0
 10
148.7677771018
 20
135.2822928023
 10
148.7702110536
 20
135.2826805069
 10
148.7749911729
 20
135.2832707852
 10
148.7798969848
 20
135.283710672
 10
148.7849072774
 20
135.2839992562
 10
148.7900228615
 20
135.2841355844
 10
148.795240656
 20
135.28412077
 10
148.8005339392
 20
135.2839589621
 10
148.8059037471
 20
135.2836503478
 10
148.8113472749
 20
135.2831969762
 10
148.8168324784
 20
135.2826077463
 10
148.8223555923
 20
135.2818848382
 10
148.8279193566
 20
135.281030485
 10
148.8335018708
 20
135.2800550005
 10
148.8390816786
 20
135.2789656072
 10
148.8446798736
 20
135.277760651
 10
148.8503379393
 20
135.2764353439
 10
148.8560365856
 20
135.2749959534
 10
148.8617936943
 20
135.2734373633
 10
148.8677046723
 20
135.2717317906
 10
148.8737659634
 20
135.2698772609
 10
148.8799768797
 20
135.2678688167
 10
148.8864344888
 20
135.2656668372
 10
148.8931365808
 20
135.2632641965
 10
148.9000775733
 20
135.2606535005
 10
148.9073466117
 20
135.2577879068
 10
148.9149512576
 20
135.2546511529
 10
148.9228715317
 20
135.2512372527
 10
148.9311528117
 20
135.24751
 10
148.9397934974
 20
135.2434534775
 10
148.9488145408
 20
135.2390394974
  0
LINE
  5
47B
100
AcDbEntity
  8
RACCORDO
100
AcDbLine
 62
253
  6
CONTINUOUS
 10
131.7977930793
 20
132.2969590401
 11
131.784442825
 21
132.2966718648
  0
LWPOLYLINE
  5
47C
100
AcDbEntity
  8
RACCORDO
100
AcDbPolyline
 62
253
  6
CONTINUOUS
 90
4
 70
0
 10
134.3532405185
 20
131.9595874123
 10
134.3695462053
 20
131.957583204
 10
134.3867859726
 20
131.9587088629
 10
134.4046713528
 20
131.9629455443
  0
LINE
  5
47D
100
AcDbEntity
  8
RACCORDO
100
AcDbLine
 62
7
  6
CONTINUOUS
 10
132.6422588529
 20
132.1142492908
 11
133.1725889388
 21
132.0044143337
  0
LINE
  5
47E
100
AcDbEntity
  8
RACCORDO
100
AcDbLine
 62
253
  6
CONTINUOUS
 10
132.8697363008
 20
132.2706658322
 11
133.4000663867
 21
132.1608308751
  0
LINE
  5
47F
100
AcDbEntity
  8
268
100
AcDbLine
 62
7
  6
CONTINUOUS
 10
130.812955895
 20
133.204386121
 11
130.1906378629
 21
133.3343267035
  0
LWPOLYLINE
  5
480
100
AcDbEntity
  8
RACCORDO
100
AcDbPolyline
 62
7
  6
CONTINUOUS
 90
8
 70
0
 10
146.9468986281
 20
127.9842274813
 10
146.9186120329
 20
127.9962570465
 10
146.8886248319
 20
128.0048220154
 10
146.857450249
 20
128.0096191838
 10
146.8255456051
 20
128.0104381664
 10
146.7936607168
 20
128.0071631267
 10
146.7626531861
 20
127.9998948995
 10
146.7326931355
 20
127.9886859145
  0
LWPOLYLINE
  5
481
100
AcDbEntity
  8
RACCORDO
100
AcDbPolyline
 62
253
  6
CONTINUOUS
 90
7
 70
0
 10
134.9258988458
 20
133.994727119
 10
134.9212059114
 20
133.9969014492
 10
134.9017588634
 20
134.0029064513
 10
134.8809409177
 20
134.0048818064
 10
134.8591885696
 20
134.0028861289
 10
134.8368407153
 20
133.9970446324
 10
134.8142799491
 20
133.9875346746
  0
LWPOLYLINE
  5
482
100
AcDbEntity
  8
RACCORDO
100
AcDbPolyline
 62
253
  6
CONTINUOUS
 90
7
 70
0
 10
133.5825551037
 20
134.6663992388
 10
133.5777030271
 20
134.6686528913
 10
133.5582559791
 20
134.6746578934
 10
133.5374380334
 20
134.6766332485
 10
133.5156856854
 20
134.674637571
 10
133.493337831
 20
134.6687960745
 10
133.4707770648
 20
134.6592861168
  0
LWPOLYLINE
  5
483
100
AcDbEntity
  8
RACCORDO
100
AcDbPolyline
 62
7
  6
CONTINUOUS
 90
25
 70
0
 10
142.3469976483
 20
128.3775211753
 10
142.3711600094
 20
128.3662297817
 10
142.3965158939
 20
128.3558328986
 10
142.4230653019
 20
128.3463305259
 10
142.450932695
 20
128.337689487
 10
142.4799936114
 20
128.3299429586
 10
142.5098746663
 20
128.3231904708
 10
142.5405864424
 20
128.3174448503
 10
142.5721183569
 20
128.3126932705
 10
142.6040652766
 20
128.3089967813
 10
142.6364325566
 20
128.3063689971
 10
142.6692148417
 20
128.3047963036
 10
142.7019909335
 20
128.3042989072
 10
142.7347607522
 20
128.3048906832
 10
142.7675243775
 20
128.3065577563
 10
142.7998608509
 20
128.3092787074
 10
142.8317646604
 20
128.3130671354
 10
142.863241318
 20
128.3179094413
 10
142.8938864002
 20
128.3237434095
 10
142.9236891769
 20
128.3305818361
 10
142.9526603782
 20
128.338411925
 10
142.980427772
 20
128.3471330725
 10
143.0068672807
 20
128.3567117439
 10
143.0321029818
 20
128.3671814739
 10
143.0561348754
 20
128.3785422624
  0
LWPOLYLINE
  5
484
100
AcDbEntity
  8
RACCORDO
100
AcDbPolyline
 62
253
  6
CONTINUOUS
 90
7
 70
0
 10
148.2904015124
 20
127.3124760392
 10
148.2862129471
 20
127.314442695
 10
148.2669864611
 20
127.3205634153
 10
148.246247626
 20
127.322719784
 10
148.224351289
 20
127.3208749051
 10
148.2016721024
 20
127.315060345
 10
148.1785981135
 20
127.3053755924
  0
LWPOLYLINE
  5
485
100
AcDbEntity
  8
RACCORDO
100
AcDbPolyline
 62
253
  6
CONTINUOUS
 90
7
 70
0
 10
146.9468986281
 20
127.9842274813
 10
146.9427100629
 20
127.9861941371
 10
146.9234835769
 20
127.9923148574
 10
146.9027447417
 20
127.9944712262
 10
146.8808484047
 20
127.9926263473
 10
146.8581692181
 20
127.9868117871
 10
146.8350952292
 20
127.9771270345
  0
LINE
  5
486
100
AcDbEntity
  8
RACCORDO
100
AcDbLine
 62
7
  6
CONTINUOUS
 10
133.5731791585
 20
134.6708449967
 11
133.5827420939
 21
134.6663055536
  0
LWPOLYLINE
  5
487
100
AcDbEntity
  8
RACCORDO
100
AcDbPolyline
 62
253
  6
CONTINUOUS
 90
3
 70
0
 10
134.3359285117
 20
131.9657496768
 10
134.3381417533
 20
131.9646879616
 10
134.3532405185
 20
131.9595874123
  0
LINE
  5
488
100
AcDbEntity
  8
268
100
AcDbLine
 62
7
  6
CONTINUOUS
 10
118.5154686427
 20
139.787956894
 11
120.6932256457
 21
138.6990783925
  0
LINE
  5
489
100
AcDbEntity
  8
268
100
AcDbLine
 62
7
  6
CONTINUOUS
 10
127.4957247638
 20
135.2978288334
 11
128.5768467149
 21
134.7572678579
  0
LINE
  5
48A
100
AcDbEntity
  8
268
100
AcDbLine
 62
253
  6
CONTINUOUS
 10
130.2785060163
 20
134.0351266158
 11
128.6706846072
 21
134.8390373203
  0
LINE
  5
48B
100
AcDbEntity
  8
268
100
AcDbLine
 62
253
  6
CONTINUOUS
 10
116.9141878519
 20
140.717285698
 11
115.3063664428
 21
141.5211964026
  0
LINE
  5
48C
100
AcDbEntity
  8
RACCORDO
100
AcDbLine
 62
253
  6
CONTINUOUS
 10
147.7872212408
 20
125.2880632662
 11
147.7276728827
 21
125.3178374452
  0
LINE
  5
48D
100
AcDbEntity
  8
RACCORDO
100
AcDbLine
 62
253
  6
CONTINUOUS
 10
134.3633365168
 20
132.0000056282
 11
134.4229030764
 21
131.9702223484
  0
LINE
  5
48E
100
AcDbEntity
  8
RACCORDO
100
AcDbLine
 62
253
  6
CONTINUOUS
 10
131.3494567212
 20
133.598625945
 11
132.6929596055
 21
132.9268745028
  0
LINE
  5
48F
100
AcDbEntity
  8
RACCORDO
100
AcDbLine
 62
253
  6
CONTINUOUS
 10
144.7137748857
 20
126.9164668628
 11
146.0572777699
 21
126.2447154206
  0
LINE
  5
490
100
AcDbEntity
  8
268
100
AcDbLine
 62
7
  6
CONTINUOUS
 10
120.7810936113
 20
139.1554348053
 11
126.5736026794
 21
136.2591802713
  0
LINE
  5
491
100
AcDbEntity
  8
RACCORDO
100
AcDbLine
 62
7
  6
CONTINUOUS
 10
142.3469976483
 20
128.3775211753
 11
136.8275037958
 21
131.1372681015
  0
LINE
  5
492
100
AcDbEntity
  8
RACCORDO
100
AcDbLine
 62
7
  6
CONTINUOUS
 10
134.4165172394
 20
132.5294228472
 11
135.827242187
 21
131.8240603733
  0
LINE
  5
493
100
AcDbEntity
  8
RACCORDO
100
AcDbLine
 62
7
  6
CONTINUOUS
 10
147.7808354038
 20
125.8472637649
 11
148.531989944
 21
125.4716864949
  0
LINE
  5
494
100
AcDbEntity
  8
268
100
AcDbLine
 62
7
  6
CONTINUOUS
 10
120.0467427597
 20
139.7218689274
 11
118.5642647563
 21
140.4631079291
  0
LINE
  5
495
100
AcDbEntity
  8
268
100
AcDbLine
 62
7
  6
CONTINUOUS
 10
121.2731850893
 20
139.6215342359
 11
127.4957247638
 21
136.5102643987
  0
LINE
  5
496
100
AcDbEntity
  8
268
100
AcDbLine
 62
7
  6
CONTINUOUS
 10
116.889123046
 20
142.3331804999
 11
118.5154686427
 21
141.5200077015
  0
LINE
  5
497
100
AcDbEntity
  8
268
100
AcDbLine
 62
7
  6
CONTINUOUS
 10
130.2534412104
 20
135.6510214177
 11
131.8797868071
 21
134.8378486193
  0
LINE
  5
498
100
AcDbEntity
  8
268
100
AcDbLine
 62
7
  6
CONTINUOUS
 10
122.6166879736
 20
139.6518511866
 11
127.5664354419
 21
137.1769774524
  0
LINE
  5
499
100
AcDbEntity
  8
0
100
AcDbLine
 62
7
  6
CONTINUOUS
 10
143.4763380186
 20
129.2270645525
 11
138.5265905503
 21
131.7019382867
  0
LINE
  5
49A
100
AcDbEntity
  8
268
100
AcDbLine
 62
253
  6
CONTINUOUS
 10
117.4235729247
 20
142.5935279665
 11
119.0437358144
 21
141.7834465216
  0
LINE
  5
49B
100
AcDbEntity
  8
268
100
AcDbLine
 62
253
  6
CONTINUOUS
 10
130.7878910891
 20
135.9113688842
 11
132.4080539789
 21
135.1012874394
  0
LINE
  5
49C
100
AcDbEntity
  8
268
100
AcDbLine
 62
7
  6
CONTINUOUS
 10
117.53499054
 20
142.5997965297
 11
119.1538681182
 21
141.7903577406
  0
LINE
  5
49D
100
AcDbEntity
  8
268
100
AcDbLine
 62
7
  6
CONTINUOUS
 10
130.8993087044
 20
135.9176374475
 11
132.5181862826
 21
135.1081986584
  0
LINE
  5
49E
100
AcDbEntity
  8
RACCORDO
100
AcDbLine
 62
253
  6
CONTINUOUS
 10
133.4707770648
 20
134.6592861168
 11
134.8142799491
 21
133.9875346746
  0
LINE
  5
49F
100
AcDbEntity
  8
RACCORDO
100
AcDbLine
 62
253
  6
CONTINUOUS
 10
146.8350952292
 20
127.9771270345
 11
148.1785981135
 21
127.3053755924
  0
LINE
  5
4A0
100
AcDbEntity
  8
RACCORDO
100
AcDbLine
 62
7
  6
CONTINUOUS
 10
133.5825804637
 20
134.6663865636
 11
134.9260833479
 21
133.9946351214
  0
LINE
  5
4A1
100
AcDbEntity
  8
RACCORDO
100
AcDbLine
 62
7
  6
CONTINUOUS
 10
146.9468986281
 20
127.9842274813
 11
148.2904015124
 21
127.3124760392
  0
LWPOLYLINE
  5
4A2
100
AcDbEntity
  8
RACCORDO
100
AcDbPolyline
 62
7
  6
CONTINUOUS
 90
10
 70
0
 10
134.9258988458
 20
133.994727119
 10
134.9372915782
 20
133.988670446
 10
134.964377219
 20
133.9709553342
 10
134.9890081522
 20
133.9498300251
 10
135.010759652
 20
133.9256107493
 10
135.0292675278
 20
133.8986227632
 10
135.0441717058
 20
133.8692616184
 10
135.0551319811
 20
133.8380379501
 10
135.0618899089
 20
133.8055146657
 10
135.0642797907
 20
133.7711690162
  0
LWPOLYLINE
  5
4A3
100
AcDbEntity
  8
RACCORDO
100
AcDbPolyline
 62
253
  6
CONTINUOUS
 90
9
 70
0
 10
145.9454744
 20
125.4532882854
 10
145.935813493
 20
125.4588586549
 10
145.9216565568
 20
125.4702128603
 10
145.9093332249
 20
125.4844170556
 10
145.89903791
 20
125.5012597798
 10
145.8909473414
 20
125.5204067437
 10
145.885145652
 20
125.5415258851
 10
145.8816600399
 20
125.5643350838
 10
145.8805010746
 20
125.58850675
  0
LWPOLYLINE
  5
4A4
100
AcDbEntity
  8
RACCORDO
100
AcDbPolyline
 62
253
  6
CONTINUOUS
 90
13
 70
0
 10
146.0572777699
 20
126.2447154206
 10
146.0798385362
 20
126.2316646122
 10
146.1021863905
 20
126.2151582543
 10
146.1239387385
 20
126.1954015838
 10
146.1447566842
 20
126.172608283
 10
146.1642037323
 20
126.1471562328
 10
146.1817922278
 20
126.119637314
 10
146.1971852981
 20
126.0905951156
 10
146.2101574526
 20
126.0604738921
 10
146.2204812397
 20
126.029805539
 10
146.2279804179
 20
125.9991241563
 10
146.2325299256
 20
125.9689559177
 10
146.2340544652
 20
125.939820722
  0
LWPOLYLINE
  5
4A5
100
AcDbEntity
  8
RACCORDO
100
AcDbPolyline
 62
253
  6
CONTINUOUS
 90
13
 70
0
 10
134.8142799491
 20
133.9875346746
 10
134.837353938
 20
133.9741454383
 10
134.8600331245
 20
133.9572808119
 10
134.8819294616
 20
133.9372293537
 10
134.9026682967
 20
133.9143341499
 10
134.9218947827
 20
133.8889869436
 10
134.9392799491
 20
133.8616214326
 10
134.9545263308
 20
133.8327058484
 10
134.967373058
 20
133.8027349447
 10
134.9776003197
 20
133.7722215319
 10
134.9850331245
 20
133.741687703
 10
134.9895442952
 20
133.7116559002
 10
134.9910566443
 20
133.682639976
  0
LWPOLYLINE
  5
4A6
100
AcDbEntity
  8
RACCORDO
100
AcDbPolyline
 62
253
  6
CONTINUOUS
 90
16
 70
0
 10
147.9064448312
 20
125.1827880504
 10
147.9427239844
 20
125.1616108083
 10
147.9785378626
 20
125.1358865917
 10
148.0134939314
 20
125.1058973491
 10
148.0472090581
 20
125.0719717752
 10
148.0793137112
 20
125.0344817087
 10
148.1094560109
 20
124.9938380565
 10
148.1373055854
 20
124.9504862902
 10
148.1625571922
 20
124.9049015634
 10
148.1849340636
 20
124.857583504
 10
148.2041909402
 20
124.8090507377
 10
148.2201167591
 20
124.7598352042
 10
148.232536967
 20
124.7104763264
 10
148.2413154338
 20
124.6615150983
 10
148.2463559442
 20
124.6134881556
 10
148.2476032526
 20
124.5669218938
  0
LWPOLYLINE
  5
4A7
100
AcDbEntity
  8
RACCORDO
100
AcDbPolyline
 62
253
  6
CONTINUOUS
 90
13
 70
0
 10
147.742478352
 20
125.0081145376
 10
147.7288926671
 20
125.0215924231
 10
147.7159639021
 20
125.0364694395
 10
147.7038317534
 20
125.0525848377
 10
147.6926273112
 20
125.0697644854
 10
147.6824716382
 20
125.087822756
 10
147.6734744627
 20
125.1065645363
 10
147.6657329997
 20
125.1257873228
 10
147.6593308991
 20
125.1452834081
 10
147.6543373373
 20
125.1648421335
 10
147.6508062712
 20
125.1842521643
 10
147.6487758548
 20
125.2033037726
 10
147.6482680276
 20
125.2217911034
  0
LWPOLYLINE
  5
4A8
100
AcDbEntity
  8
RACCORDO
100
AcDbPolyline
 62
253
  6
CONTINUOUS
 90
13
 70
0
 10
147.7424785579
 20
125.0081154352
 10
147.7757701966
 20
124.974092345
 10
147.8074248216
 20
124.9365724889
 10
147.8371002013
 20
124.8959615021
 10
147.8644755036
 20
124.8526984393
 10
147.8892547648
 20
124.8072510283
 10
147.9111700896
 20
124.7601106132
 10
147.9299845473
 20
124.7117868426
 10
147.9454947341
 20
124.6628021598
 10
147.9575329714
 20
124.6136861544
 10
147.9659691198
 20
124.5649698368
 10
147.9707119853
 20
124.5171798976
 10
147.9717103058
 20
124.4708330131
  0
LWPOLYLINE
  5
4A9
100
AcDbEntity
  8
RACCORDO
100
AcDbPolyline
 62
253
  6
CONTINUOUS
 90
13
 70
0
 10
147.0318669871
 20
124.6729597838
 10
147.0187186062
 20
124.6864925099
 10
147.0062288507
 20
124.7013323631
 10
146.9945272747
 20
124.7173263877
 10
146.9837348398
 20
124.7343104663
 10
146.9739643641
 20
124.7521083755
 10
146.9653187918
 20
124.7705332165
 10
146.9578880136
 20
124.789393185
 10
146.9517484992
 20
124.8084939208
 10
146.9469638258
 20
124.8276376278
 10
146.9435835406
 20
124.8466260651
 10
146.9416426479
 20
124.8652625997
 10
146.9411612464
 20
124.8833542424
  0
LWPOLYLINE
  5
4AA
100
AcDbEntity
  8
RACCORDO
100
AcDbPolyline
 62
7
  6
CONTINUOUS
 90
4
 70
0
 10
147.733499239
 20
125.2619900618
 10
147.7338434064
 20
125.2616342158
 10
147.7336654333
 20
125.2618880623
 10
147.7316706598
 20
125.2648546333
  0
LWPOLYLINE
  5
4AB
100
AcDbEntity
  8
RACCORDO
100
AcDbPolyline
 62
253
  6
CONTINUOUS
 90
13
 70
0
 10
147.031866987
 20
124.6729597838
 10
147.0640906745
 20
124.6387856693
 10
147.0946671345
 20
124.6013480748
 10
147.1232796228
 20
124.56103482
 10
147.1496317401
 20
124.5182635135
 10
147.1734505022
 20
124.4734772272
 10
147.1944891686
 20
124.4271399063
 10
147.2125297976
 20
124.3797315634
 10
147.2273855048
 20
124.3317433057
 10
147.2389023986
 20
124.2836722481
 10
147.2469611744
 20
124.2360163631
 10
147.2514783506
 20
124.1892693222
 10
147.2524071333
 20
124.1439153825
  0
LWPOLYLINE
  5
4AC
100
AcDbEntity
  8
RACCORDO
100
AcDbPolyline
 62
7
  6
CONTINUOUS
 90
5
 70
0
 10
147.7316706598
 20
125.2648546333
 10
147.728686524
 20
125.27052477
 10
147.7256332777
 20
125.2783888878
 10
147.7230680186
 20
125.2884387702
 10
147.7216272496
 20
125.3002550023
  0
LINE
  5
4AD
100
AcDbEntity
  8
RACCORDO
100
AcDbLine
 62
7
  6
CONTINUOUS
 10
153.0843149774
 20
128.2358570874
 11
153.0843149774
 21
127.3408942239
  0
LINE
  5
4AE
100
AcDbEntity
  8
RACCORDO
100
AcDbLine
 62
7
  6
CONTINUOUS
 10
153.0843149774
 20
94.4245843259
 11
153.0843149774
 21
92.7828083358
  0
LINE
  5
4AF
100
AcDbEntity
  8
RACCORDO
100
AcDbLine
 62
7
  6
CONTINUOUS
 10
153.8180924324
 20
128.8974969719
 11
153.8180924324
 21
128.6157814865
  0
LINE
  5
4B0
100
AcDbEntity
  8
RACCORDO
100
AcDbLine
 62
7
  6
CONTINUOUS
 10
153.8180924324
 20
92.4159196083
 11
153.8180924324
 21
92.1342041229
  0
LWPOLYLINE
  5
4B1
100
AcDbEntity
  8
RACCORDO
100
AcDbPolyline
 62
7
  6
CONTINUOUS
 90
8
 70
0
 10
153.0843149774
 20
127.3408942239
 10
153.0813916856
 20
127.2886642635
 10
153.0742454831
 20
127.2410779464
 10
153.0628763698
 20
127.1981352728
 10
153.0470124253
 20
127.1595395704
 10
153.0269255701
 20
127.1255875115
 10
153.0034315656
 20
127.0971691121
 10
152.9986267505
 20
127.0924585247
  0
LWPOLYLINE
  5
4B2
100
AcDbEntity
  8
RACCORDO
100
AcDbPolyline
 62
253
  6
CONTINUOUS
 90
7
 70
0
 10
148.4285979551
 20
85.0864964654
 10
148.4265606441
 20
85.070710895
 10
148.4202347825
 20
85.0545758097
 10
148.4097326325
 20
85.0390009477
 10
148.3952420934
 20
85.0242564999
 10
148.377016666
 20
85.0105942786
 10
148.3553748088
 20
84.9982488103
  0
LWPOLYLINE
  5
4B3
100
AcDbEntity
  8
RACCORDO
100
AcDbPolyline
 62
253
  6
CONTINUOUS
 90
7
 70
0
 10
148.4285981135
 20
85.43795113
 10
148.4264593288
 20
85.421635356
 10
148.4200795701
 20
85.4055987494
 10
148.4095679966
 20
85.390115701
 10
148.3951044644
 20
85.37545113
 10
148.3769364486
 20
85.3618559514
 10
148.3553748088
 20
85.3495627824
  0
LWPOLYLINE
  5
4B4
100
AcDbEntity
  8
0
100
AcDbPolyline
 62
253
  6
CONTINUOUS
 90
42
 70
0
 10
148.7677771018
 20
135.385312941
 10
148.772264668
 20
135.3851323839
 10
148.7799736873
 20
135.3846396708
 10
148.7876586379
 20
135.3839827103
 10
148.7952910265
 20
135.3831664793
 10
148.8028988148
 20
135.3821855799
 10
148.8105413068
 20
135.3810427904
 10
148.818196784
 20
135.3797490959
 10
148.8258862657
 20
135.378292978
 10
148.833732886
 20
135.3766432647
 10
148.8417389646
 20
135.3748084548
 10
148.849900929
 20
135.3727791267
 10
148.8583325381
 20
135.3704968408
 10
148.86703965
 20
135.3679679444
 10
148.8760142909
 20
135.3651845609
 10
148.8853487148
 20
135.3620663642
 10
148.8950626365
 20
135.3586115373
 10
148.9051329141
 20
135.3548194638
 10
148.9155866419
 20
135.3506109873
 10
148.9264321155
 20
135.3459837982
 10
148.937656134
 20
135.3409368052
 10
148.949252655
 20
135.3353920499
 10
148.9612131707
 20
135.3293545475
 10
148.9735395808
 20
135.3228148551
 10
148.9862402823
 20
135.3156725352
 10
148.999334624
 20
135.3079146212
 10
149.0127939647
 20
135.2995481171
 10
149.0265535202
 20
135.2905017809
 10
149.0406266763
 20
135.2807576034
 10
149.0549884078
 20
135.2703265666
 10
149.0695158592
 20
135.2591807026
 10
149.0842468144
 20
135.2472668978
 10
149.0991301189
 20
135.2346308359
 10
149.1139114253
 20
135.221394047
 10
149.1285893521
 20
135.2075204145
 10
149.1431548181
 20
135.1930411441
 10
149.1573471244
 20
135.1781819273
 10
149.1711071969
 20
135.1629807307
 10
149.1844903265
 20
135.1473989832
 10
149.1974121425
 20
135.131550315
 10
149.2098510192
 20
135.1154568556
 10
149.2178600516
 20
135.1045168459
  0
LWPOLYLINE
  5
4B5
100
AcDbEntity
  8
RACCORDO
100
AcDbPolyline
 62
7
  6
CONTINUOUS
 90
21
 70
0
 10
126.5041164974
 20
139.0129190947
 10
126.4922794531
 20
139.0183931259
 10
126.480508561
 20
139.023411154
 10
126.4688163709
 20
139.0279674653
 10
126.4572162296
 20
139.0320569802
 10
126.4457198196
 20
139.0356749859
 10
126.4343371607
 20
139.0388169912
 10
126.4230809106
 20
139.0414793953
 10
126.4119631767
 20
139.0436589846
 10
126.4009930952
 20
139.0453523854
 10
126.3901830206
 20
139.0465575441
 10
126.3795449249
 20
139.047272718
 10
126.3690872756
 20
139.0474955733
 10
126.3588225024
 20
139.0472256601
 10
126.348761848
 20
139.0464628276
 10
126.3389118931
 20
139.0452057101
 10
126.3292838323
 20
139.0434552222
 10
126.3198894196
 20
139.041212728
 10
126.3107358456
 20
139.0384783075
 10
126.3018359882
 20
139.0352554938
 10
126.2935308156
 20
139.0317008451
  0
LWPOLYLINE
  5
4B6
100
AcDbEntity
  8
RACCORDO
100
AcDbPolyline
 62
7
  6
CONTINUOUS
 90
67
 70
0
 10
127.5846718771
 20
139.1439092467
 10
127.5749790675
 20
139.1486476605
 10
127.5582632099
 20
139.1563339271
 10
127.5411162609
 20
139.1636248181
 10
127.5235656722
 20
139.1705147564
 10
127.5056191003
 20
139.1770086773
 10
127.4872649755
 20
139.1831183755
 10
127.4685222687
 20
139.1888451149
 10
127.4494115349
 20
139.1941912091
 10
127.4299271162
 20
139.1991665817
 10
127.4101085288
 20
139.2037696717
 10
127.3899526139
 20
139.2080098125
 10
127.3693917184
 20
139.2119063592
 10
127.3484764107
 20
139.2154532208
 10
127.3271839103
 20
139.2186575255
 10
127.3053359494
 20
139.2215427331
 10
127.2828990506
 20
139.2241034303
 10
127.2599275864
 20
139.2263236042
 10
127.2363758026
 20
139.2281974656
 10
127.2121332941
 20
139.2297189122
 10
127.1873334553
 20
139.2308645007
 10
127.1622992992
 20
139.2316145184
 10
127.1370311523
 20
139.2319706877
 10
127.1115538774
 20
139.2319335031
 10
127.0862277262
 20
139.2315117139
 10
127.0611325505
 20
139.2307231191
 10
127.0362073491
 20
139.2295808916
 10
127.0115991092
 20
139.2281070823
 10
126.9873440227
 20
139.2263215402
 10
126.963417754
 20
139.2242390254
 10
126.9398753188
 20
139.2218802936
 10
126.9167286552
 20
139.2192627716
 10
126.8939724649
 20
139.2164012866
 10
126.8716355112
 20
139.2133145161
 10
126.8497316869
 20
139.2100195251
 10
126.8282496063
 20
139.2065291697
 10
126.8071805775
 20
139.202855714
 10
126.7865256369
 20
139.1990124331
 10
126.7662844282
 20
139.195011989
 10
126.7464474197
 20
139.1908647358
 10
126.7270140686
 20
139.1865823597
 10
126.7079845563
 20
139.1821764741
 10
126.6893518656
 20
139.1776567319
 10
126.6711116148
 20
139.1730330133
 10
126.6532674597
 20
139.1683170614
 10
126.6358257117
 20
139.1635214298
 10
126.6187796507
 20
139.158655077
 10
126.6021348545
 20
139.1537303272
 10
126.5859166396
 20
139.1487658348
 10
126.5701437243
 20
139.1437791121
 10
126.5547946303
 20
139.1387750478
 10
126.5398362141
 20
139.1337536628
 10
126.5252795567
 20
139.1287291571
 10
126.5111140507
 20
139.1237083388
 10
126.4972790053
 20
139.1186791765
 10
126.4837757838
 20
139.1136508715
 10
126.470610818
 20
139.1086346812
 10
126.4577375781
 20
139.1036212885
 10
126.4451757283
 20
139.0986265135
 10
126.4329226389
 20
139.0936577826
 10
126.4209074611
 20
139.0886941039
 10
126.4091623251
 20
139.0837562281
 10
126.3976908199
 20
139.0788537445
 10
126.3863951613
 20
139.0739522413
 10
126.3753177996
 20
139.0690773505
 10
126.364490105
 20
139.0642512104
 10
126.3433296907
 20
139.0546655838
  0
LINE
  5
4B7
100
AcDbEntity
  8
RACCORDO
100
AcDbLine
 62
253
  6
CONTINUOUS
 10
127.5836348399
 20
139.1444162113
 11
127.5846688377
 21
139.1439107702
  0
LINE
  5
4B8
100
AcDbEntity
  8
RACCORDO
100
AcDbLine
 62
7
  6
CONTINUOUS
 10
126.5057214222
 20
139.012132569
 11
128.8805974222
 21
137.824694569
  0
LINE
  5
4B9
100
AcDbEntity
  8
RACCORDO
100
AcDbLine
 62
253
  6
CONTINUOUS
 10
129.508362427
 20
138.1341040215
 11
127.4951349725
 21
139.1407041292
  0
LINE
  5
4BA
100
AcDbEntity
  8
RACCORDO
100
AcDbLine
 62
7
  6
CONTINUOUS
 10
129.5566665652
 20
138.1579119064
 11
127.5846688377
 21
139.1439107702
  0
LINE
  5
4BB
100
AcDbEntity
  8
268
100
AcDbLine
 62
7
  6
CONTINUOUS
 10
130.0841111866
 20
138.4178759858
 11
127.2835927294
 21
139.8181352144
  0
LINE
  5
4BC
100
AcDbEntity
  8
0
100
AcDbLine
 62
7
  6
CONTINUOUS
 10
138.5436746516
 20
134.560377001
 11
138.7060894134
 21
134.4791696201
  0
LINE
  5
4BD
100
AcDbEntity
  8
268
100
AcDbLine
 62
7
  6
CONTINUOUS
 10
126.9300393388
 20
140.547470099
 11
127.2835927294
 21
140.3706934037
  0
LINE
  5
4BE
100
AcDbEntity
  8
0
100
AcDbLine
 62
7
  6
CONTINUOUS
 10
144.1039408491
 20
132.3184066975
 11
146.8814815789
 21
130.9296363326
  0
LWPOLYLINE
  5
4BF
100
AcDbEntity
  8
RACCORDO
100
AcDbPolyline
 62
253
  6
CONTINUOUS
 90
13
 70
0
 10
148.1785981135
 20
127.3053755924
 10
148.2011588797
 20
127.2923247839
 10
148.2235067341
 20
127.2758184261
 10
148.2452590821
 20
127.2560617556
 10
148.2660770278
 20
127.2332684548
 10
148.2855240758
 20
127.2078164046
 10
148.3031125713
 20
127.1802974858
 10
148.3185056417
 20
127.1512552874
 10
148.3314777962
 20
127.1211340639
 10
148.3418015832
 20
127.0904657108
 10
148.3493007614
 20
127.0597843281
 10
148.3538502691
 20
127.0296160894
 10
148.3553748088
 20
127.0004808938
  0
LWPOLYLINE
  5
4C0
100
AcDbEntity
  8
RACCORDO
100
AcDbPolyline
 62
7
  6
CONTINUOUS
 90
10
 70
0
 10
148.2904015124
 20
127.3124760392
 10
148.3187362827
 20
127.2958976725
 10
148.3450677116
 20
127.2753833904
 10
148.3687005156
 20
127.2512301872
 10
148.3889732474
 20
127.2239332604
 10
148.4054020786
 20
127.194035403
 10
148.417664405
 20
127.1619945329
 10
148.425490335
 20
127.1281650433
 10
148.4285539183
 20
127.0935698402
 10
148.4285981098
 20
127.0888907978
  0
LWPOLYLINE
  5
4C1
100
AcDbEntity
  8
268
100
AcDbPolyline
 62
7
  6
CONTINUOUS
 90
4
 70
0
 10
137.686777545
 20
136.7282878779
 10
137.6862610878
 20
136.7286801058
 10
137.6803559044
 20
136.733098988
 10
137.6680428528
 20
136.7421840776
  0
LWPOLYLINE
  5
4C2
100
AcDbEntity
  8
268
100
AcDbPolyline
 62
7
  6
CONTINUOUS
 90
17
 70
0
 10
137.7509313318
 20
137.2741568235
 10
137.7172940379
 20
137.3102189741
 10
137.6836104499
 20
137.3448576337
 10
137.6498805675
 20
137.3780728025
 10
137.6160356657
 20
137.4098801065
 10
137.5821444697
 20
137.4402639196
 10
137.5484131547
 20
137.4691773637
 10
137.5148613593
 20
137.496596539
 10
137.4814694449
 20
137.5225453453
 10
137.4483846708
 20
137.5470486038
 10
137.4156223574
 20
137.5700923107
 10
137.3831671843
 20
137.5916904698
 10
137.3511204497
 20
137.6119099138
 10
137.3194933102
 20
137.6307438278
 10
137.2882746091
 20
137.6481990267
 10
137.2575321748
 20
137.6643627883
 10
137.2502595428
 20
137.6680392353
  0
LWPOLYLINE
  5
4C3
100
AcDbEntity
  8
0
100
AcDbPolyline
 62
253
  6
CONTINUOUS
 90
26
 70
0
 10
141.2229037275
 20
137.4993178171
 10
141.2228251404
 20
137.4994420093
 10
141.2221483805
 20
137.5000661043
 10
141.2211192554
 20
137.5004842843
 10
141.2197391666
 20
137.5006959798
 10
141.2180099935
 20
137.5007009026
 10
141.2159340904
 20
137.500499046
 10
141.213514284
 20
137.5000906848
 10
141.2107538686
 20
137.499476375
 10
141.2076566032
 20
137.498656953
 10
141.2042267064
 20
137.497633535
 10
141.2004688502
 20
137.496407515
 10
141.1963881505
 20
137.4949805624
 10
141.1919901608
 20
137.4933546191
 10
141.1872808669
 20
137.4915318979
 10
141.1822666828
 20
137.4895148811
 10
141.1769544399
 20
137.4873063167
 10
141.1713513739
 20
137.4849092131
 10
141.1654651128
 20
137.4823268338
 10
141.1593036694
 20
137.479562694
 10
141.1528754324
 20
137.4766205572
 10
141.1461891558
 20
137.4735044299
 10
141.1392539444
 20
137.4702185554
 10
141.1320792417
 20
137.466767408
 10
141.1246748171
 20
137.4631556868
 10
141.1170507528
 20
137.4593883099
  0
LWPOLYLINE
  5
4C4
100
AcDbEntity
  8
RACCORDO
100
AcDbPolyline
 62
253
  6
CONTINUOUS
 90
7
 70
0
 10
147.9064449328
 20
125.1827880974
 10
147.8949056146
 20
125.2023108441
 10
147.8800337776
 20
125.2210428367
 10
147.8618294217
 20
125.2389840752
 10
147.840292547
 20
125.2561345596
 10
147.8154231533
 20
125.2724942899
 10
147.7872212408
 20
125.2880632662
  0
LWPOLYLINE
  5
4C5
100
AcDbEntity
  8
0
100
AcDbPolyline
 62
253
  6
CONTINUOUS
 90
31
 70
0
 10
141.1170503885
 20
137.4593889412
 10
141.1033849266
 20
137.4825985717
 10
141.089449821
 20
137.5053819552
 10
141.0752617943
 20
137.5277281089
 10
141.0608336512
 20
137.5496325885
 10
141.0461853325
 20
137.5710800691
 10
141.0313447235
 20
137.5920451949
 10
141.0163663973
 20
137.6124699928
 10
141.0012301087
 20
137.6324009016
 10
140.9858463614
 20
137.6519639728
 10
140.9701938868
 20
137.6711852512
 10
140.9543143777
 20
137.6900128295
 10
140.9382069949
 20
137.708448239
 10
140.9218772958
 20
137.7264845678
 10
140.9053409194
 20
137.7441039865
 10
140.8886119791
 20
137.7612914344
 10
140.871704058
 20
137.7780332454
 10
140.8546260241
 20
137.7943208959
 10
140.8373850929
 20
137.8101474024
 10
140.8199850261
 20
137.8255086434
 10
140.8024447915
 20
137.8403871553
 10
140.7847949033
 20
137.8547576536
 10
140.7671196715
 20
137.8685566776
 10
140.7493597655
 20
137.8818359673
 10
140.7313273154
 20
137.8947279286
 10
140.7129814518
 20
137.90724091
 10
140.694382102
 20
137.919313409
 10
140.6754898073
 20
137.9309505991
 10
140.6562991631
 20
137.9421313885
 10
140.6368394785
 20
137.952813698
 10
140.6171243714
 20
137.9629658295
  0
LWPOLYLINE
  5
4C6
100
AcDbEntity
  8
0
100
AcDbPolyline
 62
7
  6
CONTINUOUS
 90
28
 70
0
 10
141.2229037852
 20
137.499317715
 10
141.2132458536
 20
137.515722601
 10
141.1994503242
 20
137.5383228508
 10
141.1852447601
 20
137.5606471702
 10
141.1706338059
 20
137.582683062
 10
141.1556240757
 20
137.6044154554
 10
141.1402236594
 20
137.6258269827
 10
141.1244379467
 20
137.6469040566
 10
141.1082726725
 20
137.6676328317
 10
141.0917357186
 20
137.6879961738
 10
141.0748322193
 20
137.7079807458
 10
141.0575678958
 20
137.7275721708
 10
141.0399508596
 20
137.7467530354
 10
141.0219812164
 20
137.7655148163
 10
141.0036690398
 20
137.7838375936
 10
140.9850374204
 20
137.8016899784
 10
140.9660872656
 20
137.8190632132
 10
140.9468286206
 20
137.8359392143
 10
140.9272992317
 20
137.8522781098
 10
140.9075052996
 20
137.8680689049
 10
140.8874532801
 20
137.8833000507
 10
140.8671823855
 20
137.8979369766
 10
140.8466999694
 20
137.9119703989
 10
140.8260123147
 20
137.9253916971
 10
140.805157791
 20
137.9381727301
 10
140.784154455
 20
137.9503006669
 10
140.7630012088
 20
137.9617745416
 10
140.7475877157
 20
137.9696740659
  0
LINE
  5
4C7
100
AcDbEntity
  8
0
100
AcDbLine
 62
253
  6
CONTINUOUS
 10
141.256662834
 20
137.2185930889
 11
141.1170503872
 21
137.4593889406
  0
LINE
  5
4C8
100
AcDbEntity
  8
0
100
AcDbLine
 62
7
  6
CONTINUOUS
 10
141.250702699
 20
137.4513716835
 11
141.2229037275
 21
137.4993178171
  0
LWPOLYLINE
  5
4C9
100
AcDbEntity
  8
RACCORDO
100
AcDbPolyline
 62
253
  6
CONTINUOUS
 90
7
 70
0
 10
147.8250447229
 20
126.0090018788
 10
147.8350693682
 20
125.9910528895
 10
147.8418977908
 20
125.9749233616
 10
147.8454131545
 20
125.9608892757
 10
147.8455553103
 20
125.9491907589
 10
147.8423218261
 20
125.9400279761
 10
147.8407870657
 20
125.9379022333
  0
LWPOLYLINE
  5
4CA
100
AcDbEntity
  8
RACCORDO
100
AcDbPolyline
 62
253
  6
CONTINUOUS
 90
6
 70
0
 10
148.3553748088
 20
126.6491669217
 10
148.3653994541
 20
126.6312179325
 10
148.3722278767
 20
126.6150884046
 10
148.3757432403
 20
126.6010543186
 10
148.3758853962
 20
126.5893558018
 10
148.372651912
 20
126.580193019
  0
LWPOLYLINE
  5
4CB
100
AcDbEntity
  8
RACCORDO
100
AcDbPolyline
 62
253
  6
CONTINUOUS
 90
13
 70
0
 10
147.8250447229
 20
85.4593977394
 10
147.8350693682
 20
85.4903960722
 10
147.8418977908
 20
85.5223763641
 10
147.8454131545
 20
85.5547914235
 10
147.8455553103
 20
85.5870866195
 10
147.8423218261
 20
85.6187093726
 10
147.8357680276
 20
85.6491186085
 10
147.8260060521
 20
85.677794017
 10
147.8132029297
 20
85.7042449537
 10
147.7975777254
 20
85.7280188358
 10
147.7793977908
 20
85.7487088856
 10
147.7589741896
 20
85.7659610907
 10
147.7366563752
 20
85.7794802609
  0
LWPOLYLINE
  5
4CC
100
AcDbEntity
  8
RACCORDO
100
AcDbPolyline
 62
253
  6
CONTINUOUS
 90
5
 70
0
 10
148.3553748088
 20
85.3495627824
 10
148.3653384423
 20
85.3803334552
 10
148.3721644041
 20
85.4121478248
 10
148.3757154628
 20
85.4444716724
 10
148.3759078419
 20
85.4767799231
  0
LWPOLYLINE
  5
4CD
100
AcDbEntity
  8
RACCORDO
100
AcDbPolyline
 62
253
  6
CONTINUOUS
 90
7
 70
0
 10
147.7144502694
 20
86.1328547565
 10
147.7131738982
 20
86.1296670435
 10
147.7051777896
 20
86.1165899379
 10
147.6945863018
 20
86.1039312542
 10
147.6814843424
 20
86.091831412
 10
147.6659951695
 20
86.0804222262
 10
147.6482680276
 20
86.0698318195
  0
LWPOLYLINE
  5
4CE
100
AcDbEntity
  8
RACCORDO
100
AcDbPolyline
 62
7
  6
CONTINUOUS
 90
9
 70
0
 10
145.1161589078
 20
85.94786394
 10
145.1293988123
 20
85.9758509762
 10
145.140903718
 20
86.0040745859
 10
145.1505608584
 20
86.0321038837
 10
145.1583117142
 20
86.059520889
 10
145.1640989572
 20
86.0856579507
 10
145.1680053189
 20
86.1100492707
 10
145.1702007406
 20
86.1324529241
 10
145.1708816669
 20
86.1525957909
  0
LINE
  5
4CF
100
AcDbEntity
  8
RACCORDO
100
AcDbLine
 62
253
  6
CONTINUOUS
 10
126.8306762091
 20
139.1472021874
 11
126.8408587544
 21
139.1500507818
  0
LWPOLYLINE
  5
4D0
100
AcDbEntity
  8
RACCORDO
100
AcDbPolyline
 62
253
  6
CONTINUOUS
 90
3
 70
0
 10
126.8408587544
 20
139.1500507818
 10
126.8512306557
 20
139.1528565561
 10
126.856487722
 20
139.1542428549
  0
LWPOLYLINE
  5
4D1
100
AcDbEntity
  8
268
100
AcDbPolyline
 62
7
  6
CONTINUOUS
 90
13
 70
0
 10
137.0039444433
 20
137.7554167072
 10
136.9692936333
 20
137.7618463883
 10
136.9340894102
 20
137.7672295411
 10
136.8983695583
 20
137.7715916819
 10
136.8621442415
 20
137.7749856051
 10
136.8254765034
 20
137.7774153548
 10
136.7884802935
 20
137.7788265839
 10
136.7511932585
 20
137.7792367188
 10
136.7136422766
 20
137.7786728373
 10
136.6759215758
 20
137.7770808491
 10
136.638082201
 20
137.7744517582
 10
136.6001330148
 20
137.7708297769
 10
136.5621035753
 20
137.7662349875
  0
LINE
  5
4D2
100
AcDbEntity
  8
268
100
AcDbLine
 62
7
  6
CONTINUOUS
 10
117.4486377306
 20
139.8865452032
 11
116.8263196985
 21
140.0164857857
  0
LWPOLYLINE
  5
4D3
100
AcDbEntity
  8
268
100
AcDbPolyline
 62
7
  6
CONTINUOUS
 90
18
 70
0
 10
129.7814257043
 20
141.4024339284
 10
129.76186362
 20
141.4115236614
 10
129.7389678398
 20
141.4205090761
 10
129.7154585536
 20
141.4280113089
 10
129.6913172314
 20
141.4340454787
 10
129.6666274781
 20
141.4385912631
 10
129.6413660519
 20
141.4416452465
 10
129.6155561944
 20
141.4432108445
 10
129.5893512355
 20
141.4432779811
 10
129.5627672729
 20
141.4418392051
 10
129.5357882089
 20
141.4389019678
 10
129.5085190803
 20
141.4344785465
 10
129.4809449006
 20
141.4285601609
 10
129.4530806563
 20
141.4211555913
 10
129.4250763433
 20
141.4123034567
 10
129.3969819601
 20
141.40201663
 10
129.3687475081
 20
141.3902822383
 10
129.3403729873
 20
141.3771002815
  0
LWPOLYLINE
  5
4D4
100
AcDbEntity
  8
RACCORDO
100
AcDbPolyline
 62
7
  6
CONTINUOUS
 90
12
 70
0
 10
143.3463814609
 20
134.0142218152
 10
143.337982094
 20
134.0181687202
 10
143.3192083676
 20
134.0252713968
 10
143.2995851803
 20
134.0303923147
 10
143.2791232759
 20
134.033556539
 10
143.258083653
 20
134.0347237087
 10
143.2364589113
 20
134.0338682421
 10
143.2142564512
 20
134.031015721
 10
143.1917594728
 20
134.0262025303
 10
143.1690623762
 20
134.0194407983
 10
143.1460707612
 20
134.0107183967
 10
143.122784628
 20
134.0000353255
  0
LWPOLYLINE
  5
4D5
100
AcDbEntity
  8
RACCORDO
100
AcDbPolyline
 62
7
  6
CONTINUOUS
 90
12
 70
0
 10
145.6912832524
 20
133.3717928282
 10
145.6801914414
 20
133.3771188325
 10
145.6433423576
 20
133.3917852835
 10
145.6048052232
 20
133.4025854738
 10
145.5646009239
 20
133.4095672393
 10
145.5232310292
 20
133.4126434787
 10
145.4806809372
 20
133.4117652651
 10
145.43696525
 20
133.4069815255
 10
145.3926293436
 20
133.3983519394
 10
145.3478550103
 20
133.3858964002
 10
145.3024604579
 20
133.3695950146
 10
145.2564456865
 20
133.3494477825
  0
LWPOLYLINE
  5
4D6
100
AcDbEntity
  8
268
100
AcDbPolyline
 62
7
  6
CONTINUOUS
 90
10
 70
0
 10
137.2502595428
 20
137.6680392353
 10
137.2272798637
 20
137.6792306675
 10
137.1975038193
 20
137.6928071092
 10
137.1682303003
 20
137.7051927259
 10
137.1394402923
 20
137.7163945225
 10
137.1111528096
 20
137.726405494
 10
137.0834511533
 20
137.7353052384
 10
137.0563630903
 20
137.7431202884
 10
137.0298608536
 20
137.7498241113
 10
137.0039444433
 20
137.7554167072
  0
LINE
  5
4D7
100
AcDbEntity
  8
0
100
AcDbLine
 62
7
  6
CONTINUOUS
 10
137.7156687838
 20
135.988475875
 11
137.0706541151
 21
136.3109832093
  0
LINE
  5
4D8
100
AcDbEntity
  8
268
100
AcDbLine
 62
7
  6
CONTINUOUS
 10
131.4919268829
 20
139.1117526442
 11
128.6813772359
 21
140.5170274676
  0
LINE
  5
4D9
100
AcDbEntity
  8
0
100
AcDbLine
 62
7
  6
CONTINUOUS
 10
137.1403798502
 20
136.2954692598
 11
137.2356100437
 21
136.2478541631
  0
LINE
  5
4DA
100
AcDbEntity
  8
0
100
AcDbLine
 62
7
  6
CONTINUOUS
 10
137.5246764897
 20
136.4608096017
 11
137.336851617
 21
136.554722038
  0
LINE
  5
4DB
100
AcDbEntity
  8
RACCORDO
100
AcDbLine
 62
253
  6
CONTINUOUS
 10
142.5169336829
 20
134.3029607981
 11
143.122784628
 21
134.0000353255
  0
LINE
  5
4DC
100
AcDbEntity
  8
RACCORDO
100
AcDbLine
 62
253
  6
CONTINUOUS
 10
148.0725320963
 20
131.5251615914
 11
148.6783830414
 21
131.2222361188
  0
LINE
  5
4DD
100
AcDbEntity
  8
0
100
AcDbLine
 62
7
  6
CONTINUOUS
 10
149.1248454684
 20
131.0490075089
 11
149.007252049
 21
131.1078042186
  0
LINE
  5
4DE
100
AcDbEntity
  8
0
100
AcDbLine
 62
7
  6
CONTINUOUS
 10
148.1281570644
 20
131.5473517109
 11
145.9512117527
 21
132.6358243667
  0
LINE
  5
4DF
100
AcDbEntity
  8
268
100
AcDbLine
 62
7
  6
CONTINUOUS
 10
130.041309176
 20
140.590775655
 11
132.2510500642
 21
139.485905211
  0
LINE
  5
4E0
100
AcDbEntity
  8
268
100
AcDbLine
 62
7
  6
CONTINUOUS
 10
132.9966348873
 20
139.1131127994
 11
133.1424482974
 21
139.0402060944
  0
LINE
  5
4E1
100
AcDbEntity
  8
RACCORDO
100
AcDbLine
 62
7
  6
CONTINUOUS
 10
142.7418221674
 20
134.3165208483
 11
143.3463914257
 21
134.0142362191
  0
LINE
  5
4E2
100
AcDbEntity
  8
RACCORDO
100
AcDbLine
 62
7
  6
CONTINUOUS
 10
148.2961388941
 20
131.539362485
 11
148.9007081524
 21
131.2370778558
  0
LINE
  5
4E3
100
AcDbEntity
  8
268
100
AcDbLine
 62
7
  6
CONTINUOUS
 10
127.1738514304
 20
142.2877482076
 11
127.3543034075
 21
142.197522219
  0
LINE
  5
4E4
100
AcDbEntity
  8
268
100
AcDbLine
 62
7
  6
CONTINUOUS
 10
132.7283149446
 20
139.5105164505
 11
132.9087669217
 21
139.420290462
  0
LINE
  5
4E5
100
AcDbEntity
  8
0
100
AcDbLine
 62
7
  6
CONTINUOUS
 10
132.4152405819
 20
139.7075178071
 11
133.4494373082
 21
139.190419444
  0
LINE
  5
4E6
100
AcDbEntity
  8
0
100
AcDbLine
 62
7
  6
CONTINUOUS
 10
137.7522409127
 20
137.0390176417
 11
138.0316158035
 21
136.8993301963
  0
LINE
  5
4E7
100
AcDbEntity
  8
RACCORDO
100
AcDbLine
 62
253
  6
CONTINUOUS
 10
142.0922451716
 20
134.93154804
 11
145.2564456865
 21
133.3494477825
  0
LINE
  5
4E8
100
AcDbEntity
  8
RACCORDO
100
AcDbLine
 62
253
  6
CONTINUOUS
 10
149.4990863736
 20
131.228127439
 11
152.6632868885
 21
129.6460271815
  0
LINE
  5
4E9
100
AcDbEntity
  8
268
100
AcDbLine
 62
253
  6
CONTINUOUS
 10
126.3612830863
 20
142.866645232
 11
129.3403729873
 21
141.3771002815
  0
LINE
  5
4EA
100
AcDbEntity
  8
268
100
AcDbLine
 62
253
  6
CONTINUOUS
 10
133.5830136744
 20
139.2557799379
 11
136.5621035753
 21
137.7662349875
  0
LINE
  5
4EB
100
AcDbEntity
  8
RACCORDO
100
AcDbLine
 62
7
  6
CONTINUOUS
 10
142.3664113087
 20
135.0342647413
 11
145.6913185671
 21
133.3718111121
  0
LINE
  5
4EC
100
AcDbEntity
  8
RACCORDO
100
AcDbLine
 62
7
  6
CONTINUOUS
 10
149.9339592542
 20
131.2504907686
 11
153.2588665126
 21
129.5880371394
  0
LINE
  5
4ED
100
AcDbEntity
  8
268
100
AcDbLine
 62
7
  6
CONTINUOUS
 10
134.0240566775
 20
139.2811294045
 11
137.2505465696
 21
137.6678844585
  0
LWPOLYLINE
  5
4EE
100
AcDbEntity
  8
RACCORDO
100
AcDbPolyline
 62
7
  6
CONTINUOUS
 90
4
 70
0
 10
148.4084898702
 20
84.9884038632
 10
148.4194501456
 20
85.0196275315
 10
148.4262080733
 20
85.0521508159
 10
148.4285979551
 20
85.0864964654
  0
LWPOLYLINE
  5
4EF
100
AcDbEntity
  8
RACCORDO
100
AcDbPolyline
 62
253
  6
CONTINUOUS
 90
6
 70
0
 10
146.9518008563
 20
85.7635856549
 10
146.9517459751
 20
85.7634738025
 10
146.9469624117
 20
85.7495866158
 10
146.9435829266
 20
85.734466016
 10
146.9416425082
 20
85.7182685463
 10
146.9411612464
 20
85.7011618993
  0
LWPOLYLINE
  5
4F0
100
AcDbEntity
  8
RACCORDO
100
AcDbPolyline
 62
253
  6
CONTINUOUS
 90
10
 70
0
 10
145.1557166239
 20
85.8325132695
 10
145.1728919987
 20
85.8549361914
 10
145.1886398052
 20
85.8789938472
 10
145.2027470814
 20
85.9043608984
 10
145.2150230505
 20
85.9306942991
 10
145.2253017012
 20
85.9576379353
 10
145.2334440324
 20
85.9848274405
 10
145.2393399329
 20
86.0118951233
 10
145.2429096708
 20
86.0384749397
 10
145.2441049716
 20
86.0642074433
  0
LWPOLYLINE
  5
4F1
100
AcDbEntity
  8
RACCORDO
100
AcDbPolyline
 62
7
  6
CONTINUOUS
 90
5
 70
0
 10
145.0515859335
 20
85.8486954365
 10
145.0689333059
 20
85.8709179885
 10
145.0856653814
 20
85.8950432474
 10
145.1014841103
 20
85.920777146
 10
145.1161589078
 20
85.94786394
  0
LINE
  5
4F2
100
AcDbEntity
  8
DRAFT
100
AcDbLine
 62
7
  6
CONTINUOUS
 10
148.8857048947
 20
90.6465400056
 11
153.0843149774
 21
92.7828083358
  0
LINE
  5
4F3
100
AcDbEntity
  8
RACCORDO
100
AcDbLine
 62
253
  6
CONTINUOUS
 10
143.9894160859
 20
90.1348124823
 11
144.9103957723
 21
90.5601514217
  0
LINE
  5
4F4
100
AcDbEntity
  8
RACCORDO
100
AcDbLine
 62
7
  6
CONTINUOUS
 10
143.9714101787
 20
89.9159926503
 11
144.809851966
 21
90.3032128527
  0
LWPOLYLINE
  5
4F5
100
AcDbEntity
  8
RACCORDO
100
AcDbPolyline
 62
253
  6
CONTINUOUS
 90
4
 70
0
 10
126.856487722
 20
139.1542428549
 10
126.8671443174
 20
139.1569778401
 10
126.8725438464
 20
139.1583265264
 10
126.8779907091
 20
139.1596611352
  0
LWPOLYLINE
  5
4F6
100
AcDbEntity
  8
RACCORDO
100
AcDbPolyline
 62
253
  6
CONTINUOUS
 90
128
 70
0
 10
126.8779907091
 20
139.1596611352
 10
126.8890265872
 20
139.1622881561
 10
126.8946151684
 20
139.1635789626
 10
126.9002509253
 20
139.1648541446
 10
126.9059336575
 20
139.1661136613
 10
126.9116624064
 20
139.1673558034
 10
126.9174373336
 20
139.1685805934
 10
126.9232582774
 20
139.1697880088
 10
126.9291237949
 20
139.1709762733
 10
126.9350337053
 20
139.1721453422
 10
126.9409881894
 20
139.1732952601
 10
126.9469863464
 20
139.1744243841
 10
126.953028408
 20
139.175532751
 10
126.9591141426
 20
139.176620324
 10
126.9652419543
 20
139.1776853487
 10
126.9714201611
 20
139.1787289995
 10
126.977640445
 20
139.1797501021
 10
126.9838762554
 20
139.1807433799
 10
126.9901240203
 20
139.1817078854
 10
126.9963873118
 20
139.1826445661
 10
127.0026502954
 20
139.183550988
 10
127.0089104785
 20
139.18442659
 10
127.0151703537
 20
139.1852719332
 10
127.0214215648
 20
139.1860862667
 10
127.0276630119
 20
139.1868693511
 10
127.0338957949
 20
139.1876214259
 10
127.0401148575
 20
139.1883424587
 10
127.0463198237
 20
139.1890323521
 10
127.0525110695
 20
139.1896912036
 10
127.0586846658
 20
139.1903192732
 10
127.0648402186
 20
139.1909164895
 10
127.0709781221
 20
139.191482924
 10
127.0770956291
 20
139.192019051
 10
127.0831924641
 20
139.1925248336
 10
127.0892689028
 20
139.1930003086
 10
127.0953230254
 20
139.1934460619
 10
127.101355209
 20
139.1938621034
 10
127.1073650767
 20
139.194248423
 10
127.1133495778
 20
139.1946055766
 10
127.1193085208
 20
139.1949335303
 10
127.1252420972
 20
139.1952323179
 10
127.1311478312
 20
139.1955025967
 10
127.1370255543
 20
139.1957443455
 10
127.1428754349
 20
139.1959575855
 10
127.1486955028
 20
139.1961430374
 10
127.1544858367
 20
139.1963006909
 10
127.160246358
 20
139.1964305563
 10
127.1659748599
 20
139.1965333854
 10
127.1716713651
 20
139.1966091614
 10
127.177335851
 20
139.196657901
 10
127.1829660428
 20
139.1966804057
 10
127.1885618152
 20
139.1966766595
 10
127.1941232934
 20
139.1966466784
 10
127.1996485789
 20
139.1965913121
 10
127.2051374793
 20
139.1965105542
 10
127.2105901869
 20
139.196404411
 10
127.2160053802
 20
139.1962737517
 10
127.2213830043
 20
139.1961185738
 10
127.226723114
 20
139.1959388798
 10
127.2320245521
 20
139.1957355457
 10
127.2372876014
 20
139.1955085476
 10
127.242511979
 20
139.1952579095
 10
127.2476956792
 20
139.1949845795
 10
127.2528384923
 20
139.1946885522
 10
127.257940628
 20
139.1943698331
 10
127.26300071
 20
139.1940293868
 10
127.2680185256
 20
139.1936672209
 10
127.2729942875
 20
139.1932833279
 10
127.2779272573
 20
139.1928786497
 10
127.2828173516
 20
139.1924531924
 10
127.2876646539
 20
139.19200695
 10
127.2924686761
 20
139.191540846
 10
127.2972293662
 20
139.1910548865
 10
127.3019467762
 20
139.1905490654
 10
127.3066205751
 20
139.1900242881
 10
127.3112507062
 20
139.1894805629
 10
127.3158372262
 20
139.1889178815
 10
127.3203799735
 20
139.1883371233
 10
127.3248788688
 20
139.187738303
 10
127.3293339914
 20
139.187121406
 10
127.3337454176
 20
139.186487268
 10
127.3381130958
 20
139.1858359033
 10
127.3424370777
 20
139.1851672976
 10
127.3467175937
 20
139.1844822445
 10
127.3509546065
 20
139.183780758
 10
127.3551481535
 20
139.1830628241
 10
127.3592985776
 20
139.1823291947
 10
127.3634058293
 20
139.181579888
 10
127.367469958
 20
139.1808148858
 10
127.3714914553
 20
139.1800348855
 10
127.3754702843
 20
139.1792399054
 10
127.3794064818
 20
139.1784299271
 10
127.3833006496
 20
139.1776055934
 10
127.3871527467
 20
139.1767669258
 10
127.390962814
 20
139.1759139026
 10
127.3947315761
 20
139.1750471012
 10
127.3984589911
 20
139.1741665468
 10
127.4021451008
 20
139.1732722142
 10
127.4057907556
 20
139.172364605
 10
127.4093959391
 20
139.171443741
 10
127.4129606676
 20
139.1705096003
 10
127.4164858402
 20
139.1695626197
 10
127.4199714564
 20
139.1686028178
 10
127.4234175166
 20
139.1676301759
 10
127.4268249209
 20
139.1666450748
 10
127.4301936594
 20
139.1656475371
 10
127.433523742
 20
139.1646375402
 10
127.4368160983
 20
139.1636153977
 10
127.440070721
 20
139.1625811331
 10
127.4432876175
 20
139.1615347228
 10
127.4464677398
 20
139.1604764093
 10
127.4496110959
 20
139.1594062128
 10
127.4527176778
 20
139.1583241131
 10
127.4557884131
 20
139.1572302923
 10
127.458823325
 20
139.1561247653
 10
127.4618223903
 20
139.1550075171
 10
127.4647864672
 20
139.1538786859
 10
127.4677155912
 20
139.1527382807
 10
127.4706097268
 20
139.1515862924
 10
127.4734696255
 20
139.1504228313
 10
127.4762953131
 20
139.1492479079
 10
127.4790867639
 20
139.1480615118
 10
127.4818446525
 20
139.1468637223
 10
127.4845689914
 20
139.1456545576
 10
127.4872597681
 20
139.1444339995
 10
127.4899176198
 20
139.1432020726
 10
127.4925427587
 20
139.1419587853
 10
127.4951349725
 20
139.1407041292
  0
LINE
  5
4F7
100
AcDbEntity
  8
268
100
AcDbLine
 62
7
  6
CONTINUOUS
 10
128.6813772359
 20
140.5170274676
 11
130.041309176
 21
140.590775655
  0
LWPOLYLINE
  5
4F8
100
AcDbEntity
  8
0
100
AcDbPolyline
 62
7
  6
CONTINUOUS
 90
37
 70
0
 10
139.251282313
 20
138.717815978
 10
139.2447251006
 20
138.7209770819
 10
139.2381030429
 20
138.7240399877
 10
139.2314209279
 20
138.7270081773
 10
139.2246807643
 20
138.7298809103
 10
139.2178845366
 20
138.7326572371
 10
139.2110368321
 20
138.7353402697
 10
139.2041395039
 20
138.7379293756
 10
139.19719444
 20
138.7404237389
 10
139.190206148
 20
138.742826145
 10
139.1831763542
 20
138.7451360582
 10
139.1761068557
 20
138.7473527883
 10
139.1690021603
 20
138.749478847
 10
139.1618639004
 20
138.7515137885
 10
139.1546937776
 20
138.7534570448
 10
139.1474963191
 20
138.7553109161
 10
139.1402730288
 20
138.7570750572
 10
139.1330255677
 20
138.7587490046
 10
139.1257586322
 20
138.7603348684
 10
139.1184736419
 20
138.7618323994
 10
139.1111721911
 20
138.763241249
 10
139.1038591869
 20
138.7645633895
 10
139.0965359631
 20
138.765798676
 10
139.0892040605
 20
138.7669468768
 10
139.081868657
 20
138.7680098699
 10
139.0745310068
 20
138.7689876242
 10
139.0671925972
 20
138.7698800322
 10
139.0598589235
 20
138.7706889234
 10
139.0525311667
 20
138.7714143919
 10
139.0452107548
 20
138.7720564642
 10
139.0379035246
 20
138.7726169683
 10
139.0306105914
 20
138.7730961365
 10
139.0233333116
 20
138.7734941416
 10
139.0160778541
 20
138.773812856
 10
139.0088470514
 20
138.7740531663
 10
139.0016403958
 20
138.7742149168
 10
138.9944590089
 20
138.7742985174
  0
LWPOLYLINE
  5
4F9
100
AcDbEntity
  8
0
100
AcDbPolyline
 62
7
  6
CONTINUOUS
 90
37
 70
0
 10
136.1400124757
 20
140.2734508967
 10
136.1334552634
 20
140.2766120005
 10
136.1268332057
 20
140.2796749063
 10
136.1201510907
 20
140.282643096
 10
136.1134109271
 20
140.285515829
 10
136.1066146994
 20
140.2882921557
 10
136.0997669949
 20
140.2909751883
 10
136.0928696666
 20
140.2935642942
 10
136.0859246028
 20
140.2960586575
 10
136.0789363108
 20
140.2984610636
 10
136.0719065169
 20
140.3007709768
 10
136.0648370185
 20
140.3029877069
 10
136.057732323
 20
140.3051137657
 10
136.0505940632
 20
140.3071487071
 10
136.0434239404
 20
140.3090919634
 10
136.0362264819
 20
140.3109458347
 10
136.0290031916
 20
140.3127099759
 10
136.0217557305
 20
140.3143839232
 10
136.014488795
 20
140.315969787
 10
136.0072038047
 20
140.317467318
 10
135.9999023539
 20
140.3188761677
 10
135.9925893497
 20
140.3201983081
 10
135.9852661259
 20
140.3214335946
 10
135.9779342233
 20
140.3225817954
 10
135.9705988198
 20
140.3236447885
 10
135.9632611696
 20
140.3246225428
 10
135.95592276
 20
140.3255149509
 10
135.9485890862
 20
140.326323842
 10
135.9412613294
 20
140.3270493105
 10
135.9339409176
 20
140.3276913829
 10
135.9266336874
 20
140.3282518869
 10
135.9193407541
 20
140.3287310551
 10
135.9120634744
 20
140.3291290602
 10
135.9048080168
 20
140.3294477746
 10
135.8975772141
 20
140.3296880849
 10
135.8903705586
 20
140.3298498354
 10
135.8831891717
 20
140.329933436
  0
LWPOLYLINE
  5
4FA
100
AcDbEntity
  8
0
100
AcDbPolyline
 62
253
  6
CONTINUOUS
 90
20
 70
0
 10
149.6440867904
 20
134.8914034765
 10
149.6421782495
 20
134.8923353178
 10
149.6358838837
 20
134.8951029042
 10
149.6294133397
 20
134.8974900006
 10
149.6227756705
 20
134.899493268
 10
149.6159801673
 20
134.9011099044
 10
149.6090363292
 20
134.9023376518
 10
149.601953851
 20
134.9031747958
 10
149.5947426103
 20
134.9036201644
 10
149.5874127201
 20
134.9036731292
 10
149.5799744997
 20
134.9033336189
 10
149.5724383966
 20
134.9026021222
 10
149.5648149132
 20
134.9014796704
 10
149.5571146566
 20
134.8999678295
 10
149.549347872
 20
134.8980685731
 10
149.5415259397
 20
134.8957846469
 10
149.5336613354
 20
134.8931198013
 10
149.5257655916
 20
134.8900781934
 10
149.5178492506
 20
134.8866641328
 10
149.5099233814
 20
134.8828826055
  0
LINE
  5
4FB
100
AcDbEntity
  8
0
100
AcDbLine
 62
7
  6
CONTINUOUS
 10
148.9488145408
 20
135.2390394974
 11
148.9491483912
 21
135.2388726753
  0
LINE
  5
4FC
100
AcDbEntity
  8
0
100
AcDbLine
 62
253
  6
CONTINUOUS
 10
140.6171243782
 20
137.9629658327
 11
138.9944590089
 21
138.7742985174
  0
LINE
  5
4FD
100
AcDbEntity
  8
0
100
AcDbLine
 62
253
  6
CONTINUOUS
 10
137.9954158425
 20
139.2738201006
 11
135.8831891717
 21
140.329933436
  0
LINE
  5
4FE
100
AcDbEntity
  8
0
100
AcDbLine
 62
7
  6
CONTINUOUS
 10
140.7475887694
 20
137.9696735681
 11
139.251282313
 21
138.717815978
  0
LINE
  5
4FF
100
AcDbEntity
  8
0
100
AcDbLine
 62
7
  6
CONTINUOUS
 10
137.9969001705
 20
139.3450178675
 11
136.1400124757
 21
140.2734508967
  0
LINE
  5
500
100
AcDbEntity
  8
RACCORDO
100
AcDbLine
 62
253
  6
CONTINUOUS
 10
142.296840759
 20
137.950745872
 11
140.8755768735
 21
138.6613778148
  0
LINE
  5
501
100
AcDbEntity
  8
RACCORDO
100
AcDbLine
 62
253
  6
CONTINUOUS
 10
138.782557854
 20
139.7078873245
 11
137.7643070363
 21
140.2170127334
  0
LINE
  5
502
100
AcDbEntity
  8
RACCORDO
100
AcDbLine
 62
253
  6
CONTINUOUS
 10
142.410828787
 20
138.0000022358
 11
140.9605467005
 21
138.725143279
  0
LINE
  5
503
100
AcDbEntity
  8
RACCORDO
100
AcDbLine
 62
253
  6
CONTINUOUS
 10
138.8930243928
 20
139.7589044329
 11
137.8492768633
 21
140.2807781976
  0
LWPOLYLINE
  5
504
100
AcDbEntity
  8
0
100
AcDbPolyline
 62
7
  6
CONTINUOUS
 90
32
 70
0
 10
148.9492451686
 20
135.2388242874
 10
149.6454434806
 20
134.8907208375
 10
149.6552044533
 20
134.8855505264
 10
149.6647696451
 20
134.8800236848
 10
149.6741373615
 20
134.8741402523
 10
149.6832982798
 20
134.8679037911
 10
149.6922342102
 20
134.8613243531
 10
149.7009299129
 20
134.8544113303
 10
149.7093710324
 20
134.8471745929
 10
149.7175466442
 20
134.8396219325
 10
149.725447007
 20
134.831760314
 10
149.7330602837
 20
134.8235991047
 10
149.7403742996
 20
134.8151488616
 10
149.7473788688
 20
134.8064186275
 10
149.7540633238
 20
134.7974185776
 10
149.7604160897
 20
134.7881610319
 10
149.7664261176
 20
134.7786588727
 10
149.7720828107
 20
134.7689257081
 10
149.7773773638
 20
134.7589733555
 10
149.782301905
 20
134.7488125678
 10
149.7868482428
 20
134.7384553169
 10
149.7910072186
 20
134.7279171346
 10
149.7947702184
 20
134.717214665
 10
149.7981300924
 20
134.7063629889
 10
149.8010804179
 20
134.6953769905
 10
149.8036149243
 20
134.6842736575
 10
149.8057283044
 20
134.6730694593
 10
149.8074161396
 20
134.6617797491
 10
149.8086745081
 20
134.6504202639
 10
149.8095001778
 20
134.6390042979
 10
149.8098899777
 20
134.6275517136
 10
149.8099233814
 20
134.6230732212
  0
LWPOLYLINE
  5
505
100
AcDbEntity
  8
0
100
AcDbPolyline
 62
253
  6
CONTINUOUS
 90
43
 70
0
 10
148.7677771018
 20
135.2539557453
 10
149.5179924737
 20
134.8788048074
 10
149.5260502806
 20
134.874369348
 10
149.5340855326
 20
134.8695824306
 10
149.5420869916
 20
134.8644507504
 10
149.5500434669
 20
134.8589814843
 10
149.5579438306
 20
134.8531822816
 10
149.5657770335
 20
134.8470612531
 10
149.5735321199
 20
134.8406269595
 10
149.5811982437
 20
134.8338883998
 10
149.5887646832
 20
134.8268549985
 10
149.5962208561
 20
134.8195365924
 10
149.6035563341
 20
134.811943417
 10
149.6107608579
 20
134.804086092
 10
149.6178243514
 20
134.7959756066
 10
149.6247369357
 20
134.787623304
 10
149.6314889428
 20
134.7790408658
 10
149.6380709295
 20
134.7702402951
 10
149.6444736903
 20
134.7612339005
 10
149.6506882702
 20
134.7520342781
 10
149.6567059778
 20
134.7426542945
 10
149.6625183966
 20
134.7331070684
 10
149.6681173975
 20
134.7234059525
 10
149.6734951498
 20
134.7135645147
 10
149.6786441321
 20
134.7035965191
 10
149.6835571433
 20
134.6935159068
 10
149.6882273119
 20
134.6833367765
 10
149.6926481063
 20
134.6730733647
 10
149.6968133437
 20
134.6627400256
 10
149.7007171986
 20
134.6523512113
 10
149.704354211
 20
134.6419214516
 10
149.7077192944
 20
134.6314653335
 10
149.7108077423
 20
134.6209974806
 10
149.7136152353
 20
134.6105325334
 10
149.7161378468
 20
134.6000851278
 10
149.7183720487
 20
134.5896698757
 10
149.7203147163
 20
134.5793013437
 10
149.7219631326
 20
134.568994033
 10
149.7233149921
 20
134.5587623594
 10
149.7243684042
 20
134.5486206329
 10
149.7251218955
 20
134.5385830375
 10
149.7255744122
 20
134.5286636117
 10
149.7257253215
 20
134.5188762288
  0
LWPOLYLINE
  5
506
100
AcDbEntity
  8
0
100
AcDbPolyline
 62
253
  6
CONTINUOUS
 90
26
 70
0
 10
148.3752815372
 20
138.6635522699
 10
148.3752290196
 20
138.6636375715
 10
148.3745691543
 20
138.664273757
 10
148.3735553044
 20
138.664703152
 10
148.3721888564
 20
138.6649251693
 10
148.3704716793
 20
138.664939505
 10
148.3684061217
 20
138.6647461397
 10
148.3659950084
 20
138.6643453378
 10
148.3632416373
 20
138.6637376475
 10
148.360149774
 20
138.6629238998
 10
148.3567236473
 20
138.6619052078
 10
148.3529679429
 20
138.6606829647
 10
148.3488877976
 20
138.6592588421
 10
148.3444887917
 20
138.6576347879
 10
148.3397769416
 20
138.6558130231
 10
148.3347586917
 20
138.6537960394
 10
148.3294409054
 20
138.6515865954
 10
148.3238308558
 20
138.649187713
 10
148.3179362156
 20
138.646602673
 10
148.3117650469
 20
138.6438350109
 10
148.3053257898
 20
138.6408885122
 10
148.2986272514
 20
138.6377672065
 10
148.291678593
 20
138.634475363
 10
148.2844893183
 20
138.6310174839
 10
148.2770692599
 20
138.6273982983
 10
148.2694285662
 20
138.6236227563
  0
LWPOLYLINE
  5
507
100
AcDbEntity
  8
0
100
AcDbPolyline
 62
7
  6
CONTINUOUS
 90
25
 70
0
 10
147.5098184729
 20
140.1562579264
 10
147.5085020895
 20
140.1584452036
 10
147.5067401253
 20
140.1611356961
 10
147.5049016862
 20
140.1636852067
 10
147.5029790636
 20
140.1660881857
 10
147.500974989
 20
140.1683411498
 10
147.4988916513
 20
140.1704403805
 10
147.4967207258
 20
140.1723794572
 10
147.4944652711
 20
140.1741546861
 10
147.4921278092
 20
140.1757621102
 10
147.489699451
 20
140.1771943875
 10
147.4871835841
 20
140.178447633
 10
147.4845831531
 20
140.1795176751
 10
147.4818888853
 20
140.1803962386
 10
147.4791044946
 20
140.1810792724
 10
147.4762334318
 20
140.1815624759
 10
147.4732663369
 20
140.1818367768
 10
147.4702072231
 20
140.1818980125
 10
147.4670601283
 20
140.1817418921
 10
147.4638160369
 20
140.181358874
 10
147.4604792118
 20
140.1807447805
 10
147.4570543313
 20
140.179895526
 10
147.4535332691
 20
140.1788016509
 10
147.449920472
 20
140.1774591153
 10
147.4480524938
 20
140.1766810176
  0
LINE
  5
508
100
AcDbEntity
  8
0
100
AcDbLine
 62
253
  6
CONTINUOUS
 10
148.2694269811
 20
138.6236254903
 11
147.5158724049
 21
139.9233148809
  0
LINE
  5
509
100
AcDbEntity
  8
0
100
AcDbLine
 62
7
  6
CONTINUOUS
 10
147.5098499606
 20
140.1562009432
 11
148.3752815409
 21
138.6635522636
  0
LWPOLYLINE
  5
50A
100
AcDbEntity
  8
0
100
AcDbPolyline
 62
253
  6
CONTINUOUS
 90
37
 70
0
 10
148.2694269776
 20
138.6236254885
 10
148.291033997
 20
138.5858472778
 10
148.3121529103
 20
138.5477419268
 10
148.3327736064
 20
138.5093275383
 10
148.3528860597
 20
138.4706225069
 10
148.3724808112
 20
138.4316450826
 10
148.3915489496
 20
138.3924133503
 10
148.410081455
 20
138.3529457307
 10
148.4280693293
 20
138.3132611833
 10
148.4455040664
 20
138.2733787633
 10
148.4623773176
 20
138.2333174914
 10
148.4786810278
 20
138.1930963409
 10
148.4944075418
 20
138.1527344285
 10
148.5095493609
 20
138.11225095
 10
148.52409924
 20
138.0716651448
 10
148.5380503244
 20
138.0309962845
 10
148.5513959819
 20
137.990263689
 10
148.5641298239
 20
137.9494867522
 10
148.5762457994
 20
137.908684906
 10
148.5877381564
 20
137.8678775694
 10
148.5986014143
 20
137.8270841521
 10
148.6088303835
 20
137.7863240789
 10
148.6184202196
 20
137.7456167854
 10
148.6273663709
 20
137.7049816125
 10
148.6356645487
 20
137.6644378098
 10
148.6433108454
 20
137.6240046899
 10
148.6503016392
 20
137.5837014993
 10
148.6566335359
 20
137.5435473155
 10
148.6623035838
 20
137.5035612136
 10
148.6673091026
 20
137.4637622973
 10
148.6716475887
 20
137.4241695706
 10
148.6753170306
 20
137.3848021431
 10
148.67831576
 20
137.3456785313
 10
148.6806422474
 20
137.3068167025
 10
148.6822953679
 20
137.2682349698
 10
148.683274436
 20
137.2299519709
 10
148.6835790378
 20
137.1919859767
  0
LINE
  5
50B
100
AcDbEntity
  8
DRAFT
100
AcDbLine
 62
7
  6
CONTINUOUS
 10
144.7104701441
 20
142.1977047417
 11
144.6738805455
 21
142.2672467423
  0
LINE
  5
50C
100
AcDbEntity
  8
DRAFT
100
AcDbLine
 62
7
  6
CONTINUOUS
 10
144.9933128565
 20
142.3391260979
 11
144.956723258
 21
142.4086680985
  0
LINE
  5
50D
100
AcDbEntity
  8
DRAFT
100
AcDbLine
 62
7
  6
CONTINUOUS
 10
145.276155569
 20
142.4805474541
 11
145.2395659705
 21
142.5500894547
  0
LINE
  5
50E
100
AcDbEntity
  8
DRAFT
100
AcDbLine
 62
7
  6
CONTINUOUS
 10
145.5589982815
 20
142.6219688104
 11
145.522408683
 21
142.691510811
  0
LINE
  5
50F
100
AcDbEntity
  8
DRAFT
100
AcDbLine
 62
7
  6
CONTINUOUS
 10
145.841840994
 20
142.7633901666
 11
145.8052513954
 21
142.8329321672
  0
LINE
  5
510
100
AcDbEntity
  8
DRAFT
100
AcDbLine
 62
7
  6
CONTINUOUS
 10
146.1246837064
 20
142.9048115229
 11
146.0880941079
 21
142.9743535234
  0
LINE
  5
511
100
AcDbEntity
  8
DRAFT
100
AcDbLine
 62
7
  6
CONTINUOUS
 10
147.8217399813
 20
140.6420698231
 11
147.7851503828
 21
140.7116118236
  0
LINE
  5
512
100
AcDbEntity
  8
DRAFT
100
AcDbLine
 62
7
  6
CONTINUOUS
 10
148.1045826938
 20
140.7834911793
 11
148.0679930952
 21
140.8530331799
  0
LINE
  5
513
100
AcDbEntity
  8
DRAFT
100
AcDbLine
 62
7
  6
CONTINUOUS
 10
145.6860467098
 20
141.192267427
 11
145.7201677894
 21
141.1239596859
  0
LINE
  5
514
100
AcDbEntity
  8
DRAFT
100
AcDbLine
 62
7
  6
CONTINUOUS
 10
145.9688894223
 20
141.3336887832
 11
146.0030105019
 21
141.2653810421
  0
LINE
  5
515
100
AcDbEntity
  8
DRAFT
100
AcDbLine
 62
7
  6
CONTINUOUS
 10
149.0801592595
 20
139.7780538646
 11
149.1142803391
 21
139.7097461235
  0
LWPOLYLINE
  5
516
100
AcDbEntity
  8
RACCORDO
100
AcDbPolyline
 62
253
  6
CONTINUOUS
 90
10
 70
0
 10
146.4992195082
 20
85.1607618273
 10
146.5163948829
 20
85.1831847493
 10
146.5321426894
 20
85.2072424051
 10
146.5462499656
 20
85.2326094563
 10
146.5585259348
 20
85.258942857
 10
146.5688045855
 20
85.2858864932
 10
146.5769469166
 20
85.3130759984
 10
146.5828428171
 20
85.3401436812
 10
146.586412555
 20
85.3667234976
 10
146.5876078558
 20
85.3924560012
  0
LWPOLYLINE
  5
517
100
AcDbEntity
  8
RACCORDO
100
AcDbPolyline
 62
253
  6
CONTINUOUS
 90
13
 70
0
 10
146.7643845511
 20
84.9290676535
 10
146.7907629836
 20
84.9629775045
 10
146.8152133191
 20
84.9981927603
 10
146.8377355576
 20
85.034713421
 10
146.8584538756
 20
85.072811187
 10
146.8772440967
 20
85.1122143579
 10
146.893733691
 20
85.1521078321
 10
146.9078892892
 20
85.1925043108
 10
146.9197442607
 20
85.2333910928
 10
146.9290261843
 20
85.2739149734
 10
146.9356442529
 20
85.3137915508
 10
146.9396892736
 20
85.3533052267
 10
146.9411612464
 20
85.3924560012
  0
LINE
  5
518
100
AcDbEntity
  8
RACCORDO
100
AcDbLine
 62
7
  6
CONTINUOUS
 10
144.5212558476
 20
85.2085303935
 11
145.0515859335
 21
85.8486954365
  0
LINE
  5
519
100
AcDbEntity
  8
RACCORDO
100
AcDbLine
 62
253
  6
CONTINUOUS
 10
144.625386538
 20
85.1923482265
 11
145.1557166239
 21
85.8325132695
  0
LINE
  5
51A
100
AcDbEntity
  8
RACCORDO
100
AcDbLine
 62
253
  6
CONTINUOUS
 10
146.4992195082
 20
85.1607618273
 11
145.9688894223
 21
84.5205967844
  0
LINE
  5
51B
100
AcDbEntity
  8
RACCORDO
100
AcDbLine
 62
253
  6
CONTINUOUS
 10
146.7643845511
 20
84.9290676535
 11
146.2340544652
 21
84.2889026106
  0
LWPOLYLINE
  5
51C
100
AcDbEntity
  8
RACCORDO
100
AcDbPolyline
 62
253
  6
CONTINUOUS
 90
8
 70
0
 10
144.5212533875
 20
85.2085274234
 10
144.5261947625
 20
85.2128249084
 10
144.5359453384
 20
85.2165237367
 10
144.5487490053
 20
85.2173470923
 10
144.5643852572
 20
85.2152810047
 10
144.5825850743
 20
85.2103613845
 10
144.603035928
 20
85.2026730242
 10
144.625386538
 20
85.1923482265
  0
LWPOLYLINE
  5
51D
100
AcDbEntity
  8
RACCORDO
100
AcDbPolyline
 62
253
  6
CONTINUOUS
 90
8
 70
0
 10
145.0515859335
 20
85.8486954365
 10
145.0566049716
 20
85.8530399648
 10
145.0663669471
 20
85.856707016
 10
145.0791700694
 20
85.8575081031
 10
145.0947952737
 20
85.8554295192
 10
145.1129752083
 20
85.8505068296
 10
145.1333988096
 20
85.8428242627
 10
145.1557166239
 20
85.8325132695
  0
LINE
  5
51E
100
AcDbEntity
  8
DRAFT
100
AcDbLine
 62
7
  6
CONTINUOUS
 10
148.8857048947
 20
89.862101201
 11
153.8180924324
 21
92.4159196083
  0
LINE
  5
51F
100
AcDbEntity
  8
RACCORDO
100
AcDbLine
 62
7
  6
CONTINUOUS
 10
148.8857048947
 20
89.2475913469
 11
152.6632868885
 21
91.1509473247
  0
LINE
  5
520
100
AcDbEntity
  8
RACCORDO
100
AcDbLine
 62
7
  6
CONTINUOUS
 10
148.8857048947
 20
89.3852410291
 11
153.7746242001
 21
91.8101810463
  0
LWPOLYLINE
  5
521
100
AcDbEntity
  8
RACCORDO
100
AcDbPolyline
 62
253
  6
CONTINUOUS
 90
11
 70
0
 10
139.1712628054
 20
83.2158577612
 10
139.1880463243
 20
83.2219647076
 10
139.2377938568
 20
83.2462352312
 10
139.2840299772
 20
83.2784809886
 10
139.3262483142
 20
83.3183487609
 10
139.3639865227
 20
83.3654018621
 10
139.3968313347
 20
83.4191249253
 10
139.4244230712
 20
83.4789295288
 10
139.4464595938
 20
83.544160658
 10
139.4626996095
 20
83.6141038844
 10
139.4729653079
 20
83.68799318
  0
LINE
  5
522
100
AcDbEntity
  8
RACCORDO
100
AcDbLine
 62
253
  6
CONTINUOUS
 10
143.5719007669
 20
85.0608869793
 11
139.4729653079
 21
83.68799318
  0
LINE
  5
523
100
AcDbEntity
  8
RACCORDO
100
AcDbLine
 62
7
  6
CONTINUOUS
 10
139.1706505328
 20
83.2156533215
 11
143.2740634633
 21
84.5900461667
  0
LWPOLYLINE
  5
524
100
AcDbEntity
  8
RACCORDO
100
AcDbPolyline
 62
7
  6
CONTINUOUS
 90
7
 70
0
 10
146.9540373486
 20
85.7642697706
 10
146.9810175564
 20
85.7728800536
 10
147.0096854239
 20
85.7826681856
 10
147.0394534899
 20
85.7937071849
 10
147.0697974793
 20
85.8060244038
 10
147.1004768326
 20
85.8196920691
 10
147.1327240578
 20
85.835442192
  0
LWPOLYLINE
  5
525
100
AcDbEntity
  8
RACCORDO
100
AcDbPolyline
 62
253
  6
CONTINUOUS
 90
17
 70
0
 10
147.0864974294
 20
86.0414225882
 10
147.114307323
 20
86.0501064539
 10
147.1271138611
 20
86.0540379498
 10
147.1391969377
 20
86.057679831
 10
147.1506672976
 20
86.0611962471
 10
147.1615150193
 20
86.064609311
 10
147.1717500244
 20
86.0678969099
 10
147.181512823
 20
86.071156855
 10
147.190812144
 20
86.074407894
 10
147.1996392585
 20
86.0776312791
 10
147.2081084889
 20
86.0808685785
 10
147.2162267729
 20
86.0841281255
 10
147.2239871729
 20
86.0874015867
 10
147.2314831985
 20
86.0907055309
 10
147.2387460196
 20
86.0940454808
 10
147.2457444663
 20
86.0974159136
 10
147.2524785387
 20
86.1008168293
  0
LWPOLYLINE
  5
526
100
AcDbEntity
  8
0
100
AcDbPolyline
 62
7
  6
CONTINUOUS
 90
102
 70
0
 10
149.0208859935
 20
136.8728205962
 10
149.0367636026
 20
136.8597415013
 10
149.0800120366
 20
136.8228752775
 10
149.1229412792
 20
136.7850332503
 10
149.1654954858
 20
136.7462678894
 10
149.2076381146
 20
136.7066182357
 10
149.2493734565
 20
136.6660859074
 10
149.2907071196
 20
136.6246690931
 10
149.3316331056
 20
136.5823758232
 10
149.372124193
 20
136.5392361395
 10
149.4121538028
 20
136.495281177
 10
149.4517026691
 20
136.4505354922
 10
149.4907586013
 20
136.4050161904
 10
149.5293060064
 20
136.3587444998
 10
149.5673265774
 20
136.3117455287
 10
149.6048082151
 20
136.2640372838
 10
149.6417443926
 20
136.2156303971
 10
149.6781256364
 20
136.1665387009
 10
149.7139311367
 20
136.1167915934
 10
149.7491375763
 20
136.0664235662
 10
149.7837247737
 20
136.0154664323
 10
149.8176851002
 20
135.9639343002
 10
149.8510142207
 20
135.911835495
 10
149.883702521
 20
135.8591857324
 10
149.915731729
 20
135.8060150197
 10
149.9470845198
 20
135.7523532052
 10
149.9777460422
 20
135.6982271435
 10
150.0077054293
 20
135.6436573579
 10
150.0369518033
 20
135.5886646
 10
150.0654726418
 20
135.5332731076
 10
150.0932559852
 20
135.4775066816
 10
150.1202919052
 20
135.4213854842
 10
150.146568948
 20
135.3649331524
 10
150.1720753512
 20
135.308174666
 10
150.1968008898
 20
135.2511322396
 10
150.2207356037
 20
135.1938278767
 10
150.2438676644
 20
135.1362887251
 10
150.2661846248
 20
135.0785448185
 10
150.2876740878
 20
135.0206278218
 10
150.3083291209
 20
134.9625558057
 10
150.3281455184
 20
134.9043383286
 10
150.3471169672
 20
134.8459896245
 10
150.3652303854
 20
134.7875451963
 10
150.3824719657
 20
134.729046386
 10
150.3988306434
 20
134.6705292324
 10
150.4143020026
 20
134.6120076829
 10
150.428882687
 20
134.5534897843
 10
150.4425664519
 20
134.4949931298
 10
150.4553437894
 20
134.4365500572
 10
150.4672064182
 20
134.3781904671
 10
150.4781478844
 20
134.3199374634
 10
150.4881613423
 20
134.2618176616
 10
150.4972391513
 20
134.2038657489
 10
150.5053742989
 20
134.1461186177
 10
150.5125637543
 20
134.0885883563
 10
150.5188054865
 20
134.0312722027
 10
150.524095996
 20
133.9741672285
 10
150.528426473
 20
133.917325959
 10
150.5317888569
 20
133.8608277391
 10
150.5341798537
 20
133.8047297138
 10
150.5355999348
 20
133.7490209192
 10
150.53604751
 20
133.6936778189
 10
150.5355182707
 20
133.6386938703
 10
150.5340082216
 20
133.5841237747
 10
150.5315165851
 20
133.5300350752
 10
150.5280438186
 20
133.4764635219
 10
150.5235891431
 20
133.4234175436
 10
150.5181528376
 20
133.3709216309
 10
150.5117353256
 20
133.3189976652
 10
150.5043372184
 20
133.2676667586
 10
150.4959596144
 20
133.2169513154
 10
150.4865989879
 20
133.1668484017
 10
150.4762605853
 20
133.1174033725
 10
150.4649632831
 20
133.0687073529
 10
150.4527228181
 20
133.02081341
 10
150.4395374923
 20
132.9737018355
 10
150.425402242
 20
132.9273525838
 10
150.4103080208
 20
132.8817443943
 10
150.3942716846
 20
132.8369365124
 10
150.3773302367
 20
132.7930266397
 10
150.3595069584
 20
132.7500578338
 10
150.3408012361
 20
132.7080125322
 10
150.3212190686
 20
132.666893323
 10
150.3007665863
 20
132.6267048737
 10
150.2794589894
 20
132.5874694074
 10
150.2573168382
 20
132.5492152646
 10
150.2343465212
 20
132.5119440036
 10
150.2105672244
 20
132.4756777456
 10
150.18602372
 20
132.4404710841
 10
150.1607566716
 20
132.4063622463
 10
150.1347616157
 20
132.3733258148
 10
150.1080160908
 20
132.3413216545
 10
150.0805166619
 20
132.3103405913
 10
150.052296058
 20
132.2804145374
 10
150.0233848089
 20
132.2515678405
 10
149.9938099031
 20
132.2238173981
 10
149.963580607
 20
132.1971620334
 10
149.9327022502
 20
132.1715985517
 10
149.9011934663
 20
132.1471355571
 10
149.869072695
 20
132.1237805587
 10
149.8363442813
 20
132.1015309812
 10
149.8099233814
 20
132.0847699261
  0
LWPOLYLINE
  5
527
100
AcDbEntity
  8
0
100
AcDbPolyline
 62
253
  6
CONTINUOUS
 90
102
 70
0
 10
148.9831707403
 20
136.826150467
 10
148.9945709665
 20
136.8164086282
 10
149.0366583283
 20
136.7792557318
 10
149.0784583682
 20
136.7411609205
 10
149.1199524215
 20
136.7021412047
 10
149.1611219599
 20
136.6622140077
 10
149.2019486002
 20
136.621397158
 10
149.2424141123
 20
136.5797088815
 10
149.2825004271
 20
136.5371677931
 10
149.3221896451
 20
136.4937928884
 10
149.3614640441
 20
136.4496035355
 10
149.4003060869
 20
136.4046194662
 10
149.4386984296
 20
136.358860767
 10
149.476623929
 20
136.3123478703
 10
149.5140656503
 20
136.2651015454
 10
149.5510068749
 20
136.217142889
 10
149.5874311075
 20
136.1684933159
 10
149.6233220837
 20
136.1191745494
 10
149.6586637773
 20
136.0692086117
 10
149.6934404073
 20
136.0186178139
 10
149.727636445
 20
135.967424746
 10
149.7612366209
 20
135.9156522672
 10
149.7942259317
 20
135.8633234952
 10
149.8265896468
 20
135.8104617961
 10
149.858313315
 20
135.7570907742
 10
149.8893827708
 20
135.703234261
 10
149.9197841408
 20
135.6489163048
 10
149.9495038501
 20
135.59416116
 10
149.978528628
 20
135.5389932763
 10
150.0068455143
 20
135.4834372875
 10
150.0344418646
 20
135.4275180009
 10
150.0613053565
 20
135.3712603859
 10
150.0874239947
 20
135.314689563
 10
150.1127861165
 20
135.2578307925
 10
150.1373803972
 20
135.2007094635
 10
150.1611958546
 20
135.143351082
 10
150.1842218547
 20
135.0857812601
 10
150.2064481156
 20
135.0280257043
 10
150.2278647127
 20
134.9701102039
 10
150.248462083
 20
134.9120606197
 10
150.2682310293
 20
134.8539028723
 10
150.2871627241
 20
134.7956629309
 10
150.305248714
 20
134.7373668009
 10
150.322480923
 20
134.6790405132
 10
150.3388516567
 20
134.620710112
 10
150.3543536049
 20
134.5624016433
 10
150.3689798456
 20
134.5041411434
 10
150.382723848
 20
134.4459546272
 10
150.3955794748
 20
134.3878680764
 10
150.4075409858
 20
134.3299074283
 10
150.4186030397
 20
134.2720985638
 10
150.4287606972
 20
134.214467296
 10
150.4380094225
 20
134.1570393589
 10
150.4463450858
 20
134.0998403955
 10
150.4537639651
 20
134.0428959467
 10
150.4602627476
 20
133.9862314396
 10
150.4658385315
 20
133.9298721766
 10
150.470488827
 20
133.8738433234
 10
150.4742115576
 20
133.8181698983
 10
150.477005061
 20
133.7628767612
 10
150.4788680899
 20
133.7079886017
 10
150.4797998124
 20
133.6535299289
 10
150.4797998124
 20
133.5995250601
 10
150.4788680899
 20
133.5459981099
 10
150.477005061
 20
133.4929729793
 10
150.4742115575
 20
133.4404733456
 10
150.4704888269
 20
133.3885226511
 10
150.4658385315
 20
133.3371440934
 10
150.4602627476
 20
133.2863606142
 10
150.4537639651
 20
133.2361948897
 10
150.4463450858
 20
133.1866693201
 10
150.4380094225
 20
133.1378060201
 10
150.4287606972
 20
133.0896268083
 10
150.4186030397
 20
133.042153198
 10
150.4075409857
 20
132.9954063874
 10
150.3955794748
 20
132.9494072503
 10
150.3827238479
 20
132.9041763263
 10
150.3689798456
 20
132.8597338124
 10
150.3543536048
 20
132.8160995533
 10
150.3388516566
 20
132.7732930329
 10
150.322480923
 20
132.7313333653
 10
150.305248714
 20
132.6902392866
 10
150.2871627241
 20
132.6500291465
 10
150.2682310293
 20
132.6107208998
 10
150.248462083
 20
132.5723320987
 10
150.2278647127
 20
132.5348798849
 10
150.2064481155
 20
132.4983809816
 10
150.1842218546
 20
132.4628516867
 10
150.1611958546
 20
132.4283078649
 10
150.1373803971
 20
132.3947649409
 10
150.1127861165
 20
132.3622378925
 10
150.0874239946
 20
132.3307412439
 10
150.0613053564
 20
132.3002890592
 10
150.0344418645
 20
132.270894936
 10
150.0068455142
 20
132.2425719997
 10
149.978528628
 20
132.2153328972
 10
149.9495038501
 20
132.1891897914
 10
149.9197841408
 20
132.1641543559
 10
149.8893827707
 20
132.1402377698
 10
149.8583133149
 20
132.1174507123
 10
149.8265896468
 20
132.0958033586
 10
149.8099233814
 20
132.0852475606
  0
LWPOLYLINE
  5
528
100
AcDbEntity
  8
0
100
AcDbPolyline
 62
253
  6
CONTINUOUS
 90
32
 70
0
 10
148.7464014099
 20
139.9869548636
 10
148.7428270924
 20
139.992812402
 10
148.7380097873
 20
139.999862748
 10
148.7328924528
 20
140.0064750387
 10
148.7274896112
 20
140.0126423911
 10
148.7218105165
 20
140.0183675942
 10
148.7158636115
 20
140.0236556275
 10
148.7096629496
 20
140.0285034051
 10
148.7032192324
 20
140.0329141342
 10
148.6965413476
 20
140.036893782
 10
148.6896410687
 20
140.0404437364
 10
148.6825310794
 20
140.0435675014
 10
148.675219377
 20
140.0462716878
 10
148.6677098421
 20
140.0485618774
 10
148.660013308
 20
140.0504426129
 10
148.652138272
 20
140.051918885
 10
148.6440827908
 20
140.0529955533
 10
148.6358501143
 20
140.0536769275
 10
148.6274536322
 20
140.0539667287
 10
148.618905648
 20
140.0538683734
 10
148.6102120675
 20
140.0533848191
 10
148.6013850847
 20
140.0525222407
 10
148.5924483204
 20
140.051290158
 10
148.5834139399
 20
140.0496924947
 10
148.574291231
 20
140.0477368817
 10
148.5651021324
 20
140.0454402119
 10
148.5558605228
 20
140.0428077618
 10
148.5465759562
 20
140.0398474566
 10
148.5372657661
 20
140.0365815284
 10
148.5279440847
 20
140.0330222985
 10
148.518620869
 20
140.0291715065
 10
148.5093076865
 20
140.0250359616
  0
LWPOLYLINE
  5
529
100
AcDbEntity
  8
0
100
AcDbPolyline
 62
7
  6
CONTINUOUS
 90
42
 70
0
 10
148.7464283394
 20
139.9869086892
 10
148.7435522356
 20
139.9917950197
 10
148.7361010834
 20
140.0038053696
 10
148.7283424362
 20
140.0154147269
 10
148.7202846973
 20
140.0266158147
 10
148.7119445838
 20
140.0373932295
 10
148.7033336292
 20
140.0477413257
 10
148.6944644414
 20
140.057653269
 10
148.6853597485
 20
140.0671140958
 10
148.6760351369
 20
140.0761202166
 10
148.6665085295
 20
140.08466692
 10
148.6568104202
 20
140.0927406646
 10
148.6469750879
 20
140.1003301498
 10
148.637010816
 20
140.1074471045
 10
148.6269089507
 20
140.1141122661
 10
148.6167038135
 20
140.1203164479
 10
148.6064022131
 20
140.1260697435
 10
148.5959463629
 20
140.1314127997
 10
148.585332344
 20
140.1363497288
 10
148.5745957475
 20
140.1408664126
 10
148.5637311094
 20
140.1449680524
 10
148.5527535287
 20
140.1486509788
 10
148.541679769
 20
140.1519121764
 10
148.5305046903
 20
140.1547550477
 10
148.519246299
 20
140.1571761058
 10
148.5079191409
 20
140.1591737002
 10
148.4965096549
 20
140.1607503104
 10
148.4850334981
 20
140.1619029623
 10
148.4735069379
 20
140.1626298243
 10
148.4619141505
 20
140.1629301013
 10
148.45026881
 20
140.1627999402
 10
148.4385870659
 20
140.1622366364
 10
148.4268545256
 20
140.161236172
 10
148.4150859792
 20
140.1597947877
 10
148.4032972235
 20
140.1579092034
 10
148.3914725632
 20
140.1555704718
 10
148.3796277089
 20
140.1527751528
 10
148.3677785134
 20
140.1495203229
 10
148.3559075698
 20
140.1457921124
 10
148.3440194257
 20
140.14158146
 10
148.3321430766
 20
140.136889847
 10
148.3275394677
 20
140.1349384953
  0
LINE
  5
52A
100
AcDbEntity
  8
0
100
AcDbLine
 62
7
  6
CONTINUOUS
 10
148.7464249727
 20
139.9869142341
 11
148.7464014099
 21
139.9869548636
  0
LINE
  5
52B
100
AcDbEntity
  8
0
100
AcDbLine
 62
253
  6
CONTINUOUS
 10
148.5093077172
 20
140.0250359087
 11
148.9087143578
 21
139.3361610731
  0
LINE
  5
52C
100
AcDbEntity
  8
0
100
AcDbLine
 62
7
  6
CONTINUOUS
 10
148.7464983668
 20
139.9867876483
 11
149.1401974782
 21
139.3077571251
  0
LWPOLYLINE
  5
52D
100
AcDbEntity
  8
0
100
AcDbPolyline
 62
253
  6
CONTINUOUS
 90
19
 70
0
 10
148.9087205839
 20
139.3361642407
 10
148.9130282586
 20
139.3285941772
 10
148.917132773
 20
139.3208982774
 10
148.9210263166
 20
139.3130911862
 10
148.9247014802
 20
139.3051877601
 10
148.9281512702
 20
139.297203039
 10
148.931369122
 20
139.2891522172
 10
148.9343489121
 20
139.2810506152
 10
148.9370849704
 20
139.2729136497
 10
148.9395720903
 20
139.264756805
 10
148.941805539
 20
139.2565956031
 10
148.9437810665
 20
139.2484455742
 10
148.9454949136
 20
139.2403222273
 10
148.9469438188
 20
139.2322410207
 10
148.9481250252
 20
139.2242173324
 10
148.949036285
 20
139.2162664309
 10
148.9496758641
 20
139.2084034463
 10
148.9500425455
 20
139.2006433414
 10
148.9501356315
 20
139.1930008832
  0
LWPOLYLINE
  5
52E
100
AcDbEntity
  8
0
100
AcDbPolyline
 62
253
  6
CONTINUOUS
 90
36
 70
0
 10
148.5093140344
 20
140.0250386385
 10
148.5053418951
 20
140.0322154416
 10
148.5012016079
 20
140.0392541584
 10
148.4969002421
 20
140.046142771
 10
148.492445142
 20
140.0528695175
 10
148.4878439142
 20
140.0594229127
 10
148.483104415
 20
140.0657917671
 10
148.4782347366
 20
140.0719652065
 10
148.4732431936
 20
140.0779326902
 10
148.4681383088
 20
140.0836840293
 10
148.4629287982
 20
140.0892094037
 10
148.4576235567
 20
140.0944993794
 10
148.4522316425
 20
140.0995449242
 10
148.4467622619
 20
140.1043374232
 10
148.4412247533
 20
140.1088686936
 10
148.4356285717
 20
140.1131309986
 10
148.4299832721
 20
140.1171170608
 10
148.4242984933
 20
140.1208200743
 10
148.4185839416
 20
140.1242337164
 10
148.4128493742
 20
140.1273521586
 10
148.4071045823
 20
140.1301700765
 10
148.4013593747
 20
140.1326826587
 10
148.3956235609
 20
140.1348856151
 10
148.3899069344
 20
140.1367751845
 10
148.3842192557
 20
140.1383481405
 10
148.3785702361
 20
140.1396017974
 10
148.3729695209
 20
140.1405340148
 10
148.3674266727
 20
140.1411432008
 10
148.3619511557
 20
140.1414283155
 10
148.3565523187
 20
140.1413888719
 10
148.3512393799
 20
140.1410249375
 10
148.3460214106
 20
140.1403371336
 10
148.3409073201
 20
140.1393266346
 10
148.3359058402
 20
140.1379951658
 10
148.3310255107
 20
140.1363450006
 10
148.3275393904
 20
140.1349386742
  0
LINE
  5
52F
100
AcDbEntity
  8
DRAFT
100
AcDbLine
 62
7
  6
CONTINUOUS
 10
148.3874254062
 20
140.9249125355
 11
148.3508358077
 21
140.9944545361
  0
LINE
  5
530
100
AcDbEntity
  8
DRAFT
100
AcDbLine
 62
7
  6
CONTINUOUS
 10
148.6702681187
 20
141.0663338918
 11
148.6336785202
 21
141.1358758924
  0
LINE
  5
531
100
AcDbEntity
  8
DRAFT
100
AcDbLine
 62
7
  6
CONTINUOUS
 10
148.9531108312
 20
141.207755248
 11
148.9165212327
 21
141.2772972486
  0
LINE
  5
532
100
AcDbEntity
  8
DRAFT
100
AcDbLine
 62
7
  6
CONTINUOUS
 10
149.2359535437
 20
141.3491766042
 11
149.1993639451
 21
141.4187186048
  0
LINE
  5
533
100
AcDbEntity
  8
RACCORDO
100
AcDbLine
 62
253
  6
CONTINUOUS
 10
148.0728525111
 20
86.5303579268
 11
148.1074871711
 21
86.5538703879
  0
LWPOLYLINE
  5
534
100
AcDbEntity
  8
RACCORDO
100
AcDbPolyline
 62
253
  6
CONTINUOUS
 90
9
 70
0
 10
148.1074871711
 20
86.5538703879
 10
148.1336882535
 20
86.5714525155
 10
148.1477826389
 20
86.5806548047
 10
148.1625403158
 20
86.5901009276
 10
148.1779773477
 20
86.5997765006
 10
148.1941923007
 20
86.6095042716
 10
148.2112180302
 20
86.6192251569
 10
148.2290216808
 20
86.6289982403
 10
148.2476032525
 20
86.6388235218
  0
LINE
  5
535
100
AcDbEntity
  8
DRAFT
100
AcDbLine
 62
7
  6
CONTINUOUS
 10
147.1949988612
 20
86.1936241478
 11
146.7273567668
 21
85.8987083304
  0
LWPOLYLINE
  5
536
100
AcDbEntity
  8
RACCORDO
100
AcDbPolyline
 62
253
  6
CONTINUOUS
 90
6
 70
0
 10
147.6482680276
 20
85.7460093918
 10
147.6698296674
 20
85.7583025608
 10
147.6879976832
 20
85.7718977394
 10
147.7024612154
 20
85.7865623104
 10
147.7129727889
 20
85.8020453588
 10
147.7193525476
 20
85.8180819654
  0
LWPOLYLINE
  5
537
100
AcDbEntity
  8
RACCORDO
100
AcDbPolyline
 62
7
  6
CONTINUOUS
 90
11
 70
0
 10
147.8581725969
 20
86.206314219
 10
147.8924505764
 20
86.2248852048
 10
147.9248477521
 20
86.2438314975
 10
147.9560782316
 20
86.2632910998
 10
147.98621332
 20
86.2829817188
 10
148.0147354307
 20
86.3021887028
 10
148.0414905142
 20
86.3203603789
 10
148.0667282376
 20
86.3372118008
 10
148.0898638605
 20
86.3519937946
 10
148.1094369048
 20
86.3636325711
 10
148.1251976055
 20
86.3721056922
  0
LWPOLYLINE
  5
538
100
AcDbEntity
  8
RACCORDO
100
AcDbPolyline
 62
7
  6
CONTINUOUS
 90
7
 70
0
 10
148.2902170102
 20
84.8629383626
 10
148.3016097426
 20
84.8689950356
 10
148.3286953835
 20
84.8867101474
 10
148.3533263166
 20
84.9078354565
 10
148.3750778164
 20
84.9320547323
 10
148.3935856922
 20
84.9590427184
 10
148.4084898702
 20
84.9884038632
  0
LINE
  5
539
100
AcDbEntity
  8
RACCORDO
100
AcDbLine
 62
253
  6
CONTINUOUS
 10
147.6482680276
 20
86.0698318195
 11
146.9411612464
 21
85.7011618993
  0
LWPOLYLINE
  5
53A
100
AcDbEntity
  8
RACCORDO
100
AcDbPolyline
 62
253
  6
CONTINUOUS
 90
12
 70
0
 10
147.9717028599
 20
86.4684816916
 10
147.978573283
 20
86.4720346122
 10
147.9856826463
 20
86.4758485901
 10
147.9930309499
 20
86.4799236252
 10
148.0005917444
 20
86.4842401088
 10
148.0083914791
 20
86.4888176496
 10
148.016509502
 20
86.4937150738
 10
148.0249429245
 20
86.4989363196
 10
148.0336946353
 20
86.5044774487
 10
148.0428526479
 20
86.5103854728
 10
148.0524100752
 20
86.5166672494
 10
148.0728525111
 20
86.5303579268
  0
LINE
  5
53B
100
AcDbEntity
  8
RACCORDO
100
AcDbLine
 62
253
  6
CONTINUOUS
 10
147.2524785387
 20
86.1008168293
 11
147.8119015317
 21
86.3868304596
  0
LINE
  5
53C
100
AcDbEntity
  8
RACCORDO
100
AcDbLine
 62
7
  6
CONTINUOUS
 10
147.1327232703
 20
85.8354438333
 11
147.8581725969
 21
86.206314219
  0
LINE
  5
53D
100
AcDbEntity
  8
RACCORDO
100
AcDbLine
 62
253
  6
CONTINUOUS
 10
147.8119015317
 20
86.3868304596
 11
147.9717028599
 21
86.4684816916
  0
LINE
  5
53E
100
AcDbEntity
  8
RACCORDO
100
AcDbLine
 62
253
  6
CONTINUOUS
 10
146.7273567668
 20
85.8728386925
 11
146.9631029067
 21
85.9916168093
  0
LINE
  5
53F
100
AcDbEntity
  8
RACCORDO
100
AcDbLine
 62
253
  6
CONTINUOUS
 10
148.2476032525
 20
86.6388235218
 11
148.8857048947
 21
86.9603345611
  0
LINE
  5
540
100
AcDbEntity
  8
RACCORDO
100
AcDbLine
 62
7
  6
CONTINUOUS
 10
146.5978609211
 20
85.6025484024
 11
146.840789538
 21
85.7249493552
  0
LINE
  5
541
100
AcDbEntity
  8
RACCORDO
100
AcDbLine
 62
7
  6
CONTINUOUS
 10
148.1252567758
 20
86.3721354121
 11
148.756209049
 21
86.690044271
  0
LINE
  5
542
100
AcDbEntity
  8
RACCORDO
100
AcDbLine
 62
253
  6
CONTINUOUS
 10
146.2340544652
 20
83.9375886385
 11
148.3553748088
 21
84.9982488103
  0
LINE
  5
543
100
AcDbEntity
  8
RACCORDO
100
AcDbLine
 62
7
  6
CONTINUOUS
 10
146.1690811688
 20
83.8023701884
 11
148.2904015124
 21
84.8630303602
  0
LWPOLYLINE
  5
544
100
AcDbEntity
  8
RACCORDO
100
AcDbPolyline
 62
253
  6
CONTINUOUS
 90
5
 70
0
 10
146.9411612464
 20
85.7011618993
 10
146.9214458682
 20
85.6915656103
 10
146.9000419714
 20
85.6831137861
 10
146.8772058017
 20
85.675881049
 10
146.8532138238
 20
85.6699226107
  0
LWPOLYLINE
  5
545
100
AcDbEntity
  8
RACCORDO
100
AcDbPolyline
 62
7
  6
CONTINUOUS
 90
7
 70
0
 10
146.8404511758
 20
85.7247712496
 10
146.8477450971
 20
85.7283168159
 10
146.8596487594
 20
85.7335219617
 10
146.8724588118
 20
85.7384606303
 10
146.887838517
 20
85.743781687
 10
146.9068311699
 20
85.7498361054
 10
146.9540373486
 20
85.7642697706
  0
LWPOLYLINE
  5
546
100
AcDbEntity
  8
RACCORDO
100
AcDbPolyline
 62
253
  6
CONTINUOUS
 90
8
 70
0
 10
146.9631029067
 20
85.9916168093
 10
146.983460951
 20
86.0012872819
 10
147.0028979968
 20
86.0100757868
 10
147.0214140439
 20
86.0179823239
 10
147.0389669456
 20
86.0248881437
 10
147.0555988487
 20
86.0309119958
 10
147.0714361939
 20
86.0364101281
 10
147.0864974294
 20
86.0414225882
  0
LWPOLYLINE
  5
547
100
AcDbEntity
  8
RACCORDO
100
AcDbPolyline
 62
253
  6
CONTINUOUS
 90
13
 70
0
 10
146.2340544652
 20
83.9375886385
 10
146.2100481527
 20
83.9270310285
 10
146.183346387
 20
83.918034057
 10
146.1543431439
 20
83.9107833305
 10
146.1234134368
 20
83.9054302384
 10
146.0911241009
 20
83.9021278583
 10
146.0582469755
 20
83.9009779255
 10
146.0254252441
 20
83.9019957208
 10
145.9931550735
 20
83.9051586516
 10
145.9620053494
 20
83.9104097266
 10
145.9325164539
 20
83.9176549962
 10
145.9051920112
 20
83.9267677099
 10
145.8805010746
 20
83.9375886385
  0
LWPOLYLINE
  5
548
100
AcDbEntity
  8
RACCORDO
100
AcDbPolyline
 62
253
  6
CONTINUOUS
 90
13
 70
0
 10
146.2340544652
 20
84.2889026106
 10
146.2096552468
 20
84.2781936518
 10
146.1826230845
 20
84.2691376502
 10
146.1534001503
 20
84.2618997887
 10
146.1224475939
 20
84.2566127766
 10
146.0903071355
 20
84.2533866998
 10
146.0575988811
 20
84.2522910613
 10
146.0249089653
 20
84.253343126
 10
145.9927749016
 20
84.2565232266
 10
145.961749546
 20
84.2617765019
 10
145.9323657126
 20
84.2690124078
 10
145.9051271469
 20
84.2781065493
 10
145.8805010746
 20
84.2889026106
  0
LWPOLYLINE
  5
549
100
AcDbEntity
  8
RACCORDO
100
AcDbPolyline
 62
253
  6
CONTINUOUS
 90
13
 70
0
 10
146.9411612464
 20
85.3924560012
 10
146.9165749084
 20
85.3816751813
 10
146.8893845511
 20
85.3725911733
 10
146.8600554092
 20
85.3653594073
 10
146.8290893124
 20
85.3601036205
 10
146.7970160992
 20
85.3569137411
 10
146.7643845511
 20
85.3558443488
 10
146.7317530031
 20
85.3569137411
 10
146.6996797898
 20
85.3601036205
 10
146.668713693
 20
85.3653594073
 10
146.6393845511
 20
85.3725911733
 10
146.6121941939
 20
85.3816751813
 10
146.5876078558
 20
85.3924560012
  0
LWPOLYLINE
  5
54A
100
AcDbEntity
  8
RACCORDO
100
AcDbPolyline
 62
7
  6
CONTINUOUS
 90
9
 70
0
 10
146.1690811688
 20
83.8023701884
 10
146.1407945736
 20
83.7903406232
 10
146.1108073725
 20
83.7817756544
 10
146.0796327897
 20
83.776978486
 10
146.0477281458
 20
83.7761595033
 10
146.0158432575
 20
83.779434543
 10
145.9848357268
 20
83.7867027703
 10
145.9548756762
 20
83.7979117552
 10
145.9453127409
 20
83.8024511984
  0
LWPOLYLINE
  5
54B
100
AcDbEntity
  8
0
100
AcDbPolyline
 62
253
  6
CONTINUOUS
 90
19
 70
0
 10
141.2547956377
 20
143.7363853215
 10
141.2483772893
 20
143.7393455353
 10
141.2420275808
 20
143.7418134343
 10
141.2355118558
 20
143.7439069128
 10
141.2288390257
 20
143.7456231078
 10
141.2220182168
 20
143.7469596718
 10
141.2150587579
 20
143.747914777
 10
141.2079701673
 20
143.7484871171
 10
141.20076214
 20
143.7486759091
 10
141.1934445344
 20
143.7484808951
 10
141.1860273586
 20
143.7479023416
 10
141.178520757
 20
143.74694104
 10
141.1709349963
 20
143.745598305
 10
141.1632804514
 20
143.743875973
 10
141.1555675914
 20
143.7417763997
 10
141.147806965
 20
143.7393024566
 10
141.1400091863
 20
143.7364575274
 10
141.1321849202
 20
143.7332455029
 10
141.124344868
 20
143.7296707762
  0
LWPOLYLINE
  5
54C
100
AcDbEntity
  8
0
100
AcDbPolyline
 62
253
  6
CONTINUOUS
 90
23
 70
0
 10
142.8448718217
 20
143.6407688734
 10
142.8373236812
 20
143.6443294482
 10
142.8287888302
 20
143.6478672392
 10
142.8200637347
 20
143.6509824671
 10
142.8111563111
 20
143.6536723263
 10
142.8020748961
 20
143.6559342759
 10
142.7928280132
 20
143.6577661664
 10
142.7834241057
 20
143.6591663798
 10
142.773872029
 20
143.6601335692
 10
142.7641807012
 20
143.6606668015
 10
142.7543588684
 20
143.6607656796
 10
142.744415722
 20
143.6604300569
 10
142.7343605964
 20
143.6596601929
 10
142.7242026201
 20
143.6584568956
 10
142.7139512814
 20
143.6568212186
 10
142.7036162226
 20
143.6547546302
 10
142.6932069374
 20
143.6522591738
 10
142.6827332872
 20
143.6493371523
 10
142.6722049916
 20
143.6459912127
 10
142.6616314212
 20
143.6422244985
 10
142.6510223202
 20
143.6380404633
 10
142.6403877995
 20
143.6334428931
 10
142.6297378285
 20
143.6284359875
  0
LWPOLYLINE
  5
54D
100
AcDbEntity
  8
0
100
AcDbPolyline
 62
253
  6
CONTINUOUS
 90
22
 70
0
 10
142.4500449896
 20
143.8381822919
 10
142.444458903
 20
143.8408632707
 10
142.4352449931
 20
143.8448154301
 10
142.4258100489
 20
143.8482935088
 10
142.4161638314
 20
143.8512939178
 10
142.4063163506
 20
143.8538135569
 10
142.3962781664
 20
143.8558496707
 10
142.3860596951
 20
143.8574001833
 10
142.3756715151
 20
143.8584635288
 10
142.3651247102
 20
143.859038483
 10
142.3544302126
 20
143.8591245016
 10
142.3435991029
 20
143.8587215495
 10
142.3326429154
 20
143.8578299258
 10
142.3215729409
 20
143.8564506108
 10
142.3104007115
 20
143.8545851029
 10
142.2991383034
 20
143.852235257
 10
142.2877975937
 20
143.8494036609
 10
142.276390136
 20
143.8460933129
 10
142.264927638
 20
143.8423073978
 10
142.2534219353
 20
143.8380497682
 10
142.2418849873
 20
143.8333250073
 10
142.2303287504
 20
143.8281380776
  0
LWPOLYLINE
  5
54E
100
AcDbEntity
  8
0
100
AcDbPolyline
 62
7
  6
CONTINUOUS
 90
37
 70
0
 10
145.2957307347
 20
141.7159069555
 10
145.2891735358
 20
141.7190673122
 10
145.2825514545
 20
141.7221315342
 10
145.2758693496
 20
141.7250991548
 10
145.2691291985
 20
141.7279711973
 10
145.2623329487
 20
141.7307487531
 10
145.2554852539
 20
141.7334312471
 10
145.2485879372
 20
141.7360197115
 10
145.2416428526
 20
141.7385152285
 10
145.2346545697
 20
141.7409171224
 10
145.2276247867
 20
141.743226436
 10
145.2205552687
 20
141.7454442543
 10
145.213450582
 20
141.7475698245
 10
145.2063123323
 20
141.749604202
 10
145.199142191
 20
141.751548489
 10
145.1919447408
 20
141.7534018936
 10
145.1847214601
 20
141.7551655025
 10
145.1774739815
 20
141.7568404289
 10
145.170207054
 20
141.7584258459
 10
145.1629220727
 20
141.7599228722
 10
145.1556206052
 20
141.761332654
 10
145.1483076087
 20
141.762654367
 10
145.1409843935
 20
141.7638891733
 10
145.1336524749
 20
141.765038262
 10
145.1263170788
 20
141.7661008473
 10
145.1189794368
 20
141.7670781437
 10
145.111641012
 20
141.7679713965
 10
145.1043073452
 20
141.7687799009
 10
145.0969795963
 20
141.7695049322
 10
145.0896591701
 20
141.7701478054
 10
145.0823519464
 20
141.7707079457
 10
145.0750590206
 20
141.7711866972
 10
145.0677817273
 20
141.7715854568
 10
145.0605262758
 20
141.7719038335
 10
145.0532954992
 20
141.7721426914
 10
145.04608885
 20
141.7723040896
 10
145.0389074307
 20
141.7723894948
  0
LWPOLYLINE
  5
54F
100
AcDbEntity
  8
0
100
AcDbPolyline
 62
7
  6
CONTINUOUS
 90
37
 70
0
 10
142.1844608975
 20
143.2715418741
 10
142.1779036986
 20
143.2747022308
 10
142.1712816172
 20
143.2777664528
 10
142.1645995124
 20
143.2807340734
 10
142.1578593613
 20
143.2836061159
 10
142.1510631115
 20
143.2863836717
 10
142.1442154166
 20
143.2890661658
 10
142.1373181
 20
143.2916546301
 10
142.1303730154
 20
143.2941501471
 10
142.1233847325
 20
143.296552041
 10
142.1163549495
 20
143.2988613546
 10
142.1092854314
 20
143.3010791729
 10
142.1021807448
 20
143.3032047431
 10
142.0950424951
 20
143.3052391207
 10
142.0878723538
 20
143.3071834076
 10
142.0806749036
 20
143.3090368122
 10
142.0734516229
 20
143.3108004212
 10
142.0662041443
 20
143.3124753475
 10
142.0589372167
 20
143.3140607645
 10
142.0516522355
 20
143.3155577908
 10
142.0443507679
 20
143.3169675726
 10
142.0370377715
 20
143.3182892856
 10
142.0297145563
 20
143.3195240919
 10
142.0223826377
 20
143.3206731806
 10
142.0150472416
 20
143.3217357659
 10
142.0077095996
 20
143.3227130623
 10
142.0003711748
 20
143.3236063151
 10
141.993037508
 20
143.3244148195
 10
141.9857097591
 20
143.3251398508
 10
141.9783893328
 20
143.3257827241
 10
141.9710821091
 20
143.3263428643
 10
141.9637891834
 20
143.3268216158
 10
141.9565118901
 20
143.3272203754
 10
141.9492564386
 20
143.3275387521
 10
141.942025662
 20
143.32777761
 10
141.9348190128
 20
143.3279390082
 10
141.9276375934
 20
143.3280244134
  0
LWPOLYLINE
  5
550
100
AcDbEntity
  8
0
100
AcDbPolyline
 62
7
  6
CONTINUOUS
 90
27
 70
0
 10
141.2547956216
 20
143.7363852894
 10
141.247727755
 20
143.7398436747
 10
141.2336873122
 20
143.7462745588
 10
141.2195916016
 20
143.752157108
 10
141.205460773
 20
143.7574923313
 10
141.1913046774
 20
143.7622862444
 10
141.1771257634
 20
143.7665464357
 10
141.1629417116
 20
143.7702754384
 10
141.148766781
 20
143.7734776681
 10
141.1346009985
 20
143.7761601801
 10
141.1204621256
 20
143.778325977
 10
141.1063660624
 20
143.7799795343
 10
141.0923121331
 20
143.7811269698
 10
141.0783187547
 20
143.7817720677
 10
141.0644020291
 20
143.7819198966
 10
141.0505594347
 20
143.7815755567
 10
141.0368094431
 20
143.7807437611
 10
141.0231683225
 20
143.7794300454
 10
141.0096314716
 20
143.7776378801
 10
140.9962164501
 20
143.7753726531
 10
140.9829401605
 20
143.7726405154
 10
140.9697982126
 20
143.7694430043
 10
140.9568082793
 20
143.7657862881
 10
140.9439867908
 20
143.7616771814
 10
140.9313287348
 20
143.7571151946
 10
140.9188441902
 20
143.7521036499
 10
140.9074979986
 20
143.7470886091
  0
LWPOLYLINE
  5
551
100
AcDbEntity
  8
0
100
AcDbPolyline
 62
253
  6
CONTINUOUS
 90
18
 70
0
 10
142.230331279
 20
143.8281392622
 10
142.2247361173
 20
143.8308916575
 10
142.2191460256
 20
143.8333568015
 10
142.2135700677
 20
143.8355306976
 10
142.2080172841
 20
143.8374098209
 10
142.2024966782
 20
143.8389911246
 10
142.1970172007
 20
143.840272045
 10
142.1915877361
 20
143.8412505051
 10
142.1862170875
 20
143.8419249185
 10
142.1809139628
 20
143.8422941917
 10
142.1756869603
 20
143.842357726
 10
142.1705445549
 20
143.8421154184
 10
142.1654950844
 20
143.8415676617
 10
142.1605467359
 20
143.8407153441
 10
142.1557075325
 20
143.8395598474
 10
142.1509853203
 20
143.8381030453
 10
142.146387756
 20
143.8363472996
 10
142.1440122887
 20
143.8353002638
  0
LWPOLYLINE
  5
552
100
AcDbEntity
  8
0
100
AcDbPolyline
 62
7
  6
CONTINUOUS
 90
27
 70
0
 10
142.4500720015
 20
143.8381687615
 10
142.4467988985
 20
143.8397821532
 10
142.4360938316
 20
143.8447381275
 10
142.4251889655
 20
143.8493013516
 10
142.4140929059
 20
143.8534658402
 10
142.4028048274
 20
143.8572285299
 10
142.3913379378
 20
143.8605812879
 10
142.3797056653
 20
143.8635169254
 10
142.3679064744
 20
143.8660318325
 10
142.3559525349
 20
143.8681186082
 10
142.3438585883
 20
143.8697702974
 10
142.3316257338
 20
143.8709822079
 10
142.3192672694
 20
143.8717478763
 10
142.3067966652
 20
143.8720613844
 10
142.2942138129
 20
143.8719173065
 10
142.2815315905
 20
143.8713099939
 10
142.2687629843
 20
143.870234246
 10
142.2559063195
 20
143.8686833077
 10
142.242972669
 20
143.8666514919
 10
142.2299755607
 20
143.8641339951
 10
142.2169151975
 20
143.8611231108
 10
142.2038029644
 20
143.8576130707
 10
142.1906501428
 20
143.8535986884
 10
142.1774548777
 20
143.8490700837
 10
142.1642235752
 20
143.8440188982
 10
142.1509729913
 20
143.8384412755
 10
142.1440123099
 20
143.8353002178
  0
LINE
  5
553
100
AcDbEntity
  8
DRAFT
100
AcDbLine
 62
7
  6
CONTINUOUS
 10
145.6347995085
 20
141.1666438263
 11
145.7201677894
 21
141.1239596859
  0
LINE
  5
554
100
AcDbEntity
  8
DRAFT
100
AcDbLine
 62
7
  6
CONTINUOUS
 10
145.917642221
 20
141.3080651826
 11
146.0030105019
 21
141.2653810421
  0
LINE
  5
555
100
AcDbEntity
  8
DRAFT
100
AcDbLine
 62
7
  6
CONTINUOUS
 10
149.0289120582
 20
139.7524302639
 11
149.1142803391
 21
139.7097461235
  0
LINE
  5
556
100
AcDbEntity
  8
0
100
AcDbLine
 62
253
  6
CONTINUOUS
 10
141.9276375934
 20
143.3280244134
 11
141.1243467856
 21
143.7296698174
  0
LINE
  5
557
100
AcDbEntity
  8
0
100
AcDbLine
 62
253
  6
CONTINUOUS
 10
144.2546254134
 20
142.1645305035
 11
145.0389074307
 21
141.7723894948
  0
LINE
  5
558
100
AcDbEntity
  8
0
100
AcDbLine
 62
7
  6
CONTINUOUS
 10
141.2548067321
 20
143.7363797751
 11
142.1870769938
 21
143.2702446442
  0
LINE
  5
559
100
AcDbEntity
  8
0
100
AcDbLine
 62
7
  6
CONTINUOUS
 10
144.2561097414
 20
142.2357282704
 11
145.298346831
 21
141.7146097256
  0
LINE
  5
55A
100
AcDbEntity
  8
DRAFT
100
AcDbLine
 62
7
  6
CONTINUOUS
 10
143.0200233524
 20
142.8661514422
 11
144.5336934488
 21
142.109316394
  0
LINE
  5
55B
100
AcDbEntity
  8
DRAFT
100
AcDbLine
 62
7
  6
CONTINUOUS
 10
146.1312931896
 20
141.3105165236
 11
147.644963286
 21
140.5536814754
  0
LINE
  5
55C
100
AcDbEntity
  8
DRAFT
100
AcDbLine
 62
7
  6
CONTINUOUS
 10
143.0566129509
 20
142.9698145224
 11
144.5678145284
 21
142.2142137337
  0
LINE
  5
55D
100
AcDbEntity
  8
DRAFT
100
AcDbLine
 62
7
  6
CONTINUOUS
 10
146.1678827882
 20
141.4141796038
 11
147.6790843656
 21
140.6585788151
  0
LINE
  5
55E
100
AcDbEntity
  8
DRAFT
100
AcDbLine
 62
7
  6
CONTINUOUS
 10
143.1626789681
 20
143.022847531
 11
144.6738805455
 21
142.2672467423
  0
LINE
  5
55F
100
AcDbEntity
  8
DRAFT
100
AcDbLine
 62
7
  6
CONTINUOUS
 10
146.2739488053
 20
141.4672126124
 11
147.7851503828
 21
140.7116118236
  0
LINE
  5
560
100
AcDbEntity
  8
DRAFT
100
AcDbLine
 62
7
  6
CONTINUOUS
 10
143.3028660649
 20
143.0075727984
 11
144.8165361613
 21
142.2507377503
  0
LINE
  5
561
100
AcDbEntity
  8
DRAFT
100
AcDbLine
 62
7
  6
CONTINUOUS
 10
146.4141359021
 20
141.4519378798
 11
147.9278059985
 21
140.6951028316
  0
LINE
  5
562
100
AcDbEntity
  8
DRAFT
100
AcDbLine
 62
7
  6
CONTINUOUS
 10
143.3394556634
 20
143.1112358786
 11
144.8506572408
 21
142.3556350899
  0
LINE
  5
563
100
AcDbEntity
  8
DRAFT
100
AcDbLine
 62
7
  6
CONTINUOUS
 10
146.4507255006
 20
141.55560096
 11
147.9619270781
 21
140.8000001713
  0
LINE
  5
564
100
AcDbEntity
  8
DRAFT
100
AcDbLine
 62
7
  6
CONTINUOUS
 10
143.4455216806
 20
143.1642688872
 11
144.956723258
 21
142.4086680985
  0
LINE
  5
565
100
AcDbEntity
  8
DRAFT
100
AcDbLine
 62
7
  6
CONTINUOUS
 10
146.5567915178
 20
141.6086339686
 11
148.0679930952
 21
140.8530331799
  0
LINE
  5
566
100
AcDbEntity
  8
DRAFT
100
AcDbLine
 62
7
  6
CONTINUOUS
 10
143.5857087774
 20
143.1489941547
 11
145.0993788737
 21
142.3921591065
  0
LINE
  5
567
100
AcDbEntity
  8
DRAFT
100
AcDbLine
 62
7
  6
CONTINUOUS
 10
146.6969786146
 20
141.5933592361
 11
148.2106487109
 21
140.8365241879
  0
LINE
  5
568
100
AcDbEntity
  8
0
100
AcDbLine
 62
253
  6
CONTINUOUS
 10
142.2303287328
 20
143.8281380863
 11
142.6297378285
 21
143.6284359875
  0
LINE
  5
569
100
AcDbEntity
  8
0
100
AcDbLine
 62
7
  6
CONTINUOUS
 10
142.4500437512
 20
143.8381829111
 11
142.8448991436
 21
143.6407552149
  0
LINE
  5
56A
100
AcDbEntity
  8
DRAFT
100
AcDbLine
 62
7
  6
CONTINUOUS
 10
143.6222983759
 20
143.2526572349
 11
145.1334999533
 21
142.4970564461
  0
LINE
  5
56B
100
AcDbEntity
  8
DRAFT
100
AcDbLine
 62
7
  6
CONTINUOUS
 10
146.7335682131
 20
141.6970223162
 11
148.2447697905
 21
140.9414215275
  0
LINE
  5
56C
100
AcDbEntity
  8
DRAFT
100
AcDbLine
 62
7
  6
CONTINUOUS
 10
143.7283643931
 20
143.3056902434
 11
145.2395659705
 21
142.5500894547
  0
LINE
  5
56D
100
AcDbEntity
  8
DRAFT
100
AcDbLine
 62
7
  6
CONTINUOUS
 10
146.8396342303
 20
141.7500553248
 11
148.3508358077
 21
140.9944545361
  0
LINE
  5
56E
100
AcDbEntity
  8
DRAFT
100
AcDbLine
 62
7
  6
CONTINUOUS
 10
143.8685514898
 20
143.2904155109
 11
145.3822215862
 21
142.5335804627
  0
LINE
  5
56F
100
AcDbEntity
  8
DRAFT
100
AcDbLine
 62
7
  6
CONTINUOUS
 10
146.9798213271
 20
141.7347805923
 11
148.4934914234
 21
140.9779455441
  0
LINE
  5
570
100
AcDbEntity
  8
DRAFT
100
AcDbLine
 62
7
  6
CONTINUOUS
 10
143.9051410884
 20
143.3940785911
 11
145.4163426658
 21
142.6384778024
  0
LINE
  5
571
100
AcDbEntity
  8
DRAFT
100
AcDbLine
 62
7
  6
CONTINUOUS
 10
147.0164109256
 20
141.8384436725
 11
148.527612503
 21
141.0828428838
  0
LINE
  5
572
100
AcDbEntity
  8
DRAFT
100
AcDbLine
 62
7
  6
CONTINUOUS
 10
144.0112071055
 20
143.4471115997
 11
145.522408683
 21
142.691510811
  0
LINE
  5
573
100
AcDbEntity
  8
DRAFT
100
AcDbLine
 62
7
  6
CONTINUOUS
 10
147.1224769428
 20
141.8914766811
 11
148.6336785202
 21
141.1358758924
  0
LINE
  5
574
100
AcDbEntity
  8
DRAFT
100
AcDbLine
 62
7
  6
CONTINUOUS
 10
144.1513942023
 20
143.4318368672
 11
145.6650642987
 21
142.675001819
  0
LINE
  5
575
100
AcDbEntity
  8
DRAFT
100
AcDbLine
 62
7
  6
CONTINUOUS
 10
147.2626640395
 20
141.8762019485
 11
148.7763341359
 21
141.1193669004
  0
LINE
  5
576
100
AcDbEntity
  8
DRAFT
100
AcDbLine
 62
7
  6
CONTINUOUS
 10
144.1879838008
 20
143.5354999473
 11
145.6991853783
 21
142.7798991586
  0
LINE
  5
577
100
AcDbEntity
  8
DRAFT
100
AcDbLine
 62
7
  6
CONTINUOUS
 10
147.2992536381
 20
141.9798650287
 11
148.8104552155
 21
141.22426424
  0
LINE
  5
578
100
AcDbEntity
  8
DRAFT
100
AcDbLine
 62
7
  6
CONTINUOUS
 10
144.294049818
 20
143.5885329559
 11
145.8052513954
 21
142.8329321672
  0
LINE
  5
579
100
AcDbEntity
  8
DRAFT
100
AcDbLine
 62
7
  6
CONTINUOUS
 10
147.4053196552
 20
142.0328980373
 11
148.9165212327
 21
141.2772972486
  0
LINE
  5
57A
100
AcDbEntity
  8
DRAFT
100
AcDbLine
 62
7
  6
CONTINUOUS
 10
144.4342369148
 20
143.5732582234
 11
145.9479070112
 21
142.8164231752
  0
LINE
  5
57B
100
AcDbEntity
  8
DRAFT
100
AcDbLine
 62
7
  6
CONTINUOUS
 10
147.545506752
 20
142.0176233048
 11
149.0591768484
 21
141.2607882566
  0
LINE
  5
57C
100
AcDbEntity
  8
DRAFT
100
AcDbLine
 62
7
  6
CONTINUOUS
 10
144.4708265133
 20
143.6769213036
 11
145.9820280907
 21
142.9213205149
  0
LINE
  5
57D
100
AcDbEntity
  8
DRAFT
100
AcDbLine
 62
7
  6
CONTINUOUS
 10
147.5820963505
 20
142.121286385
 11
149.093297928
 21
141.3656855962
  0
LINE
  5
57E
100
AcDbEntity
  8
RACCORDO
100
AcDbLine
 62
7
  6
CONTINUOUS
 10
149.3082826465
 20
141.3470945925
 11
149.211619211
 21
141.3954263102
  0
LINE
  5
57F
100
AcDbEntity
  8
RACCORDO
100
AcDbLine
 62
7
  6
CONTINUOUS
 10
146.1970128093
 20
142.9027295111
 11
146.1003493738
 21
142.9510612288
  0
LINE
  5
580
100
AcDbEntity
  8
DRAFT
100
AcDbLine
 62
7
  6
CONTINUOUS
 10
144.5768925305
 20
143.7299543122
 11
146.0880941079
 21
142.9743535234
  0
LINE
  5
581
100
AcDbEntity
  8
DRAFT
100
AcDbLine
 62
7
  6
CONTINUOUS
 10
147.6881623677
 20
142.1743193935
 11
149.1993639451
 21
141.4187186048
  0
ARC
  5
582
100
AcDbEntity
  8
RACCORDO
100
AcDbCircle
 62
7
  6
CONTINUOUS
 10
146.0572777699
 20
125.6768950976
 40
0.25
100
AcDbArc
 50
244.0406531095
 51
258.6758098606
  0
ARC
  5
583
100
AcDbEntity
  8
RACCORDO
100
AcDbCircle
 62
7
  6
CONTINUOUS
 10
132.6929596055
 20
132.3590541798
 40
0.25
100
AcDbArc
 50
244.0406531095
 51
258.6758098606
  0
ELLIPSE
  5
584
100
AcDbEntity
  8
DRAFT
100
AcDbEllipse
 62
7
  6
CONTINUOUS
 10
146.1986991262
 20
141.4485936352
 30
0.0
 11
0.0462229684
 21
0.0886861576
 31
0.0
 40
0.6035364256
 41
-1.0575060939
 42
-0.8759289409
  0
ELLIPSE
  5
585
100
AcDbEntity
  8
RACCORDO
100
AcDbEllipse
 62
7
  6
CONTINUOUS
 10
137.8455740848
 20
140.0228219657
 30
0.0
 11
0.1386689053
 21
0.2660584729
 31
0.0
 40
0.6035364256
 41
0.6948673859
 42
1.1054037811
  0
ELLIPSE
  5
586
100
AcDbEntity
  8
DRAFT
100
AcDbEllipse
 62
7
  6
CONTINUOUS
 10
146.1094551946
 20
142.7229015207
 30
0.0
 11
0.086325054
 21
0.1804312186
 31
0.0
 40
0.6209844714
 41
5.3863034069
 42
6.8317719026
  0
ELLIPSE
  5
587
100
AcDbEntity
  8
DRAFT
100
AcDbEllipse
 62
7
  6
CONTINUOUS
 10
149.3099689634
 20
139.8929587165
 30
0.0
 11
0.0462229684
 21
0.0886861576
 31
0.0
 40
0.6035364256
 41
-2.4467252677
 42
-0.8759289409
  0
ELLIPSE
  5
588
100
AcDbEntity
  8
RACCORDO
100
AcDbEllipse
 62
7
  6
CONTINUOUS
 10
140.956843922
 20
138.4671870471
 30
0.0
 11
0.1386689053
 21
0.2660584729
 31
0.0
 40
0.6035364256
 41
0.6948673859
 42
1.1054037811
  0
ELLIPSE
  5
589
100
AcDbEntity
  8
DRAFT
100
AcDbEllipse
 62
7
  6
CONTINUOUS
 10
149.2207250319
 20
141.1672666021
 30
0.0
 11
0.086325054
 21
0.1804312186
 31
0.0
 40
0.6209844714
 41
5.3863034069
 42
6.8317719026
  0
ELLIPSE
  5
58A
100
AcDbEntity
  8
0
100
AcDbEllipse
 62
7
  6
CONTINUOUS
 10
137.9532038462
 20
133.1289256256
 30
0.0
 11
-0.894612936
 21
1.7887945813
 31
0.0
 40
0.6124635976
 41
-1.6852018952
 42
-1.470288718
  0
ELLIPSE
  5
58B
100
AcDbEntity
  8
RACCORDO
100
AcDbEllipse
 62
7
  6
CONTINUOUS
 10
125.32312383
 20
138.0327875559
 30
0.0
 11
1.2141619185
 21
0.9541526469
 31
0.0
 40
0.2329077568
 41
0.1095198182
 42
0.114024621
  0
ELLIPSE
  5
58C
100
AcDbEntity
  8
0
100
AcDbEllipse
 62
7
  6
CONTINUOUS
 10
145.2436344721
 20
141.6141527839
 30
0.0
 11
-0.1341484654
 21
0.2683369961
 31
0.0
 40
0.6125552124
 41
-2.255296188
 42
-2.238147482
  0
ELLIPSE
  5
58D
100
AcDbEntity
  8
0
100
AcDbEllipse
 62
7
  6
CONTINUOUS
 10
142.1323646349
 20
143.1697877025
 30
0.0
 11
-0.1341484654
 21
0.2683369961
 31
0.0
 40
0.6125552124
 41
-2.255296188
 42
-2.238147482
  0
ELLIPSE
  5
58E
100
AcDbEntity
  8
0
100
AcDbEllipse
 62
7
  6
CONTINUOUS
 10
137.5245872648
 20
135.5946968904
 30
0.0
 11
-0.447101003
 21
0.8945282396
 31
0.0
 40
0.6124326778
 41
-1.4698904957
 42
-0.6846185041
  0
ELLIPSE
  5
58F
100
AcDbEntity
  8
0
100
AcDbEllipse
 62
7
  6
CONTINUOUS
 10
138.1641016211
 20
133.2667663499
 30
0.0
 11
-0.894612936
 21
1.7887945813
 31
0.0
 40
0.6124635976
 41
-1.7002000289
 42
-1.470288718
  0
ELLIPSE
  5
590
100
AcDbEntity
  8
0
100
AcDbEllipse
 62
7
  6
CONTINUOUS
 10
132.4153482859
 20
139.2743852932
 30
0.0
 11
-0.2237009107
 21
0.4473351135
 31
0.0
 40
0.6121897086
 41
-0.6846338794
 42
0.1006119908
  0
ELLIPSE
  5
591
100
AcDbEntity
  8
RACCORDO
100
AcDbEllipse
 62
7
  6
CONTINUOUS
 10
148.532097648
 20
87.1370062745
 30
0.0
 11
-0.2235807756
 21
0.4472283268
 31
0.0
 40
0.6125552124
 41
-3.139671321
 42
-2.255296188
  0
ELLIPSE
  5
592
100
AcDbEntity
  8
RACCORDO
100
AcDbEllipse
 62
7
  6
CONTINUOUS
 10
148.532097648
 20
125.038553981
 30
0.0
 11
-0.2237009107
 21
0.4473351135
 31
0.0
 40
0.6121897086
 41
-2.2557347926
 42
-0.6846338794
  0
ELLIPSE
  5
593
100
AcDbEntity
  8
RACCORDO
100
AcDbEllipse
 62
7
  6
CONTINUOUS
 10
141.3729053713
 20
134.4129837213
 30
0.0
 11
0.9987332359
 21
0.6172510855
 31
0.0
 40
0.0815198604
 41
0.0505521044
 42
0.7176053907
  0
ELLIPSE
  5
594
100
AcDbEntity
  8
RACCORDO
100
AcDbEllipse
 62
7
  6
CONTINUOUS
 10
153.123328246
 20
128.5377722839
 30
0.0
 11
0.4349639225
 21
0.9005141702
 31
0.0
 40
0.6016116119
 41
-0.8943064336
 42
-0.538697204
  0
ELLIPSE
  5
595
100
AcDbEntity
  8
RACCORDO
100
AcDbEllipse
 62
7
  6
CONTINUOUS
 10
153.3579452589
 20
91.6571709284
 30
0.0
 11
0.9987332359
 21
0.6172510855
 31
0.0
 40
0.0815198604
 41
-2.3890806779
 42
-1.1913468732
  0
ELLIPSE
  5
596
100
AcDbEntity
  8
RACCORDO
100
AcDbEllipse
 62
7
  6
CONTINUOUS
 10
153.123328246
 20
91.7744794349
 30
0.0
 11
0.4349639225
 21
0.9005141702
 31
0.0
 40
0.6016116119
 41
-1.2499156631
 42
-0.8943064336
  0
ELLIPSE
  5
597
100
AcDbEntity
  8
RACCORDO
100
AcDbEllipse
 62
7
  6
CONTINUOUS
 10
142.5169336829
 20
133.8699480962
 30
0.0
 11
0.2256808774
 21
0.4461742732
 31
0.0
 40
0.6158912572
 41
0.0028657685
 42
0.6875768343
  0
ELLIPSE
  5
598
100
AcDbEntity
  8
RACCORDO
100
AcDbEllipse
 62
7
  6
CONTINUOUS
 10
146.3737495201
 20
86.0495104059
 30
0.0
 11
-0.2235807756
 21
0.4472283268
 31
0.0
 40
0.6125552124
 41
2.4567882058
 42
4.0278891191
  0
ELLIPSE
  5
599
100
AcDbEntity
  8
RACCORDO
100
AcDbEllipse
 62
7
  6
CONTINUOUS
 10
146.3737495201
 20
124.0417572903
 30
0.0
 11
-0.2237009107
 21
0.4473351135
 31
0.0
 40
0.6121897086
 41
4.0274505145
 42
5.5985514278
  0
ELLIPSE
  5
59A
100
AcDbEntity
  8
RACCORDO
100
AcDbEllipse
 62
7
  6
CONTINUOUS
 10
148.6783830414
 20
130.7892234169
 30
0.0
 11
0.2215594226
 21
0.4482351134
 31
0.0
 40
0.6088373611
 41
5.3943220613
 42
6.9651183881
  0
ELLIPSE
  5
59B
100
AcDbEntity
  8
RACCORDO
100
AcDbEllipse
 62
7
  6
CONTINUOUS
 10
131.3865383617
 20
131.5353628695
 30
0.0
 11
-0.2235807756
 21
0.4472283268
 31
0.0
 40
0.6125552124
 41
-0.6848044477
 42
0.8862964655
  0
ELLIPSE
  5
59C
100
AcDbEntity
  8
RACCORDO
100
AcDbEllipse
 62
7
  6
CONTINUOUS
 10
153.3579452589
 20
128.4204637775
 30
0.0
 11
-0.7417913999
 21
1.2002436976
 31
0.0
 40
0.5587454355
 41
5.0176587298
 42
6.2153925345
  0
ELLIPSE
  5
59D
100
AcDbEntity
  8
RACCORDO
100
AcDbEllipse
 62
7
  6
CONTINUOUS
 10
142.7005510389
 20
127.3494205701
 30
0.0
 11
0.4999881828
 21
-0.0070264249
 31
0.0
 40
0.4892375088
 41
-2.3493192548
 42
-0.7727633415
  0
ELLIPSE
  5
59E
100
AcDbEntity
  8
RACCORDO
100
AcDbEllipse
 62
7
  6
CONTINUOUS
 10
137.1810571864
 20
130.1091674963
 30
0.0
 11
0.4999881828
 21
-0.0070264249
 31
0.0
 40
0.4892375088
 41
-3.1347355197
 42
-2.3493192548
  0
ELLIPSE
  5
59F
100
AcDbEntity
  8
RACCORDO
100
AcDbEllipse
 62
7
  6
CONTINUOUS
 10
144.5567750415
 20
90.7370807275
 30
0.0
 11
-0.2713091605
 21
0.4239062184
 31
0.0
 40
0.5451249042
 41
-3.2164578779
 42
-2.3115524019
  0
ELLIPSE
  5
5A0
100
AcDbEntity
  8
268
100
AcDbEllipse
 62
7
  6
CONTINUOUS
 10
115.3073888989
 20
141.0518395331
 30
0.0
 11
0.110769438
 21
0.2241226716
 31
0.0
 40
0.6088015717
 41
-4.0304836828
 42
-3.1443650652
  0
ELLIPSE
  5
5A1
100
AcDbEntity
  8
268
100
AcDbEllipse
 62
7
  6
CONTINUOUS
 10
128.6717070633
 20
134.3696804509
 30
0.0
 11
0.110769438
 21
0.2241226716
 31
0.0
 40
0.6088015717
 41
-4.0304836828
 42
-3.1443650652
  0
ELLIPSE
  5
5A2
100
AcDbEntity
  8
268
100
AcDbEllipse
 62
7
  6
CONTINUOUS
 10
126.961719396
 20
142.183193707
 30
0.0
 11
0.2999991737
 21
-0.0014183462
 31
0.0
 40
0.4964289597
 41
0.7877451926
 42
2.3527237553
  0
ELLIPSE
  5
5A3
100
AcDbEntity
  8
268
100
AcDbEllipse
 62
7
  6
CONTINUOUS
 10
132.5161829102
 20
139.4059619499
 30
0.0
 11
0.2999991737
 21
-0.0014183462
 31
0.0
 40
0.4964289597
 41
0.7877451926
 42
2.3585415194
  0
ELLIPSE
  5
5A4
100
AcDbEntity
  8
268
100
AcDbEllipse
 62
7
  6
CONTINUOUS
 10
118.6912168813
 20
140.3776924949
 30
0.0
 11
0.110769438
 21
0.2241226716
 31
0.0
 40
0.6088015717
 41
1.2055040732
 42
2.2526937431
  0
ELLIPSE
  5
5A5
100
AcDbEntity
  8
268
100
AcDbEllipse
 62
7
  6
CONTINUOUS
 10
132.4070315228
 20
134.6233385647
 30
0.0
 11
0.110769438
 21
0.2241226716
 31
0.0
 40
0.6088015717
 41
-1.9360885804
 42
-0.8888910292
  0
ELLIPSE
  5
5A6
100
AcDbEntity
  8
268
100
AcDbEllipse
 62
7
  6
CONTINUOUS
 10
130.7868566665
 20
135.6943549693
 30
0.0
 11
0.1128509832
 21
0.2230818409
 31
0.0
 40
0.6159267166
 41
0.0028979148
 42
0.6817883054
  0
ELLIPSE
  5
5A7
100
AcDbEntity
  8
268
100
AcDbEllipse
 62
7
  6
CONTINUOUS
 10
128.6717070633
 20
134.6230518447
 30
0.0
 11
0.110769438
 21
0.2241226716
 31
0.0
 40
0.6088015717
 41
0.6877230618
 42
2.2527016244
  0
ELLIPSE
  5
5A8
100
AcDbEntity
  8
268
100
AcDbEllipse
 62
7
  6
CONTINUOUS
 10
119.0427133584
 20
141.3054976469
 30
0.0
 11
0.110769438
 21
0.2241226716
 31
0.0
 40
0.6088015717
 41
-1.9360885804
 42
-0.8888910292
  0
ELLIPSE
  5
5A9
100
AcDbEntity
  8
268
100
AcDbEllipse
 62
7
  6
CONTINUOUS
 10
117.422538502
 20
142.3765140515
 30
0.0
 11
0.1128509832
 21
0.2230818409
 31
0.0
 40
0.6159267166
 41
0.0028979148
 42
0.6817883054
  0
ELLIPSE
  5
5AA
100
AcDbEntity
  8
268
100
AcDbEllipse
 62
7
  6
CONTINUOUS
 10
115.3073888989
 20
141.3052109269
 30
0.0
 11
0.110769438
 21
0.2241226716
 31
0.0
 40
0.6088015717
 41
0.6877230618
 42
2.2527016244
  0
ELLIPSE
  5
5AB
100
AcDbEntity
  8
268
100
AcDbEllipse
 62
7
  6
CONTINUOUS
 10
119.0427133584
 20
141.5664266233
 30
0.0
 11
0.110769438
 21
0.2241226716
 31
0.0
 40
0.6088015717
 41
5.394294278
 42
6.9592728406
  0
ELLIPSE
  5
5AC
100
AcDbEntity
  8
268
100
AcDbEllipse
 62
7
  6
CONTINUOUS
 10
132.4070315228
 20
134.8842675411
 30
0.0
 11
0.110769438
 21
0.2241226716
 31
0.0
 40
0.6088015717
 41
5.394294278
 42
6.9592728406
  0
ELLIPSE
  5
5AD
100
AcDbEntity
  8
268
100
AcDbEllipse
 62
7
  6
CONTINUOUS
 10
127.1421713732
 20
140.861133537
 30
0.0
 11
0.2999981629
 21
-0.0021225547
 31
0.0
 40
0.4946372042
 41
-0.7818985079
 42
0.0034997008
  0
ELLIPSE
  5
5AE
100
AcDbEntity
  8
268
100
AcDbEllipse
 62
7
  6
CONTINUOUS
 10
132.6966348873
 20
138.0839017799
 30
0.0
 11
0.2999981629
 21
-0.0021225547
 31
0.0
 40
0.4946372042
 41
-0.7760807437
 42
0.0035109161
  0
ELLIPSE
  5
5AF
100
AcDbEntity
  8
268
100
AcDbEllipse
 62
7
  6
CONTINUOUS
 10
120.9932256457
 20
139.263012339
 30
0.0
 11
0.2999991335
 21
0.0014318851
 31
0.0
 40
0.5035541159
 41
8.6427941204
 42
10.207772683
  0
ELLIPSE
  5
5B0
100
AcDbEntity
  8
268
100
AcDbEllipse
 62
7
  6
CONTINUOUS
 10
114.9799347368
 20
139.4659422377
 30
0.0
 11
-0.1565168911
 21
0.3130623908
 31
0.0
 40
0.6123677712
 41
-0.6846781644
 42
0.8861181623
  0
ELLIPSE
  5
5B1
100
AcDbEntity
  8
268
100
AcDbEllipse
 62
7
  6
CONTINUOUS
 10
130.2534412104
 20
131.8291890009
 30
0.0
 11
-0.1565168911
 21
0.3130623908
 31
0.0
 40
0.6123677712
 41
-2.2554744912
 42
-0.6846781644
  0
ELLIPSE
  5
5B2
100
AcDbEntity
  8
268
100
AcDbEllipse
 62
7
  6
CONTINUOUS
 10
126.7857347137
 20
136.366757805
 30
0.0
 11
0.2999991335
 21
0.0014318851
 31
0.0
 40
0.5035541159
 41
-2.3585979313
 42
-0.7936193687
  0
ELLIPSE
  5
5B3
100
AcDbEntity
  8
268
100
AcDbEllipse
 62
7
  6
CONTINUOUS
 10
126.7857347137
 20
135.1525587292
 30
0.0
 11
0.2999980272
 21
0.0021530184
 31
0.0
 40
0.5053247124
 41
-2.3598210761
 42
-0.7948425135
  0
ELLIPSE
  5
5B4
100
AcDbEntity
  8
268
100
AcDbEllipse
 62
7
  6
CONTINUOUS
 10
120.9932256457
 20
138.0488132632
 30
0.0
 11
0.2999980272
 21
0.0021530184
 31
0.0
 40
0.5053247124
 41
3.1379773283
 42
3.9233642311
  0
ELLIPSE
  5
5B5
100
AcDbEntity
  8
268
100
AcDbEllipse
 62
7
  6
CONTINUOUS
 10
132.6966348873
 20
139.3157359613
 30
0.0
 11
0.2999991737
 21
-0.0014183462
 31
0.0
 40
0.4964289597
 41
-0.77723337
 42
0.7877451926
  0
ELLIPSE
  5
5B6
100
AcDbEntity
  8
268
100
AcDbEllipse
 62
7
  6
CONTINUOUS
 10
127.1421713732
 20
142.0929677184
 30
0.0
 11
0.2999991737
 21
-0.0014183462
 31
0.0
 40
0.4964289597
 41
-0.7830511342
 42
0.7877451926
  0
ELLIPSE
  5
5B7
100
AcDbEntity
  8
268
100
AcDbEllipse
 62
7
  6
CONTINUOUS
 10
130.2795404389
 20
133.8191351569
 30
0.0
 11
0.1128509832
 21
0.2230818409
 31
0.0
 40
0.6159267166
 41
0.6934238338
 42
2.2584023964
  0
ELLIPSE
  5
5B8
100
AcDbEntity
  8
268
100
AcDbEllipse
 62
7
  6
CONTINUOUS
 10
130.2795404389
 20
133.5657637631
 30
0.0
 11
0.1128509832
 21
0.2230818409
 31
0.0
 40
0.6159267166
 41
-4.0247829108
 42
-2.9775853596
  0
ELLIPSE
  5
5B9
100
AcDbEntity
  8
268
100
AcDbEllipse
 62
7
  6
CONTINUOUS
 10
116.9152222745
 20
140.5012942391
 30
0.0
 11
0.1128509832
 21
0.2230818409
 31
0.0
 40
0.6159267166
 41
0.6934238338
 42
2.2584023964
  0
ELLIPSE
  5
5BA
100
AcDbEntity
  8
268
100
AcDbEllipse
 62
7
  6
CONTINUOUS
 10
116.9152222745
 20
140.2479228453
 30
0.0
 11
0.1128509832
 21
0.2230818409
 31
0.0
 40
0.6159267166
 41
-4.0247829108
 42
-2.9775853596
  0
ELLIPSE
  5
5BB
100
AcDbEntity
  8
RACCORDO
100
AcDbEllipse
 62
7
  6
CONTINUOUS
 10
115.9245702108
 20
138.2562201121
 30
0.0
 11
-0.2786191524
 21
0.7501668109
 31
0.0
 40
0.6610921126
 41
-0.3090511146
 42
0.0213201203
  0
ELLIPSE
  5
5BC
100
AcDbEntity
  8
RACCORDO
100
AcDbEllipse
 62
7
  6
CONTINUOUS
 10
143.0061471853
 20
85.3439916828
 30
0.0
 11
-0.2786191524
 21
0.7501668109
 31
0.0
 40
0.6610921126
 41
-3.1630638698
 42
-2.1868166574
  0
ELLIPSE
  5
5BD
100
AcDbEntity
  8
RACCORDO
100
AcDbEllipse
 62
7
  6
CONTINUOUS
 10
146.1178574279
 20
123.1595765035
 30
0.0
 11
-0.2783604326
 21
0.7500177284
 31
0.0
 40
0.6614719787
 41
-2.1862531203
 42
-0.61576138
  0
ENDSEC
  0
SECTION
  2
OBJECTS
  0
DICTIONARY
  5
C
100
AcDbDictionary
280
0
281
1
  3
ACAD_GROUP
350
D
  3
ACAD_MLINESTYLE
350
17
  3
ACAD_LAYOUT
350
1A
  3
ACAD_PLOTSETTINGS
350
19
  3
ACAD_PLOTSTYLENAME
350
E
  0
DICTIONARY
  5
D
102
{ACAD_REACTORS
330
C
102
}
100
AcDbDictionary
280
0
281
1
  0
ACDBDICTIONARYWDFLT
  5
E
102
{ACAD_REACTORS
330
C
102
}
100
AcDbDictionary
281
1
  3
Normal
350
F
100
AcDbDictionaryWithDefault
340
F
  0
DICTIONARY
  5
17
102
{ACAD_REACTORS
330
C
102
}
100
AcDbDictionary
280
0
281
1
  3
Standard
350
18
  0
DICTIONARY
  5
19
102
{ACAD_REACTORS
330
C
102
}
100
AcDbDictionary
281
1
  0
DICTIONARY
  5
1A
102
{ACAD_REACTORS
330
C
102
}
100
AcDbDictionary
281
1
  3
Model
350
5BE
  3
Layout1
350
5BF
  0
ACDBPLACEHOLDER
  5
F
102
{ACAD_REACTORS
330
E
102
}
  0
MLINESTYLE
  5
18
102
{ACAD_REACTORS
330
17
102
}
100
AcDbMlineStyle
  2
STANDARD
 70
0
  3

 62
256
 51
90.0
 52
90.0
 71
2
 49
0.5
 62
256
  6
BYLAYER
 49
-0.5
 62
256
  6
BYLAYER
  0
LAYOUT
  5
5BE
102
{ACAD_REACTORS
330
1A
102
}
100
AcDbPlotSettings
  1

  2
none_device
  4
ISO_A4_(297.00_x_210.00_MM)
  6

 40
0.0
 41
0.0
 42
0.0
 43
0.0
 44
297.0
 45
210.0
 46
0.0
 47
0.0
 48
0.0
 49
0.0
140
0.0
141
0.0
142
1.0
143
1.0
 70
1024
 72
1
 73
0
 74
0
  7

 75
0
147
1.0
148
0.0
149
0.0
100
AcDbLayout
  1
Model
 70
0
 71
0
 10
0.0
 20
0.0
 11
297.0
 21
210.0
 12
0.0
 22
0.0
 32
0.0
 14
0.0
 24
0.0
 34
0.0
 15
0.0
 25
0.0
 35
0.0
146
0.0
 13
0.0
 23
0.0
 33
0.0
 16
1.0
 26
0.0
 36
0.0
 17
0.0
 27
1.0
 37
0.0
 76
0
330
224
345
0
346
0
  0
LAYOUT
  5
5BF
102
{ACAD_REACTORS
330
1A
102
}
100
AcDbPlotSettings
  1

  2
none_device
  4
ISO_A4_(297.00_x_210.00_MM)
  6

 40
0.0
 41
0.0
 42
0.0
 43
0.0
 44
297.0
 45
210.0
 46
0.0
 47
0.0
 48
0.0
 49
0.0
140
0.0
141
0.0
142
1.0
143
1.0
 70
0
 72
1
 73
0
 74
0
  7

 75
0
147
1.0
148
0.0
149
0.0
100
AcDbLayout
  1
Layout1
 70
0
 71
1
 10
0.0
 20
0.0
 11
297.0
 21
210.0
 12
0.0
 22
0.0
 32
0.0
 14
0.0
 24
0.0
 34
0.0
 15
0.0
 25
0.0
 35
0.0
146
0.0
 13
0.0
 23
0.0
 33
0.0
 16
1.0
 26
0.0
 36
0.0
 17
0.0
 27
1.0
 37
0.0
 76
0
330
225
345
0
346
0
  0
ENDSEC
  0
EOF
