  0
SECTION
  2
HEADER
  9
$ACADVER
  1
AC1015
  9
$DWGCODEPAGE
  3
ANSI_1252
  9
$EXTMAX
 10
297.0
 20
210.0
 30
0.0
  9
$EXTMIN
 10
0.0
 20
0.0
 30
0.0
  9
$LIMMIN
 10
0.0
 20
0.0
  9
$LIMMAX
 10
297.0
 20
210.0
  9
$VIEWCTR
 10
148.5
 20
105.0
  9
$VIEWSIZE
 40
210.0
  9
$CLAYER
  8
0
  9
$LTSCALE
 40
16.335
  9
$CELTYPE
  6
BYLAYER
  9
$DIMSCALE
 40
1.0
  9
$DIMASZ
 40
3.0
  9
$DIMEXO
 40
0.5
  9
$DIMDLI
 40
11.286
  9
$DIMEXE
 40
1.5
  9
$DIMCEN
 40
2.673
  9
$DIMLFAC
 40
1.0
  9
$DIMBLK
  1
_FILLED
  9
$DIMTXT
 40
3.0
  9
$DIMTOL
 70
1
  9
$DIMLIM
 70
0
  9
$DIMTFAC
 40
1.0
  9
$DIMTP
 40
0.01
  9
$DIMTM
 40
0.01
  9
$DIMGAP
 40
0.625
  9
$DIMDSEP
 70
44
  9
$PDMODE
 70
3
  9
$PDSIZE
 40
3.0
  9
$HANDSEED
  5
650
  9
$TILEMODE
 70
1
  9
$MEASUREMENT
 70
1
  9
$INSUNITS
 70
4
  0
ENDSEC
  0
SECTION
  2
CLASSES
  0
CLASS
  1
ACDBDICTIONARYWDFLT
  2
AcDbDictionaryWithDefault
  3
AutoCAD 2000
 90
0
280
0
281
0
  0
CLASS
  1
ACDBPLACEHOLDER
  2
AcDbPlaceHolder
  3
AutoCAD 2000
 90
0
280
0
281
0
  0
CLASS
  1
LAYOUT
  2
AcDbLayout
  3
AutoCAD 2000
 90
0
280
0
281
0
  0
ENDSEC
  0
SECTION
  2
TABLES
  0
TABLE
  2
VPORT
  5
8
100
AcDbSymbolTable
 70
2
  0
VPORT
  5
1F4
100
AcDbSymbolTableRecord
100
AcDbViewportTableRecord
  2
*ACTIVE
 70
0
 10
0.0
 20
0.0
 11
1.0
 21
1.0
 12
148.5
 22
105.0
 13
0.0
 23
0.0
 14
1.0
 24
1.0
 15
0.0
 25
0.0
 16
0.0
 26
0.0
 36
1.0
 17
0.0
 27
0.0
 37
0.0
 40
210.0
 41
1.4142857143
 42
50.0
 43
0.0
 44
0.0
 50
0.0
 51
0.0
 71
0
 72
100
 73
1
 74
1
 75
0
 76
0
 77
0
 78
0
  0
ENDTAB
  0
TABLE
  2
LTYPE
  5
5
100
AcDbSymbolTable
 70
6
  0
LTYPE
  5
14
100
AcDbSymbolTableRecord
100
AcDbLinetypeTableRecord
  2
BYBLOCK
 70
0
  3

 72
65
 73
0
 40
0.0
  0
LTYPE
  5
15
100
AcDbSymbolTableRecord
100
AcDbLinetypeTableRecord
  2
BYLAYER
 70
0
  3

 72
65
 73
0
 40
0.0
  0
LTYPE
  5
16
100
AcDbSymbolTableRecord
100
AcDbLinetypeTableRecord
  2
CONTINUOUS
 70
64
  3
Solid line
 72
65
 73
0
 40
0.0
  0
LTYPE
  5
1F5
100
AcDbSymbolTableRecord
100
AcDbLinetypeTableRecord
  2
CENTER
 70
64
  3
____ _ ____ _ ____ _ ____ _ ____ _ ____ _ ____
 72
65
 73
4
 40
0.6
 49
0.375
 74
0
 49
-0.075
 74
0
 49
0.075
 74
0
 49
-0.075
 74
0
  0
LTYPE
  5
1F6
100
AcDbSymbolTableRecord
100
AcDbLinetypeTableRecord
  2
HIDDEN
 70
64
  3
- - - - - - - - - - - - - - - - - - - -
 72
65
 73
2
 40
0.2
 49
0.1
 74
0
 49
-0.1
 74
0
  0
LTYPE
  5
1F7
100
AcDbSymbolTableRecord
100
AcDbLinetypeTableRecord
  2
PHANTOM
 70
64
  3
_____ _ _ _____ _ _ _____ _ _ _____
 72
65
 73
6
 40
0.8
 49
0.45
 74
0
 49
-0.05
 74
0
 49
0.1
 74
0
 49
-0.05
 74
0
 49
0.1
 74
0
 49
-0.05
 74
0
  0
LTYPE
  5
1F8
100
AcDbSymbolTableRecord
100
AcDbLinetypeTableRecord
  2
DOT
 70
64
  3
. . . . . . . . . . . . . . . . . . . .
 72
65
 73
2
 40
0.2
 49
0.1
 74
0
 49
-0.1
 74
0
  0
LTYPE
  5
1F9
100
AcDbSymbolTableRecord
100
AcDbLinetypeTableRecord
  2
DASHED
 70
64
  3
- - - - - - - - - - - - - - - - - - - -
 72
65
 73
2
 40
0.2
 49
0.1
 74
0
 49
-0.1
 74
0
  0
ENDTAB
  0
TABLE
  2
LAYER
  5
2
100
AcDbSymbolTable
 70
36
  0
LAYER
  5
10
100
AcDbSymbolTableRecord
100
AcDbLayerTableRecord
  2
0
 70
0
 62
7
  6
CONTINUOUS
370
-3
390
F
  0
LAYER
  5
1FA
100
AcDbSymbolTableRecord
100
AcDbLayerTableRecord
  2
DEFAULT_1
 70
0
 62
7
  6
CENTER
370
-3
390
F
  0
LAYER
  5
1FB
100
AcDbSymbolTableRecord
100
AcDbLayerTableRecord
  2
DEFAULT_2
 70
0
 62
7
  6
HIDDEN
370
-3
390
F
  0
LAYER
  5
1FC
100
AcDbSymbolTableRecord
100
AcDbLayerTableRecord
  2
DEFAULT_3
 70
0
 62
7
  6
PHANTOM
370
-3
390
F
  0
LAYER
  5
1FD
100
AcDbSymbolTableRecord
100
AcDbLayerTableRecord
  2
218
 70
0
 62
7
  6
CONTINUOUS
370
-3
390
F
  0
LAYER
  5
1FE
100
AcDbSymbolTableRecord
100
AcDbLayerTableRecord
  2
260
 70
0
 62
7
  6
CONTINUOUS
370
-3
390
F
  0
LAYER
  5
1FF
100
AcDbSymbolTableRecord
100
AcDbLayerTableRecord
  2
268
 70
0
 62
7
  6
CONTINUOUS
370
-3
390
F
  0
LAYER
  5
200
100
AcDbSymbolTableRecord
100
AcDbLayerTableRecord
  2
284
 70
0
 62
7
  6
CONTINUOUS
370
-3
390
F
  0
LAYER
  5
201
100
AcDbSymbolTableRecord
100
AcDbLayerTableRecord
  2
320
 70
0
 62
7
  6
CONTINUOUS
370
-3
390
F
  0
LAYER
  5
202
100
AcDbSymbolTableRecord
100
AcDbLayerTableRecord
  2
340
 70
0
 62
7
  6
CONTINUOUS
370
-3
390
F
  0
LAYER
  5
203
100
AcDbSymbolTableRecord
100
AcDbLayerTableRecord
  2
712
 70
0
 62
7
  6
CONTINUOUS
370
-3
390
F
  0
LAYER
  5
204
100
AcDbSymbolTableRecord
100
AcDbLayerTableRecord
  2
715
 70
0
 62
7
  6
CONTINUOUS
370
-3
390
F
  0
LAYER
  5
205
100
AcDbSymbolTableRecord
100
AcDbLayerTableRecord
  2
ASSI
 70
0
 62
7
  6
CONTINUOUS
370
-3
390
F
  0
LAYER
  5
206
100
AcDbSymbolTableRecord
100
AcDbLayerTableRecord
  2
COLORE_SERIE
 70
0
 62
7
  6
CONTINUOUS
370
-3
390
F
  0
LAYER
  5
207
100
AcDbSymbolTableRecord
100
AcDbLayerTableRecord
  2
COLORE_TOP
 70
0
 62
7
  6
CONTINUOUS
370
-3
390
F
  0
LAYER
  5
208
100
AcDbSymbolTableRecord
100
AcDbLayerTableRecord
  2
COORDINATE
 70
0
 62
7
  6
CONTINUOUS
370
-3
390
F
  0
LAYER
  5
209
100
AcDbSymbolTableRecord
100
AcDbLayerTableRecord
  2
COORD_ORIGINE
 70
0
 62
7
  6
CONTINUOUS
370
-3
390
F
  0
LAYER
  5
20A
100
AcDbSymbolTableRecord
100
AcDbLayerTableRecord
  2
COPY_PUBLISH
 70
0
 62
7
  6
CONTINUOUS
370
-3
390
F
  0
LAYER
  5
20B
100
AcDbSymbolTableRecord
100
AcDbLayerTableRecord
  2
COSMETIC
 70
0
 62
7
  6
CONTINUOUS
370
-3
390
F
  0
LAYER
  5
20C
100
AcDbSymbolTableRecord
100
AcDbLayerTableRecord
  2
COSMETICI
 70
0
 62
7
  6
CONTINUOUS
370
-3
390
F
  0
LAYER
  5
20D
100
AcDbSymbolTableRecord
100
AcDbLayerTableRecord
  2
CURVE
 70
0
 62
7
  6
CONTINUOUS
370
-3
390
F
  0
LAYER
  5
20E
100
AcDbSymbolTableRecord
100
AcDbLayerTableRecord
  2
DRAFT
 70
0
 62
7
  6
CONTINUOUS
370
-3
390
F
  0
LAYER
  5
20F
100
AcDbSymbolTableRecord
100
AcDbLayerTableRecord
  2
IMPORT
 70
0
 62
7
  6
CONTINUOUS
370
-3
390
F
  0
LAYER
  5
210
100
AcDbSymbolTableRecord
100
AcDbLayerTableRecord
  2
IMPORTED
 70
0
 62
7
  6
CONTINUOUS
370
-3
390
F
  0
LAYER
  5
211
100
AcDbSymbolTableRecord
100
AcDbLayerTableRecord
  2
IMPORT_IGES
 70
0
 62
7
  6
CONTINUOUS
370
-3
390
F
  0
LAYER
  5
212
100
AcDbSymbolTableRecord
100
AcDbLayerTableRecord
  2
INTF_1
 70
0
 62
7
  6
CONTINUOUS
370
-3
390
F
  0
LAYER
  5
213
100
AcDbSymbolTableRecord
100
AcDbLayerTableRecord
  2
NOTE
 70
0
 62
7
  6
CONTINUOUS
370
-3
390
F
  0
LAYER
  5
214
100
AcDbSymbolTableRecord
100
AcDbLayerTableRecord
  2
PIANI
 70
0
 62
7
  6
CONTINUOUS
370
-3
390
F
  0
LAYER
  5
215
100
AcDbSymbolTableRecord
100
AcDbLayerTableRecord
  2
PIANI_DI_RIFERIMENTO
 70
0
 62
7
  6
CONTINUOUS
370
-3
390
F
  0
LAYER
  5
216
100
AcDbSymbolTableRecord
100
AcDbLayerTableRecord
  2
PIANI_ORIGINE
 70
0
 62
7
  6
CONTINUOUS
370
-3
390
F
  0
LAYER
  5
217
100
AcDbSymbolTableRecord
100
AcDbLayerTableRecord
  2
PIANI_RIFERIMENTO
 70
0
 62
7
  6
CONTINUOUS
370
-3
390
F
  0
LAYER
  5
218
100
AcDbSymbolTableRecord
100
AcDbLayerTableRecord
  2
PIANI_SFORMO
 70
0
 62
7
  6
CONTINUOUS
370
-3
390
F
  0
LAYER
  5
219
100
AcDbSymbolTableRecord
100
AcDbLayerTableRecord
  2
PUNTI
 70
0
 62
7
  6
CONTINUOUS
370
-3
390
F
  0
LAYER
  5
21A
100
AcDbSymbolTableRecord
100
AcDbLayerTableRecord
  2
RACCORDO
 70
0
 62
7
  6
CONTINUOUS
370
-3
390
F
  0
LAYER
  5
21B
100
AcDbSymbolTableRecord
100
AcDbLayerTableRecord
  2
SIMBOLI
 70
0
 62
7
  6
CONTINUOUS
370
-3
390
F
  0
LAYER
  5
21C
100
AcDbSymbolTableRecord
100
AcDbLayerTableRecord
  2
SMUSSO
 70
0
 62
7
  6
CONTINUOUS
370
-3
390
F
  0
LAYER
  5
21D
100
AcDbSymbolTableRecord
100
AcDbLayerTableRecord
  2
SNAPLINE
 70
0
 62
7
  6
CONTINUOUS
370
-3
390
F
  0
LAYER
  5
21E
100
AcDbSymbolTableRecord
100
AcDbLayerTableRecord
  2
SUPERFICI
 70
0
 62
7
  6
CONTINUOUS
370
-3
390
F
  0
LAYER
  5
21F
100
AcDbSymbolTableRecord
100
AcDbLayerTableRecord
  2
TRASH
 70
0
 62
7
  6
CONTINUOUS
370
-3
390
F
  0
LAYER
  5
220
100
AcDbSymbolTableRecord
100
AcDbLayerTableRecord
  2
WHITE
 70
0
 62
7
  6
CONTINUOUS
370
-3
390
F
  0
LAYER
  5
221
100
AcDbSymbolTableRecord
100
AcDbLayerTableRecord
  2
XSEC_DATUMS
 70
0
 62
7
  6
CONTINUOUS
370
-3
390
F
  0
ENDTAB
  0
TABLE
  2
STYLE
  5
3
100
AcDbSymbolTable
 70
1
  0
STYLE
  5
11
100
AcDbSymbolTableRecord
100
AcDbTextStyleTableRecord
  2
STANDARD
 70
0
 40
0.0
 41
0.8
 50
0.0
 71
0
 42
0.2
  3
txt
  4

  0
STYLE
  5
222
100
AcDbSymbolTableRecord
100
AcDbTextStyleTableRecord
  2
TEXTSTYLE_1
 70
0
 40
0.0
 41
0.8
 50
0.0
 71
0
 42
0.2
  3
gdt
  4

  0
ENDTAB
  0
TABLE
  2
VIEW
  5
6
100
AcDbSymbolTable
 70
0
  0
ENDTAB
  0
TABLE
  2
UCS
  5
7
100
AcDbSymbolTable
 70
0
  0
ENDTAB
  0
TABLE
  2
APPID
  5
9
100
AcDbSymbolTable
 70
1
  0
APPID
  5
223
100
AcDbSymbolTableRecord
100
AcDbRegAppTableRecord
  2
ACAD
 70
0
  0
ENDTAB
  0
TABLE
  2
BLOCK_RECORD
  5
1
100
AcDbSymbolTable
 70
0
  0
BLOCK_RECORD
  5
224
100
AcDbSymbolTableRecord
100
AcDbBlockTableRecord
  2
*Model_Space
  0
BLOCK_RECORD
  5
225
100
AcDbSymbolTableRecord
100
AcDbBlockTableRecord
  2
*Paper_Space
  0
ENDTAB
  0
TABLE
  2
DIMSTYLE
  5
A
100
AcDbSymbolTable
 70
1
100
AcDbDimStyleTable
 71
0
  0
DIMSTYLE
105
226
100
AcDbSymbolTableRecord
100
AcDbDimStyleTableRecord
  2
STANDARD
 70
0
  3

  4

 40
1.0
 41
3.0
 42
0.5
 43
0.38
 44
1.5
 45
0.0
 46
0.0
 47
0.01
 48
0.01
140
3.0
141
0.09
142
0.0
143
25.4
144
1.0
145
0.0
146
1.0
147
0.625
 71
1.0
 72
0.0
 73
0
 74
0
 75
0
 76
0
 77
1
 78
8
170
0
171
2
172
0
173
0
174
0
175
0
176
0
177
0
178
0
270
2
271
2
272
2
273
2
274
2
275
0
280
0
281
0
282
0
283
1
284
8
285
0
286
0
287
3
288
0
340
11
278
44
  0
ENDTAB
  0
ENDSEC
  0
SECTION
  2
BLOCKS
  0
BLOCK
  5
20
100
AcDbEntity
  8
0
100
AcDbBlockBegin
  2
*Model_Space
 70
0
 10
0.0
 20
0.0
 30
0.0
  3
*Model_Space
  1

  0
ENDBLK
  5
21
100
AcDbEntity
  8
0
100
AcDbBlockEnd
  0
BLOCK
  5
1C
100
AcDbEntity
  8
0
100
AcDbBlockBegin
  2
*Paper_Space
 70
0
 10
0.0
 20
0.0
 30
0.0
  3
*Paper_Space
  1

  0
ENDBLK
  5
1D
100
AcDbEntity
  8
0
100
AcDbBlockEnd
  0
ENDSEC
  0
SECTION
  2
ENTITIES
  0
LWPOLYLINE
  5
227
100
AcDbEntity
  8
ASSI
100
AcDbPolyline
 62
253
  6
CONTINUOUS
 90
3
 70
0
 10
111.4866782566
 20
136.5021085198
 10
111.4033044342
 20
136.4296836811
 10
111.3222178796
 20
136.3500474731
  0
LINE
  5
228
100
AcDbEntity
  8
268
100
AcDbLine
 62
7
  6
CONTINUOUS
 10
115.010619421
 20
141.0709302408
 11
116.5933760242
 21
141.8829143382
  0
LINE
  5
229
100
AcDbEntity
  8
268
100
AcDbLine
 62
7
  6
CONTINUOUS
 10
114.5266643087
 20
139.3282298388
 11
115.5388865928
 21
139.8451598015
  0
LINE
  5
22A
100
AcDbEntity
  8
268
100
AcDbLine
 62
253
  6
CONTINUOUS
 10
114.684187715
 20
139.3187965092
 11
115.5388865928
 21
139.7552811292
  0
LINE
  5
22B
100
AcDbEntity
  8
268
100
AcDbLine
 62
7
  6
CONTINUOUS
 10
116.6184408301
 20
140.2670195363
 11
118.2197216209
 21
141.0697415398
  0
LINE
  5
22C
100
AcDbEntity
  8
268
100
AcDbLine
 62
7
  6
CONTINUOUS
 10
118.2197216209
 20
141.0697415398
 11
118.7479887927
 21
141.3331803598
  0
LINE
  5
22D
100
AcDbEntity
  8
268
100
AcDbLine
 62
7
  6
CONTINUOUS
 10
116.5933760242
 20
141.8829143382
 11
117.1278259029
 21
142.1432618047
  0
LWPOLYLINE
  5
22E
100
AcDbEntity
  8
RACCORDO
100
AcDbPolyline
 62
253
  6
CONTINUOUS
 90
19
 70
0
 10
139.183125861
 20
83.4734410741
 10
139.1418882362
 20
83.4617643729
 10
139.1018022902
 20
83.4545096067
 10
139.062868023
 20
83.4516767757
 10
139.0248108195
 20
83.4532977551
 10
138.9879052948
 20
83.4593406696
 10
138.9529752938
 20
83.4697098935
 10
138.9200854475
 20
83.4845021199
 10
138.8891711248
 20
83.5036206557
 10
138.8608622781
 20
83.5266797958
 10
138.8352125871
 20
83.5537624264
 10
138.812168372
 20
83.5847856612
 10
138.7921985449
 20
83.619115136
 10
138.7753678476
 20
83.6568470634
 10
138.7616115382
 20
83.6978852307
 10
138.7512043036
 20
83.7413066354
 10
138.7442377062
 20
83.7868036101
 10
138.7406201835
 20
83.8346838222
 10
138.7403517356
 20
83.8849472718
  0
LWPOLYLINE
  5
22F
100
AcDbEntity
  8
ASSI
100
AcDbPolyline
 62
253
  6
CONTINUOUS
 90
19
 70
0
 10
139.183125861
 20
83.4734410741
 10
139.1418882362
 20
83.4617643729
 10
139.1018022902
 20
83.4545096067
 10
139.062868023
 20
83.4516767757
 10
139.0248108195
 20
83.4532977551
 10
138.9879052948
 20
83.4593406696
 10
138.9529752938
 20
83.4697098935
 10
138.9200854475
 20
83.4845021199
 10
138.8891711248
 20
83.5036206557
 10
138.8608622781
 20
83.5266797958
 10
138.8352125871
 20
83.5537624264
 10
138.812168372
 20
83.5847856612
 10
138.7921985449
 20
83.619115136
 10
138.7753678476
 20
83.6568470634
 10
138.7616115382
 20
83.6978852307
 10
138.7512043036
 20
83.7413066354
 10
138.7442377062
 20
83.7868036101
 10
138.7406201835
 20
83.8346838222
 10
138.7403517356
 20
83.8849472718
  0
LWPOLYLINE
  5
230
100
AcDbEntity
  8
RACCORDO
100
AcDbPolyline
 62
253
  6
CONTINUOUS
 90
6
 70
0
 10
146.557466802
 20
85.219656449
 10
146.5325870199
 20
85.2150211806
 10
146.5070727208
 20
85.2117560798
 10
146.4812280521
 20
85.2098826509
 10
146.4553123485
 20
85.2094004952
 10
146.4295096492
 20
85.2103206674
  0
LWPOLYLINE
  5
231
100
AcDbEntity
  8
ASSI
100
AcDbPolyline
 62
7
  6
CONTINUOUS
 90
3
 70
0
 10
138.6183948923
 20
82.944081724
 10
138.7878978986
 20
82.9739776363
 10
138.8807424142
 20
83.001097024
  0
LWPOLYLINE
  5
232
100
AcDbEntity
  8
RACCORDO
100
AcDbPolyline
 62
7
  6
CONTINUOUS
 90
3
 70
0
 10
138.579807265
 20
82.9407756187
 10
138.6805216091
 20
82.9521302789
 10
138.7819927511
 20
82.9725133997
  0
LINE
  5
233
100
AcDbEntity
  8
ASSI
100
AcDbLine
 62
7
  6
CONTINUOUS
 10
138.4487934581
 20
82.9392961812
 11
138.6183948923
 21
82.944081724
  0
LWPOLYLINE
  5
234
100
AcDbEntity
  8
ASSI
100
AcDbPolyline
 62
253
  6
CONTINUOUS
 90
4
 70
0
 10
110.9697150896
 20
135.864170464
 10
110.9131513747
 20
135.7540825333
 10
110.8622078957
 20
135.6413720966
 10
110.8172377966
 20
135.5268081504
  0
LWPOLYLINE
  5
235
100
AcDbEntity
  8
ASSI
100
AcDbPolyline
 62
253
  6
CONTINUOUS
 90
4
 70
0
 10
111.169115576
 20
136.1713585886
 10
111.0981321513
 20
136.0735190609
 10
111.0315126703
 20
135.9708907094
 10
110.9697150896
 20
135.864170464
  0
LWPOLYLINE
  5
236
100
AcDbEntity
  8
RACCORDO
100
AcDbPolyline
 62
253
  6
CONTINUOUS
 90
13
 70
0
 10
111.3222178796
 20
136.3500474731
 10
111.2439767452
 20
136.2637443369
 10
111.169115576
 20
136.1713585886
 10
111.0981321513
 20
136.0735190609
 10
111.0315126703
 20
135.9708907094
 10
110.9697150896
 20
135.864170464
 10
110.9131513747
 20
135.7540825333
 10
110.8622078957
 20
135.6413720966
 10
110.8172377966
 20
135.5268081504
 10
110.7785457217
 20
135.4111773949
 10
110.7463955509
 20
135.2952692597
 10
110.7210093652
 20
135.1798703559
 10
110.7025612956
 20
135.0657665227
  0
LWPOLYLINE
  5
237
100
AcDbEntity
  8
ASSI
100
AcDbPolyline
 62
253
  6
CONTINUOUS
 90
3
 70
0
 10
111.3222178796
 20
136.3500474731
 10
111.2439767452
 20
136.2637443369
 10
111.169115576
 20
136.1713585886
  0
LWPOLYLINE
  5
238
100
AcDbEntity
  8
268
100
AcDbPolyline
 62
7
  6
CONTINUOUS
 90
12
 70
0
 10
126.1838475179
 20
142.5506442853
 10
126.1775607265
 20
142.5472879117
 10
126.1657062999
 20
142.5397836385
 10
126.1540511199
 20
142.5309111273
 10
126.1425555251
 20
142.5207260167
 10
126.1312642274
 20
142.5092949443
 10
126.120119161
 20
142.4966479182
 10
126.1090522816
 20
142.482818382
 10
126.0981061624
 20
142.4678488832
 10
126.0872588613
 20
142.451765956
 10
126.0764204325
 20
142.4345977017
 10
126.0655360646
 20
142.4163790702
  0
LWPOLYLINE
  5
239
100
AcDbEntity
  8
ASSI
100
AcDbPolyline
 62
7
  6
CONTINUOUS
 90
10
 70
0
 10
111.4473982944
 20
136.7225712446
 10
111.2726803096
 20
136.6297345248
 10
111.104361198
 20
136.5070323015
 10
110.9502465318
 20
136.3597570946
 10
110.8095623314
 20
136.1868701825
 10
110.6858718645
 20
135.9903103704
 10
110.5880496668
 20
135.7845148631
 10
110.5170914728
 20
135.5763766483
 10
110.4713233373
 20
135.3625848301
 10
110.4666690256
 20
135.329611252
  0
LINE
  5
23A
100
AcDbEntity
  8
268
100
AcDbLine
 62
7
  6
CONTINUOUS
 10
118.2197216209
 20
139.3376907322
 11
117.1528907088
 21
138.7991094827
  0
LINE
  5
23B
100
AcDbEntity
  8
268
100
AcDbLine
 62
7
  6
CONTINUOUS
 10
119.6755025975
 20
139.3093493359
 11
126.1835392241
 21
142.5504909415
  0
LINE
  5
23C
100
AcDbEntity
  8
268
100
AcDbLine
 62
253
  6
CONTINUOUS
 10
119.750995738
 20
139.2716027657
 11
126.0655360646
 21
142.4163790702
  0
LINE
  5
23D
100
AcDbEntity
  8
268
100
AcDbLine
 62
7
  6
CONTINUOUS
 10
120.9774380676
 20
139.1712680742
 11
126.455078057
 21
141.8396000374
  0
LWPOLYLINE
  5
23E
100
AcDbEntity
  8
RACCORDO
100
AcDbPolyline
 62
7
  6
CONTINUOUS
 90
16
 70
0
 10
111.4794098725
 20
136.7361738348
 10
111.3941133168
 20
136.6976557681
 10
111.3022250525
 20
136.6477439811
 10
111.2127430195
 20
136.5900922832
 10
111.1261716954
 20
136.5249929712
 10
111.0433595168
 20
136.4532052853
 10
110.9642758627
 20
136.3747876827
 10
110.8891334765
 20
136.2899154459
 10
110.818946564
 20
136.1998274403
 10
110.7537839556
 20
136.1046790393
 10
110.6938253335
 20
136.0046643909
 10
110.6400033056
 20
135.901415775
 10
110.5924194602
 20
135.7951924854
 10
110.5511965365
 20
135.6861626653
 10
110.516978879
 20
135.5759714371
 10
110.4899448861
 20
135.46530119
  0
LWPOLYLINE
  5
23F
100
AcDbEntity
  8
RACCORDO
100
AcDbPolyline
 62
253
  6
CONTINUOUS
 90
7
 70
0
 10
111.8315539469
 20
136.7105633491
 10
111.7448108164
 20
136.6714008955
 10
111.6580197977
 20
136.6233782491
 10
111.5717770682
 20
136.5668206671
 10
111.4866782566
 20
136.5021085198
 10
111.4033044342
 20
136.4296836811
 10
111.3222178796
 20
136.3500474731
  0
LWPOLYLINE
  5
240
100
AcDbEntity
  8
ASSI
100
AcDbPolyline
 62
253
  6
CONTINUOUS
 90
5
 70
0
 10
111.8315539469
 20
136.7105633491
 10
111.7448108164
 20
136.6714008955
 10
111.6580197977
 20
136.6233782491
 10
111.5717770682
 20
136.5668206671
 10
111.4866782566
 20
136.5021085198
  0
LINE
  5
241
100
AcDbEntity
  8
ASSI
100
AcDbLine
 62
7
  6
CONTINUOUS
 10
111.4791597064
 20
136.7360713422
 11
111.4473982944
 21
136.7225712446
  0
LINE
  5
242
100
AcDbEntity
  8
RACCORDO
100
AcDbLine
 62
7
  6
CONTINUOUS
 10
115.3955160478
 20
138.336976979
 11
111.4794034541
 21
136.7361895299
  0
LINE
  5
243
100
AcDbEntity
  8
ASSI
100
AcDbLine
 62
7
  6
CONTINUOUS
 10
115.3955160478
 20
138.336976979
 11
111.4791532861
 21
136.736087027
  0
LINE
  5
244
100
AcDbEntity
  8
RACCORDO
100
AcDbLine
 62
253
  6
CONTINUOUS
 10
115.7437182191
 20
138.309736807
 11
111.8315539469
 21
136.7105633491
  0
LINE
  5
245
100
AcDbEntity
  8
ASSI
100
AcDbLine
 62
253
  6
CONTINUOUS
 10
115.7437182191
 20
138.309736807
 11
111.8315539469
 21
136.7105633491
  0
LWPOLYLINE
  5
246
100
AcDbEntity
  8
268
100
AcDbPolyline
 62
7
  6
CONTINUOUS
 90
3
 70
0
 10
126.2022952563
 20
142.558101628
 10
126.1897302366
 20
142.5534025772
 10
126.1838475179
 20
142.5506442853
  0
LWPOLYLINE
  5
247
100
AcDbEntity
  8
268
100
AcDbPolyline
 62
7
  6
CONTINUOUS
 90
10
 70
0
 10
126.2022952563
 20
142.558101628
 10
126.2115348771
 20
142.560847427
 10
126.220098031
 20
142.5631131455
 10
126.2279847179
 20
142.5648987835
 10
126.2352340762
 20
142.5662251881
 10
126.2418069675
 20
142.5670715123
 10
126.2475859769
 20
142.567375215
 10
126.2525669341
 20
142.5671358792
 10
126.2567540093
 20
142.566353922
 10
126.2593436904
 20
142.5653574889
  0
LWPOLYLINE
  5
248
100
AcDbEntity
  8
RACCORDO
100
AcDbPolyline
 62
7
  6
CONTINUOUS
 90
3
 70
0
 10
138.3821308378
 20
82.9444055552
 10
138.480304655
 20
82.9382676304
 10
138.579807265
 20
82.9407756187
  0
LINE
  5
249
100
AcDbEntity
  8
ASSI
100
AcDbLine
 62
7
  6
CONTINUOUS
 10
138.2834839606
 20
82.9594906063
 11
138.4487934581
 21
82.9392961812
  0
LWPOLYLINE
  5
24A
100
AcDbEntity
  8
ASSI
100
AcDbPolyline
 62
253
  6
CONTINUOUS
 90
4
 70
0
 10
110.8172377966
 20
135.5268081504
 10
110.7785457217
 20
135.4111773949
 10
110.7463955509
 20
135.2952692597
 10
110.7210093652
 20
135.1798703559
  0
LINE
  5
24B
100
AcDbEntity
  8
268
100
AcDbLine
 62
7
  6
CONTINUOUS
 10
118.8348404559
 20
140.7121827732
 11
118.3075957402
 21
140.0704750451
  0
LINE
  5
24C
100
AcDbEntity
  8
268
100
AcDbLine
 62
7
  6
CONTINUOUS
 10
120.4841160523
 20
138.9181845423
 11
120.9774380676
 21
139.1712680742
  0
LINE
  5
24D
100
AcDbEntity
  8
268
100
AcDbLine
 62
7
  6
CONTINUOUS
 10
127.0585563858
 20
141.5366355395
 11
122.3209409518
 21
139.2015850249
  0
LINE
  5
24E
100
AcDbEntity
  8
268
100
AcDbLine
 62
7
  6
CONTINUOUS
 10
126.6342923171
 20
140.0972039373
 11
127.0585563858
 21
140.3048013581
  0
LINE
  5
24F
100
AcDbEntity
  8
268
100
AcDbLine
 62
7
  6
CONTINUOUS
 10
129.0446259655
 20
140.9268341198
 11
126.9878457076
 21
139.920427242
  0
LWPOLYLINE
  5
250
100
AcDbEntity
  8
RACCORDO
100
AcDbPolyline
 62
253
  6
CONTINUOUS
 90
22
 70
0
 10
126.0316236858
 20
138.597063067
 10
126.0347519989
 20
138.598472999
 10
126.0440004614
 20
138.6022468931
 10
126.0534600757
 20
138.6055293486
 10
126.063120716
 20
138.6083168518
 10
126.0729720417
 20
138.610606419
 10
126.0830035077
 20
138.6123955994
 10
126.0932043761
 20
138.6136824779
 10
126.1035637281
 20
138.6144656769
 10
126.1140704746
 20
138.6147443581
 10
126.1247133693
 20
138.6145182232
 10
126.1354810198
 20
138.6137875143
 10
126.1463619005
 20
138.6125530136
 10
126.1573443641
 20
138.6108160423
 10
126.1684166551
 20
138.6085784599
 10
126.1795669215
 20
138.6058426614
 10
126.1907832279
 20
138.6026115752
 10
126.2020535684
 20
138.59888866
 10
126.2133658789
 20
138.5946779008
 10
126.2247080508
 20
138.5899838048
 10
126.2360679432
 20
138.5848113967
 10
126.2474333964
 20
138.579166213
  0
LINE
  5
251
100
AcDbEntity
  8
RACCORDO
100
AcDbLine
 62
253
  6
CONTINUOUS
 10
126.3782119251
 20
138.6406364532
 11
126.3853106316
 21
138.6437042377
  0
LINE
  5
252
100
AcDbEntity
  8
RACCORDO
100
AcDbLine
 62
253
  6
CONTINUOUS
 10
126.3853106316
 20
138.6437042377
 11
126.3925455715
 21
138.6467826384
  0
LINE
  5
253
100
AcDbEntity
  8
RACCORDO
100
AcDbLine
 62
253
  6
CONTINUOUS
 10
126.3925455715
 20
138.6467826384
 11
126.3999213995
 21
138.6498693306
  0
LINE
  5
254
100
AcDbEntity
  8
RACCORDO
100
AcDbLine
 62
253
  6
CONTINUOUS
 10
126.3999213995
 20
138.6498693306
 11
126.407442511
 21
138.6529618156
  0
LINE
  5
255
100
AcDbEntity
  8
RACCORDO
100
AcDbLine
 62
253
  6
CONTINUOUS
 10
126.407442511
 20
138.6529618156
 11
126.4151118538
 21
138.6560584204
  0
LINE
  5
256
100
AcDbEntity
  8
RACCORDO
100
AcDbLine
 62
253
  6
CONTINUOUS
 10
126.4151118538
 20
138.6560584204
 11
126.4229338819
 21
138.6591566266
  0
LINE
  5
257
100
AcDbEntity
  8
RACCORDO
100
AcDbLine
 62
253
  6
CONTINUOUS
 10
126.4229338819
 20
138.6591566266
 11
126.4309127441
 21
138.6622537189
  0
LINE
  5
258
100
AcDbEntity
  8
RACCORDO
100
AcDbLine
 62
253
  6
CONTINUOUS
 10
126.4309127441
 20
138.6622537189
 11
126.4390510758
 21
138.6653478234
  0
LINE
  5
259
100
AcDbEntity
  8
RACCORDO
100
AcDbLine
 62
253
  6
CONTINUOUS
 10
126.4390510758
 20
138.6653478234
 11
126.4473526432
 21
138.6684360332
  0
LINE
  5
25A
100
AcDbEntity
  8
RACCORDO
100
AcDbLine
 62
253
  6
CONTINUOUS
 10
126.4473526432
 20
138.6684360332
 11
126.4558207927
 21
138.6715152269
  0
LINE
  5
25B
100
AcDbEntity
  8
RACCORDO
100
AcDbLine
 62
253
  6
CONTINUOUS
 10
126.4558207927
 20
138.6715152269
 11
126.46445799
 21
138.6745833896
  0
LINE
  5
25C
100
AcDbEntity
  8
RACCORDO
100
AcDbLine
 62
253
  6
CONTINUOUS
 10
126.46445799
 20
138.6745833896
 11
126.4732683659
 21
138.6776376306
  0
LINE
  5
25D
100
AcDbEntity
  8
RACCORDO
100
AcDbLine
 62
253
  6
CONTINUOUS
 10
126.4732683659
 20
138.6776376306
 11
126.4822551546
 21
138.6806746461
  0
LINE
  5
25E
100
AcDbEntity
  8
RACCORDO
100
AcDbLine
 62
253
  6
CONTINUOUS
 10
126.4822551546
 20
138.6806746461
 11
126.4914202748
 21
138.6836921442
  0
LINE
  5
25F
100
AcDbEntity
  8
RACCORDO
100
AcDbLine
 62
253
  6
CONTINUOUS
 10
126.4914202748
 20
138.6836921442
 11
126.5007661335
 21
138.686686505
  0
LINE
  5
260
100
AcDbEntity
  8
RACCORDO
100
AcDbLine
 62
253
  6
CONTINUOUS
 10
126.5007661335
 20
138.686686505
 11
126.510295069
 21
138.6896540354
  0
LINE
  5
261
100
AcDbEntity
  8
RACCORDO
100
AcDbLine
 62
253
  6
CONTINUOUS
 10
126.510295069
 20
138.6896540354
 11
126.520008539
 21
138.6925922291
  0
LWPOLYLINE
  5
262
100
AcDbEntity
  8
RACCORDO
100
AcDbPolyline
 62
253
  6
CONTINUOUS
 90
3
 70
0
 10
126.520008539
 20
138.6925922291
 10
126.5299086765
 20
138.6954972877
 10
126.5349291874
 20
138.6969360256
  0
LWPOLYLINE
  5
263
100
AcDbEntity
  8
RACCORDO
100
AcDbPolyline
 62
7
  6
CONTINUOUS
 90
3
 70
0
 10
138.1926567352
 20
82.9817328125
 10
138.2860270853
 20
82.9589856661
 10
138.3821308378
 20
82.9444055552
  0
LINE
  5
264
100
AcDbEntity
  8
ASSI
100
AcDbLine
 62
7
  6
CONTINUOUS
 10
138.1264482298
 20
83.0033618082
 11
138.2834839606
 21
82.9594906063
  0
LINE
  5
265
100
AcDbEntity
  8
RACCORDO
100
AcDbLine
 62
7
  6
CONTINUOUS
 10
138.1021631554
 20
83.0124951803
 11
138.1926567352
 21
82.9817328125
  0
LWPOLYLINE
  5
266
100
AcDbEntity
  8
ASSI
100
AcDbPolyline
 62
7
  6
CONTINUOUS
 90
4
 70
0
 10
107.7572022879
 20
98.2872598805
 10
107.8977348392
 20
98.1435377498
 10
108.0592311332
 20
98.0306157865
 10
108.106795008
 20
98.0051613517
  0
LWPOLYLINE
  5
267
100
AcDbEntity
  8
ASSI
100
AcDbPolyline
 62
7
  6
CONTINUOUS
 90
3
 70
0
 10
107.5562224578
 20
98.6582802615
 10
107.6410375213
 20
98.461356643
 10
107.7572022879
 20
98.2872598805
  0
LWPOLYLINE
  5
268
100
AcDbEntity
  8
RACCORDO
100
AcDbPolyline
 62
7
  6
CONTINUOUS
 90
14
 70
0
 10
107.4885813998
 20
99.1146648067
 10
107.4919695775
 20
98.9918465601
 10
107.5049776993
 20
98.8733618513
 10
107.5272787609
 20
98.7598015553
 10
107.5585522084
 20
98.6512872824
 10
107.5986056389
 20
98.547904943
 10
107.6471186148
 20
98.4502664502
 10
107.703676924
 20
98.3589214848
 10
107.7678980071
 20
98.2742839421
 10
107.8391711086
 20
98.197027554
 10
107.9167839662
 20
98.1277641947
 10
107.9999991034
 20
98.0669184407
 10
108.0879225455
 20
98.0148856989
 10
108.110060433
 20
98.0035243872
  0
LWPOLYLINE
  5
269
100
AcDbEntity
  8
RACCORDO
100
AcDbPolyline
 62
253
  6
CONTINUOUS
 90
11
 70
0
 10
107.7235308577
 20
98.8625954609
 10
107.7237832277
 20
98.7555729797
 10
107.7311993916
 20
98.6525881556
 10
107.7457276468
 20
98.5543429816
 10
107.7672657493
 20
98.4615071872
 10
107.7956669008
 20
98.3747141961
 10
107.8307399063
 20
98.2945560206
 10
107.8722400624
 20
98.2215815069
 10
107.9198829943
 20
98.1562849891
 10
107.9733523508
 20
98.0991042294
 10
108.0322797484
 20
98.0504308489
  0
LWPOLYLINE
  5
26A
100
AcDbEntity
  8
ASSI
100
AcDbPolyline
 62
253
  6
CONTINUOUS
 90
13
 70
0
 10
107.7235308577
 20
98.8625954609
 10
107.7237832277
 20
98.7555729797
 10
107.7311993916
 20
98.6525881556
 10
107.7457276468
 20
98.5543429816
 10
107.7672657493
 20
98.4615071872
 10
107.7956669008
 20
98.3747141961
 10
107.8307399063
 20
98.2945560206
 10
107.8722400624
 20
98.2215815069
 10
107.9198829943
 20
98.1562849891
 10
107.9733523508
 20
98.0991042294
 10
108.0322797484
 20
98.0504308489
 10
108.0962610999
 20
98.0105977732
 10
108.1066913826
 20
98.0051886027
  0
LWPOLYLINE
  5
26B
100
AcDbEntity
  8
ASSI
100
AcDbPolyline
 62
7
  6
CONTINUOUS
 90
4
 70
0
 10
107.4892205985
 20
99.1442341868
 10
107.488493991
 20
99.0857787563
 10
107.5057929307
 20
98.868088308
 10
107.5562224578
 20
98.6582802615
  0
LINE
  5
26C
100
AcDbEntity
  8
RACCORDO
100
AcDbLine
 62
7
  6
CONTINUOUS
 10
107.4892112593
 20
99.1439297191
 11
107.4885813998
 21
99.1146648067
  0
LINE
  5
26D
100
AcDbEntity
  8
RACCORDO
100
AcDbLine
 62
7
  6
CONTINUOUS
 10
107.4892112593
 20
99.1439297191
 11
107.4892181482
 21
99.1441558904
  0
LINE
  5
26E
100
AcDbEntity
  8
ASSI
100
AcDbLine
 62
7
  6
CONTINUOUS
 10
107.4892181391
 20
99.1441555982
 11
107.4892205985
 21
99.1442341868
  0
LINE
  5
26F
100
AcDbEntity
  8
ASSI
100
AcDbLine
 62
7
  6
CONTINUOUS
 10
107.6238855788
 20
102.8293062709
 11
107.4892059301
 21
99.1441559702
  0
LWPOLYLINE
  5
270
100
AcDbEntity
  8
RACCORDO
100
AcDbPolyline
 62
7
  6
CONTINUOUS
 90
10
 70
0
 10
110.0854894915
 20
132.3402073698
 10
109.7182085709
 20
129.2665407554
 10
109.3770177287
 20
126.2014045102
 10
109.0619686619
 20
123.1452313724
 10
108.7730994479
 20
120.0984015451
 10
108.5104444155
 20
117.0612748038
 10
108.2740382023
 20
114.0342252265
 10
108.0639101981
 20
111.0176248431
 10
107.8800876838
 20
108.0118305414
 10
107.7225974261
 20
105.017218003
  0
LWPOLYLINE
  5
271
100
AcDbEntity
  8
ASSI
100
AcDbPolyline
 62
7
  6
CONTINUOUS
 90
9
 70
0
 10
110.4667272616
 20
135.3301519509
 10
109.9878140351
 20
131.542929036
 10
109.5061139736
 20
127.3879633723
 10
109.0722606021
 20
123.2490906774
 10
108.6863592393
 20
119.1273024644
 10
108.3484973431
 20
115.0235190675
 10
108.0587522171
 20
110.9386394776
 10
107.817193893
 20
106.8735769688
 10
107.6238855788
 20
102.8293062709
  0
LINE
  5
272
100
AcDbEntity
  8
RACCORDO
100
AcDbLine
 62
7
  6
CONTINUOUS
 10
110.4667272327
 20
135.3301517309
 11
110.0854894915
 21
132.3402073698
  0
LINE
  5
273
100
AcDbEntity
  8
ASSI
100
AcDbLine
 62
253
  6
CONTINUOUS
 10
110.7210093652
 20
135.1798703559
 11
110.7025612956
 21
135.0657665227
  0
LWPOLYLINE
  5
274
100
AcDbEntity
  8
RACCORDO
100
AcDbPolyline
 62
7
  6
CONTINUOUS
 90
3
 70
0
 10
110.4899448861
 20
135.46530119
 10
110.4700386009
 20
135.3539352271
 10
110.466725919
 20
135.330053444
  0
LINE
  5
275
100
AcDbEntity
  8
268
100
AcDbLine
 62
7
  6
CONTINUOUS
 10
128.3856302142
 20
140.0667613059
 11
126.9878457076
 21
139.3678690526
  0
LWPOLYLINE
  5
276
100
AcDbEntity
  8
RACCORDO
100
AcDbPolyline
 62
7
  6
CONTINUOUS
 90
6
 70
0
 10
125.9977837938
 20
138.5814346834
 10
125.9890775654
 20
138.57708575
 10
125.9809758044
 20
138.5724068316
 10
125.9731585301
 20
138.5672493366
 10
125.9656312469
 20
138.5616173752
 10
125.9597492518
 20
138.556708181
  0
LINE
  5
277
100
AcDbEntity
  8
268
100
AcDbLine
 62
7
  6
CONTINUOUS
 10
132.0083038541
 20
139.0617618053
 11
127.2706884201
 21
136.7267112907
  0
LINE
  5
278
100
AcDbEntity
  8
RACCORDO
100
AcDbLine
 62
253
  6
CONTINUOUS
 10
126.2659942898
 20
138.5878863713
 11
126.3227722709
 21
138.6152400384
  0
LINE
  5
279
100
AcDbEntity
  8
RACCORDO
100
AcDbLine
 62
253
  6
CONTINUOUS
 10
126.2579861023
 20
138.5840908284
 11
126.2659942898
 21
138.5878863713
  0
LINE
  5
27A
100
AcDbEntity
  8
RACCORDO
100
AcDbLine
 62
253
  6
CONTINUOUS
 10
126.3227722709
 20
138.6152400384
 11
126.3351009554
 21
138.6210768218
  0
LINE
  5
27B
100
AcDbEntity
  8
RACCORDO
100
AcDbLine
 62
253
  6
CONTINUOUS
 10
126.2500590262
 20
138.5803827389
 11
126.2579861023
 21
138.5840908284
  0
LINE
  5
27C
100
AcDbEntity
  8
RACCORDO
100
AcDbLine
 62
253
  6
CONTINUOUS
 10
126.3351009554
 20
138.6210768218
 11
126.3446168185
 21
138.6255179785
  0
LINE
  5
27D
100
AcDbEntity
  8
RACCORDO
100
AcDbLine
 62
253
  6
CONTINUOUS
 10
126.2099744004
 20
138.5618664073
 11
126.2500590262
 21
138.5803827389
  0
LINE
  5
27E
100
AcDbEntity
  8
0
100
AcDbLine
 62
7
  6
CONTINUOUS
 10
140.6117769956
 20
143.2968344905
 11
131.9011554243
 21
139.2739807888
  0
LINE
  5
27F
100
AcDbEntity
  8
0
100
AcDbLine
 62
253
  6
CONTINUOUS
 10
140.8285997638
 20
143.2794036556
 11
132.1194935602
 21
139.2572516454
  0
LINE
  5
280
100
AcDbEntity
  8
0
100
AcDbLine
 62
7
  6
CONTINUOUS
 10
141.8482603722
 20
143.3850318418
 11
141.2831742492
 21
143.1240563439
  0
LINE
  5
281
100
AcDbEntity
  8
0
100
AcDbLine
 62
253
  6
CONTINUOUS
 10
141.9345817111
 20
143.3778719246
 11
141.3320662765
 21
143.0996103302
  0
LINE
  5
282
100
AcDbEntity
  8
RACCORDO
100
AcDbLine
 62
253
  6
CONTINUOUS
 10
126.3446168185
 20
138.6255179785
 11
126.3543808971
 21
138.6300074072
  0
LWPOLYLINE
  5
283
100
AcDbEntity
  8
RACCORDO
100
AcDbPolyline
 62
7
  6
CONTINUOUS
 90
3
 70
0
 10
126.0580743942
 20
138.6091756029
 10
126.047582669
 20
138.6043994221
 10
125.9978192983
 20
138.5814510807
  0
LWPOLYLINE
  5
284
100
AcDbEntity
  8
RACCORDO
100
AcDbPolyline
 62
253
  6
CONTINUOUS
 90
17
 70
0
 10
127.2019472395
 20
138.6891719426
 10
127.207760685
 20
138.69180781
 10
127.2135601159
 20
138.6941440664
 10
127.2193357183
 20
138.696176758
 10
127.2250777183
 20
138.6979024452
 10
127.230776399
 20
138.6993182076
 10
127.2364221168
 20
138.7004216493
 10
127.2420053178
 20
138.7012109032
 10
127.2475165536
 20
138.7016846336
 10
127.2529464979
 20
138.7018420387
 10
127.2582859618
 20
138.7016828523
 10
127.2635259097
 20
138.7012073438
 10
127.2686574742
 20
138.7004163178
 10
127.2736719713
 20
138.6993111129
 10
127.2785609154
 20
138.6978935994
 10
127.2833160329
 20
138.6961661762
 10
127.2878878181
 20
138.6941500496
  0
LINE
  5
285
100
AcDbEntity
  8
RACCORDO
100
AcDbLine
 62
253
  6
CONTINUOUS
 10
126.3543808971
 20
138.6300074072
 11
126.3610353987
 21
138.6330243134
  0
LINE
  5
286
100
AcDbEntity
  8
RACCORDO
100
AcDbLine
 62
253
  6
CONTINUOUS
 10
126.3610353987
 20
138.6330243134
 11
126.3678111875
 21
138.6360581729
  0
LWPOLYLINE
  5
287
100
AcDbEntity
  8
RACCORDO
100
AcDbPolyline
 62
253
  6
CONTINUOUS
 90
3
 70
0
 10
126.3678111875
 20
138.6360581729
 10
126.3747130836
 20
138.6391068367
 10
126.3782119251
 20
138.6406364532
  0
LWPOLYLINE
  5
288
100
AcDbEntity
  8
0
100
AcDbPolyline
 62
253
  6
CONTINUOUS
 90
24
 70
0
 10
140.6117738702
 20
143.2968330471
 10
140.618997562
 20
143.2999860968
 10
140.6273088651
 20
143.3031787947
 10
140.6357873626
 20
143.3059836084
 10
140.6444258742
 20
143.3083981586
 10
140.6532170335
 20
143.3104203777
 10
140.6621534203
 20
143.3120485663
 10
140.6712275062
 20
143.3132813584
 10
140.6804315818
 20
143.3141176888
 10
140.6897579091
 20
143.3145568649
 10
140.699198615
 20
143.3145985229
 10
140.7087456362
 20
143.3142425949
 10
140.7183909305
 20
143.3134894017
 10
140.7281263817
 20
143.312339594
 10
140.7379436946
 20
143.3107941041
 10
140.7478346326
 20
143.3088542565
 10
140.757790852
 20
143.306521708
 10
140.7678038068
 20
143.3037983917
 10
140.7778649861
 20
143.3006866668
 10
140.7879660219
 20
143.2971891639
 10
140.7980985268
 20
143.2933086908
 10
140.8082540221
 20
143.2890484649
 10
140.8184239419
 20
143.284412143
 10
140.8285997428
 20
143.2794036459
  0
LINE
  5
289
100
AcDbEntity
  8
RACCORDO
100
AcDbLine
 62
253
  6
CONTINUOUS
 10
148.059627787
 20
84.8992966206
 11
147.5292977011
 21
85.0091315777
  0
LINE
  5
28A
100
AcDbEntity
  8
RACCORDO
100
AcDbLine
 62
253
  6
CONTINUOUS
 10
147.9712394394
 20
85.2193791421
 11
147.4409093535
 21
85.3292140991
  0
LINE
  5
28B
100
AcDbEntity
  8
ASSI
100
AcDbLine
 62
7
  6
CONTINUOUS
 10
138.0072308587
 20
83.0549710693
 11
138.1264482298
 21
83.0033618082
  0
LINE
  5
28C
100
AcDbEntity
  8
RACCORDO
100
AcDbLine
 62
7
  6
CONTINUOUS
 10
138.0117820574
 20
83.052662605
 11
138.1021631554
 21
83.0124951803
  0
LWPOLYLINE
  5
28D
100
AcDbEntity
  8
RACCORDO
100
AcDbPolyline
 62
253
  6
CONTINUOUS
 90
16
 70
0
 10
137.6192831424
 20
83.9147193403
 10
137.6807912262
 20
83.8869411366
 10
137.7476972343
 20
83.8622107837
 10
137.8192842791
 20
83.8407932636
 10
137.894785316
 20
83.8229180617
 10
137.9733913627
 20
83.8087767083
 10
138.0542601673
 20
83.7985207263
 10
138.1365252328
 20
83.7922600068
 10
138.2193051011
 20
83.7900616327
 10
138.3017127986
 20
83.791949159
 10
138.382865339
 20
83.7979023614
 10
138.4618931852
 20
83.807857452
 10
138.5379495656
 20
83.8217077636
 10
138.6102195475
 20
83.8393048922
 10
138.6779287689
 20
83.8604602872
 10
138.7403517356
 20
83.8849472718
  0
LWPOLYLINE
  5
28E
100
AcDbEntity
  8
ASSI
100
AcDbPolyline
 62
253
  6
CONTINUOUS
 90
16
 70
0
 10
137.6192831424
 20
83.9147193403
 10
137.6807912262
 20
83.8869411366
 10
137.7476972343
 20
83.8622107837
 10
137.8192842791
 20
83.8407932636
 10
137.894785316
 20
83.8229180617
 10
137.9733913627
 20
83.8087767083
 10
138.0542601673
 20
83.7985207263
 10
138.1365252328
 20
83.7922600068
 10
138.2193051011
 20
83.7900616327
 10
138.3017127986
 20
83.791949159
 10
138.382865339
 20
83.7979023614
 10
138.4618931852
 20
83.807857452
 10
138.5379495656
 20
83.8217077636
 10
138.6102195475
 20
83.8393048922
 10
138.6779287689
 20
83.8604602872
 10
138.7403517356
 20
83.8849472718
  0
LINE
  5
28F
100
AcDbEntity
  8
RACCORDO
100
AcDbLine
 62
7
  6
CONTINUOUS
 10
138.0122937739
 20
83.0523821045
 11
108.1087088046
 21
98.0041745892
  0
LINE
  5
290
100
AcDbEntity
  8
RACCORDO
100
AcDbLine
 62
253
  6
CONTINUOUS
 10
137.6192831195
 20
83.91471933
 11
107.7235308577
 21
98.8625954609
  0
LINE
  5
291
100
AcDbEntity
  8
ASSI
100
AcDbLine
 62
253
  6
CONTINUOUS
 10
137.6192831195
 20
83.91471933
 11
107.7235308577
 21
98.8625954609
  0
LINE
  5
292
100
AcDbEntity
  8
ASSI
100
AcDbLine
 62
7
  6
CONTINUOUS
 10
108.1066913826
 20
98.0051886027
 11
138.0122937739
 21
83.0523821045
  0
LINE
  5
293
100
AcDbEntity
  8
ASSI
100
AcDbLine
 62
253
  6
CONTINUOUS
 10
138.0122630488
 20
83.0523974671
 11
138.0071372038
 21
83.054992655
  0
LWPOLYLINE
  5
294
100
AcDbEntity
  8
RACCORDO
100
AcDbPolyline
 62
253
  6
CONTINUOUS
 90
13
 70
0
 10
138.011674121
 20
83.0526923582
 10
137.9995672219
 20
83.0589447122
 10
137.9344334927
 20
83.0993539768
 10
137.8744345379
 20
83.1485631359
 10
137.8199761544
 20
83.206238409
 10
137.7714250161
 20
83.27198903
 10
137.729115885
 20
83.3453680312
 10
137.6933352194
 20
83.4258800368
 10
137.6643256393
 20
83.5129772422
 10
137.6422905008
 20
83.6060615546
 10
137.6273806558
 20
83.7044975235
 10
137.6196942945
 20
83.8076174463
 10
137.6192831195
 20
83.91471933
  0
LWPOLYLINE
  5
295
100
AcDbEntity
  8
ASSI
100
AcDbPolyline
 62
253
  6
CONTINUOUS
 90
13
 70
0
 10
138.0071372038
 20
83.054992655
 10
137.9995672219
 20
83.0589447122
 10
137.9344334927
 20
83.0993539768
 10
137.8744345379
 20
83.1485631359
 10
137.8199761544
 20
83.206238409
 10
137.7714250161
 20
83.27198903
 10
137.729115885
 20
83.3453680312
 10
137.6933352194
 20
83.4258800368
 10
137.6643256393
 20
83.5129772422
 10
137.6422905008
 20
83.6060615546
 10
137.6273806558
 20
83.7044975235
 10
137.6196942945
 20
83.8076174463
 10
137.6192831195
 20
83.91471933
  0
LWPOLYLINE
  5
296
100
AcDbEntity
  8
RACCORDO
100
AcDbPolyline
 62
253
  6
CONTINUOUS
 90
9
 70
0
 10
107.7235454001
 20
98.8626020694
 10
107.6680998529
 20
98.8933005522
 10
107.6193051796
 20
98.9264202437
 10
107.5776841981
 20
98.9616062778
 10
107.5436828626
 20
98.9984816488
 10
107.5176654853
 20
99.03665125
 10
107.4999108334
 20
99.0757061081
 10
107.4906091417
 20
99.115227764
 10
107.4892112593
 20
99.1439297191
  0
LWPOLYLINE
  5
297
100
AcDbEntity
  8
ASSI
100
AcDbPolyline
 62
253
  6
CONTINUOUS
 90
9
 70
0
 10
107.7235454001
 20
98.8626020694
 10
107.6680998529
 20
98.8933005522
 10
107.6193051796
 20
98.9264202437
 10
107.5776841981
 20
98.9616062778
 10
107.5436828626
 20
98.9984816488
 10
107.5176654853
 20
99.03665125
 10
107.4999108334
 20
99.0757061081
 10
107.4906091417
 20
99.115227764
 10
107.4892181391
 20
99.1441555982
  0
LINE
  5
298
100
AcDbEntity
  8
RACCORDO
100
AcDbLine
 62
253
  6
CONTINUOUS
 10
108.0322797484
 20
98.0504308489
 11
108.0962610999
 21
98.0105977732
  0
LINE
  5
299
100
AcDbEntity
  8
ASSI
100
AcDbLine
 62
253
  6
CONTINUOUS
 10
107.8284779593
 20
101.8207338273
 11
107.7235308577
 21
98.8625954609
  0
LWPOLYLINE
  5
29A
100
AcDbEntity
  8
RACCORDO
100
AcDbPolyline
 62
7
  6
CONTINUOUS
 90
3
 70
0
 10
107.7225974261
 20
105.017218003
 10
107.5914606242
 20
102.0342082317
 10
107.4892059392
 20
99.1441562624
  0
LWPOLYLINE
  5
29B
100
AcDbEntity
  8
RACCORDO
100
AcDbPolyline
 62
253
  6
CONTINUOUS
 90
13
 70
0
 10
110.7025612956
 20
135.0657665227
 10
110.3115748321
 20
131.9969883914
 10
109.9464112526
 20
128.9363651931
 10
109.6071166558
 20
125.8842810034
 10
109.2937339258
 20
122.8411188475
 10
109.0063024534
 20
119.8072606737
 10
108.7448581344
 20
116.7830873071
 10
108.5094336432
 20
113.7689784516
 10
108.3000586784
 20
110.7653124027
 10
108.1167596917
 20
107.7724660229
 10
107.959559636
 20
104.7908150057
 10
107.8284779593
 20
101.8207338273
 10
107.7235308577
 20
98.8625954609
  0
LWPOLYLINE
  5
29C
100
AcDbEntity
  8
ASSI
100
AcDbPolyline
 62
253
  6
CONTINUOUS
 90
12
 70
0
 10
110.7025612956
 20
135.0657665227
 10
110.3115748321
 20
131.9969883914
 10
109.9464112526
 20
128.9363651931
 10
109.6071166558
 20
125.8842810034
 10
109.2937339258
 20
122.8411188475
 10
109.0063024534
 20
119.8072606737
 10
108.7448581344
 20
116.7830873071
 10
108.5094336432
 20
113.7689784516
 10
108.3000586784
 20
110.7653124027
 10
108.1167596917
 20
107.7724660229
 10
107.959559636
 20
104.7908150057
 10
107.8284779593
 20
101.8207338273
  0
LINE
  5
29D
100
AcDbEntity
  8
RACCORDO
100
AcDbLine
 62
7
  6
CONTINUOUS
 10
125.1056683293
 20
137.8092213361
 11
125.9597167129
 21
138.5566793929
  0
LINE
  5
29E
100
AcDbEntity
  8
RACCORDO
100
AcDbLine
 62
253
  6
CONTINUOUS
 10
125.2595708841
 20
137.7322700587
 11
126.2083694756
 21
138.562652933
  0
LINE
  5
29F
100
AcDbEntity
  8
0
100
AcDbLine
 62
7
  6
CONTINUOUS
 10
131.8695251059
 20
139.2554367028
 11
131.7250797692
 21
139.1507506858
  0
LWPOLYLINE
  5
2A0
100
AcDbEntity
  8
0
100
AcDbPolyline
 62
253
  6
CONTINUOUS
 90
19
 70
0
 10
142.6801822876
 20
142.7805571532
 10
142.6860412036
 20
142.7837246822
 10
142.6916214036
 20
142.7870156254
 10
142.6969125001
 20
142.7904238566
 10
142.7019046438
 20
142.7939430313
 10
142.7065885416
 20
142.7975665988
 10
142.7109554747
 20
142.8012878138
 10
142.7149973139
 20
142.8050997491
 10
142.7187065353
 20
142.8089953089
 10
142.7220762343
 20
142.8129672417
 10
142.7251001381
 20
142.8170081537
 10
142.7277726177
 20
142.8211105228
 10
142.7300886984
 20
142.8252667124
 10
142.7320440687
 20
142.8294689857
 10
142.7336350887
 20
142.8337095203
 10
142.7348587967
 20
142.8379804225
 10
142.7357129148
 20
142.8422737418
 10
142.736195853
 20
142.8465814865
 10
142.7363143275
 20
142.8500218609
  0
LINE
  5
2A1
100
AcDbEntity
  8
268
100
AcDbLine
 62
7
  6
CONTINUOUS
 10
126.7008820092
 20
134.595598091
 11
127.199977742
 21
134.8475626717
  0
LINE
  5
2A2
100
AcDbEntity
  8
268
100
AcDbLine
 62
7
  6
CONTINUOUS
 10
126.7008820092
 20
135.8098015639
 11
127.199977742
 21
136.059998237
  0
LINE
  5
2A3
100
AcDbEntity
  8
DRAFT
100
AcDbLine
 62
7
  6
CONTINUOUS
 10
144.2811455087
 20
143.2796881504
 11
144.1750794915
 21
143.2266551418
  0
LINE
  5
2A4
100
AcDbEntity
  8
DRAFT
100
AcDbLine
 62
7
  6
CONTINUOUS
 10
143.9983027962
 20
143.1382667942
 11
143.8922367791
 21
143.0852337856
  0
LINE
  5
2A5
100
AcDbEntity
  8
DRAFT
100
AcDbLine
 62
7
  6
CONTINUOUS
 10
143.7154600838
 20
142.9968454379
 11
143.6093940666
 21
142.9438124293
  0
LINE
  5
2A6
100
AcDbEntity
  8
DRAFT
100
AcDbLine
 62
7
  6
CONTINUOUS
 10
143.4326173713
 20
142.8554240817
 11
143.3265513541
 21
142.8023910731
  0
LINE
  5
2A7
100
AcDbEntity
  8
DRAFT
100
AcDbLine
 62
7
  6
CONTINUOUS
 10
143.1497746588
 20
142.7140027255
 11
143.0437086416
 21
142.6609697169
  0
LINE
  5
2A8
100
AcDbEntity
  8
DRAFT
100
AcDbLine
 62
7
  6
CONTINUOUS
 10
142.8669319464
 20
142.5725813692
 11
142.7608659292
 21
142.5195483606
  0
LINE
  5
2A9
100
AcDbEntity
  8
DRAFT
100
AcDbLine
 62
7
  6
CONTINUOUS
 10
144.138489893
 20
143.1229920617
 11
144.0836710771
 21
143.0955826537
  0
LINE
  5
2AA
100
AcDbEntity
  8
DRAFT
100
AcDbLine
 62
7
  6
CONTINUOUS
 10
143.8556471805
 20
142.9815707054
 11
143.8008283647
 21
142.9541612975
  0
LINE
  5
2AB
100
AcDbEntity
  8
DRAFT
100
AcDbLine
 62
7
  6
CONTINUOUS
 10
143.5728044681
 20
142.8401493492
 11
143.5179856522
 21
142.8127399413
  0
LINE
  5
2AC
100
AcDbEntity
  8
DRAFT
100
AcDbLine
 62
7
  6
CONTINUOUS
 10
143.2899617556
 20
142.6987279929
 11
143.2351429397
 21
142.671318585
  0
LINE
  5
2AD
100
AcDbEntity
  8
DRAFT
100
AcDbLine
 62
7
  6
CONTINUOUS
 10
143.0071190431
 20
142.5573066367
 11
142.9523002273
 21
142.5298972288
  0
LINE
  5
2AE
100
AcDbEntity
  8
RACCORDO
100
AcDbLine
 62
7
  6
CONTINUOUS
 10
142.7242763306
 20
142.4158852805
 11
137.5535298415
 21
139.8305120359
  0
LINE
  5
2AF
100
AcDbEntity
  8
268
100
AcDbLine
 62
7
  6
CONTINUOUS
 10
127.199977742
 20
136.059998237
 11
132.6142504372
 21
138.7600138474
  0
LINE
  5
2B0
100
AcDbEntity
  8
0
100
AcDbLine
 62
253
  6
CONTINUOUS
 10
141.6318905717
 20
142.8777582517
 11
135.5874421499
 21
139.8796672742
  0
LINE
  5
2B1
100
AcDbEntity
  8
0
100
AcDbLine
 62
253
  6
CONTINUOUS
 10
142.3339908067
 20
143.1781698257
 11
141.7521459561
 21
142.8895704904
  0
LINE
  5
2B2
100
AcDbEntity
  8
0
100
AcDbLine
 62
253
  6
CONTINUOUS
 10
142.4753906238
 20
142.9342912164
 11
142.0211536705
 21
142.7089863389
  0
LINE
  5
2B3
100
AcDbEntity
  8
0
100
AcDbLine
 62
253
  6
CONTINUOUS
 10
142.0487819611
 20
142.6135185127
 11
136.1325795532
 21
139.6790385036
  0
LINE
  5
2B4
100
AcDbEntity
  8
268
100
AcDbLine
 62
7
  6
CONTINUOUS
 10
127.199977742
 20
134.8475626717
 11
132.6142504372
 21
137.528175269
  0
LINE
  5
2B5
100
AcDbEntity
  8
268
100
AcDbLine
 62
7
  6
CONTINUOUS
 10
133.2872666526
 20
138.8055137762
 11
132.7008878656
 21
138.5185917085
  0
LINE
  5
2B6
100
AcDbEntity
  8
268
100
AcDbLine
 62
7
  6
CONTINUOUS
 10
129.9576941886
 20
135.2007552559
 11
130.4921440673
 21
135.4611027225
  0
LWPOLYLINE
  5
2B7
100
AcDbEntity
  8
268
100
AcDbPolyline
 62
7
  6
CONTINUOUS
 90
18
 70
0
 10
133.2872666526
 20
138.8055137762
 10
133.3156411734
 20
138.818695733
 10
133.3438756254
 20
138.8304301247
 10
133.3719700086
 20
138.8407169514
 10
133.3999743217
 20
138.849569086
 10
133.427838566
 20
138.8569736556
 10
133.4554127456
 20
138.8628920412
 10
133.4826818742
 20
138.8673154625
 10
133.5096609383
 20
138.8702526998
 10
133.5362449009
 20
138.8716914758
 10
133.5624498597
 20
138.8716243392
 10
133.5882597172
 20
138.8700587412
 10
133.6135211435
 20
138.8670047578
 10
133.6382108968
 20
138.8624589734
 10
133.6623522189
 20
138.8564248036
 10
133.6858615052
 20
138.8489225708
 10
133.7087572854
 20
138.8399371562
 10
133.7283193697
 20
138.8308474231
  0
LINE
  5
2B8
100
AcDbEntity
  8
0
100
AcDbLine
 62
7
  6
CONTINUOUS
 10
137.7011021592
 20
138.8947548601
 11
143.9603117301
 21
141.785465263
  0
LINE
  5
2B9
100
AcDbEntity
  8
0
100
AcDbLine
 62
253
  6
CONTINUOUS
 10
137.6996688207
 20
138.8235539388
 11
143.9588783916
 21
141.7142643417
  0
LINE
  5
2BA
100
AcDbEntity
  8
RACCORDO
100
AcDbLine
 62
253
  6
CONTINUOUS
 10
148.5899578729
 20
93.6781102413
 11
152.7885679556
 21
93.9743181642
  0
LINE
  5
2BB
100
AcDbEntity
  8
RACCORDO
100
AcDbLine
 62
253
  6
CONTINUOUS
 10
147.4237339787
 20
85.3344616463
 11
147.4409093535
 21
85.3292140991
  0
LINE
  5
2BC
100
AcDbEntity
  8
268
100
AcDbLine
 62
253
  6
CONTINUOUS
 10
132.0981206185
 20
133.9070506868
 11
137.4564473986
 21
136.7979909138
  0
LINE
  5
2BD
100
AcDbEntity
  8
268
100
AcDbLine
 62
7
  6
CONTINUOUS
 10
128.3749375855
 20
134.3887711586
 11
129.9576941886
 21
135.2007552559
  0
LINE
  5
2BE
100
AcDbEntity
  8
268
100
AcDbLine
 62
7
  6
CONTINUOUS
 10
129.9827589945
 20
133.5848604541
 11
131.5840397854
 21
134.3875824576
  0
LINE
  5
2BF
100
AcDbEntity
  8
DRAFT
100
AcDbLine
 62
7
  6
CONTINUOUS
 10
145.7923470861
 20
142.5240873617
 11
145.686281069
 21
142.4710543531
  0
LINE
  5
2C0
100
AcDbEntity
  8
DRAFT
100
AcDbLine
 62
7
  6
CONTINUOUS
 10
145.5095043737
 20
142.3826660055
 11
145.4034383565
 21
142.3296329969
  0
LINE
  5
2C1
100
AcDbEntity
  8
DRAFT
100
AcDbLine
 62
7
  6
CONTINUOUS
 10
145.2266616612
 20
142.2412446492
 11
145.120595644
 21
142.1882116406
  0
LINE
  5
2C2
100
AcDbEntity
  8
DRAFT
100
AcDbLine
 62
7
  6
CONTINUOUS
 10
144.9438189487
 20
142.099823293
 11
144.8377529315
 21
142.0467902844
  0
LINE
  5
2C3
100
AcDbEntity
  8
DRAFT
100
AcDbLine
 62
7
  6
CONTINUOUS
 10
144.6609762362
 20
141.9584019368
 11
144.5549102191
 21
141.9053689282
  0
LINE
  5
2C4
100
AcDbEntity
  8
DRAFT
100
AcDbLine
 62
7
  6
CONTINUOUS
 10
144.3781335238
 20
141.8169805805
 11
144.2720675066
 21
141.7639475719
  0
LINE
  5
2C5
100
AcDbEntity
  8
DRAFT
100
AcDbLine
 62
7
  6
CONTINUOUS
 10
145.6521599894
 20
142.3661570135
 11
145.5460939722
 21
142.3131240049
  0
LINE
  5
2C6
100
AcDbEntity
  8
DRAFT
100
AcDbLine
 62
7
  6
CONTINUOUS
 10
145.3693172769
 20
142.2247356572
 11
145.2632512597
 21
142.1717026486
  0
LINE
  5
2C7
100
AcDbEntity
  8
DRAFT
100
AcDbLine
 62
7
  6
CONTINUOUS
 10
145.0864745644
 20
142.083314301
 11
144.9804085473
 21
142.0302812924
  0
LINE
  5
2C8
100
AcDbEntity
  8
DRAFT
100
AcDbLine
 62
7
  6
CONTINUOUS
 10
144.803631852
 20
141.9418929448
 11
144.6975658348
 21
141.8888599362
  0
LINE
  5
2C9
100
AcDbEntity
  8
DRAFT
100
AcDbLine
 62
7
  6
CONTINUOUS
 10
144.5207891395
 20
141.8004715885
 11
144.4147231223
 21
141.7474385799
  0
LINE
  5
2CA
100
AcDbEntity
  8
RACCORDO
100
AcDbLine
 62
7
  6
CONTINUOUS
 10
144.237946427
 20
141.6590502323
 11
144.2255664497
 21
141.6528602436
  0
LINE
  5
2CB
100
AcDbEntity
  8
DRAFT
100
AcDbLine
 62
7
  6
CONTINUOUS
 10
145.1600517983
 20
140.6268773204
 11
145.9736627825
 21
141.0336828125
  0
LINE
  5
2CC
100
AcDbEntity
  8
DRAFT
100
AcDbLine
 62
7
  6
CONTINUOUS
 10
147.3924153459
 20
141.7240532318
 11
147.2863493288
 21
141.6710202232
  0
LINE
  5
2CD
100
AcDbEntity
  8
DRAFT
100
AcDbLine
 62
7
  6
CONTINUOUS
 10
147.1095726335
 20
141.5826318756
 11
147.0035066163
 21
141.529598867
  0
LINE
  5
2CE
100
AcDbEntity
  8
DRAFT
100
AcDbLine
 62
7
  6
CONTINUOUS
 10
146.826729921
 20
141.4412105193
 11
146.7206639038
 21
141.3881775107
  0
LINE
  5
2CF
100
AcDbEntity
  8
DRAFT
100
AcDbLine
 62
7
  6
CONTINUOUS
 10
146.5438872085
 20
141.2997891631
 11
146.4378211913
 21
141.2467561545
  0
LINE
  5
2D0
100
AcDbEntity
  8
DRAFT
100
AcDbLine
 62
7
  6
CONTINUOUS
 10
146.261044496
 20
141.1583678069
 11
146.1549784789
 21
141.1053347983
  0
LINE
  5
2D1
100
AcDbEntity
  8
DRAFT
100
AcDbLine
 62
7
  6
CONTINUOUS
 10
145.9782017836
 20
141.0169464506
 11
145.8721357664
 21
140.963913442
  0
LINE
  5
2D2
100
AcDbEntity
  8
DRAFT
100
AcDbLine
 62
7
  6
CONTINUOUS
 10
145.8436922482
 20
140.8833292644
 11
145.7072634801
 21
140.8151148804
  0
LINE
  5
2D3
100
AcDbEntity
  8
DRAFT
100
AcDbLine
 62
7
  6
CONTINUOUS
 10
145.1600517983
 20
140.5415090395
 11
145.2476440723
 21
140.5853051765
  0
LINE
  5
2D4
100
AcDbEntity
  8
DRAFT
100
AcDbLine
 62
7
  6
CONTINUOUS
 10
145.4244207676
 20
140.6736935241
 11
145.5304867848
 21
140.7267265327
  0
LINE
  5
2D5
100
AcDbEntity
  8
DRAFT
100
AcDbLine
 62
7
  6
CONTINUOUS
 10
147.2497597302
 20
141.567357143
 11
147.1949409144
 21
141.5399477351
  0
LINE
  5
2D6
100
AcDbEntity
  8
DRAFT
100
AcDbLine
 62
7
  6
CONTINUOUS
 10
146.9669170178
 20
141.4259357868
 11
146.9120982019
 21
141.3985263789
  0
LINE
  5
2D7
100
AcDbEntity
  8
DRAFT
100
AcDbLine
 62
7
  6
CONTINUOUS
 10
146.6840743053
 20
141.2845144306
 11
146.6292554894
 21
141.2571050226
  0
LINE
  5
2D8
100
AcDbEntity
  8
DRAFT
100
AcDbLine
 62
7
  6
CONTINUOUS
 10
146.4012315928
 20
141.1430930743
 11
146.3464127769
 21
141.1156836664
  0
LINE
  5
2D9
100
AcDbEntity
  8
DRAFT
100
AcDbLine
 62
7
  6
CONTINUOUS
 10
146.1183888803
 20
141.0016717181
 11
146.0635700645
 21
140.9742623102
  0
LINE
  5
2DA
100
AcDbEntity
  8
RACCORDO
100
AcDbLine
 62
7
  6
CONTINUOUS
 10
145.8355461679
 20
140.8602503619
 11
140.6647996787
 21
138.2748771173
  0
LINE
  5
2DB
100
AcDbEntity
  8
RACCORDO
100
AcDbLine
 62
7
  6
CONTINUOUS
 10
130.9419063006
 20
133.15546023
 11
133.0632266442
 21
134.2161204018
  0
LINE
  5
2DC
100
AcDbEntity
  8
RACCORDO
100
AcDbLine
 62
253
  6
CONTINUOUS
 10
131.0537096995
 20
133.1483597832
 11
133.175030043
 21
134.209019955
  0
LINE
  5
2DD
100
AcDbEntity
  8
268
100
AcDbLine
 62
7
  6
CONTINUOUS
 10
131.5840397854
 20
134.3875824576
 11
132.1123069571
 21
134.6510212776
  0
LINE
  5
2DE
100
AcDbEntity
  8
0
100
AcDbLine
 62
253
  6
CONTINUOUS
 10
144.7431604089
 20
141.3221233331
 11
138.6987119871
 21
138.3240323556
  0
LINE
  5
2DF
100
AcDbEntity
  8
0
100
AcDbLine
 62
253
  6
CONTINUOUS
 10
145.1600517983
 20
141.0578835941
 11
139.2438493904
 21
138.1234035849
  0
LINE
  5
2E0
100
AcDbEntity
  8
0
100
AcDbLine
 62
7
  6
CONTINUOUS
 10
137.4564938909
 20
136.3104920292
 11
137.7358687817
 21
136.4490640346
  0
LINE
  5
2E1
100
AcDbEntity
  8
0
100
AcDbLine
 62
253
  6
CONTINUOUS
 10
140.3213773564
 20
137.512699671
 11
137.2289294679
 21
136.0105434399
  0
LINE
  5
2E2
100
AcDbEntity
  8
268
100
AcDbLine
 62
253
  6
CONTINUOUS
 10
131.4945175754
 20
135.0218933393
 11
136.2663565536
 21
137.3159688257
  0
LINE
  5
2E3
100
AcDbEntity
  8
268
100
AcDbLine
 62
253
  6
CONTINUOUS
 10
131.7221330753
 20
134.9080855894
 11
136.7081974215
 21
137.3051505454
  0
LWPOLYLINE
  5
2E4
100
AcDbEntity
  8
RACCORDO
100
AcDbPolyline
 62
253
  6
CONTINUOUS
 90
7
 70
0
 10
133.0632266442
 20
134.2161204018
 10
133.0674152094
 20
134.2180870576
 10
133.0866416954
 20
134.2242077779
 10
133.1073805305
 20
134.2263641466
 10
133.1292768676
 20
134.2245192677
 10
133.1519560541
 20
134.2187047076
 10
133.175030043
 20
134.209019955
  0
LWPOLYLINE
  5
2E5
100
AcDbEntity
  8
RACCORDO
100
AcDbPolyline
 62
253
  6
CONTINUOUS
 90
7
 70
0
 10
130.9419063006
 20
133.15546023
 10
130.9460948658
 20
133.1574268858
 10
130.9653213518
 20
133.1635476061
 10
130.9860601869
 20
133.1657039748
 10
131.007956524
 20
133.163859096
 10
131.0306357106
 20
133.1580445358
 10
131.0537096995
 20
133.1483597832
  0
LINE
  5
2E6
100
AcDbEntity
  8
0
100
AcDbLine
 62
7
  6
CONTINUOUS
 10
137.0411045953
 20
135.844344715
 11
136.9197463122
 21
135.7882974382
  0
LWPOLYLINE
  5
2E7
100
AcDbEntity
  8
0
100
AcDbPolyline
 62
253
  6
CONTINUOUS
 90
19
 70
0
 10
140.3213798835
 20
137.5126984074
 10
140.3292199357
 20
137.5162731341
 10
140.3370442018
 20
137.5194851586
 10
140.3448419805
 20
137.5223300879
 10
140.3526026069
 20
137.524804031
 10
140.360315467
 20
137.5269036043
 10
140.3679700118
 20
137.5286259362
 10
140.3755557726
 20
137.5299686713
 10
140.3830623742
 20
137.5309299729
 10
140.39047955
 20
137.5315085264
 10
140.3977971556
 20
137.5317035404
 10
140.4050051828
 20
137.5315147483
 10
140.4120937734
 20
137.5309424083
 10
140.4190532323
 20
137.5299873031
 10
140.4258740412
 20
137.528650739
 10
140.4325468713
 20
137.5269345441
 10
140.4390625964
 20
137.5248410655
 10
140.4454123048
 20
137.5223731665
 10
140.4518407055
 20
137.5194079274
  0
LINE
  5
2E8
100
AcDbEntity
  8
0
100
AcDbLine
 62
7
  6
CONTINUOUS
 10
140.9330171915
 20
137.0389438125
 11
147.1521152617
 21
139.7263326732
  0
LINE
  5
2E9
100
AcDbEntity
  8
0
100
AcDbLine
 62
253
  6
CONTINUOUS
 10
140.9609158122
 20
136.7683269272
 11
147.2201253831
 21
139.4730487192
  0
LWPOLYLINE
  5
2EA
100
AcDbEntity
  8
RACCORDO
100
AcDbPolyline
 62
7
  6
CONTINUOUS
 90
8
 70
0
 10
133.0632266442
 20
134.2161204018
 10
133.0915132393
 20
134.228149967
 10
133.1215004404
 20
134.2367149358
 10
133.1526750233
 20
134.2415121042
 10
133.1845796672
 20
134.2423310869
 10
133.2164645554
 20
134.2390560472
 10
133.2474720861
 20
134.23178782
 10
133.2774321367
 20
134.220578835
  0
LINE
  5
2EB
100
AcDbEntity
  8
RACCORDO
100
AcDbLine
 62
7
  6
CONTINUOUS
 10
152.3208977269
 20
94.6099416609
 11
148.5899578729
 21
94.4112901791
  0
LWPOLYLINE
  5
2EC
100
AcDbEntity
  8
RACCORDO
100
AcDbPolyline
 62
7
  6
CONTINUOUS
 90
18
 70
0
 10
152.3208837106
 20
94.6099867424
 10
152.3578255637
 20
94.6086951063
 10
152.3948452286
 20
94.6013827075
 10
152.4330044241
 20
94.5878385057
 10
152.4720529061
 20
94.5683142647
 10
152.5102121016
 20
94.543699271
 10
152.5472317665
 20
94.5139920049
 10
152.5833621449
 20
94.4791939862
 10
152.6175753958
 20
94.4401990606
 10
152.6500255798
 20
94.3966150443
 10
152.6805586365
 20
94.3488341212
 10
152.7076845438
 20
94.2989266878
 10
152.7311785483
 20
94.2470142838
 10
152.7512654035
 20
94.1929753697
 10
152.767129348
 20
94.1385157229
 10
152.7784984613
 20
94.084203936
 10
152.7856446638
 20
94.0294714164
 10
152.7885679556
 20
93.9743181642
  0
LINE
  5
2ED
100
AcDbEntity
  8
ASSI
100
AcDbLine
 62
253
  6
CONTINUOUS
 10
115.063970649
 20
100.6181464179
 11
114.9900933183
 21
100.6509955396
  0
LWPOLYLINE
  5
2EE
100
AcDbEntity
  8
RACCORDO
100
AcDbPolyline
 62
253
  6
CONTINUOUS
 90
3
 70
0
 10
147.9943359519
 20
85.2114502805
 10
147.988499052
 20
85.2140968591
 10
147.9712394394
 20
85.2193791421
  0
LINE
  5
2EF
100
AcDbEntity
  8
RACCORDO
100
AcDbLine
 62
253
  6
CONTINUOUS
 10
147.4174943022
 20
85.3373014752
 11
147.4237339787
 21
85.3344616463
  0
LINE
  5
2F0
100
AcDbEntity
  8
RACCORDO
100
AcDbLine
 62
7
  6
CONTINUOUS
 10
145.6497273493
 20
83.3521040267
 11
144.306224465
 21
84.0238554688
  0
LINE
  5
2F1
100
AcDbEntity
  8
RACCORDO
100
AcDbLine
 62
253
  6
CONTINUOUS
 10
145.5847540529
 20
83.4873224768
 11
144.2412511686
 21
84.1590739189
  0
LINE
  5
2F2
100
AcDbEntity
  8
RACCORDO
100
AcDbLine
 62
253
  6
CONTINUOUS
 10
145.5847540529
 20
83.8386364488
 11
144.2412511686
 21
84.510387891
  0
LINE
  5
2F3
100
AcDbEntity
  8
RACCORDO
100
AcDbLine
 62
253
  6
CONTINUOUS
 10
145.6731424005
 20
84.0703306227
 11
144.3296395162
 21
84.7420820648
  0
LINE
  5
2F4
100
AcDbEntity
  8
RACCORDO
100
AcDbLine
 62
253
  6
CONTINUOUS
 10
144.8599696021
 20
85.3822471077
 11
146.2034724864
 21
84.7104956656
  0
LINE
  5
2F5
100
AcDbEntity
  8
RACCORDO
100
AcDbLine
 62
253
  6
CONTINUOUS
 10
144.9483579498
 20
85.6139412816
 11
146.291860834
 21
84.9421898394
  0
LINE
  5
2F6
100
AcDbEntity
  8
RACCORDO
100
AcDbLine
 62
7
  6
CONTINUOUS
 10
143.3600720335
 20
86.5251308147
 11
146.0778947943
 21
85.1662194343
  0
LINE
  5
2F7
100
AcDbEntity
  8
DRAFT
100
AcDbLine
 62
7
  6
CONTINUOUS
 10
143.3963553037
 20
86.9660693893
 11
146.431609745
 21
85.4484421686
  0
LWPOLYLINE
  5
2F8
100
AcDbEntity
  8
RACCORDO
100
AcDbPolyline
 62
7
  6
CONTINUOUS
 90
7
 70
0
 10
144.3064089671
 20
84.0237634712
 10
144.2950162348
 20
84.0298201442
 10
144.2679305939
 20
84.047535256
 10
144.2432996608
 20
84.0686605652
 10
144.221548161
 20
84.0928798409
 10
144.2030402851
 20
84.119867827
 10
144.1881361072
 20
84.1492289718
  0
LWPOLYLINE
  5
2F9
100
AcDbEntity
  8
RACCORDO
100
AcDbPolyline
 62
253
  6
CONTINUOUS
 90
6
 70
0
 10
114.9900933183
 20
100.6509955396
 10
114.9171811028
 20
100.6914717856
 10
114.844963516
 20
100.7396774178
 10
114.7739881613
 20
100.7953116184
 10
114.7047494108
 20
100.8580432534
 10
114.6997947588
 20
100.8631805291
  0
LWPOLYLINE
  5
2FA
100
AcDbEntity
  8
ASSI
100
AcDbPolyline
 62
253
  6
CONTINUOUS
 90
6
 70
0
 10
114.9900933183
 20
100.6509955396
 10
114.9171811028
 20
100.6914717856
 10
114.844963516
 20
100.7396774178
 10
114.7739881613
 20
100.7953116184
 10
114.7047494108
 20
100.8580432534
 10
114.6997947588
 20
100.8631805291
  0
LWPOLYLINE
  5
2FB
100
AcDbEntity
  8
RACCORDO
100
AcDbPolyline
 62
253
  6
CONTINUOUS
 90
33
 70
0
 10
114.9121062771
 20
100.5308092206
 10
114.8322363423
 20
100.5752624896
 10
114.7543019771
 20
100.6273430172
 10
114.6783041533
 20
100.6870512212
 10
114.6036450025
 20
100.7549563106
 10
114.5309263069
 20
100.8304907583
 10
114.4619491978
 20
100.9119501717
 10
114.3968233632
 20
100.9995007855
 10
114.3354460218
 20
101.0929793268
 10
114.2792993268
 20
101.1901870209
 10
114.2285424028
 20
101.2911664693
 10
114.1830240625
 20
101.3958784618
 10
114.1437594452
 20
101.5020008406
 10
114.1108828518
 20
101.6095861595
 10
114.0842669386
 20
101.71858482
 10
114.064531589
 20
101.8265202404
 10
114.0518377859
 20
101.9333692154
 10
114.0460285851
 20
102.0391566459
 10
114.047243221
 20
102.141476505
 10
114.0556442341
 20
102.2402494924
 10
114.0710691126
 20
102.3355548925
 10
114.0931653994
 20
102.4252228088
 10
114.1220859739
 20
102.5091201258
 10
114.1576739587
 20
102.5873782408
 10
114.1991084862
 20
102.6582224311
 10
114.2465161476
 20
102.7214756508
 10
114.2997634138
 20
102.7773119989
 10
114.3576364153
 20
102.8244822834
 10
114.4202312577
 20
102.8627871821
 10
114.4874438592
 20
102.8924226492
 10
114.5577585326
 20
102.9127317638
 10
114.6312825367
 20
102.923487321
 10
114.7079017337
 20
102.9249136319
  0
LWPOLYLINE
  5
2FC
100
AcDbEntity
  8
ASSI
100
AcDbPolyline
 62
253
  6
CONTINUOUS
 90
30
 70
0
 10
114.9121062771
 20
100.5308092206
 10
114.8322363423
 20
100.5752624896
 10
114.7543019771
 20
100.6273430172
 10
114.6783041533
 20
100.6870512212
 10
114.6036450025
 20
100.7549563106
 10
114.5309263069
 20
100.8304907583
 10
114.4619491978
 20
100.9119501717
 10
114.3968233632
 20
100.9995007855
 10
114.3354460218
 20
101.0929793268
 10
114.2792993268
 20
101.1901870209
 10
114.2285424028
 20
101.2911664693
 10
114.1830240625
 20
101.3958784618
 10
114.1437594452
 20
101.5020008406
 10
114.1108828518
 20
101.6095861595
 10
114.0842669386
 20
101.71858482
 10
114.064531589
 20
101.8265202404
 10
114.0518377859
 20
101.9333692154
 10
114.0460285851
 20
102.0391566459
 10
114.047243221
 20
102.141476505
 10
114.0556442341
 20
102.2402494924
 10
114.0710691126
 20
102.3355548925
 10
114.0931653994
 20
102.4252228088
 10
114.1220859739
 20
102.5091201258
 10
114.1576739587
 20
102.5873782408
 10
114.1991084862
 20
102.6582224311
 10
114.2465161476
 20
102.7214756508
 10
114.2997634138
 20
102.7773119989
 10
114.3576364153
 20
102.8244822834
 10
114.4202312577
 20
102.8627871821
 10
114.4874438592
 20
102.8924226492
  0
LWPOLYLINE
  5
2FD
100
AcDbEntity
  8
RACCORDO
100
AcDbPolyline
 62
253
  6
CONTINUOUS
 90
8
 70
0
 10
144.306249825
 20
84.0238427936
 10
144.293513406
 20
84.0315195644
 10
144.2781203357
 20
84.0451686924
 10
144.2651481812
 20
84.0623177614
 10
144.2548243941
 20
84.0826623274
 10
144.2473252159
 20
84.1058445319
 10
144.2427757083
 20
84.1314632629
 10
144.2412511686
 20
84.1590739189
  0
LWPOLYLINE
  5
2FE
100
AcDbEntity
  8
RACCORDO
100
AcDbPolyline
 62
253
  6
CONTINUOUS
 90
8
 70
0
 10
145.6495657191
 20
83.3521850367
 10
145.6370162903
 20
83.3597681223
 10
145.6216232199
 20
83.3734172502
 10
145.6086510655
 20
83.3905663193
 10
145.5983272784
 20
83.4109108853
 10
145.5908281002
 20
83.4340930898
 10
145.5862785925
 20
83.4597118208
 10
145.5847540529
 20
83.4873224768
  0
LINE
  5
2FF
100
AcDbEntity
  8
RACCORDO
100
AcDbLine
 62
253
  6
CONTINUOUS
 10
115.1827144271
 20
102.7409312633
 11
115.2585853138
 21
102.6811521543
  0
LWPOLYLINE
  5
300
100
AcDbEntity
  8
ASSI
100
AcDbPolyline
 62
7
  6
CONTINUOUS
 90
4
 70
0
 10
115.1942344173
 20
102.6897864154
 10
115.3305984331
 20
102.5744638851
 10
115.4583515347
 20
102.4336274116
 10
115.5738823993
 20
102.2708289473
  0
LWPOLYLINE
  5
301
100
AcDbEntity
  8
RACCORDO
100
AcDbPolyline
 62
253
  6
CONTINUOUS
 90
3
 70
0
 10
115.2585853138
 20
102.6811521543
 10
115.3330600721
 20
102.613154204
 10
115.4055430056
 20
102.5375087949
  0
LINE
  5
302
100
AcDbEntity
  8
ASSI
100
AcDbLine
 62
253
  6
CONTINUOUS
 10
115.2585853138
 20
102.6811521543
 11
115.3330600721
 21
102.613154204
  0
LINE
  5
303
100
AcDbEntity
  8
ASSI
100
AcDbLine
 62
253
  6
CONTINUOUS
 10
115.3330600721
 20
102.613154204
 11
115.4055430056
 21
102.5375087949
  0
LWPOLYLINE
  5
304
100
AcDbEntity
  8
RACCORDO
100
AcDbPolyline
 62
253
  6
CONTINUOUS
 90
14
 70
0
 10
115.4055430056
 20
102.5375087949
 10
115.4742428104
 20
102.4559283057
 10
115.5390538392
 20
102.3682500056
 10
115.6000886396
 20
102.2746395282
 10
115.655882924
 20
102.1773016854
 10
115.706284436
 20
102.0761982439
 10
115.7514533599
 20
101.9713707845
 10
115.7903925267
 20
101.8651431943
 10
115.8229747628
 20
101.7574659381
 10
115.8493341953
 20
101.6483915043
 10
115.8688628255
 20
101.540395645
 10
115.8814043962
 20
101.4335019167
 10
115.8871192122
 20
101.3276885018
 10
115.8858703685
 20
101.2253615062
  0
LWPOLYLINE
  5
305
100
AcDbEntity
  8
ASSI
100
AcDbPolyline
 62
253
  6
CONTINUOUS
 90
5
 70
0
 10
115.4055430056
 20
102.5375087949
 10
115.4742428104
 20
102.4559283057
 10
115.5390538392
 20
102.3682500056
 10
115.6000886396
 20
102.2746395282
 10
115.655882924
 20
102.1773016854
  0
LWPOLYLINE
  5
306
100
AcDbEntity
  8
ASSI
100
AcDbPolyline
 62
7
  6
CONTINUOUS
 90
8
 70
0
 10
115.5738823993
 20
102.2708289473
 10
115.6734000504
 20
102.0908395794
 10
115.7537099305
 20
101.8991425175
 10
115.8125012027
 20
101.7006336024
 10
115.8476937526
 20
101.5015000202
 10
115.8580019955
 20
101.3081199959
 10
115.8429698895
 20
101.1264582854
 10
115.8031979574
 20
100.9630608638
  0
LWPOLYLINE
  5
307
100
AcDbEntity
  8
ASSI
100
AcDbPolyline
 62
253
  6
CONTINUOUS
 90
8
 70
0
 10
115.655882924
 20
102.1773016854
 10
115.706284436
 20
102.0761982439
 10
115.7514533599
 20
101.9713707845
 10
115.7903925267
 20
101.8651431943
 10
115.8229747628
 20
101.7574659381
 10
115.8493341953
 20
101.6483915043
 10
115.8688628255
 20
101.540395645
 10
115.8814043962
 20
101.4335019167
  0
LINE
  5
308
100
AcDbEntity
  8
RACCORDO
100
AcDbLine
 62
253
  6
CONTINUOUS
 10
114.2031715393
 20
101.863275502
 11
114.193205749
 21
101.9449546512
  0
LWPOLYLINE
  5
309
100
AcDbEntity
  8
ASSI
100
AcDbPolyline
 62
253
  6
CONTINUOUS
 90
6
 70
0
 10
114.2031715393
 20
101.863275502
 10
114.193205749
 20
101.9449546512
 10
114.1876048749
 20
102.041933259
 10
114.1885497266
 20
102.1364208153
 10
114.1960085944
 20
102.2276856143
 10
114.209895057
 20
102.315021497
  0
LWPOLYLINE
  5
30A
100
AcDbEntity
  8
RACCORDO
100
AcDbPolyline
 62
253
  6
CONTINUOUS
 90
13
 70
0
 10
114.193205749
 20
101.9449546512
 10
114.1876048749
 20
102.041933259
 10
114.1885497266
 20
102.1364208153
 10
114.1960085944
 20
102.2276856143
 10
114.209895057
 20
102.315021497
 10
114.2301494124
 20
102.3977751749
 10
114.2565942792
 20
102.4753077754
 10
114.2889978268
 20
102.5470183781
 10
114.3271476794
 20
102.6123724611
 10
114.3707318326
 20
102.6708657113
 10
114.41939099
 20
102.722046787
 10
114.4727819598
 20
102.7655398597
 10
114.5304806334
 20
102.8010090554
  0
LWPOLYLINE
  5
30B
100
AcDbEntity
  8
ASSI
100
AcDbPolyline
 62
253
  6
CONTINUOUS
 90
4
 70
0
 10
115.8814043962
 20
101.4335019167
 10
115.8871192122
 20
101.3276885018
 10
115.8858703685
 20
101.2253615062
 10
115.8774952963
 20
101.1265985874
  0
LINE
  5
30C
100
AcDbEntity
  8
268
100
AcDbLine
 62
7
  6
CONTINUOUS
 10
114.4367003416
 20
139.1394197627
 11
114.4367003416
 21
139.1150242574
  0
LINE
  5
30D
100
AcDbEntity
  8
268
100
AcDbLine
 62
7
  6
CONTINUOUS
 10
114.8358936385
 20
140.5126707954
 11
114.8358936385
 21
140.7660421891
  0
LINE
  5
30E
100
AcDbEntity
  8
268
100
AcDbLine
 62
7
  6
CONTINUOUS
 10
115.2498731399
 20
138.7084378582
 11
115.2498731399
 21
138.2774425995
  0
LINE
  5
30F
100
AcDbEntity
  8
268
100
AcDbLine
 62
7
  6
CONTINUOUS
 10
115.5388865928
 20
139.6061115407
 11
115.5388865928
 21
140.0584425164
  0
LWPOLYLINE
  5
310
100
AcDbEntity
  8
RACCORDO
100
AcDbPolyline
 62
253
  6
CONTINUOUS
 90
55
 70
0
 10
114.2291389717
 20
101.9697247737
 10
114.2263433057
 20
101.9221625309
 10
114.2257053257
 20
101.8736823795
 10
114.2272276801
 20
101.8244472844
 10
114.2309034598
 20
101.774647558
 10
114.2367209532
 20
101.7244264164
 10
114.2446742444
 20
101.6738777105
 10
114.2547579869
 20
101.6231178407
 10
114.2669406038
 20
101.5723721165
 10
114.2811649037
 20
101.5218981372
 10
114.2973793321
 20
101.4718746996
 10
114.3155299249
 20
101.4224643043
 10
114.3355283516
 20
101.3738942577
 10
114.3572771965
 20
101.3263716583
 10
114.3807145398
 20
101.2800048775
 10
114.4057985178
 20
101.2348697968
 10
114.4324648503
 20
101.1910905123
 10
114.4606086054
 20
101.1488472222
 10
114.4901259125
 20
101.1082976241
 10
114.5209162823
 20
101.0695795071
 10
114.5528764993
 20
101.0328224189
 10
114.5858898457
 20
100.998159187
 10
114.6198224681
 20
100.9657247105
 10
114.6545798453
 20
100.9356038505
 10
114.6901026509
 20
100.9078529192
 10
114.7263092223
 20
100.8825521278
 10
114.7630446356
 20
100.8598259082
 10
114.8001373334
 20
100.8397864741
 10
114.8374470234
 20
100.8225083893
 10
114.8748610324
 20
100.8080426096
 10
114.9122463639
 20
100.7964402918
 10
114.9494717395
 20
100.7877407415
 10
114.9864151807
 20
100.7819710243
 10
115.0229583211
 20
100.7791495033
 10
115.058981727
 20
100.7792866936
 10
115.0943580029
 20
100.7823834217
 10
115.12895968
 20
100.788428322
 10
115.1626648062
 20
100.7973982544
 10
115.1953643291
 20
100.8092623172
 10
115.2269545137
 20
100.8239827139
 10
115.257332587
 20
100.8415133218
 10
115.2863898527
 20
100.8617932388
 10
115.3140201845
 20
100.884747965
 10
115.340125516
 20
100.9102929067
 10
115.3646236511
 20
100.9383443881
 10
115.3874395502
 20
100.9688165116
 10
115.4085082251
 20
101.00162947
 10
115.4277415976
 20
101.0366534474
 10
115.4450464862
 20
101.0737074556
 10
115.4603580569
 20
101.1126154219
 10
115.4736523682
 20
101.1532751595
 10
115.4849085753
 20
101.1956053886
 10
115.4940929415
 20
101.2394854012
 10
115.5011688164
 20
101.2847470761
 10
115.5061125923
 20
101.3312379634
  0
LWPOLYLINE
  5
311
100
AcDbEntity
  8
RACCORDO
100
AcDbPolyline
 62
7
  6
CONTINUOUS
 90
19
 70
0
 10
114.2058967301
 20
102.0007358388
 10
114.2110558455
 20
102.0496606474
 10
114.2183858726
 20
102.0974496323
 10
114.2278711057
 20
102.1439807981
 10
114.2395047584
 20
102.1891765444
 10
114.2532559296
 20
102.2328717694
 10
114.2690499628
 20
102.2748314368
 10
114.2868406631
 20
102.3149590294
 10
114.3065765058
 20
102.3531566124
 10
114.328133631
 20
102.3892235163
 10
114.3514216778
 20
102.4230693056
 10
114.3763710556
 20
102.4546468213
 10
114.4028540355
 20
102.4838494924
 10
114.4307332674
 20
102.5105940261
 10
114.4599360501
 20
102.5348753203
 10
114.4904199306
 20
102.5567016972
 10
114.5220982997
 20
102.5760395798
 10
114.5548342412
 20
102.5928347467
 10
114.5885080871
 20
102.6070594573
  0
LINE
  5
312
100
AcDbEntity
  8
284
100
AcDbLine
 62
7
  6
CONTINUOUS
 10
121.3232391924
 20
135.671754832
 11
121.2800109876
 21
135.5415904228
  0
LWPOLYLINE
  5
313
100
AcDbEntity
  8
RACCORDO
100
AcDbPolyline
 62
7
  6
CONTINUOUS
 90
4
 70
0
 10
131.2818868726
 20
131.7676800219
 10
131.2554774816
 20
131.7504341917
 10
131.2304803873
 20
131.7334473548
 10
131.2074242031
 20
131.7173732102
  0
LWPOLYLINE
  5
314
100
AcDbEntity
  8
RACCORDO
100
AcDbPolyline
 62
7
  6
CONTINUOUS
 90
10
 70
0
 10
130.9419063006
 20
133.15546023
 10
130.9135715303
 20
133.1388818633
 10
130.8872401013
 20
133.1183675812
 10
130.8636072973
 20
133.094214378
 10
130.8433345655
 20
133.0669174512
 10
130.8269057343
 20
133.0370195938
 10
130.8146434079
 20
133.0049787237
 10
130.8068174779
 20
132.9711492341
 10
130.8037538946
 20
132.936554031
 10
130.8037097032
 20
132.9318749886
  0
LWPOLYLINE
  5
315
100
AcDbEntity
  8
RACCORDO
100
AcDbPolyline
 62
253
  6
CONTINUOUS
 90
13
 70
0
 10
131.0537096995
 20
133.1483597832
 10
131.0311489332
 20
133.1353089748
 10
131.0088010789
 20
133.1188026169
 10
130.9870487309
 20
133.0990459464
 10
130.9662307852
 20
133.0762526456
 10
130.9467837371
 20
133.0508005954
 10
130.9291952416
 20
133.0232816766
 10
130.9138021713
 20
132.9942394782
 10
130.9008300168
 20
132.9641182547
 10
130.8905062297
 20
132.9334499016
 10
130.8830070515
 20
132.9027685189
 10
130.8784575438
 20
132.8726002803
 10
130.8769330042
 20
132.8434650846
  0
LWPOLYLINE
  5
316
100
AcDbEntity
  8
RACCORDO
100
AcDbPolyline
 62
253
  6
CONTINUOUS
 90
13
 70
0
 10
132.3972125837
 20
132.4766083411
 10
132.3746518175
 20
132.4635575326
 10
132.3523039631
 20
132.4470511748
 10
132.3305516151
 20
132.4272945043
 10
132.3097336694
 20
132.4045012035
 10
132.2902866214
 20
132.3790491533
 10
132.2726981259
 20
132.3515302344
 10
132.2573050555
 20
132.3224880361
 10
132.244332901
 20
132.2923668126
 10
132.234009114
 20
132.2616984595
 10
132.2265099358
 20
132.2310170768
 10
132.2219604281
 20
132.2008488381
 10
132.2204358884
 20
132.1717136425
  0
LINE
  5
317
100
AcDbEntity
  8
268
100
AcDbLine
 62
253
  6
CONTINUOUS
 10
133.1797591482
 20
134.2422073456
 11
137.372295831
 21
136.5041770699
  0
LINE
  5
318
100
AcDbEntity
  8
268
100
AcDbLine
 62
253
  6
CONTINUOUS
 10
133.3256563085
 20
134.1967089685
 11
137.372295831
 21
136.2919179158
  0
LINE
  5
319
100
AcDbEntity
  8
268
100
AcDbLine
 62
7
  6
CONTINUOUS
 10
133.4454224391
 20
134.1368259032
 11
137.0411045953
 21
135.9985448389
  0
LINE
  5
31A
100
AcDbEntity
  8
268
100
AcDbLine
 62
253
  6
CONTINUOUS
 10
131.1123484742
 20
132.2717115756
 11
129.9576941886
 21
131.6820432724
  0
LINE
  5
31B
100
AcDbEntity
  8
268
100
AcDbLine
 62
253
  6
CONTINUOUS
 10
131.5108164807
 20
131.9219514814
 11
130.205181562
 21
131.2551791525
  0
LINE
  5
31C
100
AcDbEntity
  8
0
100
AcDbLine
 62
7
  6
CONTINUOUS
 10
137.419921762
 20
135.5382097133
 11
134.0493397848
 21
133.8348672304
  0
LINE
  5
31D
100
AcDbEntity
  8
268
100
AcDbLine
 62
7
  6
CONTINUOUS
 10
130.9673601328
 20
132.3442057463
 11
130.5172088732
 21
132.1169504005
  0
LINE
  5
31E
100
AcDbEntity
  8
DRAFT
100
AcDbLine
 62
7
  6
CONTINUOUS
 10
148.9036169234
 20
140.9684524431
 11
148.7975509062
 21
140.9154194345
  0
LINE
  5
31F
100
AcDbEntity
  8
DRAFT
100
AcDbLine
 62
7
  6
CONTINUOUS
 10
148.6207742109
 20
140.8270310869
 11
148.5147081937
 21
140.7739980783
  0
LINE
  5
320
100
AcDbEntity
  8
DRAFT
100
AcDbLine
 62
7
  6
CONTINUOUS
 10
148.3379314984
 20
140.6856097306
 11
148.2318654812
 21
140.632576722
  0
LINE
  5
321
100
AcDbEntity
  8
DRAFT
100
AcDbLine
 62
7
  6
CONTINUOUS
 10
148.0550887859
 20
140.5441883744
 11
147.9490227688
 21
140.4911553658
  0
LINE
  5
322
100
AcDbEntity
  8
DRAFT
100
AcDbLine
 62
7
  6
CONTINUOUS
 10
147.7722460735
 20
140.4027670181
 11
147.6661800563
 21
140.3497340096
  0
LINE
  5
323
100
AcDbEntity
  8
DRAFT
100
AcDbLine
 62
7
  6
CONTINUOUS
 10
147.489403361
 20
140.2613456619
 11
147.3833373438
 21
140.2083126533
  0
LINE
  5
324
100
AcDbEntity
  8
DRAFT
100
AcDbLine
 62
7
  6
CONTINUOUS
 10
148.7634298266
 20
140.8105220949
 11
148.6573638094
 21
140.7574890863
  0
LINE
  5
325
100
AcDbEntity
  8
DRAFT
100
AcDbLine
 62
7
  6
CONTINUOUS
 10
148.4805871141
 20
140.6691007386
 11
148.3745210969
 21
140.61606773
  0
LINE
  5
326
100
AcDbEntity
  8
DRAFT
100
AcDbLine
 62
7
  6
CONTINUOUS
 10
148.1977444016
 20
140.5276793824
 11
148.0916783845
 21
140.4746463738
  0
LINE
  5
327
100
AcDbEntity
  8
DRAFT
100
AcDbLine
 62
7
  6
CONTINUOUS
 10
147.9149016892
 20
140.3862580261
 11
147.808835672
 21
140.3332250176
  0
LINE
  5
328
100
AcDbEntity
  8
DRAFT
100
AcDbLine
 62
7
  6
CONTINUOUS
 10
147.6320589767
 20
140.2448366699
 11
147.5259929595
 21
140.1918036613
  0
LINE
  5
329
100
AcDbEntity
  8
RACCORDO
100
AcDbLine
 62
7
  6
CONTINUOUS
 10
147.3492162642
 20
140.1034153137
 11
143.0488890586
 21
137.9532517109
  0
LINE
  5
32A
100
AcDbEntity
  8
RACCORDO
100
AcDbLine
 62
253
  6
CONTINUOUS
 10
132.3972125837
 20
132.4766083411
 11
134.5185329273
 21
133.5372685129
  0
LINE
  5
32B
100
AcDbEntity
  8
RACCORDO
100
AcDbLine
 62
253
  6
CONTINUOUS
 10
132.573989279
 20
132.1717136425
 11
134.6953096226
 21
133.2323738143
  0
LINE
  5
32C
100
AcDbEntity
  8
DRAFT
100
AcDbLine
 62
7
  6
CONTINUOUS
 10
148.6195636142
 20
139.2453633911
 11
149.0849326197
 21
139.4780478939
  0
LINE
  5
32D
100
AcDbEntity
  8
DRAFT
100
AcDbLine
 62
7
  6
CONTINUOUS
 10
149.0129876821
 20
139.3567071442
 11
148.8185333173
 21
139.2594799618
  0
LWPOLYLINE
  5
32E
100
AcDbEntity
  8
RACCORDO
100
AcDbPolyline
 62
7
  6
CONTINUOUS
 90
5
 70
0
 10
131.3842789664
 20
131.825397584
 10
131.3699970231
 20
131.8182686441
 10
131.3389482635
 20
131.8017286049
 10
131.309598839
 20
131.784799684
 10
131.2818868726
 20
131.7676800219
  0
LINE
  5
32F
100
AcDbEntity
  8
RACCORDO
100
AcDbLine
 62
7
  6
CONTINUOUS
 10
130.8677419168
 20
131.5325896214
 11
131.1023400262
 21
131.6489520132
  0
LINE
  5
330
100
AcDbEntity
  8
RACCORDO
100
AcDbLine
 62
253
  6
CONTINUOUS
 10
131.0908990439
 20
131.5181215177
 11
131.3306889588
 21
131.6370563536
  0
LWPOLYLINE
  5
331
100
AcDbEntity
  8
0
100
AcDbPolyline
 62
253
  6
CONTINUOUS
 90
32
 70
0
 10
148.6129672158
 20
138.8858951185
 10
148.622087201
 20
138.8903682936
 10
148.6312187956
 20
138.8945596341
 10
148.6403502501
 20
138.8984622043
 10
148.6494718343
 20
138.9020749419
 10
148.6585687462
 20
138.9053845474
 10
148.6676222648
 20
138.9083662778
 10
148.6766229083
 20
138.9110120535
 10
148.6855565816
 20
138.9133166673
 10
148.6943998803
 20
138.9152612919
 10
148.7031436993
 20
138.9168381965
 10
148.7117759696
 20
138.9180437525
 10
148.7202718801
 20
138.9188673662
 10
148.7286191993
 20
138.9193028235
 10
148.7368128544
 20
138.9193477239
 10
148.744840906
 20
138.9189986278
 10
148.752689931
 20
138.9182520393
 10
148.7603576676
 20
138.9171040217
 10
148.7678478261
 20
138.9155498267
 10
148.7751521649
 20
138.9135848649
 10
148.7822602136
 20
138.9112045612
 10
148.7891697014
 20
138.9084025932
 10
148.7958728
 20
138.9051726094
 10
148.8023569944
 20
138.9015110319
 10
148.8086118735
 20
138.8974150786
 10
148.8146286137
 20
138.8928788778
 10
148.8203965918
 20
138.8878991889
 10
148.8259029582
 20
138.8824774003
 10
148.8311391283
 20
138.8766086858
 10
148.8360959747
 20
138.8702900696
 10
148.8407603498
 20
138.8635260894
 10
148.8443463975
 20
138.8576704266
  0
LINE
  5
332
100
AcDbEntity
  8
RACCORDO
100
AcDbLine
 62
7
  6
CONTINUOUS
 10
131.5008089816
 20
131.8822773117
 11
131.3842801569
 21
131.8253950519
  0
LINE
  5
333
100
AcDbEntity
  8
RACCORDO
100
AcDbLine
 62
7
  6
CONTINUOUS
 10
131.5108164807
 20
131.8871633075
 11
131.5008089816
 21
131.8822773117
  0
LWPOLYLINE
  5
334
100
AcDbEntity
  8
0
100
AcDbPolyline
 62
253
  6
CONTINUOUS
 90
52
 70
0
 10
148.6543886097
 20
138.7427347214
 10
148.659875492
 20
138.7454108814
 10
148.6654007224
 20
138.7478332259
 10
148.6709643008
 20
138.7500017548
 10
148.6765742588
 20
138.7519258692
 10
148.6822225649
 20
138.753596168
 10
148.6878851246
 20
138.7549844481
 10
148.6935626126
 20
138.75608828
 10
148.6992543543
 20
138.7569100931
 10
148.7049342313
 20
138.7574289719
 10
148.7106024298
 20
138.7576419671
 10
148.7162587635
 20
138.7575520281
 10
148.7218765558
 20
138.7571470869
 10
148.7274528051
 20
138.7564252383
 10
148.7329905129
 20
138.7553883876
 10
148.738472007
 20
138.754030183
 10
148.7438938059
 20
138.7523517013
 10
148.7492593912
 20
138.7503518658
 10
148.7545615341
 20
138.7480210939
 10
148.7598018927
 20
138.7453597903
 10
148.764978809
 20
138.7423675504
 10
148.770080081
 20
138.7390335774
 10
148.7751078129
 20
138.7353564728
 10
148.7800599005
 20
138.731337635
 10
148.7849178294
 20
138.7269704633
 10
148.7896821473
 20
138.7222534135
 10
148.7943523065
 20
138.7171880297
 10
148.7989081495
 20
138.7117723432
 10
148.8033495815
 20
138.7060051297
 10
148.8076766973
 20
138.6998876134
 10
148.8118696247
 20
138.6934214981
 10
148.8159284181
 20
138.6866051307
 10
148.8198530229
 20
138.6794401643
 10
148.8236234042
 20
138.6719332622
 10
148.8272397394
 20
138.6640815287
 10
148.830701851
 20
138.6558878596
 10
148.8339891707
 20
138.6473676053
 10
148.8371011844
 20
138.6385181657
 10
148.8400384064
 20
138.6293421408
 10
148.8427818105
 20
138.6198626816
 10
148.8453306535
 20
138.6100764454
 10
148.8476856788
 20
138.5999867749
 10
148.84983009
 20
138.5896268484
 10
148.8517625689
 20
138.5789942266
 10
148.8534844337
 20
138.5680913489
 10
148.8549828433
 20
138.5569587117
 10
148.856256287
 20
138.5455935885
 10
148.8573062756
 20
138.5339987058
 10
148.8581244994
 20
138.5222227401
 10
148.8587081888
 20
138.5102819169
 10
148.8590601135
 20
138.4981600106
 10
148.8591802735
 20
138.4858570213
  0
LINE
  5
335
100
AcDbEntity
  8
0
100
AcDbLine
 62
253
  6
CONTINUOUS
 10
140.8213033654
 20
137.0091227788
 11
137.7288533155
 21
135.5069671806
  0
LINE
  5
336
100
AcDbEntity
  8
RACCORDO
100
AcDbLine
 62
253
  6
CONTINUOUS
 10
131.4886958032
 20
131.8464057031
 11
131.5073244873
 21
131.855371706
  0
LINE
  5
337
100
AcDbEntity
  8
RACCORDO
100
AcDbLine
 62
253
  6
CONTINUOUS
 10
133.9882028414
 20
131.4536840239
 11
133.2810960602
 21
131.1152471629
  0
LWPOLYLINE
  5
338
100
AcDbEntity
  8
RACCORDO
100
AcDbPolyline
 62
253
  6
CONTINUOUS
 90
5
 70
0
 10
131.3845769029
 20
131.8255401897
 10
131.3915283465
 20
131.8287707855
 10
131.422147043
 20
131.8394684479
 10
131.4546484235
 20
131.8453671221
 10
131.4886958032
 20
131.8464057031
  0
LWPOLYLINE
  5
339
100
AcDbEntity
  8
RACCORDO
100
AcDbPolyline
 62
253
  6
CONTINUOUS
 90
4
 70
0
 10
131.528962525
 20
131.8540844898
 10
131.5267692999
 20
131.8530766293
 10
131.5147811754
 20
131.8489242066
 10
131.5020460576
 20
131.8466928783
  0
LWPOLYLINE
  5
33A
100
AcDbEntity
  8
RACCORDO
100
AcDbPolyline
 62
253
  6
CONTINUOUS
 90
8
 70
0
 10
131.1023400557
 20
131.6489520278
 10
131.118069986
 20
131.655926611
 10
131.1499993983
 20
131.6655332886
 10
131.1838415079
 20
131.6700488026
 10
131.2192251237
 20
131.6694237219
 10
131.2557623099
 20
131.6636650656
 10
131.2930526797
 20
131.652836098
 10
131.3306875289
 20
131.6370556444
  0
LWPOLYLINE
  5
33B
100
AcDbEntity
  8
RACCORDO
100
AcDbPolyline
 62
253
  6
CONTINUOUS
 90
13
 70
0
 10
132.573989279
 20
132.1717136425
 10
132.5499829665
 20
132.1611560325
 10
132.5232812008
 20
132.152159061
 10
132.4942779577
 20
132.1449083345
 10
132.4633482506
 20
132.1395552424
 10
132.4310589147
 20
132.1362528623
 10
132.3981817893
 20
132.1351029295
 10
132.3653600579
 20
132.1361207248
 10
132.3330898873
 20
132.1392836557
 10
132.3019401632
 20
132.1445347306
 10
132.2724512677
 20
132.1517800002
 10
132.245126825
 20
132.1608927139
 10
132.2204358884
 20
132.1717136425
  0
LWPOLYLINE
  5
33C
100
AcDbEntity
  8
RACCORDO
100
AcDbPolyline
 62
253
  6
CONTINUOUS
 90
13
 70
0
 10
132.573989279
 20
131.8203996704
 10
132.549402941
 20
131.8096188505
 10
132.5222125837
 20
131.8005348426
 10
132.4928834418
 20
131.7933030765
 10
132.461917345
 20
131.7880472898
 10
132.4298441318
 20
131.7848574104
 10
132.3972125837
 20
131.7837880181
 10
132.3645810357
 20
131.7848574104
 10
132.3325078224
 20
131.7880472898
 10
132.3015417256
 20
131.7933030765
 10
132.2722125837
 20
131.8005348426
 10
132.2450222265
 20
131.8096188505
 10
132.2204358884
 20
131.8203996704
  0
LWPOLYLINE
  5
33D
100
AcDbEntity
  8
RACCORDO
100
AcDbPolyline
 62
253
  6
CONTINUOUS
 90
13
 70
0
 10
133.2810960602
 20
131.423953061
 10
133.2565097222
 20
131.4131722411
 10
133.2293193649
 20
131.4040882332
 10
133.199990223
 20
131.3968564671
 10
133.1690241262
 20
131.3916006804
 10
133.136950913
 20
131.388410801
 10
133.1043193649
 20
131.3873414087
 10
133.0716878169
 20
131.388410801
 10
133.0396146036
 20
131.3916006804
 10
133.0086485068
 20
131.3968564671
 10
132.9793193649
 20
131.4040882332
 10
132.9521290077
 20
131.4131722411
 10
132.9275426696
 20
131.423953061
  0
LINE
  5
33E
100
AcDbEntity
  8
0
100
AcDbLine
 62
7
  6
CONTINUOUS
 10
148.0317803905
 20
139.6846673377
 11
147.3877816063
 21
139.4063833905
  0
LINE
  5
33F
100
AcDbEntity
  8
0
100
AcDbLine
 62
253
  6
CONTINUOUS
 10
147.4751530407
 20
139.255689957
 11
148.2135606954
 21
139.574769747
  0
LWPOLYLINE
  5
340
100
AcDbEntity
  8
RACCORDO
100
AcDbPolyline
 62
253
  6
CONTINUOUS
 90
16
 70
0
 10
133.4200492735
 20
130.8701237125
 10
133.3838989793
 20
130.8547703093
 10
133.3456581535
 20
130.8416140752
 10
133.3053267959
 20
130.8306550103
 10
133.2624339748
 20
130.8218414826
 10
133.2174506219
 20
130.8152251241
 10
133.1717895324
 20
130.8109608304
 10
133.1254743647
 20
130.809104137
 10
133.0784814603
 20
130.8095995083
 10
133.0321526394
 20
130.8124352334
 10
132.9864594696
 20
130.8176684248
 10
132.9414303833
 20
130.8252419699
 10
132.8984924984
 20
130.83497282
 10
132.8581215209
 20
130.8467999587
 10
132.8198417449
 20
130.8607844023
 10
132.7836531704
 20
130.8769261509
  0
LWPOLYLINE
  5
341
100
AcDbEntity
  8
RACCORDO
100
AcDbPolyline
 62
253
  6
CONTINUOUS
 90
16
 70
0
 10
133.2810960602
 20
131.1152471629
 10
133.26144782
 20
131.1071406941
 10
133.240115606
 20
131.1001188044
 10
133.2173520525
 20
131.0942563743
 10
133.1934343849
 20
131.0896227067
 10
133.1686238001
 20
131.0862534897
 10
133.1431578617
 20
131.084157395
 10
133.1173332724
 20
131.0833556578
 10
133.0914127923
 20
131.0838552314
 10
133.0655817117
 20
131.0856422801
 10
133.0401015783
 20
131.0887116527
 10
133.0152714723
 20
131.0930422014
 10
132.9913343834
 20
131.0985942288
 10
132.9685535171
 20
131.1053213758
 10
132.9472051984
 20
131.1131648214
 10
132.9275426696
 20
131.1220496013
  0
LINE
  5
342
100
AcDbEntity
  8
RACCORDO
100
AcDbLine
 62
253
  6
CONTINUOUS
 10
134.1089243311
 20
131.5126793826
 11
134.1271560546
 21
131.5199561867
  0
LINE
  5
343
100
AcDbEntity
  8
268
100
AcDbLine
 62
7
  6
CONTINUOUS
 10
130.205181562
 20
131.2307836472
 11
130.7706602245
 21
131.4284864322
  0
LWPOLYLINE
  5
344
100
AcDbEntity
  8
RACCORDO
100
AcDbPolyline
 62
253
  6
CONTINUOUS
 90
4
 70
0
 10
115.1509963325
 20
100.4512318813
 10
115.0726616658
 20
100.4684723846
 10
114.9930319771
 20
100.4949983061
 10
114.9121062771
 20
100.5308092206
  0
LWPOLYLINE
  5
345
100
AcDbEntity
  8
RACCORDO
100
AcDbPolyline
 62
253
  6
CONTINUOUS
 90
3
 70
0
 10
115.1377192433
 20
100.5935578478
 10
115.063970649
 20
100.6181464179
 10
114.9900933183
 20
100.6509955396
  0
LINE
  5
346
100
AcDbEntity
  8
RACCORDO
100
AcDbLine
 62
7
  6
CONTINUOUS
 10
114.9259271834
 20
102.827923216
 11
114.9881143254
 21
102.8059441934
  0
LWPOLYLINE
  5
347
100
AcDbEntity
  8
0
100
AcDbPolyline
 62
7
  6
CONTINUOUS
 90
3
 70
0
 10
115.6871885546
 20
100.8913339742
 10
115.7396332125
 20
100.8682755733
 10
115.7577910921
 20
100.8623153449
  0
LWPOLYLINE
  5
348
100
AcDbEntity
  8
ASSI
100
AcDbPolyline
 62
7
  6
CONTINUOUS
 90
3
 70
0
 10
115.6871885546
 20
100.8913339742
 10
115.7396332125
 20
100.8682755733
 10
115.7577910921
 20
100.8623153449
  0
LINE
  5
349
100
AcDbEntity
  8
RACCORDO
100
AcDbLine
 62
253
  6
CONTINUOUS
 10
114.9440031746
 20
102.8733491135
 11
115.024984471
 21
102.8375417707
  0
LINE
  5
34A
100
AcDbEntity
  8
ASSI
100
AcDbLine
 62
253
  6
CONTINUOUS
 10
114.9440031746
 20
102.8733491135
 11
115.024984471
 21
102.8375417707
  0
LINE
  5
34B
100
AcDbEntity
  8
RACCORDO
100
AcDbLine
 62
7
  6
CONTINUOUS
 10
114.9881143254
 20
102.8059441934
 11
115.0507868017
 21
102.7776835396
  0
LINE
  5
34C
100
AcDbEntity
  8
ASSI
100
AcDbLine
 62
7
  6
CONTINUOUS
 10
115.0011531477
 20
102.8005668176
 11
115.0507299579
 21
102.777712096
  0
LINE
  5
34D
100
AcDbEntity
  8
RACCORDO
100
AcDbLine
 62
253
  6
CONTINUOUS
 10
147.434636888
 20
85.3323503319
 11
147.4409093535
 21
85.3292140991
  0
LINE
  5
34E
100
AcDbEntity
  8
DRAFT
100
AcDbLine
 62
7
  6
CONTINUOUS
 10
143.4381438671
 20
87.4739119722
 11
146.8992518394
 21
85.743357986
  0
LINE
  5
34F
100
AcDbEntity
  8
RACCORDO
100
AcDbLine
 62
253
  6
CONTINUOUS
 10
147.4257443105
 20
85.4921267065
 11
147.9712394394
 21
85.2193791421
  0
LINE
  5
350
100
AcDbEntity
  8
RACCORDO
100
AcDbLine
 62
7
  6
CONTINUOUS
 10
147.4257443105
 20
85.495746856
 11
147.9946544906
 21
85.211291766
  0
LINE
  5
351
100
AcDbEntity
  8
DRAFT
100
AcDbLine
 62
7
  6
CONTINUOUS
 10
143.5662304957
 20
89.0305063811
 11
146.8992518394
 21
87.3639957092
  0
LINE
  5
352
100
AcDbEntity
  8
RACCORDO
100
AcDbLine
 62
253
  6
CONTINUOUS
 10
115.024984471
 20
102.8375417707
 11
115.1048478032
 21
102.7930612713
  0
LINE
  5
353
100
AcDbEntity
  8
ASSI
100
AcDbLine
 62
253
  6
CONTINUOUS
 10
115.024984471
 20
102.8375417707
 11
115.1048478032
 21
102.7930612713
  0
LINE
  5
354
100
AcDbEntity
  8
RACCORDO
100
AcDbLine
 62
7
  6
CONTINUOUS
 10
115.0508761766
 20
102.777631495
 11
115.1268662707
 21
102.735124296
  0
LINE
  5
355
100
AcDbEntity
  8
RACCORDO
100
AcDbLine
 62
253
  6
CONTINUOUS
 10
147.9935900494
 20
85.2058363549
 11
147.9712394394
 21
85.2193791421
  0
LINE
  5
356
100
AcDbEntity
  8
ASSI
100
AcDbLine
 62
7
  6
CONTINUOUS
 10
115.0512678945
 20
102.7774392605
 11
115.1942344173
 21
102.6897864154
  0
LINE
  5
357
100
AcDbEntity
  8
RACCORDO
100
AcDbLine
 62
253
  6
CONTINUOUS
 10
115.1048478032
 20
102.7930612713
 11
115.1827144271
 21
102.7409312633
  0
LWPOLYLINE
  5
358
100
AcDbEntity
  8
ASSI
100
AcDbPolyline
 62
253
  6
CONTINUOUS
 90
3
 70
0
 10
115.1048478032
 20
102.7930612713
 10
115.1827144271
 20
102.7409312633
 10
115.2585853138
 20
102.6811521543
  0
LWPOLYLINE
  5
359
100
AcDbEntity
  8
RACCORDO
100
AcDbPolyline
 62
7
  6
CONTINUOUS
 90
22
 70
0
 10
115.1268662707
 20
102.735124296
 10
115.1979032114
 20
102.6871043543
 10
115.2676530329
 20
102.6317803046
 10
115.335552951
 20
102.56963681
 10
115.4011402047
 20
102.5010982183
 10
115.463883058
 20
102.4266881188
 10
115.5232932721
 20
102.3470284019
 10
115.5790054642
 20
102.2626199494
 10
115.6305654402
 20
102.1740949052
 10
115.6775794637
 20
102.0821463434
 10
115.719778941
 20
101.987330522
 10
115.7568143217
 20
101.8903714462
 10
115.7883920044
 20
101.7920031362
 10
115.8143355725
 20
101.6928046682
 10
115.8344132161
 20
101.5935538104
 10
115.8484297972
 20
101.4950356654
 10
115.8562969045
 20
101.397873286
 10
115.8579263102
 20
101.3028586003
 10
115.853258541
 20
101.2108208675
 10
115.8423297201
 20
101.1224775836
 10
115.8252363573
 20
101.0385729431
 10
115.802120934
 20
100.9599209604
  0
LINE
  5
35A
100
AcDbEntity
  8
268
100
AcDbLine
 62
7
  6
CONTINUOUS
 10
116.4416701007
 20
139.963153958
 11
116.4416701007
 21
139.7097825643
  0
LINE
  5
35B
100
AcDbEntity
  8
268
100
AcDbLine
 62
7
  6
CONTINUOUS
 10
117.1528907088
 20
138.7991094827
 11
117.1528907088
 21
139.4362790414
  0
LWPOLYLINE
  5
35C
100
AcDbEntity
  8
RACCORDO
100
AcDbPolyline
 62
253
  6
CONTINUOUS
 90
55
 70
0
 10
115.5061125923
 20
101.3312379634
 10
115.5089082967
 20
101.3788002205
 10
115.5095462957
 20
101.4272803789
 10
115.5080239408
 20
101.4765154739
 10
115.5043481283
 20
101.5263151881
 10
115.4985305828
 20
101.5765363103
 10
115.4905772584
 20
101.6270850039
 10
115.4804935236
 20
101.6778448766
 10
115.4683109335
 20
101.7285906107
 10
115.4540866534
 20
101.7790645973
 10
115.4378722257
 20
101.8290880352
 10
115.4197216267
 20
101.8784984282
 10
115.3997231956
 20
101.9270684732
 10
115.3779743518
 20
101.974591073
 10
115.3545370115
 20
102.0209578549
 10
115.3294530361
 20
102.0660929366
 10
115.3027867048
 20
102.1098722215
 10
115.2746429503
 20
102.1521155118
 10
115.245125644
 20
102.1926651102
 10
115.2143352754
 20
102.2313832277
 10
115.1823750596
 20
102.2681403163
 10
115.1493617143
 20
102.3028035486
 10
115.1154290924
 20
102.3352380253
 10
115.0806717154
 20
102.3653588854
 10
115.0451489102
 20
102.3931098168
 10
115.0089423395
 20
102.4184106085
 10
114.9722069269
 20
102.4411368283
 10
114.9351142298
 20
102.4611762627
 10
114.8978045402
 20
102.4784543476
 10
114.8603905313
 20
102.4929201274
 10
114.8230052
 20
102.5045224452
 10
114.7857798244
 20
102.5132219956
 10
114.7488363833
 20
102.5189917128
 10
114.7122932428
 20
102.5218132338
 10
114.6762698367
 20
102.5216760434
 10
114.6408935605
 20
102.5185793152
 10
114.6062918831
 20
102.5125344148
 10
114.5725867568
 20
102.5035644823
 10
114.5398872339
 20
102.4917004195
 10
114.5082970487
 20
102.4769800226
 10
114.4779189736
 20
102.459449414
 10
114.4488617057
 20
102.4391694962
 10
114.421231373
 20
102.4162147697
 10
114.3951260447
 20
102.3906698292
 10
114.3706279142
 20
102.3626183496
 10
114.3478120149
 20
102.3321462259
 10
114.3267433268
 20
102.2993332626
 10
114.3075099363
 20
102.2643092785
 10
114.2902050427
 20
102.2272552685
 10
114.2748934949
 20
102.1883473107
 10
114.2615992195
 20
102.1476875864
 10
114.2503430343
 20
102.1053573654
 10
114.2411586669
 20
102.0614773524
 10
114.2340827768
 20
102.0162156719
 10
114.2291389717
 20
101.9697247737
  0
LWPOLYLINE
  5
35D
100
AcDbEntity
  8
RACCORDO
100
AcDbPolyline
 62
253
  6
CONTINUOUS
 90
39
 70
0
 10
115.6401052697
 20
101.3249414083
 10
115.6431823771
 20
101.3772954547
 10
115.6438845268
 20
101.4306598033
 10
115.6422088047
 20
101.4848550977
 10
115.6381628851
 20
101.5396718613
 10
115.631759585
 20
101.5949525085
 10
115.6230052059
 20
101.6505937803
 10
115.6119055236
 20
101.7064675215
 10
115.5984954178
 20
101.762325675
 10
115.5828379794
 20
101.8178846876
 10
115.564990011
 20
101.8729477766
 10
115.5450108508
 20
101.9273360749
 10
115.5229976846
 20
101.9807993643
 10
115.4990577272
 20
102.0331096686
 10
115.4732591554
 20
102.0841477031
 10
115.4456480603
 20
102.1338299478
 10
115.4162952013
 20
102.1820198092
 10
115.3853160775
 20
102.2285189323
 10
115.3528250223
 20
102.27315373
 10
115.3189326479
 20
102.3157725298
 10
115.2837525695
 20
102.3562327337
 10
115.2474132647
 20
102.3943881349
 10
115.2100620723
 20
102.4300902455
 10
115.1718030351
 20
102.463245654
 10
115.1327014559
 20
102.4937923725
 10
115.0928472244
 20
102.5216421073
 10
115.0524108728
 20
102.5466578919
 10
115.0115812424
 20
102.5687162097
 10
114.9705127592
 20
102.5877349857
 10
114.9293294472
 20
102.60365813
 10
114.8881777021
 20
102.6164293312
 10
114.8472020277
 20
102.6260053235
 10
114.8065366914
 20
102.6323563151
 10
114.7663119843
 20
102.6354620929
 10
114.7266593723
 20
102.635311083
 10
114.6877190855
 20
102.6319023753
 10
114.6496314349
 20
102.6252484793
 10
114.6125306594
 20
102.6153748648
 10
114.588508087
 20
102.6070594573
  0
LWPOLYLINE
  5
35E
100
AcDbEntity
  8
RACCORDO
100
AcDbPolyline
 62
253
  6
CONTINUOUS
 90
4
 70
0
 10
115.8858703685
 20
101.2253615062
 10
115.8774952963
 20
101.1265985874
 10
115.8621566091
 20
101.0313221349
 10
115.840201061
 20
100.9417036048
  0
LWPOLYLINE
  5
35F
100
AcDbEntity
  8
ASSI
100
AcDbPolyline
 62
253
  6
CONTINUOUS
 90
3
 70
0
 10
115.8774952963
 20
101.1265985874
 10
115.8621566091
 20
101.0313221349
 10
115.840201061
 20
100.9417036048
  0
LWPOLYLINE
  5
360
100
AcDbEntity
  8
ASSI
100
AcDbPolyline
 62
253
  6
CONTINUOUS
 90
4
 70
0
 10
114.209895057
 20
102.315021497
 10
114.2301494124
 20
102.3977751749
 10
114.2565942792
 20
102.4753077754
 10
114.2889978268
 20
102.5470183781
  0
LINE
  5
361
100
AcDbEntity
  8
RACCORDO
100
AcDbLine
 62
7
  6
CONTINUOUS
 10
137.4685600145
 20
139.7667465716
 11
136.9718911578
 21
139.2593827013
  0
LWPOLYLINE
  5
362
100
AcDbEntity
  8
RACCORDO
100
AcDbPolyline
 62
7
  6
CONTINUOUS
 90
8
 70
0
 10
131.2074242031
 20
131.7173732102
 10
131.1858120687
 20
131.702176538
 10
131.1654835551
 20
131.688035673
 10
131.1473808079
 20
131.6758062435
 10
131.1315748409
 20
131.665620157
 10
131.1178163513
 20
131.6573305936
 10
131.106745996
 20
131.651215372
 10
131.1022309512
 20
131.6489110355
  0
LWPOLYLINE
  5
363
100
AcDbEntity
  8
RACCORDO
100
AcDbPolyline
 62
253
  6
CONTINUOUS
 90
7
 70
0
 10
133.9882028414
 20
131.7775064516
 10
134.0097644812
 20
131.7897996206
 10
134.027932497
 20
131.8033947993
 10
134.0423960292
 20
131.8180593702
 10
134.0529076027
 20
131.8335424186
 10
134.0592873614
 20
131.8495790252
 10
134.0614261461
 20
131.8658947993
  0
LWPOLYLINE
  5
364
100
AcDbEntity
  8
RACCORDO
100
AcDbPolyline
 62
7
  6
CONTINUOUS
 90
13
 70
0
 10
136.5337989483
 20
131.0415705533
 10
136.5110773713
 20
131.0295546065
 10
136.4901379113
 20
131.016936756
 10
136.4709805685
 20
131.0037170016
 10
136.4535382735
 20
130.9898333047
 10
136.4378780957
 20
130.9753477041
 10
136.4242012425
 20
130.9604463157
 10
136.4125333061
 20
130.9451237746
 10
136.4028486942
 20
130.9293854458
 10
136.3952718384
 20
130.9134335411
 10
136.3898299361
 20
130.8972653044
 10
136.3864957899
 20
130.8808834917
 10
136.385310223
 20
130.8637830856
  0
LINE
  5
365
100
AcDbEntity
  8
RACCORDO
100
AcDbLine
 62
253
  6
CONTINUOUS
 10
134.0058757503
 20
131.4627781585
 11
133.9882028414
 21
131.4536840239
  0
LINE
  5
366
100
AcDbEntity
  8
0
100
AcDbLine
 62
253
  6
CONTINUOUS
 10
147.8998954783
 20
138.5231176162
 11
148.612967336
 21
138.8858949113
  0
LINE
  5
367
100
AcDbEntity
  8
0
100
AcDbLine
 62
253
  6
CONTINUOUS
 10
147.9734274015
 20
138.3962938087
 11
148.6543886097
 21
138.7427347214
  0
LINE
  5
368
100
AcDbEntity
  8
0
100
AcDbLine
 62
253
  6
CONTINUOUS
 10
138.8686331104
 20
133.5411378249
 11
147.9736799593
 21
138.1733593286
  0
LINE
  5
369
100
AcDbEntity
  8
0
100
AcDbLine
 62
253
  6
CONTINUOUS
 10
138.6577353355
 20
133.4032971006
 11
135.096284979
 21
131.5913993047
  0
LINE
  5
36A
100
AcDbEntity
  8
0
100
AcDbLine
 62
253
  6
CONTINUOUS
 10
143.1176538113
 20
134.0605038174
 11
148.3878320201
 21
136.741719817
  0
LINE
  5
36B
100
AcDbEntity
  8
RACCORDO
100
AcDbLine
 62
7
  6
CONTINUOUS
 10
142.8270376062
 20
133.5497691638
 11
138.2308435285
 21
131.2516721249
  0
LINE
  5
36C
100
AcDbEntity
  8
RACCORDO
100
AcDbLine
 62
7
  6
CONTINUOUS
 10
135.5314951652
 20
131.3737942116
 11
141.7964981499
 21
134.4812818782
  0
LINE
  5
36D
100
AcDbEntity
  8
RACCORDO
100
AcDbLine
 62
7
  6
CONTINUOUS
 10
136.5337989483
 20
131.0415705533
 11
142.2211866611
 21
133.8526946363
  0
LINE
  5
36E
100
AcDbEntity
  8
RACCORDO
100
AcDbLine
 62
253
  6
CONTINUOUS
 10
134.1271560546
 20
131.2085605735
 11
133.4200492735
 21
130.8701237125
  0
LWPOLYLINE
  5
36F
100
AcDbEntity
  8
ASSI
100
AcDbPolyline
 62
7
  6
CONTINUOUS
 90
3
 70
0
 10
114.7950102644
 20
102.8534568821
 10
114.8969658759
 20
102.8360520678
 10
115.0011531477
 20
102.8005668176
  0
LINE
  5
370
100
AcDbEntity
  8
RACCORDO
100
AcDbLine
 62
7
  6
CONTINUOUS
 10
114.8644936246
 20
102.843520043
 11
114.9259271834
 21
102.827923216
  0
LINE
  5
371
100
AcDbEntity
  8
ASSI
100
AcDbLine
 62
253
  6
CONTINUOUS
 10
114.8642640395
 20
102.8998453621
 11
114.9440031746
 21
102.8733491135
  0
LINE
  5
372
100
AcDbEntity
  8
268
100
AcDbLine
 62
7
  6
CONTINUOUS
 10
118.2197216209
 20
139.3376907322
 11
118.2197216209
 21
141.0697415398
  0
LINE
  5
373
100
AcDbEntity
  8
268
100
AcDbLine
 62
7
  6
CONTINUOUS
 10
118.9227145752
 20
141.2050630376
 11
118.9227145752
 21
140.9441340612
  0
LINE
  5
374
100
AcDbEntity
  8
268
100
AcDbLine
 62
7
  6
CONTINUOUS
 10
120.3974786239
 20
138.8116776004
 11
120.3974786239
 21
137.5969442142
  0
LINE
  5
375
100
AcDbEntity
  8
268
100
AcDbLine
 62
253
  6
CONTINUOUS
 10
120.4853465896
 20
138.7051686436
 11
120.4853465896
 21
137.4902137775
  0
LINE
  5
376
100
AcDbEntity
  8
268
100
AcDbLine
 62
7
  6
CONTINUOUS
 10
120.659240016
 20
136.0037544202
 11
120.659240016
 21
135.8519759086
  0
LINE
  5
377
100
AcDbEntity
  8
284
100
AcDbLine
 62
7
  6
CONTINUOUS
 10
125.5658798795
 20
133.5504344884
 11
125.5226516747
 21
133.4202700792
  0
LWPOLYLINE
  5
378
100
AcDbEntity
  8
RACCORDO
100
AcDbPolyline
 62
253
  6
CONTINUOUS
 90
6
 70
0
 10
115.840201061
 20
100.9417036048
 10
115.8114707303
 20
100.8578738717
 10
115.7761195501
 20
100.7797003868
 10
115.734958274
 20
100.7089578571
 10
115.6878520834
 20
100.6458211345
 10
115.6349288554
 20
100.5901124186
  0
LINE
  5
379
100
AcDbEntity
  8
ASSI
100
AcDbLine
 62
253
  6
CONTINUOUS
 10
115.840201061
 20
100.9417036048
 11
115.8114707303
 21
100.8578738717
  0
LINE
  5
37A
100
AcDbEntity
  8
268
100
AcDbLine
 62
7
  6
CONTINUOUS
 10
132.1991586203
 20
134.030023691
 11
131.8561960182
 21
133.6126050889
  0
LINE
  5
37B
100
AcDbEntity
  8
RACCORDO
100
AcDbLine
 62
7
  6
CONTINUOUS
 10
140.5798298517
 20
138.211111653
 11
140.083160995
 21
137.7037477826
  0
LINE
  5
37C
100
AcDbEntity
  8
0
100
AcDbLine
 62
253
  6
CONTINUOUS
 10
148.47203008
 20
134.0483589589
 11
149.2141763596
 21
134.4326164438
  0
LINE
  5
37D
100
AcDbEntity
  8
0
100
AcDbLine
 62
253
  6
CONTINUOUS
 10
148.3878320201
 20
133.5290230351
 11
149.4299782997
 21
134.0686100671
  0
LINE
  5
37E
100
AcDbEntity
  8
0
100
AcDbLine
 62
7
  6
CONTINUOUS
 10
143.8081938273
 20
131.8681405358
 11
140.4030502671
 21
130.1655687556
  0
LINE
  5
37F
100
AcDbEntity
  8
DRAFT
100
AcDbLine
 62
7
  6
CONTINUOUS
 10
139.4852115036
 20
130.6244881374
 11
143.1805909968
 21
132.3931780566
  0
LINE
  5
380
100
AcDbEntity
  8
RACCORDO
100
AcDbLine
 62
7
  6
CONTINUOUS
 10
144.9606986647
 20
132.8991816208
 11
139.8387648942
 21
130.4477114421
  0
LWPOLYLINE
  5
381
100
AcDbEntity
  8
ASSI
100
AcDbPolyline
 62
253
  6
CONTINUOUS
 90
6
 70
0
 10
115.4201887907
 20
100.5810633459
 10
115.3525878023
 20
100.5711405465
 10
115.2825895347
 20
100.5699376756
 10
115.2107759849
 20
100.5774412493
 10
115.1377192433
 20
100.5935578478
 10
115.063970649
 20
100.6181464179
  0
LINE
  5
382
100
AcDbEntity
  8
ASSI
100
AcDbLine
 62
7
  6
CONTINUOUS
 10
114.6966441087
 20
102.852304776
 11
114.7950102644
 21
102.8534568821
  0
LWPOLYLINE
  5
383
100
AcDbEntity
  8
RACCORDO
100
AcDbPolyline
 62
7
  6
CONTINUOUS
 90
3
 70
0
 10
114.7455005217
 20
102.855233581
 10
114.8042438327
 20
102.8526235666
 10
114.8644936246
 20
102.843520043
  0
LWPOLYLINE
  5
384
100
AcDbEntity
  8
RACCORDO
100
AcDbPolyline
 62
253
  6
CONTINUOUS
 90
4
 70
0
 10
114.7079017337
 20
102.9249136319
 10
114.7857680547
 20
102.9170309316
 10
114.8642640395
 20
102.8998453621
 10
114.9440031746
 20
102.8733491135
  0
LWPOLYLINE
  5
385
100
AcDbEntity
  8
ASSI
100
AcDbPolyline
 62
253
  6
CONTINUOUS
 90
3
 70
0
 10
114.7079017337
 20
102.9249136319
 10
114.7857680547
 20
102.9170309316
 10
114.8642640395
 20
102.8998453621
  0
LWPOLYLINE
  5
386
100
AcDbEntity
  8
RACCORDO
100
AcDbPolyline
 62
7
  6
CONTINUOUS
 90
7
 70
0
 10
115.802120934
 20
100.9599209604
 10
115.7732574808
 20
100.8873062607
 10
115.7390315055
 20
100.8213901752
 10
115.6997849567
 20
100.7626496485
 10
115.6558483498
 20
100.7114203889
 10
115.607739812
 20
100.6680697832
 10
115.5557294563
 20
100.632716735
  0
LWPOLYLINE
  5
387
100
AcDbEntity
  8
ASSI
100
AcDbPolyline
 62
7
  6
CONTINUOUS
 90
4
 70
0
 10
115.8031979574
 20
100.9630608638
 10
115.7403615079
 20
100.8236438247
 10
115.6567553881
 20
100.7123540206
 10
115.5550774103
 20
100.6323129552
  0
LINE
  5
388
100
AcDbEntity
  8
ASSI
100
AcDbLine
 62
253
  6
CONTINUOUS
 10
115.8114707303
 20
100.8578738717
 11
115.7761195501
 21
100.7797003868
  0
LINE
  5
389
100
AcDbEntity
  8
0
100
AcDbLine
 62
7
  6
CONTINUOUS
 10
115.0104460199
 20
102.7962828388
 11
114.992959071
 21
102.7604422832
  0
LINE
  5
38A
100
AcDbEntity
  8
ASSI
100
AcDbLine
 62
7
  6
CONTINUOUS
 10
115.0104460199
 20
102.7962828388
 11
114.9860649175
 21
102.7463123003
  0
LWPOLYLINE
  5
38B
100
AcDbEntity
  8
ASSI
100
AcDbPolyline
 62
253
  6
CONTINUOUS
 90
6
 70
0
 10
114.2889978268
 20
102.5470183781
 10
114.3271476794
 20
102.6123724611
 10
114.3707318326
 20
102.6708657113
 10
114.41939099
 20
102.722046787
 10
114.4727819598
 20
102.7655398597
 10
114.5304806334
 20
102.8010090554
  0
LWPOLYLINE
  5
38C
100
AcDbEntity
  8
RACCORDO
100
AcDbPolyline
 62
253
  6
CONTINUOUS
 90
5
 70
0
 10
134.1386011042
 20
132.2069849483
 10
134.1141507687
 20
132.1717696925
 10
134.0916285302
 20
132.1352490318
 10
134.0709102121
 20
132.0971512658
 10
134.0521199911
 20
132.0577480949
  0
LINE
  5
38D
100
AcDbEntity
  8
RACCORDO
100
AcDbLine
 62
7
  6
CONTINUOUS
 10
134.7323589214
 20
132.8399166275
 11
134.7110692356
 21
132.8099810729
  0
LINE
  5
38E
100
AcDbEntity
  8
RACCORDO
100
AcDbLine
 62
253
  6
CONTINUOUS
 10
134.1649795367
 20
132.2408947993
 11
134.1386011042
 21
132.2069849483
  0
LWPOLYLINE
  5
38F
100
AcDbEntity
  8
RACCORDO
100
AcDbPolyline
 62
7
  6
CONTINUOUS
 90
13
 70
0
 10
134.1807218795
 20
132.1697951537
 10
134.163374507
 20
132.1475726017
 10
134.1466424316
 20
132.1234473428
 10
134.1308237027
 20
132.0977134442
 10
134.1161489051
 20
132.0706266502
 10
134.1029090006
 20
132.042639614
 10
134.091404095
 20
132.0144160043
 10
134.0817469546
 20
131.9863867065
 10
134.0739960988
 20
131.9589697012
 10
134.0682088557
 20
131.9328326395
 10
134.064302494
 20
131.9084413195
 10
134.0621070724
 20
131.8860376661
 10
134.0614261461
 20
131.8658947993
  0
LINE
  5
390
100
AcDbEntity
  8
RACCORDO
100
AcDbLine
 62
253
  6
CONTINUOUS
 10
134.1649795367
 20
132.2408947993
 11
134.6953096226
 21
132.8810598422
  0
LINE
  5
391
100
AcDbEntity
  8
RACCORDO
100
AcDbLine
 62
7
  6
CONTINUOUS
 10
134.1807218795
 20
132.1697951537
 11
134.7110519654
 21
132.8099601967
  0
LWPOLYLINE
  5
392
100
AcDbEntity
  8
0
100
AcDbPolyline
 62
253
  6
CONTINUOUS
 90
22
 70
0
 10
149.4299782997
 20
134.0686100671
 10
149.43753135
 20
134.0726682361
 10
149.4447805914
 20
134.0768639318
 10
149.4517159549
 20
134.0811914926
 10
149.4583281714
 20
134.0856453371
 10
149.464607607
 20
134.090219189
 10
149.4705444758
 20
134.0949060162
 10
149.4761303282
 20
134.0996991134
 10
149.4813578952
 20
134.1045922062
 10
149.4862200537
 20
134.1095786311
 10
149.4907101659
 20
134.1146515918
 10
149.4948220615
 20
134.1198041295
 10
149.4985500837
 20
134.125029159
 10
149.501889125
 20
134.1303195162
 10
149.5048346325
 20
134.1356679813
 10
149.5073825848
 20
134.141067251
 10
149.5095294975
 20
134.1465099446
 10
149.5112724309
 20
134.1519886134
 10
149.512609
 20
134.1574957633
 10
149.513537376
 20
134.1630238612
 10
149.5140562883
 20
134.1685653462
 10
149.5141763596
 20
134.1728070595
  0
LINE
  5
393
100
AcDbEntity
  8
RACCORDO
100
AcDbLine
 62
7
  6
CONTINUOUS
 10
142.7603878536
 20
127.9282761007
 11
148.3826360196
 21
130.7719699571
  0
LINE
  5
394
100
AcDbEntity
  8
RACCORDO
100
AcDbLine
 62
7
  6
CONTINUOUS
 10
147.7767850745
 20
131.0748954296
 11
143.1805909968
 21
128.7767983908
  0
LINE
  5
395
100
AcDbEntity
  8
RACCORDO
100
AcDbLine
 62
7
  6
CONTINUOUS
 10
148.7327288796
 20
130.5526167524
 11
149.2033393518
 21
130.7778612772
  0
LWPOLYLINE
  5
396
100
AcDbEntity
  8
RACCORDO
100
AcDbPolyline
 62
7
  6
CONTINUOUS
 90
12
 70
0
 10
147.7767850745
 20
131.0748954296
 10
147.8000712078
 20
131.0855785008
 10
147.8230628227
 20
131.0943009024
 10
147.8457599193
 20
131.1010626344
 10
147.8682568977
 20
131.1058758251
 10
147.8904593579
 20
131.1087283462
 10
147.9120840996
 20
131.1095838128
 10
147.9331237224
 20
131.1084166431
 10
147.9535856268
 20
131.1052524188
 10
147.9732088141
 20
131.1001315009
 10
147.9919825405
 20
131.0930288244
 10
148.0003819074
 20
131.0890819194
  0
LWPOLYLINE
  5
397
100
AcDbEntity
  8
RACCORDO
100
AcDbPolyline
 62
7
  6
CONTINUOUS
 90
12
 70
0
 10
149.2033393518
 20
130.7778612772
 10
149.2493541233
 20
130.7980085093
 10
149.2947486757
 20
130.8143098949
 10
149.339523009
 20
130.8267654341
 10
149.3838589153
 20
130.8353950202
 10
149.4275746026
 20
130.8401787598
 10
149.4701246946
 20
130.8410569734
 10
149.5114945892
 20
130.837980734
 10
149.5516988886
 20
130.8309989685
 10
149.590236023
 20
130.8201987782
 10
149.6270851067
 20
130.8055323272
 10
149.6381769178
 20
130.8002063229
  0
LINE
  5
398
100
AcDbEntity
  8
ASSI
100
AcDbLine
 62
253
  6
CONTINUOUS
 10
115.4710906933
 20
100.5948650434
 11
115.4201887907
 21
100.5810633459
  0
LINE
  5
399
100
AcDbEntity
  8
RACCORDO
100
AcDbLine
 62
7
  6
CONTINUOUS
 10
114.6886945085
 20
102.8513591931
 11
114.7455005217
 21
102.855233581
  0
LINE
  5
39A
100
AcDbEntity
  8
DRAFT
100
AcDbLine
 62
7
  6
CONTINUOUS
 10
152.7885679556
 20
92.3325421741
 11
153.5223454106
 21
91.9656534466
  0
LINE
  5
39B
100
AcDbEntity
  8
DRAFT
100
AcDbLine
 62
7
  6
CONTINUOUS
 10
148.5899578729
 20
95.1356931868
 11
149.8993304904
 21
94.4810068781
  0
LINE
  5
39C
100
AcDbEntity
  8
268
100
AcDbLine
 62
7
  6
CONTINUOUS
 10
125.6089874843
 20
133.528880686
 11
125.6089874843
 21
133.3771021744
  0
LWPOLYLINE
  5
39D
100
AcDbEntity
  8
RACCORDO
100
AcDbPolyline
 62
253
  6
CONTINUOUS
 90
18
 70
0
 10
131.3483210585
 20
131.695156147
 10
131.351808678
 20
131.7053735662
 10
131.355778148
 20
131.7157849811
 10
131.3602995366
 20
131.7262232462
 10
131.365455594
 20
131.7366313022
 10
131.3713029893
 20
131.7469564343
 10
131.3778626893
 20
131.7571305457
 10
131.3851463813
 20
131.7671041459
 10
131.3931596576
 20
131.7768454786
 10
131.4018569888
 20
131.7862736731
 10
131.4111704522
 20
131.7953070534
 10
131.421056086
 20
131.8039241148
 10
131.4314434587
 20
131.8121077772
 10
131.4422747222
 20
131.8198518143
 10
131.4535139512
 20
131.8271709665
 10
131.4650696711
 20
131.8340509651
 10
131.4768245888
 20
131.840464676
 10
131.4886936425
 20
131.8464079164
  0
LWPOLYLINE
  5
39E
100
AcDbEntity
  8
RACCORDO
100
AcDbPolyline
 62
253
  6
CONTINUOUS
 90
5
 70
0
 10
131.3306905379
 20
131.6370685153
 10
131.3329854898
 20
131.6436715812
 10
131.335248478
 20
131.6508335163
 10
131.3375363154
 20
131.6585674073
 10
131.3424745065
 20
131.6759195125
  0
LWPOLYLINE
  5
39F
100
AcDbEntity
  8
RACCORDO
100
AcDbPolyline
 62
253
  6
CONTINUOUS
 90
12
 70
0
 10
132.573989279
 20
131.8203996704
 10
132.5610443446
 20
131.7911196481
 10
132.5452982236
 20
131.763765358
 10
132.5269999538
 20
131.738815116
 10
132.5064290425
 20
131.7166961314
 10
132.4839367371
 20
131.6978273079
 10
132.4599533656
 20
131.6825858393
 10
132.4349098964
 20
131.6712405645
 10
132.4092192983
 20
131.6639737433
 10
132.3833236439
 20
131.6609101296
 10
132.3576678159
 20
131.6621017444
 10
132.3477286493
 20
131.6637362885
  0
LWPOLYLINE
  5
3A0
100
AcDbEntity
  8
RACCORDO
100
AcDbPolyline
 62
253
  6
CONTINUOUS
 90
12
 70
0
 10
133.1043193649
 20
131.7105647134
 10
133.0912700213
 20
131.6810787297
 10
133.0754192573
 20
131.6536096085
 10
133.057038284
 20
131.628627354
 10
133.0364416047
 20
131.6065594196
 10
133.0139816345
 20
131.5877833938
 10
132.9900426696
 20
131.5726205396
 10
132.9650343124
 20
131.5613302975
 10
132.9393844628
 20
131.5541058468
 10
132.9135319968
 20
131.5510707998
 10
132.8879192573
 20
131.552277087
 10
132.876841917
 20
131.554148172
  0
LWPOLYLINE
  5
3A1
100
AcDbEntity
  8
ASSI
100
AcDbPolyline
 62
253
  6
CONTINUOUS
 90
4
 70
0
 10
115.7761195501
 20
100.7797003868
 10
115.734958274
 20
100.7089578571
 10
115.6878520834
 20
100.6458211345
 10
115.6349288554
 20
100.5901124186
  0
LWPOLYLINE
  5
3A2
100
AcDbEntity
  8
RACCORDO
100
AcDbPolyline
 62
7
  6
CONTINUOUS
 90
10
 70
0
 10
144.3064089671
 20
126.4733931454
 10
144.2950162348
 20
126.4673364724
 10
144.2679305939
 20
126.4496213606
 10
144.2432996608
 20
126.4284960514
 10
144.221548161
 20
126.4042767757
 10
144.2030402851
 20
126.3772887896
 10
144.1881361072
 20
126.3479276448
 10
144.1771758318
 20
126.3167039765
 10
144.170417904
 20
126.2841806921
 10
144.1680280222
 20
126.2498350426
  0
LINE
  5
3A3
100
AcDbEntity
  8
RACCORDO
100
AcDbLine
 62
7
  6
CONTINUOUS
 10
144.306224465
 20
126.4733011478
 11
146.4275448086
 21
127.5339613196
  0
LINE
  5
3A4
100
AcDbEntity
  8
RACCORDO
100
AcDbLine
 62
253
  6
CONTINUOUS
 10
144.4180278639
 20
126.466200701
 11
146.5393482075
 21
127.5268608728
  0
LINE
  5
3A5
100
AcDbEntity
  8
RACCORDO
100
AcDbLine
 62
7
  6
CONTINUOUS
 10
148.7341530664
 20
129.6163970218
 11
142.7603878536
 21
126.723355268
  0
LINE
  5
3A6
100
AcDbEntity
  8
RACCORDO
100
AcDbLine
 62
7
  6
CONTINUOUS
 10
146.4369461138
 20
127.5384197528
 11
146.4273831784
 21
127.5338803096
  0
LWPOLYLINE
  5
3A7
100
AcDbEntity
  8
RACCORDO
100
AcDbPolyline
 62
253
  6
CONTINUOUS
 90
7
 70
0
 10
146.4275701686
 20
127.5339739948
 10
146.4324222451
 20
127.5362276473
 10
146.4518692931
 20
127.5422326495
 10
146.4726872388
 20
127.5442080046
 10
146.4944395869
 20
127.5422123271
 10
146.5167874412
 20
127.5363708306
 10
146.5393482075
 20
127.5268608728
  0
LWPOLYLINE
  5
3A8
100
AcDbEntity
  8
RACCORDO
100
AcDbPolyline
 62
253
  6
CONTINUOUS
 90
7
 70
0
 10
144.3064089671
 20
126.4733931454
 10
144.3111019015
 20
126.4755674756
 10
144.3305489496
 20
126.4815724777
 10
144.3513668953
 20
126.4835478328
 10
144.3731192433
 20
126.4815521553
 10
144.3954670976
 20
126.4757106588
 10
144.4180278639
 20
126.466200701
  0
LINE
  5
3A9
100
AcDbEntity
  8
RACCORDO
100
AcDbLine
 62
7
  6
CONTINUOUS
 10
147.6681864677
 20
127.0254438889
 11
152.3675398667
 21
129.1957610198
  0
LWPOLYLINE
  5
3AA
100
AcDbEntity
  8
RACCORDO
100
AcDbPolyline
 62
253
  6
CONTINUOUS
 90
13
 70
0
 10
145.9383074434
 20
125.1382405882
 10
145.9137211054
 20
125.1274597683
 10
145.8865307481
 20
125.1183757604
 10
145.8572016062
 20
125.1111439943
 10
145.8262355094
 20
125.1058882076
 10
145.7941622962
 20
125.1026983282
 10
145.7615307481
 20
125.1016289359
 10
145.7288992001
 20
125.1026983282
 10
145.6968259869
 20
125.1058882076
 10
145.6658598901
 20
125.1111439943
 10
145.6365307481
 20
125.1183757604
 10
145.6093403909
 20
125.1274597683
 10
145.5847540529
 20
125.1382405882
  0
LWPOLYLINE
  5
3AB
100
AcDbEntity
  8
RACCORDO
100
AcDbPolyline
 62
253
  6
CONTINUOUS
 90
13
 70
0
 10
145.9383074434
 20
125.4895545603
 10
145.9136165069
 20
125.4787336317
 10
145.8862920642
 20
125.469620918
 10
145.8568031686
 20
125.4623756484
 10
145.8256534445
 20
125.4571245734
 10
145.7933832739
 20
125.4539616426
 10
145.7605615426
 20
125.4529438473
 10
145.7276844171
 20
125.4540937801
 10
145.6953950813
 20
125.4573961602
 10
145.6644653742
 20
125.4627492523
 10
145.6354621311
 20
125.4699999788
 10
145.6087603653
 20
125.4789969503
 10
145.5847540529
 20
125.4895545603
  0
LWPOLYLINE
  5
3AC
100
AcDbEntity
  8
RACCORDO
100
AcDbPolyline
 62
253
  6
CONTINUOUS
 90
12
 70
0
 10
147.7704868099
 20
124.054438385
 10
147.8112118315
 20
124.0661296718
 10
147.8226830104
 20
124.0694888828
 10
147.8347356484
 20
124.0730859194
 10
147.8473467903
 20
124.0769287493
 10
147.8605213513
 20
124.0811561006
 10
147.8742444555
 20
124.0857481739
 10
147.8885309786
 20
124.0907247686
 10
147.9034304635
 20
124.0962840092
 10
147.9189594242
 20
124.1024919375
 10
147.9351013467
 20
124.1092825118
 10
147.9518562308
 20
124.1166557321
  0
LINE
  5
3AD
100
AcDbEntity
  8
ASSI
100
AcDbLine
 62
7
  6
CONTINUOUS
 10
114.6033207116
 20
102.8320669742
 11
114.6966441087
 21
102.852304776
  0
LINE
  5
3AE
100
AcDbEntity
  8
268
100
AcDbLine
 62
253
  6
CONTINUOUS
 10
126.2778556576
 20
134.5939592435
 11
126.2778556576
 21
135.8089141096
  0
LINE
  5
3AF
100
AcDbEntity
  8
268
100
AcDbLine
 62
7
  6
CONTINUOUS
 10
126.6342923171
 20
138.7705018379
 11
126.6342923171
 21
140.0972039373
  0
LINE
  5
3B0
100
AcDbEntity
  8
268
100
AcDbLine
 62
253
  6
CONTINUOUS
 10
126.7008820092
 20
134.595598091
 11
126.7008820092
 21
135.8098015639
  0
LINE
  5
3B1
100
AcDbEntity
  8
268
100
AcDbLine
 62
7
  6
CONTINUOUS
 10
126.9878457076
 20
139.3678690526
 11
126.9878457076
 21
139.920427242
  0
LINE
  5
3B2
100
AcDbEntity
  8
268
100
AcDbLine
 62
253
  6
CONTINUOUS
 10
127.0585563858
 20
141.5366355395
 11
127.0585563858
 21
140.3048013581
  0
LINE
  5
3B3
100
AcDbEntity
  8
268
100
AcDbLine
 62
7
  6
CONTINUOUS
 10
127.1464243514
 20
141.6416327535
 11
127.1464243514
 21
140.4092641486
  0
LINE
  5
3B4
100
AcDbEntity
  8
268
100
AcDbLine
 62
7
  6
CONTINUOUS
 10
127.199977742
 20
136.059998237
 11
127.199977742
 21
134.8475626717
  0
LINE
  5
3B5
100
AcDbEntity
  8
268
100
AcDbLine
 62
7
  6
CONTINUOUS
 10
128.2002118029
 20
133.8305117132
 11
128.2002118029
 21
134.0838831069
  0
LWPOLYLINE
  5
3B6
100
AcDbEntity
  8
RACCORDO
100
AcDbPolyline
 62
253
  6
CONTINUOUS
 90
3
 70
0
 10
131.3424745065
 20
131.6759195125
 10
131.3452431186
 20
131.6853392017
 10
131.3483210585
 20
131.695156147
  0
LWPOLYLINE
  5
3B7
100
AcDbEntity
  8
RACCORDO
100
AcDbPolyline
 62
253
  6
CONTINUOUS
 90
3
 70
0
 10
134.0521199911
 20
132.0577480949
 10
134.0356303968
 20
132.0178546207
 10
134.0214747986
 20
131.977458142
  0
LWPOLYLINE
  5
3B8
100
AcDbEntity
  8
RACCORDO
100
AcDbPolyline
 62
253
  6
CONTINUOUS
 90
13
 70
0
 10
144.4180278639
 20
126.466200701
 10
144.394953875
 20
126.4528114647
 10
144.3722746884
 20
126.4359468383
 10
144.3503783514
 20
126.4158953801
 10
144.3296395162
 20
126.3930001763
 10
144.3104130302
 20
126.36765297
 10
144.2930278639
 20
126.340287459
 10
144.2777814822
 20
126.3113718748
 10
144.264934755
 20
126.2814009711
 10
144.2547074933
 20
126.2508875583
 10
144.2472746884
 20
126.2203537293
 10
144.2427635177
 20
126.1903219266
 10
144.2412511686
 20
126.1613060024
  0
LWPOLYLINE
  5
3B9
100
AcDbEntity
  8
RACCORDO
100
AcDbPolyline
 62
253
  6
CONTINUOUS
 90
13
 70
0
 10
145.7615307481
 20
125.7944492589
 10
145.7384567592
 20
125.7810600226
 10
145.7157775727
 20
125.7641953961
 10
145.6938812356
 20
125.744143938
 10
145.6731424005
 20
125.7212487341
 10
145.6539159145
 20
125.6959015278
 10
145.6365307481
 20
125.6685360169
 10
145.6212843664
 20
125.6396204327
 10
145.6084376392
 20
125.609649529
 10
145.5982103775
 20
125.5791361162
 10
145.5907775727
 20
125.5486022872
 10
145.586266402
 20
125.5185704844
 10
145.5847540529
 20
125.4895545603
  0
LWPOLYLINE
  5
3BA
100
AcDbEntity
  8
RACCORDO
100
AcDbPolyline
 62
253
  6
CONTINUOUS
 90
13
 70
0
 10
144.8044684506
 20
124.8665185108
 10
144.8231502954
 20
124.8769751402
 10
144.8415485292
 20
124.8902997004
 10
144.859341329
 20
124.9062591171
 10
144.876217462
 20
124.9245742275
 10
144.8918817298
 20
124.9449246624
 10
144.9060601323
 20
124.9669544508
 10
144.9185046599
 20
124.9902782464
 10
144.9289976323
 20
125.0144880679
 10
144.9373555057
 20
125.0391604358
 10
144.9434320837
 20
125.0638637794
 10
144.9471210744
 20
125.0881659864
 10
144.9483579498
 20
125.1116419612
  0
LWPOLYLINE
  5
3BB
100
AcDbEntity
  8
RACCORDO
100
AcDbPolyline
 62
253
  6
CONTINUOUS
 90
16
 70
0
 10
144.8044684506
 20
125.177914124
 10
144.7721568893
 20
125.160472072
 10
144.7443378706
 20
125.1419661638
 10
144.7210113945
 20
125.1223963995
 10
144.7020716559
 20
125.1015271293
 10
144.6876244599
 20
125.0795940031
 10
144.677987221
 20
125.0573039695
 10
144.6732773786
 20
125.0346745749
 10
144.6733774933
 20
125.011688273
 10
144.6782526621
 20
124.9889993746
 10
144.6880113079
 20
124.9666001151
 10
144.7025450078
 20
124.944498259
 10
144.7214935893
 20
124.9233714102
 10
144.7447369948
 20
124.9034454365
 10
144.7723952819
 20
124.88449447
 10
144.8044684506
 20
124.8665185108
  0
LINE
  5
3BC
100
AcDbEntity
  8
RACCORDO
100
AcDbLine
 62
7
  6
CONTINUOUS
 10
147.6007092717
 20
125.5548347739
 11
153.4788771784
 21
128.7262412147
  0
LINE
  5
3BD
100
AcDbEntity
  8
DRAFT
100
AcDbLine
 62
7
  6
CONTINUOUS
 10
147.8362141881
 20
125.2214347002
 11
153.5223454106
 21
128.1655153248
  0
LWPOLYLINE
  5
3BE
100
AcDbEntity
  8
RACCORDO
100
AcDbPolyline
 62
253
  6
CONTINUOUS
 90
8
 70
0
 10
147.3525210058
 20
124.7715249416
 10
147.3702481477
 20
124.7806499127
 10
147.3857373207
 20
124.7906446233
 10
147.39883928
 20
124.8013809508
 10
147.4094307678
 20
124.8127142454
 10
147.4174268764
 20
124.8245169223
 10
147.4227721147
 20
124.8366815903
 10
147.4254270667
 20
124.8490579717
  0
LINE
  5
3BF
100
AcDbEntity
  8
RACCORDO
100
AcDbLine
 62
253
  6
CONTINUOUS
 10
145.7615307481
 20
125.7944492589
 11
147.8828510917
 21
126.8551094307
  0
LINE
  5
3C0
100
AcDbEntity
  8
RACCORDO
100
AcDbLine
 62
253
  6
CONTINUOUS
 10
145.9383074434
 20
125.4895545603
 11
148.059627787
 21
126.5502147321
  0
LWPOLYLINE
  5
3C1
100
AcDbEntity
  8
RACCORDO
100
AcDbPolyline
 62
253
  6
CONTINUOUS
 90
24
 70
0
 10
147.4467315361
 20
124.5578492735
 10
147.4564289976
 20
124.5625375043
 10
147.4660354458
 20
124.567509646
 10
147.4755462231
 20
124.5727513677
 10
147.4849386586
 20
124.5782318636
 10
147.4941614375
 20
124.5839351687
 10
147.5031456778
 20
124.5898614452
 10
147.511829313
 20
124.595991709
 10
147.5201958213
 20
124.6023087825
 10
147.5282386634
 20
124.6088133514
 10
147.5359055514
 20
124.61550819
 10
147.5431711207
 20
124.6223645508
 10
147.550059727
 20
124.6293350845
 10
147.5564968602
 20
124.6364302433
 10
147.5624576809
 20
124.6436176563
 10
147.5680333623
 20
124.6507939356
 10
147.5731665018
 20
124.657949285
 10
147.5778214148
 20
124.6650977822
 10
147.5821362181
 20
124.6721871069
 10
147.5861132869
 20
124.6792520496
 10
147.5897505719
 20
124.6862923438
 10
147.5931717971
 20
124.6932105766
 10
147.596361728
 20
124.7000085801
 10
147.6022036817
 20
124.7133019396
  0
LWPOLYLINE
  5
3C2
100
AcDbEntity
  8
RACCORDO
100
AcDbPolyline
 62
253
  6
CONTINUOUS
 90
10
 70
0
 10
146.6673558817
 20
123.5234348764
 10
146.6843534183
 20
123.5316067532
 10
146.7013265125
 20
123.5402182543
 10
146.7182751644
 20
123.5492693796
 10
146.7353381958
 20
123.5588981589
 10
146.7523767848
 20
123.5689665625
 10
146.7689744661
 20
123.5790605011
 10
146.7851472846
 20
123.5892184135
 10
146.8008791952
 20
123.5994018608
 10
146.8294371332
 20
123.6181095177
  0
LINE
  5
3C3
100
AcDbEntity
  8
RACCORDO
100
AcDbLine
 62
253
  6
CONTINUOUS
 10
144.8698552994
 20
125.2092097082
 11
144.8044684506
 21
125.177914124
  0
LINE
  5
3C4
100
AcDbEntity
  8
RACCORDO
100
AcDbLine
 62
253
  6
CONTINUOUS
 10
146.6454142246
 20
124.4330880807
 11
147.3525210058
 21
124.7715249416
  0
LINE
  5
3C5
100
AcDbEntity
  8
RACCORDO
100
AcDbLine
 62
253
  6
CONTINUOUS
 10
146.7361199653
 20
124.2226936221
 11
147.4467313302
 21
124.5578483759
  0
LINE
  5
3C6
100
AcDbEntity
  8
RACCORDO
100
AcDbLine
 62
253
  6
CONTINUOUS
 10
147.610697911
 20
124.7325219356
 11
148.2362429222
 21
125.0214203331
  0
LINE
  5
3C7
100
AcDbEntity
  8
RACCORDO
100
AcDbLine
 62
253
  6
CONTINUOUS
 10
147.9518562308
 20
124.1166557321
 11
148.5899578729
 21
124.411352286
  0
LINE
  5
3C8
100
AcDbEntity
  8
RACCORDO
100
AcDbLine
 62
253
  6
CONTINUOUS
 10
146.431609745
 20
123.4145555953
 11
146.6673558817
 21
123.5234348764
  0
LINE
  5
3C9
100
AcDbEntity
  8
RACCORDO
100
AcDbLine
 62
253
  6
CONTINUOUS
 10
146.0778947943
 20
124.0246236425
 11
146.3262595627
 21
124.1392892473
  0
LWPOLYLINE
  5
3CA
100
AcDbEntity
  8
RACCORDO
100
AcDbPolyline
 62
253
  6
CONTINUOUS
 90
4
 70
0
 10
146.9567316032
 20
123.6936816983
 10
147.0366297608
 20
123.7299726367
 10
147.1165359577
 20
123.7662727835
 10
147.6759548642
 20
124.0205632075
  0
LWPOLYLINE
  5
3CB
100
AcDbEntity
  8
RACCORDO
100
AcDbPolyline
 62
253
  6
CONTINUOUS
 90
14
 70
0
 10
147.6759548642
 20
124.0205632075
 10
147.6818819388
 20
124.0232265378
 10
147.6879901461
 20
124.0258700656
 10
147.6942794859
 20
124.028493791
 10
147.700727079
 20
124.0310931773
 10
147.7073558048
 20
124.0336727611
 10
147.7142343009
 20
124.0362461521
 10
147.7213656621
 20
124.0388114501
 10
147.7287467937
 20
124.0413705553
 10
147.7364370491
 20
124.0439427775
 10
147.7444309416
 20
124.0465218267
 10
147.7527339578
 20
124.049113993
 10
147.761421911
 20
124.0517574561
 10
147.7704868099
 20
124.054438385
  0
LWPOLYLINE
  5
3CC
100
AcDbEntity
  8
RACCORDO
100
AcDbPolyline
 62
253
  6
CONTINUOUS
 90
13
 70
0
 10
146.6454142246
 20
124.7417939788
 10
146.6208278866
 20
124.7310131589
 10
146.5936375293
 20
124.721929151
 10
146.5643083874
 20
124.7146973849
 10
146.5333422906
 20
124.7094415982
 10
146.5012690774
 20
124.7062517188
 10
146.4686375293
 20
124.7051823265
 10
146.4360059813
 20
124.7062517188
 10
146.4039327681
 20
124.7094415982
 10
146.3729666712
 20
124.7146973849
 10
146.3436375293
 20
124.721929151
 10
146.3164471721
 20
124.7310131589
 10
146.291860834
 20
124.7417939788
  0
LWPOLYLINE
  5
3CD
100
AcDbEntity
  8
RACCORDO
100
AcDbPolyline
 62
253
  6
CONTINUOUS
 90
4
 70
0
 10
147.4914742191
 20
124.8377971044
 10
147.4732424064
 20
124.830520272
 10
147.4553569596
 20
124.8262835952
 10
147.4381171505
 20
124.8251579652
  0
LINE
  5
3CE
100
AcDbEntity
  8
RACCORDO
100
AcDbLine
 62
253
  6
CONTINUOUS
 10
141.7442452399
 20
121.7542177026
 11
145.7959287328
 21
123.2836315502
  0
LINE
  5
3CF
100
AcDbEntity
  8
ASSI
100
AcDbLine
 62
253
  6
CONTINUOUS
 10
141.7442452399
 20
121.7542177026
 11
145.7959287328
 21
123.2836315502
  0
LINE
  5
3D0
100
AcDbEntity
  8
RACCORDO
100
AcDbLine
 62
253
  6
CONTINUOUS
 10
142.2507232858
 20
120.7529374183
 11
146.3024067787
 21
122.2823512659
  0
LINE
  5
3D1
100
AcDbEntity
  8
ASSI
100
AcDbLine
 62
253
  6
CONTINUOUS
 10
142.2507232858
 20
120.7529374183
 11
146.3024067787
 21
122.2823512659
  0
LINE
  5
3D2
100
AcDbEntity
  8
DRAFT
100
AcDbLine
 62
7
  6
CONTINUOUS
 10
146.431609745
 20
123.3886859574
 11
146.8992518394
 21
123.5453668612
  0
LWPOLYLINE
  5
3D3
100
AcDbEntity
  8
RACCORDO
100
AcDbPolyline
 62
253
  6
CONTINUOUS
 90
13
 70
0
 10
145.9383074434
 20
83.8386364488
 10
145.9252580999
 20
83.8580977872
 10
145.9094073359
 20
83.8787384858
 10
145.8910263625
 20
83.9002053766
 10
145.8704296832
 20
83.9221311551
 10
145.847969713
 20
83.9441406652
 10
145.8240307481
 20
83.965857318
 10
145.7990223909
 20
83.9869095355
 10
145.7733725413
 20
84.0069371086
 10
145.7475200754
 20
84.0255973599
 10
145.7219073359
 20
84.0425710073
 10
145.696972564
 20
84.057567627
 10
145.6731424005
 20
84.0703306227
  0
LWPOLYLINE
  5
3D4
100
AcDbEntity
  8
RACCORDO
100
AcDbPolyline
 62
253
  6
CONTINUOUS
 90
13
 70
0
 10
146.4686375293
 20
84.4788014918
 10
146.4555881857
 20
84.4982628302
 10
146.4397374218
 20
84.5189035288
 10
146.4213564484
 20
84.5403704196
 10
146.4007597691
 20
84.5622961981
 10
146.3782997989
 20
84.5843057081
 10
146.354360834
 20
84.6060223609
 10
146.3293524768
 20
84.6270745785
 10
146.3037026272
 20
84.6471021516
 10
146.2778501613
 20
84.6657624029
 10
146.2522374218
 20
84.6827360503
 10
146.2273026499
 20
84.6977326699
 10
146.2034724864
 20
84.7104956656
  0
LWPOLYLINE
  5
3D5
100
AcDbEntity
  8
268
100
AcDbPolyline
 62
7
  6
CONTINUOUS
 90
24
 70
0
 10
129.7455621543
 20
140.4113097859
 10
129.7449889698
 20
140.4457821921
 10
129.7432898569
 20
140.4795321131
 10
129.7404648153
 20
140.5125595489
 10
129.7365043807
 20
140.5449211063
 10
129.7314180176
 20
140.5765601785
 10
129.7252341193
 20
140.607306945
 10
129.7179515038
 20
140.6371424724
 10
129.7095713531
 20
140.6660856942
 10
129.7001256059
 20
140.6940235901
 10
129.6896017474
 20
140.7209697529
 10
129.6780122923
 20
140.7469105899
 10
129.6654267236
 20
140.7716923028
 10
129.6518515377
 20
140.7952896042
 10
129.6372802382
 20
140.8177277815
 10
129.6217628182
 20
140.8389288987
 10
129.6052795308
 20
140.8589059886
 10
129.5878501229
 20
140.8776460185
 10
129.5695838283
 20
140.8950319541
 10
129.5504951724
 20
140.9110408804
 10
129.5305696297
 20
140.9256957125
 10
129.5098728572
 20
140.9389481608
 10
129.4883803426
 20
140.9508040221
 10
126.2591790764
 20
142.5654285324
  0
LINE
  5
3D6
100
AcDbEntity
  8
268
100
AcDbLine
 62
7
  6
CONTINUOUS
 10
128.9032047572
 20
132.9239524585
 11
128.9032047572
 21
133.3762834341
  0
LINE
  5
3D7
100
AcDbEntity
  8
268
100
AcDbLine
 62
7
  6
CONTINUOUS
 10
129.7455621543
 20
140.4113097859
 11
129.7455621543
 21
140.1405094933
  0
LINE
  5
3D8
100
AcDbEntity
  8
268
100
AcDbLine
 62
7
  6
CONTINUOUS
 10
129.8059882651
 20
133.2809948758
 11
129.8059882651
 21
133.0276234821
  0
LINE
  5
3D9
100
AcDbEntity
  8
268
100
AcDbLine
 62
7
  6
CONTINUOUS
 10
130.205181562
 20
131.2551791525
 11
130.205181562
 21
131.2307836472
  0
LINE
  5
3DA
100
AcDbEntity
  8
268
100
AcDbLine
 62
7
  6
CONTINUOUS
 10
130.5172088732
 20
132.1169504005
 11
130.5172088732
 21
132.7541199592
  0
LINE
  5
3DB
100
AcDbEntity
  8
RACCORDO
100
AcDbLine
 62
7
  6
CONTINUOUS
 10
130.7371840932
 20
131.2617684212
 11
130.7371840932
 21
131.2358987833
  0
LINE
  5
3DC
100
AcDbEntity
  8
RACCORDO
100
AcDbLine
 62
7
  6
CONTINUOUS
 10
130.8037096995
 20
132.5805394602
 11
130.8037096995
 21
132.9318534323
  0
LWPOLYLINE
  5
3DD
100
AcDbEntity
  8
RACCORDO
100
AcDbPolyline
 62
253
  6
CONTINUOUS
 90
13
 70
0
 10
131.5840397854
 20
131.7938010434
 10
131.5828029009
 20
131.7703249793
 10
131.5791138855
 20
131.7460226912
 10
131.573037272
 20
131.7213192801
 10
131.5646793561
 20
131.6966468595
 10
131.5541863397
 20
131.6724370049
 10
131.5417417751
 20
131.649113204
 10
131.5275633492
 20
131.627083437
 10
131.5118990752
 20
131.6067330451
 10
131.4950229597
 20
131.5884179965
 10
131.4772302038
 20
131.5724586521
 10
131.4588320391
 20
131.5591341634
 10
131.4401502861
 20
131.548677593
  0
LWPOLYLINE
  5
3DE
100
AcDbEntity
  8
RACCORDO
100
AcDbPolyline
 62
253
  6
CONTINUOUS
 90
6
 70
0
 10
134.0214747986
 20
131.977458142
 10
134.0096198271
 20
131.9365713599
 10
134.0003379035
 20
131.8960474794
 10
133.9937198349
 20
131.856170902
 10
133.9896748142
 20
131.8166572261
 10
133.9882028414
 20
131.7775064516
  0
LWPOLYLINE
  5
3DF
100
AcDbEntity
  8
0
100
AcDbPolyline
 62
7
  6
CONTINUOUS
 90
31
 70
0
 10
148.7666522898
 20
136.4739244776
 10
148.771919596
 20
136.4805313341
 10
148.7811448269
 20
136.4925469612
 10
148.7900929089
 20
136.5047782518
 10
148.7987603754
 20
136.5172129704
 10
148.807147005
 20
136.5298433043
 10
148.8152534825
 20
136.5426644421
 10
148.823077559
 20
136.5556678429
 10
148.8306163136
 20
136.5688443728
 10
148.8378678742
 20
136.5821881101
 10
148.8448288647
 20
136.5956905805
 10
148.8514956585
 20
136.609343665
 10
148.8578654029
 20
136.6231420602
 10
148.8639342629
 20
136.6370786833
 10
148.8696970713
 20
136.6511448678
 10
148.8751489809
 20
136.6653332023
 10
148.8802861532
 20
136.6796395757
 10
148.8851015101
 20
136.6940529834
 10
148.8895864452
 20
136.7085562752
 10
148.8937358228
 20
136.7231429482
 10
148.8975433167
 20
136.737804564
 10
148.9010003562
 20
136.7525221922
 10
148.9041012303
 20
136.7672888154
 10
148.9068396871
 20
136.7820969017
 10
148.9092078219
 20
136.7969283375
 10
148.9111993211
 20
136.811775696
 10
148.9128076479
 20
136.8266323674
 10
148.9140252446
 20
136.8414835544
 10
148.9148448508
 20
136.8563202978
 10
148.9152593712
 20
136.8711365108
 10
148.9153122651
 20
136.8785958858
  0
LINE
  5
3E0
100
AcDbEntity
  8
0
100
AcDbLine
 62
253
  6
CONTINUOUS
 10
148.7549656456
 20
136.5301676296
 11
148.47203008
 21
136.1800535973
  0
LINE
  5
3E1
100
AcDbEntity
  8
0
100
AcDbLine
 62
7
  6
CONTINUOUS
 10
148.7666530888
 20
136.473925406
 11
148.47203008
 21
136.1093489364
  0
LWPOLYLINE
  5
3E2
100
AcDbEntity
  8
RACCORDO
100
AcDbPolyline
 62
253
  6
CONTINUOUS
 90
8
 70
0
 10
115.6349288554
 20
100.5901124186
 10
115.5773905579
 20
100.5430762251
 10
115.5151323713
 20
100.5049092817
 10
115.4482511295
 20
100.4754114487
 10
115.3782497408
 20
100.4552312782
 10
115.3050136418
 20
100.4445926305
 10
115.2286505105
 20
100.4432686926
 10
115.1509963325
 20
100.4512318813
  0
LWPOLYLINE
  5
3E3
100
AcDbEntity
  8
ASSI
100
AcDbPolyline
 62
253
  6
CONTINUOUS
 90
11
 70
0
 10
115.6349288554
 20
100.5901124186
 10
115.5773905579
 20
100.5430762251
 10
115.5151323713
 20
100.5049092817
 10
115.4482511295
 20
100.4754114487
 10
115.3782497408
 20
100.4552312782
 10
115.3050136418
 20
100.4445926305
 10
115.2286505105
 20
100.4432686926
 10
115.1509963325
 20
100.4512318813
 10
115.0726616658
 20
100.4684723846
 10
114.9930319771
 20
100.4949983061
 10
114.9121062771
 20
100.5308092206
  0
LWPOLYLINE
  5
3E4
100
AcDbEntity
  8
RACCORDO
100
AcDbPolyline
 62
253
  6
CONTINUOUS
 90
7
 70
0
 10
147.3525210058
 20
125.0953473694
 10
147.3740826456
 20
125.1076405384
 10
147.3922506615
 20
125.1212357171
 10
147.4067141936
 20
125.135900288
 10
147.4172257671
 20
125.1513833364
 10
147.4236055259
 20
125.167419943
 10
147.4257443105
 20
125.1837357171
  0
LWPOLYLINE
  5
3E5
100
AcDbEntity
  8
RACCORDO
100
AcDbPolyline
 62
253
  6
CONTINUOUS
 90
13
 70
0
 10
146.1479713348
 20
124.1947670687
 10
146.1666534274
 20
124.2052238578
 10
146.1850518492
 20
124.2185486124
 10
146.2028447705
 20
124.2345082284
 10
146.2197209558
 20
124.2528235129
 10
146.235385213
 20
124.2731740746
 10
146.2495635551
 20
124.2952039306
 10
146.2620079836
 20
124.3185277198
 10
146.2725008353
 20
124.3427374578
 10
146.2808585894
 20
124.367409682
 10
146.2869350656
 20
124.3921128339
 10
146.290623985
 20
124.4164148064
 10
146.291860834
 20
124.439890519
  0
LINE
  5
3E6
100
AcDbEntity
  8
DRAFT
100
AcDbLine
 62
7
  6
CONTINUOUS
 10
144.7950585804
 20
103.9640474392
 11
145.1366008683
 21
103.7932762953
  0
LWPOLYLINE
  5
3E7
100
AcDbEntity
  8
RACCORDO
100
AcDbPolyline
 62
7
  6
CONTINUOUS
 90
6
 70
0
 10
148.0966770858
 20
85.1172165306
 10
148.0769453311
 20
85.1452521593
 10
148.053605168
 20
85.1702857498
 10
148.027067007
 20
85.1918947037
 10
147.9977733756
 20
85.2097044225
 10
147.9943359519
 20
85.2114502805
  0
LWPOLYLINE
  5
3E8
100
AcDbEntity
  8
RACCORDO
100
AcDbPolyline
 62
7
  6
CONTINUOUS
 90
10
 70
0
 10
130.8037096995
 20
132.5805394602
 10
130.8059769498
 20
132.5469516735
 10
130.8128144858
 20
132.5136868227
 10
130.8241751362
 20
132.4814744095
 10
130.8398837053
 20
132.4510078978
 10
130.8596154601
 20
132.4229722691
 10
130.8829556231
 20
132.3979386787
 10
130.9094937842
 20
132.3763297247
 10
130.9387874156
 20
132.358520006
 10
130.9422248393
 20
132.356774148
  0
LINE
  5
3E9
100
AcDbEntity
  8
RACCORDO
100
AcDbLine
 62
253
  6
CONTINUOUS
 10
131.5111498622
 20
131.8739866966
 11
131.5108164807
 21
131.880197746
  0
LINE
  5
3EA
100
AcDbEntity
  8
RACCORDO
100
AcDbLine
 62
253
  6
CONTINUOUS
 10
130.8769330042
 20
132.4921511126
 11
130.8769330042
 21
132.8434650846
  0
LINE
  5
3EB
100
AcDbEntity
  8
268
100
AcDbLine
 62
7
  6
CONTINUOUS
 10
131.0183543604
 20
131.0953136497
 11
131.0183543604
 21
130.6724187364
  0
LINE
  5
3EC
100
AcDbEntity
  8
DRAFT
100
AcDbLine
 62
7
  6
CONTINUOUS
 10
131.1887808144
 20
131.0101004228
 11
131.1887808144
 21
130.5872055094
  0
LINE
  5
3ED
100
AcDbEntity
  8
RACCORDO
100
AcDbLine
 62
7
  6
CONTINUOUS
 10
131.5108164807
 20
131.8801385757
 11
131.5108164807
 21
132.0724775724
  0
LINE
  5
3EE
100
AcDbEntity
  8
RACCORDO
100
AcDbLine
 62
253
  6
CONTINUOUS
 10
131.5840397854
 20
131.7938010434
 11
131.5840397854
 21
132.0358659201
  0
LINE
  5
3EF
100
AcDbEntity
  8
268
100
AcDbLine
 62
7
  6
CONTINUOUS
 10
131.5840397854
 20
133.4765269724
 11
131.5840397854
 21
134.3875824576
  0
LINE
  5
3F0
100
AcDbEntity
  8
RACCORDO
100
AcDbLine
 62
253
  6
CONTINUOUS
 10
132.2204358884
 20
132.1717136425
 11
132.2204358884
 21
131.8203996704
  0
LINE
  5
3F1
100
AcDbEntity
  8
268
100
AcDbLine
 62
7
  6
CONTINUOUS
 10
132.2870327396
 20
134.5229039553
 11
132.2870327396
 21
134.261974979
  0
LINE
  5
3F2
100
AcDbEntity
  8
RACCORDO
100
AcDbLine
 62
253
  6
CONTINUOUS
 10
132.573989279
 20
132.1717136425
 11
132.573989279
 21
131.8203996704
  0
LINE
  5
3F3
100
AcDbEntity
  8
268
100
AcDbLine
 62
253
  6
CONTINUOUS
 10
132.6142504372
 20
138.7600138474
 11
132.6142504372
 21
137.528175269
  0
LINE
  5
3F4
100
AcDbEntity
  8
268
100
AcDbLine
 62
7
  6
CONTINUOUS
 10
132.7008878656
 20
138.8644012227
 11
132.7008878656
 21
137.632032731
  0
LINE
  5
3F5
100
AcDbEntity
  8
RACCORDO
100
AcDbLine
 62
253
  6
CONTINUOUS
 10
132.9275426696
 20
131.423953061
 11
132.9275426696
 21
131.1220496013
  0
LINE
  5
3F6
100
AcDbEntity
  8
RACCORDO
100
AcDbLine
 62
253
  6
CONTINUOUS
 10
133.2810960602
 20
131.423953061
 11
133.2810960602
 21
131.1152471629
  0
LWPOLYLINE
  5
3F7
100
AcDbEntity
  8
RACCORDO
100
AcDbPolyline
 62
7
  6
CONTINUOUS
 90
6
 70
0
 10
131.5108220854
 20
131.8803381656
 10
131.5108024062
 20
131.8782832153
 10
131.5096764951
 20
131.8657415238
 10
131.5071904451
 20
131.8547807245
 10
131.5039711304
 20
131.8459087766
 10
131.5015053271
 20
131.8408356074
  0
LWPOLYLINE
  5
3F8
100
AcDbEntity
  8
RACCORDO
100
AcDbPolyline
 62
253
  6
CONTINUOUS
 90
13
 70
0
 10
132.9275426696
 20
131.1220496013
 10
132.9263057942
 20
131.0985736265
 10
132.9226168035
 20
131.0742714195
 10
132.9165402255
 20
131.0495680759
 10
132.9081823521
 20
131.024895708
 10
132.8976893798
 20
131.0006858865
 10
132.8852448521
 20
130.9773620909
 10
132.8710664496
 20
130.9553323024
 10
132.8554021817
 20
130.9349818676
 10
132.8385260487
 20
130.9166667572
 10
132.820733249
 20
130.9007073405
 10
132.8023350152
 20
130.8873827803
 10
132.7836531704
 20
130.8769261509
  0
LWPOLYLINE
  5
3F9
100
AcDbEntity
  8
RACCORDO
100
AcDbPolyline
 62
253
  6
CONTINUOUS
 90
8
 70
0
 10
134.0614261461
 20
131.5372615782
 10
134.0610871927
 20
131.531014747
 10
134.0583908625
 20
131.5186488803
 10
134.0530145142
 20
131.5065079907
 10
134.0450037846
 20
131.4947388464
 10
134.034414064
 20
131.4834412054
 10
134.0213294117
 20
131.4727393248
 10
134.0058757503
 20
131.4627781585
  0
LWPOLYLINE
  5
3FA
100
AcDbEntity
  8
RACCORDO
100
AcDbPolyline
 62
253
  6
CONTINUOUS
 90
7
 70
0
 10
134.7685329273
 20
132.9694481899
 10
134.7663941426
 20
132.9531324158
 10
134.7600143839
 20
132.9370958092
 10
134.7495028104
 20
132.9216127608
 10
134.7350392782
 20
132.9069481899
 10
134.7168712624
 20
132.8933530112
 10
134.6953096226
 20
132.8810598422
  0
LWPOLYLINE
  5
3FB
100
AcDbEntity
  8
RACCORDO
100
AcDbPolyline
 62
253
  6
CONTINUOUS
 90
7
 70
0
 10
134.7685329273
 20
133.3207621741
 10
134.766231183
 20
133.3038389964
 10
134.7596264228
 20
133.2876943285
 10
134.7489202385
 20
133.2722294749
 10
134.7344187855
 20
133.2577278534
 10
134.7164248426
 20
133.2443769705
 10
134.6953096226
 20
133.2323738143
  0
LINE
  5
3FC
100
AcDbEntity
  8
DRAFT
100
AcDbLine
 62
7
  6
CONTINUOUS
 10
142.7608659292
 20
142.5195483606
 11
142.7242763306
 21
142.4158852805
  0
LINE
  5
3FD
100
AcDbEntity
  8
DRAFT
100
AcDbLine
 62
7
  6
CONTINUOUS
 10
143.0437086416
 20
142.6609697169
 11
143.0071190431
 21
142.5573066367
  0
LINE
  5
3FE
100
AcDbEntity
  8
DRAFT
100
AcDbLine
 62
7
  6
CONTINUOUS
 10
143.3265513541
 20
142.8023910731
 11
143.2899617556
 21
142.6987279929
  0
LINE
  5
3FF
100
AcDbEntity
  8
DRAFT
100
AcDbLine
 62
7
  6
CONTINUOUS
 10
143.6093940666
 20
142.9438124293
 11
143.5728044681
 21
142.8401493492
  0
LINE
  5
400
100
AcDbEntity
  8
DRAFT
100
AcDbLine
 62
7
  6
CONTINUOUS
 10
143.8922367791
 20
143.0852337856
 11
143.8556471805
 21
142.9815707054
  0
LWPOLYLINE
  5
401
100
AcDbEntity
  8
0
100
AcDbPolyline
 62
253
  6
CONTINUOUS
 90
18
 70
0
 10
148.7666530888
 20
136.473925406
 10
148.7679478001
 20
136.4757669478
 10
148.7690368336
 20
136.477863741
 10
148.7698725273
 20
136.4801558571
 10
148.7704535407
 20
136.4826396193
 10
148.7707789417
 20
136.4853110437
 10
148.7708482085
 20
136.4881658453
 10
148.77066123
 20
136.4911994447
 10
148.770218306
 20
136.4944069761
 10
148.769520147
 20
136.4977832944
 10
148.768567873
 20
136.5013229839
 10
148.7673630113
 20
136.5050203668
 10
148.7659074946
 20
136.5088695124
 10
148.7642036577
 20
136.5128642465
 10
148.7622542335
 20
136.5169981614
 10
148.7600623489
 20
136.5212646262
 10
148.7576315199
 20
136.5256567974
 10
148.7549656456
 20
136.5301676296
  0
LWPOLYLINE
  5
402
100
AcDbEntity
  8
RACCORDO
100
AcDbPolyline
 62
253
  6
CONTINUOUS
 90
15
 70
0
 10
146.8294371332
 20
123.6181095177
 10
146.8422631605
 20
123.6266337271
 10
146.8542871604
 20
123.634567533
 10
146.8654562957
 20
123.6418426253
 10
146.8758234035
 20
123.6485273139
 10
146.8856504757
 20
123.6547399964
 10
146.8949671797
 20
123.6604838589
 10
146.903743848
 20
123.6657557151
 10
146.9121534708
 20
123.6706644041
 10
146.9201988086
 20
123.6752101315
 10
146.9278771009
 20
123.6793926917
 10
146.9353530557
 20
123.6833203063
 10
146.9426815757
 20
123.6870290492
 10
146.9498077582
 20
123.6904828466
 10
146.9567316032
 20
123.6936816983
  0
LINE
  5
403
100
AcDbEntity
  8
ASSI
100
AcDbLine
 62
253
  6
CONTINUOUS
 10
114.5304806334
 20
102.8010090554
 11
114.5812254909
 21
102.8241223019
  0
LWPOLYLINE
  5
404
100
AcDbEntity
  8
RACCORDO
100
AcDbPolyline
 62
253
  6
CONTINUOUS
 90
7
 70
0
 10
130.8037096995
 20
132.5805394602
 10
130.8058484841
 20
132.5642236862
 10
130.8122282429
 20
132.5481870796
 10
130.8227398163
 20
132.5327040312
 10
130.8372033485
 20
132.5180394602
 10
130.8553713644
 20
132.5044442816
 10
130.8769330042
 20
132.4921511126
  0
LWPOLYLINE
  5
405
100
AcDbEntity
  8
RACCORDO
100
AcDbPolyline
 62
253
  6
CONTINUOUS
 90
7
 70
0
 10
130.8037096995
 20
132.9318534201
 10
130.8057471688
 20
132.9159271694
 10
130.8120730305
 20
132.8997920841
 10
130.8225751804
 20
132.884217222
 10
130.8370657196
 20
132.8694727743
 10
130.8552911469
 20
132.8558105529
 10
130.8769330042
 20
132.8434650846
  0
LWPOLYLINE
  5
406
100
AcDbEntity
  8
RACCORDO
100
AcDbPolyline
 62
253
  6
CONTINUOUS
 90
8
 70
0
 10
132.9275426696
 20
131.423953061
 10
132.9263473688
 20
131.4484902638
 10
132.9227776309
 20
131.4715003423
 10
132.9168817304
 20
131.4926721246
 10
132.9087393993
 20
131.5117192987
 10
132.8984607486
 20
131.5283842842
 10
132.8861847794
 20
131.5424417157
 10
132.8720775032
 20
131.5537014907
  0
LWPOLYLINE
  5
407
100
AcDbEntity
  8
RACCORDO
100
AcDbPolyline
 62
253
  6
CONTINUOUS
 90
13
 70
0
 10
133.2810960602
 20
131.423953061
 10
133.2796335751
 20
131.4615606886
 10
133.2756022957
 20
131.49697359
 10
133.2690022219
 20
131.5301917651
 10
133.2597472238
 20
131.5614086644
 10
133.2479234314
 20
131.5904308374
 10
133.2337892344
 20
131.6166779334
 10
133.2173071692
 20
131.6401105198
 10
133.1985146995
 20
131.6607680292
 10
133.1777826061
 20
131.6781884085
 10
133.1552344827
 20
131.6922176402
 10
133.1307467356
 20
131.7030097418
 10
133.1043193649
 20
131.7105647134
  0
LWPOLYLINE
  5
408
100
AcDbEntity
  8
RACCORDO
100
AcDbPolyline
 62
253
  6
CONTINUOUS
 90
13
 70
0
 10
133.2810960602
 20
131.1152471629
 10
133.281983798
 20
131.0918766081
 10
133.2852761366
 20
131.0676960643
 10
133.2909167348
 20
131.0431192747
 10
133.2988090739
 20
131.0185667548
 10
133.3088181048
 20
130.9944586135
 10
133.3207725544
 20
130.971207363
 10
133.3344678672
 20
130.9492108366
 10
133.3496697053
 20
130.9288453917
 10
133.3661179486
 20
130.9104594829
 10
133.3835311558
 20
130.8943676845
 10
133.4016113827
 20
130.8808453106
 10
133.4200492735
 20
130.8701237125
  0
LWPOLYLINE
  5
409
100
AcDbEntity
  8
RACCORDO
100
AcDbPolyline
 62
253
  6
CONTINUOUS
 90
13
 70
0
 10
133.9882028414
 20
131.4536840239
 10
133.9890905634
 20
131.4303136492
 10
133.9923828548
 20
131.4061332687
 10
133.9980233837
 20
131.3815566156
 10
134.005915639
 20
131.3570042032
 10
134.015924582
 20
131.3328961299
 10
134.027878957
 20
131.3096448917
 10
134.0415742212
 20
131.2876483237
 10
134.056776045
 20
131.2672827933
 10
134.0732243208
 20
131.2488967602
 10
134.0906376142
 20
131.2328048148
 10
134.1087179788
 20
131.2192822945
 10
134.1271560546
 20
131.2085605735
  0
LINE
  5
40A
100
AcDbEntity
  8
RACCORDO
100
AcDbLine
 62
253
  6
CONTINUOUS
 10
133.9882028414
 20
131.4536840239
 11
133.9882028414
 21
131.7775064516
  0
LINE
  5
40B
100
AcDbEntity
  8
RACCORDO
100
AcDbLine
 62
7
  6
CONTINUOUS
 10
134.0614261461
 20
131.5372615782
 11
134.0614261461
 21
131.8658947993
  0
LINE
  5
40C
100
AcDbEntity
  8
RACCORDO
100
AcDbLine
 62
253
  6
CONTINUOUS
 10
134.6953096226
 20
133.2323738143
 11
134.6953096226
 21
132.8810598422
  0
LINE
  5
40D
100
AcDbEntity
  8
RACCORDO
100
AcDbLine
 62
7
  6
CONTINUOUS
 10
134.7685329273
 20
133.3207621619
 11
134.7685329273
 21
132.9694481899
  0
LWPOLYLINE
  5
40E
100
AcDbEntity
  8
RACCORDO
100
AcDbPolyline
 62
7
  6
CONTINUOUS
 90
5
 70
0
 10
134.7685329273
 20
132.9694481899
 10
134.7662656769
 20
132.9358604032
 10
134.7594281409
 20
132.9025955524
 10
134.7480674905
 20
132.8703831392
 10
134.7323589214
 20
132.8399166275
  0
LWPOLYLINE
  5
40F
100
AcDbEntity
  8
0
100
AcDbPolyline
 62
7
  6
CONTINUOUS
 90
6
 70
0
 10
137.7011211381
 20
138.8947568928
 10
137.7011074022
 20
138.8946455181
 10
137.7010938443
 20
138.8944054783
 10
137.7010764938
 20
138.8940407218
 10
137.701057172
 20
138.8935523496
 10
137.7010152159
 20
138.8922114051
  0
LINE
  5
410
100
AcDbEntity
  8
DRAFT
100
AcDbLine
 62
7
  6
CONTINUOUS
 10
144.2720675066
 20
141.7639475719
 11
144.237946427
 21
141.6590502323
  0
LINE
  5
411
100
AcDbEntity
  8
DRAFT
100
AcDbLine
 62
7
  6
CONTINUOUS
 10
144.5549102191
 20
141.9053689282
 11
144.5207891395
 21
141.8004715885
  0
LINE
  5
412
100
AcDbEntity
  8
DRAFT
100
AcDbLine
 62
7
  6
CONTINUOUS
 10
144.8377529315
 20
142.0467902844
 11
144.803631852
 21
141.9418929448
  0
LINE
  5
413
100
AcDbEntity
  8
DRAFT
100
AcDbLine
 62
7
  6
CONTINUOUS
 10
145.120595644
 20
142.1882116406
 11
145.0864745644
 21
142.083314301
  0
LINE
  5
414
100
AcDbEntity
  8
DRAFT
100
AcDbLine
 62
7
  6
CONTINUOUS
 10
145.4034383565
 20
142.3296329969
 11
145.3693172769
 21
142.2247356572
  0
LINE
  5
415
100
AcDbEntity
  8
DRAFT
100
AcDbLine
 62
7
  6
CONTINUOUS
 10
145.686281069
 20
142.4710543531
 11
145.6521599894
 21
142.3661570135
  0
LINE
  5
416
100
AcDbEntity
  8
DRAFT
100
AcDbLine
 62
7
  6
CONTINUOUS
 10
144.1750794915
 20
143.2266551418
 11
144.138489893
 21
143.1229920617
  0
LINE
  5
417
100
AcDbEntity
  8
DRAFT
100
AcDbLine
 62
7
  6
CONTINUOUS
 10
145.2476440723
 20
140.5853051765
 11
145.2842336708
 21
140.6889682566
  0
LINE
  5
418
100
AcDbEntity
  8
DRAFT
100
AcDbLine
 62
7
  6
CONTINUOUS
 10
145.5304867848
 20
140.7267265327
 11
145.5670763833
 21
140.8303896129
  0
LINE
  5
419
100
AcDbEntity
  8
DRAFT
100
AcDbLine
 62
7
  6
CONTINUOUS
 10
145.8721357664
 20
140.963913442
 11
145.8355461679
 21
140.8602503619
  0
LINE
  5
41A
100
AcDbEntity
  8
RACCORDO
100
AcDbLine
 62
253
  6
CONTINUOUS
 10
147.5292977011
 20
125.5587357171
 11
148.059627787
 21
126.19890076
  0
LINE
  5
41B
100
AcDbEntity
  8
RACCORDO
100
AcDbLine
 62
7
  6
CONTINUOUS
 10
147.5450400439
 20
125.4876360715
 11
148.0753701298
 21
126.1278011145
  0
LINE
  5
41C
100
AcDbEntity
  8
RACCORDO
100
AcDbLine
 62
253
  6
CONTINUOUS
 10
152.7885679556
 20
126.8906280622
 11
148.5899578729
 21
122.9142993246
  0
LWPOLYLINE
  5
41D
100
AcDbEntity
  8
RACCORDO
100
AcDbPolyline
 62
7
  6
CONTINUOUS
 90
3
 70
0
 10
115.5557294563
 20
100.632716735
 10
115.4996234191
 20
100.6052886751
 10
115.4878529334
 20
100.6007454707
  0
LINE
  5
41E
100
AcDbEntity
  8
RACCORDO
100
AcDbLine
 62
253
  6
CONTINUOUS
 10
114.5304806334
 20
102.8010090554
 11
114.5884053352
 21
102.8268515589
  0
LINE
  5
41F
100
AcDbEntity
  8
ASSI
100
AcDbLine
 62
7
  6
CONTINUOUS
 10
115.5550774103
 20
100.6323129552
 11
115.4710205448
 21
100.5948649268
  0
LINE
  5
420
100
AcDbEntity
  8
ASSI
100
AcDbLine
 62
253
  6
CONTINUOUS
 10
114.5812254909
 20
102.8241223019
 11
114.5884053352
 21
102.8268515589
  0
LINE
  5
421
100
AcDbEntity
  8
DRAFT
100
AcDbLine
 62
7
  6
CONTINUOUS
 10
114.5885080857
 20
102.6070594568
 11
115.0452088107
 21
102.780257324
  0
LINE
  5
422
100
AcDbEntity
  8
RACCORDO
100
AcDbLine
 62
7
  6
CONTINUOUS
 10
114.5884053352
 20
102.8268515589
 11
114.5887355802
 21
102.8269740377
  0
LINE
  5
423
100
AcDbEntity
  8
ASSI
100
AcDbLine
 62
7
  6
CONTINUOUS
 10
114.5811909384
 20
102.8240831448
 11
114.6033207116
 21
102.8320669742
  0
LWPOLYLINE
  5
424
100
AcDbEntity
  8
RACCORDO
100
AcDbPolyline
 62
7
  6
CONTINUOUS
 90
3
 70
0
 10
114.5887330205
 20
102.8269462709
 10
114.6340176546
 20
102.8410143081
 10
114.6886945085
 20
102.8513591931
  0
LWPOLYLINE
  5
425
100
AcDbEntity
  8
RACCORDO
100
AcDbPolyline
 62
253
  6
CONTINUOUS
 90
5
 70
0
 10
148.0606806389
 20
85.1174689919
 10
148.047876972
 20
85.1439829456
 10
148.0322407202
 20
85.1678125124
 10
148.014040903
 20
85.1885487201
 10
147.9935900494
 20
85.2058363549
  0
LWPOLYLINE
  5
426
100
AcDbEntity
  8
RACCORDO
100
AcDbPolyline
 62
7
  6
CONTINUOUS
 90
4
 70
0
 10
144.1881361072
 20
84.1492289718
 10
144.1771758318
 20
84.1804526401
 10
144.170417904
 20
84.2129759246
 10
144.1680280222
 20
84.247321574
  0
LWPOLYLINE
  5
427
100
AcDbEntity
  8
RACCORDO
100
AcDbPolyline
 62
7
  6
CONTINUOUS
 90
13
 70
0
 10
136.385310223
 20
130.8637830856
 10
136.3863070307
 20
130.8481105365
 10
136.3894524178
 20
130.8317193939
 10
136.394707986
 20
130.8155357539
 10
136.4021009645
 20
130.7995622941
 10
136.4116041242
 20
130.7837963368
 10
136.4230953651
 20
130.7684404488
 10
136.4366003407
 20
130.7534999213
 10
136.4520933975
 20
130.7389694631
 10
136.4693754753
 20
130.7250357666
 10
136.4883802206
 20
130.7117610626
 10
136.5091739869
 20
130.6990831203
 10
136.5317567741
 20
130.6870019398
  0
LWPOLYLINE
  5
428
100
AcDbEntity
  8
268
100
AcDbPolyline
 62
7
  6
CONTINUOUS
 90
7
 70
0
 10
137.4564473986
 20
136.7979909138
 10
137.4563557906
 20
136.8022987151
 10
137.4562166198
 20
136.8066100457
 10
137.4560298864
 20
136.8109249057
 10
137.4557955903
 20
136.815243295
 10
137.4555137315
 20
136.8195652137
 10
137.45518431
 20
136.8238906618
  0
LINE
  5
429
100
AcDbEntity
  8
268
100
AcDbLine
 62
7
  6
CONTINUOUS
 10
137.4564473986
 20
136.7979909138
 11
137.4564938693
 21
136.7918535757
  0
LINE
  5
42A
100
AcDbEntity
  8
RACCORDO
100
AcDbLine
 62
7
  6
CONTINUOUS
 10
136.3853101647
 20
129.6642442274
 11
136.3853101647
 21
130.8637786351
  0
LINE
  5
42B
100
AcDbEntity
  8
RACCORDO
100
AcDbLine
 62
253
  6
CONTINUOUS
 10
136.5317567741
 20
129.4896829041
 11
136.5317567741
 21
130.6870019398
  0
LINE
  5
42C
100
AcDbEntity
  8
268
100
AcDbLine
 62
7
  6
CONTINUOUS
 10
136.8446328284
 20
135.8258541801
 11
136.8446328284
 21
135.8968186038
  0
LINE
  5
42D
100
AcDbEntity
  8
0
100
AcDbLine
 62
7
  6
CONTINUOUS
 10
137.0411045953
 20
135.9985448389
 11
137.0411045953
 21
135.7276182966
  0
LINE
  5
42E
100
AcDbEntity
  8
268
100
AcDbLine
 62
253
  6
CONTINUOUS
 10
137.372295831
 20
136.5041770699
 11
137.372295831
 21
136.2919179158
  0
LINE
  5
42F
100
AcDbEntity
  8
268
100
AcDbLine
 62
7
  6
CONTINUOUS
 10
137.4564938909
 20
136.7917979482
 11
137.4564938909
 21
136.3104920292
  0
LINE
  5
430
100
AcDbEntity
  8
0
100
AcDbLine
 62
7
  6
CONTINUOUS
 10
138.4103423917
 20
133.8299868117
 11
138.4103423917
 21
134.0289034584
  0
LWPOLYLINE
  5
431
100
AcDbEntity
  8
268
100
AcDbPolyline
 62
7
  6
CONTINUOUS
 90
16
 70
0
 10
137.4564938693
 20
136.7918535757
 10
137.4562593636
 20
136.7783392674
 10
137.4551185876
 20
136.7585740762
 10
137.453074256
 20
136.7387204256
 10
137.4501830909
 20
136.7187846418
 10
137.4464943268
 20
136.6988024054
 10
137.4420343629
 20
136.6788405838
 10
137.4368415046
 20
136.6589198662
 10
137.4309588474
 20
136.6390521148
 10
137.4243983132
 20
136.6192918886
 10
137.41719141
 20
136.599654822
 10
137.4093742643
 20
136.5801528574
 10
137.4009503249
 20
136.5608372585
 10
137.3919374335
 20
136.541734532
 10
137.3823755882
 20
136.5228440382
 10
137.372295831
 20
136.5041770699
  0
LINE
  5
432
100
AcDbEntity
  8
0
100
AcDbLine
 62
7
  6
CONTINUOUS
 10
137.699967489
 20
138.840277602
 11
137.6996688207
 21
138.8235539388
  0
LINE
  5
433
100
AcDbEntity
  8
0
100
AcDbLine
 62
7
  6
CONTINUOUS
 10
137.7008117402
 20
138.8838996371
 11
137.699967489
 21
138.840277602
  0
LINE
  5
434
100
AcDbEntity
  8
0
100
AcDbLine
 62
7
  6
CONTINUOUS
 10
137.7010152159
 20
138.8922114051
 11
137.7008117402
 21
138.8838996371
  0
LWPOLYLINE
  5
435
100
AcDbEntity
  8
0
100
AcDbPolyline
 62
7
  6
CONTINUOUS
 90
36
 70
0
 10
140.9609158122
 20
136.7683269272
 10
140.9624523759
 20
136.7768005905
 10
140.9639075134
 20
136.7852261532
 10
140.9652773677
 20
136.7936015113
 10
140.9665558268
 20
136.8019279465
 10
140.9677412857
 20
136.8102000051
 10
140.9688365996
 20
136.8184054647
 10
140.9698376893
 20
136.8265420339
 10
140.9707408376
 20
136.8346078504
 10
140.9715493017
 20
136.8425912575
 10
140.9722589212
 20
136.8504900207
 10
140.9728659025
 20
136.8583021885
 10
140.9733738015
 20
136.8660163803
 10
140.9737783154
 20
136.8736303895
 10
140.9740755419
 20
136.8811421489
 10
140.9742692628
 20
136.8885402635
 10
140.9743549656
 20
136.8958225613
 10
140.9743285938
 20
136.9029867901
 10
140.9741941049
 20
136.9100211303
 10
140.9739467058
 20
136.9169233835
 10
140.9735821404
 20
136.9236911141
 10
140.9731045152
 20
136.9303117587
 10
140.9725086742
 20
136.9367830961
 10
140.9717901047
 20
136.9431024349
 10
140.9709530495
 20
136.9492560212
 10
140.9699918986
 20
136.9552416139
 10
140.9689018204
 20
136.9610561923
 10
140.9676872066
 20
136.9666842452
 10
140.9663419017
 20
136.972123499
 10
140.9648606902
 20
136.977370551
 10
140.9632481477
 20
136.982407499
 10
140.9614974706
 20
136.9872320618
 10
140.9596030021
 20
136.9918403708
 10
140.9575695909
 20
136.9962113343
 10
140.9553896837
 20
137.0003427049
 10
140.9548767703
 20
137.0012415844
  0
LINE
  5
436
100
AcDbEntity
  8
DRAFT
100
AcDbLine
 62
7
  6
CONTINUOUS
 10
147.3833373438
 20
140.2083126533
 11
147.3492162642
 21
140.1034153137
  0
LINE
  5
437
100
AcDbEntity
  8
DRAFT
100
AcDbLine
 62
7
  6
CONTINUOUS
 10
147.6661800563
 20
140.3497340096
 11
147.6320589767
 21
140.2448366699
  0
LINE
  5
438
100
AcDbEntity
  8
DRAFT
100
AcDbLine
 62
7
  6
CONTINUOUS
 10
146.1549784789
 20
141.1053347983
 11
146.1183888803
 21
141.0016717181
  0
LINE
  5
439
100
AcDbEntity
  8
DRAFT
100
AcDbLine
 62
7
  6
CONTINUOUS
 10
146.4378211913
 20
141.2467561545
 11
146.4012315928
 21
141.1430930743
  0
LINE
  5
43A
100
AcDbEntity
  8
DRAFT
100
AcDbLine
 62
7
  6
CONTINUOUS
 10
146.7206639038
 20
141.3881775107
 11
146.6840743053
 21
141.2845144306
  0
LINE
  5
43B
100
AcDbEntity
  8
DRAFT
100
AcDbLine
 62
7
  6
CONTINUOUS
 10
147.0035066163
 20
141.529598867
 11
146.9669170178
 21
141.4259357868
  0
LINE
  5
43C
100
AcDbEntity
  8
DRAFT
100
AcDbLine
 62
7
  6
CONTINUOUS
 10
147.2863493288
 20
141.6710202232
 11
147.2497597302
 21
141.567357143
  0
LWPOLYLINE
  5
43D
100
AcDbEntity
  8
RACCORDO
100
AcDbPolyline
 62
253
  6
CONTINUOUS
 90
5
 70
0
 10
147.5029192686
 20
125.5248258661
 10
147.4784689331
 20
125.4896106103
 10
147.4559466946
 20
125.4530899496
 10
147.4352283766
 20
125.4149921836
 10
147.4164381555
 20
125.3755890127
  0
LWPOLYLINE
  5
43E
100
AcDbEntity
  8
RACCORDO
100
AcDbPolyline
 62
7
  6
CONTINUOUS
 90
5
 70
0
 10
148.0753701298
 20
126.1278011145
 10
148.0944557003
 20
126.1541597163
 10
148.1099617726
 20
126.1827869308
 10
148.1216190392
 20
126.2131954694
 10
148.1292364202
 20
126.2449303414
  0
LINE
  5
43F
100
AcDbEntity
  8
RACCORDO
100
AcDbLine
 62
253
  6
CONTINUOUS
 10
147.5292977011
 20
125.5587357171
 11
147.5029192686
 21
125.5248258661
  0
LWPOLYLINE
  5
440
100
AcDbEntity
  8
RACCORDO
100
AcDbPolyline
 62
7
  6
CONTINUOUS
 90
13
 70
0
 10
147.5450400439
 20
125.4876360715
 10
147.5276926715
 20
125.4654135195
 10
147.510960596
 20
125.4412882606
 10
147.4951418671
 20
125.415554362
 10
147.4804670695
 20
125.388467568
 10
147.4672271651
 20
125.3604805318
 10
147.4557222594
 20
125.3322569221
 10
147.446065119
 20
125.3042276243
 10
147.4383142632
 20
125.276810619
 10
147.4325270201
 20
125.2506735573
 10
147.4286206585
 20
125.2262822373
 10
147.4264252368
 20
125.2038785839
 10
147.4257443105
 20
125.1837357171
  0
LINE
  5
441
100
AcDbEntity
  8
RACCORDO
100
AcDbLine
 62
7
  6
CONTINUOUS
 10
148.5899578729
 20
122.7290143753
 11
152.7028856008
 21
126.6421833316
  0
LWPOLYLINE
  5
442
100
AcDbEntity
  8
RACCORDO
100
AcDbPolyline
 62
253
  6
CONTINUOUS
 90
18
 70
0
 10
115.2803915739
 20
100.7435233551
 10
115.2980504394
 20
100.7503789191
 10
115.3328232037
 20
100.7665823295
 10
115.3662617469
 20
100.7858790586
 10
115.3982464199
 20
100.8082020754
 10
115.428660396
 20
100.833469388
 10
115.4573957147
 20
100.8615878983
 10
115.4843619101
 20
100.892465479
 10
115.5094764155
 20
100.9260075379
 10
115.5326677434
 20
100.9621261829
 10
115.5538389028
 20
101.0006785788
 10
115.5728872204
 20
101.0414656049
 10
115.5897412324
 20
101.0842935112
 10
115.6043746674
 20
101.1290497148
 10
115.6167647488
 20
101.1756446171
 10
115.6268744046
 20
101.2239453316
 10
115.6346632397
 20
101.2737668585
 10
115.6401052697
 20
101.3249414083
  0
LINE
  5
443
100
AcDbEntity
  8
RACCORDO
100
AcDbLine
 62
7
  6
CONTINUOUS
 10
115.4885127401
 20
100.6009631139
 11
115.4878537941
 21
100.6007190047
  0
LINE
  5
444
100
AcDbEntity
  8
DRAFT
100
AcDbLine
 62
7
  6
CONTINUOUS
 10
115.2803909138
 20
100.7435231153
 11
115.7872580086
 21
100.9276944406
  0
LINE
  5
445
100
AcDbEntity
  8
ASSI
100
AcDbLine
 62
253
  6
CONTINUOUS
 10
115.4885127401
 20
100.6009631139
 11
115.4710906933
 21
100.5948650434
  0
LWPOLYLINE
  5
446
100
AcDbEntity
  8
RACCORDO
100
AcDbPolyline
 62
7
  6
CONTINUOUS
 90
40
 70
0
 10
115.2803909153
 20
100.7435231158
 10
115.2446961482
 20
100.7320747192
 10
115.2079213241
 20
100.7233061413
 10
115.1701801216
 20
100.7172935184
 10
115.1315765667
 20
100.7141012616
 10
115.0922469083
 20
100.713785827
 10
115.0523542045
 20
100.7163855547
 10
115.0120414188
 20
100.7219200902
 10
114.9714053882
 20
100.7304046438
 10
114.9305304808
 20
100.7418560902
 10
114.8894529612
 20
100.7563115059
 10
114.84836676
 20
100.7737514527
 10
114.8075836514
 20
100.7940642077
 10
114.7672379239
 20
100.8171811072
 10
114.7274108858
 20
100.8430564353
 10
114.688324364
 20
100.871539098
 10
114.6501034849
 20
100.902516868
 10
114.6128205566
 20
100.9359129194
 10
114.5766119788
 20
100.9715876783
 10
114.5415677839
 20
101.0094328734
 10
114.5077823499
 20
101.0493297323
 10
114.4753919249
 20
101.0910950287
 10
114.4444933431
 20
101.1345731297
 10
114.4151472525
 20
101.1796499844
 10
114.3874286362
 20
101.2261867877
 10
114.3614115976
 20
101.2740369016
 10
114.3371605006
 20
101.3230619177
 10
114.3147333139
 20
101.3731296549
 10
114.2941890024
 20
101.4240991943
 10
114.275587512
 20
101.4758159433
 10
114.2589834205
 20
101.5281243294
 10
114.2444255736
 20
101.5808697252
 10
114.2319564546
 20
101.6339033625
 10
114.2216141676
 20
101.6870785942
 10
114.2134340201
 20
101.7402428474
 10
114.2074466903
 20
101.7932447823
 10
114.2036780003
 20
101.8459434868
 10
114.2021512003
 20
101.8981933548
 10
114.2028858224
 20
101.9498408912
 10
114.2058967301
 20
102.0007358388
  0
LWPOLYLINE
  5
447
100
AcDbEntity
  8
RACCORDO
100
AcDbPolyline
 62
253
  6
CONTINUOUS
 90
6
 70
0
 10
115.4878537941
 20
100.6007190047
 10
115.4201887907
 20
100.5810633459
 10
115.3525878023
 20
100.5711405465
 10
115.2825895347
 20
100.5699376756
 10
115.2107759849
 20
100.5774412493
 10
115.1377192433
 20
100.5935578478
  0
LWPOLYLINE
  5
448
100
AcDbEntity
  8
ASSI
100
AcDbPolyline
 62
253
  6
CONTINUOUS
 90
4
 70
0
 10
114.4874438592
 20
102.8924226492
 10
114.5577585326
 20
102.9127317638
 10
114.6312825367
 20
102.923487321
 10
114.7079017337
 20
102.9249136319
  0
LINE
  5
449
100
AcDbEntity
  8
RACCORDO
100
AcDbLine
 62
253
  6
CONTINUOUS
 10
148.0704312148
 20
85.0887266945
 11
148.0606806389
 21
85.1174689919
  0
LWPOLYLINE
  5
44A
100
AcDbEntity
  8
RACCORDO
100
AcDbPolyline
 62
253
  6
CONTINUOUS
 90
13
 70
0
 10
137.6192831195
 20
83.91471933
 10
137.7191333751
 20
86.8754061194
 10
137.8460447623
 20
89.8475724426
 10
138.0000010851
 20
92.8308453262
 10
138.180982721
 20
95.8248503814
 10
138.3889668916
 20
98.8292118274
 10
138.6239276684
 20
101.8435525401
 10
138.8858357018
 20
104.8674940495
 10
139.1746579684
 20
107.9006568262
 10
139.4903580492
 20
110.9426603067
 10
139.8328963789
 20
113.99312263
 10
140.2022302479
 20
117.0516606835
 10
140.5983135575
 20
120.1178903917
  0
LWPOLYLINE
  5
44B
100
AcDbEntity
  8
ASSI
100
AcDbPolyline
 62
253
  6
CONTINUOUS
 90
13
 70
0
 10
137.6192831195
 20
83.91471933
 10
137.7191333751
 20
86.8754061194
 10
137.8460447623
 20
89.8475724426
 10
138.0000010851
 20
92.8308453262
 10
138.180982721
 20
95.8248503814
 10
138.3889668916
 20
98.8292118274
 10
138.6239276684
 20
101.8435525401
 10
138.8858357018
 20
104.8674940495
 10
139.1746579684
 20
107.9006568262
 10
139.4903580492
 20
110.9426603067
 10
139.8328963789
 20
113.99312263
 10
140.2022302479
 20
117.0516606835
 10
140.5983135575
 20
120.1178903917
  0
LWPOLYLINE
  5
44C
100
AcDbEntity
  8
RACCORDO
100
AcDbPolyline
 62
253
  6
CONTINUOUS
 90
13
 70
0
 10
138.7403517356
 20
83.8849472718
 10
138.839960687
 20
86.838352171
 10
138.966522286
 20
89.8024641898
 10
139.1200365328
 20
92.7772833282
 10
139.3005295131
 20
95.7631873298
 10
139.5079751411
 20
98.7597984509
 10
139.7422951599
 20
101.7659834612
 10
140.0034998867
 20
104.7817461798
 10
140.2915790044
 20
107.8070827874
 10
140.6064233046
 20
110.8408485965
 10
140.9479963847
 20
113.8826620443
 10
141.3163346473
 20
116.9329046935
 10
141.7114380925
 20
119.9915765441
  0
LWPOLYLINE
  5
44D
100
AcDbEntity
  8
ASSI
100
AcDbPolyline
 62
253
  6
CONTINUOUS
 90
13
 70
0
 10
138.7403517356
 20
83.8849472718
 10
138.839960687
 20
86.838352171
 10
138.966522286
 20
89.8024641898
 10
139.1200365328
 20
92.7772833282
 10
139.3005295131
 20
95.7631873298
 10
139.5079751411
 20
98.7597984509
 10
139.7422951599
 20
101.7659834612
 10
140.0034998867
 20
104.7817461798
 10
140.2915790044
 20
107.8070827874
 10
140.6064233046
 20
110.8408485965
 10
140.9479963847
 20
113.8826620443
 10
141.3163346473
 20
116.9329046935
 10
141.7114380925
 20
119.9915765441
  0
LWPOLYLINE
  5
44E
100
AcDbEntity
  8
RACCORDO
100
AcDbPolyline
 62
253
  6
CONTINUOUS
 90
19
 70
0
 10
140.5983135575
 20
120.1178903917
 10
140.6169204319
 20
120.2319148225
 10
140.642576815
 20
120.3471786276
 10
140.6751085757
 20
120.4628959679
 10
140.7142976866
 20
120.5782782054
 10
140.7598762143
 20
120.6925379373
 10
140.8115273534
 20
120.8048945439
 10
140.8689000432
 20
120.9145779872
 10
140.9316058304
 20
121.0208441293
 10
140.9992143384
 20
121.1229779674
 10
141.0712693203
 20
121.2202817164
 10
141.1472828673
 20
121.3120912759
 10
141.2267336598
 20
121.397789583
 10
141.3090881303
 20
121.476791833
 10
141.3937871489
 20
121.5485540737
 10
141.4802419656
 20
121.6125882184
 10
141.5678626849
 20
121.6684568055
 10
141.656062502
 20
121.7157750527
 10
141.7442452399
 20
121.7542177026
  0
LWPOLYLINE
  5
44F
100
AcDbEntity
  8
ASSI
100
AcDbPolyline
 62
253
  6
CONTINUOUS
 90
19
 70
0
 10
140.5983135575
 20
120.1178903917
 10
140.6169204319
 20
120.2319148225
 10
140.642576815
 20
120.3471786276
 10
140.6751085757
 20
120.4628959679
 10
140.7142976866
 20
120.5782782054
 10
140.7598762143
 20
120.6925379373
 10
140.8115273534
 20
120.8048945439
 10
140.8689000432
 20
120.9145779872
 10
140.9316058304
 20
121.0208441293
 10
140.9992143384
 20
121.1229779674
 10
141.0712693203
 20
121.2202817164
 10
141.1472828673
 20
121.3120912759
 10
141.2267336598
 20
121.397789583
 10
141.3090881303
 20
121.476791833
 10
141.3937871489
 20
121.5485540737
 10
141.4802419656
 20
121.6125882184
 10
141.5678626849
 20
121.6684568055
 10
141.656062502
 20
121.7157750527
 10
141.7442452399
 20
121.7542177026
  0
LWPOLYLINE
  5
450
100
AcDbEntity
  8
RACCORDO
100
AcDbPolyline
 62
253
  6
CONTINUOUS
 90
19
 70
0
 10
141.7114380925
 20
119.9915765441
 10
141.7202445662
 20
120.0450728979
 10
141.7321983345
 20
120.0985003197
 10
141.7472993972
 20
120.1518588095
 10
141.7656970098
 20
120.205541825
 10
141.7872419169
 20
120.2591559084
 10
141.8114863523
 20
120.3115206864
 10
141.838482656
 20
120.3625816561
 10
141.868178488
 20
120.4123933203
 10
141.8999690624
 20
120.4599388141
 10
141.9338972486
 20
120.5051696464
 10
141.9699201772
 20
120.5481343084
 10
142.007304454
 20
120.5879614081
 10
142.04610222
 20
120.624595852
 10
142.0862613342
 20
120.6580927337
 10
142.1268919795
 20
120.6877459423
 10
142.1676975504
 20
120.7133201074
 10
142.2089746525
 20
120.7350505994
 10
142.2507232858
 20
120.7529374183
  0
LWPOLYLINE
  5
451
100
AcDbEntity
  8
ASSI
100
AcDbPolyline
 62
253
  6
CONTINUOUS
 90
19
 70
0
 10
141.7114380925
 20
119.9915765441
 10
141.7202445662
 20
120.0450728979
 10
141.7321983345
 20
120.0985003197
 10
141.7472993972
 20
120.1518588095
 10
141.7656970098
 20
120.205541825
 10
141.7872419169
 20
120.2591559084
 10
141.8114863523
 20
120.3115206864
 10
141.838482656
 20
120.3625816561
 10
141.868178488
 20
120.4123933203
 10
141.8999690624
 20
120.4599388141
 10
141.9338972486
 20
120.5051696464
 10
141.9699201772
 20
120.5481343084
 10
142.007304454
 20
120.5879614081
 10
142.04610222
 20
120.624595852
 10
142.0862613342
 20
120.6580927337
 10
142.1268919795
 20
120.6877459423
 10
142.1676975504
 20
120.7133201074
 10
142.2089746525
 20
120.7350505994
 10
142.2507232858
 20
120.7529374183
  0
LINE
  5
452
100
AcDbEntity
  8
DRAFT
100
AcDbLine
 62
7
  6
CONTINUOUS
 10
147.9490227688
 20
140.4911553658
 11
147.9149016892
 21
140.3862580261
  0
LINE
  5
453
100
AcDbEntity
  8
DRAFT
100
AcDbLine
 62
7
  6
CONTINUOUS
 10
148.2318654812
 20
140.632576722
 11
148.1977444016
 21
140.5276793824
  0
LINE
  5
454
100
AcDbEntity
  8
DRAFT
100
AcDbLine
 62
7
  6
CONTINUOUS
 10
148.5147081937
 20
140.7739980783
 11
148.4805871141
 21
140.6691007386
  0
LINE
  5
455
100
AcDbEntity
  8
DRAFT
100
AcDbLine
 62
7
  6
CONTINUOUS
 10
148.7975509062
 20
140.9154194345
 11
148.7634298266
 21
140.8105220949
  0
LINE
  5
456
100
AcDbEntity
  8
DRAFT
100
AcDbLine
 62
7
  6
CONTINUOUS
 10
148.6496538337
 20
139.1934654394
 11
148.6783462205
 21
139.2747546943
  0
LWPOLYLINE
  5
457
100
AcDbEntity
  8
RACCORDO
100
AcDbPolyline
 62
253
  6
CONTINUOUS
 90
12
 70
0
 10
145.9383074434
 20
125.1382405882
 10
145.925362509
 20
125.1089605659
 10
145.9096163881
 20
125.0816062758
 10
145.8913181182
 20
125.0566560338
 10
145.8707472069
 20
125.0345370492
 10
145.8482549016
 20
125.0156682256
 10
145.82427153
 20
125.0004267571
 10
145.7992280608
 20
124.9890814823
 10
145.7735374627
 20
124.9818146611
 10
145.7476418084
 20
124.9787510474
 10
145.7219859804
 20
124.9799426622
 10
145.7120468137
 20
124.9815772063
  0
LWPOLYLINE
  5
458
100
AcDbEntity
  8
RACCORDO
100
AcDbPolyline
 62
253
  6
CONTINUOUS
 90
12
 70
0
 10
146.4686375293
 20
125.0284056312
 10
146.4555881857
 20
124.9989196475
 10
146.4397374218
 20
124.9714505262
 10
146.4213564484
 20
124.9464682718
 10
146.4007597691
 20
124.9244003374
 10
146.3782997989
 20
124.9056243116
 10
146.354360834
 20
124.8904614573
 10
146.3293524768
 20
124.8791712153
 10
146.3037026272
 20
124.8719467645
 10
146.2778501613
 20
124.8689117176
 10
146.2522374218
 20
124.8701180048
 10
146.2411600815
 20
124.8719890898
  0
LWPOLYLINE
  5
459
100
AcDbEntity
  8
RACCORDO
100
AcDbPolyline
 62
253
  6
CONTINUOUS
 90
19
 70
0
 10
146.4179343081
 20
124.1477904049
 10
146.4371435245
 20
124.1498815422
 10
146.4573221189
 20
124.1522539527
 10
146.4777822495
 20
124.1548682051
 10
146.4981721075
 20
124.1577110412
 10
146.5185754853
 20
124.1608274523
 10
146.538880538
 20
124.1642327119
 10
146.5588162723
 20
124.1679101744
 10
146.5782137011
 20
124.1718404087
 10
146.597080542
 20
124.1760299398
 10
146.6153072372
 20
124.1804529037
 10
146.6328110183
 20
124.1850856739
 10
146.6496940848
 20
124.1899539261
 10
146.6658962929
 20
124.1950323948
 10
146.6813409265
 20
124.2002729704
 10
146.6961075253
 20
124.2056832253
 10
146.7101933608
 20
124.2112494368
 10
146.723533989
 20
124.2169280235
 10
146.7361204975
 20
124.2226929288
  0
LWPOLYLINE
  5
45A
100
AcDbEntity
  8
RACCORDO
100
AcDbPolyline
 62
253
  6
CONTINUOUS
 90
4
 70
0
 10
144.8587758671
 20
125.1641307
 10
144.8755097214
 20
125.1659256498
 10
144.891070277
 20
125.1709099748
 10
144.8932807059
 20
125.1719254155
  0
LINE
  5
45B
100
AcDbEntity
  8
RACCORDO
100
AcDbLine
 62
253
  6
CONTINUOUS
 10
146.3827887993
 20
124.144271044
 11
146.4179343081
 21
124.1477904049
  0
LWPOLYLINE
  5
45C
100
AcDbEntity
  8
RACCORDO
100
AcDbPolyline
 62
253
  6
CONTINUOUS
 90
4
 70
0
 10
146.3263156241
 20
124.1392848835
 10
146.3389851306
 20
124.1403068876
 10
146.3525283311
 20
124.1414700203
 10
146.3827887993
 20
124.144271044
  0
LWPOLYLINE
  5
45D
100
AcDbEntity
  8
RACCORDO
100
AcDbPolyline
 62
253
  6
CONTINUOUS
 90
10
 70
0
 10
110.7025613203
 20
135.0657665298
 10
110.6470584896
 20
135.0957743285
 10
110.598122218
 20
135.1271763796
 10
110.5562768504
 20
135.1596362148
 10
110.5219707537
 20
135.192806032
 10
110.4955715123
 20
135.2263304214
 10
110.4773619904
 20
135.2598501739
 10
110.4675373
 20
135.2930061302
 10
110.4662027113
 20
135.3254430295
 10
110.46671455
 20
135.3300549344
  0
LWPOLYLINE
  5
45E
100
AcDbEntity
  8
ASSI
100
AcDbPolyline
 62
253
  6
CONTINUOUS
 90
10
 70
0
 10
110.7025613203
 20
135.0657665298
 10
110.6470584896
 20
135.0957743285
 10
110.598122218
 20
135.1271763796
 10
110.5562768504
 20
135.1596362148
 10
110.5219707537
 20
135.192806032
 10
110.4955715123
 20
135.2263304214
 10
110.4773619904
 20
135.2598501739
 10
110.4675373
 20
135.2930061302
 10
110.4662027113
 20
135.3254430295
 10
110.4666576308
 20
135.3296127392
  0
LWPOLYLINE
  5
45F
100
AcDbEntity
  8
RACCORDO
100
AcDbPolyline
 62
253
  6
CONTINUOUS
 90
7
 70
0
 10
144.1680278639
 20
84.5987762386
 10
144.1701666485
 20
84.5824604646
 10
144.1765464073
 20
84.566423858
 10
144.1870579808
 20
84.5509408096
 10
144.2015215129
 20
84.5362762386
 10
144.2196895288
 20
84.52268106
 10
144.2412511686
 20
84.510387891
  0
LWPOLYLINE
  5
460
100
AcDbEntity
  8
RACCORDO
100
AcDbPolyline
 62
253
  6
CONTINUOUS
 90
7
 70
0
 10
144.1680280222
 20
84.247321574
 10
144.1700653333
 20
84.2315360036
 10
144.1763911949
 20
84.2154009183
 10
144.1868933449
 20
84.1998260563
 10
144.201383884
 20
84.1850816085
 10
144.2196093114
 20
84.1714193872
 10
144.2412511686
 20
84.1590739189
  0
LINE
  5
461
100
AcDbEntity
  8
RACCORDO
100
AcDbLine
 62
7
  6
CONTINUOUS
 10
144.0715733651
 20
95.1717710403
 11
144.6146487505
 21
90.1098852599
  0
LWPOLYLINE
  5
462
100
AcDbEntity
  8
0
100
AcDbPolyline
 62
7
  6
CONTINUOUS
 90
40
 70
0
 10
142.0487507654
 20
142.6179899235
 10
142.0484923366
 20
142.6250533078
 10
142.0479424385
 20
142.632044032
 10
142.0471052686
 20
142.6389594235
 10
142.045980644
 20
142.6457997051
 10
142.0445772939
 20
142.6525601781
 10
142.0429129389
 20
142.6592312712
 10
142.0409921283
 20
142.665810948
 10
142.0388192775
 20
142.6722985691
 10
142.0364119838
 20
142.6786870846
 10
142.0337750323
 20
142.6849752167
 10
142.0309125924
 20
142.6911630354
 10
142.0278411809
 20
142.6972457417
 10
142.0245655654
 20
142.7032227197
 10
142.0210896342
 20
142.7090945138
 10
142.0174282622
 20
142.7148581099
 10
142.0135860127
 20
142.7205134244
 10
142.0095664952
 20
142.7260612975
 10
142.0053827378
 20
142.7314999935
 10
142.0010389867
 20
142.7368298273
 10
141.9965385905
 20
142.7420518109
 10
141.9918927775
 20
142.7471650376
 10
141.9871054204
 20
142.75217011
 10
141.9821796358
 20
142.7570681226
 10
141.9771250697
 20
142.7618586242
 10
141.9719452528
 20
142.7665423796
 10
141.9666430582
 20
142.7711205503
 10
141.9612267264
 20
142.7755929612
 10
141.9556994182
 20
142.7799605091
 10
141.9500638263
 20
142.7842243445
 10
141.9443271107
 20
142.7883843426
 10
141.9384921195
 20
142.7924414659
 10
141.9325613638
 20
142.7963968582
 10
141.9265411708
 20
142.8002503475
 10
141.9204341244
 20
142.8040029267
 10
141.9142425642
 20
142.8076557318
 10
141.9079721707
 20
142.8112085071
 10
141.9016252975
 20
142.8146622609
 10
141.8952041336
 20
142.8180181153
 10
141.8913381388
 20
142.8199743986
  0
LWPOLYLINE
  5
463
100
AcDbEntity
  8
0
100
AcDbPolyline
 62
253
  6
CONTINUOUS
 90
52
 70
0
 10
142.6801822876
 20
142.7805571532
 10
142.6800851478
 20
142.7884261205
 10
142.6797955871
 20
142.7961747222
 10
142.6793136056
 20
142.8038029581
 10
142.6786384031
 20
142.8113180621
 10
142.6777707798
 20
142.8187128004
 10
142.6767131359
 20
142.8259654718
 10
142.6754649393
 20
142.8330753235
 10
142.6740267222
 20
142.8400431084
 10
142.6724024809
 20
142.8468493845
 10
142.6705916979
 20
142.8534936753
 10
142.6685948908
 20
142.8599764574
 10
142.6664176089
 20
142.8662797184
 10
142.6640593584
 20
142.8724029492
 10
142.6615206331
 20
142.878346659
 10
142.6588084648
 20
142.8840943636
 10
142.655922361
 20
142.8896455396
 10
142.6528628142
 20
142.8950007102
 10
142.649638333
 20
142.9001449619
 10
142.6462484613
 20
142.9050776992
 10
142.6426936552
 20
142.9097995174
 10
142.638983792
 20
142.9142972884
 10
142.6351184348
 20
142.9185703917
 10
142.6310980205
 20
142.9226194477
 10
142.6269337361
 20
142.9264331894
 10
142.6226251935
 20
142.9300109525
 10
142.6181727808
 20
142.9333534012
 10
142.6135888493
 20
142.9364512619
 10
142.6088730231
 20
142.9393038621
 10
142.604025678
 20
142.9419118742
 10
142.5990602925
 20
142.944268041
 10
142.5939765422
 20
142.9463716591
 10
142.5887747514
 20
142.948223432
 10
142.5834693714
 20
142.9498182121
 10
142.5780601031
 20
142.9511552853
 10
142.5725472456
 20
142.9522353657
 10
142.5669461471
 20
142.9530554486
 10
142.5612565819
 20
142.9536148081
 10
142.5554787757
 20
142.95391417
 10
142.5496287534
 20
142.9539527071
 10
142.5437063046
 20
142.9537296981
 10
142.5377116397
 20
142.9532458643
 10
142.5316614142
 20
142.9525025412
 10
142.5255554502
 20
142.951498994
 10
142.5193939257
 20
142.9502359576
 10
142.5131940305
 20
142.9487169719
 10
142.5069552957
 20
142.9469411426
 10
142.5006781901
 20
142.944909364
 10
142.4943813105
 20
142.9426278597
 10
142.4880708557
 20
142.9400987043
 10
142.4817406267
 20
142.9373198232
 10
142.4753906238
 20
142.9342912164
  0
LWPOLYLINE
  5
464
100
AcDbEntity
  8
0
100
AcDbPolyline
 62
7
  6
CONTINUOUS
 90
33
 70
0
 10
142.7363142875
 20
142.8500218609
 10
142.7362478733
 20
142.8583384952
 10
142.7357663293
 20
142.8738001821
 10
142.7348196917
 20
142.8890863227
 10
142.7334061369
 20
142.9042091528
 10
142.7315268846
 20
142.9191413379
 10
142.729192098
 20
142.9338155867
 10
142.7264081932
 20
142.9482213864
 10
142.7231797207
 20
142.9623571208
 10
142.7195244443
 20
142.9761707875
 10
142.7154563769
 20
142.9896446242
 10
142.7109821942
 20
143.002786364
 10
142.7061149882
 20
143.0155826869
 10
142.7008670412
 20
143.0280263975
 10
142.6952493744
 20
143.0401137701
 10
142.689275997
 20
143.0518352958
 10
142.6829631729
 20
143.0631803382
 10
142.6763219495
 20
143.07414894
 10
142.6693597141
 20
143.0847455302
 10
142.6620928467
 20
143.0949607693
 10
142.6545334857
 20
143.1047928769
 10
142.6466814073
 20
143.1142541762
 10
142.6385504024
 20
143.1233377642
 10
142.6301545637
 20
143.1320379653
 10
142.6214919009
 20
143.1403648928
 10
142.6125767857
 20
143.1483109019
 10
142.603422647
 20
143.1558703278
 10
142.5940240266
 20
143.16305252
 10
142.5843946637
 20
143.1698501371
 10
142.5745484562
 20
143.1762566053
 10
142.564478057
 20
143.1822784712
 10
142.5541896993
 20
143.1879121118
 10
142.5491235441
 20
143.1905032449
  0
LWPOLYLINE
  5
465
100
AcDbEntity
  8
0
100
AcDbPolyline
 62
253
  6
CONTINUOUS
 90
40
 70
0
 10
142.4753906238
 20
142.9342912164
 10
142.4753715906
 20
142.9413699168
 10
142.4751193243
 20
142.9485497701
 10
142.4746342341
 20
142.9558191352
 10
142.4739171063
 20
142.9631662255
 10
142.4729691038
 20
142.9705791288
 10
142.4717917637
 20
142.978045826
 10
142.4703869947
 20
142.9855542107
 10
142.4687570746
 20
142.993092109
 10
142.4669046461
 20
143.0006472992
 10
142.4648327127
 20
143.0082075314
 10
142.4625446337
 20
143.0157605478
 10
142.460044119
 20
143.023294102
 10
142.4573352229
 20
143.0307959793
 10
142.4544223375
 20
143.0382540164
 10
142.4513101856
 20
143.045656121
 10
142.4480038132
 20
143.0529902915
 10
142.4445085813
 20
143.0602446365
 10
142.4408301569
 20
143.0674073939
 10
142.436974504
 20
143.0744669503
 10
142.4329478742
 20
143.0814118595
 10
142.4287567961
 20
143.088230861
 10
142.424408065
 20
143.0949128989
 10
142.4199087319
 20
143.101447139
 10
142.4152660918
 20
143.1078229869
 10
142.4104876723
 20
143.1140301049
 10
142.4055812209
 20
143.1200584289
 10
142.4005546928
 20
143.1258981848
 10
142.3954162379
 20
143.1315399042
 10
142.3901741876
 20
143.1369744397
 10
142.3848370412
 20
143.1421929799
 10
142.3794134522
 20
143.1471870635
 10
142.3739122143
 20
143.1519485934
 10
142.3683422471
 20
143.1564698492
 10
142.3627125815
 20
143.1607435004
 10
142.3570323453
 20
143.1647626176
 10
142.3513107484
 20
143.1685206846
 10
142.3455570676
 20
143.1720116079
 10
142.3397806318
 20
143.1752297276
 10
142.3339908067
 20
143.1781698257
  0
LINE
  5
466
100
AcDbEntity
  8
0
100
AcDbLine
 62
7
  6
CONTINUOUS
 10
142.0487819611
 20
142.6135185127
 11
142.0487819611
 21
142.0781380957
  0
LINE
  5
467
100
AcDbEntity
  8
RACCORDO
100
AcDbLine
 62
253
  6
CONTINUOUS
 10
142.0512506265
 20
127.9272550135
 11
142.0512506265
 21
126.7299359779
  0
LINE
  5
468
100
AcDbEntity
  8
0
100
AcDbLine
 62
253
  6
CONTINUOUS
 10
142.6801822876
 20
142.393838259
 11
142.6801822876
 21
142.7805571532
  0
LINE
  5
469
100
AcDbEntity
  8
0
100
AcDbLine
 62
7
  6
CONTINUOUS
 10
142.7363143275
 20
142.4499904876
 11
142.7363143275
 21
142.8500229903
  0
LINE
  5
46A
100
AcDbEntity
  8
RACCORDO
100
AcDbLine
 62
253
  6
CONTINUOUS
 10
142.7603878536
 20
127.9282761007
 11
142.7603878536
 21
126.723355268
  0
LINE
  5
46B
100
AcDbEntity
  8
RACCORDO
100
AcDbLine
 62
7
  6
CONTINUOUS
 10
143.1805909968
 20
133.2935331572
 11
143.1805909968
 21
132.3931780566
  0
LINE
  5
46C
100
AcDbEntity
  8
0
100
AcDbLine
 62
7
  6
CONTINUOUS
 10
143.9588783916
 20
141.7142643417
 11
143.9598300701
 21
141.7654746652
  0
LINE
  5
46D
100
AcDbEntity
  8
0
100
AcDbLine
 62
7
  6
CONTINUOUS
 10
143.9598300701
 20
141.7654746652
 11
143.9602464528
 21
141.7836517947
  0
LWPOLYLINE
  5
46E
100
AcDbEntity
  8
0
100
AcDbPolyline
 62
7
  6
CONTINUOUS
 90
5
 70
0
 10
143.9602464528
 20
141.7836517947
 10
143.9602860647
 20
141.7847511247
 10
143.9603022525
 20
141.7851158987
 10
143.9603184997
 20
141.7853558981
 10
143.960330709
 20
141.7854672957
  0
LWPOLYLINE
  5
46F
100
AcDbEntity
  8
0
100
AcDbPolyline
 62
7
  6
CONTINUOUS
 90
49
 70
0
 10
147.2201253831
 20
139.4730487192
 10
147.2212321512
 20
139.4790806416
 10
147.222295367
 20
139.4851019778
 10
147.2233152226
 20
139.4911109644
 10
147.2242931544
 20
139.497106697
 10
147.2252281937
 20
139.5030864761
 10
147.2261169943
 20
139.5090458329
 10
147.2269599419
 20
139.514982817
 10
147.2277573593
 20
139.5208956964
 10
147.2285058925
 20
139.5267803382
 10
147.2292060348
 20
139.5326347515
 10
147.2298582172
 20
139.5384571645
 10
147.2304590586
 20
139.5442437678
 10
147.2310091562
 20
139.5499925356
 10
147.2315090381
 20
139.5557016486
 10
147.2319552695
 20
139.5613675872
 10
147.2323485488
 20
139.5669882891
 10
147.2326894929
 20
139.5725618807
 10
147.2329745807
 20
139.5780850827
 10
147.2332046112
 20
139.5835557915
 10
147.2333802843
 20
139.5889720705
 10
147.2334979558
 20
139.5943308242
 10
147.2335585272
 20
139.5996298926
 10
147.2335627783
 20
139.6048672725
 10
147.2335069006
 20
139.6100400089
 10
147.233391902
 20
139.6151458956
 10
147.2332186415
 20
139.6201828273
 10
147.232983103
 20
139.6251478753
 10
147.2326864093
 20
139.6300387453
 10
147.2323295016
 20
139.6348532482
 10
147.2319081077
 20
139.639588455
 10
147.2314234768
 20
139.6442419789
 10
147.2308766367
 20
139.6488115193
 10
147.2302630037
 20
139.6532940794
 10
147.2295839672
 20
139.657687168
 10
147.2288406506
 20
139.6619883479
 10
147.2280280998
 20
139.6661944623
 10
147.227147863
 20
139.6703028972
 10
147.226201172
 20
139.6743110579
 10
147.2251826414
 20
139.6782155314
 10
147.2240940001
 20
139.6820135607
 10
147.2229366061
 20
139.6857023727
 10
147.2217045792
 20
139.6892781958
 10
147.2203998562
 20
139.6927381107
 10
147.219023944
 20
139.6960791435
 10
147.2175704038
 20
139.6992970544
 10
147.2160414113
 20
139.7023887442
 10
147.2144386516
 20
139.7053510153
 10
147.2140714511
 20
139.7059917647
  0
LWPOLYLINE
  5
470
100
AcDbEntity
  8
RACCORDO
100
AcDbPolyline
 62
253
  6
CONTINUOUS
 90
6
 70
0
 10
147.385792963
 20
125.2952990598
 10
147.3739379915
 20
125.2544122777
 10
147.3646560679
 20
125.2138883972
 10
147.3580379993
 20
125.1740118198
 10
147.3539929786
 20
125.1344981438
 10
147.3525210058
 20
125.0953473694
  0
LWPOLYLINE
  5
471
100
AcDbEntity
  8
RACCORDO
100
AcDbPolyline
 62
253
  6
CONTINUOUS
 90
3
 70
0
 10
147.4164381555
 20
125.3755890127
 10
147.3999485612
 20
125.3356955384
 10
147.385792963
 20
125.2952990598
  0
LINE
  5
472
100
AcDbEntity
  8
RACCORDO
100
AcDbLine
 62
253
  6
CONTINUOUS
 10
147.6022036817
 20
124.7133019396
 11
147.61069837
 21
124.7325209619
  0
LWPOLYLINE
  5
473
100
AcDbEntity
  8
RACCORDO
100
AcDbPolyline
 62
253
  6
CONTINUOUS
 90
16
 70
0
 10
140.5983278947
 20
120.1178945056
 10
140.6597784455
 20
120.0894255251
 10
140.7265422556
 20
120.0629773093
 10
140.7979039745
 20
120.0388332414
 10
140.8730989863
 20
120.0172520167
 10
140.951321603
 20
119.9984648701
 10
141.0317336967
 20
119.9826730991
 10
141.11347368
 20
119.9700459067
 10
141.1956657377
 20
119.9607185888
 10
141.277429211
 20
119.9547910845
 10
141.3578880329
 20
119.9523269048
 10
141.4361801155
 20
119.9533524525
 10
141.5114665866
 20
119.9578567392
 10
141.5829407783
 20
119.965791503
 10
141.6498368695
 20
119.9770717258
 10
141.7114380924
 20
119.9915765441
  0
LWPOLYLINE
  5
474
100
AcDbEntity
  8
ASSI
100
AcDbPolyline
 62
253
  6
CONTINUOUS
 90
16
 70
0
 10
140.5983278947
 20
120.1178945056
 10
140.6597784455
 20
120.0894255251
 10
140.7265422556
 20
120.0629773093
 10
140.7979039745
 20
120.0388332414
 10
140.8730989863
 20
120.0172520167
 10
140.951321603
 20
119.9984648701
 10
141.0317336967
 20
119.9826730991
 10
141.11347368
 20
119.9700459067
 10
141.1956657377
 20
119.9607185888
 10
141.277429211
 20
119.9547910845
 10
141.3578880329
 20
119.9523269048
 10
141.4361801155
 20
119.9533524525
 10
141.5114665866
 20
119.9578567392
 10
141.5829407783
 20
119.965791503
 10
141.6498368695
 20
119.9770717258
 10
141.7114380924
 20
119.9915765441
  0
LINE
  5
475
100
AcDbEntity
  8
RACCORDO
100
AcDbLine
 62
253
  6
CONTINUOUS
 10
110.7025612956
 20
135.0657665227
 11
140.5983135575
 21
120.1178903917
  0
LINE
  5
476
100
AcDbEntity
  8
ASSI
100
AcDbLine
 62
253
  6
CONTINUOUS
 10
110.7025612956
 20
135.0657665227
 11
140.5983135575
 21
120.1178903917
  0
LINE
  5
477
100
AcDbEntity
  8
RACCORDO
100
AcDbLine
 62
253
  6
CONTINUOUS
 10
111.8315539469
 20
136.7105633491
 11
141.7442452399
 21
121.7542177026
  0
LINE
  5
478
100
AcDbEntity
  8
ASSI
100
AcDbLine
 62
253
  6
CONTINUOUS
 10
111.8315539469
 20
136.7105633491
 11
141.7442452399
 21
121.7542177026
  0
LWPOLYLINE
  5
479
100
AcDbEntity
  8
RACCORDO
100
AcDbPolyline
 62
253
  6
CONTINUOUS
 90
7
 70
0
 10
134.1649795367
 20
132.2408947993
 10
134.175004182
 20
132.22294581
 10
134.1818326046
 20
132.2068162821
 10
134.1853479683
 20
132.1927821962
 10
134.1854901241
 20
132.1810836794
 10
134.1822566399
 20
132.1719208965
 10
134.1807218795
 20
132.1697951537
  0
LWPOLYLINE
  5
47A
100
AcDbEntity
  8
RACCORDO
100
AcDbPolyline
 62
7
  6
CONTINUOUS
 90
6
 70
0
 10
134.0715083312
 20
131.4969001745
 10
134.0684096896
 20
131.5028738759
 10
134.065283275
 20
131.5111901028
 10
134.0627286115
 20
131.5218715918
 10
134.0614655612
 20
131.5343915412
 10
134.0614205739
 20
131.5374196609
  0
LWPOLYLINE
  5
47B
100
AcDbEntity
  8
RACCORDO
100
AcDbPolyline
 62
253
  6
CONTINUOUS
 90
7
 70
0
 10
144.8751346451
 20
85.7023296292
 10
144.8772734297
 20
85.6860138552
 10
144.8836531885
 20
85.6699772486
 10
144.894164762
 20
85.6544942002
 10
144.9086282941
 20
85.6398296292
 10
144.92679631
 20
85.6262344506
 10
144.9483579498
 20
85.6139412816
  0
LINE
  5
47C
100
AcDbEntity
  8
DRAFT
100
AcDbLine
 62
7
  6
CONTINUOUS
 10
145.1366008683
 20
103.7932762953
 11
146.8992518394
 21
87.3639957092
  0
LWPOLYLINE
  5
47D
100
AcDbEntity
  8
RACCORDO
100
AcDbPolyline
 62
253
  6
CONTINUOUS
 90
3
 70
0
 10
148.0801608201
 20
85.0265137613
 10
148.0769648207
 20
85.0582267373
 10
148.0704312148
 20
85.0887266945
  0
LWPOLYLINE
  5
47E
100
AcDbEntity
  8
RACCORDO
100
AcDbPolyline
 62
7
  6
CONTINUOUS
 90
10
 70
0
 10
144.1680278639
 20
125.898380378
 10
144.1702951142
 20
125.8647925913
 10
144.1771326502
 20
125.8315277405
 10
144.1884933006
 20
125.7993153273
 10
144.2042018698
 20
125.7688488156
 10
144.2239336245
 20
125.7408131869
 10
144.2472737876
 20
125.7157795965
 10
144.2738119486
 20
125.6941706425
 10
144.30310558
 20
125.6763609238
 10
144.3065430037
 20
125.6746150658
  0
LWPOLYLINE
  5
47F
100
AcDbEntity
  8
RACCORDO
100
AcDbPolyline
 62
253
  6
CONTINUOUS
 90
8
 70
0
 10
144.8751346459
 20
125.1980282772
 10
144.8754900185
 20
125.1916265568
 10
144.8782156118
 20
125.1791678316
 10
144.8836123815
 20
125.166838707
 10
144.8916305371
 20
125.1547855655
 10
144.9022163754
 20
125.143109214
 10
144.9152880484
 20
125.1319339345
 10
144.9307183417
 20
125.1214030384
  0
LWPOLYLINE
  5
480
100
AcDbEntity
  8
RACCORDO
100
AcDbPolyline
 62
7
  6
CONTINUOUS
 90
15
 70
0
 10
143.1805909968
 20
133.2935331572
 10
143.1798071638
 20
133.3216608129
 10
143.1775426874
 20
133.3486874372
 10
143.1737975676
 20
133.37461303
 10
143.1685431683
 20
133.3995388893
 10
143.1618081257
 20
133.4233637171
 10
143.1536783474
 20
133.4457836195
 10
143.1441359673
 20
133.4667805996
 10
143.1331988515
 20
133.4863726542
 10
143.1210065068
 20
133.5043098799
 10
143.107542854
 20
133.5205710786
 10
143.0928239723
 20
133.5351774483
 10
143.0770376062
 20
133.5479426797
 10
143.0601700814
 20
133.5588431883
 10
143.0506344391
 20
133.5639556535
  0
LINE
  5
481
100
AcDbEntity
  8
RACCORDO
100
AcDbLine
 62
253
  6
CONTINUOUS
 10
144.1680278639
 20
84.2474622543
 11
144.1680280222
 21
84.247321574
  0
LINE
  5
482
100
AcDbEntity
  8
RACCORDO
100
AcDbLine
 62
7
  6
CONTINUOUS
 10
144.1680278639
 20
84.2474622665
 11
144.1680278639
 21
84.5987762386
  0
LINE
  5
483
100
AcDbEntity
  8
RACCORDO
100
AcDbLine
 62
7
  6
CONTINUOUS
 10
144.1680278639
 20
125.898380378
 11
144.1680278639
 21
126.2496943501
  0
LINE
  5
484
100
AcDbEntity
  8
RACCORDO
100
AcDbLine
 62
253
  6
CONTINUOUS
 10
144.2412511686
 20
84.1590739189
 11
144.2412511686
 21
84.510387891
  0
LINE
  5
485
100
AcDbEntity
  8
RACCORDO
100
AcDbLine
 62
253
  6
CONTINUOUS
 10
144.2412511686
 20
125.8099920303
 11
144.2412511686
 21
126.1613060024
  0
LINE
  5
486
100
AcDbEntity
  8
RACCORDO
100
AcDbLine
 62
7
  6
CONTINUOUS
 10
144.8751346451
 20
85.7023296292
 11
144.8751346451
 21
85.7675995089
  0
LINE
  5
487
100
AcDbEntity
  8
RACCORDO
100
AcDbLine
 62
7
  6
CONTINUOUS
 10
144.8751346451
 20
125.1979801659
 11
144.8751346451
 21
125.3903184902
  0
LINE
  5
488
100
AcDbEntity
  8
RACCORDO
100
AcDbLine
 62
253
  6
CONTINUOUS
 10
144.9483579498
 20
85.6139412816
 11
144.9483579498
 21
85.7309878566
  0
LINE
  5
489
100
AcDbEntity
  8
RACCORDO
100
AcDbLine
 62
253
  6
CONTINUOUS
 10
144.9483579498
 20
125.1116419612
 11
144.9483579498
 21
125.3537068379
  0
LINE
  5
48A
100
AcDbEntity
  8
0
100
AcDbLine
 62
7
  6
CONTINUOUS
 10
145.1600517983
 20
141.0578835941
 11
145.1600517983
 21
140.5225031771
  0
LINE
  5
48B
100
AcDbEntity
  8
RACCORDO
100
AcDbLine
 62
253
  6
CONTINUOUS
 10
145.5847540529
 20
125.4895545603
 11
145.5847540529
 21
125.1382405882
  0
LINE
  5
48C
100
AcDbEntity
  8
RACCORDO
100
AcDbLine
 62
253
  6
CONTINUOUS
 10
145.5847540529
 20
83.8386364488
 11
145.5847540529
 21
83.4873224768
  0
LINE
  5
48D
100
AcDbEntity
  8
RACCORDO
100
AcDbLine
 62
7
  6
CONTINUOUS
 10
145.655464731
 20
132.38067115
 11
145.655464731
 21
132.185558205
  0
LINE
  5
48E
100
AcDbEntity
  8
RACCORDO
100
AcDbLine
 62
253
  6
CONTINUOUS
 10
145.9383074434
 20
125.4895545603
 11
145.9383074434
 21
125.1382405882
  0
LINE
  5
48F
100
AcDbEntity
  8
RACCORDO
100
AcDbLine
 62
253
  6
CONTINUOUS
 10
145.9383074434
 20
83.8386364488
 11
145.9383074434
 21
83.4873224768
  0
LWPOLYLINE
  5
490
100
AcDbEntity
  8
RACCORDO
100
AcDbPolyline
 62
7
  6
CONTINUOUS
 90
6
 70
0
 10
144.8751390593
 20
125.1982117083
 10
144.8749295842
 20
125.1918564769
 10
144.8732611101
 20
125.1796018757
 10
144.8704171965
 20
125.1692070237
 10
144.8671032665
 20
125.1611571749
 10
144.8647488643
 20
125.1567765807
  0
LWPOLYLINE
  5
491
100
AcDbEntity
  8
RACCORDO
100
AcDbPolyline
 62
253
  6
CONTINUOUS
 90
10
 70
0
 10
144.2412511686
 20
84.510387891
 10
144.2424101339
 20
84.5357185224
 10
144.2458957459
 20
84.5620133332
 10
144.2516974353
 20
84.5889341639
 10
144.2597880039
 20
84.6161716965
 10
144.2700833189
 20
84.6433097355
 10
144.2824066508
 20
84.6698372628
 10
144.296563587
 20
84.6953484044
 10
144.3123799036
 20
84.7195401691
 10
144.3296395162
 20
84.7420820648
  0
LINE
  5
492
100
AcDbEntity
  8
RACCORDO
100
AcDbLine
 62
7
  6
CONTINUOUS
 10
146.3024067787
 20
122.2823512659
 11
143.2202256241
 21
84.8256236803
  0
LINE
  5
493
100
AcDbEntity
  8
ASSI
100
AcDbLine
 62
7
  6
CONTINUOUS
 10
146.3024067787
 20
122.2823512659
 11
143.2202256241
 21
84.8256236803
  0
LINE
  5
494
100
AcDbEntity
  8
DRAFT
100
AcDbLine
 62
7
  6
CONTINUOUS
 10
146.8992518394
 20
121.9247291381
 11
145.1366008683
 21
103.7932762953
  0
LWPOLYLINE
  5
495
100
AcDbEntity
  8
RACCORDO
100
AcDbPolyline
 62
253
  6
CONTINUOUS
 90
4
 70
0
 10
147.4381171505
 20
124.8251579652
 10
147.4218114472
 20
124.8271622167
 10
147.4067126882
 20
124.8322628132
 10
147.4044996429
 20
124.8333244385
  0
LINE
  5
496
100
AcDbEntity
  8
RACCORDO
100
AcDbLine
 62
7
  6
CONTINUOUS
 10
145.7108299956
 20
124.9818240468
 11
146.2411600815
 21
124.8719890898
  0
LINE
  5
497
100
AcDbEntity
  8
RACCORDO
100
AcDbLine
 62
253
  6
CONTINUOUS
 10
145.9383074434
 20
125.1382405882
 11
146.4686375293
 21
125.0284056312
  0
LWPOLYLINE
  5
498
100
AcDbEntity
  8
RACCORDO
100
AcDbPolyline
 62
253
  6
CONTINUOUS
 90
7
 70
0
 10
111.8315539469
 20
136.7105633491
 10
111.771145745
 20
136.7358003573
 10
111.7108592523
 20
136.7529319063
 10
111.6513547366
 20
136.7617704005
 10
111.5932838861
 20
136.7622190714
 10
111.5372827059
 20
136.7542730361
 10
111.4795488027
 20
136.7362489817
  0
LWPOLYLINE
  5
499
100
AcDbEntity
  8
ASSI
100
AcDbPolyline
 62
253
  6
CONTINUOUS
 90
7
 70
0
 10
111.8315539469
 20
136.7105633491
 10
111.771145745
 20
136.7358003573
 10
111.7108592523
 20
136.7529319063
 10
111.6513547366
 20
136.7617704005
 10
111.5932838861
 20
136.7622190714
 10
111.5372827059
 20
136.7542730361
 10
111.4795488027
 20
136.7362489817
  0
LINE
  5
49A
100
AcDbEntity
  8
DRAFT
100
AcDbLine
 62
7
  6
CONTINUOUS
 10
146.2977279558
 20
122.2254910798
 11
146.8992518394
 21
121.9247291381
  0
LWPOLYLINE
  5
49B
100
AcDbEntity
  8
RACCORDO
100
AcDbPolyline
 62
253
  6
CONTINUOUS
 90
16
 70
0
 10
141.7442452399
 20
121.7542177026
 10
141.8020573804
 20
121.7203446522
 10
141.8586964023
 20
121.6790137272
 10
141.913541997
 20
121.6306775824
 10
141.9659934974
 20
121.5758655936
 10
142.0154764567
 20
121.5151780598
 10
142.0614489395
 20
121.4492796289
 10
142.1034074569
 20
121.378892018
 10
142.1408924806
 20
121.3047861099
 10
142.173493476
 20
121.2277735098
 10
142.2008533982
 20
121.148697657
 10
142.2226726022
 20
121.0684245874
 10
142.238712125
 20
120.9878334489
 10
142.2487963021
 20
120.9078068727
 10
142.2528146922
 20
120.8292213071
 10
142.2507232858
 20
120.7529374183
  0
LWPOLYLINE
  5
49C
100
AcDbEntity
  8
ASSI
100
AcDbPolyline
 62
253
  6
CONTINUOUS
 90
16
 70
0
 10
141.7442452399
 20
121.7542177026
 10
141.8020573804
 20
121.7203446522
 10
141.8586964023
 20
121.6790137272
 10
141.913541997
 20
121.6306775824
 10
141.9659934974
 20
121.5758655936
 10
142.0154764567
 20
121.5151780598
 10
142.0614489395
 20
121.4492796289
 10
142.1034074569
 20
121.378892018
 10
142.1408924806
 20
121.3047861099
 10
142.173493476
 20
121.2277735098
 10
142.2008533982
 20
121.148697657
 10
142.2226726022
 20
121.0684245874
 10
142.238712125
 20
120.9878334489
 10
142.2487963021
 20
120.9078068727
 10
142.2528146922
 20
120.8292213071
 10
142.2507232858
 20
120.7529374183
  0
LWPOLYLINE
  5
49D
100
AcDbEntity
  8
RACCORDO
100
AcDbPolyline
 62
7
  6
CONTINUOUS
 90
4
 70
0
 10
134.0733183986
 20
131.4940042082
 10
134.0737086532
 20
131.4936061906
 10
134.0735800801
 20
131.4938087471
 10
134.0715083312
 20
131.4969001745
  0
LWPOLYLINE
  5
49E
100
AcDbEntity
  8
RACCORDO
100
AcDbPolyline
 62
253
  6
CONTINUOUS
 90
6
 70
0
 10
134.6953096226
 20
132.8810598422
 10
134.7052732561
 20
132.8632341038
 10
134.7120992179
 20
132.8471658551
 10
134.7156502766
 20
132.8331402774
 10
134.7158426557
 20
132.821402938
 10
134.7126466563
 20
132.8121822674
  0
LWPOLYLINE
  5
49F
100
AcDbEntity
  8
RACCORDO
100
AcDbPolyline
 62
253
  6
CONTINUOUS
 90
7
 70
0
 10
144.1680278639
 20
126.2496943623
 10
144.1703296082
 20
126.2327711846
 10
144.1769343684
 20
126.2166265166
 10
144.1876405527
 20
126.2011616631
 10
144.2021420056
 20
126.1866600415
 10
144.2201359486
 20
126.1733091587
 10
144.2412511686
 20
126.1613060024
  0
LWPOLYLINE
  5
4A0
100
AcDbEntity
  8
RACCORDO
100
AcDbPolyline
 62
253
  6
CONTINUOUS
 90
7
 70
0
 10
144.1680278639
 20
125.898380378
 10
144.1701666485
 20
125.882064604
 10
144.1765464073
 20
125.8660279974
 10
144.1870579808
 20
125.8505449489
 10
144.2015215129
 20
125.835880378
 10
144.2196895288
 20
125.8222851994
 10
144.2412511686
 20
125.8099920303
  0
LWPOLYLINE
  5
4A1
100
AcDbEntity
  8
RACCORDO
100
AcDbPolyline
 62
7
  6
CONTINUOUS
 90
5
 70
0
 10
148.1328510917
 20
84.9876849683
 10
148.1305838414
 20
85.0212727549
 10
148.1237463054
 20
85.0545376058
 10
148.112385655
 20
85.0867500189
 10
148.0966770858
 20
85.1172165306
  0
LWPOLYLINE
  5
4A2
100
AcDbEntity
  8
RACCORDO
100
AcDbPolyline
 62
253
  6
CONTINUOUS
 90
8
 70
0
 10
146.291860834
 20
124.7417939788
 10
146.2906655333
 20
124.7663311816
 10
146.2870957953
 20
124.7893412601
 10
146.2811998948
 20
124.8105130424
 10
146.2730575637
 20
124.8295602165
 10
146.262778913
 20
124.8462252019
 10
146.2505029438
 20
124.8602826335
 10
146.2363956677
 20
124.8715424085
  0
LWPOLYLINE
  5
4A3
100
AcDbEntity
  8
RACCORDO
100
AcDbPolyline
 62
253
  6
CONTINUOUS
 90
13
 70
0
 10
147.3525210058
 20
85.29574323
 10
147.3539834909
 20
85.2581356024
 10
147.3580147703
 20
85.2227227011
 10
147.3646148441
 20
85.1895045259
 10
147.3738698422
 20
85.1582876267
 10
147.3856936346
 20
85.1292654536
 10
147.3998278316
 20
85.1030183576
 10
147.4163098968
 20
85.0795857712
 10
147.4351023665
 20
85.0589282619
 10
147.4558344599
 20
85.0415078825
 10
147.4783825833
 20
85.0274786509
 10
147.5028703304
 20
85.0166865493
 10
147.5292977011
 20
85.0091315777
  0
LWPOLYLINE
  5
4A4
100
AcDbEntity
  8
RACCORDO
100
AcDbPolyline
 62
253
  6
CONTINUOUS
 90
13
 70
0
 10
146.6454142246
 20
124.7417939788
 10
146.6439517396
 20
124.7794016064
 10
146.6399204601
 20
124.8148145078
 10
146.6333203864
 20
124.8480326829
 10
146.6240653883
 20
124.8792495822
 10
146.6122415958
 20
124.9082717552
 10
146.5981073988
 20
124.9345188512
 10
146.5816253336
 20
124.9579514376
 10
146.5628328639
 20
124.978608947
 10
146.5421007705
 20
124.9960293263
 10
146.5195526471
 20
125.010058558
 10
146.4950649001
 20
125.0208506596
 10
146.4686375293
 20
125.0284056312
  0
LWPOLYLINE
  5
4A5
100
AcDbEntity
  8
0
100
AcDbPolyline
 62
7
  6
CONTINUOUS
 90
40
 70
0
 10
145.1600206027
 20
141.0623550049
 10
145.1597621738
 20
141.0694183892
 10
145.1592122757
 20
141.0764091134
 10
145.1583751058
 20
141.0833245049
 10
145.1572504813
 20
141.0901647865
 10
145.1558471312
 20
141.0969252595
 10
145.1541827761
 20
141.1035963526
 10
145.1522619655
 20
141.1101760294
 10
145.1500891147
 20
141.1166636505
 10
145.147681821
 20
141.123052166
 10
145.1450448695
 20
141.1293402981
 10
145.1421824297
 20
141.1355281167
 10
145.1391110181
 20
141.141610823
 10
145.1358354026
 20
141.1475878011
 10
145.1323594714
 20
141.1534595952
 10
145.1286980995
 20
141.1592231913
 10
145.1248558499
 20
141.1648785058
 10
145.1208363325
 20
141.1704263789
 10
145.116652575
 20
141.1758650749
 10
145.1123088239
 20
141.1811949087
 10
145.1078084277
 20
141.1864168922
 10
145.1031626147
 20
141.191530119
 10
145.0983752576
 20
141.1965351914
 10
145.093449473
 20
141.201433204
 10
145.0883949069
 20
141.2062237056
 10
145.08321509
 20
141.210907461
 10
145.0779128954
 20
141.2154856317
 10
145.0724965636
 20
141.2199580426
 10
145.0669692555
 20
141.2243255905
 10
145.0613336635
 20
141.2285894259
 10
145.0555969479
 20
141.232749424
 10
145.0497619567
 20
141.2368065473
 10
145.043831201
 20
141.2407619396
 10
145.037811008
 20
141.2446154288
 10
145.0317039616
 20
141.2483680081
 10
145.0255124015
 20
141.2520208132
 10
145.0192420079
 20
141.2555735884
 10
145.0128951348
 20
141.2590273423
 10
145.0064739708
 20
141.2623831967
 10
145.002607976
 20
141.2643394799
  0
LWPOLYLINE
  5
4A6
100
AcDbEntity
  8
RACCORDO
100
AcDbPolyline
 62
7
  6
CONTINUOUS
 90
6
 70
0
 10
147.4257443105
 20
85.3841315777
 10
147.4262176546
 20
85.3683139276
 10
147.4274906916
 20
85.3546942818
 10
147.4293116105
 20
85.3434218578
 10
147.4314014484
 20
85.3345503665
 10
147.4330602821
 20
85.3291971202
  0
LWPOLYLINE
  5
4A7
100
AcDbEntity
  8
RACCORDO
100
AcDbPolyline
 62
7
  6
CONTINUOUS
 90
15
 70
0
 10
145.655464731
 20
132.38067115
 10
145.6539328494
 20
132.4363028978
 10
145.6495036662
 20
132.4897882074
 10
145.6421771813
 20
132.5411270789
 10
145.6318986027
 20
132.5905159704
 10
145.6187227224
 20
132.6377584237
 10
145.6028139164
 20
132.6822650645
 10
145.5841379478
 20
132.7240016194
 10
145.5627290535
 20
132.7630023617
 10
145.5388543207
 20
132.7987807367
 10
145.5124828584
 20
132.8312963757
 10
145.4836455577
 20
132.8605896473
 10
145.4527021791
 20
132.8862951027
 10
145.4196263383
 20
132.9083677949
 10
145.3955362306
 20
132.9215266664
  0
LINE
  5
4A8
100
AcDbEntity
  8
RACCORDO
100
AcDbLine
 62
7
  6
CONTINUOUS
 10
147.4258802278
 20
124.8499888406
 11
147.4257397845
 21
124.8551991307
  0
LINE
  5
4A9
100
AcDbEntity
  8
DRAFT
100
AcDbLine
 62
7
  6
CONTINUOUS
 10
145.9551295291
 20
142.343346037
 11
145.9736627825
 21
141.0336828125
  0
LINE
  5
4AA
100
AcDbEntity
  8
RACCORDO
100
AcDbLine
 62
253
  6
CONTINUOUS
 10
146.291860834
 20
124.7417939788
 11
146.291860834
 21
124.439890519
  0
LINE
  5
4AB
100
AcDbEntity
  8
RACCORDO
100
AcDbLine
 62
253
  6
CONTINUOUS
 10
146.291860834
 20
85.1522822407
 11
146.291860834
 21
84.9421898394
  0
LINE
  5
4AC
100
AcDbEntity
  8
RACCORDO
100
AcDbLine
 62
7
  6
CONTINUOUS
 10
146.431609745
 20
123.4145555953
 11
146.431609745
 21
123.3886859574
  0
LINE
  5
4AD
100
AcDbEntity
  8
RACCORDO
100
AcDbLine
 62
7
  6
CONTINUOUS
 10
146.431609745
 20
85.4225725307
 11
146.431609745
 21
85.4484421686
  0
LINE
  5
4AE
100
AcDbEntity
  8
RACCORDO
100
AcDbLine
 62
253
  6
CONTINUOUS
 10
146.6454142246
 20
124.7417939788
 11
146.6454142246
 21
124.4330880807
  0
LINE
  5
4AF
100
AcDbEntity
  8
RACCORDO
100
AcDbLine
 62
253
  6
CONTINUOUS
 10
146.6454142246
 20
85.2508957375
 11
146.6454142246
 21
84.9421898394
  0
LINE
  5
4B0
100
AcDbEntity
  8
DRAFT
100
AcDbLine
 62
7
  6
CONTINUOUS
 10
146.8992518394
 20
123.5453668612
 11
146.8992518394
 21
121.9247291381
  0
LINE
  5
4B1
100
AcDbEntity
  8
DRAFT
100
AcDbLine
 62
7
  6
CONTINUOUS
 10
146.8992518394
 20
87.3639957092
 11
146.8992518394
 21
85.743357986
  0
LINE
  5
4B2
100
AcDbEntity
  8
RACCORDO
100
AcDbLine
 62
253
  6
CONTINUOUS
 10
147.3525210058
 20
85.29574323
 11
147.3525210058
 21
85.6195656578
  0
LINE
  5
4B3
100
AcDbEntity
  8
RACCORDO
100
AcDbLine
 62
253
  6
CONTINUOUS
 10
147.3525210058
 20
124.7715249416
 11
147.3525210058
 21
125.0953473694
  0
LINE
  5
4B4
100
AcDbEntity
  8
RACCORDO
100
AcDbLine
 62
7
  6
CONTINUOUS
 10
147.4257443105
 20
85.3841315777
 11
147.4257443105
 21
85.6861868371
  0
LINE
  5
4B5
100
AcDbEntity
  8
RACCORDO
100
AcDbLine
 62
7
  6
CONTINUOUS
 10
147.4257443097
 20
124.8551128825
 11
147.4257443105
 21
125.1837357171
  0
LINE
  5
4B6
100
AcDbEntity
  8
RACCORDO
100
AcDbLine
 62
253
  6
CONTINUOUS
 10
148.059627787
 20
126.5502147321
 11
148.059627787
 21
126.19890076
  0
LINE
  5
4B7
100
AcDbEntity
  8
RACCORDO
100
AcDbLine
 62
253
  6
CONTINUOUS
 10
148.059627787
 20
84.8992966206
 11
148.059627787
 21
84.5479826485
  0
LINE
  5
4B8
100
AcDbEntity
  8
RACCORDO
100
AcDbLine
 62
7
  6
CONTINUOUS
 10
148.1328510917
 20
126.6386030797
 11
148.1328510917
 21
126.2872891076
  0
LINE
  5
4B9
100
AcDbEntity
  8
RACCORDO
100
AcDbLine
 62
7
  6
CONTINUOUS
 10
148.1328510917
 20
84.9876849683
 11
148.1328510917
 21
84.6363709962
  0
LINE
  5
4BA
100
AcDbEntity
  8
0
100
AcDbLine
 62
253
  6
CONTINUOUS
 10
148.3878320201
 20
136.741719817
 11
148.3878320201
 21
133.5290230351
  0
LINE
  5
4BB
100
AcDbEntity
  8
RACCORDO
100
AcDbLine
 62
253
  6
CONTINUOUS
 10
148.1328510917
 20
84.636370984
 11
148.1328509334
 21
84.6362303036
  0
LWPOLYLINE
  5
4BC
100
AcDbEntity
  8
0
100
AcDbPolyline
 62
7
  6
CONTINUOUS
 90
45
 70
0
 10
148.47203008
 20
136.8459217755
 10
148.4720280851
 20
133.8124687916
 10
148.4719496593
 20
133.8058509026
 10
148.4717585544
 20
133.7992068266
 10
148.4714568414
 20
133.7925375163
 10
148.4710463631
 20
133.7858478252
 10
148.47052905
 20
133.7791388183
 10
148.4699068768
 20
133.7724113771
 10
148.4691814498
 20
133.765670041
 10
148.4683546057
 20
133.7589157495
 10
148.4674282343
 20
133.7521493252
 10
148.4664037606
 20
133.7453751039
 10
148.4652829401
 20
133.7385939156
 10
148.4640675908
 20
133.7318065321
 10
148.4627590112
 20
133.7250171822
 10
148.4613588887
 20
133.7182265987
 10
148.4598689833
 20
133.7114355086
 10
148.4582905211
 20
133.7046481187
 10
148.4566251349
 20
133.6978650727
 10
148.4548745409
 20
133.6910870583
 10
148.4530399481
 20
133.684318336
 10
148.4511229631
 20
133.6775595225
 10
148.4491252588
 20
133.6708112129
 10
148.4470480321
 20
133.6640776247
 10
148.4448928388
 20
133.6573592446
 10
148.442661345
 20
133.6506566857
 10
148.4403548327
 20
133.6439743428
 10
148.4379748437
 20
133.6373126508
 10
148.4355230302
 20
133.6306721635
 10
148.4330007932
 20
133.6240574365
 10
148.4304096639
 20
133.6174688351
 10
148.4277512976
 20
133.6109068701
 10
148.4250272661
 20
133.6043762917
 10
148.4222390991
 20
133.5978773964
 10
148.4193884651
 20
133.5914106464
 10
148.4164771572
 20
133.5849810062
 10
148.413506713
 20
133.5785887063
 10
148.410478821
 20
133.5722341493
 10
148.4073955415
 20
133.5659225143
 10
148.4042584285
 20
133.5596539687
 10
148.4010691942
 20
133.5534288422
 10
148.3978302009
 20
133.5472524992
 10
148.3945433606
 20
133.5411268356
 10
148.3912100857
 20
133.535050299
 10
148.3878320201
 20
133.5290230351
  0
LWPOLYLINE
  5
4BD
100
AcDbEntity
  8
0
100
AcDbPolyline
 62
253
  6
CONTINUOUS
 90
34
 70
0
 10
148.8591802735
 20
136.8091263328
 10
148.859074794
 20
136.8008201946
 10
148.8587605041
 20
136.7924293013
 10
148.8582374039
 20
136.7839536528
 10
148.8575045484
 20
136.7753840755
 10
148.8565628825
 20
136.7667297431
 10
148.8554152414
 20
136.7580181772
 10
148.8540610014
 20
136.7492496573
 10
148.8525007862
 20
136.740423904
 10
148.850739301
 20
136.7315676003
 10
148.848775944
 20
136.7226806943
 10
148.846611317
 20
136.7137632379
 10
148.8442519319
 20
136.7048420705
 10
148.8416971971
 20
136.6959171578
 10
148.838947704
 20
136.6869885341
 10
148.8360117394
 20
136.6780831418
 10
148.8328887335
 20
136.6692010392
 10
148.8295792561
 20
136.6603421679
 10
148.8260933026
 20
136.6515332953
 10
148.8224303405
 20
136.6427745805
 10
148.8185909023
 20
136.6340658644
 10
148.8145865813
 20
136.6254334365
 10
148.8104168934
 20
136.6168775513
 10
148.8060823228
 20
136.6083979544
 10
148.8015959154
 20
136.6000201716
 10
148.7969571895
 20
136.5917444732
 10
148.7921666267
 20
136.5835705889
 10
148.7872387187
 20
136.5755232344
 10
148.7821727535
 20
136.5676024273
 10
148.776969443
 20
136.55980815
 10
148.7716454143
 20
136.5521650652
 10
148.7662062096
 20
136.5446813941
 10
148.7606462867
 20
136.5373489155
 10
148.7549656456
 20
136.5301676296
  0
LWPOLYLINE
  5
4BE
100
AcDbEntity
  8
RACCORDO
100
AcDbPolyline
 62
253
  6
CONTINUOUS
 90
10
 70
0
 10
146.9566601116
 20
85.6505141505
 10
146.9557313289
 20
85.6078635036
 10
146.9512141527
 20
85.5675176053
 10
146.9431553769
 20
85.5298944026
 10
146.9316384831
 20
85.4953836375
 10
146.9167827759
 20
85.4643428102
 10
146.8987421468
 20
85.4370934756
 10
146.8777034804
 20
85.4139179119
 10
146.8538847182
 20
85.395056197
 10
146.8370269367
 20
85.3852035886
  0
LWPOLYLINE
  5
4BF
100
AcDbEntity
  8
RACCORDO
100
AcDbPolyline
 62
253
  6
CONTINUOUS
 90
10
 70
0
 10
147.6759630972
 20
86.0182194242
 10
147.6749610038
 20
85.9746637607
 10
147.6702149441
 20
85.9335233639
 10
147.6617762432
 20
85.8952430203
 10
147.6497361454
 20
85.8602365946
 10
147.6342248283
 20
85.8288825547
 10
147.6154099951
 20
85.8015198806
 10
147.5934950619
 20
85.7784443994
 10
147.5687169588
 20
85.759905587
 10
147.5562531092
 20
85.7528674513
  0
LWPOLYLINE
  5
4C0
100
AcDbEntity
  8
RACCORDO
100
AcDbPolyline
 62
253
  6
CONTINUOUS
 90
10
 70
0
 10
146.667355885
 20
85.5413506475
 10
146.6661133157
 20
85.4973973084
 10
146.6610784062
 20
85.4558961883
 10
146.6523063956
 20
85.4173020437
 10
146.6398935141
 20
85.3820377977
 10
146.6239757957
 20
85.3504898324
 10
146.6047275841
 20
85.3230037585
 10
146.5823598353
 20
85.299880746
 10
146.5571176989
 20
85.2813741609
 10
146.5450427459
 20
85.2746833092
  0
LWPOLYLINE
  5
4C1
100
AcDbEntity
  8
0
100
AcDbPolyline
 62
253
  6
CONTINUOUS
 90
22
 70
0
 10
148.47203008
 20
136.8459210754
 10
148.4719103132
 20
136.8416836829
 10
148.4713918273
 20
136.8361424062
 10
148.4704639082
 20
136.8306145047
 10
148.4691278252
 20
136.8251075388
 10
148.4673854054
 20
136.8196290402
 10
148.4652390321
 20
136.8141865018
 10
148.4626916408
 20
136.8087873673
 10
148.4597467154
 20
136.8034390211
 10
148.4564082838
 20
136.798148778
 10
148.4526809119
 20
136.7929238734
 10
148.4485696976
 20
136.7877714533
 10
148.4440802636
 20
136.7826985647
 10
148.4392187502
 20
136.7777121456
 10
148.4339918064
 20
136.7728190159
 10
148.428406581
 20
136.7680258679
 10
148.4224707128
 20
136.7633392571
 10
148.4161923203
 20
136.7587655933
 10
148.4095799903
 20
136.7543111319
 10
148.4026427664
 20
136.7499819651
 10
148.3953901365
 20
136.745784014
 10
148.3878320201
 20
136.74172302
  0
LWPOLYLINE
  5
4C2
100
AcDbEntity
  8
0
100
AcDbPolyline
 62
253
  6
CONTINUOUS
 90
19
 70
0
 10
148.9153123135
 20
138.555322657
 10
148.9151938393
 20
138.5518813609
 10
148.9147109017
 20
138.5475736163
 10
148.9138567842
 20
138.5432802968
 10
148.9126330767
 20
138.5390093946
 10
148.9110420572
 20
138.5347688598
 10
148.9090866873
 20
138.5305665862
 10
148.906770607
 20
138.5264103964
 10
148.9040981277
 20
138.522308027
 10
148.9010742241
 20
138.5182671146
 10
148.8977045252
 20
138.5142951814
 10
148.8939953037
 20
138.5103996211
 10
148.8899534644
 20
138.5065876852
 10
148.8855865311
 20
138.5028664698
 10
148.8809026329
 20
138.4992429018
 10
148.8759104887
 20
138.4957237264
 10
148.8706193915
 20
138.4923154946
 10
148.8650391906
 20
138.4890245509
 10
148.8591802735
 20
138.4858570213
  0
LWPOLYLINE
  5
4C3
100
AcDbEntity
  8
0
100
AcDbPolyline
 62
253
  6
CONTINUOUS
 90
19
 70
0
 10
148.9153123135
 20
136.8785921698
 10
148.9151938388
 20
136.8751506646
 10
148.9147109005
 20
136.87084292
 10
148.9138567823
 20
136.8665496006
 10
148.9126330742
 20
136.8622786985
 10
148.9110420541
 20
136.858038164
 10
148.9090866837
 20
136.8538358907
 10
148.906770603
 20
136.8496797012
 10
148.9040981233
 20
136.8455773322
 10
148.9010742194
 20
136.8415364203
 10
148.8977045204
 20
136.8375644876
 10
148.893995299
 20
136.8336689278
 10
148.8899534598
 20
136.8298569926
 10
148.8855865268
 20
136.8261357778
 10
148.8809026291
 20
136.8225122104
 10
148.8759104855
 20
136.8189930358
 10
148.8706193892
 20
136.8155848047
 10
148.8650391893
 20
136.8122938617
 10
148.8591802735
 20
136.8091263328
  0
LWPOLYLINE
  5
4C4
100
AcDbEntity
  8
RACCORDO
100
AcDbPolyline
 62
253
  6
CONTINUOUS
 90
10
 70
0
 10
145.5847540529
 20
83.8386364488
 10
145.5859615792
 20
83.8645028404
 10
145.5895676694
 20
83.8912234258
 10
145.5955230698
 20
83.9184331611
 10
145.6037622424
 20
83.9458065455
 10
145.614164133
 20
83.972922512
 10
145.6265182446
 20
83.9992770359
 10
145.6406020949
 20
84.0244825749
 10
145.656220178
 20
84.0482646687
 10
145.6731424005
 20
84.0703306227
  0
LINE
  5
4C5
100
AcDbEntity
  8
RACCORDO
100
AcDbLine
 62
253
  6
CONTINUOUS
 10
147.4254270667
 20
124.8490579717
 11
147.4257443097
 21
124.8551128825
  0
LWPOLYLINE
  5
4C6
100
AcDbEntity
  8
RACCORDO
100
AcDbPolyline
 62
253
  6
CONTINUOUS
 90
8
 70
0
 10
145.9383074434
 20
83.4873224768
 10
145.9367950943
 20
83.4598189017
 10
145.9322839236
 20
83.4342982697
 10
145.9248511188
 20
83.4111972456
 10
145.9146238571
 20
83.3909110945
 10
145.9017771298
 20
83.373786918
 10
145.8865307481
 20
83.3601177155
 10
145.873334147
 20
83.3521040267
  0
LWPOLYLINE
  5
4C7
100
AcDbEntity
  8
RACCORDO
100
AcDbPolyline
 62
7
  6
CONTINUOUS
 90
6
 70
0
 10
144.1680278639
 20
84.5987762386
 10
144.1702951142
 20
84.6323640253
 10
144.1771326502
 20
84.6656288761
 10
144.1884933006
 20
84.6978412893
 10
144.2042018698
 20
84.728307801
 10
144.2254915556
 20
84.7582433555
  0
LWPOLYLINE
  5
4C8
100
AcDbEntity
  8
RACCORDO
100
AcDbPolyline
 62
7
  6
CONTINUOUS
 90
3
 70
0
 10
148.1292364202
 20
126.2449303414
 10
148.1326557666
 20
126.277408602
 10
148.1328510907
 20
126.2872780034
  0
LWPOLYLINE
  5
4C9
100
AcDbEntity
  8
RACCORDO
100
AcDbPolyline
 62
253
  6
CONTINUOUS
 90
7
 70
0
 10
148.1328510917
 20
126.6386030675
 10
148.1308136223
 20
126.6226768168
 10
148.1244877607
 20
126.6065417315
 10
148.1139856107
 20
126.5909668695
 10
148.0994950716
 20
126.5762224217
 10
148.0812696442
 20
126.5625602004
 10
148.059627787
 20
126.5502147321
  0
LWPOLYLINE
  5
4CA
100
AcDbEntity
  8
RACCORDO
100
AcDbPolyline
 62
253
  6
CONTINUOUS
 90
7
 70
0
 10
148.1328510907
 20
126.2872780034
 10
148.1306596085
 20
126.2707744248
 10
148.1242074549
 20
126.2547041956
 10
148.1136334307
 20
126.2392279174
 10
148.0991577077
 20
126.2246164504
 10
148.0810457045
 20
126.2111003692
 10
148.059627787
 20
126.19890076
  0
LINE
  5
4CB
100
AcDbEntity
  8
0
100
AcDbLine
 62
7
  6
CONTINUOUS
 10
145.655464731
 20
132.185558205
 11
143.8081938273
 21
131.8681405358
  0
LWPOLYLINE
  5
4CC
100
AcDbEntity
  8
RACCORDO
100
AcDbPolyline
 62
253
  6
CONTINUOUS
 90
4
 70
0
 10
144.8044684506
 20
125.177914124
 10
144.8229487258
 20
125.1701766644
 10
144.8411550362
 20
125.1655558341
 10
144.8587758671
 20
125.1641307
  0
LWPOLYLINE
  5
4CD
100
AcDbEntity
  8
RACCORDO
100
AcDbPolyline
 62
253
  6
CONTINUOUS
 90
16
 70
0
 10
146.291860834
 20
124.439890519
 10
146.3114678727
 20
124.4310282729
 10
146.3327537339
 20
124.4232010919
 10
146.3554675463
 20
124.4164836287
 10
146.3793300182
 20
124.410935825
 10
146.4040852545
 20
124.4066022704
 10
146.4295096492
 20
124.4035208128
 10
146.4553123485
 20
124.4017153919
 10
146.4812280521
 20
124.4011951067
 10
146.5070727208
 20
124.4019766298
 10
146.5325870199
 20
124.404056767
 10
146.557466802
 20
124.4074176067
 10
146.5814587799
 20
124.412050656
 10
146.6042949496
 20
124.4179198783
 10
146.6256988464
 20
124.4249572273
 10
146.6454142246
 20
124.4330880807
  0
LWPOLYLINE
  5
4CE
100
AcDbEntity
  8
RACCORDO
100
AcDbPolyline
 62
253
  6
CONTINUOUS
 90
7
 70
0
 10
146.1479713348
 20
124.1947670687
 10
146.1745557118
 20
124.1825618456
 10
146.2023922199
 20
124.1715401904
 10
146.231480859
 20
124.1617021029
 10
146.2618216292
 20
124.1530475833
 10
146.2934145304
 20
124.1455766314
 10
146.3262595627
 20
124.1392892473
  0
LWPOLYLINE
  5
4CF
100
AcDbEntity
  8
RACCORDO
100
AcDbPolyline
 62
253
  6
CONTINUOUS
 90
3
 70
0
 10
134.0401814899
 20
131.515483515
 10
134.0423947316
 20
131.5144217999
 10
134.0574934967
 20
131.5093212505
  0
LINE
  5
4D0
100
AcDbEntity
  8
RACCORDO
100
AcDbLine
 62
7
  6
CONTINUOUS
 10
115.7437182191
 20
138.309736807
 11
145.7959287328
 21
123.2836315502
  0
LINE
  5
4D1
100
AcDbEntity
  8
ASSI
100
AcDbLine
 62
7
  6
CONTINUOUS
 10
115.7437182191
 20
138.309736807
 11
145.7959287328
 21
123.2836315502
  0
LINE
  5
4D2
100
AcDbEntity
  8
268
100
AcDbLine
 62
7
  6
CONTINUOUS
 10
114.4367003416
 20
139.1150242574
 11
130.205181562
 21
131.2307836472
  0
LINE
  5
4D3
100
AcDbEntity
  8
DRAFT
100
AcDbLine
 62
7
  6
CONTINUOUS
 10
130.7371840932
 20
131.2358987833
 11
146.431609745
 21
123.3886859574
  0
LINE
  5
4D4
100
AcDbEntity
  8
268
100
AcDbLine
 62
7
  6
CONTINUOUS
 10
129.9576941886
 20
131.6820432724
 11
114.684187715
 21
139.3187965092
  0
LINE
  5
4D5
100
AcDbEntity
  8
RACCORDO
100
AcDbLine
 62
7
  6
CONTINUOUS
 10
146.0778947943
 20
124.0246236425
 11
131.0908990439
 21
131.5181215177
  0
LINE
  5
4D6
100
AcDbEntity
  8
RACCORDO
100
AcDbLine
 62
253
  6
CONTINUOUS
 10
132.7836531704
 20
130.8769261509
 11
131.4401502861
 21
131.548677593
  0
LINE
  5
4D7
100
AcDbEntity
  8
RACCORDO
100
AcDbLine
 62
253
  6
CONTINUOUS
 10
144.8044684506
 20
124.8665185108
 11
146.1479713348
 21
124.1947670687
  0
LINE
  5
4D8
100
AcDbEntity
  8
268
100
AcDbLine
 62
7
  6
CONTINUOUS
 10
130.5172088732
 20
132.1169504005
 11
128.9032047572
 21
132.9239524585
  0
LINE
  5
4D9
100
AcDbEntity
  8
268
100
AcDbLine
 62
7
  6
CONTINUOUS
 10
117.1528907088
 20
138.7991094827
 11
115.5388865928
 21
139.6061115407
  0
LINE
  5
4DA
100
AcDbEntity
  8
RACCORDO
100
AcDbLine
 62
253
  6
CONTINUOUS
 10
132.9275426696
 20
131.1220496013
 11
131.5840397854
 21
131.7938010434
  0
LINE
  5
4DB
100
AcDbEntity
  8
RACCORDO
100
AcDbLine
 62
253
  6
CONTINUOUS
 10
144.9483579498
 20
125.1116419612
 11
146.291860834
 21
124.439890519
  0
LINE
  5
4DC
100
AcDbEntity
  8
268
100
AcDbLine
 62
7
  6
CONTINUOUS
 10
120.4853465896
 20
137.4902137775
 11
126.2778556576
 21
134.5939592435
  0
LINE
  5
4DD
100
AcDbEntity
  8
RACCORDO
100
AcDbLine
 62
7
  6
CONTINUOUS
 10
142.0512506265
 20
126.7299359779
 11
136.5317567741
 21
129.4896829041
  0
LINE
  5
4DE
100
AcDbEntity
  8
RACCORDO
100
AcDbLine
 62
7
  6
CONTINUOUS
 10
145.6497273493
 20
125.0030221381
 11
144.306224465
 21
125.6747735802
  0
LINE
  5
4DF
100
AcDbEntity
  8
RACCORDO
100
AcDbLine
 62
7
  6
CONTINUOUS
 10
132.2854091848
 20
131.6851812203
 11
130.9419063006
 21
132.3569326625
  0
LINE
  5
4E0
100
AcDbEntity
  8
268
100
AcDbLine
 62
7
  6
CONTINUOUS
 10
114.9004883845
 20
140.3776416205
 11
116.5070219475
 21
139.574374839
  0
LINE
  5
4E1
100
AcDbEntity
  8
268
100
AcDbLine
 62
7
  6
CONTINUOUS
 10
128.2648065489
 20
133.6954825383
 11
129.871340112
 21
132.8922157568
  0
LINE
  5
4E2
100
AcDbEntity
  8
RACCORDO
100
AcDbLine
 62
253
  6
CONTINUOUS
 10
132.5188796019
 20
131.6282845949
 11
132.9275426696
 21
131.423953061
  0
LINE
  5
4E3
100
AcDbEntity
  8
RACCORDO
100
AcDbLine
 62
253
  6
CONTINUOUS
 10
145.8831977663
 20
124.9461255127
 11
146.291860834
 21
124.7417939788
  0
LINE
  5
4E4
100
AcDbEntity
  8
RACCORDO
100
AcDbLine
 62
253
  6
CONTINUOUS
 10
145.5847540529
 20
125.1382405882
 11
144.2412511686
 21
125.8099920303
  0
LINE
  5
4E5
100
AcDbEntity
  8
RACCORDO
100
AcDbLine
 62
253
  6
CONTINUOUS
 10
132.2204358884
 20
131.8203996704
 11
130.8769330042
 21
132.4921511126
  0
LINE
  5
4E6
100
AcDbEntity
  8
268
100
AcDbLine
 62
253
  6
CONTINUOUS
 10
114.8358936385
 20
140.5126707954
 11
116.4416701007
 21
139.7097825643
  0
LINE
  5
4E7
100
AcDbEntity
  8
268
100
AcDbLine
 62
253
  6
CONTINUOUS
 10
128.2002118029
 20
133.8305117132
 11
129.8059882651
 21
133.0276234821
  0
LINE
  5
4E8
100
AcDbEntity
  8
268
100
AcDbLine
 62
253
  6
CONTINUOUS
 10
129.8059882651
 20
133.2809948758
 11
128.2002118029
 21
134.0838831069
  0
LINE
  5
4E9
100
AcDbEntity
  8
268
100
AcDbLine
 62
253
  6
CONTINUOUS
 10
116.4416701007
 20
139.963153958
 11
114.8358936385
 21
140.7660421891
  0
LINE
  5
4EA
100
AcDbEntity
  8
RACCORDO
100
AcDbLine
 62
253
  6
CONTINUOUS
 10
130.8769330042
 20
132.8434650846
 11
132.2204358884
 21
132.1717136425
  0
LINE
  5
4EB
100
AcDbEntity
  8
RACCORDO
100
AcDbLine
 62
253
  6
CONTINUOUS
 10
144.2412511686
 20
126.1613060024
 11
145.5847540529
 21
125.4895545603
  0
LINE
  5
4EC
100
AcDbEntity
  8
268
100
AcDbLine
 62
7
  6
CONTINUOUS
 10
118.2197216209
 20
139.3376907322
 11
120.3974786239
 21
138.2488122307
  0
LINE
  5
4ED
100
AcDbEntity
  8
268
100
AcDbLine
 62
7
  6
CONTINUOUS
 10
127.199977742
 20
134.8475626717
 11
128.2810996931
 21
134.3070016961
  0
LINE
  5
4EE
100
AcDbEntity
  8
268
100
AcDbLine
 62
253
  6
CONTINUOUS
 10
129.9827589945
 20
133.5848604541
 11
128.3749375855
 21
134.3887711586
  0
LINE
  5
4EF
100
AcDbEntity
  8
268
100
AcDbLine
 62
253
  6
CONTINUOUS
 10
116.6184408301
 20
140.2670195363
 11
115.010619421
 21
141.0709302408
  0
LINE
  5
4F0
100
AcDbEntity
  8
RACCORDO
100
AcDbLine
 62
253
  6
CONTINUOUS
 10
147.4914742191
 20
124.8377971044
 11
147.4319258609
 21
124.8675712835
  0
LINE
  5
4F1
100
AcDbEntity
  8
RACCORDO
100
AcDbLine
 62
253
  6
CONTINUOUS
 10
134.067589495
 20
131.5497394665
 11
134.1271560546
 21
131.5199561867
  0
LWPOLYLINE
  5
4F2
100
AcDbEntity
  8
RACCORDO
100
AcDbPolyline
 62
253
  6
CONTINUOUS
 90
7
 70
0
 10
131.4401502861
 20
131.548677593
 10
131.4157865575
 20
131.5619455573
 10
131.3938708985
 20
131.5757982533
 10
131.3744033091
 20
131.5902356809
 10
131.3573837894
 20
131.6052578402
 10
131.3428123392
 20
131.6208647311
 10
131.3306889588
 20
131.6370563536
  0
LINE
  5
4F3
100
AcDbEntity
  8
RACCORDO
100
AcDbLine
 62
253
  6
CONTINUOUS
 10
144.9307183417
 20
125.1214030384
 11
144.9483579498
 21
125.1116419612
  0
LWPOLYLINE
  5
4F4
100
AcDbEntity
  8
RACCORDO
100
AcDbPolyline
 62
253
  6
CONTINUOUS
 90
8
 70
0
 10
131.5840397854
 20
131.7938010434
 10
131.5663553311
 20
131.803589755
 10
131.5508935554
 20
131.8141513565
 10
131.5378043869
 20
131.8253592269
 10
131.5272132426
 20
131.8370713162
 10
131.5192050656
 20
131.8491599091
 10
131.5138359263
 20
131.8615151729
 10
131.5111498622
 20
131.8739866966
  0
LWPOLYLINE
  5
4F5
100
AcDbEntity
  8
RACCORDO
100
AcDbPolyline
 62
253
  6
CONTINUOUS
 90
16
 70
0
 10
134.1271560546
 20
131.5199561867
 10
134.1593542456
 20
131.5019045525
 10
134.1870978909
 20
131.482877285
 10
134.2103869906
 20
131.4628743844
 10
134.2293358502
 20
131.4416618604
 10
134.2438301643
 20
131.4194737032
 10
134.253527016
 20
131.3970118829
 10
134.2583103092
 20
131.3742915526
 10
134.25829614
 20
131.3512975593
 10
134.2534898807
 20
131.3286864132
 10
134.2437775114
 20
131.3064477577
 10
134.229273052
 20
131.2845919495
 10
134.2103239335
 20
131.263806569
 10
134.1870459663
 20
131.2443208095
 10
134.15932334
 20
131.2259054777
 10
134.1271560546
 20
131.2085605735
  0
LWPOLYLINE
  5
4F6
100
AcDbEntity
  8
RACCORDO
100
AcDbPolyline
 62
253
  6
CONTINUOUS
 90
9
 70
0
 10
130.9419063296
 20
132.356932648
 10
130.9322454225
 20
132.3625030175
 10
130.9180884864
 20
132.3738572229
 10
130.9057651544
 20
132.3880614182
 10
130.8954698395
 20
132.4049041424
 10
130.8873792709
 20
132.4240511063
 10
130.8815775815
 20
132.4451702477
 10
130.8780919695
 20
132.4679794464
 10
130.8769330042
 20
132.4921511126
  0
LWPOLYLINE
  5
4F7
100
AcDbEntity
  8
RACCORDO
100
AcDbPolyline
 62
253
  6
CONTINUOUS
 90
9
 70
0
 10
132.2854092138
 20
131.6851812058
 10
132.2757483068
 20
131.6907515753
 10
132.2615913706
 20
131.7021057807
 10
132.2492680387
 20
131.7163099761
 10
132.2389727238
 20
131.7331527003
 10
132.2308821552
 20
131.7522996642
 10
132.2250804658
 20
131.7734188055
 10
132.2215948537
 20
131.7962280043
 10
132.2204358884
 20
131.8203996704
  0
LWPOLYLINE
  5
4F8
100
AcDbEntity
  8
RACCORDO
100
AcDbPolyline
 62
253
  6
CONTINUOUS
 90
9
 70
0
 10
144.306224494
 20
125.6747735658
 10
144.296563587
 20
125.6803439352
 10
144.2824066508
 20
125.6916981407
 10
144.2700833189
 20
125.705902336
 10
144.2597880039
 20
125.7227450602
 10
144.2516974353
 20
125.7418920241
 10
144.2458957459
 20
125.7630111654
 10
144.2424101339
 20
125.7858203642
 10
144.2412511686
 20
125.8099920303
  0
LWPOLYLINE
  5
4F9
100
AcDbEntity
  8
RACCORDO
100
AcDbPolyline
 62
253
  6
CONTINUOUS
 90
9
 70
0
 10
145.6497273782
 20
125.0030221236
 10
145.6400664712
 20
125.0085924931
 10
145.6259095351
 20
125.0199466985
 10
145.6135862031
 20
125.0341508939
 10
145.6032908882
 20
125.0509936181
 10
145.5952003196
 20
125.070140582
 10
145.5893986302
 20
125.0912597233
 10
145.5859130182
 20
125.1140689221
 10
145.5847540529
 20
125.1382405882
  0
LWPOLYLINE
  5
4FA
100
AcDbEntity
  8
RACCORDO
100
AcDbPolyline
 62
253
  6
CONTINUOUS
 90
13
 70
0
 10
132.3972125837
 20
132.4766083411
 10
132.4202865726
 20
132.4632191048
 10
132.4429657592
 20
132.4463544784
 10
132.4648620962
 20
132.4263030202
 10
132.4856009314
 20
132.4034078163
 10
132.5048274174
 20
132.3780606101
 10
132.5222125837
 20
132.3506950991
 10
132.5374589654
 20
132.3217795149
 10
132.5503056926
 20
132.2918086112
 10
132.5605329543
 20
132.2612951984
 10
132.5679657592
 20
132.2307613694
 10
132.5724769299
 20
132.2007295667
 10
132.573989279
 20
132.1717136425
  0
LWPOLYLINE
  5
4FB
100
AcDbEntity
  8
RACCORDO
100
AcDbPolyline
 62
253
  6
CONTINUOUS
 90
16
 70
0
 10
146.3262562591
 20
124.1392877195
 10
146.3625557309
 20
124.118102481
 10
146.3983821956
 20
124.0923696985
 10
146.4333431241
 20
124.0623730944
 10
146.4670535827
 20
124.0284439773
 10
146.4991468267
 20
123.9909547541
 10
146.5292776307
 20
123.9503134905
 10
146.5571176327
 20
123.906964056
 10
146.5823597656
 20
123.8613825907
 10
146.6047275122
 20
123.8140685458
 10
146.6239757239
 20
123.7655403231
 10
146.6398934458
 20
123.7163296442
 10
146.6523063349
 20
123.666975751
 10
146.6610783581
 20
123.6180194273
 10
146.6661132864
 20
123.5699970737
 10
146.6673558817
 20
123.5234348764
  0
LINE
  5
4FC
100
AcDbEntity
  8
0
100
AcDbLine
 62
7
  6
CONTINUOUS
 10
137.419921762
 20
135.5382097133
 11
138.6577353355
 21
133.4032971006
  0
LINE
  5
4FD
100
AcDbEntity
  8
0
100
AcDbLine
 62
7
  6
CONTINUOUS
 10
137.7288533155
 20
135.5069671806
 11
138.8686331104
 21
133.5411378249
  0
LINE
  5
4FE
100
AcDbEntity
  8
DRAFT
100
AcDbLine
 62
7
  6
CONTINUOUS
 10
149.0663993663
 20
140.7877111184
 11
149.0849326197
 21
139.4780478939
  0
LWPOLYLINE
  5
4FF
100
AcDbEntity
  8
0
100
AcDbPolyline
 62
7
  6
CONTINUOUS
 90
21
 70
0
 10
148.9153123218
 20
138.555322657
 10
148.9151944865
 20
138.5694097801
 10
148.9146299511
 20
138.5890383263
 10
148.9136237841
 20
138.6080698801
 10
148.9122039023
 20
138.6264820821
 10
148.9103931738
 20
138.6443100915
 10
148.9082036071
 20
138.6616434582
 10
148.9056514746
 20
138.6784845301
 10
148.9027519742
 20
138.6948403074
 10
148.8995013327
 20
138.7108023932
 10
148.8959066674
 20
138.7263737238
 10
148.8919754591
 20
138.7415554253
 10
148.8876900075
 20
138.7564309156
 10
148.883041997
 20
138.7710215516
 10
148.8780373828
 20
138.7853014423
 10
148.8726710482
 20
138.7992789502
 10
148.8669341208
 20
138.8129638927
 10
148.8608298884
 20
138.8263359764
 10
148.8543728311
 20
138.8393576047
 10
148.8475633782
 20
138.8520233355
 10
148.8443742703
 20
138.8576226509
  0
LWPOLYLINE
  5
500
100
AcDbEntity
  8
0
100
AcDbPolyline
 62
7
  6
CONTINUOUS
 90
34
 70
0
 10
148.4720300604
 20
136.8459210754
 10
148.4717406149
 20
136.8809280833
 10
148.4706563619
 20
136.9225025944
 10
148.4687736379
 20
136.9642888503
 10
148.4660984177
 20
137.0062659015
 10
148.462637016
 20
137.0484156721
 10
148.4583954496
 20
137.0907204405
 10
148.4533799898
 20
137.1331617064
 10
148.4475971896
 20
137.1757196388
 10
148.4410536064
 20
137.2183733345
 10
148.4337560758
 20
137.2611034855
 10
148.4257114759
 20
137.3038907323
 10
148.4169271292
 20
137.3467133333
 10
148.4074104899
 20
137.3895517005
 10
148.3971688456
 20
137.4323864798
 10
148.3862103529
 20
137.4751955029
 10
148.3745433305
 20
137.5179581154
 10
148.3621753125
 20
137.5606560024
 10
148.3491143502
 20
137.6032699941
 10
148.3353691871
 20
137.6457795366
 10
148.3209477317
 20
137.6881663049
 10
148.3058575079
 20
137.7304141315
 10
148.290107125
 20
137.7725036543
 10
148.2737051853
 20
137.8144154699
 10
148.2566595583
 20
137.8561331819
 10
148.2389791638
 20
137.8976373772
 10
148.2206729675
 20
137.9389089534
 10
148.2017490312
 20
137.979931726
 10
148.1822168242
 20
138.0206858901
 10
148.1620854048
 20
138.0611531251
 10
148.1413617747
 20
138.1013194991
 10
148.1200542714
 20
138.1411678315
 10
148.0981744951
 20
138.1806759901
 10
148.0795345062
 20
138.2132861028
  0
LINE
  5
501
100
AcDbEntity
  8
RACCORDO
100
AcDbLine
 62
7
  6
CONTINUOUS
 10
148.5899578729
 20
86.5100683993
 11
148.5899578729
 21
124.411352286
  0
LINE
  5
502
100
AcDbEntity
  8
RACCORDO
100
AcDbLine
 62
7
  6
CONTINUOUS
 10
148.7341530664
 20
130.5167521224
 11
148.7341530664
 21
129.6163970218
  0
LINE
  5
503
100
AcDbEntity
  8
0
100
AcDbLine
 62
253
  6
CONTINUOUS
 10
148.8591802735
 20
138.4858570213
 11
148.8591802735
 21
136.8091263328
  0
LINE
  5
504
100
AcDbEntity
  8
0
100
AcDbLine
 62
7
  6
CONTINUOUS
 10
148.9153123135
 20
138.5553228584
 11
148.9153123135
 21
136.8785921698
  0
LINE
  5
505
100
AcDbEntity
  8
0
100
AcDbLine
 62
253
  6
CONTINUOUS
 10
149.4299782997
 20
134.0686100671
 11
149.4299782997
 21
130.840228371
  0
LINE
  5
506
100
AcDbEntity
  8
0
100
AcDbLine
 62
7
  6
CONTINUOUS
 10
149.5141763596
 20
134.1728088226
 11
149.5141763596
 21
130.8375150253
  0
LWPOLYLINE
  5
507
100
AcDbEntity
  8
RACCORDO
100
AcDbPolyline
 62
253
  6
CONTINUOUS
 90
10
 70
0
 10
147.9518562307
 20
86.1885573601
 10
147.9506089226
 20
86.1445957676
 10
147.9455684123
 20
86.1030870776
 10
147.9367899456
 20
86.0644862423
 10
147.9243697376
 20
86.0292163429
 10
147.9084439186
 20
85.997663952
 10
147.8891870418
 20
85.9701748966
 10
147.8668101701
 20
85.9470504681
 10
147.841558563
 20
85.9285441196
 10
147.829509754
 20
85.9218692504
  0
LWPOLYLINE
  5
508
100
AcDbEntity
  8
RACCORDO
100
AcDbPolyline
 62
253
  6
CONTINUOUS
 90
8
 70
0
 10
148.059627787
 20
84.5479826485
 10
148.0581032473
 20
84.5203719926
 10
148.0535537397
 20
84.4947532616
 10
148.0460545615
 20
84.4715710571
 10
148.0357307744
 20
84.451226491
 10
148.0227586199
 20
84.434077422
 10
148.0073655496
 20
84.420428294
 10
147.9946291306
 20
84.4127515232
  0
LWPOLYLINE
  5
509
100
AcDbEntity
  8
RACCORDO
100
AcDbPolyline
 62
253
  6
CONTINUOUS
 90
3
 70
0
 10
147.354602322
 20
85.649830662
 10
147.3530288304
 20
85.6370327044
 10
147.3525210058
 20
85.6195656578
  0
LINE
  5
50A
100
AcDbEntity
  8
RACCORDO
100
AcDbLine
 62
253
  6
CONTINUOUS
 10
147.4236055259
 20
85.3678158036
 11
147.4257443105
 21
85.3841315777
  0
LWPOLYLINE
  5
50B
100
AcDbEntity
  8
0
100
AcDbPolyline
 62
253
  6
CONTINUOUS
 90
31
 70
0
 10
148.47203008
 20
134.8320266406
 10
148.4744640319
 20
134.8324143451
 10
148.4792441511
 20
134.8330046234
 10
148.484149963
 20
134.8334445103
 10
148.4891602556
 20
134.8337330945
 10
148.4942758398
 20
134.8338694226
 10
148.4994936342
 20
134.8338546083
 10
148.5047869174
 20
134.8336928004
 10
148.5101567254
 20
134.8333841861
 10
148.5156002531
 20
134.8329308144
 10
148.5210854566
 20
134.8323415846
 10
148.5266085706
 20
134.8316186764
 10
148.5321723348
 20
134.8307643233
 10
148.537754849
 20
134.8297888388
 10
148.5433346568
 20
134.8286994455
 10
148.5489328518
 20
134.8274944893
 10
148.5545909176
 20
134.8261691821
 10
148.5602895639
 20
134.8247297917
 10
148.5660466725
 20
134.8231712015
 10
148.5719576505
 20
134.8214656289
 10
148.5780189417
 20
134.8196110991
 10
148.584229858
 20
134.817602655
 10
148.590687467
 20
134.8154006755
 10
148.597389559
 20
134.8129980348
 10
148.6043305515
 20
134.8103873388
 10
148.6115995899
 20
134.8075217451
 10
148.6192042359
 20
134.8043849912
 10
148.6271245099
 20
134.8009710909
 10
148.6354057899
 20
134.7972438383
 10
148.6440464756
 20
134.7931873158
 10
148.6530675191
 20
134.7887733357
  0
LINE
  5
50C
100
AcDbEntity
  8
RACCORDO
100
AcDbLine
 62
253
  6
CONTINUOUS
 10
131.5020460576
 20
131.8466928783
 11
131.4886958032
 21
131.8464057031
  0
LWPOLYLINE
  5
50D
100
AcDbEntity
  8
RACCORDO
100
AcDbPolyline
 62
253
  6
CONTINUOUS
 90
4
 70
0
 10
134.0574934967
 20
131.5093212505
 10
134.0737991835
 20
131.5073170423
 10
134.0910389508
 20
131.5084427012
 10
134.1089243311
 20
131.5126793826
  0
LINE
  5
50E
100
AcDbEntity
  8
RACCORDO
100
AcDbLine
 62
7
  6
CONTINUOUS
 10
132.3465118311
 20
131.6639831291
 11
132.876841917
 21
131.554148172
  0
LINE
  5
50F
100
AcDbEntity
  8
RACCORDO
100
AcDbLine
 62
253
  6
CONTINUOUS
 10
132.573989279
 20
131.8203996704
 11
133.1043193649
 21
131.7105647134
  0
LINE
  5
510
100
AcDbEntity
  8
268
100
AcDbLine
 62
7
  6
CONTINUOUS
 10
130.5172088732
 20
132.7541199592
 11
129.8948908411
 21
132.8840605417
  0
LWPOLYLINE
  5
511
100
AcDbEntity
  8
RACCORDO
100
AcDbPolyline
 62
7
  6
CONTINUOUS
 90
8
 70
0
 10
146.6511516063
 20
127.5339613196
 10
146.6228650111
 20
127.5459908848
 10
146.5928778101
 20
127.5545558536
 10
146.5617032272
 20
127.559353022
 10
146.5297985833
 20
127.5601720047
 10
146.4979136951
 20
127.556896965
 10
146.4669061643
 20
127.5496287377
 10
146.4369461138
 20
127.5384197528
  0
LWPOLYLINE
  5
512
100
AcDbEntity
  8
RACCORDO
100
AcDbPolyline
 62
253
  6
CONTINUOUS
 90
7
 70
0
 10
134.630151824
 20
133.5444609573
 10
134.6254588896
 20
133.5466352874
 10
134.6060118416
 20
133.5526402896
 10
134.5851938959
 20
133.5546156447
 10
134.5634415479
 20
133.5526199672
 10
134.5410936935
 20
133.5467784707
 10
134.5185329273
 20
133.5372685129
  0
LWPOLYLINE
  5
513
100
AcDbEntity
  8
RACCORDO
100
AcDbPolyline
 62
253
  6
CONTINUOUS
 90
7
 70
0
 10
133.2868080819
 20
134.216133077
 10
133.2819560054
 20
134.2183867296
 10
133.2625089573
 20
134.2243917317
 10
133.2416910116
 20
134.2263670868
 10
133.2199386636
 20
134.2243714093
 10
133.1975908093
 20
134.2185299128
 10
133.175030043
 20
134.209019955
  0
LWPOLYLINE
  5
514
100
AcDbEntity
  8
RACCORDO
100
AcDbPolyline
 62
7
  6
CONTINUOUS
 90
25
 70
0
 10
142.0512506265
 20
127.9272550135
 10
142.0754129876
 20
127.91596362
 10
142.1007688722
 20
127.9055667368
 10
142.1273182801
 20
127.8960643642
 10
142.1551856732
 20
127.8874233253
 10
142.1842465897
 20
127.8796767969
 10
142.2141276446
 20
127.872924309
 10
142.2448394207
 20
127.8671786886
 10
142.2763713352
 20
127.8624271087
 10
142.3083182549
 20
127.8587306195
 10
142.3406855348
 20
127.8561028354
 10
142.3734678199
 20
127.8545301419
 10
142.4062439118
 20
127.8540327455
 10
142.4390137304
 20
127.8546245215
 10
142.4717773557
 20
127.8562915946
 10
142.5041138291
 20
127.8590125457
 10
142.5360176386
 20
127.8628009736
 10
142.5674942962
 20
127.8676432795
 10
142.5981393784
 20
127.8734772478
 10
142.6279421551
 20
127.8803156744
 10
142.6569133564
 20
127.8881457633
 10
142.6846807502
 20
127.8968669107
 10
142.7111202589
 20
127.9064455822
 10
142.7363559601
 20
127.9169153121
 10
142.7603878536
 20
127.9282761007
  0
LWPOLYLINE
  5
515
100
AcDbEntity
  8
RACCORDO
100
AcDbPolyline
 62
253
  6
CONTINUOUS
 90
7
 70
0
 10
147.9946544906
 20
126.8622098775
 10
147.9904659254
 20
126.8641765333
 10
147.9712394394
 20
126.8702972536
 10
147.9505006042
 20
126.8724536223
 10
147.9286042672
 20
126.8706087434
 10
147.9059250806
 20
126.8647941833
 10
147.8828510917
 20
126.8551094307
  0
LWPOLYLINE
  5
516
100
AcDbEntity
  8
RACCORDO
100
AcDbPolyline
 62
253
  6
CONTINUOUS
 90
7
 70
0
 10
146.6511516063
 20
127.5339613196
 10
146.6469630411
 20
127.5359279754
 10
146.6277365551
 20
127.5420486957
 10
146.60699772
 20
127.5442050644
 10
146.5851013829
 20
127.5423601855
 10
146.5624221964
 20
127.5365456254
 10
146.5393482075
 20
127.5268608728
  0
LINE
  5
517
100
AcDbEntity
  8
RACCORDO
100
AcDbLine
 62
7
  6
CONTINUOUS
 10
133.2774321367
 20
134.220578835
 11
133.2869950721
 21
134.2160393918
  0
LINE
  5
518
100
AcDbEntity
  8
RACCORDO
100
AcDbLine
 62
253
  6
CONTINUOUS
 10
131.0537096995
 20
133.1483597832
 11
132.3972125837
 21
132.4766083411
  0
LINE
  5
519
100
AcDbEntity
  8
RACCORDO
100
AcDbLine
 62
253
  6
CONTINUOUS
 10
144.4180278639
 20
126.466200701
 11
145.7615307481
 21
125.7944492589
  0
LINE
  5
51A
100
AcDbEntity
  8
268
100
AcDbLine
 62
7
  6
CONTINUOUS
 10
120.4853465896
 20
138.7051686436
 11
126.2778556576
 21
135.8089141096
  0
LINE
  5
51B
100
AcDbEntity
  8
RACCORDO
100
AcDbLine
 62
7
  6
CONTINUOUS
 10
142.0512506265
 20
127.9272550135
 11
136.5317567741
 21
130.6870019398
  0
LINE
  5
51C
100
AcDbEntity
  8
RACCORDO
100
AcDbLine
 62
7
  6
CONTINUOUS
 10
134.1207702176
 20
132.0791566854
 11
135.5314951652
 21
131.3737942116
  0
LINE
  5
51D
100
AcDbEntity
  8
RACCORDO
100
AcDbLine
 62
7
  6
CONTINUOUS
 10
147.485088382
 20
125.3969976032
 11
148.2362429222
 21
125.0214203331
  0
LINE
  5
51E
100
AcDbEntity
  8
268
100
AcDbLine
 62
7
  6
CONTINUOUS
 10
119.750995738
 20
139.2716027657
 11
118.2685177345
 21
140.0128417674
  0
LINE
  5
51F
100
AcDbEntity
  8
268
100
AcDbLine
 62
7
  6
CONTINUOUS
 10
120.9774380676
 20
139.1712680742
 11
127.199977742
 21
136.059998237
  0
LINE
  5
520
100
AcDbEntity
  8
268
100
AcDbLine
 62
7
  6
CONTINUOUS
 10
116.5933760242
 20
141.8829143382
 11
118.2197216209
 21
141.0697415398
  0
LINE
  5
521
100
AcDbEntity
  8
268
100
AcDbLine
 62
7
  6
CONTINUOUS
 10
129.9576941886
 20
135.2007552559
 11
131.5840397854
 21
134.3875824576
  0
LINE
  5
522
100
AcDbEntity
  8
268
100
AcDbLine
 62
7
  6
CONTINUOUS
 10
122.3209409518
 20
139.2015850249
 11
127.2706884201
 21
136.7267112907
  0
LINE
  5
523
100
AcDbEntity
  8
0
100
AcDbLine
 62
7
  6
CONTINUOUS
 10
143.1805909968
 20
128.7767983908
 11
138.2308435285
 21
131.2516721249
  0
LINE
  5
524
100
AcDbEntity
  8
268
100
AcDbLine
 62
253
  6
CONTINUOUS
 10
117.1278259029
 20
142.1432618047
 11
118.7479887927
 21
141.3331803598
  0
LINE
  5
525
100
AcDbEntity
  8
268
100
AcDbLine
 62
253
  6
CONTINUOUS
 10
130.4921440673
 20
135.4611027225
 11
132.1123069571
 21
134.6510212776
  0
LINE
  5
526
100
AcDbEntity
  8
268
100
AcDbLine
 62
7
  6
CONTINUOUS
 10
117.2392435182
 20
142.1495303679
 11
118.8581210964
 21
141.3400915788
  0
LINE
  5
527
100
AcDbEntity
  8
268
100
AcDbLine
 62
7
  6
CONTINUOUS
 10
130.6035616827
 20
135.4673712857
 11
132.2224392609
 21
134.6579324966
  0
LINE
  5
528
100
AcDbEntity
  8
RACCORDO
100
AcDbLine
 62
253
  6
CONTINUOUS
 10
133.175030043
 20
134.209019955
 11
134.5185329273
 21
133.5372685129
  0
LINE
  5
529
100
AcDbEntity
  8
RACCORDO
100
AcDbLine
 62
253
  6
CONTINUOUS
 10
146.5393482075
 20
127.5268608728
 11
147.8828510917
 21
126.8551094307
  0
LINE
  5
52A
100
AcDbEntity
  8
RACCORDO
100
AcDbLine
 62
7
  6
CONTINUOUS
 10
133.2868334419
 20
134.2161204018
 11
134.6303363262
 21
133.5443689597
  0
LINE
  5
52B
100
AcDbEntity
  8
RACCORDO
100
AcDbLine
 62
7
  6
CONTINUOUS
 10
146.6511516063
 20
127.5339613196
 11
147.9946544906
 21
126.8622098775
  0
LWPOLYLINE
  5
52C
100
AcDbEntity
  8
RACCORDO
100
AcDbPolyline
 62
7
  6
CONTINUOUS
 90
10
 70
0
 10
134.630151824
 20
133.5444609573
 10
134.6415445564
 20
133.5384042842
 10
134.6686301973
 20
133.5206891725
 10
134.6932611304
 20
133.4995638633
 10
134.7150126302
 20
133.4753445876
 10
134.733520506
 20
133.4483566014
 10
134.748424684
 20
133.4189954567
 10
134.7593849594
 20
133.3877717884
 10
134.7661428871
 20
133.3552485039
 10
134.7685327689
 20
133.3209028545
  0
LWPOLYLINE
  5
52D
100
AcDbEntity
  8
RACCORDO
100
AcDbPolyline
 62
253
  6
CONTINUOUS
 90
13
 70
0
 10
145.7615307481
 20
125.7944492589
 10
145.7840915144
 20
125.7813984504
 10
145.8064393687
 20
125.7648920926
 10
145.8281917168
 20
125.7451354221
 10
145.8490096625
 20
125.7223421213
 10
145.8684567105
 20
125.6968900711
 10
145.886045206
 20
125.6693711522
 10
145.9014382764
 20
125.6403289539
 10
145.9144104308
 20
125.6102077304
 10
145.9247342179
 20
125.5795393773
 10
145.9322333961
 20
125.5488579946
 10
145.9367829038
 20
125.5186897559
 10
145.9383074434
 20
125.4895545603
  0
LWPOLYLINE
  5
52E
100
AcDbEntity
  8
RACCORDO
100
AcDbPolyline
 62
253
  6
CONTINUOUS
 90
13
 70
0
 10
147.8828510917
 20
126.8551094307
 10
147.9054118579
 20
126.8420586222
 10
147.9277597123
 20
126.8255522644
 10
147.9495120603
 20
126.8057955938
 10
147.970330006
 20
126.783002293
 10
147.9897770541
 20
126.7575502429
 10
148.0073655496
 20
126.730031324
 10
148.0227586199
 20
126.7009891257
 10
148.0357307744
 20
126.6708679022
 10
148.0460545615
 20
126.640199549
 10
148.0535537397
 20
126.6095181664
 10
148.0581032473
 20
126.5793499277
 10
148.059627787
 20
126.5502147321
  0
LWPOLYLINE
  5
52F
100
AcDbEntity
  8
RACCORDO
100
AcDbPolyline
 62
253
  6
CONTINUOUS
 90
13
 70
0
 10
134.5185329273
 20
133.5372685129
 10
134.5416069162
 20
133.5238792766
 10
134.5642861028
 20
133.5070146501
 10
134.5861824398
 20
133.486963192
 10
134.6069212749
 20
133.4640679881
 10
134.6261477609
 20
133.4387207818
 10
134.6435329273
 20
133.4113552709
 10
134.658779309
 20
133.3824396867
 10
134.6716260362
 20
133.352468783
 10
134.6818532979
 20
133.3219553701
 10
134.6892861028
 20
133.2914215412
 10
134.6937972734
 20
133.2613897384
 10
134.6953096226
 20
133.2323738143
  0
LWPOLYLINE
  5
530
100
AcDbEntity
  8
RACCORDO
100
AcDbPolyline
 62
253
  6
CONTINUOUS
 90
16
 70
0
 10
147.6106978094
 20
124.7325218887
 10
147.6469769626
 20
124.7113446465
 10
147.6827908408
 20
124.68562043
 10
147.7177469096
 20
124.6556311873
 10
147.7514620363
 20
124.6217056134
 10
147.7835666895
 20
124.5842155469
 10
147.8137089892
 20
124.5435718948
 10
147.8415585637
 20
124.5002201285
 10
147.8668101705
 20
124.4546354017
 10
147.8891870419
 20
124.4073173423
 10
147.9084439185
 20
124.358784576
 10
147.9243697373
 20
124.3095690425
 10
147.9367899452
 20
124.2602101646
 10
147.945568412
 20
124.2112489365
 10
147.9506089224
 20
124.1632219938
 10
147.9518562308
 20
124.1166557321
  0
LWPOLYLINE
  5
531
100
AcDbEntity
  8
RACCORDO
100
AcDbPolyline
 62
253
  6
CONTINUOUS
 90
13
 70
0
 10
147.4467313302
 20
124.5578483759
 10
147.4331456453
 20
124.5713262613
 10
147.4202168803
 20
124.5862032777
 10
147.4080847316
 20
124.602318676
 10
147.3968802895
 20
124.6194983237
 10
147.3867246164
 20
124.6375565943
 10
147.377727441
 20
124.6562983745
 10
147.369985978
 20
124.675521161
 10
147.3635838773
 20
124.6950172463
 10
147.3585903156
 20
124.7145759718
 10
147.3550592494
 20
124.7339860025
 10
147.353028833
 20
124.7530376109
 10
147.3525210058
 20
124.7715249416
  0
LWPOLYLINE
  5
532
100
AcDbEntity
  8
RACCORDO
100
AcDbPolyline
 62
253
  6
CONTINUOUS
 90
13
 70
0
 10
147.4467315361
 20
124.5578492735
 10
147.4800231748
 20
124.5238261832
 10
147.5116777998
 20
124.4863063272
 10
147.5413531795
 20
124.4456953404
 10
147.5687284818
 20
124.4024322776
 10
147.593507743
 20
124.3569848665
 10
147.6154230678
 20
124.3098444514
 10
147.6342375256
 20
124.2615206809
 10
147.6497477123
 20
124.2125359981
 10
147.6617859496
 20
124.1634199927
 10
147.670222098
 20
124.1147036751
 10
147.6749649635
 20
124.0669137359
 10
147.675963284
 20
124.0205668514
  0
LWPOLYLINE
  5
533
100
AcDbEntity
  8
RACCORDO
100
AcDbPolyline
 62
253
  6
CONTINUOUS
 90
13
 70
0
 10
146.7361199653
 20
124.2226936221
 10
146.7229715845
 20
124.2362263482
 10
146.7104818289
 20
124.2510662014
 10
146.698780253
 20
124.2670602259
 10
146.687987818
 20
124.2840443046
 10
146.6782173423
 20
124.3018422137
 10
146.66957177
 20
124.3202670548
 10
146.6621409918
 20
124.3391270233
 10
146.6560014774
 20
124.358227759
 10
146.651216804
 20
124.3773714661
 10
146.6478365188
 20
124.3963599034
 10
146.6458956261
 20
124.4149964379
 10
146.6454142246
 20
124.4330880807
  0
LWPOLYLINE
  5
534
100
AcDbEntity
  8
RACCORDO
100
AcDbPolyline
 62
7
  6
CONTINUOUS
 90
4
 70
0
 10
147.4377522173
 20
124.8117239
 10
147.4380963847
 20
124.8113680541
 10
147.4379184115
 20
124.8116219006
 10
147.435923638
 20
124.8145884716
  0
LWPOLYLINE
  5
535
100
AcDbEntity
  8
RACCORDO
100
AcDbPolyline
 62
253
  6
CONTINUOUS
 90
13
 70
0
 10
146.7361199653
 20
124.2226936221
 10
146.7683436527
 20
124.1885195075
 10
146.7989201127
 20
124.1510819131
 10
146.8275326011
 20
124.1107686583
 10
146.8538847183
 20
124.0679973518
 10
146.8777034805
 20
124.0232110655
 10
146.8987421468
 20
123.9768737446
 10
146.9167827758
 20
123.9294654016
 10
146.931638483
 20
123.881477144
 10
146.9431553768
 20
123.8334060864
 10
146.9512141526
 20
123.7857502013
 10
146.9557313288
 20
123.7390031605
 10
146.9566601115
 20
123.6936492207
  0
LWPOLYLINE
  5
536
100
AcDbEntity
  8
RACCORDO
100
AcDbPolyline
 62
253
  6
CONTINUOUS
 90
7
 70
0
 10
147.610697911
 20
124.7325219356
 10
147.5991585929
 20
124.7520446823
 10
147.5842867558
 20
124.7707766749
 10
147.5660823999
 20
124.7887179134
 10
147.5445455252
 20
124.8058683979
 10
147.5196761316
 20
124.8222281282
 10
147.4914742191
 20
124.8377971044
  0
LWPOLYLINE
  5
537
100
AcDbEntity
  8
RACCORDO
100
AcDbPolyline
 62
7
  6
CONTINUOUS
 90
5
 70
0
 10
147.435923638
 20
124.8145884716
 10
147.4329395023
 20
124.8202586082
 10
147.429886256
 20
124.8281227261
 10
147.4273209968
 20
124.8381726085
 10
147.4258802278
 20
124.8499888406
  0
LINE
  5
538
100
AcDbEntity
  8
RACCORDO
100
AcDbLine
 62
7
  6
CONTINUOUS
 10
152.7885679556
 20
127.7855909256
 11
152.7885679556
 21
126.8906280622
  0
LINE
  5
539
100
AcDbEntity
  8
RACCORDO
100
AcDbLine
 62
7
  6
CONTINUOUS
 10
152.7885679556
 20
93.9743181642
 11
152.7885679556
 21
92.3325421741
  0
LINE
  5
53A
100
AcDbEntity
  8
RACCORDO
100
AcDbLine
 62
7
  6
CONTINUOUS
 10
153.5223454106
 20
128.4472308102
 11
153.5223454106
 21
128.1655153248
  0
LINE
  5
53B
100
AcDbEntity
  8
RACCORDO
100
AcDbLine
 62
7
  6
CONTINUOUS
 10
153.5223454106
 20
91.9656534466
 11
153.5223454106
 21
91.6839379612
  0
LWPOLYLINE
  5
53C
100
AcDbEntity
  8
RACCORDO
100
AcDbPolyline
 62
7
  6
CONTINUOUS
 90
8
 70
0
 10
152.7885679556
 20
126.8906280622
 10
152.7856446638
 20
126.8383981017
 10
152.7784984613
 20
126.7908117847
 10
152.767129348
 20
126.747869111
 10
152.7512654035
 20
126.7092734087
 10
152.7311785483
 20
126.6753213498
 10
152.7076845438
 20
126.6469029504
 10
152.7028797287
 20
126.642192363
  0
LWPOLYLINE
  5
53D
100
AcDbEntity
  8
RACCORDO
100
AcDbPolyline
 62
253
  6
CONTINUOUS
 90
7
 70
0
 10
148.1328509334
 20
84.6362303036
 10
148.1308136223
 20
84.6204447333
 10
148.1244877607
 20
84.604309648
 10
148.1139856107
 20
84.5887347859
 10
148.0994950716
 20
84.5739903382
 10
148.0812696442
 20
84.5603281168
 10
148.059627787
 20
84.5479826485
  0
LWPOLYLINE
  5
53E
100
AcDbEntity
  8
RACCORDO
100
AcDbPolyline
 62
253
  6
CONTINUOUS
 90
7
 70
0
 10
148.1328510917
 20
84.9876849683
 10
148.1307123071
 20
84.9713691942
 10
148.1243325483
 20
84.9553325876
 10
148.1138209748
 20
84.9398495392
 10
148.0993574427
 20
84.9251849683
 10
148.0811894268
 20
84.9115897896
 10
148.059627787
 20
84.8992966206
  0
LWPOLYLINE
  5
53F
100
AcDbEntity
  8
0
100
AcDbPolyline
 62
253
  6
CONTINUOUS
 90
42
 70
0
 10
148.47203008
 20
134.9350467792
 10
148.4765176463
 20
134.9348662221
 10
148.4842266655
 20
134.9343735091
 10
148.4919116162
 20
134.9337165486
 10
148.4995440048
 20
134.9329003176
 10
148.507151793
 20
134.9319194182
 10
148.514794285
 20
134.9307766287
 10
148.5224497622
 20
134.9294829342
 10
148.5301392439
 20
134.9280268163
 10
148.5379858642
 20
134.926377103
 10
148.5459919429
 20
134.924542293
 10
148.5541539072
 20
134.922512965
 10
148.5625855163
 20
134.9202306791
 10
148.5712926282
 20
134.9177017827
 10
148.5802672692
 20
134.9149183992
 10
148.589601693
 20
134.9118002025
 10
148.5993156147
 20
134.9083453756
 10
148.6093858923
 20
134.904553302
 10
148.6198396201
 20
134.9003448255
 10
148.6306850938
 20
134.8957176365
 10
148.6419091123
 20
134.8906706434
 10
148.6535056333
 20
134.8851258882
 10
148.665466149
 20
134.8790883857
 10
148.677792559
 20
134.8725486933
 10
148.6904932605
 20
134.8654063735
 10
148.7035876022
 20
134.8576484595
 10
148.7170469429
 20
134.8492819554
 10
148.7308064984
 20
134.8402356192
 10
148.7448796545
 20
134.8304914416
 10
148.759241386
 20
134.8200604048
 10
148.7737688374
 20
134.8089145409
 10
148.7884997926
 20
134.7970007361
 10
148.8033830971
 20
134.7843646742
 10
148.8181644035
 20
134.7711278853
 10
148.8328423304
 20
134.7572542528
 10
148.8474077964
 20
134.7427749824
 10
148.8616001026
 20
134.7279157655
 10
148.8753601752
 20
134.712714569
 10
148.8887433047
 20
134.6971328215
 10
148.9016651207
 20
134.6812841533
 10
148.9141039974
 20
134.6651906938
 10
148.9221130298
 20
134.6542506842
  0
LINE
  5
540
100
AcDbEntity
  8
268
100
AcDbLine
 62
7
  6
CONTINUOUS
 10
117.1528907088
 20
139.4362790414
 11
116.5305726767
 21
139.5662196239
  0
LWPOLYLINE
  5
541
100
AcDbEntity
  8
RACCORDO
100
AcDbPolyline
 62
7
  6
CONTINUOUS
 90
21
 70
0
 10
126.2083694756
 20
138.562652933
 10
126.1965324313
 20
138.5681269641
 10
126.1847615392
 20
138.5731449923
 10
126.1730693491
 20
138.5777013036
 10
126.1614692078
 20
138.5817908185
 10
126.1499727979
 20
138.5854088242
 10
126.1385901389
 20
138.5885508294
 10
126.1273338888
 20
138.5912132336
 10
126.116216155
 20
138.5933928229
 10
126.1052460735
 20
138.5950862237
 10
126.0944359988
 20
138.5962913824
 10
126.0837979031
 20
138.5970065562
 10
126.0733402538
 20
138.5972294115
 10
126.0630754807
 20
138.5969594983
 10
126.0530148262
 20
138.5961966659
 10
126.0431648713
 20
138.5949395484
 10
126.0335368106
 20
138.5931890605
 10
126.0241423978
 20
138.5909465662
 10
126.0149888238
 20
138.5882121458
 10
126.0060889664
 20
138.5849893321
 10
125.9977837938
 20
138.5814346834
  0
LWPOLYLINE
  5
542
100
AcDbEntity
  8
RACCORDO
100
AcDbPolyline
 62
7
  6
CONTINUOUS
 90
66
 70
0
 10
127.2889248553
 20
138.693643085
 10
127.2792320458
 20
138.6983814987
 10
127.2625161881
 20
138.7060677654
 10
127.2453692391
 20
138.7133586564
 10
127.2278186504
 20
138.7202485947
 10
127.2098720785
 20
138.7267425155
 10
127.1915179538
 20
138.7328522137
 10
127.1727752469
 20
138.7385789532
 10
127.1536645131
 20
138.7439250474
 10
127.1341800945
 20
138.7489004199
 10
127.114361507
 20
138.7535035099
 10
127.0942055921
 20
138.7577436507
 10
127.0736446966
 20
138.7616401974
 10
127.0527293889
 20
138.7651870591
 10
127.0314368885
 20
138.7683913638
 10
127.0095889277
 20
138.7712765714
 10
126.9871520288
 20
138.7738372686
 10
126.9641805646
 20
138.7760574424
 10
126.9406287808
 20
138.7779313039
 10
126.9163862723
 20
138.7794527504
 10
126.8915864335
 20
138.7805983389
 10
126.8665522774
 20
138.7813483566
 10
126.8412841306
 20
138.781704526
 10
126.8158068557
 20
138.7816673414
 10
126.7904807044
 20
138.7812455521
 10
126.7653855287
 20
138.7804569574
 10
126.7404603273
 20
138.7793147299
 10
126.7158520875
 20
138.7778409206
 10
126.6915970009
 20
138.7760553784
 10
126.6676707322
 20
138.7739728637
 10
126.644128297
 20
138.7716141319
 10
126.6209816335
 20
138.7689966099
 10
126.5982254431
 20
138.7661351248
 10
126.5758884895
 20
138.7630483544
 10
126.5539846652
 20
138.7597533634
 10
126.5325025845
 20
138.7562630079
 10
126.5114335558
 20
138.7525895523
 10
126.4907786151
 20
138.7487462714
 10
126.4705374064
 20
138.7447458273
 10
126.450700398
 20
138.7405985741
 10
126.4312670468
 20
138.736316198
 10
126.4122375345
 20
138.7319103124
 10
126.3936048438
 20
138.7273905701
 10
126.3753645931
 20
138.7227668516
 10
126.3575204379
 20
138.7180508997
 10
126.3400786899
 20
138.7132552681
 10
126.323032629
 20
138.7083889153
 10
126.3063878327
 20
138.7034641655
 10
126.2901696178
 20
138.6984996731
 10
126.2743967026
 20
138.6935129504
 10
126.2590476086
 20
138.6885088861
 10
126.2440891924
 20
138.6834875011
 10
126.2295325349
 20
138.6784629954
 10
126.2153670289
 20
138.6734421771
 10
126.2015319835
 20
138.6684130147
 10
126.1880287621
 20
138.6633847098
 10
126.1748637963
 20
138.6583685195
 10
126.1619905563
 20
138.6533551268
 10
126.1494287066
 20
138.6483603517
 10
126.1371756171
 20
138.6433916209
 10
126.1251604393
 20
138.6384279421
 10
126.1134153033
 20
138.6334900664
 10
126.1019437981
 20
138.6285875827
 10
126.0906481395
 20
138.6236860795
 10
126.0795707778
 20
138.6188111888
 10
126.0580743942
 20
138.6091756029
  0
LINE
  5
543
100
AcDbEntity
  8
RACCORDO
100
AcDbLine
 62
253
  6
CONTINUOUS
 10
127.2878878181
 20
138.6941500496
 11
127.2889218159
 21
138.6936446084
  0
LINE
  5
544
100
AcDbEntity
  8
RACCORDO
100
AcDbLine
 62
7
  6
CONTINUOUS
 10
126.2099744004
 20
138.5618664073
 11
128.5848504004
 21
137.3744284073
  0
LINE
  5
545
100
AcDbEntity
  8
RACCORDO
100
AcDbLine
 62
253
  6
CONTINUOUS
 10
129.2126154052
 20
137.6838378598
 11
127.1993879508
 21
138.6904379674
  0
LINE
  5
546
100
AcDbEntity
  8
RACCORDO
100
AcDbLine
 62
7
  6
CONTINUOUS
 10
129.2609195434
 20
137.7076457446
 11
127.2889218159
 21
138.6936446084
  0
LINE
  5
547
100
AcDbEntity
  8
268
100
AcDbLine
 62
7
  6
CONTINUOUS
 10
129.7883641649
 20
137.967609824
 11
126.9878457076
 21
139.3678690526
  0
LINE
  5
548
100
AcDbEntity
  8
0
100
AcDbLine
 62
7
  6
CONTINUOUS
 10
138.2479276298
 20
134.1101108393
 11
138.4103423917
 21
134.0289034584
  0
LINE
  5
549
100
AcDbEntity
  8
268
100
AcDbLine
 62
7
  6
CONTINUOUS
 10
126.6342923171
 20
140.0972039373
 11
126.9878457076
 21
139.920427242
  0
LINE
  5
54A
100
AcDbEntity
  8
0
100
AcDbLine
 62
7
  6
CONTINUOUS
 10
143.8081938273
 20
131.8681405358
 11
146.5857345571
 21
130.4793701709
  0
LINE
  5
54B
100
AcDbEntity
  8
0
100
AcDbLine
 62
7
  6
CONTINUOUS
 10
137.419921762
 20
135.5382097133
 11
136.7749070933
 21
135.8607170476
  0
LINE
  5
54C
100
AcDbEntity
  8
268
100
AcDbLine
 62
7
  6
CONTINUOUS
 10
131.1961798611
 20
138.6614864824
 11
128.3856302142
 21
140.0667613059
  0
LINE
  5
54D
100
AcDbEntity
  8
0
100
AcDbLine
 62
7
  6
CONTINUOUS
 10
136.8446328284
 20
135.8452030981
 11
136.9398630219
 21
135.7975880013
  0
LWPOLYLINE
  5
54E
100
AcDbEntity
  8
RACCORDO
100
AcDbPolyline
 62
7
  6
CONTINUOUS
 90
10
 70
0
 10
147.9946544906
 20
126.8622098775
 10
148.0229892609
 20
126.8456315108
 10
148.0493206899
 20
126.8251172287
 10
148.0729534938
 20
126.8009640255
 10
148.0932262257
 20
126.7736670987
 10
148.1096550568
 20
126.7437692413
 10
148.1219173832
 20
126.7117283712
 10
148.1297433133
 20
126.6778988816
 10
148.1328068965
 20
126.6433036785
 10
148.132851088
 20
126.6386246361
  0
LWPOLYLINE
  5
54F
100
AcDbEntity
  8
268
100
AcDbPolyline
 62
7
  6
CONTINUOUS
 90
4
 70
0
 10
137.3910305232
 20
136.2780217162
 10
137.3905140661
 20
136.278413944
 10
137.3846088827
 20
136.2828328262
 10
137.372295831
 20
136.2919179158
  0
LWPOLYLINE
  5
550
100
AcDbEntity
  8
268
100
AcDbPolyline
 62
7
  6
CONTINUOUS
 90
17
 70
0
 10
137.45518431
 20
136.8238906618
 10
137.4215470162
 20
136.8599528123
 10
137.3878634281
 20
136.894591472
 10
137.3541335457
 20
136.9278066407
 10
137.320288644
 20
136.9596139447
 10
137.286397448
 20
136.9899977578
 10
137.2526661329
 20
137.0189112019
 10
137.2191143375
 20
137.0463303773
 10
137.1857224231
 20
137.0722791836
 10
137.152637649
 20
137.0967824421
 10
137.1198753356
 20
137.119826149
 10
137.0874201625
 20
137.141424308
 10
137.0553734279
 20
137.1616437521
 10
137.0237462884
 20
137.1804776661
 10
136.9925275873
 20
137.197932865
 10
136.961785153
 20
137.2140966265
 10
136.9545125211
 20
137.2177730735
  0
LWPOLYLINE
  5
551
100
AcDbEntity
  8
0
100
AcDbPolyline
 62
253
  6
CONTINUOUS
 90
26
 70
0
 10
140.9271567057
 20
137.0490516554
 10
140.9270781187
 20
137.0491758476
 10
140.9264013587
 20
137.0497999426
 10
140.9253722336
 20
137.0502181226
 10
140.9239921448
 20
137.0504298181
 10
140.9222629717
 20
137.0504347409
 10
140.9201870687
 20
137.0502328843
 10
140.9177672622
 20
137.0498245231
 10
140.9150068468
 20
137.0492102133
 10
140.9119095814
 20
137.0483907913
 10
140.9084796846
 20
137.0473673732
 10
140.9047218284
 20
137.0461413533
 10
140.9006411287
 20
137.0447144007
 10
140.8962431391
 20
137.0430884574
 10
140.8915338451
 20
137.0412657362
 10
140.886519661
 20
137.0392487194
 10
140.8812074181
 20
137.037040155
 10
140.8756043522
 20
137.0346430514
 10
140.869718091
 20
137.032060672
 10
140.8635566476
 20
137.0292965323
 10
140.8571284106
 20
137.0263543955
 10
140.850442134
 20
137.0232382682
 10
140.8435069226
 20
137.0199523937
 10
140.8363322199
 20
137.0165012462
 10
140.8289277953
 20
137.0128895251
 10
140.8213037311
 20
137.0091221481
  0
LWPOLYLINE
  5
552
100
AcDbEntity
  8
0
100
AcDbPolyline
 62
253
  6
CONTINUOUS
 90
31
 70
0
 10
140.8213033668
 20
137.0091227795
 10
140.8076379048
 20
137.03233241
 10
140.7937027993
 20
137.0551157934
 10
140.7795147725
 20
137.0774619471
 10
140.7650866295
 20
137.0993664268
 10
140.7504383107
 20
137.1208139074
 10
140.7355977017
 20
137.1417790332
 10
140.7206193755
 20
137.1622038311
 10
140.7054830869
 20
137.1821347399
 10
140.6900993396
 20
137.201697811
 10
140.674446865
 20
137.2209190895
 10
140.6585673559
 20
137.2397466677
 10
140.6424599731
 20
137.2581820773
 10
140.626130274
 20
137.2762184061
 10
140.6095938976
 20
137.2938378247
 10
140.5928649573
 20
137.3110252727
 10
140.5759570362
 20
137.3277670837
 10
140.5588790023
 20
137.3440547342
 10
140.5416380711
 20
137.3598812406
 10
140.5242380044
 20
137.3752424817
 10
140.5066977697
 20
137.3901209935
 10
140.4890478815
 20
137.4044914919
 10
140.4713726497
 20
137.4182905159
 10
140.4536127438
 20
137.4315698056
 10
140.4355802936
 20
137.4444617669
 10
140.41723443
 20
137.4569747483
 10
140.3986350803
 20
137.4690472473
 10
140.3797427856
 20
137.4806844374
 10
140.3605521414
 20
137.4918652267
 10
140.3410924567
 20
137.5025475362
 10
140.3213773497
 20
137.5126996677
  0
LWPOLYLINE
  5
553
100
AcDbEntity
  8
0
100
AcDbPolyline
 62
7
  6
CONTINUOUS
 90
28
 70
0
 10
140.9271567635
 20
137.0490515533
 10
140.9174988319
 20
137.0654564393
 10
140.9037033025
 20
137.088056689
 10
140.8894977383
 20
137.1103810084
 10
140.8748867841
 20
137.1324169002
 10
140.8598770539
 20
137.1541492937
 10
140.8444766376
 20
137.1755608209
 10
140.8286909249
 20
137.1966378948
 10
140.8125256508
 20
137.2173666699
 10
140.7959886969
 20
137.2377300121
 10
140.7790851975
 20
137.2577145841
 10
140.761820874
 20
137.2773060091
 10
140.7442038379
 20
137.2964868736
 10
140.7262341946
 20
137.3152486546
 10
140.707922018
 20
137.3335714319
 10
140.6892903986
 20
137.3514238166
 10
140.6703402438
 20
137.3687970514
 10
140.6510815989
 20
137.3856730526
 10
140.6315522099
 20
137.4020119481
 10
140.6117582778
 20
137.4178027431
 10
140.5917062583
 20
137.433033889
 10
140.5714353638
 20
137.4476708148
 10
140.5509529476
 20
137.4617042372
 10
140.5302652929
 20
137.4751255353
 10
140.5094107692
 20
137.4879065684
 10
140.4884074332
 20
137.5000345051
 10
140.467254187
 20
137.5115083799
 10
140.4518406939
 20
137.5194079041
  0
LINE
  5
554
100
AcDbEntity
  8
0
100
AcDbLine
 62
253
  6
CONTINUOUS
 10
140.9609158122
 20
136.7683269272
 11
140.8213033654
 21
137.0091227788
  0
LINE
  5
555
100
AcDbEntity
  8
0
100
AcDbLine
 62
7
  6
CONTINUOUS
 10
140.9549556772
 20
137.0011055218
 11
140.9271567057
 21
137.0490516554
  0
LWPOLYLINE
  5
556
100
AcDbEntity
  8
RACCORDO
100
AcDbPolyline
 62
253
  6
CONTINUOUS
 90
7
 70
0
 10
147.5292977011
 20
125.5587357171
 10
147.5393223464
 20
125.5407867278
 10
147.546150769
 20
125.5246571999
 10
147.5496661327
 20
125.510623114
 10
147.5498082886
 20
125.4989245972
 10
147.5465748043
 20
125.4897618143
 10
147.5450400439
 20
125.4876360715
  0
LWPOLYLINE
  5
557
100
AcDbEntity
  8
RACCORDO
100
AcDbPolyline
 62
253
  6
CONTINUOUS
 90
6
 70
0
 10
148.059627787
 20
126.19890076
 10
148.0696524323
 20
126.1809517708
 10
148.0764808549
 20
126.1648222428
 10
148.0799962186
 20
126.1507881569
 10
148.0801383745
 20
126.1390896401
 10
148.0769048902
 20
126.1299268573
  0
LWPOLYLINE
  5
558
100
AcDbEntity
  8
RACCORDO
100
AcDbPolyline
 62
253
  6
CONTINUOUS
 90
13
 70
0
 10
147.5292977011
 20
85.0091315777
 10
147.5393223464
 20
85.0401299105
 10
147.546150769
 20
85.0721102024
 10
147.5496661327
 20
85.1045252617
 10
147.5498082886
 20
85.1368204578
 10
147.5465748043
 20
85.1684432108
 10
147.5400210058
 20
85.1988524468
 10
147.5302590303
 20
85.2275278552
 10
147.5174559079
 20
85.2539787919
 10
147.5018307036
 20
85.2777526741
 10
147.483650769
 20
85.2984427239
 10
147.4632271678
 20
85.3156949289
 10
147.4409093535
 20
85.3292140991
  0
LWPOLYLINE
  5
559
100
AcDbEntity
  8
RACCORDO
100
AcDbPolyline
 62
253
  6
CONTINUOUS
 90
5
 70
0
 10
148.059627787
 20
84.8992966206
 10
148.0695914205
 20
84.9300672934
 10
148.0764173823
 20
84.9618816631
 10
148.079968441
 20
84.9942055106
 10
148.0801608201
 20
85.0265137613
  0
LWPOLYLINE
  5
55A
100
AcDbEntity
  8
RACCORDO
100
AcDbPolyline
 62
7
  6
CONTINUOUS
 90
9
 70
0
 10
144.8204118861
 20
85.4975977783
 10
144.8336517905
 20
85.5255848144
 10
144.8451566962
 20
85.5538084242
 10
144.8548138366
 20
85.581837722
 10
144.8625646924
 20
85.6092547273
 10
144.8683519355
 20
85.6353917889
 10
144.8722582971
 20
85.6597831089
 10
144.8744537188
 20
85.6821867623
 10
144.8751346451
 20
85.7023296292
  0
LINE
  5
55B
100
AcDbEntity
  8
RACCORDO
100
AcDbLine
 62
253
  6
CONTINUOUS
 10
126.5349291874
 20
138.6969360256
 11
126.5451117327
 21
138.69978462
  0
LWPOLYLINE
  5
55C
100
AcDbEntity
  8
RACCORDO
100
AcDbPolyline
 62
253
  6
CONTINUOUS
 90
3
 70
0
 10
126.5451117327
 20
138.69978462
 10
126.5554836339
 20
138.7025903943
 10
126.5607407002
 20
138.7039766932
  0
LWPOLYLINE
  5
55D
100
AcDbEntity
  8
268
100
AcDbPolyline
 62
7
  6
CONTINUOUS
 90
13
 70
0
 10
136.7081974215
 20
137.3051505454
 10
136.6735466115
 20
137.3115802265
 10
136.6383423885
 20
137.3169633793
 10
136.6026225366
 20
137.3213255202
 10
136.5663972197
 20
137.3247194433
 10
136.5297294816
 20
137.327149193
 10
136.4927332717
 20
137.3285604222
 10
136.4554462367
 20
137.3289705571
 10
136.4178952549
 20
137.3284066756
 10
136.380174554
 20
137.3268146874
 10
136.3423351792
 20
137.3241855964
 10
136.304385993
 20
137.3205636152
 10
136.2663565536
 20
137.3159688257
  0
LWPOLYLINE
  5
55E
100
AcDbEntity
  8
268
100
AcDbPolyline
 62
7
  6
CONTINUOUS
 90
18
 70
0
 10
129.4856786826
 20
140.9521677666
 10
129.4661165983
 20
140.9612574997
 10
129.4432208181
 20
140.9702429144
 10
129.4197115318
 20
140.9777451471
 10
129.3955702097
 20
140.983779317
 10
129.3708804564
 20
140.9883251014
 10
129.3456190301
 20
140.9913790848
 10
129.3198091726
 20
140.9929446828
 10
129.2936042137
 20
140.9930118193
 10
129.2670202511
 20
140.9915730434
 10
129.2400411871
 20
140.988635806
 10
129.2127720585
 20
140.9842123848
 10
129.1851978788
 20
140.9782939991
 10
129.1573336346
 20
140.9708894296
 10
129.1293293215
 20
140.962037295
 10
129.1012349383
 20
140.9517504683
 10
129.0730004863
 20
140.9400160766
 10
129.0446259655
 20
140.9268341198
  0
LWPOLYLINE
  5
55F
100
AcDbEntity
  8
RACCORDO
100
AcDbPolyline
 62
7
  6
CONTINUOUS
 90
12
 70
0
 10
143.0506344391
 20
133.5639556535
 10
143.0422350722
 20
133.5679025585
 10
143.0234613458
 20
133.575005235
 10
143.0038381585
 20
133.580126153
 10
142.9833762541
 20
133.5832903772
 10
142.9623366313
 20
133.584457547
 10
142.9407118896
 20
133.5836020804
 10
142.9185094294
 20
133.5807495592
 10
142.896012451
 20
133.5759363685
 10
142.8733153544
 20
133.5691746365
 10
142.8503237395
 20
133.560452235
 10
142.8270376062
 20
133.5497691638
  0
LWPOLYLINE
  5
560
100
AcDbEntity
  8
RACCORDO
100
AcDbPolyline
 62
7
  6
CONTINUOUS
 90
12
 70
0
 10
145.3955362306
 20
132.9215266664
 10
145.3844444196
 20
132.9268526707
 10
145.3475953358
 20
132.9415191217
 10
145.3090582015
 20
132.9523193121
 10
145.2688539021
 20
132.9593010776
 10
145.2274840075
 20
132.962377317
 10
145.1849339155
 20
132.9614991034
 10
145.1412182282
 20
132.9567153637
 10
145.0968823219
 20
132.9480857777
 10
145.0521079886
 20
132.9356302384
 10
145.0067134362
 20
132.9193288528
 10
144.9606986647
 20
132.8991816208
  0
LWPOLYLINE
  5
561
100
AcDbEntity
  8
268
100
AcDbPolyline
 62
7
  6
CONTINUOUS
 90
10
 70
0
 10
136.9545125211
 20
137.2177730735
 10
136.9315328419
 20
137.2289645057
 10
136.9017567976
 20
137.2425409475
 10
136.8724832785
 20
137.2549265642
 10
136.8436932705
 20
137.2661283607
 10
136.8154057879
 20
137.2761393323
 10
136.7877041315
 20
137.2850390767
 10
136.7606160685
 20
137.2928541267
 10
136.7341138318
 20
137.2995579496
 10
136.7081974215
 20
137.3051505454
  0
LINE
  5
562
100
AcDbEntity
  8
0
100
AcDbLine
 62
7
  6
CONTINUOUS
 10
137.2289294679
 20
136.0105434399
 11
137.1451669486
 21
136.0524246996
  0
LINE
  5
563
100
AcDbEntity
  8
RACCORDO
100
AcDbLine
 62
253
  6
CONTINUOUS
 10
142.2211866611
 20
133.8526946363
 11
142.8270376062
 21
133.5497691638
  0
LINE
  5
564
100
AcDbEntity
  8
RACCORDO
100
AcDbLine
 62
253
  6
CONTINUOUS
 10
147.7767850745
 20
131.0748954296
 11
148.3826360196
 21
130.7719699571
  0
LINE
  5
565
100
AcDbEntity
  8
0
100
AcDbLine
 62
7
  6
CONTINUOUS
 10
148.8290984466
 20
130.5987413471
 11
148.7115050272
 21
130.6575380568
  0
LINE
  5
566
100
AcDbEntity
  8
0
100
AcDbLine
 62
7
  6
CONTINUOUS
 10
147.8324100426
 20
131.0970855491
 11
145.655464731
 21
132.185558205
  0
LINE
  5
567
100
AcDbEntity
  8
268
100
AcDbLine
 62
7
  6
CONTINUOUS
 10
129.7455621543
 20
140.1405094933
 11
131.9553030424
 21
139.0356390492
  0
LINE
  5
568
100
AcDbEntity
  8
268
100
AcDbLine
 62
7
  6
CONTINUOUS
 10
132.7008878656
 20
138.6628466377
 11
132.8467012756
 21
138.5899399326
  0
LINE
  5
569
100
AcDbEntity
  8
RACCORDO
100
AcDbLine
 62
7
  6
CONTINUOUS
 10
142.4460751456
 20
133.8662546866
 11
143.050644404
 21
133.5639700574
  0
LINE
  5
56A
100
AcDbEntity
  8
RACCORDO
100
AcDbLine
 62
7
  6
CONTINUOUS
 10
148.0003918723
 20
131.0890963232
 11
148.6049611306
 21
130.7868116941
  0
LINE
  5
56B
100
AcDbEntity
  8
268
100
AcDbLine
 62
7
  6
CONTINUOUS
 10
126.8781044086
 20
141.8374820459
 11
127.0585563858
 21
141.7472560573
  0
LINE
  5
56C
100
AcDbEntity
  8
268
100
AcDbLine
 62
7
  6
CONTINUOUS
 10
132.4325679228
 20
139.0602502888
 11
132.6130198999
 21
138.9700243002
  0
LINE
  5
56D
100
AcDbEntity
  8
0
100
AcDbLine
 62
7
  6
CONTINUOUS
 10
132.1194935602
 20
139.2572516454
 11
133.1536902864
 21
138.7401532822
  0
LINE
  5
56E
100
AcDbEntity
  8
0
100
AcDbLine
 62
7
  6
CONTINUOUS
 10
137.4564938909
 20
136.58875148
 11
137.7358687817
 21
136.4490640346
  0
LINE
  5
56F
100
AcDbEntity
  8
RACCORDO
100
AcDbLine
 62
253
  6
CONTINUOUS
 10
141.7964981499
 20
134.4812818782
 11
144.9606986647
 21
132.8991816208
  0
LINE
  5
570
100
AcDbEntity
  8
RACCORDO
100
AcDbLine
 62
253
  6
CONTINUOUS
 10
149.2033393518
 20
130.7778612772
 11
152.3675398667
 21
129.1957610198
  0
LINE
  5
571
100
AcDbEntity
  8
268
100
AcDbLine
 62
253
  6
CONTINUOUS
 10
126.0655360646
 20
142.4163790702
 11
129.0446259655
 21
140.9268341198
  0
LINE
  5
572
100
AcDbEntity
  8
268
100
AcDbLine
 62
253
  6
CONTINUOUS
 10
133.2872666526
 20
138.8055137762
 11
136.2663565536
 21
137.3159688257
  0
LINE
  5
573
100
AcDbEntity
  8
RACCORDO
100
AcDbLine
 62
7
  6
CONTINUOUS
 10
142.0706642869
 20
134.5839985796
 11
145.3955715453
 21
132.9215449504
  0
LINE
  5
574
100
AcDbEntity
  8
RACCORDO
100
AcDbLine
 62
7
  6
CONTINUOUS
 10
149.6382122324
 20
130.8002246068
 11
152.9631194908
 21
129.1377709776
  0
LINE
  5
575
100
AcDbEntity
  8
268
100
AcDbLine
 62
7
  6
CONTINUOUS
 10
133.7283096557
 20
138.8308632428
 11
136.9547995479
 21
137.2176182967
  0
LINE
  5
576
100
AcDbEntity
  8
DRAFT
100
AcDbLine
 62
7
  6
CONTINUOUS
 10
144.4147231223
 20
141.7474385799
 11
144.3781335238
 21
141.8169805805
  0
LINE
  5
577
100
AcDbEntity
  8
DRAFT
100
AcDbLine
 62
7
  6
CONTINUOUS
 10
145.390299688
 20
140.7420012652
 11
145.4244207676
 21
140.6736935241
  0
LWPOLYLINE
  5
578
100
AcDbEntity
  8
RACCORDO
100
AcDbPolyline
 62
7
  6
CONTINUOUS
 90
4
 70
0
 10
148.1127428484
 20
84.5381377014
 10
148.1237031238
 20
84.5693613697
 10
148.1304610516
 20
84.6018846542
 10
148.1328509334
 20
84.6362303036
  0
LWPOLYLINE
  5
579
100
AcDbEntity
  8
RACCORDO
100
AcDbPolyline
 62
253
  6
CONTINUOUS
 90
7
 70
0
 10
147.4187032477
 20
85.6825885948
 10
147.4174268764
 20
85.6794008817
 10
147.4094307678
 20
85.6663237761
 10
147.39883928
 20
85.6536650925
 10
147.3857373207
 20
85.6415652503
 10
147.3702481477
 20
85.6301560645
 10
147.3525210058
 20
85.6195656578
  0
LWPOLYLINE
  5
57A
100
AcDbEntity
  8
RACCORDO
100
AcDbPolyline
 62
253
  6
CONTINUOUS
 90
6
 70
0
 10
146.6560538345
 20
85.3133194931
 10
146.6559989534
 20
85.3132076407
 10
146.6512153899
 20
85.299320454
 10
146.6478359048
 20
85.2841998542
 10
146.6458954864
 20
85.2680023846
 10
146.6454142246
 20
85.2508957375
  0
LINE
  5
57B
100
AcDbEntity
  8
RACCORDO
100
AcDbLine
 62
253
  6
CONTINUOUS
 10
143.6171408488
 20
89.6492030546
 11
144.6146487505
 21
90.1098852599
  0
LINE
  5
57C
100
AcDbEntity
  8
RACCORDO
100
AcDbLine
 62
7
  6
CONTINUOUS
 10
143.5991349415
 20
89.4303832227
 11
144.5141049442
 21
89.852946691
  0
LWPOLYLINE
  5
57D
100
AcDbEntity
  8
RACCORDO
100
AcDbPolyline
 62
253
  6
CONTINUOUS
 90
4
 70
0
 10
126.5607407002
 20
138.7039766932
 10
126.5713972956
 20
138.7067116784
 10
126.5767968246
 20
138.7080603647
 10
126.5822436874
 20
138.7093949734
  0
LWPOLYLINE
  5
57E
100
AcDbEntity
  8
RACCORDO
100
AcDbPolyline
 62
253
  6
CONTINUOUS
 90
128
 70
0
 10
126.5822436874
 20
138.7093949734
 10
126.5932795654
 20
138.7120219944
 10
126.5988681467
 20
138.7133128009
 10
126.6045039035
 20
138.7145879828
 10
126.6101866357
 20
138.7158474995
 10
126.6159153847
 20
138.7170896417
 10
126.6216903118
 20
138.7183144317
 10
126.6275112556
 20
138.7195218471
 10
126.6333767731
 20
138.7207101115
 10
126.6392866835
 20
138.7218791805
 10
126.6452411676
 20
138.7230290984
 10
126.6512393246
 20
138.7241582223
 10
126.6572813863
 20
138.7252665893
 10
126.6633671209
 20
138.7263541622
 10
126.6694949325
 20
138.727419187
 10
126.6756731393
 20
138.7284628378
 10
126.6818934232
 20
138.7294839404
 10
126.6881292336
 20
138.7304772182
 10
126.6943769985
 20
138.7314417237
 10
126.70064029
 20
138.7323784044
 10
126.7069032736
 20
138.7332848263
 10
126.7131634567
 20
138.7341604283
 10
126.7194233319
 20
138.7350057715
 10
126.7256745431
 20
138.735820105
 10
126.7319159902
 20
138.7366031894
 10
126.7381487732
 20
138.7373552641
 10
126.7443678357
 20
138.7380762969
 10
126.7505728019
 20
138.7387661903
 10
126.7567640477
 20
138.7394250418
 10
126.762937644
 20
138.7400531115
 10
126.7690931969
 20
138.7406503278
 10
126.7752311003
 20
138.7412167623
 10
126.7813486074
 20
138.7417528893
 10
126.7874454423
 20
138.7422586718
 10
126.793521881
 20
138.7427341469
 10
126.7995760036
 20
138.7431799002
 10
126.8056081873
 20
138.7435959416
 10
126.8116180549
 20
138.7439822613
 10
126.817602556
 20
138.7443394149
 10
126.823561499
 20
138.7446673686
 10
126.8294950754
 20
138.7449661562
 10
126.8354008095
 20
138.745236435
 10
126.8412785325
 20
138.7454781838
 10
126.8471284131
 20
138.7456914238
 10
126.852948481
 20
138.7458768757
 10
126.8587388149
 20
138.7460345292
 10
126.8644993362
 20
138.7461643946
 10
126.8702278381
 20
138.7462672236
 10
126.8759243433
 20
138.7463429996
 10
126.8815888293
 20
138.7463917392
 10
126.8872190211
 20
138.746414244
 10
126.8928147934
 20
138.7464104977
 10
126.8983762716
 20
138.7463805167
 10
126.9039015571
 20
138.7463251504
 10
126.9093904575
 20
138.7462443924
 10
126.9148431652
 20
138.7461382493
 10
126.9202583584
 20
138.74600759
 10
126.9256359825
 20
138.7458524121
 10
126.9309760923
 20
138.7456727181
 10
126.9362775304
 20
138.745469384
 10
126.9415405796
 20
138.7452423859
 10
126.9467649572
 20
138.7449917477
 10
126.9519486575
 20
138.7447184177
 10
126.9570914705
 20
138.7444223905
 10
126.9621936063
 20
138.7441036714
 10
126.9672536883
 20
138.7437632251
 10
126.9722715039
 20
138.7434010592
 10
126.9772472657
 20
138.7430171661
 10
126.9821802355
 20
138.7426124879
 10
126.9870703299
 20
138.7421870307
 10
126.9919176321
 20
138.7417407882
 10
126.9967216544
 20
138.7412746842
 10
127.0014823444
 20
138.7407887248
 10
127.0061997544
 20
138.7402829037
 10
127.0108735533
 20
138.7397581263
 10
127.0155036844
 20
138.7392144012
 10
127.0200902044
 20
138.7386517198
 10
127.0246329517
 20
138.7380709616
 10
127.029131847
 20
138.7374721413
 10
127.0335869696
 20
138.7368552442
 10
127.0379983958
 20
138.7362211063
 10
127.0423660741
 20
138.7355697415
 10
127.0466900559
 20
138.7349011358
 10
127.0509705719
 20
138.7342160828
 10
127.0552075847
 20
138.7335145963
 10
127.0594011317
 20
138.7327966624
 10
127.0635515558
 20
138.732063033
 10
127.0676588075
 20
138.7313137263
 10
127.0717229362
 20
138.730548724
 10
127.0757444335
 20
138.7297687237
 10
127.0797232625
 20
138.7289737436
 10
127.0836594601
 20
138.7281637654
 10
127.0875536279
 20
138.7273394316
 10
127.0914057249
 20
138.726500764
 10
127.0952157922
 20
138.7256477408
 10
127.0989845543
 20
138.7247809394
 10
127.1027119693
 20
138.723900385
 10
127.106398079
 20
138.7230060524
 10
127.1100437338
 20
138.7220984433
 10
127.1136489173
 20
138.7211775792
 10
127.1172136459
 20
138.7202434386
 10
127.1207388184
 20
138.719296458
 10
127.1242244346
 20
138.7183366561
 10
127.1276704948
 20
138.7173640142
 10
127.1310778991
 20
138.7163789131
 10
127.1344466376
 20
138.7153813754
 10
127.1377767202
 20
138.7143713785
 10
127.1410690765
 20
138.7133492359
 10
127.1443236993
 20
138.7123149713
 10
127.1475405958
 20
138.711268561
 10
127.150720718
 20
138.7102102476
 10
127.1538640741
 20
138.709140051
 10
127.156970656
 20
138.7080579513
 10
127.1600413913
 20
138.7069641306
 10
127.1630763032
 20
138.7058586035
 10
127.1660753685
 20
138.7047413554
 10
127.1690394455
 20
138.7036125241
 10
127.1719685695
 20
138.7024721189
 10
127.174862705
 20
138.7013201306
 10
127.1777226038
 20
138.7001566696
 10
127.1805482914
 20
138.6989817462
 10
127.1833397421
 20
138.6977953501
 10
127.1860976307
 20
138.6965975606
 10
127.1888219696
 20
138.6953883959
 10
127.1915127464
 20
138.6941678377
 10
127.194170598
 20
138.6929359109
 10
127.1967957369
 20
138.6916926235
 10
127.1993879508
 20
138.6904379674
  0
LINE
  5
57F
100
AcDbEntity
  8
268
100
AcDbLine
 62
7
  6
CONTINUOUS
 10
128.3856302142
 20
140.0667613059
 11
129.7455621543
 21
140.1405094933
  0
LWPOLYLINE
  5
580
100
AcDbEntity
  8
0
100
AcDbPolyline
 62
7
  6
CONTINUOUS
 90
37
 70
0
 10
138.9555352912
 20
138.2675498163
 10
138.9489780789
 20
138.2707109201
 10
138.9423560212
 20
138.273773826
 10
138.9356739061
 20
138.2767420156
 10
138.9289337426
 20
138.2796147486
 10
138.9221375148
 20
138.2823910754
 10
138.9152898103
 20
138.2850741079
 10
138.9083924821
 20
138.2876632139
 10
138.9014474183
 20
138.2901575771
 10
138.8944591262
 20
138.2925599832
 10
138.8874293324
 20
138.2948698965
 10
138.8803598339
 20
138.2970866265
 10
138.8732551385
 20
138.2992126853
 10
138.8661168786
 20
138.3012476267
 10
138.8589467559
 20
138.303190883
 10
138.8517492973
 20
138.3050447544
 10
138.844526007
 20
138.3068088955
 10
138.837278546
 20
138.3084828428
 10
138.8300116104
 20
138.3100687067
 10
138.8227266201
 20
138.3115662376
 10
138.8154251693
 20
138.3129750873
 10
138.8081121652
 20
138.3142972278
 10
138.8007889413
 20
138.3155325142
 10
138.7934570387
 20
138.316680715
 10
138.7861216353
 20
138.3177437081
 10
138.778783985
 20
138.3187214625
 10
138.7714455754
 20
138.3196138705
 10
138.7641119017
 20
138.3204227617
 10
138.7567841449
 20
138.3211482301
 10
138.7494637331
 20
138.3217903025
 10
138.7421565028
 20
138.3223508065
 10
138.7348635696
 20
138.3228299748
 10
138.7275862899
 20
138.3232279799
 10
138.7203308323
 20
138.3235466943
 10
138.7131000296
 20
138.3237870046
 10
138.705893374
 20
138.323948755
 10
138.6987119871
 20
138.3240323556
  0
LWPOLYLINE
  5
581
100
AcDbEntity
  8
0
100
AcDbPolyline
 62
7
  6
CONTINUOUS
 90
37
 70
0
 10
135.844265454
 20
139.8231847349
 10
135.8377082417
 20
139.8263458387
 10
135.8310861839
 20
139.8294087446
 10
135.8244040689
 20
139.8323769342
 10
135.8176639053
 20
139.8352496672
 10
135.8108676776
 20
139.838025994
 10
135.8040199731
 20
139.8407090265
 10
135.7971226449
 20
139.8432981325
 10
135.7901775811
 20
139.8457924957
 10
135.783189289
 20
139.8481949018
 10
135.7761594952
 20
139.8505048151
 10
135.7690899967
 20
139.8527215451
 10
135.7619853013
 20
139.8548476039
 10
135.7548470414
 20
139.8568825453
 10
135.7476769187
 20
139.8588258016
 10
135.7404794601
 20
139.860679673
 10
135.7332561698
 20
139.8624438141
 10
135.7260087088
 20
139.8641177614
 10
135.7187417732
 20
139.8657036253
 10
135.7114567829
 20
139.8672011562
 10
135.7041553321
 20
139.8686100059
 10
135.6968423279
 20
139.8699321464
 10
135.6895191041
 20
139.8711674329
 10
135.6821872015
 20
139.8723156336
 10
135.6748517981
 20
139.8733786267
 10
135.6675141478
 20
139.8743563811
 10
135.6601757382
 20
139.8752487891
 10
135.6528420645
 20
139.8760576803
 10
135.6455143077
 20
139.8767831487
 10
135.6381938959
 20
139.8774252211
 10
135.6308866656
 20
139.8779857251
 10
135.6235937324
 20
139.8784648934
 10
135.6163164526
 20
139.8788628985
 10
135.6090609951
 20
139.8791816129
 10
135.6018301924
 20
139.8794219232
 10
135.5946235368
 20
139.8795836737
 10
135.5874421499
 20
139.8796672742
  0
LWPOLYLINE
  5
582
100
AcDbEntity
  8
0
100
AcDbPolyline
 62
253
  6
CONTINUOUS
 90
20
 70
0
 10
149.3483397686
 20
134.4411373148
 10
149.3464312277
 20
134.442069156
 10
149.3401368619
 20
134.4448367425
 10
149.3336663179
 20
134.4472238388
 10
149.3270286487
 20
134.4492271063
 10
149.3202331455
 20
134.4508437427
 10
149.3132893075
 20
134.4520714901
 10
149.3062068292
 20
134.452908634
 10
149.2989955886
 20
134.4533540027
 10
149.2916656983
 20
134.4534069674
 10
149.2842274779
 20
134.4530674571
 10
149.2766913749
 20
134.4523359605
 10
149.2690678914
 20
134.4512135087
 10
149.2613676348
 20
134.4497016677
 10
149.2536008502
 20
134.4478024114
 10
149.2457789179
 20
134.4455184852
 10
149.2379143136
 20
134.4428536395
 10
149.2300185699
 20
134.4398120317
 10
149.2221022289
 20
134.4363979711
 10
149.2141763596
 20
134.4326164438
  0
LINE
  5
583
100
AcDbEntity
  8
0
100
AcDbLine
 62
7
  6
CONTINUOUS
 10
148.6530675191
 20
134.7887733357
 11
148.6534013694
 21
134.7886065135
  0
LINE
  5
584
100
AcDbEntity
  8
0
100
AcDbLine
 62
253
  6
CONTINUOUS
 10
140.3213773564
 20
137.512699671
 11
138.6987119871
 21
138.3240323556
  0
LINE
  5
585
100
AcDbEntity
  8
0
100
AcDbLine
 62
253
  6
CONTINUOUS
 10
137.6996688207
 20
138.8235539388
 11
135.5874421499
 21
139.8796672742
  0
LINE
  5
586
100
AcDbEntity
  8
0
100
AcDbLine
 62
7
  6
CONTINUOUS
 10
140.4518417477
 20
137.5194074063
 11
138.9555352912
 21
138.2675498163
  0
LINE
  5
587
100
AcDbEntity
  8
0
100
AcDbLine
 62
7
  6
CONTINUOUS
 10
137.7011531487
 20
138.8947517058
 11
135.844265454
 21
139.8231847349
  0
LINE
  5
588
100
AcDbEntity
  8
RACCORDO
100
AcDbLine
 62
253
  6
CONTINUOUS
 10
142.0010937372
 20
137.5004797103
 11
140.5798298517
 21
138.211111653
  0
LINE
  5
589
100
AcDbEntity
  8
RACCORDO
100
AcDbLine
 62
253
  6
CONTINUOUS
 10
138.4868108322
 20
139.2576211628
 11
137.4685600145
 21
139.7667465716
  0
LINE
  5
58A
100
AcDbEntity
  8
RACCORDO
100
AcDbLine
 62
253
  6
CONTINUOUS
 10
142.1150817652
 20
137.549736074
 11
140.6647996787
 21
138.2748771173
  0
LINE
  5
58B
100
AcDbEntity
  8
RACCORDO
100
AcDbLine
 62
253
  6
CONTINUOUS
 10
138.597277371
 20
139.3086382711
 11
137.5535298415
 21
139.8305120359
  0
LWPOLYLINE
  5
58C
100
AcDbEntity
  8
0
100
AcDbPolyline
 62
7
  6
CONTINUOUS
 90
32
 70
0
 10
148.6534981468
 20
134.7885581257
 10
149.3496964588
 20
134.4404546758
 10
149.3594574315
 20
134.4352843646
 10
149.3690226233
 20
134.429757523
 10
149.3783903397
 20
134.4238740905
 10
149.387551258
 20
134.4176376294
 10
149.3964871884
 20
134.4110581914
 10
149.4051828911
 20
134.4041451685
 10
149.4136240106
 20
134.3969084311
 10
149.4217996224
 20
134.3893557708
 10
149.4296999853
 20
134.3814941522
 10
149.4373132619
 20
134.373332943
 10
149.4446272778
 20
134.3648826998
 10
149.4516318471
 20
134.3561524658
 10
149.4583163021
 20
134.3471524159
 10
149.4646690679
 20
134.3378948702
 10
149.4706790958
 20
134.328392711
 10
149.476335789
 20
134.3186595463
 10
149.4816303421
 20
134.3087071937
 10
149.4865548832
 20
134.2985464061
 10
149.491101221
 20
134.2881891551
 10
149.4952601968
 20
134.2776509729
 10
149.4990231966
 20
134.2669485032
 10
149.5023830707
 20
134.2560968272
 10
149.5053333961
 20
134.2451108288
 10
149.5078679026
 20
134.2340074958
 10
149.5099812826
 20
134.2228032975
 10
149.5116691178
 20
134.2115135874
 10
149.5129274863
 20
134.2001541022
 10
149.5137531561
 20
134.1887381362
 10
149.5141429559
 20
134.1772855518
 10
149.5141763596
 20
134.1728070595
  0
LWPOLYLINE
  5
58D
100
AcDbEntity
  8
0
100
AcDbPolyline
 62
253
  6
CONTINUOUS
 90
43
 70
0
 10
148.47203008
 20
134.8036895836
 10
149.2222454519
 20
134.4285386456
 10
149.2303032588
 20
134.4241031862
 10
149.2383385108
 20
134.4193162689
 10
149.2463399698
 20
134.4141845886
 10
149.2542964451
 20
134.4087153225
 10
149.2621968089
 20
134.4029161199
 10
149.2700300117
 20
134.3967950913
 10
149.2777850981
 20
134.3903607978
 10
149.285451222
 20
134.3836222381
 10
149.2930176615
 20
134.3765888368
 10
149.3004738343
 20
134.3692704307
 10
149.3078093123
 20
134.3616772552
 10
149.3150138361
 20
134.3538199303
 10
149.3220773297
 20
134.3457094449
 10
149.3289899139
 20
134.3373571423
 10
149.335741921
 20
134.328774704
 10
149.3423239077
 20
134.3199741334
 10
149.3487266685
 20
134.3109677388
 10
149.3549412485
 20
134.3017681164
 10
149.360958956
 20
134.2923881328
 10
149.3667713749
 20
134.2828409067
 10
149.3723703757
 20
134.2731397908
 10
149.377748128
 20
134.263298353
 10
149.3828971104
 20
134.2533303573
 10
149.3878101215
 20
134.243249745
 10
149.3924802901
 20
134.2330706148
 10
149.3969010845
 20
134.2228072029
 10
149.4010663219
 20
134.2124738638
 10
149.4049701768
 20
134.2020850496
 10
149.4086071893
 20
134.1916552899
 10
149.4119722727
 20
134.1811991717
 10
149.4150607206
 20
134.1707313189
 10
149.4178682135
 20
134.1602663716
 10
149.420390825
 20
134.1498189661
 10
149.4226250269
 20
134.139403714
 10
149.4245676945
 20
134.1290351819
 10
149.4262161108
 20
134.1187278713
 10
149.4275679703
 20
134.1084961977
 10
149.4286213824
 20
134.0983544712
 10
149.4293748737
 20
134.0883168758
 10
149.4298273905
 20
134.07839745
 10
149.4299782997
 20
134.0686100671
  0
LWPOLYLINE
  5
58E
100
AcDbEntity
  8
0
100
AcDbPolyline
 62
253
  6
CONTINUOUS
 90
26
 70
0
 10
148.0795345154
 20
138.2132861082
 10
148.0794819978
 20
138.2133714097
 10
148.0788221325
 20
138.2140075953
 10
148.0778082826
 20
138.2144369903
 10
148.0764418347
 20
138.2146590075
 10
148.0747246576
 20
138.2146733433
 10
148.0726590999
 20
138.214479978
 10
148.0702479867
 20
138.2140791761
 10
148.0674946155
 20
138.2134714857
 10
148.0644027522
 20
138.2126577381
 10
148.0609766255
 20
138.2116390461
 10
148.0572209211
 20
138.210416803
 10
148.0531407758
 20
138.2089926804
 10
148.0487417699
 20
138.2073686261
 10
148.0440299198
 20
138.2055468614
 10
148.03901167
 20
138.2035298777
 10
148.0336938837
 20
138.2013204337
 10
148.028083834
 20
138.1989215512
 10
148.0221891938
 20
138.1963365112
 10
148.0160180251
 20
138.1935688492
 10
148.0095787681
 20
138.1906223504
 10
148.0028802296
 20
138.1875010448
 10
147.9959315712
 20
138.1842092013
 10
147.9887422965
 20
138.1807513221
 10
147.9813222382
 20
138.1771321366
 10
147.9736815445
 20
138.1733565946
  0
LWPOLYLINE
  5
58F
100
AcDbEntity
  8
0
100
AcDbPolyline
 62
7
  6
CONTINUOUS
 90
25
 70
0
 10
147.2140714511
 20
139.7059917647
 10
147.2127550677
 20
139.7081790419
 10
147.2109931035
 20
139.7108695344
 10
147.2091546645
 20
139.713419045
 10
147.2072320419
 20
139.715822024
 10
147.2052279672
 20
139.7180749881
 10
147.2031446296
 20
139.7201742187
 10
147.200973704
 20
139.7221132955
 10
147.1987182494
 20
139.7238885244
 10
147.1963807874
 20
139.7254959485
 10
147.1939524292
 20
139.7269282257
 10
147.1914365623
 20
139.7281814713
 10
147.1888361314
 20
139.7292515134
 10
147.1861418635
 20
139.7301300769
 10
147.1833574728
 20
139.7308131106
 10
147.18048641
 20
139.7312963142
 10
147.1775193151
 20
139.7315706151
 10
147.1744602013
 20
139.7316318508
 10
147.1713131066
 20
139.7314757304
 10
147.1680690152
 20
139.7310927122
 10
147.16473219
 20
139.7304786188
 10
147.1613073096
 20
139.7296293642
 10
147.1577862474
 20
139.7285354891
 10
147.1541734502
 20
139.7271929535
 10
147.1523054721
 20
139.7264148559
  0
LINE
  5
590
100
AcDbEntity
  8
0
100
AcDbLine
 62
253
  6
CONTINUOUS
 10
147.9736799593
 20
138.1733593286
 11
147.2201253831
 21
139.4730487192
  0
LINE
  5
591
100
AcDbEntity
  8
0
100
AcDbLine
 62
7
  6
CONTINUOUS
 10
147.2141029388
 20
139.7059347815
 11
148.0795345191
 21
138.2132861018
  0
LWPOLYLINE
  5
592
100
AcDbEntity
  8
0
100
AcDbPolyline
 62
253
  6
CONTINUOUS
 90
37
 70
0
 10
147.9736799558
 20
138.1733593268
 10
147.9952869753
 20
138.1355811161
 10
148.0164058885
 20
138.097475765
 10
148.0370265846
 20
138.0590613766
 10
148.0571390379
 20
138.0203563452
 10
148.0767337895
 20
137.9813789209
 10
148.0958019279
 20
137.9421471885
 10
148.1143344333
 20
137.902679569
 10
148.1323223076
 20
137.8629950215
 10
148.1497570446
 20
137.8231126016
 10
148.1666302958
 20
137.7830513297
 10
148.182934006
 20
137.7428301791
 10
148.1986605201
 20
137.7024682667
 10
148.2138023391
 20
137.6619847883
 10
148.2283522182
 20
137.6213989831
 10
148.2423033027
 20
137.5807301228
 10
148.2556489601
 20
137.5399975272
 10
148.2683828021
 20
137.4992205905
 10
148.2804987776
 20
137.4584187443
 10
148.2919911346
 20
137.4176114077
 10
148.3028543925
 20
137.3768179903
 10
148.3130833617
 20
137.3360579172
 10
148.3226731979
 20
137.2953506237
 10
148.3316193492
 20
137.2547154507
 10
148.3399175269
 20
137.2141716481
 10
148.3475638236
 20
137.1737385281
 10
148.3545546174
 20
137.1334353376
 10
148.3608865141
 20
137.0932811538
 10
148.366556562
 20
137.0532950518
 10
148.3715620809
 20
137.0134961355
 10
148.3759005669
 20
136.9739034089
 10
148.3795700089
 20
136.9345359813
 10
148.3825687383
 20
136.8954123695
 10
148.3848952256
 20
136.8565505408
 10
148.3865483461
 20
136.8179688081
 10
148.3875274142
 20
136.7796858092
 10
148.3878320161
 20
136.7417198149
  0
LINE
  5
593
100
AcDbEntity
  8
DRAFT
100
AcDbLine
 62
7
  6
CONTINUOUS
 10
144.6975658348
 20
141.8888599362
 11
144.6609762362
 21
141.9584019368
  0
LINE
  5
594
100
AcDbEntity
  8
DRAFT
100
AcDbLine
 62
7
  6
CONTINUOUS
 10
144.9804085473
 20
142.0302812924
 11
144.9438189487
 21
142.099823293
  0
LINE
  5
595
100
AcDbEntity
  8
DRAFT
100
AcDbLine
 62
7
  6
CONTINUOUS
 10
145.2632512597
 20
142.1717026486
 11
145.2266616612
 21
142.2412446492
  0
LINE
  5
596
100
AcDbEntity
  8
DRAFT
100
AcDbLine
 62
7
  6
CONTINUOUS
 10
145.5460939722
 20
142.3131240049
 11
145.5095043737
 21
142.3826660055
  0
LINE
  5
597
100
AcDbEntity
  8
DRAFT
100
AcDbLine
 62
7
  6
CONTINUOUS
 10
145.8289366847
 20
142.4545453611
 11
145.7923470861
 21
142.5240873617
  0
LINE
  5
598
100
AcDbEntity
  8
DRAFT
100
AcDbLine
 62
7
  6
CONTINUOUS
 10
147.5259929595
 20
140.1918036613
 11
147.489403361
 21
140.2613456619
  0
LINE
  5
599
100
AcDbEntity
  8
DRAFT
100
AcDbLine
 62
7
  6
CONTINUOUS
 10
147.808835672
 20
140.3332250176
 11
147.7722460735
 21
140.4027670181
  0
LINE
  5
59A
100
AcDbEntity
  8
DRAFT
100
AcDbLine
 62
7
  6
CONTINUOUS
 10
145.6731424005
 20
140.8834226215
 11
145.7072634801
 21
140.8151148804
  0
LINE
  5
59B
100
AcDbEntity
  8
DRAFT
100
AcDbLine
 62
7
  6
CONTINUOUS
 10
148.7844122377
 20
139.3277877029
 11
148.8185333173
 21
139.2594799618
  0
LWPOLYLINE
  5
59C
100
AcDbEntity
  8
RACCORDO
100
AcDbPolyline
 62
253
  6
CONTINUOUS
 90
10
 70
0
 10
144.8599696021
 20
85.3822471077
 10
144.8771449769
 20
85.4046700296
 10
144.8928927834
 20
85.4287276855
 10
144.9070000596
 20
85.4540947367
 10
144.9192760287
 20
85.4804281374
 10
144.9295546795
 20
85.5073717736
 10
144.9376970106
 20
85.5345612788
 10
144.9435929111
 20
85.5616289616
 10
144.947162649
 20
85.588208778
 10
144.9483579498
 20
85.6139412816
  0
LWPOLYLINE
  5
59D
100
AcDbEntity
  8
RACCORDO
100
AcDbPolyline
 62
253
  6
CONTINUOUS
 90
10
 70
0
 10
146.2034724864
 20
84.7104956656
 10
146.2206478611
 20
84.7329185875
 10
146.2363956677
 20
84.7569762433
 10
146.2505029438
 20
84.7823432945
 10
146.262778913
 20
84.8086766953
 10
146.2730575637
 20
84.8356203315
 10
146.2811998948
 20
84.8628098366
 10
146.2870957953
 20
84.8898775194
 10
146.2906655333
 20
84.9164573358
 10
146.291860834
 20
84.9421898394
  0
LWPOLYLINE
  5
59E
100
AcDbEntity
  8
RACCORDO
100
AcDbPolyline
 62
253
  6
CONTINUOUS
 90
13
 70
0
 10
146.4686375293
 20
84.4788014918
 10
146.4950159618
 20
84.5127113427
 10
146.5194662973
 20
84.5479265986
 10
146.5419885358
 20
84.5844472592
 10
146.5627068539
 20
84.6225450253
 10
146.5814970749
 20
84.6619481962
 10
146.5979866693
 20
84.7018416704
 10
146.6121422674
 20
84.7422381491
 10
146.6239972389
 20
84.7831249311
 10
146.6332791625
 20
84.8236488116
 10
146.6398972311
 20
84.8635253891
 10
146.6439422518
 20
84.903039065
 10
146.6454142246
 20
84.9421898394
  0
LWPOLYLINE
  5
59F
100
AcDbEntity
  8
RACCORDO
100
AcDbPolyline
 62
7
  6
CONTINUOUS
 90
5
 70
0
 10
144.7558389117
 20
85.3984292747
 10
144.7731862841
 20
85.4206518268
 10
144.7899183596
 20
85.4447770857
 10
144.8057370885
 20
85.4705109842
 10
144.8204118861
 20
85.4975977783
  0
LINE
  5
5A0
100
AcDbEntity
  8
RACCORDO
100
AcDbLine
 62
7
  6
CONTINUOUS
 10
144.2255088258
 20
84.7582642318
 11
144.7558389117
 21
85.3984292747
  0
LINE
  5
5A1
100
AcDbEntity
  8
RACCORDO
100
AcDbLine
 62
253
  6
CONTINUOUS
 10
144.3296395162
 20
84.7420820648
 11
144.8599696021
 21
85.3822471077
  0
LINE
  5
5A2
100
AcDbEntity
  8
RACCORDO
100
AcDbLine
 62
253
  6
CONTINUOUS
 10
146.2034724864
 20
84.7104956656
 11
145.6731424005
 21
84.0703306227
  0
LINE
  5
5A3
100
AcDbEntity
  8
RACCORDO
100
AcDbLine
 62
253
  6
CONTINUOUS
 10
146.4686375293
 20
84.4788014918
 11
145.9383074434
 21
83.8386364488
  0
LWPOLYLINE
  5
5A4
100
AcDbEntity
  8
RACCORDO
100
AcDbPolyline
 62
253
  6
CONTINUOUS
 90
8
 70
0
 10
144.2255063657
 20
84.7582612616
 10
144.2304477408
 20
84.7625587467
 10
144.2401983167
 20
84.7662575749
 10
144.2530019836
 20
84.7670809305
 10
144.2686382354
 20
84.7650148429
 10
144.2868380526
 20
84.7600952227
 10
144.3072889062
 20
84.7524068624
 10
144.3296395162
 20
84.7420820648
  0
LWPOLYLINE
  5
5A5
100
AcDbEntity
  8
RACCORDO
100
AcDbPolyline
 62
253
  6
CONTINUOUS
 90
8
 70
0
 10
144.7558389117
 20
85.3984292747
 10
144.7608579498
 20
85.402773803
 10
144.7706199253
 20
85.4064408543
 10
144.7834230477
 20
85.4072419414
 10
144.799048252
 20
85.4051633575
 10
144.8172281866
 20
85.4002406679
 10
144.8376517878
 20
85.392558101
 10
144.8599696021
 20
85.3822471077
  0
LINE
  5
5A6
100
AcDbEntity
  8
DRAFT
100
AcDbLine
 62
7
  6
CONTINUOUS
 10
148.5899578729
 20
89.4118350392
 11
153.5223454106
 21
91.9656534466
  0
LINE
  5
5A7
100
AcDbEntity
  8
DRAFT
100
AcDbLine
 62
7
  6
CONTINUOUS
 10
148.5899578729
 20
90.1962738439
 11
152.7885679556
 21
92.3325421741
  0
LINE
  5
5A8
100
AcDbEntity
  8
RACCORDO
100
AcDbLine
 62
7
  6
CONTINUOUS
 10
148.5899578729
 20
88.7973251851
 11
152.3675398667
 21
90.700681163
  0
LINE
  5
5A9
100
AcDbEntity
  8
RACCORDO
100
AcDbLine
 62
7
  6
CONTINUOUS
 10
148.5899578729
 20
88.9349748674
 11
153.4788771784
 21
91.3599148845
  0
LWPOLYLINE
  5
5AA
100
AcDbEntity
  8
0
100
AcDbPolyline
 62
7
  6
CONTINUOUS
 90
102
 70
0
 10
148.7251389718
 20
136.4225544344
 10
148.7410165808
 20
136.4094753396
 10
148.7842650148
 20
136.3726091157
 10
148.8271942575
 20
136.3347670885
 10
148.869748464
 20
136.2960017276
 10
148.9118910928
 20
136.256352074
 10
148.9536264348
 20
136.2158197456
 10
148.9949600979
 20
136.1744029314
 10
149.0358860838
 20
136.1321096615
 10
149.0763771712
 20
136.0889699778
 10
149.116406781
 20
136.0450150153
 10
149.1559556473
 20
136.0002693305
 10
149.1950115795
 20
135.9547500286
 10
149.2335589846
 20
135.9084783381
 10
149.2715795556
 20
135.861479367
 10
149.3090611933
 20
135.8137711221
 10
149.3459973708
 20
135.7653642353
 10
149.3823786146
 20
135.7162725391
 10
149.4181841149
 20
135.6665254317
 10
149.4533905545
 20
135.6161574044
 10
149.4879777519
 20
135.5652002706
 10
149.5219380784
 20
135.5136681385
 10
149.5552671989
 20
135.4615693333
 10
149.5879554992
 20
135.4089195707
 10
149.6199847072
 20
135.355748858
 10
149.651337498
 20
135.3020870434
 10
149.6819990204
 20
135.2479609818
 10
149.7119584075
 20
135.1933911961
 10
149.7412047815
 20
135.1383984382
 10
149.7697256201
 20
135.0830069459
 10
149.7975089634
 20
135.0272405199
 10
149.8245448834
 20
134.9711193224
 10
149.8508219262
 20
134.9146669907
 10
149.8763283294
 20
134.8579085043
 10
149.9010538681
 20
134.8008660779
 10
149.9249885819
 20
134.743561715
 10
149.9481206427
 20
134.6860225634
 10
149.970437603
 20
134.6282786567
 10
149.9919270661
 20
134.57036166
 10
150.0125820991
 20
134.5122896439
 10
150.0323984967
 20
134.4540721669
 10
150.0513699454
 20
134.3957234627
 10
150.0694833636
 20
134.3372790346
 10
150.086724944
 20
134.2787802243
 10
150.1030836217
 20
134.2202630706
 10
150.1185549808
 20
134.1617415212
 10
150.1331356653
 20
134.1032236226
 10
150.1468194301
 20
134.0447269681
 10
150.1595967677
 20
133.9862838955
 10
150.1714593964
 20
133.9279243054
 10
150.1824008626
 20
133.8696713016
 10
150.1924143206
 20
133.8115514999
 10
150.2014921295
 20
133.7535995872
 10
150.2096272771
 20
133.695852456
 10
150.2168167325
 20
133.6383221945
 10
150.2230584648
 20
133.581006041
 10
150.2283489742
 20
133.5239010668
 10
150.2326794513
 20
133.4670597973
 10
150.2360418351
 20
133.4105615773
 10
150.2384328319
 20
133.3544635521
 10
150.239852913
 20
133.2987547575
 10
150.2403004882
 20
133.2434116572
 10
150.2397712489
 20
133.1884277086
 10
150.2382611998
 20
133.1338576129
 10
150.2357695634
 20
133.0797689134
 10
150.2322967969
 20
133.0261973602
 10
150.2278421213
 20
132.9731513818
 10
150.2224058158
 20
132.9206554692
 10
150.2159883038
 20
132.8687315034
 10
150.2085901966
 20
132.8174005969
 10
150.2002125926
 20
132.7666851536
 10
150.1908519661
 20
132.71658224
 10
150.1805135635
 20
132.6671372108
 10
150.1692162613
 20
132.6184411911
 10
150.1569757963
 20
132.5705472483
 10
150.1437904705
 20
132.5234356737
 10
150.1296552203
 20
132.4770864221
 10
150.1145609991
 20
132.4314782325
 10
150.0985246628
 20
132.3866703506
 10
150.081583215
 20
132.3427604779
 10
150.0637599367
 20
132.2997916721
 10
150.0450542143
 20
132.2577463705
 10
150.0254720468
 20
132.2166271613
 10
150.0050195645
 20
132.176438712
 10
149.9837119677
 20
132.1372032457
 10
149.9615698165
 20
132.0989491028
 10
149.9385994994
 20
132.0616778419
 10
149.9148202026
 20
132.0254115838
 10
149.8902766982
 20
131.9902049224
 10
149.8650096498
 20
131.9560960845
 10
149.839014594
 20
131.9230596531
 10
149.812269069
 20
131.8910554927
 10
149.7847696401
 20
131.8600744296
 10
149.7565490362
 20
131.8301483757
 10
149.7276377871
 20
131.8013016788
 10
149.6980628813
 20
131.7735512364
 10
149.6678335852
 20
131.7468958717
 10
149.6369552285
 20
131.72133239
 10
149.6054464445
 20
131.6968693953
 10
149.5733256732
 20
131.673514397
 10
149.5405972595
 20
131.6512648195
 10
149.5141763596
 20
131.6345037643
  0
LWPOLYLINE
  5
5AB
100
AcDbEntity
  8
0
100
AcDbPolyline
 62
253
  6
CONTINUOUS
 90
102
 70
0
 10
148.6874237185
 20
136.3758843052
 10
148.6988239447
 20
136.3661424665
 10
148.7409113065
 20
136.32898957
 10
148.7827113464
 20
136.2908947588
 10
148.8242053997
 20
136.2518750429
 10
148.8653749381
 20
136.2119478459
 10
148.9062015784
 20
136.1711309963
 10
148.9466670905
 20
136.1294427198
 10
148.9867534053
 20
136.0869016313
 10
149.0264426234
 20
136.0435267267
 10
149.0657170223
 20
135.9993373738
 10
149.1045590651
 20
135.9543533045
 10
149.1429514078
 20
135.9085946052
 10
149.1808769072
 20
135.8620817085
 10
149.2183186286
 20
135.8148353836
 10
149.2552598532
 20
135.7668767272
 10
149.2916840857
 20
135.7182271541
 10
149.327575062
 20
135.6689083877
 10
149.3629167556
 20
135.61894245
 10
149.3976933855
 20
135.5683516521
 10
149.4318894232
 20
135.5171585843
 10
149.4654895991
 20
135.4653861054
 10
149.4984789099
 20
135.4130573334
 10
149.530842625
 20
135.3601956344
 10
149.5625662932
 20
135.3068246125
 10
149.593635749
 20
135.2529680992
 10
149.624037119
 20
135.198650143
 10
149.6537568283
 20
135.1438949982
 10
149.6827816063
 20
135.0887271145
 10
149.7110984925
 20
135.0331711257
 10
149.7386948428
 20
134.9772518391
 10
149.7655583347
 20
134.9209942241
 10
149.7916769729
 20
134.8644234012
 10
149.8170390947
 20
134.8075646308
 10
149.8416333754
 20
134.7504433017
 10
149.8654488328
 20
134.6930849202
 10
149.8884748329
 20
134.6355150984
 10
149.9107010938
 20
134.5777595425
 10
149.9321176909
 20
134.5198440421
 10
149.9527150613
 20
134.4617944579
 10
149.9724840075
 20
134.4036367106
 10
149.9914157023
 20
134.3453967691
 10
150.0095016922
 20
134.2871006391
 10
150.0267339013
 20
134.2287743514
 10
150.0431046349
 20
134.1704439502
 10
150.0586065831
 20
134.1121354815
 10
150.0732328239
 20
134.0538749817
 10
150.0869768262
 20
133.9956884654
 10
150.099832453
 20
133.9376019147
 10
150.111793964
 20
133.8796412665
 10
150.1228560179
 20
133.821832402
 10
150.1330136754
 20
133.7642011343
 10
150.1422624007
 20
133.7067731971
 10
150.1505980641
 20
133.6495742337
 10
150.1580169433
 20
133.5926297849
 10
150.1645157259
 20
133.5359652779
 10
150.1700915097
 20
133.4796060148
 10
150.1747418052
 20
133.4235771616
 10
150.1784645358
 20
133.3679037366
 10
150.1812580392
 20
133.3126105994
 10
150.1831210681
 20
133.2577224399
 10
150.1840527906
 20
133.2032637672
 10
150.1840527906
 20
133.1492588984
 10
150.1831210681
 20
133.0957319481
 10
150.1812580392
 20
133.0427068176
 10
150.1784645358
 20
132.9902071838
 10
150.1747418052
 20
132.9382564894
 10
150.1700915097
 20
132.8868779317
 10
150.1645157258
 20
132.8360944524
 10
150.1580169433
 20
132.7859287279
 10
150.150598064
 20
132.7364031584
 10
150.1422624007
 20
132.6875398583
 10
150.1330136754
 20
132.6393606465
 10
150.1228560179
 20
132.5918870362
 10
150.111793964
 20
132.5451402257
 10
150.099832453
 20
132.4991410885
 10
150.0869768262
 20
132.4539101646
 10
150.0732328238
 20
132.4094676507
 10
150.0586065831
 20
132.3658333916
 10
150.0431046349
 20
132.3230268711
 10
150.0267339012
 20
132.2810672035
 10
150.0095016922
 20
132.2399731249
 10
149.9914157023
 20
132.1997629848
 10
149.9724840075
 20
132.1604547381
 10
149.9527150612
 20
132.122065937
 10
149.9321176909
 20
132.0846137232
 10
149.9107010937
 20
132.0481148199
 10
149.8884748328
 20
132.012585525
 10
149.8654488328
 20
131.9780417032
 10
149.8416333753
 20
131.9444987791
 10
149.8170390947
 20
131.9119717307
 10
149.7916769728
 20
131.8804750821
 10
149.7655583346
 20
131.8500228974
 10
149.7386948428
 20
131.8206287743
 10
149.7110984925
 20
131.792305838
 10
149.6827816062
 20
131.7650667355
 10
149.6537568283
 20
131.7389236297
 10
149.624037119
 20
131.7138881942
 10
149.5936357489
 20
131.689971608
 10
149.5625662932
 20
131.6671845506
 10
149.530842625
 20
131.6455371968
 10
149.5141763596
 20
131.6349813988
  0
LWPOLYLINE
  5
5AC
100
AcDbEntity
  8
0
100
AcDbPolyline
 62
253
  6
CONTINUOUS
 90
32
 70
0
 10
148.4506543882
 20
139.5366887018
 10
148.4470800706
 20
139.5425462403
 10
148.4422627655
 20
139.5495965862
 10
148.4371454311
 20
139.556208877
 10
148.4317425894
 20
139.5623762294
 10
148.4260634947
 20
139.5681014324
 10
148.4201165897
 20
139.5733894657
 10
148.4139159278
 20
139.5782372434
 10
148.4074722106
 20
139.5826479725
 10
148.4007943259
 20
139.5866276203
 10
148.3938940469
 20
139.5901775746
 10
148.3867840576
 20
139.5933013396
 10
148.3794723552
 20
139.596005526
 10
148.3719628203
 20
139.5982957156
 10
148.3642662862
 20
139.6001764512
 10
148.3563912503
 20
139.6016527232
 10
148.348335769
 20
139.6027293916
 10
148.3401030925
 20
139.6034107658
 10
148.3317066104
 20
139.6037005669
 10
148.3231586262
 20
139.6036022117
 10
148.3144650457
 20
139.6031186574
 10
148.3056380629
 20
139.602256079
 10
148.2967012987
 20
139.6010239962
 10
148.2876669181
 20
139.5994263329
 10
148.2785442093
 20
139.59747072
 10
148.2693551106
 20
139.5951740501
 10
148.260113501
 20
139.5925416001
 10
148.2508289344
 20
139.5895812949
 10
148.2415187443
 20
139.5863153667
 10
148.232197063
 20
139.5827561367
 10
148.2228738473
 20
139.5789053448
 10
148.2135606647
 20
139.5747697999
  0
LWPOLYLINE
  5
5AD
100
AcDbEntity
  8
0
100
AcDbPolyline
 62
7
  6
CONTINUOUS
 90
42
 70
0
 10
148.4506813176
 20
139.5366425275
 10
148.4478052139
 20
139.541528858
 10
148.4403540616
 20
139.5535392079
 10
148.4325954144
 20
139.5651485651
 10
148.4245376756
 20
139.5763496529
 10
148.4161975621
 20
139.5871270678
 10
148.4075866074
 20
139.597475164
 10
148.3987174196
 20
139.6073871072
 10
148.3896127268
 20
139.6168479341
 10
148.3802881151
 20
139.6258540549
 10
148.3707615078
 20
139.6344007583
 10
148.3610633984
 20
139.6424745028
 10
148.3512280662
 20
139.6500639881
 10
148.3412637942
 20
139.6571809428
 10
148.3311619289
 20
139.6638461044
 10
148.3209567917
 20
139.6700502861
 10
148.3106551913
 20
139.6758035818
 10
148.3001993412
 20
139.6811466379
 10
148.2895853222
 20
139.686083567
 10
148.2788487257
 20
139.6906002508
 10
148.2679840876
 20
139.6947018906
 10
148.257006507
 20
139.698384817
 10
148.2459327472
 20
139.7016460147
 10
148.2347576685
 20
139.7044888859
 10
148.2234992773
 20
139.7069099441
 10
148.2121721192
 20
139.7089075384
 10
148.2007626331
 20
139.7104841487
 10
148.1892864763
 20
139.7116368005
 10
148.1777599161
 20
139.7123636625
 10
148.1661671287
 20
139.7126639395
 10
148.1545217882
 20
139.7125337784
 10
148.1428400441
 20
139.7119704746
 10
148.1311075038
 20
139.7109700103
 10
148.1193389574
 20
139.7095286259
 10
148.1075502018
 20
139.7076430417
 10
148.0957255414
 20
139.7053043101
 10
148.0838806871
 20
139.7025089911
 10
148.0720314916
 20
139.6992541612
 10
148.060160548
 20
139.6955259507
 10
148.0482724039
 20
139.6913152983
 10
148.0363960549
 20
139.6866236852
 10
148.0317924459
 20
139.6846723335
  0
LINE
  5
5AE
100
AcDbEntity
  8
0
100
AcDbLine
 62
7
  6
CONTINUOUS
 10
148.4506779509
 20
139.5366480724
 11
148.4506543882
 21
139.5366887018
  0
LINE
  5
5AF
100
AcDbEntity
  8
0
100
AcDbLine
 62
253
  6
CONTINUOUS
 10
148.2135606954
 20
139.574769747
 11
148.612967336
 21
138.8858949113
  0
LINE
  5
5B0
100
AcDbEntity
  8
0
100
AcDbLine
 62
7
  6
CONTINUOUS
 10
148.450751345
 20
139.5365214866
 11
148.8444504564
 21
138.8574909633
  0
LWPOLYLINE
  5
5B1
100
AcDbEntity
  8
0
100
AcDbPolyline
 62
253
  6
CONTINUOUS
 90
19
 70
0
 10
148.6129735622
 20
138.8858980789
 10
148.6172812368
 20
138.8783280155
 10
148.6213857513
 20
138.8706321157
 10
148.6252792948
 20
138.8628250245
 10
148.6289544584
 20
138.8549215984
 10
148.6324042484
 20
138.8469368773
 10
148.6356221002
 20
138.8388860555
 10
148.6386018903
 20
138.8307844534
 10
148.6413379486
 20
138.822647488
 10
148.6438250685
 20
138.8144906433
 10
148.6460585173
 20
138.8063294413
 10
148.6480340448
 20
138.7981794125
 10
148.6497478918
 20
138.7900560656
 10
148.6511967971
 20
138.781974859
 10
148.6523780034
 20
138.7739511707
 10
148.6532892632
 20
138.7660002692
 10
148.6539288423
 20
138.7581372846
 10
148.6542955237
 20
138.7503771796
 10
148.6543886097
 20
138.7427347214
  0
LWPOLYLINE
  5
5B2
100
AcDbEntity
  8
0
100
AcDbPolyline
 62
253
  6
CONTINUOUS
 90
36
 70
0
 10
148.2135670127
 20
139.5747724768
 10
148.2095948733
 20
139.5819492798
 10
148.2054545861
 20
139.5889879967
 10
148.2011532204
 20
139.5958766092
 10
148.1966981202
 20
139.6026033558
 10
148.1920968924
 20
139.609156751
 10
148.1873573932
 20
139.6155256054
 10
148.1824877148
 20
139.6216990448
 10
148.1774961719
 20
139.6276665285
 10
148.172391287
 20
139.6334178675
 10
148.1671817764
 20
139.638943242
 10
148.1618765349
 20
139.6442332177
 10
148.1564846207
 20
139.6492787624
 10
148.1510152401
 20
139.6540712614
 10
148.1454777316
 20
139.6586025318
 10
148.13988155
 20
139.6628648369
 10
148.1342362503
 20
139.6668508991
 10
148.1285514715
 20
139.6705539125
 10
148.1228369198
 20
139.6739675546
 10
148.1171023524
 20
139.6770859969
 10
148.1113575605
 20
139.6799039147
 10
148.105612353
 20
139.6824164969
 10
148.0998765392
 20
139.6846194534
 10
148.0941599126
 20
139.6865090228
 10
148.0884722339
 20
139.6880819788
 10
148.0828232143
 20
139.6893356357
 10
148.0772224991
 20
139.690267853
 10
148.071679651
 20
139.6908770391
 10
148.0662041339
 20
139.6911621538
 10
148.060805297
 20
139.6911227102
 10
148.0554923581
 20
139.6907587758
 10
148.0502743888
 20
139.6900709719
 10
148.0451602983
 20
139.6890604728
 10
148.0401588185
 20
139.687729004
 10
148.0352784889
 20
139.6860788389
 10
148.0317923686
 20
139.6846725125
  0
LINE
  5
5B3
100
AcDbEntity
  8
DRAFT
100
AcDbLine
 62
7
  6
CONTINUOUS
 10
148.0916783845
 20
140.4746463738
 11
148.0550887859
 21
140.5441883744
  0
LINE
  5
5B4
100
AcDbEntity
  8
DRAFT
100
AcDbLine
 62
7
  6
CONTINUOUS
 10
148.3745210969
 20
140.61606773
 11
148.3379314984
 21
140.6856097306
  0
LINE
  5
5B5
100
AcDbEntity
  8
DRAFT
100
AcDbLine
 62
7
  6
CONTINUOUS
 10
148.6573638094
 20
140.7574890863
 11
148.6207742109
 21
140.8270310869
  0
LINE
  5
5B6
100
AcDbEntity
  8
DRAFT
100
AcDbLine
 62
7
  6
CONTINUOUS
 10
148.9402065219
 20
140.8989104425
 11
148.9036169234
 21
140.9684524431
  0
LINE
  5
5B7
100
AcDbEntity
  8
RACCORDO
100
AcDbLine
 62
253
  6
CONTINUOUS
 10
147.7771054893
 20
86.080091765
 11
147.8117401493
 21
86.1036042261
  0
LWPOLYLINE
  5
5B8
100
AcDbEntity
  8
RACCORDO
100
AcDbPolyline
 62
253
  6
CONTINUOUS
 90
9
 70
0
 10
147.8117401493
 20
86.1036042261
 10
147.8379412317
 20
86.1211863538
 10
147.8520356171
 20
86.130388643
 10
147.866793294
 20
86.1398347659
 10
147.8822303259
 20
86.1495103388
 10
147.8984452789
 20
86.1592381099
 10
147.9154710084
 20
86.1689589952
 10
147.933274659
 20
86.1787320786
 10
147.9518562307
 20
86.1885573601
  0
LINE
  5
5B9
100
AcDbEntity
  8
DRAFT
100
AcDbLine
 62
7
  6
CONTINUOUS
 10
146.8992518394
 20
85.743357986
 11
146.431609745
 21
85.4484421686
  0
LWPOLYLINE
  5
5BA
100
AcDbEntity
  8
RACCORDO
100
AcDbPolyline
 62
253
  6
CONTINUOUS
 90
6
 70
0
 10
147.3525210058
 20
85.29574323
 10
147.3740826456
 20
85.308036399
 10
147.3922506615
 20
85.3216315777
 10
147.4067141936
 20
85.3362961486
 10
147.4172257671
 20
85.351779197
 10
147.4236055259
 20
85.3678158036
  0
LWPOLYLINE
  5
5BB
100
AcDbEntity
  8
RACCORDO
100
AcDbPolyline
 62
7
  6
CONTINUOUS
 90
11
 70
0
 10
147.5624255752
 20
85.7560480573
 10
147.5967035546
 20
85.7746190431
 10
147.6291007303
 20
85.7935653358
 10
147.6603312098
 20
85.8130249381
 10
147.6904662982
 20
85.8327155571
 10
147.7189884089
 20
85.8519225411
 10
147.7457434924
 20
85.8700942171
 10
147.7709812158
 20
85.8869456391
 10
147.7941168388
 20
85.9017276328
 10
147.8136898831
 20
85.9133664094
 10
147.8294505837
 20
85.9218395304
  0
LINE
  5
5BC
100
AcDbEntity
  8
RACCORDO
100
AcDbLine
 62
253
  6
CONTINUOUS
 10
147.3525210058
 20
85.6195656578
 11
146.6454142246
 21
85.2508957375
  0
LWPOLYLINE
  5
5BD
100
AcDbEntity
  8
RACCORDO
100
AcDbPolyline
 62
253
  6
CONTINUOUS
 90
12
 70
0
 10
147.6759558381
 20
86.0182155299
 10
147.6828262612
 20
86.0217684505
 10
147.6899356246
 20
86.0255824283
 10
147.6972839281
 20
86.0296574634
 10
147.7048447226
 20
86.033973947
 10
147.7126444573
 20
86.0385514879
 10
147.7207624802
 20
86.0434489121
 10
147.7291959028
 20
86.0486701579
 10
147.7379476135
 20
86.054211287
 10
147.7471056262
 20
86.0601193111
 10
147.7566630535
 20
86.0664010877
 10
147.7771054893
 20
86.080091765
  0
LINE
  5
5BE
100
AcDbEntity
  8
RACCORDO
100
AcDbLine
 62
253
  6
CONTINUOUS
 10
146.956731517
 20
85.6505506675
 11
147.5161545099
 21
85.9365642978
  0
LINE
  5
5BF
100
AcDbEntity
  8
RACCORDO
100
AcDbLine
 62
253
  6
CONTINUOUS
 10
147.5161545099
 20
85.9365642978
 11
147.6759558381
 21
86.0182155299
  0
LINE
  5
5C0
100
AcDbEntity
  8
RACCORDO
100
AcDbLine
 62
7
  6
CONTINUOUS
 10
146.8369762485
 20
85.3851776716
 11
147.5624255752
 21
85.7560480573
  0
LINE
  5
5C1
100
AcDbEntity
  8
RACCORDO
100
AcDbLine
 62
253
  6
CONTINUOUS
 10
146.431609745
 20
85.4225725307
 11
146.667355885
 21
85.5413506475
  0
LINE
  5
5C2
100
AcDbEntity
  8
RACCORDO
100
AcDbLine
 62
253
  6
CONTINUOUS
 10
147.9518562307
 20
86.1885573601
 11
148.5899578729
 21
86.5100683993
  0
LINE
  5
5C3
100
AcDbEntity
  8
RACCORDO
100
AcDbLine
 62
7
  6
CONTINUOUS
 10
146.3021138993
 20
85.1522822407
 11
146.5450425162
 21
85.2746831934
  0
LINE
  5
5C4
100
AcDbEntity
  8
RACCORDO
100
AcDbLine
 62
7
  6
CONTINUOUS
 10
147.829509754
 20
85.9218692504
 11
148.4604620272
 21
86.2397781092
  0
LWPOLYLINE
  5
5C5
100
AcDbEntity
  8
RACCORDO
100
AcDbPolyline
 62
253
  6
CONTINUOUS
 90
5
 70
0
 10
146.6454142246
 20
85.2508957375
 10
146.6256988464
 20
85.2412994485
 10
146.6042949497
 20
85.2328476243
 10
146.58145878
 20
85.2256148873
 10
146.557466802
 20
85.219656449
  0
LWPOLYLINE
  5
5C6
100
AcDbEntity
  8
RACCORDO
100
AcDbPolyline
 62
7
  6
CONTINUOUS
 90
7
 70
0
 10
146.544704154
 20
85.2745050878
 10
146.5519980753
 20
85.2780506542
 10
146.5639017376
 20
85.2832558
 10
146.57671179
 20
85.2881944685
 10
146.5920914952
 20
85.2935155253
 10
146.6110841481
 20
85.2995699437
 10
146.6582903269
 20
85.3140036089
  0
LWPOLYLINE
  5
5C7
100
AcDbEntity
  8
RACCORDO
100
AcDbPolyline
 62
253
  6
CONTINUOUS
 90
8
 70
0
 10
146.667355885
 20
85.5413506475
 10
146.6877139293
 20
85.5510211202
 10
146.707150975
 20
85.5598096251
 10
146.7256670221
 20
85.5677161621
 10
146.7432199238
 20
85.574621982
 10
146.7598518269
 20
85.5806458341
 10
146.7756891721
 20
85.5861439663
 10
146.7907504076
 20
85.5911564264
  0
LWPOLYLINE
  5
5C8
100
AcDbEntity
  8
RACCORDO
100
AcDbPolyline
 62
253
  6
CONTINUOUS
 90
13
 70
0
 10
145.9383074434
 20
83.8386364488
 10
145.9139082251
 20
83.8279274901
 10
145.8868760627
 20
83.8188714885
 10
145.8576531286
 20
83.811633627
 10
145.8267005721
 20
83.8063466149
 10
145.7945601137
 20
83.8031205381
 10
145.7618518593
 20
83.8020248996
 10
145.7291619435
 20
83.8030769642
 10
145.6970278799
 20
83.8062570649
 10
145.6660025242
 20
83.8115103402
 10
145.6366186908
 20
83.8187462461
 10
145.6093801251
 20
83.8278403875
 10
145.5847540529
 20
83.8386364488
  0
LWPOLYLINE
  5
5C9
100
AcDbEntity
  8
RACCORDO
100
AcDbPolyline
 62
253
  6
CONTINUOUS
 90
13
 70
0
 10
146.6454142246
 20
84.9421898394
 10
146.6208278866
 20
84.9314090195
 10
146.5936375293
 20
84.9223250116
 10
146.5643083874
 20
84.9150932455
 10
146.5333422906
 20
84.9098374588
 10
146.5012690774
 20
84.9066475794
 10
146.4686375293
 20
84.9055781871
 10
146.4360059813
 20
84.9066475794
 10
146.4039327681
 20
84.9098374588
 10
146.3729666712
 20
84.9150932455
 10
146.3436375293
 20
84.9223250116
 10
146.3164471721
 20
84.9314090195
 10
146.291860834
 20
84.9421898394
  0
LWPOLYLINE
  5
5CA
100
AcDbEntity
  8
RACCORDO
100
AcDbPolyline
 62
253
  6
CONTINUOUS
 90
11
 70
0
 10
138.8814233548
 20
83.0013056541
 10
138.8982067557
 20
83.0074125539
 10
138.9479542894
 20
83.0316830548
 10
138.9941904169
 20
83.0639287911
 10
139.0364087668
 20
83.103796547
 10
139.0741469923
 20
83.1508496388
 10
139.106991824
 20
83.2045727017
 10
139.1345835808
 20
83.2643773157
 10
139.1566201223
 20
83.3296084678
 10
139.1728601533
 20
83.3995517298
 10
139.183125861
 20
83.4734410741
  0
LWPOLYLINE
  5
5CB
100
AcDbEntity
  8
ASSI
100
AcDbPolyline
 62
253
  6
CONTINUOUS
 90
11
 70
0
 10
138.8814233548
 20
83.0013056541
 10
138.8982067557
 20
83.0074125539
 10
138.9479542894
 20
83.0316830548
 10
138.9941904169
 20
83.0639287911
 10
139.0364087668
 20
83.103796547
 10
139.0741469923
 20
83.1508496388
 10
139.106991824
 20
83.2045727017
 10
139.1345835808
 20
83.2643773157
 10
139.1566201223
 20
83.3296084678
 10
139.1728601533
 20
83.3995517298
 10
139.183125861
 20
83.4734410741
  0
LINE
  5
5CC
100
AcDbEntity
  8
RACCORDO
100
AcDbLine
 62
253
  6
CONTINUOUS
 10
143.2202256241
 20
84.8256236803
 11
139.183125861
 21
83.4734410741
  0
LINE
  5
5CD
100
AcDbEntity
  8
ASSI
100
AcDbLine
 62
253
  6
CONTINUOUS
 10
143.2202256241
 20
84.8256236803
 11
139.183125861
 21
83.4734410741
  0
LINE
  5
5CE
100
AcDbEntity
  8
RACCORDO
100
AcDbLine
 62
7
  6
CONTINUOUS
 10
138.880826621
 20
83.0011063871
 11
142.9223883204
 21
84.3547828677
  0
LINE
  5
5CF
100
AcDbEntity
  8
ASSI
100
AcDbLine
 62
7
  6
CONTINUOUS
 10
138.8807480254
 20
83.0010802315
 11
142.9223883204
 21
84.3547828677
  0
LWPOLYLINE
  5
5D0
100
AcDbEntity
  8
RACCORDO
100
AcDbPolyline
 62
7
  6
CONTINUOUS
 90
7
 70
0
 10
146.6582903269
 20
85.3140036089
 10
146.6852705346
 20
85.3226138919
 10
146.7139384021
 20
85.3324020239
 10
146.7437064681
 20
85.3434410232
 10
146.7740504576
 20
85.3557582421
 10
146.8047298108
 20
85.3694259074
 10
146.836977036
 20
85.3851760303
  0
LWPOLYLINE
  5
5D1
100
AcDbEntity
  8
RACCORDO
100
AcDbPolyline
 62
253
  6
CONTINUOUS
 90
17
 70
0
 10
146.7907504076
 20
85.5911564264
 10
146.8185603012
 20
85.5998402922
 10
146.8313668394
 20
85.6037717881
 10
146.8434499159
 20
85.6074136692
 10
146.8549202758
 20
85.6109300854
 10
146.8657679975
 20
85.6143431493
 10
146.8760030027
 20
85.6176307482
 10
146.8857658012
 20
85.6208906933
 10
146.8950651223
 20
85.6241417322
 10
146.9038922367
 20
85.6273651173
 10
146.9123614672
 20
85.6306024168
 10
146.9204797512
 20
85.6338619637
 10
146.9282401511
 20
85.637135425
 10
146.9357361767
 20
85.6404393692
 10
146.9429989978
 20
85.6437793191
 10
146.9499974446
 20
85.6471497518
 10
146.956731517
 20
85.6505506675
  0
LINE
  5
5D2
100
AcDbEntity
  8
RACCORDO
100
AcDbLine
 62
7
  6
CONTINUOUS
 10
138.7819927511
 20
82.9725133997
 11
138.8808210089
 21
83.0011231766
  0
LWPOLYLINE
  5
5D3
100
AcDbEntity
  8
0
100
AcDbPolyline
 62
253
  6
CONTINUOUS
 90
19
 70
0
 10
140.9590486159
 20
143.2861191598
 10
140.9526302675
 20
143.2890793735
 10
140.9462805591
 20
143.2915472725
 10
140.939764834
 20
143.2936407511
 10
140.9330920039
 20
143.295356946
 10
140.926271195
 20
143.2966935101
 10
140.9193117361
 20
143.2976486153
 10
140.9122231455
 20
143.2982209553
 10
140.9050151183
 20
143.2984097474
 10
140.8976975127
 20
143.2982147334
 10
140.8902803369
 20
143.2976361799
 10
140.8827737353
 20
143.2966748783
 10
140.8751879745
 20
143.2953321432
 10
140.8675334297
 20
143.2936098113
 10
140.8598205696
 20
143.291510238
 10
140.8520599432
 20
143.2890362949
 10
140.8442621645
 20
143.2861913656
 10
140.8364378984
 20
143.2829793411
 10
140.8285978462
 20
143.2794046144
  0
LWPOLYLINE
  5
5D4
100
AcDbEntity
  8
0
100
AcDbPolyline
 62
253
  6
CONTINUOUS
 90
23
 70
0
 10
142.5491247999
 20
143.1905027117
 10
142.5415766594
 20
143.1940632865
 10
142.5330418084
 20
143.1976010775
 10
142.5243167129
 20
143.2007163054
 10
142.5154092893
 20
143.2034061646
 10
142.5063278743
 20
143.2056681141
 10
142.4970809914
 20
143.2075000047
 10
142.4876770839
 20
143.2089002181
 10
142.4781250072
 20
143.2098674075
 10
142.4684336795
 20
143.2104006398
 10
142.4586118466
 20
143.2104995179
 10
142.4486687002
 20
143.2101638952
 10
142.4386135746
 20
143.2093940312
 10
142.4284555983
 20
143.2081907338
 10
142.4182042596
 20
143.2065550569
 10
142.4078692008
 20
143.2044884684
 10
142.3974599156
 20
143.201993012
 10
142.3869862654
 20
143.1990709905
 10
142.3764579698
 20
143.1957250509
 10
142.3658843995
 20
143.1919583367
 10
142.3552752984
 20
143.1877743016
 10
142.3446407777
 20
143.1831767314
 10
142.3339908067
 20
143.1781698257
  0
LWPOLYLINE
  5
5D5
100
AcDbEntity
  8
0
100
AcDbPolyline
 62
253
  6
CONTINUOUS
 90
22
 70
0
 10
142.1542979678
 20
143.3879161301
 10
142.1487118812
 20
143.390597109
 10
142.1394979713
 20
143.3945492683
 10
142.1300630272
 20
143.398027347
 10
142.1204168096
 20
143.401027756
 10
142.1105693288
 20
143.4035473951
 10
142.1005311446
 20
143.4055835089
 10
142.0903126734
 20
143.4071340215
 10
142.0799244933
 20
143.4081973671
 10
142.0693776885
 20
143.4087723213
 10
142.0586831908
 20
143.4088583399
 10
142.0478520811
 20
143.4084553877
 10
142.0368958937
 20
143.4075637641
 10
142.0258259191
 20
143.4061844491
 10
142.0146536898
 20
143.4043189412
 10
142.0033912816
 20
143.4019690953
 10
141.9920505719
 20
143.3991374991
 10
141.9806431142
 20
143.3958271511
 10
141.9691806162
 20
143.3920412361
 10
141.9576749135
 20
143.3877836064
 10
141.9461379655
 20
143.3830588456
 10
141.9345817286
 20
143.3778719158
  0
LWPOLYLINE
  5
5D6
100
AcDbEntity
  8
0
100
AcDbPolyline
 62
7
  6
CONTINUOUS
 90
37
 70
0
 10
144.999983713
 20
141.2656407938
 10
144.9934265141
 20
141.2688011505
 10
144.9868044327
 20
141.2718653725
 10
144.9801223279
 20
141.2748329931
 10
144.9733821768
 20
141.2777050356
 10
144.9665859269
 20
141.2804825913
 10
144.9597382321
 20
141.2831650854
 10
144.9528409154
 20
141.2857535497
 10
144.9458958308
 20
141.2882490667
 10
144.938907548
 20
141.2906509607
 10
144.9318777649
 20
141.2929602743
 10
144.9248082469
 20
141.2951780926
 10
144.9177035602
 20
141.2973036628
 10
144.9105653105
 20
141.2993380403
 10
144.9033951692
 20
141.3012823272
 10
144.8961977191
 20
141.3031357319
 10
144.8889744384
 20
141.3048993408
 10
144.8817269597
 20
141.3065742672
 10
144.8744600322
 20
141.3081596841
 10
144.867175051
 20
141.3096567105
 10
144.8598735834
 20
141.3110664922
 10
144.8525605869
 20
141.3123882053
 10
144.8452373717
 20
141.3136230115
 10
144.8379054532
 20
141.3147721002
 10
144.830570057
 20
141.3158346856
 10
144.8232324151
 20
141.316811982
 10
144.8158939902
 20
141.3177052348
 10
144.8085603235
 20
141.3185137391
 10
144.8012325745
 20
141.3192387704
 10
144.7939121483
 20
141.3198816437
 10
144.7866049246
 20
141.320441784
 10
144.7793119989
 20
141.3209205355
 10
144.7720347056
 20
141.3213192951
 10
144.7647792541
 20
141.3216376718
 10
144.7575484775
 20
141.3218765296
 10
144.7503418282
 20
141.3220379278
 10
144.7431604089
 20
141.3221233331
  0
LWPOLYLINE
  5
5D7
100
AcDbEntity
  8
0
100
AcDbPolyline
 62
7
  6
CONTINUOUS
 90
37
 70
0
 10
141.8887138757
 20
142.8212757124
 10
141.8821566769
 20
142.8244360691
 10
141.8755345955
 20
142.8275002911
 10
141.8688524907
 20
142.8304679117
 10
141.8621123395
 20
142.8333399542
 10
141.8553160897
 20
142.83611751
 10
141.8484683949
 20
142.838800004
 10
141.8415710782
 20
142.8413884684
 10
141.8346259936
 20
142.8438839853
 10
141.8276377108
 20
142.8462858793
 10
141.8206079277
 20
142.8485951929
 10
141.8135384097
 20
142.8508130112
 10
141.806433723
 20
142.8529385814
 10
141.7992954733
 20
142.8549729589
 10
141.792125332
 20
142.8569172459
 10
141.7849278819
 20
142.8587706505
 10
141.7777046012
 20
142.8605342594
 10
141.7704571225
 20
142.8622091858
 10
141.763190195
 20
142.8637946028
 10
141.7559052137
 20
142.8652916291
 10
141.7486037462
 20
142.8667014109
 10
141.7412907497
 20
142.8680231239
 10
141.7339675345
 20
142.8692579301
 10
141.7266356159
 20
142.8704070188
 10
141.7193002198
 20
142.8714696042
 10
141.7119625778
 20
142.8724469006
 10
141.704624153
 20
142.8733401534
 10
141.6972904862
 20
142.8741486578
 10
141.6899627373
 20
142.8748736891
 10
141.6826423111
 20
142.8755165623
 10
141.6753350874
 20
142.8760767026
 10
141.6680421616
 20
142.8765554541
 10
141.6607648683
 20
142.8769542137
 10
141.6535094168
 20
142.8772725904
 10
141.6462786403
 20
142.8775114482
 10
141.639071991
 20
142.8776728465
 10
141.6318905717
 20
142.8777582517
  0
LWPOLYLINE
  5
5D8
100
AcDbEntity
  8
0
100
AcDbPolyline
 62
7
  6
CONTINUOUS
 90
27
 70
0
 10
140.9590485999
 20
143.2861191277
 10
140.9519807332
 20
143.2895775129
 10
140.9379402904
 20
143.2960083971
 10
140.9238445798
 20
143.3018909463
 10
140.9097137512
 20
143.3072261696
 10
140.8955576556
 20
143.3120200827
 10
140.8813787416
 20
143.316280274
 10
140.8671946898
 20
143.3200092767
 10
140.8530197592
 20
143.3232115063
 10
140.8388539767
 20
143.3258940184
 10
140.8247151038
 20
143.3280598152
 10
140.8106190406
 20
143.3297133726
 10
140.7965651114
 20
143.330860808
 10
140.7825717329
 20
143.3315059059
 10
140.7686550074
 20
143.3316537348
 10
140.7548124129
 20
143.3313093949
 10
140.7410624213
 20
143.3304775994
 10
140.7274213007
 20
143.3291638836
 10
140.7138844499
 20
143.3273717184
 10
140.7004694283
 20
143.3251064914
 10
140.6871931387
 20
143.3223743536
 10
140.6740511909
 20
143.3191768425
 10
140.6610612576
 20
143.3155201264
 10
140.648239769
 20
143.3114110197
 10
140.635581713
 20
143.3068490329
 10
140.6230971684
 20
143.3018374881
 10
140.6117509768
 20
143.2968224474
  0
LWPOLYLINE
  5
5D9
100
AcDbEntity
  8
0
100
AcDbPolyline
 62
253
  6
CONTINUOUS
 90
18
 70
0
 10
141.9345842572
 20
143.3778731005
 10
141.9289890955
 20
143.3806254957
 10
141.9233990038
 20
143.3830906398
 10
141.9178230459
 20
143.3852645358
 10
141.9122702624
 20
143.3871436591
 10
141.9067496564
 20
143.3887249629
 10
141.901270179
 20
143.3900058832
 10
141.8958407143
 20
143.3909843434
 10
141.8904700658
 20
143.3916587567
 10
141.885166941
 20
143.39202803
 10
141.8799399385
 20
143.3920915643
 10
141.8747975331
 20
143.3918492566
 10
141.8697480626
 20
143.3913014999
 10
141.8647997141
 20
143.3904491823
 10
141.8599605107
 20
143.3892936857
 10
141.8552382986
 20
143.3878368835
 10
141.8506407342
 20
143.3860811379
 10
141.8482652669
 20
143.3850341021
  0
LWPOLYLINE
  5
5DA
100
AcDbEntity
  8
0
100
AcDbPolyline
 62
7
  6
CONTINUOUS
 90
27
 70
0
 10
142.1543249798
 20
143.3879025997
 10
142.1510518767
 20
143.3895159915
 10
142.1403468099
 20
143.3944719657
 10
142.1294419437
 20
143.3990351898
 10
142.1183458841
 20
143.4031996785
 10
142.1070578056
 20
143.4069623682
 10
142.095590916
 20
143.4103151261
 10
142.0839586435
 20
143.4132507637
 10
142.0721594526
 20
143.4157656707
 10
142.0602055131
 20
143.4178524464
 10
142.0481115665
 20
143.4195041357
 10
142.035878712
 20
143.4207160462
 10
142.0235202476
 20
143.4214817145
 10
142.0110496434
 20
143.4217952226
 10
141.9984667911
 20
143.4216511447
 10
141.9857845688
 20
143.4210438322
 10
141.9730159625
 20
143.4199680843
 10
141.9601592977
 20
143.418417146
 10
141.9472256472
 20
143.4163853302
 10
141.9342285389
 20
143.4138678334
 10
141.9211681757
 20
143.4108569491
 10
141.9080559426
 20
143.4073469089
 10
141.894903121
 20
143.4033325266
 10
141.881707856
 20
143.398803922
 10
141.8684765534
 20
143.3937527364
 10
141.8552259695
 20
143.3881751137
 10
141.8482652882
 20
143.385034056
  0
LINE
  5
5DB
100
AcDbEntity
  8
DRAFT
100
AcDbLine
 62
7
  6
CONTINUOUS
 10
145.3390524867
 20
140.7163776646
 11
145.4244207676
 21
140.6736935241
  0
LINE
  5
5DC
100
AcDbEntity
  8
DRAFT
100
AcDbLine
 62
7
  6
CONTINUOUS
 10
145.6218951992
 20
140.8577990208
 11
145.7072634801
 21
140.8151148804
  0
LINE
  5
5DD
100
AcDbEntity
  8
DRAFT
100
AcDbLine
 62
7
  6
CONTINUOUS
 10
148.7331650364
 20
139.3021641022
 11
148.8185333173
 21
139.2594799618
  0
LINE
  5
5DE
100
AcDbEntity
  8
0
100
AcDbLine
 62
253
  6
CONTINUOUS
 10
141.6318905717
 20
142.8777582517
 11
140.8285997638
 21
143.2794036556
  0
LINE
  5
5DF
100
AcDbEntity
  8
0
100
AcDbLine
 62
253
  6
CONTINUOUS
 10
143.9588783916
 20
141.7142643417
 11
144.7431604089
 21
141.3221233331
  0
LINE
  5
5E0
100
AcDbEntity
  8
0
100
AcDbLine
 62
7
  6
CONTINUOUS
 10
140.9590597104
 20
143.2861136133
 11
141.891329972
 21
142.8199784825
  0
LINE
  5
5E1
100
AcDbEntity
  8
0
100
AcDbLine
 62
7
  6
CONTINUOUS
 10
143.9603627196
 20
141.7854621087
 11
145.0025998092
 21
141.2643435639
  0
LINE
  5
5E2
100
AcDbEntity
  8
DRAFT
100
AcDbLine
 62
7
  6
CONTINUOUS
 10
142.7242763306
 20
142.4158852805
 11
144.237946427
 21
141.6590502323
  0
LINE
  5
5E3
100
AcDbEntity
  8
DRAFT
100
AcDbLine
 62
7
  6
CONTINUOUS
 10
145.8355461679
 20
140.8602503619
 11
147.3492162642
 21
140.1034153137
  0
LINE
  5
5E4
100
AcDbEntity
  8
DRAFT
100
AcDbLine
 62
7
  6
CONTINUOUS
 10
142.7608659292
 20
142.5195483606
 11
144.2720675066
 21
141.7639475719
  0
LINE
  5
5E5
100
AcDbEntity
  8
DRAFT
100
AcDbLine
 62
7
  6
CONTINUOUS
 10
145.8721357664
 20
140.963913442
 11
147.3833373438
 21
140.2083126533
  0
LINE
  5
5E6
100
AcDbEntity
  8
DRAFT
100
AcDbLine
 62
7
  6
CONTINUOUS
 10
142.8669319464
 20
142.5725813692
 11
144.3781335238
 21
141.8169805805
  0
LINE
  5
5E7
100
AcDbEntity
  8
DRAFT
100
AcDbLine
 62
7
  6
CONTINUOUS
 10
145.9782017836
 20
141.0169464506
 11
147.489403361
 21
140.2613456619
  0
LINE
  5
5E8
100
AcDbEntity
  8
DRAFT
100
AcDbLine
 62
7
  6
CONTINUOUS
 10
143.0071190431
 20
142.5573066367
 11
144.5207891395
 21
141.8004715885
  0
LINE
  5
5E9
100
AcDbEntity
  8
DRAFT
100
AcDbLine
 62
7
  6
CONTINUOUS
 10
146.1183888803
 20
141.0016717181
 11
147.6320589767
 21
140.2448366699
  0
LINE
  5
5EA
100
AcDbEntity
  8
DRAFT
100
AcDbLine
 62
7
  6
CONTINUOUS
 10
143.0437086416
 20
142.6609697169
 11
144.5549102191
 21
141.9053689282
  0
LINE
  5
5EB
100
AcDbEntity
  8
DRAFT
100
AcDbLine
 62
7
  6
CONTINUOUS
 10
146.1549784789
 20
141.1053347983
 11
147.6661800563
 21
140.3497340096
  0
LINE
  5
5EC
100
AcDbEntity
  8
DRAFT
100
AcDbLine
 62
7
  6
CONTINUOUS
 10
143.1497746588
 20
142.7140027255
 11
144.6609762362
 21
141.9584019368
  0
LINE
  5
5ED
100
AcDbEntity
  8
DRAFT
100
AcDbLine
 62
7
  6
CONTINUOUS
 10
146.261044496
 20
141.1583678069
 11
147.7722460735
 21
140.4027670181
  0
LINE
  5
5EE
100
AcDbEntity
  8
DRAFT
100
AcDbLine
 62
7
  6
CONTINUOUS
 10
143.2899617556
 20
142.6987279929
 11
144.803631852
 21
141.9418929448
  0
LINE
  5
5EF
100
AcDbEntity
  8
DRAFT
100
AcDbLine
 62
7
  6
CONTINUOUS
 10
146.4012315928
 20
141.1430930743
 11
147.9149016892
 21
140.3862580261
  0
LINE
  5
5F0
100
AcDbEntity
  8
0
100
AcDbLine
 62
253
  6
CONTINUOUS
 10
141.9345817111
 20
143.3778719246
 11
142.3339908067
 21
143.1781698257
  0
LINE
  5
5F1
100
AcDbEntity
  8
0
100
AcDbLine
 62
7
  6
CONTINUOUS
 10
142.1542967294
 20
143.3879167493
 11
142.5491521218
 21
143.1904890531
  0
LINE
  5
5F2
100
AcDbEntity
  8
DRAFT
100
AcDbLine
 62
7
  6
CONTINUOUS
 10
143.3265513541
 20
142.8023910731
 11
144.8377529315
 21
142.0467902844
  0
LINE
  5
5F3
100
AcDbEntity
  8
DRAFT
100
AcDbLine
 62
7
  6
CONTINUOUS
 10
146.4378211913
 20
141.2467561545
 11
147.9490227688
 21
140.4911553658
  0
LINE
  5
5F4
100
AcDbEntity
  8
DRAFT
100
AcDbLine
 62
7
  6
CONTINUOUS
 10
143.4326173713
 20
142.8554240817
 11
144.9438189487
 21
142.099823293
  0
LINE
  5
5F5
100
AcDbEntity
  8
DRAFT
100
AcDbLine
 62
7
  6
CONTINUOUS
 10
146.5438872085
 20
141.2997891631
 11
148.0550887859
 21
140.5441883744
  0
LINE
  5
5F6
100
AcDbEntity
  8
DRAFT
100
AcDbLine
 62
7
  6
CONTINUOUS
 10
143.5728044681
 20
142.8401493492
 11
145.0864745644
 21
142.083314301
  0
LINE
  5
5F7
100
AcDbEntity
  8
DRAFT
100
AcDbLine
 62
7
  6
CONTINUOUS
 10
146.6840743053
 20
141.2845144306
 11
148.1977444016
 21
140.5276793824
  0
LINE
  5
5F8
100
AcDbEntity
  8
DRAFT
100
AcDbLine
 62
7
  6
CONTINUOUS
 10
143.6093940666
 20
142.9438124293
 11
145.120595644
 21
142.1882116406
  0
LINE
  5
5F9
100
AcDbEntity
  8
DRAFT
100
AcDbLine
 62
7
  6
CONTINUOUS
 10
146.7206639038
 20
141.3881775107
 11
148.2318654812
 21
140.632576722
  0
LINE
  5
5FA
100
AcDbEntity
  8
DRAFT
100
AcDbLine
 62
7
  6
CONTINUOUS
 10
143.7154600838
 20
142.9968454379
 11
145.2266616612
 21
142.2412446492
  0
LINE
  5
5FB
100
AcDbEntity
  8
DRAFT
100
AcDbLine
 62
7
  6
CONTINUOUS
 10
146.826729921
 20
141.4412105193
 11
148.3379314984
 21
140.6856097306
  0
LINE
  5
5FC
100
AcDbEntity
  8
DRAFT
100
AcDbLine
 62
7
  6
CONTINUOUS
 10
143.8556471805
 20
142.9815707054
 11
145.3693172769
 21
142.2247356572
  0
LINE
  5
5FD
100
AcDbEntity
  8
DRAFT
100
AcDbLine
 62
7
  6
CONTINUOUS
 10
146.9669170178
 20
141.4259357868
 11
148.4805871141
 21
140.6691007386
  0
LINE
  5
5FE
100
AcDbEntity
  8
DRAFT
100
AcDbLine
 62
7
  6
CONTINUOUS
 10
143.8922367791
 20
143.0852337856
 11
145.4034383565
 21
142.3296329969
  0
LINE
  5
5FF
100
AcDbEntity
  8
DRAFT
100
AcDbLine
 62
7
  6
CONTINUOUS
 10
147.0035066163
 20
141.529598867
 11
148.5147081937
 21
140.7739980783
  0
LINE
  5
600
100
AcDbEntity
  8
DRAFT
100
AcDbLine
 62
7
  6
CONTINUOUS
 10
143.9983027962
 20
143.1382667942
 11
145.5095043737
 21
142.3826660055
  0
LINE
  5
601
100
AcDbEntity
  8
DRAFT
100
AcDbLine
 62
7
  6
CONTINUOUS
 10
147.1095726335
 20
141.5826318756
 11
148.6207742109
 21
140.8270310869
  0
LINE
  5
602
100
AcDbEntity
  8
DRAFT
100
AcDbLine
 62
7
  6
CONTINUOUS
 10
144.138489893
 20
143.1229920617
 11
145.6521599894
 21
142.3661570135
  0
LINE
  5
603
100
AcDbEntity
  8
DRAFT
100
AcDbLine
 62
7
  6
CONTINUOUS
 10
147.2497597302
 20
141.567357143
 11
148.7634298266
 21
140.8105220949
  0
LINE
  5
604
100
AcDbEntity
  8
DRAFT
100
AcDbLine
 62
7
  6
CONTINUOUS
 10
144.1750794915
 20
143.2266551418
 11
145.686281069
 21
142.4710543531
  0
LINE
  5
605
100
AcDbEntity
  8
DRAFT
100
AcDbLine
 62
7
  6
CONTINUOUS
 10
147.2863493288
 20
141.6710202232
 11
148.7975509062
 21
140.9154194345
  0
LINE
  5
606
100
AcDbEntity
  8
RACCORDO
100
AcDbLine
 62
7
  6
CONTINUOUS
 10
149.0125356248
 20
140.8968284307
 11
148.9158721893
 21
140.9451601485
  0
LINE
  5
607
100
AcDbEntity
  8
RACCORDO
100
AcDbLine
 62
7
  6
CONTINUOUS
 10
145.9012657875
 20
142.4524633493
 11
145.804602352
 21
142.5007950671
  0
LINE
  5
608
100
AcDbEntity
  8
DRAFT
100
AcDbLine
 62
7
  6
CONTINUOUS
 10
144.2811455087
 20
143.2796881504
 11
145.7923470861
 21
142.5240873617
  0
LINE
  5
609
100
AcDbEntity
  8
DRAFT
100
AcDbLine
 62
7
  6
CONTINUOUS
 10
147.3924153459
 20
141.7240532318
 11
148.9036169234
 21
140.9684524431
  0
LWPOLYLINE
  5
60A
100
AcDbEntity
  8
RACCORDO
100
AcDbPolyline
 62
7
  6
CONTINUOUS
 90
7
 70
0
 10
147.9944699885
 20
84.4126722008
 10
148.0058627208
 20
84.4187288739
 10
148.0329483617
 20
84.4364439856
 10
148.0575792948
 20
84.4575692948
 10
148.0793307946
 20
84.4817885705
 10
148.0978386704
 20
84.5087765567
 10
148.1127428484
 20
84.5381377014
  0
LINE
  5
60B
100
AcDbEntity
  8
RACCORDO
100
AcDbLine
 62
253
  6
CONTINUOUS
 10
145.9383074434
 20
83.4873224768
 11
148.059627787
 21
84.5479826485
  0
LINE
  5
60C
100
AcDbEntity
  8
RACCORDO
100
AcDbLine
 62
7
  6
CONTINUOUS
 10
145.873334147
 20
83.3521040267
 11
147.9946544906
 21
84.4127641984
  0
LWPOLYLINE
  5
60D
100
AcDbEntity
  8
RACCORDO
100
AcDbPolyline
 62
253
  6
CONTINUOUS
 90
13
 70
0
 10
145.9383074434
 20
83.4873224768
 10
145.914301131
 20
83.4767648668
 10
145.8875993652
 20
83.4677678953
 10
145.8585961221
 20
83.4605171688
 10
145.827666415
 20
83.4551640767
 10
145.7953770792
 20
83.4518616966
 10
145.7624999537
 20
83.4507117638
 10
145.7296782224
 20
83.4517295591
 10
145.6974080518
 20
83.4548924899
 10
145.6662583276
 20
83.4601435649
 10
145.6367694321
 20
83.4673888345
 10
145.6094449894
 20
83.4765015481
 10
145.5847540529
 20
83.4873224768
  0
LWPOLYLINE
  5
60E
100
AcDbEntity
  8
RACCORDO
100
AcDbPolyline
 62
7
  6
CONTINUOUS
 90
9
 70
0
 10
145.873334147
 20
83.3521040267
 10
145.8450475518
 20
83.3400744615
 10
145.8150603508
 20
83.3315094926
 10
145.7838857679
 20
83.3267123242
 10
145.751981124
 20
83.3258933416
 10
145.7200962357
 20
83.3291683813
 10
145.689088705
 20
83.3364366085
 10
145.6591286545
 20
83.3476455935
 10
145.6495657191
 20
83.3521850367
  0
ARC
  5
60F
100
AcDbEntity
  8
RACCORDO
100
AcDbCircle
 62
7
  6
CONTINUOUS
 10
145.7615307481
 20
125.2266289359
 40
0.25
100
AcDbArc
 50
244.0406531095
 51
258.6758098606
  0
ARC
  5
610
100
AcDbEntity
  8
RACCORDO
100
AcDbCircle
 62
7
  6
CONTINUOUS
 10
132.3972125837
 20
131.9087880181
 40
0.25
100
AcDbArc
 50
244.0406531095
 51
258.6758098606
  0
ELLIPSE
  5
611
100
AcDbEntity
  8
DRAFT
100
AcDbEllipse
 62
7
  6
CONTINUOUS
 10
145.9029521044
 20
140.9983274734
 30
0.0
 11
0.0462229684
 21
0.0886861576
 31
0.0
 40
0.6035364256
 41
-1.0575060939
 42
-0.8759289409
  0
ELLIPSE
  5
612
100
AcDbEntity
  8
RACCORDO
100
AcDbEllipse
 62
7
  6
CONTINUOUS
 10
137.5498270631
 20
139.572555804
 30
0.0
 11
0.1386689053
 21
0.2660584729
 31
0.0
 40
0.6035364256
 41
0.6948673859
 42
1.1054037811
  0
ELLIPSE
  5
613
100
AcDbEntity
  8
DRAFT
100
AcDbEllipse
 62
7
  6
CONTINUOUS
 10
145.8137081729
 20
142.2726353589
 30
0.0
 11
0.086325054
 21
0.1804312186
 31
0.0
 40
0.6209844714
 41
5.3863034069
 42
6.8317719026
  0
ELLIPSE
  5
614
100
AcDbEntity
  8
DRAFT
100
AcDbEllipse
 62
7
  6
CONTINUOUS
 10
149.0142219416
 20
139.4426925548
 30
0.0
 11
0.0462229684
 21
0.0886861576
 31
0.0
 40
0.6035364256
 41
-2.4467252677
 42
-0.8759289409
  0
ELLIPSE
  5
615
100
AcDbEntity
  8
RACCORDO
100
AcDbEllipse
 62
7
  6
CONTINUOUS
 10
140.6610969003
 20
138.0169208854
 30
0.0
 11
0.1386689053
 21
0.2660584729
 31
0.0
 40
0.6035364256
 41
0.6948673859
 42
1.1054037811
  0
ELLIPSE
  5
616
100
AcDbEntity
  8
DRAFT
100
AcDbEllipse
 62
7
  6
CONTINUOUS
 10
148.9249780101
 20
140.7170004403
 30
0.0
 11
0.086325054
 21
0.1804312186
 31
0.0
 40
0.6209844714
 41
5.3863034069
 42
6.8317719026
  0
ELLIPSE
  5
617
100
AcDbEntity
  8
0
100
AcDbEllipse
 62
7
  6
CONTINUOUS
 10
137.6574568244
 20
132.6786594638
 30
0.0
 11
-0.894612936
 21
1.7887945813
 31
0.0
 40
0.6124635976
 41
-1.6852018952
 42
-1.470288718
  0
ELLIPSE
  5
618
100
AcDbEntity
  8
RACCORDO
100
AcDbEllipse
 62
7
  6
CONTINUOUS
 10
125.0273768082
 20
137.5825213941
 30
0.0
 11
1.2141619185
 21
0.9541526469
 31
0.0
 40
0.2329077568
 41
0.1095198182
 42
0.114024621
  0
ELLIPSE
  5
619
100
AcDbEntity
  8
0
100
AcDbEllipse
 62
7
  6
CONTINUOUS
 10
144.9478874503
 20
141.1638866222
 30
0.0
 11
-0.1341484654
 21
0.2683369961
 31
0.0
 40
0.6125552124
 41
-2.255296188
 42
-2.238147482
  0
ELLIPSE
  5
61A
100
AcDbEntity
  8
0
100
AcDbEllipse
 62
7
  6
CONTINUOUS
 10
141.8366176131
 20
142.7195215408
 30
0.0
 11
-0.1341484654
 21
0.2683369961
 31
0.0
 40
0.6125552124
 41
-2.255296188
 42
-2.238147482
  0
ELLIPSE
  5
61B
100
AcDbEntity
  8
0
100
AcDbEllipse
 62
7
  6
CONTINUOUS
 10
137.228840243
 20
135.1444307286
 30
0.0
 11
-0.447101003
 21
0.8945282396
 31
0.0
 40
0.6124326778
 41
-1.4698904957
 42
-0.6846185041
  0
ELLIPSE
  5
61C
100
AcDbEntity
  8
0
100
AcDbEllipse
 62
7
  6
CONTINUOUS
 10
137.8683545993
 20
132.8165001881
 30
0.0
 11
-0.894612936
 21
1.7887945813
 31
0.0
 40
0.6124635976
 41
-1.7002000289
 42
-1.470288718
  0
ELLIPSE
  5
61D
100
AcDbEntity
  8
0
100
AcDbEllipse
 62
7
  6
CONTINUOUS
 10
132.1196012642
 20
138.8241191315
 30
0.0
 11
-0.2237009107
 21
0.4473351135
 31
0.0
 40
0.6121897086
 41
-0.6846338794
 42
0.1006119908
  0
ELLIPSE
  5
61E
100
AcDbEntity
  8
RACCORDO
100
AcDbEllipse
 62
7
  6
CONTINUOUS
 10
148.2363506262
 20
86.6867401128
 30
0.0
 11
-0.2235807756
 21
0.4472283268
 31
0.0
 40
0.6125552124
 41
-3.139671321
 42
-2.255296188
  0
ELLIPSE
  5
61F
100
AcDbEntity
  8
RACCORDO
100
AcDbEllipse
 62
7
  6
CONTINUOUS
 10
148.2363506262
 20
124.5882878193
 30
0.0
 11
-0.2237009107
 21
0.4473351135
 31
0.0
 40
0.6121897086
 41
-2.2557347926
 42
-0.6846338794
  0
ELLIPSE
  5
620
100
AcDbEntity
  8
RACCORDO
100
AcDbEllipse
 62
7
  6
CONTINUOUS
 10
141.0771583495
 20
133.9627175595
 30
0.0
 11
0.9987332359
 21
0.6172510855
 31
0.0
 40
0.0815198604
 41
0.0505521044
 42
0.7176053907
  0
ELLIPSE
  5
621
100
AcDbEntity
  8
RACCORDO
100
AcDbEllipse
 62
7
  6
CONTINUOUS
 10
152.8275812242
 20
128.0875061222
 30
0.0
 11
0.4349639225
 21
0.9005141702
 31
0.0
 40
0.6016116119
 41
-0.8943064336
 42
-0.538697204
  0
ELLIPSE
  5
622
100
AcDbEntity
  8
RACCORDO
100
AcDbEllipse
 62
7
  6
CONTINUOUS
 10
153.0621982372
 20
91.2069047667
 30
0.0
 11
0.9987332359
 21
0.6172510855
 31
0.0
 40
0.0815198604
 41
-2.3890806779
 42
-1.1913468732
  0
ELLIPSE
  5
623
100
AcDbEntity
  8
RACCORDO
100
AcDbEllipse
 62
7
  6
CONTINUOUS
 10
152.8275812242
 20
91.3242132732
 30
0.0
 11
0.4349639225
 21
0.9005141702
 31
0.0
 40
0.6016116119
 41
-1.2499156631
 42
-0.8943064336
  0
ELLIPSE
  5
624
100
AcDbEntity
  8
RACCORDO
100
AcDbEllipse
 62
7
  6
CONTINUOUS
 10
142.2211866611
 20
133.4196819344
 30
0.0
 11
0.2256808774
 21
0.4461742732
 31
0.0
 40
0.6158912572
 41
0.0028657685
 42
0.6875768343
  0
ELLIPSE
  5
625
100
AcDbEntity
  8
RACCORDO
100
AcDbEllipse
 62
7
  6
CONTINUOUS
 10
146.0780024983
 20
85.5992442442
 30
0.0
 11
-0.2235807756
 21
0.4472283268
 31
0.0
 40
0.6125552124
 41
2.4567882058
 42
4.0278891191
  0
ELLIPSE
  5
626
100
AcDbEntity
  8
RACCORDO
100
AcDbEllipse
 62
7
  6
CONTINUOUS
 10
146.0780024983
 20
123.5914911286
 30
0.0
 11
-0.2237009107
 21
0.4473351135
 31
0.0
 40
0.6121897086
 41
4.0274505145
 42
5.5985514278
  0
ELLIPSE
  5
627
100
AcDbEntity
  8
RACCORDO
100
AcDbEllipse
 62
7
  6
CONTINUOUS
 10
148.3826360196
 20
130.3389572552
 30
0.0
 11
0.2215594226
 21
0.4482351134
 31
0.0
 40
0.6088373611
 41
5.3943220613
 42
6.9651183881
  0
ELLIPSE
  5
628
100
AcDbEntity
  8
RACCORDO
100
AcDbEllipse
 62
7
  6
CONTINUOUS
 10
131.0907913399
 20
131.0850967078
 30
0.0
 11
-0.2235807756
 21
0.4472283268
 31
0.0
 40
0.6125552124
 41
-0.6848044477
 42
0.8862964655
  0
ELLIPSE
  5
629
100
AcDbEntity
  8
RACCORDO
100
AcDbEllipse
 62
7
  6
CONTINUOUS
 10
153.0621982372
 20
127.9701976157
 30
0.0
 11
-0.7417913999
 21
1.2002436976
 31
0.0
 40
0.5587454355
 41
5.0176587298
 42
6.2153925345
  0
ELLIPSE
  5
62A
100
AcDbEntity
  8
RACCORDO
100
AcDbEllipse
 62
7
  6
CONTINUOUS
 10
142.4048040171
 20
126.8991544084
 30
0.0
 11
0.4999881828
 21
-0.0070264249
 31
0.0
 40
0.4892375088
 41
-2.3493192548
 42
-0.7727633415
  0
ELLIPSE
  5
62B
100
AcDbEntity
  8
RACCORDO
100
AcDbEllipse
 62
7
  6
CONTINUOUS
 10
136.8853101647
 20
129.6589013346
 30
0.0
 11
0.4999881828
 21
-0.0070264249
 31
0.0
 40
0.4892375088
 41
-3.1347355197
 42
-2.3493192548
  0
ELLIPSE
  5
62C
100
AcDbEntity
  8
RACCORDO
100
AcDbEllipse
 62
7
  6
CONTINUOUS
 10
144.2610280197
 20
90.2868145658
 30
0.0
 11
-0.2713091605
 21
0.4239062184
 31
0.0
 40
0.5451249042
 41
-3.2164578779
 42
-2.3115524019
  0
ELLIPSE
  5
62D
100
AcDbEntity
  8
268
100
AcDbEllipse
 62
7
  6
CONTINUOUS
 10
115.0116418771
 20
140.6015733714
 30
0.0
 11
0.110769438
 21
0.2241226716
 31
0.0
 40
0.6088015717
 41
-4.0304836828
 42
-3.1443650652
  0
ELLIPSE
  5
62E
100
AcDbEntity
  8
268
100
AcDbEllipse
 62
7
  6
CONTINUOUS
 10
128.3759600415
 20
133.9194142892
 30
0.0
 11
0.110769438
 21
0.2241226716
 31
0.0
 40
0.6088015717
 41
-4.0304836828
 42
-3.1443650652
  0
ELLIPSE
  5
62F
100
AcDbEntity
  8
268
100
AcDbEllipse
 62
7
  6
CONTINUOUS
 10
126.6659723743
 20
141.7329275452
 30
0.0
 11
0.2999991737
 21
-0.0014183462
 31
0.0
 40
0.4964289597
 41
0.7877451926
 42
2.3527237553
  0
ELLIPSE
  5
630
100
AcDbEntity
  8
268
100
AcDbEllipse
 62
7
  6
CONTINUOUS
 10
132.2204358884
 20
138.9556957881
 30
0.0
 11
0.2999991737
 21
-0.0014183462
 31
0.0
 40
0.4964289597
 41
0.7877451926
 42
2.3585415194
  0
ELLIPSE
  5
631
100
AcDbEntity
  8
268
100
AcDbEllipse
 62
7
  6
CONTINUOUS
 10
118.3954698595
 20
139.9274263332
 30
0.0
 11
0.110769438
 21
0.2241226716
 31
0.0
 40
0.6088015717
 41
1.2055040732
 42
2.2526937431
  0
ELLIPSE
  5
632
100
AcDbEntity
  8
268
100
AcDbEllipse
 62
7
  6
CONTINUOUS
 10
132.1112845011
 20
134.173072403
 30
0.0
 11
0.110769438
 21
0.2241226716
 31
0.0
 40
0.6088015717
 41
-1.9360885804
 42
-0.8888910292
  0
ELLIPSE
  5
633
100
AcDbEntity
  8
268
100
AcDbEllipse
 62
7
  6
CONTINUOUS
 10
130.4911096447
 20
135.2440888075
 30
0.0
 11
0.1128509832
 21
0.2230818409
 31
0.0
 40
0.6159267166
 41
0.0028979148
 42
0.6817883054
  0
ELLIPSE
  5
634
100
AcDbEntity
  8
268
100
AcDbEllipse
 62
7
  6
CONTINUOUS
 10
128.3759600415
 20
134.1727856829
 30
0.0
 11
0.110769438
 21
0.2241226716
 31
0.0
 40
0.6088015717
 41
0.6877230618
 42
2.2527016244
  0
ELLIPSE
  5
635
100
AcDbEntity
  8
268
100
AcDbEllipse
 62
7
  6
CONTINUOUS
 10
118.7469663366
 20
140.8552314852
 30
0.0
 11
0.110769438
 21
0.2241226716
 31
0.0
 40
0.6088015717
 41
-1.9360885804
 42
-0.8888910292
  0
ELLIPSE
  5
636
100
AcDbEntity
  8
268
100
AcDbEllipse
 62
7
  6
CONTINUOUS
 10
117.1267914803
 20
141.9262478897
 30
0.0
 11
0.1128509832
 21
0.2230818409
 31
0.0
 40
0.6159267166
 41
0.0028979148
 42
0.6817883054
  0
ELLIPSE
  5
637
100
AcDbEntity
  8
268
100
AcDbEllipse
 62
7
  6
CONTINUOUS
 10
115.0116418771
 20
140.8549447651
 30
0.0
 11
0.110769438
 21
0.2241226716
 31
0.0
 40
0.6088015717
 41
0.6877230618
 42
2.2527016244
  0
ELLIPSE
  5
638
100
AcDbEntity
  8
268
100
AcDbEllipse
 62
7
  6
CONTINUOUS
 10
118.7469663366
 20
141.1161604615
 30
0.0
 11
0.110769438
 21
0.2241226716
 31
0.0
 40
0.6088015717
 41
5.394294278
 42
6.9592728406
  0
ELLIPSE
  5
639
100
AcDbEntity
  8
268
100
AcDbEllipse
 62
7
  6
CONTINUOUS
 10
132.1112845011
 20
134.4340013793
 30
0.0
 11
0.110769438
 21
0.2241226716
 31
0.0
 40
0.6088015717
 41
5.394294278
 42
6.9592728406
  0
ELLIPSE
  5
63A
100
AcDbEntity
  8
268
100
AcDbEllipse
 62
7
  6
CONTINUOUS
 10
126.8464243514
 20
140.4108673753
 30
0.0
 11
0.2999981629
 21
-0.0021225547
 31
0.0
 40
0.4946372042
 41
-0.7818985079
 42
0.0034997008
  0
ELLIPSE
  5
63B
100
AcDbEntity
  8
268
100
AcDbEllipse
 62
7
  6
CONTINUOUS
 10
132.4008878656
 20
137.6336356182
 30
0.0
 11
0.2999981629
 21
-0.0021225547
 31
0.0
 40
0.4946372042
 41
-0.7760807437
 42
0.0035109161
  0
ELLIPSE
  5
63C
100
AcDbEntity
  8
268
100
AcDbEllipse
 62
7
  6
CONTINUOUS
 10
120.6974786239
 20
138.8127461773
 30
0.0
 11
0.2999991335
 21
0.0014318851
 31
0.0
 40
0.5035541159
 41
8.6427941204
 42
10.207772683
  0
ELLIPSE
  5
63D
100
AcDbEntity
  8
268
100
AcDbEllipse
 62
7
  6
CONTINUOUS
 10
114.684187715
 20
139.015676076
 30
0.0
 11
-0.1565168911
 21
0.3130623908
 31
0.0
 40
0.6123677712
 41
-0.6846781644
 42
0.8861181623
  0
ELLIPSE
  5
63E
100
AcDbEntity
  8
268
100
AcDbEllipse
 62
7
  6
CONTINUOUS
 10
129.9576941886
 20
131.3789228392
 30
0.0
 11
-0.1565168911
 21
0.3130623908
 31
0.0
 40
0.6123677712
 41
-2.2554744912
 42
-0.6846781644
  0
ELLIPSE
  5
63F
100
AcDbEntity
  8
268
100
AcDbEllipse
 62
7
  6
CONTINUOUS
 10
126.489987692
 20
135.9164916433
 30
0.0
 11
0.2999991335
 21
0.0014318851
 31
0.0
 40
0.5035541159
 41
-2.3585979313
 42
-0.7936193687
  0
ELLIPSE
  5
640
100
AcDbEntity
  8
268
100
AcDbEllipse
 62
7
  6
CONTINUOUS
 10
126.489987692
 20
134.7022925674
 30
0.0
 11
0.2999980272
 21
0.0021530184
 31
0.0
 40
0.5053247124
 41
-2.3598210761
 42
-0.7948425135
  0
ELLIPSE
  5
641
100
AcDbEntity
  8
268
100
AcDbEllipse
 62
7
  6
CONTINUOUS
 10
120.6974786239
 20
137.5985471015
 30
0.0
 11
0.2999980272
 21
0.0021530184
 31
0.0
 40
0.5053247124
 41
3.1379773283
 42
3.9233642311
  0
ELLIPSE
  5
642
100
AcDbEntity
  8
268
100
AcDbEllipse
 62
7
  6
CONTINUOUS
 10
132.4008878656
 20
138.8654697996
 30
0.0
 11
0.2999991737
 21
-0.0014183462
 31
0.0
 40
0.4964289597
 41
-0.77723337
 42
0.7877451926
  0
ELLIPSE
  5
643
100
AcDbEntity
  8
268
100
AcDbEllipse
 62
7
  6
CONTINUOUS
 10
126.8464243514
 20
141.6427015567
 30
0.0
 11
0.2999991737
 21
-0.0014183462
 31
0.0
 40
0.4964289597
 41
-0.7830511342
 42
0.7877451926
  0
ELLIPSE
  5
644
100
AcDbEntity
  8
268
100
AcDbEllipse
 62
7
  6
CONTINUOUS
 10
129.9837934171
 20
133.3688689951
 30
0.0
 11
0.1128509832
 21
0.2230818409
 31
0.0
 40
0.6159267166
 41
0.6934238338
 42
2.2584023964
  0
ELLIPSE
  5
645
100
AcDbEntity
  8
268
100
AcDbEllipse
 62
7
  6
CONTINUOUS
 10
129.9837934171
 20
133.1154976014
 30
0.0
 11
0.1128509832
 21
0.2230818409
 31
0.0
 40
0.6159267166
 41
-4.0247829108
 42
-2.9775853596
  0
ELLIPSE
  5
646
100
AcDbEntity
  8
268
100
AcDbEllipse
 62
7
  6
CONTINUOUS
 10
116.6194752527
 20
140.0510280773
 30
0.0
 11
0.1128509832
 21
0.2230818409
 31
0.0
 40
0.6159267166
 41
0.6934238338
 42
2.2584023964
  0
ELLIPSE
  5
647
100
AcDbEntity
  8
268
100
AcDbEllipse
 62
7
  6
CONTINUOUS
 10
116.6194752527
 20
139.7976566836
 30
0.0
 11
0.1128509832
 21
0.2230818409
 31
0.0
 40
0.6159267166
 41
-4.0247829108
 42
-2.9775853596
  0
ELLIPSE
  5
648
100
AcDbEntity
  8
RACCORDO
100
AcDbEllipse
 62
7
  6
CONTINUOUS
 10
115.6847513101
 20
137.5909510875
 30
0.0
 11
-0.2786191524
 21
0.7501668109
 31
0.0
 40
0.6610921126
 41
-0.6157157441
 42
0.0213201203
  0
ELLIPSE
  5
649
100
AcDbEntity
  8
RACCORDO
100
AcDbEllipse
 62
7
  6
CONTINUOUS
 10
142.6544720424
 20
85.1087283839
 30
0.0
 11
-0.2786191524
 21
0.7501668109
 31
0.0
 40
0.6610921126
 41
-3.1630638698
 42
-2.1868166574
  0
ELLIPSE
  5
64A
100
AcDbEntity
  8
RACCORDO
100
AcDbEllipse
 62
7
  6
CONTINUOUS
 10
145.736617171
 20
122.5650181571
 30
0.0
 11
-0.2783604326
 21
0.7500177284
 31
0.0
 40
0.6614719787
 41
-2.1862531203
 42
-0.61576138
  0
ELLIPSE
  5
64B
100
AcDbEntity
  8
ASSI
100
AcDbEllipse
 62
7
  6
CONTINUOUS
 10
115.6847513101
 20
137.5909510875
 30
0.0
 11
-0.2786191524
 21
0.7501668109
 31
0.0
 40
0.6610921126
 41
-0.6157157441
 42
0.0213201203
  0
ELLIPSE
  5
64C
100
AcDbEntity
  8
ASSI
100
AcDbEllipse
 62
7
  6
CONTINUOUS
 10
142.6544720424
 20
85.1087283839
 30
0.0
 11
-0.2786191524
 21
0.7501668109
 31
0.0
 40
0.6610921126
 41
-3.1630638698
 42
-2.1868166574
  0
ELLIPSE
  5
64D
100
AcDbEntity
  8
ASSI
100
AcDbEllipse
 62
7
  6
CONTINUOUS
 10
145.736617171
 20
122.5650181571
 30
0.0
 11
-0.2783604326
 21
0.7500177284
 31
0.0
 40
0.6614719787
 41
-2.1862531203
 42
-0.61576138
  0
ENDSEC
  0
SECTION
  2
OBJECTS
  0
DICTIONARY
  5
C
100
AcDbDictionary
280
0
281
1
  3
ACAD_GROUP
350
D
  3
ACAD_MLINESTYLE
350
17
  3
ACAD_LAYOUT
350
1A
  3
ACAD_PLOTSETTINGS
350
19
  3
ACAD_PLOTSTYLENAME
350
E
  0
DICTIONARY
  5
D
102
{ACAD_REACTORS
330
C
102
}
100
AcDbDictionary
280
0
281
1
  0
ACDBDICTIONARYWDFLT
  5
E
102
{ACAD_REACTORS
330
C
102
}
100
AcDbDictionary
281
1
  3
Normal
350
F
100
AcDbDictionaryWithDefault
340
F
  0
DICTIONARY
  5
17
102
{ACAD_REACTORS
330
C
102
}
100
AcDbDictionary
280
0
281
1
  3
Standard
350
18
  0
DICTIONARY
  5
19
102
{ACAD_REACTORS
330
C
102
}
100
AcDbDictionary
281
1
  0
DICTIONARY
  5
1A
102
{ACAD_REACTORS
330
C
102
}
100
AcDbDictionary
281
1
  3
Model
350
64E
  3
Layout1
350
64F
  0
ACDBPLACEHOLDER
  5
F
102
{ACAD_REACTORS
330
E
102
}
  0
MLINESTYLE
  5
18
102
{ACAD_REACTORS
330
17
102
}
100
AcDbMlineStyle
  2
STANDARD
 70
0
  3

 62
256
 51
90.0
 52
90.0
 71
2
 49
0.5
 62
256
  6
BYLAYER
 49
-0.5
 62
256
  6
BYLAYER
  0
LAYOUT
  5
64E
102
{ACAD_REACTORS
330
1A
102
}
100
AcDbPlotSettings
  1

  2
none_device
  4
ISO_A4_(297.00_x_210.00_MM)
  6

 40
0.0
 41
0.0
 42
0.0
 43
0.0
 44
297.0
 45
210.0
 46
0.0
 47
0.0
 48
0.0
 49
0.0
140
0.0
141
0.0
142
1.0
143
1.0
 70
1024
 72
1
 73
0
 74
0
  7

 75
0
147
1.0
148
0.0
149
0.0
100
AcDbLayout
  1
Model
 70
0
 71
0
 10
0.0
 20
0.0
 11
297.0
 21
210.0
 12
0.0
 22
0.0
 32
0.0
 14
0.0
 24
0.0
 34
0.0
 15
0.0
 25
0.0
 35
0.0
146
0.0
 13
0.0
 23
0.0
 33
0.0
 16
1.0
 26
0.0
 36
0.0
 17
0.0
 27
1.0
 37
0.0
 76
0
330
224
345
0
346
0
  0
LAYOUT
  5
64F
102
{ACAD_REACTORS
330
1A
102
}
100
AcDbPlotSettings
  1

  2
none_device
  4
ISO_A4_(297.00_x_210.00_MM)
  6

 40
0.0
 41
0.0
 42
0.0
 43
0.0
 44
297.0
 45
210.0
 46
0.0
 47
0.0
 48
0.0
 49
0.0
140
0.0
141
0.0
142
1.0
143
1.0
 70
0
 72
1
 73
0
 74
0
  7

 75
0
147
1.0
148
0.0
149
0.0
100
AcDbLayout
  1
Layout1
 70
0
 71
1
 10
0.0
 20
0.0
 11
297.0
 21
210.0
 12
0.0
 22
0.0
 32
0.0
 14
0.0
 24
0.0
 34
0.0
 15
0.0
 25
0.0
 35
0.0
146
0.0
 13
0.0
 23
0.0
 33
0.0
 16
1.0
 26
0.0
 36
0.0
 17
0.0
 27
1.0
 37
0.0
 76
0
330
225
345
0
346
0
  0
ENDSEC
  0
EOF
