  0
SECTION
  2
HEADER
  9
$ACADVER
  1
AC1015
  9
$DWGCODEPAGE
  3
ANSI_1252
  9
$EXTMAX
 10
297.0
 20
210.0
 30
0.0
  9
$EXTMIN
 10
0.0
 20
0.0
 30
0.0
  9
$LIMMIN
 10
0.0
 20
0.0
  9
$LIMMAX
 10
297.0
 20
210.0
  9
$VIEWCTR
 10
148.5
 20
105.0
  9
$VIEWSIZE
 40
210.0
  9
$CLAYER
  8
0
  9
$LTSCALE
 40
16.335
  9
$CELTYPE
  6
BYLAYER
  9
$DIMSCALE
 40
1.0
  9
$DIMASZ
 40
3.0
  9
$DIMEXO
 40
0.5
  9
$DIMDLI
 40
11.286
  9
$DIMEXE
 40
1.5
  9
$DIMCEN
 40
2.673
  9
$DIMLFAC
 40
1.0
  9
$DIMBLK
  1
_FILLED
  9
$DIMTXT
 40
3.0
  9
$DIMTOL
 70
1
  9
$DIMLIM
 70
0
  9
$DIMTFAC
 40
1.0
  9
$DIMTP
 40
0.01
  9
$DIMTM
 40
0.01
  9
$DIMGAP
 40
0.625
  9
$DIMDSEP
 70
44
  9
$PDMODE
 70
3
  9
$PDSIZE
 40
3.0
  9
$HANDSEED
  5
58B
  9
$TILEMODE
 70
1
  9
$MEASUREMENT
 70
1
  9
$INSUNITS
 70
4
  0
ENDSEC
  0
SECTION
  2
CLASSES
  0
CLASS
  1
ACDBDICTIONARYWDFLT
  2
AcDbDictionaryWithDefault
  3
AutoCAD 2000
 90
0
280
0
281
0
  0
CLASS
  1
ACDBPLACEHOLDER
  2
AcDbPlaceHolder
  3
AutoCAD 2000
 90
0
280
0
281
0
  0
CLASS
  1
LAYOUT
  2
AcDbLayout
  3
AutoCAD 2000
 90
0
280
0
281
0
  0
ENDSEC
  0
SECTION
  2
TABLES
  0
TABLE
  2
VPORT
  5
8
100
AcDbSymbolTable
 70
2
  0
VPORT
  5
1F4
100
AcDbSymbolTableRecord
100
AcDbViewportTableRecord
  2
*ACTIVE
 70
0
 10
0.0
 20
0.0
 11
1.0
 21
1.0
 12
148.5
 22
105.0
 13
0.0
 23
0.0
 14
1.0
 24
1.0
 15
0.0
 25
0.0
 16
0.0
 26
0.0
 36
1.0
 17
0.0
 27
0.0
 37
0.0
 40
210.0
 41
1.4142857143
 42
50.0
 43
0.0
 44
0.0
 50
0.0
 51
0.0
 71
0
 72
100
 73
1
 74
1
 75
0
 76
0
 77
0
 78
0
  0
ENDTAB
  0
TABLE
  2
LTYPE
  5
5
100
AcDbSymbolTable
 70
6
  0
LTYPE
  5
14
100
AcDbSymbolTableRecord
100
AcDbLinetypeTableRecord
  2
BYBLOCK
 70
0
  3

 72
65
 73
0
 40
0.0
  0
LTYPE
  5
15
100
AcDbSymbolTableRecord
100
AcDbLinetypeTableRecord
  2
BYLAYER
 70
0
  3

 72
65
 73
0
 40
0.0
  0
LTYPE
  5
16
100
AcDbSymbolTableRecord
100
AcDbLinetypeTableRecord
  2
CONTINUOUS
 70
64
  3
Solid line
 72
65
 73
0
 40
0.0
  0
LTYPE
  5
1F5
100
AcDbSymbolTableRecord
100
AcDbLinetypeTableRecord
  2
CENTER
 70
64
  3
____ _ ____ _ ____ _ ____ _ ____ _ ____ _ ____
 72
65
 73
4
 40
0.6
 49
0.375
 74
0
 49
-0.075
 74
0
 49
0.075
 74
0
 49
-0.075
 74
0
  0
LTYPE
  5
1F6
100
AcDbSymbolTableRecord
100
AcDbLinetypeTableRecord
  2
HIDDEN
 70
64
  3
- - - - - - - - - - - - - - - - - - - -
 72
65
 73
2
 40
0.2
 49
0.1
 74
0
 49
-0.1
 74
0
  0
LTYPE
  5
1F7
100
AcDbSymbolTableRecord
100
AcDbLinetypeTableRecord
  2
PHANTOM
 70
64
  3
_____ _ _ _____ _ _ _____ _ _ _____
 72
65
 73
6
 40
0.8
 49
0.45
 74
0
 49
-0.05
 74
0
 49
0.1
 74
0
 49
-0.05
 74
0
 49
0.1
 74
0
 49
-0.05
 74
0
  0
LTYPE
  5
1F8
100
AcDbSymbolTableRecord
100
AcDbLinetypeTableRecord
  2
DOT
 70
64
  3
. . . . . . . . . . . . . . . . . . . .
 72
65
 73
2
 40
0.2
 49
0.1
 74
0
 49
-0.1
 74
0
  0
LTYPE
  5
1F9
100
AcDbSymbolTableRecord
100
AcDbLinetypeTableRecord
  2
DASHED
 70
64
  3
- - - - - - - - - - - - - - - - - - - -
 72
65
 73
2
 40
0.2
 49
0.1
 74
0
 49
-0.1
 74
0
  0
ENDTAB
  0
TABLE
  2
LAYER
  5
2
100
AcDbSymbolTable
 70
36
  0
LAYER
  5
10
100
AcDbSymbolTableRecord
100
AcDbLayerTableRecord
  2
0
 70
0
 62
7
  6
CONTINUOUS
370
-3
390
F
  0
LAYER
  5
1FA
100
AcDbSymbolTableRecord
100
AcDbLayerTableRecord
  2
DEFAULT_1
 70
0
 62
7
  6
CENTER
370
-3
390
F
  0
LAYER
  5
1FB
100
AcDbSymbolTableRecord
100
AcDbLayerTableRecord
  2
DEFAULT_2
 70
0
 62
7
  6
HIDDEN
370
-3
390
F
  0
LAYER
  5
1FC
100
AcDbSymbolTableRecord
100
AcDbLayerTableRecord
  2
DEFAULT_3
 70
0
 62
7
  6
PHANTOM
370
-3
390
F
  0
LAYER
  5
1FD
100
AcDbSymbolTableRecord
100
AcDbLayerTableRecord
  2
218
 70
0
 62
7
  6
CONTINUOUS
370
-3
390
F
  0
LAYER
  5
1FE
100
AcDbSymbolTableRecord
100
AcDbLayerTableRecord
  2
260
 70
0
 62
7
  6
CONTINUOUS
370
-3
390
F
  0
LAYER
  5
1FF
100
AcDbSymbolTableRecord
100
AcDbLayerTableRecord
  2
268
 70
0
 62
7
  6
CONTINUOUS
370
-3
390
F
  0
LAYER
  5
200
100
AcDbSymbolTableRecord
100
AcDbLayerTableRecord
  2
284
 70
0
 62
7
  6
CONTINUOUS
370
-3
390
F
  0
LAYER
  5
201
100
AcDbSymbolTableRecord
100
AcDbLayerTableRecord
  2
320
 70
0
 62
7
  6
CONTINUOUS
370
-3
390
F
  0
LAYER
  5
202
100
AcDbSymbolTableRecord
100
AcDbLayerTableRecord
  2
340
 70
0
 62
7
  6
CONTINUOUS
370
-3
390
F
  0
LAYER
  5
203
100
AcDbSymbolTableRecord
100
AcDbLayerTableRecord
  2
712
 70
0
 62
7
  6
CONTINUOUS
370
-3
390
F
  0
LAYER
  5
204
100
AcDbSymbolTableRecord
100
AcDbLayerTableRecord
  2
715
 70
0
 62
7
  6
CONTINUOUS
370
-3
390
F
  0
LAYER
  5
205
100
AcDbSymbolTableRecord
100
AcDbLayerTableRecord
  2
ASSI
 70
0
 62
7
  6
CONTINUOUS
370
-3
390
F
  0
LAYER
  5
206
100
AcDbSymbolTableRecord
100
AcDbLayerTableRecord
  2
COLORE_SERIE
 70
0
 62
7
  6
CONTINUOUS
370
-3
390
F
  0
LAYER
  5
207
100
AcDbSymbolTableRecord
100
AcDbLayerTableRecord
  2
COLORE_TOP
 70
0
 62
7
  6
CONTINUOUS
370
-3
390
F
  0
LAYER
  5
208
100
AcDbSymbolTableRecord
100
AcDbLayerTableRecord
  2
COORDINATE
 70
0
 62
7
  6
CONTINUOUS
370
-3
390
F
  0
LAYER
  5
209
100
AcDbSymbolTableRecord
100
AcDbLayerTableRecord
  2
COORD_ORIGINE
 70
0
 62
7
  6
CONTINUOUS
370
-3
390
F
  0
LAYER
  5
20A
100
AcDbSymbolTableRecord
100
AcDbLayerTableRecord
  2
COPY_PUBLISH
 70
0
 62
7
  6
CONTINUOUS
370
-3
390
F
  0
LAYER
  5
20B
100
AcDbSymbolTableRecord
100
AcDbLayerTableRecord
  2
COSMETIC
 70
0
 62
7
  6
CONTINUOUS
370
-3
390
F
  0
LAYER
  5
20C
100
AcDbSymbolTableRecord
100
AcDbLayerTableRecord
  2
COSMETICI
 70
0
 62
7
  6
CONTINUOUS
370
-3
390
F
  0
LAYER
  5
20D
100
AcDbSymbolTableRecord
100
AcDbLayerTableRecord
  2
CURVE
 70
0
 62
7
  6
CONTINUOUS
370
-3
390
F
  0
LAYER
  5
20E
100
AcDbSymbolTableRecord
100
AcDbLayerTableRecord
  2
DRAFT
 70
0
 62
7
  6
CONTINUOUS
370
-3
390
F
  0
LAYER
  5
20F
100
AcDbSymbolTableRecord
100
AcDbLayerTableRecord
  2
IMPORT
 70
0
 62
7
  6
CONTINUOUS
370
-3
390
F
  0
LAYER
  5
210
100
AcDbSymbolTableRecord
100
AcDbLayerTableRecord
  2
IMPORTED
 70
0
 62
7
  6
CONTINUOUS
370
-3
390
F
  0
LAYER
  5
211
100
AcDbSymbolTableRecord
100
AcDbLayerTableRecord
  2
IMPORT_IGES
 70
0
 62
7
  6
CONTINUOUS
370
-3
390
F
  0
LAYER
  5
212
100
AcDbSymbolTableRecord
100
AcDbLayerTableRecord
  2
INTF_1
 70
0
 62
7
  6
CONTINUOUS
370
-3
390
F
  0
LAYER
  5
213
100
AcDbSymbolTableRecord
100
AcDbLayerTableRecord
  2
NOTE
 70
0
 62
7
  6
CONTINUOUS
370
-3
390
F
  0
LAYER
  5
214
100
AcDbSymbolTableRecord
100
AcDbLayerTableRecord
  2
PIANI
 70
0
 62
7
  6
CONTINUOUS
370
-3
390
F
  0
LAYER
  5
215
100
AcDbSymbolTableRecord
100
AcDbLayerTableRecord
  2
PIANI_DI_RIFERIMENTO
 70
0
 62
7
  6
CONTINUOUS
370
-3
390
F
  0
LAYER
  5
216
100
AcDbSymbolTableRecord
100
AcDbLayerTableRecord
  2
PIANI_ORIGINE
 70
0
 62
7
  6
CONTINUOUS
370
-3
390
F
  0
LAYER
  5
217
100
AcDbSymbolTableRecord
100
AcDbLayerTableRecord
  2
PIANI_RIFERIMENTO
 70
0
 62
7
  6
CONTINUOUS
370
-3
390
F
  0
LAYER
  5
218
100
AcDbSymbolTableRecord
100
AcDbLayerTableRecord
  2
PIANI_SFORMO
 70
0
 62
7
  6
CONTINUOUS
370
-3
390
F
  0
LAYER
  5
219
100
AcDbSymbolTableRecord
100
AcDbLayerTableRecord
  2
PUNTI
 70
0
 62
7
  6
CONTINUOUS
370
-3
390
F
  0
LAYER
  5
21A
100
AcDbSymbolTableRecord
100
AcDbLayerTableRecord
  2
RACCORDO
 70
0
 62
7
  6
CONTINUOUS
370
-3
390
F
  0
LAYER
  5
21B
100
AcDbSymbolTableRecord
100
AcDbLayerTableRecord
  2
SIMBOLI
 70
0
 62
7
  6
CONTINUOUS
370
-3
390
F
  0
LAYER
  5
21C
100
AcDbSymbolTableRecord
100
AcDbLayerTableRecord
  2
SMUSSO
 70
0
 62
7
  6
CONTINUOUS
370
-3
390
F
  0
LAYER
  5
21D
100
AcDbSymbolTableRecord
100
AcDbLayerTableRecord
  2
SNAPLINE
 70
0
 62
7
  6
CONTINUOUS
370
-3
390
F
  0
LAYER
  5
21E
100
AcDbSymbolTableRecord
100
AcDbLayerTableRecord
  2
SUPERFICI
 70
0
 62
7
  6
CONTINUOUS
370
-3
390
F
  0
LAYER
  5
21F
100
AcDbSymbolTableRecord
100
AcDbLayerTableRecord
  2
TRASH
 70
0
 62
7
  6
CONTINUOUS
370
-3
390
F
  0
LAYER
  5
220
100
AcDbSymbolTableRecord
100
AcDbLayerTableRecord
  2
WHITE
 70
0
 62
7
  6
CONTINUOUS
370
-3
390
F
  0
LAYER
  5
221
100
AcDbSymbolTableRecord
100
AcDbLayerTableRecord
  2
XSEC_DATUMS
 70
0
 62
7
  6
CONTINUOUS
370
-3
390
F
  0
ENDTAB
  0
TABLE
  2
STYLE
  5
3
100
AcDbSymbolTable
 70
1
  0
STYLE
  5
11
100
AcDbSymbolTableRecord
100
AcDbTextStyleTableRecord
  2
STANDARD
 70
0
 40
0.0
 41
0.8
 50
0.0
 71
0
 42
0.2
  3
txt
  4

  0
STYLE
  5
222
100
AcDbSymbolTableRecord
100
AcDbTextStyleTableRecord
  2
TEXTSTYLE_1
 70
0
 40
0.0
 41
0.8
 50
0.0
 71
0
 42
0.2
  3
gdt
  4

  0
ENDTAB
  0
TABLE
  2
VIEW
  5
6
100
AcDbSymbolTable
 70
0
  0
ENDTAB
  0
TABLE
  2
UCS
  5
7
100
AcDbSymbolTable
 70
0
  0
ENDTAB
  0
TABLE
  2
APPID
  5
9
100
AcDbSymbolTable
 70
1
  0
APPID
  5
223
100
AcDbSymbolTableRecord
100
AcDbRegAppTableRecord
  2
ACAD
 70
0
  0
ENDTAB
  0
TABLE
  2
BLOCK_RECORD
  5
1
100
AcDbSymbolTable
 70
0
  0
BLOCK_RECORD
  5
224
100
AcDbSymbolTableRecord
100
AcDbBlockTableRecord
  2
*Model_Space
  0
BLOCK_RECORD
  5
225
100
AcDbSymbolTableRecord
100
AcDbBlockTableRecord
  2
*Paper_Space
  0
ENDTAB
  0
TABLE
  2
DIMSTYLE
  5
A
100
AcDbSymbolTable
 70
1
100
AcDbDimStyleTable
 71
0
  0
DIMSTYLE
105
226
100
AcDbSymbolTableRecord
100
AcDbDimStyleTableRecord
  2
STANDARD
 70
0
  3

  4

 40
1.0
 41
3.0
 42
0.5
 43
0.38
 44
1.5
 45
0.0
 46
0.0
 47
0.01
 48
0.01
140
3.0
141
0.09
142
0.0
143
25.4
144
1.0
145
0.0
146
1.0
147
0.625
 71
1.0
 72
0.0
 73
0
 74
0
 75
0
 76
0
 77
1
 78
8
170
0
171
2
172
0
173
0
174
0
175
0
176
0
177
0
178
0
270
2
271
2
272
2
273
2
274
2
275
0
280
0
281
0
282
0
283
1
284
8
285
0
286
0
287
3
288
0
340
11
278
44
  0
ENDTAB
  0
ENDSEC
  0
SECTION
  2
BLOCKS
  0
BLOCK
  5
20
100
AcDbEntity
  8
0
100
AcDbBlockBegin
  2
*Model_Space
 70
0
 10
0.0
 20
0.0
 30
0.0
  3
*Model_Space
  1

  0
ENDBLK
  5
21
100
AcDbEntity
  8
0
100
AcDbBlockEnd
  0
BLOCK
  5
1C
100
AcDbEntity
  8
0
100
AcDbBlockBegin
  2
*Paper_Space
 70
0
 10
0.0
 20
0.0
 30
0.0
  3
*Paper_Space
  1

  0
ENDBLK
  5
1D
100
AcDbEntity
  8
0
100
AcDbBlockEnd
  0
ENDSEC
  0
SECTION
  2
ENTITIES
  0
LINE
  5
227
100
AcDbEntity
  8
268
100
AcDbLine
 62
7
  6
CONTINUOUS
 10
116.6870009471
 20
137.1111310249
 11
118.2697575503
 21
137.9231151223
  0
LINE
  5
228
100
AcDbEntity
  8
268
100
AcDbLine
 62
7
  6
CONTINUOUS
 10
118.2697575503
 20
137.9231151223
 11
118.804207429
 21
138.1834625888
  0
LINE
  5
229
100
AcDbEntity
  8
RACCORDO
100
AcDbLine
 62
253
  6
CONTINUOUS
 10
109.7144056962
 20
94.0797176906
 11
109.6557101307
 21
94.11370666
  0
LWPOLYLINE
  5
22A
100
AcDbEntity
  8
ASSI
100
AcDbPolyline
 62
253
  6
CONTINUOUS
 90
14
 70
0
 10
109.713686622
 20
94.0800778917
 10
109.6557101307
 20
94.11370666
 10
109.6036179365
 20
94.1527494438
 10
109.5554234023
 20
94.1981403654
 10
109.5113457267
 20
94.2496708583
 10
109.4716015652
 20
94.3070978375
 10
109.4364040796
 20
94.3701256436
 10
109.4059356168
 20
94.4384252642
 10
109.3803515311
 20
94.5116432438
 10
109.3597763928
 20
94.5894195216
 10
109.3443079909
 20
94.6713763034
 10
109.3340241012
 20
94.7571080883
 10
109.3289797789
 20
94.8461817507
 10
109.3292017056
 20
94.9381515841
  0
LWPOLYLINE
  5
22B
100
AcDbEntity
  8
RACCORDO
100
AcDbPolyline
 62
253
  6
CONTINUOUS
 90
13
 70
0
 10
109.6557101307
 20
94.11370666
 10
109.6036179365
 20
94.1527494438
 10
109.5554234023
 20
94.1981403654
 10
109.5113457267
 20
94.2496708583
 10
109.4716015652
 20
94.3070978375
 10
109.4364040796
 20
94.3701256436
 10
109.4059356168
 20
94.4384252642
 10
109.3803515311
 20
94.5116432438
 10
109.3597763928
 20
94.5894195216
 10
109.3443079909
 20
94.6713763034
 10
109.3340241012
 20
94.7571080883
 10
109.3289797789
 20
94.8461817507
 10
109.3292017056
 20
94.9381515841
  0
LWPOLYLINE
  5
22C
100
AcDbEntity
  8
ASSI
100
AcDbPolyline
 62
253
  6
CONTINUOUS
 90
4
 70
0
 10
112.8606247995
 20
132.3520055305
 10
112.9279011521
 20
132.4256178163
 10
112.9972623291
 20
132.4943168886
 10
113.0683484099
 20
132.5577534951
  0
LWPOLYLINE
  5
22D
100
AcDbEntity
  8
RACCORDO
100
AcDbPolyline
 62
253
  6
CONTINUOUS
 90
6
 70
0
 10
113.0683484099
 20
132.5577534951
 10
113.1408094027
 20
132.6156217698
 10
113.21429787
 20
132.6676371034
 10
113.2884493237
 20
132.7135400221
 10
113.3628835366
 20
132.7531000522
 10
113.4372247949
 20
132.7861194723
  0
LWPOLYLINE
  5
22E
100
AcDbEntity
  8
ASSI
100
AcDbPolyline
 62
253
  6
CONTINUOUS
 90
4
 70
0
 10
113.0683484099
 20
132.5577534951
 10
113.1408094027
 20
132.6156217698
 10
113.21429787
 20
132.6676371034
 10
113.2884493237
 20
132.7135400221
  0
LINE
  5
22F
100
AcDbEntity
  8
ASSI
100
AcDbLine
 62
253
  6
CONTINUOUS
 10
113.2884493237
 20
132.7135400221
 11
113.3628835366
 21
132.7531000522
  0
LINE
  5
230
100
AcDbEntity
  8
268
100
AcDbLine
 62
7
  6
CONTINUOUS
 10
116.2030458348
 20
135.3684306229
 11
117.2152681189
 21
135.8853605856
  0
LINE
  5
231
100
AcDbEntity
  8
268
100
AcDbLine
 62
253
  6
CONTINUOUS
 10
116.3605692411
 20
135.3589972933
 11
117.2152681189
 21
135.7954819133
  0
LINE
  5
232
100
AcDbEntity
  8
268
100
AcDbLine
 62
7
  6
CONTINUOUS
 10
119.896103147
 20
135.3778915163
 11
118.8292722349
 21
134.8393102668
  0
LINE
  5
233
100
AcDbEntity
  8
268
100
AcDbLine
 62
7
  6
CONTINUOUS
 10
118.2948223562
 20
136.3072203204
 11
119.896103147
 21
137.1099423239
  0
LINE
  5
234
100
AcDbEntity
  8
268
100
AcDbLine
 62
7
  6
CONTINUOUS
 10
119.896103147
 20
137.1099423239
 11
120.4243703188
 21
137.3733811439
  0
LWPOLYLINE
  5
235
100
AcDbEntity
  8
ASSI
100
AcDbPolyline
 62
7
  6
CONTINUOUS
 90
10
 70
0
 10
113.0842957825
 20
132.81141302
 10
112.9458683584
 20
132.7450403768
 10
112.7880917461
 20
132.6439315452
 10
112.6374095055
 20
132.5178719956
 10
112.5005544509
 20
132.3723780228
 10
112.377375773
 20
132.2076604242
 10
112.269712956
 20
132.0249443873
 10
112.1836478361
 20
131.8347513081
 10
112.1200454215
 20
131.6420421941
 10
112.0779521077
 20
131.444464151
  0
LINE
  5
236
100
AcDbEntity
  8
ASSI
100
AcDbLine
 62
253
  6
CONTINUOUS
 10
113.3628835366
 20
132.7531000522
 11
113.4372247949
 21
132.7861194723
  0
LWPOLYLINE
  5
237
100
AcDbEntity
  8
RACCORDO
100
AcDbPolyline
 62
7
  6
CONTINUOUS
 90
17
 70
0
 10
113.0850832218
 20
132.8117363858
 10
113.0674622931
 20
132.8043762738
 10
112.9750805559
 20
132.7606926675
 10
112.8853121798
 20
132.7096347646
 10
112.7981503205
 20
132.6512621225
 10
112.713987055
 20
132.5858989261
 10
112.6335860518
 20
132.5142445664
 10
112.5569187447
 20
132.4363937229
 10
112.4841664698
 20
132.3525585773
 10
112.416258349
 20
132.263852458
 10
112.3532258046
 20
132.170460913
 10
112.2952244044
 20
132.0725646807
 10
112.2431017967
 20
131.9716273337
 10
112.1969214398
 20
131.867914876
 10
112.1568258411
 20
131.761598729
 10
112.1233847681
 20
131.6541731161
 10
112.0967529342
 20
131.5462431434
  0
LINE
  5
238
100
AcDbEntity
  8
RACCORDO
100
AcDbLine
 62
7
  6
CONTINUOUS
 10
113.085078697
 20
132.8117474518
 11
117.0011868957
 21
134.4125331022
  0
LINE
  5
239
100
AcDbEntity
  8
ASSI
100
AcDbLine
 62
7
  6
CONTINUOUS
 10
113.0842912537
 20
132.811424063
 11
117.0011868957
 21
134.4125331022
  0
LINE
  5
23A
100
AcDbEntity
  8
RACCORDO
100
AcDbLine
 62
253
  6
CONTINUOUS
 10
113.4372247949
 20
132.7861194723
 11
117.349389067
 21
134.3852929302
  0
LINE
  5
23B
100
AcDbEntity
  8
ASSI
100
AcDbLine
 62
253
  6
CONTINUOUS
 10
113.4372247949
 20
132.7861194723
 11
117.349389067
 21
134.3852929302
  0
LWPOLYLINE
  5
23C
100
AcDbEntity
  8
268
100
AcDbPolyline
 62
7
  6
CONTINUOUS
 90
3
 70
0
 10
127.8786767824
 20
138.5983024121
 10
127.8661117626
 20
138.5936033613
 10
127.860229044
 20
138.5908450694
  0
LWPOLYLINE
  5
23D
100
AcDbEntity
  8
268
100
AcDbPolyline
 62
7
  6
CONTINUOUS
 90
10
 70
0
 10
127.8786767824
 20
138.5983024121
 10
127.8879164032
 20
138.6010482111
 10
127.8964795571
 20
138.6033139296
 10
127.904366244
 20
138.6050995676
 10
127.9116156023
 20
138.6064259722
 10
127.9181884936
 20
138.6072722964
 10
127.923967503
 20
138.6075759991
 10
127.9289484601
 20
138.6073366633
 10
127.9331355354
 20
138.6065547062
 10
127.9357252165
 20
138.605558273
  0
LWPOLYLINE
  5
23E
100
AcDbEntity
  8
RACCORDO
100
AcDbPolyline
 62
7
  6
CONTINUOUS
 90
12
 70
0
 10
123.8485262803
 20
87.0126713162
 10
123.8822630188
 20
86.9964946205
 10
123.9648977162
 20
86.9627033967
 10
124.0505481903
 20
86.9357295028
 10
124.138763732
 20
86.9158259093
 10
124.2293531575
 20
86.9031723411
 10
124.321767341
 20
86.8979949571
 10
124.4153870761
 20
86.9004624562
 10
124.5100221545
 20
86.9107362542
 10
124.6052752969
 20
86.9289663654
 10
124.700443215
 20
86.9551794176
 10
124.7181367334
 20
86.9609518327
  0
LWPOLYLINE
  5
23F
100
AcDbEntity
  8
ASSI
100
AcDbPolyline
 62
7
  6
CONTINUOUS
 90
8
 70
0
 10
123.8449915053
 20
87.0144605489
 10
123.8816167771
 20
86.996798192
 10
124.0324623399
 20
86.9407784321
 10
124.1917762449
 20
86.9074925507
 10
124.3562965464
 20
86.8980103753
 10
124.5235765781
 20
86.9128466879
 10
124.6911367138
 20
86.9522603984
 10
124.7168374927
 20
86.9605216198
  0
LINE
  5
240
100
AcDbEntity
  8
RACCORDO
100
AcDbLine
 62
7
  6
CONTINUOUS
 10
123.8494760928
 20
87.0121824923
 11
109.7143869613
 21
94.079727058
  0
LINE
  5
241
100
AcDbEntity
  8
RACCORDO
100
AcDbLine
 62
253
  6
CONTINUOUS
 10
123.456472747
 20
87.8745160634
 11
109.3292017056
 21
94.9381515841
  0
LINE
  5
242
100
AcDbEntity
  8
ASSI
100
AcDbLine
 62
253
  6
CONTINUOUS
 10
123.456472747
 20
87.8745160634
 11
109.3292017056
 21
94.9381515841
  0
LINE
  5
243
100
AcDbEntity
  8
ASSI
100
AcDbLine
 62
7
  6
CONTINUOUS
 10
123.8494760928
 20
87.0121824923
 11
109.713686622
 21
94.0800778917
  0
LINE
  5
244
100
AcDbEntity
  8
268
100
AcDbLine
 62
7
  6
CONTINUOUS
 10
120.511221982
 20
136.7523835573
 11
119.9839772663
 21
136.1106758293
  0
LWPOLYLINE
  5
245
100
AcDbEntity
  8
268
100
AcDbPolyline
 62
7
  6
CONTINUOUS
 90
12
 70
0
 10
127.860229044
 20
138.5908450694
 10
127.8539422526
 20
138.5874886958
 10
127.842087826
 20
138.5799844226
 10
127.830432646
 20
138.5711119114
 10
127.8189370512
 20
138.5609268008
 10
127.8076457535
 20
138.5494957284
 10
127.7965006871
 20
138.5368487023
 10
127.7854338077
 20
138.5230191661
 10
127.7744876885
 20
138.5080496673
 10
127.7636403874
 20
138.4919667401
 10
127.7528019586
 20
138.4747984858
 10
127.7419175907
 20
138.4565798543
  0
LINE
  5
246
100
AcDbEntity
  8
268
100
AcDbLine
 62
7
  6
CONTINUOUS
 10
122.1604975784
 20
134.9583853264
 11
122.6538195936
 21
135.2114688583
  0
LINE
  5
247
100
AcDbEntity
  8
268
100
AcDbLine
 62
7
  6
CONTINUOUS
 10
121.3518841235
 20
135.3495501201
 11
127.8599207502
 21
138.5906917256
  0
LINE
  5
248
100
AcDbEntity
  8
268
100
AcDbLine
 62
253
  6
CONTINUOUS
 10
121.427377264
 20
135.3118035498
 11
127.7419175907
 21
138.4565798543
  0
LINE
  5
249
100
AcDbEntity
  8
268
100
AcDbLine
 62
7
  6
CONTINUOUS
 10
128.7349379118
 20
137.5768363236
 11
123.9973224779
 21
135.241785809
  0
LINE
  5
24A
100
AcDbEntity
  8
268
100
AcDbLine
 62
7
  6
CONTINUOUS
 10
122.6538195936
 20
135.2114688583
 11
128.1314595831
 21
137.8798008215
  0
LWPOLYLINE
  5
24B
100
AcDbEntity
  8
RACCORDO
100
AcDbPolyline
 62
253
  6
CONTINUOUS
 90
7
 70
0
 10
113.0852196813
 20
132.8118051174
 10
113.1429561812
 20
132.8298297438
 10
113.1989570717
 20
132.8377753525
 10
113.2570275
 20
132.8373263769
 10
113.3165314808
 20
132.8284877341
 10
113.3768173286
 20
132.8113562247
 10
113.4372247949
 20
132.7861194723
  0
LWPOLYLINE
  5
24C
100
AcDbEntity
  8
ASSI
100
AcDbPolyline
 62
253
  6
CONTINUOUS
 90
7
 70
0
 10
113.0852196813
 20
132.8118051174
 10
113.1429561812
 20
132.8298297438
 10
113.1989570717
 20
132.8377753525
 10
113.2570275
 20
132.8373263769
 10
113.3165314808
 20
132.8284877341
 10
113.3768173286
 20
132.8113562247
 10
113.4372247949
 20
132.7861194723
  0
LINE
  5
24D
100
AcDbEntity
  8
268
100
AcDbLine
 62
7
  6
CONTINUOUS
 10
133.3482954307
 20
89.2539126077
 11
133.8755401464
 21
89.1456203357
  0
LINE
  5
24E
100
AcDbEntity
  8
268
100
AcDbLine
 62
7
  6
CONTINUOUS
 10
129.9411868078
 20
88.1827084229
 11
131.5477229053
 21
87.3794403741
  0
LINE
  5
24F
100
AcDbEntity
  8
268
100
AcDbLine
 62
253
  6
CONTINUOUS
 10
129.876593329
 20
88.3177369642
 11
131.4823697912
 21
87.5148487331
  0
LWPOLYLINE
  5
250
100
AcDbEntity
  8
ASSI
100
AcDbPolyline
 62
253
  6
CONTINUOUS
 90
9
 70
0
 10
109.0948616421
 20
95.2192027342
 10
109.0962669258
 20
95.1907807097
 10
109.1055677583
 20
95.1512584803
 10
109.1233217695
 20
95.1122030546
 10
109.1493387277
 20
95.0740329055
 10
109.1833398653
 20
95.0371570203
 10
109.2249608651
 20
95.0019705185
 10
109.2737557644
 20
94.9688504183
 10
109.3292017331
 20
94.9381515965
  0
LWPOLYLINE
  5
251
100
AcDbEntity
  8
RACCORDO
100
AcDbPolyline
 62
253
  6
CONTINUOUS
 90
9
 70
0
 10
109.0948701478
 20
95.2194947497
 10
109.0962669258
 20
95.1907807097
 10
109.1055677583
 20
95.1512584803
 10
109.1233217695
 20
95.1122030546
 10
109.1493387277
 20
95.0740329055
 10
109.1833398653
 20
95.0371570203
 10
109.2249608651
 20
95.0019705185
 10
109.2737557644
 20
94.9688504183
 10
109.3292017331
 20
94.9381515965
  0
LWPOLYLINE
  5
252
100
AcDbEntity
  8
ASSI
100
AcDbPolyline
 62
7
  6
CONTINUOUS
 90
9
 70
0
 10
109.0948712345
 20
95.2192024481
 10
109.0954983168
 20
95.1058380841
 10
109.1166295141
 20
94.9129460077
 10
109.1633056459
 20
94.7295648871
 10
109.2354896868
 20
94.5581288044
 10
109.3314996899
 20
94.4033181534
 10
109.4478410732
 20
94.2696566608
 10
109.5820461177
 20
94.158483121
 10
109.7136062427
 20
94.0801311446
  0
LWPOLYLINE
  5
253
100
AcDbEntity
  8
RACCORDO
100
AcDbPolyline
 62
7
  6
CONTINUOUS
 90
15
 70
0
 10
109.0948797296
 20
95.2194944604
 10
109.0941267709
 20
95.1698957374
 10
109.098764477
 20
95.0519126021
 10
109.1123256434
 20
94.9382202616
 10
109.1344499954
 20
94.8292101984
 10
109.1648285714
 20
94.7250368007
 10
109.2032106162
 20
94.6259113192
 10
109.2491356678
 20
94.5324450216
 10
109.3022185436
 20
94.4449544304
 10
109.3622599229
 20
94.3635479253
 10
109.4286849437
 20
94.2888247625
 10
109.5008963346
 20
94.2212265689
 10
109.5786487079
 20
94.160865733
 10
109.6614017584
 20
94.1081477049
 10
109.7154511592
 20
94.0792099526
  0
LINE
  5
254
100
AcDbEntity
  8
ASSI
100
AcDbLine
 62
7
  6
CONTINUOUS
 10
109.0948767849
 20
95.2197121702
 11
109.0948616421
 21
95.2192027342
  0
LINE
  5
255
100
AcDbEntity
  8
RACCORDO
100
AcDbLine
 62
7
  6
CONTINUOUS
 10
109.0948767929
 20
95.2197124258
 11
109.0948701478
 21
95.2194947497
  0
LWPOLYLINE
  5
256
100
AcDbEntity
  8
RACCORDO
100
AcDbPolyline
 62
253
  6
CONTINUOUS
 90
13
 70
0
 10
109.3292017056
 20
94.9381515841
 10
109.4341488073
 20
97.8962899515
 10
109.5652304841
 20
100.8663711307
 10
109.7224305399
 20
103.8480221485
 10
109.9057295266
 20
106.8408685288
 10
110.1151044914
 20
109.844534578
 10
110.3505289826
 20
112.8586434336
 10
110.6119733016
 20
115.8828168003
 10
110.899404774
 20
118.916674974
 10
111.212787504
 20
121.9598371296
 10
111.5520821007
 20
125.0119213186
 10
111.9172456802
 20
128.0725445158
 10
112.3082321436
 20
131.1413226458
  0
LWPOLYLINE
  5
257
100
AcDbEntity
  8
ASSI
100
AcDbPolyline
 62
253
  6
CONTINUOUS
 90
13
 70
0
 10
109.3292017056
 20
94.9381515841
 10
109.4341488073
 20
97.8962899515
 10
109.5652304841
 20
100.8663711307
 10
109.7224305399
 20
103.8480221485
 10
109.9057295266
 20
106.8408685288
 10
110.1151044914
 20
109.844534578
 10
110.3505289826
 20
112.8586434336
 10
110.6119733016
 20
115.8828168003
 10
110.899404774
 20
118.916674974
 10
111.212787504
 20
121.9598371296
 10
111.5520821007
 20
125.0119213186
 10
111.9172456802
 20
128.0725445158
 10
112.3082321436
 20
131.1413226458
  0
LINE
  5
258
100
AcDbEntity
  8
ASSI
100
AcDbLine
 62
7
  6
CONTINUOUS
 10
109.2306511243
 20
98.9309401591
 11
109.0948767849
 21
95.2197121702
  0
LWPOLYLINE
  5
259
100
AcDbEntity
  8
RACCORDO
100
AcDbPolyline
 62
7
  6
CONTINUOUS
 90
3
 70
0
 10
109.3284813575
 20
101.0971867608
 10
109.1974146794
 20
98.116910299
 10
109.0948767929
 20
95.2197124258
  0
LWPOLYLINE
  5
25A
100
AcDbEntity
  8
ASSI
100
AcDbPolyline
 62
253
  6
CONTINUOUS
 90
10
 70
0
 10
112.0723414253
 20
131.405223953
 10
112.0718796571
 20
131.4009997409
 10
112.0732147868
 20
131.3685630302
 10
112.0830399102
 20
131.335407274
 10
112.1012497538
 20
131.3018877279
 10
112.1276492035
 20
131.2683635454
 10
112.1619553962
 20
131.2351939296
 10
112.2038007495
 20
131.2027342848
 10
112.2527369012
 20
131.1713324076
 10
112.3082395129
 20
131.1413247614
  0
LWPOLYLINE
  5
25B
100
AcDbEntity
  8
RACCORDO
100
AcDbPolyline
 62
253
  6
CONTINUOUS
 90
10
 70
0
 10
112.0723924403
 20
131.4056195153
 10
112.0718796571
 20
131.4009997409
 10
112.0732147868
 20
131.3685630302
 10
112.0830399102
 20
131.335407274
 10
112.1012497538
 20
131.3018877279
 10
112.1276492035
 20
131.2683635454
 10
112.1619553962
 20
131.2351939296
 10
112.2038007495
 20
131.2027342848
 10
112.2527369012
 20
131.1713324076
 10
112.3082395129
 20
131.1413247614
  0
LWPOLYLINE
  5
25C
100
AcDbEntity
  8
RACCORDO
100
AcDbPolyline
 62
7
  6
CONTINUOUS
 90
10
 70
0
 10
111.6885584811
 20
128.3947022849
 10
111.3217833869
 20
125.32393124
 10
110.9810503754
 20
122.2616767689
 10
110.6664109987
 20
119.2083704666
 10
110.3779032277
 20
116.1643915097
 10
110.1155612803
 20
113.1300986289
 10
109.8794196957
 20
110.1058647922
 10
109.6695077935
 20
107.0920610759
 10
109.4858527782
 20
104.0890435548
 10
109.3284813575
 20
101.0971867608
  0
LWPOLYLINE
  5
25D
100
AcDbEntity
  8
ASSI
100
AcDbPolyline
 62
7
  6
CONTINUOUS
 90
9
 70
0
 10
112.0723980984
 20
131.4057080314
 10
111.5833071168
 20
127.5346105789
 10
111.1043071465
 20
123.3957249364
 10
110.6727926853
 20
119.2728267876
 10
110.2888674374
 20
115.1668949488
 10
109.9526178229
 20
111.078839464
 10
109.6641202331
 20
107.0095498227
 10
109.4234438392
 20
102.9599291066
 10
109.2306511243
 20
98.9309401591
  0
LINE
  5
25E
100
AcDbEntity
  8
RACCORDO
100
AcDbLine
 62
7
  6
CONTINUOUS
 10
112.0723980769
 20
131.4057078682
 11
111.6885584811
 21
128.3947022849
  0
LINE
  5
25F
100
AcDbEntity
  8
ASSI
100
AcDbLine
 62
7
  6
CONTINUOUS
 10
112.0779521077
 20
131.444464151
 11
112.0723414253
 21
131.405223953
  0
LWPOLYLINE
  5
260
100
AcDbEntity
  8
RACCORDO
100
AcDbPolyline
 62
253
  6
CONTINUOUS
 90
17
 70
0
 10
112.3082321436
 20
131.1413226458
 10
112.3236193621
 20
131.2390392447
 10
112.3441193341
 20
131.3377833976
 10
112.3696277217
 20
131.4370607721
 10
112.4000119405
 20
131.536369506
 10
112.4351203052
 20
131.6352182352
 10
112.4747855122
 20
131.7331281641
 10
112.5188153427
 20
131.8296243345
 10
112.566983982
 20
131.9242085843
 10
112.6190396833
 20
132.0163792616
 10
112.6747050512
 20
132.1056586719
 10
112.733708791
 20
132.191622767
 10
112.7957814428
 20
132.2738705844
 10
112.8606247995
 20
132.3520055305
 10
112.9279011521
 20
132.4256178163
 10
112.9972623291
 20
132.4943168886
 10
113.0683484099
 20
132.5577534951
  0
LWPOLYLINE
  5
261
100
AcDbEntity
  8
ASSI
100
AcDbPolyline
 62
253
  6
CONTINUOUS
 90
14
 70
0
 10
112.3082321436
 20
131.1413226458
 10
112.3236193621
 20
131.2390392447
 10
112.3441193341
 20
131.3377833976
 10
112.3696277217
 20
131.4370607721
 10
112.4000119405
 20
131.536369506
 10
112.4351203052
 20
131.6352182352
 10
112.4747855122
 20
131.7331281641
 10
112.5188153427
 20
131.8296243345
 10
112.566983982
 20
131.9242085843
 10
112.6190396833
 20
132.0163792616
 10
112.6747050512
 20
132.1056586719
 10
112.733708791
 20
132.191622767
 10
112.7957814428
 20
132.2738705844
 10
112.8606247995
 20
132.3520055305
  0
LWPOLYLINE
  5
262
100
AcDbEntity
  8
RACCORDO
100
AcDbPolyline
 62
7
  6
CONTINUOUS
 90
3
 70
0
 10
112.0967529342
 20
131.5462431434
 10
112.0769019233
 20
131.4375890898
 10
112.0723924403
 20
131.4056195153
  0
LINE
  5
263
100
AcDbEntity
  8
268
100
AcDbLine
 62
7
  6
CONTINUOUS
 10
130.0620117402
 20
136.10696209
 11
128.6642272337
 21
135.4080698368
  0
LWPOLYLINE
  5
264
100
AcDbEntity
  8
RACCORDO
100
AcDbPolyline
 62
7
  6
CONTINUOUS
 90
6
 70
0
 10
127.6741653199
 20
134.6216354675
 10
127.6654590915
 20
134.6172865341
 10
127.6573573305
 20
134.6126076157
 10
127.6495400562
 20
134.6074501207
 10
127.642012773
 20
134.6018181593
 10
127.6361307778
 20
134.5969089651
  0
LINE
  5
265
100
AcDbEntity
  8
268
100
AcDbLine
 62
7
  6
CONTINUOUS
 10
128.3106738431
 20
136.1374047214
 11
128.7349379118
 21
136.3450021422
  0
LINE
  5
266
100
AcDbEntity
  8
268
100
AcDbLine
 62
7
  6
CONTINUOUS
 10
130.7210074916
 20
136.9670349039
 11
128.6642272337
 21
135.9606280261
  0
LINE
  5
267
100
AcDbEntity
  8
RACCORDO
100
AcDbLine
 62
253
  6
CONTINUOUS
 10
127.9423758159
 20
134.6280871554
 11
127.999153797
 21
134.6554408226
  0
LINE
  5
268
100
AcDbEntity
  8
RACCORDO
100
AcDbLine
 62
253
  6
CONTINUOUS
 10
127.9343676284
 20
134.6242916125
 11
127.9423758159
 21
134.6280871554
  0
LINE
  5
269
100
AcDbEntity
  8
RACCORDO
100
AcDbLine
 62
253
  6
CONTINUOUS
 10
127.999153797
 20
134.6554408226
 11
128.0114824815
 21
134.661277606
  0
LINE
  5
26A
100
AcDbEntity
  8
RACCORDO
100
AcDbLine
 62
253
  6
CONTINUOUS
 10
127.9264405523
 20
134.620583523
 11
127.9343676284
 21
134.6242916125
  0
LINE
  5
26B
100
AcDbEntity
  8
RACCORDO
100
AcDbLine
 62
253
  6
CONTINUOUS
 10
128.0114824815
 20
134.661277606
 11
128.0209983446
 21
134.6657187626
  0
LINE
  5
26C
100
AcDbEntity
  8
RACCORDO
100
AcDbLine
 62
253
  6
CONTINUOUS
 10
127.8863559265
 20
134.6020671914
 11
127.9264405523
 21
134.620583523
  0
LINE
  5
26D
100
AcDbEntity
  8
RACCORDO
100
AcDbLine
 62
7
  6
CONTINUOUS
 10
127.7239641951
 20
134.6446002062
 11
127.6742008244
 21
134.6216518648
  0
LINE
  5
26E
100
AcDbEntity
  8
RACCORDO
100
AcDbLine
 62
253
  6
CONTINUOUS
 10
128.0209983446
 20
134.6657187626
 11
128.0307624232
 21
134.6702081913
  0
LWPOLYLINE
  5
26F
100
AcDbEntity
  8
RACCORDO
100
AcDbPolyline
 62
253
  6
CONTINUOUS
 90
17
 70
0
 10
128.8783287656
 20
134.7293727267
 10
128.8841422111
 20
134.7320085942
 10
128.889941642
 20
134.7343448505
 10
128.8957172444
 20
134.7363775421
 10
128.9014592444
 20
134.7381032293
 10
128.9071579251
 20
134.7395189917
 10
128.9128036429
 20
134.7406224334
 10
128.9183868438
 20
134.7414116873
 10
128.9238980797
 20
134.7418854177
 10
128.929328024
 20
134.7420428228
 10
128.9346674879
 20
134.7418836365
 10
128.9399074358
 20
134.7414081279
 10
128.9450390003
 20
134.7406171019
 10
128.9500534974
 20
134.739511897
 10
128.9549424414
 20
134.7380943835
 10
128.959697559
 20
134.7363669603
 10
128.9642693442
 20
134.7343508337
  0
LINE
  5
270
100
AcDbEntity
  8
RACCORDO
100
AcDbLine
 62
253
  6
CONTINUOUS
 10
128.0307624232
 20
134.6702081913
 11
128.0374169248
 21
134.6732250975
  0
LWPOLYLINE
  5
271
100
AcDbEntity
  8
RACCORDO
100
AcDbPolyline
 62
253
  6
CONTINUOUS
 90
22
 70
0
 10
127.7080052119
 20
134.6372638511
 10
127.711133525
 20
134.6386737831
 10
127.7203819875
 20
134.6424476772
 10
127.7298416017
 20
134.6457301327
 10
127.7395022421
 20
134.6485176359
 10
127.7493535678
 20
134.6508072031
 10
127.7593850337
 20
134.6525963835
 10
127.7695859022
 20
134.653883262
 10
127.7799452541
 20
134.654666461
 10
127.7904520007
 20
134.6549451422
 10
127.8010948954
 20
134.6547190074
 10
127.8118625459
 20
134.6539882984
 10
127.8227434265
 20
134.6527537977
 10
127.8337258902
 20
134.6510168264
 10
127.8447981812
 20
134.648779244
 10
127.8559484476
 20
134.6460434455
 10
127.867164754
 20
134.6428123593
 10
127.8784350944
 20
134.6390894441
 10
127.889747405
 20
134.6348786849
 10
127.9010895769
 20
134.6301845889
 10
127.9124494693
 20
134.6250121808
 10
127.9238149225
 20
134.6193669971
  0
LINE
  5
272
100
AcDbEntity
  8
RACCORDO
100
AcDbLine
 62
253
  6
CONTINUOUS
 10
128.0374169248
 20
134.6732250975
 11
128.0441927136
 21
134.676258957
  0
LINE
  5
273
100
AcDbEntity
  8
RACCORDO
100
AcDbLine
 62
253
  6
CONTINUOUS
 10
128.0441927136
 20
134.676258957
 11
128.0510946097
 21
134.6793076208
  0
LINE
  5
274
100
AcDbEntity
  8
RACCORDO
100
AcDbLine
 62
253
  6
CONTINUOUS
 10
128.0510946097
 20
134.6793076208
 11
128.0581259491
 21
134.6823696942
  0
LINE
  5
275
100
AcDbEntity
  8
RACCORDO
100
AcDbLine
 62
253
  6
CONTINUOUS
 10
128.0581259491
 20
134.6823696942
 11
128.0652920227
 21
134.6854431898
  0
LINE
  5
276
100
AcDbEntity
  8
RACCORDO
100
AcDbLine
 62
253
  6
CONTINUOUS
 10
128.0652920227
 20
134.6854431898
 11
128.0725974067
 21
134.6885257363
  0
LINE
  5
277
100
AcDbEntity
  8
RACCORDO
100
AcDbLine
 62
253
  6
CONTINUOUS
 10
128.0725974067
 20
134.6885257363
 11
128.0800451344
 21
134.6916157332
  0
LINE
  5
278
100
AcDbEntity
  8
RACCORDO
100
AcDbLine
 62
253
  6
CONTINUOUS
 10
128.0800451344
 20
134.6916157332
 11
128.0876396297
 21
134.6947107064
  0
LINE
  5
279
100
AcDbEntity
  8
RACCORDO
100
AcDbLine
 62
253
  6
CONTINUOUS
 10
128.0876396297
 20
134.6947107064
 11
128.0953853151
 21
134.6978081118
  0
LINE
  5
27A
100
AcDbEntity
  8
RACCORDO
100
AcDbLine
 62
253
  6
CONTINUOUS
 10
128.0953853151
 20
134.6978081118
 11
128.1032850446
 21
134.7009061998
  0
LINE
  5
27B
100
AcDbEntity
  8
RACCORDO
100
AcDbLine
 62
253
  6
CONTINUOUS
 10
128.1032850446
 20
134.7009061998
 11
128.1113430395
 21
134.7040022964
  0
LINE
  5
27C
100
AcDbEntity
  8
RACCORDO
100
AcDbLine
 62
253
  6
CONTINUOUS
 10
128.1113430395
 20
134.7040022964
 11
128.119562989
 21
134.7070934536
  0
LINE
  5
27D
100
AcDbEntity
  8
RACCORDO
100
AcDbLine
 62
253
  6
CONTINUOUS
 10
128.119562989
 20
134.7070934536
 11
128.1279472966
 21
134.7101776737
  0
LINE
  5
27E
100
AcDbEntity
  8
RACCORDO
100
AcDbLine
 62
253
  6
CONTINUOUS
 10
128.1279472966
 20
134.7101776737
 11
128.1364992881
 21
134.713251841
  0
LINE
  5
27F
100
AcDbEntity
  8
RACCORDO
100
AcDbLine
 62
253
  6
CONTINUOUS
 10
128.1364992881
 20
134.713251841
 11
128.1452230747
 21
134.7163130429
  0
LINE
  5
280
100
AcDbEntity
  8
RACCORDO
100
AcDbLine
 62
253
  6
CONTINUOUS
 10
128.1452230747
 20
134.7163130429
 11
128.1541210636
 21
134.7193591983
  0
LINE
  5
281
100
AcDbEntity
  8
RACCORDO
100
AcDbLine
 62
253
  6
CONTINUOUS
 10
128.1541210636
 20
134.7193591983
 11
128.1631966522
 21
134.7223870738
  0
LINE
  5
282
100
AcDbEntity
  8
RACCORDO
100
AcDbLine
 62
253
  6
CONTINUOUS
 10
128.1631966522
 20
134.7223870738
 11
128.1724521416
 21
134.7253930033
  0
LINE
  5
283
100
AcDbEntity
  8
RACCORDO
100
AcDbLine
 62
253
  6
CONTINUOUS
 10
128.1724521416
 20
134.7253930033
 11
128.1818891331
 21
134.7283745559
  0
LINE
  5
284
100
AcDbEntity
  8
RACCORDO
100
AcDbLine
 62
253
  6
CONTINUOUS
 10
128.1818891331
 20
134.7283745559
 11
128.1915100125
 21
134.7313280642
  0
LINE
  5
285
100
AcDbEntity
  8
RACCORDO
100
AcDbLine
 62
253
  6
CONTINUOUS
 10
128.1915100125
 20
134.7313280642
 11
128.2013168162
 21
134.7342496903
  0
LINE
  5
286
100
AcDbEntity
  8
RACCORDO
100
AcDbLine
 62
253
  6
CONTINUOUS
 10
128.2013168162
 20
134.7342496903
 11
128.2113107135
 21
134.7371368097
  0
LWPOLYLINE
  5
287
100
AcDbEntity
  8
0
100
AcDbPolyline
 62
7
  6
CONTINUOUS
 90
3
 70
0
 10
117.3635700807
 20
96.9315347583
 10
117.4160147386
 20
96.9084763574
 10
117.4338296848
 20
96.902628695
  0
LWPOLYLINE
  5
288
100
AcDbEntity
  8
ASSI
100
AcDbPolyline
 62
7
  6
CONTINUOUS
 90
3
 70
0
 10
117.3635700807
 20
96.9315347583
 10
117.4160147386
 20
96.9084763574
 10
117.4338296848
 20
96.902628695
  0
LINE
  5
289
100
AcDbEntity
  8
ASSI
100
AcDbLine
 62
253
  6
CONTINUOUS
 10
116.6632195588
 20
96.5376116104
 11
116.5884878032
 21
96.5710100047
  0
LWPOLYLINE
  5
28A
100
AcDbEntity
  8
RACCORDO
100
AcDbPolyline
 62
253
  6
CONTINUOUS
 90
55
 70
0
 10
116.477267263
 20
96.8796124709
 10
116.5143986022
 20
96.8624670685
 10
116.5516324526
 20
96.8481072697
 10
116.5888435139
 20
96.8365820546
 10
116.6258882252
 20
96.8279345359
 10
116.6626603787
 20
96.8221879681
 10
116.6990899105
 20
96.8193600512
 10
116.735089349
 20
96.819475558
 10
116.7704952255
 20
96.8225525636
 10
116.8051264982
 20
96.8285820168
 10
116.8388608056
 20
96.8375409216
 10
116.8715889302
 20
96.8493983478
 10
116.9031616586
 20
96.8640929347
 10
116.933447742
 20
96.8815449109
 10
116.9623815344
 20
96.9016971156
 10
116.9899166561
 20
96.9245116277
 10
117.0159760992
 20
96.9499323247
 10
117.0404512613
 20
96.9778613769
 10
117.0632504442
 20
97.0081962024
 10
117.0842962281
 20
97.0408334568
 10
117.1035182486
 20
97.0756636663
 10
117.1208473839
 20
97.1125592408
 10
117.1362176863
 20
97.1513690197
 10
117.1495905352
 20
97.1919833725
 10
117.1609393599
 20
97.2343343359
 10
117.1702255237
 20
97.2783291079
 10
117.1773969303
 20
97.3237839304
 10
117.1824154407
 20
97.3704882137
 10
117.1852630135
 20
97.4182649715
 10
117.1859319842
 20
97.4669695809
 10
117.1844201775
 20
97.5164288366
 10
117.1807339996
 20
97.5664686642
 10
117.1748866305
 20
97.6169246952
 10
117.166896899
 20
97.667635235
 10
117.1567899292
 20
97.7184349057
 10
117.1446004614
 20
97.7691444204
 10
117.1303725757
 20
97.8195810034
 10
117.1141578205
 20
97.8695663836
 10
117.0960100951
 20
97.9189383122
 10
117.0759870918
 20
97.9675401194
 10
117.0541526007
 20
98.0152141789
 10
117.0305833539
 20
98.0617904136
 10
117.005365765
 20
98.1070985916
 10
116.9785917254
 20
98.1509770353
 10
116.9503480144
 20
98.1932866884
 10
116.9207211197
 20
98.2338979641
 10
116.8897900815
 20
98.2726971314
 10
116.8576785886
 20
98.3095240282
 10
116.8245508691
 20
98.3441970872
 10
116.7905595206
 20
98.376576053
 10
116.7557892871
 20
98.4065988247
 10
116.7203080632
 20
98.4342134768
 10
116.6842174742
 20
98.45933896
 10
116.64765621
 20
98.4818769442
 10
116.6107473532
 20
98.5017518345
  0
LINE
  5
28B
100
AcDbEntity
  8
268
100
AcDbLine
 62
253
  6
CONTINUOUS
 10
131.4823697912
 20
87.7682201268
 11
129.876593329
 21
88.5711083579
  0
LINE
  5
28C
100
AcDbEntity
  8
268
100
AcDbLine
 62
253
  6
CONTINUOUS
 10
131.5712723672
 20
87.9996571865
 11
129.9644674483
 21
88.8030596459
  0
LINE
  5
28D
100
AcDbEntity
  8
268
100
AcDbLine
 62
7
  6
CONTINUOUS
 10
129.1732014326
 20
90.192531554
 11
131.6340757147
 21
88.962094413
  0
LINE
  5
28E
100
AcDbEntity
  8
268
100
AcDbLine
 62
7
  6
CONTINUOUS
 10
132.1935903993
 20
88.7447166039
 11
131.784325403
 21
88.9493491021
  0
LINE
  5
28F
100
AcDbEntity
  8
268
100
AcDbLine
 62
7
  6
CONTINUOUS
 10
129.199086559
 20
90.5071049293
 11
131.8815630881
 21
89.1658666648
  0
LINE
  5
290
100
AcDbEntity
  8
268
100
AcDbLine
 62
253
  6
CONTINUOUS
 10
133.3482954307
 20
89.2539126077
 11
133.3048731048
 21
89.2756237706
  0
LWPOLYLINE
  5
291
100
AcDbEntity
  8
RACCORDO
100
AcDbPolyline
 62
7
  6
CONTINUOUS
 90
46
 70
0
 10
116.5032493513
 20
96.8242830206
 10
116.4626989567
 20
96.8460690666
 10
116.42269344
 20
96.8705907513
 10
116.3833378636
 20
96.8977709366
 10
116.3447238581
 20
96.927537456
 10
116.3069629961
 20
96.9597984297
 10
116.2701883435
 20
96.9944318544
 10
116.2344825103
 20
97.0313523865
 10
116.199958439
 20
97.0704387459
 10
116.1667868716
 20
97.1114819752
 10
116.1350699953
 20
97.1543272286
 10
116.1048705367
 20
97.1988636127
 10
116.076287424
 20
97.2449203927
 10
116.0494053875
 20
97.2923309361
 10
116.0242782104
 20
97.3409721066
 10
116.000954935
 20
97.390730583
 10
115.9794935141
 20
97.4414740115
 10
115.9599608427
 20
97.4930389137
 10
115.9424162095
 20
97.5452629799
 10
115.9269123975
 20
97.5979836618
 10
115.913491405
 20
97.6510576993
 10
115.9021904278
 20
97.7043513585
 10
115.8930446096
 20
97.7577355654
 10
115.8860939923
 20
97.8110322567
 10
115.8813718646
 20
97.8640382025
 10
115.8788977826
 20
97.916582535
 10
115.8786841474
 20
97.9685360155
 10
115.8807421771
 20
98.0197658056
 10
115.885085853
 20
98.070179271
 10
115.8917183447
 20
98.1195767067
 10
115.900611916
 20
98.1676829044
 10
115.9117449631
 20
98.2143718333
 10
115.9250911206
 20
98.2595150717
 10
115.9405731596
 20
98.3028677271
 10
115.9581290764
 20
98.3443032244
 10
115.9777117773
 20
98.3837461601
 10
115.9992351626
 20
98.4210563925
 10
116.0226294318
 20
98.4561491494
 10
116.0478172352
 20
98.4889392617
 10
116.0746756341
 20
98.5193041806
 10
116.1030880897
 20
98.5471601281
 10
116.1329664027
 20
98.5724661224
 10
116.1642076244
 20
98.5951737308
 10
116.1966944256
 20
98.6152343273
 10
116.2302985731
 20
98.632606116
 10
116.2648896133
 20
98.6472602414
  0
LWPOLYLINE
  5
292
100
AcDbEntity
  8
RACCORDO
100
AcDbPolyline
 62
253
  6
CONTINUOUS
 90
3
 70
0
 10
116.6664748444
 20
96.6911963237
 10
116.5987536043
 20
96.7285229965
 10
116.5316676678
 20
96.7724821835
  0
LWPOLYLINE
  5
293
100
AcDbEntity
  8
ASSI
100
AcDbPolyline
 62
253
  6
CONTINUOUS
 90
3
 70
0
 10
116.6664748444
 20
96.6911963237
 10
116.5987536043
 20
96.7285229965
 10
116.5316676678
 20
96.7724821835
  0
LWPOLYLINE
  5
294
100
AcDbEntity
  8
RACCORDO
100
AcDbPolyline
 62
253
  6
CONTINUOUS
 90
37
 70
0
 10
116.5884878032
 20
96.5710100047
 10
116.5144472905
 20
96.611933767
 10
116.4420238655
 20
96.6594301502
 10
116.3712182461
 20
96.7134994632
 10
116.3015604045
 20
96.7745882363
 10
116.2335232542
 20
96.8422511794
 10
116.1685224468
 20
96.9151510938
 10
116.1066445151
 20
96.9933887336
 10
116.0478080632
 20
97.0768655486
 10
115.9931767659
 20
97.1639453462
 10
115.9428507782
 20
97.254671468
 10
115.8967361235
 20
97.3490032148
 10
115.8557043951
 20
97.4451779511
 10
115.8198424018
 20
97.543264369
 10
115.789069238
 20
97.6431962894
 10
115.7640031571
 20
97.7430080103
 10
115.7447637569
 20
97.8426807396
 10
115.7312355909
 20
97.9422350225
 10
115.7236818302
 20
98.039763087
 10
115.7222186143
 20
98.1352351658
 10
115.7267313332
 20
98.2286816553
 10
115.7371341134
 20
98.3182837869
 10
115.7535414146
 20
98.4039606116
 10
115.7758372721
 20
98.4857924184
 10
115.8035872442
 20
98.5622010526
 10
115.8368985138
 20
98.6330815551
 10
115.8756597405
 20
98.6985371088
 10
115.9191061809
 20
98.7573007098
 10
115.967318717
 20
98.8092332746
 10
116.0202105888
 20
98.8544713953
 10
116.0767638161
 20
98.8921608355
 10
116.1370374006
 20
98.9221594592
 10
116.2009661406
 20
98.944606787
 10
116.2673448651
 20
98.9590706971
 10
116.3362576115
 20
98.9653894463
 10
116.4076152176
 20
98.9637226228
 10
116.479952624
 20
98.9541200663
  0
LWPOLYLINE
  5
295
100
AcDbEntity
  8
ASSI
100
AcDbPolyline
 62
253
  6
CONTINUOUS
 90
5
 70
0
 10
116.5884878032
 20
96.5710100047
 10
116.5144472905
 20
96.611933767
 10
116.4420238655
 20
96.6594301502
 10
116.3712182461
 20
96.7134994632
 10
116.3015604045
 20
96.7745882363
  0
LINE
  5
296
100
AcDbEntity
  8
RACCORDO
100
AcDbLine
 62
253
  6
CONTINUOUS
 10
116.5316676678
 20
96.7724821835
 11
116.4656505552
 21
96.8228186233
  0
LWPOLYLINE
  5
297
100
AcDbEntity
  8
ASSI
100
AcDbPolyline
 62
253
  6
CONTINUOUS
 90
4
 70
0
 10
116.5316676678
 20
96.7724821835
 10
116.4656505552
 20
96.8228186233
 10
116.401096241
 20
96.879252754
 10
116.3793225698
 20
96.9008662208
  0
LWPOLYLINE
  5
298
100
AcDbEntity
  8
RACCORDO
100
AcDbPolyline
 62
253
  6
CONTINUOUS
 90
3
 70
0
 10
116.4656505552
 20
96.8228186233
 10
116.401096241
 20
96.879252754
 10
116.3793225698
 20
96.9008662208
  0
LWPOLYLINE
  5
299
100
AcDbEntity
  8
ASSI
100
AcDbPolyline
 62
253
  6
CONTINUOUS
 90
30
 70
0
 10
116.3015604045
 20
96.7745882363
 10
116.2335232542
 20
96.8422511794
 10
116.1685224468
 20
96.9151510938
 10
116.1066445151
 20
96.9933887336
 10
116.0478080632
 20
97.0768655486
 10
115.9931767659
 20
97.1639453462
 10
115.9428507782
 20
97.254671468
 10
115.8967361235
 20
97.3490032148
 10
115.8557043951
 20
97.4451779511
 10
115.8198424018
 20
97.543264369
 10
115.789069238
 20
97.6431962894
 10
115.7640031571
 20
97.7430080103
 10
115.7447637569
 20
97.8426807396
 10
115.7312355909
 20
97.9422350225
 10
115.7236818302
 20
98.039763087
 10
115.7222186143
 20
98.1352351658
 10
115.7267313332
 20
98.2286816553
 10
115.7371341134
 20
98.3182837869
 10
115.7535414146
 20
98.4039606116
 10
115.7758372721
 20
98.4857924184
 10
115.8035872442
 20
98.5622010526
 10
115.8368985138
 20
98.6330815551
 10
115.8756597405
 20
98.6985371088
 10
115.9191061809
 20
98.7573007098
 10
115.967318717
 20
98.8092332746
 10
116.0202105888
 20
98.8544713953
 10
116.0767638161
 20
98.8921608355
 10
116.1370374006
 20
98.9221594592
 10
116.2009661406
 20
98.944606787
 10
116.2673448651
 20
98.9590706971
  0
LINE
  5
29A
100
AcDbEntity
  8
RACCORDO
100
AcDbLine
 62
7
  6
CONTINUOUS
 10
126.7820498554
 20
133.8494221202
 11
127.636098239
 21
134.596880177
  0
LINE
  5
29B
100
AcDbEntity
  8
RACCORDO
100
AcDbLine
 62
253
  6
CONTINUOUS
 10
126.9359524102
 20
133.7724708428
 11
127.8847510017
 21
134.6028537171
  0
LINE
  5
29C
100
AcDbEntity
  8
268
100
AcDbLine
 62
7
  6
CONTINUOUS
 10
133.6846853802
 20
135.1019625894
 11
128.9470699462
 21
132.7669120748
  0
LINE
  5
29D
100
AcDbEntity
  8
0
100
AcDbLine
 62
7
  6
CONTINUOUS
 10
142.2881585216
 20
139.3370352746
 11
133.5775369504
 21
135.3141815729
  0
LINE
  5
29E
100
AcDbEntity
  8
0
100
AcDbLine
 62
253
  6
CONTINUOUS
 10
142.5049812899
 20
139.3196044397
 11
133.7958750862
 21
135.2974524295
  0
LINE
  5
29F
100
AcDbEntity
  8
0
100
AcDbLine
 62
7
  6
CONTINUOUS
 10
143.5246418983
 20
139.4252326259
 11
142.9595557753
 21
139.164257128
  0
LINE
  5
2A0
100
AcDbEntity
  8
0
100
AcDbLine
 62
253
  6
CONTINUOUS
 10
143.6109632372
 20
139.4180727087
 11
143.0084478026
 21
139.1398111144
  0
LWPOLYLINE
  5
2A1
100
AcDbEntity
  8
0
100
AcDbPolyline
 62
253
  6
CONTINUOUS
 90
24
 70
0
 10
142.2881553963
 20
139.3370338312
 10
142.2953790881
 20
139.3401868809
 10
142.3036903911
 20
139.3433795788
 10
142.3121688887
 20
139.3461843925
 10
142.3208074003
 20
139.3485989427
 10
142.3295985596
 20
139.3506211618
 10
142.3385349464
 20
139.3522493504
 10
142.3476090323
 20
139.3534821425
 10
142.3568131079
 20
139.3543184729
 10
142.3661394352
 20
139.354757649
 10
142.3755801411
 20
139.354799307
 10
142.3851271623
 20
139.354443379
 10
142.3947724566
 20
139.3536901858
 10
142.4045079078
 20
139.3525403781
 10
142.4143252207
 20
139.3509948882
 10
142.4242161587
 20
139.3490550406
 10
142.434172378
 20
139.3467224921
 10
142.4441853329
 20
139.3439991758
 10
142.4542465122
 20
139.3408874509
 10
142.464347548
 20
139.337389948
 10
142.4744800529
 20
139.3335094749
 10
142.4846355482
 20
139.3292492491
 10
142.494805468
 20
139.3246129271
 10
142.5049812689
 20
139.31960443
  0
LWPOLYLINE
  5
2A2
100
AcDbEntity
  8
RACCORDO
100
AcDbPolyline
 62
253
  6
CONTINUOUS
 90
5
 70
0
 10
116.8817684664
 20
96.4848878901
 10
116.8096160019
 20
96.4945592253
 10
116.7369287165
 20
96.5121279133
 10
116.6632195588
 20
96.5376116104
 10
116.5884878032
 20
96.5710100047
  0
LWPOLYLINE
  5
2A3
100
AcDbEntity
  8
RACCORDO
100
AcDbPolyline
 62
253
  6
CONTINUOUS
 90
4
 70
0
 10
116.870714114
 20
96.6205405375
 10
116.8030340717
 20
96.636923665
 10
116.7348060611
 20
96.6605302009
 10
116.6664748444
 20
96.6911963237
  0
LWPOLYLINE
  5
2A4
100
AcDbEntity
  8
RACCORDO
100
AcDbPolyline
 62
7
  6
CONTINUOUS
 90
4
 70
0
 10
116.5935661014
 20
98.870725838
 10
116.654600038
 20
98.8500598654
 10
116.7159273433
 20
98.823412486
 10
116.7271753977
 20
98.8178910579
  0
LINE
  5
2A5
100
AcDbEntity
  8
RACCORDO
100
AcDbLine
 62
253
  6
CONTINUOUS
 10
116.5527804345
 20
98.9365979522
 11
116.626585134
 21
98.9111388831
  0
LINE
  5
2A6
100
AcDbEntity
  8
ASSI
100
AcDbLine
 62
253
  6
CONTINUOUS
 10
116.5527804345
 20
98.9365979522
 11
116.626585134
 21
98.9111388831
  0
LINE
  5
2A7
100
AcDbEntity
  8
ASSI
100
AcDbLine
 62
7
  6
CONTINUOUS
 10
116.641515906
 20
98.8549863001
 11
116.7270770275
 21
98.8179405253
  0
LINE
  5
2A8
100
AcDbEntity
  8
RACCORDO
100
AcDbLine
 62
253
  6
CONTINUOUS
 10
116.626585134
 20
98.9111388831
 11
116.701365997
 21
98.8777425548
  0
LINE
  5
2A9
100
AcDbEntity
  8
ASSI
100
AcDbLine
 62
253
  6
CONTINUOUS
 10
116.626585134
 20
98.9111388831
 11
116.701365997
 21
98.8777425548
  0
LWPOLYLINE
  5
2AA
100
AcDbEntity
  8
RACCORDO
100
AcDbPolyline
 62
253
  6
CONTINUOUS
 90
55
 70
0
 10
116.6107473532
 20
98.5017518345
 10
116.5736160524
 20
98.518897251
 10
116.5363822209
 20
98.5332570569
 10
116.4991711592
 20
98.5447822719
 10
116.4621264151
 20
98.5534297784
 10
116.4253542094
 20
98.5591763268
 10
116.3889246446
 20
98.5620042314
 10
116.3529252137
 20
98.5618887275
 10
116.3175193641
 20
98.5588117318
 10
116.282888111
 20
98.552782286
 10
116.2491538044
 20
98.5438233815
 10
116.2164256735
 20
98.5319659529
 10
116.1848529407
 20
98.5172713644
 10
116.1545668584
 20
98.4998193886
 10
116.1256330691
 20
98.479667185
 10
116.0980979499
 20
98.4568526739
 10
116.072038508
 20
98.4314319773
 10
116.0475633466
 20
98.4035029254
 10
116.0247641644
 20
98.3731681002
 10
116.0037183818
 20
98.3405308462
 10
115.9844963626
 20
98.3057006372
 10
115.9671672283
 20
98.268805063
 10
115.9517969264
 20
98.2299952843
 10
115.9384240777
 20
98.1893809316
 10
115.9270752534
 20
98.1470299683
 10
115.9177890902
 20
98.1030351966
 10
115.9106176845
 20
98.0575803744
 10
115.9055991746
 20
98.0108760913
 10
115.9027516022
 20
97.9630993337
 10
115.9020826317
 20
97.9143947244
 10
115.9035944385
 20
97.8649354687
 10
115.9072806166
 20
97.8148956411
 10
115.9131279857
 20
97.7644396102
 10
115.9211177171
 20
97.7137290703
 10
115.9312246867
 20
97.6629293995
 10
115.9434141542
 20
97.6122198847
 10
115.9576420395
 20
97.5617833016
 10
115.9738567946
 20
97.5117979213
 10
115.99200452
 20
97.4624259927
 10
116.0120275227
 20
97.4138241853
 10
116.0338620121
 20
97.3661501252
 10
116.0574312566
 20
97.3195738896
 10
116.0826488447
 20
97.2742657113
 10
116.1094228875
 20
97.2303872689
 10
116.1376666031
 20
97.1880776175
 10
116.1672934976
 20
97.1474663416
 10
116.1982245226
 20
97.1086671694
 10
116.2303359975
 20
97.0718402659
 10
116.2634637119
 20
97.037167205
 10
116.2974550834
 20
97.0047882478
 10
116.3322253527
 20
96.9747654895
 10
116.3677065986
 20
96.9471508454
 10
116.4037971864
 20
96.9220253618
 10
116.4403584354
 20
96.899487372
 10
116.477267263
 20
96.8796124709
  0
LWPOLYLINE
  5
2AB
100
AcDbEntity
  8
RACCORDO
100
AcDbPolyline
 62
253
  6
CONTINUOUS
 90
12
 70
0
 10
116.6871389666
 20
98.6093295335
 10
116.6462668169
 20
98.6282019677
 10
116.6052818413
 20
98.644008302
 10
116.5643219431
 20
98.656694631
 10
116.5235451064
 20
98.6662136078
 10
116.4830682283
 20
98.672539537
 10
116.4429684946
 20
98.6756526224
 10
116.4033422636
 20
98.6755254168
 10
116.3643694534
 20
98.6721381986
 10
116.3262492804
 20
98.6655011448
 10
116.2891163851
 20
98.6556396612
 10
116.2648896117
 20
98.6472602409
  0
LINE
  5
2AC
100
AcDbEntity
  8
268
100
AcDbLine
 62
7
  6
CONTINUOUS
 10
129.2730201713
 20
91.4055956528
 11
132.6947358865
 21
89.6947377952
  0
LINE
  5
2AD
100
AcDbEntity
  8
268
100
AcDbLine
 62
253
  6
CONTINUOUS
 10
133.2604213114
 20
89.4531797532
 11
133.8755401464
 21
89.1456203357
  0
LINE
  5
2AE
100
AcDbEntity
  8
268
100
AcDbLine
 62
7
  6
CONTINUOUS
 10
133.2604213114
 20
89.4567999027
 11
133.8988195197
 21
89.1376007986
  0
LINE
  5
2AF
100
AcDbEntity
  8
268
100
AcDbLine
 62
7
  6
CONTINUOUS
 10
129.4034201232
 20
92.9903031145
 11
132.6947358865
 21
91.3446452328
  0
LWPOLYLINE
  5
2B0
100
AcDbEntity
  8
RACCORDO
100
AcDbPolyline
 62
7
  6
CONTINUOUS
 90
25
 70
0
 10
116.7272505097
 20
98.8178475271
 10
116.7440347258
 20
98.8092318218
 10
116.8150075639
 20
98.7679413964
 10
116.8853280385
 20
98.7190957638
 10
116.9543288357
 20
98.6631018184
 10
117.0214620741
 20
98.6004244495
 10
117.0862680613
 20
98.5314683725
 10
117.1482286857
 20
98.4567652083
 10
117.2068603667
 20
98.3769250794
 10
117.2617884423
 20
98.2924261991
 10
117.3125798951
 20
98.2038991108
 10
117.358856002
 20
98.1120361137
 10
117.4003252534
 20
98.0173765884
 10
117.4366506589
 20
97.9206328063
 10
117.4675652507
 20
97.8225429822
 10
117.4928589145
 20
97.7236892253
 10
117.5123010855
 20
97.6248364684
 10
117.5257417569
 20
97.5267578894
 10
117.5330612039
 20
97.4300956691
 10
117.5341602287
 20
97.3356327985
 10
117.529030666
 20
97.2441676938
 10
117.5176914678
 20
97.1564477147
 10
117.5002203589
 20
97.073219231
 10
117.4768096423
 20
96.9952428013
 10
117.4477312482
 20
96.9233217062
  0
LINE
  5
2B1
100
AcDbEntity
  8
ASSI
100
AcDbLine
 62
7
  6
CONTINUOUS
 10
116.7276659305
 20
98.8176437362
 11
116.7776063497
 21
98.7906868956
  0
LINE
  5
2B2
100
AcDbEntity
  8
RACCORDO
100
AcDbLine
 62
253
  6
CONTINUOUS
 10
116.701365997
 20
98.8777425548
 11
116.7754033008
 21
98.836793971
  0
LINE
  5
2B3
100
AcDbEntity
  8
ASSI
100
AcDbLine
 62
253
  6
CONTINUOUS
 10
116.701365997
 20
98.8777425548
 11
116.7754033008
 21
98.836793971
  0
LWPOLYLINE
  5
2B4
100
AcDbEntity
  8
RACCORDO
100
AcDbPolyline
 62
253
  6
CONTINUOUS
 90
3
 70
0
 10
116.7754033008
 20
98.836793971
 10
116.847770857
 20
98.7892533643
 10
116.9184693833
 20
98.7351210356
  0
LINE
  5
2B5
100
AcDbEntity
  8
ASSI
100
AcDbLine
 62
253
  6
CONTINUOUS
 10
116.7754033008
 20
98.836793971
 11
116.847770857
 21
98.7892533643
  0
LWPOLYLINE
  5
2B6
100
AcDbEntity
  8
ASSI
100
AcDbPolyline
 62
7
  6
CONTINUOUS
 90
4
 70
0
 10
116.7776063497
 20
98.7906868956
 10
116.9141865373
 20
98.6966751395
 10
117.0454339376
 20
98.5759377201
 10
117.1672984105
 20
98.4318485136
  0
LINE
  5
2B7
100
AcDbEntity
  8
ASSI
100
AcDbLine
 62
253
  6
CONTINUOUS
 10
116.847770857
 20
98.7892533643
 11
116.9184693833
 21
98.7351210356
  0
LINE
  5
2B8
100
AcDbEntity
  8
RACCORDO
100
AcDbLine
 62
253
  6
CONTINUOUS
 10
116.9184693833
 20
98.7351210356
 11
116.9879702455
 21
98.6739497889
  0
LINE
  5
2B9
100
AcDbEntity
  8
ASSI
100
AcDbLine
 62
253
  6
CONTINUOUS
 10
116.9184693833
 20
98.7351210356
 11
116.9879702455
 21
98.6739497889
  0
LWPOLYLINE
  5
2BA
100
AcDbEntity
  8
RACCORDO
100
AcDbPolyline
 62
253
  6
CONTINUOUS
 90
17
 70
0
 10
116.9879702455
 20
98.6739497889
 10
117.0558049625
 20
98.6061880311
 10
117.1205650026
 20
98.5331796866
 10
117.1821667464
 20
98.4548267705
 10
117.2406989456
 20
98.3712294259
 10
117.2950115402
 20
98.284028735
 10
117.3450096725
 20
98.193184591
 10
117.3907943714
 20
98.0987397039
 10
117.4315085233
 20
98.0024590124
 10
117.46707098
 20
97.9042767584
 10
117.4975687878
 20
97.8042611997
 10
117.5223953627
 20
97.7043775588
 10
117.5414358305
 20
97.6046456667
 10
117.5548092201
 20
97.5050474673
 10
117.5622572928
 20
97.4074902939
 10
117.5636657114
 20
97.3120033261
 10
117.5591503541
 20
97.2185580593
  0
LWPOLYLINE
  5
2BB
100
AcDbEntity
  8
ASSI
100
AcDbPolyline
 62
253
  6
CONTINUOUS
 90
4
 70
0
 10
116.9879702455
 20
98.6739497889
 10
117.0558049625
 20
98.6061880311
 10
117.1205650026
 20
98.5331796866
 10
117.1821667464
 20
98.4548267705
  0
LWPOLYLINE
  5
2BC
100
AcDbEntity
  8
ASSI
100
AcDbPolyline
 62
253
  6
CONTINUOUS
 90
12
 70
0
 10
117.1821667464
 20
98.4548267705
 10
117.2406989456
 20
98.3712294259
 10
117.2950115402
 20
98.284028735
 10
117.3450096725
 20
98.193184591
 10
117.3907943714
 20
98.0987397039
 10
117.4315085233
 20
98.0024590124
 10
117.46707098
 20
97.9042767584
 10
117.4975687878
 20
97.8042611997
 10
117.5223953627
 20
97.7043775588
 10
117.5414358305
 20
97.6046456667
 10
117.5548092201
 20
97.5050474673
 10
117.5622572928
 20
97.4074902939
  0
LWPOLYLINE
  5
2BD
100
AcDbEntity
  8
ASSI
100
AcDbPolyline
 62
7
  6
CONTINUOUS
 90
12
 70
0
 10
117.1672984105
 20
98.4318485136
 10
117.2765297912
 20
98.2678695117
 10
117.3697042342
 20
98.0885720511
 10
117.4439159896
 20
97.8991703225
 10
117.497136593
 20
97.7042866764
 10
117.5274679064
 20
97.5097244888
 10
117.5337837485
 20
97.321567762
 10
117.5157892019
 20
97.1455007271
 10
117.4741291364
 20
96.9876911747
 10
117.4105237129
 20
96.8534353763
 10
117.3272332488
 20
96.7465457061
 10
117.2268113489
 20
96.6698575972
  0
LINE
  5
2BE
100
AcDbEntity
  8
0
100
AcDbLine
 62
7
  6
CONTINUOUS
 10
133.545906632
 20
135.2956374869
 11
133.4014612953
 21
135.19095147
  0
LWPOLYLINE
  5
2BF
100
AcDbEntity
  8
0
100
AcDbPolyline
 62
253
  6
CONTINUOUS
 90
19
 70
0
 10
144.3565638137
 20
138.8207579373
 10
144.3624227297
 20
138.8239254663
 10
144.3680029297
 20
138.8272164095
 10
144.3732940262
 20
138.8306246407
 10
144.3782861698
 20
138.8341438155
 10
144.3829700677
 20
138.8377673829
 10
144.3873370008
 20
138.8414885979
 10
144.39137884
 20
138.8453005332
 10
144.3950880614
 20
138.8491960931
 10
144.3984577604
 20
138.8531680258
 10
144.4014816642
 20
138.8572089378
 10
144.4041541438
 20
138.8613113069
 10
144.4064702245
 20
138.8654674965
 10
144.4084255948
 20
138.8696697698
 10
144.4100166148
 20
138.8739103044
 10
144.4112403228
 20
138.8781812066
 10
144.4120944409
 20
138.8824745259
 10
144.412577379
 20
138.8867822706
 10
144.4126958536
 20
138.890222645
  0
LINE
  5
2C0
100
AcDbEntity
  8
268
100
AcDbLine
 62
7
  6
CONTINUOUS
 10
130.0513191116
 20
130.4289719427
 11
131.6340757147
 21
131.2409560401
  0
LINE
  5
2C1
100
AcDbEntity
  8
268
100
AcDbLine
 62
7
  6
CONTINUOUS
 10
128.3772635353
 20
130.6357988752
 11
128.8763592681
 21
130.8877634558
  0
LINE
  5
2C2
100
AcDbEntity
  8
268
100
AcDbLine
 62
7
  6
CONTINUOUS
 10
128.3772635353
 20
131.850002348
 11
128.8763592681
 21
132.1001990211
  0
LINE
  5
2C3
100
AcDbEntity
  8
DRAFT
100
AcDbLine
 62
7
  6
CONTINUOUS
 10
145.9575270348
 20
139.3198889345
 11
145.8514610176
 21
139.2668559259
  0
LINE
  5
2C4
100
AcDbEntity
  8
DRAFT
100
AcDbLine
 62
7
  6
CONTINUOUS
 10
145.6746843223
 20
139.1784675783
 11
145.5686183052
 21
139.1254345697
  0
LINE
  5
2C5
100
AcDbEntity
  8
DRAFT
100
AcDbLine
 62
7
  6
CONTINUOUS
 10
145.3918416099
 20
139.037046222
 11
145.2857755927
 21
138.9840132135
  0
LINE
  5
2C6
100
AcDbEntity
  8
DRAFT
100
AcDbLine
 62
7
  6
CONTINUOUS
 10
145.1089988974
 20
138.8956248658
 11
145.0029328802
 21
138.8425918572
  0
LINE
  5
2C7
100
AcDbEntity
  8
DRAFT
100
AcDbLine
 62
7
  6
CONTINUOUS
 10
144.8261561849
 20
138.7542035096
 11
144.7200901677
 21
138.701170501
  0
LINE
  5
2C8
100
AcDbEntity
  8
DRAFT
100
AcDbLine
 62
7
  6
CONTINUOUS
 10
144.5433134724
 20
138.6127821533
 11
144.4372474553
 21
138.5597491447
  0
LINE
  5
2C9
100
AcDbEntity
  8
DRAFT
100
AcDbLine
 62
7
  6
CONTINUOUS
 10
145.8148714191
 20
139.1631928458
 11
145.7600526032
 21
139.1357834378
  0
LINE
  5
2CA
100
AcDbEntity
  8
DRAFT
100
AcDbLine
 62
7
  6
CONTINUOUS
 10
145.5320287066
 20
139.0217714895
 11
145.4772098908
 21
138.9943620816
  0
LINE
  5
2CB
100
AcDbEntity
  8
DRAFT
100
AcDbLine
 62
7
  6
CONTINUOUS
 10
145.2491859941
 20
138.8803501333
 11
145.1943671783
 21
138.8529407254
  0
LINE
  5
2CC
100
AcDbEntity
  8
DRAFT
100
AcDbLine
 62
7
  6
CONTINUOUS
 10
144.9663432817
 20
138.738928777
 11
144.9115244658
 21
138.7115193691
  0
LINE
  5
2CD
100
AcDbEntity
  8
DRAFT
100
AcDbLine
 62
7
  6
CONTINUOUS
 10
144.6835005692
 20
138.5975074208
 11
144.6286817533
 21
138.5700980129
  0
LINE
  5
2CE
100
AcDbEntity
  8
RACCORDO
100
AcDbLine
 62
7
  6
CONTINUOUS
 10
144.4006578567
 20
138.4560860646
 11
139.2299113676
 21
135.87071282
  0
LINE
  5
2CF
100
AcDbEntity
  8
268
100
AcDbLine
 62
7
  6
CONTINUOUS
 10
128.8763592681
 20
132.1001990211
 11
134.2906319633
 21
134.8002146315
  0
LINE
  5
2D0
100
AcDbEntity
  8
0
100
AcDbLine
 62
253
  6
CONTINUOUS
 10
143.3082720978
 20
138.9179590358
 11
137.263823676
 21
135.9198680583
  0
LINE
  5
2D1
100
AcDbEntity
  8
0
100
AcDbLine
 62
253
  6
CONTINUOUS
 10
144.0103723328
 20
139.2183706099
 11
143.4285274822
 21
138.9297712745
  0
LINE
  5
2D2
100
AcDbEntity
  8
0
100
AcDbLine
 62
253
  6
CONTINUOUS
 10
144.1517721499
 20
138.9744920005
 11
143.6975351966
 21
138.749187123
  0
LINE
  5
2D3
100
AcDbEntity
  8
0
100
AcDbLine
 62
253
  6
CONTINUOUS
 10
143.7251634872
 20
138.6537192968
 11
137.8089610793
 21
135.7192392877
  0
LINE
  5
2D4
100
AcDbEntity
  8
268
100
AcDbLine
 62
7
  6
CONTINUOUS
 10
128.8763592681
 20
130.8877634558
 11
134.2906319633
 21
133.5683760531
  0
LINE
  5
2D5
100
AcDbEntity
  8
268
100
AcDbLine
 62
7
  6
CONTINUOUS
 10
134.9636481787
 20
134.8457145603
 11
134.3772693916
 21
134.5587924927
  0
LINE
  5
2D6
100
AcDbEntity
  8
268
100
AcDbLine
 62
7
  6
CONTINUOUS
 10
131.6340757147
 20
131.2409560401
 11
132.1685255934
 21
131.5013035066
  0
LWPOLYLINE
  5
2D7
100
AcDbEntity
  8
268
100
AcDbPolyline
 62
7
  6
CONTINUOUS
 90
18
 70
0
 10
134.9636481787
 20
134.8457145603
 10
134.9920226995
 20
134.8588965171
 10
135.0202571515
 20
134.8706309088
 10
135.0483515347
 20
134.8809177355
 10
135.0763558478
 20
134.8897698701
 10
135.104220092
 20
134.8971744397
 10
135.1317942717
 20
134.9030928253
 10
135.1590634003
 20
134.9075162466
 10
135.1860424643
 20
134.9104534839
 10
135.212626427
 20
134.9118922599
 10
135.2388313858
 20
134.9118251233
 10
135.2646412433
 20
134.9102595253
 10
135.2899026696
 20
134.9072055419
 10
135.3145924229
 20
134.9026597575
 10
135.338733745
 20
134.8966255877
 10
135.3622430313
 20
134.8891233549
 10
135.3851388115
 20
134.8801379403
 10
135.4047008958
 20
134.8710482072
  0
LINE
  5
2D8
100
AcDbEntity
  8
0
100
AcDbLine
 62
7
  6
CONTINUOUS
 10
139.3774836853
 20
134.9349556442
 11
145.6366932562
 21
137.8256660471
  0
LINE
  5
2D9
100
AcDbEntity
  8
0
100
AcDbLine
 62
253
  6
CONTINUOUS
 10
139.3760503468
 20
134.8637547229
 11
145.6352599177
 21
137.7544651258
  0
LINE
  5
2DA
100
AcDbEntity
  8
ASSI
100
AcDbLine
 62
7
  6
CONTINUOUS
 10
116.4480350547
 20
98.895069834
 11
116.5434569653
 21
98.8831912652
  0
LINE
  5
2DB
100
AcDbEntity
  8
RACCORDO
100
AcDbLine
 62
7
  6
CONTINUOUS
 10
116.5333031329
 20
98.8852068005
 11
116.5935661014
 21
98.870725838
  0
LINE
  5
2DC
100
AcDbEntity
  8
RACCORDO
100
AcDbLine
 62
253
  6
CONTINUOUS
 10
116.479952624
 20
98.9541200663
 11
116.5527804345
 21
98.9365979522
  0
LINE
  5
2DD
100
AcDbEntity
  8
ASSI
100
AcDbLine
 62
7
  6
CONTINUOUS
 10
116.5434569653
 20
98.8831912652
 11
116.641515906
 21
98.8549863001
  0
LWPOLYLINE
  5
2DE
100
AcDbEntity
  8
RACCORDO
100
AcDbPolyline
 62
253
  6
CONTINUOUS
 90
16
 70
0
 10
115.8793908835
 20
97.906110102
 10
115.8725060169
 20
97.9557236157
 10
115.8653367117
 20
98.0457893915
 10
115.863703846
 20
98.1339819191
 10
115.8675981376
 20
98.219710459
 10
115.8770345942
 20
98.3024193061
 10
115.8919311714
 20
98.3815595018
 10
115.9121675734
 20
98.4566157145
 10
115.9376472925
 20
98.5271183877
 10
115.9681913184
 20
98.5926093223
 10
116.0035773617
 20
98.6526496136
 10
116.0435943502
 20
98.7068502627
 10
116.0879607901
 20
98.754852855
 10
116.1363718974
 20
98.7963502177
 10
116.1885409872
 20
98.8310907399
 10
116.2441150016
 20
98.8588441076
  0
LWPOLYLINE
  5
2DF
100
AcDbEntity
  8
ASSI
100
AcDbPolyline
 62
253
  6
CONTINUOUS
 90
12
 70
0
 10
115.8793908835
 20
97.906110102
 10
115.8725060169
 20
97.9557236157
 10
115.8653367117
 20
98.0457893915
 10
115.863703846
 20
98.1339819191
 10
115.8675981376
 20
98.219710459
 10
115.8770345942
 20
98.3024193061
 10
115.8919311714
 20
98.3815595018
 10
115.9121675734
 20
98.4566157145
 10
115.9376472925
 20
98.5271183877
 10
115.9681913184
 20
98.5926093223
 10
116.0035773617
 20
98.6526496136
 10
116.0435943502
 20
98.7068502627
  0
LINE
  5
2E0
100
AcDbEntity
  8
268
100
AcDbLine
 62
7
  6
CONTINUOUS
 10
116.1130818677
 20
135.1796205468
 11
116.1130818677
 21
135.1552250415
  0
LINE
  5
2E1
100
AcDbEntity
  8
268
100
AcDbLine
 62
7
  6
CONTINUOUS
 10
116.5122751646
 20
136.5528715795
 11
116.5122751646
 21
136.8062429732
  0
LINE
  5
2E2
100
AcDbEntity
  8
268
100
AcDbLine
 62
7
  6
CONTINUOUS
 10
116.926254666
 20
134.7486386423
 11
116.926254666
 21
134.3819030916
  0
LINE
  5
2E3
100
AcDbEntity
  8
268
100
AcDbLine
 62
7
  6
CONTINUOUS
 10
117.2152681189
 20
135.6463123248
 11
117.2152681189
 21
136.0986433005
  0
LINE
  5
2E4
100
AcDbEntity
  8
268
100
AcDbLine
 62
7
  6
CONTINUOUS
 10
131.6591405206
 20
129.6250612382
 11
133.2604213114
 21
130.4277832417
  0
LINE
  5
2E5
100
AcDbEntity
  8
DRAFT
100
AcDbLine
 62
7
  6
CONTINUOUS
 10
147.4687286122
 20
138.5642881458
 11
147.362662595
 21
138.5112551372
  0
LINE
  5
2E6
100
AcDbEntity
  8
DRAFT
100
AcDbLine
 62
7
  6
CONTINUOUS
 10
147.1858858997
 20
138.4228667896
 11
147.0798198826
 21
138.369833781
  0
LINE
  5
2E7
100
AcDbEntity
  8
DRAFT
100
AcDbLine
 62
7
  6
CONTINUOUS
 10
146.9030431873
 20
138.2814454333
 11
146.7969771701
 21
138.2284124247
  0
LINE
  5
2E8
100
AcDbEntity
  8
DRAFT
100
AcDbLine
 62
7
  6
CONTINUOUS
 10
146.6202004748
 20
138.1400240771
 11
146.5141344576
 21
138.0869910685
  0
LINE
  5
2E9
100
AcDbEntity
  8
DRAFT
100
AcDbLine
 62
7
  6
CONTINUOUS
 10
146.3373577623
 20
137.9986027209
 11
146.2312917451
 21
137.9455697123
  0
LINE
  5
2EA
100
AcDbEntity
  8
DRAFT
100
AcDbLine
 62
7
  6
CONTINUOUS
 10
146.0545150499
 20
137.8571813646
 11
145.9484490327
 21
137.804148356
  0
LINE
  5
2EB
100
AcDbEntity
  8
DRAFT
100
AcDbLine
 62
7
  6
CONTINUOUS
 10
147.3285415155
 20
138.4063577976
 11
147.2224754983
 21
138.353324789
  0
LINE
  5
2EC
100
AcDbEntity
  8
DRAFT
100
AcDbLine
 62
7
  6
CONTINUOUS
 10
147.045698803
 20
138.2649364413
 11
146.9396327858
 21
138.2119034328
  0
LINE
  5
2ED
100
AcDbEntity
  8
DRAFT
100
AcDbLine
 62
7
  6
CONTINUOUS
 10
146.7628560905
 20
138.1235150851
 11
146.6567900733
 21
138.0704820765
  0
LINE
  5
2EE
100
AcDbEntity
  8
DRAFT
100
AcDbLine
 62
7
  6
CONTINUOUS
 10
146.480013378
 20
137.9820937289
 11
146.3739473609
 21
137.9290607203
  0
LINE
  5
2EF
100
AcDbEntity
  8
DRAFT
100
AcDbLine
 62
7
  6
CONTINUOUS
 10
146.1971706656
 20
137.8406723726
 11
146.0911046484
 21
137.787639364
  0
LINE
  5
2F0
100
AcDbEntity
  8
RACCORDO
100
AcDbLine
 62
7
  6
CONTINUOUS
 10
145.9143279531
 20
137.6992510164
 11
145.9019479758
 21
137.6930610277
  0
LINE
  5
2F1
100
AcDbEntity
  8
DRAFT
100
AcDbLine
 62
7
  6
CONTINUOUS
 10
146.8364333244
 20
136.6670781045
 11
147.6500443086
 21
137.0738835966
  0
LINE
  5
2F2
100
AcDbEntity
  8
DRAFT
100
AcDbLine
 62
7
  6
CONTINUOUS
 10
149.068796872
 20
137.7642540159
 11
148.9627308549
 21
137.7112210073
  0
LINE
  5
2F3
100
AcDbEntity
  8
DRAFT
100
AcDbLine
 62
7
  6
CONTINUOUS
 10
148.7859541596
 20
137.6228326597
 11
148.6798881424
 21
137.5697996511
  0
LINE
  5
2F4
100
AcDbEntity
  8
DRAFT
100
AcDbLine
 62
7
  6
CONTINUOUS
 10
148.5031114471
 20
137.4814113034
 11
148.3970454299
 21
137.4283782948
  0
LINE
  5
2F5
100
AcDbEntity
  8
DRAFT
100
AcDbLine
 62
7
  6
CONTINUOUS
 10
148.2202687346
 20
137.3399899472
 11
148.1142027174
 21
137.2869569386
  0
LINE
  5
2F6
100
AcDbEntity
  8
DRAFT
100
AcDbLine
 62
7
  6
CONTINUOUS
 10
147.9374260221
 20
137.198568591
 11
147.831360005
 21
137.1455355824
  0
LINE
  5
2F7
100
AcDbEntity
  8
DRAFT
100
AcDbLine
 62
7
  6
CONTINUOUS
 10
147.6545833097
 20
137.0571472347
 11
147.5485172925
 21
137.0041142261
  0
LINE
  5
2F8
100
AcDbEntity
  8
DRAFT
100
AcDbLine
 62
7
  6
CONTINUOUS
 10
147.5200737743
 20
136.9235300485
 11
147.3836450062
 21
136.8553156645
  0
LINE
  5
2F9
100
AcDbEntity
  8
DRAFT
100
AcDbLine
 62
7
  6
CONTINUOUS
 10
146.8364333244
 20
136.5817098236
 11
146.9240255984
 21
136.6255059606
  0
LINE
  5
2FA
100
AcDbEntity
  8
DRAFT
100
AcDbLine
 62
7
  6
CONTINUOUS
 10
147.1008022937
 20
136.7138943082
 11
147.2068683109
 21
136.7669273168
  0
LINE
  5
2FB
100
AcDbEntity
  8
DRAFT
100
AcDbLine
 62
7
  6
CONTINUOUS
 10
148.9261412563
 20
137.6075579272
 11
148.8713224405
 21
137.5801485192
  0
LINE
  5
2FC
100
AcDbEntity
  8
DRAFT
100
AcDbLine
 62
7
  6
CONTINUOUS
 10
148.6432985438
 20
137.4661365709
 11
148.588479728
 21
137.438727163
  0
LINE
  5
2FD
100
AcDbEntity
  8
DRAFT
100
AcDbLine
 62
7
  6
CONTINUOUS
 10
148.3604558314
 20
137.3247152147
 11
148.3056370155
 21
137.2973058067
  0
LINE
  5
2FE
100
AcDbEntity
  8
DRAFT
100
AcDbLine
 62
7
  6
CONTINUOUS
 10
148.0776131189
 20
137.1832938584
 11
148.022794303
 21
137.1558844505
  0
LINE
  5
2FF
100
AcDbEntity
  8
DRAFT
100
AcDbLine
 62
7
  6
CONTINUOUS
 10
147.7947704064
 20
137.0418725022
 11
147.7399515906
 21
137.0144630943
  0
LINE
  5
300
100
AcDbEntity
  8
RACCORDO
100
AcDbLine
 62
7
  6
CONTINUOUS
 10
147.5119276939
 20
136.900451146
 11
142.3411812048
 21
134.3150779014
  0
LINE
  5
301
100
AcDbEntity
  8
268
100
AcDbLine
 62
7
  6
CONTINUOUS
 10
133.2604213114
 20
130.4277832417
 11
133.7886884832
 21
130.6912220617
  0
LINE
  5
302
100
AcDbEntity
  8
0
100
AcDbLine
 62
253
  6
CONTINUOUS
 10
146.419541935
 20
137.3623241172
 11
140.3750935132
 21
134.3642331397
  0
LINE
  5
303
100
AcDbEntity
  8
0
100
AcDbLine
 62
253
  6
CONTINUOUS
 10
146.8364333244
 20
137.0980843782
 11
140.9202309165
 21
134.1636043691
  0
LINE
  5
304
100
AcDbEntity
  8
0
100
AcDbLine
 62
7
  6
CONTINUOUS
 10
139.132875417
 20
132.3506928133
 11
139.4122503078
 21
132.4892648187
  0
LINE
  5
305
100
AcDbEntity
  8
0
100
AcDbLine
 62
253
  6
CONTINUOUS
 10
141.9977588825
 20
133.5529004551
 11
138.905310994
 21
132.050744224
  0
LINE
  5
306
100
AcDbEntity
  8
268
100
AcDbLine
 62
253
  6
CONTINUOUS
 10
133.1708991015
 20
131.0620941235
 11
137.9427380797
 21
133.3561696098
  0
LINE
  5
307
100
AcDbEntity
  8
268
100
AcDbLine
 62
253
  6
CONTINUOUS
 10
133.3985146013
 20
130.9482863735
 11
138.3845789476
 21
133.3453513295
  0
LINE
  5
308
100
AcDbEntity
  8
0
100
AcDbLine
 62
7
  6
CONTINUOUS
 10
138.7174861214
 20
131.8845454991
 11
138.5961278383
 21
131.8284982223
  0
LWPOLYLINE
  5
309
100
AcDbEntity
  8
0
100
AcDbPolyline
 62
253
  6
CONTINUOUS
 90
19
 70
0
 10
141.9977614096
 20
133.5528991915
 10
142.0056014618
 20
133.5564739182
 10
142.0134257279
 20
133.5596859427
 10
142.0212235066
 20
133.562530872
 10
142.028984133
 20
133.5650048151
 10
142.036696993
 20
133.5671043884
 10
142.0443515379
 20
133.5688267203
 10
142.0519372986
 20
133.5701694554
 10
142.0594439002
 20
133.571130757
 10
142.066861076
 20
133.5717093105
 10
142.0741786817
 20
133.5719043245
 10
142.0813867089
 20
133.5717155324
 10
142.0884752995
 20
133.5711431924
 10
142.0954347584
 20
133.5701880872
 10
142.1022555673
 20
133.5688515232
 10
142.1089283974
 20
133.5671353282
 10
142.1154441224
 20
133.5650418496
 10
142.1217938309
 20
133.5625739506
 10
142.1282222316
 20
133.5596087115
  0
LINE
  5
30A
100
AcDbEntity
  8
0
100
AcDbLine
 62
7
  6
CONTINUOUS
 10
142.6093987176
 20
133.0791445966
 11
148.8284967878
 21
135.7665334573
  0
LINE
  5
30B
100
AcDbEntity
  8
ASSI
100
AcDbLine
 62
7
  6
CONTINUOUS
 10
116.3562108424
 20
98.8903383419
 11
116.4480350547
 21
98.895069834
  0
LWPOLYLINE
  5
30C
100
AcDbEntity
  8
RACCORDO
100
AcDbPolyline
 62
7
  6
CONTINUOUS
 90
3
 70
0
 10
116.416572392
 20
98.8953508239
 10
116.4742045745
 20
98.8934192823
 10
116.5333031329
 20
98.8852068005
  0
LWPOLYLINE
  5
30D
100
AcDbEntity
  8
ASSI
100
AcDbPolyline
 62
253
  6
CONTINUOUS
 90
4
 70
0
 10
117.5622572928
 20
97.4074902939
 10
117.5636657114
 20
97.3120033261
 10
117.5591503541
 20
97.2185580593
 10
117.5487953876
 20
97.1289740643
  0
LINE
  5
30E
100
AcDbEntity
  8
268
100
AcDbLine
 62
7
  6
CONTINUOUS
 10
118.1180516268
 20
136.0033547422
 11
118.1180516268
 21
135.7499833484
  0
LINE
  5
30F
100
AcDbEntity
  8
268
100
AcDbLine
 62
7
  6
CONTINUOUS
 10
118.8292722349
 20
134.8393102668
 11
118.8292722349
 21
135.4764798255
  0
LWPOLYLINE
  5
310
100
AcDbEntity
  8
RACCORDO
100
AcDbPolyline
 62
253
  6
CONTINUOUS
 90
6
 70
0
 10
117.5591503541
 20
97.2185580593
 10
117.5487953876
 20
97.1289740643
 10
117.5324844325
 20
97.0433307089
 10
117.510332375
 20
96.9615480116
 10
117.4827673454
 20
96.8852052696
 10
117.4496770831
 20
96.8144056988
  0
LINE
  5
311
100
AcDbEntity
  8
284
100
AcDbLine
 62
7
  6
CONTINUOUS
 10
122.9996207185
 20
131.7119556161
 11
122.9563925137
 21
131.5817912069
  0
LINE
  5
312
100
AcDbEntity
  8
268
100
AcDbLine
 62
253
  6
CONTINUOUS
 10
133.7745021446
 20
129.9472514709
 11
139.1328289247
 21
132.8381916979
  0
LINE
  5
313
100
AcDbEntity
  8
268
100
AcDbLine
 62
253
  6
CONTINUOUS
 10
133.4078819913
 20
129.5010393448
 11
139.0486773571
 21
132.544377854
  0
LINE
  5
314
100
AcDbEntity
  8
268
100
AcDbLine
 62
253
  6
CONTINUOUS
 10
133.3194920366
 20
129.3657461635
 11
139.0486773571
 21
132.3321186999
  0
LINE
  5
315
100
AcDbEntity
  8
268
100
AcDbLine
 62
7
  6
CONTINUOUS
 10
133.4392581672
 20
129.3058630982
 11
138.7174861214
 21
132.0387456231
  0
LINE
  5
316
100
AcDbEntity
  8
268
100
AcDbLine
 62
253
  6
CONTINUOUS
 10
133.4018426677
 20
128.625021756
 11
131.6340757147
 21
127.7222440565
  0
LINE
  5
317
100
AcDbEntity
  8
268
100
AcDbLine
 62
253
  6
CONTINUOUS
 10
133.6493300411
 20
128.1981576361
 11
131.8815630881
 21
127.2953799366
  0
LINE
  5
318
100
AcDbEntity
  8
0
100
AcDbLine
 62
7
  6
CONTINUOUS
 10
139.0963032881
 20
131.5784104974
 11
134.0224070951
 21
129.0142886343
  0
LINE
  5
319
100
AcDbEntity
  8
268
100
AcDbLine
 62
7
  6
CONTINUOUS
 10
133.2604213114
 20
128.6957324341
 11
132.1935903993
 21
128.1571511846
  0
LINE
  5
31A
100
AcDbEntity
  8
DRAFT
100
AcDbLine
 62
7
  6
CONTINUOUS
 10
150.5799984494
 20
137.0086532272
 11
150.4739324323
 21
136.9556202186
  0
LINE
  5
31B
100
AcDbEntity
  8
DRAFT
100
AcDbLine
 62
7
  6
CONTINUOUS
 10
150.297155737
 20
136.867231871
 11
150.1910897198
 21
136.8141988624
  0
LINE
  5
31C
100
AcDbEntity
  8
DRAFT
100
AcDbLine
 62
7
  6
CONTINUOUS
 10
150.0143130245
 20
136.7258105147
 11
149.9082470073
 21
136.6727775061
  0
LINE
  5
31D
100
AcDbEntity
  8
DRAFT
100
AcDbLine
 62
7
  6
CONTINUOUS
 10
149.731470312
 20
136.5843891585
 11
149.6254042948
 21
136.5313561499
  0
LINE
  5
31E
100
AcDbEntity
  8
DRAFT
100
AcDbLine
 62
7
  6
CONTINUOUS
 10
149.4486275995
 20
136.4429678023
 11
149.3425615824
 21
136.3899347937
  0
LINE
  5
31F
100
AcDbEntity
  8
DRAFT
100
AcDbLine
 62
7
  6
CONTINUOUS
 10
149.1657848871
 20
136.301546446
 11
149.0597188699
 21
136.2485134374
  0
LINE
  5
320
100
AcDbEntity
  8
DRAFT
100
AcDbLine
 62
7
  6
CONTINUOUS
 10
150.4398113527
 20
136.850722879
 11
150.3337453355
 21
136.7976898704
  0
LINE
  5
321
100
AcDbEntity
  8
DRAFT
100
AcDbLine
 62
7
  6
CONTINUOUS
 10
150.1569686402
 20
136.7093015227
 11
150.050902623
 21
136.6562685141
  0
LINE
  5
322
100
AcDbEntity
  8
DRAFT
100
AcDbLine
 62
7
  6
CONTINUOUS
 10
149.8741259277
 20
136.5678801665
 11
149.7680599106
 21
136.5148471579
  0
LINE
  5
323
100
AcDbEntity
  8
DRAFT
100
AcDbLine
 62
7
  6
CONTINUOUS
 10
149.5912832153
 20
136.4264588103
 11
149.4852171981
 21
136.3734258017
  0
LINE
  5
324
100
AcDbEntity
  8
DRAFT
100
AcDbLine
 62
7
  6
CONTINUOUS
 10
149.3084405028
 20
136.285037454
 11
149.2023744856
 21
136.2320044454
  0
LINE
  5
325
100
AcDbEntity
  8
RACCORDO
100
AcDbLine
 62
7
  6
CONTINUOUS
 10
149.0255977903
 20
136.1436160978
 11
144.7252705847
 21
133.993452495
  0
LINE
  5
326
100
AcDbEntity
  8
268
100
AcDbLine
 62
253
  6
CONTINUOUS
 10
134.1089494489
 20
128.9710174574
 11
133.4018426677
 21
128.625021756
  0
LINE
  5
327
100
AcDbEntity
  8
268
100
AcDbLine
 62
253
  6
CONTINUOUS
 10
134.3564368223
 20
128.5441533375
 11
133.6493300411
 21
128.1981576361
  0
LINE
  5
328
100
AcDbEntity
  8
0
100
AcDbLine
 62
253
  6
CONTINUOUS
 10
142.4976848915
 20
133.0493235629
 11
139.4052348416
 21
131.5471679647
  0
LINE
  5
329
100
AcDbEntity
  8
0
100
AcDbLine
 62
253
  6
CONTINUOUS
 10
142.6372973383
 20
132.8085277113
 11
148.8965069092
 21
135.5132495033
  0
LINE
  5
32A
100
AcDbEntity
  8
0
100
AcDbLine
 62
7
  6
CONTINUOUS
 10
149.7081619166
 20
135.7248681218
 11
149.0641631323
 21
135.4465841746
  0
LINE
  5
32B
100
AcDbEntity
  8
0
100
AcDbLine
 62
253
  6
CONTINUOUS
 10
149.1515345668
 20
135.2958907411
 11
149.8899422215
 21
135.6149705311
  0
LWPOLYLINE
  5
32C
100
AcDbEntity
  8
RACCORDO
100
AcDbPolyline
 62
253
  6
CONTINUOUS
 90
22
 70
0
 10
127.5814348674
 20
125.714014436
 10
127.5058626436
 20
125.6816104987
 10
127.4302172165
 20
125.6426560757
 10
127.3548742998
 20
125.5973488885
 10
127.2802085026
 20
125.5459222198
 10
127.2065899312
 20
125.4886327345
 10
127.1343828776
 20
125.4257566144
 10
127.0639375786
 20
125.357599603
 10
126.9956137101
 20
125.2845110752
 10
126.9297755635
 20
125.206873524
 10
126.8667619677
 20
125.1250961787
 10
126.8068700102
 20
125.0395761924
 10
126.750381911
 20
124.9507081477
 10
126.6975696581
 20
124.8589157462
 10
126.6487099539
 20
124.764677029
 10
126.6040652266
 20
124.6684883069
 10
126.5638626362
 20
124.5708470697
 10
126.5282930563
 20
124.4722289481
 10
126.4975304363
 20
124.3731094148
 10
126.4717286768
 20
124.2739787262
 10
126.4510181471
 20
124.1753398522
 10
126.435503185
 20
124.0776871251
  0
LWPOLYLINE
  5
32D
100
AcDbEntity
  8
ASSI
100
AcDbPolyline
 62
253
  6
CONTINUOUS
 90
22
 70
0
 10
127.5814348674
 20
125.714014436
 10
127.5058626436
 20
125.6816104987
 10
127.4302172165
 20
125.6426560757
 10
127.3548742998
 20
125.5973488885
 10
127.2802085026
 20
125.5459222198
 10
127.2065899312
 20
125.4886327345
 10
127.1343828776
 20
125.4257566144
 10
127.0639375786
 20
125.357599603
 10
126.9956137101
 20
125.2845110752
 10
126.9297755635
 20
125.206873524
 10
126.8667619677
 20
125.1250961787
 10
126.8068700102
 20
125.0395761924
 10
126.750381911
 20
124.9507081477
 10
126.6975696581
 20
124.8589157462
 10
126.6487099539
 20
124.764677029
 10
126.6040652266
 20
124.6684883069
 10
126.5638626362
 20
124.5708470697
 10
126.5282930563
 20
124.4722289481
 10
126.4975304363
 20
124.3731094148
 10
126.4717286768
 20
124.2739787262
 10
126.4510181471
 20
124.1753398522
 10
126.435503185
 20
124.0776871251
  0
LWPOLYLINE
  5
32E
100
AcDbEntity
  8
RACCORDO
100
AcDbPolyline
 62
253
  6
CONTINUOUS
 90
22
 70
0
 10
128.0879129134
 20
124.7127341517
 10
128.0522019345
 20
124.6977021905
 10
128.0167578884
 20
124.6797931766
 10
127.9815807749
 20
124.6590071098
 10
127.9464824679
 20
124.6352066816
 10
127.9116510936
 20
124.6085292007
 10
127.8776510308
 20
124.5793865927
 10
127.8445069965
 20
124.5477442908
 10
127.8121942738
 20
124.5136368619
 10
127.7812030902
 20
124.4775799322
 10
127.7515582815
 20
124.4395503917
 10
127.723235012
 20
124.3995713504
 10
127.6966490025
 20
124.3582277644
 10
127.6718209773
 20
124.3154894471
 10
127.6487302121
 20
124.2713865851
 10
127.6277302545
 20
124.226594694
 10
127.6088543924
 20
124.1810927046
 10
127.592069338
 20
124.1349016862
 10
127.5776287751
 20
124.088760362
 10
127.5656172652
 20
124.042914973
 10
127.5559502468
 20
123.9971192781
 10
127.54862772
 20
123.9513732775
  0
LWPOLYLINE
  5
32F
100
AcDbEntity
  8
ASSI
100
AcDbPolyline
 62
253
  6
CONTINUOUS
 90
22
 70
0
 10
128.0879129134
 20
124.7127341517
 10
128.0522019345
 20
124.6977021905
 10
128.0167578884
 20
124.6797931766
 10
127.9815807749
 20
124.6590071098
 10
127.9464824679
 20
124.6352066816
 10
127.9116510936
 20
124.6085292007
 10
127.8776510308
 20
124.5793865927
 10
127.8445069965
 20
124.5477442908
 10
127.8121942738
 20
124.5136368619
 10
127.7812030902
 20
124.4775799322
 10
127.7515582815
 20
124.4395503917
 10
127.723235012
 20
124.3995713504
 10
127.6966490025
 20
124.3582277644
 10
127.6718209773
 20
124.3154894471
 10
127.6487302121
 20
124.2713865851
 10
127.6277302545
 20
124.226594694
 10
127.6088543924
 20
124.1810927046
 10
127.592069338
 20
124.1349016862
 10
127.5776287751
 20
124.088760362
 10
127.5656172652
 20
124.042914973
 10
127.5559502468
 20
123.9971192781
 10
127.54862772
 20
123.9513732775
  0
LINE
  5
330
100
AcDbEntity
  8
RACCORDO
100
AcDbLine
 62
253
  6
CONTINUOUS
 10
131.6331183603
 20
127.2434282836
 11
127.5814348674
 21
125.714014436
  0
LINE
  5
331
100
AcDbEntity
  8
ASSI
100
AcDbLine
 62
253
  6
CONTINUOUS
 10
131.6331183603
 20
127.2434282836
 11
127.5814348674
 21
125.714014436
  0
LINE
  5
332
100
AcDbEntity
  8
RACCORDO
100
AcDbLine
 62
253
  6
CONTINUOUS
 10
132.1395964062
 20
126.2421479993
 11
128.0879129134
 21
124.7127341517
  0
LINE
  5
333
100
AcDbEntity
  8
ASSI
100
AcDbLine
 62
253
  6
CONTINUOUS
 10
132.1395964062
 20
126.2421479993
 11
128.0879129134
 21
124.7127341517
  0
LINE
  5
334
100
AcDbEntity
  8
268
100
AcDbLine
 62
7
  6
CONTINUOUS
 10
131.8815630881
 20
127.2709844313
 11
132.6947358865
 21
127.5552860992
  0
LWPOLYLINE
  5
335
100
AcDbEntity
  8
0
100
AcDbPolyline
 62
7
  6
CONTINUOUS
 90
22
 70
0
 10
139.6046381008
 20
102.653026197
 10
139.5921961761
 20
102.6497963536
 10
139.5798266583
 20
102.6470289827
 10
139.5675408261
 20
102.6447166945
 10
139.555359226
 20
102.6428528954
 10
139.5432827825
 20
102.6414272461
 10
139.5312937491
 20
102.640429125
 10
139.5194034233
 20
102.6398523158
 10
139.5076224019
 20
102.6396900469
 10
139.4959332854
 20
102.6399361487
 10
139.4843413874
 20
102.6405862105
 10
139.4728640353
 20
102.6416347772
 10
139.4615031771
 20
102.6430771753
 10
139.4502776854
 20
102.6449064022
 10
139.4391914449
 20
102.6471169884
 10
139.4282253471
 20
102.6497097625
 10
139.417386832
 20
102.6526817056
 10
139.406692343
 20
102.6560268153
 10
139.3961378622
 20
102.6597452861
 10
139.3857304387
 20
102.6638345871
 10
139.3754873193
 20
102.668287651
 10
139.3654202053
 20
102.6730985265
  0
LWPOLYLINE
  5
336
100
AcDbEntity
  8
RACCORDO
100
AcDbPolyline
 62
7
  6
CONTINUOUS
 90
3
 70
0
 10
116.3071162475
 20
98.8803708705
 10
116.3608169566
 20
98.8909924589
 10
116.416572392
 20
98.8953508239
  0
LWPOLYLINE
  5
337
100
AcDbEntity
  8
ASSI
100
AcDbPolyline
 62
253
  6
CONTINUOUS
 90
5
 70
0
 10
116.2673448651
 20
98.9590706971
 10
116.3362576115
 20
98.9653894463
 10
116.4076152176
 20
98.9637226228
 10
116.479952624
 20
98.9541200663
 10
116.5527804345
 20
98.9365979522
  0
LINE
  5
338
100
AcDbEntity
  8
0
100
AcDbLine
 62
7
  6
CONTINUOUS
 10
138.8670937469
 20
95.4834011881
 11
138.905310994
 21
95.4642925645
  0
LINE
  5
339
100
AcDbEntity
  8
268
100
AcDbLine
 62
7
  6
CONTINUOUS
 10
119.896103147
 20
135.3778915163
 11
119.896103147
 21
137.1099423239
  0
LINE
  5
33A
100
AcDbEntity
  8
268
100
AcDbLine
 62
7
  6
CONTINUOUS
 10
120.5990961013
 20
137.2452638217
 11
120.5990961013
 21
136.9843348453
  0
LWPOLYLINE
  5
33B
100
AcDbEntity
  8
ASSI
100
AcDbPolyline
 62
253
  6
CONTINUOUS
 90
5
 70
0
 10
117.5487953876
 20
97.1289740643
 10
117.5324844325
 20
97.0433307089
 10
117.510332375
 20
96.9615480116
 10
117.4827673454
 20
96.8852052696
 10
117.4496770831
 20
96.8144056988
  0
LINE
  5
33C
100
AcDbEntity
  8
RACCORDO
100
AcDbLine
 62
7
  6
CONTINUOUS
 10
139.1449415406
 20
135.8069473558
 11
138.6482726839
 21
135.2995834854
  0
LINE
  5
33D
100
AcDbEntity
  8
0
100
AcDbLine
 62
253
  6
CONTINUOUS
 10
149.5762770044
 20
134.5633184003
 11
150.2893488621
 21
134.9260956954
  0
LINE
  5
33E
100
AcDbEntity
  8
0
100
AcDbLine
 62
253
  6
CONTINUOUS
 10
149.6498089276
 20
134.4364945928
 11
150.3307701358
 21
134.7829355056
  0
LINE
  5
33F
100
AcDbEntity
  8
0
100
AcDbLine
 62
253
  6
CONTINUOUS
 10
140.5450146365
 20
129.581338609
 11
149.6500614854
 21
134.2135601127
  0
LINE
  5
340
100
AcDbEntity
  8
0
100
AcDbLine
 62
253
  6
CONTINUOUS
 10
140.3341168616
 20
129.4434978847
 11
134.3564368223
 21
126.4023365028
  0
LINE
  5
341
100
AcDbEntity
  8
DRAFT
100
AcDbLine
 62
7
  6
CONTINUOUS
 10
150.2959451403
 20
135.2855641752
 11
150.7613141458
 21
135.518248678
  0
LINE
  5
342
100
AcDbEntity
  8
DRAFT
100
AcDbLine
 62
7
  6
CONTINUOUS
 10
150.6893692082
 20
135.3969079283
 11
150.4949148434
 21
135.2996807459
  0
LWPOLYLINE
  5
343
100
AcDbEntity
  8
0
100
AcDbPolyline
 62
253
  6
CONTINUOUS
 90
32
 70
0
 10
150.2893487419
 20
134.9260959026
 10
150.2984687271
 20
134.9305690777
 10
150.3076003217
 20
134.9347604182
 10
150.3167317762
 20
134.9386629884
 10
150.3258533604
 20
134.942275726
 10
150.3349502723
 20
134.9455853315
 10
150.3440037909
 20
134.948567062
 10
150.3530044343
 20
134.9512128376
 10
150.3619381077
 20
134.9535174514
 10
150.3707814064
 20
134.955462076
 10
150.3795252254
 20
134.9570389806
 10
150.3881574957
 20
134.9582445366
 10
150.3966534062
 20
134.9590681503
 10
150.4050007254
 20
134.9595036076
 10
150.4131943805
 20
134.959548508
 10
150.4212224321
 20
134.9591994119
 10
150.429071457
 20
134.9584528234
 10
150.4367391937
 20
134.9573048059
 10
150.4442293522
 20
134.9557506108
 10
150.451533691
 20
134.953785649
 10
150.4586417397
 20
134.9514053453
 10
150.4655512275
 20
134.9486033773
 10
150.4722543261
 20
134.9453733935
 10
150.4787385205
 20
134.9417118161
 10
150.4849933996
 20
134.9376158627
 10
150.4910101398
 20
134.9330796619
 10
150.4967781179
 20
134.928099973
 10
150.5022844843
 20
134.9226781844
 10
150.5075206544
 20
134.9168094699
 10
150.5124775008
 20
134.9104908537
 10
150.5171418759
 20
134.9037268735
 10
150.5207279236
 20
134.8978712107
  0
LWPOLYLINE
  5
344
100
AcDbEntity
  8
0
100
AcDbPolyline
 62
253
  6
CONTINUOUS
 90
52
 70
0
 10
150.3307701358
 20
134.7829355056
 10
150.3362570181
 20
134.7856116656
 10
150.3417822484
 20
134.78803401
 10
150.3473458269
 20
134.7902025389
 10
150.3529557849
 20
134.7921266533
 10
150.3586040909
 20
134.7937969521
 10
150.3642666507
 20
134.7951852322
 10
150.3699441387
 20
134.7962890641
 10
150.3756358804
 20
134.7971108772
 10
150.3813157574
 20
134.797629756
 10
150.3869839559
 20
134.7978427513
 10
150.3926402896
 20
134.7977528122
 10
150.3982580819
 20
134.797347871
 10
150.4038343312
 20
134.7966260224
 10
150.409372039
 20
134.7955891717
 10
150.414853533
 20
134.7942309671
 10
150.420275332
 20
134.7925524854
 10
150.4256409172
 20
134.7905526499
 10
150.4309430602
 20
134.788221878
 10
150.4361834188
 20
134.7855605744
 10
150.4413603351
 20
134.7825683345
 10
150.4464616071
 20
134.7792343615
 10
150.451489339
 20
134.7755572569
 10
150.4564414266
 20
134.7715384191
 10
150.4612993555
 20
134.7671712474
 10
150.4660636734
 20
134.7624541976
 10
150.4707338325
 20
134.7573888138
 10
150.4752896756
 20
134.7519731273
 10
150.4797311075
 20
134.7462059138
 10
150.4840582234
 20
134.7400883975
 10
150.4882511508
 20
134.7336222822
 10
150.4923099441
 20
134.7268059148
 10
150.496234549
 20
134.7196409484
 10
150.5000049303
 20
134.7121340463
 10
150.5036212655
 20
134.7042823129
 10
150.5070833771
 20
134.6960886437
 10
150.5103706968
 20
134.6875683894
 10
150.5134827105
 20
134.6787189498
 10
150.5164199324
 20
134.6695429249
 10
150.5191633366
 20
134.6600634657
 10
150.5217121796
 20
134.6502772295
 10
150.5240672049
 20
134.640187559
 10
150.5262116161
 20
134.6298276325
 10
150.528144095
 20
134.6191950107
 10
150.5298659598
 20
134.608292133
 10
150.5313643694
 20
134.5971594958
 10
150.5326378131
 20
134.5857943726
 10
150.5336878016
 20
134.5741994899
 10
150.5345060255
 20
134.5624235242
 10
150.5350897149
 20
134.550482701
 10
150.5354416396
 20
134.5383607947
 10
150.5355617996
 20
134.5260578054
  0
LINE
  5
345
100
AcDbEntity
  8
ASSI
100
AcDbLine
 62
7
  6
CONTINUOUS
 10
116.2691069146
 20
98.8686205033
 11
116.3562108424
 21
98.8903383419
  0
LINE
  5
346
100
AcDbEntity
  8
0
100
AcDbLine
 62
253
  6
CONTINUOUS
 10
137.9626814063
 20
98.9049997534
 11
138.5250219407
 21
98.6238294862
  0
LINE
  5
347
100
AcDbEntity
  8
0
100
AcDbLine
 62
7
  6
CONTINUOUS
 10
137.8320839762
 20
99.0691282571
 11
138.2255622021
 21
98.8723891441
  0
LINE
  5
348
100
AcDbEntity
  8
0
100
AcDbLine
 62
253
  6
CONTINUOUS
 10
137.8302577543
 20
99.4809685756
 11
137.9633991561
 21
99.4143978747
  0
LINE
  5
349
100
AcDbEntity
  8
268
100
AcDbLine
 62
7
  6
CONTINUOUS
 10
122.07386015
 20
134.8518783845
 11
122.07386015
 21
133.6371449983
  0
LINE
  5
34A
100
AcDbEntity
  8
268
100
AcDbLine
 62
253
  6
CONTINUOUS
 10
122.1617281157
 20
134.7453694277
 11
122.1617281157
 21
133.5304145616
  0
LINE
  5
34B
100
AcDbEntity
  8
268
100
AcDbLine
 62
7
  6
CONTINUOUS
 10
122.3356215421
 20
132.0439552043
 11
122.3356215421
 21
131.8921766927
  0
LWPOLYLINE
  5
34C
100
AcDbEntity
  8
RACCORDO
100
AcDbPolyline
 62
253
  6
CONTINUOUS
 90
14
 70
0
 10
123.456472747
 20
87.8745160634
 10
123.4563785215
 20
87.7824823794
 10
123.4616333748
 20
87.6933034515
 10
123.4722106253
 20
87.6074249861
 10
123.4880574634
 20
87.5252789863
 10
123.5090938677
 20
87.4472720755
 10
123.5352153127
 20
87.3737854163
 10
123.5662985015
 20
87.3051784326
 10
123.6021868065
 20
87.2418052168
 10
123.6426873246
 20
87.1840000594
 10
123.6875876234
 20
87.1320582549
 10
123.7366703178
 20
87.0862232532
 10
123.789703465
 20
87.0467099928
 10
123.8486039854
 20
87.0126194245
  0
LWPOLYLINE
  5
34D
100
AcDbEntity
  8
ASSI
100
AcDbPolyline
 62
253
  6
CONTINUOUS
 90
14
 70
0
 10
123.456472747
 20
87.8745160634
 10
123.4563785215
 20
87.7824823794
 10
123.4616333748
 20
87.6933034515
 10
123.4722106253
 20
87.6074249861
 10
123.4880574634
 20
87.5252789863
 10
123.5090938677
 20
87.4472720755
 10
123.5352153127
 20
87.3737854163
 10
123.5662985015
 20
87.3051784326
 10
123.6021868065
 20
87.2418052168
 10
123.6426873246
 20
87.1840000594
 10
123.6875876234
 20
87.1320582549
 10
123.7366703178
 20
87.0862232532
 10
123.789703465
 20
87.0467099928
 10
123.8450769408
 20
87.0144055337
  0
LINE
  5
34E
100
AcDbEntity
  8
284
100
AcDbLine
 62
7
  6
CONTINUOUS
 10
127.2422614056
 20
129.5906352726
 11
127.1990332008
 21
129.4604708633
  0
LINE
  5
34F
100
AcDbEntity
  8
268
100
AcDbLine
 62
7
  6
CONTINUOUS
 10
133.8755401464
 20
130.0702244751
 11
133.3482954307
 21
129.428516747
  0
LINE
  5
350
100
AcDbEntity
  8
0
100
AcDbLine
 62
253
  6
CONTINUOUS
 10
140.9591651121
 20
128.1497050343
 11
150.0642135462
 21
132.7819206011
  0
LINE
  5
351
100
AcDbEntity
  8
0
100
AcDbLine
 62
253
  6
CONTINUOUS
 10
140.7482673373
 20
128.0118643101
 11
134.3564368223
 21
124.7600027193
  0
LINE
  5
352
100
AcDbEntity
  8
0
100
AcDbLine
 62
7
  6
CONTINUOUS
 10
140.6475310143
 20
99.8253166493
 11
140.7482673373
 21
99.7749484878
  0
LWPOLYLINE
  5
353
100
AcDbEntity
  8
RACCORDO
100
AcDbPolyline
 62
253
  6
CONTINUOUS
 90
22
 70
0
 10
124.5775413632
 20
87.8447440052
 10
124.5775476027
 20
87.8016423612
 10
124.5800301859
 20
87.7602020339
 10
124.5849891126
 20
87.7204230233
 10
124.5924725257
 20
87.6821043084
 10
124.6024322824
 20
87.6454469102
 10
124.6147239544
 20
87.6110538911
 10
124.6293848004
 20
87.5789751897
 10
124.6463775619
 20
87.5491608675
 10
124.6654460342
 20
87.5220641717
 10
124.6866180233
 20
87.4977301148
 10
124.7098657233
 20
87.4761136844
 10
124.7348495127
 20
87.4575330906
 10
124.761601626
 20
87.4420307733
 10
124.7900898287
 20
87.4295642925
 10
124.8198777959
 20
87.420324538
 10
124.8509946238
 20
87.4143674077
 10
124.8834112162
 20
87.4116370038
 10
124.9166039601
 20
87.4121565221
 10
124.950398318
 20
87.4159336949
 10
124.9849688275
 20
87.42296079
 10
125.0203154885
 20
87.4332378075
  0
LWPOLYLINE
  5
354
100
AcDbEntity
  8
ASSI
100
AcDbPolyline
 62
253
  6
CONTINUOUS
 90
22
 70
0
 10
124.5775413632
 20
87.8447440052
 10
124.5775476027
 20
87.8016423612
 10
124.5800301859
 20
87.7602020339
 10
124.5849891126
 20
87.7204230233
 10
124.5924725257
 20
87.6821043084
 10
124.6024322824
 20
87.6454469102
 10
124.6147239544
 20
87.6110538911
 10
124.6293848004
 20
87.5789751897
 10
124.6463775619
 20
87.5491608675
 10
124.6654460342
 20
87.5220641717
 10
124.6866180233
 20
87.4977301148
 10
124.7098657233
 20
87.4761136844
 10
124.7348495127
 20
87.4575330906
 10
124.761601626
 20
87.4420307733
 10
124.7900898287
 20
87.4295642925
 10
124.8198777959
 20
87.420324538
 10
124.8509946238
 20
87.4143674077
 10
124.8834112162
 20
87.4116370038
 10
124.9166039601
 20
87.4121565221
 10
124.950398318
 20
87.4159336949
 10
124.9849688275
 20
87.42296079
 10
125.0203154885
 20
87.4332378075
  0
LWPOLYLINE
  5
355
100
AcDbEntity
  8
RACCORDO
100
AcDbPolyline
 62
253
  6
CONTINUOUS
 90
7
 70
0
 10
124.4611172962
 20
105.8033492768
 10
124.2261565193
 20
102.789008564
 10
124.0181723487
 20
99.7846471177
 10
123.8371907127
 20
96.7906420621
 10
123.6832343898
 20
93.8073691778
 10
123.5563230026
 20
90.8352028538
 10
123.456472747
 20
87.8745160634
  0
LWPOLYLINE
  5
356
100
AcDbEntity
  8
RACCORDO
100
AcDbPolyline
 62
253
  6
CONTINUOUS
 90
7
 70
0
 10
125.5794839486
 20
105.7257700007
 10
125.3451640286
 20
102.7195849718
 10
125.1377184968
 20
99.7229738498
 10
124.9572256361
 20
96.7370707779
 10
124.8037115407
 20
93.7622538036
 10
124.6771501164
 20
90.7981448794
 10
124.5775413632
 20
87.8447440052
  0
LWPOLYLINE
  5
357
100
AcDbEntity
  8
ASSI
100
AcDbPolyline
 62
253
  6
CONTINUOUS
 90
7
 70
0
 10
125.5794839486
 20
105.7257700007
 10
125.3451640286
 20
102.7195849718
 10
125.1377184968
 20
99.7229738498
 10
124.9572256361
 20
96.7370707779
 10
124.8037115407
 20
93.7622538036
 10
124.6771501164
 20
90.7981448794
 10
124.5775413632
 20
87.8447440052
  0
LINE
  5
358
100
AcDbEntity
  8
RACCORDO
100
AcDbLine
 62
253
  6
CONTINUOUS
 10
124.7230253296
 20
108.8272907863
 11
124.4611172962
 21
105.8033492768
  0
LWPOLYLINE
  5
359
100
AcDbEntity
  8
RACCORDO
100
AcDbPolyline
 62
253
  6
CONTINUOUS
 90
3
 70
0
 10
125.3275476771
 20
114.902457043
 10
125.0118475963
 20
111.8604535628
 10
124.7230253296
 20
108.8272907863
  0
LWPOLYLINE
  5
35A
100
AcDbEntity
  8
RACCORDO
100
AcDbPolyline
 62
253
  6
CONTINUOUS
 90
4
 70
0
 10
126.435503185
 20
124.0776871251
 10
126.0394198756
 20
121.0114574181
 10
125.6700860067
 20
117.9529193656
 10
125.3275476771
 20
114.902457043
  0
LWPOLYLINE
  5
35B
100
AcDbEntity
  8
ASSI
100
AcDbPolyline
 62
253
  6
CONTINUOUS
 90
13
 70
0
 10
126.435503185
 20
124.0776871251
 10
126.0394198756
 20
121.0114574181
 10
125.6700860067
 20
117.9529193656
 10
125.3275476771
 20
114.902457043
 10
125.0118475963
 20
111.8604535628
 10
124.7230253296
 20
108.8272907863
 10
124.4611172962
 20
105.8033492768
 10
124.2261565193
 20
102.789008564
 10
124.0181723487
 20
99.7846471177
 10
123.8371907127
 20
96.7906420621
 10
123.6832343898
 20
93.8073691778
 10
123.5563230026
 20
90.8352028538
 10
123.456472747
 20
87.8745160634
  0
LWPOLYLINE
  5
35C
100
AcDbEntity
  8
RACCORDO
100
AcDbPolyline
 62
253
  6
CONTINUOUS
 90
7
 70
0
 10
127.54862772
 20
123.9513732775
 10
127.1535237137
 20
120.8926964795
 10
126.7851850585
 20
117.8424501822
 10
126.4436117544
 20
114.8006343857
 10
126.1287674557
 20
111.7668679546
 10
125.8406885081
 20
108.7415320242
 10
125.5794839486
 20
105.7257700007
  0
LWPOLYLINE
  5
35D
100
AcDbEntity
  8
ASSI
100
AcDbPolyline
 62
253
  6
CONTINUOUS
 90
7
 70
0
 10
127.54862772
 20
123.9513732775
 10
127.1535237137
 20
120.8926964795
 10
126.7851850585
 20
117.8424501822
 10
126.4436117544
 20
114.8006343857
 10
126.1287674557
 20
111.7668679546
 10
125.8406885081
 20
108.7415320242
 10
125.5794839486
 20
105.7257700007
  0
LINE
  5
35E
100
AcDbEntity
  8
0
100
AcDbLine
 62
7
  6
CONTINUOUS
 10
116.6863779641
 20
98.8355621777
 11
116.6693405971
 21
98.8006430673
  0
LINE
  5
35F
100
AcDbEntity
  8
ASSI
100
AcDbLine
 62
7
  6
CONTINUOUS
 10
116.6863779641
 20
98.8355621777
 11
116.6624464436
 21
98.7865130844
  0
LINE
  5
360
100
AcDbEntity
  8
RACCORDO
100
AcDbLine
 62
7
  6
CONTINUOUS
 10
142.2562113778
 20
134.2513124371
 11
141.7595425211
 21
133.7439485668
  0
LWPOLYLINE
  5
361
100
AcDbEntity
  8
0
100
AcDbPolyline
 62
253
  6
CONTINUOUS
 90
22
 70
0
 10
151.1063598258
 20
130.1088108512
 10
151.1139128761
 20
130.1128690202
 10
151.1211621174
 20
130.1170647159
 10
151.128097481
 20
130.1213922767
 10
151.1347096974
 20
130.1258461212
 10
151.1409891331
 20
130.1304199731
 10
151.1469260019
 20
130.1351068003
 10
151.1525118543
 20
130.1398998975
 10
151.1577394213
 20
130.1447929903
 10
151.1626015798
 20
130.1497794152
 10
151.167091692
 20
130.1548523759
 10
151.1712035876
 20
130.1600049136
 10
151.1749316098
 20
130.1652299431
 10
151.1782706511
 20
130.1705203003
 10
151.1812161586
 20
130.1758687654
 10
151.1837641109
 20
130.1812680351
 10
151.1859110236
 20
130.1867107287
 10
151.187653957
 20
130.1921893975
 10
151.1889905261
 20
130.1976965474
 10
151.1899189021
 20
130.2032246453
 10
151.1904378144
 20
130.2087661303
 10
151.1905578857
 20
130.2130078436
  0
LINE
  5
362
100
AcDbEntity
  8
0
100
AcDbLine
 62
7
  6
CONTINUOUS
 10
140.7482673373
 20
125.7557106013
 11
138.5250219407
 21
124.6045915998
  0
LINE
  5
363
100
AcDbEntity
  8
0
100
AcDbLine
 62
253
  6
CONTINUOUS
 10
150.1484116061
 20
130.088559743
 11
150.8905578857
 21
130.4728172279
  0
LINE
  5
364
100
AcDbEntity
  8
0
100
AcDbLine
 62
253
  6
CONTINUOUS
 10
150.0642135462
 20
129.5692238192
 11
151.1063598258
 21
130.1088108512
  0
LINE
  5
365
100
AcDbEntity
  8
0
100
AcDbLine
 62
7
  6
CONTINUOUS
 10
140.9591651121
 20
125.4893495114
 11
138.6642283539
 21
124.313098761
  0
LINE
  5
366
100
AcDbEntity
  8
0
100
AcDbLine
 62
7
  6
CONTINUOUS
 10
140.6025263078
 20
122.9476621922
 11
139.6752654167
 21
122.4920538222
  0
LWPOLYLINE
  5
367
100
AcDbEntity
  8
0
100
AcDbPolyline
 62
253
  6
CONTINUOUS
 90
40
 70
0
 10
139.5671490431
 20
106.1623400152
 10
139.5749278254
 20
106.1611573864
 10
139.5826939905
 20
106.1596957365
 10
139.5904349416
 20
106.1579574363
 10
139.5981381229
 20
106.1559453055
 10
139.6057910398
 20
106.1536626076
 10
139.6133812793
 20
106.1511130452
 10
139.6208965299
 20
106.1483007537
 10
139.6283246018
 20
106.1452302947
 10
139.6356534468
 20
106.1419066485
 10
139.6428711774
 20
106.1383352059
 10
139.6499660864
 20
106.13452176
 10
139.6569266659
 20
106.1304724961
 10
139.6637416257
 20
106.1261939822
 10
139.6703999121
 20
106.121693158
 10
139.6768907251
 20
106.1169773239
 10
139.6832035367
 20
106.1120541289
 10
139.6893281075
 20
106.1069315586
 10
139.6952545034
 20
106.1016179217
 10
139.7009731118
 20
106.096121837
 10
139.7064746571
 20
106.0904522192
 10
139.7117502157
 20
106.0846182643
 10
139.7167912307
 20
106.0786294352
 10
139.7215895255
 20
106.0724954456
 10
139.7261373173
 20
106.066226245
 10
139.7304272295
 20
106.059832002
 10
139.7344523039
 20
106.053323088
 10
139.7382060118
 20
106.0467100607
 10
139.7416822646
 20
106.0400036463
 10
139.744875424
 20
106.0332147227
 10
139.7477803105
 20
106.0263543015
 10
139.7503922124
 20
106.0194335103
 10
139.7527068932
 20
106.0124635747
 10
139.7547205986
 20
106.0054558
 10
139.7564300621
 20
105.9984215528
 10
139.7578325112
 20
105.9913722427
 10
139.758925671
 20
105.9843193036
 10
139.7597077684
 20
105.9772741755
 10
139.7601775348
 20
105.9702482856
 10
139.7603342084
 20
105.96325303
  0
LINE
  5
368
100
AcDbEntity
  8
0
100
AcDbLine
 62
253
  6
CONTINUOUS
 10
139.6752654167
 20
101.7074441314
 11
139.3258630519
 21
101.8821453138
  0
LINE
  5
369
100
AcDbEntity
  8
0
100
AcDbLine
 62
7
  6
CONTINUOUS
 10
139.3654202053
 20
102.6730985265
 11
139.3186266124
 21
102.696495323
  0
LINE
  5
36A
100
AcDbEntity
  8
0
100
AcDbLine
 62
253
  6
CONTINUOUS
 10
140.6025263078
 20
102.1630525014
 11
139.9877295106
 21
102.4704509
  0
LINE
  5
36B
100
AcDbEntity
  8
268
100
AcDbLine
 62
7
  6
CONTINUOUS
 10
130.632248208
 20
107.9238441726
 11
130.9623242726
 21
107.7588061403
  0
LINE
  5
36C
100
AcDbEntity
  8
0
100
AcDbLine
 62
253
  6
CONTINUOUS
 10
140.9591651121
 20
102.7712991917
 11
140.3351116038
 21
103.0833259458
  0
LINE
  5
36D
100
AcDbEntity
  8
268
100
AcDbLine
 62
7
  6
CONTINUOUS
 10
127.2853690104
 20
129.5690814702
 11
127.2853690104
 21
129.4173029585
  0
LINE
  5
36E
100
AcDbEntity
  8
268
100
AcDbLine
 62
253
  6
CONTINUOUS
 10
127.9542371837
 20
130.6341600276
 11
127.9542371837
 21
131.8491148937
  0
LINE
  5
36F
100
AcDbEntity
  8
268
100
AcDbLine
 62
7
  6
CONTINUOUS
 10
128.3106738431
 20
134.810702622
 11
128.3106738431
 21
136.1374047214
  0
LINE
  5
370
100
AcDbEntity
  8
268
100
AcDbLine
 62
253
  6
CONTINUOUS
 10
128.3772635353
 20
130.6357988752
 11
128.3772635353
 21
131.850002348
  0
LWPOLYLINE
  5
371
100
AcDbEntity
  8
RACCORDO
100
AcDbPolyline
 62
253
  6
CONTINUOUS
 90
16
 70
0
 10
128.0879129134
 20
124.7127341517
 10
128.0900043282
 20
124.7890171939
 10
128.0859860678
 20
124.8676020082
 10
128.075902108
 20
124.9476279619
 10
128.0598628548
 20
125.0282186346
 10
128.0380439377
 20
125.1084914081
 10
128.0106842889
 20
125.187567133
 10
127.9780835212
 20
125.2645797749
 10
127.9405986532
 20
125.3386858793
 10
127.8986402076
 20
125.4090738036
 10
127.8526676947
 20
125.4749726445
 10
127.8031845939
 20
125.5356606523
 10
127.7507328558
 20
125.590473125
 10
127.6958869362
 20
125.6388097275
 10
127.6392475012
 20
125.6801410603
 10
127.5814348692
 20
125.7140144367
  0
LWPOLYLINE
  5
372
100
AcDbEntity
  8
ASSI
100
AcDbPolyline
 62
253
  6
CONTINUOUS
 90
16
 70
0
 10
128.0879129134
 20
124.7127341517
 10
128.0900043282
 20
124.7890171939
 10
128.0859860678
 20
124.8676020082
 10
128.075902108
 20
124.9476279619
 10
128.0598628548
 20
125.0282186346
 10
128.0380439377
 20
125.1084914081
 10
128.0106842889
 20
125.187567133
 10
127.9780835212
 20
125.2645797749
 10
127.9405986532
 20
125.3386858793
 10
127.8986402076
 20
125.4090738036
 10
127.8526676947
 20
125.4749726445
 10
127.8031845939
 20
125.5356606523
 10
127.7507328558
 20
125.590473125
 10
127.6958869362
 20
125.6388097275
 10
127.6392475012
 20
125.6801410603
 10
127.5814348692
 20
125.7140144367
  0
LWPOLYLINE
  5
373
100
AcDbEntity
  8
RACCORDO
100
AcDbPolyline
 62
7
  6
CONTINUOUS
 90
6
 70
0
 10
117.4477312482
 20
96.9233217062
 10
117.4133485464
 20
96.8581248052
 10
117.3740410718
 20
96.8000610616
 10
117.3301392644
 20
96.7494700555
 10
117.2821355975
 20
96.7067242069
 10
117.2303244799
 20
96.6718810103
  0
LWPOLYLINE
  5
374
100
AcDbEntity
  8
RACCORDO
100
AcDbPolyline
 62
253
  6
CONTINUOUS
 90
3
 70
0
 10
117.4496770831
 20
96.8144056988
 10
117.4111696949
 20
96.7490443293
 10
117.3680013389
 20
96.6903871005
  0
LWPOLYLINE
  5
375
100
AcDbEntity
  8
ASSI
100
AcDbPolyline
 62
253
  6
CONTINUOUS
 90
3
 70
0
 10
117.4496770831
 20
96.8144056988
 10
117.4111696949
 20
96.7490443293
 10
117.3680013389
 20
96.6903871005
  0
LWPOLYLINE
  5
376
100
AcDbEntity
  8
0
100
AcDbPolyline
 62
253
  6
CONTINUOUS
 90
16
 70
0
 10
139.6925546211
 20
121.4728168807
 10
139.6973186311
 20
121.4752819753
 10
139.7019294851
 20
121.4778379479
 10
139.7063795475
 20
121.4804827499
 10
139.7106644274
 20
121.483216266
 10
139.7147731764
 20
121.4860341258
 10
139.7186897845
 20
121.4889271634
 10
139.7224070303
 20
121.4918910958
 10
139.7259207528
 20
121.4949237163
 10
139.729221884
 20
121.498018099
 10
139.732305325
 20
121.5011699012
 10
139.7351675413
 20
121.5043759781
 10
139.7378032612
 20
121.5076307886
 10
139.740208743
 20
121.5109297691
 10
139.7423813929
 20
121.5142694252
 10
139.7443184301
 20
121.5176456543
  0
LINE
  5
377
100
AcDbEntity
  8
0
100
AcDbLine
 62
7
  6
CONTINUOUS
 10
139.913479928
 20
122.3970595127
 11
139.3662848834
 21
122.1234619904
  0
LWPOLYLINE
  5
378
100
AcDbEntity
  8
0
100
AcDbPolyline
 62
253
  6
CONTINUOUS
 90
28
 70
0
 10
139.5183163249
 20
121.1300689062
 10
139.5125071681
 20
121.1272790207
 10
139.5064780478
 20
121.1246083535
 10
139.5002387432
 20
121.1220612362
 10
139.4937993746
 20
121.1196418004
 10
139.4871703867
 20
121.1173539704
 10
139.4803625315
 20
121.1152014571
 10
139.4733868517
 20
121.1131877517
 10
139.4662546616
 20
121.1113161207
 10
139.4589775298
 20
121.1095895997
 10
139.4515672598
 20
121.1080109892
 10
139.444035871
 20
121.1065828497
 10
139.4363955795
 20
121.1053074976
 10
139.4286587777
 20
121.1041870017
 10
139.4208380149
 20
121.1032231792
 10
139.4129459763
 20
121.1024175936
 10
139.4049954628
 20
121.1017715515
 10
139.3969993702
 20
121.1012861008
 10
139.3889706682
 20
121.1009620289
 10
139.3809223794
 20
121.1007998614
 10
139.3728675581
 20
121.1007998614
 10
139.3648192692
 20
121.1009620289
 10
139.3567905672
 20
121.1012861008
 10
139.3487944746
 20
121.1017715515
 10
139.3408439611
 20
121.1024175936
 10
139.3329519225
 20
121.1032231792
 10
139.3251311597
 20
121.1041870017
 10
139.3186266124
 20
121.1051290342
  0
LINE
  5
379
100
AcDbEntity
  8
0
100
AcDbLine
 62
253
  6
CONTINUOUS
 10
139.3186266124
 20
106.2866012306
 11
139.5671490431
 21
106.1623400152
  0
LWPOLYLINE
  5
37A
100
AcDbEntity
  8
0
100
AcDbPolyline
 62
253
  6
CONTINUOUS
 90
40
 70
0
 10
139.5258707727
 20
106.1128582623
 10
139.5315857245
 20
106.109883064
 10
139.5373323825
 20
106.1066567589
 10
139.5431014255
 20
106.1031845799
 10
139.5488834963
 20
106.099472159
 10
139.5546692161
 20
106.0955255178
 10
139.5604492007
 20
106.0913510577
 10
139.5662140747
 20
106.0869555496
 10
139.5719544876
 20
106.0823461233
 10
139.5776611284
 20
106.077530255
 10
139.583324741
 20
106.0725157562
 10
139.5889361388
 20
106.0673107605
 10
139.5944862203
 20
106.0619237103
 10
139.599965983
 20
106.0563633434
 10
139.605366539
 20
106.0506386789
 10
139.6106791283
 20
106.0447590021
 10
139.6158951341
 20
106.0387338498
 10
139.6210060959
 20
106.032572995
 10
139.6260037237
 20
106.0262864305
 10
139.6308799113
 20
106.0198843532
 10
139.6356267496
 20
106.0133771472
 10
139.6402365391
 20
106.0067753673
 10
139.6447018028
 20
106.0000897215
 10
139.649015298
 20
105.9933310541
 10
139.6531700281
 20
105.9865103276
 10
139.6571592543
 20
105.9796386052
 10
139.6609765059
 20
105.9727270329
 10
139.6646155914
 20
105.9657868213
 10
139.6680706082
 20
105.9588292275
 10
139.6713359521
 20
105.9518655367
 10
139.6744063268
 20
105.944907044
 10
139.6772767522
 20
105.9379650361
 10
139.6799425724
 20
105.931050773
 10
139.6823994634
 20
105.9241754696
 10
139.6846434402
 20
105.9173502778
 10
139.686670863
 20
105.9105862679
 10
139.6884784433
 20
105.9038944113
 10
139.6900632492
 20
105.8972855622
 10
139.6914227101
 20
105.8907704401
 10
139.6925546211
 20
105.8843596126
  0
LWPOLYLINE
  5
37B
100
AcDbEntity
  8
268
100
AcDbPolyline
 62
7
  6
CONTINUOUS
 90
13
 70
0
 10
139.1294557821
 20
95.329069258
 10
139.126564617
 20
95.3329624489
 10
139.1228758529
 20
95.3373447891
 10
139.1184158889
 20
95.342102082
 10
139.1132230306
 20
95.3472419366
 10
139.1073403735
 20
95.3527892953
 10
139.1007798393
 20
95.3586568939
 10
139.0935729361
 20
95.3648542019
 10
139.0857557904
 20
95.3713993265
 10
139.077331851
 20
95.3782202026
 10
139.0683189596
 20
95.3853022274
 10
139.0587571143
 20
95.3926858707
 10
139.0486773571
 20
95.4003824254
  0
LINE
  5
37C
100
AcDbEntity
  8
268
100
AcDbLine
 62
7
  6
CONTINUOUS
 10
130.0249480175
 20
100.5435259324
 11
130.6891108701
 21
94.3530106013
  0
LINE
  5
37D
100
AcDbEntity
  8
268
100
AcDbLine
 62
7
  6
CONTINUOUS
 10
130.358246812
 20
104.5939958832
 11
130.3889678615
 21
104.3053070267
  0
LINE
  5
37E
100
AcDbEntity
  8
268
100
AcDbLine
 62
7
  6
CONTINUOUS
 10
130.9623242726
 20
107.7588061403
 11
132.6947358865
 21
91.3446452328
  0
LINE
  5
37F
100
AcDbEntity
  8
268
100
AcDbLine
 62
7
  6
CONTINUOUS
 10
128.6642272337
 20
135.4080698368
 11
128.6642272337
 21
135.9606280261
  0
LINE
  5
380
100
AcDbEntity
  8
268
100
AcDbLine
 62
253
  6
CONTINUOUS
 10
128.7349379118
 20
137.5768363236
 11
128.7349379118
 21
136.3450021422
  0
LINE
  5
381
100
AcDbEntity
  8
268
100
AcDbLine
 62
7
  6
CONTINUOUS
 10
128.8228058775
 20
137.6818335376
 11
128.8228058775
 21
136.4494649327
  0
LINE
  5
382
100
AcDbEntity
  8
268
100
AcDbLine
 62
7
  6
CONTINUOUS
 10
128.8763592681
 20
132.1001990211
 11
128.8763592681
 21
130.8877634558
  0
LINE
  5
383
100
AcDbEntity
  8
268
100
AcDbLine
 62
7
  6
CONTINUOUS
 10
129.876593329
 20
88.3177369642
 11
129.876593329
 21
88.5711083579
  0
LINE
  5
384
100
AcDbEntity
  8
268
100
AcDbLine
 62
7
  6
CONTINUOUS
 10
129.876593329
 20
129.8707124973
 11
129.876593329
 21
130.124083891
  0
LINE
  5
385
100
AcDbEntity
  8
268
100
AcDbLine
 62
7
  6
CONTINUOUS
 10
130.5795862833
 20
128.9641532426
 11
130.5795862833
 21
129.4164842183
  0
LWPOLYLINE
  5
386
100
AcDbEntity
  8
RACCORDO
100
AcDbPolyline
 62
253
  6
CONTINUOUS
 90
11
 70
0
 10
125.0203154885
 20
87.4332378075
 10
125.010049581
 20
87.3593473516
 10
124.9938092141
 20
87.2894032767
 10
124.9717722514
 20
87.2241716078
 10
124.9441800412
 20
87.1643667598
 10
124.9113347723
 20
87.1106437135
 10
124.8735961649
 20
87.0635908415
 10
124.831377531
 20
87.0237234654
 10
124.7851412474
 20
86.9914782112
 10
124.7353936924
 20
86.9672082279
 10
124.7186129589
 20
86.9611023796
  0
LWPOLYLINE
  5
387
100
AcDbEntity
  8
ASSI
100
AcDbPolyline
 62
253
  6
CONTINUOUS
 90
11
 70
0
 10
125.0203154885
 20
87.4332378075
 10
125.010049581
 20
87.3593473516
 10
124.9938092141
 20
87.2894032767
 10
124.9717722514
 20
87.2241716078
 10
124.9441800412
 20
87.1643667598
 10
124.9113347723
 20
87.1106437135
 10
124.8735961649
 20
87.0635908415
 10
124.831377531
 20
87.0237234654
 10
124.7851412474
 20
86.9914782112
 10
124.7353936924
 20
86.9672082279
 10
124.7186129589
 20
86.9611023796
  0
LWPOLYLINE
  5
388
100
AcDbEntity
  8
ASSI
100
AcDbPolyline
 62
253
  6
CONTINUOUS
 90
5
 70
0
 10
116.0435943502
 20
98.7068502627
 10
116.0879607901
 20
98.754852855
 10
116.1363718974
 20
98.7963502177
 10
116.1885409872
 20
98.8310907399
 10
116.2441150016
 20
98.8588441076
  0
LWPOLYLINE
  5
389
100
AcDbEntity
  8
0
100
AcDbPolyline
 62
253
  6
CONTINUOUS
 90
24
 70
0
 10
139.5258748029
 20
121.7013184416
 10
139.5151740358
 20
121.6933793979
 10
139.504543985
 20
121.6850727946
 10
139.4939947583
 20
121.6764065807
 10
139.483536526
 20
121.667389171
 10
139.4731790841
 20
121.6580290723
 10
139.4629318595
 20
121.6483348292
 10
139.452804464
 20
121.6383155249
 10
139.4428066755
 20
121.6279808229
 10
139.4329480118
 20
121.6173405608
 10
139.4232378521
 20
121.6064048613
 10
139.413685437
 20
121.5951841306
 10
139.4042998632
 20
121.5836890544
 10
139.395090065
 20
121.5719305762
 10
139.3860648008
 20
121.5599198791
 10
139.3772326525
 20
121.5476683847
 10
139.3686020223
 20
121.5351877474
 10
139.3601811238
 20
121.5224898449
 10
139.3519779697
 20
121.5095867594
 10
139.3440003651
 20
121.4964907679
 10
139.3362559005
 20
121.4832143311
 10
139.3287519449
 20
121.4697700815
 10
139.3214956387
 20
121.4561708122
 10
139.3186266124
 20
121.45054018
  0
LWPOLYLINE
  5
38A
100
AcDbEntity
  8
0
100
AcDbPolyline
 62
253
  6
CONTINUOUS
 90
46
 70
0
 10
139.6925546211
 20
121.4728164796
 10
139.6861250023
 20
121.4680455632
 10
139.6797495934
 20
121.4630637335
 10
139.6734283944
 20
121.4578709907
 10
139.6671554951
 20
121.4524619798
 10
139.6609368056
 20
121.4468420558
 10
139.6547900566
 20
121.4410272829
 10
139.6487154546
 20
121.4350171205
 10
139.6427127931
 20
121.4288121093
 10
139.6367991839
 20
121.4224299357
 10
139.6309748806
 20
121.415870093
 10
139.6252396295
 20
121.409133088
 10
139.6196097818
 20
121.4022381269
 10
139.6140856408
 20
121.3951847624
 10
139.6086669032
 20
121.387973442
 10
139.6033690103
 20
121.3806247145
 10
139.5981923056
 20
121.3731381867
 10
139.5931364455
 20
121.3655142519
 10
139.5882158405
 20
121.357774639
 10
139.5834308766
 20
121.3499190179
 10
139.5787811678
 20
121.3419477187
 10
139.5742799673
 20
121.3338834603
 10
139.5699276987
 20
121.3257259783
 10
139.5657239384
 20
121.3174755371
 10
139.5616806675
 20
121.3091556495
 10
139.5577983445
 20
121.3007661198
 10
139.554076511
 20
121.2923071437
 10
139.5505257727
 20
121.2838028211
 10
139.54714661
 20
121.2752529976
 10
139.5439385427
 20
121.2666578276
 10
139.5409107351
 20
121.2580418737
 10
139.5380637233
 20
121.249405153
 10
139.5353969714
 20
121.2407476484
 10
139.5329180359
 20
121.2320938715
 10
139.5306272984
 20
121.2234428633
 10
139.5285243775
 20
121.2147955827
 10
139.5266156851
 20
121.2061794185
 10
139.5249029171
 20
121.197606319
 10
139.5233843777
 20
121.189064336
 10
139.5220613913
 20
121.180545013
 10
139.5209313037
 20
121.1720388318
 10
139.5199967693
 20
121.1635553108
 10
139.5192670754
 20
121.1551145479
 10
139.518745318
 20
121.1467232425
 10
139.5184284012
 20
121.1383746953
 10
139.5183163249
 20
121.1300689062
  0
LINE
  5
38B
100
AcDbEntity
  8
0
100
AcDbLine
 62
7
  6
CONTINUOUS
 10
139.3186266124
 20
117.712470001
 11
139.9877295106
 21
118.0589081681
  0
LWPOLYLINE
  5
38C
100
AcDbEntity
  8
0
100
AcDbPolyline
 62
253
  6
CONTINUOUS
 90
28
 70
0
 10
139.5183163249
 20
118.5319926948
 10
139.5125071681
 20
118.5292028094
 10
139.5064780478
 20
118.5265321421
 10
139.5002387432
 20
118.5239850249
 10
139.4937993746
 20
118.5215655891
 10
139.4871703867
 20
118.5192777591
 10
139.4803625315
 20
118.5171252457
 10
139.4733868517
 20
118.5151115404
 10
139.4662546616
 20
118.5132399093
 10
139.4589775298
 20
118.5115133883
 10
139.4515672598
 20
118.5099347778
 10
139.444035871
 20
118.5085066383
 10
139.4363955795
 20
118.5072312863
 10
139.4286587777
 20
118.5061107903
 10
139.4208380149
 20
118.5051469679
 10
139.4129459763
 20
118.5043413823
 10
139.4049954628
 20
118.5036953402
 10
139.3969993702
 20
118.5032098894
 10
139.3889706682
 20
118.5028858175
 10
139.3809223794
 20
118.50272365
 10
139.3728675581
 20
118.50272365
 10
139.3648192692
 20
118.5028858175
 10
139.3567905672
 20
118.5032098894
 10
139.3487944746
 20
118.5036953402
 10
139.3408439611
 20
118.5043413823
 10
139.3329519225
 20
118.5051469679
 10
139.3251311597
 20
118.5061107903
 10
139.3186266124
 20
118.5070528229
  0
LINE
  5
38D
100
AcDbEntity
  8
0
100
AcDbLine
 62
253
  6
CONTINUOUS
 10
140.9591651121
 20
107.1014262106
 11
140.5223735656
 21
107.3198219839
  0
LWPOLYLINE
  5
38E
100
AcDbEntity
  8
0
100
AcDbPolyline
 62
253
  6
CONTINUOUS
 90
8
 70
0
 10
139.3186266124
 20
102.7062148984
 10
139.3212442236
 20
102.7036866265
 10
139.328503406
 20
102.6973197595
 10
139.3360112634
 20
102.6913566481
 10
139.3437606296
 20
102.6858029838
 10
139.3517441077
 20
102.6806640679
 10
139.3599540758
 20
102.6759448063
 10
139.3654202025
 20
102.6730985279
  0
LWPOLYLINE
  5
38F
100
AcDbEntity
  8
268
100
AcDbPolyline
 62
7
  6
CONTINUOUS
 90
24
 70
0
 10
131.4219436804
 20
136.4515105701
 10
131.4213704959
 20
136.4859829762
 10
131.4196713829
 20
136.5197328972
 10
131.4168463414
 20
136.552760333
 10
131.4128859068
 20
136.5851218904
 10
131.4077995437
 20
136.6167609626
 10
131.4016156453
 20
136.6475077291
 10
131.3943330299
 20
136.6773432565
 10
131.3859528792
 20
136.7062864783
 10
131.376507132
 20
136.7342243742
 10
131.3659832735
 20
136.761170537
 10
131.3543938184
 20
136.787111374
 10
131.3418082497
 20
136.8118930869
 10
131.3282330638
 20
136.8354903883
 10
131.3136617643
 20
136.8579285656
 10
131.2981443442
 20
136.8791296828
 10
131.2816610569
 20
136.8991067727
 10
131.264231649
 20
136.9178468026
 10
131.2459653544
 20
136.9352327382
 10
131.2268766985
 20
136.9512416645
 10
131.2069511558
 20
136.9658964966
 10
131.1862543833
 20
136.9791489449
 10
131.1647618687
 20
136.9910048062
 10
127.9355606025
 20
138.6056293165
  0
LINE
  5
390
100
AcDbEntity
  8
268
100
AcDbLine
 62
7
  6
CONTINUOUS
 10
131.4219436804
 20
136.4515105701
 11
131.4219436804
 21
136.1807102774
  0
LINE
  5
391
100
AcDbEntity
  8
268
100
AcDbLine
 62
7
  6
CONTINUOUS
 10
131.4823697912
 20
129.3211956599
 11
131.4823697912
 21
129.0678242662
  0
LINE
  5
392
100
AcDbEntity
  8
268
100
AcDbLine
 62
7
  6
CONTINUOUS
 10
131.4823697912
 20
87.7682201268
 11
131.4823697912
 21
87.5148487331
  0
LINE
  5
393
100
AcDbEntity
  8
268
100
AcDbLine
 62
7
  6
CONTINUOUS
 10
131.8815630881
 20
127.2953799366
 11
131.8815630881
 21
127.2709844313
  0
LINE
  5
394
100
AcDbEntity
  8
268
100
AcDbLine
 62
7
  6
CONTINUOUS
 10
131.8815630881
 20
89.1658666648
 11
131.8815630881
 21
89.1414711595
  0
LINE
  5
395
100
AcDbEntity
  8
268
100
AcDbLine
 62
7
  6
CONTINUOUS
 10
132.1935903993
 20
88.7447166039
 11
132.1935903993
 21
89.149338695
  0
LINE
  5
396
100
AcDbEntity
  8
268
100
AcDbLine
 62
7
  6
CONTINUOUS
 10
132.1935903993
 20
128.1571511846
 11
132.1935903993
 21
128.7943207433
  0
LINE
  5
397
100
AcDbEntity
  8
268
100
AcDbLine
 62
7
  6
CONTINUOUS
 10
132.6947358865
 20
127.5552860992
 11
132.6947358865
 21
125.9053786616
  0
LINE
  5
398
100
AcDbEntity
  8
268
100
AcDbLine
 62
7
  6
CONTINUOUS
 10
132.6947358865
 20
91.3446452328
 11
132.6947358865
 21
89.6947377952
  0
LINE
  5
399
100
AcDbEntity
  8
RACCORDO
100
AcDbLine
 62
7
  6
CONTINUOUS
 10
129.0574152516
 20
88.7854204137
 11
132.1395964062
 21
126.2421479993
  0
LINE
  5
39A
100
AcDbEntity
  8
ASSI
100
AcDbLine
 62
7
  6
CONTINUOUS
 10
129.0574152516
 20
88.7854204137
 11
132.1395964062
 21
126.2421479993
  0
LINE
  5
39B
100
AcDbEntity
  8
268
100
AcDbLine
 62
7
  6
CONTINUOUS
 10
132.6947358865
 20
125.9053786616
 11
130.9623242726
 21
107.7588061403
  0
LWPOLYLINE
  5
39C
100
AcDbEntity
  8
0
100
AcDbPolyline
 62
253
  6
CONTINUOUS
 90
7
 70
0
 10
139.5258748029
 20
121.7013184416
 10
139.5325638513
 20
121.7103041415
 10
139.5393401799
 20
121.7190129838
 10
139.5461956591
 20
121.7274308467
 10
139.5531217159
 20
121.7355435944
 10
139.5601093321
 20
121.7433371024
 10
139.5671490431
 20
121.7507972833
  0
LWPOLYLINE
  5
39D
100
AcDbEntity
  8
RACCORDO
100
AcDbPolyline
 62
253
  6
CONTINUOUS
 90
3
 70
0
 10
117.3680013389
 20
96.6903871005
 10
117.3200843832
 20
96.6385713093
 10
117.2675005767
 20
96.5934571545
  0
LWPOLYLINE
  5
39E
100
AcDbEntity
  8
ASSI
100
AcDbPolyline
 62
253
  6
CONTINUOUS
 90
12
 70
0
 10
117.3680013389
 20
96.6903871005
 10
117.3200843832
 20
96.6385713093
 10
117.2675005767
 20
96.5934571545
 10
117.2112583689
 20
96.5558941644
 10
117.1512921003
 20
96.5260222832
 10
117.0876612233
 20
96.5036989121
 10
117.0215609687
 20
96.4893493817
 10
116.952901971
 20
96.4831328158
 10
116.8817684664
 20
96.4848878901
 10
116.8096160019
 20
96.4945592253
 10
116.7369287165
 20
96.5121279133
 10
116.6632195588
 20
96.5376116104
  0
LWPOLYLINE
  5
39F
100
AcDbEntity
  8
0
100
AcDbPolyline
 62
7
  6
CONTINUOUS
 90
32
 70
0
 10
151.0351239974
 20
123.5739709126
 10
151.0441412719
 20
123.5791353809
 10
151.052838593
 20
123.5845217305
 10
151.061284338
 20
123.5901579659
 10
151.0695750224
 20
123.5961069048
 10
151.0777617922
 20
123.6024167346
 10
151.0857694163
 20
123.6090417551
 10
151.0935036544
 20
123.6159042408
 10
151.1009089338
 20
123.6229427252
 10
151.108033697
 20
123.6301907987
 10
151.1149394999
 20
123.63771058
 10
151.1216543495
 20
123.6455442252
 10
151.1281251264
 20
123.6536421014
 10
151.1342907798
 20
123.6619287212
 10
151.1401133634
 20
123.6703414772
 10
151.1456249061
 20
123.6789143043
 10
151.1508684172
 20
123.6877153756
 10
151.1558599739
 20
123.696788063
 10
151.1605580757
 20
123.7060743413
 10
151.1649189604
 20
123.715490183
 10
151.1689176415
 20
123.7249666738
 10
151.1725773361
 20
123.7345421901
 10
151.1759257641
 20
123.744292692
 10
151.1789680799
 20
123.7542602906
 10
151.1816757381
 20
123.7643813009
 10
151.1840246705
 20
123.7745733798
 10
151.1860053856
 20
123.7847758157
 10
151.1876283991
 20
123.7950185541
 10
151.1889009309
 20
123.8053539773
 10
151.189818439
 20
123.8157904746
 10
151.1903723313
 20
123.8262911275
 10
151.1905578857
 20
123.8368409172
  0
LINE
  5
3A0
100
AcDbEntity
  8
0
100
AcDbLine
 62
7
  6
CONTINUOUS
 10
150.1484116061
 20
123.0955582087
 11
151.0351239974
 21
123.5739709126
  0
LWPOLYLINE
  5
3A1
100
AcDbEntity
  8
0
100
AcDbPolyline
 62
253
  6
CONTINUOUS
 90
22
 70
0
 10
150.0642135462
 20
123.1703803352
 10
151.1139179422
 20
123.7367031557
 10
151.1211705721
 20
123.7409011068
 10
151.128107796
 20
123.7452302736
 10
151.134720126
 20
123.749684735
 10
151.1409985185
 20
123.7542583988
 10
151.1469343867
 20
123.7589450096
 10
151.1525196121
 20
123.7637381576
 10
151.1577465559
 20
123.7686312872
 10
151.1626080693
 20
123.7736177063
 10
151.1670975033
 20
123.778690595
 10
151.1712087176
 20
123.7838430151
 10
151.1749360895
 20
123.7890679197
 10
151.1782745211
 20
123.7943581628
 10
151.1812194465
 20
123.799706509
 10
151.1837668378
 20
123.8051056435
 10
151.1859132111
 20
123.8105481819
 10
151.1876556309
 20
123.8160266805
 10
151.1889917139
 20
123.8215336464
 10
151.189919633
 20
123.8270615479
 10
151.1904381189
 20
123.8326028245
 10
151.1905578857
 20
123.8368409172
  0
LINE
  5
3A2
100
AcDbEntity
  8
0
100
AcDbLine
 62
7
  6
CONTINUOUS
 10
140.6025263078
 20
117.7515097695
 11
139.6752654167
 21
117.2959013995
  0
LWPOLYLINE
  5
3A3
100
AcDbEntity
  8
268
100
AcDbPolyline
 62
7
  6
CONTINUOUS
 90
31
 70
0
 10
133.6493300411
 20
128.1981576361
 10
133.6489903736
 20
128.2141906681
 10
133.6479739361
 20
128.2305192374
 10
133.6462832028
 20
128.2470984406
 10
133.6439221982
 20
128.2638825402
 10
133.6408973866
 20
128.2808255342
 10
133.6372176541
 20
128.2978812825
 10
133.6328928011
 20
128.3150029012
 10
133.6279343712
 20
128.332143312
 10
133.6223565207
 20
128.3492558168
 10
133.6161742765
 20
128.3662933866
 10
133.6094042862
 20
128.3832091788
 10
133.6020656278
 20
128.3999570864
 10
133.5941781858
 20
128.4164910935
 10
133.5857633019
 20
128.4327657462
 10
133.5768445068
 20
128.4487366645
 10
133.567446053
 20
128.4643599786
 10
133.5575934513
 20
128.4795927425
 10
133.5473141059
 20
128.4943933968
 10
133.5366360405
 20
128.508721298
 10
133.5255883067
 20
128.5225370661
 10
133.5142015075
 20
128.5358029861
 10
133.5025067477
 20
128.5484826422
 10
133.4905359045
 20
128.56054119
 10
133.4783220256
 20
128.5719456888
 10
133.4658985311
 20
128.582664847
 10
133.4532993388
 20
128.5926692144
 10
133.4405591264
 20
128.6019314358
 10
133.4277128303
 20
128.610426127
 10
133.4147955499
 20
128.6181299446
 10
133.4018426677
 20
128.625021756
  0
LINE
  5
3A4
100
AcDbEntity
  8
268
100
AcDbLine
 62
7
  6
CONTINUOUS
 10
133.2604213114
 20
88.165743537
 11
133.2604213114
 21
89.6713516632
  0
LINE
  5
3A5
100
AcDbEntity
  8
268
100
AcDbLine
 62
7
  6
CONTINUOUS
 10
133.2604213114
 20
128.6957324341
 11
133.2604213114
 21
130.4277832417
  0
LINE
  5
3A6
100
AcDbEntity
  8
268
100
AcDbLine
 62
7
  6
CONTINUOUS
 10
133.9634142657
 20
130.5631047395
 11
133.9634142657
 21
130.3021757631
  0
LINE
  5
3A7
100
AcDbEntity
  8
268
100
AcDbLine
 62
7
  6
CONTINUOUS
 10
133.9634142657
 20
89.0025716237
 11
133.9634142657
 21
88.7416426473
  0
LINE
  5
3A8
100
AcDbEntity
  8
268
100
AcDbLine
 62
253
  6
CONTINUOUS
 10
134.2906319633
 20
134.8002146315
 11
134.2906319633
 21
133.5683760531
  0
LINE
  5
3A9
100
AcDbEntity
  8
RACCORDO
100
AcDbLine
 62
7
  6
CONTINUOUS
 10
134.3564368223
 20
124.7600027193
 11
134.3564368223
 21
94.1517221109
  0
LINE
  5
3AA
100
AcDbEntity
  8
268
100
AcDbLine
 62
7
  6
CONTINUOUS
 10
134.3564368223
 20
90.3675714928
 11
134.3564368223
 21
128.5441533375
  0
LINE
  5
3AB
100
AcDbEntity
  8
268
100
AcDbLine
 62
7
  6
CONTINUOUS
 10
134.3772693916
 20
134.9046020068
 11
134.3772693916
 21
133.6722335151
  0
LWPOLYLINE
  5
3AC
100
AcDbEntity
  8
268
100
AcDbPolyline
 62
7
  6
CONTINUOUS
 90
18
 70
0
 10
133.6493300411
 20
90.006460413
 10
133.6489913966
 20
89.9907665369
 10
133.6479747531
 20
89.9754545082
 10
133.6462832028
 20
89.9605664468
 10
133.6439219856
 20
89.946143458
 10
133.6408975741
 20
89.9322250756
 10
133.6372176541
 20
89.9188491534
 10
133.6328925904
 20
89.9060524932
 10
133.6279345407
 20
89.8938703221
 10
133.6223565207
 20
89.8823357527
 10
133.6161740728
 20
89.8714805289
 10
133.6094044334
 20
89.8613345516
 10
133.6020656278
 20
89.851925376
 10
133.5941779943
 20
89.8432789066
 10
133.5857634233
 20
89.8354189813
 10
133.5768445068
 20
89.8283669188
 10
133.5674458783
 20
89.8221421459
 10
133.559361267
 20
89.8176478815
  0
LINE
  5
3AD
100
AcDbEntity
  8
DRAFT
100
AcDbLine
 62
7
  6
CONTINUOUS
 10
144.4372474553
 20
138.5597491447
 11
144.4006578567
 21
138.4560860646
  0
LINE
  5
3AE
100
AcDbEntity
  8
0
100
AcDbLine
 62
253
  6
CONTINUOUS
 10
139.5671490431
 20
121.7507972833
 11
139.913479928
 21
122.3970595127
  0
LINE
  5
3AF
100
AcDbEntity
  8
0
100
AcDbLine
 62
253
  6
CONTINUOUS
 10
139.7603342084
 20
121.5517102981
 11
140.1963226405
 21
122.3652757882
  0
LWPOLYLINE
  5
3B0
100
AcDbEntity
  8
0
100
AcDbPolyline
 62
253
  6
CONTINUOUS
 90
15
 70
0
 10
139.7114278838
 20
118.3145875281
 10
139.7154152155
 20
118.3201723702
 10
139.7193163897
 20
118.326163466
 10
139.7229548001
 20
118.3323233438
 10
139.7263247621
 20
118.3386423796
 10
139.7294210107
 20
118.3451107007
 10
139.7322387083
 20
118.3517182012
 10
139.7347734527
 20
118.3584545579
 10
139.7370212837
 20
118.3653092459
 10
139.7389786894
 20
118.3722715559
 10
139.7406426116
 20
118.3793306104
 10
139.7420104505
 20
118.38647538
 10
139.743080069
 20
118.3936947023
 10
139.7438497964
 20
118.4009772982
 10
139.7443184301
 20
118.4083117901
  0
LWPOLYLINE
  5
3B1
100
AcDbEntity
  8
0
100
AcDbPolyline
 62
7
  6
CONTINUOUS
 90
10
 70
0
 10
139.7114278802
 20
118.3145875309
 10
139.7121194727
 20
118.315517636
 10
139.7164085764
 20
118.321436799
 10
139.7206827886
 20
118.3276025929
 10
139.7249478746
 20
118.3340334306
 10
139.72920239
 20
118.3407378381
 10
139.7334391487
 20
118.3477144485
 10
139.7376584612
 20
118.3549730509
 10
139.7418665765
 20
118.3625344809
 10
140.171497505
 20
119.1642132413
  0
LWPOLYLINE
  5
3B2
100
AcDbEntity
  8
0
100
AcDbPolyline
 62
7
  6
CONTINUOUS
 90
19
 70
0
 10
139.7114174253
 20
118.3145735127
 10
139.7068616954
 20
118.3087000464
 10
139.702098969
 20
118.3030092593
 10
139.6971381516
 20
118.2975094853
 10
139.6919984767
 20
118.2922183725
 10
139.6866800765
 20
118.2871322725
 10
139.681160284
 20
118.2822299677
 10
139.6754355069
 20
118.2775126408
 10
139.6695230505
 20
118.2729985996
 10
139.6634289052
 20
118.268695389
 10
139.6571621553
 20
118.2646122263
 10
139.6507309013
 20
118.2607569315
 10
139.6441399577
 20
118.2571350741
 10
139.6373949865
 20
118.253752803
 10
139.6305098232
 20
118.2506198349
 10
139.6235023337
 20
118.2477460669
 10
139.6163969255
 20
118.2451417054
 10
139.6091925749
 20
118.2428063479
 10
139.6046338538
 20
118.2414822861
  0
LWPOLYLINE
  5
3B3
100
AcDbEntity
  8
0
100
AcDbPolyline
 62
7
  6
CONTINUOUS
 90
31
 70
0
 10
150.4430338158
 20
132.5141252618
 10
150.4483011221
 20
132.5207321182
 10
150.457526353
 20
132.5327477453
 10
150.466474435
 20
132.5449790359
 10
150.4751419015
 20
132.5574137545
 10
150.4835285311
 20
132.5700440885
 10
150.4916350086
 20
132.5828652263
 10
150.4994590851
 20
132.595868627
 10
150.5069978397
 20
132.609045157
 10
150.5142494003
 20
132.6223888942
 10
150.5212103908
 20
132.6358913646
 10
150.5278771846
 20
132.6495444491
 10
150.534246929
 20
132.6633428443
 10
150.540315789
 20
132.6772794674
 10
150.5460785974
 20
132.6913456519
 10
150.5515305069
 20
132.7055339864
 10
150.5566676793
 20
132.7198403598
 10
150.5614830362
 20
132.7342537675
 10
150.5659679713
 20
132.7487570593
 10
150.5701173489
 20
132.7633437324
 10
150.5739248428
 20
132.7780053481
 10
150.5773818823
 20
132.7927229763
 10
150.5804827564
 20
132.8074895995
 10
150.5832212132
 20
132.8222976858
 10
150.585589348
 20
132.8371291216
 10
150.5875808472
 20
132.8519764801
 10
150.589189174
 20
132.8668331515
 10
150.5904067707
 20
132.8816843385
 10
150.5912263769
 20
132.8965210819
 10
150.5916408973
 20
132.911337295
 10
150.5916937912
 20
132.9187966699
  0
LINE
  5
3B4
100
AcDbEntity
  8
0
100
AcDbLine
 62
253
  6
CONTINUOUS
 10
150.4313471717
 20
132.5703684137
 11
150.1484116061
 21
132.2202543814
  0
LINE
  5
3B5
100
AcDbEntity
  8
0
100
AcDbLine
 62
7
  6
CONTINUOUS
 10
150.4430346149
 20
132.5141261902
 11
150.1484116061
 21
132.1495497205
  0
LWPOLYLINE
  5
3B6
100
AcDbEntity
  8
0
100
AcDbPolyline
 62
7
  6
CONTINUOUS
 90
22
 70
0
 10
139.6046381008
 20
118.2414834651
 10
139.5921961761
 20
118.2382536217
 10
139.5798266583
 20
118.2354862508
 10
139.5675408261
 20
118.2331739626
 10
139.555359226
 20
118.2313101635
 10
139.5432827825
 20
118.2298845143
 10
139.5312937491
 20
118.2288863931
 10
139.5194034233
 20
118.2283095839
 10
139.5076224019
 20
118.228147315
 10
139.4959332854
 20
118.2283934168
 10
139.4843413874
 20
118.2290434786
 10
139.4728640353
 20
118.2300920453
 10
139.4615031771
 20
118.2315344434
 10
139.4502776854
 20
118.2333636703
 10
139.4391914449
 20
118.2355742565
 10
139.4282253471
 20
118.2381670306
 10
139.417386832
 20
118.2411389737
 10
139.406692343
 20
118.2444840835
 10
139.3961378622
 20
118.2482025542
 10
139.3857304387
 20
118.2522918553
 10
139.3754873193
 20
118.2567449191
 10
139.3654202053
 20
118.2615557946
  0
LWPOLYLINE
  5
3B7
100
AcDbEntity
  8
0
100
AcDbPolyline
 62
7
  6
CONTINUOUS
 90
6
 70
0
 10
139.3775026642
 20
134.934957677
 10
139.3774889283
 20
134.9348463022
 10
139.3774753704
 20
134.9346062624
 10
139.3774580199
 20
134.9342415059
 10
139.3774386981
 20
134.9337531337
 10
139.377396742
 20
134.9324121892
  0
LINE
  5
3B8
100
AcDbEntity
  8
DRAFT
100
AcDbLine
 62
7
  6
CONTINUOUS
 10
145.9484490327
 20
137.804148356
 11
145.9143279531
 21
137.6992510164
  0
LINE
  5
3B9
100
AcDbEntity
  8
DRAFT
100
AcDbLine
 62
7
  6
CONTINUOUS
 10
144.7200901677
 20
138.701170501
 11
144.6835005692
 21
138.5975074208
  0
LINE
  5
3BA
100
AcDbEntity
  8
DRAFT
100
AcDbLine
 62
7
  6
CONTINUOUS
 10
145.0029328802
 20
138.8425918572
 11
144.9663432817
 21
138.738928777
  0
LINE
  5
3BB
100
AcDbEntity
  8
DRAFT
100
AcDbLine
 62
7
  6
CONTINUOUS
 10
145.2857755927
 20
138.9840132135
 11
145.2491859941
 21
138.8803501333
  0
LINE
  5
3BC
100
AcDbEntity
  8
DRAFT
100
AcDbLine
 62
7
  6
CONTINUOUS
 10
145.5686183052
 20
139.1254345697
 11
145.5320287066
 21
139.0217714895
  0
LINE
  5
3BD
100
AcDbEntity
  8
DRAFT
100
AcDbLine
 62
7
  6
CONTINUOUS
 10
145.8514610176
 20
139.2668559259
 11
145.8148714191
 21
139.1631928458
  0
LWPOLYLINE
  5
3BE
100
AcDbEntity
  8
0
100
AcDbPolyline
 62
253
  6
CONTINUOUS
 90
7
 70
0
 10
139.7443184301
 20
121.5176433337
 10
139.7469207473
 20
121.5237631942
 10
139.7495498562
 20
121.5297062415
 10
139.7522057567
 20
121.5354724755
 10
139.7548884489
 20
121.5410618963
 10
139.7575979328
 20
121.5464745038
 10
139.7603342084
 20
121.5517102981
  0
LWPOLYLINE
  5
3BF
100
AcDbEntity
  8
0
100
AcDbPolyline
 62
253
  6
CONTINUOUS
 90
12
 70
0
 10
139.7434315264
 20
118.3654312508
 10
139.7448754244
 20
118.3681993215
 10
139.7477803109
 20
118.3742813807
 10
139.7503922128
 20
118.3805023149
 10
139.7527068936
 20
118.3868520337
 10
139.7547205988
 20
118.3933202376
 10
139.7564300624
 20
118.3998964354
 10
139.7578325114
 20
118.4065699603
 10
139.7589256711
 20
118.413329988
 10
139.7597077684
 20
118.4201655535
 10
139.7601775349
 20
118.4270655696
 10
139.7603342084
 20
118.4340188445
  0
LINE
  5
3C0
100
AcDbEntity
  8
0
100
AcDbLine
 62
253
  6
CONTINUOUS
 10
140.1963226405
 20
119.2475843345
 11
139.7603342084
 21
118.4340188445
  0
LWPOLYLINE
  5
3C1
100
AcDbEntity
  8
0
100
AcDbPolyline
 62
253
  6
CONTINUOUS
 90
7
 70
0
 10
139.7603342084
 20
118.4340188445
 10
139.7575977263
 20
118.4290426573
 10
139.7548881185
 20
118.4243431336
 10
139.7522053849
 20
118.4199202733
 10
139.7495495257
 20
118.4157740766
 10
139.7469205408
 20
118.4119045433
 10
139.7443184301
 20
118.4083116735
  0
LWPOLYLINE
  5
3C2
100
AcDbEntity
  8
0
100
AcDbPolyline
 62
253
  6
CONTINUOUS
 90
16
 70
0
 10
139.7443184301
 20
118.4083117901
 10
139.742479733
 20
118.4050967484
 10
139.7404080642
 20
118.4018863799
 10
139.7381001129
 20
118.3986852528
 10
139.7355502229
 20
118.395494904
 10
139.7327580059
 20
118.392323498
 10
139.7297305552
 20
118.3891853402
 10
139.7264681782
 20
118.3860853061
 10
139.7229711421
 20
118.3830279249
 10
139.7192507862
 20
118.3800261327
 10
139.7153107758
 20
118.377084709
 10
139.7111537555
 20
118.3742073574
 10
139.7067931578
 20
118.3714043688
 10
139.7022376319
 20
118.3686813479
 10
139.6974895391
 20
118.3660397494
 10
139.6925546211
 20
118.3634830165
  0
LWPOLYLINE
  5
3C3
100
AcDbEntity
  8
0
100
AcDbPolyline
 62
253
  6
CONTINUOUS
 90
18
 70
0
 10
150.4430346149
 20
132.5141261902
 10
150.4443293262
 20
132.5159677319
 10
150.4454183597
 20
132.5180645251
 10
150.4462540534
 20
132.5203566412
 10
150.4468350668
 20
132.5228404034
 10
150.4471604678
 20
132.5255118278
 10
150.4472297346
 20
132.5283666294
 10
150.4470427561
 20
132.5314002288
 10
150.4465998321
 20
132.5346077602
 10
150.4459016731
 20
132.5379840785
 10
150.444949399
 20
132.541523768
 10
150.4437445374
 20
132.5452211509
 10
150.4422890207
 20
132.5490702965
 10
150.4405851838
 20
132.5530650306
 10
150.4386357595
 20
132.5571989455
 10
150.436443875
 20
132.5614654103
 10
150.434013046
 20
132.5658575815
 10
150.4313471717
 20
132.5703684137
  0
LWPOLYLINE
  5
3C4
100
AcDbEntity
  8
RACCORDO
100
AcDbPolyline
 62
253
  6
CONTINUOUS
 90
7
 70
0
 10
117.2675005767
 20
96.5934571545
 10
117.2112583689
 20
96.5558941644
 10
117.1512921003
 20
96.5260222832
 10
117.0876612233
 20
96.5036989121
 10
117.0215609687
 20
96.4893493817
 10
116.952901971
 20
96.4831328158
 10
116.8817684664
 20
96.4848878901
  0
LWPOLYLINE
  5
3C5
100
AcDbEntity
  8
268
100
AcDbPolyline
 62
7
  6
CONTINUOUS
 90
4
 70
0
 10
139.1328753953
 20
95.3209894503
 10
139.1326408897
 20
95.3227576643
 10
139.1315001136
 20
95.32568989
 10
139.1294557821
 20
95.329069258
  0
LWPOLYLINE
  5
3C6
100
AcDbEntity
  8
0
100
AcDbPolyline
 62
253
  6
CONTINUOUS
 90
43
 70
0
 10
139.7443184301
 20
105.9291883862
 10
139.7438600229
 20
105.9353941324
 10
139.7430884346
 20
105.9416108467
 10
139.742010454
 20
105.9478385126
 10
139.7406395929
 20
105.9540860617
 10
139.7389795062
 20
105.9603457772
 10
139.7370212902
 20
105.9665902096
 10
139.7347711391
 20
105.9728143268
 10
139.7322394804
 20
105.9790187079
 10
139.7294210195
 20
105.9851800789
 10
139.726322966
 20
105.9912928796
 10
139.7229555538
 20
105.9973552847
 10
139.7193164003
 20
106.0033469954
 10
139.7154137898
 20
106.0092623002
 10
139.7112581424
 20
106.0150979516
 10
139.7068493684
 20
106.0208357748
 10
139.702196887
 20
106.0264702712
 10
139.697311566
 20
106.0319974968
 10
139.6921950439
 20
106.0374007587
 10
139.6868579387
 20
106.0426751382
 10
139.6813117423
 20
106.0478165563
 10
139.6755592707
 20
106.0528092647
 10
139.6696124248
 20
106.0576493149
 10
139.6634834378
 20
106.0623329531
 10
139.6571757254
 20
106.066844855
 10
139.6507025979
 20
106.0711824873
 10
139.6440771151
 20
106.0753428244
 10
139.6373026353
 20
106.0793103769
 10
139.6303940825
 20
106.0830845722
 10
139.6233654219
 20
106.0866634941
 10
139.6162191502
 20
106.0900307316
 10
139.6089721437
 20
106.0931883902
 10
139.6016393711
 20
106.0961360542
 10
139.5942214224
 20
106.0988553341
 10
139.5867376784
 20
106.1013520146
 10
139.5792042659
 20
106.1036276184
 10
139.571618446
 20
106.1056602286
 10
139.5640029803
 20
106.1074607618
 10
139.5563754179
 20
106.1090332159
 10
139.5487277169
 20
106.110349829
 10
139.5410733126
 20
106.1114107815
 10
139.533446049
 20
106.1122420319
 10
139.5258707727
 20
106.1128582623
  0
LWPOLYLINE
  5
3C7
100
AcDbEntity
  8
268
100
AcDbPolyline
 62
7
  6
CONTINUOUS
 90
7
 70
0
 10
139.1328289247
 20
132.8381916979
 10
139.1327373166
 20
132.8424994992
 10
139.1325981459
 20
132.8468108298
 10
139.1324114125
 20
132.8511256898
 10
139.1321771164
 20
132.8554440791
 10
139.1318952576
 20
132.8597659978
 10
139.1315658361
 20
132.8640914459
  0
LWPOLYLINE
  5
3C8
100
AcDbEntity
  8
0
100
AcDbPolyline
 62
253
  6
CONTINUOUS
 90
46
 70
0
 10
139.5183163249
 20
102.9435354267
 10
139.5184245166
 20
102.935447368
 10
139.5187338258
 20
102.9275106146
 10
139.5192442526
 20
102.9197251665
 10
139.5199564833
 20
102.9120937827
 10
139.5208698316
 20
102.9046137042
 10
139.521982238
 20
102.897276654
 10
139.5232945176
 20
102.8900723802
 10
139.5248058554
 20
102.8830111347
 10
139.5265117472
 20
102.8761153963
 10
139.5284126871
 20
102.8693864061
 10
139.5305081809
 20
102.862822923
 10
139.5327922422
 20
102.8564437024
 10
139.535265414
 20
102.8502492633
 10
139.5379271531
 20
102.8442390866
 10
139.5407698438
 20
102.8384303713
 10
139.5437940031
 20
102.8328236984
 10
139.546999114
 20
102.8274184868
 10
139.5503760102
 20
102.8222301914
 10
139.5539251822
 20
102.8172594342
 10
139.5576461395
 20
102.8125055931
 10
139.5615282441
 20
102.8079822567
 10
139.5655719579
 20
102.8036900833
 10
139.5697768189
 20
102.7996284146
 10
139.5741308037
 20
102.7958088632
 10
139.5786343389
 20
102.7922321223
 10
139.5832869979
 20
102.7888974987
 10
139.5880754771
 20
102.7858145261
 10
139.5930001643
 20
102.7829839248
 10
139.5980606716
 20
102.7804049745
 10
139.6032425328
 20
102.7780850473
 10
139.6085460975
 20
102.7760248835
 10
139.613971016
 20
102.7742237428
 10
139.6195017731
 20
102.7726867759
 10
139.6251386718
 20
102.7714147397
 10
139.630881409
 20
102.7704068773
 10
139.6367135599
 20
102.769666069
 10
139.6426353782
 20
102.7691930794
 10
139.6486466102
 20
102.7689871439
 10
139.6547300699
 20
102.7690488486
 10
139.6608859032
 20
102.769378924
 10
139.6671139642
 20
102.7699766396
 10
139.6733966289
 20
102.7708403891
 10
139.6797280226
 20
102.7719696372
 10
139.68611402
 20
102.7733649191
 10
139.6925546211
 20
102.7750262349
  0
LWPOLYLINE
  5
3C9
100
AcDbEntity
  8
0
100
AcDbPolyline
 62
253
  6
CONTINUOUS
 90
46
 70
0
 10
139.5183163249
 20
118.5319926948
 10
139.5184245166
 20
118.5239046361
 10
139.5187338258
 20
118.5159678827
 10
139.5192442526
 20
118.5081824346
 10
139.5199564833
 20
118.5005510508
 10
139.5208698316
 20
118.4930709723
 10
139.521982238
 20
118.4857339221
 10
139.5232945176
 20
118.4785296483
 10
139.5248058554
 20
118.4714684028
 10
139.5265117472
 20
118.4645726644
 10
139.5284126871
 20
118.4578436743
 10
139.5305081809
 20
118.4512801911
 10
139.5327922422
 20
118.4449009706
 10
139.535265414
 20
118.4387065314
 10
139.5379271531
 20
118.4326963548
 10
139.5407698438
 20
118.4268876394
 10
139.5437940031
 20
118.4212809665
 10
139.546999114
 20
118.4158757549
 10
139.5503760102
 20
118.4106874595
 10
139.5539251822
 20
118.4057167023
 10
139.5576461395
 20
118.4009628612
 10
139.5615282441
 20
118.3964395248
 10
139.5655719579
 20
118.3921473514
 10
139.5697768189
 20
118.3880856827
 10
139.5741308037
 20
118.3842661313
 10
139.5786343389
 20
118.3806893904
 10
139.5832869979
 20
118.3773547668
 10
139.5880754771
 20
118.3742717942
 10
139.5930001643
 20
118.371441193
 10
139.5980606716
 20
118.3688622427
 10
139.6032425328
 20
118.3665423154
 10
139.6085460975
 20
118.3644821516
 10
139.613971016
 20
118.3626810109
 10
139.6195017731
 20
118.361144044
 10
139.6251386718
 20
118.3598720078
 10
139.630881409
 20
118.3588641454
 10
139.6367135599
 20
118.3581233371
 10
139.6426353782
 20
118.3576503475
 10
139.6486466102
 20
118.3574444121
 10
139.6547300699
 20
118.3575061167
 10
139.6608859032
 20
118.3578361922
 10
139.6671139642
 20
118.3584339078
 10
139.6733966289
 20
118.3592976573
 10
139.6797280226
 20
118.3604269053
 10
139.68611402
 20
118.3618221872
 10
139.6925546211
 20
118.363483503
  0
LINE
  5
3CA
100
AcDbEntity
  8
268
100
AcDbLine
 62
7
  6
CONTINUOUS
 10
139.1328289247
 20
132.8381916979
 11
139.1328753953
 21
132.8320543598
  0
LINE
  5
3CB
100
AcDbEntity
  8
0
100
AcDbLine
 62
7
  6
CONTINUOUS
 10
137.8302577543
 20
123.378841508
 11
137.8302577543
 21
99.130130202
  0
LINE
  5
3CC
100
AcDbEntity
  8
0
100
AcDbLine
 62
7
  6
CONTINUOUS
 10
137.9633991561
 20
99.4143978747
 11
137.9633991561
 21
123.1028537898
  0
LINE
  5
3CD
100
AcDbEntity
  8
268
100
AcDbLine
 62
7
  6
CONTINUOUS
 10
138.5210143545
 20
131.8660549642
 11
138.5210143545
 21
131.9370193879
  0
LINE
  5
3CE
100
AcDbEntity
  8
0
100
AcDbLine
 62
7
  6
CONTINUOUS
 10
138.7174861214
 20
132.0387456231
 11
138.7174861214
 21
131.7678190807
  0
LINE
  5
3CF
100
AcDbEntity
  8
268
100
AcDbLine
 62
253
  6
CONTINUOUS
 10
139.0486773571
 20
132.544377854
 11
139.0486773571
 21
132.3321186999
  0
LINE
  5
3D0
100
AcDbEntity
  8
268
100
AcDbLine
 62
253
  6
CONTINUOUS
 10
139.0486773571
 20
95.4106478052
 11
139.0486773571
 21
95.4003824254
  0
LINE
  5
3D1
100
AcDbEntity
  8
268
100
AcDbLine
 62
7
  6
CONTINUOUS
 10
139.132875417
 20
132.8319987323
 11
139.132875417
 21
132.3506928133
  0
LINE
  5
3D2
100
AcDbEntity
  8
268
100
AcDbLine
 62
7
  6
CONTINUOUS
 10
139.132875417
 20
95.3966685918
 11
139.132875417
 21
95.3211590582
  0
LINE
  5
3D3
100
AcDbEntity
  8
0
100
AcDbLine
 62
7
  6
CONTINUOUS
 10
139.3186266124
 20
121.8838071319
 11
139.3186266124
 21
117.553680113
  0
LINE
  5
3D4
100
AcDbEntity
  8
0
100
AcDbLine
 62
7
  6
CONTINUOUS
 10
139.3186266124
 20
106.2953498638
 11
139.3186266124
 21
101.9652228448
  0
LINE
  5
3D5
100
AcDbEntity
  8
0
100
AcDbLine
 62
253
  6
CONTINUOUS
 10
139.5183163249
 20
121.1300689062
 11
139.5183163249
 21
118.5319926948
  0
LINE
  5
3D6
100
AcDbEntity
  8
0
100
AcDbLine
 62
253
  6
CONTINUOUS
 10
139.5183163249
 20
105.5416116381
 11
139.5183163249
 21
102.9435354267
  0
LINE
  5
3D7
100
AcDbEntity
  8
0
100
AcDbLine
 62
253
  6
CONTINUOUS
 10
139.6925546211
 20
121.4728164796
 11
139.6925546211
 21
118.363483503
  0
LINE
  5
3D8
100
AcDbEntity
  8
0
100
AcDbLine
 62
253
  6
CONTINUOUS
 10
139.6925546211
 20
105.8843592115
 11
139.6925546211
 21
102.7750262349
  0
LINE
  5
3D9
100
AcDbEntity
  8
0
100
AcDbLine
 62
253
  6
CONTINUOUS
 10
139.7443184301
 20
121.5176433337
 11
139.7443184301
 21
118.4083116735
  0
LINE
  5
3DA
100
AcDbEntity
  8
0
100
AcDbLine
 62
253
  6
CONTINUOUS
 10
139.7443184301
 20
105.9291860656
 11
139.7443184301
 21
102.8198544054
  0
LWPOLYLINE
  5
3DB
100
AcDbEntity
  8
268
100
AcDbPolyline
 62
7
  6
CONTINUOUS
 90
16
 70
0
 10
139.1328753953
 20
132.8320543598
 10
139.1326408897
 20
132.8185400515
 10
139.1315001136
 20
132.7987748604
 10
139.1294557821
 20
132.7789212098
 10
139.126564617
 20
132.7589854259
 10
139.1228758529
 20
132.7390031895
 10
139.1184158889
 20
132.7190413679
 10
139.1132230306
 20
132.6991206503
 10
139.1073403735
 20
132.6792528989
 10
139.1007798393
 20
132.6594926727
 10
139.0935729361
 20
132.6398556061
 10
139.0857557904
 20
132.6203536415
 10
139.077331851
 20
132.6010380426
 10
139.0683189596
 20
132.5819353161
 10
139.0587571143
 20
132.5630448223
 10
139.0486773571
 20
132.544377854
  0
LINE
  5
3DC
100
AcDbEntity
  8
0
100
AcDbLine
 62
7
  6
CONTINUOUS
 10
139.3763490151
 20
134.8804783861
 11
139.3760503468
 21
134.8637547229
  0
LINE
  5
3DD
100
AcDbEntity
  8
0
100
AcDbLine
 62
7
  6
CONTINUOUS
 10
139.3771932663
 20
134.9241004212
 11
139.3763490151
 21
134.8804783861
  0
LINE
  5
3DE
100
AcDbEntity
  8
0
100
AcDbLine
 62
7
  6
CONTINUOUS
 10
139.377396742
 20
134.9324121892
 11
139.3771932663
 21
134.9241004212
  0
LWPOLYLINE
  5
3DF
100
AcDbEntity
  8
0
100
AcDbPolyline
 62
253
  6
CONTINUOUS
 90
26
 70
0
 10
139.6925546211
 20
118.3634830165
 10
139.6914028285
 20
118.3561621637
 10
139.6900456044
 20
118.3489682317
 10
139.6884732958
 20
118.3419131232
 10
139.6866677691
 20
118.3350073396
 10
139.6846305794
 20
118.3282617646
 10
139.6823841883
 20
118.3216888322
 10
139.679926409
 20
118.3152990594
 10
139.677250847
 20
118.3091017678
 10
139.6743764925
 20
118.3031084248
 10
139.6713029797
 20
118.2973284083
 10
139.6680275646
 20
118.2917701309
 10
139.6645673916
 20
118.2864440479
 10
139.6609234322
 20
118.2813583049
 10
139.6570955621
 20
118.2765202406
 10
139.6531002434
 20
118.2719392587
 10
139.6489393459
 20
118.2676221437
 10
139.6446146096
 20
118.2635749836
 10
139.6401426735
 20
118.2598060961
 10
139.6355258321
 20
118.256320728
 10
139.6307671134
 20
118.2531235664
 10
139.6258840779
 20
118.2502219061
 10
139.6208789104
 20
118.2476192512
 10
139.6157554379
 20
118.2453187298
 10
139.610532878
 20
118.2433267814
 10
139.6054263659
 20
118.241712468
  0
LWPOLYLINE
  5
3E0
100
AcDbEntity
  8
0
100
AcDbPolyline
 62
7
  6
CONTINUOUS
 90
36
 70
0
 10
142.6372973383
 20
132.8085277113
 10
142.6388339019
 20
132.8170013746
 10
142.6402890395
 20
132.8254269373
 10
142.6416588938
 20
132.8338022954
 10
142.6429373529
 20
132.8421287306
 10
142.6441228118
 20
132.8504007893
 10
142.6452181257
 20
132.8586062488
 10
142.6462192154
 20
132.866742818
 10
142.6471223637
 20
132.8748086345
 10
142.6479308277
 20
132.8827920416
 10
142.6486404473
 20
132.8906908048
 10
142.6492474285
 20
132.8985029726
 10
142.6497553276
 20
132.9062171644
 10
142.6501598415
 20
132.9138311736
 10
142.650457068
 20
132.921342933
 10
142.6506507889
 20
132.9287410476
 10
142.6507364917
 20
132.9360233454
 10
142.6507101199
 20
132.9431875742
 10
142.650575631
 20
132.9502219144
 10
142.6503282319
 20
132.9571241676
 10
142.6499636665
 20
132.9638918982
 10
142.6494860413
 20
132.9705125428
 10
142.6488902003
 20
132.9769838802
 10
142.6481716308
 20
132.983303219
 10
142.6473345755
 20
132.9894568053
 10
142.6463734247
 20
132.995442398
 10
142.6452833465
 20
133.0012569764
 10
142.6440687327
 20
133.0068850293
 10
142.6427234278
 20
133.0123242832
 10
142.6412422163
 20
133.0175713351
 10
142.6396296738
 20
133.0226082831
 10
142.6378789967
 20
133.0274328459
 10
142.6359845282
 20
133.0320411549
 10
142.633951117
 20
133.0364121184
 10
142.6317712098
 20
133.0405434891
 10
142.6312582964
 20
133.0414423685
  0
LINE
  5
3E1
100
AcDbEntity
  8
DRAFT
100
AcDbLine
 62
7
  6
CONTINUOUS
 10
146.2312917451
 20
137.9455697123
 11
146.1971706656
 21
137.8406723726
  0
LINE
  5
3E2
100
AcDbEntity
  8
DRAFT
100
AcDbLine
 62
7
  6
CONTINUOUS
 10
146.5141344576
 20
138.0869910685
 11
146.480013378
 21
137.9820937289
  0
LINE
  5
3E3
100
AcDbEntity
  8
DRAFT
100
AcDbLine
 62
7
  6
CONTINUOUS
 10
146.7969771701
 20
138.2284124247
 11
146.7628560905
 21
138.1235150851
  0
LINE
  5
3E4
100
AcDbEntity
  8
DRAFT
100
AcDbLine
 62
7
  6
CONTINUOUS
 10
147.0798198826
 20
138.369833781
 11
147.045698803
 21
138.2649364413
  0
LINE
  5
3E5
100
AcDbEntity
  8
DRAFT
100
AcDbLine
 62
7
  6
CONTINUOUS
 10
147.362662595
 20
138.5112551372
 11
147.3285415155
 21
138.4063577976
  0
LINE
  5
3E6
100
AcDbEntity
  8
DRAFT
100
AcDbLine
 62
7
  6
CONTINUOUS
 10
146.9240255984
 20
136.6255059606
 11
146.9606151969
 21
136.7291690408
  0
LINE
  5
3E7
100
AcDbEntity
  8
DRAFT
100
AcDbLine
 62
7
  6
CONTINUOUS
 10
147.2068683109
 20
136.7669273168
 11
147.2434579094
 21
136.870590397
  0
LINE
  5
3E8
100
AcDbEntity
  8
DRAFT
100
AcDbLine
 62
7
  6
CONTINUOUS
 10
147.5485172925
 20
137.0041142261
 11
147.5119276939
 21
136.900451146
  0
LINE
  5
3E9
100
AcDbEntity
  8
DRAFT
100
AcDbLine
 62
7
  6
CONTINUOUS
 10
147.831360005
 20
137.1455355824
 11
147.7947704064
 21
137.0418725022
  0
LINE
  5
3EA
100
AcDbEntity
  8
DRAFT
100
AcDbLine
 62
7
  6
CONTINUOUS
 10
148.1142027174
 20
137.2869569386
 11
148.0776131189
 21
137.1832938584
  0
LINE
  5
3EB
100
AcDbEntity
  8
DRAFT
100
AcDbLine
 62
7
  6
CONTINUOUS
 10
148.3970454299
 20
137.4283782948
 11
148.3604558314
 21
137.3247152147
  0
LINE
  5
3EC
100
AcDbEntity
  8
DRAFT
100
AcDbLine
 62
7
  6
CONTINUOUS
 10
148.6798881424
 20
137.5697996511
 11
148.6432985438
 21
137.4661365709
  0
LINE
  5
3ED
100
AcDbEntity
  8
DRAFT
100
AcDbLine
 62
7
  6
CONTINUOUS
 10
148.9627308549
 20
137.7112210073
 11
148.9261412563
 21
137.6075579272
  0
LINE
  5
3EE
100
AcDbEntity
  8
268
100
AcDbLine
 62
253
  6
CONTINUOUS
 10
130.33219628
 20
104.2774123878
 11
130.3889678615
 21
104.3053070267
  0
LINE
  5
3EF
100
AcDbEntity
  8
268
100
AcDbLine
 62
7
  6
CONTINUOUS
 10
130.3251100187
 20
104.1912953996
 11
130.3501183646
 21
104.2035832161
  0
LWPOLYLINE
  5
3F0
100
AcDbEntity
  8
RACCORDO
100
AcDbPolyline
 62
7
  6
CONTINUOUS
 90
3
 70
0
 10
117.2303244799
 20
96.6718810103
 10
117.1745202546
 20
96.6448797134
 10
117.1636565125
 20
96.6407206761
  0
LINE
  5
3F1
100
AcDbEntity
  8
ASSI
100
AcDbLine
 62
253
  6
CONTINUOUS
 10
116.2441150016
 20
98.8588441076
 11
116.2595755782
 21
98.865084053
  0
LINE
  5
3F2
100
AcDbEntity
  8
RACCORDO
100
AcDbLine
 62
253
  6
CONTINUOUS
 10
116.2441150016
 20
98.8588441076
 11
116.2647806789
 21
98.8670500475
  0
LINE
  5
3F3
100
AcDbEntity
  8
DRAFT
100
AcDbLine
 62
7
  6
CONTINUOUS
 10
116.2648896101
 20
98.6472602403
 11
116.7214155226
 21
98.820391812
  0
LINE
  5
3F4
100
AcDbEntity
  8
ASSI
100
AcDbLine
 62
253
  6
CONTINUOUS
 10
116.2595755782
 20
98.865084053
 11
116.2647806789
 21
98.8670500475
  0
LINE
  5
3F5
100
AcDbEntity
  8
ASSI
100
AcDbLine
 62
7
  6
CONTINUOUS
 10
116.2594601973
 20
98.865028711
 11
116.2691069146
 21
98.8686205033
  0
LINE
  5
3F6
100
AcDbEntity
  8
RACCORDO
100
AcDbLine
 62
7
  6
CONTINUOUS
 10
116.2647806789
 20
98.8670500475
 11
116.2659081491
 21
98.8674671217
  0
LINE
  5
3F7
100
AcDbEntity
  8
0
100
AcDbLine
 62
253
  6
CONTINUOUS
 10
139.6752654167
 20
117.2959013995
 11
139.3258630519
 21
117.4706025819
  0
LINE
  5
3F8
100
AcDbEntity
  8
RACCORDO
100
AcDbLine
 62
253
  6
CONTINUOUS
 10
126.435503185
 20
124.0776871251
 11
112.3082321436
 21
131.1413226458
  0
LINE
  5
3F9
100
AcDbEntity
  8
ASSI
100
AcDbLine
 62
253
  6
CONTINUOUS
 10
126.435503185
 20
124.0776871251
 11
112.3082321436
 21
131.1413226458
  0
LINE
  5
3FA
100
AcDbEntity
  8
0
100
AcDbLine
 62
7
  6
CONTINUOUS
 10
139.3654202053
 20
118.2615557946
 11
139.3186266124
 21
118.2849525911
  0
LINE
  5
3FB
100
AcDbEntity
  8
0
100
AcDbLine
 62
253
  6
CONTINUOUS
 10
140.6025263078
 20
117.7515097695
 11
139.9877295106
 21
118.0589081681
  0
LINE
  5
3FC
100
AcDbEntity
  8
0
100
AcDbLine
 62
253
  6
CONTINUOUS
 10
140.9591651121
 20
118.3597564598
 11
140.3351116038
 21
118.671783214
  0
LWPOLYLINE
  5
3FD
100
AcDbEntity
  8
0
100
AcDbPolyline
 62
253
  6
CONTINUOUS
 90
43
 70
0
 10
139.7443184301
 20
121.5176456543
 10
139.7438600229
 20
121.5238514005
 10
139.7430884346
 20
121.5300681148
 10
139.742010454
 20
121.5362957807
 10
139.7406395929
 20
121.5425433298
 10
139.7389795062
 20
121.5488030453
 10
139.7370212902
 20
121.5550474777
 10
139.7347711391
 20
121.5612715949
 10
139.7322394804
 20
121.5674759761
 10
139.7294210195
 20
121.573637347
 10
139.726322966
 20
121.5797501477
 10
139.7229555538
 20
121.5858125528
 10
139.7193164003
 20
121.5918042635
 10
139.7154137898
 20
121.5977195683
 10
139.7112581424
 20
121.6035552197
 10
139.7068493684
 20
121.6092930429
 10
139.702196887
 20
121.6149275393
 10
139.697311566
 20
121.6204547649
 10
139.6921950439
 20
121.6258580268
 10
139.6868579387
 20
121.6311324063
 10
139.6813117423
 20
121.6362738244
 10
139.6755592707
 20
121.6412665328
 10
139.6696124248
 20
121.6461065831
 10
139.6634834378
 20
121.6507902213
 10
139.6571757254
 20
121.6553021231
 10
139.6507025979
 20
121.6596397554
 10
139.6440771151
 20
121.6638000925
 10
139.6373026353
 20
121.667767645
 10
139.6303940825
 20
121.6715418403
 10
139.6233654219
 20
121.6751207622
 10
139.6162191502
 20
121.6784879997
 10
139.6089721437
 20
121.6816456583
 10
139.6016393711
 20
121.6845933223
 10
139.5942214224
 20
121.6873126023
 10
139.5867376784
 20
121.6898092827
 10
139.5792042659
 20
121.6920848865
 10
139.571618446
 20
121.6941174967
 10
139.5640029803
 20
121.6959180299
 10
139.5563754179
 20
121.6974904841
 10
139.5487277169
 20
121.6988070971
 10
139.5410733126
 20
121.6998680496
 10
139.533446049
 20
121.7006993
 10
139.5258707727
 20
121.7013155304
  0
LINE
  5
3FE
100
AcDbEntity
  8
0
100
AcDbLine
 62
7
  6
CONTINUOUS
 10
140.0867239178
 20
129.8701875958
 11
140.0867239178
 21
130.0691042425
  0
LINE
  5
3FF
100
AcDbEntity
  8
0
100
AcDbLine
 62
7
  6
CONTINUOUS
 10
140.1963226405
 20
103.6591270664
 11
140.1963226405
 21
106.77681852
  0
LINE
  5
400
100
AcDbEntity
  8
0
100
AcDbLine
 62
7
  6
CONTINUOUS
 10
140.1963226405
 20
119.2475843345
 11
140.1963226405
 21
122.3652757882
  0
LINE
  5
401
100
AcDbEntity
  8
0
100
AcDbLine
 62
7
  6
CONTINUOUS
 10
140.3351116038
 20
103.0833259458
 11
140.3351116038
 21
107.2278110752
  0
LINE
  5
402
100
AcDbEntity
  8
0
100
AcDbLine
 62
7
  6
CONTINUOUS
 10
140.3351116038
 20
118.671783214
 11
140.3351116038
 21
122.8162683433
  0
LINE
  5
403
100
AcDbEntity
  8
0
100
AcDbLine
 62
7
  6
CONTINUOUS
 10
140.5913190915
 20
125.6744482682
 11
140.5913190915
 21
125.6732725217
  0
LINE
  5
404
100
AcDbEntity
  8
0
100
AcDbLine
 62
7
  6
CONTINUOUS
 10
140.7482673373
 20
97.518794779
 11
140.7482673373
 21
99.7749484878
  0
LINE
  5
405
100
AcDbEntity
  8
0
100
AcDbLine
 62
7
  6
CONTINUOUS
 10
140.7482673373
 20
125.7557106013
 11
140.7482673373
 21
128.0118643101
  0
LINE
  5
406
100
AcDbEntity
  8
0
100
AcDbLine
 62
7
  6
CONTINUOUS
 10
140.9591651121
 20
97.3114776361
 11
140.9591651121
 21
128.1497050343
  0
LINE
  5
407
100
AcDbEntity
  8
268
100
AcDbLine
 62
7
  6
CONTINUOUS
 10
139.1328289247
 20
95.3202474955
 11
139.1328753953
 21
95.3209894503
  0
LWPOLYLINE
  5
408
100
AcDbEntity
  8
0
100
AcDbPolyline
 62
253
  6
CONTINUOUS
 90
26
 70
0
 10
139.6925546211
 20
102.7750257483
 10
139.6914028285
 20
102.7677048955
 10
139.6900456044
 20
102.7605109636
 10
139.6884732958
 20
102.7534558551
 10
139.6866677691
 20
102.7465500715
 10
139.6846305794
 20
102.7398044964
 10
139.6823841883
 20
102.7332315641
 10
139.679926409
 20
102.7268417913
 10
139.677250847
 20
102.7206444997
 10
139.6743764925
 20
102.7146511567
 10
139.6713029797
 20
102.7088711402
 10
139.6680275646
 20
102.7033128628
 10
139.6645673916
 20
102.6979867798
 10
139.6609234322
 20
102.6929010367
 10
139.6570955621
 20
102.6880629724
 10
139.6531002434
 20
102.6834819906
 10
139.6489393459
 20
102.6791648756
 10
139.6446146096
 20
102.6751177155
 10
139.6401426735
 20
102.671348828
 10
139.6355258321
 20
102.6678634599
 10
139.6307671134
 20
102.6646662983
 10
139.6258840779
 20
102.661764638
 10
139.6208789104
 20
102.6591619831
 10
139.6157554379
 20
102.6568614617
 10
139.610532878
 20
102.6548695133
 10
139.6054263659
 20
102.6532551999
  0
LINE
  5
409
100
AcDbEntity
  8
DRAFT
100
AcDbLine
 62
7
  6
CONTINUOUS
 10
149.0597188699
 20
136.2485134374
 11
149.0255977903
 21
136.1436160978
  0
LINE
  5
40A
100
AcDbEntity
  8
DRAFT
100
AcDbLine
 62
7
  6
CONTINUOUS
 10
149.3425615824
 20
136.3899347937
 11
149.3084405028
 21
136.285037454
  0
LINE
  5
40B
100
AcDbEntity
  8
DRAFT
100
AcDbLine
 62
7
  6
CONTINUOUS
 10
149.6254042948
 20
136.5313561499
 11
149.5912832153
 21
136.4264588103
  0
LINE
  5
40C
100
AcDbEntity
  8
DRAFT
100
AcDbLine
 62
7
  6
CONTINUOUS
 10
149.9082470073
 20
136.6727775061
 11
149.8741259277
 21
136.5678801665
  0
LINE
  5
40D
100
AcDbEntity
  8
DRAFT
100
AcDbLine
 62
7
  6
CONTINUOUS
 10
150.1910897198
 20
136.8141988624
 11
150.1569686402
 21
136.7093015227
  0
LINE
  5
40E
100
AcDbEntity
  8
DRAFT
100
AcDbLine
 62
7
  6
CONTINUOUS
 10
150.3260353597
 20
135.2336662235
 11
150.3547277466
 21
135.3149554784
  0
LWPOLYLINE
  5
40F
100
AcDbEntity
  8
0
100
AcDbPolyline
 62
253
  6
CONTINUOUS
 90
7
 70
0
 10
139.7443184301
 20
105.9291860656
 10
139.7469207473
 20
105.9353059261
 10
139.7495498562
 20
105.9412489734
 10
139.7522057567
 20
105.9470152074
 10
139.7548884489
 20
105.9526046282
 10
139.7575979328
 20
105.9580172357
 10
139.7603342084
 20
105.96325303
  0
LINE
  5
410
100
AcDbEntity
  8
0
100
AcDbLine
 62
253
  6
CONTINUOUS
 10
139.5671490431
 20
106.1623400152
 11
139.913479928
 21
106.8086022446
  0
LINE
  5
411
100
AcDbEntity
  8
0
100
AcDbLine
 62
253
  6
CONTINUOUS
 10
139.7603342084
 20
105.96325303
 11
140.1963226405
 21
106.77681852
  0
LWPOLYLINE
  5
412
100
AcDbEntity
  8
0
100
AcDbPolyline
 62
253
  6
CONTINUOUS
 90
7
 70
0
 10
139.5258748029
 20
106.1128611735
 10
139.5325638513
 20
106.1218468734
 10
139.5393401799
 20
106.1305557157
 10
139.5461956591
 20
106.1389735785
 10
139.5531217159
 20
106.1470863262
 10
139.5601093321
 20
106.1548798343
 10
139.5671490431
 20
106.1623400152
  0
LWPOLYLINE
  5
413
100
AcDbEntity
  8
0
100
AcDbPolyline
 62
253
  6
CONTINUOUS
 90
24
 70
0
 10
139.5258748029
 20
106.1128611735
 10
139.5151740358
 20
106.1049221298
 10
139.504543985
 20
106.0966155265
 10
139.4939947583
 20
106.0879493126
 10
139.483536526
 20
106.0789319029
 10
139.4731790841
 20
106.0695718042
 10
139.4629318595
 20
106.0598775611
 10
139.452804464
 20
106.0498582568
 10
139.4428066755
 20
106.0395235547
 10
139.4329480118
 20
106.0288832927
 10
139.4232378521
 20
106.0179475932
 10
139.413685437
 20
106.0067268625
 10
139.4042998632
 20
105.9952317863
 10
139.395090065
 20
105.9834733081
 10
139.3860648008
 20
105.971462611
 10
139.3772326525
 20
105.9592111165
 10
139.3686020223
 20
105.9467304793
 10
139.3601811238
 20
105.9340325768
 10
139.3519779697
 20
105.9211294912
 10
139.3440003651
 20
105.9080334997
 10
139.3362559005
 20
105.894757063
 10
139.3287519449
 20
105.8813128134
 10
139.3214956387
 20
105.8677135441
 10
139.3186266124
 20
105.8620829119
  0
LWPOLYLINE
  5
414
100
AcDbEntity
  8
0
100
AcDbPolyline
 62
253
  6
CONTINUOUS
 90
46
 70
0
 10
139.6925546211
 20
105.8843592115
 10
139.6861250023
 20
105.8795882951
 10
139.6797495934
 20
105.8746064654
 10
139.6734283944
 20
105.8694137225
 10
139.6671554951
 20
105.8640047117
 10
139.6609368056
 20
105.8583847877
 10
139.6547900566
 20
105.8525700148
 10
139.6487154546
 20
105.8465598524
 10
139.6427127931
 20
105.8403548412
 10
139.6367991839
 20
105.8339726676
 10
139.6309748806
 20
105.8274128249
 10
139.6252396295
 20
105.8206758198
 10
139.6196097818
 20
105.8137808588
 10
139.6140856408
 20
105.8067274943
 10
139.6086669032
 20
105.7995161739
 10
139.6033690103
 20
105.7921674464
 10
139.5981923056
 20
105.7846809186
 10
139.5931364455
 20
105.7770569838
 10
139.5882158405
 20
105.7693173709
 10
139.5834308766
 20
105.7614617498
 10
139.5787811678
 20
105.7534904506
 10
139.5742799673
 20
105.7454261922
 10
139.5699276987
 20
105.7372687102
 10
139.5657239384
 20
105.729018269
 10
139.5616806675
 20
105.7206983814
 10
139.5577983445
 20
105.7123088517
 10
139.554076511
 20
105.7038498756
 10
139.5505257727
 20
105.695345553
 10
139.54714661
 20
105.6867957295
 10
139.5439385427
 20
105.6782005595
 10
139.5409107351
 20
105.6695846056
 10
139.5380637233
 20
105.6609478849
 10
139.5353969714
 20
105.6522903803
 10
139.5329180359
 20
105.6436366034
 10
139.5306272984
 20
105.6349855952
 10
139.5285243775
 20
105.6263383146
 10
139.5266156851
 20
105.6177221504
 10
139.5249029171
 20
105.6091490509
 10
139.5233843777
 20
105.6006070679
 10
139.5220613913
 20
105.5920877448
 10
139.5209313037
 20
105.5835815637
 10
139.5199967693
 20
105.5750980427
 10
139.5192670754
 20
105.5666572798
 10
139.518745318
 20
105.5582659744
 10
139.5184284012
 20
105.5499174271
 10
139.5183163249
 20
105.5416116381
  0
LWPOLYLINE
  5
415
100
AcDbEntity
  8
0
100
AcDbPolyline
 62
253
  6
CONTINUOUS
 90
16
 70
0
 10
139.6925546211
 20
105.8843596126
 10
139.6973186311
 20
105.8868247072
 10
139.7019294851
 20
105.8893806797
 10
139.7063795475
 20
105.8920254818
 10
139.7106644274
 20
105.8947589979
 10
139.7147731764
 20
105.8975768577
 10
139.7186897845
 20
105.9004698952
 10
139.7224070303
 20
105.9034338277
 10
139.7259207528
 20
105.9064664481
 10
139.729221884
 20
105.9095608309
 10
139.732305325
 20
105.9127126331
 10
139.7351675413
 20
105.91591871
 10
139.7378032612
 20
105.9191735205
 10
139.740208743
 20
105.922472501
 10
139.7423813929
 20
105.9258121571
 10
139.7443184301
 20
105.9291883862
  0
LINE
  5
416
100
AcDbEntity
  8
0
100
AcDbLine
 62
7
  6
CONTINUOUS
 10
139.913479928
 20
106.8086022446
 11
139.3662848834
 21
106.5350047222
  0
LINE
  5
417
100
AcDbEntity
  8
0
100
AcDbLine
 62
7
  6
CONTINUOUS
 10
140.6025263078
 20
107.3592049241
 11
139.6752654167
 21
106.9035965541
  0
LWPOLYLINE
  5
418
100
AcDbEntity
  8
0
100
AcDbPolyline
 62
253
  6
CONTINUOUS
 90
28
 70
0
 10
139.5183163249
 20
105.5416116381
 10
139.5125071681
 20
105.5388217526
 10
139.5064780478
 20
105.5361510854
 10
139.5002387432
 20
105.5336039681
 10
139.4937993746
 20
105.5311845323
 10
139.4871703867
 20
105.5288967023
 10
139.4803625315
 20
105.526744189
 10
139.4733868517
 20
105.5247304836
 10
139.4662546616
 20
105.5228588526
 10
139.4589775298
 20
105.5211323316
 10
139.4515672598
 20
105.5195537211
 10
139.444035871
 20
105.5181255816
 10
139.4363955795
 20
105.5168502295
 10
139.4286587777
 20
105.5157297336
 10
139.4208380149
 20
105.5147659111
 10
139.4129459763
 20
105.5139603255
 10
139.4049954628
 20
105.5133142834
 10
139.3969993702
 20
105.5128288327
 10
139.3889706682
 20
105.5125047608
 10
139.3809223794
 20
105.5123425933
 10
139.3728675581
 20
105.5123425933
 10
139.3648192692
 20
105.5125047608
 10
139.3567905672
 20
105.5128288327
 10
139.3487944746
 20
105.5133142834
 10
139.3408439611
 20
105.5139603255
 10
139.3329519225
 20
105.5147659111
 10
139.3251311597
 20
105.5157297336
 10
139.3186266124
 20
105.5166717661
  0
LINE
  5
419
100
AcDbEntity
  8
ASSI
100
AcDbLine
 62
7
  6
CONTINUOUS
 10
117.2268113489
 20
96.6698575972
 11
117.1471212176
 21
96.6349697337
  0
LWPOLYLINE
  5
41A
100
AcDbEntity
  8
RACCORDO
100
AcDbPolyline
 62
253
  6
CONTINUOUS
 90
45
 70
0
 10
116.9568025709
 20
96.7837348488
 10
116.9742592711
 20
96.7905083366
 10
117.0090128389
 20
96.8066833082
 10
117.042350117
 20
96.8258935087
 10
117.0741988573
 20
96.8480759881
 10
117.1045080172
 20
96.8731889867
 10
117.1331928357
 20
96.9011707215
 10
117.1601337653
 20
96.9319135143
 10
117.1852298669
 20
96.9653044522
 10
117.2083959192
 20
97.0012297813
 10
117.2295544706
 20
97.0395689963
 10
117.2486294376
 20
97.0801816509
 10
117.2655482304
 20
97.1229013545
 10
117.2802683361
 20
97.1676074338
 10
117.2927605049
 20
97.2142250801
 10
117.3029822064
 20
97.2626521428
 10
117.3108760967
 20
97.3126863496
 10
117.3164001968
 20
97.3640958941
 10
117.3195346482
 20
97.4166859589
 10
117.3202710136
 20
97.4702973519
 10
117.318606898
 20
97.5247394184
 10
117.3145493526
 20
97.5798205467
 10
117.3081128856
 20
97.6353598091
 10
117.299318223
 20
97.6911792209
 10
117.2881930201
 20
97.7470967433
 10
117.2747755171
 20
97.8029150272
 10
117.259114234
 20
97.858432883
 10
117.2412659113
 20
97.913454079
 10
117.2212898796
 20
97.9678000208
 10
117.1992496464
 20
98.0212982562
 10
117.1752154318
 20
98.0737752816
 10
117.1492716939
 20
98.1250438844
 10
117.1215135425
 20
98.1749166754
 10
117.0920421154
 20
98.2232156743
 10
117.0609529496
 20
98.2697878242
 10
117.0283412722
 20
98.3144905147
 10
116.9942941123
 20
98.3571986085
 10
116.9589475804
 20
98.3977357727
 10
116.9224823895
 20
98.4359020377
 10
116.8850664814
 20
98.471542904
 10
116.8467932021
 20
98.5045900948
 10
116.8077373571
 20
98.5349866409
 10
116.7680108121
 20
98.562643408
 10
116.7277661927
 20
98.5874521064
 10
116.6871389666
 20
98.6093295335
  0
LINE
  5
41B
100
AcDbEntity
  8
RACCORDO
100
AcDbLine
 62
7
  6
CONTINUOUS
 10
117.1648968202
 20
96.6411648463
 11
117.1635535523
 21
96.6406683312
  0
LINE
  5
41C
100
AcDbEntity
  8
RACCORDO
100
AcDbLine
 62
253
  6
CONTINUOUS
 10
116.9567724399
 20
96.7837238994
 11
116.9568025709
 21
96.7837348488
  0
LINE
  5
41D
100
AcDbEntity
  8
DRAFT
100
AcDbLine
 62
7
  6
CONTINUOUS
 10
116.9567724383
 20
96.7837238988
 11
117.4649815706
 21
96.9683828565
  0
LINE
  5
41E
100
AcDbEntity
  8
ASSI
100
AcDbLine
 62
253
  6
CONTINUOUS
 10
117.1648968202
 20
96.6411648463
 11
117.1470678744
 21
96.6349326761
  0
LWPOLYLINE
  5
41F
100
AcDbEntity
  8
RACCORDO
100
AcDbPolyline
 62
7
  6
CONTINUOUS
 90
13
 70
0
 10
116.9567724413
 20
96.7837238999
 10
116.9224745342
 20
96.7726677222
 10
116.8872090129
 20
96.7640929883
 10
116.8510786262
 20
96.7580603642
 10
116.8142110427
 20
96.7546221357
 10
116.7766942703
 20
96.7538153061
 10
116.7385683506
 20
96.7556772413
 10
116.6998937273
 20
96.7602520612
 10
116.6608196903
 20
96.767568581
 10
116.6215103055
 20
96.7776317531
 10
116.5820867777
 20
96.7904387182
 10
116.5426321837
 20
96.8059917712
 10
116.5032493513
 20
96.8242830206
  0
LINE
  5
420
100
AcDbEntity
  8
RACCORDO
100
AcDbLine
 62
7
  6
CONTINUOUS
 10
116.2658082544
 20
98.867415935
 11
116.3071162475
 21
98.8803708705
  0
LWPOLYLINE
  5
421
100
AcDbEntity
  8
RACCORDO
100
AcDbPolyline
 62
253
  6
CONTINUOUS
 90
16
 70
0
 10
127.54862772
 20
123.9513732775
 10
127.4870260879
 20
123.9368677001
 10
127.4201294006
 20
123.9255867629
 10
127.348654446
 20
123.9176513393
 10
127.2733670676
 20
123.9131464564
 10
127.1950739584
 20
123.9121203832
 10
127.1146140172
 20
123.9145841139
 10
127.0328493603
 20
123.9205112501
 10
126.9506560836
 20
123.9298382833
 10
126.8689148759
 20
123.9424652759
 10
126.7885015818
 20
123.9582569314
 10
126.7102778178
 20
123.9770440446
 10
126.6350817397
 20
123.9986253147
 10
126.5637190623
 20
124.0227695015
 10
126.496954426
 20
124.0492179036
 10
126.4355032037
 20
124.0776871305
  0
LWPOLYLINE
  5
422
100
AcDbEntity
  8
ASSI
100
AcDbPolyline
 62
253
  6
CONTINUOUS
 90
16
 70
0
 10
127.54862772
 20
123.9513732775
 10
127.4870260879
 20
123.9368677001
 10
127.4201294006
 20
123.9255867629
 10
127.348654446
 20
123.9176513393
 10
127.2733670676
 20
123.9131464564
 10
127.1950739584
 20
123.9121203832
 10
127.1146140172
 20
123.9145841139
 10
127.0328493603
 20
123.9205112501
 10
126.9506560836
 20
123.9298382833
 10
126.8689148759
 20
123.9424652759
 10
126.7885015818
 20
123.9582569314
 10
126.7102778178
 20
123.9770440446
 10
126.6350817397
 20
123.9986253147
 10
126.5637190623
 20
124.0227695015
 10
126.496954426
 20
124.0492179036
 10
126.4355032037
 20
124.0776871305
  0
LWPOLYLINE
  5
423
100
AcDbEntity
  8
0
100
AcDbPolyline
 62
253
  6
CONTINUOUS
 90
40
 70
0
 10
139.5671490431
 20
121.7507972833
 10
139.5749278254
 20
121.7496146545
 10
139.5826939905
 20
121.7481530046
 10
139.5904349416
 20
121.7464147044
 10
139.5981381229
 20
121.7444025736
 10
139.6057910398
 20
121.7421198757
 10
139.6133812793
 20
121.7395703133
 10
139.6208965299
 20
121.7367580218
 10
139.6283246018
 20
121.7336875628
 10
139.6356534468
 20
121.7303639166
 10
139.6428711774
 20
121.7267924741
 10
139.6499660864
 20
121.7229790281
 10
139.6569266659
 20
121.7189297643
 10
139.6637416257
 20
121.7146512503
 10
139.6703999121
 20
121.7101504261
 10
139.6768907251
 20
121.705434592
 10
139.6832035367
 20
121.7005113971
 10
139.6893281075
 20
121.6953888267
 10
139.6952545034
 20
121.6900751899
 10
139.7009731118
 20
121.6845791052
 10
139.7064746571
 20
121.6789094873
 10
139.7117502157
 20
121.6730755325
 10
139.7167912307
 20
121.6670867033
 10
139.7215895255
 20
121.6609527137
 10
139.7261373173
 20
121.6546835131
 10
139.7304272295
 20
121.6482892701
 10
139.7344523039
 20
121.6417803562
 10
139.7382060118
 20
121.6351673288
 10
139.7416822646
 20
121.6284609144
 10
139.744875424
 20
121.6216719908
 10
139.7477803105
 20
121.6148115696
 10
139.7503922124
 20
121.6078907784
 10
139.7527068932
 20
121.6009208428
 10
139.7547205986
 20
121.5939130681
 10
139.7564300621
 20
121.5868788209
 10
139.7578325112
 20
121.5798295108
 10
139.758925671
 20
121.5727765717
 10
139.7597077684
 20
121.5657314437
 10
139.7601775348
 20
121.5587055538
 10
139.7603342084
 20
121.5517102981
  0
LINE
  5
424
100
AcDbEntity
  8
RACCORDO
100
AcDbLine
 62
253
  6
CONTINUOUS
 10
127.5814348674
 20
125.714014436
 11
113.4372247949
 21
132.7861194723
  0
LINE
  5
425
100
AcDbEntity
  8
ASSI
100
AcDbLine
 62
253
  6
CONTINUOUS
 10
127.5814348674
 20
125.714014436
 11
113.4372247949
 21
132.7861194723
  0
LWPOLYLINE
  5
426
100
AcDbEntity
  8
0
100
AcDbPolyline
 62
253
  6
CONTINUOUS
 90
8
 70
0
 10
139.3186266124
 20
118.2946721665
 10
139.3212442236
 20
118.2921438946
 10
139.328503406
 20
118.2857770277
 10
139.3360112634
 20
118.2798139162
 10
139.3437606296
 20
118.2742602519
 10
139.3517441077
 20
118.269121336
 10
139.3599540758
 20
118.2644020744
 10
139.3654202025
 20
118.261555796
  0
LWPOLYLINE
  5
427
100
AcDbEntity
  8
0
100
AcDbPolyline
 62
253
  6
CONTINUOUS
 90
40
 70
0
 10
144.1517721499
 20
138.9744920005
 10
144.1517531166
 20
138.9815707009
 10
144.1515008504
 20
138.9887505543
 10
144.1510157602
 20
138.9960199193
 10
144.1502986324
 20
139.0033670096
 10
144.1493506299
 20
139.0107799129
 10
144.1481732898
 20
139.0182466101
 10
144.1467685208
 20
139.0257549948
 10
144.1451386007
 20
139.0332928931
 10
144.1432861722
 20
139.0408480833
 10
144.1412142388
 20
139.0484083155
 10
144.1389261598
 20
139.0559613319
 10
144.1364256451
 20
139.0634948861
 10
144.133716749
 20
139.0709967635
 10
144.1308038635
 20
139.0784548006
 10
144.1276917117
 20
139.0858569051
 10
144.1243853393
 20
139.0931910757
 10
144.1208901074
 20
139.1004454206
 10
144.1172116829
 20
139.1076081781
 10
144.1133560301
 20
139.1146677344
 10
144.1093294002
 20
139.1216126436
 10
144.1051383222
 20
139.1284316451
 10
144.1007895911
 20
139.135113683
 10
144.096290258
 20
139.1416479231
 10
144.0916476179
 20
139.148023771
 10
144.0868691984
 20
139.154230889
 10
144.081962747
 20
139.160259213
 10
144.0769362189
 20
139.1660989689
 10
144.071797764
 20
139.1717406883
 10
144.0665557137
 20
139.1771752238
 10
144.0612185673
 20
139.182393764
 10
144.0557949783
 20
139.1873878476
 10
144.0502937404
 20
139.1921493775
 10
144.0447237731
 20
139.1966706333
 10
144.0390941075
 20
139.2009442845
 10
144.0334138714
 20
139.2049634018
 10
144.0276922745
 20
139.2087214687
 10
144.0219385937
 20
139.212212392
 10
144.0161621579
 20
139.2154305117
 10
144.0103723328
 20
139.2183706099
  0
LINE
  5
428
100
AcDbEntity
  8
0
100
AcDbLine
 62
7
  6
CONTINUOUS
 10
143.7251634872
 20
138.6537192968
 11
143.7251634872
 21
138.1183388798
  0
LINE
  5
429
100
AcDbEntity
  8
0
100
AcDbLine
 62
253
  6
CONTINUOUS
 10
144.3565638137
 20
138.4340390431
 11
144.3565638137
 21
138.8207579373
  0
LWPOLYLINE
  5
42A
100
AcDbEntity
  8
268
100
AcDbPolyline
 62
7
  6
CONTINUOUS
 90
7
 70
0
 10
139.1328289247
 20
95.3202474955
 10
139.1327373166
 20
95.319761888
 10
139.1325981459
 20
95.3192497403
 10
139.1324114125
 20
95.3187110522
 10
139.1321771164
 20
95.3181458239
 10
139.1318952576
 20
95.3175540553
 10
139.1315658361
 20
95.3169357464
  0
LINE
  5
42B
100
AcDbEntity
  8
DRAFT
100
AcDbLine
 62
7
  6
CONTINUOUS
 10
150.4739324323
 20
136.9556202186
 11
150.4398113527
 21
136.850722879
  0
LWPOLYLINE
  5
42C
100
AcDbEntity
  8
0
100
AcDbPolyline
 62
253
  6
CONTINUOUS
 90
12
 70
0
 10
139.7434315264
 20
102.7769739827
 10
139.7448754244
 20
102.7797420533
 10
139.7477803109
 20
102.7858241126
 10
139.7503922128
 20
102.7920450468
 10
139.7527068936
 20
102.7983947655
 10
139.7547205988
 20
102.8048629695
 10
139.7564300624
 20
102.8114391673
 10
139.7578325114
 20
102.8181126922
 10
139.7589256711
 20
102.8248727199
 10
139.7597077684
 20
102.8317082854
 10
139.7601775349
 20
102.8386083015
 10
139.7603342084
 20
102.8455615763
  0
LINE
  5
42D
100
AcDbEntity
  8
0
100
AcDbLine
 62
253
  6
CONTINUOUS
 10
140.1963226405
 20
103.6591270664
 11
139.7603342084
 21
102.8455615763
  0
LWPOLYLINE
  5
42E
100
AcDbEntity
  8
0
100
AcDbPolyline
 62
253
  6
CONTINUOUS
 90
7
 70
0
 10
139.7603342084
 20
102.8455615763
 10
139.7575977263
 20
102.8405853891
 10
139.7548881185
 20
102.8358858654
 10
139.7522053849
 20
102.8314630052
 10
139.7495495257
 20
102.8273168085
 10
139.7469205408
 20
102.8234472752
 10
139.7443184301
 20
102.8198544054
  0
LWPOLYLINE
  5
42F
100
AcDbEntity
  8
0
100
AcDbPolyline
 62
253
  6
CONTINUOUS
 90
16
 70
0
 10
139.7443184301
 20
102.819854522
 10
139.742479733
 20
102.8166394802
 10
139.7404080642
 20
102.8134291118
 10
139.7381001129
 20
102.8102279847
 10
139.7355502229
 20
102.8070376358
 10
139.7327580059
 20
102.8038662299
 10
139.7297305552
 20
102.800728072
 10
139.7264681782
 20
102.797628038
 10
139.7229711421
 20
102.7945706568
 10
139.7192507862
 20
102.7915688646
 10
139.7153107758
 20
102.7886274409
 10
139.7111537555
 20
102.7857500893
 10
139.7067931578
 20
102.7829471007
 10
139.7022376319
 20
102.7802240798
 10
139.6974895391
 20
102.7775824812
 10
139.6925546211
 20
102.7750257483
  0
LWPOLYLINE
  5
430
100
AcDbEntity
  8
0
100
AcDbPolyline
 62
253
  6
CONTINUOUS
 90
15
 70
0
 10
139.7114278838
 20
102.72613026
 10
139.7154152155
 20
102.7317151021
 10
139.7193163897
 20
102.7377061979
 10
139.7229548001
 20
102.7438660757
 10
139.7263247621
 20
102.7501851115
 10
139.7294210107
 20
102.7566534325
 10
139.7322387083
 20
102.763260933
 10
139.7347734527
 20
102.7699972897
 10
139.7370212837
 20
102.7768519778
 10
139.7389786894
 20
102.7838142878
 10
139.7406426116
 20
102.7908733423
 10
139.7420104505
 20
102.7980181119
 10
139.743080069
 20
102.8052374342
 10
139.7438497964
 20
102.8125200301
 10
139.7443184301
 20
102.819854522
  0
LWPOLYLINE
  5
431
100
AcDbEntity
  8
0
100
AcDbPolyline
 62
7
  6
CONTINUOUS
 90
10
 70
0
 10
139.7114278802
 20
102.7261302627
 10
139.7121194727
 20
102.7270603678
 10
139.7164085764
 20
102.7329795309
 10
139.7206827886
 20
102.7391453247
 10
139.7249478746
 20
102.7455761624
 10
139.72920239
 20
102.75228057
 10
139.7334391487
 20
102.7592571803
 10
139.7376584612
 20
102.7665157828
 10
139.7418665765
 20
102.7740772128
 10
140.171497505
 20
103.5757559731
  0
LWPOLYLINE
  5
432
100
AcDbEntity
  8
0
100
AcDbPolyline
 62
7
  6
CONTINUOUS
 90
19
 70
0
 10
139.7114174253
 20
102.7261162445
 10
139.7068616954
 20
102.7202427783
 10
139.702098969
 20
102.7145519912
 10
139.6971381516
 20
102.7090522172
 10
139.6919984767
 20
102.7037611044
 10
139.6866800765
 20
102.6986750044
 10
139.681160284
 20
102.6937726996
 10
139.6754355069
 20
102.6890553727
 10
139.6695230505
 20
102.6845413314
 10
139.6634289052
 20
102.6802381208
 10
139.6571621553
 20
102.6761549582
 10
139.6507309013
 20
102.6722996633
 10
139.6441399577
 20
102.668677806
 10
139.6373949865
 20
102.6652955348
 10
139.6305098232
 20
102.6621625667
 10
139.6235023337
 20
102.6592887988
 10
139.6163969255
 20
102.6566844373
 10
139.6091925749
 20
102.6543490797
 10
139.6046338538
 20
102.653025018
  0
LWPOLYLINE
  5
433
100
AcDbEntity
  8
0
100
AcDbPolyline
 62
253
  6
CONTINUOUS
 90
28
 70
0
 10
139.5183163249
 20
102.9435354267
 10
139.5125071681
 20
102.9407455413
 10
139.5064780478
 20
102.938074874
 10
139.5002387432
 20
102.9355277568
 10
139.4937993746
 20
102.933108321
 10
139.4871703867
 20
102.930820491
 10
139.4803625315
 20
102.9286679776
 10
139.4733868517
 20
102.9266542723
 10
139.4662546616
 20
102.9247826412
 10
139.4589775298
 20
102.9230561202
 10
139.4515672598
 20
102.9214775097
 10
139.444035871
 20
102.9200493702
 10
139.4363955795
 20
102.9187740182
 10
139.4286587777
 20
102.9176535222
 10
139.4208380149
 20
102.9166896997
 10
139.4129459763
 20
102.9158841141
 10
139.4049954628
 20
102.915238072
 10
139.3969993702
 20
102.9147526213
 10
139.3889706682
 20
102.9144285494
 10
139.3809223794
 20
102.9142663819
 10
139.3728675581
 20
102.9142663819
 10
139.3648192692
 20
102.9144285494
 10
139.3567905672
 20
102.9147526213
 10
139.3487944746
 20
102.915238072
 10
139.3408439611
 20
102.9158841141
 10
139.3329519225
 20
102.9166896997
 10
139.3251311597
 20
102.9176535222
 10
139.3186266124
 20
102.9185955547
  0
LWPOLYLINE
  5
434
100
AcDbEntity
  8
RACCORDO
100
AcDbPolyline
 62
253
  6
CONTINUOUS
 90
6
 70
0
 10
117.1635535523
 20
96.6406683312
 10
117.1270673138
 20
96.6288356523
 10
117.0660447284
 20
96.6156579317
 10
117.0026757332
 20
96.6098572425
 10
116.9374117899
 20
96.6114922383
 10
116.870714114
 20
96.6205405375
  0
LWPOLYLINE
  5
435
100
AcDbEntity
  8
ASSI
100
AcDbPolyline
 62
253
  6
CONTINUOUS
 90
9
 70
0
 10
117.1470678744
 20
96.6349326761
 10
117.1270673138
 20
96.6288356523
 10
117.0660447284
 20
96.6156579317
 10
117.0026757332
 20
96.6098572425
 10
116.9374117899
 20
96.6114922383
 10
116.870714114
 20
96.6205405375
 10
116.8030340717
 20
96.636923665
 10
116.7348060611
 20
96.6605302009
 10
116.6664748444
 20
96.6911963237
  0
LINE
  5
436
100
AcDbEntity
  8
0
100
AcDbLine
 62
253
  6
CONTINUOUS
 10
139.3186266124
 20
121.8750584987
 11
139.5671490431
 21
121.7507972833
  0
LINE
  5
437
100
AcDbEntity
  8
0
100
AcDbLine
 62
253
  6
CONTINUOUS
 10
137.9633991561
 20
123.1028537898
 11
137.8302577543
 21
123.1694244907
  0
LINE
  5
438
100
AcDbEntity
  8
268
100
AcDbLine
 62
7
  6
CONTINUOUS
 10
132.1349175834
 20
126.1852878132
 11
132.6947358865
 21
125.9053786616
  0
LINE
  5
439
100
AcDbEntity
  8
RACCORDO
100
AcDbLine
 62
7
  6
CONTINUOUS
 10
117.349389067
 20
134.3852929302
 11
131.6331183603
 21
127.2434282836
  0
LINE
  5
43A
100
AcDbEntity
  8
ASSI
100
AcDbLine
 62
7
  6
CONTINUOUS
 10
117.349389067
 20
134.3852929302
 11
131.6331183603
 21
127.2434282836
  0
LINE
  5
43B
100
AcDbEntity
  8
0
100
AcDbLine
 62
253
  6
CONTINUOUS
 10
140.9591651121
 20
122.6898834787
 11
140.5223735656
 21
122.908279252
  0
LINE
  5
43C
100
AcDbEntity
  8
268
100
AcDbLine
 62
7
  6
CONTINUOUS
 10
116.1130818677
 20
135.1552250415
 11
131.8815630881
 21
127.2709844313
  0
LINE
  5
43D
100
AcDbEntity
  8
268
100
AcDbLine
 62
7
  6
CONTINUOUS
 10
131.6340757147
 20
127.7222440565
 11
116.3605692411
 21
135.3589972933
  0
LINE
  5
43E
100
AcDbEntity
  8
0
100
AcDbLine
 62
253
  6
CONTINUOUS
 10
138.6642283539
 20
124.313098761
 11
138.338362963
 21
124.4760314565
  0
LWPOLYLINE
  5
43F
100
AcDbEntity
  8
0
100
AcDbPolyline
 62
253
  6
CONTINUOUS
 90
40
 70
0
 10
139.5258707727
 20
121.7013155304
 10
139.5315857245
 20
121.6983403321
 10
139.5373323825
 20
121.695114027
 10
139.5431014255
 20
121.691641848
 10
139.5488834963
 20
121.6879294271
 10
139.5546692161
 20
121.6839827859
 10
139.5604492007
 20
121.6798083258
 10
139.5662140747
 20
121.6754128178
 10
139.5719544876
 20
121.6708033914
 10
139.5776611284
 20
121.6659875231
 10
139.583324741
 20
121.6609730243
 10
139.5889361388
 20
121.6557680286
 10
139.5944862203
 20
121.6503809784
 10
139.599965983
 20
121.6448206115
 10
139.605366539
 20
121.639095947
 10
139.6106791283
 20
121.6332162702
 10
139.6158951341
 20
121.627191118
 10
139.6210060959
 20
121.6210302631
 10
139.6260037237
 20
121.6147436986
 10
139.6308799113
 20
121.6083416213
 10
139.6356267496
 20
121.6018344153
 10
139.6402365391
 20
121.5952326354
 10
139.6447018028
 20
121.5885469896
 10
139.649015298
 20
121.5817883222
 10
139.6531700281
 20
121.5749675957
 10
139.6571592543
 20
121.5680958733
 10
139.6609765059
 20
121.561184301
 10
139.6646155914
 20
121.5542440895
 10
139.6680706082
 20
121.5472864956
 10
139.6713359521
 20
121.5403228048
 10
139.6744063268
 20
121.5333643121
 10
139.6772767522
 20
121.5264223042
 10
139.6799425724
 20
121.5195080411
 10
139.6823994634
 20
121.5126327377
 10
139.6846434402
 20
121.5058075459
 10
139.686670863
 20
121.499043536
 10
139.6884784433
 20
121.4923516794
 10
139.6900632492
 20
121.4857428303
 10
139.6914227101
 20
121.4792277082
 10
139.6925546211
 20
121.4728168807
  0
LWPOLYLINE
  5
440
100
AcDbEntity
  8
0
100
AcDbPolyline
 62
7
  6
CONTINUOUS
 90
40
 70
0
 10
143.7251322915
 20
138.6581907076
 10
143.7248738627
 20
138.6652540919
 10
143.7243239646
 20
138.6722448161
 10
143.7234867947
 20
138.6791602076
 10
143.7223621701
 20
138.6860004892
 10
143.72095882
 20
138.6927609623
 10
143.719294465
 20
138.6994320553
 10
143.7173736544
 20
138.7060117321
 10
143.7152008035
 20
138.7124993532
 10
143.7127935099
 20
138.7188878687
 10
143.7101565584
 20
138.7251760008
 10
143.7072941185
 20
138.7313638195
 10
143.704222707
 20
138.7374465258
 10
143.7009470915
 20
138.7434235038
 10
143.6974711602
 20
138.7492952979
 10
143.6938097883
 20
138.755058894
 10
143.6899675388
 20
138.7607142085
 10
143.6859480213
 20
138.7662620816
 10
143.6817642639
 20
138.7717007776
 10
143.6774205128
 20
138.7770306114
 10
143.6729201166
 20
138.782252595
 10
143.6682743036
 20
138.7873658217
 10
143.6634869464
 20
138.7923708941
 10
143.6585611618
 20
138.7972689068
 10
143.6535065958
 20
138.8020594083
 10
143.6483267789
 20
138.8067431637
 10
143.6430245843
 20
138.8113213344
 10
143.6376082524
 20
138.8157937453
 10
143.6320809443
 20
138.8201612932
 10
143.6264453523
 20
138.8244251286
 10
143.6207086368
 20
138.8285851267
 10
143.6148736455
 20
138.83264225
 10
143.6089428899
 20
138.8365976423
 10
143.6029226968
 20
138.8404511316
 10
143.5968156505
 20
138.8442037108
 10
143.5906240903
 20
138.8478565159
 10
143.5843536967
 20
138.8514092912
 10
143.5780068236
 20
138.854863045
 10
143.5715856597
 20
138.8582188994
 10
143.5677196649
 20
138.8601751827
  0
LWPOLYLINE
  5
441
100
AcDbEntity
  8
0
100
AcDbPolyline
 62
253
  6
CONTINUOUS
 90
52
 70
0
 10
144.3565638137
 20
138.8207579373
 10
144.3564666739
 20
138.8286269046
 10
144.3561771132
 20
138.8363755063
 10
144.3556951317
 20
138.8440037422
 10
144.3550199292
 20
138.8515188462
 10
144.3541523059
 20
138.8589135845
 10
144.353094662
 20
138.866166256
 10
144.3518464654
 20
138.8732761076
 10
144.3504082483
 20
138.8802438925
 10
144.348784007
 20
138.8870501686
 10
144.346973224
 20
138.8936944594
 10
144.3449764169
 20
138.9001772415
 10
144.342799135
 20
138.9064805025
 10
144.3404408845
 20
138.9126037333
 10
144.3379021592
 20
138.9185474432
 10
144.3351899909
 20
138.9242951478
 10
144.3323038871
 20
138.9298463237
 10
144.3292443403
 20
138.9352014943
 10
144.3260198591
 20
138.940345746
 10
144.3226299874
 20
138.9452784833
 10
144.3190751813
 20
138.9500003015
 10
144.3153653181
 20
138.9544980725
 10
144.3114999609
 20
138.9587711758
 10
144.3074795466
 20
138.9628202318
 10
144.3033152622
 20
138.9666339735
 10
144.2990067196
 20
138.9702117366
 10
144.2945543069
 20
138.9735541854
 10
144.2899703753
 20
138.976652046
 10
144.2852545492
 20
138.9795046462
 10
144.2804072041
 20
138.9821126583
 10
144.2754418185
 20
138.9844688251
 10
144.2703580682
 20
138.9865724432
 10
144.2651562775
 20
138.9884242161
 10
144.2598508975
 20
138.9900189962
 10
144.2544416292
 20
138.9913560694
 10
144.2489287717
 20
138.9924361498
 10
144.2433276732
 20
138.9932562327
 10
144.237638108
 20
138.9938155922
 10
144.2318603018
 20
138.9941149542
 10
144.2260102795
 20
138.9941534912
 10
144.2200878307
 20
138.9939304822
 10
144.2140931658
 20
138.9934466484
 10
144.2080429403
 20
138.9927033253
 10
144.2019369763
 20
138.9916997781
 10
144.1957754518
 20
138.9904367417
 10
144.1895755566
 20
138.988917756
 10
144.1833368218
 20
138.9871419267
 10
144.1770597162
 20
138.9851101481
 10
144.1707628366
 20
138.9828286438
 10
144.1644523817
 20
138.9802994884
 10
144.1581221528
 20
138.9775206073
 10
144.1517721499
 20
138.9744920005
  0
LWPOLYLINE
  5
442
100
AcDbEntity
  8
0
100
AcDbPolyline
 62
7
  6
CONTINUOUS
 90
33
 70
0
 10
144.4126958136
 20
138.890222645
 10
144.4126293994
 20
138.8985392793
 10
144.4121478554
 20
138.9140009662
 10
144.4112012178
 20
138.9292871068
 10
144.409787663
 20
138.9444099369
 10
144.4079084107
 20
138.959342122
 10
144.405573624
 20
138.9740163708
 10
144.4027897193
 20
138.9884221705
 10
144.3995612468
 20
139.0025579049
 10
144.3959059704
 20
139.0163715716
 10
144.3918379029
 20
139.0298454083
 10
144.3873637203
 20
139.0429871481
 10
144.3824965143
 20
139.055783471
 10
144.3772485673
 20
139.0682271816
 10
144.3716309005
 20
139.0803145542
 10
144.3656575231
 20
139.0920360799
 10
144.359344699
 20
139.1033811223
 10
144.3527034756
 20
139.1143497241
 10
144.3457412401
 20
139.1249463143
 10
144.3384743728
 20
139.1351615534
 10
144.3309150118
 20
139.144993661
 10
144.3230629333
 20
139.1544549603
 10
144.3149319285
 20
139.1635385483
 10
144.3065360898
 20
139.1722387494
 10
144.297873427
 20
139.1805656769
 10
144.2889583118
 20
139.188511686
 10
144.2798041731
 20
139.1960711119
 10
144.2704055527
 20
139.2032533041
 10
144.2607761898
 20
139.2100509212
 10
144.2509299823
 20
139.2164573894
 10
144.2408595831
 20
139.2224792553
 10
144.2305712253
 20
139.2281128959
 10
144.2255050702
 20
139.230704029
  0
LINE
  5
443
100
AcDbEntity
  8
0
100
AcDbLine
 62
7
  6
CONTINUOUS
 10
144.4126958536
 20
138.4901912717
 11
144.4126958536
 21
138.8902237744
  0
LINE
  5
444
100
AcDbEntity
  8
0
100
AcDbLine
 62
7
  6
CONTINUOUS
 10
145.6352599177
 20
137.7544651258
 11
145.6362115962
 21
137.8056754493
  0
LINE
  5
445
100
AcDbEntity
  8
0
100
AcDbLine
 62
7
  6
CONTINUOUS
 10
145.6362115962
 20
137.8056754493
 11
145.6366279789
 21
137.8238525788
  0
LWPOLYLINE
  5
446
100
AcDbEntity
  8
0
100
AcDbPolyline
 62
7
  6
CONTINUOUS
 90
5
 70
0
 10
145.6366279789
 20
137.8238525788
 10
145.6366675908
 20
137.8249519088
 10
145.6366837785
 20
137.8253166828
 10
145.6367000257
 20
137.8255566822
 10
145.6367122351
 20
137.8256680799
  0
LWPOLYLINE
  5
447
100
AcDbEntity
  8
0
100
AcDbPolyline
 62
7
  6
CONTINUOUS
 90
49
 70
0
 10
148.8965069092
 20
135.5132495033
 10
148.8976136773
 20
135.5192814257
 10
148.8986768931
 20
135.5253027619
 10
148.8996967487
 20
135.5313117485
 10
148.9006746805
 20
135.5373074811
 10
148.9016097198
 20
135.5432872602
 10
148.9024985204
 20
135.549246617
 10
148.903341468
 20
135.5551836011
 10
148.9041388854
 20
135.5610964806
 10
148.9048874186
 20
135.5669811223
 10
148.9055875609
 20
135.5728355356
 10
148.9062397433
 20
135.5786579486
 10
148.9068405847
 20
135.5844445519
 10
148.9073906823
 20
135.5901933197
 10
148.9078905642
 20
135.5959024327
 10
148.9083367956
 20
135.6015683713
 10
148.9087300748
 20
135.6071890732
 10
148.909071019
 20
135.6127626648
 10
148.9093561068
 20
135.6182858668
 10
148.9095861373
 20
135.6237565756
 10
148.9097618104
 20
135.6291728546
 10
148.9098794819
 20
135.6345316083
 10
148.9099400533
 20
135.6398306767
 10
148.9099443044
 20
135.6450680566
 10
148.9098884267
 20
135.650240793
 10
148.9097734281
 20
135.6553466797
 10
148.9096001676
 20
135.6603836114
 10
148.9093646291
 20
135.6653486594
 10
148.9090679354
 20
135.6702395294
 10
148.9087110276
 20
135.6750540323
 10
148.9082896337
 20
135.6797892392
 10
148.9078050029
 20
135.6844427631
 10
148.9072581628
 20
135.6890123034
 10
148.9066445298
 20
135.6934948635
 10
148.9059654933
 20
135.6978879521
 10
148.9052221766
 20
135.702189132
 10
148.9044096259
 20
135.7063952464
 10
148.9035293891
 20
135.7105036813
 10
148.9025826981
 20
135.714511842
 10
148.9015641675
 20
135.7184163155
 10
148.9004755262
 20
135.7222143448
 10
148.8993181322
 20
135.7259031569
 10
148.8980861053
 20
135.7294789799
 10
148.8967813823
 20
135.7329388948
 10
148.8954054701
 20
135.7362799277
 10
148.8939519299
 20
135.7394978385
 10
148.8924229374
 20
135.7425895283
 10
148.8908201777
 20
135.7455517994
 10
148.8904529772
 20
135.7461925488
  0
LINE
  5
448
100
AcDbEntity
  8
268
100
AcDbLine
 62
7
  6
CONTINUOUS
 10
129.9644674483
 20
88.8030596459
 11
130.5432577885
 21
89.5075033761
  0
LINE
  5
449
100
AcDbEntity
  8
0
100
AcDbLine
 62
7
  6
CONTINUOUS
 10
139.3186266124
 20
102.1240127329
 11
139.9877295106
 21
102.4704509
  0
LINE
  5
44A
100
AcDbEntity
  8
0
100
AcDbLine
 62
7
  6
CONTINUOUS
 10
138.0615111949
 20
98.9544146477
 11
137.9626814063
 21
98.9049997534
  0
LINE
  5
44B
100
AcDbEntity
  8
0
100
AcDbLine
 62
7
  6
CONTINUOUS
 10
140.6025263078
 20
102.1630525014
 11
139.6752654167
 21
101.7074441314
  0
LWPOLYLINE
  5
44C
100
AcDbEntity
  8
0
100
AcDbPolyline
 62
7
  6
CONTINUOUS
 90
7
 70
0
 10
137.8688161027
 20
98.865755254
 10
137.8703813204
 20
98.866259959
 10
137.8887728815
 20
98.8727897336
 10
137.9072024477
 20
98.8799299414
 10
137.9256574288
 20
98.8876761123
 10
137.944150415
 20
98.8960327163
 10
137.9626814063
 20
98.9049997534
  0
LWPOLYLINE
  5
44D
100
AcDbEntity
  8
0
100
AcDbPolyline
 62
253
  6
CONTINUOUS
 90
31
 70
0
 10
150.1484116061
 20
130.8722274247
 10
150.150845558
 20
130.8726151293
 10
150.1556256772
 20
130.8732054075
 10
150.1605314891
 20
130.8736452944
 10
150.1655417817
 20
130.8739338786
 10
150.1706573658
 20
130.8740702067
 10
150.1758751603
 20
130.8740553924
 10
150.1811684435
 20
130.8738935845
 10
150.1865382514
 20
130.8735849702
 10
150.1919817792
 20
130.8731315986
 10
150.1974669827
 20
130.8725423687
 10
150.2029900966
 20
130.8718194605
 10
150.2085538609
 20
130.8709651074
 10
150.2141363751
 20
130.8699896229
 10
150.2197161829
 20
130.8689002296
 10
150.2253143779
 20
130.8676952734
 10
150.2309724436
 20
130.8663699662
 10
150.23667109
 20
130.8649305758
 10
150.2424281986
 20
130.8633719856
 10
150.2483391766
 20
130.861666413
 10
150.2544004678
 20
130.8598118832
 10
150.260611384
 20
130.8578034391
 10
150.2670689931
 20
130.8556014596
 10
150.2737710851
 20
130.8531988189
 10
150.2807120776
 20
130.8505881229
 10
150.287981116
 20
130.8477225292
 10
150.2955857619
 20
130.8445857753
 10
150.303506036
 20
130.841171875
 10
150.311787316
 20
130.8374446224
 10
150.3204280017
 20
130.8333880999
 10
150.3294490451
 20
130.8289741198
  0
LINE
  5
44E
100
AcDbEntity
  8
268
100
AcDbLine
 62
7
  6
CONTINUOUS
 10
132.1935903993
 20
128.7943207433
 11
131.5712723672
 21
128.9242613258
  0
LINE
  5
44F
100
AcDbEntity
  8
268
100
AcDbLine
 62
7
  6
CONTINUOUS
 10
132.1935903993
 20
128.1571511846
 11
130.5795862833
 21
128.9641532426
  0
LINE
  5
450
100
AcDbEntity
  8
268
100
AcDbLine
 62
7
  6
CONTINUOUS
 10
118.8292722349
 20
134.8393102668
 11
117.2152681189
 21
135.6463123248
  0
LINE
  5
451
100
AcDbEntity
  8
268
100
AcDbLine
 62
7
  6
CONTINUOUS
 10
122.1617281157
 20
133.5304145616
 11
127.9542371837
 21
130.6341600276
  0
LINE
  5
452
100
AcDbEntity
  8
268
100
AcDbLine
 62
7
  6
CONTINUOUS
 10
116.5768699106
 20
136.4178424046
 11
118.1834034736
 21
135.6145756231
  0
LINE
  5
453
100
AcDbEntity
  8
268
100
AcDbLine
 62
7
  6
CONTINUOUS
 10
129.941188075
 20
129.7356833224
 11
131.5477216381
 21
128.9324165409
  0
LINE
  5
454
100
AcDbEntity
  8
268
100
AcDbLine
 62
253
  6
CONTINUOUS
 10
116.5122751646
 20
136.5528715795
 11
118.1180516268
 21
135.7499833484
  0
LINE
  5
455
100
AcDbEntity
  8
268
100
AcDbLine
 62
253
  6
CONTINUOUS
 10
129.876593329
 20
129.8707124973
 11
131.4823697912
 21
129.0678242662
  0
LINE
  5
456
100
AcDbEntity
  8
268
100
AcDbLine
 62
253
  6
CONTINUOUS
 10
131.4823697912
 20
129.3211956599
 11
129.876593329
 21
130.124083891
  0
LINE
  5
457
100
AcDbEntity
  8
268
100
AcDbLine
 62
253
  6
CONTINUOUS
 10
118.1180516268
 20
136.0033547422
 11
116.5122751646
 21
136.8062429732
  0
LINE
  5
458
100
AcDbEntity
  8
268
100
AcDbLine
 62
7
  6
CONTINUOUS
 10
119.896103147
 20
135.3778915163
 11
122.07386015
 21
134.2890130148
  0
LINE
  5
459
100
AcDbEntity
  8
268
100
AcDbLine
 62
7
  6
CONTINUOUS
 10
128.8763592681
 20
130.8877634558
 11
129.9574812192
 21
130.3472024802
  0
LINE
  5
45A
100
AcDbEntity
  8
268
100
AcDbLine
 62
7
  6
CONTINUOUS
 10
133.2604213114
 20
128.6957324341
 11
133.4018426677
 21
128.625021756
  0
LINE
  5
45B
100
AcDbEntity
  8
268
100
AcDbLine
 62
253
  6
CONTINUOUS
 10
131.6591405206
 20
129.6250612382
 11
130.0513191116
 21
130.4289719427
  0
LINE
  5
45C
100
AcDbEntity
  8
268
100
AcDbLine
 62
253
  6
CONTINUOUS
 10
118.2948223562
 20
136.3072203204
 11
116.6870009471
 21
137.1111310249
  0
LINE
  5
45D
100
AcDbEntity
  8
268
100
AcDbLine
 62
7
  6
CONTINUOUS
 10
122.1617281157
 20
134.7453694277
 11
127.9542371837
 21
131.8491148937
  0
LINE
  5
45E
100
AcDbEntity
  8
0
100
AcDbLine
 62
7
  6
CONTINUOUS
 10
140.9591651121
 20
125.4893495114
 11
140.5913190915
 21
125.6732725217
  0
LINE
  5
45F
100
AcDbEntity
  8
268
100
AcDbLine
 62
7
  6
CONTINUOUS
 10
134.1089494489
 20
128.9710174574
 11
133.309217425
 21
129.3708834693
  0
LINE
  5
460
100
AcDbEntity
  8
268
100
AcDbLine
 62
7
  6
CONTINUOUS
 10
121.427377264
 20
135.3118035498
 11
119.9448992606
 21
136.0530425515
  0
LWPOLYLINE
  5
461
100
AcDbEntity
  8
0
100
AcDbPolyline
 62
7
  6
CONTINUOUS
 90
40
 70
0
 10
146.8364021287
 20
137.102555789
 10
146.8361436999
 20
137.1096191733
 10
146.8355938018
 20
137.1166098975
 10
146.8347566319
 20
137.123525289
 10
146.8336320073
 20
137.1303655706
 10
146.8322286573
 20
137.1371260436
 10
146.8305643022
 20
137.1437971367
 10
146.8286434916
 20
137.1503768135
 10
146.8264706408
 20
137.1568644346
 10
146.8240633471
 20
137.1632529501
 10
146.8214263956
 20
137.1695410822
 10
146.8185639558
 20
137.1757289009
 10
146.8154925442
 20
137.1818116072
 10
146.8122169287
 20
137.1877885852
 10
146.8087409975
 20
137.1936603793
 10
146.8050796255
 20
137.1994239754
 10
146.801237376
 20
137.2050792899
 10
146.7972178585
 20
137.210627163
 10
146.7930341011
 20
137.216065859
 10
146.78869035
 20
137.2213956928
 10
146.7841899538
 20
137.2266176763
 10
146.7795441408
 20
137.2317309031
 10
146.7747567837
 20
137.2367359755
 10
146.7698309991
 20
137.2416339881
 10
146.764776433
 20
137.2464244897
 10
146.7595966161
 20
137.2511082451
 10
146.7542944215
 20
137.2556864158
 10
146.7488780897
 20
137.2601588267
 10
146.7433507815
 20
137.2645263746
 10
146.7377151896
 20
137.26879021
 10
146.731978474
 20
137.2729502081
 10
146.7261434828
 20
137.2770073314
 10
146.7202127271
 20
137.2809627237
 10
146.7141925341
 20
137.2848162129
 10
146.7080854877
 20
137.2885687922
 10
146.7018939276
 20
137.2922215973
 10
146.695623534
 20
137.2957743726
 10
146.6892766608
 20
137.2992281264
 10
146.6828554969
 20
137.3025839808
 10
146.6789895021
 20
137.3045402641
  0
LINE
  5
462
100
AcDbEntity
  8
DRAFT
100
AcDbLine
 62
7
  6
CONTINUOUS
 10
147.6315110552
 20
138.3835468212
 11
147.6500443086
 21
137.0738835966
  0
LINE
  5
463
100
AcDbEntity
  8
0
100
AcDbLine
 62
7
  6
CONTINUOUS
 10
146.8364333244
 20
137.0980843782
 11
146.8364333244
 21
136.5627039612
  0
LINE
  5
464
100
AcDbEntity
  8
268
100
AcDbLine
 62
7
  6
CONTINUOUS
 10
131.5712723672
 20
87.9996571865
 11
132.1935903993
 21
88.7447166039
  0
LINE
  5
465
100
AcDbEntity
  8
0
100
AcDbLine
 62
7
  6
CONTINUOUS
 10
140.7482673373
 20
99.7749484878
 11
138.5250219407
 21
98.6238294862
  0
LINE
  5
466
100
AcDbEntity
  8
0
100
AcDbLine
 62
7
  6
CONTINUOUS
 10
140.9591651121
 20
99.9718331591
 11
138.6642283539
 21
98.8928558381
  0
LINE
  5
467
100
AcDbEntity
  8
268
100
AcDbLine
 62
253
  6
CONTINUOUS
 10
130.6891108701
 20
94.3530106013
 11
129.4691923997
 21
93.789611825
  0
LINE
  5
468
100
AcDbEntity
  8
268
100
AcDbLine
 62
7
  6
CONTINUOUS
 10
130.4882572842
 20
93.8392415447
 11
129.4331805852
 21
93.3519721611
  0
LWPOLYLINE
  5
469
100
AcDbEntity
  8
RACCORDO
100
AcDbPolyline
 62
7
  6
CONTINUOUS
 90
21
 70
0
 10
127.8847510017
 20
134.6028537171
 10
127.8729139574
 20
134.6083277483
 10
127.8611430653
 20
134.6133457764
 10
127.8494508752
 20
134.6179020877
 10
127.8378507339
 20
134.6219916026
 10
127.8263543239
 20
134.6256096083
 10
127.814971665
 20
134.6287516135
 10
127.8037154149
 20
134.6314140177
 10
127.7925976811
 20
134.633593607
 10
127.7816275995
 20
134.6352870078
 10
127.7708175249
 20
134.6364921665
 10
127.7601794292
 20
134.6372073403
 10
127.7497217799
 20
134.6374301956
 10
127.7394570067
 20
134.6371602824
 10
127.7293963523
 20
134.63639745
 10
127.7195463974
 20
134.6351403325
 10
127.7099183367
 20
134.6333898446
 10
127.7005239239
 20
134.6311473504
 10
127.6913703499
 20
134.6284129299
 10
127.6824704925
 20
134.6251901162
 10
127.6741653199
 20
134.6216354675
  0
LINE
  5
46A
100
AcDbEntity
  8
268
100
AcDbLine
 62
7
  6
CONTINUOUS
 10
122.6538195936
 20
135.2114688583
 11
128.8763592681
 21
132.1001990211
  0
LINE
  5
46B
100
AcDbEntity
  8
268
100
AcDbLine
 62
7
  6
CONTINUOUS
 10
118.2697575503
 20
137.9231151223
 11
119.896103147
 21
137.1099423239
  0
LINE
  5
46C
100
AcDbEntity
  8
268
100
AcDbLine
 62
7
  6
CONTINUOUS
 10
131.6340757147
 20
131.2409560401
 11
133.2604213114
 21
130.4277832417
  0
LINE
  5
46D
100
AcDbEntity
  8
268
100
AcDbLine
 62
7
  6
CONTINUOUS
 10
123.9973224779
 20
135.241785809
 11
128.9470699462
 21
132.7669120748
  0
LINE
  5
46E
100
AcDbEntity
  8
268
100
AcDbLine
 62
253
  6
CONTINUOUS
 10
118.804207429
 20
138.1834625888
 11
120.4243703188
 21
137.3733811439
  0
LINE
  5
46F
100
AcDbEntity
  8
268
100
AcDbLine
 62
253
  6
CONTINUOUS
 10
132.1685255934
 20
131.5013035066
 11
133.7886884832
 21
130.6912220617
  0
LINE
  5
470
100
AcDbEntity
  8
268
100
AcDbLine
 62
7
  6
CONTINUOUS
 10
118.9156250443
 20
138.189731152
 11
120.5345026225
 21
137.3802923629
  0
LINE
  5
471
100
AcDbEntity
  8
268
100
AcDbLine
 62
7
  6
CONTINUOUS
 10
132.2799432087
 20
131.5075720698
 11
133.8988207869
 21
130.6981332807
  0
LINE
  5
472
100
AcDbEntity
  8
RACCORDO
100
AcDbLine
 62
7
  6
CONTINUOUS
 10
127.8863559265
 20
134.6020671914
 11
130.2612319265
 21
133.4146291914
  0
LINE
  5
473
100
AcDbEntity
  8
0
100
AcDbLine
 62
7
  6
CONTINUOUS
 10
139.0963032881
 20
131.5784104974
 11
140.3341168616
 21
129.4434978847
  0
LINE
  5
474
100
AcDbEntity
  8
0
100
AcDbLine
 62
7
  6
CONTINUOUS
 10
139.4052348416
 20
131.5471679647
 11
140.5450146365
 21
129.581338609
  0
LWPOLYLINE
  5
475
100
AcDbEntity
  8
0
100
AcDbPolyline
 62
7
  6
CONTINUOUS
 90
21
 70
0
 10
150.148409352
 20
123.0972068898
 10
150.1483698218
 20
123.0977942518
 10
150.1480015908
 20
123.0992252799
 10
150.1472343771
 20
123.1008989842
 10
150.1460566392
 20
123.1028219056
 10
150.1444601631
 20
123.1050045109
 10
150.1424289335
 20
123.107449516
 10
150.1399493029
 20
123.1101605096
 10
150.1370141513
 20
123.1131507798
 10
150.1336037811
 20
123.1164224235
 10
150.1297046245
 20
123.1199768867
 10
150.125316814
 20
123.1238268231
 10
150.1204071685
 20
123.1279793454
 10
150.1149726963
 20
123.1324257887
 10
150.1090649677
 20
123.1371478951
 10
150.1026683819
 20
123.1421340819
 10
150.0957784844
 20
123.1473741736
 10
150.0884785839
 20
123.1528393136
 10
150.0807994935
 20
123.1585052729
 10
150.0727110045
 20
123.1643585127
 10
150.0642135462
 20
123.1703803352
  0
LINE
  5
476
100
AcDbEntity
  8
DRAFT
100
AcDbLine
 62
7
  6
CONTINUOUS
 10
150.7427808924
 20
136.8279119025
 11
150.7613141458
 21
135.518248678
  0
LWPOLYLINE
  5
477
100
AcDbEntity
  8
0
100
AcDbPolyline
 62
7
  6
CONTINUOUS
 90
21
 70
0
 10
150.5916938479
 20
134.5955234412
 10
150.5915760126
 20
134.6096105642
 10
150.5910114772
 20
134.6292391104
 10
150.5900053102
 20
134.6482706642
 10
150.5885854284
 20
134.6666828662
 10
150.5867746999
 20
134.6845108756
 10
150.5845851332
 20
134.7018442423
 10
150.5820330007
 20
134.7186853142
 10
150.5791335003
 20
134.7350410915
 10
150.5758828588
 20
134.7510031773
 10
150.5722881935
 20
134.7665745079
 10
150.5683569852
 20
134.7817562094
 10
150.5640715336
 20
134.7966316997
 10
150.5594235231
 20
134.8112223357
 10
150.5544189089
 20
134.8255022264
 10
150.5490525743
 20
134.8394797343
 10
150.5433156469
 20
134.8531646768
 10
150.5372114145
 20
134.8665367605
 10
150.5307543572
 20
134.8795583888
 10
150.5239449043
 20
134.8922241196
 10
150.5207557964
 20
134.897823435
  0
LWPOLYLINE
  5
478
100
AcDbEntity
  8
0
100
AcDbPolyline
 62
7
  6
CONTINUOUS
 90
34
 70
0
 10
150.1484115864
 20
132.8861218595
 10
150.1481221409
 20
132.9211288674
 10
150.147037888
 20
132.9627033785
 10
150.145155164
 20
133.0044896344
 10
150.1424799438
 20
133.0464666856
 10
150.1390185421
 20
133.0886164562
 10
150.1347769757
 20
133.1309212246
 10
150.1297615159
 20
133.1733624905
 10
150.1239787157
 20
133.2159204229
 10
150.1174351325
 20
133.2585741186
 10
150.1101376019
 20
133.3013042696
 10
150.102093002
 20
133.3440915164
 10
150.0933086553
 20
133.3869141174
 10
150.083792016
 20
133.4297524846
 10
150.0735503717
 20
133.4725872639
 10
150.0625918789
 20
133.515396287
 10
150.0509248566
 20
133.5581588995
 10
150.0385568386
 20
133.6008567865
 10
150.0254958762
 20
133.6434707782
 10
150.0117507132
 20
133.6859803207
 10
149.9973292578
 20
133.7283670891
 10
149.982239034
 20
133.7706149156
 10
149.9664886511
 20
133.8127044384
 10
149.9500867114
 20
133.854616254
 10
149.9330410843
 20
133.896333966
 10
149.9153606899
 20
133.9378381613
 10
149.8970544936
 20
133.9791097375
 10
149.8781305573
 20
134.0201325102
 10
149.8585983503
 20
134.0608866743
 10
149.8384669309
 20
134.1013539092
 10
149.8177433008
 20
134.1415202832
 10
149.7964357975
 20
134.1813686156
 10
149.7745560212
 20
134.2208767742
 10
149.7559160323
 20
134.2534868869
  0
LINE
  5
479
100
AcDbEntity
  8
0
100
AcDbLine
 62
253
  6
CONTINUOUS
 10
150.0642135462
 20
132.7819206011
 11
150.0642135462
 21
129.5692238192
  0
LINE
  5
47A
100
AcDbEntity
  8
0
100
AcDbLine
 62
253
  6
CONTINUOUS
 10
150.0642135462
 20
102.1078157314
 11
150.0642135462
 21
123.1703803352
  0
LINE
  5
47B
100
AcDbEntity
  8
0
100
AcDbLine
 62
7
  6
CONTINUOUS
 10
150.1484116061
 20
123.0974767551
 11
150.1484116061
 21
102.2120112839
  0
LINE
  5
47C
100
AcDbEntity
  8
0
100
AcDbLine
 62
253
  6
CONTINUOUS
 10
150.5355617996
 20
134.5260578054
 11
150.5355617996
 21
132.8493271169
  0
LINE
  5
47D
100
AcDbEntity
  8
0
100
AcDbLine
 62
7
  6
CONTINUOUS
 10
150.5916938396
 20
134.5955236425
 11
150.5916938396
 21
132.9187929539
  0
LWPOLYLINE
  5
47E
100
AcDbEntity
  8
0
100
AcDbPolyline
 62
253
  6
CONTINUOUS
 90
24
 70
0
 10
151.1063598258
 20
130.1088108512
 10
151.106345039
 20
123.7230809826
 10
151.106028915
 20
123.7136769128
 10
151.1054117298
 20
123.7044431768
 10
151.1044941155
 20
123.6953922268
 10
151.1032772189
 20
123.6865373874
 10
151.1017628818
 20
123.6778927133
 10
151.0999533453
 20
123.6694708178
 10
151.0978510529
 20
123.6612829217
 10
151.0954589263
 20
123.6533404189
 10
151.0927802896
 20
123.6456543804
 10
151.0898188933
 20
123.6382355992
 10
151.0865789007
 20
123.6310945128
 10
151.083064856
 20
123.6242411283
 10
151.0792816626
 20
123.6176850005
 10
151.0752346013
 20
123.6114352803
 10
151.0709293259
 20
123.6055007015
 10
151.0663718587
 20
123.599889568
 10
151.0615685725
 20
123.5946097275
 10
151.0565261833
 20
123.5896685632
 10
151.0512517402
 20
123.5850729836
 10
151.0457526168
 20
123.5808294142
 10
151.0400365006
 20
123.5769437886
 10
151.0341113838
 20
123.5734215408
  0
LWPOLYLINE
  5
47F
100
AcDbEntity
  8
0
100
AcDbPolyline
 62
7
  6
CONTINUOUS
 90
45
 70
0
 10
150.1484116061
 20
132.8861225596
 10
150.1484096112
 20
129.8526695757
 10
150.1483311854
 20
129.8460516867
 10
150.1481400805
 20
129.8394076107
 10
150.1478383675
 20
129.8327383004
 10
150.1474278892
 20
129.8260486093
 10
150.1469105761
 20
129.8193396024
 10
150.1462884029
 20
129.8126121612
 10
150.1455629759
 20
129.8058708251
 10
150.1447361317
 20
129.7991165336
 10
150.1438097604
 20
129.7923501093
 10
150.1427852867
 20
129.785575888
 10
150.1416644662
 20
129.7787946997
 10
150.1404491169
 20
129.7720073162
 10
150.1391405373
 20
129.7652179663
 10
150.1377404148
 20
129.7584273828
 10
150.1362505094
 20
129.7516362927
 10
150.1346720472
 20
129.7448489028
 10
150.133006661
 20
129.7380658568
 10
150.1312560669
 20
129.7312878424
 10
150.1294214742
 20
129.7245191201
 10
150.1275044892
 20
129.7177603066
 10
150.1255067849
 20
129.711011997
 10
150.1234295582
 20
129.7042784088
 10
150.1212743649
 20
129.6975600287
 10
150.1190428711
 20
129.6908574698
 10
150.1167363587
 20
129.6841751269
 10
150.1143563698
 20
129.6775134349
 10
150.1119045563
 20
129.6708729476
 10
150.1093823193
 20
129.6642582207
 10
150.10679119
 20
129.6576696192
 10
150.1041328237
 20
129.6511076542
 10
150.1014087922
 20
129.6445770758
 10
150.0986206252
 20
129.6380781805
 10
150.0957699912
 20
129.6316114305
 10
150.0928586833
 20
129.6251817903
 10
150.0898882391
 20
129.6187894904
 10
150.086860347
 20
129.6124349334
 10
150.0837770676
 20
129.6061232984
 10
150.0806399546
 20
129.5998547528
 10
150.0774507202
 20
129.5936296263
 10
150.074211727
 20
129.5874532833
 10
150.0709248867
 20
129.5813276197
 10
150.0675916118
 20
129.5752510831
 10
150.0642135462
 20
129.5692238192
  0
LWPOLYLINE
  5
480
100
AcDbEntity
  8
0
100
AcDbPolyline
 62
253
  6
CONTINUOUS
 90
36
 70
0
 10
150.0642135421
 20
102.1078157292
 10
150.0639089403
 20
102.0702192047
 10
150.0629298722
 20
102.0329769006
 10
150.0612767517
 20
101.9961064798
 10
150.0589502643
 20
101.959625575
 10
150.0559515349
 20
101.9235513398
 10
150.052282093
 20
101.8879004608
 10
150.047943607
 20
101.8526896659
 10
150.0429380881
 20
101.8179358863
 10
150.0372680402
 20
101.7836558173
 10
150.0309361435
 20
101.7498657993
 10
150.0239453497
 20
101.7165818229
 10
150.016299053
 20
101.6838197111
 10
150.0080008752
 20
101.6515950406
 10
149.9990547239
 20
101.6199231198
 10
149.9894648878
 20
101.5888189938
 10
149.9792359186
 20
101.5582974404
 10
149.9683726607
 20
101.5283729894
 10
149.9568803037
 20
101.4990599044
 10
149.9447643282
 20
101.4703721391
 10
149.9320304862
 20
101.4423233359
 10
149.9186848288
 20
101.4149268473
 10
149.9047337443
 20
101.3881957399
 10
149.8901838652
 20
101.362142713
 10
149.8750420461
 20
101.3367800991
 10
149.8593155321
 20
101.3121199894
 10
149.8430118219
 20
101.2881741286
 10
149.8261385707
 20
101.264953839
 10
149.8087038336
 20
101.2424701709
 10
149.7907159594
 20
101.2207338798
 10
149.772183454
 20
101.1997553199
 10
149.7531153155
 20
101.1795446195
 10
149.733520564
 20
101.1601112996
 10
149.7134081107
 20
101.1414642849
 10
149.6927874146
 20
101.1236124014
 10
149.6716685014
 20
101.1065643372
  0
LWPOLYLINE
  5
481
100
AcDbEntity
  8
0
100
AcDbPolyline
 62
253
  6
CONTINUOUS
 90
34
 70
0
 10
150.5355617996
 20
132.8493271169
 10
150.5354563201
 20
132.8410209787
 10
150.5351420302
 20
132.8326300854
 10
150.53461893
 20
132.824154437
 10
150.5338860745
 20
132.8155848596
 10
150.5329444086
 20
132.8069305272
 10
150.5317967675
 20
132.7982189613
 10
150.5304425275
 20
132.7894504414
 10
150.5288823122
 20
132.7806246881
 10
150.5271208271
 20
132.7717683845
 10
150.52515747
 20
132.7628814784
 10
150.5229928431
 20
132.753964022
 10
150.520633458
 20
132.7450428546
 10
150.5180787232
 20
132.7361179419
 10
150.5153292301
 20
132.7271893182
 10
150.5123932655
 20
132.7182839259
 10
150.5092702596
 20
132.7094018233
 10
150.5059607822
 20
132.700542952
 10
150.5024748287
 20
132.6917340794
 10
150.4988118666
 20
132.6829753646
 10
150.4949724284
 20
132.6742666485
 10
150.4909681074
 20
132.6656342206
 10
150.4867984195
 20
132.6570783354
 10
150.4824638489
 20
132.6485987385
 10
150.4779774415
 20
132.6402209557
 10
150.4733387155
 20
132.6319452573
 10
150.4685481528
 20
132.623771373
 10
150.4636202448
 20
132.6157240185
 10
150.4585542796
 20
132.6078032114
 10
150.4533509691
 20
132.6000089341
 10
150.4480269404
 20
132.5923658493
 10
150.4425877357
 20
132.5848821782
 10
150.4370278128
 20
132.5775496996
 10
150.4313471717
 20
132.5703684137
  0
LWPOLYLINE
  5
482
100
AcDbEntity
  8
0
100
AcDbPolyline
 62
253
  6
CONTINUOUS
 90
22
 70
0
 10
150.1484116061
 20
132.8861218595
 10
150.1482918393
 20
132.881884467
 10
150.1477733534
 20
132.8763431903
 10
150.1468454343
 20
132.8708152888
 10
150.1455093513
 20
132.8653083229
 10
150.1437669315
 20
132.8598298243
 10
150.1416205582
 20
132.8543872859
 10
150.1390731669
 20
132.8489881514
 10
150.1361282415
 20
132.8436398052
 10
150.1327898099
 20
132.8383495621
 10
150.129062438
 20
132.8331246575
 10
150.1249512237
 20
132.8279722374
 10
150.1204617897
 20
132.8228993488
 10
150.1156002763
 20
132.8179129297
 10
150.1103733325
 20
132.8130198
 10
150.1047881071
 20
132.808226652
 10
150.0988522389
 20
132.8035400412
 10
150.0925738464
 20
132.7989663774
 10
150.0859615164
 20
132.794511916
 10
150.0790242925
 20
132.7901827492
 10
150.0717716626
 20
132.7859847981
 10
150.0642135462
 20
132.7819238041
  0
LWPOLYLINE
  5
483
100
AcDbEntity
  8
0
100
AcDbPolyline
 62
253
  6
CONTINUOUS
 90
22
 70
0
 10
150.1484116061
 20
102.2120112839
 10
150.1482918395
 20
102.2077731943
 10
150.1477733538
 20
102.2022319176
 10
150.1468454349
 20
102.196704016
 10
150.145509352
 20
102.1911970499
 10
150.1437669325
 20
102.1857185512
 10
150.1416205593
 20
102.1802760127
 10
150.1390731681
 20
102.1748768781
 10
150.1361282429
 20
102.1695285318
 10
150.1327898113
 20
102.1642382885
 10
150.1290624395
 20
102.1590133837
 10
150.1249512252
 20
102.1538609635
 10
150.1204617912
 20
102.1487880746
 10
150.1156002778
 20
102.1438016553
 10
150.1103733339
 20
102.1389085255
 10
150.1047881083
 20
102.1341153773
 10
150.09885224
 20
102.1294287663
 10
150.0925738473
 20
102.1248551023
 10
150.0859615171
 20
102.1204006408
 10
150.079024293
 20
102.1160714738
 10
150.0717716629
 20
102.1118735226
 10
150.0642135462
 20
102.1078125284
  0
LWPOLYLINE
  5
484
100
AcDbEntity
  8
0
100
AcDbPolyline
 62
253
  6
CONTINUOUS
 90
19
 70
0
 10
150.5916938396
 20
134.5955234412
 10
150.5915753654
 20
134.592082145
 10
150.5910924278
 20
134.5877744004
 10
150.5902383103
 20
134.5834810809
 10
150.5890146028
 20
134.5792101787
 10
150.5874235833
 20
134.5749696439
 10
150.5854682134
 20
134.5707673703
 10
150.5831521331
 20
134.5666111805
 10
150.5804796538
 20
134.5625088111
 10
150.5774557501
 20
134.5584678987
 10
150.5740860513
 20
134.5544959655
 10
150.5703768298
 20
134.5506004052
 10
150.5663349905
 20
134.5467884694
 10
150.5619680572
 20
134.5430672539
 10
150.5572841589
 20
134.5394436859
 10
150.5522920148
 20
134.5359245105
 10
150.5470009176
 20
134.5325162788
 10
150.5414207167
 20
134.529225335
 10
150.5355617996
 20
134.5260578054
  0
LWPOLYLINE
  5
485
100
AcDbEntity
  8
0
100
AcDbPolyline
 62
253
  6
CONTINUOUS
 90
19
 70
0
 10
150.5916938396
 20
132.9187929539
 10
150.5915753649
 20
132.9153514487
 10
150.5910924266
 20
132.9110437041
 10
150.5902383084
 20
132.9067503847
 10
150.5890146003
 20
132.9024794826
 10
150.5874235802
 20
132.8982389481
 10
150.5854682098
 20
132.8940366748
 10
150.5831521291
 20
132.8898804853
 10
150.5804796494
 20
132.8857781163
 10
150.5774557455
 20
132.8817372044
 10
150.5740860465
 20
132.8777652717
 10
150.5703768251
 20
132.8738697119
 10
150.5663349859
 20
132.8700577767
 10
150.5619680529
 20
132.8663365619
 10
150.5572841551
 20
132.8627129945
 10
150.5522920116
 20
132.8591938199
 10
150.5470009153
 20
132.8557855888
 10
150.5414207154
 20
132.8524946458
 10
150.5355617996
 20
132.8493271169
  0
LINE
  5
486
100
AcDbEntity
  8
0
100
AcDbLine
 62
7
  6
CONTINUOUS
 10
140.3341168616
 20
96.50131168
 11
139.0963032881
 21
95.6042126409
  0
LINE
  5
487
100
AcDbEntity
  8
0
100
AcDbLine
 62
7
  6
CONTINUOUS
 10
139.4052348416
 20
95.4679449762
 11
140.5450146365
 21
96.2939945371
  0
LWPOLYLINE
  5
488
100
AcDbEntity
  8
0
100
AcDbPolyline
 62
7
  6
CONTINUOUS
 90
5
 70
0
 10
148.595253277
 20
100.3251934335
 10
148.6050290641
 20
100.3314453799
 10
148.614684436
 20
100.3379031442
 10
148.6242161655
 20
100.344564881
 10
149.6724333488
 20
101.1042380692
  0
LWPOLYLINE
  5
489
100
AcDbEntity
  8
268
100
AcDbPolyline
 62
7
  6
CONTINUOUS
 90
11
 70
0
 10
138.7962568617
 20
95.1024491615
 10
138.8290191751
 20
95.1228130382
 10
138.8621039492
 20
95.1435018775
 10
138.8954958636
 20
95.1645058307
 10
138.929047659
 20
95.1857463374
 10
138.962778974
 20
95.2072366233
 10
138.9966701701
 20
95.2289634628
 10
139.0305150718
 20
95.2508086185
 10
139.0642449542
 20
95.2727326782
 10
139.0979285423
 20
95.2947750541
 10
139.1315658361
 20
95.3169357464
  0
LWPOLYLINE
  5
48A
100
AcDbEntity
  8
268
100
AcDbPolyline
 62
7
  6
CONTINUOUS
 90
3
 70
0
 10
138.7001278145
 20
95.0434020876
 10
138.731754954
 20
95.062715764
 10
138.7962568617
 20
95.1024491615
  0
LINE
  5
48B
100
AcDbEntity
  8
268
100
AcDbLine
 62
7
  6
CONTINUOUS
 10
138.6381666791
 20
95.0058956423
 11
138.7001278145
 21
95.0434020876
  0
LINE
  5
48C
100
AcDbEntity
  8
268
100
AcDbLine
 62
7
  6
CONTINUOUS
 10
138.5781383237
 20
94.969975957
 11
138.6381666791
 21
95.0058956423
  0
LINE
  5
48D
100
AcDbEntity
  8
268
100
AcDbLine
 62
7
  6
CONTINUOUS
 10
138.5200747966
 20
94.9356285771
 11
138.5781383237
 21
94.969975957
  0
LINE
  5
48E
100
AcDbEntity
  8
268
100
AcDbLine
 62
7
  6
CONTINUOUS
 10
138.4640856576
 20
94.9028956116
 11
138.5200747966
 21
94.9356285771
  0
LWPOLYLINE
  5
48F
100
AcDbEntity
  8
268
100
AcDbPolyline
 62
7
  6
CONTINUOUS
 90
3
 70
0
 10
138.3845789476
 20
94.8570946813
 10
138.4104953579
 20
94.8719268979
 10
138.4640856576
 20
94.9028956116
  0
LWPOLYLINE
  5
490
100
AcDbEntity
  8
268
100
AcDbPolyline
 62
7
  6
CONTINUOUS
 90
3
 70
0
 10
138.3845789476
 20
94.8570946813
 10
138.3499944705
 20
94.8382189837
 10
138.3341575648
 20
94.8301180653
  0
LWPOLYLINE
  5
491
100
AcDbEntity
  8
0
100
AcDbPolyline
 62
7
  6
CONTINUOUS
 90
5
 70
0
 10
148.5599632375
 20
100.3048660331
 10
148.5652472511
 20
100.307696301
 10
148.5753577279
 20
100.3133165509
 10
148.5853611607
 20
100.3191496006
 10
148.595253277
 20
100.3251934335
  0
LINE
  5
492
100
AcDbEntity
  8
0
100
AcDbLine
 62
253
  6
CONTINUOUS
 10
139.4052348416
 20
95.4679449762
 11
148.6050373931
 21
100.3329524292
  0
LINE
  5
493
100
AcDbEntity
  8
0
100
AcDbLine
 62
7
  6
CONTINUOUS
 10
139.3600571944
 20
95.4398041933
 11
148.5599750304
 21
100.3048722912
  0
LINE
  5
494
100
AcDbEntity
  8
0
100
AcDbLine
 62
7
  6
CONTINUOUS
 10
139.0963032881
 20
95.6042126409
 11
134.3564368223
 21
93.10593028
  0
LINE
  5
495
100
AcDbEntity
  8
0
100
AcDbLine
 62
253
  6
CONTINUOUS
 10
134.3564368223
 20
94.1517221109
 11
140.7482673373
 21
97.518794779
  0
LINE
  5
496
100
AcDbEntity
  8
0
100
AcDbLine
 62
253
  6
CONTINUOUS
 10
150.0642135462
 20
102.1078157314
 11
140.9591651121
 21
97.3114776361
  0
LINE
  5
497
100
AcDbEntity
  8
0
100
AcDbLine
 62
253
  6
CONTINUOUS
 10
134.3564368223
 20
93.352404175
 11
140.3341168616
 21
96.50131168
  0
LINE
  5
498
100
AcDbEntity
  8
0
100
AcDbLine
 62
253
  6
CONTINUOUS
 10
149.6500614854
 20
101.0903282806
 11
140.5450146365
 21
96.2939945371
  0
LINE
  5
499
100
AcDbEntity
  8
268
100
AcDbLine
 62
253
  6
CONTINUOUS
 10
134.3564368223
 20
92.8351914977
 11
138.3845789476
 21
94.8570946813
  0
LINE
  5
49A
100
AcDbEntity
  8
268
100
AcDbLine
 62
7
  6
CONTINUOUS
 10
134.3564368223
 20
92.8335234169
 11
138.3341998933
 21
94.8301391188
  0
LINE
  5
49B
100
AcDbEntity
  8
268
100
AcDbLine
 62
253
  6
CONTINUOUS
 10
134.3564368223
 20
93.0729965284
 11
139.0486773571
 21
95.4003824254
  0
LINE
  5
49C
100
AcDbEntity
  8
268
100
AcDbLine
 62
253
  6
CONTINUOUS
 10
134.3564368223
 20
92.9511218007
 11
139.1328289247
 21
95.3202474955
  0
LWPOLYLINE
  5
49D
100
AcDbEntity
  8
0
100
AcDbPolyline
 62
253
  6
CONTINUOUS
 90
42
 70
0
 10
150.1484116061
 20
130.9752475633
 10
150.1528991724
 20
130.9750670062
 10
150.1606081916
 20
130.9745742932
 10
150.1682931423
 20
130.9739173327
 10
150.1759255309
 20
130.9731011017
 10
150.1835333191
 20
130.9721202023
 10
150.1911758111
 20
130.9709774128
 10
150.1988312883
 20
130.9696837183
 10
150.20652077
 20
130.9682276004
 10
150.2143673903
 20
130.9665778871
 10
150.2223734689
 20
130.9647430771
 10
150.2305354333
 20
130.9627137491
 10
150.2389670424
 20
130.9604314632
 10
150.2476741543
 20
130.9579025668
 10
150.2566487953
 20
130.9551191833
 10
150.2659832191
 20
130.9520009866
 10
150.2756971408
 20
130.9485461597
 10
150.2857674184
 20
130.9447540862
 10
150.2962211462
 20
130.9405456096
 10
150.3070666199
 20
130.9359184206
 10
150.3182906384
 20
130.9308714275
 10
150.3298871594
 20
130.9253266723
 10
150.3418476751
 20
130.9192891698
 10
150.3541740851
 20
130.9127494775
 10
150.3668747866
 20
130.9056071576
 10
150.3799691283
 20
130.8978492436
 10
150.393428469
 20
130.8894827395
 10
150.4071880245
 20
130.8804364033
 10
150.4212611806
 20
130.8706922257
 10
150.4356229121
 20
130.8602611889
 10
150.4501503635
 20
130.849115325
 10
150.4648813187
 20
130.8372015202
 10
150.4797646232
 20
130.8245654583
 10
150.4945459296
 20
130.8113286694
 10
150.5092238564
 20
130.7974550369
 10
150.5237893225
 20
130.7829757665
 10
150.5379816287
 20
130.7681165496
 10
150.5517417012
 20
130.7529153531
 10
150.5651248308
 20
130.7373336056
 10
150.5780466468
 20
130.7214849374
 10
150.5904855235
 20
130.7053914779
 10
150.5984945559
 20
130.6944514683
  0
LINE
  5
49E
100
AcDbEntity
  8
268
100
AcDbLine
 62
7
  6
CONTINUOUS
 10
118.8292722349
 20
135.4764798255
 11
118.2069542028
 21
135.606420408
  0
LWPOLYLINE
  5
49F
100
AcDbEntity
  8
RACCORDO
100
AcDbPolyline
 62
7
  6
CONTINUOUS
 90
67
 70
0
 10
128.9653063814
 20
134.7338438691
 10
128.9556135719
 20
134.7385822829
 10
128.9388977142
 20
134.7462685495
 10
128.9217507652
 20
134.7535594405
 10
128.9042001765
 20
134.7604493788
 10
128.8862536046
 20
134.7669432996
 10
128.8678994799
 20
134.7730529978
 10
128.849156773
 20
134.7787797373
 10
128.8300460392
 20
134.7841258315
 10
128.8105616206
 20
134.789101204
 10
128.7907430331
 20
134.793704294
 10
128.7705871182
 20
134.7979444348
 10
128.7500262227
 20
134.8018409815
 10
128.729110915
 20
134.8053878432
 10
128.7078184146
 20
134.8085921479
 10
128.6859704537
 20
134.8114773555
 10
128.6635335549
 20
134.8140380527
 10
128.6405620907
 20
134.8162582265
 10
128.6170103069
 20
134.818132088
 10
128.5927677984
 20
134.8196535345
 10
128.5679679596
 20
134.820799123
 10
128.5429338035
 20
134.8215491407
 10
128.5176656567
 20
134.8219053101
 10
128.4921883817
 20
134.8218681255
 10
128.4668622305
 20
134.8214463362
 10
128.4417670548
 20
134.8206577415
 10
128.4168418534
 20
134.819515514
 10
128.3922336136
 20
134.8180417047
 10
128.367978527
 20
134.8162561625
 10
128.3440522583
 20
134.8141736478
 10
128.3205098231
 20
134.811814916
 10
128.2973631596
 20
134.809197394
 10
128.2746069692
 20
134.8063359089
 10
128.2522700156
 20
134.8032491385
 10
128.2303661912
 20
134.7999541475
 10
128.2088841106
 20
134.796463792
 10
128.1878150819
 20
134.7927903364
 10
128.1671601412
 20
134.7889470555
 10
128.1469189325
 20
134.7849466114
 10
128.1270819241
 20
134.7807993582
 10
128.1076485729
 20
134.7765169821
 10
128.0886190606
 20
134.7721110965
 10
128.0699863699
 20
134.7675913542
 10
128.0517461191
 20
134.7629676357
 10
128.033901964
 20
134.7582516838
 10
128.016460216
 20
134.7534560522
 10
127.9994141551
 20
134.7485896994
 10
127.9827693588
 20
134.7436649496
 10
127.9665511439
 20
134.7387004572
 10
127.9507782287
 20
134.7337137345
 10
127.9354291346
 20
134.7287096702
 10
127.9204707185
 20
134.7236882852
 10
127.905914061
 20
134.7186637795
 10
127.891748555
 20
134.7136429612
 10
127.8779135096
 20
134.7086137988
 10
127.8644102882
 20
134.7035854939
 10
127.8512453224
 20
134.6985693036
 10
127.8383720824
 20
134.6935559109
 10
127.8258102327
 20
134.6885611358
 10
127.8135571432
 20
134.683592405
 10
127.8015419654
 20
134.6786287262
 10
127.7897968294
 20
134.6736908505
 10
127.7783253242
 20
134.6687883668
 10
127.7670296656
 20
134.6638868636
 10
127.7559523039
 20
134.6590119729
 10
127.7451246093
 20
134.6541858328
 10
127.7239641951
 20
134.6446002062
  0
LINE
  5
4A0
100
AcDbEntity
  8
RACCORDO
100
AcDbLine
 62
253
  6
CONTINUOUS
 10
128.9642693442
 20
134.7343508337
 11
128.965303342
 21
134.7338453925
  0
LINE
  5
4A1
100
AcDbEntity
  8
RACCORDO
100
AcDbLine
 62
253
  6
CONTINUOUS
 10
130.8889969313
 20
133.7240386439
 11
128.8757694769
 21
134.7306387515
  0
LINE
  5
4A2
100
AcDbEntity
  8
RACCORDO
100
AcDbLine
 62
7
  6
CONTINUOUS
 10
130.9373010695
 20
133.7478465288
 11
128.965303342
 21
134.7338453925
  0
LINE
  5
4A3
100
AcDbEntity
  8
268
100
AcDbLine
 62
7
  6
CONTINUOUS
 10
131.464745691
 20
134.0078106081
 11
128.6642272337
 21
135.4080698368
  0
LINE
  5
4A4
100
AcDbEntity
  8
0
100
AcDbLine
 62
7
  6
CONTINUOUS
 10
139.9243091559
 20
130.1503116234
 11
140.0867239178
 21
130.0691042425
  0
LINE
  5
4A5
100
AcDbEntity
  8
268
100
AcDbLine
 62
7
  6
CONTINUOUS
 10
128.3106738431
 20
136.1374047214
 11
128.6642272337
 21
135.9606280261
  0
LINE
  5
4A6
100
AcDbEntity
  8
0
100
AcDbLine
 62
7
  6
CONTINUOUS
 10
139.0963032881
 20
131.5784104974
 11
138.4512886194
 21
131.9009178317
  0
LINE
  5
4A7
100
AcDbEntity
  8
268
100
AcDbLine
 62
7
  6
CONTINUOUS
 10
132.8725613872
 20
134.7016872665
 11
130.0620117402
 21
136.10696209
  0
LINE
  5
4A8
100
AcDbEntity
  8
0
100
AcDbLine
 62
7
  6
CONTINUOUS
 10
138.5210143545
 20
131.8854038822
 11
138.616244548
 21
131.8377887854
  0
LINE
  5
4A9
100
AcDbEntity
  8
0
100
AcDbLine
 62
7
  6
CONTINUOUS
 10
138.905310994
 20
132.050744224
 11
138.8215484746
 21
132.0926254837
  0
LWPOLYLINE
  5
4AA
100
AcDbEntity
  8
268
100
AcDbPolyline
 62
7
  6
CONTINUOUS
 90
4
 70
0
 10
139.0674120493
 20
132.3182225003
 10
139.0668955922
 20
132.3186147282
 10
139.0609904088
 20
132.3230336103
 10
139.0486773571
 20
132.3321186999
  0
LWPOLYLINE
  5
4AB
100
AcDbEntity
  8
268
100
AcDbPolyline
 62
7
  6
CONTINUOUS
 90
17
 70
0
 10
139.1315658361
 20
132.8640914459
 10
139.0979285423
 20
132.9001535964
 10
139.0642449542
 20
132.9347922561
 10
139.0305150718
 20
132.9680074249
 10
138.9966701701
 20
132.9998147288
 10
138.962778974
 20
133.0301985419
 10
138.929047659
 20
133.0591119861
 10
138.8954958636
 20
133.0865311614
 10
138.8621039492
 20
133.1124799677
 10
138.8290191751
 20
133.1369832262
 10
138.7962568617
 20
133.1600269331
 10
138.7638016886
 20
133.1816250921
 10
138.731754954
 20
133.2018445362
 10
138.7001278145
 20
133.2206784502
 10
138.6689091134
 20
133.2381336491
 10
138.6381666791
 20
133.2542974106
 10
138.6308940472
 20
133.2579738576
  0
LWPOLYLINE
  5
4AC
100
AcDbEntity
  8
0
100
AcDbPolyline
 62
253
  6
CONTINUOUS
 90
31
 70
0
 10
142.4976848929
 20
133.0493235636
 10
142.4840194309
 20
133.0725331941
 10
142.4700843253
 20
133.0953165775
 10
142.4558962986
 20
133.1176627312
 10
142.4414681556
 20
133.1395672109
 10
142.4268198368
 20
133.1610146915
 10
142.4119792278
 20
133.1819798173
 10
142.3970009016
 20
133.2024046152
 10
142.381864613
 20
133.222335524
 10
142.3664808657
 20
133.2418985951
 10
142.3508283911
 20
133.2611198736
 10
142.334948882
 20
133.2799474518
 10
142.3188414992
 20
133.2983828614
 10
142.3025118001
 20
133.3164191902
 10
142.2859754237
 20
133.3340386088
 10
142.2692464834
 20
133.3512260568
 10
142.2523385623
 20
133.3679678678
 10
142.2352605284
 20
133.3842555183
 10
142.2180195972
 20
133.4000820247
 10
142.2006195305
 20
133.4154432658
 10
142.1830792958
 20
133.4303217776
 10
142.1654294076
 20
133.444692276
 10
142.1477541758
 20
133.4584913
 10
142.1299942698
 20
133.4717705897
 10
142.1119618197
 20
133.484662551
 10
142.0936159561
 20
133.4971755324
 10
142.0750166064
 20
133.5092480314
 10
142.0561243117
 20
133.5208852215
 10
142.0369336674
 20
133.5320660108
 10
142.0174739828
 20
133.5427483203
 10
141.9977588758
 20
133.5529004518
  0
LWPOLYLINE
  5
4AD
100
AcDbEntity
  8
0
100
AcDbPolyline
 62
7
  6
CONTINUOUS
 90
28
 70
0
 10
142.6035382895
 20
133.0892523374
 10
142.5938803579
 20
133.1056572234
 10
142.5800848286
 20
133.1282574731
 10
142.5658792644
 20
133.1505817925
 10
142.5512683102
 20
133.1726176844
 10
142.53625858
 20
133.1943500778
 10
142.5208581637
 20
133.215761605
 10
142.505072451
 20
133.2368386789
 10
142.4889071768
 20
133.257567454
 10
142.4723702229
 20
133.2779307962
 10
142.4554667236
 20
133.2979153682
 10
142.4382024001
 20
133.3175067932
 10
142.4205853639
 20
133.3366876578
 10
142.4026157207
 20
133.3554494387
 10
142.3843035441
 20
133.373772216
 10
142.3656719247
 20
133.3916246007
 10
142.3467217699
 20
133.4089978356
 10
142.327463125
 20
133.4258738367
 10
142.307933736
 20
133.4422127322
 10
142.2881398039
 20
133.4580035272
 10
142.2680877844
 20
133.4732346731
 10
142.2478168899
 20
133.4878715989
 10
142.2273344737
 20
133.5019050213
 10
142.206646819
 20
133.5153263194
 10
142.1857922953
 20
133.5281073525
 10
142.1647889593
 20
133.5402352892
 10
142.1436357131
 20
133.551709164
 10
142.12822222
 20
133.5596086883
  0
LINE
  5
4AE
100
AcDbEntity
  8
0
100
AcDbLine
 62
253
  6
CONTINUOUS
 10
142.6372973383
 20
132.8085277113
 11
142.4976848915
 21
133.0493235629
  0
LINE
  5
4AF
100
AcDbEntity
  8
0
100
AcDbLine
 62
7
  6
CONTINUOUS
 10
142.6313372033
 20
133.0413063059
 11
142.6035382318
 21
133.0892524395
  0
LINE
  5
4B0
100
AcDbEntity
  8
0
100
AcDbLine
 62
7
  6
CONTINUOUS
 10
151.1905578857
 20
130.2130096067
 11
151.1905578857
 21
123.8368409172
  0
LINE
  5
4B1
100
AcDbEntity
  8
0
100
AcDbLine
 62
253
  6
CONTINUOUS
 10
149.6716685014
 20
101.1065643372
 11
149.650061482
 21
101.0903282787
  0
LWPOLYLINE
  5
4B2
100
AcDbEntity
  8
0
100
AcDbPolyline
 62
7
  6
CONTINUOUS
 90
37
 70
0
 10
149.6724375072
 20
101.1042411046
 10
149.6918008571
 20
101.1186514945
 10
149.7153436719
 20
101.1372262422
 10
149.7384546005
 20
101.1566565235
 10
149.7611132934
 20
101.1769397689
 10
149.7832986467
 20
101.1980713575
 10
149.8049892284
 20
101.220044761
 10
149.8261660702
 20
101.2428549854
 10
149.8468116907
 20
101.2664976318
 10
149.8669083192
 20
101.290966776
 10
149.886438982
 20
101.3162569883
 10
149.9053866545
 20
101.342362051
 10
149.9237350473
 20
101.3692750924
 10
149.9414681338
 20
101.3969890002
 10
149.9585711906
 20
101.4254981992
 10
149.9750311022
 20
101.4547986331
 10
149.9908367894
 20
101.4848905318
 10
150.0059701553
 20
101.5157610186
 10
150.0204097391
 20
101.5473857814
 10
150.0341486227
 20
101.5797702796
 10
150.0471684759
 20
101.6128940759
 10
150.0594368924
 20
101.6466898935
 10
150.070943589
 20
101.6811383829
 10
150.0816839747
 20
101.7162366985
 10
150.0916412715
 20
101.7519373537
 10
150.100810478
 20
101.7882267263
 10
150.1091870361
 20
101.8250929895
 10
150.1167598254
 20
101.8624878098
 10
150.1235264986
 20
101.9003966619
 10
150.129484879
 20
101.9388054373
 10
150.1346286588
 20
101.9776629569
 10
150.1389578682
 20
102.0169526567
 10
150.1424728649
 20
102.0566594132
 10
150.1451720407
 20
102.096731372
 10
150.1470573336
 20
102.1371394462
 10
150.1481324662
 20
102.1778766673
 10
150.1484115864
 20
102.2120120625
  0
LINE
  5
4B3
100
AcDbEntity
  8
0
100
AcDbLine
 62
253
  6
CONTINUOUS
 10
149.6500614854
 20
101.0903282806
 11
148.6050373931
 21
100.3329524292
  0
LWPOLYLINE
  5
4B4
100
AcDbEntity
  8
0
100
AcDbPolyline
 62
253
  6
CONTINUOUS
 90
4
 70
0
 10
148.6050373871
 20
100.332952426
 10
148.5918168506
 20
100.3237829489
 10
148.5782606347
 20
100.3152097142
 10
148.5643779929
 20
100.3072385267
  0
LWPOLYLINE
  5
4B5
100
AcDbEntity
  8
0
100
AcDbPolyline
 62
253
  6
CONTINUOUS
 90
4
 70
0
 10
149.6724333488
 20
101.1042380692
 10
149.6651238223
 20
101.0992025869
 10
149.6577037641
 20
101.0945932984
 10
149.6500630705
 20
101.0903294294
  0
LWPOLYLINE
  5
4B6
100
AcDbEntity
  8
0
100
AcDbPolyline
 62
253
  6
CONTINUOUS
 90
4
 70
0
 10
148.6274025164
 20
100.3468573331
 10
148.6200965155
 20
100.3418244058
 10
148.612676457
 20
100.3372151171
 10
148.6050357632
 20
100.3329512479
  0
LINE
  5
4B7
100
AcDbEntity
  8
268
100
AcDbLine
 62
7
  6
CONTINUOUS
 10
132.6947358865
 20
89.6947377952
 11
131.8815630881
 21
89.1658666648
  0
LINE
  5
4B8
100
AcDbEntity
  8
268
100
AcDbLine
 62
253
  6
CONTINUOUS
 10
133.6493300411
 20
90.006460413
 11
134.3564368223
 21
90.3675714928
  0
LINE
  5
4B9
100
AcDbEntity
  8
268
100
AcDbLine
 62
7
  6
CONTINUOUS
 10
133.559366073
 20
89.8176503364
 11
134.2664728552
 21
90.1787614167
  0
LINE
  5
4BA
100
AcDbEntity
  8
268
100
AcDbLine
 62
7
  6
CONTINUOUS
 10
133.559361267
 20
89.8176478815
 11
133.5573536701
 21
89.8166441741
  0
LINE
  5
4BB
100
AcDbEntity
  8
268
100
AcDbLine
 62
253
  6
CONTINUOUS
 10
131.8815630881
 20
89.1414711595
 11
133.6493300411
 21
90.006460413
  0
LINE
  5
4BC
100
AcDbEntity
  8
268
100
AcDbLine
 62
7
  6
CONTINUOUS
 10
131.7895821691
 20
88.9516526952
 11
133.5573491235
 21
89.8166419494
  0
LWPOLYLINE
  5
4BD
100
AcDbEntity
  8
RACCORDO
100
AcDbPolyline
 62
253
  6
CONTINUOUS
 90
16
 70
0
 10
124.5775413631
 20
87.8447440052
 10
124.5151187773
 20
87.8202577665
 10
124.4474100774
 20
87.799103093
 10
124.3751407418
 20
87.7815066507
 10
124.2990851146
 20
87.7676569803
 10
124.2200581089
 20
87.7577024767
 10
124.1389064752
 20
87.7517497995
 10
124.0564997288
 20
87.7498627297
 10
123.9737208331
 20
87.7520614868
 10
123.8914567391
 20
87.7583225118
 10
123.8105888816
 20
87.7685787196
 10
123.7319837354
 20
87.782720218
 10
123.6564835308
 20
87.8005954851
 10
123.5848972299
 20
87.8220129926
 10
123.5179918582
 20
87.8467432584
 10
123.4564842865
 20
87.8745213052
  0
LWPOLYLINE
  5
4BE
100
AcDbEntity
  8
ASSI
100
AcDbPolyline
 62
253
  6
CONTINUOUS
 90
16
 70
0
 10
124.5775413631
 20
87.8447440052
 10
124.5151187773
 20
87.8202577665
 10
124.4474100774
 20
87.799103093
 10
124.3751407418
 20
87.7815066507
 10
124.2990851146
 20
87.7676569803
 10
124.2200581089
 20
87.7577024767
 10
124.1389064752
 20
87.7517497995
 10
124.0564997288
 20
87.7498627297
 10
123.9737208331
 20
87.7520614868
 10
123.8914567391
 20
87.7583225118
 10
123.8105888816
 20
87.7685787196
 10
123.7319837354
 20
87.782720218
 10
123.6564835308
 20
87.8005954851
 10
123.5848972299
 20
87.8220129926
 10
123.5179918582
 20
87.8467432584
 10
123.4564842865
 20
87.8745213052
  0
LINE
  5
4BF
100
AcDbEntity
  8
RACCORDO
100
AcDbLine
 62
253
  6
CONTINUOUS
 10
125.0203154885
 20
87.4332378075
 11
129.0574152516
 21
88.7854204137
  0
LINE
  5
4C0
100
AcDbEntity
  8
ASSI
100
AcDbLine
 62
253
  6
CONTINUOUS
 10
125.0203154885
 20
87.4332378075
 11
129.0574152516
 21
88.7854204137
  0
LINE
  5
4C1
100
AcDbEntity
  8
RACCORDO
100
AcDbLine
 62
253
  6
CONTINUOUS
 10
128.2113107135
 20
134.7371368097
 11
128.2214932587
 21
134.7399854041
  0
LWPOLYLINE
  5
4C2
100
AcDbEntity
  8
RACCORDO
100
AcDbPolyline
 62
253
  6
CONTINUOUS
 90
3
 70
0
 10
128.2214932587
 20
134.7399854041
 10
128.23186516
 20
134.7427911784
 10
128.2371222263
 20
134.7441774773
  0
LWPOLYLINE
  5
4C3
100
AcDbEntity
  8
RACCORDO
100
AcDbPolyline
 62
253
  6
CONTINUOUS
 90
4
 70
0
 10
128.2371222263
 20
134.7441774773
 10
128.2477788217
 20
134.7469124625
 10
128.2531783507
 20
134.7482611488
 10
128.2586252135
 20
134.7495957576
  0
LWPOLYLINE
  5
4C4
100
AcDbEntity
  8
RACCORDO
100
AcDbPolyline
 62
253
  6
CONTINUOUS
 90
128
 70
0
 10
128.2586252135
 20
134.7495957576
 10
128.2696610915
 20
134.7522227785
 10
128.2752496727
 20
134.753513585
 10
128.2808854296
 20
134.7547887669
 10
128.2865681618
 20
134.7560482836
 10
128.2922969108
 20
134.7572904258
 10
128.2980718379
 20
134.7585152158
 10
128.3038927817
 20
134.7597226312
 10
128.3097582992
 20
134.7609108956
 10
128.3156682096
 20
134.7620799646
 10
128.3216226937
 20
134.7632298825
 10
128.3276208507
 20
134.7643590064
 10
128.3336629124
 20
134.7654673734
 10
128.339748647
 20
134.7665549463
 10
128.3458764586
 20
134.7676199711
 10
128.3520546654
 20
134.7686636219
 10
128.3582749493
 20
134.7696847245
 10
128.3645107597
 20
134.7706780023
 10
128.3707585246
 20
134.7716425078
 10
128.3770218161
 20
134.7725791885
 10
128.3832847997
 20
134.7734856104
 10
128.3895449828
 20
134.7743612124
 10
128.395804858
 20
134.7752065556
 10
128.4020560692
 20
134.7760208891
 10
128.4082975162
 20
134.7768039735
 10
128.4145302992
 20
134.7775560482
 10
128.4207493618
 20
134.778277081
 10
128.426954328
 20
134.7789669744
 10
128.4331455738
 20
134.7796258259
 10
128.4393191701
 20
134.7802538956
 10
128.445474723
 20
134.7808511119
 10
128.4516126264
 20
134.7814175464
 10
128.4577301334
 20
134.7819536734
 10
128.4638269684
 20
134.7824594559
 10
128.4699034071
 20
134.782934931
 10
128.4759575297
 20
134.7833806843
 10
128.4819897134
 20
134.7837967257
 10
128.487999581
 20
134.7841830454
 10
128.4939840821
 20
134.784540199
 10
128.4999430251
 20
134.7848681527
 10
128.5058766015
 20
134.7851669403
 10
128.5117823355
 20
134.7854372191
 10
128.5176600586
 20
134.7856789679
 10
128.5235099392
 20
134.7858922079
 10
128.5293300071
 20
134.7860776598
 10
128.535120341
 20
134.7862353133
 10
128.5408808623
 20
134.7863651787
 10
128.5466093642
 20
134.7864680077
 10
128.5523058694
 20
134.7865437837
 10
128.5579703553
 20
134.7865925233
 10
128.5636005472
 20
134.7866150281
 10
128.5691963195
 20
134.7866112819
 10
128.5747577977
 20
134.7865813008
 10
128.5802830832
 20
134.7865259345
 10
128.5857719836
 20
134.7864451765
 10
128.5912246912
 20
134.7863390334
 10
128.5966398845
 20
134.7862083741
 10
128.6020175086
 20
134.7860531962
 10
128.6073576184
 20
134.7858735022
 10
128.6126590564
 20
134.7856701681
 10
128.6179221057
 20
134.78544317
 10
128.6231464833
 20
134.7851925318
 10
128.6283301835
 20
134.7849192018
 10
128.6334729966
 20
134.7846231746
 10
128.6385751323
 20
134.7843044555
 10
128.6436352143
 20
134.7839640092
 10
128.6486530299
 20
134.7836018433
 10
128.6536287918
 20
134.7832179503
 10
128.6585617616
 20
134.782813272
 10
128.6634518559
 20
134.7823878148
 10
128.6682991582
 20
134.7819415723
 10
128.6731031805
 20
134.7814754683
 10
128.6778638705
 20
134.7809895089
 10
128.6825812805
 20
134.7804836878
 10
128.6872550794
 20
134.7799589104
 10
128.6918852105
 20
134.7794151853
 10
128.6964717305
 20
134.7788525039
 10
128.7010144778
 20
134.7782717457
 10
128.7055133731
 20
134.7776729254
 10
128.7099684957
 20
134.7770560283
 10
128.7143799219
 20
134.7764218904
 10
128.7187476002
 20
134.7757705256
 10
128.723071582
 20
134.77510192
 10
128.727352098
 20
134.7744168669
 10
128.7315891108
 20
134.7737153804
 10
128.7357826578
 20
134.7729974465
 10
128.7399330819
 20
134.7722638171
 10
128.7440403336
 20
134.7715145104
 10
128.7481044623
 20
134.7707495081
 10
128.7521259596
 20
134.7699695078
 10
128.7561047886
 20
134.7691745277
 10
128.7600409862
 20
134.7683645495
 10
128.7639351539
 20
134.7675402157
 10
128.767787251
 20
134.7667015481
 10
128.7715973183
 20
134.7658485249
 10
128.7753660804
 20
134.7649817235
 10
128.7790934954
 20
134.7641011692
 10
128.7827796051
 20
134.7632068366
 10
128.7864252599
 20
134.7622992274
 10
128.7900304434
 20
134.7613783633
 10
128.793595172
 20
134.7604442227
 10
128.7971203445
 20
134.7594972421
 10
128.8006059607
 20
134.7585374402
 10
128.8040520209
 20
134.7575647983
 10
128.8074594252
 20
134.7565796972
 10
128.8108281637
 20
134.7555821595
 10
128.8141582463
 20
134.7545721626
 10
128.8174506026
 20
134.7535500201
 10
128.8207052253
 20
134.7525157554
 10
128.8239221218
 20
134.7514693451
 10
128.8271022441
 20
134.7504110317
 10
128.8302456002
 20
134.7493408351
 10
128.8333521821
 20
134.7482587354
 10
128.8364229174
 20
134.7471649147
 10
128.8394578293
 20
134.7460593876
 10
128.8424568946
 20
134.7449421395
 10
128.8454209715
 20
134.7438133083
 10
128.8483500955
 20
134.742672903
 10
128.8512442311
 20
134.7415209147
 10
128.8541041298
 20
134.7403574537
 10
128.8569298174
 20
134.7391825303
 10
128.8597212682
 20
134.7379961342
 10
128.8624791568
 20
134.7367983447
 10
128.8652034957
 20
134.73558918
 10
128.8678942724
 20
134.7343686219
 10
128.8705521241
 20
134.733136695
 10
128.873177263
 20
134.7318934076
 10
128.8757694769
 20
134.7306387515
  0
LWPOLYLINE
  5
4C5
100
AcDbEntity
  8
268
100
AcDbPolyline
 62
7
  6
CONTINUOUS
 90
13
 70
0
 10
138.3845789476
 20
133.3453513295
 10
138.3499281376
 20
133.3517810107
 10
138.3147239146
 20
133.3571641634
 10
138.2790040627
 20
133.3615263043
 10
138.2427787458
 20
133.3649202274
 10
138.2061110077
 20
133.3673499771
 10
138.1691147978
 20
133.3687612063
 10
138.1318277628
 20
133.3691713412
 10
138.094276781
 20
133.3686074597
 10
138.0565560801
 20
133.3670154715
 10
138.0187167053
 20
133.3643863805
 10
137.9807675191
 20
133.3607643993
 10
137.9427380797
 20
133.3561696098
  0
LWPOLYLINE
  5
4C6
100
AcDbEntity
  8
268
100
AcDbPolyline
 62
7
  6
CONTINUOUS
 90
18
 70
0
 10
131.1620602087
 20
136.9923685508
 10
131.1424981244
 20
137.0014582838
 10
131.1196023442
 20
137.0104436985
 10
131.0960930579
 20
137.0179459313
 10
131.0719517358
 20
137.0239801011
 10
131.0472619824
 20
137.0285258855
 10
131.0220005562
 20
137.0315798689
 10
130.9961906987
 20
137.0331454669
 10
130.9699857398
 20
137.0332126034
 10
130.9434017772
 20
137.0317738275
 10
130.9164227132
 20
137.0288365901
 10
130.8891535846
 20
137.0244131689
 10
130.8615794049
 20
137.0184947832
 10
130.8337151606
 20
137.0110902137
 10
130.8057108476
 20
137.0022380791
 10
130.7776164644
 20
136.9919512524
 10
130.7493820124
 20
136.9802168607
 10
130.7210074916
 20
136.9670349039
  0
LWPOLYLINE
  5
4C7
100
AcDbEntity
  8
268
100
AcDbPolyline
 62
7
  6
CONTINUOUS
 90
10
 70
0
 10
138.6308940472
 20
133.2579738576
 10
138.607914368
 20
133.2691652898
 10
138.5781383237
 20
133.2827417316
 10
138.5488648046
 20
133.2951273483
 10
138.5200747966
 20
133.3063291449
 10
138.4917873139
 20
133.3163401164
 10
138.4640856576
 20
133.3252398608
 10
138.4369975946
 20
133.3330549108
 10
138.4104953579
 20
133.3397587337
 10
138.3845789476
 20
133.3453513295
  0
LINE
  5
4C8
100
AcDbEntity
  8
268
100
AcDbLine
 62
7
  6
CONTINUOUS
 10
131.4219436804
 20
136.1807102774
 11
133.6316845685
 21
135.0758398333
  0
LINE
  5
4C9
100
AcDbEntity
  8
268
100
AcDbLine
 62
7
  6
CONTINUOUS
 10
134.3772693916
 20
134.7030474218
 11
134.5230828017
 21
134.6301407167
  0
LINE
  5
4CA
100
AcDbEntity
  8
268
100
AcDbLine
 62
7
  6
CONTINUOUS
 10
128.5544859347
 20
137.87768283
 11
128.7349379118
 21
137.7874568414
  0
LINE
  5
4CB
100
AcDbEntity
  8
268
100
AcDbLine
 62
7
  6
CONTINUOUS
 10
134.1089494489
 20
135.1004510729
 11
134.289401426
 21
135.0102250843
  0
LINE
  5
4CC
100
AcDbEntity
  8
0
100
AcDbLine
 62
7
  6
CONTINUOUS
 10
133.7958750862
 20
135.2974524295
 11
134.8300718125
 21
134.7803540663
  0
LINE
  5
4CD
100
AcDbEntity
  8
0
100
AcDbLine
 62
7
  6
CONTINUOUS
 10
139.132875417
 20
132.6289522641
 11
139.4122503078
 21
132.4892648187
  0
LINE
  5
4CE
100
AcDbEntity
  8
268
100
AcDbLine
 62
253
  6
CONTINUOUS
 10
127.7419175907
 20
138.4565798543
 11
130.7210074916
 21
136.9670349039
  0
LINE
  5
4CF
100
AcDbEntity
  8
268
100
AcDbLine
 62
253
  6
CONTINUOUS
 10
134.9636481787
 20
134.8457145603
 11
137.9427380797
 21
133.3561696098
  0
LINE
  5
4D0
100
AcDbEntity
  8
268
100
AcDbLine
 62
7
  6
CONTINUOUS
 10
135.4046911818
 20
134.8710640269
 11
138.6311810739
 21
133.2578190808
  0
LWPOLYLINE
  5
4D1
100
AcDbEntity
  8
0
100
AcDbPolyline
 62
253
  6
CONTINUOUS
 90
26
 70
0
 10
142.6035382318
 20
133.0892524395
 10
142.6034596447
 20
133.0893766317
 10
142.6027828848
 20
133.0900007267
 10
142.6017537597
 20
133.0904189067
 10
142.6003736709
 20
133.0906306022
 10
142.5986444978
 20
133.090635525
 10
142.5965685947
 20
133.0904336684
 10
142.5941487883
 20
133.0900253072
 10
142.5913883729
 20
133.0894109974
 10
142.5882911075
 20
133.0885915754
 10
142.5848612107
 20
133.0875681573
 10
142.5811033545
 20
133.0863421374
 10
142.5770226548
 20
133.0849151848
 10
142.5726246651
 20
133.0832892415
 10
142.5679153712
 20
133.0814665203
 10
142.5629011871
 20
133.0794495035
 10
142.5575889442
 20
133.0772409391
 10
142.5519858783
 20
133.0748438355
 10
142.5460996171
 20
133.0722614561
 10
142.5399381737
 20
133.0694973164
 10
142.5335099367
 20
133.0665551796
 10
142.5268236601
 20
133.0634390523
 10
142.5198884487
 20
133.0601531778
 10
142.512713746
 20
133.0567020303
 10
142.5053093214
 20
133.0530903092
 10
142.4976852572
 20
133.0493229322
  0
LINE
  5
4D2
100
AcDbEntity
  8
268
100
AcDbLine
 62
7
  6
CONTINUOUS
 10
133.2604213114
 20
88.165743537
 11
133.7886884832
 21
88.4367545957
  0
LINE
  5
4D3
100
AcDbEntity
  8
268
100
AcDbLine
 62
7
  6
CONTINUOUS
 10
131.6591405206
 20
87.3857089374
 11
133.2604213114
 21
88.165743537
  0
LINE
  5
4D4
100
AcDbEntity
  8
RACCORDO
100
AcDbLine
 62
7
  6
CONTINUOUS
 10
128.7595779479
 20
88.3145796011
 11
124.7181393141
 21
86.9609441171
  0
LINE
  5
4D5
100
AcDbEntity
  8
ASSI
100
AcDbLine
 62
7
  6
CONTINUOUS
 10
128.7595779479
 20
88.3145796011
 11
124.7168400663
 21
86.9605138815
  0
LINE
  5
4D6
100
AcDbEntity
  8
268
100
AcDbLine
 62
7
  6
CONTINUOUS
 10
130.0620117402
 20
136.10696209
 11
131.4219436804
 21
136.1807102774
  0
LWPOLYLINE
  5
4D7
100
AcDbEntity
  8
0
100
AcDbPolyline
 62
7
  6
CONTINUOUS
 90
37
 70
0
 10
140.6319168173
 20
134.3077506004
 10
140.625359605
 20
134.3109117042
 10
140.6187375472
 20
134.3139746101
 10
140.6120554322
 20
134.3169427997
 10
140.6053152687
 20
134.3198155327
 10
140.5985190409
 20
134.3225918595
 10
140.5916713364
 20
134.325274892
 10
140.5847740082
 20
134.327863998
 10
140.5778289444
 20
134.3303583612
 10
140.5708406523
 20
134.3327607673
 10
140.5638108585
 20
134.3350706806
 10
140.55674136
 20
134.3372874106
 10
140.5496366646
 20
134.3394134694
 10
140.5424984047
 20
134.3414484108
 10
140.535328282
 20
134.3433916671
 10
140.5281308234
 20
134.3452455385
 10
140.5209075331
 20
134.3470096796
 10
140.5136600721
 20
134.3486836269
 10
140.5063931365
 20
134.3502694908
 10
140.4991081462
 20
134.3517670217
 10
140.4918066954
 20
134.3531758714
 10
140.4844936912
 20
134.3544980119
 10
140.4771704674
 20
134.3557332984
 10
140.4698385648
 20
134.3568814991
 10
140.4625031614
 20
134.3579444922
 10
140.4551655111
 20
134.3589222466
 10
140.4478271015
 20
134.3598146546
 10
140.4404934278
 20
134.3606235458
 10
140.433165671
 20
134.3613490142
 10
140.4258452592
 20
134.3619910866
 10
140.4185380289
 20
134.3625515906
 10
140.4112450957
 20
134.3630307589
 10
140.403967816
 20
134.363428764
 10
140.3967123584
 20
134.3637474784
 10
140.3894815557
 20
134.3639877887
 10
140.3822749001
 20
134.3641495392
 10
140.3750935132
 20
134.3642331397
  0
LWPOLYLINE
  5
4D8
100
AcDbEntity
  8
0
100
AcDbPolyline
 62
7
  6
CONTINUOUS
 90
37
 70
0
 10
137.5206469801
 20
135.863385519
 10
137.5140897677
 20
135.8665466228
 10
137.50746771
 20
135.8696095287
 10
137.500785595
 20
135.8725777183
 10
137.4940454314
 20
135.8754504513
 10
137.4872492037
 20
135.8782267781
 10
137.4804014992
 20
135.8809098107
 10
137.473504171
 20
135.8834989166
 10
137.4665591071
 20
135.8859932799
 10
137.4595708151
 20
135.8883956859
 10
137.4525410212
 20
135.8907055992
 10
137.4454715228
 20
135.8929223292
 10
137.4383668273
 20
135.895048388
 10
137.4312285675
 20
135.8970833294
 10
137.4240584447
 20
135.8990265858
 10
137.4168609862
 20
135.9008804571
 10
137.4096376959
 20
135.9026445982
 10
137.4023902348
 20
135.9043185455
 10
137.3951232993
 20
135.9059044094
 10
137.387838309
 20
135.9074019404
 10
137.3805368582
 20
135.90881079
 10
137.373223854
 20
135.9101329305
 10
137.3659006302
 20
135.911368217
 10
137.3585687276
 20
135.9125164177
 10
137.3512333241
 20
135.9135794108
 10
137.3438956739
 20
135.9145571652
 10
137.3365572643
 20
135.9154495732
 10
137.3292235906
 20
135.9162584644
 10
137.3218958337
 20
135.9169839328
 10
137.3145754219
 20
135.9176260052
 10
137.3072681917
 20
135.9181865092
 10
137.2999752585
 20
135.9186656775
 10
137.2926979787
 20
135.9190636826
 10
137.2854425212
 20
135.919382397
 10
137.2782117185
 20
135.9196227073
 10
137.2710050629
 20
135.9197844578
 10
137.263823676
 20
135.9198680583
  0
LWPOLYLINE
  5
4D9
100
AcDbEntity
  8
0
100
AcDbPolyline
 62
253
  6
CONTINUOUS
 90
20
 70
0
 10
151.0247212947
 20
130.4813380989
 10
151.0228127538
 20
130.4822699402
 10
151.016518388
 20
130.4850375266
 10
151.010047844
 20
130.4874246229
 10
151.0034101748
 20
130.4894278904
 10
150.9966146716
 20
130.4910445268
 10
150.9896708336
 20
130.4922722742
 10
150.9825883553
 20
130.4931094181
 10
150.9753771146
 20
130.4935547868
 10
150.9680472244
 20
130.4936077515
 10
150.960609004
 20
130.4932682412
 10
150.9530729009
 20
130.4925367446
 10
150.9454494175
 20
130.4914142928
 10
150.9377491609
 20
130.4899024518
 10
150.9299823763
 20
130.4880031955
 10
150.922160444
 20
130.4857192693
 10
150.9142958397
 20
130.4830544236
 10
150.9064000959
 20
130.4800128158
 10
150.898483755
 20
130.4765987552
 10
150.8905578857
 20
130.4728172279
  0
LINE
  5
4DA
100
AcDbEntity
  8
0
100
AcDbLine
 62
7
  6
CONTINUOUS
 10
150.3294490451
 20
130.8289741198
 11
150.3297828955
 21
130.8288072976
  0
LINE
  5
4DB
100
AcDbEntity
  8
0
100
AcDbLine
 62
253
  6
CONTINUOUS
 10
141.9977588825
 20
133.5529004551
 11
140.3750935132
 21
134.3642331397
  0
LINE
  5
4DC
100
AcDbEntity
  8
0
100
AcDbLine
 62
253
  6
CONTINUOUS
 10
139.3760503468
 20
134.8637547229
 11
137.263823676
 21
135.9198680583
  0
LINE
  5
4DD
100
AcDbEntity
  8
0
100
AcDbLine
 62
7
  6
CONTINUOUS
 10
142.1282232737
 20
133.5596081904
 11
140.6319168173
 21
134.3077506004
  0
LINE
  5
4DE
100
AcDbEntity
  8
0
100
AcDbLine
 62
7
  6
CONTINUOUS
 10
139.3775346748
 20
134.9349524899
 11
137.5206469801
 21
135.863385519
  0
LINE
  5
4DF
100
AcDbEntity
  8
RACCORDO
100
AcDbLine
 62
253
  6
CONTINUOUS
 10
143.6774752633
 20
133.5406804944
 11
142.2562113778
 21
134.2513124371
  0
LINE
  5
4E0
100
AcDbEntity
  8
RACCORDO
100
AcDbLine
 62
253
  6
CONTINUOUS
 10
140.1631923583
 20
135.2978219469
 11
139.1449415406
 21
135.8069473558
  0
LINE
  5
4E1
100
AcDbEntity
  8
RACCORDO
100
AcDbLine
 62
253
  6
CONTINUOUS
 10
143.7914632913
 20
133.5899368581
 11
142.3411812048
 21
134.3150779014
  0
LINE
  5
4E2
100
AcDbEntity
  8
RACCORDO
100
AcDbLine
 62
253
  6
CONTINUOUS
 10
140.2736588971
 20
135.3488390552
 11
139.2299113676
 21
135.87071282
  0
LWPOLYLINE
  5
4E3
100
AcDbEntity
  8
0
100
AcDbPolyline
 62
7
  6
CONTINUOUS
 90
32
 70
0
 10
150.3298796729
 20
130.8287589098
 10
151.0260779849
 20
130.4806554599
 10
151.0358389576
 20
130.4754851487
 10
151.0454041494
 20
130.4699583071
 10
151.0547718658
 20
130.4640748747
 10
151.0639327841
 20
130.4578384135
 10
151.0728687145
 20
130.4512589755
 10
151.0815644172
 20
130.4443459526
 10
151.0900055367
 20
130.4371092152
 10
151.0981811485
 20
130.4295565549
 10
151.1060815113
 20
130.4216949363
 10
151.113694788
 20
130.4135337271
 10
151.1210088039
 20
130.4050834839
 10
151.1280133731
 20
130.3963532499
 10
151.1346978281
 20
130.3873532
 10
151.141050594
 20
130.3780956543
 10
151.1470606219
 20
130.3685934951
 10
151.152717315
 20
130.3588603304
 10
151.1580118682
 20
130.3489079778
 10
151.1629364093
 20
130.3387471902
 10
151.1674827471
 20
130.3283899392
 10
151.1716417229
 20
130.317851757
 10
151.1754047227
 20
130.3071492873
 10
151.1787645967
 20
130.2962976113
 10
151.1817149222
 20
130.2853116129
 10
151.1842494287
 20
130.2742082799
 10
151.1863628087
 20
130.2630040817
 10
151.1880506439
 20
130.2517143715
 10
151.1893090124
 20
130.2403548863
 10
151.1901346821
 20
130.2289389203
 10
151.190524482
 20
130.2174863359
 10
151.1905578857
 20
130.2130078436
  0
LWPOLYLINE
  5
4E4
100
AcDbEntity
  8
0
100
AcDbPolyline
 62
253
  6
CONTINUOUS
 90
43
 70
0
 10
150.1484116061
 20
130.8438903677
 10
150.898626978
 20
130.4687394297
 10
150.9066847849
 20
130.4643039703
 10
150.9147200369
 20
130.459517053
 10
150.9227214959
 20
130.4543853728
 10
150.9306779712
 20
130.4489161067
 10
150.938578335
 20
130.443116904
 10
150.9464115378
 20
130.4369958755
 10
150.9541666242
 20
130.4305615819
 10
150.961832748
 20
130.4238230222
 10
150.9693991876
 20
130.4167896209
 10
150.9768553604
 20
130.4094712148
 10
150.9841908384
 20
130.4018780394
 10
150.9913953622
 20
130.3940207144
 10
150.9984588557
 20
130.385910229
 10
151.00537144
 20
130.3775579264
 10
151.0121234471
 20
130.3689754882
 10
151.0187054338
 20
130.3601749175
 10
151.0251081946
 20
130.3511685229
 10
151.0313227746
 20
130.3419689005
 10
151.0373404821
 20
130.3325889169
 10
151.0431529009
 20
130.3230416908
 10
151.0487519018
 20
130.3133405749
 10
151.0541296541
 20
130.3034991371
 10
151.0592786364
 20
130.2935311414
 10
151.0641916476
 20
130.2834505292
 10
151.0688618162
 20
130.2732713989
 10
151.0732826106
 20
130.263007987
 10
151.077447848
 20
130.2526746479
 10
151.0813517029
 20
130.2422858337
 10
151.0849887154
 20
130.231856074
 10
151.0883537987
 20
130.2213999558
 10
151.0914422466
 20
130.210932103
 10
151.0942497396
 20
130.2004671557
 10
151.0967723511
 20
130.1900197502
 10
151.099006553
 20
130.1796044981
 10
151.1009492206
 20
130.169235966
 10
151.1025976369
 20
130.1589286554
 10
151.1039494964
 20
130.1486969818
 10
151.1050029085
 20
130.1385552553
 10
151.1057563998
 20
130.1285176599
 10
151.1062089165
 20
130.1185982341
 10
151.1063598258
 20
130.1088108512
  0
LWPOLYLINE
  5
4E5
100
AcDbEntity
  8
0
100
AcDbPolyline
 62
7
  6
CONTINUOUS
 90
25
 70
0
 10
148.8904529772
 20
135.7461925488
 10
148.8891365938
 20
135.748379826
 10
148.8873746296
 20
135.7510703185
 10
148.8855361906
 20
135.7536198291
 10
148.883613568
 20
135.7560228081
 10
148.8816094933
 20
135.7582757722
 10
148.8795261556
 20
135.7603750029
 10
148.8773552301
 20
135.7623140796
 10
148.8750997754
 20
135.7640893085
 10
148.8727623135
 20
135.7656967326
 10
148.8703339553
 20
135.7671290098
 10
148.8678180884
 20
135.7683822554
 10
148.8652176575
 20
135.7694522975
 10
148.8625233896
 20
135.770330861
 10
148.8597389989
 20
135.7710138947
 10
148.8568679361
 20
135.7714970983
 10
148.8539008412
 20
135.7717713992
 10
148.8508417274
 20
135.7718326349
 10
148.8476946326
 20
135.7716765145
 10
148.8444505413
 20
135.7712934964
 10
148.8411137161
 20
135.7706794029
 10
148.8376888356
 20
135.7698301483
 10
148.8341677735
 20
135.7687362732
 10
148.8305549763
 20
135.7673937376
 10
148.8286869981
 20
135.76661564
  0
LINE
  5
4E6
100
AcDbEntity
  8
0
100
AcDbLine
 62
253
  6
CONTINUOUS
 10
149.6500614854
 20
134.2135601127
 11
148.8965069092
 21
135.5132495033
  0
LINE
  5
4E7
100
AcDbEntity
  8
0
100
AcDbLine
 62
7
  6
CONTINUOUS
 10
148.8904844649
 20
135.7461355656
 11
149.7559160452
 21
134.2534868859
  0
LWPOLYLINE
  5
4E8
100
AcDbEntity
  8
0
100
AcDbPolyline
 62
253
  6
CONTINUOUS
 90
37
 70
0
 10
149.6500614819
 20
134.2135601109
 10
149.6716685014
 20
134.1757819002
 10
149.6927874146
 20
134.1376765491
 10
149.7134081107
 20
134.0992621607
 10
149.733520564
 20
134.0605571293
 10
149.7531153155
 20
134.021579705
 10
149.772183454
 20
133.9823479726
 10
149.7907159594
 20
133.9428803531
 10
149.8087038336
 20
133.9031958056
 10
149.8261385707
 20
133.8633133857
 10
149.8430118219
 20
133.8232521138
 10
149.8593155321
 20
133.7830309632
 10
149.8750420461
 20
133.7426690508
 10
149.8901838652
 20
133.7021855724
 10
149.9047337443
 20
133.6615997672
 10
149.9186848288
 20
133.6209309069
 10
149.9320304862
 20
133.5801983113
 10
149.9447643282
 20
133.5394213746
 10
149.9568803037
 20
133.4986195284
 10
149.9683726607
 20
133.4578121918
 10
149.9792359186
 20
133.4170187744
 10
149.9894648878
 20
133.3762587013
 10
149.9990547239
 20
133.3355514078
 10
150.0080008752
 20
133.2949162348
 10
150.016299053
 20
133.2543724322
 10
150.0239453497
 20
133.2139393122
 10
150.0309361435
 20
133.1736361217
 10
150.0372680402
 20
133.1334819379
 10
150.0429380881
 20
133.0934958359
 10
150.047943607
 20
133.0536969197
 10
150.052282093
 20
133.014104193
 10
150.0559515349
 20
132.9747367654
 10
150.0589502643
 20
132.9356131536
 10
150.0612767517
 20
132.8967513249
 10
150.0629298722
 20
132.8581695922
 10
150.0639089403
 20
132.8198865933
 10
150.0642135421
 20
132.7819205991
  0
LINE
  5
4E9
100
AcDbEntity
  8
DRAFT
100
AcDbLine
 62
7
  6
CONTINUOUS
 10
146.0911046484
 20
137.787639364
 11
146.0545150499
 21
137.8571813646
  0
LINE
  5
4EA
100
AcDbEntity
  8
DRAFT
100
AcDbLine
 62
7
  6
CONTINUOUS
 10
146.3739473609
 20
137.9290607203
 11
146.3373577623
 21
137.9986027209
  0
LINE
  5
4EB
100
AcDbEntity
  8
DRAFT
100
AcDbLine
 62
7
  6
CONTINUOUS
 10
146.6567900733
 20
138.0704820765
 11
146.6202004748
 21
138.1400240771
  0
LINE
  5
4EC
100
AcDbEntity
  8
DRAFT
100
AcDbLine
 62
7
  6
CONTINUOUS
 10
146.9396327858
 20
138.2119034328
 11
146.9030431873
 21
138.2814454333
  0
LINE
  5
4ED
100
AcDbEntity
  8
DRAFT
100
AcDbLine
 62
7
  6
CONTINUOUS
 10
147.2224754983
 20
138.353324789
 11
147.1858858997
 21
138.4228667896
  0
LINE
  5
4EE
100
AcDbEntity
  8
DRAFT
100
AcDbLine
 62
7
  6
CONTINUOUS
 10
147.5053182108
 20
138.4947461452
 11
147.4687286122
 21
138.5642881458
  0
LINE
  5
4EF
100
AcDbEntity
  8
DRAFT
100
AcDbLine
 62
7
  6
CONTINUOUS
 10
149.2023744856
 20
136.2320044454
 11
149.1657848871
 21
136.301546446
  0
LINE
  5
4F0
100
AcDbEntity
  8
DRAFT
100
AcDbLine
 62
7
  6
CONTINUOUS
 10
147.0666812141
 20
136.7822020493
 11
147.1008022937
 21
136.7138943082
  0
LINE
  5
4F1
100
AcDbEntity
  8
DRAFT
100
AcDbLine
 62
7
  6
CONTINUOUS
 10
147.3495239266
 20
136.9236234056
 11
147.3836450062
 21
136.8553156645
  0
LWPOLYLINE
  5
4F2
100
AcDbEntity
  8
0
100
AcDbPolyline
 62
253
  6
CONTINUOUS
 90
19
 70
0
 10
142.635430142
 20
139.3263199439
 10
142.6290117936
 20
139.3292801576
 10
142.6226620851
 20
139.3317480566
 10
142.6161463601
 20
139.3338415352
 10
142.60947353
 20
139.3355577301
 10
142.6026527211
 20
139.3368942942
 10
142.5956932622
 20
139.3378493994
 10
142.5886046716
 20
139.3384217394
 10
142.5813966444
 20
139.3386105315
 10
142.5740790387
 20
139.3384155175
 10
142.5666618629
 20
139.337836964
 10
142.5591552613
 20
139.3368756624
 10
142.5515695006
 20
139.3355329273
 10
142.5439149557
 20
139.3338105954
 10
142.5362020957
 20
139.3317110221
 10
142.5284414693
 20
139.329237079
 10
142.5206436906
 20
139.3263921497
 10
142.5128194245
 20
139.3231801252
 10
142.5049793723
 20
139.3196053985
  0
LWPOLYLINE
  5
4F3
100
AcDbEntity
  8
0
100
AcDbPolyline
 62
253
  6
CONTINUOUS
 90
23
 70
0
 10
144.225506326
 20
139.2307034958
 10
144.2179581855
 20
139.2342640706
 10
144.2094233345
 20
139.2378018616
 10
144.200698239
 20
139.2409170895
 10
144.1917908154
 20
139.2436069487
 10
144.1827094004
 20
139.2458688982
 10
144.1734625175
 20
139.2477007888
 10
144.16405861
 20
139.2491010022
 10
144.1545065333
 20
139.2500681916
 10
144.1448152055
 20
139.2506014239
 10
144.1349933727
 20
139.250700302
 10
144.1250502263
 20
139.2503646793
 10
144.1149951007
 20
139.2495948153
 10
144.1048371244
 20
139.2483915179
 10
144.0945857857
 20
139.246755841
 10
144.0842507269
 20
139.2446892525
 10
144.0738414417
 20
139.2421937962
 10
144.0633677915
 20
139.2392717746
 10
144.0528394959
 20
139.235925835
 10
144.0422659255
 20
139.2321591208
 10
144.0316568245
 20
139.2279750857
 10
144.0210223038
 20
139.2233775155
 10
144.0103723328
 20
139.2183706099
  0
LWPOLYLINE
  5
4F4
100
AcDbEntity
  8
0
100
AcDbPolyline
 62
253
  6
CONTINUOUS
 90
22
 70
0
 10
143.8306794939
 20
139.4281169142
 10
143.8250934073
 20
139.4307978931
 10
143.8158794974
 20
139.4347500524
 10
143.8064445532
 20
139.4382281312
 10
143.7967983357
 20
139.4412285401
 10
143.7869508549
 20
139.4437481792
 10
143.7769126707
 20
139.445784293
 10
143.7666941994
 20
139.4473348056
 10
143.7563060194
 20
139.4483981512
 10
143.7457592146
 20
139.4489731054
 10
143.7350647169
 20
139.449059124
 10
143.7242336072
 20
139.4486561718
 10
143.7132774197
 20
139.4477645482
 10
143.7022074452
 20
139.4463852332
 10
143.6910352159
 20
139.4445197253
 10
143.6797728077
 20
139.4421698794
 10
143.668432098
 20
139.4393382832
 10
143.6570246403
 20
139.4360279352
 10
143.6455621423
 20
139.4322420202
 10
143.6340564396
 20
139.4279843905
 10
143.6225194916
 20
139.4232596297
 10
143.6109632547
 20
139.4180726999
  0
LWPOLYLINE
  5
4F5
100
AcDbEntity
  8
0
100
AcDbPolyline
 62
7
  6
CONTINUOUS
 90
37
 70
0
 10
146.676365239
 20
137.3058415779
 10
146.6698080402
 20
137.3090019346
 10
146.6631859588
 20
137.3120661566
 10
146.656503854
 20
137.3150337772
 10
146.6497637028
 20
137.3179058197
 10
146.642967453
 20
137.3206833755
 10
146.6361197582
 20
137.3233658695
 10
146.6292224415
 20
137.3259543339
 10
146.6222773569
 20
137.3284498508
 10
146.6152890741
 20
137.3308517448
 10
146.608259291
 20
137.3331610584
 10
146.601189773
 20
137.3353788767
 10
146.5940850863
 20
137.3375044469
 10
146.5869468366
 20
137.3395388244
 10
146.5797766953
 20
137.3414831113
 10
146.5725792452
 20
137.343336516
 10
146.5653559645
 20
137.3451001249
 10
146.5581084858
 20
137.3467750513
 10
146.5508415583
 20
137.3483604683
 10
146.543556577
 20
137.3498574946
 10
146.5362551095
 20
137.3512672764
 10
146.528942113
 20
137.3525889894
 10
146.5216188978
 20
137.3538237956
 10
146.5142869792
 20
137.3549728843
 10
146.5069515831
 20
137.3560354697
 10
146.4996139411
 20
137.3570127661
 10
146.4922755163
 20
137.3579060189
 10
146.4849418495
 20
137.3587145233
 10
146.4776141006
 20
137.3594395546
 10
146.4702936744
 20
137.3600824278
 10
146.4629864507
 20
137.3606425681
 10
146.4556935249
 20
137.3611213196
 10
146.4484162316
 20
137.3615200792
 10
146.4411607801
 20
137.3618384559
 10
146.4339300036
 20
137.3620773137
 10
146.4267233543
 20
137.362238712
 10
146.419541935
 20
137.3623241172
  0
LWPOLYLINE
  5
4F6
100
AcDbEntity
  8
0
100
AcDbPolyline
 62
7
  6
CONTINUOUS
 90
37
 70
0
 10
143.5650954018
 20
138.8614764965
 10
143.5585382029
 20
138.8646368532
 10
143.5519161215
 20
138.8677010752
 10
143.5452340167
 20
138.8706686958
 10
143.5384938656
 20
138.8735407383
 10
143.5316976158
 20
138.8763182941
 10
143.5248499209
 20
138.8790007881
 10
143.5179526043
 20
138.8815892525
 10
143.5110075197
 20
138.8840847694
 10
143.5040192368
 20
138.8864866634
 10
143.4969894538
 20
138.888795977
 10
143.4899199357
 20
138.8910137953
 10
143.4828152491
 20
138.8931393655
 10
143.4756769994
 20
138.895173743
 10
143.4685068581
 20
138.89711803
 10
143.4613094079
 20
138.8989714346
 10
143.4540861272
 20
138.9007350435
 10
143.4468386486
 20
138.9024099699
 10
143.4395717211
 20
138.9039953869
 10
143.4322867398
 20
138.9054924132
 10
143.4249852723
 20
138.906902195
 10
143.4176722758
 20
138.908223908
 10
143.4103490606
 20
138.9094587142
 10
143.403017142
 20
138.910607803
 10
143.3956817459
 20
138.9116703883
 10
143.3883441039
 20
138.9126476847
 10
143.3810056791
 20
138.9135409375
 10
143.3736720123
 20
138.9143494419
 10
143.3663442634
 20
138.9150744732
 10
143.3590238372
 20
138.9157173464
 10
143.3517166135
 20
138.9162774867
 10
143.3444236877
 20
138.9167562382
 10
143.3371463944
 20
138.9171549978
 10
143.3298909429
 20
138.9174733745
 10
143.3226601663
 20
138.9177122323
 10
143.3154535171
 20
138.9178736306
 10
143.3082720978
 20
138.9179590358
  0
LWPOLYLINE
  5
4F7
100
AcDbEntity
  8
0
100
AcDbPolyline
 62
7
  6
CONTINUOUS
 90
27
 70
0
 10
142.6354301259
 20
139.3263199118
 10
142.6283622593
 20
139.329778297
 10
142.6143218165
 20
139.3362091812
 10
142.6002261059
 20
139.3420917304
 10
142.5860952773
 20
139.3474269537
 10
142.5719391817
 20
139.3522208668
 10
142.5577602677
 20
139.3564810581
 10
142.5435762159
 20
139.3602100608
 10
142.5294012853
 20
139.3634122905
 10
142.5152355028
 20
139.3660948025
 10
142.5010966299
 20
139.3682605993
 10
142.4870005667
 20
139.3699141567
 10
142.4729466375
 20
139.3710615921
 10
142.458953259
 20
139.37170669
 10
142.4450365335
 20
139.371854519
 10
142.431193939
 20
139.371510179
 10
142.4174439474
 20
139.3706783835
 10
142.4038028268
 20
139.3693646677
 10
142.390265976
 20
139.3675725025
 10
142.3768509544
 20
139.3653072755
 10
142.3635746648
 20
139.3625751377
 10
142.350432717
 20
139.3593776266
 10
142.3374427836
 20
139.3557209105
 10
142.3246212951
 20
139.3516118038
 10
142.3119632391
 20
139.347049817
 10
142.2994786945
 20
139.3420382723
 10
142.2881325029
 20
139.3370232315
  0
LWPOLYLINE
  5
4F8
100
AcDbEntity
  8
0
100
AcDbPolyline
 62
253
  6
CONTINUOUS
 90
18
 70
0
 10
143.6109657833
 20
139.4180738846
 10
143.6053706216
 20
139.4208262798
 10
143.5997805299
 20
139.4232914239
 10
143.594204572
 20
139.42546532
 10
143.5886517884
 20
139.4273444432
 10
143.5831311825
 20
139.428925747
 10
143.577651705
 20
139.4302066674
 10
143.5722222404
 20
139.4311851275
 10
143.5668515918
 20
139.4318595409
 10
143.5615484671
 20
139.4322288141
 10
143.5563214646
 20
139.4322923484
 10
143.5511790592
 20
139.4320500407
 10
143.5461295887
 20
139.431502284
 10
143.5411812402
 20
139.4306499664
 10
143.5363420368
 20
139.4294944698
 10
143.5316198246
 20
139.4280376676
 10
143.5270222603
 20
139.426281922
 10
143.524646793
 20
139.4252348862
  0
LWPOLYLINE
  5
4F9
100
AcDbEntity
  8
0
100
AcDbPolyline
 62
7
  6
CONTINUOUS
 90
27
 70
0
 10
143.8307065059
 20
139.4281033838
 10
143.8274334028
 20
139.4297167756
 10
143.8167283359
 20
139.4346727498
 10
143.8058234698
 20
139.439235974
 10
143.7947274102
 20
139.4434004626
 10
143.7834393317
 20
139.4471631523
 10
143.7719724421
 20
139.4505159102
 10
143.7603401696
 20
139.4534515478
 10
143.7485409787
 20
139.4559664549
 10
143.7365870392
 20
139.4580532305
 10
143.7244930926
 20
139.4597049198
 10
143.7122602381
 20
139.4609168303
 10
143.6999017737
 20
139.4616824986
 10
143.6874311695
 20
139.4619960067
 10
143.6748483172
 20
139.4618519289
 10
143.6621660949
 20
139.4612446163
 10
143.6493974886
 20
139.4601688684
 10
143.6365408238
 20
139.4586179301
 10
143.6236071733
 20
139.4565861143
 10
143.610610065
 20
139.4540686175
 10
143.5975497018
 20
139.4510577332
 10
143.5844374687
 20
139.447547693
 10
143.5712846471
 20
139.4435333107
 10
143.5580893821
 20
139.4390047061
 10
143.5448580795
 20
139.4339535205
 10
143.5316074956
 20
139.4283758978
 10
143.5246468143
 20
139.4252348401
  0
LINE
  5
4FA
100
AcDbEntity
  8
DRAFT
100
AcDbLine
 62
7
  6
CONTINUOUS
 10
147.0154340128
 20
136.7565784487
 11
147.1008022937
 21
136.7138943082
  0
LINE
  5
4FB
100
AcDbEntity
  8
DRAFT
100
AcDbLine
 62
7
  6
CONTINUOUS
 10
147.2982767253
 20
136.8979998049
 11
147.3836450062
 21
136.8553156645
  0
LINE
  5
4FC
100
AcDbEntity
  8
DRAFT
100
AcDbLine
 62
7
  6
CONTINUOUS
 10
150.4095465625
 20
135.3423648863
 11
150.4949148434
 21
135.2996807459
  0
LINE
  5
4FD
100
AcDbEntity
  8
0
100
AcDbLine
 62
253
  6
CONTINUOUS
 10
143.3082720978
 20
138.9179590358
 11
142.5049812899
 21
139.3196044397
  0
LINE
  5
4FE
100
AcDbEntity
  8
0
100
AcDbLine
 62
253
  6
CONTINUOUS
 10
145.6352599177
 20
137.7544651258
 11
146.419541935
 21
137.3623241172
  0
LINE
  5
4FF
100
AcDbEntity
  8
0
100
AcDbLine
 62
7
  6
CONTINUOUS
 10
142.6354412364
 20
139.3263143974
 11
143.5677114981
 21
138.8601792666
  0
LINE
  5
500
100
AcDbEntity
  8
0
100
AcDbLine
 62
7
  6
CONTINUOUS
 10
145.6367442457
 20
137.8256628928
 11
146.6789813353
 21
137.304544348
  0
LINE
  5
501
100
AcDbEntity
  8
DRAFT
100
AcDbLine
 62
7
  6
CONTINUOUS
 10
144.4006578567
 20
138.4560860646
 11
145.9143279531
 21
137.6992510164
  0
LINE
  5
502
100
AcDbEntity
  8
DRAFT
100
AcDbLine
 62
7
  6
CONTINUOUS
 10
147.5119276939
 20
136.900451146
 11
149.0255977903
 21
136.1436160978
  0
LINE
  5
503
100
AcDbEntity
  8
DRAFT
100
AcDbLine
 62
7
  6
CONTINUOUS
 10
144.4372474553
 20
138.5597491447
 11
145.9484490327
 21
137.804148356
  0
LINE
  5
504
100
AcDbEntity
  8
DRAFT
100
AcDbLine
 62
7
  6
CONTINUOUS
 10
147.5485172925
 20
137.0041142261
 11
149.0597188699
 21
136.2485134374
  0
LINE
  5
505
100
AcDbEntity
  8
DRAFT
100
AcDbLine
 62
7
  6
CONTINUOUS
 10
144.5433134724
 20
138.6127821533
 11
146.0545150499
 21
137.8571813646
  0
LINE
  5
506
100
AcDbEntity
  8
DRAFT
100
AcDbLine
 62
7
  6
CONTINUOUS
 10
147.6545833097
 20
137.0571472347
 11
149.1657848871
 21
136.301546446
  0
LINE
  5
507
100
AcDbEntity
  8
DRAFT
100
AcDbLine
 62
7
  6
CONTINUOUS
 10
144.6835005692
 20
138.5975074208
 11
146.1971706656
 21
137.8406723726
  0
LINE
  5
508
100
AcDbEntity
  8
DRAFT
100
AcDbLine
 62
7
  6
CONTINUOUS
 10
147.7947704064
 20
137.0418725022
 11
149.3084405028
 21
136.285037454
  0
LINE
  5
509
100
AcDbEntity
  8
DRAFT
100
AcDbLine
 62
7
  6
CONTINUOUS
 10
144.7200901677
 20
138.701170501
 11
146.2312917451
 21
137.9455697123
  0
LINE
  5
50A
100
AcDbEntity
  8
DRAFT
100
AcDbLine
 62
7
  6
CONTINUOUS
 10
147.831360005
 20
137.1455355824
 11
149.3425615824
 21
136.3899347937
  0
LINE
  5
50B
100
AcDbEntity
  8
DRAFT
100
AcDbLine
 62
7
  6
CONTINUOUS
 10
144.8261561849
 20
138.7542035096
 11
146.3373577623
 21
137.9986027209
  0
LINE
  5
50C
100
AcDbEntity
  8
DRAFT
100
AcDbLine
 62
7
  6
CONTINUOUS
 10
147.9374260221
 20
137.198568591
 11
149.4486275995
 21
136.4429678023
  0
LINE
  5
50D
100
AcDbEntity
  8
DRAFT
100
AcDbLine
 62
7
  6
CONTINUOUS
 10
144.9663432817
 20
138.738928777
 11
146.480013378
 21
137.9820937289
  0
LINE
  5
50E
100
AcDbEntity
  8
DRAFT
100
AcDbLine
 62
7
  6
CONTINUOUS
 10
148.0776131189
 20
137.1832938584
 11
149.5912832153
 21
136.4264588103
  0
LINE
  5
50F
100
AcDbEntity
  8
0
100
AcDbLine
 62
253
  6
CONTINUOUS
 10
143.6109632372
 20
139.4180727087
 11
144.0103723328
 21
139.2183706099
  0
LINE
  5
510
100
AcDbEntity
  8
0
100
AcDbLine
 62
7
  6
CONTINUOUS
 10
143.8306782555
 20
139.4281175334
 11
144.2255336479
 21
139.2306898373
  0
LINE
  5
511
100
AcDbEntity
  8
DRAFT
100
AcDbLine
 62
7
  6
CONTINUOUS
 10
145.0029328802
 20
138.8425918572
 11
146.5141344576
 21
138.0869910685
  0
LINE
  5
512
100
AcDbEntity
  8
DRAFT
100
AcDbLine
 62
7
  6
CONTINUOUS
 10
148.1142027174
 20
137.2869569386
 11
149.6254042948
 21
136.5313561499
  0
LINE
  5
513
100
AcDbEntity
  8
DRAFT
100
AcDbLine
 62
7
  6
CONTINUOUS
 10
145.1089988974
 20
138.8956248658
 11
146.6202004748
 21
138.1400240771
  0
LINE
  5
514
100
AcDbEntity
  8
DRAFT
100
AcDbLine
 62
7
  6
CONTINUOUS
 10
148.2202687346
 20
137.3399899472
 11
149.731470312
 21
136.5843891585
  0
LINE
  5
515
100
AcDbEntity
  8
DRAFT
100
AcDbLine
 62
7
  6
CONTINUOUS
 10
145.2491859941
 20
138.8803501333
 11
146.7628560905
 21
138.1235150851
  0
LINE
  5
516
100
AcDbEntity
  8
DRAFT
100
AcDbLine
 62
7
  6
CONTINUOUS
 10
148.3604558314
 20
137.3247152147
 11
149.8741259277
 21
136.5678801665
  0
LWPOLYLINE
  5
517
100
AcDbEntity
  8
0
100
AcDbPolyline
 62
7
  6
CONTINUOUS
 90
102
 70
0
 10
150.4015204979
 20
132.4627552185
 10
150.4173981069
 20
132.4496761237
 10
150.4606465409
 20
132.4128098998
 10
150.5035757835
 20
132.3749678726
 10
150.5461299901
 20
132.3362025117
 10
150.5882726189
 20
132.2965528581
 10
150.6300079608
 20
132.2560205297
 10
150.671341624
 20
132.2146037155
 10
150.7122676099
 20
132.1723104456
 10
150.7527586973
 20
132.1291707619
 10
150.7927883071
 20
132.0852157994
 10
150.8323371734
 20
132.0404701146
 10
150.8713931056
 20
131.9949508127
 10
150.9099405107
 20
131.9486791222
 10
150.9479610817
 20
131.9016801511
 10
150.9854427194
 20
131.8539719062
 10
151.0223788969
 20
131.8055650194
 10
151.0587601407
 20
131.7564733232
 10
151.094565641
 20
131.7067262158
 10
151.1297720806
 20
131.6563581885
 10
151.164359278
 20
131.6054010547
 10
151.1983196045
 20
131.5538689226
 10
151.231648725
 20
131.5017701174
 10
151.2643370253
 20
131.4491203548
 10
151.2963662333
 20
131.3959496421
 10
151.3277190241
 20
131.3422878275
 10
151.3583805465
 20
131.2881617659
 10
151.3883399336
 20
131.2335919802
 10
151.4175863076
 20
131.1785992223
 10
151.4461071461
 20
131.12320773
 10
151.4738904895
 20
131.067441304
 10
151.5009264095
 20
131.0113201065
 10
151.5272034523
 20
130.9548677748
 10
151.5527098555
 20
130.8981092884
 10
151.5774353942
 20
130.841066862
 10
151.601370108
 20
130.7837624991
 10
151.6245021687
 20
130.7262233475
 10
151.6468191291
 20
130.6684794408
 10
151.6683085921
 20
130.6105624441
 10
151.6889636252
 20
130.552490428
 10
151.7087800228
 20
130.494272951
 10
151.7277514715
 20
130.4359242468
 10
151.7458648897
 20
130.3774798187
 10
151.7631064701
 20
130.3189810084
 10
151.7794651477
 20
130.2604638547
 10
151.7949365069
 20
130.2019423053
 10
151.8095171913
 20
130.1434244067
 10
151.8232009562
 20
130.0849277522
 10
151.8359782938
 20
130.0264846796
 10
151.8478409225
 20
129.9681250895
 10
151.8587823887
 20
129.9098720858
 10
151.8687958466
 20
129.851752284
 10
151.8778736556
 20
129.7938003713
 10
151.8860088032
 20
129.7360532401
 10
151.8931982586
 20
129.6785229786
 10
151.8994399909
 20
129.6212068251
 10
151.9047305003
 20
129.5641018509
 10
151.9090609773
 20
129.5072605814
 10
151.9124233612
 20
129.4507623614
 10
151.914814358
 20
129.3946643362
 10
151.9162344391
 20
129.3389555416
 10
151.9166820143
 20
129.2836124413
 10
151.916152775
 20
129.2286284927
 10
151.9146427259
 20
129.1740583971
 10
151.9121510894
 20
129.1199696975
 10
151.9086783229
 20
129.0663981443
 10
151.9042236474
 20
129.0133521659
 10
151.8987873419
 20
128.9608562533
 10
151.8923698299
 20
128.9089322875
 10
151.8849717227
 20
128.857601381
 10
151.8765941187
 20
128.8068859377
 10
151.8672334922
 20
128.7567830241
 10
151.8568950896
 20
128.7073379949
 10
151.8455977874
 20
128.6586419753
 10
151.8333573224
 20
128.6107480324
 10
151.8201719966
 20
128.5636364578
 10
151.8060367463
 20
128.5172872062
 10
151.7909425252
 20
128.4716790167
 10
151.7749061889
 20
128.4268711347
 10
151.7579647411
 20
128.382961262
 10
151.7401414628
 20
128.3399924562
 10
151.7214357404
 20
128.2979471546
 10
151.7018535729
 20
128.2568279454
 10
151.6814010906
 20
128.2166394961
 10
151.6600934937
 20
128.1774040298
 10
151.6379513425
 20
128.1391498869
 10
151.6149810255
 20
128.101878626
 10
151.5912017287
 20
128.0656123679
 10
151.5666582243
 20
128.0304057065
 10
151.5413911759
 20
127.9962968687
 10
151.5153961201
 20
127.9632604372
 10
151.4886505951
 20
127.9312562768
 10
151.4611511662
 20
127.9002752137
 10
151.4329305623
 20
127.8703491598
 10
151.4040193132
 20
127.8415024629
 10
151.3744444074
 20
127.8137520205
 10
151.3442151113
 20
127.7870966558
 10
151.3133367545
 20
127.7615331741
 10
151.2818279706
 20
127.7370701795
 10
151.2497071993
 20
127.7137151811
 10
151.2169787856
 20
127.6914656036
 10
151.1905578857
 20
127.6747045484
  0
LWPOLYLINE
  5
518
100
AcDbEntity
  8
0
100
AcDbPolyline
 62
253
  6
CONTINUOUS
 90
102
 70
0
 10
150.3638052446
 20
132.4160850893
 10
150.3752054708
 20
132.4063432506
 10
150.4172928326
 20
132.3691903542
 10
150.4590928725
 20
132.3310955429
 10
150.5005869258
 20
132.2920758271
 10
150.5417564642
 20
132.2521486301
 10
150.5825831045
 20
132.2113317804
 10
150.6230486166
 20
132.1696435039
 10
150.6631349314
 20
132.1271024154
 10
150.7028241494
 20
132.0837275108
 10
150.7420985484
 20
132.0395381579
 10
150.7809405912
 20
131.9945540886
 10
150.8193329339
 20
131.9487953893
 10
150.8572584333
 20
131.9022824926
 10
150.8947001547
 20
131.8550361677
 10
150.9316413792
 20
131.8070775113
 10
150.9680656118
 20
131.7584279382
 10
151.0039565881
 20
131.7091091718
 10
151.0392982816
 20
131.6591432341
 10
151.0740749116
 20
131.6085524362
 10
151.1082709493
 20
131.5573593684
 10
151.1418711252
 20
131.5055868895
 10
151.174860436
 20
131.4532581175
 10
151.2072241511
 20
131.4003964185
 10
151.2389478193
 20
131.3470253966
 10
151.2700172751
 20
131.2931688833
 10
151.3004186451
 20
131.2388509271
 10
151.3301383544
 20
131.1840957824
 10
151.3591631324
 20
131.1289278986
 10
151.3874800186
 20
131.0733719098
 10
151.4150763689
 20
131.0174526232
 10
151.4419398608
 20
130.9611950082
 10
151.468058499
 20
130.9046241853
 10
151.4934206208
 20
130.8477654149
 10
151.5180149015
 20
130.7906440858
 10
151.5418303589
 20
130.7332857043
 10
151.564856359
 20
130.6757158825
 10
151.5870826199
 20
130.6179603266
 10
151.608499217
 20
130.5600448262
 10
151.6290965874
 20
130.501995242
 10
151.6488655336
 20
130.4438374947
 10
151.6677972284
 20
130.3855975532
 10
151.6858832183
 20
130.3273014232
 10
151.7031154274
 20
130.2689751355
 10
151.719486161
 20
130.2106447343
 10
151.7349881092
 20
130.1523362656
 10
151.7496143499
 20
130.0940757658
 10
151.7633583523
 20
130.0358892495
 10
151.7762139791
 20
129.9778026988
 10
151.7881754901
 20
129.9198420506
 10
151.799237544
 20
129.8620331861
 10
151.8093952015
 20
129.8044019184
 10
151.8186439268
 20
129.7469739813
 10
151.8269795901
 20
129.6897750179
 10
151.8343984694
 20
129.632830569
 10
151.8408972519
 20
129.576166062
 10
151.8464730358
 20
129.5198067989
 10
151.8511233313
 20
129.4637779457
 10
151.8548460619
 20
129.4081045207
 10
151.8576395653
 20
129.3528113835
 10
151.8595025942
 20
129.2979232241
 10
151.8604343167
 20
129.2434645513
 10
151.8604343167
 20
129.1894596825
 10
151.8595025942
 20
129.1359327322
 10
151.8576395653
 20
129.0829076017
 10
151.8548460619
 20
129.0304079679
 10
151.8511233313
 20
128.9784572735
 10
151.8464730358
 20
128.9270787158
 10
151.8408972519
 20
128.8762952366
 10
151.8343984694
 20
128.826129512
 10
151.8269795901
 20
128.7766039425
 10
151.8186439268
 20
128.7277406425
 10
151.8093952015
 20
128.6795614306
 10
151.799237544
 20
128.6320878203
 10
151.7881754901
 20
128.5853410098
 10
151.7762139791
 20
128.5393418726
 10
151.7633583523
 20
128.4941109487
 10
151.7496143499
 20
128.4496684348
 10
151.7349881091
 20
128.4060341757
 10
151.7194861609
 20
128.3632276552
 10
151.7031154273
 20
128.3212679876
 10
151.6858832183
 20
128.280173909
 10
151.6677972284
 20
128.2399637689
 10
151.6488655336
 20
128.2006555222
 10
151.6290965873
 20
128.1622667211
 10
151.608499217
 20
128.1248145073
 10
151.5870826198
 20
128.088315604
 10
151.5648563589
 20
128.0527863091
 10
151.5418303589
 20
128.0182424873
 10
151.5180149014
 20
127.9846995632
 10
151.4934206208
 20
127.9521725148
 10
151.4680584989
 20
127.9206758662
 10
151.4419398607
 20
127.8902236815
 10
151.4150763689
 20
127.8608295584
 10
151.3874800186
 20
127.8325066221
 10
151.3591631323
 20
127.8052675196
 10
151.3301383544
 20
127.7791244138
 10
151.3004186451
 20
127.7540889783
 10
151.270017275
 20
127.7301723922
 10
151.2389478192
 20
127.7073853347
 10
151.2072241511
 20
127.6857379809
 10
151.1905578857
 20
127.6751821829
  0
LWPOLYLINE
  5
519
100
AcDbEntity
  8
0
100
AcDbPolyline
 62
253
  6
CONTINUOUS
 90
26
 70
0
 10
149.7559160415
 20
134.2534868923
 10
149.7558635239
 20
134.2535721938
 10
149.7552036586
 20
134.2542083794
 10
149.7541898087
 20
134.2546377744
 10
149.7528233607
 20
134.2548597916
 10
149.7511061837
 20
134.2548741274
 10
149.749040626
 20
134.2546807621
 10
149.7466295128
 20
134.2542799602
 10
149.7438761416
 20
134.2536722698
 10
149.7407842783
 20
134.2528585222
 10
149.7373581516
 20
134.2518398302
 10
149.7336024472
 20
134.2506175871
 10
149.7295223019
 20
134.2491934645
 10
149.725123296
 20
134.2475694102
 10
149.7204114459
 20
134.2457476455
 10
149.715393196
 20
134.2437306618
 10
149.7100754098
 20
134.2415212178
 10
149.7044653601
 20
134.2391223354
 10
149.6985707199
 20
134.2365372953
 10
149.6923995512
 20
134.2337696333
 10
149.6859602942
 20
134.2308231345
 10
149.6792617557
 20
134.2277018289
 10
149.6723130973
 20
134.2244099854
 10
149.6651238226
 20
134.2209521062
 10
149.6577037642
 20
134.2173329207
 10
149.6500630705
 20
134.2135573787
  0
LWPOLYLINE
  5
51A
100
AcDbEntity
  8
0
100
AcDbPolyline
 62
253
  6
CONTINUOUS
 90
32
 70
0
 10
150.1270359142
 20
135.5768894859
 10
150.1234615967
 20
135.5827470244
 10
150.1186442916
 20
135.5897973703
 10
150.1135269572
 20
135.5964096611
 10
150.1081241155
 20
135.6025770135
 10
150.1024450208
 20
135.6083022165
 10
150.0964981158
 20
135.6135902498
 10
150.0902974539
 20
135.6184380275
 10
150.0838537367
 20
135.6228487566
 10
150.0771758519
 20
135.6268284044
 10
150.070275573
 20
135.6303783587
 10
150.0631655837
 20
135.6335021238
 10
150.0558538813
 20
135.6362063101
 10
150.0483443464
 20
135.6384964997
 10
150.0406478123
 20
135.6403772353
 10
150.0327727764
 20
135.6418535073
 10
150.0247172951
 20
135.6429301757
 10
150.0164846186
 20
135.6436115499
 10
150.0080881365
 20
135.643901351
 10
149.9995401523
 20
135.6438029958
 10
149.9908465718
 20
135.6433194415
 10
149.982019589
 20
135.6424568631
 10
149.9730828248
 20
135.6412247803
 10
149.9640484442
 20
135.639627117
 10
149.9549257353
 20
135.6376715041
 10
149.9457366367
 20
135.6353748342
 10
149.9364950271
 20
135.6327423842
 10
149.9272104605
 20
135.629782079
 10
149.9179002704
 20
135.6265161508
 10
149.908578589
 20
135.6229569208
 10
149.8992553733
 20
135.6191061289
 10
149.8899421908
 20
135.614970584
  0
LWPOLYLINE
  5
51B
100
AcDbEntity
  8
0
100
AcDbPolyline
 62
7
  6
CONTINUOUS
 90
42
 70
0
 10
150.1270628437
 20
135.5768433116
 10
150.1241867399
 20
135.5817296421
 10
150.1167355877
 20
135.593739992
 10
150.1089769405
 20
135.6053493492
 10
150.1009192017
 20
135.616550437
 10
150.0925790882
 20
135.6273278519
 10
150.0839681335
 20
135.6376759481
 10
150.0750989457
 20
135.6475878914
 10
150.0659942529
 20
135.6570487182
 10
150.0566696412
 20
135.666054839
 10
150.0471430339
 20
135.6746015424
 10
150.0374449245
 20
135.6826752869
 10
150.0276095922
 20
135.6902647722
 10
150.0176453203
 20
135.6973817269
 10
150.007543455
 20
135.7040468885
 10
149.9973383178
 20
135.7102510702
 10
149.9870367174
 20
135.7160043659
 10
149.9765808673
 20
135.721347422
 10
149.9659668483
 20
135.7262843511
 10
149.9552302518
 20
135.7308010349
 10
149.9443656137
 20
135.7349026748
 10
149.933388033
 20
135.7385856011
 10
149.9223142733
 20
135.7418467988
 10
149.9111391946
 20
135.74468967
 10
149.8998808034
 20
135.7471107282
 10
149.8885536452
 20
135.7491083225
 10
149.8771441592
 20
135.7506849328
 10
149.8656680024
 20
135.7518375846
 10
149.8541414422
 20
135.7525644467
 10
149.8425486548
 20
135.7528647236
 10
149.8309033143
 20
135.7527345626
 10
149.8192215702
 20
135.7521712587
 10
149.8074890299
 20
135.7511707944
 10
149.7957204835
 20
135.74972941
 10
149.7839317278
 20
135.7478438258
 10
149.7721070675
 20
135.7455050942
 10
149.7602622132
 20
135.7427097752
 10
149.7484130177
 20
135.7394549453
 10
149.7365420741
 20
135.7357267348
 10
149.72465393
 20
135.7315160824
 10
149.7127775809
 20
135.7268244694
 10
149.708173972
 20
135.7248731177
  0
LINE
  5
51C
100
AcDbEntity
  8
0
100
AcDbLine
 62
7
  6
CONTINUOUS
 10
150.127059477
 20
135.5768488565
 11
150.1270359142
 21
135.5768894859
  0
LINE
  5
51D
100
AcDbEntity
  8
0
100
AcDbLine
 62
253
  6
CONTINUOUS
 10
149.8899422215
 20
135.6149705311
 11
150.2893488621
 21
134.9260956954
  0
LINE
  5
51E
100
AcDbEntity
  8
0
100
AcDbLine
 62
7
  6
CONTINUOUS
 10
150.1271328711
 20
135.5767222707
 11
150.5208319825
 21
134.8976917475
  0
LWPOLYLINE
  5
51F
100
AcDbEntity
  8
0
100
AcDbPolyline
 62
253
  6
CONTINUOUS
 90
19
 70
0
 10
150.2893550882
 20
134.926098863
 10
150.2936627629
 20
134.9185287996
 10
150.2977672773
 20
134.9108328998
 10
150.3016608209
 20
134.9030258086
 10
150.3053359845
 20
134.8951223825
 10
150.3087857745
 20
134.8871376614
 10
150.3120036263
 20
134.8790868396
 10
150.3149834164
 20
134.8709852376
 10
150.3177194747
 20
134.8628482721
 10
150.3202065946
 20
134.8546914274
 10
150.3224400433
 20
134.8465302255
 10
150.3244155708
 20
134.8383801966
 10
150.3261294179
 20
134.8302568497
 10
150.3275783232
 20
134.8221756431
 10
150.3287595295
 20
134.8141519548
 10
150.3296707893
 20
134.8062010533
 10
150.3303103684
 20
134.7983380687
 10
150.3306770498
 20
134.7905779638
 10
150.3307701358
 20
134.7829355056
  0
LWPOLYLINE
  5
520
100
AcDbEntity
  8
0
100
AcDbPolyline
 62
253
  6
CONTINUOUS
 90
36
 70
0
 10
149.8899485387
 20
135.6149732609
 10
149.8859763994
 20
135.6221500639
 10
149.8818361122
 20
135.6291887808
 10
149.8775347464
 20
135.6360773933
 10
149.8730796463
 20
135.6428041399
 10
149.8684784185
 20
135.6493575351
 10
149.8637389193
 20
135.6557263895
 10
149.8588692409
 20
135.6618998289
 10
149.853877698
 20
135.6678673126
 10
149.8487728131
 20
135.6736186516
 10
149.8435633025
 20
135.6791440261
 10
149.838258061
 20
135.6844340018
 10
149.8328661468
 20
135.6894795465
 10
149.8273967662
 20
135.6942720455
 10
149.8218592576
 20
135.6988033159
 10
149.816263076
 20
135.703065621
 10
149.8106177764
 20
135.7070516832
 10
149.8049329976
 20
135.7107546966
 10
149.7992184459
 20
135.7141683387
 10
149.7934838785
 20
135.717286781
 10
149.7877390866
 20
135.7201046989
 10
149.781993879
 20
135.7226172811
 10
149.7762580653
 20
135.7248202375
 10
149.7705414387
 20
135.7267098069
 10
149.76485376
 20
135.7282827629
 10
149.7592047404
 20
135.7295364198
 10
149.7536040252
 20
135.7304686371
 10
149.7480611771
 20
135.7310778232
 10
149.74258566
 20
135.7313629379
 10
149.737186823
 20
135.7313234943
 10
149.7318738842
 20
135.7309595599
 10
149.7266559149
 20
135.730271756
 10
149.7215418244
 20
135.7292612569
 10
149.7165403445
 20
135.7279297882
 10
149.711660015
 20
135.726279623
 10
149.7081738947
 20
135.7248732966
  0
LINE
  5
521
100
AcDbEntity
  8
DRAFT
100
AcDbLine
 62
7
  6
CONTINUOUS
 10
149.4852171981
 20
136.3734258017
 11
149.4486275995
 21
136.4429678023
  0
LINE
  5
522
100
AcDbEntity
  8
DRAFT
100
AcDbLine
 62
7
  6
CONTINUOUS
 10
149.7680599106
 20
136.5148471579
 11
149.731470312
 21
136.5843891585
  0
LINE
  5
523
100
AcDbEntity
  8
DRAFT
100
AcDbLine
 62
7
  6
CONTINUOUS
 10
150.050902623
 20
136.6562685141
 11
150.0143130245
 21
136.7258105147
  0
LINE
  5
524
100
AcDbEntity
  8
DRAFT
100
AcDbLine
 62
7
  6
CONTINUOUS
 10
150.3337453355
 20
136.7976898704
 11
150.297155737
 21
136.867231871
  0
LINE
  5
525
100
AcDbEntity
  8
DRAFT
100
AcDbLine
 62
7
  6
CONTINUOUS
 10
150.616588048
 20
136.9391112266
 11
150.5799984494
 21
137.0086532272
  0
LINE
  5
526
100
AcDbEntity
  8
DRAFT
100
AcDbLine
 62
7
  6
CONTINUOUS
 10
150.4607937638
 20
135.367988487
 11
150.4949148434
 21
135.2996807459
  0
LINE
  5
527
100
AcDbEntity
  8
DRAFT
100
AcDbLine
 62
7
  6
CONTINUOUS
 10
145.2857755927
 20
138.9840132135
 11
146.7969771701
 21
138.2284124247
  0
LINE
  5
528
100
AcDbEntity
  8
DRAFT
100
AcDbLine
 62
7
  6
CONTINUOUS
 10
148.3970454299
 20
137.4283782948
 11
149.9082470073
 21
136.6727775061
  0
LINE
  5
529
100
AcDbEntity
  8
DRAFT
100
AcDbLine
 62
7
  6
CONTINUOUS
 10
145.3918416099
 20
139.037046222
 11
146.9030431873
 21
138.2814454333
  0
LINE
  5
52A
100
AcDbEntity
  8
DRAFT
100
AcDbLine
 62
7
  6
CONTINUOUS
 10
148.5031114471
 20
137.4814113034
 11
150.0143130245
 21
136.7258105147
  0
LINE
  5
52B
100
AcDbEntity
  8
DRAFT
100
AcDbLine
 62
7
  6
CONTINUOUS
 10
145.5320287066
 20
139.0217714895
 11
147.045698803
 21
138.2649364413
  0
LINE
  5
52C
100
AcDbEntity
  8
DRAFT
100
AcDbLine
 62
7
  6
CONTINUOUS
 10
148.6432985438
 20
137.4661365709
 11
150.1569686402
 21
136.7093015227
  0
LINE
  5
52D
100
AcDbEntity
  8
DRAFT
100
AcDbLine
 62
7
  6
CONTINUOUS
 10
145.5686183052
 20
139.1254345697
 11
147.0798198826
 21
138.369833781
  0
LINE
  5
52E
100
AcDbEntity
  8
DRAFT
100
AcDbLine
 62
7
  6
CONTINUOUS
 10
148.6798881424
 20
137.5697996511
 11
150.1910897198
 21
136.8141988624
  0
LINE
  5
52F
100
AcDbEntity
  8
DRAFT
100
AcDbLine
 62
7
  6
CONTINUOUS
 10
145.6746843223
 20
139.1784675783
 11
147.1858858997
 21
138.4228667896
  0
LINE
  5
530
100
AcDbEntity
  8
DRAFT
100
AcDbLine
 62
7
  6
CONTINUOUS
 10
148.7859541596
 20
137.6228326597
 11
150.297155737
 21
136.867231871
  0
LINE
  5
531
100
AcDbEntity
  8
DRAFT
100
AcDbLine
 62
7
  6
CONTINUOUS
 10
145.8148714191
 20
139.1631928458
 11
147.3285415155
 21
138.4063577976
  0
LINE
  5
532
100
AcDbEntity
  8
DRAFT
100
AcDbLine
 62
7
  6
CONTINUOUS
 10
148.9261412563
 20
137.6075579272
 11
150.4398113527
 21
136.850722879
  0
LINE
  5
533
100
AcDbEntity
  8
DRAFT
100
AcDbLine
 62
7
  6
CONTINUOUS
 10
145.8514610176
 20
139.2668559259
 11
147.362662595
 21
138.5112551372
  0
LINE
  5
534
100
AcDbEntity
  8
DRAFT
100
AcDbLine
 62
7
  6
CONTINUOUS
 10
148.9627308549
 20
137.7112210073
 11
150.4739324323
 21
136.9556202186
  0
LINE
  5
535
100
AcDbEntity
  8
RACCORDO
100
AcDbLine
 62
7
  6
CONTINUOUS
 10
150.6889171508
 20
136.9370292148
 11
150.5922537154
 21
136.9853609326
  0
LINE
  5
536
100
AcDbEntity
  8
RACCORDO
100
AcDbLine
 62
7
  6
CONTINUOUS
 10
147.5776473136
 20
138.4926641335
 11
147.4809838781
 21
138.5409958512
  0
LINE
  5
537
100
AcDbEntity
  8
DRAFT
100
AcDbLine
 62
7
  6
CONTINUOUS
 10
145.9575270348
 20
139.3198889345
 11
147.4687286122
 21
138.5642881458
  0
LINE
  5
538
100
AcDbEntity
  8
DRAFT
100
AcDbLine
 62
7
  6
CONTINUOUS
 10
149.068796872
 20
137.7642540159
 11
150.5799984494
 21
137.0086532272
  0
ELLIPSE
  5
539
100
AcDbEntity
  8
DRAFT
100
AcDbEllipse
 62
7
  6
CONTINUOUS
 10
147.5793336305
 20
137.0385282575
 30
0.0
 11
0.0462229684
 21
0.0886861576
 31
0.0
 40
0.6035364256
 41
-1.0575060939
 42
-0.8759289409
  0
ELLIPSE
  5
53A
100
AcDbEntity
  8
RACCORDO
100
AcDbEllipse
 62
7
  6
CONTINUOUS
 10
139.2262085891
 20
135.6127565881
 30
0.0
 11
0.1386689053
 21
0.2660584729
 31
0.0
 40
0.6035364256
 41
0.6948673859
 42
1.1054037811
  0
ELLIPSE
  5
53B
100
AcDbEntity
  8
DRAFT
100
AcDbEllipse
 62
7
  6
CONTINUOUS
 10
147.490089699
 20
138.312836143
 30
0.0
 11
0.086325054
 21
0.1804312186
 31
0.0
 40
0.6209844714
 41
5.3863034069
 42
6.8317719026
  0
ELLIPSE
  5
53C
100
AcDbEntity
  8
DRAFT
100
AcDbEllipse
 62
7
  6
CONTINUOUS
 10
150.6906034677
 20
135.4828933389
 30
0.0
 11
0.0462229684
 21
0.0886861576
 31
0.0
 40
0.6035364256
 41
-2.4467252677
 42
-0.8759289409
  0
ELLIPSE
  5
53D
100
AcDbEntity
  8
RACCORDO
100
AcDbEllipse
 62
7
  6
CONTINUOUS
 10
142.3374784264
 20
134.0571216695
 30
0.0
 11
0.1386689053
 21
0.2660584729
 31
0.0
 40
0.6035364256
 41
0.6948673859
 42
1.1054037811
  0
ELLIPSE
  5
53E
100
AcDbEntity
  8
DRAFT
100
AcDbEllipse
 62
7
  6
CONTINUOUS
 10
150.6013595362
 20
136.7572012244
 30
0.0
 11
0.086325054
 21
0.1804312186
 31
0.0
 40
0.6209844714
 41
5.3863034069
 42
6.8317719026
  0
ELLIPSE
  5
53F
100
AcDbEntity
  8
0
100
AcDbEllipse
 62
7
  6
CONTINUOUS
 10
138.5250219407
 20
123.738566196
 30
0.0
 11
0.4349639225
 21
0.9005141702
 31
0.0
 40
0.6016116119
 41
0.6764898932
 42
2.24728622
  0
ELLIPSE
  5
540
100
AcDbEntity
  8
0
100
AcDbEllipse
 62
7
  6
CONTINUOUS
 10
139.3338383505
 20
128.718860248
 30
0.0
 11
-0.894612936
 21
1.7887945813
 31
0.0
 40
0.6124635976
 41
4.0276245976
 42
4.8128965892
  0
ELLIPSE
  5
541
100
AcDbEntity
  8
0
100
AcDbEllipse
 62
7
  6
CONTINUOUS
 10
139.3338383505
 20
98.2262278279
 30
0.0
 11
-0.894811907
 21
1.788971565
 31
0.0
 40
0.6123121697
 41
-3.0410143285
 42
-2.2557423369
  0
ELLIPSE
  5
542
100
AcDbEntity
  8
0
100
AcDbEllipse
 62
7
  6
CONTINUOUS
 10
139.913479928
 20
122.2238544319
 30
0.0
 11
0.2697619714
 21
0.1869451725
 31
0.0
 40
0.4547882133
 41
-0.3053140568
 42
1.26548227
  0
ELLIPSE
  5
543
100
AcDbEntity
  8
0
100
AcDbEllipse
 62
7
  6
CONTINUOUS
 10
139.913479928
 20
119.1061629783
 30
0.0
 11
0.2697619714
 21
0.1869451725
 31
0.0
 40
0.4547882133
 41
-0.7260408203
 42
-0.3053140568
  0
ELLIPSE
  5
544
100
AcDbEntity
  8
0
100
AcDbEllipse
 62
7
  6
CONTINUOUS
 10
139.913479928
 20
106.6353971638
 30
0.0
 11
0.2697619714
 21
0.1869451725
 31
0.0
 40
0.4547882133
 41
-0.3053140568
 42
1.26548227
  0
ELLIPSE
  5
545
100
AcDbEntity
  8
0
100
AcDbEllipse
 62
7
  6
CONTINUOUS
 10
139.913479928
 20
103.5177057102
 30
0.0
 11
0.2697619714
 21
0.1869451725
 31
0.0
 40
0.4547882133
 41
-0.7260408203
 42
-0.3053140568
  0
ELLIPSE
  5
546
100
AcDbEntity
  8
RACCORDO
100
AcDbEllipse
 62
7
  6
CONTINUOUS
 10
126.7037583343
 20
133.6227221782
 30
0.0
 11
1.2141619185
 21
0.9541526469
 31
0.0
 40
0.2329077568
 41
0.1095198182
 42
0.114024621
  0
ELLIPSE
  5
547
100
AcDbEntity
  8
0
100
AcDbEllipse
 62
7
  6
CONTINUOUS
 10
138.5250219407
 20
99.48985489
 30
0.0
 11
0.4349639225
 21
0.9005141702
 31
0.0
 40
0.6016116119
 41
2.24728622
 42
3.8180825468
  0
ELLIPSE
  5
548
100
AcDbEntity
  8
RACCORDO
100
AcDbEllipse
 62
7
  6
CONTINUOUS
 10
117.2904221581
 20
133.6665072107
 30
0.0
 11
-0.2786191524
 21
0.7501668109
 31
0.0
 40
0.6610921126
 41
-0.6157157441
 42
0.0213201202
  0
ELLIPSE
  5
549
100
AcDbEntity
  8
RACCORDO
100
AcDbEllipse
 62
7
  6
CONTINUOUS
 10
131.5738067985
 20
126.5248148905
 30
0.0
 11
-0.2783604326
 21
0.7500177284
 31
0.0
 40
0.6614719787
 41
-2.1862531203
 42
-0.61576138
  0
ELLIPSE
  5
54A
100
AcDbEntity
  8
RACCORDO
100
AcDbEllipse
 62
7
  6
CONTINUOUS
 10
128.4916616699
 20
89.0685251173
 30
0.0
 11
-0.2786191524
 21
0.7501668109
 31
0.0
 40
0.6610921126
 41
-3.1630638698
 42
-2.1868166574
  0
ELLIPSE
  5
54B
100
AcDbEntity
  8
0
100
AcDbEllipse
 62
7
  6
CONTINUOUS
 10
146.6242689764
 20
137.2040874063
 30
0.0
 11
-0.1341484654
 21
0.2683369961
 31
0.0
 40
0.6125552124
 41
-2.255296188
 42
-2.238147482
  0
ELLIPSE
  5
54C
100
AcDbEntity
  8
0
100
AcDbEllipse
 62
7
  6
CONTINUOUS
 10
143.5129991392
 20
138.7597223249
 30
0.0
 11
-0.1341484654
 21
0.2683369961
 31
0.0
 40
0.6125552124
 41
-2.255296188
 42
-2.238147482
  0
ELLIPSE
  5
54D
100
AcDbEntity
  8
0
100
AcDbEllipse
 62
7
  6
CONTINUOUS
 10
139.9877295106
 20
102.9034636019
 30
0.0
 11
0.2174819613
 21
0.4502570851
 31
0.0
 40
0.6016116119
 41
-2.4651027604
 42
-0.8943064336
  0
ELLIPSE
  5
54E
100
AcDbEntity
  8
0
100
AcDbEllipse
 62
7
  6
CONTINUOUS
 10
139.6752654167
 20
106.4705838522
 30
0.0
 11
0.2267599918
 21
0.4456316896
 31
0.0
 40
0.6176975122
 41
0.6890773845
 42
2.2598737113
  0
ELLIPSE
  5
54F
100
AcDbEntity
  8
0
100
AcDbEllipse
 62
7
  6
CONTINUOUS
 10
139.9877295106
 20
118.49192087
 30
0.0
 11
0.2174819613
 21
0.4502570851
 31
0.0
 40
0.6016116119
 41
-2.4651027604
 42
-0.8943064336
  0
ELLIPSE
  5
550
100
AcDbEntity
  8
0
100
AcDbEllipse
 62
7
  6
CONTINUOUS
 10
139.6752654167
 20
122.0590411203
 30
0.0
 11
0.2267599918
 21
0.4456316896
 31
0.0
 40
0.6176975122
 41
0.6890773845
 42
2.2598737113
  0
ELLIPSE
  5
551
100
AcDbEntity
  8
0
100
AcDbEllipse
 62
7
  6
CONTINUOUS
 10
139.5447361254
 20
98.018910685
 30
0.0
 11
-0.894811907
 21
1.788971565
 31
0.0
 40
0.6123121697
 41
-3.0410143285
 42
-2.2557423369
  0
ELLIPSE
  5
552
100
AcDbEntity
  8
0
100
AcDbEllipse
 62
7
  6
CONTINUOUS
 10
138.9052217691
 20
131.1846315128
 30
0.0
 11
-0.447101003
 21
0.8945282396
 31
0.0
 40
0.6124326778
 41
-1.4698904957
 42
-0.6846185041
  0
ELLIPSE
  5
553
100
AcDbEntity
  8
0
100
AcDbEllipse
 62
7
  6
CONTINUOUS
 10
139.5447361254
 20
128.8567009722
 30
0.0
 11
-0.894612936
 21
1.7887945813
 31
0.0
 40
0.6124635976
 41
-2.2555607096
 42
-1.470288718
  0
ELLIPSE
  5
554
100
AcDbEntity
  8
0
100
AcDbEllipse
 62
7
  6
CONTINUOUS
 10
140.6025263078
 20
122.5146494903
 30
0.0
 11
0.2267599918
 21
0.4456316896
 31
0.0
 40
0.6176975122
 41
-0.8817189423
 42
0.6890773845
  0
ELLIPSE
  5
555
100
AcDbEntity
  8
0
100
AcDbEllipse
 62
7
  6
CONTINUOUS
 10
138.6766767647
 20
99.7648658516
 30
0.0
 11
0.4535199836
 21
0.8912633791
 31
0.0
 40
0.6176975122
 41
-4.0233115959
 42
-2.4699685616
  0
ELLIPSE
  5
556
100
AcDbEntity
  8
0
100
AcDbEllipse
 62
7
  6
CONTINUOUS
 10
138.6766767647
 20
123.4533217667
 30
0.0
 11
0.4535199836
 21
0.8912633791
 31
0.0
 40
0.6176975122
 41
0.706530677
 42
2.2598737113
  0
ELLIPSE
  5
557
100
AcDbEntity
  8
0
100
AcDbEllipse
 62
7
  6
CONTINUOUS
 10
138.9052217691
 20
96.3304945007
 30
0.0
 11
-0.4472005764
 21
0.894616689
 31
0.0
 40
0.6122812743
 41
2.4570447386
 42
3.2423167302
  0
ELLIPSE
  5
558
100
AcDbEntity
  8
0
100
AcDbEllipse
 62
7
  6
CONTINUOUS
 10
133.7959827902
 20
134.8643199156
 30
0.0
 11
-0.2237009107
 21
0.4473351135
 31
0.0
 40
0.6121897086
 41
-0.6846338794
 42
0.1006119908
  0
ELLIPSE
  5
559
100
AcDbEntity
  8
0
100
AcDbEllipse
 62
7
  6
CONTINUOUS
 10
139.6752654167
 20
102.1404568333
 30
0.0
 11
0.2267599918
 21
0.4456316896
 31
0.0
 40
0.6176975122
 41
2.2598737113
 42
3.8306700381
  0
ELLIPSE
  5
55A
100
AcDbEntity
  8
0
100
AcDbEllipse
 62
7
  6
CONTINUOUS
 10
140.6025263078
 20
102.5960652033
 30
0.0
 11
0.2267599918
 21
0.4456316896
 31
0.0
 40
0.6176975122
 41
-2.4525152691
 42
-0.8817189423
  0
ELLIPSE
  5
55B
100
AcDbEntity
  8
0
100
AcDbEllipse
 62
7
  6
CONTINUOUS
 10
139.6752654167
 20
117.7289141014
 30
0.0
 11
0.2267599918
 21
0.4456316896
 31
0.0
 40
0.6176975122
 41
2.2598737113
 42
3.8306700381
  0
ELLIPSE
  5
55C
100
AcDbEntity
  8
0
100
AcDbEllipse
 62
7
  6
CONTINUOUS
 10
140.6025263078
 20
118.1845224714
 30
0.0
 11
0.2267599918
 21
0.4456316896
 31
0.0
 40
0.6176975122
 41
-2.4525152691
 42
-0.8817189423
  0
ELLIPSE
  5
55D
100
AcDbEntity
  8
0
100
AcDbEllipse
 62
7
  6
CONTINUOUS
 10
140.6025263078
 20
106.9261922222
 30
0.0
 11
0.2267599918
 21
0.4456316896
 31
0.0
 40
0.6176975122
 41
-0.8817189423
 42
0.6890773845
  0
ELLIPSE
  5
55E
100
AcDbEntity
  8
ASSI
100
AcDbEllipse
 62
7
  6
CONTINUOUS
 10
117.2904221581
 20
133.6665072107
 30
0.0
 11
-0.2786191524
 21
0.7501668109
 31
0.0
 40
0.6610921126
 41
-0.6157157441
 42
0.0213201202
  0
ELLIPSE
  5
55F
100
AcDbEntity
  8
ASSI
100
AcDbEllipse
 62
7
  6
CONTINUOUS
 10
131.5738067985
 20
126.5248148905
 30
0.0
 11
-0.2783604326
 21
0.7500177284
 31
0.0
 40
0.6614719787
 41
-2.1862531203
 42
-0.61576138
  0
ELLIPSE
  5
560
100
AcDbEntity
  8
ASSI
100
AcDbEllipse
 62
7
  6
CONTINUOUS
 10
128.4916616699
 20
89.0685251173
 30
0.0
 11
-0.2786191524
 21
0.7501668109
 31
0.0
 40
0.6610921126
 41
-3.1630638698
 42
-2.1868166574
  0
ELLIPSE
  5
561
100
AcDbEntity
  8
268
100
AcDbEllipse
 62
7
  6
CONTINUOUS
 10
130.0523415676
 20
88.4066395402
 30
0.0
 11
0.110769438
 21
0.2241226716
 31
0.0
 40
0.6088015717
 41
-4.0304836828
 42
-3.1443955108
  0
ELLIPSE
  5
562
100
AcDbEntity
  8
268
100
AcDbEllipse
 62
7
  6
CONTINUOUS
 10
116.6880234032
 20
136.6417741555
 30
0.0
 11
0.110769438
 21
0.2241226716
 31
0.0
 40
0.6088015717
 41
-4.0304836828
 42
-3.1443650652
  0
ELLIPSE
  5
563
100
AcDbEntity
  8
268
100
AcDbEllipse
 62
7
  6
CONTINUOUS
 10
130.0523415676
 20
129.9596150733
 30
0.0
 11
0.110769438
 21
0.2241226716
 31
0.0
 40
0.6088015717
 41
-4.0304836828
 42
-3.1443650652
  0
ELLIPSE
  5
564
100
AcDbEntity
  8
268
100
AcDbEllipse
 62
7
  6
CONTINUOUS
 10
134.1089494489
 20
128.6678970242
 30
0.0
 11
-0.1565168911
 21
0.3130623908
 31
0.0
 40
0.6123677712
 41
-2.2554744912
 42
-0.6846781644
  0
ELLIPSE
  5
565
100
AcDbEntity
  8
268
100
AcDbEllipse
 62
7
  6
CONTINUOUS
 10
134.1089494489
 20
90.4913151795
 30
0.0
 11
-0.1565168911
 21
0.3130623908
 31
0.0
 40
0.6123677712
 41
-3.1363904945
 42
-2.2554744912
  0
ELLIPSE
  5
566
100
AcDbEntity
  8
268
100
AcDbEllipse
 62
7
  6
CONTINUOUS
 10
128.3423539004
 20
137.7731283293
 30
0.0
 11
0.2999991737
 21
-0.0014183462
 31
0.0
 40
0.4964289597
 41
0.7877451926
 42
2.3527237553
  0
ELLIPSE
  5
567
100
AcDbEntity
  8
268
100
AcDbEllipse
 62
7
  6
CONTINUOUS
 10
133.8968174145
 20
134.9958965723
 30
0.0
 11
0.2999991737
 21
-0.0014183462
 31
0.0
 40
0.4964289597
 41
0.7877451926
 42
2.3585415194
  0
ELLIPSE
  5
568
100
AcDbEntity
  8
268
100
AcDbEllipse
 62
7
  6
CONTINUOUS
 10
133.43616955
 20
129.2854680351
 30
0.0
 11
0.110769438
 21
0.2241226716
 31
0.0
 40
0.6088015717
 41
1.2055040732
 42
2.2526937431
  0
ELLIPSE
  5
569
100
AcDbEntity
  8
268
100
AcDbEllipse
 62
7
  6
CONTINUOUS
 10
120.0718513856
 20
135.9676271173
 30
0.0
 11
0.110769438
 21
0.2241226716
 31
0.0
 40
0.6088015717
 41
1.2055040732
 42
2.2526937431
  0
ELLIPSE
  5
56A
100
AcDbEntity
  8
268
100
AcDbEllipse
 62
7
  6
CONTINUOUS
 10
133.7876660271
 20
130.2132731871
 30
0.0
 11
0.110769438
 21
0.2241226716
 31
0.0
 40
0.6088015717
 41
-1.9360885804
 42
-0.8888910292
  0
ELLIPSE
  5
56B
100
AcDbEntity
  8
268
100
AcDbEllipse
 62
7
  6
CONTINUOUS
 10
132.1674911708
 20
131.2842895916
 30
0.0
 11
0.1128509832
 21
0.2230818409
 31
0.0
 40
0.6159267166
 41
0.0028979148
 42
0.6817883054
  0
ELLIPSE
  5
56C
100
AcDbEntity
  8
268
100
AcDbEllipse
 62
7
  6
CONTINUOUS
 10
130.0523415676
 20
130.212986467
 30
0.0
 11
0.110769438
 21
0.2241226716
 31
0.0
 40
0.6088015717
 41
0.6877230618
 42
2.2527016244
  0
ELLIPSE
  5
56D
100
AcDbEntity
  8
268
100
AcDbEllipse
 62
7
  6
CONTINUOUS
 10
120.4233478627
 20
136.8954322693
 30
0.0
 11
0.110769438
 21
0.2241226716
 31
0.0
 40
0.6088015717
 41
-1.9360885804
 42
-0.8888910292
  0
ELLIPSE
  5
56E
100
AcDbEntity
  8
268
100
AcDbEllipse
 62
7
  6
CONTINUOUS
 10
118.8031730064
 20
137.9664486738
 30
0.0
 11
0.1128509832
 21
0.2230818409
 31
0.0
 40
0.6159267166
 41
0.0028979148
 42
0.6817883054
  0
ELLIPSE
  5
56F
100
AcDbEntity
  8
268
100
AcDbEllipse
 62
7
  6
CONTINUOUS
 10
116.6880234032
 20
136.8951455493
 30
0.0
 11
0.110769438
 21
0.2241226716
 31
0.0
 40
0.6088015717
 41
0.6877230618
 42
2.2527016244
  0
ELLIPSE
  5
570
100
AcDbEntity
  8
268
100
AcDbEllipse
 62
7
  6
CONTINUOUS
 10
133.7876660271
 20
88.6527400713
 30
0.0
 11
0.110769438
 21
0.2241226716
 31
0.0
 40
0.6088015717
 41
-2.4538695918
 42
-0.8888910292
  0
ELLIPSE
  5
571
100
AcDbEntity
  8
268
100
AcDbEllipse
 62
7
  6
CONTINUOUS
 10
130.0523415676
 20
88.6600109339
 30
0.0
 11
0.110769438
 21
0.2241226716
 31
0.0
 40
0.6088015717
 41
1.2055040732
 42
2.2527016244
  0
ELLIPSE
  5
572
100
AcDbEntity
  8
268
100
AcDbEllipse
 62
7
  6
CONTINUOUS
 10
133.7876660271
 20
88.9136690477
 30
0.0
 11
0.110769438
 21
0.2241226716
 31
0.0
 40
0.6088015717
 41
5.394294278
 42
6.4414918292
  0
ELLIPSE
  5
573
100
AcDbEntity
  8
268
100
AcDbEllipse
 62
7
  6
CONTINUOUS
 10
120.4233478627
 20
137.1563612457
 30
0.0
 11
0.110769438
 21
0.2241226716
 31
0.0
 40
0.6088015717
 41
5.394294278
 42
6.9592728406
  0
ELLIPSE
  5
574
100
AcDbEntity
  8
268
100
AcDbEllipse
 62
7
  6
CONTINUOUS
 10
133.7876660271
 20
130.4742021634
 30
0.0
 11
0.110769438
 21
0.2241226716
 31
0.0
 40
0.6088015717
 41
5.394294278
 42
6.9592728406
  0
ELLIPSE
  5
575
100
AcDbEntity
  8
268
100
AcDbEllipse
 62
7
  6
CONTINUOUS
 10
128.5228058775
 20
136.4510681594
 30
0.0
 11
0.2999981629
 21
-0.0021225547
 31
0.0
 40
0.4946372042
 41
-0.7818985079
 42
0.0034997008
  0
ELLIPSE
  5
576
100
AcDbEntity
  8
268
100
AcDbEllipse
 62
7
  6
CONTINUOUS
 10
134.0772693916
 20
133.6738364023
 30
0.0
 11
0.2999981629
 21
-0.0021225547
 31
0.0
 40
0.4946372042
 41
-0.7760807437
 42
0.0035109161
  0
ELLIPSE
  5
577
100
AcDbEntity
  8
268
100
AcDbEllipse
 62
7
  6
CONTINUOUS
 10
122.37386015
 20
134.8529469614
 30
0.0
 11
0.2999991335
 21
0.0014318851
 31
0.0
 40
0.5035541159
 41
8.6427941204
 42
10.207772683
  0
ELLIPSE
  5
578
100
AcDbEntity
  8
268
100
AcDbEllipse
 62
7
  6
CONTINUOUS
 10
116.3605692411
 20
135.0558768601
 30
0.0
 11
-0.1565168911
 21
0.3130623908
 31
0.0
 40
0.6123677712
 41
-0.6846781644
 42
0.8861181623
  0
ELLIPSE
  5
579
100
AcDbEntity
  8
268
100
AcDbEllipse
 62
7
  6
CONTINUOUS
 10
131.6340757147
 20
127.4191236233
 30
0.0
 11
-0.1565168911
 21
0.3130623908
 31
0.0
 40
0.6123677712
 41
-2.2554744912
 42
-0.6846781644
  0
ELLIPSE
  5
57A
100
AcDbEntity
  8
268
100
AcDbEllipse
 62
7
  6
CONTINUOUS
 10
130.2475411202
 20
104.3760203974
 30
0.0
 11
-0.1085782352
 21
0.1690527654
 31
0.0
 40
0.5459771812
 41
-3.2040641194
 42
-2.3138348679
  0
ELLIPSE
  5
57B
100
AcDbEntity
  8
268
100
AcDbEllipse
 62
7
  6
CONTINUOUS
 10
128.1663692181
 20
131.9566924274
 30
0.0
 11
0.2999991335
 21
0.0014318851
 31
0.0
 40
0.5035541159
 41
-2.3585979313
 42
-0.7936193687
  0
ELLIPSE
  5
57C
100
AcDbEntity
  8
268
100
AcDbEllipse
 62
7
  6
CONTINUOUS
 10
128.1663692181
 20
130.7424933515
 30
0.0
 11
0.2999980272
 21
0.0021530184
 31
0.0
 40
0.5053247124
 41
-2.3598210761
 42
-0.7948425135
  0
ELLIPSE
  5
57D
100
AcDbEntity
  8
268
100
AcDbEllipse
 62
7
  6
CONTINUOUS
 10
122.37386015
 20
133.6387478856
 30
0.0
 11
0.2999980272
 21
0.0021530184
 31
0.0
 40
0.5053247124
 41
3.1379773283
 42
3.9233642311
  0
ELLIPSE
  5
57E
100
AcDbEntity
  8
268
100
AcDbEllipse
 62
7
  6
CONTINUOUS
 10
134.0772693916
 20
134.9056705837
 30
0.0
 11
0.2999991737
 21
-0.0014183462
 31
0.0
 40
0.4964289597
 41
-0.77723337
 42
0.7877451926
  0
ELLIPSE
  5
57F
100
AcDbEntity
  8
268
100
AcDbEllipse
 62
7
  6
CONTINUOUS
 10
128.5228058775
 20
137.6829023408
 30
0.0
 11
0.2999991737
 21
-0.0014183462
 31
0.0
 40
0.4964289597
 41
-0.7830511342
 42
0.7877451926
  0
ELLIPSE
  5
580
100
AcDbEntity
  8
268
100
AcDbEllipse
 62
7
  6
CONTINUOUS
 10
131.6340757147
 20
89.2652148462
 30
0.0
 11
-0.1565168911
 21
0.3130623908
 31
0.0
 40
0.6123677712
 41
2.4569144891
 42
4.0277108159
  0
ELLIPSE
  5
581
100
AcDbEntity
  8
268
100
AcDbEllipse
 62
7
  6
CONTINUOUS
 10
133.43616955
 20
89.4858638957
 30
0.0
 11
0.110769438
 21
0.2241226716
 31
0.0
 40
0.6088015717
 41
2.2527095058
 42
3.2998991756
  0
ELLIPSE
  5
582
100
AcDbEntity
  8
268
100
AcDbEllipse
 62
7
  6
CONTINUOUS
 10
131.6601749432
 20
129.4090697792
 30
0.0
 11
0.1128509832
 21
0.2230818409
 31
0.0
 40
0.6159267166
 41
0.6934238338
 42
2.2584023964
  0
ELLIPSE
  5
583
100
AcDbEntity
  8
268
100
AcDbEllipse
 62
7
  6
CONTINUOUS
 10
131.6601749432
 20
129.1556983855
 30
0.0
 11
0.1128509832
 21
0.2230818409
 31
0.0
 40
0.6159267166
 41
-4.0247829108
 42
-2.9775853596
  0
ELLIPSE
  5
584
100
AcDbEntity
  8
268
100
AcDbEllipse
 62
7
  6
CONTINUOUS
 10
118.2958567788
 20
136.0912288614
 30
0.0
 11
0.1128509832
 21
0.2230818409
 31
0.0
 40
0.6159267166
 41
0.6934238338
 42
2.2584023964
  0
ELLIPSE
  5
585
100
AcDbEntity
  8
268
100
AcDbEllipse
 62
7
  6
CONTINUOUS
 10
118.2958567788
 20
135.8378574677
 30
0.0
 11
0.1128509832
 21
0.2230818409
 31
0.0
 40
0.6159267166
 41
-4.0247829108
 42
-2.9775853596
  0
ELLIPSE
  5
586
100
AcDbEntity
  8
268
100
AcDbEllipse
 62
7
  6
CONTINUOUS
 10
131.6601749432
 20
87.6027228523
 30
0.0
 11
0.1128509832
 21
0.2230818409
 31
0.0
 40
0.6159267166
 41
-4.0247829108
 42
-2.4598043482
  0
ELLIPSE
  5
587
100
AcDbEntity
  8
268
100
AcDbEllipse
 62
7
  6
CONTINUOUS
 10
131.6601749432
 20
87.8560942461
 30
0.0
 11
0.1128509832
 21
0.2230818409
 31
0.0
 40
0.6159267166
 41
1.2112048452
 42
2.2584023964
  0
ELLIPSE
  5
588
100
AcDbEntity
  8
268
100
AcDbEllipse
 62
7
  6
CONTINUOUS
 10
129.9818694085
 20
94.706869213
 30
0.0
 11
-0.542618321
 21
0.8478124368
 31
0.0
 40
0.5451249042
 41
-3.2164376038
 42
-2.3115524019
  0
ENDSEC
  0
SECTION
  2
OBJECTS
  0
DICTIONARY
  5
C
100
AcDbDictionary
280
0
281
1
  3
ACAD_GROUP
350
D
  3
ACAD_MLINESTYLE
350
17
  3
ACAD_LAYOUT
350
1A
  3
ACAD_PLOTSETTINGS
350
19
  3
ACAD_PLOTSTYLENAME
350
E
  0
DICTIONARY
  5
D
102
{ACAD_REACTORS
330
C
102
}
100
AcDbDictionary
280
0
281
1
  0
ACDBDICTIONARYWDFLT
  5
E
102
{ACAD_REACTORS
330
C
102
}
100
AcDbDictionary
281
1
  3
Normal
350
F
100
AcDbDictionaryWithDefault
340
F
  0
DICTIONARY
  5
17
102
{ACAD_REACTORS
330
C
102
}
100
AcDbDictionary
280
0
281
1
  3
Standard
350
18
  0
DICTIONARY
  5
19
102
{ACAD_REACTORS
330
C
102
}
100
AcDbDictionary
281
1
  0
DICTIONARY
  5
1A
102
{ACAD_REACTORS
330
C
102
}
100
AcDbDictionary
281
1
  3
Model
350
589
  3
Layout1
350
58A
  0
ACDBPLACEHOLDER
  5
F
102
{ACAD_REACTORS
330
E
102
}
  0
MLINESTYLE
  5
18
102
{ACAD_REACTORS
330
17
102
}
100
AcDbMlineStyle
  2
STANDARD
 70
0
  3

 62
256
 51
90.0
 52
90.0
 71
2
 49
0.5
 62
256
  6
BYLAYER
 49
-0.5
 62
256
  6
BYLAYER
  0
LAYOUT
  5
589
102
{ACAD_REACTORS
330
1A
102
}
100
AcDbPlotSettings
  1

  2
none_device
  4
ISO_A4_(297.00_x_210.00_MM)
  6

 40
0.0
 41
0.0
 42
0.0
 43
0.0
 44
297.0
 45
210.0
 46
0.0
 47
0.0
 48
0.0
 49
0.0
140
0.0
141
0.0
142
1.0
143
1.0
 70
1024
 72
1
 73
0
 74
0
  7

 75
0
147
1.0
148
0.0
149
0.0
100
AcDbLayout
  1
Model
 70
0
 71
0
 10
0.0
 20
0.0
 11
297.0
 21
210.0
 12
0.0
 22
0.0
 32
0.0
 14
0.0
 24
0.0
 34
0.0
 15
0.0
 25
0.0
 35
0.0
146
0.0
 13
0.0
 23
0.0
 33
0.0
 16
1.0
 26
0.0
 36
0.0
 17
0.0
 27
1.0
 37
0.0
 76
0
330
224
345
0
346
0
  0
LAYOUT
  5
58A
102
{ACAD_REACTORS
330
1A
102
}
100
AcDbPlotSettings
  1

  2
none_device
  4
ISO_A4_(297.00_x_210.00_MM)
  6

 40
0.0
 41
0.0
 42
0.0
 43
0.0
 44
297.0
 45
210.0
 46
0.0
 47
0.0
 48
0.0
 49
0.0
140
0.0
141
0.0
142
1.0
143
1.0
 70
0
 72
1
 73
0
 74
0
  7

 75
0
147
1.0
148
0.0
149
0.0
100
AcDbLayout
  1
Layout1
 70
0
 71
1
 10
0.0
 20
0.0
 11
297.0
 21
210.0
 12
0.0
 22
0.0
 32
0.0
 14
0.0
 24
0.0
 34
0.0
 15
0.0
 25
0.0
 35
0.0
146
0.0
 13
0.0
 23
0.0
 33
0.0
 16
1.0
 26
0.0
 36
0.0
 17
0.0
 27
1.0
 37
0.0
 76
0
330
225
345
0
346
0
  0
ENDSEC
  0
EOF
