0
SECTION
2
HEADER
9
$ACADVER
1
AC1015
9
$DWGCODEPAGE
3
ANSI_1252
9
$EXTMAX
10
431.8000000000
20
558.8000000000
30
0.0000000000
9
$EXTMIN
10
0.0000000000
20
0.0000000000
30
0.0000000000
9
$LIMMIN
10
0.0000000000
20
0.0000000000
9
$LIMMAX
10
431.8000000000
20
558.8000000000
9
$VIEWCTR
10
215.9000000000
20
279.4000000000
9
$VIEWSIZE
40
558.8000000000
9
$CLAYER
8
0
9
$LTSCALE
40
36.4254814815
9
$CELTYPE
6
BYLAYER
9
$DIMSCALE
40
1
9
$DIMASZ
40
3.0000000000
9
$DIMEXO
40
4.1392592593
9
$DIMDLI
40
25.1666962963
9
$DIMEXE
40
11.9210666667
9
$DIMCEN
40
5.9605333333
9
$DIMLFAC
40
1.0000000000
9
$DIMBLK
1
_FILLED
9
$DIMTXT
40
3.0000000000
9
$DIMTOL
70
1
9
$DIMLIM
70
0
9
$DIMTFAC
40
1.0000000000
9
$DIMTP
40
0.0100000000
9
$DIMTM
40
0.0100000000
9
$PDMODE
70
3
9
$PDSIZE
40
3.0000000000
9
$HANDSEED
5
3CF
9
$MEASUREMENT
70
1
9
$INSUNITS
70
4
0
ENDSEC
0
SECTION
2
CLASSES
0
CLASS
1
ACDBDICTIONARYWDFLT
2
AcDbDictionaryWithDefault
3
AutoCAD 2000
90
0
280
0
281
0
0
CLASS
1
ACDBPLACEHOLDER
2
AcDbPlaceHolder
3
AutoCAD 2000
90
0
280
0
281
0
0
CLASS
1
LAYOUT
2
AcDbLayout
3
AutoCAD 2000
90
0
280
0
281
0
0
ENDSEC
0
SECTION
2
TABLES
0
TABLE
2
VPORT
5
8
100
AcDbSymbolTable
70
2
0
VPORT
5
1F4
100
AcDbSymbolTableRecord
100
AcDbViewportTableRecord
2
*ACTIVE
70
0
10
0.0
20
0.0
11
1.0
21
1.0
12
215.9000000000
22
279.4000000000
13
0.0
23
0.0
14
1.0
24
1.0
15
0.0
25
0.0
16
0.0
26
0.0
36
1.0
17
0.0
27
0.0
37
0.0
40
558.8000000000
41
0.7727272727
42
50.0
43
0.0
44
0.0
50
0.0
51
0.0
71
0
72
100
73
1
74
1
75
0
76
0
77
0
78
0
0
ENDTAB
0
TABLE
2
LTYPE
5
5
100
AcDbSymbolTable
70
6
0
LTYPE
5
14
100
AcDbSymbolTableRecord
100
AcDbLinetypeTableRecord
2
BYBLOCK
70
0
3

72
65
73
0
40
0.0
0
LTYPE
5
15
100
AcDbSymbolTableRecord
100
AcDbLinetypeTableRecord
2
BYLAYER
70
0
3

72
65
73
0
40
0.0
0
LTYPE
5
16
100
AcDbSymbolTableRecord
100
AcDbLinetypeTableRecord
2
CONTINUOUS
70
64
3
Solid line
72
65
73
0
40
0
0
LTYPE
5
1F5
100
AcDbSymbolTableRecord
100
AcDbLinetypeTableRecord
2
CENTER
70
64
3
____ _ ____ _ ____ _ ____ _ ____ _ ____ _ ____
72
65
73
4
40
0.6
49
0.375
74
0
49
-0.075
74
0
49
0.075
74
0
49
-0.075
74
0
0
LTYPE
5
1F6
100
AcDbSymbolTableRecord
100
AcDbLinetypeTableRecord
2
HIDDEN
70
64
3
- - - - - - - - - - - - - - - - - - - -
72
65
73
2
40
0.2
49
0.1
74
0
49
-0.1
74
0
0
LTYPE
5
1F7
100
AcDbSymbolTableRecord
100
AcDbLinetypeTableRecord
2
PHANTOM
70
64
3
_____ _ _ _____ _ _ _____ _ _ _____
72
65
73
6
40
0.8
49
0.45
74
0
49
-0.05
74
0
49
0.1
74
0
49
-0.05
74
0
49
0.1
74
0
49
-0.05
74
0
0
LTYPE
5
1F8
100
AcDbSymbolTableRecord
100
AcDbLinetypeTableRecord
2
DOT
70
64
3
. . . . . . . . . . . . . . . . . . . .
72
65
73
2
40
0.2
49
0.1
74
0
49
-0.1
74
0
0
LTYPE
5
1F9
100
AcDbSymbolTableRecord
100
AcDbLinetypeTableRecord
2
DASHED
70
64
3
- - - - - - - - - - - - - - - - - - - -
72
65
73
2
40
0.2
49
0.1
74
0
49
-0.1
74
0
0
ENDTAB
0
TABLE
2
LAYER
5
2
100
AcDbSymbolTable
70
36
0
LAYER
5
10
100
AcDbSymbolTableRecord
100
AcDbLayerTableRecord
2
0
70
0
62
7
6
CONTINUOUS
370
-3
390
F
0
LAYER
5
1FA
100
AcDbSymbolTableRecord
100
AcDbLayerTableRecord
2
DEFAULT_1
70
0
62
7
6
CENTER
370
-3
390
F
0
LAYER
5
1FB
100
AcDbSymbolTableRecord
100
AcDbLayerTableRecord
2
DEFAULT_2
70
0
62
9
6
HIDDEN
370
-3
390
F
0
LAYER
5
1FC
100
AcDbSymbolTableRecord
100
AcDbLayerTableRecord
2
DEFAULT_3
70
0
62
7
6
PHANTOM
370
-3
390
F
0
LAYER
5
1FD
100
AcDbSymbolTableRecord
100
AcDbLayerTableRecord
2
_BLACK_HOLE
70
0
62
7
6
CONTINUOUS
370
-3
390
F
0
LAYER
5
1FE
100
AcDbSymbolTableRecord
100
AcDbLayerTableRecord
2
218
70
0
62
7
6
CONTINUOUS
370
-3
390
F
0
LAYER
5
1FF
100
AcDbSymbolTableRecord
100
AcDbLayerTableRecord
2
260
70
0
62
7
6
CONTINUOUS
370
-3
390
F
0
LAYER
5
200
100
AcDbSymbolTableRecord
100
AcDbLayerTableRecord
2
268
70
0
62
7
6
CONTINUOUS
370
-3
390
F
0
LAYER
5
201
100
AcDbSymbolTableRecord
100
AcDbLayerTableRecord
2
284
70
0
62
7
6
CONTINUOUS
370
-3
390
F
0
LAYER
5
202
100
AcDbSymbolTableRecord
100
AcDbLayerTableRecord
2
320
70
0
62
7
6
CONTINUOUS
370
-3
390
F
0
LAYER
5
203
100
AcDbSymbolTableRecord
100
AcDbLayerTableRecord
2
340
70
0
62
7
6
CONTINUOUS
370
-3
390
F
0
LAYER
5
204
100
AcDbSymbolTableRecord
100
AcDbLayerTableRecord
2
712
70
0
62
7
6
CONTINUOUS
370
-3
390
F
0
LAYER
5
205
100
AcDbSymbolTableRecord
100
AcDbLayerTableRecord
2
715
70
0
62
7
6
CONTINUOUS
370
-3
390
F
0
LAYER
5
206
100
AcDbSymbolTableRecord
100
AcDbLayerTableRecord
2
ASSI
70
0
62
7
6
CONTINUOUS
370
-3
390
F
0
LAYER
5
207
100
AcDbSymbolTableRecord
100
AcDbLayerTableRecord
2
COLORE_TOP
70
0
62
7
6
CONTINUOUS
370
-3
390
F
0
LAYER
5
208
100
AcDbSymbolTableRecord
100
AcDbLayerTableRecord
2
COORDINATE
70
0
62
7
6
CONTINUOUS
370
-3
390
F
0
LAYER
5
209
100
AcDbSymbolTableRecord
100
AcDbLayerTableRecord
2
COORD_ORIGINE
70
0
62
7
6
CONTINUOUS
370
-3
390
F
0
LAYER
5
20A
100
AcDbSymbolTableRecord
100
AcDbLayerTableRecord
2
COPY-PUBBLISH
70
0
62
7
6
CONTINUOUS
370
-3
390
F
0
LAYER
5
20B
100
AcDbSymbolTableRecord
100
AcDbLayerTableRecord
2
COSMETICHE
70
0
62
7
6
CONTINUOUS
370
-3
390
F
0
LAYER
5
20C
100
AcDbSymbolTableRecord
100
AcDbLayerTableRecord
2
CURVE
70
0
62
7
6
CONTINUOUS
370
-3
390
F
0
LAYER
5
20D
100
AcDbSymbolTableRecord
100
AcDbLayerTableRecord
2
DRAFT
70
0
62
7
6
CONTINUOUS
370
-3
390
F
0
LAYER
5
20E
100
AcDbSymbolTableRecord
100
AcDbLayerTableRecord
2
IMPORT
70
0
62
7
6
CONTINUOUS
370
-3
390
F
0
LAYER
5
20F
100
AcDbSymbolTableRecord
100
AcDbLayerTableRecord
2
IMPORTED
70
0
62
7
6
CONTINUOUS
370
-3
390
F
0
LAYER
5
210
100
AcDbSymbolTableRecord
100
AcDbLayerTableRecord
2
INCISIONI_LASER
70
0
62
7
6
CONTINUOUS
370
-3
390
F
0
LAYER
5
211
100
AcDbSymbolTableRecord
100
AcDbLayerTableRecord
2
NOTE
70
0
62
7
6
CONTINUOUS
370
-3
390
F
0
LAYER
5
212
100
AcDbSymbolTableRecord
100
AcDbLayerTableRecord
2
PIANI
70
0
62
7
6
CONTINUOUS
370
-3
390
F
0
LAYER
5
213
100
AcDbSymbolTableRecord
100
AcDbLayerTableRecord
2
PIANI_DI_RIFERIMENTO
70
0
62
7
6
CONTINUOUS
370
-3
390
F
0
LAYER
5
214
100
AcDbSymbolTableRecord
100
AcDbLayerTableRecord
2
PIANI_ORIGINE
70
0
62
7
6
CONTINUOUS
370
-3
390
F
0
LAYER
5
215
100
AcDbSymbolTableRecord
100
AcDbLayerTableRecord
2
PIANI_RIFERIMENTO
70
0
62
7
6
CONTINUOUS
370
-3
390
F
0
LAYER
5
216
100
AcDbSymbolTableRecord
100
AcDbLayerTableRecord
2
PIANI_SFORMO
70
0
62
7
6
CONTINUOUS
370
-3
390
F
0
LAYER
5
217
100
AcDbSymbolTableRecord
100
AcDbLayerTableRecord
2
PUNTI
70
0
62
7
6
CONTINUOUS
370
-3
390
F
0
LAYER
5
218
100
AcDbSymbolTableRecord
100
AcDbLayerTableRecord
2
RACCORDO
70
0
62
7
6
CONTINUOUS
370
-3
390
F
0
LAYER
5
219
100
AcDbSymbolTableRecord
100
AcDbLayerTableRecord
2
SMUSSO
70
0
62
7
6
CONTINUOUS
370
-3
390
F
0
LAYER
5
21A
100
AcDbSymbolTableRecord
100
AcDbLayerTableRecord
2
SUPERFICI
70
0
62
7
6
CONTINUOUS
370
-3
390
F
0
LAYER
5
21B
100
AcDbSymbolTableRecord
100
AcDbLayerTableRecord
2
TRASH
70
0
62
7
6
CONTINUOUS
370
-3
390
F
0
LAYER
5
21C
100
AcDbSymbolTableRecord
100
AcDbLayerTableRecord
2
XSEC_DATUMS
70
0
62
7
6
CONTINUOUS
370
-3
390
F
0
ENDTAB
0
TABLE
2
STYLE
5
3
100
AcDbSymbolTable
70
1
0
STYLE
5
11
100
AcDbSymbolTableRecord
100
AcDbTextStyleTableRecord
2
STANDARD
70
0
40
0.0
41
0.8000000000
50
0.0
71
0
42
0.2
3
txt
4

0
ENDTAB
0
TABLE
2
VIEW
5
6
100
AcDbSymbolTable
70
0
0
ENDTAB
0
TABLE
2
UCS
5
7
100
AcDbSymbolTable
70
0
0
ENDTAB
0
TABLE
2
APPID
5
9
100
AcDbSymbolTable
70
1
0
APPID
5
21D
100
AcDbSymbolTableRecord
100
AcDbRegAppTableRecord
2
ACAD
70
0
0
ENDTAB
0
TABLE
2
BLOCK_RECORD
5
1
100
AcDbSymbolTable
70
0
0
BLOCK_RECORD
5
1F
100
AcDbSymbolTableRecord
100
AcDbBlockTableRecord
2
*MODEL_SPACE
0
BLOCK_RECORD
5
1B
100
AcDbSymbolTableRecord
100
AcDbBlockTableRecord
2
*PAPER_SPACE
0
ENDTAB
0
TABLE
2
DIMSTYLE
5
A
100
AcDbSymbolTable
70
1
100
AcDbDimStyleTable
71
0
0
DIMSTYLE
105
21E
100
AcDbSymbolTableRecord
100
AcDbDimStyleTableRecord
2
STANDARD
70
0
3

4

40
1.0
41
3.0000000000
42
0.0625
43
0.38
44
0.18
45
0.0
46
0.0
47
0.0100000000
48
0.0100000000
140
3.0000000000
141
0.09
142
0.0
143
25.4
144
1.0000000000
145
0.0
146
1.0000000000
147
0.09
71
1
72
0
73
0
74
0
75
0
76
0
77
1
78
8
170
0
171
2
172
0
173
0
174
0
175
0
176
0
177
0
178
0
270
2
271
2
272
2
273
2
274
2
275
0
280
0
281
0
282
0
283
1
284
8
285
0
286
0
287
3
288
0
340
11
0
ENDTAB
0
ENDSEC
0
SECTION
2
BLOCKS
0
BLOCK
5
20
100
AcDbEntity
8
0
100
AcDbBlockBegin
2
*MODEL_SPACE
70
0
10
0.0
20
0.0
30
0.0
3
*MODEL_SPACE
1

0
ENDBLK
5
21
100
AcDbEntity
8
0
100
AcDbBlockEnd
0
BLOCK
5
1C
100
AcDbEntity
8
0
100
AcDbBlockBegin
2
*PAPER_SPACE
70
0
10
0.0
20
0.0
30
0.0
3
*PAPER_SPACE
1

0
ENDBLK
5
1D
100
AcDbEntity
8
0
100
AcDbBlockEnd
0
ENDSEC
0
SECTION
2
ENTITIES
0
LINE
5
21F
100
AcDbEntity
8
0
100
AcDbLine
62
0
6
CONTINUOUS
10
-13.6212367781
20
23.9065189437
11
-12.0384801749
21
24.7185030410
0
LINE
5
220
100
AcDbEntity
8
0
100
AcDbLine
62
0
6
CONTINUOUS
10
-14.0698365514
20
22.0595383317
11
-13.0929696064
21
22.5584127404
0
LINE
5
221
100
AcDbEntity
8
0
100
AcDbLine
62
0
6
CONTINUOUS
10
-12.0384801749
20
24.7185030410
11
-11.5040302963
21
24.9788505076
0
LINE
5
222
100
AcDbEntity
8
0
100
AcDbLine
62
9
6
CONTINUOUS
10
-13.9123131451
20
22.0501050022
11
-13.0929696064
21
22.4685340681
0
LINE
5
223
100
AcDbEntity
8
0
100
AcDbLine
62
0
6
CONTINUOUS
10
-10.3414239001
20
22.0513215556
11
-11.4082548122
21
21.5127403061
0
LINE
5
224
100
AcDbEntity
8
0
100
AcDbLine
62
0
6
CONTINUOUS
10
-11.9427046909
20
23.0672529001
11
-10.3414239001
21
23.8699749036
0
LINE
5
225
100
AcDbEntity
8
0
100
AcDbLine
62
0
6
CONTINUOUS
10
-10.3414239001
20
23.8699749036
11
-9.8131567283
21
24.1334137236
0
LWPOLYLINE
5
226
100
AcDbEntity
8
0
100
AcDbPolyline
62
0
6
CONTINUOUS
90
19
70
0
10
-17.0515324295
20
19.5756787563
10
-17.0687247832
20
19.5686902415
10
-17.1613959731
20
19.5259508055
10
-17.2515460760
20
19.4757699008
10
-17.3391734141
20
19.4181982331
10
-17.4238679719
20
19.3535555009
10
-17.5048463574
20
19.2825396532
10
-17.5821358428
20
19.2052410541
10
-17.6555498949
20
19.1218713825
10
-17.7241418316
20
19.0335476407
10
-17.7878812575
20
18.9404530817
10
-17.8466118151
20
18.8427691004
10
-17.8994659095
20
18.7419742560
10
-17.9463821620
20
18.6383370346
10
-17.9872188719
20
18.5320311923
10
-18.0213904407
20
18.4245796115
10
-18.0487425854
20
18.3166017463
10
-18.0693147372
20
18.2078709451
10
-18.0740677489
20
18.1756480787
0
LINE
5
227
100
AcDbEntity
8
0
100
AcDbLine
62
0
6
CONTINUOUS
10
-17.0515368786
20
19.5756899332
11
-13.1386097403
21
21.1322990814
0
LINE
5
228
100
AcDbEntity
8
0
100
AcDbLine
62
9
6
CONTINUOUS
10
-16.7014455397
20
19.5491538949
11
-12.7924729782
21
21.1041898189
0
LWPOLYLINE
5
229
100
AcDbEntity
8
0
100
AcDbPolyline
62
0
6
CONTINUOUS
90
12
70
0
10
-6.5452327203
20
-26.3179250239
10
-6.5131355244
20
-26.3333471335
10
-6.4314223277
20
-26.3669590890
10
-6.3467092171
20
-26.3939075214
10
-6.2594380750
20
-26.4139358290
10
-6.1698182125
20
-26.4268632456
10
-6.0783869062
20
-26.4324674830
10
-5.9857418126
20
-26.4305814572
10
-5.8920831806
20
-26.4210496798
10
-5.7978060594
20
-26.4037329121
10
-5.7035903478
20
-26.3786050070
10
-5.6873467454
20
-26.3734678210
0
LINE
5
22A
100
AcDbEntity
8
0
100
AcDbLine
62
0
6
CONTINUOUS
10
-6.5443388334
20
-26.3183871466
11
-20.6795564702
21
-19.2507783282
0
LINE
5
22B
100
AcDbEntity
8
0
100
AcDbLine
62
9
6
CONTINUOUS
10
-6.9370191082
20
-25.4445015070
11
-21.0642901496
21
-18.3808659863
0
LINE
5
22C
100
AcDbEntity
8
0
100
AcDbLine
62
0
6
CONTINUOUS
10
-9.7263050651
20
23.4258135966
11
-10.2535497808
21
22.7841058686
0
LINE
5
22D
100
AcDbEntity
8
0
100
AcDbLine
62
0
6
CONTINUOUS
10
-8.1123848078
20
21.6494930353
11
-7.6190627925
21
21.9025765672
0
LINE
5
22E
100
AcDbEntity
8
0
100
AcDbLine
62
0
6
CONTINUOUS
10
-8.9209982626
20
22.0406578289
11
-2.4129616359
21
25.2817994344
0
LINE
5
22F
100
AcDbEntity
8
0
100
AcDbLine
62
9
6
CONTINUOUS
10
-8.8455051221
20
22.0029112586
11
-2.5309647955
21
25.1476875632
0
LINE
5
230
100
AcDbEntity
8
0
100
AcDbLine
62
0
6
CONTINUOUS
10
-1.5379444743
20
24.2679440324
11
-6.2755599083
21
21.9328935178
0
LINE
5
231
100
AcDbEntity
8
0
100
AcDbLine
62
0
6
CONTINUOUS
10
-7.6190627925
20
21.9025765672
11
-2.1414228030
21
24.5709085304
0
LINE
5
232
100
AcDbEntity
8
0
100
AcDbLine
62
0
6
CONTINUOUS
10
3.1107683836
20
-24.0726573530
11
3.6380130993
21
-24.1809496250
0
LINE
5
233
100
AcDbEntity
8
0
100
AcDbLine
62
0
6
CONTINUOUS
10
-0.3670509174
20
-25.1951087391
11
1.3101958582
21
-26.0337321269
0
LINE
5
234
100
AcDbEntity
8
0
100
AcDbLine
62
9
6
CONTINUOUS
10
-0.4316443962
20
-25.0600801979
11
1.2448427441
21
-25.8983237680
0
LWPOLYLINE
5
235
100
AcDbEntity
8
0
100
AcDbPolyline
62
0
6
CONTINUOUS
90
15
70
0
10
-21.2986283692
20
-18.1001199978
10
-21.2997371081
20
-18.1511686363
10
-21.2957316174
20
-18.2707410372
10
-21.2825208636
20
-18.3863364481
10
-21.2603087084
20
-18.4978397352
10
-21.2293340326
20
-18.6047420680
10
-21.1901315910
20
-18.7059150560
10
-21.1434620272
20
-18.8004846985
10
-21.0897455688
20
-18.8884800920
10
-21.0293028611
20
-18.9698730838
10
-20.9629886360
20
-19.0439967904
10
-20.8913836619
20
-19.1106937401
10
-20.8142746004
20
-19.1703565918
10
-20.7319742435
20
-19.2226808158
10
-20.6785010958
20
-19.2512898208
0
LINE
5
236
100
AcDbEntity
8
0
100
AcDbLine
62
0
6
CONTINUOUS
10
-21.2986311232
20
-18.0999389466
11
-21.2986379024
21
-18.1001196437
0
LWPOLYLINE
5
237
100
AcDbEntity
8
0
100
AcDbPolyline
62
0
6
CONTINUOUS
90
13
70
0
10
-18.0740621377
20
18.1757320124
10
-18.4779484199
20
15.1589899886
10
-18.8652605590
20
12.0820555510
10
-19.2265673940
20
9.0133374406
10
-19.5618145029
20
5.9532681236
10
-19.8709613654
20
2.9022276607
10
-20.1539713450
20
-0.1394243314
10
-20.4108073880
20
-3.1713139922
10
-20.6414376550
20
-6.1930692923
10
-20.8458325183
20
-9.2043331872
10
-21.0239627175
20
-12.2047301320
10
-21.1758042111
20
-15.1938393091
10
-21.2986311232
20
-18.0999389466
0
LINE
5
238
100
AcDbEntity
8
0
100
AcDbLine
62
0
6
CONTINUOUS
10
-0.2108706459
20
22.7980697988
11
-1.6086551524
21
22.0991775456
0
LINE
5
239
100
AcDbEntity
8
0
100
AcDbLine
62
0
6
CONTINUOUS
10
-2.6835604870
20
21.4071377900
11
-2.6220108487
21
21.4379126092
0
LINE
5
23A
100
AcDbEntity
8
0
100
AcDbLine
62
9
6
CONTINUOUS
10
-2.5986046461
20
21.3992139935
11
-2.5325681297
21
21.4322322517
0
LINE
5
23B
100
AcDbEntity
8
0
100
AcDbLine
62
0
6
CONTINUOUS
10
-1.9622085430
20
22.8285124302
11
-1.5379444743
21
23.0361098510
0
LINE
5
23C
100
AcDbEntity
8
0
100
AcDbLine
62
0
6
CONTINUOUS
10
0.4481251054
20
23.6581426127
11
-1.6086551524
21
22.6517357349
0
LINE
5
23D
100
AcDbEntity
8
0
100
AcDbLine
62
9
6
CONTINUOUS
10
1.2448427441
20
-25.5583498339
11
-0.4316443962
21
-24.7201062637
0
LINE
5
23E
100
AcDbEntity
8
0
100
AcDbLine
62
9
6
CONTINUOUS
10
1.3337453201
20
-25.3269127742
11
-0.3437702769
21
-24.4881549757
0
LINE
5
23F
100
AcDbEntity
8
0
100
AcDbLine
62
0
6
CONTINUOUS
10
-1.2091834060
20
-23.0616095109
11
1.3611933285
21
-24.3467978782
0
LINE
5
240
100
AcDbEntity
8
0
100
AcDbLine
62
0
6
CONTINUOUS
10
1.9560633522
20
-24.5818533567
11
1.5147269925
21
-24.3611851769
0
LINE
5
241
100
AcDbEntity
8
0
100
AcDbLine
62
0
6
CONTINUOUS
10
-1.1813083990
20
-22.7480310759
11
1.6086807020
21
-24.1430256264
0
LINE
5
242
100
AcDbEntity
8
0
100
AcDbLine
62
0
6
CONTINUOUS
10
-2.6952713438
20
21.3993894152
11
-3.6252961626
21
20.6077616449
0
LINE
5
243
100
AcDbEntity
8
0
100
AcDbLine
62
9
6
CONTINUOUS
10
-2.5986046461
20
21.3992139935
11
-3.5642705881
21
20.5772488577
0
LINE
5
244
100
AcDbEntity
8
0
100
AcDbLine
62
0
6
CONTINUOUS
10
-1.8956188509
20
18.5411100568
11
-1.3965231181
21
18.7913067299
0
LINE
5
245
100
AcDbEntity
8
0
100
AcDbLine
62
0
6
CONTINUOUS
10
-1.3965231181
20
18.7913067299
11
4.0177495771
21
21.4913223403
0
LINE
5
246
100
AcDbEntity
8
0
100
AcDbLine
62
0
6
CONTINUOUS
10
3.4118029940
20
21.7930702983
11
-1.3258124400
21
19.4580197836
0
LINE
5
247
100
AcDbEntity
8
0
100
AcDbLine
62
0
6
CONTINUOUS
10
4.6907657926
20
21.5368222691
11
4.1043870055
21
21.2499002015
0
LINE
5
248
100
AcDbEntity
8
0
100
AcDbLine
62
0
6
CONTINUOUS
10
10.9705960287
20
24.2020769486
11
5.1906965796
21
21.5327278438
0
LINE
5
249
100
AcDbEntity
8
0
100
AcDbLine
62
9
6
CONTINUOUS
10
11.4022154538
20
24.1662832423
11
5.4838963865
21
21.4330073707
0
LINE
5
24A
100
AcDbEntity
8
0
100
AcDbLine
62
9
6
CONTINUOUS
10
3.1107683836
20
-24.0726573530
11
3.0673460577
21
-24.0509461901
0
LINE
5
24B
100
AcDbEntity
8
0
100
AcDbLine
62
0
6
CONTINUOUS
10
-1.1016912504
20
-21.8523821205
11
2.4218535003
21
-23.6141544959
0
LINE
5
24C
100
AcDbEntity
8
0
100
AcDbLine
62
9
6
CONTINUOUS
10
3.0228942643
20
-23.8733902075
11
3.6380130993
21
-24.1809496250
0
LINE
5
24D
100
AcDbEntity
8
0
100
AcDbLine
62
0
6
CONTINUOUS
10
3.0228942643
20
-23.8697700580
11
3.6394611591
21
-24.1780535054
0
LINE
5
24E
100
AcDbEntity
8
0
100
AcDbLine
62
0
6
CONTINUOUS
10
-0.9612669966
20
-20.2726868099
11
2.4218535003
21
-21.9642470584
0
LWPOLYLINE
5
24F
100
AcDbEntity
8
0
100
AcDbPolyline
62
0
6
CONTINUOUS
90
32
70
0
10
-13.6141615558
20
-14.4794590283
10
-13.5971173457
20
-14.4882132369
10
-13.5259617508
20
-14.5296952196
10
-13.4555203901
20
-14.5788066671
10
-13.3864646937
20
-14.6351369593
10
-13.3193464707
20
-14.6982164181
10
-13.2546303982
20
-14.7676348258
10
-13.1928377501
20
-14.8428524266
10
-13.1344548059
20
-14.9232509347
10
-13.0798601030
20
-15.0083436164
10
-13.0294865941
20
-15.0974892372
10
-12.9837125384
20
-15.1899859307
10
-12.9428304539
20
-15.2852853704
10
-12.9071736011
20
-15.3826644810
10
-12.8770060299
20
-15.4813744688
10
-12.8525368121
20
-15.5808234273
10
-12.8339890583
20
-15.6802365201
10
-12.8215067428
20
-15.7788306539
10
-12.8152059098
20
-15.8759543016
10
-12.8151748556
20
-15.9708189162
10
-12.8214129439
20
-16.0626160694
10
-12.8338934511
20
-16.1505865291
10
-12.8525235787
20
-16.2339808454
10
-12.8770997018
20
-16.3120364501
10
-12.9073403528
20
-16.3839497746
10
-12.9428670715
20
-16.4490585010
10
-12.9832942140
20
-16.5069532724
10
-13.0282903479
20
-16.5572962596
10
-13.0773575573
20
-16.5997264811
10
-13.1301971812
20
-16.6341741436
10
-13.1869803104
20
-16.6606836600
10
-13.1962556158
20
-16.6641147525
0
LINE
5
250
100
AcDbEntity
8
0
100
AcDbLine
62
0
6
CONTINUOUS
10
-0.2569186137
20
17.2243598615
11
1.3258379895
21
18.0363439588
0
LINE
5
251
100
AcDbEntity
8
0
100
AcDbLine
62
0
6
CONTINUOUS
10
-1.8956188509
20
17.3269065840
11
-1.3965231181
21
17.5788711646
0
LINE
5
252
100
AcDbEntity
8
0
100
AcDbLine
62
0
6
CONTINUOUS
10
-1.3965231181
20
17.5788711646
11
4.0177495771
21
20.2594837619
0
LINE
5
253
100
AcDbEntity
8
0
100
AcDbLine
62
0
6
CONTINUOUS
10
1.3258379895
20
18.0363439588
11
1.8602878682
21
18.2966914254
0
LINE
5
254
100
AcDbEntity
8
0
100
AcDbLine
62
0
6
CONTINUOUS
10
12.4429819556
20
23.6458999914
11
8.8699082571
21
21.9404666746
0
LWPOLYLINE
5
255
100
AcDbEntity
8
0
100
AcDbPolyline
62
0
6
CONTINUOUS
90
4
70
0
10
-13.7473943578
20
-14.4267866975
10
-13.6864896162
20
-14.4473963621
10
-13.6253310979
20
-14.4739688121
10
-13.6142323573
20
-14.4794176075
0
LINE
5
256
100
AcDbEntity
8
0
100
AcDbLine
62
0
6
CONTINUOUS
10
-14.1598005185
20
21.8707282556
11
-14.1598005185
21
21.8463327504
0
LINE
5
257
100
AcDbEntity
8
0
100
AcDbLine
62
0
6
CONTINUOUS
10
-13.7959625606
20
23.2616569579
11
-13.7959625606
21
23.6016308920
0
LINE
5
258
100
AcDbEntity
8
0
100
AcDbLine
62
9
6
CONTINUOUS
10
3.5912167109
20
16.6866987911
11
8.8599465385
21
19.5292994067
0
LINE
5
259
100
AcDbEntity
8
0
100
AcDbLine
62
9
6
CONTINUOUS
10
3.2245965576
20
16.2404866650
11
8.7757949709
21
19.2354855629
0
LINE
5
25A
100
AcDbEntity
8
0
100
AcDbLine
62
0
6
CONTINUOUS
10
8.9515489194
20
19.6128553224
11
9.5838369856
21
19.9462733221
0
LINE
5
25B
100
AcDbEntity
8
0
100
AcDbLine
62
9
6
CONTINUOUS
10
9.5837092036
20
19.9462059352
11
9.5838369856
21
19.9462733221
0
LINE
5
25C
100
AcDbEntity
8
0
100
AcDbLine
62
9
6
CONTINUOUS
10
3.0956821054
20
16.0822618797
11
8.7757949709
21
19.0232264088
0
LINE
5
25D
100
AcDbEntity
8
0
100
AcDbLine
62
0
6
CONTINUOUS
10
3.1663757810
20
15.9969708071
11
8.8580046833
21
18.9438979386
0
LINE
5
25E
100
AcDbEntity
8
0
100
AcDbLine
62
0
6
CONTINUOUS
10
9.2638941909
20
20.9183108566
11
13.4802739687
21
23.0636204733
0
LINE
5
25F
100
AcDbEntity
8
0
100
AcDbLine
62
0
6
CONTINUOUS
10
9.2638941909
20
20.5080918136
11
13.4863309555
21
22.6261320060
0
LINE
5
260
100
AcDbEntity
8
0
100
AcDbLine
62
0
6
CONTINUOUS
10
1.4216134735
20
16.3850938179
11
3.0228942643
21
17.1878158214
0
LINE
5
261
100
AcDbEntity
8
0
100
AcDbLine
62
0
6
CONTINUOUS
10
9.7121244144
20
19.7231815908
11
10.2070991612
21
19.9706689642
0
LINE
5
262
100
AcDbEntity
8
0
100
AcDbLine
62
0
6
CONTINUOUS
10
3.0228942643
20
17.1878158214
11
3.5511614361
21
17.4512546414
0
LINE
5
263
100
AcDbEntity
8
0
100
AcDbLine
62
9
6
CONTINUOUS
10
2.9863188139
20
17.7956533234
11
7.6698556935
21
20.0472773187
0
LINE
5
264
100
AcDbEntity
8
0
100
AcDbLine
62
9
6
CONTINUOUS
10
3.2139343138
20
17.6818455734
11
8.1116965614
21
20.0364590384
0
LINE
5
265
100
AcDbEntity
8
0
100
AcDbLine
62
0
6
CONTINUOUS
10
1.6086807020
20
13.9620921401
11
2.4218535003
21
14.2463938080
0
LINE
5
266
100
AcDbEntity
8
0
100
AcDbLine
62
0
6
CONTINUOUS
10
-13.3466277201
20
21.4397463512
11
-13.3466277201
21
21.0495470472
0
LINE
5
267
100
AcDbEntity
8
0
100
AcDbLine
62
0
6
CONTINUOUS
10
-13.0929696064
20
22.3550977032
11
-13.0929696064
21
22.8074286788
0
LINE
5
268
100
AcDbEntity
8
0
100
AcDbLine
62
0
6
CONTINUOUS
10
-12.1194754203
20
22.7633873218
11
-12.1194754203
21
22.4234133877
0
LINE
5
269
100
AcDbEntity
8
0
100
AcDbLine
62
0
6
CONTINUOUS
10
-11.4082548122
20
21.5127403061
11
-11.4082548122
21
22.1499098648
0
LINE
5
26A
100
AcDbEntity
8
0
100
AcDbLine
62
0
6
CONTINUOUS
10
-7.1697293466
20
18.3512971644
11
-7.1866481571
21
18.3012774084
0
LINE
5
26B
100
AcDbEntity
8
0
100
AcDbLine
62
9
6
CONTINUOUS
10
3.1289602815
20
15.3161294648
11
1.3611933285
21
14.4133517653
0
LINE
5
26C
100
AcDbEntity
8
0
100
AcDbLine
62
9
6
CONTINUOUS
10
3.3764476549
20
14.8892653449
11
1.6086807020
21
13.9864876454
0
LINE
5
26D
100
AcDbEntity
8
0
100
AcDbLine
62
0
6
CONTINUOUS
10
3.0228942643
20
15.3691624734
11
1.9560633522
21
14.8305812239
0
LINE
5
26E
100
AcDbEntity
8
0
100
AcDbLine
62
0
6
CONTINUOUS
10
12.6752770737
20
20.1511688165
11
11.3638127627
21
19.4954366610
0
LINE
5
26F
100
AcDbEntity
8
0
100
AcDbLine
62
0
6
CONTINUOUS
10
13.5238077814
20
19.7269060329
11
12.7020239557
21
19.3160141201
0
LINE
5
270
100
AcDbEntity
8
0
100
AcDbLine
62
9
6
CONTINUOUS
10
3.8360670627
20
15.6621251662
11
3.1289602815
21
15.3161294648
0
LINE
5
271
100
AcDbEntity
8
0
100
AcDbLine
62
9
6
CONTINUOUS
10
4.0835544361
20
15.2352610463
11
3.3764476549
21
14.8892653449
0
LINE
5
272
100
AcDbEntity
8
0
100
AcDbLine
62
0
6
CONTINUOUS
10
3.7759320418
20
15.6921926767
11
9.4417966107
21
18.4443812209
0
LINE
5
273
100
AcDbEntity
8
0
100
AcDbLine
62
0
6
CONTINUOUS
10
17.9286796061
20
20.9030511662
11
10.1944906946
21
17.1461759599
0
LINE
5
274
100
AcDbEntity
8
0
100
AcDbLine
62
0
6
CONTINUOUS
10
17.1034331384
20
21.3156744000
11
13.5400023018
21
19.6054196522
0
LINE
5
275
100
AcDbEntity
8
0
100
AcDbLine
62
9
6
CONTINUOUS
10
1.4912563151
20
13.9623251723
11
-2.5572354673
21
12.4770488586
0
LINE
5
276
100
AcDbEntity
8
0
100
AcDbLine
62
9
6
CONTINUOUS
10
1.9928279285
20
12.9592497783
11
-2.0556638538
21
11.4739734646
0
LINE
5
277
100
AcDbEntity
8
0
100
AcDbLine
62
0
6
CONTINUOUS
10
-10.3414239001
20
22.0513215556
11
-10.3414239001
21
23.8699749036
0
LINE
5
278
100
AcDbEntity
8
0
100
AcDbLine
62
0
6
CONTINUOUS
10
-9.6384309458
20
24.0052964013
11
-9.6384309458
21
23.6577648846
0
LINE
5
279
100
AcDbEntity
8
0
100
AcDbLine
62
9
6
CONTINUOUS
10
18.2715771820
20
20.3116403306
11
4.0835544361
21
13.0934442117
0
LINE
5
27A
100
AcDbEntity
8
0
100
AcDbLine
62
9
6
CONTINUOUS
10
18.6857276577
20
18.8800067559
11
4.0835544361
21
11.4511104282
0
LINE
5
27B
100
AcDbEntity
8
0
100
AcDbLine
62
0
6
CONTINUOUS
10
-8.1990222362
20
21.5429860934
11
-8.1990222362
21
20.3282527072
0
LINE
5
27C
100
AcDbEntity
8
0
100
AcDbLine
62
9
6
CONTINUOUS
10
-8.1111542705
20
21.4364771365
11
-8.1111542705
21
20.2215222705
0
LINE
5
27D
100
AcDbEntity
8
0
100
AcDbLine
62
0
6
CONTINUOUS
10
-7.9372608441
20
18.7350629131
11
-7.9372608441
21
18.6765837519
0
LINE
5
27E
100
AcDbEntity
8
0
100
AcDbLine
62
0
6
CONTINUOUS
10
3.6380130993
20
16.7436545144
11
3.1107683836
21
16.1019467863
0
LINE
5
27F
100
AcDbEntity
8
0
100
AcDbLine
62
0
6
CONTINUOUS
10
-2.9875133758
20
16.2601891790
11
-2.9875133758
21
16.2017100177
0
LINE
5
280
100
AcDbEntity
8
0
100
AcDbLine
62
9
6
CONTINUOUS
10
-2.3186452025
20
17.3252677364
11
-2.3186452025
21
18.5402226025
0
LINE
5
281
100
AcDbEntity
8
0
100
AcDbLine
62
0
6
CONTINUOUS
10
0.3620254164
20
-5.3863779159
11
0.6894418864
21
-5.5500861509
0
LINE
5
282
100
AcDbEntity
8
0
100
AcDbLine
62
0
6
CONTINUOUS
10
-0.2730812809
20
-12.5309775406
11
0.4162284840
21
-18.9558816898
0
LINE
5
283
100
AcDbEntity
8
0
100
AcDbLine
62
0
6
CONTINUOUS
10
0.0748912416
20
-8.6164788204
11
0.1160854754
21
-9.0035852645
0
LINE
5
284
100
AcDbEntity
8
0
100
AcDbLine
62
0
6
CONTINUOUS
10
-1.9622085430
20
21.5792175970
11
-1.9622085430
21
22.8285124302
0
LINE
5
285
100
AcDbEntity
8
0
100
AcDbLine
62
9
6
CONTINUOUS
10
-1.8956188509
20
17.3269065840
11
-1.8956188509
21
18.5411100568
0
LINE
5
286
100
AcDbEntity
8
0
100
AcDbLine
62
0
6
CONTINUOUS
10
-1.6086551524
20
22.0991775456
11
-1.6086551524
21
22.6517357349
0
LINE
5
287
100
AcDbEntity
8
0
100
AcDbLine
62
9
6
CONTINUOUS
10
-1.5379444743
20
24.2679440324
11
-1.5379444743
21
23.0361098510
0
LINE
5
288
100
AcDbEntity
8
0
100
AcDbLine
62
0
6
CONTINUOUS
10
-1.4500765087
20
24.3729412464
11
-1.4500765087
21
23.1405726415
0
LINE
5
289
100
AcDbEntity
8
0
100
AcDbLine
62
0
6
CONTINUOUS
10
-1.3965231181
20
18.7913067299
11
-1.3965231181
21
17.5788711646
0
LINE
5
28A
100
AcDbEntity
8
0
100
AcDbLine
62
0
6
CONTINUOUS
10
-0.4316443962
20
-25.0600801979
11
-0.4316443962
21
-24.7201062637
0
LINE
5
28B
100
AcDbEntity
8
0
100
AcDbLine
62
0
6
CONTINUOUS
10
-0.4316443962
20
16.5794978756
11
-0.4316443962
21
16.9194718098
0
LINE
5
28C
100
AcDbEntity
8
0
100
AcDbLine
62
0
6
CONTINUOUS
10
18.9663878573
20
13.0476349336
11
19.8815646445
21
13.6395635528
0
LINE
5
28D
100
AcDbEntity
8
0
100
AcDbLine
62
0
6
CONTINUOUS
10
0.6894418864
20
-5.5500861509
11
2.4218535003
21
-21.9642470584
0
LINE
5
28E
100
AcDbEntity
8
0
100
AcDbLine
62
0
6
CONTINUOUS
10
0.2713485581
20
15.6729386210
11
0.2713485581
21
16.1252695966
0
LINE
5
28F
100
AcDbEntity
8
0
100
AcDbLine
62
0
6
CONTINUOUS
10
1.1490612942
20
23.1426182789
11
1.1490612942
21
22.8718179862
0
LINE
5
290
100
AcDbEntity
8
0
100
AcDbLine
62
0
6
CONTINUOUS
10
1.2448427441
20
16.0812282396
11
1.2448427441
21
15.7412543055
0
LINE
5
291
100
AcDbEntity
8
0
100
AcDbLine
62
0
6
CONTINUOUS
10
1.2448427441
20
-25.5583498339
11
1.2448427441
21
-25.8983237680
0
LINE
5
292
100
AcDbEntity
8
0
100
AcDbLine
62
0
6
CONTINUOUS
10
1.6086807020
20
13.9864876454
11
1.6086807020
21
13.9620921401
0
LINE
5
293
100
AcDbEntity
8
0
100
AcDbLine
62
0
6
CONTINUOUS
10
1.6086807020
20
-24.1430256264
11
1.6086807020
21
-24.1674211317
0
LINE
5
294
100
AcDbEntity
8
0
100
AcDbLine
62
0
6
CONTINUOUS
10
1.9560633522
20
-24.5818533567
11
1.9560633522
21
-24.1422538111
0
LINE
5
295
100
AcDbEntity
8
0
100
AcDbLine
62
0
6
CONTINUOUS
10
1.9560633522
20
14.8305812239
11
1.9560633522
21
15.4677507826
0
LINE
5
296
100
AcDbEntity
8
0
100
AcDbLine
62
0
6
CONTINUOUS
10
-1.3451414744
20
-24.5910627011
11
1.9928279285
21
12.9592497783
0
LINE
5
297
100
AcDbEntity
8
0
100
AcDbLine
62
0
6
CONTINUOUS
10
2.4218535003
20
12.5964863705
11
0.6894418864
21
-5.5500861509
0
LINE
5
298
100
AcDbEntity
8
0
100
AcDbLine
62
0
6
CONTINUOUS
10
2.4218535003
20
14.2463938080
11
2.4218535003
21
12.5964863705
0
LINE
5
299
100
AcDbEntity
8
0
100
AcDbLine
62
0
6
CONTINUOUS
10
2.4218535003
20
-21.9642470584
11
2.4218535003
21
-23.6141544959
0
LINE
5
29A
100
AcDbEntity
8
0
100
AcDbLine
62
0
6
CONTINUOUS
10
3.0228942643
20
15.3691624734
11
3.0228942643
21
17.1878158214
0
LINE
5
29B
100
AcDbEntity
8
0
100
AcDbLine
62
0
6
CONTINUOUS
10
3.0228942643
20
-23.6202408429
11
3.0228942643
21
-25.2474289641
0
LINE
5
29C
100
AcDbEntity
8
0
100
AcDbLine
62
0
6
CONTINUOUS
10
3.7258872186
20
17.3231373191
11
3.7258872186
21
16.9756058024
0
LINE
5
29D
100
AcDbEntity
8
0
100
AcDbLine
62
0
6
CONTINUOUS
10
3.7258872186
20
-24.3239983370
11
3.7258872186
21
-24.6715298537
0
LINE
5
29E
100
AcDbEntity
8
0
100
AcDbLine
62
9
6
CONTINUOUS
10
4.0177495771
20
21.4913223403
11
4.0177495771
21
20.2594837619
0
LINE
5
29F
100
AcDbEntity
8
0
100
AcDbLine
62
0
6
CONTINUOUS
10
4.0835544361
20
-22.9413207984
11
4.0835544361
21
15.2352610463
0
LINE
5
2A0
100
AcDbEntity
8
0
100
AcDbLine
62
0
6
CONTINUOUS
10
4.1043870055
20
21.5957097156
11
4.1043870055
21
20.3633412239
0
LINE
5
2A1
100
AcDbEntity
8
0
100
AcDbLine
62
9
6
CONTINUOUS
10
8.7757949709
20
19.2354855629
11
8.7757949709
21
19.0232264088
0
LINE
5
2A2
100
AcDbEntity
8
0
100
AcDbLine
62
9
6
CONTINUOUS
10
8.7757949709
20
-17.7187401617
11
8.7757949709
21
-17.9085098658
0
LINE
5
2A3
100
AcDbEntity
8
0
100
AcDbLine
62
9
6
CONTINUOUS
10
0.0370270085
20
-9.0424305340
11
0.1160854754
21
-9.0035852645
0
LINE
5
2A4
100
AcDbEntity
8
0
100
AcDbLine
62
0
6
CONTINUOUS
10
0.0293458036
20
-9.1288398469
11
0.0772359785
21
-9.1053090750
0
LINE
5
2A5
100
AcDbEntity
8
0
100
AcDbLine
62
0
6
CONTINUOUS
10
-14.0755872447
20
-14.6490023316
11
-13.6143062430
21
-14.4790662837
0
LINE
5
2A6
100
AcDbEntity
8
0
100
AcDbLine
62
0
6
CONTINUOUS
10
-14.0739941309
20
-14.4293634753
11
-14.0728699643
21
-14.4289597410
0
LINE
5
2A7
100
AcDbEntity
8
0
100
AcDbLine
62
9
6
CONTINUOUS
10
-3.7107608341
20
10.8491224625
11
-17.8380318755
21
17.9127579832
0
LINE
5
2A8
100
AcDbEntity
8
0
100
AcDbLine
62
0
6
CONTINUOUS
10
8.8599465385
20
19.5292994067
11
8.8599930092
21
19.5231620687
0
LINE
5
2A9
100
AcDbEntity
8
0
100
AcDbLine
62
0
6
CONTINUOUS
10
8.8599930308
20
19.5231064411
11
8.8599930308
21
18.9471432516
0
LINE
5
2AA
100
AcDbEntity
8
0
100
AcDbLine
62
0
6
CONTINUOUS
10
8.8599930308
20
-17.6742148407
11
8.8599930308
21
-17.9877332329
0
LINE
5
2AB
100
AcDbEntity
8
0
100
AcDbLine
62
9
6
CONTINUOUS
10
9.2638941909
20
20.5080918136
11
9.2638941909
21
20.9183108566
0
LINE
5
2AC
100
AcDbEntity
8
0
100
AcDbLine
62
0
6
CONTINUOUS
10
9.9466043889
20
20.8505499059
11
9.9466043889
21
20.4175372040
0
LINE
5
2AD
100
AcDbEntity
8
0
100
AcDbLine
62
0
6
CONTINUOUS
10
10.9140681013
20
19.6171844941
11
10.9140681013
21
19.1648598538
0
LINE
5
2AE
100
AcDbEntity
8
0
100
AcDbLine
62
0
6
CONTINUOUS
10
8.8599465385
20
-17.9886447956
11
8.8599930092
21
-17.9879028408
0
LINE
5
2AF
100
AcDbEntity
8
0
100
AcDbLine
62
0
6
CONTINUOUS
10
-13.1951487939
20
-16.6637325850
11
-13.1963481384
21
-16.6641631848
0
LINE
5
2B0
100
AcDbEntity
8
0
100
AcDbLine
62
0
6
CONTINUOUS
10
-13.4015124713
20
-16.5190534069
11
-12.8880266289
21
-16.3380210643
0
LWPOLYLINE
5
2B1
100
AcDbEntity
8
0
100
AcDbPolyline
62
0
6
CONTINUOUS
90
7
70
0
10
-14.0729594690
20
-14.4290071001
10
-14.0340692018
20
-14.4170602085
10
-13.9801806810
20
-14.4065010761
10
-13.9243116292
20
-14.4021854718
10
-13.8666426208
20
-14.4041353429
10
-13.8075736581
20
-14.4123394439
10
-13.7473943578
20
-14.4267866975
0
LINE
5
2B2
100
AcDbEntity
8
0
100
AcDbLine
62
9
6
CONTINUOUS
10
-2.5572354673
20
12.4770488586
11
-16.7014455397
21
19.5491538949
0
LINE
5
2B3
100
AcDbEntity
8
0
100
AcDbLine
62
0
6
CONTINUOUS
10
11.3638127627
20
19.4954366610
11
11.3638127627
21
19.1558120712
0
LINE
5
2B4
100
AcDbEntity
8
0
100
AcDbLine
62
0
6
CONTINUOUS
10
11.4021096214
20
20.7911273400
11
11.4021096214
21
20.3473740440
0
LINE
5
2B5
100
AcDbEntity
8
0
100
AcDbLine
62
0
6
CONTINUOUS
10
1.9802102613
20
12.8173079900
11
2.4218535003
21
12.5964863705
0
LINE
5
2B6
100
AcDbEntity
8
0
100
AcDbLine
62
0
6
CONTINUOUS
10
13.4863309555
20
22.9530980538
11
13.4863309555
21
22.6261320060
0
LINE
5
2B7
100
AcDbEntity
8
0
100
AcDbLine
62
0
6
CONTINUOUS
10
18.9671860360
20
13.0658888449
11
18.9673678547
21
13.0664729709
0
LINE
5
2B8
100
AcDbEntity
8
0
100
AcDbLine
62
0
6
CONTINUOUS
10
-0.3437702769
20
-24.4881549757
11
0.2350200633
21
-23.7837112456
0
LINE
5
2B9
100
AcDbEntity
8
0
100
AcDbLine
62
0
6
CONTINUOUS
10
-12.7924729782
20
21.1041898189
11
1.4912563151
21
13.9623251723
0
LINE
5
2BA
100
AcDbEntity
8
0
100
AcDbLine
62
0
6
CONTINUOUS
10
-14.1598005185
20
21.8463327504
11
1.6086807020
21
13.9620921401
0
LINE
5
2BB
100
AcDbEntity
8
0
100
AcDbLine
62
0
6
CONTINUOUS
10
1.3611933285
20
14.4133517653
11
-13.9123131451
21
22.0501050022
0
LINE
5
2BC
100
AcDbEntity
8
0
100
AcDbLine
62
0
6
CONTINUOUS
10
1.9560633522
20
14.8305812239
11
0.2713485581
21
15.6729386210
0
LINE
5
2BD
100
AcDbEntity
8
0
100
AcDbLine
62
0
6
CONTINUOUS
10
-11.4082548122
20
21.5127403061
11
-13.0929696064
21
22.3550977032
0
LINE
5
2BE
100
AcDbEntity
8
0
100
AcDbLine
62
0
6
CONTINUOUS
10
-8.1111542705
20
20.2215222705
11
-2.3186452025
21
17.3252677364
0
LINE
5
2BF
100
AcDbEntity
8
0
100
AcDbLine
62
0
6
CONTINUOUS
10
-13.7313678146
20
23.1266277830
11
-12.0541235735
21
22.2880056624
0
LINE
5
2C0
100
AcDbEntity
8
0
100
AcDbLine
62
0
6
CONTINUOUS
10
-0.3670496502
20
16.4444687008
11
1.3101945910
21
15.6058465802
0
LINE
5
2C1
100
AcDbEntity
8
0
100
AcDbLine
62
9
6
CONTINUOUS
10
-13.7959625606
20
23.2616569579
11
-12.1194754203
21
22.4234133877
0
LINE
5
2C2
100
AcDbEntity
8
0
100
AcDbLine
62
9
6
CONTINUOUS
10
-0.4316443962
20
16.5794978756
11
1.2448427441
21
15.7412543055
0
LINE
5
2C3
100
AcDbEntity
8
0
100
AcDbLine
62
9
6
CONTINUOUS
10
1.2448427441
20
16.0812282396
11
-0.4316443962
21
16.9194718098
0
LINE
5
2C4
100
AcDbEntity
8
0
100
AcDbLine
62
9
6
CONTINUOUS
10
-12.1194754203
20
22.7633873218
11
-13.7959625606
21
23.6016308920
0
LINE
5
2C5
100
AcDbEntity
8
0
100
AcDbLine
62
0
6
CONTINUOUS
10
-10.3414239001
20
22.0513215556
11
-8.1990222362
21
20.9801207237
0
LINE
5
2C6
100
AcDbEntity
8
0
100
AcDbLine
62
0
6
CONTINUOUS
10
-1.3965231181
20
17.5788711646
11
-0.3919347578
21
17.0765769845
0
LINE
5
2C7
100
AcDbEntity
8
0
100
AcDbLine
62
0
6
CONTINUOUS
10
3.0228942643
20
15.3691624734
11
3.1289602815
21
15.3161294648
0
LINE
5
2C8
100
AcDbEntity
8
0
100
AcDbLine
62
0
6
CONTINUOUS
10
18.9664404506
20
13.0610934963
11
18.9666409220
21
13.0631649162
0
LINE
5
2C9
100
AcDbEntity
8
0
100
AcDbLine
62
0
6
CONTINUOUS
10
18.9666409220
20
13.0631649162
11
18.9669148571
21
13.0647669988
0
LINE
5
2CA
100
AcDbEntity
8
0
100
AcDbLine
62
0
6
CONTINUOUS
10
1.3337453201
20
-25.3269127742
11
1.9560633522
21
-24.5818533567
0
LINE
5
2CB
100
AcDbEntity
8
0
100
AcDbLine
62
9
6
CONTINUOUS
10
0.4162284840
20
-18.9558816898
11
-0.8981731541
21
-19.5629159241
0
LINE
5
2CC
100
AcDbEntity
8
0
100
AcDbLine
62
0
6
CONTINUOUS
10
0.2153748980
20
-19.4696507465
11
-0.9372001521
21
-20.0019480996
0
LINE
5
2CD
100
AcDbEntity
8
0
100
AcDbLine
62
0
6
CONTINUOUS
10
1.9560633522
20
15.4677507826
11
1.3337453201
21
15.5976913651
0
LINE
5
2CE
100
AcDbEntity
8
0
100
AcDbLine
62
9
6
CONTINUOUS
10
1.4216134735
20
16.3850938179
11
-0.2569186137
21
17.2243598615
0
LINE
5
2CF
100
AcDbEntity
8
0
100
AcDbLine
62
9
6
CONTINUOUS
10
-11.9427046909
20
23.0672529001
11
-13.6212367781
21
23.9065189437
0
LINE
5
2D0
100
AcDbEntity
8
0
100
AcDbLine
62
0
6
CONTINUOUS
10
-8.1111542705
20
21.4364771365
11
-2.3186452025
21
18.5402226025
0
LINE
5
2D1
100
AcDbEntity
8
0
100
AcDbLine
62
0
6
CONTINUOUS
10
3.8360670627
20
15.6621251662
11
3.0716903779
21
16.0443135086
0
LINE
5
2D2
100
AcDbEntity
8
0
100
AcDbLine
62
0
6
CONTINUOUS
10
-8.8455051221
20
22.0029112586
11
-10.2926277865
21
22.7264725908
0
LINE
5
2D3
100
AcDbEntity
8
0
100
AcDbLine
62
0
6
CONTINUOUS
10
-7.6190627925
20
21.9025765672
11
-1.3965231181
21
18.7913067299
0
LINE
5
2D4
100
AcDbEntity
8
0
100
AcDbLine
62
0
6
CONTINUOUS
10
-12.0384801749
20
24.7185030410
11
-10.3414239001
21
23.8699749036
0
LINE
5
2D5
100
AcDbEntity
8
0
100
AcDbLine
62
0
6
CONTINUOUS
10
1.3258379895
20
18.0363439588
11
3.0228942643
21
17.1878158214
0
LINE
5
2D6
100
AcDbEntity
8
0
100
AcDbLine
62
0
6
CONTINUOUS
10
-6.2755599083
20
21.9328935178
11
-1.3258124400
21
19.4580197836
0
LINE
5
2D7
100
AcDbEntity
8
0
100
AcDbLine
62
9
6
CONTINUOUS
10
-11.5040302963
20
24.9788505076
11
-9.8131567283
21
24.1334137236
0
LINE
5
2D8
100
AcDbEntity
8
0
100
AcDbLine
62
9
6
CONTINUOUS
10
1.8602878682
20
18.2966914254
11
3.5511614361
21
17.4512546414
0
LINE
5
2D9
100
AcDbEntity
8
0
100
AcDbLine
62
0
6
CONTINUOUS
10
-11.3926126809
20
24.9851190708
11
-9.7030244246
21
24.1403249426
0
LINE
5
2DA
100
AcDbEntity
8
0
100
AcDbLine
62
0
6
CONTINUOUS
10
1.9717054835
20
18.3029599886
11
3.6612937398
21
17.4581658604
0
LINE
5
2DB
100
AcDbEntity
8
0
100
AcDbLine
62
0
6
CONTINUOUS
10
10.1944906946
20
17.1461759599
11
9.4417966107
21
18.4443812209
0
LINE
5
2DC
100
AcDbEntity
8
0
100
AcDbLine
62
9
6
CONTINUOUS
10
9.2638941909
20
20.9183108566
11
8.8699082571
21
21.9404666746
0
LINE
5
2DD
100
AcDbEntity
8
0
100
AcDbLine
62
0
6
CONTINUOUS
10
10.4085985191
20
19.3749445384
11
10.2070991612
21
19.9706689642
0
LWPOLYLINE
5
2DE
100
AcDbEntity
8
0
100
AcDbPolyline
62
0
6
CONTINUOUS
90
31
70
0
10
18.9663878477
20
19.2273342466
10
18.9661073494
20
19.2614005025
10
18.9649788786
20
19.3038837582
10
18.9629936027
20
19.3464309811
10
18.9601578451
20
19.3890474021
10
18.9564790766
20
19.4317125309
10
18.9519682237
20
19.4743768334
10
18.9466332416
20
19.5170342006
10
18.9404813717
20
19.5596768776
10
18.9335271492
20
19.6022507442
10
18.9257791700
20
19.6447492226
10
18.9172449525
20
19.6871657246
10
18.9079428457
20
19.7294445262
10
18.8978823702
20
19.7715768586
10
18.8870711962
20
19.8135584579
10
18.8755295279
20
19.8553389714
10
18.8632694092
20
19.8969021541
10
18.8502968333
20
19.9382515079
10
18.8366248977
20
19.9793650164
10
18.8222626979
20
20.0202329667
10
18.8072167727
20
20.0608517922
10
18.7914966164
20
20.1012073779
10
18.7751090122
20
20.1412926065
10
18.7580598011
20
20.1811005290
10
18.7403577638
20
20.2206164024
10
18.7220087493
20
20.2598318716
10
18.7030170977
20
20.2987397251
10
18.6833895859
20
20.3373272884
10
18.6631305643
20
20.3755854827
10
18.6422432689
20
20.4135065754
10
18.6244204076
20
20.4447387136
0
LINE
5
2DF
100
AcDbEntity
8
0
100
AcDbLine
62
9
6
CONTINUOUS
10
18.6857276577
20
-11.4650734899
11
18.6857276577
21
13.3001397823
0
LINE
5
2E0
100
AcDbEntity
8
0
100
AcDbLine
62
9
6
CONTINUOUS
10
18.6857276577
20
15.0726082553
11
18.6857276577
21
18.8800067559
0
LINE
5
2E1
100
AcDbEntity
8
0
100
AcDbLine
62
0
6
CONTINUOUS
10
18.9663878573
20
-11.1177443047
11
18.9663874740
21
13.0599433629
0
LINE
5
2E2
100
AcDbEntity
8
0
100
AcDbLine
62
0
6
CONTINUOUS
10
18.9663878573
20
19.2273359412
11
18.9663874600
21
16.0065611025
0
LINE
5
2E3
100
AcDbEntity
8
0
100
AcDbLine
62
0
6
CONTINUOUS
10
18.9663883751
20
13.0593209687
11
18.9664404506
21
13.0610934963
0
LINE
5
2E4
100
AcDbEntity
8
0
100
AcDbLine
62
0
6
CONTINUOUS
10
10.1944906946
20
-16.8210363468
11
9.4417966107
21
-17.3665475238
0
LINE
5
2E5
100
AcDbEntity
8
0
100
AcDbLine
62
0
6
CONTINUOUS
10
17.9286796061
20
-12.7310698485
11
10.1944906946
21
-16.8210363468
0
LINE
5
2E6
100
AcDbEntity
8
0
100
AcDbLine
62
0
6
CONTINUOUS
10
4.0835544361
20
-20.2000742497
11
9.4417966107
21
-17.3665475238
0
LINE
5
2E7
100
AcDbEntity
8
0
100
AcDbLine
62
9
6
CONTINUOUS
10
4.0835544361
20
-19.1571701803
11
18.6857276577
21
-11.4650734899
0
LINE
5
2E8
100
AcDbEntity
8
0
100
AcDbLine
62
9
6
CONTINUOUS
10
4.0835544361
20
-19.9564881161
11
18.2715771820
21
-12.4825565889
0
LINE
5
2E9
100
AcDbEntity
8
0
100
AcDbLine
62
9
6
CONTINUOUS
10
4.0835544361
20
-20.4737007935
11
8.1116965614
21
-18.4517976099
0
LINE
5
2EA
100
AcDbEntity
8
0
100
AcDbLine
62
0
6
CONTINUOUS
10
4.0835544361
20
-20.4753688742
11
8.0613175072
21
-18.4787531724
0
LINE
5
2EB
100
AcDbEntity
8
0
100
AcDbLine
62
9
6
CONTINUOUS
10
4.0835544361
20
-20.2358957627
11
8.7757949709
21
-17.9085098658
0
LINE
5
2EC
100
AcDbEntity
8
0
100
AcDbLine
62
9
6
CONTINUOUS
10
4.0835544361
20
-20.3577704905
11
8.8599465385
21
-17.9886447956
0
LINE
5
2ED
100
AcDbEntity
8
0
100
AcDbLine
62
0
6
CONTINUOUS
10
-11.4082548122
20
22.1499098648
11
-12.0305728443
21
22.2798504474
0
LWPOLYLINE
5
2EE
100
AcDbEntity
8
0
100
AcDbPolyline
62
0
6
CONTINUOUS
90
51
70
0
10
-1.3844891310
20
21.4786891679
10
-1.3950602377
20
21.4828413826
10
-1.4180216109
20
21.4914560173
10
-1.4412922129
20
21.4996488568
10
-1.4648581878
20
21.5074248466
10
-1.4887135473
20
21.5147904510
10
-1.5128402933
20
21.5217474593
10
-1.5372205417
20
21.5282980086
10
-1.5618477163
20
21.5344465751
10
-1.5867039317
20
21.5401942227
10
-1.6117718498
20
21.5455423965
10
-1.6370449826
20
21.5504942060
10
-1.6625059771
20
21.5550502921
10
-1.6881373070
20
21.5592114470
10
-1.7139315482
20
21.5629795807
10
-1.7398711524
20
21.5663550071
10
-1.7659389888
20
21.5693381837
10
-1.7921276745
20
21.5719302399
10
-1.8184196468
20
21.5741312901
10
-1.8447979275
20
21.5759414956
10
-1.8712556028
20
21.5773613490
10
-1.8977754481
20
21.5783908013
10
-1.9243402104
20
21.5790297169
10
-1.9509427326
20
21.5792779615
10
-1.9775658310
20
21.5791353096
10
-2.0041921522
20
21.5786013925
10
-2.0308143127
20
21.5776755024
10
-2.0574151865
20
21.5763572119
10
-2.0839771706
20
21.5746459321
10
-2.1104924384
20
21.5725404020
10
-2.1369436908
20
21.5700399666
10
-2.1633131728
20
21.5671438049
10
-2.1895928893
20
21.5638500483
10
-2.2157668241
20
21.5601575176
10
-2.2418154488
20
21.5560652874
10
-2.2677263401
20
21.5515715394
10
-2.2934830579
20
21.5466748481
10
-2.3190661293
20
21.5413741401
10
-2.3444598475
20
21.5356678580
10
-2.3696463142
20
21.5295546312
10
-2.3946073917
20
21.5230329828
10
-2.4193286113
20
21.5161005896
10
-2.4437920785
20
21.5087555493
10
-2.4679794835
20
21.5009959940
10
-2.4918773405
20
21.4928184376
10
-2.5154668102
20
21.4842204558
10
-2.5387302726
20
21.4751990531
10
-2.5616577989
20
21.4657476788
10
-2.5842340912
20
21.4558607297
10
-2.6064358067
20
21.4455360782
10
-2.6220149082
20
21.4379105511
0
LINE
5
2EF
100
AcDbEntity
8
0
100
AcDbLine
62
0
6
CONTINUOUS
10
-0.0116504596
20
20.1057369002
11
-2.5986046461
21
21.3992139935
0
LINE
5
2F0
100
AcDbEntity
8
0
100
AcDbLine
62
9
6
CONTINUOUS
10
0.6293127352
20
20.4216514059
11
-1.4635994958
21
21.4681075214
0
LINE
5
2F1
100
AcDbEntity
8
0
100
AcDbLine
62
0
6
CONTINUOUS
10
0.6800761597
20
20.4466714106
11
-1.3793506232
21
21.4763848021
0
LINE
5
2F2
100
AcDbEntity
8
0
100
AcDbLine
62
0
6
CONTINUOUS
10
1.1918633048
20
20.6989183170
11
-1.6086551524
21
22.0991775456
0
LINE
5
2F3
100
AcDbEntity
8
0
100
AcDbLine
62
0
6
CONTINUOUS
10
-1.9622085430
20
22.8285124302
11
-1.6086551524
21
22.6517357349
0
LWPOLYLINE
5
2F4
100
AcDbEntity
8
0
100
AcDbPolyline
62
0
6
CONTINUOUS
90
40
70
0
10
18.3461468159
20
-12.4361929624
10
18.3742910658
20
-12.4152467542
10
18.4019456604
20
-12.3935565467
10
18.4291273155
20
-12.3711040555
10
18.4558162565
20
-12.3478981083
10
18.4819905195
20
-12.3239504997
10
18.5076490377
20
-12.2992542842
10
18.5327728660
20
-12.2738184728
10
18.5573410969
20
-12.2476549908
10
18.5813486732
20
-12.2207590156
10
18.6047767513
20
-12.1931405997
10
18.6276052431
20
-12.1648123411
10
18.6498265209
20
-12.1357714272
10
18.6714216010
20
-12.1060293249
10
18.6923722566
20
-12.0755981994
10
18.7126713719
20
-12.0444739196
10
18.7323001548
20
-12.0126691458
10
18.7512418104
20
-11.9801950373
10
18.7694912557
20
-11.9470423377
10
18.7870272037
20
-11.9132296584
10
18.8038364749
20
-11.8787616469
10
18.8199232782
20
-11.8436040128
10
18.8352751960
20
-11.8077509094
10
18.8498661559
20
-11.7712281912
10
18.8636784935
20
-11.7340456013
10
18.8766987354
20
-11.6962015250
10
18.8889052174
20
-11.6577177014
10
18.9002721558
20
-11.6186375242
10
18.9107859215
20
-11.5789713549
10
18.9204327868
20
-11.5387296720
10
18.9291930011
20
-11.4979550955
10
18.9370563184
20
-11.4566555771
10
18.9440114277
20
-11.4148430218
10
18.9500429089
20
-11.3725651047
10
18.9551427988
20
-11.3298310978
10
18.9593027051
20
-11.2866506096
10
18.9625120477
20
-11.2430703930
10
18.9647641032
20
-11.1991110247
10
18.9660535145
20
-11.1547699579
10
18.9663878477
20
-11.1177454252
0
LINE
5
2F5
100
AcDbEntity
8
0
100
AcDbLine
62
9
6
CONTINUOUS
10
17.9286796061
20
-12.7310698485
11
18.2715771820
21
-12.4825565889
0
LINE
5
2F6
100
AcDbEntity
8
0
100
AcDbLine
62
0
6
CONTINUOUS
10
18.0050289023
20
-12.6834164362
11
18.3461447761
21
-12.4361944561
0
LINE
5
2F7
100
AcDbEntity
8
0
100
AcDbLine
62
0
6
CONTINUOUS
10
2.4218535003
20
-23.6141544959
11
1.6086807020
21
-24.1430256264
0
LINE
5
2F8
100
AcDbEntity
8
0
100
AcDbLine
62
9
6
CONTINUOUS
10
3.3764476549
20
-23.3024318782
11
4.0835544361
21
-22.9413207984
0
LINE
5
2F9
100
AcDbEntity
8
0
100
AcDbLine
62
0
6
CONTINUOUS
10
3.2864836868
20
-23.4912419548
11
3.9935904690
21
-23.1301308745
0
LINE
5
2FA
100
AcDbEntity
8
0
100
AcDbLine
62
0
6
CONTINUOUS
10
3.2864788808
20
-23.4912444097
11
3.2844712839
21
-23.4922481171
0
LINE
5
2FB
100
AcDbEntity
8
0
100
AcDbLine
62
9
6
CONTINUOUS
10
1.6086807020
20
-24.1674211317
11
3.3764476549
21
-23.3024318782
0
LINE
5
2FC
100
AcDbEntity
8
0
100
AcDbLine
62
0
6
CONTINUOUS
10
1.5166997830
20
-24.3572395959
11
3.2844667373
21
-23.4922503418
0
LWPOLYLINE
5
2FD
100
AcDbEntity
8
0
100
AcDbPolyline
62
0
6
CONTINUOUS
90
14
70
0
10
4.3480082181
20
21.3691069388
10
4.3355977645
20
21.3698080069
10
4.3145708069
20
21.3712152585
10
4.2936918201
20
21.3728311998
10
4.2729990563
20
21.3746500250
10
4.2525109468
20
21.3766669776
10
4.2322457326
20
21.3788769030
10
4.2122403626
20
21.3812716963
10
4.1925115150
20
21.3838448162
10
4.1730760018
20
21.3865894923
10
4.1539696018
20
21.3894953916
10
4.1352069172
20
21.3925543570
10
4.1168027127
20
21.3957580472
10
4.1043870055
20
21.3980575817
0
LINE
5
2FE
100
AcDbEntity
8
0
100
AcDbLine
62
0
6
CONTINUOUS
10
11.3638127627
20
19.4954366610
11
10.9140681013
21
19.6171844941
0
LINE
5
2FF
100
AcDbEntity
8
0
100
AcDbLine
62
0
6
CONTINUOUS
10
2.5996790010
20
21.3927949754
11
-0.2108706459
21
22.7980697988
0
LINE
5
300
100
AcDbEntity
8
0
100
AcDbLine
62
0
6
CONTINUOUS
10
8.6540079630
20
18.8382755448
11
9.4417966107
21
18.4443812209
0
LINE
5
301
100
AcDbEntity
8
0
100
AcDbLine
62
0
6
CONTINUOUS
10
1.1490612942
20
22.8718179862
11
3.3588021824
21
21.7669475422
0
LINE
5
302
100
AcDbEntity
8
0
100
AcDbLine
62
0
6
CONTINUOUS
10
4.1043870055
20
21.3941551306
11
4.2502004155
21
21.3212484256
0
LINE
5
303
100
AcDbEntity
8
0
100
AcDbLine
62
0
6
CONTINUOUS
10
-1.7183964515
20
24.5687905388
11
-1.5379444743
21
24.4785645503
0
LINE
5
304
100
AcDbEntity
8
0
100
AcDbLine
62
0
6
CONTINUOUS
10
3.8360670627
20
21.7915587817
11
4.0165190398
21
21.7013327932
0
LINE
5
305
100
AcDbEntity
8
0
100
AcDbLine
62
9
6
CONTINUOUS
10
-2.5309647955
20
25.1476875632
11
0.4481251054
21
23.6581426127
0
LINE
5
306
100
AcDbEntity
8
0
100
AcDbLine
62
9
6
CONTINUOUS
10
4.6907657926
20
21.5368222691
11
7.6698556935
21
20.0472773187
0
LINE
5
307
100
AcDbEntity
8
0
100
AcDbLine
62
0
6
CONTINUOUS
10
-2.3373217836
20
25.2967370254
11
0.8891681085
21
23.6834920793
0
LINE
5
308
100
AcDbEntity
8
0
100
AcDbLine
62
0
6
CONTINUOUS
10
5.1318087956
20
21.5621717357
11
8.3582986878
21
19.9489267897
0
LINE
5
309
100
AcDbEntity
8
0
100
AcDbLine
62
0
6
CONTINUOUS
10
10.4190933545
20
19.3696971207
11
10.6164840217
21
19.1874035298
0
LINE
5
30A
100
AcDbEntity
8
0
100
AcDbLine
62
0
6
CONTINUOUS
10
3.0228942643
20
-25.2474289641
11
3.5511614361
21
-24.9764179054
0
LINE
5
30B
100
AcDbEntity
8
0
100
AcDbLine
62
0
6
CONTINUOUS
10
1.4216134735
20
-26.0274635637
11
3.0228942643
21
-25.2474289641
0
LINE
5
30C
100
AcDbEntity
8
0
100
AcDbLine
62
9
6
CONTINUOUS
10
-5.3778392326
20
-25.8986649647
11
-1.3451414744
21
-24.5910627011
0
LINE
5
30D
100
AcDbEntity
8
0
100
AcDbLine
62
0
6
CONTINUOUS
10
-1.6503301556
20
-25.0644741421
11
-5.6873442242
21
-26.3734756071
0
LINE
5
30E
100
AcDbEntity
8
0
100
AcDbLine
62
0
6
CONTINUOUS
10
-0.2108706459
20
22.7980697988
11
1.1490612942
21
22.8718179862
0
LINE
5
30F
100
AcDbEntity
8
0
100
AcDbLine
62
0
6
CONTINUOUS
10
10.4190933545
20
19.3696971207
11
9.7121244144
21
19.7231815908
0
LINE
5
310
100
AcDbEntity
8
0
100
AcDbLine
62
0
6
CONTINUOUS
10
10.9140681013
20
19.6171844941
11
10.2070991612
21
19.9706689642
0
LINE
5
311
100
AcDbEntity
8
0
100
AcDbLine
62
0
6
CONTINUOUS
10
9.5142901381
20
20.6336943293
11
9.9466043889
21
20.4175372040
0
LINE
5
312
100
AcDbEntity
8
0
100
AcDbLine
62
0
6
CONTINUOUS
10
13.5060304835
20
20.5488216735
11
14.1375618045
21
20.2330560130
0
LINE
5
313
100
AcDbEntity
8
0
100
AcDbLine
62
0
6
CONTINUOUS
10
13.6895683245
20
20.4727126055
11
13.9936877085
21
20.3206529136
0
LINE
5
314
100
AcDbEntity
8
0
100
AcDbLine
62
9
6
CONTINUOUS
10
18.2715771820
20
20.3116403306
11
17.9286796061
21
20.9030511662
0
LINE
5
315
100
AcDbEntity
8
0
100
AcDbLine
62
0
6
CONTINUOUS
10
13.4863309555
20
22.6261320060
11
16.5951465263
21
21.0717242207
0
LINE
5
316
100
AcDbEntity
8
0
100
AcDbLine
62
9
6
CONTINUOUS
10
17.9286796061
20
20.9030511662
11
17.1034331384
21
21.3156744000
0
LINE
5
317
100
AcDbEntity
8
0
100
AcDbLine
62
9
6
CONTINUOUS
10
12.4429819556
20
23.6458999914
11
11.4022154538
21
24.1662832423
0
LINE
5
318
100
AcDbEntity
8
0
100
AcDbLine
62
0
6
CONTINUOUS
10
18.2974716791
20
20.9584548995
11
17.4499240709
21
21.3822287036
0
LINE
5
319
100
AcDbEntity
8
0
100
AcDbLine
62
0
6
CONTINUOUS
10
12.9662367842
20
23.6240723470
11
11.8370883343
21
24.1886465719
0
LINE
5
31A
100
AcDbEntity
8
0
100
AcDbLine
62
0
6
CONTINUOUS
10
18.6244204308
20
20.4447386880
11
18.3613734945
21
20.8984275424
0
SPLINE
5
31B
100
AcDbEntity
8
0
100
AcDbSpline
62
0
6
CONTINUOUS
70
0
71
3
72
11
73
7
74
5
42
0.0000001000
43
0.0000001000
44
0.0000000001
12
-0.4374099277
22
-0.1542113483
32
0.0000000000
13
-0.4148335409
23
0.2074167702
33
0.0000000000
40
0.0000000000
40
0.0000000000
40
0.0000000000
40
0.0000000000
40
0.2332014903
40
0.4741828615
40
0.7287406665
40
1.0000000000
40
1.0000000000
40
1.0000000000
40
1.0000000000
10
-13.4015124684
20
-16.5190534059
30
0.0000000000
10
-13.4355140174
20
-16.5310408446
30
0.0000000000
10
-13.5075714223
20
-16.5478470833
30
0.0000000000
10
-13.6210322694
20
-16.5492912012
30
0.0000000000
10
-13.7381339052
20
-16.5264725450
30
0.0000000000
10
-13.8140507378
20
-16.4960126069
30
0.0000000000
10
-13.8515598944
20
-16.4772580286
30
0.0000000000
11
-13.4015124684
21
-16.5190534059
31
0.0000000000
11
-13.5068173332
21
-16.5437337956
31
0.0000000000
11
-13.6185693392
21
-16.5455446994
31
0.0000000000
11
-13.7345560064
21
-16.5234979411
31
0.0000000000
11
-13.8515598944
21
-16.4772580286
31
0.0000000000
0
SPLINE
5
31C
100
AcDbEntity
8
0
100
AcDbSpline
62
0
6
CONTINUOUS
70
0
71
3
72
22
73
18
74
16
42
0.0000001000
43
0.0000001000
44
0.0000000001
12
-1.9696727411
22
0.9848363691
32
0.0000000000
13
2.0663966188
23
0.7612610802
33
0.0000000000
40
0.0000000000
40
0.0000000000
40
0.0000000000
40
0.0000000000
40
0.0639811469
40
0.1316820142
40
0.2027446637
40
0.2761229465
40
0.3508358318
40
0.4260859464
40
0.5008355756
40
0.5742184330
40
0.6452116268
40
0.7132788092
40
0.7776047320
40
0.8378616260
40
0.8944690196
40
0.9481356068
40
1.0000000000
40
1.0000000000
40
1.0000000000
40
1.0000000000
10
-13.8515598944
20
-16.4772580286
30
0.0000000000
10
-13.8935672014
20
-16.4562543751
30
0.0000000000
10
-13.9761580900
20
-16.4049870778
30
0.0000000000
10
-14.0890938656
20
-16.3072858760
30
0.0000000000
10
-14.1917666976
20
-16.1895736283
30
0.0000000000
10
-14.2814231516
20
-16.0555181800
30
0.0000000000
10
-14.3558834826
20
-15.9090413190
30
0.0000000000
10
-14.4134122050
20
-15.7540642425
30
0.0000000000
10
-14.4526363157
20
-15.5944731323
30
0.0000000000
10
-14.4724408475
20
-15.4344502184
30
0.0000000000
10
-14.4721084064
20
-15.2780635620
30
0.0000000000
10
-14.4513297982
20
-15.1296938752
30
0.0000000000
10
-14.4103843188
20
-14.9936824194
30
0.0000000000
10
-14.3503732077
20
-14.8741547923
30
0.0000000000
10
-14.2731036443
20
-14.7745435741
30
0.0000000000
10
-14.1811298217
20
-14.6975432133
30
0.0000000000
10
-14.1113113772
20
-14.6621631118
30
0.0000000000
10
-14.0755872417
20
-14.6490023305
30
0.0000000000
11
-13.8515598944
21
-16.4772580286
31
0.0000000000
11
-13.9716438718
21
-16.4035576618
31
0.0000000000
11
-14.0848082899
21
-16.3064952581
31
0.0000000000
11
-14.1880280676
21
-16.1888719788
31
0.0000000000
11
-14.2781244505
21
-16.0547294140
31
0.0000000000
11
-14.3528239985
21
-15.9081346150
31
0.0000000000
11
-14.4105044851
21
-15.7527843086
31
0.0000000000
11
-14.4496621483
21
-15.5928988255
31
0.0000000000
11
-14.4692274065
21
-15.4324867236
31
0.0000000000
11
-14.4684577897
21
-15.2761501702
31
0.0000000000
11
-14.4470849716
21
-15.1277868207
31
0.0000000000
11
-14.4055781596
21
-14.9923482033
31
0.0000000000
11
-14.3453769132
21
-14.8740947659
31
0.0000000000
11
-14.2684542978
21
-14.7759995192
31
0.0000000000
11
-14.1775329216
21
-14.7004985302
31
0.0000000000
11
-14.0755872417
21
-14.6490023305
31
0.0000000000
0
SPLINE
5
31D
100
AcDbEntity
8
0
100
AcDbSpline
62
9
6
CONTINUOUS
70
0
71
3
72
25
73
21
74
19
42
0.0000001000
43
0.0000001000
44
0.0000000001
12
-2.1310220421
22
1.0655110210
32
0.0000000000
13
2.1310220421
23
-1.0655110210
33
0.0000000000
40
0.0000000000
40
0.0000000000
40
0.0000000000
40
0.0000000000
40
0.0502205533
40
0.0971512176
40
0.1420006760
40
0.1860118413
40
0.2306789069
40
0.2776905144
40
0.3280166982
40
0.3820852775
40
0.4401483004
40
0.5015627215
40
0.5655501889
40
0.6311871422
40
0.6973510937
40
0.7629637551
40
0.8268945600
40
0.8882498403
40
0.9460034561
40
1.0000000000
40
1.0000000000
40
1.0000000000
40
1.0000000000
10
-13.7329729486
20
-14.7949749577
30
0.0000000000
10
-13.7686466507
20
-14.7771381066
30
0.0000000000
10
-13.8409915697
20
-14.7486629508
30
0.0000000000
10
-13.9532506274
20
-14.7304340441
30
0.0000000000
10
-14.0619114605
20
-14.7394688920
30
0.0000000000
10
-14.1628023780
20
-14.7760224620
30
0.0000000000
10
-14.2520028660
20
-14.8385512226
30
0.0000000000
10
-14.3266674400
20
-14.9243870978
30
0.0000000000
10
-14.3849114894
20
-15.0304844616
30
0.0000000000
10
-14.4254395209
20
-15.1536353254
30
0.0000000000
10
-14.4472363619
20
-15.2902510129
30
0.0000000000
10
-14.4497187870
20
-15.4363710459
30
0.0000000000
10
-14.4328548446
20
-15.5875390188
30
0.0000000000
10
-14.3971785364
20
-15.7392509643
30
0.0000000000
10
-14.3437590348
20
-15.8870235017
30
0.0000000000
10
-14.2742023986
20
-16.0264202027
30
0.0000000000
10
-14.1905583447
20
-16.1533261291
30
0.0000000000
10
-14.0953989849
20
-16.2638103557
30
0.0000000000
10
-13.9915746913
20
-16.3546426501
30
0.0000000000
10
-13.9158864081
20
-16.4019892336
30
0.0000000000
10
-13.8775304664
20
-16.4211672044
30
0.0000000000
11
-13.7329729486
21
-14.7949749577
31
0.0000000000
11
-13.8446327594
21
-14.7519751541
31
0.0000000000
11
-13.9551275484
21
-14.7348441379
31
0.0000000000
11
-14.0615721396
21
-14.7442153105
31
0.0000000000
11
-14.1601619297
21
-14.7799290114
31
0.0000000000
11
-14.2475977494
21
-14.8405966717
31
0.0000000000
11
-14.3217208995
21
-14.9245698420
31
0.0000000000
11
-14.3801912902
21
-15.0292522165
31
0.0000000000
11
-14.4212135578
21
-15.1513674015
31
0.0000000000
11
-14.4436532492
21
-15.2878736625
31
0.0000000000
11
-14.4466219457
21
-15.4341667844
31
0.0000000000
11
-14.4300330871
21
-15.5857152250
31
0.0000000000
11
-14.3943857252
21
-15.7379818118
31
0.0000000000
11
-14.3407922902
21
-15.8862311946
31
0.0000000000
11
-14.2708547479
21
-16.0260399550
31
0.0000000000
11
-14.1867637971
21
-16.1530426608
31
0.0000000000
11
-14.0910015555
21
-16.2634911462
31
0.0000000000
11
-13.9870073775
21
-16.3535982661
31
0.0000000000
11
-13.8775304664
21
-16.4211672044
31
0.0000000000
0
SPLINE
5
31E
100
AcDbEntity
8
0
100
AcDbSpline
62
9
6
CONTINUOUS
70
0
71
3
72
11
73
7
74
5
42
0.0000001000
43
0.0000001000
44
0.0000000001
12
-0.3868372279
22
0.1934186140
32
0.0000000000
13
-0.4070477542
23
-0.1499361792
33
0.0000000000
40
0.0000000000
40
0.0000000000
40
0.0000000000
40
0.0000000000
40
0.3045282916
40
0.5891081365
40
0.8610674131
40
1.0000000000
40
1.0000000000
40
1.0000000000
40
1.0000000000
10
-13.6560898850
20
-14.6879706322
30
0.0000000000
10
-13.6953575117
20
-14.6683368188
30
0.0000000000
10
-13.7749911746
20
-14.6369939698
30
0.0000000000
10
-13.8985595466
20
-14.6169264141
30
0.0000000000
10
-13.9995826965
20
-14.6253273190
30
0.0000000000
10
-14.0567301305
20
-14.6420759780
30
0.0000000000
10
-14.0755808630
20
-14.6490196517
30
0.0000000000
11
-13.6560898850
21
-14.6879706322
31
0.0000000000
11
-13.7789989523
21
-14.6406392537
31
0.0000000000
11
-13.9006256811
21
-14.6217813734
31
0.0000000000
11
-14.0177940660
21
-14.6320971092
31
0.0000000000
11
-14.0755808630
21
-14.6490196517
31
0.0000000000
0
SPLINE
5
31F
100
AcDbEntity
8
0
100
AcDbSpline
62
9
6
CONTINUOUS
70
0
71
3
72
25
73
21
74
19
42
0.0000001000
43
0.0000001000
44
0.0000000001
12
2.1310220383
22
-1.0655110191
32
0.0000000000
13
-2.1310220383
23
1.0655110191
33
0.0000000000
40
0.0000000000
40
0.0000000000
40
0.0000000000
40
0.0000000000
40
0.0502205725
40
0.0971511910
40
0.1420006727
40
0.1860118336
40
0.2306789022
40
0.2776905108
40
0.3280166958
40
0.3820852755
40
0.4401482990
40
0.5015627203
40
0.5655501878
40
0.6311871412
40
0.6973510928
40
0.7629637546
40
0.8268945588
40
0.8882498449
40
0.9460034434
40
1.0000000000
40
1.0000000000
40
1.0000000000
40
1.0000000000
10
-13.8775304664
20
-16.4211672044
30
0.0000000000
10
-13.8418567508
20
-16.4390040622
30
0.0000000000
10
-13.7695118285
20
-16.4674791349
30
0.0000000000
10
-13.6572527976
20
-16.4857081712
30
0.0000000000
10
-13.5485919815
20
-16.4766732659
30
0.0000000000
10
-13.4477010490
20
-16.4401197066
30
0.0000000000
10
-13.3585005597
20
-16.3775909434
30
0.0000000000
10
-13.2838359826
20
-16.2917550671
30
0.0000000000
10
-13.2255919291
20
-16.1856577027
30
0.0000000000
10
-13.1850638974
20
-16.0625068375
30
0.0000000000
10
-13.1632670533
20
-15.9258911499
30
0.0000000000
10
-13.1607846282
20
-15.7797711164
30
0.0000000000
10
-13.1776485700
20
-15.6286031431
30
0.0000000000
10
-13.2133248806
20
-15.4768911988
30
0.0000000000
10
-13.2667443784
20
-15.3291186583
30
0.0000000000
10
-13.3363010311
20
-15.1897219695
30
0.0000000000
10
-13.4199450529
20
-15.0628160101
30
0.0000000000
10
-13.5151044841
20
-14.9523318676
30
0.0000000000
10
-13.6189286675
20
-14.8614994429
30
0.0000000000
10
-13.6946169980
20
-14.8141529330
30
0.0000000000
10
-13.7329729486
20
-14.7949749577
30
0.0000000000
11
-13.8775304664
21
-16.4211672044
31
0.0000000000
11
-13.7658705990
21
-16.4641669875
31
0.0000000000
11
-13.6553759270
21
-16.4812980460
31
0.0000000000
11
-13.5489312821
21
-16.4719268540
31
0.0000000000
11
-13.4503415019
21
-16.4362131566
31
0.0000000000
11
-13.3629056756
21
-16.3755454940
31
0.0000000000
11
-13.2887825229
21
-16.2915723228
31
0.0000000000
11
-13.2303121287
21
-16.1868899470
31
0.0000000000
11
-13.1892898601
21
-16.0647747616
31
0.0000000000
11
-13.1668501666
21
-15.9282684998
31
0.0000000000
11
-13.1638814694
21
-15.7819753777
31
0.0000000000
11
-13.1804703280
21
-15.6304269371
31
0.0000000000
11
-13.2161176907
21
-15.4781603506
31
0.0000000000
11
-13.2697111263
21
-15.3299109680
31
0.0000000000
11
-13.3396486735
21
-15.1901022094
31
0.0000000000
11
-13.4237396168
21
-15.0630995009
31
0.0000000000
11
-13.5195018942
21
-14.9526510284
31
0.0000000000
11
-13.6234959922
21
-14.8625438797
31
0.0000000000
11
-13.7329729486
21
-14.7949749577
31
0.0000000000
0
SPLINE
5
320
100
AcDbEntity
8
0
100
AcDbSpline
62
9
6
CONTINUOUS
70
0
71
3
72
22
73
18
74
16
42
0.0000001000
43
0.0000001000
44
0.0000000001
12
2.0773073842
22
0.7327138310
32
0.0000000000
13
-1.9643462506
23
0.9821731254
33
0.0000000000
40
0.0000000000
40
0.0000000000
40
0.0000000000
40
0.0000000000
40
0.0279803988
40
0.0813193463
40
0.1374580114
40
0.1975547605
40
0.2621204665
40
0.3314561162
40
0.4047938169
40
0.4812041063
40
0.5595841201
40
0.6385934468
40
0.7169444574
40
0.7932870790
40
0.8665542077
40
0.9355202625
40
1.0000000000
40
1.0000000000
40
1.0000000000
40
1.0000000000
10
-13.4014901451
20
-16.5190260797
30
0.0000000000
10
-13.3821155155
20
-16.5121922047
30
0.0000000000
10
-13.3271861195
20
-16.4884178938
30
0.0000000000
10
-13.2438909564
20
-16.4300285036
30
0.0000000000
10
-13.1617042269
20
-16.3355450547
30
0.0000000000
10
-13.0975923627
20
-16.2187587879
30
0.0000000000
10
-13.0529812962
20
-16.0832009920
30
0.0000000000
10
-13.0289885341
20
-15.9328218417
30
0.0000000000
10
-13.0262560141
20
-15.7719808318
30
0.0000000000
10
-13.0448189311
20
-15.6055833264
30
0.0000000000
10
-13.0840894641
20
-15.4385870389
30
0.0000000000
10
-13.1428907766
20
-15.2759270571
30
0.0000000000
10
-13.2194548607
20
-15.1224866626
30
0.0000000000
10
-13.3115259156
20
-14.9827956443
30
0.0000000000
10
-13.4162716795
20
-14.8611801683
30
0.0000000000
10
-13.5305565388
20
-14.7611977564
30
0.0000000000
10
-13.6138697082
20
-14.7090807206
30
0.0000000000
10
-13.6560898850
20
-14.6879706322
30
0.0000000000
11
-13.4014901451
21
-16.5190260797
31
0.0000000000
11
-13.3449844546
21
-16.4945567543
31
0.0000000000
11
-13.2487398563
21
-16.4277770241
31
0.0000000000
11
-13.1671491167
21
-16.3353438875
31
0.0000000000
11
-13.1027880943
21
-16.2201151800
31
0.0000000000
11
-13.0576330111
21
-16.0856973980
31
0.0000000000
11
-13.0329326265
21
-15.9354386989
31
0.0000000000
11
-13.0296648499
21
-15.7744071625
31
0.0000000000
11
-13.0479249661
21
-15.6075908586
31
0.0000000000
11
-13.0871636446
21
-15.4399840574
31
0.0000000000
11
-13.1461563885
21
-15.2767991746
31
0.0000000000
11
-13.2231398248
21
-15.1229052539
31
0.0000000000
11
-13.3157026100
21
-14.9831075931
31
0.0000000000
11
-13.4211124171
21
-14.8615316761
31
0.0000000000
11
-13.5355836878
21
-14.7623471670
31
0.0000000000
11
-13.6560898850
21
-14.6879706322
31
0.0000000000
0
SPLINE
5
321
100
AcDbEntity
8
0
100
AcDbSpline
62
0
6
CONTINUOUS
70
0
71
3
72
8
73
4
74
2
42
0.0000001000
43
0.0000001000
44
0.0000000001
12
-0.0720729465
22
0.0219322224
32
0.0000000000
13
-0.0725144399
23
0.0204766492
33
0.0000000000
40
0.0000000000
40
0.0000000000
40
0.0000000000
40
0.0000000000
40
1.0000000000
40
1.0000000000
40
1.0000000000
40
1.0000000000
10
12.7568654280
20
20.1622599476
30
0.0000000000
10
12.7328411125
20
20.1695706884
30
0.0000000000
10
12.7087396264
20
20.1766357285
30
0.0000000000
10
12.6845681464
20
20.1834612782
30
0.0000000000
11
12.7568654280
21
20.1622599476
31
0.0000000000
11
12.6845681464
21
20.1834612782
31
0.0000000000
0
SPLINE
5
322
100
AcDbEntity
8
0
100
AcDbSpline
62
0
6
CONTINUOUS
70
0
71
3
72
16
73
12
74
10
42
0.0000001000
43
0.0000001000
44
0.0000000001
12
-3.0560647910
22
0.8629724898
32
0.0000000000
13
-2.8084123906
23
-1.4809313851
33
0.0000000000
40
0.0000000000
40
0.0000000000
40
0.0000000000
40
0.0000000000
40
0.0870603950
40
0.2031007763
40
0.3217482206
40
0.4414001586
40
0.5604207594
40
0.6771933564
40
0.7902275173
40
0.8981781335
40
1.0000000000
40
1.0000000000
40
1.0000000000
40
1.0000000000
10
12.6845681464
20
20.1834612782
30
0.0000000000
10
12.5958807438
20
20.2085048535
30
0.0000000000
10
12.3867861624
20
20.2594069552
30
0.0000000000
10
12.0504750912
20
20.3148931766
30
0.0000000000
10
11.6764570242
20
20.3468184890
30
0.0000000000
10
11.2979662941
20
20.3505372115
30
0.0000000000
10
10.9222289966
20
20.3260288141
30
0.0000000000
10
10.5564133998
20
20.2735915172
30
0.0000000000
10
10.2075101254
20
20.1937964313
30
0.0000000000
10
9.8823331557
20
20.0874633308
30
0.0000000000
10
9.6791562494
20
19.9965370547
30
0.0000000000
10
9.5838369856
20
19.9462733221
30
0.0000000000
11
12.6845681464
21
20.1834612782
31
0.0000000000
11
12.4160336117
21
20.2492265313
31
0.0000000000
11
12.0526107058
21
20.3097184511
31
0.0000000000
11
11.6772979278
21
20.3420203613
31
0.0000000000
11
11.2974270733
21
20.3457835217
31
0.0000000000
11
10.9203566135
21
20.3209850991
31
0.0000000000
11
10.5534245504
21
20.2679310699
31
0.0000000000
11
10.2037422328
21
20.1872096508
31
0.0000000000
11
9.8783139666
21
20.0796642945
31
0.0000000000
11
9.5838369856
21
19.9462733221
31
0.0000000000
0
SPLINE
5
323
100
AcDbEntity
8
0
100
AcDbSpline
62
0
6
CONTINUOUS
70
0
71
3
72
8
73
4
74
2
42
0.0000001000
43
0.0000001000
44
0.0000000001
12
-0.0074856961
22
0.0050624254
32
0.0000000000
13
-0.0080013977
23
0.0041120828
33
0.0000000000
40
0.0000000000
40
0.0000000000
40
0.0000000000
40
0.0000000000
40
1.0000000000
40
1.0000000000
40
1.0000000000
40
1.0000000000
10
13.5872514649
20
19.7412724638
30
0.0000000000
10
13.5847562328
20
19.7429599389
30
0.0000000000
10
13.5821674459
20
19.7444990021
30
0.0000000000
10
13.5795003133
20
19.7458696964
30
0.0000000000
11
13.5872514649
21
19.7412724638
31
0.0000000000
11
13.5795003133
21
19.7458696964
31
0.0000000000
0
SPLINE
5
324
100
AcDbEntity
8
0
100
AcDbSpline
62
0
6
CONTINUOUS
70
0
71
3
72
10
73
6
74
4
42
0.0000001000
43
0.0000001000
44
0.0000000001
12
-0.8085733905
22
0.4155424942
32
0.0000000000
13
-0.8134730449
23
0.4058670933
33
0.0000000000
40
0.0000000000
40
0.0000000000
40
0.0000000000
40
0.0000000000
40
0.3545041574
40
0.6877149410
40
1.0000000000
40
1.0000000000
40
1.0000000000
40
1.0000000000
10
13.5795003133
20
19.7458696964
30
0.0000000000
10
13.4839527705
20
19.7949735436
30
0.0000000000
10
13.2984846857
20
19.8900141248
30
0.0000000000
10
13.0283516784
20
20.0273389647
30
0.0000000000
10
12.8535947358
20
20.1152173670
30
0.0000000000
10
12.7689162432
20
20.1574661101
30
0.0000000000
11
13.5795003133
21
19.7458696964
31
0.0000000000
11
13.2926607078
21
19.8927973233
31
0.0000000000
11
13.0225957691
21
20.0300089458
31
0.0000000000
11
12.7689162432
21
20.1574661101
31
0.0000000000
0
SPLINE
5
325
100
AcDbEntity
8
0
100
AcDbSpline
62
0
6
CONTINUOUS
70
0
71
3
72
8
73
4
74
2
42
0.0000001000
43
0.0000001000
44
0.0000000001
12
-0.0115769671
22
0.0057761102
32
0.0000000000
13
-0.0124572512
23
0.0037795811
33
0.0000000000
40
0.0000000000
40
0.0000000000
40
0.0000000000
40
0.0000000000
40
1.0000000000
40
1.0000000000
40
1.0000000000
40
1.0000000000
10
12.7689162432
20
20.1574661101
30
0.0000000000
10
12.7650572541
20
20.1593914802
30
0.0000000000
10
12.7610152612
20
20.1609821152
30
0.0000000000
10
12.7568628442
20
20.1622419756
30
0.0000000000
11
12.7689162432
21
20.1574661101
31
0.0000000000
11
12.7568628442
21
20.1622419756
31
0.0000000000
0
SPLINE
5
326
100
AcDbEntity
8
0
100
AcDbSpline
62
0
6
CONTINUOUS
70
0
71
3
72
8
73
4
74
2
42
0.0000001000
43
0.0000001000
44
0.0000000001
12
0.0924738415
22
-0.0461380859
32
0.0000000000
13
0.0923744470
23
-0.0463369908
33
0.0000000000
40
0.0000000000
40
0.0000000000
40
0.0000000000
40
0.0000000000
40
1.0000000000
40
1.0000000000
40
1.0000000000
40
1.0000000000
10
13.6174443806
20
19.7332020414
30
0.0000000000
10
13.6482689944
20
19.7178226794
30
0.0000000000
10
13.6790760282
20
19.7024080633
30
0.0000000000
10
13.7098675106
20
19.6869623997
30
0.0000000000
11
13.6174443806
21
19.7332020414
31
0.0000000000
11
13.7098675106
21
19.6869623997
31
0.0000000000
0
SPLINE
5
327
100
AcDbEntity
8
0
100
AcDbSpline
62
0
6
CONTINUOUS
70
0
71
3
72
10
73
6
74
4
42
0.0000001000
43
0.0000001000
44
0.0000000001
12
0.0867340293
22
0.0433670146
32
0.0000000000
13
0.0867710934
23
-0.0432928069
33
0.0000000000
40
0.0000000000
40
0.0000000000
40
0.0000000000
40
0.0000000000
40
0.3690647074
40
0.7005601128
40
1.0000000000
40
1.0000000000
40
1.0000000000
40
1.0000000000
10
13.5237788855
20
19.7268915850
30
0.0000000000
10
13.5344490419
20
19.7322266632
30
0.0000000000
10
13.5558772798
20
19.7403262896
30
0.0000000000
10
13.5885921948
20
19.7430755447
30
0.0000000000
10
13.6087834718
20
19.7375232391
30
0.0000000000
10
13.6174443806
20
19.7332020414
30
0.0000000000
11
13.5237788855
21
19.7268915850
31
0.0000000000
11
13.5574400930
21
19.7390472741
31
0.0000000000
11
13.5895167445
21
19.7411521336
31
0.0000000000
11
13.6174443806
21
19.7332020414
31
0.0000000000
0
SPLINE
5
328
100
AcDbEntity
8
0
100
AcDbSpline
62
9
6
CONTINUOUS
70
0
71
3
72
23
73
19
74
17
42
0.0000001000
43
0.0000001000
44
0.0000000001
12
2.2123948923
22
3.0291572814
32
0.0000000000
13
3.5867267087
23
-1.0639816211
33
0.0000000000
40
0.0000000000
40
0.0000000000
40
0.0000000000
40
0.0000000000
40
0.0128088441
40
0.0754142315
40
0.1453314057
40
0.2228245346
40
0.3078446657
40
0.3982020386
40
0.4887424286
40
0.5745200681
40
0.6529857980
40
0.7231231402
40
0.7849145322
40
0.8391285411
40
0.8867127327
40
0.9286911577
40
0.9661099934
40
1.0000000000
40
1.0000000000
40
1.0000000000
40
1.0000000000
10
9.1587181602
20
19.5239716462
30
0.0000000000
10
9.1681642340
20
19.5369049807
30
0.0000000000
10
9.2256882939
20
19.6116542124
30
0.0000000000
10
9.3554987992
20
19.7396747059
30
0.0000000000
10
9.5710704335
20
19.8901411382
30
0.0000000000
10
9.8297194131
20
20.0225912668
30
0.0000000000
10
10.1254181138
20
20.1338200401
30
0.0000000000
10
10.4461390341
20
20.2199303361
30
0.0000000000
10
10.7738129027
20
20.2787539492
30
0.0000000000
10
11.0900816618
20
20.3117474748
30
0.0000000000
10
11.3823231435
20
20.3232709689
30
0.0000000000
10
11.6447860622
20
20.3186061182
30
0.0000000000
10
11.8764578599
20
20.3025942205
30
0.0000000000
10
12.0791744901
20
20.2790905792
30
0.0000000000
10
12.2562891421
20
20.2508676706
30
0.0000000000
10
12.4116037599
20
20.2197866338
30
0.0000000000
10
12.5490322052
20
20.1869105453
30
0.0000000000
10
12.6347590098
20
20.1631882646
30
0.0000000000
10
12.6752770737
20
20.1511688165
30
0.0000000000
11
9.1587181602
21
19.5239716462
31
0.0000000000
11
9.1879885085
21
19.5620568213
31
0.0000000000
11
9.3529088798
21
19.7283706354
31
0.0000000000
11
9.5661574844
21
19.8798516209
31
0.0000000000
11
9.8234335705
21
20.0134988461
31
0.0000000000
11
10.1206904856
21
20.1266895707
31
0.0000000000
11
10.4469404133
21
20.2152114724
31
0.0000000000
11
10.7802502091
21
20.2755696976
31
0.0000000000
11
11.0994064734
21
20.3090956803
31
0.0000000000
11
11.3927329524
21
20.3207248038
31
0.0000000000
11
11.6550897841
21
20.3160403798
31
0.0000000000
11
11.8857104125
21
20.3000447751
31
0.0000000000
11
12.0871791219
21
20.2766187062
31
0.0000000000
11
12.2629736446
21
20.2485418581
31
0.0000000000
11
12.4169580811
21
20.2176622299
31
0.0000000000
11
12.5530988625
21
20.1850525950
31
0.0000000000
11
12.6752770737
21
20.1511688165
31
0.0000000000
0
SPLINE
5
329
100
AcDbEntity
8
0
100
AcDbSpline
62
9
6
CONTINUOUS
70
0
71
3
72
10
73
6
74
4
42
0.0000001000
43
0.0000001000
44
0.0000000001
12
0.4102902577
22
0.4947141415
32
0.0000000000
13
0.5677248785
23
0.2994756486
33
0.0000000000
40
0.0000000000
40
0.0000000000
40
0.0000000000
40
0.0000000000
40
0.3704497270
40
0.8076574566
40
1.0000000000
40
1.0000000000
40
1.0000000000
40
1.0000000000
10
9.0780278400
20
19.5569007068
30
0.0000000000
10
9.1286918113
20
19.6179896130
30
0.0000000000
10
9.2532199061
20
19.7390571672
30
0.0000000000
10
9.4297917846
20
19.8610990827
30
0.0000000000
10
9.5473037969
20
19.9270170357
30
0.0000000000
10
9.5837030126
20
19.9462176717
30
0.0000000000
11
9.0780278400
21
19.5569007068
31
0.0000000000
11
9.2467308538
21
19.7243167277
31
0.0000000000
11
9.4760912272
21
19.8857193146
31
0.0000000000
11
9.5837030126
21
19.9462176717
31
0.0000000000
0
SPLINE
5
32A
100
AcDbEntity
8
0
100
AcDbSpline
62
9
6
CONTINUOUS
70
0
71
3
72
8
73
4
74
2
42
0.0000001000
43
0.0000001000
44
0.0000000001
12
0.0688320789
22
-0.0563492324
32
0.0000000000
13
0.0653202197
23
-0.0604183720
33
0.0000000000
40
0.0000000000
40
0.0000000000
40
0.0000000000
40
0.0000000000
40
1.0000000000
40
1.0000000000
40
1.0000000000
40
1.0000000000
10
13.6174443806
20
19.7332020414
30
0.0000000000
10
13.6403884069
20
19.7144189639
30
0.0000000000
10
13.6628056960
20
19.6949771266
30
0.0000000000
10
13.6845791025
20
19.6748376693
30
0.0000000000
11
13.6174443806
21
19.7332020414
31
0.0000000000
11
13.6845791025
21
19.6748376693
31
0.0000000000
0
SPLINE
5
32B
100
AcDbEntity
8
0
100
AcDbSpline
62
0
6
CONTINUOUS
70
0
71
3
72
10
73
6
74
4
42
0.0000001000
43
0.0000001000
44
0.0000000001
12
-0.0809117024
22
0.0245489425
32
0.0000000000
13
-0.0751620072
23
-0.0375810036
33
0.0000000000
40
0.0000000000
40
0.0000000000
40
0.0000000000
40
0.0000000000
40
0.1915809123
40
0.5741137005
40
1.0000000000
40
1.0000000000
40
1.0000000000
40
1.0000000000
10
12.7568628442
20
20.1622419756
30
0.0000000000
10
12.7516957983
20
20.1638096785
30
0.0000000000
10
12.7356992456
20
20.1669728088
30
0.0000000000
10
12.7073491424
20
20.1645903583
30
0.0000000000
10
12.6859209045
20
20.1564907319
30
0.0000000000
10
12.6752507481
20
20.1511556537
30
0.0000000000
11
12.7568628442
21
20.1622419756
31
0.0000000000
11
12.7409886071
21
20.1654162023
31
0.0000000000
11
12.7089119556
21
20.1633113429
31
0.0000000000
11
12.6752507481
21
20.1511556537
31
0.0000000000
0
SPLINE
5
32C
100
AcDbEntity
8
0
100
AcDbSpline
62
9
6
CONTINUOUS
70
0
71
3
72
9
73
5
74
3
42
0.0000001000
43
0.0000001000
44
0.0000000001
12
0.0958301386
22
-0.0807618550
32
0.0000000000
13
0.0877502344
23
-0.0895214310
33
0.0000000000
40
0.0000000000
40
0.0000000000
40
0.0000000000
40
0.0000000000
40
0.7276524333
40
1.0000000000
40
1.0000000000
40
1.0000000000
40
1.0000000000
10
13.5238077814
20
19.7269060329
30
0.0000000000
10
13.5470514593
20
19.7073171795
30
0.0000000000
10
13.5781360049
20
19.6793550414
30
0.0000000000
10
13.6078067932
20
19.6499257027
30
0.0000000000
10
13.6157729808
20
19.6417987214
30
0.0000000000
11
13.5238077814
21
19.7269060329
31
0.0000000000
11
13.5915403963
21
19.6658468933
31
0.0000000000
11
13.6157729808
21
19.6417987214
31
0.0000000000
0
SPLINE
5
32D
100
AcDbEntity
8
0
100
AcDbSpline
62
0
6
CONTINUOUS
70
0
71
3
72
11
73
7
74
5
42
0.0000001000
43
0.0000001000
44
0.0000000001
12
0.3326638619
22
0.1325200677
32
0.0000000000
13
0.3191833561
23
-0.1595916781
33
0.0000000000
40
0.0000000000
40
0.0000000000
40
0.0000000000
40
0.0000000000
40
0.0623902608
40
0.3571798206
40
0.6665748523
40
1.0000000000
40
1.0000000000
40
1.0000000000
40
1.0000000000
10
-13.1385019881
20
21.1323311101
30
0.0000000000
10
-13.1315836598
20
21.1350870973
30
0.0000000000
10
-13.0914833375
20
21.1496127763
30
0.0000000000
10
-13.0121133761
20
21.1627664504
30
0.0000000000
10
-12.9001019690
20
21.1494412954
30
0.0000000000
10
-12.8279475641
20
21.1219271119
30
0.0000000000
10
-12.7924729782
20
21.1041898189
30
0.0000000000
11
-13.1385019881
21
21.1323311101
31
0.0000000000
11
-13.1175005113
21
21.1399334894
31
0.0000000000
11
-13.0137958701
21
21.1575958617
31
0.0000000000
11
-12.9040476199
21
21.1455252706
31
0.0000000000
11
-12.7924729782
21
21.1041898189
31
0.0000000000
0
SPLINE
5
32E
100
AcDbEntity
8
0
100
AcDbSpline
62
0
6
CONTINUOUS
70
0
71
3
72
8
73
4
74
2
42
0.0000001000
43
0.0000001000
44
0.0000000001
12
-0.0213855510
22
-0.0400455493
32
0.0000000000
13
-0.0191935754
23
-0.0411576531
33
0.0000000000
40
0.0000000000
40
0.0000000000
40
0.0000000000
40
0.0000000000
40
1.0000000000
40
1.0000000000
40
1.0000000000
40
1.0000000000
10
-13.6559594471
20
-14.4605990022
30
0.0000000000
10
-13.6630879641
20
-14.4739475186
30
0.0000000000
10
-13.6698441467
20
-14.4874964737
30
0.0000000000
10
-13.6762420051
20
-14.5012156914
30
0.0000000000
11
-13.6559594471
21
-14.4605990022
31
0.0000000000
11
-13.6762420051
21
-14.5012156914
31
0.0000000000
0
SPLINE
5
32F
100
AcDbEntity
8
0
100
AcDbSpline
62
0
6
CONTINUOUS
70
0
71
3
72
8
73
4
74
2
42
0.0000001000
43
0.0000001000
44
0.0000000001
12
0.0764106342
22
-0.0361932790
32
0.0000000000
13
0.0799694098
23
-0.0282315451
33
0.0000000000
40
0.0000000000
40
0.0000000000
40
0.0000000000
40
0.0000000000
40
1.0000000000
40
1.0000000000
40
1.0000000000
40
1.0000000000
10
-12.9998171857
20
-16.3779852532
30
0.0000000000
10
-12.9743469743
20
-16.3900496796
30
0.0000000000
10
-12.9482183143
20
-16.4009119789
30
0.0000000000
10
-12.9215618444
20
-16.4103224940
30
0.0000000000
11
-12.9998171857
21
-16.3779852532
31
0.0000000000
11
-12.9215618444
21
-16.4103224940
31
0.0000000000
0
SPLINE
5
330
100
AcDbEntity
8
0
100
AcDbSpline
62
0
6
CONTINUOUS
70
0
71
3
72
15
73
11
74
9
42
0.0000001000
43
0.0000001000
44
0.0000000001
12
1.0559052887
22
-0.5279526443
32
0.0000000000
13
-0.1045296779
23
-1.1759011522
33
0.0000000000
40
0.0000000000
40
0.0000000000
40
0.0000000000
40
0.0000000000
40
0.1093617684
40
0.2271657974
40
0.3521463495
40
0.4822284502
40
0.6148302452
40
0.7471365710
40
0.8763591096
40
1.0000000000
40
1.0000000000
40
1.0000000000
40
1.0000000000
10
1.4912563151
20
13.9623251723
30
0.0000000000
10
1.5297482049
20
13.9430792274
30
0.0000000000
10
1.6054951586
20
13.8943709819
30
0.0000000000
10
1.7074711439
20
13.7997005830
30
0.0000000000
10
1.7987506231
20
13.6841388381
30
0.0000000000
10
1.8759497909
20
13.5520298192
30
0.0000000000
10
1.9362483867
20
13.4082949180
30
0.0000000000
10
1.9773948840
20
13.2582907585
30
0.0000000000
10
1.9978515993
20
13.1076646295
30
0.0000000000
10
1.9971359760
20
13.0077129335
30
0.0000000000
10
1.9928279285
20
12.9592497783
30
0.0000000000
11
1.4912563151
21
13.9623251723
31
0.0000000000
11
1.6003710004
21
13.8933159463
31
0.0000000000
11
1.7028332994
21
13.7992811896
31
0.0000000000
11
1.7947051700
21
13.6838304328
31
0.0000000000
11
1.8724538663
21
13.5513996142
31
0.0000000000
11
1.9330902200
21
13.4070789272
31
0.0000000000
11
1.9742840087
21
13.2564163430
31
0.0000000000
11
1.9944538437
21
13.1052034920
31
0.0000000000
11
1.9928279285
21
12.9592497783
31
0.0000000000
0
SPLINE
5
331
100
AcDbEntity
8
0
100
AcDbSpline
62
0
6
CONTINUOUS
70
0
71
3
72
12
73
8
74
6
42
0.0000001000
43
0.0000001000
44
0.0000000001
12
-0.0527163453
22
-0.5930297731
32
0.0000000000
13
-0.5681904480
23
-0.1842368261
33
0.0000000000
40
0.0000000000
40
0.0000000000
40
0.0000000000
40
0.0000000000
40
0.2302653255
40
0.4435293721
40
0.6400788046
40
0.8231509822
40
1.0000000000
40
1.0000000000
40
1.0000000000
40
1.0000000000
10
-1.3451414744
20
-24.5910627011
30
0.0000000000
10
-1.3491877232
20
-24.6365807657
30
0.0000000000
10
-1.3637339347
20
-24.7238894906
30
0.0000000000
10
-1.4072505105
20
-24.8440787037
30
0.0000000000
10
-1.4705528194
20
-24.9445373018
30
0.0000000000
10
-1.5520212201
20
-25.0211124910
30
0.0000000000
10
-1.6168302766
20
-25.0536117486
30
0.0000000000
10
-1.6503249175
20
-25.0644724492
30
0.0000000000
11
-1.3451414744
21
-24.5910627011
31
0.0000000000
11
-1.3684983109
21
-24.7261510248
31
0.0000000000
11
-1.4126911179
21
-24.8451826949
31
0.0000000000
11
-1.4760248943
21
-24.9435816090
31
0.0000000000
11
-1.5560669227
21
-25.0175631044
31
0.0000000000
11
-1.6503249175
21
-25.0644724492
31
0.0000000000
0
SPLINE
5
332
100
AcDbEntity
8
0
100
AcDbSpline
62
9
6
CONTINUOUS
70
0
71
3
72
8
73
4
74
2
42
0.0000001000
43
0.0000001000
44
0.0000000001
12
-0.1406576130
22
0.0703440275
32
0.0000000000
13
-0.1286153843
23
0.0913265051
33
0.0000000000
40
0.0000000000
40
0.0000000000
40
0.0000000000
40
0.0000000000
40
1.0000000000
40
1.0000000000
40
1.0000000000
40
1.0000000000
10
-13.6903466592
20
-16.6126066711
30
0.0000000000
10
-13.7372325302
20
-16.5891586619
30
0.0000000000
10
-13.7821842448
20
-16.5617179897
30
0.0000000000
10
-13.8250560396
20
-16.5312758213
30
0.0000000000
11
-13.6903466592
21
-16.6126066711
31
0.0000000000
11
-13.8250560396
21
-16.5312758213
31
0.0000000000
0
SPLINE
5
333
100
AcDbEntity
8
0
100
AcDbSpline
62
9
6
CONTINUOUS
70
0
71
3
72
8
73
4
74
2
42
0.0000001000
43
0.0000001000
44
0.0000000001
12
-0.0676493130
22
0.0480360523
32
0.0000000000
13
-0.0641331394
23
0.0525856608
33
0.0000000000
40
0.0000000000
40
0.0000000000
40
0.0000000000
40
0.0000000000
40
1.0000000000
40
1.0000000000
40
1.0000000000
40
1.0000000000
10
-13.8250560396
20
-16.5312758213
30
0.0000000000
10
-13.8476058106
20
-16.5152638039
30
0.0000000000
10
-13.8695801581
20
-16.4984214029
30
0.0000000000
10
-13.8909578713
20
-16.4808928493
30
0.0000000000
11
-13.8250560396
21
-16.5312758213
31
0.0000000000
11
-13.8909578713
21
-16.4808928493
31
0.0000000000
0
SPLINE
5
334
100
AcDbEntity
8
0
100
AcDbSpline
62
9
6
CONTINUOUS
70
0
71
3
72
8
73
4
74
2
42
0.0000001000
43
0.0000001000
44
0.0000000001
12
-0.1064603093
22
0.0872916212
32
0.0000000000
13
-0.0967775523
23
0.0976551755
33
0.0000000000
40
0.0000000000
40
0.0000000000
40
0.0000000000
40
0.0000000000
40
1.0000000000
40
1.0000000000
40
1.0000000000
40
1.0000000000
10
-13.8909578713
20
-16.4808928493
30
0.0000000000
10
-13.9264446411
20
-16.4517956423
30
0.0000000000
10
-13.9602873467
20
-16.4208076979
30
0.0000000000
10
-13.9925465308
20
-16.3882559727
30
0.0000000000
11
-13.8909578713
21
-16.4808928493
31
0.0000000000
11
-13.9925465308
21
-16.3882559727
31
0.0000000000
0
SPLINE
5
335
100
AcDbEntity
8
0
100
AcDbSpline
62
9
6
CONTINUOUS
70
0
71
3
72
13
73
9
74
7
42
0.0000001000
43
0.0000001000
44
0.0000000001
12
-0.1605632836
22
1.1264969001
32
0.0000000000
13
1.0759118464
23
0.3874974560
33
0.0000000000
40
0.0000000000
40
0.0000000000
40
0.0000000000
40
0.0000000000
40
0.1348390209
40
0.3616199293
40
0.5674192015
40
0.7522060234
40
0.9213946885
40
1.0000000000
40
1.0000000000
40
1.0000000000
40
1.0000000000
10
-14.4707537686
20
-15.4079479638
30
0.0000000000
10
-14.4779705005
20
-15.3573160507
30
0.0000000000
10
-14.4909141266
20
-15.2206271429
30
0.0000000000
10
-14.4814137850
20
-15.0045237051
30
0.0000000000
10
-14.4214134399
20
-14.7762360280
30
0.0000000000
10
-14.3142586389
20
-14.5896478005
30
0.0000000000
10
-14.1881895945
20
-14.4794146986
30
0.0000000000
10
-14.1021454692
20
-14.4396261495
30
0.0000000000
10
-14.0739546739
20
-14.4294730301
30
0.0000000000
11
-14.4707537686
21
-15.4079479638
31
0.0000000000
11
-14.4849817724
21
-15.2552363740
31
0.0000000000
11
-14.4714984292
21
-14.9978497226
31
0.0000000000
11
-14.4091526304
21
-14.7724184772
31
0.0000000000
11
-14.3016253379
21
-14.5920210631
31
0.0000000000
11
-14.1553438458
21
-14.4672199121
31
0.0000000000
11
-14.0739546739
21
-14.4294730301
31
0.0000000000
0
SPLINE
5
336
100
AcDbEntity
8
0
100
AcDbSpline
62
9
6
CONTINUOUS
70
0
71
3
72
8
73
4
74
2
42
0.0000001000
43
0.0000001000
44
0.0000000001
12
0.0756177018
22
-0.0378252715
32
0.0000000000
13
0.0724347944
23
-0.0438759929
33
0.0000000000
40
0.0000000000
40
0.0000000000
40
0.0000000000
40
0.0000000000
40
1.0000000000
40
1.0000000000
40
1.0000000000
40
1.0000000000
10
-13.6400015886
20
-14.4187889827
30
0.0000000000
10
-13.6147956880
20
-14.4313974065
30
0.0000000000
10
-13.5901097329
20
-14.4450802299
30
0.0000000000
10
-13.5659648014
20
-14.4597055608
30
0.0000000000
11
-13.6400015886
21
-14.4187889827
31
0.0000000000
11
-13.5659648014
21
-14.4597055608
31
0.0000000000
0
SPLINE
5
337
100
AcDbEntity
8
0
100
AcDbSpline
62
9
6
CONTINUOUS
70
0
71
3
72
17
73
13
74
11
42
0.0000001000
43
0.0000001000
44
0.0000000001
12
2.2192636027
22
-1.3442765293
32
0.0000000000
13
-2.0755521473
23
-1.5709889354
33
0.0000000000
40
0.0000000000
40
0.0000000000
40
0.0000000000
40
0.0000000000
40
0.0675818692
40
0.1777610426
40
0.2950748092
40
0.4158348710
40
0.5362063958
40
0.6520488324
40
0.7600416460
40
0.8580209523
40
0.9458832561
40
1.0000000000
40
1.0000000000
40
1.0000000000
40
1.0000000000
10
-13.5659648014
20
-14.4597055608
30
0.0000000000
10
-13.5159708072
20
-14.4899884677
30
0.0000000000
10
-13.3905723457
20
-14.5802703734
30
0.0000000000
10
-13.2112042439
20
-14.7630940262
30
0.0000000000
10
-13.0398032174
20
-15.0118654965
30
0.0000000000
10
-12.9059500282
20
-15.2922976698
30
0.0000000000
10
-12.8169494035
20
-15.5887198038
30
0.0000000000
10
-12.7777887097
20
-15.8847519640
30
0.0000000000
10
-12.7908507662
20
-16.1640463780
30
0.0000000000
10
-12.8561736069
20
-16.4116021911
30
0.0000000000
10
-12.9607604649
20
-16.5939488493
30
0.0000000000
10
-13.0499674404
20
-16.6804487792
30
0.0000000000
10
-13.0874081484
20
-16.7087877145
30
0.0000000000
11
-13.5659648014
21
-14.4597055608
31
0.0000000000
11
-13.4231285258
21
-14.5615058858
31
0.0000000000
11
-13.2217151123
21
-14.7637299643
31
0.0000000000
11
-13.0483638841
21
-15.0133354984
31
0.0000000000
11
-12.9133106231
21
-15.2955056254
31
0.0000000000
11
-12.8241347400
21
-15.5943004167
31
0.0000000000
11
-12.7861498871
21
-15.8919725221
31
0.0000000000
11
-12.8015466269
21
-16.1713001975
31
0.0000000000
11
-12.8694536119
21
-16.4158593833
31
0.0000000000
11
-12.9859329965
21
-16.6114003463
31
0.0000000000
11
-13.0874081484
21
-16.7087877145
31
0.0000000000
0
SPLINE
5
338
100
AcDbEntity
8
0
100
AcDbSpline
62
9
6
CONTINUOUS
70
0
71
3
72
11
73
7
74
5
42
0.0000001000
43
0.0000001000
44
0.0000000001
12
-0.5744087008
22
-0.4347709184
32
0.0000000000
13
-0.6413156851
23
0.3204302347
33
0.0000000000
40
0.0000000000
40
0.0000000000
40
0.0000000000
40
0.0000000000
40
0.0946348108
40
0.3767068305
40
0.6733789495
40
1.0000000000
40
1.0000000000
40
1.0000000000
40
1.0000000000
10
-13.0874081484
20
-16.7087877145
30
0.0000000000
10
-13.1055278346
20
-16.7225025357
30
0.0000000000
10
-13.1808615827
20
-16.7727783204
30
0.0000000000
10
-13.3366295386
20
-16.8270322433
30
0.0000000000
10
-13.5570331269
20
-16.8187074148
30
0.0000000000
10
-13.6990868438
20
-16.7671305823
30
0.0000000000
10
-13.7689092448
20
-16.7322441624
30
0.0000000000
11
-13.0874081484
21
-16.7087877145
31
0.0000000000
11
-13.1441230755
21
-16.7465052719
31
0.0000000000
11
-13.3349182660
21
-16.8135152449
31
0.0000000000
11
-13.5475488754
21
-16.8085963504
31
0.0000000000
11
-13.7689092448
21
-16.7322441624
31
0.0000000000
0
SPLINE
5
339
100
AcDbEntity
8
0
100
AcDbSpline
62
9
6
CONTINUOUS
70
0
71
3
72
10
73
6
74
4
42
0.0000001000
43
0.0000001000
44
0.0000000001
12
-0.4817607665
22
-0.1721300693
32
0.0000000000
13
-0.4547526469
23
0.2273023596
33
0.0000000000
40
0.0000000000
40
0.0000000000
40
0.0000000000
40
0.0000000000
40
0.1890048187
40
0.5745668988
40
1.0000000000
40
1.0000000000
40
1.0000000000
40
1.0000000000
10
-13.1963887038
20
-16.6640496494
30
0.0000000000
10
-13.2267404059
20
-16.6748941203
30
0.0000000000
10
-13.3221666719
20
-16.6990888344
30
0.0000000000
10
-13.4947961727
20
-16.6924488544
30
0.0000000000
10
-13.6258577162
20
-16.6448406537
30
0.0000000000
10
-13.6903466592
20
-16.6126066711
30
0.0000000000
11
-13.1963887038
21
-16.6640496494
31
0.0000000000
11
-13.2899286586
21
-16.6877809866
31
0.0000000000
11
-13.4858925814
21
-16.6831701930
31
0.0000000000
11
-13.6903466592
21
-16.6126066711
31
0.0000000000
0
SPLINE
5
33A
100
AcDbEntity
8
0
100
AcDbSpline
62
9
6
CONTINUOUS
70
0
71
3
72
14
73
10
74
8
42
0.0000001000
43
0.0000001000
44
0.0000000001
12
-0.9117605400
22
-0.3346834625
32
0.0000000000
13
-0.1345824283
23
-0.9618772647
33
0.0000000000
40
0.0000000000
40
0.0000000000
40
0.0000000000
40
0.0000000000
40
0.1221622432
40
0.2565120186
40
0.4005663505
40
0.5509809882
40
0.7039510796
40
0.8551114649
40
1.0000000000
40
1.0000000000
40
1.0000000000
40
1.0000000000
10
-2.0556638538
20
11.4739734646
30
0.0000000000
10
-2.0927914248
20
11.4603449038
30
0.0000000000
10
-2.1674837544
20
11.4224753680
30
0.0000000000
10
-2.2708616903
20
11.3432515874
30
0.0000000000
10
-2.3668938373
20
11.2422773142
30
0.0000000000
10
-2.4512986517
20
11.1240116682
30
0.0000000000
10
-2.5204306220
20
10.9936133256
30
0.0000000000
10
-2.5712201281
20
10.8569698107
30
0.0000000000
10
-2.5919929497
20
10.7629880132
30
0.0000000000
10
-2.5984927666
20
10.7165330172
30
0.0000000000
11
-2.0556638538
21
11.4739734646
31
0.0000000000
11
-2.1620089124
21
11.4213571529
31
0.0000000000
11
-2.2661441458
21
11.3427272947
31
0.0000000000
11
-2.3629814108
21
11.2417421603
31
0.0000000000
11
-2.4480909661
21
11.1230047465
31
0.0000000000
11
-2.5177068643
21
10.9917523971
31
0.0000000000
11
-2.5686149737
21
10.8540471834
31
0.0000000000
11
-2.5984927666
21
10.7165330172
31
0.0000000000
0
SPLINE
5
33B
100
AcDbEntity
8
0
100
AcDbSpline
62
9
6
CONTINUOUS
70
0
71
3
72
14
73
10
74
8
42
0.0000001000
43
0.0000001000
44
0.0000000001
12
-1.9458754819
22
-0.7297038219
32
0.0000000000
13
-0.2867601655
23
-2.0583167070
33
0.0000000000
40
0.0000000000
40
0.0000000000
40
0.0000000000
40
0.0000000000
40
0.1221133298
40
0.2560976825
40
0.3999311358
40
0.5502267758
40
0.7031774123
40
0.8544302015
40
1.0000000000
40
1.0000000000
40
1.0000000000
40
1.0000000000
10
-2.5572354673
20
12.4770488586
30
0.0000000000
10
-2.6364412454
20
12.4473466708
30
0.0000000000
10
-2.7953615739
20
12.3651609214
30
0.0000000000
10
-3.0148917520
20
12.1942369331
30
0.0000000000
10
-3.2185647723
20
11.9771652697
30
0.0000000000
10
-3.3976235220
20
11.7233453876
30
0.0000000000
10
-3.5443913681
20
11.4437780142
30
0.0000000000
10
-3.6524903048
20
11.1506522415
30
0.0000000000
10
-3.6968462943
20
10.9489987119
30
0.0000000000
10
-3.7107608341
20
10.8491224625
30
0.0000000000
11
-2.5572354673
21
12.4770488586
31
0.0000000000
11
-2.7838245431
21
12.3627712666
31
0.0000000000
11
-3.0047570531
21
12.1932989462
31
0.0000000000
11
-3.2101984243
21
11.9761734164
31
0.0000000000
11
-3.3907808636
21
11.7213231843
31
0.0000000000
11
-3.5385889659
21
11.4399184127
31
0.0000000000
11
-3.6468497212
21
11.1448170450
31
0.0000000000
11
-3.7107608341
21
10.8491224625
31
0.0000000000
0
SPLINE
5
33C
100
AcDbEntity
8
0
100
AcDbSpline
62
9
6
CONTINUOUS
70
0
71
3
72
12
73
8
74
6
42
0.0000001000
43
0.0000001000
44
0.0000000001
12
0.0884069685
22
1.1724960655
32
0.0000000000
13
-1.0450894363
23
0.5388421715
33
0.0000000000
40
0.0000000000
40
0.0000000000
40
0.0000000000
40
0.0000000000
40
0.2004640921
40
0.4120494159
40
0.6230494815
40
0.8218917468
40
1.0000000000
40
1.0000000000
40
1.0000000000
40
1.0000000000
10
-2.0556638538
20
11.4739734646
30
0.0000000000
10
-2.0497563796
20
11.5523212511
30
0.0000000000
10
-2.0584875576
20
11.7152730968
30
0.0000000000
10
-2.1221872699
20
11.9525670812
30
0.0000000000
10
-2.2312300628
20
12.1723195715
30
0.0000000000
10
-2.3755362174
20
12.3541987175
30
0.0000000000
10
-2.4951891141
20
12.4450581133
30
0.0000000000
10
-2.5572354654
20
12.4770488593
30
0.0000000000
11
-2.0556638538
21
11.4739734646
31
0.0000000000
11
-2.0661563478
21
11.7094503692
31
0.0000000000
11
-2.1300053298
21
11.9499048607
31
0.0000000000
11
-2.2409639907
21
12.1718086528
31
0.0000000000
11
-2.3881755517
21
12.3534480365
31
0.0000000000
11
-2.5572354654
21
12.4770488593
31
0.0000000000
0
SPLINE
5
33D
100
AcDbEntity
8
0
100
AcDbSpline
62
9
6
CONTINUOUS
70
0
71
3
72
10
73
6
74
4
42
0.0000001000
43
0.0000001000
44
0.0000000001
12
-2.6759239975
22
-19.1462179927
32
0.0000000000
13
-1.6602902655
23
-19.2613517898
33
0.0000000000
40
0.0000000000
40
0.0000000000
40
0.0000000000
40
0.0000000000
40
0.4781206014
40
0.9510638209
40
1.0000000000
40
1.0000000000
40
1.0000000000
40
1.0000000000
10
-2.5984927666
20
10.7165330172
30
0.0000000000
10
-3.0249642303
20
7.6651325966
30
0.0000000000
10
-3.7991709936
20
1.5847308865
30
0.0000000000
10
-4.4525804024
20
-4.8268335371
30
0.0000000000
10
-4.7458936280
20
-8.1771465276
30
0.0000000000
10
-4.7729763820
20
-8.4913388478
30
0.0000000000
11
-2.5984927666
21
10.7165330172
31
0.0000000000
11
-3.7647754638
21
1.5472317026
31
0.0000000000
11
-4.6904668728
21
-7.5488719997
31
0.0000000000
11
-4.7729763820
21
-8.4913388478
31
0.0000000000
0
SPLINE
5
33E
100
AcDbEntity
8
0
100
AcDbSpline
62
9
6
CONTINUOUS
70
0
71
3
72
9
73
5
74
3
42
0.0000001000
43
0.0000001000
44
0.0000000001
12
-1.4618973084
22
-16.9597563283
32
0.0000000000
13
-0.6142591302
23
-17.0111494587
33
0.0000000000
40
0.0000000000
40
0.0000000000
40
0.0000000000
40
0.0000000000
40
0.4754054670
40
1.0000000000
40
1.0000000000
40
1.0000000000
40
1.0000000000
10
-4.7729763820
20
-8.4913388478
30
0.0000000000
10
-5.0046410395
20
-11.1789258072
30
0.0000000000
10
-5.4271477317
20
-16.8377762061
30
0.0000000000
10
-5.7087353581
20
-22.5056559532
30
0.0000000000
10
-5.8161476853
20
-25.4803079550
30
0.0000000000
11
-4.7729763820
21
-8.4913388478
31
0.0000000000
11
-5.3745158537
21
-16.5614633670
31
0.0000000000
11
-5.8161476853
21
-25.4803079550
31
0.0000000000
0
SPLINE
5
33F
100
AcDbEntity
8
0
100
AcDbSpline
62
9
6
CONTINUOUS
70
0
71
3
72
11
73
7
74
5
42
0.0000001000
43
0.0000001000
44
0.0000000001
12
-5.0454617649
22
-36.1008778358
32
0.0000000000
13
-1.3154739786
23
-36.4280056159
33
0.0000000000
40
0.0000000000
40
0.0000000000
40
0.0000000000
40
0.0000000000
40
0.2542515055
40
0.5057486292
40
0.7543692046
40
1.0000000000
40
1.0000000000
40
1.0000000000
40
1.0000000000
10
-3.7107608341
20
10.8491224625
30
0.0000000000
10
-4.1383662507
20
7.7895549489
30
0.0000000000
10
-4.9146307227
20
1.6928939050
30
0.0000000000
10
-5.8440278786
20
-7.4268491130
30
0.0000000000
10
-6.5312674665
20
-16.4630073730
30
0.0000000000
10
-6.8293121349
20
-22.4618881751
30
0.0000000000
10
-6.9370191082
20
-25.4445015070
30
0.0000000000
11
-3.7107608341
21
10.8491224625
31
0.0000000000
11
-4.8801469936
21
1.6552802912
31
0.0000000000
11
-5.8083054255
21
-7.4651235275
31
0.0000000000
11
-6.4941877319
21
-16.5017867016
31
0.0000000000
11
-6.9370191082
21
-25.4445015070
31
0.0000000000
0
SPLINE
5
340
100
AcDbEntity
8
0
100
AcDbSpline
62
9
6
CONTINUOUS
70
0
71
3
72
12
73
8
74
6
42
0.0000001000
43
0.0000001000
44
0.0000000001
12
-1.1012101583
22
-0.2893479007
32
0.0000000000
13
-1.0177235375
23
0.5105142716
33
0.0000000000
40
0.0000000000
40
0.0000000000
40
0.0000000000
40
0.0000000000
40
0.1776067039
40
0.3829538537
40
0.6001070177
40
0.8113974821
40
1.0000000000
40
1.0000000000
40
1.0000000000
40
1.0000000000
10
-2.5984927666
20
10.7165330172
30
0.0000000000
10
-2.6636868688
20
10.6994029749
30
0.0000000000
10
-2.8085187963
20
10.6788260255
30
0.0000000000
10
-3.0367476470
20
10.6789351526
30
0.0000000000
10
-3.2761773455
20
10.7076704025
30
0.0000000000
10
-3.5043599675
20
10.7623888295
30
0.0000000000
10
-3.6467790749
20
10.8170277086
30
0.0000000000
10
-3.7107608154
20
10.8491224676
30
0.0000000000
11
-2.5984927666
21
10.7165330172
31
0.0000000000
11
-2.7982018076
21
10.6847575123
31
0.0000000000
11
-3.0320042007
21
10.6834398650
31
0.0000000000
11
-3.2775142946
21
10.7127062349
31
0.0000000000
11
-3.5112254722
21
10.7697544832
31
0.0000000000
11
-3.7107608154
21
10.8491224676
31
0.0000000000
0
SPLINE
5
341
100
AcDbEntity
8
0
100
AcDbSpline
62
9
6
CONTINUOUS
70
0
71
3
72
14
73
10
74
8
42
0.0000001000
43
0.0000001000
44
0.0000000001
12
-0.0263044367
22
-0.7311793179
32
0.0000000000
13
0.6960311289
23
0.2255122744
33
0.0000000000
40
0.0000000000
40
0.0000000000
40
0.0000000000
40
0.0000000000
40
0.1708715826
40
0.3264550956
40
0.4670205099
40
0.5968575736
40
0.7236634557
40
0.8559496629
40
1.0000000000
40
1.0000000000
40
1.0000000000
40
1.0000000000
10
-5.8161476853
20
-25.4803079550
30
0.0000000000
10
-5.8176459122
20
-25.5219538774
30
0.0000000000
10
-5.8141375781
20
-25.6020059897
30
0.0000000000
10
-5.7863361014
20
-25.7133972508
30
0.0000000000
10
-5.7365595872
20
-25.8060985317
30
0.0000000000
10
-5.6658914660
20
-25.8749197551
30
0.0000000000
10
-5.5776815228
20
-25.9147870382
30
0.0000000000
10
-5.4781160620
20
-25.9233048848
30
0.0000000000
10
-5.4112604055
20
-25.9094933378
30
0.0000000000
10
-5.3778392326
20
-25.8986649647
30
0.0000000000
11
-5.8161476853
21
-25.4803079550
31
0.0000000000
11
-5.8096103128
21
-25.6051555044
31
0.0000000000
11
-5.7807568814
21
-25.7152710806
31
0.0000000000
11
-5.7308441151
21
-25.8051922247
31
0.0000000000
11
-5.6621408216
21
-25.8707972503
31
0.0000000000
11
-5.5776726023
21
-25.9091748927
31
0.0000000000
11
-5.4813405183
21
-25.9185531526
31
0.0000000000
11
-5.3778392326
21
-25.8986649647
31
0.0000000000
0
SPLINE
5
342
100
AcDbEntity
8
0
100
AcDbSpline
62
9
6
CONTINUOUS
70
0
71
3
72
12
73
8
74
6
42
0.0000001000
43
0.0000001000
44
0.0000000001
12
-0.0368274896
22
-1.0075059850
32
0.0000000000
13
0.9060039452
23
-0.4539179450
33
0.0000000000
40
0.0000000000
40
0.0000000000
40
0.0000000000
40
0.0000000000
40
0.2663991115
40
0.5074762022
40
0.7246982598
40
0.9247066201
40
1.0000000000
40
1.0000000000
40
1.0000000000
40
1.0000000000
10
-6.9370191082
20
-25.4445015070
30
0.0000000000
10
-6.9402893783
20
-25.5339677400
30
0.0000000000
10
-6.9329476270
20
-25.7054394305
30
0.0000000000
10
-6.8740489240
20
-25.9437281506
30
0.0000000000
10
-6.7686888978
20
-26.1414601806
30
0.0000000000
10
-6.6482562993
20
-26.2594061431
30
0.0000000000
10
-6.5678693437
20
-26.3065017669
30
0.0000000000
10
-6.5451306440
20
-26.3178941057
30
0.0000000000
11
-6.9370191082
21
-25.4445015070
31
0.0000000000
11
-6.9232387083
21
-25.7127256936
31
0.0000000000
11
-6.8621206734
21
-25.9479645415
31
0.0000000000
11
-6.7563805038
21
-26.1397442049
31
0.0000000000
11
-6.6108624398
21
-26.2793324391
31
0.0000000000
11
-6.5451306440
21
-26.3178941057
31
0.0000000000
0
SPLINE
5
343
100
AcDbEntity
8
0
100
AcDbSpline
62
9
6
CONTINUOUS
70
0
71
3
72
12
73
8
74
6
42
0.0000001000
43
0.0000001000
44
0.0000000001
12
-1.0566239635
22
-0.4513896080
32
0.0000000000
13
-1.0283104552
23
0.5126249957
33
0.0000000000
40
0.0000000000
40
0.0000000000
40
0.0000000000
40
0.0000000000
40
0.1840192588
40
0.3910172372
40
0.6064497124
40
0.8143443146
40
1.0000000000
40
1.0000000000
40
1.0000000000
40
1.0000000000
10
-5.8161476853
20
-25.4803079549
30
0.0000000000
10
-5.8809607382
20
-25.5079960820
30
0.0000000000
10
-6.0260931783
20
-25.5496006235
30
0.0000000000
10
-6.2576391471
20
-25.5757315913
30
0.0000000000
10
-6.4998254852
20
-25.5679579459
30
0.0000000000
10
-6.7301935103
20
-25.5269918197
30
0.0000000000
10
-6.8733703454
20
-25.4762203055
30
0.0000000000
10
-6.9370075729
20
-25.4444963905
30
0.0000000000
11
-5.8161476853
21
-25.4803079549
31
0.0000000000
11
-6.0184856474
21
-25.5416726588
31
0.0000000000
11
-6.2546641523
21
-25.5697466541
31
0.0000000000
11
-6.5020703630
21
-25.5618420050
31
0.0000000000
11
-6.7370164497
21
-25.5187155400
31
0.0000000000
11
-6.9370075729
21
-25.4444963905
31
0.0000000000
0
SPLINE
5
344
100
AcDbEntity
8
0
100
AcDbSpline
62
9
6
CONTINUOUS
70
0
71
3
72
11
73
7
74
5
42
0.0000001000
43
0.0000001000
44
0.0000000001
12
-0.0606005596
22
-0.5926285512
32
0.0000000000
13
-0.5708219146
23
-0.1833626536
33
0.0000000000
40
0.0000000000
40
0.0000000000
40
0.0000000000
40
0.0000000000
40
0.3617258477
40
0.6795662800
40
0.9642805007
40
1.0000000000
40
1.0000000000
40
1.0000000000
40
1.0000000000
10
-5.3778392326
20
-25.8986649647
30
0.0000000000
10
-5.3851461621
20
-25.9701213197
30
0.0000000000
10
-5.4146929937
20
-26.1037648539
30
0.0000000000
10
-5.5131849609
20
-26.2726763025
30
0.0000000000
10
-5.6197600785
20
-26.3496264303
30
0.0000000000
10
-5.6800920096
20
-26.3711048007
30
0.0000000000
10
-5.6868885006
20
-26.3732880080
30
0.0000000000
11
-5.3778392326
21
-25.8986649647
31
0.0000000000
11
-5.4278959184
21
-26.1082572958
31
0.0000000000
11
-5.5274382815
21
-26.2693234340
31
0.0000000000
11
-5.6667261692
21
-26.3661031671
31
0.0000000000
11
-5.6868885006
21
-26.3732880080
31
0.0000000000
0
SPLINE
5
345
100
AcDbEntity
8
0
100
AcDbSpline
62
9
6
CONTINUOUS
70
0
71
3
72
10
73
6
74
4
42
0.0000001000
43
0.0000001000
44
0.0000000001
12
-0.0115380446
22
-0.3890217378
32
0.0000000000
13
0.3416270571
23
-0.1713221388
33
0.0000000000
40
0.0000000000
40
0.0000000000
40
0.0000000000
40
0.0000000000
40
0.1796302937
40
0.5391392957
40
1.0000000000
40
1.0000000000
40
1.0000000000
40
1.0000000000
10
-21.2978336293
20
-18.1001434977
30
0.0000000000
10
-21.2985244901
20
-18.1234368607
30
0.0000000000
10
-21.2883852892
20
-18.1940717283
30
0.0000000000
10
-21.2059390948
20
-18.2983664293
30
0.0000000000
10
-21.1167709509
20
-18.3545474269
30
0.0000000000
10
-21.0642901221
20
-18.3808659741
30
0.0000000000
11
-21.2978336293
21
-18.1001434977
31
0.0000000000
11
-21.2879593405
21
-18.1689059392
31
0.0000000000
11
-21.2101601112
21
-18.2821538874
31
0.0000000000
11
-21.0642901221
21
-18.3808659741
31
0.0000000000
0
SPLINE
5
346
100
AcDbEntity
8
0
100
AcDbSpline
62
9
6
CONTINUOUS
70
0
71
3
72
14
73
10
74
8
42
0.0000001000
43
0.0000001000
44
0.0000000001
12
0.2842092895
22
2.0534294910
32
0.0000000000
13
1.9316794504
23
0.7523045234
33
0.0000000000
40
0.0000000000
40
0.0000000000
40
0.0000000000
40
0.0000000000
40
0.1460192798
40
0.2977356888
40
0.4510511663
40
0.6015121326
40
0.7452260643
40
0.8787410629
40
1.0000000000
40
1.0000000000
40
1.0000000000
40
1.0000000000
10
-17.8380318755
20
17.9127579832
30
0.0000000000
10
-17.8241985303
20
18.0127047483
30
0.0000000000
10
-17.7802880135
20
18.2145439134
30
0.0000000000
10
-17.6736084010
20
18.5082665742
30
0.0000000000
10
-17.5289494350
20
18.7887831841
30
0.0000000000
10
-17.3525968432
20
19.0438594451
30
0.0000000000
10
-17.1521171828
20
19.2624461086
30
0.0000000000
10
-16.9361278109
20
19.4350880502
30
0.0000000000
10
-16.7795233387
20
19.5187460126
30
0.0000000000
10
-16.7014455397
20
19.5491538949
30
0.0000000000
11
-17.8380318755
21
17.9127579832
31
0.0000000000
11
-17.7747524358
21
18.2087684023
31
0.0000000000
11
-17.6678686803
21
18.5045582699
31
0.0000000000
11
-17.5221230913
21
18.7869942981
31
0.0000000000
11
-17.3441925450
21
19.0431704768
31
0.0000000000
11
-17.1418776015
21
19.2618592205
31
0.0000000000
11
-16.9244009729
21
19.4330594816
31
0.0000000000
11
-16.7014455397
21
19.5491538949
31
0.0000000000
0
SPLINE
5
347
100
AcDbEntity
8
0
100
AcDbSpline
62
9
6
CONTINUOUS
70
0
71
3
72
11
73
7
74
5
42
0.0000001000
43
0.0000001000
44
0.0000000001
12
1.3849487429
22
36.4243367419
32
0.0000000000
13
4.9768793528
23
36.1092932915
33
0.0000000000
40
0.0000000000
40
0.0000000000
40
0.0000000000
40
0.0000000000
40
0.2454839832
40
0.4940636411
40
0.7456136783
40
1.0000000000
40
1.0000000000
40
1.0000000000
40
1.0000000000
10
-21.0642901496
20
-18.3808659863
30
0.0000000000
10
-20.9509625716
20
-15.4003355638
30
0.0000000000
10
-20.6444619000
20
-9.4044044578
30
0.0000000000
10
-19.9530732391
20
-0.3705490083
30
0.0000000000
10
-19.0278787459
20
8.7510679044
30
0.0000000000
10
-18.2600485529
20
14.8508545500
30
0.0000000000
10
-17.8380318755
20
17.9127579832
30
0.0000000000
11
-21.0642901496
21
-18.3808659863
31
0.0000000000
11
-20.6089479048
21
-9.4444066152
31
0.0000000000
11
-19.9188937390
21
-0.4098293707
31
0.0000000000
11
-18.9949071667
21
8.7126603778
31
0.0000000000
11
-17.8380318755
21
17.9127579832
31
0.0000000000
0
SPLINE
5
348
100
AcDbEntity
8
0
100
AcDbSpline
62
9
6
CONTINUOUS
70
0
71
3
72
20
73
16
74
14
42
0.0000001000
43
0.0000001000
44
0.0000000001
12
-2.9641896178
22
1.4827962273
32
0.0000000000
13
3.0923595202
23
-1.2224120571
33
0.0000000000
40
0.0000000000
40
0.0000000000
40
0.0000000000
40
0.0000000000
40
0.0783515222
40
0.1645332896
40
0.2562929899
40
0.3507157031
40
0.4447965973
40
0.5353167914
40
0.6197234599
40
0.6963785947
40
0.7652373473
40
0.8282835639
40
0.8895835553
40
0.9539528237
40
1.0000000000
40
1.0000000000
40
1.0000000000
40
1.0000000000
10
-13.7689092448
20
-16.7322441624
30
0.0000000000
10
-13.8463255010
20
-16.6935177152
30
0.0000000000
10
-13.9986580493
20
-16.5910535315
30
0.0000000000
10
-14.1984406897
20
-16.3883558920
30
0.0000000000
10
-14.3707449119
20
-16.1399837730
30
0.0000000000
10
-14.5056022980
20
-15.8598964632
30
0.0000000000
10
-14.5954548753
20
-15.5636949949
30
0.0000000000
10
-14.6351059984
20
-15.2677248785
30
0.0000000000
10
-14.6220518117
20
-14.9883362435
30
0.0000000000
10
-14.5562491221
20
-14.7405716661
30
0.0000000000
10
-14.4394151443
20
-14.5380916960
30
0.0000000000
10
-14.2750872870
20
-14.3946953773
30
0.0000000000
10
-14.0733482061
20
-14.3243348946
30
0.0000000000
10
-13.8800807186
20
-14.3313026692
30
0.0000000000
10
-13.7622444123
20
-14.3665654533
30
0.0000000000
10
-13.7147796043
20
-14.3853283278
30
0.0000000000
11
-13.7689092448
21
-16.7322441624
31
0.0000000000
11
-13.9859483915
21
-16.5896568599
31
0.0000000000
11
-14.1879616698
21
-16.3877156034
31
0.0000000000
11
-14.3622114083
21
-16.1384569394
31
0.0000000000
11
-14.4982391671
21
-15.8566133933
31
0.0000000000
11
-14.5882285259
21
-15.5580611612
31
0.0000000000
11
-14.6266721800
21
-15.2605162134
31
0.0000000000
11
-14.6112850546
21
-14.9811840491
31
0.0000000000
11
-14.5429535666
21
-14.7364813935
31
0.0000000000
11
-14.4257221691
21
-14.5406677600
31
0.0000000000
11
-14.2666183183
21
-14.4052061852
31
0.0000000000
11
-14.0749401126
21
-14.3378409702
31
0.0000000000
11
-13.8616470384
21
-14.3425075814
31
0.0000000000
11
-13.7147796043
21
-14.3853283278
31
0.0000000000
0
SPLINE
5
349
100
AcDbEntity
8
0
100
AcDbSpline
62
9
6
CONTINUOUS
70
0
71
3
72
8
73
4
74
2
42
0.0000001000
43
0.0000001000
44
0.0000000001
12
0.0763082892
22
-0.0301647244
32
0.0000000000
13
0.0731620124
23
-0.0365570755
33
0.0000000000
40
0.0000000000
40
0.0000000000
40
0.0000000000
40
0.0000000000
40
1.0000000000
40
1.0000000000
40
1.0000000000
40
1.0000000000
10
-13.7147796043
20
-14.3853283278
30
0.0000000000
10
-13.6893435079
20
-14.3953832359
30
0.0000000000
10
-13.6643889261
20
-14.4066032909
30
0.0000000000
10
-13.6400015886
20
-14.4187889827
30
0.0000000000
11
-13.7147796043
21
-14.3853283278
31
0.0000000000
11
-13.6400015886
21
-14.4187889827
31
0.0000000000
0
SPLINE
5
34A
100
AcDbEntity
8
0
100
AcDbSpline
62
9
6
CONTINUOUS
70
0
71
3
72
10
73
6
74
4
42
0.0000001000
43
0.0000001000
44
0.0000000001
12
-0.0391737529
22
-0.3725746819
32
0.0000000000
13
0.3311672627
23
-0.1650460867
33
0.0000000000
40
0.0000000000
40
0.0000000000
40
0.0000000000
40
0.0000000000
40
0.1875559273
40
0.5306075251
40
1.0000000000
40
1.0000000000
40
1.0000000000
40
1.0000000000
10
-18.0731245241
20
18.1755489049
30
0.0000000000
10
-18.0755736140
20
18.1522560416
30
0.0000000000
10
-18.0648360637
20
18.0826533477
30
0.0000000000
10
-17.9753127800
20
17.9906596730
30
0.0000000000
10
-17.8898403247
20
17.9385838113
30
0.0000000000
10
-17.8380245177
20
17.9127600143
30
0.0000000000
11
-18.0731245241
21
18.1755489049
31
0.0000000000
11
-18.0633892690
21
18.1056481678
31
0.0000000000
11
-17.9843518264
21
18.0063230192
31
0.0000000000
11
-17.8380245177
21
17.9127600143
31
0.0000000000
0
SPLINE
5
34B
100
AcDbEntity
8
0
100
AcDbSpline
62
9
6
CONTINUOUS
70
0
71
3
72
9
73
5
74
3
42
0.0000001000
43
0.0000001000
44
0.0000000001
12
0.3352834098
22
0.1336093334
32
0.0000000000
13
0.3228763770
23
-0.1565751146
33
0.0000000000
40
0.0000000000
40
0.0000000000
40
0.0000000000
40
0.0000000000
40
0.4773562297
40
1.0000000000
40
1.0000000000
40
1.0000000000
40
1.0000000000
10
-17.0513736891
20
19.5757541183
30
0.0000000000
10
-16.9980238144
20
19.5970138675
30
0.0000000000
10
-16.8750125170
20
19.6130016383
30
0.0000000000
10
-16.7576953154
20
19.5764315643
30
0.0000000000
10
-16.7014455397
20
19.5491538949
30
0.0000000000
11
-17.0513736891
21
19.5757541183
31
0.0000000000
11
-16.8818809038
21
19.6003012895
31
0.0000000000
11
-16.7014455397
21
19.5491538949
31
0.0000000000
0
SPLINE
5
34C
100
AcDbEntity
8
0
100
AcDbSpline
62
9
6
CONTINUOUS
70
0
71
3
72
8
73
4
74
2
42
0.0000001000
43
0.0000001000
44
0.0000000001
12
-0.0143229270
22
0.0071474377
32
0.0000000000
13
-0.0141111513
23
0.0075518278
33
0.0000000000
40
0.0000000000
40
0.0000000000
40
0.0000000000
40
0.0000000000
40
1.0000000000
40
1.0000000000
40
1.0000000000
40
1.0000000000
10
-20.6794946119
20
-19.2507043678
30
0.0000000000
10
-20.6842689209
20
-19.2483218886
30
0.0000000000
10
-20.6890090402
20
-19.2458715966
30
0.0000000000
10
-20.6937127573
20
-19.2433543207
30
0.0000000000
11
-20.6794946119
21
-19.2507043678
31
0.0000000000
11
-20.6937127573
21
-19.2433543207
31
0.0000000000
0
SPLINE
5
34D
100
AcDbEntity
8
0
100
AcDbSpline
62
9
6
CONTINUOUS
70
0
71
3
72
12
73
8
74
6
42
0.0000001000
43
0.0000001000
44
0.0000000001
12
-0.8736331544
22
0.4675399628
32
0.0000000000
13
0.0368945774
23
0.9850594019
33
0.0000000000
40
0.0000000000
40
0.0000000000
40
0.0000000000
40
0.0000000000
40
0.0604224159
40
0.2621111233
40
0.4823538102
40
0.7278916149
40
1.0000000000
40
1.0000000000
40
1.0000000000
40
1.0000000000
10
-20.6937127573
20
-19.2433543207
30
0.0000000000
10
-20.7113084326
20
-19.2339376893
30
0.0000000000
10
-20.7854283327
20
-19.1890223581
30
0.0000000000
10
-20.9001772798
20
-19.0754082108
30
0.0000000000
10
-21.0032920823
20
-18.8786944444
30
0.0000000000
10
-21.0607155292
20
-18.6412130680
30
0.0000000000
10
-21.0676365909
20
-18.4702136273
30
0.0000000000
10
-21.0642901496
20
-18.3808659863
30
0.0000000000
11
-20.6937127573
21
-19.2433543207
31
0.0000000000
11
-20.7448557742
21
-19.2123357719
31
0.0000000000
11
-20.8877221017
21
-19.0740734059
31
0.0000000000
11
-20.9914003693
21
-18.8833246936
31
0.0000000000
11
-21.0511413428
21
-18.6487743764
31
0.0000000000
11
-21.0642901496
21
-18.3808659863
31
0.0000000000
0
SPLINE
5
34E
100
AcDbEntity
8
0
100
AcDbSpline
62
0
6
CONTINUOUS
70
0
71
3
72
39
73
35
74
33
42
0.0000001000
43
0.0000001000
44
0.0000000001
12
4.2122014598
22
-3.0903137363
32
0.0000000000
13
-3.3519405154
23
-4.0083684585
33
0.0000000000
40
0.0000000000
40
0.0000000000
40
0.0000000000
40
0.0000000000
40
0.0030112680
40
0.0354768538
40
0.0685771278
40
0.1022264423
40
0.1363623401
40
0.1709591499
40
0.2059011471
40
0.2411852094
40
0.2766865301
40
0.3123703959
40
0.3481483925
40
0.3839483396
40
0.4197036934
40
0.4553386293
40
0.4907725054
40
0.5259670878
40
0.5607909523
40
0.5952558294
40
0.6292293118
40
0.6627069645
40
0.6956044654
40
0.7278626299
40
0.7594843576
40
0.7903152038
40
0.8204606684
40
0.8497078703
40
0.8781872437
40
0.9057850005
40
0.9325258148
40
0.9585005137
40
0.9835992497
40
1.0000000000
40
1.0000000000
40
1.0000000000
40
1.0000000000
10
18.9664489965
20
18.5278903440
30
0.0000000000
10
18.9706770191
20
18.5247884230
30
0.0000000000
10
19.0203951130
20
18.4881159064
30
0.0000000000
10
19.1143640845
20
18.4143538896
30
0.0000000000
10
19.2446244229
20
18.3007720085
30
0.0000000000
10
19.3712305583
20
18.1789058632
30
0.0000000000
10
19.4937416066
20
18.0493198354
30
0.0000000000
10
19.6117167334
20
17.9126086835
30
0.0000000000
10
19.7248151861
20
17.7692849020
30
0.0000000000
10
19.8326122951
20
17.6199881607
30
0.0000000000
10
19.9347910647
20
17.4652433306
30
0.0000000000
10
20.0309719758
20
17.3056971957
30
0.0000000000
10
20.1208423900
20
17.1419205878
30
0.0000000000
10
20.2040791036
20
16.9745361568
30
0.0000000000
10
20.2803841068
20
16.8041528724
30
0.0000000000
10
20.3494669933
20
16.6314011795
30
0.0000000000
10
20.4110695509
20
16.4568767762
30
0.0000000000
10
20.4649119410
20
16.2812790833
30
0.0000000000
10
20.5107793852
20
16.1051723951
30
0.0000000000
10
20.5484251531
20
15.9292975946
30
0.0000000000
10
20.5776648149
20
15.7542041728
30
0.0000000000
10
20.5982980314
20
15.5806329021
30
0.0000000000
10
20.6101603005
20
15.4092311503
30
0.0000000000
10
20.6131122289
20
15.2406708922
30
0.0000000000
10
20.6070419427
20
15.0757877121
30
0.0000000000
10
20.5918822243
20
14.9151780148
30
0.0000000000
10
20.5676535255
20
14.7598579741
30
0.0000000000
10
20.5343977023
20
14.6104006606
30
0.0000000000
10
20.4923296589
20
14.4677891897
30
0.0000000000
10
20.4416708808
20
14.3326396160
30
0.0000000000
10
20.3827919810
20
14.2056450486
30
0.0000000000
10
20.3161838852
20
14.0874887665
30
0.0000000000
10
20.2501804912
20
13.9901304713
30
0.0000000000
10
20.2054357725
20
13.9333244656
30
0.0000000000
10
20.1871109927
20
13.9114110489
30
0.0000000000
11
18.9664489965
21
18.5278903440
31
0.0000000000
11
18.9791091787
21
18.5185522012
31
0.0000000000
11
19.1125723002
21
18.4139241798
31
0.0000000000
11
19.2429522530
21
18.3003638177
31
0.0000000000
11
19.3696453845
21
18.1785290617
31
0.0000000000
11
19.4921953885
21
18.0490056296
31
0.0000000000
11
19.6103086125
21
17.9122266467
31
0.0000000000
11
19.7234138769
21
17.7689737770
31
0.0000000000
11
19.8313377282
21
17.6195680210
31
0.0000000000
11
19.9335446128
21
17.4648327372
31
0.0000000000
11
20.0297944208
21
17.3052088262
31
0.0000000000
11
20.1197087338
21
17.1413711673
31
0.0000000000
11
20.2029739582
21
16.9739282367
31
0.0000000000
11
20.2793028095
21
16.8034668807
31
0.0000000000
11
20.3484002013
21
16.6306254725
31
0.0000000000
11
20.4099793419
21
16.4560782726
31
0.0000000000
11
20.4638347253
21
16.2803023907
31
0.0000000000
11
20.5096343250
21
16.1042577819
31
0.0000000000
11
20.5472563283
21
15.9282032565
31
0.0000000000
11
20.5764161636
21
15.7531527114
31
0.0000000000
11
20.5969761909
21
15.5794929101
31
0.0000000000
11
20.6087461958
21
15.4080542817
31
0.0000000000
11
20.6115907077
21
15.2395757230
31
0.0000000000
11
20.6053961894
21
15.0745138158
31
0.0000000000
11
20.5901359238
21
14.9141915705
31
0.0000000000
11
20.5657305058
21
14.7586275893
31
0.0000000000
11
20.5324092602
21
14.6095310513
31
0.0000000000
11
20.4901788662
21
14.4668872067
31
0.0000000000
11
20.4394447179
21
14.3319510814
31
0.0000000000
11
20.3805635928
21
14.2052855003
31
0.0000000000
11
20.3138196157
21
14.0871566027
31
0.0000000000
11
20.2401541833
21
13.9787043860
31
0.0000000000
11
20.1871109927
21
13.9114110489
31
0.0000000000
0
SPLINE
5
34F
100
AcDbEntity
8
0
100
AcDbSpline
62
0
6
CONTINUOUS
70
0
71
3
72
11
73
7
74
5
42
0.0000001000
43
0.0000001000
44
0.0000000001
12
-0.2633400567
22
-0.3149113095
32
0.0000000000
13
-0.3445858399
23
-0.2228752119
33
0.0000000000
40
0.0000000000
40
0.0000000000
40
0.0000000000
40
0.0000000000
40
0.1030945710
40
0.4074018792
40
0.7057734402
40
1.0000000000
40
1.0000000000
40
1.0000000000
40
1.0000000000
10
20.1871109927
20
13.9114110489
30
0.0000000000
10
20.1780613493
20
13.9005891667
30
0.0000000000
10
20.1416813457
20
13.8583411010
30
0.0000000000
10
20.0744466011
20
13.7888755365
30
0.0000000000
10
19.9814259259
20
13.7086291129
30
0.0000000000
10
19.9153600792
20
13.6614221545
30
0.0000000000
10
19.8815646438
20
13.6395635523
30
0.0000000000
11
20.1871109927
21
13.9114110489
31
0.0000000000
11
20.1594935045
21
13.8793447593
31
0.0000000000
11
20.0725829321
21
13.7896671766
31
0.0000000000
11
19.9798284293
21
13.7097319068
31
0.0000000000
11
19.8815646438
21
13.6395635523
31
0.0000000000
0
SPLINE
5
350
100
AcDbEntity
8
0
100
AcDbSpline
62
0
6
CONTINUOUS
70
0
71
3
72
40
73
36
74
34
42
0.0000001000
43
0.0000001000
44
0.0000000001
12
-5.2426771194
22
-2.5162024594
32
0.0000000000
13
-3.3584778031
23
4.7497343924
33
0.0000000000
40
0.0000000000
40
0.0000000000
40
0.0000000000
40
0.0000000000
40
0.0279422086
40
0.0568886404
40
0.0867856735
40
0.1175708214
40
0.1491739462
40
0.1815182333
40
0.2145211122
40
0.2480951614
40
0.2821488835
40
0.3165874368
40
0.3513133877
40
0.3862274132
40
0.4212289430
40
0.4562168440
40
0.4910901116
40
0.5257484895
40
0.5600931426
40
0.5940273782
40
0.6274572983
40
0.6602925290
40
0.6924470069
40
0.7238397592
40
0.7543957739
40
0.7840469578
40
0.8127331797
40
0.8404034472
40
0.8670172461
40
0.8925460724
40
0.9169751935
40
0.9403056606
40
0.9625565732
40
0.9837675646
40
1.0000000000
40
1.0000000000
40
1.0000000000
40
1.0000000000
10
13.5400023018
20
19.6054196522
30
0.0000000000
10
13.4911716426
20
19.5819835675
30
0.0000000000
10
13.3905489476
20
19.5367487926
30
0.0000000000
10
13.2340825625
20
19.4748173794
30
0.0000000000
10
13.0699151327
20
19.4177988811
30
0.0000000000
10
12.8986720143
20
19.3659107176
30
0.0000000000
10
12.7209994639
20
19.3193483207
30
0.0000000000
10
12.5375704187
20
19.2782881050
30
0.0000000000
10
12.3490795669
20
19.2428855750
30
0.0000000000
10
12.1562412518
20
19.2132749390
30
0.0000000000
10
11.9597864994
20
19.1895684523
30
0.0000000000
10
11.7604602480
20
19.1718559738
30
0.0000000000
10
11.5590184128
20
19.1602045860
30
0.0000000000
10
11.3562249569
20
19.1546583316
30
0.0000000000
10
11.1528489653
20
19.1552380413
30
0.0000000000
10
10.9496616605
20
19.1619412541
30
0.0000000000
10
10.7474334282
20
19.1747422369
30
0.0000000000
10
10.5469308714
20
19.1935920962
30
0.0000000000
10
10.3489138561
20
19.2184189805
30
0.0000000000
10
10.1541325889
20
19.2491283797
30
0.0000000000
10
9.9633247283
20
19.2856035210
30
0.0000000000
10
9.7772125694
20
19.3277058499
30
0.0000000000
10
9.5965002473
20
19.3752756181
30
0.0000000000
10
9.4218710153
20
19.4281325741
30
0.0000000000
10
9.2539846342
20
19.4860767479
30
0.0000000000
10
9.0934748192
20
19.5488893607
30
0.0000000000
10
8.9409468087
20
19.6163338597
30
0.0000000000
10
8.7969750933
20
19.6881570827
30
0.0000000000
10
8.6621013175
20
19.7640905753
30
0.0000000000
10
8.5368324296
20
19.8438520682
30
0.0000000000
10
8.4216391805
20
19.9271470939
30
0.0000000000
10
8.3169551048
20
20.0136706841
30
0.0000000000
10
8.2231761236
20
20.1031090072
30
0.0000000000
10
8.1458445064
20
20.1893592332
30
0.0000000000
10
8.1016905920
20
20.2470568883
30
0.0000000000
10
8.0835185007
20
20.2727568072
30
0.0000000000
11
13.5400023018
21
19.6054196522
31
0.0000000000
11
13.3918566345
21
19.5386662903
31
0.0000000000
11
13.2353872351
21
19.4765985732
31
0.0000000000
11
13.0711891670
21
19.4194524821
31
0.0000000000
11
12.8998870348
21
19.3674452861
31
0.0000000000
11
12.7221322377
21
19.3207746017
31
0.0000000000
11
12.5386007656
21
19.2796177453
31
0.0000000000
11
12.3499906748
21
19.2441310568
31
0.0000000000
11
12.1570191470
21
19.2144492490
31
0.0000000000
11
11.9604198784
21
19.1906849369
31
0.0000000000
11
11.7609404066
21
19.1729282256
31
0.0000000000
11
11.5593390728
21
19.1612463477
31
0.0000000000
11
11.3563820935
21
19.1556834245
31
0.0000000000
11
11.1528408496
21
19.1562603180
31
0.0000000000
11
10.9494888574
21
19.1629745478
31
0.0000000000
11
10.7470986580
21
19.1758003205
31
0.0000000000
11
10.5464391337
21
19.1946886326
31
0.0000000000
11
10.3482725641
21
19.2195674547
31
0.0000000000
11
10.1533514960
21
19.2503420437
31
0.0000000000
11
9.9624161581
21
19.2868952843
31
0.0000000000
11
9.7761916276
21
19.3290881332
31
0.0000000000
11
9.5953849326
21
19.3767601875
31
0.0000000000
11
9.4206825324
21
19.4297302686
31
0.0000000000
11
9.2527477125
21
19.4877971100
31
0.0000000000
11
9.0922180251
21
19.5507401396
31
0.0000000000
11
8.9397029214
21
19.6183203061
31
0.0000000000
11
8.7957814597
21
19.6902809802
31
0.0000000000
11
8.6610001118
21
19.7663489269
31
0.0000000000
11
8.5358707012
21
19.8462353365
31
0.0000000000
11
8.4208684637
21
19.9296369184
31
0.0000000000
11
8.3164302543
21
20.0162370428
31
0.0000000000
11
8.2229529132
21
20.1057069153
31
0.0000000000
11
8.1407917205
21
20.1977068455
31
0.0000000000
11
8.0835185007
21
20.2727568072
31
0.0000000000
0
SPLINE
5
351
100
AcDbEntity
8
0
100
AcDbSpline
62
0
6
CONTINUOUS
70
0
71
3
72
20
73
16
74
14
42
0.0000001000
43
0.0000001000
44
0.0000000001
12
1.7678765100
22
-1.2970160889
32
0.0000000000
13
0.8552212911
23
-2.0188253131
33
0.0000000000
40
0.0000000000
40
0.0000000000
40
0.0000000000
40
0.0000000000
40
0.0071747475
40
0.0845283337
40
0.1633941491
40
0.2435681266
40
0.3249014537
40
0.4073329651
40
0.4905869314
40
0.5746559137
40
0.6592425429
40
0.7442641103
40
0.8295099566
40
0.9148081030
40
1.0000000000
40
1.0000000000
40
1.0000000000
40
1.0000000000
10
18.9664489965
20
18.5278903440
30
0.0000000000
10
18.9706770191
20
18.5247884230
30
0.0000000000
10
19.0203951130
20
18.4881159064
30
0.0000000000
10
19.1143640845
20
18.4143538896
30
0.0000000000
10
19.2446244229
20
18.3007720085
30
0.0000000000
10
19.3712305583
20
18.1789058632
30
0.0000000000
10
19.4937416066
20
18.0493198354
30
0.0000000000
10
19.6117167334
20
17.9126086835
30
0.0000000000
10
19.7248151861
20
17.7692849020
30
0.0000000000
10
19.8326122951
20
17.6199881607
30
0.0000000000
10
19.9347910647
20
17.4652433306
30
0.0000000000
10
20.0309719758
20
17.3056971957
30
0.0000000000
10
20.1208423900
20
17.1419205878
30
0.0000000000
10
20.2040791036
20
16.9745361568
30
0.0000000000
10
20.2550168347
20
16.8607960667
30
0.0000000000
10
20.2793028095
20
16.8034668807
30
0.0000000000
11
18.9664489965
21
18.5278903440
31
0.0000000000
11
18.9791091787
21
18.5185522012
31
0.0000000000
11
19.1125723002
21
18.4139241798
31
0.0000000000
11
19.2429522530
21
18.3003638177
31
0.0000000000
11
19.3696453845
21
18.1785290617
31
0.0000000000
11
19.4921953885
21
18.0490056296
31
0.0000000000
11
19.6103086125
21
17.9122266467
31
0.0000000000
11
19.7234138769
21
17.7689737770
31
0.0000000000
11
19.8313377282
21
17.6195680210
31
0.0000000000
11
19.9335446128
21
17.4648327372
31
0.0000000000
11
20.0297944208
21
17.3052088262
31
0.0000000000
11
20.1197087338
21
17.1413711673
31
0.0000000000
11
20.2029739582
21
16.9739282367
31
0.0000000000
11
20.2793028095
21
16.8034668807
31
0.0000000000
0
SPLINE
5
352
100
AcDbEntity
8
0
100
AcDbSpline
62
0
6
CONTINUOUS
70
0
71
3
72
26
73
22
74
20
42
0.0000001000
43
0.0000001000
44
0.0000000001
12
1.1824574439
22
-2.7912951238
32
0.0000000000
13
-1.9451187010
23
-2.3260414119
33
0.0000000000
40
0.0000000000
40
0.0000000000
40
0.0000000000
40
0.0000000000
40
0.0614081729
40
0.1224698678
40
0.1831191983
40
0.2431296862
40
0.3025215462
40
0.3610666069
40
0.4187572250
40
0.4754480925
40
0.5310372184
40
0.5855295999
40
0.6386590887
40
0.6906074887
40
0.7410079506
40
0.7900852463
40
0.8376432893
40
0.8837245999
40
0.9284856963
40
0.9717372830
40
1.0000000000
40
1.0000000000
40
1.0000000000
40
1.0000000000
10
20.2793028095
20
16.8034668807
30
0.0000000000
10
20.3035069932
20
16.7463307695
30
0.0000000000
10
20.3494669933
20
16.6314011795
30
0.0000000000
10
20.4110695509
20
16.4568767762
30
0.0000000000
10
20.4649119410
20
16.2812790833
30
0.0000000000
10
20.5107793852
20
16.1051723951
30
0.0000000000
10
20.5484251531
20
15.9292975946
30
0.0000000000
10
20.5776648149
20
15.7542041728
30
0.0000000000
10
20.5982980314
20
15.5806329021
30
0.0000000000
10
20.6101603005
20
15.4092311503
30
0.0000000000
10
20.6131122289
20
15.2406708922
30
0.0000000000
10
20.6070419427
20
15.0757877121
30
0.0000000000
10
20.5918822243
20
14.9151780148
30
0.0000000000
10
20.5676535255
20
14.7598579741
30
0.0000000000
10
20.5343977023
20
14.6104006606
30
0.0000000000
10
20.4923296589
20
14.4677891897
30
0.0000000000
10
20.4416708808
20
14.3326396160
30
0.0000000000
10
20.3827919810
20
14.2056450486
30
0.0000000000
10
20.3161838852
20
14.0874887665
30
0.0000000000
10
20.2501804912
20
13.9901304713
30
0.0000000000
10
20.2054357725
20
13.9333244656
30
0.0000000000
10
20.1871109927
20
13.9114110489
30
0.0000000000
11
20.2793028095
21
16.8034668807
31
0.0000000000
11
20.3484002013
21
16.6306254725
31
0.0000000000
11
20.4099793419
21
16.4560782726
31
0.0000000000
11
20.4638347253
21
16.2803023907
31
0.0000000000
11
20.5096343250
21
16.1042577819
31
0.0000000000
11
20.5472563283
21
15.9282032565
31
0.0000000000
11
20.5764161636
21
15.7531527114
31
0.0000000000
11
20.5969761909
21
15.5794929101
31
0.0000000000
11
20.6087461958
21
15.4080542817
31
0.0000000000
11
20.6115907077
21
15.2395757230
31
0.0000000000
11
20.6053961894
21
15.0745138158
31
0.0000000000
11
20.5901359238
21
14.9141915705
31
0.0000000000
11
20.5657305058
21
14.7586275893
31
0.0000000000
11
20.5324092602
21
14.6095310513
31
0.0000000000
11
20.4901788662
21
14.4668872067
31
0.0000000000
11
20.4394447179
21
14.3319510814
31
0.0000000000
11
20.3805635928
21
14.2052855003
31
0.0000000000
11
20.3138196157
21
14.0871566027
31
0.0000000000
11
20.2401541833
21
13.9787043860
31
0.0000000000
11
20.1871109927
21
13.9114110489
31
0.0000000000
0
SPLINE
5
353
100
AcDbEntity
8
0
100
AcDbSpline
62
0
6
CONTINUOUS
70
0
71
3
72
8
73
4
74
2
42
0.0000001000
43
0.0000001000
44
0.0000000001
12
-0.0278408439
22
-0.0313846174
32
0.0000000000
13
-0.0287519909
23
-0.0305529416
33
0.0000000000
40
0.0000000000
40
0.0000000000
40
0.0000000000
40
0.0000000000
40
1.0000000000
40
1.0000000000
40
1.0000000000
40
1.0000000000
10
20.1594935045
20
13.8793447593
30
0.0000000000
10
20.1502132232
20
13.8688832201
30
0.0000000000
10
20.1407799865
20
13.8585569506
30
0.0000000000
10
20.1311959896
20
13.8483726368
30
0.0000000000
11
20.1594935045
21
13.8793447593
31
0.0000000000
11
20.1311959896
21
13.8483726368
31
0.0000000000
0
SPLINE
5
354
100
AcDbEntity
8
0
100
AcDbSpline
62
0
6
CONTINUOUS
70
0
71
3
72
18
73
14
74
12
42
0.0000001000
43
0.0000001000
44
0.0000000001
12
0.8134822567
22
0.3756930640
32
0.0000000000
13
0.8016850218
23
-0.4008397784
33
0.0000000000
40
0.0000000000
40
0.0000000000
40
0.0000000000
40
0.0000000000
40
0.0893849138
40
0.1790408614
40
0.2685268285
40
0.3627312415
40
0.4548475124
40
0.5475230269
40
0.6418820557
40
0.7327666972
40
0.8282674027
40
0.9200880842
40
1.0000000000
40
1.0000000000
40
1.0000000000
40
1.0000000000
10
10.9705960287
20
24.2020769486
30
0.0000000000
10
10.9948337091
20
24.2132707127
30
0.0000000000
10
11.0443037921
20
24.2337562497
30
0.0000000000
10
11.1207056890
20
24.2584280408
30
0.0000000000
10
11.2002458210
20
24.2772264845
30
0.0000000000
10
11.2818001279
20
24.2895317996
30
0.0000000000
10
11.3650424703
20
24.2950550175
30
0.0000000000
10
11.4485039852
20
24.2936729704
30
0.0000000000
10
11.5311953083
20
24.2853443052
30
0.0000000000
10
11.6137318730
20
24.2700353897
30
0.0000000000
10
11.6939841209
20
24.2480903004
30
0.0000000000
10
11.7690221093
20
24.2206247535
30
0.0000000000
10
11.8157362742
20
24.1993224722
30
0.0000000000
10
11.8370910029
20
24.1886451806
30
0.0000000000
11
10.9705960287
21
24.2020769486
31
0.0000000000
11
11.0445955542
21
24.2327193994
31
0.0000000000
11
11.1210441066
21
24.2574068451
31
0.0000000000
11
11.1990780167
21
24.2758489500
31
0.0000000000
11
11.2825447485
21
24.2884428333
31
0.0000000000
11
11.3649040765
21
24.2939075653
31
0.0000000000
11
11.4479342269
21
24.2925325061
31
0.0000000000
11
11.5320586594
21
24.2840596371
31
0.0000000000
11
11.6121297816
21
24.2692079429
31
0.0000000000
11
11.6946723510
21
24.2466365246
31
0.0000000000
11
11.7719350485
21
24.2183567732
31
0.0000000000
11
11.8370910029
21
24.1886451806
31
0.0000000000
0
SPLINE
5
355
100
AcDbEntity
8
0
100
AcDbSpline
62
0
6
CONTINUOUS
70
0
71
3
72
8
73
4
74
2
42
0.0000001000
43
0.0000001000
44
0.0000000001
12
-0.0067366515
22
0.0679104449
32
0.0000000000
13
-0.0000038008
23
0.0682445507
33
0.0000000000
40
0.0000000000
40
0.0000000000
40
0.0000000000
40
0.0000000000
40
1.0000000000
40
1.0000000000
40
1.0000000000
40
1.0000000000
10
8.4787111940
20
19.8864270572
30
0.0000000000
10
8.4764656435
20
19.9090638722
30
0.0000000000
10
8.4753347707
20
19.9318124346
30
0.0000000000
10
8.4753335038
20
19.9545606182
30
0.0000000000
11
8.4787111940
21
19.8864270572
31
0.0000000000
11
8.4753335038
21
19.9545606182
31
0.0000000000
0
SPLINE
5
356
100
AcDbEntity
8
0
100
AcDbSpline
62
0
6
CONTINUOUS
70
0
71
3
72
16
73
12
74
10
42
0.0000001000
43
0.0000001000
44
0.0000000001
12
0.4035298950
22
0.9176758371
32
0.0000000000
13
0.8956189013
23
0.4492564213
33
0.0000000000
40
0.0000000000
40
0.0000000000
40
0.0000000000
40
0.0000000000
40
0.0766285920
40
0.1741530629
40
0.2761448249
40
0.3831248479
40
0.4953806848
40
0.6131606036
40
0.7365284194
40
0.8655088305
40
1.0000000000
40
1.0000000000
40
1.0000000000
40
1.0000000000
10
8.5384101570
20
19.8445148747
30
0.0000000000
10
8.5487174663
20
19.8679549439
30
0.0000000000
10
8.5746377950
20
19.9201270972
30
0.0000000000
10
8.6235597401
20
19.9985016547
30
0.0000000000
10
8.6860477349
20
20.0797703404
30
0.0000000000
10
8.7588102047
20
20.1587875010
30
0.0000000000
10
8.8415528103
20
20.2352627864
30
0.0000000000
10
8.9339275571
20
20.3088937897
30
0.0000000000
10
9.0355701412
20
20.3794023322
30
0.0000000000
10
9.1460610492
20
20.4465060265
30
0.0000000000
10
9.2237432464
20
20.4879514731
30
0.0000000000
10
9.2638941909
20
20.5080918136
30
0.0000000000
11
8.5384101570
21
19.8445148747
31
0.0000000000
11
8.5724827293
21
19.9133358169
31
0.0000000000
11
8.6240419724
21
19.9963440922
31
0.0000000000
11
8.6861574863
21
20.0774934789
31
0.0000000000
11
8.7586071067
21
20.1564944345
31
0.0000000000
11
8.8410659482
21
20.2329919582
31
0.0000000000
11
8.9332279375
21
20.3067027013
31
0.0000000000
11
9.0346928863
21
20.3773059665
31
0.0000000000
11
9.1450689596
21
20.4445296445
31
0.0000000000
11
9.2638941909
21
20.5080918136
31
0.0000000000
0
SPLINE
5
357
100
AcDbEntity
8
0
100
AcDbSpline
62
0
6
CONTINUOUS
70
0
71
3
72
17
73
13
74
11
42
0.0000001000
43
0.0000001000
44
0.0000000001
12
0.6923672232
22
-0.3460670439
32
0.0000000000
13
0.3403615784
23
-0.6949482992
33
0.0000000000
40
0.0000000000
40
0.0000000000
40
0.0000000000
40
0.0000000000
40
0.0503847250
40
0.1404898098
40
0.2346040286
40
0.3328138003
40
0.4351079600
40
0.5413706983
40
0.6513775624
40
0.7647969877
40
0.8811955450
40
1.0000000000
40
1.0000000000
40
1.0000000000
40
1.0000000000
10
12.9659246197
20
23.6242284751
30
0.0000000000
10
12.9775528637
20
23.6184163108
30
0.0000000000
10
13.0095827840
20
23.6014215325
30
0.0000000000
10
13.0611584611
20
23.5696494611
30
0.0000000000
10
13.1201164112
20
23.5267417135
30
0.0000000000
10
13.1781614113
20
23.4775909828
30
0.0000000000
10
13.2348538379
20
23.4223008084
30
0.0000000000
10
13.2897265346
20
23.3610571426
30
0.0000000000
10
13.3422939167
20
23.2941377160
30
0.0000000000
10
13.3920646119
20
23.2219159218
30
0.0000000000
10
13.4385463659
20
23.1448775709
30
0.0000000000
10
13.4667951447
20
23.0911414579
30
0.0000000000
10
13.4802739687
20
23.0636204733
30
0.0000000000
11
12.9659246197
21
23.6242284751
31
0.0000000000
11
13.0003798403
21
23.6059651298
31
0.0000000000
11
13.0597884041
21
23.5694654223
31
0.0000000000
11
13.1187209783
21
23.5266774937
31
0.0000000000
11
13.1767692906
21
23.4776274525
31
0.0000000000
11
13.2334904337
21
23.4224132958
31
0.0000000000
11
13.2884130428
21
23.3612168177
31
0.0000000000
11
13.3410464618
21
23.2943131772
31
0.0000000000
11
13.3908933388
21
23.2220759245
31
0.0000000000
11
13.4374637199
21
23.1449779082
31
0.0000000000
11
13.4802739687
21
23.0636204733
31
0.0000000000
0
SPLINE
5
358
100
AcDbEntity
8
0
100
AcDbSpline
62
0
6
CONTINUOUS
70
0
71
3
72
9
73
5
74
3
42
0.0000001000
43
0.0000001000
44
0.0000000001
12
0.0795291270
22
0.0420563124
32
0.0000000000
13
0.0728605653
23
0.0528100669
33
0.0000000000
40
0.0000000000
40
0.0000000000
40
0.0000000000
40
0.0000000000
40
0.5842363092
40
1.0000000000
40
1.0000000000
40
1.0000000000
40
1.0000000000
10
17.9286796061
20
-12.7310698485
30
0.0000000000
10
17.9441675406
20
-12.7228795736
30
0.0000000000
10
17.9700855704
20
-12.7077118981
30
0.0000000000
10
17.9948629806
20
-12.6907847958
30
0.0000000000
10
18.0049605731
20
-12.6834659597
30
0.0000000000
11
17.9286796061
21
-12.7310698485
31
0.0000000000
11
17.9740627187
21
-12.7045560113
31
0.0000000000
11
18.0049605731
21
-12.6834659597
31
0.0000000000
0
SPLINE
5
359
100
AcDbEntity
8
0
100
AcDbSpline
62
0
6
CONTINUOUS
70
0
71
3
72
12
73
8
74
6
42
0.0000001000
43
0.0000001000
44
0.0000000001
12
0.0794384856
22
-0.0397300228
32
0.0000000000
13
0.0445479325
23
-0.0768293223
33
0.0000000000
40
0.0000000000
40
0.0000000000
40
0.0000000000
40
0.0000000000
40
0.1689358061
40
0.4446982556
40
0.7179283992
40
0.9949015518
40
1.0000000000
40
1.0000000000
40
1.0000000000
40
1.0000000000
10
18.2975906173
20
20.9583946513
30
0.0000000000
10
18.3020639521
20
20.9561573769
30
0.0000000000
10
18.3135705002
20
20.9497319391
30
0.0000000000
10
18.3307094618
20
20.9370350671
30
0.0000000000
10
18.3477359525
20
20.9193618909
30
0.0000000000
10
18.3570956041
20
20.9057823631
30
0.0000000000
10
18.3612942056
20
20.8985643229
30
0.0000000000
10
18.3613699141
20
20.8984337528
30
0.0000000000
11
18.2975906173
21
20.9583946513
31
0.0000000000
11
18.3106778735
21
20.9510677708
31
0.0000000000
11
18.3303185206
21
20.9364761679
31
0.0000000000
11
18.3471487560
21
20.9190271431
31
0.0000000000
11
18.3611422445
21
20.8988251507
31
0.0000000000
11
18.3613699141
21
20.8984337528
31
0.0000000000
0
SPLINE
5
35A
100
AcDbEntity
8
0
100
AcDbSpline
62
0
6
CONTINUOUS
70
0
71
3
72
9
73
5
74
3
42
0.0000001000
43
0.0000001000
44
0.0000000001
12
0.0106959682
22
0.0091088848
32
0.0000000000
13
0.0125651438
23
0.0062858928
33
0.0000000000
40
0.0000000000
40
0.0000000000
40
0.0000000000
40
0.0000000000
40
0.2054428923
40
1.0000000000
40
1.0000000000
40
1.0000000000
40
1.0000000000
10
-2.6952575754
20
21.3994005929
30
0.0000000000
10
-2.6945251052
20
21.4000243781
30
0.0000000000
10
-2.6908853482
20
21.4029730518
30
0.0000000000
10
-2.6868957973
20
21.4054691057
30
0.0000000000
10
-2.6835678892
20
21.4071339393
30
0.0000000000
11
-2.6952575754
21
21.3994005929
31
0.0000000000
11
-2.6930148171
21
21.4012168426
31
0.0000000000
11
-2.6835678892
21
21.4071339393
31
0.0000000000
0
SPLINE
5
35B
100
AcDbEntity
8
0
100
AcDbSpline
62
0
6
CONTINUOUS
70
0
71
3
72
8
73
4
74
2
42
0.0000001000
43
0.0000001000
44
0.0000000001
12
-0.0050308648
22
0.0025152164
32
0.0000000000
13
-0.0052241425
23
0.0020832623
33
0.0000000000
40
0.0000000000
40
0.0000000000
40
0.0000000000
40
0.0000000000
40
1.0000000000
40
1.0000000000
40
1.0000000000
40
1.0000000000
10
-1.3793586696
20
21.4763881232
30
0.0000000000
10
-1.3810356245
20
21.4772265287
30
0.0000000000
10
-1.3827477083
20
21.4779946660
30
0.0000000000
10
-1.3844890892
20
21.4786890868
30
0.0000000000
11
-1.3793586696
21
21.4763881232
31
0.0000000000
11
-1.3844890892
21
21.4786890868
31
0.0000000000
0
SPLINE
5
35C
100
AcDbEntity
8
0
100
AcDbSpline
62
0
6
CONTINUOUS
70
0
71
3
72
17
73
13
74
11
42
0.0000001000
43
0.0000001000
44
0.0000000001
12
0.3267954694
22
0.1568442124
32
0.0000000000
13
0.3250319408
23
-0.1623326163
33
0.0000000000
40
0.0000000000
40
0.0000000000
40
0.0000000000
40
0.0000000000
40
0.1444903175
40
0.2800230024
40
0.4064032085
40
0.5234622862
40
0.6310855809
40
0.7292758090
40
0.8182352369
40
0.8985128392
40
0.9712181877
40
1.0000000000
40
1.0000000000
40
1.0000000000
40
1.0000000000
10
17.1034331384
20
21.3156744000
30
0.0000000000
10
17.1191727321
20
21.3232285567
30
0.0000000000
10
17.1499415840
20
21.3373262570
30
0.0000000000
10
17.1954115428
20
21.3559091461
30
0.0000000000
10
17.2386003874
20
21.3711858479
30
0.0000000000
10
17.2793484665
20
21.3830663939
30
0.0000000000
10
17.3174854041
20
21.3914500989
30
0.0000000000
10
17.3528303840
20
21.3962241681
30
0.0000000000
10
17.3851966917
20
21.3972603485
30
0.0000000000
10
17.4143937213
20
21.3944036888
30
0.0000000000
10
17.4357222524
20
21.3886598933
30
0.0000000000
10
17.4469839044
20
21.3836955284
30
0.0000000000
10
17.4501022405
20
21.3821381195
30
0.0000000000
11
17.1034331384
21
21.3156744000
31
0.0000000000
11
17.1510752664
21
21.3374328116
31
0.0000000000
11
17.1965813884
21
21.3559479132
31
0.0000000000
11
17.2398009273
21
21.3711371476
31
0.0000000000
11
17.2805685201
21
21.3829053975
31
0.0000000000
11
17.3187002502
21
21.3911451885
31
0.0000000000
11
17.3539950468
21
21.3957389249
31
0.0000000000
11
17.3862310340
21
21.3965606819
31
0.0000000000
11
17.4151669827
21
21.3934804917
31
0.0000000000
11
17.4405442463
21
21.3863699787
31
0.0000000000
11
17.4501022405
21
21.3821381195
31
0.0000000000
0
SPLINE
5
35D
100
AcDbEntity
8
0
100
AcDbSpline
62
0
6
CONTINUOUS
70
0
71
3
72
30
73
26
74
24
42
0.0000001000
43
0.0000001000
44
0.0000000001
12
3.3990611785
22
1.6753110641
32
0.0000000000
13
3.5076353199
23
-1.4341473144
33
0.0000000000
40
0.0000000000
40
0.0000000000
40
0.0000000000
40
0.0000000000
40
0.0373740152
40
0.0761101878
40
0.1161194463
40
0.1573317361
40
0.1996195059
40
0.2429054545
40
0.2870323720
40
0.3319183389
40
0.3773849130
40
0.4233468943
40
0.4696128107
40
0.5160948086
40
0.5625964149
40
0.6090274722
40
0.6551943534
40
0.7010050072
40
0.7462763135
40
0.7909151132
40
0.8347562339
40
0.8777069410
40
0.9196272232
40
0.9604275051
40
1.0000000000
40
1.0000000000
40
1.0000000000
40
1.0000000000
10
9.9466043889
20
20.4175372040
30
0.0000000000
10
9.9889499102
20
20.4384082377
30
0.0000000000
10
10.0763003953
20
20.4786777037
30
0.0000000000
10
10.2123029896
20
20.5337391394
30
0.0000000000
10
10.3551734007
20
20.5843611490
30
0.0000000000
10
10.5043046590
20
20.6303282472
30
0.0000000000
10
10.6591237585
20
20.6714643470
30
0.0000000000
10
10.8189617905
20
20.7075913893
30
0.0000000000
10
10.9832152253
20
20.7385730192
30
0.0000000000
10
11.1511629266
20
20.7642728882
30
0.0000000000
10
11.3221790009
20
20.7845951780
30
0.0000000000
10
11.4955051592
20
20.7994495371
30
0.0000000000
10
11.6705000119
20
20.8087809571
30
0.0000000000
10
11.8463844705
20
20.8125477891
30
0.0000000000
10
12.0225084093
20
20.8107361045
30
0.0000000000
10
12.1980887315
20
20.8033540079
30
0.0000000000
10
12.3724734673
20
20.7904289504
30
0.0000000000
10
12.5448922176
20
20.7720182310
30
0.0000000000
10
12.7146983570
20
20.7481909737
30
0.0000000000
10
12.8811503018
20
20.7190515598
30
0.0000000000
10
13.0436144579
20
20.6847109788
30
0.0000000000
10
13.2013928468
20
20.6453171796
30
0.0000000000
10
13.3538740810
20
20.6010226630
30
0.0000000000
10
13.5004137850
20
20.5520152626
30
0.0000000000
10
13.5952809042
20
20.5157489324
30
0.0000000000
10
13.6415495312
20
20.4968313366
30
0.0000000000
11
9.9466043889
21
20.4175372040
31
0.0000000000
11
10.0751691905
21
20.4769491628
31
0.0000000000
11
10.2111887487
21
20.5321411706
31
0.0000000000
11
10.3540646482
21
20.5828715312
31
0.0000000000
11
10.5032838466
21
20.6289572765
31
0.0000000000
11
10.6581400888
21
20.6701810662
31
0.0000000000
11
10.8181220192
21
20.7064062431
31
0.0000000000
11
10.9824333833
21
20.7374530328
31
0.0000000000
11
11.1505648630
21
20.7632248816
31
0.0000000000
11
11.3216525266
21
20.7835896782
31
0.0000000000
11
11.4951870582
21
20.7984866533
31
0.0000000000
11
11.6702620156
21
20.8078381352
31
0.0000000000
11
11.8463648524
21
20.8116167485
31
0.0000000000
11
12.0225731909
21
20.8098026889
31
0.0000000000
11
12.1983677885
21
20.8024014362
31
0.0000000000
11
12.3728370611
21
20.7894512102
31
0.0000000000
11
12.5454521304
21
20.7709915320
31
0.0000000000
11
12.7153380286
21
20.7471156632
31
0.0000000000
11
12.8819545492
21
20.7178999263
31
0.0000000000
11
13.0444870848
21
20.6834866915
31
0.0000000000
11
13.2023844847
21
20.6439932081
31
0.0000000000
11
13.3549129263
21
20.5996023735
31
0.0000000000
11
13.5015136850
21
20.5504775223
31
0.0000000000
11
13.6415495312
21
20.4968313366
31
0.0000000000
0
SPLINE
5
35E
100
AcDbEntity
8
0
100
AcDbSpline
62
0
6
CONTINUOUS
70
0
71
3
72
11
73
7
74
5
42
0.0000001000
43
0.0000001000
44
0.0000000001
12
0.3930951624
22
-0.2404280803
32
0.0000000000
13
0.3161242496
23
-0.3354205767
33
0.0000000000
40
0.0000000000
40
0.0000000000
40
0.0000000000
40
0.0000000000
40
0.2774716433
40
0.5426639157
40
0.7955853492
40
1.0000000000
40
1.0000000000
40
1.0000000000
40
1.0000000000
10
14.0338074656
20
20.3007023694
30
0.0000000000
10
14.0701650525
20
20.2784650445
30
0.0000000000
10
14.1400675106
20
20.2329570442
30
0.0000000000
10
14.2381510022
20
20.1599283739
30
0.0000000000
10
14.3224569616
20
20.0876069971
30
0.0000000000
10
14.3724681913
20
20.0381936931
30
0.0000000000
10
14.3940083340
20
20.0153387331
30
0.0000000000
11
14.0338074656
21
20.3007023694
31
0.0000000000
11
14.1408648537
21
20.2308019379
31
0.0000000000
11
14.2387675653
21
20.1576750540
31
0.0000000000
11
14.3270917562
21
20.0816395724
31
0.0000000000
11
14.3940083340
21
20.0153387331
31
0.0000000000
0
SPLINE
5
35F
100
AcDbEntity
8
0
100
AcDbSpline
62
0
6
CONTINUOUS
70
0
71
3
72
9
73
5
74
3
42
0.0000001000
43
0.0000001000
44
0.0000000001
12
0.0124629561
22
-0.1100286030
32
0.0000000000
13
0.0000000000
23
-0.1107321939
33
0.0000000000
40
0.0000000000
40
0.0000000000
40
0.0000000000
40
0.0000000000
40
0.4925884718
40
1.0000000000
40
1.0000000000
40
1.0000000000
40
1.0000000000
10
13.4802739687
20
23.0636204733
30
0.0000000000
10
13.4823203382
20
23.0455541994
30
0.0000000000
10
13.4853628127
20
23.0087453067
30
0.0000000000
10
13.4863309555
20
22.9718269843
30
0.0000000000
10
13.4863309555
20
22.9530980538
30
0.0000000000
11
13.4802739687
21
23.0636204733
31
0.0000000000
11
13.4848143910
21
23.0092643746
31
0.0000000000
11
13.4863309555
21
22.9530980538
31
0.0000000000
0
SPLINE
5
360
100
AcDbEntity
8
0
100
AcDbSpline
62
0
6
CONTINUOUS
70
0
71
3
72
26
73
22
74
20
42
0.0000001000
43
0.0000001000
44
0.0000000001
12
-1.2388761419
22
1.7520832247
32
0.0000000000
13
1.9359127617
23
0.9240140005
33
0.0000000000
40
0.0000000000
40
0.0000000000
40
0.0000000000
40
0.0000000000
40
0.0108472899
40
0.0632889756
40
0.1136327283
40
0.1622650341
40
0.2096414712
40
0.2562741753
40
0.3027114310
40
0.3495113899
40
0.3972141703
40
0.4463170181
40
0.4972560524
40
0.5503960095
40
0.6060271784
40
0.6643674550
40
0.7255674796
40
0.7897173310
40
0.8568534230
40
0.9269649545
40
1.0000000000
40
1.0000000000
40
1.0000000000
40
1.0000000000
10
8.0835185007
20
20.2727568072
30
0.0000000000
10
8.0790390178
20
20.2790919254
30
0.0000000000
10
8.0532469891
20
20.3162979664
30
0.0000000000
10
8.0106776761
20
20.3856609030
30
0.0000000000
10
7.9637520163
20
20.4834636012
30
0.0000000000
10
7.9291739589
20
20.5824788841
30
0.0000000000
10
7.9071204838
20
20.6823176933
30
0.0000000000
10
7.8977153156
20
20.7825662652
30
0.0000000000
10
7.9010159717
20
20.8827920662
30
0.0000000000
10
7.9170057011
20
20.9825576576
30
0.0000000000
10
7.9455952423
20
21.0814371367
30
0.0000000000
10
7.9866333273
20
21.1790277083
30
0.0000000000
10
8.0399198108
20
21.2749526779
30
0.0000000000
10
8.1052155907
20
21.3688577762
30
0.0000000000
10
8.1822472935
20
21.4604051696
30
0.0000000000
10
8.2707078325
20
21.5492684687
30
0.0000000000
10
8.3702552091
20
21.6351301159
30
0.0000000000
10
8.4805105979
20
21.7176806147
30
0.0000000000
10
8.6010590520
20
21.7966200331
30
0.0000000000
10
8.7314428522
20
21.8716563998
30
0.0000000000
10
8.8227784315
20
21.9179715397
30
0.0000000000
10
8.8699082571
20
21.9404666746
30
0.0000000000
11
8.0835185007
21
20.2727568072
31
0.0000000000
11
8.0702590467
21
20.2918875395
31
0.0000000000
11
8.0116232167
21
20.3878913401
31
0.0000000000
11
7.9651074108
21
20.4853536593
31
0.0000000000
11
7.9308888176
21
20.5839043723
31
0.0000000000
11
7.9090979927
21
20.6831690935
31
0.0000000000
11
7.8998182904
21
20.7827707076
31
0.0000000000
11
7.9030855504
21
20.8823308168
31
0.0000000000
11
7.9188879462
21
20.9814710587
31
0.0000000000
11
7.9471659933
21
21.0798146212
31
0.0000000000
11
7.9878127839
21
21.1769877265
31
0.0000000000
11
8.0406743515
21
21.2726209570
31
0.0000000000
11
8.1055502204
21
21.3663506764
31
0.0000000000
11
8.1821942145
21
21.4578205097
31
0.0000000000
11
8.2703153571
21
21.5466826409
31
0.0000000000
11
8.3695788824
21
21.6325990748
31
0.0000000000
11
8.4796076348
21
21.7152430676
31
0.0000000000
11
8.5999835071
21
21.7943003471
31
0.0000000000
11
8.7302488102
21
21.8694701759
31
0.0000000000
11
8.8699082571
21
21.9404666746
31
0.0000000000
0
SPLINE
5
361
100
AcDbEntity
8
0
100
AcDbSpline
62
9
6
CONTINUOUS
70
0
71
3
72
25
73
21
74
19
42
0.0000001000
43
0.0000001000
44
0.0000000001
12
0.9805003859
22
0.4902423243
32
0.0000000000
13
1.0206651721
23
-0.3999514344
33
0.0000000000
40
0.0000000000
40
0.0000000000
40
0.0000000000
40
0.0000000000
40
0.0486159936
40
0.0993722266
40
0.1520748349
40
0.2065079021
40
0.2624326998
40
0.3195922882
40
0.3777135757
40
0.4365142592
40
0.4957056498
40
0.5549977874
40
0.6141011718
40
0.6727315420
40
0.7306113606
40
0.7874746053
40
0.8430698023
40
0.8971631016
40
0.9495383397
40
1.0000000000
40
1.0000000000
40
1.0000000000
40
1.0000000000
10
-2.5325681297
20
21.4322322517
30
0.0000000000
10
-2.5166787962
20
21.4401767909
30
0.0000000000
10
-2.4836646023
20
21.4553605390
30
0.0000000000
10
-2.4318896524
20
21.4756169831
30
0.0000000000
10
-2.3770861011
20
21.4937370479
30
0.0000000000
10
-2.3196285436
20
21.5095996641
30
0.0000000000
10
-2.2599021127
20
21.5231032945
30
0.0000000000
10
-2.1983069419
20
21.5341627671
30
0.0000000000
10
-2.1352536735
20
21.5427104014
30
0.0000000000
10
-2.0711608731
20
21.5486960771
30
0.0000000000
10
-2.0064505963
20
21.5520874477
30
0.0000000000
10
-1.9415458062
20
21.5528696961
30
0.0000000000
10
-1.8768669677
20
21.5510452388
30
0.0000000000
10
-1.8128299546
20
21.5466332978
30
0.0000000000
10
-1.7498429213
20
21.5396693690
30
0.0000000000
10
-1.6883038198
20
21.5302045573
30
0.0000000000
10
-1.6285979683
20
21.5183047322
30
0.0000000000
10
-1.5710961577
20
21.5040496186
30
0.0000000000
10
-1.5161583319
20
21.4875335262
30
0.0000000000
10
-1.4807676489
20
21.4748349259
30
0.0000000000
10
-1.4635994958
20
21.4681075214
30
0.0000000000
11
-2.5325681297
21
21.4322322517
31
0.0000000000
11
-2.4841799152
21
21.4545674325
31
0.0000000000
11
-2.4323870109
21
21.4748986054
31
0.0000000000
11
-2.3775499969
21
21.4930852262
31
0.0000000000
11
-2.3200422539
21
21.5090069732
31
0.0000000000
11
-2.2602529092
21
21.5225608931
31
0.0000000000
11
-2.1985839983
21
21.5336614583
31
0.0000000000
11
-2.1354499477
21
21.5422403807
31
0.0000000000
11
-2.0712714316
21
21.5482474123
31
0.0000000000
11
-2.0064733786
21
21.5516501035
31
0.0000000000
11
-1.9414803275
21
21.5524337078
31
0.0000000000
11
-1.8767154023
21
21.5506007418
31
0.0000000000
11
-1.8125959393
21
21.5461705768
31
0.0000000000
11
-1.7495327730
21
21.5391789836
31
0.0000000000
11
-1.6879260257
21
21.5296774152
31
0.0000000000
11
-1.6281630475
21
21.5177321539
31
0.0000000000
11
-1.5706166159
21
21.5034234552
31
0.0000000000
11
-1.5156467267
21
21.4868456327
31
0.0000000000
11
-1.4635994958
21
21.4681075214
31
0.0000000000
0
SPLINE
5
362
100
AcDbEntity
8
0
100
AcDbSpline
62
0
6
CONTINUOUS
70
0
71
3
72
20
73
16
74
14
42
0.0000001000
43
0.0000001000
44
0.0000000001
12
-0.0000729198
22
1.3092990519
32
0.0000000000
13
1.1661523550
23
0.5933426289
33
0.0000000000
40
0.0000000000
40
0.0000000000
40
0.0000000000
40
0.0000000000
40
0.0121579206
40
0.0793381828
40
0.1474699993
40
0.2173091616
40
0.2895314228
40
0.3647117810
40
0.4433153555
40
0.5256974749
40
0.6121097639
40
0.7027093542
40
0.7975691664
40
0.8966880268
40
1.0000000000
40
1.0000000000
40
1.0000000000
40
1.0000000000
10
8.4753335038
20
19.9545606182
30
0.0000000000
10
8.4753332082
20
19.9598667362
30
0.0000000000
10
8.4757323406
20
19.9944924042
30
0.0000000000
10
8.4813539085
20
20.0587386666
30
0.0000000000
10
8.5003381257
20
20.1464100941
30
0.0000000000
10
8.5304815790
20
20.2332102646
30
0.0000000000
10
8.5716205895
20
20.3187724321
30
0.0000000000
10
8.6235504523
20
20.4027523228
30
0.0000000000
10
8.6860320439
20
20.4848232345
30
0.0000000000
10
8.7587939000
20
20.5646708923
30
0.0000000000
10
8.8415317659
20
20.6419901786
30
0.0000000000
10
8.9339068764
20
20.7164837281
30
0.0000000000
10
9.0355464825
20
20.7878630399
30
0.0000000000
10
9.1460373899
20
20.8558466174
30
0.0000000000
10
9.2237350240
20
20.8978777240
30
0.0000000000
10
9.2638941909
20
20.9183108566
30
0.0000000000
11
8.4753335038
21
19.9545606182
31
0.0000000000
11
8.4755171844
21
19.9704774873
31
0.0000000000
11
8.4831326749
21
20.0580470691
31
0.0000000000
11
8.5018916412
21
20.1451961130
31
0.0000000000
11
8.5317178526
21
20.2315704718
31
0.0000000000
11
8.5724901045
21
20.3168191459
31
0.0000000000
11
8.6240427105
21
20.4005957104
31
0.0000000000
11
8.6861661765
21
20.4825597227
31
0.0000000000
11
8.7586080514
21
20.5623781057
31
0.0000000000
11
8.8410739533
21
20.6397265014
31
0.0000000000
11
8.9332287655
21
20.7142905894
31
0.0000000000
11
9.0346979987
21
20.7857673636
31
0.0000000000
11
9.1450693124
21
20.8538663639
31
0.0000000000
11
9.2638941909
21
20.9183108566
31
0.0000000000
0
SPLINE
5
363
100
AcDbEntity
8
0
100
AcDbSpline
62
9
6
CONTINUOUS
70
0
71
3
72
26
73
22
74
20
42
0.0000001000
43
0.0000001000
44
0.0000000001
12
0.5615104754
22
0.2085706889
32
0.0000000000
13
-0.4381901019
23
-0.4088862111
33
0.0000000000
40
0.0000000000
40
0.0000000000
40
0.0000000000
40
0.0000000000
40
0.0377573488
40
0.0756977201
40
0.1140731065
40
0.1527760662
40
0.1917232622
40
0.2312908615
40
0.2722801515
40
0.3155014985
40
0.3615401668
40
0.4107829529
40
0.4635783906
40
0.5207341799
40
0.5837348794
40
0.6526510617
40
0.7256294197
40
0.8022606322
40
0.8814278352
40
0.9644966576
40
1.0000000000
40
1.0000000000
40
1.0000000000
40
1.0000000000
10
18.8032819631
20
13.4375069690
30
0.0000000000
10
18.8103490121
20
13.4401319945
30
0.0000000000
10
18.8247430859
20
13.4448147554
30
0.0000000000
10
18.8470061283
20
13.4497996404
30
0.0000000000
10
18.8698837805
20
13.4523387125
30
0.0000000000
10
18.8931129449
20
13.4520341337
30
0.0000000000
10
18.9163369804
20
13.4485874751
30
0.0000000000
10
18.9392954418
20
13.4418018367
30
0.0000000000
10
18.9618387982
20
13.4314708027
30
0.0000000000
10
18.9837740342
20
13.4173375685
30
0.0000000000
10
19.0047339432
20
13.3991554967
30
0.0000000000
10
19.0241601569
20
13.3767337194
30
0.0000000000
10
19.0413482755
20
13.3498592900
30
0.0000000000
10
19.0553783380
20
13.3181479123
30
0.0000000000
10
19.0647310669
20
13.2813684369
30
0.0000000000
10
19.0672187945
20
13.2402602554
30
0.0000000000
10
19.0608680290
20
13.1967698594
30
0.0000000000
10
19.0450013924
20
13.1536034250
30
0.0000000000
10
19.0202745981
20
13.1125344405
30
0.0000000000
10
18.9946495885
20
13.0823138469
30
0.0000000000
10
18.9777323861
20
13.0657232974
30
0.0000000000
10
18.9725466483
20
13.0608843550
30
0.0000000000
11
18.8032819631
21
13.4375069690
31
0.0000000000
11
18.8248026877
21
13.4444613826
31
0.0000000000
11
18.8469917548
21
13.4493727625
31
0.0000000000
11
18.8698435318
21
13.4518595518
31
0.0000000000
11
18.8930239216
21
13.4515181955
31
0.0000000000
11
18.9160978953
21
13.4480767869
31
0.0000000000
11
18.9388282115
21
13.4413639993
31
0.0000000000
11
18.9611585996
21
13.4311574152
31
0.0000000000
11
18.9829421604
21
13.4171667979
31
0.0000000000
11
19.0038009943
21
13.3991280122
31
0.0000000000
11
19.0231422709
21
13.3768582660
31
0.0000000000
11
19.0401968584
21
13.3502268311
31
0.0000000000
11
19.0540435680
21
13.3189158597
31
0.0000000000
11
19.0633154271
21
13.2823354746
31
0.0000000000
11
19.0657903317
21
13.2411292399
31
0.0000000000
11
19.0595398496
21
13.1978646993
31
0.0000000000
11
19.0438896173
21
13.1547133167
31
0.0000000000
11
19.0196712412
21
13.1139431899
31
0.0000000000
11
18.9877241209
21
13.0757957632
31
0.0000000000
11
18.9725466483
21
13.0608843550
31
0.0000000000
0
SPLINE
5
364
100
AcDbEntity
8
0
100
AcDbSpline
62
9
6
CONTINUOUS
70
0
71
3
72
8
73
4
74
2
42
0.0000001000
43
0.0000001000
44
0.0000000001
12
-0.0037891670
22
-0.0035357671
32
0.0000000000
13
-0.0038311808
23
-0.0034903425
33
0.0000000000
40
0.0000000000
40
0.0000000000
40
0.0000000000
40
0.0000000000
40
1.0000000000
40
1.0000000000
40
1.0000000000
40
1.0000000000
10
18.9725466483
20
13.0608843550
30
0.0000000000
10
18.9712835926
20
13.0597057660
30
0.0000000000
10
18.9700133990
20
13.0585348098
30
0.0000000000
10
18.9687363388
20
13.0573713623
30
0.0000000000
11
18.9725466483
21
13.0608843550
31
0.0000000000
11
18.9687363388
21
13.0573713623
31
0.0000000000
0
SPLINE
5
365
100
AcDbEntity
8
0
100
AcDbSpline
62
9
6
CONTINUOUS
70
0
71
3
72
8
73
4
74
2
42
0.0000001000
43
0.0000001000
44
0.0000000001
12
-0.0003098405
22
-0.0002822758
32
0.0000000000
13
-0.0003101095
23
-0.0002819813
33
0.0000000000
40
0.0000000000
40
0.0000000000
40
0.0000000000
40
0.0000000000
40
1.0000000000
40
1.0000000000
40
1.0000000000
40
1.0000000000
10
18.9687363388
20
13.0573713623
30
0.0000000000
10
18.9686330586
20
13.0572772704
30
0.0000000000
10
18.9685297335
20
13.0571832275
30
0.0000000000
10
18.9684263637
20
13.0570892338
30
0.0000000000
11
18.9687363388
21
13.0573713623
31
0.0000000000
11
18.9684263637
21
13.0570892338
31
0.0000000000
0
SPLINE
5
366
100
AcDbEntity
8
0
100
AcDbSpline
62
9
6
CONTINUOUS
70
0
71
3
72
8
73
4
74
2
42
0.0000001000
43
0.0000001000
44
0.0000000001
12
-0.0019841621
22
-0.0018041902
32
0.0000000000
13
-0.0019950456
23
-0.0017921949
33
0.0000000000
40
0.0000000000
40
0.0000000000
40
0.0000000000
40
0.0000000000
40
1.0000000000
40
1.0000000000
40
1.0000000000
40
1.0000000000
10
18.9684263637
20
13.0570892338
30
0.0000000000
10
18.9677649763
20
13.0564878371
30
0.0000000000
10
18.9671017562
20
13.0558884481
30
0.0000000000
10
18.9664367410
20
13.0552910498
30
0.0000000000
11
18.9684263637
21
13.0570892338
31
0.0000000000
11
18.9664367410
21
13.0552910498
31
0.0000000000
0
SPLINE
5
367
100
AcDbEntity
8
0
100
AcDbSpline
62
0
6
CONTINUOUS
70
0
71
3
72
52
73
48
74
46
42
0.0000001000
43
0.0000001000
44
0.0000000001
12
2.8079739238
22
2.2944628981
32
0.0000000000
13
-3.5426822608
23
-0.7737441094
33
0.0000000000
40
0.0000000000
40
0.0000000000
40
0.0000000000
40
0.0000000000
40
0.0616895185
40
0.1178710148
40
0.1690316542
40
0.2155920829
40
0.2579366134
40
0.2964161556
40
0.3313507892
40
0.3630320978
40
0.3917252254
40
0.4176706828
40
0.4410859176
40
0.4621666821
40
0.4810882973
40
0.4980069905
40
0.5130616315
40
0.5263774166
40
0.5380676546
40
0.5482415958
40
0.5570798856
40
0.5648565354
40
0.5718435743
40
0.5782612334
40
0.5842929554
40
0.5901021671
40
0.5958470460
40
0.6016968971
40
0.6078480649
40
0.6145013308
40
0.6218225630
40
0.6299699289
40
0.6391290884
40
0.6495006582
40
0.6612904863
40
0.6747075774
40
0.6899651128
40
0.7072832787
40
0.7268926923
40
0.7490378563
40
0.7739804592
40
0.8020025100
40
0.8334093639
40
0.8685327269
40
0.9077336730
40
0.9514058224
40
1.0000000000
40
1.0000000000
40
1.0000000000
40
1.0000000000
10
18.8032718569
20
13.4374986311
30
0.0000000000
10
18.8610127100
20
13.4846800682
30
0.0000000000
10
18.9708899908
20
13.5753821793
30
0.0000000000
10
19.1269670263
20
13.7072380755
30
0.0000000000
10
19.2675757462
20
13.8290457481
30
0.0000000000
10
19.3940309257
20
13.9416247896
30
0.0000000000
10
19.5075083030
20
14.0457048294
30
0.0000000000
10
19.6090781052
20
14.1419513652
30
0.0000000000
10
19.6997132872
20
14.2309701030
30
0.0000000000
10
19.7802969180
20
14.3133104215
30
0.0000000000
10
19.8516290359
20
14.3894680391
30
0.0000000000
10
19.9144330967
20
14.4598867442
30
0.0000000000
10
19.9693623198
20
14.5249591034
30
0.0000000000
10
20.0170064011
20
14.5850261083
30
0.0000000000
10
20.0578993336
20
14.6403758905
30
0.0000000000
10
20.0925294189
20
14.6912420497
30
0.0000000000
10
20.1213534995
20
14.7378039562
30
0.0000000000
10
20.1448142561
20
14.7801880773
30
0.0000000000
10
20.1633635976
20
14.8184779570
30
0.0000000000
10
20.1775186280
20
14.8528097313
30
0.0000000000
10
20.1878866232
20
14.8835117204
30
0.0000000000
10
20.1950888135
20
14.9111424382
30
0.0000000000
10
20.1996353040
20
14.9363656259
30
0.0000000000
10
20.2018570991
20
14.9597837906
30
0.0000000000
10
20.2019110049
20
14.9818876917
30
0.0000000000
10
20.1997952283
20
15.0030793405
30
0.0000000000
10
20.1953476468
20
15.0236908028
30
0.0000000000
10
20.1882267581
20
15.0439887172
30
0.0000000000
10
20.1779015938
20
15.0641181865
30
0.0000000000
10
20.1637200878
20
15.0839933375
30
0.0000000000
10
20.1450600311
20
15.1032810711
30
0.0000000000
10
20.1214263917
20
15.1215380873
30
0.0000000000
10
20.0924066704
20
15.1383589715
30
0.0000000000
10
20.0575899833
20
15.1534156166
30
0.0000000000
10
20.0165360089
20
15.1664292227
30
0.0000000000
10
19.9687606609
20
15.1771431983
30
0.0000000000
10
19.9137275029
20
15.1853044741
30
0.0000000000
10
19.8508419432
20
15.1906510526
30
0.0000000000
10
19.7794456493
20
15.1929035750
30
0.0000000000
10
19.6988107378
20
15.1917590923
30
0.0000000000
10
19.6081336500
20
15.1868860265
30
0.0000000000
10
19.5065286430
20
15.1779197671
30
0.0000000000
10
19.3930207795
20
15.1644585688
30
0.0000000000
10
19.2665384070
20
15.1460595674
30
0.0000000000
10
19.1259046906
20
15.1222346653
30
0.0000000000
10
18.9698039807
20
15.0924417569
30
0.0000000000
10
18.8606564514
20
15.0695031438
30
0.0000000000
10
18.8032718744
20
15.0569699909
30
0.0000000000
11
18.8032718569
21
13.4374986311
31
0.0000000000
11
18.9757396260
21
13.5799616640
31
0.0000000000
11
19.1313167373
21
13.7114896951
31
0.0000000000
11
19.2714895016
21
13.8330160716
31
0.0000000000
11
19.3975444836
21
13.9453375398
31
0.0000000000
11
19.5106540866
21
14.0491819019
31
0.0000000000
11
19.6118855896
21
14.1452131029
31
0.0000000000
11
19.7022091845
21
14.2340354138
31
0.0000000000
11
19.7825054117
21
14.3161969356
31
0.0000000000
11
19.8535719826
21
14.3921922282
31
0.0000000000
11
19.9161302216
21
14.4624640096
31
0.0000000000
11
19.9708314068
21
14.5274038058
31
0.0000000000
11
20.0182634585
21
14.5873514612
31
0.0000000000
11
20.0589587420
21
14.6425936295
31
0.0000000000
11
20.0934040592
21
14.6933617101
31
0.0000000000
11
20.1220542403
21
14.7398305006
31
0.0000000000
11
20.1453524084
21
14.7821234730
31
0.0000000000
11
20.1637491185
21
14.8203146137
31
0.0000000000
11
20.1777314644
21
14.8544549653
31
0.0000000000
11
20.1879125734
21
14.8848442011
31
0.0000000000
11
20.1949590263
21
14.9121492724
31
0.0000000000
11
20.1993921078
21
14.9370947849
31
0.0000000000
11
20.2015328078
21
14.9602677894
31
0.0000000000
11
20.2015329293
21
14.9821399789
31
0.0000000000
11
20.1993924861
21
15.0030962762
31
0.0000000000
11
20.1949596920
21
15.0234512331
31
0.0000000000
11
20.1879135814
21
15.0434594955
31
0.0000000000
11
20.1777328694
21
15.0633059198
31
0.0000000000
11
20.1637508995
21
15.0829672964
31
0.0000000000
11
20.1453545077
21
15.1021083481
31
0.0000000000
11
20.1220566025
21
15.1202756538
31
0.0000000000
11
20.0934065943
21
15.1370766244
31
0.0000000000
11
20.0589613561
21
15.1521758374
31
0.0000000000
11
20.0182660549
21
15.1652770833
31
0.0000000000
11
19.9708338946
21
15.1761076515
31
0.0000000000
11
19.9161325195
21
15.1844029087
31
0.0000000000
11
19.8535740221
21
15.1898938875
31
0.0000000000
11
19.7825071410
21
15.1922976964
31
0.0000000000
11
19.7022105696
21
15.1913101036
31
0.0000000000
11
19.6118866160
21
15.1865996204
31
0.0000000000
11
19.5106547609
21
15.1778025287
31
0.0000000000
11
19.3975448357
21
15.1645184452
31
0.0000000000
11
19.2714895861
21
15.1463061253
31
0.0000000000
11
19.1313166377
21
15.1226793241
31
0.0000000000
11
18.9757394552
21
15.0931025240
31
0.0000000000
11
18.8032718744
21
15.0569699909
31
0.0000000000
0
SPLINE
5
368
100
AcDbEntity
8
0
100
AcDbSpline
62
9
6
CONTINUOUS
70
0
71
3
72
26
73
22
74
20
42
0.0000001000
43
0.0000001000
44
0.0000000001
12
0.5182266527
22
-1.6358408153
32
0.0000000000
13
-1.2094090282
23
-1.2168669022
33
0.0000000000
40
0.0000000000
40
0.0000000000
40
0.0000000000
40
0.0000000000
40
0.0440734084
40
0.1241445508
40
0.2083551273
40
0.2952771738
40
0.3822849410
40
0.4655367228
40
0.5404970256
40
0.6066964934
40
0.6657921634
40
0.7187710587
40
0.7661151560
40
0.8082608078
40
0.8457712780
40
0.8793250672
40
0.9094940059
40
0.9365058989
40
0.9604062189
40
0.9814093742
40
1.0000000000
40
1.0000000000
40
1.0000000000
40
1.0000000000
10
18.9664827928
20
16.7087643080
30
0.0000000000
10
18.9740961311
20
16.6847319479
30
0.0000000000
10
18.9942143488
20
16.6166173966
30
0.0000000000
10
19.0218645507
20
16.5006255219
30
0.0000000000
10
19.0459129350
20
16.3588894723
30
0.0000000000
10
19.0611704031
20
16.2119533424
30
0.0000000000
10
19.0672171651
20
16.0649083274
30
0.0000000000
10
19.0646994820
20
15.9246171734
30
0.0000000000
10
19.0554112292
20
15.7965590359
30
0.0000000000
10
19.0414573157
20
15.6828463676
30
0.0000000000
10
19.0243466912
20
15.5823052281
30
0.0000000000
10
19.0050103545
20
15.4931795231
30
0.0000000000
10
18.9841630705
20
15.4143877430
30
0.0000000000
10
18.9623691988
20
15.3450778819
30
0.0000000000
10
18.9400004601
20
15.2842943182
30
0.0000000000
10
18.9172462467
20
15.2310305743
30
0.0000000000
10
18.8942296417
20
15.1844924005
30
0.0000000000
10
18.8711545859
20
15.1442364983
30
0.0000000000
10
18.8483343098
20
15.1099798542
30
0.0000000000
10
18.8260332884
20
15.0812835329
30
0.0000000000
10
18.8107766495
20
15.0645128901
30
0.0000000000
10
18.8032820926
20
15.0569721177
30
0.0000000000
11
18.9664827928
21
16.7087643080
31
0.0000000000
11
18.9879215464
21
16.6362426531
31
0.0000000000
11
19.0198722222
21
16.5026362935
31
0.0000000000
11
19.0441355924
21
16.3602128824
31
0.0000000000
11
19.0596191617
21
16.2118915625
31
0.0000000000
11
19.0658035526
21
16.0627453492
31
0.0000000000
11
19.0632509650
21
15.9199377178
31
0.0000000000
11
19.0539224560
21
15.7916712766
31
0.0000000000
11
19.0400424834
21
15.6789478658
31
0.0000000000
11
19.0229708274
21
15.5790083228
31
0.0000000000
11
19.0036264517
21
15.4901977304
31
0.0000000000
11
18.9827692941
21
15.4116956171
31
0.0000000000
11
18.9609944177
21
15.3427452785
31
0.0000000000
11
18.9386804472
21
15.2823830035
31
0.0000000000
11
18.9159748399
21
15.2294836471
31
0.0000000000
11
18.8929365907
21
15.1831344246
31
0.0000000000
11
18.8698000026
21
15.1429803046
31
0.0000000000
11
18.8469836211
21
15.1089101211
31
0.0000000000
11
18.8248060195
21
15.0805094340
31
0.0000000000
11
18.8032820926
21
15.0569721177
31
0.0000000000
0
SPLINE
5
369
100
AcDbEntity
8
0
100
AcDbSpline
62
9
6
CONTINUOUS
70
0
71
3
72
18
73
14
74
12
42
0.0000001000
43
0.0000001000
44
0.0000000001
12
0.3421819379
22
0.1701299167
32
0.0000000000
13
0.1978664154
23
-0.3095906505
33
0.0000000000
40
0.0000000000
40
0.0000000000
40
0.0000000000
40
0.0000000000
40
0.1612065774
40
0.3104715131
40
0.4468244645
40
0.5693897844
40
0.6773973839
40
0.7701972756
40
0.8472833076
40
0.9083419999
40
0.9533820448
40
0.9831967870
40
1.0000000000
40
1.0000000000
40
1.0000000000
40
1.0000000000
10
18.2715771820
20
20.3116403306
30
0.0000000000
10
18.2899645084
20
20.3207823511
30
0.0000000000
10
18.3254677002
20
20.3382079581
30
0.0000000000
10
18.3768652271
20
20.3626621337
30
0.0000000000
10
18.4241346088
20
20.3843244653
30
0.0000000000
10
18.4669594496
20
20.4030571622
30
0.0000000000
10
18.5050547961
20
20.4187319393
30
0.0000000000
10
18.5381640797
20
20.4312838968
30
0.0000000000
10
18.5660801670
20
20.4405660071
30
0.0000000000
10
18.5886101482
20
20.4467858304
30
0.0000000000
10
18.6057494868
20
20.4494173729
30
0.0000000000
10
18.6174698851
20
20.4498913080
30
0.0000000000
10
18.6232935799
20
20.4464608878
30
0.0000000000
10
18.6244018437
20
20.4447268486
30
0.0000000000
11
18.2715771820
21
20.3116403306
31
0.0000000000
11
18.3268898369
21
20.3387612266
31
0.0000000000
11
18.3784109958
21
20.3632394021
31
0.0000000000
11
18.4257964903
21
20.3849113393
31
0.0000000000
11
18.4687297784
21
20.4036322667
31
0.0000000000
11
18.5069240598
21
20.4192771258
31
0.0000000000
11
18.5401241913
21
20.4317414067
31
0.0000000000
11
18.5681083913
21
20.4409418463
31
0.0000000000
11
18.5906897215
21
20.4468169844
31
0.0000000000
11
18.6077173353
21
20.4493275742
31
0.0000000000
11
18.6190774859
21
20.4484568446
31
0.0000000000
11
18.6244018437
21
20.4447268486
31
0.0000000000
0
SPLINE
5
36A
100
AcDbEntity
8
0
100
AcDbSpline
62
0
6
CONTINUOUS
70
0
71
3
72
18
73
14
74
12
42
0.0000001000
43
0.0000001000
44
0.0000000001
12
0.3459745596
22
0.1680568266
32
0.0000000000
13
0.3443637069
23
-0.1722285845
33
0.0000000000
40
0.0000000000
40
0.0000000000
40
0.0000000000
40
0.0000000000
40
0.1297946914
40
0.2520704309
40
0.3667499221
40
0.4738432021
40
0.5734632031
40
0.6658448809
40
0.7513682582
40
0.8305847233
40
0.9042435825
40
0.9733112212
40
1.0000000000
40
1.0000000000
40
1.0000000000
40
1.0000000000
10
17.9286796061
20
20.9030511662
30
0.0000000000
10
17.9436481598
20
20.9103221275
30
0.0000000000
10
17.9730230740
20
20.9238287168
30
0.0000000000
10
18.0166589240
20
20.9413995182
30
0.0000000000
10
18.0584243570
20
20.9556649857
30
0.0000000000
10
18.0981780047
20
20.9666148691
30
0.0000000000
10
18.1357917776
20
20.9742515862
30
0.0000000000
10
18.1711499704
20
20.9785883251
30
0.0000000000
10
18.2041496457
20
20.9796474749
30
0.0000000000
10
18.2346991752
20
20.9774582742
30
0.0000000000
10
18.2627145863
20
20.9720549088
30
0.0000000000
10
18.2833635313
20
20.9650814311
30
0.0000000000
10
18.2945270683
20
20.9599268415
30
0.0000000000
10
18.2975906173
20
20.9583946513
30
0.0000000000
11
17.9286796061
21
20.9030511662
31
0.0000000000
11
17.9740627187
21
20.9238524498
31
0.0000000000
11
18.0177150537
21
20.9413567250
31
0.0000000000
11
18.0594815380
21
20.9555410973
31
0.0000000000
11
18.0992170615
21
20.9663958110
31
0.0000000000
11
18.1367871775
21
20.9739243670
31
0.0000000000
11
18.1720687193
21
20.9781434775
31
0.0000000000
11
18.2049503000
21
20.9790828534
31
0.0000000000
11
18.2353326751
21
20.9767848343
31
0.0000000000
11
18.2631289792
21
20.9713038748
31
0.0000000000
11
18.2882647396
21
20.9627059343
31
0.0000000000
11
18.2975906173
21
20.9583946513
31
0.0000000000
0
SPLINE
5
36B
100
AcDbEntity
8
0
100
AcDbSpline
62
9
6
CONTINUOUS
70
0
71
3
72
19
73
15
74
13
42
0.0000001000
43
0.0000001000
44
0.0000000001
12
0.0043621578
22
1.5071270313
32
0.0000000000
13
-0.7596320570
23
1.3016950699
33
0.0000000000
40
0.0000000000
40
0.0000000000
40
0.0000000000
40
0.0000000000
40
0.0762817009
40
0.1544246992
40
0.2342915930
40
0.3157231579
40
0.3985441601
40
0.4825648517
40
0.5675828668
40
0.6533860756
40
0.7397553920
40
0.8264664344
40
0.9132904740
40
1.0000000000
40
1.0000000000
40
1.0000000000
40
1.0000000000
10
18.6857276577
20
18.8800067559
30
0.0000000000
10
18.6858385753
20
18.9183288271
30
0.0000000000
10
18.6839475272
20
18.9959277738
30
0.0000000000
10
18.6750614102
20
19.1133410475
30
0.0000000000
10
18.6601291523
20
19.2327477433
30
0.0000000000
10
18.6392151012
20
19.3536352552
30
0.0000000000
10
18.6124089289
20
19.4754898038
30
0.0000000000
10
18.5798252284
20
19.5977918764
30
0.0000000000
10
18.5416032081
20
19.7200200062
30
0.0000000000
10
18.4979060768
20
19.8416528181
30
0.0000000000
10
18.4489204000
20
19.9621714160
30
0.0000000000
10
18.3948549177
20
20.0810621079
30
0.0000000000
10
18.3359415935
20
20.1978154384
30
0.0000000000
10
18.2935329606
20
20.2740172097
30
0.0000000000
10
18.2715771820
20
20.3116403306
30
0.0000000000
11
18.6857276577
21
18.8800067559
31
0.0000000000
11
18.6830025996
21
18.9949411503
31
0.0000000000
11
18.6741824865
21
19.1123823287
31
0.0000000000
11
18.6593049699
21
19.2318294321
31
0.0000000000
11
18.6384338930
21
19.3527699786
31
0.0000000000
11
18.6116585658
21
19.4746867000
31
0.0000000000
11
18.5790934949
21
19.5970581459
31
0.0000000000
11
18.5408781492
21
19.7193601386
31
0.0000000000
11
18.4971762469
21
19.8410688008
31
0.0000000000
11
18.4481747190
21
19.9616635732
31
0.0000000000
11
18.3940831042
21
20.0806286664
31
0.0000000000
11
18.3351334712
21
20.1974536544
31
0.0000000000
11
18.2715771820
21
20.3116403306
31
0.0000000000
0
SPLINE
5
36C
100
AcDbEntity
8
0
100
AcDbSpline
62
9
6
CONTINUOUS
70
0
71
3
72
17
73
13
74
11
42
0.0000001000
43
0.0000001000
44
0.0000000001
12
0.4163435503
22
0.2155681837
32
0.0000000000
13
-0.0000278342
23
0.4693695292
33
0.0000000000
40
0.0000000000
40
0.0000000000
40
0.0000000000
40
0.0000000000
40
0.1329189116
40
0.2587863602
40
0.3775375991
40
0.4893034249
40
0.5944452287
40
0.6935904860
40
0.7876608200
40
0.8778788512
40
0.9657362157
40
1.0000000000
40
1.0000000000
40
1.0000000000
40
1.0000000000
10
18.6857276577
20
18.8800067559
30
0.0000000000
10
18.7041743015
20
18.8895577854
30
0.0000000000
10
18.7395010525
20
18.9093264759
30
0.0000000000
10
18.7887703045
20
18.9418924536
30
0.0000000000
10
18.8325945147
20
18.9763810879
30
0.0000000000
10
18.8706805424
20
19.0125770929
30
0.0000000000
10
18.9027709686
20
19.0502608068
30
0.0000000000
10
18.9286361501
20
19.0892051149
30
0.0000000000
10
18.9480721527
20
19.1291707046
30
0.0000000000
10
18.9609021806
20
19.1698953071
30
0.0000000000
10
18.9657752551
20
19.2028670493
30
0.0000000000
10
18.9663866309
20
19.2219734544
30
0.0000000000
10
18.9663863130
20
19.2273342465
30
0.0000000000
11
18.6857276577
21
18.8800067559
31
0.0000000000
11
18.7400534919
21
18.9105388903
31
0.0000000000
11
18.7892111305
21
18.9431872736
31
0.0000000000
11
18.8328721935
21
18.9777338102
31
0.0000000000
11
18.8707450188
21
19.0139477242
31
0.0000000000
11
18.9025766105
21
19.0515871016
31
0.0000000000
11
18.9281543292
21
19.0904005061
31
0.0000000000
11
18.9473073121
21
19.1301286585
31
0.0000000000
11
18.9599076146
21
19.1705061693
31
0.0000000000
11
18.9658710649
21
19.2112633110
31
0.0000000000
11
18.9663863130
21
19.2273342465
31
0.0000000000
0
SPLINE
5
36D
100
AcDbEntity
8
0
100
AcDbSpline
62
9
6
CONTINUOUS
70
0
71
3
72
26
73
22
74
20
42
0.0000001000
43
0.0000001000
44
0.0000000001
12
-0.0005214195
22
-1.0221635251
32
0.0000000000
13
-1.0139448235
23
-0.1286179433
33
0.0000000000
40
0.0000000000
40
0.0000000000
40
0.0000000000
40
0.0000000000
40
0.0674257495
40
0.1907173538
40
0.2991261505
40
0.3953032211
40
0.4806040448
40
0.5558399368
40
0.6218785916
40
0.6798360493
40
0.7309293285
40
0.7759359066
40
0.8150785403
40
0.8486716191
40
0.8773326122
40
0.9024372078
40
0.9250137747
40
0.9455672582
40
0.9645586701
40
0.9825132573
40
1.0000000000
40
1.0000000000
40
1.0000000000
40
1.0000000000
10
18.9663880635
20
16.0065611022
30
0.0000000000
10
18.9663763444
20
15.9835877216
30
0.0000000000
10
18.9656034814
20
15.9186069488
30
0.0000000000
10
18.9610992126
20
15.8167667275
30
0.0000000000
10
18.9516021217
20
15.7054374114
30
0.0000000000
10
18.9393808722
20
15.6074104382
30
0.0000000000
10
18.9252226801
20
15.5210820451
30
0.0000000000
10
18.9097404612
20
15.4454375506
30
0.0000000000
10
18.8933961621
20
15.3795373353
30
0.0000000000
10
18.8764776244
20
15.3223134652
30
0.0000000000
10
18.8591394913
20
15.2727491787
30
0.0000000000
10
18.8415222398
20
15.2301450573
30
0.0000000000
10
18.8238457107
20
15.1941013376
30
0.0000000000
10
18.8063888323
20
15.1642511910
30
0.0000000000
10
18.7892596136
20
15.1398655370
30
0.0000000000
10
18.7723450156
20
15.1200507947
30
0.0000000000
10
18.7553979516
20
15.1040628728
30
0.0000000000
10
18.7382887589
20
15.0915045340
30
0.0000000000
10
18.7210048284
20
15.0821422567
30
0.0000000000
10
18.7035215220
20
15.0757667316
30
0.0000000000
10
18.6916378551
20
15.0733501743
30
0.0000000000
10
18.6857276577
20
15.0726004714
30
0.0000000000
11
18.9663880635
21
16.0065611022
31
0.0000000000
11
18.9655675237
21
15.9376475964
31
0.0000000000
11
18.9599627123
21
15.8117596784
31
0.0000000000
11
18.9504899314
21
15.7013639936
31
0.0000000000
11
18.9382600857
21
15.6038280624
31
0.0000000000
11
18.9240702174
21
15.5178071802
31
0.0000000000
11
18.9085628800
21
15.4424907241
31
0.0000000000
11
18.8922200074
21
15.3770030457
31
0.0000000000
11
18.8753241140
21
15.3202271732
31
0.0000000000
11
18.8579730937
21
15.2709730946
31
0.0000000000
11
18.8402802038
21
15.2285119457
31
0.0000000000
11
18.8225484002
21
15.1926496605
31
0.0000000000
11
18.8051061898
21
15.1630755972
31
0.0000000000
11
18.7881729261
21
15.1391721287
31
0.0000000000
11
18.7714306408
21
15.1197283082
31
0.0000000000
11
18.7545758108
21
15.1039687918
31
0.0000000000
11
18.7375895759
21
15.0916089432
31
0.0000000000
11
18.7204920830
21
15.0824195400
31
0.0000000000
11
18.7032428733
21
15.0761571005
31
0.0000000000
11
18.6857276577
21
15.0726004714
31
0.0000000000
0
SPLINE
5
36E
100
AcDbEntity
8
0
100
AcDbSpline
62
9
6
CONTINUOUS
70
0
71
3
72
26
73
22
74
20
42
0.0000001000
43
0.0000001000
44
0.0000000001
12
0.3680106483
22
0.3344051646
32
0.0000000000
13
0.0090292676
23
-0.4974139743
33
0.0000000000
40
0.0000000000
40
0.0000000000
40
0.0000000000
40
0.0000000000
40
0.0464085793
40
0.0898417214
40
0.1306577763
40
0.1690984428
40
0.2053893081
40
0.2400008508
40
0.2741693198
40
0.3094538645
40
0.3467273260
40
0.3869060920
40
0.4309932216
40
0.4803907825
40
0.5366838310
40
0.6011859714
40
0.6748425125
40
0.7583964693
40
0.8529138205
40
0.9606697477
40
1.0000000000
40
1.0000000000
40
1.0000000000
40
1.0000000000
10
18.6857276577
20
13.3001473372
30
0.0000000000
10
18.6914206081
20
13.3053204268
30
0.0000000000
10
18.7027010797
20
13.3150557700
30
0.0000000000
10
18.7199509907
20
13.3281762993
30
0.0000000000
10
18.7370431751
20
13.3392382227
30
0.0000000000
10
18.7540382421
20
13.3481383849
30
0.0000000000
10
18.7709698616
20
13.3547266796
30
0.0000000000
10
18.7879510801
20
13.3588517602
30
0.0000000000
10
18.8052204302
20
13.3602814543
30
0.0000000000
10
18.8229328654
20
13.3585707484
30
0.0000000000
10
18.8409495852
20
13.3531770814
30
0.0000000000
10
18.8588796549
20
13.3437378641
30
0.0000000000
10
18.8764323729
20
13.3300533370
30
0.0000000000
10
18.8934702209
20
13.3118792655
30
0.0000000000
10
18.9098669314
20
13.2888335895
30
0.0000000000
10
18.9253599245
20
13.2604954180
30
0.0000000000
10
18.9395057673
20
13.2265100123
30
0.0000000000
10
18.9517016307
20
13.1865412439
30
0.0000000000
10
18.9611676216
20
13.1400472656
30
0.0000000000
10
18.9653010951
20
13.1001475520
30
0.0000000000
10
18.9661796776
20
13.0757682318
30
0.0000000000
10
18.9662980520
20
13.0692470928
30
0.0000000000
11
18.6857276577
21
13.3001473372
31
0.0000000000
11
18.7032296391
21
13.3151877996
31
0.0000000000
11
18.7204597062
21
13.3282094302
31
0.0000000000
11
18.7375374335
21
13.3391762830
31
0.0000000000
11
18.7545079948
21
13.3479723282
31
0.0000000000
11
18.7713556234
21
13.3544379070
31
0.0000000000
11
18.7880981335
21
13.3584246417
31
0.0000000000
11
18.8050354309
21
13.3597657398
31
0.0000000000
11
18.8224972783
21
13.3580567402
31
0.0000000000
11
18.8402648736
21
13.3527811638
31
0.0000000000
11
18.8579926337
21
13.3435678919
31
0.0000000000
11
18.8753697837
21
13.3302028211
31
0.0000000000
11
18.8922838280
21
13.3123911495
31
0.0000000000
11
18.9086388205
21
13.2896743282
31
0.0000000000
11
18.9241525540
21
13.2616020973
31
0.0000000000
11
18.9383444248
21
13.2278376231
31
0.0000000000
11
18.9505694301
21
13.1881296001
31
0.0000000000
11
18.9600221236
21
13.1420911479
31
0.0000000000
11
18.9655927121
21
13.0887997530
31
0.0000000000
11
18.9662980520
21
13.0692470928
31
0.0000000000
0
SPLINE
5
36F
100
AcDbEntity
8
0
100
AcDbSpline
62
9
6
CONTINUOUS
70
0
71
3
72
8
73
4
74
2
42
0.0000001000
43
0.0000001000
44
0.0000000001
12
0.0001688661
22
-0.0093026770
32
0.0000000000
13
0.0000109162
23
-0.0093043370
33
0.0000000000
40
0.0000000000
40
0.0000000000
40
0.0000000000
40
0.0000000000
40
1.0000000000
40
1.0000000000
40
1.0000000000
40
1.0000000000
10
18.9662980520
20
13.0692470928
30
0.0000000000
10
18.9663543407
20
13.0661462005
30
0.0000000000
10
18.9663842748
20
13.0630448091
30
0.0000000000
10
18.9663879135
20
13.0599433634
30
0.0000000000
11
18.9662980520
21
13.0692470928
31
0.0000000000
11
18.9663879135
21
13.0599433634
31
0.0000000000
0
SPLINE
5
370
100
AcDbEntity
8
0
100
AcDbSpline
62
9
6
CONTINUOUS
70
0
71
3
72
17
73
13
74
11
42
0.0000001000
43
0.0000001000
44
0.0000000001
12
0.4128699715
22
0.2137696856
32
0.0000000000
13
0.0072514721
23
0.4653911981
33
0.0000000000
40
0.0000000000
40
0.0000000000
40
0.0000000000
40
0.0000000000
40
0.1335941851
40
0.2601262477
40
0.3795306310
40
0.4919360729
40
0.5977003374
40
0.6974454374
40
0.7920856724
40
0.8828349910
40
0.9711763247
40
1.0000000000
40
1.0000000000
40
1.0000000000
40
1.0000000000
10
18.6857276577
20
-11.4650734899
30
0.0000000000
10
18.7041133335
20
-11.4555540276
30
0.0000000000
10
18.7393285896
20
-11.4358526436
30
0.0000000000
10
18.7884567399
20
-11.4034069144
30
0.0000000000
10
18.8321784757
20
-11.3690502975
30
0.0000000000
10
18.8702033415
20
-11.3329959511
30
0.0000000000
10
18.9022762050
20
-11.2954613819
30
0.0000000000
10
18.9281694594
20
-11.2566714308
30
0.0000000000
10
18.9476809983
20
-11.2168628046
30
0.0000000000
10
18.9606354619
20
-11.1762944989
30
0.0000000000
10
18.9655166268
20
-11.1443029304
30
0.0000000000
10
18.9662861514
20
-11.1261349618
30
0.0000000000
10
18.9663558227
20
-11.1216635336
30
0.0000000000
11
18.6857276577
21
-11.4650734899
31
0.0000000000
11
18.7398775717
21
-11.4346487310
31
0.0000000000
11
18.7888954765
21
-11.4021213503
31
0.0000000000
11
18.8324561445
21
-11.3677071629
31
0.0000000000
11
18.8702705560
21
-11.3316345026
31
0.0000000000
11
18.9020878169
21
-11.2941427072
31
0.0000000000
11
18.9276968237
21
-11.2554805301
31
0.0000000000
11
18.9469276638
21
-11.2159044900
31
0.0000000000
11
18.9596527429
21
-11.1756771692
31
0.0000000000
11
18.9657876316
21
-11.1350654710
31
0.0000000000
11
18.9663558227
21
-11.1216635336
31
0.0000000000
0
SPLINE
5
371
100
AcDbEntity
8
0
100
AcDbSpline
62
9
6
CONTINUOUS
70
0
71
3
72
8
73
4
74
2
42
0.0000001000
43
0.0000001000
44
0.0000000001
12
0.0000610446
22
0.0039177744
32
0.0000000000
13
-0.0000001663
23
0.0039182795
33
0.0000000000
40
0.0000000000
40
0.0000000000
40
0.0000000000
40
0.0000000000
40
1.0000000000
40
1.0000000000
40
1.0000000000
40
1.0000000000
10
18.9663558227
20
-11.1216635336
30
0.0000000000
10
18.9663761709
20
-11.1203576087
30
0.0000000000
10
18.9663863141
20
-11.1190515184
30
0.0000000000
10
18.9663862586
20
-11.1177454253
30
0.0000000000
11
18.9663558227
21
-11.1216635336
31
0.0000000000
11
18.9663862586
21
-11.1177454253
31
0.0000000000
0
SPLINE
5
372
100
AcDbEntity
8
0
100
AcDbSpline
62
9
6
CONTINUOUS
70
0
71
3
72
9
73
5
74
3
42
0.0000001000
43
0.0000001000
44
0.0000000001
12
0.0776924171
22
0.0410062346
32
0.0000000000
13
0.0711542095
23
0.0515681931
33
0.0000000000
40
0.0000000000
40
0.0000000000
40
0.0000000000
40
0.0000000000
40
0.6190889221
40
1.0000000000
40
1.0000000000
40
1.0000000000
40
1.0000000000
10
18.2715771820
20
-12.4825565889
30
0.0000000000
10
18.2876100203
20
-12.4740944204
30
0.0000000000
10
18.3129268830
20
-12.4592904176
30
0.0000000000
10
18.3371102391
20
-12.4427420032
30
0.0000000000
10
18.3461447146
20
-12.4361943712
30
0.0000000000
11
18.2715771820
21
-12.4825565889
31
0.0000000000
11
18.3185223584
21
-12.4550958496
31
0.0000000000
11
18.3461447146
21
-12.4361943712
31
0.0000000000
0
SPLINE
5
373
100
AcDbEntity
8
0
100
AcDbSpline
62
9
6
CONTINUOUS
70
0
71
3
72
9
73
5
74
3
42
0.0000001000
43
0.0000001000
44
0.0000000001
12
0.0699950325
22
0.0506595091
32
0.0000000000
13
0.0640798488
23
0.0580279161
33
0.0000000000
40
0.0000000000
40
0.0000000000
40
0.0000000000
40
0.0000000000
40
0.9448939271
40
1.0000000000
40
1.0000000000
40
1.0000000000
40
1.0000000000
10
18.2715771820
20
-12.4825565889
30
0.0000000000
10
18.2936231424
20
-12.4666006347
30
0.0000000000
10
18.3160797332
20
-12.4484691015
30
0.0000000000
10
18.3374970786
20
-12.4291892272
30
0.0000000000
10
18.3386741416
20
-12.4281233304
30
0.0000000000
11
18.2715771820
21
-12.4825565889
31
0.0000000000
11
18.3351334712
21
-12.4313106164
31
0.0000000000
11
18.3386741416
21
-12.4281233304
31
0.0000000000
0
SPLINE
5
374
100
AcDbEntity
8
0
100
AcDbSpline
62
9
6
CONTINUOUS
70
0
71
3
72
18
73
14
74
12
42
0.0000001000
43
0.0000001000
44
0.0000000001
12
0.7812084705
22
0.7074283177
32
0.0000000000
13
-0.0030579805
23
1.0533643708
33
0.0000000000
40
0.0000000000
40
0.0000000000
40
0.0000000000
40
0.0000000000
40
0.0742437328
40
0.1547197810
40
0.2373042128
40
0.3223302176
40
0.4100633502
40
0.5007007547
40
0.5943739111
40
0.6911530636
40
0.7910513794
40
0.8940285524
40
1.0000000000
40
1.0000000000
40
1.0000000000
40
1.0000000000
10
18.3386741416
20
-12.4281233304
30
0.0000000000
10
18.3580074192
20
-12.4106159574
30
0.0000000000
10
18.3965187004
20
-12.3721870591
30
0.0000000000
10
18.4496957693
20
-12.3078702496
30
0.0000000000
10
18.4987392976
20
-12.2357338246
30
0.0000000000
10
18.5424378081
20
-12.1573203061
30
0.0000000000
10
18.5806135805
20
-12.0729722157
30
0.0000000000
10
18.6131133033
20
-11.9830534139
30
0.0000000000
10
18.6398066919
20
-11.8879489836
30
0.0000000000
10
18.6605869728
20
-11.7880643913
30
0.0000000000
10
18.6753710282
20
-11.6838233945
30
0.0000000000
10
18.6841000485
20
-11.5756724408
30
0.0000000000
10
18.6858356772
20
-11.5022823390
30
0.0000000000
10
18.6857276577
20
-11.4650734899
30
0.0000000000
11
18.3386741416
21
-12.4281233304
31
0.0000000000
11
18.3940831042
21
-12.3729279545
31
0.0000000000
11
18.4481747190
21
-12.3076576495
31
0.0000000000
11
18.4971762469
21
-12.2357797337
31
0.0000000000
11
18.5408781492
21
-12.1576016836
31
0.0000000000
11
18.5790934949
21
-12.0734578578
31
0.0000000000
11
18.6116585658
21
-11.9837086614
31
0.0000000000
11
18.6384338930
21
-11.8887385574
31
0.0000000000
11
18.6593049699
21
-11.7889537591
31
0.0000000000
11
18.6741824865
21
-11.6847809987
31
0.0000000000
11
18.6830025996
21
-11.5766672402
31
0.0000000000
11
18.6857276577
21
-11.4650734899
31
0.0000000000
0
SPLINE
5
375
100
AcDbEntity
8
0
100
AcDbSpline
62
9
6
CONTINUOUS
70
0
71
3
72
16
73
12
74
10
42
0.0000001000
43
0.0000001000
44
0.0000000001
12
-0.4035520321
22
0.2018036023
32
0.0000000000
13
-0.4066845390
23
-0.1946481669
33
0.0000000000
40
0.0000000000
40
0.0000000000
40
0.0000000000
40
0.0000000000
40
0.0179524839
40
0.1292323758
40
0.2419262945
40
0.3571674186
40
0.4759509126
40
0.5990963966
40
0.7272300812
40
0.8607829722
40
1.0000000000
40
1.0000000000
40
1.0000000000
40
1.0000000000
10
11.8370882099
20
24.1886463232
30
0.0000000000
10
11.8346732895
20
24.1898539485
30
0.0000000000
10
11.8171953983
20
24.1983591956
30
0.0000000000
10
11.7832620588
20
24.2117141153
30
0.0000000000
10
11.7336383364
20
24.2240079424
30
0.0000000000
10
11.6817443551
20
24.2300267107
30
0.0000000000
10
11.6279444764
20
24.2297479965
30
0.0000000000
10
11.5726060887
20
24.2231944255
30
0.0000000000
10
11.5160969845
20
24.2104279270
30
0.0000000000
10
11.4587932009
20
24.1915503593
30
0.0000000000
10
11.4210879247
20
24.1753160221
30
0.0000000000
10
11.4022154538
20
24.1662832423
30
0.0000000000
11
11.8370882099
21
24.1886463232
31
0.0000000000
11
11.8298048440
21
24.1921905204
31
0.0000000000
11
11.7831271820
21
24.2105877604
31
0.0000000000
11
11.7338225382
21
24.2228635304
31
0.0000000000
11
11.6822202745
21
24.2289358265
31
0.0000000000
11
11.6286651014
21
24.2287640848
31
0.0000000000
11
11.5735147750
21
24.2223494526
31
0.0000000000
11
11.5171377072
21
24.2097347805
31
0.0000000000
11
11.4599105049
21
24.1910043364
31
0.0000000000
11
11.4022154538
21
24.1662832423
31
0.0000000000
0
SPLINE
5
376
100
AcDbEntity
8
0
100
AcDbSpline
62
9
6
CONTINUOUS
70
0
71
3
72
43
73
39
74
37
42
0.0000001000
43
0.0000001000
44
0.0000000001
12
4.2552928214
22
-3.4425808826
32
0.0000000000
13
-4.5974354543
23
-2.9735249299
33
0.0000000000
40
0.0000000000
40
0.0000000000
40
0.0000000000
40
0.0000000000
40
0.0022985806
40
0.0325445077
40
0.0634583180
40
0.0949837642
40
0.1270584270
40
0.1596146311
40
0.1925801677
40
0.2258792338
40
0.2594329872
40
0.2931605269
40
0.3269793263
40
0.3608062542
40
0.3945579387
40
0.4281518169
40
0.4615064879
40
0.4945427719
40
0.5271841134
40
0.5593576343
40
0.5909946470
40
0.6220316964
40
0.6524112384
40
0.6820826797
40
0.7110032666
40
0.7391391426
40
0.7664664673
40
0.7929725007
40
0.8186569128
40
0.8435328373
40
0.8676281991
40
0.8909865085
40
0.9136677882
40
0.9357485884
40
0.9573217923
40
0.9784950964
40
0.9993889399
40
1.0000000000
40
1.0000000000
40
1.0000000000
40
1.0000000000
10
18.9664380903
20
18.4376475169
30
0.0000000000
10
18.9696984682
20
18.4350098337
30
0.0000000000
10
19.0157894559
20
18.3975763104
30
0.0000000000
10
19.1036992676
20
18.3221829448
30
0.0000000000
10
19.2267787984
20
18.2061593073
30
0.0000000000
10
19.3468233078
20
18.0823129541
30
0.0000000000
10
19.4633621268
20
17.9511304399
30
0.0000000000
10
19.5759379545
20
17.8131272372
30
0.0000000000
10
19.6841088561
20
17.6688456080
30
0.0000000000
10
19.7874498970
20
17.5188526978
30
0.0000000000
10
19.8855550870
20
17.3637380186
30
0.0000000000
10
19.9780387766
20
17.2041114801
30
0.0000000000
10
20.0645374807
20
17.0406005484
30
0.0000000000
10
20.1447110582
20
16.8738482358
30
0.0000000000
10
20.2182443484
20
16.7045100174
30
0.0000000000
10
20.2848481558
20
16.5332517763
30
0.0000000000
10
20.3442606377
20
16.3607465781
30
0.0000000000
10
20.3962481075
20
16.1876725505
30
0.0000000000
10
20.4406061237
20
16.0147096256
30
0.0000000000
10
20.4771601087
20
15.8425373319
30
0.0000000000
10
20.5057661037
20
15.6718316160
30
0.0000000000
10
20.5263111800
20
15.5032625354
30
0.0000000000
10
20.5387138398
20
15.3374912698
30
0.0000000000
10
20.5429241779
20
15.1751677337
30
0.0000000000
10
20.5389239235
20
15.0169278867
30
0.0000000000
10
20.5267263037
20
14.8633913402
30
0.0000000000
10
20.5063757510
20
14.7151590889
30
0.0000000000
10
20.4779474535
20
14.5728112672
30
0.0000000000
10
20.4415468354
20
14.4369054489
30
0.0000000000
10
20.3973089146
20
14.3079747771
30
0.0000000000
10
20.3453978605
20
14.1865269476
30
0.0000000000
10
20.2860065618
20
14.0730428292
30
0.0000000000
10
20.2193568390
20
13.9679759108
30
0.0000000000
10
20.1456998090
20
13.8717509339
30
0.0000000000
10
20.0653171186
20
13.7847627213
30
0.0000000000
10
19.9785218670
20
13.7073734377
30
0.0000000000
10
19.9154249018
20
13.6615337224
30
0.0000000000
10
19.8825010705
20
13.6401692359
30
0.0000000000
10
19.8815646341
20
13.6395635684
30
0.0000000000
11
18.9664380903
21
18.4376475169
31
0.0000000000
11
18.9762041524
21
18.4297159164
31
0.0000000000
11
19.1019156872
21
18.3220232316
31
0.0000000000
11
19.2250818412
21
18.2060288659
31
0.0000000000
11
19.3452170068
21
18.0821901473
31
0.0000000000
11
19.4618474890
21
17.9509953776
31
0.0000000000
11
19.5745135446
21
17.8129617072
31
0.0000000000
11
19.6827708391
21
17.6686335190
31
0.0000000000
11
19.7861927169
21
17.5185796258
31
0.0000000000
11
19.8843712304
21
17.3633919178
31
0.0000000000
11
19.9769195039
21
17.2036819149
31
0.0000000000
11
20.0634724355
21
17.0400796735
31
0.0000000000
11
20.1436889930
21
16.8732298106
31
0.0000000000
11
20.2172527026
21
16.7037905903
31
0.0000000000
11
20.2838737209
21
16.5324296086
31
0.0000000000
11
20.3432892124
21
16.3598229240
31
0.0000000000
11
20.3952650697
21
16.1866506386
31
0.0000000000
11
20.4395962496
21
16.0135959079
31
0.0000000000
11
20.4761080627
21
15.8413406701
31
0.0000000000
11
20.5046564889
21
15.6705643728
31
0.0000000000
11
20.5251290147
21
15.5019400828
31
0.0000000000
11
20.5374449000
21
15.3361328054
31
0.0000000000
11
20.5415555982
21
15.1737961536
31
0.0000000000
11
20.5374448986
21
15.0155702004
31
0.0000000000
11
20.5251290118
21
14.8620788095
31
0.0000000000
11
20.5046564845
21
14.7139270462
31
0.0000000000
11
20.4761080569
21
14.5716991763
31
0.0000000000
11
20.4395962425
21
14.4359557528
31
0.0000000000
11
20.3952650611
21
14.3072322033
31
0.0000000000
11
20.3432892026
21
14.1860357770
31
0.0000000000
11
20.2838737097
21
14.0728445849
31
0.0000000000
11
20.2172526904
21
13.9681046237
31
0.0000000000
11
20.1436889791
21
13.8722291141
31
0.0000000000
11
20.0634724210
21
13.7855958112
31
0.0000000000
11
19.9769194877
21
13.7085465026
31
0.0000000000
11
19.8843712139
21
13.6413847758
31
0.0000000000
11
19.8815646341
21
13.6395635684
31
0.0000000000
0
SPLINE
5
377
100
AcDbEntity
8
0
100
AcDbSpline
62
9
6
CONTINUOUS
70
0
71
3
72
13
73
9
74
7
42
0.0000001000
43
0.0000001000
44
0.0000000001
12
0.0831894255
22
0.0416210685
32
0.0000000000
13
0.0830442216
23
-0.0415221109
33
0.0000000000
40
0.0000000000
40
0.0000000000
40
0.0000000000
40
0.0000000000
40
0.0398015084
40
0.2136565539
40
0.3933138876
40
0.5826498345
40
0.7843828888
40
1.0000000000
40
1.0000000000
40
1.0000000000
40
1.0000000000
10
-2.6220105385
20
21.4379119891
30
0.0000000000
10
-2.6209068503
20
21.4384641829
30
0.0000000000
10
-2.6149093304
20
21.4412821449
30
0.0000000000
10
-2.6032143706
20
21.4449764828
30
0.0000000000
10
-2.5863867883
20
21.4466502439
30
0.0000000000
10
-2.5687010437
20
21.4450641469
30
0.0000000000
10
-2.5504665753
20
21.4402880074
30
0.0000000000
10
-2.5385367147
20
21.4352165442
30
0.0000000000
10
-2.5325681297
20
21.4322322517
30
0.0000000000
11
-2.6220105385
21
21.4379119891
31
0.0000000000
11
-2.6186599918
21
21.4394859359
31
0.0000000000
11
-2.6032788028
21
21.4443825110
31
0.0000000000
11
-2.5866877351
21
21.4461076050
31
0.0000000000
11
-2.5691706664
21
21.4446317013
31
0.0000000000
11
-2.5510273187
21
21.4399800531
31
0.0000000000
11
-2.5325681297
21
21.4322322517
31
0.0000000000
0
SPLINE
5
378
100
AcDbEntity
8
0
100
AcDbSpline
62
0
6
CONTINUOUS
70
0
71
3
72
14
73
10
74
8
42
0.0000001000
43
0.0000001000
44
0.0000000001
12
0.0791351001
22
0.0395884654
32
0.0000000000
13
0.0790056663
23
-0.0395028331
33
0.0000000000
40
0.0000000000
40
0.0000000000
40
0.0000000000
40
0.0000000000
40
0.0108975268
40
0.1508652764
40
0.2976080641
40
0.4542147772
40
0.6228187521
40
0.8046187890
40
1.0000000000
40
1.0000000000
40
1.0000000000
40
1.0000000000
10
-2.6835678892
20
21.4071339393
30
0.0000000000
10
-2.6832804302
20
21.4072777447
30
0.0000000000
10
-2.6792845322
20
21.4092356954
30
0.0000000000
10
-2.6709715899
20
21.4121918925
30
0.0000000000
10
-2.6579865333
20
21.4141149664
30
0.0000000000
10
-2.6440351298
20
21.4137519324
30
0.0000000000
10
-2.6292901150
20
21.4111287499
30
0.0000000000
10
-2.6139270878
20
21.4062902203
30
0.0000000000
10
-2.6037500537
20
21.4017866973
30
0.0000000000
10
-2.5986046461
20
21.3992139935
30
0.0000000000
11
-2.6835678892
21
21.4071339393
31
0.0000000000
11
-2.6827020166
21
21.4075582071
31
0.0000000000
11
-2.6710680314
21
21.4117422691
31
0.0000000000
11
-2.6582562663
21
21.4137096446
31
0.0000000000
11
-2.6444258829
21
21.4134289890
31
0.0000000000
11
-2.6297496403
21
21.4108975475
31
0.0000000000
11
-2.6144116092
21
21.4061411959
31
0.0000000000
11
-2.5986046461
21
21.3992139935
31
0.0000000000
0
SPLINE
5
379
100
AcDbEntity
8
0
100
AcDbSpline
62
0
6
CONTINUOUS
70
0
71
3
72
9
73
5
74
3
42
0.0000001000
43
0.0000001000
44
0.0000000001
12
-0.0046364675
22
0.0018489117
32
0.0000000000
13
-0.0047614225
23
0.0014980617
33
0.0000000000
40
0.0000000000
40
0.0000000000
40
0.0000000000
40
0.0000000000
40
0.1904103833
40
1.0000000000
40
1.0000000000
40
1.0000000000
40
1.0000000000
10
-1.3844890892
20
21.4786890868
30
0.0000000000
10
-1.3847833664
20
21.4788064375
30
0.0000000000
10
-1.3863332495
20
21.4794116853
30
0.0000000000
10
-1.3879054328
20
21.4799584098
30
0.0000000000
10
-1.3891903655
20
21.4803626815
30
0.0000000000
11
-1.3844890892
21
21.4786890868
31
0.0000000000
11
-1.3853744026
21
21.4790348066
31
0.0000000000
11
-1.3891903655
21
21.4803626815
31
0.0000000000
0
SPLINE
5
37A
100
AcDbEntity
8
0
100
AcDbSpline
62
0
6
CONTINUOUS
70
0
71
3
72
13
73
9
74
7
42
0.0000001000
43
0.0000001000
44
0.0000000001
12
-0.0740256564
22
0.0232903092
32
0.0000000000
13
-0.0674954640
23
-0.0380871352
33
0.0000000000
40
0.0000000000
40
0.0000000000
40
0.0000000000
40
0.0000000000
40
0.1049480215
40
0.2661620546
40
0.4344052790
40
0.6118919984
40
0.8001412687
40
1.0000000000
40
1.0000000000
40
1.0000000000
40
1.0000000000
10
-1.3891903655
20
21.4803626815
30
0.0000000000
10
-1.3917799809
20
21.4811774388
30
0.0000000000
10
-1.3984723284
20
21.4828487181
30
0.0000000000
10
-1.4096958808
20
21.4839418564
30
0.0000000000
10
-1.4228157611
20
21.4830647239
30
0.0000000000
10
-1.4363372213
20
21.4801139845
30
0.0000000000
10
-1.4501131948
20
21.4751373750
30
0.0000000000
10
-1.4591028306
20
21.4706447972
30
0.0000000000
10
-1.4635993498
20
21.4681074484
30
0.0000000000
11
-1.3891903655
21
21.4803626815
31
0.0000000000
11
-1.3970862476
21
21.4823397058
31
0.0000000000
11
-1.4095177212
21
21.4835891627
31
0.0000000000
11
-1.4225308299
21
21.4827699531
31
0.0000000000
11
-1.4359815347
21
21.4798915522
31
0.0000000000
11
-1.4497214138
21
21.4749859884
31
0.0000000000
11
-1.4635993498
21
21.4681074484
31
0.0000000000
0
SPLINE
5
37B
100
AcDbEntity
8
0
100
AcDbSpline
62
0
6
CONTINUOUS
70
0
71
3
72
13
73
9
74
7
42
0.0000001000
43
0.0000001000
44
0.0000000001
12
0.0955452568
22
0.1544423785
32
0.0000000000
13
0.1406277889
23
0.1149137475
33
0.0000000000
40
0.0000000000
40
0.0000000000
40
0.0000000000
40
0.0000000000
40
0.1641125965
40
0.3293206082
40
0.4955402789
40
0.6629364244
40
0.8313526948
40
1.0000000000
40
1.0000000000
40
1.0000000000
40
1.0000000000
10
18.6857276577
20
13.3001397823
30
0.0000000000
10
18.6909543844
20
13.3085884289
30
0.0000000000
10
18.7017893546
20
13.3253314534
30
0.0000000000
10
18.7192498802
20
13.3497386251
30
0.0000000000
10
18.7380689859
20
13.3733726365
30
0.0000000000
10
18.7583145554
20
13.3960615317
30
0.0000000000
10
18.7799920903
20
13.4175970644
30
0.0000000000
10
18.7953663577
20
13.4310386664
30
0.0000000000
10
18.8032718569
20
13.4374986311
30
0.0000000000
11
18.6857276577
21
13.3001397823
31
0.0000000000
11
18.7019442255
21
13.3251459343
31
0.0000000000
11
18.7194194242
21
13.3495344547
31
0.0000000000
11
18.7382399482
21
13.3731359112
31
0.0000000000
11
18.7584940874
21
13.3958064996
31
0.0000000000
11
18.7802043683
21
13.4173505910
31
0.0000000000
11
18.8032718569
21
13.4374986311
31
0.0000000000
0
SPLINE
5
37C
100
AcDbEntity
8
0
100
AcDbSpline
62
0
6
CONTINUOUS
70
0
71
3
72
13
73
9
74
7
42
0.0000001000
43
0.0000001000
44
0.0000000001
12
-0.1186440381
22
-0.0259097720
32
0.0000000000
13
-0.1050085684
23
0.0609993821
33
0.0000000000
40
0.0000000000
40
0.0000000000
40
0.0000000000
40
0.0000000000
40
0.1923879054
40
0.3713766022
40
0.5388111758
40
0.6974861288
40
0.8504116562
40
1.0000000000
40
1.0000000000
40
1.0000000000
40
1.0000000000
10
18.8032718744
20
15.0569699909
30
0.0000000000
10
18.7956633151
20
15.0553084153
30
0.0000000000
10
18.7807957481
20
15.0528463789
30
0.0000000000
10
18.7589546828
20
15.0518363959
30
0.0000000000
10
18.7385173089
20
15.0535039325
30
0.0000000000
10
18.7195134049
20
15.0576415381
30
0.0000000000
10
18.7019052351
20
15.0639946421
30
0.0000000000
10
18.6909636770
20
15.0695666565
30
0.0000000000
10
18.6857276577
20
15.0726082553
30
0.0000000000
11
18.8032718744
21
15.0569699909
31
0.0000000000
11
18.7802092979
21
15.0532314564
31
0.0000000000
11
18.7584931242
21
15.0522933991
31
0.0000000000
11
18.7382308712
21
15.0539915632
31
0.0000000000
11
18.7194058140
21
15.0581063650
31
0.0000000000
11
18.7019332981
21
15.0643995884
31
0.0000000000
11
18.6857276577
21
15.0726082553
31
0.0000000000
0
SPLINE
5
37D
100
AcDbEntity
8
0
100
AcDbSpline
62
9
6
CONTINUOUS
70
0
71
3
72
15
73
11
74
9
42
0.0000001000
43
0.0000001000
44
0.0000000001
12
-0.3945151521
22
0.2041142431
32
0.0000000000
13
-0.4056645176
23
-0.1817600012
33
0.0000000000
40
0.0000000000
40
0.0000000000
40
0.0000000000
40
0.0000000000
40
0.1425078965
40
0.2791099952
40
0.4100698687
40
0.5358503481
40
0.6571232361
40
0.7747667924
40
0.8898452490
40
1.0000000000
40
1.0000000000
40
1.0000000000
40
1.0000000000
10
11.4022154538
20
24.1662832423
30
0.0000000000
10
11.3834749456
20
24.1759792061
30
0.0000000000
10
11.3459818090
20
24.1935009355
30
0.0000000000
10
11.2888181838
20
24.2142157024
30
0.0000000000
10
11.2322936905
20
24.2286594788
30
0.0000000000
10
11.1767921211
20
24.2367159122
30
0.0000000000
10
11.1226901957
20
24.2383104458
30
0.0000000000
10
11.0703657766
20
24.2334096952
30
0.0000000000
10
11.0207117700
20
24.2221450870
30
0.0000000000
10
10.9893549527
20
24.2105085496
30
0.0000000000
10
10.9744596614
20
24.2038346403
30
0.0000000000
11
11.4022154538
21
24.1662832423
31
0.0000000000
11
11.3448196717
21
24.1929794862
31
0.0000000000
11
11.2877315421
21
24.2135386667
31
0.0000000000
11
11.2313408838
21
24.2278203980
31
0.0000000000
11
11.1760327527
21
24.2357271593
31
0.0000000000
11
11.1221848131
21
24.2372049604
31
0.0000000000
11
11.0701647584
21
24.2322437102
31
0.0000000000
11
11.0203278007
21
24.2208772860
31
0.0000000000
11
10.9744596614
21
24.2038346403
31
0.0000000000
0
SPLINE
5
37E
100
AcDbEntity
8
0
100
AcDbSpline
62
9
6
CONTINUOUS
70
0
71
3
72
9
73
5
74
3
42
0.0000001000
43
0.0000001000
44
0.0000000001
12
-0.0038736307
22
-0.0017355995
32
0.0000000000
13
-0.0038535210
23
-0.0017798133
33
0.0000000000
40
0.0000000000
40
0.0000000000
40
0.0000000000
40
0.0000000000
40
0.3735012990
40
1.0000000000
40
1.0000000000
40
1.0000000000
40
1.0000000000
10
10.9744596614
20
24.2038346403
30
0.0000000000
10
10.9739773927
20
24.2036185575
30
0.0000000000
10
10.9726874185
20
24.2030372658
30
0.0000000000
10
10.9714007872
20
24.2024485963
30
0.0000000000
10
10.9705960453
20
24.2020769127
30
0.0000000000
11
10.9744596614
21
24.2038346403
31
0.0000000000
11
10.9730142450
21
24.2031833019
31
0.0000000000
11
10.9705960453
21
24.2020769127
31
0.0000000000
0
SPLINE
5
37F
100
AcDbEntity
8
0
100
AcDbSpline
62
9
6
CONTINUOUS
70
0
71
3
72
8
73
4
74
2
42
0.0000001000
43
0.0000001000
44
0.0000000001
12
-0.0494399858
22
-0.0228330797
32
0.0000000000
13
-0.0502020998
23
-0.0211267031
33
0.0000000000
40
0.0000000000
40
0.0000000000
40
0.0000000000
40
0.0000000000
40
1.0000000000
40
1.0000000000
40
1.0000000000
40
1.0000000000
10
5.4838963865
20
21.4330073707
30
0.0000000000
10
5.4674163912
20
21.4253963441
30
0.0000000000
10
5.4507991046
20
21.4180781864
30
0.0000000000
10
5.4340650713
20
21.4110359520
30
0.0000000000
11
5.4838963865
21
21.4330073707
31
0.0000000000
11
5.4340650713
21
21.4110359520
31
0.0000000000
0
SPLINE
5
380
100
AcDbEntity
8
0
100
AcDbSpline
62
9
6
CONTINUOUS
70
0
71
3
72
12
73
8
74
6
42
0.0000001000
43
0.0000001000
44
0.0000000001
12
-0.2180363040
22
0.1128076195
32
0.0000000000
13
-0.2450330367
23
0.0171826668
33
0.0000000000
40
0.0000000000
40
0.0000000000
40
0.0000000000
40
0.0000000000
40
0.2578540087
40
0.5050220516
40
0.7419810374
40
0.9695684142
40
1.0000000000
40
1.0000000000
40
1.0000000000
40
1.0000000000
10
5.4838963865
20
21.4330073707
30
0.0000000000
10
5.4651558748
20
21.4427033363
30
0.0000000000
10
5.4276627314
20
21.4602250686
30
0.0000000000
10
5.3704990964
20
21.4809398374
30
0.0000000000
10
5.3139745946
20
21.4953836133
30
0.0000000000
10
5.2738094596
20
21.5012138554
30
0.0000000000
10
5.2527470591
20
21.5028586781
30
0.0000000000
10
5.2502614778
20
21.5030329767
30
0.0000000000
11
5.4838963865
21
21.4330073707
31
0.0000000000
11
5.4265005934
21
21.4597036192
31
0.0000000000
11
5.3694124540
21
21.4802628015
31
0.0000000000
11
5.3130217873
21
21.4945445322
31
0.0000000000
11
5.2577136495
21
21.5024512908
31
0.0000000000
11
5.2502614778
21
21.5030329767
31
0.0000000000
0
SPLINE
5
381
100
AcDbEntity
8
0
100
AcDbSpline
62
0
6
CONTINUOUS
70
0
71
3
72
17
73
13
74
11
42
0.0000001000
43
0.0000001000
44
0.0000000001
12
0.4893911460
22
0.2335871117
32
0.0000000000
13
0.4851977624
23
-0.2425171928
33
0.0000000000
40
0.0000000000
40
0.0000000000
40
0.0000000000
40
0.0000000000
40
0.0993216075
40
0.1984557574
40
0.2981539046
40
0.3991694404
40
0.5022417824
40
0.6080907580
40
0.7173946993
40
0.8307769499
40
0.9487880003
40
1.0000000000
40
1.0000000000
40
1.0000000000
40
1.0000000000
10
12.4429819556
20
23.6458999914
30
0.0000000000
10
12.4591843273
20
23.6536334072
30
0.0000000000
10
12.4923576407
20
23.6674749287
30
0.0000000000
10
12.5440375554
20
23.6830783892
30
0.0000000000
10
12.5973500234
20
23.6933681318
30
0.0000000000
10
12.6521409351
20
23.6982313350
30
0.0000000000
10
12.7082537354
20
23.6975465738
30
0.0000000000
10
12.7655137638
20
23.6911820387
30
0.0000000000
10
12.8237262396
20
23.6790014206
30
0.0000000000
10
12.8826686717
20
23.6608703769
30
0.0000000000
10
12.9300364426
20
23.6415741676
30
0.0000000000
10
12.9576419705
20
23.6283684053
30
0.0000000000
10
12.9659246197
20
23.6242284751
30
0.0000000000
11
12.4429819556
21
23.6458999914
31
0.0000000000
11
12.4926959599
21
23.6666224649
31
0.0000000000
11
12.5441605049
21
23.6821583549
31
0.0000000000
11
12.5972426590
21
23.6924162817
31
0.0000000000
11
12.6518042533
21
23.6972875309
31
0.0000000000
11
12.7076945726
21
23.6966480273
31
0.0000000000
11
12.7647490144
21
23.6903619411
31
0.0000000000
11
12.8227792087
21
23.6782865945
31
0.0000000000
11
12.8815681754
21
23.6602798954
31
0.0000000000
11
12.9408640066
21
23.6362100986
31
0.0000000000
11
12.9659246197
21
23.6242284751
31
0.0000000000
0
SPLINE
5
382
100
AcDbEntity
8
0
100
AcDbSpline
62
0
6
CONTINUOUS
70
0
71
3
72
10
73
6
74
4
42
0.0000001000
43
0.0000001000
44
0.0000000001
12
0.0480137065
22
-0.0241288565
32
0.0000000000
13
0.0480239769
23
-0.0241084088
33
0.0000000000
40
0.0000000000
40
0.0000000000
40
0.0000000000
40
0.0000000000
40
0.3356593340
40
0.6689922796
40
1.0000000000
40
1.0000000000
40
1.0000000000
40
1.0000000000
10
13.6415495312
20
20.4968313366
30
0.0000000000
10
13.6469216142
20
20.4941316446
30
0.0000000000
10
13.6576289209
20
20.4887517153
30
0.0000000000
10
13.6736351825
20
20.4807121323
30
0.0000000000
10
13.6842695555
20
20.4753726287
30
0.0000000000
10
13.6895683245
20
20.4727126055
30
0.0000000000
11
13.6415495312
21
20.4968313366
31
0.0000000000
11
13.6576663460
21
20.4887333870
31
0.0000000000
11
13.6736725926
21
20.4806938207
31
0.0000000000
11
13.6895683245
21
20.4727126055
31
0.0000000000
0
SPLINE
5
383
100
AcDbEntity
8
0
100
AcDbSpline
62
0
6
CONTINUOUS
70
0
71
3
72
41
73
37
74
35
42
0.0000001000
43
0.0000001000
44
0.0000000001
12
4.5613693448
22
2.2481832864
32
0.0000000000
13
1.7961856444
23
-4.7604419659
33
0.0000000000
40
0.0000000000
40
0.0000000000
40
0.0000000000
40
0.0000000000
40
0.0279385258
40
0.0568964807
40
0.0868121656
40
0.1176243451
40
0.1492481657
40
0.1816120308
40
0.2146126200
40
0.2481720901
40
0.2821727975
40
0.3165339459
40
0.3511274752
40
0.3858723845
40
0.4206340491
40
0.4553336694
40
0.4898339590
40
0.5240605477
40
0.5578775117
40
0.5912171214
40
0.6239490283
40
0.6560145206
40
0.6872933275
40
0.7177385375
40
0.7472449221
40
0.7757808944
40
0.8032619892
40
0.8296766875
40
0.8549682135
40
0.8791516957
40
0.9022067165
40
0.9241840024
40
0.9451100431
40
0.9650820021
40
0.9841838571
40
1.0000000000
40
1.0000000000
40
1.0000000000
40
1.0000000000
10
9.9466043889
20
20.8505499059
30
0.0000000000
10
9.9890837005
20
20.8714868814
30
0.0000000000
10
10.0767155135
20
20.9118773637
30
0.0000000000
10
10.2131731244
20
20.9670887494
30
0.0000000000
10
10.3565325722
20
21.0178300524
30
0.0000000000
10
10.5061938168
20
21.0638885238
30
0.0000000000
10
10.6615610632
20
21.1050811936
30
0.0000000000
10
10.8219798098
20
21.1412342571
30
0.0000000000
10
10.9868167205
20
21.1722049278
30
0.0000000000
10
11.1553694335
20
21.1978609464
30
0.0000000000
10
11.3269789719
20
21.2181019005
30
0.0000000000
10
11.5009066351
20
21.2328404292
30
0.0000000000
10
11.6764786979
20
21.2420193818
30
0.0000000000
10
11.8529328258
20
21.2455987856
30
0.0000000000
10
12.0295912704
20
21.2435649084
30
0.0000000000
10
12.2056814141
20
21.2359266657
30
0.0000000000
10
12.3805320187
20
21.2227132657
30
0.0000000000
10
12.5533738927
20
21.2039829974
30
0.0000000000
10
12.7235525687
20
21.1798069322
30
0.0000000000
10
12.8903160738
20
21.1502921817
30
0.0000000000
10
13.0530366202
20
21.1155500120
30
0.0000000000
10
13.2109930485
20
21.0757347436
30
0.0000000000
10
13.3635937263
20
21.0309955534
30
0.0000000000
10
13.5101614116
20
20.9815312452
30
0.0000000000
10
13.6501495615
20
20.9275259319
30
0.0000000000
10
13.7829371220
20
20.8692189673
30
0.0000000000
10
13.9080308211
20
20.8068255809
30
0.0000000000
10
14.0248767188
20
20.7406203743
30
0.0000000000
10
14.1330417333
20
20.6708448209
30
0.0000000000
10
14.2320476496
20
20.5978019942
30
0.0000000000
10
14.3215260202
20
20.5217537616
30
0.0000000000
10
14.4010787781
20
20.4430241106
30
0.0000000000
10
14.4704019348
20
20.3618902568
30
0.0000000000
10
14.5291756561
20
20.2786925958
30
0.0000000000
10
14.5750108973
20
20.1975234542
30
0.0000000000
10
14.5987362715
20
20.1431829493
30
0.0000000000
10
14.6082058478
20
20.1180856725
30
0.0000000000
11
9.9466043889
21
20.8505499059
31
0.0000000000
11
10.0755799337
21
20.9101397422
31
0.0000000000
11
10.2120464406
21
20.9654794794
31
0.0000000000
11
10.3554251732
21
21.0163349012
31
0.0000000000
11
10.5051573730
21
21.0625074205
31
0.0000000000
11
10.6605842690
21
21.1037942938
31
0.0000000000
11
10.8211237390
21
21.1400405607
31
0.0000000000
11
10.9860462640
21
21.1710818558
31
0.0000000000
11
11.1547568430
21
21.1968059170
31
0.0000000000
11
11.3264668605
21
21.2170927993
31
0.0000000000
11
11.5005779932
21
21.2318715854
31
0.0000000000
11
11.6762562135
21
21.2410717423
31
0.0000000000
11
11.8529085062
21
21.2446620241
31
0.0000000000
11
12.0296707498
21
21.2426250949
31
0.0000000000
11
12.2059629806
21
21.2349674794
31
0.0000000000
11
12.3809074934
21
21.2217274982
31
0.0000000000
11
12.5539443033
21
21.2029474008
31
0.0000000000
11
12.7241993475
21
21.1787222169
31
0.0000000000
11
12.8911388274
21
21.1491277939
31
0.0000000000
11
13.0539097680
21
21.1143154793
31
0.0000000000
11
13.2120101596
21
21.0743925580
31
0.0000000000
11
13.3646252773
21
21.0295648643
31
0.0000000000
11
13.5112900211
21
20.9799689550
31
0.0000000000
11
13.6512443034
21
20.9258619271
31
0.0000000000
11
13.7840646973
21
20.8674074486
31
0.0000000000
11
13.9090608934
21
20.8049093505
31
0.0000000000
11
14.0258556621
21
20.7385562477
31
0.0000000000
11
14.1338419344
21
20.6686929983
31
0.0000000000
11
14.2326930641
21
20.5955309710
31
0.0000000000
11
14.3218966214
21
20.5194493271
31
0.0000000000
11
14.4011808708
21
20.4406799279
31
0.0000000000
11
14.4701370362
21
20.3596286895
31
0.0000000000
11
14.5285526107
21
20.2765455853
31
0.0000000000
11
14.5761288482
21
20.1918551284
31
0.0000000000
11
14.6082058478
21
20.1180856725
31
0.0000000000
0
SPLINE
5
384
100
AcDbEntity
8
0
100
AcDbSpline
62
0
6
CONTINUOUS
70
0
71
3
72
10
73
6
74
4
42
0.0000001000
43
0.0000001000
44
0.0000000001
12
0.3128288885
22
-0.1337260017
32
0.0000000000
13
0.2936766765
23
-0.1717514678
33
0.0000000000
40
0.0000000000
40
0.0000000000
40
0.0000000000
40
0.0000000000
40
0.3436742093
40
0.6771155842
40
1.0000000000
40
1.0000000000
40
1.0000000000
40
1.0000000000
10
13.6895683245
20
20.4727126055
30
0.0000000000
10
13.7254053981
20
20.4573932129
30
0.0000000000
10
13.7954560244
20
20.4258833293
30
0.0000000000
10
13.8969468457
20
20.3752202551
30
0.0000000000
10
13.9620798344
20
20.3391382043
30
0.0000000000
10
13.9936877085
20
20.3206529136
30
0.0000000000
11
13.6895683245
21
20.4727126055
31
0.0000000000
11
13.7961721316
21
20.4246871431
31
0.0000000000
11
13.8976367836
21
20.3739548171
31
0.0000000000
11
13.9936877085
21
20.3206529136
31
0.0000000000
0
SPLINE
5
385
100
AcDbEntity
8
0
100
AcDbSpline
62
0
6
CONTINUOUS
70
0
71
3
72
10
73
6
74
4
42
0.0000001000
43
0.0000001000
44
0.0000000001
12
-0.0401259497
22
0.0199380878
32
0.0000000000
13
-0.0401137297
23
0.0199626619
33
0.0000000000
40
0.0000000000
40
0.0000000000
40
0.0000000000
40
0.0000000000
40
0.3304773746
40
0.6638133650
40
1.0000000000
40
1.0000000000
40
1.0000000000
40
1.0000000000
10
14.0338074656
20
20.3007023694
30
0.0000000000
10
14.0293872261
20
20.3028987317
30
0.0000000000
10
14.0205089775
20
20.3073113913
30
0.0000000000
10
14.0071357319
20
20.3139615869
30
0.0000000000
10
13.9981829417
20
20.3184158535
30
0.0000000000
10
13.9936877085
20
20.3206529136
30
0.0000000000
11
14.0338074656
21
20.3007023694
31
0.0000000000
11
14.0205474358
21
20.3072928421
31
0.0000000000
11
14.0071740774
21
20.3139430782
31
0.0000000000
11
13.9936877085
21
20.3206529136
31
0.0000000000
0
SPLINE
5
386
100
AcDbEntity
8
0
100
AcDbSpline
62
0
6
CONTINUOUS
70
0
71
3
72
13
73
9
74
7
42
0.0000001000
43
0.0000001000
44
0.0000000001
12
-0.1961525084
22
-0.1002226116
32
0.0000000000
13
0.0000000000
23
-0.2196572814
33
0.0000000000
40
0.0000000000
40
0.0000000000
40
0.0000000000
40
0.0000000000
40
0.0932095149
40
0.2503342003
40
0.4167661673
40
0.5962409861
40
0.7905974107
40
1.0000000000
40
1.0000000000
40
1.0000000000
40
1.0000000000
10
-14.0698229773
20
22.0595396827
30
0.0000000000
10
-14.0759174040
20
22.0564257824
30
0.0000000000
10
-14.0916385600
20
22.0467915277
30
0.0000000000
10
-14.1140479505
20
22.0256260514
30
0.0000000000
10
-14.1344133712
20
21.9945893764
30
0.0000000000
10
-14.1491340156
20
21.9576269104
30
0.0000000000
10
-14.1579779162
20
21.9156738483
30
0.0000000000
10
-14.1598005185
20
21.8860605235
30
0.0000000000
10
-14.1598005185
20
21.8707282556
30
0.0000000000
11
-14.0698229773
21
22.0595396827
31
0.0000000000
11
-14.0873112184
21
22.0488244792
31
0.0000000000
11
-14.1125338749
21
22.0252659374
31
0.0000000000
11
-14.1328252341
21
21.9948562741
31
0.0000000000
11
-14.1476873481
21
21.9583420766
31
0.0000000000
11
-14.1567534316
21
21.9166240201
31
0.0000000000
11
-14.1598005185
21
21.8707282556
31
0.0000000000
0
SPLINE
5
387
100
AcDbEntity
8
0
100
AcDbSpline
62
0
6
CONTINUOUS
70
0
71
3
72
9
73
5
74
3
42
0.0000001000
43
0.0000001000
44
0.0000000001
12
-0.0004065111
22
0.0259308417
32
0.0000000000
13
-0.0020642167
23
0.0258517468
33
0.0000000000
40
0.0000000000
40
0.0000000000
40
0.0000000000
40
0.0000000000
40
0.4989863682
40
1.0000000000
40
1.0000000000
40
1.0000000000
40
1.0000000000
10
8.8599465385
20
19.5292994067
30
0.0000000000
10
8.8598789240
20
19.5336124522
30
0.0000000000
10
8.8596027748
20
19.5422546782
30
0.0000000000
10
8.8590281838
20
19.5508817952
30
0.0000000000
10
8.8586834503
20
19.5551991544
30
0.0000000000
11
8.8599465385
21
19.5292994067
31
0.0000000000
11
8.8595290264
21
19.5422333962
31
0.0000000000
11
8.8586834503
21
19.5551991544
31
0.0000000000
0
SPLINE
5
388
100
AcDbEntity
8
0
100
AcDbSpline
62
0
6
CONTINUOUS
70
0
71
3
72
9
73
5
74
3
42
0.0000001000
43
0.0000001000
44
0.0000000001
12
-0.0005036446
22
-0.0035227343
32
0.0000000000
13
-0.0017167576
23
-0.0031170593
33
0.0000000000
40
0.0000000000
40
0.0000000000
40
0.0000000000
40
0.0000000000
40
0.4474175335
40
1.0000000000
40
1.0000000000
40
1.0000000000
40
1.0000000000
10
8.8599465385
20
-17.9886447956
30
0.0000000000
10
8.8598714254
20
-17.9891701733
30
0.0000000000
10
8.8595318938
20
-17.9903193149
30
0.0000000000
10
8.8589996670
20
-17.9913824004
30
0.0000000000
10
8.8586834503
20
-17.9919565445
30
0.0000000000
11
8.8599465385
21
-17.9886447956
31
0.0000000000
11
8.8595290264
21
-17.9901812386
31
0.0000000000
11
8.8586834503
21
-17.9919565445
31
0.0000000000
0
SPLINE
5
389
100
AcDbEntity
8
0
100
AcDbSpline
62
0
6
CONTINUOUS
70
0
71
3
72
12
73
8
74
6
42
0.0000001000
43
0.0000001000
44
0.0000000001
12
0.1035245975
22
-0.0518042949
32
0.0000000000
13
0.1037892104
23
0.0505590123
33
0.0000000000
40
0.0000000000
40
0.0000000000
40
0.0000000000
40
0.0000000000
40
0.0702682166
40
0.2823115323
40
0.5037058504
40
0.7425202568
40
1.0000000000
40
1.0000000000
40
1.0000000000
40
1.0000000000
10
1.3101969081
20
-26.0337293035
30
0.0000000000
10
1.3126217377
20
-26.0349427020
30
0.0000000000
10
1.3225707022
20
-26.0394020114
30
0.0000000000
10
1.3415570716
20
-26.0442180745
30
0.0000000000
10
1.3676441843
20
-26.0444586515
30
0.0000000000
10
1.3948748857
20
-26.0389230311
30
0.0000000000
10
1.4127056004
20
-26.0318028709
30
0.0000000000
10
1.4216134735
20
-26.0274635637
30
0.0000000000
11
1.3101969081
21
-26.0337293035
31
0.0000000000
11
1.3176172844
21
-26.0370535336
31
0.0000000000
11
1.3413199728
21
-26.0431739591
31
0.0000000000
11
1.3668762382
21
-26.0435928004
31
0.0000000000
11
1.3939351803
21
-26.0383046981
31
0.0000000000
11
1.4216134735
21
-26.0274635637
31
0.0000000000
0
SPLINE
5
38A
100
AcDbEntity
8
0
100
AcDbSpline
62
0
6
CONTINUOUS
70
0
71
3
72
13
73
9
74
7
42
0.0000001000
43
0.0000001000
44
0.0000000001
12
-0.1410768327
22
0.0705989525
32
0.0000000000
13
-0.0000000000
23
0.1573187955
33
0.0000000000
40
0.0000000000
40
0.0000000000
40
0.0000000000
40
0.0000000000
40
0.1002829637
40
0.2556824971
40
0.4210753023
40
0.5986534561
40
0.7921182670
40
1.0000000000
40
1.0000000000
40
1.0000000000
40
1.0000000000
10
-0.3670462191
20
-25.1951076334
30
0.0000000000
10
-0.3717620867
20
-25.1927476760
30
0.0000000000
10
-0.3832776161
20
-25.1857095195
30
0.0000000000
10
-0.3994074293
20
-25.1703057586
30
0.0000000000
10
-0.4137508972
20
-25.1482145527
30
0.0000000000
10
-0.4241302790
20
-25.1218985101
30
0.0000000000
10
-0.4303604072
20
-25.0920629142
30
0.0000000000
10
-0.4316443962
20
-25.0709814325
30
0.0000000000
10
-0.4316443962
20
-25.0600801979
30
0.0000000000
11
-0.3670462191
21
-25.1951076334
31
0.0000000000
11
-0.3805304608
21
-25.1868705518
31
0.0000000000
11
-0.3983075510
21
-25.1700883008
31
0.0000000000
11
-0.4126479180
21
-25.1483774075
31
0.0000000000
11
-0.4230930840
21
-25.1224671797
31
0.0000000000
11
-0.4295000119
21
-25.0927135223
31
0.0000000000
11
-0.4316443962
21
-25.0600801979
31
0.0000000000
0
SPLINE
5
38B
100
AcDbEntity
8
0
100
AcDbSpline
62
0
6
CONTINUOUS
70
0
71
3
72
9
73
5
74
3
42
0.0000001000
43
0.0000001000
44
0.0000000001
12
0.0223544506
22
-0.0111796084
32
0.0000000000
13
0.0243998698
23
-0.0050947154
33
0.0000000000
40
0.0000000000
40
0.0000000000
40
0.0000000000
40
0.0000000000
40
0.0711022819
40
1.0000000000
40
1.0000000000
40
1.0000000000
40
1.0000000000
10
-12.0541183651
20
22.2880031548
30
0.0000000000
10
-12.0535885476
20
22.2877381895
30
0.0000000000
10
-12.0461014377
20
22.2840819133
30
0.0000000000
10
-12.0381278388
20
22.2814279372
30
0.0000000000
10
-12.0305728443
20
22.2798504474
30
0.0000000000
11
-12.0541183651
21
22.2880031548
31
0.0000000000
11
-12.0525213869
21
22.2872233175
31
0.0000000000
11
-12.0305728443
21
22.2798504474
31
0.0000000000
0
SPLINE
5
38C
100
AcDbEntity
8
0
100
AcDbSpline
62
0
6
CONTINUOUS
70
0
71
3
72
13
73
9
74
7
42
0.0000001000
43
0.0000001000
44
0.0000000001
12
-0.1411200199
22
0.0705753522
32
0.0000000000
13
0.0000000000
23
0.1573462303
33
0.0000000000
40
0.0000000000
40
0.0000000000
40
0.0000000000
40
0.0000000000
40
0.1341877812
40
0.2839661477
40
0.4437692844
40
0.6151905100
40
0.8009213695
40
1.0000000000
40
1.0000000000
40
1.0000000000
40
1.0000000000
10
-13.7313615850
20
23.1266247582
30
0.0000000000
10
-13.7376737791
20
23.1297815415
30
0.0000000000
10
-13.7502521114
20
23.1379981473
30
0.0000000000
10
-13.7664385770
20
23.1550096762
30
0.0000000000
10
-13.7795760978
20
23.1767479992
30
0.0000000000
10
-13.7890781350
20
23.2022864734
30
0.0000000000
10
-13.7947826530
20
23.2310024080
30
0.0000000000
10
-13.7959625606
20
23.2512155338
30
0.0000000000
10
-13.7959625606
20
23.2616569579
30
0.0000000000
11
-13.7313615850
21
23.1266247582
31
0.0000000000
11
-13.7490656412
21
23.1381430249
31
0.0000000000
11
-13.7654089944
21
23.1551224592
31
0.0000000000
11
-13.7785701276
21
23.1765473626
31
0.0000000000
11
-13.7881466073
21
23.2017625547
31
0.0000000000
11
-13.7940012694
21
23.2303941468
31
0.0000000000
11
-13.7959625606
21
23.2616569579
31
0.0000000000
0
SPLINE
5
38D
100
AcDbEntity
8
0
100
AcDbSpline
62
0
6
CONTINUOUS
70
0
71
3
72
9
73
5
74
3
42
0.0000001000
43
0.0000001000
44
0.0000000001
12
0.0223544506
22
-0.0111796084
32
0.0000000000
13
0.0243998698
23
-0.0050947154
33
0.0000000000
40
0.0000000000
40
0.0000000000
40
0.0000000000
40
0.0000000000
40
0.0711022819
40
1.0000000000
40
1.0000000000
40
1.0000000000
40
1.0000000000
10
1.3101997993
20
15.6058440726
30
0.0000000000
10
1.3107296168
20
15.6055791073
30
0.0000000000
10
1.3182167268
20
15.6019228311
30
0.0000000000
10
1.3261903257
20
15.5992688550
30
0.0000000000
10
1.3337453201
20
15.5976913651
30
0.0000000000
11
1.3101997993
21
15.6058440726
31
0.0000000000
11
1.3117967775
21
15.6050642353
31
0.0000000000
11
1.3337453201
21
15.5976913651
31
0.0000000000
0
SPLINE
5
38E
100
AcDbEntity
8
0
100
AcDbSpline
62
0
6
CONTINUOUS
70
0
71
3
72
13
73
9
74
7
42
0.0000001000
43
0.0000001000
44
0.0000000001
12
-0.1411200199
22
0.0705753522
32
0.0000000000
13
-0.0000000000
23
0.1573462303
33
0.0000000000
40
0.0000000000
40
0.0000000000
40
0.0000000000
40
0.0000000000
40
0.1341877812
40
0.2839661477
40
0.4437692844
40
0.6151905100
40
0.8009213695
40
1.0000000000
40
1.0000000000
40
1.0000000000
40
1.0000000000
10
-0.3670434205
20
16.4444656760
30
0.0000000000
10
-0.3733556147
20
16.4476224593
30
0.0000000000
10
-0.3859339469
20
16.4558390650
30
0.0000000000
10
-0.4021204125
20
16.4728505940
30
0.0000000000
10
-0.4152579334
20
16.4945889170
30
0.0000000000
10
-0.4247599705
20
16.5201273912
30
0.0000000000
10
-0.4304644886
20
16.5488433258
30
0.0000000000
10
-0.4316443962
20
16.5690564516
30
0.0000000000
10
-0.4316443962
20
16.5794978756
30
0.0000000000
11
-0.3670434205
21
16.4444656760
31
0.0000000000
11
-0.3847474768
21
16.4559839427
31
0.0000000000
11
-0.4010908300
21
16.4729633769
31
0.0000000000
11
-0.4142519632
21
16.4943882804
31
0.0000000000
11
-0.4238284429
21
16.5196034725
31
0.0000000000
11
-0.4296831049
21
16.5482350646
31
0.0000000000
11
-0.4316443962
21
16.5794978756
31
0.0000000000
0
SPLINE
5
38F
100
AcDbEntity
8
0
100
AcDbSpline
62
0
6
CONTINUOUS
70
0
71
3
72
13
73
9
74
7
42
0.0000001000
43
0.0000001000
44
0.0000000001
12
-0.1411184857
22
0.0705745873
32
0.0000000000
13
0.0000000000
23
0.1573445288
33
0.0000000000
40
0.0000000000
40
0.0000000000
40
0.0000000000
40
0.0000000000
40
0.1341870270
40
0.2839657539
40
0.4437691199
40
0.6151904691
40
0.8009213618
40
1.0000000000
40
1.0000000000
40
1.0000000000
40
1.0000000000
10
3.0874952403
20
-24.0646408408
30
0.0000000000
10
3.0811831503
20
-24.0614841095
30
0.0000000000
10
3.0686049585
20
-24.0532676305
30
0.0000000000
10
3.0524185997
20
-24.0362563651
30
0.0000000000
10
3.0392810859
20
-24.0145183176
30
0.0000000000
10
3.0297789837
20
-23.9889801576
30
0.0000000000
10
3.0240743832
20
-23.9602645608
30
0.0000000000
10
3.0228942643
20
-23.9400516589
30
0.0000000000
10
3.0228942643
20
-23.9296103474
30
0.0000000000
11
3.0874952403
21
-24.0646408408
31
0.0000000000
11
3.0697914533
21
-24.0531227956
31
0.0000000000
11
3.0534481646
21
-24.0361435742
31
0.0000000000
11
3.0402870410
21
-24.0147189417
31
0.0000000000
11
3.0307105093
21
-23.9895040606
31
0.0000000000
11
3.0248557325
21
-23.9608728092
31
0.0000000000
11
3.0228942643
21
-23.9296103474
31
0.0000000000
0
SPLINE
5
390
100
AcDbEntity
8
0
100
AcDbSpline
62
0
6
CONTINUOUS
70
0
71
3
72
9
73
5
74
3
42
0.0000001000
43
0.0000001000
44
0.0000000001
12
0.0032858702
22
0.0020479729
32
0.0000000000
13
0.0001131308
23
0.0034647824
33
0.0000000000
40
0.0000000000
40
0.0000000000
40
0.0000000000
40
0.0000000000
40
0.7170165807
40
1.0000000000
40
1.0000000000
40
1.0000000000
40
1.0000000000
10
8.8581425752
20
18.9441095270
30
0.0000000000
10
8.8589279163
20
18.9445990038
30
0.0000000000
10
8.8598524544
20
18.9455067380
30
0.0000000000
10
8.8600525069
20
18.9466231224
30
0.0000000000
10
8.8600631783
20
18.9469499477
30
0.0000000000
11
8.8581425752
21
18.9441095270
31
0.0000000000
11
8.8598812673
21
18.9460079945
31
0.0000000000
11
8.8600631783
21
18.9469499477
31
0.0000000000
0
SPLINE
5
391
100
AcDbEntity
8
0
100
AcDbSpline
62
0
6
CONTINUOUS
70
0
71
3
72
12
73
8
74
6
42
0.0000001000
43
0.0000001000
44
0.0000000001
12
0.0000024720
22
0.1446720053
32
0.0000000000
13
-0.1289551214
23
0.0644775607
33
0.0000000000
40
0.0000000000
40
0.0000000000
40
0.0000000000
40
0.0000000000
40
0.1637122150
40
0.3390315196
40
0.5344106615
40
0.7543496530
40
1.0000000000
40
1.0000000000
40
1.0000000000
40
1.0000000000
10
-1.4500765087
20
24.3729412490
30
0.0000000000
10
-1.4500763738
20
24.3808361072
30
0.0000000000
10
-1.4527730422
20
24.3971846582
30
0.0000000000
10
-1.4643905280
20
24.4204456736
30
0.0000000000
10
-1.4829692474
20
24.4421944042
30
0.0000000000
10
-1.5079211633
20
24.4620871347
30
0.0000000000
10
-1.5273851842
20
24.4732849052
30
0.0000000000
10
-1.5379444743
20
24.4785645503
30
0.0000000000
11
-1.4500765087
21
24.3729412490
31
0.0000000000
11
-1.4537704612
21
24.3962538037
31
0.0000000000
11
-1.4647601034
21
24.4190166694
31
0.0000000000
11
-1.4827753141
21
24.4406718327
31
0.0000000000
11
-1.5073718038
21
24.4606852004
31
0.0000000000
11
-1.5379444743
21
24.4785645503
31
0.0000000000
0
SPLINE
5
392
100
AcDbEntity
8
0
100
AcDbSpline
62
0
6
CONTINUOUS
70
0
71
3
72
13
73
9
74
7
42
0.0000001000
43
0.0000001000
44
0.0000000001
12
0.0000258597
22
0.1446711661
32
0.0000000000
13
-0.1289558739
23
0.0644779370
33
0.0000000000
40
0.0000000000
40
0.0000000000
40
0.0000000000
40
0.0000000000
40
0.0029880403
40
0.1661938042
40
0.3410778189
40
0.5359454890
40
0.7552121694
40
1.0000000000
40
1.0000000000
40
1.0000000000
40
1.0000000000
10
4.1043869533
20
21.5957111618
30
0.0000000000
10
4.1043869791
20
21.5958552562
30
0.0000000000
10
4.1043643583
20
21.6038697086
30
0.0000000000
10
4.1015646585
20
21.6202994799
30
0.0000000000
10
4.0899010320
20
21.6434537756
30
0.0000000000
10
4.0713337710
20
21.6651059803
30
0.0000000000
10
4.0464429522
20
21.6849148802
30
0.0000000000
10
4.0270413160
20
21.6960716551
30
0.0000000000
10
4.0165190398
20
21.7013327932
30
0.0000000000
11
4.1043869533
21
21.5957111618
31
0.0000000000
11
4.1043857320
21
21.5961434411
31
0.0000000000
11
4.1005830396
21
21.6193646634
31
0.0000000000
11
4.0895411794
21
21.6420326209
31
0.0000000000
11
4.0715295570
21
21.6635949847
31
0.0000000000
11
4.0469890861
21
21.6835238876
31
0.0000000000
11
4.0165190398
21
21.7013327932
31
0.0000000000
0
SPLINE
5
393
100
AcDbEntity
8
0
100
AcDbSpline
62
0
6
CONTINUOUS
70
0
71
3
72
17
73
13
74
11
42
0.0000001000
43
0.0000001000
44
0.0000000001
12
0.4608527432
22
-0.2304263716
32
0.0000000000
13
0.0000000000
23
-0.5152490307
33
0.0000000000
40
0.0000000000
40
0.0000000000
40
0.0000000000
40
0.0000000000
40
0.0874854453
40
0.1810663987
40
0.2799044282
40
0.3828032215
40
0.4883360357
40
0.5949178722
40
0.7009068930
40
0.8047067593
40
0.9048273562
40
1.0000000000
40
1.0000000000
40
1.0000000000
40
1.0000000000
10
3.8360670627
20
15.6621251662
30
0.0000000000
10
3.8495063652
20
15.6554055150
30
0.0000000000
10
3.8762416927
20
15.6392743535
30
0.0000000000
10
3.9138623394
20
15.6091646293
30
0.0000000000
10
3.9495767111
20
15.5729993351
30
0.0000000000
10
3.9825229245
20
15.5316559739
30
0.0000000000
10
4.0119146376
20
15.4861298634
30
0.0000000000
10
4.0370409692
20
15.4375223163
30
0.0000000000
10
4.0572942772
20
15.3870106603
30
0.0000000000
10
4.0721840247
20
15.3358129054
30
0.0000000000
10
4.0813488623
20
15.2851734098
30
0.0000000000
10
4.0835544361
20
15.2516069171
30
0.0000000000
10
4.0835544361
20
15.2352610463
30
0.0000000000
11
3.8360670627
21
15.6621251662
31
0.0000000000
11
3.8747816033
21
15.6390361771
31
0.0000000000
11
3.9125427152
21
15.6090524263
31
0.0000000000
11
3.9484215835
21
15.5729112512
31
0.0000000000
11
3.9815334017
21
15.5315038943
31
0.0000000000
11
4.0110651360
21
15.4858465699
31
0.0000000000
11
4.0362877925
21
15.4370653717
31
0.0000000000
11
4.0565791518
21
15.3863643491
31
0.0000000000
11
4.0714412657
21
15.3349880377
31
0.0000000000
11
4.0805073492
21
15.2842038977
31
0.0000000000
11
4.0835544361
21
15.2352610463
31
0.0000000000
0
SPLINE
5
394
100
AcDbEntity
8
0
100
AcDbSpline
62
0
6
CONTINUOUS
70
0
71
3
72
13
73
9
74
7
42
0.0000001000
43
0.0000001000
44
0.0000000001
12
0.0000000000
22
-0.2196572814
32
0.0000000000
13
-0.1961525084
23
-0.1002226116
33
0.0000000000
40
0.0000000000
40
0.0000000000
40
0.0000000000
40
0.0000000000
40
0.2094025893
40
0.4037590139
40
0.5832338327
40
0.7496657997
40
0.9067904851
40
1.0000000000
40
1.0000000000
40
1.0000000000
40
1.0000000000
10
4.0835544361
20
-22.9413207984
30
0.0000000000
10
4.0835544361
20
-22.9566530662
30
0.0000000000
10
4.0817318338
20
-22.9862663911
30
0.0000000000
10
4.0728879332
20
-23.0282194531
30
0.0000000000
10
4.0581672888
20
-23.0651819192
30
0.0000000000
10
4.0378018681
20
-23.0962185942
30
0.0000000000
10
4.0153924777
20
-23.1173840704
30
0.0000000000
10
3.9996713217
20
-23.1270183251
30
0.0000000000
10
3.9935768949
20
-23.1301322254
30
0.0000000000
11
4.0835544361
21
-22.9413207984
31
0.0000000000
11
4.0805073492
21
-22.9872165628
31
0.0000000000
11
4.0714412657
21
-23.0289346194
31
0.0000000000
11
4.0565791518
21
-23.0654488169
31
0.0000000000
11
4.0362877925
21
-23.0958584801
31
0.0000000000
11
4.0110651360
21
-23.1194170219
31
0.0000000000
11
3.9935768949
21
-23.1301322254
31
0.0000000000
0
SPLINE
5
395
100
AcDbEntity
8
0
100
AcDbSpline
62
0
6
CONTINUOUS
70
0
71
3
72
12
73
8
74
6
42
0.0000001000
43
0.0000001000
44
0.0000000001
12
0.1442257105
22
-0.0721128553
32
0.0000000000
13
0.1452198943
23
0.0711107357
33
0.0000000000
40
0.0000000000
40
0.0000000000
40
0.0000000000
40
0.0000000000
40
0.2589093298
40
0.4980032510
40
0.7205148469
40
0.9322066891
40
1.0000000000
40
1.0000000000
40
1.0000000000
40
1.0000000000
10
1.3611933285
20
-24.3467978782
30
0.0000000000
10
1.3736404559
20
-24.3530214419
30
0.0000000000
10
1.3985259824
20
-24.3632602374
30
0.0000000000
10
1.4366272279
20
-24.3714138354
30
0.0000000000
10
1.4731279456
20
-24.3714178439
30
0.0000000000
10
1.4996084515
20
-24.3649078241
30
0.0000000000
10
1.5134110487
20
-24.3588452738
30
0.0000000000
10
1.5166926945
20
-24.3572383297
30
0.0000000000
11
1.3611933285
21
-24.3467978782
31
0.0000000000
11
1.3999078692
21
-24.3624234297
31
0.0000000000
11
1.4376689810
21
-24.3702007908
31
0.0000000000
11
1.4735478493
21
-24.3699384839
31
0.0000000000
11
1.5066596675
21
-24.3616429452
31
0.0000000000
11
1.5166926945
21
-24.3572383297
31
0.0000000000
0
SPLINE
5
396
100
AcDbEntity
8
0
100
AcDbSpline
62
0
6
CONTINUOUS
70
0
71
3
72
12
73
8
74
6
42
0.0000001000
43
0.0000001000
44
0.0000000001
12
-0.1280997254
22
-0.0657175839
32
0.0000000000
13
-0.0000198404
23
-0.1444569908
33
0.0000000000
40
0.0000000000
40
0.0000000000
40
0.0000000000
40
0.0000000000
40
0.2451070430
40
0.4650070858
40
0.6609705450
40
0.8375383260
40
1.0000000000
40
1.0000000000
40
1.0000000000
40
1.0000000000
10
-8.1123848078
20
21.6494930353
30
0.0000000000
10
-8.1228508561
20
21.6441237544
30
0.0000000000
10
-8.1421393416
20
21.6327396190
30
0.0000000000
10
-8.1668066235
20
21.6125622289
30
0.0000000000
10
-8.1851217000
20
21.5905293931
30
0.0000000000
10
-8.1964359746
20
21.5671338335
30
0.0000000000
10
-8.1990211254
20
21.5508070782
30
0.0000000000
10
-8.1990221998
20
21.5429841700
30
0.0000000000
11
-8.1123848078
21
21.6494930353
31
0.0000000000
11
-8.1426474437
21
21.6313414798
31
0.0000000000
11
-8.1669552042
21
21.6110566823
31
0.0000000000
11
-8.1847145428
21
21.5891338875
31
0.0000000000
11
-8.1954907324
21
21.5661098948
31
0.0000000000
11
-8.1990221998
21
21.5429841700
31
0.0000000000
0
SPLINE
5
397
100
AcDbEntity
8
0
100
AcDbSpline
62
0
6
CONTINUOUS
70
0
71
3
72
17
73
13
74
11
42
0.0000001000
43
0.0000001000
44
0.0000000001
12
-0.3892831373
22
0.1946415686
32
0.0000000000
13
-0.3912763246
23
-0.1906030928
33
0.0000000000
40
0.0000000000
40
0.0000000000
40
0.0000000000
40
0.0000000000
40
0.0891031991
40
0.1852014033
40
0.2868711654
40
0.3924014128
40
0.4999155417
40
0.6074372688
40
0.7129896138
40
0.8146951064
40
0.9108405521
40
1.0000000000
40
1.0000000000
40
1.0000000000
40
1.0000000000
10
-1.7183964515
20
24.5687905388
30
0.0000000000
10
-1.7299585758
20
24.5745716010
30
0.0000000000
10
-1.7547756209
20
24.5850486301
30
0.0000000000
10
-1.7946412514
20
24.5972026860
30
0.0000000000
10
-1.8377766346
20
24.6061724538
30
0.0000000000
10
-1.8831430756
20
24.6117381144
30
0.0000000000
10
-1.9296524533
20
24.6137652685
30
0.0000000000
10
-1.9761829960
20
24.6122039162
30
0.0000000000
10
-2.0216124129
20
24.6070927529
30
0.0000000000
10
-2.0648509070
20
24.5985552378
30
0.0000000000
10
-2.1048571512
20
24.5868007529
30
0.0000000000
10
-2.1297941427
20
24.5765732192
30
0.0000000000
10
-2.1414228030
20
24.5709085304
30
0.0000000000
11
-1.7183964515
21
24.5687905388
31
0.0000000000
11
-1.7540512055
21
24.5840440334
31
0.0000000000
11
-1.7940189360
21
24.5963692312
31
0.0000000000
11
-1.8373238877
21
24.6054651544
31
0.0000000000
11
-1.8829059137
21
24.6111091400
31
0.0000000000
11
-1.9296543622
21
24.6131634882
31
0.0000000000
11
-1.9764243543
21
24.6115775765
31
0.0000000000
11
-2.0220703118
21
24.6063904957
31
0.0000000000
11
-2.0654800499
21
24.5977287522
31
0.0000000000
11
-2.1055906412
21
24.5858043738
31
0.0000000000
11
-2.1414228030
21
24.5709085304
31
0.0000000000
0
SPLINE
5
398
100
AcDbEntity
8
0
100
AcDbSpline
62
0
6
CONTINUOUS
70
0
71
3
72
17
73
13
74
11
42
0.0000001000
43
0.0000001000
44
0.0000000001
12
-0.3905141315
22
0.1952570657
32
0.0000000000
13
-0.3916239349
23
-0.1930215070
33
0.0000000000
40
0.0000000000
40
0.0000000000
40
0.0000000000
40
0.0000000000
40
0.0891659336
40
0.1853519118
40
0.2871213145
40
0.3927472656
40
0.5003366228
40
0.6078965497
40
0.7134351177
40
0.8150632032
40
0.9110602977
40
1.0000000000
40
1.0000000000
40
1.0000000000
40
1.0000000000
10
3.8360670627
20
21.7915587817
30
0.0000000000
10
3.8244602103
20
21.7973622079
30
0.0000000000
10
3.7995414624
20
21.8078750418
30
0.0000000000
10
3.7595077465
20
21.8200558206
30
0.0000000000
10
3.7161879166
20
21.8290270667
30
0.0000000000
10
3.6706327553
20
21.8345672771
30
0.0000000000
10
3.6239429539
20
21.8365416741
30
0.0000000000
10
3.5772529133
20
21.8349011784
30
0.0000000000
10
3.5316970104
20
21.8296867318
30
0.0000000000
10
3.4883759193
20
21.8210251901
30
0.0000000000
10
3.4483404093
20
21.8091304997
30
0.0000000000
10
3.4234132994
20
21.7987927234
30
0.0000000000
10
3.4118029940
20
21.7930702983
30
0.0000000000
11
3.8360670627
21
21.7915587817
31
0.0000000000
11
3.8002711455
21
21.8068637258
31
0.0000000000
11
3.7601336750
21
21.8192173381
31
0.0000000000
11
3.7166418183
21
21.8283157085
31
0.0000000000
11
3.6708682389
21
21.8339344536
31
0.0000000000
11
3.6239364963
21
21.8359354723
31
0.0000000000
11
3.5770045387
21
21.8342690738
31
0.0000000000
11
3.5312304910
21
21.8289766329
31
0.0000000000
11
3.4877378967
21
21.8201881800
31
0.0000000000
11
3.4475996560
21
21.8081204496
31
0.0000000000
11
3.4118029940
21
21.7930702983
31
0.0000000000
0
SPLINE
5
399
100
AcDbEntity
8
0
100
AcDbSpline
62
0
6
CONTINUOUS
70
0
71
3
72
13
73
9
74
7
42
0.0000001000
43
0.0000001000
44
0.0000000001
12
-0.4312367598
22
0.4734665699
32
0.0000000000
13
-0.5730157043
23
0.2864360409
33
0.0000000000
40
0.0000000000
40
0.0000000000
40
0.0000000000
40
0.0000000000
40
0.2263325555
40
0.4392651718
40
0.6372076945
40
0.8197560175
40
0.9872792954
40
1.0000000000
40
1.0000000000
40
1.0000000000
40
1.0000000000
10
8.8586834503
20
19.5551991544
30
0.0000000000
10
8.8261491443
20
19.5909194540
30
0.0000000000
10
8.7607952649
20
19.6582780566
30
0.0000000000
10
8.6596043822
20
19.7493362498
30
0.0000000000
10
8.5596736916
20
19.8273689542
30
0.0000000000
10
8.4623630087
20
19.8924999952
30
0.0000000000
10
8.3948076030
20
19.9305354991
30
0.0000000000
10
8.3604368953
20
19.9478580345
30
0.0000000000
10
8.3580071742
20
19.9490725905
30
0.0000000000
11
8.8586834503
21
19.5551991544
31
0.0000000000
11
8.7576326856
21
19.6591151337
31
0.0000000000
11
8.6561652728
21
19.7502196949
31
0.0000000000
11
8.5561367889
21
19.8280909350
31
0.0000000000
11
8.4588725678
21
19.8929522450
31
0.0000000000
11
8.3652842929
21
19.9454051195
31
0.0000000000
11
8.3580071742
21
19.9490725905
31
0.0000000000
0
SPLINE
5
39A
100
AcDbEntity
8
0
100
AcDbSpline
62
0
6
CONTINUOUS
70
0
71
3
72
13
73
9
74
7
42
0.0000001000
43
0.0000001000
44
0.0000000001
12
0.4109068760
22
0.2010615886
32
0.0000000000
13
0.4098481622
23
-0.2048837263
33
0.0000000000
40
0.0000000000
40
0.0000000000
40
0.0000000000
40
0.0000000000
40
0.2005143800
40
0.3892497752
40
0.5669911938
40
0.7362259433
40
0.8992258387
40
1.0000000000
40
1.0000000000
40
1.0000000000
40
1.0000000000
10
4.6907657926
20
21.5368222691
30
0.0000000000
10
4.7182300384
20
21.5502608491
30
0.0000000000
10
4.7731198058
20
21.5733222194
30
0.0000000000
10
4.8568521118
20
21.5959649687
30
0.0000000000
10
4.9383692260
20
21.6052140705
30
0.0000000000
10
5.0164205338
20
21.6007948530
30
0.0000000000
10
5.0809114900
20
21.5848489121
30
0.0000000000
10
5.1180536097
20
21.5690431823
30
0.0000000000
10
5.1318209780
20
21.5621608538
30
0.0000000000
11
4.6907657926
21
21.5368222691
31
0.0000000000
11
4.7754691485
21
21.5720254444
31
0.0000000000
11
4.8589118855
21
21.5942005342
31
0.0000000000
11
4.9397440408
21
21.6029999687
31
0.0000000000
11
5.0170202834
21
21.5983132507
31
0.0000000000
11
5.0893606451
21
21.5802310637
31
0.0000000000
11
5.1318209780
21
21.5621608538
31
0.0000000000
0
SPLINE
5
39B
100
AcDbEntity
8
0
100
AcDbSpline
62
0
6
CONTINUOUS
70
0
71
3
72
15
73
11
74
9
42
0.0000001000
43
0.0000001000
44
0.0000000001
12
0.0000000000
22
0.6311300022
32
0.0000000000
13
-0.5654420458
23
0.2826653478
33
0.0000000000
40
0.0000000000
40
0.0000000000
40
0.0000000000
40
0.0000000000
40
0.1606293349
40
0.3126800366
40
0.4557227302
40
0.5905083928
40
0.7175351878
40
0.8389320932
40
0.9563750069
40
1.0000000000
40
1.0000000000
40
1.0000000000
40
1.0000000000
10
1.1490612942
20
23.1426182789
30
0.0000000000
10
1.1490612942
20
23.1764109430
30
0.0000000000
10
1.1459262136
20
23.2422522868
30
0.0000000000
10
1.1309949885
20
23.3371613354
30
0.0000000000
10
1.1061199589
20
23.4243731808
30
0.0000000000
10
1.0716027042
20
23.5025709187
30
0.0000000000
10
1.0278011713
20
23.5706855713
30
0.0000000000
10
0.9753037911
20
23.6275563176
30
0.0000000000
10
0.9272042941
20
23.6630834172
30
0.0000000000
10
0.8974027593
20
23.6793707727
30
0.0000000000
10
0.8891802909
20
23.6834811973
30
0.0000000000
11
1.1490612942
21
23.1426182789
31
0.0000000000
11
1.1439639552
21
23.2438680418
31
0.0000000000
11
1.1287332592
21
23.3386154379
31
0.0000000000
11
1.1036247458
21
23.4253320831
31
0.0000000000
11
1.0689258635
21
23.5030007957
31
0.0000000000
11
1.0252619581
21
23.5702373917
31
0.0000000000
11
0.9730829682
21
23.6263404470
31
0.0000000000
11
0.9133719971
21
23.6702566538
31
0.0000000000
11
0.8891802909
21
23.6834811973
31
0.0000000000
0
SPLINE
5
39C
100
AcDbEntity
8
0
100
AcDbSpline
62
0
6
CONTINUOUS
70
0
71
3
72
10
73
6
74
4
42
0.0000001000
43
0.0000001000
44
0.0000000001
12
0.0556154923
22
0.0171628862
32
0.0000000000
13
0.0478528501
23
-0.0308246041
33
0.0000000000
40
0.0000000000
40
0.0000000000
40
0.0000000000
40
0.0000000000
40
0.4565615055
40
0.7960097470
40
1.0000000000
40
1.0000000000
40
1.0000000000
40
1.0000000000
10
-2.3942056038
20
25.2894101210
30
0.0000000000
10
-2.3857416395
20
25.2920220920
30
0.0000000000
10
-2.3706357893
20
25.2963000205
30
0.0000000000
10
-2.3520514172
20
25.2989165887
30
0.0000000000
10
-2.3403650993
20
25.2988332246
30
0.0000000000
10
-2.3371112609
20
25.2967372517
30
0.0000000000
11
-2.3942056038
21
25.2894101210
31
0.0000000000
11
-2.3685161422
21
25.2962072765
31
0.0000000000
11
-2.3489148832
21
25.2986837079
31
0.0000000000
11
-2.3371112609
21
25.2967372517
31
0.0000000000
0
SPLINE
5
39D
100
AcDbEntity
8
0
100
AcDbSpline
62
0
6
CONTINUOUS
70
0
71
3
72
8
73
4
74
2
42
0.0000001000
43
0.0000001000
44
0.0000000001
12
-0.0189936958
22
-0.0058614358
32
0.0000000000
13
-0.0178492873
23
-0.0089568130
33
0.0000000000
40
0.0000000000
40
0.0000000000
40
0.0000000000
40
0.0000000000
40
1.0000000000
40
1.0000000000
40
1.0000000000
40
1.0000000000
10
-2.3942056038
20
25.2894101210
30
0.0000000000
10
-2.4005368357
20
25.2874563090
30
0.0000000000
10
-2.4066953186
20
25.2849219196
30
0.0000000000
10
-2.4126450810
20
25.2819363153
30
0.0000000000
11
-2.3942056038
21
25.2894101210
31
0.0000000000
11
-2.4126450810
21
25.2819363153
31
0.0000000000
0
SPLINE
5
39E
100
AcDbEntity
8
0
100
AcDbSpline
62
0
6
CONTINUOUS
70
0
71
3
72
15
73
11
74
9
42
0.0000001000
43
0.0000001000
44
0.0000000001
12
0.7619365976
22
0.4349160100
32
0.0000000000
13
0.7317445571
23
0.4839929935
33
0.0000000000
40
0.0000000000
40
0.0000000000
40
0.0000000000
40
0.0000000000
40
0.1045853351
40
0.2166076899
40
0.3351402480
40
0.4599360516
40
0.5902559263
40
0.7249598041
40
0.8623492495
40
1.0000000000
40
1.0000000000
40
1.0000000000
40
1.0000000000
10
8.1116965614
20
-18.4517976099
30
0.0000000000
10
8.1382590262
20
-18.4366356644
30
0.0000000000
10
8.1931448462
20
-18.4050089831
30
0.0000000000
10
8.2776863024
20
-18.3554239043
30
0.0000000000
10
8.3669235648
20
-18.3021683268
30
0.0000000000
10
8.4603259851
20
-18.2454565452
30
0.0000000000
10
8.5573075951
20
-18.1855339101
30
0.0000000000
10
8.6569191497
20
-18.1228680736
30
0.0000000000
10
8.7577978804
20
-18.0581984095
30
0.0000000000
10
8.8251083878
20
-18.0141638774
30
0.0000000000
10
8.8586834503
20
-17.9919565445
30
0.0000000000
11
8.1116965614
21
-18.4517976099
31
0.0000000000
11
8.1912032714
21
-18.4059966796
31
0.0000000000
11
8.2759824184
21
-18.3562829081
31
0.0000000000
11
8.3652842929
21
-18.3029966489
31
0.0000000000
11
8.4588725678
21
-18.2461765272
31
0.0000000000
11
8.5561367889
21
-18.1860792529
31
0.0000000000
11
8.6561652728
21
-18.1231459538
31
0.0000000000
11
8.7576326856
21
-18.0580836726
31
0.0000000000
11
8.8586834503
21
-17.9919565445
31
0.0000000000
0
SPLINE
5
39F
100
AcDbEntity
8
0
100
AcDbSpline
62
0
6
CONTINUOUS
70
0
71
3
72
8
73
4
74
2
42
0.0000001000
43
0.0000001000
44
0.0000000001
12
-0.0496543828
22
-0.0283428911
32
0.0000000000
13
-0.0511446455
23
-0.0256282980
33
0.0000000000
40
0.0000000000
40
0.0000000000
40
0.0000000000
40
0.0000000000
40
1.0000000000
40
1.0000000000
40
1.0000000000
40
1.0000000000
10
8.1116965614
20
-18.4517976099
30
0.0000000000
10
8.0951451005
20
-18.4612452403
30
0.0000000000
10
8.0783238220
20
-18.4702323143
30
0.0000000000
10
8.0612756068
20
-18.4787750803
30
0.0000000000
11
8.1116965614
21
-18.4517976099
31
0.0000000000
11
8.0612756068
21
-18.4787750803
31
0.0000000000
0
SPLINE
5
3A0
100
AcDbEntity
8
0
100
AcDbSpline
62
0
6
CONTINUOUS
70
0
71
3
72
14
73
10
74
8
42
0.0000001000
43
0.0000001000
44
0.0000000001
12
0.0000000000
22
0.2525400005
32
0.0000000000
13
0.1603202703
23
0.1951252490
33
0.0000000000
40
0.0000000000
40
0.0000000000
40
0.0000000000
40
0.0000000000
40
0.1318788968
40
0.2706570924
40
0.4139746772
40
0.5610771939
40
0.7087227910
40
0.8559736017
40
1.0000000000
40
1.0000000000
40
1.0000000000
40
1.0000000000
10
3.0228942643
20
15.8699972047
30
0.0000000000
10
3.0228942643
20
15.8810987703
30
0.0000000000
10
3.0243112707
20
15.9038981729
30
0.0000000000
10
3.0302189077
20
15.9383005806
30
0.0000000000
10
3.0398415090
20
15.9731841609
30
0.0000000000
10
3.0529481201
20
16.0077082271
30
0.0000000000
10
3.0692807497
20
16.0411966934
30
0.0000000000
10
3.0884454857
20
16.0728436375
30
0.0000000000
10
3.1030715999
20
16.0925790574
30
0.0000000000
10
3.1107683836
20
16.1019467863
30
0.0000000000
11
3.0228942643
21
15.8699972047
31
0.0000000000
11
3.0248557325
21
15.9032440912
31
0.0000000000
11
3.0307105093
21
15.9377986422
31
0.0000000000
11
3.0402870410
21
15.9727021364
31
0.0000000000
11
3.0534481646
21
16.0074419271
31
0.0000000000
11
3.0697914533
21
16.0409557148
31
0.0000000000
11
3.0890739041
21
16.0727525578
31
0.0000000000
11
3.1107683836
21
16.1019467863
31
0.0000000000
0
SPLINE
5
3A1
100
AcDbEntity
8
0
100
AcDbSpline
62
0
6
CONTINUOUS
70
0
71
3
72
14
73
10
74
8
42
0.0000001000
43
0.0000001000
44
0.0000000001
12
0.0000000000
22
0.2525400005
32
0.0000000000
13
0.1603202703
23
0.1951252490
33
0.0000000000
40
0.0000000000
40
0.0000000000
40
0.0000000000
40
0.0000000000
40
0.1318788968
40
0.2706570924
40
0.4139746772
40
0.5610771939
40
0.7087227910
40
0.8559736017
40
1.0000000000
40
1.0000000000
40
1.0000000000
40
1.0000000000
10
-10.3414239001
20
22.5521562869
30
0.0000000000
10
-10.3414239001
20
22.5632578525
30
0.0000000000
10
-10.3400068937
20
22.5860572552
30
0.0000000000
10
-10.3340992568
20
22.6204596628
30
0.0000000000
10
-10.3244766554
20
22.6553432431
30
0.0000000000
10
-10.3113700444
20
22.6898673093
30
0.0000000000
10
-10.2950374147
20
22.7233557757
30
0.0000000000
10
-10.2758726788
20
22.7550027197
30
0.0000000000
10
-10.2612465645
20
22.7747381396
30
0.0000000000
10
-10.2535497808
20
22.7841058686
30
0.0000000000
11
-10.3414239001
21
22.5521562869
31
0.0000000000
11
-10.3394624319
21
22.5854031734
31
0.0000000000
11
-10.3336076552
21
22.6199577244
31
0.0000000000
11
-10.3240311235
21
22.6548612186
31
0.0000000000
11
-10.3108699998
21
22.6896010093
31
0.0000000000
11
-10.2945267111
21
22.7231147971
31
0.0000000000
11
-10.2752442603
21
22.7549116400
31
0.0000000000
11
-10.2535497808
21
22.7841058686
31
0.0000000000
0
SPLINE
5
3A2
100
AcDbEntity
8
0
100
AcDbSpline
62
0
6
CONTINUOUS
70
0
71
3
72
14
73
10
74
8
42
0.0000001000
43
0.0000001000
44
0.0000000001
12
0.1603213519
22
0.1951265654
32
0.0000000000
13
-0.0000000000
23
0.2525417043
33
0.0000000000
40
0.0000000000
40
0.0000000000
40
0.0000000000
40
0.0000000000
40
0.1440265224
40
0.2912774710
40
0.4389231742
40
0.5860257506
40
0.7293433004
40
0.8681213611
40
1.0000000000
40
1.0000000000
40
1.0000000000
40
1.0000000000
10
3.6380130993
20
16.7436545144
30
0.0000000000
10
3.6457099416
20
16.7530223146
30
0.0000000000
10
3.6603361606
20
16.7727578915
30
0.0000000000
10
3.6795010095
20
16.8044050962
30
0.0000000000
10
3.6958337030
20
16.8378938400
30
0.0000000000
10
3.7089403270
20
16.8724181818
30
0.0000000000
10
3.7185628658
20
16.9073020205
30
0.0000000000
10
3.7244704359
20
16.9417046509
30
0.0000000000
10
3.7258872186
20
16.9645041836
30
0.0000000000
10
3.7258872186
20
16.9756058024
30
0.0000000000
11
3.6380130993
21
16.7436545144
31
0.0000000000
11
3.6597077334
21
16.7728489729
31
0.0000000000
11
3.6789902992
21
16.8046460802
31
0.0000000000
11
3.6953336524
21
16.8381601462
31
0.0000000000
11
3.7084947856
21
16.8729002175
31
0.0000000000
11
3.7180712653
21
16.9078039699
31
0.0000000000
11
3.7239259273
21
16.9423587456
31
0.0000000000
11
3.7258872186
21
16.9756058024
31
0.0000000000
0
SPLINE
5
3A3
100
AcDbEntity
8
0
100
AcDbSpline
62
0
6
CONTINUOUS
70
0
71
3
72
13
73
9
74
7
42
0.0000001000
43
0.0000001000
44
0.0000000001
12
0.0000000000
22
0.1573187955
32
0.0000000000
13
-0.1410768327
23
0.0705989525
33
0.0000000000
40
0.0000000000
40
0.0000000000
40
0.0000000000
40
0.0000000000
40
0.2078817330
40
0.4013465439
40
0.5789246977
40
0.7443175029
40
0.8997170363
40
1.0000000000
40
1.0000000000
40
1.0000000000
40
1.0000000000
10
3.7258872186
20
17.3231373191
30
0.0000000000
10
3.7258872186
20
17.3340385537
30
0.0000000000
10
3.7246032296
20
17.3551200355
30
0.0000000000
10
3.7183731014
20
17.3849556313
30
0.0000000000
10
3.7079937196
20
17.4112716740
30
0.0000000000
10
3.6936502517
20
17.4333628799
30
0.0000000000
10
3.6775204385
20
17.4487666408
30
0.0000000000
10
3.6660049091
20
17.4558047973
30
0.0000000000
10
3.6612890415
20
17.4581647547
30
0.0000000000
11
3.7258872186
21
17.3231373191
31
0.0000000000
11
3.7237428343
21
17.3557706435
31
0.0000000000
11
3.7173359065
21
17.3855243009
31
0.0000000000
11
3.7068907404
21
17.4114345287
31
0.0000000000
11
3.6925503734
21
17.4331454221
31
0.0000000000
11
3.6747732832
21
17.4499276731
31
0.0000000000
11
3.6612890415
21
17.4581647547
31
0.0000000000
0
SPLINE
5
3A4
100
AcDbEntity
8
0
100
AcDbSpline
62
0
6
CONTINUOUS
70
0
71
3
72
12
73
8
74
6
42
0.0000001000
43
0.0000001000
44
0.0000000001
12
0.1037892104
22
0.0505590123
32
0.0000000000
13
0.1035245975
23
-0.0518042949
33
0.0000000000
40
0.0000000000
40
0.0000000000
40
0.0000000000
40
0.0000000000
40
0.2574797432
40
0.4962941496
40
0.7176884677
40
0.9297317834
40
1.0000000000
40
1.0000000000
40
1.0000000000
40
1.0000000000
10
1.8602878682
20
18.2966914254
30
0.0000000000
10
1.8691957413
20
18.3010307325
30
0.0000000000
10
1.8870264560
20
18.3081508927
30
0.0000000000
10
1.9142571574
20
18.3136865131
30
0.0000000000
10
1.9403442701
20
18.3134459362
30
0.0000000000
10
1.9593306394
20
18.3086298730
30
0.0000000000
10
1.9692796040
20
18.3041705636
30
0.0000000000
10
1.9717044336
20
18.3029571651
30
0.0000000000
11
1.8602878682
21
18.2966914254
31
0.0000000000
11
1.8879661613
21
18.3075325597
31
0.0000000000
11
1.9150251035
21
18.3128206620
31
0.0000000000
11
1.9405813689
21
18.3124018208
31
0.0000000000
11
1.9642840573
21
18.3062813953
31
0.0000000000
11
1.9717044336
21
18.3029571651
31
0.0000000000
0
SPLINE
5
3A5
100
AcDbEntity
8
0
100
AcDbSpline
62
0
6
CONTINUOUS
70
0
71
3
72
17
73
13
74
11
42
0.0000001000
43
0.0000001000
44
0.0000000001
12
0.0000000000
22
0.3666502398
32
0.0000000000
13
0.3262254999
23
0.1673598566
33
0.0000000000
40
0.0000000000
40
0.0000000000
40
0.0000000000
40
0.0000000000
40
0.0951010066
40
0.1954626647
40
0.2989499556
40
0.4051948209
40
0.5116959089
40
0.6171488294
40
0.7202917296
40
0.8188238537
40
0.9126130540
40
1.0000000000
40
1.0000000000
40
1.0000000000
40
1.0000000000
10
-0.4316443962
20
16.9194718098
30
0.0000000000
10
-0.4316443962
20
16.9310947454
30
0.0000000000
10
-0.4300897382
20
16.9550009032
30
0.0000000000
10
-0.4236314798
20
16.9910286419
30
0.0000000000
10
-0.4131298787
20
17.0275096462
30
0.0000000000
10
-0.3988572490
20
17.0634904106
30
0.0000000000
10
-0.3811299375
20
17.0981695478
30
0.0000000000
10
-0.3603894788
20
17.1306884771
30
0.0000000000
10
-0.3371449897
20
17.1602435549
30
0.0000000000
10
-0.3119110859
20
17.1861777485
30
0.0000000000
10
-0.2853444074
20
17.2078167916
30
0.0000000000
10
-0.2664212304
20
17.2194848392
30
0.0000000000
10
-0.2569186137
20
17.2243598615
30
0.0000000000
11
-0.4316443962
21
16.9194718098
31
0.0000000000
11
-0.4295000119
21
16.9542746158
31
0.0000000000
11
-0.4230930840
21
16.9905101862
31
0.0000000000
11
-0.4126479180
21
17.0269878276
31
0.0000000000
11
-0.3983075510
21
17.0632069240
31
0.0000000000
11
-0.3805304608
21
17.0979743238
31
0.0000000000
11
-0.3597117378
21
17.1305551747
31
0.0000000000
11
-0.3362832505
21
17.1602411881
31
0.0000000000
11
-0.3110226291
21
17.1860684727
31
0.0000000000
11
-0.2842767145
21
17.2076827988
31
0.0000000000
11
-0.2569186137
21
17.2243598615
31
0.0000000000
0
SPLINE
5
3A6
100
AcDbEntity
8
0
100
AcDbSpline
62
0
6
CONTINUOUS
70
0
71
3
72
14
73
10
74
8
42
0.0000001000
43
0.0000001000
44
0.0000000001
12
0.1603213519
22
0.1951265654
32
0.0000000000
13
0.0000000000
23
0.2525417043
33
0.0000000000
40
0.0000000000
40
0.0000000000
40
0.0000000000
40
0.0000000000
40
0.1440265224
40
0.2912774710
40
0.4389231742
40
0.5860257506
40
0.7293433004
40
0.8681213611
40
1.0000000000
40
1.0000000000
40
1.0000000000
40
1.0000000000
10
-9.7263050651
20
23.4258135966
30
0.0000000000
10
-9.7186082228
20
23.4351813968
30
0.0000000000
10
-9.7039820039
20
23.4549169737
30
0.0000000000
10
-9.6848171549
20
23.4865641784
30
0.0000000000
10
-9.6684844615
20
23.5200529222
30
0.0000000000
10
-9.6553778374
20
23.5545772640
30
0.0000000000
10
-9.6457552986
20
23.5894611027
30
0.0000000000
10
-9.6398477285
20
23.6238637331
30
0.0000000000
10
-9.6384309458
20
23.6466632659
30
0.0000000000
10
-9.6384309458
20
23.6577648846
30
0.0000000000
11
-9.7263050651
21
23.4258135966
31
0.0000000000
11
-9.7046104311
21
23.4550080551
31
0.0000000000
11
-9.6853278652
21
23.4868051625
31
0.0000000000
11
-9.6689845120
21
23.5203192284
31
0.0000000000
11
-9.6558233788
21
23.5550592997
31
0.0000000000
11
-9.6462468992
21
23.5899630522
31
0.0000000000
11
-9.6403922371
21
23.6245178278
31
0.0000000000
11
-9.6384309458
21
23.6577648846
31
0.0000000000
0
SPLINE
5
3A7
100
AcDbEntity
8
0
100
AcDbSpline
62
0
6
CONTINUOUS
70
0
71
3
72
13
73
9
74
7
42
0.0000001000
43
0.0000001000
44
0.0000000001
12
0.0000000000
22
0.1573187955
32
0.0000000000
13
-0.1410768327
23
0.0705989525
33
0.0000000000
40
0.0000000000
40
0.0000000000
40
0.0000000000
40
0.0000000000
40
0.2078817330
40
0.4013465439
40
0.5789246977
40
0.7443175029
40
0.8997170363
40
1.0000000000
40
1.0000000000
40
1.0000000000
40
1.0000000000
10
-9.6384309458
20
24.0052964013
30
0.0000000000
10
-9.6384309458
20
24.0161976360
30
0.0000000000
10
-9.6397149348
20
24.0372791177
30
0.0000000000
10
-9.6459450630
20
24.0671147135
30
0.0000000000
10
-9.6563244449
20
24.0934307562
30
0.0000000000
10
-9.6706679127
20
24.1155219621
30
0.0000000000
10
-9.6867977259
20
24.1309257230
30
0.0000000000
10
-9.6983132553
20
24.1379638795
30
0.0000000000
10
-9.7030291229
20
24.1403238369
30
0.0000000000
11
-9.6384309458
21
24.0052964013
31
0.0000000000
11
-9.6405753301
21
24.0379297257
31
0.0000000000
11
-9.6469822580
21
24.0676833831
31
0.0000000000
11
-9.6574274240
21
24.0935936110
31
0.0000000000
11
-9.6717677910
21
24.1153045043
31
0.0000000000
11
-9.6895448812
21
24.1320867553
31
0.0000000000
11
-9.7030291229
21
24.1403238369
31
0.0000000000
0
SPLINE
5
3A8
100
AcDbEntity
8
0
100
AcDbSpline
62
0
6
CONTINUOUS
70
0
71
3
72
12
73
8
74
6
42
0.0000001000
43
0.0000001000
44
0.0000000001
12
0.1037892104
22
0.0505590123
32
0.0000000000
13
0.1035245975
23
-0.0518042949
33
0.0000000000
40
0.0000000000
40
0.0000000000
40
0.0000000000
40
0.0000000000
40
0.2574797432
40
0.4962941496
40
0.7176884677
40
0.9297317834
40
1.0000000000
40
1.0000000000
40
1.0000000000
40
1.0000000000
10
-11.5040302963
20
24.9788505076
30
0.0000000000
10
-11.4951224232
20
24.9831898147
30
0.0000000000
10
-11.4772917084
20
24.9903099749
30
0.0000000000
10
-11.4500610070
20
24.9958455953
30
0.0000000000
10
-11.4239738943
20
24.9956050184
30
0.0000000000
10
-11.4049875250
20
24.9907889552
30
0.0000000000
10
-11.3950385604
20
24.9863296458
30
0.0000000000
10
-11.3926137308
20
24.9851162474
30
0.0000000000
11
-11.5040302963
21
24.9788505076
31
0.0000000000
11
-11.4763520031
21
24.9896916419
31
0.0000000000
11
-11.4492930609
21
24.9949797443
31
0.0000000000
11
-11.4237367955
21
24.9945609030
31
0.0000000000
11
-11.4000341071
21
24.9884404775
31
0.0000000000
11
-11.3926137308
21
24.9851162474
31
0.0000000000
0
SPLINE
5
3A9
100
AcDbEntity
8
0
100
AcDbSpline
62
0
6
CONTINUOUS
70
0
71
3
72
17
73
13
74
11
42
0.0000001000
43
0.0000001000
44
0.0000000001
12
0.0000000000
22
0.3666502398
32
0.0000000000
13
0.3262254999
23
0.1673598566
33
0.0000000000
40
0.0000000000
40
0.0000000000
40
0.0000000000
40
0.0000000000
40
0.0951010066
40
0.1954626647
40
0.2989499556
40
0.4051948209
40
0.5116959089
40
0.6171488294
40
0.7202917296
40
0.8188238537
40
0.9126130540
40
1.0000000000
40
1.0000000000
40
1.0000000000
40
1.0000000000
10
-13.7959625606
20
23.6016308920
30
0.0000000000
10
-13.7959625606
20
23.6132538276
30
0.0000000000
10
-13.7944079027
20
23.6371599854
30
0.0000000000
10
-13.7879496442
20
23.6731877241
30
0.0000000000
10
-13.7774480431
20
23.7096687285
30
0.0000000000
10
-13.7631754134
20
23.7456494928
30
0.0000000000
10
-13.7454481020
20
23.7803286300
30
0.0000000000
10
-13.7247076432
20
23.8128475593
30
0.0000000000
10
-13.7014631541
20
23.8424026371
30
0.0000000000
10
-13.6762292503
20
23.8683368307
30
0.0000000000
10
-13.6496625719
20
23.8899758738
30
0.0000000000
10
-13.6307393948
20
23.9016439214
30
0.0000000000
10
-13.6212367781
20
23.9065189437
30
0.0000000000
11
-13.7959625606
21
23.6016308920
31
0.0000000000
11
-13.7938181763
21
23.6364336980
31
0.0000000000
11
-13.7874112485
21
23.6726692684
31
0.0000000000
11
-13.7769660825
21
23.7091469098
31
0.0000000000
11
-13.7626257154
21
23.7453660062
31
0.0000000000
11
-13.7448486253
21
23.7801334060
31
0.0000000000
11
-13.7240299022
21
23.8127142569
31
0.0000000000
11
-13.7006014149
21
23.8424002703
31
0.0000000000
11
-13.6753407936
21
23.8682275550
31
0.0000000000
11
-13.6485948789
21
23.8898418810
31
0.0000000000
11
-13.6212367781
21
23.9065189437
31
0.0000000000
0
SPLINE
5
3AA
100
AcDbEntity
8
0
100
AcDbSpline
62
0
6
CONTINUOUS
70
0
71
3
72
13
73
9
74
7
42
0.0000001000
43
0.0000001000
44
0.0000000001
12
0.0000000000
22
0.1573462303
32
0.0000000000
13
-0.1411200199
23
0.0705753522
33
0.0000000000
40
0.0000000000
40
0.0000000000
40
0.0000000000
40
0.0000000000
40
0.1990786305
40
0.3848094900
40
0.5562307156
40
0.7160338523
40
0.8658122188
40
1.0000000000
40
1.0000000000
40
1.0000000000
40
1.0000000000
10
3.7258872186
20
-24.3239983370
30
0.0000000000
10
3.7258872186
20
-24.3135569130
30
0.0000000000
10
3.7247073110
20
-24.2933437871
30
0.0000000000
10
3.7190027929
20
-24.2646278526
30
0.0000000000
10
3.7095007558
20
-24.2390893783
30
0.0000000000
10
3.6963632350
20
-24.2173510554
30
0.0000000000
10
3.6801767694
20
-24.2003395264
30
0.0000000000
10
3.6675984371
20
-24.1921229207
30
0.0000000000
10
3.6612862429
20
-24.1889661373
30
0.0000000000
11
3.7258872186
21
-24.3239983370
31
0.0000000000
11
3.7239259273
21
-24.2927355259
31
0.0000000000
11
3.7180712653
21
-24.2641039338
31
0.0000000000
11
3.7084947856
21
-24.2388887418
31
0.0000000000
11
3.6953336524
21
-24.2174638383
31
0.0000000000
11
3.6789902992
21
-24.2004844041
31
0.0000000000
11
3.6612862429
21
-24.1889661373
31
0.0000000000
0
SPLINE
5
3AB
100
AcDbEntity
8
0
100
AcDbSpline
62
0
6
CONTINUOUS
70
0
71
3
72
17
73
13
74
11
42
0.0000001000
43
0.0000001000
44
0.0000000001
12
0.3262254999
22
0.1673598566
32
0.0000000000
13
0.0000000000
23
0.3666502398
33
0.0000000000
40
0.0000000000
40
0.0000000000
40
0.0000000000
40
0.0000000000
40
0.0873869460
40
0.1811761463
40
0.2797082704
40
0.3828511706
40
0.4883040911
40
0.5948051791
40
0.7010500444
40
0.8045373353
40
0.9048989934
40
1.0000000000
40
1.0000000000
40
1.0000000000
40
1.0000000000
10
3.5511614361
20
-24.9764179054
30
0.0000000000
10
3.5606640528
20
-24.9715428832
30
0.0000000000
10
3.5795872298
20
-24.9598748356
30
0.0000000000
10
3.6061539083
20
-24.9382357925
30
0.0000000000
10
3.6313878121
20
-24.9123015988
30
0.0000000000
10
3.6546323012
20
-24.8827465210
30
0.0000000000
10
3.6753727599
20
-24.8502275918
30
0.0000000000
10
3.6931000714
20
-24.8155484545
30
0.0000000000
10
3.7073727011
20
-24.7795676902
30
0.0000000000
10
3.7178743022
20
-24.7430866858
30
0.0000000000
10
3.7243325607
20
-24.7070589472
30
0.0000000000
10
3.7258872186
20
-24.6831527894
30
0.0000000000
10
3.7258872186
20
-24.6715298537
30
0.0000000000
11
3.5511614361
21
-24.9764179054
31
0.0000000000
11
3.5785195369
21
-24.9597408428
31
0.0000000000
11
3.6052654515
21
-24.9381265167
31
0.0000000000
11
3.6305260729
21
-24.9122992321
31
0.0000000000
11
3.6539545602
21
-24.8826132187
31
0.0000000000
11
3.6747732832
21
-24.8500323677
31
0.0000000000
11
3.6925503734
21
-24.8152649679
31
0.0000000000
11
3.7068907404
21
-24.7790458715
31
0.0000000000
11
3.7173359065
21
-24.7425682301
31
0.0000000000
11
3.7237428343
21
-24.7063326598
31
0.0000000000
11
3.7258872186
21
-24.6715298537
31
0.0000000000
0
SPLINE
5
3AC
100
AcDbEntity
8
0
100
AcDbSpline
62
0
6
CONTINUOUS
70
0
71
3
72
14
73
10
74
8
42
0.0000001000
43
0.0000001000
44
0.0000000001
12
0.0000000000
22
0.2525417043
32
0.0000000000
13
0.1603213519
23
0.1951265654
33
0.0000000000
40
0.0000000000
40
0.0000000000
40
0.0000000000
40
0.0000000000
40
0.1318786389
40
0.2706566996
40
0.4139742494
40
0.5610768258
40
0.7087225290
40
0.8559734776
40
1.0000000000
40
1.0000000000
40
1.0000000000
40
1.0000000000
10
-0.4316443962
20
-24.7201062637
30
0.0000000000
10
-0.4316443962
20
-24.7090046450
30
0.0000000000
10
-0.4302276135
20
-24.6862051122
30
0.0000000000
10
-0.4243200434
20
-24.6518024818
30
0.0000000000
10
-0.4146975046
20
-24.6169186431
30
0.0000000000
10
-0.4015908806
20
-24.5823943013
30
0.0000000000
10
-0.3852581871
20
-24.5489055575
30
0.0000000000
10
-0.3660933382
20
-24.5172583528
30
0.0000000000
10
-0.3514671192
20
-24.4975227759
30
0.0000000000
10
-0.3437702769
20
-24.4881549757
30
0.0000000000
11
-0.4316443962
21
-24.7201062637
31
0.0000000000
11
-0.4296831049
21
-24.6868592069
31
0.0000000000
11
-0.4238284429
21
-24.6523044313
31
0.0000000000
11
-0.4142519632
21
-24.6174006788
31
0.0000000000
11
-0.4010908300
21
-24.5826606075
31
0.0000000000
11
-0.3847474768
21
-24.5491465416
31
0.0000000000
11
-0.3654649110
21
-24.5173494342
31
0.0000000000
11
-0.3437702769
21
-24.4881549757
31
0.0000000000
0
SPLINE
5
3AD
100
AcDbEntity
8
0
100
AcDbSpline
62
0
6
CONTINUOUS
70
0
71
3
72
9
73
5
74
3
42
0.0000001000
43
0.0000001000
44
0.0000000001
12
-0.0220849486
22
0.0110448753
32
0.0000000000
13
-0.0241207855
23
0.0049542358
33
0.0000000000
40
0.0000000000
40
0.0000000000
40
0.0000000000
40
0.0000000000
40
0.0711334077
40
1.0000000000
40
1.0000000000
40
1.0000000000
40
1.0000000000
10
3.6612862429
20
-24.1889661373
30
0.0000000000
10
3.6607625837
20
-24.1887042508
30
0.0000000000
10
3.6533652981
20
-24.1850928645
30
0.0000000000
10
3.6454814299
20
-24.1824835664
30
0.0000000000
10
3.6380130993
20
-24.1809496250
30
0.0000000000
11
3.6612862429
21
-24.1889661373
31
0.0000000000
11
3.6597077334
21
-24.1881955409
31
0.0000000000
11
3.6380130993
21
-24.1809496250
31
0.0000000000
0
SPLINE
5
3AE
100
AcDbEntity
8
0
100
AcDbSpline
62
0
6
CONTINUOUS
70
0
71
3
72
12
73
8
74
6
42
0.0000001000
43
0.0000001000
44
0.0000000001
12
-0.1024460385
22
0.0512669789
32
0.0000000000
13
-0.1022335317
23
-0.0509823104
33
0.0000000000
40
0.0000000000
40
0.0000000000
40
0.0000000000
40
0.0000000000
40
0.0701707674
40
0.2818334567
40
0.5029641069
40
0.7418852029
40
1.0000000000
40
1.0000000000
40
1.0000000000
40
1.0000000000
10
-9.7030291229
20
24.1403238369
30
0.0000000000
10
-9.7054253620
20
24.1415229846
30
0.0000000000
10
-9.7152562572
20
24.1459238946
30
0.0000000000
10
-9.7340344436
20
24.1506332178
30
0.0000000000
10
-9.7598340814
20
24.1507189958
30
0.0000000000
10
-9.7867553089
20
24.1450191841
30
0.0000000000
10
-9.8043607326
20
24.1378001532
30
0.0000000000
10
-9.8131567283
20
24.1334137236
30
0.0000000000
11
-9.7030291229
21
24.1403238369
31
0.0000000000
11
-9.7103636042
21
24.1436052260
31
0.0000000000
11
-9.7337920915
21
24.1495885510
31
0.0000000000
11
-9.7590527129
21
24.1498595702
31
0.0000000000
11
-9.7857986276
21
24.1444149541
31
0.0000000000
11
-9.8131567283
21
24.1334137236
31
0.0000000000
0
SPLINE
5
3AF
100
AcDbEntity
8
0
100
AcDbSpline
62
0
6
CONTINUOUS
70
0
71
3
72
12
73
8
74
6
42
0.0000001000
43
0.0000001000
44
0.0000000001
12
-0.1024460385
22
0.0512669789
32
0.0000000000
13
-0.1022335317
23
-0.0509823104
33
0.0000000000
40
0.0000000000
40
0.0000000000
40
0.0000000000
40
0.0000000000
40
0.0701707674
40
0.2818334567
40
0.5029641069
40
0.7418852029
40
1.0000000000
40
1.0000000000
40
1.0000000000
40
1.0000000000
10
3.6612890415
20
17.4581647547
30
0.0000000000
10
3.6588928025
20
17.4593639024
30
0.0000000000
10
3.6490619073
20
17.4637648124
30
0.0000000000
10
3.6302837208
20
17.4684741356
30
0.0000000000
10
3.6044840830
20
17.4685599136
30
0.0000000000
10
3.5775628555
20
17.4628601019
30
0.0000000000
10
3.5599574318
20
17.4556410710
30
0.0000000000
10
3.5511614361
20
17.4512546414
30
0.0000000000
11
3.6612890415
21
17.4581647547
31
0.0000000000
11
3.6539545602
21
17.4614461438
31
0.0000000000
11
3.6305260729
21
17.4674294688
31
0.0000000000
11
3.6052654515
21
17.4677004880
31
0.0000000000
11
3.5785195369
21
17.4622558719
31
0.0000000000
11
3.5511614361
21
17.4512546414
31
0.0000000000
0
SPLINE
5
3B0
100
AcDbEntity
8
0
100
AcDbSpline
62
0
6
CONTINUOUS
70
0
71
3
72
8
73
4
74
2
42
0.0000001000
43
0.0000001000
44
0.0000000001
12
0.0002454748
22
0.0085435457
32
0.0000000000
13
-0.0053364816
23
0.0075239063
33
0.0000000000
40
0.0000000000
40
0.0000000000
40
0.0000000000
40
0.0000000000
40
1.0000000000
40
1.0000000000
40
1.0000000000
40
1.0000000000
10
8.8600097691
20
-17.9879033224
30
0.0000000000
10
8.8600915940
20
-17.9850554738
30
0.0000000000
10
8.8583522231
20
-17.9823310019
30
0.0000000000
10
8.8565733959
20
-17.9798230332
30
0.0000000000
11
8.8600097691
21
-17.9879033224
31
0.0000000000
11
8.8565733959
21
-17.9798230332
31
0.0000000000
0
SPLINE
5
3B1
100
AcDbEntity
8
0
100
AcDbSpline
62
0
6
CONTINUOUS
70
0
71
3
72
11
73
7
74
5
42
0.0000001000
43
0.0000001000
44
0.0000000001
12
-0.0663186737
22
0.0935027089
32
0.0000000000
13
-0.0863886430
23
0.0648670732
33
0.0000000000
40
0.0000000000
40
0.0000000000
40
0.0000000000
40
0.0000000000
40
0.1581044998
40
0.3820090898
40
0.6646809553
40
1.0000000000
40
1.0000000000
40
1.0000000000
40
1.0000000000
10
8.8565733959
20
-17.9798230332
30
0.0000000000
10
8.8530783023
20
-17.9748953002
30
0.0000000000
10
8.8442654830
20
-17.9650085045
30
0.0000000000
10
8.8263924239
20
-17.9486055801
30
0.0000000000
10
8.8031143597
20
-17.9293569342
30
0.0000000000
10
8.7854508900
20
-17.9157602541
30
0.0000000000
10
8.7757949709
20
-17.9085098658
30
0.0000000000
11
8.8565733959
21
-17.9798230332
31
0.0000000000
11
8.8455335028
21
-17.9667902092
31
0.0000000000
11
8.8278974531
21
-17.9502353972
31
0.0000000000
11
8.8044494649
21
-17.9306720885
31
0.0000000000
11
8.7757949709
21
-17.9085098658
31
0.0000000000
0
SPLINE
5
3B2
100
AcDbEntity
8
0
100
AcDbSpline
62
0
6
CONTINUOUS
70
0
71
3
72
11
73
7
74
5
42
0.0000001000
43
0.0000001000
44
0.0000000001
12
-0.1625542203
22
-0.0815700781
32
0.0000000000
13
-0.0905678769
23
-0.1567410448
33
0.0000000000
40
0.0000000000
40
0.0000000000
40
0.0000000000
40
0.0000000000
40
0.1162303016
40
0.3703269026
40
0.6635318032
40
1.0000000000
40
1.0000000000
40
1.0000000000
40
1.0000000000
10
-2.4126450810
20
25.2819363153
30
0.0000000000
10
-2.4189429897
20
25.2787760104
30
0.0000000000
10
-2.4382639397
20
25.2670960076
30
0.0000000000
10
-2.4678524867
20
25.2397633571
30
0.0000000000
10
-2.5007300400
20
25.1975833658
30
0.0000000000
10
-2.5208070588
20
25.1652670221
30
0.0000000000
10
-2.5309647955
20
25.1476875632
30
0.0000000000
11
-2.4126450810
21
25.2819363153
31
0.0000000000
11
-2.4307945602
21
25.2710921315
31
0.0000000000
11
-2.4652366327
21
25.2406034373
31
0.0000000000
11
-2.4983946977
21
25.1991573761
31
0.0000000000
11
-2.5309647955
21
25.1476875632
31
0.0000000000
0
SPLINE
5
3B3
100
AcDbEntity
8
0
100
AcDbSpline
62
0
6
CONTINUOUS
70
0
71
3
72
13
73
9
74
7
42
0.0000001000
43
0.0000001000
44
0.0000000001
12
-0.4098481622
22
0.2048837263
32
0.0000000000
13
-0.4109068760
23
-0.2010615886
33
0.0000000000
40
0.0000000000
40
0.0000000000
40
0.0000000000
40
0.0000000000
40
0.1007741613
40
0.2637740567
40
0.4330088062
40
0.6107502248
40
0.7994856200
40
1.0000000000
40
1.0000000000
40
1.0000000000
40
1.0000000000
10
0.8891802909
20
23.6834811973
30
0.0000000000
10
0.8754129226
20
23.6903635259
30
0.0000000000
10
0.8382708029
20
23.7061692557
30
0.0000000000
10
0.7737798467
20
23.7221151965
30
0.0000000000
10
0.6957285389
20
23.7265344141
30
0.0000000000
10
0.6142114247
20
23.7172853123
30
0.0000000000
10
0.5304791187
20
23.6946425630
30
0.0000000000
10
0.4755893513
20
23.6715811926
30
0.0000000000
10
0.4481251054
20
23.6581426127
30
0.0000000000
11
0.8891802909
21
23.6834811973
31
0.0000000000
11
0.8467199580
21
23.7015514073
31
0.0000000000
11
0.7743795963
21
23.7196335943
31
0.0000000000
11
0.6971033537
21
23.7243203123
31
0.0000000000
11
0.6162711984
21
23.7155208777
31
0.0000000000
11
0.5328284614
21
23.6933457879
31
0.0000000000
11
0.4481251054
21
23.6581426127
31
0.0000000000
0
SPLINE
5
3B4
100
AcDbEntity
8
0
100
AcDbSpline
62
0
6
CONTINUOUS
70
0
71
3
72
10
73
6
74
4
42
0.0000001000
43
0.0000001000
44
0.0000000001
12
-0.2344480368
22
0.1171946370
32
0.0000000000
13
-0.2568936911
23
0.0516051973
33
0.0000000000
40
0.0000000000
40
0.0000000000
40
0.0000000000
40
0.0000000000
40
0.3436557906
40
0.6870119842
40
1.0000000000
40
1.0000000000
40
1.0000000000
40
1.0000000000
10
8.3580071742
20
19.9490725905
30
0.0000000000
10
8.3311506990
20
19.9624974624
30
0.0000000000
10
8.2764814387
20
19.9873863160
30
0.0000000000
10
8.1941417940
20
20.0168537131
30
0.0000000000
10
8.1384981103
20
20.0310751023
30
0.0000000000
10
8.1116965614
20
20.0364590384
30
0.0000000000
11
8.3580071742
21
19.9490725905
31
0.0000000000
11
8.2759824184
21
19.9862350571
31
0.0000000000
11
8.1912032714
21
20.0163475696
31
0.0000000000
11
8.1116965614
21
20.0364590384
31
0.0000000000
0
SPLINE
5
3B5
100
AcDbEntity
8
0
100
AcDbSpline
62
0
6
CONTINUOUS
70
0
71
3
72
9
73
5
74
3
42
0.0000001000
43
0.0000001000
44
0.0000000001
12
0.0001767801
22
0.0054141286
32
0.0000000000
13
-0.0029429943
23
0.0049589549
33
0.0000000000
40
0.0000000000
40
0.0000000000
40
0.0000000000
40
0.0000000000
40
0.6316411435
40
1.0000000000
40
1.0000000000
40
1.0000000000
40
1.0000000000
10
8.8600631783
20
18.9469499477
30
0.0000000000
10
8.8601003988
20
18.9480898765
30
0.0000000000
10
8.8592745235
20
18.9501046542
30
0.0000000000
10
8.8583321960
20
18.9518349948
30
0.0000000000
10
8.8579708367
20
18.9524438865
30
0.0000000000
11
8.8600631783
21
18.9469499477
31
0.0000000000
11
8.8590106242
21
18.9505216275
31
0.0000000000
11
8.8579708367
21
18.9524438865
31
0.0000000000
0
SPLINE
5
3B6
100
AcDbEntity
8
0
100
AcDbSpline
62
0
6
CONTINUOUS
70
0
71
3
72
14
73
10
74
8
42
0.0000001000
43
0.0000001000
44
0.0000000001
12
-0.0566695584
22
0.0954883889
32
0.0000000000
13
-0.0880104637
23
0.0641532364
33
0.0000000000
40
0.0000000000
40
0.0000000000
40
0.0000000000
40
0.0000000000
40
0.0507979489
40
0.1496779943
40
0.2757326834
40
0.4265637239
40
0.5995479182
40
0.7917799682
40
1.0000000000
40
1.0000000000
40
1.0000000000
40
1.0000000000
10
8.8579708367
20
18.9524438865
30
0.0000000000
10
8.8570112709
20
18.9540607579
30
0.0000000000
10
8.8538879145
20
18.9582328950
30
0.0000000000
10
8.8469938121
20
18.9657298498
30
0.0000000000
10
8.8370801800
20
18.9750142698
30
0.0000000000
10
8.8246773051
20
18.9856800206
30
0.0000000000
10
8.8100964060
20
18.9974348230
30
0.0000000000
10
8.7935895504
20
19.0101256881
30
0.0000000000
10
8.7819034848
20
19.0187737458
30
0.0000000000
10
8.7757949709
20
19.0232264088
30
0.0000000000
11
8.8579708367
21
18.9524438865
31
0.0000000000
11
8.8548199533
21
18.9568808435
31
0.0000000000
11
8.8476132871
21
18.9648831413
31
0.0000000000
11
8.8376656975
21
18.9743447383
31
0.0000000000
11
8.8252399364
21
18.9850894650
31
0.0000000000
11
8.8105967556
21
18.9969433508
31
0.0000000000
11
8.7940132060
21
19.0097224370
31
0.0000000000
11
8.7757949709
21
19.0232264088
31
0.0000000000
0
SPLINE
5
3B7
100
AcDbEntity
8
0
100
AcDbSpline
62
0
6
CONTINUOUS
70
0
71
3
72
12
73
8
74
6
42
0.0000001000
43
0.0000001000
44
0.0000000001
12
-0.0001112880
22
-0.3027556084
32
0.0000000000
13
-0.1478565247
23
-0.2641316829
33
0.0000000000
40
0.0000000000
40
0.0000000000
40
0.0000000000
40
0.0000000000
40
0.1758487554
40
0.3770020419
40
0.5821736245
40
0.7902417506
40
1.0000000000
40
1.0000000000
40
1.0000000000
40
1.0000000000
10
8.8599933109
20
19.5231620686
30
0.0000000000
10
8.8599867876
20
19.5054156696
30
0.0000000000
10
8.8573582420
20
19.4673370852
30
0.0000000000
10
8.8464763499
20
19.4095005894
30
0.0000000000
10
8.8287117132
20
19.3500012630
30
0.0000000000
10
8.8052062027
20
19.2916171714
30
0.0000000000
10
8.7861330129
20
19.2539534960
30
0.0000000000
10
8.7757949709
20
19.2354855629
30
0.0000000000
11
8.8599933109
21
19.5231620686
31
0.0000000000
11
8.8565733959
21
19.4700289186
31
0.0000000000
11
8.8455335028
21
19.4101490767
31
0.0000000000
11
8.8278974531
21
19.3506003815
31
0.0000000000
11
8.8044494649
21
19.2921457514
31
0.0000000000
11
8.7757949709
21
19.2354855629
31
0.0000000000
0
SPLINE
5
3B8
100
AcDbEntity
8
0
100
AcDbSpline
62
0
6
CONTINUOUS
70
0
71
3
72
12
73
8
74
6
42
0.0000001000
43
0.0000001000
44
0.0000000001
12
-0.0000037860
22
-0.1438614601
32
0.0000000000
13
-0.1287763930
23
-0.0630118104
33
0.0000000000
40
0.0000000000
40
0.0000000000
40
0.0000000000
40
0.0000000000
40
0.1638187652
40
0.3390033906
40
0.5342164121
40
0.7541293018
40
1.0000000000
40
1.0000000000
40
1.0000000000
40
1.0000000000
10
-1.4500765087
20
23.1405726469
30
0.0000000000
10
-1.4500767155
20
23.1327169114
30
0.0000000000
10
-1.4527653973
20
23.1164590378
30
0.0000000000
10
-1.4643884002
20
23.0933674468
30
0.0000000000
10
-1.4829761782
20
23.0718535755
30
0.0000000000
10
-1.5079345721
20
23.0522521094
30
0.0000000000
10
-1.5273903604
20
23.0412741036
30
0.0000000000
10
-1.5379444743
20
23.0361098510
30
0.0000000000
11
-1.4500765087
21
23.1405726469
31
0.0000000000
11
-1.4537697609
21
23.1173787746
31
0.0000000000
11
-1.4647589141
21
23.0947949538
31
0.0000000000
11
-1.4827740596
21
23.0733771318
31
0.0000000000
11
-1.5073709244
21
23.0536537237
31
0.0000000000
11
-1.5379444743
21
23.0361098510
31
0.0000000000
0
SPLINE
5
3B9
100
AcDbEntity
8
0
100
AcDbSpline
62
0
6
CONTINUOUS
70
0
71
3
72
12
73
8
74
6
42
0.0000001000
43
0.0000001000
44
0.0000000001
12
-0.0000271067
22
-0.1424881500
32
0.0000000000
13
-0.1272561834
23
-0.0630046818
33
0.0000000000
40
0.0000000000
40
0.0000000000
40
0.0000000000
40
0.0000000000
40
0.1616494759
40
0.3374736946
40
0.5331965554
40
0.7535889118
40
1.0000000000
40
1.0000000000
40
1.0000000000
40
1.0000000000
10
4.1043869489
20
20.3633425543
30
0.0000000000
10
4.1043854883
20
20.3556648427
30
0.0000000000
10
4.1018001734
20
20.3396323616
30
0.0000000000
10
4.0904643202
20
20.3167266714
30
0.0000000000
10
4.0721340065
20
20.2952446864
30
0.0000000000
10
4.0474618744
20
20.2756498057
30
0.0000000000
10
4.0282020220
20
20.2646587793
30
0.0000000000
10
4.0177495771
20
20.2594837619
30
0.0000000000
11
4.1043869489
21
20.3633425543
31
0.0000000000
11
4.1008557640
21
20.3406579300
31
0.0000000000
11
4.0900797623
21
20.3181363323
31
0.0000000000
11
4.0723204505
21
20.2967581299
31
0.0000000000
11
4.0480125484
21
20.2770468552
31
0.0000000000
11
4.0177495771
21
20.2594837619
31
0.0000000000
0
SPLINE
5
3BA
100
AcDbEntity
8
0
100
AcDbSpline
62
0
6
CONTINUOUS
70
0
71
3
72
13
73
9
74
7
42
0.0000001000
43
0.0000001000
44
0.0000000001
12
-0.0000199727
22
-0.1454202046
32
0.0000000000
13
0.1296323661
23
-0.0648161831
33
0.0000000000
40
0.0000000000
40
0.0000000000
40
0.0000000000
40
0.0000000000
40
0.0030152475
40
0.1674532572
40
0.3429528197
40
0.5377595388
40
0.7563608844
40
1.0000000000
40
1.0000000000
40
1.0000000000
40
1.0000000000
10
-8.1990221998
20
21.5429841700
30
0.0000000000
10
-8.1990222199
20
21.5428380107
30
0.0000000000
10
-8.1989993403
20
21.5347209975
30
0.0000000000
10
-8.1962157540
20
21.5181129639
30
0.0000000000
10
-8.1845661770
20
21.4947033772
30
0.0000000000
10
-8.1659988440
20
21.4728580217
30
0.0000000000
10
-8.1411012507
20
21.4529308963
30
0.0000000000
10
-8.1216821089
20
21.4417410557
30
0.0000000000
10
-8.1111542705
20
21.4364771365
30
0.0000000000
11
-8.1990221998
21
21.5429841700
31
0.0000000000
11
-8.1990209627
21
21.5425456952
31
0.0000000000
11
-8.1952182703
21
21.5190184690
31
0.0000000000
11
-8.1841764100
21
21.4961044005
31
0.0000000000
11
-8.1661647876
21
21.4743618126
31
0.0000000000
11
-8.1416243168
21
21.4543229850
31
0.0000000000
11
-8.1111542705
21
21.4364771365
31
0.0000000000
0
SPLINE
5
3BB
100
AcDbEntity
8
0
100
AcDbSpline
62
0
6
CONTINUOUS
70
0
71
3
72
12
73
8
74
6
42
0.0000001000
43
0.0000001000
44
0.0000000001
12
-0.1462308253
22
0.0731154127
32
0.0000000000
13
-0.1459964177
23
-0.0745957438
33
0.0000000000
40
0.0000000000
40
0.0000000000
40
0.0000000000
40
0.0000000000
40
0.2553591691
40
0.4911746382
40
0.7106351586
40
0.9194242855
40
1.0000000000
40
1.0000000000
40
1.0000000000
40
1.0000000000
10
-13.9123131451
20
22.0501050022
30
0.0000000000
10
-13.9247602724
20
22.0563285658
30
0.0000000000
10
-13.9496457989
20
22.0665673614
30
0.0000000000
10
-13.9877470444
20
22.0747209593
30
0.0000000000
10
-14.0242477622
20
22.0747249679
30
0.0000000000
10
-14.0514616360
20
22.0680346554
30
0.0000000000
10
-14.0659017221
20
22.0615432178
30
0.0000000000
10
-14.0698229773
20
22.0595396827
30
0.0000000000
11
-13.9123131451
21
22.0501050022
31
0.0000000000
11
-13.9510276857
21
22.0657305537
31
0.0000000000
11
-13.9887887975
21
22.0735079147
31
0.0000000000
11
-14.0246676659
21
22.0732456079
31
0.0000000000
11
-14.0577794841
21
22.0649500692
31
0.0000000000
11
-14.0698229773
21
22.0595396827
31
0.0000000000
0
SPLINE
5
3BC
100
AcDbEntity
8
0
100
AcDbSpline
62
0
6
CONTINUOUS
70
0
71
3
72
17
73
13
74
11
42
0.0000001000
43
0.0000001000
44
0.0000000001
12
0.0000000000
22
0.5152490307
32
0.0000000000
13
-0.4608527432
23
0.2304263716
33
0.0000000000
40
0.0000000000
40
0.0000000000
40
0.0000000000
40
0.0000000000
40
0.0951726438
40
0.1952932407
40
0.2990931070
40
0.4050821278
40
0.5116639643
40
0.6171967785
40
0.7200955718
40
0.8189336013
40
0.9125145547
40
1.0000000000
40
1.0000000000
40
1.0000000000
40
1.0000000000
10
1.6086807020
20
13.9864876454
30
0.0000000000
10
1.6086807020
20
14.0028335162
30
0.0000000000
10
1.6064751281
20
14.0364000089
30
0.0000000000
10
1.5973102905
20
14.0870395045
30
0.0000000000
10
1.5824205431
20
14.1382372594
30
0.0000000000
10
1.5621672351
20
14.1887489154
30
0.0000000000
10
1.5370409034
20
14.2373564625
30
0.0000000000
10
1.5076491904
20
14.2828825730
30
0.0000000000
10
1.4747029770
20
14.3242259342
30
0.0000000000
10
1.4389886052
20
14.3603912285
30
0.0000000000
10
1.4013679586
20
14.3905009526
30
0.0000000000
10
1.3746326310
20
14.4066321141
30
0.0000000000
10
1.3611933285
20
14.4133517653
30
0.0000000000
11
1.6086807020
21
13.9864876454
31
0.0000000000
11
1.6056336150
21
14.0354304968
31
0.0000000000
11
1.5965675316
21
14.0862146368
31
0.0000000000
11
1.5817054176
21
14.1375909482
31
0.0000000000
11
1.5614140583
21
14.1882919708
31
0.0000000000
11
1.5361914019
21
14.2370731690
31
0.0000000000
11
1.5066596675
21
14.2827304934
31
0.0000000000
11
1.4735478493
21
14.3241378503
31
0.0000000000
11
1.4376689810
21
14.3602790255
31
0.0000000000
11
1.3999078692
21
14.3902627762
31
0.0000000000
11
1.3611933285
21
14.4133517653
31
0.0000000000
0
SPLINE
5
3BD
100
AcDbEntity
8
0
100
AcDbSpline
62
0
6
CONTINUOUS
70
0
71
3
72
17
73
13
74
11
42
0.0000001000
43
0.0000001000
44
0.0000000001
12
0.0000000000
22
0.5152490286
32
0.0000000000
13
-0.4608527413
23
0.2304263707
33
0.0000000000
40
0.0000000000
40
0.0000000000
40
0.0000000000
40
0.0000000000
40
0.0951686493
40
0.1952865842
40
0.2990826087
40
0.4050717387
40
0.5116494140
40
0.6171798582
40
0.7200829815
40
0.8189239543
40
0.9125100339
40
1.0000000000
40
1.0000000000
40
1.0000000000
40
1.0000000000
10
3.3764476549
20
14.8892653449
30
0.0000000000
10
3.3764476549
20
14.9056105296
30
0.0000000000
10
3.3742422481
20
14.9391758762
30
0.0000000000
10
3.3650780287
20
14.9898136453
30
0.0000000000
10
3.3501890207
20
15.0410104623
30
0.0000000000
10
3.3299366987
20
15.0915210530
30
0.0000000000
10
3.3048114219
20
15.1401278933
30
0.0000000000
10
3.2754205785
20
15.1856541070
30
0.0000000000
10
3.2424744474
20
15.2269986203
30
0.0000000000
10
3.2067590302
20
15.2631658838
30
0.0000000000
10
3.1691369751
20
15.2932773314
30
0.0000000000
10
3.1424002784
20
15.3094094664
30
0.0000000000
10
3.1289602815
20
15.3161294648
30
0.0000000000
11
3.3764476549
21
14.8892653449
31
0.0000000000
11
3.3734008166
21
14.9382061494
31
0.0000000000
11
3.3643352680
21
14.9889889914
31
0.0000000000
11
3.3494741345
21
15.0403635256
31
0.0000000000
11
3.3291832416
21
15.0910647952
31
0.0000000000
11
3.3039621206
21
15.1398443734
31
0.0000000000
11
3.2744317198
21
15.1855011056
31
0.0000000000
11
3.2413191213
21
15.2269106950
31
0.0000000000
11
3.2054396394
21
15.2630533976
31
0.0000000000
11
3.1676767402
21
15.2930391446
31
0.0000000000
11
3.1289602815
21
15.3161294648
31
0.0000000000
0
SPLINE
5
3BE
100
AcDbEntity
8
0
100
AcDbSpline
62
0
6
CONTINUOUS
70
0
71
3
72
13
73
9
74
7
42
0.0000001000
43
0.0000001000
44
0.0000000001
12
0.0000000000
22
-0.2196500159
32
0.0000000000
13
-0.1961404309
23
-0.1002301717
33
0.0000000000
40
0.0000000000
40
0.0000000000
40
0.0000000000
40
0.0000000000
40
0.2094012719
40
0.4037602127
40
0.5832359259
40
0.7496749212
40
0.9067994324
40
1.0000000000
40
1.0000000000
40
1.0000000000
40
1.0000000000
10
3.3764476549
20
-23.3024318782
30
0.0000000000
10
3.3764476549
20
-23.3177635424
30
0.0000000000
10
3.3746251788
20
-23.3473759699
30
0.0000000000
10
3.3657818784
20
-23.3893278573
30
0.0000000000
10
3.3510619948
20
-23.4262900094
30
0.0000000000
10
3.3306976032
20
-23.4573265716
30
0.0000000000
10
3.3082896946
20
-23.4784918576
30
0.0000000000
10
3.2925700857
20
-23.4881261476
30
0.0000000000
10
3.2864766192
20
-23.4912399839
30
0.0000000000
11
3.3764476549
21
-23.3024318782
31
0.0000000000
11
3.3734008166
21
-23.3483258444
31
0.0000000000
11
3.3643352680
21
-23.3900431377
31
0.0000000000
11
3.3494741345
21
-23.4265565385
31
0.0000000000
11
3.3291832416
21
-23.4569669152
31
0.0000000000
11
3.3039621206
21
-23.4805253723
31
0.0000000000
11
3.2864766192
21
-23.4912399839
31
0.0000000000
0
SPLINE
5
3BF
100
AcDbEntity
8
0
100
AcDbSpline
62
0
6
CONTINUOUS
70
0
71
3
72
13
73
9
74
7
42
0.0000001000
43
0.0000001000
44
0.0000000001
12
0.0122396445
22
-0.1150171961
32
0.0000000000
13
-0.1041816895
23
-0.0511598424
33
0.0000000000
40
0.0000000000
40
0.0000000000
40
0.0000000000
40
0.0000000000
40
0.2388705532
40
0.4538277329
40
0.6452743789
40
0.8198572347
40
0.9849909277
40
1.0000000000
40
1.0000000000
40
1.0000000000
40
1.0000000000
10
0.1160854754
20
-9.0035852645
30
0.0000000000
10
0.1170600389
20
-9.0127433382
30
0.0000000000
10
0.1177602832
20
-9.0303058861
30
0.0000000000
10
0.1145271562
20
-9.0551182906
30
0.0000000000
10
0.1069560225
20
-9.0764225196
30
0.0000000000
10
0.0950966908
20
-9.0934797273
30
0.0000000000
10
0.0839950081
20
-9.1018765695
30
0.0000000000
10
0.0777838905
20
-9.1050398387
30
0.0000000000
10
0.0772626670
20
-9.1052957927
30
0.0000000000
11
0.1160854754
21
-9.0035852645
31
0.0000000000
11
0.1169732255
21
-9.0312003455
31
0.0000000000
11
0.1134973952
21
-9.0558195589
31
0.0000000000
11
0.1058054622
21
-9.0765846788
31
0.0000000000
11
0.0940809856
21
-9.0930257957
31
0.0000000000
11
0.0788149024
21
-9.1045050837
31
0.0000000000
11
0.0772626670
21
-9.1052957927
31
0.0000000000
0
SPLINE
5
3C0
100
AcDbEntity
8
0
100
AcDbSpline
62
0
6
CONTINUOUS
70
0
71
3
72
17
73
13
74
11
42
0.0000001000
43
0.0000001000
44
0.0000000001
12
0.3895861697
22
-0.1947930849
32
0.0000000000
13
0.3893834854
23
0.1951979274
33
0.0000000000
40
0.0000000000
40
0.0000000000
40
0.0000000000
40
0.0000000000
40
0.0890005659
40
0.1849499553
40
0.2864563904
40
0.3918366128
40
0.4992385642
40
0.6067076896
40
0.7122861312
40
0.8141130460
40
0.9104892925
40
1.0000000000
40
1.0000000000
40
1.0000000000
40
1.0000000000
10
-2.3186452025
20
18.5402226025
30
0.0000000000
10
-2.3070874059
20
18.5344437043
30
0.0000000000
10
-2.2822732680
20
18.5239945890
30
0.0000000000
10
-2.2424015093
20
18.5119499918
30
0.0000000000
10
-2.1992608178
20
18.5031601139
30
0.0000000000
10
-2.1538898004
20
18.4978401601
30
0.0000000000
10
-2.1073762292
20
18.4961183848
30
0.0000000000
10
-2.0608416648
20
18.4980374107
30
0.0000000000
10
-2.0154082242
20
18.5035499951
30
0.0000000000
10
-1.9721656493
20
18.5125232733
30
0.0000000000
10
-1.9321553842
20
18.5247376139
30
0.0000000000
10
-1.9072368480
20
18.5352859553
30
0.0000000000
10
-1.8956188509
20
18.5411100568
30
0.0000000000
11
-2.3186452025
21
18.5402226025
31
0.0000000000
11
-2.2829904484
21
18.5250060508
31
0.0000000000
11
-2.2430227179
21
18.5127907778
31
0.0000000000
11
-2.1997177662
21
18.5038750786
31
0.0000000000
11
-2.1541357402
21
18.4984772040
31
0.0000000000
11
-2.1073872917
21
18.4967288597
31
0.0000000000
11
-2.0606172996
21
18.4986731784
31
0.0000000000
11
-2.0149713422
21
18.5042622871
31
0.0000000000
11
-1.9715616040
21
18.5133598822
31
0.0000000000
11
-1.9314510127
21
18.5257432643
31
0.0000000000
11
-1.8956188509
21
18.5411100568
31
0.0000000000
0
SPLINE
5
3C1
100
AcDbEntity
8
0
100
AcDbSpline
62
0
6
CONTINUOUS
70
0
71
3
72
17
73
13
74
11
42
0.0000001000
43
0.0000001000
44
0.0000000001
12
-0.3889091088
22
-0.1963377245
32
0.0000000000
13
-0.3896652892
23
0.1948326446
33
0.0000000000
40
0.0000000000
40
0.0000000000
40
0.0000000000
40
0.0000000000
40
0.0896005383
40
0.1860363505
40
0.2878952112
40
0.3934811365
40
0.5009374680
40
0.6083108940
40
0.7136525634
40
0.8151165594
40
0.9110269511
40
1.0000000000
40
1.0000000000
40
1.0000000000
40
1.0000000000
10
-1.8956188509
20
17.3269065840
30
0.0000000000
10
-1.9072343394
20
17.3210425954
30
0.0000000000
10
-1.9321485530
20
17.3104140123
30
0.0000000000
10
-1.9721602732
20
17.2980846111
30
0.0000000000
10
-2.0154042679
20
17.2890023856
30
0.0000000000
10
-2.0608390040
20
17.2833895113
30
0.0000000000
10
-2.1073746700
20
17.2813811778
30
0.0000000000
10
-2.1538891946
20
17.2830267233
30
0.0000000000
10
-2.1992610670
20
17.2882853280
30
0.0000000000
10
-2.2424026836
20
17.2970302468
30
0.0000000000
10
-2.2822755164
20
17.3090474106
30
0.0000000000
10
-2.3070886329
20
17.3194894516
30
0.0000000000
10
-2.3186452025
20
17.3252677364
30
0.0000000000
11
-1.8956188509
21
17.3269065840
31
0.0000000000
11
-1.9314514795
21
17.3114218773
31
0.0000000000
11
-1.9715625510
21
17.2989236652
31
0.0000000000
11
-2.0149727469
21
17.2897171138
31
0.0000000000
11
-2.0606189937
21
17.2840275872
31
0.0000000000
11
-2.1073891170
21
17.2819937975
31
0.0000000000
11
-2.1541374305
21
17.2836657729
31
0.0000000000
11
-2.1997191646
21
17.2890022124
31
0.0000000000
11
-2.2430236582
21
17.2978728679
31
0.0000000000
11
-2.2829909106
21
17.3100605883
31
0.0000000000
11
-2.3186452025
21
17.3252677364
31
0.0000000000
0
SPLINE
5
3C2
100
AcDbEntity
8
0
100
AcDbSpline
62
0
6
CONTINUOUS
70
0
71
3
72
13
73
9
74
7
42
0.0000001000
43
0.0000001000
44
0.0000000001
12
-0.1298016753
22
0.0649008377
32
0.0000000000
13
0.0000186465
23
0.1456076944
33
0.0000000000
40
0.0000000000
40
0.0000000000
40
0.0000000000
40
0.0000000000
40
0.2433506852
40
0.4617848989
40
0.6565755890
40
0.8322279170
40
0.9969716939
40
1.0000000000
40
1.0000000000
40
1.0000000000
40
1.0000000000
10
-8.1111542705
20
20.2215222705
30
0.0000000000
10
-8.1216833794
20
20.2267868249
30
0.0000000000
10
-8.1411067153
20
20.2379848265
30
0.0000000000
10
-8.1660058170
20
20.2579412928
30
0.0000000000
10
-8.1845731274
20
20.2798347070
30
0.0000000000
10
-8.1962193545
20
20.3033078682
30
0.0000000000
10
-8.1989992343
20
20.3199607212
30
0.0000000000
10
-8.1990222222
20
20.3281036778
30
0.0000000000
10
-8.1990222034
20
20.3282506594
30
0.0000000000
11
-8.1111542705
21
20.2215222705
31
0.0000000000
11
-8.1416239806
21
20.2393771233
31
0.0000000000
11
-8.1661643071
21
20.2594431924
31
0.0000000000
11
-8.1841759530
21
20.2812306066
31
0.0000000000
11
-8.1952179985
21
20.3042060569
31
0.0000000000
11
-8.1990209573
21
20.3278097176
31
0.0000000000
11
-8.1990222034
21
20.3282506594
31
0.0000000000
0
SPLINE
5
3C3
100
AcDbEntity
8
0
100
AcDbSpline
62
0
6
CONTINUOUS
70
0
71
3
72
12
73
8
74
6
42
0.0000001000
43
0.0000001000
44
0.0000000001
12
0.1274265362
22
0.0635456794
32
0.0000000000
13
0.0000255395
23
0.1428803290
33
0.0000000000
40
0.0000000000
40
0.0000000000
40
0.0000000000
40
0.0000000000
40
0.2461437340
40
0.4664340245
40
0.6622044411
40
0.8381796843
40
1.0000000000
40
1.0000000000
40
1.0000000000
40
1.0000000000
10
4.0177495771
20
21.4913223403
30
0.0000000000
10
4.0282046582
20
21.4965361306
30
0.0000000000
10
4.0474701522
20
21.5076056210
30
0.0000000000
10
4.0721412276
20
21.5273168595
30
0.0000000000
10
4.0904684997
20
21.5489089216
30
0.0000000000
10
4.1018001874
20
21.5719126928
30
0.0000000000
10
4.1043855757
20
21.5880041818
30
0.0000000000
10
4.1043869533
20
21.5957111618
30
0.0000000000
11
4.0177495771
21
21.4913223403
31
0.0000000000
11
4.0480122130
21
21.5090029467
31
0.0000000000
11
4.0723199735
21
21.5288287405
31
0.0000000000
11
4.0900793122
21
21.5503156838
31
0.0000000000
11
4.1008555017
21
21.5729376485
31
0.0000000000
11
4.1043869533
21
21.5957111618
31
0.0000000000
0
SPLINE
5
3C4
100
AcDbEntity
8
0
100
AcDbSpline
62
0
6
CONTINUOUS
70
0
71
3
72
12
73
8
74
6
42
0.0000001000
43
0.0000001000
44
0.0000000001
12
0.1289494975
22
0.0635559375
32
0.0000000000
13
0.0000024649
23
0.1442557351
33
0.0000000000
40
0.0000000000
40
0.0000000000
40
0.0000000000
40
0.0000000000
40
0.2456022684
40
0.4654114574
40
0.6606705777
40
0.8360059861
40
1.0000000000
40
1.0000000000
40
1.0000000000
40
1.0000000000
10
-1.5379444743
20
24.2679440324
30
0.0000000000
10
-1.5273877113
20
24.2731471932
30
0.0000000000
10
-1.5079262291
20
24.2842039587
30
0.0000000000
10
-1.4829688496
20
24.3039223591
30
0.0000000000
10
-1.4643840809
20
24.3255469719
30
0.0000000000
10
-1.4527653216
20
24.3487379158
30
0.0000000000
10
-1.4500766434
20
24.3650555567
30
0.0000000000
10
-1.4500765087
20
24.3729412490
30
0.0000000000
11
-1.5379444743
21
24.2679440324
31
0.0000000000
11
-1.5073712626
21
24.2856059089
31
0.0000000000
11
-1.4827745421
21
24.3054443994
31
0.0000000000
11
-1.4647593715
21
24.3269715641
31
0.0000000000
11
-1.4537700303
21
24.3496563583
31
0.0000000000
11
-1.4500765087
21
24.3729412490
31
0.0000000000
0
SPLINE
5
3C5
100
AcDbEntity
8
0
100
AcDbSpline
62
0
6
CONTINUOUS
70
0
71
3
72
13
73
9
74
7
42
0.0000001000
43
0.0000001000
44
0.0000000001
12
0.1998406808
22
0.0978572385
32
0.0000000000
13
0.0000000000
23
0.2218990679
33
0.0000000000
40
0.0000000000
40
0.0000000000
40
0.0000000000
40
0.0000000000
40
0.1023705749
40
0.2579078719
40
0.4226584216
40
0.6003200547
40
0.7927129486
40
1.0000000000
40
1.0000000000
40
1.0000000000
40
1.0000000000
10
1.5166926945
20
-24.3572383297
30
0.0000000000
10
1.5235119630
20
-24.3538990958
30
0.0000000000
10
1.5399699787
20
-24.3440027073
30
0.0000000000
10
1.5629281339
20
-24.3223189274
30
0.0000000000
10
1.5832935547
20
-24.2912822525
30
0.0000000000
10
1.5980141991
20
-24.2543197864
30
0.0000000000
10
1.6068580997
20
-24.2123667244
30
0.0000000000
10
1.6086807020
20
-24.1827533995
30
0.0000000000
10
1.6086807020
20
-24.1674211317
30
0.0000000000
11
1.5166926945
21
-24.3572383297
31
0.0000000000
11
1.5361914019
21
-24.3455173552
31
0.0000000000
11
1.5614140583
21
-24.3219588134
31
0.0000000000
11
1.5817054176
21
-24.2915491501
31
0.0000000000
11
1.5965675316
21
-24.2550349527
31
0.0000000000
11
1.6056336150
21
-24.2133168961
31
0.0000000000
11
1.6086807020
21
-24.1674211317
31
0.0000000000
0
SPLINE
5
3C6
100
AcDbEntity
8
0
100
AcDbSpline
62
0
6
CONTINUOUS
70
0
71
3
72
11
73
7
74
5
42
0.0000001000
43
0.0000001000
44
0.0000000001
12
-0.4351467956
22
0.0874129533
32
0.0000000000
13
-0.4398144642
23
-0.0596405499
33
0.0000000000
40
0.0000000000
40
0.0000000000
40
0.0000000000
40
0.0000000000
40
0.2406426210
40
0.4887663275
40
0.7423989614
40
1.0000000000
40
1.0000000000
40
1.0000000000
40
1.0000000000
10
8.1116965614
20
20.0364590384
30
0.0000000000
10
8.0767916063
20
20.0434707991
30
0.0000000000
10
8.0051764248
20
20.0542898088
30
0.0000000000
10
7.8954528877
20
20.0613854074
30
0.0000000000
10
7.7830083830
20
20.0595837580
30
0.0000000000
10
7.7076212478
20
20.0523984745
30
0.0000000000
10
7.6698556935
20
20.0472773187
30
0.0000000000
11
8.1116965614
21
20.0364590384
31
0.0000000000
11
8.0061216765
21
20.0526340131
31
0.0000000000
11
7.8962324116
21
20.0598689151
31
0.0000000000
11
7.7836736939
21
20.0581231803
31
0.0000000000
11
7.6698556935
21
20.0472773187
31
0.0000000000
0
SPLINE
5
3C7
100
AcDbEntity
8
0
100
AcDbSpline
62
0
6
CONTINUOUS
70
0
71
3
72
9
73
5
74
3
42
0.0000001000
43
0.0000001000
44
0.0000000001
12
-0.0241207860
22
0.0049542359
32
0.0000000000
13
-0.0220849478
23
0.0110448753
33
0.0000000000
40
0.0000000000
40
0.0000000000
40
0.0000000000
40
0.0000000000
40
0.9288596728
40
1.0000000000
40
1.0000000000
40
1.0000000000
40
1.0000000000
10
3.1107683836
20
-24.0726573530
30
0.0000000000
10
3.1033001085
20
-24.0711234230
30
0.0000000000
10
3.0954162393
20
-24.0685141324
30
0.0000000000
10
3.0880189504
20
-24.0649027528
30
0.0000000000
10
3.0874952403
20
-24.0646408408
30
0.0000000000
11
3.1107683836
21
-24.0726573530
31
0.0000000000
11
3.0890739041
21
-24.0654115107
31
0.0000000000
11
3.0874952403
21
-24.0646408408
31
0.0000000000
0
SPLINE
5
3C8
100
AcDbEntity
8
0
100
AcDbSpline
62
0
6
CONTINUOUS
70
0
71
3
72
17
73
13
74
11
42
0.0000001000
43
0.0000001000
44
0.0000000001
12
-0.3281832376
22
-0.1645182454
32
0.0000000000
13
0.0000000000
23
-0.3671110057
33
0.0000000000
40
0.0000000000
40
0.0000000000
40
0.0000000000
40
0.0000000000
40
0.0877988990
40
0.1818695997
40
0.2805570128
40
0.3837432653
40
0.4891441471
40
0.5955191608
40
0.7015876633
40
0.8048773159
40
0.9050482431
40
1.0000000000
40
1.0000000000
40
1.0000000000
40
1.0000000000
10
1.4216134735
20
16.3850938179
30
0.0000000000
10
1.4120087645
20
16.3802789776
30
0.0000000000
10
1.3928783186
20
16.3687336029
30
0.0000000000
10
1.3659959400
20
16.3472504484
30
0.0000000000
10
1.3404622582
20
16.3214630323
30
0.0000000000
10
1.3169417353
20
16.2920421708
30
0.0000000000
10
1.2959550810
20
16.2596420282
30
0.0000000000
10
1.2780174353
20
16.2250634812
30
0.0000000000
10
1.2635754490
20
16.1891623667
30
0.0000000000
10
1.2529493070
20
16.1527381088
30
0.0000000000
10
1.2464147081
20
16.1167425883
30
0.0000000000
10
1.2448427441
20
16.0928475180
30
0.0000000000
10
1.2448427441
20
16.0812282396
30
0.0000000000
11
1.4216134735
21
16.3850938179
31
0.0000000000
11
1.3939351803
21
16.3685768514
31
0.0000000000
11
1.3668762382
21
16.3471190391
31
0.0000000000
11
1.3413199728
21
16.3214395764
31
0.0000000000
11
1.3176172844
21
16.2918906636
31
0.0000000000
11
1.2965549042
21
16.2594316413
31
0.0000000000
11
1.2785697554
21
16.2247682708
31
0.0000000000
11
1.2640615523
21
16.1886330924
31
0.0000000000
11
1.2534941387
21
16.1522165748
31
0.0000000000
11
1.2470122258
21
16.1160184970
31
0.0000000000
11
1.2448427441
21
16.0812282396
31
0.0000000000
0
SPLINE
5
3C9
100
AcDbEntity
8
0
100
AcDbSpline
62
0
6
CONTINUOUS
70
0
71
3
72
13
73
9
74
7
42
0.0000001000
43
0.0000001000
44
0.0000000001
12
0.0000000000
22
-0.1580771600
32
0.0000000000
13
0.1417682681
23
-0.0708992473
33
0.0000000000
40
0.0000000000
40
0.0000000000
40
0.0000000000
40
0.0000000000
40
0.1982397194
40
0.3834113548
40
0.5546239440
40
0.7146143823
40
0.8649759067
40
1.0000000000
40
1.0000000000
40
1.0000000000
40
1.0000000000
10
1.2448427441
20
15.7412543055
30
0.0000000000
10
1.2448427441
20
15.7308085815
30
0.0000000000
10
1.2460384814
20
15.7105747337
30
0.0000000000
10
1.2518143125
20
15.6818191103
30
0.0000000000
10
1.2614344154
20
15.6562208517
30
0.0000000000
10
1.2747329387
20
15.6344070840
30
0.0000000000
10
1.2911094172
20
15.6173110809
30
0.0000000000
10
1.3038190887
20
15.6090351081
30
0.0000000000
10
1.3101997993
20
15.6058440726
30
0.0000000000
11
1.2448427441
21
15.7412543055
31
0.0000000000
11
1.2468269898
21
15.7099800172
31
0.0000000000
11
1.2527501734
21
15.6813141644
31
0.0000000000
11
1.2624387338
21
15.6560429319
31
0.0000000000
11
1.2757539016
21
15.6345410111
31
0.0000000000
11
1.2922885333
21
15.6174659377
31
0.0000000000
11
1.3101997993
21
15.6058440726
31
0.0000000000
0
SPLINE
5
3CA
100
AcDbEntity
8
0
100
AcDbSpline
62
0
6
CONTINUOUS
70
0
71
3
72
17
73
13
74
11
42
0.0000001000
43
0.0000001000
44
0.0000000001
12
-0.3281832376
22
-0.1645182454
32
0.0000000000
13
0.0000000000
23
-0.3671110057
33
0.0000000000
40
0.0000000000
40
0.0000000000
40
0.0000000000
40
0.0000000000
40
0.0877988990
40
0.1818695997
40
0.2805570128
40
0.3837432653
40
0.4891441471
40
0.5955191608
40
0.7015876633
40
0.8048773159
40
0.9050482431
40
1.0000000000
40
1.0000000000
40
1.0000000000
40
1.0000000000
10
-11.9427046909
20
23.0672529001
30
0.0000000000
10
-11.9523093999
20
23.0624380598
30
0.0000000000
10
-11.9714398459
20
23.0508926851
30
0.0000000000
10
-11.9983222245
20
23.0294095306
30
0.0000000000
10
-12.0238559062
20
23.0036221145
30
0.0000000000
10
-12.0473764292
20
22.9742012530
30
0.0000000000
10
-12.0683630835
20
22.9418011104
30
0.0000000000
10
-12.0863007291
20
22.9072225634
30
0.0000000000
10
-12.1007427154
20
22.8713214490
30
0.0000000000
10
-12.1113688574
20
22.8348971910
30
0.0000000000
10
-12.1179034563
20
22.7989016705
30
0.0000000000
10
-12.1194754203
20
22.7750066002
30
0.0000000000
10
-12.1194754203
20
22.7633873218
30
0.0000000000
11
-11.9427046909
21
23.0672529001
31
0.0000000000
11
-11.9703829841
21
23.0507359336
31
0.0000000000
11
-11.9974419263
21
23.0292781213
31
0.0000000000
11
-12.0229981916
21
23.0035986587
31
0.0000000000
11
-12.0467008801
21
22.9740497459
31
0.0000000000
11
-12.0677632602
21
22.9415907235
31
0.0000000000
11
-12.0857484091
21
22.9069273530
31
0.0000000000
11
-12.1002566121
21
22.8707921746
31
0.0000000000
11
-12.1108240258
21
22.8343756570
31
0.0000000000
11
-12.1173059387
21
22.7981775792
31
0.0000000000
11
-12.1194754203
21
22.7633873218
31
0.0000000000
0
SPLINE
5
3CB
100
AcDbEntity
8
0
100
AcDbSpline
62
0
6
CONTINUOUS
70
0
71
3
72
13
73
9
74
7
42
0.0000001000
43
0.0000001000
44
0.0000000001
12
0.0000000000
22
-0.1580771600
32
0.0000000000
13
0.1417682681
23
-0.0708992473
33
0.0000000000
40
0.0000000000
40
0.0000000000
40
0.0000000000
40
0.0000000000
40
0.1982397194
40
0.3834113548
40
0.5546239440
40
0.7146143823
40
0.8649759067
40
1.0000000000
40
1.0000000000
40
1.0000000000
40
1.0000000000
10
-12.1194754203
20
22.4234133877
30
0.0000000000
10
-12.1194754203
20
22.4129676638
30
0.0000000000
10
-12.1182796830
20
22.3927338159
30
0.0000000000
10
-12.1125038519
20
22.3639781925
30
0.0000000000
10
-12.1028837490
20
22.3383799339
30
0.0000000000
10
-12.0895852258
20
22.3165661662
30
0.0000000000
10
-12.0732087473
20
22.2994701631
30
0.0000000000
10
-12.0604990757
20
22.2911941903
30
0.0000000000
10
-12.0541183651
20
22.2880031548
30
0.0000000000
11
-12.1194754203
21
22.4234133877
31
0.0000000000
11
-12.1174911746
21
22.3921390994
31
0.0000000000
11
-12.1115679910
21
22.3634732466
31
0.0000000000
11
-12.1018794306
21
22.3382020141
31
0.0000000000
11
-12.0885642628
21
22.3167000934
31
0.0000000000
11
-12.0720296311
21
22.2996250199
31
0.0000000000
11
-12.0541183651
21
22.2880031548
31
0.0000000000
0
SPLINE
5
3CC
100
AcDbEntity
8
0
100
AcDbSpline
62
0
6
CONTINUOUS
70
0
71
3
72
13
73
9
74
7
42
0.0000001000
43
0.0000001000
44
0.0000000001
12
0.0000000000
22
-0.1580496594
32
0.0000000000
13
0.1417254613
23
-0.0709202235
33
0.0000000000
40
0.0000000000
40
0.0000000000
40
0.0000000000
40
0.0000000000
40
0.2070101272
40
0.3999125266
40
0.5773183208
40
0.7429756756
40
0.8990662596
40
1.0000000000
40
1.0000000000
40
1.0000000000
40
1.0000000000
10
1.2448427441
20
-25.8983237680
30
0.0000000000
10
1.2448427441
20
-25.9092297280
30
0.0000000000
10
1.2461441031
20
-25.9303341728
30
0.0000000000
10
1.2524525416
20
-25.9602133582
30
0.0000000000
10
1.2629614651
20
-25.9865943980
30
0.0000000000
10
1.2774807393
20
-26.0087666054
30
0.0000000000
10
1.2937934206
20
-26.0242483587
30
0.0000000000
10
1.3054286144
20
-26.0313432224
30
0.0000000000
10
1.3101969081
20
-26.0337293035
30
0.0000000000
11
1.2448427441
21
-25.8983237680
31
0.0000000000
11
1.2470122258
21
-25.9309696411
31
0.0000000000
11
1.2534941387
21
-25.9607607910
31
0.0000000000
11
1.2640615523
21
-25.9867321426
31
0.0000000000
11
1.2785697554
21
-26.0085269540
31
0.0000000000
11
1.2965549042
21
-26.0254132343
31
0.0000000000
11
1.3101969081
21
-26.0337293035
31
0.0000000000
0
SPLINE
5
3CD
100
AcDbEntity
8
0
100
AcDbSpline
62
0
6
CONTINUOUS
70
0
71
3
72
14
73
10
74
8
42
0.0000001000
43
0.0000001000
44
0.0000000001
12
-0.1618915143
22
-0.1938217939
32
0.0000000000
13
0.0000000000
23
-0.2525386112
33
0.0000000000
40
0.0000000000
40
0.0000000000
40
0.0000000000
40
0.0000000000
40
0.1442287221
40
0.2915661604
40
0.4392076970
40
0.5862445358
40
0.7294680978
40
0.8681597286
40
1.0000000000
40
1.0000000000
40
1.0000000000
40
1.0000000000
10
1.3337453201
20
-25.3269127742
30
0.0000000000
10
1.3259621847
20
-25.3362309975
30
0.0000000000
10
1.3111693517
20
-25.3558730993
30
0.0000000000
10
1.2917773345
20
-25.3874104994
30
0.0000000000
10
1.2752510714
20
-25.4208065569
30
0.0000000000
10
1.2619891197
20
-25.4552576678
30
0.0000000000
10
1.2522526073
20
-25.4900894031
30
0.0000000000
10
1.2462753051
20
-25.5244623940
30
0.0000000000
10
1.2448427441
20
-25.5472515809
30
0.0000000000
10
1.2448427441
20
-25.5583498339
30
0.0000000000
11
1.3337453201
21
-25.3269127742
31
0.0000000000
11
1.3117967775
21
-25.3559802785
31
0.0000000000
11
1.2922885333
21
-25.3876645466
31
0.0000000000
11
1.2757539016
21
-25.4210829733
31
0.0000000000
11
1.2624387338
21
-25.4557460273
31
0.0000000000
11
1.2527501734
21
-25.4905937394
31
0.0000000000
11
1.2468269898
21
-25.5251142543
31
0.0000000000
11
1.2448427441
21
-25.5583498339
31
0.0000000000
0
SPLINE
5
3CE
100
AcDbEntity
8
0
100
AcDbSpline
62
0
6
CONTINUOUS
70
0
71
3
72
15
73
11
74
9
42
0.0000001000
43
0.0000001000
44
0.0000000001
12
0.0627631636
22
-0.5850015930
32
0.0000000000
13
-0.5352556215
23
-0.2471302028
33
0.0000000000
40
0.0000000000
40
0.0000000000
40
0.0000000000
40
0.0000000000
40
0.1659352099
40
0.3204718358
40
0.4633438016
40
0.5955774700
40
0.7183321631
40
0.8346015069
40
0.9472409223
40
1.0000000000
40
1.0000000000
40
1.0000000000
40
1.0000000000
10
0.4162284840
20
-18.9558816898
30
0.0000000000
10
0.4197000235
20
-18.9882391439
30
0.0000000000
10
0.4234790114
20
-19.0511068674
30
0.0000000000
10
0.4188723173
20
-19.1420675822
30
0.0000000000
10
0.4038364129
20
-19.2252505988
30
0.0000000000
10
0.3785251488
20
-19.2994203764
30
0.0000000000
10
0.3431593608
20
-19.3635528886
30
0.0000000000
10
0.2981783764
20
-19.4165081740
30
0.0000000000
10
0.2537550109
20
-19.4501099509
30
0.0000000000
10
0.2249374976
20
-19.4652287512
30
0.0000000000
10
0.2155243000
20
-19.4695748718
30
0.0000000000
11
0.4162284840
21
-18.9558816898
31
0.0000000000
11
0.4217460481
21
-19.0533550927
31
0.0000000000
11
0.4167445322
21
-19.1441404099
31
0.0000000000
11
0.4013403950
21
-19.2267769184
31
0.0000000000
11
0.3757523440
21
-19.3002495171
31
0.0000000000
11
0.3404832410
21
-19.3632762435
31
0.0000000000
11
0.2959538209
21
-19.4152069450
31
0.0000000000
11
0.2430440711
21
-19.4551141903
31
0.0000000000
11
0.2155243000
21
-19.4695748718
31
0.0000000000
0
ENDSEC
0
SECTION
2
OBJECTS
0
DICTIONARY
5
C
100
AcDbDictionary
280
0
281
1
3
ACAD_GROUP
350
D
3
ACAD_MLINESTYLE
350
17
3
ACAD_LAYOUT
350
1A
3
ACAD_PLOTSETTINGS
350
19
3
ACAD_PLOTSTYLENAME
350
E
0
DICTIONARY
5
D
102
{ACAD_REACTORS
330
C
102
}
100
AcDbDictionary
280
0
281
1
0
ACDBDICTIONARYWDFLT
5
E
102
{ACAD_REACTORS
330
C
102
}
100
AcDbDictionary
281
1
3
Normal
350
F
100
AcDbDictionaryWithDefault
340
F
0
DICTIONARY
5
17
102
{ACAD_REACTORS
330
C
102
}
100
AcDbDictionary
280
0
281
1
3
Standard
350
18
0
DICTIONARY
5
19
102
{ACAD_REACTORS
330
C
102
}
100
AcDbDictionary
281
1
0
DICTIONARY
5
1A
102
{ACAD_REACTORS
330
C
102
}
100
AcDbDictionary
281
1
3
Layout1
350
1E
3
Model
350
22
0
ACDBPLACEHOLDER
5
F
102
{ACAD_REACTORS
330
E
102
}
0
MLINESTYLE
5
18
102
{ACAD_REACTORS
330
17
102
}
100
AcDbMlineStyle
2
STANDARD
70
0
3

62
256
51
90.0
52
90.0
71
2
49
0.5
62
256
6
BYLAYER
49
-0.5
62
256
6
BYLAYER
0
LAYOUT
5
1E
102
{ACAD_REACTORS
330
1A
102
}
100
AcDbPlotSettings
1

2

4

6

40
0.0
41
0.0
42
0.0
43
0.0
44
0.0
45
0.0
46
0.0
47
0.0
48
0.0
49
0.0
140
0.0
141
0.0
142
1.0
143
1.0
70
0
72
0
73
0
74
0
7

75
0
147
1.0
148
0.0
149
0.0
100
AcDbLayout
1
Layout1
70
0
71
0
10
0.0
20
0.0
11
0.0
21
0.0
12
0.0
22
0.0
32
0.0
14
0.0
24
0.0
34
0.0
15
0.0
25
0.0
35
0.0
146
0.0
13
0.0
23
0.0
33
0.0
16
0.0
26
0.0
36
0.0
17
0.0
27
0.0
37
0.0
76
0
330
1B
331
0
345
0
346
0
0
LAYOUT
5
22
102
{ACAD_REACTORS
330
1A
102
}
100
AcDbPlotSettings
1

2

4

6

40
0.0
41
0.0
42
0.0
43
0.0
44
0.0
45
0.0
46
0.0
47
0.0
48
0.0
49
0.0
140
0.0
141
0.0
142
1.0
143
1.0
70
0
72
0
73
0
74
0
7

75
0
147
1.0
148
0.0
149
0.0
100
AcDbLayout
1
Model
70
0
71
0
10
0.0
20
0.0
11
0.0
21
0.0
12
0.0
22
0.0
32
0.0
14
0.0
24
0.0
34
0.0
15
0.0
25
0.0
35
0.0
146
0.0
13
0.0
23
0.0
33
0.0
16
0.0
26
0.0
36
0.0
17
0.0
27
0.0
37
0.0
76
0
330
1F
331
0
345
0
346
0
0
ENDSEC
0
EOF
