  0
SECTION
  2
HEADER
  9
$ACADVER
  1
AC1015
  9
$DWGCODEPAGE
  3
ANSI_1252
  9
$EXTMAX
 10
297.0
 20
210.0
 30
0.0
  9
$EXTMIN
 10
0.0
 20
0.0
 30
0.0
  9
$LIMMIN
 10
0.0
 20
0.0
  9
$LIMMAX
 10
297.0
 20
210.0
  9
$VIEWCTR
 10
148.5
 20
105.0
  9
$VIEWSIZE
 40
210.0
  9
$CLAYER
  8
0
  9
$LTSCALE
 40
16.335
  9
$CELTYPE
  6
BYLAYER
  9
$DIMSCALE
 40
1.0
  9
$DIMASZ
 40
3.0
  9
$DIMEXO
 40
1.85625
  9
$DIMDLI
 40
11.286
  9
$DIMEXE
 40
5.346
  9
$DIMCEN
 40
2.673
  9
$DIMLFAC
 40
1.0
  9
$DIMBLK
  1
_FILLED
  9
$DIMTXT
 40
3.0
  9
$DIMTOL
 70
1
  9
$DIMLIM
 70
0
  9
$DIMTFAC
 40
1.0
  9
$DIMTP
 40
0.01
  9
$DIMTM
 40
0.01
  9
$PDMODE
 70
3
  9
$PDSIZE
 40
3.0
  9
$HANDSEED
  5
57C
  9
$TILEMODE
 70
1
  9
$MEASUREMENT
 70
1
  9
$INSUNITS
 70
4
  0
ENDSEC
  0
SECTION
  2
CLASSES
  0
CLASS
  1
ACDBDICTIONARYWDFLT
  2
AcDbDictionaryWithDefault
  3
AutoCAD 2000
 90
0
280
0
281
0
  0
CLASS
  1
ACDBPLACEHOLDER
  2
AcDbPlaceHolder
  3
AutoCAD 2000
 90
0
280
0
281
0
  0
CLASS
  1
LAYOUT
  2
AcDbLayout
  3
AutoCAD 2000
 90
0
280
0
281
0
  0
ENDSEC
  0
SECTION
  2
TABLES
  0
TABLE
  2
VPORT
  5
8
100
AcDbSymbolTable
 70
2
  0
VPORT
  5
1F4
100
AcDbSymbolTableRecord
100
AcDbViewportTableRecord
  2
*ACTIVE
 70
0
 10
0.0
 20
0.0
 11
1.0
 21
1.0
 12
148.5
 22
105.0
 13
0.0
 23
0.0
 14
1.0
 24
1.0
 15
0.0
 25
0.0
 16
0.0
 26
0.0
 36
1.0
 17
0.0
 27
0.0
 37
0.0
 40
210.0
 41
1.4142857143
 42
50.0
 43
0.0
 44
0.0
 50
0.0
 51
0.0
 71
0
 72
100
 73
1
 74
1
 75
0
 76
0
 77
0
 78
0
  0
ENDTAB
  0
TABLE
  2
LTYPE
  5
5
100
AcDbSymbolTable
 70
6
  0
LTYPE
  5
14
100
AcDbSymbolTableRecord
100
AcDbLinetypeTableRecord
  2
BYBLOCK
 70
0
  3

 72
65
 73
0
 40
0.0
  0
LTYPE
  5
15
100
AcDbSymbolTableRecord
100
AcDbLinetypeTableRecord
  2
BYLAYER
 70
0
  3

 72
65
 73
0
 40
0.0
  0
LTYPE
  5
16
100
AcDbSymbolTableRecord
100
AcDbLinetypeTableRecord
  2
CONTINUOUS
 70
64
  3
Solid line
 72
65
 73
0
 40
0.0
  0
LTYPE
  5
1F5
100
AcDbSymbolTableRecord
100
AcDbLinetypeTableRecord
  2
CENTER
 70
64
  3
____ _ ____ _ ____ _ ____ _ ____ _ ____ _ ____
 72
65
 73
4
 40
0.6
 49
0.375
 74
0
 49
-0.075
 74
0
 49
0.075
 74
0
 49
-0.075
 74
0
  0
LTYPE
  5
1F6
100
AcDbSymbolTableRecord
100
AcDbLinetypeTableRecord
  2
HIDDEN
 70
64
  3
- - - - - - - - - - - - - - - - - - - -
 72
65
 73
2
 40
0.2
 49
0.1
 74
0
 49
-0.1
 74
0
  0
LTYPE
  5
1F7
100
AcDbSymbolTableRecord
100
AcDbLinetypeTableRecord
  2
PHANTOM
 70
64
  3
_____ _ _ _____ _ _ _____ _ _ _____
 72
65
 73
6
 40
0.8
 49
0.45
 74
0
 49
-0.05
 74
0
 49
0.1
 74
0
 49
-0.05
 74
0
 49
0.1
 74
0
 49
-0.05
 74
0
  0
LTYPE
  5
1F8
100
AcDbSymbolTableRecord
100
AcDbLinetypeTableRecord
  2
DOT
 70
64
  3
. . . . . . . . . . . . . . . . . . . .
 72
65
 73
2
 40
0.2
 49
0.1
 74
0
 49
-0.1
 74
0
  0
LTYPE
  5
1F9
100
AcDbSymbolTableRecord
100
AcDbLinetypeTableRecord
  2
DASHED
 70
64
  3
- - - - - - - - - - - - - - - - - - - -
 72
65
 73
2
 40
0.2
 49
0.1
 74
0
 49
-0.1
 74
0
  0
ENDTAB
  0
TABLE
  2
LAYER
  5
2
100
AcDbSymbolTable
 70
36
  0
LAYER
  5
10
100
AcDbSymbolTableRecord
100
AcDbLayerTableRecord
  2
0
 70
0
 62
7
  6
CONTINUOUS
370
-3
390
F
  0
LAYER
  5
1FA
100
AcDbSymbolTableRecord
100
AcDbLayerTableRecord
  2
DEFAULT_1
 70
0
 62
7
  6
CENTER
370
-3
390
F
  0
LAYER
  5
1FB
100
AcDbSymbolTableRecord
100
AcDbLayerTableRecord
  2
DEFAULT_2
 70
0
 62
7
  6
HIDDEN
370
-3
390
F
  0
LAYER
  5
1FC
100
AcDbSymbolTableRecord
100
AcDbLayerTableRecord
  2
DEFAULT_3
 70
0
 62
7
  6
PHANTOM
370
-3
390
F
  0
LAYER
  5
1FD
100
AcDbSymbolTableRecord
100
AcDbLayerTableRecord
  2
ASSI
 70
0
 62
7
  6
CONTINUOUS
370
-3
390
F
  0
LAYER
  5
1FE
100
AcDbSymbolTableRecord
100
AcDbLayerTableRecord
  2
COLORE_TOP
 70
0
 62
7
  6
CONTINUOUS
370
-3
390
F
  0
LAYER
  5
1FF
100
AcDbSymbolTableRecord
100
AcDbLayerTableRecord
  2
COORDINATE
 70
0
 62
7
  6
CONTINUOUS
370
-3
390
F
  0
LAYER
  5
200
100
AcDbSymbolTableRecord
100
AcDbLayerTableRecord
  2
COORD_ORIGINE
 70
0
 62
7
  6
CONTINUOUS
370
-3
390
F
  0
LAYER
  5
201
100
AcDbSymbolTableRecord
100
AcDbLayerTableRecord
  2
COPY_PUBLISH
 70
0
 62
7
  6
CONTINUOUS
370
-3
390
F
  0
LAYER
  5
202
100
AcDbSymbolTableRecord
100
AcDbLayerTableRecord
  2
COSMETIC
 70
0
 62
7
  6
CONTINUOUS
370
-3
390
F
  0
LAYER
  5
203
100
AcDbSymbolTableRecord
100
AcDbLayerTableRecord
  2
COSMETICHE
 70
0
 62
7
  6
CONTINUOUS
370
-3
390
F
  0
LAYER
  5
204
100
AcDbSymbolTableRecord
100
AcDbLayerTableRecord
  2
CURVE
 70
0
 62
7
  6
CONTINUOUS
370
-3
390
F
  0
LAYER
  5
205
100
AcDbSymbolTableRecord
100
AcDbLayerTableRecord
  2
DRAFT
 70
0
 62
7
  6
CONTINUOUS
370
-3
390
F
  0
LAYER
  5
206
100
AcDbSymbolTableRecord
100
AcDbLayerTableRecord
  2
IMPORT
 70
0
 62
7
  6
CONTINUOUS
370
-3
390
F
  0
LAYER
  5
207
100
AcDbSymbolTableRecord
100
AcDbLayerTableRecord
  2
IMPORTED
 70
0
 62
7
  6
CONTINUOUS
370
-3
390
F
  0
LAYER
  5
208
100
AcDbSymbolTableRecord
100
AcDbLayerTableRecord
  2
IMPORT_IGES
 70
0
 62
7
  6
CONTINUOUS
370
-3
390
F
  0
LAYER
  5
209
100
AcDbSymbolTableRecord
100
AcDbLayerTableRecord
  2
INCISIONI_LASER
 70
0
 62
7
  6
CONTINUOUS
370
-3
390
F
  0
LAYER
  5
20A
100
AcDbSymbolTableRecord
100
AcDbLayerTableRecord
  2
NOTE
 70
0
 62
7
  6
CONTINUOUS
370
-3
390
F
  0
LAYER
  5
20B
100
AcDbSymbolTableRecord
100
AcDbLayerTableRecord
  2
PIANI
 70
0
 62
7
  6
CONTINUOUS
370
-3
390
F
  0
LAYER
  5
20C
100
AcDbSymbolTableRecord
100
AcDbLayerTableRecord
  2
PIANI_DI_RIFERIMENTO
 70
0
 62
7
  6
CONTINUOUS
370
-3
390
F
  0
LAYER
  5
20D
100
AcDbSymbolTableRecord
100
AcDbLayerTableRecord
  2
PIANI_ORIGINE
 70
0
 62
7
  6
CONTINUOUS
370
-3
390
F
  0
LAYER
  5
20E
100
AcDbSymbolTableRecord
100
AcDbLayerTableRecord
  2
PIANI_RIFERIMENTO
 70
0
 62
7
  6
CONTINUOUS
370
-3
390
F
  0
LAYER
  5
20F
100
AcDbSymbolTableRecord
100
AcDbLayerTableRecord
  2
PIANI_SFORMO
 70
0
 62
7
  6
CONTINUOUS
370
-3
390
F
  0
LAYER
  5
210
100
AcDbSymbolTableRecord
100
AcDbLayerTableRecord
  2
PUNTI
 70
0
 62
7
  6
CONTINUOUS
370
-3
390
F
  0
LAYER
  5
211
100
AcDbSymbolTableRecord
100
AcDbLayerTableRecord
  2
RACCORDO
 70
0
 62
7
  6
CONTINUOUS
370
-3
390
F
  0
LAYER
  5
212
100
AcDbSymbolTableRecord
100
AcDbLayerTableRecord
  2
SMUSSO
 70
0
 62
7
  6
CONTINUOUS
370
-3
390
F
  0
LAYER
  5
213
100
AcDbSymbolTableRecord
100
AcDbLayerTableRecord
  2
SNAPLINE
 70
0
 62
7
  6
CONTINUOUS
370
-3
390
F
  0
LAYER
  5
214
100
AcDbSymbolTableRecord
100
AcDbLayerTableRecord
  2
SUPERFICI
 70
0
 62
7
  6
CONTINUOUS
370
-3
390
F
  0
LAYER
  5
215
100
AcDbSymbolTableRecord
100
AcDbLayerTableRecord
  2
TRASH
 70
0
 62
7
  6
CONTINUOUS
370
-3
390
F
  0
LAYER
  5
216
100
AcDbSymbolTableRecord
100
AcDbLayerTableRecord
  2
XSEC_DATUMS
 70
0
 62
7
  6
CONTINUOUS
370
-3
390
F
  0
ENDTAB
  0
TABLE
  2
STYLE
  5
3
100
AcDbSymbolTable
 70
1
  0
STYLE
  5
11
100
AcDbSymbolTableRecord
100
AcDbTextStyleTableRecord
  2
STANDARD
 70
0
 40
0.0
 41
0.8
 50
0.0
 71
0
 42
0.2
  3
txt
  4

  0
STYLE
  5
217
100
AcDbSymbolTableRecord
100
AcDbTextStyleTableRecord
  2
TEXTSTYLE_1
 70
0
 40
0.0
 41
0.8
 50
0.0
 71
0
 42
0.2
  3
gdt
  4

  0
ENDTAB
  0
TABLE
  2
VIEW
  5
6
100
AcDbSymbolTable
 70
0
  0
ENDTAB
  0
TABLE
  2
UCS
  5
7
100
AcDbSymbolTable
 70
0
  0
ENDTAB
  0
TABLE
  2
APPID
  5
9
100
AcDbSymbolTable
 70
1
  0
APPID
  5
218
100
AcDbSymbolTableRecord
100
AcDbRegAppTableRecord
  2
ACAD
 70
0
  0
ENDTAB
  0
TABLE
  2
BLOCK_RECORD
  5
1
100
AcDbSymbolTable
 70
0
  0
BLOCK_RECORD
  5
219
100
AcDbSymbolTableRecord
100
AcDbBlockTableRecord
  2
*Model_Space
  0
BLOCK_RECORD
  5
21A
100
AcDbSymbolTableRecord
100
AcDbBlockTableRecord
  2
*Paper_Space
  0
ENDTAB
  0
TABLE
  2
DIMSTYLE
  5
A
100
AcDbSymbolTable
 70
1
100
AcDbDimStyleTable
 71
0
  0
DIMSTYLE
105
21B
100
AcDbSymbolTableRecord
100
AcDbDimStyleTableRecord
  2
STANDARD
 70
0
  3

  4

 40
1.0
 41
3.0
 42
0.0625
 43
0.38
 44
0.18
 45
0.0
 46
0.0
 47
0.01
 48
0.01
140
3.0
141
0.09
142
0.0
143
25.4
144
1.0
145
0.0
146
1.0
147
0.09
 71
1.0
 72
0.0
 73
0
 74
0
 75
0
 76
0
 77
1
 78
8
170
0
171
2
172
0
173
0
174
0
175
0
176
0
177
0
178
0
270
2
271
2
272
2
273
2
274
2
275
0
280
0
281
0
282
0
283
1
284
8
285
0
286
0
287
3
288
0
340
11
  0
ENDTAB
  0
ENDSEC
  0
SECTION
  2
BLOCKS
  0
BLOCK
  5
20
100
AcDbEntity
  8
0
100
AcDbBlockBegin
  2
*Model_Space
 70
0
 10
0.0
 20
0.0
 30
0.0
  3
*Model_Space
  1

  0
ENDBLK
  5
21
100
AcDbEntity
  8
0
100
AcDbBlockEnd
  0
BLOCK
  5
1C
100
AcDbEntity
  8
0
100
AcDbBlockBegin
  2
*Paper_Space
 70
0
 10
0.0
 20
0.0
 30
0.0
  3
*Paper_Space
  1

  0
ENDBLK
  5
1D
100
AcDbEntity
  8
0
100
AcDbBlockEnd
  0
ENDSEC
  0
SECTION
  2
ENTITIES
  0
LINE
  5
21C
100
AcDbEntity
  8
RACCORDO
100
AcDbLine
 62
7
  6
CONTINUOUS
 10
-12.8902320502
 20
26.7807285972
 11
-11.3074754471
 21
27.5927126945
  0
LINE
  5
21D
100
AcDbEntity
  8
RACCORDO
100
AcDbLine
 62
7
  6
CONTINUOUS
 10
-11.3074754471
 20
27.5927126945
 11
-10.7730255684
 21
27.8530601611
  0
LWPOLYLINE
  5
21E
100
AcDbEntity
  8
RACCORDO
100
AcDbPolyline
 62
7
  6
CONTINUOUS
 90
19
 70
0
 10
-20.1573771979
 20
20.2408060842
 10
-20.1817554161
 20
20.2229961505
 10
-20.2638905207
 20
20.1572342521
 10
-20.341797823
 20
20.0858837138
 10
-20.4156477128
 20
20.0090543692
 10
-20.4852876768
 20
19.9271057307
 10
-20.5501966959
 20
19.8408371879
 10
-20.6103922798
 20
19.7504447588
 10
-20.6657702662
 20
19.6561321717
 10
-20.7157370607
 20
19.5589768846
 10
-20.7602501437
 20
19.4591916952
 10
-20.7991773084
 20
19.3569449138
 10
-20.8320655845
 20
19.2533912261
 10
-20.8588191304
 20
19.1487471613
 10
-20.8792973964
 20
19.0431156416
 10
-20.8932085243
 20
18.9374142159
 10
-20.9003769668
 20
18.8319991846
 10
-20.9006395681
 20
18.7268196277
 10
-20.8997064977
 20
18.7029341068
  0
LINE
  5
21F
100
AcDbEntity
  8
RACCORDO
100
AcDbLine
 62
7
  6
CONTINUOUS
 10
-20.1575008347
 20
20.240729997
 11
-16.2320954467
 21
23.0481914764
  0
LINE
  5
220
100
AcDbEntity
  8
RACCORDO
100
AcDbLine
 62
253
  6
CONTINUOUS
 10
-19.7757287881
 20
20.2334291058
 11
-15.8562028548
 21
23.0366855819
  0
LINE
  5
221
100
AcDbEntity
  8
RACCORDO
100
AcDbLine
 62
7
  6
CONTINUOUS
 10
-13.3741871626
 20
25.0380281951
 11
-12.3619648785
 21
25.5549581578
  0
LINE
  5
222
100
AcDbEntity
  8
RACCORDO
100
AcDbLine
 62
253
  6
CONTINUOUS
 10
-13.2166637563
 20
25.0285948656
 11
-12.3619648785
 21
25.4650794855
  0
LINE
  5
223
100
AcDbEntity
  8
DRAFT
100
AcDbLine
 62
7
  6
CONTINUOUS
 10
-9.6811298504
 20
25.0474890886
 11
-10.7479607625
 21
24.508907839
  0
LINE
  5
224
100
AcDbEntity
  8
RACCORDO
100
AcDbLine
 62
7
  6
CONTINUOUS
 10
-11.2824106412
 20
25.9768178926
 11
-9.6811298504
 21
26.7795398961
  0
LINE
  5
225
100
AcDbEntity
  8
RACCORDO
100
AcDbLine
 62
7
  6
CONTINUOUS
 10
-9.6811298504
 20
26.7795398961
 11
-9.1528626786
 21
27.0429787162
  0
LINE
  5
226
100
AcDbEntity
  8
RACCORDO
100
AcDbLine
 62
7
  6
CONTINUOUS
 10
-9.0660110154
 20
26.4219811295
 11
-9.5932557311
 21
25.7802734015
  0
LINE
  5
227
100
AcDbEntity
  8
RACCORDO
100
AcDbLine
 62
7
  6
CONTINUOUS
 10
-7.416735419
 20
24.6279828987
 11
-6.9234134037
 21
24.8810664305
  0
LINE
  5
228
100
AcDbEntity
  8
RACCORDO
100
AcDbLine
 62
7
  6
CONTINUOUS
 10
-8.2253488738
 20
25.0191476923
 11
-1.7173122472
 21
28.2602892978
  0
LINE
  5
229
100
AcDbEntity
  8
RACCORDO
100
AcDbLine
 62
253
  6
CONTINUOUS
 10
-8.1498557333
 20
24.981401122
 11
-1.8353154067
 21
28.1261774266
  0
LINE
  5
22A
100
AcDbEntity
  8
RACCORDO
100
AcDbLine
 62
7
  6
CONTINUOUS
 10
-0.8422950855
 20
27.2464338958
 11
-5.5799105195
 21
24.9113833812
  0
LINE
  5
22B
100
AcDbEntity
  8
RACCORDO
100
AcDbLine
 62
7
  6
CONTINUOUS
 10
-6.9234134037
 20
24.8810664305
 11
-1.4457734143
 21
27.5493983938
  0
LINE
  5
22C
100
AcDbEntity
  8
RACCORDO
100
AcDbLine
 62
7
  6
CONTINUOUS
 10
3.7710624333
 20
-21.0764898201
 11
4.2983071491
 21
-21.1847820921
  0
LWPOLYLINE
  5
22D
100
AcDbEntity
  8
RACCORDO
100
AcDbPolyline
 62
7
  6
CONTINUOUS
 90
15
 70
0
 10
-2.4644795463
 20
-22.4721237601
 10
-2.4423652548
 20
-22.4828875463
 10
-2.3605027777
 20
-22.5175260248
 10
-2.275972413
 20
-22.5453420396
 10
-2.1891754256
 20
-22.5661934014
 10
-2.1001220747
 20
-22.58001129
 10
-2.0093292915
 20
-22.5866126387
 10
-1.9174086635
 20
-22.5858637617
 10
-1.8244037672
 20
-22.5776289614
 10
-1.7307530356
 20
-22.5617680352
 10
-1.6370324813
 20
-22.5382274912
 10
-1.543328005
 20
-22.5068293545
 10
-1.4499050511
 20
-22.467382275
 10
-1.357361201
 20
-22.4198867416
 10
-1.3305116684
 20
-22.4044598108
  0
LINE
  5
22E
100
AcDbEntity
  8
RACCORDO
100
AcDbLine
 62
7
  6
CONTINUOUS
 10
-2.4636636285
 20
-22.4725400743
 11
-16.7993718972
 21
-15.3046859399
  0
LINE
  5
22F
100
AcDbEntity
  8
RACCORDO
100
AcDbLine
 62
253
  6
CONTINUOUS
 10
-2.838050836
 20
-21.8950911874
 11
-17.1665311707
 21
-14.7308510201
  0
LINE
  5
230
100
AcDbEntity
  8
RACCORDO
100
AcDbLine
 62
7
  6
CONTINUOUS
 10
0.3639538104
 20
-22.1476940049
 11
1.9704899079
 21
-22.9509620536
  0
LINE
  5
231
100
AcDbEntity
  8
RACCORDO
100
AcDbLine
 62
253
  6
CONTINUOUS
 10
0.2993603316
 20
-22.0126654636
 11
1.9051367938
 21
-22.8155536947
  0
LWPOLYLINE
  5
232
100
AcDbEntity
  8
RACCORDO
100
AcDbPolyline
 62
7
  6
CONTINUOUS
 90
13
 70
0
 10
-20.8997212871
 20
18.703109926
 10
-20.7549354987
 20
15.897432194
 10
-20.5807349132
 20
13.0449112016
 10
-20.3800861297
 20
10.2087829921
 10
-20.1530136768
 20
7.3894544935
 10
-19.8995469882
 20
4.5872798452
 10
-19.6197156296
 20
1.8025925904
 10
-19.3135515814
 20
-0.9642594481
 10
-18.9810921577
 20
-3.7129319781
 10
-18.6223739621
 20
-6.4430963174
 10
-18.2374376769
 20
-9.1544063806
 10
-17.8263386485
 20
-11.8464764311
 10
-17.3998498715
 20
-14.4555054179
  0
LINE
  5
233
100
AcDbEntity
  8
0
100
AcDbLine
 62
7
  6
CONTINUOUS
 10
-9.5982880146
 20
20.7320974831
 11
-9.9492060719
 21
20.5038674809
  0
LINE
  5
234
100
AcDbEntity
  8
RACCORDO
100
AcDbLine
 62
7
  6
CONTINUOUS
 10
-10.7777176528
 20
20.79793167
 11
-11.0667816812
 21
20.6419749951
  0
LINE
  5
235
100
AcDbEntity
  8
RACCORDO
100
AcDbLine
 62
253
  6
CONTINUOUS
 10
-10.2998101925
 20
20.7858957387
 11
-10.8071645441
 21
20.5121664265
  0
LINE
  5
236
100
AcDbEntity
  8
0
100
AcDbLine
 62
7
  6
CONTINUOUS
 10
0.4847787429
 20
25.7765596622
 11
-0.9130057636
 21
25.077667409
  0
LINE
  5
237
100
AcDbEntity
  8
RACCORDO
100
AcDbLine
 62
7
  6
CONTINUOUS
 10
-1.9879110982
 20
24.3856276534
 11
-1.9263614599
 21
24.4164024725
  0
LINE
  5
238
100
AcDbEntity
  8
RACCORDO
100
AcDbLine
 62
253
  6
CONTINUOUS
 10
-1.9029552573
 20
24.3777038569
 11
-1.8369187409
 21
24.4107221151
  0
LINE
  5
239
100
AcDbEntity
  8
ASSI
100
AcDbLine
 62
253
  6
CONTINUOUS
 10
-1.9029552573
 20
24.3777038569
 11
-1.8369187409
 21
24.4107221151
  0
LINE
  5
23A
100
AcDbEntity
  8
ASSI
100
AcDbLine
 62
7
  6
CONTINUOUS
 10
-1.9196102184
 20
24.4197464437
 11
-1.9879110982
 21
24.3856276534
  0
LINE
  5
23B
100
AcDbEntity
  8
RACCORDO
100
AcDbLine
 62
7
  6
CONTINUOUS
 10
-1.2665591542
 20
25.8070022936
 11
-0.8422950855
 21
26.0145997144
  0
LINE
  5
23C
100
AcDbEntity
  8
RACCORDO
100
AcDbLine
 62
7
  6
CONTINUOUS
 10
1.1437744942
 20
26.6366324761
 11
-0.9130057636
 21
25.6302255983
  0
LWPOLYLINE
  5
23D
100
AcDbEntity
  8
ASSI
100
AcDbPolyline
 62
7
  6
CONTINUOUS
 90
3
 70
0
 10
-1.7784567394
 20
24.4774388772
 10
-1.8507419796
 20
24.4505942076
 10
-1.9196102184
 20
24.4197464437
  0
LINE
  5
23E
100
AcDbEntity
  8
RACCORDO
100
AcDbLine
 62
253
  6
CONTINUOUS
 10
1.9051367938
 20
-22.562182301
 11
0.2993603316
 21
-21.7592940699
  0
LINE
  5
23F
100
AcDbEntity
  8
RACCORDO
100
AcDbLine
 62
253
  6
CONTINUOUS
 10
1.9940393698
 20
-22.3307452413
 11
0.3872344509
 21
-21.5273427819
  0
LINE
  5
240
100
AcDbEntity
  8
RACCORDO
100
AcDbLine
 62
7
  6
CONTINUOUS
 10
1.1755734819
 20
-20.9276733971
 11
2.0568427173
 21
-21.3683080148
  0
LINE
  5
241
100
AcDbEntity
  8
DRAFT
100
AcDbLine
 62
7
  6
CONTINUOUS
 10
2.6163574019
 20
-21.5856858238
 11
2.2070924056
 21
-21.3810533257
  0
LINE
  5
242
100
AcDbEntity
  8
ASSI
100
AcDbLine
 62
7
  6
CONTINUOUS
 10
1.4762444576
 20
-20.7504929464
 11
2.3043300908
 21
-21.164535763
  0
LINE
  5
243
100
AcDbEntity
  8
RACCORDO
100
AcDbLine
 62
253
  6
CONTINUOUS
 10
3.7710624333
 20
-21.0764898201
 11
3.7276401074
 21
-21.0547786571
  0
LWPOLYLINE
  5
244
100
AcDbEntity
  8
RACCORDO
100
AcDbPolyline
 62
7
  6
CONTINUOUS
 90
13
 70
0
 10
-17.399742974
 20
-14.4560705257
 10
-17.3930978573
 20
-14.4923485671
 10
-17.3673189696
 20
-14.599671946
 10
-17.3335977065
 20
-14.701505428
 10
-17.2925175651
 20
-14.7972338107
 10
-17.2445376916
 20
-14.8867963455
 10
-17.1898838246
 20
-14.9703423468
 10
-17.1291714091
 20
-15.0473342679
 10
-17.0629854653
 20
-15.1174779085
 10
-16.9914053299
 20
-15.1809476906
 10
-16.9148514062
 20
-15.2374457654
 10
-16.8342012867
 20
-15.2864406384
 10
-16.7986010986
 20
-15.3050627101
  0
LINE
  5
245
100
AcDbEntity
  8
RACCORDO
100
AcDbLine
 62
7
  6
CONTINUOUS
 10
-17.3998498715
 20
-14.4555054179
 11
-17.3997535858
 21
-14.4560723331
  0
LINE
  5
246
100
AcDbEntity
  8
RACCORDO
100
AcDbLine
 62
7
  6
CONTINUOUS
 10
-1.999621955
 20
24.3778792786
 11
-2.9296467738
 21
23.5862515083
  0
LINE
  5
247
100
AcDbEntity
  8
ASSI
100
AcDbLine
 62
7
  6
CONTINUOUS
 10
-1.999621955
 20
24.3778792786
 11
-2.9296467738
 21
23.5862515083
  0
LINE
  5
248
100
AcDbEntity
  8
0
100
AcDbLine
 62
253
  6
CONTINUOUS
 10
-1.9029552573
 20
24.3777038569
 11
-2.8686211993
 21
23.5557387211
  0
LINE
  5
249
100
AcDbEntity
  8
ASSI
100
AcDbLine
 62
253
  6
CONTINUOUS
 10
-1.9029552573
 20
24.3777038569
 11
-2.8686211993
 21
23.5557387211
  0
LINE
  5
24A
100
AcDbEntity
  8
ASSI
100
AcDbLine
 62
7
  6
CONTINUOUS
 10
-7.0873354358
 20
19.4766211937
 11
-6.8403620107
 21
19.6053877045
  0
LINE
  5
24B
100
AcDbEntity
  8
RACCORDO
100
AcDbLine
 62
7
  6
CONTINUOUS
 10
-1.1999694621
 20
21.5195999202
 11
-0.7008737293
 21
21.7697965933
  0
LINE
  5
24C
100
AcDbEntity
  8
RACCORDO
100
AcDbLine
 62
7
  6
CONTINUOUS
 10
-0.7008737293
 20
21.7697965933
 11
4.7133989659
 21
24.4698122037
  0
LINE
  5
24D
100
AcDbEntity
  8
RACCORDO
100
AcDbLine
 62
7
  6
CONTINUOUS
 10
4.1074523828
 20
24.7715601617
 11
-0.6301630512
 21
22.436509647
  0
LINE
  5
24E
100
AcDbEntity
  8
RACCORDO
100
AcDbLine
 62
7
  6
CONTINUOUS
 10
11.6662454175
 20
27.180566812
 11
5.8863459684
 21
24.5112177071
  0
LINE
  5
24F
100
AcDbEntity
  8
ASSI
100
AcDbLine
 62
7
  6
CONTINUOUS
 10
11.6662454175
 20
27.180566812
 11
5.8863459684
 21
24.5112177071
  0
LINE
  5
250
100
AcDbEntity
  8
0
100
AcDbLine
 62
7
  6
CONTINUOUS
 10
2.3350268712
 20
-20.2444266236
 11
3.1175028891
 21
-20.6356646325
  0
LINE
  5
251
100
AcDbEntity
  8
RACCORDO
100
AcDbLine
 62
253
  6
CONTINUOUS
 10
3.6831883141
 20
-20.8772226746
 11
4.2983071491
 21
-21.1847820921
  0
LINE
  5
252
100
AcDbEntity
  8
RACCORDO
100
AcDbLine
 62
7
  6
CONTINUOUS
 10
3.6831883141
 20
-20.873602525
 11
4.3215865224
 21
-21.1928016292
  0
LINE
  5
253
100
AcDbEntity
  8
0
100
AcDbLine
 62
7
  6
CONTINUOUS
 10
2.9013138621
 20
-18.8776626815
 11
3.1175028891
 21
-18.985757195
  0
LINE
  5
254
100
AcDbEntity
  8
0
100
AcDbLine
 62
7
  6
CONTINUOUS
 10
-5.3556473275
 20
18.6107771396
 11
-5.7065653848
 21
18.3825471373
  0
LINE
  5
255
100
AcDbEntity
  8
RACCORDO
100
AcDbLine
 62
7
  6
CONTINUOUS
 10
0.4740861142
 20
20.0985695149
 11
2.0568427173
 21
20.9105536123
  0
LINE
  5
256
100
AcDbEntity
  8
RACCORDO
100
AcDbLine
 62
7
  6
CONTINUOUS
 10
-1.1999694621
 20
20.3053964474
 11
-0.7008737293
 21
20.557361028
  0
LINE
  5
257
100
AcDbEntity
  8
RACCORDO
100
AcDbLine
 62
7
  6
CONTINUOUS
 10
-0.7008737293
 20
20.557361028
 11
4.7133989659
 21
23.2379736253
  0
LINE
  5
258
100
AcDbEntity
  8
RACCORDO
100
AcDbLine
 62
7
  6
CONTINUOUS
 10
5.3864151813
 20
24.5153121325
 11
4.8000363943
 21
24.2283900649
  0
LINE
  5
259
100
AcDbEntity
  8
RACCORDO
100
AcDbLine
 62
7
  6
CONTINUOUS
 10
2.0568427173
 20
20.9105536123
 11
2.591292596
 21
21.1709010788
  0
LINE
  5
25A
100
AcDbEntity
  8
0
100
AcDbLine
 62
7
  6
CONTINUOUS
 10
13.1386313444
 20
26.6243898548
 11
9.5655576459
 21
24.918956538
  0
LINE
  5
25B
100
AcDbEntity
  8
ASSI
100
AcDbLine
 62
7
  6
CONTINUOUS
 10
13.1386313444
 20
26.6243898548
 11
9.5655576459
 21
24.918956538
  0
LINE
  5
25C
100
AcDbEntity
  8
RACCORDO
100
AcDbLine
 62
253
  6
CONTINUOUS
 10
12.0978648425
 20
27.1447731057
 11
6.1795457753
 21
24.4114972341
  0
LINE
  5
25D
100
AcDbEntity
  8
ASSI
100
AcDbLine
 62
253
  6
CONTINUOUS
 10
12.0978648425
 20
27.1447731057
 11
6.1795457753
 21
24.4114972341
  0
LINE
  5
25E
100
AcDbEntity
  8
0
100
AcDbLine
 62
252
  6
CONTINUOUS
 10
7.9774837005
 20
-12.0287277129
 11
6.5912116392
 21
-12.2531934879
  0
LINE
  5
25F
100
AcDbEntity
  8
RACCORDO
100
AcDbLine
 62
7
  6
CONTINUOUS
 10
-13.4641511297
 20
24.849218119
 11
-13.4641511297
 21
24.8248226138
  0
LINE
  5
260
100
AcDbEntity
  8
RACCORDO
100
AcDbLine
 62
7
  6
CONTINUOUS
 10
-13.0649578328
 20
26.2224691517
 11
-13.0649578328
 21
26.4758405455
  0
LINE
  5
261
100
AcDbEntity
  8
ASSI
100
AcDbLine
 62
7
  6
CONTINUOUS
 10
-12.6509783313
 20
23.4592168441
 11
-12.8355059212
 21
21.526337115
  0
LINE
  5
262
100
AcDbEntity
  8
DRAFT
100
AcDbLine
 62
7
  6
CONTINUOUS
 10
-9.9492060719
 20
20.5038674809
 11
-10.0159282663
 21
20.1165482876
  0
LINE
  5
263
100
AcDbEntity
  8
RACCORDO
100
AcDbLine
 62
253
  6
CONTINUOUS
 10
4.1972691472
 20
19.6168490432
 11
9.5555959273
 21
22.5077892701
  0
LINE
  5
264
100
AcDbEntity
  8
0
100
AcDbLine
 62
7
  6
CONTINUOUS
 10
9.9595435797
 20
23.8968007199
 11
14.1759233574
 21
26.0421103366
  0
LINE
  5
265
100
AcDbEntity
  8
ASSI
100
AcDbLine
 62
7
  6
CONTINUOUS
 10
9.9595435797
 20
23.8968007199
 11
14.1759233574
 21
26.0421103366
  0
LINE
  5
266
100
AcDbEntity
  8
DRAFT
100
AcDbLine
 62
7
  6
CONTINUOUS
 10
10.6459390709
 20
23.8313922087
 11
14.1819803443
 21
25.6051257083
  0
LINE
  5
267
100
AcDbEntity
  8
ASSI
100
AcDbLine
 62
7
  6
CONTINUOUS
 10
10.6422537776
 20
23.8295436081
 11
14.1819803443
 21
25.6051257083
  0
LINE
  5
268
100
AcDbEntity
  8
RACCORDO
100
AcDbLine
 62
7
  6
CONTINUOUS
 10
2.0819075232
 20
19.2946588104
 11
3.6831883141
 21
20.0973808139
  0
LINE
  5
269
100
AcDbEntity
  8
0
100
AcDbLine
 62
7
  6
CONTINUOUS
 10
10.4784844813
 20
22.6504242529
 11
10.9734592281
 21
22.8979116263
  0
LINE
  5
26A
100
AcDbEntity
  8
RACCORDO
100
AcDbLine
 62
7
  6
CONTINUOUS
 10
3.6831883141
 20
20.0973808139
 11
4.2114554858
 21
20.3608196339
  0
LINE
  5
26B
100
AcDbEntity
  8
DRAFT
100
AcDbLine
 62
7
  6
CONTINUOUS
 10
10.6422537776
 20
23.838739056
 11
9.9595435797
 21
23.4987347576
  0
LINE
  5
26C
100
AcDbEntity
  8
ASSI
100
AcDbLine
 62
7
  6
CONTINUOUS
 10
10.6422537776
 20
23.838739056
 11
9.9595435797
 21
23.4987347576
  0
LINE
  5
26D
100
AcDbEntity
  8
RACCORDO
100
AcDbLine
 62
253
  6
CONTINUOUS
 10
3.5936661041
 20
20.7316916957
 11
8.3655050823
 21
23.0257671821
  0
LINE
  5
26E
100
AcDbEntity
  8
RACCORDO
100
AcDbLine
 62
253
  6
CONTINUOUS
 10
3.821281604
 20
20.6178839458
 11
8.8073459502
 21
23.0149489018
  0
LINE
  5
26F
100
AcDbEntity
  8
0
100
AcDbLine
 62
252
  6
CONTINUOUS
 10
6.5912116392
 20
-11.7293710942
 11
8.6051737788
 21
-11.493803639
  0
LINE
  5
270
100
AcDbEntity
  8
ASSI
100
AcDbLine
 62
7
  6
CONTINUOUS
 10
-12.6509783313
 20
24.4182362146
 11
-12.6509783313
 21
23.4592168441
  0
LINE
  5
271
100
AcDbEntity
  8
DRAFT
100
AcDbLine
 62
7
  6
CONTINUOUS
 10
-12.3619648785
 20
25.315909897
 11
-12.3619648785
 21
25.7682408727
  0
LINE
  5
272
100
AcDbEntity
  8
RACCORDO
100
AcDbLine
 62
7
  6
CONTINUOUS
 10
-11.4591813706
 20
25.6729523144
 11
-11.4591813706
 21
25.4195809206
  0
LINE
  5
273
100
AcDbEntity
  8
DRAFT
100
AcDbLine
 62
7
  6
CONTINUOUS
 10
-10.7479607625
 20
24.508907839
 11
-10.7479607625
 21
25.1460773978
  0
LINE
  5
274
100
AcDbEntity
  8
RACCORDO
100
AcDbLine
 62
253
  6
CONTINUOUS
 10
-1.2894154699
 20
15.7532918894
 11
-5.422063715
 21
13.0565965692
  0
LINE
  5
275
100
AcDbEntity
  8
RACCORDO
100
AcDbLine
 62
253
  6
CONTINUOUS
 10
3.830648994
 20
19.170636917
 11
9.4714443597
 21
22.2139754262
  0
LINE
  5
276
100
AcDbEntity
  8
RACCORDO
100
AcDbLine
 62
253
  6
CONTINUOUS
 10
3.7422590392
 20
19.0353437358
 11
9.4714443597
 21
22.0017162722
  0
LINE
  5
277
100
AcDbEntity
  8
RACCORDO
100
AcDbLine
 62
7
  6
CONTINUOUS
 10
3.8620251698
 20
18.9754606705
 11
9.5536540721
 21
21.922387802
  0
LINE
  5
278
100
AcDbEntity
  8
RACCORDO
100
AcDbLine
 62
253
  6
CONTINUOUS
 10
3.8246096703
 20
18.2946193282
 11
2.0568427173
 21
17.3918416287
  0
LINE
  5
279
100
AcDbEntity
  8
RACCORDO
100
AcDbLine
 62
253
  6
CONTINUOUS
 10
4.0720970437
 20
17.8677552083
 11
2.3043300908
 21
16.9649775088
  0
LINE
  5
27A
100
AcDbEntity
  8
DRAFT
100
AcDbLine
 62
7
  6
CONTINUOUS
 10
3.6831883141
 20
18.3653300063
 11
2.6163574019
 21
17.8267487568
  0
LINE
  5
27B
100
AcDbEntity
  8
RACCORDO
100
AcDbLine
 62
253
  6
CONTINUOUS
 10
0.4933923122
 20
15.3892944864
 11
-0.6522282646
 21
14.8120671021
  0
LINE
  5
27C
100
AcDbEntity
  8
0
100
AcDbLine
 62
7
  6
CONTINUOUS
 10
13.9539271243
 20
23.3345564704
 11
12.1301728296
 21
22.4226793231
  0
LINE
  5
27D
100
AcDbEntity
  8
0
100
AcDbLine
 62
7
  6
CONTINUOUS
 10
14.8024552618
 20
22.9102924017
 11
13.799485015
 21
22.4088072783
  0
LINE
  5
27E
100
AcDbEntity
  8
RACCORDO
100
AcDbLine
 62
253
  6
CONTINUOUS
 10
4.5317164515
 20
18.6406150296
 11
3.8246096703
 21
18.2946193282
  0
LINE
  5
27F
100
AcDbEntity
  8
RACCORDO
100
AcDbLine
 62
253
  6
CONTINUOUS
 10
4.7792038249
 20
18.2137509097
 11
4.0720970437
 21
17.8677552083
  0
LINE
  5
280
100
AcDbEntity
  8
DRAFT
100
AcDbLine
 62
7
  6
CONTINUOUS
 10
4.4715814306
 20
18.6706825401
 11
10.1374459995
 21
21.4228710843
  0
LINE
  5
281
100
AcDbEntity
  8
ASSI
100
AcDbLine
 62
7
  6
CONTINUOUS
 10
4.4715814306
 20
18.6706825401
 11
10.1374459995
 21
21.4228710843
  0
LINE
  5
282
100
AcDbEntity
  8
RACCORDO
100
AcDbLine
 62
7
  6
CONTINUOUS
 10
18.6243289948
 20
23.8815410296
 11
10.8901400834
 21
20.1246658233
  0
LINE
  5
283
100
AcDbEntity
  8
ASSI
100
AcDbLine
 62
7
  6
CONTINUOUS
 10
18.6243289948
 20
23.8815410296
 11
10.8901400834
 21
20.1246658233
  0
LINE
  5
284
100
AcDbEntity
  8
0
100
AcDbLine
 62
7
  6
CONTINUOUS
 10
17.7990825272
 20
24.2941642634
 11
14.2356516906
 21
22.5839095156
  0
LINE
  5
285
100
AcDbEntity
  8
ASSI
100
AcDbLine
 62
7
  6
CONTINUOUS
 10
17.7990825272
 20
24.2941642634
 11
14.2356516906
 21
22.5839095156
  0
LINE
  5
286
100
AcDbEntity
  8
ASSI
100
AcDbLine
 62
7
  6
CONTINUOUS
 10
2.3043300908
 20
16.9405820035
 11
3.1175028891
 21
17.2248836714
  0
LINE
  5
287
100
AcDbEntity
  8
0
100
AcDbLine
 62
252
  6
CONTINUOUS
 10
7.709369739
 20
-8.8804045999
 11
6.5912116392
 21
-8.9351678417
  0
LINE
  5
288
100
AcDbEntity
  8
0
100
AcDbLine
 62
252
  6
CONTINUOUS
 10
7.2955768485
 20
-8.4375060022
 11
8.6051737788
 21
-8.3826931124
  0
LINE
  5
289
100
AcDbEntity
  8
RACCORDO
100
AcDbLine
 62
7
  6
CONTINUOUS
 10
-9.6811298504
 20
25.0474890886
 11
-9.6811298504
 21
26.7795398961
  0
LINE
  5
28A
100
AcDbEntity
  8
RACCORDO
100
AcDbLine
 62
7
  6
CONTINUOUS
 10
-8.9781368961
 20
26.9148613939
 11
-8.9781368961
 21
26.6539324175
  0
LINE
  5
28B
100
AcDbEntity
  8
DRAFT
100
AcDbLine
 62
7
  6
CONTINUOUS
 10
-7.2416114553
 20
20.7545334061
 11
-7.3510239324
 21
19.608465442
  0
LINE
  5
28C
100
AcDbEntity
  8
DRAFT
100
AcDbLine
 62
7
  6
CONTINUOUS
 10
-5.7065653848
 20
18.3825471373
 11
-5.7732875791
 21
17.995227944
  0
LINE
  5
28D
100
AcDbEntity
  8
RACCORDO
100
AcDbLine
 62
253
  6
CONTINUOUS
 10
-0.6550078038
 20
14.8175836409
 11
-4.7876560489
 21
12.1208883208
  0
LINE
  5
28E
100
AcDbEntity
  8
RACCORDO
100
AcDbLine
 62
253
  6
CONTINUOUS
 10
18.9672265708
 20
23.290130194
 11
4.7792038249
 21
16.0719340751
  0
LINE
  5
28F
100
AcDbEntity
  8
ASSI
100
AcDbLine
 62
253
  6
CONTINUOUS
 10
18.9672265708
 20
23.290130194
 11
4.7792038249
 21
16.0719340751
  0
LINE
  5
290
100
AcDbEntity
  8
RACCORDO
100
AcDbLine
 62
253
  6
CONTINUOUS
 10
1.1118778728
 20
14.1253034015
 11
-0.4964148946
 21
13.3149560264
  0
LINE
  5
291
100
AcDbEntity
  8
0
100
AcDbLine
 62
252
  6
CONTINUOUS
 10
7.1445970944
 20
-6.7815288712
 11
7.8920037265
 21
-6.6555461651
  0
LINE
  5
292
100
AcDbEntity
  8
0
100
AcDbLine
 62
252
  6
CONTINUOUS
 10
8.203115354
 20
-6.6016868757
 11
8.6051737788
 21
-6.5381559972
  0
LINE
  5
293
100
AcDbEntity
  8
0
100
AcDbLine
 62
252
  6
CONTINUOUS
 10
8.6051737788
 20
-7.0566497366
 11
6.5912116392
 21
-7.3117451986
  0
LINE
  5
294
100
AcDbEntity
  8
RACCORDO
100
AcDbLine
 62
7
  6
CONTINUOUS
 10
-7.5033728474
 20
24.5214759568
 11
-7.5033728474
 21
23.3067425706
  0
LINE
  5
295
100
AcDbEntity
  8
RACCORDO
100
AcDbLine
 62
253
  6
CONTINUOUS
 10
-7.4155048817
 20
24.4149669999
 11
-7.4155048817
 21
23.2000121339
  0
LINE
  5
296
100
AcDbEntity
  8
0
100
AcDbLine
 62
7
  6
CONTINUOUS
 10
-7.2416114553
 20
21.7135527765
 11
-7.2416114553
 21
20.7545334061
  0
LINE
  5
297
100
AcDbEntity
  8
ASSI
100
AcDbLine
 62
7
  6
CONTINUOUS
 10
-6.1455959444
 20
20.8186642415
 11
-6.1455959444
 21
21.1655450211
  0
LINE
  5
298
100
AcDbEntity
  8
RACCORDO
100
AcDbLine
 62
7
  6
CONTINUOUS
 10
4.2983071491
 20
19.7398220473
 11
3.7710624333
 21
19.0981143193
  0
LINE
  5
299
100
AcDbEntity
  8
RACCORDO
100
AcDbLine
 62
253
  6
CONTINUOUS
 10
19.3813770465
 20
21.8584966193
 11
4.7792038249
 21
14.4296002916
  0
LINE
  5
29A
100
AcDbEntity
  8
ASSI
100
AcDbLine
 62
253
  6
CONTINUOUS
 10
19.3813770465
 20
21.8584966193
 11
4.7792038249
 21
14.4296002916
  0
LINE
  5
29B
100
AcDbEntity
  8
0
100
AcDbLine
 62
252
  6
CONTINUOUS
 10
6.5858975525
 20
11.2419864299
 11
8.6001000073
 21
12.2848702799
  0
LINE
  5
29C
100
AcDbEntity
  8
0
100
AcDbLine
 62
252
  6
CONTINUOUS
 10
8.1820578442
 20
11.5640113135
 11
6.5858975525
 21
10.7375751296
  0
LINE
  5
29D
100
AcDbEntity
  8
ASSI
100
AcDbLine
 62
7
  6
CONTINUOUS
 10
1.1689022482
 20
-2.463501774
 11
1.3850912752
 21
-2.5715962875
  0
LINE
  5
29E
100
AcDbEntity
  8
RACCORDO
100
AcDbLine
 62
7
  6
CONTINUOUS
 10
-5.2637929983
 20
17.7404806536
 11
-5.3556473275
 21
18.6107771396
  0
LINE
  5
29F
100
AcDbEntity
  8
0
100
AcDbLine
 62
7
  6
CONTINUOUS
 10
-2.291863987
 20
19.2386790424
 11
-2.291863987
 21
18.2796596719
  0
LINE
  5
2A0
100
AcDbEntity
  8
RACCORDO
100
AcDbLine
 62
253
  6
CONTINUOUS
 10
-1.6229958137
 20
20.3037575998
 11
-1.6229958137
 21
21.5187124659
  0
LINE
  5
2A1
100
AcDbEntity
  8
DRAFT
100
AcDbLine
 62
7
  6
CONTINUOUS
 10
-2.291863987
 20
18.2796596719
 11
-2.428335206
 21
16.8501582455
  0
LINE
  5
2A2
100
AcDbEntity
  8
0
100
AcDbLine
 62
7
  6
CONTINUOUS
 10
6.5858975525
 20
12.750372518
 11
8.6001000073
 21
14.7645749728
  0
LINE
  5
2A3
100
AcDbEntity
  8
0
100
AcDbLine
 62
7
  6
CONTINUOUS
 10
6.6647482123
 20
12.4092017499
 11
7.1838690349
 21
12.9283225724
  0
LINE
  5
2A4
100
AcDbEntity
  8
0
100
AcDbLine
 62
7
  6
CONTINUOUS
 10
7.8384731058
 20
13.5829266433
 11
8.1732009098
 21
13.9176544474
  0
LINE
  5
2A5
100
AcDbEntity
  8
0
100
AcDbLine
 62
7
  6
CONTINUOUS
 10
7.1149207273
 20
12.4393528368
 11
7.6447079776
 21
12.9691400871
  0
LINE
  5
2A6
100
AcDbEntity
  8
0
100
AcDbLine
 62
7
  6
CONTINUOUS
 10
7.8384731058
 20
13.1629052153
 11
8.1732009098
 21
13.4976330193
  0
LINE
  5
2A7
100
AcDbEntity
  8
0
100
AcDbLine
 62
252
  6
CONTINUOUS
 10
8.6001000073
 20
14.9598512792
 11
6.5858975525
 21
13.0439575305
  0
LINE
  5
2A8
100
AcDbEntity
  8
0
100
AcDbLine
 62
252
  6
CONTINUOUS
 10
8.1732009098
 20
14.0153263223
 11
8.6001000073
 21
14.4173504496
  0
LINE
  5
2A9
100
AcDbEntity
  8
0
100
AcDbLine
 62
252
  6
CONTINUOUS
 10
6.9709040171
 20
12.9094597942
 11
7.8384731058
 21
13.7062967572
  0
LINE
  5
2AA
100
AcDbEntity
  8
0
100
AcDbLine
 62
253
  6
CONTINUOUS
 10
10.8425790215
 20
11.8480541414
 11
10.465478766
 21
11.6528047685
  0
LINE
  5
2AB
100
AcDbEntity
  8
0
100
AcDbLine
 62
252
  6
CONTINUOUS
 10
6.9143486849
 20
9.648448601
 11
8.6001000073
 21
10.521271899
  0
LINE
  5
2AC
100
AcDbEntity
  8
0
100
AcDbLine
 62
252
  6
CONTINUOUS
 10
12.3887726094
 20
12.3471053254
 11
12.9102565705
 21
12.6171115503
  0
LINE
  5
2AD
100
AcDbEntity
  8
0
100
AcDbLine
 62
252
  6
CONTINUOUS
 10
15.4067841124
 20
13.9097265248
 11
15.9282680735
 21
14.1797327497
  0
LINE
  5
2AE
100
AcDbEntity
  8
0
100
AcDbLine
 62
252
  6
CONTINUOUS
 10
18.6743500028
 20
15.2697337291
 11
18.3249657505
 21
15.0888347368
  0
LINE
  5
2AF
100
AcDbEntity
  8
0
100
AcDbLine
 62
252
  6
CONTINUOUS
 10
13.8980631275
 20
12.7821532058
 11
14.4189775554
 21
13.0518645463
  0
LINE
  5
2B0
100
AcDbEntity
  8
0
100
AcDbLine
 62
252
  6
CONTINUOUS
 10
8.6001000073
 20
10.0168597327
 11
6.5858975525
 21
8.9739758826
  0
LINE
  5
2B1
100
AcDbEntity
  8
0
100
AcDbLine
 62
253
  6
CONTINUOUS
 10
10.3712037071
 20
10.6989958808
 11
10.8425790215
 21
10.9430575945
  0
LINE
  5
2B2
100
AcDbEntity
  8
0
100
AcDbLine
 62
253
  6
CONTINUOUS
 10
10.0883784909
 20
10.0354177695
 11
10.6540288839
 21
10.328291834
  0
LINE
  5
2B3
100
AcDbEntity
  8
DRAFT
100
AcDbLine
 62
7
  6
CONTINUOUS
 10
-1.2665591542
 20
24.5572982175
 11
-1.2665591542
 21
25.8070022936
  0
LINE
  5
2B4
100
AcDbEntity
  8
RACCORDO
100
AcDbLine
 62
253
  6
CONTINUOUS
 10
-1.1999694621
 20
20.3053964474
 11
-1.1999694621
 21
21.5195999202
  0
LINE
  5
2B5
100
AcDbEntity
  8
DRAFT
100
AcDbLine
 62
7
  6
CONTINUOUS
 10
-0.9130057636
 20
25.077667409
 11
-0.9130057636
 21
25.6302255983
  0
LINE
  5
2B6
100
AcDbEntity
  8
RACCORDO
100
AcDbLine
 62
253
  6
CONTINUOUS
 10
-0.8422950855
 20
27.2464338958
 11
-0.8422950855
 21
26.0145997144
  0
LINE
  5
2B7
100
AcDbEntity
  8
RACCORDO
100
AcDbLine
 62
7
  6
CONTINUOUS
 10
-0.7544271199
 20
27.3514311098
 11
-0.7544271199
 21
26.1190625049
  0
LINE
  5
2B8
100
AcDbEntity
  8
DRAFT
100
AcDbLine
 62
7
  6
CONTINUOUS
 10
-0.7008737293
 20
21.7697965933
 11
-0.7008737293
 21
20.557361028
  0
LINE
  5
2B9
100
AcDbEntity
  8
RACCORDO
100
AcDbLine
 62
7
  6
CONTINUOUS
 10
0.2993603316
 20
-22.0126654636
 11
0.2993603316
 21
-21.7592940699
  0
LINE
  5
2BA
100
AcDbEntity
  8
RACCORDO
100
AcDbLine
 62
7
  6
CONTINUOUS
 10
0.2993603316
 20
19.5403100695
 11
0.2993603316
 21
19.7936814633
  0
LINE
  5
2BB
100
AcDbEntity
  8
RACCORDO
100
AcDbLine
 62
7
  6
CONTINUOUS
 10
0.2997560448
 20
5.7714381907
 11
1.1118778728
 21
14.1253034015
  0
LINE
  5
2BC
100
AcDbEntity
  8
0
100
AcDbLine
 62
252
  6
CONTINUOUS
 10
6.5858975525
 20
9.774022275
 11
8.1820578442
 21
11.5640113135
  0
LINE
  5
2BD
100
AcDbEntity
  8
0
100
AcDbLine
 62
252
  6
CONTINUOUS
 10
8.6001000073
 20
11.5196051998
 11
6.9143486849
 21
9.648448601
  0
LINE
  5
2BE
100
AcDbEntity
  8
0
100
AcDbLine
 62
7
  6
CONTINUOUS
 10
7.5650932422
 20
12.4695039237
 11
8.1732009098
 21
13.0776115913
  0
LINE
  5
2BF
100
AcDbEntity
  8
0
100
AcDbLine
 62
7
  6
CONTINUOUS
 10
6.5858975525
 20
11.0702868059
 11
6.9419473619
 21
11.4263366153
  0
LINE
  5
2C0
100
AcDbEntity
  8
0
100
AcDbLine
 62
7
  6
CONTINUOUS
 10
8.0152657572
 20
12.4996550106
 11
8.5666467712
 21
13.0510360247
  0
LINE
  5
2C1
100
AcDbEntity
  8
0
100
AcDbLine
 62
7
  6
CONTINUOUS
 10
6.7669499027
 20
10.8313177282
 11
7.812936744
 21
11.8773045694
  0
LINE
  5
2C2
100
AcDbEntity
  8
0
100
AcDbLine
 62
7
  6
CONTINUOUS
 10
8.4654382721
 20
12.5298060975
 11
8.6001000073
 21
12.6644678327
  0
LINE
  5
2C3
100
AcDbEntity
  8
0
100
AcDbLine
 62
7
  6
CONTINUOUS
 10
7.6379392848
 20
11.2822856822
 11
8.6001000073
 21
12.2444464047
  0
LINE
  5
2C4
100
AcDbEntity
  8
0
100
AcDbLine
 62
7
  6
CONTINUOUS
 10
6.884002955
 20
10.1083279244
 11
8.6001000073
 21
11.8244249767
  0
LINE
  5
2C5
100
AcDbEntity
  8
0
100
AcDbLine
 62
7
  6
CONTINUOUS
 10
6.5858975525
 20
9.3902010938
 11
7.5526576712
 21
10.3569612125
  0
LINE
  5
2C6
100
AcDbEntity
  8
0
100
AcDbLine
 62
7
  6
CONTINUOUS
 10
6.5937696855
 20
8.9780517988
 11
7.6397583226
 21
10.0240404359
  0
LINE
  5
2C7
100
AcDbEntity
  8
0
100
AcDbLine
 62
7
  6
CONTINUOUS
 10
7.4647590676
 20
9.4290197529
 11
8.5107477047
 21
10.47500839
  0
LINE
  5
2C8
100
AcDbEntity
  8
ASSI
100
AcDbLine
 62
7
  6
CONTINUOUS
 10
19.7766709221
 20
15.7060666859
 11
19.7853683675
 21
15.7117533891
  0
LINE
  5
2C9
100
AcDbEntity
  8
RACCORDO
100
AcDbLine
 62
7
  6
CONTINUOUS
 10
19.7837188136
 20
15.7107259864
 11
19.7853122268
 21
15.7117187746
  0
LINE
  5
2CA
100
AcDbEntity
  8
RACCORDO
100
AcDbLine
 62
7
  6
CONTINUOUS
 10
19.7853125748
 20
15.7117187618
 11
19.7853619471
 21
15.7117491938
  0
LINE
  5
2CB
100
AcDbEntity
  8
DRAFT
100
AcDbLine
 62
7
  6
CONTINUOUS
 10
19.7846355294
 20
15.7113017978
 11
20.9160478638
 21
16.4080910964
  0
LINE
  5
2CC
100
AcDbEntity
  8
ASSI
100
AcDbLine
 62
7
  6
CONTINUOUS
 10
19.7846355294
 20
15.7113017978
 11
20.9160478638
 21
16.4080910964
  0
LINE
  5
2CD
100
AcDbEntity
  8
0
100
AcDbLine
 62
252
  6
CONTINUOUS
 10
17.771431661
 20
13.6030608199
 11
18.6743500028
 21
14.0705604768
  0
LINE
  5
2CE
100
AcDbEntity
  8
0
100
AcDbLine
 62
253
  6
CONTINUOUS
 10
10.6540288839
 20
9.423295287
 11
10.0883784909
 21
9.1304212226
  0
LINE
  5
2CF
100
AcDbEntity
  8
0
100
AcDbLine
 62
253
  6
CONTINUOUS
 10
10.0883784909
 20
8.6132803694
 11
10.6540288839
 21
8.9061544339
  0
LINE
  5
2D0
100
AcDbEntity
  8
0
100
AcDbLine
 62
252
  6
CONTINUOUS
 10
18.6743500028
 20
12.3504027961
 11
17.771431661
 21
11.8829031392
  0
LINE
  5
2D1
100
AcDbEntity
  8
0
100
AcDbLine
 62
252
  6
CONTINUOUS
 10
8.2653728978
 20
6.8769043334
 11
8.6001000073
 21
7.0502143678
  0
LINE
  5
2D2
100
AcDbEntity
  8
0
100
AcDbLine
 62
253
  6
CONTINUOUS
 10
10.6540288839
 20
8.0011578869
 11
10.0883784909
 21
7.7082838224
  0
LINE
  5
2D3
100
AcDbEntity
  8
RACCORDO
100
AcDbLine
 62
253
  6
CONTINUOUS
 10
0.6878240184
 20
2.541273338
 11
0.6430039738
 21
2.5192510704
  0
LINE
  5
2D4
100
AcDbEntity
  8
RACCORDO
100
AcDbLine
 62
7
  6
CONTINUOUS
 10
0.638053161
 20
2.5661587667
 11
0.6878240184
 21
2.541273338
  0
LINE
  5
2D5
100
AcDbEntity
  8
RACCORDO
100
AcDbLine
 62
7
  6
CONTINUOUS
 10
2.9729917519
 20
-19.5567925181
 11
-0.6550078038
 21
14.8175836409
  0
LINE
  5
2D6
100
AcDbEntity
  8
ASSI
100
AcDbLine
 62
7
  6
CONTINUOUS
 10
1.3850912752
 20
-2.5715962875
 11
3.1175028891
 21
-18.985757195
  0
LINE
  5
2D7
100
AcDbEntity
  8
DRAFT
100
AcDbLine
 62
7
  6
CONTINUOUS
 10
1.0023532859
 20
18.6337508148
 11
1.0023532859
 21
19.0860817905
  0
LINE
  5
2D8
100
AcDbEntity
  8
RACCORDO
100
AcDbLine
 62
7
  6
CONTINUOUS
 10
1.844710683
 20
26.1211081423
 11
1.844710683
 21
25.8503078496
  0
LINE
  5
2D9
100
AcDbEntity
  8
RACCORDO
100
AcDbLine
 62
7
  6
CONTINUOUS
 10
1.9051367938
 20
18.9907932322
 11
1.9051367938
 21
18.7374218384
  0
LINE
  5
2DA
100
AcDbEntity
  8
RACCORDO
100
AcDbLine
 62
7
  6
CONTINUOUS
 10
1.9051367938
 20
-22.562182301
 11
1.9051367938
 21
-22.8155536947
  0
LINE
  5
2DB
100
AcDbEntity
  8
RACCORDO
100
AcDbLine
 62
7
  6
CONTINUOUS
 10
2.3043300908
 20
16.9649775088
 11
2.3043300908
 21
16.9405820035
  0
LINE
  5
2DC
100
AcDbEntity
  8
RACCORDO
100
AcDbLine
 62
7
  6
CONTINUOUS
 10
2.3043300908
 20
-21.164535763
 11
2.3043300908
 21
-21.1889312683
  0
LINE
  5
2DD
100
AcDbEntity
  8
DRAFT
100
AcDbLine
 62
7
  6
CONTINUOUS
 10
2.6163574019
 20
-21.5856858238
 11
2.6163574019
 21
-21.1810637328
  0
LINE
  5
2DE
100
AcDbEntity
  8
DRAFT
100
AcDbLine
 62
7
  6
CONTINUOUS
 10
2.6163574019
 20
17.8267487568
 11
2.6163574019
 21
18.4639183156
  0
LINE
  5
2DF
100
AcDbEntity
  8
ASSI
100
AcDbLine
 62
7
  6
CONTINUOUS
 10
3.1175028891
 20
15.5749762339
 11
1.3850912752
 21
-2.5715962875
  0
LINE
  5
2E0
100
AcDbEntity
  8
RACCORDO
100
AcDbLine
 62
7
  6
CONTINUOUS
 10
0.8117348642
 20
2.2887484753
 11
0.7428247118
 21
1.5734748802
  0
LINE
  5
2E1
100
AcDbEntity
  8
0
100
AcDbLine
 62
7
  6
CONTINUOUS
 10
8.3357484497
 20
9.879987707
 11
8.6001000073
 21
10.1443392646
  0
LINE
  5
2E2
100
AcDbEntity
  8
0
100
AcDbLine
 62
7
  6
CONTINUOUS
 10
6.5858975525
 20
7.7101153817
 11
8.6001000073
 21
9.7243178365
  0
LINE
  5
2E3
100
AcDbEntity
  8
0
100
AcDbLine
 62
7
  6
CONTINUOUS
 10
6.5858975525
 20
7.2900939537
 11
6.9890365259
 21
7.6932329271
  0
LINE
  5
2E4
100
AcDbEntity
  8
0
100
AcDbLine
 62
7
  6
CONTINUOUS
 10
7.1747682899
 20
7.8789646911
 11
8.6001000073
 21
9.3042964085
  0
LINE
  5
2E5
100
AcDbEntity
  8
0
100
AcDbLine
 62
7
  6
CONTINUOUS
 10
6.9246142627
 20
7.2087892359
 11
7.4498751915
 21
7.7340501647
  0
LINE
  5
2E6
100
AcDbEntity
  8
0
100
AcDbLine
 62
7
  6
CONTINUOUS
 10
7.8384731058
 20
8.122648079
 11
8.1732009098
 21
8.457375883
  0
LINE
  5
2E7
100
AcDbEntity
  8
0
100
AcDbLine
 62
7
  6
CONTINUOUS
 10
7.3748093908
 20
7.238962936
 11
8.1732009098
 21
8.037354455
  0
LINE
  5
2E8
100
AcDbEntity
  8
0
100
AcDbLine
 62
7
  6
CONTINUOUS
 10
7.825004519
 20
7.2691366362
 11
8.3741727183
 21
7.8183048355
  0
LINE
  5
2E9
100
AcDbEntity
  8
0
100
AcDbLine
 62
7
  6
CONTINUOUS
 10
8.2751996472
 20
7.2993103363
 11
8.6001000073
 21
7.6242106964
  0
LINE
  5
2EA
100
AcDbEntity
  8
0
100
AcDbLine
 62
252
  6
CONTINUOUS
 10
8.6001000073
 20
9.7421123073
 11
6.5858975525
 21
7.8261241618
  0
LINE
  5
2EB
100
AcDbEntity
  8
0
100
AcDbLine
 62
252
  6
CONTINUOUS
 10
8.1732009098
 20
8.7974929536
 11
8.6001000073
 21
9.1994235502
  0
LINE
  5
2EC
100
AcDbEntity
  8
0
100
AcDbLine
 62
252
  6
CONTINUOUS
 10
6.9707901104
 20
7.6916168121
 11
7.8384731058
 21
8.4885577853
  0
LWPOLYLINE
  5
2ED
100
AcDbEntity
  8
RACCORDO
100
AcDbPolyline
 62
7
  6
CONTINUOUS
 90
4
 70
0
 10
19.7749042945
 20
15.7048313114
 10
19.7780273627
 20
15.7069969557
 10
19.7809696593
 20
15.7089600882
 10
19.7837188136
 20
15.7107259864
  0
LINE
  5
2EE
100
AcDbEntity
  8
0
100
AcDbLine
 62
252
  6
CONTINUOUS
 10
12.3887726094
 20
8.549488667
 11
12.9102565705
 21
8.819494892
  0
LINE
  5
2EF
100
AcDbEntity
  8
0
100
AcDbLine
 62
252
  6
CONTINUOUS
 10
15.4067841124
 20
10.1121098664
 11
15.9282680735
 21
10.3821160913
  0
LINE
  5
2F0
100
AcDbEntity
  8
0
100
AcDbLine
 62
252
  6
CONTINUOUS
 10
17.771431661
 20
11.1866706761
 11
18.6743500028
 21
11.654170333
  0
LINE
  5
2F1
100
AcDbEntity
  8
0
100
AcDbLine
 62
252
  6
CONTINUOUS
 10
6.5858975525
 20
5.0780861255
 11
8.2653728978
 21
5.9476599412
  0
LINE
  5
2F2
100
AcDbEntity
  8
0
100
AcDbLine
 62
253
  6
CONTINUOUS
 10
11.031129159
 20
7.3776009732
 11
10.3712037071
 21
7.035914568
  0
LINE
  5
2F3
100
AcDbEntity
  8
0
100
AcDbLine
 62
252
  6
CONTINUOUS
 10
17.771431661
 20
10.412850997
 11
18.6743500028
 21
10.8803506539
  0
LINE
  5
2F4
100
AcDbEntity
  8
0
100
AcDbLine
 62
252
  6
CONTINUOUS
 10
8.6001000073
 20
5.581777363
 11
6.5858975525
 21
4.538893513
  0
LINE
  5
2F5
100
AcDbEntity
  8
0
100
AcDbLine
 62
253
  6
CONTINUOUS
 10
9.7112782552
 20
5.5737562604
 11
11.031129159
 21
6.2571290707
  0
LINE
  5
2F6
100
AcDbEntity
  8
0
100
AcDbLine
 62
252
  6
CONTINUOUS
 10
17.771431661
 20
9.5190045271
 11
18.6743500028
 21
9.9865041841
  0
LINE
  5
2F7
100
AcDbEntity
  8
0
100
AcDbLine
 62
252
  6
CONTINUOUS
 10
17.771431661
 20
9.1827026141
 11
18.6743500028
 21
9.6502022711
  0
LINE
  5
2F8
100
AcDbEntity
  8
RACCORDO
100
AcDbLine
 62
253
  6
CONTINUOUS
 10
0.8117348642
 20
2.2887484753
 11
0.6744514246
 21
2.2212944451
  0
LINE
  5
2F9
100
AcDbEntity
  8
0
100
AcDbLine
 62
253
  6
CONTINUOUS
 10
10.7483039625
 20
6.6278329456
 11
9.7112782552
 21
6.4787527534
  0
LINE
  5
2FA
100
AcDbEntity
  8
ASSI
100
AcDbLine
 62
7
  6
CONTINUOUS
 10
3.1175028891
 20
17.2248836714
 11
3.1175028891
 21
15.5749762339
  0
LINE
  5
2FB
100
AcDbEntity
  8
ASSI
100
AcDbLine
 62
7
  6
CONTINUOUS
 10
3.1175028891
 20
-18.985757195
 11
3.1175028891
 21
-20.6356646325
  0
LINE
  5
2FC
100
AcDbEntity
  8
RACCORDO
100
AcDbLine
 62
7
  6
CONTINUOUS
 10
3.6831883141
 20
-20.6590507645
 11
3.6831883141
 21
-22.1646588908
  0
LINE
  5
2FD
100
AcDbEntity
  8
RACCORDO
100
AcDbLine
 62
7
  6
CONTINUOUS
 10
3.6831883141
 20
18.3653300063
 11
3.6831883141
 21
20.0973808139
  0
LINE
  5
2FE
100
AcDbEntity
  8
RACCORDO
100
AcDbLine
 62
7
  6
CONTINUOUS
 10
4.3861812683
 20
20.2327023117
 11
4.3861812683
 21
19.9717733353
  0
LINE
  5
2FF
100
AcDbEntity
  8
RACCORDO
100
AcDbLine
 62
7
  6
CONTINUOUS
 10
4.3861812683
 20
-21.3278308041
 11
4.3861812683
 21
-21.5887597804
  0
LINE
  5
300
100
AcDbEntity
  8
RACCORDO
100
AcDbLine
 62
253
  6
CONTINUOUS
 10
4.7133989659
 20
24.4698122037
 11
4.7133989659
 21
23.2379736253
  0
LINE
  5
301
100
AcDbEntity
  8
ASSI
100
AcDbLine
 62
7
  6
CONTINUOUS
 10
4.7792038249
 20
14.4296002916
 11
4.7792038249
 21
-16.1786803169
  0
LINE
  5
302
100
AcDbEntity
  8
RACCORDO
100
AcDbLine
 62
7
  6
CONTINUOUS
 10
4.7792038249
 20
-19.962830935
 11
4.7792038249
 21
18.2137509097
  0
LINE
  5
303
100
AcDbEntity
  8
RACCORDO
100
AcDbLine
 62
7
  6
CONTINUOUS
 10
4.8000363943
 20
24.574199579
 11
4.8000363943
 21
23.3418310873
  0
LINE
  5
304
100
AcDbEntity
  8
0
100
AcDbLine
 62
253
  6
CONTINUOUS
 10
9.899828373
 20
9.8085079288
 11
10.0883784909
 21
10.0354177695
  0
LINE
  5
305
100
AcDbEntity
  8
0
100
AcDbLine
 62
253
  6
CONTINUOUS
 10
10.8425790215
 20
9.6502051379
 11
10.6540288839
 21
9.423295287
  0
LINE
  5
306
100
AcDbEntity
  8
0
100
AcDbLine
 62
253
  6
CONTINUOUS
 10
9.899828373
 20
8.3863705287
 11
10.0883784909
 21
8.6132803694
  0
LINE
  5
307
100
AcDbEntity
  8
0
100
AcDbLine
 62
253
  6
CONTINUOUS
 10
10.8425790215
 20
8.2280679536
 11
10.6540288839
 21
8.0011578869
  0
LINE
  5
308
100
AcDbEntity
  8
0
100
AcDbLine
 62
7
  6
CONTINUOUS
 10
8.2653728978
 20
6.8694621589
 11
8.2808055747
 21
6.8848948358
  0
LINE
  5
309
100
AcDbEntity
  8
0
100
AcDbLine
 62
7
  6
CONTINUOUS
 10
6.5858975525
 20
4.7699653855
 11
7.2248408896
 21
5.4089087227
  0
LINE
  5
30A
100
AcDbEntity
  8
0
100
AcDbLine
 62
7
  6
CONTINUOUS
 10
8.2653728978
 20
6.4494407309
 11
8.6001000073
 21
6.7841678404
  0
LINE
  5
30B
100
AcDbEntity
  8
0
100
AcDbLine
 62
7
  6
CONTINUOUS
 10
6.9777181729
 20
4.741764578
 11
8.0958302718
 21
5.8598766768
  0
LINE
  5
30C
100
AcDbEntity
  8
0
100
AcDbLine
 62
7
  6
CONTINUOUS
 10
8.2653728978
 20
6.0294193029
 11
8.6001000073
 21
6.3641464123
  0
LINE
  5
30D
100
AcDbEntity
  8
0
100
AcDbLine
 62
7
  6
CONTINUOUS
 10
6.7898587954
 20
4.1338837725
 11
7.1429797071
 21
4.4870046841
  0
LINE
  5
30E
100
AcDbEntity
  8
0
100
AcDbLine
 62
7
  6
CONTINUOUS
 10
7.848707555
 20
5.1927325321
 11
8.6001000073
 21
5.9441249843
  0
LINE
  5
30F
100
AcDbEntity
  8
0
100
AcDbLine
 62
7
  6
CONTINUOUS
 10
6.6051319451
 20
3.5291354941
 11
7.6315191883
 21
4.5555227373
  0
LINE
  5
310
100
AcDbEntity
  8
0
100
AcDbLine
 62
7
  6
CONTINUOUS
 10
6.5858972844
 20
3.0898794054
 11
6.9206250085
 21
3.4246071295
  0
LINE
  5
311
100
AcDbEntity
  8
0
100
AcDbLine
 62
7
  6
CONTINUOUS
 10
7.4418188782
 20
3.9458009991
 11
7.780553065
 21
4.284535186
  0
LINE
  5
312
100
AcDbEntity
  8
0
100
AcDbLine
 62
7
  6
CONTINUOUS
 10
6.5858974475
 20
2.6698581405
 11
7.1434020337
 21
3.2273627266
  0
LINE
  5
313
100
AcDbEntity
  8
0
100
AcDbLine
 62
7
  6
CONTINUOUS
 10
7.4897229799
 20
3.5736836729
 11
7.8217717285
 21
3.9057324215
  0
LINE
  5
314
100
AcDbEntity
  8
0
100
AcDbLine
 62
7
  6
CONTINUOUS
 10
6.8962793169
 20
2.5602185819
 11
8.0143914158
 21
3.6783306807
  0
LINE
  5
315
100
AcDbEntity
  8
0
100
AcDbLine
 62
252
  6
CONTINUOUS
 10
8.6001000073
 20
3.9815901815
 11
7.8244507839
 21
3.5799860397
  0
LINE
  5
316
100
AcDbEntity
  8
0
100
AcDbLine
 62
252
  6
CONTINUOUS
 10
7.4897229799
 20
3.4066756457
 11
6.9206246619
 21
3.1120163658
  0
LINE
  5
317
100
AcDbEntity
  8
0
100
AcDbLine
 62
252
  6
CONTINUOUS
 10
6.5858975525
 20
2.3995137189
 11
8.6001000073
 21
3.4423975689
  0
LINE
  5
318
100
AcDbEntity
  8
0
100
AcDbLine
 62
252
  6
CONTINUOUS
 10
17.771431661
 20
7.6169520668
 11
18.6743500028
 21
8.0844517237
  0
LINE
  5
319
100
AcDbEntity
  8
0
100
AcDbLine
 62
252
  6
CONTINUOUS
 10
17.771431661
 20
6.4769603925
 11
18.6743500028
 21
6.9444600495
  0
LINE
  5
31A
100
AcDbEntity
  8
0
100
AcDbLine
 62
252
  6
CONTINUOUS
 10
7.8384731058
 20
7.7684689203
 11
6.9707901104
 21
7.6916168121
  0
LINE
  5
31B
100
AcDbEntity
  8
0
100
AcDbLine
 62
252
  6
CONTINUOUS
 10
8.6001000073
 20
7.8358951308
 11
8.1732009098
 21
7.8026575293
  0
LINE
  5
31C
100
AcDbEntity
  8
0
100
AcDbLine
 62
252
  6
CONTINUOUS
 10
6.5858975525
 20
7.1860872211
 11
8.6001000073
 21
7.3210863295
  0
LINE
  5
31D
100
AcDbEntity
  8
0
100
AcDbLine
 62
252
  6
CONTINUOUS
 10
17.771431661
 20
5.8356547246
 11
18.6743500028
 21
5.8092306489
  0
LINE
  5
31E
100
AcDbEntity
  8
0
100
AcDbLine
 62
252
  6
CONTINUOUS
 10
17.771431661
 20
5.1911984563
 11
18.6743500028
 21
5.119278602
  0
LINE
  5
31F
100
AcDbEntity
  8
RACCORDO
100
AcDbLine
 62
253
  6
CONTINUOUS
 10
-6.3369687521
 20
11.2562691565
 11
-20.6654490867
 21
18.4205093238
  0
LINE
  5
320
100
AcDbEntity
  8
0
100
AcDbLine
 62
252
  6
CONTINUOUS
 10
6.5858975525
 20
13.0439575305
 11
6.5858975525
 21
12.4039205898
  0
LINE
  5
321
100
AcDbEntity
  8
0
100
AcDbLine
 62
252
  6
CONTINUOUS
 10
6.5858975525
 20
7.8261241618
 11
6.5858975525
 21
7.1860872211
  0
LINE
  5
322
100
AcDbEntity
  8
0
100
AcDbLine
 62
252
  6
CONTINUOUS
 10
6.5858975525
 20
3.168050643
 11
6.5858975525
 21
2.3995137189
  0
LINE
  5
323
100
AcDbEntity
  8
0
100
AcDbLine
 62
252
  6
CONTINUOUS
 10
6.5858975525
 20
4.538893513
 11
6.5858975525
 21
5.0780861255
  0
LINE
  5
324
100
AcDbEntity
  8
0
100
AcDbLine
 62
252
  6
CONTINUOUS
 10
6.5858975525
 20
8.9739758826
 11
6.5858975525
 21
9.774022275
  0
LINE
  5
325
100
AcDbEntity
  8
0
100
AcDbLine
 62
252
  6
CONTINUOUS
 10
6.5858975525
 20
10.7375751296
 11
6.5858975525
 21
11.2419864299
  0
LINE
  5
326
100
AcDbEntity
  8
0
100
AcDbLine
 62
252
  6
CONTINUOUS
 10
6.591090787
 20
-11.0107287109
 11
6.591090787
 21
-11.5349096391
  0
LINE
  5
327
100
AcDbEntity
  8
0
100
AcDbLine
 62
252
  6
CONTINUOUS
 10
6.5912116392
 20
-13.7945879368
 11
6.5912116392
 21
-13.2251667075
  0
LINE
  5
328
100
AcDbEntity
  8
0
100
AcDbLine
 62
252
  6
CONTINUOUS
 10
6.5912116392
 20
-12.2531934879
 11
6.5912116392
 21
-11.7293710942
  0
LINE
  5
329
100
AcDbEntity
  8
0
100
AcDbLine
 62
252
  6
CONTINUOUS
 10
6.5912116392
 20
-10.5017393812
 11
6.5912116392
 21
-9.9779923317
  0
LINE
  5
32A
100
AcDbEntity
  8
0
100
AcDbLine
 62
252
  6
CONTINUOUS
 10
6.5912116392
 20
-8.9351678417
 11
6.5912116392
 21
-8.4165424665
  0
LINE
  5
32B
100
AcDbEntity
  8
0
100
AcDbLine
 62
252
  6
CONTINUOUS
 10
6.5912116392
 20
-7.3117451986
 11
6.5912116392
 21
-6.804663076
  0
LINE
  5
32C
100
AcDbEntity
  8
0
100
AcDbLine
 62
252
  6
CONTINUOUS
 10
6.9206246619
 20
3.1120163658
 11
6.9206246619
 21
3.4265706489
  0
LINE
  5
32D
100
AcDbEntity
  8
0
100
AcDbLine
 62
253
  6
CONTINUOUS
 10
10.465478766
 20
11.6528047685
 11
10.2769286088
 21
11.2966097481
  0
LINE
  5
32E
100
AcDbEntity
  8
0
100
AcDbLine
 62
253
  6
CONTINUOUS
 10
9.7112782552
 20
9.4523129287
 11
9.899828373
 21
9.8085079288
  0
LINE
  5
32F
100
AcDbEntity
  8
0
100
AcDbLine
 62
253
  6
CONTINUOUS
 10
10.8425790215
 20
10.9430575945
 11
11.031129159
 21
11.2992526047
  0
LINE
  5
330
100
AcDbEntity
  8
0
100
AcDbLine
 62
253
  6
CONTINUOUS
 10
9.7112782552
 20
8.0301755286
 11
9.899828373
 21
8.3863705287
  0
LINE
  5
331
100
AcDbEntity
  8
0
100
AcDbLine
 62
253
  6
CONTINUOUS
 10
11.031129159
 20
10.0064005797
 11
10.8425790215
 21
9.6502051379
  0
LINE
  5
332
100
AcDbEntity
  8
0
100
AcDbLine
 62
253
  6
CONTINUOUS
 10
11.031129159
 20
8.5842629638
 11
10.8425790215
 21
8.2280679536
  0
LINE
  5
333
100
AcDbEntity
  8
0
100
AcDbLine
 62
252
  6
CONTINUOUS
 10
17.771431661
 20
14.3902328786
 11
18.3249657505
 21
15.0888347368
  0
LWPOLYLINE
  5
334
100
AcDbEntity
  8
RACCORDO
100
AcDbPolyline
 62
7
  6
CONTINUOUS
 90
25
 70
0
 10
21.2319781997
 20
16.6782810134
 10
21.232998739
 20
16.6794654121
 10
21.2409994463
 20
16.6890992212
 10
21.2487299351
 20
16.6990437055
 10
21.2561772184
 20
16.70928917
 10
21.2633318407
 20
16.719829579
 10
21.2701875452
 20
16.7306637127
 10
21.2767337396
 20
16.7417835696
 10
21.2829603477
 20
16.7531804632
 10
21.2888618206
 20
16.7648538076
 10
21.2944289156
 20
16.7767965056
 10
21.2996518013
 20
16.7889987107
 10
21.3045242332
 20
16.8014577035
 10
21.309037949
 20
16.8141662335
 10
21.313184384
 20
16.8271152048
 10
21.3169573638
 20
16.8403013835
 10
21.3203498374
 20
16.8537195231
 10
21.3233536942
 20
16.8673599793
 10
21.3259620354
 20
16.881215297
 10
21.3281682346
 20
16.895279164
 10
21.3299654554
 20
16.9095448198
 10
21.3313473
 20
16.9240070191
 10
21.3323071184
 20
16.9386615535
 10
21.3328379319
 20
16.9535026346
 10
21.3329506369
 20
16.964236251
  0
LINE
  5
335
100
AcDbEntity
  8
ASSI
100
AcDbLine
 62
7
  6
CONTINUOUS
 10
21.2322180748
 20
16.6785590181
 11
21.2319653535
 21
16.6782662903
  0
LINE
  5
336
100
AcDbEntity
  8
0
100
AcDbLine
 62
252
  6
CONTINUOUS
 10
18.6743500028
 20
13.8549444
 11
17.771431661
 21
12.8935218764
  0
LINE
  5
337
100
AcDbEntity
  8
0
100
AcDbLine
 62
7
  6
CONTINUOUS
 10
7.7672686991
 20
3.011186536
 11
8.6001000073
 21
3.8440178442
  0
LINE
  5
338
100
AcDbEntity
  8
0
100
AcDbLine
 62
252
  6
CONTINUOUS
 10
18.6743500028
 20
5.6586981132
 11
17.771431661
 21
5.1911984563
  0
LINE
  5
339
100
AcDbEntity
  8
0
100
AcDbLine
 62
252
  6
CONTINUOUS
 10
17.771431661
 20
4.1123594339
 11
18.6743500028
 21
4.5798590908
  0
LINE
  5
33A
100
AcDbEntity
  8
0
100
AcDbLine
 62
253
  6
CONTINUOUS
 10
10.0883784909
 20
7.7082838224
 11
9.899828373
 21
7.7399445162
  0
LINE
  5
33B
100
AcDbEntity
  8
RACCORDO
100
AcDbLine
 62
253
  6
CONTINUOUS
 10
-5.422063715
 20
13.0565965692
 11
-19.7757287881
 21
20.2334291058
  0
LINE
  5
33C
100
AcDbEntity
  8
0
100
AcDbLine
 62
252
  6
CONTINUOUS
 10
16.9375770871
 20
-6.3313227023
 11
16.2199716221
 21
-5.5501749435
  0
LINE
  5
33D
100
AcDbEntity
  8
0
100
AcDbLine
 62
252
  6
CONTINUOUS
 10
7.4871818661
 20
-4.6120922632
 11
7.4871818661
 21
-4.9116561627
  0
LINE
  5
33E
100
AcDbEntity
  8
0
100
AcDbLine
 62
252
  6
CONTINUOUS
 10
7.4897229799
 20
3.4066756457
 11
7.4897229799
 21
3.7212299288
  0
LINE
  5
33F
100
AcDbEntity
  8
0
100
AcDbLine
 62
252
  6
CONTINUOUS
 10
7.8170201167
 20
-4.7234963758
 11
7.8170201167
 21
-4.4424433709
  0
LINE
  5
340
100
AcDbEntity
  8
0
100
AcDbLine
 62
252
  6
CONTINUOUS
 10
7.8244507839
 20
3.8093303512
 11
7.8244507839
 21
3.5799860397
  0
LINE
  5
341
100
AcDbEntity
  8
0
100
AcDbLine
 62
252
  6
CONTINUOUS
 10
7.8384731058
 20
13.7062967572
 11
7.8384731058
 21
12.986302289
  0
LINE
  5
342
100
AcDbEntity
  8
0
100
AcDbLine
 62
252
  6
CONTINUOUS
 10
7.8384731058
 20
8.4885577853
 11
7.8384731058
 21
7.7684689203
  0
LINE
  5
343
100
AcDbEntity
  8
0
100
AcDbLine
 62
252
  6
CONTINUOUS
 10
7.8920037265
 20
-6.6555461651
 11
7.8920037265
 21
-6.1536801135
  0
LINE
  5
344
100
AcDbEntity
  8
0
100
AcDbLine
 62
252
  6
CONTINUOUS
 10
8.1732009098
 20
7.8026575293
 11
8.1732009098
 21
8.7974929536
  0
LINE
  5
345
100
AcDbEntity
  8
0
100
AcDbLine
 62
252
  6
CONTINUOUS
 10
8.1732009098
 20
13.020490032
 11
8.1732009098
 21
14.0153263223
  0
LINE
  5
346
100
AcDbEntity
  8
0
100
AcDbLine
 62
252
  6
CONTINUOUS
 10
8.203115354
 20
-5.8878403219
 11
8.203115354
 21
-6.6016868757
  0
LINE
  5
347
100
AcDbEntity
  8
0
100
AcDbLine
 62
252
  6
CONTINUOUS
 10
8.2653728978
 20
5.9476599412
 11
8.2653728978
 21
6.8769043334
  0
LINE
  5
348
100
AcDbEntity
  8
0
100
AcDbLine
 62
252
  6
CONTINUOUS
 10
8.6001000073
 20
12.2848702799
 11
8.6001000073
 21
11.5196051998
  0
LINE
  5
349
100
AcDbEntity
  8
0
100
AcDbLine
 62
252
  6
CONTINUOUS
 10
8.6001000073
 20
10.521271899
 11
8.6001000073
 21
10.0168597327
  0
LINE
  5
34A
100
AcDbEntity
  8
0
100
AcDbLine
 62
252
  6
CONTINUOUS
 10
8.6001000073
 20
7.0502143678
 11
8.6001000073
 21
5.581777363
  0
LINE
  5
34B
100
AcDbEntity
  8
0
100
AcDbLine
 62
252
  6
CONTINUOUS
 10
8.6001000073
 20
3.4423975689
 11
8.6001000073
 21
3.9815901815
  0
LINE
  5
34C
100
AcDbEntity
  8
0
100
AcDbLine
 62
252
  6
CONTINUOUS
 10
8.6001000073
 20
7.3210863295
 11
8.6001000073
 21
7.8358951308
  0
LINE
  5
34D
100
AcDbEntity
  8
0
100
AcDbLine
 62
252
  6
CONTINUOUS
 10
8.6001000073
 20
9.1994235502
 11
8.6001000073
 21
9.7421123073
  0
LINE
  5
34E
100
AcDbEntity
  8
0
100
AcDbLine
 62
252
  6
CONTINUOUS
 10
8.6001000073
 20
12.5388253014
 11
8.6001000073
 21
13.0536332367
  0
LINE
  5
34F
100
AcDbEntity
  8
0
100
AcDbLine
 62
252
  6
CONTINUOUS
 10
8.6001000073
 20
14.4173504496
 11
8.6001000073
 21
14.9598512792
  0
LINE
  5
350
100
AcDbEntity
  8
0
100
AcDbLine
 62
252
  6
CONTINUOUS
 10
8.6051737788
 20
-4.9914138414
 11
8.6051737788
 21
-5.5438782933
  0
LINE
  5
351
100
AcDbEntity
  8
0
100
AcDbLine
 62
252
  6
CONTINUOUS
 10
8.6051737788
 20
-6.5381559972
 11
8.6051737788
 21
-7.0566497366
  0
LINE
  5
352
100
AcDbEntity
  8
0
100
AcDbLine
 62
252
  6
CONTINUOUS
 10
8.6051737788
 20
-7.1389602551
 11
8.6051737788
 21
-7.651747753
  0
LINE
  5
353
100
AcDbEntity
  8
0
100
AcDbLine
 62
252
  6
CONTINUOUS
 10
8.6051737788
 20
-8.3826931124
 11
8.6051737788
 21
-8.4562091429
  0
LINE
  5
354
100
AcDbEntity
  8
0
100
AcDbLine
 62
252
  6
CONTINUOUS
 10
8.6051737788
 20
-9.1842541832
 11
8.6051737788
 21
-9.6857244612
  0
LINE
  5
355
100
AcDbEntity
  8
0
100
AcDbLine
 62
252
  6
CONTINUOUS
 10
8.6051737788
 20
-11.493803639
 11
8.6051737788
 21
-11.9557381253
  0
LINE
  5
356
100
AcDbEntity
  8
0
100
AcDbLine
 62
252
  6
CONTINUOUS
 10
8.6051737788
 20
-10.4920876429
 11
8.6051737788
 21
-9.9679067147
  0
LINE
  5
357
100
AcDbEntity
  8
0
100
AcDbLine
 62
252
  6
CONTINUOUS
 10
8.6051734493
 20
-4.8374892985
 11
8.6051734493
 21
-4.3154180419
  0
LINE
  5
358
100
AcDbEntity
  8
0
100
AcDbLine
 62
252
  6
CONTINUOUS
 10
8.6051734493
 20
-3.5127080629
 11
8.6051734493
 21
-3.0085074462
  0
LINE
  5
359
100
AcDbEntity
  8
RACCORDO
100
AcDbLine
 62
253
  6
CONTINUOUS
 10
9.4714443597
 20
22.2139754262
 11
9.4714443597
 21
22.0017162722
  0
LINE
  5
35A
100
AcDbEntity
  8
RACCORDO
100
AcDbLine
 62
253
  6
CONTINUOUS
 10
9.4714443597
 20
-14.7402502983
 11
9.4714443597
 21
-14.9300200024
  0
LINE
  5
35B
100
AcDbEntity
  8
ASSI
100
AcDbLine
 62
7
  6
CONTINUOUS
 10
21.2322181369
 20
16.6785589645
 11
21.2471626414
 21
16.6969734009
  0
LINE
  5
35C
100
AcDbEntity
  8
0
100
AcDbLine
 62
253
  6
CONTINUOUS
 10
10.6540288839
 20
8.9061544339
 11
10.8425790215
 21
8.8744939661
  0
LINE
  5
35D
100
AcDbEntity
  8
0
100
AcDbLine
 62
253
  6
CONTINUOUS
 10
10.0883784909
 20
9.1304212226
 11
9.899828373
 21
9.1620817005
  0
LINE
  5
35E
100
AcDbEntity
  8
0
100
AcDbLine
 62
253
  6
CONTINUOUS
 10
10.0883784909
 20
5.251864716
 11
9.7112782552
 21
5.5737562604
  0
LINE
  5
35F
100
AcDbEntity
  8
RACCORDO
100
AcDbLine
 62
7
  6
CONTINUOUS
 10
9.5555959273
 20
22.5077892701
 11
9.555642398
 21
22.5016519321
  0
LINE
  5
360
100
AcDbEntity
  8
RACCORDO
100
AcDbLine
 62
7
  6
CONTINUOUS
 10
9.5556424196
 20
22.5015963045
 11
9.5556424196
 21
21.925633115
  0
LINE
  5
361
100
AcDbEntity
  8
RACCORDO
100
AcDbLine
 62
7
  6
CONTINUOUS
 10
9.5556424196
 20
-14.6957249773
 11
9.5556424196
 21
-15.0092433695
  0
LINE
  5
362
100
AcDbEntity
  8
0
100
AcDbLine
 62
253
  6
CONTINUOUS
 10
9.7112782552
 20
7.9008901535
 11
9.7112782552
 21
8.0301755286
  0
LINE
  5
363
100
AcDbEntity
  8
0
100
AcDbLine
 62
253
  6
CONTINUOUS
 10
9.7112782552
 20
9.3230277694
 11
9.7112782552
 21
9.4523129287
  0
LINE
  5
364
100
AcDbEntity
  8
0
100
AcDbLine
 62
253
  6
CONTINUOUS
 10
9.9595435797
 20
23.4987347576
 11
9.9595435797
 21
23.8968007199
  0
LINE
  5
365
100
AcDbEntity
  8
ASSI
100
AcDbLine
 62
253
  6
CONTINUOUS
 10
9.9595435797
 20
23.4987347576
 11
9.9595435797
 21
23.8968007199
  0
LINE
  5
366
100
AcDbEntity
  8
0
100
AcDbLine
 62
253
  6
CONTINUOUS
 10
10.2769286088
 20
11.2966097481
 11
10.2769286088
 21
10.7363737699
  0
LINE
  5
367
100
AcDbEntity
  8
DRAFT
100
AcDbLine
 62
7
  6
CONTINUOUS
 10
10.6422537776
 20
23.838739056
 11
10.6422537776
 21
23.4057263541
  0
LINE
  5
368
100
AcDbEntity
  8
ASSI
100
AcDbLine
 62
7
  6
CONTINUOUS
 10
10.6422537776
 20
23.838739056
 11
10.6422537776
 21
23.4057263541
  0
LINE
  5
369
100
AcDbEntity
  8
0
100
AcDbLine
 62
253
  6
CONTINUOUS
 10
10.7483039625
 20
7.5328293846
 11
10.7483039625
 21
6.6278329456
  0
LINE
  5
36A
100
AcDbEntity
  8
0
100
AcDbLine
 62
253
  6
CONTINUOUS
 10
11.031129159
 20
10.1356857391
 11
11.031129159
 21
10.0064005797
  0
LINE
  5
36B
100
AcDbEntity
  8
0
100
AcDbLine
 62
253
  6
CONTINUOUS
 10
11.031129159
 20
8.7135483389
 11
11.031129159
 21
8.5842629638
  0
LINE
  5
36C
100
AcDbEntity
  8
0
100
AcDbLine
 62
253
  6
CONTINUOUS
 10
11.031129159
 20
11.2992526047
 11
11.031129159
 21
11.6871085143
  0
LINE
  5
36D
100
AcDbEntity
  8
0
100
AcDbLine
 62
7
  6
CONTINUOUS
 10
12.1301728296
 20
22.4226793231
 11
12.1217521492
 21
22.1354002956
  0
LINE
  5
36E
100
AcDbEntity
  8
RACCORDO
100
AcDbLine
 62
7
  6
CONTINUOUS
 10
9.5555959273
 20
-15.0101549322
 11
9.555642398
 21
-15.0094129774
  0
LINE
  5
36F
100
AcDbEntity
  8
0
100
AcDbLine
 62
252
  6
CONTINUOUS
 10
18.6743500028
 20
10.8803506539
 11
17.771431661
 21
9.5190045271
  0
LINE
  5
370
100
AcDbEntity
  8
ASSI
100
AcDbLine
 62
7
  6
CONTINUOUS
 10
21.2471626414
 20
16.6969734009
 11
21.2725020253
 21
16.7345027923
  0
LINE
  5
371
100
AcDbEntity
  8
0
100
AcDbLine
 62
252
  6
CONTINUOUS
 10
18.6743500028
 20
6.7970772482
 11
17.771431661
 21
5.8356547246
  0
LINE
  5
372
100
AcDbEntity
  8
0
100
AcDbLine
 62
252
  6
CONTINUOUS
 10
6.5912116392
 20
-6.804663076
 11
8.6051737788
 21
-4.9914138414
  0
LINE
  5
373
100
AcDbEntity
  8
0
100
AcDbLine
 62
252
  6
CONTINUOUS
 10
7.6650740251
 20
-3.9765979279
 11
7.6531732677
 21
-3.9827597254
  0
LINE
  5
374
100
AcDbEntity
  8
0
100
AcDbLine
 62
252
  6
CONTINUOUS
 10
8.6051734493
 20
-4.3154180419
 11
7.8170201167
 21
-4.7234963758
  0
LINE
  5
375
100
AcDbEntity
  8
0
100
AcDbLine
 62
252
  6
CONTINUOUS
 10
7.4871818661
 20
-4.9116561627
 11
6.9343101317
 21
-5.197913883
  0
LINE
  5
376
100
AcDbEntity
  8
0
100
AcDbLine
 62
252
  6
CONTINUOUS
 10
6.6147415703
 20
-5.8680655726
 11
8.6051734493
 21
-4.8374892985
  0
LINE
  5
377
100
AcDbEntity
  8
0
100
AcDbLine
 62
252
  6
CONTINUOUS
 10
7.8384731058
 20
12.986302289
 11
6.9709040171
 21
12.9094597942
  0
LINE
  5
378
100
AcDbEntity
  8
0
100
AcDbLine
 62
252
  6
CONTINUOUS
 10
8.6001000073
 20
13.0536332367
 11
8.1732009098
 21
13.020490032
  0
LINE
  5
379
100
AcDbEntity
  8
0
100
AcDbLine
 62
252
  6
CONTINUOUS
 10
6.5858975525
 20
12.4039205898
 11
8.6001000073
 21
12.5388253014
  0
LINE
  5
37A
100
AcDbEntity
  8
0
100
AcDbLine
 62
252
  6
CONTINUOUS
 10
17.771431661
 20
12.8935218764
 11
18.6743500028
 21
12.8670978007
  0
LINE
  5
37B
100
AcDbEntity
  8
0
100
AcDbLine
 62
253
  6
CONTINUOUS
 10
10.6540288839
 20
10.328291834
 11
10.8425790215
 21
10.2966313662
  0
LINE
  5
37C
100
AcDbEntity
  8
0
100
AcDbLine
 62
253
  6
CONTINUOUS
 10
9.9941034713
 20
10.7623168368
 11
10.3712037071
 21
10.6989958808
  0
LINE
  5
37D
100
AcDbEntity
  8
RACCORDO
100
AcDbLine
 62
7
  6
CONTINUOUS
 10
-15.8562028548
 20
23.0366855819
 11
-1.2894154699
 21
15.7532918894
  0
LINE
  5
37E
100
AcDbEntity
  8
0
100
AcDbLine
 62
7
  6
CONTINUOUS
 10
-9.9492060719
 20
20.5038674809
 11
-5.7065653848
 21
18.3825471373
  0
LINE
  5
37F
100
AcDbEntity
  8
0
100
AcDbLine
 62
253
  6
CONTINUOUS
 10
9.899828373
 20
7.7399445162
 11
9.7112782552
 21
7.9008901535
  0
LINE
  5
380
100
AcDbEntity
  8
0
100
AcDbLine
 62
253
  6
CONTINUOUS
 10
9.899828373
 20
9.1620817005
 11
9.7112782552
 21
9.3230277694
  0
LINE
  5
381
100
AcDbEntity
  8
0
100
AcDbLine
 62
7
  6
CONTINUOUS
 10
11.7190986874
 20
22.1383398018
 11
11.6804281682
 21
22.5444271562
  0
LINE
  5
382
100
AcDbEntity
  8
DRAFT
100
AcDbLine
 62
7
  6
CONTINUOUS
 10
12.1684696883
 20
23.7808950816
 11
12.1684696883
 21
23.6280090966
  0
LINE
  5
383
100
AcDbEntity
  8
ASSI
100
AcDbLine
 62
7
  6
CONTINUOUS
 10
12.1684696883
 20
23.7808950816
 11
12.1684696883
 21
23.6280090966
  0
LINE
  5
384
100
AcDbEntity
  8
0
100
AcDbLine
 62
252
  6
CONTINUOUS
 10
13.8980631275
 20
11.5173231036
 11
13.8980631275
 21
12.7821532058
  0
LINE
  5
385
100
AcDbEntity
  8
ASSI
100
AcDbLine
 62
7
  6
CONTINUOUS
 10
21.2725020253
 20
16.7345027923
 11
21.293787199
 21
16.775368115
  0
LINE
  5
386
100
AcDbEntity
  8
0
100
AcDbLine
 62
252
  6
CONTINUOUS
 10
18.6743500028
 20
5.119278602
 11
17.771431661
 21
4.1123594339
  0
LINE
  5
387
100
AcDbEntity
  8
0
100
AcDbLine
 62
252
  6
CONTINUOUS
 10
6.5912116392
 20
-9.9779923317
 11
7.709369739
 21
-8.8804045999
  0
LINE
  5
388
100
AcDbEntity
  8
0
100
AcDbLine
 62
252
  6
CONTINUOUS
 10
8.6051737788
 20
-5.5438782933
 11
8.203115354
 21
-5.8878403219
  0
LINE
  5
389
100
AcDbEntity
  8
0
100
AcDbLine
 62
252
  6
CONTINUOUS
 10
7.8920037265
 20
-6.1536801135
 11
7.1445970944
 21
-6.7815288712
  0
LINE
  5
38A
100
AcDbEntity
  8
0
100
AcDbLine
 62
252
  6
CONTINUOUS
 10
6.5912116392
 20
-8.4165424665
 11
8.6051737788
 21
-7.1389602551
  0
LINE
  5
38B
100
AcDbEntity
  8
0
100
AcDbLine
 62
252
  6
CONTINUOUS
 10
8.6051737788
 20
-7.651747753
 11
7.2955768485
 21
-8.4375060022
  0
LINE
  5
38C
100
AcDbEntity
  8
RACCORDO
100
AcDbLine
 62
7
  6
CONTINUOUS
 10
-10.2998101925
 20
20.7858957387
 11
-9.8564313194
 21
20.5642063022
  0
LINE
  5
38D
100
AcDbEntity
  8
RACCORDO
100
AcDbLine
 62
7
  6
CONTINUOUS
 10
-2.428335206
 20
16.8501582455
 11
0.4933923122
 21
15.3892944864
  0
LINE
  5
38E
100
AcDbEntity
  8
0
100
AcDbLine
 62
7
  6
CONTINUOUS
 10
-9.5982880146
 20
20.7320974831
 11
-5.3556473275
 21
18.6107771396
  0
LINE
  5
38F
100
AcDbEntity
  8
ASSI
100
AcDbLine
 62
253
  6
CONTINUOUS
 10
-6.8403620107
 20
19.6053877045
 11
-2.3782915849
 21
17.3743524916
  0
LINE
  5
390
100
AcDbEntity
  8
0
100
AcDbLine
 62
7
  6
CONTINUOUS
 10
-12.6509783313
 20
23.4592168441
 11
-7.2416114553
 21
20.7545334061
  0
LINE
  5
391
100
AcDbEntity
  8
0
100
AcDbLine
 62
7
  6
CONTINUOUS
 10
-2.291863987
 20
18.2796596719
 11
3.1175028891
 21
15.5749762339
  0
LINE
  5
392
100
AcDbEntity
  8
ASSI
100
AcDbLine
 62
253
  6
CONTINUOUS
 10
-6.1455959444
 20
20.8186642415
 11
-2.291863987
 21
18.8917982628
  0
LINE
  5
393
100
AcDbEntity
  8
0
100
AcDbLine
 62
253
  6
CONTINUOUS
 10
10.8425790215
 20
8.8744939661
 11
11.031129159
 21
8.7135483389
  0
LINE
  5
394
100
AcDbEntity
  8
0
100
AcDbLine
 62
253
  6
CONTINUOUS
 10
9.7112782552
 20
11.0037357039
 11
9.9941034713
 21
10.7623168368
  0
LINE
  5
395
100
AcDbEntity
  8
0
100
AcDbLine
 62
253
  6
CONTINUOUS
 10
10.8425790215
 20
10.2966313662
 11
11.031129159
 21
10.1356857391
  0
LINE
  5
396
100
AcDbEntity
  8
DRAFT
100
AcDbLine
 62
7
  6
CONTINUOUS
 10
14.1819803443
 20
25.9315879172
 11
14.1819803443
 21
25.6051257083
  0
LINE
  5
397
100
AcDbEntity
  8
ASSI
100
AcDbLine
 62
7
  6
CONTINUOUS
 10
14.1819803443
 20
25.9315879172
 11
14.1819803443
 21
25.6051257083
  0
LINE
  5
398
100
AcDbEntity
  8
0
100
AcDbLine
 62
252
  6
CONTINUOUS
 10
14.4189775554
 20
13.0518645463
 11
14.4189775554
 21
11.7870344441
  0
LINE
  5
399
100
AcDbEntity
  8
0
100
AcDbLine
 62
252
  6
CONTINUOUS
 10
15.8017016458
 20
-7.1340309972
 11
15.8017016458
 21
-6.7048478596
  0
LWPOLYLINE
  5
39A
100
AcDbEntity
  8
ASSI
100
AcDbPolyline
 62
7
  6
CONTINUOUS
 90
5
 70
0
 10
21.293787199
 20
16.775368115
 10
21.3108197226
 20
16.8195607945
 10
21.3232673712
 20
16.8669416091
 10
21.3307324998
 20
16.917011497
 10
21.3329506082
 20
16.9641740453
  0
LINE
  5
39B
100
AcDbEntity
  8
RACCORDO
100
AcDbLine
 62
7
  6
CONTINUOUS
 10
0.3872344509
 20
-21.5273427819
 11
0.6024485008
 21
-21.2654065028
  0
LINE
  5
39C
100
AcDbEntity
  8
0
100
AcDbLine
 62
252
  6
CONTINUOUS
 10
8.6051737788
 20
-8.4562091429
 11
7.2900947451
 21
-9.7520377793
  0
LINE
  5
39D
100
AcDbEntity
  8
0
100
AcDbLine
 62
252
  6
CONTINUOUS
 10
8.6051737788
 20
-9.9679067147
 11
6.591090787
 21
-11.0107287109
  0
LINE
  5
39E
100
AcDbEntity
  8
0
100
AcDbLine
 62
252
  6
CONTINUOUS
 10
6.591090787
 20
-11.5349096391
 11
8.6051737788
 21
-10.4920876429
  0
LINE
  5
39F
100
AcDbEntity
  8
0
100
AcDbLine
 62
252
  6
CONTINUOUS
 10
15.8017016458
 20
-6.9194394284
 11
18.0734525284
 21
-5.7432059762
  0
LINE
  5
3A0
100
AcDbEntity
  8
0
100
AcDbLine
 62
252
  6
CONTINUOUS
 10
7.2900947451
 20
-9.7520377793
 11
8.6051737788
 21
-9.1842541832
  0
LINE
  5
3A1
100
AcDbEntity
  8
0
100
AcDbLine
 62
252
  6
CONTINUOUS
 10
8.6051737788
 20
-9.6857244612
 11
6.5912116392
 21
-10.5017393812
  0
LINE
  5
3A2
100
AcDbEntity
  8
ASSI
100
AcDbLine
 62
7
  6
CONTINUOUS
 10
-13.4641511297
 20
24.8248226138
 11
2.3043300908
 21
16.9405820035
  0
LINE
  5
3A3
100
AcDbEntity
  8
RACCORDO
100
AcDbLine
 62
7
  6
CONTINUOUS
 10
2.0568427173
 20
17.3918416287
 11
-13.2166637563
 21
25.0285948656
  0
LINE
  5
3A4
100
AcDbEntity
  8
DRAFT
100
AcDbLine
 62
7
  6
CONTINUOUS
 10
2.6163574019
 20
17.8267487568
 11
1.0023532859
 21
18.6337508148
  0
LINE
  5
3A5
100
AcDbEntity
  8
DRAFT
100
AcDbLine
 62
7
  6
CONTINUOUS
 10
-10.7479607625
 20
24.508907839
 11
-12.3619648785
 21
25.315909897
  0
LINE
  5
3A6
100
AcDbEntity
  8
RACCORDO
100
AcDbLine
 62
7
  6
CONTINUOUS
 10
-7.4155048817
 20
23.2000121339
 11
-1.6229958137
 21
20.3037575998
  0
LINE
  5
3A7
100
AcDbEntity
  8
RACCORDO
100
AcDbLine
 62
7
  6
CONTINUOUS
 10
-13.0003630868
 20
26.0874399768
 11
-11.3938295237
 21
25.2841731953
  0
LINE
  5
3A8
100
AcDbEntity
  8
RACCORDO
100
AcDbLine
 62
7
  6
CONTINUOUS
 10
0.3639550776
 20
19.4052808946
 11
1.9704886407
 21
18.6020141131
  0
LINE
  5
3A9
100
AcDbEntity
  8
RACCORDO
100
AcDbLine
 62
253
  6
CONTINUOUS
 10
-13.0649578328
 20
26.2224691517
 11
-11.4591813706
 21
25.4195809206
  0
LINE
  5
3AA
100
AcDbEntity
  8
RACCORDO
100
AcDbLine
 62
253
  6
CONTINUOUS
 10
0.2993603316
 20
19.5403100695
 11
1.9051367938
 21
18.7374218384
  0
LINE
  5
3AB
100
AcDbEntity
  8
RACCORDO
100
AcDbLine
 62
253
  6
CONTINUOUS
 10
1.9051367938
 20
18.9907932322
 11
0.2993603316
 21
19.7936814633
  0
LINE
  5
3AC
100
AcDbEntity
  8
RACCORDO
100
AcDbLine
 62
253
  6
CONTINUOUS
 10
-11.4591813706
 20
25.6729523144
 11
-13.0649578328
 21
26.4758405455
  0
LINE
  5
3AD
100
AcDbEntity
  8
DRAFT
100
AcDbLine
 62
7
  6
CONTINUOUS
 10
-9.6811298504
 20
25.0474890886
 11
-7.5033728474
 21
23.9586105871
  0
LINE
  5
3AE
100
AcDbEntity
  8
DRAFT
100
AcDbLine
 62
7
  6
CONTINUOUS
 10
-0.7008737293
 20
20.557361028
 11
0.3802482219
 21
20.0168000524
  0
LINE
  5
3AF
100
AcDbEntity
  8
RACCORDO
100
AcDbLine
 62
7
  6
CONTINUOUS
 10
3.6831883141
 20
18.3653300063
 11
3.8246096703
 21
18.2946193282
  0
LINE
  5
3B0
100
AcDbEntity
  8
RACCORDO
100
AcDbLine
 62
253
  6
CONTINUOUS
 10
2.0819075232
 20
19.2946588104
 11
0.4740861142
 21
20.0985695149
  0
LINE
  5
3B1
100
AcDbEntity
  8
RACCORDO
100
AcDbLine
 62
253
  6
CONTINUOUS
 10
-11.2824106412
 20
25.9768178926
 11
-12.8902320502
 21
26.7807285972
  0
LINE
  5
3B2
100
AcDbEntity
  8
0
100
AcDbLine
 62
253
  6
CONTINUOUS
 10
11.031129159
 20
11.6871085143
 11
10.8425790215
 21
11.8480541414
  0
LINE
  5
3B3
100
AcDbEntity
  8
0
100
AcDbLine
 62
252
  6
CONTINUOUS
 10
17.771431661
 20
8.4370659998
 11
17.771431661
 21
7.6169520668
  0
LINE
  5
3B4
100
AcDbEntity
  8
0
100
AcDbLine
 62
252
  6
CONTINUOUS
 10
17.771431661
 20
6.849209288
 11
17.771431661
 21
6.4769603925
  0
LINE
  5
3B5
100
AcDbEntity
  8
0
100
AcDbLine
 62
252
  6
CONTINUOUS
 10
17.771431661
 20
11.4258183952
 11
17.771431661
 21
12.3399878832
  0
LINE
  5
3B6
100
AcDbEntity
  8
0
100
AcDbLine
 62
252
  6
CONTINUOUS
 10
18.0734525284
 20
-5.957797545
 11
18.0734525284
 21
-5.5286144075
  0
LINE
  5
3B7
100
AcDbEntity
  8
0
100
AcDbLine
 62
252
  6
CONTINUOUS
 10
18.2228908319
 20
7.8507018952
 11
18.2228908319
 21
8.6133160716
  0
LINE
  5
3B8
100
AcDbEntity
  8
0
100
AcDbLine
 62
252
  6
CONTINUOUS
 10
18.3466316234
 20
12.8766882313
 11
18.3466316234
 21
13.5059916531
  0
LINE
  5
3B9
100
AcDbEntity
  8
0
100
AcDbLine
 62
252
  6
CONTINUOUS
 10
18.351799789
 20
5.8186702686
 11
18.351799789
 21
6.4536271043
  0
LINE
  5
3BA
100
AcDbEntity
  8
RACCORDO
100
AcDbLine
 62
7
  6
CONTINUOUS
 10
1.9940393698
 20
-22.3307452413
 11
2.6163574019
 21
-21.5856858238
  0
LINE
  5
3BB
100
AcDbEntity
  8
0
100
AcDbLine
 62
252
  6
CONTINUOUS
 10
8.6051737788
 20
-11.9557381253
 11
6.5912116392
 21
-13.7945879368
  0
LINE
  5
3BC
100
AcDbEntity
  8
0
100
AcDbLine
 62
252
  6
CONTINUOUS
 10
6.5912116392
 20
-13.2251667075
 11
7.9774837005
 21
-12.0287277129
  0
LINE
  5
3BD
100
AcDbEntity
  8
RACCORDO
100
AcDbLine
 62
7
  6
CONTINUOUS
 10
2.6163574019
 20
18.4639183156
 11
1.9940393698
 21
18.5938588981
  0
LINE
  5
3BE
100
AcDbEntity
  8
0
100
AcDbLine
 62
252
  6
CONTINUOUS
 10
18.3249657505
 20
15.0888347368
 11
17.771431661
 21
15.2142352657
  0
LINE
  5
3BF
100
AcDbEntity
  8
RACCORDO
100
AcDbLine
 62
7
  6
CONTINUOUS
 10
-7.4155048817
 20
24.4149669999
 11
-1.6229958137
 21
21.5187124659
  0
LINE
  5
3C0
100
AcDbEntity
  8
RACCORDO
100
AcDbLine
 62
7
  6
CONTINUOUS
 10
4.5317164515
 20
18.6406150296
 11
3.7319844277
 21
19.0404810415
  0
LINE
  5
3C1
100
AcDbEntity
  8
RACCORDO
100
AcDbLine
 62
7
  6
CONTINUOUS
 10
-8.1498557333
 20
24.981401122
 11
-9.6323337368
 21
25.7226401237
  0
LINE
  5
3C2
100
AcDbEntity
  8
DRAFT
100
AcDbLine
 62
7
  6
CONTINUOUS
 10
-6.9234134037
 20
24.8810664305
 11
-0.7008737293
 21
21.7697965933
  0
LINE
  5
3C3
100
AcDbEntity
  8
DRAFT
100
AcDbLine
 62
7
  6
CONTINUOUS
 10
-11.3074754471
 20
27.5927126945
 11
-9.6811298504
 21
26.7795398961
  0
LINE
  5
3C4
100
AcDbEntity
  8
DRAFT
100
AcDbLine
 62
7
  6
CONTINUOUS
 10
2.0568427173
 20
20.9105536123
 11
3.6831883141
 21
20.0973808139
  0
LINE
  5
3C5
100
AcDbEntity
  8
DRAFT
100
AcDbLine
 62
7
  6
CONTINUOUS
 10
-5.5799105195
 20
24.9113833812
 11
-0.6301630512
 21
22.436509647
  0
LINE
  5
3C6
100
AcDbEntity
  8
RACCORDO
100
AcDbLine
 62
253
  6
CONTINUOUS
 10
-10.7730255684
 20
27.8530601611
 11
-9.1528626786
 21
27.0429787162
  0
LINE
  5
3C7
100
AcDbEntity
  8
RACCORDO
100
AcDbLine
 62
253
  6
CONTINUOUS
 10
2.591292596
 20
21.1709010788
 11
4.2114554858
 21
20.3608196339
  0
LINE
  5
3C8
100
AcDbEntity
  8
RACCORDO
100
AcDbLine
 62
7
  6
CONTINUOUS
 10
-10.6616079531
 20
27.8593287243
 11
-9.0427303749
 21
27.0498899352
  0
LINE
  5
3C9
100
AcDbEntity
  8
RACCORDO
100
AcDbLine
 62
7
  6
CONTINUOUS
 10
2.7027102114
 20
21.1771696421
 11
4.3215877896
 21
20.367730853
  0
LINE
  5
3CA
100
AcDbEntity
  8
DRAFT
100
AcDbLine
 62
7
  6
CONTINUOUS
 10
10.8901400834
 20
20.1246658233
 11
10.1374459995
 21
21.4228710843
  0
LINE
  5
3CB
100
AcDbEntity
  8
ASSI
100
AcDbLine
 62
7
  6
CONTINUOUS
 10
10.8901400834
 20
20.1246658233
 11
10.1374459995
 21
21.4228710843
  0
LINE
  5
3CC
100
AcDbEntity
  8
0
100
AcDbLine
 62
253
  6
CONTINUOUS
 10
9.9595435797
 20
23.8968007199
 11
9.5655576459
 21
24.918956538
  0
LINE
  5
3CD
100
AcDbEntity
  8
ASSI
100
AcDbLine
 62
253
  6
CONTINUOUS
 10
9.9595435797
 20
23.8968007199
 11
9.5655576459
 21
24.918956538
  0
LINE
  5
3CE
100
AcDbEntity
  8
0
100
AcDbLine
 62
7
  6
CONTINUOUS
 10
11.174958586
 20
22.3021872005
 11
10.9734592281
 21
22.8979116263
  0
LWPOLYLINE
  5
3CF
100
AcDbEntity
  8
RACCORDO
100
AcDbPolyline
 62
7
  6
CONTINUOUS
 90
30
 70
0
 10
19.6617211943
 20
22.241228476
 10
19.6606282674
 20
22.2823736216
 10
19.6586429915
 20
22.3249208445
 10
19.6558072339
 20
22.3675372655
 10
19.6521284654
 20
22.4102023943
 10
19.6476176125
 20
22.4528666968
 10
19.6422826304
 20
22.495524064
 10
19.6361307605
 20
22.538166741
 10
19.629176538
 20
22.5807406076
 10
19.6214285588
 20
22.623239086
 10
19.6128943413
 20
22.665655588
 10
19.6035922345
 20
22.7079343896
 10
19.5935317589
 20
22.750066722
 10
19.582720585
 20
22.7920483213
 10
19.5711789167
 20
22.8338288348
 10
19.558918798
 20
22.8753920175
 10
19.5459462221
 20
22.9167413713
 10
19.5322742865
 20
22.9578548798
 10
19.5179120867
 20
22.99872283
 10
19.5028661615
 20
23.0393416556
 10
19.4871460051
 20
23.0796972413
 10
19.470758401
 20
23.1197824699
 10
19.4537091899
 20
23.1595903924
 10
19.4360071526
 20
23.1991062658
 10
19.4176581381
 20
23.238321735
 10
19.3986664865
 20
23.2772295884
 10
19.3790389747
 20
23.3158171518
 10
19.3587799531
 20
23.3540753461
 10
19.3378926577
 20
23.3919964387
 10
19.3200697964
 20
23.423228577
  0
LWPOLYLINE
  5
3D0
100
AcDbEntity
  8
ASSI
100
AcDbPolyline
 62
7
  6
CONTINUOUS
 90
13
 70
0
 10
19.6620371991
 20
22.2056890633
 10
19.6617075831
 20
22.2427592577
 10
19.6563775541
 20
22.359896744
 10
19.6447069395
 20
22.4769472307
 10
19.6268570989
 20
22.5939351687
 10
19.6029856711
 20
22.7105716441
 10
19.5733488968
 20
22.8261853258
 10
19.5380956459
 20
22.9406328902
 10
19.4973385212
 20
23.053759978
 10
19.451411183
 20
23.1648202242
 10
19.4005421388
 20
23.2734582531
 10
19.3447454452
 20
23.3797173059
 10
19.3200704504
 20
23.4232274488
  0
LINE
  5
3D1
100
AcDbEntity
  8
RACCORDO
100
AcDbLine
 62
7
  6
CONTINUOUS
 10
19.6620372365
 20
22.20582411
 11
19.6617211943
 21
22.241228476
  0
LINE
  5
3D2
100
AcDbEntity
  8
ASSI
100
AcDbLine
 62
7
  6
CONTINUOUS
 10
19.6620372371
 20
15.4774479404
 11
19.6620371931
 21
15.4774958554
  0
LINE
  5
3D3
100
AcDbEntity
  8
RACCORDO
100
AcDbLine
 62
7
  6
CONTINUOUS
 10
19.6620372461
 20
15.4774162317
 11
19.6620372371
 21
15.4774479404
  0
LINE
  5
3D4
100
AcDbEntity
  8
0
100
AcDbLine
 62
252
  6
CONTINUOUS
 10
18.5002661959
 20
-5.05869915
 11
18.5002661959
 21
-5.5222167307
  0
LINE
  5
3D5
100
AcDbEntity
  8
0
100
AcDbLine
 62
252
  6
CONTINUOUS
 10
18.6743500028
 20
6.9444600495
 11
18.6743500028
 21
7.3167089449
  0
LINE
  5
3D6
100
AcDbEntity
  8
0
100
AcDbLine
 62
252
  6
CONTINUOUS
 10
18.6743500028
 20
8.0844517237
 11
18.6743500028
 21
8.9155555191
  0
LINE
  5
3D7
100
AcDbEntity
  8
0
100
AcDbLine
 62
252
  6
CONTINUOUS
 10
18.6743500028
 20
14.0705604768
 11
18.6743500028
 21
14.7174242957
  0
LINE
  5
3D8
100
AcDbEntity
  8
RACCORDO
100
AcDbLine
 62
253
  6
CONTINUOUS
 10
19.3813770465
 20
-8.4865836265
 11
19.3813770465
 21
15.6820854848
  0
LINE
  5
3D9
100
AcDbEntity
  8
ASSI
100
AcDbLine
 62
253
  6
CONTINUOUS
 10
19.3813770465
 20
-8.4865836265
 11
19.3813770465
 21
15.6820854848
  0
LINE
  5
3DA
100
AcDbEntity
  8
RACCORDO
100
AcDbLine
 62
253
  6
CONTINUOUS
 10
19.3813770465
 20
18.6476422222
 11
19.3813770465
 21
21.8584966193
  0
LINE
  5
3DB
100
AcDbEntity
  8
ASSI
100
AcDbLine
 62
253
  6
CONTINUOUS
 10
19.3813770465
 20
18.6476422222
 11
19.3813770465
 21
21.8584966193
  0
LINE
  5
3DC
100
AcDbEntity
  8
RACCORDO
100
AcDbLine
 62
7
  6
CONTINUOUS
 10
19.6620372371
 20
19.5468040216
 11
19.6620372431
 21
19.5470688762
  0
LINE
  5
3DD
100
AcDbEntity
  8
RACCORDO
100
AcDbLine
 62
7
  6
CONTINUOUS
 10
19.6620372461
 20
-8.1392544413
 11
19.6620372461
 21
15.4772399237
  0
LINE
  5
3DE
100
AcDbEntity
  8
RACCORDO
100
AcDbLine
 62
7
  6
CONTINUOUS
 10
19.6620372461
 20
19.5471462077
 11
19.6620372461
 21
22.2058258046
  0
LINE
  5
3DF
100
AcDbEntity
  8
ASSI
100
AcDbLine
 62
7
  6
CONTINUOUS
 10
19.6620372371
 20
19.5468040216
 11
19.6620372461
 21
22.2058258046
  0
LINE
  5
3E0
100
AcDbEntity
  8
ASSI
100
AcDbLine
 62
7
  6
CONTINUOUS
 10
19.6620372087
 20
22.2056890633
 11
19.6620372461
 21
22.2058258046
  0
LINE
  5
3E1
100
AcDbEntity
  8
ASSI
100
AcDbLine
 62
7
  6
CONTINUOUS
 10
19.6620372186
 20
-8.1393717992
 11
19.6620372461
 21
15.4772399237
  0
LWPOLYLINE
  5
3E2
100
AcDbEntity
  8
RACCORDO
100
AcDbPolyline
 62
7
  6
CONTINUOUS
 90
35
 70
0
 10
19.6620374985
 20
15.4774076108
 10
19.662065853
 20
15.4814747841
 10
19.6624328601
 20
15.4925974104
 10
19.6632070797
 20
15.5035147451
 10
19.6643669837
 20
15.5142111763
 10
19.6658911134
 20
15.5246748719
 10
19.6677585546
 20
15.5348975633
 10
19.6699480532
 20
15.5448688172
 10
19.6724384647
 20
15.5545797364
 10
19.6752098095
 20
15.5640259494
 10
19.6782421763
 20
15.573202504
 10
19.6815146922
 20
15.5821018485
 10
19.6850062807
 20
15.5907170947
 10
19.6886989336
 20
15.599049118
 10
19.6925710411
 20
15.6070905335
 10
19.6965947687
 20
15.6148240143
 10
19.7007493417
 20
15.6222488509
 10
19.7050149284
 20
15.629366028
 10
19.7093629723
 20
15.6361632316
 10
19.7137722431
 20
15.6426417875
 10
19.7182240296
 20
15.6488066008
 10
19.7226923227
 20
15.6546528211
 10
19.7271555464
 20
15.6601826222
 10
19.7315975269
 20
15.6654047016
 10
19.7360004312
 20
15.6703250916
 10
19.7403432414
 20
15.6749462347
 10
19.7446130298
 20
15.6792790265
 10
19.7488054974
 20
15.6833415135
 10
19.7529078928
 20
15.6871418622
 10
19.7569037703
 20
15.6906845059
 10
19.7607844992
 20
15.6939804546
 10
19.7645364605
 20
15.6970357799
 10
19.7681463519
 20
15.6998566422
 10
19.7716065474
 20
15.7024532224
 10
19.7749042945
 20
15.7048313114
  0
LWPOLYLINE
  5
3E3
100
AcDbEntity
  8
ASSI
100
AcDbPolyline
 62
7
  6
CONTINUOUS
 90
11
 70
0
 10
19.6620374457
 20
15.477487157
 10
19.6634916468
 20
15.5065100729
 10
19.6685974908
 20
15.5389195326
 10
19.6772564288
 20
15.5703307047
 10
19.6888496565
 20
15.5993745443
 10
19.7029141669
 20
15.6259204337
 10
19.7188551416
 20
15.6496522933
 10
19.7351152486
 20
15.6693554202
 10
19.7504845678
 20
15.6849174864
 10
19.7645346913
 20
15.6970345314
 10
19.7766709221
 20
15.7060666859
  0
LINE
  5
3E4
100
AcDbEntity
  8
0
100
AcDbLine
 62
252
  6
CONTINUOUS
 10
16.2199716221
 20
-7.8555726735
 11
16.9375770871
 21
-6.3313227023
  0
LINE
  5
3E5
100
AcDbEntity
  8
DRAFT
100
AcDbLine
 62
7
  6
CONTINUOUS
 10
10.8901400834
 20
-13.8425464834
 11
10.1374459995
 21
-14.3880576605
  0
LINE
  5
3E6
100
AcDbEntity
  8
ASSI
100
AcDbLine
 62
7
  6
CONTINUOUS
 10
10.8901400834
 20
-13.8425464834
 11
10.1374459995
 21
-14.3880576605
  0
LINE
  5
3E7
100
AcDbEntity
  8
RACCORDO
100
AcDbLine
 62
7
  6
CONTINUOUS
 10
18.6243289948
 20
-9.7525799851
 11
10.8901400834
 21
-13.8425464834
  0
LINE
  5
3E8
100
AcDbEntity
  8
ASSI
100
AcDbLine
 62
7
  6
CONTINUOUS
 10
18.6243289948
 20
-9.7525799851
 11
10.8901400834
 21
-13.8425464834
  0
LINE
  5
3E9
100
AcDbEntity
  8
DRAFT
100
AcDbLine
 62
7
  6
CONTINUOUS
 10
4.7792038249
 20
-17.2215843864
 11
10.1374459995
 21
-14.3880576605
  0
LINE
  5
3EA
100
AcDbEntity
  8
ASSI
100
AcDbLine
 62
7
  6
CONTINUOUS
 10
4.7792038249
 20
-17.2215843864
 11
10.1374459995
 21
-14.3880576605
  0
LINE
  5
3EB
100
AcDbEntity
  8
RACCORDO
100
AcDbLine
 62
253
  6
CONTINUOUS
 10
4.7792038249
 20
-16.1786803169
 11
19.3813770465
 21
-8.4865836265
  0
LINE
  5
3EC
100
AcDbEntity
  8
ASSI
100
AcDbLine
 62
253
  6
CONTINUOUS
 10
4.7792038249
 20
-16.1786803169
 11
19.3813770465
 21
-8.4865836265
  0
LINE
  5
3ED
100
AcDbEntity
  8
RACCORDO
100
AcDbLine
 62
253
  6
CONTINUOUS
 10
4.7792038249
 20
-16.9779982527
 11
18.9672265708
 21
-9.5040667255
  0
LINE
  5
3EE
100
AcDbEntity
  8
ASSI
100
AcDbLine
 62
253
  6
CONTINUOUS
 10
4.7792038249
 20
-16.9779982527
 11
18.9672265708
 21
-9.5040667255
  0
LINE
  5
3EF
100
AcDbEntity
  8
RACCORDO
100
AcDbLine
 62
253
  6
CONTINUOUS
 10
4.7792038249
 20
-17.4952109301
 11
8.8073459502
 21
-15.4733077465
  0
LINE
  5
3F0
100
AcDbEntity
  8
RACCORDO
100
AcDbLine
 62
7
  6
CONTINUOUS
 10
4.7792038249
 20
-17.4968790108
 11
8.7569668959
 21
-15.500263309
  0
LINE
  5
3F1
100
AcDbEntity
  8
RACCORDO
100
AcDbLine
 62
253
  6
CONTINUOUS
 10
4.7792038249
 20
-17.2574058993
 11
9.4714443597
 21
-14.9300200024
  0
LINE
  5
3F2
100
AcDbEntity
  8
RACCORDO
100
AcDbLine
 62
253
  6
CONTINUOUS
 10
4.7792038249
 20
-17.3792806271
 11
9.5555959273
 21
-15.0101549322
  0
LINE
  5
3F3
100
AcDbEntity
  8
RACCORDO
100
AcDbLine
 62
7
  6
CONTINUOUS
 10
-10.7479607625
 20
25.1460773978
 11
-11.3702787946
 21
25.2760179803
  0
LWPOLYLINE
  5
3F4
100
AcDbEntity
  8
RACCORDO
100
AcDbPolyline
 62
7
  6
CONTINUOUS
 90
49
 70
0
 10
-0.7223722221
 20
24.4699458807
 10
-0.7456428242
 20
24.4781387202
 10
-0.769208799
 20
24.48591471
 10
-0.7930641585
 20
24.4932803144
 10
-0.8171909045
 20
24.5002373227
 10
-0.8415711529
 20
24.506787872
 10
-0.8661983275
 20
24.5129364384
 10
-0.8910545429
 20
24.5186840861
 10
-0.9161224611
 20
24.5240322599
 10
-0.9413955939
 20
24.5289840694
 10
-0.9668565883
 20
24.5335401555
 10
-0.9924879183
 20
24.5377013104
 10
-1.0182821594
 20
24.5414694441
 10
-1.0442217636
 20
24.5448448705
 10
-1.0702896
 20
24.5478280471
 10
-1.0964782857
 20
24.5504201033
 10
-1.122770258
 20
24.5526211535
 10
-1.1491485387
 20
24.5544313589
 10
-1.175606214
 20
24.5558512124
 10
-1.2021260593
 20
24.5568806647
 10
-1.2286908216
 20
24.5575195803
 10
-1.2552933438
 20
24.5577678249
 10
-1.2819164422
 20
24.557625173
 10
-1.3085427634
 20
24.5570912559
 10
-1.3351649239
 20
24.5561653658
 10
-1.3617657977
 20
24.5548470753
 10
-1.3883277818
 20
24.5531357955
 10
-1.4148430496
 20
24.5510302654
 10
-1.441294302
 20
24.54852983
 10
-1.467663784
 20
24.5456336683
 10
-1.4939435005
 20
24.5423399117
 10
-1.5201174353
 20
24.538647381
 10
-1.54616606
 20
24.5345551508
 10
-1.5720769513
 20
24.5300614028
 10
-1.5978336691
 20
24.5251647115
 10
-1.6234167405
 20
24.5198640035
 10
-1.6488104587
 20
24.5141577214
 10
-1.6739969254
 20
24.5080444946
 10
-1.6989580029
 20
24.5015228462
 10
-1.7236792225
 20
24.494590453
 10
-1.7481426897
 20
24.4872454127
 10
-1.7723300947
 20
24.4794858574
 10
-1.7962279517
 20
24.471308301
 10
-1.8198174214
 20
24.4627103192
 10
-1.8430808838
 20
24.4536889165
 10
-1.8660084102
 20
24.4442375422
 10
-1.8885847024
 20
24.4343505931
 10
-1.9107864179
 20
24.4240259416
 10
-1.9263655194
 20
24.4164004145
  0
LINE
  5
3F5
100
AcDbEntity
  8
ASSI
100
AcDbLine
 62
7
  6
CONTINUOUS
 10
-0.6886680187
 20
24.4571102973
 11
-0.7419194748
 21
24.4768627899
  0
LWPOLYLINE
  5
3F6
100
AcDbEntity
  8
RACCORDO
100
AcDbPolyline
 62
7
  6
CONTINUOUS
 90
3
 70
0
 10
-0.6888397422
 20
24.4571790313
 10
-0.699410849
 20
24.461331246
 10
-0.7223722221
 20
24.4699458807
  0
LINE
  5
3F7
100
AcDbEntity
  8
RACCORDO
100
AcDbLine
 62
7
  6
CONTINUOUS
 10
0.6839989292
 20
23.0842267636
 11
-1.9029552573
 21
24.3777038569
  0
LINE
  5
3F8
100
AcDbEntity
  8
ASSI
100
AcDbLine
 62
7
  6
CONTINUOUS
 10
0.6839989292
 20
23.0842267636
 11
-1.9029552573
 21
24.3777038569
  0
LINE
  5
3F9
100
AcDbEntity
  8
RACCORDO
100
AcDbLine
 62
253
  6
CONTINUOUS
 10
1.3249621239
 20
23.4001412693
 11
-0.767950107
 21
24.4465973848
  0
LINE
  5
3FA
100
AcDbEntity
  8
ASSI
100
AcDbLine
 62
253
  6
CONTINUOUS
 10
1.3249621239
 20
23.4001412693
 11
-0.767950107
 21
24.4465973848
  0
LINE
  5
3FB
100
AcDbEntity
  8
RACCORDO
100
AcDbLine
 62
7
  6
CONTINUOUS
 10
1.3757255485
 20
23.425161274
 11
-0.6837012344
 21
24.4548746655
  0
LINE
  5
3FC
100
AcDbEntity
  8
ASSI
100
AcDbLine
 62
7
  6
CONTINUOUS
 10
1.3757255485
 20
23.425161274
 11
-0.6837012344
 21
24.4548746655
  0
LINE
  5
3FD
100
AcDbEntity
  8
0
100
AcDbLine
 62
7
  6
CONTINUOUS
 10
1.8875126936
 20
23.6774081804
 11
-0.9130057636
 21
25.077667409
  0
LINE
  5
3FE
100
AcDbEntity
  8
DRAFT
100
AcDbLine
 62
7
  6
CONTINUOUS
 10
-1.2665591542
 20
25.8070022936
 11
-0.9130057636
 21
25.6302255983
  0
LINE
  5
3FF
100
AcDbEntity
  8
ASSI
100
AcDbLine
 62
7
  6
CONTINUOUS
 10
21.3328586072
 20
19.5173511642
 11
21.3301652836
 21
19.5616242855
  0
LWPOLYLINE
  5
400
100
AcDbEntity
  8
RACCORDO
100
AcDbPolyline
 62
7
  6
CONTINUOUS
 90
4
 70
0
 10
21.3328762023
 20
19.5154761472
 10
21.3325069422
 20
19.5290534448
 10
21.331696493
 20
19.5437541025
 10
21.3304775994
 20
19.5584822766
  0
LINE
  5
401
100
AcDbEntity
  8
ASSI
100
AcDbLine
 62
7
  6
CONTINUOUS
 10
21.3329506109
 20
19.5075467858
 11
21.3328586072
 21
19.5173511642
  0
LINE
  5
402
100
AcDbEntity
  8
RACCORDO
100
AcDbLine
 62
7
  6
CONTINUOUS
 10
21.332950637
 20
19.5076081867
 11
21.3328762023
 21
19.5154761472
  0
LINE
  5
403
100
AcDbEntity
  8
RACCORDO
100
AcDbLine
 62
253
  6
CONTINUOUS
 10
21.2487526349
 20
19.4034106213
 11
21.2487526349
 21
19.2469959817
  0
LINE
  5
404
100
AcDbEntity
  8
ASSI
100
AcDbLine
 62
253
  6
CONTINUOUS
 10
21.2487526349
 20
19.4034106213
 11
21.2487526349
 21
19.2469959817
  0
LINE
  5
405
100
AcDbEntity
  8
RACCORDO
100
AcDbLine
 62
253
  6
CONTINUOUS
 10
21.2487526349
 20
17.0164558117
 11
21.2487526349
 21
16.8600410034
  0
LINE
  5
406
100
AcDbEntity
  8
ASSI
100
AcDbLine
 62
253
  6
CONTINUOUS
 10
21.2487526349
 20
17.0164558117
 11
21.2487526349
 21
16.8600410034
  0
LINE
  5
407
100
AcDbEntity
  8
RACCORDO
100
AcDbLine
 62
7
  6
CONTINUOUS
 10
21.3329506948
 20
19.5076093769
 11
21.3329506948
 21
19.3324678369
  0
LINE
  5
408
100
AcDbEntity
  8
ASSI
100
AcDbLine
 62
7
  6
CONTINUOUS
 10
21.3329506948
 20
19.5076093769
 11
21.3329506948
 21
19.3324678369
  0
LINE
  5
409
100
AcDbEntity
  8
RACCORDO
100
AcDbLine
 62
7
  6
CONTINUOUS
 10
21.3329506948
 20
17.1090219404
 11
21.3329506948
 21
16.9642397586
  0
LINE
  5
40A
100
AcDbEntity
  8
ASSI
100
AcDbLine
 62
7
  6
CONTINUOUS
 10
21.3329506948
 20
17.1100342544
 11
21.3329506948
 21
16.9642397586
  0
LWPOLYLINE
  5
40B
100
AcDbEntity
  8
RACCORDO
100
AcDbPolyline
 62
7
  6
CONTINUOUS
 90
38
 70
0
 10
19.0896328813
 20
-9.4214278829
 10
19.1172263589
 20
-9.3989674535
 10
19.1442996964
 20
-9.3757560342
 10
19.1708399021
 20
-9.3517997065
 10
19.1968483754
 20
-9.327090835
 10
19.2223052351
 20
-9.3016407403
 10
19.2471911544
 20
-9.2754612084
 10
19.2715069217
 20
-9.2485423274
 10
19.2952336136
 20
-9.2208946819
 10
19.3183511319
 20
-9.1925314369
 10
19.3408568971
 20
-9.1634438442
 10
19.3627321009
 20
-9.1336425318
 10
19.3839572679
 20
-9.1031408131
 10
19.4045274216
 20
-9.0719309679
 10
19.4244235558
 20
-9.0400248648
 10
19.4436275551
 20
-9.0074345105
 10
19.4621345285
 20
-8.9741493297
 10
19.4799241978
 20
-8.9401844067
 10
19.4969805849
 20
-8.9055479785
 10
19.5133030148
 20
-8.8702154059
 10
19.5288764705
 20
-8.8341875322
 10
19.5436776495
 20
-8.7974845641
 10
19.5576921482
 20
-8.7601073882
 10
19.5709069643
 20
-8.7220512766
 10
19.5832984802
 20
-8.6833413656
 10
19.5948400006
 20
-8.6440216686
 10
19.6055174434
 20
-8.6041023607
 10
19.6153164024
 20
-8.5635945372
 10
19.6242161456
 20
-8.5225426533
 10
19.6322060325
 20
-8.4809550315
 10
19.6392743809
 20
-8.4388436877
 10
19.6454051539
 20
-8.3962577546
 10
19.6505901586
 20
-8.3532065775
 10
19.6548206874
 20
-8.3097001842
 10
19.6580857514
 20
-8.2657873064
 10
19.6603784656
 20
-8.221489295
 10
19.6616933684
 20
-8.1768031842
 10
19.6620372365
 20
-8.1392555748
  0
LWPOLYLINE
  5
40C
100
AcDbEntity
  8
ASSI
100
AcDbPolyline
 62
7
  6
CONTINUOUS
 90
15
 70
0
 10
19.042376534
 20
-9.4572819915
 10
19.1206381086
 20
-9.3961077129
 10
19.197496726
 20
-9.3264585674
 10
19.2697542139
 20
-9.2505291987
 10
19.3369822288
 20
-9.1685612069
 10
19.3988845329
 20
-9.0806642172
 10
19.4550664703
 20
-8.9870937479
 10
19.5051127228
 20
-8.8882321014
 10
19.54875515
 20
-8.7842623693
 10
19.5857111946
 20
-8.6754065231
 10
19.6156743213
 20
-8.5620303233
 10
19.6384052322
 20
-8.4443648041
 10
19.6536715194
 20
-8.3225907912
 10
19.6612233628
 20
-8.1969475549
 10
19.6620372089
 20
-8.1393717992
  0
LWPOLYLINE
  5
40D
100
AcDbEntity
  8
RACCORDO
100
AcDbPolyline
 62
7
  6
CONTINUOUS
 90
3
 70
0
 10
19.0418051801
 20
-9.4576965939
 10
19.0615473083
 20
-9.4431197122
 10
19.0896328813
 20
-9.4214278829
  0
LINE
  5
40E
100
AcDbEntity
  8
RACCORDO
100
AcDbLine
 62
253
  6
CONTINUOUS
 10
18.6243289948
 20
-9.7525799851
 11
18.9672265708
 21
-9.5040667255
  0
LINE
  5
40F
100
AcDbEntity
  8
ASSI
100
AcDbLine
 62
253
  6
CONTINUOUS
 10
18.6243289948
 20
-9.7525799851
 11
18.9672265708
 21
-9.5040667255
  0
LINE
  5
410
100
AcDbEntity
  8
RACCORDO
100
AcDbLine
 62
7
  6
CONTINUOUS
 10
18.700678291
 20
-9.7049265728
 11
19.0417941649
 21
-9.4577045927
  0
LINE
  5
411
100
AcDbEntity
  8
ASSI
100
AcDbLine
 62
7
  6
CONTINUOUS
 10
18.700678291
 20
-9.7049265728
 11
19.0423765413
 21
-9.4572820016
  0
LINE
  5
412
100
AcDbEntity
  8
ASSI
100
AcDbLine
 62
7
  6
CONTINUOUS
 10
3.1175028891
 20
-20.6356646325
 11
2.3043300908
 21
-21.164535763
  0
LINE
  5
413
100
AcDbEntity
  8
RACCORDO
100
AcDbLine
 62
253
  6
CONTINUOUS
 10
-1.1856295694
 20
-22.0073995249
 11
2.9729917519
 21
-19.5567925181
  0
LINE
  5
414
100
AcDbEntity
  8
RACCORDO
100
AcDbLine
 62
7
  6
CONTINUOUS
 10
2.834487444
 20
-19.9501027396
 11
-1.3305081418
 21
-22.4044658105
  0
LINE
  5
415
100
AcDbEntity
  8
RACCORDO
100
AcDbLine
 62
253
  6
CONTINUOUS
 10
4.0720970437
 20
-20.3239420148
 11
4.7792038249
 21
-19.962830935
  0
LINE
  5
416
100
AcDbEntity
  8
RACCORDO
100
AcDbLine
 62
7
  6
CONTINUOUS
 10
3.9821330756
 20
-20.5127520914
 11
4.6892398578
 21
-20.1516410111
  0
LINE
  5
417
100
AcDbEntity
  8
RACCORDO
100
AcDbLine
 62
7
  6
CONTINUOUS
 10
3.9821282696
 20
-20.5127545463
 11
3.9801206727
 21
-20.5137582537
  0
LINE
  5
418
100
AcDbEntity
  8
RACCORDO
100
AcDbLine
 62
253
  6
CONTINUOUS
 10
2.3043300908
 20
-21.1889312683
 11
4.0720970437
 21
-20.3239420148
  0
LINE
  5
419
100
AcDbEntity
  8
RACCORDO
100
AcDbLine
 62
7
  6
CONTINUOUS
 10
2.2123491718
 20
-21.3787497325
 11
3.9801161261
 21
-20.5137604784
  0
LWPOLYLINE
  5
41A
100
AcDbEntity
  8
ASSI
100
AcDbPolyline
 62
7
  6
CONTINUOUS
 90
6
 70
0
 10
5.0440580846
 20
24.3477927607
 10
5.0248607784
 20
24.3487020589
 10
4.9549853165
 20
24.3544608632
 10
4.8872008639
 20
24.3624653268
 10
4.8227118981
 20
24.3724367821
 10
4.8000363943
 20
24.3767978229
  0
LWPOLYLINE
  5
41B
100
AcDbEntity
  8
RACCORDO
100
AcDbPolyline
 62
7
  6
CONTINUOUS
 90
14
 70
0
 10
5.0436576069
 20
24.3475968022
 10
5.0312471533
 20
24.3482978702
 10
5.0102201957
 20
24.3497051219
 10
4.9893412089
 20
24.3513210632
 10
4.9686484451
 20
24.3531398884
 10
4.9481603355
 20
24.355156841
 10
4.9278951214
 20
24.3573667664
 10
4.9078897514
 20
24.3597615597
 10
4.8881609038
 20
24.3623346796
 10
4.8687253906
 20
24.3650793557
 10
4.8496189905
 20
24.367985255
 10
4.830856306
 20
24.3710442204
 10
4.8124521015
 20
24.3742479106
 10
4.8000363943
 20
24.3765474451
  0
LWPOLYLINE
  5
41C
100
AcDbEntity
  8
ASSI
100
AcDbPolyline
 62
7
  6
CONTINUOUS
 90
13
 70
0
 10
-0.8158611536
 20
24.4998663786
 10
-0.8924374429
 20
24.5189906846
 10
-0.9712254885
 20
24.5342792734
 10
-1.0518585629
 20
24.5457609024
 10
-1.133800008
 20
24.553426274
 10
-1.2165355273
 20
24.5572758173
 10
-1.29965451
 20
24.5573130374
 10
-1.382629895
 20
24.55353631
 10
-1.4649338006
 20
24.5459523786
 10
-1.5461631356
 20
24.5345556339
 10
-1.6258051371
 20
24.519346413
 10
-1.7033423967
 20
24.5003282745
 10
-1.7784567394
 20
24.4774388772
  0
LINE
  5
41D
100
AcDbEntity
  8
0
100
AcDbLine
 62
7
  6
CONTINUOUS
 10
12.1301728296
 20
22.4226793231
 11
11.6804281682
 21
22.5444271562
  0
LINE
  5
41E
100
AcDbEntity
  8
ASSI
100
AcDbLine
 62
7
  6
CONTINUOUS
 10
-0.7419194748
 20
24.4768627899
 11
-0.8158611536
 21
24.4998663786
  0
LINE
  5
41F
100
AcDbEntity
  8
0
100
AcDbLine
 62
7
  6
CONTINUOUS
 10
3.2953283898
 20
24.3712848387
 11
0.4847787429
 21
25.7765596622
  0
LINE
  5
420
100
AcDbEntity
  8
DRAFT
100
AcDbLine
 62
7
  6
CONTINUOUS
 10
9.3496573518
 20
21.8167654081
 11
10.1374459995
 21
21.4228710843
  0
LINE
  5
421
100
AcDbEntity
  8
ASSI
100
AcDbLine
 62
7
  6
CONTINUOUS
 10
9.3496573518
 20
21.8167654081
 11
10.1374459995
 21
21.4228710843
  0
LINE
  5
422
100
AcDbEntity
  8
0
100
AcDbLine
 62
7
  6
CONTINUOUS
 10
1.844710683
 20
25.8503078496
 11
4.0544515711
 21
24.7454374056
  0
LINE
  5
423
100
AcDbEntity
  8
0
100
AcDbLine
 62
7
  6
CONTINUOUS
 10
4.8000363943
 20
24.372644994
 11
4.9458498043
 21
24.299738289
  0
LINE
  5
424
100
AcDbEntity
  8
RACCORDO
100
AcDbLine
 62
7
  6
CONTINUOUS
 10
-1.0227470627
 20
27.5472804022
 11
-0.8422950855
 21
27.4570544136
  0
LINE
  5
425
100
AcDbEntity
  8
RACCORDO
100
AcDbLine
 62
7
  6
CONTINUOUS
 10
4.5317164515
 20
24.7700486451
 11
4.7121684286
 21
24.6798226566
  0
LINE
  5
426
100
AcDbEntity
  8
RACCORDO
100
AcDbLine
 62
253
  6
CONTINUOUS
 10
-1.8353154067
 20
28.1261774266
 11
1.1437744942
 21
26.6366324761
  0
LINE
  5
427
100
AcDbEntity
  8
RACCORDO
100
AcDbLine
 62
253
  6
CONTINUOUS
 10
5.3864151813
 20
24.5153121325
 11
8.3655050823
 21
23.0257671821
  0
LINE
  5
428
100
AcDbEntity
  8
RACCORDO
100
AcDbLine
 62
7
  6
CONTINUOUS
 10
-1.6416723949
 20
28.2752268888
 11
1.5848174973
 21
26.6619819427
  0
LINE
  5
429
100
AcDbEntity
  8
RACCORDO
100
AcDbLine
 62
7
  6
CONTINUOUS
 10
5.8274581844
 20
24.5406615991
 11
9.0539480766
 21
22.9274166531
  0
LINE
  5
42A
100
AcDbEntity
  8
0
100
AcDbLine
 62
7
  6
CONTINUOUS
 10
11.1854534214
 20
22.2969397828
 11
10.4784844813
 21
22.6504242529
  0
LINE
  5
42B
100
AcDbEntity
  8
0
100
AcDbLine
 62
7
  6
CONTINUOUS
 10
11.1854534214
 20
22.2969397828
 11
11.3290800489
 21
22.164298184
  0
LINE
  5
42C
100
AcDbEntity
  8
RACCORDO
100
AcDbLine
 62
7
  6
CONTINUOUS
 10
3.6831883141
 20
-22.1646588908
 11
4.2114554858
 21
-21.8936478321
  0
LINE
  5
42D
100
AcDbEntity
  8
RACCORDO
100
AcDbLine
 62
7
  6
CONTINUOUS
 10
2.0819075232
 20
-22.9446934904
 11
3.6831883141
 21
-22.1646588908
  0
LINE
  5
42E
100
AcDbEntity
  8
0
100
AcDbLine
 62
7
  6
CONTINUOUS
 10
0.4847787429
 20
25.7765596622
 11
1.844710683
 21
25.8503078496
  0
LINE
  5
42F
100
AcDbEntity
  8
0
100
AcDbLine
 62
7
  6
CONTINUOUS
 10
11.6804281682
 20
22.5444271562
 11
10.9734592281
 21
22.8979116263
  0
LINE
  5
430
100
AcDbEntity
  8
DRAFT
100
AcDbLine
 62
7
  6
CONTINUOUS
 10
10.2083826245
 20
23.6226619306
 11
10.6422537776
 21
23.4057263541
  0
LINE
  5
431
100
AcDbEntity
  8
ASSI
100
AcDbLine
 62
7
  6
CONTINUOUS
 10
10.2083826245
 20
23.6226619306
 11
10.6422537776
 21
23.4057263541
  0
LINE
  5
432
100
AcDbEntity
  8
ASSI
100
AcDbLine
 62
7
  6
CONTINUOUS
 10
21.3236779825
 20
19.6067176169
 11
21.3133955496
 21
19.6520498061
  0
LWPOLYLINE
  5
433
100
AcDbEntity
  8
RACCORDO
100
AcDbPolyline
 62
7
  6
CONTINUOUS
 90
4
 70
0
 10
21.3244188846
 20
19.6026353441
 10
21.3216151141
 20
19.6173006283
 10
21.3184325859
 20
19.6318994401
 10
21.3148754891
 20
19.6464312662
  0
LINE
  5
434
100
AcDbEntity
  8
ASSI
100
AcDbLine
 62
7
  6
CONTINUOUS
 10
21.3301652836
 20
19.5616242855
 11
21.3236779825
 21
19.6067176169
  0
LWPOLYLINE
  5
435
100
AcDbEntity
  8
RACCORDO
100
AcDbPolyline
 62
7
  6
CONTINUOUS
 90
4
 70
0
 10
21.3304775994
 20
19.5584822766
 10
21.3288539143
 20
19.5732241644
 10
21.3268328941
 20
19.5879424463
 10
21.3244188846
 20
19.6026353441
  0
LINE
  5
436
100
AcDbEntity
  8
DRAFT
100
AcDbLine
 62
7
  6
CONTINUOUS
 10
14.1819803443
 20
25.6051257083
 11
17.2913100646
 21
24.0504608481
  0
LINE
  5
437
100
AcDbEntity
  8
ASSI
100
AcDbLine
 62
7
  6
CONTINUOUS
 10
14.1819803443
 20
25.6051257083
 11
17.2913100646
 21
24.0504608481
  0
LINE
  5
438
100
AcDbEntity
  8
RACCORDO
100
AcDbLine
 62
253
  6
CONTINUOUS
 10
18.9672265708
 20
23.290130194
 11
18.6243289948
 21
23.8815410296
  0
LINE
  5
439
100
AcDbEntity
  8
ASSI
100
AcDbLine
 62
253
  6
CONTINUOUS
 10
18.9672265708
 20
23.290130194
 11
18.6243289948
 21
23.8815410296
  0
LINE
  5
43A
100
AcDbEntity
  8
RACCORDO
100
AcDbLine
 62
7
  6
CONTINUOUS
 10
19.3200698196
 20
23.4232285514
 11
19.0570228833
 21
23.8769174058
  0
LINE
  5
43B
100
AcDbEntity
  8
ASSI
100
AcDbLine
 62
7
  6
CONTINUOUS
 10
19.3200698196
 20
23.4232285514
 11
19.0570228833
 21
23.8769174058
  0
LINE
  5
43C
100
AcDbEntity
  8
ASSI
100
AcDbLine
 62
7
  6
CONTINUOUS
 10
21.2832552106
 20
19.7380160753
 11
21.2772422498
 21
19.7513857781
  0
LWPOLYLINE
  5
43D
100
AcDbEntity
  8
RACCORDO
100
AcDbPolyline
 62
7
  6
CONTINUOUS
 90
3
 70
0
 10
21.2860985825
 20
19.7313862789
 10
21.2801460928
 20
19.7450336827
 10
21.2772446742
 20
19.7513806449
  0
LINE
  5
43E
100
AcDbEntity
  8
ASSI
100
AcDbLine
 62
7
  6
CONTINUOUS
 10
21.2997791154
 20
19.6959937148
 11
21.2832552106
 21
19.7380160753
  0
LWPOLYLINE
  5
43F
100
AcDbEntity
  8
RACCORDO
100
AcDbPolyline
 62
7
  6
CONTINUOUS
 90
4
 70
0
 10
21.3020272102
 20
19.689485301
 10
21.2970435624
 20
19.7036117965
 10
21.2917305832
 20
19.7175834629
 10
21.2860985825
 20
19.7313862789
  0
LINE
  5
440
100
AcDbEntity
  8
ASSI
100
AcDbLine
 62
7
  6
CONTINUOUS
 10
21.3133955496
 20
19.6520498061
 11
21.2997791154
 21
19.6959937148
  0
LWPOLYLINE
  5
441
100
AcDbEntity
  8
RACCORDO
100
AcDbPolyline
 62
7
  6
CONTINUOUS
 90
4
 70
0
 10
21.3148754891
 20
19.6464312662
 10
21.3109472549
 20
19.6608939119
 10
21.3066630167
 20
19.6752456386
 10
21.3020272102
 20
19.689485301
  0
LINE
  5
442
100
AcDbEntity
  8
0
100
AcDbLine
 62
253
  6
CONTINUOUS
 10
18.6243289948
 20
23.8815410296
 11
17.7990825272
 21
24.2941642634
  0
LINE
  5
443
100
AcDbEntity
  8
ASSI
100
AcDbLine
 62
253
  6
CONTINUOUS
 10
18.6243289948
 20
23.8815410296
 11
17.7990825272
 21
24.2941642634
  0
LINE
  5
444
100
AcDbEntity
  8
RACCORDO
100
AcDbLine
 62
253
  6
CONTINUOUS
 10
13.1386313444
 20
26.6243898548
 11
12.0978648425
 21
27.1447731057
  0
LINE
  5
445
100
AcDbEntity
  8
ASSI
100
AcDbLine
 62
253
  6
CONTINUOUS
 10
13.1386313444
 20
26.6243898548
 11
12.0978648425
 21
27.1447731057
  0
LINE
  5
446
100
AcDbEntity
  8
RACCORDO
100
AcDbLine
 62
7
  6
CONTINUOUS
 10
18.9931210679
 20
23.9369447629
 11
18.1455734597
 21
24.360718567
  0
LINE
  5
447
100
AcDbEntity
  8
ASSI
100
AcDbLine
 62
7
  6
CONTINUOUS
 10
18.9931210679
 20
23.9369447629
 11
18.1455734597
 21
24.360718567
  0
LINE
  5
448
100
AcDbEntity
  8
RACCORDO
100
AcDbLine
 62
7
  6
CONTINUOUS
 10
13.661886173
 20
26.6025622104
 11
12.5327377231
 21
27.1671364353
  0
LINE
  5
449
100
AcDbEntity
  8
ASSI
100
AcDbLine
 62
7
  6
CONTINUOUS
 10
13.661886173
 20
26.6025622104
 11
12.5327377231
 21
27.1671364353
  0
ARC
  5
44A
100
AcDbEntity
  8
RACCORDO
100
AcDbCircle
 62
7
  6
CONTINUOUS
 10
8.2839864465
 20
-14.5557498181
 40
1.0563227358
100
AcDbArc
 50
296.597158829
 51
299.6997032394
  0
ARC
  5
44B
100
AcDbEntity
  8
ASSI
100
AcDbCircle
 62
253
  6
CONTINUOUS
 10
5.5141997763
 20
25.8530380456
 40
1.5876791897
100
AcDbArc
 50
292.8106207021
 51
294.7757785448
  0
ARC
  5
44C
100
AcDbEntity
  8
RACCORDO
100
AcDbCircle
 62
253
  6
CONTINUOUS
 10
5.5184136408
 20
25.8434808638
 40
1.5772358146
100
AcDbArc
 50
292.8041140934
 51
294.7822851536
  0
ARC
  5
44D
100
AcDbEntity
  8
ASSI
100
AcDbCircle
 62
7
  6
CONTINUOUS
 10
-1.981826948
 20
24.2200293763
 40
0.1763008378
100
AcDbArc
 50
63.4249348371
 51
65.3384310309
  0
ARC
  5
44E
100
AcDbEntity
  8
RACCORDO
100
AcDbCircle
 62
7
  6
CONTINUOUS
 10
-0.7129849408
 20
24.3638724302
 40
0.0983798774
100
AcDbArc
 50
100.7431816814
 51
103.4148416946
  0
ARC
  5
44F
100
AcDbEntity
  8
ASSI
100
AcDbCircle
 62
7
  6
CONTINUOUS
 10
-0.7136740038
 20
24.3948709654
 40
0.0670748293
100
AcDbArc
 50
68.1111482486
 51
72.5327630344
  0
ARC
  5
450
100
AcDbEntity
  8
RACCORDO
100
AcDbCircle
 62
7
  6
CONTINUOUS
 10
-0.7135855802
 20
24.3951057513
 40
0.0668240066
100
AcDbArc
 50
68.265043342
 51
69.9659894213
  0
ARC
  5
451
100
AcDbEntity
  8
RACCORDO
100
AcDbCircle
 62
7
  6
CONTINUOUS
 10
-0.7135712105
 20
24.3951537392
 40
0.0667742175
100
AcDbArc
 50
63.4350911693
 51
65.6162999133
  0
ARC
  5
452
100
AcDbEntity
  8
ASSI
100
AcDbCircle
 62
7
  6
CONTINUOUS
 10
-0.7135644455
 20
24.3951658437
 40
0.0667603656
100
AcDbArc
 50
63.4356384168
 51
68.1040484863
  0
ARC
  5
453
100
AcDbEntity
  8
ASSI
100
AcDbCircle
 62
7
  6
CONTINUOUS
 10
-1.9605436464
 20
24.3304657366
 40
0.0615846267
100
AcDbArc
 50
107.8636254331
 51
111.7003171035
  0
ARC
  5
454
100
AcDbEntity
  8
ASSI
100
AcDbCircle
 62
7
  6
CONTINUOUS
 10
-1.9612841906
 20
24.3323266863
 40
0.0595817439
100
AcDbArc
 50
111.7003435371
 51
116.5525864332
  0
ARC
  5
455
100
AcDbEntity
  8
RACCORDO
100
AcDbCircle
 62
7
  6
CONTINUOUS
 10
-1.9617882289
 20
24.3334218744
 40
0.0583767695
100
AcDbArc
 50
116.5905652313
 51
130.3803902663
  0
ARC
  5
456
100
AcDbEntity
  8
ASSI
100
AcDbCircle
 62
7
  6
CONTINUOUS
 10
-1.9617882289
 20
24.3334218744
 40
0.0583767695
100
AcDbArc
 50
116.5905652313
 51
130.3803902663
  0
ARC
  5
457
100
AcDbEntity
  8
ASSI
100
AcDbCircle
 62
253
  6
CONTINUOUS
 10
18.4597558408
 20
-8.8183913989
 40
0.8536392834
100
AcDbArc
 50
315.6914581725
 51
319.4428190876
  0
ARC
  5
458
100
AcDbEntity
  8
RACCORDO
100
AcDbCircle
 62
253
  6
CONTINUOUS
 10
18.4844121641
 20
-8.8424770313
 40
0.819171156
100
AcDbArc
 50
312.1676557881
 51
315.6923269026
  0
ARC
  5
459
100
AcDbEntity
  8
RACCORDO
100
AcDbCircle
 62
253
  6
CONTINUOUS
 10
18.5054814725
 20
-8.8663288311
 40
0.7873488158
100
AcDbArc
 50
305.9058860294
 51
312.1964394672
  0
ARC
  5
45A
100
AcDbEntity
  8
RACCORDO
100
AcDbCircle
 62
253
  6
CONTINUOUS
 10
18.6763575532
 20
-8.9529340306
 40
0.6231789733
100
AcDbArc
 50
297.8235620541
 51
301.6882861272
  0
ARC
  5
45B
100
AcDbEntity
  8
ASSI
100
AcDbCircle
 62
253
  6
CONTINUOUS
 10
18.677002368
 20
-8.9541305561
 40
0.6218198117
100
AcDbArc
 50
297.8224758433
 51
305.9197783865
  0
ARC
  5
45C
100
AcDbEntity
  8
RACCORDO
100
AcDbCircle
 62
253
  6
CONTINUOUS
 10
18.6782843933
 20
-8.9561009648
 40
0.6194720062
100
AcDbArc
 50
301.6905058612
 51
305.9306655223
  0
ARC
  5
45D
100
AcDbEntity
  8
DRAFT
100
AcDbCircle
 62
253
  6
CONTINUOUS
 10
19.4119463746
 20
-8.139255113
 40
0.2500907617
100
AcDbArc
 50
358.951802256
 51
359.999894189
  0
ARC
  5
45E
100
AcDbEntity
  8
ASSI
100
AcDbCircle
 62
253
  6
CONTINUOUS
 10
19.4119538047
 20
-8.1392551667
 40
0.2500833316
100
AcDbArc
 50
359.0987285069
 51
359.9732787156
  0
ARC
  5
45F
100
AcDbEntity
  8
0
100
AcDbCircle
 62
252
  6
CONTINUOUS
 10
13.1849796841
 20
14.0935156797
 40
2.7446408524
100
AcDbArc
 50
358.2710255961
 51
1.8000978451
  0
ARC
  5
460
100
AcDbEntity
  8
0
100
AcDbCircle
 62
252
  6
CONTINUOUS
 10
13.1849797728
 20
10.2958989792
 40
2.744640682
100
AcDbArc
 50
358.2710268704
 51
1.8000978697
  0
ARC
  5
461
100
AcDbEntity
  8
0
100
AcDbCircle
 62
253
  6
CONTINUOUS
 10
11.9080658855
 20
18.9901775834
 40
4.5814520376
100
AcDbArc
 50
106.0004233171
 51
106.3315137939
  0
ARC
  5
462
100
AcDbEntity
  8
0
100
AcDbCircle
 62
7
  6
CONTINUOUS
 10
12.5979110328
 20
19.1341757468
 40
4.4493422648
100
AcDbArc
 50
71.1365540201
 51
72.1042384717
  0
ARC
  5
463
100
AcDbEntity
  8
0
100
AcDbCircle
 62
253
  6
CONTINUOUS
 10
13.5873494807
 20
21.2730140285
 40
2.0389120949
100
AcDbArc
 50
51.8696548059
 51
53.4190508445
  0
ARC
  5
464
100
AcDbEntity
  8
ASSI
100
AcDbCircle
 62
7
  6
CONTINUOUS
 10
12.0842569719
 20
26.2700133723
 40
1.0029664321
100
AcDbArc
 50
63.4378149006
 51
67.440735277
  0
ARC
  5
465
100
AcDbEntity
  8
RACCORDO
100
AcDbCircle
 62
7
  6
CONTINUOUS
 10
12.0853458286
 20
26.2723206841
 40
1.0004272257
100
AcDbArc
 50
63.4355951231
 51
67.4476294536
  0
ARC
  5
466
100
AcDbEntity
  8
RACCORDO
100
AcDbCircle
 62
7
  6
CONTINUOUS
 10
12.0855241243
 20
26.2727091814
 40
1.0000000557
100
AcDbArc
 50
67.4485268094
 51
114.7890561381
  0
ARC
  5
467
100
AcDbEntity
  8
ASSI
100
AcDbCircle
 62
7
  6
CONTINUOUS
 10
12.0855343723
 20
26.2728844614
 40
0.9998249722
100
AcDbArc
 50
67.4452163858
 51
110.2991468557
  0
ARC
  5
468
100
AcDbEntity
  8
ASSI
100
AcDbCircle
 62
7
  6
CONTINUOUS
 10
12.0845186476
 20
26.2746588407
 40
0.9978084724
100
AcDbArc
 50
110.2797916615
 51
114.7835793166
  0
ARC
  5
469
100
AcDbEntity
  8
ASSI
100
AcDbCircle
 62
7
  6
CONTINUOUS
 10
9.8614732715
 20
22.9331355759
 40
0.69049092
100
AcDbArc
 50
180.007060984
 51
185.6695088044
  0
ARC
  5
46A
100
AcDbEntity
  8
0
100
AcDbCircle
 62
7
  6
CONTINUOUS
 10
9.861463614
 20
22.9331350971
 40
0.6904812624
100
AcDbArc
 50
180.0070213522
 51
185.6695484363
  0
ARC
  5
46B
100
AcDbEntity
  8
RACCORDO
100
AcDbCircle
 62
253
  6
CONTINUOUS
 10
12.3647732207
 20
26.8311802655
 40
0.3756043082
100
AcDbArc
 50
63.4368019995
 51
67.3839912958
  0
ARC
  5
46C
100
AcDbEntity
  8
ASSI
100
AcDbCircle
 62
253
  6
CONTINUOUS
 10
12.3647732207
 20
26.8311802655
 40
0.3756043082
100
AcDbArc
 50
63.4368019995
 51
67.3839912958
  0
ARC
  5
46D
100
AcDbEntity
  8
RACCORDO
100
AcDbCircle
 62
253
  6
CONTINUOUS
 10
11.8226549554
 20
26.8418573768
 40
0.3730791088
100
AcDbArc
 50
110.6649329103
 51
114.7865894952
  0
ARC
  5
46E
100
AcDbEntity
  8
ASSI
100
AcDbCircle
 62
253
  6
CONTINUOUS
 10
11.8223055907
 20
26.8426551932
 40
0.3722083237
100
AcDbArc
 50
114.1358837691
 51
114.7892520312
  0
ARC
  5
46F
100
AcDbEntity
  8
ASSI
100
AcDbCircle
 62
7
  6
CONTINUOUS
 10
17.0576746092
 20
17.7938395812
 40
4.6515307795
100
AcDbArc
 50
24.887505807
 51
27.2247876819
  0
ARC
  5
470
100
AcDbEntity
  8
RACCORDO
100
AcDbCircle
 62
7
  6
CONTINUOUS
 10
17.3588492112
 20
17.9289108594
 40
4.2167211238
100
AcDbArc
 50
18.7286802305
 51
19.4517800697
  0
ARC
  5
471
100
AcDbEntity
  8
ASSI
100
AcDbCircle
 62
7
  6
CONTINUOUS
 10
17.3800896858
 20
17.9365878882
 40
4.1941344272
100
AcDbArc
 50
17.8368847639
 51
19.4490039565
  0
ARC
  5
472
100
AcDbEntity
  8
RACCORDO
100
AcDbCircle
 62
7
  6
CONTINUOUS
 10
17.3906718951
 20
17.9397048476
 40
4.1831176511
100
AcDbArc
 50
17.8406291584
 51
18.7286173614
  0
ARC
  5
473
100
AcDbEntity
  8
RACCORDO
100
AcDbCircle
 62
7
  6
CONTINUOUS
 10
19.8406626085
 20
17.8796262609
 40
1.6795274221
100
AcDbArc
 50
332.6884323552
 51
334.3034685197
  0
ARC
  5
474
100
AcDbEntity
  8
ASSI
100
AcDbCircle
 62
7
  6
CONTINUOUS
 10
19.8415351438
 20
17.8789458105
 40
1.6784327993
100
AcDbArc
 50
332.7227305882
 51
334.4089349285
  0
ARC
  5
475
100
AcDbEntity
  8
ASSI
100
AcDbCircle
 62
253
  6
CONTINUOUS
 10
19.7758741918
 20
17.7931730976
 40
1.6630000196
100
AcDbArc
 50
336.3777791959
 51
337.8404132329
  0
ARC
  5
476
100
AcDbEntity
  8
RACCORDO
100
AcDbCircle
 62
7
  6
CONTINUOUS
 10
19.8765371942
 20
17.8612221771
 40
1.6392076466
100
AcDbArc
 50
331.5829247965
 51
332.6846637898
  0
ARC
  5
477
100
AcDbEntity
  8
ASSI
100
AcDbCircle
 62
7
  6
CONTINUOUS
 10
19.8779982212
 20
17.8602216214
 40
1.6374432104
100
AcDbArc
 50
331.58913645
 51
332.7203205635
  0
ARC
  5
478
100
AcDbEntity
  8
RACCORDO
100
AcDbCircle
 62
253
  6
CONTINUOUS
 10
19.8798857889
 20
17.746215914
 40
1.5488884592
100
AcDbArc
 50
331.8147600594
 51
336.4275185941
  0
ARC
  5
479
100
AcDbEntity
  8
ASSI
100
AcDbCircle
 62
253
  6
CONTINUOUS
 10
19.8798857889
 20
17.746215914
 40
1.5488884592
100
AcDbArc
 50
331.8147600594
 51
336.4275185941
  0
ARC
  5
47A
100
AcDbEntity
  8
RACCORDO
100
AcDbCircle
 62
7
  6
CONTINUOUS
 10
20.1374512435
 20
17.6252417878
 40
1.4473160435
100
AcDbArc
 50
317.7143221136
 51
319.133583911
  0
ARC
  5
47B
100
AcDbEntity
  8
ASSI
100
AcDbCircle
 62
7
  6
CONTINUOUS
 10
20.1387855311
 20
17.6240637021
 40
1.4455361871
100
AcDbArc
 50
317.4305436193
 51
319.1342930419
  0
ARC
  5
47C
100
AcDbEntity
  8
ASSI
100
AcDbCircle
 62
7
  6
CONTINUOUS
 10
20.1575808279
 20
17.6067708254
 40
1.4199958988
100
AcDbArc
 50
315.3304186024
 51
317.4313815364
  0
ARC
  5
47D
100
AcDbEntity
  8
ASSI
100
AcDbCircle
 62
7
  6
CONTINUOUS
 10
20.1816308438
 20
17.5828278284
 40
1.386059847
100
AcDbArc
 50
311.4703092941
 51
315.335380411
  0
ARC
  5
47E
100
AcDbEntity
  8
ASSI
100
AcDbCircle
 62
7
  6
CONTINUOUS
 10
20.2111463952
 20
17.5492187019
 40
1.3413304317
100
AcDbArc
 50
303.4469259833
 51
311.4763348125
  0
ARC
  5
47F
100
AcDbEntity
  8
ASSI
100
AcDbCircle
 62
7
  6
CONTINUOUS
 10
20.2281192124
 20
17.5250823054
 40
1.3118365715
100
AcDbArc
 50
301.6279399928
 51
303.4094107849
  0
ARC
  5
480
100
AcDbEntity
  8
RACCORDO
100
AcDbCircle
 62
253
  6
CONTINUOUS
 10
20.3266196102
 20
17.3651600339
 40
1.124013608
100
AcDbArc
 50
301.6275916353
 51
303.0058720282
  0
ARC
  5
481
100
AcDbEntity
  8
ASSI
100
AcDbCircle
 62
253
  6
CONTINUOUS
 10
20.3269940499
 20
17.3645621488
 40
1.1233081694
100
AcDbArc
 50
301.627321434
 51
302.6499075254
  0
ARC
  5
482
100
AcDbEntity
  8
RACCORDO
100
AcDbCircle
 62
253
  6
CONTINUOUS
 10
19.7859771844
 20
15.4997318305
 40
0.2308589139
100
AcDbArc
 50
97.5143130587
 51
99.3269854868
  0
ARC
  5
483
100
AcDbEntity
  8
RACCORDO
100
AcDbCircle
 62
253
  6
CONTINUOUS
 10
21.0377063131
 20
16.77058869
 40
0.1988461155
100
AcDbArc
 50
319.9981461572
 51
322.6992492058
  0
ARC
  5
484
100
AcDbEntity
  8
ASSI
100
AcDbCircle
 62
253
  6
CONTINUOUS
 10
21.0377063131
 20
16.77058869
 40
0.1988461155
100
AcDbArc
 50
319.9981461572
 51
322.6992492058
  0
ARC
  5
485
100
AcDbEntity
  8
RACCORDO
100
AcDbCircle
 62
253
  6
CONTINUOUS
 10
21.0933448712
 20
16.8003697819
 40
0.1848938118
100
AcDbArc
 50
301.5274121944
 51
304.3139606827
  0
ARC
  5
486
100
AcDbEntity
  8
RACCORDO
100
AcDbCircle
 62
253
  6
CONTINUOUS
 10
21.0988876229
 20
16.7934074803
 40
0.1759749029
100
AcDbArc
 50
318.217761713
 51
319.1330649363
  0
ARC
  5
487
100
AcDbEntity
  8
RACCORDO
100
AcDbCircle
 62
7
  6
CONTINUOUS
 10
21.1989579481
 20
17.1116126648
 40
0.1073980331
100
AcDbArc
 50
295.4533439599
 51
297.6226396585
  0
ARC
  5
488
100
AcDbEntity
  8
ASSI
100
AcDbCircle
 62
7
  6
CONTINUOUS
 10
21.1989579481
 20
17.1116126648
 40
0.1073980331
100
AcDbArc
 50
295.4533439599
 51
297.6226396585
  0
ARC
  5
489
100
AcDbEntity
  8
RACCORDO
100
AcDbCircle
 62
253
  6
CONTINUOUS
 10
21.2577426183
 20
16.9642458659
 40
0.075208067
100
AcDbArc
 50
355.5082195121
 51
359.9926751096
  0
ARC
  5
48A
100
AcDbEntity
  8
RACCORDO
100
AcDbCircle
 62
253
  6
CONTINUOUS
 10
18.1095571167
 20
19.5469704003
 40
1.5524803188
100
AcDbArc
 50
359.1065139058
 51
359.9939713681
  0
ARC
  5
48B
100
AcDbEntity
  8
RACCORDO
100
AcDbCircle
 62
7
  6
CONTINUOUS
 10
21.3000026287
 20
19.1470342086
 40
0.1123339573
100
AcDbArc
 50
117.1440294401
 51
119.249314977
  0
ARC
  5
48C
100
AcDbEntity
  8
ASSI
100
AcDbCircle
 62
7
  6
CONTINUOUS
 10
21.3000026287
 20
19.1470342086
 40
0.1123339573
100
AcDbArc
 50
117.1440294401
 51
119.249314977
  0
ARC
  5
48D
100
AcDbEntity
  8
RACCORDO
100
AcDbCircle
 62
253
  6
CONTINUOUS
 10
-186.5196072595
 20
344.1595203429
 40
387.67594786
100
AcDbArc
 50
302.0809044316
 51
302.4072118952
  0
ARC
  5
48E
100
AcDbEntity
  8
ASSI
100
AcDbCircle
 62
253
  6
CONTINUOUS
 10
-186.5196072595
 20
344.1595203429
 40
387.67594786
100
AcDbArc
 50
302.0809044316
 51
302.4072118952
  0
ARC
  5
48F
100
AcDbEntity
  8
RACCORDO
100
AcDbCircle
 62
253
  6
CONTINUOUS
 10
-148.949330448
 20
283.0331375787
 40
316.0874280823
100
AcDbArc
 50
302.2562271111
 51
302.5009955603
  0
ARC
  5
490
100
AcDbEntity
  8
ASSI
100
AcDbCircle
 62
253
  6
CONTINUOUS
 10
-148.622607271
 20
282.5193272856
 40
315.4785366507
100
AcDbArc
 50
302.2599693582
 51
302.5010909296
  0
ARC
  5
491
100
AcDbEntity
  8
RACCORDO
100
AcDbCircle
 62
253
  6
CONTINUOUS
 10
139.5520203933
 20
-275.5887764788
 40
317.8302276568
100
AcDbArc
 50
111.8526929347
 51
112.2158537885
  0
ARC
  5
492
100
AcDbEntity
  8
ASSI
100
AcDbCircle
 62
253
  6
CONTINUOUS
 10
139.5520203933
 20
-275.5887764788
 40
317.8302276568
100
AcDbArc
 50
111.8526929347
 51
112.2158537885
  0
ARC
  5
493
100
AcDbEntity
  8
RACCORDO
100
AcDbCircle
 62
253
  6
CONTINUOUS
 10
278.4724432655
 20
23.7964074101
 40
285.0853490469
100
AcDbArc
 50
182.5211007937
 51
184.00200663
  0
ARC
  5
494
100
AcDbEntity
  8
RACCORDO
100
AcDbCircle
 62
253
  6
CONTINUOUS
 10
272.9591385726
 20
23.4811720755
 40
278.4477339127
100
AcDbArc
 50
182.5105781796
 51
185.9768198223
  0
ARC
  5
495
100
AcDbEntity
  8
RACCORDO
100
AcDbCircle
 62
253
  6
CONTINUOUS
 10
264.9223745809
 20
22.8497404421
 40
271.5022515403
100
AcDbArc
 50
184.0022851479
 51
186.5362455715
  0
ARC
  5
496
100
AcDbEntity
  8
RACCORDO
100
AcDbCircle
 62
253
  6
CONTINUOUS
 10
251.5698022499
 20
21.3837931345
 40
256.9563147274
100
AcDbArc
 50
186.0083067279
 51
188.6915519497
  0
ARC
  5
497
100
AcDbEntity
  8
RACCORDO
100
AcDbCircle
 62
253
  6
CONTINUOUS
 10
246.4357966904
 20
20.7769624862
 40
252.8998917068
100
AcDbArc
 50
186.5464528195
 51
189.7140453852
  0
ARC
  5
498
100
AcDbEntity
  8
RACCORDO
100
AcDbCircle
 62
253
  6
CONTINUOUS
 10
239.0472207878
 20
19.5640531986
 40
244.3025681202
100
AcDbArc
 50
188.7134822812
 51
189.7429557652
  0
ARC
  5
499
100
AcDbEntity
  8
RACCORDO
100
AcDbCircle
 62
253
  6
CONTINUOUS
 10
90.2340018446
 20
-161.5964960194
 40
194.0001804957
100
AcDbArc
 50
110.8483954771
 51
111.304639326
  0
ARC
  5
49A
100
AcDbEntity
  8
ASSI
100
AcDbCircle
 62
253
  6
CONTINUOUS
 10
90.2340018446
 20
-161.5964960194
 40
194.0001804957
100
AcDbArc
 50
110.8483954771
 51
111.304639326
  0
SPLINE
  5
49B
100
AcDbEntity
  8
0
100
AcDbSpline
 62
7
  6
CONTINUOUS
 70
0
 71
3
 72
11
 73
7
 74
5
 42
0.0000001
 43
0.0000001
 44
0.0000000001
 12
-0.0872758795
 22
0.0636482074
 32
0.0
 13
-0.0966154167
 23
-0.0483077084
 33
0.0
 40
0.0
 40
0.0
 40
0.0
 40
0.0
 40
0.2285353333
 40
0.4641485023
 40
0.7190045406
 40
1.0
 40
1.0
 40
1.0
 40
1.0
 10
14.9053132814
 20
22.9097059118
 30
0.0
 10
14.8986647406
 20
22.9145545332
 30
0.0
 10
14.8834298601
 20
22.9222522509
 30
0.0
 10
14.8574042904
 20
22.925928811
 30
0.0
 10
14.8296123852
 20
22.9219300778
 30
0.0
 10
14.8115047596
 20
22.9148171506
 30
0.0
 10
14.8024552618
 20
22.9102924017
 30
0.0
 11
14.9053132814
 21
22.9097059118
 31
0.0
 11
14.8832825877
 21
22.9208440691
 31
0.0
 11
14.8581202646
 21
22.9246649861
 31
0.0
 11
14.8308246734
 21
22.9210848691
 31
0.0
 11
14.8024552618
 21
22.9102924017
 31
0.0
  0
SPLINE
  5
49C
100
AcDbEntity
  8
0
100
AcDbSpline
 62
7
  6
CONTINUOUS
 70
0
 71
3
 72
11
 73
7
 74
5
 42
0.0000001
 43
0.0000001
 44
0.0000000001
 12
0.1140608436
 22
-0.0389453569
 32
0.0
 13
0.0090568771
 23
-0.1201856474
 33
0.0
 40
0.0
 40
0.0
 40
0.0
 40
0.0
 40
0.2226124468
 40
0.4556457327
 40
0.7125887961
 40
1.0
 40
1.0
 40
1.0
 40
1.0
 10
14.0364372797
 20
23.3445548422
 30
0.0
 10
14.0449010675
 20
23.3416649351
 30
0.0
 10
14.0613147265
 20
23.3325615226
 30
0.0
 10
14.0802641145
 20
23.3104292135
 30
0.0
 10
14.0927774728
 20
23.2814078409
 30
0.0
 10
14.0964364469
 20
23.2596499436
 30
0.0
 10
14.0973041296
 20
23.2481357098
 30
0.0
 11
14.0364372797
 21
23.3445548422
 31
0.0
 11
14.0599136676
 21
23.3315646684
 31
0.0
 11
14.0784650572
 21
23.3104765962
 31
0.0
 11
14.0911500289
 21
23.2822253143
 31
0.0
 11
14.0973041296
 21
23.2481357098
 31
0.0
  0
SPLINE
  5
49D
100
AcDbEntity
  8
0
100
AcDbSpline
 62
7
  6
CONTINUOUS
 70
0
 71
3
 72
11
 73
7
 74
5
 42
0.0000001
 43
0.0000001
 44
0.0000000001
 12
1.0752130812
 22
0.9777433714
 32
0.0
 13
1.3985979266
 23
0.3949545669
 33
0.0
 40
0.0
 40
0.0
 40
0.0
 40
0.0
 40
0.2234176162
 40
0.4648000916
 40
0.724127395
 40
1.0
 40
1.0
 40
1.0
 40
1.0
 10
9.3238723496
 20
22.7647433511
 30
0.0
 10
9.4039461974
 20
22.8375583822
 30
0.0
 10
9.5833426792
 20
22.9752341193
 30
0.0
 10
9.8880314008
 20
23.1506168563
 30
0.0
 10
10.2333993118
 20
23.3014180246
 30
0.0
 10
10.4801823091
 20
23.3821943115
 30
0.0
 10
10.6087939269
 20
23.4185133599
 30
0.0
 11
9.3238723496
 21
22.7647433511
 31
0.0
 11
9.5801462951
 21
22.9641131421
 31
0.0
 11
9.8832690829
 21
23.1406835625
 31
0.0
 11
10.228098928
 21
23.2927695278
 31
0.0
 11
10.6087939269
 21
23.4185133599
 31
0.0
  0
SPLINE
  5
49E
100
AcDbEntity
  8
0
100
AcDbSpline
 62
7
  6
CONTINUOUS
 70
0
 71
3
 72
15
 73
11
 74
9
 42
0.0000001
 43
0.0000001
 44
0.0000000001
 12
3.1544971467
 22
0.7897358599
 32
0.0
 13
3.094493401
 23
-0.9993225545
 33
0.0
 40
0.0
 40
0.0
 40
0.0
 40
0.0
 40
0.1219898603
 40
0.2477521821
 40
0.3758888614
 40
0.5049073907
 40
0.6332810199
 40
0.7595076857
 40
0.88217006
 40
1.0
 40
1.0
 40
1.0
 40
1.0
 10
10.7525489265
 20
23.4567767224
 30
0.0
 10
10.8808211486
 20
23.4888899782
 30
0.0
 10
11.1439372612
 20
23.5440502447
 30
0.0
 10
11.5478845341
 20
23.5995365888
 30
0.0
 10
11.9622367368
 20
23.6285447656
 30
0.0
 10
12.3804156496
 20
23.6306450808
 30
0.0
 10
12.795791914
 20
23.6058091514
 30
0.0
 10
13.2018017273
 20
23.5543950941
 30
0.0
 10
13.5920531211
 20
23.4771467526
 30
0.0
 10
13.843591286
 20
23.4074961381
 30
0.0
 10
13.9651326099
 20
23.3682460992
 30
0.0
 11
10.7525489265
 21
23.4567767224
 31
0.0
 11
11.1406896247
 21
23.538703615
 31
0.0
 11
11.5457968409
 21
23.5947098408
 31
0.0
 11
11.9614482779
 21
23.6239889038
 31
0.0
 11
12.3809919536
 21
23.6261094059
 31
0.0
 11
12.7976904051
 21
23.6010394627
 31
0.0
 11
13.2048675448
 21
23.5491486846
 31
0.0
 11
13.5960544942
 21
23.471188196
 31
0.0
 11
13.9651326099
 21
23.3682460992
 31
0.0
  0
LINE
  5
49F
100
AcDbEntity
  8
0
100
AcDbLine
 62
7
  6
CONTINUOUS
 10
14.0973041296
 20
23.2481357098
 11
14.1474259131
 21
22.5827777378
  0
SPLINE
  5
4A0
100
AcDbEntity
  8
0
100
AcDbSpline
 62
253
  6
CONTINUOUS
 70
0
 71
3
 72
15
 73
11
 74
9
 42
0.0000001
 43
0.0000001
 44
0.0000000001
 12
-3.1791212717
 22
1.0705229876
 32
0.0
 13
-3.224563744
 23
-0.9246730169
 33
0.0
 40
0.0
 40
0.0
 40
0.0
 40
0.0
 40
0.1170900879
 40
0.2399506114
 40
0.3669344237
 40
0.4962719464
 40
0.6260952267
 40
0.7545266149
 40
0.8797338832
 40
1.0
 40
1.0
 40
1.0
 40
1.0
 10
13.9539271243
 20
23.3345564704
 30
0.0
 10
13.829845928
 20
23.376339014
 30
0.0
 10
13.5714913669
 20
23.4501743056
 30
0.0
 10
13.16882037
 20
23.5308583606
 30
0.0
 10
12.7476729645
 20
23.5830534432
 30
0.0
 10
12.3161439073
 20
23.6057566267
 30
0.0
 10
11.8824630909
 20
23.5985228366
 30
0.0
 10
11.4549211327
 20
23.5614952264
 30
0.0
 10
11.0417253398
 20
23.4953930225
 30
0.0
 10
10.7744826089
 20
23.4312115531
 30
0.0
 10
10.6452140223
 20
23.3941426087
 30
0.0
 11
13.9539271243
 21
23.3345564704
 31
0.0
 11
13.5765220298
 21
23.4433806991
 31
0.0
 11
13.1725428038
 21
23.5249833564
 31
0.0
 11
12.7498557207
 21
23.5777686238
 31
0.0
 11
12.3165978197
 21
23.6007283482
 31
0.0
 11
11.8811639482
 21
23.593413122
 31
0.0
 11
11.4519682462
 21
23.5559665483
 31
0.0
 11
11.0373123132
 21
23.4891120636
 31
0.0
 11
10.6452140223
 21
23.3941426087
 31
0.0
  0
SPLINE
  5
4A1
100
AcDbEntity
  8
0
100
AcDbSpline
 62
253
  6
CONTINUOUS
 70
0
 71
3
 72
11
 73
7
 74
5
 42
0.0000001
 43
0.0000001
 44
0.0000000001
 12
-1.3528763699
 22
-0.3964243912
 32
0.0
 13
-0.9867821579
 23
-1.0068206111
 33
0.0
 40
0.0
 40
0.0
 40
0.0
 40
0.0
 40
0.2828605436
 40
0.5450733136
 40
0.7843632613
 40
1.0
 40
1.0
 40
1.0
 40
1.0
 10
10.619786413
 20
23.3867715803
 30
0.0
 10
10.4922279646
 20
23.349393974
 30
0.0
 10
10.2493538716
 20
23.2666301503
 30
0.0
 10
9.913768985
 20
23.1123636708
 30
0.0
 10
9.625998956
 20
22.9352911761
 30
0.0
 10
9.46143606
 20
22.7969891954
 30
0.0
 10
9.3905072312
 20
22.7246200243
 30
0.0
 11
10.619786413
 21
23.3867715803
 31
0.0
 11
10.2427571825
 21
23.256913395
 31
0.0
 11
9.9076041642
 21
23.1009677354
 31
0.0
 11
9.6214842328
 21
22.9222646189
 31
0.0
 11
9.3905072312
 21
22.7246200243
 31
0.0
  0
SPLINE
  5
4A2
100
AcDbEntity
  8
0
100
AcDbSpline
 62
7
  6
CONTINUOUS
 70
0
 71
3
 72
9
 73
5
 74
3
 42
0.0000001
 43
0.0000001
 44
0.0000000001
 12
0.0758252899
 22
0.037912645
 32
0.0
 13
0.0802275305
 23
-0.0273931851
 33
0.0
 40
0.0
 40
0.0
 40
0.0
 40
0.0
 40
0.5342465021
 40
1.0
 40
1.0
 40
1.0
 40
1.0
 10
13.9539271243
 20
23.3345564704
 30
0.0
 10
13.9674302563
 20
23.3413080364
 30
0.0
 10
13.9946553297
 20
23.3508192861
 30
0.0
 10
14.0239818621
 20
23.3488076661
 30
0.0
 10
14.0364372797
 20
23.3445548422
 30
0.0
 11
13.9539271243
 21
23.3345564704
 31
0.0
 11
13.9971198538
 21
23.3481818905
 31
0.0
 11
14.0364372797
 21
23.3445548422
 31
0.0
  0
SPLINE
  5
4A3
100
AcDbEntity
  8
RACCORDO
100
AcDbSpline
 62
253
  6
CONTINUOUS
 70
0
 71
3
 72
9
 73
5
 74
3
 42
0.0000001
 43
0.0000001
 44
0.0000000001
 12
-5.5524515748
 22
32.8850959525
 32
0.0
 13
-1.5643731396
 23
33.3138408319
 33
0.0
 40
0.0
 40
0.0
 40
0.0
 40
0.0
 40
0.4919330271
 40
1.0
 40
1.0
 40
1.0
 40
1.0
 10
-17.1665311707
 20
-14.7308510201
 30
0.0
 10
-18.0770092744
 20
-9.3384294203
 30
0.0
 10
-19.5706906596
 20
1.6858790903
 30
0.0
 10
-20.4005136449
 20
12.7786219018
 30
0.0
 10
-20.6654490867
 20
18.4205093238
 30
0.0
 11
-17.1665311707
 21
-14.7308510201
 31
0.0
 11
-19.3859392117
 21
1.524574466
 31
0.0
 11
-20.6654490867
 21
18.4205093238
 31
0.0
  0
SPLINE
  5
4A4
100
AcDbEntity
  8
RACCORDO
100
AcDbSpline
 62
253
  6
CONTINUOUS
 70
0
 71
3
 72
11
 73
7
 74
5
 42
0.0000001
 43
0.0000001
 44
0.0000000001
 12
-0.0962781083
 22
2.0877071307
 32
0.0
 13
1.7137805664
 23
1.1961382478
 33
0.0
 40
0.0
 40
0.0
 40
0.0
 40
0.0
 40
0.2398224792
 40
0.5006821071
 40
0.7611717646
 40
1.0
 40
1.0
 40
1.0
 40
1.0
 10
-20.6654490867
 20
18.4205093238
 30
0.0
 10
-20.6731456383
 20
18.5874023571
 30
0.0
 10
-20.632645182
 20
18.9389454412
 30
0.0
 10
-20.450092993
 20
19.4409797876
 30
0.0
 10
-20.1651003981
 20
19.891984839
 30
0.0
 10
-19.912161851
 20
20.1382052435
 30
0.0
 10
-19.7757287881
 20
20.2334291058
 30
0.0
 11
-20.6654490867
 21
18.4205093238
 31
0.0
 11
-20.6160889943
 21
18.9192840972
 31
0.0
 11
-20.4323743178
 21
19.4325746742
 31
0.0
 11
-20.1390867781
 21
19.8912229508
 31
0.0
 11
-19.7757287881
 21
20.2334291058
 31
0.0
  0
SPLINE
  5
4A5
100
AcDbEntity
  8
RACCORDO
100
AcDbSpline
 62
253
  6
CONTINUOUS
 70
0
 71
3
 72
11
 73
7
 74
5
 42
0.0000001
 43
0.0000001
 44
0.0000000001
 12
0.0359324245
 22
-0.4420190958
 32
0.0
 13
-0.3819411104
 23
-0.2253730426
 33
0.0
 40
0.0
 40
0.0
 40
0.0
 40
0.0
 40
0.2980129261
 40
0.5603464553
 40
0.7900448507
 40
1.0
 40
1.0
 40
1.0
 40
1.0
 10
-1.1856295694
 20
-22.0073995249
 30
0.0
 10
-1.1820601271
 20
-22.0513086596
 30
0.0
 10
-1.1817639295
 20
-22.1346707881
 30
0.0
 10
-1.2055022033
 20
-22.2501072879
 30
0.0
 10
-1.2538847027
 20
-22.343795731
 30
0.0
 10
-1.3035554878
 20
-22.3885283794
 30
0.0
 10
-1.3302856555
 20
-22.404301123
 30
0.0
 11
-1.1856295694
 21
-22.0073995249
 31
0.0
 11
-1.1865910856
 21
-22.1395579629
 31
0.0
 11
-1.2119201658
 21
-22.2531061287
 31
0.0
 11
-1.2605323319
 21
-22.3426245021
 31
0.0
 11
-1.3302856555
 21
-22.404301123
 31
0.0
  0
SPLINE
  5
4A6
100
AcDbEntity
  8
RACCORDO
100
AcDbSpline
 62
253
  6
CONTINUOUS
 70
0
 71
3
 72
11
 73
7
 74
5
 42
0.0000001
 43
0.0000001
 44
0.0000000001
 12
0.0626303446
 22
-0.3679680709
 32
0.0
 13
0.3336138954
 23
-0.1674061828
 33
0.0
 40
0.0
 40
0.0
 40
0.0
 40
0.0
 40
0.2261908658
 40
0.4633607617
 40
0.7200945613
 40
1.0
 40
1.0
 40
1.0
 40
1.0
 10
-17.3997328995
 20
-14.45606883
 30
0.0
 10
-17.3950107622
 20
-14.4838125022
 30
0.0
 10
-17.3769147593
 20
-14.5395096021
 30
0.0
 10
-17.3265947612
 20
-14.6147877154
 30
0.0
 10
-17.2550996771
 20
-14.6803833592
 30
0.0
 10
-17.1976579244
 20
-14.7152316995
 30
0.0
 10
-17.1665311431
 20
-14.7308509998
 30
0.0
 11
-17.3997328995
 21
-14.45606883
 31
0.0
 11
-17.3739398687
 21
-14.5364604272
 31
0.0
 11
-17.3253978149
 21
-14.6104910279
 31
0.0
 11
-17.2554416962
 21
-14.6759832949
 31
0.0
 11
-17.1665311431
 21
-14.7308509998
 31
0.0
  0
SPLINE
  5
4A7
100
AcDbEntity
  8
RACCORDO
100
AcDbSpline
 62
253
  6
CONTINUOUS
 70
0
 71
3
 72
11
 73
7
 74
5
 42
0.0000001
 43
0.0000001
 44
0.0000000001
 12
-0.9454632169
 22
-0.6650756841
 32
0.0
 13
-1.0346578312
 23
0.5154702052
 33
0.0
 40
0.0
 40
0.0
 40
0.0
 40
0.0
 40
0.2476673284
 40
0.5126200708
 40
0.7706965909
 40
1.0
 40
1.0
 40
1.0
 40
1.0
 10
-1.7317401949
 20
-21.778863223
 30
0.0
 10
-1.8097936446
 20
-21.8337690623
 30
0.0
 10
-1.989762323
 20
-21.9218362933
 30
0.0
 10
-2.2819678083
 20
-21.9867968202
 30
0.0
 10
-2.5742299409
 20
-21.9850429751
 30
0.0
 10
-2.758956152
 20
-21.9344826688
 30
0.0
 10
-2.8380396747
 20
-21.895082977
 30
0.0
 11
-1.7317401949
 21
-21.778863223
 31
0.0
 11
-1.9870524477
 21
-21.9083953939
 31
0.0
 11
-2.2858271391
 21
-21.9757505351
 31
0.0
 11
-2.5841153856
 21
-21.9711178955
 31
0.0
 11
-2.8380396747
 21
-21.895082977
 31
0.0
  0
SPLINE
  5
4A8
100
AcDbEntity
  8
RACCORDO
100
AcDbSpline
 62
253
  6
CONTINUOUS
 70
0
 71
3
 72
11
 73
7
 74
5
 42
0.0000001
 43
0.0000001
 44
0.0000000001
 12
0.120061534
 22
-0.7018289795
 32
0.0
 13
0.6364294063
 23
-0.3192746454
 33
0.0
 40
0.0
 40
0.0
 40
0.0
 40
0.0
 40
0.2787806628
 40
0.5347628695
 40
0.7724151371
 40
1.0
 40
1.0
 40
1.0
 40
1.0
 10
-2.838050836
 20
-21.8950911874
 30
0.0
 10
-2.8268938914
 20
-21.9603099701
 30
0.0
 10
-2.7952891943
 20
-22.0840825818
 30
0.0
 10
-2.7147773862
 20
-22.2503961534
 30
0.0
 10
-2.6047350661
 20
-22.3838588807
 30
0.0
 10
-2.512713977
 20
-22.4479301401
 30
0.0
 10
-2.4644334106
 20
-22.4721508323
 30
0.0
 11
-2.838050836
 21
-21.8950911874
 31
0.0
 11
-2.7873824182
 21
-22.0870141269
 31
0.0
 11
-2.7064493818
 21
-22.2503254261
 31
0.0
 11
-2.5977099188
 21
-22.379975632
 31
0.0
 11
-2.4644334106
 21
-22.4721508323
 31
0.0
  0
SPLINE
  5
4A9
100
AcDbEntity
  8
RACCORDO
100
AcDbSpline
 62
253
  6
CONTINUOUS
 70
0
 71
3
 72
15
 73
11
 74
9
 42
0.0000001
 43
0.0000001
 44
0.0000000001
 12
0.1222344152
 22
-0.7109496161
 32
0.0
 13
0.6215641129
 23
0.3661265663
 33
0.0
 40
0.0
 40
0.0
 40
0.0
 40
0.0
 40
0.1362274851
 40
0.2610228157
 40
0.3771401275
 40
0.4893339407
 40
0.6033405728
 40
0.7244049057
 40
0.8561329218
 40
1.0
 40
1.0
 40
1.0
 40
1.0
 10
-1.7317401949
 20
-21.778863223
 30
0.0
 10
-1.7261896325
 20
-21.8111468491
 30
0.0
 10
-1.7101497794
 20
-21.8723199053
 30
0.0
 10
-1.6683963483
 20
-21.9537578008
 30
0.0
 10
-1.6108596749
 20
-22.0176877018
 30
0.0
 10
-1.5394115693
 20
-22.0610060751
 30
0.0
 10
-1.45726922
 20
-22.081555937
 30
0.0
 10
-1.3681563131
 20
-22.0790272352
 30
0.0
 10
-1.2753375874
 20
-22.0542315324
 30
0.0
 10
-1.2154371071
 20
-22.024957378
 30
0.0
 10
-1.1856295694
 20
-22.0073995249
 30
0.0
 11
-1.7317401949
 21
-21.778863223
 31
0.0
 11
-1.705944991
 21
-21.8736892677
 31
0.0
 11
-1.6640589406
 21
-21.9533765116
 31
0.0
 11
-1.6075170928
 21
-22.0151791472
 31
0.0
 11
-1.5382417011
 21
-22.0570278243
 31
0.0
 11
-1.458584425
 21
-22.0774851367
 31
0.0
 11
-1.3712657335
 21
-22.0758761288
 31
0.0
 11
-1.2792265658
 21
-22.0522382337
 31
0.0
 11
-1.1856295694
 21
-22.0073995249
 31
0.0
  0
SPLINE
  5
4AA
100
AcDbEntity
  8
RACCORDO
100
AcDbSpline
 62
253
  6
CONTINUOUS
 70
0
 71
3
 72
11
 73
7
 74
5
 42
0.0000001
 43
0.0000001
 44
0.0000000001
 12
-1.0118551661
 22
-0.54589457
 32
0.0
 13
-1.0274868034
 23
0.5158707468
 33
0.0
 40
0.0
 40
0.0
 40
0.0
 40
0.0
 40
0.2401776776
 40
0.5048331443
 40
0.7668834085
 40
1.0
 40
1.0
 40
1.0
 40
1.0
 10
-5.2213276632
 20
11.2840934933
 30
0.0
 10
-5.3023360044
 20
11.2403895966
 30
0.0
 10
-5.487259751
 20
11.1754613673
 30
0.0
 10
-5.7806793263
 20
11.1389791474
 30
0.0
 10
-6.0728534639
 20
11.1602679194
 30
0.0
 10
-6.2571273256
 20
11.2161831574
 30
0.0
 10
-6.3369687327
 20
11.2562691675
 30
0.0
 11
-5.2213276632
 21
11.2840934933
 31
0.0
 11
-5.4801566368
 21
11.1878697964
 31
0.0
 11
-5.7819309758
 21
11.1489073609
 31
0.0
 11
-6.0822618092
 21
11.1728531645
 31
0.0
 11
-6.3369687327
 21
11.2562691675
 31
0.0
  0
SPLINE
  5
4AB
100
AcDbEntity
  8
RACCORDO
100
AcDbSpline
 62
253
  6
CONTINUOUS
 70
0
 71
3
 72
12
 73
8
 74
6
 42
0.0000001
 43
0.0000001
 44
0.0000000001
 12
-0.1506596988
 22
1.1544697081
 32
0.0
 13
-1.0280933794
 23
0.5463722678
 33
0.0
 40
0.0
 40
0.0
 40
0.0
 40
0.0
 40
0.2391885769
 40
0.5045757834
 40
0.7673532962
 40
0.8890557524
 40
1.0
 40
1.0
 40
1.0
 40
1.0
 10
-4.7876560489
 20
12.1208883208
 30
0.0
 10
-4.7996680752
 20
12.212933643
 30
0.0
 10
-4.8561453215
 20
12.4031325899
 30
0.0
 10
-4.9993708379
 20
12.6659146838
 30
0.0
 10
-5.1614784858
 20
12.861915069
 30
0.0
 10
-5.3079436246
 20
12.9870517018
 30
0.0
 10
-5.3840433643
 20
13.0363909503
 30
0.0
 10
-5.4220637132
 20
13.0565965704
 30
0.0
 11
-4.7876560489
 21
12.1208883208
 31
0.0
 11
-4.8616848478
 21
12.389345781
 31
0.0
 11
-5.0082320838
 21
12.6613608143
 31
0.0
 11
-5.204964662
 21
12.8956602261
 31
0.0
 11
-5.3131275833
 21
12.9871901898
 31
0.0
 11
-5.4220637132
 21
13.0565965704
 31
0.0
  0
SPLINE
  5
4AC
100
AcDbEntity
  8
RACCORDO
100
AcDbSpline
 62
253
  6
CONTINUOUS
 70
0
 71
3
 72
11
 73
7
 74
5
 42
0.0000001
 43
0.0000001
 44
0.0000000001
 12
-1.7398302831
 22
-1.163394056
 32
0.0
 13
0.0935772143
 23
-2.090870261
 33
0.0
 40
0.0
 40
0.0
 40
0.0
 40
0.0
 40
0.240239275
 40
0.5008321916
 40
0.7609755826
 40
1.0
 40
1.0
 40
1.0
 40
1.0
 10
-5.422063715
 20
13.0565965692
 30
0.0
 10
-5.5613889036
 20
12.9634322544
 30
0.0
 10
-5.8204517257
 20
12.7212375127
 30
0.0
 10
-6.1137205329
 20
12.2737505546
 30
0.0
 10
-6.3021286208
 20
11.773897267
 30
0.0
 10
-6.3444244985
 20
11.4228588385
 30
0.0
 10
-6.3369687521
 20
11.2562691565
 30
0.0
 11
-5.422063715
 21
13.0565965692
 31
0.0
 11
-5.7947259829
 21
12.7190425532
 31
0.0
 11
-6.095975344
 21
12.2643751873
 31
0.0
 11
-6.2852330973
 21
11.7538561487
 31
0.0
 11
-6.3369687521
 21
11.2562691565
 31
0.0
  0
SPLINE
  5
4AD
100
AcDbEntity
  8
RACCORDO
100
AcDbSpline
 62
253
  6
CONTINUOUS
 70
0
 71
3
 72
11
 73
7
 74
5
 42
0.0000001
 43
0.0000001
 44
0.0000000001
 12
-0.8186495715
 22
-0.5343586602
 32
0.0
 13
0.0428643373
 23
-0.9766723848
 33
0.0
 40
0.0
 40
0.0
 40
0.0
 40
0.0
 40
0.2410319132
 40
0.5016784992
 40
0.7614208535
 40
1.0
 40
1.0
 40
1.0
 40
1.0
 10
-4.7876560489
 20
12.1208883208
 30
0.0
 10
-4.8534296064
 20
12.077955824
 30
0.0
 10
-4.9759462572
 20
11.9660292295
 30
0.0
 10
-5.1150164084
 20
11.7581560801
 30
0.0
 10
-5.2045224209
 20
11.5254672523
 30
0.0
 10
-5.2247365088
 20
11.3617647146
 30
0.0
 10
-5.2213276632
 20
11.2840934933
 30
0.0
 11
-4.7876560489
 21
12.1208883208
 31
0.0
 11
-4.9640262798
 21
11.964626416
 31
0.0
 11
-5.1067331161
 21
11.753525504
 31
0.0
 11
-5.1965437836
 21
11.5160109548
 31
0.0
 11
-5.2213276632
 21
11.2840934933
 31
0.0
  0
SPLINE
  5
4AE
100
AcDbEntity
  8
RACCORDO
100
AcDbSpline
 62
253
  6
CONTINUOUS
 70
0
 71
3
 72
11
 73
7
 74
5
 42
0.0000001
 43
0.0000001
 44
0.0000000001
 12
0.0182461102
 22
-0.3830260022
 32
0.0
 13
0.3432612843
 23
-0.1709196584
 33
0.0
 40
0.0
 40
0.0
 40
0.0
 40
0.0
 40
0.2129457862
 40
0.443733166
 40
0.7047671713
 40
1.0
 40
1.0
 40
1.0
 40
1.0
 10
-20.8996720514
 20
18.702935731
 30
0.0
 10
-20.8983769073
 20
18.6757478066
 30
0.0
 10
-20.8849935089
 20
18.6191963599
 30
0.0
 10
-20.8357269134
 20
18.5422313826
 30
0.0
 10
-20.7606636917
 20
18.4739616435
 30
0.0
 10
-20.6992223902
 20
18.43733386
 30
0.0
 10
-20.6654417236
 20
18.4205134952
 30
0.0
 11
-20.8996720514
 21
18.702935731
 31
0.0
 11
-20.8814701289
 21
18.6233339993
 31
0.0
 11
-20.8350832325
 21
18.5479674413
 31
0.0
 11
-20.7620780518
 21
18.4794875831
 31
0.0
 11
-20.6654417236
 21
18.4205134952
 31
0.0
  0
SPLINE
  5
4AF
100
AcDbEntity
  8
RACCORDO
100
AcDbSpline
 62
253
  6
CONTINUOUS
 70
0
 71
3
 72
11
 73
7
 74
5
 42
0.0000001
 43
0.0000001
 44
0.0000000001
 12
0.3245860042
 22
0.2319090504
 32
0.0
 13
0.3610127481
 23
-0.1697282461
 33
0.0
 40
0.0
 40
0.0
 40
0.0
 40
0.0
 40
0.2144060348
 40
0.4459286213
 40
0.7065473564
 40
1.0
 40
1.0
 40
1.0
 40
1.0
 10
-20.1573615987
 20
20.2407842801
 30
0.0
 10
-20.134163866
 20
20.2573585134
 30
0.0
 10
-20.0791809753
 20
20.2831280055
 30
0.0
 10
-19.984400757
 20
20.2930487148
 30
0.0
 10
-19.8803658839
 20
20.2763038099
 30
0.0
 10
-19.8110421699
 20
20.2500315067
 30
0.0
 10
-19.7757287881
 20
20.2334291058
 30
0.0
 11
-20.1573615987
 21
20.2407842801
 31
0.0
 11
-20.0801733644
 21
20.2776290436
 31
0.0
 11
-19.9884909209
 21
20.2887892844
 31
0.0
 11
-19.8856103029
 21
20.2738039064
 31
0.0
 11
-19.7757287881
 21
20.2334291058
 31
0.0
  0
SPLINE
  5
4B0
100
AcDbEntity
  8
RACCORDO
100
AcDbSpline
 62
253
  6
CONTINUOUS
 70
0
 71
3
 72
11
 73
7
 74
5
 42
0.0000001
 43
0.0000001
 44
0.0000000001
 12
-0.6312086451
 22
0.3155300283
 32
0.0
 13
-0.1180618633
 23
0.6957333892
 33
0.0
 40
0.0
 40
0.0
 40
0.0
 40
0.0
 40
0.2254721822
 40
0.4623639029
 40
0.7190979174
 40
1.0
 40
1.0
 40
1.0
 40
1.0
 10
-16.7993245804
 20
-15.3047058147
 30
0.0
 10
-16.8467645773
 20
-15.2809914
 30
0.0
 10
-16.9373064582
 20
-15.2176323755
 30
0.0
 10
-17.0452770385
 20
-15.0850954246
 30
0.0
 10
-17.1243656487
 20
-14.9193924493
 30
0.0
 10
-17.1554765629
 20
-14.7959953394
 30
0.0
 10
-17.1665311707
 20
-14.7308510201
 30
0.0
 11
-16.7993245804
 21
-15.3047058147
 31
0.0
 11
-16.9300480201
 21
-15.2139990166
 31
0.0
 11
-17.0368369031
 21
-15.0853840105
 31
0.0
 11
-17.1164733997
 21
-14.9226532615
 31
0.0
 11
-17.1665311707
 21
-14.7308510201
 31
0.0
  0
LINE
  5
4B1
100
AcDbEntity
  8
RACCORDO
100
AcDbLine
 62
7
  6
CONTINUOUS
 10
21.3329522479
 20
19.33860678
 11
21.3337150274
 21
19.3364544823
  0
LINE
  5
4B2
100
AcDbEntity
  8
RACCORDO
100
AcDbLine
 62
7
  6
CONTINUOUS
 10
21.3337150274
 20
19.3364544823
 11
21.3348886975
 21
19.3331355706
  0
SPLINE
  5
4B3
100
AcDbEntity
  8
RACCORDO
100
AcDbSpline
 62
7
  6
CONTINUOUS
 70
0
 71
3
 72
14
 73
10
 74
8
 42
0.0000001
 43
0.0000001
 44
0.0000000001
 12
0.648531614
 22
-2.0151720786
 32
0.0
 13
-0.9179824041
 23
-1.9075691511
 33
0.0
 40
0.0
 40
0.0
 40
0.0
 40
0.0
 40
0.2735865767
 40
0.4054777844
 40
0.533263699
 40
0.6565994406
 40
0.7753690302
 40
0.8897068701
 40
1.0
 40
1.0
 40
1.0
 40
1.0
 10
21.3726333784
 20
19.2212882547
 30
0.0
 10
21.4317765598
 20
19.0375135779
 30
0.0
 10
21.5007741093
 20
18.7583885421
 30
0.0
 10
21.5476056637
 20
18.3847070574
 30
0.0
 10
21.5587819572
 20
18.1143062492
 30
0.0
 10
21.5459544266
 20
17.8532256005
 30
0.0
 10
21.5087325272
 20
17.6039995813
 30
0.0
 10
21.4468049291
 20
17.3692056013
 30
0.0
 10
21.387839315
 20
17.2215061444
 30
0.0
 10
21.3540902641
 20
17.1513755537
 30
0.0
 11
21.3726333784
 21
19.2212882547
 31
0.0
 11
21.509685314
 21
18.6585661239
 31
0.0
 11
21.5440379618
 21
18.3814793227
 31
0.0
 11
21.5547593588
 21
18.1111744345
 31
0.0
 11
21.5414138251
 21
17.8504191234
 31
0.0
 11
21.5036761093
 21
17.6018370743
 31
0.0
 11
21.4412937388
 21
17.3679655757
 31
0.0
 11
21.3540902641
 21
17.1513755537
 31
0.0
  0
SPLINE
  5
4B4
100
AcDbEntity
  8
RACCORDO
100
AcDbSpline
 62
7
  6
CONTINUOUS
 70
0
 71
3
 72
9
 73
5
 74
3
 42
0.0000001
 43
0.0000001
 44
0.0000000001
 12
-0.25645871
 22
-0.2819696486
 32
0.0
 13
-0.3245439169
 23
-0.1998729564
 33
0.0
 40
0.0
 40
0.0
 40
0.0
 40
0.0
 40
0.5024158301
 40
1.0
 40
1.0
 40
1.0
 40
1.0
 10
21.2081746444
 20
16.6514475957
 30
0.0
 10
21.1652250059
 20
16.6042255907
 30
0.0
 10
21.0733415474
 20
16.5158299187
 30
0.0
 10
20.9698771688
 20
16.4412423027
 30
0.0
 10
20.9160478637
 20
16.4080910964
 30
0.0
 11
21.2081746444
 21
16.6514475957
 31
0.0
 11
21.0699743226
 21
16.5188882734
 31
0.0
 11
20.9160478637
 21
16.4080910964
 31
0.0
  0
SPLINE
  5
4B5
100
AcDbEntity
  8
RACCORDO
100
AcDbSpline
 62
7
  6
CONTINUOUS
 70
0
 71
3
 72
14
 73
10
 74
8
 42
0.0000001
 43
0.0000001
 44
0.0000000001
 12
2.1901996276
 22
-1.1461537261
 32
0.0
 13
1.0402246791
 23
-2.2424485255
 33
0.0
 40
0.0
 40
0.0
 40
0.0
 40
0.0
 40
0.1127210172
 40
0.2298874656
 40
0.3512679057
 40
0.4764131007
 40
0.6046930408
 40
0.735336636
 40
1.0
 40
1.0
 40
1.0
 40
1.0
 10
19.6620556445
 20
21.5689335433
 30
0.0
 10
19.7443494878
 20
21.5258683387
 30
0.0
 10
19.9074231246
 20
21.4287010238
 30
0.0
 10
20.1407011493
 20
21.2566987574
 30
0.0
 10
20.3653354268
 20
21.0577682362
 30
0.0
 10
20.5790419117
 20
20.8343669509
 30
0.0
 10
20.779600229
 20
20.5891421216
 30
0.0
 10
21.0274407974
 20
20.2356829908
 30
0.0
 10
21.1854749435
 20
19.9492118566
 30
0.0
 10
21.2772447311
 20
19.7513805331
 30
0.0
 11
19.6620556445
 21
21.5689335433
 31
0.0
 11
19.9017681504
 21
21.4268775299
 31
0.0
 11
20.1352293181
 21
21.2554638652
 31
0.0
 11
20.3601731561
 21
21.0568948332
 31
0.0
 11
20.5742890911
 21
20.8336122832
 31
0.0
 11
20.7752617869
 21
20.5883264443
 31
0.0
 11
20.9608256635
 21
20.324014196
 31
0.0
 11
21.2772447311
 21
19.7513805331
 31
0.0
  0
SPLINE
  5
4B6
100
AcDbEntity
  8
RACCORDO
100
AcDbSpline
 62
7
  6
CONTINUOUS
 70
0
 71
3
 72
9
 73
5
 74
3
 42
0.0000001
 43
0.0000001
 44
0.0000000001
 12
0.0795232672
 22
0.0420532136
 32
0.0
 13
0.0728375583
 23
0.0527931141
 33
0.0
 40
0.0
 40
0.0
 40
0.0
 40
0.0
 40
0.2472563057
 40
1.0
 40
1.0
 40
1.0
 40
1.0
 10
18.6243289948
 20
-9.7525799851
 30
0.0
 10
18.6308832046
 20
-9.749114011
 30
0.0
 10
18.657134212
 20
-9.7346145927
 30
0.0
 10
18.6823336355
 20
-9.7182228706
 30
0.0
 10
18.7006096397
 20
-9.7049763094
 30
0.0
 11
18.6243289948
 21
-9.7525799851
 31
0.0
 11
18.6438003695
 21
-9.7418281785
 31
0.0
 11
18.7006096397
 21
-9.7049763094
 31
0.0
  0
SPLINE
  5
4B7
100
AcDbEntity
  8
RACCORDO
100
AcDbSpline
 62
7
  6
CONTINUOUS
 70
0
 71
3
 72
9
 73
5
 74
3
 42
0.0000001
 43
0.0000001
 44
0.0000000001
 12
0.0791608445
 22
-0.0395890864
 32
0.0
 13
0.0443941078
 23
-0.0765695648
 33
0.0
 40
0.0
 40
0.0
 40
0.0
 40
0.0
 40
0.5021590845
 40
1.0
 40
1.0
 40
1.0
 40
1.0
 10
18.9932398263
 20
23.9368853426
 30
0.0
 10
19.006490272
 20
23.9302586695
 30
0.0
 10
19.0312279401
 20
23.9132899031
 30
0.0
 10
19.0496521203
 20
23.8896302666
 30
0.0
 10
19.057019188
 20
23.8769237792
 30
0.0
 11
18.9932398263
 21
23.9368853426
 31
0.0
 11
19.0297427288
 21
23.9115294342
 31
0.0
 11
19.057019188
 21
23.8769237792
 31
0.0
  0
SPLINE
  5
4B8
100
AcDbEntity
  8
RACCORDO
100
AcDbSpline
 62
253
  6
CONTINUOUS
 70
0
 71
3
 72
12
 73
8
 74
6
 42
0.0000001
 43
0.0000001
 44
0.0000000001
 12
-0.000004191
 22
-0.1404206734
 32
0.0
 13
-0.1246974566
 23
-0.0645639982
 33
0.0
 40
0.0
 40
0.0
 40
0.0
 40
0.0
 40
0.1028546465
 40
0.2084745189
 40
0.436676574
 40
0.6988746822
 40
1.0
 40
1.0
 40
1.0
 40
1.0
 10
21.3329506848
 20
19.5076081867
 30
0.0
 10
21.3329505411
 20
19.5027938805
 30
0.0
 10
21.3319974856
 20
19.4930110167
 30
0.0
 10
21.3262081694
 20
19.473300041
 30
0.0
 10
21.3112638478
 20
19.4491418144
 30
0.0
 10
21.2838823791
 20
19.4237535953
 30
0.0
 10
21.2612691553
 20
19.4098912394
 30
0.0
 10
21.2487526349
 20
19.4034106213
 30
0.0
 11
21.3329506848
 21
19.5076081867
 31
0.0
 11
21.3315693489
 21
19.4932314759
 31
0.0
 11
21.3274384658
 21
19.4789871542
 31
0.0
 11
21.3111053334
 21
19.4514178766
 31
0.0
 11
21.284551772
 21
19.4259134442
 31
0.0
 11
21.2487526349
 21
19.4034106213
 31
0.0
  0
SPLINE
  5
4B9
100
AcDbEntity
  8
RACCORDO
100
AcDbSpline
 62
7
  6
CONTINUOUS
 70
0
 71
3
 72
14
 73
10
 74
8
 42
0.0000001
 43
0.0000001
 44
0.0000000001
 12
0.0000115141
 22
-0.1249348961
 32
0.0
 13
-0.1111853166
 23
-0.0569785377
 33
0.0
 40
0.0
 40
0.0
 40
0.0
 40
0.0
 40
0.0819501554
 40
0.1721974237
 40
0.2741151669
 40
0.3897754712
 40
0.5202141665
 40
0.6657008073
 40
1.0
 40
1.0
 40
1.0
 40
1.0
 10
21.3329506559
 20
19.3325123893
 30
0.0
 10
21.3329509704
 20
19.3290995779
 30
0.0
 10
21.3319199792
 20
19.3219059757
 30
0.0
 10
21.3276267384
 20
19.3112409963
 30
0.0
 10
21.3206488308
 20
19.3004146018
 30
0.0
 10
21.3110570309
 20
19.2894959061
 30
0.0
 10
21.2989245569
 20
19.2785547352
 30
0.0
 10
21.2785260266
 20
19.2633547543
 30
0.0
 10
21.2611423554
 20
19.2533452748
 30
0.0
 10
21.2487526349
 20
19.2469959817
 30
0.0
 11
21.3329506559
 21
19.3325123893
 31
0.0
 11
21.3315923273
 21
19.3223644596
 31
0.0
 11
21.3275125773
 21
19.3118534171
 31
0.0
 11
21.3207267637
 21
19.3010791827
 31
0.0
 11
21.3112783523
 21
19.2901461932
 31
0.0
 11
21.2992400235
 21
19.2791621368
 31
0.0
 11
21.284713923
 21
19.2682363686
 31
0.0
 11
21.2487526349
 21
19.2469959817
 31
0.0
  0
SPLINE
  5
4BA
100
AcDbEntity
  8
0
100
AcDbSpline
 62
7
  6
CONTINUOUS
 70
0
 71
3
 72
15
 73
11
 74
9
 42
0.0000001
 43
0.0000001
 44
0.0000000001
 12
-0.0000053518
 22
1.3078359673
 32
0.0
 13
1.1656304999
 23
0.5930771071
 33
0.0
 40
0.0
 40
0.0
 40
0.0
 40
0.0
 40
0.1023893177
 40
0.2075922902
 40
0.3181088505
 40
0.4359188787
 40
0.562413944
 40
0.698426763
 40
0.8443056789
 40
1.0
 40
1.0
 40
1.0
 40
1.0
 10
9.1709823567
 20
22.9330504815
 30
0.0
 10
9.1709821741
 20
22.9776866256
 30
0.0
 10
9.1799164279
 20
23.0684180607
 30
0.0
 10
9.2196643136
 20
23.2020540559
 30
0.0
 10
9.2851216297
 20
23.3326448351
 30
0.0
 10
9.3753729365
 20
23.4589344946
 30
0.0
 10
9.4893951477
 20
23.5798994682
 30
0.0
 10
9.6260562369
 20
23.6945512784
 30
0.0
 10
9.7840617526
 20
23.8019251961
 30
0.0
 10
9.8990495633
 20
23.8660211408
 30
0.0
 10
9.9595435797
 20
23.8968007199
 30
0.0
 11
9.1709823567
 21
22.9330504815
 31
0.0
 11
9.1839320095
 21
23.0663312931
 31
0.0
 11
9.2226587813
 21
23.1983568912
 31
0.0
 11
9.2867982138
 21
23.327883844
 31
0.0
 11
9.3757459415
 21
23.4536923284
 31
0.0
 11
9.4886646183
 21
23.5745974324
 31
0.0
 11
9.6244903663
 21
23.6894605449
 31
0.0
 11
9.7819436
 21
23.7971993952
 31
0.0
 11
9.9595435797
 21
23.8968007199
 31
0.0
  0
SPLINE
  5
4BB
100
AcDbEntity
  8
RACCORDO
100
AcDbSpline
 62
253
  6
CONTINUOUS
 70
0
 71
3
 72
19
 73
15
 74
13
 42
0.0000001
 43
0.0000001
 44
0.0000000001
 12
0.3420937617
 22
0.1700860762
 32
0.0
 13
0.1916424317
 23
-0.3305005197
 33
0.0
 40
0.0
 40
0.0
 40
0.0
 40
0.0
 40
0.2169654406
 40
0.4110536596
 40
0.5799412176
 40
0.7216490772
 40
0.7818118702
 40
0.834639353
 40
0.8800289866
 40
0.917937938
 40
0.9484175031
 40
0.9609418656
 40
0.9717272116
 40
1.0
 40
1.0
 40
1.0
 40
1.0
 10
18.9672265708
 20
23.290130194
 30
0.0
 10
18.9919674121
 20
23.3024311275
 30
0.0
 10
19.0390010627
 20
23.3254153357
 30
0.0
 10
19.1059152191
 20
23.3566834731
 30
0.0
 10
19.16473784
 20
23.3825924123
 30
0.0
 10
19.208504042
 20
23.4003416737
 30
0.0
 10
19.2389745913
 20
23.4114677884
 30
0.0
 10
19.2581179005
 20
23.4178332166
 30
0.0
 10
19.2747647159
 20
23.4226798786
 30
0.0
 10
19.2888886993
 20
23.4259918196
 30
0.0
 10
19.2990598725
 20
23.42759525
 30
0.0
 10
19.3059521842
 20
23.4279699354
 30
0.0
 10
19.3123563043
 20
23.4278112355
 30
0.0
 10
19.3182637029
 20
23.4263432979
 30
0.0
 10
19.3200697915
 20
23.4232285741
 30
0.0
 11
18.9672265708
 21
23.290130194
 31
0.0
 11
19.0417285217
 21
23.3264655628
 31
0.0
 11
19.1089445814
 21
23.3577745344
 31
0.0
 11
19.1680427135
 21
23.3836696149
 31
0.0
 11
19.2182880901
 21
23.4038287351
 31
0.0
 11
19.2398917246
 21
23.4116763361
 31
0.0
 11
19.2590572619
 21
23.4180018247
 31
0.0
 11
19.2757251949
 21
23.4227855707
 31
0.0
 11
19.2898439268
 21
23.4260128213
 31
0.0
 11
19.3013694344
 21
23.4276734477
 31
0.0
 11
19.3061482144
 21
23.4279144698
 31
0.0
 11
19.3102658763
 21
23.427762269
 31
0.0
 11
19.3200697915
 21
23.4232285741
 31
0.0
  0
SPLINE
  5
4BC
100
AcDbEntity
  8
RACCORDO
100
AcDbSpline
 62
7
  6
CONTINUOUS
 70
0
 71
3
 72
15
 73
11
 74
9
 42
0.0000001
 43
0.0000001
 44
0.0000000001
 12
0.3458981339
 22
0.1680197029
 32
0.0
 13
0.343933937
 23
-0.1720046122
 33
0.0
 40
0.0
 40
0.0
 40
0.0
 40
0.0
 40
0.1656880137
 40
0.3196247913
 40
0.4613593401
 40
0.5907886441
 40
0.7082363666
 40
0.8145306636
 40
0.9110918568
 40
1.0
 40
1.0
 40
1.0
 40
1.0
 10
18.6243289948
 20
23.8815410296
 30
0.0
 10
18.6434327198
 20
23.8908206465
 30
0.0
 10
18.6807807809
 20
23.9077321951
 30
0.0
 10
18.7361419713
 20
23.9286544783
 30
0.0
 10
18.7884562355
 20
23.9441074696
 30
0.0
 10
18.8373508696
 20
23.9540136377
 30
0.0
 10
18.8825099835
 20
23.958351251
 30
0.0
 10
18.923680869
 20
23.9571318325
 30
0.0
 10
18.9606281851
 20
23.9504010832
 30
0.0
 10
18.9830469837
 20
23.9419828795
 30
0.0
 10
18.9932398263
 20
23.9368853426
 30
0.0
 11
18.6243289948
 21
23.8815410296
 31
0.0
 11
18.6824241286
 21
23.9077045118
 31
0.0
 11
18.7378520265
 21
23.9284867092
 31
0.0
 11
18.7901746975
 21
23.9437502246
 31
0.0
 11
18.8389973904
 21
23.9534227407
 31
0.0
 11
18.8839774363
 21
23.9574963316
 31
0.0
 11
18.9248259539
 21
23.9560219328
 31
0.0
 11
18.961307835
 21
23.9491024712
 31
0.0
 11
18.9932398263
 21
23.9368853426
 31
0.0
  0
SPLINE
  5
4BD
100
AcDbEntity
  8
RACCORDO
100
AcDbSpline
 62
253
  6
CONTINUOUS
 70
0
 71
3
 72
11
 73
7
 74
5
 42
0.0000001
 43
0.0000001
 44
0.0000000001
 12
0.004359318
 22
1.5061458984
 32
0.0
 13
-0.75913754
 23
1.3008476723
 33
0.0
 40
0.0
 40
0.0
 40
0.0
 40
0.0
 40
0.2342472426
 40
0.482518626
 40
0.7397297627
 40
1.0
 40
1.0
 40
1.0
 40
1.0
 10
19.3813770465
 20
21.8584966193
 30
0.0
 10
19.3817174325
 20
21.9761001272
 30
0.0
 10
19.3622608995
 20
22.2186567829
 30
0.0
 10
19.2812277877
 20
22.5821246281
 30
0.0
 10
19.1504707841
 20
22.9446636779
 30
0.0
 10
19.0330868734
 20
23.1772728832
 30
0.0
 10
18.9672265708
 20
23.290130194
 30
0.0
 11
19.3813770465
 21
21.8584966193
 31
0.0
 11
19.3549545772
 21
22.2103178261
 31
0.0
 11
19.274742883
 21
22.5755480116
 31
0.0
 11
19.1438234752
 21
22.9401549066
 31
0.0
 11
18.9672265708
 21
23.290130194
 31
0.0
  0
SPLINE
  5
4BE
100
AcDbEntity
  8
RACCORDO
100
AcDbSpline
 62
253
  6
CONTINUOUS
 70
0
 71
3
 72
15
 73
11
 74
9
 42
0.0000001
 43
0.0000001
 44
0.0000000001
 12
0.4162545525
 22
0.2155221038
 32
0.0
 13
0.0000009982
 23
0.4687404716
 33
0.0
 40
0.0
 40
0.0
 40
0.0
 40
0.0
 40
0.1553722745
 40
0.3009898018
 40
0.4368322816
 40
0.5632656902
 40
0.6811336836
 40
0.791823243
 40
0.8972921894
 40
1.0
 40
1.0
 40
1.0
 40
1.0
 10
19.3813770465
 20
21.8584966193
 30
0.0
 10
19.4029351853
 20
21.8696586725
 30
0.0
 10
19.4439049307
 20
21.8928770317
 30
0.0
 10
19.5001675847
 20
21.9316890782
 30
0.0
 10
19.5488074601
 20
21.9730641269
 30
0.0
 10
19.5893727306
 20
22.0166623569
 30
0.0
 10
19.6214686198
 20
22.0621338883
 30
0.0
 10
19.6447380009
 20
22.1091169172
 30
0.0
 10
19.6588631201
 20
22.1571675624
 30
0.0
 10
19.6620371058
 20
22.1897763408
 30
0.0
 10
19.66203714
 20
22.20582411
 30
0.0
 11
19.3813770465
 21
21.8584966193
 31
0.0
 11
19.4446456388
 21
21.8945686066
 31
0.0
 11
19.5007070792
 21
21.9335058578
 31
0.0
 11
19.5490474368
 21
21.9749509858
 31
0.0
 11
19.5892203816
 21
22.0185217352
 31
0.0
 11
19.6208563586
 21
22.0638171222
 31
0.0
 11
19.6436639413
 21
22.1104200599
 31
0.0
 11
19.6574331058
 21
22.1579014543
 31
0.0
 11
19.66203714
 21
22.20582411
 31
0.0
  0
SPLINE
  5
4BF
100
AcDbEntity
  8
RACCORDO
100
AcDbSpline
 62
253
  6
CONTINUOUS
 70
0
 71
3
 72
9
 73
5
 74
3
 42
0.0000001
 43
0.0000001
 44
0.0000000001
 12
0.0519915462
 22
0.2485891773
 32
0.0
 13
0.0039648518
 23
0.2539369604
 33
0.0
 40
0.0
 40
0.0
 40
0.0
 40
0.0
 40
0.4965829393
 40
1.0
 40
1.0
 40
1.0
 40
1.0
 10
19.6351086659
 20
19.2704899586
 30
0.0
 10
19.6437147042
 20
19.31163834
 30
0.0
 10
19.6563652484
 20
19.3955177759
 30
0.0
 10
19.6611833474
 20
19.4801495117
 30
0.0
 10
19.6618486721
 20
19.5227615778
 30
0.0
 11
19.6351086659
 21
19.2704899586
 31
0.0
 11
19.6543473542
 21
19.3951300467
 31
0.0
 11
19.6618486721
 21
19.5227615778
 31
0.0
  0
SPLINE
  5
4C0
100
AcDbEntity
  8
RACCORDO
100
AcDbSpline
 62
253
  6
CONTINUOUS
 70
0
 71
3
 72
11
 73
7
 74
5
 42
0.0000001
 43
0.0000001
 44
0.0000000001
 12
0.3497916652
 22
0.5778105923
 32
0.0
 13
0.1382728454
 23
0.6611353189
 33
0.0
 40
0.0
 40
0.0
 40
0.0
 40
0.0
 40
0.256114327
 40
0.5092357367
 40
0.7579012494
 40
1.0
 40
1.0
 40
1.0
 40
1.0
 10
19.3813770465
 20
18.6476422222
 30
0.0
 10
19.4112392654
 20
18.6969707459
 30
0.0
 10
19.466914695
 20
18.7973466348
 30
0.0
 10
19.538091514
 20
18.9526183194
 30
0.0
 10
19.5954812443
 20
19.1101554738
 30
0.0
 10
19.6239501049
 20
19.2171366137
 30
0.0
 10
19.6351086659
 20
19.2704899586
 30
0.0
 11
19.3813770465
 21
18.6476422222
 31
0.0
 11
19.4652558871
 21
18.7989361032
 31
0.0
 11
19.5363694177
 21
18.9544129184
 31
0.0
 11
19.593576371
 21
19.1123289503
 31
0.0
 11
19.6351086659
 21
19.2704899586
 31
0.0
  0
SPLINE
  5
4C1
100
AcDbEntity
  8
RACCORDO
100
AcDbSpline
 62
253
  6
CONTINUOUS
 70
0
 71
3
 72
12
 73
8
 74
6
 42
0.0000001
 43
0.0000001
 44
0.0000000001
 12
-0.2611432806
 22
0.1462020206
 32
0.0
 13
-0.2547817853
 23
0.1570257486
 33
0.0
 40
0.0
 40
0.0
 40
0.0
 40
0.0
 40
0.0722798071
 40
0.1620243439
 40
0.388277333
 40
0.6696818313
 40
1.0
 40
1.0
 40
1.0
 40
1.0
 10
19.6351086839
 20
15.5233922837
 30
0.0
 10
19.6288168885
 20
15.5269147683
 30
0.0
 10
19.6149108737
 20
15.5351614617
 30
0.0
 10
19.5819808731
 20
15.5555575675
 30
0.0
 10
19.5317399476
 20
15.5876190018
 30
0.0
 10
19.4611942542
 20
15.6324715846
 30
0.0
 10
19.409430064
 20
15.6647959989
 30
0.0
 10
19.3813770465
 20
15.6820854848
 30
0.0
 11
19.6351086839
 21
15.5233922837
 31
0.0
 11
19.6164425801
 21
15.5343251628
 31
0.0
 11
19.5935763597
 21
15.548415829
 31
0.0
 11
19.53636938
 21
15.5846446869
 31
0.0
 11
19.4652558457
 21
15.6297650289
 31
0.0
 11
19.3813770465
 21
15.6820854848
 31
0.0
  0
SPLINE
  5
4C2
100
AcDbEntity
  8
DRAFT
100
AcDbSpline
 62
253
  6
CONTINUOUS
 70
0
 71
3
 72
14
 73
10
 74
8
 42
0.0000001
 43
0.0000001
 44
0.0000000001
 12
0.4120873158
 22
0.2133644537
 32
0.0
 13
0.0084889412
 23
0.4639701325
 33
0.0
 40
0.0
 40
0.0
 40
0.0
 40
0.0
 40
0.300358307
 40
0.4362285794
 40
0.5627985698
 40
0.6808695106
 40
0.7917632023
 40
0.8973518867
 40
1.0
 40
1.0
 40
1.0
 40
1.0
 10
19.3813770465
 20
-8.4865836265
 30
0.0
 10
19.422634996
 20
-8.4652216978
 30
0.0
 10
19.4806108862
 20
-8.4297754059
 30
0.0
 10
19.5472101749
 20
-8.3734937065
 30
0.0
 10
19.5876264447
 20
-8.3304956268
 30
0.0
 10
19.6197867841
 20
-8.2856605247
 30
0.0
 10
19.6433498948
 20
-8.2393305761
 30
0.0
 10
19.658007348
 20
-8.1919314709
 30
0.0
 10
19.6617048282
 20
-8.1597053632
 30
0.0
 10
19.6619952861
 20
-8.1438301436
 30
0.0
 11
19.3813770465
 21
-8.4865836265
 31
0.0
 11
19.4994592856
 21
-8.4125327092
 31
0.0
 11
19.5474581654
 21
-8.3716493663
 31
0.0
 11
19.5874971932
 21
-8.3286770437
 31
0.0
 11
19.6192167854
 21
-8.2840018519
 31
0.0
 11
19.6423316717
 21
-8.2380254368
 31
0.0
 11
19.6566340167
 21
-8.1911611002
 31
0.0
 11
19.6619952861
 21
-8.1438301436
 31
0.0
  0
SPLINE
  5
4C3
100
AcDbEntity
  8
RACCORDO
100
AcDbSpline
 62
253
  6
CONTINUOUS
 70
0
 71
3
 72
13
 73
9
 74
7
 42
0.0000001
 43
0.0000001
 44
0.0000000001
 12
0.7003669796
 22
0.7171276421
 32
0.0
 13
-0.002909987
 23
1.0023859003
 33
0.0
 40
0.0
 40
0.0
 40
0.0
 40
0.0
 40
0.1087417994
 40
0.2211510256
 40
0.3379648488
 40
0.4597227201
 40
0.7190149956
 40
1.0
 40
1.0
 40
1.0
 40
1.0
 10
19.0706103838
 20
-9.4146771973
 30
0.0
 10
19.0959967724
 20
-9.3886832806
 30
0.0
 10
19.1442154838
 20
-9.3323868987
 30
0.0
 10
19.2068685318
 20
-9.2381460416
 30
0.0
 10
19.2604959714
 20
-9.133586018
 30
0.0
 10
19.3207156783
 20
-8.9782430725
 30
0.0
 10
19.3701486174
 20
-8.7613524298
 30
0.0
 10
19.3816496007
 20
-8.580468762
 30
0.0
 10
19.3813770465
 20
-8.4865836265
 30
0.0
 11
19.0706103838
 21
-9.4146771973
 31
0.0
 11
19.1416699838
 21
-9.3320218579
 31
0.0
 11
19.2042554653
 21
-9.2383235856
 31
0.0
 11
19.2579195963
 21
-9.1342517978
 31
0.0
 11
19.3022791852
 21
-9.0205497403
 31
0.0
 11
19.3618860971
 21
-8.7675650129
 31
0.0
 11
19.3813770465
 21
-8.4865836265
 31
0.0
  0
SPLINE
  5
4C4
100
AcDbEntity
  8
RACCORDO
100
AcDbSpline
 62
253
  6
CONTINUOUS
 70
0
 71
3
 72
14
 73
10
 74
8
 42
0.0000001
 43
0.0000001
 44
0.0000000001
 12
2.0578772517
 22
-1.2218118613
 32
0.0
 13
1.0071013942
 23
-2.1710434794
 33
0.0
 40
0.0
 40
0.0
 40
0.0
 40
0.0
 40
0.1116906395
 40
0.2284830563
 40
0.3498830244
 40
0.4752505209
 40
0.603830523
 40
0.7347809181
 40
1.0
 40
1.0
 40
1.0
 40
1.0
 10
19.6620436824
 20
21.5004804375
 30
0.0
 10
19.7386588911
 20
21.4549921214
 30
0.0
 10
19.8908217077
 20
21.3540738214
 30
0.0
 10
20.1091314762
 20
21.1796531536
 30
0.0
 10
20.3204805345
 20
20.9805895527
 30
0.0
 10
20.522451481
 20
20.7591702942
 30
0.0
 10
20.7127867765
 20
20.5178814646
 30
0.0
 10
20.9490463659
 20
20.1720392877
 30
0.0
 10
21.1009929359
 20
19.8935339543
 30
0.0
 10
21.190027105
 20
19.7015999015
 30
0.0
 11
19.6620436824
 21
21.5004804375
 31
0.0
 11
19.8851299056
 21
21.3532247722
 31
0.0
 11
20.1038159717
 21
21.1791423639
 31
0.0
 11
20.3155915208
 21
20.9802317422
 31
0.0
 11
20.5180255337
 21
20.758776291
 31
0.0
 11
20.7087941274
 21
20.5173180577
 31
0.0
 11
20.8857073487
 21
20.25862895
 31
0.0
 11
21.190027105
 21
19.7015999015
 31
0.0
  0
SPLINE
  5
4C5
100
AcDbEntity
  8
RACCORDO
100
AcDbSpline
 62
253
  6
CONTINUOUS
 70
0
 71
3
 72
19
 73
15
 74
13
 42
0.0000001
 43
0.0000001
 44
0.0000000001
 12
0.0496261256
 22
0.0306187162
 32
0.0
 13
-0.0578128868
 23
-0.0076110606
 33
0.0
 40
0.0
 40
0.0
 40
0.0
 40
0.0
 40
0.1309532554
 40
0.1809953615
 40
0.2217990834
 40
0.2550807981
 40
0.2839688344
 40
0.313093754
 40
0.3470882449
 40
0.3890932014
 40
0.4409088229
 40
0.5777216032
 40
0.7629337685
 40
1.0
 40
1.0
 40
1.0
 40
1.0
 10
19.7853678261
 20
15.7117529225
 30
0.0
 10
19.7875340603
 20
15.7130894627
 30
0.0
 10
19.7904593976
 20
15.715092249
 30
0.0
 10
19.7935239971
 20
15.718142742
 30
0.0
 10
19.794933803
 20
15.7201198049
 30
0.0
 10
19.795666718
 20
15.7220173655
 30
0.0
 10
19.7956372601
 20
15.7238488007
 30
0.0
 10
19.7947806332
 20
15.7254828995
 30
0.0
 10
19.7932075123
 20
15.7268360359
 30
0.0
 10
19.7909734077
 20
15.727957549
 30
0.0
 10
19.7866748049
 20
15.7292785728
 30
0.0
 10
19.7794119762
 20
15.730125858
 30
0.0
 10
19.7685349722
 20
15.7300287756
 30
0.0
 10
19.7603553673
 20
15.7292096215
 30
0.0
 10
19.7557868729
 20
15.7286081797
 30
0.0
 11
19.7853678261
 21
15.7117529225
 31
0.0
 11
19.7915448958
 21
15.7162422436
 31
0.0
 11
19.7935838524
 21
15.718329736
 31
0.0
 11
19.7949239444
 21
15.720295796
 31
0.0
 11
19.7955654291
 21
15.7221274264
 31
0.0
 11
19.7955080476
 21
15.7238109602
 31
0.0
 11
19.7947499873
 21
15.7253307137
 31
0.0
 11
19.7932891444
 21
15.7266706252
 31
0.0
 11
19.7911230927
 21
15.7278141685
 31
0.0
 11
19.788247768
 21
15.7287424575
 31
0.0
 11
19.7803506805
 21
15.7298743341
 31
0.0
 11
19.7695506567
 21
15.7298943034
 31
0.0
 11
19.7557868729
 21
15.7286081797
 31
0.0
  0
SPLINE
  5
4C6
100
AcDbEntity
  8
RACCORDO
100
AcDbSpline
 62
253
  6
CONTINUOUS
 70
0
 71
3
 72
11
 73
7
 74
5
 42
0.0000001
 43
0.0000001
 44
0.0000000001
 12
-0.00003435
 22
0.0558651423
 32
0.0
 13
-0.0487462396
 23
0.0272895479
 33
0.0
 40
0.0
 40
0.0
 40
0.0
 40
0.0
 40
0.2453101952
 40
0.4846726154
 40
0.7309751212
 40
1.0
 40
1.0
 40
1.0
 40
1.0
 10
19.6620374269
 20
15.4774388549
 30
0.0
 10
19.6620346181
 20
15.4820069512
 30
0.0
 10
19.661033824
 20
15.4910805642
 30
0.0
 10
19.6560292081
 20
15.5039197116
 30
0.0
 10
19.6473413938
 20
15.5152037083
 30
0.0
 10
19.6394800009
 20
15.5209450946
 30
0.0
 10
19.6351086839
 20
15.5233922837
 30
0.0
 11
19.6620374269
 21
15.4774388549
 31
0.0
 11
19.660427857
 21
15.4910482962
 31
0.0
 11
19.6555263562
 21
15.5034896048
 31
0.0
 11
19.6471622942
 21
15.5144153798
 31
0.0
 11
19.6351086839
 21
15.5233922837
 31
0.0
  0
SPLINE
  5
4C7
100
AcDbEntity
  8
RACCORDO
100
AcDbSpline
 62
253
  6
CONTINUOUS
 70
0
 71
3
 72
15
 73
11
 74
9
 42
0.0000001
 43
0.0000001
 44
0.0000000001
 12
0.9801430066
 22
0.4900636375
 32
0.0
 13
1.0202931533
 23
-0.3998056574
 33
0.0
 40
0.0
 40
0.0
 40
0.0
 40
0.0
 40
0.1109318219
 40
0.2314291971
 40
0.3591584417
 40
0.4912948844
 40
0.6246941119
 40
0.7560625163
 40
0.882152807
 40
1.0
 40
1.0
 40
1.0
 40
1.0
 10
-1.8369187409
 20
24.4107221151
 30
0.0
 10
-1.8006757244
 20
24.4288433325
 30
0.0
 10
-1.7222358613
 20
24.4611044349
 30
0.0
 10
-1.5957310814
 20
24.4967117485
 30
0.0
 10
-1.4586508199
 20
24.5206835494
 30
0.0
 10
-1.3152630427
 20
24.532174952
 30
0.0
 10
-1.1700953178
 20
24.5307294007
 30
0.0
 10
-1.0278405969
 20
24.5162938174
 30
0.0
 10
-0.8932194812
 20
24.4892699292
 30
0.0
 10
-0.8080296684
 20
24.4623027096
 30
0.0
 10
-0.767950107
 20
24.4465973848
 30
0.0
 11
-1.8369187409
 21
24.4107221151
 31
0.0
 11
-1.7247713694
 21
24.4576303229
 31
0.0
 11
-1.597800577
 21
24.4938821395
 31
0.0
 11
-1.4599744939
 21
24.5182835917
 31
0.0
 11
-1.3156484046
 21
24.5299772058
 31
0.0
 11
-1.1694731938
 21
24.5284844755
 31
0.0
 11
-1.0262720494
 21
24.5137479838
 31
0.0
 11
-0.8908798536
 21
24.4861642098
 31
0.0
 11
-0.767950107
 21
24.4465973848
 31
0.0
  0
SPLINE
  5
4C8
100
AcDbEntity
  8
RACCORDO
100
AcDbSpline
 62
253
  6
CONTINUOUS
 70
0
 71
3
 72
12
 73
8
 74
6
 42
0.0000001
 43
0.0000001
 44
0.0000000001
 12
-0.3919720459
 22
0.1632993423
 32
0.0
 13
-0.3830174063
 23
-0.1833205566
 33
0.0
 40
0.0
 40
0.0
 40
0.0
 40
0.0
 40
0.1132615417
 40
0.2282471345
 40
0.4669461492
 40
0.72295398
 40
1.0
 40
1.0
 40
1.0
 40
1.0
 10
12.5092130807
 20
27.1779016568
 30
0.0
 10
12.4944146279
 20
27.1840668352
 30
0.0
 10
12.4637593334
 20
27.1945901253
 30
0.0
 10
12.3989234555
 20
27.2081253863
 30
0.0
 10
12.3118099327
 20
27.2101095417
 30
0.0
 10
12.2039094351
 20
27.1892860091
 30
0.0
 10
12.1332359919
 20
27.1617025159
 30
0.0
 10
12.0978648425
 20
27.1447731057
 30
0.0
 11
12.5092130807
 21
27.1779016568
 31
0.0
 11
12.4637355335
 21
27.193548553
 31
0.0
 11
12.4159505107
 21
27.2035773864
 31
0.0
 11
12.3146364865
 21
27.2065707653
 31
0.0
 11
12.2077397812
 21
27.1868088771
 31
0.0
 11
12.0978648425
 21
27.1447731057
 31
0.0
  0
SPLINE
  5
4C9
100
AcDbEntity
  8
RACCORDO
100
AcDbSpline
 62
253
  6
CONTINUOUS
 70
0
 71
3
 72
11
 73
7
 74
5
 42
0.0000001
 43
0.0000001
 44
0.0000000001
 12
0.0829653579
 22
0.0414856941
 32
0.0
 13
0.082966564
 23
-0.041483282
 33
0.0
 40
0.0
 40
0.0
 40
0.0
 40
0.0
 40
0.2271109519
 40
0.4646760174
 40
0.7207663845
 40
1.0
 40
1.0
 40
1.0
 40
1.0
 10
-1.9263614262
 20
24.4164024051
 30
0.0
 10
-1.9200806457
 20
24.4195430236
 30
0.0
 10
-1.9062393363
 20
24.4241488081
 30
0.0
 10
-1.8837511663
 20
24.4252732693
 30
0.0
 10
-1.8600835289
 20
24.4208270063
 30
0.0
 10
-1.8446410921
 20
24.4145832907
 30
0.0
 10
-1.8369187409
 20
24.4107221151
 30
0.0
 11
-1.9263614262
 21
24.4164024051
 31
0.0
 11
-1.9063938504
 21
24.4231181408
 31
0.0
 11
-1.8843952494
 21
24.4244083238
 31
0.0
 11
-1.8610097314
 21
24.4202360335
 31
0.0
 11
-1.8369187409
 21
24.4107221151
 31
0.0
  0
SPLINE
  5
4CA
100
AcDbEntity
  8
RACCORDO
100
AcDbSpline
 62
7
  6
CONTINUOUS
 70
0
 71
3
 72
11
 73
7
 74
5
 42
0.0000001
 43
0.0000001
 44
0.0000000001
 12
0.0789043412
 22
0.0394542114
 32
0.0
 13
0.0789051575
 23
-0.0394525788
 33
0.0
 40
0.0
 40
0.0
 40
0.0
 40
0.0
 40
0.21439309
 40
0.4477462014
 40
0.7084790342
 40
1.0
 40
1.0
 40
1.0
 40
1.0
 10
-1.9879183623
 20
24.3856240137
 30
0.0
 10
-1.9822795138
 20
24.3884435838
 30
0.0
 10
-1.9694713836
 20
24.3924069921
 30
0.0
 10
-1.9484251222
 20
24.3927217308
 30
0.0
 10
-1.9256922538
 20
24.3878072126
 30
0.0
 10
-1.9106227599
 20
24.3815376082
 30
0.0
 10
-1.9029552573
 20
24.3777038569
 30
0.0
 11
-1.9879183623
 21
24.3856240137
 31
0.0
 11
-1.9699007779
 21
24.3913760521
 31
0.0
 11
-1.9493232855
 21
24.3919711606
 31
0.0
 11
-1.9267862035
 21
24.387372373
 31
0.0
 11
-1.9029552573
 21
24.3777038569
 31
0.0
  0
SPLINE
  5
4CB
100
AcDbEntity
  8
RACCORDO
100
AcDbSpline
 62
7
  6
CONTINUOUS
 70
0
 71
3
 72
9
 73
5
 74
3
 42
0.0000001
 43
0.0000001
 44
0.0000000001
 12
-0.038605051
 22
0.0140773491
 32
0.0
 13
-0.0403731189
 23
-0.0076506857
 33
0.0
 40
0.0
 40
0.0
 40
0.0
 40
0.0
 40
0.4845215115
 40
1.0
 40
1.0
 40
1.0
 40
1.0
 10
-0.6906931535
 20
24.4578861994
 30
0.0
 10
-0.6969281461
 20
24.4601597922
 30
0.0
 10
-0.7105689801
 20
24.4629104995
 30
0.0
 10
-0.7243864924
 20
24.4618425508
 30
0.0
 10
-0.7313236505
 20
24.4605279628
 30
0.0
 11
-0.6906931535
 21
24.4578861994
 31
0.0
 11
-0.7101881783
 21
24.4619288741
 31
0.0
 11
-0.7313236505
 21
24.4605279628
 31
0.0
  0
SPLINE
  5
4CC
100
AcDbEntity
  8
RACCORDO
100
AcDbSpline
 62
7
  6
CONTINUOUS
 70
0
 71
3
 72
9
 73
5
 74
3
 42
0.0000001
 43
0.0000001
 44
0.0000000001
 12
-0.0337793886
 22
-0.0080488248
 32
0.0
 13
-0.0302423416
 23
-0.0170655046
 33
0.0
 40
0.0
 40
0.0
 40
0.0
 40
0.0
 40
0.2373472015
 40
1.0
 40
1.0
 40
1.0
 40
1.0
 10
-0.7358090605
 20
24.4595680927
 30
0.0
 10
-0.7384815417
 20
24.458931304
 30
0.0
 10
-0.7496314796
 20
24.4557898458
 30
0.0
 10
-0.7602618256
 20
24.4509356634
 30
0.0
 10
-0.767949961
 20
24.4465973118
 30
0.0
 11
-0.7358090605
 21
24.4595680927
 31
0.0
 11
-0.7437450842
 21
24.4573435873
 31
0.0
 11
-0.767949961
 21
24.4465973118
 31
0.0
  0
LINE
  5
4CD
100
AcDbEntity
  8
RACCORDO
100
AcDbLine
 62
253
  6
CONTINUOUS
 10
21.1900269952
 20
16.6427680832
 11
20.8959545967
 21
16.4551170048
  0
LINE
  5
4CE
100
AcDbEntity
  8
RACCORDO
100
AcDbLine
 62
253
  6
CONTINUOUS
 10
20.8959545967
 20
16.4551170048
 11
20.8889529751
 21
16.4506556419
  0
SPLINE
  5
4CF
100
AcDbEntity
  8
RACCORDO
100
AcDbSpline
 62
253
  6
CONTINUOUS
 70
0
 71
3
 72
9
 73
5
 74
3
 42
0.0000001
 43
0.0000001
 44
0.0000000001
 12
-0.2190949752
 22
-0.2532156231
 32
0.0
 13
-0.2808070039
 23
-0.1823956867
 33
0.0
 40
0.0
 40
0.0
 40
0.0
 40
0.0
 40
0.5056150331
 40
1.0
 40
1.0
 40
1.0
 40
1.0
 10
21.1900269952
 20
16.6427680832
 30
0.0
 10
21.1531010908
 20
16.6000915414
 30
0.0
 10
21.0743997612
 20
16.5203926246
 30
0.0
 10
20.9851734923
 20
16.4526035432
 30
0.0
 10
20.9388979052
 20
16.422545648
 30
0.0
 11
21.1900269952
 21
16.6427680832
 31
0.0
 11
21.0708252755
 21
16.5225423089
 31
0.0
 11
20.9388979052
 21
16.422545648
 31
0.0
  0
SPLINE
  5
4D0
100
AcDbEntity
  8
RACCORDO
100
AcDbSpline
 62
253
  6
CONTINUOUS
 70
0
 71
3
 72
12
 73
8
 74
6
 42
0.0000001
 43
0.0000001
 44
0.0000000001
 12
0.2685772639
 22
0.929780267
 32
0.0
 13
-0.418229494
 23
0.8727595213
 33
0.0
 40
0.0
 40
0.0
 40
0.0
 40
0.0
 40
0.1206887359
 40
0.2431826197
 40
0.4918047444
 40
0.7441949472
 40
1.0
 40
1.0
 40
1.0
 40
1.0
 10
19.7485623379
 20
19.1460635783
 30
0.0
 10
19.7593670881
 20
19.1834682467
 30
0.0
 10
19.7770471307
 20
19.2600731986
 30
0.0
 10
19.797691277
 20
19.4175576439
 30
0.0
 10
19.7968978214
 20
19.6198188467
 30
0.0
 10
19.7545618764
 20
19.861374819
 30
0.0
 10
19.6977598193
 20
20.016362803
 30
0.0
 10
19.66209808
 20
20.0907815681
 30
0.0
 11
19.7485623379
 21
19.1460635783
 31
0.0
 11
19.7750754878
 21
19.259816466
 31
0.0
 11
19.7906482654
 21
19.3773380189
 31
0.0
 11
19.7901580291
 21
19.6179525028
 31
0.0
 11
19.747754437
 21
19.858505442
 31
0.0
 11
19.66209808
 21
20.0907815681
 31
0.0
  0
SPLINE
  5
4D1
100
AcDbEntity
  8
RACCORDO
100
AcDbSpline
 62
253
  6
CONTINUOUS
 70
0
 71
3
 72
12
 73
8
 74
6
 42
0.0000001
 43
0.0000001
 44
0.0000000001
 12
-0.149658779
 22
0.0861885027
 32
0.0
 13
-0.0355030795
 23
0.1690140215
 33
0.0
 40
0.0
 40
0.0
 40
0.0
 40
0.0
 40
0.2994557864
 40
0.4375546653
 40
0.5671081891
 40
0.7996366922
 40
1.0
 40
1.0
 40
1.0
 40
1.0
 10
19.748562327
 20
19.1460645697
 30
0.0
 10
19.7336235979
 20
19.154667785
 30
0.0
 10
19.7124785686
 20
19.1685483071
 30
0.0
 10
19.6873994658
 20
19.1895007758
 30
0.0
 10
19.6669410416
 20
19.2098015249
 30
0.0
 10
19.647158072
 20
19.2357361029
 30
0.0
 10
19.6374799839
 20
19.2592018717
 30
0.0
 10
19.6351088124
 20
19.2704899412
 30
0.0
 11
19.748562327
 21
19.1460645697
 31
0.0
 11
19.7055217365
 21
19.1747374844
 31
0.0
 11
19.6872581819
 21
19.190075905
 31
0.0
 11
19.6714184897
 21
19.2058781413
 31
0.0
 11
19.6476275176
 21
19.2382305438
 31
0.0
 11
19.6351088124
 21
19.2704899412
 31
0.0
  0
SPLINE
  5
4D2
100
AcDbEntity
  8
RACCORDO
100
AcDbSpline
 62
253
  6
CONTINUOUS
 70
0
 71
3
 72
11
 73
7
 74
5
 42
0.0000001
 43
0.0000001
 44
0.0000000001
 12
-0.1889724053
 22
-0.1470907027
 32
0.0
 13
-0.0264976715
 23
-0.2380002483
 33
0.0
 40
0.0
 40
0.0
 40
0.0
 40
0.0
 40
0.2485721709
 40
0.4981828103
 40
0.7487393382
 40
1.0
 40
1.0
 40
1.0
 40
1.0
 10
19.7485626872
 20
15.7275385142
 30
0.0
 10
19.7329049269
 20
15.7153509624
 30
0.0
 10
19.703927843
 20
15.6876518239
 30
0.0
 10
19.66963615
 20
15.6382304969
 30
0.0
 10
19.6457123441
 20
15.5828097321
 30
0.0
 10
19.637327979
 20
15.5433256479
 30
0.0
 10
19.6351087049
 20
15.5233922812
 30
0.0
 11
19.7485626872
 21
15.7275385142
 31
0.0
 11
19.7055220042
 21
15.6864189751
 31
0.0
 11
19.6714186383
 21
15.6373277819
 31
0.0
 11
19.6476275363
 21
15.5822451266
 31
0.0
 11
19.6351087049
 21
15.5233922812
 31
0.0
  0
SPLINE
  5
4D3
100
AcDbEntity
  8
RACCORDO
100
AcDbSpline
 62
253
  6
CONTINUOUS
 70
0
 71
3
 72
14
 73
10
 74
8
 42
0.0000001
 43
0.0000001
 44
0.0000000001
 12
0.8673464472
 22
1.9828041286
 32
0.0
 13
-0.7132637484
 23
2.0432955971
 33
0.0
 40
0.0
 40
0.0
 40
0.0
 40
0.0
 40
0.2163638906
 40
0.3340190773
 40
0.4576612786
 40
0.5868232968
 40
0.7208378703
 40
0.8588789459
 40
1.0
 40
1.0
 40
1.0
 40
1.0
 10
21.2995271074
 20
17.126801686
 30
0.0
 10
21.362081258
 20
17.2698040912
 30
0.0
 10
21.4274142998
 20
17.5049312356
 30
0.0
 10
21.4651402421
 20
17.8331279516
 30
0.0
 10
21.4698504273
 20
18.1007993987
 30
0.0
 10
21.4500702161
 20
18.3794606669
 30
0.0
 10
21.406092176
 20
18.6658517524
 30
0.0
 10
21.3384644784
 20
18.9564124418
 30
0.0
 10
21.2786672202
 20
19.1489284512
 30
0.0
 10
21.2451150428
 20
19.245045794
 30
0.0
 11
21.2995271074
 21
17.126801686
 31
0.0
 11
21.4308611751
 21
17.5762633079
 31
0.0
 11
21.4606471643
 21
17.8291456184
 31
0.0
 11
21.4659191522
 21
18.0966812863
 31
0.0
 11
21.446611558
 21
18.3755473406
 31
0.0
 11
21.4029643296
 21
18.6622799057
 31
0.0
 11
21.3355198002
 21
18.9533171365
 31
0.0
 11
21.2451150428
 21
19.245045794
 31
0.0
  0
SPLINE
  5
4D4
100
AcDbEntity
  8
RACCORDO
100
AcDbSpline
 62
7
  6
CONTINUOUS
 70
0
 71
3
 72
10
 73
6
 74
4
 42
0.0000001
 43
0.0000001
 44
0.0000000001
 12
0.0851883904
 22
0.0445591271
 32
0.0
 13
0.0457528184
 23
0.0845532807
 33
0.0
 40
0.0
 40
0.0
 40
0.0
 40
0.0
 40
0.5245740078
 40
0.7673423928
 40
1.0
 40
1.0
 40
1.0
 40
1.0
 10
21.2487526349
 20
17.0164558117
 30
0.0
 10
21.2636485067
 20
17.0242473317
 30
0.0
 10
21.2843555809
 20
17.0382444741
 30
0.0
 10
21.3062248611
 20
17.0618089417
 30
0.0
 10
21.3146833717
 20
17.0745884415
 30
0.0
 10
21.3182316188
 20
17.0811457628
 30
0.0
 11
21.2487526349
 21
17.0164558117
 31
0.0
 11
21.2901255151
 21
17.0452939428
 31
0.0
 11
21.3059404638
 21
17.0624582217
 31
0.0
 11
21.3182316188
 21
17.0811457628
 31
0.0
  0
SPLINE
  5
4D5
100
AcDbEntity
  8
RACCORDO
100
AcDbSpline
 62
253
  6
CONTINUOUS
 70
0
 71
3
 72
9
 73
5
 74
3
 42
0.0000001
 43
0.0000001
 44
0.0000000001
 12
0.0059978805
 22
-0.129957947
 32
0.0
 13
-0.0361524266
 23
-0.1249721753
 33
0.0
 40
0.0
 40
0.0
 40
0.0
 40
0.0
 40
0.5218897972
 40
1.0
 40
1.0
 40
1.0
 40
1.0
 10
21.2487526349
 20
16.8600410034
 30
0.0
 10
21.2497960458
 20
16.8374330945
 30
0.0
 10
21.248958768
 20
16.7939096181
 30
0.0
 10
21.2411259226
 20
16.7509849538
 30
0.0
 10
21.2353643079
 20
16.7310681297
 30
0.0
 11
21.2487526349
 21
16.8600410034
 31
0.0
 11
21.2470167368
 21
16.7921672758
 31
0.0
 11
21.2353643079
 21
16.7310681297
 31
0.0
  0
SPLINE
  5
4D6
100
AcDbEntity
  8
RACCORDO
100
AcDbSpline
 62
253
  6
CONTINUOUS
 70
0
 71
3
 72
9
 73
5
 74
3
 42
0.0000001
 43
0.0000001
 44
0.0000000001
 12
-0.025142941
 22
-0.0869144434
 32
0.0
 13
-0.0548395682
 23
-0.0719646421
 33
0.0
 40
0.0
 40
0.0
 40
0.0
 40
0.0
 40
0.517367182
 40
1.0
 40
1.0
 40
1.0
 40
1.0
 10
21.2353643079
 20
16.7310681297
 30
0.0
 10
21.2310282638
 20
16.7160792362
 30
0.0
 10
21.2204107654
 20
16.6876803561
 30
0.0
 10
21.2047040042
 20
16.6616656772
 30
0.0
 10
21.1958815457
 20
16.6500881779
 30
0.0
 11
21.2353643079
 21
16.7310681297
 31
0.0
 11
21.2186797365
 21
16.6873321153
 31
0.0
 11
21.1958815457
 21
16.6500881779
 31
0.0
  0
SPLINE
  5
4D7
100
AcDbEntity
  8
RACCORDO
100
AcDbSpline
 62
253
  6
CONTINUOUS
 70
0
 71
3
 72
12
 73
8
 74
6
 42
0.0000001
 43
0.0000001
 44
0.0000000001
 12
-0.0105352866
 22
-0.1341732139
 32
0.0
 13
-0.1195162769
 23
-0.0618813634
 33
0.0
 40
0.0
 40
0.0
 40
0.0
 40
0.0
 40
0.1025713023
 40
0.2086145775
 40
0.4383308387
 40
0.700835563
 40
1.0
 40
1.0
 40
1.0
 40
1.0
 10
21.3327196897
 20
16.9583558649
 30
0.0
 10
21.3323594836
 20
16.9537684245
 30
0.0
 10
21.3307625708
 20
16.9444861076
 30
0.0
 10
21.324081915
 20
16.9259018218
 30
0.0
 10
21.3088951418
 20
16.9032729718
 30
0.0
 10
21.2823118738
 20
16.8793792583
 30
0.0
 10
21.2606709748
 20
16.8662119045
 30
0.0
 10
21.2487526349
 20
16.8600410034
 30
0.0
 11
21.3327196897
 21
16.9583558649
 31
0.0
 11
21.3304065562
 21
16.9447463595
 31
0.0
 11
21.3256271038
 21
16.9312984713
 31
0.0
 11
21.3088477189
 21
16.9053313631
 31
0.0
 11
21.2829373804
 21
16.8813141035
 31
0.0
 11
21.2487526349
 21
16.8600410034
 31
0.0
  0
SPLINE
  5
4D8
100
AcDbEntity
  8
RACCORDO
100
AcDbSpline
 62
253
  6
CONTINUOUS
 70
0
 71
3
 72
13
 73
9
 74
7
 42
0.0000001
 43
0.0000001
 44
0.0000000001
 12
-0.3457764418
 22
-0.1367647386
 32
0.0
 13
-0.3718401721
 23
0.0009098593
 33
0.0
 40
0.0
 40
0.0
 40
0.0
 40
0.0
 40
0.0991461335
 40
0.2059679956
 40
0.3203911299
 40
0.4422446837
 40
0.7073998682
 40
1.0
 40
1.0
 40
1.0
 40
1.0
 10
19.7485617522
 20
15.7275381388
 30
0.0
 10
19.7371342864
 20
15.7230182405
 30
0.0
 10
19.7128886362
 20
15.7148905237
 30
0.0
 10
19.6743343411
 20
15.7052594398
 30
0.0
 10
19.6324970795
 20
15.6975115076
 30
0.0
 10
19.5708800033
 20
15.6892355919
 30
0.0
 10
19.4867904055
 20
15.683162086
 30
0.0
 10
19.4176438743
 20
15.6819967432
 30
0.0
 10
19.3813770465
 20
15.6820854848
 30
0.0
 11
19.7485617522
 21
15.7275381388
 31
0.0
 11
19.7136671735
 21
15.7156420693
 31
0.0
 11
19.6751662925
 21
15.7058736299
 31
0.0
 11
19.6333509005
 21
15.6980160812
 31
0.0
 11
19.5884566146
 21
15.6918910755
 31
0.0
 11
19.4901559128
 21
15.6842704999
 31
0.0
 11
19.3813770465
 21
15.6820854848
 31
0.0
  0
SPLINE
  5
4D9
100
AcDbEntity
  8
RACCORDO
100
AcDbSpline
 62
253
  6
CONTINUOUS
 70
0
 71
3
 72
9
 73
5
 74
3
 42
0.0000001
 43
0.0000001
 44
0.0000000001
 12
0.1205764709
 22
-0.2810044627
 32
0.0
 13
-0.013455708
 23
-0.3054850853
 33
0.0
 40
0.0
 40
0.0
 40
0.0
 40
0.0
 40
0.5153324678
 40
1.0
 40
1.0
 40
1.0
 40
1.0
 10
21.1900271835
 20
19.7015999331
 30
0.0
 10
21.210739507
 20
19.6533296921
 30
0.0
 10
21.2416106922
 20
19.5553714515
 30
0.0
 10
21.2509264832
 20
19.4527635221
 30
0.0
 10
21.2487526349
 20
19.4034106213
 30
0.0
 11
21.1900271835
 21
19.7015999331
 31
0.0
 11
21.2368329418
 21
19.5511327619
 31
0.0
 11
21.2487526349
 21
19.4034106213
 31
0.0
  0
SPLINE
  5
4DA
100
AcDbEntity
  8
RACCORDO
100
AcDbSpline
 62
253
  6
CONTINUOUS
 70
0
 71
3
 72
11
 73
7
 74
5
 42
0.0000001
 43
0.0000001
 44
0.0000000001
 12
0.4308674018
 22
0.4472400442
 32
0.0
 13
0.2847488521
 23
0.55189534
 33
0.0
 40
0.0
 40
0.0
 40
0.0
 40
0.0
 40
0.2611192357
 40
0.5158123981
 40
0.7627524983
 40
1.0
 40
1.0
 40
1.0
 40
1.0
 10
19.3813770465
 20
18.6476422222
 30
0.0
 10
19.4188796353
 20
18.6865698817
 30
0.0
 10
19.4906001029
 20
18.7657860982
 30
0.0
 10
19.5889378636
 20
18.8894645136
 30
0.0
 10
19.6757380846
 20
19.0155523808
 30
0.0
 10
19.7260433599
 20
19.1024181947
 30
0.0
 10
19.7485620111
 20
19.1460634582
 30
0.0
 11
19.3813770465
 21
18.6476422222
 31
0.0
 11
19.4901560369
 21
18.7679060691
 31
0.0
 11
19.5884568249
 21
18.8918207779
 31
0.0
 11
19.6751665594
 21
19.018309414
 31
0.0
 11
19.7485620111
 21
19.1460634582
 31
0.0
  0
SPLINE
  5
4DB
100
AcDbEntity
  8
RACCORDO
100
AcDbSpline
 62
253
  6
CONTINUOUS
 70
0
 71
3
 72
9
 73
5
 74
3
 42
0.0000001
 43
0.0000001
 44
0.0000000001
 12
-0.0288591928
 22
-0.032297376
 32
0.0
 13
-0.0357729859
 23
-0.0244185786
 33
0.0
 40
0.0
 40
0.0
 40
0.0
 40
0.0
 40
0.2491013827
 40
1.0
 40
1.0
 40
1.0
 40
1.0
 10
21.2301090442
 20
16.6761551666
 30
0.0
 10
21.2277127559
 20
16.6734733929
 30
0.0
 10
21.2177662408
 20
16.6630032747
 30
0.0
 10
21.206528526
 20
16.6537666703
 30
0.0
 10
21.1975745641
 20
16.6476547113
 30
0.0
 11
21.2301090442
 21
16.6761551666
 31
0.0
 11
21.2226772537
 21
16.6683336924
 31
0.0
 11
21.1975745641
 21
16.6476547113
 31
0.0
  0
SPLINE
  5
4DC
100
AcDbEntity
  8
RACCORDO
100
AcDbSpline
 62
253
  6
CONTINUOUS
 70
0
 71
3
 72
12
 73
8
 74
6
 42
0.0000001
 43
0.0000001
 44
0.0000000001
 12
-0.374136593
 22
0.1935707845
 32
0.0
 13
-0.3941392644
 23
-0.1486676799
 33
0.0
 40
0.0
 40
0.0
 40
0.0
 40
0.0
 40
0.2771491672
 40
0.5332016441
 40
0.7718746877
 40
0.8868124425
 40
1.0
 40
1.0
 40
1.0
 40
1.0
 10
12.0978648425
 20
27.1447731057
 30
0.0
 10
12.0633009608
 20
27.1626557663
 30
0.0
 10
11.9940684742
 20
27.1922144217
 30
0.0
 10
11.8877363356
 20
27.2163089857
 30
0.0
 10
11.8013086763
 20
27.2171949327
 30
0.0
 10
11.736595857
 20
27.2059386196
 30
0.0
 10
11.7058650513
 20
27.196541759
 30
0.0
 10
11.6909944978
 20
27.1909326485
 30
0.0
 11
12.0978648425
 21
27.1447731057
 31
0.0
 11
11.9901889566
 21
27.1898947946
 31
0.0
 11
11.8848114634
 21
27.2129072626
 31
0.0
 11
11.7842721036
 21
27.2132560272
 31
0.0
 11
11.7365802898
 21
27.2049074442
 31
0.0
 11
11.6909944978
 21
27.1909326485
 31
0.0
  0
SPLINE
  5
4DD
100
AcDbEntity
  8
RACCORDO
100
AcDbSpline
 62
253
  6
CONTINUOUS
 70
0
 71
3
 72
9
 73
5
 74
3
 42
0.0000001
 43
0.0000001
 44
0.0000000001
 12
-0.2177712776
 22
0.1126705001
 32
0.0
 13
-0.2445917997
 23
0.0171412507
 33
0.0
 40
0.0
 40
0.0
 40
0.0
 40
0.0
 40
0.5216441079
 40
1.0
 40
1.0
 40
1.0
 40
1.0
 10
6.1795457753
 20
24.4114972341
 30
0.0
 10
6.1416794073
 20
24.4310885349
 30
0.0
 10
6.0658479221
 20
24.4628769817
 30
0.0
 10
5.9848852413
 20
24.4787915758
 30
0.0
 10
5.9458845984
 20
24.4815247819
 30
0.0
 11
6.1795457753
 21
24.4114972341
 31
0.0
 11
6.0611690496
 21
24.4599335719
 31
0.0
 11
5.9458845984
 21
24.4815247819
 31
0.0
  0
SPLINE
  5
4DE
100
AcDbEntity
  8
RACCORDO
100
AcDbSpline
 62
253
  6
CONTINUOUS
 70
0
 71
3
 72
17
 73
13
 74
11
 42
0.0000001
 43
0.0000001
 44
0.0000000001
 12
0.0424844657
 22
-0.0915151595
 32
0.0
 13
-0.0900412165
 23
-0.0455250873
 33
0.0
 40
0.0
 40
0.0
 40
0.0
 40
0.0
 40
0.0071975865
 40
0.0208540641
 40
0.0421680819
 40
0.0713653033
 40
0.1534024964
 40
0.2664166582
 40
0.4092742188
 40
0.5804446189
 40
0.7780809023
 40
1.0
 40
1.0
 40
1.0
 40
1.0
 10
21.2772446481
 20
19.7513804946
 30
0.0
 10
21.2773465766
 20
19.7511609319
 30
0.0
 10
21.2770484886
 20
19.7503931159
 30
0.0
 10
21.276082034
 20
19.7494219416
 30
0.0
 10
21.2744241586
 20
19.7479977809
 30
0.0
 10
21.2708125251
 20
19.7454037182
 30
0.0
 10
21.2644300957
 20
19.741359648
 30
0.0
 10
21.254617875
 20
19.7356338901
 30
0.0
 10
21.2420545719
 20
19.7286685231
 30
0.0
 10
21.2268806675
 20
19.720552598
 30
0.0
 10
21.2092589115
 20
19.7113764167
 30
0.0
 10
21.1966877714
 20
19.7049674983
 30
0.0
 10
21.1900271495
 20
19.7015998695
 30
0.0
 11
21.2772446481
 21
19.7513804946
 31
0.0
 11
21.2771193857
 21
19.7506651734
 31
0.0
 11
21.2762419788
 21
19.7496027647
 31
0.0
 11
21.274615143
 21
19.7481963402
 31
0.0
 11
21.2722429883
 21
19.7464496101
 31
0.0
 11
21.2652918465
 21
19.7419558645
 31
0.0
 11
21.2554654369
 21
19.7361712216
 31
0.0
 11
21.2428721393
 21
19.7291595001
 31
0.0
 11
21.2276516598
 21
19.7209984586
 31
0.0
 11
21.2099709659
 21
19.7117776615
 31
0.0
 11
21.1900271495
 21
19.7015998695
 31
0.0
  0
SPLINE
  5
4DF
100
AcDbEntity
  8
ASSI
100
AcDbSpline
 62
7
  6
CONTINUOUS
 70
0
 71
3
 72
9
 73
5
 74
3
 42
0.0000001
 43
0.0000001
 44
0.0000000001
 12
0.0795232672
 22
0.0420532136
 32
0.0
 13
0.0728375583
 23
0.0527931141
 33
0.0
 40
0.0
 40
0.0
 40
0.0
 40
0.0
 40
0.2472563057
 40
1.0
 40
1.0
 40
1.0
 40
1.0
 10
18.6243289948
 20
-9.7525799851
 30
0.0
 10
18.6308832046
 20
-9.749114011
 30
0.0
 10
18.657134212
 20
-9.7346145927
 30
0.0
 10
18.6823336355
 20
-9.7182228706
 30
0.0
 10
18.7006096397
 20
-9.7049763094
 30
0.0
 11
18.6243289948
 21
-9.7525799851
 31
0.0
 11
18.6438003695
 21
-9.7418281785
 31
0.0
 11
18.7006096397
 21
-9.7049763094
 31
0.0
  0
SPLINE
  5
4E0
100
AcDbEntity
  8
ASSI
100
AcDbSpline
 62
7
  6
CONTINUOUS
 70
0
 71
3
 72
11
 73
7
 74
5
 42
0.0000001
 43
0.0000001
 44
0.0000000001
 12
0.6468978523
 22
-2.0106160707
 32
0.0
 13
-0.9124581469
 23
-1.9048553606
 33
0.0
 40
0.0
 40
0.0
 40
0.0
 40
0.0
 40
0.2738508251
 40
0.5334724862
 40
0.7754835815
 40
1.0
 40
1.0
 40
1.0
 40
1.0
 10
21.3726221407
 20
19.221285592
 30
0.0
 10
21.4316733109
 20
19.037749302
 30
0.0
 10
21.5222688056
 20
18.6716458451
 30
0.0
 10
21.5705544888
 20
18.1253574583
 30
0.0
 10
21.5244576542
 20
17.6132057038
 30
0.0
 10
21.4236007903
 20
17.2965120744
 30
0.0
 10
21.3553135119
 20
17.1539549733
 30
0.0
 11
21.3726221407
 21
19.221285592
 31
0.0
 11
21.5095651323
 21
18.6593246405
 31
0.0
 11
21.5547547088
 21
18.1128375614
 31
0.0
 11
21.5041759801
 21
17.6041894465
 31
0.0
 11
21.3553135119
 21
17.1539549733
 31
0.0
  0
SPLINE
  5
4E1
100
AcDbEntity
  8
ASSI
100
AcDbSpline
 62
7
  6
CONTINUOUS
 70
0
 71
3
 72
11
 73
7
 74
5
 42
0.0000001
 43
0.0000001
 44
0.0000000001
 12
2.0208364032
 22
-1.0576963668
 32
0.0
 13
1.0434127761
 23
-2.0282482963
 33
0.0
 40
0.0
 40
0.0
 40
0.0
 40
0.0
 40
0.2302369673
 40
0.4762557897
 40
0.7345930651
 40
1.0
 40
1.0
 40
1.0
 40
1.0
 10
19.6622137784
 20
21.5688452439
 30
0.0
 10
19.8173041933
 20
21.4876716427
 30
0.0
 10
20.1211084385
 20
21.286196049
 30
0.0
 10
20.530291418
 20
20.903061002
 30
0.0
 10
20.8963510767
 20
20.4440655823
 30
0.0
 10
21.1015923429
 20
20.101271354
 30
0.0
 10
21.1939020052
 20
19.9218342995
 30
0.0
 11
19.6622137784
 21
21.5688452439
 31
0.0
 11
20.1020387567
 21
21.281906746
 31
0.0
 11
20.5136528142
 21
20.9005189892
 31
0.0
 11
20.8823267654
 21
20.4408616999
 31
0.0
 11
21.1939020052
 21
19.9218342995
 31
0.0
  0
SPLINE
  5
4E2
100
AcDbEntity
  8
ASSI
100
AcDbSpline
 62
7
  6
CONTINUOUS
 70
0
 71
3
 72
9
 73
5
 74
3
 42
0.0000001
 43
0.0000001
 44
0.0000000001
 12
0.0791608445
 22
-0.0395890864
 32
0.0
 13
0.0443941078
 23
-0.0765695648
 33
0.0
 40
0.0
 40
0.0
 40
0.0
 40
0.0
 40
0.5021590845
 40
1.0
 40
1.0
 40
1.0
 40
1.0
 10
18.9932398263
 20
23.9368853426
 30
0.0
 10
19.006490272
 20
23.9302586695
 30
0.0
 10
19.0312279401
 20
23.9132899031
 30
0.0
 10
19.0496521203
 20
23.8896302666
 30
0.0
 10
19.057019188
 20
23.8769237792
 30
0.0
 11
18.9932398263
 21
23.9368853426
 31
0.0
 11
19.0297427288
 21
23.9115294342
 31
0.0
 11
19.057019188
 21
23.8769237792
 31
0.0
  0
SPLINE
  5
4E3
100
AcDbEntity
  8
ASSI
100
AcDbSpline
 62
253
  6
CONTINUOUS
 70
0
 71
3
 72
9
 73
5
 74
3
 42
0.0000001
 43
0.0000001
 44
0.0000000001
 12
0.2664156726
 22
0.9222971134
 32
0.0
 13
-0.4148634562
 23
0.8657352879
 33
0.0
 40
0.0
 40
0.0
 40
0.0
 40
0.0
 40
0.2448659816
 40
1.0
 40
1.0
 40
1.0
 40
1.0
 10
19.7485623379
 20
19.1460635783
 30
0.0
 10
19.7703077163
 20
19.2213433076
 30
0.0
 10
19.8259234154
 20
19.5375294346
 30
0.0
 10
19.7665239162
 20
19.8728661792
 30
0.0
 10
19.66209808
 20
20.0907815681
 30
0.0
 11
19.7485623379
 21
19.1460635783
 31
0.0
 11
19.7906482654
 21
19.3773380189
 31
0.0
 11
19.66209808
 21
20.0907815681
 31
0.0
  0
SPLINE
  5
4E4
100
AcDbEntity
  8
ASSI
100
AcDbSpline
 62
253
  6
CONTINUOUS
 70
0
 71
3
 72
14
 73
10
 74
8
 42
0.0000001
 43
0.0000001
 44
0.0000000001
 12
0.0424561285
 22
-0.0914541188
 32
0.0
 13
-0.0899811589
 23
-0.045494722
 33
0.0
 40
0.0
 40
0.0
 40
0.0
 40
0.0
 40
0.0202422722
 40
0.0707495779
 40
0.1528415264
 40
0.2659311191
 40
0.4088840295
 40
0.5801686766
 40
1.0
 40
1.0
 40
1.0
 40
1.0
 10
21.2772446481
 20
19.7513804946
 30
0.0
 10
21.2775311176
 20
19.7507634149
 30
0.0
 10
21.2751753954
 20
19.7486040615
 30
0.0
 10
21.2716396275
 20
19.7459179748
 30
0.0
 10
21.2643301929
 20
19.741300767
 30
0.0
 10
21.2546567688
 20
19.7356568528
 30
0.0
 10
21.2420410026
 20
19.7286603083
 30
0.0
 10
21.2203097745
 20
19.7170402453
 30
0.0
 10
21.2026194526
 20
19.7079665726
 30
0.0
 10
21.1900271495
 20
19.7015998695
 30
0.0
 11
21.2772446481
 21
19.7513804946
 31
0.0
 11
21.2762419788
 21
19.7496027647
 31
0.0
 11
21.2722429883
 21
19.7464496101
 31
0.0
 11
21.2652918465
 21
19.7419558645
 31
0.0
 11
21.2554654369
 21
19.7361712216
 31
0.0
 11
21.2428721393
 21
19.7291595001
 31
0.0
 11
21.2276516598
 21
19.7209984586
 31
0.0
 11
21.1900271495
 21
19.7015998695
 31
0.0
  0
SPLINE
  5
4E5
100
AcDbEntity
  8
ASSI
100
AcDbSpline
 62
253
  6
CONTINUOUS
 70
0
 71
3
 72
10
 73
6
 74
4
 42
0.0000001
 43
0.0000001
 44
0.0000000001
 12
0.0043550819
 22
1.5046823338
 32
0.0
 13
-0.7583998645
 23
1.2995836017
 33
0.0
 40
0.0
 40
0.0
 40
0.0
 40
0.0
 40
0.2344750887
 40
0.482987959
 40
1.0
 40
1.0
 40
1.0
 40
1.0
 10
19.3813770465
 20
21.8584966193
 30
0.0
 10
19.3817174325
 20
21.9761001272
 30
0.0
 10
19.3622492437
 20
22.2187201099
 30
0.0
 10
19.2528867696
 20
22.709185803
 30
0.0
 10
19.0979271914
 20
23.0661634039
 30
0.0
 10
18.9672265708
 20
23.290130194
 30
0.0
 11
19.3813770465
 21
21.8584966193
 31
0.0
 11
19.3549545772
 21
22.2103178261
 31
0.0
 11
19.274742883
 21
22.5755480116
 31
0.0
 11
18.9672265708
 21
23.290130194
 31
0.0
  0
SPLINE
  5
4E6
100
AcDbEntity
  8
ASSI
100
AcDbSpline
 62
253
  6
CONTINUOUS
 70
0
 71
3
 72
11
 73
7
 74
5
 42
0.0000001
 43
0.0000001
 44
0.0000000001
 12
-0.0001190569
 22
-0.1402329443
 32
0.0
 13
-0.1245307927
 23
-0.0644777054
 33
0.0
 40
0.0
 40
0.0
 40
0.0
 40
0.0
 40
0.2077573152
 40
0.4361818004
 40
0.6986214785
 40
1.0
 40
1.0
 40
1.0
 40
1.0
 10
21.3329506578
 20
19.5075467858
 30
0.0
 10
21.3329424128
 20
19.4978353125
 30
0.0
 10
21.3287531092
 20
19.4772968094
 30
0.0
 10
21.3112364611
 20
19.4491449377
 30
0.0
 10
21.2838671848
 20
19.423732867
 30
0.0
 10
21.261262937
 20
19.4098880198
 30
0.0
 10
21.2487526349
 20
19.4034106213
 30
0.0
 11
21.3329506578
 21
19.5075467858
 31
0.0
 11
21.3274208786
 21
19.4789419509
 31
0.0
 11
21.3110823263
 21
19.4513894129
 31
0.0
 11
21.2845350507
 21
19.4259005715
 31
0.0
 11
21.2487526349
 21
19.4034106213
 31
0.0
  0
SPLINE
  5
4E7
100
AcDbEntity
  8
ASSI
100
AcDbSpline
 62
7
  6
CONTINUOUS
 70
0
 71
3
 72
9
 73
5
 74
3
 42
0.0000001
 43
0.0000001
 44
0.0000000001
 12
0.0000042087
 22
-0.0456667299
 32
0.0
 13
-0.0312580849
 23
-0.0332923769
 33
0.0
 40
0.0
 40
0.0
 40
0.0
 40
0.0
 40
0.2138922416
 40
1.0
 40
1.0
 40
1.0
 40
1.0
 10
21.3329506559
 20
19.3325123893
 30
0.0
 10
21.332950956
 20
19.3292564695
 30
0.0
 10
21.3308417109
 20
19.3139961935
 30
0.0
 10
21.3213396546
 20
19.3008195481
 30
0.0
 10
21.3131489135
 20
19.2920957495
 30
0.0
 11
21.3329506559
 21
19.3325123893
 31
0.0
 11
21.3317104333
 21
19.3228236861
 31
0.0
 11
21.3131489135
 21
19.2920957495
 31
0.0
  0
SPLINE
  5
4E8
100
AcDbEntity
  8
ASSI
100
AcDbSpline
 62
7
  6
CONTINUOUS
 70
0
 71
3
 72
9
 73
5
 74
3
 42
0.0000001
 43
0.0000001
 44
0.0000000001
 12
-0.0350437131
 22
-0.0373243757
 32
0.0
 13
-0.0435750148
 23
-0.026877294
 33
0.0
 40
0.0
 40
0.0
 40
0.0
 40
0.0
 40
0.2216206499
 40
1.0
 40
1.0
 40
1.0
 40
1.0
 10
21.3131489135
 20
19.2920957495
 30
0.0
 10
21.3105601101
 20
19.2893384654
 30
0.0
 10
21.2982979277
 20
19.2774417585
 30
0.0
 10
21.2842364973
 20
19.2675292087
 30
0.0
 10
21.2729305334
 20
19.2605556319
 30
0.0
 11
21.3131489135
 21
19.2920957495
 31
0.0
 11
21.3050366331
 21
19.2841628069
 31
0.0
 11
21.2729305334
 21
19.2605556319
 31
0.0
  0
SPLINE
  5
4E9
100
AcDbEntity
  8
ASSI
100
AcDbSpline
 62
7
  6
CONTINUOUS
 70
0
 71
3
 72
9
 73
5
 74
3
 42
0.0000001
 43
0.0000001
 44
0.0000000001
 12
-0.0235970875
 22
-0.0145548053
 32
0.0
 13
-0.0246735818
 23
-0.012644337
 33
0.0
 40
0.0
 40
0.0
 40
0.0
 40
0.0
 40
0.2403713988
 40
1.0
 40
1.0
 40
1.0
 40
1.0
 10
21.2729305334
 20
19.2605556319
 30
0.0
 10
21.2710398451
 20
19.2593894456
 30
0.0
 10
21.2631202489
 20
19.2546254135
 30
0.0
 10
21.2550002211
 20
19.2501976484
 30
0.0
 10
21.2487526349
 20
19.2469959817
 30
0.0
 11
21.2729305334
 21
19.2605556319
 31
0.0
 11
21.2672209757
 21
19.2571186004
 31
0.0
 11
21.2487526349
 21
19.2469959817
 31
0.0
  0
SPLINE
  5
4EA
100
AcDbEntity
  8
ASSI
100
AcDbSpline
 62
253
  6
CONTINUOUS
 70
0
 71
3
 72
11
 73
7
 74
5
 42
0.0000001
 43
0.0000001
 44
0.0000000001
 12
0.4151656596
 22
0.2149583129
 32
0.0
 13
0.0002534801
 23
0.4675142104
 33
0.0
 40
0.0
 40
0.0
 40
0.0
 40
0.0
 40
0.3013827608
 40
0.5638236405
 40
0.7922427922
 40
1.0
 40
1.0
 40
1.0
 40
1.0
 10
19.3813770465
 20
21.8584966193
 30
0.0
 10
19.4230849707
 20
21.8800915293
 30
0.0
 10
19.4984440394
 20
21.9262496781
 30
0.0
 10
19.5896850146
 20
22.0109744921
 30
0.0
 10
19.6480696222
 20
22.104836845
 30
0.0
 10
19.6620195492
 20
22.173312581
 30
0.0
 10
19.6620371033
 20
22.2056890633
 30
0.0
 11
19.3813770465
 21
21.8584966193
 31
0.0
 11
19.5006703016
 21
21.9334775435
 31
0.0
 11
19.589169783
 21
22.0184591305
 31
0.0
 11
19.6436252689
 21
22.1103206378
 31
0.0
 11
19.6620371033
 21
22.2056890633
 31
0.0
  0
SPLINE
  5
4EB
100
AcDbEntity
  8
ASSI
100
AcDbSpline
 62
253
  6
CONTINUOUS
 70
0
 71
3
 72
9
 73
5
 74
3
 42
0.0000001
 43
0.0000001
 44
0.0000000001
 12
0.0568933427
 22
0.2720263251
 32
0.0
 13
0.0000341755
 23
0.2779121675
 33
0.0
 40
0.0
 40
0.0
 40
0.0
 40
0.0
 40
0.2472264638
 40
1.0
 40
1.0
 40
1.0
 40
1.0
 10
19.6351086659
 20
19.2704899586
 30
0.0
 10
19.6397971792
 20
19.2929073274
 30
0.0
 10
19.6559339669
 20
19.3841673203
 30
0.0
 10
19.6620288514
 20
19.4770720741
 30
0.0
 10
19.6620374269
 20
19.5468070491
 30
0.0
 11
19.6351086659
 21
19.2704899586
 31
0.0
 11
19.6471622907
 21
19.3381316274
 31
0.0
 11
19.6620374269
 21
19.5468070491
 31
0.0
  0
SPLINE
  5
4EC
100
AcDbEntity
  8
ASSI
100
AcDbSpline
 62
253
  6
CONTINUOUS
 70
0
 71
3
 72
9
 73
5
 74
3
 42
0.0000001
 43
0.0000001
 44
0.0000000001
 12
0.3494821531
 22
0.5772993182
 32
0.0
 13
0.138150495
 23
0.6605503151
 33
0.0
 40
0.0
 40
0.0
 40
0.0
 40
0.0
 40
0.5093066888
 40
1.0
 40
1.0
 40
1.0
 40
1.0
 10
19.3813770465
 20
18.6476422222
 30
0.0
 10
19.4407082459
 20
18.7456496903
 30
0.0
 10
19.5429364388
 20
18.9470168329
 30
0.0
 10
19.612512158
 20
19.1624474181
 30
0.0
 10
19.6351086659
 20
19.2704899586
 30
0.0
 11
19.3813770465
 21
18.6476422222
 31
0.0
 11
19.5363694177
 21
18.9544129184
 31
0.0
 11
19.6351086659
 21
19.2704899586
 31
0.0
  0
SPLINE
  5
4ED
100
AcDbEntity
  8
ASSI
100
AcDbSpline
 62
253
  6
CONTINUOUS
 70
0
 71
3
 72
11
 73
7
 74
5
 42
0.0000001
 43
0.0000001
 44
0.0000000001
 12
0.9788248621
 22
0.4894045759
 32
0.0
 13
1.0189210128
 23
-0.3992679791
 33
0.0
 40
0.0
 40
0.0
 40
0.0
 40
0.0
 40
0.2313380055
 40
0.4912640204
 40
0.7561057227
 40
1.0
 40
1.0
 40
1.0
 40
1.0
 10
-1.8369187409
 20
24.4107221151
 30
0.0
 10
-1.7614389438
 20
24.4484614079
 30
0.0
 10
-1.5892226157
 20
24.5048216202
 30
0.0
 10
-1.3141431558
 20
24.5384018903
 30
0.0
 10
-1.0328051812
 20
24.5235445557
 30
0.0
 10
-0.8507864417
 20
24.4790571099
 30
0.0
 10
-0.767950107
 20
24.4465973848
 30
0.0
 11
-1.8369187409
 21
24.4107221151
 31
0.0
 11
-1.597800577
 21
24.4938821395
 31
0.0
 11
-1.3156484046
 21
24.5299772058
 31
0.0
 11
-1.0262720494
 21
24.5137479838
 31
0.0
 11
-0.767950107
 21
24.4465973848
 31
0.0
  0
SPLINE
  5
4EE
100
AcDbEntity
  8
ASSI
100
AcDbSpline
 62
7
  6
CONTINUOUS
 70
0
 71
3
 72
10
 73
6
 74
4
 42
0.0000001
 43
0.0000001
 44
0.0000000001
 12
0.3437398708
 22
0.1669713286
 32
0.0
 13
0.3417879296
 23
-0.1709313736
 33
0.0
 40
0.0
 40
0.0
 40
0.0
 40
0.0
 40
0.3214649819
 40
0.5940663041
 40
1.0
 40
1.0
 40
1.0
 40
1.0
 10
18.6243289948
 20
23.8815410296
 30
0.0
 10
18.6611624386
 20
23.8994328413
 30
0.0
 10
18.7313716193
 20
23.9290788334
 30
0.0
 10
18.8536113921
 20
23.9615604585
 30
0.0
 10
18.9469920805
 20
23.9600142774
 30
0.0
 10
18.9932398263
 20
23.9368853426
 30
0.0
 11
18.6243289948
 21
23.8815410296
 31
0.0
 11
18.7378520265
 21
23.9284867092
 31
0.0
 11
18.8389973904
 21
23.9534227407
 31
0.0
 11
18.9932398263
 21
23.9368853426
 31
0.0
  0
SPLINE
  5
4EF
100
AcDbEntity
  8
ASSI
100
AcDbSpline
 62
253
  6
CONTINUOUS
 70
0
 71
3
 72
10
 73
6
 74
4
 42
0.0000001
 43
0.0000001
 44
0.0000000001
 12
-0.261139483
 22
0.1461998945
 32
0.0
 13
-0.2547780802
 23
0.1570234651
 33
0.0
 40
0.0
 40
0.0
 40
0.0
 40
0.0
 40
0.1620166399
 40
0.3882729192
 40
1.0
 40
1.0
 40
1.0
 40
1.0
 10
19.6351086839
 20
15.5233922837
 30
0.0
 10
19.6210057033
 20
15.5312878889
 30
0.0
 10
19.5880869519
 20
15.5517398446
 30
0.0
 10
19.5039406373
 20
15.6052978891
 30
0.0
 10
19.4333285969
 20
15.6500669828
 30
0.0
 10
19.3813770465
 20
15.6820854848
 30
0.0
 11
19.6351086839
 21
15.5233922837
 31
0.0
 11
19.5935763597
 21
15.548415829
 31
0.0
 11
19.53636938
 21
15.5846446869
 31
0.0
 11
19.3813770465
 21
15.6820854848
 31
0.0
  0
SPLINE
  5
4F0
100
AcDbEntity
  8
ASSI
100
AcDbSpline
 62
7
  6
CONTINUOUS
 70
0
 71
3
 72
12
 73
8
 74
6
 42
0.0000001
 43
0.0000001
 44
0.0000000001
 12
-0.0000053441
 22
1.3059512596
 32
0.0
 13
1.163950723
 23
0.5922224304
 33
0.0
 40
0.0
 40
0.0
 40
0.0
 40
0.0
 40
0.1025370827
 40
0.2078918808
 40
0.4358567754
 40
0.6982900168
 40
1.0
 40
1.0
 40
1.0
 40
1.0
 10
9.1709823567
 20
22.9330504815
 30
0.0
 10
9.1709821741
 20
22.9776866256
 30
0.0
 10
9.1799246511
 20
23.0684204862
 30
0.0
 10
9.234254057
 20
23.2512424169
 30
0.0
 10
9.3744946229
 20
23.4750813189
 30
0.0
 10
9.6309598385
 20
23.7096206827
 30
0.0
 10
9.842485062
 20
23.8372409134
 30
0.0
 10
9.9595435797
 20
23.8968007199
 30
0.0
 11
9.1709823567
 21
22.9330504815
 31
0.0
 11
9.1839320095
 21
23.0663312931
 31
0.0
 11
9.2226587813
 21
23.1983568912
 31
0.0
 11
9.3757459415
 21
23.4536923284
 31
0.0
 11
9.6244903663
 21
23.6894605449
 31
0.0
 11
9.9595435797
 21
23.8968007199
 31
0.0
  0
SPLINE
  5
4F1
100
AcDbEntity
  8
ASSI
100
AcDbSpline
 62
253
  6
CONTINUOUS
 70
0
 71
3
 72
11
 73
7
 74
5
 42
0.0000001
 43
0.0000001
 44
0.0000000001
 12
2.0567289292
 22
-1.2211300742
 32
0.0
 13
1.0065394184
 23
-2.1698320086
 33
0.0
 40
0.0
 40
0.0
 40
0.0
 40
0.0
 40
0.2283849859
 40
0.4751112839
 40
0.7346328397
 40
1.0
 40
1.0
 40
1.0
 40
1.0
 10
19.6620436824
 20
21.5004804375
 30
0.0
 10
19.8186190182
 20
21.4075178459
 30
0.0
 10
20.1251392473
 20
21.1808965884
 30
0.0
 10
20.5355856615
 20
20.7602068631
 30
0.0
 10
20.8998849493
 20
20.2621401606
 30
0.0
 10
21.1009929359
 20
19.8935339543
 30
0.0
 10
21.190027105
 20
19.7015999015
 30
0.0
 11
19.6620436824
 21
21.5004804375
 31
0.0
 11
20.1038159717
 21
21.1791423639
 31
0.0
 11
20.5180255337
 21
20.758776291
 31
0.0
 11
20.8857073487
 21
20.25862895
 31
0.0
 11
21.190027105
 21
19.7015999015
 31
0.0
  0
SPLINE
  5
4F2
100
AcDbEntity
  8
ASSI
100
AcDbSpline
 62
253
  6
CONTINUOUS
 70
0
 71
3
 72
14
 73
10
 74
8
 42
0.0000001
 43
0.0000001
 44
0.0000000001
 12
0.3420528027
 22
0.1700657118
 32
0.0
 13
0.1916177207
 23
-0.3304619726
 33
0.0
 40
0.0
 40
0.0
 40
0.0
 40
0.0
 40
0.4110867213
 40
0.721681359
 40
0.8346727945
 40
0.9179503288
 40
0.9484335144
 40
0.9717238788
 40
1.0
 40
1.0
 40
1.0
 40
1.0
 10
18.9672265708
 20
23.290130194
 30
0.0
 10
19.0140976926
 20
23.3134341126
 30
0.0
 10
19.0969293292
 20
23.3532542079
 30
0.0
 10
19.1944450326
 20
23.3956570803
 30
0.0
 10
19.2553471103
 20
23.4172516879
 30
0.0
 10
19.2830803809
 20
23.4251143801
 30
0.0
 10
19.3005317292
 20
23.4277709608
 30
0.0
 10
19.3106085353
 20
23.4282364092
 30
0.0
 10
19.3182637398
 20
23.4263432726
 30
0.0
 10
19.3200698085
 20
23.423228545
 30
0.0
 11
18.9672265708
 21
23.290130194
 31
0.0
 11
19.1089446416
 21
23.3577745617
 31
0.0
 11
19.2182881769
 21
23.4038287678
 31
0.0
 11
19.2590573472
 21
23.4180018512
 31
0.0
 11
19.289844
 21
23.4260128352
 31
0.0
 11
19.3013694976
 21
23.4276734531
 31
0.0
 11
19.3102659268
 21
23.4277622644
 31
0.0
 11
19.3200698085
 21
23.423228545
 31
0.0
  0
SPLINE
  5
4F3
100
AcDbEntity
  8
ASSI
100
AcDbSpline
 62
253
  6
CONTINUOUS
 70
0
 71
3
 72
11
 73
7
 74
5
 42
0.0000001
 43
0.0000001
 44
0.0000000001
 12
-0.3917987687
 22
0.1632271533
 32
0.0
 13
-0.3828480876
 23
-0.1832395169
 33
0.0
 40
0.0
 40
0.0
 40
0.0
 40
0.0
 40
0.2279058184
 40
0.4667104003
 40
0.7228314534
 40
1.0
 40
1.0
 40
1.0
 40
1.0
 10
12.5092130807
 20
27.1779016568
 30
0.0
 10
12.4794486743
 20
27.1903017961
 30
0.0
 10
12.4149311057
 20
27.2078091814
 30
0.0
 10
12.3118431122
 20
27.2100944642
 30
0.0
 10
12.2038988125
 20
27.1892908362
 30
0.0
 10
12.1332359919
 20
27.1617025159
 30
0.0
 10
12.0978648425
 20
27.1447731057
 30
0.0
 11
12.5092130807
 21
27.1779016568
 31
0.0
 11
12.4159505107
 21
27.2035773864
 31
0.0
 11
12.3146364865
 21
27.2065707653
 31
0.0
 11
12.2077397812
 21
27.1868088771
 31
0.0
 11
12.0978648425
 21
27.1447731057
 31
0.0
  0
SPLINE
  5
4F4
100
AcDbEntity
  8
ASSI
100
AcDbSpline
 62
253
  6
CONTINUOUS
 70
0
 71
3
 72
15
 73
11
 74
9
 42
0.0000001
 43
0.0000001
 44
0.0000000001
 12
0.055665926
 22
0.0343543832
 32
0.0
 13
-0.0645562856
 23
-0.0105548541
 33
0.0
 40
0.0
 40
0.0
 40
0.0
 40
0.0
 40
0.1221537668
 40
0.2044226282
 40
0.2598867315
 40
0.3226036031
 40
0.4203951376
 40
0.5630486691
 40
0.7551149038
 40
1.0
 40
1.0
 40
1.0
 40
1.0
 10
19.7853746531
 20
15.7117571353
 30
0.0
 10
19.7876412539
 20
15.7131559744
 30
0.0
 10
19.7912516554
 20
15.7157457237
 30
0.0
 10
19.7953373209
 20
15.7198804715
 30
0.0
 10
19.7959299429
 20
15.7247759879
 30
0.0
 10
19.791756646
 20
15.7279691728
 30
0.0
 10
19.7853986598
 20
15.7295355571
 30
0.0
 10
19.7759174443
 20
15.7302666722
 30
0.0
 10
19.7632923055
 20
15.7296462753
 30
0.0
 10
19.753831828
 20
15.7284002482
 30
0.0
 10
19.7485622039
 20
15.7275386727
 30
0.0
 11
19.7853746531
 21
15.7117571353
 31
0.0
 11
19.7918144361
 21
15.7164875968
 31
0.0
 11
19.7951314732
 21
15.7207252491
 31
0.0
 11
19.7953285558
 21
15.7243479905
 31
0.0
 11
19.792393994
 21
15.727214883
 31
0.0
 11
19.7863017694
 21
15.7291654956
 31
0.0
 11
19.777009086
 21
15.7300152978
 31
0.0
 11
19.7644539009
 21
15.7295524294
 31
0.0
 11
19.7485622039
 21
15.7275386727
 31
0.0
  0
SPLINE
  5
4F5
100
AcDbEntity
  8
ASSI
100
AcDbSpline
 62
253
  6
CONTINUOUS
 70
0
 71
3
 72
9
 73
5
 74
3
 42
0.0000001
 43
0.0000001
 44
0.0000000001
 12
-0.0000762645
 22
0.0553188515
 32
0.0
 13
-0.0482695995
 23
0.0270227111
 33
0.0
 40
0.0
 40
0.0
 40
0.0
 40
0.0
 40
0.4849651163
 40
1.0
 40
1.0
 40
1.0
 40
1.0
 10
19.6620373792
 20
15.4774867196
 30
0.0
 10
19.6620250507
 20
15.4864292907
 30
0.0
 10
19.6577643855
 20
15.5054024422
 30
0.0
 10
19.6433955264
 20
15.5187530708
 30
0.0
 10
19.6351086839
 20
15.5233922837
 30
0.0
 11
19.6620373792
 21
15.4774867196
 31
0.0
 11
19.6555151448
 21
15.5035095562
 31
0.0
 11
19.6351086839
 21
15.5233922837
 31
0.0
  0
SPLINE
  5
4F6
100
AcDbEntity
  8
ASSI
100
AcDbSpline
 62
253
  6
CONTINUOUS
 70
0
 71
3
 72
11
 73
7
 74
5
 42
0.0000001
 43
0.0000001
 44
0.0000000001
 12
0.4118390271
 22
0.2132358985
 32
0.0
 13
0.0072947779
 23
0.4637108139
 33
0.0
 40
0.0
 40
0.0
 40
0.0
 40
0.0
 40
0.3010132858
 40
0.5635239788
 40
0.7922330393
 40
1.0
 40
1.0
 40
1.0
 40
1.0
 10
19.3813770465
 20
-8.4865836265
 30
0.0
 10
19.4227000527
 20
-8.4651880137
 30
0.0
 10
19.4974352664
 20
-8.4194767362
 30
0.0
 10
19.5881788422
 20
-8.335726036
 30
0.0
 10
19.646764261
 20
-8.2430364382
 30
0.0
 10
19.6615009923
 20
-8.1753034495
 30
0.0
 10
19.6620061969
 20
-8.143188854
 30
0.0
 11
19.3813770465
 21
-8.4865836265
 31
0.0
 11
19.499634498
 21
-8.4123984326
 31
0.0
 11
19.5877399633
 21
-8.3283802503
 31
0.0
 11
19.6425212478
 21
-8.2375538848
 31
0.0
 11
19.6620061969
 21
-8.143188854
 31
0.0
  0
SPLINE
  5
4F7
100
AcDbEntity
  8
ASSI
100
AcDbSpline
 62
253
  6
CONTINUOUS
 70
0
 71
3
 72
9
 73
5
 74
3
 42
0.0000001
 43
0.0000001
 44
0.0000000001
 12
-0.2174549843
 22
0.1125068563
 32
0.0
 13
-0.2442365519
 23
0.0171163546
 33
0.0
 40
0.0
 40
0.0
 40
0.0
 40
0.0
 40
0.2672094675
 40
1.0
 40
1.0
 40
1.0
 40
1.0
 10
6.1795457753
 20
24.4114972341
 30
0.0
 10
6.1601770984
 20
24.4215181998
 30
0.0
 10
6.0862514589
 20
24.4559820392
 30
0.0
 10
6.0055426761
 20
24.4773438811
 30
0.0
 10
5.9458845984
 20
24.4815247819
 30
0.0
 11
6.1795457753
 21
24.4114972341
 31
0.0
 11
6.1201855143
 21
24.4390008337
 31
0.0
 11
5.9458845984
 21
24.4815247819
 31
0.0
  0
SPLINE
  5
4F8
100
AcDbEntity
  8
ASSI
100
AcDbSpline
 62
253
  6
CONTINUOUS
 70
0
 71
3
 72
11
 73
7
 74
5
 42
0.0000001
 43
0.0000001
 44
0.0000000001
 12
-0.393894053
 22
0.2037928988
 32
0.0
 13
-0.4047200499
 23
-0.181344291
 33
0.0
 40
0.0
 40
0.0
 40
0.0
 40
0.0
 40
0.2782209584
 40
0.534120382
 40
0.7721714565
 40
1.0
 40
1.0
 40
1.0
 40
1.0
 10
12.0978648425
 20
27.1447731057
 30
0.0
 10
12.0613349822
 20
27.1636729243
 30
0.0
 10
11.9881533694
 20
27.1945717529
 30
0.0
 10
11.8756006238
 20
27.2180799985
 30
0.0
 10
11.7678988448
 20
27.2156579701
 30
0.0
 10
11.7008444265
 20
27.1960962213
 30
0.0
 10
11.6701088333
 20
27.1823244194
 30
0.0
 11
12.0978648425
 21
27.1447731057
 31
0.0
 11
11.9838272246
 21
27.191891321
 31
0.0
 11
11.8725408832
 21
27.214142415
 31
0.0
 11
11.7670164819
 21
27.2109244295
 31
0.0
 11
11.6701088333
 21
27.1823244194
 31
0.0
  0
SPLINE
  5
4F9
100
AcDbEntity
  8
ASSI
100
AcDbSpline
 62
253
  6
CONTINUOUS
 70
0
 71
3
 72
9
 73
5
 74
3
 42
0.0000001
 43
0.0000001
 44
0.0000000001
 12
0.0824049092
 22
0.0412054493
 32
0.0
 13
0.0824061071
 23
-0.0412030536
 33
0.0
 40
0.0
 40
0.0
 40
0.0
 40
0.0
 40
0.4637109335
 40
1.0
 40
1.0
 40
1.0
 40
1.0
 10
-1.9263614262
 20
24.4164024051
 30
0.0
 10
-1.9136240737
 20
24.4227715442
 30
0.0
 10
-1.8816503425
 20
24.42808742
 30
0.0
 10
-1.8516499056
 20
24.4180876975
 30
0.0
 10
-1.8369187409
 20
24.4107221151
 30
0.0
 11
-1.9263614262
 21
24.4164024051
 31
0.0
 11
-1.8843952494
 21
24.4244083238
 31
0.0
 11
-1.8369187409
 21
24.4107221151
 31
0.0
  0
SPLINE
  5
4FA
100
AcDbEntity
  8
ASSI
100
AcDbSpline
 62
7
  6
CONTINUOUS
 70
0
 71
3
 72
9
 73
5
 74
3
 42
0.0000001
 43
0.0000001
 44
0.0000000001
 12
0.0249559722
 22
0.0080480788
 32
0.0
 13
0.0261927962
 23
-0.0012286359
 33
0.0
 40
0.0
 40
0.0
 40
0.0
 40
0.0
 40
0.2398744762
 40
1.0
 40
1.0
 40
1.0
 40
1.0
 10
-1.9794348803
 20
24.3890813277
 30
0.0
 10
-1.9774394468
 20
24.3897248373
 30
0.0
 10
-1.9689870229
 20
24.3919909277
 30
0.0
 10
-1.9601259758
 20
24.3925742028
 30
0.0
 10
-1.9534893715
 20
24.3922628969
 30
0.0
 11
-1.9794348803
 21
24.3890813277
 31
0.0
 11
-1.9733608932
 21
24.390715163
 31
0.0
 11
-1.9534893715
 21
24.3922628969
 31
0.0
  0
SPLINE
  5
4FB
100
AcDbEntity
  8
ASSI
100
AcDbSpline
 62
7
  6
CONTINUOUS
 70
0
 71
3
 72
9
 73
5
 74
3
 42
0.0000001
 43
0.0000001
 44
0.0000000001
 12
0.0469102143
 22
-0.0022004361
 32
0.0
 13
0.0426817969
 23
-0.0195876067
 33
0.0
 40
0.0
 40
0.0
 40
0.0
 40
0.0
 40
0.2299667843
 40
1.0
 40
1.0
 40
1.0
 40
1.0
 10
-1.9534893715
 20
24.3922628969
 30
0.0
 10
-1.9498934412
 20
24.3920942212
 30
0.0
 10
-1.9343001837
 20
24.390406151
 30
0.0
 10
-1.9192195506
 20
24.3852772099
 30
0.0
 10
-1.9082640835
 20
24.3802495073
 30
0.0
 11
-1.9534893715
 21
24.3922628969
 31
0.0
 11
-1.9427486886
 21
24.3911358515
 31
0.0
 11
-1.9082640835
 21
24.3802495073
 31
0.0
  0
SPLINE
  5
4FC
100
AcDbEntity
  8
ASSI
100
AcDbSpline
 62
7
  6
CONTINUOUS
 70
0
 71
3
 72
9
 73
5
 74
3
 42
0.0000001
 43
0.0000001
 44
0.0000000001
 12
-0.0362899579
 22
0.0114219821
 32
0.0
 13
-0.0373797737
 23
-0.0070834482
 33
0.0
 40
0.0
 40
0.0
 40
0.0
 40
0.0
 40
0.2408758716
 40
1.0
 40
1.0
 40
1.0
 40
1.0
 10
-0.6935407967
 20
24.4588528902
 30
0.0
 10
-0.6964545884
 20
24.4597699835
 30
0.0
 10
-0.708808383
 20
24.4627628009
 30
0.0
 10
-0.7218650211
 20
24.4623203683
 30
0.0
 10
-0.7313236505
 20
24.4605279628
 30
0.0
 11
-0.6935407967
 21
24.4588528902
 31
0.0
 11
-0.7024468303
 21
24.4610124612
 31
0.0
 11
-0.7313236505
 21
24.4605279628
 31
0.0
  0
SPLINE
  5
4FD
100
AcDbEntity
  8
ASSI
100
AcDbSpline
 62
7
  6
CONTINUOUS
 70
0
 71
3
 72
9
 73
5
 74
3
 42
0.0000001
 43
0.0000001
 44
0.0000000001
 12
-0.03860054
 22
-0.0073147828
 32
0.0
 13
-0.0342157966
 23
-0.0193076926
 33
0.0
 40
0.0
 40
0.0
 40
0.0
 40
0.0
 40
0.2356956071
 40
1.0
 40
1.0
 40
1.0
 40
1.0
 10
-0.7313236505
 20
24.4605279628
 30
0.0
 10
-0.7343563097
 20
24.4599532754
 30
0.0
 10
-0.7471047807
 20
24.4568919851
 30
0.0
 10
-0.7592328665
 20
24.4515162966
 30
0.0
 10
-0.767949961
 20
24.4465973118
 30
0.0
 11
-0.7313236505
 21
24.4605279628
 31
0.0
 11
-0.740331363
 21
24.4583816396
 31
0.0
 11
-0.767949961
 21
24.4465973118
 31
0.0
  0
SPLINE
  5
4FE
100
AcDbEntity
  8
ASSI
100
AcDbSpline
 62
253
  6
CONTINUOUS
 70
0
 71
3
 72
9
 73
5
 74
3
 42
0.0000001
 43
0.0000001
 44
0.0000000001
 12
0.4305866607
 22
0.4469486352
 32
0.0
 13
0.2845633178
 23
0.5515357405
 33
0.0
 40
0.0
 40
0.0
 40
0.0
 40
0.0
 40
0.5158790346
 40
1.0
 40
1.0
 40
1.0
 40
1.0
 10
19.3813770465
 20
18.6476422222
 30
0.0
 10
19.4554205901
 20
18.7244993657
 30
0.0
 10
19.5900427245
 20
18.8822917648
 30
0.0
 10
19.7026409884
 20
19.0570601198
 30
0.0
 10
19.7485620111
 20
19.1460634582
 30
0.0
 11
19.3813770465
 21
18.6476422222
 31
0.0
 11
19.5884568249
 21
18.8918207779
 31
0.0
 11
19.7485620111
 21
19.1460634582
 31
0.0
  0
SPLINE
  5
4FF
100
AcDbEntity
  8
ASSI
100
AcDbSpline
 62
253
  6
CONTINUOUS
 70
0
 71
3
 72
9
 73
5
 74
3
 42
0.0000001
 43
0.0000001
 44
0.0000000001
 12
0.1203771048
 22
-0.2805398384
 32
0.0
 13
-0.0134334598
 23
-0.3049799837
 33
0.0
 40
0.0
 40
0.0
 40
0.0
 40
0.0
 40
0.2605485237
 40
1.0
 40
1.0
 40
1.0
 40
1.0
 10
21.1900271835
 20
19.7015999331
 30
0.0
 10
21.2004818759
 20
19.6772351862
 30
0.0
 10
21.2357559036
 20
19.5818205079
 30
0.0
 10
21.2520637655
 20
19.4785832544
 30
0.0
 10
21.2487526349
 20
19.4034106213
 30
0.0
 11
21.1900271835
 21
19.7015999331
 31
0.0
 11
21.2175755393
 21
19.6269838394
 31
0.0
 11
21.2487526349
 21
19.4034106213
 31
0.0
  0
SPLINE
  5
500
100
AcDbEntity
  8
ASSI
100
AcDbSpline
 62
253
  6
CONTINUOUS
 70
0
 71
3
 72
10
 73
6
 74
4
 42
0.0000001
 43
0.0000001
 44
0.0000000001
 12
-0.3456148692
 22
-0.1367008319
 32
0.0
 13
-0.3716664206
 23
0.0009094342
 33
0.0
 40
0.0
 40
0.0
 40
0.0
 40
0.0
 40
0.2058993488
 40
0.4422122575
 40
1.0
 40
1.0
 40
1.0
 40
1.0
 10
19.7485617522
 20
15.7275381388
 30
0.0
 10
19.7248411267
 20
15.7181559347
 30
0.0
 10
19.6717623511
 20
15.7034586769
 30
0.0
 10
19.5491600012
 20
15.6848692866
 30
0.0
 10
19.4504807044
 20
15.6819163944
 30
0.0
 10
19.3813770465
 20
15.6820854848
 30
0.0
 11
19.7485617522
 21
15.7275381388
 31
0.0
 11
19.6751662925
 21
15.7058736299
 31
0.0
 11
19.5884566146
 21
15.6918910755
 31
0.0
 11
19.3813770465
 21
15.6820854848
 31
0.0
  0
SPLINE
  5
501
100
AcDbEntity
  8
ASSI
100
AcDbSpline
 62
253
  6
CONTINUOUS
 70
0
 71
3
 72
9
 73
5
 74
3
 42
0.0000001
 43
0.0000001
 44
0.0000000001
 12
0.0039397443
 22
-0.0853636674
 32
0.0
 13
-0.0126749972
 23
-0.0845092998
 33
0.0
 40
0.0
 40
0.0
 40
0.0
 40
0.0
 40
0.2600815329
 40
1.0
 40
1.0
 40
1.0
 40
1.0
 10
21.2487526349
 20
16.8600410034
 30
0.0
 10
21.2490941865
 20
16.8526404989
 30
0.0
 10
21.2497907812
 20
16.8241651213
 30
0.0
 10
21.2479389154
 20
16.7955944561
 30
0.0
 10
21.2448127605
 20
16.7747511256
 30
0.0
 11
21.2487526349
 21
16.8600410034
 31
0.0
 11
21.2492841453
 21
16.8378222137
 31
0.0
 11
21.2448127605
 21
16.7747511256
 31
0.0
  0
SPLINE
  5
502
100
AcDbEntity
  8
ASSI
100
AcDbSpline
 62
253
  6
CONTINUOUS
 70
0
 71
3
 72
9
 73
5
 74
3
 42
0.0000001
 43
0.0000001
 44
0.0000000001
 12
-0.0066317754
 22
-0.0442167117
 32
0.0
 13
-0.0124248059
 23
-0.0429502297
 33
0.0
 40
0.0
 40
0.0
 40
0.0
 40
0.0
 40
0.2563572463
 40
1.0
 40
1.0
 40
1.0
 40
1.0
 10
21.2448127605
 20
16.7747511256
 30
0.0
 10
21.2442460593
 20
16.7709727008
 30
0.0
 10
21.2418092245
 20
16.7562692558
 30
0.0
 10
21.2384441802
 20
16.7417146721
 30
0.0
 10
21.2353643079
 20
16.7310681297
 30
0.0
 11
21.2448127605
 21
16.7747511256
 31
0.0
 11
21.2429356577
 21
16.7634438145
 31
0.0
 11
21.2353643079
 21
16.7310681297
 31
0.0
  0
SPLINE
  5
503
100
AcDbEntity
  8
ASSI
100
AcDbSpline
 62
253
  6
CONTINUOUS
 70
0
 71
3
 72
9
 73
5
 74
3
 42
0.0000001
 43
0.0000001
 44
0.0000000001
 12
-0.025113342
 22
-0.0868121251
 32
0.0
 13
-0.0547750094
 23
-0.0718799231
 33
0.0
 40
0.0
 40
0.0
 40
0.0
 40
0.0
 40
0.2640149622
 40
1.0
 40
1.0
 40
1.0
 40
1.0
 10
21.2353643079
 20
16.7310681297
 30
0.0
 10
21.2331542086
 20
16.7234282297
 30
0.0
 10
21.2236725484
 20
16.6948439109
 30
0.0
 10
21.2093194082
 20
16.6677223606
 30
0.0
 10
21.1958815457
 20
16.6500881779
 30
0.0
 11
21.2353643079
 21
16.7310681297
 31
0.0
 11
21.2278080471
 21
16.7084368147
 31
0.0
 11
21.1958815457
 21
16.6500881779
 31
0.0
  0
SPLINE
  5
504
100
AcDbEntity
  8
ASSI
100
AcDbSpline
 62
253
  6
CONTINUOUS
 70
0
 71
3
 72
9
 73
5
 74
3
 42
0.0000001
 43
0.0000001
 44
0.0000000001
 12
-0.1488168129
 22
0.0857036144
 32
0.0
 13
-0.0353033426
 23
0.1680631648
 33
0.0
 40
0.0
 40
0.0
 40
0.0
 40
0.0
 40
0.568422263
 40
1.0
 40
1.0
 40
1.0
 40
1.0
 10
19.748562327
 20
19.1460645697
 30
0.0
 10
19.7203653972
 20
19.1623031838
 30
0.0
 10
19.6734037196
 20
19.1957927681
 30
0.0
 10
19.6401875246
 20
19.2463125011
 30
0.0
 10
19.6351088124
 20
19.2704899412
 30
0.0
 11
19.748562327
 21
19.1460645697
 31
0.0
 11
19.6714184897
 21
19.2058781413
 31
0.0
 11
19.6351088124
 21
19.2704899412
 31
0.0
  0
SPLINE
  5
505
100
AcDbEntity
  8
ASSI
100
AcDbSpline
 62
253
  6
CONTINUOUS
 70
0
 71
3
 72
9
 73
5
 74
3
 42
0.0000001
 43
0.0000001
 44
0.0000000001
 12
-0.1880321525
 22
-0.1463588369
 32
0.0
 13
-0.0263658294
 23
-0.2368160521
 33
0.0
 40
0.0
 40
0.0
 40
0.0
 40
0.0
 40
0.4981460002
 40
1.0
 40
1.0
 40
1.0
 40
1.0
 10
19.7485626872
 20
15.7275385142
 30
0.0
 10
19.717340199
 20
15.7032358244
 30
0.0
 10
19.6641187686
 20
15.6410138075
 30
0.0
 10
19.6395193038
 20
15.5630079756
 30
0.0
 10
19.6351087049
 20
15.5233922812
 30
0.0
 11
19.7485626872
 21
15.7275385142
 31
0.0
 11
19.6714186383
 21
15.6373277819
 31
0.0
 11
19.6351087049
 21
15.5233922812
 31
0.0
  0
SPLINE
  5
506
100
AcDbEntity
  8
ASSI
100
AcDbSpline
 62
253
  6
CONTINUOUS
 70
0
 71
3
 72
11
 73
7
 74
5
 42
0.0000001
 43
0.0000001
 44
0.0000000001
 12
0.7999712
 22
1.9638426393
 32
0.0
 13
-0.6988670255
 23
2.0020531245
 33
0.0
 40
0.0
 40
0.0
 40
0.0
 40
0.0
 40
0.2176288778
 40
0.4591867775
 40
0.7218821323
 40
1.0
 40
1.0
 40
1.0
 40
1.0
 10
21.3160398118
 20
17.1659100522
 30
0.0
 10
21.37407209
 20
17.3083730087
 30
0.0
 10
21.4558234809
 20
17.6260922371
 30
0.0
 10
21.479663502
 20
18.1384161212
 30
0.0
 10
21.4120108918
 20
18.6895452406
 30
0.0
 10
21.3099041785
 20
19.0594435453
 30
0.0
 10
21.2451150428
 20
19.245045794
 30
0.0
 11
21.3160398118
 21
17.1659100522
 31
0.0
 11
21.4366063367
 21
17.6113701142
 31
0.0
 11
21.4651378235
 21
18.1228047689
 31
0.0
 11
21.400286865
 21
18.6760693912
 31
0.0
 11
21.2451150428
 21
19.245045794
 31
0.0
  0
SPLINE
  5
507
100
AcDbEntity
  8
ASSI
100
AcDbSpline
 62
7
  6
CONTINUOUS
 70
0
 71
3
 72
9
 73
5
 74
3
 42
0.0000001
 43
0.0000001
 44
0.0000000001
 12
0.0847789364
 22
0.0443449558
 32
0.0
 13
0.0455387878
 23
0.0841436984
 33
0.0
 40
0.0
 40
0.0
 40
0.0
 40
0.0
 40
0.2714288436
 40
1.0
 40
1.0
 40
1.0
 40
1.0
 10
21.2487526349
 20
17.0164558117
 30
0.0
 10
21.2564231178
 20
17.0204679784
 30
0.0
 10
21.2837723233
 20
17.0367894485
 30
0.0
 10
21.3071679937
 20
17.0607030938
 30
0.0
 10
21.3182274094
 20
17.0811379844
 30
0.0
 11
21.2487526349
 21
17.0164558117
 31
0.0
 11
21.270978573
 21
17.0298875569
 31
0.0
 11
21.3182274094
 21
17.0811379844
 31
0.0
  0
SPLINE
  5
508
100
AcDbEntity
  8
ASSI
100
AcDbSpline
 62
253
  6
CONTINUOUS
 70
0
 71
3
 72
11
 73
7
 74
5
 42
0.0000001
 43
0.0000001
 44
0.0000000001
 12
-0.0001248954
 22
-0.1402298597
 32
0.0
 13
-0.1245280582
 23
-0.0644762891
 33
0.0
 40
0.0
 40
0.0
 40
0.0
 40
0.0
 40
0.207757318
 40
0.4361825988
 40
0.6986224787
 40
1.0
 40
1.0
 40
1.0
 40
1.0
 10
21.3329506551
 20
16.9641740453
 30
0.0
 10
21.3329420058
 20
16.9544627854
 30
0.0
 10
21.3287520471
 20
16.933924891
 30
0.0
 10
21.3112352267
 20
16.9057739865
 30
0.0
 10
21.2838663565
 20
16.880362718
 30
0.0
 10
21.2612626207
 20
16.8665182381
 30
0.0
 10
21.2487526349
 20
16.8600410034
 30
0.0
 11
21.3329506551
 21
16.9641740453
 31
0.0
 11
21.3274199835
 21
16.9355700341
 31
0.0
 11
21.3110811561
 21
16.9080183474
 31
0.0
 11
21.2845342004
 21
16.8825302989
 31
0.0
 11
21.2487526349
 21
16.8600410034
 31
0.0
  0
SPLINE
  5
509
100
AcDbEntity
  8
ASSI
100
AcDbSpline
 62
253
  6
CONTINUOUS
 70
0
 71
3
 72
8
 73
4
 74
2
 42
0.0000001
 43
0.0000001
 44
0.0000000001
 12
-0.035950694
 22
-0.0415510418
 32
0.0
 13
-0.0468329767
 23
-0.0287334955
 33
0.0
 40
0.0
 40
0.0
 40
0.0
 40
0.0
 40
1.0
 40
1.0
 40
1.0
 40
1.0
 10
21.231965333
 20
16.678266308
 30
0.0
 10
21.2199817683
 20
16.6644159608
 30
0.0
 10
21.2056380276
 20
16.6523459615
 30
0.0
 10
21.1900270354
 20
16.6427681297
 30
0.0
 11
21.231965333
 21
16.678266308
 31
0.0
 11
21.1900270354
 21
16.6427681297
 31
0.0
  0
SPLINE
  5
50A
100
AcDbEntity
  8
ASSI
100
AcDbSpline
 62
253
  6
CONTINUOUS
 70
0
 71
3
 72
9
 73
5
 74
3
 42
0.0000001
 43
0.0000001
 44
0.0000000001
 12
0.1107910514
 22
0.08018598
 32
0.0
 13
0.0955567425
 23
0.0978435355
 33
0.0
 40
0.0
 40
0.0
 40
0.0
 40
0.0
 40
0.2478680577
 40
1.0
 40
1.0
 40
1.0
 40
1.0
 10
18.9672265708
 20
-9.5040667255
 30
0.0
 10
18.9763804251
 20
-9.4974415445
 30
0.0
 10
19.0127237724
 20
-9.4699088423
 30
0.0
 10
19.0466532911
 20
-9.4392076134
 30
0.0
 10
19.0706103838
 20
-9.4146771973
 30
0.0
 11
18.9672265708
 21
-9.5040667255
 31
0.0
 11
18.9942488327
 21
-9.4835979199
 31
0.0
 11
19.0706103838
 21
-9.4146771973
 31
0.0
  0
SPLINE
  5
50B
100
AcDbEntity
  8
ASSI
100
AcDbSpline
 62
253
  6
CONTINUOUS
 70
0
 71
3
 72
11
 73
7
 74
5
 42
0.0000001
 43
0.0000001
 44
0.0000000001
 12
0.6153212111
 22
0.7186639297
 32
0.0
 13
-0.002746563
 23
0.9460922223
 33
0.0
 40
0.0
 40
0.0
 40
0.0
 40
0.0
 40
0.2222738948
 40
0.461655743
 40
0.7207849338
 40
1.0
 40
1.0
 40
1.0
 40
1.0
 10
19.1083146383
 20
-9.3734333003
 30
0.0
 10
19.1539045857
 20
-9.3201865568
 30
0.0
 10
19.2353577919
 20
-9.1978174101
 30
0.0
 10
19.3205736883
 20
-8.9857249353
 30
0.0
 10
19.3715020274
 20
-8.7447374288
 30
0.0
 10
19.3816326737
 20
-8.5746380273
 30
0.0
 10
19.3813770465
 20
-8.4865836265
 30
0.0
 11
19.1083146383
 21
-9.3734333003
 31
0.0
 11
19.2261097067
 21
-9.1992286709
 31
0.0
 11
19.3121762532
 21
-8.9897413171
 31
0.0
 11
19.3643661225
 21
-8.7501996619
 31
0.0
 11
19.3813770465
 21
-8.4865836265
 31
0.0
  0
LINE
  5
50C
100
AcDbEntity
  8
ASSI
100
AcDbLine
 62
253
  6
CONTINUOUS
 10
21.1900269952
 20
16.6427680832
 11
20.8959545967
 21
16.4551170048
  0
LINE
  5
50D
100
AcDbEntity
  8
ASSI
100
AcDbLine
 62
253
  6
CONTINUOUS
 10
20.8959545967
 20
16.4551170048
 11
20.8889529751
 21
16.4506556419
  0
LINE
  5
50E
100
AcDbEntity
  8
ASSI
100
AcDbLine
 62
253
  6
CONTINUOUS
 10
19.7677410588
 20
15.7396472561
 11
19.7485622039
 21
15.7275386727
  0
SPLINE
  5
50F
100
AcDbEntity
  8
ASSI
100
AcDbSpline
 62
253
  6
CONTINUOUS
 70
0
 71
3
 72
9
 73
5
 74
3
 42
0.0000001
 43
0.0000001
 44
0.0000000001
 12
-0.2235064788
 22
-0.25831415
 32
0.0
 13
-0.2876107724
 23
-0.1842861626
 33
0.0
 40
0.0
 40
0.0
 40
0.0
 40
0.0
 40
0.2549508714
 40
1.0
 40
1.0
 40
1.0
 40
1.0
 10
21.1900269952
 20
16.6427680832
 30
0.0
 10
21.1710326047
 20
16.6208156107
 30
0.0
 10
21.09366675
 20
16.5372465571
 30
0.0
 10
21.0044518008
 20
16.4645234275
 30
0.0
 10
20.933023749
 20
16.4187560126
 30
0.0
 11
21.1900269952
 21
16.6427680832
 31
0.0
 11
21.13081343
 21
16.5789085891
 31
0.0
 11
20.933023749
 21
16.4187560126
 31
0.0
  0
SPLINE
  5
510
100
AcDbEntity
  8
0
100
AcDbSpline
 62
252
  6
CONTINUOUS
 70
0
 71
3
 72
15
 73
11
 74
9
 42
0.0000001
 43
0.0000001
 44
0.0000000001
 12
-1.185901797
 22
-0.61401863
 32
0.0
 13
-0.0439160627
 23
-1.5001790331
 33
0.0
 40
0.0
 40
0.0
 40
0.0
 40
0.0
 40
0.1248401019
 40
0.2498663855
 40
0.374885782
 40
0.5000299202
 40
0.6250550432
 40
0.7501198193
 40
0.875035251
 40
1.0
 40
1.0
 40
1.0
 40
1.0
 10
7.2051739233
 20
4.5221243313
 30
0.0
 10
7.1558245562
 20
4.4965729485
 30
0.0
 10
7.0567520061
 20
4.4367484689
 30
0.0
 10
6.91285401
 20
4.310534041
 30
0.0
 10
6.7862014966
 20
4.1423650971
 30
0.0
 10
6.6940091398
 20
3.9458805998
 30
0.0
 10
6.6369441214
 20
3.7442074556
 30
0.0
 10
6.603694042
 20
3.546252375
 30
0.0
 10
6.5898513805
 20
3.3547588838
 30
0.0
 10
6.587726574
 20
3.2305403278
 30
0.0
 10
6.585897254
 20
3.1680504957
 30
0.0
 11
7.2051739233
 21
4.5221243313
 31
0.0
 11
7.0576153027
 21
4.4307273142
 31
0.0
 11
6.9157442878
 21
4.3035582341
 31
0.0
 11
6.7919820397
 21
4.1377056572
 31
0.0
 11
6.6998421936
 21
3.9449565936
 31
0.0
 11
6.6409136231
 21
3.744827975
 31
0.0
 11
6.6069185616
 21
3.5472465135
 31
0.0
 11
6.591627642
 21
3.3556340653
 31
0.0
 11
6.585897254
 21
3.1680504957
 31
0.0
  0
SPLINE
  5
511
100
AcDbEntity
  8
0
100
AcDbSpline
 62
252
  6
CONTINUOUS
 70
0
 71
3
 72
15
 73
11
 74
9
 42
0.0000001
 43
0.0000001
 44
0.0000000001
 12
-0.0439160627
 22
1.4547026189
 32
0.0
 13
-1.185901797
 23
-0.61401863
 33
0.0
 40
0.0
 40
0.0
 40
0.0
 40
0.0
 40
0.124964749
 40
0.2498801807
 40
0.3749449568
 40
0.4999700798
 40
0.625114218
 40
0.7501336145
 40
0.8751598981
 40
1.0
 40
1.0
 40
1.0
 40
1.0
 10
7.8244505925
 20
3.8093302593
 30
0.0
 10
7.8226212726
 20
3.8699257752
 30
0.0
 10
7.8204964661
 20
3.9919440296
 30
0.0
 10
7.8066538046
 20
4.1691030253
 30
0.0
 10
7.7734037252
 20
4.3326266407
 30
0.0
 10
7.7163387068
 20
4.4752072285
 30
0.0
 10
7.62414635
 20
4.5762237455
 30
0.0
 10
7.4974938366
 20
4.6132401725
 30
0.0
 10
7.3535958404
 20
4.5904438633
 30
0.0
 10
7.2545232904
 20
4.5476757141
 30
0.0
 10
7.2051739233
 20
4.5221243313
 30
0.0
 11
7.8244505925
 21
3.8093302593
 31
0.0
 11
7.8187202045
 21
3.9909798385
 31
0.0
 11
7.803429285
 21
4.1667580759
 31
0.0
 11
7.7694342235
 21
4.3291366207
 31
0.0
 11
7.710505653
 21
4.4682429182
 31
0.0
 11
7.6183658069
 21
4.5655783781
 31
0.0
 11
7.4946035588
 21
4.6032713954
 31
0.0
 11
7.3527325439
 21
4.5835287389
 31
0.0
 11
7.2051739233
 21
4.5221243313
 31
0.0
  0
SPLINE
  5
512
100
AcDbEntity
  8
0
100
AcDbSpline
 62
252
  6
CONTINUOUS
 70
0
 71
3
 72
13
 73
9
 74
7
 42
0.0000001
 43
0.0000001
 44
0.0000000001
 12
0.4745559597
 22
0.2457085409
 32
0.0
 13
0.059258054
 23
-0.5563129908
 33
0.0
 40
0.0
 40
0.0
 40
0.0
 40
0.0
 40
0.2490801906
 40
0.3745290044
 40
0.5000465587
 40
0.6245839973
 40
0.7501008193
 40
1.0
 40
1.0
 40
1.0
 40
1.0
 10
7.2051739233
 20
3.9481513466
 30
0.0
 10
7.2445747529
 20
3.9685517233
 30
0.0
 10
7.3050687549
 20
3.9931092431
 30
0.0
 10
7.3776829775
 20
3.9899641172
 30
0.0
 10
7.4261735282
 20
3.9704051533
 30
0.0
 10
7.4590106792
 20
3.9238459191
 30
0.0
 10
7.4815101886
 20
3.8401723178
 30
0.0
 10
7.4847866562
 20
3.7675706453
 30
0.0
 10
7.4897228359
 20
3.7212299251
 30
0.0
 11
7.2051739233
 21
3.9481513466
 31
0.0
 11
7.322336741
 21
3.9893121971
 31
0.0
 11
7.3766646457
 21
3.9870927096
 31
0.0
 11
7.4236726559
 21
3.9658252142
 31
0.0
 11
7.4562933849
 21
3.9212758352
 31
0.0
 11
7.4743902623
 21
3.8598970575
 31
0.0
 11
7.4897228359
 21
3.7212299251
 31
0.0
  0
SPLINE
  5
513
100
AcDbEntity
  8
0
100
AcDbSpline
 62
252
  6
CONTINUOUS
 70
0
 71
3
 72
13
 73
9
 74
7
 42
0.0000001
 43
0.0000001
 44
0.0000000001
 12
0.059258054
 22
0.617676502
 32
0.0
 13
0.4745559597
 23
0.2457085409
 33
0.0
 40
0.0
 40
0.0
 40
0.0
 40
0.0
 40
0.2498991807
 40
0.3754160027
 40
0.4999534413
 40
0.6254709956
 40
0.7509198094
 40
1.0
 40
1.0
 40
1.0
 40
1.0
 10
6.9206250106
 20
3.4265709002
 30
0.0
 10
6.9255611904
 20
3.4780231842
 30
0.0
 10
6.928837658
 20
3.5540177383
 30
0.0
 10
6.9513371674
 20
3.6609902636
 30
0.0
 10
6.9841743184
 20
3.7415533631
 30
0.0
 10
7.032664869
 20
3.8113257621
 30
0.0
 10
7.1052790917
 20
3.8896651168
 30
0.0
 10
7.1657730937
 20
3.9277509699
 30
0.0
 10
7.2051739233
 20
3.9481513466
 30
0.0
 11
6.9206250106
 21
3.4265709002
 31
0.0
 11
6.9359575842
 21
3.5811153774
 31
0.0
 11
6.9540544616
 21
3.6612340203
 31
0.0
 11
6.9866751907
 21
3.739563153
 31
0.0
 11
7.0336832008
 21
3.8095088679
 31
0.0
 11
7.0880111055
 21
3.8679865477
 31
0.0
 11
7.2051739233
 21
3.9481513466
 31
0.0
  0
SPLINE
  5
514
100
AcDbEntity
  8
0
100
AcDbSpline
 62
252
  6
CONTINUOUS
 70
0
 71
3
 72
11
 73
7
 74
5
 42
0.0000001
 43
0.0000001
 44
0.0000000001
 12
0.5122758368
 22
0.2750946518
 32
0.0
 13
0.0114388215
 23
-0.6326446683
 33
0.0
 40
0.0
 40
0.0
 40
0.0
 40
0.0
 40
0.2491315025
 40
0.4973515609
 40
0.7462289133
 40
1.0
 40
1.0
 40
1.0
 40
1.0
 10
7.1742130901
 20
-4.3669533998
 30
0.0
 10
7.2167544397
 20
-4.3441084851
 30
0.0
 10
7.3032206717
 20
-4.3092668785
 30
0.0
 10
7.4169086893
 20
-4.3385307888
 30
0.0
 10
7.4761400614
 20
-4.4564298785
 30
0.0
 10
7.486214252
 20
-4.5585766215
 30
0.0
 10
7.4871818661
 20
-4.6120922632
 30
0.0
 11
7.1742130901
 21
-4.3669533998
 31
0.0
 11
7.3006956475
 21
-4.3228392729
 31
0.0
 11
7.4077027094
 21
-4.353105995
 31
0.0
 11
7.4685031426
 21
-4.4613545871
 31
0.0
 11
7.4871818661
 21
-4.6120922632
 31
0.0
  0
SPLINE
  5
515
100
AcDbEntity
  8
0
100
AcDbSpline
 62
252
  6
CONTINUOUS
 70
0
 71
3
 72
9
 73
5
 74
3
 42
0.0000001
 43
0.0000001
 44
0.0000000001
 12
0.0428005124
 22
0.4818273804
 32
0.0
 13
0.371139475
 23
0.1994009953
 33
0.0
 40
0.0
 40
0.0
 40
0.0
 40
0.0
 40
0.5000882298
 40
1.0
 40
1.0
 40
1.0
 40
1.0
 10
6.9224546818
 20
-4.793404123
 30
0.0
 10
6.9295893593
 20
-4.7130853891
 30
0.0
 10
6.9836778489
 20
-4.5297253495
 30
0.0
 10
7.1123674261
 20
-4.4001810346
 30
0.0
 10
7.1742130901
 20
-4.3669533998
 30
0.0
 11
6.9224546818
 21
-4.793404123
 31
0.0
 11
7.0023442479
 21
-4.5431516736
 31
0.0
 11
7.1742130901
 21
-4.3669533998
 31
0.0
  0
SPLINE
  5
516
100
AcDbEntity
  8
0
100
AcDbSpline
 62
252
  6
CONTINUOUS
 70
0
 71
3
 72
9
 73
5
 74
3
 42
0.0000001
 43
0.0000001
 44
0.0000000001
 12
-0.055586621
 22
0.3774090551
 32
0.0
 13
0.0381029446
 23
0.4290401397
 33
0.0
 40
0.0
 40
0.0
 40
0.0
 40
0.0
 40
0.4997637338
 40
1.0
 40
1.0
 40
1.0
 40
1.0
 10
6.9343101317
 20
-5.197913883
 30
0.0
 10
6.9250500727
 20
-5.1350420968
 30
0.0
 10
6.9115837295
 20
-5.0052339481
 30
0.0
 10
6.9161011902
 20
-4.8649446022
 30
0.0
 10
6.9224546818
 20
-4.793404123
 30
0.0
 11
6.9343101317
 21
-5.197913883
 31
0.0
 11
6.9160817958
 21
-5.0026774631
 31
0.0
 11
6.9224546818
 21
-4.793404123
 31
0.0
  0
SPLINE
  5
517
100
AcDbEntity
  8
0
100
AcDbSpline
 62
252
  6
CONTINUOUS
 70
0
 71
3
 72
11
 73
7
 74
5
 42
0.0000001
 43
0.0000001
 44
0.0000000001
 12
-0.3554977909
 22
-1.4110004654
 32
0.0
 13
0.1522799832
 23
-1.2117955191
 33
0.0
 40
0.0
 40
0.0
 40
0.0
 40
0.0
 40
0.249614251
 40
0.499888924
 40
0.7499637517
 40
1.0
 40
1.0
 40
1.0
 40
1.0
 10
6.6359454578
 20
-4.5634898754
 30
0.0
 10
6.6063663529
 20
-4.6808918169
 30
0.0
 10
6.5733819413
 20
-4.913856743
 30
0.0
 10
6.5633726397
 20
-5.2452092095
 30
0.0
 10
6.5794603725
 20
-5.5630523189
 30
0.0
 10
6.6020497317
 20
-5.7670679709
 30
0.0
 10
6.6147415703
 20
-5.8680655726
 30
0.0
 11
6.6359454578
 21
-4.5634898754
 31
0.0
 11
6.5799863243
 21
-4.9105315328
 31
0.0
 11
6.5677246964
 21
-5.2430126263
 31
0.0
 11
6.5824284914
 21
-5.5611138899
 31
0.0
 11
6.6147415703
 21
-5.8680655726
 31
0.0
  0
SPLINE
  5
518
100
AcDbEntity
  8
0
100
AcDbSpline
 62
252
  6
CONTINUOUS
 70
0
 71
3
 72
18
 73
14
 74
12
 42
0.0000001
 43
0.0000001
 44
0.0000000001
 12
-0.1605600994
 22
1.4684142303
 32
0.0
 13
-0.4257702605
 23
-1.6920505669
 33
0.0
 40
0.0
 40
0.0
 40
0.0
 40
0.0
 40
0.0626155709
 40
0.1255750725
 40
0.1873779143
 40
0.2500548274
 40
0.3131302752
 40
0.3757850613
 40
0.5005898481
 40
0.6254073429
 40
0.7503252015
 40
0.8752611255
 40
1.0
 40
1.0
 40
1.0
 40
1.0
 10
7.6531732677
 20
-3.9827597254
 30
0.0
 10
7.6498220803
 20
-3.9521111936
 30
0.0
 10
7.6130187347
 20
-3.9172059367
 30
0.0
 10
7.5629809138
 20
-3.8705856912
 30
0.0
 10
7.5032664393
 20
-3.8366047804
 30
0.0
 10
7.4362783341
 20
-3.8199288058
 30
0.0
 10
7.363759409
 20
-3.8181365647
 30
0.0
 10
7.2625582718
 20
-3.835217851
 30
0.0
 10
7.1309724543
 20
-3.8910652425
 30
0.0
 10
6.9745322004
 20
-4.0009431134
 30
0.0
 10
6.8296380274
 20
-4.158362665
 30
0.0
 10
6.7114667562
 20
-4.3509280404
 30
0.0
 10
6.6536488255
 20
-4.4931350477
 30
0.0
 10
6.6359454578
 20
-4.5634898754
 30
0.0
 11
7.6531732677
 21
-3.9827597254
 31
0.0
 11
7.6139324359
 21
-3.9182119699
 31
0.0
 11
7.5610345874
 21
-3.8724429079
 31
0.0
 11
7.5023609627
 21
-3.8395978049
 31
0.0
 11
7.4355540829
 21
-3.8224446205
 31
0.0
 11
7.3629951744
 21
-3.8205909845
 31
0.0
 11
7.2872980362
 21
-3.8332978609
 31
0.0
 11
7.131208
 21
-3.8982094383
 31
0.0
 11
6.9765056912
 21
-4.0088230682
 31
0.0
 11
6.8340953526
 21
-4.164220312
 31
0.0
 11
6.7166493614
 21
-4.3544992236
 31
0.0
 11
6.6359454578
 21
-4.5634898754
 31
0.0
  0
SPLINE
  5
519
100
AcDbEntity
  8
0
100
AcDbSpline
 62
252
  6
CONTINUOUS
 70
0
 71
3
 72
11
 73
7
 74
5
 42
0.0000001
 43
0.0000001
 44
0.0000000001
 12
-0.4619479804
 22
-0.3960989062
 32
0.0
 13
-0.1773150094
 23
-0.6462676505
 33
0.0
 40
0.0
 40
0.0
 40
0.0
 40
0.0
 40
0.2450440156
 40
0.5033055314
 40
0.7579591626
 40
1.0
 40
1.0
 40
1.0
 40
1.0
 10
8.0600794942
 20
-3.4699341097
 30
0.0
 10
8.0223469648
 20
-3.5022879985
 30
0.0
 10
7.9445601814
 20
-3.5678187583
 30
0.0
 10
7.8317249694
 20
-3.6822204571
 30
0.0
 10
7.7291522196
 20
-3.8167327233
 30
0.0
 10
7.6793798496
 20
-3.9244568734
 30
0.0
 10
7.6650740251
 20
-3.9765979279
 30
0.0
 11
8.0600794942
 21
-3.4699341097
 31
0.0
 11
7.947281177
 21
-3.5685713802
 31
0.0
 11
7.8328785472
 21
-3.6863070749
 31
0.0
 11
7.732094168
 21
-3.8240339279
 31
0.0
 11
7.6650740251
 21
-3.9765979279
 31
0.0
  0
SPLINE
  5
51A
100
AcDbEntity
  8
0
100
AcDbSpline
 62
252
  6
CONTINUOUS
 70
0
 71
3
 72
8
 73
4
 74
2
 42
0.0000001
 43
0.0000001
 44
0.0000000001
 12
-0.5440131866
 22
-0.4659009965
 32
0.0
 13
-0.5438963854
 23
-0.4663757483
 33
0.0
 40
0.0
 40
0.0
 40
0.0
 40
0.0
 40
1.0
 40
1.0
 40
1.0
 40
1.0
 10
8.6051734493
 20
-3.0085074462
 30
0.0
 10
8.4238357204
 20
-3.1638077784
 30
0.0
 10
8.2413782893
 20
-3.3144755269
 30
0.0
 10
8.0600794942
 20
-3.4699341097
 30
0.0
 11
8.6051734493
 21
-3.0085074462
 31
0.0
 11
8.0600794942
 21
-3.4699341097
 31
0.0
  0
SPLINE
  5
51B
100
AcDbEntity
  8
0
100
AcDbSpline
 62
252
  6
CONTINUOUS
 70
0
 71
3
 72
9
 73
5
 74
3
 42
0.0000001
 43
0.0000001
 44
0.0000000001
 12
0.5970488183
 22
0.5888105104
 32
0.0
 13
0.6129664407
 23
0.537111148
 33
0.0
 40
0.0
 40
0.0
 40
0.0
 40
0.0
 40
0.499968398
 40
1.0
 40
1.0
 40
1.0
 40
1.0
 10
7.9944743037
 20
-4.0581180028
 30
0.0
 10
8.0939761508
 20
-3.9599891202
 30
0.0
 10
8.2993628286
 20
-3.783273675
 30
0.0
 10
8.5030059188
 20
-3.6022322455
 30
0.0
 10
8.6051734493
 20
-3.5127080629
 30
0.0
 11
7.9944743037
 21
-4.0581180028
 31
0.0
 11
8.2989140055
 21
-3.7822034847
 31
0.0
 11
8.6051734493
 21
-3.5127080629
 31
0.0
  0
SPLINE
  5
51C
100
AcDbEntity
  8
0
100
AcDbSpline
 62
252
  6
CONTINUOUS
 70
0
 71
3
 72
11
 73
7
 74
5
 42
0.0000001
 43
0.0000001
 44
0.0000000001
 12
0.0
 22
0.3902274671
 32
0.0
 13
0.2930473187
 23
0.2888582091
 33
0.0
 40
0.0
 40
0.0
 40
0.0
 40
0.0
 40
0.2477795725
 40
0.4960551195
 40
0.7486644071
 40
1.0
 40
1.0
 40
1.0
 40
1.0
 10
7.8170201167
 20
-4.4424433709
 30
0.0
 10
7.8170201167
 20
-4.4102132393
 30
0.0
 10
7.8245848629
 20
-4.3410630439
 30
0.0
 10
7.863287646
 20
-4.2339776173
 30
0.0
 10
7.9228011243
 20
-4.1372987609
 30
0.0
 10
7.9699232298
 20
-4.0823181192
 30
0.0
 10
7.9944743037
 20
-4.0581180028
 30
0.0
 11
7.8170201167
 21
-4.4424433709
 31
0.0
 11
7.8290880671
 21
-4.3406822864
 31
0.0
 11
7.8664381772
 21
-4.2363832294
 31
0.0
 11
7.9247239361
 21
-4.1395946182
 31
0.0
 11
7.9944743037
 21
-4.0581180028
 31
0.0
  0
SPLINE
  5
51D
100
AcDbEntity
  8
0
100
AcDbSpline
 62
252
  6
CONTINUOUS
 70
0
 71
3
 72
10
 73
6
 74
4
 42
0.0000001
 43
0.0000001
 44
0.0000000001
 12
0.0
 22
0.6925764907
 32
0.0
 13
0.4020372949
 23
0.6860387954
 33
0.0
 40
0.0
 40
0.0
 40
0.0
 40
0.0
 40
0.3333333333
 40
0.6666666667
 40
1.0
 40
1.0
 40
1.0
 40
1.0
 10
18.5002663093
 20
-5.0586990913
 30
0.0
 10
18.5002663093
 20
-4.9817461479
 30
0.0
 10
18.5170854846
 20
-4.8183078682
 30
0.0
 10
18.5907874979
 20
-4.5655782744
 30
0.0
 10
18.6690022191
 20
-4.4031383732
 30
0.0
 10
18.7136730296
 20
-4.3269118404
 30
0.0
 11
18.5002663093
 21
-5.0586990913
 31
0.0
 11
18.5251643597
 21
-4.8170458392
 31
0.0
 11
18.5980575093
 21
-4.5670898981
 31
0.0
 11
18.7136730296
 21
-4.3269118404
 31
0.0
  0
SPLINE
  5
51E
100
AcDbEntity
  8
0
100
AcDbSpline
 62
252
  6
CONTINUOUS
 70
0
 71
3
 72
12
 73
8
 74
6
 42
0.0000001
 43
0.0000001
 44
0.0000000001
 12
1.4063236104
 22
-0.6330051675
 32
0.0
 13
1.151952169
 23
2.2889139339
 33
0.0
 40
0.0
 40
0.0
 40
0.0
 40
0.0
 40
0.2
 40
0.4
 40
0.6
 40
0.8
 40
1.0
 40
1.0
 40
1.0
 40
1.0
 10
16.2199716221
 20
-7.8555726735
 30
0.0
 10
16.3137265294
 20
-7.897773018
 30
0.0
 10
16.5249779143
 20
-7.9349626898
 30
0.0
 10
16.8790415193
 20
-7.841893148
 30
0.0
 10
17.23884715
 20
-7.6089998444
 30
0.0
 10
17.5704769302
 20
-7.2582369828
 30
0.0
 10
17.753060752
 20
-6.9661275027
 30
0.0
 10
17.8298575633
 20
-6.8135332404
 30
0.0
 11
16.2199716221
 21
-7.8555726735
 31
0.0
 11
16.5311756689
 21
-7.9101536816
 31
0.0
 11
16.8799985236
 21
-7.8185891877
 31
0.0
 11
17.2341511749
 21
-7.589354918
 31
0.0
 11
17.5608512556
 21
-7.2436700897
 31
0.0
 11
17.8298575633
 21
-6.8135332404
 31
0.0
  0
SPLINE
  5
51F
100
AcDbEntity
  8
0
100
AcDbSpline
 62
252
  6
CONTINUOUS
 70
0
 71
3
 72
12
 73
8
 74
6
 42
0.0000001
 43
0.0000001
 44
0.0000000001
 12
-1.1519522961
 22
1.0960326637
 32
0.0
 13
-1.4063237655
 23
-2.0892961276
 33
0.0
 40
0.0
 40
0.0
 40
0.0
 40
0.0
 40
0.2
 40
0.4
 40
0.6
 40
0.8
 40
1.0
 40
1.0
 40
1.0
 40
1.0
 10
17.8298576617
 20
-4.9251285276
 30
0.0
 10
17.753060842
 20
-4.8520596834
 30
0.0
 10
17.570477
 20
-4.7490212742
 30
0.0
 10
17.2388471832
 20
-4.7416711022
 30
0.0
 10
16.8790415128
 20
-4.8813674516
 30
0.0
 10
16.5249778688
 20
-5.154941536
 30
0.0
 10
16.3137264606
 20
-5.4108884488
 30
0.0
 10
16.2199715429
 20
-5.5501748573
 30
0.0
 11
17.8298576617
 21
-4.9251285276
 31
0.0
 11
17.5608513244
 21
-4.7735558478
 31
0.0
 11
17.2341512076
 21
-4.7661788558
 31
0.0
 11
16.8799985172
 21
-4.9036804074
 31
0.0
 11
16.5311756241
 21
-5.1733325835
 31
0.0
 11
16.2199715429
 21
-5.5501748573
 31
0.0
  0
SPLINE
  5
520
100
AcDbEntity
  8
0
100
AcDbSpline
 62
252
  6
CONTINUOUS
 70
0
 71
3
 72
466
 73
462
 74
460
 42
0.0000001
 43
0.0000001
 44
0.0000000001
 12
4.8564464833
 22
3.1081472564
 32
0.0
 13
-4.9420337552
 23
-1.9438439798
 33
0.0
 40
0.0
 40
0.0
 40
0.0
 40
0.0
 40
0.015625
 40
0.0234375
 40
0.03125
 40
0.0390625
 40
0.04296875
 40
0.046875
 40
0.05078125
 40
0.052734375
 40
0.0546875
 40
0.056640625
 40
0.05859375
 40
0.0595703125
 40
0.060546875
 40
0.0610351562
 40
0.0615234375
 40
0.0620117188
 40
0.0622558594
 40
0.0623779297
 40
0.0625
 40
0.0626220703
 40
0.0627441406
 40
0.0629882812
 40
0.0634765625
 40
0.0639648438
 40
0.064453125
 40
0.0654296875
 40
0.06640625
 40
0.068359375
 40
0.0703125
 40
0.072265625
 40
0.07421875
 40
0.078125
 40
0.08203125
 40
0.0859375
 40
0.09375
 40
0.1015625
 40
0.10546875
 40
0.109375
 40
0.11328125
 40
0.115234375
 40
0.1171875
 40
0.119140625
 40
0.12109375
 40
0.1220703125
 40
0.123046875
 40
0.1235351562
 40
0.1240234375
 40
0.1245117188
 40
0.1247558594
 40
0.125
 40
0.1252441406
 40
0.1254882812
 40
0.1259765625
 40
0.1264648438
 40
0.126953125
 40
0.1279296875
 40
0.12890625
 40
0.130859375
 40
0.1328125
 40
0.134765625
 40
0.13671875
 40
0.140625
 40
0.14453125
 40
0.1484375
 40
0.15625
 40
0.1640625
 40
0.16796875
 40
0.171875
 40
0.17578125
 40
0.177734375
 40
0.1796875
 40
0.181640625
 40
0.18359375
 40
0.1845703125
 40
0.185546875
 40
0.1865234375
 40
0.1870117188
 40
0.1872558594
 40
0.1875
 40
0.1877441406
 40
0.1879882812
 40
0.1884765625
 40
0.189453125
 40
0.1904296875
 40
0.19140625
 40
0.193359375
 40
0.1953125
 40
0.197265625
 40
0.19921875
 40
0.203125
 40
0.20703125
 40
0.2109375
 40
0.21875
 40
0.2265625
 40
0.23046875
 40
0.234375
 40
0.23828125
 40
0.2421875
 40
0.244140625
 40
0.24609375
 40
0.2470703125
 40
0.248046875
 40
0.2490234375
 40
0.2495117188
 40
0.2497558594
 40
0.25
 40
0.2502441406
 40
0.2504882812
 40
0.2509765625
 40
0.251953125
 40
0.2529296875
 40
0.25390625
 40
0.255859375
 40
0.2578125
 40
0.26171875
 40
0.265625
 40
0.26953125
 40
0.2734375
 40
0.28125
 40
0.2890625
 40
0.29296875
 40
0.296875
 40
0.30078125
 40
0.3046875
 40
0.306640625
 40
0.30859375
 40
0.3095703125
 40
0.310546875
 40
0.3115234375
 40
0.3120117188
 40
0.3122558594
 40
0.3125
 40
0.3127441406
 40
0.3129882812
 40
0.3134765625
 40
0.314453125
 40
0.3154296875
 40
0.31640625
 40
0.318359375
 40
0.3203125
 40
0.32421875
 40
0.328125
 40
0.33203125
 40
0.3359375
 40
0.34375
 40
0.3515625
 40
0.35546875
 40
0.359375
 40
0.36328125
 40
0.3671875
 40
0.369140625
 40
0.37109375
 40
0.3720703125
 40
0.373046875
 40
0.3740234375
 40
0.3745117188
 40
0.3747558594
 40
0.375
 40
0.3752441406
 40
0.3754882812
 40
0.3759765625
 40
0.376953125
 40
0.3779296875
 40
0.37890625
 40
0.380859375
 40
0.3828125
 40
0.38671875
 40
0.390625
 40
0.39453125
 40
0.3984375
 40
0.40625
 40
0.4140625
 40
0.41796875
 40
0.421875
 40
0.42578125
 40
0.427734375
 40
0.4296875
 40
0.431640625
 40
0.43359375
 40
0.4345703125
 40
0.435546875
 40
0.4365234375
 40
0.4370117188
 40
0.4372558594
 40
0.4375
 40
0.4377441406
 40
0.4379882812
 40
0.4384765625
 40
0.439453125
 40
0.4404296875
 40
0.44140625
 40
0.443359375
 40
0.4453125
 40
0.447265625
 40
0.44921875
 40
0.453125
 40
0.45703125
 40
0.4609375
 40
0.46875
 40
0.4765625
 40
0.48046875
 40
0.484375
 40
0.48828125
 40
0.490234375
 40
0.4921875
 40
0.494140625
 40
0.49609375
 40
0.4970703125
 40
0.498046875
 40
0.4985351562
 40
0.4990234375
 40
0.4995117188
 40
0.4997558594
 40
0.4998779297
 40
0.5
 40
0.5001220703
 40
0.5002441406
 40
0.5004882812
 40
0.5009765625
 40
0.5014648438
 40
0.501953125
 40
0.5029296875
 40
0.50390625
 40
0.505859375
 40
0.5078125
 40
0.509765625
 40
0.51171875
 40
0.515625
 40
0.51953125
 40
0.5234375
 40
0.53125
 40
0.5390625
 40
0.54296875
 40
0.546875
 40
0.55078125
 40
0.552734375
 40
0.5546875
 40
0.556640625
 40
0.55859375
 40
0.5595703125
 40
0.560546875
 40
0.5610351562
 40
0.5615234375
 40
0.5620117188
 40
0.5622558594
 40
0.5623779297
 40
0.5625
 40
0.5626220703
 40
0.5627441406
 40
0.5629882812
 40
0.5634765625
 40
0.5639648438
 40
0.564453125
 40
0.5654296875
 40
0.56640625
 40
0.568359375
 40
0.5703125
 40
0.572265625
 40
0.57421875
 40
0.578125
 40
0.58203125
 40
0.5859375
 40
0.59375
 40
0.6015625
 40
0.60546875
 40
0.609375
 40
0.61328125
 40
0.615234375
 40
0.6171875
 40
0.619140625
 40
0.62109375
 40
0.6220703125
 40
0.623046875
 40
0.6235351562
 40
0.6240234375
 40
0.6245117188
 40
0.6247558594
 40
0.6248779297
 40
0.625
 40
0.6251220703
 40
0.6252441406
 40
0.6254882812
 40
0.6259765625
 40
0.6264648438
 40
0.626953125
 40
0.6279296875
 40
0.62890625
 40
0.630859375
 40
0.6328125
 40
0.634765625
 40
0.63671875
 40
0.640625
 40
0.64453125
 40
0.6484375
 40
0.65625
 40
0.6640625
 40
0.66796875
 40
0.671875
 40
0.67578125
 40
0.677734375
 40
0.6796875
 40
0.681640625
 40
0.68359375
 40
0.6845703125
 40
0.685546875
 40
0.6860351562
 40
0.6865234375
 40
0.6870117188
 40
0.6872558594
 40
0.6873779297
 40
0.6875
 40
0.6876220703
 40
0.6877441406
 40
0.6879882812
 40
0.6884765625
 40
0.6889648438
 40
0.689453125
 40
0.6904296875
 40
0.69140625
 40
0.693359375
 40
0.6953125
 40
0.697265625
 40
0.69921875
 40
0.703125
 40
0.70703125
 40
0.7109375
 40
0.71875
 40
0.7265625
 40
0.73046875
 40
0.734375
 40
0.73828125
 40
0.740234375
 40
0.7421875
 40
0.744140625
 40
0.74609375
 40
0.7470703125
 40
0.748046875
 40
0.7485351562
 40
0.7490234375
 40
0.7495117188
 40
0.7497558594
 40
0.7498779297
 40
0.75
 40
0.7501220703
 40
0.7502441406
 40
0.7504882812
 40
0.7509765625
 40
0.7514648438
 40
0.751953125
 40
0.7529296875
 40
0.75390625
 40
0.755859375
 40
0.7578125
 40
0.759765625
 40
0.76171875
 40
0.765625
 40
0.76953125
 40
0.7734375
 40
0.78125
 40
0.7890625
 40
0.79296875
 40
0.796875
 40
0.80078125
 40
0.802734375
 40
0.8046875
 40
0.806640625
 40
0.80859375
 40
0.8095703125
 40
0.810546875
 40
0.8110351562
 40
0.8115234375
 40
0.8120117188
 40
0.8122558594
 40
0.8123779297
 40
0.8125
 40
0.8126220703
 40
0.8127441406
 40
0.8129882812
 40
0.8134765625
 40
0.8139648438
 40
0.814453125
 40
0.8154296875
 40
0.81640625
 40
0.818359375
 40
0.8203125
 40
0.822265625
 40
0.82421875
 40
0.828125
 40
0.83203125
 40
0.8359375
 40
0.84375
 40
0.8515625
 40
0.85546875
 40
0.859375
 40
0.86328125
 40
0.865234375
 40
0.8671875
 40
0.869140625
 40
0.87109375
 40
0.8720703125
 40
0.873046875
 40
0.8735351562
 40
0.8740234375
 40
0.8745117188
 40
0.8747558594
 40
0.8748779297
 40
0.875
 40
0.8751220703
 40
0.8752441406
 40
0.8754882812
 40
0.8759765625
 40
0.8764648438
 40
0.876953125
 40
0.8779296875
 40
0.87890625
 40
0.880859375
 40
0.8828125
 40
0.884765625
 40
0.88671875
 40
0.890625
 40
0.89453125
 40
0.8984375
 40
0.90625
 40
0.9140625
 40
0.91796875
 40
0.921875
 40
0.92578125
 40
0.927734375
 40
0.9296875
 40
0.931640625
 40
0.93359375
 40
0.9345703125
 40
0.935546875
 40
0.9360351562
 40
0.9365234375
 40
0.9370117188
 40
0.9372558594
 40
0.9373779297
 40
0.9375
 40
0.9376220703
 40
0.9377441406
 40
0.9379882812
 40
0.9384765625
 40
0.9389648438
 40
0.939453125
 40
0.9404296875
 40
0.94140625
 40
0.943359375
 40
0.9453125
 40
0.947265625
 40
0.94921875
 40
0.953125
 40
0.95703125
 40
0.9609375
 40
0.96875
 40
0.9765625
 40
0.984375
 40
0.9921875
 40
1.0
 40
1.0
 40
1.0
 40
1.0
 10
16.9375770871
 20
-8.2795155465
 30
0.0
 10
16.9628710792
 20
-8.2633272795
 30
0.0
 10
17.0008120673
 20
-8.2390448791
 30
0.0
 10
17.0514000515
 20
-8.2066683451
 30
0.0
 10
17.0893410397
 20
-8.1823859447
 30
0.0
 10
17.1209585298
 20
-8.162150611
 30
0.0
 10
17.1462525219
 20
-8.1459623441
 30
0.0
 10
17.1652230159
 20
-8.1338211436
 30
0.0
 10
17.1810317611
 20
-8.1237034775
 30
0.0
 10
17.1936787569
 20
-8.1156093425
 30
0.0
 10
17.2031640048
 20
-8.109538747
 30
0.0
 10
17.2126492488
 20
-8.1034681298
 30
0.0
 10
17.2205536305
 20
-8.0984093493
 30
0.0
 10
17.2268771099
 20
-8.0943621747
 30
0.0
 10
17.2308293437
 20
-8.0918330326
 30
0.0
 10
17.2339909951
 20
-8.0898089355
 30
0.0
 10
17.236362605
 20
-8.0882930079
 30
0.0
 10
17.2383377655
 20
-8.0870229105
 30
0.0
 10
17.2397226955
 20
-8.086147235
 30
0.0
 10
17.2405104653
 20
-8.0856259374
 30
0.0
 10
17.241111487
 20
-8.0852938725
 30
0.0
 10
17.2416735405
 20
-8.0847366304
 30
0.0
 10
17.2424365378
 20
-8.0840721853
 30
0.0
 10
17.24376545
 20
-8.082872811
 30
0.0
 10
17.2456672069
 20
-8.0811785517
 30
0.0
 10
17.2479478981
 20
-8.0791372512
 30
0.0
 10
17.2509893146
 20
-8.0764183776
 30
0.0
 10
17.2547909158
 20
-8.0730188062
 30
0.0
 10
17.2608735725
 20
-8.0675800393
 30
0.0
 10
17.2684768607
 20
-8.0607813929
 30
0.0
 10
17.2776008206
 20
-8.0526230977
 30
0.0
 10
17.2867247767
 20
-8.0444647809
 30
0.0
 10
17.2988900529
 20
-8.0335870328
 30
0.0
 10
17.3140966477
 20
-8.019989845
 30
0.0
 10
17.3323445615
 20
-8.0036732208
 30
0.0
 10
17.3566751133
 20
-7.9819177215
 30
0.0
 10
17.3870883031
 20
-7.9547233474
 30
0.0
 10
17.4175014929
 20
-7.9275289735
 30
0.0
 10
17.4418320446
 20
-7.905773474
 30
0.0
 10
17.4600799587
 20
-7.8894568502
 30
0.0
 10
17.4752865528
 20
-7.8758596614
 30
0.0
 10
17.4874518302
 20
-7.8649819153
 30
0.0
 10
17.4965757827
 20
-7.8568235922
 30
0.0
 10
17.505699756
 20
-7.8486653209
 30
0.0
 10
17.5133030027
 20
-7.8418666002
 30
0.0
 10
17.519385744
 20
-7.8364279846
 30
0.0
 10
17.5231871296
 20
-7.8330280282
 30
0.0
 10
17.5262289887
 20
-7.8303099448
 30
0.0
 10
17.5285083278
 20
-7.8282662301
 30
0.0
 10
17.530414315
 20
-7.8265795245
 30
0.0
 10
17.5319244414
 20
-7.8251934
 30
0.0
 10
17.5330971034
 20
-7.8242542526
 30
0.0
 10
17.5341168283
 20
-7.8229317014
 30
0.0
 10
17.5355298844
 20
-7.8213022277
 30
0.0
 10
17.5372778754
 20
-7.8192194356
 30
0.0
 10
17.53938331
 20
-7.8167397531
 30
0.0
 10
17.5421878159
 20
-7.8134266402
 30
0.0
 10
17.5456943866
 20
-7.8092876012
 30
0.0
 10
17.5513043753
 20
-7.8026638242
 30
0.0
 10
17.5583170411
 20
-7.794384554
 30
0.0
 10
17.566732163
 20
-7.7844492364
 30
0.0
 10
17.5751473054
 20
-7.7745139705
 30
0.0
 10
17.5863674882
 20
-7.7612669313
 30
0.0
 10
17.6003927191
 20
-7.7447081384
 30
0.0
 10
17.6172229951
 20
-7.7248375844
 30
0.0
 10
17.6396633635
 20
-7.6983435132
 30
0.0
 10
17.667713824
 20
-7.6652259241
 30
0.0
 10
17.6957642842
 20
-7.6321083347
 30
0.0
 10
17.7182046529
 20
-7.6056142639
 30
0.0
 10
17.7350349281
 20
-7.5857437086
 30
0.0
 10
17.7490601616
 20
-7.5691849199
 30
0.0
 10
17.7602803391
 20
-7.5559378722
 30
0.0
 10
17.7686954978
 20
-7.546002632
 30
0.0
 10
17.7771105586
 20
-7.5360672181
 30
0.0
 10
17.7841234144
 20
-7.5277882477
 30
0.0
 10
17.7897330155
 20
-7.5211638593
 30
0.0
 10
17.7939420839
 20
-7.5161988794
 30
0.0
 10
17.7974437007
 20
-7.5120508634
 30
0.0
 10
17.7999064898
 20
-7.5091679221
 30
0.0
 10
17.8012955958
 20
-7.5074882528
 30
0.0
 10
17.8023887008
 20
-7.5063194181
 30
0.0
 10
17.8032858049
 20
-7.5048030512
 30
0.0
 10
17.8045503111
 20
-7.5029024518
 30
0.0
 10
17.8067313433
 20
-7.4995199228
 30
0.0
 10
17.809863757
 20
-7.4947172669
 30
0.0
 10
17.8136155252
 20
-7.4889414407
 30
0.0
 10
17.8186203728
 20
-7.4812447541
 30
0.0
 10
17.8248755778
 20
-7.4716223808
 30
0.0
 10
17.8323821902
 20
-7.4600761823
 30
0.0
 10
17.8398887045
 20
-7.4485298101
 30
0.0
 10
17.8498974246
 20
-7.4331347078
 30
0.0
 10
17.8624083128
 20
-7.4138908091
 30
0.0
 10
17.8774213838
 20
-7.3907981396
 30
0.0
 10
17.8974388101
 20
-7.3600079106
 30
0.0
 10
17.9224605932
 20
-7.3215201251
 30
0.0
 10
17.9474823774
 20
-7.28303234
 30
0.0
 10
17.9674998019
 20
-7.2522421104
 30
0.0
 10
17.9825128781
 20
-7.2291494424
 30
0.0
 10
17.9975259243
 20
-7.2060567585
 30
0.0
 10
18.0100368898
 20
-7.1868129046
 30
0.0
 10
18.0200454524
 20
-7.171417711
 30
0.0
 10
18.0263012816
 20
-7.1617959665
 30
0.0
 10
18.0313048513
 20
-7.1540979949
 30
0.0
 10
18.035060523
 20
-7.1483260933
 30
0.0
 10
18.0381807235
 20
-7.1435111584
 30
0.0
 10
18.0403835583
 20
-7.1401505496
 30
0.0
 10
18.0416131312
 20
-7.1382148284
 30
0.0
 10
18.0426175391
 20
-7.1368063443
 30
0.0
 10
18.043307629
 20
-7.13523232
 30
0.0
 10
18.0443373865
 20
-7.1331913633
 30
0.0
 10
18.0460883798
 20
-7.1295927858
 30
0.0
 10
18.0486165053
 20
-7.1244660261
 30
0.0
 10
18.0516388247
 20
-7.118307894
 30
0.0
 10
18.0556725765
 20
-7.1100991541
 30
0.0
 10
18.0607133992
 20
-7.0998375092
 30
0.0
 10
18.0687794796
 20
-7.0834192797
 30
0.0
 10
18.0788618179
 20
-7.0628963548
 30
0.0
 10
18.0909607363
 20
-7.0382689042
 30
0.0
 10
18.1030596246
 20
-7.0136414376
 30
0.0
 10
18.1191914862
 20
-6.9808048212
 30
0.0
 10
18.1393563093
 20
-6.9397590485
 30
0.0
 10
18.159521135
 20
-6.8987132771
 30
0.0
 10
18.1756529923
 20
-6.8658766588
 30
0.0
 10
18.1877518936
 20
-6.8412491977
 30
0.0
 10
18.199850763
 20
-6.8166217265
 30
0.0
 10
18.2099332536
 20
-6.7960988654
 30
0.0
 10
18.2179990235
 20
-6.779680506
 30
0.0
 10
18.2230406363
 20
-6.7694191918
 30
0.0
 10
18.2270727664
 20
-6.7612097729
 30
0.0
 10
18.2301000405
 20
-6.7550537152
 30
0.0
 10
18.2326126637
 20
-6.7499204655
 30
0.0
 10
18.2343913312
 20
-6.7463334737
 30
0.0
 10
18.2353767478
 20
-6.7442739537
 30
0.0
 10
18.2362030387
 20
-6.7427569497
 30
0.0
 10
18.2366958981
 20
-6.741134307
 30
0.0
 10
18.2374693487
 20
-6.7390076314
 30
0.0
 10
18.2387686986
 20
-6.7352687809
 30
0.0
 10
18.2406532432
 20
-6.7299365416
 30
0.0
 10
18.2429025704
 20
-6.7235340126
 30
0.0
 10
18.2459059088
 20
-6.7149986491
 30
0.0
 10
18.2496586316
 20
-6.7043289853
 30
0.0
 10
18.2556637985
 20
-6.6872577799
 30
0.0
 10
18.2631699791
 20
-6.6659186852
 30
0.0
 10
18.272177515
 20
-6.6403118092
 30
0.0
 10
18.2811850191
 20
-6.6147049231
 30
0.0
 10
18.2931950356
 20
-6.5805624119
 30
0.0
 10
18.3082075521
 20
-6.5378842717
 30
0.0
 10
18.3232200715
 20
-6.4952061319
 30
0.0
 10
18.3352300833
 20
-6.46106362
 30
0.0
 10
18.3442376015
 20
-6.435456736
 30
0.0
 10
18.3532450842
 20
-6.4098498521
 30
0.0
 10
18.3607514302
 20
-6.3885107822
 30
0.0
 10
18.3667562598
 20
-6.371439526
 30
0.0
 10
18.3705098411
 20
-6.3607699916
 30
0.0
 10
18.3735114173
 20
-6.3522343625
 30
0.0
 10
18.3757661285
 20
-6.3458326449
 30
0.0
 10
18.3776338277
 20
-6.3404978669
 30
0.0
 10
18.3789632494
 20
-6.3367635484
 30
0.0
 10
18.3796885175
 20
-6.3346296114
 30
0.0
 10
18.380329378
 20
-6.3330292733
 30
0.0
 10
18.3805998015
 20
-6.331428497
 30
0.0
 10
18.3810895788
 20
-6.3292942815
 30
0.0
 10
18.3818864865
 20
-6.3255593331
 30
0.0
 10
18.3830564006
 20
-6.3202237297
 30
0.0
 10
18.3844468255
 20
-6.3138209897
 30
0.0
 10
18.3863054308
 20
-6.3052840087
 30
0.0
 10
18.3886270763
 20
-6.2946127805
 30
0.0
 10
18.3923426095
 20
-6.2775388164
 30
0.0
 10
18.3969867171
 20
-6.2561963609
 30
0.0
 10
18.4025597786
 20
-6.2305854145
 30
0.0
 10
18.4081328047
 20
-6.2049744681
 30
0.0
 10
18.4155635185
 20
-6.1708265395
 30
0.0
 10
18.4248519067
 20
-6.1281416288
 30
0.0
 10
18.434140296
 20
-6.0854567181
 30
0.0
 10
18.441571008
 20
-6.0513087894
 30
0.0
 10
18.4471440394
 20
-6.0256978433
 30
0.0
 10
18.4517882407
 20
-6.0043553869
 30
0.0
 10
18.4555035829
 20
-5.9872814247
 30
0.0
 10
18.458290141
 20
-5.9744759452
 30
0.0
 10
18.4610765025
 20
-5.9616704953
 30
0.0
 10
18.4633990829
 20
-5.9509991952
 30
0.0
 10
18.4652557757
 20
-5.9424623606
 30
0.0
 10
18.4666520423
 20
-5.9360591735
 30
0.0
 10
18.4678036791
 20
-5.9307249693
 30
0.0
 10
18.4686332149
 20
-5.9269875231
 30
0.0
 10
18.4690707137
 20
-5.9248573097
 30
0.0
 10
18.4695017201
 20
-5.9232442401
 30
0.0
 10
18.469539458
 20
-5.9216900735
 30
0.0
 10
18.4697269518
 20
-5.9195973053
 30
0.0
 10
18.4699911528
 20
-5.9159445337
 30
0.0
 10
18.4704019972
 20
-5.9107212838
 30
0.0
 10
18.470880708
 20
-5.9044555261
 30
0.0
 10
18.4715239852
 20
-5.8961004343
 30
0.0
 10
18.4723263673
 20
-5.8856568263
 30
0.0
 10
18.4732899607
 20
-5.8731243866
 30
0.0
 10
18.4742533575
 20
-5.8605919763
 30
0.0
 10
18.4755379552
 20
-5.8438820857
 30
0.0
 10
18.4771436788
 20
-5.8229947259
 30
0.0
 10
18.4790705572
 20
-5.7979298927
 30
0.0
 10
18.4816397249
 20
-5.7645101156
 30
0.0
 10
18.4848511857
 20
-5.722735394
 30
0.0
 10
18.488062646
 20
-5.6809606725
 30
0.0
 10
18.4906318145
 20
-5.6475408953
 30
0.0
 10
18.4925586906
 20
-5.6224760625
 30
0.0
 10
18.4941644215
 20
-5.6015887013
 30
0.0
 10
18.4954490043
 20
-5.5848788135
 30
0.0
 10
18.4964124466
 20
-5.5723463945
 30
0.0
 10
18.4973758693
 20
-5.5598139877
 30
0.0
 10
18.4981787824
 20
-5.5493702772
 30
0.0
 10
18.4988209766
 20
-5.5410153944
 30
0.0
 10
18.4992226583
 20
-5.5357933978
 30
0.0
 10
18.499543293
 20
-5.5316162467
 30
0.0
 10
18.4997857147
 20
-5.5284821618
 30
0.0
 10
18.4999815433
 20
-5.5258743103
 30
0.0
 10
18.50013077
 20
-5.5240411883
 30
0.0
 10
18.5001970764
 20
-5.5230055973
 30
0.0
 10
18.5003002337
 20
-5.5221953609
 30
0.0
 10
18.500199164
 20
-5.5215133434
 30
0.0
 10
18.5001356411
 20
-5.5205592625
 30
0.0
 10
18.4999912854
 20
-5.5189104587
 30
0.0
 10
18.4998024155
 20
-5.5165441305
 30
0.0
 10
18.4995683441
 20
-5.5137091997
 30
0.0
 10
18.4992588433
 20
-5.5099276633
 30
0.0
 10
18.4988710789
 20
-5.5052013005
 30
0.0
 10
18.4982511524
 20
-5.4976388083
 30
0.0
 10
18.4974760739
 20
-5.4881858
 30
0.0
 10
18.4965460527
 20
-5.4768421442
 30
0.0
 10
18.495616012
 20
-5.4654985007
 30
0.0
 10
18.4943759645
 20
-5.4503736384
 30
0.0
 10
18.4928259029
 20
-5.4314675619
 30
0.0
 10
18.4909658299
 20
-5.4087802696
 30
0.0
 10
18.4884857322
 20
-5.3785305467
 30
0.0
 10
18.4853856102
 20
-5.3407183929
 30
0.0
 10
18.4822854882
 20
-5.3029062392
 30
0.0
 10
18.4798053906
 20
-5.2726565162
 30
0.0
 10
18.4779453172
 20
-5.2499692242
 30
0.0
 10
18.4763952569
 20
-5.2310631468
 30
0.0
 10
18.4751552068
 20
-5.2159382863
 30
0.0
 10
18.4742251741
 20
-5.2045946372
 30
0.0
 10
18.4732951226
 20
-5.1932510024
 30
0.0
 10
18.4725201384
 20
-5.1837979287
 30
0.0
 10
18.4719000197
 20
-5.17623557
 30
0.0
 10
18.4715127445
 20
-5.1715088673
 30
0.0
 10
18.4712022395
 20
-5.1677280287
 30
0.0
 10
18.4709712358
 20
-5.1648909661
 30
0.0
 10
18.4707727681
 20
-5.1625313078
 30
0.0
 10
18.4706455459
 20
-5.1608705971
 30
0.0
 10
18.4705545709
 20
-5.1599355941
 30
0.0
 10
18.4705378252
 20
-5.1591949753
 30
0.0
 10
18.4703242758
 20
-5.1586048357
 30
0.0
 10
18.4701081907
 20
-5.1577654941
 30
0.0
 10
18.4696980577
 20
-5.1563211017
 30
0.0
 10
18.469128875
 20
-5.1542448985
 30
0.0
 10
18.4684386983
 20
-5.1517589273
 30
0.0
 10
18.4675209627
 20
-5.1484423875
 30
0.0
 10
18.4663729373
 20
-5.1442973673
 30
0.0
 10
18.4645365749
 20
-5.1376649691
 30
0.0
 10
18.4622409578
 20
-5.1293745969
 30
0.0
 10
18.4594862877
 20
-5.1194260965
 30
0.0
 10
18.4567315987
 20
-5.1094776105
 30
0.0
 10
18.4530586867
 20
-5.0962129574
 30
0.0
 10
18.4484675444
 20
-5.0796321428
 30
0.0
 10
18.4429581746
 20
-5.0597351645
 30
0.0
 10
18.4356123478
 20
-5.0332058604
 30
0.0
 10
18.4264300645
 20
-5.0000442302
 30
0.0
 10
18.4172477811
 20
-4.9668826
 30
0.0
 10
18.4099019545
 20
-4.9403532958
 30
0.0
 10
18.4043925843
 20
-4.9204563178
 30
0.0
 10
18.3998014432
 20
-4.9038755021
 30
0.0
 10
18.3961285286
 20
-4.8906108513
 30
0.0
 10
18.3933738474
 20
-4.8806623584
 30
0.0
 10
18.3906191484
 20
-4.8707138838
 30
0.0
 10
18.3883236211
 20
-4.8624234313
 30
0.0
 10
18.3864870755
 20
-4.8557911969
 30
0.0
 10
18.3853395164
 20
-4.8516457598
 30
0.0
 10
18.3844208236
 20
-4.8483300758
 30
0.0
 10
18.3837335712
 20
-4.8458414899
 30
0.0
 10
18.3831552393
 20
-4.8437734675
 30
0.0
 10
18.3827614391
 20
-4.842314471
 30
0.0
 10
18.3825191847
 20
-4.8414985289
 30
0.0
 10
18.3823860188
 20
-4.8408365134
 30
0.0
 10
18.3820673664
 20
-4.8403658485
 30
0.0
 10
18.3817071963
 20
-4.8396715501
 30
0.0
 10
18.3810467538
 20
-4.8384876257
 30
0.0
 10
18.3801190245
 20
-4.8367800468
 30
0.0
 10
18.3789990036
 20
-4.8347379112
 30
0.0
 10
18.3775079986
 20
-4.832012633
 30
0.0
 10
18.3756434356
 20
-4.8286068676
 30
0.0
 10
18.3726605856
 20
-4.8231571778
 30
0.0
 10
18.3689318684
 20
-4.8163452252
 30
0.0
 10
18.3644574741
 20
-4.8081708136
 30
0.0
 10
18.3599830621
 20
-4.7999964202
 30
0.0
 10
18.3540171855
 20
-4.7890972228
 30
0.0
 10
18.3465598377
 20
-4.7754732282
 30
0.0
 10
18.3376110213
 20
-4.7591244337
 30
0.0
 10
18.3256792658
 20
-4.7373260413
 30
0.0
 10
18.3107645714
 20
-4.7100780508
 30
0.0
 10
18.295849877
 20
-4.6828300603
 30
0.0
 10
18.2839181216
 20
-4.6610316678
 30
0.0
 10
18.2749693048
 20
-4.6446828738
 30
0.0
 10
18.2675119582
 20
-4.6310588778
 30
0.0
 10
18.2615460792
 20
-4.620159683
 30
0.0
 10
18.2570716745
 20
-4.6119852815
 30
0.0
 10
18.2525972526
 20
-4.6038109007
 30
0.0
 10
18.2488686214
 20
-4.5969988524
 30
0.0
 10
18.2458855962
 20
-4.5915493576
 30
0.0
 10
18.244021479
 20
-4.588143096
 30
0.0
 10
18.2425295587
 20
-4.5854188363
 30
0.0
 10
18.2414123341
 20
-4.5833735892
 30
0.0
 10
18.2404758559
 20
-4.5816757453
 30
0.0
 10
18.2398310318
 20
-4.5804744423
 30
0.0
 10
18.2394458371
 20
-4.5798079887
 30
0.0
 10
18.2392040521
 20
-4.5792517936
 30
0.0
 10
18.2387821849
 20
-4.5789110152
 30
0.0
 10
18.2382825099
 20
-4.5783815043
 30
0.0
 10
18.2373788121
 20
-4.5774898693
 30
0.0
 10
18.2361031161
 20
-4.5761978018
 30
0.0
 10
18.2345657317
 20
-4.5746551552
 30
0.0
 10
18.2325181734
 20
-4.5725955566
 30
0.0
 10
18.2299579422
 20
-4.5700219954
 30
0.0
 10
18.2258620101
 20
-4.5659037737
 30
0.0
 10
18.2207419447
 20
-4.5607561763
 30
0.0
 10
18.2145979306
 20
-4.5545789824
 30
0.0
 10
18.2084538993
 20
-4.5484018091
 30
0.0
 10
18.2002618636
 20
-4.5401655708
 30
0.0
 10
18.1900218169
 20
-4.5298702754
 30
0.0
 10
18.1777337617
 20
-4.5175159199
 30
0.0
 10
18.1613496878
 20
-4.5010434463
 30
0.0
 10
18.1408695956
 20
-4.4804528542
 30
0.0
 10
18.1203895033
 20
-4.4598622621
 30
0.0
 10
18.1040054296
 20
-4.4433897883
 30
0.0
 10
18.0917173741
 20
-4.4310354333
 30
0.0
 10
18.0814773284
 20
-4.4207401364
 30
0.0
 10
18.0732852906
 20
-4.4125039013
 30
0.0
 10
18.0671412656
 20
-4.4063267183
 30
0.0
 10
18.060997228
 20
-4.4001495606
 30
0.0
 10
18.0558772359
 20
-4.3950018505
 30
0.0
 10
18.0517811543
 20
-4.3908838587
 30
0.0
 10
18.0492213034
 20
-4.3883097125
 30
0.0
 10
18.0471729645
 20
-4.3862513145
 30
0.0
 10
18.0456379647
 20
-4.384705
 30
0.0
 10
18.0443548079
 20
-4.3834244085
 30
0.0
 10
18.0434644289
 20
-4.3825122869
 30
0.0
 10
18.0429434139
 20
-4.3820156007
 30
0.0
 10
18.0425870964
 20
-4.3815739955
 30
0.0
 10
18.0420991173
 20
-4.3813964891
 30
0.0
 10
18.0414944036
 20
-4.3810676934
 30
0.0
 10
18.0404147572
 20
-4.3805352215
 30
0.0
 10
18.038883592
 20
-4.3797521079
 30
0.0
 10
18.0370414055
 20
-4.3788219764
 30
0.0
 10
18.0345868292
 20
-4.3775784463
 30
0.0
 10
18.0315180363
 20
-4.3760251823
 30
0.0
 10
18.0266082876
 20
-4.373539318
 30
0.0
 10
18.0204709919
 20
-4.370432208
 30
0.0
 10
18.0131062841
 20
-4.3667035814
 30
0.0
 10
18.0057415638
 20
-4.3629749802
 30
0.0
 10
17.9959219411
 20
-4.358003503
 30
0.0
 10
17.9836474112
 20
-4.3517891595
 30
0.0
 10
17.9689179759
 20
-4.3443319461
 30
0.0
 10
17.9492787287
 20
-4.3343889953
 30
0.0
 10
17.9247296698
 20
-4.3219603066
 30
0.0
 10
17.9001806108
 20
-4.309531618
 30
0.0
 10
17.8805413636
 20
-4.299588667
 30
0.0
 10
17.8658119281
 20
-4.2921314541
 30
0.0
 10
17.853537399
 20
-4.285917109
 30
0.0
 10
17.8437177747
 20
-4.2809456353
 30
0.0
 10
17.8363530592
 20
-4.2772170233
 30
0.0
 10
17.8289883331
 20
-4.2734884368
 30
0.0
 10
17.8228510946
 20
-4.2703812022
 30
0.0
 10
17.8179412293
 20
-4.2678955918
 30
0.0
 10
17.8148727331
 20
-4.2663416818
 30
0.0
 10
17.8124175477
 20
-4.265099478
 30
0.0
 10
17.810577222
 20
-4.2641652945
 30
0.0
 10
17.8090402348
 20
-4.2633948586
 30
0.0
 10
17.8079709817
 20
-4.2628397548
 30
0.0
 10
17.8073496154
 20
-4.262547221
 30
0.0
 10
17.8069127878
 20
-4.2622583297
 30
0.0
 10
17.8063643537
 20
-4.2622350677
 30
0.0
 10
17.8056720379
 20
-4.2621113972
 30
0.0
 10
17.8044423473
 20
-4.2619381432
 30
0.0
 10
17.802695129
 20
-4.2616680681
 30
0.0
 10
17.8005944083
 20
-4.2613536384
 30
0.0
 10
17.797794865
 20
-4.2609310246
 30
0.0
 10
17.7942949504
 20
-4.2604039127
 30
0.0
 10
17.7886953584
 20
-4.2595598879
 30
0.0
 10
17.7816957753
 20
-4.2585050785
 30
0.0
 10
17.7732963154
 20
-4.2572392123
 30
0.0
 10
17.7648968449
 20
-4.2559733714
 30
0.0
 10
17.7536975546
 20
-4.2542855748
 30
0.0
 10
17.7396984405
 20
-4.252175832
 30
0.0
 10
17.7228995041
 20
-4.2496441393
 30
0.0
 10
17.700500922
 20
-4.2462685496
 30
0.0
 10
17.6725026945
 20
-4.2420490622
 30
0.0
 10
17.644504467
 20
-4.237829575
 30
0.0
 10
17.622105885
 20
-4.2344539851
 30
0.0
 10
17.6053069484
 20
-4.231922293
 30
0.0
 10
17.5913078349
 20
-4.2298125485
 30
0.0
 10
17.5801085433
 20
-4.2281247554
 30
0.0
 10
17.5717090766
 20
-4.2268589037
 30
0.0
 10
17.5633096025
 20
-4.225593078
 30
0.0
 10
17.5563100638
 20
-4.2245381425
 30
0.0
 10
17.5507103813
 20
-4.2236943749
 30
0.0
 10
17.5472106969
 20
-4.2231666086
 30
0.0
 10
17.5444106811
 20
-4.222745338
 30
0.0
 10
17.5423114038
 20
-4.2224268048
 30
0.0
 10
17.5405596694
 20
-4.2221695685
 30
0.0
 10
17.5393380409
 20
-4.2219733951
 30
0.0
 10
17.5386328075
 20
-4.2218864472
 30
0.0
 10
17.5381240522
 20
-4.221750385
 30
0.0
 10
17.5375381979
 20
-4.2218851525
 30
0.0
 10
17.5367839518
 20
-4.221970374
 30
0.0
 10
17.5354514912
 20
-4.2221635262
 30
0.0
 10
17.5335545268
 20
-4.2224164467
 30
0.0
 10
17.5312753657
 20
-4.2227298008
 30
0.0
 10
17.5282374635
 20
-4.223144166
 30
0.0
 10
17.5244397504
 20
-4.2236633005
 30
0.0
 10
17.5183635969
 20
-4.2244932573
 30
0.0
 10
17.5107683407
 20
-4.2255309292
 30
0.0
 10
17.5016540608
 20
-4.2267760386
 30
0.0
 10
17.4925397736
 20
-4.228021174
 30
0.0
 10
17.4803873932
 20
-4.2296813454
 30
0.0
 10
17.4651969167
 20
-4.2317565628
 30
0.0
 10
17.4469683454
 20
-4.2342468223
 30
0.0
 10
17.4226635836
 20
-4.2375671688
 30
0.0
 10
17.3922826313
 20
-4.2417176017
 30
0.0
 10
17.3619016789
 20
-4.2458680348
 30
0.0
 10
17.3375969171
 20
-4.2491883811
 30
0.0
 10
17.3193683457
 20
-4.2516786412
 30
0.0
 10
17.3041778697
 20
-4.2537538568
 30
0.0
 10
17.2920254884
 20
-4.2554140318
 30
0.0
 10
17.2829112039
 20
-4.2566591562
 30
0.0
 10
17.2737969138
 20
-4.2579043069
 30
0.0
 10
17.2662016893
 20
-4.2589418505
 30
0.0
 10
17.2601254711
 20
-4.259772069
 30
0.0
 10
17.2563279228
 20
-4.2602905374
 30
0.0
 10
17.2532896823
 20
-4.2607062697
 30
0.0
 10
17.2510115548
 20
-4.2610154472
 30
0.0
 10
17.2491113562
 20
-4.2612814353
 30
0.0
 10
17.2477846693
 20
-4.2614512595
 30
0.0
 10
17.2470211723
 20
-4.2615738584
 30
0.0
 10
17.2464637337
 20
-4.2615938145
 30
0.0
 10
17.2458482539
 20
-4.2618889647
 30
0.0
 10
17.2450478595
 20
-4.2621865075
 30
0.0
 10
17.2436377367
 20
-4.2627519312
 30
0.0
 10
17.2416282071
 20
-4.2635362973
 30
0.0
 10
17.2392146607
 20
-4.2644875449
 30
0.0
 10
17.2359973362
 20
-4.2657523793
 30
0.0
 10
17.231975428
 20
-4.2673346192
 30
0.0
 10
17.225540516
 20
-4.2698655342
 30
0.0
 10
17.2174968277
 20
-4.2730294074
 30
0.0
 10
17.2078444224
 20
-4.2768259569
 30
0.0
 10
17.1981920115
 20
-4.2806225327
 30
0.0
 10
17.1853221323
 20
-4.2856846246
 30
0.0
 10
17.1692347827
 20
-4.2920122426
 30
0.0
 10
17.1499299634
 20
-4.2996053829
 30
0.0
 10
17.1241902042
 20
-4.3097295704
 30
0.0
 10
17.0920155053
 20
-4.3223848046
 30
0.0
 10
17.0534058666
 20
-4.3375710857
 30
0.0
 10
17.0147962279
 20
-4.3527573668
 30
0.0
 10
16.9761865892
 20
-4.3679436478
 30
0.0
 10
16.95044683
 20
-4.3780678352
 30
0.0
 10
16.9375769505
 20
-4.3831299289
 30
0.0
 11
16.9375770871
 21
-8.2795155465
 31
0.0
 11
17.0134590634
 21
-8.2309507456
 31
0.0
 11
17.0514000515
 21
-8.2066683451
 31
0.0
 11
17.0893410397
 21
-8.1823859447
 31
0.0
 11
17.1272820278
 21
-8.1581035443
 31
0.0
 11
17.1462525219
 21
-8.145962344
 31
0.0
 11
17.165223016
 21
-8.1338211438
 31
0.0
 11
17.1841935101
 21
-8.1216799436
 31
0.0
 11
17.1936787571
 21
-8.1156093435
 31
0.0
 11
17.2031640041
 21
-8.1095387434
 31
0.0
 11
17.2126492512
 21
-8.1034681433
 31
0.0
 11
17.2221344982
 21
-8.0973975432
 31
0.0
 11
17.2268771217
 21
-8.0943622431
 31
0.0
 11
17.2316197452
 21
-8.091326943
 31
0.0
 11
17.233991057
 21
-8.089809293
 31
0.0
 11
17.2363623688
 21
-8.088291643
 31
0.0
 11
17.2387336805
 21
-8.086773993
 31
0.0
 11
17.2399193364
 21
-8.0860151679
 31
0.0
 11
17.2405121643
 21
-8.0856357554
 31
0.0
 11
17.2411049923
 21
-8.0852563429
 31
0.0
 11
17.2416752396
 21
-8.0847464484
 31
0.0
 11
17.2422454869
 21
-8.0842365539
 31
0.0
 11
17.2433859815
 21
-8.0832167649
 31
0.0
 11
17.2456669707
 21
-8.0811771868
 31
0.0
 11
17.24794796
 21
-8.0791376088
 31
0.0
 11
17.2502289492
 21
-8.0770980307
 31
0.0
 11
17.2547909277
 21
-8.0730188746
 31
0.0
 11
17.2593529061
 21
-8.0689397185
 31
0.0
 11
17.2684768631
 21
-8.0607814063
 31
0.0
 11
17.27760082
 21
-8.0526230941
 31
0.0
 11
17.2867247769
 21
-8.0444647818
 31
0.0
 11
17.2958487338
 21
-8.0363064696
 31
0.0
 11
17.3140966477
 21
-8.0199898452
 31
0.0
 11
17.3323445615
 21
-8.0036732208
 31
0.0
 11
17.3505924754
 21
-7.9873565963
 31
0.0
 11
17.3870883031
 21
-7.9547233475
 31
0.0
 11
17.4235841308
 21
-7.9220900986
 31
0.0
 11
17.4418320446
 21
-7.9057734742
 31
0.0
 11
17.4600799585
 21
-7.8894568497
 31
0.0
 11
17.4783278723
 21
-7.8731402253
 31
0.0
 11
17.4874518293
 21
-7.8649819131
 31
0.0
 11
17.4965757862
 21
-7.8568236009
 31
0.0
 11
17.5056997431
 21
-7.8486652886
 31
0.0
 11
17.5148237
 21
-7.8405069764
 31
0.0
 11
17.5193856785
 21
-7.8364278203
 31
0.0
 11
17.523947657
 21
-7.8323486642
 31
0.0
 11
17.5262286462
 21
-7.8303090861
 31
0.0
 11
17.5285096354
 21
-7.8282695081
 31
0.0
 11
17.5307906247
 21
-7.82622993
 31
0.0
 11
17.5319311193
 21
-7.825210141
 31
0.0
 11
17.5330716139
 21
-7.824190352
 31
0.0
 11
17.5341235062
 21
-7.8229484424
 31
0.0
 11
17.5351753984
 21
-7.8217065328
 31
0.0
 11
17.5372791829
 21
-7.8192227136
 31
0.0
 11
17.5393829675
 21
-7.8167388944
 31
0.0
 11
17.541486752
 21
-7.8142550752
 31
0.0
 11
17.5456943211
 21
-7.8092874369
 31
0.0
 11
17.5499018901
 21
-7.8043197985
 31
0.0
 11
17.5583170283
 21
-7.7943845217
 31
0.0
 11
17.5667321664
 21
-7.784449245
 31
0.0
 11
17.5751473045
 21
-7.7745139682
 31
0.0
 11
17.5835624427
 21
-7.7645786915
 31
0.0
 11
17.6003927189
 21
-7.744708138
 31
0.0
 11
17.6172229952
 21
-7.7248375845
 31
0.0
 11
17.6340532714
 21
-7.704967031
 31
0.0
 11
17.6677138239
 21
-7.665225924
 31
0.0
 11
17.7013743764
 21
-7.625484817
 31
0.0
 11
17.7182046527
 21
-7.6056142636
 31
0.0
 11
17.735034929
 21
-7.5857437101
 31
0.0
 11
17.7518652052
 21
-7.5658731566
 31
0.0
 11
17.7602803433
 21
-7.5559378798
 31
0.0
 11
17.7686954815
 21
-7.5460026031
 31
0.0
 11
17.7771106196
 21
-7.5360673263
 31
0.0
 11
17.7855257577
 21
-7.5261320496
 31
0.0
 11
17.7897333268
 21
-7.5211644112
 31
0.0
 11
17.7939408959
 21
-7.5161967728
 31
0.0
 11
17.7981484649
 21
-7.5112291345
 31
0.0
 11
17.8002522494
 21
-7.5087453153
 31
0.0
 11
17.8013041417
 21
-7.5075034057
 31
0.0
 11
17.802356034
 21
-7.5062614961
 31
0.0
 11
17.8032943509
 21
-7.5048182041
 31
0.0
 11
17.8042326677
 21
-7.5033749122
 31
0.0
 11
17.8061093015
 21
-7.5004883282
 31
0.0
 11
17.8098625689
 21
-7.4947151604
 31
0.0
 11
17.8136158364
 21
-7.4889419926
 31
0.0
 11
17.8173691039
 21
-7.4831688247
 31
0.0
 11
17.8248756389
 21
-7.471622489
 31
0.0
 11
17.8323821738
 21
-7.4600761534
 31
0.0
 11
17.8398887088
 21
-7.4485298177
 31
0.0
 11
17.8473952438
 21
-7.436983482
 31
0.0
 11
17.8624083137
 21
-7.4138908106
 31
0.0
 11
17.8774213836
 21
-7.3907981393
 31
0.0
 11
17.8924344535
 21
-7.3677054679
 31
0.0
 11
17.9224605934
 21
-7.3215201252
 31
0.0
 11
17.9524867332
 21
-7.2753347824
 31
0.0
 11
17.9674998032
 21
-7.2522421111
 31
0.0
 11
17.9825128731
 21
-7.2291494397
 31
0.0
 11
17.997525943
 21
-7.2060567684
 31
0.0
 11
18.0125390129
 21
-7.182964097
 31
0.0
 11
18.0200455479
 21
-7.1714177613
 31
0.0
 11
18.0275520829
 21
-7.1598714256
 31
0.0
 11
18.0313053504
 21
-7.1540982578
 31
0.0
 11
18.0350586178
 21
-7.1483250899
 31
0.0
 11
18.0388118853
 21
-7.1425519221
 31
0.0
 11
18.0406885191
 21
-7.1396653382
 31
0.0
 11
18.0416268359
 21
-7.1382220462
 31
0.0
 11
18.0425651528
 21
-7.1367787543
 31
0.0
 11
18.0433213337
 21
-7.1352395378
 31
0.0
 11
18.0440775146
 21
-7.1337003214
 31
0.0
 11
18.0455898765
 21
-7.1306218885
 31
0.0
 11
18.0486146001
 21
-7.1244650227
 31
0.0
 11
18.0516393238
 21
-7.1183081569
 31
0.0
 11
18.0546640474
 21
-7.1121512911
 31
0.0
 11
18.0607134947
 21
-7.0998375595
 31
0.0
 11
18.066762942
 21
-7.0875238279
 31
0.0
 11
18.0788618367
 21
-7.0628963647
 31
0.0
 11
18.0909607313
 21
-7.0382689015
 31
0.0
 11
18.1030596259
 21
-7.0136414383
 31
0.0
 11
18.1151585205
 21
-6.9890139751
 31
0.0
 11
18.1393563098
 21
-6.9397590488
 31
0.0
 11
18.163554099
 21
-6.8905041224
 31
0.0
 11
18.1756529937
 21
-6.8658766592
 31
0.0
 11
18.1877518883
 21
-6.841249196
 31
0.0
 11
18.1998507829
 21
-6.8166217328
 31
0.0
 11
18.2119496775
 21
-6.7919942696
 31
0.0
 11
18.2179991249
 21
-6.7796805381
 31
0.0
 11
18.2240485722
 21
-6.7673668065
 31
0.0
 11
18.2270732958
 21
-6.7612099407
 31
0.0
 11
18.2300980195
 21
-6.7550530749
 31
0.0
 11
18.2331227431
 21
-6.7488962091
 31
0.0
 11
18.234635105
 21
-6.7458177762
 31
0.0
 11
18.2353912859
 21
-6.7442785597
 31
0.0
 11
18.2361474668
 21
-6.7427393433
 31
0.0
 11
18.2367104362
 21
-6.741138913
 31
0.0
 11
18.2372734056
 21
-6.7395384828
 31
0.0
 11
18.2383993445
 21
-6.7363376223
 31
0.0
 11
18.2406512222
 21
-6.7299359013
 31
0.0
 11
18.2429030998
 21
-6.7235341803
 31
0.0
 11
18.2451549775
 21
-6.7171324593
 31
0.0
 11
18.2496587329
 21
-6.7043290174
 31
0.0
 11
18.2541624883
 21
-6.6915255754
 31
0.0
 11
18.263169999
 21
-6.6659186915
 31
0.0
 11
18.2721775097
 21
-6.6403118075
 31
0.0
 11
18.2811850205
 21
-6.6147049236
 31
0.0
 11
18.2901925312
 21
-6.5890980396
 31
0.0
 11
18.3082075526
 21
-6.5378842718
 31
0.0
 11
18.3262225741
 21
-6.4866705039
 31
0.0
 11
18.3352300848
 21
-6.46106362
 31
0.0
 11
18.3442375956
 21
-6.435456736
 31
0.0
 11
18.3532451063
 21
-6.4098498521
 31
0.0
 11
18.362252617
 21
-6.3842429681
 31
0.0
 11
18.3667563724
 21
-6.3714395262
 31
0.0
 11
18.3712601278
 21
-6.3586360842
 31
0.0
 11
18.3735120054
 21
-6.3522343632
 31
0.0
 11
18.3757638831
 21
-6.3458326422
 31
0.0
 11
18.3780157608
 21
-6.3394309212
 31
0.0
 11
18.3791416997
 21
-6.3362300608
 31
0.0
 11
18.3797046691
 21
-6.3346296305
 31
0.0
 11
18.3802676385
 21
-6.3330292003
 31
0.0
 11
18.3806159531
 21
-6.3314285161
 31
0.0
 11
18.3809642677
 21
-6.329827832
 31
0.0
 11
18.3816608969
 21
-6.3266264637
 31
0.0
 11
18.3830541553
 21
-6.320223727
 31
0.0
 11
18.3844474137
 21
-6.3138209904
 31
0.0
 11
18.385840672
 21
-6.3074182538
 31
0.0
 11
18.3886271888
 21
-6.2946127806
 31
0.0
 11
18.3914137056
 21
-6.2818073074
 31
0.0
 11
18.3969867392
 21
-6.256196361
 31
0.0
 11
18.4025597727
 21
-6.2305854145
 31
0.0
 11
18.4081328063
 21
-6.2049744681
 31
0.0
 11
18.4137058398
 21
-6.1793635216
 31
0.0
 11
18.4248519069
 21
-6.1281416288
 31
0.0
 11
18.435997974
 21
-6.0769197359
 31
0.0
 11
18.4415710076
 21
-6.0513087895
 31
0.0
 11
18.4471440411
 21
-6.025697843
 31
0.0
 11
18.4527170747
 21
-6.0000868966
 31
0.0
 11
18.4555035915
 21
-5.9872814234
 31
0.0
 11
18.4582901082
 21
-5.9744759502
 31
0.0
 11
18.461076625
 21
-5.9616704769
 31
0.0
 11
18.4638631418
 21
-5.9488650037
 31
0.0
 11
18.4652564002
 21
-5.9424622671
 31
0.0
 11
18.4666496586
 21
-5.9360595305
 31
0.0
 11
18.4680429169
 21
-5.9296567939
 31
0.0
 11
18.4687395461
 21
-5.9264554256
 31
0.0
 11
18.4690878607
 21
-5.9248547414
 31
0.0
 11
18.4694361753
 21
-5.9232540573
 31
0.0
 11
18.4695566051
 21
-5.9216875052
 31
0.0
 11
18.4696770349
 21
-5.9201209532
 31
0.0
 11
18.4699178944
 21
-5.9169878491
 31
0.0
 11
18.4703996135
 21
-5.9107216408
 31
0.0
 11
18.4708813325
 21
-5.9044554326
 31
0.0
 11
18.4713630516
 21
-5.8981892244
 31
0.0
 11
18.4723264898
 21
-5.8856568079
 31
0.0
 11
18.4732899279
 21
-5.8731243915
 31
0.0
 11
18.474253366
 21
-5.860591975
 31
0.0
 11
18.4752168042
 21
-5.8480595586
 31
0.0
 11
18.4771436805
 21
-5.8229947256
 31
0.0
 11
18.4790705568
 21
-5.7979298927
 31
0.0
 11
18.480997433
 21
-5.7728650598
 31
0.0
 11
18.4848511856
 21
-5.722735394
 31
0.0
 11
18.4887049382
 21
-5.6726057282
 31
0.0
 11
18.4906318145
 21
-5.6475408953
 31
0.0
 11
18.4925586907
 21
-5.6224760624
 31
0.0
 11
18.494485567
 21
-5.5974112295
 31
0.0
 11
18.4954490052
 21
-5.584878813
 31
0.0
 11
18.4964124433
 21
-5.5723463966
 31
0.0
 11
18.4973758815
 21
-5.5598139801
 31
0.0
 11
18.4983393196
 21
-5.5472815636
 31
0.0
 11
18.4988210387
 21
-5.5410153554
 31
0.0
 11
18.4993027577
 21
-5.5347491472
 31
0.0
 11
18.4995436173
 21
-5.5316160431
 31
0.0
 11
18.4997844768
 21
-5.528482939
 31
0.0
 11
18.5000253363
 21
-5.5253498348
 31
0.0
 11
18.5001457661
 21
-5.5237832828
 31
0.0
 11
18.500205981
 21
-5.5230000068
 31
0.0
 11
18.5002661959
 21
-5.5222167307
 31
0.0
 11
18.5002080686
 21
-5.5215077529
 31
0.0
 11
18.5001499413
 21
-5.520798775
 31
0.0
 11
18.5000336867
 21
-5.5193808192
 31
0.0
 11
18.4998011776
 21
-5.5165449077
 31
0.0
 11
18.4995686684
 21
-5.5137089962
 31
0.0
 11
18.4993361593
 21
-5.5108730846
 31
0.0
 11
18.498871141
 21
-5.5052012616
 31
0.0
 11
18.4984061227
 21
-5.4995294385
 31
0.0
 11
18.4974760861
 21
-5.4881857924
 31
0.0
 11
18.4965460495
 21
-5.4768421463
 31
0.0
 11
18.4956160129
 21
-5.4654985002
 31
0.0
 11
18.4946859763
 21
-5.4541548541
 31
0.0
 11
18.4928259031
 21
-5.4314675618
 31
0.0
 11
18.4909658298
 21
-5.4087802696
 31
0.0
 11
18.4891057566
 21
-5.3860929774
 31
0.0
 11
18.4853856102
 21
-5.3407183929
 31
0.0
 11
18.4816654638
 21
-5.2953438085
 31
0.0
 11
18.4798053906
 21
-5.2726565163
 31
0.0
 11
18.4779453174
 21
-5.249969224
 31
0.0
 11
18.4760852442
 21
-5.2272819318
 31
0.0
 11
18.4751552076
 21
-5.2159382857
 31
0.0
 11
18.474225171
 21
-5.2045946396
 31
0.0
 11
18.4732951344
 21
-5.1932509935
 31
0.0
 11
18.4723650978
 21
-5.1819073474
 31
0.0
 11
18.4719000795
 21
-5.1762355243
 31
0.0
 11
18.4714350612
 21
-5.1705637013
 31
0.0
 11
18.471202552
 21
-5.1677277897
 31
0.0
 11
18.4709700429
 21
-5.1648918782
 31
0.0
 11
18.4707375337
 21
-5.1620559667
 31
0.0
 11
18.4706212791
 21
-5.1606380109
 31
0.0
 11
18.4705631519
 21
-5.159929033
 31
0.0
 11
18.4705050246
 21
-5.1592200551
 31
0.0
 11
18.4703328568
 21
-5.1585982746
 31
0.0
 11
18.4701606889
 21
-5.157976494
 31
0.0
 11
18.4698163533
 21
-5.1567329329
 31
0.0
 11
18.4691276821
 21
-5.1542458106
 31
0.0
 11
18.4684390108
 21
-5.1517586883
 31
0.0
 11
18.4677503396
 21
-5.1492715661
 31
0.0
 11
18.4663729971
 21
-5.1442973215
 31
0.0
 11
18.4649956546
 21
-5.139323077
 31
0.0
 11
18.4622409695
 21
-5.129374588
 31
0.0
 11
18.4594862845
 21
-5.1194260989
 31
0.0
 11
18.4567315995
 21
-5.1094776098
 31
0.0
 11
18.4539769145
 21
-5.0995291208
 31
0.0
 11
18.4484675445
 21
-5.0796321427
 31
0.0
 11
18.4429581745
 21
-5.0597351645
 31
0.0
 11
18.4374488045
 21
-5.0398381864
 31
0.0
 11
18.4264300645
 21
-5.0000442302
 31
0.0
 11
18.4154113245
 21
-4.9602502739
 31
0.0
 11
18.4099019544
 21
-4.9403532958
 31
0.0
 11
18.4043925844
 21
-4.9204563177
 31
0.0
 11
18.3988832144
 21
-4.9005593396
 31
0.0
 11
18.3961285294
 21
-4.8906108505
 31
0.0
 11
18.3933738444
 21
-4.8806623614
 31
0.0
 11
18.3906191594
 21
-4.8707138724
 31
0.0
 11
18.3878644744
 21
-4.8607653833
 31
0.0
 11
18.3864871319
 21
-4.8557911388
 31
0.0
 11
18.3851097894
 21
-4.8508168943
 31
0.0
 11
18.3844211181
 21
-4.848329772
 31
0.0
 11
18.3837324469
 21
-4.8458426497
 31
0.0
 11
18.3830437756
 21
-4.8433555275
 31
0.0
 11
18.38269944
 21
-4.8421119663
 31
0.0
 11
18.3825272722
 21
-4.8414901858
 31
0.0
 11
18.3823551044
 21
-4.8408684052
 31
0.0
 11
18.3820754539
 21
-4.8403575054
 31
0.0
 11
18.3817958034
 21
-4.8398466056
 31
0.0
 11
18.3812365023
 21
-4.8388248059
 31
0.0
 11
18.3801179002
 21
-4.8367812066
 31
0.0
 11
18.3789992982
 21
-4.8347376073
 31
0.0
 11
18.3778806961
 21
-4.8326940081
 31
0.0
 11
18.3756434919
 21
-4.8286068095
 31
0.0
 11
18.3734062878
 21
-4.8245196109
 31
0.0
 11
18.3689318795
 21
-4.8163452138
 31
0.0
 11
18.3644574711
 21
-4.8081708166
 31
0.0
 11
18.3599830628
 21
-4.7999964194
 31
0.0
 11
18.3555086545
 21
-4.7918220223
 31
0.0
 11
18.3465598379
 21
-4.775473228
 31
0.0
 11
18.3376110213
 21
-4.7591244337
 31
0.0
 11
18.3286622047
 21
-4.7427756394
 31
0.0
 11
18.3107645714
 21
-4.7100780508
 31
0.0
 11
18.2928669382
 21
-4.6773804622
 31
0.0
 11
18.2839181215
 21
-4.6610316679
 31
0.0
 11
18.2749693049
 21
-4.6446828736
 31
0.0
 11
18.2660204883
 21
-4.6283340793
 31
0.0
 11
18.26154608
 21
-4.6201596821
 31
0.0
 11
18.2570716717
 21
-4.611985285
 31
0.0
 11
18.2525972634
 21
-4.6038108878
 31
0.0
 11
18.248122855
 21
-4.5956364907
 31
0.0
 11
18.2458856509
 21
-4.5915492921
 31
0.0
 11
18.2436484467
 21
-4.5874620935
 31
0.0
 11
18.2425298447
 21
-4.5854184942
 31
0.0
 11
18.2414112426
 21
-4.5833748949
 31
0.0
 11
18.2402926405
 21
-4.5813312957
 31
0.0
 11
18.2397333395
 21
-4.580309496
 31
0.0
 11
18.2394536889
 21
-4.5797985962
 31
0.0
 11
18.2391740384
 21
-4.5792876964
 31
0.0
 11
18.2387900367
 21
-4.5789016228
 31
0.0
 11
18.238406035
 21
-4.5785155492
 31
0.0
 11
18.2376380315
 21
-4.577743402
 31
0.0
 11
18.2361020246
 21
-4.5761991075
 31
0.0
 11
18.2345660177
 21
-4.5746548131
 31
0.0
 11
18.2330300107
 21
-4.5731105187
 31
0.0
 11
18.2299579969
 21
-4.5700219299
 31
0.0
 11
18.2268859831
 21
-4.5669333411
 31
0.0
 11
18.2207419554
 21
-4.5607561635
 31
0.0
 11
18.2145979277
 21
-4.5545789858
 31
0.0
 11
18.2084539
 21
-4.5484018082
 31
0.0
 11
18.2023098724
 21
-4.5422246305
 31
0.0
 11
18.190021817
 21
-4.5298702753
 31
0.0
 11
18.1777337617
 21
-4.51751592
 31
0.0
 11
18.1654457063
 21
-4.5051615647
 31
0.0
 11
18.1408695956
 21
-4.4804528542
 31
0.0
 11
18.1162934849
 21
-4.4557441436
 31
0.0
 11
18.1040054296
 21
-4.4433897883
 31
0.0
 11
18.0917173742
 21
-4.4310354331
 31
0.0
 11
18.0794293189
 21
-4.4186810778
 31
0.0
 11
18.0732852912
 21
-4.4125039002
 31
0.0
 11
18.0671412635
 21
-4.4063267225
 31
0.0
 11
18.0609972358
 21
-4.4001495449
 31
0.0
 11
18.0548532081
 21
-4.3939723673
 31
0.0
 11
18.0517811943
 21
-4.3908837784
 31
0.0
 11
18.0487091805
 21
-4.3877951896
 31
0.0
 11
18.0471731736
 21
-4.3862508952
 31
0.0
 11
18.0456371666
 21
-4.3847066008
 31
0.0
 11
18.0441011597
 21
-4.3831623064
 31
0.0
 11
18.0433331563
 21
-4.3823901592
 31
0.0
 11
18.0429491545
 21
-4.3820040856
 31
0.0
 11
18.0425651528
 21
-4.381618012
 31
0.0
 11
18.0421048579
 21
-4.3813849741
 31
0.0
 11
18.0416445631
 21
-4.3811519362
 31
0.0
 11
18.0407239734
 21
-4.3806858603
 31
0.0
 11
18.038882794
 21
-4.3797537087
 31
0.0
 11
18.0370416145
 21
-4.378821557
 31
0.0
 11
18.0352004351
 21
-4.3778894054
 31
0.0
 11
18.0315180763
 21
-4.3760251021
 31
0.0
 11
18.0278357174
 21
-4.3741607988
 31
0.0
 11
18.0204709997
 21
-4.3704321922
 31
0.0
 11
18.013106282
 21
-4.3667035856
 31
0.0
 11
18.0057415643
 21
-4.362974979
 31
0.0
 11
17.9983768467
 21
-4.3592463725
 31
0.0
 11
17.9836474113
 21
-4.3517891593
 31
0.0
 11
17.9689179759
 21
-4.3443319461
 31
0.0
 11
17.9541885405
 21
-4.3368747329
 31
0.0
 11
17.9247296697
 21
-4.3219603066
 31
0.0
 11
17.895270799
 21
-4.3070458803
 31
0.0
 11
17.8805413636
 21
-4.2995886671
 31
0.0
 11
17.8658119282
 21
-4.2921314539
 31
0.0
 11
17.8510824928
 21
-4.2846742408
 31
0.0
 11
17.8437177751
 21
-4.2809456342
 31
0.0
 11
17.8363530575
 21
-4.2772170276
 31
0.0
 11
17.8289883398
 21
-4.273488421
 31
0.0
 11
17.8216236221
 21
-4.2697598144
 31
0.0
 11
17.8179412632
 21
-4.2678955111
 31
0.0
 11
17.8142589044
 21
-4.2660312078
 31
0.0
 11
17.812417725
 21
-4.2650990562
 31
0.0
 11
17.8105765455
 21
-4.2641669045
 31
0.0
 11
17.8087353661
 21
-4.2632347529
 31
0.0
 11
17.8078147764
 21
-4.2627686771
 31
0.0
 11
17.8073544815
 21
-4.2625356391
 31
0.0
 11
17.8068941867
 21
-4.2623026012
 31
0.0
 11
17.8063692199
 21
-4.2622234859
 31
0.0
 11
17.8058442532
 21
-4.2621443705
 31
0.0
 11
17.8047943196
 21
-4.2619861397
 31
0.0
 11
17.8026944526
 21
-4.2616696781
 31
0.0
 11
17.8005945855
 21
-4.2613532166
 31
0.0
 11
17.7984947184
 21
-4.2610367551
 31
0.0
 11
17.7942949843
 21
-4.260403832
 31
0.0
 11
17.7900952502
 21
-4.2597709089
 31
0.0
 11
17.7816957819
 21
-4.2585050627
 31
0.0
 11
17.7732963137
 21
-4.2572392165
 31
0.0
 11
17.7648968454
 21
-4.2559733703
 31
0.0
 11
17.7564973771
 21
-4.2547075241
 31
0.0
 11
17.7396984406
 21
-4.2521758318
 31
0.0
 11
17.7228995041
 21
-4.2496441394
 31
0.0
 11
17.7061005676
 21
-4.247112447
 31
0.0
 11
17.6725026945
 21
-4.2420490623
 31
0.0
 11
17.6389048215
 21
-4.2369856775
 31
0.0
 11
17.622105885
 21
-4.2344539852
 31
0.0
 11
17.6053069484
 21
-4.2319222928
 31
0.0
 11
17.5885080119
 21
-4.2293906004
 31
0.0
 11
17.5801085437
 21
-4.2281247542
 31
0.0
 11
17.5717090754
 21
-4.226858908
 31
0.0
 11
17.5633096071
 21
-4.2255930619
 31
0.0
 11
17.5549101389
 21
-4.2243272157
 31
0.0
 11
17.5507104048
 21
-4.2236942926
 31
0.0
 11
17.5465106706
 21
-4.2230613695
 31
0.0
 11
17.5444108036
 21
-4.2227449079
 31
0.0
 11
17.5423109365
 21
-4.2224284464
 31
0.0
 11
17.5402110694
 21
-4.2221119849
 31
0.0
 11
17.5391611359
 21
-4.2219537541
 31
0.0
 11
17.5386361691
 21
-4.2218746387
 31
0.0
 11
17.5381112024
 21
-4.2217955233
 31
0.0
 11
17.5375415595
 21
-4.2218733439
 31
0.0
 11
17.5369719166
 21
-4.2219511645
 31
0.0
 11
17.5358326309
 21
-4.2221068058
 31
0.0
 11
17.5335540595
 21
-4.2224180883
 31
0.0
 11
17.5312754881
 21
-4.2227293707
 31
0.0
 11
17.5289969167
 21
-4.2230406532
 31
0.0
 11
17.5244397738
 21
-4.2236632182
 31
0.0
 11
17.519882631
 21
-4.2242857831
 31
0.0
 11
17.5107683453
 21
-4.225530913
 31
0.0
 11
17.5016540596
 21
-4.2267760429
 31
0.0
 11
17.4925397739
 21
-4.2280211728
 31
0.0
 11
17.4834254882
 21
-4.2292663027
 31
0.0
 11
17.4651969168
 21
-4.2317565625
 31
0.0
 11
17.4469683454
 21
-4.2342468223
 31
0.0
 11
17.428739774
 21
-4.2367370821
 31
0.0
 11
17.3922826313
 21
-4.2417176018
 31
0.0
 11
17.3558254885
 21
-4.2466981214
 31
0.0
 11
17.3375969171
 21
-4.2491883812
 31
0.0
 11
17.3193683457
 21
-4.251678641
 31
0.0
 11
17.3011397743
 21
-4.2541689008
 31
0.0
 11
17.2920254886
 21
-4.2554140307
 31
0.0
 11
17.2829112029
 21
-4.2566591606
 31
0.0
 11
17.2737969172
 21
-4.2579042905
 31
0.0
 11
17.2646826315
 21
-4.2591494204
 31
0.0
 11
17.2601254887
 21
-4.2597719853
 31
0.0
 11
17.2555683459
 21
-4.2603945503
 31
0.0
 11
17.2532897744
 21
-4.2607058328
 31
0.0
 11
17.251011203
 21
-4.2610171152
 31
0.0
 11
17.2487326316
 21
-4.2613283977
 31
0.0
 11
17.2475933459
 21
-4.261484039
 31
0.0
 11
17.247023703
 21
-4.2615618596
 31
0.0
 11
17.2464540602
 21
-4.2616396802
 31
0.0
 11
17.2458507846
 21
-4.2618769658
 31
0.0
 11
17.245247509
 21
-4.2621142515
 31
0.0
 11
17.2440409577
 21
-4.2625888228
 31
0.0
 11
17.2416278553
 21
-4.2635379653
 31
0.0
 11
17.2392147529
 21
-4.2644871079
 31
0.0
 11
17.2368016505
 21
-4.2654362505
 31
0.0
 11
17.2319754456
 21
-4.2673345356
 31
0.0
 11
17.2271492408
 21
-4.2692328207
 31
0.0
 11
17.2174968311
 21
-4.273029391
 31
0.0
 11
17.2078444214
 21
-4.2768259613
 31
0.0
 11
17.1981920118
 21
-4.2806225316
 31
0.0
 11
17.1885396021
 21
-4.2844191018
 31
0.0
 11
17.1692347827
 21
-4.2920122424
 31
0.0
 11
17.1499299634
 21
-4.2996053829
 31
0.0
 11
17.130625144
 21
-4.3071985235
 31
0.0
 11
17.0920155053
 21
-4.3223848046
 31
0.0
 11
17.0534058666
 21
-4.3375710857
 31
0.0
 11
17.0147962279
 21
-4.3527573668
 31
0.0
 11
16.9761865892
 21
-4.3679436478
 31
0.0
 11
16.9375769505
 21
-4.3831299289
 31
0.0
  0
SPLINE
  5
521
100
AcDbEntity
  8
0
100
AcDbSpline
 62
252
  6
CONTINUOUS
 70
0
 71
3
 72
466
 73
462
 74
460
 42
0.0000001
 43
0.0000001
 44
0.0000000001
 12
-4.8564464833
 22
-3.1081472564
 32
0.0
 13
4.9420337552
 23
1.9438439798
 33
0.0
 40
0.0
 40
0.0
 40
0.0
 40
0.0
 40
0.015625
 40
0.0234375
 40
0.03125
 40
0.0390625
 40
0.04296875
 40
0.046875
 40
0.05078125
 40
0.052734375
 40
0.0546875
 40
0.056640625
 40
0.05859375
 40
0.0595703125
 40
0.060546875
 40
0.0610351562
 40
0.0615234375
 40
0.0620117188
 40
0.0622558594
 40
0.0623779297
 40
0.0625
 40
0.0626220703
 40
0.0627441406
 40
0.0629882812
 40
0.0634765625
 40
0.0639648438
 40
0.064453125
 40
0.0654296875
 40
0.06640625
 40
0.068359375
 40
0.0703125
 40
0.072265625
 40
0.07421875
 40
0.078125
 40
0.08203125
 40
0.0859375
 40
0.09375
 40
0.1015625
 40
0.10546875
 40
0.109375
 40
0.11328125
 40
0.115234375
 40
0.1171875
 40
0.119140625
 40
0.12109375
 40
0.1220703125
 40
0.123046875
 40
0.1235351562
 40
0.1240234375
 40
0.1245117188
 40
0.1247558594
 40
0.125
 40
0.1252441406
 40
0.1254882812
 40
0.1259765625
 40
0.1264648438
 40
0.126953125
 40
0.1279296875
 40
0.12890625
 40
0.130859375
 40
0.1328125
 40
0.134765625
 40
0.13671875
 40
0.140625
 40
0.14453125
 40
0.1484375
 40
0.15625
 40
0.1640625
 40
0.16796875
 40
0.171875
 40
0.17578125
 40
0.177734375
 40
0.1796875
 40
0.181640625
 40
0.18359375
 40
0.1845703125
 40
0.185546875
 40
0.1865234375
 40
0.1870117188
 40
0.1872558594
 40
0.1875
 40
0.1877441406
 40
0.1879882812
 40
0.1884765625
 40
0.189453125
 40
0.1904296875
 40
0.19140625
 40
0.193359375
 40
0.1953125
 40
0.197265625
 40
0.19921875
 40
0.203125
 40
0.20703125
 40
0.2109375
 40
0.21875
 40
0.2265625
 40
0.23046875
 40
0.234375
 40
0.23828125
 40
0.2421875
 40
0.244140625
 40
0.24609375
 40
0.2470703125
 40
0.248046875
 40
0.2490234375
 40
0.2495117188
 40
0.2497558594
 40
0.25
 40
0.2502441406
 40
0.2504882812
 40
0.2509765625
 40
0.251953125
 40
0.2529296875
 40
0.25390625
 40
0.255859375
 40
0.2578125
 40
0.26171875
 40
0.265625
 40
0.26953125
 40
0.2734375
 40
0.28125
 40
0.2890625
 40
0.29296875
 40
0.296875
 40
0.30078125
 40
0.3046875
 40
0.306640625
 40
0.30859375
 40
0.3095703125
 40
0.310546875
 40
0.3115234375
 40
0.3120117188
 40
0.3122558594
 40
0.3125
 40
0.3127441406
 40
0.3129882812
 40
0.3134765625
 40
0.314453125
 40
0.3154296875
 40
0.31640625
 40
0.318359375
 40
0.3203125
 40
0.32421875
 40
0.328125
 40
0.33203125
 40
0.3359375
 40
0.34375
 40
0.3515625
 40
0.35546875
 40
0.359375
 40
0.36328125
 40
0.3671875
 40
0.369140625
 40
0.37109375
 40
0.3720703125
 40
0.373046875
 40
0.3740234375
 40
0.3745117188
 40
0.3747558594
 40
0.375
 40
0.3752441406
 40
0.3754882812
 40
0.3759765625
 40
0.376953125
 40
0.3779296875
 40
0.37890625
 40
0.380859375
 40
0.3828125
 40
0.38671875
 40
0.390625
 40
0.39453125
 40
0.3984375
 40
0.40625
 40
0.4140625
 40
0.41796875
 40
0.421875
 40
0.42578125
 40
0.427734375
 40
0.4296875
 40
0.431640625
 40
0.43359375
 40
0.4345703125
 40
0.435546875
 40
0.4365234375
 40
0.4370117188
 40
0.4372558594
 40
0.4375
 40
0.4377441406
 40
0.4379882812
 40
0.4384765625
 40
0.439453125
 40
0.4404296875
 40
0.44140625
 40
0.443359375
 40
0.4453125
 40
0.447265625
 40
0.44921875
 40
0.453125
 40
0.45703125
 40
0.4609375
 40
0.46875
 40
0.4765625
 40
0.48046875
 40
0.484375
 40
0.48828125
 40
0.490234375
 40
0.4921875
 40
0.494140625
 40
0.49609375
 40
0.4970703125
 40
0.498046875
 40
0.4985351562
 40
0.4990234375
 40
0.4995117188
 40
0.4997558594
 40
0.4998779297
 40
0.5
 40
0.5001220703
 40
0.5002441406
 40
0.5004882812
 40
0.5009765625
 40
0.5014648438
 40
0.501953125
 40
0.5029296875
 40
0.50390625
 40
0.505859375
 40
0.5078125
 40
0.509765625
 40
0.51171875
 40
0.515625
 40
0.51953125
 40
0.5234375
 40
0.53125
 40
0.5390625
 40
0.54296875
 40
0.546875
 40
0.55078125
 40
0.552734375
 40
0.5546875
 40
0.556640625
 40
0.55859375
 40
0.5595703125
 40
0.560546875
 40
0.5610351562
 40
0.5615234375
 40
0.5620117188
 40
0.5622558594
 40
0.5623779297
 40
0.5625
 40
0.5626220703
 40
0.5627441406
 40
0.5629882812
 40
0.5634765625
 40
0.5639648438
 40
0.564453125
 40
0.5654296875
 40
0.56640625
 40
0.568359375
 40
0.5703125
 40
0.572265625
 40
0.57421875
 40
0.578125
 40
0.58203125
 40
0.5859375
 40
0.59375
 40
0.6015625
 40
0.60546875
 40
0.609375
 40
0.61328125
 40
0.615234375
 40
0.6171875
 40
0.619140625
 40
0.62109375
 40
0.6220703125
 40
0.623046875
 40
0.6235351562
 40
0.6240234375
 40
0.6245117188
 40
0.6247558594
 40
0.6248779297
 40
0.625
 40
0.6251220703
 40
0.6252441406
 40
0.6254882812
 40
0.6259765625
 40
0.6264648438
 40
0.626953125
 40
0.6279296875
 40
0.62890625
 40
0.630859375
 40
0.6328125
 40
0.634765625
 40
0.63671875
 40
0.640625
 40
0.64453125
 40
0.6484375
 40
0.65625
 40
0.6640625
 40
0.66796875
 40
0.671875
 40
0.67578125
 40
0.677734375
 40
0.6796875
 40
0.681640625
 40
0.68359375
 40
0.6845703125
 40
0.685546875
 40
0.6860351562
 40
0.6865234375
 40
0.6870117188
 40
0.6872558594
 40
0.6873779297
 40
0.6875
 40
0.6876220703
 40
0.6877441406
 40
0.6879882812
 40
0.6884765625
 40
0.6889648438
 40
0.689453125
 40
0.6904296875
 40
0.69140625
 40
0.693359375
 40
0.6953125
 40
0.697265625
 40
0.69921875
 40
0.703125
 40
0.70703125
 40
0.7109375
 40
0.71875
 40
0.7265625
 40
0.73046875
 40
0.734375
 40
0.73828125
 40
0.740234375
 40
0.7421875
 40
0.744140625
 40
0.74609375
 40
0.7470703125
 40
0.748046875
 40
0.7485351562
 40
0.7490234375
 40
0.7495117188
 40
0.7497558594
 40
0.7498779297
 40
0.75
 40
0.7501220703
 40
0.7502441406
 40
0.7504882812
 40
0.7509765625
 40
0.7514648438
 40
0.751953125
 40
0.7529296875
 40
0.75390625
 40
0.755859375
 40
0.7578125
 40
0.759765625
 40
0.76171875
 40
0.765625
 40
0.76953125
 40
0.7734375
 40
0.78125
 40
0.7890625
 40
0.79296875
 40
0.796875
 40
0.80078125
 40
0.802734375
 40
0.8046875
 40
0.806640625
 40
0.80859375
 40
0.8095703125
 40
0.810546875
 40
0.8110351562
 40
0.8115234375
 40
0.8120117188
 40
0.8122558594
 40
0.8123779297
 40
0.8125
 40
0.8126220703
 40
0.8127441406
 40
0.8129882812
 40
0.8134765625
 40
0.8139648438
 40
0.814453125
 40
0.8154296875
 40
0.81640625
 40
0.818359375
 40
0.8203125
 40
0.822265625
 40
0.82421875
 40
0.828125
 40
0.83203125
 40
0.8359375
 40
0.84375
 40
0.8515625
 40
0.85546875
 40
0.859375
 40
0.86328125
 40
0.865234375
 40
0.8671875
 40
0.869140625
 40
0.87109375
 40
0.8720703125
 40
0.873046875
 40
0.8735351562
 40
0.8740234375
 40
0.8745117188
 40
0.8747558594
 40
0.8748779297
 40
0.875
 40
0.8751220703
 40
0.8752441406
 40
0.8754882812
 40
0.8759765625
 40
0.8764648438
 40
0.876953125
 40
0.8779296875
 40
0.87890625
 40
0.880859375
 40
0.8828125
 40
0.884765625
 40
0.88671875
 40
0.890625
 40
0.89453125
 40
0.8984375
 40
0.90625
 40
0.9140625
 40
0.91796875
 40
0.921875
 40
0.92578125
 40
0.927734375
 40
0.9296875
 40
0.931640625
 40
0.93359375
 40
0.9345703125
 40
0.935546875
 40
0.9360351562
 40
0.9365234375
 40
0.9370117188
 40
0.9372558594
 40
0.9373779297
 40
0.9375
 40
0.9376220703
 40
0.9377441406
 40
0.9379882812
 40
0.9384765625
 40
0.9389648438
 40
0.939453125
 40
0.9404296875
 40
0.94140625
 40
0.943359375
 40
0.9453125
 40
0.947265625
 40
0.94921875
 40
0.953125
 40
0.95703125
 40
0.9609375
 40
0.96875
 40
0.9765625
 40
0.984375
 40
0.9921875
 40
1.0
 40
1.0
 40
1.0
 40
1.0
 10
16.9375770871
 20
-4.3831298582
 30
0.0
 10
16.912283095
 20
-4.3993181252
 30
0.0
 10
16.8743421068
 20
-4.4236005256
 30
0.0
 10
16.8237541226
 20
-4.4559770595
 30
0.0
 10
16.7858131345
 20
-4.48025946
 30
0.0
 10
16.7541956444
 20
-4.5004947937
 30
0.0
 10
16.7289016522
 20
-4.5166830606
 30
0.0
 10
16.7099311582
 20
-4.528824261
 30
0.0
 10
16.694122413
 20
-4.5389419272
 30
0.0
 10
16.6814754172
 20
-4.5470360621
 30
0.0
 10
16.6719901694
 20
-4.5531066577
 30
0.0
 10
16.6625049253
 20
-4.5591772748
 30
0.0
 10
16.6546005436
 20
-4.5642360553
 30
0.0
 10
16.6482770643
 20
-4.56828323
 30
0.0
 10
16.6443248305
 20
-4.570812372
 30
0.0
 10
16.641163179
 20
-4.5728364692
 30
0.0
 10
16.6387915692
 20
-4.5743523968
 30
0.0
 10
16.6368164087
 20
-4.5756224942
 30
0.0
 10
16.6354314786
 20
-4.5764981697
 30
0.0
 10
16.6346437089
 20
-4.5770194673
 30
0.0
 10
16.6340426872
 20
-4.5773515322
 30
0.0
 10
16.6334806336
 20
-4.5779087743
 30
0.0
 10
16.6327176364
 20
-4.5785732194
 30
0.0
 10
16.6313887242
 20
-4.5797725936
 30
0.0
 10
16.6294869672
 20
-4.581466853
 30
0.0
 10
16.627206276
 20
-4.5835081534
 30
0.0
 10
16.6241648595
 20
-4.5862270271
 30
0.0
 10
16.6203632583
 20
-4.5896265985
 30
0.0
 10
16.6142806017
 20
-4.5950653654
 30
0.0
 10
16.6066773134
 20
-4.6018640118
 30
0.0
 10
16.5975533535
 20
-4.610022307
 30
0.0
 10
16.5884293974
 20
-4.6181806238
 30
0.0
 10
16.5762641212
 20
-4.6290583719
 30
0.0
 10
16.5610575265
 20
-4.6426555597
 30
0.0
 10
16.5428096126
 20
-4.6589721839
 30
0.0
 10
16.5184790608
 20
-4.6807276832
 30
0.0
 10
16.4880658711
 20
-4.7079220572
 30
0.0
 10
16.4576526813
 20
-4.7351164312
 30
0.0
 10
16.4333221296
 20
-4.7568719306
 30
0.0
 10
16.4150742155
 20
-4.7731885545
 30
0.0
 10
16.3998676213
 20
-4.7867857433
 30
0.0
 10
16.387702344
 20
-4.7976634893
 30
0.0
 10
16.3785783914
 20
-4.8058218124
 30
0.0
 10
16.3694544182
 20
-4.8139800838
 30
0.0
 10
16.3618511714
 20
-4.8207788044
 30
0.0
 10
16.3557684301
 20
-4.82621742
 30
0.0
 10
16.3519670445
 20
-4.8296173764
 30
0.0
 10
16.3489251854
 20
-4.8323354598
 30
0.0
 10
16.3466458463
 20
-4.8343791746
 30
0.0
 10
16.3447398592
 20
-4.8360658802
 30
0.0
 10
16.3432297327
 20
-4.8374520047
 30
0.0
 10
16.3420570707
 20
-4.8383911521
 30
0.0
 10
16.3410373459
 20
-4.8397137033
 30
0.0
 10
16.3396242898
 20
-4.841343177
 30
0.0
 10
16.3378762988
 20
-4.8434259691
 30
0.0
 10
16.3357708641
 20
-4.8459056515
 30
0.0
 10
16.3329663582
 20
-4.8492187645
 30
0.0
 10
16.3294597875
 20
-4.8533578035
 30
0.0
 10
16.3238497988
 20
-4.8599815805
 30
0.0
 10
16.316837133
 20
-4.8682608507
 30
0.0
 10
16.3084220112
 20
-4.8781961683
 30
0.0
 10
16.3000068687
 20
-4.8881314342
 30
0.0
 10
16.288786686
 20
-4.9013784734
 30
0.0
 10
16.2747614551
 20
-4.9179372662
 30
0.0
 10
16.257931179
 20
-4.9378078203
 30
0.0
 10
16.2354908106
 20
-4.9643018914
 30
0.0
 10
16.2074403502
 20
-4.9974194806
 30
0.0
 10
16.1793898899
 20
-5.03053707
 30
0.0
 10
16.1569495212
 20
-5.0570311407
 30
0.0
 10
16.140119246
 20
-5.0769016961
 30
0.0
 10
16.1260940125
 20
-5.0934604848
 30
0.0
 10
16.1148738351
 20
-5.1067075324
 30
0.0
 10
16.1064586763
 20
-5.1166427726
 30
0.0
 10
16.0980436156
 20
-5.1265781866
 30
0.0
 10
16.0910307597
 20
-5.134857157
 30
0.0
 10
16.0854211586
 20
-5.1414815453
 30
0.0
 10
16.0812120903
 20
-5.1464465253
 30
0.0
 10
16.0777104735
 20
-5.1505945413
 30
0.0
 10
16.0752476844
 20
-5.1534774825
 30
0.0
 10
16.0738585783
 20
-5.1551571519
 30
0.0
 10
16.0727654734
 20
-5.1563259865
 30
0.0
 10
16.0718683692
 20
-5.1578423534
 30
0.0
 10
16.070603863
 20
-5.1597429528
 30
0.0
 10
16.0684228309
 20
-5.1631254819
 30
0.0
 10
16.0652904172
 20
-5.1679281377
 30
0.0
 10
16.061538649
 20
-5.173703964
 30
0.0
 10
16.0565338014
 20
-5.1814006506
 30
0.0
 10
16.0502785963
 20
-5.1910230239
 30
0.0
 10
16.042771984
 20
-5.2025692224
 30
0.0
 10
16.0352654696
 20
-5.2141155946
 30
0.0
 10
16.0252567496
 20
-5.2295106969
 30
0.0
 10
16.0127458613
 20
-5.2487545955
 30
0.0
 10
15.9977327903
 20
-5.271847265
 30
0.0
 10
15.9777153641
 20
-5.3026374941
 30
0.0
 10
15.952693581
 20
-5.3411252796
 30
0.0
 10
15.9276717968
 20
-5.3796130647
 30
0.0
 10
15.9076543723
 20
-5.4104032943
 30
0.0
 10
15.892641296
 20
-5.4334959623
 30
0.0
 10
15.8776282499
 20
-5.4565886462
 30
0.0
 10
15.8651172844
 20
-5.4758325001
 30
0.0
 10
15.8551087218
 20
-5.4912276937
 30
0.0
 10
15.8488528926
 20
-5.5008494381
 30
0.0
 10
15.8438493229
 20
-5.5085474097
 30
0.0
 10
15.8400936511
 20
-5.5143193113
 30
0.0
 10
15.8369734506
 20
-5.5191342463
 30
0.0
 10
15.8347706158
 20
-5.5224948551
 30
0.0
 10
15.8335410429
 20
-5.5244305762
 30
0.0
 10
15.832536635
 20
-5.5258390604
 30
0.0
 10
15.8318465451
 20
-5.5274130846
 30
0.0
 10
15.8308167877
 20
-5.5294540414
 30
0.0
 10
15.8290657943
 20
-5.5330526189
 30
0.0
 10
15.8265376688
 20
-5.5381793786
 30
0.0
 10
15.8235153495
 20
-5.5443375106
 30
0.0
 10
15.8194815976
 20
-5.5525462506
 30
0.0
 10
15.8144407749
 20
-5.5628078955
 30
0.0
 10
15.8063746945
 20
-5.5792261249
 30
0.0
 10
15.7962923562
 20
-5.5997490498
 30
0.0
 10
15.7841934378
 20
-5.6243765005
 30
0.0
 10
15.7720945495
 20
-5.649003967
 30
0.0
 10
15.7559626879
 20
-5.6818405835
 30
0.0
 10
15.7357978649
 20
-5.7228863561
 30
0.0
 10
15.7156330391
 20
-5.7639321276
 30
0.0
 10
15.6995011819
 20
-5.7967687459
 30
0.0
 10
15.6874022805
 20
-5.821396207
 30
0.0
 10
15.6753034111
 20
-5.8460236781
 30
0.0
 10
15.6652209205
 20
-5.8665465393
 30
0.0
 10
15.6571551506
 20
-5.8829648987
 30
0.0
 10
15.6521135378
 20
-5.8932262129
 30
0.0
 10
15.6480814078
 20
-5.9014356317
 30
0.0
 10
15.6450541336
 20
-5.9075916895
 30
0.0
 10
15.6425415104
 20
-5.9127249392
 30
0.0
 10
15.6407628429
 20
-5.916311931
 30
0.0
 10
15.6397774263
 20
-5.9183714509
 30
0.0
 10
15.6389511354
 20
-5.9198884549
 30
0.0
 10
15.638458276
 20
-5.9215110976
 30
0.0
 10
15.6376848255
 20
-5.9236377733
 30
0.0
 10
15.6363854755
 20
-5.9273766238
 30
0.0
 10
15.6345009309
 20
-5.932708863
 30
0.0
 10
15.6322516037
 20
-5.9391113921
 30
0.0
 10
15.6292482653
 20
-5.9476467556
 30
0.0
 10
15.6254955426
 20
-5.9583164194
 30
0.0
 10
15.6194903756
 20
-5.9753876247
 30
0.0
 10
15.611984195
 20
-5.9967267195
 30
0.0
 10
15.6029766591
 20
-6.0223335955
 30
0.0
 10
15.5939691551
 20
-6.0479404815
 30
0.0
 10
15.5819591385
 20
-6.0820829927
 30
0.0
 10
15.5669466221
 20
-6.124761133
 30
0.0
 10
15.5519341027
 20
-6.1674392728
 30
0.0
 10
15.5399240909
 20
-6.2015817847
 30
0.0
 10
15.5309165727
 20
-6.2271886686
 30
0.0
 10
15.5219090899
 20
-6.2527955526
 30
0.0
 10
15.5144027439
 20
-6.2741346225
 30
0.0
 10
15.5083979143
 20
-6.2912058786
 30
0.0
 10
15.504644333
 20
-6.3018754131
 30
0.0
 10
15.5016427569
 20
-6.3104110421
 30
0.0
 10
15.4993880457
 20
-6.3168127598
 30
0.0
 10
15.4975203464
 20
-6.3221475378
 30
0.0
 10
15.4961909247
 20
-6.3258818563
 30
0.0
 10
15.4954656566
 20
-6.3280157933
 30
0.0
 10
15.4948247962
 20
-6.3296161314
 30
0.0
 10
15.4945543726
 20
-6.3312169077
 30
0.0
 10
15.4940645954
 20
-6.3333511232
 30
0.0
 10
15.4932676877
 20
-6.3370860716
 30
0.0
 10
15.4920977735
 20
-6.342421675
 30
0.0
 10
15.4907073487
 20
-6.3488244149
 30
0.0
 10
15.4888487434
 20
-6.357361396
 30
0.0
 10
15.4865270979
 20
-6.3680326242
 30
0.0
 10
15.4828115646
 20
-6.3851065883
 30
0.0
 10
15.4781674571
 20
-6.4064490437
 30
0.0
 10
15.4725943955
 20
-6.4320599901
 30
0.0
 10
15.4670213694
 20
-6.4576709366
 30
0.0
 10
15.4595906556
 20
-6.4918188652
 30
0.0
 10
15.4503022675
 20
-6.5345037759
 30
0.0
 10
15.4410138782
 20
-6.5771886866
 30
0.0
 10
15.4335831661
 20
-6.6113366153
 30
0.0
 10
15.4280101347
 20
-6.6369475614
 30
0.0
 10
15.4233659334
 20
-6.6582900178
 30
0.0
 10
15.4196505913
 20
-6.67536398
 30
0.0
 10
15.4168640332
 20
-6.6881694594
 30
0.0
 10
15.4140776716
 20
-6.7009749094
 30
0.0
 10
15.4117550913
 20
-6.7116462094
 30
0.0
 10
15.4098983985
 20
-6.720183044
 30
0.0
 10
15.4085021318
 20
-6.7265862312
 30
0.0
 10
15.4073504951
 20
-6.7319204354
 30
0.0
 10
15.4065209592
 20
-6.7356578816
 30
0.0
 10
15.4060834605
 20
-6.737788095
 30
0.0
 10
15.4056524541
 20
-6.7394011645
 30
0.0
 10
15.4056147161
 20
-6.7409553312
 30
0.0
 10
15.4054272224
 20
-6.7430480994
 30
0.0
 10
15.4051630214
 20
-6.746700871
 30
0.0
 10
15.4047521769
 20
-6.7519241209
 30
0.0
 10
15.4042734661
 20
-6.7581898785
 30
0.0
 10
15.4036301889
 20
-6.7665449704
 30
0.0
 10
15.4028278069
 20
-6.7769885784
 30
0.0
 10
15.4018642135
 20
-6.7895210181
 30
0.0
 10
15.4009008167
 20
-6.8020534284
 30
0.0
 10
15.399616219
 20
-6.818763319
 30
0.0
 10
15.3980104954
 20
-6.8396506788
 30
0.0
 10
15.396083617
 20
-6.864715512
 30
0.0
 10
15.3935144493
 20
-6.8981352891
 30
0.0
 10
15.3903029884
 20
-6.9399100107
 30
0.0
 10
15.3870915281
 20
-6.9816847322
 30
0.0
 10
15.3845223596
 20
-7.0151045094
 30
0.0
 10
15.3825954836
 20
-7.0401693422
 30
0.0
 10
15.3809897527
 20
-7.0610567034
 30
0.0
 10
15.3797051698
 20
-7.0777665911
 30
0.0
 10
15.3787417276
 20
-7.0902990102
 30
0.0
 10
15.3777783049
 20
-7.1028314169
 30
0.0
 10
15.3769753917
 20
-7.1132751274
 30
0.0
 10
15.3763331975
 20
-7.1216300103
 30
0.0
 10
15.3759315159
 20
-7.1268520069
 30
0.0
 10
15.3756108812
 20
-7.131029158
 30
0.0
 10
15.3753684594
 20
-7.1341632429
 30
0.0
 10
15.3751726308
 20
-7.1367710944
 30
0.0
 10
15.3750234041
 20
-7.1386042164
 30
0.0
 10
15.3749570977
 20
-7.1396398074
 30
0.0
 10
15.3748539404
 20
-7.1404500437
 30
0.0
 10
15.3749550101
 20
-7.1411320613
 30
0.0
 10
15.3750185331
 20
-7.1420861422
 30
0.0
 10
15.3751628887
 20
-7.143734946
 30
0.0
 10
15.3753517587
 20
-7.1461012742
 30
0.0
 10
15.37558583
 20
-7.1489362049
 30
0.0
 10
15.3758953309
 20
-7.1527177413
 30
0.0
 10
15.3762830952
 20
-7.1574441041
 30
0.0
 10
15.3769030217
 20
-7.1650065963
 30
0.0
 10
15.3776781003
 20
-7.1744596046
 30
0.0
 10
15.3786081214
 20
-7.1858032604
 30
0.0
 10
15.3795381621
 20
-7.197146904
 30
0.0
 10
15.3807782096
 20
-7.2122717663
 30
0.0
 10
15.3823282713
 20
-7.2311778427
 30
0.0
 10
15.3841883443
 20
-7.2538651351
 30
0.0
 10
15.3866684419
 20
-7.284114858
 30
0.0
 10
15.3897685639
 20
-7.3219270117
 30
0.0
 10
15.392868686
 20
-7.3597391654
 30
0.0
 10
15.3953487835
 20
-7.3899888884
 30
0.0
 10
15.3972088569
 20
-7.4126761805
 30
0.0
 10
15.3987589173
 20
-7.4315822578
 30
0.0
 10
15.3999989674
 20
-7.4467071183
 30
0.0
 10
15.400929
 20
-7.4580507675
 30
0.0
 10
15.4018590515
 20
-7.4693944022
 30
0.0
 10
15.4026340358
 20
-7.478847476
 30
0.0
 10
15.4032541545
 20
-7.4864098346
 30
0.0
 10
15.4036414297
 20
-7.4911365374
 30
0.0
 10
15.4039519346
 20
-7.494917376
 30
0.0
 10
15.4041829384
 20
-7.4977544386
 30
0.0
 10
15.404381406
 20
-7.5001140968
 30
0.0
 10
15.4045086282
 20
-7.5017748076
 30
0.0
 10
15.4045996032
 20
-7.5027098105
 30
0.0
 10
15.404616349
 20
-7.5034504294
 30
0.0
 10
15.4048298983
 20
-7.504040569
 30
0.0
 10
15.4050459834
 20
-7.5048799106
 30
0.0
 10
15.4054561165
 20
-7.5063243029
 30
0.0
 10
15.4060252992
 20
-7.5084005062
 30
0.0
 10
15.4067154758
 20
-7.5108864774
 30
0.0
 10
15.4076332114
 20
-7.5142030172
 30
0.0
 10
15.4087812369
 20
-7.5183480374
 30
0.0
 10
15.4106175992
 20
-7.5249804356
 30
0.0
 10
15.4129132163
 20
-7.5332708077
 30
0.0
 10
15.4156678865
 20
-7.5432193082
 30
0.0
 10
15.4184225754
 20
-7.5531677942
 30
0.0
 10
15.4220954875
 20
-7.5664324473
 30
0.0
 10
15.4266866298
 20
-7.5830132619
 30
0.0
 10
15.4321959996
 20
-7.6029102402
 30
0.0
 10
15.4395418263
 20
-7.6294395443
 30
0.0
 10
15.4487241097
 20
-7.6626011745
 30
0.0
 10
15.457906393
 20
-7.6957628047
 30
0.0
 10
15.4652522197
 20
-7.7222921089
 30
0.0
 10
15.4707615899
 20
-7.7421890868
 30
0.0
 10
15.4753527309
 20
-7.7587699025
 30
0.0
 10
15.4790256455
 20
-7.7720345534
 30
0.0
 10
15.4817803268
 20
-7.7819830463
 30
0.0
 10
15.4845350258
 20
-7.7919315209
 30
0.0
 10
15.486830553
 20
-7.8002219734
 30
0.0
 10
15.4886670986
 20
-7.8068542077
 30
0.0
 10
15.4898146578
 20
-7.8109996449
 30
0.0
 10
15.4907333505
 20
-7.8143153288
 30
0.0
 10
15.491420603
 20
-7.8168039148
 30
0.0
 10
15.4919989348
 20
-7.8188719372
 30
0.0
 10
15.4923927351
 20
-7.8203309337
 30
0.0
 10
15.4926349894
 20
-7.8211468757
 30
0.0
 10
15.4927681553
 20
-7.8218088912
 30
0.0
 10
15.4930868077
 20
-7.8222795561
 30
0.0
 10
15.4934469779
 20
-7.8229738546
 30
0.0
 10
15.4941074204
 20
-7.824157779
 30
0.0
 10
15.4950351496
 20
-7.8258653579
 30
0.0
 10
15.4961551705
 20
-7.8279074935
 30
0.0
 10
15.4976461755
 20
-7.8306327716
 30
0.0
 10
15.4995107386
 20
-7.834038537
 30
0.0
 10
15.5024935886
 20
-7.8394882269
 30
0.0
 10
15.5062223057
 20
-7.8463001795
 30
0.0
 10
15.5106967
 20
-7.8544745911
 30
0.0
 10
15.5151711121
 20
-7.8626489844
 30
0.0
 10
15.5211369886
 20
-7.8735481819
 30
0.0
 10
15.5285943364
 20
-7.8871721765
 30
0.0
 10
15.5375431528
 20
-7.903520971
 30
0.0
 10
15.5494749084
 20
-7.9253193634
 30
0.0
 10
15.5643896027
 20
-7.9525673539
 30
0.0
 10
15.5793042971
 20
-7.9798153444
 30
0.0
 10
15.5912360526
 20
-8.0016137368
 30
0.0
 10
15.6001848694
 20
-8.0179625309
 30
0.0
 10
15.607642216
 20
-8.0315865269
 30
0.0
 10
15.6136080949
 20
-8.0424857216
 30
0.0
 10
15.6180824996
 20
-8.0506601231
 30
0.0
 10
15.6225569215
 20
-8.058834504
 30
0.0
 10
15.6262855528
 20
-8.0656465523
 30
0.0
 10
15.629268578
 20
-8.0710960471
 30
0.0
 10
15.6311326951
 20
-8.0745023087
 30
0.0
 10
15.6326246154
 20
-8.0772265684
 30
0.0
 10
15.63374184
 20
-8.0792718154
 30
0.0
 10
15.6346783182
 20
-8.0809696594
 30
0.0
 10
15.6353231424
 20
-8.0821709623
 30
0.0
 10
15.635708337
 20
-8.082837416
 30
0.0
 10
15.635950122
 20
-8.0833936111
 30
0.0
 10
15.6363719893
 20
-8.0837343894
 30
0.0
 10
15.6368716643
 20
-8.0842639003
 30
0.0
 10
15.6377753621
 20
-8.0851555354
 30
0.0
 10
15.639051058
 20
-8.0864476028
 30
0.0
 10
15.6405884424
 20
-8.0879902495
 30
0.0
 10
15.6426360008
 20
-8.090049848
 30
0.0
 10
15.645196232
 20
-8.0926234093
 30
0.0
 10
15.6492921641
 20
-8.096741631
 30
0.0
 10
15.6544122295
 20
-8.1018892284
 30
0.0
 10
15.6605562436
 20
-8.1080664223
 30
0.0
 10
15.6667002749
 20
-8.1142435956
 30
0.0
 10
15.6748923106
 20
-8.1224798339
 30
0.0
 10
15.6851323573
 20
-8.1327751292
 30
0.0
 10
15.6974204124
 20
-8.1451294847
 30
0.0
 10
15.7138044863
 20
-8.1616019583
 30
0.0
 10
15.7342845785
 20
-8.1821925505
 30
0.0
 10
15.7547646708
 20
-8.2027831426
 30
0.0
 10
15.7711487446
 20
-8.2192556164
 30
0.0
 10
15.7834368001
 20
-8.2316099714
 30
0.0
 10
15.7936768458
 20
-8.2419052683
 30
0.0
 10
15.8018688835
 20
-8.2501415034
 30
0.0
 10
15.8080129085
 20
-8.2563186864
 30
0.0
 10
15.8141569462
 20
-8.262495844
 30
0.0
 10
15.8192769383
 20
-8.2676435541
 30
0.0
 10
15.8233730198
 20
-8.271761546
 30
0.0
 10
15.8259328708
 20
-8.2743356921
 30
0.0
 10
15.8279812097
 20
-8.2763940901
 30
0.0
 10
15.8295162095
 20
-8.2779404047
 30
0.0
 10
15.8307993662
 20
-8.2792209961
 30
0.0
 10
15.8316897452
 20
-8.2801331178
 30
0.0
 10
15.8322107603
 20
-8.280629804
 30
0.0
 10
15.8325670778
 20
-8.2810714092
 30
0.0
 10
15.8330550568
 20
-8.2812489155
 30
0.0
 10
15.8336597706
 20
-8.2815777113
 30
0.0
 10
15.834739417
 20
-8.2821101832
 30
0.0
 10
15.8362705821
 20
-8.2828932968
 30
0.0
 10
15.8381127687
 20
-8.2838234283
 30
0.0
 10
15.8405673449
 20
-8.2850669584
 30
0.0
 10
15.8436361379
 20
-8.2866202223
 30
0.0
 10
15.8485458866
 20
-8.2891060866
 30
0.0
 10
15.8546831823
 20
-8.2922131967
 30
0.0
 10
15.86204789
 20
-8.2959418232
 30
0.0
 10
15.8694126104
 20
-8.2996704245
 30
0.0
 10
15.8792322331
 20
-8.3046419017
 30
0.0
 10
15.891506763
 20
-8.3108562452
 30
0.0
 10
15.9062361982
 20
-8.3183134586
 30
0.0
 10
15.9258754455
 20
-8.3282564094
 30
0.0
 10
15.9504245044
 20
-8.3406850981
 30
0.0
 10
15.9749735634
 20
-8.3531137866
 30
0.0
 10
15.9946128105
 20
-8.3630567376
 30
0.0
 10
16.009342246
 20
-8.3705139505
 30
0.0
 10
16.0216167751
 20
-8.3767282957
 30
0.0
 10
16.0314363995
 20
-8.3816997694
 30
0.0
 10
16.0388011149
 20
-8.3854283813
 30
0.0
 10
16.046165841
 20
-8.3891569678
 30
0.0
 10
16.0523030795
 20
-8.3922642024
 30
0.0
 10
16.0572129448
 20
-8.3947498128
 30
0.0
 10
16.0602814411
 20
-8.3963037229
 30
0.0
 10
16.0627366264
 20
-8.3975459267
 30
0.0
 10
16.0645769521
 20
-8.3984801102
 30
0.0
 10
16.0661139393
 20
-8.3992505461
 30
0.0
 10
16.0671831924
 20
-8.3998056498
 30
0.0
 10
16.0678045588
 20
-8.4000981837
 30
0.0
 10
16.0682413864
 20
-8.400387075
 30
0.0
 10
16.0687898204
 20
-8.400410337
 30
0.0
 10
16.0694821362
 20
-8.4005340075
 30
0.0
 10
16.0707118269
 20
-8.4007072615
 30
0.0
 10
16.0724590451
 20
-8.4009773366
 30
0.0
 10
16.0745597659
 20
-8.4012917663
 30
0.0
 10
16.0773593092
 20
-8.4017143801
 30
0.0
 10
16.0808592238
 20
-8.402241492
 30
0.0
 10
16.0864588158
 20
-8.4030855168
 30
0.0
 10
16.0934583989
 20
-8.4041403262
 30
0.0
 10
16.1018578587
 20
-8.4054061924
 30
0.0
 10
16.1102573292
 20
-8.4066720332
 30
0.0
 10
16.1214566195
 20
-8.4083598299
 30
0.0
 10
16.1354557336
 20
-8.4104695727
 30
0.0
 10
16.15225467
 20
-8.4130012653
 30
0.0
 10
16.1746532521
 20
-8.4163768551
 30
0.0
 10
16.2026514796
 20
-8.4205963424
 30
0.0
 10
16.2306497072
 20
-8.4248158296
 30
0.0
 10
16.2530482892
 20
-8.4281914196
 30
0.0
 10
16.2698472258
 20
-8.4307231117
 30
0.0
 10
16.2838463393
 20
-8.4328328562
 30
0.0
 10
16.2950456308
 20
-8.4345206493
 30
0.0
 10
16.3034450975
 20
-8.4357865009
 30
0.0
 10
16.3118445716
 20
-8.4370523267
 30
0.0
 10
16.3188441104
 20
-8.4381072621
 30
0.0
 10
16.3244437928
 20
-8.4389510298
 30
0.0
 10
16.3279434772
 20
-8.439478796
 30
0.0
 10
16.330743493
 20
-8.4399000667
 30
0.0
 10
16.3328427703
 20
-8.4402185999
 30
0.0
 10
16.3345945047
 20
-8.4404758362
 30
0.0
 10
16.3358161332
 20
-8.4406720096
 30
0.0
 10
16.3365213666
 20
-8.4407589574
 30
0.0
 10
16.337030122
 20
-8.4408950196
 30
0.0
 10
16.3376159763
 20
-8.4407602522
 30
0.0
 10
16.3383702224
 20
-8.4406750307
 30
0.0
 10
16.339702683
 20
-8.4404818784
 30
0.0
 10
16.3415996473
 20
-8.440228958
 30
0.0
 10
16.3438788085
 20
-8.4399156039
 30
0.0
 10
16.3469167107
 20
-8.4395012387
 30
0.0
 10
16.3507144238
 20
-8.4389821042
 30
0.0
 10
16.3567905773
 20
-8.4381521474
 30
0.0
 10
16.3643858335
 20
-8.4371144755
 30
0.0
 10
16.3735001133
 20
-8.4358693661
 30
0.0
 10
16.3826144006
 20
-8.4346242307
 30
0.0
 10
16.394766781
 20
-8.4329640593
 30
0.0
 10
16.4099572574
 20
-8.4308888419
 30
0.0
 10
16.4281858287
 20
-8.4283985824
 30
0.0
 10
16.4524905906
 20
-8.4250782359
 30
0.0
 10
16.4828715429
 20
-8.4209278029
 30
0.0
 10
16.5132524952
 20
-8.4167773699
 30
0.0
 10
16.537557257
 20
-8.4134570236
 30
0.0
 10
16.5557858285
 20
-8.4109667635
 30
0.0
 10
16.5709763045
 20
-8.4088915479
 30
0.0
 10
16.5831286858
 20
-8.4072313728
 30
0.0
 10
16.5922429703
 20
-8.4059862485
 30
0.0
 10
16.6013572604
 20
-8.4047410978
 30
0.0
 10
16.6089524848
 20
-8.4037035542
 30
0.0
 10
16.6150287031
 20
-8.4028733357
 30
0.0
 10
16.6188262513
 20
-8.4023548672
 30
0.0
 10
16.6218644919
 20
-8.4019391349
 30
0.0
 10
16.6241426193
 20
-8.4016299575
 30
0.0
 10
16.6260428179
 20
-8.4013639693
 30
0.0
 10
16.6273695049
 20
-8.4011941451
 30
0.0
 10
16.6281330018
 20
-8.4010715462
 30
0.0
 10
16.6286904405
 20
-8.4010515901
 30
0.0
 10
16.6293059203
 20
-8.40075644
 30
0.0
 10
16.6301063146
 20
-8.4004588972
 30
0.0
 10
16.6315164374
 20
-8.3998934734
 30
0.0
 10
16.633525967
 20
-8.3991091074
 30
0.0
 10
16.6359395134
 20
-8.3981578598
 30
0.0
 10
16.639156838
 20
-8.3968930254
 30
0.0
 10
16.6431787461
 20
-8.3953107854
 30
0.0
 10
16.6496136581
 20
-8.3927798705
 30
0.0
 10
16.6576573465
 20
-8.3896159972
 30
0.0
 10
16.6673097518
 20
-8.3858194478
 30
0.0
 10
16.6769621626
 20
-8.382022872
 30
0.0
 10
16.6898320418
 20
-8.3769607801
 30
0.0
 10
16.7059193915
 20
-8.3706331621
 30
0.0
 10
16.7252242108
 20
-8.3630400218
 30
0.0
 10
16.7509639699
 20
-8.3529158343
 30
0.0
 10
16.7831386688
 20
-8.3402606001
 30
0.0
 10
16.8217483076
 20
-8.325074319
 30
0.0
 10
16.8603579463
 20
-8.3098880379
 30
0.0
 10
16.898967585
 20
-8.2947017568
 30
0.0
 10
16.9247073441
 20
-8.2845775694
 30
0.0
 10
16.9375772237
 20
-8.2795154757
 30
0.0
 11
16.9375770871
 21
-4.3831298582
 31
0.0
 11
16.8616951108
 21
-4.4316946591
 31
0.0
 11
16.8237541226
 21
-4.4559770595
 31
0.0
 11
16.7858131345
 21
-4.48025946
 31
0.0
 11
16.7478721463
 21
-4.5045418604
 31
0.0
 11
16.7289016522
 21
-4.5166830606
 31
0.0
 11
16.7099311582
 21
-4.5288242609
 31
0.0
 11
16.6909606641
 21
-4.5409654611
 31
0.0
 11
16.6814754171
 21
-4.5470360612
 31
0.0
 11
16.67199017
 21
-4.5531066613
 31
0.0
 11
16.662504923
 21
-4.5591772614
 31
0.0
 11
16.6530196759
 21
-4.5652478615
 31
0.0
 11
16.6482770524
 21
-4.5682831616
 31
0.0
 11
16.6435344289
 21
-4.5713184616
 31
0.0
 11
16.6411631171
 21
-4.5728361117
 31
0.0
 11
16.6387918054
 21
-4.5743537617
 31
0.0
 11
16.6364204936
 21
-4.5758714117
 31
0.0
 11
16.6352348377
 21
-4.5766302367
 31
0.0
 11
16.6346420098
 21
-4.5770096492
 31
0.0
 11
16.6340491819
 21
-4.5773890617
 31
0.0
 11
16.6334789346
 21
-4.5778989562
 31
0.0
 11
16.6329086873
 21
-4.5784088508
 31
0.0
 11
16.6317681926
 21
-4.5794286398
 31
0.0
 11
16.6294872034
 21
-4.5814682178
 31
0.0
 11
16.6272062142
 21
-4.5835077959
 31
0.0
 11
16.6249252249
 21
-4.585547374
 31
0.0
 11
16.6203632465
 21
-4.5896265301
 31
0.0
 11
16.615801268
 21
-4.5937056862
 31
0.0
 11
16.6066773111
 21
-4.6018639984
 31
0.0
 11
16.5975533542
 21
-4.6100223106
 31
0.0
 11
16.5884293972
 21
-4.6181806228
 31
0.0
 11
16.5793054403
 21
-4.626338935
 31
0.0
 11
16.5610575265
 21
-4.6426555595
 31
0.0
 11
16.5428096126
 21
-4.6589721839
 31
0.0
 11
16.5245616988
 21
-4.6752888083
 31
0.0
 11
16.4880658711
 21
-4.7079220572
 31
0.0
 11
16.4515700434
 21
-4.7405553061
 31
0.0
 11
16.4333221295
 21
-4.7568719305
 31
0.0
 11
16.4150742157
 21
-4.7731885549
 31
0.0
 11
16.3968263018
 21
-4.7895051794
 31
0.0
 11
16.3877023449
 21
-4.7976634916
 31
0.0
 11
16.378578388
 21
-4.8058218038
 31
0.0
 11
16.369454431
 21
-4.813980116
 31
0.0
 11
16.3603304741
 21
-4.8221384283
 31
0.0
 11
16.3557684957
 21
-4.8262175844
 31
0.0
 11
16.3512065172
 21
-4.8302967405
 31
0.0
 11
16.348925528
 21
-4.8323363185
 31
0.0
 11
16.3466445387
 21
-4.8343758966
 31
0.0
 11
16.3443635495
 21
-4.8364154746
 31
0.0
 11
16.3432230549
 21
-4.8374352637
 31
0.0
 11
16.3420825603
 21
-4.8384550527
 31
0.0
 11
16.341030668
 21
-4.8396969623
 31
0.0
 11
16.3399787757
 21
-4.8409388719
 31
0.0
 11
16.3378749912
 21
-4.8434226911
 31
0.0
 11
16.3357712067
 21
-4.8459065102
 31
0.0
 11
16.3336674221
 21
-4.8483903294
 31
0.0
 11
16.3294598531
 21
-4.8533579678
 31
0.0
 11
16.325252284
 21
-4.8583256062
 31
0.0
 11
16.3168371459
 21
-4.8682608829
 31
0.0
 11
16.3084220078
 21
-4.8781961597
 31
0.0
 11
16.3000068696
 21
-4.8881314364
 31
0.0
 11
16.2915917315
 21
-4.8980667132
 31
0.0
 11
16.2747614552
 21
-4.9179372667
 31
0.0
 11
16.257931179
 21
-4.9378078202
 31
0.0
 11
16.2411009027
 21
-4.9576783736
 31
0.0
 11
16.2074403502
 21
-4.9974194806
 31
0.0
 11
16.1737797977
 21
-5.0371605876
 31
0.0
 11
16.1569495214
 21
-5.0570311411
 31
0.0
 11
16.1401192452
 21
-5.0769016946
 31
0.0
 11
16.1232889689
 21
-5.0967722481
 31
0.0
 11
16.1148738308
 21
-5.1067075249
 31
0.0
 11
16.1064586927
 21
-5.1166428016
 31
0.0
 11
16.0980435546
 21
-5.1265780783
 31
0.0
 11
16.0896284164
 21
-5.1365133551
 31
0.0
 11
16.0854208474
 21
-5.1414809935
 31
0.0
 11
16.0812132783
 21
-5.1464486318
 31
0.0
 11
16.0770057092
 21
-5.1514162702
 31
0.0
 11
16.0749019247
 21
-5.1539000894
 31
0.0
 11
16.0738500324
 21
-5.155141999
 31
0.0
 11
16.0727981402
 21
-5.1563839086
 31
0.0
 11
16.0718598233
 21
-5.1578272005
 31
0.0
 11
16.0709215064
 21
-5.1592704925
 31
0.0
 11
16.0690448727
 21
-5.1621570764
 31
0.0
 11
16.0652916052
 21
-5.1679302443
 31
0.0
 11
16.0615383377
 21
-5.1737034121
 31
0.0
 11
16.0577850702
 21
-5.1794765799
 31
0.0
 11
16.0502785353
 21
-5.1910229156
 31
0.0
 11
16.0427720003
 21
-5.2025692513
 31
0.0
 11
16.0352654654
 21
-5.214115587
 31
0.0
 11
16.0277589304
 21
-5.2256619227
 31
0.0
 11
16.0127458605
 21
-5.248754594
 31
0.0
 11
15.9977327905
 21
-5.2718472654
 31
0.0
 11
15.9827197206
 21
-5.2949399368
 31
0.0
 11
15.9526935808
 21
-5.3411252795
 31
0.0
 11
15.9226674409
 21
-5.3873106222
 31
0.0
 11
15.907654371
 21
-5.4104032936
 31
0.0
 11
15.8926413011
 21
-5.433495965
 31
0.0
 11
15.8776282311
 21
-5.4565886363
 31
0.0
 11
15.8626151612
 21
-5.4796813077
 31
0.0
 11
15.8551086262
 21
-5.4912276434
 31
0.0
 11
15.8476020913
 21
-5.502773979
 31
0.0
 11
15.8438488238
 21
-5.5085471469
 31
0.0
 11
15.8400955563
 21
-5.5143203147
 31
0.0
 11
15.8363422888
 21
-5.5200934826
 31
0.0
 11
15.8344656551
 21
-5.5229800665
 31
0.0
 11
15.8335273382
 21
-5.5244233584
 31
0.0
 11
15.8325890214
 21
-5.5258666504
 31
0.0
 11
15.8318328404
 21
-5.5274058669
 31
0.0
 11
15.8310766595
 21
-5.5289450833
 31
0.0
 11
15.8295642977
 21
-5.5320235162
 31
0.0
 11
15.826539574
 21
-5.538180382
 31
0.0
 11
15.8235148504
 21
-5.5443372478
 31
0.0
 11
15.8204901267
 21
-5.5504941136
 31
0.0
 11
15.8144406794
 21
-5.5628078452
 31
0.0
 11
15.8083912321
 21
-5.5751215768
 31
0.0
 11
15.7962923375
 21
-5.59974904
 31
0.0
 11
15.7841934429
 21
-5.6243765032
 31
0.0
 11
15.7720945482
 21
-5.6490039663
 31
0.0
 11
15.7599956536
 21
-5.6736314295
 31
0.0
 11
15.7357978644
 21
-5.7228863559
 31
0.0
 11
15.7116000751
 21
-5.7721412823
 31
0.0
 11
15.6995011805
 21
-5.7967687455
 31
0.0
 11
15.6874022859
 21
-5.8213962086
 31
0.0
 11
15.6753033912
 21
-5.8460236718
 31
0.0
 11
15.6632044966
 21
-5.870651135
 31
0.0
 11
15.6571550493
 21
-5.8829648666
 31
0.0
 11
15.651105602
 21
-5.8952785982
 31
0.0
 11
15.6480808783
 21
-5.901435464
 31
0.0
 11
15.6450561547
 21
-5.9075923298
 31
0.0
 11
15.642031431
 21
-5.9137491956
 31
0.0
 11
15.6405190692
 21
-5.9168276285
 31
0.0
 11
15.6397628883
 21
-5.9183668449
 31
0.0
 11
15.6390067074
 21
-5.9199060614
 31
0.0
 11
15.6384437379
 21
-5.9215064916
 31
0.0
 11
15.6378807685
 21
-5.9231069219
 31
0.0
 11
15.6367548297
 21
-5.9263077824
 31
0.0
 11
15.634502952
 21
-5.9327095034
 31
0.0
 11
15.6322510743
 21
-5.9391112243
 31
0.0
 11
15.6299991966
 21
-5.9455129453
 31
0.0
 11
15.6254954413
 21
-5.9583163873
 31
0.0
 11
15.6209916859
 21
-5.9711198293
 31
0.0
 11
15.6119841752
 21
-5.9967267132
 31
0.0
 11
15.6029766644
 21
-6.0223335971
 31
0.0
 11
15.5939691537
 21
-6.0479404811
 31
0.0
 11
15.584961643
 21
-6.073547365
 31
0.0
 11
15.5669466215
 21
-6.1247611329
 31
0.0
 11
15.5489316
 21
-6.1759749008
 31
0.0
 11
15.5399240893
 21
-6.2015817847
 31
0.0
 11
15.5309165786
 21
-6.2271886687
 31
0.0
 11
15.5219090678
 21
-6.2527955526
 31
0.0
 11
15.5129015571
 21
-6.2784024365
 31
0.0
 11
15.5083978018
 21
-6.2912058785
 31
0.0
 11
15.5038940464
 21
-6.3040093205
 31
0.0
 11
15.5016421687
 21
-6.3104110415
 31
0.0
 11
15.499390291
 21
-6.3168127624
 31
0.0
 11
15.4971384133
 21
-6.3232144834
 31
0.0
 11
15.4960124745
 21
-6.3264153439
 31
0.0
 11
15.4954495051
 21
-6.3280157742
 31
0.0
 11
15.4948865357
 21
-6.3296162044
 31
0.0
 11
15.4945382211
 21
-6.3312168886
 31
0.0
 11
15.4941899065
 21
-6.3328175727
 31
0.0
 11
15.4934932773
 21
-6.336018941
 31
0.0
 11
15.4921000189
 21
-6.3424216776
 31
0.0
 11
15.4907067605
 21
-6.3488244142
 31
0.0
 11
15.4893135021
 21
-6.3552271508
 31
0.0
 11
15.4865269853
 21
-6.3680326241
 31
0.0
 11
15.4837404686
 21
-6.3808380973
 31
0.0
 11
15.478167435
 21
-6.4064490437
 31
0.0
 11
15.4725944014
 21
-6.4320599902
 31
0.0
 11
15.4670213679
 21
-6.4576709366
 31
0.0
 11
15.4614483343
 21
-6.483281883
 31
0.0
 11
15.4503022672
 21
-6.5345037759
 31
0.0
 11
15.4391562001
 21
-6.5857256688
 31
0.0
 11
15.4335831666
 21
-6.6113366152
 31
0.0
 11
15.428010133
 21
-6.6369475616
 31
0.0
 11
15.4224370995
 21
-6.6625585081
 31
0.0
 11
15.4196505827
 21
-6.6753639813
 31
0.0
 11
15.4168640659
 21
-6.6881694545
 31
0.0
 11
15.4140775491
 21
-6.7009749277
 31
0.0
 11
15.4112910324
 21
-6.713780401
 31
0.0
 11
15.409897774
 21
-6.7201831376
 31
0.0
 11
15.4085045156
 21
-6.7265858742
 31
0.0
 11
15.4071112572
 21
-6.7329886108
 31
0.0
 11
15.406414628
 21
-6.7361899791
 31
0.0
 11
15.4060663134
 21
-6.7377906632
 31
0.0
 11
15.4057179988
 21
-6.7393913474
 31
0.0
 11
15.4055975691
 21
-6.7409578994
 31
0.0
 11
15.4054771393
 21
-6.7425244515
 31
0.0
 11
15.4052362797
 21
-6.7456575556
 31
0.0
 11
15.4047545607
 21
-6.7519237638
 31
0.0
 11
15.4042728416
 21
-6.7581899721
 31
0.0
 11
15.4037911225
 21
-6.7644561803
 31
0.0
 11
15.4028276844
 21
-6.7769885968
 31
0.0
 11
15.4018642462
 21
-6.7895210132
 31
0.0
 11
15.4009008081
 21
-6.8020534297
 31
0.0
 11
15.39993737
 21
-6.8145858461
 31
0.0
 11
15.3980104937
 21
-6.839650679
 31
0.0
 11
15.3960836174
 21
-6.8647155119
 31
0.0
 11
15.3941567411
 21
-6.8897803448
 31
0.0
 11
15.3903029885
 21
-6.9399100107
 31
0.0
 11
15.386449236
 21
-6.9900396765
 31
0.0
 11
15.3845223597
 21
-7.0151045094
 31
0.0
 11
15.3825954834
 21
-7.0401693423
 31
0.0
 11
15.3806686071
 21
-7.0652341752
 31
0.0
 11
15.379705169
 21
-7.0777665917
 31
0.0
 11
15.3787417308
 21
-7.0902990081
 31
0.0
 11
15.3777782927
 21
-7.1028314246
 31
0.0
 11
15.3768148546
 21
-7.115363841
 31
0.0
 11
15.3763331355
 21
-7.1216300493
 31
0.0
 11
15.3758514164
 21
-7.1278962575
 31
0.0
 11
15.3756105569
 21
-7.1310293616
 31
0.0
 11
15.3753696973
 21
-7.1341624657
 31
0.0
 11
15.3751288378
 21
-7.1372955698
 31
0.0
 11
15.375008408
 21
-7.1388621219
 31
0.0
 11
15.3749481932
 21
-7.1396453979
 31
0.0
 11
15.3748879783
 21
-7.1404286739
 31
0.0
 11
15.3749461056
 21
-7.1411376518
 31
0.0
 11
15.3750042328
 21
-7.1418466297
 31
0.0
 11
15.3751204874
 21
-7.1432645855
 31
0.0
 11
15.3753529966
 21
-7.146100497
 31
0.0
 11
15.3755855057
 21
-7.1489364085
 31
0.0
 11
15.3758180149
 21
-7.15177232
 31
0.0
 11
15.3762830332
 21
-7.1574441431
 31
0.0
 11
15.3767480515
 21
-7.1631159662
 31
0.0
 11
15.3776780881
 21
-7.1744596123
 31
0.0
 11
15.3786081247
 21
-7.1858032584
 31
0.0
 11
15.3795381613
 21
-7.1971469045
 31
0.0
 11
15.3804681979
 21
-7.2084905506
 31
0.0
 11
15.3823282711
 21
-7.2311778428
 31
0.0
 11
15.3841883443
 21
-7.2538651351
 31
0.0
 11
15.3860484175
 21
-7.2765524273
 31
0.0
 11
15.3897685639
 21
-7.3219270117
 31
0.0
 11
15.3934887103
 21
-7.3673015962
 31
0.0
 11
15.3953487835
 21
-7.3899888884
 31
0.0
 11
15.3972088568
 21
-7.4126761806
 31
0.0
 11
15.39906893
 21
-7.4353634729
 31
0.0
 11
15.3999989666
 21
-7.446707119
 31
0.0
 11
15.4009290032
 21
-7.4580507651
 31
0.0
 11
15.4018590398
 21
-7.4693944112
 31
0.0
 11
15.4027890764
 21
-7.4807380573
 31
0.0
 11
15.4032540947
 21
-7.4864098804
 31
0.0
 11
15.403719113
 21
-7.4920817034
 31
0.0
 11
15.4039516221
 21
-7.4949176149
 31
0.0
 11
15.4041841313
 21
-7.4977535265
 31
0.0
 11
15.4044166404
 21
-7.500589438
 31
0.0
 11
15.404532895
 21
-7.5020073938
 31
0.0
 11
15.4045910223
 21
-7.5027163716
 31
0.0
 11
15.4046491496
 21
-7.5034253495
 31
0.0
 11
15.4048213174
 21
-7.5040471301
 31
0.0
 11
15.4049934852
 21
-7.5046689107
 31
0.0
 11
15.4053378208
 21
-7.5059124718
 31
0.0
 11
15.4060264921
 21
-7.5083995941
 31
0.0
 11
15.4067151633
 21
-7.5108867163
 31
0.0
 11
15.4074038346
 21
-7.5133738386
 31
0.0
 11
15.4087811771
 21
-7.5183480831
 31
0.0
 11
15.4101585196
 21
-7.5233223276
 31
0.0
 11
15.4129132046
 21
-7.5332708167
 31
0.0
 11
15.4156678896
 21
-7.5432193058
 31
0.0
 11
15.4184225746
 21
-7.5531677948
 31
0.0
 11
15.4211772596
 21
-7.5631162839
 31
0.0
 11
15.4266866296
 21
-7.583013262
 31
0.0
 11
15.4321959996
 21
-7.6029102401
 31
0.0
 11
15.4377053697
 21
-7.6228072183
 31
0.0
 11
15.4487241097
 21
-7.6626011745
 31
0.0
 11
15.4597428497
 21
-7.7023951307
 31
0.0
 11
15.4652522197
 21
-7.7222921089
 31
0.0
 11
15.4707615897
 21
-7.742189087
 31
0.0
 11
15.4762709597
 21
-7.7620860651
 31
0.0
 11
15.4790256447
 21
-7.7720345542
 31
0.0
 11
15.4817803297
 21
-7.7819830432
 31
0.0
 11
15.4845350147
 21
-7.7919315323
 31
0.0
 11
15.4872896997
 21
-7.8018800213
 31
0.0
 11
15.4886670423
 21
-7.8068542659
 31
0.0
 11
15.4900443848
 21
-7.8118285104
 31
0.0
 11
15.490733056
 21
-7.8143156327
 31
0.0
 11
15.4914217273
 21
-7.8168027549
 31
0.0
 11
15.4921103985
 21
-7.8192898772
 31
0.0
 11
15.4924547341
 21
-7.8205334383
 31
0.0
 11
15.4926269019
 21
-7.8211552189
 31
0.0
 11
15.4927990698
 21
-7.8217769995
 31
0.0
 11
15.4930787203
 21
-7.8222878993
 31
0.0
 11
15.4933583708
 21
-7.8227987991
 31
0.0
 11
15.4939176718
 21
-7.8238205988
 31
0.0
 11
15.4950362739
 21
-7.825864198
 31
0.0
 11
15.496154876
 21
-7.8279077973
 31
0.0
 11
15.4972734781
 21
-7.8299513966
 31
0.0
 11
15.4995106822
 21
-7.8340385952
 31
0.0
 11
15.5017478864
 21
-7.8381257938
 31
0.0
 11
15.5062222947
 21
-7.8463001909
 31
0.0
 11
15.510696703
 21
-7.8544745881
 31
0.0
 11
15.5151711113
 21
-7.8626489852
 31
0.0
 11
15.5196455196
 21
-7.8708233824
 31
0.0
 11
15.5285943363
 21
-7.8871721767
 31
0.0
 11
15.5375431529
 21
-7.903520971
 31
0.0
 11
15.5464919695
 21
-7.9198697653
 31
0.0
 11
15.5643896027
 21
-7.9525673539
 31
0.0
 11
15.582287236
 21
-7.9852649425
 31
0.0
 11
15.5912360526
 21
-8.0016137368
 31
0.0
 11
15.6001848692
 21
-8.0179625311
 31
0.0
 11
15.6091336859
 21
-8.0343113254
 31
0.0
 11
15.6136080942
 21
-8.0424857225
 31
0.0
 11
15.6180825025
 21
-8.0506601197
 31
0.0
 11
15.6225569108
 21
-8.0588345168
 31
0.0
 11
15.6270313191
 21
-8.067008914
 31
0.0
 11
15.6292685233
 21
-8.0710961126
 31
0.0
 11
15.6315057274
 21
-8.0751833112
 31
0.0
 11
15.6326243295
 21
-8.0772269104
 31
0.0
 11
15.6337429316
 21
-8.0792705097
 31
0.0
 11
15.6348615336
 21
-8.081314109
 31
0.0
 11
15.6354208347
 21
-8.0823359087
 31
0.0
 11
15.6357004852
 21
-8.0828468085
 31
0.0
 11
15.6359801357
 21
-8.0833577083
 31
0.0
 11
15.6363641375
 21
-8.0837437819
 31
0.0
 11
15.6367481392
 21
-8.0841298555
 31
0.0
 11
15.6375161426
 21
-8.0849020027
 31
0.0
 11
15.6390521496
 21
-8.0864462971
 31
0.0
 11
15.6405881565
 21
-8.0879905915
 31
0.0
 11
15.6421241634
 21
-8.0895348859
 31
0.0
 11
15.6451961772
 21
-8.0926234748
 31
0.0
 11
15.6482681911
 21
-8.0957120636
 31
0.0
 11
15.6544122188
 21
-8.1018892412
 31
0.0
 11
15.6605562464
 21
-8.1080664189
 31
0.0
 11
15.6667002741
 21
-8.1142435965
 31
0.0
 11
15.6728443018
 21
-8.1204207741
 31
0.0
 11
15.6851323571
 21
-8.1327751294
 31
0.0
 11
15.6974204125
 21
-8.1451294847
 31
0.0
 11
15.7097084678
 21
-8.1574838399
 31
0.0
 11
15.7342845785
 21
-8.1821925505
 31
0.0
 11
15.7588606892
 21
-8.206901261
 31
0.0
 11
15.7711487446
 21
-8.2192556163
 31
0.0
 11
15.7834367999
 21
-8.2316099716
 31
0.0
 11
15.7957248553
 21
-8.2439643269
 31
0.0
 11
15.801868883
 21
-8.2501415045
 31
0.0
 11
15.8080129106
 21
-8.2563186821
 31
0.0
 11
15.8141569383
 21
-8.2624958598
 31
0.0
 11
15.820300966
 21
-8.2686730374
 31
0.0
 11
15.8233729798
 21
-8.2717616262
 31
0.0
 11
15.8264449937
 21
-8.2748502151
 31
0.0
 11
15.8279810006
 21
-8.2763945095
 31
0.0
 11
15.8295170075
 21
-8.2779388039
 31
0.0
 11
15.8310530144
 21
-8.2794830983
 31
0.0
 11
15.8318210179
 21
-8.2802552455
 31
0.0
 11
15.8322050196
 21
-8.2806413191
 31
0.0
 11
15.8325890214
 21
-8.2810273927
 31
0.0
 11
15.8330493162
 21
-8.2812604306
 31
0.0
 11
15.8335096111
 21
-8.2814934685
 31
0.0
 11
15.8344302008
 21
-8.2819595443
 31
0.0
 11
15.8362713802
 21
-8.282891696
 31
0.0
 11
15.8381125596
 21
-8.2838238476
 31
0.0
 11
15.839953739
 21
-8.2847559993
 31
0.0
 11
15.8436360979
 21
-8.2866203026
 31
0.0
 11
15.8473184567
 21
-8.2884846059
 31
0.0
 11
15.8546831744
 21
-8.2922132124
 31
0.0
 11
15.8620478921
 21
-8.295941819
 31
0.0
 11
15.8694126098
 21
-8.2996704256
 31
0.0
 11
15.8767773275
 21
-8.3033990322
 31
0.0
 11
15.8915067629
 21
-8.3108562454
 31
0.0
 11
15.9062361983
 21
-8.3183134585
 31
0.0
 11
15.9209656336
 21
-8.3257706717
 31
0.0
 11
15.9504245044
 21
-8.3406850981
 31
0.0
 11
15.9798833752
 21
-8.3555995244
 31
0.0
 11
15.9946128105
 21
-8.3630567376
 31
0.0
 11
16.0093422459
 21
-8.3705139507
 31
0.0
 11
16.0240716813
 21
-8.3779711639
 31
0.0
 11
16.031436399
 21
-8.3816997705
 31
0.0
 11
16.0388011167
 21
-8.3854283771
 31
0.0
 11
16.0461658344
 21
-8.3891569837
 31
0.0
 11
16.0535305521
 21
-8.3928855903
 31
0.0
 11
16.0572129109
 21
-8.3947498936
 31
0.0
 11
16.0608952698
 21
-8.3966141968
 31
0.0
 11
16.0627364492
 21
-8.3975463485
 31
0.0
 11
16.0645776286
 21
-8.3984785001
 31
0.0
 11
16.066418808
 21
-8.3994106518
 31
0.0
 11
16.0673393977
 21
-8.3998767276
 31
0.0
 11
16.0677996926
 21
-8.4001097655
 31
0.0
 11
16.0682599875
 21
-8.4003428034
 31
0.0
 11
16.0687849542
 21
-8.4004219188
 31
0.0
 11
16.069309921
 21
-8.4005010342
 31
0.0
 11
16.0703598545
 21
-8.400659265
 31
0.0
 11
16.0724597216
 21
-8.4009757265
 31
0.0
 11
16.0745595887
 21
-8.4012921881
 31
0.0
 11
16.0766594557
 21
-8.4016086496
 31
0.0
 11
16.0808591898
 21
-8.4022415727
 31
0.0
 11
16.085058924
 21
-8.4028744958
 31
0.0
 11
16.0934583922
 21
-8.404140342
 31
0.0
 11
16.1018578605
 21
-8.4054061882
 31
0.0
 11
16.1102573288
 21
-8.4066720344
 31
0.0
 11
16.118656797
 21
-8.4079378805
 31
0.0
 11
16.1354557335
 21
-8.4104695729
 31
0.0
 11
16.1522546701
 21
-8.4130012653
 31
0.0
 11
16.1690536066
 21
-8.4155329577
 31
0.0
 11
16.2026514796
 21
-8.4205963424
 31
0.0
 11
16.2362493527
 21
-8.4256597271
 31
0.0
 11
16.2530482892
 21
-8.4281914195
 31
0.0
 11
16.2698472257
 21
-8.4307231119
 31
0.0
 11
16.2866461622
 21
-8.4332548042
 31
0.0
 11
16.2950456305
 21
-8.4345206504
 31
0.0
 11
16.3034450987
 21
-8.4357864966
 31
0.0
 11
16.311844567
 21
-8.4370523428
 31
0.0
 11
16.3202440353
 21
-8.438318189
 31
0.0
 11
16.3244437694
 21
-8.4389511121
 31
0.0
 11
16.3286435035
 21
-8.4395840352
 31
0.0
 11
16.3307433706
 21
-8.4399004967
 31
0.0
 11
16.3328432377
 21
-8.4402169583
 31
0.0
 11
16.3349431047
 21
-8.4405334198
 31
0.0
 11
16.3359930383
 21
-8.4406916506
 31
0.0
 11
16.336518005
 21
-8.440770766
 31
0.0
 11
16.3370429718
 21
-8.4408498814
 31
0.0
 11
16.3376126146
 21
-8.4407720607
 31
0.0
 11
16.3381822575
 21
-8.4406942401
 31
0.0
 11
16.3393215432
 21
-8.4405385989
 31
0.0
 11
16.3416001146
 21
-8.4402273164
 31
0.0
 11
16.3438786861
 21
-8.4399160339
 31
0.0
 11
16.3461572575
 21
-8.4396047515
 31
0.0
 11
16.3507144003
 21
-8.4389821865
 31
0.0
 11
16.3552715432
 21
-8.4383596216
 31
0.0
 11
16.3643858289
 21
-8.4371144917
 31
0.0
 11
16.3735001146
 21
-8.4358693618
 31
0.0
 11
16.3826144003
 21
-8.4346242318
 31
0.0
 11
16.391728686
 21
-8.4333791019
 31
0.0
 11
16.4099572573
 21
-8.4308888421
 31
0.0
 11
16.4281858287
 21
-8.4283985823
 31
0.0
 11
16.4464144001
 21
-8.4259083225
 31
0.0
 11
16.4828715429
 21
-8.4209278029
 31
0.0
 11
16.5193286857
 21
-8.4159472833
 31
0.0
 11
16.5375572571
 21
-8.4134570235
 31
0.0
 11
16.5557858284
 21
-8.4109667637
 31
0.0
 11
16.5740143998
 21
-8.4084765039
 31
0.0
 11
16.5831286855
 21
-8.407231374
 31
0.0
 11
16.5922429712
 21
-8.4059862441
 31
0.0
 11
16.6013572569
 21
-8.4047411142
 31
0.0
 11
16.6104715426
 21
-8.4034959843
 31
0.0
 11
16.6150286854
 21
-8.4028734193
 31
0.0
 11
16.6195858283
 21
-8.4022508544
 31
0.0
 11
16.6218643997
 21
-8.4019395719
 31
0.0
 11
16.6241429711
 21
-8.4016282894
 31
0.0
 11
16.6264215426
 21
-8.4013170069
 31
0.0
 11
16.6275608283
 21
-8.4011613657
 31
0.0
 11
16.6281304711
 21
-8.4010835451
 31
0.0
 11
16.628700114
 21
-8.4010057245
 31
0.0
 11
16.6293033896
 21
-8.4007684388
 31
0.0
 11
16.6299066652
 21
-8.4005311532
 31
0.0
 11
16.6311132164
 21
-8.4000565819
 31
0.0
 11
16.6335263188
 21
-8.3991074393
 31
0.0
 11
16.6359394212
 21
-8.3981582968
 31
0.0
 11
16.6383525237
 21
-8.3972091542
 31
0.0
 11
16.6431787285
 21
-8.3953108691
 31
0.0
 11
16.6480049333
 21
-8.3934125839
 31
0.0
 11
16.657657343
 21
-8.3896160136
 31
0.0
 11
16.6673097527
 21
-8.3858194434
 31
0.0
 11
16.6769621624
 21
-8.3820228731
 31
0.0
 11
16.6866145721
 21
-8.3782263028
 31
0.0
 11
16.7059193914
 21
-8.3706331623
 31
0.0
 11
16.7252242108
 21
-8.3630400217
 31
0.0
 11
16.7445290301
 21
-8.3554468812
 31
0.0
 11
16.7831386688
 21
-8.3402606001
 31
0.0
 11
16.8217483076
 21
-8.325074319
 31
0.0
 11
16.8603579463
 21
-8.3098880379
 31
0.0
 11
16.898967585
 21
-8.2947017568
 31
0.0
 11
16.9375772237
 21
-8.2795154757
 31
0.0
  0
SPLINE
  5
522
100
AcDbEntity
  8
0
100
AcDbSpline
 62
252
  6
CONTINUOUS
 70
0
 71
3
 72
12
 73
8
 74
6
 42
0.0000001
 43
0.0000001
 44
0.0000000001
 12
0.0980581764
 22
-2.1465715006
 32
0.0
 13
-1.7262674249
 23
-1.35228976
 33
0.0
 40
0.0
 40
0.0
 40
0.0
 40
0.0
 40
0.2
 40
0.4
 40
0.6
 40
0.8
 40
1.0
 40
1.0
 40
1.0
 40
1.0
 10
15.4067818882
 20
13.9097277688
 30
0.0
 10
15.4133191
 20
13.7666230021
 30
0.0
 10
15.3928457859
 20
13.4590275289
 30
0.0
 10
15.263691547
 20
12.9764558244
 30
0.0
 10
15.0463680732
 20
12.5094490904
 30
0.0
 10
14.758537875
 20
12.0959623217
 30
0.0
 10
14.5340620504
 20
11.8771862287
 30
0.0
 10
14.4189775554
 20
11.7870335781
 30
0.0
 11
15.4067818882
 21
13.9097277688
 31
0.0
 11
15.3764384079
 21
13.4554977798
 31
0.0
 11
15.2489966745
 21
12.9790499861
 31
0.0
 11
15.0346169524
 21
12.5183690846
 31
0.0
 11
14.7503906185
 21
12.1101827599
 31
0.0
 11
14.4189775554
 21
11.7870335781
 31
0.0
  0
SPLINE
  5
523
100
AcDbEntity
  8
0
100
AcDbSpline
 62
252
  6
CONTINUOUS
 70
0
 71
3
 72
21
 73
17
 74
15
 42
0.0000001
 43
0.0000001
 44
0.0000000001
 12
-0.2178497145
 22
-7.0338962814
 32
0.0
 13
0.2088653953
 23
7.0436357661
 33
0.0
 40
0.0
 40
0.0
 40
0.0
 40
0.0
 40
0.0731707317
 40
0.1463414634
 40
0.2195121951
 40
0.2926829268
 40
0.3658536585
 40
0.4390243902
 40
0.512195122
 40
0.5853658537
 40
0.6585365854
 40
0.7317073171
 40
0.8048780488
 40
0.8780487805
 40
0.9512195122
 40
1.0
 40
1.0
 40
1.0
 40
1.0
 10
12.388774693
 20
12.3471090023
 30
0.0
 10
12.3834612854
 20
12.1755505565
 30
0.0
 10
12.4041393356
 20
11.8458265289
 30
0.0
 10
12.5275895
 20
11.4223799358
 30
0.0
 10
12.7369300349
 20
11.0910590911
 30
0.0
 10
13.0211461712
 20
10.8696668718
 30
0.0
 10
13.3652656921
 20
10.7697692163
 30
0.0
 10
13.7511650579
 20
10.7966529551
 30
0.0
 10
14.15851925
 20
10.9488952466
 30
0.0
 10
14.5658734995
 20
11.2184799786
 30
0.0
 10
14.9517730347
 20
11.5912062311
 30
0.0
 10
15.2958928281
 20
12.047449699
 30
0.0
 10
15.5801093255
 20
12.563156097
 30
0.0
 10
15.7894502912
 20
13.1112553157
 30
0.0
 10
15.8991841952
 20
13.6012846844
 30
0.0
 10
15.9249747989
 20
13.8961744913
 30
0.0
 10
15.9283709842
 20
14.0107051541
 30
0.0
 11
12.388774693
 21
12.3471090023
 31
0.0
 11
12.4195448504
 21
11.8576831036
 31
0.0
 11
12.5419045618
 21
11.4377342272
 31
0.0
 11
12.7494093018
 21
11.1093805287
 31
0.0
 11
13.0311300686
 21
10.8899159658
 31
0.0
 11
13.3722289996
 21
10.7908994487
 31
0.0
 11
13.7547408623
 21
10.8175460472
 31
0.0
 11
14.1585192596
 21
10.96845232
 31
0.0
 11
14.5622977138
 21
11.235670232
 31
0.0
 11
14.9448097444
 21
11.605125767
 31
0.0
 11
15.2859089454
 21
12.0573601873
 31
0.0
 11
15.5676300702
 21
12.5685549005
 31
0.0
 11
15.7751352373
 21
13.1117859526
 31
0.0
 11
15.8974954221
 21
13.658442078
 31
0.0
 11
15.9283709842
 21
14.0107051541
 31
0.0
  0
SPLINE
  5
524
100
AcDbEntity
  8
0
100
AcDbSpline
 62
252
  6
CONTINUOUS
 70
0
 71
3
 72
12
 73
8
 74
6
 42
0.0000001
 43
0.0000001
 44
0.0000000001
 12
-1.7262694072
 22
-0.4353144712
 32
0.0
 13
0.0980553971
 23
2.2481146901
 33
0.0
 40
0.0
 40
0.0
 40
0.0
 40
0.0
 40
0.2
 40
0.4
 40
0.6
 40
0.8
 40
1.0
 40
1.0
 40
1.0
 40
1.0
 10
13.898063493
 20
11.5173196346
 30
0.0
 10
13.7829788658
 20
11.4882986699
 30
0.0
 10
13.5585027577
 20
11.4746229846
 30
0.0
 10
13.2706720726
 20
11.590052526
 30
0.0
 10
13.053348058
 20
11.832013975
 30
0.0
 10
12.9241932443
 20
12.1808424482
 30
0.0
 10
12.903719544
 20
12.4672372377
 30
0.0
 10
12.9102565705
 20
12.6171115503
 30
0.0
 11
13.898063493
 21
11.5173196346
 31
0.0
 11
13.5666500039
 21
11.4972801628
 31
0.0
 11
13.2824231843
 21
11.6111411773
 31
0.0
 11
13.0680429248
 21
11.8498251457
 31
0.0
 11
12.9406006215
 21
12.1943030667
 31
0.0
 11
12.9102565705
 21
12.6171115503
 31
0.0
  0
SPLINE
  5
525
100
AcDbEntity
  8
0
100
AcDbSpline
 62
252
  6
CONTINUOUS
 70
0
 71
3
 72
21
 73
17
 74
15
 42
0.0000001
 43
0.0000001
 44
0.0000000001
 12
-0.2178431
 22
-7.0338903411
 32
0.0
 13
0.2088651532
 23
7.0436327971
 33
0.0
 40
0.0
 40
0.0
 40
0.0
 40
0.0
 40
0.0731707317
 40
0.1463414634
 40
0.2195121951
 40
0.2926829268
 40
0.3658536585
 40
0.4390243902
 40
0.512195122
 40
0.5853658537
 40
0.6585365854
 40
0.7317073171
 40
0.8048780488
 40
0.8780487805
 40
0.9512195122
 40
1.0
 40
1.0
 40
1.0
 40
1.0
 10
12.388774693
 20
8.5494897459
 30
0.0
 10
12.3834614467
 20
8.3779314449
 30
0.0
 10
12.4041397978
 20
8.0482077444
 30
0.0
 10
12.5275903212
 20
7.6247617013
 30
0.0
 10
12.7369311095
 20
7.2934414228
 30
0.0
 10
13.0211473881
 20
7.072049743
 30
0.0
 10
13.3652669438
 20
6.9721525634
 30
0.0
 10
13.751166248
 20
6.9990366857
 30
0.0
 10
14.1585203002
 20
7.1512792491
 30
0.0
 10
14.5658743546
 20
7.4208641329
 30
0.0
 10
14.9517736652
 20
7.7935904193
 30
0.0
 10
15.2958932312
 20
8.2498338159
 30
0.0
 10
15.5801095234
 20
8.7655400586
 30
0.0
 10
15.789450328
 20
9.3136390657
 30
0.0
 10
15.8991841426
 20
9.8036682252
 30
0.0
 10
15.9249747231
 20
10.0985579052
 30
0.0
 10
15.9283709044
 20
10.2130885198
 30
0.0
 11
12.388774693
 21
8.5494897459
 31
0.0
 11
12.4195452973
 21
8.060064329
 31
0.0
 11
12.5419053653
 21
7.6401159954
 31
0.0
 11
12.7494103579
 21
7.3117628559
 31
0.0
 11
13.0311312676
 21
7.0922988264
 31
0.0
 11
13.3722302352
 21
6.9932827804
 31
0.0
 11
13.7547420393
 21
7.0199297592
 31
0.0
 11
14.1585203006
 21
7.1708363025
 31
0.0
 11
14.562298564
 21
7.4380543667
 31
0.0
 11
14.9448103744
 21
7.8075099377
 31
0.0
 11
15.2859093522
 21
8.2597442903
 31
0.0
 11
15.5676302755
 21
8.7709388527
 31
0.0
 11
15.7751352842
 21
9.3141696986
 31
0.0
 11
15.8974953701
 21
9.8608255941
 31
0.0
 11
15.9283709044
 21
10.2130885198
 31
0.0
  0
SPLINE
  5
526
100
AcDbEntity
  8
0
100
AcDbSpline
 62
252
  6
CONTINUOUS
 70
0
 71
3
 72
20
 73
16
 74
14
 42
0.0000001
 43
0.0000001
 44
0.0000000001
 12
0.2195544724
 22
-4.8063724206
 32
0.0
 13
-0.1106552102
 23
4.8801925334
 33
0.0
 40
0.0
 40
0.0
 40
0.0
 40
0.0
 40
0.0789473684
 40
0.1578947368
 40
0.2368421053
 40
0.3157894737
 40
0.3947368421
 40
0.4736842105
 40
0.5526315789
 40
0.6315789474
 40
0.7105263158
 40
0.7894736842
 40
0.8684210526
 40
0.9473684211
 40
1.0
 40
1.0
 40
1.0
 40
1.0
 10
15.4067841167
 20
10.1121097726
 30
0.0
 10
15.412561866
 20
9.9856262878
 30
0.0
 10
15.3979833436
 20
9.7161490334
 30
0.0
 10
15.2988801884
 20
9.2918510833
 30
0.0
 10
15.1287661493
 20
8.8727512223
 30
0.0
 10
14.8982219596
 20
8.4852579687
 30
0.0
 10
14.6216097351
 20
8.153422321
 30
0.0
 10
14.3161559532
 20
7.8979330118
 30
0.0
 10
14.0008846523
 20
7.7346965294
 30
0.0
 10
13.6954308752
 20
7.6738792139
 30
0.0
 10
13.4188186601
 20
7.7192745441
 30
0.0
 10
13.1882744836
 20
7.8680323252
 30
0.0
 10
13.0181604609
 20
8.1109739635
 30
0.0
 10
12.9300687838
 20
8.3969060933
 30
0.0
 10
12.9107686026
 20
8.6033439959
 30
0.0
 10
12.9088272831
 20
8.6889614088
 30
0.0
 11
15.4067841167
 21
10.1121097726
 31
0.0
 11
15.3851107816
 21
9.712802022
 31
0.0
 11
15.2870450411
 21
9.2927174315
 31
0.0
 11
15.1186944575
 21
8.8780189902
 31
0.0
 11
14.8905439538
 21
8.4945342363
 31
0.0
 11
14.6168028089
 21
8.1661467107
 31
0.0
 11
14.3145197
 21
7.9133084829
 31
0.0
 11
14.0025209063
 21
7.7517663905
 31
0.0
 11
13.7002378022
 21
7.6915813215
 31
0.0
 11
13.4264966665
 21
7.7365016193
 31
0.0
 11
13.1983461759
 21
7.8837296348
 31
0.0
 11
13.0299956086
 21
8.1240959648
 31
0.0
 11
12.9319298863
 21
8.4426305252
 31
0.0
 11
12.9088272831
 21
8.6889614088
 31
0.0
  0
SPLINE
  5
527
100
AcDbEntity
  8
0
100
AcDbSpline
 62
252
  6
CONTINUOUS
 70
0
 71
3
 72
8
 73
4
 74
2
 42
0.0000001
 43
0.0000001
 44
0.0000000001
 12
-0.0029119792
 22
0.1284261193
 32
0.0
 13
0.0057777557
 23
0.1324665221
 33
0.0
 40
0.0
 40
0.0
 40
0.0
 40
0.0
 40
1.0
 40
1.0
 40
1.0
 40
1.0
 10
12.9088272831
 20
8.6889614088
 30
0.0
 10
12.9078566234
 20
8.7317701152
 30
0.0
 10
12.9083306519
 20
8.7753393846
 30
0.0
 10
12.9102565705
 20
8.819494892
 30
0.0
 11
12.9088272831
 21
8.6889614088
 31
0.0
 11
12.9102565705
 21
8.819494892
 31
0.0
  0
SPLINE
  5
528
100
AcDbEntity
  8
RACCORDO
100
AcDbSpline
 62
7
  6
CONTINUOUS
 70
0
 71
3
 72
9
 73
5
 74
3
 42
0.0000001
 43
0.0000001
 44
0.0000000001
 12
-0.0004064978
 22
0.0259299962
 32
0.0
 13
-0.0020641494
 23
0.0258509038
 33
0.0
 40
0.0
 40
0.0
 40
0.0
 40
0.0
 40
0.2485360477
 40
1.0
 40
1.0
 40
1.0
 40
1.0
 10
9.5555959273
 20
22.5077892701
 30
0.0
 10
9.5555622509
 20
22.5099374497
 30
0.0
 10
9.5553586138
 20
22.5185797178
 30
0.0
 10
9.5548498833
 20
22.5272136774
 30
0.0
 10
9.5543328387
 20
22.5336890181
 30
0.0
 11
9.5555959273
 21
22.5077892701
 31
0.0
 11
9.5554421829
 21
22.5142327668
 31
0.0
 11
9.5543328387
 21
22.5336890181
 31
0.0
  0
SPLINE
  5
529
100
AcDbEntity
  8
RACCORDO
100
AcDbSpline
 62
7
  6
CONTINUOUS
 70
0
 71
3
 72
9
 73
5
 74
3
 42
0.0000001
 43
0.0000001
 44
0.0000000001
 12
-0.0005033316
 22
-0.0035205451
 32
0.0
 13
-0.0017156907
 23
-0.0031151222
 33
0.0
 40
0.0
 40
0.0
 40
0.0
 40
0.0
 40
0.211301006
 40
1.0
 40
1.0
 40
1.0
 40
1.0
 10
9.5555959273
 20
-15.0101549322
 30
0.0
 10
9.5555604758
 20
-15.0104028972
 30
0.0
 10
9.5553095951
 20
-15.0115651073
 30
0.0
 10
9.5547838932
 20
-15.0126477168
 30
0.0
 10
9.5543328387
 20
-15.0134666814
 30
0.0
 11
9.5555959273
 21
-15.0101549322
 31
0.0
 11
9.5554421829
 21
-15.0108904955
 31
0.0
 11
9.5543328387
 21
-15.0134666814
 31
0.0
  0
SPLINE
  5
52A
100
AcDbEntity
  8
RACCORDO
100
AcDbSpline
 62
7
  6
CONTINUOUS
 70
0
 71
3
 72
9
 73
5
 74
3
 42
0.0000001
 43
0.0000001
 44
0.0000000001
 12
0.003195696
 22
0.0016680086
 32
0.0
 13
-0.0000093949
 23
0.0036048076
 33
0.0
 40
0.0
 40
0.0
 40
0.0
 40
0.0
 40
0.5036977787
 40
1.0
 40
1.0
 40
1.0
 40
1.0
 10
9.5538621292
 20
21.9224954307
 30
0.0
 10
9.5543986842
 20
21.9227754881
 30
0.0
 10
9.5553855243
 20
21.9235986151
 30
0.0
 10
9.5556440438
 20
21.9248533866
 30
0.0
 10
9.5556424896
 20
21.9254497446
 30
0.0
 11
9.5538621292
 21
21.9224954307
 31
0.0
 11
9.5552080392
 21
21.9237142158
 31
0.0
 11
9.5556424896
 21
21.9254497446
 31
0.0
  0
SPLINE
  5
52B
100
AcDbEntity
  8
RACCORDO
100
AcDbSpline
 62
7
  6
CONTINUOUS
 70
0
 71
3
 72
10
 73
6
 74
4
 42
0.0000001
 43
0.0000001
 44
0.0000000001
 12
-0.431001698
 22
0.4732084891
 32
0.0
 13
-0.5725276644
 23
0.286183178
 33
0.0
 40
0.0
 40
0.0
 40
0.0
 40
0.0
 40
0.506838871
 40
0.7558957822
 40
1.0
 40
1.0
 40
1.0
 40
1.0
 10
9.5543328387
 20
22.5336890181
 30
0.0
 10
9.4815167007
 20
22.6136358369
 30
0.0
 10
9.3641600108
 20
22.7255925703
 30
0.0
 10
9.1914717977
 20
22.8512857597
 30
0.0
 10
9.100244021
 20
22.9042752085
 30
0.0
 10
9.0536585485
 20
22.9275613821
 30
0.0
 11
9.5543328387
 21
22.5336890181
 31
0.0
 11
9.3182135327
 21
22.756154358
 31
0.0
 11
9.1890697545
 21
22.849613486
 31
0.0
 11
9.0536585485
 21
22.9275613821
 31
0.0
  0
SPLINE
  5
52C
100
AcDbEntity
  8
RACCORDO
100
AcDbSpline
 62
7
  6
CONTINUOUS
 70
0
 71
3
 72
11
 73
7
 74
5
 42
0.0000001
 43
0.0000001
 44
0.0000000001
 12
0.4104598159
 22
0.2008428369
 32
0.0
 13
0.4087143287
 23
-0.2043714832
 33
0.0
 40
0.0
 40
0.0
 40
0.0
 40
0.0
 40
0.2787325875
 40
0.5346772883
 40
0.772449667
 40
1.0
 40
1.0
 40
1.0
 40
1.0
 10
5.3864151813
 20
24.5153121325
 30
0.0
 10
5.4245513569
 20
24.5339726137
 30
0.0
 10
5.5007823465
 20
24.5640590632
 30
0.0
 10
5.6174515492
 20
24.5851132374
 30
0.0
 10
5.7282597003
 20
24.5790008431
 30
0.0
 10
5.7964710388
 20
24.5561557142
 30
0.0
 10
5.827472066
 20
24.5406541145
 30
0.0
 11
5.3864151813
 21
24.5153121325
 31
0.0
 11
5.5052611884
 21
24.5611254448
 31
0.0
 11
5.6205401515
 21
24.5808676799
 31
0.0
 11
5.7289747103
 21
24.5739788866
 31
0.0
 11
5.827472066
 21
24.5406541145
 31
0.0
  0
SPLINE
  5
52D
100
AcDbEntity
  8
RACCORDO
100
AcDbSpline
 62
7
  6
CONTINUOUS
 70
0
 71
3
 72
14
 73
10
 74
8
 42
0.0000001
 43
0.0000001
 44
0.0000000001
 12
0.0
 22
0.630991571
 32
0.0
 13
-0.5643681094
 23
0.2822038267
 33
0.0
 40
0.0
 40
0.0
 40
0.0
 40
0.0
 40
0.2891525564
 40
0.4227177506
 40
0.5489643138
 40
0.668508974
 40
0.7824375212
 40
0.892292605
 40
1.0
 40
1.0
 40
1.0
 40
1.0
 10
1.844710683
 20
26.1211081423
 30
0.0
 10
1.844710683
 20
26.1819257509
 30
0.0
 10
1.8371242263
 20
26.2713171755
 30
0.0
 10
1.8081247955
 20
26.383303851
 30
0.0
 10
1.7786751488
 20
26.4577133416
 30
0.0
 10
1.7412668375
 20
26.5237839561
 30
0.0
 10
1.6962774871
 20
26.5806755153
 30
0.0
 10
1.6442397936
 20
26.6275808778
 30
0.0
 10
1.6050935852
 20
26.651842645
 30
0.0
 10
1.5848313789
 20
26.661974458
 30
0.0
 11
1.844710683
 21
26.1211081423
 31
0.0
 11
1.8274332453
 21
26.3027410793
 31
0.0
 11
1.8060349894
 21
26.3842578394
 31
0.0
 11
1.7764454228
 21
26.4582190153
 31
0.0
 11
1.7390273158
 21
26.5237157523
 31
0.0
 11
1.6942390482
 21
26.5799464279
 31
0.0
 11
1.6426296068
 21
26.6262216875
 31
0.0
 11
1.5848313789
 21
26.661974458
 31
0.0
  0
SPLINE
  5
52E
100
AcDbEntity
  8
RACCORDO
100
AcDbSpline
 62
7
  6
CONTINUOUS
 70
0
 71
3
 72
11
 73
7
 74
5
 42
0.0000001
 43
0.0000001
 44
0.0000000001
 12
0.0557205746
 22
0.0171953145
 32
0.0
 13
0.0521861977
 23
-0.026020416
 33
0.0
 40
0.0
 40
0.0
 40
0.0
 40
0.0
 40
0.368058145
 40
0.6517558087
 40
0.8584037383
 40
1.0
 40
1.0
 40
1.0
 40
1.0
 10
-1.698556215
 20
28.2678999843
 30
0.0
 10
-1.6917200779
 20
28.2700096095
 30
0.0
 10
-1.6795265165
 20
28.2734610677
 30
0.0
 10
-1.6631104582
 20
28.2767017814
 30
0.0
 10
-1.6508557988
 20
28.2775466692
 30
0.0
 10
-1.6439813141
 20
28.2763778829
 30
0.0
 10
-1.6415181906
 20
28.2751497517
 30
0.0
 11
-1.698556215
 21
28.2678999843
 31
0.0
 11
-1.677861946
 21
28.273591806
 31
0.0
 11
-1.6615929534
 21
28.2765924465
 31
0.0
 11
-1.6495515965
 21
28.2770581391
 31
0.0
 11
-1.6415181906
 21
28.2751497517
 31
0.0
  0
SPLINE
  5
52F
100
AcDbEntity
  8
RACCORDO
100
AcDbSpline
 62
7
  6
CONTINUOUS
 70
0
 71
3
 72
9
 73
5
 74
3
 42
0.0000001
 43
0.0000001
 44
0.0000000001
 12
-0.0189527949
 22
-0.0058488139
 32
0.0
 13
-0.0177371727
 23
-0.0088774864
 33
0.0
 40
0.0
 40
0.0
 40
0.0
 40
0.0
 40
0.2476285508
 40
1.0
 40
1.0
 40
1.0
 40
1.0
 10
-1.698556215
 20
28.2678999843
 30
0.0
 10
-1.7001206327
 20
28.2674172066
 30
0.0
 10
-1.7063953223
 20
28.2653299504
 30
0.0
 10
-1.7124875665
 20
28.2627038451
 30
0.0
 10
-1.7169358806
 20
28.260477456
 30
0.0
 11
-1.698556215
 21
28.2678999843
 31
0.0
 11
-1.7032170298
 21
28.266350436
 31
0.0
 11
-1.7169358806
 21
28.260477456
 31
0.0
  0
SPLINE
  5
530
100
AcDbEntity
  8
RACCORDO
100
AcDbSpline
 62
7
  6
CONTINUOUS
 70
0
 71
3
 72
9
 73
5
 74
3
 42
0.0000001
 43
0.0000001
 44
0.0000000001
 12
0.7619046921
 22
0.4348977983
 32
0.0
 13
0.7317139158
 23
0.4839727266
 33
0.0
 40
0.0
 40
0.0
 40
0.0
 40
0.0
 40
0.528469183
 40
1.0
 40
1.0
 40
1.0
 40
1.0
 10
8.8073459502
 20
-15.4733077465
 30
0.0
 10
8.9415603336
 20
-15.3966977185
 30
0.0
 10
9.1926899821
 20
-15.2467390174
 30
0.0
 10
9.4393242852
 20
-15.0895360331
 30
0.0
 10
9.5543328387
 20
-15.0134666814
 30
0.0
 11
8.8073459502
 21
-15.4733077465
 31
0.0
 11
9.2057334353
 21
-15.2361774329
 31
0.0
 11
9.5543328387
 21
-15.0134666814
 31
0.0
  0
SPLINE
  5
531
100
AcDbEntity
  8
RACCORDO
100
AcDbSpline
 62
7
  6
CONTINUOUS
 70
0
 71
3
 72
9
 73
5
 74
3
 42
0.0000001
 43
0.0000001
 44
0.0000000001
 12
-0.0000301215
 22
0.0088936241
 32
0.0
 13
-0.004951697
 23
0.0073877029
 33
0.0
 40
0.0
 40
0.0
 40
0.0
 40
0.0
 40
0.4165732146
 40
1.0
 40
1.0
 40
1.0
 40
1.0
 10
9.55564243
 20
-15.0094572526
 30
0.0
 10
9.5556382474
 20
-15.008222304
 30
0.0
 10
9.5547091944
 20
-15.0053063586
 30
0.0
 10
9.5531857689
 20
-15.0027698977
 30
0.0
 10
9.5522227847
 20
-15.0013331698
 30
0.0
 11
9.55564243
 21
-15.0094572526
 31
0.0
 11
9.5547610668
 21
-15.0058587477
 31
0.0
 11
9.5522227847
 21
-15.0013331698
 31
0.0
  0
SPLINE
  5
532
100
AcDbEntity
  8
RACCORDO
100
AcDbSpline
 62
7
  6
CONTINUOUS
 70
0
 71
3
 72
12
 73
8
 74
6
 42
0.0000001
 43
0.0000001
 44
0.0000000001
 12
-0.0601569049
 22
0.0897513204
 32
0.0
 13
-0.086401292
 23
0.064876571
 33
0.0
 40
0.0
 40
0.0
 40
0.0
 40
0.0
 40
0.0704428041
 40
0.1582142984
 40
0.3820181062
 40
0.6645080291
 40
1.0
 40
1.0
 40
1.0
 40
1.0
 10
9.5522227847
 20
-15.0013331698
 30
0.0
 10
9.5508102443
 20
-14.9992257249
 30
0.0
 10
9.5472659005
 20
-14.9947451811
 30
0.0
 10
9.5378997162
 20
-14.9846600367
 30
0.0
 10
9.5221091787
 20
-14.9701817037
 30
0.0
 10
9.4987502624
 20
-14.9508518255
 30
0.0
 10
9.481106673
 20
-14.937275192
 30
0.0
 10
9.4714443597
 20
-14.9300200024
 30
0.0
 11
9.5522227847
 21
-15.0013331698
 31
0.0
 11
9.5475877517
 21
-14.9952961327
 31
0.0
 11
9.5411839037
 21
-14.9883013861
 31
0.0
 11
9.5235534565
 21
-14.9717513414
 31
0.0
 11
9.5001175836
 21
-14.9521972179
 31
0.0
 11
9.4714443597
 21
-14.9300200024
 31
0.0
  0
SPLINE
  5
533
100
AcDbEntity
  8
RACCORDO
100
AcDbSpline
 62
7
  6
CONTINUOUS
 70
0
 71
3
 72
11
 73
7
 74
5
 42
0.0000001
 43
0.0000001
 44
0.0000000001
 12
-0.1620397139
 22
-0.0811011646
 32
0.0
 13
-0.0906562346
 23
-0.1568939607
 33
0.0
 40
0.0
 40
0.0
 40
0.0
 40
0.0
 40
0.2068014243
 40
0.4392363129
 40
0.7028675903
 40
1.0
 40
1.0
 40
1.0
 40
1.0
 10
-1.7169358806
 20
28.260477456
 30
0.0
 10
-1.7281058951
 20
28.2548868439
 30
0.0
 10
-1.7501492454
 20
28.2396035116
 30
0.0
 10
-1.7798260496
 20
28.2090417871
 30
0.0
 10
-1.8085433047
 20
28.1705753091
 30
0.0
 10
-1.8263364382
 20
28.1417168534
 30
0.0
 10
-1.8353154067
 20
28.1261774266
 30
0.0
 11
-1.7169358806
 21
28.260477456
 31
0.0
 11
-1.7480874701
 21
28.2396496865
 31
0.0
 11
-1.7778534373
 21
28.2098521931
 31
0.0
 11
-1.8067758831
 21
28.1718321805
 31
0.0
 11
-1.8353154067
 21
28.1261774266
 31
0.0
  0
SPLINE
  5
534
100
AcDbEntity
  8
RACCORDO
100
AcDbSpline
 62
7
  6
CONTINUOUS
 70
0
 71
3
 72
11
 73
7
 74
5
 42
0.0000001
 43
0.0000001
 44
0.0000000001
 12
-0.4087143287
 22
0.2043714832
 32
0.0
 13
-0.4104598159
 23
-0.2008428369
 33
0.0
 40
0.0
 40
0.0
 40
0.0
 40
0.0
 40
0.227550333
 40
0.4653227117
 40
0.7212674125
 40
1.0
 40
1.0
 40
1.0
 40
1.0
 10
1.5848313789
 20
26.661974458
 30
0.0
 10
1.5538303517
 20
26.6774760577
 30
0.0
 10
1.4856190132
 20
26.7003211866
 30
0.0
 10
1.3748108621
 20
26.7064335809
 30
0.0
 10
1.2581416594
 20
26.6853794068
 30
0.0
 10
1.1819106697
 20
26.6552929573
 30
0.0
 10
1.1437744942
 20
26.6366324761
 30
0.0
 11
1.5848313789
 21
26.661974458
 31
0.0
 11
1.4863340232
 21
26.6952992302
 31
0.0
 11
1.3778994644
 21
26.7021880235
 31
0.0
 11
1.2626205013
 21
26.6824457883
 31
0.0
 11
1.1437744942
 21
26.6366324761
 31
0.0
  0
SPLINE
  5
535
100
AcDbEntity
  8
RACCORDO
100
AcDbSpline
 62
7
  6
CONTINUOUS
 70
0
 71
3
 72
9
 73
5
 74
3
 42
0.0000001
 43
0.0000001
 44
0.0000000001
 12
-0.2341361533
 22
0.117035093
 32
0.0
 13
-0.2566306785
 23
0.0515523629
 33
0.0
 40
0.0
 40
0.0
 40
0.0
 40
0.0
 40
0.2560238952
 40
1.0
 40
1.0
 40
1.0
 40
1.0
 10
9.0536585485
 20
22.9275613821
 30
0.0
 10
9.0336770651
 20
22.9375493089
 30
0.0
 10
8.9546243918
 20
22.9744272213
 30
0.0
 10
8.8709883144
 20
23.0021643264
 30
0.0
 10
8.8073459502
 20
23.0149489018
 30
0.0
 11
9.0536585485
 21
22.9275613821
 31
0.0
 11
8.9928978844
 21
22.9558333987
 31
0.0
 11
8.8073459502
 21
23.0149489018
 31
0.0
  0
SPLINE
  5
536
100
AcDbEntity
  8
RACCORDO
100
AcDbSpline
 62
7
  6
CONTINUOUS
 70
0
 71
3
 72
9
 73
5
 74
3
 42
0.0000001
 43
0.0000001
 44
0.0000000001
 12
-0.0000153526
 22
0.0058907759
 32
0.0
 13
-0.0030473344
 23
0.0050413519
 33
0.0
 40
0.0
 40
0.0
 40
0.0
 40
0.0
 40
0.198822484
 40
1.0
 40
1.0
 40
1.0
 40
1.0
 10
9.5556424896
 20
21.9254497446
 30
0.0
 10
9.5556414721
 20
21.9258401509
 30
0.0
 10
9.5553792297
 20
21.9278021607
 30
0.0
 10
9.5544302318
 20
21.9295901386
 30
0.0
 10
9.5536164132
 20
21.9309364779
 30
0.0
 11
9.5556424896
 21
21.9254497446
 31
0.0
 11
9.555510045
 21
21.9266134547
 31
0.0
 11
9.5536164132
 21
21.9309364779
 31
0.0
  0
SPLINE
  5
537
100
AcDbEntity
  8
RACCORDO
100
AcDbSpline
 62
7
  6
CONTINUOUS
 70
0
 71
3
 72
12
 73
8
 74
6
 42
0.0000001
 43
0.0000001
 44
0.0000000001
 12
-0.0562867789
 22
0.0931179267
 32
0.0
 13
-0.0879275831
 23
0.0640928225
 33
0.0
 40
0.0
 40
0.0
 40
0.0
 40
0.0
 40
0.0637627611
 40
0.1470196742
 40
0.3678913705
 40
0.6544802791
 40
1.0
 40
1.0
 40
1.0
 40
1.0
 10
9.5536164132
 20
21.9309364779
 30
0.0
 10
9.5524200797
 20
21.93291563
 30
0.0
 10
9.549157121
 20
21.9371640796
 30
0.0
 10
9.5400607831
 20
21.9469302543
 30
0.0
 10
9.5240553222
 20
21.9612283801
 30
0.0
 10
9.4999475016
 20
21.9806147066
 30
0.0
 10
9.4815712644
 20
21.9943344941
 30
0.0
 10
9.4714443597
 20
22.0017162722
 30
0.0
 11
9.5536164132
 21
21.9309364779
 31
0.0
 11
9.5495197663
 21
21.9365357451
 31
0.0
 11
9.5434093902
 21
21.9432237118
 31
0.0
 11
9.5257236328
 21
21.9594957336
 31
0.0
 11
9.5015080412
 21
21.9791424231
 31
0.0
 11
9.4714443597
 21
22.0017162722
 31
0.0
  0
SPLINE
  5
538
100
AcDbEntity
  8
RACCORDO
100
AcDbSpline
 62
7
  6
CONTINUOUS
 70
0
 71
3
 72
10
 73
6
 74
4
 42
0.0000001
 43
0.0000001
 44
0.0000000001
 12
-0.0001212048
 22
-0.3024299942
 32
0.0
 13
-0.1477248048
 23
-0.2638963776
 33
0.0
 40
0.0
 40
0.0
 40
0.0
 40
0.0
 40
0.2413789779
 40
0.4900689452
 40
1.0
 40
1.0
 40
1.0
 40
1.0
 10
9.55564243
 20
22.5016698932
 30
0.0
 10
9.5556326779
 20
22.4773364789
 30
0.0
 10
9.5509970328
 20
22.4278786188
 30
0.0
 10
9.5274840777
 20
22.3296583315
 30
0.0
 10
9.4965541816
 20
22.2588317456
 30
0.0
 10
9.4714443597
 20
22.2139754262
 30
0.0
 11
9.55564243
 21
22.5016698932
 31
0.0
 11
9.549395348
 21
22.4289374363
 31
0.0
 11
9.5322196458
 21
22.3557135562
 31
0.0
 11
9.4714443597
 21
22.2139754262
 31
0.0
  0
SPLINE
  5
539
100
AcDbEntity
  8
RACCORDO
100
AcDbSpline
 62
7
  6
CONTINUOUS
 70
0
 71
3
 72
13
 73
9
 74
7
 42
0.0000001
 43
0.0000001
 44
0.0000000001
 12
0.0
 22
0.5145411392
 32
0.0
 13
-0.4602195858
 23
0.2301097929
 33
0.0
 40
0.0
 40
0.0
 40
0.0
 40
0.0
 40
0.2464774511
 40
0.5111327431
 40
0.6428451777
 40
0.7698685706
 40
0.8895552217
 40
1.0
 40
1.0
 40
1.0
 40
1.0
 10
4.0720970437
 20
17.8677552083
 30
0.0
 10
4.0720970437
 20
17.9100294711
 30
0.0
 10
4.057507422
 20
17.997825234
 30
0.0
 10
4.0133709682
 20
18.0999596599
 30
0.0
 10
3.9637165898
 20
18.174979359
 30
0.0
 10
3.9212478056
 20
18.2243208589
 30
0.0
 10
3.87513407
 20
18.2649467177
 30
0.0
 10
3.8415526203
 20
18.2861478532
 30
0.0
 10
3.8246096703
 20
18.2946193282
 30
0.0
 11
4.0720970437
 21
17.8677552083
 31
0.0
 11
4.0532584667
 21
17.9931710275
 31
0.0
 11
3.9996113468
 21
18.1183345171
 31
0.0
 11
3.9621080669
 21
18.1747833932
 31
0.0
 11
3.9193199325
 21
18.2241892961
 31
0.0
 11
3.8728945243
 21
18.264652048
 31
0.0
 11
3.8246096703
 21
18.2946193282
 31
0.0
  0
SPLINE
  5
53A
100
AcDbEntity
  8
RACCORDO
100
AcDbSpline
 62
7
  6
CONTINUOUS
 70
0
 71
3
 72
11
 73
7
 74
5
 42
0.0000001
 43
0.0000001
 44
0.0000000001
 12
0.0
 22
-0.219311122
 32
0.0
 13
-0.195312993
 23
-0.0997507042
 33
0.0
 40
0.0
 40
0.0
 40
0.0
 40
0.0
 40
0.2895883012
 40
0.5494587242
 40
0.7828521482
 40
1.0
 40
1.0
 40
1.0
 40
1.0
 10
4.0720970437
 20
-20.3239420148
 30
0.0
 10
4.0720970437
 20
-20.3451119932
 30
0.0
 10
4.0686984069
 20
-20.38543014
 30
0.0
 10
4.0515726648
 20
-20.4406136208
 30
0.0
 10
4.0229787854
 20
-20.4848962453
 30
0.0
 10
3.9962652719
 20
-20.505533867
 30
0.0
 10
3.9821280063
 20
-20.512754084
 30
0.0
 11
4.0720970437
 21
-20.3239420148
 31
0.0
 11
4.066119795
 21
-20.3871700495
 31
0.0
 11
4.0484779205
 21
-20.4413632812
 31
0.0
 11
4.0200226031
 21
-20.483910647
 31
0.0
 11
3.9821280063
 21
-20.512754084
 31
0.0
  0
SPLINE
  5
53B
100
AcDbEntity
  8
RACCORDO
100
AcDbSpline
 62
7
  6
CONTINUOUS
 70
0
 71
3
 72
9
 73
5
 74
3
 42
0.0000001
 43
0.0000001
 44
0.0000000001
 12
-0.4347732533
 22
0.0873379156
 32
0.0
 13
-0.4394369151
 23
-0.0595893528
 33
0.0
 40
0.0
 40
0.0
 40
0.0
 40
0.0
 40
0.4886809648
 40
1.0
 40
1.0
 40
1.0
 40
1.0
 10
8.8073459502
 20
23.0149489018
 30
0.0
 10
8.7365241459
 20
23.029175694
 30
0.0
 10
8.5886414103
 20
23.044325612
 30
0.0
 10
8.4404025688
 20
23.0359235722
 30
0.0
 10
8.3655050823
 20
23.0257671821
 30
0.0
 11
8.8073459502
 21
23.0149489018
 31
0.0
 11
8.5919041488
 21
23.0383582256
 31
0.0
 11
8.3655050823
 21
23.0257671821
 31
0.0
  0
SPLINE
  5
53C
100
AcDbEntity
  8
ASSI
100
AcDbSpline
 62
7
  6
CONTINUOUS
 70
0
 71
3
 72
15
 73
11
 74
9
 42
0.0000001
 43
0.0000001
 44
0.0000000001
 12
1.2927245145
 22
0.6739981235
 32
0.0
 13
0.0
 23
1.4578786441
 33
0.0
 40
0.0
 40
0.0
 40
0.0
 40
0.0
 40
0.1109516471
 40
0.2309090886
 40
0.3579430161
 40
0.489443561
 40
0.622418517
 40
0.7537555272
 40
0.8804749292
 40
1.0
 40
1.0
 40
1.0
 40
1.0
 10
-6.8403620107
 20
19.6053877045
 30
0.0
 10
-6.7925520393
 20
19.6303147718
 30
0.0
 10
-6.697972893
 20
19.6919097717
 30
0.0
 10
-6.5682478449
 20
19.8086142442
 30
0.0
 10
-6.4490328275
 20
19.9493682506
 30
0.0
 10
-6.3446954078
 20
20.109011326
 30
0.0
 10
-6.2590093639
 20
20.2817161887
 30
0.0
 10
-6.1951178944
 20
20.461180736
 30
0.0
 10
-6.1553610933
 20
20.6407953712
 30
0.0
 10
-6.1455959444
 20
20.7605798921
 30
0.0
 10
-6.1455959444
 20
20.8186642415
 30
0.0
 11
-6.8403620107
 21
19.6053877045
 31
0.0
 11
-6.7041767052
 21
19.6926684643
 31
0.0
 11
-6.5735766167
 21
19.8089776114
 31
0.0
 11
-6.4534653818
 21
19.9499469335
 31
0.0
 11
-6.348358768
 21
20.1102779281
 31
0.0
 11
-6.2622064207
 21
20.2839442619
 31
0.0
 11
-6.1982469497
 21
20.4644193503
 31
0.0
 11
-6.1588838208
 21
20.6449185736
 31
0.0
 11
-6.1455959444
 21
20.8186642415
 31
0.0
  0
ELLIPSE
  5
53D
100
AcDbEntity
  8
RACCORDO
100
AcDbEllipse
 62
7
  6
CONTINUOUS
 10
-15.7868517525
 20
22.3830815053
 30
0.0
 11
-0.436493403
 21
0.6710813156
 31
0.0
 40
0.5464995433
 41
-0.750067548
 42
0.0242121709
  0
ELLIPSE
  5
53E
100
AcDbEntity
  8
RACCORDO
100
AcDbEllipse
 62
7
  6
CONTINUOUS
 10
2.4070651583
 20
-19.2734051113
 30
0.0
 11
-0.436493403
 21
0.6710813156
 31
0.0
 40
0.5464995433
 41
-3.1656409678
 42
-2.3215491074
  0
ELLIPSE
  5
53F
100
AcDbEntity
  8
RACCORDO
100
AcDbEllipse
 62
7
  6
CONTINUOUS
 10
-1.2208398855
 20
15.1000755718
 30
0.0
 11
-0.436144938
 21
0.6706554036
 31
0.0
 40
0.5472471754
 41
-2.3207749666
 42
-0.7506638725
  0
ELLIPSE
  5
540
100
AcDbEntity
  8
DRAFT
100
AcDbEllipse
 62
7
  6
CONTINUOUS
 10
11.9209823149
 20
22.53480315
 30
0.0
 11
2.7499831596
 21
-0.0194567514
 31
0.0
 40
0.4946372042
 41
2.368420792
 42
2.9397220933
  0
ELLIPSE
  5
541
100
AcDbEntity
  8
0
100
AcDbEllipse
 62
7
  6
CONTINUOUS
 10
17.3784324611
 20
23.6262550776
 30
0.0
 11
0.79574694
 21
0.7129684349
 31
0.0
 40
0.2882345029
 41
0.1136090155
 42
0.7807533904
  0
ELLIPSE
  5
542
100
AcDbEntity
  8
DRAFT
100
AcDbEllipse
 62
7
  6
CONTINUOUS
 10
12.592733757
 20
22.4304863644
 30
0.0
 11
2.7583783481
 21
-0.0195161492
 31
0.0
 40
0.4946372042
 41
0.4406346392
 42
2.3596941457
  0
ELLIPSE
  5
543
100
AcDbEntity
  8
0
100
AcDbEllipse
 62
7
  6
CONTINUOUS
 10
13.4810443905
 20
25.5749491129
 30
0.0
 11
0.4410298232
 21
0.8975092442
 31
0.0
 40
0.607010042
 41
-0.8902711325
 42
-0.7587130969
  0
ELLIPSE
  5
544
100
AcDbEntity
  8
RACCORDO
100
AcDbEllipse
 62
7
  6
CONTINUOUS
 10
120.2079432122
 20
69.3693467322
 30
0.0
 11
111.4440378013
 21
57.7233873698
 31
0.0
 40
0.017156689
 41
2.654821495
 42
3.6105913739
  0
ELLIPSE
  5
545
100
AcDbEntity
  8
0
100
AcDbEllipse
 62
7
  6
CONTINUOUS
 10
13.5345999805
 20
25.5481713178
 30
0.0
 11
-0.3106730325
 21
1.1082908718
 31
0.0
 40
0.6760995073
 41
4.9783291412
 42
6.4001141399
  0
ELLIPSE
  5
546
100
AcDbEntity
  8
DRAFT
100
AcDbEllipse
 62
7
  6
CONTINUOUS
 10
12.592733757
 20
22.8543036184
 30
0.0
 11
2.7583876426
 21
-0.0130411979
 31
0.0
 40
0.4964289597
 41
0.1874063655
 42
2.3585415194
  0
ELLIPSE
  5
547
100
AcDbEntity
  8
0
100
AcDbEllipse
 62
7
  6
CONTINUOUS
 10
11.8974492267
 20
23.749922763
 30
0.0
 11
3.3022643479
 21
-0.04629945
 31
0.0
 40
0.4892378494
 41
2.3616770883
 42
5.5059722822
  0
ELLIPSE
  5
548
100
AcDbEntity
  8
ASSI
100
AcDbEllipse
 62
7
  6
CONTINUOUS
 10
12.592733757
 20
22.4304863644
 30
0.0
 11
2.7583783481
 21
-0.0195161492
 31
0.0
 40
0.4946372042
 41
0.4406346392
 42
2.3596941457
  0
ELLIPSE
  5
549
100
AcDbEntity
  8
ASSI
100
AcDbEllipse
 62
7
  6
CONTINUOUS
 10
13.4810443905
 20
25.5749491129
 30
0.0
 11
0.4410298232
 21
0.8975092442
 31
0.0
 40
0.607010042
 41
-0.8902711325
 42
-0.7587130969
  0
ELLIPSE
  5
54A
100
AcDbEntity
  8
ASSI
100
AcDbEllipse
 62
7
  6
CONTINUOUS
 10
11.9209823149
 20
22.53480315
 30
0.0
 11
2.7499831596
 21
-0.0194567514
 31
0.0
 40
0.4946372042
 41
2.368420792
 42
2.9397220933
  0
ELLIPSE
  5
54B
100
AcDbEntity
  8
ASSI
100
AcDbEllipse
 62
7
  6
CONTINUOUS
 10
17.3784324611
 20
23.6262550776
 30
0.0
 11
0.79574694
 21
0.7129684349
 31
0.0
 40
0.2882345029
 41
0.1136090155
 42
0.7807533904
  0
ELLIPSE
  5
54C
100
AcDbEntity
  8
ASSI
100
AcDbEllipse
 62
7
  6
CONTINUOUS
 10
12.592733757
 20
22.8543036184
 30
0.0
 11
2.7583876426
 21
-0.0130411979
 31
0.0
 40
0.4964289597
 41
0.1874063655
 42
2.3585415194
  0
ELLIPSE
  5
54D
100
AcDbEntity
  8
ASSI
100
AcDbEllipse
 62
7
  6
CONTINUOUS
 10
11.8974492267
 20
23.749922763
 30
0.0
 11
3.3022643479
 21
-0.04629945
 31
0.0
 40
0.4892378494
 41
2.3616770883
 42
5.5059722822
  0
ELLIPSE
  5
54E
100
AcDbEntity
  8
ASSI
100
AcDbEllipse
 62
7
  6
CONTINUOUS
 10
13.5345999805
 20
25.5481713178
 30
0.0
 11
-0.3106730325
 21
1.1082908718
 31
0.0
 40
0.6760995073
 41
4.9783291412
 42
6.4001141399
  0
ELLIPSE
  5
54F
100
AcDbEntity
  8
ASSI
100
AcDbEllipse
 62
7
  6
CONTINUOUS
 10
120.2079432122
 20
69.3693467322
 30
0.0
 11
111.4440378013
 21
57.7233873698
 31
0.0
 40
0.017156689
 41
2.654821495
 42
3.6105913739
  0
ELLIPSE
  5
550
100
AcDbEntity
  8
0
100
AcDbEllipse
 62
252
  6
CONTINUOUS
 10
18.2228908319
 20
7.0829591165
 30
0.0
 11
0.282528686
 21
0.5853435979
 31
0.0
 40
0.6015719519
 41
-0.8946238289
 42
2.2469688247
  0
ELLIPSE
  5
551
100
AcDbEntity
  8
RACCORDO
100
AcDbEllipse
 62
7
  6
CONTINUOUS
 10
0.4751085702
 20
-21.9237628876
 30
0.0
 11
0.110769438
 21
0.2241226716
 31
0.0
 40
0.6088015717
 41
-4.0304836828
 42
-3.1443955108
  0
ELLIPSE
  5
552
100
AcDbEntity
  8
RACCORDO
100
AcDbEllipse
 62
7
  6
CONTINUOUS
 10
-12.8892095942
 20
26.3113717277
 30
0.0
 11
0.110769438
 21
0.2241226716
 31
0.0
 40
0.6088015717
 41
-4.0304836828
 42
-3.1443650652
  0
ELLIPSE
  5
553
100
AcDbEntity
  8
RACCORDO
100
AcDbEllipse
 62
7
  6
CONTINUOUS
 10
0.4751085702
 20
19.6292126455
 30
0.0
 11
0.110769438
 21
0.2241226716
 31
0.0
 40
0.6088015717
 41
-4.0304836828
 42
-3.1443650652
  0
ELLIPSE
  5
554
100
AcDbEntity
  8
RACCORDO
100
AcDbEllipse
 62
7
  6
CONTINUOUS
 10
4.5317164515
 20
18.3374945964
 30
0.0
 11
-0.1565168911
 21
0.3130623908
 31
0.0
 40
0.6123677712
 41
-2.2554744912
 42
-0.6846781644
  0
ELLIPSE
  5
555
100
AcDbEntity
  8
RACCORDO
100
AcDbEllipse
 62
7
  6
CONTINUOUS
 10
4.5317164515
 20
-19.8390872483
 30
0.0
 11
-0.1565168911
 21
0.3130623908
 31
0.0
 40
0.6123677712
 41
-3.1363904945
 42
-2.2554744912
  0
ELLIPSE
  5
556
100
AcDbEntity
  8
RACCORDO
100
AcDbEllipse
 62
7
  6
CONTINUOUS
 10
-1.234879097
 20
27.4427259016
 30
0.0
 11
0.2999991737
 21
-0.0014183462
 31
0.0
 40
0.4964289597
 41
0.7877451926
 42
2.3527237553
  0
ELLIPSE
  5
557
100
AcDbEntity
  8
RACCORDO
100
AcDbEllipse
 62
7
  6
CONTINUOUS
 10
4.3195844171
 20
24.6654941445
 30
0.0
 11
0.2999991737
 21
-0.0014183462
 31
0.0
 40
0.4964289597
 41
0.7877451926
 42
2.3585415194
  0
ELLIPSE
  5
558
100
AcDbEntity
  8
RACCORDO
100
AcDbEllipse
 62
7
  6
CONTINUOUS
 10
3.8589365526
 20
18.9550656073
 30
0.0
 11
0.110769438
 21
0.2241226716
 31
0.0
 40
0.6088015717
 41
1.2055040732
 42
2.2526937431
  0
ELLIPSE
  5
559
100
AcDbEntity
  8
RACCORDO
100
AcDbEllipse
 62
7
  6
CONTINUOUS
 10
-9.5053816118
 20
25.6372246895
 30
0.0
 11
0.110769438
 21
0.2241226716
 31
0.0
 40
0.6088015717
 41
1.2055040732
 42
2.2526937431
  0
ELLIPSE
  5
55A
100
AcDbEntity
  8
RACCORDO
100
AcDbEllipse
 62
7
  6
CONTINUOUS
 10
4.2104330298
 20
19.8828707593
 30
0.0
 11
0.110769438
 21
0.2241226716
 31
0.0
 40
0.6088015717
 41
-1.9360885804
 42
-0.8888910292
  0
ELLIPSE
  5
55B
100
AcDbEntity
  8
RACCORDO
100
AcDbEllipse
 62
7
  6
CONTINUOUS
 10
2.5902581734
 20
20.9538871638
 30
0.0
 11
0.1128509832
 21
0.2230818409
 31
0.0
 40
0.6159267166
 41
0.0028979148
 42
0.6817883054
  0
ELLIPSE
  5
55C
100
AcDbEntity
  8
RACCORDO
100
AcDbEllipse
 62
7
  6
CONTINUOUS
 10
0.4751085702
 20
19.8825840393
 30
0.0
 11
0.110769438
 21
0.2241226716
 31
0.0
 40
0.6088015717
 41
0.6877230618
 42
2.2527016244
  0
ELLIPSE
  5
55D
100
AcDbEntity
  8
RACCORDO
100
AcDbEllipse
 62
7
  6
CONTINUOUS
 10
-9.1538851347
 20
26.5650298415
 30
0.0
 11
0.110769438
 21
0.2241226716
 31
0.0
 40
0.6088015717
 41
-1.9360885804
 42
-0.8888910292
  0
ELLIPSE
  5
55E
100
AcDbEntity
  8
RACCORDO
100
AcDbEllipse
 62
7
  6
CONTINUOUS
 10
-10.774059991
 20
27.6360462461
 30
0.0
 11
0.1128509832
 21
0.2230818409
 31
0.0
 40
0.6159267166
 41
0.0028979148
 42
0.6817883054
  0
ELLIPSE
  5
55F
100
AcDbEntity
  8
RACCORDO
100
AcDbEllipse
 62
7
  6
CONTINUOUS
 10
-12.8892095942
 20
26.5647431215
 30
0.0
 11
0.110769438
 21
0.2241226716
 31
0.0
 40
0.6088015717
 41
0.6877230618
 42
2.2527016244
  0
ELLIPSE
  5
560
100
AcDbEntity
  8
RACCORDO
100
AcDbEllipse
 62
7
  6
CONTINUOUS
 10
4.2104330298
 20
-21.6776623564
 30
0.0
 11
0.110769438
 21
0.2241226716
 31
0.0
 40
0.6088015717
 41
-2.4538695918
 42
-0.8888910292
  0
ELLIPSE
  5
561
100
AcDbEntity
  8
RACCORDO
100
AcDbEllipse
 62
7
  6
CONTINUOUS
 10
0.4751085702
 20
-21.6703914939
 30
0.0
 11
0.110769438
 21
0.2241226716
 31
0.0
 40
0.6088015717
 41
1.2055040732
 42
2.2527016244
  0
ELLIPSE
  5
562
100
AcDbEntity
  8
RACCORDO
100
AcDbEllipse
 62
7
  6
CONTINUOUS
 10
-10.3850973447
 20
19.8735001182
 30
0.0
 11
-0.3234211751
 21
0.9546019167
 31
0.0
 40
0.6648686735
 41
-0.5912965599
 42
0.1123827769
  0
ELLIPSE
  5
563
100
AcDbEntity
  8
RACCORDO
100
AcDbEllipse
 62
7
  6
CONTINUOUS
 10
4.2104330298
 20
-21.4167333801
 30
0.0
 11
0.110769438
 21
0.2241226716
 31
0.0
 40
0.6088015717
 41
5.394294278
 42
6.4414918292
  0
ELLIPSE
  5
564
100
AcDbEntity
  8
RACCORDO
100
AcDbEllipse
 62
7
  6
CONTINUOUS
 10
2.0568427173
 20
-21.0651875816
 30
0.0
 11
-0.1565168911
 21
0.3130623908
 31
0.0
 40
0.6123677712
 41
2.4569144891
 42
4.0277108159
  0
ELLIPSE
  5
565
100
AcDbEntity
  8
RACCORDO
100
AcDbEllipse
 62
7
  6
CONTINUOUS
 10
-9.1538851347
 20
26.8259588179
 30
0.0
 11
0.110769438
 21
0.2241226716
 31
0.0
 40
0.6088015717
 41
5.394294278
 42
6.9592728406
  0
ELLIPSE
  5
566
100
AcDbEntity
  8
RACCORDO
100
AcDbEllipse
 62
7
  6
CONTINUOUS
 10
4.2104330298
 20
20.1437997357
 30
0.0
 11
0.110769438
 21
0.2241226716
 31
0.0
 40
0.6088015717
 41
5.394294278
 42
6.9592728406
  0
ELLIPSE
  5
567
100
AcDbEntity
  8
RACCORDO
100
AcDbEllipse
 62
7
  6
CONTINUOUS
 10
-1.0544271199
 20
26.1206657316
 30
0.0
 11
0.2999981629
 21
-0.0021225547
 31
0.0
 40
0.4946372042
 41
-0.7818985079
 42
0.0034997008
  0
ELLIPSE
  5
568
100
AcDbEntity
  8
RACCORDO
100
AcDbEllipse
 62
7
  6
CONTINUOUS
 10
4.5000363943
 20
23.3434339745
 30
0.0
 11
0.2999981629
 21
-0.0021225547
 31
0.0
 40
0.4946372042
 41
-0.7760807437
 42
0.0035109161
  0
ELLIPSE
  5
569
100
AcDbEntity
  8
RACCORDO
100
AcDbEllipse
 62
7
  6
CONTINUOUS
 10
-7.2033728474
 20
24.5225445336
 30
0.0
 11
0.2999991335
 21
0.0014318851
 31
0.0
 40
0.5035541159
 41
8.6427941204
 42
10.207772683
  0
ELLIPSE
  5
56A
100
AcDbEntity
  8
RACCORDO
100
AcDbEllipse
 62
7
  6
CONTINUOUS
 10
-13.2166637563
 20
24.7254744323
 30
0.0
 11
-0.1565168911
 21
0.3130623908
 31
0.0
 40
0.6123677712
 41
-0.6846781644
 42
0.8861181623
  0
ELLIPSE
  5
56B
100
AcDbEntity
  8
RACCORDO
100
AcDbEllipse
 62
7
  6
CONTINUOUS
 10
2.0568427173
 20
17.0887211955
 30
0.0
 11
-0.1565168911
 21
0.3130623908
 31
0.0
 40
0.6123677712
 41
-2.2554744912
 42
-0.6846781644
  0
ELLIPSE
  5
56C
100
AcDbEntity
  8
RACCORDO
100
AcDbEllipse
 62
7
  6
CONTINUOUS
 10
0.6703081228
 20
2.3594618459
 30
0.0
 11
-0.0646337196
 21
0.1902471476
 31
0.0
 40
0.6675902134
 41
-2.1647611171
 42
-0.5939647903
  0
ELLIPSE
  5
56D
100
AcDbEntity
  8
RACCORDO
100
AcDbEllipse
 62
7
  6
CONTINUOUS
 10
-1.4108637793
 20
21.6262899996
 30
0.0
 11
0.2999991335
 21
0.0014318851
 31
0.0
 40
0.5035541159
 41
-2.3585979313
 42
-0.7936193687
  0
ELLIPSE
  5
56E
100
AcDbEntity
  8
RACCORDO
100
AcDbEllipse
 62
7
  6
CONTINUOUS
 10
-1.4108637793
 20
20.4120909238
 30
0.0
 11
0.2999980272
 21
0.0021530184
 31
0.0
 40
0.5053247124
 41
-2.3598210761
 42
-0.7948425135
  0
ELLIPSE
  5
56F
100
AcDbEntity
  8
RACCORDO
100
AcDbEllipse
 62
7
  6
CONTINUOUS
 10
-7.2033728474
 20
23.3083454578
 30
0.0
 11
0.2999980272
 21
0.0021530184
 31
0.0
 40
0.5053247124
 41
3.1379773283
 42
3.9233642311
  0
ELLIPSE
  5
570
100
AcDbEntity
  8
RACCORDO
100
AcDbEllipse
 62
7
  6
CONTINUOUS
 10
4.5000363943
 20
24.5752681559
 30
0.0
 11
0.2999991737
 21
-0.0014183462
 31
0.0
 40
0.4964289597
 41
-0.77723337
 42
0.7877451926
  0
ELLIPSE
  5
571
100
AcDbEntity
  8
RACCORDO
100
AcDbEllipse
 62
7
  6
CONTINUOUS
 10
-1.0544271199
 20
27.352499913
 30
0.0
 11
0.2999991737
 21
-0.0014183462
 31
0.0
 40
0.4964289597
 41
-0.7830511342
 42
0.7877451926
  0
ELLIPSE
  5
572
100
AcDbEntity
  8
RACCORDO
100
AcDbEllipse
 62
7
  6
CONTINUOUS
 10
3.8589365526
 20
-20.8445385321
 30
0.0
 11
0.110769438
 21
0.2241226716
 31
0.0
 40
0.6088015717
 41
2.2527095058
 42
3.2998991756
  0
ELLIPSE
  5
573
100
AcDbEntity
  8
RACCORDO
100
AcDbEllipse
 62
7
  6
CONTINUOUS
 10
2.0829419458
 20
19.0786673515
 30
0.0
 11
0.1128509832
 21
0.2230818409
 31
0.0
 40
0.6159267166
 41
0.6934238338
 42
2.2584023964
  0
ELLIPSE
  5
574
100
AcDbEntity
  8
RACCORDO
100
AcDbEllipse
 62
7
  6
CONTINUOUS
 10
2.0829419458
 20
18.8252959577
 30
0.0
 11
0.1128509832
 21
0.2230818409
 31
0.0
 40
0.6159267166
 41
-4.0247829108
 42
-2.9775853596
  0
ELLIPSE
  5
575
100
AcDbEntity
  8
RACCORDO
100
AcDbEllipse
 62
7
  6
CONTINUOUS
 10
-11.2813762186
 20
25.7608264337
 30
0.0
 11
0.1128509832
 21
0.2230818409
 31
0.0
 40
0.6159267166
 41
0.6934238338
 42
2.2584023964
  0
ELLIPSE
  5
576
100
AcDbEntity
  8
RACCORDO
100
AcDbEllipse
 62
7
  6
CONTINUOUS
 10
-11.2813762186
 20
25.5074550399
 30
0.0
 11
0.1128509832
 21
0.2230818409
 31
0.0
 40
0.6159267166
 41
-4.0247829108
 42
-2.9775853596
  0
ELLIPSE
  5
577
100
AcDbEntity
  8
RACCORDO
100
AcDbEllipse
 62
7
  6
CONTINUOUS
 10
2.0829419458
 20
-22.7276795754
 30
0.0
 11
0.1128509832
 21
0.2230818409
 31
0.0
 40
0.6159267166
 41
-4.0247829108
 42
-2.4598043482
  0
ELLIPSE
  5
578
100
AcDbEntity
  8
RACCORDO
100
AcDbEllipse
 62
7
  6
CONTINUOUS
 10
2.0829419458
 20
-22.4743081817
 30
0.0
 11
0.1128509832
 21
0.2230818409
 31
0.0
 40
0.6159267166
 41
1.2112048452
 42
2.2584023964
  0
ELLIPSE
  5
579
100
AcDbEntity
  8
RACCORDO
100
AcDbEllipse
 62
7
  6
CONTINUOUS
 10
0.4046364111
 20
14.4786332402
 30
0.0
 11
-0.3205676932
 21
0.9531531496
 31
0.0
 40
0.66789399
 41
-2.1618296722
 42
-0.5913379319
  0
ENDSEC
  0
SECTION
  2
OBJECTS
  0
DICTIONARY
  5
C
100
AcDbDictionary
280
0
281
1
  3
ACAD_GROUP
350
D
  3
ACAD_MLINESTYLE
350
17
  3
ACAD_LAYOUT
350
1A
  3
ACAD_PLOTSETTINGS
350
19
  3
ACAD_PLOTSTYLENAME
350
E
  0
DICTIONARY
  5
D
102
{ACAD_REACTORS
330
C
102
}
100
AcDbDictionary
280
0
281
1
  0
ACDBDICTIONARYWDFLT
  5
E
102
{ACAD_REACTORS
330
C
102
}
100
AcDbDictionary
281
1
  3
Normal
350
F
100
AcDbDictionaryWithDefault
340
F
  0
DICTIONARY
  5
17
102
{ACAD_REACTORS
330
C
102
}
100
AcDbDictionary
280
0
281
1
  3
Standard
350
18
  0
DICTIONARY
  5
19
102
{ACAD_REACTORS
330
C
102
}
100
AcDbDictionary
281
1
  0
DICTIONARY
  5
1A
102
{ACAD_REACTORS
330
C
102
}
100
AcDbDictionary
281
1
  3
Model
350
57A
  3
Layout1
350
57B
  0
ACDBPLACEHOLDER
  5
F
102
{ACAD_REACTORS
330
E
102
}
  0
MLINESTYLE
  5
18
102
{ACAD_REACTORS
330
17
102
}
100
AcDbMlineStyle
  2
STANDARD
 70
0
  3

 62
256
 51
90.0
 52
90.0
 71
2
 49
0.5
 62
256
  6
BYLAYER
 49
-0.5
 62
256
  6
BYLAYER
  0
LAYOUT
  5
57A
102
{ACAD_REACTORS
330
1A
102
}
100
AcDbPlotSettings
  1

  2
none_device
  4
ISO_A4_(297.00_x_210.00_MM)
  6

 40
0.0
 41
0.0
 42
0.0
 43
0.0
 44
297.0
 45
210.0
 46
0.0
 47
0.0
 48
0.0
 49
0.0
140
0.0
141
0.0
142
1.0
143
1.0
 70
1024
 72
1
 73
0
 74
0
  7

 75
0
147
1.0
148
0.0
149
0.0
100
AcDbLayout
  1
Model
 70
0
 71
0
 10
0.0
 20
0.0
 11
297.0
 21
210.0
 12
0.0
 22
0.0
 32
0.0
 14
0.0
 24
0.0
 34
0.0
 15
0.0
 25
0.0
 35
0.0
146
0.0
 13
0.0
 23
0.0
 33
0.0
 16
1.0
 26
0.0
 36
0.0
 17
0.0
 27
1.0
 37
0.0
 76
0
330
219
345
0
346
0
  0
LAYOUT
  5
57B
102
{ACAD_REACTORS
330
1A
102
}
100
AcDbPlotSettings
  1

  2
none_device
  4
ISO_A4_(297.00_x_210.00_MM)
  6

 40
0.0
 41
0.0
 42
0.0
 43
0.0
 44
297.0
 45
210.0
 46
0.0
 47
0.0
 48
0.0
 49
0.0
140
0.0
141
0.0
142
1.0
143
1.0
 70
0
 72
1
 73
0
 74
0
  7

 75
0
147
1.0
148
0.0
149
0.0
100
AcDbLayout
  1
Layout1
 70
0
 71
1
 10
0.0
 20
0.0
 11
297.0
 21
210.0
 12
0.0
 22
0.0
 32
0.0
 14
0.0
 24
0.0
 34
0.0
 15
0.0
 25
0.0
 35
0.0
146
0.0
 13
0.0
 23
0.0
 33
0.0
 16
1.0
 26
0.0
 36
0.0
 17
0.0
 27
1.0
 37
0.0
 76
0
330
21A
345
0
346
0
  0
ENDSEC
  0
EOF
