  0
SECTION
  2
HEADER
  9
$ACADVER
  1
AC1015
  9
$DWGCODEPAGE
  3
ANSI_1252
  9
$EXTMAX
 10
297.0
 20
210.0
 30
0.0
  9
$EXTMIN
 10
0.0
 20
0.0
 30
0.0
  9
$LIMMIN
 10
0.0
 20
0.0
  9
$LIMMAX
 10
297.0
 20
210.0
  9
$VIEWCTR
 10
148.5
 20
105.0
  9
$VIEWSIZE
 40
210.0
  9
$CLAYER
  8
0
  9
$LTSCALE
 40
16.335
  9
$CELTYPE
  6
BYLAYER
  9
$DIMSCALE
 40
1.0
  9
$DIMASZ
 40
3.0
  9
$DIMEXO
 40
1.85625
  9
$DIMDLI
 40
11.286
  9
$DIMEXE
 40
5.346
  9
$DIMCEN
 40
2.673
  9
$DIMLFAC
 40
1.0
  9
$DIMBLK
  1
_FILLED
  9
$DIMTXT
 40
3.0
  9
$DIMTOL
 70
1
  9
$DIMLIM
 70
0
  9
$DIMTFAC
 40
1.0
  9
$DIMTP
 40
0.01
  9
$DIMTM
 40
0.01
  9
$PDMODE
 70
3
  9
$PDSIZE
 40
3.0
  9
$HANDSEED
  5
53B
  9
$TILEMODE
 70
1
  9
$MEASUREMENT
 70
1
  9
$INSUNITS
 70
4
  0
ENDSEC
  0
SECTION
  2
CLASSES
  0
CLASS
  1
ACDBDICTIONARYWDFLT
  2
AcDbDictionaryWithDefault
  3
AutoCAD 2000
 90
0
280
0
281
0
  0
CLASS
  1
ACDBPLACEHOLDER
  2
AcDbPlaceHolder
  3
AutoCAD 2000
 90
0
280
0
281
0
  0
CLASS
  1
LAYOUT
  2
AcDbLayout
  3
AutoCAD 2000
 90
0
280
0
281
0
  0
ENDSEC
  0
SECTION
  2
TABLES
  0
TABLE
  2
VPORT
  5
8
100
AcDbSymbolTable
 70
2
  0
VPORT
  5
1F4
100
AcDbSymbolTableRecord
100
AcDbViewportTableRecord
  2
*ACTIVE
 70
0
 10
0.0
 20
0.0
 11
1.0
 21
1.0
 12
148.5
 22
105.0
 13
0.0
 23
0.0
 14
1.0
 24
1.0
 15
0.0
 25
0.0
 16
0.0
 26
0.0
 36
1.0
 17
0.0
 27
0.0
 37
0.0
 40
210.0
 41
1.4142857143
 42
50.0
 43
0.0
 44
0.0
 50
0.0
 51
0.0
 71
0
 72
100
 73
1
 74
1
 75
0
 76
0
 77
0
 78
0
  0
ENDTAB
  0
TABLE
  2
LTYPE
  5
5
100
AcDbSymbolTable
 70
6
  0
LTYPE
  5
14
100
AcDbSymbolTableRecord
100
AcDbLinetypeTableRecord
  2
BYBLOCK
 70
0
  3

 72
65
 73
0
 40
0.0
  0
LTYPE
  5
15
100
AcDbSymbolTableRecord
100
AcDbLinetypeTableRecord
  2
BYLAYER
 70
0
  3

 72
65
 73
0
 40
0.0
  0
LTYPE
  5
16
100
AcDbSymbolTableRecord
100
AcDbLinetypeTableRecord
  2
CONTINUOUS
 70
64
  3
Solid line
 72
65
 73
0
 40
0.0
  0
LTYPE
  5
1F5
100
AcDbSymbolTableRecord
100
AcDbLinetypeTableRecord
  2
CENTER
 70
64
  3
____ _ ____ _ ____ _ ____ _ ____ _ ____ _ ____
 72
65
 73
4
 40
0.6
 49
0.375
 74
0
 49
-0.075
 74
0
 49
0.075
 74
0
 49
-0.075
 74
0
  0
LTYPE
  5
1F6
100
AcDbSymbolTableRecord
100
AcDbLinetypeTableRecord
  2
HIDDEN
 70
64
  3
- - - - - - - - - - - - - - - - - - - -
 72
65
 73
2
 40
0.2
 49
0.1
 74
0
 49
-0.1
 74
0
  0
LTYPE
  5
1F7
100
AcDbSymbolTableRecord
100
AcDbLinetypeTableRecord
  2
PHANTOM
 70
64
  3
_____ _ _ _____ _ _ _____ _ _ _____
 72
65
 73
6
 40
0.8
 49
0.45
 74
0
 49
-0.05
 74
0
 49
0.1
 74
0
 49
-0.05
 74
0
 49
0.1
 74
0
 49
-0.05
 74
0
  0
LTYPE
  5
1F8
100
AcDbSymbolTableRecord
100
AcDbLinetypeTableRecord
  2
DOT
 70
64
  3
. . . . . . . . . . . . . . . . . . . .
 72
65
 73
2
 40
0.2
 49
0.1
 74
0
 49
-0.1
 74
0
  0
LTYPE
  5
1F9
100
AcDbSymbolTableRecord
100
AcDbLinetypeTableRecord
  2
DASHED
 70
64
  3
- - - - - - - - - - - - - - - - - - - -
 72
65
 73
2
 40
0.2
 49
0.1
 74
0
 49
-0.1
 74
0
  0
ENDTAB
  0
TABLE
  2
LAYER
  5
2
100
AcDbSymbolTable
 70
36
  0
LAYER
  5
10
100
AcDbSymbolTableRecord
100
AcDbLayerTableRecord
  2
0
 70
0
 62
7
  6
CONTINUOUS
370
-3
390
F
  0
LAYER
  5
1FA
100
AcDbSymbolTableRecord
100
AcDbLayerTableRecord
  2
DEFAULT_1
 70
0
 62
7
  6
CENTER
370
-3
390
F
  0
LAYER
  5
1FB
100
AcDbSymbolTableRecord
100
AcDbLayerTableRecord
  2
DEFAULT_2
 70
0
 62
7
  6
HIDDEN
370
-3
390
F
  0
LAYER
  5
1FC
100
AcDbSymbolTableRecord
100
AcDbLayerTableRecord
  2
DEFAULT_3
 70
0
 62
7
  6
PHANTOM
370
-3
390
F
  0
LAYER
  5
1FD
100
AcDbSymbolTableRecord
100
AcDbLayerTableRecord
  2
ASSI
 70
0
 62
7
  6
CONTINUOUS
370
-3
390
F
  0
LAYER
  5
1FE
100
AcDbSymbolTableRecord
100
AcDbLayerTableRecord
  2
COLORE_TOP
 70
0
 62
7
  6
CONTINUOUS
370
-3
390
F
  0
LAYER
  5
1FF
100
AcDbSymbolTableRecord
100
AcDbLayerTableRecord
  2
COORDINATE
 70
0
 62
7
  6
CONTINUOUS
370
-3
390
F
  0
LAYER
  5
200
100
AcDbSymbolTableRecord
100
AcDbLayerTableRecord
  2
COORD_ORIGINE
 70
0
 62
7
  6
CONTINUOUS
370
-3
390
F
  0
LAYER
  5
201
100
AcDbSymbolTableRecord
100
AcDbLayerTableRecord
  2
COPY_PUBLISH
 70
0
 62
7
  6
CONTINUOUS
370
-3
390
F
  0
LAYER
  5
202
100
AcDbSymbolTableRecord
100
AcDbLayerTableRecord
  2
COSMETIC
 70
0
 62
7
  6
CONTINUOUS
370
-3
390
F
  0
LAYER
  5
203
100
AcDbSymbolTableRecord
100
AcDbLayerTableRecord
  2
COSMETICHE
 70
0
 62
7
  6
CONTINUOUS
370
-3
390
F
  0
LAYER
  5
204
100
AcDbSymbolTableRecord
100
AcDbLayerTableRecord
  2
CURVE
 70
0
 62
7
  6
CONTINUOUS
370
-3
390
F
  0
LAYER
  5
205
100
AcDbSymbolTableRecord
100
AcDbLayerTableRecord
  2
DRAFT
 70
0
 62
7
  6
CONTINUOUS
370
-3
390
F
  0
LAYER
  5
206
100
AcDbSymbolTableRecord
100
AcDbLayerTableRecord
  2
IMPORT
 70
0
 62
7
  6
CONTINUOUS
370
-3
390
F
  0
LAYER
  5
207
100
AcDbSymbolTableRecord
100
AcDbLayerTableRecord
  2
IMPORTED
 70
0
 62
7
  6
CONTINUOUS
370
-3
390
F
  0
LAYER
  5
208
100
AcDbSymbolTableRecord
100
AcDbLayerTableRecord
  2
IMPORT_IGES
 70
0
 62
7
  6
CONTINUOUS
370
-3
390
F
  0
LAYER
  5
209
100
AcDbSymbolTableRecord
100
AcDbLayerTableRecord
  2
INCISIONI_LASER
 70
0
 62
7
  6
CONTINUOUS
370
-3
390
F
  0
LAYER
  5
20A
100
AcDbSymbolTableRecord
100
AcDbLayerTableRecord
  2
NOTE
 70
0
 62
7
  6
CONTINUOUS
370
-3
390
F
  0
LAYER
  5
20B
100
AcDbSymbolTableRecord
100
AcDbLayerTableRecord
  2
PIANI
 70
0
 62
7
  6
CONTINUOUS
370
-3
390
F
  0
LAYER
  5
20C
100
AcDbSymbolTableRecord
100
AcDbLayerTableRecord
  2
PIANI_DI_RIFERIMENTO
 70
0
 62
7
  6
CONTINUOUS
370
-3
390
F
  0
LAYER
  5
20D
100
AcDbSymbolTableRecord
100
AcDbLayerTableRecord
  2
PIANI_ORIGINE
 70
0
 62
7
  6
CONTINUOUS
370
-3
390
F
  0
LAYER
  5
20E
100
AcDbSymbolTableRecord
100
AcDbLayerTableRecord
  2
PIANI_RIFERIMENTO
 70
0
 62
7
  6
CONTINUOUS
370
-3
390
F
  0
LAYER
  5
20F
100
AcDbSymbolTableRecord
100
AcDbLayerTableRecord
  2
PIANI_SFORMO
 70
0
 62
7
  6
CONTINUOUS
370
-3
390
F
  0
LAYER
  5
210
100
AcDbSymbolTableRecord
100
AcDbLayerTableRecord
  2
PUNTI
 70
0
 62
7
  6
CONTINUOUS
370
-3
390
F
  0
LAYER
  5
211
100
AcDbSymbolTableRecord
100
AcDbLayerTableRecord
  2
RACCORDO
 70
0
 62
7
  6
CONTINUOUS
370
-3
390
F
  0
LAYER
  5
212
100
AcDbSymbolTableRecord
100
AcDbLayerTableRecord
  2
SMUSSO
 70
0
 62
7
  6
CONTINUOUS
370
-3
390
F
  0
LAYER
  5
213
100
AcDbSymbolTableRecord
100
AcDbLayerTableRecord
  2
SNAPLINE
 70
0
 62
7
  6
CONTINUOUS
370
-3
390
F
  0
LAYER
  5
214
100
AcDbSymbolTableRecord
100
AcDbLayerTableRecord
  2
SUPERFICI
 70
0
 62
7
  6
CONTINUOUS
370
-3
390
F
  0
LAYER
  5
215
100
AcDbSymbolTableRecord
100
AcDbLayerTableRecord
  2
TRASH
 70
0
 62
7
  6
CONTINUOUS
370
-3
390
F
  0
LAYER
  5
216
100
AcDbSymbolTableRecord
100
AcDbLayerTableRecord
  2
XSEC_DATUMS
 70
0
 62
7
  6
CONTINUOUS
370
-3
390
F
  0
ENDTAB
  0
TABLE
  2
STYLE
  5
3
100
AcDbSymbolTable
 70
1
  0
STYLE
  5
11
100
AcDbSymbolTableRecord
100
AcDbTextStyleTableRecord
  2
STANDARD
 70
0
 40
0.0
 41
0.8
 50
0.0
 71
0
 42
0.2
  3
txt
  4

  0
STYLE
  5
217
100
AcDbSymbolTableRecord
100
AcDbTextStyleTableRecord
  2
TEXTSTYLE_1
 70
0
 40
0.0
 41
0.8
 50
0.0
 71
0
 42
0.2
  3
gdt
  4

  0
ENDTAB
  0
TABLE
  2
VIEW
  5
6
100
AcDbSymbolTable
 70
0
  0
ENDTAB
  0
TABLE
  2
UCS
  5
7
100
AcDbSymbolTable
 70
0
  0
ENDTAB
  0
TABLE
  2
APPID
  5
9
100
AcDbSymbolTable
 70
1
  0
APPID
  5
218
100
AcDbSymbolTableRecord
100
AcDbRegAppTableRecord
  2
ACAD
 70
0
  0
ENDTAB
  0
TABLE
  2
BLOCK_RECORD
  5
1
100
AcDbSymbolTable
 70
0
  0
BLOCK_RECORD
  5
219
100
AcDbSymbolTableRecord
100
AcDbBlockTableRecord
  2
*Model_Space
  0
BLOCK_RECORD
  5
21A
100
AcDbSymbolTableRecord
100
AcDbBlockTableRecord
  2
*Paper_Space
  0
ENDTAB
  0
TABLE
  2
DIMSTYLE
  5
A
100
AcDbSymbolTable
 70
1
100
AcDbDimStyleTable
 71
0
  0
DIMSTYLE
105
21B
100
AcDbSymbolTableRecord
100
AcDbDimStyleTableRecord
  2
STANDARD
 70
0
  3

  4

 40
1.0
 41
3.0
 42
0.0625
 43
0.38
 44
0.18
 45
0.0
 46
0.0
 47
0.01
 48
0.01
140
3.0
141
0.09
142
0.0
143
25.4
144
1.0
145
0.0
146
1.0
147
0.09
 71
1.0
 72
0.0
 73
0
 74
0
 75
0
 76
0
 77
1
 78
8
170
0
171
2
172
0
173
0
174
0
175
0
176
0
177
0
178
0
270
2
271
2
272
2
273
2
274
2
275
0
280
0
281
0
282
0
283
1
284
8
285
0
286
0
287
3
288
0
340
11
  0
ENDTAB
  0
ENDSEC
  0
SECTION
  2
BLOCKS
  0
BLOCK
  5
20
100
AcDbEntity
  8
0
100
AcDbBlockBegin
  2
*Model_Space
 70
0
 10
0.0
 20
0.0
 30
0.0
  3
*Model_Space
  1

  0
ENDBLK
  5
21
100
AcDbEntity
  8
0
100
AcDbBlockEnd
  0
BLOCK
  5
1C
100
AcDbEntity
  8
0
100
AcDbBlockBegin
  2
*Paper_Space
 70
0
 10
0.0
 20
0.0
 30
0.0
  3
*Paper_Space
  1

  0
ENDBLK
  5
1D
100
AcDbEntity
  8
0
100
AcDbBlockEnd
  0
ENDSEC
  0
SECTION
  2
ENTITIES
  0
LINE
  5
21C
100
AcDbEntity
  8
RACCORDO
100
AcDbLine
 62
7
  6
CONTINUOUS
 10
-14.0571042768
 20
26.7807285972
 11
-12.4743476736
 21
27.5927126945
  0
LINE
  5
21D
100
AcDbEntity
  8
RACCORDO
100
AcDbLine
 62
7
  6
CONTINUOUS
 10
-12.4743476736
 20
27.5927126945
 11
-11.9398977949
 21
27.8530601611
  0
LINE
  5
21E
100
AcDbEntity
  8
RACCORDO
100
AcDbLine
 62
7
  6
CONTINUOUS
 10
-14.5410593891
 20
25.0380281951
 11
-13.528837105
 21
25.5549581578
  0
LINE
  5
21F
100
AcDbEntity
  8
RACCORDO
100
AcDbLine
 62
253
  6
CONTINUOUS
 10
-14.3835359828
 20
25.0285948656
 11
-13.528837105
 21
25.4650794855
  0
LINE
  5
220
100
AcDbEntity
  8
RACCORDO
100
AcDbLine
 62
7
  6
CONTINUOUS
 10
-12.4492828677
 20
25.9768178926
 11
-10.8480020769
 21
26.7795398961
  0
LINE
  5
221
100
AcDbEntity
  8
RACCORDO
100
AcDbLine
 62
7
  6
CONTINUOUS
 10
-10.8480020769
 20
26.7795398961
 11
-10.3197349051
 21
27.0429787162
  0
LWPOLYLINE
  5
222
100
AcDbEntity
  8
RACCORDO
100
AcDbPolyline
 62
7
  6
CONTINUOUS
 90
24
 70
0
 10
-19.2671144596
 20
18.7684237427
 10
-19.2745292901
 20
18.7617449053
 10
-19.292180135
 20
18.7447403891
 10
-19.3092267157
 20
18.7266759432
 10
-19.3256070881
 20
18.7075668446
 10
-19.3412513897
 20
18.6874460543
 10
-19.3561109673
 20
18.6663282421
 10
-19.3701392425
 20
18.6442307959
 10
-19.3832816241
 20
18.6211939298
 10
-19.3955013224
 20
18.5972360257
 10
-19.4067613053
 20
18.5723789166
 10
-19.4170196775
 20
18.5466655979
 10
-19.4262494249
 20
18.5201175339
 10
-19.4344258132
 20
18.4927516534
 10
-19.4415210296
 20
18.4645981979
 10
-19.4475141234
 20
18.4356743289
 10
-19.4523863402
 20
18.4059917435
 10
-19.4561171425
 20
18.3755650798
 10
-19.4586861408
 20
18.3444063314
 10
-19.4600742445
 20
18.3125214798
 10
-19.4602600497
 20
18.2799102446
 10
-19.459219683
 20
18.2465776615
 10
-19.4569307746
 20
18.2125420691
 10
-19.4550032847
 20
18.1923117363
  0
LINE
  5
223
100
AcDbEntity
  8
RACCORDO
100
AcDbLine
 62
7
  6
CONTINUOUS
 10
-16.493182065
 20
21.2195018628
 11
-19.2672248125
 21
18.7683264228
  0
LINE
  5
224
100
AcDbEntity
  8
RACCORDO
100
AcDbLine
 62
253
  6
CONTINUOUS
 10
-16.5377153608
 20
20.7491947916
 11
-18.7677668519
 21
18.7786961574
  0
LINE
  5
225
100
AcDbEntity
  8
RACCORDO
100
AcDbLine
 62
7
  6
CONTINUOUS
 10
-8.5836076455
 20
24.6279828987
 11
-8.0902856302
 21
24.8810664305
  0
LINE
  5
226
100
AcDbEntity
  8
DRAFT
100
AcDbLine
 62
7
  6
CONTINUOUS
 10
-10.8480020769
 20
25.0474890886
 11
-11.914832989
 21
24.508907839
  0
LINE
  5
227
100
AcDbEntity
  8
RACCORDO
100
AcDbLine
 62
7
  6
CONTINUOUS
 10
-9.3922211003
 20
25.0191476923
 11
-2.8841844737
 21
28.2602892978
  0
LINE
  5
228
100
AcDbEntity
  8
RACCORDO
100
AcDbLine
 62
253
  6
CONTINUOUS
 10
-9.3167279598
 20
24.981401122
 11
-3.0021876332
 21
28.1261774266
  0
LINE
  5
229
100
AcDbEntity
  8
RACCORDO
100
AcDbLine
 62
7
  6
CONTINUOUS
 10
-8.0902856302
 20
24.8810664305
 11
-2.6126456408
 21
27.5493983938
  0
LINE
  5
22A
100
AcDbEntity
  8
RACCORDO
100
AcDbLine
 62
7
  6
CONTINUOUS
 10
-10.2328832419
 20
26.4219811295
 11
-10.7601279576
 21
25.7802734015
  0
LINE
  5
22B
100
AcDbEntity
  8
ASSI
100
AcDbLine
 62
7
  6
CONTINUOUS
 10
-16.3881478449
 20
17.4727072913
 11
-15.5595586353
 21
18.1494497064
  0
LINE
  5
22C
100
AcDbEntity
  8
RACCORDO
100
AcDbLine
 62
7
  6
CONTINUOUS
 10
-16.8176944954
 20
17.8036599792
 11
-15.6192363313
 21
18.7148807493
  0
LINE
  5
22D
100
AcDbEntity
  8
RACCORDO
100
AcDbLine
 62
7
  6
CONTINUOUS
 10
-11.9445898794
 20
20.79793167
 11
-13.6100369547
 21
19.8993847647
  0
LINE
  5
22E
100
AcDbEntity
  8
RACCORDO
100
AcDbLine
 62
253
  6
CONTINUOUS
 10
-11.466682419
 20
20.7858957387
 11
-13.3504198175
 21
19.7695761961
  0
LINE
  5
22F
100
AcDbEntity
  8
RACCORDO
100
AcDbLine
 62
7
  6
CONTINUOUS
 10
-2.009167312
 20
27.2464338958
 11
-6.746782746
 21
24.9113833812
  0
LINE
  5
230
100
AcDbEntity
  8
RACCORDO
100
AcDbLine
 62
7
  6
CONTINUOUS
 10
-2.4334313807
 20
25.8070022936
 11
-2.009167312
 21
26.0145997144
  0
LINE
  5
231
100
AcDbEntity
  8
RACCORDO
100
AcDbLine
 62
7
  6
CONTINUOUS
 10
-0.0230977323
 20
26.6366324761
 11
-2.0798779902
 21
25.6302255983
  0
LINE
  5
232
100
AcDbEntity
  8
RACCORDO
100
AcDbLine
 62
7
  6
CONTINUOUS
 10
2.6041902068
 20
-21.0764898201
 11
3.1314349226
 21
-21.1847820921
  0
LINE
  5
233
100
AcDbEntity
  8
RACCORDO
100
AcDbLine
 62
7
  6
CONTINUOUS
 10
-14.1672365805
 20
-15.4655349227
 11
-12.560700483
 21
-16.2688029714
  0
LINE
  5
234
100
AcDbEntity
  8
RACCORDO
100
AcDbLine
 62
7
  6
CONTINUOUS
 10
-0.8029184161
 20
-22.1476940049
 11
0.8036176814
 21
-22.9509620536
  0
LINE
  5
235
100
AcDbEntity
  8
RACCORDO
100
AcDbLine
 62
253
  6
CONTINUOUS
 10
-14.2318300593
 20
-15.3305063814
 11
-12.6260535971
 21
-16.1333946125
  0
LINE
  5
236
100
AcDbEntity
  8
RACCORDO
100
AcDbLine
 62
253
  6
CONTINUOUS
 10
-0.8675118949
 20
-22.0126654636
 11
0.7382645673
 21
-22.8155536947
  0
LINE
  5
237
100
AcDbEntity
  8
RACCORDO
100
AcDbLine
 62
253
  6
CONTINUOUS
 10
0.7382645673
 20
-22.562182301
 11
-0.8675118949
 21
-21.7592940699
  0
LINE
  5
238
100
AcDbEntity
  8
RACCORDO
100
AcDbLine
 62
253
  6
CONTINUOUS
 10
-12.6260535971
 20
-15.8800232187
 11
-14.2318300593
 21
-15.0771349877
  0
LINE
  5
239
100
AcDbEntity
  8
RACCORDO
100
AcDbLine
 62
7
  6
CONTINUOUS
 10
-4.0107442825
 20
-19.9524246218
 11
-16.0041365626
 21
-13.9557284817
  0
LINE
  5
23A
100
AcDbEntity
  8
RACCORDO
100
AcDbLine
 62
253
  6
CONTINUOUS
 10
0.8271671433
 20
-22.3307452413
 11
-0.7796377756
 21
-21.5273427819
  0
LINE
  5
23B
100
AcDbEntity
  8
RACCORDO
100
AcDbLine
 62
253
  6
CONTINUOUS
 10
-4.2653668014
 20
-19.5144574353
 11
-16.2587590816
 21
-13.5177612953
  0
LINE
  5
23C
100
AcDbEntity
  8
RACCORDO
100
AcDbLine
 62
7
  6
CONTINUOUS
 10
-15.7570343236
 20
17.2733298933
 11
-14.5585761596
 21
18.1845506634
  0
LINE
  5
23D
100
AcDbEntity
  8
0
100
AcDbLine
 62
7
  6
CONTINUOUS
 10
-10.7651602411
 20
20.7320974831
 11
-11.1160782984
 21
20.5038674809
  0
LINE
  5
23E
100
AcDbEntity
  8
ASSI
100
AcDbLine
 62
7
  6
CONTINUOUS
 10
-16.885673689
 20
16.5016951213
 11
-16.5347556318
 21
16.7299251236
  0
LINE
  5
23F
100
AcDbEntity
  8
DRAFT
100
AcDbLine
 62
7
  6
CONTINUOUS
 10
-11.3022783958
 20
19.4229846922
 11
-12.4249584243
 21
18.6928163233
  0
LINE
  5
240
100
AcDbEntity
  8
0
100
AcDbLine
 62
7
  6
CONTINUOUS
 10
-0.6820934836
 20
25.7765596622
 11
-2.0798779902
 21
25.077667409
  0
LINE
  5
241
100
AcDbEntity
  8
RACCORDO
100
AcDbLine
 62
7
  6
CONTINUOUS
 10
-3.1547833247
 20
24.3856276534
 11
-3.0932336864
 21
24.4164024725
  0
LINE
  5
242
100
AcDbEntity
  8
RACCORDO
100
AcDbLine
 62
253
  6
CONTINUOUS
 10
-3.0698274838
 20
24.3777038569
 11
-3.0037909674
 21
24.4107221151
  0
LINE
  5
243
100
AcDbEntity
  8
RACCORDO
100
AcDbLine
 62
7
  6
CONTINUOUS
 10
-2.5033959194
 20
-19.6716248097
 11
0.8899704908
 21
-21.3683080148
  0
LINE
  5
244
100
AcDbEntity
  8
DRAFT
100
AcDbLine
 62
7
  6
CONTINUOUS
 10
1.4494851754
 20
-21.5856858238
 11
1.0402201791
 21
-21.3810533257
  0
LINE
  5
245
100
AcDbEntity
  8
ASSI
100
AcDbLine
 62
7
  6
CONTINUOUS
 10
-2.1619221881
 20
-19.5148457368
 11
1.1374578642
 21
-21.164535763
  0
LINE
  5
246
100
AcDbEntity
  8
RACCORDO
100
AcDbLine
 62
253
  6
CONTINUOUS
 10
2.6041902068
 20
-21.0764898201
 11
2.5607678809
 21
-21.0547786571
  0
LINE
  5
247
100
AcDbEntity
  8
0
100
AcDbLine
 62
7
  6
CONTINUOUS
 10
-1.1865981332
 20
-19.0670502346
 11
1.9506306626
 21
-20.6356646325
  0
LINE
  5
248
100
AcDbEntity
  8
RACCORDO
100
AcDbLine
 62
253
  6
CONTINUOUS
 10
2.5163160876
 20
-20.8772226746
 11
3.1314349226
 21
-21.1847820921
  0
LINE
  5
249
100
AcDbEntity
  8
RACCORDO
100
AcDbLine
 62
7
  6
CONTINUOUS
 10
2.5163160876
 20
-20.873602525
 11
3.1547142959
 21
-21.1928016292
  0
LINE
  5
24A
100
AcDbEntity
  8
RACCORDO
100
AcDbLine
 62
7
  6
CONTINUOUS
 10
-17.6264347622
 20
1.7476947278
 11
-17.626456829
 21
1.7479035922
  0
LINE
  5
24B
100
AcDbEntity
  8
RACCORDO
100
AcDbLine
 62
7
  6
CONTINUOUS
 10
-18.7665247234
 20
7.8214895723
 11
-18.7665202972
 21
7.8214476098
  0
LINE
  5
24C
100
AcDbEntity
  8
RACCORDO
100
AcDbLine
 62
7
  6
CONTINUOUS
 10
-19.7328030786
 20
16.9767320287
 11
-18.7665197806
 21
7.8214427149
  0
LINE
  5
24D
100
AcDbEntity
  8
RACCORDO
100
AcDbLine
 62
7
  6
CONTINUOUS
 10
-16.5513993338
 20
-13.1662620266
 11
-17.5967993683
 21
-3.2613616894
  0
LINE
  5
24E
100
AcDbEntity
  8
RACCORDO
100
AcDbLine
 62
253
  6
CONTINUOUS
 10
-19.4401628264
 20
16.62523276
 11
-18.4739947217
 21
7.4710348736
  0
LINE
  5
24F
100
AcDbEntity
  8
RACCORDO
100
AcDbLine
 62
253
  6
CONTINUOUS
 10
-16.2587590816
 20
-13.5177612953
 11
-17.3040439221
 21
-3.613952392
  0
LINE
  5
250
100
AcDbEntity
  8
RACCORDO
100
AcDbLine
 62
7
  6
CONTINUOUS
 10
-19.3993944118
 20
17.665430117
 11
-19.4550035476
 21
18.1923125821
  0
LINE
  5
251
100
AcDbEntity
  8
RACCORDO
100
AcDbLine
 62
253
  6
CONTINUOUS
 10
-19.3116023362
 20
17.5599803364
 11
-19.3672114718
 21
18.0868628001
  0
LINE
  5
252
100
AcDbEntity
  8
ASSI
100
AcDbLine
 62
7
  6
CONTINUOUS
 10
-17.626485175
 20
1.7481721295
 11
-17.6694340206
 21
2.1551015546
  0
LINE
  5
253
100
AcDbEntity
  8
RACCORDO
100
AcDbLine
 62
253
  6
CONTINUOUS
 10
-17.4172590224
 20
1.4606424282
 11
-17.4689638059
 21
1.9505321455
  0
LINE
  5
254
100
AcDbEntity
  8
RACCORDO
100
AcDbLine
 62
7
  6
CONTINUOUS
 10
-17.8038546808
 20
6.9190605045
 11
-17.3084606067
 21
2.225327226
  0
LINE
  5
255
100
AcDbEntity
  8
RACCORDO
100
AcDbLine
 62
7
  6
CONTINUOUS
 10
-17.2068108518
 20
1.2622215649
 11
-16.7142470413
 21
-3.4046956841
  0
LINE
  5
256
100
AcDbEntity
  8
RACCORDO
100
AcDbLine
 62
253
  6
CONTINUOUS
 10
-17.6391780843
 20
7.0536265549
 11
-17.0800550762
 21
1.7560777807
  0
LINE
  5
257
100
AcDbEntity
  8
RACCORDO
100
AcDbLine
 62
253
  6
CONTINUOUS
 10
-17.0283502927
 20
1.2661880634
 11
-16.4692272847
 21
-4.0313607107
  0
LWPOLYLINE
  5
258
100
AcDbEntity
  8
RACCORDO
100
AcDbPolyline
 62
7
  6
CONTINUOUS
 90
32
 70
0
 10
-18.4001516095
 20
1.0871629769
 10
-18.3994870872
 20
1.022336286
 10
-18.3969348414
 20
0.9453663493
 10
-18.3924632952
 20
0.8693341439
 10
-18.386065628
 20
0.7942890078
 10
-18.3777407314
 20
0.7203125309
 10
-18.3674955161
 20
0.6475220383
 10
-18.3553326983
 20
0.5759720862
 10
-18.3412579025
 20
0.5057210419
 10
-18.3252907945
 20
0.4368844312
 10
-18.3074419818
 20
0.3695140692
 10
-18.2877245926
 20
0.303660534
 10
-18.2661708595
 20
0.2394291186
 10
-18.2427973267
 20
0.1768602869
 10
-18.2176263548
 20
0.1160030913
 10
-18.1907093421
 20
0.0569662943
 10
-18.1620696437
 20
-0.0002206444
 10
-18.131741198
 20
-0.0555128174
 10
-18.0998059548
 20
-0.1087912132
 10
-18.0663259727
 20
-0.1599961144
 10
-18.0313233518
 20
-0.2091377544
 10
-17.994828065
 20
-0.2562069538
 10
-17.9568870461
 20
-0.3011727252
 10
-17.9175420364
 20
-0.3440166508
 10
-17.8768133338
 20
-0.3847406123
 10
-17.834745376
 20
-0.4233191024
 10
-17.791388194
 20
-0.4597274721
 10
-17.7467687337
 20
-0.4939604342
 10
-17.7009357173
 20
-0.5259939888
 10
-17.6539429247
 20
-0.5558063634
 10
-17.6058240405
 20
-0.5833899277
 10
-17.5681564905
 20
-0.6030388053
  0
LINE
  5
259
100
AcDbEntity
  8
RACCORDO
100
AcDbLine
 62
7
  6
CONTINUOUS
 10
-18.4001516756
 20
1.0871616487
 11
-18.4001516756
 21
4.3347569129
  0
LINE
  5
25A
100
AcDbEntity
  8
RACCORDO
100
AcDbLine
 62
253
  6
CONTINUOUS
 10
-18.3415730318
 20
1.0164509705
 11
-18.3415730318
 21
4.2640462347
  0
LINE
  5
25B
100
AcDbEntity
  8
RACCORDO
100
AcDbLine
 62
253
  6
CONTINUOUS
 10
-18.1190698887
 20
4.1527946632
 11
-18.1190698887
 21
0.905199399
  0
LINE
  5
25C
100
AcDbEntity
  8
RACCORDO
100
AcDbLine
 62
253
  6
CONTINUOUS
 10
-17.9776485325
 20
4.1235053413
 11
-17.9776485325
 21
0.8759100771
  0
LINE
  5
25D
100
AcDbEntity
  8
RACCORDO
100
AcDbLine
 62
253
  6
CONTINUOUS
 10
-17.4362271763
 20
-0.3480236908
 11
-17.4362271763
 21
1.3885159766
  0
LINE
  5
25E
100
AcDbEntity
  8
RACCORDO
100
AcDbLine
 62
253
  6
CONTINUOUS
 10
-17.4362271763
 20
2.5071446202
 11
-17.4362271763
 21
3.4358830859
  0
LINE
  5
25F
100
AcDbEntity
  8
RACCORDO
100
AcDbLine
 62
253
  6
CONTINUOUS
 10
-17.29480582
 20
-0.3187320268
 11
-17.29480582
 21
1.306219049
  0
LWPOLYLINE
  5
260
100
AcDbEntity
  8
RACCORDO
100
AcDbPolyline
 62
7
  6
CONTINUOUS
 90
27
 70
0
 10
-17.7684437285
 20
6.5835507075
 10
-17.7718029787
 20
6.5776902868
 10
-17.8189531315
 20
6.4917079654
 10
-17.8645202977
 20
6.4047675131
 10
-17.908463659
 20
6.316946255
 10
-17.9507472011
 20
6.228316929
 10
-17.991333443
 20
6.1389583671
 10
-18.0301849022
 20
6.0489495822
 10
-18.0672689591
 20
5.958364918
 10
-18.102551841
 20
5.8672834937
 10
-18.1359992895
 20
5.7757865794
 10
-18.1675813462
 20
5.6839522394
 10
-18.1972677176
 20
5.5918607203
 10
-18.225028415
 20
5.4995937998
 10
-18.2508370323
 20
5.4072315922
 10
-18.274667001
 20
5.3148551579
 10
-18.2964929441
 20
5.2225460176
 10
-18.316292589
 20
5.1303839257
 10
-18.3340431609
 20
5.0384503724
 10
-18.3497241042
 20
4.9468257867
 10
-18.3633176297
 20
4.8555872653
 10
-18.374804758
 20
4.7648173065
 10
-18.3841694066
 20
4.6745927575
 10
-18.3913976129
 20
4.5849802843
 10
-18.3964741019
 20
4.4960538166
 10
-18.3993862159
 20
4.407901951
 10
-18.4001515731
 20
4.3347558691
  0
LINE
  5
261
100
AcDbEntity
  8
RACCORDO
100
AcDbLine
 62
7
  6
CONTINUOUS
 10
-3.1664941815
 20
24.3778792786
 11
-4.0965190003
 21
23.5862515083
  0
LINE
  5
262
100
AcDbEntity
  8
0
100
AcDbLine
 62
253
  6
CONTINUOUS
 10
-3.0698274838
 20
24.3777038569
 11
-4.0354934258
 21
23.5557387211
  0
LINE
  5
263
100
AcDbEntity
  8
0
100
AcDbLine
 62
7
  6
CONTINUOUS
 10
-6.522519554
 20
18.6107771396
 11
-6.8734376113
 21
18.3825471373
  0
LINE
  5
264
100
AcDbEntity
  8
ASSI
100
AcDbLine
 62
7
  6
CONTINUOUS
 10
-8.2542076623
 20
19.4766211937
 11
-8.0072342372
 21
19.6053877045
  0
LINE
  5
265
100
AcDbEntity
  8
RACCORDO
100
AcDbLine
 62
7
  6
CONTINUOUS
 10
-2.3668416886
 20
21.5195999202
 11
-1.8677459558
 21
21.7697965933
  0
LINE
  5
266
100
AcDbEntity
  8
RACCORDO
100
AcDbLine
 62
7
  6
CONTINUOUS
 10
-1.8677459558
 20
21.7697965933
 11
3.5465267394
 21
24.4698122037
  0
LINE
  5
267
100
AcDbEntity
  8
RACCORDO
100
AcDbLine
 62
7
  6
CONTINUOUS
 10
2.9405801563
 20
24.7715601617
 11
-1.7970352777
 21
22.436509647
  0
LINE
  5
268
100
AcDbEntity
  8
RACCORDO
100
AcDbLine
 62
7
  6
CONTINUOUS
 10
4.2195429548
 20
24.5153121325
 11
3.6331641678
 21
24.2283900649
  0
LINE
  5
269
100
AcDbEntity
  8
RACCORDO
100
AcDbLine
 62
7
  6
CONTINUOUS
 10
10.499373191
 20
27.180566812
 11
4.7194737419
 21
24.5112177071
  0
LINE
  5
26A
100
AcDbEntity
  8
RACCORDO
100
AcDbLine
 62
253
  6
CONTINUOUS
 10
10.930992616
 20
27.1447731057
 11
5.0126735488
 21
24.4114972341
  0
LINE
  5
26B
100
AcDbEntity
  8
0
100
AcDbLine
 62
7
  6
CONTINUOUS
 10
0.5201793371
 20
-18.2705315322
 11
1.9506306626
 21
-18.985757195
  0
LINE
  5
26C
100
AcDbEntity
  8
DRAFT
100
AcDbLine
 62
7
  6
CONTINUOUS
 10
-7.2128418471
 20
-14.071390989
 11
-8.6456677384
 21
-13.3549780434
  0
LWPOLYLINE
  5
26D
100
AcDbEntity
  8
RACCORDO
100
AcDbPolyline
 62
7
  6
CONTINUOUS
 90
17
 70
0
 10
-17.6264573759
 20
1.7479103237
 10
-17.623911903
 20
1.7269265482
 10
-17.619544857
 20
1.6995040837
 10
-17.6141906741
 20
1.6732634874
 10
-17.6079127099
 20
1.6481585496
 10
-17.6007198674
 20
1.6239934586
 10
-17.5926664745
 20
1.6007999709
 10
-17.5838182716
 20
1.5786173654
 10
-17.5741488087
 20
1.557270773
 10
-17.5637090357
 20
1.5368046859
 10
-17.5525534138
 20
1.5172538953
 10
-17.5406084754
 20
1.4984450494
 10
-17.5279094605
 20
1.4804193125
 10
-17.5145039834
 20
1.4632262236
 10
-17.5002845836
 20
1.4467304675
 10
-17.4852265139
 20
1.4309320045
 10
-17.4687762218
 20
1.4153713164
  0
LWPOLYLINE
  5
26E
100
AcDbEntity
  8
RACCORDO
100
AcDbPolyline
 62
7
  6
CONTINUOUS
 90
25
 70
0
 10
-18.7665238906
 20
7.8214859176
 10
-18.7640724354
 20
7.8008397046
 10
-18.7588086056
 20
7.7667031177
 10
-18.7520706455
 20
7.7328434764
 10
-18.7438849937
 20
7.6993603001
 10
-18.7342693524
 20
7.6662909409
 10
-18.7232188802
 20
7.6336133746
 10
-18.7107531778
 20
7.6013958367
 10
-18.6968960003
 20
7.569704404
 10
-18.6816321266
 20
7.5385176866
 10
-18.6649819346
 20
7.5079004625
 10
-18.6469725545
 20
7.4779211701
 10
-18.6275820526
 20
7.4485686628
 10
-18.6068339221
 20
7.4199082179
 10
-18.5847583743
 20
7.3920058574
 10
-18.5613269456
 20
7.3648556136
 10
-18.5365588823
 20
7.3385159998
 10
-18.5104920548
 20
7.3130573342
 10
-18.4831073597
 20
7.2884924211
 10
-18.4544265938
 20
7.2648768064
 10
-18.4244873119
 20
7.2422737156
 10
-18.3932723369
 20
7.2207027107
 10
-18.3607845625
 20
7.2002040684
 10
-18.3270687413
 20
7.1808418553
 10
-18.2957782678
 20
7.1644676329
  0
LINE
  5
26F
100
AcDbEntity
  8
RACCORDO
100
AcDbLine
 62
7
  6
CONTINUOUS
 10
-16.9841405998
 20
17.4346441415
 11
-16.885673689
 21
16.5016951213
  0
LINE
  5
270
100
AcDbEntity
  8
ASSI
100
AcDbLine
 62
7
  6
CONTINUOUS
 10
-16.3500571892
 20
17.1118079836
 11
-16.3881478449
 21
17.4727072913
  0
LINE
  5
271
100
AcDbEntity
  8
RACCORDO
100
AcDbLine
 62
7
  6
CONTINUOUS
 10
-14.6310233562
 20
24.849218119
 11
-14.6310233562
 21
24.8248226138
  0
LINE
  5
272
100
AcDbEntity
  8
ASSI
100
AcDbLine
 62
7
  6
CONTINUOUS
 10
-13.8178505578
 20
23.4592168441
 11
-14.1327485167
 21
20.1607405457
  0
LINE
  5
273
100
AcDbEntity
  8
RACCORDO
100
AcDbLine
 62
7
  6
CONTINUOUS
 10
-9.7466266835
 20
14.2681260732
 11
-8.5481685195
 21
15.1793468434
  0
LINE
  5
274
100
AcDbEntity
  8
DRAFT
100
AcDbLine
 62
7
  6
CONTINUOUS
 10
-7.0596377087
 20
17.3016643486
 11
-8.1823177371
 21
16.5714959798
  0
LINE
  5
275
100
AcDbEntity
  8
0
100
AcDbLine
 62
7
  6
CONTINUOUS
 10
-7.9927001142
 20
16.4766871683
 11
-7.4589379629
 21
16.8238352688
  0
LINE
  5
276
100
AcDbEntity
  8
RACCORDO
100
AcDbLine
 62
7
  6
CONTINUOUS
 10
-0.6927861123
 20
20.0985695149
 11
0.8899704908
 21
20.9105536123
  0
LINE
  5
277
100
AcDbEntity
  8
0
100
AcDbLine
 62
7
  6
CONTINUOUS
 10
8.7926713532
 20
23.8968007199
 11
13.0090511309
 21
26.0421103366
  0
LINE
  5
278
100
AcDbEntity
  8
RACCORDO
100
AcDbLine
 62
7
  6
CONTINUOUS
 10
-2.3668416886
 20
20.3053964474
 11
-1.8677459558
 21
20.557361028
  0
LINE
  5
279
100
AcDbEntity
  8
RACCORDO
100
AcDbLine
 62
7
  6
CONTINUOUS
 10
-1.8677459558
 20
20.557361028
 11
3.5465267394
 21
23.2379736253
  0
LINE
  5
27A
100
AcDbEntity
  8
RACCORDO
100
AcDbLine
 62
7
  6
CONTINUOUS
 10
0.8899704908
 20
20.9105536123
 11
1.4244203695
 21
21.1709010788
  0
LINE
  5
27B
100
AcDbEntity
  8
RACCORDO
100
AcDbLine
 62
253
  6
CONTINUOUS
 10
2.4267938776
 20
20.7316916957
 11
7.1986328558
 21
23.0257671821
  0
LINE
  5
27C
100
AcDbEntity
  8
RACCORDO
100
AcDbLine
 62
253
  6
CONTINUOUS
 10
2.6544093775
 20
20.6178839458
 11
7.6404737237
 21
23.0149489018
  0
LINE
  5
27D
100
AcDbEntity
  8
0
100
AcDbLine
 62
7
  6
CONTINUOUS
 10
11.9717591179
 20
26.6243898548
 11
8.3986854194
 21
24.918956538
  0
LINE
  5
27E
100
AcDbEntity
  8
RACCORDO
100
AcDbLine
 62
7
  6
CONTINUOUS
 10
-15.923480428
 20
16.9043140556
 11
-15.8250135172
 21
15.9713650354
  0
LINE
  5
27F
100
AcDbEntity
  8
ASSI
100
AcDbLine
 62
7
  6
CONTINUOUS
 10
-15.5595586353
 20
18.1494497064
 11
-15.6192363313
 21
18.7148807493
  0
LINE
  5
280
100
AcDbEntity
  8
RACCORDO
100
AcDbLine
 62
7
  6
CONTINUOUS
 10
-14.2318300593
 20
-15.3305063814
 11
-14.2318300593
 21
-15.0771349877
  0
LINE
  5
281
100
AcDbEntity
  8
RACCORDO
100
AcDbLine
 62
7
  6
CONTINUOUS
 10
-14.2318300593
 20
26.2224691517
 11
-14.2318300593
 21
26.4758405455
  0
LINE
  5
282
100
AcDbEntity
  8
ASSI
100
AcDbLine
 62
7
  6
CONTINUOUS
 10
-13.8178505578
 20
24.4182362146
 11
-13.8178505578
 21
23.4592168441
  0
LINE
  5
283
100
AcDbEntity
  8
DRAFT
100
AcDbLine
 62
7
  6
CONTINUOUS
 10
-13.528837105
 20
25.315909897
 11
-13.528837105
 21
25.7682408727
  0
LINE
  5
284
100
AcDbEntity
  8
RACCORDO
100
AcDbLine
 62
7
  6
CONTINUOUS
 10
-12.6260535971
 20
25.6729523144
 11
-12.6260535971
 21
25.4195809206
  0
LINE
  5
285
100
AcDbEntity
  8
RACCORDO
100
AcDbLine
 62
7
  6
CONTINUOUS
 10
-12.6260535971
 20
-15.8800232187
 11
-12.6260535971
 21
-16.1333946125
  0
LINE
  5
286
100
AcDbEntity
  8
DRAFT
100
AcDbLine
 62
7
  6
CONTINUOUS
 10
-11.1160782984
 20
20.5038674809
 11
-11.3022783958
 21
19.4229846922
  0
LINE
  5
287
100
AcDbEntity
  8
ASSI
100
AcDbLine
 62
7
  6
CONTINUOUS
 10
-8.4884908234
 20
14.6139158005
 11
-9.317080033
 21
13.9371733853
  0
LINE
  5
288
100
AcDbEntity
  8
RACCORDO
100
AcDbLine
 62
7
  6
CONTINUOUS
 10
-8.6859665117
 20
13.7377959873
 11
-7.4875083477
 21
14.6490167575
  0
LINE
  5
289
100
AcDbEntity
  8
ASSI
100
AcDbLine
 62
7
  6
CONTINUOUS
 10
-9.4636878199
 20
13.1943912177
 11
-9.8146058771
 21
12.9661612154
  0
LINE
  5
28A
100
AcDbEntity
  8
RACCORDO
100
AcDbLine
 62
253
  6
CONTINUOUS
 10
3.0303969207
 20
19.6168490432
 11
8.3887237008
 21
22.5077892701
  0
LINE
  5
28B
100
AcDbEntity
  8
RACCORDO
100
AcDbLine
 62
253
  6
CONTINUOUS
 10
2.6637767675
 20
19.170636917
 11
8.3045721332
 21
22.2139754262
  0
LINE
  5
28C
100
AcDbEntity
  8
RACCORDO
100
AcDbLine
 62
253
  6
CONTINUOUS
 10
2.5753868127
 20
19.0353437358
 11
8.3045721332
 21
22.0017162722
  0
LINE
  5
28D
100
AcDbEntity
  8
RACCORDO
100
AcDbLine
 62
7
  6
CONTINUOUS
 10
2.6951529433
 20
18.9754606705
 11
8.3867818456
 21
21.922387802
  0
LINE
  5
28E
100
AcDbEntity
  8
RACCORDO
100
AcDbLine
 62
253
  6
CONTINUOUS
 10
2.6577374438
 20
18.2946193282
 11
0.8899704908
 21
17.3918416287
  0
LINE
  5
28F
100
AcDbEntity
  8
DRAFT
100
AcDbLine
 62
7
  6
CONTINUOUS
 10
2.5163160876
 20
18.3653300063
 11
1.4494851754
 21
17.8267487568
  0
LINE
  5
290
100
AcDbEntity
  8
DRAFT
100
AcDbLine
 62
7
  6
CONTINUOUS
 10
9.4753815511
 20
23.8295436081
 11
13.0151081178
 21
25.6051257083
  0
LINE
  5
291
100
AcDbEntity
  8
RACCORDO
100
AcDbLine
 62
7
  6
CONTINUOUS
 10
0.9150352967
 20
19.2946588104
 11
2.5163160876
 21
20.0973808139
  0
LINE
  5
292
100
AcDbEntity
  8
0
100
AcDbLine
 62
7
  6
CONTINUOUS
 10
9.3116122548
 20
22.6504242529
 11
9.8065870016
 21
22.8979116263
  0
LINE
  5
293
100
AcDbEntity
  8
0
100
AcDbLine
 62
7
  6
CONTINUOUS
 10
12.7870548978
 20
23.3345564704
 11
10.9633006031
 21
22.4226793231
  0
LINE
  5
294
100
AcDbEntity
  8
RACCORDO
100
AcDbLine
 62
7
  6
CONTINUOUS
 10
2.5163160876
 20
20.0973808139
 11
3.0445832593
 21
20.3608196339
  0
LINE
  5
295
100
AcDbEntity
  8
DRAFT
100
AcDbLine
 62
7
  6
CONTINUOUS
 10
9.4753815511
 20
23.838739056
 11
8.7926713532
 21
23.4987347576
  0
LINE
  5
296
100
AcDbEntity
  8
RACCORDO
100
AcDbLine
 62
253
  6
CONTINUOUS
 10
3.364844225
 20
18.6406150296
 11
2.6577374438
 21
18.2946193282
  0
LINE
  5
297
100
AcDbEntity
  8
DRAFT
100
AcDbLine
 62
7
  6
CONTINUOUS
 10
3.3047092041
 20
18.6706825401
 11
8.970573773
 21
21.4228710843
  0
LINE
  5
298
100
AcDbEntity
  8
ASSI
100
AcDbLine
 62
7
  6
CONTINUOUS
 10
1.1374578642
 20
16.9405820035
 11
1.9506306626
 21
17.2248836714
  0
LINE
  5
299
100
AcDbEntity
  8
RACCORDO
100
AcDbLine
 62
253
  6
CONTINUOUS
 10
-5.3106516419
 20
-9.6106485321
 11
-6.1454682793
 21
-9.1932402134
  0
LINE
  5
29A
100
AcDbEntity
  8
RACCORDO
100
AcDbLine
 62
253
  6
CONTINUOUS
 10
-16.4692272847
 20
-4.0313607107
 11
-17.3040439221
 21
-3.613952392
  0
LINE
  5
29B
100
AcDbEntity
  8
RACCORDO
100
AcDbLine
 62
7
  6
CONTINUOUS
 10
-17.4687490225
 20
1.4153458304
 11
-17.4687767679
 21
1.4153707072
  0
LINE
  5
29C
100
AcDbEntity
  8
DRAFT
100
AcDbLine
 62
7
  6
CONTINUOUS
 10
-11.914832989
 20
24.508907839
 11
-11.914832989
 21
25.1460773978
  0
LINE
  5
29D
100
AcDbEntity
  8
RACCORDO
100
AcDbLine
 62
7
  6
CONTINUOUS
 10
-10.8480020769
 20
25.0474890886
 11
-10.8480020769
 21
26.7795398961
  0
LINE
  5
29E
100
AcDbEntity
  8
RACCORDO
100
AcDbLine
 62
253
  6
CONTINUOUS
 10
-6.7358941552
 20
12.7627598091
 11
-4.0695608006
 21
14.5151175115
  0
LINE
  5
29F
100
AcDbEntity
  8
RACCORDO
100
AcDbLine
 62
253
  6
CONTINUOUS
 10
-5.9456314102
 20
11.5971758975
 11
-2.5231374179
 21
13.8464946853
  0
LINE
  5
2A0
100
AcDbEntity
  8
RACCORDO
100
AcDbLine
 62
253
  6
CONTINUOUS
 10
2.9052248172
 20
17.8677552083
 11
1.1374578642
 21
16.9649775088
  0
LINE
  5
2A1
100
AcDbEntity
  8
RACCORDO
100
AcDbLine
 62
253
  6
CONTINUOUS
 10
-0.6734799143
 20
15.3892944864
 11
-2.6959199913
 21
14.3702766553
  0
LINE
  5
2A2
100
AcDbEntity
  8
0
100
AcDbLine
 62
7
  6
CONTINUOUS
 10
13.6355830353
 20
22.9102924017
 11
12.6326127885
 21
22.4088072783
  0
LINE
  5
2A3
100
AcDbEntity
  8
RACCORDO
100
AcDbLine
 62
253
  6
CONTINUOUS
 10
3.6123315984
 20
18.2137509097
 11
2.9052248172
 21
17.8677552083
  0
LINE
  5
2A4
100
AcDbEntity
  8
RACCORDO
100
AcDbLine
 62
7
  6
CONTINUOUS
 10
17.4574567683
 20
23.8815410296
 11
9.7232678569
 21
20.1246658233
  0
LINE
  5
2A5
100
AcDbEntity
  8
0
100
AcDbLine
 62
7
  6
CONTINUOUS
 10
16.6322103007
 20
24.2941642634
 11
13.0687794641
 21
22.5839095156
  0
LWPOLYLINE
  5
2A6
100
AcDbEntity
  8
RACCORDO
100
AcDbPolyline
 62
7
  6
CONTINUOUS
 90
26
 70
0
 10
-4.1242466369
 20
-7.3249937156
 10
-4.0920277039
 20
-7.3405463261
 10
-4.0416746674
 20
-7.3626709829
 10
-3.9901846576
 20
-7.3826870933
 10
-3.9376219992
 20
-7.4005500026
 10
-3.8840325456
 20
-7.416228767
 10
-3.8294603444
 20
-7.429695692
 10
-3.7739693723
 20
-7.4409204481
 10
-3.717607415
 20
-7.4498817046
 10
-3.6604205173
 20
-7.4565616094
 10
-3.6024694178
 20
-7.4609421619
 10
-3.543803633
 20
-7.4630103537
 10
-3.4844669211
 20
-7.4627568832
 10
-3.4245090773
 20
-7.4601729385
 10
-3.3639772297
 20
-7.4552515815
 10
-3.3029146212
 20
-7.4479889357
 10
-3.2413627155
 20
-7.4383809388
 10
-3.1793669722
 20
-7.4264247666
 10
-3.116970683
 20
-7.412120555
 10
-3.0542106117
 20
-7.3954667795
 10
-2.9911327154
 20
-7.3764639688
 10
-2.9277783102
 20
-7.355114032
 10
-2.8641771416
 20
-7.3314144331
 10
-2.8003693756
 20
-7.3053653388
 10
-2.7364104472
 20
-7.2769766539
 10
-2.6832687797
 20
-7.2516546207
  0
LINE
  5
2A7
100
AcDbEntity
  8
RACCORDO
100
AcDbLine
 62
7
  6
CONTINUOUS
 10
-17.5681485084
 20
-0.6030429081
 11
-17.5682439185
 21
-0.6029952088
  0
LINE
  5
2A8
100
AcDbEntity
  8
RACCORDO
100
AcDbLine
 62
253
  6
CONTINUOUS
 10
-4.8882535322
 20
-8.7252520012
 11
-5.2281708098
 21
-8.5552933624
  0
LINE
  5
2A9
100
AcDbEntity
  8
RACCORDO
100
AcDbLine
 62
253
  6
CONTINUOUS
 10
-16.7802589823
 20
-2.7792492762
 11
-16.8816458123
 21
-2.7285558612
  0
LINE
  5
2AA
100
AcDbEntity
  8
DRAFT
100
AcDbLine
 62
7
  6
CONTINUOUS
 10
-4.1690417927
 20
-7.8435128699
 11
-3.5754855811
 21
-8.1402909757
  0
LINE
  5
2AB
100
AcDbEntity
  8
ASSI
100
AcDbLine
 62
7
  6
CONTINUOUS
 10
-17.5682493046
 20
-0.6029925158
 11
-17.0686796536
 21
-0.8527773413
  0
LINE
  5
2AC
100
AcDbEntity
  8
ASSI
100
AcDbLine
 62
7
  6
CONTINUOUS
 10
-4.6236003047
 20
-7.0753170157
 11
-4.1240306536
 21
-7.3251018412
  0
LINE
  5
2AD
100
AcDbEntity
  8
RACCORDO
100
AcDbLine
 62
7
  6
CONTINUOUS
 10
-4.1242389139
 20
-7.324997686
 11
-4.1240360872
 21
-7.3250991245
  0
LINE
  5
2AE
100
AcDbEntity
  8
RACCORDO
100
AcDbLine
 62
7
  6
CONTINUOUS
 10
-9.9130727879
 20
13.8991102356
 11
-9.8146058771
 21
12.9661612154
  0
LINE
  5
2AF
100
AcDbEntity
  8
ASSI
100
AcDbLine
 62
7
  6
CONTINUOUS
 10
-9.317080033
 20
13.9371733853
 11
-9.2789893773
 21
13.5762740777
  0
LINE
  5
2B0
100
AcDbEntity
  8
RACCORDO
100
AcDbLine
 62
7
  6
CONTINUOUS
 10
-10.1450091226
 20
26.9148613939
 11
-10.1450091226
 21
26.6539324175
  0
LINE
  5
2B1
100
AcDbEntity
  8
RACCORDO
100
AcDbLine
 62
7
  6
CONTINUOUS
 10
-8.6702450739
 20
24.5214759568
 11
-8.6702450739
 21
23.3067425706
  0
LINE
  5
2B2
100
AcDbEntity
  8
RACCORDO
100
AcDbLine
 62
253
  6
CONTINUOUS
 10
-8.5823771082
 20
24.4149669999
 11
-8.5823771082
 21
23.2000121339
  0
LINE
  5
2B3
100
AcDbEntity
  8
0
100
AcDbLine
 62
7
  6
CONTINUOUS
 10
-8.4084836818
 20
21.7135527765
 11
-8.4084836818
 21
20.7545334061
  0
LINE
  5
2B4
100
AcDbEntity
  8
DRAFT
100
AcDbLine
 62
7
  6
CONTINUOUS
 10
-8.4084836818
 20
20.7545334061
 11
-8.5178961589
 21
19.608465442
  0
LINE
  5
2B5
100
AcDbEntity
  8
DRAFT
100
AcDbLine
 62
7
  6
CONTINUOUS
 10
-6.8734376113
 20
18.3825471373
 11
-7.0596377087
 21
17.3016643486
  0
LINE
  5
2B6
100
AcDbEntity
  8
RACCORDO
100
AcDbLine
 62
7
  6
CONTINUOUS
 10
3.1314349226
 20
19.7398220473
 11
2.6041902068
 21
19.0981143193
  0
LWPOLYLINE
  5
2B7
100
AcDbEntity
  8
RACCORDO
100
AcDbPolyline
 62
7
  6
CONTINUOUS
 90
23
 70
0
 10
-17.5316498554
 20
2.4450837192
 10
-17.5346598056
 20
2.4431009922
 10
-17.5461866492
 20
2.435025304
 10
-17.5575031397
 20
2.4262939686
 10
-17.5685643447
 20
2.4169018829
 10
-17.5792945961
 20
2.4068756657
 10
-17.5896425328
 20
2.3962292227
 10
-17.5995761239
 20
2.3849593975
 10
-17.6090510269
 20
2.3730766448
 10
-17.6180235072
 20
2.3605932918
 10
-17.6264492343
 20
2.3475251866
 10
-17.6342827154
 20
2.3338934928
 10
-17.6414804441
 20
2.3197200506
 10
-17.6479985547
 20
2.3050315685
 10
-17.6537925988
 20
2.2898623711
 10
-17.6588221041
 20
2.2742439596
 10
-17.6630466901
 20
2.2582147739
 10
-17.6664264437
 20
2.2418254846
 10
-17.668927538
 20
2.2251156275
 10
-17.670516996
 20
2.2081361311
 10
-17.671165248
 20
2.1909596858
 10
-17.6708501449
 20
2.1736458232
 10
-17.669464042
 20
2.1553875772
  0
LINE
  5
2B8
100
AcDbEntity
  8
ASSI
100
AcDbLine
 62
7
  6
CONTINUOUS
 10
-17.3445010644
 20
2.5668014269
 11
-17.5316082001
 21
2.4451107327
  0
LINE
  5
2B9
100
AcDbEntity
  8
RACCORDO
100
AcDbLine
 62
253
  6
CONTINUOUS
 10
-17.3460615539
 20
2.3735681469
 11
-17.3255167709
 21
2.386930058
  0
LINE
  5
2BA
100
AcDbEntity
  8
RACCORDO
100
AcDbLine
 62
253
  6
CONTINUOUS
 10
17.8003543443
 20
23.290130194
 11
3.6123315984
 21
16.0719340751
  0
LINE
  5
2BB
100
AcDbEntity
  8
RACCORDO
100
AcDbLine
 62
253
  6
CONTINUOUS
 10
18.21450482
 20
21.8584966193
 11
3.6123315984
 21
14.4296002916
  0
LINE
  5
2BC
100
AcDbEntity
  8
RACCORDO
100
AcDbLine
 62
253
  6
CONTINUOUS
 10
-0.0549943537
 20
14.1253034015
 11
-2.4264526255
 21
12.9304307858
  0
LINE
  5
2BD
100
AcDbEntity
  8
RACCORDO
100
AcDbLine
 62
253
  6
CONTINUOUS
 10
-18.3415730318
 20
1.0164509705
 11
-18.1190698887
 21
0.905199399
  0
LINE
  5
2BE
100
AcDbEntity
  8
RACCORDO
100
AcDbLine
 62
253
  6
CONTINUOUS
 10
-5.1325691836
 20
-5.5880509536
 11
-4.9100660405
 21
-5.6993025251
  0
LINE
  5
2BF
100
AcDbEntity
  8
RACCORDO
100
AcDbLine
 62
7
  6
CONTINUOUS
 10
-6.2392958021
 20
-4.22153596
 11
-6.3942008998
 21
-4.1440834111
  0
LINE
  5
2C0
100
AcDbEntity
  8
RACCORDO
100
AcDbLine
 62
7
  6
CONTINUOUS
 10
-17.1859671689
 20
1.2517997234
 11
-17.3408722667
 21
1.3292522723
  0
LINE
  5
2C1
100
AcDbEntity
  8
RACCORDO
100
AcDbLine
 62
253
  6
CONTINUOUS
 10
-6.3156825578
 20
-4.0901458041
 11
-6.7045912874
 21
-3.8956914392
  0
LINE
  5
2C2
100
AcDbEntity
  8
RACCORDO
100
AcDbLine
 62
253
  6
CONTINUOUS
 10
-17.0283502927
 20
1.2661880634
 11
-17.4172590224
 21
1.4606424282
  0
LINE
  5
2C3
100
AcDbEntity
  8
RACCORDO
100
AcDbLine
 62
7
  6
CONTINUOUS
 10
-0.8354702541
 20
-6.5961826934
 11
-0.8696906409
 21
-6.5790725
  0
LINE
  5
2C4
100
AcDbEntity
  8
RACCORDO
100
AcDbLine
 62
253
  6
CONTINUOUS
 10
-17.4689638059
 20
1.9505321455
 11
-17.0800550762
 21
1.7560777807
  0
LINE
  5
2C5
100
AcDbEntity
  8
RACCORDO
100
AcDbLine
 62
253
  6
CONTINUOUS
 10
-6.7562960709
 20
-3.4058017219
 11
-6.3673873412
 21
-3.6002560868
  0
LINE
  5
2C6
100
AcDbEntity
  8
RACCORDO
100
AcDbLine
 62
7
  6
CONTINUOUS
 10
-8.8524126161
 20
13.3687801497
 11
-8.7539457053
 21
12.4358311295
  0
LINE
  5
2C7
100
AcDbEntity
  8
RACCORDO
100
AcDbLine
 62
253
  6
CONTINUOUS
 10
-6.1454682793
 20
-9.1932402134
 11
-6.7045912874
 21
-3.8956914392
  0
LINE
  5
2C8
100
AcDbEntity
  8
RACCORDO
100
AcDbLine
 62
253
  6
CONTINUOUS
 10
-6.7562960709
 20
-3.4058017219
 11
-7.315419079
 21
1.8917470522
  0
LINE
  5
2C9
100
AcDbEntity
  8
ASSI
100
AcDbLine
 62
7
  6
CONTINUOUS
 10
-8.5481685195
 20
15.1793468434
 11
-8.4884908234
 21
14.6139158005
  0
LINE
  5
2CA
100
AcDbEntity
  8
RACCORDO
100
AcDbLine
 62
253
  6
CONTINUOUS
 10
-6.3156825578
 20
-4.0901458041
 11
-6.3673873412
 21
-3.6002560868
  0
LINE
  5
2CB
100
AcDbEntity
  8
RACCORDO
100
AcDbLine
 62
253
  6
CONTINUOUS
 10
-7.4467705463
 20
10.6285366199
 11
-6.4806024416
 21
1.4743387335
  0
LINE
  5
2CC
100
AcDbEntity
  8
RACCORDO
100
AcDbLine
 62
253
  6
CONTINUOUS
 10
-5.3106516419
 20
-9.6106485321
 11
-4.2653668014
 21
-19.5144574353
  0
LINE
  5
2CD
100
AcDbEntity
  8
ASSI
100
AcDbLine
 62
253
  6
CONTINUOUS
 10
-5.2195396885
 20
-8.5495805188
 11
-5.6777199378
 21
-4.2084387973
  0
LINE
  5
2CE
100
AcDbEntity
  8
ASSI
100
AcDbLine
 62
253
  6
CONTINUOUS
 10
-5.7957085924
 20
-3.0905262029
 11
-6.2422423887
 21
1.140268329
  0
LINE
  5
2CF
100
AcDbEntity
  8
ASSI
100
AcDbLine
 62
7
  6
CONTINUOUS
 10
-7.3124681709
 20
20.8186642415
 11
-7.3124681709
 21
21.1655450211
  0
LWPOLYLINE
  5
2D0
100
AcDbEntity
  8
RACCORDO
100
AcDbPolyline
 62
7
  6
CONTINUOUS
 90
27
 70
0
 10
-17.2647987982
 20
-2.5094617055
 10
-17.2811820383
 20
-2.5226250833
 10
-17.3090218658
 20
-2.5464004802
 10
-17.3356210543
 20
-2.5709448088
 10
-17.3609532433
 20
-2.596200375
 10
-17.3850238252
 20
-2.6221354903
 10
-17.4078519376
 20
-2.648738469
 10
-17.4294201724
 20
-2.6759590052
 10
-17.4497181468
 20
-2.7037493987
 10
-17.4687588578
 20
-2.7320949525
 10
-17.486521664
 20
-2.7609335325
 10
-17.5030008785
 20
-2.7902191753
 10
-17.518218919
 20
-2.8199579159
 10
-17.5321617958
 20
-2.8500930139
 10
-17.5448201342
 20
-2.8805702139
 10
-17.5562104337
 20
-2.9113987842
 10
-17.5663213291
 20
-2.9425200968
 10
-17.5751464317
 20
-2.9738800415
 10
-17.5826975668
 20
-3.0054952216
 10
-17.5889648275
 20
-3.037308766
 10
-17.5939429131
 20
-3.0692645926
 10
-17.5976370286
 20
-3.1013811615
 10
-17.6000392894
 20
-3.1336017763
 10
-17.601144977
 20
-3.1658689395
 10
-17.6009510028
 20
-3.1981995332
 10
-17.5994498174
 20
-3.2305600273
 10
-17.5967913157
 20
-3.2614337934
  0
LINE
  5
2D1
100
AcDbEntity
  8
RACCORDO
100
AcDbLine
 62
7
  6
CONTINUOUS
 10
-17.2647988733
 20
-2.5094616099
 11
-16.8436568271
 21
-2.1785707671
  0
LINE
  5
2D2
100
AcDbEntity
  8
RACCORDO
100
AcDbLine
 62
253
  6
CONTINUOUS
 10
-16.901182426
 20
-2.4939874975
 11
-16.8173208426
 21
-2.4280975446
  0
LINE
  5
2D3
100
AcDbEntity
  8
ASSI
100
AcDbLine
 62
7
  6
CONTINUOUS
 10
-1.9674360037
 20
-3.4391238687
 11
-3.0459658331
 21
-3.2760410993
  0
LWPOLYLINE
  5
2D4
100
AcDbEntity
  8
RACCORDO
100
AcDbPolyline
 62
7
  6
CONTINUOUS
 90
20
 70
0
 10
-6.102405548
 20
-4.2727408674
 10
-6.097100138
 20
-4.2741163638
 10
-6.0737299979
 20
-4.2794460527
 10
-6.0497555072
 20
-4.2837134526
 10
-6.0252810751
 20
-4.2868544379
 10
-6.000355165
 20
-4.2888251806
 10
-5.9749642182
 20
-4.2895919196
 10
-5.9491859536
 20
-4.2891139338
 10
-5.923108344
 20
-4.2873584463
 10
-5.8967300858
 20
-4.2842958499
 10
-5.8701239339
 20
-4.2799040787
 10
-5.8433841343
 20
-4.274171995
 10
-5.8165323073
 20
-4.2670819521
 10
-5.7896444124
 20
-4.258634539
 10
-5.7627867226
 20
-4.2488353438
 10
-5.7359558175
 20
-4.237666158
 10
-5.7092111093
 20
-4.2251350711
 10
-5.6826063264
 20
-4.2112541959
 10
-5.6561264031
 20
-4.1959972151
 10
-5.6343730745
 20
-4.1823572175
  0
LINE
  5
2D5
100
AcDbEntity
  8
RACCORDO
100
AcDbLine
 62
7
  6
CONTINUOUS
 10
-6.1024058611
 20
-4.2727420482
 11
-6.102442813
 21
-4.272732256
  0
LINE
  5
2D6
100
AcDbEntity
  8
RACCORDO
100
AcDbLine
 62
253
  6
CONTINUOUS
 10
-18.3415730318
 20
4.2640462347
 11
-18.1190698887
 21
4.1527946632
  0
LINE
  5
2D7
100
AcDbEntity
  8
RACCORDO
100
AcDbLine
 62
253
  6
CONTINUOUS
 10
-5.1325691836
 20
-2.3404556894
 11
-4.9100660405
 21
-2.4517072609
  0
LINE
  5
2D8
100
AcDbEntity
  8
RACCORDO
100
AcDbLine
 62
7
  6
CONTINUOUS
 10
-2.6669037141
 20
-3.3422158981
 11
-2.6922983118
 21
-3.3295185992
  0
LINE
  5
2D9
100
AcDbEntity
  8
DRAFT
100
AcDbLine
 62
7
  6
CONTINUOUS
 10
-1.9726104114
 20
-4.1784610888
 11
-3.0005213873
 21
-3.3451676551
  0
LINE
  5
2DA
100
AcDbEntity
  8
RACCORDO
100
AcDbLine
 62
253
  6
CONTINUOUS
 10
-6.3491563381
 20
11.5778352333
 11
-6.2935472025
 21
11.0509527695
  0
LINE
  5
2DB
100
AcDbEntity
  8
DRAFT
100
AcDbLine
 62
7
  6
CONTINUOUS
 10
-5.1298031837
 20
1.2594577746
 11
-4.9779711123
 21
-0.1791126153
  0
LINE
  5
2DC
100
AcDbEntity
  8
DRAFT
100
AcDbLine
 62
7
  6
CONTINUOUS
 10
-4.2293127538
 20
-7.2724607911
 11
-4.1690417927
 21
-7.8435128699
  0
LINE
  5
2DD
100
AcDbEntity
  8
RACCORDO
100
AcDbLine
 62
253
  6
CONTINUOUS
 10
-6.1060648021
 20
10.7344797714
 11
-5.1351074228
 21
1.5349047226
  0
LINE
  5
2DE
100
AcDbEntity
  8
RACCORDO
100
AcDbLine
 62
253
  6
CONTINUOUS
 10
-3.9659804746
 20
-9.5422767599
 11
-2.9202837084
 21
-19.4499885547
  0
LINE
  5
2DF
100
AcDbEntity
  8
RACCORDO
100
AcDbLine
 62
253
  6
CONTINUOUS
 10
-5.9456314102
 20
11.5971758975
 11
-5.8900222746
 21
11.0702934337
  0
LINE
  5
2E0
100
AcDbEntity
  8
RACCORDO
100
AcDbLine
 62
7
  6
CONTINUOUS
 10
-6.4169086739
 20
17.6101408212
 11
-6.522519554
 21
18.6107771396
  0
LINE
  5
2E1
100
AcDbEntity
  8
RACCORDO
100
AcDbLine
 62
7
  6
CONTINUOUS
 10
-5.1911478274
 20
-6.4705633534
 11
-5.1911478274
 21
-0.7177928645
  0
LINE
  5
2E2
100
AcDbEntity
  8
RACCORDO
100
AcDbLine
 62
253
  6
CONTINUOUS
 10
-5.1325691836
 20
-5.5880509536
 11
-5.1325691836
 21
-2.3404556894
  0
LINE
  5
2E3
100
AcDbEntity
  8
RACCORDO
100
AcDbLine
 62
253
  6
CONTINUOUS
 10
-4.9100660405
 20
-2.4517072609
 11
-4.9100660405
 21
-5.6993025251
  0
LINE
  5
2E4
100
AcDbEntity
  8
RACCORDO
100
AcDbLine
 62
253
  6
CONTINUOUS
 10
-4.6284628314
 20
-2.4523216277
 11
-4.6284628314
 21
-5.6999168919
  0
LINE
  5
2E5
100
AcDbEntity
  8
DRAFT
100
AcDbLine
 62
7
  6
CONTINUOUS
 10
-3.4587362135
 20
18.2796596719
 11
-3.5952074325
 21
16.8501582455
  0
LWPOLYLINE
  5
2E6
100
AcDbEntity
  8
RACCORDO
100
AcDbPolyline
 62
7
  6
CONTINUOUS
 90
28
 70
0
 10
-6.3023581407
 20
1.167757551
 10
-6.2819528218
 20
1.1578526557
 10
-6.2450589803
 20
1.1413905011
 10
-6.2074595089
 20
1.1264103107
 10
-6.1691251447
 20
1.1128784288
 10
-6.130120109
 20
1.1008009493
 10
-6.0906123765
 20
1.0902080426
 10
-6.0505989814
 20
1.0810746939
 10
-6.0100759699
 20
1.073386884
 10
-5.969214777
 20
1.0671612116
 10
-5.9279706632
 20
1.0623782038
 10
-5.8863520526
 20
1.0590353604
 10
-5.8446146091
 20
1.0571461715
 10
-5.802732845
 20
1.0566979548
 10
-5.7606844238
 20
1.0576922979
 10
-5.7187360112
 20
1.0601201114
 10
-5.676858664
 20
1.0639791484
 10
-5.6350311534
 20
1.0692783779
 10
-5.5935283118
 20
1.0759879908
 10
-5.5523347047
 20
1.0841105056
 10
-5.5114191636
 20
1.093665695
 10
-5.4710192379
 20
1.104609504
 10
-5.4311225462
 20
1.1169550013
 10
-5.3917087997
 20
1.1307291974
 10
-5.3529869556
 20
1.1458802628
 10
-5.3150135252
 20
1.1623999761
 10
-5.2777196717
 20
1.180343926
 10
-5.2539743022
 20
1.1927193079
  0
LINE
  5
2E7
100
AcDbEntity
  8
DRAFT
100
AcDbLine
 62
7
  6
CONTINUOUS
 10
-0.6169170792
 20
-3.5434389387
 11
-0.6193544551
 21
-3.5422202507
  0
LINE
  5
2E8
100
AcDbEntity
  8
ASSI
100
AcDbLine
 62
7
  6
CONTINUOUS
 10
-0.771730445
 20
-2.0766215407
 11
0.2182190487
 21
-2.5715962875
  0
LINE
  5
2E9
100
AcDbEntity
  8
RACCORDO
100
AcDbLine
 62
7
  6
CONTINUOUS
 10
-18.2957589584
 20
7.1644578431
 11
-17.8040766009
 21
6.9186166643
  0
LINE
  5
2EA
100
AcDbEntity
  8
RACCORDO
100
AcDbLine
 62
7
  6
CONTINUOUS
 10
-6.7950067959
 20
1.4140817618
 11
-6.3023666776
 21
1.1677617027
  0
LINE
  5
2EB
100
AcDbEntity
  8
RACCORDO
100
AcDbLine
 62
253
  6
CONTINUOUS
 10
-18.4739947217
 20
7.4710348736
 11
-17.6391780843
 21
7.0536265549
  0
LINE
  5
2EC
100
AcDbEntity
  8
RACCORDO
100
AcDbLine
 62
253
  6
CONTINUOUS
 10
-7.315419079
 20
1.8917470522
 11
-6.4806024416
 21
1.4743387335
  0
LINE
  5
2ED
100
AcDbEntity
  8
RACCORDO
100
AcDbLine
 62
7
  6
CONTINUOUS
 10
-1.0758877059
 20
-6.4618702595
 11
-1.0520261666
 21
-6.6842783998
  0
LINE
  5
2EE
100
AcDbEntity
  8
DRAFT
100
AcDbLine
 62
7
  6
CONTINUOUS
 10
-2.920351695
 20
-3.2950350121
 11
-2.907737183
 21
-3.4145543153
  0
LINE
  5
2EF
100
AcDbEntity
  8
ASSI
100
AcDbLine
 62
7
  6
CONTINUOUS
 10
-1.6400044361
 20
-9.8437493686
 11
-1.7057305647
 21
-9.2210109609
  0
LINE
  5
2F0
100
AcDbEntity
  8
ASSI
100
AcDbLine
 62
7
  6
CONTINUOUS
 10
-3.061885982
 20
3.6282178574
 11
-3.1276121105
 21
4.2509562651
  0
LINE
  5
2F1
100
AcDbEntity
  8
0
100
AcDbLine
 62
7
  6
CONTINUOUS
 10
-2.0486459875
 20
-1.283731655
 11
-1.8305539378
 21
-3.3500985433
  0
LWPOLYLINE
  5
2F2
100
AcDbEntity
  8
RACCORDO
100
AcDbPolyline
 62
7
  6
CONTINUOUS
 90
24
 70
0
 10
-3.5884561389
 20
2.0707905171
 10
-3.5883764224
 20
2.0617693287
 10
-3.5874205022
 20
2.0383608656
 10
-3.5853980729
 20
2.015376302
 10
-3.5823262585
 20
1.9928313385
 10
-3.5782234508
 20
1.970752961
 10
-3.5731140342
 20
1.9491952861
 10
-3.5670231164
 20
1.928191196
 10
-3.5599751886
 20
1.9077680432
 10
-3.5520091988
 20
1.887986726
 10
-3.5431730122
 20
1.8689037662
 10
-3.5334967786
 20
1.8505273229
 10
-3.5230021442
 20
1.8328572968
 10
-3.5117363598
 20
1.8159357858
 10
-3.4997400359
 20
1.7997858367
 10
-3.4870217193
 20
1.7843915351
 10
-3.4736260388
 20
1.7697866578
 10
-3.459600299
 20
1.7559998736
 10
-3.4449505929
 20
1.7430196899
 10
-3.4297267165
 20
1.7308778924
 10
-3.4139752146
 20
1.7195982872
 10
-3.3976908738
 20
1.7091681704
 10
-3.3809026876
 20
1.6996035666
 10
-3.3714774791
 20
1.6947242748
  0
LINE
  5
2F3
100
AcDbEntity
  8
0
100
AcDbLine
 62
7
  6
CONTINUOUS
 10
-1.8309983261
 20
-3.2818034925
 11
-1.8305539378
 21
-3.3500985433
  0
LINE
  5
2F4
100
AcDbEntity
  8
RACCORDO
100
AcDbLine
 62
7
  6
CONTINUOUS
 10
-3.5884563898
 20
-7.4614361744
 11
-3.5884563898
 21
-8.1338055714
  0
LINE
  5
2F5
100
AcDbEntity
  8
RACCORDO
100
AcDbLine
 62
7
  6
CONTINUOUS
 10
-3.5884563898
 20
2.0708090939
 11
-3.5884563898
 21
2.0878896018
  0
LINE
  5
2F6
100
AcDbEntity
  8
RACCORDO
100
AcDbLine
 62
253
  6
CONTINUOUS
 10
-3.5005884241
 20
-7.4628257499
 11
-3.5005884241
 21
-8.0970760138
  0
LINE
  5
2F7
100
AcDbEntity
  8
RACCORDO
100
AcDbLine
 62
253
  6
CONTINUOUS
 10
-3.5005884241
 20
1.9647430767
 11
-3.5005884241
 21
2.1351162348
  0
LINE
  5
2F8
100
AcDbEntity
  8
0
100
AcDbLine
 62
7
  6
CONTINUOUS
 10
-3.4587362135
 20
19.2386790424
 11
-3.4587362135
 21
18.2796596719
  0
LINE
  5
2F9
100
AcDbEntity
  8
RACCORDO
100
AcDbLine
 62
7
  6
CONTINUOUS
 10
-3.1730670941
 20
2.3111500093
 11
-3.1730670941
 21
2.071743965
  0
LINE
  5
2FA
100
AcDbEntity
  8
RACCORDO
100
AcDbLine
 62
7
  6
CONTINUOUS
 10
-3.1730670941
 20
-7.4249805335
 11
-3.1730670941
 21
-7.9080992573
  0
LINE
  5
2FB
100
AcDbEntity
  8
RACCORDO
100
AcDbLine
 62
253
  6
CONTINUOUS
 10
-2.7898680402
 20
20.3037575998
 11
-2.7898680402
 21
21.5187124659
  0
LINE
  5
2FC
100
AcDbEntity
  8
RACCORDO
100
AcDbLine
 62
7
  6
CONTINUOUS
 10
-2.6669037141
 20
-3.3333584757
 11
-2.6669037141
 21
-3.6156204695
  0
LINE
  5
2FD
100
AcDbEntity
  8
DRAFT
100
AcDbLine
 62
7
  6
CONTINUOUS
 10
-2.4334313807
 20
24.5577074604
 11
-2.4334313807
 21
25.8070022936
  0
LINE
  5
2FE
100
AcDbEntity
  8
RACCORDO
100
AcDbLine
 62
253
  6
CONTINUOUS
 10
-2.3668416886
 20
20.3053964474
 11
-2.3668416886
 21
21.5195999202
  0
LINE
  5
2FF
100
AcDbEntity
  8
DRAFT
100
AcDbLine
 62
7
  6
CONTINUOUS
 10
-2.0798779902
 20
-3.4478554247
 11
-2.0798779902
 21
-3.4221216958
  0
LINE
  5
300
100
AcDbEntity
  8
DRAFT
100
AcDbLine
 62
7
  6
CONTINUOUS
 10
-2.0798779902
 20
25.077667409
 11
-2.0798779902
 21
25.6302255983
  0
LINE
  5
301
100
AcDbEntity
  8
RACCORDO
100
AcDbLine
 62
253
  6
CONTINUOUS
 10
-2.009167312
 20
27.2464338958
 11
-2.009167312
 21
26.0145997144
  0
LINE
  5
302
100
AcDbEntity
  8
RACCORDO
100
AcDbLine
 62
7
  6
CONTINUOUS
 10
-1.9212993464
 20
27.3514311098
 11
-1.9212993464
 21
26.1190625049
  0
LINE
  5
303
100
AcDbEntity
  8
DRAFT
100
AcDbLine
 62
7
  6
CONTINUOUS
 10
-1.8677459558
 20
21.7697965933
 11
-1.8677459558
 21
20.557361028
  0
LINE
  5
304
100
AcDbEntity
  8
ASSI
100
AcDbLine
 62
7
  6
CONTINUOUS
 10
-2.932624667
 20
3.7118087734
 11
-3.0524640853
 21
3.6338676412
  0
LINE
  5
305
100
AcDbEntity
  8
ASSI
100
AcDbLine
 62
7
  6
CONTINUOUS
 10
-3.061885982
 20
3.6282178574
 11
-3.0524286271
 21
3.6338986346
  0
LINE
  5
306
100
AcDbEntity
  8
DRAFT
100
AcDbLine
 62
7
  6
CONTINUOUS
 10
-0.6169170792
 20
-0.4549907769
 11
-0.6193544551
 21
-0.453772089
  0
LINE
  5
307
100
AcDbEntity
  8
RACCORDO
100
AcDbLine
 62
7
  6
CONTINUOUS
 10
-3.3715491237
 20
1.6947598227
 11
-3.3462693784
 21
1.6821199501
  0
LINE
  5
308
100
AcDbEntity
  8
RACCORDO
100
AcDbLine
 62
253
  6
CONTINUOUS
 10
-3.1051828229
 20
1.7585307314
 11
-2.5931479781
 21
1.502513309
  0
LINE
  5
309
100
AcDbEntity
  8
RACCORDO
100
AcDbLine
 62
253
  6
CONTINUOUS
 10
-3.1470749952
 20
1.7879863622
 11
-3.5005884241
 21
1.9647430767
  0
LINE
  5
30A
100
AcDbEntity
  8
RACCORDO
100
AcDbLine
 62
7
  6
CONTINUOUS
 10
-3.0316241955
 20
1.8278174349
 11
-2.9991168057
 21
1.81156374
  0
LINE
  5
30B
100
AcDbEntity
  8
RACCORDO
100
AcDbLine
 62
7
  6
CONTINUOUS
 10
-0.6193544551
 20
-3.5422202507
 11
-0.3551373624
 21
-6.0250954011
  0
LINE
  5
30C
100
AcDbEntity
  8
RACCORDO
100
AcDbLine
 62
7
  6
CONTINUOUS
 10
0.8103206381
 20
-17.737175425
 11
-0.2791208877
 21
-7.4149931218
  0
LINE
  5
30D
100
AcDbEntity
  8
RACCORDO
100
AcDbLine
 62
7
  6
CONTINUOUS
 10
-1.4336958921
 20
3.524312382
 11
-2.5231374179
 21
13.8464946853
  0
LINE
  5
30E
100
AcDbEntity
  8
DRAFT
100
AcDbLine
 62
7
  6
CONTINUOUS
 10
-0.771730445
 20
-2.0766215407
 11
-0.6169170792
 21
-3.5434389387
  0
LINE
  5
30F
100
AcDbEntity
  8
ASSI
100
AcDbLine
 62
7
  6
CONTINUOUS
 10
0.2182190487
 20
-2.5715962875
 11
1.9506306626
 21
-18.985757195
  0
LINE
  5
310
100
AcDbEntity
  8
RACCORDO
100
AcDbLine
 62
7
  6
CONTINUOUS
 10
-0.8675118949
 20
-22.0126654636
 11
-0.8675118949
 21
-21.7592940699
  0
LINE
  5
311
100
AcDbEntity
  8
RACCORDO
100
AcDbLine
 62
7
  6
CONTINUOUS
 10
-0.8675118949
 20
19.5403100695
 11
-0.8675118949
 21
19.7936814633
  0
LINE
  5
312
100
AcDbEntity
  8
DRAFT
100
AcDbLine
 62
7
  6
CONTINUOUS
 10
-0.1645189406
 20
18.6337508148
 11
-0.1645189406
 21
19.0860817905
  0
LINE
  5
313
100
AcDbEntity
  8
DRAFT
100
AcDbLine
 62
7
  6
CONTINUOUS
 10
-0.771730445
 20
-2.0766215407
 11
-0.6169170792
 21
-0.4549907769
  0
LINE
  5
314
100
AcDbEntity
  8
RACCORDO
100
AcDbLine
 62
7
  6
CONTINUOUS
 10
-0.3551373624
 20
2.2887484753
 11
-0.6193544551
 21
-0.453772089
  0
LINE
  5
315
100
AcDbEntity
  8
RACCORDO
100
AcDbLine
 62
7
  6
CONTINUOUS
 10
-1.1309246333
 20
3.0577809905
 11
-0.0549943537
 21
14.1253034015
  0
LINE
  5
316
100
AcDbEntity
  8
DRAFT
100
AcDbLine
 62
7
  6
CONTINUOUS
 10
-3.0005213873
 20
-2.990790912
 11
-1.9726104114
 21
-1.1473721755
  0
LINE
  5
317
100
AcDbEntity
  8
RACCORDO
100
AcDbLine
 62
7
  6
CONTINUOUS
 10
18.6168465871
 20
15.7107259864
 11
18.6184400003
 21
15.7117187746
  0
LINE
  5
318
100
AcDbEntity
  8
RACCORDO
100
AcDbLine
 62
7
  6
CONTINUOUS
 10
18.6184403483
 20
15.7117187618
 11
18.6184897206
 21
15.7117491938
  0
LINE
  5
319
100
AcDbEntity
  8
DRAFT
100
AcDbLine
 62
7
  6
CONTINUOUS
 10
18.6184401018
 20
15.7117186098
 11
19.7491756373
 21
16.4080910964
  0
LINE
  5
31A
100
AcDbEntity
  8
RACCORDO
100
AcDbLine
 62
253
  6
CONTINUOUS
 10
-5.1351074228
 20
1.5349047226
 11
-1.4336958921
 21
3.524312382
  0
LINE
  5
31B
100
AcDbEntity
  8
RACCORDO
100
AcDbLine
 62
7
  6
CONTINUOUS
 10
-5.2539831869
 20
1.1927144127
 11
-1.5619450238
 21
3.1770841429
  0
LINE
  5
31C
100
AcDbEntity
  8
RACCORDO
100
AcDbLine
 62
7
  6
CONTINUOUS
 10
-3.194625542
 20
1.7642110889
 11
-3.0885595248
 21
1.8172440974
  0
LINE
  5
31D
100
AcDbEntity
  8
RACCORDO
100
AcDbLine
 62
253
  6
CONTINUOUS
 10
-3.1051828229
 20
1.7585307314
 11
-2.9991168057
 21
1.81156374
  0
LINE
  5
31E
100
AcDbEntity
  8
RACCORDO
100
AcDbLine
 62
253
  6
CONTINUOUS
 10
-0.4790482081
 20
2.541273338
 11
-2.5931479781
 21
1.502513309
  0
LINE
  5
31F
100
AcDbEntity
  8
RACCORDO
100
AcDbLine
 62
253
  6
CONTINUOUS
 10
-0.3551373624
 20
2.2887484753
 11
-2.4529661253
 21
1.2579831834
  0
LINE
  5
320
100
AcDbEntity
  8
RACCORDO
100
AcDbLine
 62
253
  6
CONTINUOUS
 10
-1.1309246333
 20
3.0577809905
 11
-3.1730670941
 21
2.071743965
  0
LINE
  5
321
100
AcDbEntity
  8
RACCORDO
100
AcDbLine
 62
253
  6
CONTINUOUS
 10
-1.0071491898
 20
2.8053238288
 11
-3.0316241955
 21
1.8278174349
  0
LINE
  5
322
100
AcDbEntity
  8
RACCORDO
100
AcDbLine
 62
7
  6
CONTINUOUS
 10
-1.0071491898
 20
2.8053238288
 11
-0.4790482081
 21
2.541273338
  0
LINE
  5
323
100
AcDbEntity
  8
RACCORDO
100
AcDbLine
 62
7
  6
CONTINUOUS
 10
0.6778384565
 20
26.1211081423
 11
0.6778384565
 21
25.8503078496
  0
LINE
  5
324
100
AcDbEntity
  8
RACCORDO
100
AcDbLine
 62
7
  6
CONTINUOUS
 10
0.7382645673
 20
18.9907932322
 11
0.7382645673
 21
18.7374218384
  0
LINE
  5
325
100
AcDbEntity
  8
RACCORDO
100
AcDbLine
 62
7
  6
CONTINUOUS
 10
0.7382645673
 20
-22.562182301
 11
0.7382645673
 21
-22.8155536947
  0
LINE
  5
326
100
AcDbEntity
  8
RACCORDO
100
AcDbLine
 62
7
  6
CONTINUOUS
 10
1.1374578642
 20
16.9649775088
 11
1.1374578642
 21
16.9405820035
  0
LINE
  5
327
100
AcDbEntity
  8
RACCORDO
100
AcDbLine
 62
7
  6
CONTINUOUS
 10
1.1374578642
 20
-21.164535763
 11
1.1374578642
 21
-21.1889312683
  0
LINE
  5
328
100
AcDbEntity
  8
DRAFT
100
AcDbLine
 62
7
  6
CONTINUOUS
 10
1.4494851754
 20
-21.5856858238
 11
1.4494851754
 21
-21.1810637328
  0
LINE
  5
329
100
AcDbEntity
  8
DRAFT
100
AcDbLine
 62
7
  6
CONTINUOUS
 10
1.4494851754
 20
17.8267487568
 11
1.4494851754
 21
18.4639183156
  0
LINE
  5
32A
100
AcDbEntity
  8
ASSI
100
AcDbLine
 62
7
  6
CONTINUOUS
 10
1.9506306626
 20
17.2248836714
 11
1.9506306626
 21
15.5749762339
  0
LINE
  5
32B
100
AcDbEntity
  8
ASSI
100
AcDbLine
 62
7
  6
CONTINUOUS
 10
1.9506306626
 20
-18.985757195
 11
1.9506306626
 21
-20.6356646325
  0
LINE
  5
32C
100
AcDbEntity
  8
RACCORDO
100
AcDbLine
 62
7
  6
CONTINUOUS
 10
2.5163160876
 20
-20.6590507645
 11
2.5163160876
 21
-22.1646588908
  0
LINE
  5
32D
100
AcDbEntity
  8
RACCORDO
100
AcDbLine
 62
7
  6
CONTINUOUS
 10
2.5163160876
 20
18.3653300063
 11
2.5163160876
 21
20.0973808139
  0
LINE
  5
32E
100
AcDbEntity
  8
ASSI
100
AcDbLine
 62
7
  6
CONTINUOUS
 10
1.9506306626
 20
15.5749762339
 11
0.2182190487
 21
-2.5715962875
  0
LINE
  5
32F
100
AcDbEntity
  8
DRAFT
100
AcDbLine
 62
253
  6
CONTINUOUS
 10
-8.6456677384
 20
-13.3549780434
 11
-10.3411796773
 21
-15.7664983485
  0
LINE
  5
330
100
AcDbEntity
  8
RACCORDO
100
AcDbLine
 62
253
  6
CONTINUOUS
 10
-6.103063733
 20
-3.2479307636
 11
-6.0135861461
 21
-3.1897363519
  0
LINE
  5
331
100
AcDbEntity
  8
ASSI
100
AcDbLine
 62
7
  6
CONTINUOUS
 10
-5.1911478274
 20
-2.6973321169
 11
-5.7957085924
 21
-3.0905262029
  0
LINE
  5
332
100
AcDbEntity
  8
DRAFT
100
AcDbLine
 62
7
  6
CONTINUOUS
 10
-1.9726104114
 20
-1.1473721755
 11
-0.6193544551
 21
-0.453772089
  0
LINE
  5
333
100
AcDbEntity
  8
RACCORDO
100
AcDbLine
 62
7
  6
CONTINUOUS
 10
3.2193090418
 20
20.2327023117
 11
3.2193090418
 21
19.9717733353
  0
LINE
  5
334
100
AcDbEntity
  8
RACCORDO
100
AcDbLine
 62
7
  6
CONTINUOUS
 10
3.2193090418
 20
-21.3278308041
 11
3.2193090418
 21
-21.5887597804
  0
LINE
  5
335
100
AcDbEntity
  8
RACCORDO
100
AcDbLine
 62
253
  6
CONTINUOUS
 10
3.5465267394
 20
24.4698122037
 11
3.5465267394
 21
23.2379736253
  0
LINE
  5
336
100
AcDbEntity
  8
RACCORDO
100
AcDbLine
 62
7
  6
CONTINUOUS
 10
3.6123315984
 20
-19.962830935
 11
3.6123315984
 21
18.2137509097
  0
LINE
  5
337
100
AcDbEntity
  8
RACCORDO
100
AcDbLine
 62
7
  6
CONTINUOUS
 10
3.6331641678
 20
24.574199579
 11
3.6331641678
 21
23.3418310873
  0
LINE
  5
338
100
AcDbEntity
  8
DRAFT
100
AcDbLine
 62
7
  6
CONTINUOUS
 10
-2.907737183
 20
-3.4145543153
 11
-2.9115018247
 21
-3.4173328704
  0
LINE
  5
339
100
AcDbEntity
  8
RACCORDO
100
AcDbLine
 62
7
  6
CONTINUOUS
 10
-5.6343782163
 20
-4.182360482
 11
-5.6344103451
 21
-4.1823813779
  0
LINE
  5
33A
100
AcDbEntity
  8
ASSI
100
AcDbLine
 62
7
  6
CONTINUOUS
 10
-5.1911478274
 20
-3.8940924079
 11
-5.6343566411
 21
-4.1823464503
  0
LINE
  5
33B
100
AcDbEntity
  8
0
100
AcDbLine
 62
7
  6
CONTINUOUS
 10
-1.8305539378
 20
-3.3500985433
 11
-1.9674360037
 21
-3.4391238687
  0
LINE
  5
33C
100
AcDbEntity
  8
RACCORDO
100
AcDbLine
 62
7
  6
CONTINUOUS
 10
-0.6968687848
 20
-2.7859167945
 11
-1.8306938887
 21
-3.328590432
  0
LINE
  5
33D
100
AcDbEntity
  8
DRAFT
100
AcDbLine
 62
7
  6
CONTINUOUS
 10
-2.0798779902
 20
-3.4478554247
 11
-2.579104635
 21
-3.6867962793
  0
LINE
  5
33E
100
AcDbEntity
  8
RACCORDO
100
AcDbLine
 62
7
  6
CONTINUOUS
 10
-2.0390198021
 20
-3.4282997971
 11
-2.0798779902
 21
-3.4478554247
  0
LINE
  5
33F
100
AcDbEntity
  8
RACCORDO
100
AcDbLine
 62
7
  6
CONTINUOUS
 10
-19.4401628264
 20
16.62523276
 11
-7.4467705463
 21
10.6285366199
  0
LINE
  5
340
100
AcDbEntity
  8
RACCORDO
100
AcDbLine
 62
253
  6
CONTINUOUS
 10
-6.4782456451
 20
10.6690699095
 11
-19.4963007788
 21
17.1780974764
  0
LINE
  5
341
100
AcDbEntity
  8
RACCORDO
100
AcDbLine
 62
253
  6
CONTINUOUS
 10
-6.2935472025
 20
11.0509527695
 11
-19.3116023362
 21
17.5599803364
  0
LWPOLYLINE
  5
342
100
AcDbEntity
  8
RACCORDO
100
AcDbPolyline
 62
7
  6
CONTINUOUS
 90
25
 70
0
 10
20.0651059732
 20
16.6782810134
 10
20.0661265125
 20
16.6794654121
 10
20.0741272198
 20
16.6890992212
 10
20.0818577086
 20
16.6990437055
 10
20.0893049919
 20
16.70928917
 10
20.0964596142
 20
16.719829579
 10
20.1033153187
 20
16.7306637127
 10
20.1098615131
 20
16.7417835696
 10
20.1160881212
 20
16.7531804632
 10
20.1219895941
 20
16.7648538076
 10
20.1275566891
 20
16.7767965056
 10
20.1327795748
 20
16.7889987107
 10
20.1376520067
 20
16.8014577035
 10
20.1421657225
 20
16.8141662335
 10
20.1463121575
 20
16.8271152048
 10
20.1500851373
 20
16.8403013835
 10
20.1534776109
 20
16.8537195231
 10
20.1564814677
 20
16.8673599793
 10
20.1590898089
 20
16.881215297
 10
20.1612960081
 20
16.895279164
 10
20.1630932289
 20
16.9095448198
 10
20.1644750734
 20
16.9240070191
 10
20.1654348919
 20
16.9386615535
 10
20.1659657054
 20
16.9535026346
 10
20.1660784104
 20
16.964236251
  0
LINE
  5
343
100
AcDbEntity
  8
RACCORDO
100
AcDbLine
 62
7
  6
CONTINUOUS
 10
-5.2195396885
 20
-8.5495805188
 11
-4.1690417927
 21
-7.8435128699
  0
LINE
  5
344
100
AcDbEntity
  8
DRAFT
100
AcDbLine
 62
7
  6
CONTINUOUS
 10
-0.6193544551
 20
-3.5422202507
 11
-1.9726104114
 21
-4.1784610888
  0
LINE
  5
345
100
AcDbEntity
  8
ASSI
100
AcDbLine
 62
7
  6
CONTINUOUS
 10
-16.885673689
 20
16.5016951213
 11
-15.8250135172
 21
15.9713650354
  0
LINE
  5
346
100
AcDbEntity
  8
ASSI
100
AcDbLine
 62
7
  6
CONTINUOUS
 10
-8.7539457053
 20
12.4358311295
 11
-9.8146058771
 21
12.9661612154
  0
LINE
  5
347
100
AcDbEntity
  8
ASSI
100
AcDbLine
 62
253
  6
CONTINUOUS
 10
-9.4636878199
 20
13.1943912177
 11
-8.7989262549
 21
12.8620104352
  0
LINE
  5
348
100
AcDbEntity
  8
ASSI
100
AcDbLine
 62
253
  6
CONTINUOUS
 10
-15.8699940668
 20
16.3975443411
 11
-16.5347556318
 21
16.7299251236
  0
LINE
  5
349
100
AcDbEntity
  8
ASSI
100
AcDbLine
 62
253
  6
CONTINUOUS
 10
-9.2789893773
 20
13.5762740777
 11
-8.8517669764
 21
13.3626628773
  0
LINE
  5
34A
100
AcDbEntity
  8
ASSI
100
AcDbLine
 62
253
  6
CONTINUOUS
 10
-15.9228347883
 20
16.8981967832
 11
-16.3500571892
 21
17.1118079836
  0
LINE
  5
34B
100
AcDbEntity
  8
RACCORDO
100
AcDbLine
 62
253
  6
CONTINUOUS
 10
-18.9342129563
 20
18.4096803198
 11
-16.9841405998
 21
17.4346441415
  0
LINE
  5
34C
100
AcDbEntity
  8
RACCORDO
100
AcDbLine
 62
253
  6
CONTINUOUS
 10
-15.923480428
 20
16.9043140556
 11
-9.9130727879
 21
13.8991102356
  0
LINE
  5
34D
100
AcDbEntity
  8
RACCORDO
100
AcDbLine
 62
253
  6
CONTINUOUS
 10
-8.8524126161
 20
13.3687801497
 11
-6.9023402596
 21
12.3937439714
  0
LINE
  5
34E
100
AcDbEntity
  8
ASSI
100
AcDbLine
 62
7
  6
CONTINUOUS
 10
-9.317080033
 20
13.9371733853
 11
-8.7620443059
 21
13.6596555218
  0
LINE
  5
34F
100
AcDbEntity
  8
ASSI
100
AcDbLine
 62
7
  6
CONTINUOUS
 10
-15.8331121178
 20
17.1951894277
 11
-16.3881478449
 21
17.4727072913
  0
LINE
  5
350
100
AcDbEntity
  8
RACCORDO
100
AcDbLine
 62
253
  6
CONTINUOUS
 10
-18.7677668519
 20
18.7786961574
 11
-16.8176944954
 21
17.8036599792
  0
LINE
  5
351
100
AcDbEntity
  8
RACCORDO
100
AcDbLine
 62
253
  6
CONTINUOUS
 10
-15.7570343236
 20
17.2733298933
 11
-9.7466266835
 21
14.2681260732
  0
LINE
  5
352
100
AcDbEntity
  8
RACCORDO
100
AcDbLine
 62
253
  6
CONTINUOUS
 10
-8.6859665117
 20
13.7377959873
 11
-6.7358941552
 21
12.7627598091
  0
LINE
  5
353
100
AcDbEntity
  8
ASSI
100
AcDbLine
 62
7
  6
CONTINUOUS
 10
-8.4884908234
 20
14.6139158005
 11
-7.9124710418
 21
14.3259059097
  0
LINE
  5
354
100
AcDbEntity
  8
ASSI
100
AcDbLine
 62
7
  6
CONTINUOUS
 10
-14.9835388537
 20
17.8614398156
 11
-15.5595586353
 21
18.1494497064
  0
LINE
  5
355
100
AcDbEntity
  8
RACCORDO
100
AcDbLine
 62
7
  6
CONTINUOUS
 10
8.3887237008
 20
22.5077892701
 11
8.3887701715
 21
22.5016519321
  0
LINE
  5
356
100
AcDbEntity
  8
RACCORDO
100
AcDbLine
 62
253
  6
CONTINUOUS
 10
8.3045721332
 20
22.2139754262
 11
8.3045721332
 21
22.0017162722
  0
LINE
  5
357
100
AcDbEntity
  8
RACCORDO
100
AcDbLine
 62
253
  6
CONTINUOUS
 10
8.3045721332
 20
-14.7402502983
 11
8.3045721332
 21
-14.9300200024
  0
LINE
  5
358
100
AcDbEntity
  8
RACCORDO
100
AcDbLine
 62
7
  6
CONTINUOUS
 10
8.3887701931
 20
22.5015963045
 11
8.3887701931
 21
21.925633115
  0
LINE
  5
359
100
AcDbEntity
  8
RACCORDO
100
AcDbLine
 62
7
  6
CONTINUOUS
 10
8.3887701931
 20
-14.6957249773
 11
8.3887701931
 21
-15.0092433695
  0
LINE
  5
35A
100
AcDbEntity
  8
0
100
AcDbLine
 62
253
  6
CONTINUOUS
 10
8.7926713532
 20
23.4987347576
 11
8.7926713532
 21
23.8968007199
  0
LINE
  5
35B
100
AcDbEntity
  8
RACCORDO
100
AcDbLine
 62
253
  6
CONTINUOUS
 10
-7.4055220303
 20
-12.5564799002
 11
-8.6456677384
 21
-13.3549780434
  0
LINE
  5
35C
100
AcDbEntity
  8
DRAFT
100
AcDbLine
 62
7
  6
CONTINUOUS
 10
-0.8696906409
 20
-6.5790725
 11
-3.5754855811
 21
-8.1402909757
  0
LINE
  5
35D
100
AcDbEntity
  8
RACCORDO
100
AcDbLine
 62
253
  6
CONTINUOUS
 10
-0.8354702541
 20
-6.5961826934
 11
-4.48514053
 21
-8.7020084455
  0
LINE
  5
35E
100
AcDbEntity
  8
RACCORDO
100
AcDbLine
 62
253
  6
CONTINUOUS
 10
-0.2791208877
 20
-7.4149931218
 11
-3.9659804746
 21
-9.5422767599
  0
LINE
  5
35F
100
AcDbEntity
  8
RACCORDO
100
AcDbLine
 62
253
  6
CONTINUOUS
 10
-2.6312855274
 20
-7.1434776872
 11
-0.3551373624
 21
-6.0250954011
  0
LINE
  5
360
100
AcDbEntity
  8
RACCORDO
100
AcDbLine
 62
7
  6
CONTINUOUS
 10
-2.6832691706
 20
-7.2516549426
 11
-0.3939868592
 21
-6.1268192116
  0
LINE
  5
361
100
AcDbEntity
  8
ASSI
100
AcDbLine
 62
7
  6
CONTINUOUS
 10
-15.6192363313
 20
18.7148807493
 11
-14.5585761596
 21
18.1845506634
  0
LINE
  5
362
100
AcDbEntity
  8
ASSI
100
AcDbLine
 62
7
  6
CONTINUOUS
 10
-7.4875083477
 20
14.6490167575
 11
-8.5481685195
 21
15.1793468434
  0
LINE
  5
363
100
AcDbEntity
  8
ASSI
100
AcDbLine
 62
7
  6
CONTINUOUS
 10
-6.2549809327
 20
14.7327861733
 11
-6.6545667114
 21
14.9325790627
  0
LINE
  5
364
100
AcDbEntity
  8
ASSI
100
AcDbLine
 62
7
  6
CONTINUOUS
 10
-15.3413030709
 20
19.2759472425
 11
-15.7408888496
 21
19.4757401318
  0
LINE
  5
365
100
AcDbEntity
  8
DRAFT
100
AcDbLine
 62
7
  6
CONTINUOUS
 10
-12.4249584243
 20
18.6928163233
 11
-8.1823177371
 21
16.5714959798
  0
LINE
  5
366
100
AcDbEntity
  8
RACCORDO
100
AcDbLine
 62
7
  6
CONTINUOUS
 10
-4.0695608006
 20
14.5151175115
 11
-5.7604770115
 21
15.360575617
  0
LINE
  5
367
100
AcDbEntity
  8
ASSI
100
AcDbLine
 62
7
  6
CONTINUOUS
 10
-5.7604770117
 20
15.3605756171
 11
-8.1823177371
 21
16.5714959798
  0
LINE
  5
368
100
AcDbEntity
  8
ASSI
100
AcDbLine
 62
7
  6
CONTINUOUS
 10
-12.4249584243
 20
18.6928163233
 11
-14.8467991497
 21
19.9037366861
  0
LINE
  5
369
100
AcDbEntity
  8
RACCORDO
100
AcDbLine
 62
7
  6
CONTINUOUS
 10
-14.8467991499
 20
19.9037366862
 11
-16.5377153608
 21
20.7491947916
  0
LINE
  5
36A
100
AcDbEntity
  8
DRAFT
100
AcDbLine
 62
7
  6
CONTINUOUS
 10
9.4753815511
 20
23.838739056
 11
9.4753815511
 21
23.4057263541
  0
LINE
  5
36B
100
AcDbEntity
  8
DRAFT
100
AcDbLine
 62
7
  6
CONTINUOUS
 10
11.0015974618
 20
23.7808950816
 11
11.0015974618
 21
23.6280090966
  0
LINE
  5
36C
100
AcDbEntity
  8
0
100
AcDbLine
 62
7
  6
CONTINUOUS
 10
10.9633006031
 20
22.4226793231
 11
10.9548799227
 21
22.1354002956
  0
LINE
  5
36D
100
AcDbEntity
  8
RACCORDO
100
AcDbLine
 62
7
  6
CONTINUOUS
 10
8.3887237008
 20
-15.0101549322
 11
8.3887701715
 21
-15.0094129774
  0
LINE
  5
36E
100
AcDbEntity
  8
ASSI
100
AcDbLine
 62
7
  6
CONTINUOUS
 10
-1.5107431212
 20
-9.7601584525
 11
-1.6305825395
 21
-9.8380995848
  0
LINE
  5
36F
100
AcDbEntity
  8
ASSI
100
AcDbLine
 62
7
  6
CONTINUOUS
 10
-1.6400044361
 20
-9.8437493686
 11
-1.6305470813
 21
-9.8380685914
  0
LINE
  5
370
100
AcDbEntity
  8
RACCORDO
100
AcDbLine
 62
7
  6
CONTINUOUS
 10
-2.7552700221
 20
14.4720012984
 11
-7.4589379629
 21
16.8238352688
  0
LINE
  5
371
100
AcDbEntity
  8
RACCORDO
100
AcDbLine
 62
7
  6
CONTINUOUS
 10
-11.891196273
 20
19.0399644238
 11
-16.4052465908
 21
21.2969895828
  0
LINE
  5
372
100
AcDbEntity
  8
DRAFT
100
AcDbLine
 62
7
  6
CONTINUOUS
 10
-11.3022783958
 20
19.4229846922
 11
-7.0596377087
 21
17.3016643486
  0
LINE
  5
373
100
AcDbEntity
  8
0
100
AcDbLine
 62
7
  6
CONTINUOUS
 10
-11.1160782984
 20
20.5038674809
 11
-6.8734376113
 21
18.3825471373
  0
LINE
  5
374
100
AcDbEntity
  8
RACCORDO
100
AcDbLine
 62
7
  6
CONTINUOUS
 10
-11.466682419
 20
20.7858957387
 11
-11.0233035459
 21
20.5642063022
  0
LINE
  5
375
100
AcDbEntity
  8
RACCORDO
100
AcDbLine
 62
7
  6
CONTINUOUS
 10
-3.5952074325
 20
16.8501582455
 11
-0.6734799143
 21
15.3892944864
  0
LINE
  5
376
100
AcDbEntity
  8
0
100
AcDbLine
 62
7
  6
CONTINUOUS
 10
10.5522264609
 20
22.1383398018
 11
10.5135559417
 21
22.5444271562
  0
LINE
  5
377
100
AcDbEntity
  8
DRAFT
100
AcDbLine
 62
7
  6
CONTINUOUS
 10
13.0151081178
 20
25.9315879172
 11
13.0151081178
 21
25.6051257083
  0
LINE
  5
378
100
AcDbEntity
  8
RACCORDO
100
AcDbLine
 62
7
  6
CONTINUOUS
 10
-12.4492828677
 20
-16.2625344082
 11
-11.913002764
 21
-16.001295381
  0
LINE
  5
379
100
AcDbEntity
  8
0
100
AcDbLine
 62
7
  6
CONTINUOUS
 10
-10.7651602411
 20
20.7320974831
 11
-6.522519554
 21
18.6107771396
  0
LINE
  5
37A
100
AcDbEntity
  8
ASSI
100
AcDbLine
 62
253
  6
CONTINUOUS
 10
-8.0072342372
 20
19.6053877045
 11
-3.5451638114
 21
17.3743524916
  0
LINE
  5
37B
100
AcDbEntity
  8
0
100
AcDbLine
 62
7
  6
CONTINUOUS
 10
-13.8178505578
 20
23.4592168441
 11
-8.4084836818
 21
20.7545334061
  0
LINE
  5
37C
100
AcDbEntity
  8
0
100
AcDbLine
 62
7
  6
CONTINUOUS
 10
-3.4587362135
 20
18.2796596719
 11
1.9506306626
 21
15.5749762339
  0
LINE
  5
37D
100
AcDbEntity
  8
ASSI
100
AcDbLine
 62
253
  6
CONTINUOUS
 10
-7.3124681709
 20
20.8186642415
 11
-3.4587362135
 21
18.8917982628
  0
LINE
  5
37E
100
AcDbEntity
  8
ASSI
100
AcDbLine
 62
7
  6
CONTINUOUS
 10
-14.6310233562
 20
24.8248226138
 11
1.1374578642
 21
16.9405820035
  0
LINE
  5
37F
100
AcDbEntity
  8
RACCORDO
100
AcDbLine
 62
7
  6
CONTINUOUS
 10
-0.7796377756
 20
-21.5273427819
 11
-0.2008474353
 21
-20.8228990517
  0
LINE
  5
380
100
AcDbEntity
  8
RACCORDO
100
AcDbLine
 62
7
  6
CONTINUOUS
 10
0.8899704908
 20
17.3918416287
 11
-14.3835359828
 21
25.0285948656
  0
LINE
  5
381
100
AcDbEntity
  8
DRAFT
100
AcDbLine
 62
7
  6
CONTINUOUS
 10
1.4494851754
 20
17.8267487568
 11
-0.1645189406
 21
18.6337508148
  0
LINE
  5
382
100
AcDbEntity
  8
DRAFT
100
AcDbLine
 62
7
  6
CONTINUOUS
 10
-11.914832989
 20
24.508907839
 11
-13.528837105
 21
25.315909897
  0
LINE
  5
383
100
AcDbEntity
  8
RACCORDO
100
AcDbLine
 62
7
  6
CONTINUOUS
 10
-8.5823771082
 20
23.2000121339
 11
-2.7898680402
 21
20.3037575998
  0
LINE
  5
384
100
AcDbEntity
  8
RACCORDO
100
AcDbLine
 62
7
  6
CONTINUOUS
 10
-14.1672353133
 20
26.0874399768
 11
-12.5607017502
 21
25.2841731953
  0
LINE
  5
385
100
AcDbEntity
  8
RACCORDO
100
AcDbLine
 62
7
  6
CONTINUOUS
 10
-0.8029171489
 20
19.4052808946
 11
0.8036164142
 21
18.6020141131
  0
LINE
  5
386
100
AcDbEntity
  8
RACCORDO
100
AcDbLine
 62
253
  6
CONTINUOUS
 10
-14.2318300593
 20
26.2224691517
 11
-12.6260535971
 21
25.4195809206
  0
LINE
  5
387
100
AcDbEntity
  8
RACCORDO
100
AcDbLine
 62
253
  6
CONTINUOUS
 10
-0.8675118949
 20
19.5403100695
 11
0.7382645673
 21
18.7374218384
  0
LINE
  5
388
100
AcDbEntity
  8
RACCORDO
100
AcDbLine
 62
253
  6
CONTINUOUS
 10
0.7382645673
 20
18.9907932322
 11
-0.8675118949
 21
19.7936814633
  0
LINE
  5
389
100
AcDbEntity
  8
RACCORDO
100
AcDbLine
 62
253
  6
CONTINUOUS
 10
-12.6260535971
 20
25.6729523144
 11
-14.2318300593
 21
26.4758405455
  0
LINE
  5
38A
100
AcDbEntity
  8
DRAFT
100
AcDbLine
 62
7
  6
CONTINUOUS
 10
-10.8480020769
 20
25.0474890886
 11
-8.6702450739
 21
23.9586105871
  0
LINE
  5
38B
100
AcDbEntity
  8
DRAFT
100
AcDbLine
 62
7
  6
CONTINUOUS
 10
-1.8677459558
 20
20.557361028
 11
-0.7866240046
 21
20.0168000524
  0
LINE
  5
38C
100
AcDbEntity
  8
RACCORDO
100
AcDbLine
 62
7
  6
CONTINUOUS
 10
2.5163160876
 20
18.3653300063
 11
2.6577374438
 21
18.2946193282
  0
LINE
  5
38D
100
AcDbEntity
  8
RACCORDO
100
AcDbLine
 62
253
  6
CONTINUOUS
 10
0.9150352967
 20
19.2946588104
 11
-0.6927861123
 21
20.0985695149
  0
LINE
  5
38E
100
AcDbEntity
  8
RACCORDO
100
AcDbLine
 62
253
  6
CONTINUOUS
 10
-12.4492828677
 20
25.9768178926
 11
-14.0571042768
 21
26.7807285972
  0
LINE
  5
38F
100
AcDbEntity
  8
RACCORDO
100
AcDbLine
 62
7
  6
CONTINUOUS
 10
-8.5823771082
 20
24.4149669999
 11
-2.7898680402
 21
21.5187124659
  0
LINE
  5
390
100
AcDbEntity
  8
0
100
AcDbLine
 62
7
  6
CONTINUOUS
 10
10.0080863595
 20
22.3021872005
 11
9.8065870016
 21
22.8979116263
  0
LINE
  5
391
100
AcDbEntity
  8
RACCORDO
100
AcDbLine
 62
7
  6
CONTINUOUS
 10
0.8271671433
 20
-22.3307452413
 11
1.4494851754
 21
-21.5856858238
  0
LINE
  5
392
100
AcDbEntity
  8
RACCORDO
100
AcDbLine
 62
7
  6
CONTINUOUS
 10
1.4494851754
 20
18.4639183156
 11
0.8271671433
 21
18.5938588981
  0
LINE
  5
393
100
AcDbEntity
  8
RACCORDO
100
AcDbLine
 62
7
  6
CONTINUOUS
 10
3.364844225
 20
18.6406150296
 11
2.5651122012
 21
19.0404810415
  0
LINE
  5
394
100
AcDbEntity
  8
RACCORDO
100
AcDbLine
 62
7
  6
CONTINUOUS
 10
-9.3167279598
 20
24.981401122
 11
-10.7992059633
 21
25.7226401237
  0
LINE
  5
395
100
AcDbEntity
  8
DRAFT
100
AcDbLine
 62
7
  6
CONTINUOUS
 10
-8.0902856302
 20
24.8810664305
 11
-1.8677459558
 21
21.7697965933
  0
LINE
  5
396
100
AcDbEntity
  8
DRAFT
100
AcDbLine
 62
7
  6
CONTINUOUS
 10
-12.4743476736
 20
27.5927126945
 11
-10.8480020769
 21
26.7795398961
  0
LINE
  5
397
100
AcDbEntity
  8
DRAFT
100
AcDbLine
 62
7
  6
CONTINUOUS
 10
0.8899704908
 20
20.9105536123
 11
2.5163160876
 21
20.0973808139
  0
LINE
  5
398
100
AcDbEntity
  8
DRAFT
100
AcDbLine
 62
7
  6
CONTINUOUS
 10
-6.746782746
 20
24.9113833812
 11
-1.7970352777
 21
22.436509647
  0
LINE
  5
399
100
AcDbEntity
  8
RACCORDO
100
AcDbLine
 62
253
  6
CONTINUOUS
 10
-11.9398977949
 20
27.8530601611
 11
-10.3197349051
 21
27.0429787162
  0
LINE
  5
39A
100
AcDbEntity
  8
RACCORDO
100
AcDbLine
 62
253
  6
CONTINUOUS
 10
1.4244203695
 20
21.1709010788
 11
3.0445832593
 21
20.3608196339
  0
LINE
  5
39B
100
AcDbEntity
  8
RACCORDO
100
AcDbLine
 62
7
  6
CONTINUOUS
 10
-11.8284801796
 20
27.8593287243
 11
-10.2096026014
 21
27.0498899352
  0
LINE
  5
39C
100
AcDbEntity
  8
RACCORDO
100
AcDbLine
 62
7
  6
CONTINUOUS
 10
1.5358379849
 20
21.1771696421
 11
3.1547155631
 21
20.367730853
  0
LINE
  5
39D
100
AcDbEntity
  8
DRAFT
100
AcDbLine
 62
7
  6
CONTINUOUS
 10
9.7232678569
 20
20.1246658233
 11
8.970573773
 21
21.4228710843
  0
LINE
  5
39E
100
AcDbEntity
  8
0
100
AcDbLine
 62
253
  6
CONTINUOUS
 10
8.7926713532
 20
23.8968007199
 11
8.3986854194
 21
24.918956538
  0
LWPOLYLINE
  5
39F
100
AcDbEntity
  8
RACCORDO
100
AcDbPolyline
 62
7
  6
CONTINUOUS
 90
31
 70
0
 10
18.49516501
 20
22.20582411
 10
18.4948845117
 20
22.2398903659
 10
18.4937560409
 20
22.2823736216
 10
18.491770765
 20
22.3249208445
 10
18.4889350074
 20
22.3675372655
 10
18.4852562389
 20
22.4102023943
 10
18.480745386
 20
22.4528666968
 10
18.4754104039
 20
22.495524064
 10
18.469258534
 20
22.538166741
 10
18.4623043115
 20
22.5807406076
 10
18.4545563322
 20
22.623239086
 10
18.4460221148
 20
22.665655588
 10
18.436720008
 20
22.7079343896
 10
18.4266595324
 20
22.750066722
 10
18.4158483585
 20
22.7920483213
 10
18.4043066902
 20
22.8338288348
 10
18.3920465715
 20
22.8753920175
 10
18.3790739956
 20
22.9167413713
 10
18.36540206
 20
22.9578548798
 10
18.3510398602
 20
22.99872283
 10
18.335993935
 20
23.0393416556
 10
18.3202737786
 20
23.0796972413
 10
18.3038861745
 20
23.1197824699
 10
18.2868369634
 20
23.1595903924
 10
18.2691349261
 20
23.1991062658
 10
18.2507859116
 20
23.238321735
 10
18.23179426
 20
23.2772295884
 10
18.2121667482
 20
23.3158171518
 10
18.1919077266
 20
23.3540753461
 10
18.1710204312
 20
23.3919964387
 10
18.1531975699
 20
23.423228577
  0
LINE
  5
3A0
100
AcDbEntity
  8
RACCORDO
100
AcDbLine
 62
7
  6
CONTINUOUS
 10
18.4951650196
 20
15.4774162317
 11
18.4951650106
 21
15.4774479404
  0
LINE
  5
3A1
100
AcDbEntity
  8
RACCORDO
100
AcDbLine
 62
253
  6
CONTINUOUS
 10
18.21450482
 20
-8.4865836265
 11
18.21450482
 21
15.6820854848
  0
LINE
  5
3A2
100
AcDbEntity
  8
RACCORDO
100
AcDbLine
 62
253
  6
CONTINUOUS
 10
18.21450482
 20
18.6476422222
 11
18.21450482
 21
21.8584966193
  0
LINE
  5
3A3
100
AcDbEntity
  8
RACCORDO
100
AcDbLine
 62
7
  6
CONTINUOUS
 10
18.4951650106
 20
19.5468040216
 11
18.4951650166
 21
19.5470688762
  0
LINE
  5
3A4
100
AcDbEntity
  8
RACCORDO
100
AcDbLine
 62
7
  6
CONTINUOUS
 10
18.4951650196
 20
-8.1392544413
 11
18.4951650196
 21
15.4772399237
  0
LINE
  5
3A5
100
AcDbEntity
  8
RACCORDO
100
AcDbLine
 62
7
  6
CONTINUOUS
 10
18.4951650196
 20
19.5471462077
 11
18.4951650196
 21
22.2058258046
  0
LINE
  5
3A6
100
AcDbEntity
  8
RACCORDO
100
AcDbLine
 62
253
  6
CONTINUOUS
 10
20.0818804084
 20
19.4034106213
 11
20.0818804084
 21
19.2469959817
  0
LINE
  5
3A7
100
AcDbEntity
  8
RACCORDO
100
AcDbLine
 62
253
  6
CONTINUOUS
 10
20.0818804084
 20
17.0164558117
 11
20.0818804084
 21
16.8600410034
  0
LWPOLYLINE
  5
3A8
100
AcDbEntity
  8
RACCORDO
100
AcDbPolyline
 62
7
  6
CONTINUOUS
 90
38
 70
0
 10
18.495165272
 20
15.4774076108
 10
18.4951936265
 20
15.4814747841
 10
18.4955606336
 20
15.4925974104
 10
18.4963348532
 20
15.5035147451
 10
18.4974947572
 20
15.5142111763
 10
18.4990188869
 20
15.5246748719
 10
18.5008863281
 20
15.5348975633
 10
18.5030758267
 20
15.5448688172
 10
18.5055662382
 20
15.5545797364
 10
18.508337583
 20
15.5640259494
 10
18.5113699498
 20
15.573202504
 10
18.5146424656
 20
15.5821018485
 10
18.5181340542
 20
15.5907170947
 10
18.5218267071
 20
15.599049118
 10
18.5256988146
 20
15.6070905335
 10
18.5297225422
 20
15.6148240143
 10
18.5338771152
 20
15.6222488509
 10
18.5381427019
 20
15.629366028
 10
18.5424907458
 20
15.6361632316
 10
18.5469000166
 20
15.6426417875
 10
18.5513518031
 20
15.6488066008
 10
18.5558200962
 20
15.6546528211
 10
18.5602833199
 20
15.6601826222
 10
18.5647253004
 20
15.6654047016
 10
18.5691282047
 20
15.6703250916
 10
18.5734710149
 20
15.6749462347
 10
18.5777408033
 20
15.6792790265
 10
18.5819332709
 20
15.6833415135
 10
18.5860356663
 20
15.6871418622
 10
18.5900315438
 20
15.6906845059
 10
18.5939122727
 20
15.6939804546
 10
18.597664234
 20
15.6970357799
 10
18.6012741254
 20
15.6998566422
 10
18.6047343209
 20
15.7024532224
 10
18.608032068
 20
15.7048313114
 10
18.6111551362
 20
15.7069969557
 10
18.6140974327
 20
15.7089600882
 10
18.6168465871
 20
15.7107259864
  0
LINE
  5
3A9
100
AcDbEntity
  8
DRAFT
100
AcDbLine
 62
7
  6
CONTINUOUS
 10
9.7232678569
 20
-13.8425464834
 11
8.970573773
 21
-14.3880576605
  0
LINE
  5
3AA
100
AcDbEntity
  8
RACCORDO
100
AcDbLine
 62
7
  6
CONTINUOUS
 10
17.4574567683
 20
-9.7525799851
 11
9.7232678569
 21
-13.8425464834
  0
LINE
  5
3AB
100
AcDbEntity
  8
DRAFT
100
AcDbLine
 62
7
  6
CONTINUOUS
 10
3.6123315984
 20
-17.2215843864
 11
8.970573773
 21
-14.3880576605
  0
LINE
  5
3AC
100
AcDbEntity
  8
RACCORDO
100
AcDbLine
 62
253
  6
CONTINUOUS
 10
3.6123315984
 20
-16.1786803169
 11
18.21450482
 21
-8.4865836265
  0
LINE
  5
3AD
100
AcDbEntity
  8
RACCORDO
100
AcDbLine
 62
253
  6
CONTINUOUS
 10
3.6123315984
 20
-16.9779982527
 11
17.8003543443
 21
-9.5040667255
  0
LINE
  5
3AE
100
AcDbEntity
  8
RACCORDO
100
AcDbLine
 62
253
  6
CONTINUOUS
 10
3.6123315984
 20
-17.4952109301
 11
7.6404737237
 21
-15.4733077465
  0
LINE
  5
3AF
100
AcDbEntity
  8
RACCORDO
100
AcDbLine
 62
7
  6
CONTINUOUS
 10
3.6123315984
 20
-17.4968790108
 11
7.5900946694
 21
-15.500263309
  0
LINE
  5
3B0
100
AcDbEntity
  8
RACCORDO
100
AcDbLine
 62
253
  6
CONTINUOUS
 10
3.6123315984
 20
-17.2574058993
 11
8.3045721332
 21
-14.9300200024
  0
LINE
  5
3B1
100
AcDbEntity
  8
RACCORDO
100
AcDbLine
 62
253
  6
CONTINUOUS
 10
3.6123315984
 20
-17.3792806271
 11
8.3887237008
 21
-15.0101549322
  0
LINE
  5
3B2
100
AcDbEntity
  8
RACCORDO
100
AcDbLine
 62
253
  6
CONTINUOUS
 10
0.8103206381
 20
-17.737175425
 11
-2.9202837084
 21
-19.4499885547
  0
LINE
  5
3B3
100
AcDbEntity
  8
RACCORDO
100
AcDbLine
 62
7
  6
CONTINUOUS
 10
-0.1602211169
 20
-18.5958150496
 11
-3.1462816232
 21
-19.9667896066
  0
LINE
  5
3B4
100
AcDbEntity
  8
RACCORDO
100
AcDbLine
 62
7
  6
CONTINUOUS
 10
-11.914832989
 20
25.1460773978
 11
-12.5371510211
 21
25.2760179803
  0
LWPOLYLINE
  5
3B5
100
AcDbEntity
  8
RACCORDO
100
AcDbPolyline
 62
7
  6
CONTINUOUS
 90
51
 70
0
 10
-1.8557119687
 20
24.4571790313
 10
-1.8662830755
 20
24.461331246
 10
-1.8892444486
 20
24.4699458807
 10
-1.9125150507
 20
24.4781387202
 10
-1.9360810255
 20
24.48591471
 10
-1.959936385
 20
24.4932803144
 10
-1.984063131
 20
24.5002373227
 10
-2.0084433794
 20
24.506787872
 10
-2.033070554
 20
24.5129364384
 10
-2.0579267694
 20
24.5186840861
 10
-2.0829946876
 20
24.5240322599
 10
-2.1082678204
 20
24.5289840694
 10
-2.1337288148
 20
24.5335401555
 10
-2.1593601448
 20
24.5377013104
 10
-2.185154386
 20
24.5414694441
 10
-2.2110939901
 20
24.5448448705
 10
-2.2371618265
 20
24.5478280471
 10
-2.2633505122
 20
24.5504201033
 10
-2.2896424845
 20
24.5526211535
 10
-2.3160207652
 20
24.5544313589
 10
-2.3424784405
 20
24.5558512124
 10
-2.3689982858
 20
24.5568806647
 10
-2.3955630481
 20
24.5575195803
 10
-2.4221655703
 20
24.5577678249
 10
-2.4487886687
 20
24.557625173
 10
-2.4754149899
 20
24.5570912559
 10
-2.5020371504
 20
24.5561653658
 10
-2.5286380242
 20
24.5548470753
 10
-2.5552000083
 20
24.5531357955
 10
-2.5817152761
 20
24.5510302654
 10
-2.6081665285
 20
24.54852983
 10
-2.6345360105
 20
24.5456336683
 10
-2.660815727
 20
24.5423399117
 10
-2.6869896618
 20
24.538647381
 10
-2.7130382865
 20
24.5345551508
 10
-2.7389491778
 20
24.5300614028
 10
-2.7647058956
 20
24.5251647115
 10
-2.790288967
 20
24.5198640035
 10
-2.8156826852
 20
24.5141577214
 10
-2.8408691519
 20
24.5080444946
 10
-2.8658302294
 20
24.5015228462
 10
-2.890551449
 20
24.494590453
 10
-2.9150149162
 20
24.4872454127
 10
-2.9392023212
 20
24.4794858574
 10
-2.9631001782
 20
24.471308301
 10
-2.9866896479
 20
24.4627103192
 10
-3.0099531103
 20
24.4536889165
 10
-3.0328806367
 20
24.4442375422
 10
-3.0554569289
 20
24.4343505931
 10
-3.0776586444
 20
24.4240259416
 10
-3.0932377459
 20
24.4164004145
  0
LINE
  5
3B6
100
AcDbEntity
  8
RACCORDO
100
AcDbLine
 62
7
  6
CONTINUOUS
 10
-0.4828732974
 20
23.0842267636
 11
-3.0698274838
 21
24.3777038569
  0
LINE
  5
3B7
100
AcDbEntity
  8
RACCORDO
100
AcDbLine
 62
253
  6
CONTINUOUS
 10
0.1580898974
 20
23.4001412693
 11
-1.9348223335
 21
24.4465973848
  0
LINE
  5
3B8
100
AcDbEntity
  8
RACCORDO
100
AcDbLine
 62
7
  6
CONTINUOUS
 10
0.208853322
 20
23.425161274
 11
-1.8505734609
 21
24.4548746655
  0
LINE
  5
3B9
100
AcDbEntity
  8
0
100
AcDbLine
 62
7
  6
CONTINUOUS
 10
0.7206404671
 20
23.6774081804
 11
-2.0798779902
 21
25.077667409
  0
LINE
  5
3BA
100
AcDbEntity
  8
DRAFT
100
AcDbLine
 62
7
  6
CONTINUOUS
 10
-2.4334313807
 20
25.8070022936
 11
-2.0798779902
 21
25.6302255983
  0
LWPOLYLINE
  5
3BB
100
AcDbEntity
  8
RACCORDO
100
AcDbPolyline
 62
7
  6
CONTINUOUS
 90
19
 70
0
 10
20.1660784105
 20
19.5076081867
 10
20.166033995
 20
19.5143723721
 10
20.1656347157
 20
19.5290534448
 10
20.1648242665
 20
19.5437541025
 10
20.1636053729
 20
19.5584822766
 10
20.1619816878
 20
19.5732241644
 10
20.1599606676
 20
19.5879424463
 10
20.1575466581
 20
19.6026353441
 10
20.1547428876
 20
19.6173006283
 10
20.1515603594
 20
19.6318994401
 10
20.1480032626
 20
19.6464312662
 10
20.1440750284
 20
19.6608939119
 10
20.1397907902
 20
19.6752456386
 10
20.1351549837
 20
19.689485301
 10
20.1301713359
 20
19.7036117965
 10
20.1248583567
 20
19.7175834629
 10
20.119226356
 20
19.7313862789
 10
20.1132738663
 20
19.7450336827
 10
20.1103724477
 20
19.7513806449
  0
LINE
  5
3BC
100
AcDbEntity
  8
RACCORDO
100
AcDbLine
 62
7
  6
CONTINUOUS
 10
20.1660784683
 20
19.5076093769
 11
20.1660784683
 21
19.3324678369
  0
LINE
  5
3BD
100
AcDbEntity
  8
RACCORDO
100
AcDbLine
 62
7
  6
CONTINUOUS
 10
20.1660784683
 20
17.1090219404
 11
20.1660784683
 21
16.9642397586
  0
LWPOLYLINE
  5
3BE
100
AcDbEntity
  8
RACCORDO
100
AcDbPolyline
 62
7
  6
CONTINUOUS
 90
40
 70
0
 10
17.8749329536
 20
-9.4576965939
 10
17.8946750818
 20
-9.4431197122
 10
17.9227606548
 20
-9.4214278829
 10
17.9503541324
 20
-9.3989674535
 10
17.9774274699
 20
-9.3757560342
 10
18.0039676756
 20
-9.3517997065
 10
18.0299761489
 20
-9.327090835
 10
18.0554330086
 20
-9.3016407403
 10
18.0803189279
 20
-9.2754612084
 10
18.1046346952
 20
-9.2485423274
 10
18.1283613871
 20
-9.2208946819
 10
18.1514789054
 20
-9.1925314369
 10
18.1739846706
 20
-9.1634438442
 10
18.1958598744
 20
-9.1336425318
 10
18.2170850414
 20
-9.1031408131
 10
18.2376551951
 20
-9.0719309679
 10
18.2575513293
 20
-9.0400248648
 10
18.2767553286
 20
-9.0074345105
 10
18.2952623019
 20
-8.9741493297
 10
18.3130519713
 20
-8.9401844067
 10
18.3301083584
 20
-8.9055479785
 10
18.3464307883
 20
-8.8702154059
 10
18.362004244
 20
-8.8341875322
 10
18.376805423
 20
-8.7974845641
 10
18.3908199217
 20
-8.7601073882
 10
18.4040347378
 20
-8.7220512766
 10
18.4164262537
 20
-8.6833413656
 10
18.4279677741
 20
-8.6440216686
 10
18.4386452169
 20
-8.6041023607
 10
18.4484441759
 20
-8.5635945372
 10
18.4573439191
 20
-8.5225426533
 10
18.465333806
 20
-8.4809550315
 10
18.4724021544
 20
-8.4388436877
 10
18.4785329274
 20
-8.3962577546
 10
18.4837179321
 20
-8.3532065775
 10
18.4879484609
 20
-8.3097001842
 10
18.4912135249
 20
-8.2657873064
 10
18.4935062391
 20
-8.221489295
 10
18.4948211419
 20
-8.1768031842
 10
18.49516501
 20
-8.1392555748
  0
LINE
  5
3BF
100
AcDbEntity
  8
RACCORDO
100
AcDbLine
 62
253
  6
CONTINUOUS
 10
17.4574567683
 20
-9.7525799851
 11
17.8003543443
 21
-9.5040667255
  0
LINE
  5
3C0
100
AcDbEntity
  8
RACCORDO
100
AcDbLine
 62
7
  6
CONTINUOUS
 10
17.5338060645
 20
-9.7049265728
 11
17.8749219384
 21
-9.4577045927
  0
LINE
  5
3C1
100
AcDbEntity
  8
ASSI
100
AcDbLine
 62
7
  6
CONTINUOUS
 10
1.9506306626
 20
-20.6356646325
 11
1.1374578642
 21
-21.164535763
  0
LINE
  5
3C2
100
AcDbEntity
  8
RACCORDO
100
AcDbLine
 62
253
  6
CONTINUOUS
 10
2.9052248172
 20
-20.3239420148
 11
3.6123315984
 21
-19.962830935
  0
LINE
  5
3C3
100
AcDbEntity
  8
RACCORDO
100
AcDbLine
 62
7
  6
CONTINUOUS
 10
2.8152608491
 20
-20.5127520914
 11
3.5223676313
 21
-20.1516410111
  0
LINE
  5
3C4
100
AcDbEntity
  8
RACCORDO
100
AcDbLine
 62
7
  6
CONTINUOUS
 10
2.8152560431
 20
-20.5127545463
 11
2.8132484462
 21
-20.5137582537
  0
LINE
  5
3C5
100
AcDbEntity
  8
RACCORDO
100
AcDbLine
 62
253
  6
CONTINUOUS
 10
1.1374578642
 20
-21.1889312683
 11
2.9052248172
 21
-20.3239420148
  0
LINE
  5
3C6
100
AcDbEntity
  8
RACCORDO
100
AcDbLine
 62
7
  6
CONTINUOUS
 10
1.0454769453
 20
-21.3787497325
 11
2.8132438996
 21
-20.5137604784
  0
LWPOLYLINE
  5
3C7
100
AcDbEntity
  8
RACCORDO
100
AcDbPolyline
 62
7
  6
CONTINUOUS
 90
14
 70
0
 10
3.8767853803
 20
24.3475968022
 10
3.8643749268
 20
24.3482978702
 10
3.8433479692
 20
24.3497051219
 10
3.8224689824
 20
24.3513210632
 10
3.8017762186
 20
24.3531398884
 10
3.781288109
 20
24.355156841
 10
3.7610228949
 20
24.3573667664
 10
3.7410175249
 20
24.3597615597
 10
3.7212886773
 20
24.3623346796
 10
3.701853164
 20
24.3650793557
 10
3.682746764
 20
24.367985255
 10
3.6639840795
 20
24.3710442204
 10
3.6455798749
 20
24.3742479106
 10
3.6331641678
 20
24.3765474451
  0
LINE
  5
3C8
100
AcDbEntity
  8
0
100
AcDbLine
 62
7
  6
CONTINUOUS
 10
10.9633006031
 20
22.4226793231
 11
10.5135559417
 21
22.5444271562
  0
LINE
  5
3C9
100
AcDbEntity
  8
0
100
AcDbLine
 62
7
  6
CONTINUOUS
 10
2.1284561633
 20
24.3712848387
 11
-0.6820934836
 21
25.7765596622
  0
LINE
  5
3CA
100
AcDbEntity
  8
DRAFT
100
AcDbLine
 62
7
  6
CONTINUOUS
 10
8.1827851253
 20
21.8167654081
 11
8.970573773
 21
21.4228710843
  0
LINE
  5
3CB
100
AcDbEntity
  8
0
100
AcDbLine
 62
7
  6
CONTINUOUS
 10
0.6778384565
 20
25.8503078496
 11
2.8875793446
 21
24.7454374056
  0
LINE
  5
3CC
100
AcDbEntity
  8
0
100
AcDbLine
 62
7
  6
CONTINUOUS
 10
3.6331641678
 20
24.372644994
 11
3.7789775778
 21
24.299738289
  0
LINE
  5
3CD
100
AcDbEntity
  8
RACCORDO
100
AcDbLine
 62
7
  6
CONTINUOUS
 10
-2.1896192892
 20
27.5472804022
 11
-2.009167312
 21
27.4570544136
  0
LINE
  5
3CE
100
AcDbEntity
  8
RACCORDO
100
AcDbLine
 62
7
  6
CONTINUOUS
 10
3.364844225
 20
24.7700486451
 11
3.5452962021
 21
24.6798226566
  0
LINE
  5
3CF
100
AcDbEntity
  8
RACCORDO
100
AcDbLine
 62
253
  6
CONTINUOUS
 10
-3.0021876332
 20
28.1261774266
 11
-0.0230977323
 21
26.6366324761
  0
LINE
  5
3D0
100
AcDbEntity
  8
RACCORDO
100
AcDbLine
 62
253
  6
CONTINUOUS
 10
4.2195429548
 20
24.5153121325
 11
7.1986328558
 21
23.0257671821
  0
LINE
  5
3D1
100
AcDbEntity
  8
RACCORDO
100
AcDbLine
 62
7
  6
CONTINUOUS
 10
-2.8085446214
 20
28.2752268888
 11
0.4179452708
 21
26.6619819427
  0
LINE
  5
3D2
100
AcDbEntity
  8
RACCORDO
100
AcDbLine
 62
7
  6
CONTINUOUS
 10
4.6605859579
 20
24.5406615991
 11
7.8870758501
 21
22.9274166531
  0
LINE
  5
3D3
100
AcDbEntity
  8
0
100
AcDbLine
 62
7
  6
CONTINUOUS
 10
10.0185811949
 20
22.2969397828
 11
9.3116122548
 21
22.6504242529
  0
LINE
  5
3D4
100
AcDbEntity
  8
0
100
AcDbLine
 62
7
  6
CONTINUOUS
 10
10.0185811949
 20
22.2969397828
 11
10.1622078224
 21
22.164298184
  0
LINE
  5
3D5
100
AcDbEntity
  8
RACCORDO
100
AcDbLine
 62
7
  6
CONTINUOUS
 10
2.5163160876
 20
-22.1646588908
 11
3.0445832593
 21
-21.8936478321
  0
LINE
  5
3D6
100
AcDbEntity
  8
RACCORDO
100
AcDbLine
 62
7
  6
CONTINUOUS
 10
0.9150352967
 20
-22.9446934904
 11
2.5163160876
 21
-22.1646588908
  0
LINE
  5
3D7
100
AcDbEntity
  8
0
100
AcDbLine
 62
7
  6
CONTINUOUS
 10
-0.6820934836
 20
25.7765596622
 11
0.6778384565
 21
25.8503078496
  0
LINE
  5
3D8
100
AcDbEntity
  8
0
100
AcDbLine
 62
7
  6
CONTINUOUS
 10
10.5135559417
 20
22.5444271562
 11
9.8065870016
 21
22.8979116263
  0
LINE
  5
3D9
100
AcDbEntity
  8
DRAFT
100
AcDbLine
 62
7
  6
CONTINUOUS
 10
9.041510398
 20
23.6226619306
 11
9.4753815511
 21
23.4057263541
  0
LINE
  5
3DA
100
AcDbEntity
  8
DRAFT
100
AcDbLine
 62
7
  6
CONTINUOUS
 10
13.0151081178
 20
25.6051257083
 11
16.1244378381
 21
24.0504608481
  0
LINE
  5
3DB
100
AcDbEntity
  8
RACCORDO
100
AcDbLine
 62
253
  6
CONTINUOUS
 10
17.8003543443
 20
23.290130194
 11
17.4574567683
 21
23.8815410296
  0
LINE
  5
3DC
100
AcDbEntity
  8
RACCORDO
100
AcDbLine
 62
7
  6
CONTINUOUS
 10
18.1531975931
 20
23.4232285514
 11
17.8901506568
 21
23.8769174058
  0
LINE
  5
3DD
100
AcDbEntity
  8
0
100
AcDbLine
 62
253
  6
CONTINUOUS
 10
17.4574567683
 20
23.8815410296
 11
16.6322103007
 21
24.2941642634
  0
LINE
  5
3DE
100
AcDbEntity
  8
RACCORDO
100
AcDbLine
 62
253
  6
CONTINUOUS
 10
11.9717591179
 20
26.6243898548
 11
10.930992616
 21
27.1447731057
  0
LINE
  5
3DF
100
AcDbEntity
  8
RACCORDO
100
AcDbLine
 62
7
  6
CONTINUOUS
 10
17.8262488414
 20
23.9369447629
 11
16.9787012332
 21
24.360718567
  0
LINE
  5
3E0
100
AcDbEntity
  8
RACCORDO
100
AcDbLine
 62
7
  6
CONTINUOUS
 10
12.4950139465
 20
26.6025622104
 11
11.3658654966
 21
27.1671364353
  0
ARC
  5
3E1
100
AcDbEntity
  8
RACCORDO
100
AcDbCircle
 62
253
  6
CONTINUOUS
 10
-187.6864794862
 20
344.1595203432
 40
387.6759478603
100
AcDbArc
 50
302.0809044316
 51
302.4072118952
  0
ARC
  5
3E2
100
AcDbEntity
  8
RACCORDO
100
AcDbCircle
 62
253
  6
CONTINUOUS
 10
138.3851481666
 20
-275.5887764783
 40
317.8302276563
100
AcDbArc
 50
111.8526929347
 51
112.2158537885
  0
ARC
  5
3E3
100
AcDbEntity
  8
RACCORDO
100
AcDbCircle
 62
253
  6
CONTINUOUS
 10
-142.4529316213
 20
270.9460307181
 40
301.7757910028
100
AcDbArc
 50
302.2506014182
 51
302.5747863141
  0
ARC
  5
3E4
100
AcDbEntity
  8
RACCORDO
100
AcDbCircle
 62
253
  6
CONTINUOUS
 10
89.067129618
 20
-161.5964960191
 40
194.0001804954
100
AcDbArc
 50
110.8483954771
 51
111.304639326
  0
ARC
  5
3E5
100
AcDbEntity
  8
RACCORDO
100
AcDbCircle
 62
253
  6
CONTINUOUS
 10
82.3315357003
 20
-2.4617649014
 40
87.4641890094
100
AcDbArc
 50
178.8429590784
 51
179.9205330985
  0
ARC
  5
3E6
100
AcDbEntity
  8
0
100
AcDbCircle
 62
7
  6
CONTINUOUS
 10
11.4310388063
 20
19.1341757468
 40
4.4493422648
100
AcDbArc
 50
71.1365540201
 51
72.1042384717
  0
ARC
  5
3E7
100
AcDbEntity
  8
0
100
AcDbCircle
 62
253
  6
CONTINUOUS
 10
12.4204772543
 20
21.2730140285
 40
2.0389120948
100
AcDbArc
 50
51.8696548059
 51
53.4190508446
  0
ARC
  5
3E8
100
AcDbEntity
  8
RACCORDO
100
AcDbCircle
 62
7
  6
CONTINUOUS
 10
18.7096649678
 20
17.861222177
 40
1.6392076465
100
AcDbArc
 50
331.5829247965
 51
332.6846637898
  0
ARC
  5
3E9
100
AcDbEntity
  8
RACCORDO
100
AcDbCircle
 62
253
  6
CONTINUOUS
 10
4.3515414143
 20
25.8434808639
 40
1.5772358147
100
AcDbArc
 50
292.8041140934
 51
294.7822851535
  0
ARC
  5
3EA
100
AcDbEntity
  8
RACCORDO
100
AcDbCircle
 62
7
  6
CONTINUOUS
 10
-3.8327960906
 20
-5.7442631472
 40
1.5672198903
100
AcDbArc
 50
212.0885148745
 51
214.0135767482
  0
ARC
  5
3EB
100
AcDbEntity
  8
RACCORDO
100
AcDbCircle
 62
7
  6
CONTINUOUS
 10
-3.8569631561
 20
-5.7603578849
 40
1.5381844735
100
AcDbArc
 50
214.0201992253
 51
214.360800936
  0
ARC
  5
3EC
100
AcDbEntity
  8
RACCORDO
100
AcDbCircle
 62
7
  6
CONTINUOUS
 10
-16.5085577253
 20
0.2676088749
 40
1.2525980393
100
AcDbArc
 50
243.4378609659
 51
247.918496213
  0
ARC
  5
3ED
100
AcDbEntity
  8
RACCORDO
100
AcDbCircle
 62
7
  6
CONTINUOUS
 10
-5.9649168923
 20
-4.3553199995
 40
1.1459718256
100
AcDbArc
 50
100.0279023173
 51
102.1290219865
  0
ARC
  5
3EE
100
AcDbEntity
  8
RACCORDO
100
AcDbCircle
 62
253
  6
CONTINUOUS
 10
-17.071772282
 20
0.389726634
 40
1.1099478652
100
AcDbArc
 50
239.4999391334
 51
241.8966560752
  0
ARC
  5
3EF
100
AcDbEntity
  8
RACCORDO
100
AcDbCircle
 62
253
  6
CONTINUOUS
 10
-17.0732836302
 20
0.3869417055
 40
1.1067793409
100
AcDbArc
 50
241.8977577785
 51
243.4353194977
  0
ARC
  5
3F0
100
AcDbEntity
  8
RACCORDO
100
AcDbCircle
 62
7
  6
CONTINUOUS
 10
7.11711422
 20
-14.5557498181
 40
1.0563227358
100
AcDbArc
 50
296.597158829
 51
299.6997032394
  0
ARC
  5
3F1
100
AcDbEntity
  8
RACCORDO
100
AcDbCircle
 62
7
  6
CONTINUOUS
 10
-3.563530825
 20
-19.0579937946
 40
1.0000031906
100
AcDbArc
 50
243.4350490668
 51
294.6619670809
  0
ARC
  5
3F2
100
AcDbEntity
  8
RACCORDO
100
AcDbCircle
 62
7
  6
CONTINUOUS
 10
10.9186518288
 20
26.2727083775
 40
1.0000007566
100
AcDbArc
 50
63.4347949232
 51
114.7890332365
  0
ARC
  5
3F3
100
AcDbEntity
  8
RACCORDO
100
AcDbCircle
 62
7
  6
CONTINUOUS
 10
-15.5569230643
 20
-13.0613013201
 40
0.9999999003
100
AcDbArc
 50
186.0249033021
 51
243.4346067462
  0
ARC
  5
3F4
100
AcDbEntity
  8
RACCORDO
100
AcDbCircle
 62
253
  6
CONTINUOUS
 10
17.338609246
 20
-8.8663288311
 40
0.7873488158
100
AcDbArc
 50
305.9058860294
 51
312.1964394672
  0
ARC
  5
3F5
100
AcDbEntity
  8
0
100
AcDbCircle
 62
7
  6
CONTINUOUS
 10
8.6945913875
 20
22.9331350971
 40
0.6904812624
100
AcDbArc
 50
180.0070213522
 51
185.6695484363
  0
ARC
  5
3F6
100
AcDbEntity
  8
RACCORDO
100
AcDbCircle
 62
253
  6
CONTINUOUS
 10
17.5102857143
 20
-8.9543807752
 40
0.6215259078
100
AcDbArc
 50
297.8205581433
 51
305.9216960866
  0
ARC
  5
3F7
100
AcDbEntity
  8
RACCORDO
100
AcDbCircle
 62
253
  6
CONTINUOUS
 10
-17.1793080971
 20
1.7950355062
 40
0.44962564
100
AcDbArc
 50
186.0440695594
 51
186.7221425384
  0
ARC
  5
3F8
100
AcDbEntity
  8
RACCORDO
100
AcDbCircle
 62
253
  6
CONTINUOUS
 10
-18.4454588352
 20
7.855329914
 40
0.3228439436
100
AcDbArc
 50
186.0242533181
 51
186.8070472053
  0
ARC
  5
3F9
100
AcDbEntity
  8
RACCORDO
100
AcDbCircle
 62
7
  6
CONTINUOUS
 10
-4.9910748812
 20
-0.7178068948
 40
0.2000729466
100
AcDbArc
 50
159.7352061062
 51
179.9960627014
  0
ARC
  5
3FA
100
AcDbEntity
  8
RACCORDO
100
AcDbCircle
 62
7
  6
CONTINUOUS
 10
-4.9911528922
 20
-6.4705648188
 40
0.1999947452
100
AcDbArc
 50
180.0015387667
 51
212.0910962717
  0
ARC
  5
3FB
100
AcDbEntity
  8
RACCORDO
100
AcDbCircle
 62
7
  6
CONTINUOUS
 10
20.1331304022
 20
19.1470342086
 40
0.1123339573
100
AcDbArc
 50
117.1440294401
 51
119.249314977
  0
ARC
  5
3FC
100
AcDbEntity
  8
RACCORDO
100
AcDbCircle
 62
7
  6
CONTINUOUS
 10
20.0320857216
 20
17.1116126648
 40
0.1073980331
100
AcDbArc
 50
295.4533439599
 51
297.6226396585
  0
ARC
  5
3FD
100
AcDbEntity
  8
RACCORDO
100
AcDbCircle
 62
7
  6
CONTINUOUS
 10
-1.8804374303
 20
24.3951639902
 40
0.0667623626
100
AcDbArc
 50
63.4357676531
 51
68.2627786015
  0
ARC
  5
3FE
100
AcDbEntity
  8
RACCORDO
100
AcDbCircle
 62
7
  6
CONTINUOUS
 10
-3.1286604554
 20
24.3334218744
 40
0.0583767695
100
AcDbArc
 50
116.5905652312
 51
130.3803902665
  0
SPLINE
  5
3FF
100
AcDbEntity
  8
0
100
AcDbSpline
 62
7
  6
CONTINUOUS
 70
0
 71
3
 72
11
 73
7
 74
5
 42
0.0000001
 43
0.0000001
 44
0.0000000001
 12
-0.0872758795
 22
0.0636482074
 32
0.0
 13
-0.0966154167
 23
-0.0483077084
 33
0.0
 40
0.0
 40
0.0
 40
0.0
 40
0.0
 40
0.2285353333
 40
0.4641485023
 40
0.7190045406
 40
1.0
 40
1.0
 40
1.0
 40
1.0
 10
13.7384410549
 20
22.9097059118
 30
0.0
 10
13.7317925141
 20
22.9145545332
 30
0.0
 10
13.7165576335
 20
22.9222522509
 30
0.0
 10
13.6905320639
 20
22.925928811
 30
0.0
 10
13.6627401587
 20
22.9219300778
 30
0.0
 10
13.6446325331
 20
22.9148171506
 30
0.0
 10
13.6355830353
 20
22.9102924017
 30
0.0
 11
13.7384410549
 21
22.9097059118
 31
0.0
 11
13.7164103612
 21
22.9208440691
 31
0.0
 11
13.6912480381
 21
22.9246649861
 31
0.0
 11
13.6639524469
 21
22.9210848691
 31
0.0
 11
13.6355830353
 21
22.9102924017
 31
0.0
  0
LINE
  5
400
100
AcDbEntity
  8
0
100
AcDbLine
 62
7
  6
CONTINUOUS
 10
13.738421675
 20
22.9097202546
 11
13.7420533216
 21
22.9070675489
  0
SPLINE
  5
401
100
AcDbEntity
  8
0
100
AcDbSpline
 62
7
  6
CONTINUOUS
 70
0
 71
3
 72
11
 73
7
 74
5
 42
0.0000001
 43
0.0000001
 44
0.0000000001
 12
0.1140608436
 22
-0.0389453569
 32
0.0
 13
0.0090568771
 23
-0.1201856474
 33
0.0
 40
0.0
 40
0.0
 40
0.0
 40
0.0
 40
0.2226124468
 40
0.4556457327
 40
0.7125887961
 40
1.0
 40
1.0
 40
1.0
 40
1.0
 10
12.8695650532
 20
23.3445548422
 30
0.0
 10
12.878028841
 20
23.3416649351
 30
0.0
 10
12.8944425
 20
23.3325615226
 30
0.0
 10
12.913391888
 20
23.3104292135
 30
0.0
 10
12.9259052463
 20
23.2814078409
 30
0.0
 10
12.9295642204
 20
23.2596499436
 30
0.0
 10
12.9304319031
 20
23.2481357098
 30
0.0
 11
12.8695650532
 21
23.3445548422
 31
0.0
 11
12.8930414411
 21
23.3315646684
 31
0.0
 11
12.9115928307
 21
23.3104765962
 31
0.0
 11
12.9242778024
 21
23.2822253143
 31
0.0
 11
12.9304319031
 21
23.2481357098
 31
0.0
  0
SPLINE
  5
402
100
AcDbEntity
  8
0
100
AcDbSpline
 62
7
  6
CONTINUOUS
 70
0
 71
3
 72
11
 73
7
 74
5
 42
0.0000001
 43
0.0000001
 44
0.0000000001
 12
1.0791163131
 22
0.9812927694
 32
0.0
 13
1.4041062146
 23
0.3948585248
 33
0.0
 40
0.0
 40
0.0
 40
0.0
 40
0.0
 40
0.2233499706
 40
0.4647165499
 40
0.7240724147
 40
1.0
 40
1.0
 40
1.0
 40
1.0
 10
8.1570001231
 20
22.7647433511
 30
0.0
 10
8.237340322
 20
22.8378005882
 30
0.0
 10
8.4173979339
 20
22.9759055719
 30
0.0
 10
8.7232797729
 20
23.1517266156
 30
0.0
 10
9.0700611016
 20
23.3027980841
 30
0.0
 10
9.3178623212
 20
23.3836287434
 30
0.0
 10
9.4470062003
 20
23.4199461965
 30
0.0
 11
8.1570001231
 21
22.7647433511
 31
0.0
 11
8.4141732523
 21
22.964716221
 31
0.0
 11
8.7184798934
 21
23.141738167
 31
0.0
 11
9.0647257528
 21
23.2941068158
 31
0.0
 11
9.4470062003
 21
23.4199461965
 31
0.0
  0
SPLINE
  5
403
100
AcDbEntity
  8
0
100
AcDbSpline
 62
7
  6
CONTINUOUS
 70
0
 71
3
 72
15
 73
11
 74
9
 42
0.0000001
 43
0.0000001
 44
0.0000000001
 12
3.1544971467
 22
0.7897358599
 32
0.0
 13
3.094493401
 23
-0.9993225545
 33
0.0
 40
0.0
 40
0.0
 40
0.0
 40
0.0
 40
0.1219898603
 40
0.2477521821
 40
0.3758888614
 40
0.5049073907
 40
0.6332810199
 40
0.7595076857
 40
0.88217006
 40
1.0
 40
1.0
 40
1.0
 40
1.0
 10
9.5856767
 20
23.4567767224
 30
0.0
 10
9.7139489221
 20
23.4888899782
 30
0.0
 10
9.9770650347
 20
23.5440502447
 30
0.0
 10
10.3810123076
 20
23.5995365888
 30
0.0
 10
10.7953645103
 20
23.6285447656
 30
0.0
 10
11.2135434231
 20
23.6306450808
 30
0.0
 10
11.6289196875
 20
23.6058091514
 30
0.0
 10
12.0349295008
 20
23.5543950941
 30
0.0
 10
12.4251808946
 20
23.4771467526
 30
0.0
 10
12.6767190595
 20
23.4074961381
 30
0.0
 10
12.7982603834
 20
23.3682460992
 30
0.0
 11
9.5856767
 21
23.4567767224
 31
0.0
 11
9.9738173982
 21
23.538703615
 31
0.0
 11
10.3789246144
 21
23.5947098408
 31
0.0
 11
10.7945760514
 21
23.6239889038
 31
0.0
 11
11.2141197271
 21
23.6261094059
 31
0.0
 11
11.6308181786
 21
23.6010394627
 31
0.0
 11
12.0379953183
 21
23.5491486846
 31
0.0
 11
12.4291822677
 21
23.471188196
 31
0.0
 11
12.7982603834
 21
23.3682460992
 31
0.0
  0
LINE
  5
404
100
AcDbEntity
  8
0
100
AcDbLine
 62
7
  6
CONTINUOUS
 10
12.9304319031
 20
23.2481357098
 11
12.9805536866
 21
22.5827777378
  0
SPLINE
  5
405
100
AcDbEntity
  8
0
100
AcDbSpline
 62
253
  6
CONTINUOUS
 70
0
 71
3
 72
15
 73
11
 74
9
 42
0.0000001
 43
0.0000001
 44
0.0000000001
 12
-3.1791212717
 22
1.0705229876
 32
0.0
 13
-3.224563744
 23
-0.9246730169
 33
0.0
 40
0.0
 40
0.0
 40
0.0
 40
0.0
 40
0.1170900879
 40
0.2399506114
 40
0.3669344237
 40
0.4962719464
 40
0.6260952267
 40
0.7545266149
 40
0.8797338832
 40
1.0
 40
1.0
 40
1.0
 40
1.0
 10
12.7870548978
 20
23.3345564704
 30
0.0
 10
12.6629737015
 20
23.376339014
 30
0.0
 10
12.4046191404
 20
23.4501743056
 30
0.0
 10
12.0019481435
 20
23.5308583606
 30
0.0
 10
11.5808007379
 20
23.5830534432
 30
0.0
 10
11.1492716808
 20
23.6057566267
 30
0.0
 10
10.7155908644
 20
23.5985228366
 30
0.0
 10
10.2880489062
 20
23.5614952264
 30
0.0
 10
9.8748531133
 20
23.4953930225
 30
0.0
 10
9.6076103824
 20
23.4312115531
 30
0.0
 10
9.4783417958
 20
23.3941426087
 30
0.0
 11
12.7870548978
 21
23.3345564704
 31
0.0
 11
12.4096498033
 21
23.4433806991
 31
0.0
 11
12.0056705773
 21
23.5249833564
 31
0.0
 11
11.5829834942
 21
23.5777686238
 31
0.0
 11
11.1497255932
 21
23.6007283482
 31
0.0
 11
10.7142917217
 21
23.593413122
 31
0.0
 11
10.2850960197
 21
23.5559665483
 31
0.0
 11
9.8704400867
 21
23.4891120636
 31
0.0
 11
9.4783417958
 21
23.3941426087
 31
0.0
  0
SPLINE
  5
406
100
AcDbEntity
  8
0
100
AcDbSpline
 62
253
  6
CONTINUOUS
 70
0
 71
3
 72
11
 73
7
 74
5
 42
0.0000001
 43
0.0000001
 44
0.0000000001
 12
-1.380555076
 22
-0.3958867396
 32
0.0
 13
-1.0052854564
 23
-1.0256996536
 33
0.0
 40
0.0
 40
0.0
 40
0.0
 40
0.0
 40
0.2831625437
 40
0.5455466563
 40
0.7847574222
 40
1.0
 40
1.0
 40
1.0
 40
1.0
 10
9.4783417958
 20
23.3941426087
 30
0.0
 10
9.3480346334
 20
23.3567758433
 30
0.0
 10
9.0999302462
 20
23.2737293685
 30
0.0
 10
8.7571545415
 20
23.1180465839
 30
0.0
 10
8.4634863232
 20
22.9387158976
 30
0.0
 10
8.2957617491
 20
22.7982114368
 30
0.0
 10
8.2236350047
 20
22.7246200243
 30
0.0
 11
9.4783417958
 21
23.3941426087
 31
0.0
 11
9.0931245629
 21
23.263782458
 31
0.0
 11
8.750754906
 21
23.1063416028
 31
0.0
 11
8.4587797079
 21
22.9252904949
 31
0.0
 11
8.2236350047
 21
22.7246200243
 31
0.0
  0
SPLINE
  5
407
100
AcDbEntity
  8
0
100
AcDbSpline
 62
7
  6
CONTINUOUS
 70
0
 71
3
 72
9
 73
5
 74
3
 42
0.0000001
 43
0.0000001
 44
0.0000000001
 12
0.0758252899
 22
0.037912645
 32
0.0
 13
0.0802275305
 23
-0.0273931851
 33
0.0
 40
0.0
 40
0.0
 40
0.0
 40
0.0
 40
0.5342465021
 40
1.0
 40
1.0
 40
1.0
 40
1.0
 10
12.7870548978
 20
23.3345564704
 30
0.0
 10
12.8005580298
 20
23.3413080364
 30
0.0
 10
12.8277831032
 20
23.3508192861
 30
0.0
 10
12.8571096356
 20
23.3488076661
 30
0.0
 10
12.8695650532
 20
23.3445548422
 30
0.0
 11
12.7870548978
 21
23.3345564704
 31
0.0
 11
12.8302476273
 21
23.3481818905
 31
0.0
 11
12.8695650532
 21
23.3445548422
 31
0.0
  0
SPLINE
  5
408
100
AcDbEntity
  8
0
100
AcDbSpline
 62
7
  6
CONTINUOUS
 70
0
 71
3
 72
27
 73
23
 74
21
 42
0.0000001
 43
0.0000001
 44
0.0000000001
 12
8.9460645948
 22
-4.4730323123
 32
0.0
 13
-8.3846146713
 23
-5.4532858549
 33
0.0
 40
0.0
 40
0.0
 40
0.0
 40
0.0
 40
0.0614297843
 40
0.1273073715
 40
0.1968934011
 40
0.2692540525
 40
0.3433248811
 40
0.4179658733
 40
0.4920126156
 40
0.5643261767
 40
0.6338442346
 40
0.6996364125
 40
0.7609676029
 40
0.7898193612
 40
0.8174108313
 40
0.868799072
 40
0.8927403424
 40
0.9156222113
 40
0.9375880977
 40
0.9588215821
 40
0.9795427615
 40
1.0
 40
1.0
 40
1.0
 40
1.0
 10
-11.202926066
 20
-7.6016697279
 30
0.0
 10
-11.0197411265
 20
-7.693262198
 30
0.0
 10
-10.6526851465
 20
-7.9088371375
 30
0.0
 10
-10.1260959289
 20
-8.3025892268
 30
0.0
 10
-9.6136955517
 20
-8.7705300092
 30
0.0
 10
-9.1267649283
 20
-9.3023848802
 30
0.0
 10
-8.6759234194
 20
-9.8865337794
 30
0.0
 10
-8.2710863008
 20
-10.5101445714
 30
0.0
 10
-7.9211475802
 20
-11.1595140697
 30
0.0
 10
-7.6337902575
 20
-11.8203732796
 30
0.0
 10
-7.4152976843
 20
-12.4782825355
 30
0.0
 10
-7.2704682489
 20
-13.1188431643
 30
0.0
 10
-7.2126503966
 20
-13.6370480985
 30
0.0
 10
-7.2081590904
 20
-14.0300061094
 30
0.0
 10
-7.2297232694
 20
-14.3890413587
 30
0.0
 10
-7.2895087719
 20
-14.7290165405
 30
0.0
 10
-7.3923240425
 20
-15.0403975755
 30
0.0
 10
-7.4866691364
 20
-15.2499449378
 30
0.0
 10
-7.5995772643
 20
-15.4397207078
 30
0.0
 10
-7.7305066361
 20
-15.608603566
 30
0.0
 10
-7.8787113013
 20
-15.7554963679
 30
0.0
 10
-7.9887954825
 20
-15.8383740844
 30
0.0
 10
-8.0459708364
 20
-15.8755604741
 30
0.0
 11
-11.202926066
 21
-7.6016697279
 31
0.0
 11
-10.6716965237
 21
-7.9103901467
 31
0.0
 11
-10.142708021
 21
-8.3032397336
 31
0.0
 11
-9.6277486873
 21
-8.7714624997
 31
0.0
 11
-9.1383002111
 21
-9.3046195956
 31
0.0
 11
-8.6852749412
 21
-9.8908250398
 31
0.0
 11
-8.2787726055
 21
-10.5170094965
 31
0.0
 11
-7.9278554405
 21
-11.1692126526
 31
0.0
 11
-7.6403468339
 21
-11.8328944682
 31
0.0
 11
-7.4226570996
 21
-12.4932587328
 31
0.0
 11
-7.2796393138
 21
-13.1355830386
 31
0.0
 11
-7.2144813804
 21
-13.7455475733
 31
0.0
 11
-7.2116227494
 21
-14.0341088245
 31
0.0
 11
-7.2286359631
 21
-14.3095539052
 31
0.0
 11
-7.3217881148
 21
-14.8150276161
 31
0.0
 11
-7.3974071351
 21
-15.0422349785
 31
0.0
 11
-7.4918610728
 21
-15.2506994506
 31
0.0
 11
-7.6046226929
 21
-15.4392576034
 31
0.0
 11
-7.7350626236
 21
-15.6068570815
 31
0.0
 11
-7.8824528635
 21
-15.7525624637
 31
0.0
 11
-8.0459708364
 21
-15.8755604741
 31
0.0
  0
SPLINE
  5
409
100
AcDbEntity
  8
RACCORDO
100
AcDbSpline
 62
7
  6
CONTINUOUS
 70
0
 71
3
 72
10
 73
6
 74
4
 42
0.0000001
 43
0.0000001
 44
0.0000000001
 12
0.019246244
 22
0.0408559459
 32
0.0
 13
-0.00474026
 23
0.0449127617
 33
0.0
 40
0.0
 40
0.0
 40
0.0
 40
0.0
 40
0.1531222405
 40
0.3905405661
 40
1.0
 40
1.0
 40
1.0
 40
1.0
 10
-19.4052513705
 20
17.6210463396
 30
0.0
 10
-19.4042690279
 20
17.6231316576
 30
0.0
 10
-19.4022030277
 20
17.6286579245
 30
0.0
 10
-19.398745269
 20
17.6433379335
 30
0.0
 10
-19.3984314131
 20
17.6563059482
 30
0.0
 10
-19.3993944118
 20
17.665430117
 30
0.0
 11
-19.4052513705
 21
17.6210463396
 31
0.0
 11
-19.4027589691
 21
17.6274969109
 31
0.0
 11
-19.4002371758
 21
17.6379184804
 31
0.0
 11
-19.3993944118
 21
17.665430117
 31
0.0
  0
SPLINE
  5
40A
100
AcDbEntity
  8
RACCORDO
100
AcDbSpline
 62
7
  6
CONTINUOUS
 70
0
 71
3
 72
9
 73
5
 74
3
 42
0.0000001
 43
0.0000001
 44
0.0000000001
 12
0.114988333
 22
-0.1030754993
 32
0.0
 13
0.1381213243
 23
-0.0690606621
 33
0.0
 40
0.0
 40
0.0
 40
0.0
 40
0.0
 40
0.2490470825
 40
1.0
 40
1.0
 40
1.0
 40
1.0
 10
-17.4687490225
 20
1.4153458304
 30
0.0
 10
-17.4592031863
 20
1.4067889463
 30
0.0
 10
-17.4196211362
 20
1.3738373092
 30
0.0
 10
-17.3754464705
 20
1.3465393742
 30
0.0
 10
-17.3408722667
 20
1.3292522723
 30
0.0
 11
-17.4687490225
 21
1.4153458304
 31
0.0
 11
-17.4392027436
 21
1.3907265959
 31
0.0
 11
-17.3408722667
 21
1.3292522723
 31
0.0
  0
SPLINE
  5
40B
100
AcDbEntity
  8
RACCORDO
100
AcDbSpline
 62
7
  6
CONTINUOUS
 70
0
 71
3
 72
9
 73
5
 74
3
 42
0.0000001
 43
0.0000001
 44
0.0000000001
 12
0.1308210459
 22
-0.065410523
 32
0.0
 13
0.1413708337
 23
-0.037509598
 33
0.0
 40
0.0
 40
0.0
 40
0.0
 40
0.0
 40
0.2472965919
 40
1.0
 40
1.0
 40
1.0
 40
1.0
 10
-6.2392958021
 20
-4.22153596
 30
0.0
 10
-6.2285119358
 20
-4.2269278931
 30
0.0
 10
-6.1842988278
 20
-4.2475099485
 30
0.0
 10
-6.1379129157
 20
-4.2633210552
 30
0.0
 10
-6.102442813
 20
-4.272732256
 30
0.0
 11
-6.2392958021
 21
-4.22153596
 31
0.0
 11
-6.2065115548
 21
-4.2368158672
 31
0.0
 11
-6.102442813
 21
-4.272732256
 31
0.0
  0
SPLINE
  5
40C
100
AcDbEntity
  8
0
100
AcDbSpline
 62
7
  6
CONTINUOUS
 70
0
 71
3
 72
10
 73
6
 74
4
 42
0.0000001
 43
0.0000001
 44
0.0000000001
 12
1.2869211921
 22
-0.0811556786
 32
0.0
 13
1.1533437992
 23
-0.5766718996
 33
0.0
 40
0.0
 40
0.0
 40
0.0
 40
0.0
 40
0.4711515144
 40
0.7283200771
 40
1.0
 40
1.0
 40
1.0
 40
1.0
 10
-12.4332871283
 20
-7.2398044244
 30
0.0
 10
-12.2311755055
 20
-7.2525499647
 30
0.0
 10
-11.9206445093
 20
-7.3134162847
 30
0.0
 10
-11.5148178655
 20
-7.455568709
 30
0.0
 10
-11.3073728508
 20
-7.5494463355
 30
0.0
 10
-11.202926066
 20
-7.6016697279
 30
0.0
 11
-12.4332871283
 21
-7.2398044244
 31
0.0
 11
-11.8356696281
 21
-7.3491540263
 31
0.0
 11
-11.5224038104
 21
-7.45792797
 31
0.0
 11
-11.202926066
 21
-7.6016697279
 31
0.0
  0
SPLINE
  5
40D
100
AcDbEntity
  8
RACCORDO
100
AcDbSpline
 62
7
  6
CONTINUOUS
 70
0
 71
3
 72
9
 73
5
 74
3
 42
0.0000001
 43
0.0000001
 44
0.0000000001
 12
0.1190392494
 22
0.1758193985
 32
0.0
 13
0.0906215906
 23
0.1920170073
 33
0.0
 40
0.0
 40
0.0
 40
0.0
 40
0.0
 40
0.4951905447
 40
1.0
 40
1.0
 40
1.0
 40
1.0
 10
-19.508289135
 20
17.4355919378
 30
0.0
 10
-19.4886400981
 20
17.4646133057
 30
0.0
 10
-19.4522050572
 20
17.5254342617
 30
0.0
 10
-19.4204928221
 20
17.5887497149
 30
0.0
 10
-19.4052439435
 20
17.6210603818
 30
0.0
 11
-19.508289135
 21
17.4355919378
 31
0.0
 11
-19.4537136192
 21
17.5254609152
 31
0.0
 11
-19.4052439435
 21
17.6210603818
 31
0.0
  0
SPLINE
  5
40E
100
AcDbEntity
  8
RACCORDO
100
AcDbSpline
 62
7
  6
CONTINUOUS
 70
0
 71
3
 72
9
 73
5
 74
3
 42
0.0000001
 43
0.0000001
 44
0.0000000001
 12
0.1254025485
 22
0.1503113804
 32
0.0
 13
0.1097472288
 23
0.1620952067
 33
0.0
 40
0.0
 40
0.0
 40
0.0
 40
0.0
 40
0.4630331997
 40
1.0
 40
1.0
 40
1.0
 40
1.0
 10
-19.6258406236
 20
17.2791330143
 30
0.0
 10
-19.6064854425
 20
17.3023327341
 30
0.0
 10
-19.5661004979
 20
17.3536161762
 30
0.0
 10
-19.5279326745
 20
17.4065786897
 30
0.0
 10
-19.508289135
 20
17.4355919378
 30
0.0
 11
-19.6258406236
 21
17.2791330143
 31
0.0
 11
-19.5695616525
 21
17.3501845992
 31
0.0
 11
-19.508289135
 21
17.4355919378
 31
0.0
  0
SPLINE
  5
40F
100
AcDbEntity
  8
RACCORDO
100
AcDbSpline
 62
7
  6
CONTINUOUS
 70
0
 71
3
 72
11
 73
7
 74
5
 42
0.0000001
 43
0.0000001
 44
0.0000000001
 12
-0.044028094
 22
0.4171550299
 32
0.0
 13
0.3339150806
 23
0.253884838
 33
0.0
 40
0.0
 40
0.0
 40
0.0
 40
0.0
 40
0.2341329803
 40
0.4927488457
 40
0.7552914912
 40
1.0
 40
1.0
 40
1.0
 40
1.0
 10
-8.8524126161
 20
13.3687801497
 30
0.0
 10
-8.8558487591
 20
13.4013367331
 30
0.0
 10
-8.850989019
 20
13.4712122856
 30
0.0
 10
-8.8179853184
 20
13.5723937365
 30
0.0
 10
-8.7630624104
 20
13.6652727513
 30
0.0
 10
-8.7132037989
 20
13.7170867273
 30
0.0
 10
-8.6859665117
 20
13.7377959873
 30
0.0
 11
-8.8524126161
 21
13.3687801497
 31
0.0
 11
-8.8474664385
 21
13.4668677593
 31
0.0
 11
-8.8145614162
 21
13.5702390845
 31
0.0
 11
-8.7581718167
 21
13.6648365239
 31
0.0
 11
-8.6859665117
 21
13.7377959873
 31
0.0
  0
SPLINE
  5
410
100
AcDbEntity
  8
RACCORDO
100
AcDbSpline
 62
7
  6
CONTINUOUS
 70
0
 71
3
 72
11
 73
7
 74
5
 42
0.0000001
 43
0.0000001
 44
0.0000000001
 12
-0.044028094
 22
0.4171550299
 32
0.0
 13
0.3339150806
 23
0.253884838
 33
0.0
 40
0.0
 40
0.0
 40
0.0
 40
0.0
 40
0.2341329803
 40
0.4927488457
 40
0.7552914912
 40
1.0
 40
1.0
 40
1.0
 40
1.0
 10
-15.923480428
 20
16.9043140556
 30
0.0
 10
-15.926916571
 20
16.9368706391
 30
0.0
 10
-15.9220568309
 20
17.0067461916
 30
0.0
 10
-15.8890531303
 20
17.1079276425
 30
0.0
 10
-15.8341302222
 20
17.2008066573
 30
0.0
 10
-15.7842716107
 20
17.2526206332
 30
0.0
 10
-15.7570343236
 20
17.2733298933
 30
0.0
 11
-15.923480428
 21
16.9043140556
 31
0.0
 11
-15.9185342504
 21
17.0024016653
 31
0.0
 11
-15.8856292281
 21
17.1057729904
 31
0.0
 11
-15.8292396286
 21
17.2003704299
 31
0.0
 11
-15.7570343236
 21
17.2733298933
 31
0.0
  0
SPLINE
  5
411
100
AcDbEntity
  8
RACCORDO
100
AcDbSpline
 62
7
  6
CONTINUOUS
 70
0
 71
3
 72
14
 73
10
 74
8
 42
0.0000001
 43
0.0000001
 44
0.0000000001
 12
0.8333054425
 22
0.8753818331
 32
0.0
 13
-0.126854562
 23
1.2019148199
 33
0.0
 40
0.0
 40
0.0
 40
0.0
 40
0.0
 40
0.2542376601
 40
0.3853268481
 40
0.5162496683
 40
0.6449648142
 40
0.7695527725
 40
0.8883311257
 40
1.0
 40
1.0
 40
1.0
 40
1.0
 10
-6.8288570948
 20
16.5087210309
 30
0.0
 10
-6.7582378862
 20
16.5829060405
 30
0.0
 10
-6.6636521866
 20
16.7078262526
 30
0.0
 10
-6.5630946025
 20
16.8900779336
 30
0.0
 10
-6.5005944305
 20
17.034851997
 30
0.0
 10
-6.4534249905
 20
17.1825438948
 30
0.0
 10
-6.4227369948
 20
17.3295694851
 30
0.0
 10
-6.4092964073
 20
17.4722729722
 30
0.0
 10
-6.4121867719
 20
17.5654019962
 30
0.0
 10
-6.4169086739
 20
17.6101408212
 30
0.0
 11
-6.8288570948
 21
16.5087210309
 31
0.0
 11
-6.6419250835
 21
16.7525874239
 31
0.0
 11
-6.565346314
 21
16.8912840701
 31
0.0
 11
-6.502696752
 21
17.036585233
 31
0.0
 11
-6.455553421
 21
17.184833806
 31
0.0
 11
-6.4251037169
 21
17.3322987133
 31
0.0
 11
-6.4121127886
 21
17.4752641039
 31
0.0
 11
-6.4169086739
 21
17.6101408212
 31
0.0
  0
SPLINE
  5
412
100
AcDbEntity
  8
RACCORDO
100
AcDbSpline
 62
7
  6
CONTINUOUS
 70
0
 71
3
 72
11
 73
7
 74
5
 42
0.0000001
 43
0.0000001
 44
0.0000000001
 12
-0.2108401165
 22
-0.2527194967
 32
0.0
 13
0.0345491216
 23
-0.3273026992
 33
0.0
 40
0.0
 40
0.0
 40
0.0
 40
0.0
 40
0.2742863632
 40
0.528854505
 40
0.7684889586
 40
1.0
 40
1.0
 40
1.0
 40
1.0
 10
-19.6258402969
 20
17.2791334648
 30
0.0
 10
-19.6451171531
 20
17.2560276276
 30
0.0
 10
-19.6791333557
 20
17.2086569051
 30
0.0
 10
-19.7156669182
 20
17.1321157407
 30
0.0
 10
-19.7347946708
 20
17.0542147752
 30
0.0
 10
-19.7354678776
 20
17.0019809844
 30
0.0
 10
-19.7328017099
 20
16.9767229215
 30
0.0
 11
-19.6258402969
 21
17.2791334648
 31
0.0
 11
-19.6780144275
 21
17.2054642568
 31
0.0
 11
-19.7135992146
 21
17.1296128285
 31
0.0
 11
-19.7319704437
 21
17.0529135556
 31
0.0
 11
-19.7328017099
 21
16.9767229215
 31
0.0
  0
SPLINE
  5
413
100
AcDbEntity
  8
ASSI
100
AcDbSpline
 62
7
  6
CONTINUOUS
 70
0
 71
3
 72
23
 73
19
 74
17
 42
0.0000001
 43
0.0000001
 44
0.0000000001
 12
0.1133830496
 22
-1.0742756543
 32
0.0
 13
-0.1133830496
 23
1.0742756543
 33
0.0
 40
0.0
 40
0.0
 40
0.0
 40
0.0
 40
0.0615487969
 40
0.1161041297
 40
0.1643815026
 40
0.2085253284
 40
0.2519854641
 40
0.2984619232
 40
0.3506275712
 40
0.4096775861
 40
0.4755592739
 40
0.547335924
 40
0.6234792116
 40
0.7020906226
 40
0.7810821201
 40
0.8583376653
 40
0.9318688667
 40
1.0
 40
1.0
 40
1.0
 40
1.0
 10
-7.2596505754
 20
6.6679989214
 30
0.0
 10
-7.2573243786
 20
6.6459587967
 30
0.0
 10
-7.2560130941
 20
6.6039269274
 30
0.0
 10
-7.265798444
 20
6.5450776903
 30
0.0
 10
-7.2875787734
 20
6.4960382522
 30
0.0
 10
-7.3213747598
 20
6.4592494506
 30
0.0
 10
-7.3656985039
 20
6.437509842
 30
0.0
 10
-7.4174085334
 20
6.4318895733
 30
0.0
 10
-7.4739182943
 20
6.4415940201
 30
0.0
 10
-7.5333887891
 20
6.4656328646
 30
0.0
 10
-7.593905222
 20
6.5029587161
 30
0.0
 10
-7.6533713912
 20
6.5521842762
 30
0.0
 10
-7.709626642
 20
6.6114971345
 30
0.0
 10
-7.7605822099
 20
6.6786918945
 30
0.0
 10
-7.804328768
 20
6.7512515164
 30
0.0
 10
-7.8392265965
 20
6.8264644276
 30
0.0
 10
-7.863973994
 20
6.9014953388
 30
0.0
 10
-7.8735170038
 20
6.9518224156
 30
0.0
 10
-7.8760919757
 20
6.9762196216
 30
0.0
 11
-7.2596505754
 21
6.6679989214
 31
0.0
 11
-7.258244906
 21
6.6015261549
 31
0.0
 11
-7.2687382696
 21
6.5435348915
 31
0.0
 11
-7.2907264584
 21
6.4962456263
 31
0.0
 11
-7.3233656882
 21
6.4614801427
 31
0.0
 11
-7.3654010865
 21
6.4405734027
 31
0.0
 11
-7.4152170031
 21
6.4343282803
 31
0.0
 11
-7.4708995315
 21
6.4429858388
 31
0.0
 11
-7.5303086704
 21
6.4662131098
 31
0.0
 11
-7.5911612593
 21
6.5031167027
 31
0.0
 11
-7.6511188289
 21
6.5522791932
 31
0.0
 11
-7.7078771322
 21
6.6118114255
 31
0.0
 11
-7.7592552878
 21
6.6794249425
 31
0.0
 11
-7.803278705
 21
6.7525217496
 31
0.0
 11
-7.838255196
 21
6.8282933547
 31
0.0
 11
-7.8628409788
 21
6.9038241913
 31
0.0
 11
-7.8760919757
 21
6.9762196216
 31
0.0
  0
SPLINE
  5
414
100
AcDbEntity
  8
ASSI
100
AcDbSpline
 62
7
  6
CONTINUOUS
 70
0
 71
3
 72
23
 73
19
 74
17
 42
0.0000001
 43
0.0000001
 44
0.0000000001
 12
-0.1133830496
 22
1.0742756543
 32
0.0
 13
0.1133830496
 23
-1.0742756543
 33
0.0
 40
0.0
 40
0.0
 40
0.0
 40
0.0
 40
0.0615487969
 40
0.1161041297
 40
0.1643815026
 40
0.2085253284
 40
0.2519854641
 40
0.2984619232
 40
0.3506275712
 40
0.4096775861
 40
0.4755592739
 40
0.547335924
 40
0.6234792116
 40
0.7020906226
 40
0.7810821201
 40
0.8583376653
 40
0.9318688667
 40
1.0
 40
1.0
 40
1.0
 40
1.0
 10
-9.4317268943
 20
7.7540370809
 30
0.0
 10
-9.434053091
 20
7.7760772056
 30
0.0
 10
-9.4353643755
 20
7.8181090749
 30
0.0
 10
-9.4255790256
 20
7.876958312
 30
0.0
 10
-9.4037986962
 20
7.9259977502
 30
0.0
 10
-9.3700027099
 20
7.9627865517
 30
0.0
 10
-9.3256789657
 20
7.9845261603
 30
0.0
 10
-9.2739689362
 20
7.990146429
 30
0.0
 10
-9.2174591753
 20
7.9804419822
 30
0.0
 10
-9.1579886805
 20
7.9564031378
 30
0.0
 10
-9.0974722476
 20
7.9190772863
 30
0.0
 10
-9.0380060785
 20
7.8698517261
 30
0.0
 10
-8.9817508276
 20
7.8105388678
 30
0.0
 10
-8.9307952597
 20
7.7433441078
 30
0.0
 10
-8.8870487016
 20
7.6707844859
 30
0.0
 10
-8.8521508731
 20
7.5955715747
 30
0.0
 10
-8.8274034756
 20
7.5205406635
 30
0.0
 10
-8.8178604659
 20
7.4702135867
 30
0.0
 10
-8.815285494
 20
7.4458163807
 30
0.0
 11
-9.4317268943
 21
7.7540370809
 31
0.0
 11
-9.4331325636
 21
7.8205098474
 31
0.0
 11
-9.4226392
 21
7.8785011108
 31
0.0
 11
-9.4006510112
 21
7.925790376
 31
0.0
 11
-9.3680117814
 21
7.9605558596
 31
0.0
 11
-9.3259763831
 21
7.9814625997
 31
0.0
 11
-9.2761604666
 21
7.987707722
 31
0.0
 11
-9.2204779381
 21
7.9790501635
 31
0.0
 11
-9.1610687992
 21
7.9558228925
 31
0.0
 11
-9.1002162104
 21
7.9189192996
 31
0.0
 11
-9.0402586407
 21
7.8697568091
 31
0.0
 11
-8.9835003374
 21
7.8102245768
 31
0.0
 11
-8.9321221818
 21
7.7426110599
 31
0.0
 11
-8.8880987646
 21
7.6695142527
 31
0.0
 11
-8.8531222736
 21
7.5937426476
 31
0.0
 11
-8.8285364908
 21
7.518211811
 31
0.0
 11
-8.815285494
 21
7.4458163807
 31
0.0
  0
SPLINE
  5
415
100
AcDbEntity
  8
ASSI
100
AcDbSpline
 62
7
  6
CONTINUOUS
 70
0
 71
3
 72
23
 73
19
 74
17
 42
0.0000001
 43
0.0000001
 44
0.0000000001
 12
0.1133830496
 22
-1.0742756543
 32
0.0
 13
-0.1133830496
 23
1.0742756543
 33
0.0
 40
0.0
 40
0.0
 40
0.0
 40
0.0
 40
0.0615487969
 40
0.1161041297
 40
0.1643815026
 40
0.2085253284
 40
0.2519854641
 40
0.2984619232
 40
0.3506275712
 40
0.4096775861
 40
0.4755592739
 40
0.547335924
 40
0.6234792116
 40
0.7020906226
 40
0.7810821201
 40
0.8583376653
 40
0.9318688667
 40
1.0
 40
1.0
 40
1.0
 40
1.0
 10
-8.815285494
 20
7.4458163807
 30
0.0
 10
-8.8129592972
 20
7.423776256
 30
0.0
 10
-8.8116480127
 20
7.3817443867
 30
0.0
 10
-8.8214333626
 20
7.3228951496
 30
0.0
 10
-8.843213692
 20
7.2738557115
 30
0.0
 10
-8.8770096784
 20
7.2370669099
 30
0.0
 10
-8.9213334225
 20
7.2153273013
 30
0.0
 10
-8.973043452
 20
7.2097070326
 30
0.0
 10
-9.0295532129
 20
7.2194114795
 30
0.0
 10
-9.0890237077
 20
7.2434503239
 30
0.0
 10
-9.1495401406
 20
7.2807761754
 30
0.0
 10
-9.2090063098
 20
7.3300017355
 30
0.0
 10
-9.2652615606
 20
7.3893145938
 30
0.0
 10
-9.3162171286
 20
7.4565093538
 30
0.0
 10
-9.3599636866
 20
7.5290689757
 30
0.0
 10
-9.3948615151
 20
7.6042818869
 30
0.0
 10
-9.4196089126
 20
7.6793127981
 30
0.0
 10
-9.4291519224
 20
7.7296398749
 30
0.0
 10
-9.4317268943
 20
7.7540370809
 30
0.0
 11
-8.815285494
 21
7.4458163807
 31
0.0
 11
-8.8138798246
 21
7.3793436142
 31
0.0
 11
-8.8243731882
 21
7.3213523508
 31
0.0
 11
-8.846361377
 21
7.2740630856
 31
0.0
 11
-8.8790006068
 21
7.239297602
 31
0.0
 11
-8.9210360051
 21
7.218390862
 31
0.0
 11
-8.9708519217
 21
7.2121457396
 31
0.0
 11
-9.0265344501
 21
7.2208032981
 31
0.0
 11
-9.085943589
 21
7.2440305691
 31
0.0
 11
-9.1467961779
 21
7.280934162
 31
0.0
 11
-9.2067537475
 21
7.3300966526
 31
0.0
 11
-9.2635120508
 21
7.3896288848
 31
0.0
 11
-9.3148902064
 21
7.4572424018
 31
0.0
 11
-9.3589136237
 21
7.5303392089
 31
0.0
 11
-9.3938901146
 21
7.6061108141
 31
0.0
 11
-9.4184758974
 21
7.6816416506
 31
0.0
 11
-9.4317268943
 21
7.7540370809
 31
0.0
  0
SPLINE
  5
416
100
AcDbEntity
  8
RACCORDO
100
AcDbSpline
 62
253
  6
CONTINUOUS
 70
0
 71
3
 72
11
 73
7
 74
5
 42
0.0000001
 43
0.0000001
 44
0.0000000001
 12
0.0174261306
 22
-0.1638061564
 32
0.0
 13
0.1226604204
 23
-0.1099570286
 33
0.0
 40
0.0
 40
0.0
 40
0.0
 40
0.0
 40
0.1815401817
 40
0.4037985007
 40
0.675533344
 40
1.0
 40
1.0
 40
1.0
 40
1.0
 10
-17.6694616364
 20
2.1553654503
 30
0.0
 10
-17.668407122
 20
2.1454529839
 30
0.0
 10
-17.6619158654
 20
2.1238448413
 30
0.0
 10
-17.6428871051
 20
2.091774949
 30
0.0
 10
-17.6140140305
 20
2.0571598045
 30
0.0
 10
-17.590373545
 20
2.0344426059
 30
0.0
 10
-17.5771071395
 20
2.0225501428
 30
0.0
 11
-17.6694616364
 21
2.1553654503
 31
0.0
 11
-17.6615834332
 21
2.126516623
 31
0.0
 11
-17.6435699097
 21
2.0946418053
 31
0.0
 11
-17.6153324827
 21
2.0599089019
 31
0.0
 11
-17.5771071395
 21
2.0225501428
 31
0.0
  0
SPLINE
  5
417
100
AcDbEntity
  8
ASSI
100
AcDbSpline
 62
7
  6
CONTINUOUS
 70
0
 71
3
 72
23
 73
19
 74
17
 42
0.0000001
 43
0.0000001
 44
0.0000000001
 12
-0.1133830496
 22
1.0742756543
 32
0.0
 13
0.1133830496
 23
-1.0742756543
 33
0.0
 40
0.0
 40
0.0
 40
0.0
 40
0.0
 40
0.0615487969
 40
0.1161041297
 40
0.1643815026
 40
0.2085253284
 40
0.2519854641
 40
0.2984619232
 40
0.3506275712
 40
0.4096775861
 40
0.4755592739
 40
0.547335924
 40
0.6234792116
 40
0.7020906226
 40
0.7810821201
 40
0.8583376653
 40
0.9318688667
 40
1.0
 40
1.0
 40
1.0
 40
1.0
 10
-10.9873618129
 20
8.5318545402
 30
0.0
 10
-10.9896880096
 20
8.5538946649
 30
0.0
 10
-10.9909992941
 20
8.5959265342
 30
0.0
 10
-10.9812139442
 20
8.6547757713
 30
0.0
 10
-10.9594336148
 20
8.7038152095
 30
0.0
 10
-10.9256376285
 20
8.740604011
 30
0.0
 10
-10.8813138843
 20
8.7623436196
 30
0.0
 10
-10.8296038548
 20
8.7679638884
 30
0.0
 10
-10.7730940939
 20
8.7582594415
 30
0.0
 10
-10.7136235991
 20
8.7342205971
 30
0.0
 10
-10.6531071662
 20
8.6968947456
 30
0.0
 10
-10.5936409971
 20
8.6476691854
 30
0.0
 10
-10.5373857462
 20
8.5883563271
 30
0.0
 10
-10.4864301783
 20
8.5211615671
 30
0.0
 10
-10.4426836202
 20
8.4486019452
 30
0.0
 10
-10.4077857917
 20
8.373389034
 30
0.0
 10
-10.3830383942
 20
8.2983581228
 30
0.0
 10
-10.3734953845
 20
8.248031046
 30
0.0
 10
-10.3709204126
 20
8.22363384
 30
0.0
 11
-10.9873618129
 21
8.5318545402
 31
0.0
 11
-10.9887674822
 21
8.5983273067
 31
0.0
 11
-10.9782741186
 21
8.6563185701
 31
0.0
 11
-10.9562859298
 21
8.7036078353
 31
0.0
 11
-10.9236467
 21
8.7383733189
 31
0.0
 11
-10.8816113017
 21
8.759280059
 31
0.0
 11
-10.8317953852
 21
8.7655251813
 31
0.0
 11
-10.7761128567
 21
8.7568676228
 31
0.0
 11
-10.7167037178
 21
8.7336403518
 31
0.0
 11
-10.655851129
 21
8.6967367589
 31
0.0
 11
-10.5958935593
 21
8.6475742684
 31
0.0
 11
-10.539135256
 21
8.5880420361
 31
0.0
 11
-10.4877571004
 21
8.5204285192
 31
0.0
 11
-10.4437336832
 21
8.447331712
 31
0.0
 11
-10.4087571922
 21
8.3715601069
 31
0.0
 11
-10.3841714094
 21
8.2960292703
 31
0.0
 11
-10.3709204126
 21
8.22363384
 31
0.0
  0
SPLINE
  5
418
100
AcDbEntity
  8
ASSI
100
AcDbSpline
 62
7
  6
CONTINUOUS
 70
0
 71
3
 72
23
 73
19
 74
17
 42
0.0000001
 43
0.0000001
 44
0.0000000001
 12
0.1133830496
 22
-1.0742756543
 32
0.0
 13
-0.1133830496
 23
1.0742756543
 33
0.0
 40
0.0
 40
0.0
 40
0.0
 40
0.0
 40
0.0615487969
 40
0.1161041297
 40
0.1643815026
 40
0.2085253284
 40
0.2519854641
 40
0.2984619232
 40
0.3506275712
 40
0.4096775861
 40
0.4755592739
 40
0.547335924
 40
0.6234792116
 40
0.7020906226
 40
0.7810821201
 40
0.8583376653
 40
0.9318688667
 40
1.0
 40
1.0
 40
1.0
 40
1.0
 10
-10.3709204126
 20
8.22363384
 30
0.0
 10
-10.3685942158
 20
8.2015937153
 30
0.0
 10
-10.3672829313
 20
8.159561846
 30
0.0
 10
-10.3770682812
 20
8.1007126089
 30
0.0
 10
-10.3988486106
 20
8.0516731708
 30
0.0
 10
-10.432644597
 20
8.0148843692
 30
0.0
 10
-10.4769683411
 20
7.9931447606
 30
0.0
 10
-10.5286783706
 20
7.9875244919
 30
0.0
 10
-10.5851881315
 20
7.9972289388
 30
0.0
 10
-10.6446586264
 20
8.0212677832
 30
0.0
 10
-10.7051750592
 20
8.0585936347
 30
0.0
 10
-10.7646412284
 20
8.1078191948
 30
0.0
 10
-10.8208964792
 20
8.1671320531
 30
0.0
 10
-10.8718520472
 20
8.2343268131
 30
0.0
 10
-10.9155986052
 20
8.306886435
 30
0.0
 10
-10.9504964337
 20
8.3820993462
 30
0.0
 10
-10.9752438312
 20
8.4571302574
 30
0.0
 10
-10.984786841
 20
8.5074573343
 30
0.0
 10
-10.9873618129
 20
8.5318545402
 30
0.0
 11
-10.3709204126
 21
8.22363384
 31
0.0
 11
-10.3695147432
 21
8.1571610735
 31
0.0
 11
-10.3800081068
 21
8.0991698101
 31
0.0
 11
-10.4019962957
 21
8.0518805449
 31
0.0
 11
-10.4346355254
 21
8.0171150613
 31
0.0
 11
-10.4766709237
 21
7.9962083213
 31
0.0
 11
-10.5264868403
 21
7.9899631989
 31
0.0
 11
-10.5821693687
 21
7.9986207574
 31
0.0
 11
-10.6415785076
 21
8.0218480284
 31
0.0
 11
-10.7024310965
 21
8.0587516213
 31
0.0
 11
-10.7623886661
 21
8.1079141119
 31
0.0
 11
-10.8191469694
 21
8.1674463441
 31
0.0
 11
-10.870525125
 21
8.2350598611
 31
0.0
 11
-10.9145485423
 21
8.3081566682
 31
0.0
 11
-10.9495250332
 21
8.3839282734
 31
0.0
 11
-10.974110816
 21
8.4594591099
 31
0.0
 11
-10.9873618129
 21
8.5318545402
 31
0.0
  0
SPLINE
  5
419
100
AcDbEntity
  8
ASSI
100
AcDbSpline
 62
7
  6
CONTINUOUS
 70
0
 71
3
 72
23
 73
19
 74
17
 42
0.0000001
 43
0.0000001
 44
0.0000000001
 12
-0.1133830496
 22
1.0742756543
 32
0.0
 13
0.1133830496
 23
-1.0742756543
 33
0.0
 40
0.0
 40
0.0
 40
0.0
 40
0.0
 40
0.0615487969
 40
0.1161041297
 40
0.1643815026
 40
0.2085253284
 40
0.2519854641
 40
0.2984619232
 40
0.3506275712
 40
0.4096775861
 40
0.4755592739
 40
0.547335924
 40
0.6234792116
 40
0.7020906226
 40
0.7810821201
 40
0.8583376653
 40
0.9318688667
 40
1.0
 40
1.0
 40
1.0
 40
1.0
 10
-12.5429967315
 20
9.3096719995
 30
0.0
 10
-12.5453229282
 20
9.3317121242
 30
0.0
 10
-12.5466342127
 20
9.3737439935
 30
0.0
 10
-12.5368488628
 20
9.4325932306
 30
0.0
 10
-12.5150685334
 20
9.4816326688
 30
0.0
 10
-12.4812725471
 20
9.5184214703
 30
0.0
 10
-12.4369488029
 20
9.5401610789
 30
0.0
 10
-12.3852387734
 20
9.5457813477
 30
0.0
 10
-12.3287290125
 20
9.5360769008
 30
0.0
 10
-12.2692585177
 20
9.5120380564
 30
0.0
 10
-12.2087420848
 20
9.4747122049
 30
0.0
 10
-12.1492759157
 20
9.4254866447
 30
0.0
 10
-12.0930206648
 20
9.3661737864
 30
0.0
 10
-12.0420650969
 20
9.2989790264
 30
0.0
 10
-11.9983185388
 20
9.2264194045
 30
0.0
 10
-11.9634207104
 20
9.1512064933
 30
0.0
 10
-11.9386733128
 20
9.0761755821
 30
0.0
 10
-11.9291303031
 20
9.0258485053
 30
0.0
 10
-11.9265553312
 20
9.0014512993
 30
0.0
 11
-12.5429967315
 21
9.3096719995
 31
0.0
 11
-12.5444024008
 21
9.376144766
 31
0.0
 11
-12.5339090372
 21
9.4341360294
 31
0.0
 11
-12.5119208484
 21
9.4814252946
 31
0.0
 11
-12.4792816186
 21
9.5161907782
 31
0.0
 11
-12.4372462203
 21
9.5370975183
 31
0.0
 11
-12.3874303038
 21
9.5433426406
 31
0.0
 11
-12.3317477753
 21
9.5346850821
 31
0.0
 11
-12.2723386364
 21
9.5114578111
 31
0.0
 11
-12.2114860476
 21
9.4745542182
 31
0.0
 11
-12.1515284779
 21
9.4253917277
 31
0.0
 11
-12.0947701746
 21
9.3658594954
 31
0.0
 11
-12.0433920191
 21
9.2982459785
 31
0.0
 11
-11.9993686018
 21
9.2251491713
 31
0.0
 11
-11.9643921108
 21
9.1493775662
 31
0.0
 11
-11.939806328
 21
9.0738467296
 31
0.0
 11
-11.9265553312
 21
9.0014512993
 31
0.0
  0
SPLINE
  5
41A
100
AcDbEntity
  8
ASSI
100
AcDbSpline
 62
7
  6
CONTINUOUS
 70
0
 71
3
 72
23
 73
19
 74
17
 42
0.0000001
 43
0.0000001
 44
0.0000000001
 12
0.1133830496
 22
-1.0742756543
 32
0.0
 13
-0.1133830496
 23
1.0742756543
 33
0.0
 40
0.0
 40
0.0
 40
0.0
 40
0.0
 40
0.0615487969
 40
0.1161041297
 40
0.1643815026
 40
0.2085253284
 40
0.2519854641
 40
0.2984619232
 40
0.3506275712
 40
0.4096775861
 40
0.4755592739
 40
0.547335924
 40
0.6234792116
 40
0.7020906226
 40
0.7810821201
 40
0.8583376653
 40
0.9318688667
 40
1.0
 40
1.0
 40
1.0
 40
1.0
 10
-11.9265553312
 20
9.0014512993
 30
0.0
 10
-11.9242291344
 20
8.9794111746
 30
0.0
 10
-11.92291785
 20
8.9373793053
 30
0.0
 10
-11.9327031999
 20
8.8785300682
 30
0.0
 10
-11.9544835292
 20
8.8294906301
 30
0.0
 10
-11.9882795156
 20
8.7927018285
 30
0.0
 10
-12.0326032597
 20
8.77096222
 30
0.0
 10
-12.0843132893
 20
8.7653419512
 30
0.0
 10
-12.1408230501
 20
8.7750463981
 30
0.0
 10
-12.200293545
 20
8.7990852425
 30
0.0
 10
-12.2608099778
 20
8.836411094
 30
0.0
 10
-12.320276147
 20
8.8856366541
 30
0.0
 10
-12.3765313978
 20
8.9449495124
 30
0.0
 10
-12.4274869658
 20
9.0121442724
 30
0.0
 10
-12.4712335239
 20
9.0847038943
 30
0.0
 10
-12.5061313523
 20
9.1599168055
 30
0.0
 10
-12.5308787498
 20
9.2349477167
 30
0.0
 10
-12.5404217596
 20
9.2852747936
 30
0.0
 10
-12.5429967315
 20
9.3096719995
 30
0.0
 11
-11.9265553312
 21
9.0014512993
 31
0.0
 11
-11.9251496619
 21
8.9349785328
 31
0.0
 11
-11.9356430254
 21
8.8769872695
 31
0.0
 11
-11.9576312143
 21
8.8296980042
 31
0.0
 11
-11.9902704441
 21
8.7949325206
 31
0.0
 11
-12.0323058423
 21
8.7740257806
 31
0.0
 11
-12.0821217589
 21
8.7677806582
 31
0.0
 11
-12.1378042873
 21
8.7764382167
 31
0.0
 11
-12.1972134263
 21
8.7996654877
 31
0.0
 11
-12.2580660151
 21
8.8365690806
 31
0.0
 11
-12.3180235847
 21
8.8857315712
 31
0.0
 11
-12.374781888
 21
8.9452638034
 31
0.0
 11
-12.4261600436
 21
9.0128773204
 31
0.0
 11
-12.4701834609
 21
9.0859741275
 31
0.0
 11
-12.5051599518
 21
9.1617457327
 31
0.0
 11
-12.5297457346
 21
9.2372765692
 31
0.0
 11
-12.5429967315
 21
9.3096719995
 31
0.0
  0
SPLINE
  5
41B
100
AcDbEntity
  8
ASSI
100
AcDbSpline
 62
7
  6
CONTINUOUS
 70
0
 71
3
 72
23
 73
19
 74
17
 42
0.0000001
 43
0.0000001
 44
0.0000000001
 12
-0.1133830496
 22
1.0742756543
 32
0.0
 13
0.1133830496
 23
-1.0742756543
 33
0.0
 40
0.0
 40
0.0
 40
0.0
 40
0.0
 40
0.0615487969
 40
0.1161041297
 40
0.1643815026
 40
0.2085253284
 40
0.2519854641
 40
0.2984619232
 40
0.3506275712
 40
0.4096775861
 40
0.4755592739
 40
0.547335924
 40
0.6234792116
 40
0.7020906226
 40
0.7810821201
 40
0.8583376653
 40
0.9318688667
 40
1.0
 40
1.0
 40
1.0
 40
1.0
 10
-14.0986316501
 20
10.0874894588
 30
0.0
 10
-14.1009578469
 20
10.1095295835
 30
0.0
 10
-14.1022691313
 20
10.1515614528
 30
0.0
 10
-14.0924837814
 20
10.2104106899
 30
0.0
 10
-14.0707034521
 20
10.2594501281
 30
0.0
 10
-14.0369074657
 20
10.2962389296
 30
0.0
 10
-13.9925837215
 20
10.3179785382
 30
0.0
 10
-13.940873692
 20
10.323598807
 30
0.0
 10
-13.8843639311
 20
10.3138943601
 30
0.0
 10
-13.8248934363
 20
10.2898555157
 30
0.0
 10
-13.7643770034
 20
10.2525296642
 30
0.0
 10
-13.7049108343
 20
10.203304104
 30
0.0
 10
-13.6486555834
 20
10.1439912457
 30
0.0
 10
-13.5977000155
 20
10.0767964857
 30
0.0
 10
-13.5539534574
 20
10.0042368638
 30
0.0
 10
-13.519055629
 20
9.9290239526
 30
0.0
 10
-13.4943082314
 20
9.8539930414
 30
0.0
 10
-13.4847652217
 20
9.8036659646
 30
0.0
 10
-13.4821902498
 20
9.7792687587
 30
0.0
 11
-14.0986316501
 21
10.0874894588
 31
0.0
 11
-14.1000373194
 21
10.1539622253
 31
0.0
 11
-14.0895439559
 21
10.2119534887
 31
0.0
 11
-14.067555767
 21
10.2592427539
 31
0.0
 11
-14.0349165372
 21
10.2940082375
 31
0.0
 11
-13.9928811389
 21
10.3149149776
 31
0.0
 11
-13.9430652224
 21
10.3211600999
 31
0.0
 11
-13.887382694
 21
10.3125025414
 31
0.0
 11
-13.827973555
 21
10.2892752704
 31
0.0
 11
-13.7671209662
 21
10.2523716775
 31
0.0
 11
-13.7071633965
 21
10.203209187
 31
0.0
 11
-13.6504050932
 21
10.1436769547
 31
0.0
 11
-13.5990269377
 21
10.0760634378
 31
0.0
 11
-13.5550035204
 21
10.0029666306
 31
0.0
 11
-13.5200270294
 21
9.9271950255
 31
0.0
 11
-13.4954412466
 21
9.8516641889
 31
0.0
 11
-13.4821902498
 21
9.7792687587
 31
0.0
  0
SPLINE
  5
41C
100
AcDbEntity
  8
ASSI
100
AcDbSpline
 62
7
  6
CONTINUOUS
 70
0
 71
3
 72
23
 73
19
 74
17
 42
0.0000001
 43
0.0000001
 44
0.0000000001
 12
0.1133830496
 22
-1.0742756543
 32
0.0
 13
-0.1133830496
 23
1.0742756543
 33
0.0
 40
0.0
 40
0.0
 40
0.0
 40
0.0
 40
0.0615487969
 40
0.1161041297
 40
0.1643815026
 40
0.2085253284
 40
0.2519854641
 40
0.2984619232
 40
0.3506275712
 40
0.4096775861
 40
0.4755592739
 40
0.547335924
 40
0.6234792116
 40
0.7020906226
 40
0.7810821201
 40
0.8583376653
 40
0.9318688667
 40
1.0
 40
1.0
 40
1.0
 40
1.0
 10
-13.4821902498
 20
9.7792687587
 30
0.0
 10
-13.479864053
 20
9.757228634
 30
0.0
 10
-13.4785527686
 20
9.7151967646
 30
0.0
 10
-13.4883381185
 20
9.6563475275
 30
0.0
 10
-13.5101184478
 20
9.6073080894
 30
0.0
 10
-13.5439144342
 20
9.5705192878
 30
0.0
 10
-13.5882381783
 20
9.5487796793
 30
0.0
 10
-13.6399482079
 20
9.5431594105
 30
0.0
 10
-13.6964579687
 20
9.5528638574
 30
0.0
 10
-13.7559284636
 20
9.5769027018
 30
0.0
 10
-13.8164448965
 20
9.6142285533
 30
0.0
 10
-13.8759110656
 20
9.6634541134
 30
0.0
 10
-13.9321663164
 20
9.7227669718
 30
0.0
 10
-13.9831218844
 20
9.7899617317
 30
0.0
 10
-14.0268684425
 20
9.8625213537
 30
0.0
 10
-14.0617662709
 20
9.9377342648
 30
0.0
 10
-14.0865136684
 20
10.012765176
 30
0.0
 10
-14.0960566782
 20
10.0630922529
 30
0.0
 10
-14.0986316501
 20
10.0874894588
 30
0.0
 11
-13.4821902498
 21
9.7792687587
 31
0.0
 11
-13.4807845805
 21
9.7127959921
 31
0.0
 11
-13.491277944
 21
9.6548047288
 31
0.0
 11
-13.5132661329
 21
9.6075154635
 31
0.0
 11
-13.5459053627
 21
9.5727499799
 31
0.0
 11
-13.587940761
 21
9.5518432399
 31
0.0
 11
-13.6377566775
 21
9.5455981175
 31
0.0
 11
-13.6934392059
 21
9.554255676
 31
0.0
 11
-13.7528483449
 21
9.577482947
 31
0.0
 11
-13.8137009337
 21
9.6143865399
 31
0.0
 11
-13.8736585034
 21
9.6635490305
 31
0.0
 11
-13.9304168066
 21
9.7230812627
 31
0.0
 11
-13.9817949622
 21
9.7906947797
 31
0.0
 11
-14.0258183795
 21
9.8637915868
 31
0.0
 11
-14.0607948705
 21
9.939563192
 31
0.0
 11
-14.0853806532
 21
10.0150940285
 31
0.0
 11
-14.0986316501
 21
10.0874894588
 31
0.0
  0
SPLINE
  5
41D
100
AcDbEntity
  8
RACCORDO
100
AcDbSpline
 62
253
  6
CONTINUOUS
 70
0
 71
3
 72
14
 73
10
 74
8
 42
0.0000001
 43
0.0000001
 44
0.0000000001
 12
0.1715161805
 22
0.1114953184
 32
0.0
 13
0.1700346533
 23
-0.1137419135
 33
0.0
 40
0.0
 40
0.0
 40
0.0
 40
0.0
 40
0.0542373456
 40
0.1240949005
 40
0.2140181579
 40
0.3260730833
 40
0.461048826
 40
0.6189008186
 40
1.0
 40
1.0
 40
1.0
 40
1.0
 10
-17.5316445425
 20
2.4450870763
 30
0.0
 10
-17.5285436818
 20
2.447102813
 30
0.0
 10
-17.5202307611
 20
2.4497916089
 30
0.0
 10
-17.5055291164
 20
2.4497241574
 30
0.0
 10
-17.4872515188
 20
2.4462258038
 30
0.0
 10
-17.4653653727
 20
2.4391038483
 30
0.0
 10
-17.4399408468
 20
2.4282706232
 30
0.0
 10
-17.3989577815
 20
2.4074267637
 30
0.0
 10
-17.3676615763
 20
2.3880171302
 30
0.0
 10
-17.3460615539
 20
2.3735681469
 30
0.0
 11
-17.5316445425
 21
2.4450870763
 31
0.0
 11
-17.5212367161
 21
2.448932065
 31
0.0
 11
-17.5069519619
 21
2.449347047
 31
0.0
 11
-17.4888310691
 21
2.4461796582
 31
0.0
 11
-17.4669638427
 21
2.4393026422
 31
0.0
 11
-17.441500697
 21
2.4286231157
 31
0.0
 11
-17.4126608078
 21
2.4140964847
 31
0.0
 11
-17.3460615539
 21
2.3735681469
 31
0.0
  0
SPLINE
  5
41E
100
AcDbEntity
  8
ASSI
100
AcDbSpline
 62
7
  6
CONTINUOUS
 70
0
 71
3
 72
23
 73
19
 74
17
 42
0.0000001
 43
0.0000001
 44
0.0000000001
 12
-0.1133830496
 22
1.0742756543
 32
0.0
 13
0.1133830496
 23
-1.0742756543
 33
0.0
 40
0.0
 40
0.0
 40
0.0
 40
0.0
 40
0.0615487969
 40
0.1161041297
 40
0.1643815026
 40
0.2085253284
 40
0.2519854641
 40
0.2984619232
 40
0.3506275712
 40
0.4096775861
 40
0.4755592739
 40
0.547335924
 40
0.6234792116
 40
0.7020906226
 40
0.7810821201
 40
0.8583376653
 40
0.9318688667
 40
1.0
 40
1.0
 40
1.0
 40
1.0
 10
-15.6542665687
 20
10.8653069181
 30
0.0
 10
-15.6565927655
 20
10.8873470428
 30
0.0
 10
-15.6579040499
 20
10.9293789121
 30
0.0
 10
-15.6481187
 20
10.9882281492
 30
0.0
 10
-15.6263383707
 20
11.0372675874
 30
0.0
 10
-15.5925423843
 20
11.0740563889
 30
0.0
 10
-15.5482186401
 20
11.0957959975
 30
0.0
 10
-15.4965086106
 20
11.1014162663
 30
0.0
 10
-15.4399988498
 20
11.0917118194
 30
0.0
 10
-15.3805283549
 20
11.067672975
 30
0.0
 10
-15.320011922
 20
11.0303471235
 30
0.0
 10
-15.2605457529
 20
10.9811215633
 30
0.0
 10
-15.204290502
 20
10.921808705
 30
0.0
 10
-15.1533349341
 20
10.854613945
 30
0.0
 10
-15.109588376
 20
10.7820543231
 30
0.0
 10
-15.0746905476
 20
10.7068414119
 30
0.0
 10
-15.0499431501
 20
10.6318105007
 30
0.0
 10
-15.0404001403
 20
10.5814834239
 30
0.0
 10
-15.0378251684
 20
10.557086218
 30
0.0
 11
-15.6542665687
 21
10.8653069181
 31
0.0
 11
-15.655672238
 21
10.9317796846
 31
0.0
 11
-15.6451788745
 21
10.989770948
 31
0.0
 11
-15.6231906856
 21
11.0370602133
 31
0.0
 11
-15.5905514558
 21
11.0718256969
 31
0.0
 11
-15.5485160575
 21
11.0927324369
 31
0.0
 11
-15.498700141
 21
11.0989775592
 31
0.0
 11
-15.4430176126
 21
11.0903200007
 31
0.0
 11
-15.3836084736
 21
11.0670927297
 31
0.0
 11
-15.3227558848
 21
11.0301891368
 31
0.0
 11
-15.2627983151
 21
10.9810266463
 31
0.0
 11
-15.2060400118
 21
10.921494414
 31
0.0
 11
-15.1546618563
 21
10.8538808971
 31
0.0
 11
-15.110638439
 21
10.7807840899
 31
0.0
 11
-15.075661948
 21
10.7050124848
 31
0.0
 11
-15.0510761652
 21
10.6294816482
 31
0.0
 11
-15.0378251684
 21
10.557086218
 31
0.0
  0
SPLINE
  5
41F
100
AcDbEntity
  8
ASSI
100
AcDbSpline
 62
7
  6
CONTINUOUS
 70
0
 71
3
 72
23
 73
19
 74
17
 42
0.0000001
 43
0.0000001
 44
0.0000000001
 12
0.1133830496
 22
-1.0742756543
 32
0.0
 13
-0.1133830496
 23
1.0742756543
 33
0.0
 40
0.0
 40
0.0
 40
0.0
 40
0.0
 40
0.0615487969
 40
0.1161041297
 40
0.1643815026
 40
0.2085253284
 40
0.2519854641
 40
0.2984619232
 40
0.3506275712
 40
0.4096775861
 40
0.4755592739
 40
0.547335924
 40
0.6234792116
 40
0.7020906226
 40
0.7810821201
 40
0.8583376653
 40
0.9318688667
 40
1.0
 40
1.0
 40
1.0
 40
1.0
 10
-15.0378251684
 20
10.557086218
 30
0.0
 10
-15.0354989716
 20
10.5350460933
 30
0.0
 10
-15.0341876872
 20
10.493014224
 30
0.0
 10
-15.0439730371
 20
10.4341649868
 30
0.0
 10
-15.0657533664
 20
10.3851255487
 30
0.0
 10
-15.0995493528
 20
10.3483367471
 30
0.0
 10
-15.143873097
 20
10.3265971386
 30
0.0
 10
-15.1955831265
 20
10.3209768698
 30
0.0
 10
-15.2520928874
 20
10.3306813167
 30
0.0
 10
-15.3115633822
 20
10.3547201611
 30
0.0
 10
-15.3720798151
 20
10.3920460126
 30
0.0
 10
-15.4315459842
 20
10.4412715727
 30
0.0
 10
-15.4878012351
 20
10.5005844311
 30
0.0
 10
-15.538756803
 20
10.567779191
 30
0.0
 10
-15.5825033611
 20
10.640338813
 30
0.0
 10
-15.6174011895
 20
10.7155517241
 30
0.0
 10
-15.6421485871
 20
10.7905826353
 30
0.0
 10
-15.6516915968
 20
10.8409097122
 30
0.0
 10
-15.6542665687
 20
10.8653069181
 30
0.0
 11
-15.0378251684
 21
10.557086218
 31
0.0
 11
-15.0364194991
 21
10.4906134515
 31
0.0
 11
-15.0469128626
 21
10.4326221881
 31
0.0
 11
-15.0689010515
 21
10.3853329228
 31
0.0
 11
-15.1015402813
 21
10.3505674392
 31
0.0
 11
-15.1435756796
 21
10.3296606992
 31
0.0
 11
-15.1933915961
 21
10.3234155768
 31
0.0
 11
-15.2490741245
 21
10.3320731353
 31
0.0
 11
-15.3084832635
 21
10.3553004063
 31
0.0
 11
-15.3693358523
 21
10.3922039992
 31
0.0
 11
-15.429293422
 21
10.4413664898
 31
0.0
 11
-15.4860517253
 21
10.500898722
 31
0.0
 11
-15.5374298808
 21
10.568512239
 31
0.0
 11
-15.5814532981
 21
10.6416090461
 31
0.0
 11
-15.6164297891
 21
10.7173806513
 31
0.0
 11
-15.6410155719
 21
10.7929114878
 31
0.0
 11
-15.6542665687
 21
10.8653069181
 31
0.0
  0
SPLINE
  5
420
100
AcDbEntity
  8
ASSI
100
AcDbSpline
 62
7
  6
CONTINUOUS
 70
0
 71
3
 72
23
 73
19
 74
17
 42
0.0000001
 43
0.0000001
 44
0.0000000001
 12
-0.1133830496
 22
1.0742756543
 32
0.0
 13
0.1133830496
 23
-1.0742756543
 33
0.0
 40
0.0
 40
0.0
 40
0.0
 40
0.0
 40
0.0615487969
 40
0.1161041297
 40
0.1643815026
 40
0.2085253284
 40
0.2519854641
 40
0.2984619232
 40
0.3506275712
 40
0.4096775861
 40
0.4755592739
 40
0.547335924
 40
0.6234792116
 40
0.7020906226
 40
0.7810821201
 40
0.8583376653
 40
0.9318688667
 40
1.0
 40
1.0
 40
1.0
 40
1.0
 10
-17.2099014873
 20
11.6431243774
 30
0.0
 10
-17.2122276841
 20
11.6651645021
 30
0.0
 10
-17.2135389685
 20
11.7071963714
 30
0.0
 10
-17.2037536186
 20
11.7660456085
 30
0.0
 10
-17.1819732893
 20
11.8150850467
 30
0.0
 10
-17.1481773029
 20
11.8518738482
 30
0.0
 10
-17.1038535588
 20
11.8736134568
 30
0.0
 10
-17.0521435292
 20
11.8792337256
 30
0.0
 10
-16.9956337684
 20
11.8695292787
 30
0.0
 10
-16.9361632735
 20
11.8454904343
 30
0.0
 10
-16.8756468406
 20
11.8081645828
 30
0.0
 10
-16.8161806715
 20
11.7589390226
 30
0.0
 10
-16.7599254207
 20
11.6996261643
 30
0.0
 10
-16.7089698527
 20
11.6324314043
 30
0.0
 10
-16.6652232946
 20
11.5598717824
 30
0.0
 10
-16.6303254662
 20
11.4846588712
 30
0.0
 10
-16.6055780687
 20
11.40962796
 30
0.0
 10
-16.5960350589
 20
11.3593008832
 30
0.0
 10
-16.593460087
 20
11.3349036773
 30
0.0
 11
-17.2099014873
 21
11.6431243774
 31
0.0
 11
-17.2113071566
 21
11.7095971439
 31
0.0
 11
-17.2008137931
 21
11.7675884073
 31
0.0
 11
-17.1788256042
 21
11.8148776726
 31
0.0
 11
-17.1461863744
 21
11.8496431562
 31
0.0
 11
-17.1041509762
 21
11.8705498962
 31
0.0
 11
-17.0543350596
 21
11.8767950185
 31
0.0
 11
-16.9986525312
 21
11.86813746
 31
0.0
 11
-16.9392433922
 21
11.844910189
 31
0.0
 11
-16.8783908034
 21
11.8080065961
 31
0.0
 11
-16.8184332337
 21
11.7588441056
 31
0.0
 11
-16.7616749305
 21
11.6993118733
 31
0.0
 11
-16.7102967749
 21
11.6316983564
 31
0.0
 11
-16.6662733576
 21
11.5586015492
 31
0.0
 11
-16.6312968666
 21
11.4828299441
 31
0.0
 11
-16.6067110839
 21
11.4072991075
 31
0.0
 11
-16.593460087
 21
11.3349036773
 31
0.0
  0
SPLINE
  5
421
100
AcDbEntity
  8
ASSI
100
AcDbSpline
 62
7
  6
CONTINUOUS
 70
0
 71
3
 72
23
 73
19
 74
17
 42
0.0000001
 43
0.0000001
 44
0.0000000001
 12
0.1133830496
 22
-1.0742756543
 32
0.0
 13
-0.1133830496
 23
1.0742756543
 33
0.0
 40
0.0
 40
0.0
 40
0.0
 40
0.0
 40
0.0615487969
 40
0.1161041297
 40
0.1643815026
 40
0.2085253284
 40
0.2519854641
 40
0.2984619232
 40
0.3506275712
 40
0.4096775861
 40
0.4755592739
 40
0.547335924
 40
0.6234792116
 40
0.7020906226
 40
0.7810821201
 40
0.8583376653
 40
0.9318688667
 40
1.0
 40
1.0
 40
1.0
 40
1.0
 10
-16.593460087
 20
11.3349036773
 30
0.0
 10
-16.5911338903
 20
11.3128635526
 30
0.0
 10
-16.5898226058
 20
11.2708316833
 30
0.0
 10
-16.5996079557
 20
11.2119824461
 30
0.0
 10
-16.6213882851
 20
11.162943008
 30
0.0
 10
-16.6551842714
 20
11.1261542064
 30
0.0
 10
-16.6995080156
 20
11.1044145979
 30
0.0
 10
-16.7512180451
 20
11.0987943291
 30
0.0
 10
-16.807727806
 20
11.108498776
 30
0.0
 10
-16.8671983008
 20
11.1325376204
 30
0.0
 10
-16.9277147337
 20
11.1698634719
 30
0.0
 10
-16.9871809028
 20
11.219089032
 30
0.0
 10
-17.0434361537
 20
11.2784018904
 30
0.0
 10
-17.0943917216
 20
11.3455966503
 30
0.0
 10
-17.1381382797
 20
11.4181562723
 30
0.0
 10
-17.1730361081
 20
11.4933691834
 30
0.0
 10
-17.1977835057
 20
11.5684000946
 30
0.0
 10
-17.2073265154
 20
11.6187271715
 30
0.0
 10
-17.2099014873
 20
11.6431243774
 30
0.0
 11
-16.593460087
 21
11.3349036773
 31
0.0
 11
-16.5920544177
 21
11.2684309108
 31
0.0
 11
-16.6025477813
 21
11.2104396474
 31
0.0
 11
-16.6245359701
 21
11.1631503821
 31
0.0
 11
-16.6571751999
 21
11.1283848985
 31
0.0
 11
-16.6992105982
 21
11.1074781585
 31
0.0
 11
-16.7490265147
 21
11.1012330362
 31
0.0
 11
-16.8047090431
 21
11.1098905946
 31
0.0
 11
-16.8641181821
 21
11.1331178656
 31
0.0
 11
-16.9249707709
 21
11.1700214585
 31
0.0
 11
-16.9849283406
 21
11.2191839491
 31
0.0
 11
-17.0416866439
 21
11.2787161813
 31
0.0
 11
-17.0930647994
 21
11.3463296983
 31
0.0
 11
-17.1370882167
 21
11.4194265054
 31
0.0
 11
-17.1720647077
 21
11.4951981106
 31
0.0
 11
-17.1966504905
 21
11.5707289472
 31
0.0
 11
-17.2099014873
 21
11.6431243774
 31
0.0
  0
SPLINE
  5
422
100
AcDbEntity
  8
ASSI
100
AcDbSpline
 62
7
  6
CONTINUOUS
 70
0
 71
3
 72
23
 73
19
 74
17
 42
0.0000001
 43
0.0000001
 44
0.0000000001
 12
-0.1133830496
 22
1.0742756543
 32
0.0
 13
0.1133830496
 23
-1.0742756543
 33
0.0
 40
0.0
 40
0.0
 40
0.0
 40
0.0
 40
0.0615487969
 40
0.1161041297
 40
0.1643815026
 40
0.2085253284
 40
0.2519854641
 40
0.2984619232
 40
0.3506275712
 40
0.4096775861
 40
0.4755592739
 40
0.547335924
 40
0.6234792116
 40
0.7020906226
 40
0.7810821201
 40
0.8583376653
 40
0.9318688667
 40
1.0
 40
1.0
 40
1.0
 40
1.0
 10
-18.7655364059
 20
12.4209418367
 30
0.0
 10
-18.7678626027
 20
12.4429819614
 30
0.0
 10
-18.7691738872
 20
12.4850138307
 30
0.0
 10
-18.7593885373
 20
12.5438630678
 30
0.0
 10
-18.7376082079
 20
12.592902506
 30
0.0
 10
-18.7038122215
 20
12.6296913076
 30
0.0
 10
-18.6594884774
 20
12.6514309161
 30
0.0
 10
-18.6077784479
 20
12.6570511849
 30
0.0
 10
-18.551268687
 20
12.647346738
 30
0.0
 10
-18.4917981921
 20
12.6233078936
 30
0.0
 10
-18.4312817593
 20
12.5859820421
 30
0.0
 10
-18.3718155901
 20
12.536756482
 30
0.0
 10
-18.3155603393
 20
12.4774436236
 30
0.0
 10
-18.2646047713
 20
12.4102488636
 30
0.0
 10
-18.2208582133
 20
12.3376892417
 30
0.0
 10
-18.1859603848
 20
12.2624763305
 30
0.0
 10
-18.1612129873
 20
12.1874454193
 30
0.0
 10
-18.1516699775
 20
12.1371183425
 30
0.0
 10
-18.1490950056
 20
12.1127211366
 30
0.0
 11
-18.7655364059
 21
12.4209418367
 31
0.0
 11
-18.7669420753
 21
12.4874146032
 31
0.0
 11
-18.7564487117
 21
12.5454058666
 31
0.0
 11
-18.7344605228
 21
12.5926951319
 31
0.0
 11
-18.7018212931
 21
12.6274606155
 31
0.0
 11
-18.6597858948
 21
12.6483673555
 31
0.0
 11
-18.6099699782
 21
12.6546124778
 31
0.0
 11
-18.5542874498
 21
12.6459549193
 31
0.0
 11
-18.4948783109
 21
12.6227276483
 31
0.0
 11
-18.434025722
 21
12.5858240554
 31
0.0
 11
-18.3740681524
 21
12.5366615649
 31
0.0
 11
-18.3173098491
 21
12.4771293326
 31
0.0
 11
-18.2659316935
 21
12.4095158157
 31
0.0
 11
-18.2219082762
 21
12.3364190086
 31
0.0
 11
-18.1869317853
 21
12.2606474034
 31
0.0
 11
-18.1623460025
 21
12.1851165668
 31
0.0
 11
-18.1490950056
 21
12.1127211366
 31
0.0
  0
SPLINE
  5
423
100
AcDbEntity
  8
0
100
AcDbSpline
 62
7
  6
CONTINUOUS
 70
0
 71
3
 72
15
 73
11
 74
9
 42
0.0000001
 43
0.0000001
 44
0.0000000001
 12
-2.0143842522
 22
-1.3101392943
 32
0.0
 13
-2.1492712971
 23
1.0746356486
 33
0.0
 40
0.0
 40
0.0
 40
0.0
 40
0.0
 40
0.1069682475
 40
0.2160928395
 40
0.3293350935
 40
0.4483182393
 40
0.5742581706
 40
0.7079591427
 40
0.8498414442
 40
1.0
 40
1.0
 40
1.0
 40
1.0
 10
-8.0459708364
 20
-15.8755604741
 30
0.0
 10
-8.1177958875
 20
-15.9222749089
 30
0.0
 10
-8.2713824772
 20
-16.0042416761
 30
0.0
 10
-8.5228028939
 20
-16.0877649541
 30
0.0
 10
-8.793729159
 20
-16.1318831641
 30
0.0
 10
-9.0814830795
 20
-16.1364409426
 30
0.0
 10
-9.3835257445
 20
-16.1017019721
 30
0.0
 10
-9.6972769315
 20
-16.0281718546
 30
0.0
 10
-10.0200747681
 20
-15.9166376075
 30
0.0
 10
-10.2336025193
 20
-15.8202869275
 30
0.0
 10
-10.3411796773
 20
-15.7664983485
 30
0.0
 11
-8.0459708364
 21
-15.8755604741
 31
0.0
 11
-8.2726390166
 21
-15.9967678319
 31
0.0
 11
-8.521280537
 21
-16.0800606481
 31
0.0
 11
-8.7897094366
 21
-16.1247067292
 31
0.0
 11
-9.0755660011
 21
-16.1303135217
 31
0.0
 11
-9.3763365848
 21
-16.096832018
 31
0.0
 11
-9.6893790369
 21
-16.0245555202
 31
0.0
 11
-10.0119355574
 21
-15.9141222453
 31
0.0
 11
-10.3411796773
 21
-15.7664983485
 31
0.0
  0
SPLINE
  5
424
100
AcDbEntity
  8
RACCORDO
100
AcDbSpline
 62
7
  6
CONTINUOUS
 70
0
 71
3
 72
11
 73
7
 74
5
 42
0.0000001
 43
0.0000001
 44
0.0000000001
 12
0.0713031002
 22
-0.6752186517
 32
0.0
 13
0.3810233591
 23
-0.5619835936
 33
0.0
 40
0.0
 40
0.0
 40
0.0
 40
0.0
 40
0.2444225017
 40
0.4936495857
 40
0.7459673587
 40
1.0
 40
1.0
 40
1.0
 40
1.0
 10
-16.7142500916
 20
-3.4046668177
 30
0.0
 10
-16.7084407309
 20
-3.4596796951
 30
0.0
 10
-16.6873659061
 20
-3.5699093113
 30
0.0
 10
-16.6336944748
 20
-3.7303903582
 30
0.0
 10
-16.5609735435
 20
-3.8855378923
 30
0.0
 10
-16.5014914081
 20
-3.9837733185
 30
0.0
 10
-16.4692272847
 20
-4.0313607107
 30
0.0
 11
-16.7142500916
 21
-3.4046668177
 31
0.0
 11
-16.6840303008
 21
-3.5678484722
 31
0.0
 11
-16.6309078023
 21
-3.7285123736
 31
0.0
 11
-16.5584697145
 21
-3.883761284
 31
0.0
 11
-16.4692272847
 21
-4.0313607107
 31
0.0
  0
SPLINE
  5
425
100
AcDbEntity
  8
ASSI
100
AcDbSpline
 62
7
  6
CONTINUOUS
 70
0
 71
3
 72
23
 73
19
 74
17
 42
0.0000001
 43
0.0000001
 44
0.0000000001
 12
0.1133830496
 22
-1.0742756543
 32
0.0
 13
-0.1133830496
 23
1.0742756543
 33
0.0
 40
0.0
 40
0.0
 40
0.0
 40
0.0
 40
0.0615487969
 40
0.1161041297
 40
0.1643815026
 40
0.2085253284
 40
0.2519854641
 40
0.2984619232
 40
0.3506275712
 40
0.4096775861
 40
0.4755592739
 40
0.547335924
 40
0.6234792116
 40
0.7020906226
 40
0.7810821201
 40
0.8583376653
 40
0.9318688667
 40
1.0
 40
1.0
 40
1.0
 40
1.0
 10
-18.1490950056
 20
12.1127211366
 30
0.0
 10
-18.1467688089
 20
12.0906810119
 30
0.0
 10
-18.1454575244
 20
12.0486491426
 30
0.0
 10
-18.1552428743
 20
11.9897999054
 30
0.0
 10
-18.1770232037
 20
11.9407604673
 30
0.0
 10
-18.21081919
 20
11.9039716657
 30
0.0
 10
-18.2551429342
 20
11.8822320572
 30
0.0
 10
-18.3068529637
 20
11.8766117884
 30
0.0
 10
-18.3633627246
 20
11.8863162353
 30
0.0
 10
-18.4228332194
 20
11.9103550797
 30
0.0
 10
-18.4833496523
 20
11.9476809312
 30
0.0
 10
-18.5428158214
 20
11.9969064913
 30
0.0
 10
-18.5990710723
 20
12.0562193497
 30
0.0
 10
-18.6500266402
 20
12.1234141096
 30
0.0
 10
-18.6937731983
 20
12.1959737316
 30
0.0
 10
-18.7286710267
 20
12.2711866427
 30
0.0
 10
-18.7534184243
 20
12.346217554
 30
0.0
 10
-18.762961434
 20
12.3965446308
 30
0.0
 10
-18.7655364059
 20
12.4209418367
 30
0.0
 11
-18.1490950056
 21
12.1127211366
 31
0.0
 11
-18.1476893363
 21
12.0462483701
 31
0.0
 11
-18.1581826999
 21
11.9882571067
 31
0.0
 11
-18.1801708887
 21
11.9409678414
 31
0.0
 11
-18.2128101185
 21
11.9062023578
 31
0.0
 11
-18.2548455168
 21
11.8852956178
 31
0.0
 11
-18.3046614333
 21
11.8790504955
 31
0.0
 11
-18.3603439618
 21
11.8877080539
 31
0.0
 11
-18.4197531007
 21
11.9109353249
 31
0.0
 11
-18.4806056895
 21
11.9478389178
 31
0.0
 11
-18.5405632592
 21
11.9970014084
 31
0.0
 11
-18.5973215625
 21
12.0565336406
 31
0.0
 11
-18.648699718
 21
12.1241471576
 31
0.0
 11
-18.6927231353
 21
12.1972439647
 31
0.0
 11
-18.7276996263
 21
12.2730155699
 31
0.0
 11
-18.7522854091
 21
12.3485464065
 31
0.0
 11
-18.7655364059
 21
12.4209418367
 31
0.0
  0
SPLINE
  5
426
100
AcDbEntity
  8
ASSI
100
AcDbSpline
 62
7
  6
CONTINUOUS
 70
0
 71
3
 72
23
 73
19
 74
17
 42
0.0000001
 43
0.0000001
 44
0.0000000001
 12
-0.1133830496
 22
1.0742756543
 32
0.0
 13
0.1133830496
 23
-1.0742756543
 33
0.0
 40
0.0
 40
0.0
 40
0.0
 40
0.0
 40
0.0615487969
 40
0.1161041297
 40
0.1643815026
 40
0.2085253284
 40
0.2519854641
 40
0.2984619232
 40
0.3506275712
 40
0.4096775861
 40
0.4755592739
 40
0.547335924
 40
0.6234792116
 40
0.7020906226
 40
0.7810821201
 40
0.8583376653
 40
0.9318688667
 40
1.0
 40
1.0
 40
1.0
 40
1.0
 10
-16.0896311785
 20
1.0288471691
 30
0.0
 10
-16.0919573753
 20
1.0508872938
 30
0.0
 10
-16.0932686597
 20
1.0929191631
 30
0.0
 10
-16.0834833098
 20
1.1517684002
 30
0.0
 10
-16.0617029804
 20
1.2008078383
 30
0.0
 10
-16.0279069941
 20
1.2375966399
 30
0.0
 10
-15.9835832499
 20
1.2593362485
 30
0.0
 10
-15.9318732204
 20
1.2649565172
 30
0.0
 10
-15.8753634595
 20
1.2552520704
 30
0.0
 10
-15.8158929647
 20
1.2312132259
 30
0.0
 10
-15.7553765318
 20
1.1938873745
 30
0.0
 10
-15.6959103627
 20
1.1446618143
 30
0.0
 10
-15.6396551118
 20
1.085348956
 30
0.0
 10
-15.5886995439
 20
1.018154196
 30
0.0
 10
-15.5449529858
 20
0.9455945741
 30
0.0
 10
-15.5100551574
 20
0.8703816629
 30
0.0
 10
-15.4853077598
 20
0.7953507517
 30
0.0
 10
-15.4757647501
 20
0.7450236749
 30
0.0
 10
-15.4731897782
 20
0.7206264689
 30
0.0
 11
-16.0896311785
 21
1.0288471691
 31
0.0
 11
-16.0910368478
 21
1.0953199356
 31
0.0
 11
-16.0805434842
 21
1.153311199
 31
0.0
 11
-16.0585552954
 21
1.2006004642
 31
0.0
 11
-16.0259160656
 21
1.2353659478
 31
0.0
 11
-15.9838806673
 21
1.2562726878
 31
0.0
 11
-15.9340647508
 21
1.2625178102
 31
0.0
 11
-15.8783822224
 21
1.2538602517
 31
0.0
 11
-15.8189730834
 21
1.2306329807
 31
0.0
 11
-15.7581204946
 21
1.1937293878
 31
0.0
 11
-15.6981629249
 21
1.1445668973
 31
0.0
 11
-15.6414046216
 21
1.085034665
 31
0.0
 11
-15.5900264661
 21
1.017421148
 31
0.0
 11
-15.5460030488
 21
0.9443243409
 31
0.0
 11
-15.5110265578
 21
0.8685527358
 31
0.0
 11
-15.486440775
 21
0.7930218992
 31
0.0
 11
-15.4731897782
 21
0.7206264689
 31
0.0
  0
SPLINE
  5
427
100
AcDbEntity
  8
RACCORDO
100
AcDbSpline
 62
7
  6
CONTINUOUS
 70
0
 71
3
 72
12
 73
8
 74
6
 42
0.0000001
 43
0.0000001
 44
0.0000000001
 12
0.0557437859
 22
-0.5261974896
 32
0.0
 13
0.3449651527
 23
-0.4012358548
 33
0.0
 40
0.0
 40
0.0
 40
0.0
 40
0.0
 40
0.1108605015
 40
0.227909803
 40
0.4750103678
 40
0.7338579582
 40
1.0
 40
1.0
 40
1.0
 40
1.0
 10
-17.3084994513
 20
2.2256935019
 30
0.0
 10
-17.3064395233
 20
2.2062486627
 30
0.0
 10
-17.2997134561
 20
2.1665168549
 30
0.0
 10
-17.2776778014
 20
2.0855873404
 30
0.0
 10
-17.2354720078
 20
1.9836198482
 30
0.0
 10
-17.1668446372
 20
1.8656251108
 30
0.0
 10
-17.1106583196
 20
1.7916730239
 30
0.0
 10
-17.0800550762
 20
1.7560777807
 30
0.0
 11
-17.3084994513
 21
2.2256935019
 31
0.0
 11
-17.2989859596
 21
2.1678091418
 31
0.0
 11
-17.2829073557
 21
2.1079968654
 31
0.0
 11
-17.2337167544
 21
1.9868515873
 31
0.0
 11
-17.1651780705
 21
1.8682664363
 31
0.0
 11
-17.0800550762
 21
1.7560777807
 31
0.0
  0
SPLINE
  5
428
100
AcDbEntity
  8
RACCORDO
100
AcDbSpline
 62
7
  6
CONTINUOUS
 70
0
 71
3
 72
18
 73
14
 74
12
 42
0.0000001
 43
0.0000001
 44
0.0000000001
 12
-0.022055106
 22
0.2121926637
 32
0.0
 13
0.1710341106
 23
0.1275126944
 33
0.0
 40
0.0
 40
0.0
 40
0.0
 40
0.0
 40
0.0097023856
 40
0.0271093471
 40
0.0524729775
 40
0.0855984058
 40
0.1262179432
 40
0.1740561368
 40
0.2903454206
 40
0.4325688444
 40
0.5991127265
 40
0.7886286093
 40
1.0
 40
1.0
 40
1.0
 40
1.0
 10
-17.8038463061
 20
6.9189811214
 30
0.0
 10
-17.8039176351
 20
6.9196673798
 30
0.0
 10
-17.8029503649
 20
6.9215216117
 30
0.0
 10
-17.8007329785
 20
6.9244104367
 30
0.0
 10
-17.7970126822
 20
6.9283895213
 30
0.0
 10
-17.7919605862
 20
6.9332792608
 30
0.0
 10
-17.7855538792
 20
6.9390965494
 30
0.0
 10
-17.7745641547
 20
6.9486440155
 30
0.0
 10
-17.7577703015
 20
6.9625277027
 30
0.0
 10
-17.734130892
 20
6.981364426
 30
0.0
 10
-17.7061396389
 20
7.0030928719
 30
0.0
 10
-17.6740356681
 20
7.0275381617
 30
0.0
 10
-17.6512286569
 20
7.0446423764
 30
0.0
 10
-17.6391780843
 20
7.0536265549
 30
0.0
 11
-17.8038463061
 21
6.9189811214
 31
0.0
 11
-17.803202427
 21
6.9209482932
 31
0.0
 11
-17.801021314
 21
6.9239537939
 31
0.0
 11
-17.7973716275
 21
6.9279485884
 31
0.0
 11
-17.7923170279
 21
6.9328873368
 31
0.0
 11
-17.7859159685
 21
6.9387284902
 31
0.0
 11
-17.7782222868
 21
6.9454338238
 31
0.0
 11
-17.7591503598
 21
6.9612998709
 31
0.0
 11
-17.7354467389
 21
6.9802401866
 31
0.0
 11
-17.7073987575
 21
7.002050166
 31
0.0
 11
-17.6752441077
 21
7.0265594562
 31
0.0
 11
-17.6391780843
 21
7.0536265549
 31
0.0
  0
SPLINE
  5
429
100
AcDbEntity
  8
ASSI
100
AcDbSpline
 62
7
  6
CONTINUOUS
 70
0
 71
3
 72
23
 73
19
 74
17
 42
0.0000001
 43
0.0000001
 44
0.0000000001
 12
0.1133830496
 22
-1.0742756543
 32
0.0
 13
-0.1133830496
 23
1.0742756543
 33
0.0
 40
0.0
 40
0.0
 40
0.0
 40
0.0
 40
0.0615487969
 40
0.1161041297
 40
0.1643815026
 40
0.2085253284
 40
0.2519854641
 40
0.2984619232
 40
0.3506275712
 40
0.4096775861
 40
0.4755592739
 40
0.547335924
 40
0.6234792116
 40
0.7020906226
 40
0.7810821201
 40
0.8583376653
 40
0.9318688667
 40
1.0
 40
1.0
 40
1.0
 40
1.0
 10
-15.4731897782
 20
0.7206264689
 30
0.0
 10
-15.4708635814
 20
0.6985863442
 30
0.0
 10
-15.469552297
 20
0.6565544749
 30
0.0
 10
-15.4793376469
 20
0.5977052378
 30
0.0
 10
-15.5011179762
 20
0.5486657997
 30
0.0
 10
-15.5349139626
 20
0.5118769981
 30
0.0
 10
-15.5792377067
 20
0.4901373895
 30
0.0
 10
-15.6309477363
 20
0.4845171208
 30
0.0
 10
-15.6874574971
 20
0.4942215676
 30
0.0
 10
-15.746927992
 20
0.5182604121
 30
0.0
 10
-15.8074444249
 20
0.5555862635
 30
0.0
 10
-15.866910594
 20
0.6048118237
 30
0.0
 10
-15.9231658448
 20
0.664124682
 30
0.0
 10
-15.9741214128
 20
0.731319442
 30
0.0
 10
-16.0178679709
 20
0.8038790639
 30
0.0
 10
-16.0527657993
 20
0.8790919751
 30
0.0
 10
-16.0775131968
 20
0.9541228863
 30
0.0
 10
-16.0870562066
 20
1.0044499631
 30
0.0
 10
-16.0896311785
 20
1.0288471691
 30
0.0
 11
-15.4731897782
 21
0.7206264689
 31
0.0
 11
-15.4717841089
 21
0.6541537024
 31
0.0
 11
-15.4822774724
 21
0.596162439
 31
0.0
 11
-15.5042656613
 21
0.5488731738
 31
0.0
 11
-15.5369048911
 21
0.5141076902
 31
0.0
 11
-15.5789402893
 21
0.4932009502
 31
0.0
 11
-15.6287562059
 21
0.4869558278
 31
0.0
 11
-15.6844387343
 21
0.4956133863
 31
0.0
 11
-15.7438478733
 21
0.5188406573
 31
0.0
 11
-15.8047004621
 21
0.5557442502
 31
0.0
 11
-15.8646580318
 21
0.6049067407
 31
0.0
 11
-15.921416335
 21
0.664438973
 31
0.0
 11
-15.9727944906
 21
0.73205249
 31
0.0
 11
-16.0168179079
 21
0.8051492971
 31
0.0
 11
-16.0517943989
 21
0.8809209022
 31
0.0
 11
-16.0763801816
 21
0.9564517388
 31
0.0
 11
-16.0896311785
 21
1.0288471691
 31
0.0
  0
SPLINE
  5
42A
100
AcDbEntity
  8
ASSI
100
AcDbSpline
 62
7
  6
CONTINUOUS
 70
0
 71
3
 72
23
 73
19
 74
17
 42
0.0000001
 43
0.0000001
 44
0.0000000001
 12
-0.1133830496
 22
1.0742756543
 32
0.0
 13
0.1133830496
 23
-1.0742756543
 33
0.0
 40
0.0
 40
0.0
 40
0.0
 40
0.0
 40
0.0615487969
 40
0.1161041297
 40
0.1643815026
 40
0.2085253284
 40
0.2519854641
 40
0.2984619232
 40
0.3506275712
 40
0.4096775861
 40
0.4755592739
 40
0.547335924
 40
0.6234792116
 40
0.7020906226
 40
0.7810821201
 40
0.8583376653
 40
0.9318688667
 40
1.0
 40
1.0
 40
1.0
 40
1.0
 10
-16.5249957883
 20
-8.80761258
 30
0.0
 10
-16.527321985
 20
-8.7855724553
 30
0.0
 10
-16.5286332695
 20
-8.743540586
 30
0.0
 10
-16.5188479196
 20
-8.6846913488
 30
0.0
 10
-16.4970675902
 20
-8.6356519107
 30
0.0
 10
-16.4632716039
 20
-8.5988631091
 30
0.0
 10
-16.4189478597
 20
-8.5771235006
 30
0.0
 10
-16.3672378302
 20
-8.5715032318
 30
0.0
 10
-16.3107280693
 20
-8.5812076787
 30
0.0
 10
-16.2512575745
 20
-8.6052465231
 30
0.0
 10
-16.1907411416
 20
-8.6425723746
 30
0.0
 10
-16.1312749725
 20
-8.6917979347
 30
0.0
 10
-16.0750197216
 20
-8.7511107931
 30
0.0
 10
-16.0240641537
 20
-8.818305553
 30
0.0
 10
-15.9803175956
 20
-8.890865175
 30
0.0
 10
-15.9454197671
 20
-8.9660780861
 30
0.0
 10
-15.9206723696
 20
-9.0411089973
 30
0.0
 10
-15.9111293599
 20
-9.0914360742
 30
0.0
 10
-15.908554388
 20
-9.1158332801
 30
0.0
 11
-16.5249957883
 21
-8.80761258
 31
0.0
 11
-16.5264014576
 21
-8.7411398135
 31
0.0
 11
-16.515908094
 21
-8.6831485501
 31
0.0
 11
-16.4939199052
 21
-8.6358592848
 31
0.0
 11
-16.4612806754
 21
-8.6010938012
 31
0.0
 11
-16.4192452771
 21
-8.5801870612
 31
0.0
 11
-16.3694293606
 21
-8.5739419388
 31
0.0
 11
-16.3137468321
 21
-8.5825994973
 31
0.0
 11
-16.2543376932
 21
-8.6058267683
 31
0.0
 11
-16.1934851044
 21
-8.6427303612
 31
0.0
 11
-16.1335275347
 21
-8.6918928518
 31
0.0
 11
-16.0767692314
 21
-8.751425084
 31
0.0
 11
-16.0253910758
 21
-8.819038601
 31
0.0
 11
-15.9813676586
 21
-8.8921354081
 31
0.0
 11
-15.9463911676
 21
-8.9679070133
 31
0.0
 11
-15.9218053848
 21
-9.0434378498
 31
0.0
 11
-15.908554388
 21
-9.1158332801
 31
0.0
  0
SPLINE
  5
42B
100
AcDbEntity
  8
ASSI
100
AcDbSpline
 62
7
  6
CONTINUOUS
 70
0
 71
3
 72
23
 73
19
 74
17
 42
0.0000001
 43
0.0000001
 44
0.0000000001
 12
0.1133830496
 22
-1.0742756543
 32
0.0
 13
-0.1133830496
 23
1.0742756543
 33
0.0
 40
0.0
 40
0.0
 40
0.0
 40
0.0
 40
0.0615487969
 40
0.1161041297
 40
0.1643815026
 40
0.2085253284
 40
0.2519854641
 40
0.2984619232
 40
0.3506275712
 40
0.4096775861
 40
0.4755592739
 40
0.547335924
 40
0.6234792116
 40
0.7020906226
 40
0.7810821201
 40
0.8583376653
 40
0.9318688667
 40
1.0
 40
1.0
 40
1.0
 40
1.0
 10
-15.908554388
 20
-9.1158332801
 30
0.0
 10
-15.9062281912
 20
-9.1378734048
 30
0.0
 10
-15.9049169067
 20
-9.1799052741
 30
0.0
 10
-15.9147022566
 20
-9.2387545112
 30
0.0
 10
-15.936482586
 20
-9.2877939494
 30
0.0
 10
-15.9702785724
 20
-9.3245827509
 30
0.0
 10
-16.0146023165
 20
-9.3463223595
 30
0.0
 10
-16.066312346
 20
-9.3519426283
 30
0.0
 10
-16.1228221069
 20
-9.3422381814
 30
0.0
 10
-16.1822926018
 20
-9.318199337
 30
0.0
 10
-16.2428090346
 20
-9.2808734855
 30
0.0
 10
-16.3022752038
 20
-9.2316479253
 30
0.0
 10
-16.3585304546
 20
-9.172335067
 30
0.0
 10
-16.4094860226
 20
-9.105140307
 30
0.0
 10
-16.4532325806
 20
-9.0325806851
 30
0.0
 10
-16.4881304091
 20
-8.9573677739
 30
0.0
 10
-16.5128778066
 20
-8.8823368627
 30
0.0
 10
-16.5224208164
 20
-8.8320097859
 30
0.0
 10
-16.5249957883
 20
-8.80761258
 30
0.0
 11
-15.908554388
 21
-9.1158332801
 31
0.0
 11
-15.9071487186
 21
-9.1823060466
 31
0.0
 11
-15.9176420822
 21
-9.24029731
 31
0.0
 11
-15.9396302711
 21
-9.2875865752
 31
0.0
 11
-15.9722695008
 21
-9.3223520589
 31
0.0
 11
-16.0143048991
 21
-9.3432587989
 31
0.0
 11
-16.0641208157
 21
-9.3495039212
 31
0.0
 11
-16.1198033441
 21
-9.3408463627
 31
0.0
 11
-16.179212483
 21
-9.3176190917
 31
0.0
 11
-16.2400650719
 21
-9.2807154988
 31
0.0
 11
-16.3000226415
 21
-9.2315530083
 31
0.0
 11
-16.3567809448
 21
-9.172020776
 31
0.0
 11
-16.4081591004
 21
-9.1044072591
 31
0.0
 11
-16.4521825177
 21
-9.0313104519
 31
0.0
 11
-16.4871590086
 21
-8.9555388468
 31
0.0
 11
-16.5117447914
 21
-8.8800080102
 31
0.0
 11
-16.5249957883
 21
-8.80761258
 31
0.0
  0
SPLINE
  5
42C
100
AcDbEntity
  8
ASSI
100
AcDbSpline
 62
7
  6
CONTINUOUS
 70
0
 71
3
 72
23
 73
19
 74
17
 42
0.0000001
 43
0.0000001
 44
0.0000000001
 12
-0.1133830496
 22
1.0742756543
 32
0.0
 13
0.1133830496
 23
-1.0742756543
 33
0.0
 40
0.0
 40
0.0
 40
0.0
 40
0.0
 40
0.0615487969
 40
0.1161041297
 40
0.1643815026
 40
0.2085253284
 40
0.2519854641
 40
0.2984619232
 40
0.3506275712
 40
0.4096775861
 40
0.4755592739
 40
0.547335924
 40
0.6234792116
 40
0.7020906226
 40
0.7810821201
 40
0.8583376653
 40
0.9318688667
 40
1.0
 40
1.0
 40
1.0
 40
1.0
 10
-5.635551358
 20
-14.2523347951
 30
0.0
 10
-5.6378775548
 20
-14.2302946704
 30
0.0
 10
-5.6391888392
 20
-14.1882628011
 30
0.0
 10
-5.6294034893
 20
-14.129413564
 30
0.0
 10
-5.60762316
 20
-14.0803741258
 30
0.0
 10
-5.5738271736
 20
-14.0435853243
 30
0.0
 10
-5.5295034294
 20
-14.0218457157
 30
0.0
 10
-5.4777933999
 20
-14.0162254469
 30
0.0
 10
-5.421283639
 20
-14.0259298938
 30
0.0
 10
-5.3618131442
 20
-14.0499687382
 30
0.0
 10
-5.3012967113
 20
-14.0872945897
 30
0.0
 10
-5.2418305422
 20
-14.1365201499
 30
0.0
 10
-5.1855752913
 20
-14.1958330082
 30
0.0
 10
-5.1346197234
 20
-14.2630277682
 30
0.0
 10
-5.0908731653
 20
-14.3355873901
 30
0.0
 10
-5.0559753369
 20
-14.4108003013
 30
0.0
 10
-5.0312279394
 20
-14.4858312125
 30
0.0
 10
-5.0216849296
 20
-14.5361582893
 30
0.0
 10
-5.0191099577
 20
-14.5605554952
 30
0.0
 11
-5.635551358
 21
-14.2523347951
 31
0.0
 11
-5.6369570273
 21
-14.1858620286
 31
0.0
 11
-5.6264636638
 21
-14.1278707652
 31
0.0
 11
-5.6044754749
 21
-14.0805814999
 31
0.0
 11
-5.5718362451
 21
-14.0458160163
 31
0.0
 11
-5.5298008468
 21
-14.0249092763
 31
0.0
 11
-5.4799849303
 21
-14.018664154
 31
0.0
 11
-5.4243024019
 21
-14.0273217125
 31
0.0
 11
-5.3648932629
 21
-14.0505489835
 31
0.0
 11
-5.3040406741
 21
-14.0874525764
 31
0.0
 11
-5.2440831044
 21
-14.1366150669
 31
0.0
 11
-5.1873248011
 21
-14.1961472992
 31
0.0
 11
-5.1359466456
 21
-14.2637608161
 31
0.0
 11
-5.0919232283
 21
-14.3368576233
 31
0.0
 11
-5.0569467373
 21
-14.4126292284
 31
0.0
 11
-5.0323609545
 21
-14.488160065
 31
0.0
 11
-5.0191099577
 21
-14.5605554952
 31
0.0
  0
SPLINE
  5
42D
100
AcDbEntity
  8
ASSI
100
AcDbSpline
 62
7
  6
CONTINUOUS
 70
0
 71
3
 72
23
 73
19
 74
17
 42
0.0000001
 43
0.0000001
 44
0.0000000001
 12
0.1133830496
 22
-1.0742756543
 32
0.0
 13
-0.1133830496
 23
1.0742756543
 33
0.0
 40
0.0
 40
0.0
 40
0.0
 40
0.0
 40
0.0615487969
 40
0.1161041297
 40
0.1643815026
 40
0.2085253284
 40
0.2519854641
 40
0.2984619232
 40
0.3506275712
 40
0.4096775861
 40
0.4755592739
 40
0.547335924
 40
0.6234792116
 40
0.7020906226
 40
0.7810821201
 40
0.8583376653
 40
0.9318688667
 40
1.0
 40
1.0
 40
1.0
 40
1.0
 10
-5.0191099577
 20
-14.5605554952
 30
0.0
 10
-5.0167837609
 20
-14.5825956199
 30
0.0
 10
-5.0154724765
 20
-14.6246274892
 30
0.0
 10
-5.0252578264
 20
-14.6834767264
 30
0.0
 10
-5.0470381557
 20
-14.7325161645
 30
0.0
 10
-5.0808341421
 20
-14.7693049661
 30
0.0
 10
-5.1251578863
 20
-14.7910445746
 30
0.0
 10
-5.1768679158
 20
-14.7966648434
 30
0.0
 10
-5.2333776766
 20
-14.7869603965
 30
0.0
 10
-5.2928481715
 20
-14.7629215521
 30
0.0
 10
-5.3533646044
 20
-14.7255957006
 30
0.0
 10
-5.4128307735
 20
-14.6763701405
 30
0.0
 10
-5.4690860244
 20
-14.6170572821
 30
0.0
 10
-5.5200415923
 20
-14.5498625222
 30
0.0
 10
-5.5637881504
 20
-14.4773029002
 30
0.0
 10
-5.5986859788
 20
-14.4020899891
 30
0.0
 10
-5.6234333763
 20
-14.3270590779
 30
0.0
 10
-5.6329763861
 20
-14.276732001
 30
0.0
 10
-5.635551358
 20
-14.2523347951
 30
0.0
 11
-5.0191099577
 21
-14.5605554952
 31
0.0
 11
-5.0177042884
 21
-14.6270282617
 31
0.0
 11
-5.0281976519
 21
-14.6850195251
 31
0.0
 11
-5.0501858408
 21
-14.7323087904
 31
0.0
 11
-5.0828250706
 21
-14.767074274
 31
0.0
 11
-5.1248604689
 21
-14.787981014
 31
0.0
 11
-5.1746763854
 21
-14.7942261363
 31
0.0
 11
-5.2303589138
 21
-14.7855685779
 31
0.0
 11
-5.2897680528
 21
-14.7623413069
 31
0.0
 11
-5.3506206416
 21
-14.725437714
 31
0.0
 11
-5.4105782113
 21
-14.6762752234
 31
0.0
 11
-5.4673365146
 21
-14.6167429912
 31
0.0
 11
-5.5187146701
 21
-14.5491294742
 31
0.0
 11
-5.5627380874
 21
-14.4760326671
 31
0.0
 11
-5.5977145784
 21
-14.4002610619
 31
0.0
 11
-5.6223003612
 21
-14.3247302254
 31
0.0
 11
-5.635551358
 21
-14.2523347951
 31
0.0
  0
SPLINE
  5
42E
100
AcDbEntity
  8
RACCORDO
100
AcDbSpline
 62
253
  6
CONTINUOUS
 70
0
 71
3
 72
12
 73
8
 74
6
 42
0.0000001
 43
0.0000001
 44
0.0000000001
 12
0.2991803271
 22
0.2350553588
 32
0.0
 13
0.352457654
 23
-0.1432951218
 33
0.0
 40
0.0
 40
0.0
 40
0.0
 40
0.0
 40
0.108465425
 40
0.2189386994
 40
0.452267589
 40
0.7111839476
 40
1.0
 40
1.0
 40
1.0
 40
1.0
 10
-17.2647646929
 20
-2.5094355917
 30
0.0
 10
-17.2539477858
 20
-2.5009371319
 30
0.0
 10
-17.2305913551
 20
-2.485627049
 30
0.0
 10
-17.1778301825
 20
-2.4625491773
 30
0.0
 10
-17.1012545194
 20
-2.4495234722
 30
0.0
 10
-17.0018239067
 20
-2.4591594767
 30
0.0
 10
-16.9351142354
 20
-2.480192187
 30
0.0
 10
-16.901182426
 20
-2.4939874975
 30
0.0
 11
-17.2647646929
 21
-2.5094355917
 31
0.0
 11
-17.2302693297
 21
-2.4867831393
 31
0.0
 11
-17.1917935489
 21
-2.4698623285
 31
0.0
 11
-17.1044776057
 21
-2.4538311825
 31
0.0
 11
-17.0063045084
 21
-2.4619804307
 31
0.0
 11
-16.901182426
 21
-2.4939874975
 31
0.0
  0
SPLINE
  5
42F
100
AcDbEntity
  8
RACCORDO
100
AcDbSpline
 62
7
  6
CONTINUOUS
 70
0
 71
3
 72
11
 73
7
 74
5
 42
0.0000001
 43
0.0000001
 44
0.0000000001
 12
-0.6380166155
 22
0.319141191
 32
0.0
 13
-0.4003338068
 23
0.5904651933
 33
0.0
 40
0.0
 40
0.0
 40
0.0
 40
0.0
 40
0.2454145774
 40
0.4951325841
 40
0.7471701945
 40
1.0
 40
1.0
 40
1.0
 40
1.0
 10
-6.794933315
 20
1.4140449687
 30
0.0
 10
-6.8471261743
 20
1.4401522689
 30
0.0
 10
-6.9478738518
 20
1.5021987057
 30
0.0
 10
-7.0850810304
 20
1.6157662859
 30
0.0
 10
-7.2089093863
 20
1.7461556448
 30
0.0
 10
-7.2816803061
 20
1.8419846522
 30
0.0
 10
-7.315419079
 20
1.8917470522
 30
0.0
 11
-6.794933315
 21
1.4140449687
 31
0.0
 11
-6.9445848066
 21
1.5049053136
 31
0.0
 11
-7.0822272733
 21
1.6179986607
 31
0.0
 11
-7.2062676827
 21
1.7481595043
 31
0.0
 11
-7.315419079
 21
1.8917470522
 31
0.0
  0
SPLINE
  5
430
100
AcDbEntity
  8
RACCORDO
100
AcDbSpline
 62
253
  6
CONTINUOUS
 70
0
 71
3
 72
13
 73
9
 74
7
 42
0.0000001
 43
0.0000001
 44
0.0000000001
 12
-0.4721718999
 22
0.2360812096
 32
0.0
 13
-0.0554089942
 23
0.524986175
 33
0.0
 40
0.0
 40
0.0
 40
0.0
 40
0.0
 40
0.1109336857
 40
0.2235218935
 40
0.3392896752
 40
0.4595324356
 40
0.716715946
 40
1.0
 40
1.0
 40
1.0
 40
1.0
 10
-16.0041418748
 20
-13.9557255909
 30
0.0
 10
-16.0216017978
 20
-13.9469958047
 30
0.0
 10
-16.0554566512
 20
-13.9266052295
 30
0.0
 10
-16.1014151065
 20
-13.8881565903
 30
0.0
 10
-16.1423032006
 20
-13.8421412688
 30
0.0
 10
-16.1906138978
 20
-13.7697581486
 30
0.0
 10
-16.2357680277
 20
-13.6613888833
 30
0.0
 10
-16.2535269201
 20
-13.5673346993
 30
0.0
 10
-16.2587590816
 20
-13.5177612953
 30
0.0
 11
-16.0041418748
 21
-13.9557255909
 31
0.0
 11
-16.0543248194
 21
-13.9255395877
 31
0.0
 11
-16.0999762286
 21
-13.8874799796
 31
0.0
 11
-16.1406801852
 21
-13.8418936239
 31
0.0
 11
-16.1760654986
 21
-13.7891951051
 31
0.0
 11
-16.2296417486
 21
-13.6644455207
 31
0.0
 11
-16.2587590816
 21
-13.5177612953
 31
0.0
  0
SPLINE
  5
431
100
AcDbEntity
  8
RACCORDO
100
AcDbSpline
 62
253
  6
CONTINUOUS
 70
0
 71
3
 72
12
 73
8
 74
6
 42
0.0000001
 43
0.0000001
 44
0.0000000001
 12
0.0500015916
 22
-0.4736606539
 32
0.0
 13
0.4260089898
 23
-0.2130044949
 33
0.0
 40
0.0
 40
0.0
 40
0.0
 40
0.0
 40
0.1094156033
 40
0.2206737206
 40
0.4546731845
 40
0.7128069465
 40
1.0
 40
1.0
 40
1.0
 40
1.0
 10
-16.5513992507
 20
-13.1662620178
 30
0.0
 10
-16.5495755992
 20
-13.1835373065
 30
0.0
 10
-16.5430783876
 20
-13.2181463075
 30
0.0
 10
-16.5186990382
 20
-13.2863594715
 30
0.0
 10
-16.4659868142
 20
-13.3680184519
 30
0.0
 10
-16.3742071131
 20
-13.4524446159
 30
0.0
 10
-16.2995413558
 20
-13.4973701582
 30
0.0
 10
-16.2587590816
 20
-13.5177612953
 30
0.0
 11
-16.5513992507
 21
-13.1662620178
 31
0.0
 11
-16.5418210154
 21
-13.2174880772
 31
0.0
 11
-16.5240706873
 21
-13.2674181824
 31
0.0
 11
-16.4647119198
 21
-13.3617480762
 31
0.0
 11
-16.3752892887
 21
-13.4461258147
 31
0.0
 11
-16.2587590816
 21
-13.5177612953
 31
0.0
  0
SPLINE
  5
432
100
AcDbEntity
  8
RACCORDO
100
AcDbSpline
 62
253
  6
CONTINUOUS
 70
0
 71
3
 72
13
 73
9
 74
7
 42
0.0000001
 43
0.0000001
 44
0.0000000001
 12
-0.4721810804
 22
0.2360762928
 32
0.0
 13
-0.0554096253
 23
0.5249921544
 33
0.0
 40
0.0
 40
0.0
 40
0.0
 40
0.0
 40
0.1109337588
 40
0.2235219181
 40
0.339289584
 40
0.4595322168
 40
0.7167155792
 40
1.0
 40
1.0
 40
1.0
 40
1.0
 10
-4.0107441888
 20
-19.9524244345
 30
0.0
 10
-4.0282044629
 20
-19.9436948243
 30
0.0
 10
-4.0620600196
 20
-19.9233045257
 30
0.0
 10
-4.1080194801
 20
-19.8848560378
 30
0.0
 10
-4.1489084782
 20
-19.8388406408
 30
0.0
 10
-4.1972202499
 20
-19.7664571186
 30
0.0
 10
-4.2423753781
 20
-19.6580867616
 30
0.0
 10
-4.2601345736
 20
-19.5640314681
 30
0.0
 10
-4.2653668014
 20
-19.5144574353
 30
0.0
 11
-4.0107441888
 21
-19.9524244345
 31
0.0
 11
-4.0609281928
 21
-19.9222388234
 31
0.0
 11
-4.1065805849
 21
-19.8841793771
 31
0.0
 11
-4.1472854285
 21
-19.8385929623
 31
0.0
 11
-4.1826715164
 21
-19.7858941739
 31
0.0
 11
-4.2362489146
 21
-19.6611434848
 31
0.0
 11
-4.2653668014
 21
-19.5144574353
 31
0.0
  0
SPLINE
  5
433
100
AcDbEntity
  8
RACCORDO
100
AcDbSpline
 62
253
  6
CONTINUOUS
 70
0
 71
3
 72
12
 73
8
 74
6
 42
0.0000001
 43
0.0000001
 44
0.0000000001
 12
0.0558190551
 22
-0.4676239928
 32
0.0
 13
0.4212229498
 23
-0.21061622
 33
0.0
 40
0.0
 40
0.0
 40
0.0
 40
0.0
 40
0.1090479248
 40
0.2201232451
 40
0.4541606551
 40
0.7125624495
 40
1.0
 40
1.0
 40
1.0
 40
1.0
 10
-18.7660270316
 20
7.8170644808
 30
0.0
 10
-18.7639980475
 20
7.8000666721
 30
0.0
 10
-18.7571372193
 20
7.7660225278
 30
0.0
 10
-18.7322728929
 20
7.6989435054
 30
0.0
 10
-18.6794536852
 20
7.6186810723
 30
0.0
 10
-18.5882883413
 20
7.5355797616
 30
0.0
 10
-18.5143531527
 20
7.4912145437
 30
0.0
 10
-18.4739947217
 20
7.4710348736
 30
0.0
 11
-18.7660270316
 21
7.8170644808
 31
0.0
 11
-18.7559265897
 21
7.7667121069
 31
0.0
 11
-18.7378332288
 21
7.7176306479
 31
0.0
 11
-18.6783183833
 21
7.6248616426
 31
0.0
 11
-18.5894127185
 21
7.5417659441
 31
0.0
 11
-18.4739947217
 21
7.4710348736
 31
0.0
  0
SPLINE
  5
434
100
AcDbEntity
  8
RACCORDO
100
AcDbSpline
 62
7
  6
CONTINUOUS
 70
0
 71
3
 72
12
 73
8
 74
6
 42
0.0000001
 43
0.0000001
 44
0.0000000001
 12
0.0499973204
 22
-0.4736519238
 32
0.0
 13
0.4260008235
 23
-0.2130004117
 33
0.0
 40
0.0
 40
0.0
 40
0.0
 40
0.0
 40
0.1094153708
 40
0.2206732806
 40
0.4546732599
 40
0.71280904
 40
1.0
 40
1.0
 40
1.0
 40
1.0
 10
-19.7328017099
 20
16.9767229215
 30
0.0
 10
-19.7309782182
 20
16.9594479879
 30
0.0
 10
-19.7244792311
 20
16.9248400527
 30
0.0
 10
-19.7001005606
 20
16.8566282145
 30
0.0
 10
-19.6473865762
 20
16.7749719343
 30
0.0
 10
-19.5556085245
 20
16.6905478156
 30
0.0
 10
-19.4809440216
 20
16.6456233576
 30
0.0
 10
-19.4401628264
 20
16.62523276
 30
0.0
 11
-19.7328017099
 21
16.9767229215
 31
0.0
 11
-19.7232223986
 21
16.9254981923
 31
0.0
 11
-19.7054719233
 21
16.8755693224
 31
0.0
 11
-19.646112408
 21
16.7812421334
 31
0.0
 11
-19.5566901276
 21
16.6968660568
 31
0.0
 11
-19.4401628264
 21
16.62523276
 31
0.0
  0
SPLINE
  5
435
100
AcDbEntity
  8
ASSI
100
AcDbSpline
 62
7
  6
CONTINUOUS
 70
0
 71
3
 72
23
 73
19
 74
17
 42
0.0000001
 43
0.0000001
 44
0.0000000001
 12
-0.1133830496
 22
1.0742756543
 32
0.0
 13
0.1133830496
 23
-1.0742756543
 33
0.0
 40
0.0
 40
0.0
 40
0.0
 40
0.0
 40
0.0615487969
 40
0.1161041297
 40
0.1643815026
 40
0.2085253284
 40
0.2519854641
 40
0.2984619232
 40
0.3506275712
 40
0.4096775861
 40
0.4755592739
 40
0.547335924
 40
0.6234792116
 40
0.7020906226
 40
0.7810821201
 40
0.8583376653
 40
0.9318688667
 40
1.0
 40
1.0
 40
1.0
 40
1.0
 10
-7.1911862766
 20
-13.4745173358
 30
0.0
 10
-7.1935124734
 20
-13.4524772111
 30
0.0
 10
-7.1948237578
 20
-13.4104453418
 30
0.0
 10
-7.1850384079
 20
-13.3515961047
 30
0.0
 10
-7.1632580786
 20
-13.3025566665
 30
0.0
 10
-7.1294620922
 20
-13.2657678649
 30
0.0
 10
-7.0851383481
 20
-13.2440282564
 30
0.0
 10
-7.0334283185
 20
-13.2384079876
 30
0.0
 10
-6.9769185577
 20
-13.2481124345
 30
0.0
 10
-6.9174480628
 20
-13.2721512789
 30
0.0
 10
-6.8569316299
 20
-13.3094771304
 30
0.0
 10
-6.7974654608
 20
-13.3587026906
 30
0.0
 10
-6.74121021
 20
-13.4180155489
 30
0.0
 10
-6.690254642
 20
-13.4852103089
 30
0.0
 10
-6.6465080839
 20
-13.5577699308
 30
0.0
 10
-6.6116102555
 20
-13.632982842
 30
0.0
 10
-6.586862858
 20
-13.7080137532
 30
0.0
 10
-6.5773198482
 20
-13.75834083
 30
0.0
 10
-6.5747448763
 20
-13.7827380359
 30
0.0
 11
-7.1911862766
 21
-13.4745173358
 31
0.0
 11
-7.1925919459
 21
-13.4080445693
 31
0.0
 11
-7.1820985824
 21
-13.3500533059
 31
0.0
 11
-7.1601103935
 21
-13.3027640406
 31
0.0
 11
-7.1274711637
 21
-13.267998557
 31
0.0
 11
-7.0854357654
 21
-13.247091817
 31
0.0
 11
-7.0356198489
 21
-13.2408466947
 31
0.0
 11
-6.9799373205
 21
-13.2495042532
 31
0.0
 11
-6.9205281815
 21
-13.2727315242
 31
0.0
 11
-6.8596755927
 21
-13.3096351171
 31
0.0
 11
-6.799718023
 21
-13.3587976076
 31
0.0
 11
-6.7429597198
 21
-13.4183298399
 31
0.0
 11
-6.6915815642
 21
-13.4859433568
 31
0.0
 11
-6.6475581469
 21
-13.5590401639
 31
0.0
 11
-6.6125816559
 21
-13.6348117691
 31
0.0
 11
-6.5879958732
 21
-13.7103426057
 31
0.0
 11
-6.5747448763
 21
-13.7827380359
 31
0.0
  0
SPLINE
  5
436
100
AcDbEntity
  8
ASSI
100
AcDbSpline
 62
7
  6
CONTINUOUS
 70
0
 71
3
 72
16
 73
12
 74
10
 42
0.0000001
 43
0.0000001
 44
0.0000000001
 12
0.5687524995
 22
0.3702277735
 32
0.0
 13
-0.4036215383
 23
0.5455617873
 33
0.0
 40
0.0
 40
0.0
 40
0.0
 40
0.0
 40
0.0427070813
 40
0.0864825003
 40
0.1805786412
 40
0.2877492581
 40
0.4096042607
 40
0.5450991015
 40
0.6914040182
 40
0.844560279
 40
1.0
 40
1.0
 40
1.0
 40
1.0
 10
-1.6305438721
 20
-9.8380735245
 30
0.0
 10
-1.6224472857
 20
-9.8328030752
 30
0.0
 10
-1.6070494383
 20
-9.8205049638
 30
0.0
 10
-1.5803520509
 20
-9.7893119626
 30
0.0
 10
-1.5563917892
 20
-9.7381810383
 30
0.0
 10
-1.544461654
 20
-9.6654204274
 30
0.0
 10
-1.5480918266
 20
-9.5825776486
 30
0.0
 10
-1.5669762368
 20
-9.492902252
 30
0.0
 10
-1.600248599
 20
-9.4000193265
 30
0.0
 10
-1.6465021503
 20
-9.3078469227
 30
0.0
 10
-1.6848176249
 20
-9.2492782849
 30
0.0
 10
-1.7057305647
 20
-9.2210109609
 30
0.0
 11
-1.6305438721
 21
-9.8380735245
 31
0.0
 11
-1.6078766098
 21
-9.820012895
 31
0.0
 11
-1.58848748
 21
-9.7975050307
 31
0.0
 11
-1.5603474949
 21
-9.7401825057
 31
0.0
 11
-1.5473548485
 21
-9.6686225011
 31
0.0
 11
-1.5500807184
 21
-9.5859721412
 31
0.0
 11
-1.5684062203
 21
-9.4958649346
 31
0.0
 11
-1.6015245056
 21
-9.4022632862
 31
0.0
 11
-1.6479788879
 21
-9.30928484
 31
0.0
 11
-1.7057305647
 21
-9.2210109609
 31
0.0
  0
SPLINE
  5
437
100
AcDbEntity
  8
ASSI
100
AcDbSpline
 62
7
  6
CONTINUOUS
 70
0
 71
3
 72
23
 73
19
 74
17
 42
0.0000001
 43
0.0000001
 44
0.0000000001
 12
0.1133830496
 22
-1.0742756543
 32
0.0
 13
-0.1133830496
 23
1.0742756543
 33
0.0
 40
0.0
 40
0.0
 40
0.0
 40
0.0
 40
0.0615487969
 40
0.1161041297
 40
0.1643815026
 40
0.2085253284
 40
0.2519854641
 40
0.2984619232
 40
0.3506275712
 40
0.4096775861
 40
0.4755592739
 40
0.547335924
 40
0.6234792116
 40
0.7020906226
 40
0.7810821201
 40
0.8583376653
 40
0.9318688667
 40
1.0
 40
1.0
 40
1.0
 40
1.0
 10
-6.5747448763
 20
-13.7827380359
 30
0.0
 10
-6.5724186795
 20
-13.8047781606
 30
0.0
 10
-6.5711073951
 20
-13.8468100299
 30
0.0
 10
-6.580892745
 20
-13.9056592671
 30
0.0
 10
-6.6026730743
 20
-13.9546987052
 30
0.0
 10
-6.6364690607
 20
-13.9914875068
 30
0.0
 10
-6.6807928049
 20
-14.0132271153
 30
0.0
 10
-6.7325028344
 20
-14.0188473841
 30
0.0
 10
-6.7890125953
 20
-14.0091429372
 30
0.0
 10
-6.8484830901
 20
-13.9851040928
 30
0.0
 10
-6.908999523
 20
-13.9477782413
 30
0.0
 10
-6.9684656921
 20
-13.8985526812
 30
0.0
 10
-7.024720943
 20
-13.8392398228
 30
0.0
 10
-7.0756765109
 20
-13.7720450629
 30
0.0
 10
-7.119423069
 20
-13.6994854409
 30
0.0
 10
-7.1543208974
 20
-13.6242725298
 30
0.0
 10
-7.179068295
 20
-13.5492416185
 30
0.0
 10
-7.1886113047
 20
-13.4989145417
 30
0.0
 10
-7.1911862766
 20
-13.4745173358
 30
0.0
 11
-6.5747448763
 21
-13.7827380359
 31
0.0
 11
-6.573339207
 21
-13.8492108024
 31
0.0
 11
-6.5838325706
 21
-13.9072020658
 31
0.0
 11
-6.6058207594
 21
-13.9544913311
 31
0.0
 11
-6.6384599892
 21
-13.9892568147
 31
0.0
 11
-6.6804953875
 21
-14.0101635547
 31
0.0
 11
-6.730311304
 21
-14.016408677
 31
0.0
 11
-6.7859938324
 21
-14.0077511186
 31
0.0
 11
-6.8454029714
 21
-13.9845238476
 31
0.0
 11
-6.9062555602
 21
-13.9476202547
 31
0.0
 11
-6.9662131299
 21
-13.8984577641
 31
0.0
 11
-7.0229714332
 21
-13.8389255319
 31
0.0
 11
-7.0743495887
 21
-13.7713120149
 31
0.0
 11
-7.118373006
 21
-13.6982152078
 31
0.0
 11
-7.153349497
 21
-13.6224436026
 31
0.0
 11
-7.1779352798
 21
-13.546912766
 31
0.0
 11
-7.1911862766
 21
-13.4745173358
 31
0.0
  0
SPLINE
  5
438
100
AcDbEntity
  8
ASSI
100
AcDbSpline
 62
7
  6
CONTINUOUS
 70
0
 71
3
 72
16
 73
12
 74
10
 42
0.0000001
 43
0.0000001
 44
0.0000000001
 12
0.5687524995
 22
0.3702277735
 32
0.0
 13
-0.4036215383
 23
0.5455617873
 33
0.0
 40
0.0
 40
0.0
 40
0.0
 40
0.0
 40
0.0427070813
 40
0.0864825003
 40
0.1805786412
 40
0.2877492581
 40
0.4096042607
 40
0.5450991015
 40
0.6914040182
 40
0.844560279
 40
1.0
 40
1.0
 40
1.0
 40
1.0
 10
-3.0524254179
 20
3.6338937015
 30
0.0
 10
-3.0443288315
 20
3.6391641507
 30
0.0
 10
-3.0289309841
 20
3.6514622622
 30
0.0
 10
-3.0022335967
 20
3.6826552634
 30
0.0
 10
-2.978273335
 20
3.7337861877
 30
0.0
 10
-2.9663431998
 20
3.8065467985
 30
0.0
 10
-2.9699733724
 20
3.8893895773
 30
0.0
 10
-2.9888577826
 20
3.9790649739
 30
0.0
 10
-3.0221301449
 20
4.0719478994
 30
0.0
 10
-3.0683836961
 20
4.1641203033
 30
0.0
 10
-3.1066991707
 20
4.222688941
 30
0.0
 10
-3.1276121105
 20
4.2509562651
 30
0.0
 11
-3.0524254179
 21
3.6338937015
 31
0.0
 11
-3.0297581556
 21
3.6519543309
 31
0.0
 11
-3.0103690259
 21
3.6744621952
 31
0.0
 11
-2.9822290407
 21
3.7317847203
 31
0.0
 11
-2.9692363944
 21
3.8033447249
 31
0.0
 11
-2.9719622642
 21
3.8859950848
 31
0.0
 11
-2.9902877661
 21
3.9761022914
 31
0.0
 11
-3.0234060515
 21
4.0697039398
 31
0.0
 11
-3.0698604337
 21
4.1626823859
 31
0.0
 11
-3.1276121105
 21
4.2509562651
 31
0.0
  0
SPLINE
  5
439
100
AcDbEntity
  8
0
100
AcDbSpline
 62
7
  6
CONTINUOUS
 70
0
 71
3
 72
33
 73
29
 74
27
 42
0.0000001
 43
0.0000001
 44
0.0000000001
 12
-9.9417214975
 22
4.9708607487
 32
0.0
 13
11.0931468052
 23
-0.6995547688
 33
0.0
 40
0.0
 40
0.0
 40
0.0
 40
0.0
 40
0.0316005888
 40
0.0646259855
 40
0.098973265
 40
0.1345129494
 40
0.2085228062
 40
0.2852877601
 40
0.3632398584
 40
0.4407418133
 40
0.5161823832
 40
0.5880735189
 40
0.6222987692
 40
0.6551911063
 40
0.6866501393
 40
0.7166073634
 40
0.7450322148
 40
0.7719389219
 40
0.7973939144
 40
0.8215230379
 40
0.8445169734
 40
0.8666322211
 40
0.8881843787
 40
0.9095313739
 40
0.9310475277
 40
0.9530936063
 40
0.9759902036
 40
1.0
 40
1.0
 40
1.0
 40
1.0
 10
-10.3411796773
 20
-15.7664983485
 30
0.0
 10
-10.4459010949
 20
-15.7141376397
 30
0.0
 10
-10.6559758245
 20
-15.5987179426
 30
0.0
 10
-10.9646355449
 20
-15.4002721687
 30
0.0
 10
-11.2718441208
 20
-15.17399851
 30
0.0
 10
-11.6819105846
 20
-14.8328816314
 30
0.0
 10
-12.1747825886
 20
-14.3475385361
 30
0.0
 10
-12.7170019623
 20
-13.6945954789
 30
0.0
 10
-13.202027497
 20
-12.9823957652
 30
0.0
 10
-13.615513245
 20
-12.2319831459
 30
0.0
 10
-13.94525394
 20
-11.465544105
 30
0.0
 10
-14.1455004044
 20
-10.8217309262
 30
0.0
 10
-14.2536684857
 20
-10.3178853201
 30
0.0
 10
-14.3073771467
 20
-9.9563439672
 30
0.0
 10
-14.3346014478
 20
-9.6076795996
 30
0.0
 10
-14.3351137274
 20
-9.2744557895
 30
0.0
 10
-14.3088727622
 20
-8.9591276016
 30
0.0
 10
-14.2560088428
 20
-8.6640120288
 30
0.0
 10
-14.1768152283
 20
-8.3912893616
 30
0.0
 10
-14.0717430982
 20
-8.1430113189
 30
0.0
 10
-13.9414143914
 20
-7.9211204775
 30
0.0
 10
-13.7866645452
 20
-7.7274631532
 30
0.0
 10
-13.6086115641
 20
-7.5637633807
 30
0.0
 10
-13.4087070593
 20
-7.4315327333
 30
0.0
 10
-13.188715994
 20
-7.3319442759
 30
0.0
 10
-12.9505854818
 20
-7.265754324
 30
0.0
 10
-12.696389276
 20
-7.2333178653
 30
0.0
 10
-12.522068527
 20
-7.2342057018
 30
0.0
 10
-12.4332871283
 20
-7.2398044244
 30
0.0
 11
-10.3411796773
 21
-15.7664983485
 31
0.0
 11
-10.6493045599
 21
-15.5978773859
 31
0.0
 11
-10.9583523971
 21
-15.3997875252
 31
0.0
 11
-11.2659986113
 21
-15.1737190931
 31
0.0
 11
-11.5699250708
 21
-14.9213751399
 31
0.0
 11
-12.157511931
 21
-14.3456435639
 31
0.0
 11
-12.7034491384
 21
-13.6899003391
 31
0.0
 11
-13.1913247816
 21
-12.9738583832
 31
0.0
 11
-13.6064723732
 21
-12.2190433185
 31
0.0
 11
-13.9364117727
 21
-11.4481463592
 31
0.0
 11
-14.171224365
 21
-10.6843421691
 31
0.0
 11
-14.2506340675
 21
-10.3123026512
 31
0.0
 11
-14.3038512315
 21
-9.9505921863
 31
0.0
 11
-14.3304751502
 21
-9.6019343308
 31
0.0
 11
-14.330305355
 21
-9.2689543593
 31
0.0
 11
-14.3033431246
 21
-8.9541594973
 31
0.0
 11
-14.2497914757
 21
-8.6599200428
 31
0.0
 11
-14.170053634
 21
-8.3884515184
 31
0.0
 11
-14.0647299982
 21
-8.1417979895
 31
0.0
 11
-13.9346136194
 21
-7.9218166732
 31
0.0
 11
-13.7806842293
 21
-7.7301639541
 31
0.0
 11
-13.6041008638
 21
-7.5682829118
 31
0.0
 11
-13.4061931343
 21
-7.4373924564
 31
0.0
 11
-13.1884512214
 21
-7.3384781474
 31
0.0
 11
-12.9525146357
 21
-7.2722847823
 31
0.0
 11
-12.7001599414
 21
-7.2393107541
 31
0.0
 11
-12.4332871283
 21
-7.2398044244
 31
0.0
  0
SPLINE
  5
43A
100
AcDbEntity
  8
ASSI
100
AcDbSpline
 62
7
  6
CONTINUOUS
 70
0
 71
3
 72
23
 73
19
 74
17
 42
0.0000001
 43
0.0000001
 44
0.0000000001
 12
-0.1133830496
 22
1.0742756543
 32
0.0
 13
0.1133830496
 23
-1.0742756543
 33
0.0
 40
0.0
 40
0.0
 40
0.0
 40
0.0
 40
0.0615487969
 40
0.1161041297
 40
0.1643815026
 40
0.2085253284
 40
0.2519854641
 40
0.2984619232
 40
0.3506275712
 40
0.4096775861
 40
0.4755592739
 40
0.547335924
 40
0.6234792116
 40
0.7020906226
 40
0.7810821201
 40
0.8583376653
 40
0.9318688667
 40
1.0
 40
1.0
 40
1.0
 40
1.0
 10
-14.9693608697
 20
-9.5854300393
 30
0.0
 10
-14.9716870664
 20
-9.5633899146
 30
0.0
 10
-14.9729983509
 20
-9.5213580453
 30
0.0
 10
-14.963213001
 20
-9.4625088081
 30
0.0
 10
-14.9414326716
 20
-9.41346937
 30
0.0
 10
-14.9076366852
 20
-9.3766805684
 30
0.0
 10
-14.8633129411
 20
-9.3549409599
 30
0.0
 10
-14.8116029116
 20
-9.3493206911
 30
0.0
 10
-14.7550931507
 20
-9.359025138
 30
0.0
 10
-14.6956226559
 20
-9.3830639824
 30
0.0
 10
-14.635106223
 20
-9.4203898339
 30
0.0
 10
-14.5756400539
 20
-9.469615394
 30
0.0
 10
-14.519384803
 20
-9.5289282524
 30
0.0
 10
-14.4684292351
 20
-9.5961230123
 30
0.0
 10
-14.424682677
 20
-9.6686826343
 30
0.0
 10
-14.3897848485
 20
-9.7438955454
 30
0.0
 10
-14.365037451
 20
-9.8189264566
 30
0.0
 10
-14.3554944413
 20
-9.8692535335
 30
0.0
 10
-14.3529194694
 20
-9.8936507394
 30
0.0
 11
-14.9693608697
 21
-9.5854300393
 31
0.0
 11
-14.970766539
 21
-9.5189572728
 31
0.0
 11
-14.9602731754
 21
-9.4609660094
 31
0.0
 11
-14.9382849866
 21
-9.4136767441
 31
0.0
 11
-14.9056457568
 21
-9.3789112605
 31
0.0
 11
-14.8636103585
 21
-9.3580045205
 31
0.0
 11
-14.8137944419
 21
-9.3517593982
 31
0.0
 11
-14.7581119135
 21
-9.3604169566
 31
0.0
 11
-14.6987027746
 21
-9.3836442276
 31
0.0
 11
-14.6378501858
 21
-9.4205478205
 31
0.0
 11
-14.5778926161
 21
-9.4697103111
 31
0.0
 11
-14.5211343128
 21
-9.5292425433
 31
0.0
 11
-14.4697561572
 21
-9.5968560603
 31
0.0
 11
-14.42573274
 21
-9.6699528674
 31
0.0
 11
-14.390756249
 21
-9.7457244726
 31
0.0
 11
-14.3661704662
 21
-9.8212553091
 31
0.0
 11
-14.3529194694
 21
-9.8936507394
 31
0.0
  0
SPLINE
  5
43B
100
AcDbEntity
  8
ASSI
100
AcDbSpline
 62
7
  6
CONTINUOUS
 70
0
 71
3
 72
23
 73
19
 74
17
 42
0.0000001
 43
0.0000001
 44
0.0000000001
 12
0.1133830496
 22
-1.0742756543
 32
0.0
 13
-0.1133830496
 23
1.0742756543
 33
0.0
 40
0.0
 40
0.0
 40
0.0
 40
0.0
 40
0.0615487969
 40
0.1161041297
 40
0.1643815026
 40
0.2085253284
 40
0.2519854641
 40
0.2984619232
 40
0.3506275712
 40
0.4096775861
 40
0.4755592739
 40
0.547335924
 40
0.6234792116
 40
0.7020906226
 40
0.7810821201
 40
0.8583376653
 40
0.9318688667
 40
1.0
 40
1.0
 40
1.0
 40
1.0
 10
-14.3529194694
 20
-9.8936507394
 30
0.0
 10
-14.3505932726
 20
-9.9156908641
 30
0.0
 10
-14.3492819881
 20
-9.9577227334
 30
0.0
 10
-14.359067338
 20
-10.0165719705
 30
0.0
 10
-14.3808476674
 20
-10.0656114087
 30
0.0
 10
-14.4146436538
 20
-10.1024002102
 30
0.0
 10
-14.4589673979
 20
-10.1241398188
 30
0.0
 10
-14.5106774274
 20
-10.1297600876
 30
0.0
 10
-14.5671871883
 20
-10.1200556407
 30
0.0
 10
-14.6266576831
 20
-10.0960167963
 30
0.0
 10
-14.687174116
 20
-10.0586909448
 30
0.0
 10
-14.7466402852
 20
-10.0094653846
 30
0.0
 10
-14.802895536
 20
-9.9501525263
 30
0.0
 10
-14.853851104
 20
-9.8829577663
 30
0.0
 10
-14.897597662
 20
-9.8103981444
 30
0.0
 10
-14.9324954905
 20
-9.7351852332
 30
0.0
 10
-14.957242888
 20
-9.660154322
 30
0.0
 10
-14.9667858978
 20
-9.6098272452
 30
0.0
 10
-14.9693608697
 20
-9.5854300393
 30
0.0
 11
-14.3529194694
 21
-9.8936507394
 31
0.0
 11
-14.3515138
 21
-9.9601235059
 31
0.0
 11
-14.3620071636
 21
-10.0181147693
 31
0.0
 11
-14.3839953524
 21
-10.0654040346
 31
0.0
 11
-14.4166345822
 21
-10.1001695182
 31
0.0
 11
-14.4586699805
 21
-10.1210762582
 31
0.0
 11
-14.5084858971
 21
-10.1273213805
 31
0.0
 11
-14.5641684255
 21
-10.118663822
 31
0.0
 11
-14.6235775644
 21
-10.095436551
 31
0.0
 11
-14.6844301533
 21
-10.0585329581
 31
0.0
 11
-14.7443877229
 21
-10.0093704676
 31
0.0
 11
-14.8011460262
 21
-9.9498382353
 31
0.0
 11
-14.8525241818
 21
-9.8822247184
 31
0.0
 11
-14.8965475991
 21
-9.8091279112
 31
0.0
 11
-14.93152409
 21
-9.7333563061
 31
0.0
 11
-14.9561098728
 21
-9.6578254695
 31
0.0
 11
-14.9693608697
 21
-9.5854300393
 31
0.0
  0
SPLINE
  5
43C
100
AcDbEntity
  8
ASSI
100
AcDbSpline
 62
7
  6
CONTINUOUS
 70
0
 71
3
 72
23
 73
19
 74
17
 42
0.0000001
 43
0.0000001
 44
0.0000000001
 12
-0.1133830496
 22
1.0742756543
 32
0.0
 13
0.1133830496
 23
-1.0742756543
 33
0.0
 40
0.0
 40
0.0
 40
0.0
 40
0.0
 40
0.0615487969
 40
0.1161041297
 40
0.1643815026
 40
0.2085253284
 40
0.2519854641
 40
0.2984619232
 40
0.3506275712
 40
0.4096775861
 40
0.4755592739
 40
0.547335924
 40
0.6234792116
 40
0.7020906226
 40
0.7810821201
 40
0.8583376653
 40
0.9318688667
 40
1.0
 40
1.0
 40
1.0
 40
1.0
 10
-8.3114565854
 20
-2.8602401275
 30
0.0
 10
-8.3137827822
 20
-2.8382000028
 30
0.0
 10
-8.3150940667
 20
-2.7961681334
 30
0.0
 10
-8.3053087168
 20
-2.7373188963
 30
0.0
 10
-8.2835283874
 20
-2.6882794582
 30
0.0
 10
-8.249732401
 20
-2.6514906566
 30
0.0
 10
-8.2054086569
 20
-2.6297510481
 30
0.0
 10
-8.1536986274
 20
-2.6241307793
 30
0.0
 10
-8.0971888665
 20
-2.6338352262
 30
0.0
 10
-8.0377183716
 20
-2.6578740706
 30
0.0
 10
-7.9772019388
 20
-2.6951999221
 30
0.0
 10
-7.9177357696
 20
-2.7444254822
 30
0.0
 10
-7.8614805188
 20
-2.8037383405
 30
0.0
 10
-7.8105249508
 20
-2.8709331005
 30
0.0
 10
-7.7667783928
 20
-2.9434927224
 30
0.0
 10
-7.7318805643
 20
-3.0187056336
 30
0.0
 10
-7.7071331668
 20
-3.0937365448
 30
0.0
 10
-7.697590157
 20
-3.1440636217
 30
0.0
 10
-7.6950151851
 20
-3.1684608276
 30
0.0
 11
-8.3114565854
 21
-2.8602401275
 31
0.0
 11
-8.3128622548
 21
-2.7937673609
 31
0.0
 11
-8.3023688912
 21
-2.7357760976
 31
0.0
 11
-8.2803807024
 21
-2.6884868323
 31
0.0
 11
-8.2477414726
 21
-2.6537213487
 31
0.0
 11
-8.2057060743
 21
-2.6328146087
 31
0.0
 11
-8.1558901577
 21
-2.6265694863
 31
0.0
 11
-8.1002076293
 21
-2.6352270448
 31
0.0
 11
-8.0407984904
 21
-2.6584543158
 31
0.0
 11
-7.9799459015
 21
-2.6953579087
 31
0.0
 11
-7.9199883319
 21
-2.7445203993
 31
0.0
 11
-7.8632300286
 21
-2.8040526315
 31
0.0
 11
-7.811851873
 21
-2.8716661485
 31
0.0
 11
-7.7678284557
 21
-2.9447629556
 31
0.0
 11
-7.7328519648
 21
-3.0205345608
 31
0.0
 11
-7.708266182
 21
-3.0960653973
 31
0.0
 11
-7.6950151851
 21
-3.1684608276
 31
0.0
  0
LINE
  5
43D
100
AcDbEntity
  8
RACCORDO
100
AcDbLine
 62
253
  6
CONTINUOUS
 10
-3.7955041973
 20
-8.030281968
 11
-3.5884560217
 21
-7.8952296717
  0
SPLINE
  5
43E
100
AcDbEntity
  8
DRAFT
100
AcDbSpline
 62
7
  6
CONTINUOUS
 70
0
 71
3
 72
24
 73
20
 74
18
 42
0.0000001
 43
0.0000001
 44
0.0000000001
 12
-4.8333278672
 22
-4.764690381
 32
0.0
 13
6.0704749533
 23
-3.0352374767
 33
0.0
 40
0.0
 40
0.0
 40
0.0
 40
0.0
 40
0.0205872094
 40
0.0417502322
 40
0.0864443172
 40
0.1352266375
 40
0.1886340632
 40
0.246749151
 40
0.3092980756
 40
0.3757378062
 40
0.4453256019
 40
0.5171761742
 40
0.5903099437
 40
0.6636964845
 40
0.7362955545
 40
0.8070977012
 40
0.8751662157
 40
0.9396824245
 40
1.0
 40
1.0
 40
1.0
 40
1.0
 10
-11.0219480003
 20
-7.6973245599
 30
0.0
 10
-11.0551162446
 20
-7.7300217861
 30
0.0
 10
-11.1181875694
 20
-7.8007255492
 30
0.0
 10
-11.2299886356
 20
-7.9616594985
 30
0.0
 10
-11.3398172819
 20
-8.1989958789
 30
0.0
 10
-11.4193137706
 20
-8.5233042968
 30
0.0
 10
-11.4486861009
 20
-8.8860813721
 30
0.0
 10
-11.4277805005
 20
-9.2803194775
 30
0.0
 10
-11.3572706324
 20
-9.6985053006
 30
0.0
 10
-11.2386093807
 20
-10.1324870118
 30
0.0
 10
-11.0741722951
 20
-10.5737123959
 30
0.0
 10
-10.8672319969
 20
-11.013411859
 30
0.0
 10
-10.6219161431
 20
-11.4428071
 30
0.0
 10
-10.3431326043
 20
-11.8533094122
 30
0.0
 10
-10.0364559054
 20
-12.2367046453
 30
0.0
 10
-9.7080262896
 20
-12.5853295997
 30
0.0
 10
-9.3643618124
 20
-12.8922498779
 30
0.0
 10
-9.0123480835
 20
-13.1513290094
 30
0.0
 10
-8.7677198487
 20
-13.2939519882
 30
0.0
 10
-8.6456677384
 20
-13.3549780434
 30
0.0
 11
-11.0219480003
 21
-7.6973245599
 31
0.0
 11
-11.1151112242
 21
-7.8014580463
 31
0.0
 11
-11.1972749613
 21
-7.9192700486
 31
0.0
 11
-11.326993394
 21
-8.1934733602
 31
0.0
 11
-11.4084739291
 21
-8.5143760181
 31
0.0
 11
-11.4400655199
 21
-8.8754727669
 31
0.0
 11
-11.4211265751
 21
-9.26944476
 31
0.0
 11
-11.3520424869
 21
-9.6883052335
 31
0.0
 11
-11.2342123282
 21
-10.1235644186
 31
0.0
 11
-11.0700252734
 21
-10.5663990574
 31
0.0
 11
-10.8628094641
 21
-11.0078328372
 31
0.0
 11
-10.6167646958
 21
-11.4389174334
 31
0.0
 11
-10.3368792631
 21
-11.8509151386
 31
0.0
 11
-10.0288256022
 21
-12.2354739682
 31
0.0
 11
-9.6988487741
 21
-12.5847993169
 31
0.0
 11
-9.3536375025
 21
-12.89180984
 31
0.0
 11
-9.0001915648
 21
-13.1502808768
 31
0.0
 11
-8.6456677384
 21
-13.3549780434
 31
0.0
  0
SPLINE
  5
43F
100
AcDbEntity
  8
ASSI
100
AcDbSpline
 62
7
  6
CONTINUOUS
 70
0
 71
3
 72
23
 73
19
 74
17
 42
0.0000001
 43
0.0000001
 44
0.0000000001
 12
0.1133830496
 22
-1.0742756543
 32
0.0
 13
-0.1133830496
 23
1.0742756543
 33
0.0
 40
0.0
 40
0.0
 40
0.0
 40
0.0
 40
0.0615487969
 40
0.1161041297
 40
0.1643815026
 40
0.2085253284
 40
0.2519854641
 40
0.2984619232
 40
0.3506275712
 40
0.4096775861
 40
0.4755592739
 40
0.547335924
 40
0.6234792116
 40
0.7020906226
 40
0.7810821201
 40
0.8583376653
 40
0.9318688667
 40
1.0
 40
1.0
 40
1.0
 40
1.0
 10
-7.6950151851
 20
-3.1684608276
 30
0.0
 10
-7.6926889884
 20
-3.1905009523
 30
0.0
 10
-7.6913777039
 20
-3.2325328216
 30
0.0
 10
-7.7011630538
 20
-3.2913820587
 30
0.0
 10
-7.7229433832
 20
-3.3404214969
 30
0.0
 10
-7.7567393695
 20
-3.3772102984
 30
0.0
 10
-7.8010631137
 20
-3.398949907
 30
0.0
 10
-7.8527731432
 20
-3.4045701758
 30
0.0
 10
-7.9092829041
 20
-3.3948657289
 30
0.0
 10
-7.9687533989
 20
-3.3708268845
 30
0.0
 10
-8.0292698318
 20
-3.333501033
 30
0.0
 10
-8.0887360009
 20
-3.2842754728
 30
0.0
 10
-8.1449912518
 20
-3.2249626145
 30
0.0
 10
-8.1959468197
 20
-3.1577678545
 30
0.0
 10
-8.2396933778
 20
-3.0852082326
 30
0.0
 10
-8.2745912063
 20
-3.0099953214
 30
0.0
 10
-8.2993386038
 20
-2.9349644102
 30
0.0
 10
-8.3088816135
 20
-2.8846373334
 30
0.0
 10
-8.3114565854
 20
-2.8602401275
 30
0.0
 11
-7.6950151851
 21
-3.1684608276
 31
0.0
 11
-7.6936095158
 21
-3.2349335941
 31
0.0
 11
-7.7041028794
 21
-3.2929248575
 31
0.0
 11
-7.7260910682
 21
-3.3402141227
 31
0.0
 11
-7.758730298
 21
-3.3749796063
 31
0.0
 11
-7.8007656963
 21
-3.3958863464
 31
0.0
 11
-7.8505816128
 21
-3.4021314687
 31
0.0
 11
-7.9062641413
 21
-3.3934739102
 31
0.0
 11
-7.9656732802
 21
-3.3702466392
 31
0.0
 11
-8.026525869
 21
-3.3333430463
 31
0.0
 11
-8.0864834387
 21
-3.2841805558
 31
0.0
 11
-8.143241742
 21
-3.2246483235
 31
0.0
 11
-8.1946198976
 21
-3.1570348066
 31
0.0
 11
-8.2386433148
 21
-3.0839379994
 31
0.0
 11
-8.2736198058
 21
-3.0081663943
 31
0.0
 11
-8.2982055886
 21
-2.9326355577
 31
0.0
 11
-8.3114565854
 21
-2.8602401275
 31
0.0
  0
SPLINE
  5
440
100
AcDbEntity
  8
ASSI
100
AcDbSpline
 62
7
  6
CONTINUOUS
 70
0
 71
3
 72
23
 73
19
 74
17
 42
0.0000001
 43
0.0000001
 44
0.0000000001
 12
-0.1133830496
 22
1.0742756543
 32
0.0
 13
0.1133830496
 23
-1.0742756543
 33
0.0
 40
0.0
 40
0.0
 40
0.0
 40
0.0
 40
0.0615487969
 40
0.1161041297
 40
0.1643815026
 40
0.2085253284
 40
0.2519854641
 40
0.2984619232
 40
0.3506275712
 40
0.4096775861
 40
0.4755592739
 40
0.547335924
 40
0.6234792116
 40
0.7020906226
 40
0.7810821201
 40
0.8583376653
 40
0.9318688667
 40
1.0
 40
1.0
 40
1.0
 40
1.0
 10
-9.867091504
 20
-2.0824226681
 30
0.0
 10
-9.8694177008
 20
-2.0603825434
 30
0.0
 10
-9.8707289853
 20
-2.0183506741
 30
0.0
 10
-9.8609436354
 20
-1.959501437
 30
0.0
 10
-9.839163306
 20
-1.9104619989
 30
0.0
 10
-9.8053673196
 20
-1.8736731973
 30
0.0
 10
-9.7610435755
 20
-1.8519335888
 30
0.0
 10
-9.709333546
 20
-1.84631332
 30
0.0
 10
-9.6528237851
 20
-1.8560177669
 30
0.0
 10
-9.5933532903
 20
-1.8800566113
 30
0.0
 10
-9.5328368574
 20
-1.9173824628
 30
0.0
 10
-9.4733706882
 20
-1.9666080229
 30
0.0
 10
-9.4171154374
 20
-2.0259208812
 30
0.0
 10
-9.3661598694
 20
-2.0931156412
 30
0.0
 10
-9.3224133114
 20
-2.1656752631
 30
0.0
 10
-9.2875154829
 20
-2.2408881743
 30
0.0
 10
-9.2627680854
 20
-2.3159190855
 30
0.0
 10
-9.2532250756
 20
-2.3662461624
 30
0.0
 10
-9.2506501037
 20
-2.3906433683
 30
0.0
 11
-9.867091504
 21
-2.0824226681
 31
0.0
 11
-9.8684971734
 21
-2.0159499016
 31
0.0
 11
-9.8580038098
 21
-1.9579586383
 31
0.0
 11
-9.836015621
 21
-1.910669373
 31
0.0
 11
-9.8033763912
 21
-1.8759038894
 31
0.0
 11
-9.7613409929
 21
-1.8549971494
 31
0.0
 11
-9.7115250763
 21
-1.848752027
 31
0.0
 11
-9.6558425479
 21
-1.8574095855
 31
0.0
 11
-9.596433409
 21
-1.8806368565
 31
0.0
 11
-9.5355808201
 21
-1.9175404494
 31
0.0
 11
-9.4756232505
 21
-1.96670294
 31
0.0
 11
-9.4188649472
 21
-2.0262351722
 31
0.0
 11
-9.3674867916
 21
-2.0938486892
 31
0.0
 11
-9.3234633743
 21
-2.1669454963
 31
0.0
 11
-9.2884868834
 21
-2.2427171015
 31
0.0
 11
-9.2639011006
 21
-2.318247938
 31
0.0
 11
-9.2506501037
 21
-2.3906433683
 31
0.0
  0
LINE
  5
441
100
AcDbEntity
  8
DRAFT
100
AcDbLine
 62
7
  6
CONTINUOUS
 10
-4.8833898246
 20
1.3919054142
 11
-5.1270347064
 21
1.2332276645
  0
SPLINE
  5
442
100
AcDbEntity
  8
RACCORDO
100
AcDbSpline
 62
253
  6
CONTINUOUS
 70
0
 71
3
 72
11
 73
7
 74
5
 42
0.0000001
 43
0.0000001
 44
0.0000000001
 12
0.0149848468
 22
-0.142001477
 32
0.0
 13
0.1277151984
 23
-0.063857601
 33
0.0
 40
0.0
 40
0.0
 40
0.0
 40
0.0
 40
0.2201447012
 40
0.4543065344
 40
0.7126102814
 40
1.0
 40
1.0
 40
1.0
 40
1.0
 10
-19.4550028468
 20
18.1923117825
 30
0.0
 10
-19.4539032353
 20
18.1818914916
 30
0.0
 10
-19.4480405798
 20
18.1606330445
 30
0.0
 10
-19.4293795938
 20
18.1318054255
 30
0.0
 10
-19.4018456312
 20
18.1064507218
 30
0.0
 10
-19.3794461501
 20
18.0929801395
 30
0.0
 10
-19.3672114718
 20
18.0868628001
 30
0.0
 11
-19.4550028468
 21
18.1923117825
 31
0.0
 11
-19.4468045734
 21
18.1619652376
 31
0.0
 11
-19.4289963943
 21
18.133666268
 31
0.0
 11
-19.4021705862
 21
18.1083533344
 31
0.0
 11
-19.3672114718
 21
18.0868628001
 31
0.0
  0
SPLINE
  5
443
100
AcDbEntity
  8
RACCORDO
100
AcDbSpline
 62
253
  6
CONTINUOUS
 70
0
 71
3
 72
14
 73
10
 74
8
 42
0.0000001
 43
0.0000001
 44
0.0000000001
 12
0.3960337557
 22
0.3496934289
 32
0.0
 13
0.4783845576
 23
-0.2242240953
 33
0.0
 40
0.0
 40
0.0
 40
0.0
 40
0.0
 40
0.1071479661
 40
0.2155143934
 40
0.3276302518
 40
0.4456316344
 40
0.5711217619
 40
0.7051317683
 40
1.0
 40
1.0
 40
1.0
 40
1.0
 10
-19.2671087379
 20
18.7684288225
 30
0.0
 10
-19.2529640007
 20
18.780918469
 30
0.0
 10
-19.2220550241
 20
18.8034085732
 30
0.0
 10
-19.1695199164
 20
18.8280323641
 30
0.0
 10
-19.1115734017
 20
18.8432635924
 30
0.0
 10
-19.0489587933
 20
18.8490079042
 30
0.0
 10
-18.9823642712
 20
18.8453101533
 30
0.0
 10
-18.886191683
 20
18.8273818882
 30
0.0
 10
-18.8147869881
 20
18.8007350116
 30
0.0
 10
-18.7677668519
 20
18.7786961574
 30
0.0
 11
-19.2671087379
 21
18.7684288225
 31
0.0
 11
-19.2213279371
 21
18.8017259999
 31
0.0
 11
-19.1695434743
 21
18.826144253
 31
0.0
 11
-19.1123142129
 21
18.8414231246
 31
0.0
 11
-19.0502584849
 21
18.8474030214
 31
0.0
 11
-18.9840448911
 21
18.8440254851
 31
0.0
 11
-18.91439027
 21
18.8313365598
 31
0.0
 11
-18.7677668519
 21
18.7786961574
 31
0.0
  0
SPLINE
  5
444
100
AcDbEntity
  8
RACCORDO
100
AcDbSpline
 62
7
  6
CONTINUOUS
 70
0
 71
3
 72
9
 73
5
 74
3
 42
0.0000001
 43
0.0000001
 44
0.0000000001
 12
-0.1457131025
 22
-0.1658426769
 32
0.0
 13
-0.2070662589
 23
-0.0765484562
 33
0.0
 40
0.0
 40
0.0
 40
0.0
 40
0.0
 40
0.5051708156
 40
1.0
 40
1.0
 40
1.0
 40
1.0
 10
-6.1060648021
 20
10.7344797714
 30
0.0
 10
-6.130601471
 20
10.7065534779
 30
0.0
 10
-6.1856428514
 20
10.6565471589
 30
0.0
 10
-6.2515018427
 20
10.6216668319
 30
0.0
 10
-6.2856559854
 20
10.6090406951
 30
0.0
 11
-6.1060648021
 21
10.7344797714
 31
0.0
 11
-6.1889726969
 21
10.6598901281
 31
0.0
 11
-6.2856559854
 21
10.6090406951
 31
0.0
  0
SPLINE
  5
445
100
AcDbEntity
  8
RACCORDO
100
AcDbSpline
 62
7
  6
CONTINUOUS
 70
0
 71
3
 72
9
 73
5
 74
3
 42
0.0000001
 43
0.0000001
 44
0.0000000001
 12
-0.1910733007
 22
-0.3513178051
 32
0.0
 13
-0.2639626825
 23
-0.3004278759
 33
0.0
 40
0.0
 40
0.0
 40
0.0
 40
0.0
 40
0.5013646995
 40
1.0
 40
1.0
 40
1.0
 40
1.0
 10
-5.8900222746
 20
11.0702934337
 30
0.0
 10
-5.9219547439
 20
11.0115806518
 30
0.0
 10
-5.9856444124
 20
10.8945240555
 30
0.0
 10
-6.0621910983
 20
10.7844144194
 30
0.0
 10
-6.1060648021
 20
10.7344797714
 30
0.0
 11
-5.8900222746
 21
11.0702934337
 31
0.0
 11
-5.9890500711
 21
10.8959507949
 31
0.0
 11
-6.1060648021
 21
10.7344797714
 31
0.0
  0
SPLINE
  5
446
100
AcDbEntity
  8
ASSI
100
AcDbSpline
 62
7
  6
CONTINUOUS
 70
0
 71
3
 72
23
 73
19
 74
17
 42
0.0000001
 43
0.0000001
 44
0.0000000001
 12
0.1133830496
 22
-1.0742756543
 32
0.0
 13
-0.1133830496
 23
1.0742756543
 33
0.0
 40
0.0
 40
0.0
 40
0.0
 40
0.0
 40
0.0615487969
 40
0.1161041297
 40
0.1643815026
 40
0.2085253284
 40
0.2519854641
 40
0.2984619232
 40
0.3506275712
 40
0.4096775861
 40
0.4755592739
 40
0.547335924
 40
0.6234792116
 40
0.7020906226
 40
0.7810821201
 40
0.8583376653
 40
0.9318688667
 40
1.0
 40
1.0
 40
1.0
 40
1.0
 10
-9.2506501037
 20
-2.3906433683
 30
0.0
 10
-9.248323907
 20
-2.412683493
 30
0.0
 10
-9.2470126225
 20
-2.4547153623
 30
0.0
 10
-9.2567979724
 20
-2.5135645994
 30
0.0
 10
-9.2785783018
 20
-2.5626040376
 30
0.0
 10
-9.3123742882
 20
-2.5993928391
 30
0.0
 10
-9.3566980323
 20
-2.6211324477
 30
0.0
 10
-9.4084080618
 20
-2.6267527165
 30
0.0
 10
-9.4649178227
 20
-2.6170482696
 30
0.0
 10
-9.5243883175
 20
-2.5930094252
 30
0.0
 10
-9.5849047504
 20
-2.5556835737
 30
0.0
 10
-9.6443709195
 20
-2.5064580135
 30
0.0
 10
-9.7006261704
 20
-2.4471451552
 30
0.0
 10
-9.7515817383
 20
-2.3799503952
 30
0.0
 10
-9.7953282964
 20
-2.3073907733
 30
0.0
 10
-9.8302261249
 20
-2.2321778621
 30
0.0
 10
-9.8549735224
 20
-2.1571469509
 30
0.0
 10
-9.8645165322
 20
-2.1068198741
 30
0.0
 10
-9.867091504
 20
-2.0824226681
 30
0.0
 11
-9.2506501037
 21
-2.3906433683
 31
0.0
 11
-9.2492444344
 21
-2.4571161348
 31
0.0
 11
-9.259737798
 21
-2.5151073982
 31
0.0
 11
-9.2817259868
 21
-2.5623966634
 31
0.0
 11
-9.3143652166
 21
-2.597162147
 31
0.0
 11
-9.3564006149
 21
-2.6180688871
 31
0.0
 11
-9.4062165315
 21
-2.6243140094
 31
0.0
 11
-9.4618990599
 21
-2.6156564509
 31
0.0
 11
-9.5213081988
 21
-2.5924291799
 31
0.0
 11
-9.5821607876
 21
-2.555525587
 31
0.0
 11
-9.6421183573
 21
-2.5063630965
 31
0.0
 11
-9.6988766606
 21
-2.4468308642
 31
0.0
 11
-9.7502548162
 21
-2.3792173473
 31
0.0
 11
-9.7942782334
 21
-2.3061205401
 31
0.0
 11
-9.8292547244
 21
-2.230348935
 31
0.0
 11
-9.8538405072
 21
-2.1548180984
 31
0.0
 11
-9.867091504
 21
-2.0824226681
 31
0.0
  0
SPLINE
  5
447
100
AcDbEntity
  8
RACCORDO
100
AcDbSpline
 62
253
  6
CONTINUOUS
 70
0
 71
3
 72
12
 73
8
 74
6
 42
0.0000001
 43
0.0000001
 44
0.0000000001
 12
-0.3643610319
 22
-0.203019335
 32
0.0
 13
-0.3730692289
 23
0.1865346145
 33
0.0
 40
0.0
 40
0.0
 40
0.0
 40
0.0
 40
0.2472674679
 40
0.511847311
 40
0.7698890901
 40
0.8895757771
 40
1.0
 40
1.0
 40
1.0
 40
1.0
 10
-5.8900222746
 20
11.0702934337
 30
0.0
 10
-5.9200538179
 20
11.0535600748
 30
0.0
 10
-5.9873270243
 20
11.0278509802
 30
0.0
 10
-6.0937552059
 20
11.0115877389
 30
0.0
 10
-6.1837811769
 20
11.0163505663
 30
0.0
 10
-6.2499139969
 20
11.0322786765
 30
0.0
 10
-6.2798152426
 20
11.0440867896
 30
0.0
 10
-6.2935472025
 20
11.0509527695
 30
0.0
 11
-5.8900222746
 21
11.0702934337
 31
0.0
 11
-5.9858646298
 21
11.0321970694
 31
0.0
 11
-6.0949164229
 21
11.0152723224
 31
0.0
 11
-6.2023472785
 21
11.0218212226
 31
0.0
 11
-6.2508243987
 21
11.0337441187
 31
0.0
 11
-6.2935472025
 21
11.0509527695
 31
0.0
  0
SPLINE
  5
448
100
AcDbEntity
  8
RACCORDO
100
AcDbSpline
 62
253
  6
CONTINUOUS
 70
0
 71
3
 72
9
 73
5
 74
3
 42
0.0000001
 43
0.0000001
 44
0.0000000001
 12
-0.199514196
 22
0.0333309862
 32
0.0
 13
-0.1809240041
 23
0.090462002
 33
0.0
 40
0.0
 40
0.0
 40
0.0
 40
0.0
 40
0.5208607867
 40
1.0
 40
1.0
 40
1.0
 40
1.0
 10
-6.2856552448
 20
10.6090409388
 30
0.0
 10
-6.3202949518
 20
10.6148278734
 30
0.0
 10
-6.3862088096
 20
10.6300128658
 30
0.0
 10
-6.4493497168
 20
10.6546219454
 30
0.0
 10
-6.4782456451
 20
10.6690699095
 30
0.0
 11
-6.2856552448
 21
10.6090409388
 31
0.0
 11
-6.3882065492
 21
10.6332031243
 31
0.0
 11
-6.4782456451
 21
10.6690699095
 31
0.0
  0
SPLINE
  5
449
100
AcDbEntity
  8
RACCORDO
100
AcDbSpline
 62
253
  6
CONTINUOUS
 70
0
 71
3
 72
11
 73
7
 74
5
 42
0.0000001
 43
0.0000001
 44
0.0000000001
 12
0.04634776
 22
-0.4391332778
 32
0.0
 13
-0.3701692795
 23
-0.2407506076
 33
0.0
 40
0.0
 40
0.0
 40
0.0
 40
0.0
 40
0.2362919989
 40
0.497479795
 40
0.7600466431
 40
1.0
 40
1.0
 40
1.0
 40
1.0
 10
-6.2935472025
 20
11.0509527695
 30
0.0
 10
-6.2898966676
 20
11.0163648762
 30
0.0
 10
-6.2958235939
 20
10.942032503
 30
0.0
 10
-6.3330130169
 20
10.8355166022
 30
0.0
 10
-6.3937802073
 20
10.7398199196
 30
0.0
 10
-6.448637858
 20
10.688326215
 30
0.0
 10
-6.4782456451
 20
10.6690699095
 30
0.0
 11
-6.2935472025
 21
11.0509527695
 31
0.0
 11
-6.2996814849
 21
10.9467932308
 31
0.0
 11
-6.3369361622
 21
10.8376425924
 31
0.0
 11
-6.3996399036
 21
10.7401190095
 31
0.0
 11
-6.4782456451
 21
10.6690699095
 31
0.0
  0
SPLINE
  5
44A
100
AcDbEntity
  8
ASSI
100
AcDbSpline
 62
7
  6
CONTINUOUS
 70
0
 71
3
 72
23
 73
19
 74
17
 42
0.0000001
 43
0.0000001
 44
0.0000000001
 12
-0.1133830496
 22
1.0742756543
 32
0.0
 13
0.1133830496
 23
-1.0742756543
 33
0.0
 40
0.0
 40
0.0
 40
0.0
 40
0.0
 40
0.0615487969
 40
0.1161041297
 40
0.1643815026
 40
0.2085253284
 40
0.2519854641
 40
0.2984619232
 40
0.3506275712
 40
0.4096775861
 40
0.4755592739
 40
0.547335924
 40
0.6234792116
 40
0.7020906226
 40
0.7810821201
 40
0.8583376653
 40
0.9318688667
 40
1.0
 40
1.0
 40
1.0
 40
1.0
 10
-11.4227264227
 20
-1.3046052088
 30
0.0
 10
-11.4250526194
 20
-1.2825650841
 30
0.0
 10
-11.4263639039
 20
-1.2405332148
 30
0.0
 10
-11.416578554
 20
-1.1816839777
 30
0.0
 10
-11.3947982246
 20
-1.1326445396
 30
0.0
 10
-11.3610022382
 20
-1.095855738
 30
0.0
 10
-11.3166784941
 20
-1.0741161294
 30
0.0
 10
-11.2649684646
 20
-1.0684958607
 30
0.0
 10
-11.2084587037
 20
-1.0782003076
 30
0.0
 10
-11.1489882089
 20
-1.102239152
 30
0.0
 10
-11.088471776
 20
-1.1395650035
 30
0.0
 10
-11.0290056069
 20
-1.1887905636
 30
0.0
 10
-10.972750356
 20
-1.2481034219
 30
0.0
 10
-10.9217947881
 20
-1.3152981819
 30
0.0
 10
-10.87804823
 20
-1.3878578038
 30
0.0
 10
-10.8431504015
 20
-1.463070715
 30
0.0
 10
-10.818403004
 20
-1.5381016262
 30
0.0
 10
-10.8088599942
 20
-1.5884287031
 30
0.0
 10
-10.8062850224
 20
-1.612825909
 30
0.0
 11
-11.4227264227
 21
-1.3046052088
 31
0.0
 11
-11.424132092
 21
-1.2381324423
 31
0.0
 11
-11.4136387284
 21
-1.1801411789
 31
0.0
 11
-11.3916505396
 21
-1.1328519137
 31
0.0
 11
-11.3590113098
 21
-1.0980864301
 31
0.0
 11
-11.3169759115
 21
-1.0771796901
 31
0.0
 11
-11.2671599949
 21
-1.0709345677
 31
0.0
 11
-11.2114774665
 21
-1.0795921262
 31
0.0
 11
-11.1520683276
 21
-1.1028193972
 31
0.0
 11
-11.0912157388
 21
-1.1397229901
 31
0.0
 11
-11.0312581691
 21
-1.1888854807
 31
0.0
 11
-10.9744998658
 21
-1.2484177129
 31
0.0
 11
-10.9231217102
 21
-1.3160312299
 31
0.0
 11
-10.879098293
 21
-1.389128037
 31
0.0
 11
-10.844121802
 21
-1.4648996422
 31
0.0
 11
-10.8195360192
 21
-1.5404304787
 31
0.0
 11
-10.8062850224
 21
-1.612825909
 31
0.0
  0
SPLINE
  5
44B
100
AcDbEntity
  8
RACCORDO
100
AcDbSpline
 62
253
  6
CONTINUOUS
 70
0
 71
3
 72
9
 73
5
 74
3
 42
0.0000001
 43
0.0000001
 44
0.0000000001
 12
-0.1475841729
 22
0.0737920864
 32
0.0
 13
-0.1010673191
 23
0.1304291268
 33
0.0
 40
0.0
 40
0.0
 40
0.0
 40
0.0
 40
0.2724011158
 40
1.0
 40
1.0
 40
1.0
 40
1.0
 10
-19.4963007788
 20
17.1780974764
 30
0.0
 10
-19.5097014766
 20
17.1847978252
 30
0.0
 10
-19.5577419998
 20
17.2114427371
 30
0.0
 10
-19.6013281407
 20
17.2475001024
 30
0.0
 10
-19.6258402969
 20
17.2791334648
 30
0.0
 11
-19.4963007788
 21
17.1780974764
 31
0.0
 11
-19.5355435351
 21
17.200012459
 31
0.0
 11
-19.6258402969
 21
17.2791334648
 31
0.0
  0
SPLINE
  5
44C
100
AcDbEntity
  8
RACCORDO
100
AcDbSpline
 62
253
  6
CONTINUOUS
 70
0
 71
3
 72
11
 73
7
 74
5
 42
0.0000001
 43
0.0000001
 44
0.0000000001
 12
0.0463477601
 22
-0.4391332778
 32
0.0
 13
-0.3701692795
 23
-0.2407506076
 33
0.0
 40
0.0
 40
0.0
 40
0.0
 40
0.0
 40
0.2362919982
 40
0.4974797939
 40
0.7600466423
 40
1.0
 40
1.0
 40
1.0
 40
1.0
 10
-19.3116023362
 20
17.5599803364
 30
0.0
 10
-19.3079518012
 20
17.5253924431
 30
0.0
 10
-19.3138787275
 20
17.4510600701
 30
0.0
 10
-19.3510681504
 20
17.3445441694
 30
0.0
 10
-19.4118353408
 20
17.2488474866
 30
0.0
 10
-19.4666929916
 20
17.1973537819
 30
0.0
 10
-19.4963007788
 20
17.1780974764
 30
0.0
 11
-19.3116023362
 21
17.5599803364
 31
0.0
 11
-19.3177366185
 21
17.4558207979
 31
0.0
 11
-19.3549912957
 21
17.3466701597
 31
0.0
 11
-19.417695037
 21
17.2491465766
 31
0.0
 11
-19.4963007788
 21
17.1780974764
 31
0.0
  0
SPLINE
  5
44D
100
AcDbEntity
  8
RACCORDO
100
AcDbSpline
 62
253
  6
CONTINUOUS
 70
0
 71
3
 72
11
 73
7
 74
5
 42
0.0000001
 43
0.0000001
 44
0.0000000001
 12
-0.1277161533
 22
0.0638580767
 32
0.0
 13
-0.0149902934
 23
0.1420019749
 33
0.0
 40
0.0
 40
0.0
 40
0.0
 40
0.0
 40
0.2873824748
 40
0.5456933848
 40
0.7798539719
 40
1.0
 40
1.0
 40
1.0
 40
1.0
 10
-19.3116023362
 20
17.5599803364
 30
0.0
 10
-19.3238367976
 20
17.5660975671
 30
0.0
 10
-19.3462361656
 20
17.5795685616
 30
0.0
 10
-19.3737711214
 20
17.6049225736
 30
0.0
 10
-19.3924317953
 20
17.6337512469
 30
0.0
 10
-19.3982943694
 20
17.6550097293
 30
0.0
 10
-19.3993943872
 20
17.6654301196
 30
0.0
 11
-19.3116023362
 21
17.5599803364
 31
0.0
 11
-19.3465607994
 21
17.5814705404
 31
0.0
 11
-19.3733879212
 21
17.6067839735
 31
0.0
 11
-19.391195792
 21
17.6350832221
 31
0.0
 11
-19.3993943872
 21
17.6654301196
 31
0.0
  0
SPLINE
  5
44E
100
AcDbEntity
  8
RACCORDO
100
AcDbSpline
 62
253
  6
CONTINUOUS
 70
0
 71
3
 72
11
 73
7
 74
5
 42
0.0000001
 43
0.0000001
 44
0.0000000001
 12
-0.3339150665
 22
-0.2538848342
 32
0.0
 13
0.044028087
 23
-0.417155017
 33
0.0
 40
0.0
 40
0.0
 40
0.0
 40
0.0
 40
0.2447083799
 40
0.5072511515
 40
0.7658671422
 40
1.0
 40
1.0
 40
1.0
 40
1.0
 10
-6.7358941552
 20
12.7627598091
 30
0.0
 10
-6.7631314269
 20
12.7420505603
 30
0.0
 10
-6.8129900279
 20
12.6902365778
 30
0.0
 10
-6.8679129373
 20
12.5973575489
 30
0.0
 10
-6.9009166476
 20
12.4961760867
 30
0.0
 10
-6.9057764002
 20
12.4263005368
 30
0.0
 10
-6.9023402596
 20
12.3937439714
 30
0.0
 11
-6.7358941552
 21
12.7627598091
 31
0.0
 11
-6.808099414
 21
12.6898003808
 31
0.0
 11
-6.8644890354
 21
12.5952028968
 31
0.0
 11
-6.8973940763
 21
12.4918315262
 31
0.0
 11
-6.9023402596
 21
12.3937439714
 31
0.0
  0
SPLINE
  5
44F
100
AcDbEntity
  8
RACCORDO
100
AcDbSpline
 62
253
  6
CONTINUOUS
 70
0
 71
3
 72
15
 73
11
 74
9
 42
0.0000001
 43
0.0000001
 44
0.0000000001
 12
0.9125740574
 22
-0.4563171163
 32
0.0
 13
0.1071159118
 23
-1.0146639356
 33
0.0
 40
0.0
 40
0.0
 40
0.0
 40
0.0
 40
0.111599022
 40
0.2331624545
 40
0.3621456595
 40
0.495335689
 40
0.629172229
 40
0.7600456499
 40
0.8845915538
 40
1.0
 40
1.0
 40
1.0
 40
1.0
 10
-6.9023402596
 20
12.3937439714
 30
0.0
 10
-6.8683928022
 20
12.3767691234
 30
0.0
 10
-6.8005501154
 20
12.3349883179
 30
0.0
 10
-6.7053773422
 20
12.2563285112
 30
0.0
 10
-6.6153011532
 20
12.1614802802
 30
0.0
 10
-6.5337409643
 20
12.0539736629
 30
0.0
 10
-6.4637619855
 20
11.9378455706
 30
0.0
 10
-6.4079949868
 20
11.8174666492
 30
0.0
 10
-6.3684966532
 20
11.697390674
 30
0.0
 10
-6.3532770317
 20
11.6168688294
 30
0.0
 10
-6.3491563381
 20
11.5778352333
 30
0.0
 11
-6.9023402596
 21
12.3937439714
 31
0.0
 11
-6.8049538638
 21
12.3347433961
 31
0.0
 11
-6.7089827804
 21
12.2561727224
 31
0.0
 11
-6.6181148869
 21
12.1609777928
 31
0.0
 11
-6.5358727245
 21
12.0527953994
 31
0.0
 11
-6.4654471608
 21
11.9358032633
 31
0.0
 11
-6.4095529584
 21
11.8145340636
 31
0.0
 11
-6.3703087029
 21
11.6936712947
 31
0.0
 11
-6.3491563381
 21
11.5778352333
 31
0.0
  0
SPLINE
  5
450
100
AcDbEntity
  8
ASSI
100
AcDbSpline
 62
7
  6
CONTINUOUS
 70
0
 71
3
 72
11
 73
7
 74
5
 42
0.0000001
 43
0.0000001
 44
0.0000000001
 12
0.04634776
 22
-0.4391332778
 32
0.0
 13
-0.3701692795
 23
-0.2407506076
 33
0.0
 40
0.0
 40
0.0
 40
0.0
 40
0.0
 40
0.2362919989
 40
0.497479795
 40
0.7600466431
 40
1.0
 40
1.0
 40
1.0
 40
1.0
 10
-9.2789893773
 20
13.5762740777
 30
0.0
 10
-9.2753388423
 20
13.5416861844
 30
0.0
 10
-9.2812657687
 20
13.4673538111
 30
0.0
 10
-9.3184551917
 20
13.3608379103
 30
0.0
 10
-9.3792223821
 20
13.2651412277
 30
0.0
 10
-9.4340800328
 20
13.2136475231
 30
0.0
 10
-9.4636878199
 20
13.1943912177
 30
0.0
 11
-9.2789893773
 21
13.5762740777
 31
0.0
 11
-9.2851236597
 21
13.4721145389
 31
0.0
 11
-9.322378337
 21
13.3629639005
 31
0.0
 11
-9.3850820783
 21
13.2654403176
 31
0.0
 11
-9.4636878199
 21
13.1943912177
 31
0.0
  0
SPLINE
  5
451
100
AcDbEntity
  8
RACCORDO
100
AcDbSpline
 62
253
  6
CONTINUOUS
 70
0
 71
3
 72
15
 73
11
 74
9
 42
0.0000001
 43
0.0000001
 44
0.0000000001
 12
1.2813565974
 22
-0.6828641946
 32
0.0
 13
0.1894048705
 23
-1.4395499411
 33
0.0
 40
0.0
 40
0.0
 40
0.0
 40
0.0
 40
0.1109442824
 40
0.2323952297
 40
0.3616088296
 40
0.4951986821
 40
0.629449371
 40
0.7605986037
 40
0.8851153836
 40
1.0
 40
1.0
 40
1.0
 40
1.0
 10
-6.7358941552
 20
12.7627598091
 30
0.0
 10
-6.6885077591
 20
12.7375065164
 30
0.0
 10
-6.5937228745
 20
12.6760402492
 30
0.0
 10
-6.4604017505
 20
12.5620635765
 30
0.0
 10
-6.3334251127
 20
12.4256723319
 30
0.0
 10
-6.2175837086
 20
12.2719347209
 30
0.0
 10
-6.1172044683
 20
12.1065910972
 30
0.0
 10
-6.0360425939
 20
11.9358255804
 30
0.0
 10
-5.9770973723
 20
11.7660639858
 30
0.0
 10
-5.9528846455
 20
11.6523032784
 30
0.0
 10
-5.9456314102
 20
11.5971758975
 30
0.0
 11
-6.7358941552
 21
12.7627598091
 31
0.0
 11
-6.6000828408
 21
12.6761337114
 31
0.0
 11
-6.4655139471
 21
12.5621708095
 31
0.0
 11
-6.3373297156
 21
12.4251771156
 31
0.0
 11
-6.2204529526
 21
12.2703775827
 31
0.0
 11
-6.1193736273
 21
12.1037066852
 31
0.0
 11
-6.0379637386
 21
11.9315632818
 31
0.0
 11
-5.9793172702
 21
11.7605466438
 31
0.0
 11
-5.9456314102
 21
11.5971758975
 31
0.0
  0
SPLINE
  5
452
100
AcDbEntity
  8
RACCORDO
100
AcDbSpline
 62
253
  6
CONTINUOUS
 70
0
 71
3
 72
12
 73
8
 74
6
 42
0.0000001
 43
0.0000001
 44
0.0000000001
 12
-0.364360861
 22
-0.2030192399
 32
0.0
 13
-0.373069054
 23
0.186534527
 33
0.0
 40
0.0
 40
0.0
 40
0.0
 40
0.0
 40
0.2472676925
 40
0.5118471301
 40
0.7698884989
 40
0.8895727645
 40
1.0
 40
1.0
 40
1.0
 40
1.0
 10
-5.9456314102
 20
11.5971758975
 30
0.0
 10
-5.9756629666
 20
11.5804425312
 30
0.0
 10
-6.042936287
 20
11.5547339307
 30
0.0
 10
-6.1493643174
 20
11.5384704258
 30
0.0
 10
-6.2393896686
 20
11.5432337449
 30
0.0
 10
-6.3055227659
 20
11.5591606949
 30
0.0
 10
-6.33542401
 20
11.5709690692
 30
0.0
 10
-6.3491563381
 20
11.5778352333
 30
0.0
 11
-5.9456314102
 21
11.5971758975
 31
0.0
 11
-6.0414739295
 21
11.5590798233
 31
0.0
 11
-6.1505255115
 21
11.5421551567
 31
0.0
 11
-6.2579561495
 21
11.5487039838
 31
0.0
 11
-6.3064323977
 21
11.5606260988
 31
0.0
 11
-6.3491563381
 21
11.5778352333
 31
0.0
  0
SPLINE
  5
453
100
AcDbEntity
  8
RACCORDO
100
AcDbSpline
 62
253
  6
CONTINUOUS
 70
0
 71
3
 72
17
 73
13
 74
11
 42
0.0000001
 43
0.0000001
 44
0.0000000001
 12
-0.0744136086
 22
0.7052114804
 32
0.0
 13
0.6342705281
 23
-0.3171143553
 33
0.0
 40
0.0
 40
0.0
 40
0.0
 40
0.0
 40
0.1500960347
 40
0.2831966964
 40
0.40095717
 40
0.4557582507
 40
0.5089884617
 40
0.5617942427
 40
0.615365728
 40
0.7287265809
 40
0.8559910273
 40
1.0
 40
1.0
 40
1.0
 40
1.0
 10
-19.3672114718
 20
18.0868628001
 30
0.0
 10
-19.3709345343
 20
18.1221459491
 30
0.0
 10
-19.3730565565
 20
18.189449352
 30
0.0
 10
-19.357574049
 20
18.2836633773
 30
0.0
 10
-19.3278144317
 20
18.3507512874
 30
0.0
 10
-19.2947350363
 20
18.3929406485
 30
0.0
 10
-19.2662991536
 20
18.4184815196
 30
0.0
 10
-19.2339594566
 20
18.4383152012
 30
0.0
 10
-19.1853057382
 20
18.4572141738
 30
0.0
 10
-19.1149003464
 20
18.4648344984
 30
0.0
 10
-19.0245082931
 20
18.4491272993
 30
0.0
 10
-18.9646598387
 20
18.4249027573
 30
0.0
 10
-18.9342129563
 20
18.4096803198
 30
0.0
 11
-19.3672114718
 21
18.0868628001
 31
0.0
 11
-19.3695160099
 21
18.1932749482
 31
0.0
 11
-19.3528329801
 21
18.2861740745
 31
0.0
 11
-19.317735376
 21
18.3619473709
 31
0.0
 11
-19.2936627192
 21
18.3924543751
 31
0.0
 11
-19.2655341384
 21
18.4176261063
 31
0.0
 11
-19.2336218903
 21
18.437217185
 31
0.0
 11
-19.1982364232
 21
18.451038561
 31
0.0
 11
-19.1184576413
 21
18.4609101529
 31
0.0
 11
-19.0293023786
 21
18.4469176535
 31
0.0
 11
-18.9342129563
 21
18.4096803198
 31
0.0
  0
SPLINE
  5
454
100
AcDbEntity
  8
RACCORDO
100
AcDbSpline
 62
253
  6
CONTINUOUS
 70
0
 71
3
 72
11
 73
7
 74
5
 42
0.0000001
 43
0.0000001
 44
0.0000000001
 12
-0.3339150704
 22
-0.2538848304
 32
0.0
 13
0.0440280926
 23
-0.4171550173
 33
0.0
 40
0.0
 40
0.0
 40
0.0
 40
0.0
 40
0.24470838
 40
0.507251151
 40
0.7658671414
 40
1.0
 40
1.0
 40
1.0
 40
1.0
 10
-18.7677668519
 20
18.7786961574
 30
0.0
 10
-18.7950041239
 20
18.7579869089
 30
0.0
 10
-18.8448627255
 20
18.7061729269
 30
0.0
 10
-18.8997856354
 20
18.613293898
 30
0.0
 10
-18.9327893454
 20
18.5121124355
 30
0.0
 10
-18.9376490974
 20
18.4422368853
 30
0.0
 10
-18.9342129563
 20
18.4096803198
 30
0.0
 11
-18.7677668519
 21
18.7786961574
 31
0.0
 11
-18.8399721116
 21
18.7057367297
 31
0.0
 11
-18.8963617333
 21
18.6111392459
 31
0.0
 11
-18.929266774
 21
18.5077678751
 31
0.0
 11
-18.9342129563
 21
18.4096803198
 31
0.0
  0
SPLINE
  5
455
100
AcDbEntity
  8
RACCORDO
100
AcDbSpline
 62
7
  6
CONTINUOUS
 70
0
 71
3
 72
11
 73
7
 74
5
 42
0.0000001
 43
0.0000001
 44
0.0000000001
 12
-0.3339150806
 22
-0.253884838
 32
0.0
 13
0.044028094
 23
-0.4171550299
 33
0.0
 40
0.0
 40
0.0
 40
0.0
 40
0.0
 40
0.2447085088
 40
0.5072511543
 40
0.7658670197
 40
1.0
 40
1.0
 40
1.0
 40
1.0
 10
-16.8176944954
 20
17.8036599792
 30
0.0
 10
-16.8449317825
 20
17.7829507191
 30
0.0
 10
-16.894790394
 20
17.7311367432
 30
0.0
 10
-16.949713302
 20
17.6382577284
 30
0.0
 10
-16.9827170026
 20
17.5370762774
 30
0.0
 10
-16.9875767427
 20
17.4672007249
 30
0.0
 10
-16.9841405998
 20
17.4346441415
 30
0.0
 11
-16.8176944954
 21
17.8036599792
 31
0.0
 11
-16.8898998003
 21
17.7307005158
 31
0.0
 11
-16.9462893999
 21
17.6361030763
 31
0.0
 11
-16.9791944221
 21
17.5327317512
 31
0.0
 11
-16.9841405998
 21
17.4346441415
 31
0.0
  0
SPLINE
  5
456
100
AcDbEntity
  8
ASSI
100
AcDbSpline
 62
7
  6
CONTINUOUS
 70
0
 71
3
 72
11
 73
7
 74
5
 42
0.0000001
 43
0.0000001
 44
0.0000000001
 12
0.3701692795
 22
0.2407506076
 32
0.0
 13
-0.04634776
 23
0.4391332778
 33
0.0
 40
0.0
 40
0.0
 40
0.0
 40
0.0
 40
0.2399533569
 40
0.502520205
 40
0.7637080011
 40
1.0
 40
1.0
 40
1.0
 40
1.0
 10
-16.5347556318
 20
16.7299251236
 30
0.0
 10
-16.5051478447
 20
16.7491814291
 30
0.0
 10
-16.4502901939
 20
16.8006751337
 30
0.0
 10
-16.3895230036
 20
16.8963718163
 30
0.0
 10
-16.3523335806
 20
17.0028877171
 30
0.0
 10
-16.3464066542
 20
17.0772200903
 30
0.0
 10
-16.3500571892
 20
17.1118079836
 30
0.0
 11
-16.5347556318
 21
16.7299251236
 31
0.0
 11
-16.4561498902
 21
16.8009742235
 31
0.0
 11
-16.3934461489
 21
16.8984978065
 31
0.0
 11
-16.3561914715
 21
17.0076484449
 31
0.0
 11
-16.3500571892
 21
17.1118079836
 31
0.0
  0
SPLINE
  5
457
100
AcDbEntity
  8
RACCORDO
100
AcDbSpline
 62
253
  6
CONTINUOUS
 70
0
 71
3
 72
10
 73
6
 74
4
 42
0.0000001
 43
0.0000001
 44
0.0000000001
 12
-0.0988865787
 22
0.0886761389
 32
0.0
 13
-0.0139412749
 23
0.1320895678
 33
0.0
 40
0.0
 40
0.0
 40
0.0
 40
0.0
 40
0.2404406317
 40
0.4852095642
 40
1.0
 40
1.0
 40
1.0
 40
1.0
 10
-17.4687764611
 20
1.4153710494
 30
0.0
 10
-17.4767019116
 20
1.422478165
 30
0.0
 10
-17.4912876492
 20
1.4384881988
 30
0.0
 10
-17.5142486122
 20
1.4765917226
 30
0.0
 10
-17.5230100777
 20
1.5099942768
 30
0.0
 10
-17.525402356
 20
1.5326604255
 30
0.0
 11
-17.4687764611
 21
1.4153710494
 31
0.0
 11
-17.4903116191
 21
1.4389539179
 31
0.0
 11
-17.5071474064
 21
1.4667661734
 31
0.0
 11
-17.525402356
 21
1.5326604255
 31
0.0
  0
SPLINE
  5
458
100
AcDbEntity
  8
ASSI
100
AcDbSpline
 62
7
  6
CONTINUOUS
 70
0
 71
3
 72
23
 73
19
 74
17
 42
0.0000001
 43
0.0000001
 44
0.0000000001
 12
0.1133830496
 22
-1.0742756543
 32
0.0
 13
-0.1133830496
 23
1.0742756543
 33
0.0
 40
0.0
 40
0.0
 40
0.0
 40
0.0
 40
0.0615487969
 40
0.1161041297
 40
0.1643815026
 40
0.2085253284
 40
0.2519854641
 40
0.2984619232
 40
0.3506275712
 40
0.4096775861
 40
0.4755592739
 40
0.547335924
 40
0.6234792116
 40
0.7020906226
 40
0.7810821201
 40
0.8583376653
 40
0.9318688667
 40
1.0
 40
1.0
 40
1.0
 40
1.0
 10
-10.8062850224
 20
-1.612825909
 30
0.0
 10
-10.8039588256
 20
-1.6348660337
 30
0.0
 10
-10.8026475411
 20
-1.676897903
 30
0.0
 10
-10.812432891
 20
-1.7357471401
 30
0.0
 10
-10.8342132204
 20
-1.7847865783
 30
0.0
 10
-10.8680092068
 20
-1.8215753798
 30
0.0
 10
-10.9123329509
 20
-1.8433149884
 30
0.0
 10
-10.9640429804
 20
-1.8489352572
 30
0.0
 10
-11.0205527413
 20
-1.8392308103
 30
0.0
 10
-11.0800232361
 20
-1.8151919659
 30
0.0
 10
-11.140539669
 20
-1.7778661144
 30
0.0
 10
-11.2000058382
 20
-1.7286405542
 30
0.0
 10
-11.256261089
 20
-1.6693276959
 30
0.0
 10
-11.307216657
 20
-1.6021329359
 30
0.0
 10
-11.350963215
 20
-1.529573314
 30
0.0
 10
-11.3858610435
 20
-1.4543604028
 30
0.0
 10
-11.410608441
 20
-1.3793294916
 30
0.0
 10
-11.4201514508
 20
-1.3290024148
 30
0.0
 10
-11.4227264227
 20
-1.3046052088
 30
0.0
 11
-10.8062850224
 21
-1.612825909
 31
0.0
 11
-10.804879353
 21
-1.6792986755
 31
0.0
 11
-10.8153727166
 21
-1.7372899389
 31
0.0
 11
-10.8373609054
 21
-1.7845792041
 31
0.0
 11
-10.8700001352
 21
-1.8193446877
 31
0.0
 11
-10.9120355335
 21
-1.8402514278
 31
0.0
 11
-10.9618514501
 21
-1.8464965501
 31
0.0
 11
-11.0175339785
 21
-1.8378389916
 31
0.0
 11
-11.0769431174
 21
-1.8146117206
 31
0.0
 11
-11.1377957063
 21
-1.7777081277
 31
0.0
 11
-11.1977532759
 21
-1.7285456372
 31
0.0
 11
-11.2545115792
 21
-1.6690134049
 31
0.0
 11
-11.3058897348
 21
-1.601399888
 31
0.0
 11
-11.3499131521
 21
-1.5283030808
 31
0.0
 11
-11.384889643
 21
-1.4525314757
 31
0.0
 11
-11.4094754258
 21
-1.3770006391
 31
0.0
 11
-11.4227264227
 21
-1.3046052088
 31
0.0
  0
SPLINE
  5
459
100
AcDbEntity
  8
ASSI
100
AcDbSpline
 62
7
  6
CONTINUOUS
 70
0
 71
3
 72
14
 73
10
 74
8
 42
0.0000001
 43
0.0000001
 44
0.0000000001
 12
-0.3017369076
 22
0.3595026808
 32
0.0
 13
-0.4473553672
 23
-0.1419877258
 33
0.0
 40
0.0
 40
0.0
 40
0.0
 40
0.0
 40
0.3037299064
 40
0.4448235587
 40
0.5763569009
 40
0.6973137672
 40
0.8074728826
 40
0.907661452
 40
1.0
 40
1.0
 40
1.0
 40
1.0
 10
-6.2549809327
 20
14.7327861733
 30
0.0
 10
-6.2855297736
 20
14.7691834119
 30
0.0
 10
-6.3347556002
 20
14.8191037049
 30
0.0
 10
-6.407030057
 20
14.873239384
 30
0.0
 10
-6.4602481594
 20
14.9045174211
 30
0.0
 10
-6.5126435557
 20
14.9267621393
 30
0.0
 10
-6.5631667071
 20
14.9394430391
 30
0.0
 10
-6.6107616936
 20
14.942171424
 30
0.0
 10
-6.6407973297
 20
14.9369493762
 30
0.0
 10
-6.6545667114
 20
14.9325790627
 30
0.0
 11
-6.2549809327
 21
14.7327861733
 31
0.0
 11
-6.3558094358
 21
14.8335608172
 31
0.0
 11
-6.4089456322
 21
14.8730816588
 31
0.0
 11
-6.462313126
 21
14.9041156124
 31
0.0
 11
-6.5147111871
 21
14.9259644362
 31
0.0
 11
-6.5649608968
 21
14.9381365477
 31
0.0
 11
-6.6119316738
 21
14.940358084
 31
0.0
 11
-6.6545667114
 21
14.9325790627
 31
0.0
  0
SPLINE
  5
45A
100
AcDbEntity
  8
ASSI
100
AcDbSpline
 62
7
  6
CONTINUOUS
 70
0
 71
3
 72
14
 73
10
 74
8
 42
0.0000001
 43
0.0000001
 44
0.0000000001
 12
-0.3017369076
 22
0.3595026808
 32
0.0
 13
-0.4473553672
 23
-0.1419877258
 33
0.0
 40
0.0
 40
0.0
 40
0.0
 40
0.0
 40
0.3037299064
 40
0.4448235587
 40
0.5763569009
 40
0.6973137672
 40
0.8074728826
 40
0.907661452
 40
1.0
 40
1.0
 40
1.0
 40
1.0
 10
-15.3413030709
 20
19.2759472425
 30
0.0
 10
-15.3718519118
 20
19.312344481
 30
0.0
 10
-15.4210777385
 20
19.362264774
 30
0.0
 10
-15.4933521953
 20
19.4164004531
 30
0.0
 10
-15.5465702976
 20
19.4476784902
 30
0.0
 10
-15.598965694
 20
19.4699232085
 30
0.0
 10
-15.6494888454
 20
19.4826041082
 30
0.0
 10
-15.6970838318
 20
19.4853324932
 30
0.0
 10
-15.727119468
 20
19.4801104453
 30
0.0
 10
-15.7408888496
 20
19.4757401318
 30
0.0
 11
-15.3413030709
 21
19.2759472425
 31
0.0
 11
-15.442131574
 21
19.3767218863
 31
0.0
 11
-15.4952677705
 21
19.4162427279
 31
0.0
 11
-15.5486352643
 21
19.4472766816
 31
0.0
 11
-15.6010333253
 21
19.4691255054
 31
0.0
 11
-15.651283035
 21
19.4812976168
 31
0.0
 11
-15.698253812
 21
19.4835191531
 31
0.0
 11
-15.7408888496
 21
19.4757401318
 31
0.0
  0
SPLINE
  5
45B
100
AcDbEntity
  8
RACCORDO
100
AcDbSpline
 62
253
  6
CONTINUOUS
 70
0
 71
3
 72
11
 73
7
 74
5
 42
0.0000001
 43
0.0000001
 44
0.0000000001
 12
-0.1414764561
 22
0.0707477102
 32
0.0
 13
-0.0166026606
 23
0.1573060005
 33
0.0
 40
0.0
 40
0.0
 40
0.0
 40
0.0
 40
0.2231354542
 40
0.4588783181
 40
0.7163661799
 40
1.0
 40
1.0
 40
1.0
 40
1.0
 10
-17.3408720782
 20
1.3292526493
 30
0.0
 10
-17.3513948826
 20
1.3345147568
 30
0.0
 10
-17.3714136715
 20
1.3489043866
 30
0.0
 10
-17.3944739645
 20
1.3794033603
 30
0.0
 10
-17.4103548818
 20
1.4175438015
 30
0.0
 10
-17.4156893304
 20
1.4457699943
 30
0.0
 10
-17.4172590224
 20
1.4606424282
 30
0.0
 11
-17.3408720782
 21
1.3292526493
 31
0.0
 11
-17.3696229594
 21
1.3497260351
 31
0.0
 11
-17.3924502381
 21
1.3792123065
 31
0.0
 11
-17.4085235876
 21
1.4166359378
 31
0.0
 11
-17.4172590224
 21
1.4606424282
 31
0.0
  0
SPLINE
  5
45C
100
AcDbEntity
  8
ASSI
100
AcDbSpline
 62
7
  6
CONTINUOUS
 70
0
 71
3
 72
23
 73
19
 74
17
 42
0.0000001
 43
0.0000001
 44
0.0000000001
 12
-0.1133830496
 22
1.0742756543
 32
0.0
 13
0.1133830496
 23
-1.0742756543
 33
0.0
 40
0.0
 40
0.0
 40
0.0
 40
0.0
 40
0.0615487969
 40
0.1161041297
 40
0.1643815026
 40
0.2085253284
 40
0.2519854641
 40
0.2984619232
 40
0.3506275712
 40
0.4096775861
 40
0.4755592739
 40
0.547335924
 40
0.6234792116
 40
0.7020906226
 40
0.7810821201
 40
0.8583376653
 40
0.9318688667
 40
1.0
 40
1.0
 40
1.0
 40
1.0
 10
-12.9783613413
 20
-0.5267877495
 30
0.0
 10
-12.980687538
 20
-0.5047476248
 30
0.0
 10
-12.9819988225
 20
-0.4627157555
 30
0.0
 10
-12.9722134726
 20
-0.4038665184
 30
0.0
 10
-12.9504331432
 20
-0.3548270803
 30
0.0
 10
-12.9166371569
 20
-0.3180382787
 30
0.0
 10
-12.8723134127
 20
-0.2962986701
 30
0.0
 10
-12.8206033832
 20
-0.2906784014
 30
0.0
 10
-12.7640936223
 20
-0.3003828483
 30
0.0
 10
-12.7046231275
 20
-0.3244216927
 30
0.0
 10
-12.6441066946
 20
-0.3617475442
 30
0.0
 10
-12.5846405255
 20
-0.4109731043
 30
0.0
 10
-12.5283852746
 20
-0.4702859626
 30
0.0
 10
-12.4774297067
 20
-0.5374807226
 30
0.0
 10
-12.4336831486
 20
-0.6100403445
 30
0.0
 10
-12.3987853201
 20
-0.6852532557
 30
0.0
 10
-12.3740379226
 20
-0.7602841669
 30
0.0
 10
-12.3644949129
 20
-0.8106112437
 30
0.0
 10
-12.361919941
 20
-0.8350084497
 30
0.0
 11
-12.9783613413
 21
-0.5267877495
 31
0.0
 11
-12.9797670106
 21
-0.460314983
 31
0.0
 11
-12.969273647
 21
-0.4023237196
 31
0.0
 11
-12.9472854582
 21
-0.3550344544
 31
0.0
 11
-12.9146462284
 21
-0.3202689708
 31
0.0
 11
-12.8726108301
 21
-0.2993622308
 31
0.0
 11
-12.8227949136
 21
-0.2931171084
 31
0.0
 11
-12.7671123851
 21
-0.3017746669
 31
0.0
 11
-12.7077032462
 21
-0.3250019379
 31
0.0
 11
-12.6468506574
 21
-0.3619055308
 31
0.0
 11
-12.5868930877
 21
-0.4110680214
 31
0.0
 11
-12.5301347844
 21
-0.4706002536
 31
0.0
 11
-12.4787566288
 21
-0.5382137706
 31
0.0
 11
-12.4347332116
 21
-0.6113105777
 31
0.0
 11
-12.3997567206
 21
-0.6870821829
 31
0.0
 11
-12.3751709378
 21
-0.7626130194
 31
0.0
 11
-12.361919941
 21
-0.8350084497
 31
0.0
  0
SPLINE
  5
45D
100
AcDbEntity
  8
ASSI
100
AcDbSpline
 62
7
  6
CONTINUOUS
 70
0
 71
3
 72
23
 73
19
 74
17
 42
0.0000001
 43
0.0000001
 44
0.0000000001
 12
0.1133830496
 22
-1.0742756543
 32
0.0
 13
-0.1133830496
 23
1.0742756543
 33
0.0
 40
0.0
 40
0.0
 40
0.0
 40
0.0
 40
0.0615487969
 40
0.1161041297
 40
0.1643815026
 40
0.2085253284
 40
0.2519854641
 40
0.2984619232
 40
0.3506275712
 40
0.4096775861
 40
0.4755592739
 40
0.547335924
 40
0.6234792116
 40
0.7020906226
 40
0.7810821201
 40
0.8583376653
 40
0.9318688667
 40
1.0
 40
1.0
 40
1.0
 40
1.0
 10
-12.361919941
 20
-0.8350084497
 30
0.0
 10
-12.3595937442
 20
-0.8570485744
 30
0.0
 10
-12.3582824597
 20
-0.8990804437
 30
0.0
 10
-12.3680678096
 20
-0.9579296808
 30
0.0
 10
-12.389848139
 20
-1.006969119
 30
0.0
 10
-12.4236441254
 20
-1.0437579205
 30
0.0
 10
-12.4679678695
 20
-1.0654975291
 30
0.0
 10
-12.519677899
 20
-1.0711177978
 30
0.0
 10
-12.5761876599
 20
-1.061413351
 30
0.0
 10
-12.6356581548
 20
-1.0373745066
 30
0.0
 10
-12.6961745876
 20
-1.0000486551
 30
0.0
 10
-12.7556407568
 20
-0.9508230949
 30
0.0
 10
-12.8118960076
 20
-0.8915102366
 30
0.0
 10
-12.8628515756
 20
-0.8243154766
 30
0.0
 10
-12.9065981336
 20
-0.7517558547
 30
0.0
 10
-12.9414959621
 20
-0.6765429435
 30
0.0
 10
-12.9662433596
 20
-0.6015120323
 30
0.0
 10
-12.9757863694
 20
-0.5511849555
 30
0.0
 10
-12.9783613413
 20
-0.5267877495
 30
0.0
 11
-12.361919941
 21
-0.8350084497
 31
0.0
 11
-12.3605142716
 21
-0.9014812162
 31
0.0
 11
-12.3710076352
 21
-0.9594724796
 31
0.0
 11
-12.392995824
 21
-1.0067617448
 31
0.0
 11
-12.4256350538
 21
-1.0415272284
 31
0.0
 11
-12.4676704521
 21
-1.0624339685
 31
0.0
 11
-12.5174863687
 21
-1.0686790908
 31
0.0
 11
-12.5731688971
 21
-1.0600215323
 31
0.0
 11
-12.632578036
 21
-1.0367942613
 31
0.0
 11
-12.6934306249
 21
-0.9998906684
 31
0.0
 11
-12.7533881945
 21
-0.9507281779
 31
0.0
 11
-12.8101464978
 21
-0.8911959456
 31
0.0
 11
-12.8615246534
 21
-0.8235824287
 31
0.0
 11
-12.9055480707
 21
-0.7504856215
 31
0.0
 11
-12.9405245616
 21
-0.6747140164
 31
0.0
 11
-12.9651103444
 21
-0.5991831798
 31
0.0
 11
-12.9783613413
 21
-0.5267877495
 31
0.0
  0
SPLINE
  5
45E
100
AcDbEntity
  8
ASSI
100
AcDbSpline
 62
7
  6
CONTINUOUS
 70
0
 71
3
 72
23
 73
19
 74
17
 42
0.0000001
 43
0.0000001
 44
0.0000000001
 12
-0.1133830496
 22
1.0742756543
 32
0.0
 13
0.1133830496
 23
-1.0742756543
 33
0.0
 40
0.0
 40
0.0
 40
0.0
 40
0.0
 40
0.0615487969
 40
0.1161041297
 40
0.1643815026
 40
0.2085253284
 40
0.2519854641
 40
0.2984619232
 40
0.3506275712
 40
0.4096775861
 40
0.4755592739
 40
0.547335924
 40
0.6234792116
 40
0.7020906226
 40
0.7810821201
 40
0.8583376653
 40
0.9318688667
 40
1.0
 40
1.0
 40
1.0
 40
1.0
 10
-14.5339962599
 20
0.2510297098
 30
0.0
 10
-14.5363224566
 20
0.2730698345
 30
0.0
 10
-14.5376337411
 20
0.3151017038
 30
0.0
 10
-14.5278483912
 20
0.3739509409
 30
0.0
 10
-14.5060680618
 20
0.422990379
 30
0.0
 10
-14.4722720755
 20
0.4597791806
 30
0.0
 10
-14.4279483313
 20
0.4815187892
 30
0.0
 10
-14.3762383018
 20
0.4871390579
 30
0.0
 10
-14.3197285409
 20
0.4774346111
 30
0.0
 10
-14.2602580461
 20
0.4533957666
 30
0.0
 10
-14.1997416132
 20
0.4160699151
 30
0.0
 10
-14.1402754441
 20
0.366844355
 30
0.0
 10
-14.0840201932
 20
0.3075314967
 30
0.0
 10
-14.0330646253
 20
0.2403367367
 30
0.0
 10
-13.9893180672
 20
0.1677771148
 30
0.0
 10
-13.9544202388
 20
0.0925642036
 30
0.0
 10
-13.9296728412
 20
0.0175332924
 30
0.0
 10
-13.9201298315
 20
-0.0327937844
 30
0.0
 10
-13.9175548596
 20
-0.0571909904
 30
0.0
 11
-14.5339962599
 21
0.2510297098
 31
0.0
 11
-14.5354019292
 21
0.3175024763
 31
0.0
 11
-14.5249085656
 21
0.3754937397
 31
0.0
 11
-14.5029203768
 21
0.4227830049
 31
0.0
 11
-14.470281147
 21
0.4575484885
 31
0.0
 11
-14.4282457487
 21
0.4784552285
 31
0.0
 11
-14.3784298322
 21
0.4847003509
 31
0.0
 11
-14.3227473037
 21
0.4760427924
 31
0.0
 11
-14.2633381648
 21
0.4528155214
 31
0.0
 11
-14.202485576
 21
0.4159119285
 31
0.0
 11
-14.1425280063
 21
0.366749438
 31
0.0
 11
-14.085769703
 21
0.3072172057
 31
0.0
 11
-14.0343915475
 21
0.2396036887
 31
0.0
 11
-13.9903681302
 21
0.1665068816
 31
0.0
 11
-13.9553916392
 21
0.0907352765
 31
0.0
 11
-13.9308058564
 21
0.0152044399
 31
0.0
 11
-13.9175548596
 21
-0.0571909904
 31
0.0
  0
SPLINE
  5
45F
100
AcDbEntity
  8
RACCORDO
100
AcDbSpline
 62
7
  6
CONTINUOUS
 70
0
 71
3
 72
11
 73
7
 74
5
 42
0.0000001
 43
0.0000001
 44
0.0000000001
 12
-0.3339150806
 22
-0.253884838
 32
0.0
 13
0.044028094
 23
-0.4171550299
 33
0.0
 40
0.0
 40
0.0
 40
0.0
 40
0.0
 40
0.2447085088
 40
0.5072511543
 40
0.7658670197
 40
1.0
 40
1.0
 40
1.0
 40
1.0
 10
-9.7466266835
 20
14.2681260732
 30
0.0
 10
-9.7738639707
 20
14.2474168132
 30
0.0
 10
-9.8237225822
 20
14.1956028372
 30
0.0
 10
-9.8786454902
 20
14.1027238224
 30
0.0
 10
-9.9116491908
 20
14.0015423715
 30
0.0
 10
-9.9165089309
 20
13.931666819
 30
0.0
 10
-9.9130727879
 20
13.8991102356
 30
0.0
 11
-9.7466266835
 21
14.2681260732
 31
0.0
 11
-9.8188319885
 21
14.1951666098
 31
0.0
 11
-9.875221588
 21
14.1005691704
 31
0.0
 11
-9.9081266103
 21
13.9971978452
 31
0.0
 11
-9.9130727879
 21
13.8991102356
 31
0.0
  0
SPLINE
  5
460
100
AcDbEntity
  8
RACCORDO
100
AcDbSpline
 62
7
  6
CONTINUOUS
 70
0
 71
3
 72
9
 73
5
 74
3
 42
0.0000001
 43
0.0000001
 44
0.0000000001
 12
-0.3572144185
 22
0.1787563579
 32
0.0
 13
-0.2604111636
 23
0.3028894223
 33
0.0
 40
0.0
 40
0.0
 40
0.0
 40
0.0
 40
0.5023260555
 40
1.0
 40
1.0
 40
1.0
 40
1.0
 10
-6.3941967172
 20
-4.1440856777
 30
0.0
 10
-6.4540094204
 20
-4.1141543524
 30
0.0
 10
-6.5658720762
 20
-4.03970146
 30
0.0
 10
-6.6613913371
 20
-3.9459381638
 30
0.0
 10
-6.7045912874
 20
-3.8956914392
 30
0.0
 11
-6.3941967172
 21
-4.1440856777
 31
0.0
 11
-6.5622685209
 21
-4.0344824744
 31
0.0
 11
-6.7045912874
 21
-3.8956914392
 31
0.0
  0
SPLINE
  5
461
100
AcDbEntity
  8
RACCORDO
100
AcDbSpline
 62
253
  6
CONTINUOUS
 70
0
 71
3
 72
13
 73
9
 74
7
 42
0.0000001
 43
0.0000001
 44
0.0000000001
 12
-0.1534809646
 22
0.0407233311
 32
0.0
 13
-0.0166668904
 23
0.1579145686
 33
0.0
 40
0.0
 40
0.0
 40
0.0
 40
0.0
 40
0.0946782307
 40
0.1934767436
 40
0.2998645465
 40
0.4163220126
 40
0.6840006193
 40
1.0
 40
1.0
 40
1.0
 40
1.0
 10
-6.1024428134
 20
-4.2727322576
 30
0.0
 10
-6.1072865821
 20
-4.2714470533
 30
0.0
 10
-6.1168986166
 20
-4.267592471
 30
0.0
 10
-6.129968623
 20
-4.2583761447
 30
0.0
 10
-6.1416765751
 20
-4.2458765025
 30
0.0
 10
-6.1559784756
 20
-4.2240846291
 30
0.0
 10
-6.1692780994
 20
-4.189074532
 30
0.0
 10
-6.1745829423
 20
-4.1585051288
 30
0.0
 10
-6.176338518
 20
-4.1418714935
 30
0.0
 11
-6.1024428134
 21
-4.2727322576
 31
0.0
 11
-6.1164115683
 21
-4.2671736161
 31
0.0
 11
-6.1292959803
 21
-4.2582227927
 31
0.0
 11
-6.1409421117
 21
-4.2459852325
 31
0.0
 11
-6.1512106838
 21
-4.2306057623
 31
0.0
 11
-6.1671440158
 21
-4.1911999838
 31
0.0
 11
-6.176338518
 21
-4.1418714935
 31
0.0
  0
SPLINE
  5
462
100
AcDbEntity
  8
RACCORDO
100
AcDbSpline
 62
7
  6
CONTINUOUS
 70
0
 71
3
 72
14
 73
10
 74
8
 42
0.0000001
 43
0.0000001
 44
0.0000000001
 12
1.064053241
 22
-0.5320266205
 32
0.0
 13
1.1158409834
 23
0.4125051809
 33
0.0
 40
0.0
 40
0.0
 40
0.0
 40
0.0
 40
0.1089710787
 40
0.2259697336
 40
0.3496602625
 40
0.4782914838
 40
0.6098450899
 40
0.7421538012
 40
1.0
 40
1.0
 40
1.0
 40
1.0
 10
-7.4467705463
 20
10.6285366199
 30
0.0
 10
-7.4081202031
 20
10.6092114484
 30
0.0
 10
-7.3249294242
 20
10.5750706163
 30
0.0
 10
-7.1909389064
 20
10.5383485919
 30
0.0
 10
-7.0460987765
 20
10.5149568077
 30
0.0
 10
-6.8939505647
 20
10.5054687589
 30
0.0
 10
-6.7381383467
 20
10.5101056632
 30
0.0
 10
-6.5325768407
 20
10.5347544992
 30
0.0
 10
-6.3815603635
 20
10.5735866412
 30
0.0
 10
-6.2856552448
 20
10.6090409388
 30
0.0
 11
-7.4467705463
 21
10.6285366199
 31
0.0
 11
-7.3270937996
 21
10.5787041221
 31
0.0
 11
-7.1929926341
 21
10.5414221112
 31
0.0
 11
-7.0477837059
 21
10.5176114879
 31
0.0
 11
-6.8950686305
 21
10.5078640787
 31
0.0
 11
-6.7386325349
 21
10.5124207035
 31
0.0
 11
-6.582352366
 21
10.5311691892
 31
0.0
 11
-6.2856552448
 21
10.6090409388
 31
0.0
  0
SPLINE
  5
463
100
AcDbEntity
  8
ASSI
100
AcDbSpline
 62
7
  6
CONTINUOUS
 70
0
 71
3
 72
23
 73
19
 74
17
 42
0.0000001
 43
0.0000001
 44
0.0000000001
 12
0.1133830496
 22
-1.0742756543
 32
0.0
 13
-0.1133830496
 23
1.0742756543
 33
0.0
 40
0.0
 40
0.0
 40
0.0
 40
0.0
 40
0.0615487969
 40
0.1161041297
 40
0.1643815026
 40
0.2085253284
 40
0.2519854641
 40
0.2984619232
 40
0.3506275712
 40
0.4096775861
 40
0.4755592739
 40
0.547335924
 40
0.6234792116
 40
0.7020906226
 40
0.7810821201
 40
0.8583376653
 40
0.9318688667
 40
1.0
 40
1.0
 40
1.0
 40
1.0
 10
-13.9175548596
 20
-0.0571909904
 30
0.0
 10
-13.9152286628
 20
-0.0792311151
 30
0.0
 10
-13.9139173783
 20
-0.1212629844
 30
0.0
 10
-13.9237027282
 20
-0.1801122215
 30
0.0
 10
-13.9454830576
 20
-0.2291516596
 30
0.0
 10
-13.979279044
 20
-0.2659404612
 30
0.0
 10
-14.0236027881
 20
-0.2876800698
 30
0.0
 10
-14.0753128176
 20
-0.2933003385
 30
0.0
 10
-14.1318225785
 20
-0.2835958917
 30
0.0
 10
-14.1912930734
 20
-0.2595570473
 30
0.0
 10
-14.2518095062
 20
-0.2222311958
 30
0.0
 10
-14.3112756754
 20
-0.1730056356
 30
0.0
 10
-14.3675309262
 20
-0.1136927773
 30
0.0
 10
-14.4184864942
 20
-0.0464980173
 30
0.0
 10
-14.4622330522
 20
0.0260616046
 30
0.0
 10
-14.4971308807
 20
0.1012745158
 30
0.0
 10
-14.5218782782
 20
0.176305427
 30
0.0
 10
-14.531421288
 20
0.2266325038
 30
0.0
 10
-14.5339962599
 20
0.2510297098
 30
0.0
 11
-13.9175548596
 21
-0.0571909904
 31
0.0
 11
-13.9161491903
 21
-0.1236637569
 31
0.0
 11
-13.9266425538
 21
-0.1816550203
 31
0.0
 11
-13.9486307427
 21
-0.2289442855
 31
0.0
 11
-13.9812699724
 21
-0.2637097691
 31
0.0
 11
-14.0233053707
 21
-0.2846165091
 31
0.0
 11
-14.0731212873
 21
-0.2908616315
 31
0.0
 11
-14.1288038157
 21
-0.282204073
 31
0.0
 11
-14.1882129546
 21
-0.258976802
 31
0.0
 11
-14.2490655435
 21
-0.2220732091
 31
0.0
 11
-14.3090231131
 21
-0.1729107186
 31
0.0
 11
-14.3657814164
 21
-0.1133784863
 31
0.0
 11
-14.417159572
 21
-0.0457649693
 31
0.0
 11
-14.4611829893
 21
0.0273318378
 31
0.0
 11
-14.4961594802
 21
0.1031034429
 31
0.0
 11
-14.520745263
 21
0.1786342795
 31
0.0
 11
-14.5339962599
 21
0.2510297098
 31
0.0
  0
SPLINE
  5
464
100
AcDbEntity
  8
RACCORDO
100
AcDbSpline
 62
253
  6
CONTINUOUS
 70
0
 71
3
 72
15
 73
11
 74
9
 42
0.0000001
 43
0.0000001
 44
0.0000000001
 12
-1.2160464661
 22
-0.6775723068
 32
0.0
 13
-1.245109871
 23
0.6225549355
 33
0.0
 40
0.0
 40
0.0
 40
0.0
 40
0.0
 40
0.1201979176
 40
0.247422469
 40
0.3790293192
 40
0.5120481954
 40
0.643413227
 40
0.7701733732
 40
0.8897107777
 40
1.0
 40
1.0
 40
1.0
 40
1.0
 10
-2.9202837084
 20
-19.4499885547
 30
0.0
 10
-2.9690057927
 20
-19.4771361482
 30
0.0
 10
-3.0733864306
 20
-19.5258660667
 30
0.0
 10
-3.2408717337
 20
-19.5807001844
 30
0.0
 10
-3.4191906427
 20
-19.6180315619
 30
0.0
 10
-3.6023384324
 20
-19.6365930446
 30
0.0
 10
-3.7841846152
 20
-19.6357673706
 30
0.0
 10
-3.9586649442
 20
-19.6155736894
 30
0.0
 10
-4.1199280436
 20
-19.576695558
 30
0.0
 10
-4.219592735
 20
-19.5373444686
 30
0.0
 10
-4.2653668014
 20
-19.5144574353
 30
0.0
 11
-2.9202837084
 21
-19.4499885547
 31
0.0
 11
-3.071590368
 21
-19.5214294025
 31
0.0
 11
-3.2397600906
 21
-19.5769769337
 31
0.0
 11
-3.4190347915
 21
-19.6147294114
 31
0.0
 11
-3.6032641832
 21
-19.6333922584
 31
0.0
 11
-3.7861310601
 21
-19.6323240649
 31
0.0
 11
-3.9613651423
 21
-19.6115629323
 31
0.0
 11
-4.1229546881
 21
-19.571820516
 31
0.0
 11
-4.2653668014
 21
-19.5144574353
 31
0.0
  0
SPLINE
  5
465
100
AcDbEntity
  8
RACCORDO
100
AcDbSpline
 62
253
  6
CONTINUOUS
 70
0
 71
3
 72
13
 73
9
 74
7
 42
0.0000001
 43
0.0000001
 44
0.0000000001
 12
0.0138497908
 22
-0.5949443984
 32
0.0
 13
-0.5408054222
 23
-0.2483548855
 33
0.0
 40
0.0
 40
0.0
 40
0.0
 40
0.0
 40
0.3015688381
 40
0.5647616788
 40
0.6828812514
 40
0.7933580702
 40
0.8981878994
 40
1.0
 40
1.0
 40
1.0
 40
1.0
 10
-2.9202837084
 20
-19.4499885547
 30
0.0
 10
-2.9188914866
 20
-19.5097941184
 30
0.0
 10
-2.9248951154
 20
-19.6223068615
 30
0.0
 10
-2.9603891805
 20
-19.7546254838
 30
0.0
 10
-3.0056407971
 20
-19.8414654614
 30
0.0
 10
-3.0456086321
 20
-19.8945992231
 30
0.0
 10
-3.0923609276
 20
-19.9372570656
 30
0.0
 10
-3.12791205
 20
-19.9583535784
 30
0.0
 10
-3.146265562
 20
-19.9667820892
 30
0.0
 11
-2.9202837084
 21
-19.4499885547
 31
0.0
 11
-2.9319611149
 21
-19.6290735393
 31
0.0
 11
-2.9752029553
 21
-19.7796136535
 31
0.0
 11
-3.0080442034
 21
-19.8417638347
 31
0.0
 11
-3.0478477371
 21
-19.8940910034
 31
0.0
 11
-3.094114797
 21
-19.9359386377
 31
0.0
 11
-3.146265562
 21
-19.9667820892
 31
0.0
  0
SPLINE
  5
466
100
AcDbEntity
  8
RACCORDO
100
AcDbSpline
 62
253
  6
CONTINUOUS
 70
0
 71
3
 72
12
 73
8
 74
6
 42
0.0000001
 43
0.0000001
 44
0.0000000001
 12
-0.4118775873
 22
-0.1700642109
 32
0.0
 13
0.0467711649
 23
-0.4431449434
 33
0.0
 40
0.0
 40
0.0
 40
0.0
 40
0.0
 40
0.2538041106
 40
0.5164879283
 40
0.6457307419
 40
0.7704980259
 40
1.0
 40
1.0
 40
1.0
 40
1.0
 10
-17.3460615539
 20
2.3735681469
 30
0.0
 10
-17.3809069621
 20
2.3591804816
 30
0.0
 10
-17.4470475213
 20
2.3176190398
 30
0.0
 10
-17.5115816246
 20
2.244931414
 30
0.0
 10
-17.5492083135
 20
2.1776998066
 30
0.0
 10
-17.5744201976
 20
2.1103253085
 30
0.0
 10
-17.5806851644
 20
2.0564510226
 30
0.0
 10
-17.5771071395
 20
2.0225501428
 30
0.0
 11
-17.3460615539
 21
2.3735681469
 31
0.0
 11
-17.4424034364
 21
2.3143304211
 31
0.0
 11
-17.5201433273
 21
2.2268201542
 31
0.0
 11
-17.5481743944
 21
2.1765108098
 31
0.0
 11
-17.5674448341
 21
2.1243601966
 31
0.0
 11
-17.5771071395
 21
2.0225501428
 31
0.0
  0
SPLINE
  5
467
100
AcDbEntity
  8
RACCORDO
100
AcDbSpline
 62
253
  6
CONTINUOUS
 70
0
 71
3
 72
9
 73
5
 74
3
 42
0.0000001
 43
0.0000001
 44
0.0000000001
 12
0.0969153607
 22
-0.0868749192
 32
0.0
 13
0.1164125035
 23
-0.0582062518
 33
0.0
 40
0.0
 40
0.0
 40
0.0
 40
0.0
 40
0.2366441352
 40
1.0
 40
1.0
 40
1.0
 40
1.0
 10
-17.5771071395
 20
2.0225501428
 30
0.0
 10
-17.5694623223
 20
2.0156973294
 30
0.0
 10
-17.5360204019
 20
1.9880102177
 30
0.0
 10
-17.498585195
 20
1.9653428401
 30
0.0
 10
-17.4689638059
 20
1.9505321455
 30
0.0
 11
-17.5771071395
 21
2.0225501428
 31
0.0
 11
-17.5534110278
 21
2.0028744516
 31
0.0
 11
-17.4689638059
 21
1.9505321455
 31
0.0
  0
SPLINE
  5
468
100
AcDbEntity
  8
RACCORDO
100
AcDbSpline
 62
253
  6
CONTINUOUS
 70
0
 71
3
 72
11
 73
7
 74
5
 42
0.0000001
 43
0.0000001
 44
0.0000000001
 12
-0.3049352479
 22
-0.2601392252
 32
0.0
 13
0.0420705258
 23
-0.3986075674
 33
0.0
 40
0.0
 40
0.0
 40
0.0
 40
0.0
 40
0.2482995437
 40
0.5107250386
 40
0.7673922968
 40
1.0
 40
1.0
 40
1.0
 40
1.0
 10
-17.317163609
 20
2.3077389432
 30
0.0
 10
-17.3424020366
 20
2.2862081262
 30
0.0
 10
-17.3882253334
 20
2.234581387
 30
0.0
 10
-17.4384482895
 20
2.144374828
 30
0.0
 10
-17.4681718136
 20
2.047684157
 30
0.0
 10
-17.472225782
 20
1.9814385425
 30
0.0
 10
-17.4689638059
 20
1.9505321455
 30
0.0
 11
-17.317163609
 21
2.3077389432
 31
0.0
 11
-17.3840274491
 21
2.2340218104
 31
0.0
 11
-17.435388433
 21
2.1422280143
 31
0.0
 11
-17.464914721
 21
2.043678362
 31
0.0
 11
-17.4689638059
 21
1.9505321455
 31
0.0
  0
SPLINE
  5
469
100
AcDbEntity
  8
RACCORDO
100
AcDbSpline
 62
253
  6
CONTINUOUS
 70
0
 71
3
 72
9
 73
5
 74
3
 42
0.0000001
 43
0.0000001
 44
0.0000000001
 12
0.0226940568
 22
-0.0203429501
 32
0.0
 13
0.0250315264
 23
-0.0173861588
 33
0.0
 40
0.0
 40
0.0
 40
0.0
 40
0.0
 40
0.2441076129
 40
1.0
 40
1.0
 40
1.0
 40
1.0
 10
-17.3460615539
 20
2.3735681469
 30
0.0
 10
-17.3442149566
 20
2.3719128572
 30
0.0
 10
-17.3365379102
 20
2.365257763
 30
0.0
 10
-17.3284316457
 20
2.3591020397
 30
0.0
 10
-17.3221245989
 20
2.3547213513
 30
0.0
 11
-17.3460615539
 21
2.3735681469
 31
0.0
 11
-17.3404413292
 21
2.3686934957
 31
0.0
 11
-17.3221245989
 21
2.3547213513
 31
0.0
  0
SPLINE
  5
46A
100
AcDbEntity
  8
RACCORDO
100
AcDbSpline
 62
253
  6
CONTINUOUS
 70
0
 71
3
 72
10
 73
6
 74
4
 42
0.0000001
 43
0.0000001
 44
0.0000000001
 12
-0.1764813736
 22
0.158209851
 32
0.0
 13
-0.0277468895
 23
0.2353850937
 33
0.0
 40
0.0
 40
0.0
 40
0.0
 40
0.0
 40
0.2398118005
 40
0.4848478783
 40
1.0
 40
1.0
 40
1.0
 40
1.0
 10
-17.525402356
 20
1.5326604255
 30
0.0
 10
-17.5395097947
 20
1.5453072886
 30
0.0
 10
-17.565356807
 20
1.574034755
 30
0.0
 10
-17.6056174295
 20
1.6424630618
 30
0.0
 10
-17.6210781566
 20
1.7019850694
 30
0.0
 10
-17.6258427796
 20
1.7424047795
 30
0.0
 11
-17.525402356
 21
1.5326604255
 31
0.0
 11
-17.5635305214
 21
1.5748138327
 31
0.0
 11
-17.5931688237
 21
1.6247591081
 31
0.0
 11
-17.6258427796
 21
1.7424047795
 31
0.0
  0
SPLINE
  5
46B
100
AcDbEntity
  8
RACCORDO
100
AcDbSpline
 62
253
  6
CONTINUOUS
 70
0
 71
3
 72
11
 73
7
 74
5
 42
0.0000001
 43
0.0000001
 44
0.0000000001
 12
-0.1414764561
 22
0.0707477102
 32
0.0
 13
-0.0166026606
 23
0.1573060005
 33
0.0
 40
0.0
 40
0.0
 40
0.0
 40
0.0
 40
0.2231354542
 40
0.4588783181
 40
0.7163661798
 40
1.0
 40
1.0
 40
1.0
 40
1.0
 10
-6.2392956136
 20
-4.221535583
 30
0.0
 10
-6.249818418
 20
-4.2162734755
 30
0.0
 10
-6.2698372068
 20
-4.2018838458
 30
0.0
 10
-6.2928974999
 20
-4.171384872
 30
0.0
 10
-6.3087784172
 20
-4.1332444308
 30
0.0
 10
-6.3141128657
 20
-4.105018238
 30
0.0
 10
-6.3156825578
 20
-4.0901458041
 30
0.0
 11
-6.2392956136
 21
-4.221535583
 31
0.0
 11
-6.2680464947
 21
-4.2010621972
 31
0.0
 11
-6.2908737734
 21
-4.1715759258
 31
0.0
 11
-6.306947123
 21
-4.1341522945
 31
0.0
 11
-6.3156825578
 21
-4.0901458041
 31
0.0
  0
SPLINE
  5
46C
100
AcDbEntity
  8
RACCORDO
100
AcDbSpline
 62
7
  6
CONTINUOUS
 70
0
 71
3
 72
12
 73
8
 74
6
 42
0.0000001
 43
0.0000001
 44
0.0000000001
 12
-0.15500652
 22
-0.0431079328
 32
0.0
 13
-0.1440000411
 23
0.071758646
 33
0.0
 40
0.0
 40
0.0
 40
0.0
 40
0.0
 40
0.3280122162
 40
0.6037243764
 40
0.7216553463
 40
0.8264492644
 40
1.0
 40
1.0
 40
1.0
 40
1.0
 10
-17.0283502927
 20
1.2661880634
 30
0.0
 10
-17.0452983035
 20
1.2614747539
 30
0.0
 10
-17.0766731278
 20
1.2534215245
 30
0.0
 10
-17.1148123252
 20
1.2464846086
 30
0.0
 10
-17.1415199502
 20
1.2444334977
 30
0.0
 10
-17.1627231561
 20
1.2447778382
 30
0.0
 10
-17.1778278374
 20
1.2477438459
 30
0.0
 10
-17.1861582751
 20
1.2518951012
 30
0.0
 11
-17.0283502927
 21
1.2661880634
 31
0.0
 11
-17.0795480714
 21
1.2533880381
 31
0.0
 11
-17.1232925769
 21
1.2460295536
 31
0.0
 11
-17.1422190902
 21
1.2446906575
 31
0.0
 11
-17.1590742205
 21
1.2451042249
 31
0.0
 11
-17.1861582751
 21
1.2518951012
 31
0.0
  0
SPLINE
  5
46D
100
AcDbEntity
  8
RACCORDO
100
AcDbSpline
 62
253
  6
CONTINUOUS
 70
0
 71
3
 72
13
 73
9
 74
7
 42
0.0000001
 43
0.0000001
 44
0.0000000001
 12
0.0336943734
 22
-0.38054793
 32
0.0
 13
-0.3365049209
 23
-0.1808769638
 33
0.0
 40
0.0
 40
0.0
 40
0.0
 40
0.0
 40
0.3066139093
 40
0.5711103311
 40
0.6885721618
 40
0.7976413445
 40
0.9004887669
 40
1.0
 40
1.0
 40
1.0
 40
1.0
 10
-5.1351074228
 20
1.5349047226
 30
0.0
 10
-5.1316637017
 20
1.4960109598
 30
0.0
 10
-5.1304729153
 20
1.4229223907
 30
0.0
 10
-5.146760632
 20
1.3357870506
 30
0.0
 10
-5.1712959893
 20
1.278014861
 30
0.0
 10
-5.1939583467
 20
1.2424510117
 30
0.0
 10
-5.2213848421
 20
1.2134532892
 30
0.0
 10
-5.2428122625
 20
1.1987190094
 30
0.0
 10
-5.253974269
 20
1.1927192461
 30
0.0
 11
-5.1351074228
 21
1.5349047226
 31
0.0
 11
-5.1346221298
 21
1.4177679627
 31
0.0
 11
-5.155058059
 21
1.3188086904
 31
0.0
 11
-5.1728625898
 21
1.2776171857
 31
0.0
 11
-5.1954677968
 21
1.242613433
 31
0.0
 11
-5.2226102013
 21
1.2142037335
 31
0.0
 11
-5.253974269
 21
1.1927192461
 31
0.0
  0
SPLINE
  5
46E
100
AcDbEntity
  8
RACCORDO
100
AcDbSpline
 62
253
  6
CONTINUOUS
 70
0
 71
3
 72
15
 73
11
 74
9
 42
0.0000001
 43
0.0000001
 44
0.0000000001
 12
1.2449044848
 22
-0.6224388148
 32
0.0
 13
1.2189005224
 23
0.6719365826
 33
0.0
 40
0.0
 40
0.0
 40
0.0
 40
0.0
 40
0.110332762
 40
0.2299454103
 40
0.356784224
 40
0.4882105328
 40
0.6212541989
 40
0.7528337866
 40
0.879967741
 40
1.0
 40
1.0
 40
1.0
 40
1.0
 10
-6.4806024416
 20
1.4743387335
 30
0.0
 10
-6.4348178581
 20
1.4514469356
 30
0.0
 10
-6.3351410624
 20
1.4120402324
 30
0.0
 10
-6.173869802
 20
1.3729463628
 30
0.0
 10
-5.9993648791
 20
1.3523973436
 30
0.0
 10
-5.8174796119
 20
1.3510943263
 30
0.0
 10
-5.634280435
 20
1.3690671116
 30
0.0
 10
-5.4559003147
 20
1.4057237576
 30
0.0
 10
-5.2883461061
 20
1.4598148239
 30
0.0
 10
-5.1838765506
 20
1.5080200339
 30
0.0
 10
-5.1351074228
 20
1.5349047226
 30
0.0
 11
-6.4806024416
 21
1.4743387335
 31
0.0
 11
-6.3381825631
 21
1.4169023283
 31
0.0
 11
-6.1765678397
 21
1.3769422481
 31
0.0
 11
-6.0012958903
 21
1.3558268755
 31
0.0
 11
-5.8183780913
 21
1.3542810272
 31
0.0
 11
-5.6340870124
 21
1.3723569524
 31
0.0
 11
-5.4547420913
 21
1.4094353234
 31
0.0
 11
-5.2864941263
 21
1.4642435964
 31
0.0
 11
-5.1351074228
 21
1.5349047226
 31
0.0
  0
SPLINE
  5
46F
100
AcDbEntity
  8
RACCORDO
100
AcDbSpline
 62
253
  6
CONTINUOUS
 70
0
 71
3
 72
12
 73
8
 74
6
 42
0.0000001
 43
0.0000001
 44
0.0000000001
 12
0.038765089
 22
-0.3672893838
 32
0.0
 13
0.3303410115
 23
-0.1651636753
 33
0.0
 40
0.0
 40
0.0
 40
0.0
 40
0.0
 40
0.283445699
 40
0.5407677864
 40
0.7763534636
 40
0.8890043824
 40
1.0
 40
1.0
 40
1.0
 40
1.0
 10
-6.4806024416
 20
1.4743387335
 30
0.0
 10
-6.4769398423
 20
1.4396365348
 30
0.0
 10
-6.4644775067
 20
1.373769016
 30
0.0
 10
-6.4274824452
 20
1.2847993311
 30
0.0
 10
-6.3818067485
 20
1.2245333763
 30
0.0
 10
-6.3382879996
 20
1.1881495702
 30
0.0
 10
-6.3145885182
 20
1.1738731052
 30
0.0
 10
-6.3023663834
 20
1.1677622904
 30
0.0
 11
-6.4806024416
 21
1.4743387335
 31
0.0
 11
-6.460219671
 21
1.3716573928
 31
0.0
 11
-6.4227155026
 21
1.2843338784
 31
0.0
 11
-6.3694522817
 21
1.2155331002
 31
0.0
 11
-6.3374953768
 21
1.1888918327
 31
0.0
 11
-6.3023663834
 21
1.1677622904
 31
0.0
  0
SPLINE
  5
470
100
AcDbEntity
  8
RACCORDO
100
AcDbSpline
 62
253
  6
CONTINUOUS
 70
0
 71
3
 72
9
 73
5
 74
3
 42
0.0000001
 43
0.0000001
 44
0.0000000001
 12
-0.1163983481
 22
0.0581991741
 32
0.0
 13
-0.0969035761
 23
0.0868643555
 33
0.0
 40
0.0
 40
0.0
 40
0.0
 40
0.0
 40
0.2640081901
 40
1.0
 40
1.0
 40
1.0
 40
1.0
 10
-17.4172590224
 20
1.4606424282
 30
0.0
 10
-17.4275023948
 20
1.4657641144
 30
0.0
 10
-17.4657302025
 20
1.486250364
 30
0.0
 10
-17.5016289432
 20
1.5113499408
 30
0.0
 10
-17.525402356
 20
1.5326604255
 30
0.0
 11
-17.4172590224
 21
1.4606424282
 31
0.0
 11
-17.4475249667
 21
1.4769027402
 31
0.0
 11
-17.525402356
 21
1.5326604255
 31
0.0
  0
SPLINE
  5
471
100
AcDbEntity
  8
RACCORDO
100
AcDbSpline
 62
253
  6
CONTINUOUS
 70
0
 71
3
 72
14
 73
10
 74
8
 42
0.0000001
 43
0.0000001
 44
0.0000000001
 12
-0.2981245019
 22
-0.3144782847
 32
0.0
 13
0.0454829207
 23
-0.4309363226
 33
0.0
 40
0.0
 40
0.0
 40
0.0
 40
0.0
 40
0.1061254961
 40
0.2246204732
 40
0.3525990463
 40
0.4864445067
 40
0.7553391515
 40
0.8825599954
 40
1.0
 40
1.0
 40
1.0
 40
1.0
 10
-6.103063733
 20
-3.2479307636
 30
0.0
 10
-6.1136099366
 20
-3.2590554849
 30
0.0
 10
-6.1338771126
 20
-3.2845713957
 30
0.0
 10
-6.160295711
 20
-3.3282263618
 30
0.0
 10
-6.1836582917
 20
-3.3780568922
 30
0.0
 10
-6.2095286901
 20
-3.4502926124
 30
0.0
 10
-6.2258331887
 20
-3.5256118299
 30
0.0
 10
-6.2311193143
 20
-3.5996908865
 30
0.0
 10
-6.2298238063
 20
-3.635112055
 30
0.0
 10
-6.2280433015
 20
-3.6519817762
 30
0.0
 11
-6.103063733
 21
-3.2479307636
 31
0.0
 11
-6.1319937193
 21
-3.2836783844
 31
0.0
 11
-6.158816288
 21
-3.3274631662
 31
0.0
 11
-6.1825045089
 21
-3.3776063688
 31
0.0
 11
-6.202145781
 21
-3.4321786366
 31
0.0
 11
-6.2264549741
 21
-3.5461347464
 31
0.0
 11
-6.2301887709
 21
-3.6011367549
 31
0.0
 11
-6.2280433015
 21
-3.6519817762
 31
0.0
  0
SPLINE
  5
472
100
AcDbEntity
  8
RACCORDO
100
AcDbSpline
 62
253
  6
CONTINUOUS
 70
0
 71
3
 72
13
 73
9
 74
7
 42
0.0000001
 43
0.0000001
 44
0.0000000001
 12
0.8548459897
 22
-0.2268080895
 32
0.0
 13
0.8823037055
 23
0.0611861647
 33
0.0
 40
0.0
 40
0.0
 40
0.0
 40
0.0
 40
0.2650949089
 40
0.5389191589
 40
0.6687267869
 40
0.790089518
 40
0.9010317769
 40
1.0
 40
1.0
 40
1.0
 40
1.0
 10
-6.2280433014
 20
-3.6519817762
 30
0.0
 10
-6.1525048615
 20
-3.6720236661
 30
0.0
 10
-5.9980352667
 20
-3.7094748683
 30
0.0
 10
-5.803933406
 20
-3.7448794293
 30
0.0
 10
-5.6503587043
 20
-3.7643700667
 30
0.0
 10
-5.5439491382
 20
-3.773390024
 30
0.0
 10
-5.4463058741
 20
-3.7768666873
 30
0.0
 10
-5.3843815992
 20
-3.775184811
 30
0.0
 10
-5.3552749225
 20
-3.7731663156
 30
0.0
 11
-6.2280433014
 21
-3.6519817762
 31
0.0
 11
-6.000064338
 21
-3.7067101194
 31
0.0
 11
-5.7617099843
 21
-3.7495657733
 31
0.0
 11
-5.6477990311
 21
-3.7638640543
 31
0.0
 11
-5.5408303325
 21
-3.7727356687
 31
0.0
 11
-5.4427617457
 21
-3.7759071759
 31
0.0
 11
-5.3552749225
 21
-3.7731663156
 31
0.0
  0
SPLINE
  5
473
100
AcDbEntity
  8
ASSI
100
AcDbSpline
 62
7
  6
CONTINUOUS
 70
0
 71
3
 72
9
 73
5
 74
3
 42
0.0000001
 43
0.0000001
 44
0.0000000001
 12
-0.2010547375
 22
-0.1307619322
 32
0.0
 13
-0.2284187451
 23
-0.0731202248
 33
0.0
 40
0.0
 40
0.0
 40
0.0
 40
0.0
 40
0.2370225379
 40
1.0
 40
1.0
 40
1.0
 40
1.0
 10
-5.7957085924
 20
-3.0905262029
 30
0.0
 10
-5.8115934271
 20
-3.1008573779
 30
0.0
 10
-5.8804988572
 20
-3.1415663113
 30
0.0
 10
-5.9554933612
 20
-3.1711399907
 30
0.0
 10
-6.0135861461
 20
-3.1897363519
 30
0.0
 11
-5.7957085924
 21
-3.0905262029
 31
0.0
 11
-5.8445997892
 21
-3.1195296723
 31
0.0
 11
-6.0135861461
 21
-3.1897363519
 31
0.0
  0
SPLINE
  5
474
100
AcDbEntity
  8
RACCORDO
100
AcDbSpline
 62
7
  6
CONTINUOUS
 70
0
 71
3
 72
12
 73
8
 74
6
 42
0.0000001
 43
0.0000001
 44
0.0000000001
 12
-0.9361385744
 22
-0.6102003601
 32
0.0
 13
-0.8958763618
 23
-0.6679112623
 33
0.0
 40
0.0
 40
0.0
 40
0.0
 40
0.0
 40
0.1365486309
 40
0.283752676
 40
0.5675806537
 40
0.8096977427
 40
1.0
 40
1.0
 40
1.0
 40
1.0
 10
-5.2281708098
 20
-8.5552933624
 30
0.0
 10
-5.2707802901
 20
-8.5830673703
 30
0.0
 10
-5.3589212884
 20
-8.6414011864
 30
0.0
 10
-5.5341654517
 20
-8.7596648698
 30
0.0
 10
-5.7405387058
 20
-8.9020851008
 30
0.0
 10
-5.9583441043
 20
-9.0561631303
 30
0.0
 10
-6.0886391813
 20
-9.1508718731
 30
0.0
 10
-6.1454682793
 20
-9.1932402134
 30
0.0
 11
-5.2281708098
 21
-8.5552933624
 31
0.0
 11
-5.3554885772
 21
-8.6393936359
 31
0.0
 11
-5.4918724641
 21
-8.7313585876
 31
0.0
 11
-5.7529455468
 21
-8.911453045
 31
0.0
 11
-5.9737242817
 21
-9.0678384469
 31
0.0
 11
-6.1454682793
 21
-9.1932402134
 31
0.0
  0
SPLINE
  5
475
100
AcDbEntity
  8
RACCORDO
100
AcDbSpline
 62
253
  6
CONTINUOUS
 70
0
 71
3
 72
15
 73
11
 74
9
 42
0.0000001
 43
0.0000001
 44
0.0000000001
 12
-0.1073222105
 22
1.0168507395
 32
0.0
 13
0.848625716
 23
0.5703839736
 33
0.0
 40
0.0
 40
0.0
 40
0.0
 40
0.0
 40
0.1137514707
 40
0.2359668003
 40
0.3644779044
 40
0.4965258243
 40
0.6290586756
 40
0.7589853006
 40
0.8834256443
 40
1.0
 40
1.0
 40
1.0
 40
1.0
 10
-5.3106516419
 20
-9.6106485321
 30
0.0
 10
-5.314720995
 20
-9.5720924431
 30
0.0
 10
-5.3158694973
 20
-9.4912538692
 30
0.0
 10
-5.299234983
 20
-9.3677802854
 30
0.0
 10
-5.2649895383
 20
-9.2415282625
 30
0.0
 10
-5.2143847085
 20
-9.117134257
 30
0.0
 10
-5.1492828793
 20
-8.9991280536
 30
0.0
 10
-5.0720478731
 20
-8.8918254563
 30
0.0
 10
-4.985526338
 20
-8.7991658177
 30
0.0
 10
-4.9212295309
 20
-8.7474160493
 30
0.0
 10
-4.8882535322
 20
-8.7252520012
 30
0.0
 11
-5.3106516419
 21
-9.6106485321
 31
0.0
 11
-5.3130587434
 21
-9.4943627179
 31
0.0
 11
-5.2969113947
 21
-9.3704453395
 31
0.0
 11
-5.2628169656
 21
-9.2435431389
 31
0.0
 11
-5.212055836
 21
-9.1184296331
 31
0.0
 11
-5.1465368924
 21
-8.9998063158
 31
0.0
 11
-5.0687212841
 21
-8.8921318063
 31
0.0
 11
-4.9815374767
 21
-8.7994548271
 31
0.0
 11
-4.8882535322
 21
-8.7252520012
 31
0.0
  0
SPLINE
  5
476
100
AcDbEntity
  8
RACCORDO
100
AcDbSpline
 62
253
  6
CONTINUOUS
 70
0
 71
3
 72
15
 73
11
 74
9
 42
0.0000001
 43
0.0000001
 44
0.0000000001
 12
-1.2132000456
 22
-0.6831623776
 32
0.0
 13
-1.2453379904
 23
0.6226543781
 33
0.0
 40
0.0
 40
0.0
 40
0.0
 40
0.0
 40
0.1203614316
 40
0.2476778726
 40
0.3793113139
 40
0.5123051606
 40
0.643609206
 40
0.7702907781
 40
0.8897552447
 40
1.0
 40
1.0
 40
1.0
 40
1.0
 10
-3.9659804746
 20
-9.5422767599
 30
0.0
 10
-4.0146546394
 20
-9.5696855605
 30
0.0
 10
-4.1189441927
 20
-9.6189408347
 30
0.0
 10
-4.286358952
 20
-9.6745165148
 30
0.0
 10
-4.4646154247
 20
-9.7125255417
 30
0.0
 10
-4.6477115574
 20
-9.7316733311
 30
0.0
 10
-4.829519149
 20
-9.7313289018
 30
0.0
 10
-5.0039768444
 20
-9.7114885179
 30
0.0
 10
-5.1652342368
 20
-9.6728275953
 30
0.0
 10
-5.2648876479
 20
-9.6335299919
 30
0.0
 10
-5.3106516419
 20
-9.6106485321
 30
0.0
 11
-3.9659804746
 21
-9.5422767599
 31
0.0
 11
-4.1172027653
 21
-9.614495655
 31
0.0
 11
-4.2852946399
 21
-9.6707828456
 31
0.0
 11
-4.4644971602
 21
-9.7092104282
 31
0.0
 11
-4.6486644047
 21
-9.7284596534
 31
0.0
 11
-4.8314811863
 21
-9.7278709189
 31
0.0
 11
-5.0066784021
 21
-9.7074636277
 31
0.0
 11
-5.1682472343
 21
-9.6679383555
 31
0.0
 11
-5.3106516419
 21
-9.6106485321
 31
0.0
  0
SPLINE
  5
477
100
AcDbEntity
  8
RACCORDO
100
AcDbSpline
 62
253
  6
CONTINUOUS
 70
0
 71
3
 72
11
 73
7
 74
5
 42
0.0000001
 43
0.0000001
 44
0.0000000001
 12
-0.3612816686
 22
-0.2084466873
 32
0.0
 13
-0.3730721994
 23
0.1865250642
 33
0.0
 40
0.0
 40
0.0
 40
0.0
 40
0.0
 40
0.2482648301
 40
0.5130028975
 40
0.770728787
 40
1.0
 40
1.0
 40
1.0
 40
1.0
 10
-4.48514053
 20
-8.7020084455
 30
0.0
 10
-4.515038374
 20
-8.7192584393
 30
0.0
 10
-4.5820733562
 20
-8.7460150815
 30
0.0
 10
-4.688529207
 20
-8.7635398248
 30
0.0
 10
-4.7936682678
 20
-8.7588292837
 30
0.0
 10
-4.8597419603
 20
-8.7395069438
 30
0.0
 10
-4.8882535322
 20
-8.7252520012
 30
0.0
 11
-4.48514053
 21
-8.7020084455
 31
0.0
 11
-4.5808160857
 21
-8.741621301
 31
0.0
 11
-4.6897309283
 21
-8.759808493
 31
0.0
 11
-4.7970770401
 21
-8.7540940776
 31
0.0
 11
-4.8882535322
 21
-8.7252520012
 31
0.0
  0
SPLINE
  5
478
100
AcDbEntity
  8
RACCORDO
100
AcDbSpline
 62
253
  6
CONTINUOUS
 70
0
 71
3
 72
15
 73
11
 74
9
 42
0.0000001
 43
0.0000001
 44
0.0000000001
 12
-0.123732573
 22
1.0071391012
 32
0.0
 13
-0.8658143756
 23
0.5291544064
 33
0.0
 40
0.0
 40
0.0
 40
0.0
 40
0.0
 40
0.1160418352
 40
0.2418888387
 40
0.3742269824
 40
0.5092652298
 40
0.6430361933
 40
0.7716562533
 40
0.8915944627
 40
1.0
 40
1.0
 40
1.0
 40
1.0
 10
-3.9659804746
 20
-9.5422767599
 30
0.0
 10
-3.9707665262
 20
-9.5033200034
 30
0.0
 10
-3.9867307298
 20
-9.4228029345
 30
0.0
 10
-4.0254969138
 20
-9.3020794857
 30
0.0
 10
-4.078829478
 20
-9.1800020398
 30
0.0
 10
-4.1447413471
 20
-9.0611792113
 30
0.0
 10
-4.22075475
 20
-8.9500657028
 30
0.0
 10
-4.3040263512
 20
-8.8508178099
 30
0.0
 10
-4.3914053918
 20
-8.7671406967
 30
0.0
 10
-4.4538541725
 20
-8.7211295347
 30
0.0
 10
-4.48514053
 20
-8.7020084455
 30
0.0
 11
-3.9659804746
 21
-9.5422767599
 31
0.0
 11
-3.9881763121
 21
-9.4266386981
 31
0.0
 11
-4.0267898261
 21
-9.3049182387
 31
0.0
 11
-4.0803417774
 21
-9.1817734029
 31
0.0
 11
-4.1467780862
 21
-9.0619317551
 31
0.0
 11
-4.2235497807
 21
-8.9499891078
 31
0.0
 11
-4.3077131713
 21
-8.850239603
 31
0.0
 11
-4.3960365588
 21
-8.766510789
 31
0.0
 11
-4.48514053
 21
-8.7020084455
 31
0.0
  0
SPLINE
  5
479
100
AcDbEntity
  8
ASSI
100
AcDbSpline
 62
7
  6
CONTINUOUS
 70
0
 71
3
 72
23
 73
19
 74
17
 42
0.0000001
 43
0.0000001
 44
0.0000000001
 12
-0.1133830496
 22
1.0742756543
 32
0.0
 13
0.1133830496
 23
-1.0742756543
 33
0.0
 40
0.0
 40
0.0
 40
0.0
 40
0.0
 40
0.0615487969
 40
0.1161041297
 40
0.1643815026
 40
0.2085253284
 40
0.2519854641
 40
0.2984619232
 40
0.3506275712
 40
0.4096775861
 40
0.4755592739
 40
0.547335924
 40
0.6234792116
 40
0.7020906226
 40
0.7810821201
 40
0.8583376653
 40
0.9318688667
 40
1.0
 40
1.0
 40
1.0
 40
1.0
 10
-7.8760919757
 20
6.9762196216
 30
0.0
 10
-7.8784181724
 20
6.9982597463
 30
0.0
 10
-7.8797294569
 20
7.0402916156
 30
0.0
 10
-7.869944107
 20
7.0991408527
 30
0.0
 10
-7.8481637776
 20
7.1481802908
 30
0.0
 10
-7.8143677912
 20
7.1849690924
 30
0.0
 10
-7.7700440471
 20
7.206708701
 30
0.0
 10
-7.7183340176
 20
7.2123289697
 30
0.0
 10
-7.6618242567
 20
7.2026245229
 30
0.0
 10
-7.6023537619
 20
7.1785856785
 30
0.0
 10
-7.541837329
 20
7.141259827
 30
0.0
 10
-7.4823711599
 20
7.0920342668
 30
0.0
 10
-7.426115909
 20
7.0327214085
 30
0.0
 10
-7.3751603411
 20
6.9655266485
 30
0.0
 10
-7.331413783
 20
6.8929670266
 30
0.0
 10
-7.2965159545
 20
6.8177541154
 30
0.0
 10
-7.271768557
 20
6.7427232042
 30
0.0
 10
-7.2622255472
 20
6.6923961274
 30
0.0
 10
-7.2596505754
 20
6.6679989214
 30
0.0
 11
-7.8760919757
 21
6.9762196216
 31
0.0
 11
-7.877497645
 21
7.0426923881
 31
0.0
 11
-7.8670042814
 21
7.1006836515
 31
0.0
 11
-7.8450160926
 21
7.1479729167
 31
0.0
 11
-7.8123768628
 21
7.1827384003
 31
0.0
 11
-7.7703414645
 21
7.2036451403
 31
0.0
 11
-7.7205255479
 21
7.2098902627
 31
0.0
 11
-7.6648430195
 21
7.2012327042
 31
0.0
 11
-7.6054338806
 21
7.1780054332
 31
0.0
 11
-7.5445812917
 21
7.1411018403
 31
0.0
 11
-7.4846237221
 21
7.0919393498
 31
0.0
 11
-7.4278654188
 21
7.0324071175
 31
0.0
 11
-7.3764872632
 21
6.9647936005
 31
0.0
 11
-7.332463846
 21
6.8916967934
 31
0.0
 11
-7.297487355
 21
6.8159251883
 31
0.0
 11
-7.2729015722
 21
6.7403943517
 31
0.0
 11
-7.2596505754
 21
6.6679989214
 31
0.0
  0
SPLINE
  5
47A
100
AcDbEntity
  8
RACCORDO
100
AcDbSpline
 62
253
  6
CONTINUOUS
 70
0
 71
3
 72
15
 73
11
 74
9
 42
0.0000001
 43
0.0000001
 44
0.0000000001
 12
0.8636789137
 22
-0.3191057193
 32
0.0
 13
0.6126767365
 23
-0.6873113869
 33
0.0
 40
0.0
 40
0.0
 40
0.0
 40
0.0
 40
0.1243598129
 40
0.2588541769
 40
0.3977248472
 40
0.5356209956
 40
0.6680608598
 40
0.7914459118
 40
0.9028868402
 40
1.0
 40
1.0
 40
1.0
 40
1.0
 10
-6.103063733
 20
-3.2479307636
 30
0.0
 10
-6.067261417
 20
-3.2611587394
 30
0.0
 10
-5.9943418638
 20
-3.2930652598
 30
0.0
 10
-5.8866726233
 20
-3.3507517467
 30
0.0
 10
-5.7792853009
 20
-3.4172215792
 30
0.0
 10
-5.6760800692
 20
-3.4888773579
 30
0.0
 10
-5.5801830394
 20
-3.5624741704
 30
0.0
 10
-5.4940266243
 20
-3.6352214875
 30
0.0
 10
-5.4194220033
 20
-3.7046599613
 30
0.0
 10
-5.3751079138
 20
-3.7509173221
 30
0.0
 10
-5.3552749225
 20
-3.7731663156
 30
0.0
 11
-6.103063733
 21
-3.2479307636
 31
0.0
 11
-5.9978532867
 21
-3.2931173609
 31
0.0
 11
-5.8884923056
 21
-3.3512143215
 31
0.0
 11
-5.7796516147
 21
-3.4183186928
 31
0.0
 11
-5.6753118376
 21
-3.4906640248
 31
0.0
 11
-5.5785931075
 21
-3.564931363
 31
0.0
 11
-5.4918622611
 21
-3.6383077711
 31
0.0
 11
-5.4169325266
 21
-3.7084080949
 31
0.0
 11
-5.3552749225
 21
-3.7731663156
 31
0.0
  0
SPLINE
  5
47B
100
AcDbEntity
  8
RACCORDO
100
AcDbSpline
 62
7
  6
CONTINUOUS
 70
0
 71
3
 72
12
 73
8
 74
6
 42
0.0000001
 43
0.0000001
 44
0.0000000001
 12
0.5556485366
 22
0.1545280791
 32
0.0
 13
0.5638537264
 23
0.121215505
 33
0.0
 40
0.0
 40
0.0
 40
0.0
 40
0.0
 40
0.1940114317
 40
0.428492512
 40
0.7002255439
 40
0.8477690201
 40
1.0
 40
1.0
 40
1.0
 40
1.0
 10
-6.7562960709
 20
-3.4058017219
 30
0.0
 10
-6.7203620149
 20
-3.3958083173
 30
0.0
 10
-6.641899448
 20
-3.3705773684
 30
0.0
 10
-6.5147164466
 20
-3.3265250609
 30
0.0
 10
-6.3955828314
 20
-3.2864030265
 30
0.0
 10
-6.29023923
 20
-3.2551449039
 30
0.0
 10
-6.2343134025
 20
-3.2410806976
 30
0.0
 10
-6.2057014007
 20
-3.2349297793
 30
0.0
 11
-6.7562960709
 21
-3.4058017219
 31
0.0
 11
-6.6494401145
 21
-3.3726064625
 31
0.0
 11
-6.5214176713
 21
-3.3290359234
 31
0.0
 11
-6.3725826189
 21
-3.2799572703
 31
0.0
 11
-6.290941041
 21
-3.2559661219
 31
0.0
 11
-6.2057014007
 21
-3.2349297793
 31
0.0
  0
SPLINE
  5
47C
100
AcDbEntity
  8
RACCORDO
100
AcDbSpline
 62
253
  6
CONTINUOUS
 70
0
 71
3
 72
12
 73
8
 74
6
 42
0.0000001
 43
0.0000001
 44
0.0000000001
 12
-0.4268201036
 22
0.2134150617
 32
0.0
 13
-0.0501732711
 23
0.4745566692
 33
0.0
 40
0.0
 40
0.0
 40
0.0
 40
0.0
 40
0.2866947526
 40
0.5446421304
 40
0.7788155361
 40
0.890292373
 40
1.0
 40
1.0
 40
1.0
 40
1.0
 10
-17.3040439221
 20
-3.613952392
 30
0.0
 10
-17.3448329501
 20
-3.5935573993
 30
0.0
 10
-17.4195330262
 20
-3.5485692784
 30
0.0
 10
-17.5113315166
 20
-3.4639240235
 30
0.0
 10
-17.5640405831
 20
-3.3820054382
 30
0.0
 10
-17.5884402371
 20
-3.313538944
 30
0.0
 10
-17.5949569936
 20
-3.2787837468
 30
0.0
 10
-17.5967917904
 20
-3.2614295848
 30
0.0
 11
-17.3040439221
 21
-3.613952392
 31
0.0
 11
-17.4205654789
 21
-3.5422583782
 31
0.0
 11
-17.5100039888
 21
-3.4576852335
 31
0.0
 11
-17.5694019949
 21
-3.3630307217
 31
0.0
 11
-17.5871798465
 21
-3.3128923024
 31
0.0
 11
-17.5967917904
 21
-3.2614295848
 31
0.0
  0
SPLINE
  5
47D
100
AcDbEntity
  8
RACCORDO
100
AcDbSpline
 62
253
  6
CONTINUOUS
 70
0
 71
3
 72
15
 73
11
 74
9
 42
0.0000001
 43
0.0000001
 44
0.0000000001
 12
-0.26374627
 22
0.1318809373
 32
0.0
 13
0.2318676943
 23
0.1821868517
 33
0.0
 40
0.0
 40
0.0
 40
0.0
 40
0.0
 40
0.1416327908
 40
0.2691237748
 40
0.385165597
 40
0.4950419609
 40
0.6057883391
 40
0.7241736108
 40
0.8548835414
 40
1.0
 40
1.0
 40
1.0
 40
1.0
 10
-16.8816458123
 20
-2.7285558612
 30
0.0
 10
-16.8940975191
 20
-2.7223296394
 30
0.0
 10
-16.9168838281
 20
-2.7085399463
 30
0.0
 10
-16.9447307144
 20
-2.6824019688
 30
0.0
 10
-16.9633441957
 20
-2.6525066684
 30
0.0
 10
-16.9715674209
 20
-2.6198523587
 30
0.0
 10
-16.9687983035
 20
-2.5860781569
 30
0.0
 10
-16.9554603807
 20
-2.5528396188
 30
0.0
 10
-16.9324876568
 20
-2.5212561917
 30
0.0
 10
-16.9123983655
 20
-2.5028002678
 30
0.0
 10
-16.901182426
 20
-2.4939874975
 30
0.0
 11
-16.8816458123
 21
-2.7285558612
 31
0.0
 11
-16.9171591609
 21
-2.706576334
 31
0.0
 11
-16.9442483112
 21
-2.680508442
 31
0.0
 11
-16.9619855277
 21
-2.6512458869
 31
0.0
 11
-16.9697625837
 21
-2.6197926652
 31
0.0
 11
-16.9673138837
 21
-2.5872276206
 31
0.0
 11
-16.954723906
 21
-2.5546673908
 31
0.0
 11
-16.932425455
 21
-2.5232284467
 31
0.0
 11
-16.901182426
 21
-2.4939874975
 31
0.0
  0
SPLINE
  5
47E
100
AcDbEntity
  8
RACCORDO
100
AcDbSpline
 62
253
  6
CONTINUOUS
 70
0
 71
3
 72
15
 73
11
 74
9
 42
0.0000001
 43
0.0000001
 44
0.0000000001
 12
-0.1073222128
 22
1.0168507398
 32
0.0
 13
0.8486257181
 23
0.5703839714
 33
0.0
 40
0.0
 40
0.0
 40
0.0
 40
0.0
 40
0.1137514708
 40
0.2359668005
 40
0.3644779046
 40
0.4965258244
 40
0.6290586756
 40
0.7589853005
 40
0.8834256442
 40
1.0
 40
1.0
 40
1.0
 40
1.0
 10
-17.3040439221
 20
-3.613952392
 30
0.0
 10
-17.3081132752
 20
-3.5753963029
 30
0.0
 10
-17.3092617777
 20
-3.494557729
 30
0.0
 10
-17.2926272636
 20
-3.371084145
 30
0.0
 10
-17.2583818191
 20
-3.2448321221
 30
0.0
 10
-17.2077769893
 20
-3.1204381165
 30
0.0
 10
-17.1426751601
 20
-3.0024319131
 30
0.0
 10
-17.0654401537
 20
-2.8951293159
 30
0.0
 10
-16.9789186184
 20
-2.8024696774
 30
0.0
 10
-16.9146218111
 20
-2.7507199092
 30
0.0
 10
-16.8816458123
 20
-2.7285558612
 30
0.0
 11
-17.3040439221
 21
-3.613952392
 31
0.0
 11
-17.3064510238
 21
-3.4976665776
 31
0.0
 11
-17.2903036753
 21
-3.3737491992
 31
0.0
 11
-17.2562092463
 21
-3.2468469984
 31
0.0
 11
-17.2054481167
 21
-3.1217334927
 31
0.0
 11
-17.1399291732
 21
-3.0031101753
 31
0.0
 11
-17.0621135647
 21
-2.8954356659
 31
0.0
 11
-16.9749297571
 21
-2.8027586868
 31
0.0
 11
-16.8816458123
 21
-2.7285558612
 31
0.0
  0
SPLINE
  5
47F
100
AcDbEntity
  8
RACCORDO
100
AcDbSpline
 62
253
  6
CONTINUOUS
 70
0
 71
3
 72
11
 73
7
 74
5
 42
0.0000001
 43
0.0000001
 44
0.0000000001
 12
-0.3244830757
 22
-0.2563150895
 32
0.0
 13
0.043401828
 23
-0.4112213186
 33
0.0
 40
0.0
 40
0.0
 40
0.0
 40
0.0
 40
0.2458946617
 40
0.5084097004
 40
0.7663822776
 40
1.0
 40
1.0
 40
1.0
 40
1.0
 10
-6.2057014007
 20
-3.2349297793
 30
0.0
 10
-6.2322976194
 20
-3.2559386167
 30
0.0
 10
-6.2808468318
 20
-3.3077354305
 30
0.0
 10
-6.3342435636
 20
-3.3997867756
 30
0.0
 10
-6.3661740449
 20
-3.4995309048
 30
0.0
 10
-6.3707671533
 20
-3.5682332241
 30
0.0
 10
-6.3673873412
 20
-3.6002560868
 30
0.0
 11
-6.2057014007
 21
-3.2349297793
 31
0.0
 11
-6.276189164
 21
-3.3082103778
 31
0.0
 11
-6.3309412731
 21
-3.4019419536
 31
0.0
 11
-6.362738011
 21
-3.5037658517
 31
0.0
 11
-6.3673873412
 21
-3.6002560868
 31
0.0
  0
SPLINE
  5
480
100
AcDbEntity
  8
RACCORDO
100
AcDbSpline
 62
253
  6
CONTINUOUS
 70
0
 71
3
 72
9
 73
5
 74
3
 42
0.0000001
 43
0.0000001
 44
0.0000000001
 12
0.13307598
 22
-0.06653799
 32
0.0
 13
0.1438076122
 23
-0.0381561428
 33
0.0
 40
0.0
 40
0.0
 40
0.0
 40
0.0
 40
0.238869183
 40
1.0
 40
1.0
 40
1.0
 40
1.0
 10
-6.3673873412
 20
-3.6002560868
 30
0.0
 10
-6.3567914244
 20
-3.6055540452
 30
0.0
 10
-6.3117841551
 20
-3.6264299107
 30
0.0
 10
-6.2645287699
 20
-3.6423011708
 30
0.0
 10
-6.2280433014
 20
-3.6519817762
 30
0.0
 11
-6.3673873412
 21
-3.6002560868
 31
0.0
 11
-6.335161451
 21
-3.6152416919
 31
0.0
 11
-6.2280433014
 21
-3.6519817762
 31
0.0
  0
SPLINE
  5
481
100
AcDbEntity
  8
RACCORDO
100
AcDbSpline
 62
253
  6
CONTINUOUS
 70
0
 71
3
 72
9
 73
5
 74
3
 42
0.0000001
 43
0.0000001
 44
0.0000000001
 12
0.0596089677
 22
-0.0257917044
 32
0.0
 13
0.0627773802
 23
-0.0166565778
 33
0.0
 40
0.0
 40
0.0
 40
0.0
 40
0.0
 40
0.2419279351
 40
1.0
 40
1.0
 40
1.0
 40
1.0
 10
-6.1644623831
 20
-3.2268551032
 30
0.0
 10
-6.1596553583
 20
-3.2289350145
 30
0.0
 10
-6.1396095332
 20
-3.2371227353
 30
0.0
 10
-6.1189269925
 20
-3.2437218015
 30
0.0
 10
-6.103063733
 20
-3.2479307636
 30
0.0
 11
-6.1644623831
 21
-3.2268551032
 31
0.0
 11
-6.1499188018
 21
-3.2328037087
 31
0.0
 11
-6.103063733
 21
-3.2479307636
 31
0.0
  0
SPLINE
  5
482
100
AcDbEntity
  8
RACCORDO
100
AcDbSpline
 62
253
  6
CONTINUOUS
 70
0
 71
3
 72
9
 73
5
 74
3
 42
0.0000001
 43
0.0000001
 44
0.0000000001
 12
-0.1437993146
 22
0.0381539412
 32
0.0
 13
-0.1330683016
 23
0.0665341508
 33
0.0
 40
0.0
 40
0.0
 40
0.0
 40
0.0
 40
0.2610903049
 40
1.0
 40
1.0
 40
1.0
 40
1.0
 10
-6.176338518
 20
-4.1418714935
 30
0.0
 10
-6.1888533869
 20
-4.1385509521
 30
0.0
 10
-6.2364853816
 20
-4.1247586248
 30
0.0
 10
-6.282907405
 20
-4.1065333804
 30
0.0
 10
-6.3156825578
 20
-4.0901458041
 30
0.0
 11
-6.176338518
 21
-4.1418714935
 31
0.0
 11
-6.2136434094
 21
-4.1310466825
 31
0.0
 11
-6.3156825578
 21
-4.0901458041
 31
0.0
  0
SPLINE
  5
483
100
AcDbEntity
  8
RACCORDO
100
AcDbSpline
 62
253
  6
CONTINUOUS
 70
0
 71
3
 72
14
 73
10
 74
8
 42
0.0000001
 43
0.0000001
 44
0.0000000001
 12
-0.5761342023
 22
-0.7527492892
 32
0.0
 13
-0.9162295999
 23
0.243074951
 33
0.0
 40
0.0
 40
0.0
 40
0.0
 40
0.0
 40
0.1265686512
 40
0.2548618864
 40
0.511937517
 40
0.6388909934
 40
0.7630681095
 40
0.8835320818
 40
1.0
 40
1.0
 40
1.0
 40
1.0
 10
-5.3552749225
 20
-3.7731663156
 30
0.0
 10
-5.3795817655
 20
-3.8049244697
 30
0.0
 10
-5.4322447868
 20
-3.8661355139
 30
0.0
 10
-5.5507038321
 20
-3.9765633978
 30
0.0
 10
-5.6875491736
 20
-4.0665863441
 30
0.0
 10
-5.8367620284
 20
-4.1270997855
 30
0.0
 10
-5.9514377952
 20
-4.1546719617
 30
0.0
 10
-6.0659279646
 20
-4.1619023536
 30
0.0
 10
-6.1407680666
 20
-4.1513083047
 30
0.0
 10
-6.176338518
 20
-4.1418714935
 30
0.0
 11
-5.3552749225
 21
-3.7731663156
 31
0.0
 11
-5.4334447463
 21
-3.8641833763
 31
0.0
 11
-5.5224297787
 21
-3.9470762974
 31
0.0
 11
-5.7268660639
 21
-4.0797031051
 31
0.0
 11
-5.8385397124
 21
-4.1245504928
 31
0.0
 11
-5.9531161115
 21
-4.1515326561
 31
0.0
 11
-6.0671226626
 21
-4.1580174114
 31
0.0
 11
-6.176338518
 21
-4.1418714935
 31
0.0
  0
SPLINE
  5
484
100
AcDbEntity
  8
RACCORDO
100
AcDbSpline
 62
253
  6
CONTINUOUS
 70
0
 71
3
 72
11
 73
7
 74
5
 42
0.0000001
 43
0.0000001
 44
0.0000000001
 12
-0.1433482301
 22
-0.4840331206
 32
0.0
 13
-0.4231755235
 23
-0.2752439886
 33
0.0
 40
0.0
 40
0.0
 40
0.0
 40
0.0
 40
0.264880195
 40
0.5206765751
 40
0.7658093173
 40
1.0
 40
1.0
 40
1.0
 40
1.0
 10
-5.3552749225
 20
-3.7731663156
 30
0.0
 10
-5.3679316249
 20
-3.8159032448
 30
0.0
 10
-5.3984753368
 20
-3.8983909935
 30
0.0
 10
-5.4611602437
 20
-4.0115984412
 30
0.0
 10
-5.5388811005
 20
-4.1086519534
 30
0.0
 10
-5.6013441012
 20
-4.1608742452
 30
0.0
 10
-5.6343786894
 20
-4.1823607711
 30
0.0
 11
-5.3552749225
 21
-3.7731663156
 31
0.0
 11
-5.4021334634
 21
-3.8984021419
 31
0.0
 11
-5.4651511565
 21
-4.0111105992
 31
0.0
 11
-5.5431206013
 21
-4.1072039039
 31
0.0
 11
-5.6343786894
 21
-4.1823607711
 31
0.0
  0
SPLINE
  5
485
100
AcDbEntity
  8
RACCORDO
100
AcDbSpline
 62
253
  6
CONTINUOUS
 70
0
 71
3
 72
12
 73
8
 74
6
 42
0.0000001
 43
0.0000001
 44
0.0000000001
 12
0.0387628329
 22
-0.3672680156
 32
0.0
 13
0.3303081809
 23
-0.1651812886
 33
0.0
 40
0.0
 40
0.0
 40
0.0
 40
0.0
 40
0.2834443909
 40
0.5407669379
 40
0.776353759
 40
0.8890048414
 40
1.0
 40
1.0
 40
1.0
 40
1.0
 10
-18.4739947217
 20
7.4710348736
 30
0.0
 10
-18.4703323525
 20
7.4363348539
 30
0.0
 10
-18.4578711044
 20
7.3704712705
 30
0.0
 10
-18.4208801103
 20
7.2815060751
 30
0.0
 10
-18.3752097498
 20
7.2212415633
 30
0.0
 10
-18.331695844
 20
7.1848569988
 30
0.0
 10
-18.3079988973
 20
7.1705795543
 30
0.0
 10
-18.2957780276
 20
7.1644681132
 30
0.0
 11
-18.4739947217
 21
7.4710348736
 31
0.0
 11
-18.4536138767
 21
7.3683598524
 31
0.0
 11
-18.4161138205
 21
7.2810404045
 31
0.0
 11
-18.3628565702
 21
7.2122408716
 31
0.0
 11
-18.330903204
 21
7.1855990453
 31
0.0
 11
-18.2957780276
 21
7.1644681132
 31
0.0
  0
SPLINE
  5
486
100
AcDbEntity
  8
RACCORDO
100
AcDbSpline
 62
7
  6
CONTINUOUS
 70
0
 71
3
 72
9
 73
5
 74
3
 42
0.0000001
 43
0.0000001
 44
0.0000000001
 12
0.1530641212
 22
0.0270756057
 32
0.0
 13
0.1480402424
 23
0.0473898751
 33
0.0
 40
0.0
 40
0.0
 40
0.0
 40
0.0
 40
0.2531292296
 40
1.0
 40
1.0
 40
1.0
 40
1.0
 10
-6.1644623831
 20
-3.2268551032
 30
0.0
 10
-6.1515473821
 20
-3.2245705608
 30
0.0
 10
-6.1006778541
 20
-3.2147141947
 30
0.0
 10
-6.0504417894
 20
-3.2015343894
 30
0.0
 10
-6.0135861461
 20
-3.1897363519
 30
0.0
 11
-6.1644623831
 21
-3.2268551032
 31
0.0
 11
-6.125834842
 21
-3.2193677447
 31
0.0
 11
-6.0135861461
 21
-3.1897363519
 31
0.0
  0
LINE
  5
487
100
AcDbEntity
  8
RACCORDO
100
AcDbLine
 62
7
  6
CONTINUOUS
 10
20.1660800214
 20
19.33860678
 11
20.1668428009
 21
19.3364544823
  0
LINE
  5
488
100
AcDbEntity
  8
RACCORDO
100
AcDbLine
 62
7
  6
CONTINUOUS
 10
20.1668428009
 20
19.3364544823
 11
20.168016471
 21
19.3331355706
  0
SPLINE
  5
489
100
AcDbEntity
  8
RACCORDO
100
AcDbSpline
 62
7
  6
CONTINUOUS
 70
0
 71
3
 72
15
 73
11
 74
9
 42
0.0000001
 43
0.0000001
 44
0.0000000001
 12
0.760102845
 22
-2.1522709819
 32
0.0
 13
-1.0474896139
 23
-2.0280020274
 33
0.0
 40
0.0
 40
0.0
 40
0.0
 40
0.0
 40
0.138816462
 40
0.2748319083
 40
0.4071957385
 40
0.5352418436
 40
0.658540042
 40
0.7769404127
 40
0.8906030179
 40
1.0
 40
1.0
 40
1.0
 40
1.0
 10
20.168016471
 20
19.3331355706
 30
0.0
 10
20.2031880669
 20
19.2335453562
 30
0.0
 10
20.2654806147
 20
19.0336812963
 30
0.0
 10
20.3343755762
 20
18.7312990463
 30
0.0
 10
20.3769840703
 20
18.432331428
 30
0.0
 10
20.392493443
 20
18.1403859481
 30
0.0
 10
20.3802935997
 20
17.8588548768
 30
0.0
 10
20.3398769614
 20
17.5909310784
 30
0.0
 10
20.2708448761
 20
17.3398129479
 30
0.0
 10
20.2042892409
 20
17.1829628892
 30
0.0
 10
20.16609184
 20
17.1090104554
 30
0.0
 11
20.168016471
 21
19.3331355706
 31
0.0
 11
20.2620864177
 21
19.0305663839
 31
0.0
 11
20.3307394126
 21
18.7277903761
 31
0.0
 11
20.3729362637
 21
18.4286247864
 31
0.0
 11
20.3878963095
 21
18.136736487
 31
0.0
 11
20.3750536647
 21
17.8555955708
 31
0.0
 11
20.3339959562
 21
17.5884780048
 31
0.0
 11
20.2644102868
 21
17.3385437169
 31
0.0
 11
20.16609184
 21
17.1090104554
 31
0.0
  0
SPLINE
  5
48A
100
AcDbEntity
  8
RACCORDO
100
AcDbSpline
 62
7
  6
CONTINUOUS
 70
0
 71
3
 72
9
 73
5
 74
3
 42
0.0000001
 43
0.0000001
 44
0.0000000001
 12
-0.2727933049
 22
-0.315276651
 32
0.0
 13
-0.3549914851
 23
-0.2186243338
 33
0.0
 40
0.0
 40
0.0
 40
0.0
 40
0.0
 40
0.5027986703
 40
1.0
 40
1.0
 40
1.0
 40
1.0
 10
20.065093127
 20
16.6782662903
 30
0.0
 10
20.01937309
 20
16.6254260633
 30
0.0
 10
19.9207091899
 20
16.5267378675
 30
0.0
 10
19.8080097167
 20
16.4443245329
 30
0.0
 10
19.7491756372
 20
16.4080910964
 30
0.0
 11
20.065093127
 21
16.6782662903
 31
0.0
 11
19.9166086503
 21
16.5302998668
 31
0.0
 11
19.7491756372
 21
16.4080910964
 31
0.0
  0
SPLINE
  5
48B
100
AcDbEntity
  8
RACCORDO
100
AcDbSpline
 62
7
  6
CONTINUOUS
 70
0
 71
3
 72
14
 73
10
 74
8
 42
0.0000001
 43
0.0000001
 44
0.0000000001
 12
2.1901996276
 22
-1.1461537261
 32
0.0
 13
1.0402246791
 23
-2.2424485255
 33
0.0
 40
0.0
 40
0.0
 40
0.0
 40
0.0
 40
0.1127210172
 40
0.2298874656
 40
0.3512679057
 40
0.4764131007
 40
0.6046930408
 40
0.735336636
 40
1.0
 40
1.0
 40
1.0
 40
1.0
 10
18.495183418
 20
21.5689335433
 30
0.0
 10
18.5774772613
 20
21.5258683387
 30
0.0
 10
18.7405508981
 20
21.4287010238
 30
0.0
 10
18.9738289228
 20
21.2566987574
 30
0.0
 10
19.1984632003
 20
21.0577682362
 30
0.0
 10
19.4121696852
 20
20.8343669509
 30
0.0
 10
19.6127280025
 20
20.5891421216
 30
0.0
 10
19.8605685709
 20
20.2356829908
 30
0.0
 10
20.018602717
 20
19.9492118566
 30
0.0
 10
20.1103725046
 20
19.7513805331
 30
0.0
 11
18.495183418
 21
21.5689335433
 31
0.0
 11
18.7348959239
 21
21.4268775299
 31
0.0
 11
18.9683570916
 21
21.2554638652
 31
0.0
 11
19.1933009296
 21
21.0568948332
 31
0.0
 11
19.4074168646
 21
20.8336122832
 31
0.0
 11
19.6083895604
 21
20.5883264443
 31
0.0
 11
19.793953437
 21
20.324014196
 31
0.0
 11
20.1103725046
 21
19.7513805331
 31
0.0
  0
SPLINE
  5
48C
100
AcDbEntity
  8
RACCORDO
100
AcDbSpline
 62
7
  6
CONTINUOUS
 70
0
 71
3
 72
9
 73
5
 74
3
 42
0.0000001
 43
0.0000001
 44
0.0000000001
 12
0.0795232672
 22
0.0420532136
 32
0.0
 13
0.0728375583
 23
0.0527931141
 33
0.0
 40
0.0
 40
0.0
 40
0.0
 40
0.0
 40
0.2472563057
 40
1.0
 40
1.0
 40
1.0
 40
1.0
 10
17.4574567683
 20
-9.7525799851
 30
0.0
 10
17.4640109781
 20
-9.749114011
 30
0.0
 10
17.4902619855
 20
-9.7346145927
 30
0.0
 10
17.515461409
 20
-9.7182228706
 30
0.0
 10
17.5337374132
 20
-9.7049763094
 30
0.0
 11
17.4574567683
 21
-9.7525799851
 31
0.0
 11
17.476928143
 21
-9.7418281785
 31
0.0
 11
17.5337374132
 21
-9.7049763094
 31
0.0
  0
SPLINE
  5
48D
100
AcDbEntity
  8
RACCORDO
100
AcDbSpline
 62
7
  6
CONTINUOUS
 70
0
 71
3
 72
9
 73
5
 74
3
 42
0.0000001
 43
0.0000001
 44
0.0000000001
 12
0.0791608445
 22
-0.0395890864
 32
0.0
 13
0.0443941078
 23
-0.0765695648
 33
0.0
 40
0.0
 40
0.0
 40
0.0
 40
0.0
 40
0.5021590845
 40
1.0
 40
1.0
 40
1.0
 40
1.0
 10
17.8263675998
 20
23.9368853426
 30
0.0
 10
17.8396180455
 20
23.9302586695
 30
0.0
 10
17.8643557136
 20
23.9132899031
 30
0.0
 10
17.8827798938
 20
23.8896302666
 30
0.0
 10
17.8901469615
 20
23.8769237792
 30
0.0
 11
17.8263675998
 21
23.9368853426
 31
0.0
 11
17.8628705023
 21
23.9115294342
 31
0.0
 11
17.8901469615
 21
23.8769237792
 31
0.0
  0
SPLINE
  5
48E
100
AcDbEntity
  8
RACCORDO
100
AcDbSpline
 62
253
  6
CONTINUOUS
 70
0
 71
3
 72
12
 73
8
 74
6
 42
0.0000001
 43
0.0000001
 44
0.0000000001
 12
-0.000004191
 22
-0.1404206734
 32
0.0
 13
-0.1246974566
 23
-0.0645639982
 33
0.0
 40
0.0
 40
0.0
 40
0.0
 40
0.0
 40
0.1028546465
 40
0.2084745189
 40
0.436676574
 40
0.6988746822
 40
1.0
 40
1.0
 40
1.0
 40
1.0
 10
20.1660784583
 20
19.5076081867
 30
0.0
 10
20.1660783146
 20
19.5027938805
 30
0.0
 10
20.1651252591
 20
19.4930110167
 30
0.0
 10
20.1593359428
 20
19.473300041
 30
0.0
 10
20.1443916213
 20
19.4491418144
 30
0.0
 10
20.1170101526
 20
19.4237535953
 30
0.0
 10
20.0943969288
 20
19.4098912394
 30
0.0
 10
20.0818804084
 20
19.4034106213
 30
0.0
 11
20.1660784583
 21
19.5076081867
 31
0.0
 11
20.1646971224
 21
19.4932314759
 31
0.0
 11
20.1605662393
 21
19.4789871542
 31
0.0
 11
20.1442331069
 21
19.4514178766
 31
0.0
 11
20.1176795455
 21
19.4259134442
 31
0.0
 11
20.0818804084
 21
19.4034106213
 31
0.0
  0
SPLINE
  5
48F
100
AcDbEntity
  8
RACCORDO
100
AcDbSpline
 62
7
  6
CONTINUOUS
 70
0
 71
3
 72
14
 73
10
 74
8
 42
0.0000001
 43
0.0000001
 44
0.0000000001
 12
0.0000115141
 22
-0.1249348961
 32
0.0
 13
-0.1111853166
 23
-0.0569785377
 33
0.0
 40
0.0
 40
0.0
 40
0.0
 40
0.0
 40
0.0819501554
 40
0.1721974237
 40
0.2741151669
 40
0.3897754712
 40
0.5202141665
 40
0.6657008073
 40
1.0
 40
1.0
 40
1.0
 40
1.0
 10
20.1660784294
 20
19.3325123893
 30
0.0
 10
20.1660787439
 20
19.3290995779
 30
0.0
 10
20.1650477527
 20
19.3219059757
 30
0.0
 10
20.1607545118
 20
19.3112409963
 30
0.0
 10
20.1537766043
 20
19.3004146018
 30
0.0
 10
20.1441848044
 20
19.2894959061
 30
0.0
 10
20.1320523304
 20
19.2785547352
 30
0.0
 10
20.1116538001
 20
19.2633547543
 30
0.0
 10
20.0942701289
 20
19.2533452748
 30
0.0
 10
20.0818804084
 20
19.2469959817
 30
0.0
 11
20.1660784294
 21
19.3325123893
 31
0.0
 11
20.1647201008
 21
19.3223644596
 31
0.0
 11
20.1606403508
 21
19.3118534171
 31
0.0
 11
20.1538545372
 21
19.3010791827
 31
0.0
 11
20.1444061258
 21
19.2901461932
 31
0.0
 11
20.132367797
 21
19.2791621368
 31
0.0
 11
20.1178416965
 21
19.2682363686
 31
0.0
 11
20.0818804084
 21
19.2469959817
 31
0.0
  0
SPLINE
  5
490
100
AcDbEntity
  8
0
100
AcDbSpline
 62
7
  6
CONTINUOUS
 70
0
 71
3
 72
15
 73
11
 74
9
 42
0.0000001
 43
0.0000001
 44
0.0000000001
 12
-0.0000053518
 22
1.3078359673
 32
0.0
 13
1.1656304999
 23
0.5930771071
 33
0.0
 40
0.0
 40
0.0
 40
0.0
 40
0.0
 40
0.1023893177
 40
0.2075922902
 40
0.3181088505
 40
0.4359188787
 40
0.562413944
 40
0.698426763
 40
0.8443056789
 40
1.0
 40
1.0
 40
1.0
 40
1.0
 10
8.0041101302
 20
22.9330504815
 30
0.0
 10
8.0041099476
 20
22.9776866256
 30
0.0
 10
8.0130442014
 20
23.0684180607
 30
0.0
 10
8.0527920871
 20
23.2020540559
 30
0.0
 10
8.1182494032
 20
23.3326448351
 30
0.0
 10
8.20850071
 20
23.4589344946
 30
0.0
 10
8.3225229212
 20
23.5798994682
 30
0.0
 10
8.4591840104
 20
23.6945512784
 30
0.0
 10
8.6171895261
 20
23.8019251961
 30
0.0
 10
8.7321773368
 20
23.8660211408
 30
0.0
 10
8.7926713532
 20
23.8968007199
 30
0.0
 11
8.0041101302
 21
22.9330504815
 31
0.0
 11
8.017059783
 21
23.0663312931
 31
0.0
 11
8.0557865548
 21
23.1983568912
 31
0.0
 11
8.1199259873
 21
23.327883844
 31
0.0
 11
8.208873715
 21
23.4536923284
 31
0.0
 11
8.3217923918
 21
23.5745974324
 31
0.0
 11
8.4576181398
 21
23.6894605449
 31
0.0
 11
8.6150713735
 21
23.7971993952
 31
0.0
 11
8.7926713532
 21
23.8968007199
 31
0.0
  0
SPLINE
  5
491
100
AcDbEntity
  8
RACCORDO
100
AcDbSpline
 62
253
  6
CONTINUOUS
 70
0
 71
3
 72
19
 73
15
 74
13
 42
0.0000001
 43
0.0000001
 44
0.0000000001
 12
0.3420937617
 22
0.1700860762
 32
0.0
 13
0.1916424317
 23
-0.3305005197
 33
0.0
 40
0.0
 40
0.0
 40
0.0
 40
0.0
 40
0.2169654406
 40
0.4110536596
 40
0.5799412176
 40
0.7216490772
 40
0.7818118702
 40
0.834639353
 40
0.8800289866
 40
0.917937938
 40
0.9484175031
 40
0.9609418656
 40
0.9717272116
 40
1.0
 40
1.0
 40
1.0
 40
1.0
 10
17.8003543443
 20
23.290130194
 30
0.0
 10
17.8250951856
 20
23.3024311275
 30
0.0
 10
17.8721288362
 20
23.3254153357
 30
0.0
 10
17.9390429926
 20
23.3566834731
 30
0.0
 10
17.9978656135
 20
23.3825924123
 30
0.0
 10
18.0416318155
 20
23.4003416737
 30
0.0
 10
18.0721023648
 20
23.4114677884
 30
0.0
 10
18.091245674
 20
23.4178332166
 30
0.0
 10
18.1078924894
 20
23.4226798786
 30
0.0
 10
18.1220164728
 20
23.4259918196
 30
0.0
 10
18.132187646
 20
23.42759525
 30
0.0
 10
18.1390799577
 20
23.4279699354
 30
0.0
 10
18.1454840778
 20
23.4278112355
 30
0.0
 10
18.1513914764
 20
23.4263432979
 30
0.0
 10
18.153197565
 20
23.4232285741
 30
0.0
 11
17.8003543443
 21
23.290130194
 31
0.0
 11
17.8748562952
 21
23.3264655628
 31
0.0
 11
17.9420723549
 21
23.3577745344
 31
0.0
 11
18.001170487
 21
23.3836696149
 31
0.0
 11
18.0514158636
 21
23.4038287351
 31
0.0
 11
18.0730194981
 21
23.4116763361
 31
0.0
 11
18.0921850354
 21
23.4180018247
 31
0.0
 11
18.1088529684
 21
23.4227855707
 31
0.0
 11
18.1229717003
 21
23.4260128213
 31
0.0
 11
18.1344972079
 21
23.4276734477
 31
0.0
 11
18.1392759879
 21
23.4279144698
 31
0.0
 11
18.1433936498
 21
23.427762269
 31
0.0
 11
18.153197565
 21
23.4232285741
 31
0.0
  0
SPLINE
  5
492
100
AcDbEntity
  8
RACCORDO
100
AcDbSpline
 62
7
  6
CONTINUOUS
 70
0
 71
3
 72
15
 73
11
 74
9
 42
0.0000001
 43
0.0000001
 44
0.0000000001
 12
0.3458981339
 22
0.1680197029
 32
0.0
 13
0.343933937
 23
-0.1720046122
 33
0.0
 40
0.0
 40
0.0
 40
0.0
 40
0.0
 40
0.1656880137
 40
0.3196247913
 40
0.4613593401
 40
0.5907886441
 40
0.7082363666
 40
0.8145306636
 40
0.9110918568
 40
1.0
 40
1.0
 40
1.0
 40
1.0
 10
17.4574567683
 20
23.8815410296
 30
0.0
 10
17.4765604933
 20
23.8908206465
 30
0.0
 10
17.5139085544
 20
23.9077321951
 30
0.0
 10
17.5692697448
 20
23.9286544783
 30
0.0
 10
17.621584009
 20
23.9441074696
 30
0.0
 10
17.6704786431
 20
23.9540136377
 30
0.0
 10
17.715637757
 20
23.958351251
 30
0.0
 10
17.7568086425
 20
23.9571318325
 30
0.0
 10
17.7937559586
 20
23.9504010832
 30
0.0
 10
17.8161747572
 20
23.9419828795
 30
0.0
 10
17.8263675998
 20
23.9368853426
 30
0.0
 11
17.4574567683
 21
23.8815410296
 31
0.0
 11
17.5155519021
 21
23.9077045118
 31
0.0
 11
17.5709798
 21
23.9284867092
 31
0.0
 11
17.623302471
 21
23.9437502246
 31
0.0
 11
17.6721251639
 21
23.9534227407
 31
0.0
 11
17.7171052098
 21
23.9574963316
 31
0.0
 11
17.7579537274
 21
23.9560219328
 31
0.0
 11
17.7944356085
 21
23.9491024712
 31
0.0
 11
17.8263675998
 21
23.9368853426
 31
0.0
  0
SPLINE
  5
493
100
AcDbEntity
  8
RACCORDO
100
AcDbSpline
 62
253
  6
CONTINUOUS
 70
0
 71
3
 72
11
 73
7
 74
5
 42
0.0000001
 43
0.0000001
 44
0.0000000001
 12
0.004359318
 22
1.5061458984
 32
0.0
 13
-0.75913754
 23
1.3008476723
 33
0.0
 40
0.0
 40
0.0
 40
0.0
 40
0.0
 40
0.2342472426
 40
0.482518626
 40
0.7397297627
 40
1.0
 40
1.0
 40
1.0
 40
1.0
 10
18.21450482
 20
21.8584966193
 30
0.0
 10
18.214845206
 20
21.9761001272
 30
0.0
 10
18.195388673
 20
22.2186567829
 30
0.0
 10
18.1143555612
 20
22.5821246281
 30
0.0
 10
17.9835985576
 20
22.9446636779
 30
0.0
 10
17.8662146469
 20
23.1772728832
 30
0.0
 10
17.8003543443
 20
23.290130194
 30
0.0
 11
18.21450482
 21
21.8584966193
 31
0.0
 11
18.1880823507
 21
22.2103178261
 31
0.0
 11
18.1078706565
 21
22.5755480116
 31
0.0
 11
17.9769512487
 21
22.9401549066
 31
0.0
 11
17.8003543443
 21
23.290130194
 31
0.0
  0
SPLINE
  5
494
100
AcDbEntity
  8
RACCORDO
100
AcDbSpline
 62
253
  6
CONTINUOUS
 70
0
 71
3
 72
15
 73
11
 74
9
 42
0.0000001
 43
0.0000001
 44
0.0000000001
 12
0.4162545525
 22
0.2155221038
 32
0.0
 13
0.0000009982
 23
0.4687404716
 33
0.0
 40
0.0
 40
0.0
 40
0.0
 40
0.0
 40
0.1553722745
 40
0.3009898018
 40
0.4368322816
 40
0.5632656902
 40
0.6811336836
 40
0.791823243
 40
0.8972921894
 40
1.0
 40
1.0
 40
1.0
 40
1.0
 10
18.21450482
 20
21.8584966193
 30
0.0
 10
18.2360629588
 20
21.8696586725
 30
0.0
 10
18.2770327042
 20
21.8928770317
 30
0.0
 10
18.3332953582
 20
21.9316890782
 30
0.0
 10
18.3819352336
 20
21.9730641269
 30
0.0
 10
18.4225005041
 20
22.0166623569
 30
0.0
 10
18.4545963933
 20
22.0621338883
 30
0.0
 10
18.4778657744
 20
22.1091169172
 30
0.0
 10
18.4919908936
 20
22.1571675624
 30
0.0
 10
18.4951648793
 20
22.1897763408
 30
0.0
 10
18.4951649135
 20
22.20582411
 30
0.0
 11
18.21450482
 21
21.8584966193
 31
0.0
 11
18.2777734123
 21
21.8945686066
 31
0.0
 11
18.3338348526
 21
21.9335058578
 31
0.0
 11
18.3821752103
 21
21.9749509858
 31
0.0
 11
18.4223481551
 21
22.0185217352
 31
0.0
 11
18.4539841321
 21
22.0638171222
 31
0.0
 11
18.4767917148
 21
22.1104200599
 31
0.0
 11
18.4905608792
 21
22.1579014543
 31
0.0
 11
18.4951649135
 21
22.20582411
 31
0.0
  0
SPLINE
  5
495
100
AcDbEntity
  8
RACCORDO
100
AcDbSpline
 62
253
  6
CONTINUOUS
 70
0
 71
3
 72
9
 73
5
 74
3
 42
0.0000001
 43
0.0000001
 44
0.0000000001
 12
0.0569087513
 22
0.2720999989
 32
0.0
 13
0.0000341848
 23
0.2779874354
 33
0.0
 40
0.0
 40
0.0
 40
0.0
 40
0.0
 40
0.4964097976
 40
1.0
 40
1.0
 40
1.0
 40
1.0
 10
18.4682364394
 20
19.2704899586
 30
0.0
 10
18.4776531267
 20
19.315514327
 30
0.0
 10
18.4910279177
 20
19.4074305534
 30
0.0
 10
18.495159462
 20
19.5001431329
 30
0.0
 10
18.4951652004
 20
19.5468070491
 30
0.0
 11
18.4682364394
 21
19.2704899586
 31
0.0
 11
18.4886541356
 21
19.4069667971
 31
0.0
 11
18.4951652004
 21
19.5468070491
 31
0.0
  0
SPLINE
  5
496
100
AcDbEntity
  8
RACCORDO
100
AcDbSpline
 62
253
  6
CONTINUOUS
 70
0
 71
3
 72
11
 73
7
 74
5
 42
0.0000001
 43
0.0000001
 44
0.0000000001
 12
0.3497916652
 22
0.5778105923
 32
0.0
 13
0.1382728454
 23
0.6611353189
 33
0.0
 40
0.0
 40
0.0
 40
0.0
 40
0.0
 40
0.256114327
 40
0.5092357367
 40
0.7579012494
 40
1.0
 40
1.0
 40
1.0
 40
1.0
 10
18.21450482
 20
18.6476422222
 30
0.0
 10
18.2443670389
 20
18.6969707459
 30
0.0
 10
18.3000424685
 20
18.7973466348
 30
0.0
 10
18.3712192875
 20
18.9526183194
 30
0.0
 10
18.4286090178
 20
19.1101554738
 30
0.0
 10
18.4570778784
 20
19.2171366137
 30
0.0
 10
18.4682364394
 20
19.2704899586
 30
0.0
 11
18.21450482
 21
18.6476422222
 31
0.0
 11
18.2983836606
 21
18.7989361032
 31
0.0
 11
18.3694971912
 21
18.9544129184
 31
0.0
 11
18.4267041445
 21
19.1123289503
 31
0.0
 11
18.4682364394
 21
19.2704899586
 31
0.0
  0
SPLINE
  5
497
100
AcDbEntity
  8
RACCORDO
100
AcDbSpline
 62
253
  6
CONTINUOUS
 70
0
 71
3
 72
12
 73
8
 74
6
 42
0.0000001
 43
0.0000001
 44
0.0000000001
 12
-0.2611432806
 22
0.1462020206
 32
0.0
 13
-0.2547817853
 23
0.1570257486
 33
0.0
 40
0.0
 40
0.0
 40
0.0
 40
0.0
 40
0.0722798071
 40
0.1620243439
 40
0.388277333
 40
0.6696818313
 40
1.0
 40
1.0
 40
1.0
 40
1.0
 10
18.4682364574
 20
15.5233922837
 30
0.0
 10
18.461944662
 20
15.5269147683
 30
0.0
 10
18.4480386472
 20
15.5351614617
 30
0.0
 10
18.4151086466
 20
15.5555575675
 30
0.0
 10
18.3648677211
 20
15.5876190018
 30
0.0
 10
18.2943220277
 20
15.6324715846
 30
0.0
 10
18.2425578375
 20
15.6647959989
 30
0.0
 10
18.21450482
 20
15.6820854848
 30
0.0
 11
18.4682364574
 21
15.5233922837
 31
0.0
 11
18.4495703536
 21
15.5343251628
 31
0.0
 11
18.4267041332
 21
15.548415829
 31
0.0
 11
18.3694971535
 21
15.5846446869
 31
0.0
 11
18.2983836192
 21
15.6297650289
 31
0.0
 11
18.21450482
 21
15.6820854848
 31
0.0
  0
SPLINE
  5
498
100
AcDbEntity
  8
DRAFT
100
AcDbSpline
 62
253
  6
CONTINUOUS
 70
0
 71
3
 72
15
 73
11
 74
9
 42
0.0000001
 43
0.0000001
 44
0.0000000001
 12
0.4162550482
 22
0.2155223603
 32
0.0
 13
0.0000005769
 23
0.4687410297
 33
0.0
 40
0.0
 40
0.0
 40
0.0
 40
0.0
 40
0.1553723138
 40
0.300989857
 40
0.4368323347
 40
0.5632657392
 40
0.6811337108
 40
0.7918232428
 40
0.8972921765
 40
1.0
 40
1.0
 40
1.0
 40
1.0
 10
18.21450482
 20
-8.4865836265
 30
0.0
 10
18.23606299
 20
-8.4754215572
 30
0.0
 10
18.2770327903
 20
-8.4522031634
 30
0.0
 10
18.3332955107
 20
-8.4133910547
 30
0.0
 10
18.3819354301
 20
-8.3720159373
 30
0.0
 10
18.4225007224
 20
-8.3284176363
 30
0.0
 10
18.4545966061
 20
-8.2829460276
 30
0.0
 10
18.4778659347
 20
-8.2359629138
 30
0.0
 10
18.4919909925
 20
-8.1879121891
 30
0.0
 10
18.49516489
 20
-8.1553033651
 30
0.0
 10
18.4951649097
 20
-8.1392555748
 30
0.0
 11
18.21450482
 21
-8.4865836265
 31
0.0
 11
18.2777735012
 21
-8.4505115829
 31
0.0
 11
18.3338350063
 21
-8.4115742695
 31
0.0
 11
18.3821754053
 21
-8.3701290746
 31
0.0
 11
18.4223483714
 21
-8.3265582515
 31
0.0
 11
18.4539843369
 21
-8.2812627888
 31
0.0
 11
18.4767918712
 21
-8.2346597729
 31
0.0
 11
18.4905609643
 21
-8.1871783027
 31
0.0
 11
18.4951649097
 21
-8.1392555748
 31
0.0
  0
SPLINE
  5
499
100
AcDbEntity
  8
RACCORDO
100
AcDbSpline
 62
253
  6
CONTINUOUS
 70
0
 71
3
 72
13
 73
9
 74
7
 42
0.0000001
 43
0.0000001
 44
0.0000000001
 12
0.7802315628
 22
0.7065493837
 32
0.0
 13
-0.0030557577
 23
1.0525986821
 33
0.0
 40
0.0
 40
0.0
 40
0.0
 40
0.0
 40
0.1083039752
 40
0.2201389188
 40
0.3364211884
 40
0.4578339337
 40
0.7173257836
 40
1.0
 40
1.0
 40
1.0
 40
1.0
 10
17.8674514093
 20
-9.4496333177
 30
0.0
 10
17.8956188026
 20
-9.4241259487
 30
0.0
 10
17.9492644683
 20
-9.3681612902
 30
0.0
 10
18.0191751423
 20
-9.2726786216
 30
0.0
 10
18.0791057782
 20
-9.1653452751
 30
0.0
 10
18.1465626129
 20
-9.0041263085
 30
0.0
 10
18.2019729144
 20
-8.7764230777
 30
0.0
 10
18.2147927479
 20
-8.5857644624
 30
0.0
 10
18.21450482
 20
-8.4865836265
 30
0.0
 11
17.8674514093
 21
-9.4496333177
 31
0.0
 11
17.9464920343
 21
-9.3674820497
 31
0.0
 11
18.016258185
 21
-9.2726655582
 31
0.0
 11
18.0761905087
 21
-9.1659432491
 31
0.0
 11
18.1258092793
 21
-9.0481694278
 31
0.0
 11
18.1926030527
 21
-8.7833202143
 31
0.0
 11
18.21450482
 21
-8.4865836265
 31
0.0
  0
SPLINE
  5
49A
100
AcDbEntity
  8
RACCORDO
100
AcDbSpline
 62
253
  6
CONTINUOUS
 70
0
 71
3
 72
14
 73
10
 74
8
 42
0.0000001
 43
0.0000001
 44
0.0000000001
 12
2.0578772517
 22
-1.2218118613
 32
0.0
 13
1.0071013942
 23
-2.1710434794
 33
0.0
 40
0.0
 40
0.0
 40
0.0
 40
0.0
 40
0.1116906395
 40
0.2284830563
 40
0.3498830244
 40
0.4752505209
 40
0.603830523
 40
0.7347809181
 40
1.0
 40
1.0
 40
1.0
 40
1.0
 10
18.4951714559
 20
21.5004804375
 30
0.0
 10
18.5717866646
 20
21.4549921214
 30
0.0
 10
18.7239494812
 20
21.3540738214
 30
0.0
 10
18.9422592497
 20
21.1796531536
 30
0.0
 10
19.153608308
 20
20.9805895527
 30
0.0
 10
19.3555792545
 20
20.7591702942
 30
0.0
 10
19.54591455
 20
20.5178814646
 30
0.0
 10
19.7821741394
 20
20.1720392877
 30
0.0
 10
19.9341207094
 20
19.8935339543
 30
0.0
 10
20.0231548785
 20
19.7015999015
 30
0.0
 11
18.4951714559
 21
21.5004804375
 31
0.0
 11
18.7182576791
 21
21.3532247722
 31
0.0
 11
18.9369437452
 21
21.1791423639
 31
0.0
 11
19.1487192943
 21
20.9802317422
 31
0.0
 11
19.3511533072
 21
20.758776291
 31
0.0
 11
19.5419219009
 21
20.5173180577
 31
0.0
 11
19.7188351222
 21
20.25862895
 31
0.0
 11
20.0231548785
 21
19.7015999015
 31
0.0
  0
SPLINE
  5
49B
100
AcDbEntity
  8
RACCORDO
100
AcDbSpline
 62
253
  6
CONTINUOUS
 70
0
 71
3
 72
19
 73
15
 74
13
 42
0.0000001
 43
0.0000001
 44
0.0000000001
 12
0.0557912889
 22
0.034422547
 32
0.0
 13
-0.0646969
 23
-0.0105778444
 33
0.0
 40
0.0
 40
0.0
 40
0.0
 40
0.0
 40
0.0663304701
 40
0.1220702396
 40
0.1678082812
 40
0.204594351
 40
0.2344780874
 40
0.2611883697
 40
0.3237634012
 40
0.3675195386
 40
0.4216168791
 40
0.5639629193
 40
0.7556239805
 40
1.0
 40
1.0
 40
1.0
 40
1.0
 10
18.6184955996
 20
15.7117529225
 30
0.0
 10
18.6197291537
 20
15.7125140105
 30
0.0
 10
18.6219568127
 20
15.7139870986
 30
0.0
 10
18.6248239576
 20
15.7162834279
 30
0.0
 10
18.6269321742
 20
15.7184642272
 30
0.0
 10
18.6282903292
 20
15.7205346173
 30
0.0
 10
18.6288867352
 20
15.7225350613
 30
0.0
 10
18.6284465191
 20
15.7252126854
 30
0.0
 10
18.6259246322
 20
15.7271932267
 30
0.0
 10
18.6226909647
 20
15.7284508061
 30
0.0
 10
18.6175505805
 20
15.7296638546
 30
0.0
 10
18.6090588233
 20
15.7302393102
 30
0.0
 10
18.5964165803
 20
15.7296578129
 30
0.0
 10
18.586960101
 20
15.7284003299
 30
0.0
 10
18.5816899774
 20
15.7275386727
 30
0.0
 11
18.6184955996
 21
15.7117529225
 31
0.0
 11
18.6221081591
 21
15.7141731724
 31
0.0
 11
18.62493857
 21
15.7164842368
 31
0.0
 11
18.6269884299
 21
15.7186724953
 31
0.0
 11
18.6282581223
 21
15.7207227221
 31
0.0
 11
18.6287479296
 21
15.7226195588
 31
0.0
 11
18.6284570565
 21
15.7243462477
 31
0.0
 11
18.6255236888
 21
15.7272138435
 31
0.0
 11
18.6228750657
 21
15.7283151789
 31
0.0
 11
18.6194319998
 21
15.7291650376
 31
0.0
 11
18.6101391854
 21
15.7300152485
 31
0.0
 11
18.597583189
 21
15.7295525569
 31
0.0
 11
18.5816899774
 21
15.7275386727
 31
0.0
  0
SPLINE
  5
49C
100
AcDbEntity
  8
RACCORDO
100
AcDbSpline
 62
253
  6
CONTINUOUS
 70
0
 71
3
 72
11
 73
7
 74
5
 42
0.0000001
 43
0.0000001
 44
0.0000000001
 12
-0.00003435
 22
0.0558651423
 32
0.0
 13
-0.0487462396
 23
0.0272895479
 33
0.0
 40
0.0
 40
0.0
 40
0.0
 40
0.0
 40
0.2453101952
 40
0.4846726154
 40
0.7309751212
 40
1.0
 40
1.0
 40
1.0
 40
1.0
 10
18.4951652004
 20
15.4774388549
 30
0.0
 10
18.4951623916
 20
15.4820069512
 30
0.0
 10
18.4941615975
 20
15.4910805642
 30
0.0
 10
18.4891569816
 20
15.5039197116
 30
0.0
 10
18.4804691673
 20
15.5152037083
 30
0.0
 10
18.4726077744
 20
15.5209450946
 30
0.0
 10
18.4682364574
 20
15.5233922837
 30
0.0
 11
18.4951652004
 21
15.4774388549
 31
0.0
 11
18.4935556305
 21
15.4910482962
 31
0.0
 11
18.4886541297
 21
15.5034896048
 31
0.0
 11
18.4802900677
 21
15.5144153798
 31
0.0
 11
18.4682364574
 21
15.5233922837
 31
0.0
  0
SPLINE
  5
49D
100
AcDbEntity
  8
RACCORDO
100
AcDbSpline
 62
253
  6
CONTINUOUS
 70
0
 71
3
 72
15
 73
11
 74
9
 42
0.0000001
 43
0.0000001
 44
0.0000000001
 12
0.9801430066
 22
0.4900636375
 32
0.0
 13
1.0202931533
 23
-0.3998056574
 33
0.0
 40
0.0
 40
0.0
 40
0.0
 40
0.0
 40
0.1109318219
 40
0.2314291971
 40
0.3591584417
 40
0.4912948844
 40
0.6246941119
 40
0.7560625163
 40
0.882152807
 40
1.0
 40
1.0
 40
1.0
 40
1.0
 10
-3.0037909674
 20
24.4107221151
 30
0.0
 10
-2.9675479509
 20
24.4288433325
 30
0.0
 10
-2.8891080878
 20
24.4611044349
 30
0.0
 10
-2.7626033079
 20
24.4967117485
 30
0.0
 10
-2.6255230465
 20
24.5206835494
 30
0.0
 10
-2.4821352692
 20
24.532174952
 30
0.0
 10
-2.3369675443
 20
24.5307294007
 30
0.0
 10
-2.1947128234
 20
24.5162938174
 30
0.0
 10
-2.0600917077
 20
24.4892699292
 30
0.0
 10
-1.9749018949
 20
24.4623027096
 30
0.0
 10
-1.9348223335
 20
24.4465973848
 30
0.0
 11
-3.0037909674
 21
24.4107221151
 31
0.0
 11
-2.8916435959
 21
24.4576303229
 31
0.0
 11
-2.7646728035
 21
24.4938821395
 31
0.0
 11
-2.6268467204
 21
24.5182835917
 31
0.0
 11
-2.4825206311
 21
24.5299772058
 31
0.0
 11
-2.3363454203
 21
24.5284844755
 31
0.0
 11
-2.1931442759
 21
24.5137479838
 31
0.0
 11
-2.0577520801
 21
24.4861642098
 31
0.0
 11
-1.9348223335
 21
24.4465973848
 31
0.0
  0
SPLINE
  5
49E
100
AcDbEntity
  8
RACCORDO
100
AcDbSpline
 62
253
  6
CONTINUOUS
 70
0
 71
3
 72
13
 73
9
 74
7
 42
0.0000001
 43
0.0000001
 44
0.0000000001
 12
-0.4029948776
 22
0.2015008824
 32
0.0
 13
-0.406411618
 23
-0.1945175409
 33
0.0
 40
0.0
 40
0.0
 40
0.0
 40
0.0
 40
0.1134934582
 40
0.2282840571
 40
0.3455908825
 40
0.466489968
 40
0.7220461039
 40
1.0
 40
1.0
 40
1.0
 40
1.0
 10
11.3658654812
 20
27.1671364046
 30
0.0
 10
11.3506197205
 20
27.1747594153
 30
0.0
 10
11.3188617175
 20
27.1880087582
 30
0.0
 10
11.2685609751
 20
27.2013861608
 30
0.0
 10
11.2158408863
 20
27.208238952
 30
0.0
 10
11.1415201563
 20
27.2086436907
 30
0.0
 10
11.0438615887
 20
27.1917673057
 30
0.0
 10
10.9686471803
 20
27.1627954085
 30
0.0
 10
10.930992616
 20
27.1447731057
 30
0.0
 11
11.3658654812
 21
27.1671364046
 31
0.0
 11
11.318679148
 21
27.1868427887
 31
0.0
 11
11.2687114628
 21
27.2001932912
 31
0.0
 11
11.2163098502
 21
27.2070950892
 31
0.0
 11
11.1618386401
 21
27.2075001885
 31
0.0
 11
11.0482141241
 21
27.1888542181
 31
0.0
 11
10.930992616
 21
27.1447731057
 31
0.0
  0
SPLINE
  5
49F
100
AcDbEntity
  8
RACCORDO
100
AcDbSpline
 62
253
  6
CONTINUOUS
 70
0
 71
3
 72
11
 73
7
 74
5
 42
0.0000001
 43
0.0000001
 44
0.0000000001
 12
0.0829653579
 22
0.0414856941
 32
0.0
 13
0.082966564
 23
-0.041483282
 33
0.0
 40
0.0
 40
0.0
 40
0.0
 40
0.0
 40
0.2271109519
 40
0.4646760174
 40
0.7207663845
 40
1.0
 40
1.0
 40
1.0
 40
1.0
 10
-3.0932336527
 20
24.4164024051
 30
0.0
 10
-3.0869528722
 20
24.4195430236
 30
0.0
 10
-3.0731115628
 20
24.4241488081
 30
0.0
 10
-3.0506233928
 20
24.4252732693
 30
0.0
 10
-3.0269557554
 20
24.4208270063
 30
0.0
 10
-3.0115133186
 20
24.4145832907
 30
0.0
 10
-3.0037909674
 20
24.4107221151
 30
0.0
 11
-3.0932336527
 21
24.4164024051
 31
0.0
 11
-3.0732660769
 21
24.4231181408
 31
0.0
 11
-3.0512674759
 21
24.4244083238
 31
0.0
 11
-3.0278819579
 21
24.4202360335
 31
0.0
 11
-3.0037909674
 21
24.4107221151
 31
0.0
  0
SPLINE
  5
4A0
100
AcDbEntity
  8
RACCORDO
100
AcDbSpline
 62
7
  6
CONTINUOUS
 70
0
 71
3
 72
11
 73
7
 74
5
 42
0.0000001
 43
0.0000001
 44
0.0000000001
 12
0.0789043412
 22
0.0394542114
 32
0.0
 13
0.0789051575
 23
-0.0394525788
 33
0.0
 40
0.0
 40
0.0
 40
0.0
 40
0.0
 40
0.21439309
 40
0.4477462014
 40
0.7084790342
 40
1.0
 40
1.0
 40
1.0
 40
1.0
 10
-3.1547905888
 20
24.3856240137
 30
0.0
 10
-3.1491517403
 20
24.3884435838
 30
0.0
 10
-3.1363436101
 20
24.3924069921
 30
0.0
 10
-3.1152973487
 20
24.3927217308
 30
0.0
 10
-3.0925644803
 20
24.3878072126
 30
0.0
 10
-3.0774949864
 20
24.3815376082
 30
0.0
 10
-3.0698274838
 20
24.3777038569
 30
0.0
 11
-3.1547905888
 21
24.3856240137
 31
0.0
 11
-3.1367730044
 21
24.3913760521
 31
0.0
 11
-3.116195512
 21
24.3919711606
 31
0.0
 11
-3.09365843
 21
24.387372373
 31
0.0
 11
-3.0698274838
 21
24.3777038569
 31
0.0
  0
SPLINE
  5
4A1
100
AcDbEntity
  8
RACCORDO
100
AcDbSpline
 62
7
  6
CONTINUOUS
 70
0
 71
3
 72
11
 73
7
 74
5
 42
0.0000001
 43
0.0000001
 44
0.0000000001
 12
-0.0765301677
 22
0.0305099101
 32
0.0
 13
-0.0717520392
 23
-0.0404890855
 33
0.0
 40
0.0
 40
0.0
 40
0.0
 40
0.0
 40
0.2250513632
 40
0.4620103533
 40
0.7188096933
 40
1.0
 40
1.0
 40
1.0
 40
1.0
 10
-1.8557119708
 20
24.4571790263
 30
0.0
 10
-1.8614530437
 20
24.4594677919
 30
0.0
 10
-1.8739620437
 20
24.4625102161
 30
0.0
 10
-1.8938851867
 20
24.4620197752
 30
0.0
 10
-1.9146477142
 20
24.4567078396
 30
0.0
 10
-1.9280968616
 20
24.4503923579
 30
0.0
 10
-1.9348221875
 20
24.4465973118
 30
0.0
 11
-1.8557119708
 21
24.4571790263
 31
0.0
 11
-1.8737099899
 21
24.4616351008
 31
0.0
 11
-1.8932301167
 21
24.4613314097
 31
0.0
 11
-1.913774416
 21
24.456276298
 31
0.0
 11
-1.9348221875
 21
24.4465973118
 31
0.0
  0
SPLINE
  5
4A2
100
AcDbEntity
  8
RACCORDO
100
AcDbSpline
 62
253
  6
CONTINUOUS
 70
0
 71
3
 72
9
 73
5
 74
3
 42
0.0000001
 43
0.0000001
 44
0.0000000001
 12
-0.2367374143
 22
-0.2736055988
 32
0.0
 13
-0.3080716099
 23
-0.189727463
 33
0.0
 40
0.0
 40
0.0
 40
0.0
 40
0.0
 40
0.5058186902
 40
1.0
 40
1.0
 40
1.0
 40
1.0
 10
20.0231547687
 20
16.6427680832
 30
0.0
 10
19.9832393658
 20
16.5966364747
 30
0.0
 10
19.8976884626
 20
16.5109220814
 30
0.0
 10
19.7999233754
 20
16.439344362
 30
0.0
 10
19.7491756315
 20
16.4080911066
 30
0.0
 11
20.0231547687
 21
16.6427680832
 31
0.0
 11
19.8935678441
 21
16.5135414944
 31
0.0
 11
19.7491756315
 21
16.4080911066
 31
0.0
  0
SPLINE
  5
4A3
100
AcDbEntity
  8
RACCORDO
100
AcDbSpline
 62
253
  6
CONTINUOUS
 70
0
 71
3
 72
12
 73
8
 74
6
 42
0.0000001
 43
0.0000001
 44
0.0000000001
 12
0.2685772639
 22
0.929780267
 32
0.0
 13
-0.418229494
 23
0.8727595213
 33
0.0
 40
0.0
 40
0.0
 40
0.0
 40
0.0
 40
0.1206887359
 40
0.2431826197
 40
0.4918047444
 40
0.7441949472
 40
1.0
 40
1.0
 40
1.0
 40
1.0
 10
18.5816901114
 20
19.1460635783
 30
0.0
 10
18.5924948616
 20
19.1834682467
 30
0.0
 10
18.6101749042
 20
19.2600731986
 30
0.0
 10
18.6308190505
 20
19.4175576439
 30
0.0
 10
18.6300255949
 20
19.6198188467
 30
0.0
 10
18.5876896499
 20
19.861374819
 30
0.0
 10
18.5308875928
 20
20.016362803
 30
0.0
 10
18.4952258535
 20
20.0907815681
 30
0.0
 11
18.5816901114
 21
19.1460635783
 31
0.0
 11
18.6082032613
 21
19.259816466
 31
0.0
 11
18.6237760389
 21
19.3773380189
 31
0.0
 11
18.6232858026
 21
19.6179525028
 31
0.0
 11
18.5808822105
 21
19.858505442
 31
0.0
 11
18.4952258535
 21
20.0907815681
 31
0.0
  0
SPLINE
  5
4A4
100
AcDbEntity
  8
RACCORDO
100
AcDbSpline
 62
253
  6
CONTINUOUS
 70
0
 71
3
 72
12
 73
8
 74
6
 42
0.0000001
 43
0.0000001
 44
0.0000000001
 12
-0.149658779
 22
0.0861885027
 32
0.0
 13
-0.0355030795
 23
0.1690140215
 33
0.0
 40
0.0
 40
0.0
 40
0.0
 40
0.0
 40
0.2994557864
 40
0.4375546653
 40
0.5671081891
 40
0.7996366922
 40
1.0
 40
1.0
 40
1.0
 40
1.0
 10
18.5816901005
 20
19.1460645697
 30
0.0
 10
18.5667513714
 20
19.154667785
 30
0.0
 10
18.5456063421
 20
19.1685483071
 30
0.0
 10
18.5205272393
 20
19.1895007758
 30
0.0
 10
18.5000688151
 20
19.2098015249
 30
0.0
 10
18.4802858455
 20
19.2357361029
 30
0.0
 10
18.4706077574
 20
19.2592018717
 30
0.0
 10
18.4682365859
 20
19.2704899412
 30
0.0
 11
18.5816901005
 21
19.1460645697
 31
0.0
 11
18.53864951
 21
19.1747374844
 31
0.0
 11
18.5203859554
 21
19.190075905
 31
0.0
 11
18.5045462632
 21
19.2058781413
 31
0.0
 11
18.480755291
 21
19.2382305438
 31
0.0
 11
18.4682365859
 21
19.2704899412
 31
0.0
  0
SPLINE
  5
4A5
100
AcDbEntity
  8
RACCORDO
100
AcDbSpline
 62
253
  6
CONTINUOUS
 70
0
 71
3
 72
11
 73
7
 74
5
 42
0.0000001
 43
0.0000001
 44
0.0000000001
 12
-0.1889724053
 22
-0.1470907027
 32
0.0
 13
-0.0264976715
 23
-0.2380002483
 33
0.0
 40
0.0
 40
0.0
 40
0.0
 40
0.0
 40
0.2485721709
 40
0.4981828103
 40
0.7487393382
 40
1.0
 40
1.0
 40
1.0
 40
1.0
 10
18.5816904607
 20
15.7275385142
 30
0.0
 10
18.5660327004
 20
15.7153509624
 30
0.0
 10
18.5370556165
 20
15.6876518239
 30
0.0
 10
18.5027639235
 20
15.6382304969
 30
0.0
 10
18.4788401176
 20
15.5828097321
 30
0.0
 10
18.4704557525
 20
15.5433256479
 30
0.0
 10
18.4682364783
 20
15.5233922812
 30
0.0
 11
18.5816904607
 21
15.7275385142
 31
0.0
 11
18.5386497777
 21
15.6864189751
 31
0.0
 11
18.5045464118
 21
15.6373277819
 31
0.0
 11
18.4807553098
 21
15.5822451266
 31
0.0
 11
18.4682364783
 21
15.5233922812
 31
0.0
  0
SPLINE
  5
4A6
100
AcDbEntity
  8
RACCORDO
100
AcDbSpline
 62
253
  6
CONTINUOUS
 70
0
 71
3
 72
15
 73
11
 74
9
 42
0.0000001
 43
0.0000001
 44
0.0000000001
 12
1.0820456139
 22
2.017704014
 32
0.0
 13
-0.7545663129
 23
2.1616155713
 33
0.0
 40
0.0
 40
0.0
 40
0.0
 40
0.0
 40
0.1034742686
 40
0.2134235248
 40
0.3301147774
 40
0.4534195439
 40
0.5828811624
 40
0.7177779881
 40
0.8571800362
 40
1.0
 40
1.0
 40
1.0
 40
1.0
 10
20.0782428163
 20
17.0146391626
 30
0.0
 10
20.1155641091
 20
17.084232645
 30
0.0
 10
20.1811972026
 20
17.2340585017
 30
0.0
 10
20.2500249979
 20
17.4770790113
 30
0.0
 10
20.2913711717
 20
17.7415277622
 30
0.0
 10
20.30473475
 20
18.0236584452
 30
0.0
 10
20.2900094814
 20
18.3195707098
 30
0.0
 10
20.2474316643
 20
18.6251365784
 30
0.0
 10
20.1776258008
 20
18.9360567009
 30
0.0
 10
20.1141651942
 20
19.1421385081
 30
0.0
 10
20.0782428163
 20
19.245045794
 30
0.0
 11
20.0782428163
 21
17.0146391626
 31
0.0
 11
20.1742379666
 21
17.231226596
 31
0.0
 11
20.2438003167
 21
17.4731567415
 31
0.0
 11
20.2859384395
 21
17.7369810148
 31
0.0
 11
20.3000515496
 21
18.0189381116
 31
0.0
 11
20.2859384395
 21
18.3150083186
 31
0.0
 11
20.2438003167
 21
18.6209707146
 31
0.0
 11
20.1742379666
 21
18.9324632103
 31
0.0
 11
20.0782428163
 21
19.245045794
 31
0.0
  0
SPLINE
  5
4A7
100
AcDbEntity
  8
RACCORDO
100
AcDbSpline
 62
7
  6
CONTINUOUS
 70
0
 71
3
 72
10
 73
6
 74
4
 42
0.0000001
 43
0.0000001
 44
0.0000000001
 12
0.0851883904
 22
0.0445591271
 32
0.0
 13
0.0457528184
 23
0.0845532807
 33
0.0
 40
0.0
 40
0.0
 40
0.0
 40
0.0
 40
0.5245740078
 40
0.7673423928
 40
1.0
 40
1.0
 40
1.0
 40
1.0
 10
20.0818804084
 20
17.0164558117
 30
0.0
 10
20.0967762802
 20
17.0242473317
 30
0.0
 10
20.1174833544
 20
17.0382444741
 30
0.0
 10
20.1393526346
 20
17.0618089417
 30
0.0
 10
20.1478111452
 20
17.0745884415
 30
0.0
 10
20.1513593923
 20
17.0811457628
 30
0.0
 11
20.0818804084
 21
17.0164558117
 31
0.0
 11
20.1232532886
 21
17.0452939428
 31
0.0
 11
20.1390682373
 21
17.0624582217
 31
0.0
 11
20.1513593923
 21
17.0811457628
 31
0.0
  0
SPLINE
  5
4A8
100
AcDbEntity
  8
RACCORDO
100
AcDbSpline
 62
253
  6
CONTINUOUS
 70
0
 71
3
 72
11
 73
7
 74
5
 42
0.0000001
 43
0.0000001
 44
0.0000000001
 12
0.0105987568
 22
-0.2296465682
 32
0.0
 13
-0.1478022736
 23
-0.1760805719
 33
0.0
 40
0.0
 40
0.0
 40
0.0
 40
0.0
 40
0.2824175872
 40
0.5422773456
 40
0.7803152054
 40
1.0
 40
1.0
 40
1.0
 40
1.0
 10
20.0818804084
 20
16.8600410034
 30
0.0
 10
20.0828781668
 20
16.8384222602
 30
0.0
 10
20.0821887832
 20
16.7967150852
 30
0.0
 10
20.0720771379
 20
16.7375041878
 30
0.0
 10
20.0530765858
 20
16.6855426174
 30
0.0
 10
20.0339782168
 20
16.655662017
 30
0.0
 10
20.0231549128
 20
16.6427679423
 30
0.0
 11
20.0818804084
 21
16.8600410034
 31
0.0
 11
20.0804411288
 21
16.795131692
 31
0.0
 11
20.0699606973
 21
16.7363187737
 31
0.0
 11
20.0507032783
 21
16.6850963869
 31
0.0
 11
20.0231549128
 21
16.6427679423
 31
0.0
  0
SPLINE
  5
4A9
100
AcDbEntity
  8
RACCORDO
100
AcDbSpline
 62
253
  6
CONTINUOUS
 70
0
 71
3
 72
12
 73
8
 74
6
 42
0.0000001
 43
0.0000001
 44
0.0000000001
 12
-0.0000085323
 22
-0.1404183784
 32
0.0
 13
-0.1246954189
 23
-0.0645629426
 33
0.0
 40
0.0
 40
0.0
 40
0.0
 40
0.0
 40
0.1028544724
 40
0.2084744795
 40
0.436677136
 40
0.6988754078
 40
1.0
 40
1.0
 40
1.0
 40
1.0
 10
20.1660784582
 20
16.964236251
 30
0.0
 10
20.1660781656
 20
16.9594220316
 30
0.0
 10
20.1651248418
 20
16.9496393607
 30
0.0
 10
20.1593351461
 20
16.9299288259
 30
0.0
 10
20.144390704
 20
16.9057712084
 30
0.0
 10
20.1170095385
 20
16.8803835826
 30
0.0
 10
20.0943966941
 20
16.8665215
 30
0.0
 10
20.0818804084
 20
16.8600410034
 30
0.0
 11
20.1660784582
 21
16.964236251
 31
0.0
 11
20.1646967336
 21
16.9498598393
 31
0.0
 11
20.160565576
 21
16.9356158298
 31
0.0
 11
20.1442322387
 21
16.9080471841
 31
0.0
 11
20.1176789144
 21
16.8825433403
 31
0.0
 11
20.0818804084
 21
16.8600410034
 31
0.0
  0
SPLINE
  5
4AA
100
AcDbEntity
  8
RACCORDO
100
AcDbSpline
 62
253
  6
CONTINUOUS
 70
0
 71
3
 72
13
 73
9
 74
7
 42
0.0000001
 43
0.0000001
 44
0.0000000001
 12
-0.3457764418
 22
-0.1367647386
 32
0.0
 13
-0.3718401721
 23
0.0009098593
 33
0.0
 40
0.0
 40
0.0
 40
0.0
 40
0.0
 40
0.0991461335
 40
0.2059679956
 40
0.3203911299
 40
0.4422446837
 40
0.7073998682
 40
1.0
 40
1.0
 40
1.0
 40
1.0
 10
18.5816895257
 20
15.7275381388
 30
0.0
 10
18.5702620599
 20
15.7230182405
 30
0.0
 10
18.5460164097
 20
15.7148905237
 30
0.0
 10
18.5074621146
 20
15.7052594398
 30
0.0
 10
18.465624853
 20
15.6975115076
 30
0.0
 10
18.4040077768
 20
15.6892355919
 30
0.0
 10
18.319918179
 20
15.683162086
 30
0.0
 10
18.2507716478
 20
15.6819967432
 30
0.0
 10
18.21450482
 20
15.6820854848
 30
0.0
 11
18.5816895257
 21
15.7275381388
 31
0.0
 11
18.546794947
 21
15.7156420693
 31
0.0
 11
18.508294066
 21
15.7058736299
 31
0.0
 11
18.466478674
 21
15.6980160812
 31
0.0
 11
18.4215843881
 21
15.6918910755
 31
0.0
 11
18.3232836863
 21
15.6842704999
 31
0.0
 11
18.21450482
 21
15.6820854848
 31
0.0
  0
SPLINE
  5
4AB
100
AcDbEntity
  8
RACCORDO
100
AcDbSpline
 62
253
  6
CONTINUOUS
 70
0
 71
3
 72
9
 73
5
 74
3
 42
0.0000001
 43
0.0000001
 44
0.0000000001
 12
0.1205764709
 22
-0.2810044627
 32
0.0
 13
-0.013455708
 23
-0.3054850853
 33
0.0
 40
0.0
 40
0.0
 40
0.0
 40
0.0
 40
0.5153324678
 40
1.0
 40
1.0
 40
1.0
 40
1.0
 10
20.023154957
 20
19.7015999331
 30
0.0
 10
20.0438672805
 20
19.6533296921
 30
0.0
 10
20.0747384657
 20
19.5553714515
 30
0.0
 10
20.0840542567
 20
19.4527635221
 30
0.0
 10
20.0818804084
 20
19.4034106213
 30
0.0
 11
20.023154957
 21
19.7015999331
 31
0.0
 11
20.0699607153
 21
19.5511327619
 31
0.0
 11
20.0818804084
 21
19.4034106213
 31
0.0
  0
SPLINE
  5
4AC
100
AcDbEntity
  8
RACCORDO
100
AcDbSpline
 62
253
  6
CONTINUOUS
 70
0
 71
3
 72
11
 73
7
 74
5
 42
0.0000001
 43
0.0000001
 44
0.0000000001
 12
0.4308674018
 22
0.4472400442
 32
0.0
 13
0.2847488521
 23
0.55189534
 33
0.0
 40
0.0
 40
0.0
 40
0.0
 40
0.0
 40
0.2611192357
 40
0.5158123981
 40
0.7627524983
 40
1.0
 40
1.0
 40
1.0
 40
1.0
 10
18.21450482
 20
18.6476422222
 30
0.0
 10
18.2520074088
 20
18.6865698817
 30
0.0
 10
18.3237278764
 20
18.7657860982
 30
0.0
 10
18.4220656371
 20
18.8894645136
 30
0.0
 10
18.5088658581
 20
19.0155523808
 30
0.0
 10
18.5591711334
 20
19.1024181947
 30
0.0
 10
18.5816897846
 20
19.1460634582
 30
0.0
 11
18.21450482
 21
18.6476422222
 31
0.0
 11
18.3232838104
 21
18.7679060691
 31
0.0
 11
18.4215845984
 21
18.8918207779
 31
0.0
 11
18.5082943329
 21
19.018309414
 31
0.0
 11
18.5816897846
 21
19.1460634582
 31
0.0
  0
SPLINE
  5
4AD
100
AcDbEntity
  8
RACCORDO
100
AcDbSpline
 62
253
  6
CONTINUOUS
 70
0
 71
3
 72
9
 73
5
 74
3
 42
0.0000001
 43
0.0000001
 44
0.0000000001
 12
-0.0360574716
 22
-0.0416744531
 32
0.0
 13
-0.046972076
 23
-0.0288188373
 33
0.0
 40
0.0
 40
0.0
 40
0.0
 40
0.0
 40
0.4975567281
 40
1.0
 40
1.0
 40
1.0
 40
1.0
 10
20.0650931065
 20
16.678266308
 30
0.0
 10
20.0591128939
 20
16.6713545065
 30
0.0
 10
20.045987447
 20
16.6583835152
 30
0.0
 10
20.0310217434
 20
16.64759474
 30
0.0
 10
20.0231548089
 20
16.6427681297
 30
0.0
 11
20.0650931065
 21
16.678266308
 31
0.0
 11
20.0455960062
 21
16.6589871338
 31
0.0
 11
20.0231548089
 21
16.6427681297
 31
0.0
  0
SPLINE
  5
4AE
100
AcDbEntity
  8
RACCORDO
100
AcDbSpline
 62
253
  6
CONTINUOUS
 70
0
 71
3
 72
13
 73
9
 74
7
 42
0.0000001
 43
0.0000001
 44
0.0000000001
 12
-0.3980210362
 22
0.2059281173
 32
0.0
 13
-0.4068442861
 23
-0.1878958799
 33
0.0
 40
0.0
 40
0.0
 40
0.0
 40
0.0
 40
0.2781129522
 40
0.5337009401
 40
0.6545763687
 40
0.7718393858
 40
0.88657195
 40
1.0
 40
1.0
 40
1.0
 40
1.0
 10
10.930992616
 20
27.1447731057
 30
0.0
 10
10.8940943476
 20
27.1638635313
 30
0.0
 10
10.8201955858
 20
27.1950106853
 30
0.0
 10
10.7236132408
 20
27.2148411705
 30
0.0
 10
10.6497216103
 20
27.216756711
 30
0.0
 10
10.5971162877
 20
27.2115872976
 30
0.0
 10
10.5467197554
 20
27.1998549866
 30
0.0
 10
10.514755711
 20
27.1876710287
 30
0.0
 10
10.499373193
 20
27.1805668076
 30
0.0
 11
10.930992616
 21
27.1447731057
 31
0.0
 11
10.8157600758
 21
27.1922578479
 31
0.0
 11
10.7033700575
 21
27.2143386193
 31
0.0
 11
10.6492167442
 21
27.2156338673
 31
0.0
 11
10.5969275521
 21
27.2104053835
 31
0.0
 11
10.546864245
 21
27.1986893443
 31
0.0
 11
10.499373193
 21
27.1805668076
 31
0.0
  0
SPLINE
  5
4AF
100
AcDbEntity
  8
RACCORDO
100
AcDbSpline
 62
253
  6
CONTINUOUS
 70
0
 71
3
 72
9
 73
5
 74
3
 42
0.0000001
 43
0.0000001
 44
0.0000000001
 12
-0.2177712776
 22
0.1126705001
 32
0.0
 13
-0.2445917997
 23
0.0171412507
 33
0.0
 40
0.0
 40
0.0
 40
0.0
 40
0.0
 40
0.5216441079
 40
1.0
 40
1.0
 40
1.0
 40
1.0
 10
5.0126735488
 20
24.4114972341
 30
0.0
 10
4.9748071808
 20
24.4310885349
 30
0.0
 10
4.8989756956
 20
24.4628769817
 30
0.0
 10
4.8180130148
 20
24.4787915758
 30
0.0
 10
4.7790123719
 20
24.4815247819
 30
0.0
 11
5.0126735488
 21
24.4114972341
 31
0.0
 11
4.8942968231
 21
24.4599335719
 31
0.0
 11
4.7790123719
 21
24.4815247819
 31
0.0
  0
SPLINE
  5
4B0
100
AcDbEntity
  8
RACCORDO
100
AcDbSpline
 62
253
  6
CONTINUOUS
 70
0
 71
3
 72
17
 73
13
 74
11
 42
0.0000001
 43
0.0000001
 44
0.0000000001
 12
0.0424844657
 22
-0.0915151595
 32
0.0
 13
-0.0900412165
 23
-0.0455250873
 33
0.0
 40
0.0
 40
0.0
 40
0.0
 40
0.0
 40
0.0071975865
 40
0.0208540641
 40
0.0421680819
 40
0.0713653033
 40
0.1534024964
 40
0.2664166582
 40
0.4092742188
 40
0.5804446189
 40
0.7780809023
 40
1.0
 40
1.0
 40
1.0
 40
1.0
 10
20.1103724216
 20
19.7513804946
 30
0.0
 10
20.1104743501
 20
19.7511609319
 30
0.0
 10
20.1101762621
 20
19.7503931159
 30
0.0
 10
20.1092098075
 20
19.7494219416
 30
0.0
 10
20.1075519321
 20
19.7479977809
 30
0.0
 10
20.1039402986
 20
19.7454037182
 30
0.0
 10
20.0975578691
 20
19.741359648
 30
0.0
 10
20.0877456485
 20
19.7356338901
 30
0.0
 10
20.0751823454
 20
19.7286685231
 30
0.0
 10
20.060008441
 20
19.720552598
 30
0.0
 10
20.042386685
 20
19.7113764167
 30
0.0
 10
20.0298155449
 20
19.7049674983
 30
0.0
 10
20.023154923
 20
19.7015998695
 30
0.0
 11
20.1103724216
 21
19.7513804946
 31
0.0
 11
20.1102471592
 21
19.7506651734
 31
0.0
 11
20.1093697523
 21
19.7496027647
 31
0.0
 11
20.1077429165
 21
19.7481963402
 31
0.0
 11
20.1053707618
 21
19.7464496101
 31
0.0
 11
20.09841962
 21
19.7419558645
 31
0.0
 11
20.0885932104
 21
19.7361712216
 31
0.0
 11
20.0759999128
 21
19.7291595001
 31
0.0
 11
20.0607794333
 21
19.7209984586
 31
0.0
 11
20.0430987394
 21
19.7117776615
 31
0.0
 11
20.023154923
 21
19.7015998695
 31
0.0
  0
SPLINE
  5
4B1
100
AcDbEntity
  8
RACCORDO
100
AcDbSpline
 62
7
  6
CONTINUOUS
 70
0
 71
3
 72
11
 73
7
 74
5
 42
0.0000001
 43
0.0000001
 44
0.0000000001
 12
0.3836765461
 22
-0.5611657768
 32
0.0
 13
0.6080228424
 23
-0.3040114212
 33
0.0
 40
0.0
 40
0.0
 40
0.0
 40
0.0
 40
0.2557183944
 40
0.5065653329
 40
0.7541170403
 40
1.0
 40
1.0
 40
1.0
 40
1.0
 10
-5.1267341758
 20
-6.6285128435
 30
0.0
 10
-5.0940297923
 20
-6.676346314
 30
0.0
 10
-5.0237878987
 20
-6.7675283161
 30
0.0
 10
-4.9034470655
 20
-6.8894640399
 30
0.0
 10
-4.7702055318
 20
-6.9936112678
 30
0.0
 10
-4.6734344567
 20
-7.0503999397
 30
0.0
 10
-4.6236003047
 20
-7.0753170157
 30
0.0
 11
-5.1267341758
 21
-6.6285128435
 31
0.0
 11
-5.0204124635
 21
-6.7660419381
 31
0.0
 11
-4.9004666289
 21
-6.887249156
 31
0.0
 11
-4.7677834423
 21
-6.9907596193
 31
0.0
 11
-4.6236003047
 21
-7.0753170157
 31
0.0
  0
SPLINE
  5
4B2
100
AcDbEntity
  8
RACCORDO
100
AcDbSpline
 62
7
  6
CONTINUOUS
 70
0
 71
3
 72
14
 73
10
 74
8
 42
0.0000001
 43
0.0000001
 44
0.0000000001
 12
-2.8544658143
 22
-1.4272329072
 32
0.0
 13
-1.105543792
 23
-2.9937838567
 33
0.0
 40
0.0
 40
0.0
 40
0.0
 40
0.0
 40
0.1106569725
 40
0.2269920761
 40
0.3485515305
 40
0.4745552571
 40
0.6039764998
 40
0.7356107644
 40
1.0
 40
1.0
 40
1.0
 40
1.0
 10
-3.194625542
 20
1.7642110889
 30
0.0
 10
-3.2999143903
 20
1.7115666647
 30
0.0
 10
-3.5089077518
 20
1.5891896968
 30
0.0
 10
-3.8059856812
 20
1.3662033713
 30
0.0
 10
-4.0906353238
 20
1.1029083525
 30
0.0
 10
-4.3585386376
 20
0.8037673615
 30
0.0
 10
-4.6055961185
 20
0.4736872575
 30
0.0
 10
-4.9021144955
 20
-0.0006418289
 30
0.0
 10
-5.0813328443
 20
-0.3846688275
 30
0.0
 10
-5.178764137
 20
-0.6485102359
 30
0.0
 11
-3.194625542
 21
1.7642110889
 31
0.0
 11
-3.4999907883
 21
1.5868226473
 31
0.0
 11
-3.7975449522
 21
1.3647789021
 31
0.0
 11
-4.0828867076
 21
1.1019475462
 31
0.0
 11
-4.3516125084
 21
0.8027944507
 31
0.0
 11
-4.5994371808
 21
0.4723709127
 31
0.0
 11
-4.822307806
 21
0.1162676369
 31
0.0
 11
-5.178764137
 21
-0.6485102359
 31
0.0
  0
SPLINE
  5
4B3
100
AcDbEntity
  8
RACCORDO
100
AcDbSpline
 62
7
  6
CONTINUOUS
 70
0
 71
3
 72
9
 73
5
 74
3
 42
0.0000001
 43
0.0000001
 44
0.0000000001
 12
-0.0004064978
 22
0.0259299962
 32
0.0
 13
-0.0020641494
 23
0.0258509038
 33
0.0
 40
0.0
 40
0.0
 40
0.0
 40
0.0
 40
0.2485360477
 40
1.0
 40
1.0
 40
1.0
 40
1.0
 10
8.3887237008
 20
22.5077892701
 30
0.0
 10
8.3886900244
 20
22.5099374497
 30
0.0
 10
8.3884863873
 20
22.5185797178
 30
0.0
 10
8.3879776568
 20
22.5272136774
 30
0.0
 10
8.3874606122
 20
22.5336890181
 30
0.0
 11
8.3887237008
 21
22.5077892701
 31
0.0
 11
8.3885699564
 21
22.5142327668
 31
0.0
 11
8.3874606122
 21
22.5336890181
 31
0.0
  0
SPLINE
  5
4B4
100
AcDbEntity
  8
RACCORDO
100
AcDbSpline
 62
7
  6
CONTINUOUS
 70
0
 71
3
 72
9
 73
5
 74
3
 42
0.0000001
 43
0.0000001
 44
0.0000000001
 12
-0.0005033316
 22
-0.0035205451
 32
0.0
 13
-0.0017156907
 23
-0.0031151222
 33
0.0
 40
0.0
 40
0.0
 40
0.0
 40
0.0
 40
0.211301006
 40
1.0
 40
1.0
 40
1.0
 40
1.0
 10
8.3887237008
 20
-15.0101549322
 30
0.0
 10
8.3886882493
 20
-15.0104028972
 30
0.0
 10
8.3884373686
 20
-15.0115651073
 30
0.0
 10
8.3879116667
 20
-15.0126477168
 30
0.0
 10
8.3874606122
 20
-15.0134666814
 30
0.0
 11
8.3887237008
 21
-15.0101549322
 31
0.0
 11
8.3885699564
 21
-15.0108904955
 31
0.0
 11
8.3874606122
 21
-15.0134666814
 31
0.0
  0
SPLINE
  5
4B5
100
AcDbEntity
  8
RACCORDO
100
AcDbSpline
 62
7
  6
CONTINUOUS
 70
0
 71
3
 72
9
 73
5
 74
3
 42
0.0000001
 43
0.0000001
 44
0.0000000001
 12
0.003195696
 22
0.0016680086
 32
0.0
 13
-0.0000093949
 23
0.0036048076
 33
0.0
 40
0.0
 40
0.0
 40
0.0
 40
0.0
 40
0.5036977787
 40
1.0
 40
1.0
 40
1.0
 40
1.0
 10
8.3869899027
 20
21.9224954307
 30
0.0
 10
8.3875264577
 20
21.9227754881
 30
0.0
 10
8.3885132977
 20
21.9235986151
 30
0.0
 10
8.3887718173
 20
21.9248533866
 30
0.0
 10
8.3887702631
 20
21.9254497446
 30
0.0
 11
8.3869899027
 21
21.9224954307
 31
0.0
 11
8.3883358127
 21
21.9237142158
 31
0.0
 11
8.3887702631
 21
21.9254497446
 31
0.0
  0
SPLINE
  5
4B6
100
AcDbEntity
  8
RACCORDO
100
AcDbSpline
 62
7
  6
CONTINUOUS
 70
0
 71
3
 72
10
 73
6
 74
4
 42
0.0000001
 43
0.0000001
 44
0.0000000001
 12
-0.431001698
 22
0.4732084891
 32
0.0
 13
-0.5725276644
 23
0.286183178
 33
0.0
 40
0.0
 40
0.0
 40
0.0
 40
0.0
 40
0.506838871
 40
0.7558957822
 40
1.0
 40
1.0
 40
1.0
 40
1.0
 10
8.3874606122
 20
22.5336890181
 30
0.0
 10
8.3146444742
 20
22.6136358369
 30
0.0
 10
8.1972877843
 20
22.7255925703
 30
0.0
 10
8.0245995712
 20
22.8512857597
 30
0.0
 10
7.9333717945
 20
22.9042752085
 30
0.0
 10
7.886786322
 20
22.9275613821
 30
0.0
 11
8.3874606122
 21
22.5336890181
 31
0.0
 11
8.1513413062
 21
22.756154358
 31
0.0
 11
8.022197528
 21
22.849613486
 31
0.0
 11
7.886786322
 21
22.9275613821
 31
0.0
  0
SPLINE
  5
4B7
100
AcDbEntity
  8
RACCORDO
100
AcDbSpline
 62
7
  6
CONTINUOUS
 70
0
 71
3
 72
11
 73
7
 74
5
 42
0.0000001
 43
0.0000001
 44
0.0000000001
 12
0.4104598159
 22
0.2008428369
 32
0.0
 13
0.4087143287
 23
-0.2043714832
 33
0.0
 40
0.0
 40
0.0
 40
0.0
 40
0.0
 40
0.2787325875
 40
0.5346772883
 40
0.772449667
 40
1.0
 40
1.0
 40
1.0
 40
1.0
 10
4.2195429548
 20
24.5153121325
 30
0.0
 10
4.2576791304
 20
24.5339726137
 30
0.0
 10
4.33391012
 20
24.5640590632
 30
0.0
 10
4.4505793227
 20
24.5851132374
 30
0.0
 10
4.5613874738
 20
24.5790008431
 30
0.0
 10
4.6295988123
 20
24.5561557142
 30
0.0
 10
4.6605998395
 20
24.5406541145
 30
0.0
 11
4.2195429548
 21
24.5153121325
 31
0.0
 11
4.3383889619
 21
24.5611254448
 31
0.0
 11
4.453667925
 21
24.5808676799
 31
0.0
 11
4.5621024838
 21
24.5739788866
 31
0.0
 11
4.6605998395
 21
24.5406541145
 31
0.0
  0
SPLINE
  5
4B8
100
AcDbEntity
  8
RACCORDO
100
AcDbSpline
 62
7
  6
CONTINUOUS
 70
0
 71
3
 72
14
 73
10
 74
8
 42
0.0000001
 43
0.0000001
 44
0.0000000001
 12
0.0
 22
0.630991571
 32
0.0
 13
-0.5643681094
 23
0.2822038267
 33
0.0
 40
0.0
 40
0.0
 40
0.0
 40
0.0
 40
0.2891525564
 40
0.4227177506
 40
0.5489643138
 40
0.668508974
 40
0.7824375212
 40
0.892292605
 40
1.0
 40
1.0
 40
1.0
 40
1.0
 10
0.6778384565
 20
26.1211081423
 30
0.0
 10
0.6778384565
 20
26.1819257509
 30
0.0
 10
0.6702519998
 20
26.2713171755
 30
0.0
 10
0.641252569
 20
26.383303851
 30
0.0
 10
0.6118029223
 20
26.4577133416
 30
0.0
 10
0.574394611
 20
26.5237839561
 30
0.0
 10
0.5294052606
 20
26.5806755153
 30
0.0
 10
0.4773675671
 20
26.6275808778
 30
0.0
 10
0.4382213587
 20
26.651842645
 30
0.0
 10
0.4179591524
 20
26.661974458
 30
0.0
 11
0.6778384565
 21
26.1211081423
 31
0.0
 11
0.6605610188
 21
26.3027410793
 31
0.0
 11
0.6391627629
 21
26.3842578394
 31
0.0
 11
0.6095731963
 21
26.4582190153
 31
0.0
 11
0.5721550893
 21
26.5237157523
 31
0.0
 11
0.5273668217
 21
26.5799464279
 31
0.0
 11
0.4757573803
 21
26.6262216875
 31
0.0
 11
0.4179591524
 21
26.661974458
 31
0.0
  0
SPLINE
  5
4B9
100
AcDbEntity
  8
RACCORDO
100
AcDbSpline
 62
7
  6
CONTINUOUS
 70
0
 71
3
 72
11
 73
7
 74
5
 42
0.0000001
 43
0.0000001
 44
0.0000000001
 12
0.0557205746
 22
0.0171953145
 32
0.0
 13
0.0521861977
 23
-0.026020416
 33
0.0
 40
0.0
 40
0.0
 40
0.0
 40
0.0
 40
0.368058145
 40
0.6517558087
 40
0.8584037383
 40
1.0
 40
1.0
 40
1.0
 40
1.0
 10
-2.8654284415
 20
28.2678999843
 30
0.0
 10
-2.8585923044
 20
28.2700096095
 30
0.0
 10
-2.846398743
 20
28.2734610677
 30
0.0
 10
-2.8299826847
 20
28.2767017814
 30
0.0
 10
-2.8177280253
 20
28.2775466692
 30
0.0
 10
-2.8108535406
 20
28.2763778829
 30
0.0
 10
-2.8083904171
 20
28.2751497517
 30
0.0
 11
-2.8654284415
 21
28.2678999843
 31
0.0
 11
-2.8447341725
 21
28.273591806
 31
0.0
 11
-2.8284651799
 21
28.2765924465
 31
0.0
 11
-2.816423823
 21
28.2770581391
 31
0.0
 11
-2.8083904171
 21
28.2751497517
 31
0.0
  0
SPLINE
  5
4BA
100
AcDbEntity
  8
RACCORDO
100
AcDbSpline
 62
7
  6
CONTINUOUS
 70
0
 71
3
 72
9
 73
5
 74
3
 42
0.0000001
 43
0.0000001
 44
0.0000000001
 12
-0.0189527949
 22
-0.0058488139
 32
0.0
 13
-0.0177371727
 23
-0.0088774864
 33
0.0
 40
0.0
 40
0.0
 40
0.0
 40
0.0
 40
0.2476285508
 40
1.0
 40
1.0
 40
1.0
 40
1.0
 10
-2.8654284415
 20
28.2678999843
 30
0.0
 10
-2.8669928592
 20
28.2674172066
 30
0.0
 10
-2.8732675488
 20
28.2653299504
 30
0.0
 10
-2.879359793
 20
28.2627038451
 30
0.0
 10
-2.8838081071
 20
28.260477456
 30
0.0
 11
-2.8654284415
 21
28.2678999843
 31
0.0
 11
-2.8700892563
 21
28.266350436
 31
0.0
 11
-2.8838081071
 21
28.260477456
 31
0.0
  0
SPLINE
  5
4BB
100
AcDbEntity
  8
RACCORDO
100
AcDbSpline
 62
7
  6
CONTINUOUS
 70
0
 71
3
 72
9
 73
5
 74
3
 42
0.0000001
 43
0.0000001
 44
0.0000000001
 12
0.7619046921
 22
0.4348977983
 32
0.0
 13
0.7317139158
 23
0.4839727266
 33
0.0
 40
0.0
 40
0.0
 40
0.0
 40
0.0
 40
0.528469183
 40
1.0
 40
1.0
 40
1.0
 40
1.0
 10
7.6404737237
 20
-15.4733077465
 30
0.0
 10
7.7746881071
 20
-15.3966977185
 30
0.0
 10
8.0258177556
 20
-15.2467390174
 30
0.0
 10
8.2724520587
 20
-15.0895360331
 30
0.0
 10
8.3874606122
 20
-15.0134666814
 30
0.0
 11
7.6404737237
 21
-15.4733077465
 31
0.0
 11
8.0388612088
 21
-15.2361774329
 31
0.0
 11
8.3874606122
 21
-15.0134666814
 31
0.0
  0
SPLINE
  5
4BC
100
AcDbEntity
  8
RACCORDO
100
AcDbSpline
 62
253
  6
CONTINUOUS
 70
0
 71
3
 72
11
 73
7
 74
5
 42
0.0000001
 43
0.0000001
 44
0.0000000001
 12
0.0000390096
 22
-0.1443692461
 32
0.0
 13
0.1291277839
 23
-0.0645638921
 33
0.0
 40
0.0
 40
0.0
 40
0.0
 40
0.0
 40
0.2065672234
 40
0.434522365
 40
0.697423617
 40
1.0
 40
1.0
 40
1.0
 40
1.0
 10
-3.5884556304
 20
2.0707905171
 30
0.0
 10
-3.5884529443
 20
2.0608498656
 30
0.0
 10
-3.5840583963
 20
2.0397797794
 30
0.0
 10
-3.5657221867
 20
2.0110403594
 30
0.0
 10
-3.5371512152
 20
1.9852203127
 30
0.0
 10
-3.5136120967
 20
1.971254913
 30
0.0
 10
-3.5005884241
 20
1.9647430767
 30
0.0
 11
-3.5884556304
 21
2.0707905171
 31
0.0
 11
-3.5826860426
 21
2.041531999
 31
0.0
 11
-3.5656121941
 21
2.0133978042
 31
0.0
 11
-3.5378932567
 21
1.9874703733
 31
0.0
 11
-3.5005884241
 21
1.9647430767
 31
0.0
  0
SPLINE
  5
4BD
100
AcDbEntity
  8
RACCORDO
100
AcDbSpline
 62
253
  6
CONTINUOUS
 70
0
 71
3
 72
13
 73
9
 74
7
 42
0.0000001
 43
0.0000001
 44
0.0000000001
 12
-0.0281982398
 22
-0.0763319872
 32
0.0
 13
0.0727830365
 23
-0.0363915183
 33
0.0
 40
0.0
 40
0.0
 40
0.0
 40
0.0
 40
0.0993379281
 40
0.185266329
 40
0.2980861379
 40
0.4374243993
 40
0.6020994415
 40
1.0
 40
1.0
 40
1.0
 40
1.0
 10
-5.178764125
 20
-0.6485102404
 30
0.0
 10
-5.1796978433
 20
-0.6510377942
 30
0.0
 10
-5.176462191
 20
-0.6563501314
 30
0.0
 10
-5.1709297223
 20
-0.6617156488
 30
0.0
 10
-5.1636347963
 20
-0.6675148777
 30
0.0
 10
-5.1542931259
 20
-0.6738092266
 30
0.0
 10
-5.1379805596
 20
-0.6836794806
 30
0.0
 10
-5.124471134
 20
-0.6907855039
 30
0.0
 10
-5.1148176637
 20
-0.695612239
 30
0.0
 11
-5.178764125
 21
-0.6485102404
 31
0.0
 11
-5.1761696661
 21
-0.6561660882
 31
0.0
 11
-5.1713167364
 21
-0.6612001472
 31
0.0
 11
-5.1641648916
 21
-0.6669563896
 31
0.0
 11
-5.1548080032
 21
-0.6733603101
 31
0.0
 11
-5.1433634694
 21
-0.6803309196
 31
0.0
 11
-5.1148176637
 21
-0.695612239
 31
0.0
  0
SPLINE
  5
4BE
100
AcDbEntity
  8
RACCORDO
100
AcDbSpline
 62
7
  6
CONTINUOUS
 70
0
 71
3
 72
11
 73
7
 74
5
 42
0.0000001
 43
0.0000001
 44
0.0000000001
 12
0.0829628768
 22
0.0414843123
 32
0.0
 13
0.0829640264
 23
-0.0414820132
 33
0.0
 40
0.0
 40
0.0
 40
0.0
 40
0.0
 40
0.2271120677
 40
0.46467694
 40
0.7207692058
 40
1.0
 40
1.0
 40
1.0
 40
1.0
 10
-3.0885568604
 20
1.817245066
 30
0.0
 10
-3.0822762369
 20
1.8203855953
 30
0.0
 10
-3.0684350849
 20
1.8249906225
 30
0.0
 10
-3.0459475669
 20
1.8261147899
 30
0.0
 10
-3.022280728
 20
1.8216683504
 30
0.0
 10
-3.0068388427
 20
1.8154247585
 30
0.0
 10
-2.9991168057
 20
1.81156374
 30
0.0
 11
-3.0885568604
 21
1.817245066
 31
0.0
 11
-3.0685896244
 21
1.8239601153
 31
0.0
 11
-3.0465916916
 21
1.8252498732
 31
0.0
 11
-3.0232067656
 21
1.8210773988
 31
0.0
 11
-2.9991168057
 21
1.81156374
 31
0.0
  0
SPLINE
  5
4BF
100
AcDbEntity
  8
RACCORDO
100
AcDbSpline
 62
253
  6
CONTINUOUS
 70
0
 71
3
 72
11
 73
7
 74
5
 42
0.0000001
 43
0.0000001
 44
0.0000000001
 12
0.0829680028
 22
0.0414804786
 32
0.0
 13
0.0829665938
 23
-0.0414832969
 33
0.0
 40
0.0
 40
0.0
 40
0.0
 40
0.0
 40
0.227111417
 40
0.4646734038
 40
0.7207749341
 40
1.0
 40
1.0
 40
1.0
 40
1.0
 10
-3.1946255314
 20
1.7642110677
 30
0.0
 10
-3.1883445378
 20
1.7673512978
 30
0.0
 10
-3.1745035482
 20
1.7719573949
 30
0.0
 10
-3.1520150095
 20
1.7730822675
 30
0.0
 10
-3.1283474909
 20
1.7686353577
 30
0.0
 10
-3.1129049404
 20
1.7623917902
 30
0.0
 10
-3.1051828229
 20
1.7585307314
 30
0.0
 11
-3.1946255314
 21
1.7642110677
 31
0.0
 11
-3.1746578762
 21
1.7709267265
 31
0.0
 11
-3.1526595684
 21
1.7722171657
 31
0.0
 11
-3.1292730792
 21
1.7680443752
 31
0.0
 11
-3.1051828229
 21
1.7585307314
 31
0.0
  0
SPLINE
  5
4C0
100
AcDbEntity
  8
RACCORDO
100
AcDbSpline
 62
253
  6
CONTINUOUS
 70
0
 71
3
 72
11
 73
7
 74
5
 42
0.0000001
 43
0.0000001
 44
0.0000000001
 12
-0.6057963595
 22
0.3028970475
 32
0.0
 13
-0.3598229958
 23
0.5738146585
 33
0.0
 40
0.0
 40
0.0
 40
0.0
 40
0.0
 40
0.2424011284
 40
0.487968812
 40
0.7396475969
 40
1.0
 40
1.0
 40
1.0
 40
1.0
 10
-4.623600154
 20
-7.0753167143
 30
0.0
 10
-4.6725487277
 20
-7.0508425189
 30
0.0
 10
-4.7676120311
 20
-6.9942617514
 30
0.0
 10
-4.8977133306
 20
-6.8887188453
 30
0.0
 10
-5.0146876465
 20
-6.7632356723
 30
0.0
 10
-5.0820085468
 20
-6.6688228543
 30
0.0
 10
-5.113235474
 20
-6.6190248459
 30
0.0
 11
-4.623600154
 21
-7.0753167143
 31
0.0
 11
-4.7647171513
 21
-6.9914088182
 31
0.0
 11
-4.8940316141
 21
-6.8868089079
 31
0.0
 11
-5.0105126434
 21
-6.7623520369
 31
0.0
 11
-5.113235474
 21
-6.6190248459
 31
0.0
  0
SPLINE
  5
4C1
100
AcDbEntity
  8
RACCORDO
100
AcDbSpline
 62
253
  6
CONTINUOUS
 70
0
 71
3
 72
9
 73
5
 74
3
 42
0.0000001
 43
0.0000001
 44
0.0000000001
 12
0.0340242017
 22
-0.0542611084
 32
0.0
 13
0.057284652
 23
-0.028642326
 33
0.0
 40
0.0
 40
0.0
 40
0.0
 40
0.0
 40
0.4914625866
 40
1.0
 40
1.0
 40
1.0
 40
1.0
 10
-5.1605887468
 20
-6.5768150614
 30
0.0
 10
-5.1550148727
 20
-6.585704163
 30
0.0
 10
-5.1409683288
 20
-6.6022185859
 30
0.0
 10
-5.1229431695
 20
-6.6141740276
 30
0.0
 10
-5.1132327066
 20
-6.6190292591
 30
0.0
 11
-5.1605887468
 21
-6.5768150614
 31
0.0
 11
-5.1402471944
 21
-6.6008354493
 31
0.0
 11
-5.1132327066
 21
-6.6190292591
 31
0.0
  0
SPLINE
  5
4C2
100
AcDbEntity
  8
RACCORDO
100
AcDbSpline
 62
7
  6
CONTINUOUS
 70
0
 71
3
 72
9
 73
5
 74
3
 42
0.0000001
 43
0.0000001
 44
0.0000000001
 12
-0.0000301215
 22
0.0088936241
 32
0.0
 13
-0.004951697
 23
0.0073877029
 33
0.0
 40
0.0
 40
0.0
 40
0.0
 40
0.0
 40
0.4165732146
 40
1.0
 40
1.0
 40
1.0
 40
1.0
 10
8.3887702035
 20
-15.0094572526
 30
0.0
 10
8.3887660209
 20
-15.008222304
 30
0.0
 10
8.3878369679
 20
-15.0053063586
 30
0.0
 10
8.3863135424
 20
-15.0027698977
 30
0.0
 10
8.3853505582
 20
-15.0013331698
 30
0.0
 11
8.3887702035
 21
-15.0094572526
 31
0.0
 11
8.3878888403
 21
-15.0058587477
 31
0.0
 11
8.3853505582
 21
-15.0013331698
 31
0.0
  0
SPLINE
  5
4C3
100
AcDbEntity
  8
RACCORDO
100
AcDbSpline
 62
7
  6
CONTINUOUS
 70
0
 71
3
 72
12
 73
8
 74
6
 42
0.0000001
 43
0.0000001
 44
0.0000000001
 12
-0.0601569049
 22
0.0897513204
 32
0.0
 13
-0.086401292
 23
0.064876571
 33
0.0
 40
0.0
 40
0.0
 40
0.0
 40
0.0
 40
0.0704428041
 40
0.1582142984
 40
0.3820181062
 40
0.6645080291
 40
1.0
 40
1.0
 40
1.0
 40
1.0
 10
8.3853505582
 20
-15.0013331698
 30
0.0
 10
8.3839380178
 20
-14.9992257249
 30
0.0
 10
8.380393674
 20
-14.9947451811
 30
0.0
 10
8.3710274897
 20
-14.9846600367
 30
0.0
 10
8.3552369522
 20
-14.9701817037
 30
0.0
 10
8.3318780359
 20
-14.9508518255
 30
0.0
 10
8.3142344465
 20
-14.937275192
 30
0.0
 10
8.3045721332
 20
-14.9300200024
 30
0.0
 11
8.3853505582
 21
-15.0013331698
 31
0.0
 11
8.3807155252
 21
-14.9952961327
 31
0.0
 11
8.3743116772
 21
-14.9883013861
 31
0.0
 11
8.35668123
 21
-14.9717513414
 31
0.0
 11
8.3332453571
 21
-14.9521972179
 31
0.0
 11
8.3045721332
 21
-14.9300200024
 31
0.0
  0
SPLINE
  5
4C4
100
AcDbEntity
  8
RACCORDO
100
AcDbSpline
 62
7
  6
CONTINUOUS
 70
0
 71
3
 72
11
 73
7
 74
5
 42
0.0000001
 43
0.0000001
 44
0.0000000001
 12
-0.1620397139
 22
-0.0811011646
 32
0.0
 13
-0.0906562346
 23
-0.1568939607
 33
0.0
 40
0.0
 40
0.0
 40
0.0
 40
0.0
 40
0.2068014243
 40
0.4392363129
 40
0.7028675903
 40
1.0
 40
1.0
 40
1.0
 40
1.0
 10
-2.8838081071
 20
28.260477456
 30
0.0
 10
-2.8949781216
 20
28.2548868439
 30
0.0
 10
-2.9170214719
 20
28.2396035116
 30
0.0
 10
-2.9466982761
 20
28.2090417871
 30
0.0
 10
-2.9754155312
 20
28.1705753091
 30
0.0
 10
-2.9932086647
 20
28.1417168534
 30
0.0
 10
-3.0021876332
 20
28.1261774266
 30
0.0
 11
-2.8838081071
 21
28.260477456
 31
0.0
 11
-2.9149596967
 21
28.2396496865
 31
0.0
 11
-2.9447256638
 21
28.2098521931
 31
0.0
 11
-2.9736481096
 21
28.1718321805
 31
0.0
 11
-3.0021876332
 21
28.1261774266
 31
0.0
  0
SPLINE
  5
4C5
100
AcDbEntity
  8
RACCORDO
100
AcDbSpline
 62
7
  6
CONTINUOUS
 70
0
 71
3
 72
11
 73
7
 74
5
 42
0.0000001
 43
0.0000001
 44
0.0000000001
 12
-0.4087143287
 22
0.2043714832
 32
0.0
 13
-0.4104598159
 23
-0.2008428369
 33
0.0
 40
0.0
 40
0.0
 40
0.0
 40
0.0
 40
0.227550333
 40
0.4653227117
 40
0.7212674125
 40
1.0
 40
1.0
 40
1.0
 40
1.0
 10
0.4179591524
 20
26.661974458
 30
0.0
 10
0.3869581252
 20
26.6774760577
 30
0.0
 10
0.3187467867
 20
26.7003211866
 30
0.0
 10
0.2079386356
 20
26.7064335809
 30
0.0
 10
0.0912694329
 20
26.6853794068
 30
0.0
 10
0.0150384432
 20
26.6552929573
 30
0.0
 10
-0.0230977323
 20
26.6366324761
 30
0.0
 11
0.4179591524
 21
26.661974458
 31
0.0
 11
0.3194617967
 21
26.6952992302
 31
0.0
 11
0.2110272379
 21
26.7021880235
 31
0.0
 11
0.0957482748
 21
26.6824457883
 31
0.0
 11
-0.0230977323
 21
26.6366324761
 31
0.0
  0
SPLINE
  5
4C6
100
AcDbEntity
  8
RACCORDO
100
AcDbSpline
 62
7
  6
CONTINUOUS
 70
0
 71
3
 72
9
 73
5
 74
3
 42
0.0000001
 43
0.0000001
 44
0.0000000001
 12
-0.2341361533
 22
0.117035093
 32
0.0
 13
-0.2566306785
 23
0.0515523629
 33
0.0
 40
0.0
 40
0.0
 40
0.0
 40
0.0
 40
0.2560238952
 40
1.0
 40
1.0
 40
1.0
 40
1.0
 10
7.886786322
 20
22.9275613821
 30
0.0
 10
7.8668048386
 20
22.9375493089
 30
0.0
 10
7.7877521653
 20
22.9744272213
 30
0.0
 10
7.7041160879
 20
23.0021643264
 30
0.0
 10
7.6404737237
 20
23.0149489018
 30
0.0
 11
7.886786322
 21
22.9275613821
 31
0.0
 11
7.8260256579
 21
22.9558333987
 31
0.0
 11
7.6404737237
 21
23.0149489018
 31
0.0
  0
SPLINE
  5
4C7
100
AcDbEntity
  8
RACCORDO
100
AcDbSpline
 62
7
  6
CONTINUOUS
 70
0
 71
3
 72
9
 73
5
 74
3
 42
0.0000001
 43
0.0000001
 44
0.0000000001
 12
-0.0000153526
 22
0.0058907759
 32
0.0
 13
-0.0030473344
 23
0.0050413519
 33
0.0
 40
0.0
 40
0.0
 40
0.0
 40
0.0
 40
0.198822484
 40
1.0
 40
1.0
 40
1.0
 40
1.0
 10
8.3887702631
 20
21.9254497446
 30
0.0
 10
8.3887692456
 20
21.9258401509
 30
0.0
 10
8.3885070032
 20
21.9278021607
 30
0.0
 10
8.3875580053
 20
21.9295901386
 30
0.0
 10
8.3867441867
 20
21.9309364779
 30
0.0
 11
8.3887702631
 21
21.9254497446
 31
0.0
 11
8.3886378185
 21
21.9266134547
 31
0.0
 11
8.3867441867
 21
21.9309364779
 31
0.0
  0
SPLINE
  5
4C8
100
AcDbEntity
  8
RACCORDO
100
AcDbSpline
 62
7
  6
CONTINUOUS
 70
0
 71
3
 72
12
 73
8
 74
6
 42
0.0000001
 43
0.0000001
 44
0.0000000001
 12
-0.0562867789
 22
0.0931179267
 32
0.0
 13
-0.0879275831
 23
0.0640928225
 33
0.0
 40
0.0
 40
0.0
 40
0.0
 40
0.0
 40
0.0637627611
 40
0.1470196742
 40
0.3678913705
 40
0.6544802791
 40
1.0
 40
1.0
 40
1.0
 40
1.0
 10
8.3867441867
 20
21.9309364779
 30
0.0
 10
8.3855478532
 20
21.93291563
 30
0.0
 10
8.3822848945
 20
21.9371640796
 30
0.0
 10
8.3731885566
 20
21.9469302543
 30
0.0
 10
8.3571830957
 20
21.9612283801
 30
0.0
 10
8.3330752751
 20
21.9806147066
 30
0.0
 10
8.3146990379
 20
21.9943344941
 30
0.0
 10
8.3045721332
 20
22.0017162722
 30
0.0
 11
8.3867441867
 21
21.9309364779
 31
0.0
 11
8.3826475398
 21
21.9365357451
 31
0.0
 11
8.3765371637
 21
21.9432237118
 31
0.0
 11
8.3588514063
 21
21.9594957336
 31
0.0
 11
8.3346358147
 21
21.9791424231
 31
0.0
 11
8.3045721332
 21
22.0017162722
 31
0.0
  0
SPLINE
  5
4C9
100
AcDbEntity
  8
RACCORDO
100
AcDbSpline
 62
7
  6
CONTINUOUS
 70
0
 71
3
 72
10
 73
6
 74
4
 42
0.0000001
 43
0.0000001
 44
0.0000000001
 12
-0.0001212048
 22
-0.3024299942
 32
0.0
 13
-0.1477248048
 23
-0.2638963776
 33
0.0
 40
0.0
 40
0.0
 40
0.0
 40
0.0
 40
0.2413789779
 40
0.4900689452
 40
1.0
 40
1.0
 40
1.0
 40
1.0
 10
8.3887702035
 20
22.5016698932
 30
0.0
 10
8.3887604514
 20
22.4773364789
 30
0.0
 10
8.3841248063
 20
22.4278786188
 30
0.0
 10
8.3606118512
 20
22.3296583315
 30
0.0
 10
8.3296819551
 20
22.2588317456
 30
0.0
 10
8.3045721332
 20
22.2139754262
 30
0.0
 11
8.3887702035
 21
22.5016698932
 31
0.0
 11
8.3825231215
 21
22.4289374363
 31
0.0
 11
8.3653474193
 21
22.3557135562
 31
0.0
 11
8.3045721332
 21
22.2139754262
 31
0.0
  0
SPLINE
  5
4CA
100
AcDbEntity
  8
RACCORDO
100
AcDbSpline
 62
253
  6
CONTINUOUS
 70
0
 71
3
 72
12
 73
8
 74
6
 42
0.0000001
 43
0.0000001
 44
0.0000000001
 12
-0.2810753636
 22
0.1405468211
 32
0.0
 13
-0.0000046364
 23
0.3142558972
 33
0.0
 40
0.0
 40
0.0
 40
0.0
 40
0.0
 40
0.1074195473
 40
0.2170920452
 40
0.4499120952
 40
0.7098091677
 40
1.0
 40
1.0
 40
1.0
 40
1.0
 10
-3.3715490149
 20
1.6947598763
 30
0.0
 10
-3.3816133443
 20
1.6997923682
 30
0.0
 10
-3.4010614686
 20
1.71186545
 30
0.0
 10
-3.4361868904
 20
1.7436097413
 30
0.0
 10
-3.4712259017
 20
1.7974457454
 30
0.0
 10
-3.4957064853
 20
1.8764980742
 30
0.0
 10
-3.5005879757
 20
1.9343450166
 30
0.0
 10
-3.5005884241
 20
1.9647430767
 30
0.0
 11
-3.3715490149
 21
1.6947598763
 31
0.0
 11
-3.400247698
 21
1.7125344622
 31
0.0
 11
-3.4258734972
 21
1.7355815974
 31
0.0
 11
-3.4666918081
 21
1.7963022159
 31
0.0
 11
-3.4920093336
 21
1.873953332
 31
0.0
 11
-3.5005884241
 21
1.9647430767
 31
0.0
  0
SPLINE
  5
4CB
100
AcDbEntity
  8
RACCORDO
100
AcDbSpline
 62
253
  6
CONTINUOUS
 70
0
 71
3
 72
11
 73
7
 74
5
 42
0.0000001
 43
0.0000001
 44
0.0000000001
 12
0.0
 22
-0.0962586797
 32
0.0
 13
0.0860963807
 23
-0.0430481898
 33
0.0
 40
0.0
 40
0.0
 40
0.0
 40
0.0
 40
0.2065676284
 40
0.4345137618
 40
0.6974277111
 40
1.0
 40
1.0
 40
1.0
 40
1.0
 10
-5.1911478274
 20
-2.2697450113
 30
0.0
 10
-5.1911478274
 20
-2.276372987
 30
0.0
 10
-5.1882203049
 20
-2.2904219836
 30
0.0
 10
-5.1759971771
 20
-2.3095860794
 30
0.0
 10
-5.156947356
 20
-2.3268019151
 30
0.0
 10
-5.1412526433
 20
-2.3361139596
 30
0.0
 10
-5.1325691836
 20
-2.3404556894
 30
0.0
 11
-5.1911478274
 21
-2.2697450113
 31
0.0
 11
-5.1873048835
 21
-2.2892540436
 31
0.0
 11
-5.1759237339
 21
-2.3080133546
 31
0.0
 11
-5.1574417499
 21
-2.3253020347
 31
0.0
 11
-5.1325691836
 21
-2.3404556894
 31
0.0
  0
SPLINE
  5
4CC
100
AcDbEntity
  8
RACCORDO
100
AcDbSpline
 62
253
  6
CONTINUOUS
 70
0
 71
3
 72
11
 73
7
 74
5
 42
0.0000001
 43
0.0000001
 44
0.0000000001
 12
0.0000011196
 22
-0.0962583753
 32
0.0
 13
0.0860961082
 23
-0.0430480541
 33
0.0
 40
0.0
 40
0.0
 40
0.0
 40
0.0
 40
0.2065670627
 40
0.4345173807
 40
0.69741768
 40
1.0
 40
1.0
 40
1.0
 40
1.0
 10
-18.400151152
 20
1.0871616487
 30
0.0
 10
-18.4001510749
 20
1.080533712
 30
0.0
 10
-18.3972239706
 20
1.0664845483
 30
0.0
 10
-18.3850005486
 20
1.0473210652
 30
0.0
 10
-18.3659515588
 20
1.0301045364
 30
0.0
 10
-18.3502567519
 20
1.0207928306
 30
0.0
 10
-18.3415730318
 20
1.0164509705
 30
0.0
 11
-18.400151152
 21
1.0871616487
 31
0.0
 11
-18.3963084078
 21
1.0676526966
 31
0.0
 11
-18.384926962
 21
1.0488931753
 31
0.0
 11
-18.3664463514
 21
1.0316050676
 31
0.0
 11
-18.3415730318
 21
1.0164509705
 31
0.0
  0
SPLINE
  5
4CD
100
AcDbEntity
  8
RACCORDO
100
AcDbSpline
 62
253
  6
CONTINUOUS
 70
0
 71
3
 72
11
 73
7
 74
5
 42
0.0000001
 43
0.0000001
 44
0.0000000001
 12
0.0000031264
 22
-0.0962573464
 32
0.0
 13
0.086095188
 23
-0.043047594
 33
0.0
 40
0.0
 40
0.0
 40
0.0
 40
0.0
 40
0.2065670705
 40
0.4345177943
 40
0.6974181918
 40
1.0
 40
1.0
 40
1.0
 40
1.0
 10
-18.400151152
 20
4.3347558691
 30
0.0
 10
-18.4001509367
 20
4.328128003
 30
0.0
 10
-18.3972236071
 20
4.3140790446
 30
0.0
 10
-18.3850001281
 20
4.294915887
 30
0.0
 10
-18.3659512774
 20
4.2776996257
 30
0.0
 10
-18.3502566444
 20
4.268388041
 30
0.0
 10
-18.3415730318
 20
4.2640462347
 30
0.0
 11
-18.400151152
 21
4.3347558691
 31
0.0
 11
-18.3963081024
 21
4.315247193
 31
0.0
 11
-18.3849265626
 21
4.2964879573
 31
0.0
 11
-18.3664460613
 21
4.2792001148
 31
0.0
 11
-18.3415730318
 21
4.2640462347
 31
0.0
  0
LINE
  5
4CE
100
AcDbEntity
  8
RACCORDO
100
AcDbLine
 62
253
  6
CONTINUOUS
 10
-17.6351144204
 20
-0.5666362148
 11
-17.6366545221
 21
-0.5657273875
  0
SPLINE
  5
4CF
100
AcDbEntity
  8
RACCORDO
100
AcDbSpline
 62
253
  6
CONTINUOUS
 70
0
 71
3
 72
15
 73
11
 74
9
 42
0.0000001
 43
0.0000001
 44
0.0000000001
 12
-1.5579825317
 22
0.9210671785
 32
0.0
 13
-0.0000058287
 23
1.809882404
 33
0.0
 40
0.0
 40
0.0
 40
0.0
 40
0.0
 40
0.1069702847
 40
0.2167398879
 40
0.3309640064
 40
0.4509299581
 40
0.577515121
 40
0.7111976452
 40
0.8520897933
 40
1.0
 40
1.0
 40
1.0
 40
1.0
 10
-17.6366545221
 20
-0.5657273875
 30
0.0
 10
-17.6922071338
 20
-0.5328851147
 30
0.0
 10
-17.7991446002
 20
-0.4563283291
 30
0.0
 10
-17.9403385751
 20
-0.3139666826
 30
0.0
 10
-18.0621440047
 20
-0.1449940989
 30
0.0
 10
-18.1632789667
 20
0.0484846386
 30
0.0
 10
-18.2428117837
 20
0.2642502523
 30
0.0
 10
-18.3000000304
 20
0.4999089515
 30
0.0
 10
-18.3343200652
 20
0.7528664169
 30
0.0
 10
-18.3415727444
 20
0.9272176104
 30
0.0
 10
-18.3415730318
 20
1.0164509705
 30
0.0
 11
-17.6366545221
 21
-0.5657273875
 31
0.0
 11
-17.7942380198
 21
-0.4532560172
 31
0.0
 11
-17.9345388867
 21
-0.3125952025
 31
0.0
 11
-18.0559991202
 21
-0.1453061611
 31
0.0
 11
-18.1572697175
 21
0.046754279
 31
0.0
 11
-18.2372262249
 21
0.2614534135
 31
0.0
 11
-18.2949809336
 21
0.4964087836
 31
0.0
 11
-18.3298925433
 21
0.7490058372
 31
0.0
 11
-18.3415730318
 21
1.0164509705
 31
0.0
  0
SPLINE
  5
4D0
100
AcDbEntity
  8
RACCORDO
100
AcDbSpline
 62
7
  6
CONTINUOUS
 70
0
 71
3
 72
13
 73
9
 74
7
 42
0.0000001
 43
0.0000001
 44
0.0000000001
 12
0.0
 22
0.5145411392
 32
0.0
 13
-0.4602195858
 23
0.2301097929
 33
0.0
 40
0.0
 40
0.0
 40
0.0
 40
0.0
 40
0.2464774511
 40
0.5111327431
 40
0.6428451777
 40
0.7698685706
 40
0.8895552217
 40
1.0
 40
1.0
 40
1.0
 40
1.0
 10
2.9052248172
 20
17.8677552083
 30
0.0
 10
2.9052248172
 20
17.9100294711
 30
0.0
 10
2.8906351955
 20
17.997825234
 30
0.0
 10
2.8464987417
 20
18.0999596599
 30
0.0
 10
2.7968443633
 20
18.174979359
 30
0.0
 10
2.7543755791
 20
18.2243208589
 30
0.0
 10
2.7082618435
 20
18.2649467177
 30
0.0
 10
2.6746803938
 20
18.2861478532
 30
0.0
 10
2.6577374438
 20
18.2946193282
 30
0.0
 11
2.9052248172
 21
17.8677552083
 31
0.0
 11
2.8863862402
 21
17.9931710275
 31
0.0
 11
2.8327391203
 21
18.1183345171
 31
0.0
 11
2.7952358404
 21
18.1747833932
 31
0.0
 11
2.752447706
 21
18.2241892961
 31
0.0
 11
2.7060222978
 21
18.264652048
 31
0.0
 11
2.6577374438
 21
18.2946193282
 31
0.0
  0
SPLINE
  5
4D1
100
AcDbEntity
  8
RACCORDO
100
AcDbSpline
 62
7
  6
CONTINUOUS
 70
0
 71
3
 72
11
 73
7
 74
5
 42
0.0000001
 43
0.0000001
 44
0.0000000001
 12
0.0
 22
-0.219311122
 32
0.0
 13
-0.195312993
 23
-0.0997507042
 33
0.0
 40
0.0
 40
0.0
 40
0.0
 40
0.0
 40
0.2895883012
 40
0.5494587242
 40
0.7828521482
 40
1.0
 40
1.0
 40
1.0
 40
1.0
 10
2.9052248172
 20
-20.3239420148
 30
0.0
 10
2.9052248172
 20
-20.3451119932
 30
0.0
 10
2.9018261804
 20
-20.38543014
 30
0.0
 10
2.8847004383
 20
-20.4406136208
 30
0.0
 10
2.8561065589
 20
-20.4848962453
 30
0.0
 10
2.8293930454
 20
-20.505533867
 30
0.0
 10
2.8152557798
 20
-20.512754084
 30
0.0
 11
2.9052248172
 21
-20.3239420148
 31
0.0
 11
2.8992475685
 21
-20.3871700495
 31
0.0
 11
2.881605694
 21
-20.4413632812
 31
0.0
 11
2.8531503766
 21
-20.483910647
 31
0.0
 11
2.8152557798
 21
-20.512754084
 31
0.0
  0
SPLINE
  5
4D2
100
AcDbEntity
  8
RACCORDO
100
AcDbSpline
 62
253
  6
CONTINUOUS
 70
0
 71
3
 72
11
 73
7
 74
5
 42
0.0000001
 43
0.0000001
 44
0.0000000001
 12
-0.8510060523
 22
-1.0851474361
 32
0.0
 13
-0.0000274856
 23
-1.37904179
 33
0.0
 40
0.0
 40
0.0
 40
0.0
 40
0.0
 40
0.2563633646
 40
0.5079264733
 40
0.7553354285
 40
1.0
 40
1.0
 40
1.0
 40
1.0
 10
-17.6460272806
 20
5.4224765086
 30
0.0
 10
-17.7187495389
 20
5.329745826
 30
0.0
 10
-17.8510583895
 20
5.1362841132
 30
0.0
 10
-18.0024528229
 20
4.8221932064
 30
0.0
 10
-18.0973681694
 20
4.4920062456
 30
0.0
 10
-18.1190676471
 20
4.2652622194
 30
0.0
 10
-18.1190698887
 20
4.1527946632
 30
0.0
 11
-17.6460272806
 21
5.4224765086
 31
0.0
 11
-17.8445381215
 21
5.1299341985
 31
0.0
 11
-17.9940527462
 21
4.8168908858
 31
0.0
 11
-18.0873267086
 21
4.488700798
 31
0.0
 11
-18.1190698887
 21
4.1527946632
 31
0.0
  0
SPLINE
  5
4D3
100
AcDbEntity
  8
RACCORDO
100
AcDbSpline
 62
253
  6
CONTINUOUS
 70
0
 71
3
 72
11
 73
7
 74
5
 42
0.0000001
 43
0.0000001
 44
0.0000000001
 12
-0.6535379843
 22
-0.9206920067
 32
0.0
 13
-0.0000267109
 23
-1.129064067
 33
0.0
 40
0.0
 40
0.0
 40
0.0
 40
0.0
 40
0.2549133636
 40
0.5059233646
 40
0.7538305677
 40
1.0
 40
1.0
 40
1.0
 40
1.0
 10
-17.6200863868
 20
5.1764879967
 30
0.0
 10
-17.675618242
 20
5.0982557646
 30
0.0
 10
-17.7762714204
 20
4.935850065
 30
0.0
 10
-17.8904312326
 20
4.6749813149
 30
0.0
 10
-17.9615201119
 20
4.4024811008
 30
0.0
 10
-17.9776463407
 20
4.2161523615
 30
0.0
 10
-17.9776485325
 20
4.1235053413
 30
0.0
 11
-17.6200863868
 21
5.1764879967
 31
0.0
 11
-17.770945826
 21
4.9313797525
 31
0.0
 11
-17.8838254173
 21
4.6714232755
 31
0.0
 11
-17.9538778433
 21
4.4004280516
 31
0.0
 11
-17.9776485325
 21
4.1235053413
 31
0.0
  0
SPLINE
  5
4D4
100
AcDbEntity
  8
RACCORDO
100
AcDbSpline
 62
253
  6
CONTINUOUS
 70
0
 71
3
 72
10
 73
6
 74
4
 42
0.0000001
 43
0.0000001
 44
0.0000000001
 12
-0.1454648471
 22
0.0
 32
0.0
 13
-0.1301077146
 23
0.0650538573
 33
0.0
 40
0.0
 40
0.0
 40
0.0
 40
0.0
 40
0.528748279
 40
0.7747934101
 40
1.0
 40
1.0
 40
1.0
 40
1.0
 10
-17.9776485325
 20
4.1235053413
 30
0.0
 10
-18.0032866283
 20
4.1235053413
 30
0.0
 10
-18.0410442626
 20
4.1270236761
 30
0.0
 10
-18.0880145488
 20
4.1393519888
 30
0.0
 10
-18.1093028505
 20
4.1479111441
 30
0.0
 10
-18.1190698887
 20
4.1527946632
 30
0.0
 11
-17.9776485325
 21
4.1235053413
 31
0.0
 11
-18.054185219
 21
4.1311173881
 31
0.0
 11
-18.0887625791
 21
4.1403583801
 31
0.0
 11
-18.1190698887
 21
4.1527946632
 31
0.0
  0
SPLINE
  5
4D5
100
AcDbEntity
  8
RACCORDO
100
AcDbSpline
 62
253
  6
CONTINUOUS
 70
0
 71
3
 72
10
 73
6
 74
4
 42
0.0000001
 43
0.0000001
 44
0.0000000001
 12
-0.1454648471
 22
0.0000000006
 32
0.0
 13
-0.1301077149
 23
0.0650538566
 33
0.0
 40
0.0
 40
0.0
 40
0.0
 40
0.0
 40
0.528748279
 40
0.7747934102
 40
1.0
 40
1.0
 40
1.0
 40
1.0
 10
-17.9776485325
 20
0.8759100771
 30
0.0
 10
-18.0032866283
 20
0.8759100772
 30
0.0
 10
-18.0410442625
 20
0.8794284122
 30
0.0
 10
-18.0880145488
 20
0.8917567248
 30
0.0
 10
-18.1093028505
 20
0.9003158799
 30
0.0
 10
-18.1190698887
 20
0.905199399
 30
0.0
 11
-17.9776485325
 21
0.8759100771
 31
0.0
 11
-18.0541852189
 21
0.883522124
 31
0.0
 11
-18.0887625791
 21
0.892763116
 31
0.0
 11
-18.1190698887
 21
0.905199399
 31
0.0
  0
SPLINE
  5
4D6
100
AcDbEntity
  8
RACCORDO
100
AcDbSpline
 62
253
  6
CONTINUOUS
 70
0
 71
3
 72
13
 73
9
 74
7
 42
0.0000001
 43
0.0000001
 44
0.0000000001
 12
0.0000289481
 22
-1.45094767
 32
0.0
 13
0.9925765115
 23
-1.0583199
 33
0.0
 40
0.0
 40
0.0
 40
0.0
 40
0.0
 40
0.1227154715
 40
0.2455605332
 40
0.3688773005
 40
0.4929554052
 40
0.7439862865
 40
1.0
 40
1.0
 40
1.0
 40
1.0
 10
-18.1190698887
 20
0.905199399
 30
0.0
 10
-18.1190687046
 20
0.8458481565
 30
0.0
 10
-18.1126221372
 20
0.7269821252
 30
0.0
 10
-18.083762934
 20
0.5505981085
 30
0.0
 10
-18.0363196128
 20
0.3775866869
 30
0.0
 10
-17.9492536949
 20
0.1524165285
 30
0.0
 10
-17.79833953
 20
-0.1149777993
 30
0.0
 10
-17.6430191657
 20
-0.3061704593
 30
0.0
 10
-17.5583147661
 20
-0.3964852619
 30
0.0
 11
-18.1190698887
 21
0.905199399
 31
0.0
 11
-18.1094376768
 21
0.7274064004
 31
0.0
 11
-18.0807403065
 21
0.5514899868
 31
0.0
 11
-18.0335564389
 21
0.3788972316
 31
0.0
 11
-17.9687853321
 21
0.2109216202
 31
0.0
 11
-17.7911786937
 21
-0.1070741684
 31
0.0
 11
-17.5583147661
 21
-0.3964852619
 31
0.0
  0
SPLINE
  5
4D7
100
AcDbEntity
  8
RACCORDO
100
AcDbSpline
 62
253
  6
CONTINUOUS
 70
0
 71
3
 72
11
 73
7
 74
5
 42
0.0000001
 43
0.0000001
 44
0.0000000001
 12
-0.1095628732
 22
-0.0765520965
 32
0.0
 13
-0.1326029477
 23
0.0167542511
 33
0.0
 40
0.0
 40
0.0
 40
0.0
 40
0.0
 40
0.3104554046
 40
0.5857431429
 40
0.8165967457
 40
1.0
 40
1.0
 40
1.0
 40
1.0
 10
-17.4362271762
 20
-0.3480233302
 30
0.0
 10
-17.4475653049
 20
-0.3559453342
 30
0.0
 10
-17.4693553867
 20
-0.3703848472
 30
0.0
 10
-17.5021198305
 20
-0.3864947545
 30
0.0
 10
-17.5314616259
 20
-0.3959249324
 30
0.0
 10
-17.5502054515
 20
-0.397513846
 30
0.0
 10
-17.5583120555
 20
-0.3964895846
 30
0.0
 11
-17.4362271762
 21
-0.3480233302
 31
0.0
 11
-17.4711445264
 21
-0.3704416363
 31
0.0
 11
-17.5042663964
 21
-0.386465181
 31
0.0
 11
-17.5338273885
 21
-0.3953079148
 31
0.0
 11
-17.5583120555
 21
-0.3964895846
 31
0.0
  0
SPLINE
  5
4D8
100
AcDbEntity
  8
RACCORDO
100
AcDbSpline
 62
253
  6
CONTINUOUS
 70
0
 71
3
 72
13
 73
9
 74
7
 42
0.0000001
 43
0.0000001
 44
0.0000000001
 12
0.0000324817
 22
-1.3708104676
 32
0.0
 13
0.946635469
 23
-0.99146489
 33
0.0
 40
0.0
 40
0.0
 40
0.0
 40
0.0
 40
0.1219667419
 40
0.2443116043
 40
0.3673792887
 40
0.4914425874
 40
0.7430043378
 40
1.0
 40
1.0
 40
1.0
 40
1.0
 10
-17.9776485325
 20
0.8759100771
 30
0.0
 10
-17.9776472119
 20
0.8201789816
 30
0.0
 10
-17.9713386095
 20
0.7084429482
 30
0.0
 10
-17.9431863896
 20
0.5426241938
 30
0.0
 10
-17.8970029689
 20
0.3798962373
 30
0.0
 10
-17.812400372
 20
0.1679397844
 30
0.0
 10
-17.6663929788
 20
-0.0835259242
 30
0.0
 10
-17.5173209127
 20
-0.2630896321
 30
0.0
 10
-17.4362271763
 20
-0.3480236908
 30
0.0
 11
-17.9776485325
 21
0.8759100771
 31
0.0
 11
-17.9682547318
 21
0.7089808958
 31
0.0
 11
-17.9402917497
 21
0.5436168778
 31
0.0
 11
-17.8943909016
 21
0.3812788491
 31
0.0
 11
-17.831524671
 21
0.2232576072
 31
0.0
 11
-17.6598910065
 21
-0.075839219
 31
0.0
 11
-17.4362271763
 21
-0.3480236908
 31
0.0
  0
SPLINE
  5
4D9
100
AcDbEntity
  8
RACCORDO
100
AcDbSpline
 62
253
  6
CONTINUOUS
 70
0
 71
3
 72
12
 73
8
 74
6
 42
0.0000001
 43
0.0000001
 44
0.0000000001
 12
-0.1862383954
 22
-0.226482732
 32
0.0
 13
-0.2622657702
 23
0.1311328852
 33
0.0
 40
0.0
 40
0.0
 40
0.0
 40
0.0
 40
0.2630722471
 40
0.5275881595
 40
0.655223473
 40
0.7771951882
 40
1.0
 40
1.0
 40
1.0
 40
1.0
 10
-17.29480582
 20
-0.3187340083
 30
0.0
 10
-17.3111372044
 20
-0.3385944487
 30
0.0
 10
-17.3503993732
 20
-0.3733525058
 30
0.0
 10
-17.4091582241
 20
-0.4010907408
 30
0.0
 10
-17.4585132006
 20
-0.4116782681
 30
0.0
 10
-17.5047254055
 20
-0.4138723471
 30
0.0
 10
-17.5388340303
 20
-0.4062285972
 30
0.0
 10
-17.5583120555
 20
-0.3964895846
 30
0.0
 11
-17.29480582
 21
-0.3187340083
 31
0.0
 11
-17.3522936028
 21
-0.3701685853
 31
0.0
 11
-17.4225611217
 21
-0.4030064238
 31
0.0
 11
-17.4591759067
 21
-0.4107539812
 31
0.0
 11
-17.494909526
 21
-0.4122469874
 31
0.0
 11
-17.5583120555
 21
-0.3964895846
 31
0.0
  0
SPLINE
  5
4DA
100
AcDbEntity
  8
RACCORDO
100
AcDbSpline
 62
253
  6
CONTINUOUS
 70
0
 71
3
 72
11
 73
7
 74
5
 42
0.0000001
 43
0.0000001
 44
0.0000000001
 12
0.3598229598
 22
-0.5738145552
 32
0.0
 13
0.6057962642
 23
-0.3028969998
 33
0.0
 40
0.0
 40
0.0
 40
0.0
 40
0.0
 40
0.2603524002
 40
0.5120311847
 40
0.7575988695
 40
1.0
 40
1.0
 40
1.0
 40
1.0
 10
-17.5583147661
 20
-0.3964852619
 30
0.0
 10
-17.5270878424
 20
-0.4462832608
 30
0.0
 10
-17.4597669441
 20
-0.540696057
 30
0.0
 10
-17.342792642
 20
-0.6661792049
 30
0.0
 10
-17.2126913588
 20
-0.7717220901
 30
0.0
 10
-17.1176280693
 20
-0.8283028481
 30
0.0
 10
-17.0686795028
 20
-0.8527770399
 30
0.0
 11
-17.5583147661
 21
-0.3964852619
 31
0.0
 11
-17.4555919433
 21
-0.539812422
 31
0.0
 11
-17.3391109265
 21
-0.6642692676
 31
0.0
 11
-17.2097964801
 21
-0.7688691577
 31
0.0
 11
-17.0686795028
 21
-0.8527770399
 31
0.0
  0
SPLINE
  5
4DB
100
AcDbEntity
  8
RACCORDO
100
AcDbSpline
 62
253
  6
CONTINUOUS
 70
0
 71
3
 72
9
 73
5
 74
3
 42
0.0000001
 43
0.0000001
 44
0.0000000001
 12
0.2302549357
 22
-0.3671892684
 32
0.0
 13
0.344831388
 23
-0.2625578186
 33
0.0
 40
0.0
 40
0.0
 40
0.0
 40
0.0
 40
0.5104242466
 40
1.0
 40
1.0
 40
1.0
 40
1.0
 10
-17.29480582
 20
-0.3187320268
 30
0.0
 10
-17.2556299193
 20
-0.3812061287
 30
0.0
 10
-17.1689093463
 20
-0.4977428243
 30
0.0
 10
-17.0623819891
 20
-0.5967785589
 30
0.0
 10
-17.0061082936
 20
-0.6396258728
 30
0.0
 11
-17.29480582
 21
-0.3187320268
 31
0.0
 11
-17.1619410339
 21
-0.4956128625
 31
0.0
 11
-17.0061082936
 21
-0.6396258728
 31
0.0
  0
SPLINE
  5
4DC
100
AcDbEntity
  8
RACCORDO
100
AcDbSpline
 62
253
  6
CONTINUOUS
 70
0
 71
3
 72
10
 73
6
 74
4
 42
0.0000001
 43
0.0000001
 44
0.0000000001
 12
0.1454648038
 22
0.0
 32
0.0
 13
0.1301076759
 23
0.0650538379
 33
0.0
 40
0.0
 40
0.0
 40
0.0
 40
0.0
 40
0.5287470567
 40
0.7747861604
 40
1.0
 40
1.0
 40
1.0
 40
1.0
 10
-17.4362271763
 20
-0.3480233302
 30
0.0
 10
-17.4105891473
 20
-0.3480233302
 30
0.0
 10
-17.3728320086
 20
-0.3445043126
 30
0.0
 10
-17.3258614792
 20
-0.3321770226
 30
0.0
 10
-17.3045731698
 20
-0.3236176832
 30
0.0
 10
-17.29480582
 20
-0.3187340083
 30
0.0
 11
-17.4362271763
 21
-0.3480233302
 31
0.0
 11
-17.359690719
 21
-0.3404110068
 31
0.0
 11
-17.3251140998
 21
-0.3311706795
 31
0.0
 11
-17.29480582
 21
-0.3187340083
 31
0.0
  0
SPLINE
  5
4DD
100
AcDbEntity
  8
RACCORDO
100
AcDbSpline
 62
253
  6
CONTINUOUS
 70
0
 71
3
 72
13
 73
9
 74
7
 42
0.0000001
 43
0.0000001
 44
0.0000000001
 12
-0.0000000001
 22
0.0814558498
 32
0.0
 13
0.0809569818
 23
0.0090012536
 33
0.0
 40
0.0
 40
0.0
 40
0.0
 40
0.0
 40
0.0996187499
 40
0.185587421
 40
0.2984061579
 40
0.4377060572
 40
0.6023139232
 40
1.0
 40
1.0
 40
1.0
 40
1.0
 10
-5.1911478274
 20
-0.717793137
 30
0.0
 10
-5.1911478274
 20
-0.7150882937
 30
0.0
 10
-5.1862808526
 20
-0.7112002337
 30
0.0
 10
-5.1792201041
 20
-0.7080600741
 30
0.0
 10
-5.1703658293
 20
-0.7051281154
 30
0.0
 10
-5.159417345
 20
-0.7024407626
 30
0.0
 10
-5.1406900615
 20
-0.6988072104
 30
0.0
 10
-5.1255494852
 20
-0.6968054634
 30
0.0
 10
-5.1148176637
 20
-0.695612239
 30
0.0
 11
-5.1911478274
 21
-0.717793137
 31
0.0
 11
-5.1860599432
 21
-0.7114718214
 31
0.0
 11
-5.1797614391
 21
-0.7084114343
 31
0.0
 11
-5.1710551487
 21
-0.705470016
 31
0.0
 11
-5.1600554405
 21
-0.7026850383
 31
0.0
 11
-5.1469002243
 21
-0.7000923394
 31
0.0
 11
-5.1148176637
 21
-0.695612239
 31
0.0
  0
SPLINE
  5
4DE
100
AcDbEntity
  8
RACCORDO
100
AcDbSpline
 62
253
  6
CONTINUOUS
 70
0
 71
3
 72
11
 73
7
 74
5
 42
0.0000001
 43
0.0000001
 44
0.0000000001
 12
-0.0608417327
 22
1.02946887
 32
0.0
 13
0.0000074851
 23
1.0312651796
 33
0.0
 40
0.0
 40
0.0
 40
0.0
 40
0.0
 40
0.1718032104
 40
0.397094993
 40
0.674954604
 40
1.0
 40
1.0
 40
1.0
 40
1.0
 10
-5.113235474
 20
-6.6190248459
 30
0.0
 10
-5.1167197423
 20
-6.5600694936
 30
0.0
 10
-5.1224794096
 20
-6.4236717059
 30
0.0
 10
-5.1282656427
 20
-6.1917202013
 30
0.0
 10
-5.1318554093
 20
-5.9070396738
 30
0.0
 10
-5.1325699946
 20
-5.6997869531
 30
0.0
 10
-5.1325691836
 20
-5.5880509536
 30
0.0
 11
-5.113235474
 21
-6.6190248459
 31
0.0
 11
-5.1212626744
 21
-6.4420321136
 31
0.0
 11
-5.12738744
 21
-6.2097772868
 31
0.0
 11
-5.1312476097
 21
-5.923256347
 31
0.0
 11
-5.1325691836
 21
-5.5880509536
 31
0.0
  0
SPLINE
  5
4DF
100
AcDbEntity
  8
RACCORDO
100
AcDbSpline
 62
253
  6
CONTINUOUS
 70
0
 71
3
 72
15
 73
11
 74
9
 42
0.0000001
 43
0.0000001
 44
0.0000000001
 12
1.1227005961
 22
3.0402497545
 32
0.0
 13
2.8987687315
 23
1.4493843658
 33
0.0
 40
0.0
 40
0.0
 40
0.0
 40
0.0
 40
0.1328008495
 40
0.2661005612
 40
0.3984316909
 40
0.5283608998
 40
0.654549362
 40
0.7758123843
 40
0.8911852501
 40
1.0
 40
1.0
 40
1.0
 40
1.0
 10
-5.1148197637
 20
-0.6956179256
 30
0.0
 10
-5.0651212327
 20
-0.5610353422
 30
0.0
 10
-4.9542466075
 20
-0.2953931082
 30
0.0
 10
-4.7565699655
 20
0.0874630752
 30
0.0
 10
-4.5300115088
 20
0.4503645808
 30
0.0
 10
-4.2785295979
 20
0.7869441741
 30
0.0
 10
-4.0064987383
 20
1.0913429585
 30
0.0
 10
-3.7185985772
 20
1.3582705616
 30
0.0
 10
-3.4198476574
 20
1.5830438171
 30
0.0
 10
-3.2103257544
 20
1.7059592656
 30
0.0
 10
-3.1051828229
 20
1.7585307314
 30
0.0
 11
-5.1148197637
 21
-0.6956179256
 31
0.0
 11
-4.949187353
 21
-0.2983678204
 31
0.0
 11
-4.7509642981
 21
0.085485909
 31
0.0
 11
-4.5236515198
 21
0.4491650955
 31
0.0
 11
-4.2712672217
 21
0.7862397371
 31
0.0
 11
-3.9982727385
 21
1.0907524395
 31
0.0
 11
-3.7094930201
 21
1.357320278
 31
0.0
 11
-3.410033713
 21
1.5812312942
 31
0.0
 11
-3.1051828229
 21
1.7585307314
 31
0.0
  0
SPLINE
  5
4E0
100
AcDbEntity
  8
RACCORDO
100
AcDbSpline
 62
253
  6
CONTINUOUS
 70
0
 71
3
 72
11
 73
7
 74
5
 42
0.0000001
 43
0.0000001
 44
0.0000000001
 12
0.0
 22
-0.1260132692
 32
0.0
 13
-0.1131003956
 23
-0.0555665774
 33
0.0
 40
0.0
 40
0.0
 40
0.0
 40
0.0
 40
0.2907589297
 40
0.5509081625
 40
0.7837621858
 40
1.0
 40
1.0
 40
1.0
 40
1.0
 10
-2.6312855274
 20
-7.1434776872
 30
0.0
 10
-2.6312855274
 20
-7.1556908483
 30
0.0
 10
-2.6332433121
 20
-7.1789193206
 30
0.0
 10
-2.6431363761
 20
-7.2106565932
 30
0.0
 10
-2.6596651013
 20
-7.2359952532
 30
0.0
 10
-2.6751165535
 20
-7.2476494877
 30
0.0
 10
-2.6832687476
 20
-7.2516546861
 30
0.0
 11
-2.6312855274
 21
-7.1434776872
 31
0.0
 11
-2.6347437614
 21
-7.1799536019
 31
0.0
 11
-2.6449473328
 21
-7.2111074683
 31
0.0
 11
-2.6613926385
 21
-7.2354086158
 31
0.0
 11
-2.6832687476
 21
-7.2516546861
 31
0.0
  0
SPLINE
  5
4E1
100
AcDbEntity
  8
RACCORDO
100
AcDbSpline
 62
253
  6
CONTINUOUS
 70
0
 71
3
 72
13
 73
9
 74
7
 42
0.0000001
 43
0.0000001
 44
0.0000000001
 12
-0.2598768872
 22
-0.127690153
 32
0.0
 13
-0.2589838167
 23
0.1294919085
 33
0.0
 40
0.0
 40
0.0
 40
0.0
 40
0.0
 40
0.1129985268
 40
0.236241419
 40
0.5006267921
 40
0.7646734602
 40
0.8875168957
 40
1.0
 40
1.0
 40
1.0
 40
1.0
 10
-4.6284628314
 20
-5.6999168919
 30
0.0
 10
-4.6382513999
 20
-5.7047264916
 30
0.0
 10
-4.6595369032
 20
-5.7131472023
 30
0.0
 10
-4.7064094183
 20
-5.7252390777
 30
0.0
 10
-4.7694888683
 20
-5.7309671992
 30
0.0
 10
-4.8325084331
 20
-5.7249759862
 30
0.0
 10
-4.8792023564
 20
-5.7126750843
 30
0.0
 10
-4.900355606
 20
-5.7041577424
 30
0.0
 10
-4.9100660405
 20
-5.6993025251
 30
0.0
 11
-4.6284628314
 21
-5.6999168919
 31
0.0
 11
-4.658804512
 21
-5.7121609649
 31
0.0
 11
-4.6933187216
 21
-5.7212279889
 31
0.0
 11
-4.7695173438
 21
-5.728590632
 31
0.0
 11
-4.8455845639
 21
-5.7208957942
 31
0.0
 11
-4.8799392119
 21
-5.7116785207
 31
0.0
 11
-4.9100660405
 21
-5.6993025251
 31
0.0
  0
SPLINE
  5
4E2
100
AcDbEntity
  8
RACCORDO
100
AcDbSpline
 62
253
  6
CONTINUOUS
 70
0
 71
3
 72
15
 73
11
 74
9
 42
0.0000001
 43
0.0000001
 44
0.0000000001
 12
0.0000063344
 22
-1.8996224985
 32
0.0
 13
1.698912315
 23
-0.8498603313
 33
0.0
 40
0.0
 40
0.0
 40
0.0
 40
0.0
 40
0.1479243294
 40
0.2886057184
 40
0.4218972282
 40
0.5480087484
 40
0.6675732896
 40
0.7816776219
 40
0.8918537083
 40
1.0
 40
1.0
 40
1.0
 40
1.0
 10
-4.9100660405
 20
-5.6993025251
 30
0.0
 10
-4.9100657282
 20
-5.7929693198
 30
0.0
 10
-4.9019496199
 20
-5.975859351
 30
0.0
 10
-4.8634804725
 20
-6.2407019375
 30
0.0
 10
-4.7993944647
 20
-6.4864011038
 30
0.0
 10
-4.7103271522
 20
-6.7099634133
 30
0.0
 10
-4.597185158
 20
-6.9086270553
 30
0.0
 10
-4.4611300798
 20
-7.0798270871
 30
0.0
 10
-4.3037810813
 20
-7.2211488423
 30
0.0
 10
-4.1854824198
 20
-7.2943612279
 30
0.0
 10
-4.1242387308
 20
-7.3249976423
 30
0.0
 11
-4.9100660405
 21
-5.6993025251
 31
0.0
 11
-4.8969648659
 21
-5.9799973329
 31
0.0
 11
-4.8578222397
 21
-6.2443567304
 31
0.0
 11
-4.7931181988
 21
-6.4891534323
 31
0.0
 11
-4.7036452242
 21
-6.7113822145
 31
0.0
 11
-4.5904995631
 21
-6.9083211827
 31
0.0
 11
-4.4550681966
 21
-7.0775581261
 31
0.0
 11
-4.2990106547
 21
-7.2170199198
 31
0.0
 11
-4.1242387308
 21
-7.3249976423
 31
0.0
  0
SPLINE
  5
4E3
100
AcDbEntity
  8
RACCORDO
100
AcDbSpline
 62
253
  6
CONTINUOUS
 70
0
 71
3
 72
22
 73
18
 74
16
 42
0.0000001
 43
0.0000001
 44
0.0000000001
 12
0.0000212088
 22
-3.0842772701
 32
0.0
 13
2.7681869881
 23
1.3601128917
 33
0.0
 40
0.0
 40
0.0
 40
0.0
 40
0.0
 40
0.1477943242
 40
0.216800802
 40
0.2825120279
 40
0.3451129801
 40
0.4049451499
 40
0.4625128446
 40
0.5184730354
 40
0.5736038905
 40
0.6287508058
 40
0.6847578036
 40
0.7423992972
 40
0.8023267512
 40
0.8650387793
 40
0.9308694738
 40
1.0
 40
1.0
 40
1.0
 40
1.0
 10
-4.6284628314
 20
-5.6999168919
 30
0.0
 10
-4.6284617866
 20
-5.8518631168
 30
0.0
 10
-4.6113080792
 20
-6.0756581865
 30
0.0
 10
-4.5469277558
 20
-6.3592912543
 30
0.0
 10
-4.4812230797
 20
-6.5516772219
 30
0.0
 10
-4.3975736396
 20
-6.7266176674
 30
0.0
 10
-4.2966720767
 20
-6.8824140642
 30
0.0
 10
-4.179396729
 20
-7.017460647
 30
0.0
 10
-4.046832217
 20
-7.1303009493
 30
0.0
 10
-3.9003027761
 20
-7.2196691946
 30
0.0
 10
-3.7413639462
 20
-7.2845713899
 30
0.0
 10
-3.5717401456
 20
-7.3243494439
 30
0.0
 10
-3.3932350164
 20
-7.3386904461
 30
0.0
 10
-3.2076666141
 20
-7.3275879004
 30
0.0
 10
-3.0168392669
 20
-7.2912794836
 30
0.0
 10
-2.8225778893
 20
-7.2302355603
 30
0.0
 10
-2.6950742684
 20
-7.1748194605
 30
0.0
 10
-2.6312855274
 20
-7.1434776872
 30
0.0
 11
-4.6284628314
 21
-5.6999168919
 31
0.0
 11
-4.5900859991
 21
-6.1541372307
 31
0.0
 11
-4.5424617405
 21
-6.3615756903
 31
0.0
 11
-4.4764313322
 21
-6.5531893091
 31
0.0
 11
-4.3926309712
 21
-6.7271343624
 31
0.0
 11
-4.2918678579
 21
-6.8817352615
 31
0.0
 11
-4.1751125762
 21
-7.0155032966
 31
0.0
 11
-4.0434896884
 21
-7.1271502921
 31
0.0
 11
-3.898266936
 21
-7.2156011844
 31
0.0
 11
-3.7408430749
 21
-7.2800044776
 31
0.0
 11
-3.5727343167
 21
-7.3197403116
 31
0.0
 11
-3.3955595838
 21
-7.334426275
 31
0.0
 11
-3.2110254602
 21
-7.3239214069
 31
0.0
 11
-3.0209076677
 21
-7.2883262147
 31
0.0
 11
-2.8270408767
 21
-7.2279858843
 31
0.0
 11
-2.6312855274
 21
-7.1434776872
 31
0.0
  0
SPLINE
  5
4E4
100
AcDbEntity
  8
RACCORDO
100
AcDbSpline
 62
253
  6
CONTINUOUS
 70
0
 71
3
 72
13
 73
9
 74
7
 42
0.0000001
 43
0.0000001
 44
0.0000000001
 12
-0.2598768872
 22
-0.1276901529
 32
0.0
 13
-0.2589838167
 23
0.1294919084
 33
0.0
 40
0.0
 40
0.0
 40
0.0
 40
0.0
 40
0.1129985269
 40
0.2362414191
 40
0.5006267923
 40
0.7646734603
 40
0.8875168957
 40
1.0
 40
1.0
 40
1.0
 40
1.0
 10
-4.6284628314
 20
-2.4523216277
 30
0.0
 10
-4.6382513999
 20
-2.4571312274
 30
0.0
 10
-4.6595369032
 20
-2.4655519381
 30
0.0
 10
-4.7064094184
 20
-2.4776438135
 30
0.0
 10
-4.7694888683
 20
-2.483371935
 30
0.0
 10
-4.8325084332
 20
-2.477380722
 30
0.0
 10
-4.8792023564
 20
-2.4650798201
 30
0.0
 10
-4.900355606
 20
-2.4565624782
 30
0.0
 10
-4.9100660405
 20
-2.4517072609
 30
0.0
 11
-4.6284628314
 21
-2.4523216277
 31
0.0
 11
-4.658804512
 21
-2.4645657007
 31
0.0
 11
-4.6933187216
 21
-2.4736327247
 31
0.0
 11
-4.7695173438
 21
-2.4809953678
 31
0.0
 11
-4.8455845639
 21
-2.47330053
 31
0.0
 11
-4.879939212
 21
-2.4640832565
 31
0.0
 11
-4.9100660405
 21
-2.4517072609
 31
0.0
  0
SPLINE
  5
4E5
100
AcDbEntity
  8
RACCORDO
100
AcDbSpline
 62
253
  6
CONTINUOUS
 70
0
 71
3
 72
11
 73
7
 74
5
 42
0.0000001
 43
0.0000001
 44
0.0000000001
 12
-0.0000000001
 22
0.2933713496
 32
0.0
 13
-0.2614720816
 23
0.1330379618
 33
0.0
 40
0.0
 40
0.0
 40
0.0
 40
0.0
 40
0.2471309725
 40
0.5124284572
 40
0.7709259083
 40
1.0
 40
1.0
 40
1.0
 40
1.0
 10
-2.4529661253
 20
1.2579831834
 30
0.0
 10
-2.4529661253
 20
1.2821502323
 30
0.0
 10
-2.461229296
 20
1.3323442907
 30
0.0
 10
-2.4911295583
 20
1.4022311233
 30
0.0
 10
-2.5350730635
 20
1.4620796389
 30
0.0
 10
-2.5731824849
 20
1.4923547923
 30
0.0
 10
-2.5931479781
 20
1.502513309
 30
0.0
 11
-2.4529661253
 21
1.2579831834
 31
0.0
 11
-2.4636370046
 21
1.329694749
 31
0.0
 11
-2.494024706
 21
1.4013480987
 31
0.0
 11
-2.5395031361
 21
1.4620339519
 31
0.0
 11
-2.5931479781
 21
1.502513309
 31
0.0
  0
SPLINE
  5
4E6
100
AcDbEntity
  8
RACCORDO
100
AcDbSpline
 62
253
  6
CONTINUOUS
 70
0
 71
3
 72
16
 73
12
 74
10
 42
0.0000001
 43
0.0000001
 44
0.0000000001
 12
-4.2961228321
 22
-2.1131831303
 32
0.0
 13
-0.000017809
 23
-4.7877149383
 33
0.0
 40
0.0
 40
0.0
 40
0.0
 40
0.0
 40
0.11066171
 40
0.1695458681
 40
0.2305023247
 40
0.3574496813
 40
0.4889716249
 40
0.6220458765
 40
0.7535192848
 40
0.8803735415
 40
1.0
 40
1.0
 40
1.0
 40
1.0
 10
-2.5931479781
 20
1.502513309
 30
0.0
 10
-2.7516200778
 20
1.4245638228
 30
0.0
 10
-2.9829317202
 20
1.2807136494
 30
0.0
 10
-3.2705238405
 20
1.051067761
 30
0.0
 10
-3.5593738631
 20
0.7828063943
 30
0.0
 10
-3.8952109094
 20
0.3971166417
 30
0.0
 10
-4.2437116213
 20
-0.1233728236
 30
0.0
 10
-4.5302813992
 20
-0.6884821667
 30
0.0
 10
-4.7441576293
 20
-1.2770797833
 30
0.0
 10
-4.8773331646
 20
-1.8670275775
 30
0.0
 10
-4.9100653304
 20
-2.2607948002
 30
0.0
 10
-4.9100660405
 20
-2.4517072609
 30
0.0
 11
-2.5931479781
 21
1.502513309
 31
0.0
 11
-3.0451482216
 21
1.2261050258
 31
0.0
 11
-3.2657035727
 21
1.0505073579
 31
0.0
 11
-3.4797812518
 21
0.8521577152
 31
0.0
 11
-3.8803436536
 21
0.3950409708
 31
0.0
 11
-4.2314427095
 21
-0.1276811475
 31
0.0
 11
-4.5195847968
 21
-0.6959223359
 31
0.0
 11
-4.7336955711
 21
-1.2878454254
 31
0.0
 11
-4.8655454566
 21
-1.8807028594
 31
0.0
 11
-4.9100660405
 21
-2.4517072609
 31
0.0
  0
SPLINE
  5
4E7
100
AcDbEntity
  8
RACCORDO
100
AcDbSpline
 62
253
  6
CONTINUOUS
 70
0
 71
3
 72
16
 73
12
 74
10
 42
0.0000001
 43
0.0000001
 44
0.0000000001
 12
-4.0328228693
 22
-1.9815616088
 32
0.0
 13
-0.0000341552
 23
-4.4933558399
 33
0.0
 40
0.0
 40
0.0
 40
0.0
 40
0.0
 40
0.1106846102
 40
0.1695766605
 40
0.2305387248
 40
0.3574909017
 40
0.4890104574
 40
0.6220769949
 40
0.7535396029
 40
0.880382529
 40
1.0
 40
1.0
 40
1.0
 40
1.0
 10
-2.4529661253
 20
1.2579831834
 30
0.0
 10
-2.6017566011
 20
1.1848737253
 30
0.0
 10
-2.8189458032
 20
1.0499394781
 30
0.0
 10
-3.0889903077
 20
0.8344930374
 30
0.0
 10
-3.3602047527
 20
0.5828175687
 30
0.0
 10
-3.6755412898
 20
0.2209519429
 30
0.0
 10
-4.0027740468
 20
-0.2674225158
 30
0.0
 10
-4.2718556699
 20
-0.7976879101
 30
0.0
 10
-4.4726800114
 20
-1.3500159176
 30
0.0
 10
-4.5977288156
 20
-1.903632726
 30
0.0
 10
-4.6284614696
 20
-2.2731603404
 30
0.0
 10
-4.6284628314
 20
-2.4523216277
 30
0.0
 11
-2.4529661253
 21
1.2579831834
 31
0.0
 11
-2.8773759712
 21
0.9986982634
 31
0.0
 11
-3.0844685624
 21
0.8339622387
 31
0.0
 11
-3.2854789479
 21
0.6478726945
 31
0.0
 11
-3.6615913189
 21
0.2189871997
 31
0.0
 11
-3.9912599479
 21
-0.2714791472
 31
0.0
 11
-4.2618147353
 21
-0.8046796886
 31
0.0
 11
-4.4628570855
 21
-1.3601238733
 31
0.0
 11
-4.5866594766
 21
-1.916465881
 31
0.0
 11
-4.6284628314
 21
-2.4523216277
 31
0.0
  0
SPLINE
  5
4E8
100
AcDbEntity
  8
RACCORDO
100
AcDbSpline
 62
253
  6
CONTINUOUS
 70
0
 71
3
 72
11
 73
7
 74
5
 42
0.0000001
 43
0.0000001
 44
0.0000000001
 12
0.000008198
 22
2.2823459598
 32
0.0
 13
1.0734229405
 23
2.0141663961
 33
0.0
 40
0.0
 40
0.0
 40
0.0
 40
0.0
 40
0.2342257464
 40
0.4821019715
 40
0.7391022121
 40
1.0
 40
1.0
 40
1.0
 40
1.0
 10
-18.3415730318
 20
4.2640462347
 30
0.0
 10
-18.3415723918
 20
4.4422409634
 30
0.0
 10
-18.3135398238
 20
4.8093457193
 30
0.0
 10
-18.1987796399
 20
5.3611447861
 30
0.0
 10
-18.0137861258
 20
5.91488067
 30
0.0
 10
-17.8476494089
 20
6.2732000464
 30
0.0
 10
-17.7542981853
 20
6.4483638988
 30
0.0
 11
-18.3415730318
 21
4.2640462347
 31
0.0
 11
-18.3032812402
 21
4.7972572535
 31
0.0
 11
-18.189692859
 21
5.351476196
 31
0.0
 11
-18.004625367
 21
5.9080790321
 31
0.0
 11
-17.7542981853
 21
6.4483638988
 31
0.0
  0
SPLINE
  5
4E9
100
AcDbEntity
  8
RACCORDO
100
AcDbSpline
 62
253
  6
CONTINUOUS
 70
0
 71
3
 72
11
 73
7
 74
5
 42
0.0000001
 43
0.0000001
 44
0.0000000001
 12
0.0
 22
-0.0962586796
 32
0.0
 13
0.0860963804
 23
-0.0430481902
 33
0.0
 40
0.0
 40
0.0
 40
0.0
 40
0.0
 40
0.2065676273
 40
0.4345137607
 40
0.6974277104
 40
1.0
 40
1.0
 40
1.0
 40
1.0
 10
-5.1911478274
 20
-5.5173402754
 30
0.0
 10
-5.1911478274
 20
-5.5239682511
 30
0.0
 10
-5.1882203049
 20
-5.5380172477
 30
0.0
 10
-5.1759971771
 20
-5.5571813435
 30
0.0
 10
-5.156947356
 20
-5.5743971792
 30
0.0
 10
-5.1412526433
 20
-5.5837092237
 30
0.0
 10
-5.1325691836
 20
-5.5880509536
 30
0.0
 11
-5.1911478274
 21
-5.5173402754
 31
0.0
 11
-5.1873048835
 21
-5.5368493076
 31
0.0
 11
-5.1759237339
 21
-5.5556086187
 31
0.0
 11
-5.1574417498
 21
-5.5728972987
 31
0.0
 11
-5.1325691836
 21
-5.5880509536
 31
0.0
  0
SPLINE
  5
4EA
100
AcDbEntity
  8
RACCORDO
100
AcDbSpline
 62
7
  6
CONTINUOUS
 70
0
 71
3
 72
9
 73
5
 74
3
 42
0.0000001
 43
0.0000001
 44
0.0000000001
 12
-0.4347732533
 22
0.0873379156
 32
0.0
 13
-0.4394369151
 23
-0.0595893528
 33
0.0
 40
0.0
 40
0.0
 40
0.0
 40
0.0
 40
0.4886809648
 40
1.0
 40
1.0
 40
1.0
 40
1.0
 10
7.6404737237
 20
23.0149489018
 30
0.0
 10
7.5696519194
 20
23.029175694
 30
0.0
 10
7.4217691838
 20
23.044325612
 30
0.0
 10
7.2735303423
 20
23.0359235722
 30
0.0
 10
7.1986328558
 20
23.0257671821
 30
0.0
 11
7.6404737237
 21
23.0149489018
 31
0.0
 11
7.4250319222
 21
23.0383582256
 31
0.0
 11
7.1986328558
 21
23.0257671821
 31
0.0
  0
SPLINE
  5
4EB
100
AcDbEntity
  8
RACCORDO
100
AcDbSpline
 62
253
  6
CONTINUOUS
 70
0
 71
3
 72
9
 73
5
 74
3
 42
0.0000001
 43
0.0000001
 44
0.0000000001
 12
-0.0
 22
-0.1339463162
 32
0.0
 13
0.0906483884
 23
-0.098612805
 33
0.0
 40
0.0
 40
0.0
 40
0.0
 40
0.0
 40
0.496147076
 40
1.0
 40
1.0
 40
1.0
 40
1.0
 10
-5.1911478274
 20
-6.4705630046
 30
0.0
 10
-5.1911478274
 20
-6.4927153623
 30
0.0
 10
-5.1824953727
 20
-6.5377662336
 30
0.0
 10
-5.1578694988
 20
-6.5763637354
 30
0.0
 10
-5.1426450136
 20
-6.5929258521
 30
0.0
 11
-5.1911478274
 21
-6.4705630046
 31
0.0
 11
-5.1786299996
 21
-6.5358305046
 31
0.0
 11
-5.1426450136
 21
-6.5929258521
 31
0.0
  0
SPLINE
  5
4EC
100
AcDbEntity
  8
RACCORDO
100
AcDbSpline
 62
253
  6
CONTINUOUS
 70
0
 71
3
 72
9
 73
5
 74
3
 42
0.0000001
 43
0.0000001
 44
0.0000000001
 12
0.0266391892
 22
-0.0289797228
 32
0.0
 13
0.0320053413
 23
-0.0229156904
 33
0.0
 40
0.0
 40
0.0
 40
0.0
 40
0.0
 40
0.2490727895
 40
1.0
 40
1.0
 40
1.0
 40
1.0
 10
-5.1426450136
 20
-6.5929258521
 30
0.0
 10
-5.1404333145
 20
-6.5953318723
 30
0.0
 10
-5.131311103
 20
-6.6047649207
 30
0.0
 10
-5.1212439338
 20
-6.6132932539
 30
0.0
 10
-5.1132327066
 20
-6.6190292591
 30
0.0
 11
-5.1426450136
 21
-6.5929258521
 31
0.0
 11
-5.1358305026
 21
-6.5999747776
 31
0.0
 11
-5.1132327066
 21
-6.6190292591
 31
0.0
  0
SPLINE
  5
4ED
100
AcDbEntity
  8
ASSI
100
AcDbSpline
 62
7
  6
CONTINUOUS
 70
0
 71
3
 72
15
 73
11
 74
9
 42
0.0000001
 43
0.0000001
 44
0.0000000001
 12
1.2927245145
 22
0.6739981235
 32
0.0
 13
-0.0
 23
1.4578786441
 33
0.0
 40
0.0
 40
0.0
 40
0.0
 40
0.0
 40
0.1109516471
 40
0.2309090886
 40
0.3579430161
 40
0.489443561
 40
0.622418517
 40
0.7537555272
 40
0.8804749292
 40
1.0
 40
1.0
 40
1.0
 40
1.0
 10
-8.0072342372
 20
19.6053877045
 30
0.0
 10
-7.9594242658
 20
19.6303147718
 30
0.0
 10
-7.8648451195
 20
19.6919097717
 30
0.0
 10
-7.7351200714
 20
19.8086142442
 30
0.0
 10
-7.615905054
 20
19.9493682506
 30
0.0
 10
-7.5115676343
 20
20.109011326
 30
0.0
 10
-7.4258815904
 20
20.2817161887
 30
0.0
 10
-7.3619901209
 20
20.461180736
 30
0.0
 10
-7.3222333198
 20
20.6407953712
 30
0.0
 10
-7.3124681709
 20
20.7605798921
 30
0.0
 10
-7.3124681709
 20
20.8186642415
 30
0.0
 11
-8.0072342372
 21
19.6053877045
 31
0.0
 11
-7.8710489317
 21
19.6926684643
 31
0.0
 11
-7.7404488432
 21
19.8089776114
 31
0.0
 11
-7.6203376083
 21
19.9499469335
 31
0.0
 11
-7.5152309945
 21
20.1102779281
 31
0.0
 11
-7.4290786472
 21
20.2839442619
 31
0.0
 11
-7.3651191762
 21
20.4644193503
 31
0.0
 11
-7.3257560473
 21
20.6449185736
 31
0.0
 11
-7.3124681709
 21
20.8186642415
 31
0.0
  0
ELLIPSE
  5
4EE
100
AcDbEntity
  8
0
100
AcDbEllipse
 62
7
  6
CONTINUOUS
 10
-1.9368754339
 20
-3.7868721302
 30
0.0
 11
-0.1561136636
 21
2.7602667586
 31
0.0
 40
0.0493593472
 41
-1.3895737389
 42
-0.4030279047
  0
ELLIPSE
  5
4EF
100
AcDbEntity
  8
RACCORDO
100
AcDbEllipse
 62
7
  6
CONTINUOUS
 10
-3.9884487762
 20
13.6982117113
 30
0.0
 11
-0.5448644628
 21
0.8385354021
 31
0.0
 40
0.5510328311
 41
-1.4749598696
 42
-0.7536650659
  0
ELLIPSE
  5
4F0
100
AcDbEntity
  8
RACCORDO
100
AcDbEllipse
 62
7
  6
CONTINUOUS
 10
-3.2322881384
 20
14.1951727967
 30
0.0
 11
-0.5448644628
 21
0.8385354021
 31
0.0
 40
0.5510328311
 41
-2.3168651962
 42
-1.5985790964
  0
ELLIPSE
  5
4F1
100
AcDbEntity
  8
RACCORDO
100
AcDbEllipse
 62
7
  6
CONTINUOUS
 10
-16.4458197607
 20
19.9268972036
 30
0.0
 11
-0.549709993
 21
0.8444576934
 31
0.0
 40
0.5427447495
 41
-0.747054622
 42
-0.0257598183
  0
ELLIPSE
  5
4F2
100
AcDbEntity
  8
RACCORDO
100
AcDbEllipse
 62
7
  6
CONTINUOUS
 10
0.0998557302
 20
-17.3760457223
 30
0.0
 11
-0.549709993
 21
0.8444576934
 31
0.0
 40
0.5427447495
 41
-3.043733245
 42
-2.3254471453
  0
ELLIPSE
  5
4F3
100
AcDbEntity
  8
RACCORDO
100
AcDbEllipse
 62
7
  6
CONTINUOUS
 10
5.9737682047
 20
-14.6791865879
 30
0.0
 11
8.7800633195
 21
4.8643247272
 31
0.0
 40
0.0652618074
 41
-2.3755622599
 42
-2.2519430331
  0
ELLIPSE
  5
4F4
100
AcDbEntity
  8
RACCORDO
100
AcDbEllipse
 62
7
  6
CONTINUOUS
 10
-0.6713835155
 20
-17.7301408188
 30
0.0
 11
-0.549709993
 21
0.8444576934
 31
0.0
 40
0.5427447495
 41
-3.2216852636
 42
-3.1673524719
  0
ELLIPSE
  5
4F5
100
AcDbEntity
  8
RACCORDO
100
AcDbEllipse
 62
7
  6
CONTINUOUS
 10
-1.9306531308
 20
3.773614603
 30
0.0
 11
-0.3843685658
 21
0.5872257644
 31
0.0
 40
0.5461768746
 41
-3.1888709192
 42
-2.3253964667
  0
ELLIPSE
  5
4F6
100
AcDbEntity
  8
RACCORDO
100
AcDbEllipse
 62
7
  6
CONTINUOUS
 10
-0.7758945888
 20
-7.1674298728
 30
0.0
 11
-0.3836974519
 21
0.5863926512
 31
0.0
 40
0.5478376231
 41
-2.3236970147
 42
-0.754421766
  0
ELLIPSE
  5
4F7
100
AcDbEntity
  8
RACCORDO
100
AcDbEllipse
 62
7
  6
CONTINUOUS
 10
-10.9966505833
 20
24.7418445105
 30
0.0
 11
7.3699646948
 21
5.571910367
 31
0.0
 40
0.0770267772
 41
8.6179890763
 42
8.7416083031
  0
ELLIPSE
  5
4F8
100
AcDbEntity
  8
ASSI
100
AcDbEllipse
 62
7
  6
CONTINUOUS
 10
-18.8147235784
 20
16.8868143919
 30
0.0
 11
3.9779005846
 21
3.0088432988
 31
0.0
 40
0.0710733481
 41
-0.5653932946
 42
0.6357147175
  0
ELLIPSE
  5
4F9
100
AcDbEntity
  8
DRAFT
100
AcDbEllipse
 62
7
  6
CONTINUOUS
 10
-4.6894732143
 20
-7.7280973314
 30
0.0
 11
5.8877730234
 21
7.8931205784
 31
0.0
 40
0.3961229147
 41
-3.0707546269
 42
-2.5188139767
  0
ELLIPSE
  5
4FA
100
AcDbEntity
  8
ASSI
100
AcDbEllipse
 62
7
  6
CONTINUOUS
 10
-9.7284014402
 20
12.3436533228
 30
0.0
 11
3.9779005846
 21
3.0088432988
 31
0.0
 40
0.0710733481
 41
-0.5653932946
 42
0.6357147175
  0
ELLIPSE
  5
4FB
100
AcDbEntity
  8
ASSI
100
AcDbEllipse
 62
7
  6
CONTINUOUS
 10
-4.5367422819
 20
-11.1281105058
 30
0.0
 11
4.3875637093
 21
2.458811464
 31
0.0
 40
0.0754943919
 41
5.4303982204
 42
7.1111225816
  0
ELLIPSE
  5
4FC
100
AcDbEntity
  8
ASSI
100
AcDbEllipse
 62
7
  6
CONTINUOUS
 10
-5.9586238277
 20
2.3438567202
 30
0.0
 11
4.3875637093
 21
2.458811464
 31
0.0
 40
0.0754943919
 41
5.4303982204
 42
7.1111225816
  0
ELLIPSE
  5
4FD
100
AcDbEntity
  8
RACCORDO
100
AcDbEllipse
 62
7
  6
CONTINUOUS
 10
2.526782639
 20
17.9801278993
 30
0.0
 11
8.7800633195
 21
4.8643247272
 31
0.0
 40
0.0652618074
 41
-2.3755622599
 42
-2.2519430331
  0
ELLIPSE
  5
4FE
100
AcDbEntity
  8
RACCORDO
100
AcDbEllipse
 62
7
  6
CONTINUOUS
 10
-5.7145144354
 20
-8.3020931454
 30
0.0
 11
0.6949187619
 21
0.0846896595
 31
0.0
 40
0.5803482197
 41
-0.868647273
 42
-0.8511939805
  0
ELLIPSE
  5
4FF
100
AcDbEntity
  8
DRAFT
100
AcDbEllipse
 62
7
  6
CONTINUOUS
 10
10.7541100884
 20
22.53480315
 30
0.0
 11
2.7499831596
 21
-0.0194567514
 31
0.0
 40
0.4946372042
 41
2.368420792
 42
2.9397220933
  0
ELLIPSE
  5
500
100
AcDbEntity
  8
0
100
AcDbEllipse
 62
7
  6
CONTINUOUS
 10
16.2115602346
 20
23.6262550776
 30
0.0
 11
0.79574694
 21
0.7129684349
 31
0.0
 40
0.2882345029
 41
0.1136090155
 42
0.7807533904
  0
ELLIPSE
  5
501
100
AcDbEntity
  8
DRAFT
100
AcDbEllipse
 62
7
  6
CONTINUOUS
 10
11.4258615305
 20
22.4304863644
 30
0.0
 11
2.7583783481
 21
-0.0195161492
 31
0.0
 40
0.4946372042
 41
0.4406346392
 42
2.3596941457
  0
ELLIPSE
  5
502
100
AcDbEntity
  8
0
100
AcDbEllipse
 62
7
  6
CONTINUOUS
 10
12.314172164
 20
25.5749491129
 30
0.0
 11
0.4410298232
 21
0.8975092442
 31
0.0
 40
0.607010042
 41
-0.8902711325
 42
-0.7587130969
  0
ELLIPSE
  5
503
100
AcDbEntity
  8
RACCORDO
100
AcDbEllipse
 62
7
  6
CONTINUOUS
 10
119.0410709857
 20
69.3693467322
 30
0.0
 11
111.4440378013
 21
57.7233873698
 31
0.0
 40
0.017156689
 41
2.654821495
 42
3.6105913739
  0
ELLIPSE
  5
504
100
AcDbEntity
  8
0
100
AcDbEllipse
 62
7
  6
CONTINUOUS
 10
12.367727754
 20
25.5481713178
 30
0.0
 11
-0.3106730325
 21
1.1082908718
 31
0.0
 40
0.6760995073
 41
4.9783291412
 42
6.4001141399
  0
ELLIPSE
  5
505
100
AcDbEntity
  8
DRAFT
100
AcDbEllipse
 62
7
  6
CONTINUOUS
 10
11.4258615305
 20
22.8543036184
 30
0.0
 11
2.7583876426
 21
-0.0130411979
 31
0.0
 40
0.4964289597
 41
0.1874063655
 42
2.3585415194
  0
ELLIPSE
  5
506
100
AcDbEntity
  8
0
100
AcDbEllipse
 62
7
  6
CONTINUOUS
 10
10.7305770002
 20
23.749922763
 30
0.0
 11
3.3022643479
 21
-0.04629945
 31
0.0
 40
0.4892378494
 41
2.3616770883
 42
5.5059722822
  0
ELLIPSE
  5
507
100
AcDbEntity
  8
DRAFT
100
AcDbEllipse
 62
7
  6
CONTINUOUS
 10
-2.8440239215
 20
-3.0910844678
 30
0.0
 11
0.1360559951
 21
0.2673790137
 31
0.0
 40
0.6176975122
 41
1.5093821329
 42
3.0103652896
  0
ELLIPSE
  5
508
100
AcDbEntity
  8
RACCORDO
100
AcDbEllipse
 62
7
  6
CONTINUOUS
 10
-0.6917636563
 20
-21.9237628876
 30
0.0
 11
0.110769438
 21
0.2241226716
 31
0.0
 40
0.6088015717
 41
-4.0304836828
 42
-3.1443955108
  0
ELLIPSE
  5
509
100
AcDbEntity
  8
RACCORDO
100
AcDbEllipse
 62
7
  6
CONTINUOUS
 10
-14.0560818207
 20
-15.2416038054
 30
0.0
 11
0.110769438
 21
0.2241226716
 31
0.0
 40
0.6088015717
 41
-4.0304836828
 42
-3.1443955108
  0
ELLIPSE
  5
50A
100
AcDbEntity
  8
RACCORDO
100
AcDbEllipse
 62
7
  6
CONTINUOUS
 10
-14.0560818207
 20
26.3113717277
 30
0.0
 11
0.110769438
 21
0.2241226716
 31
0.0
 40
0.6088015717
 41
-4.0304836828
 42
-3.1443650652
  0
ELLIPSE
  5
50B
100
AcDbEntity
  8
RACCORDO
100
AcDbEllipse
 62
7
  6
CONTINUOUS
 10
-0.6917636563
 20
19.6292126455
 30
0.0
 11
0.110769438
 21
0.2241226716
 31
0.0
 40
0.6088015717
 41
-4.0304836828
 42
-3.1443650652
  0
ELLIPSE
  5
50C
100
AcDbEntity
  8
RACCORDO
100
AcDbEllipse
 62
7
  6
CONTINUOUS
 10
3.364844225
 20
18.3374945964
 30
0.0
 11
-0.1565168911
 21
0.3130623908
 31
0.0
 40
0.6123677712
 41
-2.2554744912
 42
-0.6846781644
  0
ELLIPSE
  5
50D
100
AcDbEntity
  8
RACCORDO
100
AcDbEllipse
 62
7
  6
CONTINUOUS
 10
3.364844225
 20
-19.8390872483
 30
0.0
 11
-0.1565168911
 21
0.3130623908
 31
0.0
 40
0.6123677712
 41
-3.1363904945
 42
-2.2554744912
  0
ELLIPSE
  5
50E
100
AcDbEntity
  8
RACCORDO
100
AcDbEllipse
 62
7
  6
CONTINUOUS
 10
-2.4017513235
 20
27.4427259016
 30
0.0
 11
0.2999991737
 21
-0.0014183462
 31
0.0
 40
0.4964289597
 41
0.7877451926
 42
2.3527237553
  0
ELLIPSE
  5
50F
100
AcDbEntity
  8
RACCORDO
100
AcDbEllipse
 62
7
  6
CONTINUOUS
 10
3.1527121906
 20
24.6654941445
 30
0.0
 11
0.2999991737
 21
-0.0014183462
 31
0.0
 40
0.4964289597
 41
0.7877451926
 42
2.3585415194
  0
ELLIPSE
  5
510
100
AcDbEntity
  8
RACCORDO
100
AcDbEllipse
 62
7
  6
CONTINUOUS
 10
-2.5777360058
 20
-19.5894654767
 30
0.0
 11
0.2999991737
 21
-0.0014183462
 31
0.0
 40
0.4964289597
 41
-1.7810171659
 42
-0.9983204013
  0
ELLIPSE
  5
511
100
AcDbEntity
  8
RACCORDO
100
AcDbEllipse
 62
7
  6
CONTINUOUS
 10
2.6920643261
 20
18.9550656073
 30
0.0
 11
0.110769438
 21
0.2241226716
 31
0.0
 40
0.6088015717
 41
1.2055040732
 42
2.2526937431
  0
ELLIPSE
  5
512
100
AcDbEntity
  8
RACCORDO
100
AcDbEllipse
 62
7
  6
CONTINUOUS
 10
-10.6722538383
 20
25.6372246895
 30
0.0
 11
0.110769438
 21
0.2241226716
 31
0.0
 40
0.6088015717
 41
1.2055040732
 42
2.2526937431
  0
ELLIPSE
  5
513
100
AcDbEntity
  8
RACCORDO
100
AcDbEllipse
 62
7
  6
CONTINUOUS
 10
3.0435608033
 20
19.8828707593
 30
0.0
 11
0.110769438
 21
0.2241226716
 31
0.0
 40
0.6088015717
 41
-1.9360885804
 42
-0.8888910292
  0
ELLIPSE
  5
514
100
AcDbEntity
  8
RACCORDO
100
AcDbEllipse
 62
7
  6
CONTINUOUS
 10
1.4233859469
 20
20.9538871638
 30
0.0
 11
0.1128509832
 21
0.2230818409
 31
0.0
 40
0.6159267166
 41
0.0028979148
 42
0.6817883054
  0
ELLIPSE
  5
515
100
AcDbEntity
  8
RACCORDO
100
AcDbEllipse
 62
7
  6
CONTINUOUS
 10
-0.6917636563
 20
19.8825840393
 30
0.0
 11
0.110769438
 21
0.2241226716
 31
0.0
 40
0.6088015717
 41
0.6877230618
 42
2.2527016244
  0
ELLIPSE
  5
516
100
AcDbEntity
  8
RACCORDO
100
AcDbEllipse
 62
7
  6
CONTINUOUS
 10
-10.3207573612
 20
26.5650298415
 30
0.0
 11
0.110769438
 21
0.2241226716
 31
0.0
 40
0.6088015717
 41
-1.9360885804
 42
-0.8888910292
  0
ELLIPSE
  5
517
100
AcDbEntity
  8
RACCORDO
100
AcDbEllipse
 62
7
  6
CONTINUOUS
 10
-11.9409322175
 20
27.6360462461
 30
0.0
 11
0.1128509832
 21
0.2230818409
 31
0.0
 40
0.6159267166
 41
0.0028979148
 42
0.6817883054
  0
ELLIPSE
  5
518
100
AcDbEntity
  8
RACCORDO
100
AcDbEllipse
 62
7
  6
CONTINUOUS
 10
-14.0560818207
 20
26.5647431215
 30
0.0
 11
0.110769438
 21
0.2241226716
 31
0.0
 40
0.6088015717
 41
0.6877230618
 42
2.2527016244
  0
ELLIPSE
  5
519
100
AcDbEntity
  8
RACCORDO
100
AcDbEllipse
 62
7
  6
CONTINUOUS
 10
-14.0560818207
 20
-14.9882324116
 30
0.0
 11
0.110769438
 21
0.2241226716
 31
0.0
 40
0.6088015717
 41
1.3572020613
 42
2.2527016244
  0
ELLIPSE
  5
51A
100
AcDbEntity
  8
RACCORDO
100
AcDbEllipse
 62
7
  6
CONTINUOUS
 10
3.0435608033
 20
-21.6776623564
 30
0.0
 11
0.110769438
 21
0.2241226716
 31
0.0
 40
0.6088015717
 41
-2.4538695918
 42
-0.8888910292
  0
ELLIPSE
  5
51B
100
AcDbEntity
  8
RACCORDO
100
AcDbEllipse
 62
7
  6
CONTINUOUS
 10
-0.6917636563
 20
-21.6703914939
 30
0.0
 11
0.110769438
 21
0.2241226716
 31
0.0
 40
0.6088015717
 41
1.2055040732
 42
2.2527016244
  0
ELLIPSE
  5
51C
100
AcDbEntity
  8
RACCORDO
100
AcDbEllipse
 62
7
  6
CONTINUOUS
 10
-11.5519695712
 20
19.8735001182
 30
0.0
 11
-0.3234211751
 21
0.9546019167
 31
0.0
 40
0.6648686735
 41
-0.5912965599
 42
0.1123827769
  0
ELLIPSE
  5
51D
100
AcDbEntity
  8
RACCORDO
100
AcDbEllipse
 62
7
  6
CONTINUOUS
 10
3.0435608033
 20
-21.4167333801
 30
0.0
 11
0.110769438
 21
0.2241226716
 31
0.0
 40
0.6088015717
 41
5.394294278
 42
6.4414918292
  0
ELLIPSE
  5
51E
100
AcDbEntity
  8
RACCORDO
100
AcDbEllipse
 62
7
  6
CONTINUOUS
 10
-10.3207573612
 20
26.8259588179
 30
0.0
 11
0.110769438
 21
0.2241226716
 31
0.0
 40
0.6088015717
 41
5.394294278
 42
6.9592728406
  0
ELLIPSE
  5
51F
100
AcDbEntity
  8
RACCORDO
100
AcDbEllipse
 62
7
  6
CONTINUOUS
 10
3.0435608033
 20
20.1437997357
 30
0.0
 11
0.110769438
 21
0.2241226716
 31
0.0
 40
0.6088015717
 41
5.394294278
 42
6.9592728406
  0
ELLIPSE
  5
520
100
AcDbEntity
  8
RACCORDO
100
AcDbEllipse
 62
7
  6
CONTINUOUS
 10
-2.2212993464
 20
26.1206657316
 30
0.0
 11
0.2999981629
 21
-0.0021225547
 31
0.0
 40
0.4946372042
 41
-0.7818985079
 42
0.0034997008
  0
ELLIPSE
  5
521
100
AcDbEntity
  8
RACCORDO
100
AcDbEllipse
 62
7
  6
CONTINUOUS
 10
3.3331641678
 20
23.3434339745
 30
0.0
 11
0.2999981629
 21
-0.0021225547
 31
0.0
 40
0.4946372042
 41
-0.7760807437
 42
0.0035109161
  0
ELLIPSE
  5
522
100
AcDbEntity
  8
RACCORDO
100
AcDbEllipse
 62
7
  6
CONTINUOUS
 10
-8.3702450739
 20
24.5225445336
 30
0.0
 11
0.2999991335
 21
0.0014318851
 31
0.0
 40
0.5035541159
 41
8.6427941204
 42
10.207772683
  0
ELLIPSE
  5
523
100
AcDbEntity
  8
RACCORDO
100
AcDbEllipse
 62
7
  6
CONTINUOUS
 10
-14.3835359828
 20
24.7254744323
 30
0.0
 11
-0.1565168911
 21
0.3130623908
 31
0.0
 40
0.6123677712
 41
-0.6846781644
 42
0.8861181623
  0
ELLIPSE
  5
524
100
AcDbEntity
  8
RACCORDO
100
AcDbEllipse
 62
7
  6
CONTINUOUS
 10
0.8899704908
 20
17.0887211955
 30
0.0
 11
-0.1565168911
 21
0.3130623908
 31
0.0
 40
0.6123677712
 41
-2.2554744912
 42
-0.6846781644
  0
ELLIPSE
  5
525
100
AcDbEntity
  8
RACCORDO
100
AcDbEllipse
 62
7
  6
CONTINUOUS
 10
-0.4965641037
 20
-5.9543820304
 30
0.0
 11
-0.1085782352
 21
0.1690527654
 31
0.0
 40
0.5459771812
 41
-3.2040641194
 42
-2.3138348679
  0
ELLIPSE
  5
526
100
AcDbEntity
  8
RACCORDO
100
AcDbEllipse
 62
7
  6
CONTINUOUS
 10
-0.4965641037
 20
2.3594618459
 30
0.0
 11
-0.0646337196
 21
0.1902471476
 31
0.0
 40
0.6675902134
 41
-2.1647611171
 42
-0.5939647903
  0
ELLIPSE
  5
527
100
AcDbEntity
  8
RACCORDO
100
AcDbEllipse
 62
7
  6
CONTINUOUS
 10
-3.0316241955
 20
2.0010225156
 30
0.0
 11
-0.0894743295
 21
0.1788832574
 31
0.0
 40
0.6123910759
 41
0.885912951
 42
2.4567092778
  0
ELLIPSE
  5
528
100
AcDbEntity
  8
RACCORDO
100
AcDbEllipse
 62
7
  6
CONTINUOUS
 10
-0.9894817346
 20
2.9870595412
 30
0.0
 11
-0.0645364433
 21
0.190182327
 31
0.0
 40
0.668282678
 41
0.976679823
 42
2.5474761498
  0
ELLIPSE
  5
529
100
AcDbEntity
  8
RACCORDO
100
AcDbEllipse
 62
7
  6
CONTINUOUS
 10
-2.5777360058
 20
21.6262899996
 30
0.0
 11
0.2999991335
 21
0.0014318851
 31
0.0
 40
0.5035541159
 41
-2.3585979313
 42
-0.7936193687
  0
ELLIPSE
  5
52A
100
AcDbEntity
  8
RACCORDO
100
AcDbEllipse
 62
7
  6
CONTINUOUS
 10
-2.5777360058
 20
20.4120909238
 30
0.0
 11
0.2999980272
 21
0.0021530184
 31
0.0
 40
0.5053247124
 41
-2.3598210761
 42
-0.7948425135
  0
ELLIPSE
  5
52B
100
AcDbEntity
  8
RACCORDO
100
AcDbEllipse
 62
7
  6
CONTINUOUS
 10
-8.3702450739
 20
23.3083454578
 30
0.0
 11
0.2999980272
 21
0.0021530184
 31
0.0
 40
0.5053247124
 41
3.1379773283
 42
3.9233642311
  0
ELLIPSE
  5
52C
100
AcDbEntity
  8
RACCORDO
100
AcDbEllipse
 62
7
  6
CONTINUOUS
 10
3.3331641678
 20
24.5752681559
 30
0.0
 11
0.2999991737
 21
-0.0014183462
 31
0.0
 40
0.4964289597
 41
-0.77723337
 42
0.7877451926
  0
ELLIPSE
  5
52D
100
AcDbEntity
  8
RACCORDO
100
AcDbEllipse
 62
7
  6
CONTINUOUS
 10
-2.2212993464
 20
27.352499913
 30
0.0
 11
0.2999991737
 21
-0.0014183462
 31
0.0
 40
0.4964289597
 41
-0.7830511342
 42
0.7877451926
  0
ELLIPSE
  5
52E
100
AcDbEntity
  8
RACCORDO
100
AcDbEllipse
 62
7
  6
CONTINUOUS
 10
0.8899704908
 20
-21.0651875816
 30
0.0
 11
-0.1565168911
 21
0.3130623908
 31
0.0
 40
0.6123677712
 41
2.4569144891
 42
4.0277108159
  0
ELLIPSE
  5
52F
100
AcDbEntity
  8
RACCORDO
100
AcDbEllipse
 62
7
  6
CONTINUOUS
 10
2.6920643261
 20
-20.8445385321
 30
0.0
 11
0.110769438
 21
0.2241226716
 31
0.0
 40
0.6088015717
 41
2.2527095058
 42
3.2998991756
  0
ELLIPSE
  5
530
100
AcDbEntity
  8
RACCORDO
100
AcDbEllipse
 62
7
  6
CONTINUOUS
 10
0.9160697193
 20
19.0786673515
 30
0.0
 11
0.1128509832
 21
0.2230818409
 31
0.0
 40
0.6159267166
 41
0.6934238338
 42
2.2584023964
  0
ELLIPSE
  5
531
100
AcDbEntity
  8
RACCORDO
100
AcDbEllipse
 62
7
  6
CONTINUOUS
 10
0.9160697193
 20
18.8252959577
 30
0.0
 11
0.1128509832
 21
0.2230818409
 31
0.0
 40
0.6159267166
 41
-4.0247829108
 42
-2.9775853596
  0
ELLIPSE
  5
532
100
AcDbEntity
  8
RACCORDO
100
AcDbEllipse
 62
7
  6
CONTINUOUS
 10
-12.4482484451
 20
25.7608264337
 30
0.0
 11
0.1128509832
 21
0.2230818409
 31
0.0
 40
0.6159267166
 41
0.6934238338
 42
2.2584023964
  0
ELLIPSE
  5
533
100
AcDbEntity
  8
RACCORDO
100
AcDbEllipse
 62
7
  6
CONTINUOUS
 10
-12.4482484451
 20
25.5074550399
 30
0.0
 11
0.1128509832
 21
0.2230818409
 31
0.0
 40
0.6159267166
 41
-4.0247829108
 42
-2.9775853596
  0
ELLIPSE
  5
534
100
AcDbEntity
  8
RACCORDO
100
AcDbEllipse
 62
7
  6
CONTINUOUS
 10
-12.4482484451
 20
-16.0455204932
 30
0.0
 11
0.1128509832
 21
0.2230818409
 31
0.0
 40
0.6159267166
 41
-4.0247829108
 42
-2.4598043482
  0
ELLIPSE
  5
535
100
AcDbEntity
  8
RACCORDO
100
AcDbEllipse
 62
7
  6
CONTINUOUS
 10
-12.4482484451
 20
-15.7921490995
 30
0.0
 11
0.1128509832
 21
0.2230818409
 31
0.0
 40
0.6159267166
 41
1.3629028332
 42
2.2584023964
  0
ELLIPSE
  5
536
100
AcDbEntity
  8
RACCORDO
100
AcDbEllipse
 62
7
  6
CONTINUOUS
 10
0.9160697193
 20
-22.7276795754
 30
0.0
 11
0.1128509832
 21
0.2230818409
 31
0.0
 40
0.6159267166
 41
-4.0247829108
 42
-2.4598043482
  0
ELLIPSE
  5
537
100
AcDbEntity
  8
RACCORDO
100
AcDbEllipse
 62
7
  6
CONTINUOUS
 10
0.9160697193
 20
-22.4743081817
 30
0.0
 11
0.1128509832
 21
0.2230818409
 31
0.0
 40
0.6159267166
 41
1.2112048452
 42
2.2584023964
  0
ELLIPSE
  5
538
100
AcDbEntity
  8
RACCORDO
100
AcDbEllipse
 62
7
  6
CONTINUOUS
 10
-0.7622358154
 20
14.4786332402
 30
0.0
 11
-0.3205676932
 21
0.9531531496
 31
0.0
 40
0.66789399
 41
-2.1618296722
 42
-0.5913379319
  0
ENDSEC
  0
SECTION
  2
OBJECTS
  0
DICTIONARY
  5
C
100
AcDbDictionary
280
0
281
1
  3
ACAD_GROUP
350
D
  3
ACAD_MLINESTYLE
350
17
  3
ACAD_LAYOUT
350
1A
  3
ACAD_PLOTSETTINGS
350
19
  3
ACAD_PLOTSTYLENAME
350
E
  0
DICTIONARY
  5
D
102
{ACAD_REACTORS
330
C
102
}
100
AcDbDictionary
280
0
281
1
  0
ACDBDICTIONARYWDFLT
  5
E
102
{ACAD_REACTORS
330
C
102
}
100
AcDbDictionary
281
1
  3
Normal
350
F
100
AcDbDictionaryWithDefault
340
F
  0
DICTIONARY
  5
17
102
{ACAD_REACTORS
330
C
102
}
100
AcDbDictionary
280
0
281
1
  3
Standard
350
18
  0
DICTIONARY
  5
19
102
{ACAD_REACTORS
330
C
102
}
100
AcDbDictionary
281
1
  0
DICTIONARY
  5
1A
102
{ACAD_REACTORS
330
C
102
}
100
AcDbDictionary
281
1
  3
Model
350
539
  3
Layout1
350
53A
  0
ACDBPLACEHOLDER
  5
F
102
{ACAD_REACTORS
330
E
102
}
  0
MLINESTYLE
  5
18
102
{ACAD_REACTORS
330
17
102
}
100
AcDbMlineStyle
  2
STANDARD
 70
0
  3

 62
256
 51
90.0
 52
90.0
 71
2
 49
0.5
 62
256
  6
BYLAYER
 49
-0.5
 62
256
  6
BYLAYER
  0
LAYOUT
  5
539
102
{ACAD_REACTORS
330
1A
102
}
100
AcDbPlotSettings
  1

  2
none_device
  4
ISO_A4_(297.00_x_210.00_MM)
  6

 40
0.0
 41
0.0
 42
0.0
 43
0.0
 44
297.0
 45
210.0
 46
0.0
 47
0.0
 48
0.0
 49
0.0
140
0.0
141
0.0
142
1.0
143
1.0
 70
1024
 72
1
 73
0
 74
0
  7

 75
0
147
1.0
148
0.0
149
0.0
100
AcDbLayout
  1
Model
 70
0
 71
0
 10
0.0
 20
0.0
 11
297.0
 21
210.0
 12
0.0
 22
0.0
 32
0.0
 14
0.0
 24
0.0
 34
0.0
 15
0.0
 25
0.0
 35
0.0
146
0.0
 13
0.0
 23
0.0
 33
0.0
 16
1.0
 26
0.0
 36
0.0
 17
0.0
 27
1.0
 37
0.0
 76
0
330
219
345
0
346
0
  0
LAYOUT
  5
53A
102
{ACAD_REACTORS
330
1A
102
}
100
AcDbPlotSettings
  1

  2
none_device
  4
ISO_A4_(297.00_x_210.00_MM)
  6

 40
0.0
 41
0.0
 42
0.0
 43
0.0
 44
297.0
 45
210.0
 46
0.0
 47
0.0
 48
0.0
 49
0.0
140
0.0
141
0.0
142
1.0
143
1.0
 70
0
 72
1
 73
0
 74
0
  7

 75
0
147
1.0
148
0.0
149
0.0
100
AcDbLayout
  1
Layout1
 70
0
 71
1
 10
0.0
 20
0.0
 11
297.0
 21
210.0
 12
0.0
 22
0.0
 32
0.0
 14
0.0
 24
0.0
 34
0.0
 15
0.0
 25
0.0
 35
0.0
146
0.0
 13
0.0
 23
0.0
 33
0.0
 16
1.0
 26
0.0
 36
0.0
 17
0.0
 27
1.0
 37
0.0
 76
0
330
21A
345
0
346
0
  0
ENDSEC
  0
EOF
