  0
SECTION
  2
HEADER
  9
$ACADVER
  1
AC1015
  9
$DWGCODEPAGE
  3
ANSI_1252
  9
$EXTMAX
 10
297.0
 20
210.0
 30
0.0
  9
$EXTMIN
 10
0.0
 20
0.0
 30
0.0
  9
$LIMMIN
 10
0.0
 20
0.0
  9
$LIMMAX
 10
297.0
 20
210.0
  9
$VIEWCTR
 10
148.5
 20
105.0
  9
$VIEWSIZE
 40
210.0
  9
$CLAYER
  8
0
  9
$LTSCALE
 40
16.335
  9
$CELTYPE
  6
BYLAYER
  9
$DIMSCALE
 40
1.0
  9
$DIMASZ
 40
3.0
  9
$DIMEXO
 40
1.85625
  9
$DIMDLI
 40
11.286
  9
$DIMEXE
 40
5.346
  9
$DIMCEN
 40
2.673
  9
$DIMLFAC
 40
1.0
  9
$DIMBLK
  1
_FILLED
  9
$DIMTXT
 40
3.0
  9
$DIMTOL
 70
1
  9
$DIMLIM
 70
0
  9
$DIMTFAC
 40
1.0
  9
$DIMTP
 40
0.01
  9
$DIMTM
 40
0.01
  9
$PDMODE
 70
3
  9
$PDSIZE
 40
3.0
  9
$HANDSEED
  5
591
  9
$TILEMODE
 70
1
  9
$MEASUREMENT
 70
1
  9
$INSUNITS
 70
4
  0
ENDSEC
  0
SECTION
  2
CLASSES
  0
CLASS
  1
ACDBDICTIONARYWDFLT
  2
AcDbDictionaryWithDefault
  3
AutoCAD 2000
 90
0
280
0
281
0
  0
CLASS
  1
ACDBPLACEHOLDER
  2
AcDbPlaceHolder
  3
AutoCAD 2000
 90
0
280
0
281
0
  0
CLASS
  1
LAYOUT
  2
AcDbLayout
  3
AutoCAD 2000
 90
0
280
0
281
0
  0
ENDSEC
  0
SECTION
  2
TABLES
  0
TABLE
  2
VPORT
  5
8
100
AcDbSymbolTable
 70
2
  0
VPORT
  5
1F4
100
AcDbSymbolTableRecord
100
AcDbViewportTableRecord
  2
*ACTIVE
 70
0
 10
0.0
 20
0.0
 11
1.0
 21
1.0
 12
148.5
 22
105.0
 13
0.0
 23
0.0
 14
1.0
 24
1.0
 15
0.0
 25
0.0
 16
0.0
 26
0.0
 36
1.0
 17
0.0
 27
0.0
 37
0.0
 40
210.0
 41
1.4142857143
 42
50.0
 43
0.0
 44
0.0
 50
0.0
 51
0.0
 71
0
 72
100
 73
1
 74
1
 75
0
 76
0
 77
0
 78
0
  0
ENDTAB
  0
TABLE
  2
LTYPE
  5
5
100
AcDbSymbolTable
 70
6
  0
LTYPE
  5
14
100
AcDbSymbolTableRecord
100
AcDbLinetypeTableRecord
  2
BYBLOCK
 70
0
  3

 72
65
 73
0
 40
0.0
  0
LTYPE
  5
15
100
AcDbSymbolTableRecord
100
AcDbLinetypeTableRecord
  2
BYLAYER
 70
0
  3

 72
65
 73
0
 40
0.0
  0
LTYPE
  5
16
100
AcDbSymbolTableRecord
100
AcDbLinetypeTableRecord
  2
CONTINUOUS
 70
64
  3
Solid line
 72
65
 73
0
 40
0.0
  0
LTYPE
  5
1F5
100
AcDbSymbolTableRecord
100
AcDbLinetypeTableRecord
  2
CENTER
 70
64
  3
____ _ ____ _ ____ _ ____ _ ____ _ ____ _ ____
 72
65
 73
4
 40
0.6
 49
0.375
 74
0
 49
-0.075
 74
0
 49
0.075
 74
0
 49
-0.075
 74
0
  0
LTYPE
  5
1F6
100
AcDbSymbolTableRecord
100
AcDbLinetypeTableRecord
  2
HIDDEN
 70
64
  3
- - - - - - - - - - - - - - - - - - - -
 72
65
 73
2
 40
0.2
 49
0.1
 74
0
 49
-0.1
 74
0
  0
LTYPE
  5
1F7
100
AcDbSymbolTableRecord
100
AcDbLinetypeTableRecord
  2
PHANTOM
 70
64
  3
_____ _ _ _____ _ _ _____ _ _ _____
 72
65
 73
6
 40
0.8
 49
0.45
 74
0
 49
-0.05
 74
0
 49
0.1
 74
0
 49
-0.05
 74
0
 49
0.1
 74
0
 49
-0.05
 74
0
  0
LTYPE
  5
1F8
100
AcDbSymbolTableRecord
100
AcDbLinetypeTableRecord
  2
DOT
 70
64
  3
. . . . . . . . . . . . . . . . . . . .
 72
65
 73
2
 40
0.2
 49
0.1
 74
0
 49
-0.1
 74
0
  0
LTYPE
  5
1F9
100
AcDbSymbolTableRecord
100
AcDbLinetypeTableRecord
  2
DASHED
 70
64
  3
- - - - - - - - - - - - - - - - - - - -
 72
65
 73
2
 40
0.2
 49
0.1
 74
0
 49
-0.1
 74
0
  0
ENDTAB
  0
TABLE
  2
LAYER
  5
2
100
AcDbSymbolTable
 70
36
  0
LAYER
  5
10
100
AcDbSymbolTableRecord
100
AcDbLayerTableRecord
  2
0
 70
0
 62
7
  6
CONTINUOUS
370
-3
390
F
  0
LAYER
  5
1FA
100
AcDbSymbolTableRecord
100
AcDbLayerTableRecord
  2
DEFAULT_1
 70
0
 62
7
  6
CENTER
370
-3
390
F
  0
LAYER
  5
1FB
100
AcDbSymbolTableRecord
100
AcDbLayerTableRecord
  2
DEFAULT_2
 70
0
 62
7
  6
HIDDEN
370
-3
390
F
  0
LAYER
  5
1FC
100
AcDbSymbolTableRecord
100
AcDbLayerTableRecord
  2
DEFAULT_3
 70
0
 62
7
  6
PHANTOM
370
-3
390
F
  0
LAYER
  5
1FD
100
AcDbSymbolTableRecord
100
AcDbLayerTableRecord
  2
ASSI
 70
0
 62
7
  6
CONTINUOUS
370
-3
390
F
  0
LAYER
  5
1FE
100
AcDbSymbolTableRecord
100
AcDbLayerTableRecord
  2
COLORE_TOP
 70
0
 62
7
  6
CONTINUOUS
370
-3
390
F
  0
LAYER
  5
1FF
100
AcDbSymbolTableRecord
100
AcDbLayerTableRecord
  2
COORDINATE
 70
0
 62
7
  6
CONTINUOUS
370
-3
390
F
  0
LAYER
  5
200
100
AcDbSymbolTableRecord
100
AcDbLayerTableRecord
  2
COORD_ORIGINE
 70
0
 62
7
  6
CONTINUOUS
370
-3
390
F
  0
LAYER
  5
201
100
AcDbSymbolTableRecord
100
AcDbLayerTableRecord
  2
COPY_PUBLISH
 70
0
 62
7
  6
CONTINUOUS
370
-3
390
F
  0
LAYER
  5
202
100
AcDbSymbolTableRecord
100
AcDbLayerTableRecord
  2
COSMETIC
 70
0
 62
7
  6
CONTINUOUS
370
-3
390
F
  0
LAYER
  5
203
100
AcDbSymbolTableRecord
100
AcDbLayerTableRecord
  2
COSMETICHE
 70
0
 62
7
  6
CONTINUOUS
370
-3
390
F
  0
LAYER
  5
204
100
AcDbSymbolTableRecord
100
AcDbLayerTableRecord
  2
COSMETICI
 70
0
 62
7
  6
CONTINUOUS
370
-3
390
F
  0
LAYER
  5
205
100
AcDbSymbolTableRecord
100
AcDbLayerTableRecord
  2
CURVE
 70
0
 62
7
  6
CONTINUOUS
370
-3
390
F
  0
LAYER
  5
206
100
AcDbSymbolTableRecord
100
AcDbLayerTableRecord
  2
DRAFT
 70
0
 62
7
  6
CONTINUOUS
370
-3
390
F
  0
LAYER
  5
207
100
AcDbSymbolTableRecord
100
AcDbLayerTableRecord
  2
IMPORT
 70
0
 62
7
  6
CONTINUOUS
370
-3
390
F
  0
LAYER
  5
208
100
AcDbSymbolTableRecord
100
AcDbLayerTableRecord
  2
IMPORTED
 70
0
 62
7
  6
CONTINUOUS
370
-3
390
F
  0
LAYER
  5
209
100
AcDbSymbolTableRecord
100
AcDbLayerTableRecord
  2
IMPORT_IGES
 70
0
 62
7
  6
CONTINUOUS
370
-3
390
F
  0
LAYER
  5
20A
100
AcDbSymbolTableRecord
100
AcDbLayerTableRecord
  2
INCISIONI_LASER
 70
0
 62
7
  6
CONTINUOUS
370
-3
390
F
  0
LAYER
  5
20B
100
AcDbSymbolTableRecord
100
AcDbLayerTableRecord
  2
NOTE
 70
0
 62
7
  6
CONTINUOUS
370
-3
390
F
  0
LAYER
  5
20C
100
AcDbSymbolTableRecord
100
AcDbLayerTableRecord
  2
PIANI
 70
0
 62
7
  6
CONTINUOUS
370
-3
390
F
  0
LAYER
  5
20D
100
AcDbSymbolTableRecord
100
AcDbLayerTableRecord
  2
PIANI_DI_RIFERIMENTO
 70
0
 62
7
  6
CONTINUOUS
370
-3
390
F
  0
LAYER
  5
20E
100
AcDbSymbolTableRecord
100
AcDbLayerTableRecord
  2
PIANI_ORIGINE
 70
0
 62
7
  6
CONTINUOUS
370
-3
390
F
  0
LAYER
  5
20F
100
AcDbSymbolTableRecord
100
AcDbLayerTableRecord
  2
PIANI_RIFERIMENTO
 70
0
 62
7
  6
CONTINUOUS
370
-3
390
F
  0
LAYER
  5
210
100
AcDbSymbolTableRecord
100
AcDbLayerTableRecord
  2
PIANI_SFORMO
 70
0
 62
7
  6
CONTINUOUS
370
-3
390
F
  0
LAYER
  5
211
100
AcDbSymbolTableRecord
100
AcDbLayerTableRecord
  2
PUNTI
 70
0
 62
7
  6
CONTINUOUS
370
-3
390
F
  0
LAYER
  5
212
100
AcDbSymbolTableRecord
100
AcDbLayerTableRecord
  2
RACCORDO
 70
0
 62
7
  6
CONTINUOUS
370
-3
390
F
  0
LAYER
  5
213
100
AcDbSymbolTableRecord
100
AcDbLayerTableRecord
  2
SMUSSO
 70
0
 62
7
  6
CONTINUOUS
370
-3
390
F
  0
LAYER
  5
214
100
AcDbSymbolTableRecord
100
AcDbLayerTableRecord
  2
SNAPLINE
 70
0
 62
7
  6
CONTINUOUS
370
-3
390
F
  0
LAYER
  5
215
100
AcDbSymbolTableRecord
100
AcDbLayerTableRecord
  2
SUPERFICI
 70
0
 62
7
  6
CONTINUOUS
370
-3
390
F
  0
LAYER
  5
216
100
AcDbSymbolTableRecord
100
AcDbLayerTableRecord
  2
TRASH
 70
0
 62
7
  6
CONTINUOUS
370
-3
390
F
  0
LAYER
  5
217
100
AcDbSymbolTableRecord
100
AcDbLayerTableRecord
  2
XSEC_DATUMS
 70
0
 62
7
  6
CONTINUOUS
370
-3
390
F
  0
ENDTAB
  0
TABLE
  2
STYLE
  5
3
100
AcDbSymbolTable
 70
1
  0
STYLE
  5
11
100
AcDbSymbolTableRecord
100
AcDbTextStyleTableRecord
  2
STANDARD
 70
0
 40
0.0
 41
0.8
 50
0.0
 71
0
 42
0.2
  3
txt
  4

  0
STYLE
  5
218
100
AcDbSymbolTableRecord
100
AcDbTextStyleTableRecord
  2
TEXTSTYLE_1
 70
0
 40
0.0
 41
0.8
 50
0.0
 71
0
 42
0.2
  3
gdt
  4

  0
ENDTAB
  0
TABLE
  2
VIEW
  5
6
100
AcDbSymbolTable
 70
0
  0
ENDTAB
  0
TABLE
  2
UCS
  5
7
100
AcDbSymbolTable
 70
0
  0
ENDTAB
  0
TABLE
  2
APPID
  5
9
100
AcDbSymbolTable
 70
1
  0
APPID
  5
219
100
AcDbSymbolTableRecord
100
AcDbRegAppTableRecord
  2
ACAD
 70
0
  0
ENDTAB
  0
TABLE
  2
BLOCK_RECORD
  5
1
100
AcDbSymbolTable
 70
0
  0
BLOCK_RECORD
  5
21A
100
AcDbSymbolTableRecord
100
AcDbBlockTableRecord
  2
*Model_Space
  0
BLOCK_RECORD
  5
21B
100
AcDbSymbolTableRecord
100
AcDbBlockTableRecord
  2
*Paper_Space
  0
ENDTAB
  0
TABLE
  2
DIMSTYLE
  5
A
100
AcDbSymbolTable
 70
1
100
AcDbDimStyleTable
 71
0
  0
DIMSTYLE
105
21C
100
AcDbSymbolTableRecord
100
AcDbDimStyleTableRecord
  2
STANDARD
 70
0
  3

  4

 40
1.0
 41
3.0
 42
0.0625
 43
0.38
 44
0.18
 45
0.0
 46
0.0
 47
0.01
 48
0.01
140
3.0
141
0.09
142
0.0
143
25.4
144
1.0
145
0.0
146
1.0
147
0.09
 71
1.0
 72
0.0
 73
0
 74
0
 75
0
 76
0
 77
1
 78
8
170
0
171
2
172
0
173
0
174
0
175
0
176
0
177
0
178
0
270
2
271
2
272
2
273
2
274
2
275
0
280
0
281
0
282
0
283
1
284
8
285
0
286
0
287
3
288
0
340
11
  0
ENDTAB
  0
ENDSEC
  0
SECTION
  2
BLOCKS
  0
BLOCK
  5
20
100
AcDbEntity
  8
0
100
AcDbBlockBegin
  2
*Model_Space
 70
0
 10
0.0
 20
0.0
 30
0.0
  3
*Model_Space
  1

  0
ENDBLK
  5
21
100
AcDbEntity
  8
0
100
AcDbBlockEnd
  0
BLOCK
  5
1C
100
AcDbEntity
  8
0
100
AcDbBlockBegin
  2
*Paper_Space
 70
0
 10
0.0
 20
0.0
 30
0.0
  3
*Paper_Space
  1

  0
ENDBLK
  5
1D
100
AcDbEntity
  8
0
100
AcDbBlockEnd
  0
ENDSEC
  0
SECTION
  2
ENTITIES
  0
LINE
  5
21D
100
AcDbEntity
  8
RACCORDO
100
AcDbLine
 62
7
  6
CONTINUOUS
 10
-15.0681880783
 20
28.7817661257
 11
-13.4854314751
 21
29.5937502231
  0
LINE
  5
21E
100
AcDbEntity
  8
RACCORDO
100
AcDbLine
 62
7
  6
CONTINUOUS
 10
-15.5521431906
 20
27.0390657237
 11
-14.5399209065
 21
27.5559956864
  0
LINE
  5
21F
100
AcDbEntity
  8
RACCORDO
100
AcDbLine
 62
253
  6
CONTINUOUS
 10
-15.3946197843
 20
27.0296323941
 11
-14.5399209065
 21
27.4661170141
  0
LINE
  5
220
100
AcDbEntity
  8
RACCORDO
100
AcDbLine
 62
7
  6
CONTINUOUS
 10
-13.4603666692
 20
27.9778554212
 11
-11.8590858784
 21
28.7805774247
  0
LINE
  5
221
100
AcDbEntity
  8
RACCORDO
100
AcDbLine
 62
7
  6
CONTINUOUS
 10
-11.8590858784
 20
28.7805774247
 11
-11.3308187067
 21
29.0440162447
  0
LINE
  5
222
100
AcDbEntity
  8
RACCORDO
100
AcDbLine
 62
7
  6
CONTINUOUS
 10
-13.4854314751
 20
29.5937502231
 11
-12.9509815965
 21
29.8540976896
  0
LINE
  5
223
100
AcDbEntity
  8
RACCORDO
100
AcDbLine
 62
7
  6
CONTINUOUS
 10
-9.594691447
 20
26.6290204272
 11
-9.1013694318
 21
26.8821039591
  0
LINE
  5
224
100
AcDbEntity
  8
DRAFT
100
AcDbLine
 62
7
  6
CONTINUOUS
 10
-11.8590858784
 20
27.0485266171
 11
-12.9259167906
 21
26.5099453676
  0
LINE
  5
225
100
AcDbEntity
  8
RACCORDO
100
AcDbLine
 62
7
  6
CONTINUOUS
 10
-10.4033049019
 20
27.0201852209
 11
-3.8952682752
 21
30.2613268264
  0
LINE
  5
226
100
AcDbEntity
  8
RACCORDO
100
AcDbLine
 62
253
  6
CONTINUOUS
 10
-10.3278117614
 20
26.9824386506
 11
-4.0132714348
 21
30.1272149551
  0
LINE
  5
227
100
AcDbEntity
  8
RACCORDO
100
AcDbLine
 62
7
  6
CONTINUOUS
 10
-9.1013694318
 20
26.8821039591
 11
-3.6237294423
 21
29.5504359223
  0
LWPOLYLINE
  5
228
100
AcDbEntity
  8
RACCORDO
100
AcDbPolyline
 62
7
  6
CONTINUOUS
 90
18
 70
0
 10
-18.4400487666
 20
24.7840134997
 10
-18.5218151061
 20
24.7490690148
 10
-18.6147646146
 20
24.7010932102
 10
-18.7054978391
 20
24.645174293
 10
-18.7934638691
 20
24.5815898423
 10
-18.8777614038
 20
24.5110964408
 10
-18.9584175736
 20
24.4337484264
 10
-19.0352043334
 20
24.3497162088
 10
-19.1070616258
 20
24.2602523273
 10
-19.1739251117
 20
24.1655091625
 10
-19.2356069629
 20
24.0656796139
 10
-19.2911245055
 20
23.9624419604
 10
-19.3403792045
 20
23.856061591
 10
-19.3832468031
 20
23.7467133392
 10
-19.4190433739
 20
23.636116981
 10
-19.4475879834
 20
23.5249905584
 10
-19.4689595988
 20
23.4131020541
 10
-19.4723158906
 20
23.3909348356
  0
LINE
  5
229
100
AcDbEntity
  8
RACCORDO
100
AcDbLine
 62
7
  6
CONTINUOUS
 10
-14.5601938681
 20
26.2849034975
 11
-18.4400552358
 21
24.7840302034
  0
LINE
  5
22A
100
AcDbEntity
  8
RACCORDO
100
AcDbLine
 62
253
  6
CONTINUOUS
 10
-14.37746036
 20
26.1935367435
 11
-18.0920956232
 21
24.75657906
  0
LINE
  5
22B
100
AcDbEntity
  8
RACCORDO
100
AcDbLine
 62
7
  6
CONTINUOUS
 10
-11.2439670434
 20
28.4230186581
 11
-11.7712117591
 21
27.7813109301
  0
LINE
  5
22C
100
AcDbEntity
  8
0
100
AcDbLine
 62
7
  6
CONTINUOUS
 10
-1.6931772852
 20
27.7775971908
 11
-3.0909617917
 21
27.0787049376
  0
LINE
  5
22D
100
AcDbEntity
  8
RACCORDO
100
AcDbLine
 62
7
  6
CONTINUOUS
 10
-4.1658671263
 20
26.386665182
 11
-4.104317488
 21
26.4174400011
  0
LINE
  5
22E
100
AcDbEntity
  8
RACCORDO
100
AcDbLine
 62
253
  6
CONTINUOUS
 10
-4.0809112854
 20
26.3787413855
 11
-4.0148747689
 21
26.4117596437
  0
LINE
  5
22F
100
AcDbEntity
  8
ASSI
100
AcDbLine
 62
253
  6
CONTINUOUS
 10
-4.0809112854
 20
26.3787413855
 11
-4.0148747689
 21
26.4117596437
  0
LINE
  5
230
100
AcDbEntity
  8
ASSI
100
AcDbLine
 62
7
  6
CONTINUOUS
 10
-4.0975662464
 20
26.4207839723
 11
-4.1658671263
 21
26.386665182
  0
LINE
  5
231
100
AcDbEntity
  8
RACCORDO
100
AcDbLine
 62
7
  6
CONTINUOUS
 10
-3.0202511136
 20
29.2474714244
 11
-7.7578665475
 21
26.9124209098
  0
LINE
  5
232
100
AcDbEntity
  8
RACCORDO
100
AcDbLine
 62
7
  6
CONTINUOUS
 10
-3.4445151823
 20
27.8080398222
 11
-3.0202511136
 21
28.015637243
  0
LINE
  5
233
100
AcDbEntity
  8
RACCORDO
100
AcDbLine
 62
7
  6
CONTINUOUS
 10
-1.0341815338
 20
28.6376700047
 11
-3.0909617917
 21
27.6312631269
  0
LWPOLYLINE
  5
234
100
AcDbEntity
  8
ASSI
100
AcDbPolyline
 62
7
  6
CONTINUOUS
 90
3
 70
0
 10
-3.9564127674
 20
26.4784764058
 10
-4.0286980076
 20
26.4516317362
 10
-4.0975662464
 20
26.4207839723
  0
LINE
  5
235
100
AcDbEntity
  8
RACCORDO
100
AcDbLine
 62
7
  6
CONTINUOUS
 10
-4.1775779831
 20
26.3789168071
 11
-5.1076028018
 21
25.5872890369
  0
LINE
  5
236
100
AcDbEntity
  8
ASSI
100
AcDbLine
 62
7
  6
CONTINUOUS
 10
-4.1775779831
 20
26.3789168071
 11
-5.1076028018
 21
25.5872890369
  0
LINE
  5
237
100
AcDbEntity
  8
0
100
AcDbLine
 62
253
  6
CONTINUOUS
 10
-4.0809112854
 20
26.3787413855
 11
-5.0465772273
 21
25.5567762497
  0
LINE
  5
238
100
AcDbEntity
  8
ASSI
100
AcDbLine
 62
253
  6
CONTINUOUS
 10
-4.0809112854
 20
26.3787413855
 11
-5.0465772273
 21
25.5567762497
  0
LINE
  5
239
100
AcDbEntity
  8
RACCORDO
100
AcDbLine
 62
7
  6
CONTINUOUS
 10
1.9294963547
 20
26.7725976902
 11
-2.8081190792
 21
24.4375471756
  0
LINE
  5
23A
100
AcDbEntity
  8
RACCORDO
100
AcDbLine
 62
253
  6
CONTINUOUS
 10
17.9808202877
 20
-27.3898674945
 11
17.4504902018
 21
-27.2800325374
  0
LINE
  5
23B
100
AcDbEntity
  8
RACCORDO
100
AcDbLine
 62
253
  6
CONTINUOUS
 10
17.89243194
 20
-27.069784973
 11
17.3621018541
 21
-26.9599500159
  0
LWPOLYLINE
  5
23C
100
AcDbEntity
  8
RACCORDO
100
AcDbPolyline
 62
7
  6
CONTINUOUS
 90
10
 70
0
 10
7.6833064609
 20
-29.5137264962
 10
7.7657991663
 20
-29.5507660966
 10
7.8549743605
 20
-29.5819011671
 10
7.947040999
 20
-29.6052335763
 10
8.0418341567
 20
-29.6206051362
 10
8.1387070096
 20
-29.6277424541
 10
8.2369477691
 20
-29.6264413072
 10
8.3364229867
 20
-29.616514308
 10
8.4366791661
 20
-29.5977944343
 10
8.5287780478
 20
-29.5727955037
  0
LINE
  5
23D
100
AcDbEntity
  8
RACCORDO
100
AcDbLine
 62
7
  6
CONTINUOUS
 10
7.6836747195
 20
-29.5139313588
 11
-22.35943673
 21
-14.4923756341
  0
LWPOLYLINE
  5
23E
100
AcDbEntity
  8
RACCORDO
100
AcDbPolyline
 62
7
  6
CONTINUOUS
 90
15
 70
0
 10
-22.9780346605
 20
-13.3317223362
 10
-22.9790430434
 20
-13.3605204681
 10
-22.9772737157
 20
-13.4855216675
 10
-22.9655607662
 20
-13.6063489889
 10
-22.9441656996
 20
-13.7224976195
 10
-22.9133711346
 20
-13.8337248404
 10
-22.8734382502
 20
-13.9396197727
 10
-22.8247597502
 20
-14.0394648455
 10
-22.7677555261
 20
-14.1327874473
 10
-22.7028609198
 20
-14.2191256209
 10
-22.6307743783
 20
-14.2977434845
 10
-22.5522295638
 20
-14.368075743
 10
-22.4679098153
 20
-14.4297848632
 10
-22.3787012252
 20
-14.4824697586
 10
-22.3579672163
 20
-14.4930883964
  0
LINE
  5
23F
100
AcDbEntity
  8
RACCORDO
100
AcDbLine
 62
7
  6
CONTINUOUS
 10
-22.9780346605
 20
-13.3317223362
 11
-22.9780260522
 21
-13.3315255962
  0
LWPOLYLINE
  5
240
100
AcDbEntity
  8
RACCORDO
100
AcDbPolyline
 62
7
  6
CONTINUOUS
 90
13
 70
0
 10
-19.4723148472
 20
23.3910253123
 10
-19.8986774006
 20
20.3613258902
 10
-20.3123106318
 20
17.2443182472
 10
-20.6994082135
 20
14.1353823183
 10
-21.0599107995
 20
11.0349657803
 10
-21.3937738351
 20
7.9434621839
 10
-21.7009569176
 20
4.8612440327
 10
-21.9814191384
 20
1.7886985756
 10
-22.2351250395
 20
-1.2737889437
 10
-22.4620415466
 20
-4.3258488536
 10
-22.662135864
 20
-7.3670920373
 10
-22.8353803277
 20
-10.3970823131
 10
-22.9780386877
 20
-13.3315250435
  0
LINE
  5
241
100
AcDbEntity
  8
RACCORDO
100
AcDbLine
 62
7
  6
CONTINUOUS
 10
-1.7038699139
 20
22.0996070435
 11
-0.1211133107
 21
22.9115911409
  0
LINE
  5
242
100
AcDbEntity
  8
RACCORDO
100
AcDbLine
 62
7
  6
CONTINUOUS
 10
-3.3779254901
 20
22.306433976
 11
-2.8788297573
 21
22.5583985566
  0
LINE
  5
243
100
AcDbEntity
  8
RACCORDO
100
AcDbLine
 62
7
  6
CONTINUOUS
 10
-3.3779254901
 20
23.5206374488
 11
-2.8788297573
 21
23.7708341219
  0
LINE
  5
244
100
AcDbEntity
  8
RACCORDO
100
AcDbLine
 62
7
  6
CONTINUOUS
 10
-2.8788297573
 20
23.7708341219
 11
2.5354429378
 21
26.4708497323
  0
LINE
  5
245
100
AcDbEntity
  8
RACCORDO
100
AcDbLine
 62
7
  6
CONTINUOUS
 10
-2.8788297573
 20
22.5583985566
 11
2.5354429378
 21
25.2390111539
  0
LINE
  5
246
100
AcDbEntity
  8
RACCORDO
100
AcDbLine
 62
7
  6
CONTINUOUS
 10
3.2084591533
 20
26.5163496611
 11
2.6220803662
 21
26.2294275935
  0
LINE
  5
247
100
AcDbEntity
  8
RACCORDO
100
AcDbLine
 62
7
  6
CONTINUOUS
 10
-0.1211133107
 20
22.9115911409
 11
0.413336568
 21
23.1719386074
  0
LINE
  5
248
100
AcDbEntity
  8
0
100
AcDbLine
 62
7
  6
CONTINUOUS
 10
10.9606753163
 20
28.6254273834
 11
7.3876016178
 21
26.9199940665
  0
LINE
  5
249
100
AcDbEntity
  8
ASSI
100
AcDbLine
 62
7
  6
CONTINUOUS
 10
10.9606753163
 20
28.6254273834
 11
7.3876016178
 21
26.9199940665
  0
LINE
  5
24A
100
AcDbEntity
  8
RACCORDO
100
AcDbLine
 62
7
  6
CONTINUOUS
 10
9.4882893894
 20
29.1816043406
 11
3.7083899403
 21
26.5122552357
  0
LINE
  5
24B
100
AcDbEntity
  8
ASSI
100
AcDbLine
 62
7
  6
CONTINUOUS
 10
9.4882893894
 20
29.1816043406
 11
3.7083899403
 21
26.5122552357
  0
LINE
  5
24C
100
AcDbEntity
  8
RACCORDO
100
AcDbLine
 62
253
  6
CONTINUOUS
 10
9.9199088145
 20
29.1458106343
 11
4.0015897472
 21
26.4125347627
  0
LINE
  5
24D
100
AcDbEntity
  8
ASSI
100
AcDbLine
 62
253
  6
CONTINUOUS
 10
9.9199088145
 20
29.1458106343
 11
4.0015897472
 21
26.4125347627
  0
LINE
  5
24E
100
AcDbEntity
  8
RACCORDO
100
AcDbLine
 62
253
  6
CONTINUOUS
 10
7.2913601398
 20
-28.6293419199
 11
-22.7436772593
 21
-13.6118232203
  0
LINE
  5
24F
100
AcDbEntity
  8
RACCORDO
100
AcDbLine
 62
253
  6
CONTINUOUS
 10
2.0193131192
 20
21.6178865717
 11
7.3776398993
 21
24.5088267987
  0
LINE
  5
250
100
AcDbEntity
  8
RACCORDO
100
AcDbLine
 62
253
  6
CONTINUOUS
 10
3.1005220795
 20
21.952811468
 11
7.2934883317
 21
24.2150129548
  0
LINE
  5
251
100
AcDbEntity
  8
RACCORDO
100
AcDbLine
 62
253
  6
CONTINUOUS
 10
3.2468488091
 20
21.9075448534
 11
7.2934883317
 21
24.0027538007
  0
LINE
  5
252
100
AcDbEntity
  8
RACCORDO
100
AcDbLine
 62
7
  6
CONTINUOUS
 10
3.3666149398
 20
21.8476617881
 11
7.375698044
 21
23.9234253306
  0
LINE
  5
253
100
AcDbEntity
  8
0
100
AcDbLine
 62
7
  6
CONTINUOUS
 10
7.7815875517
 20
25.8978382485
 11
11.9979673294
 21
28.0431478652
  0
LINE
  5
254
100
AcDbEntity
  8
ASSI
100
AcDbLine
 62
7
  6
CONTINUOUS
 10
7.7815875517
 20
25.8978382485
 11
11.9979673294
 21
28.0431478652
  0
LINE
  5
255
100
AcDbEntity
  8
DRAFT
100
AcDbLine
 62
7
  6
CONTINUOUS
 10
8.4679830429
 20
25.8324297373
 11
12.0040243163
 21
27.6061632369
  0
LINE
  5
256
100
AcDbEntity
  8
ASSI
100
AcDbLine
 62
7
  6
CONTINUOUS
 10
8.4642977496
 20
25.8305811367
 11
12.0040243163
 21
27.6061632369
  0
LINE
  5
257
100
AcDbEntity
  8
RACCORDO
100
AcDbLine
 62
7
  6
CONTINUOUS
 10
-0.0960485048
 20
21.295696339
 11
1.505232286
 21
22.0984183425
  0
LINE
  5
258
100
AcDbEntity
  8
0
100
AcDbLine
 62
7
  6
CONTINUOUS
 10
8.3005284532
 20
24.6514617814
 11
8.7955032001
 21
24.8989491549
  0
LINE
  5
259
100
AcDbEntity
  8
RACCORDO
100
AcDbLine
 62
7
  6
CONTINUOUS
 10
0.8630988013
 20
20.866296115
 11
2.9844191448
 21
21.9269562867
  0
LINE
  5
25A
100
AcDbEntity
  8
RACCORDO
100
AcDbLine
 62
253
  6
CONTINUOUS
 10
0.9749022001
 20
20.8591956682
 11
3.0962225437
 21
21.9198558399
  0
LINE
  5
25B
100
AcDbEntity
  8
RACCORDO
100
AcDbLine
 62
7
  6
CONTINUOUS
 10
1.505232286
 20
22.0984183425
 11
2.0334994578
 21
22.3618571625
  0
LINE
  5
25C
100
AcDbEntity
  8
DRAFT
100
AcDbLine
 62
7
  6
CONTINUOUS
 10
8.4642977496
 20
25.8397765846
 11
7.7815875517
 21
25.4997722862
  0
LINE
  5
25D
100
AcDbEntity
  8
ASSI
100
AcDbLine
 62
7
  6
CONTINUOUS
 10
8.4642977496
 20
25.8397765846
 11
7.7815875517
 21
25.4997722862
  0
LINE
  5
25E
100
AcDbEntity
  8
DRAFT
100
AcDbLine
 62
7
  6
CONTINUOUS
 10
4.0308184771
 20
21.5155600194
 11
7.9594899714
 21
23.4239086129
  0
LINE
  5
25F
100
AcDbEntity
  8
ASSI
100
AcDbLine
 62
7
  6
CONTINUOUS
 10
4.0308184771
 20
21.5155600194
 11
7.9594899714
 21
23.4239086129
  0
LINE
  5
260
100
AcDbEntity
  8
RACCORDO
100
AcDbLine
 62
253
  6
CONTINUOUS
 10
1.4157100761
 20
22.7327292243
 11
6.1875490542
 21
25.0268047106
  0
LINE
  5
261
100
AcDbEntity
  8
RACCORDO
100
AcDbLine
 62
253
  6
CONTINUOUS
 10
1.6433255759
 20
22.6189214743
 11
6.6293899222
 21
25.0159864303
  0
LINE
  5
262
100
AcDbEntity
  8
ASSI
100
AcDbLine
 62
7
  6
CONTINUOUS
 10
0.1263740627
 20
18.9416195321
 11
0.6918527252
 21
19.1393223171
  0
LINE
  5
263
100
AcDbEntity
  8
RACCORDO
100
AcDbLine
 62
7
  6
CONTINUOUS
 10
22.2420902276
 20
-17.6792224542
 11
18.5111503736
 21
-17.877873936
  0
LINE
  5
264
100
AcDbEntity
  8
RACCORDO
100
AcDbLine
 62
7
  6
CONTINUOUS
 10
15.5709198499
 20
-28.9370600884
 11
14.2274169657
 21
-28.2653086463
  0
LINE
  5
265
100
AcDbEntity
  8
RACCORDO
100
AcDbLine
 62
253
  6
CONTINUOUS
 10
15.5059465535
 20
-28.8018416383
 11
14.1624436693
 21
-28.1300901962
  0
LINE
  5
266
100
AcDbEntity
  8
RACCORDO
100
AcDbLine
 62
253
  6
CONTINUOUS
 10
14.1624436693
 20
-27.7787762241
 11
15.5059465535
 21
-28.4505276662
  0
LINE
  5
267
100
AcDbEntity
  8
RACCORDO
100
AcDbLine
 62
253
  6
CONTINUOUS
 10
14.2508320169
 20
-27.5470820503
 11
15.5943349012
 21
-28.2188334924
  0
LINE
  5
268
100
AcDbEntity
  8
RACCORDO
100
AcDbLine
 62
7
  6
CONTINUOUS
 10
-15.6421071578
 20
26.8502556476
 11
-15.6421071578
 21
26.8258601423
  0
LINE
  5
269
100
AcDbEntity
  8
RACCORDO
100
AcDbLine
 62
7
  6
CONTINUOUS
 10
-15.2429138608
 20
28.2235066803
 11
-15.2429138608
 21
28.4768780741
  0
LWPOLYLINE
  5
26A
100
AcDbEntity
  8
RACCORDO
100
AcDbPolyline
 62
7
  6
CONTINUOUS
 90
11
 70
0
 10
1.2134126
 20
19.485016672
 10
1.1851838954
 20
19.4669234611
 10
1.1584267882
 20
19.4489330323
 10
1.1332005307
 20
19.4314223044
 10
1.1092926886
 20
19.4146185794
 10
1.0871083853
 20
19.3991733319
 10
1.0674624044
 20
19.3859124127
 10
1.050450953
 20
19.3750155583
 10
1.036212325
 20
19.3665600459
 10
1.0253268344
 20
19.3606956709
 10
1.0235701776
 20
19.3598146514
  0
LWPOLYLINE
  5
26B
100
AcDbEntity
  8
RACCORDO
100
AcDbPolyline
 62
7
  6
CONTINUOUS
 90
4
 70
0
 10
1.3057194125
 20
19.53635373
 10
1.273317395
 20
19.5197579792
 10
1.2427910606
 20
19.5027104539
 10
1.2134126
 20
19.485016672
  0
LINE
  5
26C
100
AcDbEntity
  8
RACCORDO
100
AcDbLine
 62
253
  6
CONTINUOUS
 10
1.0335409749
 20
19.9825474606
 11
-0.1211133107
 21
19.3928791573
  0
LINE
  5
26D
100
AcDbEntity
  8
RACCORDO
100
AcDbLine
 62
253
  6
CONTINUOUS
 10
1.4320089813
 20
19.6327873663
 11
0.1263740627
 21
18.9660150374
  0
LINE
  5
26E
100
AcDbEntity
  8
DRAFT
100
AcDbLine
 62
7
  6
CONTINUOUS
 10
0.8885526335
 20
20.0550416312
 11
0.4384013739
 21
19.8277862854
  0
LINE
  5
26F
100
AcDbEntity
  8
0
100
AcDbLine
 62
7
  6
CONTINUOUS
 10
11.7759710963
 20
25.335593999
 11
9.9522168015
 21
24.4237168516
  0
LINE
  5
270
100
AcDbEntity
  8
RACCORDO
100
AcDbLine
 62
253
  6
CONTINUOUS
 10
2.3184050844
 20
20.187444226
 11
4.4397254279
 21
21.2481043978
  0
LINE
  5
271
100
AcDbEntity
  8
RACCORDO
100
AcDbLine
 62
253
  6
CONTINUOUS
 10
2.4951817797
 20
19.8825495274
 11
4.6165021232
 21
20.9432096992
  0
LINE
  5
272
100
AcDbEntity
  8
0
100
AcDbLine
 62
7
  6
CONTINUOUS
 10
12.6244992337
 20
24.9113299303
 11
11.6215289869
 21
24.4098448069
  0
LINE
  5
273
100
AcDbEntity
  8
RACCORDO
100
AcDbLine
 62
253
  6
CONTINUOUS
 10
1.0120915445
 20
19.2289574026
 11
1.2518581805
 21
19.3479222442
  0
LINE
  5
274
100
AcDbEntity
  8
RACCORDO
100
AcDbLine
 62
7
  6
CONTINUOUS
 10
0.7889344174
 20
19.2434255063
 11
1.0235607262
 21
19.3598018851
  0
LINE
  5
275
100
AcDbEntity
  8
RACCORDO
100
AcDbLine
 62
7
  6
CONTINUOUS
 10
1.4219993181
 20
19.5931121401
 11
1.3057694036
 21
19.5363760746
  0
LINE
  5
276
100
AcDbEntity
  8
RACCORDO
100
AcDbLine
 62
7
  6
CONTINUOUS
 10
1.4320089813
 20
19.5979991925
 11
1.4219993181
 21
19.5931121401
  0
LINE
  5
277
100
AcDbEntity
  8
RACCORDO
100
AcDbLine
 62
7
  6
CONTINUOUS
 10
1.3057202238
 20
19.5363520626
 11
1.3057694036
 21
19.5363760746
  0
LINE
  5
278
100
AcDbEntity
  8
RACCORDO
100
AcDbLine
 62
7
  6
CONTINUOUS
 10
16.4463729668
 20
25.8825785581
 11
8.7121840554
 21
22.1257033519
  0
LINE
  5
279
100
AcDbEntity
  8
ASSI
100
AcDbLine
 62
7
  6
CONTINUOUS
 10
16.4463729668
 20
25.8825785581
 11
8.7121840554
 21
22.1257033519
  0
LINE
  5
27A
100
AcDbEntity
  8
RACCORDO
100
AcDbLine
 62
253
  6
CONTINUOUS
 10
1.409888304
 20
19.5572415881
 11
1.4283677708
 21
19.5661357726
  0
LINE
  5
27B
100
AcDbEntity
  8
0
100
AcDbLine
 62
7
  6
CONTINUOUS
 10
15.6211264991
 20
26.295201792
 11
12.0576956626
 21
24.5849470442
  0
LINE
  5
27C
100
AcDbEntity
  8
ASSI
100
AcDbLine
 62
7
  6
CONTINUOUS
 10
15.6211264991
 20
26.295201792
 11
12.0576956626
 21
24.5849470442
  0
LINE
  5
27D
100
AcDbEntity
  8
RACCORDO
100
AcDbLine
 62
253
  6
CONTINUOUS
 10
3.2022885609
 20
18.8260830478
 11
3.9093953421
 21
19.1645199088
  0
LINE
  5
27E
100
AcDbEntity
  8
RACCORDO
100
AcDbLine
 62
253
  6
CONTINUOUS
 10
3.3412417741
 20
18.5809595974
 11
4.0483485553
 21
18.9193964584
  0
LINE
  5
27F
100
AcDbEntity
  8
RACCORDO
100
AcDbLine
 62
253
  6
CONTINUOUS
 10
16.1246649871
 20
-27.5786684495
 11
14.7811621028
 21
-26.9069170073
  0
LINE
  5
280
100
AcDbEntity
  8
RACCORDO
100
AcDbLine
 62
253
  6
CONTINUOUS
 10
16.2130533347
 20
-27.3469742757
 11
14.8695504504
 21
-26.6752228335
  0
LINE
  5
281
100
AcDbEntity
  8
RACCORDO
100
AcDbLine
 62
7
  6
CONTINUOUS
 10
13.1380011514
 20
-25.692401609
 11
15.999087295
 21
-27.1229446808
  0
LINE
  5
282
100
AcDbEntity
  8
DRAFT
100
AcDbLine
 62
7
  6
CONTINUOUS
 10
16.3528022457
 20
-26.8407219464
 11
13.1798317494
 21
-25.2542366983
  0
LINE
  5
283
100
AcDbEntity
  8
RACCORDO
100
AcDbLine
 62
253
  6
CONTINUOUS
 10
17.3621018541
 20
-26.9599500159
 11
17.3528236815
 21
-26.9553109296
  0
LINE
  5
284
100
AcDbEntity
  8
DRAFT
100
AcDbLine
 62
7
  6
CONTINUOUS
 10
16.82044434
 20
-26.5458061291
 11
13.2280093418
 21
-24.7495886299
  0
LINE
  5
285
100
AcDbEntity
  8
RACCORDO
100
AcDbLine
 62
253
  6
CONTINUOUS
 10
17.3469368112
 20
-26.7970374086
 11
17.89243194
 21
-27.069784973
  0
LINE
  5
286
100
AcDbEntity
  8
RACCORDO
100
AcDbLine
 62
7
  6
CONTINUOUS
 10
17.3469368112
 20
-26.793417259
 11
17.9158469912
 21
-27.0778723491
  0
LINE
  5
287
100
AcDbEntity
  8
ASSI
100
AcDbLine
 62
7
  6
CONTINUOUS
 10
-14.8289343594
 20
26.4192737432
 11
-14.8289343594
 21
26.1809447811
  0
LINE
  5
288
100
AcDbEntity
  8
DRAFT
100
AcDbLine
 62
7
  6
CONTINUOUS
 10
-14.5399209065
 20
27.3169474256
 11
-14.5399209065
 21
27.7692784013
  0
LINE
  5
289
100
AcDbEntity
  8
RACCORDO
100
AcDbLine
 62
7
  6
CONTINUOUS
 10
-13.6371373986
 20
27.673989843
 11
-13.6371373986
 21
27.4206184492
  0
LINE
  5
28A
100
AcDbEntity
  8
DRAFT
100
AcDbLine
 62
7
  6
CONTINUOUS
 10
-12.9259167906
 20
26.5099453676
 11
-12.9259167906
 21
27.1471149264
  0
LINE
  5
28B
100
AcDbEntity
  8
RACCORDO
100
AcDbLine
 62
253
  6
CONTINUOUS
 10
16.7892705428
 20
25.2911677226
 11
5.0174774797
 21
19.3022351896
  0
LINE
  5
28C
100
AcDbEntity
  8
ASSI
100
AcDbLine
 62
253
  6
CONTINUOUS
 10
16.7892705428
 20
25.2911677226
 11
5.0174774797
 21
19.3022351896
  0
LINE
  5
28D
100
AcDbEntity
  8
RACCORDO
100
AcDbLine
 62
253
  6
CONTINUOUS
 10
17.2034210184
 20
23.8595341479
 11
13.0691258262
 21
21.7561999452
  0
LINE
  5
28E
100
AcDbEntity
  8
ASSI
100
AcDbLine
 62
253
  6
CONTINUOUS
 10
17.2034210184
 20
23.8595341479
 11
13.0691258262
 21
21.7561999452
  0
LINE
  5
28F
100
AcDbEntity
  8
RACCORDO
100
AcDbLine
 62
7
  6
CONTINUOUS
 10
12.7482301069
 20
21.2606050487
 11
8.1520360292
 21
18.9625080098
  0
LINE
  5
290
100
AcDbEntity
  8
RACCORDO
100
AcDbLine
 62
7
  6
CONTINUOUS
 10
5.4526876659
 20
19.0846300965
 11
11.7176906505
 21
22.1921177631
  0
LINE
  5
291
100
AcDbEntity
  8
RACCORDO
100
AcDbLine
 62
7
  6
CONTINUOUS
 10
12.1423791618
 20
21.5635305212
 11
6.454991449
 21
18.7524064382
  0
LINE
  5
292
100
AcDbEntity
  8
DRAFT
100
AcDbLine
 62
7
  6
CONTINUOUS
 10
13.1017834975
 20
20.1040139415
 11
9.4064040043
 21
18.3353240223
  0
LINE
  5
293
100
AcDbEntity
  8
DRAFT
100
AcDbLine
 62
7
  6
CONTINUOUS
 10
16.82044434
 20
-24.9251684059
 11
13.3756790598
 21
-23.2027857658
  0
LINE
  5
294
100
AcDbEntity
  8
RACCORDO
100
AcDbLine
 62
7
  6
CONTINUOUS
 10
-11.8590858784
 20
27.0485266171
 11
-11.8590858784
 21
28.7805774247
  0
LINE
  5
295
100
AcDbEntity
  8
RACCORDO
100
AcDbLine
 62
7
  6
CONTINUOUS
 10
-11.1560929241
 20
28.9158989225
 11
-11.1560929241
 21
28.6549699461
  0
LINE
  5
296
100
AcDbEntity
  8
RACCORDO
100
AcDbLine
 62
7
  6
CONTINUOUS
 10
2.120351121
 20
21.7408595759
 11
1.7773885189
 21
21.3234409738
  0
LINE
  5
297
100
AcDbEntity
  8
0
100
AcDbLine
 62
7
  6
CONTINUOUS
 10
10.3242427677
 20
17.8764046406
 11
13.729386328
 21
19.5789764207
  0
LINE
  5
298
100
AcDbEntity
  8
RACCORDO
100
AcDbLine
 62
7
  6
CONTINUOUS
 10
14.8818911654
 20
20.6100175057
 11
9.7599573949
 21
18.158547327
  0
LINE
  5
299
100
AcDbEntity
  8
RACCORDO
100
AcDbLine
 62
7
  6
CONTINUOUS
 10
-9.6813288754
 20
26.5225134853
 11
-9.6813288754
 21
25.3077800991
  0
LINE
  5
29A
100
AcDbEntity
  8
RACCORDO
100
AcDbLine
 62
253
  6
CONTINUOUS
 10
-9.5934609098
 20
26.4160045285
 11
-9.5934609098
 21
25.2010496624
  0
LINE
  5
29B
100
AcDbEntity
  8
RACCORDO
100
AcDbLine
 62
253
  6
CONTINUOUS
 10
4.0861720374
 20
19.9517306842
 11
4.6165021232
 21
20.5918957271
  0
LINE
  5
29C
100
AcDbEntity
  8
RACCORDO
100
AcDbLine
 62
7
  6
CONTINUOUS
 10
4.1019143802
 20
19.8806310386
 11
4.632244466
 21
20.5207960816
  0
LINE
  5
29D
100
AcDbEntity
  8
RACCORDO
100
AcDbLine
 62
7
  6
CONTINUOUS
 10
18.3038285203
 20
18.482805842
 11
12.6815803543
 21
15.6391119856
  0
LINE
  5
29E
100
AcDbEntity
  8
RACCORDO
100
AcDbLine
 62
7
  6
CONTINUOUS
 10
17.6979775752
 20
18.7857313145
 11
13.1017834975
 21
16.4876342757
  0
LINE
  5
29F
100
AcDbEntity
  8
RACCORDO
100
AcDbLine
 62
7
  6
CONTINUOUS
 10
18.655345567
 20
17.3272329067
 11
12.6815803543
 21
14.4341911529
  0
LINE
  5
2A0
100
AcDbEntity
  8
RACCORDO
100
AcDbLine
 62
7
  6
CONTINUOUS
 10
18.6539213802
 20
18.2634526373
 11
19.1245318525
 21
18.4886971621
  0
LINE
  5
2A1
100
AcDbEntity
  8
DRAFT
100
AcDbLine
 62
7
  6
CONTINUOUS
 10
22.7097604563
 20
-19.956621941
 11
23.4435379113
 21
-20.3235106685
  0
LINE
  5
2A2
100
AcDbEntity
  8
DRAFT
100
AcDbLine
 62
7
  6
CONTINUOUS
 10
18.6543429716
 20
18.3575512199
 11
18.7380918358
 21
18.409128625
  0
LINE
  5
2A3
100
AcDbEntity
  8
ASSI
100
AcDbLine
 62
7
  6
CONTINUOUS
 10
18.6543429716
 20
18.3575512199
 11
18.7380918358
 21
18.409128625
  0
LINE
  5
2A4
100
AcDbEntity
  8
RACCORDO
100
AcDbLine
 62
7
  6
CONTINUOUS
 10
14.2274169657
 20
14.1841370327
 11
16.3487373092
 21
15.2447972045
  0
LINE
  5
2A5
100
AcDbEntity
  8
RACCORDO
100
AcDbLine
 62
253
  6
CONTINUOUS
 10
14.3392203646
 20
14.1770365859
 11
16.4605407081
 21
15.2376967577
  0
LINE
  5
2A6
100
AcDbEntity
  8
RACCORDO
100
AcDbLine
 62
253
  6
CONTINUOUS
 10
15.6827232488
 20
13.5052851438
 11
17.8040435924
 21
14.5659453156
  0
LINE
  5
2A7
100
AcDbEntity
  8
RACCORDO
100
AcDbLine
 62
253
  6
CONTINUOUS
 10
14.7955880483
 20
12.9222186558
 11
14.7256609512
 21
12.8887500089
  0
LINE
  5
2A8
100
AcDbEntity
  8
RACCORDO
100
AcDbLine
 62
7
  6
CONTINUOUS
 10
17.5893789683
 20
14.7362797738
 11
22.2887323674
 21
16.9065969047
  0
LINE
  5
2A9
100
AcDbEntity
  8
RACCORDO
100
AcDbLine
 62
253
  6
CONTINUOUS
 10
11.9598800294
 20
9.7305912336
 11
16.0668337634
 21
11.1936861969
  0
LINE
  5
2AA
100
AcDbEntity
  8
DRAFT
100
AcDbLine
 62
7
  6
CONTINUOUS
 10
16.82044434
 20
11.2562027461
 11
16.3528022457
 21
11.0995218424
  0
LINE
  5
2AB
100
AcDbEntity
  8
DRAFT
100
AcDbLine
 62
7
  6
CONTINUOUS
 10
18.5111503736
 20
-17.1534709283
 11
19.820522991
 21
-17.808157237
  0
LINE
  5
2AC
100
AcDbEntity
  8
RACCORDO
100
AcDbLine
 62
253
  6
CONTINUOUS
 10
-3.8009518417
 20
22.3047951284
 11
-3.8009518417
 21
23.5197499945
  0
LINE
  5
2AD
100
AcDbEntity
  8
DRAFT
100
AcDbLine
 62
7
  6
CONTINUOUS
 10
-3.4445151823
 20
26.5583357461
 11
-3.4445151823
 21
27.8080398222
  0
LINE
  5
2AE
100
AcDbEntity
  8
RACCORDO
100
AcDbLine
 62
253
  6
CONTINUOUS
 10
-3.3779254901
 20
22.306433976
 11
-3.3779254901
 21
23.5206374488
  0
LINE
  5
2AF
100
AcDbEntity
  8
DRAFT
100
AcDbLine
 62
7
  6
CONTINUOUS
 10
-3.0909617917
 20
27.0787049376
 11
-3.0909617917
 21
27.6312631269
  0
LINE
  5
2B0
100
AcDbEntity
  8
RACCORDO
100
AcDbLine
 62
253
  6
CONTINUOUS
 10
-3.0202511136
 20
29.2474714244
 11
-3.0202511136
 21
28.015637243
  0
LINE
  5
2B1
100
AcDbEntity
  8
RACCORDO
100
AcDbLine
 62
7
  6
CONTINUOUS
 10
-2.9323831479
 20
29.3524686384
 11
-2.9323831479
 21
28.1201000335
  0
LINE
  5
2B2
100
AcDbEntity
  8
DRAFT
100
AcDbLine
 62
7
  6
CONTINUOUS
 10
-2.8788297573
 20
23.7708341219
 11
-2.8788297573
 21
22.5583985566
  0
LINE
  5
2B3
100
AcDbEntity
  8
RACCORDO
100
AcDbLine
 62
7
  6
CONTINUOUS
 10
17.5219017724
 20
13.2656706588
 11
23.400069679
 21
16.4370770996
  0
LINE
  5
2B4
100
AcDbEntity
  8
DRAFT
100
AcDbLine
 62
7
  6
CONTINUOUS
 10
17.7574066887
 20
12.9322705851
 11
23.4435379113
 21
15.8763512097
  0
LINE
  5
2B5
100
AcDbEntity
  8
RACCORDO
100
AcDbLine
 62
253
  6
CONTINUOUS
 10
15.8594999441
 20
13.2003904452
 11
17.9808202877
 21
14.261050617
  0
LINE
  5
2B6
100
AcDbEntity
  8
RACCORDO
100
AcDbLine
 62
253
  6
CONTINUOUS
 10
16.5666067253
 20
12.1439239656
 11
17.2737135065
 21
12.4823608266
  0
LINE
  5
2B7
100
AcDbEntity
  8
RACCORDO
100
AcDbLine
 62
253
  6
CONTINUOUS
 10
16.657312466
 20
11.933529507
 11
17.3679238309
 21
12.2686842608
  0
LINE
  5
2B8
100
AcDbEntity
  8
RACCORDO
100
AcDbLine
 62
253
  6
CONTINUOUS
 10
17.5318904117
 20
12.4433578205
 11
18.1574354229
 21
12.732256218
  0
LINE
  5
2B9
100
AcDbEntity
  8
RACCORDO
100
AcDbLine
 62
253
  6
CONTINUOUS
 10
17.8730487315
 20
11.827491617
 11
18.5111503736
 21
12.1221881709
  0
LINE
  5
2BA
100
AcDbEntity
  8
RACCORDO
100
AcDbLine
 62
253
  6
CONTINUOUS
 10
16.3528022457
 20
11.1253914803
 11
16.5885483823
 21
11.2342707613
  0
LINE
  5
2BB
100
AcDbEntity
  8
RACCORDO
100
AcDbLine
 62
253
  6
CONTINUOUS
 10
15.999087295
 20
11.7354595274
 11
16.2474520634
 21
11.8501251322
  0
LINE
  5
2BC
100
AcDbEntity
  8
RACCORDO
100
AcDbLine
 62
253
  6
CONTINUOUS
 10
12.4565500863
 20
8.7257755817
 11
16.5635038202
 21
10.188870545
  0
LINE
  5
2BD
100
AcDbEntity
  8
RACCORDO
100
AcDbLine
 62
7
  6
CONTINUOUS
 10
-1.8785956964
 20
21.5413475981
 11
-1.8785956964
 21
21.7947189918
  0
LINE
  5
2BE
100
AcDbEntity
  8
DRAFT
100
AcDbLine
 62
7
  6
CONTINUOUS
 10
-1.1756027421
 20
20.6347883434
 11
-1.1756027421
 21
21.0871193191
  0
LINE
  5
2BF
100
AcDbEntity
  8
RACCORDO
100
AcDbLine
 62
7
  6
CONTINUOUS
 10
-0.3332453451
 20
28.1221456709
 11
-0.3332453451
 21
27.8513453782
  0
LINE
  5
2C0
100
AcDbEntity
  8
RACCORDO
100
AcDbLine
 62
7
  6
CONTINUOUS
 10
-0.2728192342
 20
20.9918307608
 11
-0.2728192342
 21
20.738459367
  0
LINE
  5
2C1
100
AcDbEntity
  8
RACCORDO
100
AcDbLine
 62
7
  6
CONTINUOUS
 10
0.1263740627
 20
18.9660150374
 11
0.1263740627
 21
18.9416195321
  0
LINE
  5
2C2
100
AcDbEntity
  8
DRAFT
100
AcDbLine
 62
7
  6
CONTINUOUS
 10
15.0577933689
 20
-8.4958878198
 11
14.792381949
 21
-8.3631821098
  0
LINE
  5
2C3
100
AcDbEntity
  8
DRAFT
100
AcDbLine
 62
7
  6
CONTINUOUS
 10
0.4384013739
 20
19.8277862854
 11
0.4384013739
 21
20.4649558441
  0
LINE
  5
2C4
100
AcDbEntity
  8
RACCORDO
100
AcDbLine
 62
7
  6
CONTINUOUS
 10
0.6583765939
 20
18.9726043062
 11
0.6583765939
 21
18.9467346683
  0
LINE
  5
2C5
100
AcDbEntity
  8
RACCORDO
100
AcDbLine
 62
7
  6
CONTINUOUS
 10
0.7249022001
 20
20.2913753451
 11
0.7249022001
 21
20.6426893172
  0
LINE
  5
2C6
100
AcDbEntity
  8
RACCORDO
100
AcDbLine
 62
253
  6
CONTINUOUS
 10
0.7981255048
 20
20.2029869975
 11
0.7981255048
 21
20.5543009696
  0
LINE
  5
2C7
100
AcDbEntity
  8
ASSI
100
AcDbLine
 62
7
  6
CONTINUOUS
 10
0.9395468611
 20
18.8061495347
 11
0.9395468611
 21
18.757329648
  0
LINE
  5
2C8
100
AcDbEntity
  8
DRAFT
100
AcDbLine
 62
7
  6
CONTINUOUS
 10
1.109973315
 20
18.6721164211
 11
1.109973315
 21
18.7209363077
  0
LINE
  5
2C9
100
AcDbEntity
  8
RACCORDO
100
AcDbLine
 62
7
  6
CONTINUOUS
 10
1.4320089813
 20
19.5909751331
 11
1.4320089813
 21
19.7833134573
  0
LINE
  5
2CA
100
AcDbEntity
  8
RACCORDO
100
AcDbLine
 62
253
  6
CONTINUOUS
 10
1.505232286
 20
19.5046369283
 11
1.505232286
 21
19.746701805
  0
LINE
  5
2CB
100
AcDbEntity
  8
RACCORDO
100
AcDbLine
 62
7
  6
CONTINUOUS
 10
1.505232286
 20
21.1873628573
 11
1.505232286
 21
22.0984183425
  0
LINE
  5
2CC
100
AcDbEntity
  8
RACCORDO
100
AcDbLine
 62
253
  6
CONTINUOUS
 10
2.1416283891
 20
19.8825495274
 11
2.1416283891
 21
19.5312355553
  0
LINE
  5
2CD
100
AcDbEntity
  8
RACCORDO
100
AcDbLine
 62
7
  6
CONTINUOUS
 10
2.2082252403
 20
22.2337398403
 11
2.2082252403
 21
21.9728108639
  0
LINE
  5
2CE
100
AcDbEntity
  8
RACCORDO
100
AcDbLine
 62
253
  6
CONTINUOUS
 10
2.4951817797
 20
19.8825495274
 11
2.4951817797
 21
19.5312355553
  0
LINE
  5
2CF
100
AcDbEntity
  8
RACCORDO
100
AcDbLine
 62
253
  6
CONTINUOUS
 10
2.5354429378
 20
26.4708497323
 11
2.5354429378
 21
25.2390111539
  0
LINE
  5
2D0
100
AcDbEntity
  8
RACCORDO
100
AcDbLine
 62
7
  6
CONTINUOUS
 10
2.6220803662
 20
26.5752371076
 11
2.6220803662
 21
25.3428686159
  0
LINE
  5
2D1
100
AcDbEntity
  8
RACCORDO
100
AcDbLine
 62
253
  6
CONTINUOUS
 10
2.8487351703
 20
19.1347889459
 11
2.8487351703
 21
18.8328854862
  0
LWPOLYLINE
  5
2D2
100
AcDbEntity
  8
RACCORDO
100
AcDbPolyline
 62
7
  6
CONTINUOUS
 90
6
 70
0
 10
1.4320133956
 20
19.5912066755
 10
1.4318039205
 20
19.5848514441
 10
1.4301354463
 20
19.5725968429
 10
1.4272915328
 20
19.5622019909
 10
1.4239776028
 20
19.554152142
 10
1.4216232005
 20
19.5497715478
  0
LWPOLYLINE
  5
2D3
100
AcDbEntity
  8
RACCORDO
100
AcDbPolyline
 62
7
  6
CONTINUOUS
 90
25
 70
0
 10
19.0540221717
 20
18.679318542
 10
19.0550427109
 20
18.6805029406
 10
19.0630434182
 20
18.6901367497
 10
19.070773907
 20
18.7000812341
 10
19.0782211903
 20
18.7103266986
 10
19.0853758127
 20
18.7208671076
 10
19.0922315171
 20
18.7317012413
 10
19.0987777116
 20
18.7428210982
 10
19.1050043197
 20
18.7542179917
 10
19.1109057926
 20
18.7658913362
 10
19.1164728876
 20
18.7778340342
 10
19.1216957732
 20
18.7900362393
 10
19.1265682052
 20
18.802495232
 10
19.131081921
 20
18.8152037621
 10
19.135228356
 20
18.8281527333
 10
19.1390013357
 20
18.8413389121
 10
19.1423938093
 20
18.8547570517
 10
19.1453976661
 20
18.8683975079
 10
19.1480060074
 20
18.8822528255
 10
19.1502122066
 20
18.8963166926
 10
19.1520094273
 20
18.9105823484
 10
19.1533912719
 20
18.9250445477
 10
19.1543510903
 20
18.9396990821
 10
19.1548819039
 20
18.9545401632
 10
19.1549946089
 20
18.9652737796
  0
LINE
  5
2D4
100
AcDbEntity
  8
ASSI
100
AcDbLine
 62
7
  6
CONTINUOUS
 10
19.0542620468
 20
18.6795965467
 11
19.0540093255
 21
18.6793038189
  0
LINE
  5
2D5
100
AcDbEntity
  8
RACCORDO
100
AcDbLine
 62
7
  6
CONTINUOUS
 10
3.9827518126
 20
19.2430337508
 11
3.9826141209
 21
19.2481940676
  0
LINE
  5
2D6
100
AcDbEntity
  8
RACCORDO
100
AcDbLine
 62
253
  6
CONTINUOUS
 10
3.2022885609
 20
19.1347889459
 11
3.2022885609
 21
18.8260830478
  0
LINE
  5
2D7
100
AcDbEntity
  8
RACCORDO
100
AcDbLine
 62
253
  6
CONTINUOUS
 10
3.9093953421
 20
19.1645199088
 11
3.9093953421
 21
19.4883423365
  0
LINE
  5
2D8
100
AcDbEntity
  8
RACCORDO
100
AcDbLine
 62
7
  6
CONTINUOUS
 10
3.982618646
 20
19.2481078497
 11
3.9826186468
 21
19.5767306842
  0
LINE
  5
2D9
100
AcDbEntity
  8
RACCORDO
100
AcDbLine
 62
253
  6
CONTINUOUS
 10
4.6165021232
 20
20.9432096992
 11
4.6165021232
 21
20.5918957271
  0
LINE
  5
2DA
100
AcDbEntity
  8
RACCORDO
100
AcDbLine
 62
7
  6
CONTINUOUS
 10
4.6897254279
 20
21.0315980469
 11
4.6897254279
 21
20.6802840748
  0
LINE
  5
2DB
100
AcDbEntity
  8
ASSI
100
AcDbLine
 62
7
  6
CONTINUOUS
 10
19.0692066133
 20
18.6980109295
 11
19.0945459973
 21
18.7355403209
  0
LINE
  5
2DC
100
AcDbEntity
  8
ASSI
100
AcDbLine
 62
7
  6
CONTINUOUS
 10
19.0542621089
 20
18.6795964931
 11
19.0692066133
 21
18.6980109295
  0
LINE
  5
2DD
100
AcDbEntity
  8
RACCORDO
100
AcDbLine
 62
253
  6
CONTINUOUS
 10
17.4504902018
 20
13.269571602
 11
17.9808202877
 21
13.9097366449
  0
LINE
  5
2DE
100
AcDbEntity
  8
RACCORDO
100
AcDbLine
 62
7
  6
CONTINUOUS
 10
17.4662325446
 20
13.1984719564
 11
17.9965626305
 21
13.8386369994
  0
LINE
  5
2DF
100
AcDbEntity
  8
RACCORDO
100
AcDbLine
 62
7
  6
CONTINUOUS
 10
18.5111503736
 20
10.4398502603
 11
22.6240781014
 21
14.3530192165
  0
LINE
  5
2E0
100
AcDbEntity
  8
RACCORDO
100
AcDbLine
 62
7
  6
CONTINUOUS
 10
7.3776398993
 20
24.5088267987
 11
7.3776863699
 21
24.5026894606
  0
LINE
  5
2E1
100
AcDbEntity
  8
RACCORDO
100
AcDbLine
 62
7
  6
CONTINUOUS
 10
6.3065026653
 20
17.3750801124
 11
6.3065026653
 21
18.57461452
  0
LINE
  5
2E2
100
AcDbEntity
  8
RACCORDO
100
AcDbLine
 62
253
  6
CONTINUOUS
 10
6.4529492747
 20
17.200518789
 11
6.4529492747
 21
18.3978378247
  0
LINE
  5
2E3
100
AcDbEntity
  8
RACCORDO
100
AcDbLine
 62
253
  6
CONTINUOUS
 10
7.2934883317
 20
24.2150129548
 11
7.2934883317
 21
24.0027538007
  0
LINE
  5
2E4
100
AcDbEntity
  8
RACCORDO
100
AcDbLine
 62
7
  6
CONTINUOUS
 10
7.3776863916
 20
24.5026338331
 11
7.3776863916
 21
23.9266706436
  0
LINE
  5
2E5
100
AcDbEntity
  8
0
100
AcDbLine
 62
253
  6
CONTINUOUS
 10
7.7815875517
 20
25.4997722862
 11
7.7815875517
 21
25.8978382485
  0
LINE
  5
2E6
100
AcDbEntity
  8
ASSI
100
AcDbLine
 62
253
  6
CONTINUOUS
 10
7.7815875517
 20
25.4997722862
 11
7.7815875517
 21
25.8978382485
  0
LINE
  5
2E7
100
AcDbEntity
  8
DRAFT
100
AcDbLine
 62
7
  6
CONTINUOUS
 10
8.4642977496
 20
25.8397765846
 11
8.4642977496
 21
25.4067638827
  0
LINE
  5
2E8
100
AcDbEntity
  8
ASSI
100
AcDbLine
 62
7
  6
CONTINUOUS
 10
8.4642977496
 20
25.8397765846
 11
8.4642977496
 21
25.4067638827
  0
LINE
  5
2E9
100
AcDbEntity
  8
DRAFT
100
AcDbLine
 62
7
  6
CONTINUOUS
 10
9.9905136603
 20
25.7819326102
 11
9.9905136603
 21
25.6290466252
  0
LINE
  5
2EA
100
AcDbEntity
  8
ASSI
100
AcDbLine
 62
7
  6
CONTINUOUS
 10
9.9905136603
 20
25.7819326102
 11
9.9905136603
 21
25.6290466252
  0
LINE
  5
2EB
100
AcDbEntity
  8
0
100
AcDbLine
 62
7
  6
CONTINUOUS
 10
9.9522168015
 20
24.4237168516
 11
9.9437961212
 21
24.1364378242
  0
LINE
  5
2EC
100
AcDbEntity
  8
ASSI
100
AcDbLine
 62
7
  6
CONTINUOUS
 10
19.0945459973
 20
18.7355403209
 11
19.1158311709
 21
18.7764056436
  0
LINE
  5
2ED
100
AcDbEntity
  8
RACCORDO
100
AcDbLine
 62
7
  6
CONTINUOUS
 10
13.9736486579
 20
-16.9392058002
 11
14.5358412512
 21
-22.1792788551
  0
LINE
  5
2EE
100
AcDbEntity
  8
0
100
AcDbLine
 62
7
  6
CONTINUOUS
 10
9.5411426594
 20
24.1393773304
 11
9.5024721402
 21
24.5454646848
  0
LINE
  5
2EF
100
AcDbEntity
  8
RACCORDO
100
AcDbLine
 62
253
  6
CONTINUOUS
 10
11.9724431272
 20
15.6380908985
 11
11.9724431272
 21
14.4407718628
  0
LINE
  5
2F0
100
AcDbEntity
  8
DRAFT
100
AcDbLine
 62
7
  6
CONTINUOUS
 10
12.0040243163
 20
27.9326254457
 11
12.0040243163
 21
27.6061632369
  0
LINE
  5
2F1
100
AcDbEntity
  8
ASSI
100
AcDbLine
 62
7
  6
CONTINUOUS
 10
12.0040243163
 20
27.9326254457
 11
12.0040243163
 21
27.6061632369
  0
LINE
  5
2F2
100
AcDbEntity
  8
RACCORDO
100
AcDbLine
 62
253
  6
CONTINUOUS
 10
12.6815803543
 20
15.6391119856
 11
12.6815803543
 21
14.4341911529
  0
LINE
  5
2F3
100
AcDbEntity
  8
RACCORDO
100
AcDbLine
 62
7
  6
CONTINUOUS
 10
13.1017834975
 20
20.1040139415
 11
13.1017834975
 21
21.0043690421
  0
LWPOLYLINE
  5
2F4
100
AcDbEntity
  8
ASSI
100
AcDbPolyline
 62
7
  6
CONTINUOUS
 90
5
 70
0
 10
19.1158311709
 20
18.7764056436
 10
19.1328636946
 20
18.8205983231
 10
19.1453113432
 20
18.8679791377
 10
19.1527764718
 20
18.9180490256
 10
19.1549945801
 20
18.9652115739
  0
LINE
  5
2F5
100
AcDbEntity
  8
RACCORDO
100
AcDbLine
 62
253
  6
CONTINUOUS
 10
-19.2360555133
 20
23.1296254518
 11
10.7989818858
 21
8.1121067523
  0
LWPOLYLINE
  5
2F6
100
AcDbEntity
  8
RACCORDO
100
AcDbPolyline
 62
7
  6
CONTINUOUS
 90
5
 70
0
 10
3.9927820609
 20
19.2076097149
 10
3.9897944438
 20
19.2132958366
 10
3.9867433803
 20
19.2211708298
 10
3.984184807
 20
19.2312228787
 10
3.9827518126
 20
19.2430337508
  0
LINE
  5
2F7
100
AcDbEntity
  8
DRAFT
100
AcDbLine
 62
7
  6
CONTINUOUS
 10
16.82044434
 20
-24.9251684059
 11
15.0577933689
 21
-8.4958878198
  0
LINE
  5
2F8
100
AcDbEntity
  8
RACCORDO
100
AcDbLine
 62
253
  6
CONTINUOUS
 10
14.0892203646
 20
-28.0417018608
 11
14.0892205229
 21
-28.0418425411
  0
LINE
  5
2F9
100
AcDbEntity
  8
RACCORDO
100
AcDbLine
 62
7
  6
CONTINUOUS
 10
14.0892203646
 20
-28.0417018486
 11
14.0892203646
 21
-27.6903878765
  0
LINE
  5
2FA
100
AcDbEntity
  8
RACCORDO
100
AcDbLine
 62
7
  6
CONTINUOUS
 10
14.0892203646
 20
13.6092162629
 11
14.0892203646
 21
13.960530235
  0
LINE
  5
2FB
100
AcDbEntity
  8
RACCORDO
100
AcDbLine
 62
253
  6
CONTINUOUS
 10
14.1624436693
 20
-28.1300901962
 11
14.1624436693
 21
-27.7787762241
  0
LINE
  5
2FC
100
AcDbEntity
  8
RACCORDO
100
AcDbLine
 62
253
  6
CONTINUOUS
 10
14.1624436693
 20
13.5208279153
 11
14.1624436693
 21
13.8721418873
  0
LINE
  5
2FD
100
AcDbEntity
  8
RACCORDO
100
AcDbLine
 62
7
  6
CONTINUOUS
 10
14.7963271457
 20
-26.5868344859
 11
14.7963271457
 21
-26.5215646062
  0
LINE
  5
2FE
100
AcDbEntity
  8
RACCORDO
100
AcDbLine
 62
7
  6
CONTINUOUS
 10
14.7963271457
 20
12.9088160509
 11
14.7963271457
 21
13.1011543751
  0
LINE
  5
2FF
100
AcDbEntity
  8
RACCORDO
100
AcDbLine
 62
253
  6
CONTINUOUS
 10
14.8695504504
 20
-26.6752228335
 11
14.8695504504
 21
-26.5581762585
  0
LINE
  5
300
100
AcDbEntity
  8
RACCORDO
100
AcDbLine
 62
253
  6
CONTINUOUS
 10
14.8695504504
 20
12.8224778461
 11
14.8695504504
 21
13.0645427228
  0
LINE
  5
301
100
AcDbEntity
  8
RACCORDO
100
AcDbLine
 62
253
  6
CONTINUOUS
 10
15.5059465535
 20
13.2003904452
 11
15.5059465535
 21
12.8490764731
  0
LINE
  5
302
100
AcDbEntity
  8
RACCORDO
100
AcDbLine
 62
253
  6
CONTINUOUS
 10
15.5059465535
 20
-28.4505276662
 11
15.5059465535
 21
-28.8018416383
  0
LINE
  5
303
100
AcDbEntity
  8
RACCORDO
100
AcDbLine
 62
7
  6
CONTINUOUS
 10
15.5766572316
 20
19.8963940899
 11
15.5766572316
 21
20.0915070349
  0
LWPOLYLINE
  5
304
100
AcDbEntity
  8
RACCORDO
100
AcDbPolyline
 62
7
  6
CONTINUOUS
 90
6
 70
0
 10
14.79633156
 20
12.9090475933
 10
14.7961220849
 20
12.9026923619
 10
14.7944536107
 20
12.8904377606
 10
14.7916096972
 20
12.8800429087
 10
14.7882957672
 20
12.8719930598
 10
14.7859413649
 20
12.8676124656
  0
LINE
  5
305
100
AcDbEntity
  8
RACCORDO
100
AcDbLine
 62
7
  6
CONTINUOUS
 10
16.5635038202
 20
10.188870545
 11
12.9355305127
 21
-27.8132302272
  0
LINE
  5
306
100
AcDbEntity
  8
RACCORDO
100
AcDbLine
 62
7
  6
CONTINUOUS
 10
15.6320224962
 20
12.6926599318
 11
16.1623525821
 21
12.5828249747
  0
LINE
  5
307
100
AcDbEntity
  8
RACCORDO
100
AcDbLine
 62
253
  6
CONTINUOUS
 10
-18.0920956232
 20
24.75657906
 11
11.9598800294
 21
9.7305912336
  0
LINE
  5
308
100
AcDbEntity
  8
RACCORDO
100
AcDbLine
 62
7
  6
CONTINUOUS
 10
17.3470727285
 20
12.5608247255
 11
17.3469322852
 21
12.5660350156
  0
LWPOLYLINE
  5
309
100
AcDbEntity
  8
RACCORDO
100
AcDbPolyline
 62
7
  6
CONTINUOUS
 90
30
 70
0
 10
17.4837651663
 20
24.2422660046
 10
17.4826722394
 20
24.2834111502
 10
17.4806869634
 20
24.3259583731
 10
17.4778512058
 20
24.3685747941
 10
17.4741724374
 20
24.4112399229
 10
17.4696615845
 20
24.4539042254
 10
17.4643266023
 20
24.4965615926
 10
17.4581747324
 20
24.5392042696
 10
17.45122051
 20
24.5817781362
 10
17.4434725307
 20
24.6242766146
 10
17.4349383133
 20
24.6666931166
 10
17.4256362065
 20
24.7089719181
 10
17.4155757309
 20
24.7511042506
 10
17.4047645569
 20
24.7930858499
 10
17.3932228886
 20
24.8348663634
 10
17.38096277
 20
24.8764295461
 10
17.3679901941
 20
24.9177788999
 10
17.3543182585
 20
24.9588924084
 10
17.3399560587
 20
24.9997603586
 10
17.3249101334
 20
25.0403791841
 10
17.3091899771
 20
25.0807347699
 10
17.2928023729
 20
25.1208199985
 10
17.2757531619
 20
25.160627921
 10
17.2580511245
 20
25.2001437943
 10
17.2397021101
 20
25.2393592636
 10
17.2207104585
 20
25.278267117
 10
17.2010829466
 20
25.3168546804
 10
17.1808239251
 20
25.3551128747
 10
17.1599366297
 20
25.3930339673
 10
17.1421137684
 20
25.4242661055
  0
LWPOLYLINE
  5
30A
100
AcDbEntity
  8
ASSI
100
AcDbPolyline
 62
7
  6
CONTINUOUS
 90
13
 70
0
 10
17.484081171
 20
24.2067265919
 10
17.4837515551
 20
24.2437967863
 10
17.4784215261
 20
24.3609342726
 10
17.4667509115
 20
24.4779847593
 10
17.4489010709
 20
24.5949726973
 10
17.4250296431
 20
24.7116091727
 10
17.3953928688
 20
24.8272228544
 10
17.3601396178
 20
24.9416704188
 10
17.3193824932
 20
25.0547975066
 10
17.2734551549
 20
25.1658577528
 10
17.2225861108
 20
25.2744957817
 10
17.1667894171
 20
25.3807548345
 10
17.1421144223
 20
25.4242649774
  0
LINE
  5
30B
100
AcDbEntity
  8
RACCORDO
100
AcDbLine
 62
7
  6
CONTINUOUS
 10
17.4840812084
 20
24.2068616386
 11
17.4837651663
 21
24.2422660046
  0
LINE
  5
30C
100
AcDbEntity
  8
RACCORDO
100
AcDbLine
 62
253
  6
CONTINUOUS
 10
15.8594999441
 20
13.2003904452
 11
15.8594999441
 21
12.8490764731
  0
LINE
  5
30D
100
AcDbEntity
  8
RACCORDO
100
AcDbLine
 62
253
  6
CONTINUOUS
 10
15.8594999441
 20
-28.4505276662
 11
15.8594999441
 21
-28.8018416383
  0
LINE
  5
30E
100
AcDbEntity
  8
RACCORDO
100
AcDbLine
 62
253
  6
CONTINUOUS
 10
16.2130533347
 20
12.4526298637
 11
16.2130533347
 21
12.150726404
  0
LINE
  5
30F
100
AcDbEntity
  8
RACCORDO
100
AcDbLine
 62
253
  6
CONTINUOUS
 10
16.2130533347
 20
-27.1368818744
 11
16.2130533347
 21
-27.3469742757
  0
LINE
  5
310
100
AcDbEntity
  8
RACCORDO
100
AcDbLine
 62
7
  6
CONTINUOUS
 10
16.3528022457
 20
11.1253914803
 11
16.3528022457
 21
11.0995218424
  0
LINE
  5
311
100
AcDbEntity
  8
RACCORDO
100
AcDbLine
 62
7
  6
CONTINUOUS
 10
16.3528022457
 20
-26.8665915843
 11
16.3528022457
 21
-26.8407219464
  0
LINE
  5
312
100
AcDbEntity
  8
RACCORDO
100
AcDbLine
 62
253
  6
CONTINUOUS
 10
16.5666067253
 20
12.4526298637
 11
16.5666067253
 21
12.1439239656
  0
LINE
  5
313
100
AcDbEntity
  8
RACCORDO
100
AcDbLine
 62
253
  6
CONTINUOUS
 10
16.5666067253
 20
-27.0382683775
 11
16.5666067253
 21
-27.3469742757
  0
LINE
  5
314
100
AcDbEntity
  8
DRAFT
100
AcDbLine
 62
7
  6
CONTINUOUS
 10
16.82044434
 20
-26.5458061291
 11
16.82044434
 21
-24.9251684059
  0
LINE
  5
315
100
AcDbEntity
  8
DRAFT
100
AcDbLine
 62
7
  6
CONTINUOUS
 10
16.82044434
 20
9.635565023
 11
16.82044434
 21
11.2562027461
  0
LINE
  5
316
100
AcDbEntity
  8
RACCORDO
100
AcDbLine
 62
253
  6
CONTINUOUS
 10
17.2034210184
 20
20.6486797508
 11
17.2034210184
 21
23.8595341479
  0
LINE
  5
317
100
AcDbEntity
  8
ASSI
100
AcDbLine
 62
253
  6
CONTINUOUS
 10
17.2034210184
 20
20.6486797508
 11
17.2034210184
 21
23.8595341479
  0
LINE
  5
318
100
AcDbEntity
  8
RACCORDO
100
AcDbLine
 62
253
  6
CONTINUOUS
 10
17.2737135065
 20
-26.9934208851
 11
17.2737135065
 21
-26.6695984573
  0
LINE
  5
319
100
AcDbEntity
  8
RACCORDO
100
AcDbLine
 62
253
  6
CONTINUOUS
 10
17.2737135065
 20
12.4823608266
 11
17.2737135065
 21
12.8061832543
  0
LINE
  5
31A
100
AcDbEntity
  8
RACCORDO
100
AcDbLine
 62
7
  6
CONTINUOUS
 10
17.3469368112
 20
-26.9050325374
 11
17.3469368112
 21
-26.6029772782
  0
LINE
  5
31B
100
AcDbEntity
  8
RACCORDO
100
AcDbLine
 62
7
  6
CONTINUOUS
 10
17.3469368104
 20
12.5659487675
 11
17.3469368112
 21
12.894571602
  0
LINE
  5
31C
100
AcDbEntity
  8
RACCORDO
100
AcDbLine
 62
7
  6
CONTINUOUS
 10
17.4840812091
 20
21.5478415502
 11
17.4840812151
 21
21.5481064047
  0
LINE
  5
31D
100
AcDbEntity
  8
RACCORDO
100
AcDbLine
 62
7
  6
CONTINUOUS
 10
17.4840812181
 20
21.5481837362
 11
17.4840812181
 21
24.2068633332
  0
LINE
  5
31E
100
AcDbEntity
  8
ASSI
100
AcDbLine
 62
7
  6
CONTINUOUS
 10
17.4840812091
 20
21.5478415502
 11
17.4840812181
 21
24.2068633332
  0
LINE
  5
31F
100
AcDbEntity
  8
RACCORDO
100
AcDbLine
 62
253
  6
CONTINUOUS
 10
17.9808202877
 20
14.261050617
 11
17.9808202877
 21
13.9097366449
  0
LINE
  5
320
100
AcDbEntity
  8
RACCORDO
100
AcDbLine
 62
253
  6
CONTINUOUS
 10
17.9808202877
 20
-27.3898674945
 11
17.9808202877
 21
-27.7411814665
  0
LINE
  5
321
100
AcDbEntity
  8
RACCORDO
100
AcDbLine
 62
7
  6
CONTINUOUS
 10
18.0540435924
 20
14.3494389646
 11
18.0540435924
 21
13.9981249926
  0
LINE
  5
322
100
AcDbEntity
  8
RACCORDO
100
AcDbLine
 62
7
  6
CONTINUOUS
 10
18.0540435924
 20
-27.3014791468
 11
18.0540435924
 21
-27.6527931189
  0
LINE
  5
323
100
AcDbEntity
  8
ASSI
100
AcDbLine
 62
7
  6
CONTINUOUS
 10
17.4840811807
 20
24.2067265919
 11
17.4840812181
 21
24.2068633332
  0
LINE
  5
324
100
AcDbEntity
  8
DRAFT
100
AcDbLine
 62
7
  6
CONTINUOUS
 10
15.0577933689
 20
-8.4958878198
 11
16.82044434
 21
9.635565023
  0
LINE
  5
325
100
AcDbEntity
  8
0
100
AcDbLine
 62
7
  6
CONTINUOUS
 10
13.729386328
 20
19.5789764207
 11
15.5766572316
 21
19.8963940899
  0
LINE
  5
326
100
AcDbEntity
  8
RACCORDO
100
AcDbLine
 62
253
  6
CONTINUOUS
 10
15.8594999441
 20
12.8490764731
 11
16.38983003
 21
12.7392415161
  0
LINE
  5
327
100
AcDbEntity
  8
DRAFT
100
AcDbLine
 62
7
  6
CONTINUOUS
 10
16.82044434
 20
9.635565023
 11
16.5247935629
 21
9.7833904116
  0
LINE
  5
328
100
AcDbEntity
  8
ASSI
100
AcDbLine
 62
7
  6
CONTINUOUS
 10
-15.6421071578
 20
26.8258601423
 11
0.1263740627
 21
18.9416195321
  0
LINE
  5
329
100
AcDbEntity
  8
RACCORDO
100
AcDbLine
 62
7
  6
CONTINUOUS
 10
0.3880162706
 20
19.0330949433
 11
16.0668337634
 21
11.1936861969
  0
LINE
  5
32A
100
AcDbEntity
  8
DRAFT
100
AcDbLine
 62
7
  6
CONTINUOUS
 10
16.3528022457
 20
11.0995218424
 11
0.6583765939
 21
18.9467346683
  0
LINE
  5
32B
100
AcDbEntity
  8
RACCORDO
100
AcDbLine
 62
7
  6
CONTINUOUS
 10
-0.1211133107
 20
19.3928791573
 11
-15.3946197843
 21
27.0296323941
  0
LINE
  5
32C
100
AcDbEntity
  8
RACCORDO
100
AcDbLine
 62
7
  6
CONTINUOUS
 10
15.999087295
 20
11.7354595274
 11
1.0120915445
 21
19.2289574026
  0
LINE
  5
32D
100
AcDbEntity
  8
RACCORDO
100
AcDbLine
 62
253
  6
CONTINUOUS
 10
1.3613427868
 20
19.2595134779
 11
2.7048456711
 21
18.5877620358
  0
LINE
  5
32E
100
AcDbEntity
  8
RACCORDO
100
AcDbLine
 62
253
  6
CONTINUOUS
 10
14.7256609512
 20
12.5773543957
 11
16.0691638355
 21
11.9056029536
  0
LINE
  5
32F
100
AcDbEntity
  8
DRAFT
100
AcDbLine
 62
7
  6
CONTINUOUS
 10
0.4384013739
 20
19.8277862854
 11
-1.1756027421
 21
20.6347883434
  0
LINE
  5
330
100
AcDbEntity
  8
DRAFT
100
AcDbLine
 62
7
  6
CONTINUOUS
 10
-12.9259167906
 20
26.5099453676
 11
-14.5399209065
 21
27.3169474256
  0
LINE
  5
331
100
AcDbEntity
  8
RACCORDO
100
AcDbLine
 62
253
  6
CONTINUOUS
 10
1.505232286
 20
19.5046369283
 11
2.8487351703
 21
18.8328854862
  0
LINE
  5
332
100
AcDbEntity
  8
RACCORDO
100
AcDbLine
 62
253
  6
CONTINUOUS
 10
14.8695504504
 20
12.8224778461
 11
16.2130533347
 21
12.150726404
  0
LWPOLYLINE
  5
333
100
AcDbEntity
  8
RACCORDO
100
AcDbPolyline
 62
7
  6
CONTINUOUS
 90
4
 70
0
 10
3.9946355656
 20
19.2047097637
 10
3.9949754779
 20
19.2043579718
 10
3.994785178
 20
19.2046267612
 10
3.9927820609
 20
19.2076097149
  0
LINE
  5
334
100
AcDbEntity
  8
0
100
AcDbLine
 62
253
  6
CONTINUOUS
 10
7.7815875517
 20
25.8978382485
 11
7.3876016178
 21
26.9199940665
  0
LINE
  5
335
100
AcDbEntity
  8
ASSI
100
AcDbLine
 62
253
  6
CONTINUOUS
 10
7.7815875517
 20
25.8978382485
 11
7.3876016178
 21
26.9199940665
  0
LINE
  5
336
100
AcDbEntity
  8
0
100
AcDbLine
 62
7
  6
CONTINUOUS
 10
8.997002558
 20
24.3032247291
 11
8.7955032001
 21
24.8989491549
  0
LINE
  5
337
100
AcDbEntity
  8
ASSI
100
AcDbLine
 62
7
  6
CONTINUOUS
 10
19.1549025792
 20
21.5183886928
 11
19.1522092555
 21
21.5626618141
  0
LWPOLYLINE
  5
338
100
AcDbEntity
  8
RACCORDO
100
AcDbPolyline
 62
7
  6
CONTINUOUS
 90
4
 70
0
 10
19.1549201742
 20
21.5165136757
 10
19.1545509142
 20
21.5300909734
 10
19.153740465
 20
21.544791631
 10
19.1525215713
 20
21.5595198051
  0
LINE
  5
339
100
AcDbEntity
  8
ASSI
100
AcDbLine
 62
7
  6
CONTINUOUS
 10
19.1549945828
 20
21.5085843144
 11
19.1549025792
 21
21.5183886928
  0
LINE
  5
33A
100
AcDbEntity
  8
RACCORDO
100
AcDbLine
 62
7
  6
CONTINUOUS
 10
19.154994609
 20
21.5086457153
 11
19.1549201742
 21
21.5165136757
  0
LINE
  5
33B
100
AcDbEntity
  8
RACCORDO
100
AcDbLine
 62
7
  6
CONTINUOUS
 10
18.5111503736
 20
-25.7790957158
 11
18.5111503736
 21
12.1221881709
  0
LINE
  5
33C
100
AcDbEntity
  8
RACCORDO
100
AcDbLine
 62
7
  6
CONTINUOUS
 10
18.655345567
 20
17.3272329067
 11
18.655345567
 21
18.2275880073
  0
LINE
  5
33D
100
AcDbEntity
  8
RACCORDO
100
AcDbLine
 62
253
  6
CONTINUOUS
 10
19.0707966069
 20
21.4044481499
 11
19.0707966069
 21
21.2480335103
  0
LINE
  5
33E
100
AcDbEntity
  8
ASSI
100
AcDbLine
 62
253
  6
CONTINUOUS
 10
19.0707966069
 20
21.4044481499
 11
19.0707966069
 21
21.2480335103
  0
LINE
  5
33F
100
AcDbEntity
  8
RACCORDO
100
AcDbLine
 62
253
  6
CONTINUOUS
 10
19.0707966069
 20
19.0174933403
 11
19.0707966069
 21
18.861078532
  0
LINE
  5
340
100
AcDbEntity
  8
ASSI
100
AcDbLine
 62
253
  6
CONTINUOUS
 10
19.0707966069
 20
19.0174933403
 11
19.0707966069
 21
18.861078532
  0
LINE
  5
341
100
AcDbEntity
  8
RACCORDO
100
AcDbLine
 62
7
  6
CONTINUOUS
 10
19.1549946668
 20
21.5086469054
 11
19.1549946668
 21
21.3335053655
  0
LINE
  5
342
100
AcDbEntity
  8
ASSI
100
AcDbLine
 62
7
  6
CONTINUOUS
 10
19.1549946668
 20
21.5086469054
 11
19.1549946668
 21
21.3335053655
  0
LINE
  5
343
100
AcDbEntity
  8
RACCORDO
100
AcDbLine
 62
7
  6
CONTINUOUS
 10
19.1549946668
 20
19.110059469
 11
19.1549946668
 21
18.9652772872
  0
LINE
  5
344
100
AcDbEntity
  8
ASSI
100
AcDbLine
 62
7
  6
CONTINUOUS
 10
19.1549946668
 20
19.111071783
 11
19.1549946668
 21
18.9652772872
  0
LINE
  5
345
100
AcDbEntity
  8
RACCORDO
100
AcDbLine
 62
7
  6
CONTINUOUS
 10
2.2677043318
 20
19.374819014
 11
2.7980344177
 21
19.2649840569
  0
LINE
  5
346
100
AcDbEntity
  8
RACCORDO
100
AcDbLine
 62
253
  6
CONTINUOUS
 10
2.4951817797
 20
19.5312355553
 11
3.0255118656
 21
19.4214005983
  0
LINE
  5
347
100
AcDbEntity
  8
RACCORDO
100
AcDbLine
 62
7
  6
CONTINUOUS
 10
0.4384013739
 20
20.4649558441
 11
-0.1839166582
 21
20.5948964266
  0
LINE
  5
348
100
AcDbEntity
  8
RACCORDO
100
AcDbLine
 62
7
  6
CONTINUOUS
 10
-9.5934609098
 20
25.2010496624
 11
-3.8009518417
 21
22.3047951284
  0
LINE
  5
349
100
AcDbEntity
  8
RACCORDO
100
AcDbLine
 62
7
  6
CONTINUOUS
 10
6.4529492747
 20
17.200518789
 11
11.9724431272
 21
14.4407718628
  0
LINE
  5
34A
100
AcDbEntity
  8
RACCORDO
100
AcDbLine
 62
7
  6
CONTINUOUS
 10
-15.1783191148
 20
28.0884775054
 11
-13.5717855518
 21
27.2852107239
  0
LINE
  5
34B
100
AcDbEntity
  8
RACCORDO
100
AcDbLine
 62
7
  6
CONTINUOUS
 10
-1.8140009504
 20
21.4063184232
 11
-0.2074673874
 21
20.6030516417
  0
LINE
  5
34C
100
AcDbEntity
  8
RACCORDO
100
AcDbLine
 62
7
  6
CONTINUOUS
 10
0.8630988013
 20
20.0677685474
 11
2.2066016855
 21
19.3960171052
  0
LINE
  5
34D
100
AcDbEntity
  8
RACCORDO
100
AcDbLine
 62
7
  6
CONTINUOUS
 10
14.2274169657
 20
13.3856094652
 11
15.5710110828
 21
12.7138124686
  0
LINE
  5
34E
100
AcDbEntity
  8
RACCORDO
100
AcDbLine
 62
253
  6
CONTINUOUS
 10
16.2130533347
 20
12.4526298637
 11
15.804390267
 21
12.6569613976
  0
LINE
  5
34F
100
AcDbEntity
  8
RACCORDO
100
AcDbLine
 62
253
  6
CONTINUOUS
 10
2.8487351703
 20
19.1347889459
 11
2.4400721026
 21
19.3391204798
  0
LINE
  5
350
100
AcDbEntity
  8
RACCORDO
100
AcDbLine
 62
253
  6
CONTINUOUS
 10
-15.2429138608
 20
28.2235066803
 11
-13.6371373986
 21
27.4206184492
  0
LINE
  5
351
100
AcDbEntity
  8
RACCORDO
100
AcDbLine
 62
253
  6
CONTINUOUS
 10
-1.8785956964
 20
21.5413475981
 11
-0.2728192342
 21
20.738459367
  0
LINE
  5
352
100
AcDbEntity
  8
RACCORDO
100
AcDbLine
 62
253
  6
CONTINUOUS
 10
0.7981255048
 20
20.2029869975
 11
2.1416283891
 21
19.5312355553
  0
LINE
  5
353
100
AcDbEntity
  8
RACCORDO
100
AcDbLine
 62
253
  6
CONTINUOUS
 10
14.1624436693
 20
13.5208279153
 11
15.5059465535
 21
12.8490764731
  0
LINE
  5
354
100
AcDbEntity
  8
RACCORDO
100
AcDbLine
 62
253
  6
CONTINUOUS
 10
-0.2728192342
 20
20.9918307608
 11
-1.8785956964
 21
21.7947189918
  0
LINE
  5
355
100
AcDbEntity
  8
RACCORDO
100
AcDbLine
 62
253
  6
CONTINUOUS
 10
-13.6371373986
 20
27.673989843
 11
-15.2429138608
 21
28.4768780741
  0
LINE
  5
356
100
AcDbEntity
  8
RACCORDO
100
AcDbLine
 62
253
  6
CONTINUOUS
 10
0.7981255048
 20
20.5543009696
 11
2.1416283891
 21
19.8825495274
  0
LINE
  5
357
100
AcDbEntity
  8
RACCORDO
100
AcDbLine
 62
253
  6
CONTINUOUS
 10
14.1624436693
 20
13.8721418873
 11
15.5059465535
 21
13.2003904452
  0
LINE
  5
358
100
AcDbEntity
  8
DRAFT
100
AcDbLine
 62
7
  6
CONTINUOUS
 10
-11.8590858784
 20
27.0485266171
 11
-9.6813288754
 21
25.9596481156
  0
LINE
  5
359
100
AcDbEntity
  8
DRAFT
100
AcDbLine
 62
7
  6
CONTINUOUS
 10
-2.8788297573
 20
22.5583985566
 11
-1.7977078062
 21
22.017837581
  0
LINE
  5
35A
100
AcDbEntity
  8
RACCORDO
100
AcDbLine
 62
253
  6
CONTINUOUS
 10
-0.0960485048
 20
21.295696339
 11
-1.7038699139
 21
22.0996070435
  0
LINE
  5
35B
100
AcDbEntity
  8
RACCORDO
100
AcDbLine
 62
253
  6
CONTINUOUS
 10
-13.4603666692
 20
27.9778554212
 11
-15.0681880783
 21
28.7817661257
  0
LINE
  5
35C
100
AcDbEntity
  8
RACCORDO
100
AcDbLine
 62
253
  6
CONTINUOUS
 10
17.4126667197
 20
12.5486329894
 11
17.3531183616
 21
12.5784071684
  0
LINE
  5
35D
100
AcDbEntity
  8
RACCORDO
100
AcDbLine
 62
253
  6
CONTINUOUS
 10
4.0483485553
 20
19.2307920716
 11
3.9888002093
 21
19.2605662446
  0
LINE
  5
35E
100
AcDbEntity
  8
RACCORDO
100
AcDbLine
 62
253
  6
CONTINUOUS
 10
0.9749022001
 20
20.8591956682
 11
2.3184050844
 21
20.187444226
  0
LINE
  5
35F
100
AcDbEntity
  8
RACCORDO
100
AcDbLine
 62
253
  6
CONTINUOUS
 10
14.3392203646
 20
14.1770365859
 11
15.6827232488
 21
13.5052851438
  0
LINE
  5
360
100
AcDbEntity
  8
RACCORDO
100
AcDbLine
 62
7
  6
CONTINUOUS
 10
-9.5934609098
 20
26.4160045285
 11
-3.8009518417
 21
23.5197499945
  0
LINE
  5
361
100
AcDbEntity
  8
RACCORDO
100
AcDbLine
 62
7
  6
CONTINUOUS
 10
6.4529492747
 20
18.3978378247
 11
11.9724431272
 21
15.6380908985
  0
LINE
  5
362
100
AcDbEntity
  8
RACCORDO
100
AcDbLine
 62
7
  6
CONTINUOUS
 10
4.0419669206
 20
19.7899904692
 11
5.4526876659
 21
19.0846300965
  0
LINE
  5
363
100
AcDbEntity
  8
RACCORDO
100
AcDbLine
 62
7
  6
CONTINUOUS
 10
17.406285085
 20
13.107831387
 11
18.1574354229
 21
12.732256218
  0
LINE
  5
364
100
AcDbEntity
  8
RACCORDO
100
AcDbLine
 62
7
  6
CONTINUOUS
 10
-10.3278117614
 20
26.9824386506
 11
-11.8102897648
 21
27.7236776523
  0
LINE
  5
365
100
AcDbEntity
  8
DRAFT
100
AcDbLine
 62
7
  6
CONTINUOUS
 10
-9.1013694318
 20
26.8821039591
 11
-2.8788297573
 21
23.7708341219
  0
LINE
  5
366
100
AcDbEntity
  8
DRAFT
100
AcDbLine
 62
7
  6
CONTINUOUS
 10
-13.4854314751
 20
29.5937502231
 11
-11.8590858784
 21
28.7805774247
  0
LINE
  5
367
100
AcDbEntity
  8
DRAFT
100
AcDbLine
 62
7
  6
CONTINUOUS
 10
-0.1211133107
 20
22.9115911409
 11
1.505232286
 21
22.0984183425
  0
LINE
  5
368
100
AcDbEntity
  8
DRAFT
100
AcDbLine
 62
7
  6
CONTINUOUS
 10
-7.7578665475
 20
26.9124209098
 11
-2.8081190792
 21
24.4375471756
  0
LINE
  5
369
100
AcDbEntity
  8
0
100
AcDbLine
 62
7
  6
CONTINUOUS
 10
8.1520360292
 20
18.9625080098
 11
13.1017834975
 21
16.4876342757
  0
LINE
  5
36A
100
AcDbEntity
  8
DRAFT
100
AcDbLine
 62
7
  6
CONTINUOUS
 10
8.7121840554
 20
22.1257033519
 11
7.9594899714
 21
23.4239086129
  0
LINE
  5
36B
100
AcDbEntity
  8
ASSI
100
AcDbLine
 62
7
  6
CONTINUOUS
 10
8.7121840554
 20
22.1257033519
 11
7.9594899714
 21
23.4239086129
  0
LINE
  5
36C
100
AcDbEntity
  8
RACCORDO
100
AcDbLine
 62
7
  6
CONTINUOUS
 10
22.7097604563
 20
15.4964268106
 11
22.7097604563
 21
14.6014639471
  0
LINE
  5
36D
100
AcDbEntity
  8
RACCORDO
100
AcDbLine
 62
7
  6
CONTINUOUS
 10
22.7097604563
 20
-18.3148459509
 11
22.7097604563
 21
-19.956621941
  0
LINE
  5
36E
100
AcDbEntity
  8
RACCORDO
100
AcDbLine
 62
253
  6
CONTINUOUS
 10
-12.9509815965
 20
29.8540976896
 11
-11.3308187067
 21
29.0440162447
  0
LINE
  5
36F
100
AcDbEntity
  8
RACCORDO
100
AcDbLine
 62
253
  6
CONTINUOUS
 10
0.413336568
 20
23.1719386074
 11
2.0334994578
 21
22.3618571625
  0
LINE
  5
370
100
AcDbEntity
  8
RACCORDO
100
AcDbLine
 62
7
  6
CONTINUOUS
 10
-12.8395639811
 20
29.8603662529
 11
-11.2206864029
 21
29.0509274638
  0
LINE
  5
371
100
AcDbEntity
  8
RACCORDO
100
AcDbLine
 62
7
  6
CONTINUOUS
 10
0.5247541833
 20
23.1782071706
 11
2.1436317615
 21
22.3687683815
  0
LINE
  5
372
100
AcDbEntity
  8
RACCORDO
100
AcDbLine
 62
253
  6
CONTINUOUS
 10
3.0962225437
 20
21.9198558399
 11
4.4397254279
 21
21.2481043978
  0
LINE
  5
373
100
AcDbEntity
  8
RACCORDO
100
AcDbLine
 62
253
  6
CONTINUOUS
 10
16.4605407081
 20
15.2376967577
 11
17.8040435924
 21
14.5659453156
  0
LINE
  5
374
100
AcDbEntity
  8
RACCORDO
100
AcDbLine
 62
7
  6
CONTINUOUS
 10
3.2080259426
 20
21.9269562867
 11
4.5515288268
 21
21.2552048446
  0
LINE
  5
375
100
AcDbEntity
  8
RACCORDO
100
AcDbLine
 62
7
  6
CONTINUOUS
 10
16.572344107
 20
15.2447972045
 11
17.9158469912
 21
14.5730457624
  0
LINE
  5
376
100
AcDbEntity
  8
RACCORDO
100
AcDbLine
 62
7
  6
CONTINUOUS
 10
-1.4939570989
 20
25.0852642922
 11
-4.0809112854
 21
26.3787413855
  0
LINE
  5
377
100
AcDbEntity
  8
ASSI
100
AcDbLine
 62
7
  6
CONTINUOUS
 10
-1.4939570989
 20
25.0852642922
 11
-4.0809112854
 21
26.3787413855
  0
LINE
  5
378
100
AcDbEntity
  8
RACCORDO
100
AcDbLine
 62
253
  6
CONTINUOUS
 10
-0.8529939041
 20
25.4011787979
 11
-2.9459061351
 21
26.4476349134
  0
LINE
  5
379
100
AcDbEntity
  8
ASSI
100
AcDbLine
 62
253
  6
CONTINUOUS
 10
-0.8529939041
 20
25.4011787979
 11
-2.9459061351
 21
26.4476349134
  0
LINE
  5
37A
100
AcDbEntity
  8
RACCORDO
100
AcDbLine
 62
7
  6
CONTINUOUS
 10
-0.8022304796
 20
25.4261988026
 11
-2.8616572624
 21
26.4559121941
  0
LINE
  5
37B
100
AcDbEntity
  8
ASSI
100
AcDbLine
 62
7
  6
CONTINUOUS
 10
-0.8022304796
 20
25.4261988026
 11
-2.8616572624
 21
26.4559121941
  0
LINE
  5
37C
100
AcDbEntity
  8
0
100
AcDbLine
 62
7
  6
CONTINUOUS
 10
-0.2904433345
 20
25.6784457089
 11
-3.0909617917
 21
27.0787049376
  0
LWPOLYLINE
  5
37D
100
AcDbEntity
  8
RACCORDO
100
AcDbPolyline
 62
7
  6
CONTINUOUS
 90
4
 70
0
 10
17.3589447179
 20
12.522559785
 10
17.3592888853
 20
12.522203939
 10
17.3591109122
 20
12.5224577855
 10
17.3571161387
 20
12.5254243565
  0
LWPOLYLINE
  5
37E
100
AcDbEntity
  8
RACCORDO
100
AcDbPolyline
 62
7
  6
CONTINUOUS
 90
5
 70
0
 10
17.3571161387
 20
12.5254243565
 10
17.3541320029
 20
12.5310944932
 10
17.3510787566
 20
12.538958611
 10
17.3485134974
 20
12.5490084934
 10
17.3470727285
 20
12.5608247255
  0
LWPOLYLINE
  5
37F
100
AcDbEntity
  8
RACCORDO
100
AcDbPolyline
 62
7
  6
CONTINUOUS
 90
4
 70
0
 10
19.1464628566
 20
21.6036728727
 10
19.143659086
 20
21.6183381569
 10
19.1404765579
 20
21.6329369687
 10
19.1369194611
 20
21.6474687948
  0
LINE
  5
380
100
AcDbEntity
  8
ASSI
100
AcDbLine
 62
7
  6
CONTINUOUS
 10
19.1522092555
 20
21.5626618141
 11
19.1457219544
 21
21.6077551455
  0
LWPOLYLINE
  5
381
100
AcDbEntity
  8
RACCORDO
100
AcDbPolyline
 62
7
  6
CONTINUOUS
 90
4
 70
0
 10
19.1525215713
 20
21.5595198051
 10
19.1508978862
 20
21.574261693
 10
19.148876866
 20
21.5889799749
 10
19.1464628566
 20
21.6036728727
  0
LINE
  5
382
100
AcDbEntity
  8
RACCORDO
100
AcDbLine
 62
7
  6
CONTINUOUS
 10
23.4435379113
 20
16.1580666951
 11
23.4435379113
 21
15.8763512097
  0
LINE
  5
383
100
AcDbEntity
  8
RACCORDO
100
AcDbLine
 62
7
  6
CONTINUOUS
 10
23.4435379113
 20
-20.3235106685
 11
23.4435379113
 21
-20.6052261539
  0
LINE
  5
384
100
AcDbEntity
  8
RACCORDO
100
AcDbLine
 62
7
  6
CONTINUOUS
 10
-12.9259167906
 20
27.1471149264
 11
-13.5482348226
 21
27.2770555089
  0
LWPOLYLINE
  5
385
100
AcDbEntity
  8
ASSI
100
AcDbPolyline
 62
7
  6
CONTINUOUS
 90
13
 70
0
 10
-2.9938171816
 20
26.5009039072
 10
-3.070393471
 20
26.5200282132
 10
-3.1491815166
 20
26.535316802
 10
-3.229814591
 20
26.546798431
 10
-3.3117560361
 20
26.5544638026
 10
-3.3944915554
 20
26.5583133459
 10
-3.477610538
 20
26.558350566
 10
-3.5605859231
 20
26.5545738386
 10
-3.6428898287
 20
26.5469899072
 10
-3.7241191636
 20
26.5355931625
 10
-3.8037611651
 20
26.5203839416
 10
-3.8812984248
 20
26.5013658031
 10
-3.9564127674
 20
26.4784764058
  0
LINE
  5
386
100
AcDbEntity
  8
ASSI
100
AcDbLine
 62
7
  6
CONTINUOUS
 10
-2.9198755028
 20
26.4779003185
 11
-2.9938171816
 21
26.5009039072
  0
LWPOLYLINE
  5
387
100
AcDbEntity
  8
RACCORDO
100
AcDbPolyline
 62
7
  6
CONTINUOUS
 90
49
 70
0
 10
-2.9003282502
 20
26.4709834093
 10
-2.9235988522
 20
26.4791762488
 10
-2.9471648271
 20
26.4869522385
 10
-2.9710201865
 20
26.494317843
 10
-2.9951469325
 20
26.5012748513
 10
-3.0195271809
 20
26.5078254006
 10
-3.0441543556
 20
26.513973967
 10
-3.0690105709
 20
26.5197216147
 10
-3.0940784891
 20
26.5250697885
 10
-3.1193516219
 20
26.530021598
 10
-3.1448126163
 20
26.5345776841
 10
-3.1704439463
 20
26.538738839
 10
-3.1962381875
 20
26.5425069726
 10
-3.2221777917
 20
26.5458823991
 10
-3.248245628
 20
26.5488655757
 10
-3.2744343138
 20
26.5514576319
 10
-3.300726286
 20
26.5536586821
 10
-3.3271045667
 20
26.5554688875
 10
-3.353562242
 20
26.556888741
 10
-3.3800820873
 20
26.5579181933
 10
-3.4066468497
 20
26.5585571089
 10
-3.4332493719
 20
26.5588053535
 10
-3.4598724702
 20
26.5586627015
 10
-3.4864987914
 20
26.5581287845
 10
-3.513120952
 20
26.5572028943
 10
-3.5397218258
 20
26.5558846039
 10
-3.5662838099
 20
26.554173324
 10
-3.5927990777
 20
26.552067794
 10
-3.6192503301
 20
26.5495673586
 10
-3.645619812
 20
26.5466711969
 10
-3.6718995285
 20
26.5433774403
 10
-3.6980734633
 20
26.5396849096
 10
-3.724122088
 20
26.5355926794
 10
-3.7500329794
 20
26.5310989314
 10
-3.7757896972
 20
26.5262022401
 10
-3.8013727685
 20
26.5209015321
 10
-3.8267664867
 20
26.51519525
 10
-3.8519529534
 20
26.5090820231
 10
-3.876914031
 20
26.5025603748
 10
-3.9016352505
 20
26.4956279815
 10
-3.9260987177
 20
26.4882829413
 10
-3.9502861227
 20
26.480523386
 10
-3.9741839798
 20
26.4723458296
 10
-3.9977734495
 20
26.4637478478
 10
-4.0210369119
 20
26.454726445
 10
-4.0439644382
 20
26.4452750708
 10
-4.0665407305
 20
26.4353881217
 10
-4.088742446
 20
26.4250634702
 10
-4.1043215474
 20
26.4174379431
  0
LINE
  5
388
100
AcDbEntity
  8
ASSI
100
AcDbLine
 62
7
  6
CONTINUOUS
 10
-2.8666240467
 20
26.4581478259
 11
-2.9198755028
 21
26.4779003185
  0
LWPOLYLINE
  5
389
100
AcDbEntity
  8
RACCORDO
100
AcDbPolyline
 62
7
  6
CONTINUOUS
 90
3
 70
0
 10
-2.8667957702
 20
26.4582165599
 10
-2.877366877
 20
26.4623687746
 10
-2.9003282502
 20
26.4709834093
  0
LINE
  5
38A
100
AcDbEntity
  8
DRAFT
100
AcDbLine
 62
7
  6
CONTINUOUS
 10
-3.4445151823
 20
27.8080398222
 11
-3.0909617917
 21
27.6312631269
  0
LINE
  5
38B
100
AcDbEntity
  8
0
100
AcDbLine
 62
7
  6
CONTINUOUS
 10
16.5069270578
 20
18.1902060558
 11
13.729386328
 21
19.5789764207
  0
LINE
  5
38C
100
AcDbEntity
  8
0
100
AcDbLine
 62
7
  6
CONTINUOUS
 10
1.1173723618
 20
26.3723223673
 11
-1.6931772852
 21
27.7775971908
  0
LINE
  5
38D
100
AcDbEntity
  8
DRAFT
100
AcDbLine
 62
7
  6
CONTINUOUS
 10
7.1717013237
 20
23.8178029367
 11
7.9594899714
 21
23.4239086129
  0
LINE
  5
38E
100
AcDbEntity
  8
ASSI
100
AcDbLine
 62
7
  6
CONTINUOUS
 10
7.1717013237
 20
23.8178029367
 11
7.9594899714
 21
23.4239086129
  0
LINE
  5
38F
100
AcDbEntity
  8
RACCORDO
100
AcDbLine
 62
253
  6
CONTINUOUS
 10
18.3038285203
 20
18.482805842
 11
17.6979775752
 21
18.7857313145
  0
LINE
  5
390
100
AcDbEntity
  8
RACCORDO
100
AcDbLine
 62
253
  6
CONTINUOUS
 10
12.7482301069
 20
21.2606050487
 11
12.1423791618
 21
21.5635305212
  0
LINE
  5
391
100
AcDbEntity
  8
0
100
AcDbLine
 62
7
  6
CONTINUOUS
 10
-0.3332453451
 20
27.8513453782
 11
1.8764955431
 21
26.7464749341
  0
LINE
  5
392
100
AcDbEntity
  8
0
100
AcDbLine
 62
7
  6
CONTINUOUS
 10
2.6220803662
 20
26.3736825226
 11
2.7678937763
 21
26.3007758176
  0
LINE
  5
393
100
AcDbEntity
  8
0
100
AcDbLine
 62
7
  6
CONTINUOUS
 10
15.5766572316
 20
19.8963940899
 11
17.7536025433
 21
18.807921434
  0
LINE
  5
394
100
AcDbEntity
  8
0
100
AcDbLine
 62
7
  6
CONTINUOUS
 10
18.6326975279
 20
18.3683739418
 11
18.7502909473
 21
18.3095772321
  0
LINE
  5
395
100
AcDbEntity
  8
RACCORDO
100
AcDbLine
 62
7
  6
CONTINUOUS
 10
18.5261536313
 20
18.497647579
 11
17.9215843729
 21
18.7999322081
  0
LINE
  5
396
100
AcDbEntity
  8
RACCORDO
100
AcDbLine
 62
7
  6
CONTINUOUS
 10
12.9718369046
 20
21.2748059423
 11
12.3672676463
 21
21.5770905715
  0
LINE
  5
397
100
AcDbEntity
  8
RACCORDO
100
AcDbLine
 62
7
  6
CONTINUOUS
 10
-3.2007030907
 20
29.5483179308
 11
-3.0202511136
 21
29.4580919422
  0
LINE
  5
398
100
AcDbEntity
  8
RACCORDO
100
AcDbLine
 62
7
  6
CONTINUOUS
 10
2.3537604234
 20
26.7710861737
 11
2.5342124006
 21
26.6808601851
  0
LINE
  5
399
100
AcDbEntity
  8
RACCORDO
100
AcDbLine
 62
253
  6
CONTINUOUS
 10
11.7176906505
 20
22.1921177631
 11
14.8818911654
 21
20.6100175057
  0
LINE
  5
39A
100
AcDbEntity
  8
RACCORDO
100
AcDbLine
 62
253
  6
CONTINUOUS
 10
19.1245318525
 20
18.4886971621
 11
22.2887323674
 21
16.9065969047
  0
LINE
  5
39B
100
AcDbEntity
  8
RACCORDO
100
AcDbLine
 62
253
  6
CONTINUOUS
 10
-4.0132714348
 20
30.1272149551
 11
-1.0341815338
 21
28.6376700047
  0
LINE
  5
39C
100
AcDbEntity
  8
RACCORDO
100
AcDbLine
 62
253
  6
CONTINUOUS
 10
3.2084591533
 20
26.5163496611
 11
6.1875490542
 21
25.0268047106
  0
LINE
  5
39D
100
AcDbEntity
  8
RACCORDO
100
AcDbLine
 62
7
  6
CONTINUOUS
 10
11.9918567876
 20
22.2948344645
 11
15.3167640459
 21
20.6323808353
  0
LINE
  5
39E
100
AcDbEntity
  8
RACCORDO
100
AcDbLine
 62
7
  6
CONTINUOUS
 10
19.5594047331
 20
18.5110604918
 11
22.8843119915
 21
16.8486068626
  0
LINE
  5
39F
100
AcDbEntity
  8
RACCORDO
100
AcDbLine
 62
7
  6
CONTINUOUS
 10
-3.8196284229
 20
30.2762644174
 11
-0.5931385308
 21
28.6630194713
  0
LINE
  5
3A0
100
AcDbEntity
  8
RACCORDO
100
AcDbLine
 62
7
  6
CONTINUOUS
 10
3.6495021564
 20
26.5416991277
 11
6.8759920485
 21
24.9284541816
  0
LINE
  5
3A1
100
AcDbEntity
  8
0
100
AcDbLine
 62
7
  6
CONTINUOUS
 10
9.0074973934
 20
24.2979773114
 11
8.3005284532
 21
24.6514617814
  0
LINE
  5
3A2
100
AcDbEntity
  8
0
100
AcDbLine
 62
7
  6
CONTINUOUS
 10
9.0074973934
 20
24.2979773114
 11
9.1511240208
 21
24.1653357126
  0
LINE
  5
3A3
100
AcDbEntity
  8
ASSI
100
AcDbLine
 62
7
  6
CONTINUOUS
 10
19.1218230874
 20
21.6970312433
 11
19.1052991825
 21
21.7390536039
  0
LWPOLYLINE
  5
3A4
100
AcDbEntity
  8
RACCORDO
100
AcDbPolyline
 62
7
  6
CONTINUOUS
 90
4
 70
0
 10
19.1240711822
 20
21.6905228296
 10
19.1190875344
 20
21.7046493251
 10
19.1137745551
 20
21.7186209915
 10
19.1081425544
 20
21.7324238075
  0
LINE
  5
3A5
100
AcDbEntity
  8
ASSI
100
AcDbLine
 62
7
  6
CONTINUOUS
 10
19.1354395215
 20
21.6530873347
 11
19.1218230874
 21
21.6970312433
  0
LWPOLYLINE
  5
3A6
100
AcDbEntity
  8
RACCORDO
100
AcDbPolyline
 62
7
  6
CONTINUOUS
 90
4
 70
0
 10
19.1369194611
 20
21.6474687948
 10
19.1329912268
 20
21.6619314405
 10
19.1287069887
 20
21.6762831671
 10
19.1240711822
 20
21.6905228296
  0
LINE
  5
3A7
100
AcDbEntity
  8
ASSI
100
AcDbLine
 62
7
  6
CONTINUOUS
 10
19.1457219544
 20
21.6077551455
 11
19.1354395215
 21
21.6530873347
  0
LINE
  5
3A8
100
AcDbEntity
  8
DRAFT
100
AcDbLine
 62
7
  6
CONTINUOUS
 10
18.5111503736
 20
-22.0928902712
 11
22.7097604563
 21
-19.956621941
  0
LINE
  5
3A9
100
AcDbEntity
  8
RACCORDO
100
AcDbLine
 62
253
  6
CONTINUOUS
 10
13.4243867182
 20
-22.6925853908
 11
14.5358412512
 21
-22.1792788551
  0
LINE
  5
3AA
100
AcDbEntity
  8
RACCORDO
100
AcDbLine
 62
7
  6
CONTINUOUS
 10
13.4033634556
 20
-22.9127987375
 11
14.4352974449
 21
-22.4362174241
  0
LINE
  5
3AB
100
AcDbEntity
  8
0
100
AcDbLine
 62
7
  6
CONTINUOUS
 10
-1.6931772852
 20
27.7775971908
 11
-0.3332453451
 21
27.8513453782
  0
LWPOLYLINE
  5
3AC
100
AcDbEntity
  8
ASSI
100
AcDbPolyline
 62
7
  6
CONTINUOUS
 90
6
 70
0
 10
2.8661020566
 20
26.3488302893
 10
2.8469047504
 20
26.3497395875
 10
2.7770292884
 20
26.3554983918
 10
2.7092448359
 20
26.3635028554
 10
2.64475587
 20
26.3734743106
 10
2.6220803662
 20
26.3778353514
  0
LWPOLYLINE
  5
3AD
100
AcDbEntity
  8
RACCORDO
100
AcDbPolyline
 62
7
  6
CONTINUOUS
 90
14
 70
0
 10
2.8657015788
 20
26.3486343308
 10
2.8532911252
 20
26.3493353988
 10
2.8322641677
 20
26.3507426505
 10
2.8113851809
 20
26.3523585918
 10
2.790692417
 20
26.354177417
 10
2.7702043075
 20
26.3561943696
 10
2.7499390934
 20
26.358404295
 10
2.7299337233
 20
26.3607990883
 10
2.7102048757
 20
26.3633722082
 10
2.6907693625
 20
26.3661168843
 10
2.6716629625
 20
26.3690227836
 10
2.652900278
 20
26.372081749
 10
2.6344960734
 20
26.3752854392
 10
2.6220803662
 20
26.3775849737
  0
LINE
  5
3AE
100
AcDbEntity
  8
0
100
AcDbLine
 62
7
  6
CONTINUOUS
 10
9.9522168015
 20
24.4237168516
 11
9.5024721402
 21
24.5454646848
  0
LINE
  5
3AF
100
AcDbEntity
  8
0
100
AcDbLine
 62
7
  6
CONTINUOUS
 10
9.5024721402
 20
24.5454646848
 11
8.7955032001
 21
24.8989491549
  0
LINE
  5
3B0
100
AcDbEntity
  8
DRAFT
100
AcDbLine
 62
7
  6
CONTINUOUS
 10
8.0304265965
 20
25.6236994592
 11
8.4642977496
 21
25.4067638827
  0
LINE
  5
3B1
100
AcDbEntity
  8
ASSI
100
AcDbLine
 62
7
  6
CONTINUOUS
 10
8.0304265965
 20
25.6236994592
 11
8.4642977496
 21
25.4067638827
  0
LINE
  5
3B2
100
AcDbEntity
  8
RACCORDO
100
AcDbLine
 62
253
  6
CONTINUOUS
 10
16.7892705428
 20
25.2911677226
 11
16.4463729668
 21
25.8825785581
  0
LINE
  5
3B3
100
AcDbEntity
  8
ASSI
100
AcDbLine
 62
253
  6
CONTINUOUS
 10
16.7892705428
 20
25.2911677226
 11
16.4463729668
 21
25.8825785581
  0
LINE
  5
3B4
100
AcDbEntity
  8
RACCORDO
100
AcDbLine
 62
7
  6
CONTINUOUS
 10
17.1421137916
 20
25.42426608
 11
16.8790668553
 21
25.8779549344
  0
LINE
  5
3B5
100
AcDbEntity
  8
ASSI
100
AcDbLine
 62
7
  6
CONTINUOUS
 10
17.1421137916
 20
25.42426608
 11
16.8790668553
 21
25.8779549344
  0
LINE
  5
3B6
100
AcDbEntity
  8
ASSI
100
AcDbLine
 62
7
  6
CONTINUOUS
 10
19.1052991825
 20
21.7390536039
 11
19.0992862218
 21
21.7524233067
  0
LWPOLYLINE
  5
3B7
100
AcDbEntity
  8
RACCORDO
100
AcDbPolyline
 62
7
  6
CONTINUOUS
 90
3
 70
0
 10
19.1081425544
 20
21.7324238075
 10
19.1021900648
 20
21.7460712113
 10
19.0992886462
 20
21.7524181735
  0
LINE
  5
3B8
100
AcDbEntity
  8
RACCORDO
100
AcDbLine
 62
7
  6
CONTINUOUS
 10
14.1467013265
 20
-27.5308998833
 11
14.6770314124
 21
-26.8907348403
  0
LINE
  5
3B9
100
AcDbEntity
  8
RACCORDO
100
AcDbLine
 62
253
  6
CONTINUOUS
 10
14.2508320169
 20
-27.5470820503
 11
14.7811621028
 21
-26.9069170073
  0
LINE
  5
3BA
100
AcDbEntity
  8
RACCORDO
100
AcDbLine
 62
253
  6
CONTINUOUS
 10
16.1246649871
 20
-27.5786684495
 11
15.5943349012
 21
-28.2188334924
  0
LINE
  5
3BB
100
AcDbEntity
  8
RACCORDO
100
AcDbLine
 62
253
  6
CONTINUOUS
 10
16.38983003
 20
-27.8103626233
 11
15.8594999441
 21
-28.4505276662
  0
LINE
  5
3BC
100
AcDbEntity
  8
DRAFT
100
AcDbLine
 62
7
  6
CONTINUOUS
 10
18.5111503736
 20
-22.8773290758
 11
23.4435379113
 21
-20.3235106685
  0
LINE
  5
3BD
100
AcDbEntity
  8
RACCORDO
100
AcDbLine
 62
7
  6
CONTINUOUS
 10
18.5111503736
 20
-23.49183893
 11
22.2887323674
 21
-21.5884829521
  0
LINE
  5
3BE
100
AcDbEntity
  8
RACCORDO
100
AcDbLine
 62
7
  6
CONTINUOUS
 10
18.5111503736
 20
-23.3541892477
 11
23.400069679
 21
-20.9292492306
  0
LWPOLYLINE
  5
3BF
100
AcDbEntity
  8
RACCORDO
100
AcDbPolyline
 62
7
  6
CONTINUOUS
 90
7
 70
0
 10
16.5830892333
 20
-26.974033495
 10
16.6093409457
 20
-26.9655927378
 10
16.6376981807
 20
-26.9558483988
 10
16.6666945587
 20
-26.945031084
 10
16.6964227265
 20
-26.9329012702
 10
16.729370538
 20
-26.9181225795
 10
16.7583095508
 20
-26.9039175747
  0
LINE
  5
3C0
100
AcDbEntity
  8
RACCORDO
100
AcDbLine
 62
253
  6
CONTINUOUS
 10
12.9355305127
 20
-27.8132302272
 11
8.845840329
 21
-29.0954938782
  0
LINE
  5
3C1
100
AcDbEntity
  8
RACCORDO
100
AcDbLine
 62
7
  6
CONTINUOUS
 10
8.528783631
 20
-29.5728133477
 11
12.6228878284
 21
-28.2891663242
  0
LINE
  5
3C2
100
AcDbEntity
  8
DRAFT
100
AcDbLine
 62
7
  6
CONTINUOUS
 10
12.0040243163
 20
27.6061632369
 11
15.1133540365
 21
26.0514983767
  0
LINE
  5
3C3
100
AcDbEntity
  8
ASSI
100
AcDbLine
 62
7
  6
CONTINUOUS
 10
12.0040243163
 20
27.6061632369
 11
15.1133540365
 21
26.0514983767
  0
LINE
  5
3C4
100
AcDbEntity
  8
0
100
AcDbLine
 62
253
  6
CONTINUOUS
 10
16.4463729668
 20
25.8825785581
 11
15.6211264991
 21
26.295201792
  0
LINE
  5
3C5
100
AcDbEntity
  8
ASSI
100
AcDbLine
 62
253
  6
CONTINUOUS
 10
16.4463729668
 20
25.8825785581
 11
15.6211264991
 21
26.295201792
  0
LINE
  5
3C6
100
AcDbEntity
  8
RACCORDO
100
AcDbLine
 62
253
  6
CONTINUOUS
 10
10.9606753163
 20
28.6254273834
 11
9.9199088145
 21
29.1458106343
  0
LINE
  5
3C7
100
AcDbEntity
  8
ASSI
100
AcDbLine
 62
253
  6
CONTINUOUS
 10
10.9606753163
 20
28.6254273834
 11
9.9199088145
 21
29.1458106343
  0
LINE
  5
3C8
100
AcDbEntity
  8
RACCORDO
100
AcDbLine
 62
7
  6
CONTINUOUS
 10
16.8151650398
 20
25.9379822915
 11
15.9676174316
 21
26.3617560956
  0
LINE
  5
3C9
100
AcDbEntity
  8
ASSI
100
AcDbLine
 62
7
  6
CONTINUOUS
 10
16.8151650398
 20
25.9379822915
 11
15.9676174316
 21
26.3617560956
  0
LINE
  5
3CA
100
AcDbEntity
  8
RACCORDO
100
AcDbLine
 62
7
  6
CONTINUOUS
 10
11.4839301449
 20
28.603599739
 11
10.3547816951
 21
29.1681739639
  0
LINE
  5
3CB
100
AcDbEntity
  8
ASSI
100
AcDbLine
 62
7
  6
CONTINUOUS
 10
11.4839301449
 20
28.603599739
 11
10.3547816951
 21
29.1681739639
  0
LINE
  5
3CC
100
AcDbEntity
  8
DRAFT
100
AcDbLine
 62
7
  6
CONTINUOUS
 10
16.3528022457
 20
-26.8407219464
 11
16.82044434
 21
-26.5458061291
  0
LWPOLYLINE
  5
3CD
100
AcDbEntity
  8
RACCORDO
100
AcDbPolyline
 62
7
  6
CONTINUOUS
 90
11
 70
0
 10
17.4832655231
 20
-26.5332975381
 10
17.5175901122
 20
-26.5147208865
 10
17.5500441918
 20
-26.4957470381
 10
17.581361181
 20
-26.4762470634
 10
17.6116082237
 20
-26.4564806079
 10
17.640222762
 20
-26.4372053858
 10
17.6669952168
 20
-26.4190321908
 10
17.6922938587
 20
-26.402141056
 10
17.7154011956
 20
-26.3873721013
 10
17.7348935396
 20
-26.3757893797
 10
17.7506010277
 20
-26.3673548705
  0
LINE
  5
3CE
100
AcDbEntity
  8
RACCORDO
100
AcDbLine
 62
253
  6
CONTINUOUS
 10
16.5666067253
 20
-27.0382683775
 11
17.2737135065
 21
-26.6695984573
  0
LINE
  5
3CF
100
AcDbEntity
  8
RACCORDO
100
AcDbLine
 62
7
  6
CONTINUOUS
 10
16.7582194373
 20
-26.9039605265
 11
17.160417397
 21
-26.6983032252
  0
LINE
  5
3D0
100
AcDbEntity
  8
RACCORDO
100
AcDbLine
 62
7
  6
CONTINUOUS
 10
17.160417397
 20
-26.6983032252
 11
17.4773739153
 21
-26.5363313696
  0
LINE
  5
3D1
100
AcDbEntity
  8
RACCORDO
100
AcDbLine
 62
7
  6
CONTINUOUS
 10
17.4832655231
 20
-26.5332975381
 11
17.4773736845
 21
-26.536331105
  0
LINE
  5
3D2
100
AcDbEntity
  8
RACCORDO
100
AcDbLine
 62
253
  6
CONTINUOUS
 10
16.3528022457
 20
-26.8665915843
 11
16.5885545634
 21
-26.7478131984
  0
LINE
  5
3D3
100
AcDbEntity
  8
RACCORDO
100
AcDbLine
 62
253
  6
CONTINUOUS
 10
17.8730386562
 20
-26.1006163968
 11
18.5111503736
 21
-25.7790957158
  0
LWPOLYLINE
  5
3D4
100
AcDbEntity
  8
RACCORDO
100
AcDbPolyline
 62
7
  6
CONTINUOUS
 90
7
 70
0
 10
16.2233064
 20
-27.1368818744
 10
16.4679946113
 20
-27.0135985669
 10
16.4827369701
 20
-27.0068828285
 10
16.4992125184
 20
-27.0004930342
 10
16.516843743
 20
-26.994475566
 10
16.5360685838
 20
-26.9884200585
 10
16.5830892333
 20
-26.974033495
  0
LINE
  5
3D5
100
AcDbEntity
  8
RACCORDO
100
AcDbLine
 62
7
  6
CONTINUOUS
 10
18.3816545279
 20
-26.0493860058
 11
17.7505973052
 21
-26.3673477149
  0
LINE
  5
3D6
100
AcDbEntity
  8
RACCORDO
100
AcDbLine
 62
253
  6
CONTINUOUS
 10
15.8594999441
 20
-28.8018416383
 11
17.9808202877
 21
-27.7411814665
  0
LINE
  5
3D7
100
AcDbEntity
  8
RACCORDO
100
AcDbLine
 62
7
  6
CONTINUOUS
 10
15.7945266477
 20
-28.9370600884
 11
17.9158469912
 21
-27.8763999166
  0
ARC
  5
3D8
100
AcDbEntity
  8
RACCORDO
100
AcDbCircle
 62
253
  6
CONTINUOUS
 10
137.3740643647
 20
-273.5877389489
 40
317.8302276554
100
AcDbArc
 50
111.8526929347
 51
112.2158537885
  0
ARC
  5
3D9
100
AcDbEntity
  8
ASSI
100
AcDbCircle
 62
253
  6
CONTINUOUS
 10
137.3740643647
 20
-273.5877389489
 40
317.8302276554
100
AcDbArc
 50
111.8526929347
 51
112.2158537885
  0
ARC
  5
3DA
100
AcDbEntity
  8
RACCORDO
100
AcDbCircle
 62
253
  6
CONTINUOUS
 10
88.0560458168
 20
-159.5954584913
 40
194.0001804963
100
AcDbArc
 50
110.8483954771
 51
111.304639326
  0
ARC
  5
3DB
100
AcDbEntity
  8
ASSI
100
AcDbCircle
 62
253
  6
CONTINUOUS
 10
88.0560458168
 20
-159.5954584913
 40
194.0001804963
100
AcDbArc
 50
110.8483954771
 51
111.304639326
  0
ARC
  5
3DC
100
AcDbEntity
  8
RACCORDO
100
AcDbCircle
 62
253
  6
CONTINUOUS
 10
-22.1114015544
 20
-13.9967148878
 40
0.5542467718
100
AcDbArc
 50
240.3351075782
 51
243.4185787596
  0
ARC
  5
3DD
100
AcDbEntity
  8
ASSI
100
AcDbCircle
 62
7
  6
CONTINUOUS
 10
-4.159782976
 20
26.2210669049
 40
0.1763008378
100
AcDbArc
 50
63.4249348371
 51
65.3384310309
  0
ARC
  5
3DE
100
AcDbEntity
  8
RACCORDO
100
AcDbCircle
 62
7
  6
CONTINUOUS
 10
-2.8909409688
 20
26.3649099588
 40
0.0983798773
100
AcDbArc
 50
100.7431816813
 51
103.4148416949
  0
ARC
  5
3DF
100
AcDbEntity
  8
ASSI
100
AcDbCircle
 62
7
  6
CONTINUOUS
 10
-2.8916300319
 20
26.395908494
 40
0.0670748293
100
AcDbArc
 50
68.1111482486
 51
72.5327630344
  0
ARC
  5
3E0
100
AcDbEntity
  8
RACCORDO
100
AcDbCircle
 62
7
  6
CONTINUOUS
 10
-2.8915416082
 20
26.3961432798
 40
0.0668240067
100
AcDbArc
 50
68.2650433434
 51
69.9659894202
  0
ARC
  5
3E1
100
AcDbEntity
  8
RACCORDO
100
AcDbCircle
 62
7
  6
CONTINUOUS
 10
-2.8915272386
 20
26.3961912678
 40
0.0667742175
100
AcDbArc
 50
63.4350911688
 51
65.6162999135
  0
ARC
  5
3E2
100
AcDbEntity
  8
ASSI
100
AcDbCircle
 62
7
  6
CONTINUOUS
 10
-2.8915204735
 20
26.3962033723
 40
0.0667603656
100
AcDbArc
 50
63.4356384164
 51
68.1040484866
  0
ARC
  5
3E3
100
AcDbEntity
  8
ASSI
100
AcDbCircle
 62
7
  6
CONTINUOUS
 10
-4.1384996745
 20
26.3315032652
 40
0.0615846267
100
AcDbArc
 50
107.8636254336
 51
111.7003171031
  0
ARC
  5
3E4
100
AcDbEntity
  8
ASSI
100
AcDbCircle
 62
7
  6
CONTINUOUS
 10
-4.1392402186
 20
26.3333642149
 40
0.0595817439
100
AcDbArc
 50
111.7003435371
 51
116.5525864332
  0
ARC
  5
3E5
100
AcDbEntity
  8
RACCORDO
100
AcDbCircle
 62
7
  6
CONTINUOUS
 10
-4.1397442569
 20
26.334459403
 40
0.0583767695
100
AcDbArc
 50
116.5905652311
 51
130.3803902664
  0
ARC
  5
3E6
100
AcDbEntity
  8
ASSI
100
AcDbCircle
 62
7
  6
CONTINUOUS
 10
-4.1397442569
 20
26.334459403
 40
0.0583767695
100
AcDbArc
 50
116.5905652311
 51
130.3803902664
  0
ARC
  5
3E7
100
AcDbEntity
  8
RACCORDO
100
AcDbCircle
 62
7
  6
CONTINUOUS
 10
14.300460605
 20
-26.5791382771
 40
0.4887719215
100
AcDbArc
 50
320.3936685087
 51
323.7163003819
  0
ARC
  5
3E8
100
AcDbEntity
  8
RACCORDO
100
AcDbCircle
 62
253
  6
CONTINUOUS
 10
16.4385113997
 20
-26.79961202
 40
0.2708602397
100
AcDbArc
 50
293.6002453934
 51
298.2240318782
  0
ARC
  5
3E9
100
AcDbEntity
  8
RACCORDO
100
AcDbCircle
 62
253
  6
CONTINUOUS
 10
17.7461217234
 20
-27.2677492148
 40
0.2545625773
100
AcDbArc
 50
15.3325754149
 51
22.1675191901
  0
ARC
  5
3EA
100
AcDbEntity
  8
RACCORDO
100
AcDbCircle
 62
7
  6
CONTINUOUS
 10
17.6000123569
 20
-26.9053175743
 40
0.2530757062
100
AcDbArc
 50
179.9354682628
 51
183.4670878419
  0
ARC
  5
3EB
100
AcDbEntity
  8
RACCORDO
100
AcDbCircle
 62
7
  6
CONTINUOUS
 10
14.339678499
 20
-27.6905292596
 40
0.2504581744
100
AcDbArc
 50
140.4088461827
 51
179.9676566387
  0
ARC
  5
3EC
100
AcDbEntity
  8
RACCORDO
100
AcDbCircle
 62
7
  6
CONTINUOUS
 10
17.8036480167
 20
-27.3015603843
 40
0.2503955888
100
AcDbArc
 50
0.0185888359
 51
31.1756305543
  0
ARC
  5
3ED
100
AcDbEntity
  8
RACCORDO
100
AcDbCircle
 62
7
  6
CONTINUOUS
 10
17.8038871865
 20
-27.6526578554
 40
0.2501909427
100
AcDbArc
 50
296.5832348851
 51
335.1106974808
  0
ARC
  5
3EE
100
AcDbEntity
  8
RACCORDO
100
AcDbCircle
 62
7
  6
CONTINUOUS
 10
15.6827324436
 20
-28.7134930135
 40
0.2499603589
100
AcDbArc
 50
243.3875827835
 51
296.5672380434
  0
ARC
  5
3EF
100
AcDbEntity
  8
RACCORDO
100
AcDbCircle
 62
7
  6
CONTINUOUS
 10
14.3390397478
 20
-28.0418220044
 40
0.2497797854
100
AcDbArc
 50
203.1280930178
 51
243.5069905752
  0
ARC
  5
3F0
100
AcDbEntity
  8
RACCORDO
100
AcDbCircle
 62
253
  6
CONTINUOUS
 10
17.819988845
 20
-27.2142325859
 40
0.1615955287
100
AcDbArc
 50
54.7743887864
 51
63.3654056722
  0
ARC
  5
3F1
100
AcDbEntity
  8
RACCORDO
100
AcDbCircle
 62
253
  6
CONTINUOUS
 10
17.381692302
 20
-26.8652952458
 40
0.0966608047
100
AcDbArc
 50
252.9126992436
 51
258.3067403992
  0
ARC
  5
3F2
100
AcDbEntity
  8
RACCORDO
100
AcDbCircle
 62
253
  6
CONTINUOUS
 10
17.8729840179
 20
-27.163750947
 40
0.0959574173
100
AcDbArc
 50
63.6881410672
 51
78.3067213547
  0
ARC
  5
3F3
100
AcDbEntity
  8
RACCORDO
100
AcDbCircle
 62
253
  6
CONTINUOUS
 10
17.381280037
 20
-26.8666802259
 40
0.0952158258
100
AcDbArc
 50
247.5596579396
 51
252.9049489502
  0
ARC
  5
3F4
100
AcDbEntity
  8
RACCORDO
100
AcDbCircle
 62
253
  6
CONTINUOUS
 10
17.3811082071
 20
-26.8671236695
 40
0.0947403703
100
AcDbArc
 50
243.4068675936
 51
247.5533361263
  0
ARC
  5
3F5
100
AcDbEntity
  8
RACCORDO
100
AcDbCircle
 62
253
  6
CONTINUOUS
 10
4.7062847167
 20
19.4437686412
 40
0.8017355635
100
AcDbArc
 50
144.2116629304
 51
156.1226671814
  0
ARC
  5
3F6
100
AcDbEntity
  8
RACCORDO
100
AcDbCircle
 62
253
  6
CONTINUOUS
 10
4.6997125258
 20
19.4453074412
 40
0.7951039714
100
AcDbArc
 50
156.0323613519
 51
162.2282308085
  0
ARC
  5
3F7
100
AcDbEntity
  8
RACCORDO
100
AcDbCircle
 62
253
  6
CONTINUOUS
 10
4.6592164772
 20
19.477415789
 40
0.7438780477
100
AcDbArc
 50
140.3850856483
 51
144.1938577794
  0
ARC
  5
3F8
100
AcDbEntity
  8
RACCORDO
100
AcDbCircle
 62
7
  6
CONTINUOUS
 10
0.9771386892
 20
20.2920376035
 40
0.2523005544
100
AcDbArc
 50
187.0477626106
 51
205.783027557
  0
ARC
  5
3F9
100
AcDbEntity
  8
RACCORDO
100
AcDbCircle
 62
7
  6
CONTINUOUS
 10
4.4394428529
 20
20.6804028748
 40
0.2502934088
100
AcDbArc
 50
320.3810517606
 51
359.9702670056
  0
ARC
  5
3FA
100
AcDbEntity
  8
RACCORDO
100
AcDbCircle
 62
7
  6
CONTINUOUS
 10
0.9749225663
 20
20.6426803845
 40
0.2500170981
100
AcDbArc
 50
116.5683102187
 51
179.9930719068
  0
ARC
  5
3FB
100
AcDbEntity
  8
RACCORDO
100
AcDbCircle
 62
7
  6
CONTINUOUS
 10
2.3184050844
 20
19.619623903
 40
0.25
100
AcDbArc
 50
244.0406531095
 51
258.6758098606
  0
ARC
  5
3FC
100
AcDbEntity
  8
RACCORDO
100
AcDbCircle
 62
7
  6
CONTINUOUS
 10
0.9748720795
 20
20.2913442889
 40
0.2499582854
100
AcDbArc
 50
205.8659142581
 51
243.4654847495
  0
ARC
  5
3FD
100
AcDbEntity
  8
RACCORDO
100
AcDbCircle
 62
7
  6
CONTINUOUS
 10
0.9743938895
 20
20.2913694363
 40
0.2494947253
100
AcDbArc
 50
179.9936401235
 51
186.972819303
  0
ARC
  5
3FE
100
AcDbEntity
  8
RACCORDO
100
AcDbCircle
 62
253
  6
CONTINUOUS
 10
1.6082744999
 20
19.7113910842
 40
0.231008612
100
AcDbArc
 50
238.508485994
 51
243.5092350169
  0
ARC
  5
3FF
100
AcDbEntity
  8
RACCORDO
100
AcDbCircle
 62
253
  6
CONTINUOUS
 10
3.9244036025
 20
19.2481010945
 40
0.0582038063
100
AcDbArc
 50
354.0335822806
 51
0.006247795
  0
ARC
  5
400
100
AcDbEntity
  8
0
100
AcDbCircle
 62
253
  6
CONTINUOUS
 10
9.7301098572
 20
20.9912151129
 40
4.5814520367
100
AcDbArc
 50
106.0004233171
 51
106.3315137939
  0
ARC
  5
401
100
AcDbEntity
  8
ASSI
100
AcDbCircle
 62
253
  6
CONTINUOUS
 10
3.3362437483
 20
27.8540755741
 40
1.5876791897
100
AcDbArc
 50
292.8106207021
 51
294.7757785449
  0
ARC
  5
402
100
AcDbEntity
  8
RACCORDO
100
AcDbCircle
 62
253
  6
CONTINUOUS
 10
3.3404576128
 20
27.8445183924
 40
1.5772358147
100
AcDbArc
 50
292.8041140934
 51
294.7822851535
  0
ARC
  5
403
100
AcDbEntity
  8
ASSI
100
AcDbCircle
 62
7
  6
CONTINUOUS
 10
9.9063009439
 20
28.2710509009
 40
1.0029664321
100
AcDbArc
 50
63.4378149006
 51
67.4407352771
  0
ARC
  5
404
100
AcDbEntity
  8
RACCORDO
100
AcDbCircle
 62
7
  6
CONTINUOUS
 10
9.9073898005
 20
28.2733582127
 40
1.0004272256
100
AcDbArc
 50
63.4355951231
 51
67.4476294537
  0
ARC
  5
405
100
AcDbEntity
  8
RACCORDO
100
AcDbCircle
 62
7
  6
CONTINUOUS
 10
9.9075680962
 20
28.27374671
 40
1.0000000557
100
AcDbArc
 50
67.4485268094
 51
114.7890561381
  0
ARC
  5
406
100
AcDbEntity
  8
ASSI
100
AcDbCircle
 62
7
  6
CONTINUOUS
 10
9.9075783442
 20
28.27392199
 40
0.9998249722
100
AcDbArc
 50
67.4452163858
 51
110.2991468557
  0
ARC
  5
407
100
AcDbEntity
  8
ASSI
100
AcDbCircle
 62
7
  6
CONTINUOUS
 10
9.9065626195
 20
28.2756963693
 40
0.9978084724
100
AcDbArc
 50
110.2797916615
 51
114.7835793166
  0
ARC
  5
408
100
AcDbEntity
  8
ASSI
100
AcDbCircle
 62
7
  6
CONTINUOUS
 10
7.6835172435
 20
24.9341731044
 40
0.69049092
100
AcDbArc
 50
180.007060984
 51
185.6695088044
  0
ARC
  5
409
100
AcDbEntity
  8
0
100
AcDbCircle
 62
7
  6
CONTINUOUS
 10
7.6835075859
 20
24.9341726256
 40
0.6904812624
100
AcDbArc
 50
180.0070213521
 51
185.6695484363
  0
ARC
  5
40A
100
AcDbEntity
  8
RACCORDO
100
AcDbCircle
 62
253
  6
CONTINUOUS
 10
9.6446989274
 20
28.8428949054
 40
0.3730791088
100
AcDbArc
 50
110.6649329103
 51
114.7865894952
  0
ARC
  5
40B
100
AcDbEntity
  8
ASSI
100
AcDbCircle
 62
253
  6
CONTINUOUS
 10
9.6443495625
 20
28.8436927223
 40
0.3722083231
100
AcDbArc
 50
114.1358837686
 51
114.7892520316
  0
ARC
  5
40C
100
AcDbEntity
  8
RACCORDO
100
AcDbCircle
 62
7
  6
CONTINUOUS
 10
3.0967325566
 20
21.7023220916
 40
0.2511387701
100
AcDbArc
 50
114.1902932229
 51
116.6055136859
  0
ARC
  5
40D
100
AcDbEntity
  8
RACCORDO
100
AcDbCircle
 62
7
  6
CONTINUOUS
 10
3.0964322894
 20
21.7026730714
 40
0.2506956038
100
AcDbArc
 50
99.5619255304
 51
114.1605637589
  0
ARC
  5
40E
100
AcDbEntity
  8
RACCORDO
100
AcDbCircle
 62
7
  6
CONTINUOUS
 10
3.0962068255
 20
21.7031764113
 40
0.2501618428
100
AcDbArc
 50
63.4494567892
 51
99.5301538431
  0
ARC
  5
40F
100
AcDbEntity
  8
RACCORDO
100
AcDbCircle
 62
7
  6
CONTINUOUS
 10
4.4396890184
 20
21.031576533
 40
0.2500364105
100
AcDbArc
 50
0.004929906
 51
63.425592354
  0
ARC
  5
410
100
AcDbEntity
  8
RACCORDO
100
AcDbCircle
 62
253
  6
CONTINUOUS
 10
3.1659167777
 20
21.8426414416
 40
0.0942397596
100
AcDbArc
 50
63.4611905186
 51
67.3721313171
  0
ARC
  5
411
100
AcDbEntity
  8
ASSI
100
AcDbCircle
 62
7
  6
CONTINUOUS
 10
14.8797185811
 20
19.7948771097
 40
4.6515307795
100
AcDbArc
 50
24.887505807
 51
27.2247876819
  0
ARC
  5
412
100
AcDbEntity
  8
RACCORDO
100
AcDbCircle
 62
7
  6
CONTINUOUS
 10
15.1808931834
 20
19.9299483881
 40
4.2167211236
100
AcDbArc
 50
18.7286802305
 51
19.4517800697
  0
ARC
  5
413
100
AcDbEntity
  8
ASSI
100
AcDbCircle
 62
7
  6
CONTINUOUS
 10
15.2021336578
 20
19.9376254168
 40
4.1941344272
100
AcDbArc
 50
17.8368847639
 51
19.4490039565
  0
ARC
  5
414
100
AcDbEntity
  8
RACCORDO
100
AcDbCircle
 62
7
  6
CONTINUOUS
 10
15.2127158671
 20
19.9407423762
 40
4.1831176511
100
AcDbArc
 50
17.8406291584
 51
18.7286173614
  0
ARC
  5
415
100
AcDbEntity
  8
RACCORDO
100
AcDbCircle
 62
7
  6
CONTINUOUS
 10
17.6627065804
 20
19.8806637895
 40
1.6795274221
100
AcDbArc
 50
332.6884323552
 51
334.3034685197
  0
ARC
  5
416
100
AcDbEntity
  8
ASSI
100
AcDbCircle
 62
7
  6
CONTINUOUS
 10
17.6635791158
 20
19.8799833391
 40
1.6784327993
100
AcDbArc
 50
332.7227305882
 51
334.4089349285
  0
ARC
  5
417
100
AcDbEntity
  8
ASSI
100
AcDbCircle
 62
253
  6
CONTINUOUS
 10
17.5979181638
 20
19.7942106262
 40
1.6630000196
100
AcDbArc
 50
336.3777791959
 51
337.8404132329
  0
ARC
  5
418
100
AcDbEntity
  8
RACCORDO
100
AcDbCircle
 62
7
  6
CONTINUOUS
 10
17.6985811662
 20
19.8622597057
 40
1.6392076466
100
AcDbArc
 50
331.5829247965
 51
332.6846637898
  0
ARC
  5
419
100
AcDbEntity
  8
ASSI
100
AcDbCircle
 62
7
  6
CONTINUOUS
 10
17.7000421931
 20
19.86125915
 40
1.6374432104
100
AcDbArc
 50
331.58913645
 51
332.7203205635
  0
ARC
  5
41A
100
AcDbEntity
  8
RACCORDO
100
AcDbCircle
 62
253
  6
CONTINUOUS
 10
17.7019297609
 20
19.7472534426
 40
1.5488884592
100
AcDbArc
 50
331.8147600594
 51
336.4275185941
  0
ARC
  5
41B
100
AcDbEntity
  8
ASSI
100
AcDbCircle
 62
253
  6
CONTINUOUS
 10
17.7019297609
 20
19.7472534426
 40
1.5488884592
100
AcDbArc
 50
331.8147600594
 51
336.4275185941
  0
ARC
  5
41C
100
AcDbEntity
  8
RACCORDO
100
AcDbCircle
 62
7
  6
CONTINUOUS
 10
17.9594952156
 20
19.6262793163
 40
1.4473160434
100
AcDbArc
 50
317.7143221135
 51
319.133583911
  0
ARC
  5
41D
100
AcDbEntity
  8
ASSI
100
AcDbCircle
 62
7
  6
CONTINUOUS
 10
17.960829503
 20
19.6251012307
 40
1.4455361871
100
AcDbArc
 50
317.4305436193
 51
319.1342930419
  0
ARC
  5
41E
100
AcDbEntity
  8
ASSI
100
AcDbCircle
 62
7
  6
CONTINUOUS
 10
17.9796247998
 20
19.607808354
 40
1.4199958989
100
AcDbArc
 50
315.3304186024
 51
317.4313815363
  0
ARC
  5
41F
100
AcDbEntity
  8
ASSI
100
AcDbCircle
 62
7
  6
CONTINUOUS
 10
18.0036748158
 20
19.583865357
 40
1.386059847
100
AcDbArc
 50
311.4703092941
 51
315.335380411
  0
ARC
  5
420
100
AcDbEntity
  8
ASSI
100
AcDbCircle
 62
7
  6
CONTINUOUS
 10
18.0331903672
 20
19.5502562305
 40
1.3413304317
100
AcDbArc
 50
303.4469259833
 51
311.4763348125
  0
ARC
  5
421
100
AcDbEntity
  8
ASSI
100
AcDbCircle
 62
7
  6
CONTINUOUS
 10
18.0501631843
 20
19.526119834
 40
1.3118365715
100
AcDbArc
 50
301.6279399928
 51
303.4094107849
  0
ARC
  5
422
100
AcDbEntity
  8
RACCORDO
100
AcDbCircle
 62
253
  6
CONTINUOUS
 10
18.1486635822
 20
19.3661975625
 40
1.124013608
100
AcDbArc
 50
301.6275916352
 51
303.0058720282
  0
ARC
  5
423
100
AcDbEntity
  8
ASSI
100
AcDbCircle
 62
253
  6
CONTINUOUS
 10
18.149038022
 20
19.3655996772
 40
1.1233081691
100
AcDbArc
 50
301.6273214339
 51
302.6499075255
  0
ARC
  5
424
100
AcDbEntity
  8
RACCORDO
100
AcDbCircle
 62
253
  6
CONTINUOUS
 10
18.0706028811
 20
12.7616095589
 40
0.8017355635
100
AcDbArc
 50
144.2116629304
 51
156.1226671814
  0
ARC
  5
425
100
AcDbEntity
  8
RACCORDO
100
AcDbCircle
 62
253
  6
CONTINUOUS
 10
18.0640306902
 20
12.763148359
 40
0.7951039714
100
AcDbArc
 50
156.0323613519
 51
162.2282308085
  0
ARC
  5
426
100
AcDbEntity
  8
RACCORDO
100
AcDbCircle
 62
253
  6
CONTINUOUS
 10
18.0235346417
 20
12.7952567068
 40
0.7438780477
100
AcDbArc
 50
140.3850856483
 51
144.1938577794
  0
ARC
  5
427
100
AcDbEntity
  8
RACCORDO
100
AcDbCircle
 62
7
  6
CONTINUOUS
 10
16.4600306952
 20
15.0201630094
 40
0.2511387701
100
AcDbArc
 50
63.3944863141
 51
65.8097067772
  0
ARC
  5
428
100
AcDbEntity
  8
RACCORDO
100
AcDbCircle
 62
7
  6
CONTINUOUS
 10
15.6830736395
 20
12.9384742317
 40
0.2510595334
100
AcDbArc
 50
243.4644878161
 51
258.2674958925
  0
ARC
  5
429
100
AcDbEntity
  8
RACCORDO
100
AcDbCircle
 62
7
  6
CONTINUOUS
 10
16.4603309624
 20
15.0205139892
 40
0.2506956038
100
AcDbArc
 50
65.8394362411
 51
80.4380744697
  0
ARC
  5
42A
100
AcDbEntity
  8
RACCORDO
100
AcDbCircle
 62
7
  6
CONTINUOUS
 10
17.8035854579
 20
13.9982663757
 40
0.2504581744
100
AcDbArc
 50
320.4088461827
 51
359.9676566386
  0
ARC
  5
42B
100
AcDbEntity
  8
RACCORDO
100
AcDbCircle
 62
7
  6
CONTINUOUS
 10
16.4605564263
 20
15.0210173291
 40
0.2501618428
100
AcDbArc
 50
80.4698461569
 51
116.5505432108
  0
ARC
  5
42C
100
AcDbEntity
  8
RACCORDO
100
AcDbCircle
 62
7
  6
CONTINUOUS
 10
17.8040071828
 20
14.3494174507
 40
0.2500364105
100
AcDbArc
 50
0.004929906
 51
63.425592354
  0
ARC
  5
42D
100
AcDbEntity
  8
RACCORDO
100
AcDbCircle
 62
7
  6
CONTINUOUS
 10
14.3390369041
 20
13.9606452886
 40
0.2497830833
100
AcDbArc
 50
116.4919035483
 51
179.9941727574
  0
ARC
  5
42E
100
AcDbEntity
  8
RACCORDO
100
AcDbCircle
 62
253
  6
CONTINUOUS
 10
14.9725926643
 20
13.029232002
 40
0.231008612
100
AcDbArc
 50
238.5084859942
 51
243.5092350168
  0
ARC
  5
42F
100
AcDbEntity
  8
RACCORDO
100
AcDbCircle
 62
253
  6
CONTINUOUS
 10
18.8597502851
 20
18.7716262186
 40
0.1988461155
100
AcDbArc
 50
319.998146157
 51
322.6992492059
  0
ARC
  5
430
100
AcDbEntity
  8
ASSI
100
AcDbCircle
 62
253
  6
CONTINUOUS
 10
18.8597502851
 20
18.7716262186
 40
0.1988461155
100
AcDbArc
 50
319.998146157
 51
322.6992492059
  0
ARC
  5
431
100
AcDbEntity
  8
RACCORDO
100
AcDbCircle
 62
253
  6
CONTINUOUS
 10
18.9153888431
 20
18.8014073105
 40
0.1848938118
100
AcDbArc
 50
301.5274121944
 51
304.3139606826
  0
ARC
  5
432
100
AcDbEntity
  8
RACCORDO
100
AcDbCircle
 62
253
  6
CONTINUOUS
 10
18.9209315948
 20
18.7944450089
 40
0.175974903
100
AcDbArc
 50
318.2177617134
 51
319.1330649362
  0
ARC
  5
433
100
AcDbEntity
  8
RACCORDO
100
AcDbCircle
 62
7
  6
CONTINUOUS
 10
19.0210019201
 20
19.1126501934
 40
0.1073980331
100
AcDbArc
 50
295.4533439597
 51
297.6226396588
  0
ARC
  5
434
100
AcDbEntity
  8
ASSI
100
AcDbCircle
 62
7
  6
CONTINUOUS
 10
19.0210019201
 20
19.1126501934
 40
0.1073980331
100
AcDbArc
 50
295.4533439597
 51
297.6226396588
  0
ARC
  5
435
100
AcDbEntity
  8
RACCORDO
100
AcDbCircle
 62
253
  6
CONTINUOUS
 10
16.3908464741
 20
15.1604823594
 40
0.0942397596
100
AcDbArc
 50
112.6278686832
 51
116.538809481
  0
ARC
  5
436
100
AcDbEntity
  8
RACCORDO
100
AcDbCircle
 62
253
  6
CONTINUOUS
 10
19.0797865902
 20
18.9652833944
 40
0.075208067
100
AcDbArc
 50
355.5082195122
 51
359.9926751094
  0
ARC
  5
437
100
AcDbEntity
  8
RACCORDO
100
AcDbCircle
 62
253
  6
CONTINUOUS
 10
17.2887217669
 20
12.5659420123
 40
0.0582038063
100
AcDbArc
 50
354.0335822805
 51
0.0062477951
  0
ARC
  5
438
100
AcDbEntity
  8
0
100
AcDbCircle
 62
7
  6
CONTINUOUS
 10
10.4199550048
 20
21.1352132756
 40
4.4493422647
100
AcDbArc
 50
71.1365540201
 51
72.1042384717
  0
ARC
  5
439
100
AcDbEntity
  8
0
100
AcDbCircle
 62
253
  6
CONTINUOUS
 10
11.4093934527
 20
23.274051557
 40
2.0389120949
100
AcDbArc
 50
51.8696548059
 51
53.4190508445
  0
ARC
  5
43A
100
AcDbEntity
  8
RACCORDO
100
AcDbCircle
 62
253
  6
CONTINUOUS
 10
15.9316010887
 20
21.5480079289
 40
1.5524803188
100
AcDbArc
 50
359.1065139057
 51
359.9939713681
  0
ARC
  5
43B
100
AcDbEntity
  8
RACCORDO
100
AcDbCircle
 62
253
  6
CONTINUOUS
 10
10.1868171926
 20
28.8322177941
 40
0.3756043082
100
AcDbArc
 50
63.4368019994
 51
67.3839912959
  0
ARC
  5
43C
100
AcDbEntity
  8
ASSI
100
AcDbCircle
 62
253
  6
CONTINUOUS
 10
10.1868171926
 20
28.8322177941
 40
0.3756043082
100
AcDbArc
 50
63.4368019994
 51
67.3839912959
  0
ARC
  5
43D
100
AcDbEntity
  8
RACCORDO
100
AcDbCircle
 62
7
  6
CONTINUOUS
 10
19.1220466006
 20
21.1480717371
 40
0.1123339573
100
AcDbArc
 50
117.1440294401
 51
119.249314977
  0
ARC
  5
43E
100
AcDbEntity
  8
ASSI
100
AcDbCircle
 62
7
  6
CONTINUOUS
 10
19.1220466006
 20
21.1480717371
 40
0.1123339573
100
AcDbArc
 50
117.1440294401
 51
119.249314977
  0
ARC
  5
43F
100
AcDbEntity
  8
RACCORDO
100
AcDbCircle
 62
253
  6
CONTINUOUS
 10
348.9421622019
 20
-30.557660286
 40
372.0719347785
100
AcDbArc
 50
171.7036734613
 51
177.3895883227
  0
ARC
  5
440
100
AcDbEntity
  8
RACCORDO
100
AcDbCircle
 62
253
  6
CONTINUOUS
 10
365.1597954692
 20
-44.2560631379
 40
358.209451887
100
AcDbArc
 50
171.5935570743
 51
177.4997047097
  0
ARC
  5
441
100
AcDbEntity
  8
RACCORDO
100
AcDbCircle
 62
253
  6
CONTINUOUS
 10
365.308396759
 20
-44.2540870211
 40
357.2364342976
100
AcDbArc
 50
171.5934098642
 51
177.4998519198
  0
SPLINE
  5
442
100
AcDbEntity
  8
0
100
AcDbSpline
 62
7
  6
CONTINUOUS
 70
0
 71
3
 72
11
 73
7
 74
5
 42
0.0000001
 43
0.0000001
 44
0.0000000001
 12
-0.0872758795
 22
0.0636482074
 32
0.0
 13
-0.0966154167
 23
-0.0483077084
 33
0.0
 40
0.0
 40
0.0
 40
0.0
 40
0.0
 40
0.2285353333
 40
0.4641485023
 40
0.7190045406
 40
1.0
 40
1.0
 40
1.0
 40
1.0
 10
12.7273572533
 20
24.9107434404
 30
0.0
 10
12.7207087126
 20
24.9155920618
 30
0.0
 10
12.705473832
 20
24.9232897795
 30
0.0
 10
12.6794482624
 20
24.9269663396
 30
0.0
 10
12.6516563571
 20
24.9229676064
 30
0.0
 10
12.6335487315
 20
24.9158546792
 30
0.0
 10
12.6244992337
 20
24.9113299303
 30
0.0
 11
12.7273572533
 21
24.9107434404
 31
0.0
 11
12.7053265596
 21
24.9218815977
 31
0.0
 11
12.6801642366
 21
24.9257025146
 31
0.0
 11
12.6528686453
 21
24.9221223977
 31
0.0
 11
12.6244992337
 21
24.9113299303
 31
0.0
  0
SPLINE
  5
443
100
AcDbEntity
  8
0
100
AcDbSpline
 62
7
  6
CONTINUOUS
 70
0
 71
3
 72
11
 73
7
 74
5
 42
0.0000001
 43
0.0000001
 44
0.0000000001
 12
0.1140608436
 22
-0.0389453569
 32
0.0
 13
0.0090568771
 23
-0.1201856474
 33
0.0
 40
0.0
 40
0.0
 40
0.0
 40
0.0
 40
0.2226124468
 40
0.4556457327
 40
0.7125887961
 40
1.0
 40
1.0
 40
1.0
 40
1.0
 10
11.8584812517
 20
25.3455923708
 30
0.0
 10
11.8669450395
 20
25.3427024637
 30
0.0
 10
11.8833586984
 20
25.3335990511
 30
0.0
 10
11.9023080865
 20
25.3114667421
 30
0.0
 10
11.9148214447
 20
25.2824453695
 30
0.0
 10
11.9184804189
 20
25.2606874722
 30
0.0
 10
11.9193481015
 20
25.2491732383
 30
0.0
 11
11.8584812517
 21
25.3455923708
 31
0.0
 11
11.8819576396
 21
25.332602197
 31
0.0
 11
11.9005090291
 21
25.3115141248
 31
0.0
 11
11.9131940009
 21
25.2832628429
 31
0.0
 11
11.9193481015
 21
25.2491732383
 31
0.0
  0
SPLINE
  5
444
100
AcDbEntity
  8
0
100
AcDbSpline
 62
7
  6
CONTINUOUS
 70
0
 71
3
 72
11
 73
7
 74
5
 42
0.0000001
 43
0.0000001
 44
0.0000000001
 12
1.0752130812
 22
0.9777433714
 32
0.0
 13
1.3985979266
 23
0.3949545669
 33
0.0
 40
0.0
 40
0.0
 40
0.0
 40
0.0
 40
0.2234176162
 40
0.4648000916
 40
0.724127395
 40
1.0
 40
1.0
 40
1.0
 40
1.0
 10
7.1459163215
 20
24.7657808797
 30
0.0
 10
7.2259901693
 20
24.8385959108
 30
0.0
 10
7.4053866511
 20
24.9762716479
 30
0.0
 10
7.7100753728
 20
25.1516543848
 30
0.0
 10
8.0554432837
 20
25.3024555532
 30
0.0
 10
8.3022262811
 20
25.3832318401
 30
0.0
 10
8.4308378988
 20
25.4195508885
 30
0.0
 11
7.1459163215
 21
24.7657808797
 31
0.0
 11
7.402190267
 21
24.9651506707
 31
0.0
 11
7.7053130549
 21
25.141721091
 31
0.0
 11
8.0501428999
 21
25.2938070564
 31
0.0
 11
8.4308378988
 21
25.4195508885
 31
0.0
  0
SPLINE
  5
445
100
AcDbEntity
  8
0
100
AcDbSpline
 62
7
  6
CONTINUOUS
 70
0
 71
3
 72
15
 73
11
 74
9
 42
0.0000001
 43
0.0000001
 44
0.0000000001
 12
3.1544971467
 22
0.7897358599
 32
0.0
 13
3.094493401
 23
-0.9993225545
 33
0.0
 40
0.0
 40
0.0
 40
0.0
 40
0.0
 40
0.1219898603
 40
0.2477521821
 40
0.3758888614
 40
0.5049073907
 40
0.6332810199
 40
0.7595076857
 40
0.88217006
 40
1.0
 40
1.0
 40
1.0
 40
1.0
 10
8.5745928984
 20
25.457814251
 30
0.0
 10
8.7028651205
 20
25.4899275067
 30
0.0
 10
8.9659812332
 20
25.5450877733
 30
0.0
 10
9.3699285061
 20
25.6005741174
 30
0.0
 10
9.7842807087
 20
25.6295822942
 30
0.0
 10
10.2024596216
 20
25.6316826094
 30
0.0
 10
10.617835886
 20
25.60684668
 30
0.0
 10
11.0238456992
 20
25.5554326227
 30
0.0
 10
11.4140970931
 20
25.4781842812
 30
0.0
 10
11.6656352579
 20
25.4085336667
 30
0.0
 10
11.7871765818
 20
25.3692836278
 30
0.0
 11
8.5745928984
 21
25.457814251
 31
0.0
 11
8.9627335967
 21
25.5397411436
 31
0.0
 11
9.3678408128
 21
25.5957473694
 31
0.0
 11
9.7834922498
 21
25.6250264324
 31
0.0
 11
10.2030359256
 21
25.6271469344
 31
0.0
 11
10.6197343771
 21
25.6020769913
 31
0.0
 11
11.0269115167
 21
25.5501862132
 31
0.0
 11
11.4180984662
 21
25.4722257246
 31
0.0
 11
11.7871765818
 21
25.3692836278
 31
0.0
  0
LINE
  5
446
100
AcDbEntity
  8
0
100
AcDbLine
 62
7
  6
CONTINUOUS
 10
11.9193481015
 20
25.2491732383
 11
11.9694698851
 21
24.5838152664
  0
SPLINE
  5
447
100
AcDbEntity
  8
0
100
AcDbSpline
 62
253
  6
CONTINUOUS
 70
0
 71
3
 72
15
 73
11
 74
9
 42
0.0000001
 43
0.0000001
 44
0.0000000001
 12
-3.1791212717
 22
1.0705229876
 32
0.0
 13
-3.224563744
 23
-0.9246730169
 33
0.0
 40
0.0
 40
0.0
 40
0.0
 40
0.0
 40
0.1170900879
 40
0.2399506114
 40
0.3669344237
 40
0.4962719464
 40
0.6260952267
 40
0.7545266149
 40
0.8797338832
 40
1.0
 40
1.0
 40
1.0
 40
1.0
 10
11.7759710963
 20
25.335593999
 30
0.0
 10
11.6518898999
 20
25.3773765426
 30
0.0
 10
11.3935353388
 20
25.4512118342
 30
0.0
 10
10.9908643419
 20
25.5318958892
 30
0.0
 10
10.5697169364
 20
25.5840909718
 30
0.0
 10
10.1381878792
 20
25.6067941553
 30
0.0
 10
9.7045070629
 20
25.5995603652
 30
0.0
 10
9.2769651047
 20
25.5625327549
 30
0.0
 10
8.8637693118
 20
25.4964305511
 30
0.0
 10
8.5965265809
 20
25.4322490817
 30
0.0
 10
8.4672579943
 20
25.3951801373
 30
0.0
 11
11.7759710963
 21
25.335593999
 31
0.0
 11
11.3985660018
 21
25.4444182277
 31
0.0
 11
10.9945867757
 21
25.526020885
 31
0.0
 11
10.5718996927
 21
25.5788061524
 31
0.0
 11
10.1386417916
 21
25.6017658768
 31
0.0
 11
9.7032079202
 21
25.5944506506
 31
0.0
 11
9.2740122181
 21
25.5570040769
 31
0.0
 11
8.8593562852
 21
25.4901495922
 31
0.0
 11
8.4672579943
 21
25.3951801373
 31
0.0
  0
SPLINE
  5
448
100
AcDbEntity
  8
0
100
AcDbSpline
 62
253
  6
CONTINUOUS
 70
0
 71
3
 72
11
 73
7
 74
5
 42
0.0000001
 43
0.0000001
 44
0.0000000001
 12
-1.3528763699
 22
-0.3964243912
 32
0.0
 13
-0.9867821579
 23
-1.0068206111
 33
0.0
 40
0.0
 40
0.0
 40
0.0
 40
0.0
 40
0.2828605436
 40
0.5450733136
 40
0.7843632613
 40
1.0
 40
1.0
 40
1.0
 40
1.0
 10
8.441830385
 20
25.3878091089
 30
0.0
 10
8.3142719365
 20
25.3504315026
 30
0.0
 10
8.0713978436
 20
25.2676676789
 30
0.0
 10
7.735812957
 20
25.1134011994
 30
0.0
 10
7.448042928
 20
24.9363287047
 30
0.0
 10
7.283480032
 20
24.798026724
 30
0.0
 10
7.2125512032
 20
24.7256575529
 30
0.0
 11
8.441830385
 21
25.3878091089
 31
0.0
 11
8.0648011544
 21
25.2579509236
 31
0.0
 11
7.7296481362
 21
25.102005264
 31
0.0
 11
7.4435282048
 21
24.9233021474
 31
0.0
 11
7.2125512032
 21
24.7256575529
 31
0.0
  0
SPLINE
  5
449
100
AcDbEntity
  8
0
100
AcDbSpline
 62
7
  6
CONTINUOUS
 70
0
 71
3
 72
9
 73
5
 74
3
 42
0.0000001
 43
0.0000001
 44
0.0000000001
 12
0.0758252899
 22
0.037912645
 32
0.0
 13
0.0802275305
 23
-0.0273931851
 33
0.0
 40
0.0
 40
0.0
 40
0.0
 40
0.0
 40
0.5342465021
 40
1.0
 40
1.0
 40
1.0
 40
1.0
 10
11.7759710963
 20
25.335593999
 30
0.0
 10
11.7894742283
 20
25.342345565
 30
0.0
 10
11.8166993016
 20
25.3518568147
 30
0.0
 10
11.846025834
 20
25.3498451947
 30
0.0
 10
11.8584812517
 20
25.3455923708
 30
0.0
 11
11.7759710963
 21
25.335593999
 31
0.0
 11
11.8191638257
 21
25.3492194191
 31
0.0
 11
11.8584812517
 21
25.3455923708
 31
0.0
  0
LINE
  5
44A
100
AcDbEntity
  8
RACCORDO
100
AcDbLine
 62
7
  6
CONTINUOUS
 10
19.1549962198
 20
21.3396443086
 11
19.1557589993
 21
21.3374920108
  0
LINE
  5
44B
100
AcDbEntity
  8
RACCORDO
100
AcDbLine
 62
7
  6
CONTINUOUS
 10
19.1557589993
 20
21.3374920108
 11
19.1569326694
 21
21.3341730992
  0
SPLINE
  5
44C
100
AcDbEntity
  8
RACCORDO
100
AcDbSpline
 62
7
  6
CONTINUOUS
 70
0
 71
3
 72
14
 73
10
 74
8
 42
0.0000001
 43
0.0000001
 44
0.0000000001
 12
0.648531614
 22
-2.0151720786
 32
0.0
 13
-0.9179824041
 23
-1.9075691511
 33
0.0
 40
0.0
 40
0.0
 40
0.0
 40
0.0
 40
0.2735865767
 40
0.4054777844
 40
0.533263699
 40
0.6565994406
 40
0.7753690302
 40
0.8897068701
 40
1.0
 40
1.0
 40
1.0
 40
1.0
 10
19.1946773503
 20
21.2223257833
 30
0.0
 10
19.2538205317
 20
21.0385511065
 30
0.0
 10
19.3228180813
 20
20.7594260707
 30
0.0
 10
19.3696496356
 20
20.385744586
 30
0.0
 10
19.3808259292
 20
20.1153437778
 30
0.0
 10
19.3679983986
 20
19.8542631291
 30
0.0
 10
19.3307764992
 20
19.6050371099
 30
0.0
 10
19.268848901
 20
19.3702431298
 30
0.0
 10
19.2098832869
 20
19.222543673
 30
0.0
 10
19.1761342361
 20
19.1524130823
 30
0.0
 11
19.1946773503
 21
21.2223257833
 31
0.0
 11
19.331729286
 21
20.6596036524
 31
0.0
 11
19.3660819337
 21
20.3825168513
 31
0.0
 11
19.3768033307
 21
20.1122119631
 31
0.0
 11
19.3634577971
 21
19.851456652
 31
0.0
 11
19.3257200813
 21
19.6028746029
 31
0.0
 11
19.2633377108
 21
19.3690031043
 31
0.0
 11
19.1761342361
 21
19.1524130823
 31
0.0
  0
SPLINE
  5
44D
100
AcDbEntity
  8
RACCORDO
100
AcDbSpline
 62
7
  6
CONTINUOUS
 70
0
 71
3
 72
9
 73
5
 74
3
 42
0.0000001
 43
0.0000001
 44
0.0000000001
 12
-0.25645871
 22
-0.2819696486
 32
0.0
 13
-0.3245439169
 23
-0.1998729564
 33
0.0
 40
0.0
 40
0.0
 40
0.0
 40
0.0
 40
0.5024158301
 40
1.0
 40
1.0
 40
1.0
 40
1.0
 10
19.0302186164
 20
18.6524851243
 30
0.0
 10
18.9872689778
 20
18.6052631193
 30
0.0
 10
18.8953855194
 20
18.5168674473
 30
0.0
 10
18.7919211408
 20
18.4422798313
 30
0.0
 10
18.7380918356
 20
18.4091286249
 30
0.0
 11
19.0302186164
 21
18.6524851243
 31
0.0
 11
18.8920182946
 21
18.5199258019
 31
0.0
 11
18.7380918356
 21
18.4091286249
 31
0.0
  0
SPLINE
  5
44E
100
AcDbEntity
  8
RACCORDO
100
AcDbSpline
 62
7
  6
CONTINUOUS
 70
0
 71
3
 72
14
 73
10
 74
8
 42
0.0000001
 43
0.0000001
 44
0.0000000001
 12
2.1901996276
 22
-1.1461537261
 32
0.0
 13
1.0402246791
 23
-2.2424485255
 33
0.0
 40
0.0
 40
0.0
 40
0.0
 40
0.0
 40
0.1127210172
 40
0.2298874656
 40
0.3512679057
 40
0.4764131007
 40
0.6046930408
 40
0.735336636
 40
1.0
 40
1.0
 40
1.0
 40
1.0
 10
17.4840996165
 20
23.5699710719
 30
0.0
 10
17.5663934598
 20
23.5269058672
 30
0.0
 10
17.7294670966
 20
23.4297385524
 30
0.0
 10
17.9627451213
 20
23.257736286
 30
0.0
 10
18.1873793988
 20
23.0588057648
 30
0.0
 10
18.4010858837
 20
22.8354044794
 30
0.0
 10
18.601644201
 20
22.5901796502
 30
0.0
 10
18.8494847693
 20
22.2367205194
 30
0.0
 10
19.0075189154
 20
21.9502493852
 30
0.0
 10
19.0992887031
 20
21.7524180617
 30
0.0
 11
17.4840996165
 21
23.5699710719
 31
0.0
 11
17.7238121224
 21
23.4279150584
 31
0.0
 11
17.95727329
 21
23.2565013938
 31
0.0
 11
18.182217128
 21
23.0579323617
 31
0.0
 11
18.396333063
 21
22.8346498118
 31
0.0
 11
18.5973057589
 21
22.5893639728
 31
0.0
 11
18.7828696354
 21
22.3250517245
 31
0.0
 11
19.0992887031
 21
21.7524180617
 31
0.0
  0
SPLINE
  5
44F
100
AcDbEntity
  8
RACCORDO
100
AcDbSpline
 62
7
  6
CONTINUOUS
 70
0
 71
3
 72
9
 73
5
 74
3
 42
0.0000001
 43
0.0000001
 44
0.0000000001
 12
0.0791608445
 22
-0.0395890864
 32
0.0
 13
0.0443941078
 23
-0.0765695648
 33
0.0
 40
0.0
 40
0.0
 40
0.0
 40
0.0
 40
0.5021590845
 40
1.0
 40
1.0
 40
1.0
 40
1.0
 10
16.8152837983
 20
25.9379228712
 30
0.0
 10
16.828534244
 20
25.9312961981
 30
0.0
 10
16.853271912
 20
25.9143274316
 30
0.0
 10
16.8716960922
 20
25.8906677952
 30
0.0
 10
16.87906316
 20
25.8779613078
 30
0.0
 11
16.8152837983
 21
25.9379228712
 31
0.0
 11
16.8517867007
 21
25.9125669628
 31
0.0
 11
16.87906316
 21
25.8779613078
 31
0.0
  0
SPLINE
  5
450
100
AcDbEntity
  8
RACCORDO
100
AcDbSpline
 62
7
  6
CONTINUOUS
 70
0
 71
3
 72
14
 73
10
 74
8
 42
0.0000001
 43
0.0000001
 44
0.0000000001
 12
0.0000115141
 22
-0.1249348961
 32
0.0
 13
-0.1111853166
 23
-0.0569785377
 33
0.0
 40
0.0
 40
0.0
 40
0.0
 40
0.0
 40
0.0819501554
 40
0.1721974237
 40
0.2741151669
 40
0.3897754712
 40
0.5202141665
 40
0.6657008073
 40
1.0
 40
1.0
 40
1.0
 40
1.0
 10
19.1549946278
 20
21.3335499179
 30
0.0
 10
19.1549949424
 20
21.3301371065
 30
0.0
 10
19.1539639512
 20
21.3229435043
 30
0.0
 10
19.1496707103
 20
21.3122785249
 30
0.0
 10
19.1426928027
 20
21.3014521304
 30
0.0
 10
19.1331010029
 20
21.2905334347
 30
0.0
 10
19.1209685289
 20
21.2795922638
 30
0.0
 10
19.1005699986
 20
21.2643922828
 30
0.0
 10
19.0831863274
 20
21.2543828034
 30
0.0
 10
19.0707966069
 20
21.2480335103
 30
0.0
 11
19.1549946278
 21
21.3335499179
 31
0.0
 11
19.1536362992
 21
21.3234019881
 31
0.0
 11
19.1495565492
 21
21.3128909457
 31
0.0
 11
19.1427707356
 21
21.3021167112
 31
0.0
 11
19.1333223243
 21
21.2911837218
 31
0.0
 11
19.1212839954
 21
21.2801996653
 31
0.0
 11
19.1067578949
 21
21.2692738972
 31
0.0
 11
19.0707966069
 21
21.2480335103
 31
0.0
  0
SPLINE
  5
451
100
AcDbEntity
  8
0
100
AcDbSpline
 62
7
  6
CONTINUOUS
 70
0
 71
3
 72
15
 73
11
 74
9
 42
0.0000001
 43
0.0000001
 44
0.0000000001
 12
-0.0000053518
 22
1.3078359673
 32
0.0
 13
1.1656304999
 23
0.5930771071
 33
0.0
 40
0.0
 40
0.0
 40
0.0
 40
0.0
 40
0.1023893177
 40
0.2075922902
 40
0.3181088505
 40
0.4359188787
 40
0.562413944
 40
0.698426763
 40
0.8443056789
 40
1.0
 40
1.0
 40
1.0
 40
1.0
 10
6.9930263287
 20
24.9340880101
 30
0.0
 10
6.993026146
 20
24.9787241542
 30
0.0
 10
7.0019603999
 20
25.0694555893
 30
0.0
 10
7.0417082855
 20
25.2030915845
 30
0.0
 10
7.1071656017
 20
25.3336823637
 30
0.0
 10
7.1974169085
 20
25.4599720232
 30
0.0
 10
7.3114391197
 20
25.5809369967
 30
0.0
 10
7.4481002088
 20
25.695588807
 30
0.0
 10
7.6061057245
 20
25.8029627247
 30
0.0
 10
7.7210935352
 20
25.8670586693
 30
0.0
 10
7.7815875517
 20
25.8978382485
 30
0.0
 11
6.9930263287
 21
24.9340880101
 31
0.0
 11
7.0059759814
 21
25.0673688217
 31
0.0
 11
7.0447027533
 21
25.1993944198
 31
0.0
 11
7.1088421858
 21
25.3289213726
 31
0.0
 11
7.1977899134
 21
25.454729857
 31
0.0
 11
7.3107085903
 21
25.575634961
 31
0.0
 11
7.4465343383
 21
25.6904980735
 31
0.0
 11
7.6039875719
 21
25.7982369238
 31
0.0
 11
7.7815875517
 21
25.8978382485
 31
0.0
  0
SPLINE
  5
452
100
AcDbEntity
  8
RACCORDO
100
AcDbSpline
 62
253
  6
CONTINUOUS
 70
0
 71
3
 72
19
 73
15
 74
13
 42
0.0000001
 43
0.0000001
 44
0.0000000001
 12
0.3420937617
 22
0.1700860762
 32
0.0
 13
0.1916424317
 23
-0.3305005197
 33
0.0
 40
0.0
 40
0.0
 40
0.0
 40
0.0
 40
0.2169654406
 40
0.4110536596
 40
0.5799412176
 40
0.7216490772
 40
0.7818118702
 40
0.834639353
 40
0.8800289866
 40
0.917937938
 40
0.9484175031
 40
0.9609418656
 40
0.9717272116
 40
1.0
 40
1.0
 40
1.0
 40
1.0
 10
16.7892705428
 20
25.2911677226
 30
0.0
 10
16.814011384
 20
25.303468656
 30
0.0
 10
16.8610450347
 20
25.3264528643
 30
0.0
 10
16.9279591911
 20
25.3577210017
 30
0.0
 10
16.9867818119
 20
25.3836299408
 30
0.0
 10
17.0305480139
 20
25.4013792023
 30
0.0
 10
17.0610185632
 20
25.412505317
 30
0.0
 10
17.0801618724
 20
25.4188707452
 30
0.0
 10
17.0968086878
 20
25.4237174072
 30
0.0
 10
17.1109326712
 20
25.4270293482
 30
0.0
 10
17.1211038445
 20
25.4286327786
 30
0.0
 10
17.1279961562
 20
25.429007464
 30
0.0
 10
17.1344002762
 20
25.4288487641
 30
0.0
 10
17.1403076748
 20
25.4273808265
 30
0.0
 10
17.1421137635
 20
25.4242661027
 30
0.0
 11
16.7892705428
 21
25.2911677226
 31
0.0
 11
16.8637724936
 21
25.3275030914
 31
0.0
 11
16.9309885534
 21
25.358812063
 31
0.0
 11
16.9900866854
 21
25.3847071435
 31
0.0
 11
17.0403320621
 21
25.4048662637
 31
0.0
 11
17.0619356966
 21
25.4127138647
 31
0.0
 11
17.0811012339
 21
25.4190393533
 31
0.0
 11
17.0977691668
 21
25.4238230993
 31
0.0
 11
17.1118878987
 21
25.4270503499
 31
0.0
 11
17.1234134064
 21
25.4287109763
 31
0.0
 11
17.1281921864
 21
25.4289519984
 31
0.0
 11
17.1323098483
 21
25.4287997976
 31
0.0
 11
17.1421137635
 21
25.4242661027
 31
0.0
  0
SPLINE
  5
453
100
AcDbEntity
  8
RACCORDO
100
AcDbSpline
 62
7
  6
CONTINUOUS
 70
0
 71
3
 72
15
 73
11
 74
9
 42
0.0000001
 43
0.0000001
 44
0.0000000001
 12
0.3458981339
 22
0.1680197029
 32
0.0
 13
0.343933937
 23
-0.1720046122
 33
0.0
 40
0.0
 40
0.0
 40
0.0
 40
0.0
 40
0.1656880137
 40
0.3196247913
 40
0.4613593401
 40
0.5907886441
 40
0.7082363666
 40
0.8145306636
 40
0.9110918568
 40
1.0
 40
1.0
 40
1.0
 40
1.0
 10
16.4463729668
 20
25.8825785581
 30
0.0
 10
16.4654766917
 20
25.8918581751
 30
0.0
 10
16.5028247528
 20
25.9087697237
 30
0.0
 10
16.5581859432
 20
25.9296920069
 30
0.0
 10
16.6105002075
 20
25.9451449982
 30
0.0
 10
16.6593948415
 20
25.9550511663
 30
0.0
 10
16.7045539555
 20
25.9593887795
 30
0.0
 10
16.745724841
 20
25.9581693611
 30
0.0
 10
16.7826721571
 20
25.9514386118
 30
0.0
 10
16.8050909557
 20
25.9430204081
 30
0.0
 10
16.8152837983
 20
25.9379228712
 30
0.0
 11
16.4463729668
 21
25.8825785581
 31
0.0
 11
16.5044681006
 21
25.9087420404
 31
0.0
 11
16.5598959985
 21
25.9295242378
 31
0.0
 11
16.6122186694
 21
25.9447877531
 31
0.0
 11
16.6610413624
 21
25.9544602693
 31
0.0
 11
16.7060214082
 21
25.9585338602
 31
0.0
 11
16.7468699259
 21
25.9570594614
 31
0.0
 11
16.7833518069
 21
25.9501399998
 31
0.0
 11
16.8152837983
 21
25.9379228712
 31
0.0
  0
SPLINE
  5
454
100
AcDbEntity
  8
RACCORDO
100
AcDbSpline
 62
253
  6
CONTINUOUS
 70
0
 71
3
 72
11
 73
7
 74
5
 42
0.0000001
 43
0.0000001
 44
0.0000000001
 12
0.004359318
 22
1.5061458984
 32
0.0
 13
-0.75913754
 23
1.3008476723
 33
0.0
 40
0.0
 40
0.0
 40
0.0
 40
0.0
 40
0.2342472426
 40
0.482518626
 40
0.7397297627
 40
1.0
 40
1.0
 40
1.0
 40
1.0
 10
17.2034210184
 20
23.8595341479
 30
0.0
 10
17.2037614045
 20
23.9771376558
 30
0.0
 10
17.1843048715
 20
24.2196943115
 30
0.0
 10
17.1032717597
 20
24.5831621567
 30
0.0
 10
16.9725147561
 20
24.9457012065
 30
0.0
 10
16.8551308453
 20
25.1783104118
 30
0.0
 10
16.7892705428
 20
25.2911677226
 30
0.0
 11
17.2034210184
 21
23.8595341479
 31
0.0
 11
17.1769985492
 21
24.2113553547
 31
0.0
 11
17.096786855
 21
24.5765855402
 31
0.0
 11
16.9658674472
 21
24.9411924351
 31
0.0
 11
16.7892705428
 21
25.2911677226
 31
0.0
  0
SPLINE
  5
455
100
AcDbEntity
  8
RACCORDO
100
AcDbSpline
 62
253
  6
CONTINUOUS
 70
0
 71
3
 72
15
 73
11
 74
9
 42
0.0000001
 43
0.0000001
 44
0.0000000001
 12
0.4162545525
 22
0.2155221038
 32
0.0
 13
0.0000009982
 23
0.4687404716
 33
0.0
 40
0.0
 40
0.0
 40
0.0
 40
0.0
 40
0.1553722745
 40
0.3009898018
 40
0.4368322816
 40
0.5632656902
 40
0.6811336836
 40
0.791823243
 40
0.8972921894
 40
1.0
 40
1.0
 40
1.0
 40
1.0
 10
17.2034210184
 20
23.8595341479
 30
0.0
 10
17.2249791573
 20
23.8706962011
 30
0.0
 10
17.2659489027
 20
23.8939145603
 30
0.0
 10
17.3222115567
 20
23.9327266068
 30
0.0
 10
17.3708514321
 20
23.9741016555
 30
0.0
 10
17.4114167025
 20
24.0176998855
 30
0.0
 10
17.4435125918
 20
24.0631714169
 30
0.0
 10
17.4667819729
 20
24.1101544458
 30
0.0
 10
17.4809070921
 20
24.158205091
 30
0.0
 10
17.4840810778
 20
24.1908138694
 30
0.0
 10
17.484081112
 20
24.2068616386
 30
0.0
 11
17.2034210184
 21
23.8595341479
 31
0.0
 11
17.2666896108
 21
23.8956061352
 31
0.0
 11
17.3227510511
 21
23.9345433864
 31
0.0
 11
17.3710914088
 21
23.9759885144
 31
0.0
 11
17.4112643536
 21
24.0195592638
 31
0.0
 11
17.4429003306
 21
24.0648546508
 31
0.0
 11
17.4657079133
 21
24.1114575885
 31
0.0
 11
17.4794770777
 21
24.1589389829
 31
0.0
 11
17.484081112
 21
24.2068616386
 31
0.0
  0
SPLINE
  5
456
100
AcDbEntity
  8
RACCORDO
100
AcDbSpline
 62
253
  6
CONTINUOUS
 70
0
 71
3
 72
9
 73
5
 74
3
 42
0.0000001
 43
0.0000001
 44
0.0000000001
 12
0.0519915462
 22
0.2485891773
 32
0.0
 13
0.0039648518
 23
0.2539369604
 33
0.0
 40
0.0
 40
0.0
 40
0.0
 40
0.0
 40
0.4965829393
 40
1.0
 40
1.0
 40
1.0
 40
1.0
 10
17.4571526379
 20
21.2715274871
 30
0.0
 10
17.4657586761
 20
21.3126758686
 30
0.0
 10
17.4784092203
 20
21.3965553044
 30
0.0
 10
17.4832273194
 20
21.4811870403
 30
0.0
 10
17.4838926441
 20
21.5237991064
 30
0.0
 11
17.4571526379
 21
21.2715274871
 31
0.0
 11
17.4763913262
 21
21.3961675753
 31
0.0
 11
17.4838926441
 21
21.5237991064
 31
0.0
  0
SPLINE
  5
457
100
AcDbEntity
  8
RACCORDO
100
AcDbSpline
 62
253
  6
CONTINUOUS
 70
0
 71
3
 72
11
 73
7
 74
5
 42
0.0000001
 43
0.0000001
 44
0.0000000001
 12
0.3497916652
 22
0.5778105923
 32
0.0
 13
0.1382728454
 23
0.6611353189
 33
0.0
 40
0.0
 40
0.0
 40
0.0
 40
0.0
 40
0.256114327
 40
0.5092357367
 40
0.7579012494
 40
1.0
 40
1.0
 40
1.0
 40
1.0
 10
17.2034210184
 20
20.6486797508
 30
0.0
 10
17.2332832374
 20
20.6980082745
 30
0.0
 10
17.2889586669
 20
20.7983841634
 30
0.0
 10
17.360135486
 20
20.953655848
 30
0.0
 10
17.4175252162
 20
21.1111930023
 30
0.0
 10
17.4459940768
 20
21.2181741423
 30
0.0
 10
17.4571526379
 20
21.2715274871
 30
0.0
 11
17.2034210184
 21
20.6486797508
 31
0.0
 11
17.2872998591
 21
20.7999736317
 31
0.0
 11
17.3584133897
 21
20.955450447
 31
0.0
 11
17.4156203429
 21
21.1133664789
 31
0.0
 11
17.4571526379
 21
21.2715274871
 31
0.0
  0
SPLINE
  5
458
100
AcDbEntity
  8
RACCORDO
100
AcDbSpline
 62
253
  6
CONTINUOUS
 70
0
 71
3
 72
14
 73
10
 74
8
 42
0.0000001
 43
0.0000001
 44
0.0000000001
 12
2.0578772517
 22
-1.2218118613
 32
0.0
 13
1.0071013942
 23
-2.1710434794
 33
0.0
 40
0.0
 40
0.0
 40
0.0
 40
0.0
 40
0.1116906395
 40
0.2284830563
 40
0.3498830244
 40
0.4752505209
 40
0.603830523
 40
0.7347809181
 40
1.0
 40
1.0
 40
1.0
 40
1.0
 10
17.4840876543
 20
23.501517966
 30
0.0
 10
17.5607028631
 20
23.45602965
 30
0.0
 10
17.7128656796
 20
23.35511135
 30
0.0
 10
17.9311754482
 20
23.1806906822
 30
0.0
 10
18.1425245065
 20
22.9816270813
 30
0.0
 10
18.344495453
 20
22.7602078228
 30
0.0
 10
18.5348307485
 20
22.5189189932
 30
0.0
 10
18.7710903378
 20
22.1730768163
 30
0.0
 10
18.9230369079
 20
21.8945714829
 30
0.0
 10
19.012071077
 20
21.7026374301
 30
0.0
 11
17.4840876543
 21
23.501517966
 31
0.0
 11
17.7071738776
 21
23.3542623008
 31
0.0
 11
17.9258599436
 21
23.1801798925
 31
0.0
 11
18.1376354927
 21
22.9812692707
 31
0.0
 11
18.3400695056
 21
22.7598138196
 31
0.0
 11
18.5308380993
 21
22.5183555863
 31
0.0
 11
18.7077513206
 21
22.2596664785
 31
0.0
 11
19.012071077
 21
21.7026374301
 31
0.0
  0
SPLINE
  5
459
100
AcDbEntity
  8
RACCORDO
100
AcDbSpline
 62
253
  6
CONTINUOUS
 70
0
 71
3
 72
15
 73
11
 74
9
 42
0.0000001
 43
0.0000001
 44
0.0000000001
 12
0.9801430066
 22
0.4900636375
 32
0.0
 13
1.0202931533
 23
-0.3998056574
 33
0.0
 40
0.0
 40
0.0
 40
0.0
 40
0.0
 40
0.1109318219
 40
0.2314291971
 40
0.3591584417
 40
0.4912948844
 40
0.6246941119
 40
0.7560625163
 40
0.882152807
 40
1.0
 40
1.0
 40
1.0
 40
1.0
 10
-4.0148747689
 20
26.4117596437
 30
0.0
 10
-3.9786317524
 20
26.4298808611
 30
0.0
 10
-3.9001918894
 20
26.4621419635
 30
0.0
 10
-3.7736871094
 20
26.4977492771
 30
0.0
 10
-3.636606848
 20
26.521721078
 30
0.0
 10
-3.4932190707
 20
26.5332124806
 30
0.0
 10
-3.3480513459
 20
26.5317669293
 30
0.0
 10
-3.2057966249
 20
26.517331346
 30
0.0
 10
-3.0711755092
 20
26.4903074578
 30
0.0
 10
-2.9859856965
 20
26.4633402382
 30
0.0
 10
-2.9459061351
 20
26.4476349134
 30
0.0
 11
-4.0148747689
 21
26.4117596437
 31
0.0
 11
-3.9027273975
 21
26.4586678515
 31
0.0
 11
-3.7757566051
 21
26.494919668
 31
0.0
 11
-3.6379305219
 21
26.5193211203
 31
0.0
 11
-3.4936044326
 21
26.5310147344
 31
0.0
 11
-3.3474292218
 21
26.5295220041
 31
0.0
 11
-3.2042280774
 21
26.5147855124
 31
0.0
 11
-3.0688358816
 21
26.4872017384
 31
0.0
 11
-2.9459061351
 21
26.4476349134
 31
0.0
  0
SPLINE
  5
45A
100
AcDbEntity
  8
RACCORDO
100
AcDbSpline
 62
253
  6
CONTINUOUS
 70
0
 71
3
 72
12
 73
8
 74
6
 42
0.0000001
 43
0.0000001
 44
0.0000000001
 12
-0.3919720459
 22
0.1632993423
 32
0.0
 13
-0.3830174063
 23
-0.1833205566
 33
0.0
 40
0.0
 40
0.0
 40
0.0
 40
0.0
 40
0.1132615417
 40
0.2282471345
 40
0.4669461492
 40
0.72295398
 40
1.0
 40
1.0
 40
1.0
 40
1.0
 10
10.3312570526
 20
29.1789391854
 30
0.0
 10
10.3164585999
 20
29.1851043638
 30
0.0
 10
10.2858033053
 20
29.1956276539
 30
0.0
 10
10.2209674275
 20
29.2091629148
 30
0.0
 10
10.1338539046
 20
29.2111470703
 30
0.0
 10
10.0259534071
 20
29.1903235376
 30
0.0
 10
9.9552799638
 20
29.1627400445
 30
0.0
 10
9.9199088145
 20
29.1458106343
 30
0.0
 11
10.3312570526
 21
29.1789391854
 31
0.0
 11
10.2857795055
 21
29.1945860816
 31
0.0
 11
10.2379944826
 21
29.204614915
 31
0.0
 11
10.1366804584
 21
29.2076082939
 31
0.0
 11
10.0297837531
 21
29.1878464057
 31
0.0
 11
9.9199088145
 21
29.1458106343
 31
0.0
  0
SPLINE
  5
45B
100
AcDbEntity
  8
RACCORDO
100
AcDbSpline
 62
253
  6
CONTINUOUS
 70
0
 71
3
 72
11
 73
7
 74
5
 42
0.0000001
 43
0.0000001
 44
0.0000000001
 12
0.0829653579
 22
0.0414856941
 32
0.0
 13
0.082966564
 23
-0.041483282
 33
0.0
 40
0.0
 40
0.0
 40
0.0
 40
0.0
 40
0.2271109519
 40
0.4646760174
 40
0.7207663845
 40
1.0
 40
1.0
 40
1.0
 40
1.0
 10
-4.1043174542
 20
26.4174399337
 30
0.0
 10
-4.0980366737
 20
26.4205805521
 30
0.0
 10
-4.0841953644
 20
26.4251863367
 30
0.0
 10
-4.0617071943
 20
26.4263107979
 30
0.0
 10
-4.038039557
 20
26.4218645349
 30
0.0
 10
-4.0225971201
 20
26.4156208193
 30
0.0
 10
-4.0148747689
 20
26.4117596437
 30
0.0
 11
-4.1043174542
 21
26.4174399337
 31
0.0
 11
-4.0843498784
 21
26.4241556694
 31
0.0
 11
-4.0623512774
 21
26.4254458524
 31
0.0
 11
-4.0389657594
 21
26.4212735621
 31
0.0
 11
-4.0148747689
 21
26.4117596437
 31
0.0
  0
SPLINE
  5
45C
100
AcDbEntity
  8
RACCORDO
100
AcDbSpline
 62
7
  6
CONTINUOUS
 70
0
 71
3
 72
11
 73
7
 74
5
 42
0.0000001
 43
0.0000001
 44
0.0000000001
 12
0.0789043412
 22
0.0394542114
 32
0.0
 13
0.0789051575
 23
-0.0394525788
 33
0.0
 40
0.0
 40
0.0
 40
0.0
 40
0.0
 40
0.21439309
 40
0.4477462014
 40
0.7084790342
 40
1.0
 40
1.0
 40
1.0
 40
1.0
 10
-4.1658743903
 20
26.3866615423
 30
0.0
 10
-4.1602355418
 20
26.3894811124
 30
0.0
 10
-4.1474274117
 20
26.3934445207
 30
0.0
 10
-4.1263811502
 20
26.3937592594
 30
0.0
 10
-4.1036482818
 20
26.3888447411
 30
0.0
 10
-4.0885787879
 20
26.3825751367
 30
0.0
 10
-4.0809112854
 20
26.3787413855
 30
0.0
 11
-4.1658743903
 21
26.3866615423
 31
0.0
 11
-4.147856806
 21
26.3924135807
 31
0.0
 11
-4.1272793135
 21
26.3930086892
 31
0.0
 11
-4.1047422316
 21
26.3884099016
 31
0.0
 11
-4.0809112854
 21
26.3787413855
 31
0.0
  0
SPLINE
  5
45D
100
AcDbEntity
  8
RACCORDO
100
AcDbSpline
 62
7
  6
CONTINUOUS
 70
0
 71
3
 72
9
 73
5
 74
3
 42
0.0000001
 43
0.0000001
 44
0.0000000001
 12
-0.038605051
 22
0.0140773491
 32
0.0
 13
-0.0403731189
 23
-0.0076506857
 33
0.0
 40
0.0
 40
0.0
 40
0.0
 40
0.0
 40
0.4845215115
 40
1.0
 40
1.0
 40
1.0
 40
1.0
 10
-2.8686491816
 20
26.458923728
 30
0.0
 10
-2.8748841741
 20
26.4611973208
 30
0.0
 10
-2.8885250081
 20
26.4639480281
 30
0.0
 10
-2.9023425204
 20
26.4628800794
 30
0.0
 10
-2.9092796785
 20
26.4615654914
 30
0.0
 11
-2.8686491816
 21
26.458923728
 31
0.0
 11
-2.8881442063
 21
26.4629664026
 31
0.0
 11
-2.9092796785
 21
26.4615654914
 31
0.0
  0
SPLINE
  5
45E
100
AcDbEntity
  8
RACCORDO
100
AcDbSpline
 62
7
  6
CONTINUOUS
 70
0
 71
3
 72
9
 73
5
 74
3
 42
0.0000001
 43
0.0000001
 44
0.0000000001
 12
-0.0337793886
 22
-0.0080488248
 32
0.0
 13
-0.0302423416
 23
-0.0170655046
 33
0.0
 40
0.0
 40
0.0
 40
0.0
 40
0.0
 40
0.2373472015
 40
1.0
 40
1.0
 40
1.0
 40
1.0
 10
-2.9137650886
 20
26.4606056213
 30
0.0
 10
-2.9164375697
 20
26.4599688326
 30
0.0
 10
-2.9275875076
 20
26.4568273744
 30
0.0
 10
-2.9382178536
 20
26.451973192
 30
0.0
 10
-2.9459059891
 20
26.4476348404
 30
0.0
 11
-2.9137650886
 21
26.4606056213
 31
0.0
 11
-2.9217011123
 21
26.4583811159
 31
0.0
 11
-2.9459059891
 21
26.4476348404
 31
0.0
  0
LINE
  5
45F
100
AcDbEntity
  8
RACCORDO
100
AcDbLine
 62
253
  6
CONTINUOUS
 10
19.0707966069
 20
18.861078532
 11
18.5178648819
 21
18.5107455482
  0
LINE
  5
460
100
AcDbEntity
  8
RACCORDO
100
AcDbLine
 62
253
  6
CONTINUOUS
 10
19.0120709672
 20
18.6438056118
 11
18.7179985686
 21
18.4561545334
  0
LINE
  5
461
100
AcDbEntity
  8
RACCORDO
100
AcDbLine
 62
253
  6
CONTINUOUS
 10
18.7179985686
 20
18.4561545334
 11
18.710996947
 21
18.4516931705
  0
LINE
  5
462
100
AcDbEntity
  8
RACCORDO
100
AcDbLine
 62
253
  6
CONTINUOUS
 10
18.710996947
 20
18.4516931705
 11
18.621754928
 21
18.3948544056
  0
SPLINE
  5
463
100
AcDbEntity
  8
RACCORDO
100
AcDbSpline
 62
253
  6
CONTINUOUS
 70
0
 71
3
 72
9
 73
5
 74
3
 42
0.0000001
 43
0.0000001
 44
0.0000000001
 12
-0.2190949752
 22
-0.2532156231
 32
0.0
 13
-0.2808070039
 23
-0.1823956867
 33
0.0
 40
0.0
 40
0.0
 40
0.0
 40
0.0
 40
0.5056150331
 40
1.0
 40
1.0
 40
1.0
 40
1.0
 10
19.0120709672
 20
18.6438056118
 30
0.0
 10
18.9751450628
 20
18.6011290699
 30
0.0
 10
18.8964437331
 20
18.5214301532
 30
0.0
 10
18.8072174643
 20
18.4536410718
 30
0.0
 10
18.7609418772
 20
18.4235831766
 30
0.0
 11
19.0120709672
 21
18.6438056118
 31
0.0
 11
18.8928692475
 21
18.5235798375
 31
0.0
 11
18.7609418772
 21
18.4235831766
 31
0.0
  0
SPLINE
  5
464
100
AcDbEntity
  8
RACCORDO
100
AcDbSpline
 62
253
  6
CONTINUOUS
 70
0
 71
3
 72
12
 73
8
 74
6
 42
0.0000001
 43
0.0000001
 44
0.0000000001
 12
0.2685772639
 22
0.929780267
 32
0.0
 13
-0.418229494
 23
0.8727595213
 33
0.0
 40
0.0
 40
0.0
 40
0.0
 40
0.0
 40
0.1206887359
 40
0.2431826197
 40
0.4918047444
 40
0.7441949472
 40
1.0
 40
1.0
 40
1.0
 40
1.0
 10
17.5706063099
 20
21.1471011069
 30
0.0
 10
17.58141106
 20
21.1845057752
 30
0.0
 10
17.5990911026
 20
21.2611107272
 30
0.0
 10
17.6197352489
 20
21.4185951725
 30
0.0
 10
17.6189417933
 20
21.6208563753
 30
0.0
 10
17.5766058483
 20
21.8624123476
 30
0.0
 10
17.5198037912
 20
22.0174003316
 30
0.0
 10
17.484142052
 20
22.0918190967
 30
0.0
 11
17.5706063099
 21
21.1471011069
 31
0.0
 11
17.5971194597
 21
21.2608539946
 31
0.0
 11
17.6126922374
 21
21.3783755475
 31
0.0
 11
17.6122020011
 21
21.6189900314
 31
0.0
 11
17.569798409
 21
21.8595429706
 31
0.0
 11
17.484142052
 21
22.0918190967
 31
0.0
  0
SPLINE
  5
465
100
AcDbEntity
  8
RACCORDO
100
AcDbSpline
 62
253
  6
CONTINUOUS
 70
0
 71
3
 72
12
 73
8
 74
6
 42
0.0000001
 43
0.0000001
 44
0.0000000001
 12
-0.149658779
 22
0.0861885027
 32
0.0
 13
-0.0355030795
 23
0.1690140215
 33
0.0
 40
0.0
 40
0.0
 40
0.0
 40
0.0
 40
0.2994557864
 40
0.4375546653
 40
0.5671081891
 40
0.7996366922
 40
1.0
 40
1.0
 40
1.0
 40
1.0
 10
17.570606299
 20
21.1471020983
 30
0.0
 10
17.5556675699
 20
21.1557053136
 30
0.0
 10
17.5345225406
 20
21.1695858356
 30
0.0
 10
17.5094434377
 20
21.1905383043
 30
0.0
 10
17.4889850136
 20
21.2108390534
 30
0.0
 10
17.469202044
 20
21.2367736315
 30
0.0
 10
17.4595239558
 20
21.2602394003
 30
0.0
 10
17.4571527843
 20
21.2715274698
 30
0.0
 11
17.570606299
 21
21.1471020983
 31
0.0
 11
17.5275657085
 21
21.1757750129
 31
0.0
 11
17.5093021539
 21
21.1911134336
 31
0.0
 11
17.4934624617
 21
21.2069156699
 31
0.0
 11
17.4696714895
 21
21.2392680724
 31
0.0
 11
17.4571527843
 21
21.2715274698
 31
0.0
  0
SPLINE
  5
466
100
AcDbEntity
  8
RACCORDO
100
AcDbSpline
 62
253
  6
CONTINUOUS
 70
0
 71
3
 72
14
 73
10
 74
8
 42
0.0000001
 43
0.0000001
 44
0.0000000001
 12
0.8673464472
 22
1.9828041286
 32
0.0
 13
-0.7132637484
 23
2.0432955971
 33
0.0
 40
0.0
 40
0.0
 40
0.0
 40
0.0
 40
0.2163638906
 40
0.3340190773
 40
0.4576612786
 40
0.5868232968
 40
0.7208378703
 40
0.8588789459
 40
1.0
 40
1.0
 40
1.0
 40
1.0
 10
19.1215710793
 20
19.1278392146
 30
0.0
 10
19.1841252299
 20
19.2708416198
 30
0.0
 10
19.2494582718
 20
19.5059687641
 30
0.0
 10
19.2871842141
 20
19.8341654802
 30
0.0
 10
19.2918943993
 20
20.1018369273
 30
0.0
 10
19.272114188
 20
20.3804981955
 30
0.0
 10
19.228136148
 20
20.666889281
 30
0.0
 10
19.1605084504
 20
20.9574499703
 30
0.0
 10
19.1007111921
 20
21.1499659797
 30
0.0
 10
19.0671590148
 20
21.2460833226
 30
0.0
 11
19.1215710793
 21
19.1278392146
 31
0.0
 11
19.2529051471
 21
19.5773008365
 31
0.0
 11
19.2826911362
 21
19.8301831469
 31
0.0
 11
19.2879631242
 21
20.0977188148
 31
0.0
 11
19.2686555299
 21
20.3765848692
 31
0.0
 11
19.2250083015
 21
20.6633174342
 31
0.0
 11
19.1575637722
 21
20.9543546651
 31
0.0
 11
19.0671590148
 21
21.2460833226
 31
0.0
  0
SPLINE
  5
467
100
AcDbEntity
  8
RACCORDO
100
AcDbSpline
 62
7
  6
CONTINUOUS
 70
0
 71
3
 72
10
 73
6
 74
4
 42
0.0000001
 43
0.0000001
 44
0.0000000001
 12
0.0851883904
 22
0.0445591271
 32
0.0
 13
0.0457528184
 23
0.0845532807
 33
0.0
 40
0.0
 40
0.0
 40
0.0
 40
0.0
 40
0.5245740078
 40
0.7673423928
 40
1.0
 40
1.0
 40
1.0
 40
1.0
 10
19.0707966069
 20
19.0174933403
 30
0.0
 10
19.0856924786
 20
19.0252848603
 30
0.0
 10
19.1063995528
 20
19.0392820027
 30
0.0
 10
19.1282688331
 20
19.0628464703
 30
0.0
 10
19.1367273437
 20
19.0756259701
 30
0.0
 10
19.1402755908
 20
19.0821832914
 30
0.0
 11
19.0707966069
 21
19.0174933403
 31
0.0
 11
19.1121694871
 21
19.0463314714
 31
0.0
 11
19.1279844358
 21
19.0634957503
 31
0.0
 11
19.1402755908
 21
19.0821832914
 31
0.0
  0
SPLINE
  5
468
100
AcDbEntity
  8
RACCORDO
100
AcDbSpline
 62
253
  6
CONTINUOUS
 70
0
 71
3
 72
9
 73
5
 74
3
 42
0.0000001
 43
0.0000001
 44
0.0000000001
 12
0.0059978805
 22
-0.129957947
 32
0.0
 13
-0.0361524266
 23
-0.1249721753
 33
0.0
 40
0.0
 40
0.0
 40
0.0
 40
0.0
 40
0.5218897972
 40
1.0
 40
1.0
 40
1.0
 40
1.0
 10
19.0707966069
 20
18.861078532
 30
0.0
 10
19.0718400177
 20
18.8384706231
 30
0.0
 10
19.07100274
 20
18.7949471467
 30
0.0
 10
19.0631698946
 20
18.7520224823
 30
0.0
 10
19.0574082799
 20
18.7321056583
 30
0.0
 11
19.0707966069
 21
18.861078532
 31
0.0
 11
19.0690607088
 21
18.7932048044
 31
0.0
 11
19.0574082799
 21
18.7321056583
 31
0.0
  0
SPLINE
  5
469
100
AcDbEntity
  8
RACCORDO
100
AcDbSpline
 62
253
  6
CONTINUOUS
 70
0
 71
3
 72
9
 73
5
 74
3
 42
0.0000001
 43
0.0000001
 44
0.0000000001
 12
-0.025142941
 22
-0.0869144434
 32
0.0
 13
-0.0548395682
 23
-0.0719646421
 33
0.0
 40
0.0
 40
0.0
 40
0.0
 40
0.0
 40
0.517367182
 40
1.0
 40
1.0
 40
1.0
 40
1.0
 10
19.0574082799
 20
18.7321056583
 30
0.0
 10
19.0530722357
 20
18.7171167648
 30
0.0
 10
19.0424547374
 20
18.6887178847
 30
0.0
 10
19.0267479761
 20
18.6627032058
 30
0.0
 10
19.0179255177
 20
18.6511257065
 30
0.0
 11
19.0574082799
 21
18.7321056583
 31
0.0
 11
19.0407237084
 21
18.6883696439
 31
0.0
 11
19.0179255177
 21
18.6511257065
 31
0.0
  0
SPLINE
  5
46A
100
AcDbEntity
  8
RACCORDO
100
AcDbSpline
 62
253
  6
CONTINUOUS
 70
0
 71
3
 72
9
 73
5
 74
3
 42
0.0000001
 43
0.0000001
 44
0.0000000001
 12
0.1205764709
 22
-0.2810044627
 32
0.0
 13
-0.013455708
 23
-0.3054850853
 33
0.0
 40
0.0
 40
0.0
 40
0.0
 40
0.0
 40
0.5153324678
 40
1.0
 40
1.0
 40
1.0
 40
1.0
 10
19.0120711555
 20
21.7026374617
 30
0.0
 10
19.0327834789
 20
21.6543672207
 30
0.0
 10
19.0636546641
 20
21.5564089801
 30
0.0
 10
19.0729704551
 20
21.4538010507
 30
0.0
 10
19.0707966069
 20
21.4044481499
 30
0.0
 11
19.0120711555
 21
21.7026374617
 31
0.0
 11
19.0588769138
 21
21.5521702904
 31
0.0
 11
19.0707966069
 21
21.4044481499
 31
0.0
  0
SPLINE
  5
46B
100
AcDbEntity
  8
RACCORDO
100
AcDbSpline
 62
253
  6
CONTINUOUS
 70
0
 71
3
 72
11
 73
7
 74
5
 42
0.0000001
 43
0.0000001
 44
0.0000000001
 12
0.4308674018
 22
0.4472400442
 32
0.0
 13
0.2847488521
 23
0.55189534
 33
0.0
 40
0.0
 40
0.0
 40
0.0
 40
0.0
 40
0.2611192357
 40
0.5158123981
 40
0.7627524983
 40
1.0
 40
1.0
 40
1.0
 40
1.0
 10
17.2034210184
 20
20.6486797508
 30
0.0
 10
17.2409236073
 20
20.6876074103
 30
0.0
 10
17.3126440748
 20
20.7668236267
 30
0.0
 10
17.4109818355
 20
20.8905020422
 30
0.0
 10
17.4977820565
 20
21.0165899094
 30
0.0
 10
17.5480873318
 20
21.1034557233
 30
0.0
 10
17.5706059831
 20
21.1471009868
 30
0.0
 11
17.2034210184
 21
20.6486797508
 31
0.0
 11
17.3122000088
 21
20.7689435977
 31
0.0
 11
17.4105007969
 21
20.8928583065
 31
0.0
 11
17.4972105314
 21
21.0193469426
 31
0.0
 11
17.5706059831
 21
21.1471009868
 31
0.0
  0
SPLINE
  5
46C
100
AcDbEntity
  8
RACCORDO
100
AcDbSpline
 62
253
  6
CONTINUOUS
 70
0
 71
3
 72
12
 73
8
 74
6
 42
0.0000001
 43
0.0000001
 44
0.0000000001
 12
-0.0105352866
 22
-0.1341732139
 32
0.0
 13
-0.1195162769
 23
-0.0618813634
 33
0.0
 40
0.0
 40
0.0
 40
0.0
 40
0.0
 40
0.1025713023
 40
0.2086145775
 40
0.4383308387
 40
0.700835563
 40
1.0
 40
1.0
 40
1.0
 40
1.0
 10
19.1547636616
 20
18.9593933935
 30
0.0
 10
19.1544034556
 20
18.9548059531
 30
0.0
 10
19.1528065427
 20
18.9455236362
 30
0.0
 10
19.146125887
 20
18.9269393504
 30
0.0
 10
19.1309391138
 20
18.9043105004
 30
0.0
 10
19.1043558457
 20
18.8804167869
 30
0.0
 10
19.0827149468
 20
18.8672494331
 30
0.0
 10
19.0707966069
 20
18.861078532
 30
0.0
 11
19.1547636616
 21
18.9593933935
 31
0.0
 11
19.1524505282
 21
18.9457838881
 31
0.0
 11
19.1476710757
 21
18.9323359998
 31
0.0
 11
19.1308916908
 21
18.9063688917
 31
0.0
 11
19.1049813524
 21
18.8823516321
 31
0.0
 11
19.0707966069
 21
18.861078532
 31
0.0
  0
SPLINE
  5
46D
100
AcDbEntity
  8
RACCORDO
100
AcDbSpline
 62
253
  6
CONTINUOUS
 70
0
 71
3
 72
12
 73
8
 74
6
 42
0.0000001
 43
0.0000001
 44
0.0000000001
 12
-0.374136593
 22
0.1935707845
 32
0.0
 13
-0.3941392644
 23
-0.1486676799
 33
0.0
 40
0.0
 40
0.0
 40
0.0
 40
0.0
 40
0.2771491672
 40
0.5332016441
 40
0.7718746877
 40
0.8868124425
 40
1.0
 40
1.0
 40
1.0
 40
1.0
 10
9.9199088145
 20
29.1458106343
 30
0.0
 10
9.8853449328
 20
29.1636932949
 30
0.0
 10
9.8161124461
 20
29.1932519503
 30
0.0
 10
9.7097803076
 20
29.2173465143
 30
0.0
 10
9.6233526482
 20
29.2182324613
 30
0.0
 10
9.5586398289
 20
29.2069761482
 30
0.0
 10
9.5279090233
 20
29.1975792876
 30
0.0
 10
9.5130384697
 20
29.1919701771
 30
0.0
 11
9.9199088145
 21
29.1458106343
 31
0.0
 11
9.8122329286
 21
29.1909323232
 31
0.0
 11
9.7068554354
 21
29.2139447912
 31
0.0
 11
9.6063160756
 21
29.2142935558
 31
0.0
 11
9.5586242618
 21
29.2059449727
 31
0.0
 11
9.5130384697
 21
29.1919701771
 31
0.0
  0
SPLINE
  5
46E
100
AcDbEntity
  8
RACCORDO
100
AcDbSpline
 62
253
  6
CONTINUOUS
 70
0
 71
3
 72
9
 73
5
 74
3
 42
0.0000001
 43
0.0000001
 44
0.0000000001
 12
-0.2177712776
 22
0.1126705001
 32
0.0
 13
-0.2445917997
 23
0.0171412507
 33
0.0
 40
0.0
 40
0.0
 40
0.0
 40
0.0
 40
0.5216441079
 40
1.0
 40
1.0
 40
1.0
 40
1.0
 10
4.0015897472
 20
26.4125347627
 30
0.0
 10
3.9637233793
 20
26.4321260635
 30
0.0
 10
3.8878918941
 20
26.4639145103
 30
0.0
 10
3.8069292132
 20
26.4798291044
 30
0.0
 10
3.7679285704
 20
26.4825623105
 30
0.0
 11
4.0015897472
 21
26.4125347627
 31
0.0
 11
3.8832130215
 21
26.4609711005
 31
0.0
 11
3.7679285704
 21
26.4825623105
 31
0.0
  0
SPLINE
  5
46F
100
AcDbEntity
  8
RACCORDO
100
AcDbSpline
 62
253
  6
CONTINUOUS
 70
0
 71
3
 72
9
 73
5
 74
3
 42
0.0000001
 43
0.0000001
 44
0.0000000001
 12
-0.0288591928
 22
-0.032297376
 32
0.0
 13
-0.0357729859
 23
-0.0244185786
 33
0.0
 40
0.0
 40
0.0
 40
0.0
 40
0.0
 40
0.2491013827
 40
1.0
 40
1.0
 40
1.0
 40
1.0
 10
19.0521530161
 20
18.6771926952
 30
0.0
 10
19.0497567278
 20
18.6745109215
 30
0.0
 10
19.0398102127
 20
18.6640408033
 30
0.0
 10
19.0285724979
 20
18.6548041989
 30
0.0
 10
19.019618536
 20
18.6486922399
 30
0.0
 11
19.0521530161
 21
18.6771926952
 31
0.0
 11
19.0447212256
 21
18.669371221
 31
0.0
 11
19.019618536
 21
18.6486922399
 31
0.0
  0
SPLINE
  5
470
100
AcDbEntity
  8
RACCORDO
100
AcDbSpline
 62
253
  6
CONTINUOUS
 70
0
 71
3
 72
17
 73
13
 74
11
 42
0.0000001
 43
0.0000001
 44
0.0000000001
 12
0.0424844657
 22
-0.0915151595
 32
0.0
 13
-0.0900412165
 23
-0.0455250873
 33
0.0
 40
0.0
 40
0.0
 40
0.0
 40
0.0
 40
0.0071975865
 40
0.0208540641
 40
0.0421680819
 40
0.0713653033
 40
0.1534024964
 40
0.2664166582
 40
0.4092742188
 40
0.5804446189
 40
0.7780809023
 40
1.0
 40
1.0
 40
1.0
 40
1.0
 10
19.09928862
 20
21.7524180232
 30
0.0
 10
19.0993905486
 20
21.7521984604
 30
0.0
 10
19.0990924605
 20
21.7514306445
 30
0.0
 10
19.098126006
 20
21.7504594702
 30
0.0
 10
19.0964681305
 20
21.7490353095
 30
0.0
 10
19.092856497
 20
21.7464412468
 30
0.0
 10
19.0864740676
 20
21.7423971766
 30
0.0
 10
19.076661847
 20
21.7366714187
 30
0.0
 10
19.0640985439
 20
21.7297060517
 30
0.0
 10
19.0489246394
 20
21.7215901266
 30
0.0
 10
19.0313028835
 20
21.7124139453
 30
0.0
 10
19.0187317433
 20
21.7060050268
 30
0.0
 10
19.0120711215
 20
21.7026373981
 30
0.0
 11
19.09928862
 21
21.7524180232
 31
0.0
 11
19.0991633576
 21
21.751702702
 31
0.0
 11
19.0982859508
 21
21.7506402933
 31
0.0
 11
19.096659115
 21
21.7492338688
 31
0.0
 11
19.0942869602
 21
21.7474871386
 31
0.0
 11
19.0873358184
 21
21.7429933931
 31
0.0
 11
19.0775094089
 21
21.7372087501
 31
0.0
 11
19.0649161113
 21
21.7301970286
 31
0.0
 11
19.0496956318
 21
21.7220359872
 31
0.0
 11
19.0320149379
 21
21.7128151901
 31
0.0
 11
19.0120711215
 21
21.7026373981
 31
0.0
  0
SPLINE
  5
471
100
AcDbEntity
  8
RACCORDO
100
AcDbSpline
 62
253
  6
CONTINUOUS
 70
0
 71
3
 72
12
 73
8
 74
6
 42
0.0000001
 43
0.0000001
 44
0.0000000001
 12
-0.000004191
 22
-0.1404206734
 32
0.0
 13
-0.1246974566
 23
-0.0645639982
 33
0.0
 40
0.0
 40
0.0
 40
0.0
 40
0.0
 40
0.1028546465
 40
0.2084745189
 40
0.436676574
 40
0.6988746822
 40
1.0
 40
1.0
 40
1.0
 40
1.0
 10
19.1549946567
 20
21.5086457153
 30
0.0
 10
19.1549945131
 20
21.5038314091
 30
0.0
 10
19.1540414575
 20
21.4940485453
 30
0.0
 10
19.1482521413
 20
21.4743375696
 30
0.0
 10
19.1333078198
 20
21.4501793429
 30
0.0
 10
19.1059263511
 20
21.4247911239
 30
0.0
 10
19.0833131273
 20
21.410928768
 30
0.0
 10
19.0707966069
 20
21.4044481499
 30
0.0
 11
19.1549946567
 21
21.5086457153
 31
0.0
 11
19.1536133208
 21
21.4942690045
 31
0.0
 11
19.1494824378
 21
21.4800246828
 31
0.0
 11
19.1331493053
 21
21.4524554052
 31
0.0
 11
19.1065957439
 21
21.4269509728
 31
0.0
 11
19.0707966069
 21
21.4044481499
 31
0.0
  0
SPLINE
  5
472
100
AcDbEntity
  8
ASSI
100
AcDbSpline
 62
7
  6
CONTINUOUS
 70
0
 71
3
 72
11
 73
7
 74
5
 42
0.0000001
 43
0.0000001
 44
0.0000000001
 12
0.6468978523
 22
-2.0106160707
 32
0.0
 13
-0.9124581469
 23
-1.9048553606
 33
0.0
 40
0.0
 40
0.0
 40
0.0
 40
0.0
 40
0.2738508251
 40
0.5334724862
 40
0.7754835815
 40
1.0
 40
1.0
 40
1.0
 40
1.0
 10
19.1946661126
 20
21.2223231206
 30
0.0
 10
19.2537172828
 20
21.0387868306
 30
0.0
 10
19.3443127776
 20
20.6726833736
 30
0.0
 10
19.3925984608
 20
20.1263949869
 30
0.0
 10
19.3465016262
 20
19.6142432324
 30
0.0
 10
19.2456447623
 20
19.297549603
 30
0.0
 10
19.1773574839
 20
19.1549925019
 30
0.0
 11
19.1946661126
 21
21.2223231206
 31
0.0
 11
19.3316091043
 21
20.6603621691
 31
0.0
 11
19.3767986807
 21
20.11387509
 31
0.0
 11
19.326219952
 21
19.6052269751
 31
0.0
 11
19.1773574839
 21
19.1549925019
 31
0.0
  0
SPLINE
  5
473
100
AcDbEntity
  8
ASSI
100
AcDbSpline
 62
7
  6
CONTINUOUS
 70
0
 71
3
 72
11
 73
7
 74
5
 42
0.0000001
 43
0.0000001
 44
0.0000000001
 12
2.0208364032
 22
-1.0576963668
 32
0.0
 13
1.0434127761
 23
-2.0282482963
 33
0.0
 40
0.0
 40
0.0
 40
0.0
 40
0.0
 40
0.2302369673
 40
0.4762557897
 40
0.7345930651
 40
1.0
 40
1.0
 40
1.0
 40
1.0
 10
17.4842577503
 20
23.5698827725
 30
0.0
 10
17.6393481653
 20
23.4887091713
 30
0.0
 10
17.9431524105
 20
23.2872335775
 30
0.0
 10
18.3523353899
 20
22.9040985306
 30
0.0
 10
18.7183950486
 20
22.4451031109
 30
0.0
 10
18.9236363149
 20
22.1023088826
 30
0.0
 10
19.0159459771
 20
21.922871828
 30
0.0
 11
17.4842577503
 21
23.5698827725
 31
0.0
 11
17.9240827286
 21
23.2829442746
 31
0.0
 11
18.3356967861
 21
22.9015565178
 31
0.0
 11
18.7043707373
 21
22.4418992285
 31
0.0
 11
19.0159459771
 21
21.922871828
 31
0.0
  0
SPLINE
  5
474
100
AcDbEntity
  8
ASSI
100
AcDbSpline
 62
7
  6
CONTINUOUS
 70
0
 71
3
 72
9
 73
5
 74
3
 42
0.0000001
 43
0.0000001
 44
0.0000000001
 12
0.0791608445
 22
-0.0395890864
 32
0.0
 13
0.0443941078
 23
-0.0765695648
 33
0.0
 40
0.0
 40
0.0
 40
0.0
 40
0.0
 40
0.5021590845
 40
1.0
 40
1.0
 40
1.0
 40
1.0
 10
16.8152837983
 20
25.9379228712
 30
0.0
 10
16.828534244
 20
25.9312961981
 30
0.0
 10
16.853271912
 20
25.9143274316
 30
0.0
 10
16.8716960922
 20
25.8906677952
 30
0.0
 10
16.87906316
 20
25.8779613078
 30
0.0
 11
16.8152837983
 21
25.9379228712
 31
0.0
 11
16.8517867007
 21
25.9125669628
 31
0.0
 11
16.87906316
 21
25.8779613078
 31
0.0
  0
SPLINE
  5
475
100
AcDbEntity
  8
ASSI
100
AcDbSpline
 62
253
  6
CONTINUOUS
 70
0
 71
3
 72
9
 73
5
 74
3
 42
0.0000001
 43
0.0000001
 44
0.0000000001
 12
0.3494821531
 22
0.5772993182
 32
0.0
 13
0.138150495
 23
0.6605503151
 33
0.0
 40
0.0
 40
0.0
 40
0.0
 40
0.0
 40
0.5093066888
 40
1.0
 40
1.0
 40
1.0
 40
1.0
 10
17.2034210184
 20
20.6486797508
 30
0.0
 10
17.2627522178
 20
20.7466872189
 30
0.0
 10
17.3649804108
 20
20.9480543614
 30
0.0
 10
17.4345561299
 20
21.1634849467
 30
0.0
 10
17.4571526379
 20
21.2715274871
 30
0.0
 11
17.2034210184
 21
20.6486797508
 31
0.0
 11
17.3584133897
 21
20.955450447
 31
0.0
 11
17.4571526379
 21
21.2715274871
 31
0.0
  0
SPLINE
  5
476
100
AcDbEntity
  8
ASSI
100
AcDbSpline
 62
7
  6
CONTINUOUS
 70
0
 71
3
 72
10
 73
6
 74
4
 42
0.0000001
 43
0.0000001
 44
0.0000000001
 12
0.3437398708
 22
0.1669713286
 32
0.0
 13
0.3417879296
 23
-0.1709313736
 33
0.0
 40
0.0
 40
0.0
 40
0.0
 40
0.0
 40
0.3214649819
 40
0.5940663041
 40
1.0
 40
1.0
 40
1.0
 40
1.0
 10
16.4463729668
 20
25.8825785581
 30
0.0
 10
16.4832064106
 20
25.9004703698
 30
0.0
 10
16.5534155913
 20
25.930116362
 30
0.0
 10
16.6756553641
 20
25.962597987
 30
0.0
 10
16.7690360524
 20
25.9610518059
 30
0.0
 10
16.8152837983
 20
25.9379228712
 30
0.0
 11
16.4463729668
 21
25.8825785581
 31
0.0
 11
16.5598959985
 21
25.9295242378
 31
0.0
 11
16.6610413624
 21
25.9544602693
 31
0.0
 11
16.8152837983
 21
25.9379228712
 31
0.0
  0
SPLINE
  5
477
100
AcDbEntity
  8
ASSI
100
AcDbSpline
 62
253
  6
CONTINUOUS
 70
0
 71
3
 72
14
 73
10
 74
8
 42
0.0000001
 43
0.0000001
 44
0.0000000001
 12
0.3420528027
 22
0.1700657118
 32
0.0
 13
0.1916177207
 23
-0.3304619726
 33
0.0
 40
0.0
 40
0.0
 40
0.0
 40
0.0
 40
0.4110867213
 40
0.721681359
 40
0.8346727945
 40
0.9179503288
 40
0.9484335144
 40
0.9717238788
 40
1.0
 40
1.0
 40
1.0
 40
1.0
 10
16.7892705428
 20
25.2911677226
 30
0.0
 10
16.8361416645
 20
25.3144716412
 30
0.0
 10
16.9189733011
 20
25.3542917365
 30
0.0
 10
17.0164890045
 20
25.3966946089
 30
0.0
 10
17.0773910822
 20
25.4182892165
 30
0.0
 10
17.1051243528
 20
25.4261519087
 30
0.0
 10
17.1225757012
 20
25.4288084894
 30
0.0
 10
17.1326525073
 20
25.4292739378
 30
0.0
 10
17.1403077118
 20
25.4273808011
 30
0.0
 10
17.1421137804
 20
25.4242660735
 30
0.0
 11
16.7892705428
 21
25.2911677226
 31
0.0
 11
16.9309886136
 21
25.3588120903
 31
0.0
 11
17.0403321489
 21
25.4048662964
 31
0.0
 11
17.0811013192
 21
25.4190393798
 31
0.0
 11
17.111887972
 21
25.4270503638
 31
0.0
 11
17.1234134696
 21
25.4287109817
 31
0.0
 11
17.1323098987
 21
25.4287997929
 31
0.0
 11
17.1421137804
 21
25.4242660735
 31
0.0
  0
LINE
  5
478
100
AcDbEntity
  8
ASSI
100
AcDbLine
 62
253
  6
CONTINUOUS
 10
19.0120709672
 20
18.6438056118
 11
18.7179985686
 21
18.4561545334
  0
LINE
  5
479
100
AcDbEntity
  8
ASSI
100
AcDbLine
 62
253
  6
CONTINUOUS
 10
18.7179985686
 20
18.4561545334
 11
18.710996947
 21
18.4516931705
  0
LINE
  5
47A
100
AcDbEntity
  8
ASSI
100
AcDbLine
 62
253
  6
CONTINUOUS
 10
18.710996947
 20
18.4516931705
 11
18.621754928
 21
18.3948544056
  0
SPLINE
  5
47B
100
AcDbEntity
  8
ASSI
100
AcDbSpline
 62
253
  6
CONTINUOUS
 70
0
 71
3
 72
9
 73
5
 74
3
 42
0.0000001
 43
0.0000001
 44
0.0000000001
 12
-0.2235064788
 22
-0.25831415
 32
0.0
 13
-0.2876107724
 23
-0.1842861626
 33
0.0
 40
0.0
 40
0.0
 40
0.0
 40
0.0
 40
0.2549508714
 40
1.0
 40
1.0
 40
1.0
 40
1.0
 10
19.0120709672
 20
18.6438056118
 30
0.0
 10
18.9930765767
 20
18.6218531393
 30
0.0
 10
18.9157107219
 20
18.5382840856
 30
0.0
 10
18.8264957727
 20
18.4655609561
 30
0.0
 10
18.755067721
 20
18.4197935412
 30
0.0
 11
19.0120709672
 21
18.6438056118
 31
0.0
 11
18.952857402
 21
18.5799461177
 31
0.0
 11
18.755067721
 21
18.4197935412
 31
0.0
  0
SPLINE
  5
47C
100
AcDbEntity
  8
ASSI
100
AcDbSpline
 62
253
  6
CONTINUOUS
 70
0
 71
3
 72
9
 73
5
 74
3
 42
0.0000001
 43
0.0000001
 44
0.0000000001
 12
0.2664156726
 22
0.9222971134
 32
0.0
 13
-0.4148634562
 23
0.8657352879
 33
0.0
 40
0.0
 40
0.0
 40
0.0
 40
0.0
 40
0.2448659816
 40
1.0
 40
1.0
 40
1.0
 40
1.0
 10
17.5706063099
 20
21.1471011069
 30
0.0
 10
17.5923516883
 20
21.2223808362
 30
0.0
 10
17.6479673873
 20
21.5385669632
 30
0.0
 10
17.5885678882
 20
21.8739037078
 30
0.0
 10
17.484142052
 20
22.0918190967
 30
0.0
 11
17.5706063099
 21
21.1471011069
 31
0.0
 11
17.6126922374
 21
21.3783755475
 31
0.0
 11
17.484142052
 21
22.0918190967
 31
0.0
  0
SPLINE
  5
47D
100
AcDbEntity
  8
ASSI
100
AcDbSpline
 62
253
  6
CONTINUOUS
 70
0
 71
3
 72
10
 73
6
 74
4
 42
0.0000001
 43
0.0000001
 44
0.0000000001
 12
0.0043550819
 22
1.5046823338
 32
0.0
 13
-0.7583998645
 23
1.2995836017
 33
0.0
 40
0.0
 40
0.0
 40
0.0
 40
0.0
 40
0.2344750887
 40
0.482987959
 40
1.0
 40
1.0
 40
1.0
 40
1.0
 10
17.2034210184
 20
23.8595341479
 30
0.0
 10
17.2037614045
 20
23.9771376558
 30
0.0
 10
17.1842932157
 20
24.2197576385
 30
0.0
 10
17.0749307416
 20
24.7102233316
 30
0.0
 10
16.9199711634
 20
25.0672009325
 30
0.0
 10
16.7892705428
 20
25.2911677226
 30
0.0
 11
17.2034210184
 21
23.8595341479
 31
0.0
 11
17.1769985492
 21
24.2113553547
 31
0.0
 11
17.096786855
 21
24.5765855402
 31
0.0
 11
16.7892705428
 21
25.2911677226
 31
0.0
  0
SPLINE
  5
47E
100
AcDbEntity
  8
ASSI
100
AcDbSpline
 62
253
  6
CONTINUOUS
 70
0
 71
3
 72
11
 73
7
 74
5
 42
0.0000001
 43
0.0000001
 44
0.0000000001
 12
0.9788248621
 22
0.4894045759
 32
0.0
 13
1.0189210128
 23
-0.3992679791
 33
0.0
 40
0.0
 40
0.0
 40
0.0
 40
0.0
 40
0.2313380055
 40
0.4912640204
 40
0.7561057227
 40
1.0
 40
1.0
 40
1.0
 40
1.0
 10
-4.0148747689
 20
26.4117596437
 30
0.0
 10
-3.9393949718
 20
26.4494989365
 30
0.0
 10
-3.7671786438
 20
26.5058591488
 30
0.0
 10
-3.4920991838
 20
26.5394394189
 30
0.0
 10
-3.2107612092
 20
26.5245820843
 30
0.0
 10
-3.0287424697
 20
26.4800946385
 30
0.0
 10
-2.9459061351
 20
26.4476349134
 30
0.0
 11
-4.0148747689
 21
26.4117596437
 31
0.0
 11
-3.7757566051
 21
26.494919668
 31
0.0
 11
-3.4936044326
 21
26.5310147344
 31
0.0
 11
-3.2042280774
 21
26.5147855124
 31
0.0
 11
-2.9459061351
 21
26.4476349134
 31
0.0
  0
SPLINE
  5
47F
100
AcDbEntity
  8
ASSI
100
AcDbSpline
 62
7
  6
CONTINUOUS
 70
0
 71
3
 72
12
 73
8
 74
6
 42
0.0000001
 43
0.0000001
 44
0.0000000001
 12
-0.0000053441
 22
1.3059512596
 32
0.0
 13
1.163950723
 23
0.5922224304
 33
0.0
 40
0.0
 40
0.0
 40
0.0
 40
0.0
 40
0.1025370827
 40
0.2078918808
 40
0.4358567754
 40
0.6982900168
 40
1.0
 40
1.0
 40
1.0
 40
1.0
 10
6.9930263287
 20
24.9340880101
 30
0.0
 10
6.993026146
 20
24.9787241542
 30
0.0
 10
7.0019686231
 20
25.0694580148
 30
0.0
 10
7.056298029
 20
25.2522799455
 30
0.0
 10
7.1965385948
 20
25.4761188475
 30
0.0
 10
7.4530038104
 20
25.7106582113
 30
0.0
 10
7.664529034
 20
25.838278442
 30
0.0
 10
7.7815875517
 20
25.8978382485
 30
0.0
 11
6.9930263287
 21
24.9340880101
 31
0.0
 11
7.0059759814
 21
25.0673688217
 31
0.0
 11
7.0447027533
 21
25.1993944198
 31
0.0
 11
7.1977899134
 21
25.454729857
 31
0.0
 11
7.4465343383
 21
25.6904980735
 31
0.0
 11
7.7815875517
 21
25.8978382485
 31
0.0
  0
LINE
  5
480
100
AcDbEntity
  8
ASSI
100
AcDbLine
 62
253
  6
CONTINUOUS
 10
19.0707966069
 20
18.861078532
 11
18.5178648819
 21
18.5107455482
  0
SPLINE
  5
481
100
AcDbEntity
  8
ASSI
100
AcDbSpline
 62
253
  6
CONTINUOUS
 70
0
 71
3
 72
11
 73
7
 74
5
 42
0.0000001
 43
0.0000001
 44
0.0000000001
 12
2.0567289292
 22
-1.2211300742
 32
0.0
 13
1.0065394184
 23
-2.1698320086
 33
0.0
 40
0.0
 40
0.0
 40
0.0
 40
0.0
 40
0.2283849859
 40
0.4751112839
 40
0.7346328397
 40
1.0
 40
1.0
 40
1.0
 40
1.0
 10
17.4840876543
 20
23.501517966
 30
0.0
 10
17.6406629902
 20
23.4085553744
 30
0.0
 10
17.9471832193
 20
23.181934117
 30
0.0
 10
18.3576296335
 20
22.7612443917
 30
0.0
 10
18.7219289212
 20
22.2631776892
 30
0.0
 10
18.9230369079
 20
21.8945714829
 30
0.0
 10
19.012071077
 20
21.7026374301
 30
0.0
 11
17.4840876543
 21
23.501517966
 31
0.0
 11
17.9258599436
 21
23.1801798925
 31
0.0
 11
18.3400695056
 21
22.7598138196
 31
0.0
 11
18.7077513206
 21
22.2596664785
 31
0.0
 11
19.012071077
 21
21.7026374301
 31
0.0
  0
SPLINE
  5
482
100
AcDbEntity
  8
ASSI
100
AcDbSpline
 62
253
  6
CONTINUOUS
 70
0
 71
3
 72
11
 73
7
 74
5
 42
0.0000001
 43
0.0000001
 44
0.0000000001
 12
-0.3917987687
 22
0.1632271533
 32
0.0
 13
-0.3828480876
 23
-0.1832395169
 33
0.0
 40
0.0
 40
0.0
 40
0.0
 40
0.0
 40
0.2279058184
 40
0.4667104003
 40
0.7228314534
 40
1.0
 40
1.0
 40
1.0
 40
1.0
 10
10.3312570526
 20
29.1789391854
 30
0.0
 10
10.3014926463
 20
29.1913393247
 30
0.0
 10
10.2369750777
 20
29.20884671
 30
0.0
 10
10.1338870842
 20
29.2111319928
 30
0.0
 10
10.0259427845
 20
29.1903283648
 30
0.0
 10
9.9552799638
 20
29.1627400445
 30
0.0
 10
9.9199088145
 20
29.1458106343
 30
0.0
 11
10.3312570526
 21
29.1789391854
 31
0.0
 11
10.2379944826
 21
29.204614915
 31
0.0
 11
10.1366804584
 21
29.2076082939
 31
0.0
 11
10.0297837531
 21
29.1878464057
 31
0.0
 11
9.9199088145
 21
29.1458106343
 31
0.0
  0
SPLINE
  5
483
100
AcDbEntity
  8
ASSI
100
AcDbSpline
 62
253
  6
CONTINUOUS
 70
0
 71
3
 72
9
 73
5
 74
3
 42
0.0000001
 43
0.0000001
 44
0.0000000001
 12
0.0824049092
 22
0.0412054493
 32
0.0
 13
0.0824061071
 23
-0.0412030536
 33
0.0
 40
0.0
 40
0.0
 40
0.0
 40
0.0
 40
0.4637109335
 40
1.0
 40
1.0
 40
1.0
 40
1.0
 10
-4.1043174542
 20
26.4174399337
 30
0.0
 10
-4.0915801017
 20
26.4238090728
 30
0.0
 10
-4.0596063705
 20
26.4291249486
 30
0.0
 10
-4.0296059337
 20
26.4191252261
 30
0.0
 10
-4.0148747689
 20
26.4117596437
 30
0.0
 11
-4.1043174542
 21
26.4174399337
 31
0.0
 11
-4.0623512774
 21
26.4254458524
 31
0.0
 11
-4.0148747689
 21
26.4117596437
 31
0.0
  0
SPLINE
  5
484
100
AcDbEntity
  8
ASSI
100
AcDbSpline
 62
7
  6
CONTINUOUS
 70
0
 71
3
 72
9
 73
5
 74
3
 42
0.0000001
 43
0.0000001
 44
0.0000000001
 12
0.0249559722
 22
0.0080480788
 32
0.0
 13
0.0261927962
 23
-0.0012286359
 33
0.0
 40
0.0
 40
0.0
 40
0.0
 40
0.0
 40
0.2398744762
 40
1.0
 40
1.0
 40
1.0
 40
1.0
 10
-4.1573909084
 20
26.3901188563
 30
0.0
 10
-4.1553954748
 20
26.3907623659
 30
0.0
 10
-4.1469430509
 20
26.3930284562
 30
0.0
 10
-4.1380820039
 20
26.3936117314
 30
0.0
 10
-4.1314453996
 20
26.3933004255
 30
0.0
 11
-4.1573909084
 21
26.3901188563
 31
0.0
 11
-4.1513169212
 21
26.3917526916
 31
0.0
 11
-4.1314453996
 21
26.3933004255
 31
0.0
  0
SPLINE
  5
485
100
AcDbEntity
  8
ASSI
100
AcDbSpline
 62
7
  6
CONTINUOUS
 70
0
 71
3
 72
9
 73
5
 74
3
 42
0.0000001
 43
0.0000001
 44
0.0000000001
 12
0.0469102143
 22
-0.0022004361
 32
0.0
 13
0.0426817969
 23
-0.0195876067
 33
0.0
 40
0.0
 40
0.0
 40
0.0
 40
0.0
 40
0.2299667843
 40
1.0
 40
1.0
 40
1.0
 40
1.0
 10
-4.1314453996
 20
26.3933004255
 30
0.0
 10
-4.1278494692
 20
26.3931317498
 30
0.0
 10
-4.1122562117
 20
26.3914436796
 30
0.0
 10
-4.0971755787
 20
26.3863147385
 30
0.0
 10
-4.0862201116
 20
26.3812870359
 30
0.0
 11
-4.1314453996
 21
26.3933004255
 31
0.0
 11
-4.1207047167
 21
26.3921733801
 31
0.0
 11
-4.0862201116
 21
26.3812870359
 31
0.0
  0
SPLINE
  5
486
100
AcDbEntity
  8
ASSI
100
AcDbSpline
 62
7
  6
CONTINUOUS
 70
0
 71
3
 72
9
 73
5
 74
3
 42
0.0000001
 43
0.0000001
 44
0.0000000001
 12
-0.0362899579
 22
0.0114219821
 32
0.0
 13
-0.0373797737
 23
-0.0070834482
 33
0.0
 40
0.0
 40
0.0
 40
0.0
 40
0.0
 40
0.2408758716
 40
1.0
 40
1.0
 40
1.0
 40
1.0
 10
-2.8714968247
 20
26.4598904188
 30
0.0
 10
-2.8744106165
 20
26.4608075121
 30
0.0
 10
-2.886764411
 20
26.4638003295
 30
0.0
 10
-2.8998210492
 20
26.4633578969
 30
0.0
 10
-2.9092796785
 20
26.4615654914
 30
0.0
 11
-2.8714968247
 21
26.4598904188
 31
0.0
 11
-2.8804028584
 21
26.4620499898
 31
0.0
 11
-2.9092796785
 21
26.4615654914
 31
0.0
  0
SPLINE
  5
487
100
AcDbEntity
  8
ASSI
100
AcDbSpline
 62
7
  6
CONTINUOUS
 70
0
 71
3
 72
9
 73
5
 74
3
 42
0.0000001
 43
0.0000001
 44
0.0000000001
 12
-0.03860054
 22
-0.0073147828
 32
0.0
 13
-0.0342157966
 23
-0.0193076926
 33
0.0
 40
0.0
 40
0.0
 40
0.0
 40
0.0
 40
0.2356956071
 40
1.0
 40
1.0
 40
1.0
 40
1.0
 10
-2.9092796785
 20
26.4615654914
 30
0.0
 10
-2.9123123378
 20
26.460990804
 30
0.0
 10
-2.9250608088
 20
26.4579295136
 30
0.0
 10
-2.9371888945
 20
26.4525538251
 30
0.0
 10
-2.9459059891
 20
26.4476348404
 30
0.0
 11
-2.9092796785
 21
26.4615654914
 31
0.0
 11
-2.9182873911
 21
26.4594191682
 31
0.0
 11
-2.9459059891
 21
26.4476348404
 31
0.0
  0
SPLINE
  5
488
100
AcDbEntity
  8
ASSI
100
AcDbSpline
 62
253
  6
CONTINUOUS
 70
0
 71
3
 72
9
 73
5
 74
3
 42
0.0000001
 43
0.0000001
 44
0.0000000001
 12
-0.2174549843
 22
0.1125068563
 32
0.0
 13
-0.2442365519
 23
0.0171163546
 33
0.0
 40
0.0
 40
0.0
 40
0.0
 40
0.0
 40
0.2672094675
 40
1.0
 40
1.0
 40
1.0
 40
1.0
 10
4.0015897472
 20
26.4125347627
 30
0.0
 10
3.9822210704
 20
26.4225557284
 30
0.0
 10
3.9082954308
 20
26.4570195678
 30
0.0
 10
3.827586648
 20
26.4783814096
 30
0.0
 10
3.7679285704
 20
26.4825623105
 30
0.0
 11
4.0015897472
 21
26.4125347627
 31
0.0
 11
3.9422294863
 21
26.4400383623
 31
0.0
 11
3.7679285704
 21
26.4825623105
 31
0.0
  0
SPLINE
  5
489
100
AcDbEntity
  8
ASSI
100
AcDbSpline
 62
253
  6
CONTINUOUS
 70
0
 71
3
 72
11
 73
7
 74
5
 42
0.0000001
 43
0.0000001
 44
0.0000000001
 12
-0.393894053
 22
0.2037928988
 32
0.0
 13
-0.4047200499
 23
-0.181344291
 33
0.0
 40
0.0
 40
0.0
 40
0.0
 40
0.0
 40
0.2782209584
 40
0.534120382
 40
0.7721714565
 40
1.0
 40
1.0
 40
1.0
 40
1.0
 10
9.9199088145
 20
29.1458106343
 30
0.0
 10
9.8833789542
 20
29.1647104528
 30
0.0
 10
9.8101973414
 20
29.1956092815
 30
0.0
 10
9.6976445957
 20
29.219117527
 30
0.0
 10
9.5899428168
 20
29.2166954987
 30
0.0
 10
9.5228883985
 20
29.1971337499
 30
0.0
 10
9.4921528053
 20
29.183361948
 30
0.0
 11
9.9199088145
 21
29.1458106343
 31
0.0
 11
9.8058711966
 21
29.1929288496
 31
0.0
 11
9.6945848551
 21
29.2151799436
 31
0.0
 11
9.5890604539
 21
29.211961958
 31
0.0
 11
9.4921528053
 21
29.183361948
 31
0.0
  0
SPLINE
  5
48A
100
AcDbEntity
  8
ASSI
100
AcDbSpline
 62
253
  6
CONTINUOUS
 70
0
 71
3
 72
11
 73
7
 74
5
 42
0.0000001
 43
0.0000001
 44
0.0000000001
 12
-0.0001248954
 22
-0.1402298597
 32
0.0
 13
-0.1245280582
 23
-0.0644762891
 33
0.0
 40
0.0
 40
0.0
 40
0.0
 40
0.0
 40
0.207757318
 40
0.4361825988
 40
0.6986224787
 40
1.0
 40
1.0
 40
1.0
 40
1.0
 10
19.154994627
 20
18.9652115739
 30
0.0
 10
19.1549859777
 20
18.955500314
 30
0.0
 10
19.150796019
 20
18.9349624196
 30
0.0
 10
19.1332791986
 20
18.9068115151
 30
0.0
 10
19.1059103285
 20
18.8814002466
 30
0.0
 10
19.0833065927
 20
18.8675557667
 30
0.0
 10
19.0707966069
 20
18.861078532
 30
0.0
 11
19.154994627
 21
18.9652115739
 31
0.0
 11
19.1494639555
 21
18.9366075627
 31
0.0
 11
19.133125128
 21
18.9090558759
 31
0.0
 11
19.1065781723
 21
18.8835678275
 31
0.0
 11
19.0707966069
 21
18.861078532
 31
0.0
  0
SPLINE
  5
48B
100
AcDbEntity
  8
ASSI
100
AcDbSpline
 62
253
  6
CONTINUOUS
 70
0
 71
3
 72
9
 73
5
 74
3
 42
0.0000001
 43
0.0000001
 44
0.0000000001
 12
-0.1488168129
 22
0.0857036144
 32
0.0
 13
-0.0353033426
 23
0.1680631648
 33
0.0
 40
0.0
 40
0.0
 40
0.0
 40
0.0
 40
0.568422263
 40
1.0
 40
1.0
 40
1.0
 40
1.0
 10
17.570606299
 20
21.1471020983
 30
0.0
 10
17.5424093691
 20
21.1633407124
 30
0.0
 10
17.4954476916
 20
21.1968302967
 30
0.0
 10
17.4622314966
 20
21.2473500297
 30
0.0
 10
17.4571527843
 20
21.2715274698
 30
0.0
 11
17.570606299
 21
21.1471020983
 31
0.0
 11
17.4934624617
 21
21.2069156699
 31
0.0
 11
17.4571527843
 21
21.2715274698
 31
0.0
  0
SPLINE
  5
48C
100
AcDbEntity
  8
ASSI
100
AcDbSpline
 62
253
  6
CONTINUOUS
 70
0
 71
3
 72
11
 73
7
 74
5
 42
0.0000001
 43
0.0000001
 44
0.0000000001
 12
0.7999712
 22
1.9638426393
 32
0.0
 13
-0.6988670255
 23
2.0020531245
 33
0.0
 40
0.0
 40
0.0
 40
0.0
 40
0.0
 40
0.2176288778
 40
0.4591867775
 40
0.7218821323
 40
1.0
 40
1.0
 40
1.0
 40
1.0
 10
19.1380837838
 20
19.1669475808
 30
0.0
 10
19.196116062
 20
19.3094105373
 30
0.0
 10
19.2778674529
 20
19.6271297657
 30
0.0
 10
19.301707474
 20
20.1394536498
 30
0.0
 10
19.2340548637
 20
20.6905827691
 30
0.0
 10
19.1319481504
 20
21.0604810739
 30
0.0
 10
19.0671590148
 20
21.2460833226
 30
0.0
 11
19.1380837838
 21
19.1669475808
 31
0.0
 11
19.2586503086
 21
19.6124076428
 31
0.0
 11
19.2871817954
 21
20.1238422975
 31
0.0
 11
19.222330837
 21
20.6771069198
 31
0.0
 11
19.0671590148
 21
21.2460833226
 31
0.0
  0
SPLINE
  5
48D
100
AcDbEntity
  8
ASSI
100
AcDbSpline
 62
7
  6
CONTINUOUS
 70
0
 71
3
 72
9
 73
5
 74
3
 42
0.0000001
 43
0.0000001
 44
0.0000000001
 12
0.0847789364
 22
0.0443449558
 32
0.0
 13
0.0455387878
 23
0.0841436984
 33
0.0
 40
0.0
 40
0.0
 40
0.0
 40
0.0
 40
0.2714288436
 40
1.0
 40
1.0
 40
1.0
 40
1.0
 10
19.0707966069
 20
19.0174933403
 30
0.0
 10
19.0784670898
 20
19.021505507
 30
0.0
 10
19.1058162953
 20
19.0378269771
 30
0.0
 10
19.1292119656
 20
19.0617406224
 30
0.0
 10
19.1402713814
 20
19.082175513
 30
0.0
 11
19.0707966069
 21
19.0174933403
 31
0.0
 11
19.093022545
 21
19.0309250855
 31
0.0
 11
19.1402713814
 21
19.082175513
 31
0.0
  0
SPLINE
  5
48E
100
AcDbEntity
  8
ASSI
100
AcDbSpline
 62
253
  6
CONTINUOUS
 70
0
 71
3
 72
9
 73
5
 74
3
 42
0.0000001
 43
0.0000001
 44
0.0000000001
 12
0.4305866607
 22
0.4469486352
 32
0.0
 13
0.2845633178
 23
0.5515357405
 33
0.0
 40
0.0
 40
0.0
 40
0.0
 40
0.0
 40
0.5158790346
 40
1.0
 40
1.0
 40
1.0
 40
1.0
 10
17.2034210184
 20
20.6486797508
 30
0.0
 10
17.277464562
 20
20.7255368943
 30
0.0
 10
17.4120866964
 20
20.8833292934
 30
0.0
 10
17.5246849604
 20
21.0580976484
 30
0.0
 10
17.5706059831
 20
21.1471009868
 30
0.0
 11
17.2034210184
 21
20.6486797508
 31
0.0
 11
17.4105007969
 21
20.8928583065
 31
0.0
 11
17.5706059831
 21
21.1471009868
 31
0.0
  0
SPLINE
  5
48F
100
AcDbEntity
  8
ASSI
100
AcDbSpline
 62
253
  6
CONTINUOUS
 70
0
 71
3
 72
9
 73
5
 74
3
 42
0.0000001
 43
0.0000001
 44
0.0000000001
 12
0.1203771048
 22
-0.2805398384
 32
0.0
 13
-0.0134334598
 23
-0.3049799837
 33
0.0
 40
0.0
 40
0.0
 40
0.0
 40
0.0
 40
0.2605485237
 40
1.0
 40
1.0
 40
1.0
 40
1.0
 10
19.0120711555
 20
21.7026374617
 30
0.0
 10
19.0225258478
 20
21.6782727148
 30
0.0
 10
19.0577998755
 20
21.5828580365
 30
0.0
 10
19.0741077374
 20
21.4796207829
 30
0.0
 10
19.0707966069
 20
21.4044481499
 30
0.0
 11
19.0120711555
 21
21.7026374617
 31
0.0
 11
19.0396195112
 21
21.628021368
 31
0.0
 11
19.0707966069
 21
21.4044481499
 31
0.0
  0
SPLINE
  5
490
100
AcDbEntity
  8
ASSI
100
AcDbSpline
 62
253
  6
CONTINUOUS
 70
0
 71
3
 72
9
 73
5
 74
3
 42
0.0000001
 43
0.0000001
 44
0.0000000001
 12
0.0039397443
 22
-0.0853636674
 32
0.0
 13
-0.0126749972
 23
-0.0845092998
 33
0.0
 40
0.0
 40
0.0
 40
0.0
 40
0.0
 40
0.2600815329
 40
1.0
 40
1.0
 40
1.0
 40
1.0
 10
19.0707966069
 20
18.861078532
 30
0.0
 10
19.0711381584
 20
18.8536780275
 30
0.0
 10
19.0718347532
 20
18.8252026499
 30
0.0
 10
19.0699828873
 20
18.7966319847
 30
0.0
 10
19.0668567325
 20
18.7757886542
 30
0.0
 11
19.0707966069
 21
18.861078532
 31
0.0
 11
19.0713281173
 21
18.8388597423
 31
0.0
 11
19.0668567325
 21
18.7757886542
 31
0.0
  0
SPLINE
  5
491
100
AcDbEntity
  8
ASSI
100
AcDbSpline
 62
253
  6
CONTINUOUS
 70
0
 71
3
 72
9
 73
5
 74
3
 42
0.0000001
 43
0.0000001
 44
0.0000000001
 12
-0.0066317754
 22
-0.0442167117
 32
0.0
 13
-0.0124248059
 23
-0.0429502297
 33
0.0
 40
0.0
 40
0.0
 40
0.0
 40
0.0
 40
0.2563572463
 40
1.0
 40
1.0
 40
1.0
 40
1.0
 10
19.0668567325
 20
18.7757886542
 30
0.0
 10
19.0662900313
 20
18.7720102294
 30
0.0
 10
19.0638531964
 20
18.7573067844
 30
0.0
 10
19.0604881522
 20
18.7427522007
 30
0.0
 10
19.0574082799
 20
18.7321056583
 30
0.0
 11
19.0668567325
 21
18.7757886542
 31
0.0
 11
19.0649796297
 21
18.7644813431
 31
0.0
 11
19.0574082799
 21
18.7321056583
 31
0.0
  0
SPLINE
  5
492
100
AcDbEntity
  8
ASSI
100
AcDbSpline
 62
253
  6
CONTINUOUS
 70
0
 71
3
 72
9
 73
5
 74
3
 42
0.0000001
 43
0.0000001
 44
0.0000000001
 12
-0.025113342
 22
-0.0868121251
 32
0.0
 13
-0.0547750094
 23
-0.0718799231
 33
0.0
 40
0.0
 40
0.0
 40
0.0
 40
0.0
 40
0.2640149622
 40
1.0
 40
1.0
 40
1.0
 40
1.0
 10
19.0574082799
 20
18.7321056583
 30
0.0
 10
19.0551981805
 20
18.7244657583
 30
0.0
 10
19.0457165204
 20
18.6958814395
 30
0.0
 10
19.0313633802
 20
18.6687598891
 30
0.0
 10
19.0179255177
 20
18.6511257065
 30
0.0
 11
19.0574082799
 21
18.7321056583
 31
0.0
 11
19.0498520191
 21
18.7094743433
 31
0.0
 11
19.0179255177
 21
18.6511257065
 31
0.0
  0
SPLINE
  5
493
100
AcDbEntity
  8
ASSI
100
AcDbSpline
 62
253
  6
CONTINUOUS
 70
0
 71
3
 72
8
 73
4
 74
2
 42
0.0000001
 43
0.0000001
 44
0.0000000001
 12
-0.035950694
 22
-0.0415510418
 32
0.0
 13
-0.0468329767
 23
-0.0287334955
 33
0.0
 40
0.0
 40
0.0
 40
0.0
 40
0.0
 40
1.0
 40
1.0
 40
1.0
 40
1.0
 10
19.0540093049
 20
18.6793038366
 30
0.0
 10
19.0420257403
 20
18.6654534894
 30
0.0
 10
19.0276819996
 20
18.6533834901
 30
0.0
 10
19.0120710074
 20
18.6438056583
 30
0.0
 11
19.0540093049
 21
18.6793038366
 31
0.0
 11
19.0120710074
 21
18.6438056583
 31
0.0
  0
SPLINE
  5
494
100
AcDbEntity
  8
ASSI
100
AcDbSpline
 62
253
  6
CONTINUOUS
 70
0
 71
3
 72
14
 73
10
 74
8
 42
0.0000001
 43
0.0000001
 44
0.0000000001
 12
0.0424561285
 22
-0.0914541188
 32
0.0
 13
-0.0899811589
 23
-0.045494722
 33
0.0
 40
0.0
 40
0.0
 40
0.0
 40
0.0
 40
0.0202422722
 40
0.0707495779
 40
0.1528415264
 40
0.2659311191
 40
0.4088840295
 40
0.5801686766
 40
1.0
 40
1.0
 40
1.0
 40
1.0
 10
19.09928862
 20
21.7524180232
 30
0.0
 10
19.0995750896
 20
21.7518009435
 30
0.0
 10
19.0972193674
 20
21.74964159
 30
0.0
 10
19.0936835994
 20
21.7469555033
 30
0.0
 10
19.0863741649
 20
21.7423382955
 30
0.0
 10
19.0767007408
 20
21.7366943813
 30
0.0
 10
19.0640849746
 20
21.7296978369
 30
0.0
 10
19.0423537464
 20
21.7180777739
 30
0.0
 10
19.0246634245
 20
21.7090041012
 30
0.0
 10
19.0120711215
 20
21.7026373981
 30
0.0
 11
19.09928862
 21
21.7524180232
 31
0.0
 11
19.0982859508
 21
21.7506402933
 31
0.0
 11
19.0942869602
 21
21.7474871386
 31
0.0
 11
19.0873358184
 21
21.7429933931
 31
0.0
 11
19.0775094089
 21
21.7372087501
 31
0.0
 11
19.0649161113
 21
21.7301970286
 31
0.0
 11
19.0496956318
 21
21.7220359872
 31
0.0
 11
19.0120711215
 21
21.7026373981
 31
0.0
  0
SPLINE
  5
495
100
AcDbEntity
  8
ASSI
100
AcDbSpline
 62
253
  6
CONTINUOUS
 70
0
 71
3
 72
11
 73
7
 74
5
 42
0.0000001
 43
0.0000001
 44
0.0000000001
 12
0.4151656596
 22
0.2149583129
 32
0.0
 13
0.0002534801
 23
0.4675142104
 33
0.0
 40
0.0
 40
0.0
 40
0.0
 40
0.0
 40
0.3013827608
 40
0.5638236405
 40
0.7922427922
 40
1.0
 40
1.0
 40
1.0
 40
1.0
 10
17.2034210184
 20
23.8595341479
 30
0.0
 10
17.2451289426
 20
23.8811290579
 30
0.0
 10
17.3204880114
 20
23.9272872067
 30
0.0
 10
17.4117289866
 20
24.0120120206
 30
0.0
 10
17.4701135941
 20
24.1058743736
 30
0.0
 10
17.4840635211
 20
24.1743501096
 30
0.0
 10
17.4840810752
 20
24.2067265919
 30
0.0
 11
17.2034210184
 21
23.8595341479
 31
0.0
 11
17.3227142735
 21
23.9345150721
 31
0.0
 11
17.411213755
 21
24.0194966591
 31
0.0
 11
17.4656692408
 21
24.1113581664
 31
0.0
 11
17.4840810752
 21
24.2067265919
 31
0.0
  0
SPLINE
  5
496
100
AcDbEntity
  8
ASSI
100
AcDbSpline
 62
253
  6
CONTINUOUS
 70
0
 71
3
 72
11
 73
7
 74
5
 42
0.0000001
 43
0.0000001
 44
0.0000000001
 12
-0.0001190569
 22
-0.1402329443
 32
0.0
 13
-0.1245307927
 23
-0.0644777054
 33
0.0
 40
0.0
 40
0.0
 40
0.0
 40
0.0
 40
0.2077573152
 40
0.4361818004
 40
0.6986214785
 40
1.0
 40
1.0
 40
1.0
 40
1.0
 10
19.1549946298
 20
21.5085843144
 30
0.0
 10
19.1549863848
 20
21.4988728411
 30
0.0
 10
19.1507970812
 20
21.4783343379
 30
0.0
 10
19.133280433
 20
21.4501824662
 30
0.0
 10
19.1059111568
 20
21.4247703956
 30
0.0
 10
19.0833069089
 20
21.4109255484
 30
0.0
 10
19.0707966069
 20
21.4044481499
 30
0.0
 11
19.1549946298
 21
21.5085843144
 31
0.0
 11
19.1494648506
 21
21.4799794795
 31
0.0
 11
19.1331262983
 21
21.4524269414
 31
0.0
 11
19.1065790227
 21
21.4269381001
 31
0.0
 11
19.0707966069
 21
21.4044481499
 31
0.0
  0
SPLINE
  5
497
100
AcDbEntity
  8
ASSI
100
AcDbSpline
 62
253
  6
CONTINUOUS
 70
0
 71
3
 72
9
 73
5
 74
3
 42
0.0000001
 43
0.0000001
 44
0.0000000001
 12
0.0568933427
 22
0.2720263251
 32
0.0
 13
0.0000341755
 23
0.2779121675
 33
0.0
 40
0.0
 40
0.0
 40
0.0
 40
0.0
 40
0.2472264638
 40
1.0
 40
1.0
 40
1.0
 40
1.0
 10
17.4571526379
 20
21.2715274871
 30
0.0
 10
17.4618411512
 20
21.2939448559
 30
0.0
 10
17.4779779388
 20
21.3852048489
 30
0.0
 10
17.4840728233
 20
21.4781096027
 30
0.0
 10
17.4840813988
 20
21.5478445777
 30
0.0
 11
17.4571526379
 21
21.2715274871
 31
0.0
 11
17.4692062627
 21
21.3391691559
 31
0.0
 11
17.4840813988
 21
21.5478445777
 31
0.0
  0
SPLINE
  5
498
100
AcDbEntity
  8
ASSI
100
AcDbSpline
 62
7
  6
CONTINUOUS
 70
0
 71
3
 72
9
 73
5
 74
3
 42
0.0000001
 43
0.0000001
 44
0.0000000001
 12
0.0000042087
 22
-0.0456667299
 32
0.0
 13
-0.0312580849
 23
-0.0332923769
 33
0.0
 40
0.0
 40
0.0
 40
0.0
 40
0.0
 40
0.2138922416
 40
1.0
 40
1.0
 40
1.0
 40
1.0
 10
19.1549946278
 20
21.3335499179
 30
0.0
 10
19.1549949279
 20
21.3302939981
 30
0.0
 10
19.1528856829
 20
21.3150337221
 30
0.0
 10
19.1433836265
 20
21.3018570767
 30
0.0
 10
19.1351928855
 20
21.2931332781
 30
0.0
 11
19.1549946278
 21
21.3335499179
 31
0.0
 11
19.1537544053
 21
21.3238612147
 31
0.0
 11
19.1351928855
 21
21.2931332781
 31
0.0
  0
SPLINE
  5
499
100
AcDbEntity
  8
ASSI
100
AcDbSpline
 62
7
  6
CONTINUOUS
 70
0
 71
3
 72
9
 73
5
 74
3
 42
0.0000001
 43
0.0000001
 44
0.0000000001
 12
-0.0350437131
 22
-0.0373243757
 32
0.0
 13
-0.0435750148
 23
-0.026877294
 33
0.0
 40
0.0
 40
0.0
 40
0.0
 40
0.0
 40
0.2216206499
 40
1.0
 40
1.0
 40
1.0
 40
1.0
 10
19.1351928855
 20
21.2931332781
 30
0.0
 10
19.132604082
 20
21.290375994
 30
0.0
 10
19.1203418997
 20
21.2784792871
 30
0.0
 10
19.1062804693
 20
21.2685667373
 30
0.0
 10
19.0949745054
 20
21.2615931605
 30
0.0
 11
19.1351928855
 21
21.2931332781
 31
0.0
 11
19.127080605
 21
21.2852003354
 31
0.0
 11
19.0949745054
 21
21.2615931605
 31
0.0
  0
SPLINE
  5
49A
100
AcDbEntity
  8
ASSI
100
AcDbSpline
 62
7
  6
CONTINUOUS
 70
0
 71
3
 72
9
 73
5
 74
3
 42
0.0000001
 43
0.0000001
 44
0.0000000001
 12
-0.0235970875
 22
-0.0145548053
 32
0.0
 13
-0.0246735818
 23
-0.012644337
 33
0.0
 40
0.0
 40
0.0
 40
0.0
 40
0.0
 40
0.2403713988
 40
1.0
 40
1.0
 40
1.0
 40
1.0
 10
19.0949745054
 20
21.2615931605
 30
0.0
 10
19.0930838171
 20
21.2604269741
 30
0.0
 10
19.0851642209
 20
21.255662942
 30
0.0
 10
19.077044193
 20
21.251235177
 30
0.0
 10
19.0707966069
 20
21.2480335103
 30
0.0
 11
19.0949745054
 21
21.2615931605
 31
0.0
 11
19.0892649476
 21
21.258156129
 31
0.0
 11
19.0707966069
 21
21.2480335103
 31
0.0
  0
SPLINE
  5
49B
100
AcDbEntity
  8
RACCORDO
100
AcDbSpline
 62
7
  6
CONTINUOUS
 70
0
 71
3
 72
9
 73
5
 74
3
 42
0.0000001
 43
0.0000001
 44
0.0000000001
 12
-0.0004064978
 22
0.0259299962
 32
0.0
 13
-0.0020641494
 23
0.0258509038
 33
0.0
 40
0.0
 40
0.0
 40
0.0
 40
0.0
 40
0.2485360477
 40
1.0
 40
1.0
 40
1.0
 40
1.0
 10
7.3776398993
 20
24.5088267987
 30
0.0
 10
7.3776062228
 20
24.5109749783
 30
0.0
 10
7.3774025857
 20
24.5196172464
 30
0.0
 10
7.3768938553
 20
24.5282512059
 30
0.0
 10
7.3763768107
 20
24.5347265467
 30
0.0
 11
7.3776398993
 21
24.5088267987
 31
0.0
 11
7.3774861548
 21
24.5152702954
 31
0.0
 11
7.3763768107
 21
24.5347265467
 31
0.0
  0
SPLINE
  5
49C
100
AcDbEntity
  8
RACCORDO
100
AcDbSpline
 62
7
  6
CONTINUOUS
 70
0
 71
3
 72
9
 73
5
 74
3
 42
0.0000001
 43
0.0000001
 44
0.0000000001
 12
0.003195696
 22
0.0016680086
 32
0.0
 13
-0.0000093949
 23
0.0036048076
 33
0.0
 40
0.0
 40
0.0
 40
0.0
 40
0.0
 40
0.5036977787
 40
1.0
 40
1.0
 40
1.0
 40
1.0
 10
7.3759061012
 20
23.9235329593
 30
0.0
 10
7.3764426562
 20
23.9238130167
 30
0.0
 10
7.3774294962
 20
23.9246361437
 30
0.0
 10
7.3776880158
 20
23.9258909152
 30
0.0
 10
7.3776864615
 20
23.9264872732
 30
0.0
 11
7.3759061012
 21
23.9235329593
 31
0.0
 11
7.3772520112
 21
23.9247517444
 31
0.0
 11
7.3776864615
 21
23.9264872732
 31
0.0
  0
SPLINE
  5
49D
100
AcDbEntity
  8
RACCORDO
100
AcDbSpline
 62
7
  6
CONTINUOUS
 70
0
 71
3
 72
10
 73
6
 74
4
 42
0.0000001
 43
0.0000001
 44
0.0000000001
 12
-0.431001698
 22
0.4732084891
 32
0.0
 13
-0.5725276644
 23
0.286183178
 33
0.0
 40
0.0
 40
0.0
 40
0.0
 40
0.0
 40
0.506838871
 40
0.7558957822
 40
1.0
 40
1.0
 40
1.0
 40
1.0
 10
7.3763768107
 20
24.5347265467
 30
0.0
 10
7.3035606726
 20
24.6146733655
 30
0.0
 10
7.1862039827
 20
24.7266300989
 30
0.0
 10
7.0135157697
 20
24.8523232883
 30
0.0
 10
6.922287993
 20
24.9053127371
 30
0.0
 10
6.8757025204
 20
24.9285989107
 30
0.0
 11
7.3763768107
 21
24.5347265467
 31
0.0
 11
7.1402575047
 21
24.7571918866
 31
0.0
 11
7.0111137264
 21
24.8506510146
 31
0.0
 11
6.8757025204
 21
24.9285989107
 31
0.0
  0
SPLINE
  5
49E
100
AcDbEntity
  8
RACCORDO
100
AcDbSpline
 62
7
  6
CONTINUOUS
 70
0
 71
3
 72
11
 73
7
 74
5
 42
0.0000001
 43
0.0000001
 44
0.0000000001
 12
0.4104598159
 22
0.2008428369
 32
0.0
 13
0.4087143287
 23
-0.2043714832
 33
0.0
 40
0.0
 40
0.0
 40
0.0
 40
0.0
 40
0.2787325875
 40
0.5346772883
 40
0.772449667
 40
1.0
 40
1.0
 40
1.0
 40
1.0
 10
3.2084591533
 20
26.5163496611
 30
0.0
 10
3.2465953288
 20
26.5350101423
 30
0.0
 10
3.3228263184
 20
26.5650965918
 30
0.0
 10
3.4394955212
 20
26.586150766
 30
0.0
 10
3.5503036723
 20
26.5800383717
 30
0.0
 10
3.6185150108
 20
26.5571932427
 30
0.0
 10
3.649516038
 20
26.5416916431
 30
0.0
 11
3.2084591533
 21
26.5163496611
 31
0.0
 11
3.3273051604
 21
26.5621629734
 31
0.0
 11
3.4425841235
 21
26.5819052085
 31
0.0
 11
3.5510186823
 21
26.5750164152
 31
0.0
 11
3.649516038
 21
26.5416916431
 31
0.0
  0
SPLINE
  5
49F
100
AcDbEntity
  8
RACCORDO
100
AcDbSpline
 62
7
  6
CONTINUOUS
 70
0
 71
3
 72
14
 73
10
 74
8
 42
0.0000001
 43
0.0000001
 44
0.0000000001
 12
0.0
 22
0.630991571
 32
0.0
 13
-0.5643681094
 23
0.2822038267
 33
0.0
 40
0.0
 40
0.0
 40
0.0
 40
0.0
 40
0.2891525564
 40
0.4227177506
 40
0.5489643138
 40
0.668508974
 40
0.7824375212
 40
0.892292605
 40
1.0
 40
1.0
 40
1.0
 40
1.0
 10
-0.3332453451
 20
28.1221456709
 30
0.0
 10
-0.3332453451
 20
28.1829632795
 30
0.0
 10
-0.3408318018
 20
28.2723547041
 30
0.0
 10
-0.3698312326
 20
28.3843413796
 30
0.0
 10
-0.3992808792
 20
28.4587508702
 30
0.0
 10
-0.4366891906
 20
28.5248214846
 30
0.0
 10
-0.481678541
 20
28.5817130439
 30
0.0
 10
-0.5337162345
 20
28.6286184064
 30
0.0
 10
-0.5728624428
 20
28.6528801736
 30
0.0
 10
-0.5931246491
 20
28.6630119866
 30
0.0
 11
-0.3332453451
 21
28.1221456709
 31
0.0
 11
-0.3505227827
 21
28.3037786079
 31
0.0
 11
-0.3719210386
 21
28.385295368
 31
0.0
 11
-0.4015106053
 21
28.4592565439
 31
0.0
 11
-0.4389287123
 21
28.5247532809
 31
0.0
 11
-0.4837169799
 21
28.5809839564
 31
0.0
 11
-0.5353264212
 21
28.6272592161
 31
0.0
 11
-0.5931246491
 21
28.6630119866
 31
0.0
  0
SPLINE
  5
4A0
100
AcDbEntity
  8
RACCORDO
100
AcDbSpline
 62
7
  6
CONTINUOUS
 70
0
 71
3
 72
11
 73
7
 74
5
 42
0.0000001
 43
0.0000001
 44
0.0000000001
 12
0.0557205746
 22
0.0171953145
 32
0.0
 13
0.0521861977
 23
-0.026020416
 33
0.0
 40
0.0
 40
0.0
 40
0.0
 40
0.0
 40
0.368058145
 40
0.6517558087
 40
0.8584037383
 40
1.0
 40
1.0
 40
1.0
 40
1.0
 10
-3.876512243
 20
30.2689375129
 30
0.0
 10
-3.8696761059
 20
30.2710471381
 30
0.0
 10
-3.8574825445
 20
30.2744985962
 30
0.0
 10
-3.8410664863
 20
30.27773931
 30
0.0
 10
-3.8288118268
 20
30.2785841978
 30
0.0
 10
-3.8219373422
 20
30.2774154114
 30
0.0
 10
-3.8194742187
 20
30.2761872802
 30
0.0
 11
-3.876512243
 21
30.2689375129
 31
0.0
 11
-3.8558179741
 21
30.2746293346
 31
0.0
 11
-3.8395489814
 21
30.2776299751
 31
0.0
 11
-3.8275076245
 21
30.2780956677
 31
0.0
 11
-3.8194742187
 21
30.2761872802
 31
0.0
  0
SPLINE
  5
4A1
100
AcDbEntity
  8
RACCORDO
100
AcDbSpline
 62
7
  6
CONTINUOUS
 70
0
 71
3
 72
9
 73
5
 74
3
 42
0.0000001
 43
0.0000001
 44
0.0000000001
 12
-0.0189527949
 22
-0.0058488139
 32
0.0
 13
-0.0177371727
 23
-0.0088774864
 33
0.0
 40
0.0
 40
0.0
 40
0.0
 40
0.0
 40
0.2476285508
 40
1.0
 40
1.0
 40
1.0
 40
1.0
 10
-3.876512243
 20
30.2689375129
 30
0.0
 10
-3.8780766607
 20
30.2684547352
 30
0.0
 10
-3.8843513504
 20
30.266367479
 30
0.0
 10
-3.8904435945
 20
30.2637413737
 30
0.0
 10
-3.8948919086
 20
30.2615149846
 30
0.0
 11
-3.876512243
 21
30.2689375129
 31
0.0
 11
-3.8811730578
 21
30.2673879646
 31
0.0
 11
-3.8948919086
 21
30.2615149846
 31
0.0
  0
SPLINE
  5
4A2
100
AcDbEntity
  8
RACCORDO
100
AcDbSpline
 62
7
  6
CONTINUOUS
 70
0
 71
3
 72
11
 73
7
 74
5
 42
0.0000001
 43
0.0000001
 44
0.0000000001
 12
-0.1620397139
 22
-0.0811011646
 32
0.0
 13
-0.0906562346
 23
-0.1568939607
 33
0.0
 40
0.0
 40
0.0
 40
0.0
 40
0.0
 40
0.2068014243
 40
0.4392363129
 40
0.7028675903
 40
1.0
 40
1.0
 40
1.0
 40
1.0
 10
-3.8948919086
 20
30.2615149846
 30
0.0
 10
-3.9060619231
 20
30.2559243724
 30
0.0
 10
-3.9281052734
 20
30.2406410402
 30
0.0
 10
-3.9577820777
 20
30.2100793157
 30
0.0
 10
-3.9864993327
 20
30.1716128377
 30
0.0
 10
-4.0042924663
 20
30.142754382
 30
0.0
 10
-4.0132714348
 20
30.1272149551
 30
0.0
 11
-3.8948919086
 21
30.2615149846
 31
0.0
 11
-3.9260434982
 21
30.240687215
 31
0.0
 11
-3.9558094653
 21
30.2108897217
 31
0.0
 11
-3.9847319112
 21
30.172869709
 31
0.0
 11
-4.0132714348
 21
30.1272149551
 31
0.0
  0
SPLINE
  5
4A3
100
AcDbEntity
  8
RACCORDO
100
AcDbSpline
 62
7
  6
CONTINUOUS
 70
0
 71
3
 72
11
 73
7
 74
5
 42
0.0000001
 43
0.0000001
 44
0.0000000001
 12
-0.4087143287
 22
0.2043714832
 32
0.0
 13
-0.4104598159
 23
-0.2008428369
 33
0.0
 40
0.0
 40
0.0
 40
0.0
 40
0.0
 40
0.227550333
 40
0.4653227117
 40
0.7212674125
 40
1.0
 40
1.0
 40
1.0
 40
1.0
 10
-0.5931246491
 20
28.6630119866
 30
0.0
 10
-0.6241256763
 20
28.6785135863
 30
0.0
 10
-0.6923370149
 20
28.7013587152
 30
0.0
 10
-0.803145166
 20
28.7074711095
 30
0.0
 10
-0.9198143687
 20
28.6864169353
 30
0.0
 10
-0.9960453583
 20
28.6563304859
 30
0.0
 10
-1.0341815338
 20
28.6376700047
 30
0.0
 11
-0.5931246491
 21
28.6630119866
 31
0.0
 11
-0.6916220048
 21
28.6963367588
 31
0.0
 11
-0.8000565636
 21
28.703225552
 31
0.0
 11
-0.9153355267
 21
28.6834833169
 31
0.0
 11
-1.0341815338
 21
28.6376700047
 31
0.0
  0
SPLINE
  5
4A4
100
AcDbEntity
  8
RACCORDO
100
AcDbSpline
 62
7
  6
CONTINUOUS
 70
0
 71
3
 72
9
 73
5
 74
3
 42
0.0000001
 43
0.0000001
 44
0.0000000001
 12
-0.2341361533
 22
0.117035093
 32
0.0
 13
-0.2566306785
 23
0.0515523629
 33
0.0
 40
0.0
 40
0.0
 40
0.0
 40
0.0
 40
0.2560238952
 40
1.0
 40
1.0
 40
1.0
 40
1.0
 10
6.8757025204
 20
24.9285989107
 30
0.0
 10
6.8557210371
 20
24.9385868375
 30
0.0
 10
6.7766683638
 20
24.9754647499
 30
0.0
 10
6.6930322863
 20
25.003201855
 30
0.0
 10
6.6293899222
 20
25.0159864303
 30
0.0
 11
6.8757025204
 21
24.9285989107
 31
0.0
 11
6.8149418564
 21
24.9568709273
 31
0.0
 11
6.6293899222
 21
25.0159864303
 31
0.0
  0
SPLINE
  5
4A5
100
AcDbEntity
  8
RACCORDO
100
AcDbSpline
 62
7
  6
CONTINUOUS
 70
0
 71
3
 72
9
 73
5
 74
3
 42
0.0000001
 43
0.0000001
 44
0.0000000001
 12
-0.0000153526
 22
0.0058907759
 32
0.0
 13
-0.0030473344
 23
0.0050413519
 33
0.0
 40
0.0
 40
0.0
 40
0.0
 40
0.0
 40
0.198822484
 40
1.0
 40
1.0
 40
1.0
 40
1.0
 10
7.3776864615
 20
23.9264872732
 30
0.0
 10
7.3776854441
 20
23.9268776795
 30
0.0
 10
7.3774232017
 20
23.9288396893
 30
0.0
 10
7.3764742038
 20
23.9306276672
 30
0.0
 10
7.3756603852
 20
23.9319740065
 30
0.0
 11
7.3776864615
 21
23.9264872732
 31
0.0
 11
7.377554017
 21
23.9276509832
 31
0.0
 11
7.3756603852
 21
23.9319740065
 31
0.0
  0
SPLINE
  5
4A6
100
AcDbEntity
  8
RACCORDO
100
AcDbSpline
 62
7
  6
CONTINUOUS
 70
0
 71
3
 72
12
 73
8
 74
6
 42
0.0000001
 43
0.0000001
 44
0.0000000001
 12
-0.0562867789
 22
0.0931179267
 32
0.0
 13
-0.0879275831
 23
0.0640928225
 33
0.0
 40
0.0
 40
0.0
 40
0.0
 40
0.0
 40
0.0637627611
 40
0.1470196742
 40
0.3678913705
 40
0.6544802791
 40
1.0
 40
1.0
 40
1.0
 40
1.0
 10
7.3756603852
 20
23.9319740065
 30
0.0
 10
7.3744640517
 20
23.9339531585
 30
0.0
 10
7.3712010929
 20
23.9382016082
 30
0.0
 10
7.362104755
 20
23.9479677829
 30
0.0
 10
7.3460992941
 20
23.9622659087
 30
0.0
 10
7.3219914736
 20
23.9816522352
 30
0.0
 10
7.3036152363
 20
23.9953720227
 30
0.0
 10
7.2934883317
 20
24.0027538007
 30
0.0
 11
7.3756603852
 21
23.9319740065
 31
0.0
 11
7.3715637382
 21
23.9375732737
 31
0.0
 11
7.3654533621
 21
23.9442612404
 31
0.0
 11
7.3477676048
 21
23.9605332622
 31
0.0
 11
7.3235520132
 21
23.9801799517
 31
0.0
 11
7.2934883317
 21
24.0027538007
 31
0.0
  0
SPLINE
  5
4A7
100
AcDbEntity
  8
RACCORDO
100
AcDbSpline
 62
7
  6
CONTINUOUS
 70
0
 71
3
 72
10
 73
6
 74
4
 42
0.0000001
 43
0.0000001
 44
0.0000000001
 12
-0.0001212048
 22
-0.3024299942
 32
0.0
 13
-0.1477248048
 23
-0.2638963776
 33
0.0
 40
0.0
 40
0.0
 40
0.0
 40
0.0
 40
0.2413789779
 40
0.4900689452
 40
1.0
 40
1.0
 40
1.0
 40
1.0
 10
7.377686402
 20
24.5027074218
 30
0.0
 10
7.3776766499
 20
24.4783740075
 30
0.0
 10
7.3730410047
 20
24.4289161474
 30
0.0
 10
7.3495280497
 20
24.33069586
 30
0.0
 10
7.3185981535
 20
24.2598692742
 30
0.0
 10
7.2934883317
 20
24.2150129548
 30
0.0
 11
7.377686402
 21
24.5027074218
 31
0.0
 11
7.37143932
 21
24.4299749649
 31
0.0
 11
7.3542636177
 21
24.3567510848
 31
0.0
 11
7.2934883317
 21
24.2150129548
 31
0.0
  0
SPLINE
  5
4A8
100
AcDbEntity
  8
RACCORDO
100
AcDbSpline
 62
7
  6
CONTINUOUS
 70
0
 71
3
 72
9
 73
5
 74
3
 42
0.0000001
 43
0.0000001
 44
0.0000000001
 12
-0.4347732533
 22
0.0873379156
 32
0.0
 13
-0.4394369151
 23
-0.0595893528
 33
0.0
 40
0.0
 40
0.0
 40
0.0
 40
0.0
 40
0.4886809648
 40
1.0
 40
1.0
 40
1.0
 40
1.0
 10
6.6293899222
 20
25.0159864303
 30
0.0
 10
6.5585681178
 20
25.0302132226
 30
0.0
 10
6.4106853823
 20
25.0453631406
 30
0.0
 10
6.2624465407
 20
25.0369611008
 30
0.0
 10
6.1875490542
 20
25.0268047106
 30
0.0
 11
6.6293899222
 21
25.0159864303
 31
0.0
 11
6.4139481207
 21
25.0393957542
 31
0.0
 11
6.1875490542
 21
25.0268047106
 31
0.0
  0
SPLINE
  5
4A9
100
AcDbEntity
  8
RACCORDO
100
AcDbSpline
 62
7
  6
CONTINUOUS
 70
0
 71
3
 72
13
 73
9
 74
7
 42
0.0000001
 43
0.0000001
 44
0.0000000001
 12
0.8552249532
 22
0.0451503374
 32
0.0
 13
-0.0
 23
-0.8564159466
 33
0.0
 40
0.0
 40
0.0
 40
0.0
 40
0.0
 40
0.0955392951
 40
0.2047937591
 40
0.3279175556
 40
0.4616202286
 40
0.7394271949
 40
1.0
 40
1.0
 40
1.0
 40
1.0
 10
22.2420951896
 20
-17.6792383592
 30
0.0
 10
22.2693310527
 20
-17.6778004821
 30
0.0
 10
22.3285385639
 20
-17.6867116504
 30
0.0
 10
22.4134209029
 20
-17.7284953319
 30
0.0
 10
22.4948226522
 20
-17.7952271729
 30
0.0
 10
22.5933982602
 20
-17.9126274453
 30
0.0
 10
22.6806394514
 20
-18.0865636529
 30
0.0
 10
22.7097604563
 20
-18.2404597157
 30
0.0
 10
22.7097604563
 20
-18.3148459509
 30
0.0
 11
22.2420951896
 21
-17.6792383592
 31
0.0
 11
22.3232249055
 21
-17.6898547022
 31
0.0
 11
22.407956274
 21
-17.7295463678
 31
0.0
 11
22.490228511
 21
-17.7955006366
 31
0.0
 11
22.5644576518
 21
-17.8826869479
 31
0.0
 11
22.6720225151
 21
-18.0949012859
 31
0.0
 11
22.7097604563
 21
-18.3148459509
 31
0.0
  0
SPLINE
  5
4AA
100
AcDbEntity
  8
RACCORDO
100
AcDbSpline
 62
7
  6
CONTINUOUS
 70
0
 71
3
 72
10
 73
6
 74
4
 42
0.0000001
 43
0.0000001
 44
0.0000000001
 12
0.0
 22
0.3313531792
 32
0.0
 13
0.2113874143
 23
0.2551671813
 33
0.0
 40
0.0
 40
0.0
 40
0.0
 40
0.0
 40
0.2142195424
 40
0.4699558193
 40
1.0
 40
1.0
 40
1.0
 40
1.0
 10
3.9826186468
 20
19.5767306842
 30
0.0
 10
3.9826186468
 20
19.6003914597
 30
0.0
 10
3.9888691933
 20
19.6523451953
 30
0.0
 10
4.0205527034
 20
19.7583982573
 30
0.0
 10
4.0645661572
 20
19.8355477455
 30
0.0
 10
4.1019143802
 20
19.8806310386
 30
0.0
 11
3.9826186468
 21
19.5767306842
 31
0.0
 11
3.9901120849
 21
19.64731637
 31
0.0
 11
4.0138865768
 21
19.7286519494
 31
0.0
 11
4.1019143802
 21
19.8806310386
 31
0.0
  0
SPLINE
  5
4AB
100
AcDbEntity
  8
RACCORDO
100
AcDbSpline
 62
7
  6
CONTINUOUS
 70
0
 71
3
 72
10
 73
6
 74
4
 42
0.0000001
 43
0.0000001
 44
0.0000000001
 12
0.0
 22
0.3313531792
 32
0.0
 13
0.2113874143
 23
0.2551671813
 33
0.0
 40
0.0
 40
0.0
 40
0.0
 40
0.0
 40
0.2142195424
 40
0.4699558193
 40
1.0
 40
1.0
 40
1.0
 40
1.0
 10
17.3469368112
 20
12.894571602
 30
0.0
 10
17.3469368112
 20
12.9182323774
 30
0.0
 10
17.3531873578
 20
12.9701861131
 30
0.0
 10
17.3848708679
 20
13.0762391751
 30
0.0
 10
17.4288843216
 20
13.1533886632
 30
0.0
 10
17.4662325446
 20
13.1984719564
 30
0.0
 11
17.3469368112
 21
12.894571602
 31
0.0
 11
17.3544302493
 21
12.9651572878
 31
0.0
 11
17.3782047412
 21
13.0464928672
 31
0.0
 11
17.4662325446
 21
13.1984719564
 31
0.0
  0
SPLINE
  5
4AC
100
AcDbEntity
  8
RACCORDO
100
AcDbSpline
 62
7
  6
CONTINUOUS
 70
0
 71
3
 72
9
 73
5
 74
3
 42
0.0000001
 43
0.0000001
 44
0.0000000001
 12
0.0
 22
-0.2736084325
 32
0.0
 13
0.2447409844
 23
-0.1223250787
 33
0.0
 40
0.0
 40
0.0
 40
0.0
 40
0.0
 40
0.499800677
 40
1.0
 40
1.0
 40
1.0
 40
1.0
 10
14.0892203646
 20
13.6092162629
 30
0.0
 10
14.0892203646
 20
13.5636330363
 30
0.0
 10
14.1151694933
 20
13.4705358782
 30
0.0
 10
14.1869426704
 20
13.4058742401
 30
0.0
 10
14.2277490953
 20
13.3854785996
 30
0.0
 11
14.0892203646
 21
13.6092162629
 31
0.0
 11
14.1266060289
 21
13.4776762043
 31
0.0
 11
14.2277490953
 21
13.3854785996
 31
0.0
  0
SPLINE
  5
4AD
100
AcDbEntity
  8
RACCORDO
100
AcDbSpline
 62
7
  6
CONTINUOUS
 70
0
 71
3
 72
9
 73
5
 74
3
 42
0.0000001
 43
0.0000001
 44
0.0000000001
 12
0.0
 22
-0.2128428747
 32
0.0
 13
-0.0960815572
 23
-0.1899221516
 33
0.0
 40
0.0
 40
0.0
 40
0.0
 40
0.0
 40
0.4554614407
 40
1.0
 40
1.0
 40
1.0
 40
1.0
 10
14.7963271457
 20
-26.5868344859
 30
0.0
 10
14.7963271457
 20
-26.6191483933
 30
0.0
 10
14.7849646618
 20
-26.6900506319
 30
0.0
 10
14.7592357033
 20
-26.7567127784
 30
0.0
 10
14.7417956658
 20
-26.79118609
 30
0.0
 11
14.7963271457
 21
-26.5868344859
 31
0.0
 11
14.782996544
 21
-26.6828552784
 31
0.0
 11
14.7417956658
 21
-26.79118609
 31
0.0
  0
SPLINE
  5
4AE
100
AcDbEntity
  8
RACCORDO
100
AcDbSpline
 62
7
  6
CONTINUOUS
 70
0
 71
3
 72
9
 73
5
 74
3
 42
0.0000001
 43
0.0000001
 44
0.0000000001
 12
-0.0409055421
 22
-0.0808570217
 32
0.0
 13
-0.0536657316
 23
-0.0730144546
 33
0.0
 40
0.0
 40
0.0
 40
0.0
 40
0.0
 40
0.2539258716
 40
1.0
 40
1.0
 40
1.0
 40
1.0
 10
14.7417956658
 20
-26.79118609
 30
0.0
 10
14.7383333406
 20
-26.7980299866
 30
0.0
 10
14.7241544354
 20
-26.8247030899
 30
0.0
 10
14.7078042301
 20
-26.8502275521
 30
0.0
 10
14.6944580255
 20
-26.8683856173
 30
0.0
 11
14.7417956658
 21
-26.79118609
 31
0.0
 11
14.730992557
 21
-26.8115019061
 31
0.0
 11
14.6944580255
 21
-26.8683856173
 31
0.0
  0
SPLINE
  5
4AF
100
AcDbEntity
  8
RACCORDO
100
AcDbSpline
 62
7
  6
CONTINUOUS
 70
0
 71
3
 72
8
 73
4
 74
2
 42
0.0000001
 43
0.0000001
 44
0.0000000001
 12
-0.0393289976
 22
0.0920770058
 32
0.0
 13
0.0000109886
 23
0.1001246469
 33
0.0
 40
0.0
 40
0.0
 40
0.0
 40
0.0
 40
1.0
 40
1.0
 40
1.0
 40
1.0
 10
14.1093350091
 20
-28.1399325248
 30
0.0
 10
14.0962253432
 20
-28.1092401895
 30
0.0
 10
14.0892501592
 20
-28.0752171886
 30
0.0
 10
14.089253822
 20
-28.0418423063
 30
0.0
 11
14.1093350091
 21
-28.1399325248
 31
0.0
 11
14.089253822
 21
-28.0418423063
 31
0.0
  0
SPLINE
  5
4B0
100
AcDbEntity
  8
RACCORDO
100
AcDbSpline
 62
7
  6
CONTINUOUS
 70
0
 71
3
 72
8
 73
4
 74
2
 42
0.0000001
 43
0.0000001
 44
0.0000000001
 12
0.0453095441
 22
0.0976716848
 32
0.0
 13
0.0000561267
 23
0.1076694463
 33
0.0
 40
0.0
 40
0.0
 40
0.0
 40
0.0
 40
1.0
 40
1.0
 40
1.0
 40
1.0
 10
18.0308410471
 20
-27.7579548306
 30
0.0
 10
18.0459442285
 20
-27.7253976024
 30
0.0
 10
18.0540216136
 20
-27.6887042331
 30
0.0
 10
18.0540403225
 20
-27.6528144177
 30
0.0
 11
18.0308410471
 21
-27.7579548306
 31
0.0
 11
18.0540403225
 21
-27.6528144177
 31
0.0
  0
SPLINE
  5
4B1
100
AcDbEntity
  8
RACCORDO
100
AcDbSpline
 62
7
  6
CONTINUOUS
 70
0
 71
3
 72
14
 73
10
 74
8
 42
0.0000001
 43
0.0000001
 44
0.0000000001
 12
0.0365458261
 22
-0.0298401421
 32
0.0
 13
-0.0028726914
 23
0.0470933024
 33
0.0
 40
0.0
 40
0.0
 40
0.0
 40
0.0
 40
0.012818703
 40
0.056653067
 40
0.1338755598
 40
0.2438151093
 40
0.3858889478
 40
0.5598677188
 40
1.0
 40
1.0
 40
1.0
 40
1.0
 10
17.3569762643
 20
-26.9665718012
 30
0.0
 10
17.357132421
 20
-26.9666993051
 30
0.0
 10
17.3561149946
 20
-26.9650738203
 30
0.0
 10
17.3559352868
 20
-26.9640098804
 30
0.0
 10
17.3542302712
 20
-26.9600928799
 30
0.0
 10
17.352824616
 20
-26.9553995341
 30
0.0
 10
17.3510688393
 20
-26.9488177058
 30
0.0
 10
17.3488264836
 20
-26.9371844079
 30
0.0
 10
17.3478213095
 20
-26.9275314662
 30
0.0
 10
17.3473998547
 20
-26.920622372
 30
0.0
 11
17.3569762643
 21
-26.9665718012
 31
0.0
 11
17.356720197
 21
-26.9660238878
 31
0.0
 11
17.3558842559
 21
-26.9641322181
 31
0.0
 11
17.3545709041
 21
-26.9607337434
 31
0.0
 11
17.3529689016
 21
-26.9558002889
 31
0.0
 11
17.351274185
 21
-26.9493148956
 31
0.0
 11
17.3496812056
 21
-26.9412624859
 31
0.0
 11
17.3473998547
 21
-26.920622372
 31
0.0
  0
SPLINE
  5
4B2
100
AcDbEntity
  8
RACCORDO
100
AcDbSpline
 62
7
  6
CONTINUOUS
 70
0
 71
3
 72
9
 73
5
 74
3
 42
0.0000001
 43
0.0000001
 44
0.0000000001
 12
-0.0727918694
 22
0.1201834818
 32
0.0
 13
-0.1256842271
 23
0.0628187919
 33
0.0
 40
0.0
 40
0.0
 40
0.0
 40
0.0
 40
0.4995799822
 40
1.0
 40
1.0
 40
1.0
 40
1.0
 10
18.0178826048
 20
-27.1719398142
 30
0.0
 10
18.0057608179
 20
-27.1519260603
 30
0.0
 10
17.9756832054
 20
-27.115098816
 30
0.0
 10
17.9364798293
 20
-27.0882200771
 30
0.0
 10
17.9155148616
 20
-27.0777414835
 30
0.0
 11
18.0178826048
 21
-27.1719398142
 31
0.0
 11
17.9734308622
 21
-27.1176127018
 31
0.0
 11
17.9155148616
 21
-27.0777414835
 31
0.0
  0
SPLINE
  5
4B3
100
AcDbEntity
  8
RACCORDO
100
AcDbSpline
 62
7
  6
CONTINUOUS
 70
0
 71
3
 72
11
 73
7
 74
5
 42
0.0000001
 43
0.0000001
 44
0.0000000001
 12
0.4059943767
 22
0.1943178401
 32
0.0
 13
0.4025879436
 23
-0.2012804126
 33
0.0
 40
0.0
 40
0.0
 40
0.0
 40
0.0
 40
0.2781998925
 40
0.5340397174
 40
0.7720061744
 40
1.0
 40
1.0
 40
1.0
 40
1.0
 10
19.1245318525
 20
18.4886971621
 30
0.0
 10
19.1621810498
 20
18.5067168962
 30
0.0
 10
19.2374193484
 20
18.5356805545
 30
0.0
 10
19.3524025505
 20
18.5555916175
 30
0.0
 10
19.461570866
 20
18.549002456
 30
0.0
 10
19.5287865141
 20
18.5263650071
 30
0.0
 10
19.5593823692
 20
18.51106811
 30
0.0
 11
19.1245318525
 21
18.4886971621
 31
0.0
 11
19.2417369966
 21
18.5327710781
 31
0.0
 11
19.3553699854
 21
18.5514239345
 31
0.0
 11
19.4622293577
 21
18.544116636
 31
0.0
 11
19.5593823692
 21
18.51106811
 31
0.0
  0
SPLINE
  5
4B4
100
AcDbEntity
  8
RACCORDO
100
AcDbSpline
 62
7
  6
CONTINUOUS
 70
0
 71
3
 72
11
 73
7
 74
5
 42
0.0000001
 43
0.0000001
 44
0.0000000001
 12
0.0
 22
0.6297433202
 32
0.0
 13
-0.563267137
 23
0.2816145976
 33
0.0
 40
0.0
 40
0.0
 40
0.0
 40
0.0
 40
0.2897555999
 40
0.5495832416
 40
0.7828477353
 40
1.0
 40
1.0
 40
1.0
 40
1.0
 10
15.5766572316
 20
20.0915070349
 30
0.0
 10
15.5766572316
 20
20.1523309194
 30
0.0
 10
15.5668442851
 20
20.2681359981
 30
0.0
 10
15.5173380631
 20
20.4265152724
 30
0.0
 10
15.434671735
 20
20.5533167527
 30
0.0
 10
15.3575132603
 20
20.6120040377
 30
0.0
 10
15.3167416821
 20
20.6323884536
 30
0.0
 11
15.5766572316
 21
20.0915070349
 31
0.0
 11
15.5593768202
 21
20.2731586017
 31
0.0
 11
15.5083809782
 21
20.4286335954
 31
0.0
 11
15.4261626492
 21
20.5503661034
 31
0.0
 11
15.3167416821
 21
20.6323884536
 31
0.0
  0
SPLINE
  5
4B5
100
AcDbEntity
  8
RACCORDO
100
AcDbSpline
 62
7
  6
CONTINUOUS
 70
0
 71
3
 72
9
 73
5
 74
3
 42
0.0000001
 43
0.0000001
 44
0.0000000001
 12
0.0
 22
-0.2680487896
 32
0.0
 13
-0.1943432235
 23
-0.1846100352
 33
0.0
 40
0.0
 40
0.0
 40
0.0
 40
0.0
 40
0.5433964617
 40
1.0
 40
1.0
 40
1.0
 40
1.0
 10
22.7097604563
 20
14.6014639471
 30
0.0
 10
22.7097604563
 20
14.5529116925
 30
0.0
 10
22.6990898203
 20
14.4627762022
 30
0.0
 10
22.653654703
 20
14.3811211935
 30
0.0
 10
22.6240754352
 20
14.3530233284
 30
0.0
 11
22.7097604563
 21
14.6014639471
 31
0.0
 11
22.6878984385
 21
14.4574571937
 31
0.0
 11
22.6240754352
 21
14.3530233284
 31
0.0
  0
SPLINE
  5
4B6
100
AcDbEntity
  8
RACCORDO
100
AcDbSpline
 62
7
  6
CONTINUOUS
 70
0
 71
3
 72
11
 73
7
 74
5
 42
0.0000001
 43
0.0000001
 44
0.0000000001
 12
0.0
 22
0.3148625572
 32
0.0
 13
-0.2816217243
 23
0.1408106329
 33
0.0
 40
0.0
 40
0.0
 40
0.0
 40
0.0
 40
0.2897543213
 40
0.5495826678
 40
0.7828479026
 40
1.0
 40
1.0
 40
1.0
 40
1.0
 10
13.1017834975
 20
21.0043690421
 30
0.0
 10
13.1017834975
 20
21.034779971
 30
0.0
 10
13.0968773068
 20
21.0926807293
 30
0.0
 10
13.0721259939
 20
21.1718684291
 30
0.0
 10
13.030795454
 20
21.2352681312
 30
0.0
 10
12.9922188311
 20
21.2646130475
 30
0.0
 10
12.971833915
 20
21.2748054889
 30
0.0
 11
13.1017834975
 21
21.0043690421
 31
0.0
 11
13.0931439089
 21
21.0951918303
 31
0.0
 11
13.0676477095
 21
21.1729276362
 31
0.0
 11
13.026541158
 21
21.2337933743
 31
0.0
 11
12.971833915
 21
21.2748054889
 31
0.0
  0
SPLINE
  5
4B7
100
AcDbEntity
  8
RACCORDO
100
AcDbSpline
 62
7
  6
CONTINUOUS
 70
0
 71
3
 72
10
 73
6
 74
4
 42
0.0000001
 43
0.0000001
 44
0.0000000001
 12
0.2068623626
 22
0.1034311813
 32
0.0
 13
0.2068624299
 23
-0.1034310466
 33
0.0
 40
0.0
 40
0.0
 40
0.0
 40
0.0
 40
0.5340990186
 40
0.7722795496
 40
1.0
 40
1.0
 40
1.0
 40
1.0
 10
17.6979775752
 20
18.7857313145
 30
0.0
 10
17.7348059035
 20
18.8041454787
 30
0.0
 10
17.7935533201
 20
18.8232064381
 30
0.0
 10
17.8712647253
 20
18.8192918618
 30
0.0
 10
17.9058791148
 20
18.8077828762
 30
0.0
 10
17.9215813833
 20
18.7999317547
 30
0.0
 11
17.6979775752
 21
18.7857313145
 31
0.0
 11
17.8166701251
 21
18.819947443
 31
0.0
 11
17.8716616699
 21
18.8167196769
 31
0.0
 11
17.9215813833
 21
18.7999317547
 31
0.0
  0
SPLINE
  5
4B8
100
AcDbEntity
  8
RACCORDO
100
AcDbSpline
 62
7
  6
CONTINUOUS
 70
0
 71
3
 72
11
 73
7
 74
5
 42
0.0000001
 43
0.0000001
 44
0.0000000001
 12
-0.2177611583
 22
-0.1076335336
 32
0.0
 13
-0.0000045624
 23
-0.2429092415
 33
0.0
 40
0.0
 40
0.0
 40
0.0
 40
0.0
 40
0.3029527246
 40
0.5660238642
 40
0.7938220146
 40
1.0
 40
1.0
 40
1.0
 40
1.0
 10
6.454991449
 20
18.7524064382
 30
0.0
 10
6.4330010036
 20
18.7415371475
 30
0.0
 10
6.3932499698
 20
18.718197788
 30
0.0
 10
6.3449603152
 20
18.6749459697
 30
0.0
 10
6.3139438372
 20
18.6267234358
 30
0.0
 10
6.3065029851
 20
18.5913131499
 30
0.0
 10
6.3065026715
 20
18.5746189706
 30
0.0
 11
6.454991449
 21
18.7524064382
 31
0.0
 11
6.3919728131
 21
18.714404569
 31
0.0
 11
6.3451176094
 21
18.6709522041
 31
0.0
 11
6.3162522799
 21
18.6237433612
 31
0.0
 11
6.3065026715
 21
18.5746189706
 31
0.0
  0
SPLINE
  5
4B9
100
AcDbEntity
  8
RACCORDO
100
AcDbSpline
 62
253
  6
CONTINUOUS
 70
0
 71
3
 72
11
 73
7
 74
5
 42
0.0000001
 43
0.0000001
 44
0.0000000001
 12
-0.0000219006
 22
-0.1203048987
 32
0.0
 13
-0.1076039744
 23
-0.0538019872
 33
0.0
 40
0.0
 40
0.0
 40
0.0
 40
0.0
 40
0.2064881634
 40
0.4345389747
 40
0.6981240661
 40
1.0
 40
1.0
 40
1.0
 40
1.0
 10
4.6897254292
 20
20.6802729706
 30
0.0
 10
4.6897239218
 20
20.671992458
 30
0.0
 10
4.6860489677
 20
20.6544389753
 30
0.0
 10
4.6707801089
 20
20.6304470245
 30
0.0
 10
4.6469190033
 20
20.6089805201
 30
0.0
 10
4.6273298067
 20
20.5973095688
 30
0.0
 10
4.6165021232
 20
20.5918957271
 30
0.0
 11
4.6897254292
 21
20.6802729706
 31
0.0
 11
4.6849151187
 21
20.655901616
 31
0.0
 11
4.6706899674
 21
20.6324418872
 31
0.0
 11
4.64750859
 21
20.6108043155
 31
0.0
 11
4.6165021232
 21
20.5918957271
 31
0.0
  0
SPLINE
  5
4BA
100
AcDbEntity
  8
RACCORDO
100
AcDbSpline
 62
253
  6
CONTINUOUS
 70
0
 71
3
 72
9
 73
5
 74
3
 42
0.0000001
 43
0.0000001
 44
0.0000000001
 12
0.1030200108
 22
0.0514057739
 32
0.0
 13
0.102978352
 23
-0.051489176
 33
0.0
 40
0.0
 40
0.0
 40
0.0
 40
0.0
 40
0.46393649
 40
1.0
 40
1.0
 40
1.0
 40
1.0
 10
2.984447401
 20
21.9269631651
 30
0.0
 10
3.0003789817
 20
21.9349128366
 30
0.0
 10
3.0403304931
 20
21.9415500225
 30
0.0
 10
3.0778215648
 20
21.9290563294
 30
0.0
 10
3.0962225437
 20
21.9198558399
 30
0.0
 11
2.984447401
 21
21.9269631651
 31
0.0
 11
3.0369193318
 21
21.9369536278
 31
0.0
 11
3.0962225437
 21
21.9198558399
 31
0.0
  0
SPLINE
  5
4BB
100
AcDbEntity
  8
RACCORDO
100
AcDbSpline
 62
253
  6
CONTINUOUS
 70
0
 71
3
 72
9
 73
5
 74
3
 42
0.0000001
 43
0.0000001
 44
0.0000000001
 12
-0.1030214681
 22
0.0514580411
 32
0.0
 13
-0.1030003995
 23
-0.0515001998
 33
0.0
 40
0.0
 40
0.0
 40
0.0
 40
0.0
 40
0.4639122062
 40
1.0
 40
1.0
 40
1.0
 40
1.0
 10
4.5515248113
 20
21.2552009808
 30
0.0
 10
4.5355938391
 20
21.2631583186
 30
0.0
 10
4.4956317694
 20
21.2697956223
 30
0.0
 10
4.4581311803
 20
21.257307274
 30
0.0
 10
4.4397254279
 20
21.2481043978
 30
0.0
 11
4.5515248113
 21
21.2552009808
 31
0.0
 11
4.4990458017
 21
21.2652004527
 31
0.0
 11
4.4397254279
 21
21.2481043978
 31
0.0
  0
SPLINE
  5
4BC
100
AcDbEntity
  8
RACCORDO
100
AcDbSpline
 62
253
  6
CONTINUOUS
 70
0
 71
3
 72
9
 73
5
 74
3
 42
0.0000001
 43
0.0000001
 44
0.0000000001
 12
-0.1005381304
 22
0.0419104889
 32
0.0
 13
-0.0974244518
 23
-0.0487122259
 33
0.0
 40
0.0
 40
0.0
 40
0.0
 40
0.0
 40
0.4649319752
 40
1.0
 40
1.0
 40
1.0
 40
1.0
 10
3.2021749906
 20
21.9296269248
 30
0.0
 10
3.1865938601
 20
21.9361221003
 30
0.0
 10
3.148828503
 20
21.9405209033
 30
0.0
 10
3.11359878
 20
21.9285439581
 30
0.0
 10
3.0962225437
 20
21.9198558399
 30
0.0
 11
3.2021749906
 21
21.9296269248
 31
0.0
 11
3.152025323
 21
21.9366725784
 31
0.0
 11
3.0962225437
 21
21.9198558399
 31
0.0
  0
SPLINE
  5
4BD
100
AcDbEntity
  8
RACCORDO
100
AcDbSpline
 62
253
  6
CONTINUOUS
 70
0
 71
3
 72
11
 73
7
 74
5
 42
0.0000001
 43
0.0000001
 44
0.0000000001
 12
0.0
 22
-0.1203158962
 32
0.0
 13
-0.107613809
 23
-0.0538069045
 33
0.0
 40
0.0
 40
0.0
 40
0.0
 40
0.0
 40
0.2064758915
 40
0.434520967
 40
0.6981193998
 40
1.0
 40
1.0
 40
1.0
 40
1.0
 10
4.6897254279
 20
21.0315980469
 30
0.0
 10
4.6897254279
 20
21.0233172696
 30
0.0
 10
4.6860544026
 20
21.005761876
 30
0.0
 10
4.6707850751
 20
20.9817668058
 30
0.0
 10
4.6469220072
 20
20.9602975732
 30
0.0
 10
4.6273309637
 20
20.9486241194
 30
0.0
 10
4.6165021232
 20
20.9432096992
 30
0.0
 11
4.6897254279
 21
21.0315980469
 31
0.0
 11
4.6849195904
 21
21.0072250007
 31
0.0
 11
4.6706953111
 21
20.9837626178
 31
0.0
 11
4.6475113518
 21
20.9621212121
 31
0.0
 11
4.6165021232
 21
20.9432096992
 31
0.0
  0
SPLINE
  5
4BE
100
AcDbEntity
  8
RACCORDO
100
AcDbSpline
 62
253
  6
CONTINUOUS
 70
0
 71
3
 72
9
 73
5
 74
3
 42
0.0000001
 43
0.0000001
 44
0.0000000001
 12
0.1030234046
 22
0.0514586954
 32
0.0
 13
0.1030022105
 23
-0.0515011053
 33
0.0
 40
0.0
 40
0.0
 40
0.0
 40
0.0
 40
0.4639008303
 40
1.0
 40
1.0
 40
1.0
 40
1.0
 10
0.8631012742
 20
20.8662911672
 30
0.0
 10
0.8790321552
 20
20.874248411
 30
0.0
 10
0.9189943188
 20
20.8808888556
 30
0.0
 10
0.9564957336
 20
20.8683989014
 30
0.0
 10
0.9749022001
 20
20.8591956682
 30
0.0
 11
0.8631012742
 21
20.8662911672
 31
0.0
 11
0.915579554
 21
20.8762924886
 31
0.0
 11
0.9749022001
 21
20.8591956682
 31
0.0
  0
SPLINE
  5
4BF
100
AcDbEntity
  8
RACCORDO
100
AcDbSpline
 62
253
  6
CONTINUOUS
 70
0
 71
3
 72
11
 73
7
 74
5
 42
0.0000001
 43
0.0000001
 44
0.0000000001
 12
-0.0000009308
 22
-0.1203159072
 32
0.0
 13
0.1076138189
 23
-0.0538069095
 33
0.0
 40
0.0
 40
0.0
 40
0.0
 40
0.0
 40
0.2064798395
 40
0.4345314102
 40
0.6981346754
 40
1.0
 40
1.0
 40
1.0
 40
1.0
 10
0.7249021797
 20
20.642689305
 30
0.0
 10
0.7249021156
 20
20.6344083686
 30
0.0
 10
0.7285724651
 20
20.6168523012
 30
0.0
 10
0.7438436404
 20
20.5928574369
 30
0.0
 10
0.7677068359
 20
20.5713889039
 30
0.0
 10
0.7872972114
 20
20.5597151163
 30
0.0
 10
0.7981255048
 20
20.5543009696
 30
0.0
 11
0.7249021797
 21
20.642689305
 31
0.0
 11
0.7297076977
 21
20.6183157093
 31
0.0
 11
0.7439331966
 21
20.594853149
 31
0.0
 11
0.7671180103
 21
20.5732118025
 31
0.0
 11
0.7981255048
 21
20.5543009696
 31
0.0
  0
SPLINE
  5
4C0
100
AcDbEntity
  8
RACCORDO
100
AcDbSpline
 62
253
  6
CONTINUOUS
 70
0
 71
3
 72
11
 73
7
 74
5
 42
0.0000001
 43
0.0000001
 44
0.0000000001
 12
-0.0000003376
 22
-0.1203159038
 32
0.0
 13
0.1076138159
 23
-0.0538069079
 33
0.0
 40
0.0
 40
0.0
 40
0.0
 40
0.0
 40
0.2064767537
 40
0.4345238264
 40
0.698124287
 40
1.0
 40
1.0
 40
1.0
 40
1.0
 10
0.7249021979
 20
20.2913753442
 30
0.0
 10
0.7249021746
 20
20.2830945318
 30
0.0
 10
0.7285729288
 20
20.2655389305
 30
0.0
 10
0.7438428826
 20
20.2415439353
 30
0.0
 10
0.7677060094
 20
20.2200749321
 30
0.0
 10
0.787296839
 20
20.2084013304
 30
0.0
 10
0.7981255048
 20
20.2029869975
 30
0.0
 11
0.7249021979
 21
20.2913753442
 31
0.0
 11
0.7297078881
 21
20.2670021616
 31
0.0
 11
0.7439325602
 21
20.2435397339
 31
0.0
 11
0.767116842
 21
20.2218983132
 31
0.0
 11
0.7981255048
 21
20.2029869975
 31
0.0
  0
SPLINE
  5
4C1
100
AcDbEntity
  8
RACCORDO
100
AcDbSpline
 62
253
  6
CONTINUOUS
 70
0
 71
3
 72
9
 73
5
 74
3
 42
0.0000001
 43
0.0000001
 44
0.0000000001
 12
0.000018338
 22
-0.0977596867
 32
0.0
 13
0.0832907687
 23
-0.0511820725
 33
0.0
 40
0.0
 40
0.0
 40
0.0
 40
0.0
 40
0.43756309
 40
1.0
 40
1.0
 40
1.0
 40
1.0
 10
1.4320202197
 20
19.5910236528
 30
0.0
 10
1.4320228944
 20
19.5767649759
 30
0.0
 10
1.4454845317
 20
19.5443368707
 30
0.0
 10
1.471986738
 20
19.5240015507
 30
0.0
 10
1.4876020056
 20
19.5144059885
 30
0.0
 11
1.4320202197
 21
19.5910236528
 31
0.0
 11
1.446300292
 21
19.5507015943
 31
0.0
 11
1.4876020056
 21
19.5144059885
 31
0.0
  0
SPLINE
  5
4C2
100
AcDbEntity
  8
RACCORDO
100
AcDbSpline
 62
253
  6
CONTINUOUS
 70
0
 71
3
 72
9
 73
5
 74
3
 42
0.0000001
 43
0.0000001
 44
0.0000000001
 12
0.0521414017
 22
-0.0307159736
 32
0.0
 13
0.0277387884
 23
-0.0537843511
 33
0.0
 40
0.0
 40
0.0
 40
0.0
 40
0.0
 40
0.2410446835
 40
1.0
 40
1.0
 40
1.0
 40
1.0
 10
2.7894380332
 20
19.2668919208
 30
0.0
 10
2.7936275025
 20
19.2644239467
 30
0.0
 10
2.8102398938
 20
19.2528695055
 30
0.0
 10
2.8229193906
 20
19.2361673884
 30
0.0
 10
2.8299368909
 20
19.2225607486
 30
0.0
 11
2.7894380332
 21
19.2668919208
 31
0.0
 11
2.8014076485
 21
19.2585545804
 31
0.0
 11
2.8299368909
 21
19.2225607486
 31
0.0
  0
SPLINE
  5
4C3
100
AcDbEntity
  8
RACCORDO
100
AcDbSpline
 62
253
  6
CONTINUOUS
 70
0
 71
3
 72
9
 73
5
 74
3
 42
0.0000001
 43
0.0000001
 44
0.0000000001
 12
0.0413719933
 22
-0.0802185656
 32
0.0
 13
-0.0
 23
-0.0902588505
 33
0.0
 40
0.0
 40
0.0
 40
0.0
 40
0.0
 40
0.2295706774
 40
1.0
 40
1.0
 40
1.0
 40
1.0
 10
2.8299368909
 20
19.2225607486
 30
0.0
 10
2.8331028231
 20
19.2164221385
 30
0.0
 10
2.8448306594
 20
19.1886150335
 30
0.0
 10
2.8487351703
 20
19.157968301
 30
0.0
 10
2.8487351703
 20
19.1347889459
 30
0.0
 11
2.8299368909
 21
19.2225607486
 31
0.0
 11
2.8380752474
 21
19.2035050906
 31
0.0
 11
2.8487351703
 21
19.1347889459
 31
0.0
  0
SPLINE
  5
4C4
100
AcDbEntity
  8
RACCORDO
100
AcDbSpline
 62
253
  6
CONTINUOUS
 70
0
 71
3
 72
9
 73
5
 74
3
 42
0.0000001
 43
0.0000001
 44
0.0000000001
 12
-0.1030214681
 22
0.0514580411
 32
0.0
 13
-0.1030003995
 23
-0.0515001998
 33
0.0
 40
0.0
 40
0.0
 40
0.0
 40
0.0
 40
0.4639122062
 40
1.0
 40
1.0
 40
1.0
 40
1.0
 10
17.9158429758
 20
14.5730418986
 30
0.0
 10
17.8999120036
 20
14.5809992363
 30
0.0
 10
17.8599499338
 20
14.5876365401
 30
0.0
 10
17.8224493447
 20
14.5751481918
 30
0.0
 10
17.8040435924
 20
14.5659453156
 30
0.0
 11
17.9158429758
 21
14.5730418986
 31
0.0
 11
17.8633639661
 21
14.5830413705
 31
0.0
 11
17.8040435924
 21
14.5659453156
 31
0.0
  0
SPLINE
  5
4C5
100
AcDbEntity
  8
RACCORDO
100
AcDbSpline
 62
253
  6
CONTINUOUS
 70
0
 71
3
 72
9
 73
5
 74
3
 42
0.0000001
 43
0.0000001
 44
0.0000000001
 12
-0.1030200108
 22
0.0514057739
 32
0.0
 13
-0.102978352
 23
-0.051489176
 33
0.0
 40
0.0
 40
0.0
 40
0.0
 40
0.0
 40
0.46393649
 40
1.0
 40
1.0
 40
1.0
 40
1.0
 10
16.5723158508
 20
15.2448040829
 30
0.0
 10
16.5563842701
 20
15.2527537544
 30
0.0
 10
16.5164327587
 20
15.2593909403
 30
0.0
 10
16.4789416871
 20
15.2468972472
 30
0.0
 10
16.4605407081
 20
15.2376967577
 30
0.0
 11
16.5723158508
 21
15.2448040829
 31
0.0
 11
16.51984392
 21
15.2547945456
 31
0.0
 11
16.4605407081
 21
15.2376967577
 31
0.0
  0
SPLINE
  5
4C6
100
AcDbEntity
  8
RACCORDO
100
AcDbSpline
 62
253
  6
CONTINUOUS
 70
0
 71
3
 72
11
 73
7
 74
5
 42
0.0000001
 43
0.0000001
 44
0.0000000001
 12
0.1282325543
 22
0.3361386034
 32
0.0
 13
-0.321785952
 23
0.160892976
 33
0.0
 40
0.0
 40
0.0
 40
0.0
 40
0.0
 40
0.271130505
 40
0.5346867854
 40
0.7783356466
 40
1.0
 40
1.0
 40
1.0
 40
1.0
 10
17.4504902018
 20
-27.2800325374
 30
0.0
 10
17.4620794542
 20
-27.2496533943
 30
0.0
 10
17.4757436773
 20
-27.1858073371
 30
0.0
 10
17.4668833985
 20
-27.0913726857
 30
0.0
 10
17.4296163344
 20
-27.0101476455
 30
0.0
 10
17.3858780125
 20
-26.9718380951
 30
0.0
 10
17.3621018541
 20
-26.9599500159
 30
0.0
 11
17.4504902018
 21
-27.2800325374
 31
0.0
 11
17.4708586333
 21
-27.1846388534
 31
0.0
 11
17.4612135065
 21
-27.0903116683
 31
0.0
 11
17.4230232043
 21
-27.011411441
 31
0.0
 11
17.3621018541
 21
-26.9599500159
 31
0.0
  0
SPLINE
  5
4C7
100
AcDbEntity
  8
RACCORDO
100
AcDbSpline
 62
253
  6
CONTINUOUS
 70
0
 71
3
 72
11
 73
7
 74
5
 42
0.0000001
 43
0.0000001
 44
0.0000000001
 12
0.0
 22
-0.1203158962
 32
0.0
 13
-0.107613809
 23
-0.0538069045
 33
0.0
 40
0.0
 40
0.0
 40
0.0
 40
0.0
 40
0.2064758915
 40
0.434520967
 40
0.6981193998
 40
1.0
 40
1.0
 40
1.0
 40
1.0
 10
18.0540435924
 20
14.3494389646
 30
0.0
 10
18.0540435924
 20
14.3411581873
 30
0.0
 10
18.0503725671
 20
14.3236027938
 30
0.0
 10
18.0351032395
 20
14.2996077236
 30
0.0
 10
18.0112401716
 20
14.278138491
 30
0.0
 10
17.9916491281
 20
14.2664650372
 30
0.0
 10
17.9808202877
 20
14.261050617
 30
0.0
 11
18.0540435924
 21
14.3494389646
 31
0.0
 11
18.0492377549
 21
14.3250659184
 31
0.0
 11
18.0350134755
 21
14.3016035356
 31
0.0
 11
18.0118295163
 21
14.2799621299
 31
0.0
 11
17.9808202877
 21
14.261050617
 31
0.0
  0
SPLINE
  5
4C8
100
AcDbEntity
  8
RACCORDO
100
AcDbSpline
 62
253
  6
CONTINUOUS
 70
0
 71
3
 72
11
 73
7
 74
5
 42
0.0000001
 43
0.0000001
 44
0.0000000001
 12
0.0
 22
-0.1203158962
 32
0.0
 13
-0.107613809
 23
-0.0538069045
 33
0.0
 40
0.0
 40
0.0
 40
0.0
 40
0.0
 40
0.2064758915
 40
0.434520967
 40
0.6981193998
 40
1.0
 40
1.0
 40
1.0
 40
1.0
 10
18.0540435924
 20
13.9981249926
 30
0.0
 10
18.0540435924
 20
13.9898442153
 30
0.0
 10
18.0503725671
 20
13.9722888217
 30
0.0
 10
18.0351032395
 20
13.9482937515
 30
0.0
 10
18.0112401716
 20
13.9268245189
 30
0.0
 10
17.9916491281
 20
13.9151510651
 30
0.0
 10
17.9808202877
 20
13.9097366449
 30
0.0
 11
18.0540435924
 21
13.9981249926
 31
0.0
 11
18.0492377549
 21
13.9737519464
 31
0.0
 11
18.0350134755
 21
13.9502895635
 31
0.0
 11
18.0118295163
 21
13.9286481578
 31
0.0
 11
17.9808202877
 21
13.9097366449
 31
0.0
  0
SPLINE
  5
4C9
100
AcDbEntity
  8
RACCORDO
100
AcDbSpline
 62
253
  6
CONTINUOUS
 70
0
 71
3
 72
8
 73
4
 74
2
 42
0.0000001
 43
0.0000001
 44
0.0000000001
 12
0.0459306667
 22
0.120398991
 32
0.0
 13
-0.0060601394
 23
0.1287199203
 33
0.0
 40
0.0
 40
0.0
 40
0.0
 40
0.0
 40
1.0
 40
1.0
 40
1.0
 40
1.0
 10
17.9808202877
 20
-27.3898674945
 30
0.0
 10
17.9961305099
 20
-27.3497344975
 30
0.0
 10
18.0033704831
 20
-27.3055575627
 30
0.0
 10
18.0013504366
 20
-27.2626509226
 30
0.0
 11
17.9808202877
 21
-27.3898674945
 31
0.0
 11
18.0013504366
 21
-27.2626509226
 31
0.0
  0
SPLINE
  5
4CA
100
AcDbEntity
  8
RACCORDO
100
AcDbSpline
 62
253
  6
CONTINUOUS
 70
0
 71
3
 72
9
 73
5
 74
3
 42
0.0000001
 43
0.0000001
 44
0.0000000001
 12
-0.0029646583
 22
0.0629705942
 32
0.0
 13
-0.0167103605
 23
0.0607852678
 33
0.0
 40
0.0
 40
0.0
 40
0.0
 40
0.0
 40
0.2541760267
 40
1.0
 40
1.0
 40
1.0
 40
1.0
 10
18.0013504366
 20
-27.2626509226
 30
0.0
 10
18.001099255
 20
-27.2573157174
 30
0.0
 10
17.9995561723
 20
-27.2363570834
 30
0.0
 10
17.9957780447
 20
-27.2155491239
 30
0.0
 10
17.9916237155
 20
-27.2004374206
 30
0.0
 11
18.0013504366
 21
-27.2626509226
 31
0.0
 11
18.0001704296
 21
-27.2466710872
 31
0.0
 11
17.9916237155
 21
-27.2004374206
 31
0.0
  0
SPLINE
  5
4CB
100
AcDbEntity
  8
RACCORDO
100
AcDbSpline
 62
253
  6
CONTINUOUS
 70
0
 71
3
 72
9
 73
5
 74
3
 42
0.0000001
 43
0.0000001
 44
0.0000000001
 12
-0.0430761083
 22
0.1054895695
 32
0.0
 13
-0.093146532
 23
0.0656302061
 33
0.0
 40
0.0
 40
0.0
 40
0.0
 40
0.0
 40
0.5160521127
 40
1.0
 40
1.0
 40
1.0
 40
1.0
 10
17.9818682144
 20
-27.1716987189
 30
0.0
 10
17.9744583755
 20
-27.1535526805
 30
0.0
 10
17.9558136541
 20
-27.1198942104
 30
0.0
 10
17.928222768
 20
-27.0928144747
 30
0.0
 10
17.9131967456
 20
-27.0822272748
 30
0.0
 11
17.9818682144
 21
-27.1716987189
 31
0.0
 11
17.9528326286
 21
-27.1205656126
 31
0.0
 11
17.9131967456
 21
-27.0822272748
 31
0.0
  0
SPLINE
  5
4CC
100
AcDbEntity
  8
RACCORDO
100
AcDbSpline
 62
253
  6
CONTINUOUS
 70
0
 71
3
 72
11
 73
7
 74
5
 42
0.0000001
 43
0.0000001
 44
0.0000000001
 12
0.0
 22
-0.3637747172
 32
0.0
 13
0.3562153171
 23
-0.0737746077
 33
0.0
 40
0.0
 40
0.0
 40
0.0
 40
0.0
 40
0.2934021086
 40
0.5509410244
 40
0.78010513
 40
1.0
 40
1.0
 40
1.0
 40
1.0
 10
17.2737135065
 20
-26.9934208851
 30
0.0
 10
17.2737135065
 20
-27.0289983081
 30
0.0
 10
17.2803365075
 20
-27.0961798407
 30
0.0
 10
17.3146447384
 20
-27.18590375
 30
0.0
 10
17.3726222485
 20
-27.2520172191
 30
0.0
 10
17.4243802282
 20
-27.2746249848
 30
0.0
 10
17.4504902018
 20
-27.2800325374
 30
0.0
 11
17.2737135065
 21
-26.9934208851
 31
0.0
 11
17.2857610387
 21
-27.0994710347
 31
0.0
 11
17.3210810495
 21
-27.1862442497
 31
0.0
 11
17.3772662846
 21
-27.247829912
 31
0.0
 11
17.4504902018
 21
-27.2800325374
 31
0.0
  0
SPLINE
  5
4CD
100
AcDbEntity
  8
RACCORDO
100
AcDbSpline
 62
253
  6
CONTINUOUS
 70
0
 71
3
 72
11
 73
7
 74
5
 42
0.0000001
 43
0.0000001
 44
0.0000000001
 12
0.0
 22
0.3637747172
 32
0.0
 13
-0.3562153171
 23
0.0737746077
 33
0.0
 40
0.0
 40
0.0
 40
0.0
 40
0.0
 40
0.2934021086
 40
0.5509410244
 40
0.78010513
 40
1.0
 40
1.0
 40
1.0
 40
1.0
 10
16.5666067253
 20
12.4526298637
 30
0.0
 10
16.5666067253
 20
12.4882072868
 30
0.0
 10
16.5599837243
 20
12.5553888194
 30
0.0
 10
16.5256754934
 20
12.6451127286
 30
0.0
 10
16.4676979832
 20
12.7112261978
 30
0.0
 10
16.4159400036
 20
12.7338339635
 30
0.0
 10
16.38983003
 20
12.7392415161
 30
0.0
 11
16.5666067253
 21
12.4526298637
 31
0.0
 11
16.554559193
 21
12.5586800133
 31
0.0
 11
16.5192391823
 21
12.6454532284
 31
0.0
 11
16.4630539472
 21
12.7070388907
 31
0.0
 11
16.38983003
 21
12.7392415161
 31
0.0
  0
SPLINE
  5
4CE
100
AcDbEntity
  8
RACCORDO
100
AcDbSpline
 62
253
  6
CONTINUOUS
 70
0
 71
3
 72
11
 73
7
 74
5
 42
0.0000001
 43
0.0000001
 44
0.0000000001
 12
-0.1063646839
 22
-0.2788159098
 32
0.0
 13
-0.2922163674
 23
0.0605091078
 33
0.0
 40
0.0
 40
0.0
 40
0.0
 40
0.0
 40
0.2770958208
 40
0.5368340029
 40
0.7754612626
 40
1.0
 40
1.0
 40
1.0
 40
1.0
 10
16.38983003
 20
12.7392415161
 30
0.0
 10
16.3800056269
 20
12.7134886083
 30
0.0
 10
16.354244365
 20
12.6657923338
 30
0.0
 10
16.2986460186
 20
12.6105326187
 30
0.0
 10
16.2320065928
 20
12.5792911883
 30
0.0
 10
16.1842307633
 20
12.5783293335
 30
0.0
 10
16.1623594652
 20
12.582858213
 30
0.0
 11
16.38983003
 21
12.7392415161
 31
0.0
 11
16.3500202693
 21
12.6667655659
 31
0.0
 11
16.2943592552
 21
12.6128245569
 31
0.0
 11
16.2293594801
 21
12.5837401847
 31
0.0
 11
16.1623594652
 21
12.582858213
 31
0.0
  0
SPLINE
  5
4CF
100
AcDbEntity
  8
RACCORDO
100
AcDbSpline
 62
253
  6
CONTINUOUS
 70
0
 71
3
 72
11
 73
7
 74
5
 42
0.0000001
 43
0.0000001
 44
0.0000000001
 12
-0.1063646839
 22
-0.2788159098
 32
0.0
 13
-0.2922163674
 23
0.0605091078
 33
0.0
 40
0.0
 40
0.0
 40
0.0
 40
0.0
 40
0.2770958208
 40
0.5368340029
 40
0.7754612626
 40
1.0
 40
1.0
 40
1.0
 40
1.0
 10
15.8594999441
 20
12.8490764731
 30
0.0
 10
15.849675541
 20
12.8233235653
 30
0.0
 10
15.8239142791
 20
12.7756272908
 30
0.0
 10
15.7683159327
 20
12.7203675758
 30
0.0
 10
15.7016765069
 20
12.6891261454
 30
0.0
 10
15.6539006774
 20
12.6881642905
 30
0.0
 10
15.6320293794
 20
12.6926931701
 30
0.0
 11
15.8594999441
 21
12.8490764731
 31
0.0
 11
15.8196901834
 21
12.7766005229
 31
0.0
 11
15.7640291693
 21
12.722659514
 31
0.0
 11
15.6990293942
 21
12.6935751418
 31
0.0
 11
15.6320293794
 21
12.6926931701
 31
0.0
  0
SPLINE
  5
4D0
100
AcDbEntity
  8
RACCORDO
100
AcDbSpline
 62
253
  6
CONTINUOUS
 70
0
 71
3
 72
11
 73
7
 74
5
 42
0.0000001
 43
0.0000001
 44
0.0000000001
 12
0.0
 22
-0.1574168885
 32
0.0
 13
0.1407597042
 23
-0.0704754033
 33
0.0
 40
0.0
 40
0.0
 40
0.0
 40
0.0
 40
0.2893557828
 40
0.5494994154
 40
0.7826671555
 40
1.0
 40
1.0
 40
1.0
 40
1.0
 10
15.5059465535
 20
12.8490764731
 30
0.0
 10
15.5059465535
 20
12.8338933108
 30
0.0
 10
15.5084321615
 20
12.8049556178
 30
0.0
 10
15.5207437488
 20
12.765359815
 30
0.0
 10
15.5414143654
 20
12.7336303072
 30
0.0
 10
15.5607251122
 20
12.7189877561
 30
0.0
 10
15.5709223479
 20
12.7138822162
 30
0.0
 11
15.5059465535
 21
12.8490764731
 31
0.0
 11
15.5102718849
 21
12.8037328156
 31
0.0
 11
15.523000442
 21
12.7648102215
 31
0.0
 11
15.5435377026
 21
12.7343891072
 31
0.0
 11
15.5709223479
 21
12.7138822162
 31
0.0
  0
SPLINE
  5
4D1
100
AcDbEntity
  8
RACCORDO
100
AcDbSpline
 62
253
  6
CONTINUOUS
 70
0
 71
3
 72
11
 73
7
 74
5
 42
0.0000001
 43
0.0000001
 44
0.0000000001
 12
0.0
 22
-0.1574253087
 32
0.0
 13
0.1407691098
 23
-0.0704754252
 33
0.0
 40
0.0
 40
0.0
 40
0.0
 40
0.0
 40
0.2893385886
 40
0.5494402709
 40
0.7826225719
 40
1.0
 40
1.0
 40
1.0
 40
1.0
 10
14.1624436693
 20
13.5208279153
 30
0.0
 10
14.1624436693
 20
13.505644843
 30
0.0
 10
14.1649265111
 20
13.4767082406
 30
0.0
 10
14.1772408167
 20
13.4371136995
 30
0.0
 10
14.1979110717
 20
13.4053800485
 30
0.0
 10
14.2172277645
 20
13.3907375868
 30
0.0
 10
14.2274277735
 20
13.3856309979
 30
0.0
 11
14.1624436693
 21
13.5208279153
 31
0.0
 11
14.166767553
 21
13.4754843913
 31
0.0
 11
14.1794954838
 21
13.4365662359
 31
0.0
 11
14.2000345657
 21
13.4061412166
 31
0.0
 11
14.2274277735
 21
13.3856309979
 31
0.0
  0
SPLINE
  5
4D2
100
AcDbEntity
  8
RACCORDO
100
AcDbSpline
 62
253
  6
CONTINUOUS
 70
0
 71
3
 72
9
 73
5
 74
3
 42
0.0000001
 43
0.0000001
 44
0.0000000001
 12
0.1005381304
 22
0.0419104889
 32
0.0
 13
0.0974244518
 23
-0.0487122259
 33
0.0
 40
0.0
 40
0.0
 40
0.0
 40
0.0
 40
0.4649319752
 40
1.0
 40
1.0
 40
1.0
 40
1.0
 10
16.3545882612
 20
15.2474678426
 30
0.0
 10
16.3701693917
 20
15.2539630181
 30
0.0
 10
16.4079347488
 20
15.2583618211
 30
0.0
 10
16.4431644718
 20
15.2463848759
 30
0.0
 10
16.4605407081
 20
15.2376967577
 30
0.0
 11
16.3545882612
 21
15.2474678426
 31
0.0
 11
16.4047379288
 21
15.2545134962
 31
0.0
 11
16.4605407081
 21
15.2376967577
 31
0.0
  0
SPLINE
  5
4D3
100
AcDbEntity
  8
RACCORDO
100
AcDbSpline
 62
253
  6
CONTINUOUS
 70
0
 71
3
 72
9
 73
5
 74
3
 42
0.0000001
 43
0.0000001
 44
0.0000000001
 12
0.1029630562
 22
0.0511342226
 32
0.0
 13
0.1028245094
 23
-0.0514122547
 33
0.0
 40
0.0
 40
0.0
 40
0.0
 40
0.0
 40
0.4639602036
 40
1.0
 40
1.0
 40
1.0
 40
1.0
 10
14.2276044
 20
14.1842231511
 30
0.0
 10
14.2435279868
 20
14.1921312326
 30
0.0
 10
14.283419979
 20
14.1987025852
 30
0.0
 10
14.3208476882
 20
14.1862229241
 30
0.0
 10
14.3392203646
 20
14.1770365859
 30
0.0
 11
14.2276044
 21
14.1842231511
 31
0.0
 11
14.2800141212
 21
14.1941280213
 31
0.0
 11
14.3392203646
 21
14.1770365859
 31
0.0
  0
SPLINE
  5
4D4
100
AcDbEntity
  8
RACCORDO
100
AcDbSpline
 62
253
  6
CONTINUOUS
 70
0
 71
3
 72
11
 73
7
 74
5
 42
0.0000001
 43
0.0000001
 44
0.0000000001
 12
0.0000009308
 22
-0.1203157153
 32
0.0
 13
0.1076136473
 23
-0.0538068236
 33
0.0
 40
0.0
 40
0.0
 40
0.0
 40
0.0
 40
0.2065137508
 40
0.4345667416
 40
0.6981210498
 40
1.0
 40
1.0
 40
1.0
 40
1.0
 10
14.0892203441
 20
13.9605302472
 30
0.0
 10
14.0892204082
 20
13.952247964
 30
0.0
 10
14.0928962693
 20
13.9346916727
 30
0.0
 10
14.1081623838
 20
13.9106956108
 30
0.0
 10
14.1320238777
 20
13.8892259388
 30
0.0
 10
14.1516149043
 20
13.8775562698
 30
0.0
 10
14.1624436693
 20
13.8721418873
 30
0.0
 11
14.0892203441
 21
13.9605302472
 31
0.0
 11
14.0940299968
 21
13.9361533487
 31
0.0
 11
14.1082540097
 21
13.9126897389
 31
0.0
 11
14.1314335424
 21
13.8910514412
 31
0.0
 11
14.1624436693
 21
13.8721418873
 31
0.0
  0
SPLINE
  5
4D5
100
AcDbEntity
  8
RACCORDO
100
AcDbSpline
 62
253
  6
CONTINUOUS
 70
0
 71
3
 72
11
 73
7
 74
5
 42
0.0000001
 43
0.0000001
 44
0.0000000001
 12
0.0
 22
-0.1203158962
 32
0.0
 13
0.107613809
 23
-0.0538069045
 33
0.0
 40
0.0
 40
0.0
 40
0.0
 40
0.0
 40
0.2064758915
 40
0.434520967
 40
0.6981193998
 40
1.0
 40
1.0
 40
1.0
 40
1.0
 10
14.0892203646
 20
13.6092162629
 30
0.0
 10
14.0892203646
 20
13.6009354856
 30
0.0
 10
14.0928913899
 20
13.583380092
 30
0.0
 10
14.1081607174
 20
13.5593850219
 30
0.0
 10
14.1320237853
 20
13.5379157892
 30
0.0
 10
14.1516148288
 20
13.5262423355
 30
0.0
 10
14.1624436693
 20
13.5208279153
 30
0.0
 11
14.0892203646
 21
13.6092162629
 31
0.0
 11
14.0940262021
 21
13.5848432167
 31
0.0
 11
14.1082504814
 21
13.5613808339
 31
0.0
 11
14.1314344407
 21
13.5397394282
 31
0.0
 11
14.1624436693
 21
13.5208279153
 31
0.0
  0
SPLINE
  5
4D6
100
AcDbEntity
  8
RACCORDO
100
AcDbSpline
 62
253
  6
CONTINUOUS
 70
0
 71
3
 72
9
 73
5
 74
3
 42
0.0000001
 43
0.0000001
 44
0.0000000001
 12
0.0521414017
 22
-0.0307159736
 32
0.0
 13
0.0277387884
 23
-0.0537843511
 33
0.0
 40
0.0
 40
0.0
 40
0.0
 40
0.0
 40
0.2410446835
 40
1.0
 40
1.0
 40
1.0
 40
1.0
 10
16.1537561977
 20
12.5847328386
 30
0.0
 10
16.1579456669
 20
12.5822648645
 30
0.0
 10
16.1745580583
 20
12.5707104233
 30
0.0
 10
16.187237555
 20
12.5540083061
 30
0.0
 10
16.1942550553
 20
12.5404016664
 30
0.0
 11
16.1537561977
 21
12.5847328386
 31
0.0
 11
16.165725813
 21
12.5763954982
 31
0.0
 11
16.1942550553
 21
12.5404016664
 31
0.0
  0
SPLINE
  5
4D7
100
AcDbEntity
  8
RACCORDO
100
AcDbSpline
 62
253
  6
CONTINUOUS
 70
0
 71
3
 72
9
 73
5
 74
3
 42
0.0000001
 43
0.0000001
 44
0.0000000001
 12
0.0413719933
 22
-0.0802185656
 32
0.0
 13
-0.0
 23
-0.0902588505
 33
0.0
 40
0.0
 40
0.0
 40
0.0
 40
0.0
 40
0.2295706774
 40
1.0
 40
1.0
 40
1.0
 40
1.0
 10
16.1942550553
 20
12.5404016664
 30
0.0
 10
16.1974209875
 20
12.5342630563
 30
0.0
 10
16.2091488238
 20
12.5064559512
 30
0.0
 10
16.2130533347
 20
12.4758092187
 30
0.0
 10
16.2130533347
 20
12.4526298637
 30
0.0
 11
16.1942550553
 21
12.5404016664
 31
0.0
 11
16.2023934118
 21
12.5213460084
 31
0.0
 11
16.2130533347
 21
12.4526298637
 31
0.0
  0
SPLINE
  5
4D8
100
AcDbEntity
  8
RACCORDO
100
AcDbSpline
 62
253
  6
CONTINUOUS
 70
0
 71
3
 72
9
 73
5
 74
3
 42
0.0000001
 43
0.0000001
 44
0.0000000001
 12
0.000018338
 22
-0.0977596867
 32
0.0
 13
0.0832907687
 23
-0.0511820725
 33
0.0
 40
0.0
 40
0.0
 40
0.0
 40
0.0
 40
0.43756309
 40
1.0
 40
1.0
 40
1.0
 40
1.0
 10
14.7963383841
 20
12.9088645705
 30
0.0
 10
14.7963410588
 20
12.8946058937
 30
0.0
 10
14.8098026961
 20
12.8621777885
 30
0.0
 10
14.8363049025
 20
12.8418424685
 30
0.0
 10
14.85192017
 20
12.8322469063
 30
0.0
 11
14.7963383841
 21
12.9088645705
 31
0.0
 11
14.8106184564
 21
12.8685425121
 31
0.0
 11
14.85192017
 21
12.8322469063
 31
0.0
  0
SPLINE
  5
4D9
100
AcDbEntity
  8
RACCORDO
100
AcDbSpline
 62
253
  6
CONTINUOUS
 70
0
 71
3
 72
9
 73
5
 74
3
 42
0.0000001
 43
0.0000001
 44
0.0000000001
 12
0.0918363946
 22
0.0459181973
 32
0.0
 13
0.0261734454
 23
0.0992842131
 33
0.0
 40
0.0
 40
0.0
 40
0.0
 40
0.0
 40
0.2979219667
 40
1.0
 40
1.0
 40
1.0
 40
1.0
 10
17.2737135065
 20
-26.9934208851
 30
0.0
 10
17.2828335329
 20
-26.9888608718
 30
0.0
 10
17.312166046
 20
-26.9720001309
 30
0.0
 10
17.3386657191
 20
-26.9445829358
 30
0.0
 10
17.3447909862
 20
-26.9213478474
 30
0.0
 11
17.2737135065
 21
-26.9934208851
 31
0.0
 11
17.3000596971
 21
-26.9778775372
 31
0.0
 11
17.3447909862
 21
-26.9213478474
 31
0.0
  0
SPLINE
  5
4DA
100
AcDbEntity
  8
RACCORDO
100
AcDbSpline
 62
253
  6
CONTINUOUS
 70
0
 71
3
 72
8
 73
4
 74
2
 42
0.0000001
 43
0.0000001
 44
0.0000000001
 12
0.0041947927
 22
0.0159121846
 32
0.0
 13
0.0
 23
0.0164558168
 33
0.0
 40
0.0
 40
0.0
 40
0.0
 40
0.0
 40
1.0
 40
1.0
 40
1.0
 40
1.0
 10
17.3447909862
 20
-26.9213478474
 30
0.0
 10
17.3461892504
 20
-26.9160437859
 30
0.0
 10
17.3469368112
 20
-26.9105178097
 30
0.0
 10
17.3469368112
 20
-26.9050325374
 30
0.0
 11
17.3447909862
 21
-26.9213478474
 31
0.0
 11
17.3469368112
 21
-26.9050325374
 31
0.0
  0
SPLINE
  5
4DB
100
AcDbEntity
  8
RACCORDO
100
AcDbSpline
 62
253
  6
CONTINUOUS
 70
0
 71
3
 72
9
 73
5
 74
3
 42
0.0000001
 43
0.0000001
 44
0.0000000001
 12
-0.0618068848
 22
-0.193173312
 32
0.0
 13
0.0
 23
-0.2028201654
 33
0.0
 40
0.0
 40
0.0
 40
0.0
 40
0.0
 40
0.2612978907
 40
1.0
 40
1.0
 40
1.0
 40
1.0
 10
17.3068691603
 20
13.0058348704
 30
0.0
 10
17.3014858241
 20
12.9890096108
 30
0.0
 10
17.2831060933
 20
12.9239610996
 30
0.0
 10
17.2737135065
 20
12.8561244823
 30
0.0
 10
17.2737135065
 20
12.8061832543
 30
0.0
 11
17.3068691603
 21
13.0058348704
 31
0.0
 11
17.2924942658
 21
12.9548251709
 31
0.0
 11
17.2737135065
 21
12.8061832543
 31
0.0
  0
SPLINE
  5
4DC
100
AcDbEntity
  8
RACCORDO
100
AcDbSpline
 62
253
  6
CONTINUOUS
 70
0
 71
3
 72
11
 73
7
 74
5
 42
0.0000001
 43
0.0000001
 44
0.0000000001
 12
0.107613809
 22
0.0538069045
 32
0.0
 13
0.0
 23
0.1203158962
 33
0.0
 40
0.0
 40
0.0
 40
0.0
 40
0.0
 40
0.3018806002
 40
0.565479033
 40
0.7935241085
 40
1.0
 40
1.0
 40
1.0
 40
1.0
 10
17.2737135065
 20
12.8061832543
 30
0.0
 10
17.2845423469
 20
12.8115976745
 30
0.0
 10
17.3041333904
 20
12.8232711283
 30
0.0
 10
17.3279964583
 20
12.8447403609
 30
0.0
 10
17.3432657859
 20
12.8687354311
 30
0.0
 10
17.3469368112
 20
12.8862908247
 30
0.0
 10
17.3469368112
 20
12.894571602
 30
0.0
 11
17.2737135065
 21
12.8061832543
 31
0.0
 11
17.3047227351
 21
12.8250947672
 31
0.0
 11
17.3279066943
 21
12.8467361729
 31
0.0
 11
17.3421309737
 21
12.8701985558
 31
0.0
 11
17.3469368112
 21
12.894571602
 31
0.0
  0
SPLINE
  5
4DD
100
AcDbEntity
  8
RACCORDO
100
AcDbSpline
 62
253
  6
CONTINUOUS
 70
0
 71
3
 72
10
 73
6
 74
4
 42
0.0000001
 43
0.0000001
 44
0.0000000001
 12
0.0397153903
 22
-0.0643913703
 32
0.0
 13
-0.0481240378
 23
-0.0583749757
 33
0.0
 40
0.0
 40
0.0
 40
0.0
 40
0.0
 40
0.3492103718
 40
0.6297772923
 40
1.0
 40
1.0
 40
1.0
 40
1.0
 10
17.9808202877
 20
13.9097366449
 30
0.0
 10
17.9854432964
 20
13.9022412668
 30
0.0
 10
17.993119831
 20
13.8881055574
 30
0.0
 10
18.0021293841
 20
13.8651841692
 30
0.0
 10
18.0025146301
 20
13.8458652188
 30
0.0
 10
17.9965757596
 20
13.8386613049
 30
0.0
 11
17.9808202877
 21
13.9097366449
 31
0.0
 11
17.9933408334
 21
13.88647268
 31
0.0
 11
18.0003034565
 21
13.8664210473
 31
0.0
 11
17.9965757596
 21
13.8386613049
 31
0.0
  0
SPLINE
  5
4DE
100
AcDbEntity
  8
RACCORDO
100
AcDbSpline
 62
253
  6
CONTINUOUS
 70
0
 71
3
 72
10
 73
6
 74
4
 42
0.0000001
 43
0.0000001
 44
0.0000000001
 12
0.0397280143
 22
-0.0644118378
 32
0.0
 13
-0.0482235685
 23
-0.0583239866
 33
0.0
 40
0.0
 40
0.0
 40
0.0
 40
0.0
 40
0.3492690482
 40
0.6298549571
 40
1.0
 40
1.0
 40
1.0
 40
1.0
 10
17.4504902018
 20
13.269571602
 30
0.0
 10
17.455115457
 20
13.2620725815
 30
0.0
 10
17.4627942665
 20
13.2479296702
 30
0.0
 10
17.4718053461
 20
13.225001738
 30
0.0
 10
17.4721785457
 20
13.2056713015
 30
0.0
 10
17.4662286408
 20
13.1984751899
 30
0.0
 11
17.4504902018
 21
13.269571602
 31
0.0
 11
17.4630156538
 21
13.2462956983
 31
0.0
 11
17.469977505
 21
13.2262351345
 31
0.0
 11
17.4662286408
 21
13.1984751899
 31
0.0
  0
SPLINE
  5
4DF
100
AcDbEntity
  8
RACCORDO
100
AcDbSpline
 62
253
  6
CONTINUOUS
 70
0
 71
3
 72
9
 73
5
 74
3
 42
0.0000001
 43
0.0000001
 44
0.0000000001
 12
0.0959985305
 22
0.0468453926
 32
0.0
 13
0.1067318567
 23
-0.0043034213
 33
0.0
 40
0.0
 40
0.0
 40
0.0
 40
0.0
 40
0.245316102
 40
1.0
 40
1.0
 40
1.0
 40
1.0
 10
1.3057686272
 20
19.5363776654
 30
0.0
 10
1.3136186223
 20
19.5402083084
 30
0.0
 10
1.3466290704
 20
19.5537328217
 30
0.0
 10
1.3830386994
 20
19.5583241623
 30
0.0
 10
1.409888304
 20
19.557241588
 30
0.0
 11
1.3057686272
 21
19.5363776654
 31
0.0
 11
1.3300191739
 21
19.546306272
 31
0.0
 11
1.409888304
 21
19.557241588
 31
0.0
  0
SPLINE
  5
4E0
100
AcDbEntity
  8
RACCORDO
100
AcDbSpline
 62
253
  6
CONTINUOUS
 70
0
 71
3
 72
11
 73
7
 74
5
 42
0.0000001
 43
0.0000001
 44
0.0000000001
 12
0.3283037813
 22
-0.1641518906
 32
0.0
 13
0.0
 23
-0.3670547861
 33
0.0
 40
0.0
 40
0.0
 40
0.0
 40
0.0
 40
0.2296876225
 40
0.4882493672
 40
0.7532523129
 40
1.0
 40
1.0
 40
1.0
 40
1.0
 10
17.8040435924
 20
14.5659453156
 30
0.0
 10
17.829179364
 20
14.5533774298
 30
0.0
 10
17.8772104119
 20
14.5157999734
 30
0.0
 10
17.9326714042
 20
14.4411968176
 30
0.0
 10
17.9704032261
 20
14.353961824
 30
0.0
 10
17.9808202877
 20
14.2912405902
 30
0.0
 10
17.9808202877
 20
14.261050617
 30
0.0
 11
17.8040435924
 21
14.5659453156
 31
0.0
 11
17.8716961649
 21
14.5156366844
 31
0.0
 11
17.9290500629
 21
14.4400209381
 31
0.0
 11
17.9673690191
 21
14.3506160885
 31
0.0
 11
17.9808202877
 21
14.261050617
 31
0.0
  0
SPLINE
  5
4E1
100
AcDbEntity
  8
RACCORDO
100
AcDbSpline
 62
253
  6
CONTINUOUS
 70
0
 71
3
 72
11
 73
7
 74
5
 42
0.0000001
 43
0.0000001
 44
0.0000000001
 12
0.3283037813
 22
-0.1641518906
 32
0.0
 13
0.0
 23
-0.3670547861
 33
0.0
 40
0.0
 40
0.0
 40
0.0
 40
0.0
 40
0.2296876225
 40
0.4882493672
 40
0.7532523129
 40
1.0
 40
1.0
 40
1.0
 40
1.0
 10
15.6827232488
 20
13.5052851438
 30
0.0
 10
15.7078590205
 20
13.492717258
 30
0.0
 10
15.7558900684
 20
13.4551398016
 30
0.0
 10
15.8113510606
 20
13.3805366459
 30
0.0
 10
15.8490828826
 20
13.2933016522
 30
0.0
 10
15.8594999441
 20
13.2305804184
 30
0.0
 10
15.8594999441
 20
13.2003904452
 30
0.0
 11
15.6827232488
 21
13.5052851438
 31
0.0
 11
15.7503758213
 21
13.4549765126
 31
0.0
 11
15.8077297193
 21
13.3793607664
 31
0.0
 11
15.8460486755
 21
13.2899559168
 31
0.0
 11
15.8594999441
 21
13.2003904452
 31
0.0
  0
SPLINE
  5
4E2
100
AcDbEntity
  8
RACCORDO
100
AcDbSpline
 62
253
  6
CONTINUOUS
 70
0
 71
3
 72
11
 73
7
 74
5
 42
0.0000001
 43
0.0000001
 44
0.0000000001
 12
-0.3283037813
 22
-0.1641518906
 32
0.0
 13
0.0
 23
-0.3670547861
 33
0.0
 40
0.0
 40
0.0
 40
0.0
 40
0.0
 40
0.2296876225
 40
0.4882493672
 40
0.7532523129
 40
1.0
 40
1.0
 40
1.0
 40
1.0
 10
15.6827232488
 20
13.5052851438
 30
0.0
 10
15.6575874771
 20
13.492717258
 30
0.0
 10
15.6095564293
 20
13.4551398016
 30
0.0
 10
15.554095437
 20
13.3805366459
 30
0.0
 10
15.5163636151
 20
13.2933016522
 30
0.0
 10
15.5059465535
 20
13.2305804184
 30
0.0
 10
15.5059465535
 20
13.2003904452
 30
0.0
 11
15.6827232488
 21
13.5052851438
 31
0.0
 11
15.6150706763
 21
13.4549765126
 31
0.0
 11
15.5577167783
 21
13.3793607664
 31
0.0
 11
15.5193978221
 21
13.2899559168
 31
0.0
 11
15.5059465535
 21
13.2003904452
 31
0.0
  0
SPLINE
  5
4E3
100
AcDbEntity
  8
RACCORDO
100
AcDbSpline
 62
253
  6
CONTINUOUS
 70
0
 71
3
 72
11
 73
7
 74
5
 42
0.0000001
 43
0.0000001
 44
0.0000000001
 12
-0.3283037267
 22
-0.1641518634
 32
0.0
 13
0.0
 23
-0.3670547251
 33
0.0
 40
0.0
 40
0.0
 40
0.0
 40
0.0
 40
0.2296755894
 40
0.4882147766
 40
0.7532068921
 40
1.0
 40
1.0
 40
1.0
 40
1.0
 10
14.3392203646
 20
14.1770365859
 30
0.0
 10
14.3140859139
 20
14.1644693606
 30
0.0
 10
14.2660578399
 20
14.1268953246
 30
0.0
 10
14.2105985947
 20
14.0522978602
 30
0.0
 10
14.1728639455
 20
13.9650627908
 30
0.0
 10
14.1624436693
 20
13.9023374128
 30
0.0
 10
14.1624436693
 20
13.8721418873
 30
0.0
 11
14.3392203646
 21
14.1770365859
 31
0.0
 11
14.271570852
 21
14.126731265
 31
0.0
 11
14.2142203646
 21
14.0511233439
 31
0.0
 11
14.1758999939
 21
13.9617234432
 31
0.0
 11
14.1624436693
 21
13.8721418873
 31
0.0
  0
SPLINE
  5
4E4
100
AcDbEntity
  8
RACCORDO
100
AcDbSpline
 62
253
  6
CONTINUOUS
 70
0
 71
3
 72
11
 73
7
 74
5
 42
0.0000001
 43
0.0000001
 44
0.0000000001
 12
-0.3249549506
 22
-0.1624774753
 32
0.0
 13
-0.3249549506
 23
0.1624774753
 33
0.0
 40
0.0
 40
0.0
 40
0.0
 40
0.0
 40
0.2353555477
 40
0.4999881527
 40
0.764625342
 40
1.0
 40
1.0
 40
1.0
 40
1.0
 10
15.8594999441
 20
12.8490764731
 30
0.0
 10
15.8340066273
 20
12.8363298147
 30
0.0
 10
15.7754157273
 20
12.8181453924
 30
0.0
 10
15.6827270456
 20
12.8094585146
 30
0.0
 10
15.5900360321
 20
12.818144446
 30
0.0
 10
15.5314419403
 20
12.8363287797
 30
0.0
 10
15.5059465535
 20
12.8490764731
 30
0.0
 11
15.8594999441
 21
12.8490764731
 31
0.0
 11
15.7783993585
 21
12.8219808367
 31
0.0
 11
15.6827275987
 21
12.8124648197
 31
0.0
 11
15.5870540405
 21
12.821979583
 31
0.0
 11
15.5059465535
 21
12.8490764731
 31
0.0
  0
SPLINE
  5
4E5
100
AcDbEntity
  8
RACCORDO
100
AcDbSpline
 62
253
  6
CONTINUOUS
 70
0
 71
3
 72
11
 73
7
 74
5
 42
0.0000001
 43
0.0000001
 44
0.0000000001
 12
-0.324954929
 22
-0.1624774645
 32
0.0
 13
-0.324954929
 23
0.1624774645
 33
0.0
 40
0.0
 40
0.0
 40
0.0
 40
0.0
 40
0.2353701082
 40
0.5
 40
0.7646298918
 40
1.0
 40
1.0
 40
1.0
 40
1.0
 10
15.8594999441
 20
13.2003904452
 30
0.0
 10
15.8340050518
 20
13.1876429991
 30
0.0
 10
15.7754124539
 20
13.1694588733
 30
0.0
 10
15.6827232488
 20
13.1607725547
 30
0.0
 10
15.5900340438
 20
13.1694588733
 30
0.0
 10
15.5314414458
 20
13.1876429991
 30
0.0
 10
15.5059465535
 20
13.2003904452
 30
0.0
 11
15.8594999441
 21
13.2003904452
 31
0.0
 11
15.7783941069
 21
13.1732938513
 31
0.0
 11
15.6827232488
 21
13.1637787929
 31
0.0
 11
15.5870523907
 21
13.1732938513
 31
0.0
 11
15.5059465535
 21
13.2003904452
 31
0.0
  0
SPLINE
  5
4E6
100
AcDbEntity
  8
RACCORDO
100
AcDbSpline
 62
253
  6
CONTINUOUS
 70
0
 71
3
 72
11
 73
7
 74
5
 42
0.0000001
 43
0.0000001
 44
0.0000000001
 12
-0.324954929
 22
-0.1624774645
 32
0.0
 13
-0.324954929
 23
0.1624774645
 33
0.0
 40
0.0
 40
0.0
 40
0.0
 40
0.0
 40
0.2353701082
 40
0.5
 40
0.7646298918
 40
1.0
 40
1.0
 40
1.0
 40
1.0
 10
16.5666067253
 20
12.4526298637
 30
0.0
 10
16.541111833
 20
12.4398824176
 30
0.0
 10
16.482519235
 20
12.4216982918
 30
0.0
 10
16.38983003
 20
12.4130119732
 30
0.0
 10
16.297140825
 20
12.4216982918
 30
0.0
 10
16.238548227
 20
12.4398824176
 30
0.0
 10
16.2130533347
 20
12.4526298637
 30
0.0
 11
16.5666067253
 21
12.4526298637
 31
0.0
 11
16.4855008881
 21
12.4255332698
 31
0.0
 11
16.38983003
 21
12.4160182114
 31
0.0
 11
16.2941591719
 21
12.4255332698
 31
0.0
 11
16.2130533347
 21
12.4526298637
 31
0.0
  0
SPLINE
  5
4E7
100
AcDbEntity
  8
RACCORDO
100
AcDbSpline
 62
253
  6
CONTINUOUS
 70
0
 71
3
 72
11
 73
7
 74
5
 42
0.0000001
 43
0.0000001
 44
0.0000000001
 12
-0.324954929
 22
-0.1624774645
 32
0.0
 13
-0.324954929
 23
0.1624774645
 33
0.0
 40
0.0
 40
0.0
 40
0.0
 40
0.0
 40
0.2353701082
 40
0.5
 40
0.7646298918
 40
1.0
 40
1.0
 40
1.0
 40
1.0
 10
3.2022885609
 20
19.1347889459
 30
0.0
 10
3.1767936686
 20
19.1220414998
 30
0.0
 10
3.1182010706
 20
19.103857374
 30
0.0
 10
3.0255118656
 20
19.0951710554
 30
0.0
 10
2.9328226605
 20
19.103857374
 30
0.0
 10
2.8742300625
 20
19.1220414998
 30
0.0
 10
2.8487351703
 20
19.1347889459
 30
0.0
 11
3.2022885609
 21
19.1347889459
 31
0.0
 11
3.1211827237
 21
19.107692352
 31
0.0
 11
3.0255118656
 21
19.0981772936
 31
0.0
 11
2.9298410075
 21
19.107692352
 31
0.0
 11
2.8487351703
 21
19.1347889459
 31
0.0
  0
SPLINE
  5
4E8
100
AcDbEntity
  8
RACCORDO
100
AcDbSpline
 62
253
  6
CONTINUOUS
 70
0
 71
3
 72
11
 73
7
 74
5
 42
0.0000001
 43
0.0000001
 44
0.0000000001
 12
0.0
 22
0.3637747172
 32
0.0
 13
-0.3562153171
 23
0.0737746077
 33
0.0
 40
0.0
 40
0.0
 40
0.0
 40
0.0
 40
0.2934021086
 40
0.5509410244
 40
0.78010513
 40
1.0
 40
1.0
 40
1.0
 40
1.0
 10
3.2022885609
 20
19.1347889459
 30
0.0
 10
3.2022885609
 20
19.170366369
 30
0.0
 10
3.1956655599
 20
19.2375479016
 30
0.0
 10
3.161357329
 20
19.3272718108
 30
0.0
 10
3.1033798188
 20
19.39338528
 30
0.0
 10
3.0516218392
 20
19.4159930457
 30
0.0
 10
3.0255118656
 20
19.4214005983
 30
0.0
 11
3.2022885609
 21
19.1347889459
 31
0.0
 11
3.1902410286
 21
19.2408390956
 31
0.0
 11
3.1549210179
 21
19.3276123106
 31
0.0
 11
3.0987357827
 21
19.3891979729
 31
0.0
 11
3.0255118656
 21
19.4214005983
 31
0.0
  0
SPLINE
  5
4E9
100
AcDbEntity
  8
RACCORDO
100
AcDbSpline
 62
253
  6
CONTINUOUS
 70
0
 71
3
 72
11
 73
7
 74
5
 42
0.0000001
 43
0.0000001
 44
0.0000000001
 12
0.0
 22
-0.1574222712
 32
0.0
 13
-0.1408317318
 23
-0.0703434061
 33
0.0
 40
0.0
 40
0.0
 40
0.0
 40
0.0
 40
0.2892516425
 40
0.5496863449
 40
0.7829702418
 40
1.0
 40
1.0
 40
1.0
 40
1.0
 10
17.9808202877
 20
-27.7411814665
 30
0.0
 10
17.9808202877
 20
-27.7563596834
 30
0.0
 10
17.9783204078
 20
-27.7853043078
 30
0.0
 10
17.9660193558
 20
-27.8249282381
 30
0.0
 10
17.9453067838
 20
-27.8566299063
 30
0.0
 10
17.9260327439
 20
-27.8713060981
 30
0.0
 10
17.9158445183
 20
-27.8763949689
 30
0.0
 11
17.9808202877
 21
-27.7411814665
 31
0.0
 11
17.97649027
 21
-27.7865097728
 31
0.0
 11
17.9637476449
 21
-27.8254774484
 31
0.0
 11
17.9431823334
 21
-27.8559031953
 31
0.0
 11
17.9158445183
 21
-27.8763949689
 31
0.0
  0
SPLINE
  5
4EA
100
AcDbEntity
  8
RACCORDO
100
AcDbSpline
 62
7
  6
CONTINUOUS
 70
0
 71
3
 72
11
 73
7
 74
5
 42
0.0000001
 43
0.0000001
 44
0.0000000001
 12
-0.00000452
 22
-0.24065108
 32
0.0
 13
0.2152448696
 23
-0.1076224348
 33
0.0
 40
0.0
 40
0.0
 40
0.0
 40
0.0
 40
0.2065677123
 40
0.4345128221
 40
0.6974273522
 40
1.0
 40
1.0
 40
1.0
 40
1.0
 10
6.3065026715
 20
18.5746189706
 30
0.0
 10
6.3065023603
 20
18.5580487229
 30
0.0
 10
6.313819821
 20
18.5229253901
 30
0.0
 10
6.3443775114
 20
18.4750136701
 30
0.0
 10
6.3920026861
 20
18.4319730369
 30
0.0
 10
6.4312402047
 20
18.4086923597
 30
0.0
 10
6.4529492747
 20
18.3978378247
 30
0.0
 11
6.3065026715
 21
18.5746189706
 31
0.0
 11
6.3161087511
 21
18.5258451947
 31
0.0
 11
6.3445611418
 21
18.478945744
 31
0.0
 11
6.3907667352
 21
18.4357228303
 31
0.0
 11
6.4529492747
 21
18.3978378247
 31
0.0
  0
SPLINE
  5
4EB
100
AcDbEntity
  8
RACCORDO
100
AcDbSpline
 62
253
  6
CONTINUOUS
 70
0
 71
3
 72
11
 73
7
 74
5
 42
0.0000001
 43
0.0000001
 44
0.0000000001
 12
-0.3283038305
 22
-0.1641519152
 32
0.0
 13
0.0
 23
-0.3670548411
 33
0.0
 40
0.0
 40
0.0
 40
0.0
 40
0.0
 40
0.2296322548
 40
0.488180216
 40
0.7531943267
 40
1.0
 40
1.0
 40
1.0
 40
1.0
 10
2.3184050844
 20
20.187444226
 30
0.0
 10
2.2932753681
 20
20.1748793679
 30
0.0
 10
2.2452492395
 20
20.137310476
 30
0.0
 10
2.1897886482
 20
20.0627154456
 30
0.0
 10
2.1520501271
 20
19.9754762147
 30
0.0
 10
2.1416283891
 20
19.9127465998
 30
0.0
 10
2.1416283891
 20
19.8825495274
 30
0.0
 11
2.3184050844
 21
20.187444226
 31
0.0
 11
2.2507666405
 21
20.1371506318
 31
0.0
 11
2.1934115349
 21
20.0615421339
 31
0.0
 11
2.1550861674
 21
19.9721355578
 31
0.0
 11
2.1416283891
 21
19.8825495274
 31
0.0
  0
SPLINE
  5
4EC
100
AcDbEntity
  8
RACCORDO
100
AcDbSpline
 62
253
  6
CONTINUOUS
 70
0
 71
3
 72
11
 73
7
 74
5
 42
0.0000001
 43
0.0000001
 44
0.0000000001
 12
-0.3283038305
 22
-0.1641519152
 32
0.0
 13
-0.0
 23
-0.3670548411
 33
0.0
 40
0.0
 40
0.0
 40
0.0
 40
0.0
 40
0.2296322548
 40
0.488180216
 40
0.7531943267
 40
1.0
 40
1.0
 40
1.0
 40
1.0
 10
0.9749022001
 20
20.8591956682
 30
0.0
 10
0.9497724838
 20
20.84663081
 30
0.0
 10
0.9017463553
 20
20.8090619181
 30
0.0
 10
0.846285764
 20
20.7344668877
 30
0.0
 10
0.8085472429
 20
20.6472276568
 30
0.0
 10
0.7981255048
 20
20.584498042
 30
0.0
 10
0.7981255048
 20
20.5543009696
 30
0.0
 11
0.9749022001
 21
20.8591956682
 31
0.0
 11
0.9072637563
 21
20.808902074
 31
0.0
 11
0.8499086506
 21
20.7332935761
 31
0.0
 11
0.8115832832
 21
20.6438869999
 31
0.0
 11
0.7981255048
 21
20.5543009696
 31
0.0
  0
SPLINE
  5
4ED
100
AcDbEntity
  8
RACCORDO
100
AcDbSpline
 62
253
  6
CONTINUOUS
 70
0
 71
3
 72
11
 73
7
 74
5
 42
0.0000001
 43
0.0000001
 44
0.0000000001
 12
-0.324954929
 22
-0.1624774645
 32
0.0
 13
-0.324954929
 23
0.1624774645
 33
0.0
 40
0.0
 40
0.0
 40
0.0
 40
0.0
 40
0.2353701082
 40
0.5
 40
0.7646298918
 40
1.0
 40
1.0
 40
1.0
 40
1.0
 10
2.4951817797
 20
19.5312355553
 30
0.0
 10
2.4696868874
 20
19.5184881092
 30
0.0
 10
2.4110942894
 20
19.5003039834
 30
0.0
 10
2.3184050844
 20
19.4916176649
 30
0.0
 10
2.2257158793
 20
19.5003039834
 30
0.0
 10
2.1671232814
 20
19.5184881092
 30
0.0
 10
2.1416283891
 20
19.5312355553
 30
0.0
 11
2.4951817797
 21
19.5312355553
 31
0.0
 11
2.4140759425
 21
19.5041389614
 31
0.0
 11
2.3184050844
 21
19.494623903
 31
0.0
 11
2.2227342263
 21
19.5041389614
 31
0.0
 11
2.1416283891
 21
19.5312355553
 31
0.0
  0
SPLINE
  5
4EE
100
AcDbEntity
  8
RACCORDO
100
AcDbSpline
 62
253
  6
CONTINUOUS
 70
0
 71
3
 72
11
 73
7
 74
5
 42
0.0000001
 43
0.0000001
 44
0.0000000001
 12
-0.3249549857
 22
-0.1624774928
 32
0.0
 13
-0.3249549857
 23
0.1624774928
 33
0.0
 40
0.0
 40
0.0
 40
0.0
 40
0.0
 40
0.2353253496
 40
0.499964792
 40
0.764617449
 40
1.0
 40
1.0
 40
1.0
 40
1.0
 10
2.4951817797
 20
19.8825495274
 30
0.0
 10
2.4696917311
 20
19.8698045032
 30
0.0
 10
2.4111041786
 20
19.8516195412
 30
0.0
 10
2.3184164155
 20
19.8429313696
 30
0.0
 10
2.2257216486
 20
19.851616628
 30
0.0
 10
2.1671246336
 20
19.8698014052
 30
0.0
 10
2.1416283891
 20
19.8825495274
 30
0.0
 11
2.4951817797
 21
19.8825495274
 31
0.0
 11
2.4140920672
 21
19.8554559398
 31
0.0
 11
2.3184180054
 21
19.8459378651
 31
0.0
 11
2.2227387399
 21
19.8554521303
 31
0.0
 11
2.1416283891
 21
19.8825495274
 31
0.0
  0
SPLINE
  5
4EF
100
AcDbEntity
  8
RACCORDO
100
AcDbSpline
 62
253
  6
CONTINUOUS
 70
0
 71
3
 72
11
 73
7
 74
5
 42
0.0000001
 43
0.0000001
 44
0.0000000001
 12
-0.1063646839
 22
-0.2788159098
 32
0.0
 13
-0.2922163674
 23
0.0605091078
 33
0.0
 40
0.0
 40
0.0
 40
0.0
 40
0.0
 40
0.2770958208
 40
0.5368340029
 40
0.7754612626
 40
1.0
 40
1.0
 40
1.0
 40
1.0
 10
3.0255118656
 20
19.4214005983
 30
0.0
 10
3.0156874624
 20
19.3956476905
 30
0.0
 10
2.9899262006
 20
19.347951416
 30
0.0
 10
2.9343278542
 20
19.2926917009
 30
0.0
 10
2.8676884284
 20
19.2614502705
 30
0.0
 10
2.8199125989
 20
19.2604884157
 30
0.0
 10
2.7980413008
 20
19.2650172952
 30
0.0
 11
3.0255118656
 21
19.4214005983
 31
0.0
 11
2.9857021049
 21
19.3489246481
 31
0.0
 11
2.9300410908
 21
19.2949836391
 31
0.0
 11
2.8650413156
 21
19.2658992669
 31
0.0
 11
2.7980413008
 21
19.2650172952
 31
0.0
  0
SPLINE
  5
4F0
100
AcDbEntity
  8
RACCORDO
100
AcDbSpline
 62
253
  6
CONTINUOUS
 70
0
 71
3
 72
11
 73
7
 74
5
 42
0.0000001
 43
0.0000001
 44
0.0000000001
 12
0.0
 22
-0.1574222712
 32
0.0
 13
-0.1408317318
 23
-0.0703434061
 33
0.0
 40
0.0
 40
0.0
 40
0.0
 40
0.0
 40
0.2892516425
 40
0.5496863449
 40
0.7829702418
 40
1.0
 40
1.0
 40
1.0
 40
1.0
 10
15.8594999441
 20
-28.8018416383
 30
0.0
 10
15.8594999441
 20
-28.8170198552
 30
0.0
 10
15.8570000643
 20
-28.8459644796
 30
0.0
 10
15.8446990123
 20
-28.8855884099
 30
0.0
 10
15.8239864402
 20
-28.9172900781
 30
0.0
 10
15.8047124003
 20
-28.9319662698
 30
0.0
 10
15.7945241747
 20
-28.9370551406
 30
0.0
 11
15.8594999441
 21
-28.8018416383
 31
0.0
 11
15.8551699265
 21
-28.8471699446
 31
0.0
 11
15.8424273014
 21
-28.8861376201
 31
0.0
 11
15.8218619898
 21
-28.9165633671
 31
0.0
 11
15.7945241747
 21
-28.9370551406
 31
0.0
  0
SPLINE
  5
4F1
100
AcDbEntity
  8
RACCORDO
100
AcDbSpline
 62
253
  6
CONTINUOUS
 70
0
 71
3
 72
11
 73
7
 74
5
 42
0.0000001
 43
0.0000001
 44
0.0000000001
 12
-0.1059307198
 22
-0.2776783507
 32
0.0
 13
-0.2915002733
 23
0.0579152356
 33
0.0
 40
0.0
 40
0.0
 40
0.0
 40
0.0
 40
0.2769633699
 40
0.5367118852
 40
0.7754445235
 40
1.0
 40
1.0
 40
1.0
 40
1.0
 10
2.4951817797
 20
19.5312355553
 30
0.0
 10
2.4854021366
 20
19.5055999781
 30
0.0
 10
2.4597837071
 20
19.4581006811
 30
0.0
 10
2.4045372677
 20
19.4029627999
 30
0.0
 10
2.3383131565
 20
19.3715710302
 30
0.0
 10
2.2907472469
 20
19.3702706284
 30
0.0
 10
2.2689279193
 20
19.3746056895
 30
0.0
 11
2.4951817797
 21
19.5312355553
 31
0.0
 11
2.4556014913
 21
19.4590634075
 31
0.0
 11
2.4002860635
 21
19.4052160727
 31
0.0
 11
2.335651766
 21
19.3759512706
 31
0.0
 11
2.2689279193
 21
19.3746056895
 31
0.0
  0
SPLINE
  5
4F2
100
AcDbEntity
  8
RACCORDO
100
AcDbSpline
 62
253
  6
CONTINUOUS
 70
0
 71
3
 72
11
 73
7
 74
5
 42
0.0000001
 43
0.0000001
 44
0.0000000001
 12
0.0
 22
-0.1574253087
 32
0.0
 13
0.1407691098
 23
-0.0704754252
 33
0.0
 40
0.0
 40
0.0
 40
0.0
 40
0.0
 40
0.2893385886
 40
0.5494402709
 40
0.7826225719
 40
1.0
 40
1.0
 40
1.0
 40
1.0
 10
2.1416283891
 20
19.5312355553
 30
0.0
 10
2.1416283891
 20
19.5160524831
 30
0.0
 10
2.1441112309
 20
19.4871158807
 30
0.0
 10
2.1564255365
 20
19.4475213396
 30
0.0
 10
2.1770957915
 20
19.4157876886
 30
0.0
 10
2.1964124843
 20
19.4011452269
 30
0.0
 10
2.2066124933
 20
19.396038638
 30
0.0
 11
2.1416283891
 21
19.5312355553
 31
0.0
 11
2.1459522729
 21
19.4858920314
 31
0.0
 11
2.1586802036
 21
19.446973876
 31
0.0
 11
2.1792192855
 21
19.4165488567
 31
0.0
 11
2.2066124933
 21
19.396038638
 31
0.0
  0
SPLINE
  5
4F3
100
AcDbEntity
  8
RACCORDO
100
AcDbSpline
 62
253
  6
CONTINUOUS
 70
0
 71
3
 72
11
 73
7
 74
5
 42
0.0000001
 43
0.0000001
 44
0.0000000001
 12
-0.0
 22
-0.157526034
 32
0.0
 13
0.1409395254
 23
-0.0703598007
 33
0.0
 40
0.0
 40
0.0
 40
0.0
 40
0.0
 40
0.2893786307
 40
0.5495163242
 40
0.7826658298
 40
1.0
 40
1.0
 40
1.0
 40
1.0
 10
0.7981255048
 20
20.2029869975
 30
0.0
 10
0.7981255048
 20
20.1877921081
 30
0.0
 10
0.8006147269
 20
20.1588332455
 30
0.0
 10
0.8129459817
 20
20.1192126273
 30
0.0
 10
0.8336502986
 20
20.0874733675
 30
0.0
 10
0.8529898585
 20
20.0728404997
 30
0.0
 10
0.8632001834
 20
20.0677433034
 30
0.0
 11
0.7981255048
 21
20.2029869975
 31
0.0
 11
0.8024578383
 21
20.1576086674
 31
0.0
 11
0.8152067365
 21
20.1186638383
 31
0.0
 11
0.8357757107
 21
20.0882369026
 31
0.0
 11
0.8632001834
 21
20.0677433034
 31
0.0
  0
SPLINE
  5
4F4
100
AcDbEntity
  8
RACCORDO
100
AcDbSpline
 62
253
  6
CONTINUOUS
 70
0
 71
3
 72
11
 73
7
 74
5
 42
0.0000001
 43
0.0000001
 44
0.0000000001
 12
0.3283037813
 22
-0.1641518906
 32
0.0
 13
0.0
 23
-0.3670547861
 33
0.0
 40
0.0
 40
0.0
 40
0.0
 40
0.0
 40
0.2296876225
 40
0.4882493672
 40
0.7532523129
 40
1.0
 40
1.0
 40
1.0
 40
1.0
 10
4.4397254279
 20
21.2481043978
 30
0.0
 10
4.4648611996
 20
21.235536512
 30
0.0
 10
4.5128922475
 20
21.1979590556
 30
0.0
 10
4.5683532398
 20
21.1233558999
 30
0.0
 10
4.6060850617
 20
21.0361209062
 30
0.0
 10
4.6165021232
 20
20.9733996724
 30
0.0
 10
4.6165021232
 20
20.9432096992
 30
0.0
 11
4.4397254279
 21
21.2481043978
 31
0.0
 11
4.5073780005
 21
21.1977957666
 31
0.0
 11
4.5647318984
 21
21.1221800204
 31
0.0
 11
4.6030508546
 21
21.0327751708
 31
0.0
 11
4.6165021232
 21
20.9432096992
 31
0.0
  0
SPLINE
  5
4F5
100
AcDbEntity
  8
RACCORDO
100
AcDbSpline
 62
253
  6
CONTINUOUS
 70
0
 71
3
 72
11
 73
7
 74
5
 42
0.0000001
 43
0.0000001
 44
0.0000000001
 12
0.3283037267
 22
-0.1641518634
 32
0.0
 13
-0.0
 23
-0.3670547251
 33
0.0
 40
0.0
 40
0.0
 40
0.0
 40
0.0
 40
0.2296755894
 40
0.4882147766
 40
0.7532068921
 40
1.0
 40
1.0
 40
1.0
 40
1.0
 10
2.3184050844
 20
20.187444226
 30
0.0
 10
2.343539535
 20
20.1748770007
 30
0.0
 10
2.3915676091
 20
20.1373029647
 30
0.0
 10
2.4470268542
 20
20.0627055003
 30
0.0
 10
2.4847615035
 20
19.9754704309
 30
0.0
 10
2.4951817797
 20
19.9127450529
 30
0.0
 10
2.4951817797
 20
19.8825495274
 30
0.0
 11
2.3184050844
 21
20.187444226
 31
0.0
 11
2.3860545969
 21
20.1371389051
 31
0.0
 11
2.4434050844
 21
20.061530984
 31
0.0
 11
2.481725455
 21
19.9721310833
 31
0.0
 11
2.4951817797
 21
19.8825495274
 31
0.0
  0
SPLINE
  5
4F6
100
AcDbEntity
  8
RACCORDO
100
AcDbSpline
 62
253
  6
CONTINUOUS
 70
0
 71
3
 72
11
 73
7
 74
5
 42
0.0000001
 43
0.0000001
 44
0.0000000001
 12
0.0
 22
-0.1203158962
 32
0.0
 13
0.107613809
 23
-0.0538069045
 33
0.0
 40
0.0
 40
0.0
 40
0.0
 40
0.0
 40
0.2064758915
 40
0.434520967
 40
0.6981193998
 40
1.0
 40
1.0
 40
1.0
 40
1.0
 10
14.7963271457
 20
-26.5868344859
 30
0.0
 10
14.7963271457
 20
-26.5951152632
 30
0.0
 10
14.799998171
 20
-26.6126706568
 30
0.0
 10
14.8152674986
 20
-26.6366657269
 30
0.0
 10
14.8391305665
 20
-26.6581349596
 30
0.0
 10
14.85872161
 20
-26.6698084133
 30
0.0
 10
14.8695504504
 20
-26.6752228335
 30
0.0
 11
14.7963271457
 21
-26.5868344859
 31
0.0
 11
14.8011329833
 21
-26.6112075321
 31
0.0
 11
14.8153572626
 21
-26.6346699149
 31
0.0
 11
14.8385412218
 21
-26.6563113206
 31
0.0
 11
14.8695504504
 21
-26.6752228335
 31
0.0
  0
SPLINE
  5
4F7
100
AcDbEntity
  8
RACCORDO
100
AcDbSpline
 62
253
  6
CONTINUOUS
 70
0
 71
3
 72
10
 73
6
 74
4
 42
0.0000001
 43
0.0000001
 44
0.0000000001
 12
0.0696487429
 22
0.0842366601
 32
0.0
 13
0.0977620061
 23
-0.048881003
 33
0.0
 40
0.0
 40
0.0
 40
0.0
 40
0.0
 40
0.3486721975
 40
0.6375289811
 40
1.0
 40
1.0
 40
1.0
 40
1.0
 10
14.6770353161
 20
-26.8907380739
 30
0.0
 10
14.6851301762
 20
-26.8809477467
 30
0.0
 10
14.7138956299
 20
-26.8809453318
 30
0.0
 10
14.7471729658
 20
-26.8913247034
 30
0.0
 10
14.7693501381
 20
-26.901011025
 30
0.0
 10
14.7811621028
 20
-26.9069170073
 30
0.0
 11
14.6770353161
 21
-26.8907380739
 31
0.0
 11
14.7143361585
 21
-26.8829251009
 31
0.0
 11
14.7448221561
 21
-26.891136117
 31
0.0
 11
14.7811621028
 21
-26.9069170073
 31
0.0
  0
SPLINE
  5
4F8
100
AcDbEntity
  8
RACCORDO
100
AcDbSpline
 62
253
  6
CONTINUOUS
 70
0
 71
3
 72
10
 73
6
 74
4
 42
0.0000001
 43
0.0000001
 44
0.0000000001
 12
0.0696285401
 22
0.0842572943
 32
0.0
 13
0.0977647186
 23
-0.0488823593
 33
0.0
 40
0.0
 40
0.0
 40
0.0
 40
0.0
 40
0.348660957
 40
0.6375246301
 40
1.0
 40
1.0
 40
1.0
 40
1.0
 10
14.1467029889
 20
-27.530906268
 30
0.0
 10
14.1547952401
 20
-27.5211138584
 30
0.0
 10
14.1835636835
 20
-27.5211094107
 30
0.0
 10
14.2168410885
 20
-27.5314894248
 30
0.0
 10
14.2390195827
 20
-27.5411758332
 30
0.0
 10
14.2508320169
 20
-27.5470820503
 30
0.0
 11
14.1467029889
 21
-27.530906268
 31
0.0
 11
14.1840028833
 21
-27.5230896056
 31
0.0
 11
14.214490537
 21
-27.5313007369
 31
0.0
 11
14.2508320169
 21
-27.5470820503
 31
0.0
  0
SPLINE
  5
4F9
100
AcDbEntity
  8
RACCORDO
100
AcDbSpline
 62
253
  6
CONTINUOUS
 70
0
 71
3
 72
11
 73
7
 74
5
 42
0.0000001
 43
0.0000001
 44
0.0000000001
 12
0.0
 22
-0.1203158962
 32
0.0
 13
0.107613809
 23
-0.0538069045
 33
0.0
 40
0.0
 40
0.0
 40
0.0
 40
0.0
 40
0.2064758915
 40
0.434520967
 40
0.6981193998
 40
1.0
 40
1.0
 40
1.0
 40
1.0
 10
14.0892203646
 20
-27.6903878765
 30
0.0
 10
14.0892203646
 20
-27.6986686538
 30
0.0
 10
14.0928913899
 20
-27.7162240473
 30
0.0
 10
14.1081607174
 20
-27.7402191175
 30
0.0
 10
14.1320237853
 20
-27.7616883502
 30
0.0
 10
14.1516148288
 20
-27.7733618039
 30
0.0
 10
14.1624436693
 20
-27.7787762241
 30
0.0
 11
14.0892203646
 21
-27.6903878765
 31
0.0
 11
14.0940262021
 21
-27.7147609227
 31
0.0
 11
14.1082504814
 21
-27.7382233055
 31
0.0
 11
14.1314344407
 21
-27.7598647112
 31
0.0
 11
14.1624436693
 21
-27.7787762241
 31
0.0
  0
SPLINE
  5
4FA
100
AcDbEntity
  8
RACCORDO
100
AcDbSpline
 62
253
  6
CONTINUOUS
 70
0
 71
3
 72
11
 73
7
 74
5
 42
0.0000001
 43
0.0000001
 44
0.0000000001
 12
0.0002718853
 22
-0.1201769408
 32
0.0
 13
0.1074897987
 23
-0.0537448994
 33
0.0
 40
0.0
 40
0.0
 40
0.0
 40
0.0
 40
0.2064813555
 40
0.434578121
 40
0.6981915953
 40
1.0
 40
1.0
 40
1.0
 40
1.0
 10
14.0892205027
 20
-28.0418425411
 30
0.0
 10
14.0892392158
 20
-28.0501139737
 30
0.0
 10
14.0929395437
 20
-28.0676424454
 30
0.0
 10
14.1082187691
 20
-28.0915933459
 30
0.0
 10
14.1320629625
 20
-28.1130259294
 30
0.0
 10
14.1516298944
 20
-28.1246833088
 30
0.0
 10
14.1624436693
 20
-28.1300901962
 30
0.0
 11
14.0892205027
 21
-28.0418425411
 31
0.0
 11
14.0940670913
 21
-28.0661789973
 31
0.0
 11
14.1083054314
 21
-28.0896031237
 31
0.0
 11
14.13147535
 21
-28.1112086539
 31
0.0
 11
14.1624436693
 21
-28.1300901962
 31
0.0
  0
SPLINE
  5
4FB
100
AcDbEntity
  8
RACCORDO
100
AcDbSpline
 62
253
  6
CONTINUOUS
 70
0
 71
3
 72
11
 73
7
 74
5
 42
0.0000001
 43
0.0000001
 44
0.0000000001
 12
-0.1408846323
 22
0.0702997747
 32
0.0
 13
0.0
 23
0.1574501125
 33
0.0
 40
0.0
 40
0.0
 40
0.0
 40
0.0
 40
0.2170350907
 40
0.4503173148
 40
0.7107563689
 40
1.0
 40
1.0
 40
1.0
 40
1.0
 10
14.2274452219
 20
-28.2653155247
 30
0.0
 10
14.2172529189
 20
-28.2602296854
 30
0.0
 10
14.1979708369
 20
-28.24555565
 30
0.0
 10
14.1772495591
 20
-28.2138506452
 30
0.0
 10
14.1649454738
 20
-28.1742200849
 30
0.0
 10
14.1624436693
 20
-28.145270677
 30
0.0
 10
14.1624436693
 20
-28.1300901962
 30
0.0
 11
14.2274452219
 21
-28.2653155247
 31
0.0
 11
14.2000959154
 21
-28.24482761
 31
0.0
 11
14.1795226151
 21
-28.2143997418
 31
0.0
 11
14.1667756427
 21
-28.1754251382
 31
0.0
 11
14.1624436693
 21
-28.1300901962
 31
0.0
  0
SPLINE
  5
4FC
100
AcDbEntity
  8
RACCORDO
100
AcDbSpline
 62
253
  6
CONTINUOUS
 70
0
 71
3
 72
11
 73
7
 74
5
 42
0.0000001
 43
0.0000001
 44
0.0000000001
 12
-0.1405432827
 22
0.070520634
 32
0.0
 13
0.0
 23
0.1572436776
 33
0.0
 40
0.0
 40
0.0
 40
0.0
 40
0.0
 40
0.2170330954
 40
0.4503508394
 40
0.7108004038
 40
1.0
 40
1.0
 40
1.0
 40
1.0
 10
15.570761073
 20
-28.9369733794
 30
0.0
 10
15.5605935585
 20
-28.9318716089
 30
0.0
 10
15.5413661383
 20
-28.9171792393
 30
0.0
 10
15.5207082802
 20
-28.8854927924
 30
0.0
 10
15.5084415259
 20
-28.8459091807
 30
0.0
 10
15.5059465535
 20
-28.8169999077
 30
0.0
 10
15.5059465535
 20
-28.8018416383
 30
0.0
 11
15.570761073
 21
-28.9369733794
 31
0.0
 11
15.5434871545
 21
-28.9164601861
 31
0.0
 11
15.5229736754
 21
-28.886043292
 31
0.0
 11
15.5102652715
 21
-28.8471109087
 31
0.0
 11
15.5059465535
 21
-28.8018416383
 31
0.0
  0
SPLINE
  5
4FD
100
AcDbEntity
  8
RACCORDO
100
AcDbSpline
 62
253
  6
CONTINUOUS
 70
0
 71
3
 72
9
 73
5
 74
3
 42
0.0000001
 43
0.0000001
 44
0.0000000001
 12
-0.0618068848
 22
-0.193173312
 32
0.0
 13
-0.0
 23
-0.2028201654
 33
0.0
 40
0.0
 40
0.0
 40
0.0
 40
0.0
 40
0.2612978907
 40
1.0
 40
1.0
 40
1.0
 40
1.0
 10
3.9425509959
 20
19.6879939526
 30
0.0
 10
3.9371676596
 20
19.671168693
 30
0.0
 10
3.9187879289
 20
19.6061201818
 30
0.0
 10
3.9093953421
 20
19.5382835645
 30
0.0
 10
3.9093953421
 20
19.4883423365
 30
0.0
 11
3.9425509959
 21
19.6879939526
 31
0.0
 11
3.9281761014
 21
19.6369842531
 31
0.0
 11
3.9093953421
 21
19.4883423365
 31
0.0
  0
SPLINE
  5
4FE
100
AcDbEntity
  8
RACCORDO
100
AcDbSpline
 62
253
  6
CONTINUOUS
 70
0
 71
3
 72
11
 73
7
 74
5
 42
0.0000001
 43
0.0000001
 44
0.0000000001
 12
0.107613809
 22
0.0538069045
 32
0.0
 13
0.0
 23
0.1203158962
 33
0.0
 40
0.0
 40
0.0
 40
0.0
 40
0.0
 40
0.3018806002
 40
0.565479033
 40
0.7935241085
 40
1.0
 40
1.0
 40
1.0
 40
1.0
 10
3.9093953421
 20
19.4883423365
 30
0.0
 10
3.9202241825
 20
19.4937567567
 30
0.0
 10
3.939815226
 20
19.5054302105
 30
0.0
 10
3.9636782939
 20
19.5268994431
 30
0.0
 10
3.9789476215
 20
19.5508945133
 30
0.0
 10
3.9826186468
 20
19.5684499069
 30
0.0
 10
3.9826186468
 20
19.5767306842
 30
0.0
 11
3.9093953421
 21
19.4883423365
 31
0.0
 11
3.9404045707
 21
19.5072538495
 31
0.0
 11
3.9635885299
 21
19.5288952551
 31
0.0
 11
3.9778128092
 21
19.552357638
 31
0.0
 11
3.9826186468
 21
19.5767306842
 31
0.0
  0
SPLINE
  5
4FF
100
AcDbEntity
  8
RACCORDO
100
AcDbSpline
 62
253
  6
CONTINUOUS
 70
0
 71
3
 72
10
 73
6
 74
4
 42
0.0000001
 43
0.0000001
 44
0.0000000001
 12
0.0397280143
 22
-0.0644118378
 32
0.0
 13
-0.0482235685
 23
-0.0583239866
 33
0.0
 40
0.0
 40
0.0
 40
0.0
 40
0.0
 40
0.3492690482
 40
0.6298549571
 40
1.0
 40
1.0
 40
1.0
 40
1.0
 10
4.6165021232
 20
20.5918957271
 30
0.0
 10
4.6211273785
 20
20.5843967067
 30
0.0
 10
4.628806188
 20
20.5702537953
 30
0.0
 10
4.6378172675
 20
20.5473258631
 30
0.0
 10
4.6381904672
 20
20.5279954266
 30
0.0
 10
4.6322405622
 20
20.5207993151
 30
0.0
 11
4.6165021232
 21
20.5918957271
 31
0.0
 11
4.6290275752
 21
20.5686198234
 31
0.0
 11
4.6359894265
 21
20.5485592597
 31
0.0
 11
4.6322405622
 21
20.5207993151
 31
0.0
  0
SPLINE
  5
500
100
AcDbEntity
  8
RACCORDO
100
AcDbSpline
 62
253
  6
CONTINUOUS
 70
0
 71
3
 72
10
 73
6
 74
4
 42
0.0000001
 43
0.0000001
 44
0.0000000001
 12
0.0397280143
 22
-0.0644118378
 32
0.0
 13
-0.0482235685
 23
-0.0583239866
 33
0.0
 40
0.0
 40
0.0
 40
0.0
 40
0.0
 40
0.3492690482
 40
0.6298549571
 40
1.0
 40
1.0
 40
1.0
 40
1.0
 10
4.0861720374
 20
19.9517306842
 30
0.0
 10
4.0907972926
 20
19.9442316638
 30
0.0
 10
4.0984761021
 20
19.9300887524
 30
0.0
 10
4.1074871816
 20
19.9071608202
 30
0.0
 10
4.1078603813
 20
19.8878303837
 30
0.0
 10
4.1019104764
 20
19.8806342722
 30
0.0
 11
4.0861720374
 21
19.9517306842
 31
0.0
 11
4.0986974893
 21
19.9284547805
 31
0.0
 11
4.1056593406
 21
19.9083942168
 31
0.0
 11
4.1019104764
 21
19.8806342722
 31
0.0
  0
SPLINE
  5
501
100
AcDbEntity
  8
RACCORDO
100
AcDbSpline
 62
253
  6
CONTINUOUS
 70
0
 71
3
 72
11
 73
7
 74
5
 42
0.0000001
 43
0.0000001
 44
0.0000000001
 12
-0.0000428024
 22
-0.120294451
 32
0.0
 13
-0.1075946347
 23
-0.0537973174
 33
0.0
 40
0.0
 40
0.0
 40
0.0
 40
0.0
 40
0.2065139657
 40
0.4345738457
 40
0.6981297526
 40
1.0
 40
1.0
 40
1.0
 40
1.0
 10
18.0540436089
 20
-27.6528146752
 30
0.0
 10
18.0540406624
 20
-27.6610955033
 30
0.0
 10
18.0503601988
 20
-27.6786475621
 30
0.0
 10
18.0350928494
 20
-27.7026368867
 30
0.0
 10
18.0112342598
 20
-27.7241010398
 30
0.0
 10
17.9916468273
 20
-27.7357681967
 30
0.0
 10
17.9808202877
 20
-27.7411814665
 30
0.0
 11
18.0540436089
 21
-27.6528146752
 31
0.0
 11
18.0492276508
 21
-27.6771858804
 31
0.0
 11
18.0350016681
 21
-27.700643596
 31
0.0
 11
18.0118244102
 21
-27.7222764024
 31
0.0
 11
17.9808202877
 21
-27.7411814665
 31
0.0
  0
SPLINE
  5
502
100
AcDbEntity
  8
RACCORDO
100
AcDbSpline
 62
253
  6
CONTINUOUS
 70
0
 71
3
 72
9
 73
5
 74
3
 42
0.0000001
 43
0.0000001
 44
0.0000000001
 12
-0.0564143035
 22
-0.0270011266
 32
0.0
 13
-0.0621381577
 23
0.0071051982
 33
0.0
 40
0.0
 40
0.0
 40
0.0
 40
0.0
 40
0.2713526231
 40
1.0
 40
1.0
 40
1.0
 40
1.0
 10
4.0483485553
 20
19.2307920716
 30
0.0
 10
4.0432458322
 20
19.2283497961
 30
0.0
 10
4.0240146021
 20
19.2203903339
 30
0.0
 10
4.002518671
 20
19.216951793
 30
0.0
 10
3.9874264025
 20
19.218677521
 30
0.0
 11
4.0483485553
 21
19.2307920716
 31
0.0
 11
4.0326421877
 21
19.2243630398
 31
0.0
 11
3.9874264025
 21
19.218677521
 31
0.0
  0
SPLINE
  5
503
100
AcDbEntity
  8
RACCORDO
100
AcDbSpline
 62
253
  6
CONTINUOUS
 70
0
 71
3
 72
8
 73
4
 74
2
 42
0.0000001
 43
0.0000001
 44
0.0000000001
 12
-0.0269734927
 22
0.0030842886
 32
0.0
 13
-0.0242873509
 23
0.012132878
 33
0.0
 40
0.0
 40
0.0
 40
0.0
 40
0.0
 40
1.0
 40
1.0
 40
1.0
 40
1.0
 10
3.9874264025
 20
19.218677521
 30
0.0
 10
3.9784352382
 20
19.2197056172
 30
0.0
 10
3.969471855
 20
19.2222792987
 30
0.0
 10
3.9613760714
 20
19.2263235914
 30
0.0
 11
3.9874264025
 21
19.218677521
 31
0.0
 11
3.9613760714
 21
19.2263235914
 31
0.0
  0
SPLINE
  5
504
100
AcDbEntity
  8
RACCORDO
100
AcDbSpline
 62
253
  6
CONTINUOUS
 70
0
 71
3
 72
11
 73
7
 74
5
 42
0.0000001
 43
0.0000001
 44
0.0000000001
 12
0.0
 22
-0.1203158962
 32
0.0
 13
-0.107613809
 23
-0.0538069045
 33
0.0
 40
0.0
 40
0.0
 40
0.0
 40
0.0
 40
0.2064758915
 40
0.434520967
 40
0.6981193998
 40
1.0
 40
1.0
 40
1.0
 40
1.0
 10
18.0540435924
 20
-27.3014791468
 30
0.0
 10
18.0540435924
 20
-27.3097599241
 30
0.0
 10
18.0503725671
 20
-27.3273153177
 30
0.0
 10
18.0351032395
 20
-27.3513103879
 30
0.0
 10
18.0112401716
 20
-27.3727796205
 30
0.0
 10
17.9916491281
 20
-27.3844530743
 30
0.0
 10
17.9808202877
 20
-27.3898674945
 30
0.0
 11
18.0540435924
 21
-27.3014791468
 31
0.0
 11
18.0492377549
 21
-27.325852193
 31
0.0
 11
18.0350134755
 21
-27.3493145759
 31
0.0
 11
18.0118295163
 21
-27.3709559815
 31
0.0
 11
17.9808202877
 21
-27.3898674945
 31
0.0
  0
SPLINE
  5
505
100
AcDbEntity
  8
RACCORDO
100
AcDbSpline
 62
253
  6
CONTINUOUS
 70
0
 71
3
 72
15
 73
11
 74
9
 42
0.0000001
 43
0.0000001
 44
0.0000000001
 12
0.3860288314
 22
0.1845698783
 32
0.0
 13
-0.3827055692
 23
0.1913654774
 33
0.0
 40
0.0
 40
0.0
 40
0.0
 40
0.0
 40
0.1514155391
 40
0.2826460431
 40
0.3956500446
 40
0.4978214288
 40
0.6004154458
 40
0.7145216826
 40
0.8471605453
 40
1.0
 40
1.0
 40
1.0
 40
1.0
 10
4.0483485553
 20
18.9193964584
 30
0.0
 10
4.0678321432
 20
18.9287120409
 30
0.0
 10
4.1030487475
 20
18.9488072895
 30
0.0
 10
4.1459593539
 20
18.9861849607
 30
0.0
 10
4.1735503142
 20
19.028199661
 30
0.0
 10
4.1832534414
 20
19.0737440332
 30
0.0
 10
4.1734966715
 20
19.1194213716
 30
0.0
 10
4.1459306665
 20
19.1619148442
 30
0.0
 10
4.1030715186
 20
19.2001723581
 30
0.0
 10
4.0678460588
 20
19.2210426732
 30
0.0
 10
4.0483485553
 20
19.2307920716
 30
0.0
 11
4.0483485553
 21
18.9193964584
 31
0.0
 11
4.1042545244
 21
18.9521384053
 31
0.0
 11
4.1459049082
 21
18.9897976903
 31
0.0
 11
4.171498374
 21
19.0308213845
 31
0.0
 11
4.1801239646
 21
19.0736794604
 31
0.0
 11
4.1715023549
 21
19.1167227822
 31
0.0
 11
4.1458970727
 21
19.1582940439
 31
0.0
 11
4.1042440742
 21
19.1968432619
 31
0.0
 11
4.0483485553
 21
19.2307920716
 31
0.0
  0
SPLINE
  5
506
100
AcDbEntity
  8
RACCORDO
100
AcDbSpline
 62
253
  6
CONTINUOUS
 70
0
 71
3
 72
11
 73
7
 74
5
 42
0.0000001
 43
0.0000001
 44
0.0000000001
 12
-0.262790765
 22
0.1313953819
 32
0.0
 13
0.0041573225
 23
0.2937795929
 33
0.0
 40
0.0
 40
0.0
 40
0.0
 40
0.0
 40
0.2292208772
 40
0.4872317535
 40
0.7522441527
 40
1.0
 40
1.0
 40
1.0
 40
1.0
 10
4.0483485553
 20
18.9193964584
 30
0.0
 10
4.0282695121
 20
18.9294359799
 30
0.0
 10
3.9899636437
 20
18.9595835832
 30
0.0
 10
3.9460974702
 20
19.0195950935
 30
0.0
 10
3.9166879609
 20
19.0898313557
 30
0.0
 10
3.9090520084
 20
19.1402580381
 30
0.0
 10
3.9093953421
 20
19.1645199088
 30
0.0
 11
4.0483485553
 21
18.9193964584
 31
0.0
 11
3.9944168222
 21
18.9597326443
 31
0.0
 11
3.9490714585
 21
19.0204807751
 31
0.0
 11
3.9192158846
 21
19.0923924996
 31
0.0
 11
3.9093953421
 21
19.1645199088
 31
0.0
  0
SPLINE
  5
507
100
AcDbEntity
  8
RACCORDO
100
AcDbSpline
 62
253
  6
CONTINUOUS
 70
0
 71
3
 72
10
 73
6
 74
4
 42
0.0000001
 43
0.0000001
 44
0.0000000001
 12
0.1000264795
 22
0.0461621917
 32
0.0
 13
0.0114502833
 23
0.1095679495
 33
0.0
 40
0.0
 40
0.0
 40
0.0
 40
0.0
 40
0.3046286573
 40
0.5704755089
 40
1.0
 40
1.0
 40
1.0
 40
1.0
 10
3.9093953421
 20
19.1645199088
 30
0.0
 10
3.9195523194
 20
19.1692073509
 30
0.0
 10
3.9380463247
 20
19.1793861422
 30
0.0
 10
3.9666551168
 20
19.2023006542
 30
0.0
 10
3.9806527258
 20
19.2263636961
 30
0.0
 10
3.9822921182
 20
19.2420510687
 30
0.0
 11
3.9093953421
 21
19.1645199088
 31
0.0
 11
3.938683842
 21
19.1809031473
 31
0.0
 11
3.9611107177
 21
19.1997381904
 31
0.0
 11
3.9822921182
 21
19.2420510687
 31
0.0
  0
SPLINE
  5
508
100
AcDbEntity
  8
RACCORDO
100
AcDbSpline
 62
253
  6
CONTINUOUS
 70
0
 71
3
 72
11
 73
7
 74
5
 42
0.0000001
 43
0.0000001
 44
0.0000000001
 12
-0.2627907646
 22
0.1313953824
 32
0.0
 13
0.0041573218
 23
0.2937795929
 33
0.0
 40
0.0
 40
0.0
 40
0.0
 40
0.0
 40
0.2292208809
 40
0.4872317594
 40
0.752244156
 40
1.0
 40
1.0
 40
1.0
 40
1.0
 10
3.3412417741
 20
18.5809595974
 30
0.0
 10
3.3211627306
 20
18.5909991192
 30
0.0
 10
3.2828568619
 20
18.6211467231
 30
0.0
 10
3.2389906884
 20
18.6811582338
 30
0.0
 10
3.2095811796
 20
18.7513944957
 30
0.0
 10
3.2019452273
 20
18.8018211775
 30
0.0
 10
3.2022885609
 20
18.8260830478
 30
0.0
 11
3.3412417741
 21
18.5809595974
 31
0.0
 11
3.2873100403
 21
18.6212957842
 31
0.0
 11
3.2419646765
 21
18.6820439157
 31
0.0
 11
3.2121091032
 21
18.7539556396
 31
0.0
 11
3.2022885609
 21
18.8260830478
 31
0.0
  0
SPLINE
  5
509
100
AcDbEntity
  8
RACCORDO
100
AcDbSpline
 62
253
  6
CONTINUOUS
 70
0
 71
3
 72
11
 73
7
 74
5
 42
0.0000001
 43
0.0000001
 44
0.0000000001
 12
0.5843324218
 22
-0.2920747136
 32
0.0
 13
0.5891333018
 23
0.2822657793
 33
0.0
 40
0.0
 40
0.0
 40
0.0
 40
0.0
 40
0.2359339744
 40
0.5010327342
 40
0.7655841254
 40
1.0
 40
1.0
 40
1.0
 40
1.0
 10
2.7048456711
 20
18.5877620358
 30
0.0
 10
2.7508002946
 20
18.5647919198
 30
0.0
 10
2.8561926585
 20
18.5316773659
 30
0.0
 10
3.0228815418
 20
18.5145964145
 30
0.0
 10
3.1895591118
 20
18.5280525114
 30
0.0
 10
3.2952077081
 20
18.5589037376
 30
0.0
 10
3.3412417741
 20
18.5809595974
 30
0.0
 11
2.7048456711
 21
18.5877620358
 31
0.0
 11
2.8508774758
 21
18.538469086
 31
0.0
 11
3.0230561541
 21
18.5198813304
 31
0.0
 11
3.1952338055
 21
18.5347855916
 31
0.0
 11
3.3412417741
 21
18.5809595974
 31
0.0
  0
SPLINE
  5
50A
100
AcDbEntity
  8
RACCORDO
100
AcDbSpline
 62
253
  6
CONTINUOUS
 70
0
 71
3
 72
11
 73
7
 74
5
 42
0.0000001
 43
0.0000001
 44
0.0000000001
 12
0.2673132834
 22
0.1279420285
 32
0.0
 13
0.000000009
 23
0.2963537652
 33
0.0
 40
0.0
 40
0.0
 40
0.0
 40
0.0
 40
0.2286190611
 40
0.4870721424
 40
0.7526205645
 40
1.0
 40
1.0
 40
1.0
 40
1.0
 10
2.7048456711
 20
18.5877620358
 30
0.0
 10
2.7252166417
 20
18.5975120313
 30
0.0
 10
2.7642824253
 20
18.6273680526
 30
0.0
 10
2.8094197952
 20
18.6872715006
 30
0.0
 10
2.8402100816
 20
18.7576918022
 30
0.0
 10
2.8487351695
 20
18.8084482105
 30
0.0
 10
2.8487351703
 20
18.8328854862
 30
0.0
 11
2.7048456711
 21
18.5877620358
 31
0.0
 11
2.7597185542
 21
18.6275026497
 31
0.0
 11
2.8064373583
 21
18.6881979896
 31
0.0
 11
2.8377327272
 21
18.7604039696
 31
0.0
 11
2.8487351703
 21
18.8328854862
 31
0.0
  0
SPLINE
  5
50B
100
AcDbEntity
  8
RACCORDO
100
AcDbSpline
 62
253
  6
CONTINUOUS
 70
0
 71
3
 72
11
 73
7
 74
5
 42
0.0000001
 43
0.0000001
 44
0.0000000001
 12
0.3243712491
 22
-0.1621680348
 32
0.0
 13
0.3292300846
 23
0.1520615998
 33
0.0
 40
0.0
 40
0.0
 40
0.0
 40
0.0
 40
0.2363471691
 40
0.5018768777
 40
0.7663880892
 40
1.0
 40
1.0
 40
1.0
 40
1.0
 10
2.8487351703
 20
18.8328854862
 30
0.0
 10
2.8742899124
 20
18.8201095009
 30
0.0
 10
2.9328152015
 20
18.8015337122
 30
0.0
 10
3.025362498
 20
18.7914077843
 30
0.0
 10
3.1178941311
 20
18.7979235412
 30
0.0
 10
3.1766512045
 20
18.8142419142
 30
0.0
 10
3.2022885609
 20
18.8260830478
 30
0.0
 11
2.8487351703
 21
18.8328854862
 31
0.0
 11
2.9298734792
 21
18.8052628387
 31
0.0
 11
3.0255402963
 21
18.7942868316
 31
0.0
 11
3.1211869184
 21
18.8015901511
 31
0.0
 11
3.2022885609
 21
18.8260830478
 31
0.0
  0
SPLINE
  5
50C
100
AcDbEntity
  8
RACCORDO
100
AcDbSpline
 62
253
  6
CONTINUOUS
 70
0
 71
3
 72
11
 73
7
 74
5
 42
0.0000001
 43
0.0000001
 44
0.0000000001
 12
0.267313289
 22
0.1279420203
 32
0.0
 13
-0.0000000003
 23
0.2963537667
 33
0.0
 40
0.0
 40
0.0
 40
0.0
 40
0.0
 40
0.2286190318
 40
0.4870720935
 40
0.7526205358
 40
1.0
 40
1.0
 40
1.0
 40
1.0
 10
1.3613427868
 20
19.2595134779
 30
0.0
 10
1.3817137552
 20
19.2692634715
 30
0.0
 10
1.4207795369
 20
19.2991194875
 30
0.0
 10
1.4659169075
 20
19.3590229321
 30
0.0
 10
1.4967071971
 20
19.4294432361
 30
0.0
 10
1.505232286
 20
19.4801996496
 30
0.0
 10
1.505232286
 20
19.5046369283
 30
0.0
 11
1.3613427868
 21
19.2595134779
 31
0.0
 11
1.4162156652
 21
19.2992540842
 31
0.0
 11
1.4629344685
 21
19.3599494179
 31
0.0
 11
1.494229842
 21
19.4321554029
 31
0.0
 11
1.505232286
 21
19.5046369283
 31
0.0
  0
SPLINE
  5
50D
100
AcDbEntity
  8
RACCORDO
100
AcDbSpline
 62
253
  6
CONTINUOUS
 70
0
 71
3
 72
8
 73
4
 74
2
 42
0.0000001
 43
0.0000001
 44
0.0000000001
 12
0.0156792675
 22
-0.000791969
 32
0.0
 13
0.0155782856
 23
0.0019451638
 33
0.0
 40
0.0
 40
0.0
 40
0.0
 40
0.0
 40
1.0
 40
1.0
 40
1.0
 40
1.0
 10
1.409888304
 20
19.5572415881
 30
0.0
 10
1.4151147265
 20
19.5569775984
 30
0.0
 10
1.4203850247
 20
19.5571470791
 30
0.0
 10
1.4255777865
 20
19.557795467
 30
0.0
 11
1.409888304
 21
19.5572415881
 31
0.0
 11
1.4255777865
 21
19.557795467
 31
0.0
  0
SPLINE
  5
50E
100
AcDbEntity
  8
RACCORDO
100
AcDbSpline
 62
253
  6
CONTINUOUS
 70
0
 71
3
 72
8
 73
4
 74
2
 42
0.0000001
 43
0.0000001
 44
0.0000000001
 12
0.0253921028
 22
0.0031705542
 32
0.0
 13
0.0230832389
 23
0.0110442465
 33
0.0
 40
0.0
 40
0.0
 40
0.0
 40
0.0
 40
1.0
 40
1.0
 40
1.0
 40
1.0
 10
1.4255777865
 20
19.557795467
 30
0.0
 10
1.4340418208
 20
19.5588523184
 30
0.0
 10
1.4424609067
 20
19.5612383875
 30
0.0
 10
1.4501553197
 20
19.564919803
 30
0.0
 11
1.4255777865
 21
19.557795467
 31
0.0
 11
1.4501553197
 21
19.564919803
 31
0.0
  0
SPLINE
  5
50F
100
AcDbEntity
  8
RACCORDO
100
AcDbSpline
 62
253
  6
CONTINUOUS
 70
0
 71
3
 72
9
 73
5
 74
3
 42
0.0000001
 43
0.0000001
 44
0.0000000001
 12
0.0784028949
 22
-0.1179873957
 32
0.0
 13
0.1266981488
 23
-0.0633689085
 33
0.0
 40
0.0
 40
0.0
 40
0.0
 40
0.0
 40
0.2185316941
 40
1.0
 40
1.0
 40
1.0
 40
1.0
 10
1.2518581805
 20
19.3479222442
 30
0.0
 10
1.257569353
 20
19.3393275824
 30
0.0
 10
1.2874592132
 20
19.3024745647
 30
0.0
 10
1.3283392576
 20
19.2760204091
 30
0.0
 10
1.3613427868
 20
19.2595134779
 30
0.0
 11
1.2518581805
 21
19.3479222442
 31
0.0
 11
1.2711579649
 21
19.3237170867
 31
0.0
 11
1.3613427868
 21
19.2595134779
 31
0.0
  0
SPLINE
  5
510
100
AcDbEntity
  8
RACCORDO
100
AcDbSpline
 62
253
  6
CONTINUOUS
 70
0
 71
3
 72
9
 73
5
 74
3
 42
0.0000001
 43
0.0000001
 44
0.0000000001
 12
0.0812967028
 22
0.0437701768
 32
0.0
 13
0.038222943
 23
0.0840475395
 33
0.0
 40
0.0
 40
0.0
 40
0.0
 40
0.0
 40
0.2871604962
 40
1.0
 40
1.0
 40
1.0
 40
1.0
 10
17.2737135065
 20
-26.6695984573
 30
0.0
 10
17.2814952403
 20
-26.6654087687
 30
0.0
 10
17.307650514
 20
-26.6495038338
 30
0.0
 10
17.3310522172
 20
-26.6265793281
 30
0.0
 10
17.3401344918
 20
-26.606608526
 30
0.0
 11
17.2737135065
 21
-26.6695984573
 31
0.0
 11
17.2962897005
 21
-26.6556953889
 31
0.0
 11
17.3401344918
 21
-26.606608526
 31
0.0
  0
SPLINE
  5
511
100
AcDbEntity
  8
RACCORDO
100
AcDbSpline
 62
253
  6
CONTINUOUS
 70
0
 71
3
 72
9
 73
5
 74
3
 42
0.0000001
 43
0.0000001
 44
0.0000000001
 12
-0.0004368348
 22
0.0304323504
 32
0.0
 13
0.0045336488
 23
0.0300959267
 33
0.0
 40
0.0
 40
0.0
 40
0.0
 40
0.0
 40
0.257568287
 40
1.0
 40
1.0
 40
1.0
 40
1.0
 10
17.2737135065
 20
-26.6695984573
 30
0.0
 10
17.2736760016
 20
-26.6669856545
 30
0.0
 10
17.2737222511
 20
-26.65684048
 30
0.0
 10
17.2745484171
 20
-26.6466927396
 30
0.0
 10
17.275670392
 20
-26.6392446828
 30
0.0
 11
17.2737135065
 21
-26.6695984573
 31
0.0
 11
17.2737515672
 21
-26.6617593338
 31
0.0
 11
17.275670392
 21
-26.6392446828
 31
0.0
  0
SPLINE
  5
512
100
AcDbEntity
  8
RACCORDO
100
AcDbSpline
 62
253
  6
CONTINUOUS
 70
0
 71
3
 72
9
 73
5
 74
3
 42
0.0000001
 43
0.0000001
 44
0.0000000001
 12
-0.0009125278
 22
0.0635717876
 32
0.0
 13
0.0243936007
 23
0.0587124955
 33
0.0
 40
0.0
 40
0.0
 40
0.0
 40
0.0
 40
0.2692555591
 40
1.0
 40
1.0
 40
1.0
 40
1.0
 10
16.5666067253
 20
-27.0382683775
 30
0.0
 10
16.5665248242
 20
-27.0325626918
 30
0.0
 10
16.5670897326
 20
-27.0113962584
 30
0.0
 10
16.5713068584
 20
-26.9901216292
 30
0.0
 10
16.5772486878
 20
-26.9758203526
 30
0.0
 11
16.5666067253
 21
-27.0382683775
 31
0.0
 11
16.5670938142
 21
-27.021156488
 31
0.0
 11
16.5772486878
 21
-26.9758203526
 31
0.0
  0
SPLINE
  5
513
100
AcDbEntity
  8
RACCORDO
100
AcDbSpline
 62
253
  6
CONTINUOUS
 70
0
 71
3
 72
9
 73
5
 74
3
 42
0.0000001
 43
0.0000001
 44
0.0000000001
 12
0.1992318979
 22
-0.0123680175
 32
0.0
 13
0.1828185238
 23
0.0801480152
 33
0.0
 40
0.0
 40
0.0
 40
0.0
 40
0.0
 40
0.518907027
 40
1.0
 40
1.0
 40
1.0
 40
1.0
 10
16.3510923768
 20
-27.0788673538
 30
0.0
 10
16.3855533207
 20
-27.0810066376
 30
0.0
 10
16.4525347247
 20
-27.0779765797
 30
0.0
 10
16.5176335286
 20
-27.0606706664
 30
0.0
 10
16.5469510976
 20
-27.0478177841
 30
0.0
 11
16.3510923768
 21
-27.0788673538
 31
0.0
 11
16.4545606458
 21
-27.0740180199
 31
0.0
 11
16.5469510976
 21
-27.0478177841
 31
0.0
  0
SPLINE
  5
514
100
AcDbEntity
  8
RACCORDO
100
AcDbSpline
 62
253
  6
CONTINUOUS
 70
0
 71
3
 72
9
 73
5
 74
3
 42
0.0000001
 43
0.0000001
 44
0.0000000001
 12
-0.1688342853
 22
0.1612772804
 32
0.0
 13
0.0033037564
 23
0.2334619075
 33
0.0
 40
0.0
 40
0.0
 40
0.0
 40
0.0
 40
0.5059024405
 40
1.0
 40
1.0
 40
1.0
 40
1.0
 10
16.657312466
 20
11.933529507
 30
0.0
 10
16.6288412403
 20
11.9607263636
 30
0.0
 10
16.5848047534
 20
12.0274226774
 30
0.0
 10
16.5660625993
 20
12.1054729794
 30
0.0
 10
16.5666067253
 20
12.1439239656
 30
0.0
 11
16.657312466
 21
11.933529507
 31
0.0
 11
16.5907586706
 21
12.0311159283
 31
0.0
 11
16.5666067253
 21
12.1439239656
 31
0.0
  0
SPLINE
  5
515
100
AcDbEntity
  8
RACCORDO
100
AcDbSpline
 62
253
  6
CONTINUOUS
 70
0
 71
3
 72
9
 73
5
 74
3
 42
0.0000001
 43
0.0000001
 44
0.0000000001
 12
0.1673638995
 22
-0.0836557432
 32
0.0
 13
0.1844285446
 23
-0.0315447325
 33
0.0
 40
0.0
 40
0.0
 40
0.0
 40
0.0
 40
0.2305413761
 40
1.0
 40
1.0
 40
1.0
 40
1.0
 10
16.0691638355
 20
11.9056029536
 30
0.0
 10
16.08202527
 20
11.8991742502
 30
0.0
 10
16.139133892
 20
11.8739415054
 30
0.0
 10
16.2001486854
 20
11.8582159211
 30
0.0
 10
16.2474520634
 20
11.8501251322
 30
0.0
 11
16.0691638355
 21
11.9056029536
 31
0.0
 11
16.108564681
 21
11.8880451659
 31
0.0
 11
16.2474520634
 21
11.8501251322
 31
0.0
  0
SPLINE
  5
516
100
AcDbEntity
  8
RACCORDO
100
AcDbSpline
 62
253
  6
CONTINUOUS
 70
0
 71
3
 72
11
 73
7
 74
5
 42
0.0000001
 43
0.0000001
 44
0.0000000001
 12
0.2673132834
 22
0.1279420285
 32
0.0
 13
0.000000009
 23
0.2963537652
 33
0.0
 40
0.0
 40
0.0
 40
0.0
 40
0.0
 40
0.2286190611
 40
0.4870721424
 40
0.7526205645
 40
1.0
 40
1.0
 40
1.0
 40
1.0
 10
16.0691638355
 20
11.9056029536
 30
0.0
 10
16.0895348061
 20
11.915352949
 30
0.0
 10
16.1286005897
 20
11.9452089704
 30
0.0
 10
16.1737379596
 20
12.0051124184
 30
0.0
 10
16.204528246
 20
12.07553272
 30
0.0
 10
16.213053334
 20
12.1262891283
 30
0.0
 10
16.2130533347
 20
12.150726404
 30
0.0
 11
16.0691638355
 21
11.9056029536
 31
0.0
 11
16.1240367186
 21
11.9453435675
 31
0.0
 11
16.1707555227
 21
12.0060389074
 31
0.0
 11
16.2020508917
 21
12.0782448874
 31
0.0
 11
16.2130533347
 21
12.150726404
 31
0.0
  0
SPLINE
  5
517
100
AcDbEntity
  8
RACCORDO
100
AcDbSpline
 62
253
  6
CONTINUOUS
 70
0
 71
3
 72
11
 73
7
 74
5
 42
0.0000001
 43
0.0000001
 44
0.0000000001
 12
0.3243712491
 22
-0.1621680348
 32
0.0
 13
0.3292300846
 23
0.1520615998
 33
0.0
 40
0.0
 40
0.0
 40
0.0
 40
0.0
 40
0.2363471691
 40
0.5018768777
 40
0.7663880892
 40
1.0
 40
1.0
 40
1.0
 40
1.0
 10
16.2130533347
 20
12.150726404
 30
0.0
 10
16.2386080769
 20
12.1379504187
 30
0.0
 10
16.2971333659
 20
12.11937463
 30
0.0
 10
16.3896806624
 20
12.1092487021
 30
0.0
 10
16.4822122956
 20
12.115764459
 30
0.0
 10
16.5409693689
 20
12.132082832
 30
0.0
 10
16.5666067253
 20
12.1439239656
 30
0.0
 11
16.2130533347
 21
12.150726404
 31
0.0
 11
16.2941916436
 21
12.1231037565
 31
0.0
 11
16.3898584607
 21
12.1121277494
 31
0.0
 11
16.4855050829
 21
12.1194310688
 31
0.0
 11
16.5666067253
 21
12.1439239656
 31
0.0
  0
SPLINE
  5
518
100
AcDbEntity
  8
RACCORDO
100
AcDbSpline
 62
253
  6
CONTINUOUS
 70
0
 71
3
 72
11
 73
7
 74
5
 42
0.0000001
 43
0.0000001
 44
0.0000000001
 12
0.267313289
 22
0.1279420203
 32
0.0
 13
-0.0000000003
 23
0.2963537667
 33
0.0
 40
0.0
 40
0.0
 40
0.0
 40
0.0
 40
0.2286190318
 40
0.4870720935
 40
0.7526205358
 40
1.0
 40
1.0
 40
1.0
 40
1.0
 10
14.7256609512
 20
12.5773543957
 30
0.0
 10
14.7460319197
 20
12.5871043893
 30
0.0
 10
14.7850977013
 20
12.6169604053
 30
0.0
 10
14.8302350719
 20
12.6768638499
 30
0.0
 10
14.8610253615
 20
12.7472841538
 30
0.0
 10
14.8695504505
 20
12.7980405674
 30
0.0
 10
14.8695504504
 20
12.8224778461
 30
0.0
 11
14.7256609512
 21
12.5773543957
 31
0.0
 11
14.7805338296
 21
12.617095002
 31
0.0
 11
14.827252633
 21
12.6777903357
 31
0.0
 11
14.8585480064
 21
12.7499963207
 31
0.0
 11
14.8695504504
 21
12.8224778461
 31
0.0
  0
SPLINE
  5
519
100
AcDbEntity
  8
RACCORDO
100
AcDbSpline
 62
253
  6
CONTINUOUS
 70
0
 71
3
 72
15
 73
11
 74
9
 42
0.0000001
 43
0.0000001
 44
0.0000000001
 12
-0.385973033
 22
-0.1846858223
 32
0.0
 13
0.3826864049
 23
-0.1914031106
 33
0.0
 40
0.0
 40
0.0
 40
0.0
 40
0.0
 40
0.1514215024
 40
0.2826422058
 40
0.3956485339
 40
0.4978215362
 40
0.6004151778
 40
0.7145220656
 40
0.8471579877
 40
1.0
 40
1.0
 40
1.0
 40
1.0
 10
14.7256609512
 20
12.8887500089
 30
0.0
 10
14.7061794124
 20
12.8794282073
 30
0.0
 10
14.6709637142
 20
12.8593349519
 30
0.0
 10
14.6280479593
 20
12.8219625678
 30
0.0
 10
14.6004593636
 20
12.7799470111
 30
0.0
 10
14.5907558437
 20
12.73440244
 30
0.0
 10
14.6005128838
 20
12.6887249552
 30
0.0
 10
14.6280775867
 20
12.646231068
 30
0.0
 10
14.6709386884
 20
12.6079752979
 30
0.0
 10
14.7061640978
 20
12.5871058746
 30
0.0
 10
14.7256609512
 20
12.5773543957
 30
0.0
 11
14.7256609512
 21
12.8887500089
 31
0.0
 11
14.6697549126
 21
12.8560032242
 31
0.0
 11
14.6281045675
 21
12.8183502097
 31
0.0
 11
14.6025109951
 21
12.7773254496
 31
0.0
 11
14.5938854192
 21
12.7344666965
 31
0.0
 11
14.602506957
 21
12.6914235564
 31
0.0
 11
14.6281119719
 21
12.6498518442
 31
0.0
 11
14.6697651055
 21
12.6113046846
 31
0.0
 11
14.7256609512
 21
12.5773543957
 31
0.0
  0
SPLINE
  5
51A
100
AcDbEntity
  8
RACCORDO
100
AcDbSpline
 62
253
  6
CONTINUOUS
 70
0
 71
3
 72
9
 73
5
 74
3
 42
0.0000001
 43
0.0000001
 44
0.0000000001
 12
0.0592552807
 22
-0.0296276402
 32
0.0
 13
0.0657206195
 23
0.0083537735
 33
0.0
 40
0.0
 40
0.0
 40
0.0
 40
0.0
 40
0.2718090839
 40
1.0
 40
1.0
 40
1.0
 40
1.0
 10
14.7256609512
 20
12.8887500089
 30
0.0
 10
14.7310296591
 20
12.886065655
 30
0.0
 10
14.7512691115
 20
12.8773337458
 30
0.0
 10
14.7741367839
 20
12.8736235591
 30
0.0
 10
14.7900891699
 20
12.8756512731
 30
0.0
 11
14.7256609512
 21
12.8887500089
 31
0.0
 11
14.7422263665
 21
12.8816898363
 31
0.0
 11
14.7900891699
 21
12.8756512731
 31
0.0
  0
SPLINE
  5
51B
100
AcDbEntity
  8
RACCORDO
100
AcDbSpline
 62
253
  6
CONTINUOUS
 70
0
 71
3
 72
8
 73
4
 74
2
 42
0.0000001
 43
0.0000001
 44
0.0000000001
 12
0.0251959546
 22
0.0032026676
 32
0.0
 13
0.0229137509
 23
0.0109568804
 33
0.0
 40
0.0
 40
0.0
 40
0.0
 40
0.0
 40
1.0
 40
1.0
 40
1.0
 40
1.0
 10
14.7900891699
 20
12.8756512731
 30
0.0
 10
14.7984878214
 20
12.876718829
 30
0.0
 10
14.8068331608
 20
12.8791134563
 30
0.0
 10
14.8144710778
 20
12.8827657498
 30
0.0
 11
14.7900891699
 21
12.8756512731
 31
0.0
 11
14.8144710778
 21
12.8827657498
 31
0.0
  0
SPLINE
  5
51C
100
AcDbEntity
  8
RACCORDO
100
AcDbSpline
 62
253
  6
CONTINUOUS
 70
0
 71
3
 72
10
 73
6
 74
4
 42
0.0000001
 43
0.0000001
 44
0.0000000001
 12
0.2110954049
 22
0.1048616986
 32
0.0
 13
0.2122381852
 23
-0.102529013
 33
0.0
 40
0.0
 40
0.0
 40
0.0
 40
0.0
 40
0.229603066
 40
0.4688204106
 40
1.0
 40
1.0
 40
1.0
 40
1.0
 10
1.0235778241
 20
19.3597993892
 30
0.0
 10
1.0397338749
 20
19.3678249117
 30
0.0
 10
1.0751787117
 20
19.37967947
 30
0.0
 10
1.1542913846
 20
19.3844630422
 30
0.0
 10
1.214296243
 20
19.366084413
 30
0.0
 10
1.2518751071
 20
19.34793064
 30
0.0
 11
1.0235778241
 21
19.3597993892
 31
0.0
 11
1.0748463383
 21
19.3771309307
 31
0.0
 11
1.1311025201
 21
19.3809390739
 31
0.0
 11
1.2518751071
 21
19.34793064
 31
0.0
  0
SPLINE
  5
51D
100
AcDbEntity
  8
RACCORDO
100
AcDbSpline
 62
253
  6
CONTINUOUS
 70
0
 71
3
 72
9
 73
5
 74
3
 42
0.0000001
 43
0.0000001
 44
0.0000000001
 12
-0.0564159012
 22
-0.0270018913
 32
0.0
 13
-0.0621397632
 23
0.0071067483
 33
0.0
 40
0.0
 40
0.0
 40
0.0
 40
0.0
 40
0.2713533432
 40
1.0
 40
1.0
 40
1.0
 40
1.0
 10
17.4126667197
 20
12.5486329894
 30
0.0
 10
17.4075638386
 20
12.5461906382
 30
0.0
 10
17.3883320557
 20
12.5382309804
 30
0.0
 10
17.3668354092
 20
12.534792542
 30
0.0
 10
17.3517427657
 20
12.5365186448
 30
0.0
 11
17.4126667197
 21
12.5486329894
 31
0.0
 11
17.3969598535
 21
12.542203788
 31
0.0
 11
17.3517427657
 21
12.5365186448
 31
0.0
  0
SPLINE
  5
51E
100
AcDbEntity
  8
RACCORDO
100
AcDbSpline
 62
253
  6
CONTINUOUS
 70
0
 71
3
 72
8
 73
4
 74
2
 42
0.0000001
 43
0.0000001
 44
0.0000000001
 12
-0.026971651
 22
0.0030846712
 32
0.0
 13
-0.0242857529
 23
0.0121320797
 33
0.0
 40
0.0
 40
0.0
 40
0.0
 40
0.0
 40
1.0
 40
1.0
 40
1.0
 40
1.0
 10
17.3517427657
 20
12.5365186448
 30
0.0
 10
17.3427522153
 20
12.5375468685
 30
0.0
 10
17.3337894867
 20
12.5401204826
 30
0.0
 10
17.3256942358
 20
12.5441645092
 30
0.0
 11
17.3517427657
 21
12.5365186448
 31
0.0
 11
17.3256942358
 21
12.5441645092
 31
0.0
  0
SPLINE
  5
51F
100
AcDbEntity
  8
RACCORDO
100
AcDbSpline
 62
253
  6
CONTINUOUS
 70
0
 71
3
 72
9
 73
5
 74
3
 42
0.0000001
 43
0.0000001
 44
0.0000000001
 12
-0.1754576869
 22
0.1610663313
 32
0.0
 13
0.0033701286
 23
0.2381520632
 33
0.0
 40
0.0
 40
0.0
 40
0.0
 40
0.0
 40
0.5047721275
 40
1.0
 40
1.0
 40
1.0
 40
1.0
 10
17.3679238309
 20
12.2686842608
 30
0.0
 10
17.3384017809
 20
12.295784859
 30
0.0
 10
17.2926819015
 20
12.3634462533
 30
0.0
 10
17.2731571793
 20
12.4430476467
 30
0.0
 10
17.2737135065
 20
12.4823608266
 30
0.0
 11
17.3679238309
 21
12.2686842608
 31
0.0
 11
17.2989199318
 21
12.3671342818
 31
0.0
 11
17.2737135065
 21
12.4823608266
 31
0.0
  0
SPLINE
  5
520
100
AcDbEntity
  8
RACCORDO
100
AcDbSpline
 62
253
  6
CONTINUOUS
 70
0
 71
3
 72
10
 73
6
 74
4
 42
0.0000001
 43
0.0000001
 44
0.0000000001
 12
0.1000264795
 22
0.0461621917
 32
0.0
 13
0.0114502833
 23
0.1095679495
 33
0.0
 40
0.0
 40
0.0
 40
0.0
 40
0.0
 40
0.3046286573
 40
0.5704755089
 40
1.0
 40
1.0
 40
1.0
 40
1.0
 10
17.2737135065
 20
12.4823608266
 30
0.0
 10
17.2838704839
 20
12.4870482687
 30
0.0
 10
17.3023644892
 20
12.49722706
 30
0.0
 10
17.3309732812
 20
12.520141572
 30
0.0
 10
17.3449708903
 20
12.5442046139
 30
0.0
 10
17.3466102826
 20
12.5598919865
 30
0.0
 11
17.2737135065
 21
12.4823608266
 31
0.0
 11
17.3030020064
 21
12.4987440651
 31
0.0
 11
17.3254288822
 21
12.5175791082
 31
0.0
 11
17.3466102826
 21
12.5598919865
 31
0.0
  0
SPLINE
  5
521
100
AcDbEntity
  8
RACCORDO
100
AcDbSpline
 62
253
  6
CONTINUOUS
 70
0
 71
3
 72
9
 73
5
 74
3
 42
0.0000001
 43
0.0000001
 44
0.0000000001
 12
-0.070988012
 22
0.1445658652
 32
0.0
 13
-0.1440497109
 23
0.072029633
 33
0.0
 40
0.0
 40
0.0
 40
0.0
 40
0.0
 40
0.4483272618
 40
1.0
 40
1.0
 40
1.0
 40
1.0
 10
17.5318904117
 20
12.4433578205
 30
0.0
 10
17.5212817913
 20
12.4649620934
 30
0.0
 10
17.4852093492
 20
12.5068908209
 30
0.0
 10
17.4391561525
 20
12.5353873944
 30
0.0
 10
17.4126667197
 20
12.5486329894
 30
0.0
 11
17.5318904117
 21
12.4433578205
 31
0.0
 11
17.4869311679
 21
12.4998578494
 31
0.0
 11
17.4126667197
 21
12.5486329894
 31
0.0
  0
SPLINE
  5
522
100
AcDbEntity
  8
RACCORDO
100
AcDbSpline
 62
253
  6
CONTINUOUS
 70
0
 71
3
 72
9
 73
5
 74
3
 42
0.0000001
 43
0.0000001
 44
0.0000000001
 12
0.0185549612
 22
0.0502320817
 32
0.0
 13
0.0155225426
 23
0.0512503589
 33
0.0
 40
0.0
 40
0.0
 40
0.0
 40
0.0
 40
0.2435459674
 40
1.0
 40
1.0
 40
1.0
 40
1.0
 10
1.2518355801
 20
19.3479580402
 30
0.0
 10
1.2533419088
 20
19.3520359805
 30
0.0
 10
1.2590343614
 20
19.3689634701
 30
0.0
 10
1.2634357502
 20
19.3862776066
 30
0.0
 10
1.2673497802
 20
19.3992004535
 30
0.0
 11
1.2518355801
 21
19.3479580402
 31
0.0
 11
1.2560380775
 21
19.360304158
 31
0.0
 11
1.2673497802
 21
19.3992004535
 31
0.0
  0
SPLINE
  5
523
100
AcDbEntity
  8
RACCORDO
100
AcDbSpline
 62
253
  6
CONTINUOUS
 70
0
 71
3
 72
10
 73
6
 74
4
 42
0.0000001
 43
0.0000001
 44
0.0000000001
 12
0.063468689
 22
0.209552853
 32
0.0
 13
0.1973729766
 23
0.0947870287
 33
0.0
 40
0.0
 40
0.0
 40
0.0
 40
0.0
 40
0.2194931185
 40
0.4521466587
 40
1.0
 40
1.0
 40
1.0
 40
1.0
 10
1.2673497802
 20
19.3992004535
 30
0.0
 10
1.271993427
 20
19.4145322566
 30
0.0
 10
1.2835267465
 20
19.4456833632
 30
0.0
 10
1.3245436408
 20
19.5069358327
 30
0.0
 10
1.3738432524
 20
19.5399343861
 30
0.0
 10
1.4098870673
 20
19.5572441829
 30
0.0
 11
1.2673497802
 21
19.3992004535
 31
0.0
 11
1.2848435675
 21
19.4439622249
 31
0.0
 11
1.3131509831
 21
19.4863132239
 31
0.0
 11
1.4098870673
 21
19.5572441829
 31
0.0
  0
SPLINE
  5
524
100
AcDbEntity
  8
RACCORDO
100
AcDbSpline
 62
253
  6
CONTINUOUS
 70
0
 71
3
 72
9
 73
5
 74
3
 42
0.0000001
 43
0.0000001
 44
0.0000000001
 12
0.0
 22
-0.2514099855
 32
0.0
 13
-0.1603874962
 23
-0.1936048343
 33
0.0
 40
0.0
 40
0.0
 40
0.0
 40
0.0
 40
0.4868861085
 40
1.0
 40
1.0
 40
1.0
 40
1.0
 10
16.2130533347
 20
-27.3469742757
 30
0.0
 10
16.2130533347
 20
-27.3877769521
 30
0.0
 10
16.1945836799
 20
-27.4716163124
 30
0.0
 10
16.1520973378
 20
-27.5455546728
 30
0.0
 10
16.1246649871
 20
-27.5786684495
 30
0.0
 11
16.2130533347
 21
-27.3469742757
 31
0.0
 11
16.1893747482
 21
-27.4670702798
 31
0.0
 11
16.1246649871
 21
-27.5786684495
 31
0.0
  0
SPLINE
  5
525
100
AcDbEntity
  8
RACCORDO
100
AcDbSpline
 62
253
  6
CONTINUOUS
 70
0
 71
3
 72
9
 73
5
 74
3
 42
0.0000001
 43
0.0000001
 44
0.0000000001
 12
0.0
 22
-0.2514099855
 32
0.0
 13
-0.1603874962
 23
-0.1936048343
 33
0.0
 40
0.0
 40
0.0
 40
0.0
 40
0.0
 40
0.4868861085
 40
1.0
 40
1.0
 40
1.0
 40
1.0
 10
14.8695504504
 20
-26.6752228335
 30
0.0
 10
14.8695504504
 20
-26.71602551
 30
0.0
 10
14.8510807957
 20
-26.7998648703
 30
0.0
 10
14.8085944536
 20
-26.8738032307
 30
0.0
 10
14.7811621028
 20
-26.9069170073
 30
0.0
 11
14.8695504504
 21
-26.6752228335
 31
0.0
 11
14.8458718639
 21
-26.7953188377
 31
0.0
 11
14.7811621028
 21
-26.9069170073
 31
0.0
  0
SPLINE
  5
526
100
AcDbEntity
  8
RACCORDO
100
AcDbSpline
 62
7
  6
CONTINUOUS
 70
0
 71
3
 72
10
 73
6
 74
4
 42
0.0000001
 43
0.0000001
 44
0.0000000001
 12
-0.2068624299
 22
0.1034310466
 32
0.0
 13
-0.2068623626
 23
-0.1034311813
 33
0.0
 40
0.0
 40
0.0
 40
0.0
 40
0.0
 40
0.2277204504
 40
0.4659009814
 40
1.0
 40
1.0
 40
1.0
 40
1.0
 10
12.971833915
 20
21.2748054889
 30
0.0
 10
12.9561316465
 20
21.2826566104
 30
0.0
 10
12.921517257
 20
21.294165596
 30
0.0
 10
12.8438058518
 20
21.2980801722
 30
0.0
 10
12.7850584352
 20
21.2790192128
 30
0.0
 10
12.7482301069
 20
21.2606050487
 30
0.0
 11
12.971833915
 21
21.2748054889
 31
0.0
 11
12.9219142016
 21
21.2915934111
 31
0.0
 11
12.8669226568
 21
21.2948211771
 31
0.0
 11
12.7482301069
 21
21.2606050487
 31
0.0
  0
SPLINE
  5
527
100
AcDbEntity
  8
RACCORDO
100
AcDbSpline
 62
253
  6
CONTINUOUS
 70
0
 71
3
 72
9
 73
5
 74
3
 42
0.0000001
 43
0.0000001
 44
0.0000000001
 12
0.3207728743
 22
0.3872071118
 32
0.0
 13
0.0
 23
0.5028166508
 33
0.0
 40
0.0
 40
0.0
 40
0.0
 40
0.0
 40
0.5131129059
 40
1.0
 40
1.0
 40
1.0
 40
1.0
 10
16.38983003
 20
-27.8103626233
 30
0.0
 10
16.4446942639
 20
-27.7441356345
 30
0.0
 10
16.5296486031
 20
-27.5962515679
 30
0.0
 10
16.5666067253
 20
-27.428579255
 30
0.0
 10
16.5666067253
 20
-27.3469742757
 30
0.0
 11
16.38983003
 21
-27.8103626233
 31
0.0
 11
16.5192399226
 21
-27.5871632426
 31
0.0
 11
16.5666067253
 21
-27.3469742757
 31
0.0
  0
SPLINE
  5
528
100
AcDbEntity
  8
RACCORDO
100
AcDbSpline
 62
7
  6
CONTINUOUS
 70
0
 71
3
 72
11
 73
7
 74
5
 42
0.0000001
 43
0.0000001
 44
0.0000000001
 12
-0.4025879436
 22
0.2012804126
 32
0.0
 13
-0.4059943767
 23
-0.1943178401
 33
0.0
 40
0.0
 40
0.0
 40
0.0
 40
0.0
 40
0.2279938256
 40
0.4659602826
 40
0.7218001075
 40
1.0
 40
1.0
 40
1.0
 40
1.0
 10
15.3167416821
 20
20.6323884536
 30
0.0
 10
15.286145827
 20
20.6476853507
 30
0.0
 10
15.2189301789
 20
20.6703227996
 30
0.0
 10
15.1097618634
 20
20.676911961
 30
0.0
 10
14.9947786612
 20
20.6570008981
 30
0.0
 10
14.9195403627
 20
20.6280372398
 30
0.0
 10
14.8818911654
 20
20.6100175057
 30
0.0
 11
15.3167416821
 21
20.6323884536
 31
0.0
 11
15.2195886706
 21
20.6654369795
 31
0.0
 11
15.1127292983
 21
20.672744278
 31
0.0
 11
14.9990963095
 21
20.6540914216
 31
0.0
 11
14.8818911654
 21
20.6100175057
 31
0.0
  0
SPLINE
  5
529
100
AcDbEntity
  8
RACCORDO
100
AcDbSpline
 62
253
  6
CONTINUOUS
 70
0
 71
3
 72
11
 73
7
 74
5
 42
0.0000001
 43
0.0000001
 44
0.0000000001
 12
-0.324954929
 22
-0.1624774645
 32
0.0
 13
-0.324954929
 23
0.1624774645
 33
0.0
 40
0.0
 40
0.0
 40
0.0
 40
0.0
 40
0.2353701082
 40
0.5
 40
0.7646298918
 40
1.0
 40
1.0
 40
1.0
 40
1.0
 10
16.5666067253
 20
-27.3469742757
 30
0.0
 10
16.541111833
 20
-27.3597217218
 30
0.0
 10
16.482519235
 20
-27.3779058476
 30
0.0
 10
16.38983003
 20
-27.3865921661
 30
0.0
 10
16.297140825
 20
-27.3779058476
 30
0.0
 10
16.238548227
 20
-27.3597217218
 30
0.0
 10
16.2130533347
 20
-27.3469742757
 30
0.0
 11
16.5666067253
 21
-27.3469742757
 31
0.0
 11
16.4855008881
 21
-27.3740708696
 31
0.0
 11
16.38983003
 21
-27.383585928
 31
0.0
 11
16.2941591719
 21
-27.3740708696
 31
0.0
 11
16.2130533347
 21
-27.3469742757
 31
0.0
  0
SPLINE
  5
52A
100
AcDbEntity
  8
RACCORDO
100
AcDbSpline
 62
253
  6
CONTINUOUS
 70
0
 71
3
 72
10
 73
6
 74
4
 42
0.0000001
 43
0.0000001
 44
0.0000000001
 12
0.4185825973
 22
0.032454263
 32
0.0
 13
0.3791952386
 23
0.1802099915
 33
0.0
 40
0.0
 40
0.0
 40
0.0
 40
0.0
 40
0.2647647673
 40
0.5267054518
 40
1.0
 40
1.0
 40
1.0
 40
1.0
 10
16.2475081248
 20
11.8501207684
 30
0.0
 10
16.2844500994
 20
11.8529850169
 30
0.0
 10
16.3578948073
 20
11.8599303162
 30
0.0
 10
16.4963817116
 20
11.8786644674
 30
0.0
 10
16.5974893185
 20
11.9050980115
 30
0.0
 10
16.6573129982
 20
11.9335288137
 30
0.0
 11
16.2475081248
 21
11.8501207684
 31
0.0
 11
16.3581615253
 21
11.8607059303
 31
0.0
 11
16.4670214903
 21
11.8763117664
 31
0.0
 11
16.6573129982
 21
11.9335288137
 31
0.0
  0
SPLINE
  5
52B
100
AcDbEntity
  8
RACCORDO
100
AcDbSpline
 62
253
  6
CONTINUOUS
 70
0
 71
3
 72
9
 73
5
 74
3
 42
0.0000001
 43
0.0000001
 44
0.0000000001
 12
0.3048477605
 22
0.1407144761
 32
0.0
 13
0.3056706765
 23
0.1389178115
 33
0.0
 40
0.0
 40
0.0
 40
0.0
 40
0.0
 40
0.4977161132
 40
1.0
 40
1.0
 40
1.0
 40
1.0
 10
16.5885483823
 20
11.2342707613
 30
0.0
 10
16.6391242632
 20
11.2576160486
 30
0.0
 10
16.7347101292
 20
11.3163540572
 30
0.0
 10
16.8267462854
 20
11.3812588572
 30
0.0
 10
16.8779241039
 20
11.4045175833
 30
0.0
 11
16.5885483823
 21
11.2342707613
 31
0.0
 11
16.7333941758
 21
11.317613401
 31
0.0
 11
16.8779241039
 21
11.4045175833
 31
0.0
  0
SPLINE
  5
52C
100
AcDbEntity
  8
RACCORDO
100
AcDbSpline
 62
253
  6
CONTINUOUS
 70
0
 71
3
 72
11
 73
7
 74
5
 42
0.0000001
 43
0.0000001
 44
0.0000000001
 12
0.6512395105
 22
-0.3368434973
 32
0.0
 13
-0.0106227556
 23
-0.7331190891
 33
0.0
 40
0.0
 40
0.0
 40
0.0
 40
0.0
 40
0.2280517953
 40
0.485946771
 40
0.7515354279
 40
1.0
 40
1.0
 40
1.0
 40
1.0
 10
16.2474487598
 20
11.8501236044
 30
0.0
 10
16.2969542063
 20
11.8245176829
 30
0.0
 10
16.3911748561
 20
11.7480907208
 30
0.0
 10
16.4986550958
 20
11.5971927869
 30
0.0
 10
16.5707456248
 20
11.4211348748
 30
0.0
 10
16.5894281752
 20
11.2949888016
 30
0.0
 10
16.5885483823
 20
11.2342707613
 30
0.0
 11
16.2474487598
 21
11.8501236044
 31
0.0
 11
16.3799435455
 21
11.7481275075
 31
0.0
 11
16.4912496372
 21
11.5952711516
 31
0.0
 11
16.5645173206
 21
11.4148520397
 31
0.0
 11
16.5885483823
 21
11.2342707613
 31
0.0
  0
LINE
  5
52D
100
AcDbEntity
  8
RACCORDO
100
AcDbLine
 62
253
  6
CONTINUOUS
 10
16.8779241039
 20
11.4045175833
 11
17.5971473649
 21
11.7313990924
  0
SPLINE
  5
52E
100
AcDbEntity
  8
RACCORDO
100
AcDbSpline
 62
253
  6
CONTINUOUS
 70
0
 71
3
 72
11
 73
7
 74
5
 42
0.0000001
 43
0.0000001
 44
0.0000000001
 12
0.4181618484
 22
-0.4116118851
 32
0.0
 13
-0.0114922088
 23
-0.5866443595
 33
0.0
 40
0.0
 40
0.0
 40
0.0
 40
0.0
 40
0.2462879081
 40
0.504747665
 40
0.7607052784
 40
1.0
 40
1.0
 40
1.0
 40
1.0
 10
16.6573124659
 20
11.933529507
 30
0.0
 10
16.6916418682
 20
11.8997378303
 30
0.0
 10
16.7540284026
 20
11.8221442975
 30
0.0
 10
16.8240042817
 20
11.6899420421
 30
0.0
 10
16.8683803702
 20
11.5485218561
 30
0.0
 10
16.8787692872
 20
11.4512787386
 30
0.0
 10
16.8778526122
 20
11.4044851057
 30
0.0
 11
16.6573124659
 21
11.933529507
 31
0.0
 11
16.7487251017
 21
11.8216045432
 31
0.0
 11
16.8199346474
 21
11.6877096295
 31
0.0
 11
16.8643478775
 21
11.5442419713
 31
0.0
 11
16.8778526122
 21
11.4044851057
 31
0.0
  0
SPLINE
  5
52F
100
AcDbEntity
  8
RACCORDO
100
AcDbSpline
 62
253
  6
CONTINUOUS
 70
0
 71
3
 72
11
 73
7
 74
5
 42
0.0000001
 43
0.0000001
 44
0.0000000001
 12
0.222658772
 22
0.1055330666
 32
0.0
 13
0.1026419384
 23
0.2240062262
 33
0.0
 40
0.0
 40
0.0
 40
0.0
 40
0.0
 40
0.3088744716
 40
0.5674675809
 40
0.7883368477
 40
1.0
 40
1.0
 40
1.0
 40
1.0
 10
17.3679240367
 20
12.2686851584
 30
0.0
 10
17.3908485736
 20
12.2795506485
 30
0.0
 10
17.4316364041
 20
12.3027185435
 30
0.0
 10
17.480367965
 20
12.3463529642
 30
0.0
 10
17.5116214731
 20
12.3944373773
 30
0.0
 10
17.524649032
 20
12.4275522255
 30
0.0
 10
17.5318908707
 20
12.4433568469
 30
0.0
 11
17.3679240367
 21
12.2686851584
 31
0.0
 11
17.4335589584
 21
12.3072130241
 31
0.0
 11
17.4803854642
 21
12.3504248058
 31
0.0
 11
17.5103345134
 21
12.395865837
 31
0.0
 11
17.5318908707
 21
12.4433568469
 31
0.0
  0
SPLINE
  5
530
100
AcDbEntity
  8
RACCORDO
100
AcDbSpline
 62
253
  6
CONTINUOUS
 70
0
 71
3
 72
11
 73
7
 74
5
 42
0.0000001
 43
0.0000001
 44
0.0000000001
 12
0.2661857721
 22
0.1209887232
 32
0.0
 13
0.2654433732
 23
0.1226089394
 33
0.0
 40
0.0
 40
0.0
 40
0.0
 40
0.0
 40
0.2529471725
 40
0.4975323023
 40
0.7443094627
 40
1.0
 40
1.0
 40
1.0
 40
1.0
 10
17.5971473649
 20
11.7313990924
 30
0.0
 10
17.619591011
 20
11.7416003442
 30
0.0
 10
17.6652666856
 20
11.7583217044
 30
0.0
 10
17.7352400949
 20
11.7774184106
 30
0.0
 10
17.8048886952
 20
11.7987687259
 30
0.0
 10
17.8504249453
 20
11.8170416352
 30
0.0
 10
17.8730487315
 20
11.827491617
 30
0.0
 11
17.5971473649
 21
11.7313990924
 31
0.0
 11
17.666318143
 21
11.757580165
 31
0.0
 11
17.7349390545
 21
11.777717969
 31
0.0
 11
17.8037418527
 21
11.7994577628
 31
0.0
 11
17.8730487315
 21
11.827491617
 31
0.0
  0
SPLINE
  5
531
100
AcDbEntity
  8
RACCORDO
100
AcDbSpline
 62
253
  6
CONTINUOUS
 70
0
 71
3
 72
11
 73
7
 74
5
 42
0.0000001
 43
0.0000001
 44
0.0000000001
 12
0.434907209
 22
-0.4113304504
 32
0.0
 13
-0.011598659
 23
-0.5985002014
 33
0.0
 40
0.0
 40
0.0
 40
0.0
 40
0.0
 40
0.2451288525
 40
0.5036123513
 40
0.7601874968
 40
1.0
 40
1.0
 40
1.0
 40
1.0
 10
17.3679240367
 20
12.2686851584
 30
0.0
 10
17.4034601384
 20
12.2350755046
 30
0.0
 10
17.4681863789
 20
12.1570129891
 30
0.0
 10
17.5408863334
 20
12.0229207891
 30
0.0
 10
17.5871638813
 20
11.8786863619
 30
0.0
 10
17.5980829525
 20
11.7792453468
 30
0.0
 10
17.5971557847
 20
11.7314027363
 30
0.0
 11
17.3679240367
 21
12.2686851584
 31
0.0
 11
17.4625457766
 21
12.1565310836
 31
0.0
 11
17.5366156569
 21
12.020680129
 31
0.0
 11
17.5829784802
 21
11.8742557349
 31
0.0
 11
17.5971557847
 21
11.7314027363
 31
0.0
  0
SPLINE
  5
532
100
AcDbEntity
  8
RACCORDO
100
AcDbSpline
 62
253
  6
CONTINUOUS
 70
0
 71
3
 72
11
 73
7
 74
5
 42
0.0000001
 43
0.0000001
 44
0.0000000001
 12
0.6512282866
 22
-0.3369341594
 32
0.0
 13
-0.0105536137
 23
-0.7331517785
 33
0.0
 40
0.0
 40
0.0
 40
0.0
 40
0.0
 40
0.2280358042
 40
0.4859386048
 40
0.751534838
 40
1.0
 40
1.0
 40
1.0
 40
1.0
 10
17.5318903101
 20
12.4433577736
 30
0.0
 10
17.5813914321
 20
12.4177467563
 30
0.0
 10
17.6756090484
 20
12.3413157632
 30
0.0
 10
17.7831153033
 20
12.1904274907
 30
0.0
 10
17.8552254887
 20
12.0143637685
 30
0.0
 10
17.8739227999
 20
11.8882125088
 30
0.0
 10
17.8730487315
 20
11.827491617
 30
0.0
 11
17.5318903101
 21
12.4433577736
 31
0.0
 11
17.6643779169
 21
12.3413597263
 31
0.0
 11
17.7757079929
 21
12.1885036301
 31
0.0
 11
17.8489985502
 21
12.0080787291
 31
0.0
 11
17.8730487315
 21
11.827491617
 31
0.0
  0
SPLINE
  5
533
100
AcDbEntity
  8
RACCORDO
100
AcDbSpline
 62
253
  6
CONTINUOUS
 70
0
 71
3
 72
11
 73
7
 74
5
 42
0.0000001
 43
0.0000001
 44
0.0000000001
 12
0.2764622226
 22
0.1392845167
 32
0.0
 13
0.2755993419
 23
0.1409841831
 33
0.0
 40
0.0
 40
0.0
 40
0.0
 40
0.0
 40
0.2563866308
 40
0.5026664298
 40
0.7462301632
 40
1.0
 40
1.0
 40
1.0
 40
1.0
 10
16.5885545634
 20
-26.7478131984
 30
0.0
 10
16.612181636
 20
-26.7359096357
 30
0.0
 10
16.6597988719
 20
-26.7150517463
 30
0.0
 10
16.732970195
 20
-26.6908855386
 30
0.0
 10
16.8067147249
 20
-26.6697400309
 30
0.0
 10
16.8545648165
 20
-26.6505629535
 30
0.0
 10
16.8778777498
 20
-26.6386371091
 30
0.0
 11
16.5885545634
 21
-26.7478131984
 31
0.0
 11
16.661191142
 21
-26.7158237045
 31
0.0
 11
16.7333746911
 21
-26.6912864609
 31
0.0
 11
16.8053498312
 21
-26.6688226793
 31
0.0
 11
16.8778777498
 21
-26.6386371091
 31
0.0
  0
SPLINE
  5
534
100
AcDbEntity
  8
RACCORDO
100
AcDbSpline
 62
253
  6
CONTINUOUS
 70
0
 71
3
 72
11
 73
7
 74
5
 42
0.0000001
 43
0.0000001
 44
0.0000000001
 12
-0.1865148908
 22
0.3024003869
 32
0.0
 13
-0.3177845792
 23
0.1588922896
 33
0.0
 40
0.0
 40
0.0
 40
0.0
 40
0.0
 40
0.218477527
 40
0.4824886594
 40
0.7557089095
 40
1.0
 40
1.0
 40
1.0
 40
1.0
 10
15.8594999441
 20
-28.4505276662
 30
0.0
 10
15.8459168401
 20
-28.4285051034
 30
0.0
 10
15.8098417688
 20
-28.3837216908
 30
0.0
 10
15.745516665
 20
-28.3213280256
 30
0.0
 10
15.6725248204
 20
-28.2641597042
 30
0.0
 10
15.620212215
 20
-28.2317721493
 30
0.0
 10
15.5943349012
 20
-28.2188334924
 30
0.0
 11
15.8594999441
 21
-28.4505276662
 31
0.0
 11
15.8122223231
 21
-28.3889624774
 31
0.0
 11
15.7452265118
 21
-28.3233096474
 31
0.0
 11
15.6687139615
 21
-28.2635677443
 31
0.0
 11
15.5943349012
 21
-28.2188334924
 31
0.0
  0
SPLINE
  5
535
100
AcDbEntity
  8
RACCORDO
100
AcDbSpline
 62
253
  6
CONTINUOUS
 70
0
 71
3
 72
11
 73
7
 74
5
 42
0.0000001
 43
0.0000001
 44
0.0000000001
 12
0.0044915447
 22
-0.3080984702
 32
0.0
 13
-0.2750771889
 23
-0.1388430101
 33
0.0
 40
0.0
 40
0.0
 40
0.0
 40
0.0
 40
0.2924682406
 40
0.5533914059
 40
0.7853904162
 40
1.0
 40
1.0
 40
1.0
 40
1.0
 10
16.5885545634
 20
-26.7478131984
 30
0.0
 10
16.5889924414
 20
-26.7778495375
 30
0.0
 10
16.5850760844
 20
-26.8349578769
 30
0.0
 10
16.5623159334
 20
-26.9131595732
 30
0.0
 10
16.5231026142
 20
-26.9757047491
 30
0.0
 10
16.4858791326
 20
-27.004553726
 30
0.0
 10
16.4662010655
 20
-27.0144860728
 30
0.0
 11
16.5885545634
 21
-26.7478131984
 31
0.0
 11
16.5814673872
 21
-26.8376526808
 31
0.0
 11
16.5578254626
 21
-26.9144966101
 31
0.0
 11
16.5187735177
 21
-26.9743732595
 31
0.0
 11
16.4662010655
 21
-27.0144860728
 31
0.0
  0
LINE
  5
536
100
AcDbEntity
  8
RACCORDO
100
AcDbLine
 62
253
  6
CONTINUOUS
 10
16.8778777498
 20
-26.6386371091
 11
17.5971911145
 21
-26.2709267273
  0
SPLINE
  5
537
100
AcDbEntity
  8
RACCORDO
100
AcDbSpline
 62
253
  6
CONTINUOUS
 70
0
 71
3
 72
11
 73
7
 74
5
 42
0.0000001
 43
0.0000001
 44
0.0000000001
 12
0.0060992045
 22
-0.3054570354
 32
0.0
 13
-0.2719152663
 23
-0.1392956879
 33
0.0
 40
0.0
 40
0.0
 40
0.0
 40
0.0
 40
0.2928262984
 40
0.5538059176
 40
0.7856647474
 40
1.0
 40
1.0
 40
1.0
 40
1.0
 10
16.8778526122
 20
-26.6386499646
 30
0.0
 10
16.878447948
 20
-26.668465249
 30
0.0
 10
16.8749013528
 20
-26.725151231
 30
0.0
 10
16.8528147339
 20
-26.8028551281
 30
0.0
 10
16.8143976642
 20
-26.8651031745
 30
0.0
 10
16.7777361829
 20
-26.893964688
 30
0.0
 10
16.7583091738
 20
-26.9039166801
 30
0.0
 11
16.8778526122
 21
-26.6386499646
 31
0.0
 11
16.871336302
 21
-26.7278760154
 31
0.0
 11
16.8483734782
 21
-26.8042318381
 31
0.0
 11
16.8100914612
 21
-26.8638336141
 31
0.0
 11
16.7583091738
 21
-26.9039166801
 31
0.0
  0
SPLINE
  5
538
100
AcDbEntity
  8
RACCORDO
100
AcDbSpline
 62
253
  6
CONTINUOUS
 70
0
 71
3
 72
9
 73
5
 74
3
 42
0.0000001
 43
0.0000001
 44
0.0000000001
 12
0.2887050728
 22
0.1474957329
 32
0.0
 13
0.2895411384
 23
0.1458476585
 33
0.0
 40
0.0
 40
0.0
 40
0.0
 40
0.0
 40
0.502134389
 40
1.0
 40
1.0
 40
1.0
 40
1.0
 10
17.5971911145
 20
-26.2709267273
 30
0.0
 10
17.6455140296
 20
-26.2462391674
 30
0.0
 10
17.7338919132
 20
-26.1833775134
 30
0.0
 10
17.8249877976
 20
-26.1248205747
 30
0.0
 10
17.8730386562
 20
-26.1006163968
 30
0.0
 11
17.5971911145
 21
-26.2709267273
 31
0.0
 11
17.7349544926
 21
-26.1841945573
 31
0.0
 11
17.8730386562
 21
-26.1006163968
 31
0.0
  0
SPLINE
  5
539
100
AcDbEntity
  8
RACCORDO
100
AcDbSpline
 62
253
  6
CONTINUOUS
 70
0
 71
3
 72
11
 73
7
 74
5
 42
0.0000001
 43
0.0000001
 44
0.0000000001
 12
0.0059662917
 22
-0.3056769567
 32
0.0
 13
-0.2721641128
 23
-0.1392863748
 33
0.0
 40
0.0
 40
0.0
 40
0.0
 40
0.0
 40
0.2927815281
 40
0.5537809513
 40
0.7856560945
 40
1.0
 40
1.0
 40
1.0
 40
1.0
 10
17.5972311996
 20
-26.2709052507
 30
0.0
 10
17.5978134729
 20
-26.3007374395
 30
0.0
 10
17.5942337036
 20
-26.3574594087
 30
0.0
 10
17.5720934888
 20
-26.4352064824
 30
0.0
 10
17.5336105079
 20
-26.4974826874
 30
0.0
 10
17.4969011752
 20
-26.5263390732
 30
0.0
 10
17.4774556022
 20
-26.5362908018
 30
0.0
 11
17.5972311996
 21
-26.2709052507
 31
0.0
 11
17.5906667394
 21
-26.3601778369
 31
0.0
 11
17.5676469206
 21
-26.4365820387
 31
0.0
 11
17.5293004788
 21
-26.4962082165
 31
0.0
 11
17.4774556022
 21
-26.5362908018
 31
0.0
  0
SPLINE
  5
53A
100
AcDbEntity
  8
RACCORDO
100
AcDbSpline
 62
253
  6
CONTINUOUS
 70
0
 71
3
 72
11
 73
7
 74
5
 42
0.0000001
 43
0.0000001
 44
0.0000000001
 12
0.0044874441
 22
-0.308107001
 32
0.0
 13
-0.2750847167
 23
-0.1388468936
 33
0.0
 40
0.0
 40
0.0
 40
0.0
 40
0.0
 40
0.2924658029
 40
0.5533881067
 40
0.7853880747
 40
1.0
 40
1.0
 40
1.0
 40
1.0
 10
17.8730386562
 20
-26.1006163968
 30
0.0
 10
17.8734761308
 20
-26.1306533173
 30
0.0
 10
17.8695588745
 20
-26.1877628335
 30
0.0
 10
17.8467969993
 20
-26.2659661087
 30
0.0
 10
17.8075816626
 20
-26.3285126718
 30
0.0
 10
17.7703567862
 20
-26.3573624312
 30
0.0
 10
17.750677966
 20
-26.3672951643
 30
0.0
 11
17.8730386562
 21
-26.1006163968
 31
0.0
 11
17.8659500771
 21
-26.1904575
 31
0.0
 11
17.8423064878
 21
-26.2673029517
 31
0.0
 11
17.8032526121
 21
-26.3271810402
 31
0.0
 11
17.750677966
 21
-26.3672951643
 31
0.0
  0
SPLINE
  5
53B
100
AcDbEntity
  8
RACCORDO
100
AcDbSpline
 62
253
  6
CONTINUOUS
 70
0
 71
3
 72
11
 73
7
 74
5
 42
0.0000001
 43
0.0000001
 44
0.0000000001
 12
-0.1865148844
 22
0.3024003765
 32
0.0
 13
-0.3177845683
 23
0.1588922841
 33
0.0
 40
0.0
 40
0.0
 40
0.0
 40
0.0
 40
0.2184918121
 40
0.482500807
 40
0.7557136777
 40
1.0
 40
1.0
 40
1.0
 40
1.0
 10
16.38983003
 20
-27.8103626233
 30
0.0
 10
16.3762460383
 20
-27.7883386212
 30
0.0
 10
16.3401696242
 20
-27.7435543857
 30
0.0
 10
16.2758439349
 20
-27.6811605682
 30
0.0
 10
16.2028532307
 20
-27.6239935298
 30
0.0
 10
16.1505417949
 20
-27.5916068534
 30
0.0
 10
16.1246649871
 20
-27.5786684495
 30
0.0
 11
16.38983003
 21
-27.8103626233
 31
0.0
 11
16.3425489491
 21
-27.7487936955
 31
0.0
 11
16.2755533347
 21
-27.6831417542
 31
0.0
 11
16.1990426619
 21
-27.6234017122
 31
0.0
 11
16.1246649871
 21
-27.5786684495
 31
0.0
  0
SPLINE
  5
53C
100
AcDbEntity
  8
RACCORDO
100
AcDbSpline
 62
253
  6
CONTINUOUS
 70
0
 71
3
 72
9
 73
5
 74
3
 42
0.0000001
 43
0.0000001
 44
0.0000000001
 12
-0.1603874072
 22
-0.1936047269
 32
0.0
 13
0.0
 23
-0.251409846
 33
0.0
 40
0.0
 40
0.0
 40
0.0
 40
0.0
 40
0.5131459117
 40
1.0
 40
1.0
 40
1.0
 40
1.0
 10
15.5943349012
 20
-28.2188334924
 30
0.0
 10
15.5669008537
 20
-28.2519493171
 30
0.0
 10
15.5244159185
 20
-28.3258886862
 30
0.0
 10
15.5059465535
 20
-28.4097276958
 30
0.0
 10
15.5059465535
 20
-28.4505276662
 30
0.0
 11
15.5943349012
 21
-28.2188334924
 31
0.0
 11
15.5296226615
 21
-28.3304394478
 31
0.0
 11
15.5059465535
 21
-28.4505276662
 31
0.0
  0
LINE
  5
53D
100
AcDbEntity
  8
RACCORDO
100
AcDbLine
 62
253
  6
CONTINUOUS
 10
18.5111503736
 20
-18.6110538737
 11
22.7097604563
 21
-18.3148459509
  0
SPLINE
  5
53E
100
AcDbEntity
  8
RACCORDO
100
AcDbSpline
 62
253
  6
CONTINUOUS
 70
0
 71
3
 72
9
 73
5
 74
3
 42
0.0000001
 43
0.0000001
 44
0.0000000001
 12
-0.1603874072
 22
-0.1936047269
 32
0.0
 13
0.0
 23
-0.251409846
 33
0.0
 40
0.0
 40
0.0
 40
0.0
 40
0.0
 40
0.5131459117
 40
1.0
 40
1.0
 40
1.0
 40
1.0
 10
14.2508320169
 20
-27.5470820503
 30
0.0
 10
14.2233979695
 20
-27.580197875
 30
0.0
 10
14.1809130343
 20
-27.6541372441
 30
0.0
 10
14.1624436693
 20
-27.7379762537
 30
0.0
 10
14.1624436693
 20
-27.7787762241
 30
0.0
 11
14.2508320169
 21
-27.5470820503
 31
0.0
 11
14.1861197772
 21
-27.6586880057
 31
0.0
 11
14.1624436693
 21
-27.7787762241
 31
0.0
  0
SPLINE
  5
53F
100
AcDbEntity
  8
RACCORDO
100
AcDbSpline
 62
253
  6
CONTINUOUS
 70
0
 71
3
 72
11
 73
7
 74
5
 42
0.0000001
 43
0.0000001
 44
0.0000000001
 12
-0.3249549857
 22
-0.1624774928
 32
0.0
 13
-0.3249549857
 23
0.1624774928
 33
0.0
 40
0.0
 40
0.0
 40
0.0
 40
0.0
 40
0.2353253496
 40
0.499964792
 40
0.764617449
 40
1.0
 40
1.0
 40
1.0
 40
1.0
 10
15.8594999441
 20
-28.8018416383
 30
0.0
 10
15.8340098956
 20
-28.8145866626
 30
0.0
 10
15.775422343
 20
-28.8327716245
 30
0.0
 10
15.68273458
 20
-28.8414597961
 30
0.0
 10
15.590039813
 20
-28.8327745378
 30
0.0
 10
15.531442798
 20
-28.8145897606
 30
0.0
 10
15.5059465535
 20
-28.8018416383
 30
0.0
 11
15.8594999441
 21
-28.8018416383
 31
0.0
 11
15.7784102316
 21
-28.828935226
 31
0.0
 11
15.6827361698
 21
-28.8384533007
 31
0.0
 11
15.5870569043
 21
-28.8289390354
 31
0.0
 11
15.5059465535
 21
-28.8018416383
 31
0.0
  0
SPLINE
  5
540
100
AcDbEntity
  8
RACCORDO
100
AcDbSpline
 62
253
  6
CONTINUOUS
 70
0
 71
3
 72
11
 73
7
 74
5
 42
0.0000001
 43
0.0000001
 44
0.0000000001
 12
-0.324954929
 22
-0.1624774645
 32
0.0
 13
-0.324954929
 23
0.1624774645
 33
0.0
 40
0.0
 40
0.0
 40
0.0
 40
0.0
 40
0.2353701082
 40
0.5
 40
0.7646298918
 40
1.0
 40
1.0
 40
1.0
 40
1.0
 10
15.8594999441
 20
-28.4505276662
 30
0.0
 10
15.8340050518
 20
-28.4632751124
 30
0.0
 10
15.7754124539
 20
-28.4814592382
 30
0.0
 10
15.6827232488
 20
-28.4901455567
 30
0.0
 10
15.5900340438
 20
-28.4814592382
 30
0.0
 10
15.5314414458
 20
-28.4632751124
 30
0.0
 10
15.5059465535
 20
-28.4505276662
 30
0.0
 11
15.8594999441
 21
-28.4505276662
 31
0.0
 11
15.7783941069
 21
-28.4776242602
 31
0.0
 11
15.6827232488
 21
-28.4871393186
 31
0.0
 11
15.5870523907
 21
-28.4776242602
 31
0.0
 11
15.5059465535
 21
-28.4505276662
 31
0.0
  0
LINE
  5
541
100
AcDbEntity
  8
RACCORDO
100
AcDbLine
 62
253
  6
CONTINUOUS
 10
18.5111503736
 20
10.6251352095
 11
22.540552428
 21
14.441214071
  0
LINE
  5
542
100
AcDbEntity
  8
RACCORDO
100
AcDbLine
 62
253
  6
CONTINUOUS
 10
22.540552428
 20
14.441214071
 11
22.7097604563
 21
14.6014639471
  0
SPLINE
  5
543
100
AcDbEntity
  8
RACCORDO
100
AcDbSpline
 62
7
  6
CONTINUOUS
 70
0
 71
3
 72
11
 73
7
 74
5
 42
0.0000001
 43
0.0000001
 44
0.0000000001
 12
0.6519240444
 22
-0.3259620222
 32
0.0
 13
0.6504099419
 23
0.3289728061
 33
0.0
 40
0.0
 40
0.0
 40
0.0
 40
0.0
 40
0.2355685165
 40
0.5004196096
 40
0.7650446261
 40
1.0
 40
1.0
 40
1.0
 40
1.0
 10
11.9724431272
 20
15.6380908985
 30
0.0
 10
12.0236340539
 20
15.6124954351
 30
0.0
 10
12.1413114268
 20
15.5760491369
 30
0.0
 10
12.3273900988
 20
15.5588149803
 30
0.0
 10
12.5132695889
 20
15.5765540321
 30
0.0
 10
12.6306412506
 20
15.6133473427
 30
0.0
 10
12.6815803543
 20
15.6391119856
 30
0.0
 11
11.9724431272
 21
15.6380908985
 31
0.0
 11
12.1353201452
 21
15.583760194
 31
0.0
 11
12.3274364124
 21
15.5648686304
 31
0.0
 11
12.5193318791
 21
15.5843131327
 31
0.0
 11
12.6815803543
 21
15.6391119856
 31
0.0
  0
SPLINE
  5
544
100
AcDbEntity
  8
RACCORDO
100
AcDbSpline
 62
253
  6
CONTINUOUS
 70
0
 71
3
 72
12
 73
8
 74
6
 42
0.0000001
 43
0.0000001
 44
0.0000000001
 12
-0.6958557226
 22
-0.2179040598
 32
0.0
 13
0.0307235144
 23
0.7285282641
 33
0.0
 40
0.0
 40
0.0
 40
0.0
 40
0.0
 40
0.2424831142
 40
0.3542107831
 40
0.4661028481
 40
0.7095251536
 40
1.0
 40
1.0
 40
1.0
 40
1.0
 10
8.845840329
 20
-29.0954938782
 30
0.0
 10
8.7895959081
 20
-29.1131065632
 30
0.0
 10
8.6992110529
 20
-29.1233416839
 30
0.0
 10
8.590655071
 20
-29.0858837423
 30
0.0
 10
8.4977791392
 20
-29.0176217227
 30
0.0
 10
8.4200166589
 20
-28.873142613
 30
0.0
 10
8.4090378609
 20
-28.74126993
 30
0.0
 10
8.4120126636
 20
-28.6707302181
 30
0.0
 11
8.845840329
 21
-29.0954938782
 31
0.0
 11
8.6695428121
 21
-29.1089831166
 31
0.0
 11
8.592593647
 21
-29.0822241464
 31
0.0
 11
8.526699321
 21
-29.0341128102
 31
0.0
 11
8.4367644234
 21
-28.8810862354
 31
0.0
 11
8.4120126636
 21
-28.6707302181
 31
0.0
  0
SPLINE
  5
545
100
AcDbEntity
  8
RACCORDO
100
AcDbSpline
 62
253
  6
CONTINUOUS
 70
0
 71
3
 72
11
 73
7
 74
5
 42
0.0000001
 43
0.0000001
 44
0.0000000001
 12
1.0270939593
 22
-0.5119936987
 32
0.0
 13
1.05904757
 23
0.4421287065
 33
0.0
 40
0.0
 40
0.0
 40
0.0
 40
0.0
 40
0.2362907098
 40
0.5017863732
 40
0.7663267571
 40
1.0
 40
1.0
 40
1.0
 40
1.0
 10
7.291360164
 20
-28.6293419093
 30
0.0
 10
7.3722577509
 20
-28.6696683608
 30
0.0
 10
7.5569307565
 20
-28.7293727429
 30
0.0
 10
7.8491793068
 20
-28.7654961078
 30
0.0
 10
8.14228664
 20
-28.7511774517
 30
0.0
 10
8.3295223036
 20
-28.705168101
 30
0.0
 10
8.4120126636
 20
-28.6707302181
 30
0.0
 11
7.291360164
 21
-28.6293419093
 31
0.0
 11
7.5476658317
 21
-28.7179036675
 31
0.0
 11
7.8498669779
 21
-28.7567789966
 31
0.0
 11
8.1530123128
 21
-28.7402605262
 31
0.0
 11
8.4120126636
 21
-28.6707302181
 31
0.0
  0
SPLINE
  5
546
100
AcDbEntity
  8
RACCORDO
100
AcDbSpline
 62
253
  6
CONTINUOUS
 70
0
 71
3
 72
12
 73
8
 74
6
 42
0.0000001
 43
0.0000001
 44
0.0000000001
 12
0.2997679587
 22
2.0501699837
 32
0.0
 13
1.9467631849
 23
0.7093453976
 33
0.0
 40
0.0
 40
0.0
 40
0.0
 40
0.0
 40
0.259405748
 40
0.5264106855
 40
0.6560155821
 40
0.7794344883
 40
1.0
 40
1.0
 40
1.0
 40
1.0
 10
10.7989818858
 20
8.1121067523
 30
0.0
 10
10.8249023963
 20
8.2893820451
 30
0.0
 10
10.9266876087
 20
8.6427356301
 30
0.0
 10
11.147422628
 20
9.0428298183
 30
0.0
 10
11.3740023408
 20
9.3228208841
 30
0.0
 10
11.6104356787
 20
9.5490948827
 30
0.0
 10
11.8167504234
 20
9.6784388568
 30
0.0
 10
11.9598800294
 20
9.7305912336
 30
0.0
 11
10.7989818858
 21
8.1121067523
 31
0.0
 11
10.9435135165
 21
8.6297902737
 31
0.0
 11
11.2114912178
 21
9.113781046
 31
0.0
 11
11.3809152268
 21
9.3221265272
 31
0.0
 11
11.5663886789
 21
9.4981731882
 31
0.0
 11
11.9598800294
 21
9.7305912336
 31
0.0
  0
SPLINE
  5
547
100
AcDbEntity
  8
RACCORDO
100
AcDbSpline
 62
253
  6
CONTINUOUS
 70
0
 71
3
 72
11
 73
7
 74
5
 42
0.0000001
 43
0.0000001
 44
0.0000000001
 12
0.1406354493
 22
0.95756547
 32
0.0
 13
0.9115999126
 23
0.325108533
 33
0.0
 40
0.0
 40
0.0
 40
0.0
 40
0.0
 40
0.2590759544
 40
0.5258880937
 40
0.7786096023
 40
1.0
 40
1.0
 40
1.0
 40
1.0
 10
11.9102807516
 20
7.9727412576
 30
0.0
 10
11.9224258394
 20
8.0554353203
 30
0.0
 10
11.9702277084
 20
8.2203189814
 30
0.0
 10
12.0936741478
 20
8.4414347133
 30
0.0
 10
12.2560814953
 20
8.6197143749
 30
0.0
 10
12.3892769306
 20
8.7017836126
 30
0.0
 10
12.4565500863
 20
8.7257755817
 30
0.0
 11
11.9102807516
 21
7.9727412576
 31
0.0
 11
11.9781588232
 21
8.2141224247
 31
0.0
 11
12.1042184804
 21
8.4394935489
 31
0.0
 11
12.271266344
 21
8.6181579093
 31
0.0
 11
12.4565500863
 21
8.7257755817
 31
0.0
  0
SPLINE
  5
548
100
AcDbEntity
  8
RACCORDO
100
AcDbSpline
 62
253
  6
CONTINUOUS
 70
0
 71
3
 72
12
 73
8
 74
6
 42
0.0000001
 43
0.0000001
 44
0.0000000001
 12
1.0168858379
 22
-0.5101193698
 32
0.0
 13
1.1034310224
 23
0.2769811502
 33
0.0
 40
0.0
 40
0.0
 40
0.0
 40
0.0
 40
0.2401037716
 40
0.5091993336
 40
0.7733415654
 40
0.8932538225
 40
1.0
 40
1.0
 40
1.0
 40
1.0
 10
10.7989968294
 20
8.1121106974
 30
0.0
 10
10.8803828711
 20
8.0712835025
 30
0.0
 10
11.0634437115
 20
8.0055892253
 30
0.0
 10
11.3518373713
 20
7.9486962933
 30
0.0
 10
11.6002772503
 20
7.9345393669
 30
0.0
 10
11.7861157258
 20
7.9479725541
 30
0.0
 10
11.8710184036
 20
7.9628856979
 30
0.0
 10
11.9102807515
 20
7.9727412576
 30
0.0
 11
10.7989968294
 21
8.1121106974
 31
0.0
 11
11.0545393736
 21
8.0156071396
 31
0.0
 11
11.3546966561
 21
7.9553788093
 31
0.0
 11
11.6548242818
 21
7.9403231638
 31
0.0
 11
11.7908434623
 21
7.9507705927
 31
0.0
 11
11.9102807515
 21
7.9727412576
 31
0.0
  0
SPLINE
  5
549
100
AcDbEntity
  8
RACCORDO
100
AcDbSpline
 62
253
  6
CONTINUOUS
 70
0
 71
3
 72
11
 73
7
 74
5
 42
0.0000001
 43
0.0000001
 44
0.0000000001
 12
1.043914915
 22
-0.5380229192
 32
0.0
 13
-0.0960266318
 23
-1.1704725102
 33
0.0
 40
0.0
 40
0.0
 40
0.0
 40
0.0
 40
0.2258144118
 40
0.481047566
 40
0.7467271134
 40
1.0
 40
1.0
 40
1.0
 40
1.0
 10
11.9598800294
 20
9.7305912336
 30
0.0
 10
12.0384570403
 20
9.6900934573
 30
0.0
 10
12.1868432262
 20
9.5665953887
 30
0.0
 10
12.3487506084
 20
9.319571058
 30
0.0
 10
12.4485105432
 20
9.03029047
 30
0.0
 10
12.464657067
 20
8.8245918988
 30
0.0
 10
12.4565500863
 20
8.7257755817
 30
0.0
 11
11.9598800294
 21
9.7305912336
 31
0.0
 11
12.1680543209
 21
9.5662951198
 31
0.0
 11
12.3354849504
 21
9.3176682956
 31
0.0
 11
12.4368145018
 21
9.0225650621
 31
0.0
 11
12.4565500863
 21
8.7257755817
 31
0.0
  0
SPLINE
  5
54A
100
AcDbEntity
  8
RACCORDO
100
AcDbSpline
 62
253
  6
CONTINUOUS
 70
0
 71
3
 72
12
 73
8
 74
6
 42
0.0000001
 43
0.0000001
 44
0.0000000001
 12
-1.9328131787
 22
-0.7318741081
 32
0.0
 13
-0.2971585427
 23
-2.0452636247
 33
0.0
 40
0.0
 40
0.0
 40
0.0
 40
0.0
 40
0.2193079598
 40
0.3425242922
 40
0.4721680258
 40
0.7397715865
 40
1.0
 40
1.0
 40
1.0
 40
1.0
 10
-18.0920956232
 20
24.75657906
 30
0.0
 10
-18.2333893948
 20
24.7030771208
 30
0.0
 10
-18.4364988339
 20
24.5717778426
 30
0.0
 10
-18.668936363
 20
24.344021151
 30
0.0
 10
-18.892221164
 20
24.0621914982
 30
0.0
 10
-19.1097168718
 20
23.6606413964
 30
0.0
 10
-19.2102791479
 20
23.3070373546
 30
0.0
 10
-19.2360555133
 20
23.1296254518
 30
0.0
 11
-18.0920956232
 21
24.75657906
 31
0.0
 11
-18.4793390086
 21
24.5210370319
 31
0.0
 11
-18.6619736849
 21
24.3435709831
 31
0.0
 11
-18.8288796962
 21
24.133966503
 31
0.0
 11
-19.0931239912
 21
23.6481090276
 31
0.0
 11
-19.2360555133
 21
23.1296254518
 31
0.0
  0
SPLINE
  5
54B
100
AcDbEntity
  8
RACCORDO
100
AcDbSpline
 62
253
  6
CONTINUOUS
 70
0
 71
3
 72
9
 73
5
 74
3
 42
0.0000001
 43
0.0000001
 44
0.0000000001
 12
-0.3207393133
 22
0.1556020074
 32
0.0
 13
-0.3324410674
 23
-0.1287191847
 33
0.0
 40
0.0
 40
0.0
 40
0.0
 40
0.0
 40
0.5240370524
 40
1.0
 40
1.0
 40
1.0
 40
1.0
 10
-18.0920956232
 20
24.75657906
 30
0.0
 10
-18.1481220513
 20
24.7837594657
 30
0.0
 10
-18.2645068062
 20
24.8201048994
 30
0.0
 10
-18.3871094707
 20
24.8045311268
 30
0.0
 10
-18.4398526808
 20
24.7841092727
 30
0.0
 11
-18.0920956232
 21
24.75657906
 31
0.0
 11
-18.2718094293
 21
24.8075943895
 31
0.0
 11
-18.4398526808
 21
24.7841092727
 31
0.0
  0
SPLINE
  5
54C
100
AcDbEntity
  8
RACCORDO
100
AcDbSpline
 62
253
  6
CONTINUOUS
 70
0
 71
3
 72
11
 73
7
 74
5
 42
0.0000001
 43
0.0000001
 44
0.0000000001
 12
-0.3322643569
 22
0.1655847651
 32
0.0
 13
0.0525087312
 23
0.367506123
 33
0.0
 40
0.0
 40
0.0
 40
0.0
 40
0.0
 40
0.3329696583
 40
0.607173301
 40
0.8233145676
 40
1.0
 40
1.0
 40
1.0
 40
1.0
 10
-19.2360554871
 20
23.1296254588
 30
0.0
 10
-19.2729334703
 20
23.148003693
 30
0.0
 10
-19.3384571512
 20
23.1854167669
 30
0.0
 10
-19.4175417113
 20
23.2505962308
 30
0.0
 10
-19.466848038
 20
23.3187420004
 30
0.0
 10
-19.4753960518
 20
23.3692887255
 30
0.0
 10
-19.4723035425
 20
23.3909330516
 30
0.0
 11
-19.2360554871
 21
23.1296254588
 31
0.0
 11
-19.3426333926
 21
23.1922421998
 31
0.0
 11
-19.4197245427
 21
23.2587189492
 31
0.0
 11
-19.4635615657
 21
23.3259258056
 31
0.0
 11
-19.4723035425
 21
23.3909330516
 31
0.0
  0
SPLINE
  5
54D
100
AcDbEntity
  8
RACCORDO
100
AcDbSpline
 62
253
  6
CONTINUOUS
 70
0
 71
3
 72
11
 73
7
 74
5
 42
0.0000001
 43
0.0000001
 44
0.0000000001
 12
-0.0429217443
 22
-0.9812741191
 32
0.0
 13
0.8534872782
 23
-0.4861076413
 33
0.0
 40
0.0
 40
0.0
 40
0.0
 40
0.0
 40
0.2918342918
 40
0.5533035651
 40
0.7861865888
 40
1.0
 40
1.0
 40
1.0
 40
1.0
 10
-22.7436772593
 20
-13.6118232203
 30
0.0
 10
-22.7478526049
 20
-13.7072796995
 30
0.0
 10
-22.7408351164
 20
-13.8895583492
 30
0.0
 10
-22.6766008089
 20
-14.1412529507
 30
0.0
 10
-22.5602180743
 20
-14.3457172301
 30
0.0
 10
-22.4465418826
 20
-14.4436738289
 30
0.0
 10
-22.3857128738
 20
-14.4783192732
 30
0.0
 11
-22.7436772593
 21
-13.6118232203
 31
0.0
 11
-22.7298259807
 21
-13.8981316178
 31
0.0
 11
-22.6628365148
 21
-14.1460591899
 31
0.0
 11
-22.5461402192
 21
-14.3427931024
 31
0.0
 11
-22.3857128738
 21
-14.4783192732
 31
0.0
  0
SPLINE
  5
54E
100
AcDbEntity
  8
RACCORDO
100
AcDbSpline
 62
253
  6
CONTINUOUS
 70
0
 71
3
 72
11
 73
7
 74
5
 42
0.0000001
 43
0.0000001
 44
0.0000000001
 12
-0.3430435392
 22
0.172040365
 32
0.0
 13
0.0164190248
 23
0.383415144
 33
0.0
 40
0.0
 40
0.0
 40
0.0
 40
0.0
 40
0.3100065068
 40
0.5758127951
 40
0.800661355
 40
1.0
 40
1.0
 40
1.0
 40
1.0
 10
-22.7436620629
 20
-13.6118166278
 30
0.0
 10
-22.7791106393
 20
-13.5940387503
 30
0.0
 10
-22.8428678672
 20
-13.5563714763
 30
0.0
 10
-22.9200675108
 20
-13.4877973987
 30
0.0
 10
-22.9688105386
 20
-13.4123965869
 30
0.0
 10
-22.9790921463
 20
-13.3572002962
 30
0.0
 10
-22.9780011643
 20
-13.3317238111
 30
0.0
 11
-22.7436620629
 21
-13.6118166278
 31
0.0
 11
-22.8453743083
 21
-13.5501035041
 31
0.0
 11
-22.920304814
 21
-13.4808867322
 31
0.0
 11
-22.9650819114
 21
-13.4071245188
 31
0.0
 11
-22.9780011643
 21
-13.3317238111
 31
0.0
  0
SPLINE
  5
54F
100
AcDbEntity
  8
RACCORDO
100
AcDbSpline
 62
253
  6
CONTINUOUS
 70
0
 71
3
 72
11
 73
7
 74
5
 42
0.0000001
 43
0.0000001
 44
0.0000000001
 12
-0.9105073504
 22
0.4566190209
 32
0.0
 13
0.0435828516
 23
1.0176566712
 33
0.0
 40
0.0
 40
0.0
 40
0.0
 40
0.0
 40
0.2155123932
 40
0.4481446078
 40
0.7087627333
 40
1.0
 40
1.0
 40
1.0
 40
1.0
 10
7.6831686108
 20
-29.5136662342
 30
0.0
 10
7.6177600714
 20
-29.4808638816
 30
0.0
 10
7.4943150141
 20
-29.3848292892
 30
0.0
 10
7.3663595334
 20
-29.1763325236
 30
0.0
 10
7.2953604282
 20
-28.9167771616
 30
0.0
 10
7.2871291562
 20
-28.7281351023
 30
0.0
 10
7.2913601398
 20
-28.6293419199
 30
0.0
 11
7.6831686108
 21
-29.5136662342
 31
0.0
 11
7.508868758
 21
-29.3802196023
 31
0.0
 11
7.3812896929
 21
-29.1805396725
 31
0.0
 11
7.3074348918
 21
-28.9255572966
 31
0.0
 11
7.2913601398
 21
-28.6293419199
 31
0.0
  0
SPLINE
  5
550
100
AcDbEntity
  8
RACCORDO
100
AcDbSpline
 62
253
  6
CONTINUOUS
 70
0
 71
3
 72
11
 73
7
 74
5
 42
0.0000001
 43
0.0000001
 44
0.0000000001
 12
0.5759657837
 22
0.180585328
 32
0.0
 13
0.0652704987
 23
0.6000728344
 33
0.0
 40
0.0
 40
0.0
 40
0.0
 40
0.0
 40
0.2195759702
 40
0.4543360656
 40
0.7139756431
 40
1.0
 40
1.0
 40
1.0
 40
1.0
 10
8.5293813053
 20
-29.5726303777
 30
0.0
 10
8.5715373872
 20
-29.5594129782
 30
0.0
 10
8.6540843248
 20
-29.514745153
 30
0.0
 10
8.7506504385
 20
-29.4052176096
 30
0.0
 10
8.8174058613
 20
-29.2611899547
 30
0.0
 10
8.8396173448
 20
-29.1527056937
 30
0.0
 10
8.845840329
 20
-29.0954938782
 30
0.0
 11
8.5293813053
 21
-29.5726303777
 31
0.0
 11
8.6463978671
 21
-29.5103918181
 31
0.0
 11
8.7417436909
 21
-29.4055623783
 31
0.0
 11
8.8096103237
 21
-29.2642974416
 31
0.0
 11
8.845840329
 21
-29.0954938782
 31
0.0
  0
ELLIPSE
  5
551
100
AcDbEntity
  8
DRAFT
100
AcDbEllipse
 62
7
  6
CONTINUOUS
 10
9.7430262868
 20
24.5358406786
 30
0.0
 11
2.7499831596
 21
-0.0194567514
 31
0.0
 40
0.4946372042
 41
2.368420792
 42
2.9397220933
  0
ELLIPSE
  5
552
100
AcDbEntity
  8
0
100
AcDbEllipse
 62
7
  6
CONTINUOUS
 10
15.2004764331
 20
25.6272926062
 30
0.0
 11
0.79574694
 21
0.7129684349
 31
0.0
 40
0.2882345029
 41
0.1136090155
 42
0.7807533904
  0
ELLIPSE
  5
553
100
AcDbEntity
  8
DRAFT
100
AcDbEllipse
 62
7
  6
CONTINUOUS
 10
10.414777729
 20
24.431523893
 30
0.0
 11
2.7583783481
 21
-0.0195161492
 31
0.0
 40
0.4946372042
 41
0.4406346392
 42
2.3596941457
  0
ELLIPSE
  5
554
100
AcDbEntity
  8
0
100
AcDbEllipse
 62
7
  6
CONTINUOUS
 10
11.3030883625
 20
27.5759866414
 30
0.0
 11
0.4410298232
 21
0.8975092442
 31
0.0
 40
0.607010042
 41
-0.8902711325
 42
-0.7587130969
  0
ELLIPSE
  5
555
100
AcDbEntity
  8
RACCORDO
100
AcDbEllipse
 62
7
  6
CONTINUOUS
 10
118.0299871842
 20
71.3703842608
 30
0.0
 11
111.4440378013
 21
57.7233873698
 31
0.0
 40
0.017156689
 41
2.654821495
 42
2.7151730236
  0
ELLIPSE
  5
556
100
AcDbEntity
  8
RACCORDO
100
AcDbEllipse
 62
7
  6
CONTINUOUS
 10
118.0299871842
 20
71.3703842608
 30
0.0
 11
111.4440378013
 21
57.7233873698
 31
0.0
 40
0.017156689
 41
-2.6886235892
 42
-2.6725939333
  0
ELLIPSE
  5
557
100
AcDbEntity
  8
0
100
AcDbEllipse
 62
7
  6
CONTINUOUS
 10
11.3566439525
 20
27.5492088464
 30
0.0
 11
-0.3106730325
 21
1.1082908718
 31
0.0
 40
0.6760995073
 41
4.9783291412
 42
6.4001141399
  0
ELLIPSE
  5
558
100
AcDbEntity
  8
0
100
AcDbEllipse
 62
7
  6
CONTINUOUS
 10
9.7194931986
 20
25.7509602916
 30
0.0
 11
3.3022643479
 21
-0.04629945
 31
0.0
 40
0.4892378494
 41
2.3616770883
 42
5.5059722822
  0
ELLIPSE
  5
559
100
AcDbEntity
  8
DRAFT
100
AcDbEllipse
 62
7
  6
CONTINUOUS
 10
10.414777729
 20
24.855341147
 30
0.0
 11
2.7583876426
 21
-0.0130411979
 31
0.0
 40
0.4964289597
 41
0.1874063655
 42
2.3585415194
  0
ELLIPSE
  5
55A
100
AcDbEntity
  8
ASSI
100
AcDbEllipse
 62
7
  6
CONTINUOUS
 10
10.414777729
 20
24.431523893
 30
0.0
 11
2.7583783481
 21
-0.0195161492
 31
0.0
 40
0.4946372042
 41
0.4406346392
 42
2.3596941457
  0
ELLIPSE
  5
55B
100
AcDbEntity
  8
ASSI
100
AcDbEllipse
 62
7
  6
CONTINUOUS
 10
11.3030883625
 20
27.5759866414
 30
0.0
 11
0.4410298232
 21
0.8975092442
 31
0.0
 40
0.607010042
 41
-0.8902711325
 42
-0.7587130969
  0
ELLIPSE
  5
55C
100
AcDbEntity
  8
ASSI
100
AcDbEllipse
 62
7
  6
CONTINUOUS
 10
9.7430262868
 20
24.5358406786
 30
0.0
 11
2.7499831596
 21
-0.0194567514
 31
0.0
 40
0.4946372042
 41
2.368420792
 42
2.9397220933
  0
ELLIPSE
  5
55D
100
AcDbEntity
  8
ASSI
100
AcDbEllipse
 62
7
  6
CONTINUOUS
 10
15.2004764331
 20
25.6272926062
 30
0.0
 11
0.79574694
 21
0.7129684349
 31
0.0
 40
0.2882345029
 41
0.1136090155
 42
0.7807533904
  0
ELLIPSE
  5
55E
100
AcDbEntity
  8
ASSI
100
AcDbEllipse
 62
7
  6
CONTINUOUS
 10
9.7194931986
 20
25.7509602916
 30
0.0
 11
3.3022643479
 21
-0.04629945
 31
0.0
 40
0.4892378494
 41
2.3616770883
 42
5.5059722822
  0
ELLIPSE
  5
55F
100
AcDbEntity
  8
ASSI
100
AcDbEllipse
 62
7
  6
CONTINUOUS
 10
10.414777729
 20
24.855341147
 30
0.0
 11
2.7583876426
 21
-0.0130411979
 31
0.0
 40
0.4964289597
 41
0.1874063655
 42
2.3585415194
  0
ELLIPSE
  5
560
100
AcDbEntity
  8
ASSI
100
AcDbEllipse
 62
7
  6
CONTINUOUS
 10
118.0299871842
 20
71.3703842608
 30
0.0
 11
111.4440378013
 21
57.7233873698
 31
0.0
 40
0.017156689
 41
2.654821495
 42
2.7151730236
  0
ELLIPSE
  5
561
100
AcDbEntity
  8
ASSI
100
AcDbEllipse
 62
7
  6
CONTINUOUS
 10
118.0299871842
 20
71.3703842608
 30
0.0
 11
111.4440378013
 21
57.7233873698
 31
0.0
 40
0.017156689
 41
-2.69019754
 42
-2.6725939333
  0
ELLIPSE
  5
562
100
AcDbEntity
  8
ASSI
100
AcDbEllipse
 62
7
  6
CONTINUOUS
 10
11.3566439525
 20
27.5492088464
 30
0.0
 11
-0.3106730325
 21
1.1082908718
 31
0.0
 40
0.6760995073
 41
4.9783291412
 42
6.4001141399
  0
ELLIPSE
  5
563
100
AcDbEntity
  8
RACCORDO
100
AcDbEllipse
 62
7
  6
CONTINUOUS
 10
-15.0671656223
 20
28.3124092563
 30
0.0
 11
0.110769438
 21
0.2241226716
 31
0.0
 40
0.6088015717
 41
-4.0304836828
 42
-3.1443650652
  0
ELLIPSE
  5
564
100
AcDbEntity
  8
RACCORDO
100
AcDbEllipse
 62
7
  6
CONTINUOUS
 10
-1.7028474578
 20
21.6302501741
 30
0.0
 11
0.110769438
 21
0.2241226716
 31
0.0
 40
0.6088015717
 41
-4.0304836828
 42
-3.1443650652
  0
ELLIPSE
  5
565
100
AcDbEntity
  8
RACCORDO
100
AcDbEllipse
 62
7
  6
CONTINUOUS
 10
-3.4128351251
 20
29.4437634301
 30
0.0
 11
0.2999991737
 21
-0.0014183462
 31
0.0
 40
0.4964289597
 41
0.7877451926
 42
2.3527237553
  0
ELLIPSE
  5
566
100
AcDbEntity
  8
RACCORDO
100
AcDbEllipse
 62
7
  6
CONTINUOUS
 10
2.1416283891
 20
26.6665316731
 30
0.0
 11
0.2999991737
 21
-0.0014183462
 31
0.0
 40
0.4964289597
 41
0.7877451926
 42
2.3585415194
  0
ELLIPSE
  5
567
100
AcDbEntity
  8
RACCORDO
100
AcDbEllipse
 62
7
  6
CONTINUOUS
 10
-11.6833376398
 20
27.6382622181
 30
0.0
 11
0.110769438
 21
0.2241226716
 31
0.0
 40
0.6088015717
 41
1.2055040732
 42
2.2526937431
  0
ELLIPSE
  5
568
100
AcDbEntity
  8
RACCORDO
100
AcDbEllipse
 62
7
  6
CONTINUOUS
 10
2.0324770017
 20
21.8839082879
 30
0.0
 11
0.110769438
 21
0.2241226716
 31
0.0
 40
0.6088015717
 41
-1.9360885804
 42
-0.8888910292
  0
ELLIPSE
  5
569
100
AcDbEntity
  8
RACCORDO
100
AcDbEllipse
 62
7
  6
CONTINUOUS
 10
0.4123021454
 20
22.9549246924
 30
0.0
 11
0.1128509832
 21
0.2230818409
 31
0.0
 40
0.6159267166
 41
0.0028979148
 42
0.6817883054
  0
ELLIPSE
  5
56A
100
AcDbEntity
  8
RACCORDO
100
AcDbEllipse
 62
7
  6
CONTINUOUS
 10
-1.7028474578
 20
21.8836215679
 30
0.0
 11
0.110769438
 21
0.2241226716
 31
0.0
 40
0.6088015717
 41
0.6877230618
 42
2.2527016244
  0
ELLIPSE
  5
56B
100
AcDbEntity
  8
RACCORDO
100
AcDbEllipse
 62
7
  6
CONTINUOUS
 10
-11.3318411627
 20
28.5660673701
 30
0.0
 11
0.110769438
 21
0.2241226716
 31
0.0
 40
0.6088015717
 41
-1.9360885804
 42
-0.8888910292
  0
ELLIPSE
  5
56C
100
AcDbEntity
  8
RACCORDO
100
AcDbEllipse
 62
7
  6
CONTINUOUS
 10
-12.9520160191
 20
29.6370837746
 30
0.0
 11
0.1128509832
 21
0.2230818409
 31
0.0
 40
0.6159267166
 41
0.0028979148
 42
0.6817883054
  0
ELLIPSE
  5
56D
100
AcDbEntity
  8
RACCORDO
100
AcDbEllipse
 62
7
  6
CONTINUOUS
 10
-15.0671656223
 20
28.5657806501
 30
0.0
 11
0.110769438
 21
0.2241226716
 31
0.0
 40
0.6088015717
 41
0.6877230618
 42
2.2527016244
  0
ELLIPSE
  5
56E
100
AcDbEntity
  8
RACCORDO
100
AcDbEllipse
 62
7
  6
CONTINUOUS
 10
-11.3318411627
 20
28.8269963465
 30
0.0
 11
0.110769438
 21
0.2241226716
 31
0.0
 40
0.6088015717
 41
5.394294278
 42
6.9592728406
  0
ELLIPSE
  5
56F
100
AcDbEntity
  8
RACCORDO
100
AcDbEllipse
 62
7
  6
CONTINUOUS
 10
2.0324770017
 20
22.1448372643
 30
0.0
 11
0.110769438
 21
0.2241226716
 31
0.0
 40
0.6088015717
 41
5.394294278
 42
6.9592728406
  0
ELLIPSE
  5
570
100
AcDbEntity
  8
RACCORDO
100
AcDbEllipse
 62
7
  6
CONTINUOUS
 10
-3.2323831479
 20
28.1217032602
 30
0.0
 11
0.2999981629
 21
-0.0021225547
 31
0.0
 40
0.4946372042
 41
-0.7818985079
 42
0.0034997008
  0
ELLIPSE
  5
571
100
AcDbEntity
  8
RACCORDO
100
AcDbEllipse
 62
7
  6
CONTINUOUS
 10
2.3220803662
 20
25.3444715031
 30
0.0
 11
0.2999981629
 21
-0.0021225547
 31
0.0
 40
0.4946372042
 41
-0.7760807437
 42
0.0035109161
  0
ELLIPSE
  5
572
100
AcDbEntity
  8
RACCORDO
100
AcDbEllipse
 62
7
  6
CONTINUOUS
 10
-9.3813288754
 20
26.5235820622
 30
0.0
 11
0.2999991335
 21
0.0014318851
 31
0.0
 40
0.5035541159
 41
8.6427941204
 42
10.207772683
  0
ELLIPSE
  5
573
100
AcDbEntity
  8
RACCORDO
100
AcDbEllipse
 62
7
  6
CONTINUOUS
 10
-15.3946197843
 20
26.7265119609
 30
0.0
 11
-0.1565168911
 21
0.3130623908
 31
0.0
 40
0.6123677712
 41
-0.6846781644
 42
0.8861181623
  0
ELLIPSE
  5
574
100
AcDbEntity
  8
RACCORDO
100
AcDbEllipse
 62
7
  6
CONTINUOUS
 10
-0.1211133107
 20
19.0897587241
 30
0.0
 11
-0.1565168911
 21
0.3130623908
 31
0.0
 40
0.6123677712
 41
-2.2554744912
 42
-0.6846781644
  0
ELLIPSE
  5
575
100
AcDbEntity
  8
RACCORDO
100
AcDbEllipse
 62
7
  6
CONTINUOUS
 10
-3.5888198074
 20
23.6273275282
 30
0.0
 11
0.2999991335
 21
0.0014318851
 31
0.0
 40
0.5035541159
 41
-2.3585979313
 42
-0.7936193687
  0
ELLIPSE
  5
576
100
AcDbEntity
  8
RACCORDO
100
AcDbEllipse
 62
7
  6
CONTINUOUS
 10
-3.5888198074
 20
22.4131284523
 30
0.0
 11
0.2999980272
 21
0.0021530184
 31
0.0
 40
0.5053247124
 41
-2.3598210761
 42
-0.7948425135
  0
ELLIPSE
  5
577
100
AcDbEntity
  8
RACCORDO
100
AcDbEllipse
 62
7
  6
CONTINUOUS
 10
-9.3813288754
 20
25.3093829864
 30
0.0
 11
0.2999980272
 21
0.0021530184
 31
0.0
 40
0.5053247124
 41
3.1379773283
 42
3.9233642311
  0
ELLIPSE
  5
578
100
AcDbEntity
  8
RACCORDO
100
AcDbEllipse
 62
7
  6
CONTINUOUS
 10
2.3220803662
 20
26.5763056845
 30
0.0
 11
0.2999991737
 21
-0.0014183462
 31
0.0
 40
0.4964289597
 41
-0.77723337
 42
0.7877451926
  0
ELLIPSE
  5
579
100
AcDbEntity
  8
RACCORDO
100
AcDbEllipse
 62
7
  6
CONTINUOUS
 10
-3.2323831479
 20
29.3535374416
 30
0.0
 11
0.2999991737
 21
-0.0014183462
 31
0.0
 40
0.4964289597
 41
-0.7830511342
 42
0.7877451926
  0
ELLIPSE
  5
57A
100
AcDbEntity
  8
RACCORDO
100
AcDbEllipse
 62
7
  6
CONTINUOUS
 10
-0.0950140822
 20
21.07970488
 30
0.0
 11
0.1128509832
 21
0.2230818409
 31
0.0
 40
0.6159267166
 41
0.6934238338
 42
2.2584023964
  0
ELLIPSE
  5
57B
100
AcDbEntity
  8
RACCORDO
100
AcDbEllipse
 62
7
  6
CONTINUOUS
 10
-0.0950140822
 20
20.8263334863
 30
0.0
 11
0.1128509832
 21
0.2230818409
 31
0.0
 40
0.6159267166
 41
-4.0247829108
 42
-2.9775853596
  0
ELLIPSE
  5
57C
100
AcDbEntity
  8
RACCORDO
100
AcDbEllipse
 62
7
  6
CONTINUOUS
 10
-13.4593322466
 20
27.7618639623
 30
0.0
 11
0.1128509832
 21
0.2230818409
 31
0.0
 40
0.6159267166
 41
0.6934238338
 42
2.2584023964
  0
ELLIPSE
  5
57D
100
AcDbEntity
  8
RACCORDO
100
AcDbEllipse
 62
7
  6
CONTINUOUS
 10
-13.4593322466
 20
27.5084925685
 30
0.0
 11
0.1128509832
 21
0.2230818409
 31
0.0
 40
0.6159267166
 41
-4.0247829108
 42
-2.9775853596
  0
ELLIPSE
  5
57E
100
AcDbEntity
  8
RACCORDO
100
AcDbEllipse
 62
7
  6
CONTINUOUS
 10
18.1575431269
 20
12.2991237042
 30
0.0
 11
-0.2237009107
 21
0.4473351135
 31
0.0
 40
0.6121897086
 41
-2.2557347926
 42
-0.6846338794
  0
ELLIPSE
  5
57F
100
AcDbEntity
  8
RACCORDO
100
AcDbEllipse
 62
7
  6
CONTINUOUS
 10
18.1575431269
 20
-25.6024240023
 30
0.0
 11
-0.2235807756
 21
0.4472283268
 31
0.0
 40
0.6125552124
 41
-3.139671321
 42
-2.255296188
  0
ELLIPSE
  5
580
100
AcDbEntity
  8
RACCORDO
100
AcDbEllipse
 62
7
  6
CONTINUOUS
 10
22.9833907378
 20
-21.0822593484
 30
0.0
 11
0.9987332359
 21
0.6172510855
 31
0.0
 40
0.0815198604
 41
-2.3890806779
 42
-1.1913468732
  0
ELLIPSE
  5
581
100
AcDbEntity
  8
RACCORDO
100
AcDbEllipse
 62
7
  6
CONTINUOUS
 10
22.7487737249
 20
-20.9649508419
 30
0.0
 11
0.4349639225
 21
0.9005141702
 31
0.0
 40
0.6016116119
 41
-1.2499156631
 42
-0.8943064336
  0
ELLIPSE
  5
582
100
AcDbEntity
  8
RACCORDO
100
AcDbEllipse
 62
7
  6
CONTINUOUS
 10
22.7487737249
 20
15.7983420071
 30
0.0
 11
0.4349639225
 21
0.9005141702
 31
0.0
 40
0.6016116119
 41
-0.8943064336
 42
-0.538697204
  0
ELLIPSE
  5
583
100
AcDbEntity
  8
RACCORDO
100
AcDbEllipse
 62
7
  6
CONTINUOUS
 10
10.9983508502
 20
21.6735534444
 30
0.0
 11
0.9987332359
 21
0.6172510855
 31
0.0
 40
0.0815198604
 41
0.0505521044
 42
0.7176053907
  0
ELLIPSE
  5
584
100
AcDbEntity
  8
RACCORDO
100
AcDbEllipse
 62
7
  6
CONTINUOUS
 10
12.1423791618
 20
21.1305178194
 30
0.0
 11
0.2256808774
 21
0.4461742732
 31
0.0
 40
0.6158912572
 41
0.0028657685
 42
0.6875768343
  0
ELLIPSE
  5
585
100
AcDbEntity
  8
RACCORDO
100
AcDbEllipse
 62
7
  6
CONTINUOUS
 10
15.999194999
 20
-26.6899198709
 30
0.0
 11
-0.2235807756
 21
0.4472283268
 31
0.0
 40
0.6125552124
 41
2.4567882058
 42
4.0278891191
  0
ELLIPSE
  5
586
100
AcDbEntity
  8
RACCORDO
100
AcDbEllipse
 62
7
  6
CONTINUOUS
 10
1.0119838406
 20
18.7959325927
 30
0.0
 11
-0.2235807756
 21
0.4472283268
 31
0.0
 40
0.6125552124
 41
-0.6848044477
 42
0.8862964655
  0
ELLIPSE
  5
587
100
AcDbEntity
  8
RACCORDO
100
AcDbEllipse
 62
7
  6
CONTINUOUS
 10
18.3038285203
 20
18.0497931401
 30
0.0
 11
0.2215594226
 21
0.4482351134
 31
0.0
 40
0.6088373611
 41
5.3943220613
 42
6.9651183881
  0
ELLIPSE
  5
588
100
AcDbEntity
  8
RACCORDO
100
AcDbEllipse
 62
7
  6
CONTINUOUS
 10
15.999194999
 20
11.3023270135
 30
0.0
 11
-0.2237009107
 21
0.4473351135
 31
0.0
 40
0.6121897086
 41
4.0274505145
 42
5.5985514278
  0
ELLIPSE
  5
589
100
AcDbEntity
  8
RACCORDO
100
AcDbEllipse
 62
7
  6
CONTINUOUS
 10
22.9833907378
 20
15.6810335006
 30
0.0
 11
-0.7417913999
 21
1.2002436976
 31
0.0
 40
0.5587454355
 41
5.0176587298
 42
6.2153925345
  0
ELLIPSE
  5
58A
100
AcDbEntity
  8
RACCORDO
100
AcDbEllipse
 62
7
  6
CONTINUOUS
 10
12.3259965178
 20
14.6099902933
 30
0.0
 11
0.4999881828
 21
-0.0070264249
 31
0.0
 40
0.4892375088
 41
-2.3493192548
 42
-0.7727633415
  0
ELLIPSE
  5
58B
100
AcDbEntity
  8
RACCORDO
100
AcDbEllipse
 62
7
  6
CONTINUOUS
 10
6.8065026653
 20
17.3697372195
 30
0.0
 11
0.4999881828
 21
-0.0070264249
 31
0.0
 40
0.4892375088
 41
-3.1347355197
 42
-2.3493192548
  0
ELLIPSE
  5
58C
100
AcDbEntity
  8
RACCORDO
100
AcDbEllipse
 62
7
  6
CONTINUOUS
 10
14.1822205204
 20
-22.0023495493
 30
0.0
 11
-0.2713091605
 21
0.4239062184
 31
0.0
 40
0.5451249042
 41
-3.2164578779
 42
-2.3115524019
  0
ELLIPSE
  5
58D
100
AcDbEntity
  8
RACCORDO
100
AcDbEllipse
 62
7
  6
CONTINUOUS
 10
12.3697799193
 20
-27.5301244465
 30
0.0
 11
-0.264201852
 21
0.7553638493
 31
0.0
 40
0.6685523073
 41
-3.1633743208
 42
-2.1740847918
  0
ELLIPSE
  5
58E
100
AcDbEntity
  8
RACCORDO
100
AcDbEllipse
 62
7
  6
CONTINUOUS
 10
15.9977112242
 20
10.471536359
 30
0.0
 11
-0.2639281287
 21
0.7552183666
 31
0.0
 40
0.6689328784
 41
-2.1734957081
 42
-0.6030039678
  0
ENDSEC
  0
SECTION
  2
OBJECTS
  0
DICTIONARY
  5
C
100
AcDbDictionary
280
0
281
1
  3
ACAD_GROUP
350
D
  3
ACAD_MLINESTYLE
350
17
  3
ACAD_LAYOUT
350
1A
  3
ACAD_PLOTSETTINGS
350
19
  3
ACAD_PLOTSTYLENAME
350
E
  0
DICTIONARY
  5
D
102
{ACAD_REACTORS
330
C
102
}
100
AcDbDictionary
280
0
281
1
  0
ACDBDICTIONARYWDFLT
  5
E
102
{ACAD_REACTORS
330
C
102
}
100
AcDbDictionary
281
1
  3
Normal
350
F
100
AcDbDictionaryWithDefault
340
F
  0
DICTIONARY
  5
17
102
{ACAD_REACTORS
330
C
102
}
100
AcDbDictionary
280
0
281
1
  3
Standard
350
18
  0
DICTIONARY
  5
19
102
{ACAD_REACTORS
330
C
102
}
100
AcDbDictionary
281
1
  0
DICTIONARY
  5
1A
102
{ACAD_REACTORS
330
C
102
}
100
AcDbDictionary
281
1
  3
Model
350
58F
  3
Layout1
350
590
  0
ACDBPLACEHOLDER
  5
F
102
{ACAD_REACTORS
330
E
102
}
  0
MLINESTYLE
  5
18
102
{ACAD_REACTORS
330
17
102
}
100
AcDbMlineStyle
  2
STANDARD
 70
0
  3

 62
256
 51
90.0
 52
90.0
 71
2
 49
0.5
 62
256
  6
BYLAYER
 49
-0.5
 62
256
  6
BYLAYER
  0
LAYOUT
  5
58F
102
{ACAD_REACTORS
330
1A
102
}
100
AcDbPlotSettings
  1

  2
none_device
  4
ISO_A4_(297.00_x_210.00_MM)
  6

 40
0.0
 41
0.0
 42
0.0
 43
0.0
 44
297.0
 45
210.0
 46
0.0
 47
0.0
 48
0.0
 49
0.0
140
0.0
141
0.0
142
1.0
143
1.0
 70
1024
 72
1
 73
0
 74
0
  7

 75
0
147
1.0
148
0.0
149
0.0
100
AcDbLayout
  1
Model
 70
0
 71
0
 10
0.0
 20
0.0
 11
297.0
 21
210.0
 12
0.0
 22
0.0
 32
0.0
 14
0.0
 24
0.0
 34
0.0
 15
0.0
 25
0.0
 35
0.0
146
0.0
 13
0.0
 23
0.0
 33
0.0
 16
1.0
 26
0.0
 36
0.0
 17
0.0
 27
1.0
 37
0.0
 76
0
330
21A
345
0
346
0
  0
LAYOUT
  5
590
102
{ACAD_REACTORS
330
1A
102
}
100
AcDbPlotSettings
  1

  2
none_device
  4
ISO_A4_(297.00_x_210.00_MM)
  6

 40
0.0
 41
0.0
 42
0.0
 43
0.0
 44
297.0
 45
210.0
 46
0.0
 47
0.0
 48
0.0
 49
0.0
140
0.0
141
0.0
142
1.0
143
1.0
 70
0
 72
1
 73
0
 74
0
  7

 75
0
147
1.0
148
0.0
149
0.0
100
AcDbLayout
  1
Layout1
 70
0
 71
1
 10
0.0
 20
0.0
 11
297.0
 21
210.0
 12
0.0
 22
0.0
 32
0.0
 14
0.0
 24
0.0
 34
0.0
 15
0.0
 25
0.0
 35
0.0
146
0.0
 13
0.0
 23
0.0
 33
0.0
 16
1.0
 26
0.0
 36
0.0
 17
0.0
 27
1.0
 37
0.0
 76
0
330
21B
345
0
346
0
  0
ENDSEC
  0
EOF
