  0
SECTION
  2
HEADER
  9
$ACADVER
  1
AC1024
  9
$DWGCODEPAGE
  3
ANSI_1252
  9
$EXTMAX
 10
297.0
 20
210.0
 30
0.0
  9
$EXTMIN
 10
0.0
 20
0.0
 30
0.0
  9
$LIMMIN
 10
0.0
 20
0.0
  9
$LIMMAX
 10
297.0
 20
210.0
  9
$VIEWCTR
 10
148.5
 20
105.0
  9
$VIEWSIZE
 40
210.0
  9
$CLAYER
  8
0
  9
$LTSCALE
 40
16.335
  9
$CELTYPE
  6
BYLAYER
  9
$DIMSCALE
 40
1.0
  9
$DIMASZ
 40
3.0
  9
$DIMEXO
 40
0.5
  9
$DIMDLI
 40
11.286
  9
$DIMEXE
 40
1.5
  9
$DIMCEN
 40
2.673
  9
$DIMLFAC
 40
1.0
  9
$DIMBLK
  1
_FILLED
  9
$DIMALT
 70
0
  9
$DIMALTF
 40
0.0393700787
  9
$DIMTXT
 40
3.0
  9
$DIMTOL
 70
1
  9
$DIMLIM
 70
0
  9
$DIMTFAC
 40
1.0
  9
$DIMTP
 40
0.01
  9
$DIMTM
 40
0.01
  9
$DIMGAP
 40
0.625
  9
$DIMDSEP
 70
44
  9
$AUNITS
 70
0
  9
$PDMODE
 70
3
  9
$PDSIZE
 40
3.0
  9
$HANDSEED
  5
3EB
  9
$TILEMODE
 70
1
  9
$MEASUREMENT
 70
1
  9
$INSUNITS
 70
4
  0
ENDSEC
  0
SECTION
  2
CLASSES
  0
CLASS
  1
ACDBDICTIONARYWDFLT
  2
AcDbDictionaryWithDefault
  3
AutoCAD 2000
 90
0
 91
1
280
0
281
0
  0
CLASS
  1
ACDBPLACEHOLDER
  2
AcDbPlaceHolder
  3
AutoCAD 2000
 90
0
 91
1
280
0
281
0
  0
CLASS
  1
LAYOUT
  2
AcDbLayout
  3
AutoCAD 2000
 90
0
 91
0
280
0
281
0
  0
ENDSEC
  0
SECTION
  2
TABLES
  0
TABLE
  2
VPORT
  5
8
100
AcDbSymbolTable
 70
2
  0
VPORT
  5
1F4
100
AcDbSymbolTableRecord
100
AcDbViewportTableRecord
  2
*ACTIVE
 70
0
 10
0.0
 20
0.0
 11
1.0
 21
1.0
 12
148.5
 22
105.0
 13
0.0
 23
0.0
 14
1.0
 24
1.0
 15
0.0
 25
0.0
 16
0.0
 26
0.0
 36
1.0
 17
0.0
 27
0.0
 37
0.0
 40
210.0
 41
1.4142857143
 42
50.0
 43
0.0
 44
0.0
 50
0.0
 51
0.0
 71
0
 72
100
 73
1
 74
1
 75
0
 76
0
 77
0
 78
0
  0
ENDTAB
  0
TABLE
  2
LTYPE
  5
5
100
AcDbSymbolTable
 70
6
  0
LTYPE
  5
14
100
AcDbSymbolTableRecord
100
AcDbLinetypeTableRecord
  2
BYBLOCK
 70
0
  3

 72
65
 73
0
 40
0.0
  0
LTYPE
  5
15
100
AcDbSymbolTableRecord
100
AcDbLinetypeTableRecord
  2
BYLAYER
 70
0
  3

 72
65
 73
0
 40
0.0
  0
LTYPE
  5
16
100
AcDbSymbolTableRecord
100
AcDbLinetypeTableRecord
  2
CONTINUOUS
 70
64
  3
Solid line
 72
65
 73
0
 40
0.0
  0
LTYPE
  5
1F5
100
AcDbSymbolTableRecord
100
AcDbLinetypeTableRecord
  2
CENTER
 70
64
  3
____ _ ____ _ ____ _ ____ _ ____ _ ____ _ ____
 72
65
 73
4
 40
0.6
 49
0.375
 74
0
 49
-0.075
 74
0
 49
0.075
 74
0
 49
-0.075
 74
0
  0
LTYPE
  5
1F6
100
AcDbSymbolTableRecord
100
AcDbLinetypeTableRecord
  2
HIDDEN
 70
64
  3
- - - - - - - - - - - - - - - - - - - -
 72
65
 73
2
 40
0.2
 49
0.1
 74
0
 49
-0.1
 74
0
  0
LTYPE
  5
1F7
100
AcDbSymbolTableRecord
100
AcDbLinetypeTableRecord
  2
PHANTOM
 70
64
  3
_____ _ _ _____ _ _ _____ _ _ _____
 72
65
 73
6
 40
0.8
 49
0.45
 74
0
 49
-0.05
 74
0
 49
0.1
 74
0
 49
-0.05
 74
0
 49
0.1
 74
0
 49
-0.05
 74
0
  0
LTYPE
  5
1F8
100
AcDbSymbolTableRecord
100
AcDbLinetypeTableRecord
  2
DOT
 70
64
  3
. . . . . . . . . . . . . . . . . . . .
 72
65
 73
2
 40
0.2
 49
0.1
 74
0
 49
-0.1
 74
0
  0
LTYPE
  5
1F9
100
AcDbSymbolTableRecord
100
AcDbLinetypeTableRecord
  2
DASHED
 70
64
  3
- - - - - - - - - - - - - - - - - - - -
 72
65
 73
2
 40
0.2
 49
0.1
 74
0
 49
-0.1
 74
0
  0
ENDTAB
  0
TABLE
  2
LAYER
  5
2
100
AcDbSymbolTable
 70
36
  0
LAYER
  5
10
100
AcDbSymbolTableRecord
100
AcDbLayerTableRecord
  2
0
 70
0
 62
7
  6
CONTINUOUS
370
-3
390
F
  0
LAYER
  5
1FA
100
AcDbSymbolTableRecord
100
AcDbLayerTableRecord
  2
DEFAULT_1
 70
0
 62
7
  6
CENTER
370
-3
390
F
  0
LAYER
  5
1FB
100
AcDbSymbolTableRecord
100
AcDbLayerTableRecord
  2
DEFAULT_2
 70
0
 62
7
  6
HIDDEN
370
-3
390
F
  0
LAYER
  5
1FC
100
AcDbSymbolTableRecord
100
AcDbLayerTableRecord
  2
DEFAULT_3
 70
0
 62
7
  6
PHANTOM
370
-3
390
F
  0
LAYER
  5
1FD
100
AcDbSymbolTableRecord
100
AcDbLayerTableRecord
  2
218140000
 70
0
 62
7
  6
CONTINUOUS
370
-3
390
F
  0
LAYER
  5
1FE
100
AcDbSymbolTableRecord
100
AcDbLayerTableRecord
  2
218140080
 70
0
 62
7
  6
CONTINUOUS
370
-3
390
F
  0
LAYER
  5
1FF
100
AcDbSymbolTableRecord
100
AcDbLayerTableRecord
  2
260
 70
0
 62
7
  6
CONTINUOUS
370
-3
390
F
  0
LAYER
  5
200
100
AcDbSymbolTableRecord
100
AcDbLayerTableRecord
  2
268
 70
0
 62
7
  6
CONTINUOUS
370
-3
390
F
  0
LAYER
  5
201
100
AcDbSymbolTableRecord
100
AcDbLayerTableRecord
  2
284
 70
0
 62
7
  6
CONTINUOUS
370
-3
390
F
  0
LAYER
  5
202
100
AcDbSymbolTableRecord
100
AcDbLayerTableRecord
  2
290
 70
0
 62
7
  6
CONTINUOUS
370
-3
390
F
  0
LAYER
  5
203
100
AcDbSymbolTableRecord
100
AcDbLayerTableRecord
  2
320
 70
0
 62
7
  6
CONTINUOUS
370
-3
390
F
  0
LAYER
  5
204
100
AcDbSymbolTableRecord
100
AcDbLayerTableRecord
  2
340
 70
0
 62
7
  6
CONTINUOUS
370
-3
390
F
  0
LAYER
  5
205
100
AcDbSymbolTableRecord
100
AcDbLayerTableRecord
  2
712
 70
0
 62
7
  6
CONTINUOUS
370
-3
390
F
  0
LAYER
  5
206
100
AcDbSymbolTableRecord
100
AcDbLayerTableRecord
  2
715
 70
0
 62
7
  6
CONTINUOUS
370
-3
390
F
  0
LAYER
  5
207
100
AcDbSymbolTableRecord
100
AcDbLayerTableRecord
  2
ASSI
 70
0
 62
7
  6
CONTINUOUS
370
-3
390
F
  0
LAYER
  5
208
100
AcDbSymbolTableRecord
100
AcDbLayerTableRecord
  2
COLORE_TOP
 70
0
 62
7
  6
CONTINUOUS
370
-3
390
F
  0
LAYER
  5
209
100
AcDbSymbolTableRecord
100
AcDbLayerTableRecord
  2
COORDINATE
 70
0
 62
7
  6
CONTINUOUS
370
-3
390
F
  0
LAYER
  5
20A
100
AcDbSymbolTableRecord
100
AcDbLayerTableRecord
  2
COORD_ORIGINE
 70
0
 62
7
  6
CONTINUOUS
370
-3
390
F
  0
LAYER
  5
20B
100
AcDbSymbolTableRecord
100
AcDbLayerTableRecord
  2
COPY_PUBLISH
 70
0
 62
7
  6
CONTINUOUS
370
-3
390
F
  0
LAYER
  5
20C
100
AcDbSymbolTableRecord
100
AcDbLayerTableRecord
  2
COSMETIC
 70
0
 62
7
  6
CONTINUOUS
370
-3
390
F
  0
LAYER
  5
20D
100
AcDbSymbolTableRecord
100
AcDbLayerTableRecord
  2
COSMETICHE
 70
0
 62
7
  6
CONTINUOUS
370
-3
390
F
  0
LAYER
  5
20E
100
AcDbSymbolTableRecord
100
AcDbLayerTableRecord
  2
COSMETICI
 70
0
 62
7
  6
CONTINUOUS
370
-3
390
F
  0
LAYER
  5
20F
100
AcDbSymbolTableRecord
100
AcDbLayerTableRecord
  2
CURVE
 70
0
 62
7
  6
CONTINUOUS
370
-3
390
F
  0
LAYER
  5
210
100
AcDbSymbolTableRecord
100
AcDbLayerTableRecord
  2
DRAFT
 70
0
 62
7
  6
CONTINUOUS
370
-3
390
F
  0
LAYER
  5
211
100
AcDbSymbolTableRecord
100
AcDbLayerTableRecord
  2
IMPORT
 70
0
 62
7
  6
CONTINUOUS
370
-3
390
F
  0
LAYER
  5
212
100
AcDbSymbolTableRecord
100
AcDbLayerTableRecord
  2
IMPORTED
 70
0
 62
7
  6
CONTINUOUS
370
-3
390
F
  0
LAYER
  5
213
100
AcDbSymbolTableRecord
100
AcDbLayerTableRecord
  2
IMPORT_IGES
 70
0
 62
7
  6
CONTINUOUS
370
-3
390
F
  0
LAYER
  5
214
100
AcDbSymbolTableRecord
100
AcDbLayerTableRecord
  2
INCISIONI_LASER
 70
0
 62
7
  6
CONTINUOUS
370
-3
390
F
  0
LAYER
  5
215
100
AcDbSymbolTableRecord
100
AcDbLayerTableRecord
  2
INTF_1
 70
0
 62
7
  6
CONTINUOUS
370
-3
390
F
  0
LAYER
  5
216
100
AcDbSymbolTableRecord
100
AcDbLayerTableRecord
  2
INTF_11
 70
0
 62
7
  6
CONTINUOUS
370
-3
390
F
  0
LAYER
  5
217
100
AcDbSymbolTableRecord
100
AcDbLayerTableRecord
  2
INTF_12
 70
0
 62
7
  6
CONTINUOUS
370
-3
390
F
  0
LAYER
  5
218
100
AcDbSymbolTableRecord
100
AcDbLayerTableRecord
  2
INTF_13
 70
0
 62
7
  6
CONTINUOUS
370
-3
390
F
  0
LAYER
  5
219
100
AcDbSymbolTableRecord
100
AcDbLayerTableRecord
  2
INTF_2
 70
0
 62
7
  6
CONTINUOUS
370
-3
390
F
  0
LAYER
  5
21A
100
AcDbSymbolTableRecord
100
AcDbLayerTableRecord
  2
INTF_6
 70
0
 62
7
  6
CONTINUOUS
370
-3
390
F
  0
LAYER
  5
21B
100
AcDbSymbolTableRecord
100
AcDbLayerTableRecord
  2
NOTE
 70
0
 62
7
  6
CONTINUOUS
370
-3
390
F
  0
LAYER
  5
21C
100
AcDbSymbolTableRecord
100
AcDbLayerTableRecord
  2
PIANI
 70
0
 62
7
  6
CONTINUOUS
370
-3
390
F
  0
LAYER
  5
21D
100
AcDbSymbolTableRecord
100
AcDbLayerTableRecord
  2
PIANI_DI_RIFERIMENTO
 70
0
 62
7
  6
CONTINUOUS
370
-3
390
F
  0
LAYER
  5
21E
100
AcDbSymbolTableRecord
100
AcDbLayerTableRecord
  2
PIANI_ORIGINE
 70
0
 62
7
  6
CONTINUOUS
370
-3
390
F
  0
LAYER
  5
21F
100
AcDbSymbolTableRecord
100
AcDbLayerTableRecord
  2
PIANI_RIFERIMENTO
 70
0
 62
7
  6
CONTINUOUS
370
-3
390
F
  0
LAYER
  5
220
100
AcDbSymbolTableRecord
100
AcDbLayerTableRecord
  2
PIANI_SFORMO
 70
0
 62
7
  6
CONTINUOUS
370
-3
390
F
  0
LAYER
  5
221
100
AcDbSymbolTableRecord
100
AcDbLayerTableRecord
  2
PUNTI
 70
0
 62
7
  6
CONTINUOUS
370
-3
390
F
  0
LAYER
  5
222
100
AcDbSymbolTableRecord
100
AcDbLayerTableRecord
  2
RACCORDO
 70
0
 62
7
  6
CONTINUOUS
370
-3
390
F
  0
LAYER
  5
223
100
AcDbSymbolTableRecord
100
AcDbLayerTableRecord
  2
RGB__255__255__255__
 70
0
 62
7
  6
CONTINUOUS
370
-3
390
F
  0
LAYER
  5
224
100
AcDbSymbolTableRecord
100
AcDbLayerTableRecord
  2
RINTRACCIABILITA
 70
0
 62
7
  6
CONTINUOUS
370
-3
390
F
  0
LAYER
  5
225
100
AcDbSymbolTableRecord
100
AcDbLayerTableRecord
  2
SIMBOLI
 70
0
 62
7
  6
CONTINUOUS
370
-3
390
F
  0
LAYER
  5
226
100
AcDbSymbolTableRecord
100
AcDbLayerTableRecord
  2
SMUSSO
 70
0
 62
7
  6
CONTINUOUS
370
-3
390
F
  0
LAYER
  5
227
100
AcDbSymbolTableRecord
100
AcDbLayerTableRecord
  2
SNAPLINE
 70
0
 62
7
  6
CONTINUOUS
370
-3
390
F
  0
LAYER
  5
228
100
AcDbSymbolTableRecord
100
AcDbLayerTableRecord
  2
SUPERFICI
 70
0
 62
7
  6
CONTINUOUS
370
-3
390
F
  0
LAYER
  5
229
100
AcDbSymbolTableRecord
100
AcDbLayerTableRecord
  2
TRASH
 70
0
 62
7
  6
CONTINUOUS
370
-3
390
F
  0
LAYER
  5
22A
100
AcDbSymbolTableRecord
100
AcDbLayerTableRecord
  2
WHITE
 70
0
 62
7
  6
CONTINUOUS
370
-3
390
F
  0
LAYER
  5
22B
100
AcDbSymbolTableRecord
100
AcDbLayerTableRecord
  2
XSEC_DATUMS
 70
0
 62
7
  6
CONTINUOUS
370
-3
390
F
  0
ENDTAB
  0
TABLE
  2
STYLE
  5
3
100
AcDbSymbolTable
 70
1
  0
STYLE
  5
11
100
AcDbSymbolTableRecord
100
AcDbTextStyleTableRecord
  2
STANDARD
 70
0
 40
0.0
 41
0.8
 50
0.0
 71
0
 42
0.2
  3
txt
  4

  0
STYLE
  5
22C
100
AcDbSymbolTableRecord
100
AcDbTextStyleTableRecord
  2
TEXTSTYLE_1
 70
0
 40
0.0
 41
0.8
 50
0.0
 71
0
 42
0.2
  3
gdt
  4

  0
ENDTAB
  0
TABLE
  2
VIEW
  5
6
100
AcDbSymbolTable
 70
0
  0
ENDTAB
  0
TABLE
  2
UCS
  5
7
100
AcDbSymbolTable
 70
0
  0
ENDTAB
  0
TABLE
  2
APPID
  5
9
100
AcDbSymbolTable
 70
1
  0
APPID
  5
22D
100
AcDbSymbolTableRecord
100
AcDbRegAppTableRecord
  2
ACAD
 70
0
  0
ENDTAB
  0
TABLE
  2
BLOCK_RECORD
  5
1
100
AcDbSymbolTable
 70
0
  0
BLOCK_RECORD
  5
22E
100
AcDbSymbolTableRecord
100
AcDbBlockTableRecord
  2
*Model_Space
  0
BLOCK_RECORD
  5
22F
100
AcDbSymbolTableRecord
100
AcDbBlockTableRecord
  2
*Paper_Space
  0
BLOCK_RECORD
  5
230
100
AcDbSymbolTableRecord
100
AcDbBlockTableRecord
  2
_FILLED
  0
ENDTAB
  0
TABLE
  2
DIMSTYLE
  5
A
100
AcDbSymbolTable
 70
1
100
AcDbDimStyleTable
 71
0
  0
DIMSTYLE
105
231
100
AcDbSymbolTableRecord
100
AcDbDimStyleTableRecord
  2
STANDARD
 70
0
  3

  4

 40
1.0
 41
3.0
 42
0.5
 43
0.38
 44
1.5
 45
0.0
 46
0.0
 47
0.01
 48
0.01
140
3.0
141
0.09
142
0.0
143
25.4
144
1.0
145
0.0
146
1.0
147
0.625
 71
1
 72
0
 73
0
 74
0
 75
0
 76
0
 77
1
 78
8
 79
2
170
0
171
1
172
0
173
0
174
0
175
0
176
0
177
0
178
0
270
2
179
2
271
2
272
2
273
2
274
2
275
0
280
0
281
0
282
0
283
1
284
8
285
0
286
0
287
3
288
0
340
11
278
44
341
230
342
230
343
230
344
230
  0
ENDTAB
  0
ENDSEC
  0
SECTION
  2
BLOCKS
  0
BLOCK
  5
20
100
AcDbEntity
  8
0
100
AcDbBlockBegin
  2
*Model_Space
 70
0
 10
0.0
 20
0.0
 30
0.0
  3
*Model_Space
  1

  0
ENDBLK
  5
21
100
AcDbEntity
  8
0
100
AcDbBlockEnd
  0
BLOCK
  5
1C
100
AcDbEntity
  8
0
100
AcDbBlockBegin
  2
*Paper_Space
 70
0
 10
0.0
 20
0.0
 30
0.0
  3
*Paper_Space
  1

  0
ENDBLK
  5
1D
100
AcDbEntity
  8
0
100
AcDbBlockEnd
  0
BLOCK
  5
232
100
AcDbEntity
  8
0
100
AcDbBlockBegin
  2
_FILLED
 70
64
 10
0.0
 20
0.0
  3
_FILLED
  1

  0
SOLID
  5
233
100
AcDbEntity
  8
0
  6
BYBLOCK
 62
0
100
AcDbTrace
 10
0.0
 20
0.0
 11
-1.0
 21
0.3166666667
 12
-1.0
 22
-0.3166666667
 13
-1.0
 23
-0.3166666667
  0
ENDBLK
  5
234
100
AcDbEntity
  8
0
  6
BYBLOCK
 62
0
100
AcDbBlockEnd
  0
ENDSEC
  0
SECTION
  2
ENTITIES
  0
LINE
  5
235
100
AcDbEntity
  8
268
100
AcDbLine
 62
7
  6
CONTINUOUS
 10
-13.2325924115
 20
24.369248505
 11
-11.6498358084
 21
25.1812326023
  0
LINE
  5
236
100
AcDbEntity
  8
268
100
AcDbLine
 62
7
  6
CONTINUOUS
 10
-13.7165475239
 20
22.626548103
 11
-12.7043252398
 21
23.1434780656
  0
LINE
  5
237
100
AcDbEntity
  8
268
100
AcDbLine
 62
7
  6
CONTINUOUS
 10
-11.6498358084
 20
25.1812326023
 11
-11.1153859297
 21
25.4415800689
  0
LWPOLYLINE
  5
238
100
AcDbEntity
  8
RACCORDO
100
AcDbPolyline
 62
250
  6
CONTINUOUS
 90
14
 70
0
 10
-20.3362616981
 20
-18.6786431851
 10
-20.3915667467
 20
-18.6453260007
 10
-20.4431898168
 20
-18.6054893729
 10
-20.4908842185
 20
-18.5593312091
 10
-20.5344330742
 20
-18.5070636347
 10
-20.5736222433
 20
-18.4489332982
 10
-20.6082414352
 20
-18.3852395538
 10
-20.6381113418
 20
-18.3163149223
 10
-20.6630796913
 20
-18.2425160512
 10
-20.6830249228
 20
-18.1642058144
 10
-20.6978523153
 20
-18.0817646052
 10
-20.7074872704
 20
-17.9956003391
 10
-20.7118780093
 20
-17.906148339
 10
-20.7110011221
 20
-17.813856215
  0
LINE
  5
239
100
AcDbEntity
  8
268
100
AcDbLine
 62
250
  6
CONTINUOUS
 10
-13.5590241176
 20
22.6171147734
 11
-12.7043252398
 21
23.0535993933
  0
LINE
  5
23A
100
AcDbEntity
  8
268
100
AcDbLine
 62
7
  6
CONTINUOUS
 10
-10.0234902116
 20
22.6360089964
 11
-11.0903211238
 21
22.0974277469
  0
LINE
  5
23B
100
AcDbEntity
  8
268
100
AcDbLine
 62
7
  6
CONTINUOUS
 10
-11.6247710025
 20
23.5653378005
 11
-10.0234902116
 21
24.368059804
  0
LINE
  5
23C
100
AcDbEntity
  8
268
100
AcDbLine
 62
7
  6
CONTINUOUS
 10
-10.0234902116
 20
24.368059804
 11
-9.4952230399
 21
24.631498624
  0
LWPOLYLINE
  5
23D
100
AcDbEntity
  8
RACCORDO
100
AcDbPolyline
 62
7
  6
CONTINUOUS
 90
19
 70
0
 10
-16.6982434019
 20
20.1426885275
 10
-16.7154357557
 20
20.1357000127
 10
-16.8081069456
 20
20.0929605767
 10
-16.8982570485
 20
20.042779672
 10
-16.9858843866
 20
19.9852080044
 10
-17.0705789444
 20
19.9205652722
 10
-17.1515573299
 20
19.8495494244
 10
-17.2288468153
 20
19.7722508253
 10
-17.3022608674
 20
19.6888811537
 10
-17.3708528041
 20
19.6005574119
 10
-17.43459223
 20
19.5074628529
 10
-17.4933227876
 20
19.4097788716
 10
-17.546176882
 20
19.3089840272
 10
-17.5930931345
 20
19.2053468059
 10
-17.6339298444
 20
19.0990409635
 10
-17.6681014132
 20
18.9915893827
 10
-17.6954535579
 20
18.8836115176
 10
-17.7160257097
 20
18.7748807163
 10
-17.7207787214
 20
18.7426578499
  0
LINE
  5
23E
100
AcDbEntity
  8
RACCORDO
100
AcDbLine
 62
7
  6
CONTINUOUS
 10
-16.6982478511
 20
20.1426997045
 11
-12.7853207128
 21
21.6993088527
  0
LINE
  5
23F
100
AcDbEntity
  8
RACCORDO
100
AcDbLine
 62
250
  6
CONTINUOUS
 10
-16.3481565122
 20
20.1161636661
 11
-12.4391839507
 21
21.6711995902
  0
LWPOLYLINE
  5
240
100
AcDbEntity
  8
268
100
AcDbPolyline
 62
7
  6
CONTINUOUS
 90
3
 70
0
 10
-2.0409165763
 20
25.8564198922
 10
-2.053481596
 20
25.8517208413
 10
-2.0593643147
 20
25.8489625494
  0
LWPOLYLINE
  5
241
100
AcDbEntity
  8
RACCORDO
100
AcDbPolyline
 62
250
  6
CONTINUOUS
 90
7
 70
0
 10
-16.6980849299
 20
20.1427645628
 10
-16.64307953
 20
20.1596733444
 10
-16.586845862
 20
20.1676992661
 10
-16.5285918763
 20
20.1673110607
 10
-16.4689555687
 20
20.1585129799
 10
-16.4085900737
 20
20.1414013798
 10
-16.3481565122
 20
20.1161636661
  0
LWPOLYLINE
  5
242
100
AcDbEntity
  8
268
100
AcDbPolyline
 62
7
  6
CONTINUOUS
 90
10
 70
0
 10
-2.0409165763
 20
25.8564198922
 10
-2.0316769555
 20
25.8591656911
 10
-2.0231138016
 20
25.8614314096
 10
-2.0152271147
 20
25.8632170477
 10
-2.0079777564
 20
25.8645434523
 10
-2.0014048651
 20
25.8653897764
 10
-1.9956258557
 20
25.8656934792
 10
-1.9906448985
 20
25.8654541434
 10
-1.9864578233
 20
25.8646721862
 10
-1.9838681422
 20
25.863675753
  0
LWPOLYLINE
  5
243
100
AcDbEntity
  8
RACCORDO
100
AcDbPolyline
 62
7
  6
CONTINUOUS
 90
12
 70
0
 10
-6.1919436928
 20
-25.7509152527
 10
-6.1598464969
 20
-25.7663373623
 10
-6.0781333002
 20
-25.7999493178
 10
-5.9934201896
 20
-25.8268977502
 10
-5.9061490475
 20
-25.8469260577
 10
-5.816529185
 20
-25.8598534744
 10
-5.7250978787
 20
-25.8654577118
 10
-5.6324527851
 20
-25.863571686
 10
-5.5387941531
 20
-25.8540399086
 10
-5.4445170319
 20
-25.8367231409
 10
-5.3503013203
 20
-25.8115952358
 10
-5.3340577179
 20
-25.8064580497
  0
LINE
  5
244
100
AcDbEntity
  8
RACCORDO
100
AcDbLine
 62
7
  6
CONTINUOUS
 10
-6.1910498059
 20
-25.7513773754
 11
-20.3262674427
 21
-18.683768557
  0
LINE
  5
245
100
AcDbEntity
  8
RACCORDO
100
AcDbLine
 62
250
  6
CONTINUOUS
 10
-6.5837300807
 20
-24.8774917357
 11
-20.7110011221
 21
-17.813856215
  0
LINE
  5
246
100
AcDbEntity
  8
RACCORDO
100
AcDbLine
 62
250
  6
CONTINUOUS
 10
-20.3262474745
 20
-18.6837785411
 11
-20.3362616981
 21
-18.6786431851
  0
LINE
  5
247
100
AcDbEntity
  8
268
100
AcDbLine
 62
7
  6
CONTINUOUS
 10
-9.4083713767
 20
24.0105010373
 11
-9.9356160924
 21
23.3687933093
  0
LWPOLYLINE
  5
248
100
AcDbEntity
  8
268
100
AcDbPolyline
 62
7
  6
CONTINUOUS
 90
12
 70
0
 10
-2.0593643147
 20
25.8489625494
 10
-2.0656511061
 20
25.8456061759
 10
-2.0775055327
 20
25.8381019027
 10
-2.0891607127
 20
25.8292293914
 10
-2.1006563075
 20
25.8190442809
 10
-2.1119476052
 20
25.8076132085
 10
-2.1230926716
 20
25.7949661823
 10
-2.134159551
 20
25.7811366462
 10
-2.1451056702
 20
25.7661671474
 10
-2.1559529713
 20
25.7500842202
 10
-2.1667914001
 20
25.7329159659
 10
-2.177675768
 20
25.7146973344
  0
LINE
  5
249
100
AcDbEntity
  8
268
100
AcDbLine
 62
7
  6
CONTINUOUS
 10
-7.7590957803
 20
22.2165028065
 11
-7.265773765
 21
22.4695863384
  0
LINE
  5
24A
100
AcDbEntity
  8
268
100
AcDbLine
 62
7
  6
CONTINUOUS
 10
-8.5677092351
 20
22.6076676001
 11
-2.0596726084
 21
25.8488092057
  0
LINE
  5
24B
100
AcDbEntity
  8
268
100
AcDbLine
 62
250
  6
CONTINUOUS
 10
-8.4922160946
 20
22.5699210299
 11
-2.177675768
 21
25.7146973344
  0
LINE
  5
24C
100
AcDbEntity
  8
268
100
AcDbLine
 62
7
  6
CONTINUOUS
 10
-1.1846554468
 20
24.8349538036
 11
-5.9222708808
 21
22.499903289
  0
LINE
  5
24D
100
AcDbEntity
  8
268
100
AcDbLine
 62
7
  6
CONTINUOUS
 10
-7.265773765
 20
22.4695863384
 11
-1.7881337755
 21
25.1379183016
  0
LINE
  5
24E
100
AcDbEntity
  8
268
100
AcDbLine
 62
7
  6
CONTINUOUS
 10
3.4287020721
 20
-23.4879699123
 11
3.9559467878
 21
-23.5962621842
  0
LINE
  5
24F
100
AcDbEntity
  8
268
100
AcDbLine
 62
7
  6
CONTINUOUS
 10
0.0215934491
 20
-24.5591740971
 11
1.6281295466
 21
-25.3624421458
  0
LWPOLYLINE
  5
250
100
AcDbEntity
  8
RACCORDO
100
AcDbPolyline
 62
250
  6
CONTINUOUS
 90
9
 70
0
 10
-20.9453488749
 20
-17.5331098725
 10
-20.9439840083
 20
-17.5627702216
 10
-20.934670313
 20
-17.601896168
 10
-20.9169052747
 20
-17.6406088542
 10
-20.8908792433
 20
-17.6784934796
 10
-20.8568710837
 20
-17.7151441161
 10
-20.8152451883
 20
-17.750168058
 10
-20.7664475722
 20
-17.7831900287
 10
-20.7110010946
 20
-17.8138562029
  0
LWPOLYLINE
  5
251
100
AcDbEntity
  8
RACCORDO
100
AcDbPolyline
 62
7
  6
CONTINUOUS
 90
15
 70
0
 10
-20.9453393417
 20
-17.5331102266
 10
-20.9464480806
 20
-17.5841588651
 10
-20.9424425899
 20
-17.703731266
 10
-20.9292318361
 20
-17.8193266769
 10
-20.9070196809
 20
-17.930829964
 10
-20.8760450051
 20
-18.0377322968
 10
-20.8368425635
 20
-18.1389052848
 10
-20.7901729997
 20
-18.2334749273
 10
-20.7364565413
 20
-18.3214703208
 10
-20.6760138336
 20
-18.4028633126
 10
-20.6096996085
 20
-18.4769870192
 10
-20.5380946344
 20
-18.5436839688
 10
-20.4609855729
 20
-18.6033468206
 10
-20.378685216
 20
-18.6556710446
 10
-20.3252120683
 20
-18.6842800496
  0
LINE
  5
252
100
AcDbEntity
  8
RACCORDO
100
AcDbLine
 62
7
  6
CONTINUOUS
 10
-20.9453420957
 20
-17.5329291753
 11
-20.9453488749
 21
-17.5331098725
  0
LWPOLYLINE
  5
253
100
AcDbEntity
  8
RACCORDO
100
AcDbPolyline
 62
250
  6
CONTINUOUS
 90
13
 70
0
 10
-20.7110011221
 20
-17.813856215
 10
-20.585336358
 20
-14.8465641668
 10
-20.4335493446
 20
-11.8676196812
 10
-20.2556588773
 20
-8.877396844
 10
-20.0516870015
 20
-5.8762712075
 10
-19.8216592651
 20
-2.8646195045
 10
-19.5656047115
 20
0.1571804005
 10
-19.2835556292
 20
3.1887492467
 10
-18.975547279
 20
6.2297064015
 10
-18.6416181392
 20
9.279670149
 10
-18.2818101795
 20
12.3382576869
 10
-17.8961688593
 20
15.4050851734
 10
-17.484742848
 20
18.4797677544
  0
LWPOLYLINE
  5
254
100
AcDbEntity
  8
RACCORDO
100
AcDbPolyline
 62
250
  6
CONTINUOUS
 90
10
 70
0
 10
-17.7207787214
 20
18.7426578499
 10
-17.7213800721
 20
18.7373748387
 10
-17.7199817016
 20
18.7054015123
 10
-17.7101002415
 20
18.672657939
 10
-17.6918415691
 20
18.6394949578
 10
-17.6654013214
 20
18.6062679018
 10
-17.6310627989
 20
18.5733327904
 10
-17.5891939302
 20
18.5410425153
 10
-17.5402433295
 20
18.5097430584
 10
-17.4847354902
 20
18.4797697855
  0
LWPOLYLINE
  5
255
100
AcDbEntity
  8
RACCORDO
100
AcDbPolyline
 62
7
  6
CONTINUOUS
 90
13
 70
0
 10
-17.7207731102
 20
18.7427417836
 10
-18.1246593924
 20
15.7259997598
 10
-18.5119715315
 20
12.6490653222
 10
-18.8732783665
 20
9.5803472118
 10
-19.2085254754
 20
6.5202778948
 10
-19.5176723379
 20
3.4692374319
 10
-19.8006823175
 20
0.4275854398
 10
-20.0575183605
 20
-2.604304221
 10
-20.2881486275
 20
-5.6260595211
 10
-20.4925434908
 20
-8.6373234159
 10
-20.67067369
 20
-11.6377203608
 10
-20.8225151836
 20
-14.6268295379
 10
-20.9453420957
 20
-17.5329291753
  0
LWPOLYLINE
  5
256
100
AcDbEntity
  8
RACCORDO
100
AcDbPolyline
 62
250
  6
CONTINUOUS
 90
22
 70
0
 10
-17.484742848
 20
18.4797677544
 10
-17.4687152424
 20
18.5776359836
 10
-17.4475862677
 20
18.6764710479
 10
-17.4214634083
 20
18.7757781735
 10
-17.3904823551
 20
18.875055367
 10
-17.3547977403
 20
18.9738114395
 10
-17.3145796528
 20
19.0715680411
 10
-17.2700230084
 20
19.1678509272
 10
-17.2213563532
 20
19.2621630049
 10
-17.1688340638
 20
19.3540040693
 10
-17.1127359427
 20
19.4428981964
 10
-17.0533353271
 20
19.528423231
 10
-16.9909035175
 20
19.610180248
 10
-16.9257404772
 20
19.6877749667
 10
-16.8581856152
 20
19.7608003724
 10
-16.788588574
 20
19.8288689917
 10
-16.717310468
 20
19.8916348273
 10
-16.6447022072
 20
19.9487953011
 10
-16.5711119454
 20
20.0000692528
 10
-16.4969046872
 20
20.0452008788
 10
-16.4224609528
 20
20.0839635945
 10
-16.3481565122
 20
20.1161636661
  0
LINE
  5
257
100
AcDbEntity
  8
268
100
AcDbLine
 62
7
  6
CONTINUOUS
 10
0.1424183816
 20
23.3650795701
 11
-1.2553661249
 21
22.6661873168
  0
LINE
  5
258
100
AcDbEntity
  8
268
100
AcDbLine
 62
7
  6
CONTINUOUS
 10
-1.6089195155
 20
23.3955222014
 11
-1.1846554468
 21
23.6031196222
  0
LINE
  5
259
100
AcDbEntity
  8
268
100
AcDbLine
 62
7
  6
CONTINUOUS
 10
0.8014141329
 20
24.2251523839
 11
-1.2553661249
 21
23.2187455061
  0
LINE
  5
25A
100
AcDbEntity
  8
218140000
100
AcDbLine
 62
7
  6
CONTINUOUS
 10
-2.1925733352
 20
22.0390915338
 11
-2.3306881374
 21
21.9738544485
  0
LINE
  5
25B
100
AcDbEntity
  8
218140000
100
AcDbLine
 62
250
  6
CONTINUOUS
 10
-2.1090393287
 20
22.0305924471
 11
-2.2453156178
 21
21.9662237643
  0
LWPOLYLINE
  5
25C
100
AcDbEntity
  8
218140000
100
AcDbPolyline
 62
250
  6
CONTINUOUS
 90
11
 70
0
 10
-1.2755732057
 20
22.0844124203
 10
-1.2664807452
 20
22.0885028714
 10
-1.257422071
 20
22.0918596566
 10
-1.2484349494
 20
22.0944666287
 10
-1.2395537617
 20
22.0963112329
 10
-1.2308192973
 20
22.0973823785
 10
-1.222277949
 20
22.0976733925
 10
-1.2139611236
 20
22.0971828985
 10
-1.2059078996
 20
22.0959128861
 10
-1.1981719193
 20
22.0938753699
 10
-1.1907982765
 20
22.091092001
  0
LINE
  5
25D
100
AcDbEntity
  8
218140000
100
AcDbLine
 62
7
  6
CONTINUOUS
 10
-2.1925198197
 20
22.0391168113
 11
-2.1893117796
 21
22.0405324409
  0
LWPOLYLINE
  5
25E
100
AcDbEntity
  8
218140000
100
AcDbPolyline
 62
7
  6
CONTINUOUS
 90
5
 70
0
 10
-2.330806606
 20
21.9737975462
 10
-2.3259634413
 20
21.9758551705
 10
-2.3185370814
 20
21.978173033
 10
-2.3103906633
 20
21.9797053976
 10
-2.3014723283
 20
21.9803563113
  0
LINE
  5
25F
100
AcDbEntity
  8
218140000
100
AcDbLine
 62
7
  6
CONTINUOUS
 10
-2.1194711898
 20
22.0666335781
 11
-2.1893121409
 21
22.0405322707
  0
LINE
  5
260
100
AcDbEntity
  8
218140000
100
AcDbLine
 62
7
  6
CONTINUOUS
 10
-2.0444320797
 20
22.0895611432
 11
-2.1194711898
 21
22.0666335781
  0
LWPOLYLINE
  5
261
100
AcDbEntity
  8
218140000
100
AcDbPolyline
 62
7
  6
CONTINUOUS
 90
6
 70
0
 10
-2.1893117796
 20
22.0405324409
 10
-2.176083505
 20
22.0444744659
 10
-2.1602998849
 20
22.0458131013
 10
-2.1436625523
 20
22.0439192761
 10
-2.1264739513
 20
22.0388180672
 10
-2.1090393287
 20
22.0305924471
  0
LWPOLYLINE
  5
262
100
AcDbEntity
  8
RACCORDO
100
AcDbPolyline
 62
250
  6
CONTINUOUS
 90
55
 70
0
 10
-13.5242414389
 20
-15.8541574332
 10
-13.4871007842
 20
-15.8712994275
 10
-13.4498390111
 20
-15.8856490104
 10
-13.4125815099
 20
-15.8971572346
 10
-13.3754720289
 20
-15.9057810559
 10
-13.3386169722
 20
-15.9114972918
 10
-13.3020865174
 20
-15.9142882839
 10
-13.2659682604
 20
-15.9141293052
 10
-13.2304260875
 20
-15.9110024331
 10
-13.1956416935
 20
-15.9049169578
 10
-13.1617379919
 20
-15.895896077
 10
-13.1288247614
 20
-15.8839709263
 10
-13.0970521073
 20
-15.8692031928
 10
-13.0665522318
 20
-15.8516729968
 10
-13.0373913714
 20
-15.8314377151
 10
-13.0096163064
 20
-15.8085354153
 10
-12.9833046655
 20
-15.783022447
 10
-12.9585660489
 20
-15.7549970051
 10
-12.9354931282
 20
-15.7245620276
 10
-12.9141642552
 20
-15.6918211997
 10
-12.894650743
 20
-15.6568843426
 10
-12.8770227769
 20
-15.6198794352
 10
-12.8613475124
 20
-15.5809580803
 10
-12.8476644158
 20
-15.5402302176
 10
-12.8360005908
 20
-15.4977640054
 10
-12.8263954093
 20
-15.4536525149
 10
-12.818902344
 20
-15.4080800075
 10
-12.81356104
 20
-15.3612576242
 10
-12.8103907589
 20
-15.3133627976
 10
-12.8094001388
 20
-15.2645405068
 10
-12.8105924983
 20
-15.2149643754
 10
-12.8139625518
 20
-15.1648088878
 10
-12.8194981544
 20
-15.1142387912
 10
-12.8271814759
 20
-15.0634161456
 10
-12.8369883947
 20
-15.0125066956
 10
-12.8488852323
 20
-14.9616901167
 10
-12.862828963
 20
-14.9111495703
 10
-12.8787690387
 20
-14.8610636935
 10
-12.8966524475
 20
-14.8115950598
 10
-12.9164223354
 20
-14.7629006456
 10
-12.9380157371
 20
-14.7151383791
 10
-12.9613567843
 20
-14.6684786532
 10
-12.9863598967
 20
-14.623092005
 10
-13.0129339419
 20
-14.5791403897
 10
-13.040992768
 20
-14.536763093
 10
-13.0704504537
 20
-14.496089909
 10
-13.1012284455
 20
-14.4572347468
 10
-13.1332036995
 20
-14.4203580043
 10
-13.16621264
 20
-14.3856414878
 10
-13.200103089
 20
-14.3532256061
 10
-13.2347904317
 20
-14.3231725076
 10
-13.2702068915
 20
-14.2955341604
 10
-13.3062510413
 20
-14.2703916865
 10
-13.3427843813
 20
-14.2478434856
 10
-13.3796839211
 20
-14.2279651864
  0
LINE
  5
263
100
AcDbEntity
  8
268
100
AcDbLine
 62
250
  6
CONTINUOUS
 10
-0.0430000296
 20
-24.4241455558
 11
1.5627764325
 21
-25.2270337869
  0
LINE
  5
264
100
AcDbEntity
  8
268
100
AcDbLine
 62
250
  6
CONTINUOUS
 10
1.5627764325
 20
-24.9736623931
 11
-0.0430000296
 21
-24.170774162
  0
LINE
  5
265
100
AcDbEntity
  8
268
100
AcDbLine
 62
250
  6
CONTINUOUS
 10
1.6516790085
 20
-24.7422253335
 11
0.0448740896
 21
-23.938822874
  0
LINE
  5
266
100
AcDbEntity
  8
268
100
AcDbLine
 62
7
  6
CONTINUOUS
 10
-0.8558943785
 20
-22.4945997397
 11
1.714482356
 21
-23.779788107
  0
LINE
  5
267
100
AcDbEntity
  8
268
100
AcDbLine
 62
7
  6
CONTINUOUS
 10
2.2739970406
 20
-23.997165916
 11
1.8647320443
 21
-23.7925334179
  0
LINE
  5
268
100
AcDbEntity
  8
268
100
AcDbLine
 62
7
  6
CONTINUOUS
 10
-0.8280193715
 20
-22.1810213047
 11
1.9619697295
 21
-23.5760158552
  0
LWPOLYLINE
  5
269
100
AcDbEntity
  8
RACCORDO
100
AcDbPolyline
 62
7
  6
CONTINUOUS
 90
46
 70
0
 10
-13.4982708669
 20
-15.9102482574
 10
-13.5388943159
 20
-15.8884120206
 10
-13.5789577283
 20
-15.8638196491
 10
-13.6183548444
 20
-15.8365478906
 10
-13.6569933666
 20
-15.8066682413
 10
-13.694760004
 20
-15.7742729113
 10
-13.7315192624
 20
-15.7394854869
 10
-13.767187817
 20
-15.7023915948
 10
-13.8016519241
 20
-15.663113207
 10
-13.8347390401
 20
-15.6218622075
 10
-13.8663467493
 20
-15.5787947274
 10
-13.8964121759
 20
-15.534022607
 10
-13.9248354231
 20
-15.4877196428
 10
-13.9515318845
 20
-15.4400543392
 10
-13.9764481521
 20
-15.3911509023
 10
-13.9995349711
 20
-15.3411248436
 10
-14.0207347753
 20
-15.290109988
 10
-14.0399812489
 20
-15.2382715344
 10
-14.0572154576
 20
-15.1857745372
 10
-14.0723854759
 20
-15.1327833979
 10
-14.0854501954
 20
-15.0794428791
 10
-14.0963731208
 20
-15.0258890541
 10
-14.1051200094
 20
-14.9722528822
 10
-14.111652282
 20
-14.918713866
 10
-14.1159383791
 20
-14.8654769522
 10
-14.1179603328
 20
-14.8127144399
 10
-14.1177070426
 20
-14.7605572603
 10
-14.1151687622
 20
-14.7091403987
 10
-14.1103327798
 20
-14.6585584431
 10
-14.1031982277
 20
-14.6090120411
 10
-14.0937959441
 20
-14.5607770492
 10
-14.0821497319
 20
-14.5139819499
 10
-14.0682877512
 20
-14.4687550749
 10
-14.052289132
 20
-14.4253384319
 10
-14.0342171045
 20
-14.3838586774
 10
-14.0141205628
 20
-14.344393798
 10
-13.9920878856
 20
-14.3070849944
 10
-13.9681911166
 20
-14.2720186443
 10
-13.9425090218
 20
-14.2392798724
 10
-13.9151652702
 20
-14.2089897478
 10
-13.8862775935
 20
-14.1812320828
 10
-13.8559358367
 20
-14.1560489251
 10
-13.8242438939
 20
-14.1334887589
 10
-13.7913202285
 20
-14.113600263
 10
-13.7572944608
 20
-14.0964252912
 10
-13.7222982142
 20
-14.0819925592
  0
LWPOLYLINE
  5
26A
100
AcDbEntity
  8
RACCORDO
100
AcDbPolyline
 62
250
  6
CONTINUOUS
 90
3
 70
0
 10
-13.3370576317
 20
-16.0455968999
 10
-13.4047551557
 20
-16.0082599583
 10
-13.4717699823
 20
-15.964270233
  0
LWPOLYLINE
  5
26B
100
AcDbEntity
  8
RACCORDO
100
AcDbPolyline
 62
250
  6
CONTINUOUS
 90
39
 70
0
 10
-13.4156202173
 20
-16.1652343911
 10
-13.489634162
 20
-16.124299345
 10
-13.5619807835
 20
-16.0767703445
 10
-13.6326593639
 20
-16.0226470887
 10
-13.7021385001
 20
-15.9614824524
 10
-13.7699467112
 20
-15.8937223523
 10
-13.8346726423
 20
-15.8207058322
 10
-13.8962287969
 20
-15.7423317547
 10
-13.9546975375
 20
-15.6586991096
 10
-14.0089223808
 20
-15.5714471682
 10
-14.0588025566
 20
-15.4805323598
 10
-14.1044326602
 20
-15.3859956803
 10
-14.1449501396
 20
-15.2896036221
 10
-14.1802674437
 20
-15.1912872101
 10
-14.2104662238
 20
-15.0911129712
 10
-14.2349394984
 20
-14.99105139
 10
-14.2535674052
 20
-14.8911211692
 10
-14.2664656577
 20
-14.7913018986
 10
-14.2733831525
 20
-14.6935064422
 10
-14.2742035631
 20
-14.5977644971
 10
-14.2690416874
 20
-14.504045754
 10
-14.2579960271
 20
-14.4141742779
 10
-14.2409522782
 20
-14.3282310747
 10
-14.2180262487
 20
-14.2461357818
 10
-14.1896645391
 20
-14.1694716223
 10
-14.1557602997
 20
-14.0983436718
 10
-14.1164245352
 20
-14.0326485852
 10
-14.0724331416
 20
-13.9736579888
 10
-14.0237058841
 20
-13.921511203
 10
-13.9703288721
 20
-13.8760713343
 10
-13.9133292908
 20
-13.838196414
 10
-13.8526488785
 20
-13.8080288508
 10
-13.7883520931
 20
-13.7854287834
 10
-13.7216510851
 20
-13.770831199
 10
-13.6524626076
 20
-13.7643981391
 10
-13.5808750291
 20
-13.765969661
 10
-13.5083580109
 20
-13.7754978102
 10
-13.4354024828
 20
-13.792967028
 10
-13.3615204245
 20
-13.818394063
  0
LINE
  5
26C
100
AcDbEntity
  8
RACCORDO
100
AcDbLine
 62
250
  6
CONTINUOUS
 10
-13.4717699823
 20
-15.964270233
 11
-13.5376688438
 21
-15.9138830781
  0
LWPOLYLINE
  5
26D
100
AcDbEntity
  8
RACCORDO
100
AcDbPolyline
 62
250
  6
CONTINUOUS
 90
3
 70
0
 10
-13.5376688438
 20
-15.9138830781
 10
-13.6020582422
 20
-15.8573781242
 10
-13.6387685931
 20
-15.8207616851
  0
LINE
  5
26E
100
AcDbEntity
  8
218140000
100
AcDbLine
 62
7
  6
CONTINUOUS
 10
-2.3454193359
 20
21.9641780173
 11
-3.2563456943
 21
21.1669406958
  0
LINE
  5
26F
100
AcDbEntity
  8
218140000
100
AcDbLine
 62
250
  6
CONTINUOUS
 10
-2.2459744922
 20
21.9665532015
 11
-3.1947846724
 21
21.1361601849
  0
LWPOLYLINE
  5
270
100
AcDbEntity
  8
218140000
100
AcDbPolyline
 62
7
  6
CONTINUOUS
 90
5
 70
0
 10
-2.3455165748
 20
21.9640924188
 10
-2.3444357714
 20
21.9650239394
 10
-2.3388874067
 20
21.9692066757
 10
-2.3327329468
 20
21.9728443243
 10
-2.330806606
 20
21.9737975462
  0
LINE
  5
271
100
AcDbEntity
  8
218140000
100
AcDbLine
 62
250
  6
CONTINUOUS
 10
-2.6940557141
 20
20.8857957057
 11
-2.2202472705
 21
21.2572157621
  0
LINE
  5
272
100
AcDbEntity
  8
218140000
100
AcDbLine
 62
250
  6
CONTINUOUS
 10
-2.4161660511
 20
20.7468508742
 11
-2.0474401405
 21
21.0358963743
  0
LWPOLYLINE
  5
273
100
AcDbEntity
  8
218140000
100
AcDbPolyline
 62
250
  6
CONTINUOUS
 90
13
 70
0
 10
-2.2202472705
 20
21.2572157621
 10
-2.1790683512
 20
21.2867618921
 10
-2.1358729789
 20
21.3133720282
 10
-2.0906611535
 20
21.3370461706
 10
-2.0428841855
 20
21.3579411386
 10
-1.9930907644
 20
21.3759001129
 10
-1.9429269592
 20
21.3904526351
 10
-1.8924211682
 20
21.4014711332
 10
-1.8415449931
 20
21.4090831792
 10
-1.7918593078
 20
21.413201031
 10
-1.7435043534
 20
21.4137392265
 10
-1.6963398888
 20
21.4107832278
 10
-1.6515060638
 20
21.4045016797
  0
LINE
  5
274
100
AcDbEntity
  8
268
100
AcDbLine
 62
7
  6
CONTINUOUS
 10
-1.5423298234
 20
19.108119828
 11
-1.0432340906
 21
19.3583165011
  0
LINE
  5
275
100
AcDbEntity
  8
268
100
AcDbLine
 62
7
  6
CONTINUOUS
 10
-1.0432340906
 20
19.3583165011
 11
4.3710386046
 21
22.0583321115
  0
LINE
  5
276
100
AcDbEntity
  8
268
100
AcDbLine
 62
7
  6
CONTINUOUS
 10
3.7650920215
 20
22.3600800695
 11
-0.9725234125
 21
20.0250295549
  0
LINE
  5
277
100
AcDbEntity
  8
268
100
AcDbLine
 62
7
  6
CONTINUOUS
 10
5.0440548201
 20
22.1038320404
 11
4.457676033
 21
21.8169099727
  0
LWPOLYLINE
  5
278
100
AcDbEntity
  8
268
100
AcDbPolyline
 62
7
  6
CONTINUOUS
 90
18
 70
0
 10
5.0440548201
 20
22.1038320404
 10
5.0724293408
 20
22.1170139972
 10
5.1006637928
 20
22.1287483889
 10
5.128758176
 20
22.1390352156
 10
5.1567624891
 20
22.1478873502
 10
5.1846267334
 20
22.1552919197
 10
5.212200913
 20
22.1612103054
 10
5.2394700417
 20
22.1656337266
 10
5.2664491057
 20
22.168570964
 10
5.2930330683
 20
22.1700097399
 10
5.3192380272
 20
22.1699426034
 10
5.3450478846
 20
22.1683770054
 10
5.3703093109
 20
22.165323022
 10
5.3949990642
 20
22.1607772376
 10
5.4191403863
 20
22.1547430677
 10
5.4426496726
 20
22.147240835
 10
5.4655454528
 20
22.1382554203
 10
5.4851075371
 20
22.1291656872
  0
LINE
  5
279
100
AcDbEntity
  8
218140000
100
AcDbLine
 62
7
  6
CONTINUOUS
 10
11.273393291
 20
24.6727284633
 11
5.6199234005
 21
22.0617687183
  0
LINE
  5
27A
100
AcDbEntity
  8
218140000
100
AcDbLine
 62
250
  6
CONTINUOUS
 10
11.6618507735
 20
24.6405141276
 11
5.8399375231
 21
21.951761657
  0
LWPOLYLINE
  5
27B
100
AcDbEntity
  8
218140000
100
AcDbPolyline
 62
250
  6
CONTINUOUS
 90
9
 70
0
 10
11.6618507735
 20
24.6405141276
 10
11.715857175
 20
24.6635456435
 10
11.7695772482
 20
24.6807872801
 10
11.8226130926
 20
24.6920520517
 10
11.8745990179
 20
24.6971959683
 10
11.9251002677
 20
24.6961078293
 10
11.9736284039
 20
24.688752434
 10
12.0198106966
 20
24.6751582846
 10
12.053221787
 20
24.6606484133
  0
LWPOLYLINE
  5
27C
100
AcDbEntity
  8
218140000
100
AcDbPolyline
 62
7
  6
CONTINUOUS
 90
12
 70
0
 10
11.273393291
 20
24.6727284633
 10
11.339020767
 20
24.6999481128
 10
11.4077195976
 20
24.7222238822
 10
11.4790270802
 20
24.7391232645
 10
11.5525837297
 20
24.750287589
 10
11.627611712
 20
24.7553593118
 10
11.7029976694
 20
24.754138465
 10
11.7781831781
 20
24.74658833
 10
11.8525406097
 20
24.7327416985
 10
11.9250619811
 20
24.7128320816
 10
11.9954140127
 20
24.6870426309
 10
12.0532541416
 20
24.6606322358
  0
LWPOLYLINE
  5
27D
100
AcDbEntity
  8
218140000
100
AcDbPolyline
 62
250
  6
CONTINUOUS
 90
9
 70
0
 10
11.273393291
 20
24.6727284633
 10
11.3013059165
 20
24.6841274428
 10
11.3478203295
 20
24.6971064958
 10
11.3966392821
 20
24.7036840891
 10
11.4473913766
 20
24.7038101826
 10
11.4996905086
 20
24.6974838172
 10
11.5531388044
 20
24.6847531215
 10
11.6073296478
 20
24.6657149464
 10
11.6618507735
 20
24.6405141276
  0
LWPOLYLINE
  5
27E
100
AcDbEntity
  8
0
100
AcDbPolyline
 62
7
  6
CONTINUOUS
 90
3
 70
0
 10
-12.6462143936
 20
-15.8103130677
 10
-12.5881321234
 20
-15.8358316575
 10
-12.5679633751
 20
-15.8424361897
  0
LINE
  5
27F
100
AcDbEntity
  8
RACCORDO
100
AcDbLine
 62
250
  6
CONTINUOUS
 10
-13.3615204245
 20
-13.818394063
 11
-13.2867125611
 21
-13.8517792115
  0
LWPOLYLINE
  5
280
100
AcDbEntity
  8
RACCORDO
100
AcDbPolyline
 62
250
  6
CONTINUOUS
 90
55
 70
0
 10
-13.3796839211
 20
-14.2279651864
 10
-13.4168245374
 20
-14.2108231783
 10
-13.4540862915
 20
-14.1964735885
 10
-13.4913437933
 20
-14.1849653646
 10
-13.5284533069
 20
-14.176341555
 10
-13.5653084158
 20
-14.170625338
 10
-13.6018389037
 20
-14.1678343578
 10
-13.637957153
 20
-14.1679933337
 10
-13.6734992991
 20
-14.1711201961
 10
-13.7082836734
 20
-14.1772056643
 10
-13.7421873742
 20
-14.1862265448
 10
-13.7751006109
 20
-14.1981516978
 10
-13.8068732695
 20
-14.2129194329
 10
-13.8373731438
 20
-14.2304496284
 10
-13.8665340012
 20
-14.2506849091
 10
-13.8943090637
 20
-14.273587208
 10
-13.9206207034
 20
-14.2991001758
 10
-13.9453593194
 20
-14.3271256175
 10
-13.9684322393
 20
-14.3575605948
 10
-13.9897611111
 20
-14.3903014222
 10
-14.009274622
 20
-14.4252382789
 10
-14.0269025871
 20
-14.4622431859
 10
-14.0425778511
 20
-14.5011645406
 10
-14.0562609474
 20
-14.5418924032
 10
-14.0679247721
 20
-14.5843586153
 10
-14.0775299529
 20
-14.6284701056
 10
-14.0850230174
 20
-14.6740426126
 10
-14.0903643208
 20
-14.7208649957
 10
-14.0935346016
 20
-14.7687598222
 10
-14.0945252215
 20
-14.8175821129
 10
-14.0933328619
 20
-14.8671582443
 10
-14.0899628082
 20
-14.9173137319
 10
-14.0844272056
 20
-14.9678838284
 10
-14.0767438841
 20
-15.0187064741
 10
-14.0669369656
 20
-15.0696159241
 10
-14.0550401283
 20
-15.1204325031
 10
-14.0410963979
 20
-15.1709730497
 10
-14.0251563223
 20
-15.2210589265
 10
-14.0072729135
 20
-15.2705275603
 10
-13.9875030262
 20
-15.3192219746
 10
-13.9659096262
 20
-15.3669842418
 10
-13.9425685813
 20
-15.4136439684
 10
-13.9175654698
 20
-15.459030617
 10
-13.8909914214
 20
-15.5029822311
 10
-13.8629325907
 20
-15.5453595261
 10
-13.8334749052
 20
-15.5860327102
 10
-13.8026969265
 20
-15.6248878772
 10
-13.7707216905
 20
-15.6617646261
 10
-13.737712755
 20
-15.6964811445
 10
-13.7038222831
 20
-15.7288970179
 10
-13.6691349046
 20
-15.7589501035
 10
-13.6337184229
 20
-15.7865884428
 10
-13.5976742744
 20
-15.8117309172
 10
-13.5611409495
 20
-15.8342791235
 10
-13.5242414389
 20
-15.8541574332
  0
LWPOLYLINE
  5
281
100
AcDbEntity
  8
RACCORDO
100
AcDbPolyline
 62
250
  6
CONTINUOUS
 90
12
 70
0
 10
-13.3028008575
 20
-14.1209608609
 10
-13.3436832632
 20
-14.1020921791
 10
-13.3846989755
 20
-14.0862970904
 10
-13.4257099924
 20
-14.0736294642
 10
-13.4665581222
 20
-14.0641365712
 10
-13.5071262529
 20
-14.0578440284
 10
-13.5473370756
 20
-14.0547715869
 10
-13.5870940961
 20
-14.0549466443
 10
-13.6262169353
 20
-14.0583887534
 10
-13.6645056568
 20
-14.0650874739
 10
-13.701825012
 20
-14.0750171774
 10
-13.7222982156
 20
-14.0819925598
  0
LINE
  5
282
100
AcDbEntity
  8
268
100
AcDbLine
 62
250
  6
CONTINUOUS
 10
3.4287020721
 20
-23.4879699123
 11
3.3852797461
 21
-23.4662587493
  0
LINE
  5
283
100
AcDbEntity
  8
268
100
AcDbLine
 62
7
  6
CONTINUOUS
 10
-0.7484022229
 20
-21.2853723493
 11
2.7751425278
 21
-23.0471447247
  0
LINE
  5
284
100
AcDbEntity
  8
268
100
AcDbLine
 62
250
  6
CONTINUOUS
 10
3.3408279528
 20
-23.2887027668
 11
3.9559467878
 21
-23.5962621842
  0
LINE
  5
285
100
AcDbEntity
  8
268
100
AcDbLine
 62
7
  6
CONTINUOUS
 10
3.3408279528
 20
-23.2850826172
 11
3.9792261611
 21
-23.6042817214
  0
LINE
  5
286
100
AcDbEntity
  8
268
100
AcDbLine
 62
7
  6
CONTINUOUS
 10
-0.6079779691
 20
-19.7056770387
 11
2.7751425278
 21
-21.3972372872
  0
LWPOLYLINE
  5
287
100
AcDbEntity
  8
RACCORDO
100
AcDbPolyline
 62
7
  6
CONTINUOUS
 90
32
 70
0
 10
-13.2608725283
 20
-13.912449257
 10
-13.2438283182
 20
-13.9212034657
 10
-13.1726727233
 20
-13.9626854484
 10
-13.1022313626
 20
-14.0117968959
 10
-13.0331756662
 20
-14.0681271881
 10
-12.9660574432
 20
-14.1312066469
 10
-12.9013413707
 20
-14.2006250546
 10
-12.8395487225
 20
-14.2758426554
 10
-12.7811657784
 20
-14.3562411635
 10
-12.7265710755
 20
-14.4413338452
 10
-12.6761975666
 20
-14.5304794659
 10
-12.6304235109
 20
-14.6229761595
 10
-12.5895414264
 20
-14.7182755992
 10
-12.5538845736
 20
-14.8156547098
 10
-12.5237170024
 20
-14.9143646976
 10
-12.4992477846
 20
-15.0138136561
 10
-12.4807000308
 20
-15.1132267489
 10
-12.4682177153
 20
-15.2118208827
 10
-12.4619168823
 20
-15.3089445304
 10
-12.4618858281
 20
-15.403809145
 10
-12.4681239164
 20
-15.4956062982
 10
-12.4806044236
 20
-15.5835767579
 10
-12.4992345512
 20
-15.6669710742
 10
-12.5238106743
 20
-15.7450266788
 10
-12.5540513253
 20
-15.8169400033
 10
-12.589578044
 20
-15.8820487298
 10
-12.6300051865
 20
-15.9399435012
 10
-12.6750013204
 20
-15.9902864884
 10
-12.7240685298
 20
-16.0327167099
 10
-12.7769081537
 20
-16.0671643724
 10
-12.8336912829
 20
-16.0936738888
 10
-12.8429665883
 20
-16.0971049813
  0
LINE
  5
288
100
AcDbEntity
  8
RACCORDO
100
AcDbLine
 62
250
  6
CONTINUOUS
 10
-13.2867125611
 20
-13.8517792115
 11
-13.2127018238
 21
-13.8927387954
  0
LWPOLYLINE
  5
289
100
AcDbEntity
  8
RACCORDO
100
AcDbPolyline
 62
250
  6
CONTINUOUS
 90
29
 70
0
 10
-13.2127018238
 20
-13.8927387954
 10
-13.140411042
 20
-13.9403111942
 10
-13.0698394983
 20
-13.9944961146
 10
-13.000517265
 20
-14.0557413613
 10
-12.9329113871
 20
-14.1235979505
 10
-12.8684260848
 20
-14.1967201931
 10
-12.8071459393
 20
-14.2752064981
 10
-12.7489812403
 20
-14.3589563547
 10
-12.6950748566
 20
-14.4463257272
 10
-12.6455222584
 20
-14.5373550085
 10
-12.600221808
 20
-14.6320012702
 10
-12.5600215956
 20
-14.7284958542
 10
-12.525003509
 20
-14.8269048573
 10
-12.4950797659
 20
-14.9271597478
 10
-12.4708457125
 20
-15.0272906455
 10
-12.4524164919
 20
-15.1272778536
 10
-12.4396728086
 20
-15.2271393396
 10
-12.4328608596
 20
-15.3249627509
 10
-12.432095177
 20
-15.4207189978
 10
-12.4372596884
 20
-15.5144365117
 10
-12.4482575994
 20
-15.6042904262
 10
-12.4652051406
 20
-15.6902013031
 10
-12.4879875738
 20
-15.7722491777
 10
-12.5161645844
 20
-15.8488496121
 10
-12.5498480987
 20
-15.9198992269
 10
-12.5889303418
 20
-15.9855031099
 10
-12.632643969
 20
-16.0443905751
 10
-12.6810759562
 20
-16.0964240159
 10
-12.7341452073
 20
-16.1417434786
  0
LWPOLYLINE
  5
28A
100
AcDbEntity
  8
218140000
100
AcDbPolyline
 62
250
  6
CONTINUOUS
 90
10
 70
0
 10
-1.2755732057
 20
22.0844124203
 10
-1.2703160783
 20
22.0899399258
 10
-1.2650816102
 20
22.0947028834
 10
-1.2598924039
 20
22.0986785119
 10
-1.2547689659
 20
22.1018484129
 10
-1.2497357293
 20
22.1041947411
 10
-1.2448205342
 20
22.1057035922
 10
-1.2400424127
 20
22.1063690544
 10
-1.235424209
 20
22.1061878747
 10
-1.2333848941
 20
22.1058262077
  0
LWPOLYLINE
  5
28B
100
AcDbEntity
  8
218140000
100
AcDbPolyline
 62
250
  6
CONTINUOUS
 90
10
 70
0
 10
-1.5321285767
 20
21.365872383
 10
-1.5511694652
 20
21.3478128179
 10
-1.5690175207
 20
21.3271023526
 10
-1.5853058171
 20
21.3041667596
 10
-1.5996994943
 20
21.2794775563
 10
-1.6119026424
 20
21.2535423113
 10
-1.6216643852
 20
21.2268942098
 10
-1.6287840375
 20
21.2000810922
 10
-1.6331152312
 20
21.1736541912
 10
-1.6345689243
 20
21.1481567996
  0
LWPOLYLINE
  5
28C
100
AcDbEntity
  8
218140000
100
AcDbPolyline
 62
250
  6
CONTINUOUS
 90
10
 70
0
 10
-0.7737229781
 20
20.9866695837
 10
-0.7927644306
 20
20.9686093893
 10
-0.8106128224
 20
20.947898329
 10
-0.8269012382
 20
20.924962269
 10
-0.841294839
 20
20.9002728204
 10
-0.8534977784
 20
20.8743375835
 10
-0.8632592645
 20
20.8476897025
 10
-0.8703786728
 20
20.8208769903
 10
-0.8747096864
 20
20.7944506739
 10
-0.8761633234
 20
20.7689539992
  0
LWPOLYLINE
  5
28D
100
AcDbEntity
  8
218140000
100
AcDbPolyline
 62
250
  6
CONTINUOUS
 90
16
 70
0
 10
-2.0474401405
 20
21.0358963743
 10
-2.0232108051
 20
21.0587593768
 10
-1.9971694769
 20
21.0797786886
 10
-1.9696142395
 20
21.0988776412
 10
-1.9408453122
 20
21.1161084251
 10
-1.9111876299
 20
21.1313144959
 10
-1.8809897932
 20
21.1441352649
 10
-1.8505750601
 20
21.1545292747
 10
-1.8202582849
 20
21.1625436853
 10
-1.7903703826
 20
21.1679829017
 10
-1.7612586388
 20
21.1708597947
 10
-1.7331484813
 20
21.171270659
 10
-1.7061790118
 20
21.1691497187
 10
-1.6805746387
 20
21.164514531
 10
-1.656627299
 20
21.1574869156
 10
-1.6345689243
 20
21.1481567996
  0
LINE
  5
28E
100
AcDbEntity
  8
218140000
100
AcDbLine
 62
250
  6
CONTINUOUS
 10
-0.7557039559
 20
20.5249441049
 11
-1.1823229948
 21
20.129929346
  0
LINE
  5
28F
100
AcDbEntity
  8
218140000
100
AcDbLine
 62
7
  6
CONTINUOUS
 10
-0.8525043269
 20
20.524783865
 11
-1.245068032
 21
20.1613018646
  0
LINE
  5
290
100
AcDbEntity
  8
268
100
AcDbLine
 62
7
  6
CONTINUOUS
 10
0.1317257529
 20
17.6870894228
 11
1.714482356
 21
18.4990735201
  0
LINE
  5
291
100
AcDbEntity
  8
268
100
AcDbLine
 62
7
  6
CONTINUOUS
 10
-1.5423298234
 20
17.8939163552
 11
-1.0432340906
 21
18.1458809358
  0
LINE
  5
292
100
AcDbEntity
  8
268
100
AcDbLine
 62
7
  6
CONTINUOUS
 10
-1.0432340906
 20
18.1458809358
 11
4.3710386046
 21
20.8264935332
  0
LINE
  5
293
100
AcDbEntity
  8
268
100
AcDbLine
 62
7
  6
CONTINUOUS
 10
1.714482356
 20
18.4990735201
 11
2.2489322347
 21
18.7594209867
  0
LINE
  5
294
100
AcDbEntity
  8
218140000
100
AcDbLine
 62
7
  6
CONTINUOUS
 10
12.6330096072
 20
24.1549347107
 11
9.2026057067
 21
22.5175978978
  0
LWPOLYLINE
  5
295
100
AcDbEntity
  8
RACCORDO
100
AcDbPolyline
 62
7
  6
CONTINUOUS
 90
4
 70
0
 10
-13.3941053303
 20
-13.8597769263
 10
-13.3332005887
 20
-13.8803865909
 10
-13.2720420704
 20
-13.9069590409
 10
-13.2609433298
 20
-13.9124078363
  0
LWPOLYLINE
  5
296
100
AcDbEntity
  8
RACCORDO
100
AcDbPolyline
 62
250
  6
CONTINUOUS
 90
17
 70
0
 10
-14.1168819316
 20
-14.8408551228
 10
-14.1251120115
 20
-14.7785423052
 10
-14.1316927449
 20
-14.6882266028
 10
-14.1327311299
 20
-14.599781924
 10
-14.1282403473
 20
-14.5138004242
 10
-14.1182094017
 20
-14.4308399513
 10
-14.1027242253
 20
-14.3514509161
 10
-14.0819088704
 20
-14.2761499949
 10
-14.0558636029
 20
-14.205408706
 10
-14.0247710458
 20
-14.139686603
 10
-13.988857076
 20
-14.0794238703
 10
-13.9483363104
 20
-14.0250112919
 10
-13.9034935427
 20
-13.9768085311
 10
-13.8546365454
 20
-13.9351238126
 10
-13.8020548183
 20
-13.9002101409
 10
-13.7461041106
 20
-13.8722988518
 10
-13.7207051034
 20
-13.862353704
  0
LINE
  5
297
100
AcDbEntity
  8
268
100
AcDbLine
 62
7
  6
CONTINUOUS
 10
-13.806511491
 20
22.4377380269
 11
-13.806511491
 21
22.4133425216
  0
LINE
  5
298
100
AcDbEntity
  8
268
100
AcDbLine
 62
7
  6
CONTINUOUS
 10
-13.4073181941
 20
23.8109890595
 11
-13.4073181941
 21
24.0643604533
  0
LINE
  5
299
100
AcDbEntity
  8
218140000
100
AcDbLine
 62
250
  6
CONTINUOUS
 10
-0.7226040311
 20
20.5586704865
 11
-0.7557039559
 21
20.5249441049
  0
LWPOLYLINE
  5
29A
100
AcDbEntity
  8
218140000
100
AcDbPolyline
 62
7
  6
CONTINUOUS
 90
13
 70
0
 10
9.6171832184
 20
21.4420193576
 10
9.4881984003
 20
21.3716656392
 10
9.369285116
 20
21.2970075906
 10
9.2610162826
 20
21.2184049097
 10
9.1639135326
 20
21.1362362995
 10
9.0784447012
 20
21.0508976433
 10
9.0050215721
 20
20.9628000977
 10
8.9439978935
 20
20.8723681112
 10
8.8956676737
 20
20.7800373797
 10
8.8602637649
 20
20.686252747
 10
8.8379567408
 20
20.5914660618
 10
8.8288540754
 20
20.4961340007
 10
8.8286219536
 20
20.4782691192
  0
LINE
  5
29B
100
AcDbEntity
  8
268
100
AcDbLine
 62
250
  6
CONTINUOUS
 10
3.8549087859
 20
17.205368951
 11
9.213235566
 21
20.0963091779
  0
LINE
  5
29C
100
AcDbEntity
  8
268
100
AcDbLine
 62
250
  6
CONTINUOUS
 10
3.4882886327
 20
16.7591568248
 11
9.1290839984
 21
19.8024953341
  0
LINE
  5
29D
100
AcDbEntity
  8
715
100
AcDbLine
 62
7
  6
CONTINUOUS
 10
9.2863523583
 20
20.1701172773
 11
9.9371260131
 21
20.5132830934
  0
LINE
  5
29E
100
AcDbEntity
  8
715
100
AcDbLine
 62
250
  6
CONTINUOUS
 10
9.9369982311
 20
20.5132157065
 11
9.9371260131
 21
20.5132830934
  0
LINE
  5
29F
100
AcDbEntity
  8
268
100
AcDbLine
 62
250
  6
CONTINUOUS
 10
3.3998986779
 20
16.6238636436
 11
9.1290839984
 21
19.59023618
  0
LINE
  5
2A0
100
AcDbEntity
  8
268
100
AcDbLine
 62
7
  6
CONTINUOUS
 10
3.5196648085
 20
16.5639805783
 11
9.2112937108
 21
19.5109077099
  0
LINE
  5
2A1
100
AcDbEntity
  8
218140000
100
AcDbLine
 62
7
  6
CONTINUOUS
 10
13.6293391969
 20
23.4834191503
 11
9.6171832184
 21
21.4420193576
  0
LINE
  5
2A2
100
AcDbEntity
  8
268
100
AcDbLine
 62
7
  6
CONTINUOUS
 10
1.739547162
 20
16.8831787182
 11
3.3408279528
 21
17.6859007217
  0
LINE
  5
2A3
100
AcDbEntity
  8
715
100
AcDbLine
 62
7
  6
CONTINUOUS
 10
10.0654134419
 20
20.290191362
 11
10.5603881887
 21
20.5376787354
  0
LINE
  5
2A4
100
AcDbEntity
  8
268
100
AcDbLine
 62
7
  6
CONTINUOUS
 10
3.3408279528
 20
17.6859007217
 11
3.8690951245
 21
17.9493395418
  0
LINE
  5
2A5
100
AcDbEntity
  8
218140000
100
AcDbLine
 62
7
  6
CONTINUOUS
 10
13.6293391969
 20
23.075567883
 11
9.6171832184
 21
21.1206950754
  0
LINE
  5
2A6
100
AcDbEntity
  8
268
100
AcDbLine
 62
250
  6
CONTINUOUS
 10
3.2513057428
 20
18.3202116035
 11
8.023144721
 21
20.6142870899
  0
LINE
  5
2A7
100
AcDbEntity
  8
268
100
AcDbLine
 62
250
  6
CONTINUOUS
 10
3.4789212427
 20
18.2064038536
 11
8.4649855889
 21
20.6034688096
  0
LINE
  5
2A8
100
AcDbEntity
  8
268
100
AcDbLine
 62
7
  6
CONTINUOUS
 10
1.9619697295
 20
14.5291019113
 11
2.7751425278
 21
14.8134035793
  0
LINE
  5
2A9
100
AcDbEntity
  8
268
100
AcDbLine
 62
7
  6
CONTINUOUS
 10
-12.9933386926
 20
22.0067561224
 11
-12.9933386926
 21
21.6165568184
  0
LINE
  5
2AA
100
AcDbEntity
  8
268
100
AcDbLine
 62
7
  6
CONTINUOUS
 10
-12.7043252398
 20
22.9044298049
 11
-12.7043252398
 21
23.3567607805
  0
LINE
  5
2AB
100
AcDbEntity
  8
268
100
AcDbLine
 62
7
  6
CONTINUOUS
 10
-11.8015417319
 20
23.2614722222
 11
-11.8015417319
 21
23.0081008285
  0
LINE
  5
2AC
100
AcDbEntity
  8
268
100
AcDbLine
 62
7
  6
CONTINUOUS
 10
-11.0903211238
 20
22.0974277469
 11
-11.0903211238
 21
22.7345973056
  0
LINE
  5
2AD
100
AcDbEntity
  8
284
100
AcDbLine
 62
7
  6
CONTINUOUS
 10
-6.8164403191
 20
18.9183069356
 11
-6.8333591296
 21
18.8682871796
  0
LWPOLYLINE
  5
2AE
100
AcDbEntity
  8
268
100
AcDbPolyline
 62
7
  6
CONTINUOUS
 90
5
 70
0
 10
9.2115022045
 20
19.5110060211
 10
9.2117366414
 20
19.5111390229
 10
9.2126638773
 20
19.5119666943
 10
9.2131702948
 20
19.5130177657
 10
9.2132820401
 20
19.51396201
  0
LINE
  5
2AF
100
AcDbEntity
  8
268
100
AcDbLine
 62
250
  6
CONTINUOUS
 10
3.482249309
 20
15.8831392361
 11
1.714482356
 21
14.9803615366
  0
LINE
  5
2B0
100
AcDbEntity
  8
268
100
AcDbLine
 62
250
  6
CONTINUOUS
 10
3.7297366824
 20
15.4562751161
 11
1.9619697295
 21
14.5534974166
  0
LINE
  5
2B1
100
AcDbEntity
  8
268
100
AcDbLine
 62
7
  6
CONTINUOUS
 10
3.3408279528
 20
15.9538499142
 11
2.2739970406
 21
15.4152686647
  0
LINE
  5
2B2
100
AcDbEntity
  8
715
100
AcDbLine
 62
7
  6
CONTINUOUS
 10
13.0285661012
 20
20.7181785877
 11
11.7171017902
 21
20.0624464322
  0
LINE
  5
2B3
100
AcDbEntity
  8
715
100
AcDbLine
 62
7
  6
CONTINUOUS
 10
13.8770968089
 20
20.2939158042
 11
12.9982041578
 21
19.8544694786
  0
LINE
  5
2B4
100
AcDbEntity
  8
268
100
AcDbLine
 62
250
  6
CONTINUOUS
 10
4.1893560902
 20
16.2291349374
 11
3.482249309
 21
15.8831392361
  0
LINE
  5
2B5
100
AcDbEntity
  8
268
100
AcDbLine
 62
250
  6
CONTINUOUS
 10
4.4368434636
 20
15.8022708175
 11
3.7297366824
 21
15.4562751161
  0
LINE
  5
2B6
100
AcDbEntity
  8
218140000
100
AcDbLine
 62
7
  6
CONTINUOUS
 10
9.7950856382
 20
19.0113909921
 11
4.1292210693
 21
16.2592024479
  0
LINE
  5
2B7
100
AcDbEntity
  8
218140000
100
AcDbLine
 62
7
  6
CONTINUOUS
 10
18.1403446223
 20
21.4012672032
 11
10.5477797221
 21
17.7131857311
  0
LINE
  5
2B8
100
AcDbEntity
  8
218140000
100
AcDbLine
 62
7
  6
CONTINUOUS
 10
17.3346726863
 20
21.8041031712
 11
13.9135266165
 21
20.1621374429
  0
LWPOLYLINE
  5
2B9
100
AcDbEntity
  8
715
100
AcDbPolyline
 62
7
  6
CONTINUOUS
 90
10
 70
0
 10
13.877067913
 20
20.2939013562
 10
13.8884643773
 20
20.2990700114
 10
13.8996847798
 20
20.3031219078
 10
13.9107291205
 20
20.3060570454
 10
13.9216923794
 20
20.3078755767
 10
13.9324795766
 20
20.3085773492
 10
13.942805772
 20
20.3081619048
 10
13.9525759858
 20
20.3066290909
 10
13.9618851978
 20
20.3039790602
 10
13.9707334081
 20
20.3002118126
  0
LWPOLYLINE
  5
2BA
100
AcDbEntity
  8
218140000
100
AcDbPolyline
 62
7
  6
CONTINUOUS
 90
9
 70
0
 10
18.1403446223
 20
21.4012672032
 10
18.1964905
 20
21.4265302415
 10
18.249723211
 20
21.445982734
 10
18.2995936714
 20
21.4596123449
 10
18.3455644412
 20
21.4675200324
 10
18.3873564027
 20
21.4697530103
 10
18.4249493128
 20
21.466295996
 10
18.4579836014
 20
21.4573593919
 10
18.4725455518
 20
21.450986334
  0
LWPOLYLINE
  5
2BB
100
AcDbEntity
  8
RACCORDO
100
AcDbPolyline
 62
250
  6
CONTINUOUS
 90
22
 70
0
 10
-2.2039464398
 20
13.0440586298
 10
-2.2794818458
 20
13.012474041
 10
-2.3551367944
 20
12.9743169324
 10
-2.4305355156
 20
12.9297810378
 10
-2.5053031073
 20
12.8790957511
 10
-2.5790689468
 20
12.8225140667
 10
-2.6514680256
 20
12.7603087174
 10
-2.7221491886
 20
12.6927821591
 10
-2.7907515666
 20
12.6202805114
 10
-2.8569093968
 20
12.5431831876
 10
-2.9202821503
 20
12.4618966426
 10
-2.9805709838
 20
12.3768157169
 10
-3.0374918361
 20
12.2883329555
 10
-3.0907706771
 20
12.1968701668
 10
-3.1401283972
 20
12.1029036216
 10
-3.1852999384
 20
12.006928184
 10
-3.2260554093
 20
11.909440274
 10
-3.2622012393
 20
11.8109148091
 10
-3.2935606937
 20
11.7118268163
 10
-3.3199769249
 20
11.6126663765
 10
-3.3413164574
 20
11.5139365911
 10
-3.3574718066
 20
11.4161322337
  0
LWPOLYLINE
  5
2BC
100
AcDbEntity
  8
RACCORDO
100
AcDbPolyline
 62
250
  6
CONTINUOUS
 90
22
 70
0
 10
-1.7023748263
 20
12.0409832358
 10
-1.7380687153
 20
12.0263348593
 10
-1.7735170682
 20
12.0087960887
 10
-1.8087198849
 20
11.9883669241
 10
-1.8438656152
 20
11.9649118739
 10
-1.8787658094
 20
11.9385664297
 10
-1.9128551183
 20
11.909737066
 10
-1.9461091565
 20
11.8783887927
 10
-1.9785523093
 20
11.8445565998
 10
-2.0096923833
 20
11.8087519315
 10
-2.0395047935
 20
11.7709512934
 10
-2.0680141248
 20
11.7311781798
 10
-2.0948019386
 20
11.6900145178
 10
-2.1198477974
 20
11.6474297619
 10
-2.1431721387
 20
11.6034544576
 10
-2.1644178368
 20
11.5587621684
 10
-2.1835518693
 20
11.5133313446
 10
-2.2006072587
 20
11.4671835358
 10
-2.2153259462
 20
11.4210569546
 10
-2.2276219123
 20
11.3751976717
 10
-2.2375811766
 20
11.3293596163
 10
-2.2452037391
 20
11.2835427884
  0
LINE
  5
2BD
100
AcDbEntity
  8
RACCORDO
100
AcDbLine
 62
250
  6
CONTINUOUS
 10
1.8445453426
 20
14.5293349435
 11
-2.2039464398
 21
13.0440586298
  0
LINE
  5
2BE
100
AcDbEntity
  8
RACCORDO
100
AcDbLine
 62
250
  6
CONTINUOUS
 10
2.346116956
 20
13.5262595495
 11
-1.7023748263
 21
12.0409832358
  0
LINE
  5
2BF
100
AcDbEntity
  8
268
100
AcDbLine
 62
7
  6
CONTINUOUS
 10
-10.0234902116
 20
22.6360089964
 11
-10.0234902116
 21
24.368059804
  0
LINE
  5
2C0
100
AcDbEntity
  8
268
100
AcDbLine
 62
7
  6
CONTINUOUS
 10
-9.3204972574
 20
24.5033813017
 11
-9.3204972574
 21
24.2424523254
  0
LINE
  5
2C1
100
AcDbEntity
  8
218140000
100
AcDbLine
 62
250
  6
CONTINUOUS
 10
18.8988513172
 20
19.5059346953
 11
4.4368434636
 21
12.01801093
  0
LINE
  5
2C2
100
AcDbEntity
  8
218140000
100
AcDbLine
 62
250
  6
CONTINUOUS
 10
18.5598878333
 20
20.6776622017
 11
4.4368434636
 21
13.6558060034
  0
LINE
  5
2C3
100
AcDbEntity
  8
268
100
AcDbLine
 62
7
  6
CONTINUOUS
 10
-7.8457332087
 20
22.1099958646
 11
-7.8457332087
 21
20.8952624784
  0
LINE
  5
2C4
100
AcDbEntity
  8
268
100
AcDbLine
 62
250
  6
CONTINUOUS
 10
-7.757865243
 20
22.0034869078
 11
-7.757865243
 21
20.7885320417
  0
LINE
  5
2C5
100
AcDbEntity
  8
268
100
AcDbLine
 62
7
  6
CONTINUOUS
 10
-7.5839718166
 20
19.3020726844
 11
-7.5839718166
 21
19.2435935231
  0
LWPOLYLINE
  5
2C6
100
AcDbEntity
  8
RACCORDO
100
AcDbPolyline
 62
250
  6
CONTINUOUS
 90
15
 70
0
 10
-6.5837300807
 20
-24.8774917357
 10
-6.5844792667
 20
-24.9698477103
 10
-6.5798779968
 20
-25.0594049759
 10
-6.5699496808
 20
-25.1457159224
 10
-6.5547438522
 20
-25.2283463497
 10
-6.5343373548
 20
-25.3068872195
 10
-6.5088316459
 20
-25.3809547703
 10
-6.4783470132
 20
-25.4501867648
 10
-6.4430370019
 20
-25.5142259189
 10
-6.4030914763
 20
-25.5727344336
 10
-6.3587199975
 20
-25.6254133196
 10
-6.3101374355
 20
-25.6720155635
 10
-6.2575734123
 20
-25.7123226679
 10
-6.2012734507
 20
-25.7461373088
 10
-6.191880216
 20
-25.7509613777
  0
LINE
  5
2C7
100
AcDbEntity
  8
268
100
AcDbLine
 62
7
  6
CONTINUOUS
 10
3.9559467878
 20
17.3283419551
 11
3.4287020721
 21
16.6866342271
  0
LWPOLYLINE
  5
2C8
100
AcDbEntity
  8
218140000
100
AcDbPolyline
 62
250
  6
CONTINUOUS
 90
32
 70
0
 10
19.0065106074
 20
13.9596375734
 10
19.0266017124
 20
13.9655842588
 10
19.045921512
 20
13.969435365
 10
19.0644471312
 20
13.9712179051
 10
19.0821421311
 20
13.9708340016
 10
19.0989808635
 20
13.9684511492
 10
19.1149580558
 20
13.9644917636
 10
19.1299978
 20
13.9590305696
 10
19.144111443
 20
13.9520631429
 10
19.1574339733
 20
13.9438834394
 10
19.1699490908
 20
13.9345885499
 10
19.1816048689
 20
13.924159199
 10
19.1924850143
 20
13.9127144441
 10
19.2025886732
 20
13.9003303622
 10
19.2118374596
 20
13.8870274537
 10
19.2201956941
 20
13.8728472382
 10
19.2276442121
 20
13.8578672103
 10
19.2341123418
 20
13.8421273916
 10
19.2394825053
 20
13.8256208934
 10
19.2437300174
 20
13.8084646772
 10
19.2467797588
 20
13.7906829172
 10
19.2484260529
 20
13.7721478102
 10
19.2486595039
 20
13.7530203986
 10
19.2473652553
 20
13.7333286163
 10
19.2441490243
 20
13.7127885992
 10
19.239007496
 20
13.6915957262
 10
19.2317701399
 20
13.6698371159
 10
19.2217453622
 20
13.6471356469
 10
19.2089386183
 20
13.6237687343
 10
19.1931113099
 20
13.5998697852
 10
19.1731499861
 20
13.5749332034
 10
19.1514454969
 20
13.5518934727
  0
LWPOLYLINE
  5
2C9
100
AcDbEntity
  8
RACCORDO
100
AcDbPolyline
 62
250
  6
CONTINUOUS
 90
22
 70
0
 10
-5.4628586578
 20
-24.9132981837
 10
-5.4631590957
 20
-24.9565509195
 10
-5.4609799715
 20
-24.9981667693
 10
-5.4563212853
 20
-25.0381457332
 10
-5.4491364916
 20
-25.0766901244
 10
-5.4394721358
 20
-25.1135976298
 10
-5.4274678539
 20
-25.1482613093
 10
-5.4130861613
 20
-25.1806315049
 10
-5.3963645426
 20
-25.2107578747
 10
-5.3775550876
 20
-25.2381824535
 10
-5.3566297668
 20
-25.2628604109
 10
-5.3336166097
 20
-25.2848365774
 10
-5.3088517941
 20
-25.3037874791
 10
-5.2823028957
 20
-25.3196709209
 10
-5.2540023389
 20
-25.332529098
 10
-5.2243835748
 20
-25.3421651215
 10
-5.1934172109
 20
-25.348523253
 10
-5.1611326398
 20
-25.351659231
 10
-5.1280514908
 20
-25.3515433814
 10
-5.0943476402
 20
-25.3481658129
 10
-5.0598472116
 20
-25.341536417
 10
-5.0245502051
 20
-25.3316551935
  0
LWPOLYLINE
  5
2CA
100
AcDbEntity
  8
RACCORDO
100
AcDbPolyline
 62
250
  6
CONTINUOUS
 90
6
 70
0
 10
-5.7106072372
 20
-9.9201455184
 10
-5.9392441795
 20
-12.9324926186
 10
-6.1408987044
 20
-15.9347769304
 10
-6.3155454389
 20
-18.926621634
 10
-6.4631621627
 20
-21.9076512644
 10
-6.5837300807
 20
-24.8774917357
  0
LWPOLYLINE
  5
2CB
100
AcDbEntity
  8
RACCORDO
100
AcDbPolyline
 62
250
  6
CONTINUOUS
 90
8
 70
0
 10
-3.3574718066
 20
11.4161322337
 10
-3.7739946639
 20
8.3439980757
 10
-4.1638062735
 20
5.2792557339
 10
-4.5268579661
 20
2.2222900624
 10
-4.8631044568
 20
-0.8265150097
 10
-5.1725036012
 20
-3.8667767673
 10
-5.455016398
 20
-6.8981137563
 10
-5.7106072372
 20
-9.9201455184
  0
LWPOLYLINE
  5
2CC
100
AcDbEntity
  8
218140000
100
AcDbPolyline
 62
7
  6
CONTINUOUS
 90
9
 70
0
 10
-0.788642911
 20
20.6216655984
 10
-0.7902259051
 20
20.6138485208
 10
-0.7936482655
 20
20.6035769136
 10
-0.7994120041
 20
20.5910205645
 10
-0.8077307596
 20
20.576779145
 10
-0.8184093738
 20
20.5617198915
 10
-0.8312239281
 20
20.5463505183
 10
-0.8460672119
 20
20.5309000152
 10
-0.8525041489
 20
20.5247836719
  0
LINE
  5
2CD
100
AcDbEntity
  8
0
100
AcDbLine
 62
7
  6
CONTINUOUS
 10
-13.3020450184
 20
-13.8939232144
 11
-13.3221530379
 21
-13.9345789663
  0
LWPOLYLINE
  5
2CE
100
AcDbEntity
  8
715
100
AcDbPolyline
 62
250
  6
CONTINUOUS
 90
47
 70
0
 10
9.5023447617
 20
20.0770245978
 10
9.541277536
 20
20.1290665925
 10
9.5905607543
 20
20.18584727
 10
9.645694429
 20
20.2414378843
 10
9.7061979073
 20
20.2953804066
 10
9.7720702589
 20
20.3476333061
 10
9.8433124142
 20
20.3982381136
 10
9.9194465119
 20
20.4468613921
 10
10.0004631409
 20
20.4934891346
 10
10.0863717123
 20
20.5381353482
 10
10.176722598
 20
20.5805086173
 10
10.2717728782
 20
20.6206678153
 10
10.3712654727
 20
20.6585540688
 10
10.4739795131
 20
20.6936993419
 10
10.5803203818
 20
20.7260770618
 10
10.6898826964
 20
20.7557138014
 10
10.8002294408
 20
20.7822212436
 10
10.9113339577
 20
20.805420637
 10
11.0232229045
 20
20.8254907331
 10
11.1335392366
 20
20.8425794689
 10
11.2419297265
 20
20.8565533647
 10
11.3487476017
 20
20.8675459003
 10
11.4526955009
 20
20.8761054515
 10
11.5535313353
 20
20.8822080211
 10
11.6514971936
 20
20.8858776063
 10
11.7460219799
 20
20.8877345751
 10
11.83694372
 20
20.8878004439
 10
11.9244243882
 20
20.8860536964
 10
12.0083788116
 20
20.8830501511
 10
12.0886828849
 20
20.8788313504
 10
12.1654607135
 20
20.8733557519
 10
12.23899944
 20
20.8670545463
 10
12.3092659737
 20
20.8599685125
 10
12.3762934052
 20
20.8520568716
 10
12.4404681494
 20
20.8436284775
 10
12.5017758962
 20
20.8347178369
 10
12.5602309556
 20
20.8252904431
 10
12.6162626721
 20
20.8155516293
 10
12.6698672557
 20
20.8055301076
 10
12.7210484963
 20
20.7951971658
 10
12.7702471086
 20
20.7846720011
 10
12.8174662536
 20
20.7739774619
 10
12.8627027701
 20
20.7630906998
 10
12.90638789
 20
20.7520623662
 10
12.9486653571
 20
20.7409093449
 10
12.9893914275
 20
20.729614752
 10
13.0285661012
 20
20.7181785877
  0
LWPOLYLINE
  5
2CF
100
AcDbEntity
  8
715
100
AcDbPolyline
 62
250
  6
CONTINUOUS
 90
10
 70
0
 10
9.4206908922
 20
20.1106822398
 10
9.4229855803
 20
20.1137422505
 10
9.4758482314
 20
20.1744593485
 10
9.5349271019
 20
20.2337185658
 10
9.6000198813
 20
20.291326499
 10
9.6708957131
 20
20.3470999666
 10
9.7473888509
 20
20.4009279021
 10
9.8293802547
 20
20.4527290858
 10
9.9166288517
 20
20.5023467251
 10
9.9369982311
 20
20.5132157065
  0
LINE
  5
2D0
100
AcDbEntity
  8
268
100
AcDbLine
 62
7
  6
CONTINUOUS
 10
-2.6342243482
 20
16.8271989502
 11
-2.6342243482
 21
16.7687197889
  0
LINE
  5
2D1
100
AcDbEntity
  8
218140000
100
AcDbLine
 62
250
  6
CONTINUOUS
 10
-2.0474401405
 20
21.0358963743
 11
-2.0474401405
 21
20.5624879189
  0
LINE
  5
2D2
100
AcDbEntity
  8
268
100
AcDbLine
 62
250
  6
CONTINUOUS
 10
-1.965356175
 20
17.8922775077
 11
-1.965356175
 21
19.1072323737
  0
LWPOLYLINE
  5
2D3
100
AcDbEntity
  8
RACCORDO
100
AcDbPolyline
 62
250
  6
CONTINUOUS
 90
16
 70
0
 10
-1.7023748263
 20
12.0409832358
 10
-1.6997697257
 20
12.1174647281
 10
-1.703280028
 20
12.1962446193
 10
-1.7128673203
 20
12.2764601404
 10
-1.7284266361
 20
12.3572327948
 10
-1.7497876023
 20
12.4376779712
 10
-1.7767163023
 20
12.5169146319
 10
-1.8089178431
 20
12.5940749801
 10
-1.8460395785
 20
12.6683139434
 10
-1.8876749632
 20
12.738818424
 10
-1.9333680252
 20
12.8048162421
 10
-1.9826183458
 20
12.865584564
 10
-2.0348865242
 20
12.9204578077
 10
-2.089600115
 20
12.9688349727
 10
-2.1461599015
 20
13.0101862154
 10
-2.2039464379
 20
13.0440586305
  0
LINE
  5
2D4
100
AcDbEntity
  8
218140000
100
AcDbLine
 62
7
  6
CONTINUOUS
 10
-0.788300325
 20
20.6265359511
 11
-0.788642911
 21
20.6216655984
  0
LWPOLYLINE
  5
2D5
100
AcDbEntity
  8
RACCORDO
100
AcDbPolyline
 62
250
  6
CONTINUOUS
 90
7
 70
0
 10
-4.3371778453
 20
-6.9818622285
 10
-4.5920720243
 20
-9.9957175527
 10
-4.8201170446
 20
-13.0002937287
 10
-5.0212268262
 20
-15.9944535958
 10
-5.1953726755
 20
-18.9778181006
 10
-5.3425832861
 20
-21.9507662966
 10
-5.4628586578
 20
-24.9132981837
  0
LWPOLYLINE
  5
2D6
100
AcDbEntity
  8
RACCORDO
100
AcDbPolyline
 62
250
  6
CONTINUOUS
 90
7
 70
0
 10
-2.2452037391
 20
11.2835427884
 10
-2.6606970035
 20
8.2189759489
 10
-3.0494579026
 20
5.1625421773
 10
-3.4114864363
 20
2.1142414738
 10
-3.7468215357
 20
-0.9263081884
 10
-4.0554242698
 20
-3.9587247826
 10
-4.3371778453
 20
-6.9818622285
  0
LINE
  5
2D7
100
AcDbEntity
  8
268
100
AcDbLine
 62
7
  6
CONTINUOUS
 10
0.7153144439
 20
-4.8193681447
 11
1.0427309139
 21
-4.9830763797
  0
LWPOLYLINE
  5
2D8
100
AcDbEntity
  8
268
100
AcDbPolyline
 62
7
  6
CONTINUOUS
 90
13
 70
0
 10
9.2098624234
 20
-17.412813262
 10
9.2069712584
 20
-17.408920071
 10
9.2032824942
 20
-17.4045377308
 10
9.1988225303
 20
-17.399780438
 10
9.193629672
 20
-17.3946405834
 10
9.1877470148
 20
-17.3890932246
 10
9.1811864806
 20
-17.383225626
 10
9.1739795775
 20
-17.3770283181
 10
9.1661624318
 20
-17.3704831934
 10
9.1577384924
 20
-17.3636623173
 10
9.1487256009
 20
-17.3565802925
 10
9.1391637556
 20
-17.3491966492
 10
9.1290839984
 20
-17.3415000946
  0
LINE
  5
2D9
100
AcDbEntity
  8
268
100
AcDbLine
 62
7
  6
CONTINUOUS
 10
0.0802077466
 20
-11.9639677694
 11
0.7695175115
 21
-18.3888719186
  0
LINE
  5
2DA
100
AcDbEntity
  8
268
100
AcDbLine
 62
7
  6
CONTINUOUS
 10
0.4281802691
 20
-8.0494690491
 11
0.4693745029
 21
-8.4365754932
  0
LINE
  5
2DB
100
AcDbEntity
  8
218140000
100
AcDbLine
 62
7
  6
CONTINUOUS
 10
-0.7882953963
 20
20.6265930783
 11
-0.7882953608
 21
20.6264941021
  0
LINE
  5
2DC
100
AcDbEntity
  8
218140000
100
AcDbLine
 62
250
  6
CONTINUOUS
 10
-1.6345689243
 20
21.1481567996
 11
-1.6345689243
 21
20.3560523108
  0
LINE
  5
2DD
100
AcDbEntity
  8
268
100
AcDbLine
 62
7
  6
CONTINUOUS
 10
-1.6089195155
 20
22.1452513422
 11
-1.6089195155
 21
23.3955222014
  0
LINE
  5
2DE
100
AcDbEntity
  8
268
100
AcDbLine
 62
250
  6
CONTINUOUS
 10
-1.5423298234
 20
17.8939163552
 11
-1.5423298234
 21
19.108119828
  0
LINE
  5
2DF
100
AcDbEntity
  8
268
100
AcDbLine
 62
7
  6
CONTINUOUS
 10
-1.2553661249
 20
22.6661873168
 11
-1.2553661249
 21
23.2187455061
  0
LINE
  5
2E0
100
AcDbEntity
  8
268
100
AcDbLine
 62
250
  6
CONTINUOUS
 10
-1.1846554468
 20
24.8349538036
 11
-1.1846554468
 21
23.6031196222
  0
LINE
  5
2E1
100
AcDbEntity
  8
268
100
AcDbLine
 62
7
  6
CONTINUOUS
 10
-1.0967874812
 20
24.9399510176
 11
-1.0967874812
 21
23.7075824128
  0
LINE
  5
2E2
100
AcDbEntity
  8
268
100
AcDbLine
 62
7
  6
CONTINUOUS
 10
-1.0432340906
 20
19.3583165011
 11
-1.0432340906
 21
18.1458809358
  0
LINE
  5
2E3
100
AcDbEntity
  8
218140000
100
AcDbLine
 62
250
  6
CONTINUOUS
 10
-0.8761633256
 20
20.7689540002
 11
-0.8761633256
 21
20.5028778149
  0
LINE
  5
2E4
100
AcDbEntity
  8
268
100
AcDbLine
 62
7
  6
CONTINUOUS
 10
-0.0430000296
 20
-24.4241455558
 11
-0.0430000296
 21
-24.170774162
  0
LINE
  5
2E5
100
AcDbEntity
  8
268
100
AcDbLine
 62
7
  6
CONTINUOUS
 10
-0.0430000296
 20
17.1288299773
 11
-0.0430000296
 21
17.3822013711
  0
LWPOLYLINE
  5
2E6
100
AcDbEntity
  8
RACCORDO
100
AcDbPolyline
 62
250
  6
CONTINUOUS
 90
11
 70
0
 10
-5.0245502051
 20
-25.3316551935
 10
-5.0353279467
 20
-25.4057224048
 10
-5.0520746451
 20
-25.4758424994
 10
-5.0746068909
 20
-25.5412475246
 10
-5.1026779117
 20
-25.6012211667
 10
-5.1359802749
 20
-25.6551065965
 10
-5.174149254
 20
-25.7023136628
 10
-5.2167668237
 20
-25.7423253555
 10
-5.263366238
 20
-25.7747034678
 10
-5.3134371417
 20
-25.7990933958
 10
-5.33358778
 20
-25.8063146383
  0
LINE
  5
2E7
100
AcDbEntity
  8
218140000
100
AcDbLine
 62
7
  6
CONTINUOUS
 10
19.1514454969
 20
13.536973255
 11
20.2221685908
 21
14.2295079122
  0
LINE
  5
2E8
100
AcDbEntity
  8
268
100
AcDbLine
 62
7
  6
CONTINUOUS
 10
1.0427309139
 20
-4.9830763797
 11
2.7751425278
 21
-21.3972372872
  0
LWPOLYLINE
  5
2E9
100
AcDbEntity
  8
268
100
AcDbPolyline
 62
7
  6
CONTINUOUS
 90
24
 70
0
 10
1.5023503217
 20
23.7096280501
 10
1.5017771373
 20
23.7441004563
 10
1.5000780243
 20
23.7778503772
 10
1.4972529827
 20
23.810877813
 10
1.4932925482
 20
23.8432393704
 10
1.488206185
 20
23.8748784426
 10
1.4820222867
 20
23.9056252092
 10
1.4747396712
 20
23.9354607366
 10
1.4663595206
 20
23.9644039583
 10
1.4569137733
 20
23.9923418543
 10
1.4463899148
 20
24.0192880171
 10
1.4348004598
 20
24.045228854
 10
1.422214891
 20
24.0700105669
 10
1.4086397052
 20
24.0936078683
 10
1.3940684056
 20
24.1160460456
 10
1.3785509856
 20
24.1372471629
 10
1.3620676982
 20
24.1572242528
 10
1.3446382904
 20
24.1759642827
 10
1.3263719957
 20
24.1933502182
 10
1.3072833398
 20
24.2093591446
 10
1.2873577971
 20
24.2240139766
 10
1.2666610246
 20
24.237266425
 10
1.24516851
 20
24.2491222863
 10
-1.9840327561
 20
25.8637467966
  0
LINE
  5
2EA
100
AcDbEntity
  8
268
100
AcDbLine
 62
7
  6
CONTINUOUS
 10
0.6599929246
 20
16.2222707227
 11
0.6599929246
 21
16.6746016983
  0
LINE
  5
2EB
100
AcDbEntity
  8
268
100
AcDbLine
 62
7
  6
CONTINUOUS
 10
1.5023503217
 20
23.7096280501
 11
1.5023503217
 21
23.4388277575
  0
LINE
  5
2EC
100
AcDbEntity
  8
268
100
AcDbLine
 62
7
  6
CONTINUOUS
 10
1.5627764325
 20
16.57931314
 11
1.5627764325
 21
16.3259417462
  0
LINE
  5
2ED
100
AcDbEntity
  8
268
100
AcDbLine
 62
7
  6
CONTINUOUS
 10
1.5627764325
 20
-24.9736623931
 11
1.5627764325
 21
-25.2270337869
  0
LINE
  5
2EE
100
AcDbEntity
  8
268
100
AcDbLine
 62
7
  6
CONTINUOUS
 10
1.9619697295
 20
14.5534974166
 11
1.9619697295
 21
14.5291019113
  0
LINE
  5
2EF
100
AcDbEntity
  8
268
100
AcDbLine
 62
7
  6
CONTINUOUS
 10
1.9619697295
 20
-23.5760158552
 11
1.9619697295
 21
-23.6004113605
  0
LINE
  5
2F0
100
AcDbEntity
  8
268
100
AcDbLine
 62
7
  6
CONTINUOUS
 10
2.2739970406
 20
-23.997165916
 11
2.2739970406
 21
-23.592543825
  0
LINE
  5
2F1
100
AcDbEntity
  8
268
100
AcDbLine
 62
7
  6
CONTINUOUS
 10
2.2739970406
 20
15.4152686647
 11
2.2739970406
 21
16.0524382234
  0
LINE
  5
2F2
100
AcDbEntity
  8
RACCORDO
100
AcDbLine
 62
7
  6
CONTINUOUS
 10
-0.9918524469
 20
-24.0240529299
 11
2.346116956
 21
13.5262595495
  0
LINE
  5
2F3
100
AcDbEntity
  8
268
100
AcDbLine
 62
7
  6
CONTINUOUS
 10
2.7751425278
 20
13.1634961417
 11
1.0427309139
 21
-4.9830763797
  0
LWPOLYLINE
  5
2F4
100
AcDbEntity
  8
218140000
100
AcDbPolyline
 62
250
  6
CONTINUOUS
 90
28
 70
0
 10
18.8988513172
 20
13.8305797019
 10
18.9151297932
 20
13.8450455907
 10
18.9311824197
 20
13.8571999344
 10
18.9469759942
 20
13.8670459231
 10
18.9625070979
 20
13.8746334431
 10
18.9777075173
 20
13.8799179614
 10
18.9924555166
 20
13.8827562477
 10
19.0067490742
 20
13.8829743049
 10
19.0205350736
 20
13.8807399919
 10
19.0336457535
 20
13.8764117027
 10
19.0460289687
 20
13.8699144897
 10
19.0577320449
 20
13.8613003636
 10
19.0687571891
 20
13.8511119235
 10
19.0790737716
 20
13.83940753
 10
19.0887080296
 20
13.826107336
 10
19.0977304433
 20
13.8115503956
 10
19.1061198607
 20
13.7957842921
 10
19.1138586648
 20
13.7787464513
 10
19.1209871459
 20
13.7606164686
 10
19.1274722451
 20
13.7413984246
 10
19.1332683307
 20
13.7210751798
 10
19.1383633586
 20
13.6997975304
 10
19.1427033418
 20
13.6775634009
 10
19.1462336392
 20
13.6543572163
 10
19.1489110286
 20
13.6303097071
 10
19.150662252
 20
13.6054368156
 10
19.1514195251
 20
13.5796954886
 10
19.1514451331
 20
13.5746348662
  0
LWPOLYLINE
  5
2F5
100
AcDbEntity
  8
218140000
100
AcDbPolyline
 62
7
  6
CONTINUOUS
 90
76
 70
0
 10
19.0065106074
 20
13.9596375734
 10
19.0685240357
 20
14.011255779
 10
19.1288339287
 20
14.0618864195
 10
19.1874402863
 20
14.111529495
 10
19.2443038754
 20
14.160154054
 10
19.2994639292
 20
14.2077910479
 10
19.3530381475
 20
14.2545333308
 10
19.4050333712
 20
14.3003838463
 10
19.4554427595
 20
14.3453396508
 10
19.5043634901
 20
14.3894847668
 10
19.5518004266
 20
14.4328197254
 10
19.5977487054
 20
14.4753439955
 10
19.6422909131
 20
14.5171400062
 10
19.6854328025
 20
14.5582078036
 10
19.7271686207
 20
14.5985473416
 10
19.7675636964
 20
14.6382409118
 10
19.8066255174
 20
14.6772880352
 10
19.8443465959
 20
14.7156891908
 10
19.8807697968
 20
14.753528107
 10
19.9159058216
 20
14.7908037007
 10
19.9497439689
 20
14.827517055
 10
19.9822949992
 20
14.863755147
 10
20.0135770776
 20
14.8995181772
 10
20.043572039
 20
14.9348059452
 10
20.072236149
 20
14.9697048269
 10
20.0996001597
 20
15.0042174078
 10
20.125633319
 20
15.0383411024
 10
20.1501996361
 20
15.0721545301
 10
20.1733680889
 20
15.1057028957
 10
20.1950696996
 20
15.1389409943
 10
20.2149615442
 20
15.1718118307
 10
20.233119768
 20
15.2044324712
 10
20.2494682256
 20
15.2366858493
 10
20.2634355572
 20
15.268163771
 10
20.2749750037
 20
15.2988796286
 10
20.2841333242
 20
15.3288200296
 10
20.2904794363
 20
15.3575366022
 10
20.2939040919
 20
15.3849889786
 10
20.2945165391
 20
15.4112175264
 10
20.2922134395
 20
15.4358949769
 10
20.286829313
 20
15.4589835951
 10
20.2785296398
 20
15.480521116
 10
20.2677075211
 20
15.5002934754
 10
20.2542867444
 20
15.5181716815
 10
20.2383435223
 20
15.5342847261
 10
20.2204995941
 20
15.5488055207
 10
20.2008351209
 20
15.561683582
 10
20.1792699417
 20
15.5729693932
 10
20.156185312
 20
15.5829873156
 10
20.1316555339
 20
15.5917657761
 10
20.1056063054
 20
15.5992763477
 10
20.0781959767
 20
15.6057581115
 10
20.0494598716
 20
15.6112426842
 10
20.0193626664
 20
15.6156984489
 10
19.9879567397
 20
15.6192696362
 10
19.9552614728
 20
15.6219766276
 10
19.9212574845
 20
15.6237990415
 10
19.8859390098
 20
15.6248199636
 10
19.8493182686
 20
15.6250525562
 10
19.8113830412
 20
15.6244836571
 10
19.7720909036
 20
15.6231568648
 10
19.7314474077
 20
15.6210807675
 10
19.6894470017
 20
15.6182467771
 10
19.6460306061
 20
15.6146727281
 10
19.6012023585
 20
15.6103643392
 10
19.5549581213
 20
15.6053158917
 10
19.5072264016
 20
15.5995280639
 10
19.458017809
 20
15.5930062699
 10
19.4073217339
 20
15.5857450956
 10
19.355034855
 20
15.5777289772
 10
19.301164066
 20
15.5689629578
 10
19.2457024731
 20
15.5594419943
 10
19.1885260737
 20
15.5491353928
 10
19.1295935337
 20
15.5380329222
 10
19.0689461871
 20
15.5261448136
 10
19.006584034
 20
15.5134710671
  0
LWPOLYLINE
  5
2F6
100
AcDbEntity
  8
268
100
AcDbPolyline
 62
7
  6
CONTINUOUS
 90
31
 70
0
 10
3.7297366824
 20
15.4562751161
 10
3.7293970149
 20
15.4723081482
 10
3.7283805774
 20
15.4886367174
 10
3.7266898441
 20
15.5052159206
 10
3.7243288396
 20
15.5220000202
 10
3.7213040279
 20
15.5389430143
 10
3.7176242955
 20
15.5559987626
 10
3.7132994424
 20
15.5731203812
 10
3.7083410126
 20
15.5902607921
 10
3.702763162
 20
15.6073732968
 10
3.6965809178
 20
15.6244108667
 10
3.6898109275
 20
15.6413266588
 10
3.6824722691
 20
15.6580745664
 10
3.6745848271
 20
15.6746085736
 10
3.6661699432
 20
15.6908832263
 10
3.6572511481
 20
15.7068541446
 10
3.6478526944
 20
15.7224774586
 10
3.6380000926
 20
15.7377102226
 10
3.6277207473
 20
15.7525108769
 10
3.6170426819
 20
15.7668387781
 10
3.605994948
 20
15.7806545462
 10
3.5946081488
 20
15.7939204662
 10
3.582913389
 20
15.8066001222
 10
3.5709425459
 20
15.8186586701
 10
3.5587286669
 20
15.8300631689
 10
3.5463051724
 20
15.840782327
 10
3.5337059801
 20
15.8507866944
 10
3.5209657677
 20
15.8600489158
 10
3.5081194716
 20
15.8685436071
 10
3.4952021912
 20
15.8762474247
 10
3.482249309
 20
15.8831392361
  0
LINE
  5
2F7
100
AcDbEntity
  8
268
100
AcDbLine
 62
7
  6
CONTINUOUS
 10
2.7751425278
 20
14.8134035793
 11
2.7751425278
 21
13.1634961417
  0
LINE
  5
2F8
100
AcDbEntity
  8
268
100
AcDbLine
 62
7
  6
CONTINUOUS
 10
2.7751425278
 20
-21.3972372872
 11
2.7751425278
 21
-23.0471447247
  0
LINE
  5
2F9
100
AcDbEntity
  8
268
100
AcDbLine
 62
7
  6
CONTINUOUS
 10
3.3408279528
 20
-23.0705308567
 11
3.3408279528
 21
-24.5761389829
  0
LINE
  5
2FA
100
AcDbEntity
  8
268
100
AcDbLine
 62
7
  6
CONTINUOUS
 10
3.3408279528
 20
15.9538499142
 11
3.3408279528
 21
17.6859007217
  0
LINE
  5
2FB
100
AcDbEntity
  8
268
100
AcDbLine
 62
7
  6
CONTINUOUS
 10
4.0438209071
 20
17.8212222195
 11
4.0438209071
 21
17.5602932431
  0
LINE
  5
2FC
100
AcDbEntity
  8
268
100
AcDbLine
 62
7
  6
CONTINUOUS
 10
4.0438209071
 20
-23.7393108962
 11
4.0438209071
 21
-24.0002398726
  0
LINE
  5
2FD
100
AcDbEntity
  8
268
100
AcDbLine
 62
250
  6
CONTINUOUS
 10
4.3710386046
 20
22.0583321115
 11
4.3710386046
 21
20.8264935332
  0
LINE
  5
2FE
100
AcDbEntity
  8
218140000
100
AcDbLine
 62
7
  6
CONTINUOUS
 10
4.4368434636
 20
-18.5900511396
 11
4.4368434636
 21
12.01801093
  0
LINE
  5
2FF
100
AcDbEntity
  8
268
100
AcDbLine
 62
7
  6
CONTINUOUS
 10
4.4368434636
 20
-22.3743110272
 11
4.4368434636
 21
15.8022708175
  0
LINE
  5
300
100
AcDbEntity
  8
268
100
AcDbLine
 62
7
  6
CONTINUOUS
 10
4.457676033
 20
22.1627194869
 11
4.457676033
 21
20.9303509951
  0
LWPOLYLINE
  5
301
100
AcDbEntity
  8
268
100
AcDbPolyline
 62
7
  6
CONTINUOUS
 90
18
 70
0
 10
3.7297366824
 20
-22.735422107
 10
3.7293980379
 20
-22.751115983
 10
3.7283813945
 20
-22.7664280118
 10
3.7266898441
 20
-22.7813160731
 10
3.7243286269
 20
-22.7957390619
 10
3.7213042154
 20
-22.8096574443
 10
3.7176242955
 20
-22.8230333665
 10
3.7132992317
 20
-22.8358300267
 10
3.708341182
 20
-22.8480121978
 10
3.702763162
 20
-22.8595467673
 10
3.6965807141
 20
-22.8704019911
 10
3.6898110747
 20
-22.8805479684
 10
3.6824722691
 20
-22.889957144
 10
3.6745846356
 20
-22.8986036134
 10
3.6661700646
 20
-22.9064635386
 10
3.6572511481
 20
-22.9135156011
 10
3.6478525197
 20
-22.9197403741
 10
3.6397679083
 20
-22.9242346384
  0
LWPOLYLINE
  5
302
100
AcDbEntity
  8
RACCORDO
100
AcDbPolyline
 62
250
  6
CONTINUOUS
 90
11
 70
0
 10
-12.7341452073
 20
-16.1417434786
 10
-12.790834048
 20
-16.1794955006
 10
-12.8512073875
 20
-16.2095397852
 10
-12.9152065206
 20
-16.2320192158
 10
-12.9816292385
 20
-16.2465054737
 10
-13.0505641092
 20
-16.2528390674
 10
-13.1219276911
 20
-16.2511816327
 10
-13.1942598479
 20
-16.2415865792
 10
-13.2670749103
 20
-16.2240721474
 10
-13.3408614583
 20
-16.1986213166
 10
-13.4156202173
 20
-16.1652343911
  0
LWPOLYLINE
  5
303
100
AcDbEntity
  8
268
100
AcDbPolyline
 62
7
  6
CONTINUOUS
 90
4
 70
0
 10
9.2132820367
 20
-17.4208930696
 10
9.213047531
 20
-17.4191248556
 10
9.211906755
 20
-17.4161926299
 10
9.2098624234
 20
-17.412813262
  0
LINE
  5
304
100
AcDbEntity
  8
268
100
AcDbLine
 62
250
  6
CONTINUOUS
 10
9.1290839984
 20
19.8024953341
 11
9.1290839984
 21
19.59023618
  0
LINE
  5
305
100
AcDbEntity
  8
268
100
AcDbLine
 62
250
  6
CONTINUOUS
 10
9.1290839984
 20
-17.1517303905
 11
9.1290839984
 21
-17.3415000946
  0
LWPOLYLINE
  5
306
100
AcDbEntity
  8
268
100
AcDbPolyline
 62
7
  6
CONTINUOUS
 90
16
 70
0
 10
9.2132820367
 20
20.0901718399
 10
9.213047531
 20
20.0766575316
 10
9.211906755
 20
20.0568923404
 10
9.2098624234
 20
20.0370386898
 10
9.2069712584
 20
20.0171029059
 10
9.2032824942
 20
19.9971206696
 10
9.1988225303
 20
19.977158848
 10
9.193629672
 20
19.9572381303
 10
9.1877470148
 20
19.9373703789
 10
9.1811864806
 20
19.9176101528
 10
9.1739795775
 20
19.8979730861
 10
9.1661624318
 20
19.8784711215
 10
9.1577384924
 20
19.8591555226
 10
9.1487256009
 20
19.8400527962
 10
9.1391637556
 20
19.8211623023
 10
9.1290839984
 20
19.8024953341
  0
LWPOLYLINE
  5
307
100
AcDbEntity
  8
218140000
100
AcDbPolyline
 62
7
  6
CONTINUOUS
 90
7
 70
0
 10
18.8988513172
 20
13.8305797019
 10
18.9138494327
 20
13.8548638222
 10
18.930025588
 20
13.8780381525
 10
18.9473797831
 20
13.9001026927
 10
18.9659120181
 20
13.921057443
 10
18.9856222928
 20
13.9409024032
 10
19.0065106074
 20
13.9596375734
  0
LINE
  5
308
100
AcDbEntity
  8
268
100
AcDbLine
 62
250
  6
CONTINUOUS
 10
0.390316036
 20
-8.4754207628
 11
0.4693745029
 21
-8.4365754932
  0
LINE
  5
309
100
AcDbEntity
  8
268
100
AcDbLine
 62
7
  6
CONTINUOUS
 10
0.3826348311
 20
-8.5618300757
 11
0.430525006
 21
-8.5382993038
  0
LINE
  5
30A
100
AcDbEntity
  8
DRAFT
100
AcDbLine
 62
7
  6
CONTINUOUS
 10
-13.7222982173
 20
-14.0819925604
 11
-13.2610172155
 21
-13.9120565125
  0
LINE
  5
30B
100
AcDbEntity
  8
RACCORDO
100
AcDbLine
 62
7
  6
CONTINUOUS
 10
-13.7207051034
 20
-13.862353704
 11
-13.7195809368
 21
-13.8619499698
  0
LINE
  5
30C
100
AcDbEntity
  8
RACCORDO
100
AcDbLine
 62
250
  6
CONTINUOUS
 10
-3.3574718066
 20
11.4161322337
 11
-17.484742848
 21
18.4797677544
  0
LINE
  5
30D
100
AcDbEntity
  8
218140000
100
AcDbLine
 62
7
  6
CONTINUOUS
 10
8.8286219536
 20
20.4782691192
 11
8.830301382
 21
20.4485169687
  0
LWPOLYLINE
  5
30E
100
AcDbEntity
  8
268
100
AcDbPolyline
 62
7
  6
CONTINUOUS
 90
5
 70
0
 10
9.2132820401
 20
19.51396201
 10
9.2132693898
 20
19.5142969456
 10
9.2129749866
 20
19.5158147344
 10
9.2122996517
 20
19.5175313987
 10
9.2112555587
 20
19.5194511025
  0
LWPOLYLINE
  5
30F
100
AcDbEntity
  8
268
100
AcDbPolyline
 62
7
  6
CONTINUOUS
 90
7
 70
0
 10
9.213235566
 20
20.0963091779
 10
9.213143958
 20
20.1006169792
 10
9.2130047872
 20
20.1049283098
 10
9.2128180538
 20
20.1092431698
 10
9.2125837577
 20
20.1135615592
 10
9.2123018989
 20
20.1178834779
 10
9.2119724774
 20
20.122208926
  0
LINE
  5
310
100
AcDbEntity
  8
268
100
AcDbLine
 62
7
  6
CONTINUOUS
 10
9.213235566
 20
20.0963091779
 11
9.2132820367
 21
20.0901718399
  0
LINE
  5
311
100
AcDbEntity
  8
268
100
AcDbLine
 62
7
  6
CONTINUOUS
 10
9.2132820583
 20
20.0901162123
 11
9.2132820583
 21
19.5141530228
  0
LINE
  5
312
100
AcDbEntity
  8
268
100
AcDbLine
 62
7
  6
CONTINUOUS
 10
9.2132820583
 20
-17.1072050694
 11
9.2132820583
 21
-17.4207234617
  0
LINE
  5
313
100
AcDbEntity
  8
218140000
100
AcDbLine
 62
250
  6
CONTINUOUS
 10
9.6171832184
 20
21.4420193576
 11
9.6171832184
 21
21.1206950754
  0
LINE
  5
314
100
AcDbEntity
  8
218140000
100
AcDbLine
 62
7
  6
CONTINUOUS
 10
10.2998934164
 20
21.0203243766
 11
10.2998934164
 21
21.4533370785
  0
LINE
  5
315
100
AcDbEntity
  8
715
100
AcDbLine
 62
7
  6
CONTINUOUS
 10
11.2673571288
 20
20.1841942654
 11
11.2673571288
 21
19.7183194989
  0
LINE
  5
316
100
AcDbEntity
  8
268
100
AcDbLine
 62
7
  6
CONTINUOUS
 10
9.213235566
 20
-17.4216350244
 11
9.2132820367
 21
-17.4208930696
  0
LWPOLYLINE
  5
317
100
AcDbEntity
  8
RACCORDO
100
AcDbPolyline
 62
250
  6
CONTINUOUS
 90
45
 70
0
 10
-13.048195001
 20
-15.9520336069
 10
-13.0266686572
 20
-15.9438022603
 10
-12.9916950221
 20
-15.927546773
 10
-12.9581224133
 20
-15.9082504723
 10
-12.9260237286
 20
-15.8859765462
 10
-12.895450452
 20
-15.8607669156
 10
-12.8664880278
 20
-15.8326836135
 10
-12.8392571017
 20
-15.8018347201
 10
-12.8138596843
 20
-15.7683335402
 10
-12.7903820229
 20
-15.7322942032
 10
-12.7689026132
 20
-15.6938375962
 10
-12.7494987094
 20
-15.6531045939
 10
-12.7322442309
 20
-15.6102620734
 10
-12.7171826213
 20
-15.5654310486
 10
-12.7043437172
 20
-15.5186865427
 10
-12.6937708584
 20
-15.4701310026
 10
-12.6855229035
 20
-15.4199672546
 10
-12.6796434898
 20
-15.3684277121
 10
-12.6761538185
 20
-15.3157076834
 10
-12.6750633989
 20
-15.2619667531
 10
-12.6763758844
 20
-15.2073960362
 10
-12.6800854572
 20
-15.1521875956
 10
-12.6861787485
 20
-15.096522776
 10
-12.6946361317
 20
-15.0405799642
 10
-12.7054310545
 20
-14.9845416028
 10
-12.7185264462
 20
-14.9286054684
 10
-12.733874947
 20
-14.8729731754
 10
-12.7514209174
 20
-14.8178413581
 10
-12.7711060037
 20
-14.7633889685
 10
-12.7928676212
 20
-14.7097887965
 10
-12.8166364575
 20
-14.6572146775
 10
-12.8423290056
 20
-14.6058541722
 10
-12.8698510728
 20
-14.5558950054
 10
-12.899102357
 20
-14.5075154631
 10
-12.9299880118
 20
-14.4608688549
 10
-12.9624134331
 20
-14.4160980191
 10
-12.9962921273
 20
-14.373328289
 10
-13.0314886939
 20
-14.3327362572
 10
-13.067823139
 20
-14.2945221565
 10
-13.1051279835
 20
-14.2588406554
 10
-13.1433100229
 20
-14.2257600829
 10
-13.1822945802
 20
-14.1953374548
 10
-13.2219700074
 20
-14.1676619854
 10
-13.2621838886
 20
-14.1428420408
 10
-13.3028008575
 20
-14.1209608609
  0
LINE
  5
318
100
AcDbEntity
  8
RACCORDO
100
AcDbLine
 62
7
  6
CONTINUOUS
 10
-12.8418597664
 20
-16.0967228138
 11
-12.8430591109
 21
-16.0971534135
  0
LINE
  5
319
100
AcDbEntity
  8
RACCORDO
100
AcDbLine
 62
250
  6
CONTINUOUS
 10
-13.0482234422
 20
-15.9520436351
 11
-13.048195001
 21
-15.9520336069
  0
LINE
  5
31A
100
AcDbEntity
  8
DRAFT
100
AcDbLine
 62
7
  6
CONTINUOUS
 10
-13.0482234438
 20
-15.9520436357
 11
-12.5347376014
 21
-15.7710112931
  0
LWPOLYLINE
  5
31B
100
AcDbEntity
  8
RACCORDO
100
AcDbPolyline
 62
7
  6
CONTINUOUS
 90
13
 70
0
 10
-13.0482234409
 20
-15.9520436346
 10
-13.0824366449
 20
-15.9627317828
 10
-13.117571799
 20
-15.9709776044
 10
-13.1535283055
 20
-15.9767240243
 10
-13.1901811306
 20
-15.9799220989
 10
-13.227444639
 20
-15.980537436
 10
-13.2652803116
 20
-15.9785349282
 10
-13.3036271109
 20
-15.973873255
 10
-13.3423408332
 20
-15.9665259854
 10
-13.3812669788
 20
-15.9564881699
 10
-13.4202890184
 20
-15.9437621065
 10
-13.4593238028
 20
-15.9283461542
 10
-13.4982708669
 20
-15.9102482574
  0
LWPOLYLINE
  5
31C
100
AcDbEntity
  8
RACCORDO
100
AcDbPolyline
 62
7
  6
CONTINUOUS
 90
7
 70
0
 10
-13.7196704415
 20
-13.8619973288
 10
-13.6807801743
 20
-13.8500504373
 10
-13.6268916535
 20
-13.8394913049
 10
-13.5710226017
 20
-13.8351757005
 10
-13.5133535933
 20
-13.8371255717
 10
-13.4542846306
 20
-13.8453296727
 10
-13.3941053303
 20
-13.8597769263
  0
LINE
  5
31D
100
AcDbEntity
  8
RACCORDO
100
AcDbLine
 62
250
  6
CONTINUOUS
 10
-2.2039464398
 20
13.0440586298
 11
-16.3481565122
 21
20.1161636661
  0
LINE
  5
31E
100
AcDbEntity
  8
218140000
100
AcDbLine
 62
250
  6
CONTINUOUS
 10
11.6846903097
 20
20.9133094891
 11
11.6846903097
 21
21.3720410553
  0
LINE
  5
31F
100
AcDbEntity
  8
715
100
AcDbLine
 62
7
  6
CONTINUOUS
 10
11.7171017902
 20
20.0624464322
 11
11.7171017902
 21
19.7092608784
  0
LINE
  5
320
100
AcDbEntity
  8
218140000
100
AcDbLine
 62
250
  6
CONTINUOUS
 10
11.8257032311
 20
20.9142397673
 11
11.8257032311
 21
21.3830369524
  0
LWPOLYLINE
  5
321
100
AcDbEntity
  8
268
100
AcDbPolyline
 62
7
  6
CONTINUOUS
 90
7
 70
0
 10
9.213235566
 20
-17.4216350244
 10
9.213143958
 20
-17.4221206319
 10
9.2130047872
 20
-17.4226327797
 10
9.2128180538
 20
-17.4231714677
 10
9.2125837577
 20
-17.423736696
 10
9.2123018989
 20
-17.4243284646
 10
9.2119724774
 20
-17.4249467735
  0
LWPOLYLINE
  5
322
100
AcDbEntity
  8
RACCORDO
100
AcDbPolyline
 62
250
  6
CONTINUOUS
 90
9
 70
0
 10
-12.8430591109
 20
-16.0971534135
 10
-12.8753189261
 20
-16.1074656827
 10
-12.9366396311
 20
-16.1207712154
 10
-13.0002644154
 20
-16.1266815723
 10
-13.0657399854
 20
-16.1251374835
 10
-13.1326035539
 20
-16.1161604218
 10
-13.2004027204
 20
-16.0998283725
 10
-13.2687024618
 20
-16.0762526383
 10
-13.3370576317
 20
-16.0455968999
  0
LWPOLYLINE
  5
323
100
AcDbEntity
  8
RACCORDO
100
AcDbPolyline
 62
250
  6
CONTINUOUS
 90
16
 70
0
 10
-2.2452037391
 20
11.2835427884
 10
-2.3067159189
 20
11.269696587
 10
-2.3735242129
 20
11.2590667864
 10
-2.4449127801
 20
11.2517672835
 10
-2.5201167029
 20
11.2478762913
 10
-2.5983301825
 20
11.2474355012
 10
-2.6787151732
 20
11.2504496362
 10
-2.7604103619
 20
11.2568864004
 10
-2.8425403969
 20
11.2666768246
 10
-2.9242252671
 20
11.2797160061
 10
-3.0045897316
 20
11.2958642319
 10
-3.082772697
 20
11.3149484763
 10
-3.1579364447
 20
11.3367642544
 10
-3.2292756063
 20
11.3610778137
 10
-3.2960257935
 20
11.3876286379
 10
-3.3574717879
 20
11.4161322389
  0
LWPOLYLINE
  5
324
100
AcDbEntity
  8
218140000
100
AcDbPolyline
 62
7
  6
CONTINUOUS
 90
7
 70
0
 10
19.006584034
 20
15.5134710671
 10
18.9856120879
 20
15.510581335
 10
18.9658467391
 20
15.5100189173
 10
18.9472879876
 20
15.5117838141
 10
18.9299358335
 20
15.5158760252
 10
18.9137902767
 20
15.5222955508
 10
18.8988513172
 20
15.5310423907
  0
LINE
  5
325
100
AcDbEntity
  8
268
100
AcDbLine
 62
7
  6
CONTINUOUS
 10
2.3334992888
 20
13.3843177612
 11
2.7751425278
 21
13.1634961417
  0
LINE
  5
326
100
AcDbEntity
  8
218140000
100
AcDbLine
 62
7
  6
CONTINUOUS
 10
13.6293391969
 20
23.4834191503
 11
13.6293391969
 21
23.075567883
  0
LINE
  5
327
100
AcDbEntity
  8
268
100
AcDbLine
 62
7
  6
CONTINUOUS
 10
0.0448740896
 20
-23.938822874
 11
0.6236644299
 21
-23.2343791439
  0
LINE
  5
328
100
AcDbEntity
  8
RACCORDO
100
AcDbLine
 62
7
  6
CONTINUOUS
 10
-12.4391839507
 20
21.6711995902
 11
1.8445453426
 21
14.5293349435
  0
LINE
  5
329
100
AcDbEntity
  8
268
100
AcDbLine
 62
7
  6
CONTINUOUS
 10
-13.806511491
 20
22.4133425216
 11
1.9619697295
 21
14.5291019113
  0
LINE
  5
32A
100
AcDbEntity
  8
268
100
AcDbLine
 62
7
  6
CONTINUOUS
 10
1.714482356
 20
14.9803615366
 11
-13.5590241176
 21
22.6171147734
  0
LINE
  5
32B
100
AcDbEntity
  8
268
100
AcDbLine
 62
7
  6
CONTINUOUS
 10
2.2739970406
 20
15.4152686647
 11
0.6599929246
 21
16.2222707227
  0
LINE
  5
32C
100
AcDbEntity
  8
268
100
AcDbLine
 62
7
  6
CONTINUOUS
 10
-11.0903211238
 20
22.0974277469
 11
-12.7043252398
 21
22.9044298049
  0
LINE
  5
32D
100
AcDbEntity
  8
268
100
AcDbLine
 62
7
  6
CONTINUOUS
 10
-7.757865243
 20
20.7885320417
 11
-1.965356175
 21
17.8922775077
  0
LINE
  5
32E
100
AcDbEntity
  8
268
100
AcDbLine
 62
7
  6
CONTINUOUS
 10
-13.3427234481
 20
23.6759598847
 11
-11.736189885
 21
22.8726931031
  0
LINE
  5
32F
100
AcDbEntity
  8
268
100
AcDbLine
 62
7
  6
CONTINUOUS
 10
0.0215947163
 20
16.9938008025
 11
1.6281282794
 21
16.1905340209
  0
LINE
  5
330
100
AcDbEntity
  8
268
100
AcDbLine
 62
250
  6
CONTINUOUS
 10
-13.4073181941
 20
23.8109890595
 11
-11.8015417319
 21
23.0081008285
  0
LINE
  5
331
100
AcDbEntity
  8
268
100
AcDbLine
 62
250
  6
CONTINUOUS
 10
-0.0430000296
 20
17.1288299773
 11
1.5627764325
 21
16.3259417462
  0
LINE
  5
332
100
AcDbEntity
  8
268
100
AcDbLine
 62
250
  6
CONTINUOUS
 10
1.5627764325
 20
16.57931314
 11
-0.0430000296
 21
17.3822013711
  0
LINE
  5
333
100
AcDbEntity
  8
268
100
AcDbLine
 62
250
  6
CONTINUOUS
 10
-11.8015417319
 20
23.2614722222
 11
-13.4073181941
 21
24.0643604533
  0
LINE
  5
334
100
AcDbEntity
  8
268
100
AcDbLine
 62
7
  6
CONTINUOUS
 10
-10.0234902116
 20
22.6360089964
 11
-7.8457332087
 21
21.5471304949
  0
LINE
  5
335
100
AcDbEntity
  8
268
100
AcDbLine
 62
7
  6
CONTINUOUS
 10
-1.0432340906
 20
18.1458809358
 11
0.0378878606
 21
17.6053199603
  0
LINE
  5
336
100
AcDbEntity
  8
268
100
AcDbLine
 62
7
  6
CONTINUOUS
 10
3.3408279528
 20
15.9538499142
 11
3.482249309
 21
15.8831392361
  0
LWPOLYLINE
  5
337
100
AcDbEntity
  8
218140000
100
AcDbPolyline
 62
250
  6
CONTINUOUS
 90
10
 70
0
 10
19.1514454969
 20
19.818530962
 10
19.1487391439
 20
19.7836593727
 10
19.1393889314
 20
19.745120375
 10
19.1234301792
 20
19.7071277374
 10
19.1009816607
 20
19.6699642208
 10
19.0722104496
 20
19.6339064157
 10
19.0373306762
 20
19.599222683
 10
18.9966019341
 20
19.5661711573
 10
18.9503273479
 20
19.5349978253
 10
18.8988513172
 20
19.5059346953
  0
LINE
  5
338
100
AcDbEntity
  8
268
100
AcDbLine
 62
7
  6
CONTINUOUS
 10
1.6516790085
 20
-24.7422253335
 11
2.2739970406
 21
-23.997165916
  0
LINE
  5
339
100
AcDbEntity
  8
268
100
AcDbLine
 62
250
  6
CONTINUOUS
 10
0.7695175115
 20
-18.3888719186
 11
-0.5448841266
 21
-18.9959061528
  0
LINE
  5
33A
100
AcDbEntity
  8
268
100
AcDbLine
 62
7
  6
CONTINUOUS
 10
0.5686639255
 20
-18.9026409753
 11
-0.5839111246
 21
-19.4349383284
  0
LINE
  5
33B
100
AcDbEntity
  8
268
100
AcDbLine
 62
7
  6
CONTINUOUS
 10
2.2739970406
 20
16.0524382234
 11
1.6516790085
 21
16.1823788059
  0
LINE
  5
33C
100
AcDbEntity
  8
268
100
AcDbLine
 62
250
  6
CONTINUOUS
 10
1.739547162
 20
16.8831787182
 11
0.1317257529
 21
17.6870894228
  0
LINE
  5
33D
100
AcDbEntity
  8
268
100
AcDbLine
 62
250
  6
CONTINUOUS
 10
-11.6247710025
 20
23.5653378005
 11
-13.2325924115
 21
24.369248505
  0
LINE
  5
33E
100
AcDbEntity
  8
268
100
AcDbLine
 62
7
  6
CONTINUOUS
 10
-7.757865243
 20
22.0034869078
 11
-1.965356175
 21
19.1072323737
  0
LINE
  5
33F
100
AcDbEntity
  8
268
100
AcDbLine
 62
7
  6
CONTINUOUS
 10
4.1893560902
 20
16.2291349374
 11
3.3896240664
 21
16.6290009494
  0
LINE
  5
340
100
AcDbEntity
  8
268
100
AcDbLine
 62
7
  6
CONTINUOUS
 10
-8.4922160946
 20
22.5699210299
 11
-9.9746940981
 21
23.3111600316
  0
LINE
  5
341
100
AcDbEntity
  8
268
100
AcDbLine
 62
7
  6
CONTINUOUS
 10
-7.265773765
 20
22.4695863384
 11
-1.0432340906
 21
19.3583165011
  0
LINE
  5
342
100
AcDbEntity
  8
268
100
AcDbLine
 62
7
  6
CONTINUOUS
 10
-11.6498358084
 20
25.1812326023
 11
-10.0234902116
 21
24.368059804
  0
LINE
  5
343
100
AcDbEntity
  8
268
100
AcDbLine
 62
7
  6
CONTINUOUS
 10
1.714482356
 20
18.4990735201
 11
3.3408279528
 21
17.6859007217
  0
LINE
  5
344
100
AcDbEntity
  8
268
100
AcDbLine
 62
7
  6
CONTINUOUS
 10
-5.9222708808
 20
22.499903289
 11
-0.9725234125
 21
20.0250295549
  0
LINE
  5
345
100
AcDbEntity
  8
268
100
AcDbLine
 62
250
  6
CONTINUOUS
 10
-11.1153859297
 20
25.4415800689
 11
-9.4952230399
 21
24.631498624
  0
LINE
  5
346
100
AcDbEntity
  8
268
100
AcDbLine
 62
250
  6
CONTINUOUS
 10
2.2489322347
 20
18.7594209867
 11
3.8690951245
 21
17.9493395418
  0
LINE
  5
347
100
AcDbEntity
  8
268
100
AcDbLine
 62
7
  6
CONTINUOUS
 10
-11.0039683143
 20
25.4478486321
 11
-9.3850907362
 21
24.638409843
  0
LINE
  5
348
100
AcDbEntity
  8
268
100
AcDbLine
 62
7
  6
CONTINUOUS
 10
2.3603498501
 20
18.7656895499
 11
3.9792274283
 21
17.9562507608
  0
LWPOLYLINE
  5
349
100
AcDbEntity
  8
218140000
100
AcDbPolyline
 62
250
  6
CONTINUOUS
 90
15
 70
0
 10
-0.7737229781
 20
20.9866695837
 10
-0.7401410016
 20
20.9674264577
 10
-0.7108244136
 20
20.9458030549
 10
-0.6857732139
 20
20.9217993751
 10
-0.6647840218
 20
20.8951670264
 10
-0.6480602181
 20
20.8661544008
 10
-0.636211945
 20
20.8355066744
 10
-0.6293551514
 20
20.8031467268
 10
-0.6273738883
 20
20.7691516783
 10
-0.6305304512
 20
20.734498066
 10
-0.6389931904
 20
20.6991319774
 10
-0.6525937556
 20
20.663107325
 10
-0.6710893903
 20
20.6275623841
 10
-0.6943991759
 20
20.5928765796
 10
-0.7226040311
 20
20.5586704865
  0
LWPOLYLINE
  5
34A
100
AcDbEntity
  8
218140000
100
AcDbPolyline
 62
250
  6
CONTINUOUS
 90
9
 70
0
 10
-0.8761633256
 20
20.7689540002
 10
-0.8562821492
 20
20.7573400094
 10
-0.8386204174
 20
20.7435955274
 10
-0.8233688425
 20
20.727830842
 10
-0.8107042587
 20
20.7101370796
 10
-0.8007605629
 20
20.6906727945
 10
-0.7936459498
 20
20.6696594425
 10
-0.7894695331
 20
20.6471948293
 10
-0.7882953963
 20
20.6265930783
  0
LWPOLYLINE
  5
34B
100
AcDbEntity
  8
218140000
100
AcDbPolyline
 62
250
  6
CONTINUOUS
 90
13
 70
0
 10
-2.2202472705
 20
21.2572157621
 10
-2.2025363348
 20
21.2460938862
 10
-2.1844682214
 20
21.2326893981
 10
-2.1663464601
 20
21.2172275301
 10
-2.1484754747
 20
21.1999680707
 10
-2.1311554551
 20
21.1812009864
 10
-2.1146773166
 20
21.1612415457
 10
-2.0993178465
 20
21.1404250616
 10
-2.0853350096
 20
21.1191012029
 10
-2.0729636169
 20
21.0976281011
 10
-2.0624114431
 20
21.0763664252
 10
-2.0538557224
 20
21.0556733258
 10
-2.0474401389
 20
21.0358963756
  0
LINE
  5
34C
100
AcDbEntity
  8
218140000
100
AcDbLine
 62
7
  6
CONTINUOUS
 10
10.5477797221
 20
17.7131857311
 11
9.7950856382
 21
19.0113909921
  0
LINE
  5
34D
100
AcDbEntity
  8
218140000
100
AcDbLine
 62
250
  6
CONTINUOUS
 10
9.2026057067
 20
22.5175978978
 11
9.6171832184
 21
21.4420193576
  0
LINE
  5
34E
100
AcDbEntity
  8
715
100
AcDbLine
 62
7
  6
CONTINUOUS
 10
10.7618875466
 20
19.9419543096
 11
10.5603881887
 21
20.5376787354
  0
LWPOLYLINE
  5
34F
100
AcDbEntity
  8
218140000
100
AcDbPolyline
 62
7
  6
CONTINUOUS
 90
10
 70
0
 10
19.1514454969
 20
19.818530962
 10
19.1476406008
 20
19.9324686583
 10
19.1364945118
 20
20.0457328553
 10
19.1183561866
 20
20.1581201288
 10
19.0934010855
 20
20.2698569056
 10
19.061854086
 20
20.380489073
 10
19.0242328198
 20
20.4887954622
 10
18.9809315844
 20
20.5942794332
 10
18.9319788027
 20
20.6972063137
 10
18.8774467572
 20
20.7974507234
  0
LINE
  5
350
100
AcDbEntity
  8
218140000
100
AcDbLine
 62
7
  6
CONTINUOUS
 10
19.1514451331
 20
13.5746348662
 11
19.1514454587
 21
13.5741757985
  0
LINE
  5
351
100
AcDbEntity
  8
218140000
100
AcDbLine
 62
250
  6
CONTINUOUS
 10
18.8988513172
 20
19.5059346953
 11
18.8988513172
 21
15.5310423907
  0
LINE
  5
352
100
AcDbEntity
  8
218140000
100
AcDbLine
 62
250
  6
CONTINUOUS
 10
18.8988513172
 20
13.8305797019
 11
18.8988513172
 21
-11.1021273743
  0
LINE
  5
353
100
AcDbEntity
  8
218140000
100
AcDbLine
 62
7
  6
CONTINUOUS
 10
19.1514454969
 20
19.818530962
 11
19.1514454969
 21
16.4128455154
  0
LINE
  5
354
100
AcDbEntity
  8
218140000
100
AcDbLine
 62
7
  6
CONTINUOUS
 10
19.1514454969
 20
13.5738848459
 11
19.1514454969
 21
-10.7895311076
  0
LINE
  5
355
100
AcDbEntity
  8
218140000
100
AcDbLine
 62
7
  6
CONTINUOUS
 10
19.1514453467
 20
16.4118270126
 11
19.1514452589
 21
16.4115794325
  0
LWPOLYLINE
  5
356
100
AcDbEntity
  8
218140000
100
AcDbPolyline
 62
250
  6
CONTINUOUS
 90
29
 70
0
 10
19.1514452589
 20
16.4115794325
 10
19.1511168881
 20
16.3681251252
 10
19.1499105722
 20
16.3163991758
 10
19.1478796135
 20
16.2660820652
 10
19.1450732594
 20
16.2171825518
 10
19.1415440557
 20
16.1697169973
 10
19.137343116
 20
16.1236866474
 10
19.1324938549
 20
16.0790767787
 10
19.1270377986
 20
16.0359025682
 10
19.1210114056
 20
15.9941610848
 10
19.11440515
 20
15.9538115991
 10
19.107242135
 20
15.9148267319
 10
19.0995481817
 20
15.8772450102
 10
19.0912929086
 20
15.8411273517
 10
19.0824842941
 20
15.8064278671
 10
19.0731403379
 20
15.7732051451
 10
19.0632264398
 20
15.741680119
 10
19.052745209
 20
15.7118218236
 10
19.0417060717
 20
15.6836763762
 10
19.0300709434
 20
15.6575836176
 10
19.0178276321
 20
15.6335265202
 10
19.004989987
 20
15.6115408806
 10
18.9915526927
 20
15.5920478318
 10
18.9775032334
 20
15.5751107778
 10
18.9628576795
 20
15.5606862389
 10
18.9476575433
 20
15.5490339607
 10
18.9319236998
 20
15.5402454282
 10
18.9156520467
 20
15.5342454929
 10
18.8988513172
 20
15.5310423907
  0
LWPOLYLINE
  5
357
100
AcDbEntity
  8
218140000
100
AcDbPolyline
 62
250
  6
CONTINUOUS
 90
11
 70
0
 10
19.1514454969
 20
-10.7895311076
 10
19.1506428572
 20
-10.8085318128
 10
19.1446603039
 20
-10.8446838693
 10
19.1328733147
 20
-10.8804775231
 10
19.1153584857
 20
-10.9156801739
 10
19.0922296348
 20
-10.950063062
 10
19.0636370615
 20
-10.983402755
 10
19.0297665709
 20
-11.0154825989
 10
18.9908382658
 20
-11.0460941274
 10
18.9471051166
 20
-11.0750384154
 10
18.8988513172
 20
-11.1021273725
  0
LINE
  5
358
100
AcDbEntity
  8
218140000
100
AcDbLine
 62
7
  6
CONTINUOUS
 10
10.5477797221
 20
-16.2540265756
 11
9.7950856382
 21
-16.7995377526
  0
LWPOLYLINE
  5
359
100
AcDbEntity
  8
218140000
100
AcDbPolyline
 62
7
  6
CONTINUOUS
 90
3
 70
0
 10
18.1403446223
 20
-12.2389531873
 10
18.1967364677
 20
-12.2047611754
 10
18.2094708093
 20
-12.1957664178
  0
LWPOLYLINE
  5
35A
100
AcDbEntity
  8
268
100
AcDbPolyline
 62
7
  6
CONTINUOUS
 90
25
 70
0
 10
8.4649855889
 20
-17.8847878387
 10
8.4909019993
 20
-17.8699556221
 10
8.5174042359
 20
-17.8546886453
 10
8.5444922989
 20
-17.8389869084
 10
8.5721939553
 20
-17.8228378057
 10
8.6004814379
 20
-17.8062539428
 10
8.6292714459
 20
-17.7892731369
 10
8.658544965
 20
-17.771906563
 10
8.6883210094
 20
-17.754143046
 10
8.7185733204
 20
-17.7359868776
 10
8.7493157548
 20
-17.7174299807
 10
8.7805344558
 20
-17.6984804324
 10
8.8121615953
 20
-17.679166756
 10
8.84420833
 20
-17.6594821212
 10
8.876663503
 20
-17.6394333584
 10
8.9094258164
 20
-17.6190694817
 10
8.9425105905
 20
-17.5983806424
 10
8.975902505
 20
-17.5773766893
 10
9.0094543003
 20
-17.5561361826
 10
9.0431856154
 20
-17.5346458967
 10
9.0770768114
 20
-17.5129190572
 10
9.1109217131
 20
-17.4910739014
 10
9.1446515955
 20
-17.4691498418
 10
9.1783351836
 20
-17.4471074658
 10
9.2119724774
 20
-17.4249467735
  0
LWPOLYLINE
  5
35B
100
AcDbEntity
  8
268
100
AcDbPolyline
 62
7
  6
CONTINUOUS
 90
3
 70
0
 10
8.4649855889
 20
-17.8847878387
 10
8.4304011118
 20
-17.9036635363
 10
8.4145642061
 20
-17.9117644546
  0
LINE
  5
35C
100
AcDbEntity
  8
218140000
100
AcDbLine
 62
7
  6
CONTINUOUS
 10
18.1403446223
 20
-12.2389531873
 11
10.5477797221
 21
-16.2540265756
  0
LINE
  5
35D
100
AcDbEntity
  8
218140000
100
AcDbLine
 62
7
  6
CONTINUOUS
 10
9.7950856382
 20
-16.7995377526
 11
4.4368434636
 21
-19.6330644785
  0
LINE
  5
35E
100
AcDbEntity
  8
218140000
100
AcDbLine
 62
250
  6
CONTINUOUS
 10
18.5598878333
 20
-11.9348913968
 11
4.4368434636
 21
-19.3890663686
  0
LINE
  5
35F
100
AcDbEntity
  8
218140000
100
AcDbLine
 62
250
  6
CONTINUOUS
 10
18.8988513172
 20
-11.1021273743
 11
4.4368434636
 21
-18.5900511396
  0
LINE
  5
360
100
AcDbEntity
  8
268
100
AcDbLine
 62
250
  6
CONTINUOUS
 10
4.4368434636
 20
-19.9066910222
 11
8.4649855889
 21
-17.8847878387
  0
LINE
  5
361
100
AcDbEntity
  8
268
100
AcDbLine
 62
7
  6
CONTINUOUS
 10
4.4368434636
 20
-19.908359103
 11
8.4146065347
 21
-17.9117434011
  0
LINE
  5
362
100
AcDbEntity
  8
268
100
AcDbLine
 62
250
  6
CONTINUOUS
 10
4.4368434636
 20
-19.6688859915
 11
9.1290839984
 21
-17.3415000946
  0
LINE
  5
363
100
AcDbEntity
  8
268
100
AcDbLine
 62
250
  6
CONTINUOUS
 10
4.4368434636
 20
-19.7907607193
 11
9.213235566
 21
-17.4216350244
  0
LINE
  5
364
100
AcDbEntity
  8
268
100
AcDbLine
 62
7
  6
CONTINUOUS
 10
-11.0903211238
 20
22.7345973056
 11
-11.7126391559
 21
22.8645378881
  0
LWPOLYLINE
  5
365
100
AcDbEntity
  8
218140000
100
AcDbPolyline
 62
250
  6
CONTINUOUS
 90
8
 70
0
 10
-0.7557039559
 20
20.5249441049
 10
-0.774528629
 20
20.5320901654
 10
-0.7923822893
 20
20.5366468171
 10
-0.8089650334
 20
20.5385375179
 10
-0.8239983062
 20
20.537730508
 10
-0.8372295808
 20
20.5342393435
 10
-0.8484365999
 20
20.5281226685
 10
-0.8525043269
 20
20.524783865
  0
LINE
  5
366
100
AcDbEntity
  8
218140000
100
AcDbLine
 62
250
  6
CONTINUOUS
 10
-1.1907982765
 20
22.091092001
 11
-1.1873574471
 21
22.0894787341
  0
LINE
  5
367
100
AcDbEntity
  8
218140000
100
AcDbLine
 62
250
  6
CONTINUOUS
 10
-1.6345689243
 20
21.1481567996
 11
-0.8761633256
 21
20.7689540002
  0
LINE
  5
368
100
AcDbEntity
  8
218140000
100
AcDbLine
 62
250
  6
CONTINUOUS
 10
-1.5321285767
 20
21.365872383
 11
-0.7737229781
 21
20.9866695837
  0
LINE
  5
369
100
AcDbEntity
  8
218140000
100
AcDbLine
 62
7
  6
CONTINUOUS
 10
-2.2453156178
 20
21.9662237643
 11
0.3416385679
 21
20.6727466715
  0
LINE
  5
36A
100
AcDbEntity
  8
218140000
100
AcDbLine
 62
250
  6
CONTINUOUS
 10
0.9490262843
 20
20.9721126752
 11
-1.2755732057
 21
22.0844124203
  0
LINE
  5
36B
100
AcDbEntity
  8
218140000
100
AcDbLine
 62
7
  6
CONTINUOUS
 10
0.9985533762
 20
20.9965233229
 11
-1.1873646051
 21
22.0894823136
  0
LINE
  5
36C
100
AcDbEntity
  8
268
100
AcDbLine
 62
7
  6
CONTINUOUS
 10
1.5451523323
 20
21.2659280882
 11
-1.2553661249
 21
22.6661873168
  0
LINE
  5
36D
100
AcDbEntity
  8
268
100
AcDbLine
 62
7
  6
CONTINUOUS
 10
-1.6089195155
 20
23.3955222014
 11
-1.2553661249
 21
23.2187455061
  0
LWPOLYLINE
  5
36E
100
AcDbEntity
  8
268
100
AcDbPolyline
 62
7
  6
CONTINUOUS
 90
20
 70
0
 10
9.2112555587
 20
19.5194511025
 10
9.209855407
 20
19.5215821673
 10
9.2081089808
 20
19.5238906147
 10
9.2060273709
 20
19.5263802537
 10
9.2036224064
 20
19.5290576966
 10
9.2009023146
 20
19.5318929125
 10
9.1978773833
 20
19.5348894389
 10
9.1945588819
 20
19.5380525171
 10
9.190954725
 20
19.5413545095
 10
9.1870748682
 20
19.5447984923
 10
9.1829301967
 20
19.5483887366
 10
9.1785289639
 20
19.5520992362
 10
9.1738806254
 20
19.5559328281
 10
9.1689961715
 20
19.5598927017
 10
9.1638857831
 20
19.563953122
 10
9.158558908
 20
19.5681163373
 10
9.1530267047
 20
19.5723847087
 10
9.1473022335
 20
19.5767322082
 10
9.1413970501
 20
19.5811510904
 10
9.1290839984
 20
19.59023618
  0
LWPOLYLINE
  5
36F
100
AcDbEntity
  8
218140000
100
AcDbPolyline
 62
250
  6
CONTINUOUS
 90
11
 70
0
 10
18.659701854
 20
-11.8454024674
 10
18.7038137655
 20
-11.7920650948
 10
18.7438048607
 20
-11.7332957344
 10
18.7795039892
 20
-11.6693460965
 10
18.8107584116
 20
-11.6004899556
 10
18.8374342837
 20
-11.5270223739
 10
18.8594174976
 20
-11.4492578396
 10
18.8766140951
 20
-11.3675286572
 10
18.8889503895
 20
-11.282184483
 10
18.8963734192
 20
-11.1935909473
 10
18.8988513172
 20
-11.1021273743
  0
LWPOLYLINE
  5
370
100
AcDbEntity
  8
218140000
100
AcDbPolyline
 62
250
  6
CONTINUOUS
 90
3
 70
0
 10
18.5598878333
 20
-11.9348913968
 10
18.6116579847
 20
-11.8930793201
 10
18.659701854
 20
-11.8454024674
  0
LWPOLYLINE
  5
371
100
AcDbEntity
  8
218140000
100
AcDbPolyline
 62
7
  6
CONTINUOUS
 90
13
 70
0
 10
18.626998668
 20
-11.8931654773
 10
18.7015533922
 20
-11.8344418987
 10
18.772346241
 20
-11.7688275031
 10
18.8387216824
 20
-11.6965059353
 10
18.8999823127
 20
-11.6178316387
 10
18.955610588
 20
-11.5330711865
 10
19.0052536997
 20
-11.4422605352
 10
19.0484548697
 20
-11.3455633807
 10
19.0846341913
 20
-11.243535606
 10
19.1133635457
 20
-11.1366120978
 10
19.1342993798
 20
-11.0250855864
 10
19.1471041956
 20
-10.9092725175
 10
19.1514454969
 20
-10.7895311076
  0
LINE
  5
372
100
AcDbEntity
  8
218140000
100
AcDbLine
 62
250
  6
CONTINUOUS
 10
18.5598878333
 20
-11.9348913968
 11
18.1403446223
 21
-12.2389531873
  0
LINE
  5
373
100
AcDbEntity
  8
218140000
100
AcDbLine
 62
7
  6
CONTINUOUS
 10
18.626998668
 20
-11.8931654773
 11
18.2106178284
 21
-12.1949353553
  0
LWPOLYLINE
  5
374
100
AcDbEntity
  8
218140000
100
AcDbPolyline
 62
250
  6
CONTINUOUS
 90
3
 70
0
 10
18.626998668
 20
-11.8931654773
 10
18.6087102075
 20
-11.9058701073
 10
18.5598878333
 20
-11.9348913968
  0
LINE
  5
375
100
AcDbEntity
  8
268
100
AcDbLine
 62
7
  6
CONTINUOUS
 10
2.7751425278
 20
-23.0471447247
 11
1.9619697295
 21
-23.5760158552
  0
LINE
  5
376
100
AcDbEntity
  8
268
100
AcDbLine
 62
250
  6
CONTINUOUS
 10
3.7297366824
 20
-22.735422107
 11
4.4368434636
 21
-22.3743110272
  0
LINE
  5
377
100
AcDbEntity
  8
268
100
AcDbLine
 62
7
  6
CONTINUOUS
 10
3.6397727143
 20
-22.9242321836
 11
4.3468794965
 21
-22.5631211033
  0
LINE
  5
378
100
AcDbEntity
  8
268
100
AcDbLine
 62
7
  6
CONTINUOUS
 10
3.6397679083
 20
-22.9242346384
 11
3.6377603114
 21
-22.9252383458
  0
LINE
  5
379
100
AcDbEntity
  8
268
100
AcDbLine
 62
250
  6
CONTINUOUS
 10
1.9619697295
 20
-23.6004113605
 11
3.7297366824
 21
-22.735422107
  0
LINE
  5
37A
100
AcDbEntity
  8
268
100
AcDbLine
 62
7
  6
CONTINUOUS
 10
1.8699888105
 20
-23.7902298247
 11
3.6377557648
 21
-22.9252405706
  0
LWPOLYLINE
  5
37B
100
AcDbEntity
  8
RACCORDO
100
AcDbPolyline
 62
250
  6
CONTINUOUS
 90
16
 70
0
 10
-5.4628586578
 20
-24.9132981837
 10
-5.5252599538
 20
-24.9371499956
 10
-5.5929476924
 20
-24.9576782148
 10
-5.6651966199
 20
-24.9746628875
 10
-5.741232611
 20
-24.9879220282
 10
-5.8202409628
 20
-24.9973135692
 10
-5.9013751248
 20
-25.0027368828
 10
-5.9837657688
 20
-25.0041338601
 10
-6.066530104
 20
-25.0014895326
 10
-6.1487813355
 20
-24.9948322338
 10
-6.2296381662
 20
-24.9842332944
 10
-6.3082342395
 20
-24.969806279
 10
-6.3837274222
 20
-24.9517057688
 10
-6.4553088276
 20
-24.9301257054
 10
-6.5222114826
 20
-24.9052973126
 10
-6.5837185454
 20
-24.8774866193
  0
LWPOLYLINE
  5
37C
100
AcDbEntity
  8
218140000
100
AcDbPolyline
 62
7
  6
CONTINUOUS
 90
6
 70
0
 10
-2.3014723283
 20
21.9803563113
 10
-2.291792318
 20
21.9800188973
 10
-2.2813811215
 20
21.9785640267
 10
-2.2702600818
 20
21.9758868003
 10
-2.2584436409
 20
21.9719096238
 10
-2.2459744922
 20
21.9665532015
  0
LWPOLYLINE
  5
37D
100
AcDbEntity
  8
218140000
100
AcDbPolyline
 62
7
  6
CONTINUOUS
 90
10
 70
0
 10
-1.3128017286
 20
22.1213590705
 10
-1.3939241869
 20
22.1330794252
 10
-1.4761978061
 20
22.1409826764
 10
-1.5589908676
 20
22.1450716399
 10
-1.6418700383
 20
22.1453699371
 10
-1.7245998683
 20
22.1418779417
 10
-1.8066506146
 20
22.1345823441
 10
-1.8874830462
 20
22.1234780451
 10
-1.9668812494
 20
22.1084979923
 10
-2.0444320797
 20
22.0895611432
  0
LWPOLYLINE
  5
37E
100
AcDbEntity
  8
268
100
AcDbPolyline
 62
7
  6
CONTINUOUS
 90
13
 70
0
 10
8.4649855889
 20
20.6034688096
 10
8.4303347789
 20
20.6098984907
 10
8.3951305559
 20
20.6152816435
 10
8.359410704
 20
20.6196437844
 10
8.3231853871
 20
20.6230377075
 10
8.286517649
 20
20.6254674572
 10
8.2495214391
 20
20.6268786863
 10
8.2122344042
 20
20.6272888213
 10
8.1746834223
 20
20.6267249397
 10
8.1369627214
 20
20.6251329516
 10
8.0991233467
 20
20.6225038606
 10
8.0611741605
 20
20.6188818794
 10
8.023144721
 20
20.6142870899
  0
LWPOLYLINE
  5
37F
100
AcDbEntity
  8
218140000
100
AcDbPolyline
 62
250
  6
CONTINUOUS
 90
13
 70
0
 10
-1.2755732057
 20
22.0844124203
 10
-1.3452954357
 20
22.097987165
 10
-1.4160372346
 20
22.1082506661
 10
-1.4877986025
 20
22.1152029237
 10
-1.5612379788
 20
22.1188532983
 10
-1.635696924
 20
22.1191924293
 10
-1.7092001198
 20
22.1161922347
 10
-1.78172463
 20
22.109747673
 10
-1.8532933907
 20
22.0999637857
 10
-1.9219998919
 20
22.0871276152
 10
-1.9872086304
 20
22.0713348423
 10
-2.0495551093
 20
22.0524897863
 10
-2.1090393287
 20
22.0305924471
  0
LINE
  5
380
100
AcDbEntity
  8
218140000
100
AcDbLine
 62
7
  6
CONTINUOUS
 10
-1.2333780365
 20
22.1058246833
 11
-1.3128017286
 21
22.1213590705
  0
LWPOLYLINE
  5
381
100
AcDbEntity
  8
218140000
100
AcDbPolyline
 62
250
  6
CONTINUOUS
 90
4
 70
0
 10
-1.6515060638
 20
21.4045016797
 10
-1.6093829285
 20
21.3949507969
 10
-1.5695904328
 20
21.3820743647
 10
-1.5321285767
 20
21.365872383
  0
LWPOLYLINE
  5
382
100
AcDbEntity
  8
218140000
100
AcDbPolyline
 62
7
  6
CONTINUOUS
 90
7
 70
0
 10
-1.2333848941
 20
22.1058262077
 10
-1.2255242114
 20
22.1039102022
 10
-1.2164281585
 20
22.1012650592
 10
-1.2074647748
 20
22.0981911472
 10
-1.1986444917
 20
22.094690796
 10
-1.1899870304
 20
22.0907696705
 10
-1.1873464722
 20
22.089473244
  0
LINE
  5
383
100
AcDbEntity
  8
715
100
AcDbLine
 62
7
  6
CONTINUOUS
 10
11.7171017902
 20
20.0624464322
 11
11.2673571288
 21
20.1841942654
  0
LWPOLYLINE
  5
384
100
AcDbEntity
  8
268
100
AcDbPolyline
 62
7
  6
CONTINUOUS
 90
10
 70
0
 10
8.7113006885
 20
20.5160913377
 10
8.6883210094
 20
20.5272827699
 10
8.658544965
 20
20.5408592116
 10
8.6292714459
 20
20.5532448284
 10
8.6004814379
 20
20.5644466249
 10
8.5721939553
 20
20.5744575964
 10
8.5444922989
 20
20.5833573409
 10
8.5174042359
 20
20.5911723909
 10
8.4909019993
 20
20.5978762138
 10
8.4649855889
 20
20.6034688096
  0
LINE
  5
385
100
AcDbEntity
  8
268
100
AcDbLine
 62
7
  6
CONTINUOUS
 10
2.9529680285
 20
21.9598047466
 11
0.1424183816
 21
23.3650795701
  0
LINE
  5
386
100
AcDbEntity
  8
218140000
100
AcDbLine
 62
7
  6
CONTINUOUS
 10
9.7950856382
 20
19.0113909921
 11
9.0072969905
 21
19.405285316
  0
LINE
  5
387
100
AcDbEntity
  8
268
100
AcDbLine
 62
7
  6
CONTINUOUS
 10
1.5023503217
 20
23.4388277575
 11
3.7120912099
 21
22.3339573134
  0
LINE
  5
388
100
AcDbEntity
  8
268
100
AcDbLine
 62
7
  6
CONTINUOUS
 10
4.457676033
 20
21.9611649018
 11
4.603489443
 21
21.8882581968
  0
LINE
  5
389
100
AcDbEntity
  8
268
100
AcDbLine
 62
7
  6
CONTINUOUS
 10
-1.365107424
 20
25.13580031
 11
-1.1846554468
 21
25.0455743215
  0
LINE
  5
38A
100
AcDbEntity
  8
268
100
AcDbLine
 62
7
  6
CONTINUOUS
 10
4.1893560902
 20
22.358568553
 11
4.3698080673
 21
22.2683425644
  0
LINE
  5
38B
100
AcDbEntity
  8
268
100
AcDbLine
 62
250
  6
CONTINUOUS
 10
-2.177675768
 20
25.7146973344
 11
0.8014141329
 21
24.2251523839
  0
LINE
  5
38C
100
AcDbEntity
  8
268
100
AcDbLine
 62
250
  6
CONTINUOUS
 10
5.0440548201
 20
22.1038320404
 11
8.023144721
 21
20.6142870899
  0
LINE
  5
38D
100
AcDbEntity
  8
268
100
AcDbLine
 62
7
  6
CONTINUOUS
 10
5.4850978231
 20
22.129181507
 11
8.7115877153
 21
20.5159365609
  0
LINE
  5
38E
100
AcDbEntity
  8
715
100
AcDbLine
 62
7
  6
CONTINUOUS
 10
10.772382382
 20
19.9367068919
 11
10.9862748359
 21
19.7391736243
  0
LWPOLYLINE
  5
38F
100
AcDbEntity
  8
268
100
AcDbPolyline
 62
7
  6
CONTINUOUS
 90
17
 70
0
 10
9.2119724774
 20
20.122208926
 10
9.1783351836
 20
20.1582710765
 10
9.1446515955
 20
20.1929097361
 10
9.1109217131
 20
20.2261249049
 10
9.0770768114
 20
20.2579322089
 10
9.0431856154
 20
20.288316022
 10
9.0094543003
 20
20.3172294661
 10
8.975902505
 20
20.3446486414
 10
8.9425105905
 20
20.3705974477
 10
8.9094258164
 20
20.3951007062
 10
8.876663503
 20
20.4181444131
 10
8.84420833
 20
20.4397425722
 10
8.8121615953
 20
20.4599620162
 10
8.7805344558
 20
20.4787959302
 10
8.7493157548
 20
20.4962511292
 10
8.7185733204
 20
20.5124148907
 10
8.7113006885
 20
20.5160913377
  0
LINE
  5
390
100
AcDbEntity
  8
218140000
100
AcDbLine
 62
7
  6
CONTINUOUS
 10
13.6202237382
 20
23.5073129513
 11
13.6293391969
 21
23.4834191503
  0
LINE
  5
391
100
AcDbEntity
  8
268
100
AcDbLine
 62
7
  6
CONTINUOUS
 10
3.3408279528
 20
-24.5761389829
 11
3.8690951245
 21
-24.3051279243
  0
LINE
  5
392
100
AcDbEntity
  8
268
100
AcDbLine
 62
7
  6
CONTINUOUS
 10
1.739547162
 20
-25.3561735826
 11
3.3408279528
 21
-24.5761389829
  0
LINE
  5
393
100
AcDbEntity
  8
RACCORDO
100
AcDbLine
 62
250
  6
CONTINUOUS
 10
-5.0245502051
 20
-25.3316551935
 11
-0.9918524469
 21
-24.0240529299
  0
LINE
  5
394
100
AcDbEntity
  8
RACCORDO
100
AcDbLine
 62
7
  6
CONTINUOUS
 10
-1.2970411281
 20
-24.4974643708
 11
-5.3340551967
 21
-25.8064658358
  0
LINE
  5
395
100
AcDbEntity
  8
268
100
AcDbLine
 62
7
  6
CONTINUOUS
 10
0.1424183816
 20
23.3650795701
 11
1.5023503217
 21
23.4388277575
  0
LWPOLYLINE
  5
396
100
AcDbEntity
  8
715
100
AcDbPolyline
 62
7
  6
CONTINUOUS
 90
9
 70
0
 10
13.1101645889
 20
20.7292936619
 10
13.1040478483
 20
20.7308931596
 10
13.0942776346
 20
20.7324259735
 10
13.0839514392
 20
20.7328414179
 10
13.073164242
 20
20.7321396454
 10
13.0622009831
 20
20.7303211141
 10
13.0511566424
 20
20.7273859765
 10
13.0399362399
 20
20.7233340802
 10
13.0285397756
 20
20.7181654249
  0
LWPOLYLINE
  5
397
100
AcDbEntity
  8
715
100
AcDbPolyline
 62
7
  6
CONTINUOUS
 90
28
 70
0
 10
13.1101544527
 20
20.7292697095
 10
13.0014391061
 20
20.7605555553
 10
12.8865840631
 20
20.7899092323
 10
12.7693226392
 20
20.8162363025
 10
12.6499494744
 20
20.8394983942
 10
12.5287291027
 20
20.859668947
 10
12.4058997333
 20
20.8767282223
 10
12.2817509359
 20
20.8906520639
 10
12.1565674728
 20
20.9014227329
 10
12.0305869553
 20
20.9090301326
 10
11.9041005691
 20
20.9134635113
 10
11.7773978462
 20
20.914718066
 10
11.6507161008
 20
20.9127932929
 10
11.524344831
 20
20.9076919579
 10
11.3985752404
 20
20.8994227457
 10
11.273645641
 20
20.8879948703
 10
11.1498467664
 20
20.873425038
 10
11.0274620141
 20
20.8557350164
 10
10.9067135779
 20
20.8349408411
 10
10.7878786568
 20
20.8110692411
 10
10.6712428333
 20
20.7841541893
 10
10.5570312603
 20
20.754219422
 10
10.4455160821
 20
20.7213023181
 10
10.3369698857
 20
20.6854456833
 10
10.2316029941
 20
20.6466740657
 10
10.1296562117
 20
20.6050212573
 10
10.0314100743
 20
20.5605404828
 10
9.9371260131
 20
20.5132830934
  0
LWPOLYLINE
  5
398
100
AcDbEntity
  8
715
100
AcDbPolyline
 62
7
  6
CONTINUOUS
 90
3
 70
0
 10
13.1222052707
 20
20.7244758813
 10
13.1133570604
 20
20.7282431289
 10
13.1101645889
 20
20.7292936619
  0
LWPOLYLINE
  5
399
100
AcDbEntity
  8
268
100
AcDbPolyline
 62
7
  6
CONTINUOUS
 90
18
 70
0
 10
1.24246685
 20
24.2504860308
 10
1.2229047657
 20
24.2595757639
 10
1.2000089855
 20
24.2685611785
 10
1.1764996992
 20
24.2760634113
 10
1.1523583771
 20
24.2820975811
 10
1.1276686238
 20
24.2866433655
 10
1.1024071975
 20
24.2896973489
 10
1.07659734
 20
24.2912629469
 10
1.0503923812
 20
24.2913300835
 10
1.0238084186
 20
24.2898913075
 10
0.9968293546
 20
24.2869540702
 10
0.9695602259
 20
24.2825306489
 10
0.9419860463
 20
24.2766122633
 10
0.914121802
 20
24.2692076938
 10
0.8861174889
 20
24.2603555592
 10
0.8580231057
 20
24.2500687325
 10
0.8297886537
 20
24.2383343407
 10
0.8014141329
 20
24.2251523839
  0
LINE
  5
39A
100
AcDbEntity
  8
715
100
AcDbLine
 62
7
  6
CONTINUOUS
 10
10.772382382
 20
19.9367068919
 11
10.0654134419
 21
20.290191362
  0
LINE
  5
39B
100
AcDbEntity
  8
715
100
AcDbLine
 62
7
  6
CONTINUOUS
 10
11.2673571288
 20
20.1841942654
 11
10.5603881887
 21
20.5376787354
  0
LINE
  5
39C
100
AcDbEntity
  8
218140000
100
AcDbLine
 62
7
  6
CONTINUOUS
 10
10.2998934164
 20
21.0203243766
 11
9.8612829438
 21
21.2396296129
  0
LINE
  5
39D
100
AcDbEntity
  8
715
100
AcDbLine
 62
7
  6
CONTINUOUS
 10
13.9707334081
 20
20.3002118126
 11
14.0835082933
 21
20.2437194865
  0
LWPOLYLINE
  5
39E
100
AcDbEntity
  8
715
100
AcDbPolyline
 62
7
  6
CONTINUOUS
 90
10
 70
0
 10
13.9327893408
 20
20.3128794676
 10
13.8353122871
 20
20.3629348993
 10
13.7396990853
 20
20.4119107749
 10
13.6459497353
 20
20.4598070945
 10
13.5540786541
 20
20.5066252823
 10
13.4640714246
 20
20.552363914
 10
13.3758847966
 20
20.597018717
 10
13.2895043532
 20
20.6405882672
 10
13.2049445112
 20
20.6830739886
 10
13.1222052707
 20
20.7244758813
  0
LINE
  5
39F
100
AcDbEntity
  8
715
100
AcDbLine
 62
7
  6
CONTINUOUS
 10
13.9405477695
 20
20.3082929955
 11
13.9327893408
 21
20.3128794676
  0
LWPOLYLINE
  5
3A0
100
AcDbEntity
  8
715
100
AcDbPolyline
 62
250
  6
CONTINUOUS
 90
5
 70
0
 10
13.9707334081
 20
20.3002118126
 10
13.9952563984
 20
20.2797074342
 10
14.0196221601
 20
20.2584291698
 10
14.0437589103
 20
20.2363668925
 10
14.0519077377
 20
20.2285529229
  0
LWPOLYLINE
  5
3A1
100
AcDbEntity
  8
715
100
AcDbPolyline
 62
250
  6
CONTINUOUS
 90
4
 70
0
 10
13.8770968089
 20
20.2939158042
 10
13.8999572383
 20
20.2743370707
 10
13.9225347766
 20
20.2539840242
 10
13.9448294238
 20
20.2328566646
  0
LINE
  5
3A2
100
AcDbEntity
  8
715
100
AcDbLine
 62
250
  6
CONTINUOUS
 10
13.9448294238
 20
20.2328566646
 11
13.9668749222
 21
20.2110267776
  0
LINE
  5
3A3
100
AcDbEntity
  8
715
100
AcDbLine
 62
250
  6
CONTINUOUS
 10
13.9668749222
 20
20.2110267776
 11
13.9822079613
 21
20.1951007868
  0
LWPOLYLINE
  5
3A4
100
AcDbEntity
  8
218140000
100
AcDbPolyline
 62
250
  6
CONTINUOUS
 90
35
 70
0
 10
19.1514454969
 20
17.103850517
 10
19.1630430232
 20
17.0669755965
 10
19.1829805307
 20
16.994061725
 10
19.1992945277
 20
16.9230899746
 10
19.212890288
 20
16.8540236396
 10
19.2239480449
 20
16.7870447703
 10
19.2324754199
 20
16.7221212689
 10
19.2390751013
 20
16.6588697057
 10
19.2438875152
 20
16.5973110174
 10
19.2469070547
 20
16.5375162117
 10
19.2484791928
 20
16.4791575068
 10
19.2486953717
 20
16.4221867774
 10
19.2475644247
 20
16.366710384
 10
19.2452865966
 20
16.3126222822
 10
19.241925451
 20
16.2599077687
 10
19.2375028749
 20
16.2086216443
 10
19.2321479579
 20
16.1587577078
 10
19.2259192184
 20
16.1103414642
 10
19.2188354502
 20
16.0633755094
 10
19.2109613666
 20
16.0178164642
 10
19.2023546824
 20
15.9736798382
 10
19.1930256468
 20
15.9309687281
 10
19.1829637283
 20
15.8896186998
 10
19.1722141366
 20
15.849591143
 10
19.1607905818
 20
15.810936107
 10
19.1486346125
 20
15.7737204309
 10
19.135782169
 20
15.7378933806
 10
19.1222522813
 20
15.7035126947
 10
19.1079650888
 20
15.6708071319
 10
19.0929536309
 20
15.639739487
 10
19.0772375326
 20
15.6103518424
 10
19.0607224483
 20
15.5829919721
 10
19.0433941703
 20
15.5577777088
 10
19.0253133353
 20
15.5345967329
 10
19.0064975064
 20
15.5134521998
  0
LINE
  5
3A5
100
AcDbEntity
  8
218140000
100
AcDbLine
 62
7
  6
CONTINUOUS
 10
14.5298063963
 20
20.780588002
 11
13.8033090076
 21
21.1438366964
  0
LINE
  5
3A6
100
AcDbEntity
  8
218140000
100
AcDbLine
 62
7
  6
CONTINUOUS
 10
14.346976736
 20
20.8876626848
 11
14.042857352
 21
21.0397223768
  0
LINE
  5
3A7
100
AcDbEntity
  8
218140000
100
AcDbLine
 62
7
  6
CONTINUOUS
 10
16.7415767697
 20
21.5194490966
 11
13.6293391969
 21
23.075567883
  0
LWPOLYLINE
  5
3A8
100
AcDbEntity
  8
218140000
100
AcDbPolyline
 62
7
  6
CONTINUOUS
 90
10
 70
0
 10
14.346976736
 20
20.8876626848
 10
14.3155612815
 20
20.905715497
 10
14.2835443043
 20
20.9234827994
 10
14.2509258041
 20
20.940964592
 10
14.2176956134
 20
20.9581659587
 10
14.1838638998
 20
20.9750818155
 10
14.1494611665
 20
20.9916969108
 10
14.1144975813
 20
21.0080061609
 10
14.0789629765
 20
21.0240146495
 10
14.042857352
 20
21.0397223768
  0
LWPOLYLINE
  5
3A9
100
AcDbEntity
  8
218140000
100
AcDbPolyline
 62
7
  6
CONTINUOUS
 90
35
 70
0
 10
19.1514454969
 20
19.1859385888
 10
19.2682190256
 20
19.1088364825
 10
19.4080156991
 20
19.0043228363
 10
19.5447535549
 20
18.8897942392
 10
19.6776189984
 20
18.7660777347
 10
19.8060044516
 20
18.6339309596
 10
19.9295860518
 20
18.4938635537
 10
20.0479662131
 20
18.34645805
 10
20.1607205962
 20
18.1923471604
 10
20.2673961622
 20
18.0322403764
 10
20.3675531743
 20
17.8668846193
 10
20.4607691181
 20
17.6970668575
 10
20.5467222407
 20
17.5234488269
 10
20.6251376224
 20
17.3466108682
 10
20.6957042974
 20
17.1672203044
 10
20.7580788797
 20
16.9860857443
 10
20.8119636158
 20
16.8039904493
 10
20.8571003389
 20
16.6216858663
 10
20.8932592416
 20
16.4399090293
 10
20.9202349856
 20
16.2593855695
 10
20.9378547909
 20
16.0806831172
 10
20.945927692
 20
15.9046866014
 10
20.9443276303
 20
15.7325063607
 10
20.9329802581
 20
15.5645903853
 10
20.9118456559
 20
15.401813449
 10
20.8811163019
 20
15.2457198086
 10
20.8410118095
 20
15.0969778439
 10
20.7916854613
 20
14.9558849134
 10
20.7334903416
 20
14.8232188235
 10
20.6666819579
 20
14.6993214727
 10
20.5916132443
 20
14.5846623745
 10
20.5090235388
 20
14.4800647364
 10
20.4195843678
 20
14.385937397
 10
20.3237600595
 20
14.3023568371
 10
20.22216859
 20
14.2295079116
  0
LWPOLYLINE
  5
3AA
100
AcDbEntity
  8
218140000
100
AcDbPolyline
 62
250
  6
CONTINUOUS
 90
34
 70
0
 10
19.1514454969
 20
19.1073280678
 10
19.2295405877
 20
19.0518162643
 10
19.3666814576
 20
18.9423606551
 10
19.5012239492
 20
18.8228351816
 10
19.632540528
 20
18.6937973328
 10
19.7600186866
 20
18.5558489845
 10
19.8830638234
 20
18.4096335739
 10
20.0011020188
 20
18.2558330951
 10
20.1135827133
 20
18.0951649131
 10
20.219981268
 20
17.9283784257
 10
20.319801411
 20
17.7562515702
 10
20.4125775523
 20
17.5795871954
 10
20.4978769576
 20
17.3992093145
 10
20.5753017664
 20
17.2159592606
 10
20.6444908482
 20
17.0306917627
 10
20.7051214859
 20
16.8442709597
 10
20.7569108814
 20
16.6575663699
 10
20.7996174744
 20
16.4714488357
 10
20.8330420695
 20
16.2867864614
 10
20.857028765
 20
16.1044405636
 10
20.8714656802
 20
15.9252616546
 10
20.8762854775
 20
15.7500854746
 10
20.8714656759
 20
15.5797290941
 10
20.8570287564
 20
15.414987103
 10
20.8330420566
 20
15.2566279036
 10
20.7996174572
 20
15.1053901274
 10
20.75691086
 20
14.9619791896
 10
20.7051214604
 20
14.827063999
 10
20.6444908186
 20
14.7012738377
 10
20.5753017328
 20
14.5851954259
 10
20.4978769201
 20
14.4793701855
 10
20.412577511
 20
14.3842917146
 10
20.319801366
 20
14.3004034862
 10
20.22216859
 20
14.2295079116
  0
LINE
  5
3AB
100
AcDbEntity
  8
218140000
100
AcDbLine
 62
250
  6
CONTINUOUS
 10
18.1403446223
 20
21.4012672032
 11
18.5598878333
 21
20.6776622017
  0
LINE
  5
3AC
100
AcDbEntity
  8
218140000
100
AcDbLine
 62
7
  6
CONTINUOUS
 10
18.5306089867
 20
21.3956573893
 11
18.8774467572
 21
20.7974507234
  0
LWPOLYLINE
  5
3AD
100
AcDbEntity
  8
218140000
100
AcDbPolyline
 62
250
  6
CONTINUOUS
 90
13
 70
0
 10
18.5598878333
 20
20.6776622017
 10
18.6116570827
 20
20.5840816843
 10
18.6597004332
 20
20.4883622297
 10
18.7038121556
 20
20.3909137233
 10
18.7438033568
 20
20.2921534541
 10
18.7795027881
 20
20.1925043291
 10
18.8107575784
 20
20.0923930624
 10
18.83743389
 20
19.9922483457
 10
18.8594174909
 20
19.8924990141
 10
18.8766142437
 20
19.7935722106
 10
18.8889505095
 20
19.6958915554
 10
18.8963734627
 20
19.5998753316
 10
18.8988513172
 20
19.5059346953
  0
LINE
  5
3AE
100
AcDbEntity
  8
218140000
100
AcDbLine
 62
250
  6
CONTINUOUS
 10
18.1403446223
 20
21.4012672032
 11
17.3346726863
 21
21.8041031712
  0
LINE
  5
3AF
100
AcDbEntity
  8
218140000
100
AcDbLine
 62
250
  6
CONTINUOUS
 10
12.6330096072
 20
24.1549347107
 11
11.6618507735
 21
24.6405141276
  0
LINE
  5
3B0
100
AcDbEntity
  8
218140000
100
AcDbLine
 62
7
  6
CONTINUOUS
 10
18.4706199999
 20
21.4519493073
 11
17.6448610998
 21
21.8648287574
  0
LINE
  5
3B1
100
AcDbEntity
  8
218140000
100
AcDbLine
 62
7
  6
CONTINUOUS
 10
13.1055923787
 20
24.1344631179
 11
12.053236366
 21
24.6606411242
  0
LWPOLYLINE
  5
3B2
100
AcDbEntity
  8
218140000
100
AcDbPolyline
 62
7
  6
CONTINUOUS
 90
4
 70
0
 10
18.4725455518
 20
21.450986334
 10
18.4861890279
 20
21.4431715921
 10
18.5097247244
 20
21.4237993137
 10
18.5299028672
 20
21.3969214821
  0
LWPOLYLINE
  5
3B3
100
AcDbEntity
  8
218140000
100
AcDbPolyline
 62
250
  6
CONTINUOUS
 90
12
 70
0
 10
18.8774467572
 20
20.7974507234
 10
18.8760876205
 20
20.7990478375
 10
18.8681687024
 20
20.8015694406
 10
18.85452411
 20
20.8007006314
 10
18.8352553933
 20
20.7964478761
 10
18.8105059603
 20
20.7888428258
 10
18.7804600093
 20
20.7779420812
 10
18.7453411579
 20
20.7638267716
 10
18.7054107789
 20
20.7466019505
 10
18.6609660549
 20
20.7263958141
 10
18.612337767
 20
20.7033587472
 10
18.5598878323
 20
20.6776622035
  0
ELLIPSE
  5
3B4
100
AcDbEntity
  8
RACCORDO
100
AcDbEllipse
 62
7
  6
CONTINUOUS
 10
-12.5030587871
 20
20.950618214
 30
0.0
 11
-0.2714549605
 21
0.7527883138
 31
0.0
 40
0.6648474984
 41
-0.6093959365
 42
0.0215116482
  0
ELLIPSE
  5
3B5
100
AcDbEntity
  8
RACCORDO
100
AcDbEllipse
 62
7
  6
CONTINUOUS
 10
1.7803258534
 20
13.8089258938
 30
0.0
 11
-0.2711888907
 21
0.7526410468
 31
0.0
 40
0.6652277853
 41
-2.1799207184
 42
-0.6094289781
  0
ELLIPSE
  5
3B6
100
AcDbEntity
  8
RACCORDO
100
AcDbEllipse
 62
7
  6
CONTINUOUS
 10
-1.5576045337
 20
-23.7409476794
 30
0.0
 11
-0.2714549605
 21
0.7527883138
 31
0.0
 40
0.6648474984
 41
-3.163218856
 42
-2.1804968498
  0
ELLIPSE
  5
3B7
100
AcDbEntity
  8
218140000
100
AcDbEllipse
 62
7
  6
CONTINUOUS
 10
11.5548831346
 20
21.3383442036
 30
0.0
 11
3.3311333813
 21
-0.0467042088
 31
0.0
 40
0.4892378494
 41
3.8528301344
 42
5.5059722822
  0
ELLIPSE
  5
3B8
100
AcDbEntity
  8
218140000
100
AcDbEllipse
 62
7
  6
CONTINUOUS
 10
12.2503733957
 20
20.0450843869
 30
0.0
 11
2.7583300471
 21
-0.038763314
 31
0.0
 40
0.4892375088
 41
0.4291477653
 42
0.6564870977
  0
ELLIPSE
  5
3B9
100
AcDbEntity
  8
218140000
100
AcDbEllipse
 62
7
  6
CONTINUOUS
 10
11.5786219536
 20
20.1565820709
 30
0.0
 11
2.7499350056
 21
-0.0386453369
 31
0.0
 40
0.4892375088
 41
8.654981679
 42
9.2557277435
  0
ELLIPSE
  5
3BA
100
AcDbEntity
  8
218140000
100
AcDbEllipse
 62
7
  6
CONTINUOUS
 10
12.2503733957
 20
20.0450843869
 30
0.0
 11
2.7583300471
 21
-0.038763314
 31
0.0
 40
0.4892375088
 41
0.9280596999
 42
2.3630697256
  0
ELLIPSE
  5
3BB
100
AcDbEntity
  8
218140000
100
AcDbEllipse
 62
7
  6
CONTINUOUS
 10
16.9560876268
 20
21.202984904
 30
0.0
 11
0.716172246
 21
0.6416715914
 31
0.0
 40
0.2882345029
 41
0.1142323894
 42
0.7807533904
  0
ELLIPSE
  5
3BC
100
AcDbEntity
  8
218140000
100
AcDbEllipse
 62
7
  6
CONTINUOUS
 10
12.2503733957
 20
21.9897950981
 30
0.0
 11
2.7583515655
 21
-1.4175703156
 31
0.0
 40
0.0109499087
 41
-0.9155571536
 42
-0.85781018
  0
ELLIPSE
  5
3BD
100
AcDbEntity
  8
218140000
100
AcDbEllipse
 62
7
  6
CONTINUOUS
 10
12.2503733957
 20
21.9897950981
 30
0.0
 11
2.7583515655
 21
-1.4175703156
 31
0.0
 40
0.0109499087
 41
-0.7017315251
 42
-0.6439845515
  0
ELLIPSE
  5
3BE
100
AcDbEntity
  8
218140000
100
AcDbEllipse
 62
7
  6
CONTINUOUS
 10
12.2503733957
 20
20.4780970888
 30
0.0
 11
2.7583300471
 21
-0.038763314
 31
0.0
 40
0.4892375088
 41
0.1708839954
 42
2.3630697256
  0
ELLIPSE
  5
3BF
100
AcDbEntity
  8
218140000
100
AcDbEllipse
 62
7
  6
CONTINUOUS
 10
12.9893813798
 20
23.1863380275
 30
0.0
 11
-0.2796057293
 21
0.9974617846
 31
0.0
 40
0.6760995073
 41
4.8467711056
 42
6.4001141399
  0
ELLIPSE
  5
3C0
100
AcDbEntity
  8
218140000
100
AcDbEllipse
 62
7
  6
CONTINUOUS
 10
11.5548831346
 20
21.3383442036
 30
0.0
 11
3.3311333813
 21
-0.0467042088
 31
0.0
 40
0.4892378494
 41
2.3616770883
 42
3.7058786528
  0
ELLIPSE
  5
3C1
100
AcDbEntity
  8
268
100
AcDbEllipse
 62
7
  6
CONTINUOUS
 10
0.1327482089
 20
-24.3352429798
 30
0.0
 11
0.110769438
 21
0.2241226716
 31
0.0
 40
0.6088015717
 41
-4.0304836828
 42
-3.1443955108
  0
ELLIPSE
  5
3C2
100
AcDbEntity
  8
268
100
AcDbEllipse
 62
7
  6
CONTINUOUS
 10
-13.2315699555
 20
23.8998916356
 30
0.0
 11
0.110769438
 21
0.2241226716
 31
0.0
 40
0.6088015717
 41
-4.0304836828
 42
-3.1443650652
  0
ELLIPSE
  5
3C3
100
AcDbEntity
  8
268
100
AcDbEllipse
 62
7
  6
CONTINUOUS
 10
0.1327482089
 20
17.2177325533
 30
0.0
 11
0.110769438
 21
0.2241226716
 31
0.0
 40
0.6088015717
 41
-4.0304836828
 42
-3.1443650652
  0
ELLIPSE
  5
3C4
100
AcDbEntity
  8
268
100
AcDbEllipse
 62
7
  6
CONTINUOUS
 10
4.1893560902
 20
15.9260145042
 30
0.0
 11
-0.1565168911
 21
0.3130623908
 31
0.0
 40
0.6123677712
 41
-2.2554744912
 42
-0.6846781644
  0
ELLIPSE
  5
3C5
100
AcDbEntity
  8
268
100
AcDbEllipse
 62
7
  6
CONTINUOUS
 10
4.1893560902
 20
-22.2505673405
 30
0.0
 11
-0.1565168911
 21
0.3130623908
 31
0.0
 40
0.6123677712
 41
-3.1363904945
 42
-2.2554744912
  0
ELLIPSE
  5
3C6
100
AcDbEntity
  8
268
100
AcDbEllipse
 62
7
  6
CONTINUOUS
 10
-1.5772394583
 20
25.0312458094
 30
0.0
 11
0.2999991737
 21
-0.0014183462
 31
0.0
 40
0.4964289597
 41
0.7877451926
 42
2.3527237553
  0
ELLIPSE
  5
3C7
100
AcDbEntity
  8
268
100
AcDbEllipse
 62
7
  6
CONTINUOUS
 10
3.9772240558
 20
22.2540140523
 30
0.0
 11
0.2999991737
 21
-0.0014183462
 31
0.0
 40
0.4964289597
 41
0.7877451926
 42
2.3585415194
  0
ELLIPSE
  5
3C8
100
AcDbEntity
  8
268
100
AcDbEllipse
 62
7
  6
CONTINUOUS
 10
3.5165761913
 20
16.5435855151
 30
0.0
 11
0.110769438
 21
0.2241226716
 31
0.0
 40
0.6088015717
 41
1.2055040732
 42
2.2526937431
  0
ELLIPSE
  5
3C9
100
AcDbEntity
  8
268
100
AcDbEllipse
 62
7
  6
CONTINUOUS
 10
-9.8477419731
 20
23.2257445973
 30
0.0
 11
0.110769438
 21
0.2241226716
 31
0.0
 40
0.6088015717
 41
1.2055040732
 42
2.2526937431
  0
ELLIPSE
  5
3CA
100
AcDbEntity
  8
268
100
AcDbEllipse
 62
7
  6
CONTINUOUS
 10
3.8680726685
 20
17.4713906671
 30
0.0
 11
0.110769438
 21
0.2241226716
 31
0.0
 40
0.6088015717
 41
-1.9360885804
 42
-0.8888910292
  0
ELLIPSE
  5
3CB
100
AcDbEntity
  8
268
100
AcDbEllipse
 62
7
  6
CONTINUOUS
 10
2.2478978121
 20
18.5424070717
 30
0.0
 11
0.1128509832
 21
0.2230818409
 31
0.0
 40
0.6159267166
 41
0.0028979148
 42
0.6817883054
  0
ELLIPSE
  5
3CC
100
AcDbEntity
  8
268
100
AcDbEllipse
 62
7
  6
CONTINUOUS
 10
0.1327482089
 20
17.4711039471
 30
0.0
 11
0.110769438
 21
0.2241226716
 31
0.0
 40
0.6088015717
 41
0.6877230618
 42
2.2527016244
  0
ELLIPSE
  5
3CD
100
AcDbEntity
  8
268
100
AcDbEllipse
 62
7
  6
CONTINUOUS
 10
-9.4962454959
 20
24.1535497493
 30
0.0
 11
0.110769438
 21
0.2241226716
 31
0.0
 40
0.6088015717
 41
-1.9360885804
 42
-0.8888910292
  0
ELLIPSE
  5
3CE
100
AcDbEntity
  8
268
100
AcDbEllipse
 62
7
  6
CONTINUOUS
 10
-11.1164203523
 20
25.2245661539
 30
0.0
 11
0.1128509832
 21
0.2230818409
 31
0.0
 40
0.6159267166
 41
0.0028979148
 42
0.6817883054
  0
ELLIPSE
  5
3CF
100
AcDbEntity
  8
268
100
AcDbEllipse
 62
7
  6
CONTINUOUS
 10
-13.2315699555
 20
24.1532630293
 30
0.0
 11
0.110769438
 21
0.2241226716
 31
0.0
 40
0.6088015717
 41
0.6877230618
 42
2.2527016244
  0
ELLIPSE
  5
3D0
100
AcDbEntity
  8
268
100
AcDbEllipse
 62
7
  6
CONTINUOUS
 10
3.8680726685
 20
-24.0891424486
 30
0.0
 11
0.110769438
 21
0.2241226716
 31
0.0
 40
0.6088015717
 41
-2.4538695918
 42
-0.8888910292
  0
ELLIPSE
  5
3D1
100
AcDbEntity
  8
268
100
AcDbEllipse
 62
7
  6
CONTINUOUS
 10
0.1327482089
 20
-24.081871586
 30
0.0
 11
0.110769438
 21
0.2241226716
 31
0.0
 40
0.6088015717
 41
1.2055040732
 42
2.2527016244
  0
ELLIPSE
  5
3D2
100
AcDbEntity
  8
268
100
AcDbEllipse
 62
7
  6
CONTINUOUS
 10
3.8680726685
 20
-23.8282134723
 30
0.0
 11
0.110769438
 21
0.2241226716
 31
0.0
 40
0.6088015717
 41
5.394294278
 42
6.4414918292
  0
ELLIPSE
  5
3D3
100
AcDbEntity
  8
268
100
AcDbEllipse
 62
7
  6
CONTINUOUS
 10
-9.4962454959
 20
24.4144787257
 30
0.0
 11
0.110769438
 21
0.2241226716
 31
0.0
 40
0.6088015717
 41
5.394294278
 42
6.9592728406
  0
ELLIPSE
  5
3D4
100
AcDbEntity
  8
268
100
AcDbEllipse
 62
7
  6
CONTINUOUS
 10
3.8680726685
 20
17.7323196435
 30
0.0
 11
0.110769438
 21
0.2241226716
 31
0.0
 40
0.6088015717
 41
5.394294278
 42
6.9592728406
  0
ELLIPSE
  5
3D5
100
AcDbEntity
  8
268
100
AcDbEllipse
 62
7
  6
CONTINUOUS
 10
-1.3967874812
 20
23.7091856394
 30
0.0
 11
0.2999981629
 21
-0.0021225547
 31
0.0
 40
0.4946372042
 41
-0.7818985079
 42
0.0034997008
  0
ELLIPSE
  5
3D6
100
AcDbEntity
  8
268
100
AcDbEllipse
 62
7
  6
CONTINUOUS
 10
4.157676033
 20
20.9319538823
 30
0.0
 11
0.2999981629
 21
-0.0021225547
 31
0.0
 40
0.4946372042
 41
-0.7760807437
 42
0.0035109161
  0
ELLIPSE
  5
3D7
100
AcDbEntity
  8
268
100
AcDbEllipse
 62
7
  6
CONTINUOUS
 10
-7.5457332087
 20
22.1110644415
 30
0.0
 11
0.2999991335
 21
0.0014318851
 31
0.0
 40
0.5035541159
 41
8.6427941204
 42
10.207772683
  0
ELLIPSE
  5
3D8
100
AcDbEntity
  8
268
100
AcDbEllipse
 62
7
  6
CONTINUOUS
 10
-13.5590241176
 20
22.3139943402
 30
0.0
 11
-0.1565168911
 21
0.3130623908
 31
0.0
 40
0.6123677712
 41
-0.6846781644
 42
0.8861181623
  0
ELLIPSE
  5
3D9
100
AcDbEntity
  8
268
100
AcDbEllipse
 62
7
  6
CONTINUOUS
 10
1.714482356
 20
14.6772411033
 30
0.0
 11
-0.1565168911
 21
0.3130623908
 31
0.0
 40
0.6123677712
 41
-2.2554744912
 42
-0.6846781644
  0
ELLIPSE
  5
3DA
100
AcDbEntity
  8
268
100
AcDbEllipse
 62
7
  6
CONTINUOUS
 10
0.3279477615
 20
-8.3658621226
 30
0.0
 11
-0.1085782352
 21
0.1690527654
 31
0.0
 40
0.5459771812
 41
-3.2040641194
 42
-2.3138348679
  0
ELLIPSE
  5
3DB
100
AcDbEntity
  8
268
100
AcDbEllipse
 62
7
  6
CONTINUOUS
 10
-1.7532241406
 20
19.2148099074
 30
0.0
 11
0.2999991335
 21
0.0014318851
 31
0.0
 40
0.5035541159
 41
-2.3585979313
 42
-0.7936193687
  0
ELLIPSE
  5
3DC
100
AcDbEntity
  8
268
100
AcDbEllipse
 62
7
  6
CONTINUOUS
 10
-1.7532241406
 20
18.0006108316
 30
0.0
 11
0.2999980272
 21
0.0021530184
 31
0.0
 40
0.5053247124
 41
-2.3598210761
 42
-0.7948425135
  0
ELLIPSE
  5
3DD
100
AcDbEntity
  8
268
100
AcDbEllipse
 62
7
  6
CONTINUOUS
 10
-7.5457332087
 20
20.8968653656
 30
0.0
 11
0.2999980272
 21
0.0021530184
 31
0.0
 40
0.5053247124
 41
3.1379773283
 42
3.9233642311
  0
ELLIPSE
  5
3DE
100
AcDbEntity
  8
268
100
AcDbEllipse
 62
7
  6
CONTINUOUS
 10
4.157676033
 20
22.1637880637
 30
0.0
 11
0.2999991737
 21
-0.0014183462
 31
0.0
 40
0.4964289597
 41
-0.77723337
 42
0.7877451926
  0
ELLIPSE
  5
3DF
100
AcDbEntity
  8
268
100
AcDbEllipse
 62
7
  6
CONTINUOUS
 10
-1.3967874812
 20
24.9410198208
 30
0.0
 11
0.2999991737
 21
-0.0014183462
 31
0.0
 40
0.4964289597
 41
-0.7830511342
 42
0.7877451926
  0
ELLIPSE
  5
3E0
100
AcDbEntity
  8
268
100
AcDbEllipse
 62
7
  6
CONTINUOUS
 10
1.714482356
 20
-23.4766676737
 30
0.0
 11
-0.1565168911
 21
0.3130623908
 31
0.0
 40
0.6123677712
 41
2.4569144891
 42
4.0277108159
  0
ELLIPSE
  5
3E1
100
AcDbEntity
  8
268
100
AcDbEllipse
 62
7
  6
CONTINUOUS
 10
3.5165761913
 20
-23.2560186243
 30
0.0
 11
0.110769438
 21
0.2241226716
 31
0.0
 40
0.6088015717
 41
2.2527095058
 42
3.2998991756
  0
ELLIPSE
  5
3E2
100
AcDbEntity
  8
268
100
AcDbEllipse
 62
7
  6
CONTINUOUS
 10
1.7405815846
 20
16.6671872593
 30
0.0
 11
0.1128509832
 21
0.2230818409
 31
0.0
 40
0.6159267166
 41
0.6934238338
 42
2.2584023964
  0
ELLIPSE
  5
3E3
100
AcDbEntity
  8
268
100
AcDbEllipse
 62
7
  6
CONTINUOUS
 10
1.7405815846
 20
16.4138158655
 30
0.0
 11
0.1128509832
 21
0.2230818409
 31
0.0
 40
0.6159267166
 41
-4.0247829108
 42
-2.9775853596
  0
ELLIPSE
  5
3E4
100
AcDbEntity
  8
268
100
AcDbEllipse
 62
7
  6
CONTINUOUS
 10
-11.6237365799
 20
23.3493463415
 30
0.0
 11
0.1128509832
 21
0.2230818409
 31
0.0
 40
0.6159267166
 41
0.6934238338
 42
2.2584023964
  0
ELLIPSE
  5
3E5
100
AcDbEntity
  8
268
100
AcDbEllipse
 62
7
  6
CONTINUOUS
 10
-11.6237365799
 20
23.0959749477
 30
0.0
 11
0.1128509832
 21
0.2230818409
 31
0.0
 40
0.6159267166
 41
-4.0247829108
 42
-2.9775853596
  0
ELLIPSE
  5
3E6
100
AcDbEntity
  8
268
100
AcDbEllipse
 62
7
  6
CONTINUOUS
 10
1.7405815846
 20
-25.1391596676
 30
0.0
 11
0.1128509832
 21
0.2230818409
 31
0.0
 40
0.6159267166
 41
-4.0247829108
 42
-2.4598043482
  0
ELLIPSE
  5
3E7
100
AcDbEntity
  8
268
100
AcDbEllipse
 62
7
  6
CONTINUOUS
 10
1.7405815846
 20
-24.8857882739
 30
0.0
 11
0.1128509832
 21
0.2230818409
 31
0.0
 40
0.6159267166
 41
1.2112048452
 42
2.2584023964
  0
ELLIPSE
  5
3E8
100
AcDbEntity
  8
268
100
AcDbEllipse
 62
7
  6
CONTINUOUS
 10
0.0622760499
 20
-18.0350133069
 30
0.0
 11
-0.542618321
 21
0.8478124368
 31
0.0
 40
0.5451249042
 41
-3.2164376038
 42
-2.3115524019
  0
ENDSEC
  0
SECTION
  2
OBJECTS
  0
DICTIONARY
  5
C
100
AcDbDictionary
280
0
281
1
  3
ACAD_GROUP
350
D
  3
ACAD_MLINESTYLE
350
17
  3
ACAD_LAYOUT
350
1A
  3
ACAD_PLOTSETTINGS
350
19
  3
ACAD_PLOTSTYLENAME
350
E
  0
DICTIONARY
  5
D
102
{ACAD_REACTORS
330
C
102
}
100
AcDbDictionary
280
0
281
1
  0
ACDBDICTIONARYWDFLT
  5
E
102
{ACAD_REACTORS
330
C
102
}
100
AcDbDictionary
281
1
  3
Normal
350
F
100
AcDbDictionaryWithDefault
340
F
  0
DICTIONARY
  5
17
102
{ACAD_REACTORS
330
C
102
}
100
AcDbDictionary
280
0
281
1
  3
Standard
350
18
  0
DICTIONARY
  5
19
102
{ACAD_REACTORS
330
C
102
}
100
AcDbDictionary
281
1
  0
DICTIONARY
  5
1A
102
{ACAD_REACTORS
330
C
102
}
100
AcDbDictionary
281
1
  3
Model
350
3E9
  3
Layout1
350
3EA
  0
ACDBPLACEHOLDER
  5
F
102
{ACAD_REACTORS
330
E
102
}
  0
MLINESTYLE
  5
18
102
{ACAD_REACTORS
330
17
102
}
100
AcDbMlineStyle
  2
STANDARD
 70
0
  3

 62
256
 51
90.0
 52
90.0
 71
2
 49
0.5
 62
256
  6
BYLAYER
 49
-0.5
 62
256
  6
BYLAYER
  0
LAYOUT
  5
3E9
102
{ACAD_REACTORS
330
1A
102
}
100
AcDbPlotSettings
  1

  2
none_device
  4
ISO_A4_(297.00_x_210.00_MM)
  6

 40
0.0
 41
0.0
 42
0.0
 43
0.0
 44
297.0
 45
210.0
 46
0.0
 47
0.0
 48
0.0
 49
0.0
140
0.0
141
0.0
142
1.0
143
1.0
 70
1024
 72
1
 73
0
 74
0
  7

 75
0
147
1.0
148
0.0
149
0.0
100
AcDbLayout
  1
Model
 70
0
 71
0
 10
0.0
 20
0.0
 11
297.0
 21
210.0
 12
0.0
 22
0.0
 32
0.0
 14
0.0
 24
0.0
 34
0.0
 15
0.0
 25
0.0
 35
0.0
146
0.0
 13
0.0
 23
0.0
 33
0.0
 16
1.0
 26
0.0
 36
0.0
 17
0.0
 27
1.0
 37
0.0
 76
0
330
22E
345
0
346
0
  0
LAYOUT
  5
3EA
102
{ACAD_REACTORS
330
1A
102
}
100
AcDbPlotSettings
  1

  2
none_device
  4
ISO_A4_(297.00_x_210.00_MM)
  6

 40
0.0
 41
0.0
 42
0.0
 43
0.0
 44
297.0
 45
210.0
 46
0.0
 47
0.0
 48
0.0
 49
0.0
140
0.0
141
0.0
142
1.0
143
1.0
 70
0
 72
1
 73
0
 74
0
  7

 75
0
147
1.0
148
0.0
149
0.0
100
AcDbLayout
  1
Layout1
 70
0
 71
1
 10
0.0
 20
0.0
 11
297.0
 21
210.0
 12
0.0
 22
0.0
 32
0.0
 14
0.0
 24
0.0
 34
0.0
 15
0.0
 25
0.0
 35
0.0
146
0.0
 13
0.0
 23
0.0
 33
0.0
 16
1.0
 26
0.0
 36
0.0
 17
0.0
 27
1.0
 37
0.0
 76
0
330
22F
345
0
346
0
  0
ENDSEC
  0
EOF
