  0
SECTION
  2
HEADER
  9
$ACADVER
  1
AC1015
  9
$DWGCODEPAGE
  3
ANSI_1252
  9
$EXTMAX
 10
297.0
 20
210.0
 30
0.0
  9
$EXTMIN
 10
0.0
 20
0.0
 30
0.0
  9
$LIMMIN
 10
0.0
 20
0.0
  9
$LIMMAX
 10
297.0
 20
210.0
  9
$VIEWCTR
 10
148.5
 20
105.0
  9
$VIEWSIZE
 40
210.0
  9
$CLAYER
  8
0
  9
$LTSCALE
 40
16.335
  9
$CELTYPE
  6
BYLAYER
  9
$DIMSCALE
 40
1.0
  9
$DIMASZ
 40
3.0
  9
$DIMEXO
 40
0.5
  9
$DIMDLI
 40
11.286
  9
$DIMEXE
 40
1.5
  9
$DIMCEN
 40
2.673
  9
$DIMLFAC
 40
1.0
  9
$DIMBLK
  1
_FILLED
  9
$DIMTXT
 40
3.0
  9
$DIMTOL
 70
1
  9
$DIMLIM
 70
0
  9
$DIMTFAC
 40
1.0
  9
$DIMTP
 40
0.01
  9
$DIMTM
 40
0.01
  9
$DIMGAP
 40
0.625
  9
$DIMDSEP
 70
44
  9
$PDMODE
 70
3
  9
$PDSIZE
 40
3.0
  9
$HANDSEED
  5
39D
  9
$TILEMODE
 70
1
  9
$MEASUREMENT
 70
1
  9
$INSUNITS
 70
4
  0
ENDSEC
  0
SECTION
  2
CLASSES
  0
CLASS
  1
ACDBDICTIONARYWDFLT
  2
AcDbDictionaryWithDefault
  3
AutoCAD 2000
 90
0
280
0
281
0
  0
CLASS
  1
ACDBPLACEHOLDER
  2
AcDbPlaceHolder
  3
AutoCAD 2000
 90
0
280
0
281
0
  0
CLASS
  1
LAYOUT
  2
AcDbLayout
  3
AutoCAD 2000
 90
0
280
0
281
0
  0
ENDSEC
  0
SECTION
  2
TABLES
  0
TABLE
  2
VPORT
  5
8
100
AcDbSymbolTable
 70
2
  0
VPORT
  5
1F4
100
AcDbSymbolTableRecord
100
AcDbViewportTableRecord
  2
*ACTIVE
 70
0
 10
0.0
 20
0.0
 11
1.0
 21
1.0
 12
148.5
 22
105.0
 13
0.0
 23
0.0
 14
1.0
 24
1.0
 15
0.0
 25
0.0
 16
0.0
 26
0.0
 36
1.0
 17
0.0
 27
0.0
 37
0.0
 40
210.0
 41
1.4142857143
 42
50.0
 43
0.0
 44
0.0
 50
0.0
 51
0.0
 71
0
 72
100
 73
1
 74
1
 75
0
 76
0
 77
0
 78
0
  0
ENDTAB
  0
TABLE
  2
LTYPE
  5
5
100
AcDbSymbolTable
 70
6
  0
LTYPE
  5
14
100
AcDbSymbolTableRecord
100
AcDbLinetypeTableRecord
  2
BYBLOCK
 70
0
  3

 72
65
 73
0
 40
0.0
  0
LTYPE
  5
15
100
AcDbSymbolTableRecord
100
AcDbLinetypeTableRecord
  2
BYLAYER
 70
0
  3

 72
65
 73
0
 40
0.0
  0
LTYPE
  5
16
100
AcDbSymbolTableRecord
100
AcDbLinetypeTableRecord
  2
CONTINUOUS
 70
64
  3
Solid line
 72
65
 73
0
 40
0.0
  0
LTYPE
  5
1F5
100
AcDbSymbolTableRecord
100
AcDbLinetypeTableRecord
  2
CENTER
 70
64
  3
____ _ ____ _ ____ _ ____ _ ____ _ ____ _ ____
 72
65
 73
4
 40
0.6
 49
0.375
 74
0
 49
-0.075
 74
0
 49
0.075
 74
0
 49
-0.075
 74
0
  0
LTYPE
  5
1F6
100
AcDbSymbolTableRecord
100
AcDbLinetypeTableRecord
  2
HIDDEN
 70
64
  3
- - - - - - - - - - - - - - - - - - - -
 72
65
 73
2
 40
0.2
 49
0.1
 74
0
 49
-0.1
 74
0
  0
LTYPE
  5
1F7
100
AcDbSymbolTableRecord
100
AcDbLinetypeTableRecord
  2
PHANTOM
 70
64
  3
_____ _ _ _____ _ _ _____ _ _ _____
 72
65
 73
6
 40
0.8
 49
0.45
 74
0
 49
-0.05
 74
0
 49
0.1
 74
0
 49
-0.05
 74
0
 49
0.1
 74
0
 49
-0.05
 74
0
  0
LTYPE
  5
1F8
100
AcDbSymbolTableRecord
100
AcDbLinetypeTableRecord
  2
DOT
 70
64
  3
. . . . . . . . . . . . . . . . . . . .
 72
65
 73
2
 40
0.2
 49
0.1
 74
0
 49
-0.1
 74
0
  0
LTYPE
  5
1F9
100
AcDbSymbolTableRecord
100
AcDbLinetypeTableRecord
  2
DASHED
 70
64
  3
- - - - - - - - - - - - - - - - - - - -
 72
65
 73
2
 40
0.2
 49
0.1
 74
0
 49
-0.1
 74
0
  0
ENDTAB
  0
TABLE
  2
LAYER
  5
2
100
AcDbSymbolTable
 70
36
  0
LAYER
  5
10
100
AcDbSymbolTableRecord
100
AcDbLayerTableRecord
  2
0
 70
0
 62
7
  6
CONTINUOUS
370
-3
390
F
  0
LAYER
  5
1FA
100
AcDbSymbolTableRecord
100
AcDbLayerTableRecord
  2
DEFAULT_1
 70
0
 62
7
  6
CENTER
370
-3
390
F
  0
LAYER
  5
1FB
100
AcDbSymbolTableRecord
100
AcDbLayerTableRecord
  2
DEFAULT_2
 70
0
 62
7
  6
HIDDEN
370
-3
390
F
  0
LAYER
  5
1FC
100
AcDbSymbolTableRecord
100
AcDbLayerTableRecord
  2
DEFAULT_3
 70
0
 62
7
  6
PHANTOM
370
-3
390
F
  0
LAYER
  5
1FD
100
AcDbSymbolTableRecord
100
AcDbLayerTableRecord
  2
218140000
 70
0
 62
7
  6
CONTINUOUS
370
-3
390
F
  0
LAYER
  5
1FE
100
AcDbSymbolTableRecord
100
AcDbLayerTableRecord
  2
218140080
 70
0
 62
7
  6
CONTINUOUS
370
-3
390
F
  0
LAYER
  5
1FF
100
AcDbSymbolTableRecord
100
AcDbLayerTableRecord
  2
260
 70
0
 62
7
  6
CONTINUOUS
370
-3
390
F
  0
LAYER
  5
200
100
AcDbSymbolTableRecord
100
AcDbLayerTableRecord
  2
268
 70
0
 62
7
  6
CONTINUOUS
370
-3
390
F
  0
LAYER
  5
201
100
AcDbSymbolTableRecord
100
AcDbLayerTableRecord
  2
284
 70
0
 62
7
  6
CONTINUOUS
370
-3
390
F
  0
LAYER
  5
202
100
AcDbSymbolTableRecord
100
AcDbLayerTableRecord
  2
290
 70
0
 62
7
  6
CONTINUOUS
370
-3
390
F
  0
LAYER
  5
203
100
AcDbSymbolTableRecord
100
AcDbLayerTableRecord
  2
320
 70
0
 62
7
  6
CONTINUOUS
370
-3
390
F
  0
LAYER
  5
204
100
AcDbSymbolTableRecord
100
AcDbLayerTableRecord
  2
340
 70
0
 62
7
  6
CONTINUOUS
370
-3
390
F
  0
LAYER
  5
205
100
AcDbSymbolTableRecord
100
AcDbLayerTableRecord
  2
712
 70
0
 62
7
  6
CONTINUOUS
370
-3
390
F
  0
LAYER
  5
206
100
AcDbSymbolTableRecord
100
AcDbLayerTableRecord
  2
715
 70
0
 62
7
  6
CONTINUOUS
370
-3
390
F
  0
LAYER
  5
207
100
AcDbSymbolTableRecord
100
AcDbLayerTableRecord
  2
ASSI
 70
0
 62
7
  6
CONTINUOUS
370
-3
390
F
  0
LAYER
  5
208
100
AcDbSymbolTableRecord
100
AcDbLayerTableRecord
  2
COLORE_TOP
 70
0
 62
7
  6
CONTINUOUS
370
-3
390
F
  0
LAYER
  5
209
100
AcDbSymbolTableRecord
100
AcDbLayerTableRecord
  2
COORDINATE
 70
0
 62
7
  6
CONTINUOUS
370
-3
390
F
  0
LAYER
  5
20A
100
AcDbSymbolTableRecord
100
AcDbLayerTableRecord
  2
COORD_ORIGINE
 70
0
 62
7
  6
CONTINUOUS
370
-3
390
F
  0
LAYER
  5
20B
100
AcDbSymbolTableRecord
100
AcDbLayerTableRecord
  2
COSMETICHE
 70
0
 62
7
  6
CONTINUOUS
370
-3
390
F
  0
LAYER
  5
20C
100
AcDbSymbolTableRecord
100
AcDbLayerTableRecord
  2
CURVE
 70
0
 62
7
  6
CONTINUOUS
370
-3
390
F
  0
LAYER
  5
20D
100
AcDbSymbolTableRecord
100
AcDbLayerTableRecord
  2
DRAFT
 70
0
 62
7
  6
CONTINUOUS
370
-3
390
F
  0
LAYER
  5
20E
100
AcDbSymbolTableRecord
100
AcDbLayerTableRecord
  2
IMPORT
 70
0
 62
7
  6
CONTINUOUS
370
-3
390
F
  0
LAYER
  5
20F
100
AcDbSymbolTableRecord
100
AcDbLayerTableRecord
  2
IMPORTED
 70
0
 62
7
  6
CONTINUOUS
370
-3
390
F
  0
LAYER
  5
210
100
AcDbSymbolTableRecord
100
AcDbLayerTableRecord
  2
INCISIONI_LASER
 70
0
 62
7
  6
CONTINUOUS
370
-3
390
F
  0
LAYER
  5
211
100
AcDbSymbolTableRecord
100
AcDbLayerTableRecord
  2
INTF_11
 70
0
 62
7
  6
CONTINUOUS
370
-3
390
F
  0
LAYER
  5
212
100
AcDbSymbolTableRecord
100
AcDbLayerTableRecord
  2
INTF_6
 70
0
 62
7
  6
CONTINUOUS
370
-3
390
F
  0
LAYER
  5
213
100
AcDbSymbolTableRecord
100
AcDbLayerTableRecord
  2
NOTE
 70
0
 62
7
  6
CONTINUOUS
370
-3
390
F
  0
LAYER
  5
214
100
AcDbSymbolTableRecord
100
AcDbLayerTableRecord
  2
PIANI
 70
0
 62
7
  6
CONTINUOUS
370
-3
390
F
  0
LAYER
  5
215
100
AcDbSymbolTableRecord
100
AcDbLayerTableRecord
  2
PIANI_DI_RIFERIMENTO
 70
0
 62
7
  6
CONTINUOUS
370
-3
390
F
  0
LAYER
  5
216
100
AcDbSymbolTableRecord
100
AcDbLayerTableRecord
  2
PIANI_ORIGINE
 70
0
 62
7
  6
CONTINUOUS
370
-3
390
F
  0
LAYER
  5
217
100
AcDbSymbolTableRecord
100
AcDbLayerTableRecord
  2
PIANI_RIFERIMENTO
 70
0
 62
7
  6
CONTINUOUS
370
-3
390
F
  0
LAYER
  5
218
100
AcDbSymbolTableRecord
100
AcDbLayerTableRecord
  2
PIANI_SFORMO
 70
0
 62
7
  6
CONTINUOUS
370
-3
390
F
  0
LAYER
  5
219
100
AcDbSymbolTableRecord
100
AcDbLayerTableRecord
  2
PUNTI
 70
0
 62
7
  6
CONTINUOUS
370
-3
390
F
  0
LAYER
  5
21A
100
AcDbSymbolTableRecord
100
AcDbLayerTableRecord
  2
RACCORDO
 70
0
 62
7
  6
CONTINUOUS
370
-3
390
F
  0
LAYER
  5
21B
100
AcDbSymbolTableRecord
100
AcDbLayerTableRecord
  2
RINTRACCIABILITA
 70
0
 62
7
  6
CONTINUOUS
370
-3
390
F
  0
LAYER
  5
21C
100
AcDbSymbolTableRecord
100
AcDbLayerTableRecord
  2
SMUSSO
 70
0
 62
7
  6
CONTINUOUS
370
-3
390
F
  0
LAYER
  5
21D
100
AcDbSymbolTableRecord
100
AcDbLayerTableRecord
  2
SNAPLINE
 70
0
 62
7
  6
CONTINUOUS
370
-3
390
F
  0
LAYER
  5
21E
100
AcDbSymbolTableRecord
100
AcDbLayerTableRecord
  2
SUPERFICI
 70
0
 62
7
  6
CONTINUOUS
370
-3
390
F
  0
LAYER
  5
21F
100
AcDbSymbolTableRecord
100
AcDbLayerTableRecord
  2
TRASH
 70
0
 62
7
  6
CONTINUOUS
370
-3
390
F
  0
LAYER
  5
220
100
AcDbSymbolTableRecord
100
AcDbLayerTableRecord
  2
XSEC_DATUMS
 70
0
 62
7
  6
CONTINUOUS
370
-3
390
F
  0
ENDTAB
  0
TABLE
  2
STYLE
  5
3
100
AcDbSymbolTable
 70
1
  0
STYLE
  5
11
100
AcDbSymbolTableRecord
100
AcDbTextStyleTableRecord
  2
STANDARD
 70
0
 40
0.0
 41
0.8
 50
0.0
 71
0
 42
0.2
  3
txt
  4

  0
STYLE
  5
221
100
AcDbSymbolTableRecord
100
AcDbTextStyleTableRecord
  2
TEXTSTYLE_1
 70
0
 40
0.0
 41
0.8
 50
0.0
 71
0
 42
0.2
  3
gdt
  4

  0
ENDTAB
  0
TABLE
  2
VIEW
  5
6
100
AcDbSymbolTable
 70
0
  0
ENDTAB
  0
TABLE
  2
UCS
  5
7
100
AcDbSymbolTable
 70
0
  0
ENDTAB
  0
TABLE
  2
APPID
  5
9
100
AcDbSymbolTable
 70
1
  0
APPID
  5
222
100
AcDbSymbolTableRecord
100
AcDbRegAppTableRecord
  2
ACAD
 70
0
  0
ENDTAB
  0
TABLE
  2
BLOCK_RECORD
  5
1
100
AcDbSymbolTable
 70
0
  0
BLOCK_RECORD
  5
223
100
AcDbSymbolTableRecord
100
AcDbBlockTableRecord
  2
*Model_Space
  0
BLOCK_RECORD
  5
224
100
AcDbSymbolTableRecord
100
AcDbBlockTableRecord
  2
*Paper_Space
  0
ENDTAB
  0
TABLE
  2
DIMSTYLE
  5
A
100
AcDbSymbolTable
 70
1
100
AcDbDimStyleTable
 71
0
  0
DIMSTYLE
105
225
100
AcDbSymbolTableRecord
100
AcDbDimStyleTableRecord
  2
STANDARD
 70
0
  3

  4

 40
1.0
 41
3.0
 42
0.5
 43
0.38
 44
1.5
 45
0.0
 46
0.0
 47
0.01
 48
0.01
140
3.0
141
0.09
142
0.0
143
25.4
144
1.0
145
0.0
146
1.0
147
0.625
 71
1.0
 72
0.0
 73
0
 74
0
 75
0
 76
0
 77
1
 78
8
170
0
171
2
172
0
173
0
174
0
175
0
176
0
177
0
178
0
270
2
271
2
272
2
273
2
274
2
275
0
280
0
281
0
282
0
283
1
284
8
285
0
286
0
287
3
288
0
340
11
278
44
  0
ENDTAB
  0
ENDSEC
  0
SECTION
  2
BLOCKS
  0
BLOCK
  5
20
100
AcDbEntity
  8
0
100
AcDbBlockBegin
  2
*Model_Space
 70
0
 10
0.0
 20
0.0
 30
0.0
  3
*Model_Space
  1

  0
ENDBLK
  5
21
100
AcDbEntity
  8
0
100
AcDbBlockEnd
  0
BLOCK
  5
1C
100
AcDbEntity
  8
0
100
AcDbBlockBegin
  2
*Paper_Space
 70
0
 10
0.0
 20
0.0
 30
0.0
  3
*Paper_Space
  1

  0
ENDBLK
  5
1D
100
AcDbEntity
  8
0
100
AcDbBlockEnd
  0
ENDSEC
  0
SECTION
  2
ENTITIES
  0
LINE
  5
226
100
AcDbEntity
  8
268
100
AcDbLine
 62
7
  6
CONTINUOUS
 10
-13.2213718629
 20
24.5748297453
 11
-11.6386152597
 21
25.3868138427
  0
LINE
  5
227
100
AcDbEntity
  8
268
100
AcDbLine
 62
7
  6
CONTINUOUS
 10
-13.7053269752
 20
22.8321293433
 11
-12.6931046911
 21
23.349059306
  0
LINE
  5
228
100
AcDbEntity
  8
268
100
AcDbLine
 62
7
  6
CONTINUOUS
 10
-11.6386152597
 20
25.3868138427
 11
-11.104165381
 21
25.6471613092
  0
LWPOLYLINE
  5
229
100
AcDbEntity
  8
290
100
AcDbPolyline
 62
253
  6
CONTINUOUS
 90
14
 70
0
 10
-20.3779026055
 20
-18.5583164876
 10
-20.4328055064
 20
-18.5256743621
 10
-20.4841005356
 20
-18.4865761679
 10
-20.5315440588
 20
-18.441214579
 10
-20.5749249397
 20
-18.3897946385
 10
-20.6140317486
 20
-18.3325565633
 10
-20.6486563153
 20
-18.2697919848
 10
-20.6786233196
 20
-18.2018235598
 10
-20.7037814601
 20
-18.128998816
 10
-20.7240087971
 20
-18.051672005
 10
-20.7392115154
 20
-17.9702136763
 10
-20.7493142582
 20
-17.8850219081
 10
-20.7542627406
 20
-17.7965222143
 10
-20.7540308972
 20
-17.7051520923
  0
LINE
  5
22A
100
AcDbEntity
  8
268
100
AcDbLine
 62
253
  6
CONTINUOUS
 10
-13.5478035689
 20
22.8226960137
 11
-12.6931046911
 21
23.2591806337
  0
LINE
  5
22B
100
AcDbEntity
  8
268
100
AcDbLine
 62
7
  6
CONTINUOUS
 10
-10.012269663
 20
22.8415902367
 11
-11.0791005751
 21
22.3030089872
  0
LINE
  5
22C
100
AcDbEntity
  8
268
100
AcDbLine
 62
7
  6
CONTINUOUS
 10
-11.6135504538
 20
23.7709190408
 11
-10.012269663
 21
24.5736410443
  0
LINE
  5
22D
100
AcDbEntity
  8
268
100
AcDbLine
 62
7
  6
CONTINUOUS
 10
-10.012269663
 20
24.5736410443
 11
-9.4840024912
 21
24.8370798643
  0
LWPOLYLINE
  5
22E
100
AcDbEntity
  8
290
100
AcDbPolyline
 62
7
  6
CONTINUOUS
 90
19
 70
0
 10
-16.9966845712
 20
20.430706556
 10
-17.0138334616
 20
20.4232158812
 10
-17.104754096
 20
20.3784765828
 10
-17.1929708353
 20
20.3265682591
 10
-17.2785099138
 20
20.2675578985
 10
-17.3610155384
 20
20.2017687054
 10
-17.4397687467
 20
20.1298914872
 10
-17.5148077591
 20
20.0520213607
 10
-17.585972516
 20
19.9683622698
 10
-17.6523800836
 20
19.8800012875
 10
-17.7140051033
 20
19.787118885
 10
-17.7707038553
 20
19.6898878673
 10
-17.8216673327
 20
19.5897303006
 10
-17.8668357936
 20
19.4869017698
 10
-17.9060727724
 20
19.3815670223
 10
-17.9388313125
 20
19.2751731064
 10
-17.9649607696
 20
19.1683011068
 10
-17.9844848887
 20
19.0607335972
 10
-17.9888781351
 20
19.0294982231
  0
LINE
  5
22F
100
AcDbEntity
  8
290
100
AcDbLine
 62
7
  6
CONTINUOUS
 10
-16.9966891352
 20
20.4307172221
 11
-13.0392032345
 21
22.1244310387
  0
LINE
  5
230
100
AcDbEntity
  8
290
100
AcDbLine
 62
253
  6
CONTINUOUS
 10
-16.6374214811
 20
20.4081698848
 11
-12.7237271676
 21
22.0831418745
  0
LWPOLYLINE
  5
231
100
AcDbEntity
  8
290
100
AcDbPolyline
 62
253
  6
CONTINUOUS
 90
8
 70
0
 10
-16.9965708323
 20
20.4307678784
 10
-16.9868238432
 20
20.4347689932
 10
-16.9333723065
 20
20.4510840751
 10
-16.8771669439
 20
20.4591257759
 10
-16.8188230165
 20
20.458806066
 10
-16.7589791956
 20
20.4501284449
 10
-16.6982905712
 20
20.4331879037
 10
-16.6374214811
 20
20.4081698848
  0
LWPOLYLINE
  5
232
100
AcDbEntity
  8
268
100
AcDbPolyline
 62
7
  6
CONTINUOUS
 90
3
 70
0
 10
-2.0296960276
 20
26.0620011325
 10
-2.0422610473
 20
26.0573020817
 10
-2.048143766
 20
26.0545437898
  0
LWPOLYLINE
  5
233
100
AcDbEntity
  8
268
100
AcDbPolyline
 62
7
  6
CONTINUOUS
 90
10
 70
0
 10
-2.0296960276
 20
26.0620011325
 10
-2.0204564068
 20
26.0647469315
 10
-2.0118932529
 20
26.06701265
 10
-2.004006566
 20
26.068798288
 10
-1.9967572077
 20
26.0701246926
 10
-1.9901843164
 20
26.0709710168
 10
-1.984405307
 20
26.0712747195
 10
-1.9794243498
 20
26.0710353837
 10
-1.9752372746
 20
26.0702534265
 10
-1.9726475935
 20
26.0692569934
  0
LWPOLYLINE
  5
234
100
AcDbEntity
  8
290
100
AcDbPolyline
 62
7
  6
CONTINUOUS
 90
12
 70
0
 10
-6.0314672285
 20
-25.7315857109
 10
-6.0055967598
 20
-25.7441192182
 10
-5.9237253033
 20
-25.7784193824
 10
-5.8388047182
 20
-25.8060435082
 10
-5.7512773109
 20
-25.8267335132
 10
-5.6613497245
 20
-25.8403062648
 10
-5.569558922
 20
-25.8465369216
 10
-5.476505504
 20
-25.8452555285
 10
-5.3823925225
 20
-25.8363061624
 10
-5.2876168353
 20
-25.8195464286
 10
-5.1928615665
 20
-25.794947304
 10
-5.1762171146
 20
-25.7898024235
  0
LINE
  5
235
100
AcDbEntity
  8
290
100
AcDbLine
 62
7
  6
CONTINUOUS
 10
-6.0305718889
 20
-25.7320476876
 11
-20.3707816511
 21
-18.5619428065
  0
LINE
  5
236
100
AcDbEntity
  8
290
100
AcDbLine
 62
253
  6
CONTINUOUS
 10
-6.4255505625
 20
-24.8693922596
 11
-20.7540308972
 21
-17.7051520923
  0
LINE
  5
237
100
AcDbEntity
  8
290
100
AcDbLine
 62
253
  6
CONTINUOUS
 10
-20.3707499956
 20
-18.5619586342
 11
-20.3779026055
 21
-18.5583164876
  0
LINE
  5
238
100
AcDbEntity
  8
268
100
AcDbLine
 62
7
  6
CONTINUOUS
 10
-9.397150828
 20
24.2160822777
 11
-9.9243955437
 21
23.5743745496
  0
LWPOLYLINE
  5
239
100
AcDbEntity
  8
268
100
AcDbPolyline
 62
7
  6
CONTINUOUS
 90
12
 70
0
 10
-2.048143766
 20
26.0545437898
 10
-2.0544305574
 20
26.0511874162
 10
-2.066284984
 20
26.043683143
 10
-2.077940164
 20
26.0348106318
 10
-2.0894357588
 20
26.0246255212
 10
-2.1007270565
 20
26.0131944488
 10
-2.1118721229
 20
26.0005474227
 10
-2.1229390023
 20
25.9867178865
 10
-2.1338851215
 20
25.9717483877
 10
-2.1447324226
 20
25.9556654605
 10
-2.1555708514
 20
25.9384972062
 10
-2.1664552193
 20
25.9202785747
  0
LINE
  5
23A
100
AcDbEntity
  8
268
100
AcDbLine
 62
7
  6
CONTINUOUS
 10
-7.7478752316
 20
22.4220840468
 11
-7.2545532163
 21
22.6751675787
  0
LINE
  5
23B
100
AcDbEntity
  8
268
100
AcDbLine
 62
7
  6
CONTINUOUS
 10
-8.5564886864
 20
22.8132488404
 11
-2.0484520598
 21
26.054390446
  0
LINE
  5
23C
100
AcDbEntity
  8
268
100
AcDbLine
 62
253
  6
CONTINUOUS
 10
-8.4809955459
 20
22.7755022702
 11
-2.1664552193
 21
25.9202785747
  0
LINE
  5
23D
100
AcDbEntity
  8
268
100
AcDbLine
 62
7
  6
CONTINUOUS
 10
-1.1734348981
 20
25.040535044
 11
-5.9110503321
 21
22.7054845294
  0
LINE
  5
23E
100
AcDbEntity
  8
268
100
AcDbLine
 62
7
  6
CONTINUOUS
 10
-7.2545532163
 20
22.6751675787
 11
-1.7769132269
 21
25.3434995419
  0
LINE
  5
23F
100
AcDbEntity
  8
268
100
AcDbLine
 62
7
  6
CONTINUOUS
 10
3.4399226207
 20
-23.282388672
 11
3.9671673364
 21
-23.3906809439
  0
LWPOLYLINE
  5
240
100
AcDbEntity
  8
290
100
AcDbPolyline
 62
253
  6
CONTINUOUS
 90
9
 70
0
 10
-20.9883488091
 20
-17.4233560815
 10
-20.9867506195
 20
-17.4537122416
 10
-20.9771950513
 20
-17.4930599487
 10
-20.9592855749
 20
-17.5319316071
 10
-20.9332119444
 20
-17.5699153642
 10
-20.8992504149
 20
-17.6066087752
 10
-20.8577608152
 20
-17.6416230666
 10
-20.8091827353
 20
-17.6745872553
 10
-20.7540308691
 20
-17.7051520795
  0
LWPOLYLINE
  5
241
100
AcDbEntity
  8
290
100
AcDbPolyline
 62
7
  6
CONTINUOUS
 90
15
 70
0
 10
-20.9883395001
 20
-17.4233563639
 10
-20.9891003064
 20
-17.4742780839
 10
-20.9843116008
 20
-17.5934016101
 10
-20.9703982799
 20
-17.7084243566
 10
-20.9475760318
 20
-17.8192361338
 10
-20.916092655
 20
-17.9253563965
 10
-20.8764844465
 20
-18.0257051019
 10
-20.8295128681
 20
-18.1194285628
 10
-20.775599386
 20
-18.2065594785
 10
-20.7150592035
 20
-18.287086957
 10
-20.6487504298
 20
-18.3603537973
 10
-20.5772475507
 20
-18.4262156824
 10
-20.5003136826
 20
-18.4850820729
 10
-20.4182486297
 20
-18.5366555948
 10
-20.3697437178
 20
-18.5624464534
  0
LINE
  5
242
100
AcDbEntity
  8
290
100
AcDbLine
 62
7
  6
CONTINUOUS
 10
-20.9883429488
 20
-17.4231651786
 11
-20.9883488091
 21
-17.4233560815
  0
LWPOLYLINE
  5
243
100
AcDbEntity
  8
290
100
AcDbPolyline
 62
253
  6
CONTINUOUS
 90
13
 70
0
 10
-20.7540308972
 20
-17.7051520923
 10
-20.6480855966
 20
-14.726255908
 10
-20.5158519007
 20
-11.7351078393
 10
-20.3573462543
 20
-8.7320891564
 10
-20.1725884067
 20
-5.7175827014
 10
-19.9616018071
 20
-2.6919725259
 10
-19.7244135979
 20
0.3443561587
 10
-19.4610542209
 20
3.3910166421
 10
-19.1715570032
 20
6.4476206732
 10
-18.8559585444
 20
9.5137788249
 10
-18.514299134
 20
12.5891005581
 10
-18.1466227488
 20
15.6731942706
 10
-17.7529766316
 20
18.7656672578
  0
LWPOLYLINE
  5
244
100
AcDbEntity
  8
290
100
AcDbPolyline
 62
253
  6
CONTINUOUS
 90
10
 70
0
 10
-17.9888781351
 20
19.0294982231
 10
-17.9895097868
 20
19.0234717844
 10
-17.9878185982
 20
18.9912380979
 10
-17.9777345993
 20
18.9583072297
 10
-17.959364631
 20
18.9250280852
 10
-17.9329033247
 20
18.8917532599
 10
-17.8986310403
 20
18.8588353037
 10
-17.8569108956
 20
18.8266229852
 10
-17.8081849192
 20
18.7954575969
 10
-17.7529693672
 20
18.7656693387
  0
LWPOLYLINE
  5
245
100
AcDbEntity
  8
290
100
AcDbPolyline
 62
7
  6
CONTINUOUS
 90
13
 70
0
 10
-17.9888721714
 20
19.0295879162
 10
-18.3753621003
 20
15.9949812012
 10
-18.7446353119
 20
12.9008198599
 10
-19.0877204476
 20
9.8154064281
 10
-19.4045647855
 20
6.7391823916
 10
-19.6951294829
 20
3.6725355628
 10
-19.9593795336
 20
0.615832827
 10
-20.1972796026
 20
-2.4305443756
 10
-20.4087996914
 20
-5.4662165826
 10
-20.5939119651
 20
-8.4908196882
 10
-20.7525890947
 20
-11.5039707247
 10
-20.8848094279
 20
-14.5052407061
 10
-20.9883429488
 20
-17.4231651786
  0
LWPOLYLINE
  5
246
100
AcDbEntity
  8
290
100
AcDbPolyline
 62
253
  6
CONTINUOUS
 90
22
 70
0
 10
-17.7529766316
 20
18.7656672578
 10
-17.7376971317
 20
18.8627953294
 10
-17.7173888992
 20
18.9609484317
 10
-17.6921542136
 20
19.0596414347
 10
-17.6621234455
 20
19.1583821211
 10
-17.6274445309
 20
19.2566879068
 10
-17.5882796006
 20
19.3540878544
 10
-17.5448170911
 20
19.4501156998
 10
-17.4972775148
 20
19.5442821898
 10
-17.4459043746
 20
19.6360934223
 10
-17.3909690243
 20
19.725080127
 10
-17.3327367594
 20
19.8108249805
 10
-17.2714683117
 20
19.8929315771
 10
-17.2074559091
 20
19.971009443
 10
-17.1410296442
 20
20.0446548912
 10
-17.0725261995
 20
20.113480964
 10
-17.0022979275
 20
20.1771428154
 10
-16.9306877512
 20
20.2353376432
 10
-16.8580322545
 20
20.2877811998
 10
-16.7846874769
 20
20.3342151079
 10
-16.7110276496
 20
20.3744105645
 10
-16.6374214811
 20
20.4081698848
  0
LINE
  5
247
100
AcDbEntity
  8
268
100
AcDbLine
 62
7
  6
CONTINUOUS
 10
0.1536389303
 20
23.5706608104
 11
-1.2441455763
 21
22.8717685571
  0
LINE
  5
248
100
AcDbEntity
  8
218140000
100
AcDbLine
 62
7
  6
CONTINUOUS
 10
-2.3190509108
 20
22.1797288016
 11
-2.2575012725
 21
22.2105036207
  0
LINE
  5
249
100
AcDbEntity
  8
218140000
100
AcDbLine
 62
253
  6
CONTINUOUS
 10
-2.2340950699
 20
22.171805005
 11
-2.1680585535
 21
22.2048232632
  0
LWPOLYLINE
  5
24A
100
AcDbEntity
  8
218140000
100
AcDbPolyline
 62
7
  6
CONTINUOUS
 90
20
 70
0
 10
-2.3190583729
 20
22.1797250705
 10
-2.3181924404
 20
22.1801492187
 10
-2.3144542493
 20
22.1817872356
 10
-2.3105748918
 20
22.1831824511
 10
-2.3065584552
 20
22.1843332807
 10
-2.3024109491
 20
22.1852376189
 10
-2.298138738
 20
22.1858936228
 10
-2.2937466901
 20
22.1863006561
 10
-2.2892412744
 20
22.186457713
 10
-2.2846292903
 20
22.186364053
 10
-2.2799163067
 20
22.1860200005
 10
-2.275109168
 20
22.1854256683
 10
-2.2702150245
 20
22.1845814292
 10
-2.2652400642
 20
22.183488559
 10
-2.2601914244
 20
22.1821482914
 10
-2.255076512
 20
22.180562109
 10
-2.249902033
 20
22.1787322075
 10
-2.244675196
 20
22.176660952
 10
-2.2394037034
 20
22.1743508845
 10
-2.2340950699
 20
22.171805005
  0
LINE
  5
24B
100
AcDbEntity
  8
268
100
AcDbLine
 62
7
  6
CONTINUOUS
 10
-1.5976989669
 20
23.6011034417
 11
-1.1734348981
 21
23.8087008626
  0
LINE
  5
24C
100
AcDbEntity
  8
268
100
AcDbLine
 62
7
  6
CONTINUOUS
 10
0.8126346816
 20
24.4307336243
 11
-1.2441455763
 21
23.4243267464
  0
LWPOLYLINE
  5
24D
100
AcDbEntity
  8
218140000
100
AcDbPolyline
 62
253
  6
CONTINUOUS
 90
55
 70
0
 10
-2.1680585535
 20
22.2048232632
 10
-2.1523074475
 20
22.2124909911
 10
-2.1361780427
 20
22.2199360513
 10
-2.119670339
 20
22.227158444
 10
-2.1027709816
 20
22.2341633746
 10
-2.0854933254
 20
22.2409456375
 10
-2.0678774347
 20
22.2474896169
 10
-2.0499228356
 20
22.2537945638
 10
-2.031630002
 20
22.2598612271
 10
-2.0130404208
 20
22.2656762378
 10
-1.9941535086
 20
22.2712389525
 10
-1.9749698488
 20
22.2765500146
 10
-1.9555326777
 20
22.2815979848
 10
-1.9358415173
 20
22.2863822176
 10
-1.9158968455
 20
22.2909033586
 10
-1.895743333
 20
22.2951519046
 10
-1.875380521
 20
22.2991272172
 10
-1.8548088682
 20
22.3028299348
 10
-1.8340744222
 20
22.3062524698
 10
-1.8131769514
 20
22.3093941542
 10
-1.7921166873
 20
22.3122556561
 10
-1.7709403715
 20
22.3148313923
 10
-1.7496478464
 20
22.3171207036
 10
-1.7282392697
 20
22.3191242493
 10
-1.7067618555
 20
22.3208384239
 10
-1.6852156182
 20
22.3222625716
 10
-1.6636005436
 20
22.3233973481
 10
-1.6419638024
 20
22.324241115
 10
-1.6203054473
 20
22.3247932329
 10
-1.5986254256
 20
22.3250543412
 10
-1.5769707513
 20
22.3250247194
 10
-1.5553416387
 20
22.3247037433
 10
-1.5337378734
 20
22.3240920372
 10
-1.5122058261
 20
22.3231917534
 10
-1.4907457377
 20
22.3220022845
 10
-1.4693573673
 20
22.320524238
 10
-1.4480863632
 20
22.3187615883
 10
-1.4269331221
 20
22.3167137547
 10
-1.4058972473
 20
22.314381318
 10
-1.3850231968
 20
22.3117699951
 10
-1.3643114437
 20
22.3088792369
 10
-1.343761515
 20
22.3057095925
 10
-1.3234164495
 20
22.3022684267
 10
-1.303276787
 20
22.298555222
 10
-1.2833419877
 20
22.2945704958
 10
-1.2636534713
 20
22.2903231655
 10
-1.2442117114
 20
22.2858127103
 10
-1.2250162343
 20
22.281039651
 10
-1.2061070398
 20
22.2760144668
 10
-1.1874846418
 20
22.2707366198
 10
-1.1691485262
 20
22.2652066481
 10
-1.1511371505
 20
22.2594366442
 10
-1.1334633337
 20
22.2534306392
 10
-1.1161142568
 20
22.2471846021
 10
-1.0990899196
 20
22.240698533
  0
LWPOLYLINE
  5
24E
100
AcDbEntity
  8
218140000
100
AcDbPolyline
 62
253
  6
CONTINUOUS
 90
17
 70
0
 10
-2.2575012725
 20
22.2105036207
 10
-2.2541504156
 20
22.2120769474
 10
-2.2491745061
 20
22.214057459
 10
-2.2440441878
 20
22.215690687
 10
-2.2387692266
 20
22.2169735226
 10
-2.2333596637
 20
22.2179035237
 10
-2.2278257964
 20
22.2184789202
 10
-2.2221781589
 20
22.2186986166
 10
-2.2164275017
 20
22.2185621948
 10
-2.2105847714
 20
22.2180699145
 10
-2.2046610902
 20
22.2172227128
 10
-2.198667734
 20
22.2160222024
 10
-2.1926161116
 20
22.2144706685
 10
-2.1865177425
 20
22.2125710646
 10
-2.1803842354
 20
22.2103270067
 10
-2.1742272656
 20
22.2077427665
 10
-2.1680585535
 20
22.2048232632
  0
LINE
  5
24F
100
AcDbEntity
  8
268
100
AcDbLine
 62
7
  6
CONTINUOUS
 10
0.0328139978
 20
-24.3535928567
 11
1.6393500953
 21
-25.1568609055
  0
LINE
  5
250
100
AcDbEntity
  8
268
100
AcDbLine
 62
253
  6
CONTINUOUS
 10
-0.031779481
 20
-24.2185643155
 11
1.5739969812
 21
-25.0214525465
  0
LINE
  5
251
100
AcDbEntity
  8
268
100
AcDbLine
 62
253
  6
CONTINUOUS
 10
1.5739969812
 20
-24.7680811528
 11
-0.031779481
 21
-23.9651929217
  0
LINE
  5
252
100
AcDbEntity
  8
268
100
AcDbLine
 62
253
  6
CONTINUOUS
 10
1.6628995572
 20
-24.5366440932
 11
0.0560946383
 21
-23.7332416337
  0
LINE
  5
253
100
AcDbEntity
  8
268
100
AcDbLine
 62
7
  6
CONTINUOUS
 10
-0.5937500212
 20
-22.4144804037
 11
1.7257029047
 21
-23.5742068666
  0
LINE
  5
254
100
AcDbEntity
  8
268
100
AcDbLine
 62
7
  6
CONTINUOUS
 10
2.2852175893
 20
-23.7915846757
 11
1.875952593
 21
-23.5869521775
  0
LINE
  5
255
100
AcDbEntity
  8
268
100
AcDbLine
 62
7
  6
CONTINUOUS
 10
-0.5678648947
 20
-22.0999070284
 11
1.9731902781
 21
-23.3704346148
  0
LINE
  5
256
100
AcDbEntity
  8
218140000
100
AcDbLine
 62
7
  6
CONTINUOUS
 10
-2.3307617677
 20
22.1719804267
 11
-3.2607865864
 21
21.3803526565
  0
LINE
  5
257
100
AcDbEntity
  8
218140000
100
AcDbLine
 62
253
  6
CONTINUOUS
 10
-2.2340950699
 20
22.171805005
 11
-3.1997610119
 21
21.3498398692
  0
LWPOLYLINE
  5
258
100
AcDbEntity
  8
218140000
100
AcDbPolyline
 62
7
  6
CONTINUOUS
 90
5
 70
0
 10
-2.33074832
 20
22.171991981
 10
-2.3285052409
 20
22.1738078541
 10
-2.3252223025
 20
22.1761566931
 10
-2.3217836181
 20
22.1782713145
 10
-2.3190583729
 20
22.1797250705
  0
LINE
  5
259
100
AcDbEntity
  8
268
100
AcDbLine
 62
7
  6
CONTINUOUS
 10
-1.5311092747
 20
19.3137010684
 11
-1.0320135419
 21
19.5638977415
  0
LINE
  5
25A
100
AcDbEntity
  8
268
100
AcDbLine
 62
7
  6
CONTINUOUS
 10
-1.0320135419
 20
19.5638977415
 11
4.3822591533
 21
22.2639133519
  0
LINE
  5
25B
100
AcDbEntity
  8
268
100
AcDbLine
 62
7
  6
CONTINUOUS
 10
3.7763125702
 20
22.5656613098
 11
-0.9613028638
 21
20.2306107952
  0
LINE
  5
25C
100
AcDbEntity
  8
268
100
AcDbLine
 62
7
  6
CONTINUOUS
 10
5.0552753687
 20
22.3094132807
 11
4.4688965817
 21
22.022491213
  0
LWPOLYLINE
  5
25D
100
AcDbEntity
  8
268
100
AcDbPolyline
 62
7
  6
CONTINUOUS
 90
18
 70
0
 10
5.0552753687
 20
22.3094132807
 10
5.0836498895
 20
22.3225952375
 10
5.1118843415
 20
22.3343296292
 10
5.1399787247
 20
22.3446164559
 10
5.1679830378
 20
22.3534685905
 10
5.1958472821
 20
22.3608731601
 10
5.2234214617
 20
22.3667915457
 10
5.2506905903
 20
22.371214967
 10
5.2776696544
 20
22.3741522043
 10
5.304253617
 20
22.3755909803
 10
5.3304585758
 20
22.3755238437
 10
5.3562684333
 20
22.3739582457
 10
5.3815298596
 20
22.3709042623
 10
5.4062196129
 20
22.3663584779
 10
5.430360935
 20
22.3603243081
 10
5.4538702213
 20
22.3528220753
 10
5.4767660015
 20
22.3438366606
 10
5.4963280858
 20
22.3347469276
  0
LINE
  5
25E
100
AcDbEntity
  8
218140000
100
AcDbLine
 62
7
  6
CONTINUOUS
 10
11.3351056049
 20
24.9746679602
 11
5.5552061558
 21
22.3053188553
  0
LINE
  5
25F
100
AcDbEntity
  8
218140000
100
AcDbLine
 62
253
  6
CONTINUOUS
 10
11.7667250299
 20
24.9388742539
 11
5.8484059627
 21
22.2055983822
  0
LWPOLYLINE
  5
260
100
AcDbEntity
  8
218140000
100
AcDbPolyline
 62
253
  6
CONTINUOUS
 90
3
 70
0
 10
5.8484059627
 20
22.2055983822
 10
5.8229881653
 20
22.1941316731
 10
5.7985705723
 20
22.183636647
  0
LWPOLYLINE
  5
261
100
AcDbEntity
  8
218140000
100
AcDbPolyline
 62
7
  6
CONTINUOUS
 90
34
 70
0
 10
11.3351056049
 20
24.9746679602
 10
11.3594647241
 20
24.9855260809
 10
11.3841381139
 20
24.9957440555
 10
11.4091051304
 20
25.0053104109
 10
11.4343544197
 20
25.0142178371
 10
11.4598545416
 20
25.0224526962
 10
11.4855536828
 20
25.0299978567
 10
11.5112556918
 20
25.0368044505
 10
11.5371097369
 20
25.0429209177
 10
11.5635875929
 20
25.0484399615
 10
11.5910535174
 20
25.0533817534
 10
11.6191028076
 20
25.0576175956
 10
11.6470543247
 20
25.0610338448
 10
11.6745730407
 20
25.0636203847
 10
11.7019435379
 20
25.0654344282
 10
11.7294136527
 20
25.0664985769
 10
11.7570074248
 20
25.0668069521
 10
11.7846510679
 20
25.0663522493
 10
11.8124438031
 20
25.0651235176
 10
11.8405710382
 20
25.0630893937
 10
11.8687899802
 20
25.0602445089
 10
11.8965682355
 20
25.0566506486
 10
11.9234590732
 20
25.0524136219
 10
11.9498913273
 20
25.0475126955
 10
11.9766393577
 20
25.0417989544
 10
12.0041964745
 20
25.0351047091
 10
12.0319852513
 20
25.0275068688
 10
12.0591819272
 20
25.0192275362
 10
12.0853524307
 20
25.0104523299
 10
12.1109385628
 20
25.0010850137
 10
12.1364446247
 20
24.9909477847
 10
12.1621453112
 20
24.97989909
 10
12.1877089473
 20
24.9680482983
 10
12.2016006019
 20
24.9612362378
  0
LINE
  5
262
100
AcDbEntity
  8
268
100
AcDbLine
 62
253
  6
CONTINUOUS
 10
3.4399226207
 20
-23.282388672
 11
3.3965002948
 21
-23.260677509
  0
LINE
  5
263
100
AcDbEntity
  8
268
100
AcDbLine
 62
7
  6
CONTINUOUS
 10
-0.4939312824
 20
-21.2014163049
 11
2.7863630765
 21
-22.8415634844
  0
LINE
  5
264
100
AcDbEntity
  8
268
100
AcDbLine
 62
253
  6
CONTINUOUS
 10
3.3520485015
 20
-23.0831215264
 11
3.9671673364
 21
-23.3906809439
  0
LINE
  5
265
100
AcDbEntity
  8
268
100
AcDbLine
 62
7
  6
CONTINUOUS
 10
3.3520485015
 20
-23.0795013769
 11
3.9904467097
 21
-23.398700481
  0
LINE
  5
266
100
AcDbEntity
  8
268
100
AcDbLine
 62
7
  6
CONTINUOUS
 10
-0.3635313306
 20
-19.6167088433
 11
2.7863630765
 21
-21.1916560468
  0
LINE
  5
267
100
AcDbEntity
  8
268
100
AcDbLine
 62
7
  6
CONTINUOUS
 10
0.1429463016
 20
17.8926706631
 11
1.7257029047
 21
18.7046547604
  0
LINE
  5
268
100
AcDbEntity
  8
268
100
AcDbLine
 62
7
  6
CONTINUOUS
 10
-1.5311092747
 20
18.0994975955
 11
-1.0320135419
 21
18.3514621762
  0
LINE
  5
269
100
AcDbEntity
  8
268
100
AcDbLine
 62
7
  6
CONTINUOUS
 10
-1.0320135419
 20
18.3514621762
 11
4.3822591533
 21
21.0320747735
  0
LINE
  5
26A
100
AcDbEntity
  8
268
100
AcDbLine
 62
7
  6
CONTINUOUS
 10
1.7257029047
 20
18.7046547604
 11
2.2601527834
 21
18.965002227
  0
LINE
  5
26B
100
AcDbEntity
  8
218140000
100
AcDbLine
 62
7
  6
CONTINUOUS
 10
12.8063232987
 20
24.4190751195
 11
9.2512035675
 21
22.7105166047
  0
LWPOLYLINE
  5
26C
100
AcDbEntity
  8
218140000
100
AcDbPolyline
 62
7
  6
CONTINUOUS
 90
29
 70
0
 10
12.8063232987
 20
24.4190751195
 10
12.8227488476
 20
24.426631468
 10
12.8393703271
 20
24.4336040096
 10
12.8561877373
 20
24.4399927444
 10
12.873206093
 20
24.4458010348
 10
12.8904203793
 20
24.4510255184
 10
12.9078155514
 20
24.4556561072
 10
12.9253917942
 20
24.45969346
 10
12.9431489228
 20
24.4631369181
 10
12.9610713373
 20
24.4659744173
 10
12.9791595
 20
24.4682065441
 10
12.9974129485
 20
24.4698327122
 10
13.0158146962
 20
24.4708390983
 10
13.0343652586
 20
24.4712261542
 10
13.05306412
 20
24.4709934281
 10
13.0718927472
 20
24.4701257424
 10
13.09085203
 20
24.4686233634
 10
13.1099410784
 20
24.4664860247
 10
13.129138689
 20
24.4636977497
 10
13.1484459368
 20
24.4602585232
 10
13.1678617467
 20
24.4561683605
 10
13.1873616901
 20
24.4514113314
 10
13.2069470831
 20
24.4459870492
 10
13.2266166096
 20
24.4398959006
 10
13.2463418927
 20
24.4331231154
 10
13.2661242504
 20
24.4256679524
 10
13.2859623646
 20
24.4175311527
 10
13.3058239042
 20
24.4087001696
 10
13.3257103955
 20
24.3991737719
  0
LINE
  5
26D
100
AcDbEntity
  8
268
100
AcDbLine
 62
7
  6
CONTINUOUS
 10
-13.7952909423
 20
22.6433192672
 11
-13.7952909423
 21
22.6189237619
  0
LINE
  5
26E
100
AcDbEntity
  8
268
100
AcDbLine
 62
7
  6
CONTINUOUS
 10
-13.3960976454
 20
24.0165702999
 11
-13.3960976454
 21
24.2699416936
  0
LINE
  5
26F
100
AcDbEntity
  8
268
100
AcDbLine
 62
253
  6
CONTINUOUS
 10
3.8661293346
 20
17.4109501913
 11
9.2244561147
 21
20.3018904183
  0
LINE
  5
270
100
AcDbEntity
  8
268
100
AcDbLine
 62
253
  6
CONTINUOUS
 10
3.4995091814
 20
16.9647380652
 11
9.1403045471
 21
20.0080765744
  0
LINE
  5
271
100
AcDbEntity
  8
715
100
AcDbLine
 62
7
  6
CONTINUOUS
 10
9.3396799462
 20
20.397902392
 11
9.9483465618
 21
20.7188643337
  0
LINE
  5
272
100
AcDbEntity
  8
715
100
AcDbLine
 62
253
  6
CONTINUOUS
 10
9.9482187797
 20
20.7187969468
 11
9.9483465618
 21
20.7188643337
  0
LINE
  5
273
100
AcDbEntity
  8
268
100
AcDbLine
 62
253
  6
CONTINUOUS
 10
3.4111192266
 20
16.8294448839
 11
9.1403045471
 21
19.7958174203
  0
LINE
  5
274
100
AcDbEntity
  8
268
100
AcDbLine
 62
7
  6
CONTINUOUS
 10
3.5308853572
 20
16.7695618186
 11
9.2225142595
 21
19.7164889502
  0
LWPOLYLINE
  5
275
100
AcDbEntity
  8
218140000
100
AcDbPolyline
 62
7
  6
CONTINUOUS
 90
38
 70
0
 10
9.6284037671
 20
21.7137432445
 10
9.5879044805
 20
21.6930817267
 10
9.5483081713
 20
21.6719940897
 10
9.5096327312
 20
21.6504900123
 10
9.4718952939
 20
21.6285793314
 10
9.4351132746
 20
21.6062721202
 10
9.3993042725
 20
21.5835787186
 10
9.3644852186
 20
21.5605101206
 10
9.3306708931
 20
21.5370763878
 10
9.297875054
 20
21.5132866976
 10
9.2661111734
 20
21.4891508333
 10
9.235395166
 20
21.4646808962
 10
9.205743607
 20
21.4398898167
 10
9.1771780399
 20
21.4147965513
 10
9.1497021244
 20
21.3894052866
 10
9.1233072335
 20
21.3637063835
 10
9.097996507
 20
21.337699117
 10
9.0737961443
 20
21.3114064485
 10
9.0507321768
 20
21.2848542588
 10
9.0288148761
 20
21.2580535842
 10
9.0080557117
 20
21.2310176332
 10
8.9884774956
 20
21.2037766037
 10
8.9700908587
 20
21.1763486875
 10
8.9528984412
 20
21.1487414503
 10
8.9369075783
 20
21.120969725
 10
8.9221288766
 20
21.0930572627
 10
8.9085605559
 20
21.0650064398
 10
8.8961940845
 20
21.0367996564
 10
8.8850326592
 20
21.0084383763
 10
8.8750882348
 20
20.9799464871
 10
8.8663680511
 20
20.9513397413
 10
8.8588761396
 20
20.9226257027
 10
8.852619032
 20
20.8938228099
 10
8.8476039392
 20
20.8649634032
 10
8.8438324871
 20
20.8360652763
 10
8.8413043521
 20
20.807137154
 10
8.8400196711
 20
20.7781979203
 10
8.8398425023
 20
20.7627300534
  0
LINE
  5
276
100
AcDbEntity
  8
218140000
100
AcDbLine
 62
7
  6
CONTINUOUS
 10
9.6284037671
 20
21.2806828252
 11
13.8508405317
 21
23.3987230176
  0
LINE
  5
277
100
AcDbEntity
  8
268
100
AcDbLine
 62
7
  6
CONTINUOUS
 10
1.7507677106
 20
17.0887599586
 11
3.3520485015
 21
17.8914819621
  0
LINE
  5
278
100
AcDbEntity
  8
218140000
100
AcDbLine
 62
7
  6
CONTINUOUS
 10
13.8455567195
 20
23.8291360147
 11
9.6284037671
 21
21.7137432445
  0
LINE
  5
279
100
AcDbEntity
  8
715
100
AcDbLine
 62
7
  6
CONTINUOUS
 10
10.0766339905
 20
20.4957726023
 11
10.5716087374
 21
20.7432599758
  0
LINE
  5
27A
100
AcDbEntity
  8
268
100
AcDbLine
 62
7
  6
CONTINUOUS
 10
3.3520485015
 20
17.8914819621
 11
3.8803156732
 21
18.1549207821
  0
LINE
  5
27B
100
AcDbEntity
  8
268
100
AcDbLine
 62
253
  6
CONTINUOUS
 10
3.2625262915
 20
18.5257928438
 11
8.0343652697
 21
20.8198683302
  0
LINE
  5
27C
100
AcDbEntity
  8
268
100
AcDbLine
 62
253
  6
CONTINUOUS
 10
3.4901417914
 20
18.4119850939
 11
8.4762061376
 21
20.8090500499
  0
LINE
  5
27D
100
AcDbEntity
  8
290
100
AcDbLine
 62
253
  6
CONTINUOUS
 10
1.8410109696
 20
14.800772806
 11
-2.283756408
 21
13.2313373482
  0
LINE
  5
27E
100
AcDbEntity
  8
268
100
AcDbLine
 62
7
  6
CONTINUOUS
 10
1.9731902781
 20
14.7346831517
 11
2.7863630765
 21
15.0189848196
  0
LINE
  5
27F
100
AcDbEntity
  8
268
100
AcDbLine
 62
7
  6
CONTINUOUS
 10
-12.982118144
 20
22.2123373627
 11
-12.982118144
 21
22.1430008693
  0
LINE
  5
280
100
AcDbEntity
  8
268
100
AcDbLine
 62
7
  6
CONTINUOUS
 10
-12.6931046911
 20
23.1100110452
 11
-12.6931046911
 21
23.5623420209
  0
LINE
  5
281
100
AcDbEntity
  8
268
100
AcDbLine
 62
7
  6
CONTINUOUS
 10
-11.7903211832
 20
23.4670534625
 11
-11.7903211832
 21
23.2136820688
  0
LINE
  5
282
100
AcDbEntity
  8
268
100
AcDbLine
 62
7
  6
CONTINUOUS
 10
-11.0791005751
 20
22.3030089872
 11
-11.0791005751
 21
22.9401785459
  0
LWPOLYLINE
  5
283
100
AcDbEntity
  8
268
100
AcDbPolyline
 62
7
  6
CONTINUOUS
 90
5
 70
0
 10
9.2227227532
 20
19.7165872614
 10
9.2229571901
 20
19.7167202632
 10
9.223884426
 20
19.7175479346
 10
9.2243908435
 20
19.718599006
 10
9.2245025888
 20
19.7195432503
  0
LINE
  5
284
100
AcDbEntity
  8
268
100
AcDbLine
 62
253
  6
CONTINUOUS
 10
3.4934698577
 20
16.0887204764
 11
1.7257029047
 21
15.1859427769
  0
LINE
  5
285
100
AcDbEntity
  8
268
100
AcDbLine
 62
253
  6
CONTINUOUS
 10
3.7409572311
 20
15.6618563565
 11
1.9731902781
 21
14.759078657
  0
LINE
  5
286
100
AcDbEntity
  8
268
100
AcDbLine
 62
7
  6
CONTINUOUS
 10
3.3520485015
 20
16.1594311545
 11
2.2852175893
 21
15.620849905
  0
LINE
  5
287
100
AcDbEntity
  8
715
100
AcDbLine
 62
7
  6
CONTINUOUS
 10
13.0397866499
 20
20.9237598281
 11
11.7283223389
 21
20.2680276725
  0
LINE
  5
288
100
AcDbEntity
  8
715
100
AcDbLine
 62
7
  6
CONTINUOUS
 10
13.8883173576
 20
20.4994970445
 11
13.1120435912
 21
20.1113601613
  0
LINE
  5
289
100
AcDbEntity
  8
268
100
AcDbLine
 62
253
  6
CONTINUOUS
 10
4.2005766389
 20
16.4347161778
 11
3.4934698577
 21
16.0887204764
  0
LINE
  5
28A
100
AcDbEntity
  8
268
100
AcDbLine
 62
253
  6
CONTINUOUS
 10
4.4480640123
 20
16.0078520578
 11
3.7409572311
 21
15.6618563565
  0
LINE
  5
28B
100
AcDbEntity
  8
218140000
100
AcDbLine
 62
7
  6
CONTINUOUS
 10
4.140441618
 20
16.4647836882
 11
9.8063061869
 21
19.2169722325
  0
LINE
  5
28C
100
AcDbEntity
  8
218140000
100
AcDbLine
 62
7
  6
CONTINUOUS
 10
18.2931891822
 20
21.6756421777
 11
10.5590002708
 21
17.9187669714
  0
LWPOLYLINE
  5
28D
100
AcDbEntity
  8
218140000
100
AcDbPolyline
 62
7
  6
CONTINUOUS
 90
33
 70
0
 10
18.2931891822
 20
21.6756421777
 10
18.3084971552
 20
21.6829408622
 10
18.3236272963
 20
21.6898749823
 10
18.3385722949
 20
21.6964434614
 10
18.353323622
 20
21.7026458708
 10
18.3678754463
 20
21.7084811915
 10
18.3822246298
 20
21.7139477366
 10
18.3963641184
 20
21.7190453657
 10
18.4102871413
 20
21.7237739675
 10
18.4239911142
 20
21.7281321089
 10
18.4374692557
 20
21.7321202424
 10
18.4507150926
 20
21.735738862
 10
18.4637266377
 20
21.7389868226
 10
18.4764974031
 20
21.7418651582
 10
18.4890212267
 20
21.7443749548
 10
18.5012967536
 20
21.7465153785
 10
18.5133178095
 20
21.7482880303
 10
18.5250785564
 20
21.7496945703
 10
18.5365782955
 20
21.7507344891
 10
18.5478111848
 20
21.751409935
 10
18.5587717218
 20
21.7517231209
 10
18.5694598762
 20
21.751673865
 10
18.5798701541
 20
21.7512648404
 10
18.5899973989
 20
21.7504987871
 10
18.5998422513
 20
21.7493758458
 10
18.6093995822
 20
21.7478991872
 10
18.6186645857
 20
21.7460720499
 10
18.6276385554
 20
21.7438948864
 10
18.6363167341
 20
21.7413713365
 10
18.6446946769
 20
21.7385051073
 10
18.6527743158
 20
21.7352969458
 10
18.6605512746
 20
21.7317509294
 10
18.6621005049
 20
21.7309862856
  0
LINE
  5
28E
100
AcDbEntity
  8
218140000
100
AcDbLine
 62
7
  6
CONTINUOUS
 10
17.4691109476
 20
22.087681295
 11
13.8996853798
 21
20.3862756986
  0
LWPOLYLINE
  5
28F
100
AcDbEntity
  8
218140000
100
AcDbPolyline
 62
7
  6
CONTINUOUS
 90
30
 70
0
 10
17.4691109476
 20
22.087681295
 10
17.4853844784
 20
22.0953136526
 10
17.5014167387
 20
22.1025808038
 10
17.5172077285
 20
22.1094827488
 10
17.5327630981
 20
22.1160225323
 10
17.5480771972
 20
22.1221971094
 10
17.5631330744
 20
22.1279973457
 10
17.5779312835
 20
22.1334237154
 10
17.5924712706
 20
22.1384757441
 10
17.6067344229
 20
22.1431428745
 10
17.6207214396
 20
22.1474255743
 10
17.6344316214
 20
22.1513233757
 10
17.647844257
 20
22.1548243179
 10
17.6609599957
 20
22.1579287856
 10
17.6737781882
 20
22.160636394
 10
17.6862761753
 20
22.1629340284
 10
17.6984547464
 20
22.1648220052
 10
17.7103131121
 20
22.1663000078
 10
17.7218262454
 20
22.1673539715
 10
17.7329948821
 20
22.1679840506
 10
17.7438182864
 20
22.1681900906
 10
17.7542692245
 20
22.1679575642
 10
17.7643483594
 20
22.167286411
 10
17.7740550282
 20
22.1661766913
 10
17.7833600081
 20
22.1646140577
 10
17.7922637343
 20
22.1625982104
 10
17.8007657715
 20
22.1601294493
 10
17.8088355909
 20
22.1571943262
 10
17.8164734559
 20
22.1537922418
 10
17.8172497831
 20
22.1534087267
  0
LWPOLYLINE
  5
290
100
AcDbEntity
  8
218140000
100
AcDbPolyline
 62
7
  6
CONTINUOUS
 90
100
 70
0
 10
13.8996853798
 20
20.3862756986
 10
13.8514404599
 20
20.3637573388
 10
13.8022772312
 20
20.3417533555
 10
13.7521956936
 20
20.3202637486
 10
13.7011717394
 20
20.2992788673
 10
13.6492294763
 20
20.2788083624
 10
13.5964412271
 20
20.258881187
 10
13.5428113561
 20
20.2394999988
 10
13.4883354989
 20
20.2206621402
 10
13.4330728854
 20
20.2023885911
 10
13.3770148027
 20
20.184677774
 10
13.3201699637
 20
20.1675312665
 10
13.2626237373
 20
20.1509747808
 10
13.2043849318
 20
20.1350116416
 10
13.1454447389
 20
20.1196385243
 10
13.085862102
 20
20.1048711665
 10
13.0256241067
 20
20.0907076301
 10
12.9647436674
 20
20.0771498532
 10
12.9033184705
 20
20.0642193886
 10
12.8413618173
 20
20.0519198797
 10
12.7788604065
 20
20.0402476831
 10
12.7158720209
 20
20.0292134219
 10
12.652381413
 20
20.0188153864
 10
12.5884038303
 20
20.0090552863
 10
12.5240427986
 20
19.9999488728
 10
12.4593138329
 20
19.9914991956
 10
12.3942014182
 20
19.983703205
 10
12.3287625349
 20
19.9765675038
 10
12.2629806662
 20
19.9700911402
 10
12.1968723289
 20
19.9642750661
 10
12.1305440542
 20
19.9591287389
 10
12.0640116407
 20
19.9546541409
 10
11.9972592898
 20
19.95084929
 10
11.9303461359
 20
19.9477176968
 10
11.863256125
 20
19.9452595515
 10
11.7960053111
 20
19.9434746641
 10
11.7287009915
 20
19.9423659751
 10
11.6613574065
 20
19.9419344681
 10
11.5939603157
 20
19.9421791596
 10
11.5265742947
 20
19.9431000394
 10
11.459186331
 20
19.9446982147
 10
11.3918094369
 20
19.9469725784
 10
11.3245472251
 20
19.9499197983
 10
11.2574103898
 20
19.9535403382
 10
11.1903882366
 20
19.9578337343
 10
11.1235522952
 20
19.9627952632
 10
11.0568951013
 20
19.9684262524
 10
10.9904241191
 20
19.9747253744
 10
10.9242332718
 20
19.9816839234
 10
10.858327601
 20
19.9893024183
 10
10.792702065
 20
19.9975803402
 10
10.7274354619
 20
20.0065074272
 10
10.6625273736
 20
20.0160844766
 10
10.5979782182
 20
20.026310691
 10
10.5338680477
 20
20.0371734163
 10
10.4701950344
 20
20.0486739376
 10
10.4069610059
 20
20.0608109698
 10
10.3442514973
 20
20.073568003
 10
10.2820728913
 20
20.0869445866
 10
10.2204188053
 20
20.1009411712
 10
10.1593556261
 20
20.1155425987
 10
10.0988757705
 20
20.130751643
 10
10.0389868219
 20
20.1465655302
 10
9.9797779173
 20
20.1629607806
 10
9.9212600191
 20
20.1799352
 10
9.8634221649
 20
20.1974909826
 10
9.8063206051
 20
20.2156112314
 10
9.7499446884
 20
20.2343005266
 10
9.694305066
 20
20.253554288
 10
9.6394899418
 20
20.2733418783
 10
9.5855124978
 20
20.2936593263
 10
9.532359552
 20
20.3145106032
 10
9.4800797616
 20
20.3358769853
 10
9.4286617587
 20
20.3577645036
 10
9.3781169112
 20
20.3801671271
 10
9.3285279802
 20
20.4030480394
 10
9.2799084159
 20
20.4264020352
 10
9.2322447682
 20
20.4502343197
 10
9.1855794479
 20
20.4745236918
 10
9.1399021063
 20
20.4992768471
 10
9.0952230922
 20
20.5244870899
 10
9.0516158634
 20
20.5501131326
 10
9.0090924836
 20
20.5761492954
 10
8.967640889
 20
20.6026012579
 10
8.9272983465
 20
20.6294447713
 10
8.8880570524
 20
20.6566863568
 10
8.8499248103
 20
20.6843194931
 10
8.8129622981
 20
20.7123003674
 10
8.777178626
 20
20.7406236887
 10
8.7425646839
 20
20.769294748
 10
8.7091538191
 20
20.7982856056
 10
8.6769418275
 20
20.8276016354
 10
8.6459329134
 20
20.8572374636
 10
8.616173037
 20
20.8871490289
 10
8.5876676733
 20
20.9173325885
 10
8.5604113474
 20
20.9477918854
 10
8.5344335949
 20
20.9784940867
 10
8.5097336618
 20
21.0094422844
 10
8.4863123021
 20
21.0406333866
 10
8.4718652396
 20
21.0609087755
  0
LWPOLYLINE
  5
291
100
AcDbEntity
  8
715
100
AcDbPolyline
 62
7
  6
CONTINUOUS
 90
10
 70
0
 10
13.8882884617
 20
20.4994825965
 10
13.899684926
 20
20.5046512518
 10
13.9109053285
 20
20.5087031482
 10
13.9219496692
 20
20.5116382857
 10
13.9329129281
 20
20.513456817
 10
13.9437001253
 20
20.5141585895
 10
13.9540263207
 20
20.5137431451
 10
13.9637965344
 20
20.5122103313
 10
13.9731057465
 20
20.5095603005
 10
13.9819539568
 20
20.5057930529
  0
LWPOLYLINE
  5
292
100
AcDbEntity
  8
290
100
AcDbPolyline
 62
253
  6
CONTINUOUS
 90
22
 70
0
 10
-2.283756408
 20
13.2313373482
 10
-2.3591967464
 20
13.1984951129
 10
-2.4346605562
 20
13.1592016476
 10
-2.5097791287
 20
13.1136546369
 10
-2.584186488
 20
13.0620870116
 10
-2.6575183395
 20
13.0047530214
 10
-2.7294133337
 20
12.9419245311
 10
-2.7995281766
 20
12.8739041575
 10
-2.8675108868
 20
12.8010369319
 10
-2.9330011291
 20
12.7236979859
 10
-2.9956671666
 20
12.6422901841
 10
-3.0552184155
 20
12.5572048226
 10
-3.1113754246
 20
12.4688289473
 10
-3.163871878
 20
12.3775793715
 10
-3.2124374424
 20
12.2839258754
 10
-3.2568129559
 20
12.188354532
 10
-3.2967759356
 20
12.0913536092
 10
-3.3321399155
 20
11.993390356
 10
-3.362733017
 20
11.8949308364
 10
-3.3884040551
 20
11.7964560097
 10
-3.4090259082
 20
11.6984597177
 10
-3.424496297
 20
11.6014270905
  0
LWPOLYLINE
  5
293
100
AcDbEntity
  8
290
100
AcDbPolyline
 62
253
  6
CONTINUOUS
 90
22
 70
0
 10
-1.777374795
 20
12.2302477069
 10
-1.813181056
 20
12.215091469
 10
-1.8487006108
 20
12.1971025467
 10
-1.8839334594
 20
12.1762809401
 10
-1.9190656023
 20
12.1524911684
 10
-1.9539110389
 20
12.1258687123
 10
-1.9879117681
 20
12.0968200139
 10
-2.0210430263
 20
12.0653116732
 10
-2.053329577
 20
12.0313770901
 10
-2.0842877094
 20
11.9955229063
 10
-2.1138928674
 20
11.9577266087
 10
-2.1421696071
 20
11.9180107104
 10
-2.1687078856
 20
11.8769493928
 10
-2.193487141
 20
11.8345132682
 10
-2.2165279353
 20
11.7907317243
 10
-2.2374819121
 20
11.7462671061
 10
-2.2563162814
 20
11.7010986633
 10
-2.2730638331
 20
11.6552471462
 10
-2.2874745802
 20
11.6094371503
 10
-2.2994651937
 20
11.5639102074
 10
-2.3091190026
 20
11.5184247856
 10
-2.3164360068
 20
11.4729808851
  0
LINE
  5
294
100
AcDbEntity
  8
290
100
AcDbLine
 62
253
  6
CONTINUOUS
 10
2.3874387662
 20
13.8149203634
 11
-1.777374795
 21
12.2302477069
  0
LINE
  5
295
100
AcDbEntity
  8
268
100
AcDbLine
 62
7
  6
CONTINUOUS
 10
-10.012269663
 20
22.8415902367
 11
-10.012269663
 21
24.5736410443
  0
LINE
  5
296
100
AcDbEntity
  8
268
100
AcDbLine
 62
7
  6
CONTINUOUS
 10
-9.3092767087
 20
24.7089625421
 11
-9.3092767087
 21
24.4480335657
  0
LINE
  5
297
100
AcDbEntity
  8
218140000
100
AcDbLine
 62
253
  6
CONTINUOUS
 10
18.6360867582
 20
21.0842313421
 11
4.4480640123
 21
13.8660352232
  0
LINE
  5
298
100
AcDbEntity
  8
218140000
100
AcDbLine
 62
253
  6
CONTINUOUS
 10
19.0502372339
 20
19.6525977675
 11
4.4480640123
 21
12.2237014397
  0
LWPOLYLINE
  5
299
100
AcDbEntity
  8
218140000
100
AcDbPolyline
 62
253
  6
CONTINUOUS
 90
34
 70
0
 10
18.6360867582
 20
21.0842313421
 10
18.6549232735
 20
21.0935544435
 10
18.6733653902
 20
21.1025969805
 10
18.6913994131
 20
21.1113522382
 10
18.70901195
 20
21.1198137148
 10
18.7261899218
 20
21.1279751269
 10
18.742920572
 20
21.1358304137
 10
18.7591914764
 20
21.1433737418
 10
18.774990552
 20
21.1505995095
 10
18.7903060664
 20
21.1575023509
 10
18.8051266463
 20
21.16407714
 10
18.8194412857
 20
21.1703189942
 10
18.8332393546
 20
21.1762232783
 10
18.8465106063
 20
21.1817856078
 10
18.8592451857
 20
21.187001852
 10
18.871433636
 20
21.1918681374
 10
18.8830669059
 20
21.1963808501
 10
18.8941363564
 20
21.2005366391
 10
18.9046337675
 20
21.2043324183
 10
18.9145513436
 20
21.2077653688
 10
18.9238817198
 20
21.2108329413
 10
18.9326179675
 20
21.2135328579
 10
18.940753599
 20
21.2158631135
 10
18.9482825727
 20
21.2178219778
 10
18.9551992977
 20
21.219407996
 10
18.9614986374
 20
21.2206199903
 10
18.967175914
 20
21.2214570608
 10
18.9722269115
 20
21.2219185857
 10
18.9766478789
 20
21.2220042225
 10
18.9804355334
 20
21.2217139074
 10
18.983587062
 20
21.2210478561
 10
18.9861001246
 20
21.2200065632
 10
18.9879728548
 20
21.2185908019
 10
18.9889299901
 20
21.2173297288
  0
LINE
  5
29A
100
AcDbEntity
  8
268
100
AcDbLine
 62
7
  6
CONTINUOUS
 10
-7.83451266
 20
22.3155771049
 11
-7.83451266
 21
21.1008437187
  0
LINE
  5
29B
100
AcDbEntity
  8
268
100
AcDbLine
 62
253
  6
CONTINUOUS
 10
-7.7466446943
 20
22.2090681481
 11
-7.7466446943
 21
20.994113282
  0
LWPOLYLINE
  5
29C
100
AcDbEntity
  8
290
100
AcDbPolyline
 62
253
  6
CONTINUOUS
 90
15
 70
0
 10
-6.4255505625
 20
-24.8693922596
 10
-6.4255915785
 20
-24.9608577953
 10
-6.4203295139
 20
-25.0495142803
 10
-6.4097904341
 20
-25.134924217
 10
-6.3940253302
 20
-25.2166637384
 10
-6.3731128529
 20
-25.2943331196
 10
-6.3471566985
 20
-25.3675568704
 10
-6.3162769424
 20
-25.4359816713
 10
-6.2806267502
 20
-25.4992590625
 10
-6.240396916
 20
-25.5570586503
 10
-6.1957945359
 20
-25.6090893404
 10
-6.1470321136
 20
-25.6551103789
 10
-6.0943394811
 20
-25.6949073747
 10
-6.0379585584
 20
-25.7282885111
 10
-6.0313987408
 20
-25.7316335057
  0
LINE
  5
29D
100
AcDbEntity
  8
268
100
AcDbLine
 62
7
  6
CONTINUOUS
 10
3.9671673364
 20
17.5339231955
 11
3.4399226207
 21
16.8922154674
  0
LWPOLYLINE
  5
29E
100
AcDbEntity
  8
218140000
100
AcDbPolyline
 62
253
  6
CONTINUOUS
 90
30
 70
0
 10
19.0502372339
 20
19.6525977675
 10
19.0688983725
 20
19.6625271105
 10
19.0870114675
 20
19.6727070085
 10
19.1045630681
 20
19.6831299018
 10
19.1215401404
 20
19.6937880504
 10
19.137930077
 20
19.7046735394
 10
19.1537207067
 20
19.7157782852
 10
19.1689003034
 20
19.7270940414
 10
19.1834575945
 20
19.7386124047
 10
19.1973817697
 20
19.7503248217
 10
19.2106624889
 20
19.7622225947
 10
19.2232898897
 20
19.7742968882
 10
19.2352545949
 20
19.7865387358
 10
19.2465477196
 20
19.7989390466
 10
19.2571608773
 20
19.8114886122
 10
19.2670861867
 20
19.8241781132
 10
19.2763162771
 20
19.8369981262
 10
19.2848442944
 20
19.849939131
 10
19.2926639054
 20
19.8629915176
 10
19.2997693033
 20
19.8761455932
 10
19.3061552117
 20
19.8893915896
 10
19.3118168883
 20
19.9027196701
 10
19.3167501287
 20
19.9161199372
 10
19.3209512695
 20
19.9295824399
 10
19.3244171908
 20
19.9430971809
 10
19.3271453189
 20
19.9566541239
 10
19.3291336278
 20
19.9702432015
 10
19.3303806411
 20
19.9838543225
 10
19.3308854326
 20
19.9974773791
 10
19.3308974335
 20
19.9999252582
  0
LWPOLYLINE
  5
29F
100
AcDbEntity
  8
218140000
100
AcDbPolyline
 62
253
  6
CONTINUOUS
 90
62
 70
0
 10
19.1677822816
 20
14.2100904015
 10
19.1752400416
 20
14.2127735376
 10
19.1828164743
 20
14.2152021042
 10
19.1905103229
 20
14.217377872
 10
19.1983155578
 20
14.219326366
 10
19.2062352138
 20
14.2210260996
 10
19.2142809
 20
14.2224091996
 10
19.222486175
 20
14.2234809569
 10
19.2308119824
 20
14.2242430643
 10
19.239159979
 20
14.2246233851
 10
19.2475270958
 20
14.2246102164
 10
19.2559087457
 20
14.2242244453
 10
19.2642040011
 20
14.2234429456
 10
19.27240066
 20
14.2222542695
 10
19.2805021613
 20
14.2206800058
 10
19.2884317761
 20
14.2187455053
 10
19.2961947401
 20
14.2164327856
 10
19.3037771939
 20
14.213769635
 10
19.3110765091
 20
14.2108466752
 10
19.3180601075
 20
14.2076654978
 10
19.3247561265
 20
14.2042292405
 10
19.3311566008
 20
14.2006265817
 10
19.3372374695
 20
14.196877116
 10
19.3430213453
 20
14.1929625789
 10
19.3485715758
 20
14.1889134862
 10
19.3538797957
 20
14.1847535841
 10
19.3589525285
 20
14.1804612002
 10
19.3638737069
 20
14.1760010579
 10
19.3686433404
 20
14.1713962964
 10
19.373256193
 20
14.1666302573
 10
19.3777839741
 20
14.1616134718
 10
19.3822325051
 20
14.156364527
 10
19.3865845149
 20
14.1508793567
 10
19.3908708118
 20
14.1450423834
 10
19.3951013262
 20
14.13885889
 10
19.399245924
 20
14.132349657
 10
19.4032691369
 20
14.1254301771
 10
19.4071699487
 20
14.1181058716
 10
19.4109214894
 20
14.1104081497
 10
19.4144456482
 20
14.1022964703
 10
19.4177260186
 20
14.0938073277
 10
19.4207469042
 20
14.0849480851
 10
19.423427098
 20
14.0756400788
 10
19.4257535528
 20
14.0659405883
 10
19.4276985951
 20
14.0558500117
 10
19.429149175
 20
14.0452179198
 10
19.4300938871
 20
14.0340806612
 10
19.4304841258
 20
14.022489871
 10
19.4301389413
 20
14.0103351633
 10
19.4290075004
 20
13.9975745937
 10
19.4270614753
 20
13.984371785
 10
19.4241632239
 20
13.970911386
 10
19.4202472496
 20
13.9571893172
 10
19.4153300048
 20
13.9432949895
 10
19.409433856
 20
13.9294983973
 10
19.4025489903
 20
13.9158354703
 10
19.3946834865
 20
13.9022873921
 10
19.3859191071
 20
13.8889915531
 10
19.3762642667
 20
13.8759511988
 10
19.3657285675
 20
13.8631482951
 10
19.3544115495
 20
13.8506620484
 10
19.3423413777
 20
13.8384926471
  0
LWPOLYLINE
  5
2A0
100
AcDbEntity
  8
290
100
AcDbPolyline
 62
253
  6
CONTINUOUS
 90
22
 70
0
 10
-5.309487461
 20
-24.9005829468
 10
-5.3094403717
 20
-24.9434248012
 10
-5.3069266717
 20
-24.9846383089
 10
-5.3019463609
 20
-25.0242234697
 10
-5.2944518819
 20
-25.0623781305
 10
-5.2844907922
 20
-25.0989044446
 10
-5.2722057639
 20
-25.1332088712
 10
-5.2575601616
 20
-25.1652427746
 10
-5.2405906207
 20
-25.1950547906
 10
-5.2215497196
 20
-25.2221972865
 10
-5.2004099956
 20
-25.2466265603
 10
-5.1771989114
 20
-25.2683863139
 10
-5.1522514336
 20
-25.2871600207
 10
-5.1255357661
 20
-25.3029065126
 10
-5.0970837051
 20
-25.3156669576
 10
-5.0673256055
 20
-25.325248333
 10
-5.0362324997
 20
-25.3315963271
 10
-5.0038333552
 20
-25.3347652516
 10
-4.9706454302
 20
-25.3347250186
 10
-4.9368411438
 20
-25.331465599
 10
-4.9022480768
 20
-25.324997022
 10
-4.8668662292
 20
-25.3153192875
  0
LWPOLYLINE
  5
2A1
100
AcDbEntity
  8
290
100
AcDbPolyline
 62
253
  6
CONTINUOUS
 90
13
 70
0
 10
-3.424496297
 20
11.6014270905
 10
-3.8259022438
 20
8.5128340181
 10
-4.1999278011
 20
5.4319148916
 10
-4.546525726
 20
2.3590624157
 10
-4.8656523111
 20
-0.7053316728
 10
-5.1572669978
 20
-3.7608769695
 10
-5.4213323774
 20
-6.8071844516
 10
-5.6578145841
 20
-9.8438661374
 10
-5.866683715
 20
-12.8705350472
 10
-6.0479134362
 20
-15.8868055655
 10
-6.2014805681
 20
-18.8922935056
 10
-6.3273650918
 20
-21.8866161603
 10
-6.4255505625
 20
-24.8693922596
  0
LWPOLYLINE
  5
2A2
100
AcDbEntity
  8
715
100
AcDbPolyline
 62
253
  6
CONTINUOUS
 90
47
 70
0
 10
9.5362821803
 20
20.3129718021
 10
9.5524980847
 20
20.3346478329
 10
9.601781303
 20
20.3914285103
 10
9.6569149777
 20
20.4470191247
 10
9.717418456
 20
20.500961647
 10
9.7832908076
 20
20.5532145465
 10
9.8545329629
 20
20.6038193539
 10
9.9306670606
 20
20.6524426324
 10
10.0116836896
 20
20.6990703749
 10
10.097592261
 20
20.7437165886
 10
10.1879431467
 20
20.7860898577
 10
10.2829934269
 20
20.8262490557
 10
10.3824860214
 20
20.8641353091
 10
10.4852000618
 20
20.8992805823
 10
10.5915409305
 20
20.9316583022
 10
10.7011032451
 20
20.9612950417
 10
10.8114499895
 20
20.9878024839
 10
10.9225545064
 20
21.0110018774
 10
11.0344434531
 20
21.0310719734
 10
11.1447597853
 20
21.0481607092
 10
11.2531502751
 20
21.0621346051
 10
11.3599681504
 20
21.0731271406
 10
11.4639160496
 20
21.0816866919
 10
11.564751884
 20
21.0877892614
 10
11.6627177423
 20
21.0914588466
 10
11.7572425286
 20
21.0933158154
 10
11.8481642687
 20
21.0933816843
 10
11.9356449369
 20
21.0916349368
 10
12.0195993602
 20
21.0886313914
 10
12.0999034336
 20
21.0844125908
 10
12.1766812622
 20
21.0789369923
 10
12.2502199887
 20
21.0726357866
 10
12.3204865224
 20
21.0655497529
 10
12.3875139539
 20
21.057638112
 10
12.4516886981
 20
21.0492097178
 10
12.5129964449
 20
21.0402990772
 10
12.5714515043
 20
21.0308716834
 10
12.6274832208
 20
21.0211328696
 10
12.6810878044
 20
21.0111113479
 10
12.732269045
 20
21.0007784061
 10
12.7814676573
 20
20.9902532414
 10
12.8286868022
 20
20.9795587023
 10
12.8739233188
 20
20.9686719401
 10
12.9176084387
 20
20.9576436065
 10
12.9598859058
 20
20.9464905852
 10
13.0006119762
 20
20.9351959924
 10
13.0397866499
 20
20.9237598281
  0
LWPOLYLINE
  5
2A3
100
AcDbEntity
  8
715
100
AcDbPolyline
 62
253
  6
CONTINUOUS
 90
9
 70
0
 10
9.4571253986
 20
20.3456481551
 10
9.4870687801
 20
20.3800405889
 10
9.5461476506
 20
20.4392998061
 10
9.61124043
 20
20.4969077393
 10
9.6821162618
 20
20.5526812069
 10
9.7586093996
 20
20.6065091425
 10
9.8406008033
 20
20.6583103261
 10
9.9278494003
 20
20.7079279655
 10
9.9482187797
 20
20.7187969468
  0
LINE
  5
2A4
100
AcDbEntity
  8
268
100
AcDbLine
 62
253
  6
CONTINUOUS
 10
-1.9541356263
 20
18.097858748
 11
-1.9541356263
 21
19.3128136141
  0
LWPOLYLINE
  5
2A5
100
AcDbEntity
  8
290
100
AcDbPolyline
 62
253
  6
CONTINUOUS
 90
16
 70
0
 10
-1.777374795
 20
12.2302477069
 10
-1.7757914425
 20
12.3063284812
 10
-1.7802543408
 20
12.384731484
 10
-1.7907146674
 20
12.464598489
 10
-1.8070579487
 20
12.5450552399
 10
-1.8291053113
 20
12.6252210119
 10
-1.8566154372
 20
12.7042182527
 10
-1.8892872106
 20
12.7811822068
 10
-1.9267630075
 20
12.8552703613
 10
-1.9686326028
 20
12.9256716641
 10
-2.0144376809
 20
12.991615439
 10
-2.0636768384
 20
13.0523797948
 10
-2.1158110578
 20
13.1072995163
 10
-2.1702696371
 20
13.155773386
 10
-2.2264564409
 20
13.1972707584
 10
-2.2837564062
 20
13.2313373489
  0
LWPOLYLINE
  5
2A6
100
AcDbEntity
  8
290
100
AcDbPolyline
 62
253
  6
CONTINUOUS
 90
7
 70
0
 10
-4.3079817344
 20
-6.8865323311
 10
-4.5438183601
 20
-9.9149961974
 10
-4.7521458879
 20
-12.9338615234
 10
-4.9328845397
 20
-15.9419688112
 10
-5.0860077228
 20
-18.9389315613
 10
-5.2115420299
 20
-21.9251362732
 10
-5.309487461
 20
-24.9005829468
  0
LWPOLYLINE
  5
2A7
100
AcDbEntity
  8
290
100
AcDbPolyline
 62
253
  6
CONTINUOUS
 90
7
 70
0
 10
-2.3164360068
 20
11.4729808851
 10
-2.7168537262
 20
8.3919879793
 10
-3.089874073
 20
5.3194246881
 10
-3.4354970473
 20
2.2552910114
 10
-3.7537598907
 20
-0.8008026926
 10
-4.0446253615
 20
-3.848466782
 10
-4.3079817344
 20
-6.8865323311
  0
LINE
  5
2A8
100
AcDbEntity
  8
268
100
AcDbLine
 62
7
  6
CONTINUOUS
 10
0.8652967542
 20
-4.6831677852
 11
1.0539514626
 21
-4.7774951393
  0
LWPOLYLINE
  5
2A9
100
AcDbEntity
  8
268
100
AcDbPolyline
 62
7
  6
CONTINUOUS
 90
13
 70
0
 10
9.2210829721
 20
-17.2072320216
 10
9.218191807
 20
-17.2033388307
 10
9.2145030429
 20
-17.1989564905
 10
9.2100430789
 20
-17.1941991976
 10
9.2048502207
 20
-17.189059343
 10
9.1989675635
 20
-17.1835119843
 10
9.1924070293
 20
-17.1776443857
 10
9.1852001261
 20
-17.1714470777
 10
9.1773829804
 20
-17.1649019531
 10
9.168959041
 20
-17.158081077
 10
9.1599461496
 20
-17.1509990522
 10
9.1503843043
 20
-17.1436154089
 10
9.1403045471
 20
-17.1359188542
  0
LINE
  5
2AA
100
AcDbEntity
  8
268
100
AcDbLine
 62
7
  6
CONTINUOUS
 10
0.1999040513
 20
-12.7694651047
 11
0.7807380601
 21
-18.1832906783
  0
LINE
  5
2AB
100
AcDbEntity
  8
268
100
AcDbLine
 62
7
  6
CONTINUOUS
 10
-1.5976989669
 20
22.3518086086
 11
-1.5976989669
 21
23.6011034417
  0
LINE
  5
2AC
100
AcDbEntity
  8
268
100
AcDbLine
 62
253
  6
CONTINUOUS
 10
-1.5311092747
 20
18.0994975955
 11
-1.5311092747
 21
19.3137010684
  0
LINE
  5
2AD
100
AcDbEntity
  8
268
100
AcDbLine
 62
7
  6
CONTINUOUS
 10
-1.2441455763
 20
22.8717685571
 11
-1.2441455763
 21
23.4243267464
  0
LINE
  5
2AE
100
AcDbEntity
  8
268
100
AcDbLine
 62
253
  6
CONTINUOUS
 10
-1.1734348981
 20
25.040535044
 11
-1.1734348981
 21
23.8087008626
  0
LINE
  5
2AF
100
AcDbEntity
  8
268
100
AcDbLine
 62
7
  6
CONTINUOUS
 10
-1.0855669325
 20
25.145532258
 11
-1.0855669325
 21
23.9131636531
  0
LINE
  5
2B0
100
AcDbEntity
  8
268
100
AcDbLine
 62
7
  6
CONTINUOUS
 10
-1.0320135419
 20
19.5638977415
 11
-1.0320135419
 21
18.3514621762
  0
LINE
  5
2B1
100
AcDbEntity
  8
268
100
AcDbLine
 62
7
  6
CONTINUOUS
 10
-0.031779481
 20
-24.2185643155
 11
-0.031779481
 21
-23.9651929217
  0
LINE
  5
2B2
100
AcDbEntity
  8
268
100
AcDbLine
 62
7
  6
CONTINUOUS
 10
-0.031779481
 20
17.3344112177
 11
-0.031779481
 21
17.5877826114
  0
LWPOLYLINE
  5
2B3
100
AcDbEntity
  8
290
100
AcDbPolyline
 62
253
  6
CONTINUOUS
 90
11
 70
0
 10
-4.8668662292
 20
-25.3153192875
 10
-4.8776348699
 20
-25.3893472058
 10
-4.8943146652
 20
-25.4594097904
 10
-4.9167230273
 20
-25.5247400899
 10
-4.9446146592
 20
-25.5846229556
 10
-4.9776842409
 20
-25.6384028701
 10
-5.0155697708
 20
-25.6854911229
 10
-5.0578565288
 20
-25.7253722549
 10
-5.1040816161
 20
-25.7576097008
 10
-5.1537390224
 20
-25.7818505683
 10
-5.1757595935
 20
-25.7896661235
  0
LINE
  5
2B4
100
AcDbEntity
  8
218140000
100
AcDbLine
 62
7
  6
CONTINUOUS
 10
19.3308974335
 20
13.8202259451
 11
20.2460742201
 21
14.4121545639
  0
LINE
  5
2B5
100
AcDbEntity
  8
268
100
AcDbLine
 62
7
  6
CONTINUOUS
 10
1.0539514626
 20
-4.7774951393
 11
2.7863630765
 21
-21.1916560468
  0
LWPOLYLINE
  5
2B6
100
AcDbEntity
  8
268
100
AcDbPolyline
 62
7
  6
CONTINUOUS
 90
24
 70
0
 10
1.5135708704
 20
23.9152092904
 10
1.5129976859
 20
23.9496816966
 10
1.5112985729
 20
23.9834316176
 10
1.5084735314
 20
24.0164590534
 10
1.5045130968
 20
24.0488206108
 10
1.4994267337
 20
24.080459683
 10
1.4932428354
 20
24.1112064495
 10
1.4859602199
 20
24.1410419769
 10
1.4775800692
 20
24.1699851987
 10
1.468134322
 20
24.1979230946
 10
1.4576104635
 20
24.2248692574
 10
1.4460210084
 20
24.2508100944
 10
1.4334354397
 20
24.2755918073
 10
1.4198602538
 20
24.2991891087
 10
1.4052889543
 20
24.321627286
 10
1.3897715343
 20
24.3428284032
 10
1.3732882469
 20
24.3628054931
 10
1.355858839
 20
24.381545523
 10
1.3375925444
 20
24.3989314586
 10
1.3185038885
 20
24.4149403849
 10
1.2985783458
 20
24.429595217
 10
1.2778815733
 20
24.4428476653
 10
1.2563890587
 20
24.4547035266
 10
-1.9728122075
 20
26.0693280369
  0
LINE
  5
2B7
100
AcDbEntity
  8
268
100
AcDbLine
 62
7
  6
CONTINUOUS
 10
0.6712134733
 20
16.427851963
 11
0.6712134733
 21
16.8801829386
  0
LINE
  5
2B8
100
AcDbEntity
  8
268
100
AcDbLine
 62
7
  6
CONTINUOUS
 10
1.5135708704
 20
23.9152092904
 11
1.5135708704
 21
23.6444089978
  0
LINE
  5
2B9
100
AcDbEntity
  8
268
100
AcDbLine
 62
7
  6
CONTINUOUS
 10
1.5739969812
 20
16.7848943803
 11
1.5739969812
 21
16.5315229866
  0
LINE
  5
2BA
100
AcDbEntity
  8
268
100
AcDbLine
 62
7
  6
CONTINUOUS
 10
1.5739969812
 20
-24.7680811528
 11
1.5739969812
 21
-25.0214525465
  0
LINE
  5
2BB
100
AcDbEntity
  8
268
100
AcDbLine
 62
7
  6
CONTINUOUS
 10
1.9731902781
 20
14.759078657
 11
1.9731902781
 21
14.7346831517
  0
LINE
  5
2BC
100
AcDbEntity
  8
268
100
AcDbLine
 62
7
  6
CONTINUOUS
 10
1.9731902781
 20
-23.3704346148
 11
1.9731902781
 21
-23.3948301201
  0
LINE
  5
2BD
100
AcDbEntity
  8
268
100
AcDbLine
 62
7
  6
CONTINUOUS
 10
2.2852175893
 20
-23.7915846757
 11
2.2852175893
 21
-23.3869625846
  0
LINE
  5
2BE
100
AcDbEntity
  8
268
100
AcDbLine
 62
7
  6
CONTINUOUS
 10
2.2852175893
 20
15.620849905
 11
2.2852175893
 21
16.2580194637
  0
LINE
  5
2BF
100
AcDbEntity
  8
290
100
AcDbLine
 62
7
  6
CONTINUOUS
 10
-0.7243300158
 20
-24.0013758658
 11
2.3874387662
 21
13.8149203634
  0
LINE
  5
2C0
100
AcDbEntity
  8
268
100
AcDbLine
 62
7
  6
CONTINUOUS
 10
2.7863630765
 20
13.369077382
 11
1.0539514626
 21
-4.7774951393
  0
LWPOLYLINE
  5
2C1
100
AcDbEntity
  8
218140000
100
AcDbPolyline
 62
253
  6
CONTINUOUS
 90
63
 70
0
 10
19.0502401326
 20
14.0727332316
 10
19.056215561
 20
14.0780688559
 10
19.0621396515
 20
14.0831576486
 10
19.0680118834
 20
14.0879994112
 10
19.0738261766
 20
14.0925923521
 10
19.0795876856
 20
14.09693781
 10
19.0853122627
 20
14.101040494
 10
19.0910037146
 20
14.1049047061
 10
19.0966561306
 20
14.1085261879
 10
19.1022702401
 20
14.1118970374
 10
19.1078345209
 20
14.1150137328
 10
19.1133585653
 20
14.1178797136
 10
19.1188736244
 20
14.1204979682
 10
19.1243727133
 20
14.1228741411
 10
19.1298584804
 20
14.1250033735
 10
19.1353738362
 20
14.1268739447
 10
19.1409123013
 20
14.1284959839
 10
19.1464722553
 20
14.1298613492
 10
19.152100023
 20
14.1309322598
 10
19.1577869182
 20
14.1317216773
 10
19.1635284101
 20
14.1322200421
 10
19.1693720789
 20
14.1323573798
 10
19.1753294504
 20
14.1321395499
 10
19.1813678578
 20
14.1315660409
 10
19.1874659669
 20
14.1305579899
 10
19.1936282374
 20
14.129101359
 10
19.1998277811
 20
14.1272149771
 10
19.2059997617
 20
14.1248680143
 10
19.2121336686
 20
14.1220436777
 10
19.2182235272
 20
14.1187609657
 10
19.2242178371
 20
14.1150407454
 10
19.230121008
 20
14.1108570946
 10
19.2359172712
 20
14.1062361946
 10
19.2415339485
 20
14.1012747055
 10
19.2469699675
 20
14.095955507
 10
19.2522273858
 20
14.090292869
 10
19.2572497233
 20
14.0844279555
 10
19.2620256008
 20
14.0783765382
 10
19.2665796676
 20
14.0721177717
 10
19.2709153021
 20
14.0657368063
 10
19.2750251295
 20
14.0592617777
 10
19.2789300438
 20
14.0526600788
 10
19.2826720661
 20
14.0459265306
 10
19.2862461837
 20
14.0390862622
 10
19.2896624939
 20
14.0321115443
 10
19.2929752557
 20
14.024919623
 10
19.2961776311
 20
14.0175274993
 10
19.2992682686
 20
14.0099175613
 10
19.3022953598
 20
14.001957076
 10
19.3052496438
 20
13.993644645
 10
19.3081148869
 20
13.9849827161
 10
19.3109136087
 20
13.9758459465
 10
19.3136318703
 20
13.9662104775
 10
19.3162399973
 20
13.9561018469
 10
19.3187258489
 20
13.9454695143
 10
19.3210652519
 20
13.9342969521
 10
19.3232276601
 20
13.922601177
 10
19.3251861025
 20
13.9103817684
 10
19.3269070778
 20
13.8976555128
 10
19.3283631074
 20
13.8844036823
 10
19.3295276157
 20
13.8705721709
 10
19.330359225
 20
13.8561740109
 10
19.3308184815
 20
13.8411911664
  0
LWPOLYLINE
  5
2C2
100
AcDbEntity
  8
218140000
100
AcDbPolyline
 62
7
  6
CONTINUOUS
 90
136
 70
0
 10
19.1677827754
 20
14.210090815
 10
19.2271454557
 20
14.2587907113
 10
19.2846322921
 20
14.3062763501
 10
19.3402432846
 20
14.3525477311
 10
19.3939236866
 20
14.3975705357
 10
19.4457282448
 20
14.4413790827
 10
19.4958211985
 20
14.4840763282
 10
19.5442096433
 20
14.5256670816
 10
19.5908864837
 20
14.5661465334
 10
19.6359946724
 20
14.6056032119
 10
19.6795384377
 20
14.6440396703
 10
19.7215135513
 20
14.6814533554
 10
19.7620502812
 20
14.7179251344
 10
19.8011525209
 20
14.7534573727
 10
19.8388163769
 20
14.7880477049
 10
19.8751604367
 20
14.8217699035
 10
19.910188296
 20
14.8546261785
 10
19.9438963592
 20
14.8866143197
 10
19.9763924259
 20
14.917801469
 10
20.0076798167
 20
14.9481897065
 10
20.0377552112
 20
14.9777769521
 10
20.0667164478
 20
15.0066241062
 10
20.0945665944
 20
15.0347331518
 10
20.1213025832
 20
15.062102106
 10
20.1470130493
 20
15.0887859202
 10
20.171700822
 20
15.1147865145
 10
20.1953630721
 20
15.1401019689
 10
20.2180799473
 20
15.1647814745
 10
20.239854042
 20
15.1888269274
 10
20.2606827618
 20
15.2122364317
 10
20.2806384714
 20
15.2350534904
 10
20.2997235175
 20
15.2572800178
 10
20.3179355534
 20
15.2789140996
 10
20.335339904
 20
15.2999934968
 10
20.3519386271
 20
15.3205201792
 10
20.3677296649
 20
15.340492177
 10
20.3827721696
 20
15.3599413408
 10
20.3970678287
 20
15.378869717
 10
20.4106149547
 20
15.3972752591
 10
20.4234676369
 20
15.4151836785
 10
20.4356270595
 20
15.4325970715
 10
20.4470920384
 20
15.4495133417
 10
20.4579131106
 20
15.4659519114
 10
20.4680907096
 20
15.4819146814
 10
20.4776244018
 20
15.4973997508
 10
20.4865634234
 20
15.5124208388
 10
20.4949074991
 20
15.5269797783
 10
20.5026569041
 20
15.5410747365
 10
20.5098617004
 20
15.5547139341
 10
20.5165205346
 20
15.5678982211
 10
20.5226347601
 20
15.5806267475
 10
20.5282584985
 20
15.5929051848
 10
20.5333870819
 20
15.6047243246
 10
20.5380251782
 20
15.6160933753
 10
20.5422409129
 20
15.6270456335
 10
20.5460323059
 20
15.6375674961
 10
20.5494013371
 20
15.6476725661
 10
20.5524220716
 20
15.6574349494
 10
20.5550998905
 20
15.6668525104
 10
20.5574294127
 20
15.6759273846
 10
20.559468559
 20
15.6847400843
 10
20.5612247478
 20
15.693295704
 10
20.5626905609
 20
15.7015891492
 10
20.5639016639
 20
15.7096856482
 10
20.5648643232
 20
15.7175894734
 10
20.5655722725
 20
15.7252963524
 10
20.566042379
 20
15.7328586957
 10
20.5662802646
 20
15.7402797171
 10
20.5662803073
 20
15.7475562028
 10
20.5660425088
 20
15.7547309223
 10
20.5655724914
 20
15.7618064819
 10
20.5648646328
 20
15.7687802752
 10
20.5639020678
 20
15.7756872528
 10
20.5626910623
 20
15.7825296332
 10
20.5612253505
 20
15.7893051977
 10
20.5594692694
 20
15.7960422405
 10
20.5574302381
 20
15.8027433465
 10
20.5551008375
 20
15.8094059306
 10
20.5524231466
 20
15.8160505328
 10
20.5494025498
 20
15.822684859
 10
20.5460336627
 20
15.8293012032
 10
20.5422424122
 20
15.8358969865
 10
20.538026817
 20
15.8424837669
 10
20.5333888583
 20
15.8490499863
 10
20.5282604066
 20
15.8555583915
 10
20.5226367925
 20
15.8620133581
 10
20.5165226854
 20
15.8684105104
 10
20.5098639637
 20
15.8746994681
 10
20.5026592755
 20
15.8808779781
 10
20.4949099729
 20
15.8869482935
 10
20.48656599
 20
15.8928667932
 10
20.4776270504
 20
15.8986313598
 10
20.4680934307
 20
15.9042441107
 10
20.4579158941
 20
15.9096677765
 10
20.4470948742
 20
15.9149009049
 10
20.4356299375
 20
15.9199449483
 10
20.4234705468
 20
15.9247669944
 10
20.4106178859
 20
15.9293661728
 10
20.3970707709
 20
15.9337433539
 10
20.3827751131
 20
15.9378682363
 10
20.3677325999
 20
15.941740521
 10
20.3519415439
 20
15.945360507
 10
20.3353427941
 20
15.9486987906
 10
20.317938408
 20
15.9517555323
 10
20.2997263281
 20
15.9545305715
 10
20.2806412311
 20
15.9569940228
 10
20.2606854632
 20
15.9591464019
 10
20.2398566782
 20
15.9609871932
 10
20.2180825131
 20
15.9624849641
 10
20.1953655623
 20
15.9636405049
 10
20.1717032313
 20
15.9644530253
 10
20.1470153747
 20
15.9648887215
 10
20.1213048215
 20
15.9649486031
 10
20.0945687426
 20
15.9646316605
 10
20.066718505
 20
15.9639010614
 10
20.0377571763
 20
15.9627579995
 10
20.007681689
 20
15.9612012812
 10
19.9763942068
 20
15.959190493
 10
19.9438980502
 20
15.956726993
 10
19.9101898988
 20
15.9538094231
 10
19.8751619553
 20
15.950393296
 10
19.8388178155
 20
15.9464801252
 10
19.8011538837
 20
15.9420683971
 10
19.7620515753
 20
15.9371090844
 10
19.7215147836
 20
15.9316038537
 10
19.6795396153
 20
15.9255510383
 10
19.6359958057
 20
15.9188966107
 10
19.5908875829
 20
15.9116423957
 10
19.5442107188
 20
15.9037865684
 10
19.4958222639
 20
15.8952696265
 10
19.4457293719
 20
15.8860941205
 10
19.3939248892
 20
15.8762574999
 10
19.3402444058
 20
15.8656926106
 10
19.2846331183
 20
15.8543770679
 10
19.22714583
 20
15.8423332567
 10
19.167782541
 20
15.8295611768
  0
LWPOLYLINE
  5
2C3
100
AcDbEntity
  8
268
100
AcDbPolyline
 62
7
  6
CONTINUOUS
 90
31
 70
0
 10
3.7409572311
 20
15.6618563565
 10
3.7406175636
 20
15.6778893885
 10
3.7396011261
 20
15.6942179578
 10
3.7379103928
 20
15.7107971609
 10
3.7355493882
 20
15.7275812606
 10
3.7325245766
 20
15.7445242546
 10
3.7288448442
 20
15.7615800029
 10
3.7245199911
 20
15.7787016216
 10
3.7195615613
 20
15.7958420324
 10
3.7139837107
 20
15.8129545372
 10
3.7078014665
 20
15.829992107
 10
3.7010314762
 20
15.8469078992
 10
3.6936928178
 20
15.8636558067
 10
3.6858053758
 20
15.8801898139
 10
3.6773904919
 20
15.8964644666
 10
3.6684716968
 20
15.9124353849
 10
3.6590732431
 20
15.928058699
 10
3.6492206413
 20
15.9432914629
 10
3.6389412959
 20
15.9580921172
 10
3.6282632305
 20
15.9724200184
 10
3.6172154967
 20
15.9862357865
 10
3.6058286975
 20
15.9995017065
 10
3.5941339377
 20
16.0121813626
 10
3.5821630945
 20
16.0242399104
 10
3.5699492156
 20
16.0356444092
 10
3.5575257211
 20
16.0463635674
 10
3.5449265288
 20
16.0563679347
 10
3.5321863164
 20
16.0656301562
 10
3.5193400203
 20
16.0741248474
 10
3.5064227399
 20
16.081828665
 10
3.4934698577
 20
16.0887204764
  0
LINE
  5
2C4
100
AcDbEntity
  8
268
100
AcDbLine
 62
7
  6
CONTINUOUS
 10
2.7863630765
 20
15.0189848196
 11
2.7863630765
 21
13.369077382
  0
LINE
  5
2C5
100
AcDbEntity
  8
268
100
AcDbLine
 62
7
  6
CONTINUOUS
 10
2.7863630765
 20
-21.1916560468
 11
2.7863630765
 21
-22.8415634844
  0
LINE
  5
2C6
100
AcDbEntity
  8
268
100
AcDbLine
 62
7
  6
CONTINUOUS
 10
3.3520485015
 20
-22.8649496164
 11
3.3520485015
 21
-24.3705577426
  0
LINE
  5
2C7
100
AcDbEntity
  8
268
100
AcDbLine
 62
7
  6
CONTINUOUS
 10
3.3520485015
 20
16.1594311545
 11
3.3520485015
 21
17.8914819621
  0
LINE
  5
2C8
100
AcDbEntity
  8
268
100
AcDbLine
 62
7
  6
CONTINUOUS
 10
4.0550414557
 20
18.0268034598
 11
4.0550414557
 21
17.7658744835
  0
LINE
  5
2C9
100
AcDbEntity
  8
268
100
AcDbLine
 62
7
  6
CONTINUOUS
 10
4.0550414557
 20
-23.5337296559
 11
4.0550414557
 21
-23.7946586323
  0
LINE
  5
2CA
100
AcDbEntity
  8
268
100
AcDbLine
 62
253
  6
CONTINUOUS
 10
4.3822591533
 20
22.2639133519
 11
4.3822591533
 21
21.0320747735
  0
LINE
  5
2CB
100
AcDbEntity
  8
218140000
100
AcDbLine
 62
7
  6
CONTINUOUS
 10
4.4480640123
 20
12.2237014397
 11
4.4480640123
 21
-18.3845791687
  0
LINE
  5
2CC
100
AcDbEntity
  8
268
100
AcDbLine
 62
7
  6
CONTINUOUS
 10
4.4480640123
 20
-22.1687297868
 11
4.4480640123
 21
16.0078520578
  0
LINE
  5
2CD
100
AcDbEntity
  8
268
100
AcDbLine
 62
7
  6
CONTINUOUS
 10
4.4688965817
 20
22.3683007272
 11
4.4688965817
 21
21.1359322354
  0
LWPOLYLINE
  5
2CE
100
AcDbEntity
  8
268
100
AcDbPolyline
 62
7
  6
CONTINUOUS
 90
18
 70
0
 10
3.7409572311
 20
-22.5298408666
 10
3.7406185866
 20
-22.5455347427
 10
3.7396019431
 20
-22.5608467714
 10
3.7379103928
 20
-22.5757348328
 10
3.7355491756
 20
-22.5901578216
 10
3.7325247641
 20
-22.604076204
 10
3.7288448442
 20
-22.6174521262
 10
3.7245197804
 20
-22.6302487864
 10
3.7195617307
 20
-22.6424309575
 10
3.7139837107
 20
-22.6539655269
 10
3.7078012628
 20
-22.6648207507
 10
3.7010316234
 20
-22.674966728
 10
3.6936928178
 20
-22.6843759036
 10
3.6858051843
 20
-22.693022373
 10
3.6773906133
 20
-22.7008822983
 10
3.6684716968
 20
-22.7079343608
 10
3.6590730684
 20
-22.7141591338
 10
3.650988457
 20
-22.7186533981
  0
LINE
  5
2CF
100
AcDbEntity
  8
218140000
100
AcDbLine
 62
253
  6
CONTINUOUS
 10
19.3423413777
 20
13.8384926471
 11
19.3308974335
 21
13.8278854696
  0
LWPOLYLINE
  5
2D0
100
AcDbEntity
  8
268
100
AcDbPolyline
 62
7
  6
CONTINUOUS
 90
4
 70
0
 10
9.2245025854
 20
-17.2153118293
 10
9.2242680797
 20
-17.2135436153
 10
9.2231273037
 20
-17.2106113896
 10
9.2210829721
 20
-17.2072320216
  0
LWPOLYLINE
  5
2D1
100
AcDbEntity
  8
218140000
100
AcDbPolyline
 62
7
  6
CONTINUOUS
 90
5
 70
0
 10
8.8398425023
 20
20.7627300534
 10
8.839976944
 20
20.7492688665
 10
8.8411737405
 20
20.7203551028
 10
8.8436095267
 20
20.6914512266
 10
8.8439404919
 20
20.6888496631
  0
LINE
  5
2D2
100
AcDbEntity
  8
268
100
AcDbLine
 62
253
  6
CONTINUOUS
 10
9.1403045471
 20
20.0080765744
 11
9.1403045471
 21
19.7958174203
  0
LINE
  5
2D3
100
AcDbEntity
  8
268
100
AcDbLine
 62
253
  6
CONTINUOUS
 10
9.1403045471
 20
-16.9461491501
 11
9.1403045471
 21
-17.1359188542
  0
LWPOLYLINE
  5
2D4
100
AcDbEntity
  8
268
100
AcDbPolyline
 62
7
  6
CONTINUOUS
 90
16
 70
0
 10
9.2245025854
 20
20.2957530802
 10
9.2242680797
 20
20.2822387719
 10
9.2231273037
 20
20.2624735807
 10
9.2210829721
 20
20.2426199301
 10
9.218191807
 20
20.2226841462
 10
9.2145030429
 20
20.2027019099
 10
9.2100430789
 20
20.1827400883
 10
9.2048502207
 20
20.1628193707
 10
9.1989675635
 20
20.1429516193
 10
9.1924070293
 20
20.1231913931
 10
9.1852001261
 20
20.1035543265
 10
9.1773829804
 20
20.0840523619
 10
9.168959041
 20
20.064736763
 10
9.1599461496
 20
20.0456340365
 10
9.1503843043
 20
20.0267435427
 10
9.1403045471
 20
20.0080765744
  0
LWPOLYLINE
  5
2D5
100
AcDbEntity
  8
218140000
100
AcDbPolyline
 62
7
  6
CONTINUOUS
 90
19
 70
0
 10
19.0502401326
 20
14.0727352583
 10
19.0556763477
 20
14.0813985225
 10
19.0612223082
 20
14.0899398164
 10
19.0668780141
 20
14.09835914
 10
19.0726372803
 20
14.1066547847
 10
19.0785062918
 20
14.1148284591
 10
19.0845036042
 20
14.1228852885
 10
19.0906303529
 20
14.1308275291
 10
19.0968854025
 20
14.1386529247
 10
19.103283902
 20
14.1463598322
 10
19.1098267701
 20
14.1539499602
 10
19.116513088
 20
14.1614216
 10
19.1233552484
 20
14.168767983
 10
19.1303545269
 20
14.1759909837
 10
19.1375096478
 20
14.1830887277
 10
19.1448291766
 20
14.190048822
 10
19.1523159683
 20
14.1968671359
 10
19.159967168
 20
14.2035478002
 10
19.1677827754
 20
14.210090815
  0
LINE
  5
2D6
100
AcDbEntity
  8
290
100
AcDbLine
 62
253
  6
CONTINUOUS
 10
-3.424496297
 20
11.6014270905
 11
-17.7529766316
 21
18.7656672578
  0
LWPOLYLINE
  5
2D7
100
AcDbEntity
  8
268
100
AcDbPolyline
 62
7
  6
CONTINUOUS
 90
5
 70
0
 10
9.2245025888
 20
19.7195432503
 10
9.2244899385
 20
19.719878186
 10
9.2241955353
 20
19.7213959747
 10
9.2235202004
 20
19.723112639
 10
9.2224761074
 20
19.7250323428
  0
LWPOLYLINE
  5
2D8
100
AcDbEntity
  8
268
100
AcDbPolyline
 62
7
  6
CONTINUOUS
 90
7
 70
0
 10
9.2244561147
 20
20.3018904183
 10
9.2243645067
 20
20.3061982195
 10
9.2242253359
 20
20.3105095502
 10
9.2240386025
 20
20.3148244102
 10
9.2238043064
 20
20.3191427995
 10
9.2235224476
 20
20.3234647182
 10
9.2231930261
 20
20.3277901663
  0
LINE
  5
2D9
100
AcDbEntity
  8
268
100
AcDbLine
 62
7
  6
CONTINUOUS
 10
9.2244561147
 20
20.3018904183
 11
9.2245025854
 21
20.2957530802
  0
LINE
  5
2DA
100
AcDbEntity
  8
268
100
AcDbLine
 62
7
  6
CONTINUOUS
 10
9.224502607
 20
20.2956974527
 11
9.224502607
 21
19.7197342631
  0
LINE
  5
2DB
100
AcDbEntity
  8
268
100
AcDbLine
 62
7
  6
CONTINUOUS
 10
9.224502607
 20
-16.9016238291
 11
9.224502607
 21
-17.2151422214
  0
LINE
  5
2DC
100
AcDbEntity
  8
218140000
100
AcDbLine
 62
253
  6
CONTINUOUS
 10
9.6284037671
 20
21.2806828252
 11
9.6284037671
 21
21.7137432445
  0
LINE
  5
2DD
100
AcDbEntity
  8
218140000
100
AcDbLine
 62
7
  6
CONTINUOUS
 10
10.311113965
 20
21.6231409174
 11
10.311113965
 21
21.1901282155
  0
LINE
  5
2DE
100
AcDbEntity
  8
715
100
AcDbLine
 62
7
  6
CONTINUOUS
 10
11.2785776775
 20
20.3897755057
 11
11.2785776775
 21
19.9523988336
  0
LINE
  5
2DF
100
AcDbEntity
  8
268
100
AcDbLine
 62
7
  6
CONTINUOUS
 10
9.2244561147
 20
-17.2160537841
 11
9.2245025854
 21
-17.2153118293
  0
LINE
  5
2E0
100
AcDbEntity
  8
290
100
AcDbLine
 62
253
  6
CONTINUOUS
 10
-2.283756408
 20
13.2313373482
 11
-16.6374214811
 21
20.4081698848
  0
LINE
  5
2E1
100
AcDbEntity
  8
715
100
AcDbLine
 62
7
  6
CONTINUOUS
 10
11.7283223389
 20
20.2680276725
 11
11.7283223389
 21
19.9423635489
  0
LINE
  5
2E2
100
AcDbEntity
  8
218140000
100
AcDbLine
 62
7
  6
CONTINUOUS
 10
11.7666191976
 20
21.5637183515
 11
11.7666191976
 21
21.1199650556
  0
LWPOLYLINE
  5
2E3
100
AcDbEntity
  8
268
100
AcDbPolyline
 62
7
  6
CONTINUOUS
 90
7
 70
0
 10
9.2244561147
 20
-17.2160537841
 10
9.2243645067
 20
-17.2165393916
 10
9.2242253359
 20
-17.2170515393
 10
9.2240386025
 20
-17.2175902274
 10
9.2238043064
 20
-17.2181554557
 10
9.2235224476
 20
-17.2187472243
 10
9.2231930261
 20
-17.2193655332
  0
LWPOLYLINE
  5
2E4
100
AcDbEntity
  8
290
100
AcDbPolyline
 62
253
  6
CONTINUOUS
 90
16
 70
0
 10
-2.3164360068
 20
11.4729808851
 10
-2.3781404808
 20
11.4588526417
 10
-2.4450266404
 20
11.4479277656
 10
-2.5163858144
 20
11.440322008
 10
-2.5914619387
 20
11.4361159532
 10
-2.6694595677
 20
11.4353541653
 10
-2.7495523019
 20
11.4380447154
 10
-2.8308915437
 20
11.4441590968
 10
-2.9126154886
 20
11.4536325264
 10
-2.993858256
 20
11.4663646314
 10
-3.0737590635
 20
11.4822205128
 10
-3.151471347
 20
11.5010321746
 10
-3.2261717302
 20
11.5226003037
 10
-3.2970687485
 20
11.5466963818
 10
-3.3634112348
 20
11.5730651064
 10
-3.4244962778
 20
11.601427096
  0
LWPOLYLINE
  5
2E5
100
AcDbEntity
  8
218140000
100
AcDbPolyline
 62
7
  6
CONTINUOUS
 90
16
 70
0
 10
19.167782541
 20
15.8295611768
 10
19.1585283348
 20
15.8277494678
 10
19.1494489235
 20
15.8263748838
 10
19.1405443072
 20
15.8254374248
 10
19.1317989611
 20
15.8249444676
 10
19.12322841
 20
15.8248886354
 10
19.1148792278
 20
15.825247798
 10
19.1067608574
 20
15.8260310734
 10
19.0988638559
 20
15.8272293436
 10
19.0912064685
 20
15.8287931247
 10
19.0837980861
 20
15.8307264867
 10
19.0766293178
 20
15.8330253597
 10
19.0696902361
 20
15.8356280493
 10
19.0629775318
 20
15.8385139909
 10
19.056494514
 20
15.8417037491
 10
19.0502411828
 20
15.8451973239
  0
LINE
  5
2E6
100
AcDbEntity
  8
268
100
AcDbLine
 62
7
  6
CONTINUOUS
 10
2.3679661296
 20
13.5782758555
 11
2.7863630765
 21
13.369077382
  0
LINE
  5
2E7
100
AcDbEntity
  8
218140000
100
AcDbLine
 62
7
  6
CONTINUOUS
 10
13.8508405317
 20
23.7256890653
 11
13.8508405317
 21
23.3987230176
  0
LINE
  5
2E8
100
AcDbEntity
  8
268
100
AcDbLine
 62
7
  6
CONTINUOUS
 10
0.0560946383
 20
-23.7332416337
 11
0.6348849786
 21
-23.0287979035
  0
LINE
  5
2E9
100
AcDbEntity
  8
268
100
AcDbLine
 62
7
  6
CONTINUOUS
 10
-13.7952909423
 20
22.6189237619
 11
1.9731902781
 21
14.7346831517
  0
LINE
  5
2EA
100
AcDbEntity
  8
268
100
AcDbLine
 62
7
  6
CONTINUOUS
 10
1.7257029047
 20
15.1859427769
 11
-13.5478035689
 21
22.8226960137
  0
LINE
  5
2EB
100
AcDbEntity
  8
268
100
AcDbLine
 62
7
  6
CONTINUOUS
 10
2.2852175893
 20
15.620849905
 11
0.6712134733
 21
16.427851963
  0
LINE
  5
2EC
100
AcDbEntity
  8
268
100
AcDbLine
 62
7
  6
CONTINUOUS
 10
-11.0791005751
 20
22.3030089872
 11
-12.6931046911
 21
23.1100110452
  0
LINE
  5
2ED
100
AcDbEntity
  8
268
100
AcDbLine
 62
7
  6
CONTINUOUS
 10
-7.7466446943
 20
20.994113282
 11
-1.9541356263
 21
18.097858748
  0
LINE
  5
2EE
100
AcDbEntity
  8
268
100
AcDbLine
 62
7
  6
CONTINUOUS
 10
-13.3315028994
 20
23.881541125
 11
-11.7249693364
 21
23.0782743435
  0
LINE
  5
2EF
100
AcDbEntity
  8
268
100
AcDbLine
 62
7
  6
CONTINUOUS
 10
0.032815265
 20
17.1993820428
 11
1.6393488281
 21
16.3961152613
  0
LINE
  5
2F0
100
AcDbEntity
  8
268
100
AcDbLine
 62
253
  6
CONTINUOUS
 10
-13.3960976454
 20
24.0165702999
 11
-11.7903211832
 21
23.2136820688
  0
LINE
  5
2F1
100
AcDbEntity
  8
268
100
AcDbLine
 62
253
  6
CONTINUOUS
 10
-0.031779481
 20
17.3344112177
 11
1.5739969812
 21
16.5315229866
  0
LINE
  5
2F2
100
AcDbEntity
  8
268
100
AcDbLine
 62
253
  6
CONTINUOUS
 10
1.5739969812
 20
16.7848943803
 11
-0.031779481
 21
17.5877826114
  0
LINE
  5
2F3
100
AcDbEntity
  8
268
100
AcDbLine
 62
253
  6
CONTINUOUS
 10
-11.7903211832
 20
23.4670534625
 11
-13.3960976454
 21
24.2699416936
  0
LINE
  5
2F4
100
AcDbEntity
  8
268
100
AcDbLine
 62
7
  6
CONTINUOUS
 10
-10.012269663
 20
22.8415902367
 11
-7.83451266
 21
21.7527117352
  0
LINE
  5
2F5
100
AcDbEntity
  8
268
100
AcDbLine
 62
7
  6
CONTINUOUS
 10
-1.0320135419
 20
18.3514621762
 11
0.0491084092
 21
17.8109012006
  0
LINE
  5
2F6
100
AcDbEntity
  8
268
100
AcDbLine
 62
7
  6
CONTINUOUS
 10
3.3520485015
 20
16.1594311545
 11
3.4934698577
 21
16.0887204764
  0
LINE
  5
2F7
100
AcDbEntity
  8
268
100
AcDbLine
 62
7
  6
CONTINUOUS
 10
1.6628995572
 20
-24.5366440932
 11
2.2852175893
 21
-23.7915846757
  0
LINE
  5
2F8
100
AcDbEntity
  8
268
100
AcDbLine
 62
253
  6
CONTINUOUS
 10
0.7807380601
 20
-18.1832906783
 11
-0.2861239796
 21
-18.6760029228
  0
LINE
  5
2F9
100
AcDbEntity
  8
268
100
AcDbLine
 62
7
  6
CONTINUOUS
 10
0.5798844742
 20
-18.6970597349
 11
-0.322135794
 21
-19.1136425867
  0
LINE
  5
2FA
100
AcDbEntity
  8
268
100
AcDbLine
 62
7
  6
CONTINUOUS
 10
2.2852175893
 20
16.2580194637
 11
1.6628995572
 21
16.3879600462
  0
LINE
  5
2FB
100
AcDbEntity
  8
268
100
AcDbLine
 62
253
  6
CONTINUOUS
 10
1.7507677106
 20
17.0887599586
 11
0.1429463016
 21
17.8926706631
  0
LINE
  5
2FC
100
AcDbEntity
  8
268
100
AcDbLine
 62
253
  6
CONTINUOUS
 10
-11.6135504538
 20
23.7709190408
 11
-13.2213718629
 21
24.5748297453
  0
LINE
  5
2FD
100
AcDbEntity
  8
268
100
AcDbLine
 62
7
  6
CONTINUOUS
 10
-7.7466446943
 20
22.2090681481
 11
-1.9541356263
 21
19.3128136141
  0
LINE
  5
2FE
100
AcDbEntity
  8
268
100
AcDbLine
 62
7
  6
CONTINUOUS
 10
4.2005766389
 20
16.4347161778
 11
3.4008446151
 21
16.8345821897
  0
LINE
  5
2FF
100
AcDbEntity
  8
268
100
AcDbLine
 62
7
  6
CONTINUOUS
 10
-8.4809955459
 20
22.7755022702
 11
-9.9634735494
 21
23.5167412719
  0
LINE
  5
300
100
AcDbEntity
  8
268
100
AcDbLine
 62
7
  6
CONTINUOUS
 10
-7.2545532163
 20
22.6751675787
 11
-1.0320135419
 21
19.5638977415
  0
LINE
  5
301
100
AcDbEntity
  8
268
100
AcDbLine
 62
7
  6
CONTINUOUS
 10
-11.6386152597
 20
25.3868138427
 11
-10.012269663
 21
24.5736410443
  0
LINE
  5
302
100
AcDbEntity
  8
268
100
AcDbLine
 62
7
  6
CONTINUOUS
 10
1.7257029047
 20
18.7046547604
 11
3.3520485015
 21
17.8914819621
  0
LINE
  5
303
100
AcDbEntity
  8
268
100
AcDbLine
 62
7
  6
CONTINUOUS
 10
-5.9110503321
 20
22.7054845294
 11
-0.9613028638
 21
20.2306107952
  0
LINE
  5
304
100
AcDbEntity
  8
268
100
AcDbLine
 62
253
  6
CONTINUOUS
 10
-11.104165381
 20
25.6471613092
 11
-9.4840024912
 21
24.8370798643
  0
LINE
  5
305
100
AcDbEntity
  8
268
100
AcDbLine
 62
253
  6
CONTINUOUS
 10
2.2601527834
 20
18.965002227
 11
3.8803156732
 21
18.1549207821
  0
LINE
  5
306
100
AcDbEntity
  8
268
100
AcDbLine
 62
7
  6
CONTINUOUS
 10
-10.9927477657
 20
25.6534298724
 11
-9.3738701875
 21
24.8439910833
  0
LINE
  5
307
100
AcDbEntity
  8
268
100
AcDbLine
 62
7
  6
CONTINUOUS
 10
2.3715703988
 20
18.9712707902
 11
3.990447977
 21
18.1618320011
  0
LINE
  5
308
100
AcDbEntity
  8
218140000
100
AcDbLine
 62
7
  6
CONTINUOUS
 10
10.5590002708
 20
17.9187669714
 11
9.8063061869
 21
19.2169722325
  0
LINE
  5
309
100
AcDbEntity
  8
218140000
100
AcDbLine
 62
253
  6
CONTINUOUS
 10
9.6304427197
 20
21.7147637061
 11
9.2512035675
 21
22.7105166047
  0
LINE
  5
30A
100
AcDbEntity
  8
715
100
AcDbLine
 62
7
  6
CONTINUOUS
 10
10.7731080953
 20
20.14753555
 11
10.5716087374
 21
20.7432599758
  0
LINE
  5
30B
100
AcDbEntity
  8
218140000
100
AcDbLine
 62
253
  6
CONTINUOUS
 10
19.3308184815
 20
13.8411911664
 11
19.3308973164
 21
13.8322423337
  0
LWPOLYLINE
  5
30C
100
AcDbEntity
  8
218140000
100
AcDbPolyline
 62
7
  6
CONTINUOUS
 90
31
 70
0
 10
19.3308974238
 20
19.9999252582
 10
19.3306169255
 20
20.0339915141
 10
19.3294884548
 20
20.0764747698
 10
19.3275031789
 20
20.1190219926
 10
19.3246674213
 20
20.1616384136
 10
19.3209886528
 20
20.2043035425
 10
19.3164777999
 20
20.246967845
 10
19.3111428178
 20
20.2896252121
 10
19.3049909479
 20
20.3322678892
 10
19.2980367254
 20
20.3748417558
 10
19.2902887461
 20
20.4173402341
 10
19.2817545287
 20
20.4597567362
 10
19.2724524219
 20
20.5020355377
 10
19.2623919463
 20
20.5441678701
 10
19.2515807724
 20
20.5861494695
 10
19.2400391041
 20
20.627929983
 10
19.2277789854
 20
20.6694931657
 10
19.2148064095
 20
20.7108425194
 10
19.2011344739
 20
20.751956028
 10
19.1867722741
 20
20.7928239782
 10
19.1717263489
 20
20.8334428037
 10
19.1560061925
 20
20.8737983894
 10
19.1396185884
 20
20.9138836181
 10
19.1225693773
 20
20.9536915406
 10
19.10486734
 20
20.9932074139
 10
19.0865183255
 20
21.0324228832
 10
19.0675266739
 20
21.0713307366
 10
19.0478991621
 20
21.1099183
 10
19.0276401405
 20
21.1481764942
 10
19.0067528451
 20
21.1860975869
 10
18.9889299838
 20
21.2173297251
  0
LWPOLYLINE
  5
30D
100
AcDbEntity
  8
218140000
100
AcDbPolyline
 62
253
  6
CONTINUOUS
 90
37
 70
0
 10
19.0502372339
 20
19.6525977675
 10
19.0500073051
 20
19.6906000417
 10
19.0490988217
 20
19.728917593
 10
19.0475121757
 20
19.7675321619
 10
19.0452480507
 20
19.8064252589
 10
19.0423075256
 20
19.8455784442
 10
19.0386920626
 20
19.8849733402
 10
19.0344033358
 20
19.9245913048
 10
19.0294433505
 20
19.9644133541
 10
19.0238145461
 20
20.0044204437
 10
19.0175195953
 20
20.0445934673
 10
19.0105614538
 20
20.0849133529
 10
19.0029434691
 20
20.1253609901
 10
18.9946692555
 20
20.1659171298
 10
18.9857427256
 20
20.2065624622
 10
18.9761681419
 20
20.2472777115
 10
18.9659500493
 20
20.2880435344
 10
18.9550932979
 20
20.3288404975
 10
18.9436030711
 20
20.3696491574
 10
18.9314848433
 20
20.4104501013
 10
18.918744373
 20
20.4512239127
 10
18.9053877254
 20
20.4919511502
 10
18.8914212838
 20
20.5326124158
 10
18.876851687
 20
20.5731883931
 10
18.8616858231
 20
20.6136598124
 10
18.8459309325
 20
20.6540074297
 10
18.829594521
 20
20.6942120541
 10
18.8126842952
 20
20.7342545847
 10
18.795208306
 20
20.7741160464
 10
18.7771749092
 20
20.8137774214
 10
18.7585926804
 20
20.8532196779
 10
18.7394705611
 20
20.8924239582
 10
18.7198176285
 20
20.9313717403
 10
18.6996430474
 20
20.970044666
 10
18.6789563761
 20
21.0084244031
 10
18.6577675717
 20
21.0464926592
 10
18.6360867582
 20
21.0842313421
  0
LINE
  5
30E
100
AcDbEntity
  8
218140000
100
AcDbLine
 62
253
  6
CONTINUOUS
 10
19.0502372339
 20
-10.6924824783
 11
19.0502401326
 21
14.0727352583
  0
LINE
  5
30F
100
AcDbEntity
  8
218140000
100
AcDbLine
 62
253
  6
CONTINUOUS
 10
19.0502411828
 20
15.8451973239
 11
19.0502372339
 21
19.6525977675
  0
LINE
  5
310
100
AcDbEntity
  8
218140000
100
AcDbLine
 62
7
  6
CONTINUOUS
 10
19.3308974335
 20
-10.3451532931
 11
19.3308973164
 21
13.8322423337
  0
LINE
  5
311
100
AcDbEntity
  8
218140000
100
AcDbLine
 62
7
  6
CONTINUOUS
 10
19.3308974335
 20
19.9999269528
 11
19.3308972987
 21
16.7797992196
  0
LWPOLYLINE
  5
312
100
AcDbEntity
  8
218140000
100
AcDbPolyline
 62
253
  6
CONTINUOUS
 90
67
 70
0
 10
19.3308972987
 20
16.7797992196
 10
19.3308778871
 20
16.7698172193
 10
19.3305909745
 20
16.7376079239
 10
19.3299855392
 20
16.7064165769
 10
19.3290896901
 20
16.6761964586
 10
19.3279334152
 20
16.6469986071
 10
19.3265426203
 20
16.6188066048
 10
19.3249434288
 20
16.5916257504
 10
19.323161223
 20
16.5654525284
 10
19.3212171297
 20
16.5402568484
 10
19.3191381032
 20
16.5160900301
 10
19.316942348
 20
16.4929006946
 10
19.3146310899
 20
16.470504729
 10
19.3122244989
 20
16.4489365674
 10
19.3097343833
 20
16.428161174
 10
19.3071377183
 20
16.407891004
 10
19.3044438289
 20
16.388127233
 10
19.3016599565
 20
16.3688687154
 10
19.2987466777
 20
16.3498257441
 10
19.2957030011
 20
16.3309748031
 10
19.2925326376
 20
16.3123407709
 10
19.2891911926
 20
16.2937080644
 10
19.2856660537
 20
16.2750231594
 10
19.2819611761
 20
16.25634268
 10
19.2780489598
 20
16.2376175287
 10
19.2739038929
 20
16.2187615951
 10
19.2695368782
 20
16.1998655552
 10
19.2649758351
 20
16.1811454274
 10
19.2602061519
 20
16.1625691063
 10
19.2552354577
 20
16.1441724195
 10
19.2501355883
 20
16.1262713139
 10
19.2449231771
 20
16.1089240003
 10
19.2395901408
 20
16.0920728822
 10
19.234181589
 20
16.0758579511
 10
19.228716499
 20
16.0603216324
 10
19.2231905926
 20
16.0454202661
 10
19.2176178032
 20
16.0311637255
 10
19.2120005862
 20
16.0175470406
 10
19.206350467
 20
16.0045735391
 10
19.2006966636
 20
15.9922649482
 10
19.195049164
 20
15.9806324818
 10
19.1894139048
 20
15.9696621404
 10
19.1838160603
 20
15.9593370975
 10
19.1782750633
 20
15.9496781003
 10
19.1727880956
 20
15.9406607455
 10
19.1673467388
 20
15.9322004013
 10
19.1619661492
 20
15.9243029236
 10
19.1566445996
 20
15.9169592113
 10
19.1513454789
 20
15.9100630186
 10
19.1460775821
 20
15.9036089593
 10
19.1408408493
 20
15.8976003396
 10
19.1355812941
 20
15.8919453017
 10
19.1302916727
 20
15.886625642
 10
19.124982917
 20
15.8816590751
 10
19.1196250231
 20
15.8770087876
 10
19.1142075462
 20
15.8726634553
 10
19.1087423273
 20
15.8686347119
 10
19.1032317465
 20
15.8649205671
 10
19.0976846035
 20
15.861524982
 10
19.0920939981
 20
15.8584440684
 10
19.0864381175
 20
15.8556643241
 10
19.0807396374
 20
15.8531861592
 10
19.0749766926
 20
15.8510096738
 10
19.0690573226
 20
15.8491223756
 10
19.0629480458
 20
15.8475217006
 10
19.0566768187
 20
15.8462136986
 10
19.0502411828
 20
15.8452000514
  0
LWPOLYLINE
  5
313
100
AcDbEntity
  8
218140000
100
AcDbPolyline
 62
7
  6
CONTINUOUS
 90
7
 70
0
 10
19.3308974422
 20
13.8319159435
 10
19.3309618592
 20
13.8338726445
 10
19.3311907973
 20
13.836041139
 10
19.3314875756
 20
13.8376498309
 10
19.3317549205
 20
13.8386846659
 10
19.3318931546
 20
13.8391072529
 10
19.3318849661
 20
13.8390864718
  0
LINE
  5
314
100
AcDbEntity
  8
218140000
100
AcDbLine
 62
7
  6
CONTINUOUS
 10
10.5590002708
 20
-16.0484453352
 11
9.8063061869
 21
-16.5939565123
  0
LWPOLYLINE
  5
315
100
AcDbEntity
  8
268
100
AcDbPolyline
 62
7
  6
CONTINUOUS
 90
25
 70
0
 10
8.4762061376
 20
-17.6792065983
 10
8.5021225479
 20
-17.6643743817
 10
8.5286247846
 20
-17.649107405
 10
8.5557128476
 20
-17.6334056681
 10
8.5834145039
 20
-17.6172565653
 10
8.6117019866
 20
-17.6006727025
 10
8.6404919946
 20
-17.5836918965
 10
8.6697655137
 20
-17.5663253226
 10
8.699541558
 20
-17.5485618057
 10
8.7297938691
 20
-17.5304056373
 10
8.7605363034
 20
-17.5118487404
 10
8.7917550045
 20
-17.4928991921
 10
8.823382144
 20
-17.4735855157
 10
8.8554288786
 20
-17.4539008809
 10
8.8878840517
 20
-17.4338521181
 10
8.9206463651
 20
-17.4134882414
 10
8.9537311392
 20
-17.3927994021
 10
8.9871230536
 20
-17.3717954489
 10
9.020674849
 20
-17.3505549422
 10
9.0544061641
 20
-17.3290646563
 10
9.0882973601
 20
-17.3073378169
 10
9.1221422618
 20
-17.2854926611
 10
9.1558721442
 20
-17.2635686014
 10
9.1895557323
 20
-17.2415262255
 10
9.2231930261
 20
-17.2193655332
  0
LWPOLYLINE
  5
316
100
AcDbEntity
  8
218140000
100
AcDbPolyline
 62
253
  6
CONTINUOUS
 90
5
 70
0
 10
18.6360867582
 20
-11.7099655773
 10
18.6545223743
 20
-11.6998347561
 10
18.6725806532
 20
-11.6891024567
 10
18.6902487552
 20
-11.6777763099
 10
18.7075141179
 20
-11.665864369
  0
LWPOLYLINE
  5
317
100
AcDbEntity
  8
218140000
100
AcDbPolyline
 62
7
  6
CONTINUOUS
 90
7
 70
0
 10
18.2931891822
 20
-11.9584788369
 10
18.3084971552
 20
-11.950101691
 10
18.3236272963
 20
-11.9412616673
 10
18.3385722949
 20
-11.9319649998
 10
18.353323622
 20
-11.9222177202
 10
18.3678754463
 20
-11.9120267096
 10
18.3694693293
 20
-11.9108749521
  0
LWPOLYLINE
  5
318
100
AcDbEntity
  8
268
100
AcDbPolyline
 62
7
  6
CONTINUOUS
 90
3
 70
0
 10
8.4762061376
 20
-17.6792065983
 10
8.4416216605
 20
-17.6980822959
 10
8.4257847548
 20
-17.7061832143
  0
LWPOLYLINE
  5
319
100
AcDbEntity
  8
218140000
100
AcDbPolyline
 62
253
  6
CONTINUOUS
 90
29
 70
0
 10
19.0502372339
 20
-10.6924824783
 10
19.0688359262
 20
-10.6825872796
 10
19.0868903363
 20
-10.6724431994
 10
19.1043871478
 20
-10.6620577195
 10
19.1213134557
 20
-10.6514385
 10
19.1376567754
 20
-10.6405933734
 10
19.1534050527
 20
-10.6295303388
 10
19.1685466721
 20
-10.6182575558
 10
19.1830704655
 20
-10.6067833389
 10
19.1969657207
 20
-10.5951161513
 10
19.2102221889
 20
-10.5832645983
 10
19.2228300924
 20
-10.5712374212
 10
19.2347801322
 20
-10.559043491
 10
19.2460634941
 20
-10.5466918016
 10
19.2566718559
 20
-10.5341914632
 10
19.2665973931
 20
-10.5215516956
 10
19.275832785
 20
-10.5087818217
 10
19.2843712199
 20
-10.4958912601
 10
19.2922063999
 20
-10.4828895185
 10
19.2993325462
 20
-10.4697861866
 10
19.3057444026
 20
-10.4565909292
 10
19.31143724
 20
-10.4433134785
 10
19.3164068595
 20
-10.4299636277
 10
19.3206495956
 20
-10.4165512232
 10
19.324162319
 20
-10.4030861577
 10
19.3269424389
 20
-10.3895783626
 10
19.3289879047
 20
-10.3760378008
 10
19.3302972078
 20
-10.3624744595
 10
19.3308693823
 20
-10.3488983426
  0
LINE
  5
31A
100
AcDbEntity
  8
218140000
100
AcDbLine
 62
7
  6
CONTINUOUS
 10
18.2931891822
 20
-11.9584788369
 11
10.5590002708
 21
-16.0484453352
  0
LINE
  5
31B
100
AcDbEntity
  8
218140000
100
AcDbLine
 62
7
  6
CONTINUOUS
 10
4.4480640123
 20
-19.4274832382
 11
9.8063061869
 21
-16.5939565123
  0
LINE
  5
31C
100
AcDbEntity
  8
218140000
100
AcDbLine
 62
253
  6
CONTINUOUS
 10
4.4480640123
 20
-18.3845791687
 11
19.0502372339
 21
-10.6924824783
  0
LINE
  5
31D
100
AcDbEntity
  8
218140000
100
AcDbLine
 62
253
  6
CONTINUOUS
 10
4.4480640123
 20
-19.1838971046
 11
18.6360867582
 21
-11.7099655773
  0
LINE
  5
31E
100
AcDbEntity
  8
268
100
AcDbLine
 62
253
  6
CONTINUOUS
 10
4.4480640123
 20
-19.7011097819
 11
8.4762061376
 21
-17.6792065983
  0
LINE
  5
31F
100
AcDbEntity
  8
268
100
AcDbLine
 62
7
  6
CONTINUOUS
 10
4.4480640123
 20
-19.7027778627
 11
8.4258270833
 21
-17.7061621608
  0
LINE
  5
320
100
AcDbEntity
  8
268
100
AcDbLine
 62
253
  6
CONTINUOUS
 10
4.4480640123
 20
-19.4633047512
 11
9.1403045471
 21
-17.1359188542
  0
LINE
  5
321
100
AcDbEntity
  8
268
100
AcDbLine
 62
253
  6
CONTINUOUS
 10
4.4480640123
 20
-19.5851794789
 11
9.2244561147
 21
-17.2160537841
  0
LINE
  5
322
100
AcDbEntity
  8
268
100
AcDbLine
 62
7
  6
CONTINUOUS
 10
-11.0791005751
 20
22.9401785459
 11
-11.7014186072
 21
23.0701191284
  0
LWPOLYLINE
  5
323
100
AcDbEntity
  8
218140000
100
AcDbPolyline
 62
7
  6
CONTINUOUS
 90
51
 70
0
 10
-1.0199794929
 20
22.2512801487
 10
-1.0305506616
 20
22.2554323942
 10
-1.0535120348
 20
22.2640470289
 10
-1.0767826368
 20
22.2722398684
 10
-1.1003486116
 20
22.2800158581
 10
-1.1242039711
 20
22.2873814625
 10
-1.1483307171
 20
22.2943384709
 10
-1.1727109655
 20
22.3008890201
 10
-1.1973381401
 20
22.3070375866
 10
-1.2221943555
 20
22.3127852343
 10
-1.2472622737
 20
22.3181334081
 10
-1.2725354065
 20
22.3230852176
 10
-1.2979964009
 20
22.3276413037
 10
-1.3236277309
 20
22.3318024586
 10
-1.3494219721
 20
22.3355705922
 10
-1.3753615762
 20
22.3389460187
 10
-1.4014294126
 20
22.3419291952
 10
-1.4276180983
 20
22.3445212515
 10
-1.4539100706
 20
22.3467223017
 10
-1.4802883513
 20
22.3485325071
 10
-1.5067460266
 20
22.3499523605
 10
-1.5332658719
 20
22.3509818128
 10
-1.5598306342
 20
22.3516207284
 10
-1.5864331564
 20
22.351868973
 10
-1.6130562548
 20
22.3517263211
 10
-1.639682576
 20
22.3511924041
 10
-1.6663047365
 20
22.3502665139
 10
-1.6929056104
 20
22.3489482235
 10
-1.7194675944
 20
22.3472369436
 10
-1.7459828622
 20
22.3451314135
 10
-1.7724341147
 20
22.3426309782
 10
-1.7988035966
 20
22.3397348165
 10
-1.8250833131
 20
22.3364410599
 10
-1.8512572479
 20
22.3327485291
 10
-1.8773058726
 20
22.3286562989
 10
-1.9032167639
 20
22.324162551
 10
-1.9289734817
 20
22.3192658596
 10
-1.9545565531
 20
22.3139651517
 10
-1.9799502713
 20
22.3082588696
 10
-2.005136738
 20
22.3021456427
 10
-2.0300978155
 20
22.2956239944
 10
-2.0548190351
 20
22.2886916011
 10
-2.0792825023
 20
22.2813465609
 10
-2.1034699073
 20
22.2735870056
 10
-2.1273677643
 20
22.2654094491
 10
-2.150957234
 20
22.2568114673
 10
-2.1742206964
 20
22.2477900646
 10
-2.1971482228
 20
22.2383386904
 10
-2.219724515
 20
22.2284517413
 10
-2.2419262305
 20
22.2181270897
 10
-2.257505332
 20
22.2105015627
  0
LWPOLYLINE
  5
324
100
AcDbEntity
  8
218140000
100
AcDbPolyline
 62
7
  6
CONTINUOUS
 90
3
 70
0
 10
-1.0148488126
 20
22.2489796964
 10
-1.0171434949
 20
22.2500729253
 10
-1.0199794929
 20
22.2512801487
  0
LINE
  5
325
100
AcDbEntity
  8
218140000
100
AcDbLine
 62
7
  6
CONTINUOUS
 10
0.3528591165
 20
20.8783279118
 11
-2.2340950699
 21
22.171805005
  0
LINE
  5
326
100
AcDbEntity
  8
218140000
100
AcDbLine
 62
253
  6
CONTINUOUS
 10
0.9938223113
 20
21.1942424175
 11
-1.0990899196
 21
22.240698533
  0
LINE
  5
327
100
AcDbEntity
  8
218140000
100
AcDbLine
 62
7
  6
CONTINUOUS
 10
1.0445857359
 20
21.2192624222
 11
-1.014841047
 21
22.2489758136
  0
LINE
  5
328
100
AcDbEntity
  8
268
100
AcDbLine
 62
7
  6
CONTINUOUS
 10
1.556372881
 20
21.4715093285
 11
-1.2441455763
 21
22.8717685571
  0
LINE
  5
329
100
AcDbEntity
  8
268
100
AcDbLine
 62
7
  6
CONTINUOUS
 10
-1.5976989669
 20
23.6011034417
 11
-1.2441455763
 21
23.4243267464
  0
LWPOLYLINE
  5
32A
100
AcDbEntity
  8
218140000
100
AcDbPolyline
 62
7
  6
CONTINUOUS
 90
56
 70
0
 10
8.4718652396
 20
21.0609087755
 10
8.4642013133
 20
21.0720252843
 10
8.4434032531
 20
21.1036170878
 10
8.4239155636
 20
21.1354096868
 10
8.4057623691
 20
21.1673636414
 10
8.3889452983
 20
21.1994787096
 10
8.3734627225
 20
21.2317551334
 10
8.3593338795
 20
21.2641541993
 10
8.3465599278
 20
21.2966783859
 10
8.335139709
 20
21.3293252147
 10
8.3250889855
 20
21.3620485365
 10
8.3164103112
 20
21.3948446705
 10
8.3091011323
 20
21.4277172976
 10
8.3031695496
 20
21.4606313104
 10
8.2986167484
 20
21.49359193
 10
8.2954415435
 20
21.5265939354
 10
8.2936484798
 20
21.5595865567
 10
8.293239542
 20
21.5925634172
 10
8.2942127454
 20
21.6255308936
 10
8.2965666799
 20
21.6584573459
 10
8.3003036662
 20
21.6913496856
 10
8.3054213836
 20
21.7242010012
 10
8.3119114611
 20
21.7569589181
 10
8.3197739442
 20
21.7896156095
 10
8.3290087873
 20
21.8221789021
 10
8.3396074828
 20
21.8546199022
 10
8.3515744018
 20
21.8869462366
 10
8.3649051731
 20
21.9191502784
 10
8.3795781761
 20
21.9511802524
 10
8.3955911295
 20
21.9830281621
 10
8.4129463146
 20
22.014702004
 10
8.4316289542
 20
22.0461739931
 10
8.4516455819
 20
22.0774515954
 10
8.4729896642
 20
22.1085273449
 10
8.4956268231
 20
22.1393510579
 10
8.5195532738
 20
22.1699153734
 10
8.5447728012
 20
22.2002276523
 10
8.5712623819
 20
22.2302597941
 10
8.5990296762
 20
22.2600181502
 10
8.6280670238
 20
22.2894963691
 10
8.6583284201
 20
22.3186472956
 10
8.6898097022
 20
22.3474647382
 10
8.722515033
 20
22.3759548884
 10
8.7564108958
 20
22.4040891654
 10
8.7915042374
 20
22.4318717661
 10
8.827788111
 20
22.4592984937
 10
8.8652081599
 20
22.4863281772
 10
8.9037610638
 20
22.5129566448
 10
8.943450143
 20
22.5391880684
 10
8.9842310009
 20
22.5649937919
 10
9.0261092515
 20
22.5903759121
 10
9.0690792808
 20
22.6153323322
 10
9.1130798509
 20
22.6398281062
 10
9.158090549
 20
22.6638515852
 10
9.2041317879
 20
22.6874144181
 10
9.2512035675
 20
22.7105166047
  0
LWPOLYLINE
  5
32B
100
AcDbEntity
  8
268
100
AcDbPolyline
 62
7
  6
CONTINUOUS
 90
20
 70
0
 10
9.2224761074
 20
19.7250323428
 10
9.2210759557
 20
19.7271634076
 10
9.2193295294
 20
19.729471855
 10
9.2172479196
 20
19.7319614941
 10
9.2148429551
 20
19.7346389369
 10
9.2121228632
 20
19.7374741529
 10
9.209097932
 20
19.7404706792
 10
9.2057794306
 20
19.7436337574
 10
9.2021752737
 20
19.7469357498
 10
9.1982954168
 20
19.7503797326
 10
9.1941507453
 20
19.753969977
 10
9.1897495126
 20
19.7576804765
 10
9.1851011741
 20
19.7615140684
 10
9.1802167202
 20
19.765473942
 10
9.1751063318
 20
19.7695343624
 10
9.1697794567
 20
19.7736975776
 10
9.1642472534
 20
19.777965949
 10
9.1585227822
 20
19.7823134485
 10
9.1526175988
 20
19.7867323307
 10
9.1403045471
 20
19.7958174203
  0
LWPOLYLINE
  5
32C
100
AcDbEntity
  8
218140000
100
AcDbPolyline
 62
253
  6
CONTINUOUS
 90
34
 70
0
 10
18.6996430474
 20
-11.6587196049
 10
18.7198176285
 20
-11.640039973
 10
18.7394705611
 20
-11.6205760468
 10
18.7585926804
 20
-11.6003369429
 10
18.7771749092
 20
-11.5793322403
 10
18.795208306
 20
-11.5575720084
 10
18.8126842952
 20
-11.535066638
 10
18.829594521
 20
-11.5118268857
 10
18.8459309325
 20
-11.4878637971
 10
18.8616858231
 20
-11.4631887222
 10
18.876851687
 20
-11.437813407
 10
18.8914212838
 20
-11.4117499388
 10
18.9053877254
 20
-11.3850106721
 10
18.918744373
 20
-11.3576083082
 10
18.9314848433
 20
-11.3295559105
 10
18.9436030711
 20
-11.3008668462
 10
18.9550932979
 20
-11.2715547612
 10
18.9659500493
 20
-11.2416336061
 10
18.9761681419
 20
-11.2111176498
 10
18.9857427256
 20
-11.180021427
 10
18.9946692555
 20
-11.1483597121
 10
19.0029434691
 20
-11.1161475458
 10
19.0105614538
 20
-11.0834002414
 10
19.0175195953
 20
-11.0501333729
 10
19.0238145461
 20
-11.0163627475
 10
19.0294433505
 20
-10.9821043604
 10
19.0344033358
 20
-10.94737455
 10
19.0386920626
 20
-10.9121899872
 10
19.0423075256
 20
-10.8765674969
 10
19.0452480507
 20
-10.8405239133
 10
19.0475121757
 20
-10.8040762287
 10
19.0490988217
 20
-10.7672417111
 10
19.0500073051
 20
-10.7300379035
 10
19.0502372339
 20
-10.6924824783
  0
LWPOLYLINE
  5
32D
100
AcDbEntity
  8
218140000
100
AcDbPolyline
 62
253
  6
CONTINUOUS
 90
4
 70
0
 10
18.6360867582
 20
-11.7099655773
 10
18.6577675717
 20
-11.6936907878
 10
18.6789563761
 20
-11.6766060759
 10
18.6996430474
 20
-11.6587196049
  0
LWPOLYLINE
  5
32E
100
AcDbEntity
  8
218140000
100
AcDbPolyline
 62
7
  6
CONTINUOUS
 90
40
 70
0
 10
18.7106563908
 20
-11.6636019517
 10
18.738798181
 20
-11.642657623
 10
18.7664529414
 20
-11.6209673826
 10
18.7936347749
 20
-11.5985148379
 10
18.8203238981
 20
-11.5753088223
 10
18.8464983536
 20
-11.551361123
 10
18.8721570279
 20
-11.5266648381
 10
18.8972809944
 20
-11.5012289645
 10
18.9218493302
 20
-11.4750654459
 10
18.9458568926
 20
-11.4481695632
 10
18.9692848144
 20
-11.4205514182
 10
18.9921130532
 20
-11.3922235783
 10
19.0143340067
 20
-11.3631832198
 10
19.0359286909
 20
-11.3334418295
 10
19.0568788993
 20
-11.3030115649
 10
19.0771775664
 20
-11.2718882373
 10
19.0968058074
 20
-11.2400846724
 10
19.1157469393
 20
-11.2076118726
 10
19.1339961903
 20
-11.1744600111
 10
19.1515322529
 20
-11.1406476458
 10
19.1683418929
 20
-11.106179435
 10
19.184429502
 20
-11.0710205718
 10
19.1997829376
 20
-11.0351643316
 10
19.2143756609
 20
-10.9986373642
 10
19.2281891906
 20
-10.9614514561
 10
19.2412098539
 20
-10.9236058476
 10
19.2534163709
 20
-10.8851215008
 10
19.2647831378
 20
-10.8460414541
 10
19.2752965654
 20
-10.8063761122
 10
19.2849429813
 20
-10.7661359395
 10
19.2937027775
 20
-10.7253630955
 10
19.3015657277
 20
-10.6840655014
 10
19.3085205272
 20
-10.6422550962
 10
19.3145518192
 20
-10.5999791775
 10
19.3196516255
 20
-10.5572470375
 10
19.3238115456
 20
-10.5140682578
 10
19.3270210153
 20
-10.4704891323
 10
19.3292732755
 20
-10.4265300773
 10
19.3305629143
 20
-10.3821886921
 10
19.3308974238
 20
-10.3451544192
  0
LINE
  5
32F
100
AcDbEntity
  8
218140000
100
AcDbLine
 62
253
  6
CONTINUOUS
 10
18.2931891822
 20
-11.9584788369
 11
18.6360867582
 21
-11.7099655773
  0
LINE
  5
330
100
AcDbEntity
  8
218140000
100
AcDbLine
 62
7
  6
CONTINUOUS
 10
18.3695384784
 20
-11.9108254246
 11
18.7106543523
 21
-11.6636034445
  0
LINE
  5
331
100
AcDbEntity
  8
268
100
AcDbLine
 62
7
  6
CONTINUOUS
 10
2.7863630765
 20
-22.8415634844
 11
1.9731902781
 21
-23.3704346148
  0
LINE
  5
332
100
AcDbEntity
  8
268
100
AcDbLine
 62
253
  6
CONTINUOUS
 10
3.7409572311
 20
-22.5298408666
 11
4.4480640123
 21
-22.1687297868
  0
LINE
  5
333
100
AcDbEntity
  8
268
100
AcDbLine
 62
7
  6
CONTINUOUS
 10
3.650993263
 20
-22.7186509432
 11
4.3581000452
 21
-22.3575398629
  0
LINE
  5
334
100
AcDbEntity
  8
268
100
AcDbLine
 62
7
  6
CONTINUOUS
 10
3.650988457
 20
-22.7186533981
 11
3.6489808601
 21
-22.7196571055
  0
LINE
  5
335
100
AcDbEntity
  8
268
100
AcDbLine
 62
253
  6
CONTINUOUS
 10
1.9731902781
 20
-23.3948301201
 11
3.7409572311
 21
-22.5298408666
  0
LINE
  5
336
100
AcDbEntity
  8
268
100
AcDbLine
 62
7
  6
CONTINUOUS
 10
1.8812093592
 20
-23.5846485844
 11
3.6489763135
 21
-22.7196593302
  0
LWPOLYLINE
  5
337
100
AcDbEntity
  8
290
100
AcDbPolyline
 62
253
  6
CONTINUOUS
 90
16
 70
0
 10
-5.309487461
 20
-24.9005829468
 10
-5.3720144942
 20
-24.9247114029
 10
-5.4397143582
 20
-24.9455305533
 10
-5.51186977
 20
-24.9628198181
 10
-5.58771624
 20
-24.9763960169
 10
-5.6664501717
 20
-24.9861153093
 10
-5.7472373758
 20
-24.9918747189
 10
-5.8292219083
 20
-24.9936132245
 10
-5.9115351398
 20
-24.9913124068
 10
-5.993304958
 20
-24.9849966428
 10
-6.0736650082
 20
-24.9747328483
 10
-6.1517638724
 20
-24.9606297689
 10
-6.2267740898
 20
-24.9428368272
 10
-6.297900924
 20
-24.9215425404
 10
-6.3643907831
 20
-24.8969725222
 10
-6.4255392042
 20
-24.8693870932
  0
LWPOLYLINE
  5
338
100
AcDbEntity
  8
218140000
100
AcDbPolyline
 62
7
  6
CONTINUOUS
 90
14
 70
0
 10
4.7125177942
 20
22.1416979504
 10
4.7001073407
 20
22.1423990184
 10
4.6790803831
 20
22.1438062701
 10
4.6582013963
 20
22.1454222114
 10
4.6375086325
 20
22.1472410366
 10
4.6170205229
 20
22.1492579892
 10
4.5967553088
 20
22.1514679145
 10
4.5767499388
 20
22.1538627079
 10
4.5570210912
 20
22.1564358278
 10
4.5375855779
 20
22.1591805038
 10
4.5184791779
 20
22.1620864031
 10
4.4997164934
 20
22.1651453686
 10
4.4813122888
 20
22.1683490588
 10
4.4688965817
 20
22.1706485932
  0
LWPOLYLINE
  5
339
100
AcDbEntity
  8
268
100
AcDbPolyline
 62
7
  6
CONTINUOUS
 90
13
 70
0
 10
8.4762061376
 20
20.8090500499
 10
8.4415553276
 20
20.815479731
 10
8.4063511046
 20
20.8208628838
 10
8.3706312527
 20
20.8252250247
 10
8.3344059358
 20
20.8286189478
 10
8.2977381977
 20
20.8310486975
 10
8.2607419878
 20
20.8324599267
 10
8.2234549528
 20
20.8328700616
 10
8.185903971
 20
20.8323061801
 10
8.1481832701
 20
20.8307141919
 10
8.1103438953
 20
20.8280851009
 10
8.0723947091
 20
20.8244631197
 10
8.0343652697
 20
20.8198683302
  0
LINE
  5
33A
100
AcDbEntity
  8
715
100
AcDbLine
 62
7
  6
CONTINUOUS
 10
11.7283223389
 20
20.2680276725
 11
11.2785776775
 21
20.3897755057
  0
LWPOLYLINE
  5
33B
100
AcDbEntity
  8
218140000
100
AcDbPolyline
 62
7
  6
CONTINUOUS
 90
19
 70
0
 10
-1.0208648264
 20
22.2516258181
 10
-1.0246806564
 20
22.2529541156
 10
-1.0285860662
 20
22.2540561161
 10
-1.0325766714
 20
22.2549307173
 10
-1.036647279
 20
22.2555767406
 10
-1.0407926429
 20
22.2559933064
 10
-1.045008145
 20
22.2561801743
 10
-1.049288304
 20
22.2561369944
 10
-1.0536276048
 20
22.2558637165
 10
-1.0580212537
 20
22.2553609646
 10
-1.0624635418
 20
22.2546292195
 10
-1.0669487459
 20
22.2536692589
 10
-1.0714719585
 20
22.2524825637
 10
-1.0760273058
 20
22.2510704378
 10
-1.080608919
 20
22.2494344764
 10
-1.0852118376
 20
22.247577
 10
-1.0898304307
 20
22.2455002831
 10
-1.0944584043
 20
22.2432065545
 10
-1.0990897736
 20
22.24069846
  0
LWPOLYLINE
  5
33C
100
AcDbEntity
  8
268
100
AcDbPolyline
 62
7
  6
CONTINUOUS
 90
10
 70
0
 10
8.7225212372
 20
20.721672578
 10
8.699541558
 20
20.7328640102
 10
8.6697655137
 20
20.746440452
 10
8.6404919946
 20
20.7588260687
 10
8.6117019866
 20
20.7700278652
 10
8.5834145039
 20
20.7800388368
 10
8.5557128476
 20
20.7889385812
 10
8.5286247846
 20
20.7967536312
 10
8.5021225479
 20
20.8034574541
 10
8.4762061376
 20
20.8090500499
  0
LINE
  5
33D
100
AcDbEntity
  8
268
100
AcDbLine
 62
7
  6
CONTINUOUS
 10
2.9641885772
 20
22.1653859869
 11
0.1536389303
 21
23.5706608104
  0
LINE
  5
33E
100
AcDbEntity
  8
218140000
100
AcDbLine
 62
7
  6
CONTINUOUS
 10
9.0185175392
 20
19.6108665563
 11
9.8063061869
 21
19.2169722325
  0
LINE
  5
33F
100
AcDbEntity
  8
268
100
AcDbLine
 62
7
  6
CONTINUOUS
 10
1.5135708704
 20
23.6444089978
 11
3.7233117585
 21
22.5395385537
  0
LINE
  5
340
100
AcDbEntity
  8
268
100
AcDbLine
 62
7
  6
CONTINUOUS
 10
4.4688965817
 20
22.1667461422
 11
4.6147099917
 21
22.0938394371
  0
LINE
  5
341
100
AcDbEntity
  8
268
100
AcDbLine
 62
7
  6
CONTINUOUS
 10
-1.3538868753
 20
25.3413815504
 11
-1.1734348981
 21
25.2511555618
  0
LINE
  5
342
100
AcDbEntity
  8
268
100
AcDbLine
 62
7
  6
CONTINUOUS
 10
4.2005766389
 20
22.5641497933
 11
4.381028616
 21
22.4739238047
  0
LINE
  5
343
100
AcDbEntity
  8
268
100
AcDbLine
 62
253
  6
CONTINUOUS
 10
-2.1664552193
 20
25.9202785747
 11
0.8126346816
 21
24.4307336243
  0
LINE
  5
344
100
AcDbEntity
  8
268
100
AcDbLine
 62
253
  6
CONTINUOUS
 10
5.0552753687
 20
22.3094132807
 11
8.0343652697
 21
20.8198683302
  0
LINE
  5
345
100
AcDbEntity
  8
268
100
AcDbLine
 62
7
  6
CONTINUOUS
 10
5.4963183718
 20
22.3347627473
 11
8.722808264
 21
20.7215178012
  0
LWPOLYLINE
  5
346
100
AcDbEntity
  8
218140000
100
AcDbPolyline
 62
253
  6
CONTINUOUS
 90
14
 70
0
 10
5.8484059627
 20
22.2055983822
 10
5.8292640266
 20
22.2151686252
 10
5.8101272534
 20
22.2240696269
 10
5.7910101696
 20
22.2322946307
 10
5.7719272868
 20
22.239837393
 10
5.7528930908
 20
22.2466921883
 10
5.7339220302
 20
22.252853813
 10
5.7150285058
 20
22.25831759
 10
5.6962268595
 20
22.2630793718
 10
5.6775313635
 20
22.2671355437
 10
5.6589562093
 20
22.2704830268
 10
5.6405154974
 20
22.2731192801
 10
5.6222232257
 20
22.2750423023
 10
5.6147651205
 20
22.275539373
  0
LINE
  5
347
100
AcDbEntity
  8
715
100
AcDbLine
 62
7
  6
CONTINUOUS
 10
10.7836029307
 20
20.1422881323
 11
10.9617823601
 21
19.9777364415
  0
LWPOLYLINE
  5
348
100
AcDbEntity
  8
268
100
AcDbPolyline
 62
7
  6
CONTINUOUS
 90
17
 70
0
 10
9.2231930261
 20
20.3277901663
 10
9.1895557323
 20
20.3638523168
 10
9.1558721442
 20
20.3984909765
 10
9.1221422618
 20
20.4317061452
 10
9.0882973601
 20
20.4635134492
 10
9.0544061641
 20
20.4938972623
 10
9.020674849
 20
20.5228107064
 10
8.9871230536
 20
20.5502298818
 10
8.9537311392
 20
20.5761786881
 10
8.9206463651
 20
20.6006819466
 10
8.8878840517
 20
20.6237256535
 10
8.8554288786
 20
20.6453238125
 10
8.823382144
 20
20.6655432566
 10
8.7917550045
 20
20.6843771706
 10
8.7605363034
 20
20.7018323695
 10
8.7297938691
 20
20.717996131
 10
8.7225212372
 20
20.721672578
  0
LINE
  5
349
100
AcDbEntity
  8
268
100
AcDbLine
 62
7
  6
CONTINUOUS
 10
3.3520485015
 20
-24.3705577426
 11
3.8803156732
 21
-24.099546684
  0
LINE
  5
34A
100
AcDbEntity
  8
268
100
AcDbLine
 62
7
  6
CONTINUOUS
 10
1.7507677106
 20
-25.1505923423
 11
3.3520485015
 21
-24.3705577426
  0
LINE
  5
34B
100
AcDbEntity
  8
290
100
AcDbLine
 62
253
  6
CONTINUOUS
 10
-4.8668662292
 20
-25.3153192875
 11
-0.7243300158
 21
-24.0013758658
  0
LINE
  5
34C
100
AcDbEntity
  8
290
100
AcDbLine
 62
7
  6
CONTINUOUS
 10
-1.0274283089
 20
-24.4738846019
 11
-5.1762146762
 21
-25.7898101212
  0
LINE
  5
34D
100
AcDbEntity
  8
268
100
AcDbLine
 62
7
  6
CONTINUOUS
 10
0.1536389303
 20
23.5706608104
 11
1.5135708704
 21
23.6444089978
  0
LWPOLYLINE
  5
34E
100
AcDbEntity
  8
715
100
AcDbPolyline
 62
7
  6
CONTINUOUS
 90
9
 70
0
 10
13.1213851376
 20
20.9348749023
 10
13.115268397
 20
20.9364744
 10
13.1054981833
 20
20.9380072139
 10
13.0951719878
 20
20.9384226582
 10
13.0843847907
 20
20.9377208857
 10
13.0734215318
 20
20.9359023544
 10
13.062377191
 20
20.9329672169
 10
13.0511567886
 20
20.9289153205
 10
13.0397603243
 20
20.9237466653
  0
LWPOLYLINE
  5
34F
100
AcDbEntity
  8
715
100
AcDbPolyline
 62
7
  6
CONTINUOUS
 90
28
 70
0
 10
13.1213750014
 20
20.9348509498
 10
13.0126596548
 20
20.9661367956
 10
12.8978046118
 20
20.9954904726
 10
12.7805431879
 20
21.0218175428
 10
12.6611700231
 20
21.0450796345
 10
12.5399496514
 20
21.0652501874
 10
12.4171202819
 20
21.0823094627
 10
12.2929714845
 20
21.0962333042
 10
12.1677880215
 20
21.1070039732
 10
12.041807504
 20
21.1146113729
 10
11.9153211178
 20
21.1190447516
 10
11.7886183949
 20
21.1202993063
 10
11.6619366494
 20
21.1183745332
 10
11.5355653797
 20
21.1132731982
 10
11.4097957891
 20
21.1050039861
 10
11.2848661897
 20
21.0935761106
 10
11.1610673151
 20
21.0790062784
 10
11.0386825627
 20
21.0613162568
 10
10.9179341266
 20
21.0405220814
 10
10.7990992054
 20
21.0166504814
 10
10.682463382
 20
20.9897354296
 10
10.568251809
 20
20.9598006623
 10
10.4567366308
 20
20.9268835584
 10
10.3481904344
 20
20.8910269236
 10
10.2428235428
 20
20.852255306
 10
10.1408767604
 20
20.8106024977
 10
10.0426306229
 20
20.7661217231
 10
9.9483465618
 20
20.7188643337
  0
LWPOLYLINE
  5
350
100
AcDbEntity
  8
715
100
AcDbPolyline
 62
7
  6
CONTINUOUS
 90
3
 70
0
 10
13.1334258193
 20
20.9300571217
 10
13.124577609
 20
20.9338243692
 10
13.1213851376
 20
20.9348749023
  0
LWPOLYLINE
  5
351
100
AcDbEntity
  8
268
100
AcDbPolyline
 62
7
  6
CONTINUOUS
 90
18
 70
0
 10
1.2536873987
 20
24.4560672711
 10
1.2341253144
 20
24.4651570042
 10
1.2112295342
 20
24.4741424189
 10
1.1877202479
 20
24.4816446516
 10
1.1635789258
 20
24.4876788215
 10
1.1388891724
 20
24.4922246059
 10
1.1136277462
 20
24.4952785893
 10
1.0878178887
 20
24.4968441873
 10
1.0616129298
 20
24.4969113238
 10
1.0350289672
 20
24.4954725479
 10
1.0080499032
 20
24.4925353105
 10
0.9807807746
 20
24.4881118893
 10
0.9532065949
 20
24.4821935036
 10
0.9253423507
 20
24.4747889341
 10
0.8973380376
 20
24.4659367995
 10
0.8692436544
 20
24.4556499728
 10
0.8410092024
 20
24.443915581
 10
0.8126346816
 20
24.4307336243
  0
LINE
  5
352
100
AcDbEntity
  8
715
100
AcDbLine
 62
7
  6
CONTINUOUS
 10
10.7836029307
 20
20.1422881323
 11
10.0766339905
 21
20.4957726023
  0
LINE
  5
353
100
AcDbEntity
  8
715
100
AcDbLine
 62
7
  6
CONTINUOUS
 10
11.2785776775
 20
20.3897755057
 11
10.5716087374
 21
20.7432599758
  0
LINE
  5
354
100
AcDbEntity
  8
218140000
100
AcDbLine
 62
7
  6
CONTINUOUS
 10
9.8787997143
 20
21.4062853409
 11
10.311113965
 21
21.1901282155
  0
LINE
  5
355
100
AcDbEntity
  8
715
100
AcDbLine
 62
7
  6
CONTINUOUS
 10
13.9819539568
 20
20.5057930529
 11
14.0641439894
 21
20.4646666871
  0
LWPOLYLINE
  5
356
100
AcDbEntity
  8
715
100
AcDbPolyline
 62
7
  6
CONTINUOUS
 90
10
 70
0
 10
13.9440098895
 20
20.5184607079
 10
13.8465328358
 20
20.5685161396
 10
13.750919634
 20
20.6174920152
 10
13.657170284
 20
20.6653883348
 10
13.5652992027
 20
20.7122065226
 10
13.4752919733
 20
20.7579451543
 10
13.3871053453
 20
20.8025999574
 10
13.3007249019
 20
20.8461695075
 10
13.2161650599
 20
20.8886552289
 10
13.1334258193
 20
20.9300571217
  0
LINE
  5
357
100
AcDbEntity
  8
715
100
AcDbLine
 62
7
  6
CONTINUOUS
 10
13.9517683182
 20
20.5138742358
 11
13.9440098895
 21
20.5184607079
  0
LWPOLYLINE
  5
358
100
AcDbEntity
  8
715
100
AcDbPolyline
 62
253
  6
CONTINUOUS
 90
4
 70
0
 10
13.9819539568
 20
20.5057930529
 10
14.0064769471
 20
20.4852886745
 10
14.0308427088
 20
20.4640104101
 10
14.04178467
 20
20.4540088739
  0
LWPOLYLINE
  5
359
100
AcDbEntity
  8
715
100
AcDbPolyline
 62
253
  6
CONTINUOUS
 90
5
 70
0
 10
13.8883173576
 20
20.4994970445
 10
13.911177787
 20
20.479918311
 10
13.9337553253
 20
20.4595652645
 10
13.9560499725
 20
20.4384379049
 10
13.9732943268
 20
20.4213622054
  0
LWPOLYLINE
  5
35A
100
AcDbEntity
  8
218140000
100
AcDbPolyline
 62
253
  6
CONTINUOUS
 90
67
 70
0
 10
19.3308974335
 20
17.4813005862
 10
19.3343828499
 20
17.4705083602
 10
19.3474541784
 20
17.4266037587
 10
19.3596458739
 20
17.3818613698
 10
19.3709547242
 20
17.3361726697
 10
19.381362428
 20
17.2896466391
 10
19.3907504436
 20
17.2428432477
 10
19.3991108528
 20
17.1956184571
 10
19.4064545394
 20
17.1481335709
 10
19.412725958
 20
17.1014280261
 10
19.4179020324
 20
17.055653535
 10
19.4220571808
 20
17.0106995827
 10
19.425315385
 20
16.967230243
 10
19.4276949435
 20
16.9255343754
 10
19.4292500149
 20
16.8853673585
 10
19.4301641529
 20
16.8465954985
 10
19.4304803443
 20
16.8092743181
 10
19.4302108486
 20
16.7733779461
 10
19.4294822095
 20
16.738645488
 10
19.4283253422
 20
16.7050504397
 10
19.4267489038
 20
16.6726383653
 10
19.4248368875
 20
16.6412526369
 10
19.4226064941
 20
16.6108488089
 10
19.4200710917
 20
16.5814844581
 10
19.417304669
 20
16.5531543169
 10
19.4143254288
 20
16.5258826933
 10
19.4111423726
 20
16.4996555003
 10
19.40781325
 20
16.4744090134
 10
19.4043627879
 20
16.4502057809
 10
19.4007887704
 20
16.4269907908
 10
19.3971042298
 20
16.4045226753
 10
19.3933298042
 20
16.3828295916
 10
19.3894599702
 20
16.3618880396
 10
19.3854627994
 20
16.3413775631
 10
19.381350883
 20
16.3212912904
 10
19.3771199553
 20
16.3016385079
 10
19.3727076191
 20
16.2821215923
 10
19.368117711
 20
16.2627065127
 10
19.3633497803
 20
16.2434282155
 10
19.3583314401
 20
16.2240915495
 10
19.3530515897
 20
16.2046253483
 10
19.3475219536
 20
16.1851008228
 10
19.3417034574
 20
16.1655359874
 10
19.3355638064
 20
16.1458312609
 10
19.3291365361
 20
16.1260861688
 10
19.322484036
 20
16.1066178273
 10
19.3155976166
 20
16.0874323553
 10
19.3084922659
 20
16.0685245111
 10
19.3012700617
 20
16.0501952335
 10
19.2939575457
 20
16.032527485
 10
19.2865377562
 20
16.0154398722
 10
19.2790493584
 20
15.9989872457
 10
19.2714970456
 20
15.9831825255
 10
19.2638845865
 20
15.9680141763
 10
19.2562491381
 20
15.9535004276
 10
19.2485854921
 20
15.9396391146
 10
19.2409058723
 20
15.9264336429
 10
19.2332731746
 20
15.9139106496
 10
19.2257020247
 20
15.9020989929
 10
19.2181833799
 20
15.8909710289
 10
19.2107439667
 20
15.8804686248
 10
19.2033986571
 20
15.870607493
 10
19.196136323
 20
15.8613729373
 10
19.1889438759
 20
15.8526610759
 10
19.1818175948
 20
15.8444375065
 10
19.1747634194
 20
15.8367373952
 10
19.1677822948
 20
15.8295611218
  0
LWPOLYLINE
  5
35B
100
AcDbEntity
  8
218140000
100
AcDbPolyline
 62
7
  6
CONTINUOUS
 90
10
 70
0
 10
14.0540779007
 20
21.2453036171
 10
14.0901835203
 20
21.2295958922
 10
14.1257181227
 20
21.2135874048
 10
14.1606817078
 20
21.1972781547
 10
14.195084445
 20
21.1806630573
 10
14.228916165
 20
21.1637471973
 10
14.2621463598
 20
21.1465458287
 10
14.29476486
 20
21.1290640361
 10
14.3267818349
 20
21.1112967349
 10
14.3581972846
 20
21.0932439251
  0
LINE
  5
35C
100
AcDbEntity
  8
218140000
100
AcDbLine
 62
7
  6
CONTINUOUS
 10
13.8705400597
 20
21.321412685
 11
14.5020713807
 21
21.0056470245
  0
LINE
  5
35D
100
AcDbEntity
  8
218140000
100
AcDbLine
 62
7
  6
CONTINUOUS
 10
14.0540779007
 20
21.2453036171
 11
14.3581972846
 21
21.0932439251
  0
LWPOLYLINE
  5
35E
100
AcDbEntity
  8
218140000
100
AcDbPolyline
 62
7
  6
CONTINUOUS
 90
104
 70
0
 10
19.3308974335
 20
19.3003980208
 10
19.3436187604
 20
19.2911432087
 10
19.3884403729
 20
19.2572748872
 10
19.4329242205
 20
19.2223999749
 10
19.4770818812
 20
19.1865151873
 10
19.520912459
 20
19.149624996
 10
19.5643842122
 20
19.1117596622
 10
19.6074618334
 20
19.0729548254
 10
19.6501247547
 20
19.0332348032
 10
19.6923624622
 20
18.9926149992
 10
19.7341549643
 20
18.9511200696
 10
19.7754810909
 20
18.9087767992
 10
19.8163318452
 20
18.8656000147
 10
19.8567049677
 20
18.8215966378
 10
19.896595792
 20
18.776774955
 10
19.9359782651
 20
18.7311672779
 10
19.9748181911
 20
18.6848176553
 10
20.01308709
 20
18.6377661902
 10
20.0507857171
 20
18.5900179481
 10
20.087923455
 20
18.541564786
 10
20.1244991578
 20
18.492409646
 10
20.1604843539
 20
18.4425920711
 10
20.1958473058
 20
18.3921590305
 10
20.230564594
 20
18.3411485879
 10
20.2646336175
 20
18.2895691126
 10
20.2980541899
 20
18.2374237472
 10
20.330818162
 20
18.1847266374
 10
20.3629068601
 20
18.1315090807
 10
20.3943039975
 20
18.0777998369
 10
20.424995342
 20
18.0236252396
 10
20.454970276
 20
17.9690058586
 10
20.4842183101
 20
17.9139621786
 10
20.5127269144
 20
17.858518871
 10
20.5404848517
 20
17.8026986916
 10
20.5674835342
 20
17.7465192486
 10
20.5937121957
 20
17.6900026531
 10
20.6191586788
 20
17.6331745657
 10
20.6438123852
 20
17.5760578933
 10
20.6676629047
 20
17.5186755894
 10
20.6906991075
 20
17.4610529651
 10
20.7129097769
 20
17.4032164858
 10
20.7342822428
 20
17.3451977909
 10
20.7548095936
 20
17.2870139377
 10
20.7744889173
 20
17.2286692867
 10
20.7933156967
 20
17.1701702252
 10
20.8112738731
 20
17.11155896
 10
20.8283443006
 20
17.0528934054
 10
20.8445121714
 20
16.9942239514
 10
20.8597776282
 20
16.9355491276
 10
20.8741439002
 20
16.8768487973
 10
20.8876080911
 20
16.8181191808
 10
20.9001541615
 20
16.759412977
 10
20.9117659037
 20
16.7007942726
 10
20.9224328091
 20
16.6423101607
 10
20.9321533547
 20
16.5839617792
 10
20.940925739
 20
16.5257437282
 10
20.9487448724
 20
16.4676634822
 10
20.9556010977
 20
16.4097620988
 10
20.9614857666
 20
16.3520839274
 10
20.966393185
 20
16.294655318
 10
20.9703183693
 20
16.237497369
 10
20.9732557717
 20
16.1806452996
 10
20.9752009203
 20
16.1241322559
 10
20.9761504175
 20
16.0679712877
 10
20.976100284
 20
16.0121667415
 10
20.9750449703
 20
15.9567083118
 10
20.9729797832
 20
15.9016532799
 10
20.969905766
 20
15.8471048347
 10
20.96582734
 20
15.7931306544
 10
20.9607428692
 20
15.7397034483
 10
20.954645501
 20
15.6867825898
 10
20.9475232747
 20
15.6343257456
 10
20.9393807181
 20
15.5824207266
 10
20.9302400835
 20
15.531218609
 10
20.9201198585
 20
15.4807970295
 10
20.9090154095
 20
15.4311105285
 10
20.8969188385
 20
15.3821220712
 10
20.8838193223
 20
15.3338019937
 10
20.8697315443
 20
15.2862183511
 10
20.8546884452
 20
15.2394782267
 10
20.8387067562
 20
15.1936167446
 10
20.8217890126
 20
15.1486258717
 10
20.8039542976
 20
15.1045421013
 10
20.7852182807
 20
15.0613875086
 10
20.7655884627
 20
15.0191639154
 10
20.7450731733
 20
14.9778765203
 10
20.7236643106
 20
14.9375014824
 10
20.7013920075
 20
14.8980886409
 10
20.678329197
 20
14.8597476224
 10
20.6545362945
 20
14.8225452495
 10
20.6299954675
 20
14.7864214245
 10
20.6046637654
 20
14.7512954054
 10
20.5785238401
 20
14.7171376967
 10
20.5516207576
 20
14.6840019156
 10
20.5240030873
 20
14.6519357784
 10
20.4957059228
 20
14.6209633263
 10
20.4667337998
 20
14.591073212
 10
20.4370925158
 20
14.5622581952
 10
20.4068044731
 20
14.5345280496
 10
20.3758872283
 20
14.5078869952
 10
20.3443380139
 20
14.4823229249
 10
20.3121687127
 20
14.457838112
 10
20.2794072091
 20
14.434446389
 10
20.24607422
 20
14.4121545638
  0
LWPOLYLINE
  5
35F
100
AcDbEntity
  8
218140000
100
AcDbPolyline
 62
253
  6
CONTINUOUS
 90
104
 70
0
 10
19.3308974335
 20
19.2101764348
 10
19.3407138335
 20
19.2023068413
 10
19.3828700933
 20
19.1673585838
 10
19.4247800625
 20
19.1314557727
 10
19.4664253761
 20
19.0946141407
 10
19.5077877853
 20
19.0568498317
 10
19.5488491649
 20
19.0181793941
 10
19.5895915219
 20
18.9786197733
 10
19.6299970029
 20
18.9381883044
 10
19.6700479022
 20
18.8969027044
 10
19.7097266695
 20
18.8547810647
 10
19.7490159175
 20
18.811841843
 10
19.7878984297
 20
18.7681038554
 10
19.8263571677
 20
18.7235862678
 10
19.8643752789
 20
18.6783085879
 10
19.9019361037
 20
18.6322906563
 10
19.939023183
 20
18.5855526382
 10
19.9756202652
 20
18.5381150141
 10
20.0117113135
 20
18.4899985713
 10
20.0472805126
 20
18.4412243944
 10
20.0823122762
 20
18.3918138562
 10
20.1167912533
 20
18.3417886086
 10
20.1507023353
 20
18.2911705725
 10
20.1840306622
 20
18.2399819289
 10
20.2167616297
 20
18.1882451087
 10
20.2488808948
 20
18.1359827828
 10
20.2803743831
 20
18.0832178527
 10
20.311228294
 20
18.0299734401
 10
20.3414291073
 20
17.9762728766
 10
20.370963589
 20
17.9221396939
 10
20.3998187971
 20
17.8675976131
 10
20.4279820872
 20
17.8126705347
 10
20.4554411182
 20
17.7573825276
 10
20.4821838575
 20
17.7017578192
 10
20.5081985863
 20
17.6458207841
 10
20.5334739051
 20
17.5895959341
 10
20.5579987382
 20
17.5331079069
 10
20.5817623387
 20
17.4763814556
 10
20.6047542936
 20
17.4194414377
 10
20.6269645276
 20
17.3623128044
 10
20.6483833082
 20
17.3050205895
 10
20.6690012498
 20
17.2475898984
 10
20.6888093175
 20
17.1900458974
 10
20.7077988314
 20
17.1324138022
 10
20.7259614703
 20
17.0747188672
 10
20.7432892754
 20
17.0169863744
 10
20.7597746536
 20
16.9592416221
 10
20.7754103809
 20
16.9015099143
 10
20.7901896058
 20
16.8438165489
 10
20.8041058521
 20
16.7861868072
 10
20.8171530215
 20
16.7286459426
 10
20.829325397
 20
16.6712191695
 10
20.8406176444
 20
16.6139316523
 10
20.8510248156
 20
16.5568084945
 10
20.86054235
 20
16.4998747275
 10
20.8691660773
 20
16.4431552997
 10
20.8768922183
 20
16.3866750655
 10
20.8837173875
 20
16.3304587747
 10
20.8896385941
 20
16.2745310612
 10
20.8946532434
 20
16.2189164326
 10
20.8987591381
 20
16.1636392592
 10
20.9019544789
 20
16.1087237636
 10
20.9042378656
 20
16.0541940096
 10
20.9056082976
 20
16.0000738924
 10
20.9060651744
 20
15.9463871273
 10
20.9056082958
 20
15.89315724
 10
20.904237862
 20
15.8404075557
 10
20.9019544736
 20
15.7881611895
 10
20.898759131
 20
15.7364410357
 10
20.8946532346
 20
15.6852697581
 10
20.8896385834
 20
15.6346697799
 10
20.8837173751
 20
15.5846632742
 10
20.8768922041
 20
15.5352721538
 10
20.8691660613
 20
15.4865180619
 10
20.8605423324
 20
15.4384223626
 10
20.8510247962
 20
15.3910061314
 10
20.8406176233
 20
15.3442901462
 10
20.8293253741
 20
15.2982948779
 10
20.817152997
 20
15.2530404817
 10
20.8041058258
 20
15.208546788
 10
20.7901895779
 20
15.1648332941
 10
20.7754103513
 20
15.1219191552
 10
20.7597746223
 20
15.0798231763
 10
20.7432892425
 20
15.0385638039
 10
20.7259614358
 20
14.9981591178
 10
20.7077987952
 20
14.9586268235
 10
20.6888092797
 20
14.9199842439
 10
20.6690012104
 20
14.8822483124
 10
20.6483832673
 20
14.8454355647
 10
20.6269644851
 20
14.8095621322
 10
20.6047542496
 20
14.7746437348
 10
20.5817622932
 20
14.7406956736
 10
20.5579986912
 20
14.7077328248
 10
20.5334738566
 20
14.6757696327
 10
20.5081985364
 20
14.6448201035
 10
20.4821838061
 20
14.6148977993
 10
20.4554410654
 20
14.5860158321
 10
20.4279820331
 20
14.5581868581
 10
20.3998187416
 20
14.5314230719
 10
20.3709635322
 20
14.5057362013
 10
20.3414290492
 20
14.4811375024
 10
20.3112282346
 20
14.4576377544
 10
20.2803743224
 20
14.4352472548
 10
20.24607422
 20
14.4121545638
  0
LINE
  5
360
100
AcDbEntity
  8
218140000
100
AcDbLine
 62
253
  6
CONTINUOUS
 10
18.6360867582
 20
21.0842313421
 11
18.2931891822
 21
21.6756421777
  0
LWPOLYLINE
  5
361
100
AcDbEntity
  8
218140000
100
AcDbPolyline
 62
253
  6
CONTINUOUS
 90
25
 70
0
 10
12.1943144202
 20
24.9647815319
 10
12.1790667186
 20
24.971587356
 10
12.1635036455
 20
24.9777212877
 10
12.1476367582
 20
24.983178772
 10
12.1314778394
 20
24.9879557561
 10
12.1150388889
 20
24.9920486926
 10
12.0983321143
 20
24.995454542
 10
12.0813699223
 20
24.9981707752
 10
12.0641649089
 20
25.000195375
 10
12.0467298507
 20
25.001526838
 10
12.0290776951
 20
25.0021641755
 10
12.0112215507
 20
25.0021069141
 10
11.9931746776
 20
25.0013550963
 10
11.9749504774
 20
24.9999092805
 10
11.9565624836
 20
24.9977705404
 10
11.9380243512
 20
24.9949404641
 10
11.9193498467
 20
24.9914211534
 10
11.9005528378
 20
24.9872152216
 10
11.8816472834
 20
24.9823257921
 10
11.8626472229
 20
24.9767564958
 10
11.8435667657
 20
24.9705114686
 10
11.8244200811
 20
24.963595348
 10
11.8052213876
 20
24.9560132699
 10
11.7859849421
 20
24.947770865
 10
11.7667250299
 20
24.9388742539
  0
LINE
  5
362
100
AcDbEntity
  8
218140000
100
AcDbLine
 62
7
  6
CONTINUOUS
 10
13.8508405317
 20
23.3987230176
 11
16.9591146056
 21
21.8445859807
  0
LINE
  5
363
100
AcDbEntity
  8
218140000
100
AcDbLine
 62
253
  6
CONTINUOUS
 10
18.2931891822
 20
21.6756421777
 11
17.4691109476
 21
22.087681295
  0
LWPOLYLINE
  5
364
100
AcDbEntity
  8
218140000
100
AcDbPolyline
 62
253
  6
CONTINUOUS
 90
26
 70
0
 10
12.8063232987
 20
24.4190751195
 10
11.7475830976
 20
24.948444495
 10
11.7284463281
 20
24.9573454952
 10
11.7093292479
 20
24.9655704978
 10
11.6902463685
 20
24.9731132592
 10
11.6712121758
 20
24.9799680538
 10
11.6522411183
 20
24.9861296782
 10
11.6333475968
 20
24.9915934552
 10
11.6145459533
 20
24.9963552372
 10
11.5958504599
 20
25.0004114095
 10
11.5772753082
 20
25.0037588933
 10
11.5588345985
 20
25.0063951475
 10
11.5405423289
 20
25.0083181709
 10
11.5224123849
 20
25.0095265037
 10
11.5044585288
 20
25.0100192287
 10
11.4866943892
 20
25.0097959719
 10
11.4691334509
 20
25.0088569028
 10
11.451789044
 20
25.0072027342
 10
11.4346743346
 20
25.0048347217
 10
11.4178023143
 20
25.001754663
 10
11.4011857906
 20
24.997964896
 10
11.3848373769
 20
24.9934682975
 10
11.3687694831
 20
24.9882682809
 10
11.3529943063
 20
24.9823687935
 10
11.3375238212
 20
24.9757743134
 10
11.3351056049
 20
24.9746679602
  0
LINE
  5
365
100
AcDbEntity
  8
218140000
100
AcDbLine
 62
7
  6
CONTINUOUS
 10
18.6619812553
 20
21.7310459111
 11
17.8170787286
 21
22.1534971744
  0
LINE
  5
366
100
AcDbEntity
  8
218140000
100
AcDbLine
 62
7
  6
CONTINUOUS
 10
13.3281012788
 20
24.3979858993
 11
12.2015979105
 21
24.9612375835
  0
LWPOLYLINE
  5
367
100
AcDbEntity
  8
218140000
100
AcDbPolyline
 62
7
  6
CONTINUOUS
 90
30
 70
0
 10
13.3277974636
 20
24.3981348865
 10
13.3456203122
 20
24.3889531908
 10
13.3655167435
 20
24.378029572
 10
13.3854012551
 20
24.3664011669
 10
13.4052722813
 20
24.3540697242
 10
13.4250882141
 20
24.3410316361
 10
13.4448505471
 20
24.3272846383
 10
13.4645577866
 20
24.312830995
 10
13.4841638432
 20
24.2976738913
 10
13.5036700225
 20
24.2818105942
 10
13.5230750189
 20
24.2652438366
 10
13.5423288254
 20
24.2479850022
 10
13.5614325115
 20
24.2300309045
 10
13.5803850078
 20
24.21138473
 10
13.5991330988
 20
24.1920674225
 10
13.6176775027
 20
24.1720754328
 10
13.6360175013
 20
24.15141231
 10
13.654097725
 20
24.1301096451
 10
13.6719184103
 20
24.1081637013
 10
13.6894793206
 20
24.0855782154
 10
13.7067243766
 20
24.0623959883
 10
13.7236532764
 20
24.0386132548
 10
13.7402663218
 20
24.0142337802
 10
13.7565083395
 20
23.9893116609
 10
13.7723795782
 20
23.9638410897
 10
13.7878797892
 20
23.9378278739
 10
13.8029530527
 20
23.9113435324
 10
13.8175807287
 20
23.8844119046
 10
13.8317814572
 20
23.857009151
 10
13.8455552381
 20
23.8291352716
  0
LWPOLYLINE
  5
368
100
AcDbEntity
  8
218140000
100
AcDbPolyline
 62
7
  6
CONTINUOUS
 90
12
 70
0
 10
18.6621005049
 20
21.7309862856
 10
18.6680214715
 20
21.7278712015
 10
18.6751874497
 20
21.7236587824
 10
18.6820452192
 20
21.7191181536
 10
18.688591062
 20
21.7142538618
 10
18.6948280967
 20
21.7090671794
 10
18.7007527208
 20
21.7035629589
 10
18.7063615807
 20
21.6977461164
 10
18.7116583322
 20
21.6916181546
 10
18.7166397589
 20
21.6851842637
 10
18.7213028706
 20
21.6784496959
 10
18.7258795707
 20
21.671024811
  0
LINE
  5
369
100
AcDbEntity
  8
218140000
100
AcDbLine
 62
7
  6
CONTINUOUS
 10
18.988930007
 20
21.2173296996
 11
18.7258830707
 21
21.6710185539
  0
ELLIPSE
  5
36A
100
AcDbEntity
  8
290
100
AcDbEllipse
 62
7
  6
CONTINUOUS
 10
-12.7444929704
 20
21.3803733956
 30
0.0
 11
-0.2788336762
 21
0.7504028808
 31
0.0
 40
0.660854826
 41
-0.3090486207
 42
0.0320396926
  0
ELLIPSE
  5
36B
100
AcDbEntity
  8
290
100
AcDbEllipse
 62
7
  6
CONTINUOUS
 10
1.8215188966
 20
14.0973674621
 30
0.0
 11
-0.2782515188
 21
0.7500674241
 31
0.0
 40
0.6617094163
 41
-2.1859006333
 42
-0.8222376794
  0
ELLIPSE
  5
36C
100
AcDbEntity
  8
290
100
AcDbEllipse
 62
7
  6
CONTINUOUS
 10
-1.2901688216
 20
-23.7179436268
 30
0.0
 11
-0.2788336762
 21
0.7504028808
 31
0.0
 40
0.660854826
 41
-3.1737081954
 42
-2.187168432
  0
ELLIPSE
  5
36D
100
AcDbEntity
  8
218140000
100
AcDbEllipse
 62
7
  6
CONTINUOUS
 10
11.5898425023
 20
20.3168116757
 30
0.0
 11
2.7499924258
 21
-0.0130015067
 31
0.0
 40
0.4964289597
 41
2.3672681657
 42
2.9126804274
  0
ELLIPSE
  5
36E
100
AcDbEntity
  8
218140000
100
AcDbEllipse
 62
7
  6
CONTINUOUS
 10
13.1499045779
 20
23.369050261
 30
0.0
 11
0.4410298232
 21
0.8975092442
 31
0.0
 40
0.607010042
 41
-0.8902711325
 42
-0.7674076811
  0
ELLIPSE
  5
36F
100
AcDbEntity
  8
218140000
100
AcDbEllipse
 62
7
  6
CONTINUOUS
 10
12.2615939444
 20
20.2148882258
 30
0.0
 11
2.7583876426
 21
-0.0130411979
 31
0.0
 40
0.4964289597
 41
0.8884696282
 42
2.3585415194
  0
ELLIPSE
  5
370
100
AcDbEntity
  8
218140000
100
AcDbEllipse
 62
7
  6
CONTINUOUS
 10
12.2615939444
 20
20.2148882258
 30
0.0
 11
2.7583876426
 21
-0.0130411979
 31
0.0
 40
0.4964289597
 41
0.4455338943
 42
0.6870207571
  0
ELLIPSE
  5
371
100
AcDbEntity
  8
218140000
100
AcDbEllipse
 62
7
  6
CONTINUOUS
 10
12.2615939444
 20
22.1953763385
 30
0.0
 11
2.7583515655
 21
-1.4175703156
 31
0.0
 40
0.0109499087
 41
-0.8804952881
 42
-0.85781018
  0
ELLIPSE
  5
372
100
AcDbEntity
  8
218140000
100
AcDbEllipse
 62
7
  6
CONTINUOUS
 10
12.2615939444
 20
22.1953763385
 30
0.0
 11
2.7583515655
 21
-1.4175703156
 31
0.0
 40
0.0109499087
 41
-0.7017315251
 42
-0.679046417
  0
ELLIPSE
  5
373
100
AcDbEntity
  8
218140000
100
AcDbEllipse
 62
7
  6
CONTINUOUS
 10
12.2615939444
 20
20.6479009277
 30
0.0
 11
2.7583876426
 21
-0.0130411979
 31
0.0
 40
0.4964289597
 41
0.1921560671
 42
2.3585415194
  0
ELLIPSE
  5
374
100
AcDbEntity
  8
268
100
AcDbEllipse
 62
7
  6
CONTINUOUS
 10
0.1439687576
 20
-24.1296617395
 30
0.0
 11
0.110769438
 21
0.2241226716
 31
0.0
 40
0.6088015717
 41
-4.0304836828
 42
-3.1443955108
  0
ELLIPSE
  5
375
100
AcDbEntity
  8
268
100
AcDbEllipse
 62
7
  6
CONTINUOUS
 10
-13.2203494068
 20
24.1054728759
 30
0.0
 11
0.110769438
 21
0.2241226716
 31
0.0
 40
0.6088015717
 41
-4.0304836828
 42
-3.1443650652
  0
ELLIPSE
  5
376
100
AcDbEntity
  8
268
100
AcDbEllipse
 62
7
  6
CONTINUOUS
 10
0.1439687576
 20
17.4233137937
 30
0.0
 11
0.110769438
 21
0.2241226716
 31
0.0
 40
0.6088015717
 41
-4.0304836828
 42
-3.1443650652
  0
ELLIPSE
  5
377
100
AcDbEntity
  8
268
100
AcDbEllipse
 62
7
  6
CONTINUOUS
 10
4.2005766389
 20
16.1315957446
 30
0.0
 11
-0.1565168911
 21
0.3130623908
 31
0.0
 40
0.6123677712
 41
-2.2554744912
 42
-0.6846781644
  0
ELLIPSE
  5
378
100
AcDbEntity
  8
268
100
AcDbEllipse
 62
7
  6
CONTINUOUS
 10
4.2005766389
 20
-22.0449861001
 30
0.0
 11
-0.1565168911
 21
0.3130623908
 31
0.0
 40
0.6123677712
 41
-3.1363904945
 42
-2.2554744912
  0
ELLIPSE
  5
379
100
AcDbEntity
  8
268
100
AcDbEllipse
 62
7
  6
CONTINUOUS
 10
-1.5660189096
 20
25.2368270497
 30
0.0
 11
0.2999991737
 21
-0.0014183462
 31
0.0
 40
0.4964289597
 41
0.7877451926
 42
2.3527237553
  0
ELLIPSE
  5
37A
100
AcDbEntity
  8
268
100
AcDbEllipse
 62
7
  6
CONTINUOUS
 10
3.9884446045
 20
22.4595952926
 30
0.0
 11
0.2999991737
 21
-0.0014183462
 31
0.0
 40
0.4964289597
 41
0.7877451926
 42
2.3585415194
  0
ELLIPSE
  5
37B
100
AcDbEntity
  8
268
100
AcDbEllipse
 62
7
  6
CONTINUOUS
 10
3.52779674
 20
16.7491667554
 30
0.0
 11
0.110769438
 21
0.2241226716
 31
0.0
 40
0.6088015717
 41
1.2055040732
 42
2.2526937431
  0
ELLIPSE
  5
37C
100
AcDbEntity
  8
268
100
AcDbEllipse
 62
7
  6
CONTINUOUS
 10
-9.8365214244
 20
23.4313258377
 30
0.0
 11
0.110769438
 21
0.2241226716
 31
0.0
 40
0.6088015717
 41
1.2055040732
 42
2.2526937431
  0
ELLIPSE
  5
37D
100
AcDbEntity
  8
268
100
AcDbEllipse
 62
7
  6
CONTINUOUS
 10
3.8792932172
 20
17.6769719075
 30
0.0
 11
0.110769438
 21
0.2241226716
 31
0.0
 40
0.6088015717
 41
-1.9360885804
 42
-0.8888910292
  0
ELLIPSE
  5
37E
100
AcDbEntity
  8
268
100
AcDbEllipse
 62
7
  6
CONTINUOUS
 10
2.2591183608
 20
18.747988312
 30
0.0
 11
0.1128509832
 21
0.2230818409
 31
0.0
 40
0.6159267166
 41
0.0028979148
 42
0.6817883054
  0
ELLIPSE
  5
37F
100
AcDbEntity
  8
268
100
AcDbEllipse
 62
7
  6
CONTINUOUS
 10
0.1439687576
 20
17.6766851874
 30
0.0
 11
0.110769438
 21
0.2241226716
 31
0.0
 40
0.6088015717
 41
0.6877230618
 42
2.2527016244
  0
ELLIPSE
  5
380
100
AcDbEntity
  8
268
100
AcDbEllipse
 62
7
  6
CONTINUOUS
 10
-9.4850249473
 20
24.3591309897
 30
0.0
 11
0.110769438
 21
0.2241226716
 31
0.0
 40
0.6088015717
 41
-1.9360885804
 42
-0.8888910292
  0
ELLIPSE
  5
381
100
AcDbEntity
  8
268
100
AcDbEllipse
 62
7
  6
CONTINUOUS
 10
-11.1051998036
 20
25.4301473942
 30
0.0
 11
0.1128509832
 21
0.2230818409
 31
0.0
 40
0.6159267166
 41
0.0028979148
 42
0.6817883054
  0
ELLIPSE
  5
382
100
AcDbEntity
  8
268
100
AcDbEllipse
 62
7
  6
CONTINUOUS
 10
-13.2203494068
 20
24.3588442696
 30
0.0
 11
0.110769438
 21
0.2241226716
 31
0.0
 40
0.6088015717
 41
0.6877230618
 42
2.2527016244
  0
ELLIPSE
  5
383
100
AcDbEntity
  8
268
100
AcDbEllipse
 62
7
  6
CONTINUOUS
 10
3.8792932172
 20
-23.8835612083
 30
0.0
 11
0.110769438
 21
0.2241226716
 31
0.0
 40
0.6088015717
 41
-2.4538695918
 42
-0.8888910292
  0
ELLIPSE
  5
384
100
AcDbEntity
  8
268
100
AcDbEllipse
 62
7
  6
CONTINUOUS
 10
0.1439687576
 20
-23.8762903457
 30
0.0
 11
0.110769438
 21
0.2241226716
 31
0.0
 40
0.6088015717
 41
1.2055040732
 42
2.2527016244
  0
ELLIPSE
  5
385
100
AcDbEntity
  8
268
100
AcDbEllipse
 62
7
  6
CONTINUOUS
 10
3.8792932172
 20
-23.6226322319
 30
0.0
 11
0.110769438
 21
0.2241226716
 31
0.0
 40
0.6088015717
 41
5.394294278
 42
6.4414918292
  0
ELLIPSE
  5
386
100
AcDbEntity
  8
268
100
AcDbEllipse
 62
7
  6
CONTINUOUS
 10
-9.4850249473
 20
24.620059966
 30
0.0
 11
0.110769438
 21
0.2241226716
 31
0.0
 40
0.6088015717
 41
5.394294278
 42
6.9592728406
  0
ELLIPSE
  5
387
100
AcDbEntity
  8
268
100
AcDbEllipse
 62
7
  6
CONTINUOUS
 10
3.8792932172
 20
17.9379008838
 30
0.0
 11
0.110769438
 21
0.2241226716
 31
0.0
 40
0.6088015717
 41
5.394294278
 42
6.9592728406
  0
ELLIPSE
  5
388
100
AcDbEntity
  8
268
100
AcDbEllipse
 62
7
  6
CONTINUOUS
 10
-1.3855669325
 20
23.9147668798
 30
0.0
 11
0.2999981629
 21
-0.0021225547
 31
0.0
 40
0.4946372042
 41
-0.7818985079
 42
0.0034997008
  0
ELLIPSE
  5
389
100
AcDbEntity
  8
268
100
AcDbEllipse
 62
7
  6
CONTINUOUS
 10
4.1688965817
 20
21.1375351227
 30
0.0
 11
0.2999981629
 21
-0.0021225547
 31
0.0
 40
0.4946372042
 41
-0.7760807437
 42
0.0035109161
  0
ELLIPSE
  5
38A
100
AcDbEntity
  8
268
100
AcDbEllipse
 62
7
  6
CONTINUOUS
 10
-7.53451266
 20
22.3166456818
 30
0.0
 11
0.2999991335
 21
0.0014318851
 31
0.0
 40
0.5035541159
 41
8.6427941204
 42
10.207772683
  0
ELLIPSE
  5
38B
100
AcDbEntity
  8
268
100
AcDbEllipse
 62
7
  6
CONTINUOUS
 10
-13.5478035689
 20
22.5195755805
 30
0.0
 11
-0.1565168911
 21
0.3130623908
 31
0.0
 40
0.6123677712
 41
-0.6846781644
 42
0.8861181623
  0
ELLIPSE
  5
38C
100
AcDbEntity
  8
268
100
AcDbEllipse
 62
7
  6
CONTINUOUS
 10
1.7257029047
 20
14.8828223437
 30
0.0
 11
-0.1565168911
 21
0.3130623908
 31
0.0
 40
0.6123677712
 41
-2.2554744912
 42
-0.6846781644
  0
ELLIPSE
  5
38D
100
AcDbEntity
  8
268
100
AcDbEllipse
 62
7
  6
CONTINUOUS
 10
-1.7420035919
 20
19.4203911478
 30
0.0
 11
0.2999991335
 21
0.0014318851
 31
0.0
 40
0.5035541159
 41
-2.3585979313
 42
-0.7936193687
  0
ELLIPSE
  5
38E
100
AcDbEntity
  8
268
100
AcDbEllipse
 62
7
  6
CONTINUOUS
 10
-1.7420035919
 20
18.2061920719
 30
0.0
 11
0.2999980272
 21
0.0021530184
 31
0.0
 40
0.5053247124
 41
-2.3598210761
 42
-0.7948425135
  0
ELLIPSE
  5
38F
100
AcDbEntity
  8
268
100
AcDbEllipse
 62
7
  6
CONTINUOUS
 10
-7.53451266
 20
21.1024466059
 30
0.0
 11
0.2999980272
 21
0.0021530184
 31
0.0
 40
0.5053247124
 41
3.1379773283
 42
3.9233642311
  0
ELLIPSE
  5
390
100
AcDbEntity
  8
268
100
AcDbEllipse
 62
7
  6
CONTINUOUS
 10
4.1688965817
 20
22.3693693041
 30
0.0
 11
0.2999991737
 21
-0.0014183462
 31
0.0
 40
0.4964289597
 41
-0.77723337
 42
0.7877451926
  0
ELLIPSE
  5
391
100
AcDbEntity
  8
268
100
AcDbEllipse
 62
7
  6
CONTINUOUS
 10
-1.3855669325
 20
25.1466010611
 30
0.0
 11
0.2999991737
 21
-0.0014183462
 31
0.0
 40
0.4964289597
 41
-0.7830511342
 42
0.7877451926
  0
ELLIPSE
  5
392
100
AcDbEntity
  8
268
100
AcDbEllipse
 62
7
  6
CONTINUOUS
 10
1.7257029047
 20
-23.2710864334
 30
0.0
 11
-0.1565168911
 21
0.3130623908
 31
0.0
 40
0.6123677712
 41
2.4569144891
 42
4.0277108159
  0
ELLIPSE
  5
393
100
AcDbEntity
  8
268
100
AcDbEllipse
 62
7
  6
CONTINUOUS
 10
3.52779674
 20
-23.0504373839
 30
0.0
 11
0.110769438
 21
0.2241226716
 31
0.0
 40
0.6088015717
 41
2.2527095058
 42
3.2998991756
  0
ELLIPSE
  5
394
100
AcDbEntity
  8
268
100
AcDbEllipse
 62
7
  6
CONTINUOUS
 10
1.7518021332
 20
16.8727684996
 30
0.0
 11
0.1128509832
 21
0.2230818409
 31
0.0
 40
0.6159267166
 41
0.6934238338
 42
2.2584023964
  0
ELLIPSE
  5
395
100
AcDbEntity
  8
268
100
AcDbEllipse
 62
7
  6
CONTINUOUS
 10
1.7518021332
 20
16.6193971059
 30
0.0
 11
0.1128509832
 21
0.2230818409
 31
0.0
 40
0.6159267166
 41
-4.0247829108
 42
-2.9775853596
  0
ELLIPSE
  5
396
100
AcDbEntity
  8
268
100
AcDbEllipse
 62
7
  6
CONTINUOUS
 10
-11.6125160312
 20
23.5549275818
 30
0.0
 11
0.1128509832
 21
0.2230818409
 31
0.0
 40
0.6159267166
 41
0.6934238338
 42
2.2584023964
  0
ELLIPSE
  5
397
100
AcDbEntity
  8
268
100
AcDbEllipse
 62
7
  6
CONTINUOUS
 10
-11.6125160312
 20
23.3015561881
 30
0.0
 11
0.1128509832
 21
0.2230818409
 31
0.0
 40
0.6159267166
 41
-4.0247829108
 42
-2.9775853596
  0
ELLIPSE
  5
398
100
AcDbEntity
  8
268
100
AcDbEllipse
 62
7
  6
CONTINUOUS
 10
1.7518021332
 20
-24.9335784273
 30
0.0
 11
0.1128509832
 21
0.2230818409
 31
0.0
 40
0.6159267166
 41
-4.0247829108
 42
-2.4598043482
  0
ELLIPSE
  5
399
100
AcDbEntity
  8
268
100
AcDbEllipse
 62
7
  6
CONTINUOUS
 10
1.7518021332
 20
-24.6802070335
 30
0.0
 11
0.1128509832
 21
0.2230818409
 31
0.0
 40
0.6159267166
 41
1.2112048452
 42
2.2584023964
  0
ELLIPSE
  5
39A
100
AcDbEntity
  8
268
100
AcDbEllipse
 62
7
  6
CONTINUOUS
 10
0.0734965985
 20
-17.8294320666
 30
0.0
 11
-0.542618321
 21
0.8478124368
 31
0.0
 40
0.5451249042
 41
-3.2164376038
 42
-2.3115524019
  0
ENDSEC
  0
SECTION
  2
OBJECTS
  0
DICTIONARY
  5
C
100
AcDbDictionary
280
0
281
1
  3
ACAD_GROUP
350
D
  3
ACAD_MLINESTYLE
350
17
  3
ACAD_LAYOUT
350
1A
  3
ACAD_PLOTSETTINGS
350
19
  3
ACAD_PLOTSTYLENAME
350
E
  0
DICTIONARY
  5
D
102
{ACAD_REACTORS
330
C
102
}
100
AcDbDictionary
280
0
281
1
  0
ACDBDICTIONARYWDFLT
  5
E
102
{ACAD_REACTORS
330
C
102
}
100
AcDbDictionary
281
1
  3
Normal
350
F
100
AcDbDictionaryWithDefault
340
F
  0
DICTIONARY
  5
17
102
{ACAD_REACTORS
330
C
102
}
100
AcDbDictionary
280
0
281
1
  3
Standard
350
18
  0
DICTIONARY
  5
19
102
{ACAD_REACTORS
330
C
102
}
100
AcDbDictionary
281
1
  0
DICTIONARY
  5
1A
102
{ACAD_REACTORS
330
C
102
}
100
AcDbDictionary
281
1
  3
Model
350
39B
  3
Layout1
350
39C
  0
ACDBPLACEHOLDER
  5
F
102
{ACAD_REACTORS
330
E
102
}
  0
MLINESTYLE
  5
18
102
{ACAD_REACTORS
330
17
102
}
100
AcDbMlineStyle
  2
STANDARD
 70
0
  3

 62
256
 51
90.0
 52
90.0
 71
2
 49
0.5
 62
256
  6
BYLAYER
 49
-0.5
 62
256
  6
BYLAYER
  0
LAYOUT
  5
39B
102
{ACAD_REACTORS
330
1A
102
}
100
AcDbPlotSettings
  1

  2
none_device
  4
ISO_A4_(297.00_x_210.00_MM)
  6

 40
0.0
 41
0.0
 42
0.0
 43
0.0
 44
297.0
 45
210.0
 46
0.0
 47
0.0
 48
0.0
 49
0.0
140
0.0
141
0.0
142
1.0
143
1.0
 70
1024
 72
1
 73
0
 74
0
  7

 75
0
147
1.0
148
0.0
149
0.0
100
AcDbLayout
  1
Model
 70
0
 71
0
 10
0.0
 20
0.0
 11
297.0
 21
210.0
 12
0.0
 22
0.0
 32
0.0
 14
0.0
 24
0.0
 34
0.0
 15
0.0
 25
0.0
 35
0.0
146
0.0
 13
0.0
 23
0.0
 33
0.0
 16
1.0
 26
0.0
 36
0.0
 17
0.0
 27
1.0
 37
0.0
 76
0
330
223
345
0
346
0
  0
LAYOUT
  5
39C
102
{ACAD_REACTORS
330
1A
102
}
100
AcDbPlotSettings
  1

  2
none_device
  4
ISO_A4_(297.00_x_210.00_MM)
  6

 40
0.0
 41
0.0
 42
0.0
 43
0.0
 44
297.0
 45
210.0
 46
0.0
 47
0.0
 48
0.0
 49
0.0
140
0.0
141
0.0
142
1.0
143
1.0
 70
0
 72
1
 73
0
 74
0
  7

 75
0
147
1.0
148
0.0
149
0.0
100
AcDbLayout
  1
Layout1
 70
0
 71
1
 10
0.0
 20
0.0
 11
297.0
 21
210.0
 12
0.0
 22
0.0
 32
0.0
 14
0.0
 24
0.0
 34
0.0
 15
0.0
 25
0.0
 35
0.0
146
0.0
 13
0.0
 23
0.0
 33
0.0
 16
1.0
 26
0.0
 36
0.0
 17
0.0
 27
1.0
 37
0.0
 76
0
330
224
345
0
346
0
  0
ENDSEC
  0
EOF
